  0
SECTION
  2
HEADER
  9
$ACADVER
  1
AC1012
  9
$DWGCODEPAGE
  3
dos932
  9
$INSBASE
 10
0.0
 20
0.0
 30
0.0
  9
$EXTMIN
 10
77.0
 20
35.0
 30
0.0
  9
$EXTMAX
 10
2002.0
 20
1337.0
 30
0.0
  9
$LIMMIN
 10
0.0
 20
0.0
  9
$LIMMAX
 10
2079.0
 20
1470.0
  9
$ORTHOMODE
 70
     0
  9
$REGENMODE
 70
     1
  9
$FILLMODE
 70
     1
  9
$QTEXTMODE
 70
     0
  9
$MIRRTEXT
 70
     1
  9
$DRAGMODE
 70
     2
  9
$LTSCALE
 40
28.0
  9
$OSMODE
 70
   163
  9
$ATTMODE
 70
     1
  9
$TEXTSIZE
 40
28.0
  9
$TRACEWID
 40
0.05
  9
$TEXTSTYLE
  7
STANDARD
  9
$CLAYER
  8
0
  9
$CELTYPE
  6
BYLAYER
  9
$CECOLOR
 62
   256
  9
$CELTSCALE
 40
1.0
  9
$DELOBJ
 70
     1
  9
$DISPSILH
 70
     0
  9
$DIMSCALE
 40
7.0
  9
$DIMASZ
 40
2.8
  9
$DIMEXO
 40
1.0
  9
$DIMDLI
 40
5.0
  9
$DIMRND
 40
0.1
  9
$DIMDLE
 40
0.0
  9
$DIMEXE
 40
1.0
  9
$DIMTP
 40
0.0
  9
$DIMTM
 40
0.0
  9
$DIMTXT
 40
2.5
  9
$DIMCEN
 40
0.0
  9
$DIMTSZ
 40
0.0
  9
$DIMTOL
 70
     0
  9
$DIMLIM
 70
     0
  9
$DIMTIH
 70
     0
  9
$DIMTOH
 70
     0
  9
$DIMSE1
 70
     0
  9
$DIMSE2
 70
     0
  9
$DIMTAD
 70
     3
  9
$DIMZIN
 70
     8
  9
$DIMBLK
  1

  9
$DIMASO
 70
     1
  9
$DIMSHO
 70
     1
  9
$DIMPOST
  1

  9
$DIMAPOST
  1

  9
$DIMALT
 70
     0
  9
$DIMALTD
 70
     2
  9
$DIMALTF
 40
1.0
  9
$DIMLFAC
 40
1.0
  9
$DIMTOFL
 70
     1
  9
$DIMTVP
 40
0.0
  9
$DIMTIX
 70
     0
  9
$DIMSOXD
 70
     0
  9
$DIMSAH
 70
     1
  9
$DIMBLK1
  1
_OPEN
  9
$DIMBLK2
  1
_OPEN
  9
$DIMSTYLE
  2
DIM1
  9
$DIMCLRD
 70
     2
  9
$DIMCLRE
 70
     2
  9
$DIMCLRT
 70
     2
  9
$DIMTFAC
 40
0.7
  9
$DIMGAP
 40
0.85
  9
$DIMJUST
 70
     0
  9
$DIMSD1
 70
     0
  9
$DIMSD2
 70
     0
  9
$DIMTOLJ
 70
     1
  9
$DIMTZIN
 70
     8
  9
$DIMALTZ
 70
     8
  9
$DIMALTTZ
 70
     8
  9
$DIMFIT
 70
     3
  9
$DIMUPT
 70
     0
  9
$DIMUNIT
 70
     2
  9
$DIMDEC
 70
     2
  9
$DIMTDEC
 70
     3
  9
$DIMALTU
 70
     2
  9
$DIMALTTD
 70
     3
  9
$DIMTXSTY
  7
DIM
  9
$DIMAUNIT
 70
     0
  9
$LUNITS
 70
     2
  9
$LUPREC
 70
     4
  9
$SKETCHINC
 40
0.1
  9
$FILLETRAD
 40
0.0
  9
$AUNITS
 70
     0
  9
$AUPREC
 70
     0
  9
$MENU
  1
C:\ACADR13\WIN\SUPPORT\ACAD.mnc
  9
$ELEVATION
 40
0.0
  9
$PELEVATION
 40
0.0
  9
$THICKNESS
 40
0.0
  9
$LIMCHECK
 70
     0
  9
$BLIPMODE
 70
     1
  9
$CHAMFERA
 40
0.0
  9
$CHAMFERB
 40
0.0
  9
$CHAMFERC
 40
0.0
  9
$CHAMFERD
 40
0.0
  9
$SKPOLY
 70
     0
  9
$TDCREATE
 40
2451592.409667916
  9
$TDUPDATE
 40
2451967.665445057
  9
$TDINDWG
 40
0.0056344560
  9
$TDUSRTIMER
 40
0.0056344560
  9
$USRTIMER
 70
     1
  9
$ANGBASE
 50
0.0
  9
$ANGDIR
 70
     0
  9
$PDMODE
 70
     0
  9
$PDSIZE
 40
0.0
  9
$PLINEWID
 40
0.0
  9
$COORDS
 70
     1
  9
$SPLFRAME
 70
     0
  9
$SPLINETYPE
 70
     6
  9
$SPLINESEGS
 70
     8
  9
$ATTDIA
 70
     0
  9
$ATTREQ
 70
     1
  9
$HANDLING
 70
     1
  9
$HANDSEED
  5
42C2
  9
$SURFTAB1
 70
     6
  9
$SURFTAB2
 70
     6
  9
$SURFTYPE
 70
     6
  9
$SURFU
 70
     6
  9
$SURFV
 70
     6
  9
$UCSNAME
  2

  9
$UCSORG
 10
0.0
 20
0.0
 30
0.0
  9
$UCSXDIR
 10
1.0
 20
0.0
 30
0.0
  9
$UCSYDIR
 10
0.0
 20
1.0
 30
0.0
  9
$PUCSNAME
  2

  9
$PUCSORG
 10
0.0
 20
0.0
 30
0.0
  9
$PUCSXDIR
 10
1.0
 20
0.0
 30
0.0
  9
$PUCSYDIR
 10
0.0
 20
1.0
 30
0.0
  9
$USERI1
 70
     0
  9
$USERI2
 70
     0
  9
$USERI3
 70
     0
  9
$USERI4
 70
     0
  9
$USERI5
 70
     0
  9
$USERR1
 40
0.0
  9
$USERR2
 40
0.0
  9
$USERR3
 40
0.0
  9
$USERR4
 40
0.0
  9
$USERR5
 40
0.0
  9
$WORLDVIEW
 70
     1
  9
$SHADEDGE
 70
     3
  9
$SHADEDIF
 70
    70
  9
$TILEMODE
 70
     1
  9
$MAXACTVP
 70
    16
  9
$PINSBASE
 10
0.0
 20
0.0
 30
0.0
  9
$PLIMCHECK
 70
     0
  9
$PEXTMIN
 10
1.000000E+20
 20
1.000000E+20
 30
1.000000E+20
  9
$PEXTMAX
 10
-1.000000E+20
 20
-1.000000E+20
 30
-1.000000E+20
  9
$PLIMMIN
 10
0.0
 20
0.0
  9
$PLIMMAX
 10
20.0
 20
147.0
  9
$UNITMODE
 70
     0
  9
$VISRETAIN
 70
     0
  9
$PLINEGEN
 70
     0
  9
$PSLTSCALE
 70
     1
  9
$TREEDEPTH
 70
  3020
  9
$PICKSTYLE
 70
     1
  9
$CMLSTYLE
  2
STANDARD
  9
$CMLJUST
 70
     0
  9
$CMLSCALE
 40
1.0
  9
$SAVEIMAGES
 70
     1
  0
ENDSEC
  0
SECTION
  2
CLASSES
  0
CLASS
  1
LWPOLYLINE
  2
AcDbPolyline
  3
"AutoCAD"
 90
    32768
280
     0
281
     1
  0
ENDSEC
  0
SECTION
  2
TABLES
  0
TABLE
  2
VPORT
  5
8
100
AcDbSymbolTable
 70
     2
  0
VPORT
  5
42C1
100
AcDbSymbolTableRecord
100
AcDbViewportTableRecord
  2
*ACTIVE
 70
     0
 10
0.0
 20
0.0
 11
1.0
 21
1.0
 12
1386.956155
 22
787.120538
 13
0.0
 23
0.0
 14
1.0
 24
1.0
 15
0.0
 25
0.0
 16
0.0
 26
0.0
 36
1.0
 17
0.0
 27
0.0
 37
0.0
 40
1574.241075
 41
1.762063
 42
50.0
 43
0.0
 44
0.0
 50
0.0
 51
0.0
 71
     0
 72
   100
 73
     1
 74
     1
 75
     0
 76
     0
 77
     0
 78
     0
  0
ENDTAB
  0
TABLE
  2
LTYPE
  5
5
100
AcDbSymbolTable
 70
     5
  0
LTYPE
  5
12
100
AcDbSymbolTableRecord
100
AcDbLinetypeTableRecord
  2
BYBLOCK
 70
     0
  3

 72
    65
 73
     0
 40
0.0
  0
LTYPE
  5
13
100
AcDbSymbolTableRecord
100
AcDbLinetypeTableRecord
  2
BYLAYER
 70
     0
  3

 72
    65
 73
     0
 40
0.0
  0
LTYPE
  5
14
100
AcDbSymbolTableRecord
100
AcDbLinetypeTableRecord
  2
CONTINUOUS
 70
     0
  3
Solid line
 72
    65
 73
     0
 40
0.0
  0
ENDTAB
  0
TABLE
  2
LAYER
  5
2
100
AcDbSymbolTable
 70
     3
  0
LAYER
  5
F
100
AcDbSymbolTableRecord
100
AcDbLayerTableRecord
  2
0
 70
     0
 62
     7
  6
CONTINUOUS
  0
ENDTAB
  0
TABLE
  2
STYLE
  5
3
100
AcDbSymbolTable
 70
     3
  0
STYLE
  5
10
100
AcDbSymbolTableRecord
100
AcDbTextStyleTableRecord
  2
STANDARD
 70
     0
 40
0.0
 41
0.8
 50
0.0
 71
     0
 42
28.0
  3
simplex
  4
extfont
  0
STYLE
  5
237C
100
AcDbSymbolTableRecord
100
AcDbTextStyleTableRecord
  2
PTSH
 70
     0
 40
0.0
 41
0.9
 50
0.0
 71
     0
 42
4.0
  3
SIMPLEX
  4
EXTFONT
  0
STYLE
  5
2592
100
AcDbSymbolTableRecord
100
AcDbTextStyleTableRecord
  2
DIM
 70
     0
 40
0.0
 41
0.8
 50
0.0
 71
     0
 42
4.0
  3
simplex
  4
extfont
  0
ENDTAB
  0
TABLE
  2
VIEW
  5
6
100
AcDbSymbolTable
 70
     0
  0
ENDTAB
  0
TABLE
  2
UCS
  5
7
100
AcDbSymbolTable
 70
     0
  0
ENDTAB
  0
TABLE
  2
APPID
  5
9
100
AcDbSymbolTable
 70
     1
  0
APPID
  5
11
100
AcDbSymbolTableRecord
100
AcDbRegAppTableRecord
  2
ACAD
 70
     0
  0
ENDTAB
  0
TABLE
  2
DIMSTYLE
  5
A
100
AcDbSymbolTable
 70
     1
  0
DIMSTYLE
105
2237
100
AcDbSymbolTableRecord
100
AcDbDimStyleTableRecord
  2
DIM1
 70
     0
  3

  4

  5

  6
_OPEN
  7
_OPEN
 40
7.0
 41
2.8
 42
1.0
 43
5.0
 44
1.0
 45
0.1
 46
0.0
 47
0.0
 48
0.0
140
2.5
141
0.0
142
0.0
143
1.0
144
1.0
145
0.0
146
0.7
147
0.85
 71
     0
 72
     0
 73
     0
 74
     0
 75
     0
 76
     0
 77
     3
 78
     8
170
     0
171
     2
172
     1
173
     1
174
     0
175
     0
176
     2
177
     2
178
     2
270
     2
271
     2
272
     3
273
     2
274
     3
340
2592
275
     0
280
     0
281
     0
282
     0
283
     1
284
     8
285
     8
286
     8
287
     3
288
     0
  0
ENDTAB
  0
TABLE
  2
BLOCK_RECORD
  5
1
100
AcDbSymbolTable
 70
     1
  0
BLOCK_RECORD
  5
18
100
AcDbSymbolTableRecord
100
AcDbBlockTableRecord
  2
*MODEL_SPACE
  0
BLOCK_RECORD
  5
15
100
AcDbSymbolTableRecord
100
AcDbBlockTableRecord
  2
*PAPER_SPACE
  0
BLOCK_RECORD
  5
2448
100
AcDbSymbolTableRecord
100
AcDbBlockTableRecord
  2
_OPEN
  0
ENDTAB
  0
ENDSEC
  0
SECTION
  2
BLOCKS
  0
BLOCK
  5
3C
100
AcDbEntity
  8
0
100
AcDbBlockBegin
  2
*MODEL_SPACE
 70
     0
 10
0.0
 20
0.0
 30
0.0
  3
*MODEL_SPACE
  1

  0
ENDBLK
  5
3D
100
AcDbEntity
  8
0
100
AcDbBlockEnd
  0
BLOCK
  5
3A
100
AcDbEntity
 67
     1
  8
0
100
AcDbBlockBegin
  2
*PAPER_SPACE
 70
     0
 10
0.0
 20
0.0
 30
0.0
  3
*PAPER_SPACE
  1

  0
ENDBLK
  5
3B
100
AcDbEntity
 67
     1
  8
0
100
AcDbBlockEnd
  0
BLOCK
  5
2449
100
AcDbEntity
  8
0
 48
4.0
100
AcDbBlockBegin
  2
_OPEN
 70
     0
 10
0.0
 20
0.0
 30
0.0
  3
_OPEN
  1
H1111.DWG
  0
LINE
  5
244A
100
AcDbEntity
  8
0
  6
BYBLOCK
 62
     0
 48
4.0
100
AcDbLine
 10
-1.0
 20
0.166667
 30
0.0
 11
0.0
 21
0.0
 31
0.0
  0
LINE
  5
244B
100
AcDbEntity
  8
0
  6
BYBLOCK
 62
     0
 48
4.0
100
AcDbLine
 10
0.0
 20
0.0
 30
0.0
 11
-1.0
 21
-0.166667
 31
0.0
  0
LINE
  5
244C
100
AcDbEntity
  8
0
  6
BYBLOCK
 62
     0
 48
4.0
100
AcDbLine
 10
0.0
 20
0.0
 30
0.0
 11
-1.0
 21
0.0
 31
0.0
  0
ENDBLK
  5
244D
100
AcDbEntity
  8
0
 48
4.0
100
AcDbBlockEnd
  0
ENDSEC
  0
SECTION
  2
ENTITIES
  0
MTEXT
  5
ADA
100
AcDbEntity
  8
0
100
AcDbMText
 10
2660.974958
 20
348.924178
 30
0.0
 40
1.4
 41
330.585254
 71
     1
 72
     1
  1

  0
MTEXT
  5
ADB
100
AcDbEntity
  8
0
100
AcDbMText
 10
2723.349532
 20
404.955556
 30
0.0
 40
1.4
 41
318.110339
 71
     1
 72
     1
  1

  0
MTEXT
  5
ADC
100
AcDbEntity
  8
0
100
AcDbMText
 10
2685.924788
 20
-335.903725
 30
0.0
 40
1.4
 41
361.772541
 71
     1
 72
     1
  1

  0
TEXT
  5
2529
100
AcDbEntity
  8
0
  6
CONTINUOUS
100
AcDbText
 10
1901.3
 20
47.25
 30
0.0
 40
21.0
  1
BT3N
 41
0.9
  7
PTSH
 72
     2
 11
1967.0
 21
57.75
 31
0.0
100
AcDbText
 73
     2
  0
POLYLINE
  5
2563
100
AcDbEntity
  8
0
100
AcDb2dPolyline
 66
     1
 10
0.0
 20
0.0
 30
0.0
 70
     1
  0
VERTEX
  5
42A7
100
AcDbEntity
  8
0
100
AcDbVertex
100
AcDb2dVertex
 10
77.0
 20
35.0
 30
0.0
  0
VERTEX
  5
42A8
100
AcDbEntity
  8
0
100
AcDbVertex
100
AcDb2dVertex
 10
2002.0
 20
35.0
 30
0.0
  0
VERTEX
  5
42A9
100
AcDbEntity
  8
0
100
AcDbVertex
100
AcDb2dVertex
 10
2002.0
 20
1337.0
 30
0.0
  0
VERTEX
  5
42AA
100
AcDbEntity
  8
0
100
AcDbVertex
100
AcDb2dVertex
 10
77.0
 20
1337.0
 30
0.0
  0
SEQEND
  5
42AB
100
AcDbEntity
  8
0
  0
LINE
  5
3CB5
100
AcDbEntity
  8
0
100
AcDbLine
 10
356.782206
 20
630.446215
 30
0.0
 11
356.782206
 21
614.945525
 31
0.0
  0
LINE
  5
3CB6
100
AcDbEntity
  8
0
100
AcDbLine
 10
374.782206
 20
630.446215
 30
0.0
 11
374.782206
 21
614.945525
 31
0.0
  0
LINE
  5
3CB7
100
AcDbEntity
  8
0
100
AcDbLine
 10
737.758409
 20
630.446215
 30
0.0
 11
737.758409
 21
626.443455
 31
0.0
  0
LINE
  5
3CB8
100
AcDbEntity
  8
0
100
AcDbLine
 10
667.863895
 20
599.424821
 30
0.0
 11
684.063415
 21
627.444145
 31
0.0
  0
LINE
  5
3CB9
100
AcDbEntity
  8
0
100
AcDbLine
 10
682.884965
 20
629.445525
 30
0.0
 11
666.712211
 21
601.426201
 31
0.0
  0
LINE
  5
3CBA
100
AcDbEntity
  8
0
100
AcDbLine
 10
674.514792
 20
616.946905
 30
0.0
 11
682.302383
 21
630.446215
 31
0.0
  0
LINE
  5
3CBB
100
AcDbEntity
  8
0
100
AcDbLine
 10
929.896044
 20
630.446215
 30
0.0
 11
929.896044
 21
614.945525
 31
0.0
  0
LINE
  5
3CBC
100
AcDbEntity
  8
0
100
AcDbLine
 10
947.896044
 20
630.446215
 30
0.0
 11
947.896044
 21
614.945525
 31
0.0
  0
TEXT
  5
3CBD
100
AcDbEntity
  8
0
100
AcDbText
 10
578.137827
 20
353.264957
 30
0.0
 40
25.0
  1
15A,20A
 41
0.8
 72
     4
 11
637.185446
 21
363.384005
 31
0.0
100
AcDbText
  0
TEXT
  5
3CBE
100
AcDbEntity
  8
0
100
AcDbText
 10
136.524309
 20
521.330972
 30
0.0
 40
30.0
  1
正面
100
AcDbText
  0
LINE
  5
3CBF
100
AcDbEntity
  8
0
100
AcDbLine
 10
399.807163
 20
460.033946
 30
0.0
 11
399.807163
 21
467.481945
 31
0.0
  0
LINE
  5
3CC0
100
AcDbEntity
  8
0
100
AcDbLine
 10
386.807163
 20
460.033946
 30
0.0
 11
386.807163
 21
467.481945
 31
0.0
  0
ELLIPSE
  5
3CC1
100
AcDbEntity
  8
0
100
AcDbEllipse
 10
342.782206
 20
467.156484
 30
0.0
 11
-15.00000000000005
 21
-0.0000000000000284
 31
0.0
210
0.0
220
0.0
230
1.0
 40
0.984798
 41
6.283185307179586
 42
7.853981633974482
  0
ELLIPSE
  5
3CC2
100
AcDbEntity
  8
0
100
AcDbEllipse
 10
342.782206
 20
465.484228
 30
0.0
 11
-15.00000000000005
 21
-0.0000000000000284
 31
0.0
210
0.0
220
0.0
230
1.0
 40
0.984798
 41
6.283185307179586
 42
7.853981633974482
  0
ELLIPSE
  5
3CC3
100
AcDbEntity
  8
0
100
AcDbEllipse
 10
342.782206
 20
465.22389
 30
0.0
 11
-15.00000000000005
 21
-0.0000000000000284
 31
0.0
210
0.0
220
0.0
230
1.0
 40
0.984798
 41
6.283185307179586
 42
7.853981633974482
  0
LINE
  5
3CC4
100
AcDbEntity
  8
0
100
AcDbLine
 10
331.757249
 20
460.033946
 30
0.0
 11
331.757249
 21
467.481945
 31
0.0
  0
LINE
  5
3CC5
100
AcDbEntity
  8
0
100
AcDbLine
 10
344.757249
 20
460.033946
 30
0.0
 11
344.757249
 21
467.481945
 31
0.0
  0
ELLIPSE
  5
3CC6
100
AcDbEntity
  8
0
100
AcDbEllipse
 10
338.257249
 20
463.786946
 30
0.0
 11
6.300000000000011
 21
0.0
 31
0.0
210
0.0
220
0.0
230
-1.0
 40
0.984808
 41
0.0
 42
6.283185307179586
  0
ARC
  5
3CC7
100
AcDbEntity
  8
0
100
AcDbCircle
 10
334.782419
 20
472.414846
 30
0.0
 40
14.000213
100
AcDbArc
 50
180.002873
 51
241.908408
  0
ELLIPSE
  5
3CC8
100
AcDbEntity
  8
0
100
AcDbEllipse
 10
388.782206
 20
467.156484
 30
0.0
 11
15.00000000000005
 21
-0.0000000000000284
 31
0.0
210
0.0
220
0.0
230
-1.0
 40
0.984798
 41
6.283185307179586
 42
7.853981633974482
  0
ELLIPSE
  5
3CC9
100
AcDbEntity
  8
0
100
AcDbEllipse
 10
388.782206
 20
465.484228
 30
0.0
 11
15.00000000000005
 21
-0.0000000000000284
 31
0.0
210
0.0
220
0.0
230
-1.0
 40
0.984798
 41
6.283185307179586
 42
7.853981633974482
  0
ELLIPSE
  5
3CCA
100
AcDbEntity
  8
0
100
AcDbEllipse
 10
388.782206
 20
465.22389
 30
0.0
 11
15.00000000000005
 21
-0.0000000000000284
 31
0.0
210
0.0
220
0.0
230
-1.0
 40
0.984798
 41
6.283185307179586
 42
7.853981633974482
  0
ELLIPSE
  5
3CCB
100
AcDbEntity
  8
0
100
AcDbEllipse
 10
393.307163
 20
463.786946
 30
0.0
 11
-6.300000000000011
 21
0.0
 31
0.0
210
0.0
220
0.0
230
1.0
 40
0.984808
 41
0.0
 42
6.283185307179586
  0
ELLIPSE
  5
3CCC
100
AcDbEntity
  8
0
100
AcDbEllipse
 10
342.782206
 20
463.484794
 30
0.0
 11
-15.00000000000005
 21
-0.0000000000000284
 31
0.0
210
0.0
220
0.0
230
1.0
 40
0.984798
 41
6.283185307179586
 42
7.853981633974482
  0
ELLIPSE
  5
3CCD
100
AcDbEntity
  8
0
100
AcDbEllipse
 10
388.782206
 20
463.484794
 30
0.0
 11
15.00000000000005
 21
-0.0000000000000284
 31
0.0
210
0.0
220
0.0
230
-1.0
 40
0.984798
 41
6.283185307179586
 42
7.853981633974482
  0
LINE
  5
3CCE
100
AcDbEntity
  8
0
100
AcDbLine
 10
317.782206
 20
472.888244
 30
0.0
 11
317.782206
 21
446.888244
 31
0.0
  0
LINE
  5
3CCF
100
AcDbEntity
  8
0
100
AcDbLine
 10
410.782206
 20
472.888244
 30
0.0
 11
410.782206
 21
446.888244
 31
0.0
  0
LINE
  5
3CD0
100
AcDbEntity
  8
0
100
AcDbLine
 10
388.782206
 20
452.384517
 30
0.0
 11
342.782206
 21
452.384517
 31
0.0
  0
LINE
  5
3CD1
100
AcDbEntity
  8
0
100
AcDbLine
 10
388.782206
 20
450.712261
 30
0.0
 11
342.782206
 21
450.712261
 31
0.0
  0
LINE
  5
3CD2
100
AcDbEntity
  8
0
100
AcDbLine
 10
388.782206
 20
450.451923
 30
0.0
 11
342.782206
 21
450.451923
 31
0.0
  0
LINE
  5
3CD3
100
AcDbEntity
  8
0
100
AcDbLine
 10
388.782206
 20
448.712826
 30
0.0
 11
342.782206
 21
448.712826
 31
0.0
  0
LINE
  5
3CD4
100
AcDbEntity
  8
0
100
AcDbLine
 10
408.782206
 20
444.888244
 30
0.0
 11
319.782206
 21
444.888244
 31
0.0
  0
LINE
  5
3CD5
100
AcDbEntity
  8
0
100
AcDbLine
 10
331.757249
 20
458.964369
 30
0.0
 11
338.257249
 21
455.267401
 31
0.0
  0
LINE
  5
3CD6
100
AcDbEntity
  8
0
100
AcDbLine
 10
331.757249
 20
460.033946
 30
0.0
 11
338.257249
 21
456.336978
 31
0.0
  0
LINE
  5
3CD7
100
AcDbEntity
  8
0
100
AcDbLine
 10
331.757249
 20
460.033946
 30
0.0
 11
331.757249
 21
458.964369
 31
0.0
  0
ARC
  5
3CD8
100
AcDbEntity
  8
0
100
AcDbCircle
 10
319.782206
 20
446.888244
 30
0.0
 40
2.0
100
AcDbArc
 50
180.0
 51
270.0
  0
LINE
  5
3CD9
100
AcDbEntity
  8
0
100
AcDbLine
 10
338.257249
 20
456.336978
 30
0.0
 11
338.257249
 21
455.267401
 31
0.0
  0
LINE
  5
3CDA
100
AcDbEntity
  8
0
100
AcDbLine
 10
344.757249
 20
460.033946
 30
0.0
 11
344.757249
 21
458.964369
 31
0.0
  0
LINE
  5
3CDB
100
AcDbEntity
  8
0
100
AcDbLine
 10
344.757249
 20
458.964369
 30
0.0
 11
338.257249
 21
455.267401
 31
0.0
  0
LINE
  5
3CDC
100
AcDbEntity
  8
0
100
AcDbLine
 10
344.757249
 20
460.033946
 30
0.0
 11
338.257249
 21
456.336978
 31
0.0
  0
LINE
  5
3CDD
100
AcDbEntity
  8
0
100
AcDbLine
 10
399.807163
 20
460.033946
 30
0.0
 11
393.307163
 21
456.336978
 31
0.0
  0
LINE
  5
3CDE
100
AcDbEntity
  8
0
100
AcDbLine
 10
399.807163
 20
458.964369
 30
0.0
 11
393.307163
 21
455.267401
 31
0.0
  0
LINE
  5
3CDF
100
AcDbEntity
  8
0
100
AcDbLine
 10
393.307163
 20
456.336978
 30
0.0
 11
393.307163
 21
455.267401
 31
0.0
  0
LINE
  5
3CE0
100
AcDbEntity
  8
0
100
AcDbLine
 10
386.807163
 20
460.033946
 30
0.0
 11
386.807163
 21
458.964369
 31
0.0
  0
LINE
  5
3CE1
100
AcDbEntity
  8
0
100
AcDbLine
 10
386.807163
 20
460.033946
 30
0.0
 11
393.307163
 21
456.336978
 31
0.0
  0
LINE
  5
3CE2
100
AcDbEntity
  8
0
100
AcDbLine
 10
386.807163
 20
458.964369
 30
0.0
 11
393.307163
 21
455.267401
 31
0.0
  0
LINE
  5
3CE3
100
AcDbEntity
  8
0
100
AcDbLine
 10
399.807163
 20
460.033946
 30
0.0
 11
399.807163
 21
458.964369
 31
0.0
  0
ARC
  5
3CE4
100
AcDbEntity
  8
0
100
AcDbCircle
 10
408.782206
 20
446.888244
 30
0.0
 40
2.0
100
AcDbArc
 50
270.0
 51
0.0
  0
POLYLINE
  5
3CE5
100
AcDbEntity
  8
0
100
AcDb2dPolyline
 66
     1
 10
0.0
 20
0.0
 30
0.0
 70
     1
  0
VERTEX
  5
42AC
100
AcDbEntity
  8
0
100
AcDbVertex
100
AcDb2dVertex
 10
384.782206
 20
567.865146
 30
0.0
  0
VERTEX
  5
42AD
100
AcDbEntity
  8
0
100
AcDbVertex
100
AcDb2dVertex
 10
365.782206
 20
578.834801
 30
0.0
  0
VERTEX
  5
42AE
100
AcDbEntity
  8
0
100
AcDbVertex
100
AcDb2dVertex
 10
346.782206
 20
567.865146
 30
0.0
  0
VERTEX
  5
42AF
100
AcDbEntity
  8
0
100
AcDbVertex
100
AcDb2dVertex
 10
346.782206
 20
545.925835
 30
0.0
  0
VERTEX
  5
42B0
100
AcDbEntity
  8
0
100
AcDbVertex
100
AcDb2dVertex
 10
365.782206
 20
534.95618
 30
0.0
  0
VERTEX
  5
42B1
100
AcDbEntity
  8
0
100
AcDbVertex
100
AcDb2dVertex
 10
384.782206
 20
545.925835
 30
0.0
  0
SEQEND
  5
42B2
100
AcDbEntity
  8
0
  0
POLYLINE
  5
3CE6
100
AcDbEntity
  8
0
100
AcDb2dPolyline
 66
     1
 10
0.0
 20
0.0
 30
0.0
 70
     1
  0
VERTEX
  5
42B3
100
AcDbEntity
  8
0
100
AcDbVertex
100
AcDb2dVertex
 10
384.782206
 20
567.865146
 30
0.0
  0
VERTEX
  5
42B4
100
AcDbEntity
  8
0
100
AcDbVertex
100
AcDb2dVertex
 10
365.782206
 20
578.834801
 30
0.0
  0
VERTEX
  5
42B5
100
AcDbEntity
  8
0
100
AcDbVertex
100
AcDb2dVertex
 10
346.782206
 20
567.865146
 30
0.0
  0
VERTEX
  5
42B6
100
AcDbEntity
  8
0
100
AcDbVertex
100
AcDb2dVertex
 10
346.782206
 20
545.925835
 30
0.0
  0
VERTEX
  5
42B7
100
AcDbEntity
  8
0
100
AcDbVertex
100
AcDb2dVertex
 10
365.782206
 20
534.95618
 30
0.0
  0
VERTEX
  5
42B8
100
AcDbEntity
  8
0
100
AcDbVertex
100
AcDb2dVertex
 10
384.782206
 20
545.925835
 30
0.0
  0
SEQEND
  5
42B9
100
AcDbEntity
  8
0
  0
LINE
  5
3CE7
100
AcDbEntity
  8
0
100
AcDbLine
 10
384.782206
 20
599.424821
 30
0.0
 11
346.782206
 21
599.424821
 31
0.0
  0
LINE
  5
3CE8
100
AcDbEntity
  8
0
100
AcDbLine
 10
346.769094
 20
590.41861
 30
0.0
 11
384.795319
 21
590.41861
 31
0.0
  0
LINE
  5
3CE9
100
AcDbEntity
  8
0
100
AcDbLine
 10
384.782206
 20
601.426201
 30
0.0
 11
346.782206
 21
601.426201
 31
0.0
  0
LINE
  5
3CEA
100
AcDbEntity
  8
0
100
AcDbLine
 10
388.782206
 20
527.350993
 30
0.0
 11
342.782206
 21
527.350993
 31
0.0
  0
CIRCLE
  5
3CEB
100
AcDbEntity
  8
0
100
AcDbCircle
 10
365.782206
 20
556.895491
 30
0.0
 40
24.0
  0
ELLIPSE
  5
3CEC
100
AcDbEntity
  8
0
100
AcDbEllipse
 10
365.782206
 20
489.870929
 30
0.0
 11
-25.0
 21
0.0
 31
0.0
210
0.0
220
0.0
230
1.0
 40
0.984808
 41
0.0
 42
6.283185307179586
  0
LINE
  5
3CED
100
AcDbEntity
  8
0
100
AcDbLine
 10
341.717384
 20
554.896541
 30
0.0
 11
341.020709
 21
533.413001
 31
0.0
  0
LINE
  5
3CEE
100
AcDbEntity
  8
0
100
AcDbLine
 10
327.782206
 20
512.579026
 30
0.0
 11
327.782206
 21
463.484794
 31
0.0
  0
ARC
  5
3CEF
100
AcDbEntity
  8
0
100
AcDbCircle
 10
335.782206
 20
479.991155
 30
0.0
 40
15.0
100
AcDbArc
 50
126.869898
 51
180.0
  0
LINE
  5
3CF0
100
AcDbEntity
  8
0
100
AcDbLine
 10
331.757249
 20
467.481945
 30
0.0
 11
338.257249
 21
471.178913
 31
0.0
  0
LINE
  5
3CF1
100
AcDbEntity
  8
0
100
AcDbLine
 10
320.782206
 20
479.991155
 30
0.0
 11
320.782206
 21
472.414144
 31
0.0
  0
ARC
  5
3CF2
100
AcDbEntity
  8
0
100
AcDbCircle
 10
318.782206
 20
476.761228
 30
0.0
 40
2.0
100
AcDbArc
 50
284.477512
 51
0.0
  0
ARC
  5
3CF3
100
AcDbEntity
  8
0
100
AcDbCircle
 10
319.782206
 20
472.888244
 30
0.0
 40
2.0
100
AcDbArc
 50
104.477512
 51
180.0
  0
LINE
  5
3CF4
100
AcDbEntity
  8
0
100
AcDbLine
 10
320.782206
 20
478.811956
 30
0.0
 11
320.782206
 21
477.47082
 31
0.0
  0
LINE
  5
3CF5
100
AcDbEntity
  8
0
100
AcDbLine
 10
344.757249
 20
467.481945
 30
0.0
 11
338.257249
 21
471.178913
 31
0.0
  0
ARC
  5
3CF6
100
AcDbEntity
  8
0
100
AcDbCircle
 10
317.782206
 20
503.991155
 30
0.0
 40
15.0
100
AcDbArc
 50
306.869898
 51
311.810315
  0
LINE
  5
3CF7
100
AcDbEntity
  8
0
100
AcDbLine
 10
344.757249
 20
521.900989
 30
0.0
 11
338.257249
 21
525.597957
 31
0.0
  0
LINE
  5
3CF8
100
AcDbEntity
  8
0
100
AcDbLine
 10
331.757249
 20
521.900989
 30
0.0
 11
338.257249
 21
525.597957
 31
0.0
  0
ELLIPSE
  5
3CF9
100
AcDbEntity
  8
0
100
AcDbEllipse
 10
342.782206
 20
512.579026
 30
0.0
 11
-15.00000000000005
 21
0.0000000000000284
 31
0.0
210
0.0
220
0.0
230
-1.0
 40
0.984798
 41
6.283185307179586
 42
7.853981633974482
  0
ELLIPSE
  5
3CFA
100
AcDbEntity
  8
0
100
AcDbEllipse
 10
338.257249
 20
518.20599
 30
0.0
 11
6.300000000000011
 21
0.0
 31
0.0
210
0.0
220
0.0
230
-1.0
 40
0.984808
 41
0.0
 42
6.283185307179586
  0
LINE
  5
3CFB
100
AcDbEntity
  8
0
100
AcDbLine
 10
331.757249
 20
514.45299
 30
0.0
 11
338.257249
 21
510.756022
 31
0.0
  0
LINE
  5
3CFC
100
AcDbEntity
  8
0
100
AcDbLine
 10
331.757249
 20
513.383413
 30
0.0
 11
338.257249
 21
509.686445
 31
0.0
  0
LINE
  5
3CFD
100
AcDbEntity
  8
0
100
AcDbLine
 10
331.757249
 20
514.45299
 30
0.0
 11
331.757249
 21
513.383413
 31
0.0
  0
LINE
  5
3CFE
100
AcDbEntity
  8
0
100
AcDbLine
 10
331.757249
 20
514.45299
 30
0.0
 11
331.757249
 21
521.900989
 31
0.0
  0
LINE
  5
3CFF
100
AcDbEntity
  8
0
100
AcDbLine
 10
344.757249
 20
514.45299
 30
0.0
 11
338.257249
 21
510.756022
 31
0.0
  0
LINE
  5
3D00
100
AcDbEntity
  8
0
100
AcDbLine
 10
344.757249
 20
513.383413
 30
0.0
 11
338.257249
 21
509.686445
 31
0.0
  0
LINE
  5
3D01
100
AcDbEntity
  8
0
100
AcDbLine
 10
344.757249
 20
514.45299
 30
0.0
 11
344.757249
 21
513.383413
 31
0.0
  0
LINE
  5
3D02
100
AcDbEntity
  8
0
100
AcDbLine
 10
338.257249
 20
510.756022
 30
0.0
 11
338.257249
 21
509.686445
 31
0.0
  0
LINE
  5
3D03
100
AcDbEntity
  8
0
100
AcDbLine
 10
344.757249
 20
514.45299
 30
0.0
 11
344.757249
 21
521.900989
 31
0.0
  0
ARC
  5
3D04
100
AcDbEntity
  8
0
100
AcDbCircle
 10
365.782206
 20
511.598596
 30
0.0
 40
33.0
100
AcDbArc
 50
120.917086
 51
154.631825
  0
LINE
  5
3D05
100
AcDbEntity
  8
0
100
AcDbLine
 10
346.769094
 20
571.541362
 30
0.0
 11
346.769094
 21
590.41861
 31
0.0
  0
ARC
  5
3D06
100
AcDbEntity
  8
0
100
AcDbCircle
 10
341.782206
 20
556.895491
 30
0.0
 40
2.0
100
AcDbArc
 50
87.611985
 51
272.388015
  0
LINE
  5
3D07
100
AcDbEntity
  8
0
100
AcDbLine
 10
346.782206
 20
601.426201
 30
0.0
 11
346.782206
 21
599.424821
 31
0.0
  0
LINE
  5
3D08
100
AcDbEntity
  8
0
100
AcDbLine
 10
389.847029
 20
554.896541
 30
0.0
 11
390.543703
 21
533.413001
 31
0.0
  0
LINE
  5
3D09
100
AcDbEntity
  8
0
100
AcDbLine
 10
403.782206
 20
512.579026
 30
0.0
 11
403.782206
 21
463.484794
 31
0.0
  0
LINE
  5
3D0A
100
AcDbEntity
  8
0
100
AcDbLine
 10
399.807163
 20
467.481945
 30
0.0
 11
393.307163
 21
471.178913
 31
0.0
  0
LINE
  5
3D0B
100
AcDbEntity
  8
0
100
AcDbLine
 10
386.807163
 20
467.481945
 30
0.0
 11
393.307163
 21
471.178913
 31
0.0
  0
ELLIPSE
  5
3D0C
100
AcDbEntity
  8
0
100
AcDbEllipse
 10
377.782206
 20
478.434541
 30
0.0
 11
28.0
 21
0.0
 31
0.0
210
0.0
220
0.0
230
-1.0
 40
0.984808
 41
5.902934100486658
 42
6.412149798160035
  0
ARC
  5
3D0D
100
AcDbEntity
  8
0
100
AcDbCircle
 10
408.782206
 20
472.888244
 30
0.0
 40
2.0
100
AcDbArc
 50
0.0
 51
90.0
  0
LINE
  5
3D0E
100
AcDbEntity
  8
0
100
AcDbLine
 10
408.782206
 20
474.888244
 30
0.0
 11
403.782206
 21
474.888244
 31
0.0
  0
LINE
  5
3D0F
100
AcDbEntity
  8
0
100
AcDbLine
 10
399.807163
 20
521.900989
 30
0.0
 11
393.307163
 21
525.597957
 31
0.0
  0
LINE
  5
3D10
100
AcDbEntity
  8
0
100
AcDbLine
 10
399.807163
 20
513.383413
 30
0.0
 11
393.307163
 21
509.686445
 31
0.0
  0
LINE
  5
3D11
100
AcDbEntity
  8
0
100
AcDbLine
 10
399.807163
 20
514.45299
 30
0.0
 11
393.307163
 21
510.756022
 31
0.0
  0
ELLIPSE
  5
3D12
100
AcDbEntity
  8
0
100
AcDbEllipse
 10
388.782206
 20
512.579026
 30
0.0
 11
15.00000000000005
 21
0.0000000000000284
 31
0.0
210
0.0
220
0.0
230
1.0
 40
0.984798
 41
6.283185307179586
 42
7.853981633974482
  0
ELLIPSE
  5
3D13
100
AcDbEntity
  8
0
100
AcDbEllipse
 10
393.307163
 20
518.20599
 30
0.0
 11
-6.300000000000011
 21
0.0
 31
0.0
210
0.0
220
0.0
230
1.0
 40
0.984808
 41
0.0
 42
6.283185307179586
  0
ARC
  5
3D14
100
AcDbEntity
  8
0
100
AcDbCircle
 10
365.782206
 20
511.598596
 30
0.0
 40
33.0
100
AcDbArc
 50
25.368175
 51
59.082914
  0
LINE
  5
3D15
100
AcDbEntity
  8
0
100
AcDbLine
 10
386.807163
 20
521.900989
 30
0.0
 11
393.307163
 21
525.597957
 31
0.0
  0
LINE
  5
3D16
100
AcDbEntity
  8
0
100
AcDbLine
 10
393.307163
 20
510.756022
 30
0.0
 11
393.307163
 21
509.686445
 31
0.0
  0
LINE
  5
3D17
100
AcDbEntity
  8
0
100
AcDbLine
 10
386.807163
 20
514.45299
 30
0.0
 11
386.807163
 21
513.383413
 31
0.0
  0
LINE
  5
3D18
100
AcDbEntity
  8
0
100
AcDbLine
 10
386.807163
 20
514.45299
 30
0.0
 11
386.807163
 21
521.900989
 31
0.0
  0
LINE
  5
3D19
100
AcDbEntity
  8
0
100
AcDbLine
 10
386.807163
 20
513.383413
 30
0.0
 11
393.307163
 21
509.686445
 31
0.0
  0
LINE
  5
3D1A
100
AcDbEntity
  8
0
100
AcDbLine
 10
386.807163
 20
514.45299
 30
0.0
 11
393.307163
 21
510.756022
 31
0.0
  0
LINE
  5
3D1B
100
AcDbEntity
  8
0
100
AcDbLine
 10
399.807163
 20
514.45299
 30
0.0
 11
399.807163
 21
513.383413
 31
0.0
  0
LINE
  5
3D1C
100
AcDbEntity
  8
0
100
AcDbLine
 10
399.807163
 20
514.45299
 30
0.0
 11
399.807163
 21
521.900989
 31
0.0
  0
LINE
  5
3D1D
100
AcDbEntity
  8
0
100
AcDbLine
 10
384.795319
 20
590.41861
 30
0.0
 11
384.795319
 21
571.541362
 31
0.0
  0
ARC
  5
3D1E
100
AcDbEntity
  8
0
100
AcDbCircle
 10
389.782206
 20
556.895491
 30
0.0
 40
2.0
100
AcDbArc
 50
267.611985
 51
92.388015
  0
ARC
  5
3D1F
100
AcDbEntity
  8
0
100
AcDbCircle
 10
370.120797
 20
606.006917
 30
0.0
 40
0.523003
100
AcDbArc
 50
10.187912
 51
88.421026
  0
ARC
  5
3D20
100
AcDbEntity
  8
0
100
AcDbCircle
 10
361.443615
 20
606.006917
 30
0.0
 40
0.523003
100
AcDbArc
 50
91.578974
 51
169.812088
  0
LINE
  5
3D21
100
AcDbEntity
  8
0
100
AcDbLine
 10
373.282206
 20
614.945525
 30
0.0
 11
373.282206
 21
601.426201
 31
0.0
  0
LINE
  5
3D22
100
AcDbEntity
  8
0
100
AcDbLine
 10
358.282206
 20
614.945525
 30
0.0
 11
358.282206
 21
601.426201
 31
0.0
  0
LINE
  5
3D23
100
AcDbEntity
  8
0
100
AcDbLine
 10
370.635553
 20
606.099424
 30
0.0
 11
370.635553
 21
605.458983
 31
0.0
  0
ARC
  5
3D24
100
AcDbEntity
  8
0
100
AcDbCircle
 10
370.110191
 20
602.822976
 30
0.0
 40
2.68785
100
AcDbArc
 50
57.454081
 51
122.545919
  0
LINE
  5
3D25
100
AcDbEntity
  8
0
100
AcDbLine
 10
360.928859
 20
605.458983
 30
0.0
 11
360.928859
 21
606.099424
 31
0.0
  0
ARC
  5
3D26
100
AcDbEntity
  8
0
100
AcDbCircle
 10
361.449218
 20
602.835417
 30
0.0
 40
2.674672
100
AcDbArc
 50
57.401057
 51
122.598943
  0
ARC
  5
3D27
100
AcDbEntity
  8
0
100
AcDbCircle
 10
365.777203
 20
596.525422
 30
0.0
 40
9.036864
100
AcDbArc
 50
71.369231
 51
108.630769
  0
LINE
  5
3D28
100
AcDbEntity
  8
0
100
AcDbLine
 10
374.288072
 20
597.423441
 30
0.0
 11
374.288072
 21
591.4193
 31
0.0
  0
LINE
  5
3D29
100
AcDbEntity
  8
0
100
AcDbLine
 10
373.787727
 20
591.4193
 30
0.0
 11
373.787727
 21
590.41861
 31
0.0
  0
LINE
  5
3D2A
100
AcDbEntity
  8
0
100
AcDbLine
 10
371.556188
 20
602.426892
 30
0.0
 11
372.787037
 21
602.426892
 31
0.0
  0
LINE
  5
3D2B
100
AcDbEntity
  8
0
100
AcDbLine
 10
368.794283
 20
597.423441
 30
0.0
 11
368.784276
 21
597.423441
 31
0.0
  0
LINE
  5
3D2C
100
AcDbEntity
  8
0
100
AcDbLine
 10
372.787037
 20
602.426892
 30
0.0
 11
372.787037
 21
601.426201
 31
0.0
  0
LINE
  5
3D2D
100
AcDbEntity
  8
0
100
AcDbLine
 10
372.787037
 20
598.924476
 30
0.0
 11
372.787037
 21
599.424821
 31
0.0
  0
LINE
  5
3D2E
100
AcDbEntity
  8
0
100
AcDbLine
 10
372.787037
 20
599.424821
 30
0.0
 11
372.787037
 21
597.423441
 31
0.0
  0
LINE
  5
3D2F
100
AcDbEntity
  8
0
100
AcDbLine
 10
368.784276
 20
599.424821
 30
0.0
 11
368.784276
 21
597.423441
 31
0.0
  0
LINE
  5
3D30
100
AcDbEntity
  8
0
100
AcDbLine
 10
357.27634
 20
597.423441
 30
0.0
 11
357.27634
 21
591.4193
 31
0.0
  0
LINE
  5
3D31
100
AcDbEntity
  8
0
100
AcDbLine
 10
357.776685
 20
591.4193
 30
0.0
 11
357.776685
 21
590.41861
 31
0.0
  0
LINE
  5
3D32
100
AcDbEntity
  8
0
100
AcDbLine
 10
363.54066
 20
597.923786
 30
0.0
 11
368.013745
 21
597.923786
 31
0.0
  0
LINE
  5
3D33
100
AcDbEntity
  8
0
100
AcDbLine
 10
358.777375
 20
601.426201
 30
0.0
 11
358.777375
 21
602.426892
 31
0.0
  0
LINE
  5
3D34
100
AcDbEntity
  8
0
100
AcDbLine
 10
362.790143
 20
597.423441
 30
0.0
 11
362.780136
 21
597.423441
 31
0.0
  0
LINE
  5
3D35
100
AcDbEntity
  8
0
100
AcDbLine
 10
358.777375
 20
597.423441
 30
0.0
 11
358.777375
 21
599.424821
 31
0.0
  0
LINE
  5
3D36
100
AcDbEntity
  8
0
100
AcDbLine
 10
358.777375
 20
602.426892
 30
0.0
 11
360.008224
 21
602.426892
 31
0.0
  0
LINE
  5
3D37
100
AcDbEntity
  8
0
100
AcDbLine
 10
363.54066
 20
599.424821
 30
0.0
 11
363.54066
 21
597.923786
 31
0.0
  0
LINE
  5
3D38
100
AcDbEntity
  8
0
100
AcDbLine
 10
362.780136
 20
597.423441
 30
0.0
 11
362.780136
 21
599.424821
 31
0.0
  0
LINE
  5
3D39
100
AcDbEntity
  8
0
100
AcDbLine
 10
368.013745
 20
597.923786
 30
0.0
 11
368.013745
 21
599.424821
 31
0.0
  0
LINE
  5
3D3A
100
AcDbEntity
  8
0
100
AcDbLine
 10
374.288072
 20
591.4193
 30
0.0
 11
357.27634
 21
591.4193
 31
0.0
  0
LINE
  5
3D3B
100
AcDbEntity
  8
0
100
AcDbLine
 10
374.288072
 20
597.423441
 30
0.0
 11
357.27634
 21
597.423441
 31
0.0
  0
LINE
  5
3D3C
100
AcDbEntity
  8
0
100
AcDbLine
 10
362.890212
 20
605.088727
 30
0.0
 11
362.890212
 21
601.426201
 31
0.0
  0
LINE
  5
3D3D
100
AcDbEntity
  8
0
100
AcDbLine
 10
360.008224
 20
605.088727
 30
0.0
 11
360.008224
 21
601.426201
 31
0.0
  0
LINE
  5
3D3E
100
AcDbEntity
  8
0
100
AcDbLine
 10
371.556188
 20
605.088727
 30
0.0
 11
371.556188
 21
601.426201
 31
0.0
  0
LINE
  5
3D3F
100
AcDbEntity
  8
0
100
AcDbLine
 10
368.664194
 20
605.088727
 30
0.0
 11
368.664194
 21
601.426201
 31
0.0
  0
LINE
  5
3D40
100
AcDbEntity
  8
0
100
AcDbLine
 10
362.890212
 20
605.088727
 30
0.0
 11
362.890212
 21
602.306809
 31
0.0
  0
LINE
  5
3D41
100
AcDbEntity
  8
0
100
AcDbLine
 10
368.664194
 20
602.306809
 30
0.0
 11
368.664194
 21
605.088727
 31
0.0
  0
LINE
  5
3D42
100
AcDbEntity
  8
0
100
AcDbLine
 10
368.664194
 20
605.088727
 30
0.0
 11
368.664194
 21
602.306809
 31
0.0
  0
LINE
  5
3D43
100
AcDbEntity
  8
0
100
AcDbLine
 10
384.782206
 20
601.426201
 30
0.0
 11
384.782206
 21
599.424821
 31
0.0
  0
LINE
  5
3D44
100
AcDbEntity
  8
0
100
AcDbLine
 10
368.784276
 20
607.610466
 30
0.0
 11
368.784276
 21
606.529721
 31
0.0
  0
LINE
  5
3D45
100
AcDbEntity
  8
0
100
AcDbLine
 10
363.320508
 20
607.930687
 30
0.0
 11
368.243904
 21
607.930687
 31
0.0
  0
LINE
  5
3D46
100
AcDbEntity
  8
0
100
AcDbLine
 10
364.351219
 20
607.930687
 30
0.0
 11
363.54066
 21
607.610466
 31
0.0
  0
LINE
  5
3D47
100
AcDbEntity
  8
0
100
AcDbLine
 10
362.780136
 20
607.610466
 30
0.0
 11
363.54066
 21
607.610466
 31
0.0
  0
LINE
  5
3D48
100
AcDbEntity
  8
0
100
AcDbLine
 10
363.54066
 20
607.610466
 30
0.0
 11
363.54066
 21
606.529721
 31
0.0
  0
LINE
  5
3D49
100
AcDbEntity
  8
0
100
AcDbLine
 10
362.780136
 20
607.610466
 30
0.0
 11
363.320508
 21
607.930687
 31
0.0
  0
LINE
  5
3D4A
100
AcDbEntity
  8
0
100
AcDbLine
 10
362.780136
 20
606.529721
 30
0.0
 11
362.780136
 21
607.610466
 31
0.0
  0
LINE
  5
3D4B
100
AcDbEntity
  8
0
100
AcDbLine
 10
368.013745
 20
607.610466
 30
0.0
 11
367.213193
 21
607.930687
 31
0.0
  0
LINE
  5
3D4C
100
AcDbEntity
  8
0
100
AcDbLine
 10
368.013745
 20
606.529721
 30
0.0
 11
368.013745
 21
607.610466
 31
0.0
  0
LINE
  5
3D4D
100
AcDbEntity
  8
0
100
AcDbLine
 10
374.782206
 20
614.945525
 30
0.0
 11
356.782206
 21
614.945525
 31
0.0
  0
LINE
  5
3D4E
100
AcDbEntity
  8
0
100
AcDbLine
 10
361.429204
 20
606.529721
 30
0.0
 11
370.135208
 21
606.529721
 31
0.0
  0
LINE
  5
3D4F
100
AcDbEntity
  8
0
100
AcDbLine
 10
368.013745
 20
607.610466
 30
0.0
 11
368.784276
 21
607.610466
 31
0.0
  0
LINE
  5
3D50
100
AcDbEntity
  8
0
100
AcDbLine
 10
368.243904
 20
607.930687
 30
0.0
 11
368.784276
 21
607.610466
 31
0.0
  0
LINE
  5
3D51
100
AcDbEntity
  8
0
100
AcDbLine
 10
691.787967
 20
465.133469
 30
0.0
 11
699.573337
 21
457.3481
 31
0.0
  0
LINE
  5
3D52
100
AcDbEntity
  8
0
100
AcDbLine
 10
676.255993
 20
449.601495
 30
0.0
 11
695.299126
 21
468.644628
 31
0.0
  0
LINE
  5
3D53
100
AcDbEntity
  8
0
100
AcDbLine
 10
668.790845
 20
451.282654
 30
0.0
 11
694.658947
 21
477.166206
 31
0.0
  0
CIRCLE
  5
3D54
100
AcDbEntity
  8
0
100
AcDbCircle
 10
632.966138
 20
459.898596
 30
0.0
 40
15.010352
  0
LINE
  5
3D55
100
AcDbEntity
  8
0
100
AcDbLine
 10
584.38731
 20
525.352907
 30
0.0
 11
571.174422
 21
450.451923
 31
0.0
  0
LINE
  5
3D56
100
AcDbEntity
  8
0
100
AcDbLine
 10
582.901611
 20
525.613917
 30
0.0
 11
569.702508
 21
450.712261
 31
0.0
  0
LINE
  5
3D57
100
AcDbEntity
  8
0
100
AcDbLine
 10
573.053471
 20
527.351089
 30
0.0
 11
559.837908
 21
452.452336
 31
0.0
  0
ARC
  5
3D58
100
AcDbEntity
  8
0
100
AcDbCircle
 10
568.549448
 20
461.50807
 30
0.0
 40
13.352467
100
AcDbArc
 50
153.667103
 51
186.30651
  0
LINE
  5
3D59
100
AcDbEntity
  8
0
100
AcDbLine
 10
554.152711
 20
457.643435
 30
0.0
 11
556.346665
 21
470.069235
 31
0.0
  0
LINE
  5
3D5A
100
AcDbEntity
  8
0
100
AcDbLine
 10
581.033472
 20
448.712826
 30
0.0
 11
594.232273
 21
523.603801
 31
0.0
  0
LINE
  5
3D5D
100
AcDbEntity
  8
0
100
AcDbLine
 10
581.901977
 20
453.640791
 30
0.0
 11
630.21424
 21
445.138417
 31
0.0
  0
LINE
  5
3D5E
100
AcDbEntity
  8
0
100
AcDbLine
 10
571.173523
 20
450.452081
 30
0.0
 11
581.033472
 21
448.712826
 31
0.0
  0
LINE
  5
3D5F
100
AcDbEntity
  8
0
100
AcDbLine
 10
571.974075
 20
454.985208
 30
0.0
 11
570.493053
 21
455.245387
 31
0.0
  0
LINE
  5
3D60
100
AcDbEntity
  8
0
100
AcDbLine
 10
555.277784
 20
460.041339
 30
0.0
 11
560.9983
 21
459.031299
 31
0.0
  0
LINE
  5
3D61
100
AcDbEntity
  8
0
100
AcDbLine
 10
560.345573
 20
455.334481
 30
0.0
 11
554.625057
 21
456.344521
 31
0.0
  0
LINE
  5
3D62
100
AcDbEntity
  8
0
100
AcDbLine
 10
554.625057
 20
456.344521
 30
0.0
 11
554.152711
 21
457.643435
 31
0.0
  0
LINE
  5
3D63
100
AcDbEntity
  8
0
100
AcDbLine
 10
569.702508
 20
450.712261
 30
0.0
 11
559.837892
 21
452.452241
 31
0.0
  0
ARC
  5
3D64
100
AcDbEntity
  8
0
100
AcDbCircle
 10
557.908724
 20
457.671283
 30
0.0
 40
3.541047
100
AcDbArc
 50
137.986212
 51
201.987401
  0
ARC
  5
3D65
100
AcDbEntity
  8
0
100
AcDbCircle
 10
651.330653
 20
442.731531
 30
0.0
 40
10.012131
100
AcDbArc
 50
90.01059
 51
133.933444
  0
LINE
  5
3D66
100
AcDbEntity
  8
0
100
AcDbLine
 10
642.652819
 20
448.432172
 30
0.0
 11
644.384013
 21
449.941729
 31
0.0
  0
ARC
  5
3D67
100
AcDbEntity
  8
0
100
AcDbCircle
 10
666.924558
 20
452.670006
 30
0.0
 40
2.325462
100
AcDbArc
 50
255.164798
 51
323.373791
  0
LINE
  5
3D68
100
AcDbEntity
  8
0
100
AcDbLine
 10
651.328802
 20
452.743662
 30
0.0
 11
666.329147
 21
450.422061
 31
0.0
  0
LINE
  5
3D69
100
AcDbEntity
  8
0
100
AcDbLine
 10
687.552521
 20
445.327284
 30
0.0
 11
699.573337
 21
457.3481
 31
0.0
  0
LINE
  5
3D6A
100
AcDbEntity
  8
0
100
AcDbLine
 10
679.767152
 20
453.112654
 30
0.0
 11
687.552521
 21
445.327284
 31
0.0
  0
LINE
  5
3D6B
100
AcDbEntity
  8
0
100
AcDbLine
 10
671.822936
 20
454.324752
 30
0.0
 11
676.255993
 21
449.601495
 31
0.0
  0
LINE
  5
3D6C
100
AcDbEntity
  8
0
100
AcDbLine
 10
711.440258
 20
580.912054
 30
0.0
 11
668.71079
 21
580.912054
 31
0.0
  0
ARC
  5
3D6D
100
AcDbEntity
  8
0
100
AcDbCircle
 10
673.531134
 20
567.785982
 30
0.0
 40
13.126594
100
AcDbArc
 50
90.511133
 51
179.488867
  0
LINE
  5
3D6E
100
AcDbEntity
  8
0
100
AcDbLine
 10
660.405062
 20
567.903082
 30
0.0
 11
660.405062
 21
536.091143
 31
0.0
  0
LINE
  5
3D6F
100
AcDbEntity
  8
0
100
AcDbLine
 10
657.102784
 20
563.900322
 30
0.0
 11
657.102784
 21
534.880308
 31
0.0
  0
LINE
  5
3D70
100
AcDbEntity
  8
0
100
AcDbLine
 10
558.440258
 20
577.834801
 30
0.0
 11
558.440258
 21
535.95618
 31
0.0
  0
LINE
  5
3D71
100
AcDbEntity
  8
0
100
AcDbLine
 10
592.077939
 20
578.390315
 30
0.0
 11
592.077939
 21
534.289901
 31
0.0
  0
LINE
  5
3D72
100
AcDbEntity
  8
0
100
AcDbLine
 10
551.440258
 20
556.895491
 30
0.0
 11
551.440258
 21
535.95618
 31
0.0
  0
ARC
  5
3D73
100
AcDbEntity
  8
0
100
AcDbCircle
 10
566.981925
 20
540.441008
 30
0.0
 40
15.541667
100
AcDbArc
 50
159.334522
 51
200.665478
  0
ARC
  5
3D74
100
AcDbEntity
  8
0
100
AcDbCircle
 10
542.898592
 20
540.441008
 30
0.0
 40
15.541667
100
AcDbArc
 50
339.334522
 51
20.665478
  0
LINE
  5
3D75
100
AcDbEntity
  8
0
100
AcDbLine
 10
566.440258
 20
532.878927
 30
0.0
 11
566.440258
 21
556.895491
 31
0.0
  0
LINE
  5
3D76
100
AcDbEntity
  8
0
100
AcDbLine
 10
605.066897
 20
534.880308
 30
0.0
 11
605.066897
 21
563.900322
 31
0.0
  0
ARC
  5
3D77
100
AcDbEntity
  8
0
100
AcDbCircle
 10
590.396739
 20
529.874786
 30
0.0
 40
3.004142
100
AcDbArc
 50
329.626963
 51
89.999218
  0
LINE
  5
3D78
100
AcDbEntity
  8
0
100
AcDbLine
 10
594.232079
 20
523.602702
 30
0.0
 11
584.382632
 21
525.353738
 31
0.0
  0
ARC
  5
3D79
100
AcDbEntity
  8
0
100
AcDbCircle
 10
589.136363
 20
528.410542
 30
0.0
 40
3.852593
100
AcDbArc
 50
264.328754
 51
359.18597
  0
LINE
  5
3D7A
100
AcDbEntity
  8
0
100
AcDbLine
 10
557.235094
 20
471.126869
 30
0.0
 11
562.95561
 21
470.11683
 31
0.0
  0
LINE
  5
3D7B
100
AcDbEntity
  8
0
100
AcDbLine
 10
556.582541
 20
467.431036
 30
0.0
 11
562.303057
 21
466.420996
 31
0.0
  0
ARC
  5
3D7C
100
AcDbEntity
  8
0
100
AcDbCircle
 10
559.866034
 20
468.756813
 30
0.0
 40
3.541047
100
AcDbArc
 50
137.986212
 51
201.987401
  0
LINE
  5
3D7D
100
AcDbEntity
  8
0
100
AcDbLine
 10
556.346665
 20
470.069235
 30
0.0
 11
557.235094
 21
471.126869
 31
0.0
  0
LINE
  5
3D7E
100
AcDbEntity
  8
0
100
AcDbLine
 10
552.440258
 20
534.95618
 30
0.0
 11
557.440258
 21
534.95618
 31
0.0
  0
LINE
  5
3D7F
100
AcDbEntity
  8
0
100
AcDbLine
 10
551.440258
 20
535.95618
 30
0.0
 11
552.440258
 21
534.95618
 31
0.0
  0
ARC
  5
3D80
100
AcDbEntity
  8
0
100
AcDbCircle
 10
569.454669
 20
523.107532
 30
0.0
 40
3.541047
100
AcDbArc
 50
137.999406
 51
202.000594
  0
LINE
  5
3D81
100
AcDbEntity
  8
0
100
AcDbLine
 10
565.934997
 20
524.419143
 30
0.0
 11
563.743905
 21
511.992838
 31
0.0
  0
ARC
  5
3D82
100
AcDbEntity
  8
0
100
AcDbCircle
 10
567.499911
 20
512.021551
 30
0.0
 40
3.541047
100
AcDbArc
 50
137.999406
 51
202.000594
  0
LINE
  5
3D83
100
AcDbEntity
  8
0
100
AcDbLine
 10
563.743905
 20
511.992838
 30
0.0
 11
564.216724
 21
510.695017
 31
0.0
  0
ARC
  5
3D84
100
AcDbEntity
  8
0
100
AcDbCircle
 10
578.139752
 20
515.860789
 30
0.0
 40
13.352467
100
AcDbArc
 50
153.680297
 51
186.319703
  0
LINE
  5
3D85
100
AcDbEntity
  8
0
100
AcDbLine
 10
566.171481
 20
521.780998
 30
0.0
 11
571.892229
 21
520.772276
 31
0.0
  0
LINE
  5
3D86
100
AcDbEntity
  8
0
100
AcDbLine
 10
564.868425
 20
514.391001
 30
0.0
 11
570.589173
 21
513.382279
 31
0.0
  0
LINE
  5
3D87
100
AcDbEntity
  8
0
100
AcDbLine
 10
564.216724
 20
510.695017
 30
0.0
 11
569.937472
 21
509.686295
 31
0.0
  0
LINE
  5
3D88
100
AcDbEntity
  8
0
100
AcDbLine
 10
582.101059
 20
521.080791
 30
0.0
 11
583.58208
 21
520.820611
 31
0.0
  0
LINE
  5
3D89
100
AcDbEntity
  8
0
100
AcDbLine
 10
572.544105
 20
524.469244
 30
0.0
 11
566.823356
 21
525.477967
 31
0.0
  0
LINE
  5
3D8A
100
AcDbEntity
  8
0
100
AcDbLine
 10
566.440258
 20
532.878927
 30
0.0
 11
590.39678
 21
532.878927
 31
0.0
  0
LINE
  5
3D8B
100
AcDbEntity
  8
0
100
AcDbLine
 10
558.440258
 20
540.270991
 30
0.0
 11
566.440258
 21
540.770991
 31
0.0
  0
LINE
  5
3D8C
100
AcDbEntity
  8
0
100
AcDbLine
 10
558.440258
 20
535.95618
 30
0.0
 11
557.440258
 21
534.95618
 31
0.0
  0
LINE
  5
3D8D
100
AcDbEntity
  8
0
100
AcDbLine
 10
566.823356
 20
525.477967
 30
0.0
 11
565.934997
 21
524.419143
 31
0.0
  0
LINE
  5
3D8E
100
AcDbEntity
  8
0
100
AcDbLine
 10
573.053454
 20
527.350993
 30
0.0
 11
582.901611
 21
525.613917
 31
0.0
  0
LINE
  5
3D8F
100
AcDbEntity
  8
0
100
AcDbLine
 10
660.104855
 20
533.669473
 30
0.0
 11
648.576904
 21
480.863054
 31
0.0
  0
LINE
  5
3D90
100
AcDbEntity
  8
0
100
AcDbLine
 10
639.990983
 20
511.65429
 30
0.0
 11
639.990983
 21
492.951391
 31
0.0
  0
ARC
  5
3D91
100
AcDbEntity
  8
0
100
AcDbCircle
 10
600.195616
 20
499.779003
 30
0.0
 40
5.001319
100
AcDbArc
 50
102.621454
 51
170.009013
  0
ARC
  5
3D92
100
AcDbEntity
  8
0
100
AcDbCircle
 10
628.488688
 20
478.860323
 30
0.0
 40
14.963232
100
AcDbArc
 50
350.419541
 51
216.140074
  0
ARC
  5
3D93
100
AcDbEntity
  8
0
100
AcDbCircle
 10
621.446413
 20
511.57854
 30
0.0
 40
18.544725
100
AcDbArc
 50
0.234037
 51
136.885973
  0
LINE
  5
3D94
100
AcDbEntity
  8
0
100
AcDbLine
 10
657.102784
 20
534.880308
 30
0.0
 11
605.066897
 21
534.880308
 31
0.0
  0
ARC
  5
3D95
100
AcDbEntity
  8
0
100
AcDbCircle
 10
601.584972
 20
524.239874
 30
0.0
 40
4.50417
100
AcDbArc
 50
172.299808
 51
249.171167
  0
ARC
  5
3D96
100
AcDbEntity
  8
0
100
AcDbCircle
 10
597.35531
 20
512.470107
 30
0.0
 40
8.003736
100
AcDbArc
 50
282.611099
 51
70.830929
  0
ARC
  5
3D97
100
AcDbEntity
  8
0
100
AcDbCircle
 10
649.885415
 20
536.165788
 30
0.0
 40
10.519912
100
AcDbArc
 50
346.273094
 51
359.593446
  0
LINE
  5
3D98
100
AcDbEntity
  8
0
100
AcDbLine
 10
599.452284
 20
573.907223
 30
0.0
 11
591.928577
 21
580.912054
 31
0.0
  0
LINE
  5
3D99
100
AcDbEntity
  8
0
100
AcDbLine
 10
552.440258
 20
545.925835
 30
0.0
 11
557.440258
 21
545.925835
 31
0.0
  0
LINE
  5
3D9A
100
AcDbEntity
  8
0
100
AcDbLine
 10
552.440258
 20
567.865146
 30
0.0
 11
557.440258
 21
567.865146
 31
0.0
  0
LINE
  5
3D9B
100
AcDbEntity
  8
0
100
AcDbLine
 10
552.440258
 20
578.834801
 30
0.0
 11
557.440258
 21
578.834801
 31
0.0
  0
LINE
  5
3D9C
100
AcDbEntity
  8
0
100
AcDbLine
 10
551.440258
 20
577.834801
 30
0.0
 11
551.440258
 21
556.895491
 31
0.0
  0
ARC
  5
3D9D
100
AcDbEntity
  8
0
100
AcDbCircle
 10
612.106925
 20
556.895491
 30
0.0
 40
60.666667
100
AcDbArc
 50
169.582562
 51
190.417438
  0
ARC
  5
3D9E
100
AcDbEntity
  8
0
100
AcDbCircle
 10
566.981925
 20
573.349973
 30
0.0
 40
15.541667
100
AcDbArc
 50
159.334522
 51
200.665478
  0
LINE
  5
3D9F
100
AcDbEntity
  8
0
100
AcDbLine
 10
551.440258
 20
577.834801
 30
0.0
 11
552.440258
 21
578.834801
 31
0.0
  0
ARC
  5
3DA0
100
AcDbEntity
  8
0
100
AcDbCircle
 10
497.773592
 20
556.895491
 30
0.0
 40
60.666667
100
AcDbArc
 50
349.582562
 51
10.417438
  0
LINE
  5
3DA1
100
AcDbEntity
  8
0
100
AcDbLine
 10
566.440258
 20
556.895491
 30
0.0
 11
566.440258
 21
580.912054
 31
0.0
  0
LINE
  5
3DA2
100
AcDbEntity
  8
0
100
AcDbLine
 10
591.928577
 20
580.912054
 30
0.0
 11
566.440258
 21
580.912054
 31
0.0
  0
LINE
  5
3DA3
100
AcDbEntity
  8
0
100
AcDbLine
 10
558.440258
 20
573.519991
 30
0.0
 11
566.440258
 21
573.019991
 31
0.0
  0
ARC
  5
3DA4
100
AcDbEntity
  8
0
100
AcDbCircle
 10
542.898592
 20
573.349973
 30
0.0
 40
15.541667
100
AcDbArc
 50
339.334522
 51
20.665478
  0
LINE
  5
3DA5
100
AcDbEntity
  8
0
100
AcDbLine
 10
558.440258
 20
577.834801
 30
0.0
 11
557.440258
 21
578.834801
 31
0.0
  0
LINE
  5
3DA6
100
AcDbEntity
  8
0
100
AcDbLine
 10
666.709409
 20
582.913434
 30
0.0
 11
666.709409
 21
590.41861
 31
0.0
  0
LINE
  5
3DA7
100
AcDbEntity
  8
0
100
AcDbLine
 10
628.683184
 20
590.41861
 30
0.0
 11
628.683184
 21
576.909293
 31
0.0
  0
LINE
  5
3DA8
100
AcDbEntity
  8
0
100
AcDbLine
 10
628.683184
 20
573.907223
 30
0.0
 11
638.900231
 21
564.760915
 31
0.0
  0
LINE
  5
3DA9
100
AcDbEntity
  8
0
100
AcDbLine
 10
605.066897
 20
563.900322
 30
0.0
 11
657.102784
 21
563.900322
 31
0.0
  0
LINE
  5
3DAA
100
AcDbEntity
  8
0
100
AcDbLine
 10
597.461652
 20
571.925856
 30
0.0
 11
597.461652
 21
551.681895
 31
0.0
  0
LINE
  5
3DAB
100
AcDbEntity
  8
0
100
AcDbLine
 10
625.681114
 20
573.907223
 30
0.0
 11
599.452284
 21
573.907223
 31
0.0
  0
ARC
  5
3DAC
100
AcDbEntity
  8
0
100
AcDbCircle
 10
625.693643
 20
576.896765
 30
0.0
 40
2.989568
100
AcDbArc
 50
269.759885
 51
0.240115
  0
ARC
  5
3DAD
100
AcDbEntity
  8
0
100
AcDbCircle
 10
668.691252
 20
582.893897
 30
0.0
 40
1.981939
100
AcDbArc
 50
179.435189
 51
270.564811
  0
LINE
  5
3DAE
100
AcDbEntity
  8
0
100
AcDbLine
 10
630.684565
 20
599.424821
 30
0.0
 11
644.694226
 21
599.424821
 31
0.0
  0
LINE
  5
3DAF
100
AcDbEntity
  8
0
100
AcDbLine
 10
666.709409
 20
590.41861
 30
0.0
 11
628.683184
 21
590.41861
 31
0.0
  0
LINE
  5
3DB0
100
AcDbEntity
  8
0
100
AcDbLine
 10
666.712211
 20
601.426201
 30
0.0
 11
630.684565
 21
601.426201
 31
0.0
  0
LINE
  5
3DB1
100
AcDbEntity
  8
0
100
AcDbLine
 10
630.684565
 20
601.426201
 30
0.0
 11
630.684565
 21
599.424821
 31
0.0
  0
ARC
  5
3DB2
100
AcDbEntity
  8
0
100
AcDbCircle
 10
652.034888
 20
606.006917
 30
0.0
 40
0.523003
100
AcDbArc
 50
10.187912
 51
88.421026
  0
ARC
  5
3DB3
100
AcDbEntity
  8
0
100
AcDbCircle
 10
643.357706
 20
606.006917
 30
0.0
 40
0.523003
100
AcDbArc
 50
91.578974
 51
169.812088
  0
ARC
  5
3DB4
100
AcDbEntity
  8
0
100
AcDbCircle
 10
652.024282
 20
602.822976
 30
0.0
 40
2.68785
100
AcDbArc
 50
57.454081
 51
122.545919
  0
LINE
  5
3DB5
100
AcDbEntity
  8
0
100
AcDbLine
 10
656.202163
 20
597.423441
 30
0.0
 11
639.190431
 21
597.423441
 31
0.0
  0
LINE
  5
3DB6
100
AcDbEntity
  8
0
100
AcDbLine
 10
639.190431
 20
591.4193
 30
0.0
 11
656.202163
 21
591.4193
 31
0.0
  0
LINE
  5
3DB7
100
AcDbEntity
  8
0
100
AcDbLine
 10
650.698367
 20
599.424821
 30
0.0
 11
667.863895
 21
599.424821
 31
0.0
  0
ARC
  5
3DB8
100
AcDbEntity
  8
0
100
AcDbCircle
 10
643.363309
 20
602.835417
 30
0.0
 40
2.674672
100
AcDbArc
 50
57.401057
 51
122.598943
  0
LINE
  5
3DB9
100
AcDbEntity
  8
0
100
AcDbLine
 10
642.84295
 20
605.458983
 30
0.0
 11
642.84295
 21
606.099424
 31
0.0
  0
ARC
  5
3DBA
100
AcDbEntity
  8
0
100
AcDbCircle
 10
647.691293
 20
596.525422
 30
0.0
 40
9.036864
100
AcDbArc
 50
71.369231
 51
108.630769
  0
LINE
  5
3DBB
100
AcDbEntity
  8
0
100
AcDbLine
 10
649.927836
 20
597.923786
 30
0.0
 11
649.927836
 21
601.426201
 31
0.0
  0
LINE
  5
3DBC
100
AcDbEntity
  8
0
100
AcDbLine
 10
650.698367
 20
601.426201
 30
0.0
 11
650.698367
 21
597.423441
 31
0.0
  0
LINE
  5
3DBD
100
AcDbEntity
  8
0
100
AcDbLine
 10
650.708374
 20
597.423441
 30
0.0
 11
650.698367
 21
597.423441
 31
0.0
  0
LINE
  5
3DBE
100
AcDbEntity
  8
0
100
AcDbLine
 10
640.691466
 20
602.426892
 30
0.0
 11
641.922315
 21
602.426892
 31
0.0
  0
LINE
  5
3DBF
100
AcDbEntity
  8
0
100
AcDbLine
 10
639.190431
 20
597.423441
 30
0.0
 11
639.190431
 21
591.4193
 31
0.0
  0
LINE
  5
3DC0
100
AcDbEntity
  8
0
100
AcDbLine
 10
639.690776
 20
591.4193
 30
0.0
 11
639.690776
 21
590.41861
 31
0.0
  0
LINE
  5
3DC1
100
AcDbEntity
  8
0
100
AcDbLine
 10
640.691466
 20
597.423441
 30
0.0
 11
640.691466
 21
599.424821
 31
0.0
  0
LINE
  5
3DC2
100
AcDbEntity
  8
0
100
AcDbLine
 10
640.691466
 20
601.426201
 30
0.0
 11
640.691466
 21
602.426892
 31
0.0
  0
LINE
  5
3DC3
100
AcDbEntity
  8
0
100
AcDbLine
 10
644.694226
 20
597.423441
 30
0.0
 11
644.694226
 21
601.426201
 31
0.0
  0
LINE
  5
3DC4
100
AcDbEntity
  8
0
100
AcDbLine
 10
645.454751
 20
601.426201
 30
0.0
 11
645.454751
 21
597.923786
 31
0.0
  0
LINE
  5
3DC5
100
AcDbEntity
  8
0
100
AcDbLine
 10
644.704233
 20
597.423441
 30
0.0
 11
644.694226
 21
597.423441
 31
0.0
  0
LINE
  5
3DC6
100
AcDbEntity
  8
0
100
AcDbLine
 10
645.454751
 20
597.923786
 30
0.0
 11
649.927836
 21
597.923786
 31
0.0
  0
LINE
  5
3DC7
100
AcDbEntity
  8
0
100
AcDbLine
 10
644.804302
 20
605.088727
 30
0.0
 11
644.804302
 21
602.306809
 31
0.0
  0
LINE
  5
3DC8
100
AcDbEntity
  8
0
100
AcDbLine
 10
641.922315
 20
605.088727
 30
0.0
 11
641.922315
 21
601.426201
 31
0.0
  0
LINE
  5
3DC9
100
AcDbEntity
  8
0
100
AcDbLine
 10
644.804302
 20
605.088727
 30
0.0
 11
644.804302
 21
601.426201
 31
0.0
  0
LINE
  5
3DCA
100
AcDbEntity
  8
0
100
AcDbLine
 10
650.578284
 20
605.088727
 30
0.0
 11
650.578284
 21
602.306809
 31
0.0
  0
LINE
  5
3DCB
100
AcDbEntity
  8
0
100
AcDbLine
 10
650.578284
 20
602.306809
 30
0.0
 11
650.578284
 21
605.088727
 31
0.0
  0
LINE
  5
3DCC
100
AcDbEntity
  8
0
100
AcDbLine
 10
650.578284
 20
605.088727
 30
0.0
 11
650.578284
 21
601.426201
 31
0.0
  0
LINE
  5
3DCD
100
AcDbEntity
  8
0
100
AcDbLine
 10
652.549644
 20
606.099424
 30
0.0
 11
652.549644
 21
605.458983
 31
0.0
  0
LINE
  5
3DCE
100
AcDbEntity
  8
0
100
AcDbLine
 10
654.701128
 20
599.424821
 30
0.0
 11
654.701128
 21
597.423441
 31
0.0
  0
LINE
  5
3DCF
100
AcDbEntity
  8
0
100
AcDbLine
 10
654.701128
 20
598.924476
 30
0.0
 11
654.701128
 21
599.424821
 31
0.0
  0
LINE
  5
3DD0
100
AcDbEntity
  8
0
100
AcDbLine
 10
654.701128
 20
602.426892
 30
0.0
 11
654.701128
 21
601.426201
 31
0.0
  0
LINE
  5
3DD1
100
AcDbEntity
  8
0
100
AcDbLine
 10
653.470279
 20
602.426892
 30
0.0
 11
654.701128
 21
602.426892
 31
0.0
  0
LINE
  5
3DD2
100
AcDbEntity
  8
0
100
AcDbLine
 10
656.202163
 20
597.423441
 30
0.0
 11
656.202163
 21
591.4193
 31
0.0
  0
LINE
  5
3DD3
100
AcDbEntity
  8
0
100
AcDbLine
 10
655.701818
 20
591.4193
 30
0.0
 11
655.701818
 21
590.41861
 31
0.0
  0
LINE
  5
3DD4
100
AcDbEntity
  8
0
100
AcDbLine
 10
653.470279
 20
605.088727
 30
0.0
 11
653.470279
 21
601.426201
 31
0.0
  0
LINE
  5
3DD5
100
AcDbEntity
  8
0
100
AcDbLine
 10
643.343295
 20
606.529721
 30
0.0
 11
652.049299
 21
606.529721
 31
0.0
  0
LINE
  5
3DD6
100
AcDbEntity
  8
0
100
AcDbLine
 10
649.927836
 20
607.610466
 30
0.0
 11
650.698367
 21
607.610466
 31
0.0
  0
LINE
  5
3DD7
100
AcDbEntity
  8
0
100
AcDbLine
 10
649.927836
 20
606.529721
 30
0.0
 11
649.927836
 21
607.610466
 31
0.0
  0
LINE
  5
3DD8
100
AcDbEntity
  8
0
100
AcDbLine
 10
650.157995
 20
607.930687
 30
0.0
 11
650.698367
 21
607.610466
 31
0.0
  0
LINE
  5
3DD9
100
AcDbEntity
  8
0
100
AcDbLine
 10
650.698367
 20
607.610466
 30
0.0
 11
650.698367
 21
606.529721
 31
0.0
  0
LINE
  5
3DDA
100
AcDbEntity
  8
0
100
AcDbLine
 10
644.694226
 20
606.529721
 30
0.0
 11
644.694226
 21
607.610466
 31
0.0
  0
LINE
  5
3DDB
100
AcDbEntity
  8
0
100
AcDbLine
 10
644.694226
 20
607.610466
 30
0.0
 11
645.234599
 21
607.930687
 31
0.0
  0
LINE
  5
3DDC
100
AcDbEntity
  8
0
100
AcDbLine
 10
645.454751
 20
607.610466
 30
0.0
 11
645.454751
 21
606.529721
 31
0.0
  0
LINE
  5
3DDD
100
AcDbEntity
  8
0
100
AcDbLine
 10
644.694226
 20
607.610466
 30
0.0
 11
645.454751
 21
607.610466
 31
0.0
  0
LINE
  5
3DDE
100
AcDbEntity
  8
0
100
AcDbLine
 10
646.26531
 20
607.930687
 30
0.0
 11
645.454751
 21
607.610466
 31
0.0
  0
LINE
  5
3DDF
100
AcDbEntity
  8
0
100
AcDbLine
 10
649.927836
 20
607.610466
 30
0.0
 11
649.127284
 21
607.930687
 31
0.0
  0
LINE
  5
3DE0
100
AcDbEntity
  8
0
100
AcDbLine
 10
645.234599
 20
607.930687
 30
0.0
 11
650.157995
 21
607.930687
 31
0.0
  0
LINE
  5
3DE1
100
AcDbEntity
  8
0
100
AcDbLine
 10
719.440258
 20
577.834801
 30
0.0
 11
719.440258
 21
535.95618
 31
0.0
  0
ARC
  5
3DE2
100
AcDbEntity
  8
0
100
AcDbCircle
 10
734.981925
 20
540.441008
 30
0.0
 40
15.541667
100
AcDbArc
 50
159.334522
 51
200.665478
  0
ARC
  5
3DE3
100
AcDbEntity
  8
0
100
AcDbCircle
 10
710.898592
 20
540.441008
 30
0.0
 40
15.541667
100
AcDbArc
 50
339.334522
 51
20.665478
  0
LINE
  5
3DE4
100
AcDbEntity
  8
0
100
AcDbLine
 10
726.440258
 20
556.895491
 30
0.0
 11
726.440258
 21
535.95618
 31
0.0
  0
LINE
  5
3DE5
100
AcDbEntity
  8
0
100
AcDbLine
 10
711.440258
 20
532.878927
 30
0.0
 11
711.440258
 21
556.895491
 31
0.0
  0
LINE
  5
3DE6
100
AcDbEntity
  8
0
100
AcDbLine
 10
696.800162
 20
534.349942
 30
0.0
 11
685.652474
 21
545.887899
 31
0.0
  0
LINE
  5
3DE7
100
AcDbEntity
  8
0
100
AcDbLine
 10
694.658947
 20
477.166206
 30
0.0
 11
697.672773
 21
532.878927
 31
0.0
  0
LINE
  5
3DE8
100
AcDbEntity
  8
0
100
AcDbLine
 10
695.299126
 20
468.644628
 30
0.0
 11
690.575869
 21
473.077685
 31
0.0
  0
LINE
  5
3DE9
100
AcDbEntity
  8
0
100
AcDbLine
 10
697.672773
 20
532.878927
 30
0.0
 11
711.440258
 21
532.878927
 31
0.0
  0
LINE
  5
3DEA
100
AcDbEntity
  8
0
100
AcDbLine
 10
725.440258
 20
534.95618
 30
0.0
 11
720.440258
 21
534.95618
 31
0.0
  0
LINE
  5
3DEB
100
AcDbEntity
  8
0
100
AcDbLine
 10
719.440258
 20
535.95618
 30
0.0
 11
720.440258
 21
534.95618
 31
0.0
  0
LINE
  5
3DEC
100
AcDbEntity
  8
0
100
AcDbLine
 10
726.440258
 20
535.95618
 30
0.0
 11
725.440258
 21
534.95618
 31
0.0
  0
LINE
  5
3DED
100
AcDbEntity
  8
0
100
AcDbLine
 10
719.440258
 20
540.270991
 30
0.0
 11
711.440258
 21
540.770991
 31
0.0
  0
ARC
  5
3DEE
100
AcDbEntity
  8
0
100
AcDbCircle
 10
665.773592
 20
556.895491
 30
0.0
 40
60.666667
100
AcDbArc
 50
349.582562
 51
10.417438
  0
ARC
  5
3DEF
100
AcDbEntity
  8
0
100
AcDbCircle
 10
780.106925
 20
556.895491
 30
0.0
 40
60.666667
100
AcDbArc
 50
169.582562
 51
190.417438
  0
LINE
  5
3DF0
100
AcDbEntity
  8
0
100
AcDbLine
 10
726.440258
 20
577.834801
 30
0.0
 11
726.440258
 21
556.895491
 31
0.0
  0
LINE
  5
3DF1
100
AcDbEntity
  8
0
100
AcDbLine
 10
711.440258
 20
556.895491
 30
0.0
 11
711.440258
 21
580.912054
 31
0.0
  0
LINE
  5
3DF2
100
AcDbEntity
  8
0
100
AcDbLine
 10
725.440258
 20
545.925835
 30
0.0
 11
720.440258
 21
545.925835
 31
0.0
  0
LINE
  5
3DF3
100
AcDbEntity
  8
0
100
AcDbLine
 10
725.440258
 20
578.834801
 30
0.0
 11
720.440258
 21
578.834801
 31
0.0
  0
LINE
  5
3DF4
100
AcDbEntity
  8
0
100
AcDbLine
 10
725.440258
 20
567.865146
 30
0.0
 11
720.440258
 21
567.865146
 31
0.0
  0
LINE
  5
3DF5
100
AcDbEntity
  8
0
100
AcDbLine
 10
719.440258
 20
577.834801
 30
0.0
 11
720.440258
 21
578.834801
 31
0.0
  0
ARC
  5
3DF6
100
AcDbEntity
  8
0
100
AcDbCircle
 10
734.981925
 20
573.349973
 30
0.0
 40
15.541667
100
AcDbArc
 50
159.334522
 51
200.665478
  0
LINE
  5
3DF7
100
AcDbEntity
  8
0
100
AcDbLine
 10
726.440258
 20
577.834801
 30
0.0
 11
725.440258
 21
578.834801
 31
0.0
  0
ARC
  5
3DF8
100
AcDbEntity
  8
0
100
AcDbCircle
 10
710.898592
 20
573.349973
 30
0.0
 40
15.541667
100
AcDbArc
 50
339.334522
 51
20.665478
  0
LINE
  5
3DF9
100
AcDbEntity
  8
0
100
AcDbLine
 10
719.440258
 20
573.519991
 30
0.0
 11
711.440258
 21
573.019991
 31
0.0
  0
LINE
  5
3DFA
100
AcDbEntity
  8
0
100
AcDbLine
 10
737.758409
 20
626.443455
 30
0.0
 11
684.620661
 21
626.443455
 31
0.0
  0
LINE
  5
3DFB
100
AcDbEntity
  8
0
100
AcDbLine
 10
677.97718
 20
614.945525
 30
0.0
 11
677.116587
 21
615.44587
 31
0.0
  0
LINE
  5
3DFC
100
AcDbEntity
  8
0
100
AcDbLine
 10
675.375386
 20
616.44656
 30
0.0
 11
674.514792
 21
616.946905
 31
0.0
  0
LINE
  5
3DFD
100
AcDbEntity
  8
0
100
AcDbLine
 10
684.620661
 20
626.443455
 30
0.0
 11
677.97718
 21
614.945525
 31
0.0
  0
LINE
  5
3DFE
100
AcDbEntity
  8
0
100
AcDbLine
 10
952.356044
 20
459.123061
 30
0.0
 11
952.356044
 21
463.560028
 31
0.0
  0
ELLIPSE
  5
3DFF
100
AcDbEntity
  8
0
100
AcDbEllipse
 10
938.896044
 20
470.819403
 30
0.0
 11
-26.79129999999997
 21
0.0
 31
0.0
210
0.0
220
0.0
230
1.0
 40
0.698623
 41
8.415985257308701
 42
9.470080485211866
  0
ARC
  5
3E00
100
AcDbEntity
  8
0
100
AcDbCircle
 10
968.896044
 20
474.46055
 30
0.0
 40
15.0
100
AcDbArc
 50
275.287125
 51
0.0
  0
LINE
  5
3E01
100
AcDbEntity
  8
0
100
AcDbLine
 10
925.436044
 20
459.123061
 30
0.0
 11
925.436044
 21
463.560028
 31
0.0
  0
ELLIPSE
  5
3E02
100
AcDbEntity
  8
0
100
AcDbEllipse
 10
938.896044
 20
470.819403
 30
0.0
 11
-26.79129999999997
 21
0.0
 31
0.0
210
0.0
220
0.0
230
1.0
 40
0.698623
 41
6.237882782737512
 42
7.291978010640269
  0
ELLIPSE
  5
3E03
100
AcDbEntity
  8
0
100
AcDbEllipse
 10
938.896044
 20
459.123061
 30
0.0
 11
-13.46000000000003
 21
0.0
 31
0.0
210
0.0
220
0.0
230
1.0
 40
0.707107
 41
2.254283521725644
 42
7.170494439043817
  0
ELLIPSE
  5
3E04
100
AcDbEntity
  8
0
100
AcDbEllipse
 10
938.896044
 20
463.846319
 30
0.0
 11
-19.0
 21
0.0
 31
0.0
210
0.0
220
0.0
230
1.0
 40
0.707107
 41
2.056715815188956
 42
7.368062145580465
  0
ELLIPSE
  5
3E05
100
AcDbEntity
  8
0
100
AcDbEllipse
 10
926.896044
 20
478.434541
 30
0.0
 11
-28.0
 21
0.0
 31
0.0
210
0.0
220
0.0
230
1.0
 40
0.984808
 41
5.668392056539574
 42
7.544633709209753
  0
LINE
  5
3E06
100
AcDbEntity
  8
0
100
AcDbLine
 10
947.396044
 20
465.133469
 30
0.0
 11
947.396044
 21
445.327284
 31
0.0
  0
LINE
  5
3E07
100
AcDbEntity
  8
0
100
AcDbLine
 10
930.396044
 20
465.133469
 30
0.0
 11
930.396044
 21
445.327284
 31
0.0
  0
LINE
  5
3E08
100
AcDbEntity
  8
0
100
AcDbLine
 10
893.896044
 20
472.888244
 30
0.0
 11
893.896044
 21
446.888244
 31
0.0
  0
LINE
  5
3E09
100
AcDbEntity
  8
0
100
AcDbLine
 10
986.896044
 20
472.888244
 30
0.0
 11
986.896044
 21
446.888244
 31
0.0
  0
LINE
  5
3E0A
100
AcDbEntity
  8
0
100
AcDbLine
 10
895.896044
 20
444.888244
 30
0.0
 11
984.896044
 21
444.888244
 31
0.0
  0
ARC
  5
3E0B
100
AcDbEntity
  8
0
100
AcDbCircle
 10
895.896044
 20
446.888244
 30
0.0
 40
2.0
100
AcDbArc
 50
180.0
 51
270.0
  0
LINE
  5
3E0C
100
AcDbEntity
  8
0
100
AcDbLine
 10
930.396044
 20
457.3481
 30
0.0
 11
947.396044
 21
457.3481
 31
0.0
  0
LINE
  5
3E0D
100
AcDbEntity
  8
0
100
AcDbLine
 10
930.396044
 20
445.327284
 30
0.0
 11
947.396044
 21
445.327284
 31
0.0
  0
ELLIPSE
  5
3E0E
100
AcDbEntity
  8
0
100
AcDbEllipse
 10
938.896044
 20
477.617203
 30
0.0
 11
-33.0
 21
0.0
 31
0.0
210
0.0
220
0.0
230
1.0
 40
0.984808
 41
0.8995696233552447
 42
1.310283863427573
  0
ARC
  5
3E0F
100
AcDbEntity
  8
0
100
AcDbCircle
 10
971.199715
 20
449.566914
 30
0.0
 40
10.0
100
AcDbArc
 50
95.287125
 51
138.365006
  0
ELLIPSE
  5
3E10
100
AcDbEntity
  8
0
100
AcDbEllipse
 10
938.896044
 20
477.617203
 30
0.0
 11
-33.0
 21
0.0
 31
0.0
210
0.0
220
0.0
230
1.0
 40
0.984808
 41
1.831308790162253
 42
2.422519496535802
  0
ARC
  5
3E11
100
AcDbEntity
  8
0
100
AcDbCircle
 10
984.896044
 20
446.888244
 30
0.0
 40
2.0
100
AcDbArc
 50
270.0
 51
0.0
  0
ARC
  5
3E12
100
AcDbEntity
  8
0
100
AcDbCircle
 10
985.896044
 20
476.761228
 30
0.0
 40
2.0
100
AcDbArc
 50
180.0
 51
255.522488
  0
ARC
  5
3E13
100
AcDbEntity
  8
0
100
AcDbCircle
 10
968.896044
 20
479.991155
 30
0.0
 40
15.0
100
AcDbArc
 50
0.0
 51
53.130102
  0
POLYLINE
  5
3E14
100
AcDbEntity
  8
0
100
AcDb2dPolyline
 66
     1
 10
0.0
 20
0.0
 30
0.0
 70
     1
  0
VERTEX
  5
42BA
100
AcDbEntity
  8
0
100
AcDbVertex
100
AcDb2dVertex
 10
957.896044
 20
567.865146
 30
0.0
  0
VERTEX
  5
42BB
100
AcDbEntity
  8
0
100
AcDbVertex
100
AcDb2dVertex
 10
938.896044
 20
578.834801
 30
0.0
  0
VERTEX
  5
42BC
100
AcDbEntity
  8
0
100
AcDbVertex
100
AcDb2dVertex
 10
919.896044
 20
567.865146
 30
0.0
  0
VERTEX
  5
42BD
100
AcDbEntity
  8
0
100
AcDbVertex
100
AcDb2dVertex
 10
919.896044
 20
545.925835
 30
0.0
  0
VERTEX
  5
42BE
100
AcDbEntity
  8
0
100
AcDbVertex
100
AcDb2dVertex
 10
938.896044
 20
534.95618
 30
0.0
  0
VERTEX
  5
42BF
100
AcDbEntity
  8
0
100
AcDbVertex
100
AcDb2dVertex
 10
957.896044
 20
545.925835
 30
0.0
  0
SEQEND
  5
42C0
100
AcDbEntity
  8
0
  0
CIRCLE
  5
3E15
100
AcDbEntity
  8
0
100
AcDbCircle
 10
938.896044
 20
556.895491
 30
0.0
 40
24.0
  0
LINE
  5
3E16
100
AcDbEntity
  8
0
100
AcDbLine
 10
914.831221
 20
554.896541
 30
0.0
 11
912.104744
 21
470.819403
 31
0.0
  0
LINE
  5
3E17
100
AcDbEntity
  8
0
100
AcDbLine
 10
962.960866
 20
554.896541
 30
0.0
 11
965.659857
 21
471.66704
 31
0.0
  0
ARC
  5
3E18
100
AcDbEntity
  8
0
100
AcDbCircle
 10
895.896044
 20
500.166113
 30
0.0
 40
10.0
100
AcDbArc
 50
324.360613
 51
0.0
  0
ARC
  5
3E19
100
AcDbEntity
  8
0
100
AcDbCircle
 10
938.896044
 20
511.598596
 30
0.0
 40
33.0
100
AcDbArc
 50
138.620566
 51
180.0
  0
ELLIPSE
  5
3E1A
100
AcDbEntity
  8
0
100
AcDbEllipse
 10
915.896044
 20
512.579026
 30
0.0
 11
-15.00000000000005
 21
0.0000000000000284
 31
0.0
210
0.0
220
0.0
230
-1.0
 40
0.984798
 41
6.283185307179586
 42
7.382139219865484
  0
ELLIPSE
  5
3E1B
100
AcDbEntity
  8
0
100
AcDbEllipse
 10
915.896044
 20
510.580939
 30
0.0
 11
-15.00000000000005
 21
0.0000000000000284
 31
0.0
210
0.0
220
0.0
230
-1.0
 40
0.984798
 41
6.283185307179586
 42
7.297616549881664
  0
ELLIPSE
  5
3E1C
100
AcDbEntity
  8
0
100
AcDbEllipse
 10
915.896044
 20
508.831834
 30
0.0
 11
-15.00000000000005
 21
0.0000000000000284
 31
0.0
210
0.0
220
0.0
230
-1.0
 40
0.984798
 41
6.283185307179586
 42
7.238111907842699
  0
LINE
  5
3E1D
100
AcDbEntity
  8
0
100
AcDbLine
 10
905.896044
 20
511.598596
 30
0.0
 11
905.896044
 21
500.166113
 31
0.0
  0
LINE
  5
3E1E
100
AcDbEntity
  8
0
100
AcDbLine
 10
900.896044
 20
512.579026
 30
0.0
 11
900.896044
 21
488.668964
 31
0.0
  0
ARC
  5
3E1F
100
AcDbEntity
  8
0
100
AcDbCircle
 10
895.896044
 20
472.888244
 30
0.0
 40
2.0
100
AcDbArc
 50
90.0
 51
180.0
  0
LINE
  5
3E20
100
AcDbEntity
  8
0
100
AcDbLine
 10
895.896044
 20
474.888244
 30
0.0
 11
895.896044
 21
474.888244
 31
0.0
  0
ARC
  5
3E21
100
AcDbEntity
  8
0
100
AcDbCircle
 10
895.896044
 20
477.888244
 30
0.0
 40
3.0
100
AcDbArc
 50
270.0
 51
0.0
  0
LINE
  5
3E22
100
AcDbEntity
  8
0
100
AcDbLine
 10
898.896044
 20
478.434541
 30
0.0
 11
898.896044
 21
477.888244
 31
0.0
  0
ARC
  5
3E23
100
AcDbEntity
  8
0
100
AcDbCircle
 10
986.896044
 20
503.991155
 30
0.0
 40
15.0
100
AcDbArc
 50
180.0
 51
233.130102
  0
LINE
  5
3E24
100
AcDbEntity
  8
0
100
AcDbLine
 10
976.896044
 20
512.579026
 30
0.0
 11
976.896044
 21
492.810816
 31
0.0
  0
LINE
  5
3E25
100
AcDbEntity
  8
0
100
AcDbLine
 10
930.396044
 20
465.133469
 30
0.0
 11
947.396044
 21
465.133469
 31
0.0
  0
ELLIPSE
  5
3E26
100
AcDbEntity
  8
0
100
AcDbEllipse
 10
938.896044
 20
463.560028
 30
0.0
 11
-13.46000000000003
 21
0.0
 31
0.0
210
0.0
220
0.0
230
1.0
 40
0.707107
 41
3.141592653589793
 42
6.283185307179586
  0
LINE
  5
3E27
100
AcDbEntity
  8
0
100
AcDbLine
 10
983.896044
 20
478.811956
 30
0.0
 11
983.896044
 21
474.46055
 31
0.0
  0
LINE
  5
3E28
100
AcDbEntity
  8
0
100
AcDbLine
 10
983.896044
 20
476.388244
 30
0.0
 11
983.912044
 21
476.170244
 31
0.0
  0
LINE
  5
3E29
100
AcDbEntity
  8
0
100
AcDbLine
 10
983.896044
 20
479.991155
 30
0.0
 11
983.896044
 21
476.761228
 31
0.0
  0
ELLIPSE
  5
3E2A
100
AcDbEntity
  8
0
100
AcDbEllipse
 10
961.896044
 20
512.579026
 30
0.0
 11
15.00000000000005
 21
0.0000000000000284
 31
0.0
210
0.0
220
0.0
230
1.0
 40
0.984798
 41
6.283185307179586
 42
7.382139219865466
  0
ARC
  5
3E2B
100
AcDbEntity
  8
0
100
AcDbCircle
 10
938.896044
 20
511.598596
 30
0.0
 40
33.0
100
AcDbArc
 50
0.0
 51
41.379434
  0
LINE
  5
3E2C
100
AcDbEntity
  8
0
100
AcDbLine
 10
971.896044
 20
511.598596
 30
0.0
 11
971.896044
 21
503.991155
 31
0.0
  0
ELLIPSE
  5
3E2D
100
AcDbEntity
  8
0
100
AcDbEllipse
 10
961.896044
 20
508.831834
 30
0.0
 11
15.00000000000005
 21
0.0000000000000284
 31
0.0
210
0.0
220
0.0
230
1.0
 40
0.984798
 41
6.283185307179586
 42
7.238111907842669
  0
ELLIPSE
  5
3E2E
100
AcDbEntity
  8
0
100
AcDbEllipse
 10
961.896044
 20
510.580939
 30
0.0
 11
15.00000000000005
 21
0.0000000000000284
 31
0.0
210
0.0
220
0.0
230
1.0
 40
0.984798
 41
6.283185307179586
 42
7.297616549881648
  0
LINE
  5
3E2F
100
AcDbEntity
  8
0
100
AcDbLine
 10
919.882931
 20
590.41861
 30
0.0
 11
919.882931
 21
571.541362
 31
0.0
  0
LINE
  5
3E30
100
AcDbEntity
  8
0
100
AcDbLine
 10
957.909156
 20
571.541362
 30
0.0
 11
957.909156
 21
590.41861
 31
0.0
  0
ARC
  5
3E31
100
AcDbEntity
  8
0
100
AcDbCircle
 10
914.896044
 20
556.895491
 30
0.0
 40
2.0
100
AcDbArc
 50
87.611985
 51
272.388015
  0
ARC
  5
3E32
100
AcDbEntity
  8
0
100
AcDbCircle
 10
962.896044
 20
556.895491
 30
0.0
 40
2.0
100
AcDbArc
 50
267.611985
 51
92.388015
  0
LINE
  5
3E33
100
AcDbEntity
  8
0
100
AcDbLine
 10
947.896044
 20
626.443455
 30
0.0
 11
929.896044
 21
626.443455
 31
0.0
  0
LINE
  5
3E34
100
AcDbEntity
  8
0
100
AcDbLine
 10
930.390178
 20
591.4193
 30
0.0
 11
947.40191
 21
591.4193
 31
0.0
  0
LINE
  5
3E35
100
AcDbEntity
  8
0
100
AcDbLine
 10
947.40191
 20
597.423441
 30
0.0
 11
930.390178
 21
597.423441
 31
0.0
  0
LINE
  5
3E36
100
AcDbEntity
  8
0
100
AcDbLine
 10
957.909156
 20
590.41861
 30
0.0
 11
919.882931
 21
590.41861
 31
0.0
  0
LINE
  5
3E37
100
AcDbEntity
  8
0
100
AcDbLine
 10
929.896044
 20
614.945525
 30
0.0
 11
947.896044
 21
614.945525
 31
0.0
  0
LINE
  5
3E38
100
AcDbEntity
  8
0
100
AcDbLine
 10
919.896044
 20
599.424821
 30
0.0
 11
957.896044
 21
599.424821
 31
0.0
  0
LINE
  5
3E39
100
AcDbEntity
  8
0
100
AcDbLine
 10
931.396044
 20
614.945525
 30
0.0
 11
931.396044
 21
599.424821
 31
0.0
  0
LINE
  5
3E3A
100
AcDbEntity
  8
0
100
AcDbLine
 10
931.396044
 20
601.426201
 30
0.0
 11
919.896044
 21
601.426201
 31
0.0
  0
LINE
  5
3E3B
100
AcDbEntity
  8
0
100
AcDbLine
 10
919.896044
 20
601.426201
 30
0.0
 11
919.896044
 21
599.424821
 31
0.0
  0
LINE
  5
3E3C
100
AcDbEntity
  8
0
100
AcDbLine
 10
936.654498
 20
597.923786
 30
0.0
 11
941.127583
 21
597.923786
 31
0.0
  0
LINE
  5
3E3D
100
AcDbEntity
  8
0
100
AcDbLine
 10
930.890523
 20
591.4193
 30
0.0
 11
930.890523
 21
590.41861
 31
0.0
  0
LINE
  5
3E3E
100
AcDbEntity
  8
0
100
AcDbLine
 10
930.390178
 20
597.423441
 30
0.0
 11
930.390178
 21
591.4193
 31
0.0
  0
LINE
  5
3E3F
100
AcDbEntity
  8
0
100
AcDbLine
 10
935.90398
 20
597.423441
 30
0.0
 11
935.893974
 21
597.423441
 31
0.0
  0
LINE
  5
3E40
100
AcDbEntity
  8
0
100
AcDbLine
 10
931.891213
 20
597.423441
 30
0.0
 11
931.891213
 21
599.424821
 31
0.0
  0
LINE
  5
3E41
100
AcDbEntity
  8
0
100
AcDbLine
 10
941.908121
 20
597.423441
 30
0.0
 11
941.898114
 21
597.423441
 31
0.0
  0
LINE
  5
3E42
100
AcDbEntity
  8
0
100
AcDbLine
 10
936.654498
 20
599.424821
 30
0.0
 11
936.654498
 21
597.923786
 31
0.0
  0
LINE
  5
3E43
100
AcDbEntity
  8
0
100
AcDbLine
 10
935.893974
 20
597.423441
 30
0.0
 11
935.893974
 21
599.424821
 31
0.0
  0
LINE
  5
3E44
100
AcDbEntity
  8
0
100
AcDbLine
 10
941.127583
 20
597.923786
 30
0.0
 11
941.127583
 21
599.424821
 31
0.0
  0
LINE
  5
3E45
100
AcDbEntity
  8
0
100
AcDbLine
 10
941.898114
 20
599.424821
 30
0.0
 11
941.898114
 21
597.423441
 31
0.0
  0
LINE
  5
3E46
100
AcDbEntity
  8
0
100
AcDbLine
 10
946.396044
 20
614.945525
 30
0.0
 11
946.396044
 21
599.424821
 31
0.0
  0
LINE
  5
3E47
100
AcDbEntity
  8
0
100
AcDbLine
 10
946.901565
 20
591.4193
 30
0.0
 11
946.901565
 21
590.41861
 31
0.0
  0
LINE
  5
3E48
100
AcDbEntity
  8
0
100
AcDbLine
 10
947.40191
 20
597.423441
 30
0.0
 11
947.40191
 21
591.4193
 31
0.0
  0
LINE
  5
3E49
100
AcDbEntity
  8
0
100
AcDbLine
 10
945.900875
 20
598.924476
 30
0.0
 11
945.900875
 21
599.424821
 31
0.0
  0
LINE
  5
3E4A
100
AcDbEntity
  8
0
100
AcDbLine
 10
945.900875
 20
599.424821
 30
0.0
 11
945.900875
 21
597.423441
 31
0.0
  0
LINE
  5
3E4B
100
AcDbEntity
  8
0
100
AcDbLine
 10
946.396044
 20
601.426201
 30
0.0
 11
957.896044
 21
601.426201
 31
0.0
  0
LINE
  5
3E4C
100
AcDbEntity
  8
0
100
AcDbLine
 10
957.896044
 20
601.426201
 30
0.0
 11
957.896044
 21
599.424821
 31
0.0
  0
ARC
  5
3E4D
100
AcDbEntity
  8
0
100
AcDbCircle
 10
984.896044
 20
472.888244
 30
0.0
 40
2.0
100
AcDbArc
 50
0.0
 51
75.522488
  0
TEXT
  5
3E4E
100
AcDbEntity
  8
0
100
AcDbText
 10
136.524309
 20
775.358085
 30
0.0
 40
30.0
  1
平面
100
AcDbText
  0
LINE
  5
3E4F
100
AcDbEntity
  8
0
100
AcDbLine
 10
374.782206
 20
630.446215
 30
0.0
 11
356.782206
 21
630.446215
 31
0.0
  0
TEXT
  5
3E50
100
AcDbEntity
  8
0
100
AcDbText
 10
136.524309
 20
1038.687263
 30
0.0
 40
30.0
  1
背面
100
AcDbText
  0
LINE
  5
3E51
100
AcDbEntity
  8
0
100
AcDbLine
 10
737.690258
 20
791.112925
 30
0.0
 11
737.690258
 21
783.322925
 31
0.0
  0
LINE
  5
3E52
100
AcDbEntity
  8
0
100
AcDbLine
 10
647.690258
 20
792.992925
 30
0.0
 11
652.690258
 21
790.102925
 31
0.0
  0
LINE
  5
3E53
100
AcDbEntity
  8
0
100
AcDbLine
 10
642.690258
 20
790.102925
 30
0.0
 11
647.690258
 21
792.992925
 31
0.0
  0
CIRCLE
  5
3E54
100
AcDbEntity
  8
0
100
AcDbCircle
 10
647.690258
 20
787.212925
 30
0.0
 40
5.0
  0
LINE
  5
3E55
100
AcDbEntity
  8
0
100
AcDbLine
 10
682.850258
 20
780.482925
 30
0.0
 11
682.850258
 21
794.082925
 31
0.0
  0
LINE
  5
3E56
100
AcDbEntity
  8
0
100
AcDbLine
 10
666.690258
 20
781.332925
 30
0.0
 11
666.690258
 21
793.022925
 31
0.0
  0
LINE
  5
3E57
100
AcDbEntity
  8
0
100
AcDbLine
 10
566.490258
 20
811.212925
 30
0.0
 11
566.490258
 21
787.212925
 31
0.0
  0
LINE
  5
3E58
100
AcDbEntity
  8
0
100
AcDbLine
 10
566.490258
 20
787.212925
 30
0.0
 11
566.490258
 21
803.982925
 31
0.0
  0
CIRCLE
  5
3E59
100
AcDbEntity
  8
0
100
AcDbCircle
 10
578.990258
 20
787.212925
 30
0.0
 40
8.50006
  0
CIRCLE
  5
3E5A
100
AcDbEntity
  8
0
100
AcDbCircle
 10
578.990258
 20
787.212925
 30
0.0
 40
7.5
  0
LINE
  5
3E5B
100
AcDbEntity
  8
0
100
AcDbLine
 10
551.440258
 20
808.152925
 30
0.0
 11
551.440258
 21
766.272925
 31
0.0
  0
LINE
  5
3E5C
100
AcDbEntity
  8
0
100
AcDbLine
 10
558.440258
 20
808.152925
 30
0.0
 11
558.440258
 21
766.212925
 31
0.0
  0
LINE
  5
3E5D
100
AcDbEntity
  8
0
100
AcDbLine
 10
592.110258
 20
810.972925
 30
0.0
 11
592.110258
 21
763.452925
 31
0.0
  0
LINE
  5
3E5E
100
AcDbEntity
  8
0
100
AcDbLine
 10
599.390258
 20
806.452925
 30
0.0
 11
599.390258
 21
767.972925
 31
0.0
  0
ARC
  5
3E5F
100
AcDbEntity
  8
0
100
AcDbCircle
 10
647.690258
 20
787.212925
 30
0.0
 40
12.498324
100
AcDbArc
 50
54.44312
 51
215.524723
  0
ARC
  5
3E60
100
AcDbEntity
  8
0
100
AcDbCircle
 10
647.690258
 20
787.212925
 30
0.0
 40
19.0
100
AcDbArc
 50
26.980306
 51
333.019694
  0
LINE
  5
3E61
100
AcDbEntity
  8
0
100
AcDbLine
 10
684.670258
 20
759.212925
 30
0.0
 11
649.115706
 21
759.212925
 31
0.0
  0
ARC
  5
3E62
100
AcDbEntity
  8
0
100
AcDbCircle
 10
673.384508
 20
772.195549
 30
0.0
 40
12.982625
100
AcDbArc
 50
202.616551
 51
269.981243
  0
LINE
  5
3E63
100
AcDbEntity
  8
0
100
AcDbLine
 10
732.590258
 20
778.322925
 30
0.0
 11
666.450258
 21
779.692925
 31
0.0
  0
LINE
  5
3E64
100
AcDbEntity
  8
0
100
AcDbLine
 10
665.390258
 20
763.212925
 30
0.0
 11
711.390258
 21
763.212925
 31
0.0
  0
LINE
  5
3E65
100
AcDbEntity
  8
0
100
AcDbLine
 10
592.610258
 20
749.212925
 30
0.0
 11
562.050258
 21
749.212925
 31
0.0
  0
LINE
  5
3E66
100
AcDbEntity
  8
0
100
AcDbLine
 10
591.662023
 20
763.212925
 30
0.0
 11
599.838494
 21
768.212925
 31
0.0
  0
ARC
  5
3E67
100
AcDbEntity
  8
0
100
AcDbCircle
 10
565.300494
 20
752.281428
 30
0.0
 40
4.469871
100
AcDbArc
 50
185.372332
 51
223.352574
  0
ARC
  5
3E68
100
AcDbEntity
  8
0
100
AcDbCircle
 10
539.923088
 20
758.452925
 30
0.0
 40
34.705899
100
AcDbArc
 50
344.559522
 51
7.883106
  0
ARC
  5
3E69
100
AcDbEntity
  8
0
100
AcDbCircle
 10
540.866691
 20
758.953871
 30
0.0
 40
43.542279
100
AcDbArc
 50
347.072827
 51
358.853875
  0
ARC
  5
3E6A
100
AcDbEntity
  8
0
100
AcDbCircle
 10
558.298823
 20
756.999096
 30
0.0
 40
25.28955
100
AcDbArc
 50
342.068425
 51
355.495509
  0
LINE
  5
3E6B
100
AcDbEntity
  8
0
100
AcDbLine
 10
558.440258
 20
776.242925
 30
0.0
 11
551.440258
 21
776.242925
 31
0.0
  0
LINE
  5
3E6C
100
AcDbEntity
  8
0
100
AcDbLine
 10
552.440258
 20
765.272925
 30
0.0
 11
557.440258
 21
765.272925
 31
0.0
  0
LINE
  5
3E6D
100
AcDbEntity
  8
0
100
AcDbLine
 10
551.440258
 20
766.272925
 30
0.0
 11
552.440258
 21
765.272925
 31
0.0
  0
LINE
  5
3E6E
100
AcDbEntity
  8
0
100
AcDbLine
 10
566.490258
 20
787.212925
 30
0.0
 11
566.490258
 21
763.212925
 31
0.0
  0
LINE
  5
3E6F
100
AcDbEntity
  8
0
100
AcDbLine
 10
566.490258
 20
770.442925
 30
0.0
 11
566.490258
 21
787.212925
 31
0.0
  0
LINE
  5
3E70
100
AcDbEntity
  8
0
100
AcDbLine
 10
566.490258
 20
763.212925
 30
0.0
 11
591.662023
 21
763.212925
 31
0.0
  0
LINE
  5
3E71
100
AcDbEntity
  8
0
100
AcDbLine
 10
571.761756
 20
763.212925
 30
0.0
 11
572.590258
 21
759.712925
 31
0.0
  0
LINE
  5
3E72
100
AcDbEntity
  8
0
100
AcDbLine
 10
572.590258
 20
759.712925
 30
0.0
 11
571.120258
 21
753.212925
 31
0.0
  0
LINE
  5
3E73
100
AcDbEntity
  8
0
100
AcDbLine
 10
568.000258
 20
759.712925
 30
0.0
 11
572.590258
 21
759.712925
 31
0.0
  0
LINE
  5
3E74
100
AcDbEntity
  8
0
100
AcDbLine
 10
565.540258
 20
766.212925
 30
0.0
 11
564.920258
 21
759.702925
 31
0.0
  0
LINE
  5
3E75
100
AcDbEntity
  8
0
100
AcDbLine
 10
568.000258
 20
759.712925
 30
0.0
 11
567.164732
 21
763.212925
 31
0.0
  0
LINE
  5
3E76
100
AcDbEntity
  8
0
100
AcDbLine
 10
561.460258
 20
766.212925
 30
0.0
 11
563.010258
 21
759.712925
 31
0.0
  0
LINE
  5
3E77
100
AcDbEntity
  8
0
100
AcDbLine
 10
566.530258
 20
753.212925
 30
0.0
 11
568.000258
 21
759.712925
 31
0.0
  0
LINE
  5
3E78
100
AcDbEntity
  8
0
100
AcDbLine
 10
564.920258
 20
759.702925
 30
0.0
 11
565.540258
 21
753.212925
 31
0.0
  0
LINE
  5
3E79
100
AcDbEntity
  8
0
100
AcDbLine
 10
563.010258
 20
759.712925
 30
0.0
 11
561.540258
 21
753.212925
 31
0.0
  0
LINE
  5
3E7A
100
AcDbEntity
  8
0
100
AcDbLine
 10
560.850258
 20
751.862925
 30
0.0
 11
560.630258
 21
753.212925
 31
0.0
  0
LINE
  5
3E7B
100
AcDbEntity
  8
0
100
AcDbLine
 10
565.540258
 20
753.212925
 30
0.0
 11
571.120258
 21
753.212925
 31
0.0
  0
LINE
  5
3E7C
100
AcDbEntity
  8
0
100
AcDbLine
 10
566.035258
 20
762.591141
 30
0.0
 11
566.035258
 21
762.591141
 31
0.0
  0
ARC
  5
3E7D
100
AcDbEntity
  8
0
100
AcDbCircle
 10
591.501523
 20
774.139895
 30
0.0
 40
28.490061
100
AcDbArc
 50
187.578015
 51
202.183197
  0
ARC
  5
3E7E
100
AcDbEntity
  8
0
100
AcDbCircle
 10
571.428213
 20
766.770914
 30
0.0
 40
5.00913
100
AcDbArc
 50
186.395706
 51
189.670239
  0
LINE
  5
3E7F
100
AcDbEntity
  8
0
100
AcDbLine
 10
566.490258
 20
766.212925
 30
0.0
 11
566.490258
 21
766.212925
 31
0.0
  0
LINE
  5
3E80
100
AcDbEntity
  8
0
100
AcDbLine
 10
566.450258
 20
766.212925
 30
0.0
 11
565.540258
 21
766.212925
 31
0.0
  0
LINE
  5
3E81
100
AcDbEntity
  8
0
100
AcDbLine
 10
560.250258
 20
770.322925
 30
0.0
 11
560.250258
 21
766.212925
 31
0.0
  0
LINE
  5
3E82
100
AcDbEntity
  8
0
100
AcDbLine
 10
558.420258
 20
759.712925
 30
0.0
 11
556.950258
 21
753.212925
 31
0.0
  0
LINE
  5
3E83
100
AcDbEntity
  8
0
100
AcDbLine
 10
557.100258
 20
765.272925
 30
0.0
 11
558.420258
 21
759.712925
 31
0.0
  0
LINE
  5
3E84
100
AcDbEntity
  8
0
100
AcDbLine
 10
558.420258
 20
759.712925
 30
0.0
 11
557.100258
 21
765.272925
 31
0.0
  0
LINE
  5
3E85
100
AcDbEntity
  8
0
100
AcDbLine
 10
556.950258
 20
753.212925
 30
0.0
 11
558.420258
 21
759.712925
 31
0.0
  0
LINE
  5
3E86
100
AcDbEntity
  8
0
100
AcDbLine
 10
557.440258
 20
765.272925
 30
0.0
 11
558.440258
 21
766.212925
 31
0.0
  0
LINE
  5
3E87
100
AcDbEntity
  8
0
100
AcDbLine
 10
555.960258
 20
753.212925
 30
0.0
 11
561.540258
 21
753.212925
 31
0.0
  0
LINE
  5
3E88
100
AcDbEntity
  8
0
100
AcDbLine
 10
558.420258
 20
759.712925
 30
0.0
 11
563.010258
 21
759.712925
 31
0.0
  0
LINE
  5
3E89
100
AcDbEntity
  8
0
100
AcDbLine
 10
558.440258
 20
770.292925
 30
0.0
 11
566.490258
 21
770.442925
 31
0.0
  0
LINE
  5
3E8A
100
AcDbEntity
  8
0
100
AcDbLine
 10
558.440258
 20
766.212925
 30
0.0
 11
561.460258
 21
766.212925
 31
0.0
  0
LINE
  5
3E8B
100
AcDbEntity
  8
0
100
AcDbLine
 10
555.870258
 20
765.272925
 30
0.0
 11
555.340258
 21
759.702925
 31
0.0
  0
LINE
  5
3E8C
100
AcDbEntity
  8
0
100
AcDbLine
 10
555.340258
 20
759.702925
 30
0.0
 11
555.960258
 21
753.212925
 31
0.0
  0
LINE
  5
3E8D
100
AcDbEntity
  8
0
100
AcDbLine
 10
574.610258
 20
759.592925
 30
0.0
 11
574.610258
 21
759.592925
 31
0.0
  0
LINE
  5
3E8E
100
AcDbEntity
  8
0
100
AcDbLine
 10
584.433038
 20
763.212925
 30
0.0
 11
584.400258
 21
758.082925
 31
0.0
  0
ARC
  5
3E8F
100
AcDbEntity
  8
0
100
AcDbCircle
 10
517.317761
 20
759.907914
 30
0.0
 40
66.373245
100
AcDbArc
 50
355.770629
 51
2.854185
  0
LINE
  5
3E90
100
AcDbEntity
  8
0
100
AcDbLine
 10
583.690258
 20
759.592925
 30
0.0
 11
583.690258
 21
759.592925
 31
0.0
  0
LINE
  5
3E91
100
AcDbEntity
  8
0
100
AcDbLine
 10
584.420258
 20
759.592925
 30
0.0
 11
584.420258
 21
759.592925
 31
0.0
  0
LINE
  5
3E92
100
AcDbEntity
  8
0
100
AcDbLine
 10
647.970258
 20
742.212925
 30
0.0
 11
647.970258
 21
757.572925
 31
0.0
  0
ARC
  5
3E93
100
AcDbEntity
  8
0
100
AcDbCircle
 10
576.993759
 20
756.871686
 30
0.0
 40
17.393437
100
AcDbArc
 50
333.875396
 51
1.618407
  0
ARC
  5
3E94
100
AcDbEntity
  8
0
100
AcDbCircle
 10
626.40713
 20
774.300002
 30
0.0
 40
27.263516
100
AcDbArc
 50
227.457416
 51
326.400812
  0
LINE
  5
3E95
100
AcDbEntity
  8
0
100
AcDbLine
 10
617.970258
 20
742.212925
 30
0.0
 11
647.970258
 21
742.212925
 31
0.0
  0
LINE
  5
3E96
100
AcDbEntity
  8
0
100
AcDbLine
 10
617.970258
 20
748.856773
 30
0.0
 11
617.970258
 21
742.212925
 31
0.0
  0
LINE
  5
3E97
100
AcDbEntity
  8
0
100
AcDbLine
 10
630.21731
 20
779.749944
 30
0.0
 11
637.518312
 21
779.950721
 31
0.0
  0
LINE
  5
3E98
100
AcDbEntity
  8
0
100
AcDbLine
 10
599.838494
 20
768.212925
 30
0.0
 11
660.390258
 21
768.212925
 31
0.0
  0
ARC
  5
3E99
100
AcDbEntity
  8
0
100
AcDbCircle
 10
621.711002
 20
786.864992
 30
0.0
 40
32.603567
100
AcDbArc
 50
219.382799
 51
325.137826
  0
LINE
  5
3E9A
100
AcDbEntity
  8
0
100
AcDbLine
 10
594.420258
 20
757.362925
 30
0.0
 11
594.420258
 21
764.782925
 31
0.0
  0
LINE
  5
3E9B
100
AcDbEntity
  8
0
100
AcDbLine
 10
607.973231
 20
754.212925
 30
0.0
 11
594.160258
 21
754.212925
 31
0.0
  0
LINE
  5
3E9C
100
AcDbEntity
  8
0
100
AcDbLine
 10
628.690258
 20
787.212925
 30
0.0
 11
628.690258
 21
787.212925
 31
0.0
  0
LINE
  5
3E9D
100
AcDbEntity
  8
0
100
AcDbLine
 10
660.390258
 20
773.082925
 30
0.0
 11
660.390258
 21
768.212925
 31
0.0
  0
LINE
  5
3E9E
100
AcDbEntity
  8
0
100
AcDbLine
 10
665.390258
 20
779.412925
 30
0.0
 11
665.390258
 21
763.482925
 31
0.0
  0
LINE
  5
3E9F
100
AcDbEntity
  8
0
100
AcDbLine
 10
660.390258
 20
768.212925
 30
0.0
 11
665.390258
 21
763.212925
 31
0.0
  0
LINE
  5
3EA0
100
AcDbEntity
  8
0
100
AcDbLine
 10
661.340258
 20
775.212925
 30
0.0
 11
632.959338
 21
775.212925
 31
0.0
  0
LINE
  5
3EA1
100
AcDbEntity
  8
0
100
AcDbLine
 10
652.690258
 20
784.332925
 30
0.0
 11
647.690258
 21
781.442925
 31
0.0
  0
LINE
  5
3EA2
100
AcDbEntity
  8
0
100
AcDbLine
 10
642.690258
 20
784.332925
 30
0.0
 11
642.690258
 21
790.102925
 31
0.0
  0
CIRCLE
  5
3EA3
100
AcDbEntity
  8
0
100
AcDbCircle
 10
647.690258
 20
787.212925
 30
0.0
 40
3.00003
  0
LINE
  5
3EA4
100
AcDbEntity
  8
0
100
AcDbLine
 10
645.450258
 20
789.212925
 30
0.0
 11
649.930258
 21
789.212925
 31
0.0
  0
LINE
  5
3EA5
100
AcDbEntity
  8
0
100
AcDbLine
 10
645.450258
 20
785.212925
 30
0.0
 11
649.930258
 21
785.212925
 31
0.0
  0
CIRCLE
  5
3EA6
100
AcDbEntity
  8
0
100
AcDbCircle
 10
647.690258
 20
787.212925
 30
0.0
 40
2.99988
  0
LINE
  5
3EA7
100
AcDbEntity
  8
0
100
AcDbLine
 10
647.690258
 20
781.442925
 30
0.0
 11
642.690258
 21
784.332925
 31
0.0
  0
LINE
  5
3EA8
100
AcDbEntity
  8
0
100
AcDbLine
 10
652.690258
 20
790.102925
 30
0.0
 11
652.690258
 21
784.332925
 31
0.0
  0
ARC
  5
3EA9
100
AcDbEntity
  8
0
100
AcDbCircle
 10
661.244968
 20
777.590324
 30
0.0
 40
2.379308
100
AcDbArc
 50
272.295286
 51
321.922009
  0
ARC
  5
3EAA
100
AcDbEntity
  8
0
100
AcDbCircle
 10
666.41189
 20
777.684529
 30
0.0
 40
2.008762
100
AcDbArc
 50
88.905548
 51
153.114006
  0
LINE
  5
3EAB
100
AcDbEntity
  8
0
100
AcDbLine
 10
682.302383
 20
630.446215
 30
0.0
 11
737.758409
 21
630.446215
 31
0.0
  0
LINE
  5
3EAC
100
AcDbEntity
  8
0
100
AcDbLine
 10
684.063415
 20
627.444145
 30
0.0
 11
736.757719
 21
627.444145
 31
0.0
  0
LINE
  5
3EAD
100
AcDbEntity
  8
0
100
AcDbLine
 10
736.757719
 20
629.445525
 30
0.0
 11
682.884965
 21
629.445525
 31
0.0
  0
LINE
  5
3EAE
100
AcDbEntity
  8
0
100
AcDbLine
 10
736.757719
 20
627.444145
 30
0.0
 11
736.757719
 21
629.445525
 31
0.0
  0
ARC
  5
3EAF
100
AcDbEntity
  8
0
100
AcDbCircle
 10
684.900187
 20
770.909694
 30
0.0
 40
11.699029
100
AcDbArc
 50
268.873853
 51
318.860232
  0
LINE
  5
3EB0
100
AcDbEntity
  8
0
100
AcDbLine
 10
686.150258
 20
759.302925
 30
0.0
 11
684.670258
 21
759.212925
 31
0.0
  0
LINE
  5
3EB1
100
AcDbEntity
  8
0
100
AcDbLine
 10
719.440258
 20
778.762925
 30
0.0
 11
719.440258
 21
766.272925
 31
0.0
  0
LINE
  5
3EB2
100
AcDbEntity
  8
0
100
AcDbLine
 10
711.390258
 20
763.212925
 30
0.0
 11
711.390258
 21
778.762925
 31
0.0
  0
LINE
  5
3EB3
100
AcDbEntity
  8
0
100
AcDbLine
 10
726.440258
 20
778.662925
 30
0.0
 11
726.440258
 21
766.272925
 31
0.0
  0
LINE
  5
3EB4
100
AcDbEntity
  8
0
100
AcDbLine
 10
726.440258
 20
766.272925
 30
0.0
 11
725.440258
 21
765.272925
 31
0.0
  0
LINE
  5
3EB5
100
AcDbEntity
  8
0
100
AcDbLine
 10
719.440258
 20
770.292925
 30
0.0
 11
711.390258
 21
770.442925
 31
0.0
  0
LINE
  5
3EB6
100
AcDbEntity
  8
0
100
AcDbLine
 10
720.440258
 20
765.272925
 30
0.0
 11
719.440258
 21
766.272925
 31
0.0
  0
LINE
  5
3EB7
100
AcDbEntity
  8
0
100
AcDbLine
 10
725.440258
 20
765.272925
 30
0.0
 11
720.440258
 21
765.272925
 31
0.0
  0
LINE
  5
3EB8
100
AcDbEntity
  8
0
100
AcDbLine
 10
719.440258
 20
776.242925
 30
0.0
 11
726.440258
 21
776.242925
 31
0.0
  0
LINE
  5
3EB9
100
AcDbEntity
  8
0
100
AcDbLine
 10
737.690258
 20
783.322925
 30
0.0
 11
737.640258
 21
782.582925
 31
0.0
  0
LINE
  5
3EBA
100
AcDbEntity
  8
0
100
AcDbLine
 10
737.690258
 20
783.322925
 30
0.0
 11
737.690258
 21
783.322925
 31
0.0
  0
ARC
  5
3EBB
100
AcDbEntity
  8
0
100
AcDbCircle
 10
732.649272
 20
783.376218
 30
0.0
 40
5.053638
100
AcDbArc
 50
269.330909
 51
350.968662
  0
LINE
  5
3EBC
100
AcDbEntity
  8
0
100
AcDbLine
 10
684.670258
 20
815.212925
 30
0.0
 11
653.700258
 21
815.212925
 31
0.0
  0
ARC
  5
3EBD
100
AcDbEntity
  8
0
100
AcDbCircle
 10
673.384508
 20
802.230301
 30
0.0
 40
12.982625
100
AcDbArc
 50
90.018757
 51
157.383449
  0
LINE
  5
3EBE
100
AcDbEntity
  8
0
100
AcDbLine
 10
665.390258
 20
811.212925
 30
0.0
 11
711.390258
 21
811.212925
 31
0.0
  0
LINE
  5
3EBF
100
AcDbEntity
  8
0
100
AcDbLine
 10
666.450258
 20
794.742925
 30
0.0
 11
732.590258
 21
796.112925
 31
0.0
  0
LINE
  5
3EC0
100
AcDbEntity
  8
0
100
AcDbLine
 10
592.430258
 20
825.212925
 30
0.0
 11
574.610258
 21
825.212925
 31
0.0
  0
LINE
  5
3EC1
100
AcDbEntity
  8
0
100
AcDbLine
 10
599.838494
 20
806.212925
 30
0.0
 11
591.662023
 21
811.212925
 31
0.0
  0
LINE
  5
3EC2
100
AcDbEntity
  8
0
100
AcDbLine
 10
557.440258
 20
809.152925
 30
0.0
 11
552.440258
 21
809.152925
 31
0.0
  0
LINE
  5
3EC3
100
AcDbEntity
  8
0
100
AcDbLine
 10
558.440258
 20
798.182925
 30
0.0
 11
551.440258
 21
798.182925
 31
0.0
  0
LINE
  5
3EC4
100
AcDbEntity
  8
0
100
AcDbLine
 10
552.440258
 20
809.152925
 30
0.0
 11
551.440258
 21
808.152925
 31
0.0
  0
LINE
  5
3EC5
100
AcDbEntity
  8
0
100
AcDbLine
 10
567.20872
 20
811.212925
 30
0.0
 11
568.000258
 21
814.712925
 31
0.0
  0
LINE
  5
3EC6
100
AcDbEntity
  8
0
100
AcDbLine
 10
564.920258
 20
814.702925
 30
0.0
 11
565.540258
 21
808.212925
 31
0.0
  0
LINE
  5
3EC7
100
AcDbEntity
  8
0
100
AcDbLine
 10
563.010258
 20
814.712925
 30
0.0
 11
561.540258
 21
808.212925
 31
0.0
  0
LINE
  5
3EC8
100
AcDbEntity
  8
0
100
AcDbLine
 10
572.590258
 20
814.712925
 30
0.0
 11
571.797155
 21
811.212925
 31
0.0
  0
ARC
  5
3EC9
100
AcDbEntity
  8
0
100
AcDbCircle
 10
539.923088
 20
815.972925
 30
0.0
 40
34.705899
100
AcDbArc
 50
352.116894
 51
15.440478
  0
LINE
  5
3ECA
100
AcDbEntity
  8
0
100
AcDbLine
 10
557.160258
 20
809.152925
 30
0.0
 11
558.420258
 21
814.712925
 31
0.0
  0
ARC
  5
3ECB
100
AcDbEntity
  8
0
100
AcDbCircle
 10
540.866691
 20
815.471978
 30
0.0
 40
43.542279
100
AcDbArc
 50
354.386684
 51
12.927173
  0
ARC
  5
3ECC
100
AcDbEntity
  8
0
100
AcDbCircle
 10
517.317761
 20
814.517936
 30
0.0
 40
66.373245
100
AcDbArc
 50
357.145815
 51
4.229371
  0
LINE
  5
3ECD
100
AcDbEntity
  8
0
100
AcDbLine
 10
555.340258
 20
814.702925
 30
0.0
 11
555.870258
 21
809.152925
 31
0.0
  0
LINE
  5
3ECE
100
AcDbEntity
  8
0
100
AcDbLine
 10
591.662023
 20
811.212925
 30
0.0
 11
566.490258
 21
811.212925
 31
0.0
  0
ARC
  5
3ECF
100
AcDbEntity
  8
0
100
AcDbCircle
 10
591.567676
 20
800.288651
 30
0.0
 40
28.490061
100
AcDbArc
 50
157.816803
 51
172.421985
  0
LINE
  5
3ED0
100
AcDbEntity
  8
0
100
AcDbLine
 10
569.490258
 20
811.212925
 30
0.0
 11
569.490258
 21
811.212925
 31
0.0
  0
LINE
  5
3ED1
100
AcDbEntity
  8
0
100
AcDbLine
 10
565.540258
 20
808.212925
 30
0.0
 11
566.530258
 21
808.212925
 31
0.0
  0
LINE
  5
3ED2
100
AcDbEntity
  8
0
100
AcDbLine
 10
560.250258
 20
808.212925
 30
0.0
 11
560.250258
 21
804.102925
 31
0.0
  0
LINE
  5
3ED3
100
AcDbEntity
  8
0
100
AcDbLine
 10
558.440258
 20
808.152925
 30
0.0
 11
557.440258
 21
809.152925
 31
0.0
  0
LINE
  5
3ED4
100
AcDbEntity
  8
0
100
AcDbLine
 10
566.490258
 20
803.982925
 30
0.0
 11
558.440258
 21
804.142925
 31
0.0
  0
LINE
  5
3ED5
100
AcDbEntity
  8
0
100
AcDbLine
 10
558.380258
 20
808.212925
 30
0.0
 11
561.540258
 21
808.212925
 31
0.0
  0
LINE
  5
3ED6
100
AcDbEntity
  8
0
100
AcDbLine
 10
571.040258
 20
821.212925
 30
0.0
 11
572.590258
 21
814.712925
 31
0.0
  0
LINE
  5
3ED7
100
AcDbEntity
  8
0
100
AcDbLine
 10
572.590258
 20
814.712925
 30
0.0
 11
568.000258
 21
814.712925
 31
0.0
  0
LINE
  5
3ED8
100
AcDbEntity
  8
0
100
AcDbLine
 10
574.610258
 20
825.212925
 30
0.0
 11
563.220258
 21
825.212925
 31
0.0
  0
LINE
  5
3ED9
100
AcDbEntity
  8
0
100
AcDbLine
 10
565.540258
 20
821.212925
 30
0.0
 11
564.920258
 21
814.702925
 31
0.0
  0
LINE
  5
3EDA
100
AcDbEntity
  8
0
100
AcDbLine
 10
568.000258
 20
814.712925
 30
0.0
 11
566.450258
 21
821.212925
 31
0.0
  0
LINE
  5
3EDB
100
AcDbEntity
  8
0
100
AcDbLine
 10
561.460258
 20
821.212925
 30
0.0
 11
563.010258
 21
814.712925
 31
0.0
  0
ARC
  5
3EDC
100
AcDbEntity
  8
0
100
AcDbCircle
 10
581.987515
 20
818.387128
 30
0.0
 40
21.543387
100
AcDbArc
 50
165.714817
 51
172.462926
  0
ARC
  5
3EDD
100
AcDbEntity
  8
0
100
AcDbCircle
 10
563.707449
 20
823.266762
 30
0.0
 40
2.63356
100
AcDbArc
 50
133.631144
 51
170.466918
  0
LINE
  5
3EDE
100
AcDbEntity
  8
0
100
AcDbLine
 10
566.450258
 20
821.212925
 30
0.0
 11
565.540258
 21
821.212925
 31
0.0
  0
LINE
  5
3EDF
100
AcDbEntity
  8
0
100
AcDbLine
 10
562.050258
 20
825.212925
 30
0.0
 11
561.890258
 21
825.172925
 31
0.0
  0
LINE
  5
3EE0
100
AcDbEntity
  8
0
100
AcDbLine
 10
562.050258
 20
825.212925
 30
0.0
 11
562.050258
 21
825.212925
 31
0.0
  0
LINE
  5
3EE1
100
AcDbEntity
  8
0
100
AcDbLine
 10
563.220258
 20
825.212925
 30
0.0
 11
562.050258
 21
825.212925
 31
0.0
  0
LINE
  5
3EE2
100
AcDbEntity
  8
0
100
AcDbLine
 10
566.450258
 20
821.212925
 30
0.0
 11
571.040258
 21
821.212925
 31
0.0
  0
LINE
  5
3EE3
100
AcDbEntity
  8
0
100
AcDbLine
 10
558.420258
 20
814.712925
 30
0.0
 11
556.870258
 21
821.212925
 31
0.0
  0
LINE
  5
3EE4
100
AcDbEntity
  8
0
100
AcDbLine
 10
556.870258
 20
821.212925
 30
0.0
 11
555.960258
 21
821.212925
 31
0.0
  0
LINE
  5
3EE5
100
AcDbEntity
  8
0
100
AcDbLine
 10
556.870258
 20
821.212925
 30
0.0
 11
561.460258
 21
821.212925
 31
0.0
  0
LINE
  5
3EE6
100
AcDbEntity
  8
0
100
AcDbLine
 10
558.420258
 20
814.712925
 30
0.0
 11
563.010258
 21
814.712925
 31
0.0
  0
LINE
  5
3EE7
100
AcDbEntity
  8
0
100
AcDbLine
 10
555.960258
 20
821.212925
 30
0.0
 11
555.340258
 21
814.702925
 31
0.0
  0
LINE
  5
3EE8
100
AcDbEntity
  8
0
100
AcDbLine
 10
574.610258
 20
814.832925
 30
0.0
 11
574.610258
 21
814.832925
 31
0.0
  0
ARC
  5
3EE9
100
AcDbEntity
  8
0
100
AcDbCircle
 10
558.298823
 20
817.426753
 30
0.0
 40
25.28955
100
AcDbArc
 50
4.504491
 51
17.931575
  0
LINE
  5
3EEA
100
AcDbEntity
  8
0
100
AcDbLine
 10
584.420258
 20
814.832925
 30
0.0
 11
584.420258
 21
814.832925
 31
0.0
  0
LINE
  5
3EEB
100
AcDbEntity
  8
0
100
AcDbLine
 10
583.690258
 20
814.832925
 30
0.0
 11
583.690258
 21
814.832925
 31
0.0
  0
LINE
  5
3EEC
100
AcDbEntity
  8
0
100
AcDbLine
 10
647.970258
 20
835.212925
 30
0.0
 11
647.970258
 21
819.204258
 31
0.0
  0
LINE
  5
3EED
100
AcDbEntity
  8
0
100
AcDbLine
 10
617.970258
 20
825.605251
 30
0.0
 11
617.970258
 21
835.212925
 31
0.0
  0
ARC
  5
3EEE
100
AcDbEntity
  8
0
100
AcDbCircle
 10
633.331349
 20
817.445009
 30
0.0
 40
14.744241
100
AcDbArc
 50
6.852728
 51
120.085158
  0
LINE
  5
3EEF
100
AcDbEntity
  8
0
100
AcDbLine
 10
660.390258
 20
806.212925
 30
0.0
 11
599.838494
 21
806.212925
 31
0.0
  0
ARC
  5
3EF0
100
AcDbEntity
  8
0
100
AcDbCircle
 10
621.486311
 20
787.20816
 30
0.0
 40
33.004765
100
AcDbArc
 50
35.156994
 51
139.980926
  0
LINE
  5
3EF1
100
AcDbEntity
  8
0
100
AcDbLine
 10
594.230258
 20
817.756005
 30
0.0
 11
594.230258
 21
809.642925
 31
0.0
  0
LINE
  5
3EF2
100
AcDbEntity
  8
0
100
AcDbLine
 10
600.570258
 20
806.212925
 30
0.0
 11
600.570258
 21
806.212925
 31
0.0
  0
LINE
  5
3EF3
100
AcDbEntity
  8
0
100
AcDbLine
 10
625.940258
 20
830.202925
 30
0.0
 11
608.622741
 21
820.212925
 31
0.0
  0
ARC
  5
3EF4
100
AcDbEntity
  8
0
100
AcDbCircle
 10
563.617758
 20
816.188394
 30
0.0
 40
30.652611
100
AcDbArc
 50
2.931452
 51
15.04074
  0
LINE
  5
3EF5
100
AcDbEntity
  8
0
100
AcDbLine
 10
608.622741
 20
820.212925
 30
0.0
 11
594.005021
 21
820.212925
 31
0.0
  0
ARC
  5
3EF6
100
AcDbEntity
  8
0
100
AcDbCircle
 10
592.287412
 20
824.513014
 30
0.0
 40
0.714339
100
AcDbArc
 50
19.624207
 51
78.464764
  0
LINE
  5
3EF7
100
AcDbEntity
  8
0
100
AcDbLine
 10
592.960258
 20
824.752925
 30
0.0
 11
593.220258
 21
824.142925
 31
0.0
  0
ARC
  5
3EF8
100
AcDbEntity
  8
0
100
AcDbCircle
 10
647.690258
 20
787.173455
 30
0.0
 40
15.038018
100
AcDbArc
 50
62.258263
 51
117.741737
  0
LINE
  5
3EF9
100
AcDbEntity
  8
0
100
AcDbLine
 10
647.680258
 20
806.212925
 30
0.0
 11
649.690258
 21
806.112925
 31
0.0
  0
LINE
  5
3EFA
100
AcDbEntity
  8
0
100
AcDbLine
 10
640.690258
 20
804.882925
 30
0.0
 11
640.690258
 21
800.482925
 31
0.0
  0
LINE
  5
3EFB
100
AcDbEntity
  8
0
100
AcDbLine
 10
655.577063
 20
807.222925
 30
0.0
 11
655.577063
 21
807.222925
 31
0.0
  0
LINE
  5
3EFC
100
AcDbEntity
  8
0
100
AcDbLine
 10
665.390258
 20
811.212925
 30
0.0
 11
660.390258
 21
806.212925
 31
0.0
  0
LINE
  5
3EFD
100
AcDbEntity
  8
0
100
AcDbLine
 10
654.690258
 20
800.482925
 30
0.0
 11
654.690258
 21
804.882925
 31
0.0
  0
LINE
  5
3EFE
100
AcDbEntity
  8
0
100
AcDbLine
 10
665.390258
 20
810.942925
 30
0.0
 11
665.390258
 21
795.022925
 31
0.0
  0
LINE
  5
3EFF
100
AcDbEntity
  8
0
100
AcDbLine
 10
660.390258
 20
806.212925
 30
0.0
 11
660.390258
 21
801.342925
 31
0.0
  0
ARC
  5
3F00
100
AcDbEntity
  8
0
100
AcDbCircle
 10
666.403963
 20
796.746392
 30
0.0
 40
2.004002
100
AcDbArc
 50
207.117811
 51
271.323729
  0
LINE
  5
3F01
100
AcDbEntity
  8
0
100
AcDbLine
 10
654.958169
 20
797.380794
 30
0.0
 11
655.150678
 21
804.686966
 31
0.0
  0
ARC
  5
3F02
100
AcDbEntity
  8
0
100
AcDbCircle
 10
653.498565
 20
821.032062
 30
0.0
 40
5.822632
100
AcDbArc
 50
198.295248
 51
271.9851
  0
LINE
  5
3F03
100
AcDbEntity
  8
0
100
AcDbLine
 10
617.970258
 20
835.212925
 30
0.0
 11
647.970258
 21
835.212925
 31
0.0
  0
ARC
  5
3F04
100
AcDbEntity
  8
0
100
AcDbCircle
 10
684.900187
 20
803.516156
 30
0.0
 40
11.699029
100
AcDbArc
 50
41.139768
 51
91.126147
  0
LINE
  5
3F05
100
AcDbEntity
  8
0
100
AcDbLine
 10
726.440258
 20
808.152925
 30
0.0
 11
726.440258
 21
795.712925
 31
0.0
  0
LINE
  5
3F06
100
AcDbEntity
  8
0
100
AcDbLine
 10
725.440258
 20
809.152925
 30
0.0
 11
726.440258
 21
808.152925
 31
0.0
  0
LINE
  5
3F07
100
AcDbEntity
  8
0
100
AcDbLine
 10
719.440258
 20
808.152925
 30
0.0
 11
719.440258
 21
795.532925
 31
0.0
  0
LINE
  5
3F08
100
AcDbEntity
  8
0
100
AcDbLine
 10
719.440258
 20
808.152925
 30
0.0
 11
720.440258
 21
809.152925
 31
0.0
  0
LINE
  5
3F09
100
AcDbEntity
  8
0
100
AcDbLine
 10
711.390258
 20
803.982925
 30
0.0
 11
719.440258
 21
804.142925
 31
0.0
  0
LINE
  5
3F0A
100
AcDbEntity
  8
0
100
AcDbLine
 10
711.390258
 20
795.672925
 30
0.0
 11
711.390258
 21
811.212925
 31
0.0
  0
LINE
  5
3F0B
100
AcDbEntity
  8
0
100
AcDbLine
 10
720.440258
 20
809.152925
 30
0.0
 11
725.440258
 21
809.152925
 31
0.0
  0
LINE
  5
3F0C
100
AcDbEntity
  8
0
100
AcDbLine
 10
719.440258
 20
798.182925
 30
0.0
 11
726.440258
 21
798.182925
 31
0.0
  0
ARC
  5
3F0D
100
AcDbEntity
  8
0
100
AcDbCircle
 10
732.6874
 20
791.11101
 30
0.0
 40
5.002858
100
AcDbArc
 50
0.021933
 51
91.1126
  0
LINE
  5
3F0E
100
AcDbEntity
  8
0
100
AcDbLine
 10
929.896044
 20
630.446215
 30
0.0
 11
947.896044
 21
630.446215
 31
0.0
  0
LINE
  5
3F0F
100
AcDbEntity
  8
0
100
AcDbLine
 10
637.189051
 20
1119.521666
 30
0.0
 11
637.189051
 21
1121.523046
 31
0.0
  0
LINE
  5
3F10
100
AcDbEntity
  8
0
100
AcDbLine
 10
633.18629
 20
1119.521666
 30
0.0
 11
633.18629
 21
1123.524427
 31
0.0
  0
LINE
  5
3F11
100
AcDbEntity
  8
0
100
AcDbLine
 10
627.182149
 20
1123.524427
 30
0.0
 11
627.182149
 21
1119.521666
 31
0.0
  0
LINE
  5
3F12
100
AcDbEntity
  8
0
100
AcDbLine
 10
623.179389
 20
1121.523046
 30
0.0
 11
623.179389
 21
1119.521666
 31
0.0
  0
LINE
  5
3F13
100
AcDbEntity
  8
0
100
AcDbLine
 10
652.199402
 20
1096.005448
 30
0.0
 11
678.428232
 21
1096.005448
 31
0.0
  0
LINE
  5
3F14
100
AcDbEntity
  8
0
100
AcDbLine
 10
695.978539
 20
975.739016
 30
0.0
 11
647.666276
 21
967.236642
 31
0.0
  0
LINE
  5
3F15
100
AcDbEntity
  8
0
100
AcDbLine
 10
617.775662
 20
1055.767698
 30
0.0
 11
629.303612
 21
1002.96128
 31
0.0
  0
LINE
  5
3F16
100
AcDbEntity
  8
0
100
AcDbLine
 10
583.22157
 20
999.264431
 30
0.0
 11
580.207744
 21
1054.977153
 31
0.0
  0
ARC
  5
3F17
100
AcDbEntity
  8
0
100
AcDbCircle
 10
656.434103
 20
1033.676765
 30
0.0
 40
18.544725
100
AcDbArc
 50
43.114027
 51
179.765963
  0
LINE
  5
3F18
100
AcDbEntity
  8
0
100
AcDbLine
 10
598.116382
 20
975.207861
 30
0.0
 11
590.577762
 21
967.175742
 31
0.0
  0
LINE
  5
3F19
100
AcDbEntity
  8
0
100
AcDbLine
 10
601.624523
 20
971.69972
 30
0.0
 11
582.58139
 21
990.742853
 31
0.0
  0
LINE
  5
3F1A
100
AcDbEntity
  8
0
100
AcDbLine
 10
609.089672
 20
973.380879
 30
0.0
 11
583.22157
 21
999.264431
 31
0.0
  0
LINE
  5
3F1B
100
AcDbEntity
  8
0
100
AcDbLine
 10
590.577762
 20
967.175742
 30
0.0
 11
578.550911
 21
979.202594
 31
0.0
  0
LINE
  5
3F1C
100
AcDbEntity
  8
0
100
AcDbLine
 10
586.089531
 20
987.234712
 30
0.0
 11
578.550911
 21
979.202594
 31
0.0
  0
LINE
  5
3F1D
100
AcDbEntity
  8
0
100
AcDbLine
 10
582.58139
 20
990.742853
 30
0.0
 11
587.304647
 21
995.17591
 31
0.0
  0
ARC
  5
3F1E
100
AcDbEntity
  8
0
100
AcDbCircle
 10
649.391829
 20
1000.958548
 30
0.0
 40
14.963232
100
AcDbArc
 50
323.859926
 51
189.580459
  0
CIRCLE
  5
3F1F
100
AcDbEntity
  8
0
100
AcDbCircle
 10
644.914378
 20
981.996821
 30
0.0
 40
15.010352
  0
ARC
  5
3F20
100
AcDbEntity
  8
0
100
AcDbCircle
 10
626.549864
 20
964.829756
 30
0.0
 40
10.012131
100
AcDbArc
 50
46.066556
 51
89.98941
  0
LINE
  5
3F21
100
AcDbEntity
  8
0
100
AcDbLine
 10
606.057581
 20
976.422977
 30
0.0
 11
601.624523
 21
971.69972
 31
0.0
  0
LINE
  5
3F22
100
AcDbEntity
  8
0
100
AcDbLine
 10
626.551714
 20
974.841887
 30
0.0
 11
611.551369
 21
972.520286
 31
0.0
  0
ARC
  5
3F23
100
AcDbEntity
  8
0
100
AcDbCircle
 10
610.955959
 20
974.768231
 30
0.0
 40
2.325462
100
AcDbArc
 50
216.626209
 51
284.835202
  0
LINE
  5
3F24
100
AcDbEntity
  8
0
100
AcDbLine
 10
635.227698
 20
970.530397
 30
0.0
 11
633.496504
 21
972.039955
 31
0.0
  0
LINE
  5
3F25
100
AcDbEntity
  8
0
100
AcDbLine
 10
637.889534
 20
1033.752515
 30
0.0
 11
637.889534
 21
1015.049616
 31
0.0
  0
LINE
  5
3F26
100
AcDbEntity
  8
0
100
AcDbLine
 10
566.440258
 20
1103.010279
 30
0.0
 11
609.169727
 21
1103.010279
 31
0.0
  0
LINE
  5
3F27
100
AcDbEntity
  8
0
100
AcDbLine
 10
581.080355
 20
1056.448167
 30
0.0
 11
592.228043
 21
1067.986124
 31
0.0
  0
ARC
  5
3F28
100
AcDbEntity
  8
0
100
AcDbCircle
 10
612.106925
 20
1078.993716
 30
0.0
 40
60.666667
100
AcDbArc
 50
169.582562
 51
190.417438
  0
ARC
  5
3F29
100
AcDbEntity
  8
0
100
AcDbCircle
 10
497.773592
 20
1078.993716
 30
0.0
 40
60.666667
100
AcDbArc
 50
349.582562
 51
10.417438
  0
LINE
  5
3F2A
100
AcDbEntity
  8
0
100
AcDbLine
 10
558.440258
 20
1099.933026
 30
0.0
 11
558.440258
 21
1058.054406
 31
0.0
  0
LINE
  5
3F2B
100
AcDbEntity
  8
0
100
AcDbLine
 10
551.440258
 20
1078.993716
 30
0.0
 11
551.440258
 21
1058.054406
 31
0.0
  0
LINE
  5
3F2C
100
AcDbEntity
  8
0
100
AcDbLine
 10
566.440258
 20
1054.977153
 30
0.0
 11
566.440258
 21
1078.993716
 31
0.0
  0
LINE
  5
3F2D
100
AcDbEntity
  8
0
100
AcDbLine
 10
552.440258
 20
1068.024061
 30
0.0
 11
557.440258
 21
1068.024061
 31
0.0
  0
LINE
  5
3F2E
100
AcDbEntity
  8
0
100
AcDbLine
 10
552.440258
 20
1057.054406
 30
0.0
 11
557.440258
 21
1057.054406
 31
0.0
  0
ARC
  5
3F2F
100
AcDbEntity
  8
0
100
AcDbCircle
 10
566.981925
 20
1062.539233
 30
0.0
 40
15.541667
100
AcDbArc
 50
159.334522
 51
200.665478
  0
LINE
  5
3F30
100
AcDbEntity
  8
0
100
AcDbLine
 10
551.440258
 20
1058.054406
 30
0.0
 11
552.440258
 21
1057.054406
 31
0.0
  0
ARC
  5
3F31
100
AcDbEntity
  8
0
100
AcDbCircle
 10
542.898592
 20
1062.539233
 30
0.0
 40
15.541667
100
AcDbArc
 50
339.334522
 51
20.665478
  0
LINE
  5
3F32
100
AcDbEntity
  8
0
100
AcDbLine
 10
580.207744
 20
1054.977153
 30
0.0
 11
566.440258
 21
1054.977153
 31
0.0
  0
LINE
  5
3F33
100
AcDbEntity
  8
0
100
AcDbLine
 10
558.440258
 20
1058.054406
 30
0.0
 11
557.440258
 21
1057.054406
 31
0.0
  0
LINE
  5
3F34
100
AcDbEntity
  8
0
100
AcDbLine
 10
558.440258
 20
1062.369216
 30
0.0
 11
566.440258
 21
1062.869216
 31
0.0
  0
LINE
  5
3F35
100
AcDbEntity
  8
0
100
AcDbLine
 10
552.440258
 20
1100.933026
 30
0.0
 11
557.440258
 21
1100.933026
 31
0.0
  0
LINE
  5
3F36
100
AcDbEntity
  8
0
100
AcDbLine
 10
552.440258
 20
1089.963371
 30
0.0
 11
557.440258
 21
1089.963371
 31
0.0
  0
ARC
  5
3F37
100
AcDbEntity
  8
0
100
AcDbCircle
 10
566.981925
 20
1095.448198
 30
0.0
 40
15.541667
100
AcDbArc
 50
159.334522
 51
200.665478
  0
LINE
  5
3F38
100
AcDbEntity
  8
0
100
AcDbLine
 10
551.440258
 20
1099.933026
 30
0.0
 11
551.440258
 21
1078.993716
 31
0.0
  0
LINE
  5
3F39
100
AcDbEntity
  8
0
100
AcDbLine
 10
551.440258
 20
1099.933026
 30
0.0
 11
552.440258
 21
1100.933026
 31
0.0
  0
ARC
  5
3F3A
100
AcDbEntity
  8
0
100
AcDbCircle
 10
542.898592
 20
1095.448198
 30
0.0
 40
15.541667
100
AcDbArc
 50
339.334522
 51
20.665478
  0
LINE
  5
3F3B
100
AcDbEntity
  8
0
100
AcDbLine
 10
566.440258
 20
1078.993716
 30
0.0
 11
566.440258
 21
1103.010279
 31
0.0
  0
LINE
  5
3F3C
100
AcDbEntity
  8
0
100
AcDbLine
 10
558.440258
 20
1095.618216
 30
0.0
 11
566.440258
 21
1095.118216
 31
0.0
  0
LINE
  5
3F3D
100
AcDbEntity
  8
0
100
AcDbLine
 10
558.440258
 20
1099.933026
 30
0.0
 11
557.440258
 21
1100.933026
 31
0.0
  0
LINE
  5
3F3E
100
AcDbEntity
  8
0
100
AcDbLine
 10
617.475455
 20
1090.001307
 30
0.0
 11
617.475455
 21
1058.189368
 31
0.0
  0
ARC
  5
3F3F
100
AcDbEntity
  8
0
100
AcDbCircle
 10
627.995102
 20
1058.264013
 30
0.0
 40
10.519912
100
AcDbArc
 50
180.406554
 51
193.726906
  0
LINE
  5
3F40
100
AcDbEntity
  8
0
100
AcDbLine
 10
611.171107
 20
1112.516835
 30
0.0
 11
649.197332
 21
1112.516835
 31
0.0
  0
LINE
  5
3F41
100
AcDbEntity
  8
0
100
AcDbLine
 10
621.678353
 20
1119.521666
 30
0.0
 11
638.690086
 21
1119.521666
 31
0.0
  0
LINE
  5
3F42
100
AcDbEntity
  8
0
100
AcDbLine
 10
638.690086
 20
1113.517525
 30
0.0
 11
621.678353
 21
1113.517525
 31
0.0
  0
ARC
  5
3F43
100
AcDbEntity
  8
0
100
AcDbCircle
 10
604.349383
 20
1089.884207
 30
0.0
 40
13.126594
100
AcDbArc
 50
0.511133
 51
89.488867
  0
ARC
  5
3F44
100
AcDbEntity
  8
0
100
AcDbCircle
 10
609.189264
 20
1104.992122
 30
0.0
 40
1.981939
100
AcDbArc
 50
269.435189
 51
0.564811
  0
LINE
  5
3F45
100
AcDbEntity
  8
0
100
AcDbLine
 10
611.171107
 20
1105.011659
 30
0.0
 11
611.171107
 21
1112.516835
 31
0.0
  0
LINE
  5
3F46
100
AcDbEntity
  8
0
100
AcDbLine
 10
627.172142
 20
1119.521666
 30
0.0
 11
627.182149
 21
1119.521666
 31
0.0
  0
LINE
  5
3F47
100
AcDbEntity
  8
0
100
AcDbLine
 10
621.678353
 20
1119.521666
 30
0.0
 11
621.678353
 21
1113.517525
 31
0.0
  0
LINE
  5
3F48
100
AcDbEntity
  8
0
100
AcDbLine
 10
622.178699
 20
1113.517525
 30
0.0
 11
622.178699
 21
1112.516835
 31
0.0
  0
LINE
  5
3F49
100
AcDbEntity
  8
0
100
AcDbLine
 10
649.197332
 20
1112.516835
 30
0.0
 11
649.197332
 21
1099.007518
 31
0.0
  0
ARC
  5
3F4A
100
AcDbEntity
  8
0
100
AcDbCircle
 10
652.186874
 20
1098.99499
 30
0.0
 40
2.989568
100
AcDbArc
 50
179.759885
 51
270.240115
  0
LINE
  5
3F4B
100
AcDbEntity
  8
0
100
AcDbLine
 10
649.197332
 20
1096.005448
 30
0.0
 11
638.980286
 21
1086.85914
 31
0.0
  0
LINE
  5
3F4C
100
AcDbEntity
  8
0
100
AcDbLine
 10
638.690086
 20
1119.521666
 30
0.0
 11
638.690086
 21
1113.517525
 31
0.0
  0
LINE
  5
3F4D
100
AcDbEntity
  8
0
100
AcDbLine
 10
638.189741
 20
1113.517525
 30
0.0
 11
638.189741
 21
1112.516835
 31
0.0
  0
LINE
  5
3F4E
100
AcDbEntity
  8
0
100
AcDbLine
 10
633.176283
 20
1119.521666
 30
0.0
 11
633.18629
 21
1119.521666
 31
0.0
  0
ARC
  5
3F4F
100
AcDbEntity
  8
0
100
AcDbCircle
 10
699.740765
 20
1037.959014
 30
0.0
 40
13.352467
100
AcDbArc
 50
353.680297
 51
26.319703
  0
LINE
  5
3F50
100
AcDbEntity
  8
0
100
AcDbLine
 10
711.945519
 20
1046.517368
 30
0.0
 11
714.136612
 21
1034.091063
 31
0.0
  0
ARC
  5
3F51
100
AcDbEntity
  8
0
100
AcDbCircle
 10
680.525206
 20
1034.568333
 30
0.0
 40
8.003736
100
AcDbArc
 50
109.169071
 51
257.388901
  0
LINE
  5
3F52
100
AcDbEntity
  8
0
100
AcDbLine
 10
696.847044
 20
970.811051
 30
0.0
 11
683.648243
 21
1045.702027
 31
0.0
  0
LINE
  5
3F53
100
AcDbEntity
  8
0
100
AcDbLine
 10
693.493206
 20
1047.451132
 30
0.0
 11
706.706095
 21
972.550148
 31
0.0
  0
LINE
  5
3F54
100
AcDbEntity
  8
0
100
AcDbLine
 10
694.978906
 20
1047.712142
 30
0.0
 11
708.178008
 21
972.810486
 31
0.0
  0
LINE
  5
3F55
100
AcDbEntity
  8
0
100
AcDbLine
 10
704.827045
 20
1049.449314
 30
0.0
 11
718.042608
 21
974.550561
 31
0.0
  0
LINE
  5
3F56
100
AcDbEntity
  8
0
100
AcDbLine
 10
708.178008
 20
972.810486
 30
0.0
 11
718.042625
 21
974.550467
 31
0.0
  0
LINE
  5
3F57
100
AcDbEntity
  8
0
100
AcDbLine
 10
706.706994
 20
972.550307
 30
0.0
 11
696.847044
 21
970.811051
 31
0.0
  0
LINE
  5
3F58
100
AcDbEntity
  8
0
100
AcDbLine
 10
705.906442
 20
977.083433
 30
0.0
 11
707.387463
 21
977.343612
 31
0.0
  0
ARC
  5
3F59
100
AcDbEntity
  8
0
100
AcDbCircle
 10
718.014482
 20
990.855038
 30
0.0
 40
3.541047
100
AcDbArc
 50
338.012599
 51
42.013788
  0
LINE
  5
3F5A
100
AcDbEntity
  8
0
100
AcDbLine
 10
721.533851
 20
992.16746
 30
0.0
 11
720.645422
 21
993.225094
 31
0.0
  0
LINE
  5
3F5B
100
AcDbEntity
  8
0
100
AcDbLine
 10
720.645422
 20
993.225094
 30
0.0
 11
714.924907
 21
992.215055
 31
0.0
  0
LINE
  5
3F5C
100
AcDbEntity
  8
0
100
AcDbLine
 10
721.297975
 20
989.529261
 30
0.0
 11
715.577459
 21
988.519221
 31
0.0
  0
ARC
  5
3F5D
100
AcDbEntity
  8
0
100
AcDbCircle
 10
719.971793
 20
979.769508
 30
0.0
 40
3.541047
100
AcDbArc
 50
338.012599
 51
42.013788
  0
LINE
  5
3F5E
100
AcDbEntity
  8
0
100
AcDbLine
 10
723.255459
 20
978.442746
 30
0.0
 11
723.727805
 21
979.74166
 31
0.0
  0
LINE
  5
3F5F
100
AcDbEntity
  8
0
100
AcDbLine
 10
722.602733
 20
982.139564
 30
0.0
 11
716.882217
 21
981.129524
 31
0.0
  0
LINE
  5
3F60
100
AcDbEntity
  8
0
100
AcDbLine
 10
717.534943
 20
977.432706
 30
0.0
 11
723.255459
 21
978.442746
 31
0.0
  0
ARC
  5
3F61
100
AcDbEntity
  8
0
100
AcDbCircle
 10
709.331068
 20
983.606296
 30
0.0
 40
13.352467
100
AcDbArc
 50
353.69349
 51
26.332897
  0
LINE
  5
3F62
100
AcDbEntity
  8
0
100
AcDbLine
 10
723.727805
 20
979.74166
 30
0.0
 11
721.533851
 21
992.16746
 31
0.0
  0
LINE
  5
3F63
100
AcDbEntity
  8
0
100
AcDbLine
 10
713.012091
 20
1036.489226
 30
0.0
 11
707.291343
 21
1035.480504
 31
0.0
  0
LINE
  5
3F64
100
AcDbEntity
  8
0
100
AcDbLine
 10
713.663793
 20
1032.793243
 30
0.0
 11
707.943045
 21
1031.78452
 31
0.0
  0
ARC
  5
3F65
100
AcDbEntity
  8
0
100
AcDbCircle
 10
677.684901
 20
1021.877228
 30
0.0
 40
5.001319
100
AcDbArc
 50
9.990987
 51
77.378546
  0
ARC
  5
3F66
100
AcDbEntity
  8
0
100
AcDbCircle
 10
710.380605
 20
1034.119776
 30
0.0
 40
3.541047
100
AcDbArc
 50
337.999406
 51
42.000594
  0
LINE
  5
3F67
100
AcDbEntity
  8
0
100
AcDbLine
 10
714.136612
 20
1034.091063
 30
0.0
 11
713.663793
 21
1032.793243
 31
0.0
  0
ARC
  5
3F68
100
AcDbEntity
  8
0
100
AcDbCircle
 10
780.106925
 20
1078.993716
 30
0.0
 40
60.666667
100
AcDbArc
 50
169.582562
 51
190.417438
  0
ARC
  5
3F69
100
AcDbEntity
  8
0
100
AcDbCircle
 10
665.773592
 20
1078.993716
 30
0.0
 40
60.666667
100
AcDbArc
 50
349.582562
 51
10.417438
  0
LINE
  5
3F6A
100
AcDbEntity
  8
0
100
AcDbLine
 10
680.418864
 20
1094.024082
 30
0.0
 11
680.418864
 21
1073.78012
 31
0.0
  0
LINE
  5
3F6B
100
AcDbEntity
  8
0
100
AcDbLine
 10
719.440258
 20
1099.933026
 30
0.0
 11
719.440258
 21
1058.054406
 31
0.0
  0
LINE
  5
3F6C
100
AcDbEntity
  8
0
100
AcDbLine
 10
685.802577
 20
1100.48854
 30
0.0
 11
685.802577
 21
1056.388126
 31
0.0
  0
LINE
  5
3F6D
100
AcDbEntity
  8
0
100
AcDbLine
 10
726.440258
 20
1078.993716
 30
0.0
 11
726.440258
 21
1058.054406
 31
0.0
  0
LINE
  5
3F6E
100
AcDbEntity
  8
0
100
AcDbLine
 10
711.440258
 20
1054.977153
 30
0.0
 11
711.440258
 21
1078.993716
 31
0.0
  0
LINE
  5
3F6F
100
AcDbEntity
  8
0
100
AcDbLine
 10
711.709035
 20
1043.879223
 30
0.0
 11
705.988287
 21
1042.870501
 31
0.0
  0
LINE
  5
3F70
100
AcDbEntity
  8
0
100
AcDbLine
 10
705.336412
 20
1046.567469
 30
0.0
 11
711.05716
 21
1047.576192
 31
0.0
  0
LINE
  5
3F71
100
AcDbEntity
  8
0
100
AcDbLine
 10
711.440258
 20
1054.977153
 30
0.0
 11
687.483737
 21
1054.977153
 31
0.0
  0
LINE
  5
3F72
100
AcDbEntity
  8
0
100
AcDbLine
 10
683.648437
 20
1045.700927
 30
0.0
 11
693.497884
 21
1047.451963
 31
0.0
  0
ARC
  5
3F73
100
AcDbEntity
  8
0
100
AcDbCircle
 10
687.483777
 20
1051.973011
 30
0.0
 40
3.004142
100
AcDbArc
 50
90.000782
 51
210.373037
  0
ARC
  5
3F74
100
AcDbEntity
  8
0
100
AcDbCircle
 10
688.744154
 20
1050.508767
 30
0.0
 40
3.852593
100
AcDbArc
 50
180.81403
 51
275.671246
  0
ARC
  5
3F75
100
AcDbEntity
  8
0
100
AcDbCircle
 10
676.295544
 20
1046.338099
 30
0.0
 40
4.50417
100
AcDbArc
 50
290.828833
 51
7.700192
  0
LINE
  5
3F76
100
AcDbEntity
  8
0
100
AcDbLine
 10
704.827062
 20
1049.449219
 30
0.0
 11
694.978906
 21
1047.712142
 31
0.0
  0
LINE
  5
3F77
100
AcDbEntity
  8
0
100
AcDbLine
 10
695.779458
 20
1043.179016
 30
0.0
 11
694.298436
 21
1042.918837
 31
0.0
  0
ARC
  5
3F78
100
AcDbEntity
  8
0
100
AcDbCircle
 10
710.898592
 20
1062.539233
 30
0.0
 40
15.541667
100
AcDbArc
 50
339.334522
 51
20.665478
  0
ARC
  5
3F79
100
AcDbEntity
  8
0
100
AcDbCircle
 10
734.981925
 20
1062.539233
 30
0.0
 40
15.541667
100
AcDbArc
 50
159.334522
 51
200.665478
  0
LINE
  5
3F7A
100
AcDbEntity
  8
0
100
AcDbLine
 10
726.440258
 20
1058.054406
 30
0.0
 11
725.440258
 21
1057.054406
 31
0.0
  0
LINE
  5
3F7B
100
AcDbEntity
  8
0
100
AcDbLine
 10
719.440258
 20
1058.054406
 30
0.0
 11
720.440258
 21
1057.054406
 31
0.0
  0
LINE
  5
3F7C
100
AcDbEntity
  8
0
100
AcDbLine
 10
725.440258
 20
1057.054406
 30
0.0
 11
720.440258
 21
1057.054406
 31
0.0
  0
LINE
  5
3F7D
100
AcDbEntity
  8
0
100
AcDbLine
 10
711.05716
 20
1047.576192
 30
0.0
 11
711.945519
 21
1046.517368
 31
0.0
  0
ARC
  5
3F7E
100
AcDbEntity
  8
0
100
AcDbCircle
 10
708.425848
 20
1045.205757
 30
0.0
 40
3.541047
100
AcDbArc
 50
337.999406
 51
42.000594
  0
LINE
  5
3F7F
100
AcDbEntity
  8
0
100
AcDbLine
 10
725.440258
 20
1068.024061
 30
0.0
 11
720.440258
 21
1068.024061
 31
0.0
  0
LINE
  5
3F80
100
AcDbEntity
  8
0
100
AcDbLine
 10
719.440258
 20
1062.369216
 30
0.0
 11
711.440258
 21
1062.869216
 31
0.0
  0
LINE
  5
3F81
100
AcDbEntity
  8
0
100
AcDbLine
 10
685.951939
 20
1103.010279
 30
0.0
 11
711.440258
 21
1103.010279
 31
0.0
  0
LINE
  5
3F82
100
AcDbEntity
  8
0
100
AcDbLine
 10
678.428232
 20
1096.005448
 30
0.0
 11
685.951939
 21
1103.010279
 31
0.0
  0
ARC
  5
3F83
100
AcDbEntity
  8
0
100
AcDbCircle
 10
710.898592
 20
1095.448198
 30
0.0
 40
15.541667
100
AcDbArc
 50
339.334522
 51
20.665478
  0
ARC
  5
3F84
100
AcDbEntity
  8
0
100
AcDbCircle
 10
734.981925
 20
1095.448198
 30
0.0
 40
15.541667
100
AcDbArc
 50
159.334522
 51
200.665478
  0
LINE
  5
3F85
100
AcDbEntity
  8
0
100
AcDbLine
 10
726.440258
 20
1099.933026
 30
0.0
 11
726.440258
 21
1078.993716
 31
0.0
  0
LINE
  5
3F86
100
AcDbEntity
  8
0
100
AcDbLine
 10
711.440258
 20
1078.993716
 30
0.0
 11
711.440258
 21
1103.010279
 31
0.0
  0
LINE
  5
3F87
100
AcDbEntity
  8
0
100
AcDbLine
 10
725.440258
 20
1089.963371
 30
0.0
 11
720.440258
 21
1089.963371
 31
0.0
  0
LINE
  5
3F88
100
AcDbEntity
  8
0
100
AcDbLine
 10
719.440258
 20
1095.618216
 30
0.0
 11
711.440258
 21
1095.118216
 31
0.0
  0
LINE
  5
3F89
100
AcDbEntity
  8
0
100
AcDbLine
 10
726.440258
 20
1099.933026
 30
0.0
 11
725.440258
 21
1100.933026
 31
0.0
  0
LINE
  5
3F8A
100
AcDbEntity
  8
0
100
AcDbLine
 10
719.440258
 20
1099.933026
 30
0.0
 11
720.440258
 21
1100.933026
 31
0.0
  0
LINE
  5
3F8B
100
AcDbEntity
  8
0
100
AcDbLine
 10
725.440258
 20
1100.933026
 30
0.0
 11
720.440258
 21
1100.933026
 31
0.0
  0
LINE
  5
3F8C
100
AcDbEntity
  8
0
100
AcDbLine
 10
593.817101
 20
1149.54237
 30
0.0
 11
541.122798
 21
1149.54237
 31
0.0
  0
LINE
  5
3F8D
100
AcDbEntity
  8
0
100
AcDbLine
 10
541.122798
 20
1151.54375
 30
0.0
 11
594.995552
 21
1151.54375
 31
0.0
  0
LINE
  5
3F8E
100
AcDbEntity
  8
0
100
AcDbLine
 10
595.578133
 20
1152.54444
 30
0.0
 11
540.122108
 21
1152.54444
 31
0.0
  0
LINE
  5
3F8F
100
AcDbEntity
  8
0
100
AcDbLine
 10
540.122108
 20
1148.54168
 30
0.0
 11
593.259856
 21
1148.54168
 31
0.0
  0
LINE
  5
3F90
100
AcDbEntity
  8
0
100
AcDbLine
 10
541.122798
 20
1149.54237
 30
0.0
 11
541.122798
 21
1151.54375
 31
0.0
  0
LINE
  5
3F91
100
AcDbEntity
  8
0
100
AcDbLine
 10
540.122108
 20
1152.54444
 30
0.0
 11
540.122108
 21
1148.54168
 31
0.0
  0
LINE
  5
3F92
100
AcDbEntity
  8
0
100
AcDbLine
 10
632.645917
 20
1130.028912
 30
0.0
 11
627.722522
 21
1130.028912
 31
0.0
  0
ARC
  5
3F93
100
AcDbEntity
  8
0
100
AcDbCircle
 10
630.189223
 20
1118.623647
 30
0.0
 40
9.036864
100
AcDbArc
 50
71.369231
 51
108.630769
  0
LINE
  5
3F94
100
AcDbEntity
  8
0
100
AcDbLine
 10
634.537222
 20
1128.627946
 30
0.0
 11
625.831218
 21
1128.627946
 31
0.0
  0
LINE
  5
3F95
100
AcDbEntity
  8
0
100
AcDbLine
 10
632.425765
 20
1120.022011
 30
0.0
 11
627.952681
 21
1120.022011
 31
0.0
  0
LINE
  5
3F96
100
AcDbEntity
  8
0
100
AcDbLine
 10
611.168305
 20
1123.524427
 30
0.0
 11
647.195952
 21
1123.524427
 31
0.0
  0
LINE
  5
3F97
100
AcDbEntity
  8
0
100
AcDbLine
 10
603.365724
 20
1139.045131
 30
0.0
 11
595.578133
 21
1152.54444
 31
0.0
  0
LINE
  5
3F98
100
AcDbEntity
  8
0
100
AcDbLine
 10
593.259856
 20
1148.54168
 30
0.0
 11
599.903336
 21
1137.04375
 31
0.0
  0
LINE
  5
3F99
100
AcDbEntity
  8
0
100
AcDbLine
 10
610.016621
 20
1121.523046
 30
0.0
 11
593.817101
 21
1149.54237
 31
0.0
  0
LINE
  5
3F9A
100
AcDbEntity
  8
0
100
AcDbLine
 10
594.995552
 20
1151.54375
 30
0.0
 11
611.168305
 21
1123.524427
 31
0.0
  0
LINE
  5
3F9B
100
AcDbEntity
  8
0
100
AcDbLine
 10
627.182149
 20
1121.523046
 30
0.0
 11
610.016621
 21
1121.523046
 31
0.0
  0
LINE
  5
3F9C
100
AcDbEntity
  8
0
100
AcDbLine
 10
602.505131
 20
1138.544785
 30
0.0
 11
603.365724
 21
1139.045131
 31
0.0
  0
LINE
  5
3F9D
100
AcDbEntity
  8
0
100
AcDbLine
 10
599.903336
 20
1137.04375
 30
0.0
 11
600.76393
 21
1137.544095
 31
0.0
  0
LINE
  5
3F9E
100
AcDbEntity
  8
0
100
AcDbLine
 10
627.952681
 20
1129.708692
 30
0.0
 11
627.182149
 21
1129.708692
 31
0.0
  0
LINE
  5
3F9F
100
AcDbEntity
  8
0
100
AcDbLine
 10
627.952681
 20
1128.627946
 30
0.0
 11
627.952681
 21
1129.708692
 31
0.0
  0
LINE
  5
3FA0
100
AcDbEntity
  8
0
100
AcDbLine
 10
627.952681
 20
1129.708692
 30
0.0
 11
628.753233
 21
1130.028912
 31
0.0
  0
ARC
  5
3FA1
100
AcDbEntity
  8
0
100
AcDbCircle
 10
625.845629
 20
1128.105142
 30
0.0
 40
0.523003
100
AcDbArc
 50
91.578974
 51
169.812088
  0
ARC
  5
3FA2
100
AcDbEntity
  8
0
100
AcDbCircle
 10
625.856235
 20
1124.921201
 30
0.0
 40
2.68785
100
AcDbArc
 50
57.454081
 51
122.545919
  0
LINE
  5
3FA3
100
AcDbEntity
  8
0
100
AcDbLine
 10
625.330872
 20
1128.19765
 30
0.0
 11
625.330872
 21
1127.557208
 31
0.0
  0
LINE
  5
3FA4
100
AcDbEntity
  8
0
100
AcDbLine
 10
627.722522
 20
1130.028912
 30
0.0
 11
627.182149
 21
1129.708692
 31
0.0
  0
LINE
  5
3FA5
100
AcDbEntity
  8
0
100
AcDbLine
 10
627.182149
 20
1129.708692
 30
0.0
 11
627.182149
 21
1128.627946
 31
0.0
  0
LINE
  5
3FA6
100
AcDbEntity
  8
0
100
AcDbLine
 10
627.952681
 20
1120.022011
 30
0.0
 11
627.952681
 21
1123.524427
 31
0.0
  0
LINE
  5
3FA7
100
AcDbEntity
  8
0
100
AcDbLine
 10
627.302232
 20
1127.186952
 30
0.0
 11
627.302232
 21
1124.405034
 31
0.0
  0
LINE
  5
3FA8
100
AcDbEntity
  8
0
100
AcDbLine
 10
627.302232
 20
1124.405034
 30
0.0
 11
627.302232
 21
1127.186952
 31
0.0
  0
LINE
  5
3FA9
100
AcDbEntity
  8
0
100
AcDbLine
 10
627.302232
 20
1127.186952
 30
0.0
 11
627.302232
 21
1123.524427
 31
0.0
  0
LINE
  5
3FAA
100
AcDbEntity
  8
0
100
AcDbLine
 10
624.410238
 20
1127.186952
 30
0.0
 11
624.410238
 21
1123.524427
 31
0.0
  0
LINE
  5
3FAB
100
AcDbEntity
  8
0
100
AcDbLine
 10
623.179389
 20
1121.022701
 30
0.0
 11
623.179389
 21
1121.523046
 31
0.0
  0
LINE
  5
3FAC
100
AcDbEntity
  8
0
100
AcDbLine
 10
623.179389
 20
1124.525117
 30
0.0
 11
623.179389
 21
1123.524427
 31
0.0
  0
LINE
  5
3FAD
100
AcDbEntity
  8
0
100
AcDbLine
 10
624.410238
 20
1124.525117
 30
0.0
 11
623.179389
 21
1124.525117
 31
0.0
  0
ARC
  5
3FAE
100
AcDbEntity
  8
0
100
AcDbCircle
 10
634.517208
 20
1124.933642
 30
0.0
 40
2.674672
100
AcDbArc
 50
57.401057
 51
122.598943
  0
ARC
  5
3FAF
100
AcDbEntity
  8
0
100
AcDbCircle
 10
634.52281
 20
1128.105142
 30
0.0
 40
0.523003
100
AcDbArc
 50
10.187912
 51
88.421026
  0
LINE
  5
3FB0
100
AcDbEntity
  8
0
100
AcDbLine
 10
635.037567
 20
1127.557208
 30
0.0
 11
635.037567
 21
1128.19765
 31
0.0
  0
LINE
  5
3FB1
100
AcDbEntity
  8
0
100
AcDbLine
 10
633.18629
 20
1128.627946
 30
0.0
 11
633.18629
 21
1129.708692
 31
0.0
  0
LINE
  5
3FB2
100
AcDbEntity
  8
0
100
AcDbLine
 10
633.18629
 20
1129.708692
 30
0.0
 11
632.645917
 21
1130.028912
 31
0.0
  0
LINE
  5
3FB3
100
AcDbEntity
  8
0
100
AcDbLine
 10
632.425765
 20
1129.708692
 30
0.0
 11
632.425765
 21
1128.627946
 31
0.0
  0
LINE
  5
3FB4
100
AcDbEntity
  8
0
100
AcDbLine
 10
633.18629
 20
1129.708692
 30
0.0
 11
632.425765
 21
1129.708692
 31
0.0
  0
LINE
  5
3FB5
100
AcDbEntity
  8
0
100
AcDbLine
 10
631.615206
 20
1130.028912
 30
0.0
 11
632.425765
 21
1129.708692
 31
0.0
  0
LINE
  5
3FB6
100
AcDbEntity
  8
0
100
AcDbLine
 10
647.195952
 20
1123.524427
 30
0.0
 11
647.195952
 21
1121.523046
 31
0.0
  0
LINE
  5
3FB7
100
AcDbEntity
  8
0
100
AcDbLine
 10
637.189051
 20
1124.525117
 30
0.0
 11
635.958202
 21
1124.525117
 31
0.0
  0
LINE
  5
3FB8
100
AcDbEntity
  8
0
100
AcDbLine
 10
637.189051
 20
1123.524427
 30
0.0
 11
637.189051
 21
1124.525117
 31
0.0
  0
LINE
  5
3FB9
100
AcDbEntity
  8
0
100
AcDbLine
 10
632.425765
 20
1123.524427
 30
0.0
 11
632.425765
 21
1120.022011
 31
0.0
  0
LINE
  5
3FBA
100
AcDbEntity
  8
0
100
AcDbLine
 10
647.195952
 20
1121.523046
 30
0.0
 11
633.18629
 21
1121.523046
 31
0.0
  0
LINE
  5
3FBB
100
AcDbEntity
  8
0
100
AcDbLine
 10
633.076214
 20
1127.186952
 30
0.0
 11
633.076214
 21
1124.405034
 31
0.0
  0
LINE
  5
3FBC
100
AcDbEntity
  8
0
100
AcDbLine
 10
635.958202
 20
1127.186952
 30
0.0
 11
635.958202
 21
1123.524427
 31
0.0
  0
LINE
  5
3FBD
100
AcDbEntity
  8
0
100
AcDbLine
 10
633.076214
 20
1127.186952
 30
0.0
 11
633.076214
 21
1123.524427
 31
0.0
  0
LINE
  5
3FBE
100
AcDbEntity
  8
0
100
AcDbLine
 10
1312.788867
 20
630.446215
 30
0.0
 11
1312.788867
 21
614.945525
 31
0.0
  0
LINE
  5
3FBF
100
AcDbEntity
  8
0
100
AcDbLine
 10
1294.788867
 20
630.446215
 30
0.0
 11
1294.788867
 21
614.945525
 31
0.0
  0
LINE
  5
3FC0
100
AcDbEntity
  8
0
100
AcDbLine
 10
1813.394137
 20
630.446215
 30
0.0
 11
1813.394137
 21
614.945525
 31
0.0
  0
LINE
  5
3FC1
100
AcDbEntity
  8
0
100
AcDbLine
 10
1795.394137
 20
630.446215
 30
0.0
 11
1795.394137
 21
614.945525
 31
0.0
  0
LINE
  5
3FC2
100
AcDbEntity
  8
0
100
AcDbLine
 10
1660.76507
 20
630.446215
 30
0.0
 11
1660.76507
 21
626.443455
 31
0.0
  0
LINE
  5
3FC3
100
AcDbEntity
  8
0
100
AcDbLine
 10
1597.521454
 20
616.946905
 30
0.0
 11
1605.309045
 21
630.446215
 31
0.0
  0
LINE
  5
3FC4
100
AcDbEntity
  8
0
100
AcDbLine
 10
1605.891626
 20
629.445525
 30
0.0
 11
1589.718873
 21
601.426201
 31
0.0
  0
LINE
  5
3FC5
100
AcDbEntity
  8
0
100
AcDbLine
 10
1590.870556
 20
599.424821
 30
0.0
 11
1607.070076
 21
627.444145
 31
0.0
  0
ARC
  5
3FC6
100
AcDbEntity
  8
0
100
AcDbCircle
 10
1804.394137
 20
511.598596
 30
0.0
 40
33.0
100
AcDbArc
 50
138.620566
 51
180.0
  0
ELLIPSE
  5
3FC7
100
AcDbEntity
  8
0
100
AcDbEllipse
 10
1781.394137
 20
508.831834
 30
0.0
 11
-15.00000000000005
 21
0.0000000000000284
 31
0.0
210
0.0
220
0.0
230
-1.0
 40
0.984798
 41
6.283185307179586
 42
7.238111907842699
  0
ELLIPSE
  5
3FC8
100
AcDbEntity
  8
0
100
AcDbEllipse
 10
1781.394137
 20
510.580939
 30
0.0
 11
-15.00000000000005
 21
0.0000000000000284
 31
0.0
210
0.0
220
0.0
230
-1.0
 40
0.984798
 41
6.283185307179586
 42
7.297616549881664
  0
ELLIPSE
  5
3FC9
100
AcDbEntity
  8
0
100
AcDbEllipse
 10
1781.394137
 20
512.579026
 30
0.0
 11
-15.00000000000005
 21
0.0000000000000284
 31
0.0
210
0.0
220
0.0
230
-1.0
 40
0.984798
 41
6.283185307179586
 42
7.382139219865484
  0
ARC
  5
3FCA
100
AcDbEntity
  8
0
100
AcDbCircle
 10
1761.394137
 20
500.166113
 30
0.0
 40
10.0
100
AcDbArc
 50
324.360613
 51
0.0
  0
ELLIPSE
  5
3FCB
100
AcDbEntity
  8
0
100
AcDbEllipse
 10
1792.394137
 20
478.434541
 30
0.0
 11
-28.0
 21
0.0
 31
0.0
210
0.0
220
0.0
230
1.0
 40
0.984808
 41
5.668392056539574
 42
7.544633709209753
  0
LINE
  5
3FCC
100
AcDbEntity
  8
0
100
AcDbLine
 10
1761.394137
 20
444.888244
 30
0.0
 11
1850.394137
 21
444.888244
 31
0.0
  0
TEXT
  5
3FCD
100
AcDbEntity
  8
0
100
AcDbText
 10
1544.519013
 20
360.367877
 30
0.0
 40
25.0
  1
25A
 41
0.8
 72
     4
 11
1571.18568
 21
372.867877
 31
0.0
100
AcDbText
  0
TEXT
  5
3FCE
100
AcDbEntity
  8
0
100
AcDbText
 10
880.830356
 20
151.606969
 30
0.0
 40
24.5
  1
TLV  BT3N (PT)
 72
     4
 11
1017.213689
 21
162.106969
 31
0.0
100
AcDbText
  0
LINE
  5
3FCF
100
AcDbEntity
  8
0
100
AcDbLine
 10
1255.788867
 20
472.888244
 30
0.0
 11
1255.788867
 21
446.888244
 31
0.0
  0
ARC
  5
3FD0
100
AcDbEntity
  8
0
100
AcDbCircle
 10
1273.788867
 20
474.46055
 30
0.0
 40
15.0
100
AcDbArc
 50
180.0
 51
238.261903
  0
LINE
  5
3FD1
100
AcDbEntity
  8
0
100
AcDbLine
 10
1337.813825
 20
460.033946
 30
0.0
 11
1337.813825
 21
467.481945
 31
0.0
  0
LINE
  5
3FD2
100
AcDbEntity
  8
0
100
AcDbLine
 10
1324.813825
 20
460.033946
 30
0.0
 11
1324.813825
 21
467.481945
 31
0.0
  0
ELLIPSE
  5
3FD3
100
AcDbEntity
  8
0
100
AcDbEllipse
 10
1331.313825
 20
463.786946
 30
0.0
 11
-6.300000000000011
 21
0.0
 31
0.0
210
0.0
220
0.0
230
1.0
 40
0.984808
 41
0.0
 42
6.283185307179586
  0
ELLIPSE
  5
3FD4
100
AcDbEntity
  8
0
100
AcDbEllipse
 10
1276.26391
 20
463.786946
 30
0.0
 11
6.300000000000011
 21
0.0
 31
0.0
210
0.0
220
0.0
230
-1.0
 40
0.984808
 41
0.0
 42
6.283185307179586
  0
LINE
  5
3FD5
100
AcDbEntity
  8
0
100
AcDbLine
 10
1282.76391
 20
460.033946
 30
0.0
 11
1282.76391
 21
467.481945
 31
0.0
  0
LINE
  5
3FD6
100
AcDbEntity
  8
0
100
AcDbLine
 10
1269.76391
 20
460.033946
 30
0.0
 11
1269.76391
 21
467.481945
 31
0.0
  0
ELLIPSE
  5
3FD7
100
AcDbEntity
  8
0
100
AcDbEllipse
 10
1326.788867
 20
463.484794
 30
0.0
 11
15.00000000000005
 21
-0.0000000000000284
 31
0.0
210
0.0
220
0.0
230
-1.0
 40
0.984798
 41
6.283185307179586
 42
7.853981633974482
  0
ELLIPSE
  5
3FD8
100
AcDbEntity
  8
0
100
AcDbEllipse
 10
1280.788867
 20
463.484794
 30
0.0
 11
-15.00000000000005
 21
-0.0000000000000284
 31
0.0
210
0.0
220
0.0
230
1.0
 40
0.984798
 41
6.283185307179586
 42
7.853981633974482
  0
ELLIPSE
  5
3FD9
100
AcDbEntity
  8
0
100
AcDbEllipse
 10
1326.788867
 20
465.22389
 30
0.0
 11
15.00000000000005
 21
-0.0000000000000284
 31
0.0
210
0.0
220
0.0
230
-1.0
 40
0.984798
 41
6.283185307179586
 42
7.853981633974482
  0
ELLIPSE
  5
3FDA
100
AcDbEntity
  8
0
100
AcDbEllipse
 10
1280.788867
 20
465.22389
 30
0.0
 11
-15.00000000000005
 21
-0.0000000000000284
 31
0.0
210
0.0
220
0.0
230
1.0
 40
0.984798
 41
6.283185307179586
 42
7.853981633974482
  0
ELLIPSE
  5
3FDB
100
AcDbEntity
  8
0
100
AcDbEllipse
 10
1326.788867
 20
465.484228
 30
0.0
 11
15.00000000000005
 21
-0.0000000000000284
 31
0.0
210
0.0
220
0.0
230
-1.0
 40
0.984798
 41
6.283185307179586
 42
7.853981633974482
  0
ELLIPSE
  5
3FDC
100
AcDbEntity
  8
0
100
AcDbEllipse
 10
1280.788867
 20
465.484228
 30
0.0
 11
-15.00000000000005
 21
-0.0000000000000284
 31
0.0
210
0.0
220
0.0
230
1.0
 40
0.984798
 41
6.283185307179586
 42
7.853981633974482
  0
ELLIPSE
  5
3FDD
100
AcDbEntity
  8
0
100
AcDbEllipse
 10
1280.788867
 20
467.156484
 30
0.0
 11
-15.00000000000005
 21
-0.0000000000000284
 31
0.0
210
0.0
220
0.0
230
1.0
 40
0.984798
 41
6.283185307179586
 42
7.853981633974482
  0
ELLIPSE
  5
3FDE
100
AcDbEntity
  8
0
100
AcDbEllipse
 10
1326.788867
 20
467.156484
 30
0.0
 11
15.00000000000005
 21
-0.0000000000000284
 31
0.0
210
0.0
220
0.0
230
-1.0
 40
0.984798
 41
6.283185307179586
 42
7.853981633974482
  0
LINE
  5
3FDF
100
AcDbEntity
  8
0
100
AcDbLine
 10
1348.788867
 20
472.888244
 30
0.0
 11
1348.788867
 21
446.888244
 31
0.0
  0
LINE
  5
3FE0
100
AcDbEntity
  8
0
100
AcDbLine
 10
1326.788867
 20
448.712826
 30
0.0
 11
1280.788867
 21
448.712826
 31
0.0
  0
LINE
  5
3FE1
100
AcDbEntity
  8
0
100
AcDbLine
 10
1326.788867
 20
450.451923
 30
0.0
 11
1280.788867
 21
450.451923
 31
0.0
  0
LINE
  5
3FE2
100
AcDbEntity
  8
0
100
AcDbLine
 10
1326.788867
 20
450.712261
 30
0.0
 11
1280.788867
 21
450.712261
 31
0.0
  0
LINE
  5
3FE3
100
AcDbEntity
  8
0
100
AcDbLine
 10
1326.788867
 20
452.384517
 30
0.0
 11
1280.788867
 21
452.384517
 31
0.0
  0
LINE
  5
3FE4
100
AcDbEntity
  8
0
100
AcDbLine
 10
1346.788867
 20
444.888244
 30
0.0
 11
1257.788867
 21
444.888244
 31
0.0
  0
ARC
  5
3FE5
100
AcDbEntity
  8
0
100
AcDbCircle
 10
1257.788867
 20
446.888244
 30
0.0
 40
2.0
100
AcDbArc
 50
180.0
 51
270.0
  0
LINE
  5
3FE6
100
AcDbEntity
  8
0
100
AcDbLine
 10
1282.76391
 20
460.033946
 30
0.0
 11
1276.26391
 21
456.336978
 31
0.0
  0
LINE
  5
3FE7
100
AcDbEntity
  8
0
100
AcDbLine
 10
1282.76391
 20
458.964369
 30
0.0
 11
1276.26391
 21
455.267401
 31
0.0
  0
LINE
  5
3FE8
100
AcDbEntity
  8
0
100
AcDbLine
 10
1276.26391
 20
456.336978
 30
0.0
 11
1276.26391
 21
455.267401
 31
0.0
  0
LINE
  5
3FE9
100
AcDbEntity
  8
0
100
AcDbLine
 10
1269.76391
 20
460.033946
 30
0.0
 11
1269.76391
 21
458.964369
 31
0.0
  0
LINE
  5
3FEA
100
AcDbEntity
  8
0
100
AcDbLine
 10
1269.76391
 20
460.033946
 30
0.0
 11
1276.26391
 21
456.336978
 31
0.0
  0
LINE
  5
3FEB
100
AcDbEntity
  8
0
100
AcDbLine
 10
1269.76391
 20
458.964369
 30
0.0
 11
1276.26391
 21
455.267401
 31
0.0
  0
LINE
  5
3FEC
100
AcDbEntity
  8
0
100
AcDbLine
 10
1282.76391
 20
460.033946
 30
0.0
 11
1282.76391
 21
458.964369
 31
0.0
  0
LINE
  5
3FED
100
AcDbEntity
  8
0
100
AcDbLine
 10
1337.813825
 20
458.964369
 30
0.0
 11
1331.313825
 21
455.267401
 31
0.0
  0
LINE
  5
3FEE
100
AcDbEntity
  8
0
100
AcDbLine
 10
1337.813825
 20
460.033946
 30
0.0
 11
1331.313825
 21
456.336978
 31
0.0
  0
LINE
  5
3FEF
100
AcDbEntity
  8
0
100
AcDbLine
 10
1337.813825
 20
460.033946
 30
0.0
 11
1337.813825
 21
458.964369
 31
0.0
  0
LINE
  5
3FF0
100
AcDbEntity
  8
0
100
AcDbLine
 10
1331.313825
 20
456.336978
 30
0.0
 11
1331.313825
 21
455.267401
 31
0.0
  0
LINE
  5
3FF1
100
AcDbEntity
  8
0
100
AcDbLine
 10
1324.813825
 20
460.033946
 30
0.0
 11
1324.813825
 21
458.964369
 31
0.0
  0
LINE
  5
3FF2
100
AcDbEntity
  8
0
100
AcDbLine
 10
1324.813825
 20
458.964369
 30
0.0
 11
1331.313825
 21
455.267401
 31
0.0
  0
LINE
  5
3FF3
100
AcDbEntity
  8
0
100
AcDbLine
 10
1324.813825
 20
460.033946
 30
0.0
 11
1331.313825
 21
456.336978
 31
0.0
  0
ARC
  5
3FF4
100
AcDbEntity
  8
0
100
AcDbCircle
 10
1346.788867
 20
446.888244
 30
0.0
 40
2.0
100
AcDbArc
 50
270.0
 51
0.0
  0
ARC
  5
3FF5
100
AcDbEntity
  8
0
100
AcDbCircle
 10
1299.455879
 20
602.835417
 30
0.0
 40
2.674672
100
AcDbArc
 50
57.401057
 51
122.598943
  0
ARC
  5
3FF6
100
AcDbEntity
  8
0
100
AcDbCircle
 10
1299.450276
 20
606.006917
 30
0.0
 40
0.523003
100
AcDbArc
 50
91.578974
 51
169.812088
  0
LINE
  5
3FF7
100
AcDbEntity
  8
0
100
AcDbLine
 10
1312.294733
 20
597.423441
 30
0.0
 11
1295.283001
 21
597.423441
 31
0.0
  0
ELLIPSE
  5
3FF8
100
AcDbEntity
  8
0
100
AcDbEllipse
 10
1303.788867
 20
489.870929
 30
0.0
 11
-25.0
 21
0.0
 31
0.0
210
0.0
220
0.0
230
1.0
 40
0.984808
 41
0.0
 42
6.283185307179586
  0
LINE
  5
3FF9
100
AcDbEntity
  8
0
100
AcDbLine
 10
1322.788867
 20
601.426201
 30
0.0
 11
1284.788867
 21
601.426201
 31
0.0
  0
LINE
  5
3FFA
100
AcDbEntity
  8
0
100
AcDbLine
 10
1312.294733
 20
591.4193
 30
0.0
 11
1295.283001
 21
591.4193
 31
0.0
  0
LINE
  5
3FFB
100
AcDbEntity
  8
0
100
AcDbLine
 10
1284.775755
 20
590.41861
 30
0.0
 11
1322.80198
 21
590.41861
 31
0.0
  0
LINE
  5
3FFC
100
AcDbEntity
  8
0
100
AcDbLine
 10
1312.788867
 20
614.945525
 30
0.0
 11
1294.788867
 21
614.945525
 31
0.0
  0
LINE
  5
3FFD
100
AcDbEntity
  8
0
100
AcDbLine
 10
1322.788867
 20
599.424821
 30
0.0
 11
1284.788867
 21
599.424821
 31
0.0
  0
LINE
  5
3FFE
100
AcDbEntity
  8
0
100
AcDbLine
 10
1326.788867
 20
527.350993
 30
0.0
 11
1280.788867
 21
527.350993
 31
0.0
  0
CIRCLE
  5
3FFF
100
AcDbEntity
  8
0
100
AcDbCircle
 10
1303.788867
 20
556.895491
 30
0.0
 40
24.0
  0
LINE
  5
4000
100
AcDbEntity
  8
0
100
AcDbLine
 10
1279.724045
 20
554.896541
 30
0.0
 11
1279.02737
 21
533.413001
 31
0.0
  0
LINE
  5
4001
100
AcDbEntity
  8
0
100
AcDbLine
 10
1265.788867
 20
512.579026
 30
0.0
 11
1265.788867
 21
463.484794
 31
0.0
  0
ARC
  5
4002
100
AcDbEntity
  8
0
100
AcDbCircle
 10
1273.788867
 20
479.991155
 30
0.0
 40
15.0
100
AcDbArc
 50
126.869898
 51
180.0
  0
LINE
  5
4003
100
AcDbEntity
  8
0
100
AcDbLine
 10
1258.788867
 20
478.811956
 30
0.0
 11
1258.788867
 21
474.46055
 31
0.0
  0
ARC
  5
4004
100
AcDbEntity
  8
0
100
AcDbCircle
 10
1257.788867
 20
472.888244
 30
0.0
 40
2.0
100
AcDbArc
 50
104.477512
 51
180.0
  0
ARC
  5
4005
100
AcDbEntity
  8
0
100
AcDbCircle
 10
1256.788867
 20
476.761228
 30
0.0
 40
2.0
100
AcDbArc
 50
284.477512
 51
0.0
  0
LINE
  5
4006
100
AcDbEntity
  8
0
100
AcDbLine
 10
1258.788867
 20
479.991155
 30
0.0
 11
1258.788867
 21
476.761228
 31
0.0
  0
LINE
  5
4007
100
AcDbEntity
  8
0
100
AcDbLine
 10
1282.76391
 20
467.481945
 30
0.0
 11
1276.26391
 21
471.178913
 31
0.0
  0
LINE
  5
4008
100
AcDbEntity
  8
0
100
AcDbLine
 10
1269.76391
 20
467.481945
 30
0.0
 11
1276.26391
 21
471.178913
 31
0.0
  0
ARC
  5
4009
100
AcDbEntity
  8
0
100
AcDbCircle
 10
1255.788867
 20
503.991155
 30
0.0
 40
15.0
100
AcDbArc
 50
306.869898
 51
311.810315
  0
LINE
  5
400A
100
AcDbEntity
  8
0
100
AcDbLine
 10
1269.76391
 20
521.900989
 30
0.0
 11
1276.26391
 21
525.597957
 31
0.0
  0
ELLIPSE
  5
400B
100
AcDbEntity
  8
0
100
AcDbEllipse
 10
1276.26391
 20
518.20599
 30
0.0
 11
6.300000000000011
 21
0.0
 31
0.0
210
0.0
220
0.0
230
-1.0
 40
0.984808
 41
0.0
 42
6.283185307179586
  0
LINE
  5
400C
100
AcDbEntity
  8
0
100
AcDbLine
 10
1282.76391
 20
521.900989
 30
0.0
 11
1276.26391
 21
525.597957
 31
0.0
  0
ELLIPSE
  5
400D
100
AcDbEntity
  8
0
100
AcDbEllipse
 10
1280.788867
 20
512.579026
 30
0.0
 11
-15.00000000000005
 21
0.0000000000000284
 31
0.0
210
0.0
220
0.0
230
-1.0
 40
0.984798
 41
6.283185307179586
 42
7.853981633974482
  0
LINE
  5
400E
100
AcDbEntity
  8
0
100
AcDbLine
 10
1282.76391
 20
513.383413
 30
0.0
 11
1276.26391
 21
509.686445
 31
0.0
  0
LINE
  5
400F
100
AcDbEntity
  8
0
100
AcDbLine
 10
1282.76391
 20
514.45299
 30
0.0
 11
1276.26391
 21
510.756022
 31
0.0
  0
LINE
  5
4010
100
AcDbEntity
  8
0
100
AcDbLine
 10
1269.76391
 20
513.383413
 30
0.0
 11
1276.26391
 21
509.686445
 31
0.0
  0
LINE
  5
4011
100
AcDbEntity
  8
0
100
AcDbLine
 10
1269.76391
 20
514.45299
 30
0.0
 11
1276.26391
 21
510.756022
 31
0.0
  0
LINE
  5
4012
100
AcDbEntity
  8
0
100
AcDbLine
 10
1269.76391
 20
514.45299
 30
0.0
 11
1269.76391
 21
513.383413
 31
0.0
  0
LINE
  5
4013
100
AcDbEntity
  8
0
100
AcDbLine
 10
1276.26391
 20
510.756022
 30
0.0
 11
1276.26391
 21
509.686445
 31
0.0
  0
LINE
  5
4014
100
AcDbEntity
  8
0
100
AcDbLine
 10
1269.76391
 20
514.45299
 30
0.0
 11
1269.76391
 21
521.900989
 31
0.0
  0
LINE
  5
4015
100
AcDbEntity
  8
0
100
AcDbLine
 10
1282.76391
 20
514.45299
 30
0.0
 11
1282.76391
 21
513.383413
 31
0.0
  0
LINE
  5
4016
100
AcDbEntity
  8
0
100
AcDbLine
 10
1282.76391
 20
514.45299
 30
0.0
 11
1282.76391
 21
521.900989
 31
0.0
  0
ARC
  5
4017
100
AcDbEntity
  8
0
100
AcDbCircle
 10
1303.788867
 20
511.598596
 30
0.0
 40
33.0
100
AcDbArc
 50
120.917086
 51
154.631825
  0
LINE
  5
4018
100
AcDbEntity
  8
0
100
AcDbLine
 10
1284.775755
 20
571.541362
 30
0.0
 11
1284.775755
 21
590.41861
 31
0.0
  0
ARC
  5
4019
100
AcDbEntity
  8
0
100
AcDbCircle
 10
1279.788867
 20
556.895491
 30
0.0
 40
2.0
100
AcDbArc
 50
87.611985
 51
272.388015
  0
LINE
  5
401A
100
AcDbEntity
  8
0
100
AcDbLine
 10
1296.288867
 20
614.945525
 30
0.0
 11
1296.288867
 21
601.426201
 31
0.0
  0
LINE
  5
401B
100
AcDbEntity
  8
0
100
AcDbLine
 10
1298.93552
 20
605.458983
 30
0.0
 11
1298.93552
 21
606.099424
 31
0.0
  0
LINE
  5
401C
100
AcDbEntity
  8
0
100
AcDbLine
 10
1296.784036
 20
602.426892
 30
0.0
 11
1298.014885
 21
602.426892
 31
0.0
  0
LINE
  5
401D
100
AcDbEntity
  8
0
100
AcDbLine
 10
1296.784036
 20
597.423441
 30
0.0
 11
1296.784036
 21
599.424821
 31
0.0
  0
LINE
  5
401E
100
AcDbEntity
  8
0
100
AcDbLine
 10
1296.784036
 20
601.426201
 30
0.0
 11
1296.784036
 21
602.426892
 31
0.0
  0
LINE
  5
401F
100
AcDbEntity
  8
0
100
AcDbLine
 10
1298.014885
 20
605.088727
 30
0.0
 11
1298.014885
 21
601.426201
 31
0.0
  0
LINE
  5
4020
100
AcDbEntity
  8
0
100
AcDbLine
 10
1295.783346
 20
591.4193
 30
0.0
 11
1295.783346
 21
590.41861
 31
0.0
  0
LINE
  5
4021
100
AcDbEntity
  8
0
100
AcDbLine
 10
1295.283001
 20
597.423441
 30
0.0
 11
1295.283001
 21
591.4193
 31
0.0
  0
LINE
  5
4022
100
AcDbEntity
  8
0
100
AcDbLine
 10
1284.788867
 20
601.426201
 30
0.0
 11
1284.788867
 21
599.424821
 31
0.0
  0
LINE
  5
4023
100
AcDbEntity
  8
0
100
AcDbLine
 10
1327.85369
 20
554.896541
 30
0.0
 11
1328.550364
 21
533.413001
 31
0.0
  0
LINE
  5
4024
100
AcDbEntity
  8
0
100
AcDbLine
 10
1341.788867
 20
512.579026
 30
0.0
 11
1341.788867
 21
463.484794
 31
0.0
  0
LINE
  5
4025
100
AcDbEntity
  8
0
100
AcDbLine
 10
1337.813825
 20
467.481945
 30
0.0
 11
1331.313825
 21
471.178913
 31
0.0
  0
LINE
  5
4026
100
AcDbEntity
  8
0
100
AcDbLine
 10
1324.813825
 20
467.481945
 30
0.0
 11
1331.313825
 21
471.178913
 31
0.0
  0
ELLIPSE
  5
4027
100
AcDbEntity
  8
0
100
AcDbEllipse
 10
1315.788867
 20
478.434541
 30
0.0
 11
28.0
 21
0.0
 31
0.0
210
0.0
220
0.0
230
-1.0
 40
0.984808
 41
5.902934100486658
 42
6.412149798160035
  0
ARC
  5
4028
100
AcDbEntity
  8
0
100
AcDbCircle
 10
1346.788867
 20
472.888244
 30
0.0
 40
2.0
100
AcDbArc
 50
0.0
 51
90.0
  0
LINE
  5
4029
100
AcDbEntity
  8
0
100
AcDbLine
 10
1346.788867
 20
474.888244
 30
0.0
 11
1341.788867
 21
474.888244
 31
0.0
  0
ELLIPSE
  5
402A
100
AcDbEntity
  8
0
100
AcDbEllipse
 10
1326.788867
 20
512.579026
 30
0.0
 11
15.00000000000005
 21
0.0000000000000284
 31
0.0
210
0.0
220
0.0
230
1.0
 40
0.984798
 41
6.283185307179586
 42
7.853981633974482
  0
ELLIPSE
  5
402B
100
AcDbEntity
  8
0
100
AcDbEllipse
 10
1331.313825
 20
518.20599
 30
0.0
 11
-6.300000000000011
 21
0.0
 31
0.0
210
0.0
220
0.0
230
1.0
 40
0.984808
 41
0.0
 42
6.283185307179586
  0
LINE
  5
402C
100
AcDbEntity
  8
0
100
AcDbLine
 10
1337.813825
 20
521.900989
 30
0.0
 11
1331.313825
 21
525.597957
 31
0.0
  0
LINE
  5
402D
100
AcDbEntity
  8
0
100
AcDbLine
 10
1324.813825
 20
521.900989
 30
0.0
 11
1331.313825
 21
525.597957
 31
0.0
  0
LINE
  5
402E
100
AcDbEntity
  8
0
100
AcDbLine
 10
1331.313825
 20
510.756022
 30
0.0
 11
1331.313825
 21
509.686445
 31
0.0
  0
LINE
  5
402F
100
AcDbEntity
  8
0
100
AcDbLine
 10
1337.813825
 20
514.45299
 30
0.0
 11
1337.813825
 21
513.383413
 31
0.0
  0
LINE
  5
4030
100
AcDbEntity
  8
0
100
AcDbLine
 10
1324.813825
 20
514.45299
 30
0.0
 11
1324.813825
 21
513.383413
 31
0.0
  0
LINE
  5
4031
100
AcDbEntity
  8
0
100
AcDbLine
 10
1337.813825
 20
513.383413
 30
0.0
 11
1331.313825
 21
509.686445
 31
0.0
  0
LINE
  5
4032
100
AcDbEntity
  8
0
100
AcDbLine
 10
1324.813825
 20
513.383413
 30
0.0
 11
1331.313825
 21
509.686445
 31
0.0
  0
LINE
  5
4033
100
AcDbEntity
  8
0
100
AcDbLine
 10
1337.813825
 20
514.45299
 30
0.0
 11
1337.813825
 21
521.900989
 31
0.0
  0
LINE
  5
4034
100
AcDbEntity
  8
0
100
AcDbLine
 10
1324.813825
 20
514.45299
 30
0.0
 11
1331.313825
 21
510.756022
 31
0.0
  0
LINE
  5
4035
100
AcDbEntity
  8
0
100
AcDbLine
 10
1337.813825
 20
514.45299
 30
0.0
 11
1331.313825
 21
510.756022
 31
0.0
  0
LINE
  5
4036
100
AcDbEntity
  8
0
100
AcDbLine
 10
1324.813825
 20
514.45299
 30
0.0
 11
1324.813825
 21
521.900989
 31
0.0
  0
ARC
  5
4037
100
AcDbEntity
  8
0
100
AcDbCircle
 10
1303.788867
 20
511.598596
 30
0.0
 40
33.0
100
AcDbArc
 50
25.368175
 51
59.082914
  0
LINE
  5
4038
100
AcDbEntity
  8
0
100
AcDbLine
 10
1322.80198
 20
590.41861
 30
0.0
 11
1322.80198
 21
571.541362
 31
0.0
  0
ARC
  5
4039
100
AcDbEntity
  8
0
100
AcDbCircle
 10
1327.788867
 20
556.895491
 30
0.0
 40
2.0
100
AcDbArc
 50
267.611985
 51
92.388015
  0
ARC
  5
403A
100
AcDbEntity
  8
0
100
AcDbCircle
 10
1308.127458
 20
606.006917
 30
0.0
 40
0.523003
100
AcDbArc
 50
10.187912
 51
88.421026
  0
LINE
  5
403B
100
AcDbEntity
  8
0
100
AcDbLine
 10
1311.288867
 20
614.945525
 30
0.0
 11
1311.288867
 21
601.426201
 31
0.0
  0
ARC
  5
403C
100
AcDbEntity
  8
0
100
AcDbCircle
 10
1308.116852
 20
602.822976
 30
0.0
 40
2.68785
100
AcDbArc
 50
57.454081
 51
122.545919
  0
LINE
  5
403D
100
AcDbEntity
  8
0
100
AcDbLine
 10
1308.642214
 20
606.099424
 30
0.0
 11
1308.642214
 21
605.458983
 31
0.0
  0
ARC
  5
403E
100
AcDbEntity
  8
0
100
AcDbCircle
 10
1303.783864
 20
596.525422
 30
0.0
 40
9.036864
100
AcDbArc
 50
71.369231
 51
108.630769
  0
LINE
  5
403F
100
AcDbEntity
  8
0
100
AcDbLine
 10
1306.020406
 20
597.923786
 30
0.0
 11
1306.020406
 21
599.424821
 31
0.0
  0
LINE
  5
4040
100
AcDbEntity
  8
0
100
AcDbLine
 10
1310.793698
 20
599.424821
 30
0.0
 11
1310.793698
 21
597.423441
 31
0.0
  0
LINE
  5
4041
100
AcDbEntity
  8
0
100
AcDbLine
 10
1310.793698
 20
598.924476
 30
0.0
 11
1310.793698
 21
599.424821
 31
0.0
  0
LINE
  5
4042
100
AcDbEntity
  8
0
100
AcDbLine
 10
1310.793698
 20
602.426892
 30
0.0
 11
1310.793698
 21
601.426201
 31
0.0
  0
LINE
  5
4043
100
AcDbEntity
  8
0
100
AcDbLine
 10
1306.800945
 20
597.423441
 30
0.0
 11
1306.790938
 21
597.423441
 31
0.0
  0
LINE
  5
4044
100
AcDbEntity
  8
0
100
AcDbLine
 10
1306.790938
 20
599.424821
 30
0.0
 11
1306.790938
 21
597.423441
 31
0.0
  0
LINE
  5
4045
100
AcDbEntity
  8
0
100
AcDbLine
 10
1309.562849
 20
602.426892
 30
0.0
 11
1310.793698
 21
602.426892
 31
0.0
  0
LINE
  5
4046
100
AcDbEntity
  8
0
100
AcDbLine
 10
1300.796804
 20
597.423441
 30
0.0
 11
1300.786797
 21
597.423441
 31
0.0
  0
LINE
  5
4047
100
AcDbEntity
  8
0
100
AcDbLine
 10
1300.786797
 20
597.423441
 30
0.0
 11
1300.786797
 21
599.424821
 31
0.0
  0
LINE
  5
4048
100
AcDbEntity
  8
0
100
AcDbLine
 10
1301.547321
 20
599.424821
 30
0.0
 11
1301.547321
 21
597.923786
 31
0.0
  0
LINE
  5
4049
100
AcDbEntity
  8
0
100
AcDbLine
 10
1301.547321
 20
597.923786
 30
0.0
 11
1306.020406
 21
597.923786
 31
0.0
  0
LINE
  5
404A
100
AcDbEntity
  8
0
100
AcDbLine
 10
1306.670855
 20
605.088727
 30
0.0
 11
1306.670855
 21
602.306809
 31
0.0
  0
LINE
  5
404B
100
AcDbEntity
  8
0
100
AcDbLine
 10
1306.670855
 20
602.306809
 30
0.0
 11
1306.670855
 21
605.088727
 31
0.0
  0
LINE
  5
404C
100
AcDbEntity
  8
0
100
AcDbLine
 10
1300.896873
 20
605.088727
 30
0.0
 11
1300.896873
 21
602.306809
 31
0.0
  0
LINE
  5
404D
100
AcDbEntity
  8
0
100
AcDbLine
 10
1306.670855
 20
605.088727
 30
0.0
 11
1306.670855
 21
601.426201
 31
0.0
  0
LINE
  5
404E
100
AcDbEntity
  8
0
100
AcDbLine
 10
1309.562849
 20
605.088727
 30
0.0
 11
1309.562849
 21
601.426201
 31
0.0
  0
LINE
  5
404F
100
AcDbEntity
  8
0
100
AcDbLine
 10
1300.896873
 20
605.088727
 30
0.0
 11
1300.896873
 21
601.426201
 31
0.0
  0
LINE
  5
4050
100
AcDbEntity
  8
0
100
AcDbLine
 10
1311.794388
 20
591.4193
 30
0.0
 11
1311.794388
 21
590.41861
 31
0.0
  0
LINE
  5
4051
100
AcDbEntity
  8
0
100
AcDbLine
 10
1312.294733
 20
597.423441
 30
0.0
 11
1312.294733
 21
591.4193
 31
0.0
  0
LINE
  5
4052
100
AcDbEntity
  8
0
100
AcDbLine
 10
1322.788867
 20
601.426201
 30
0.0
 11
1322.788867
 21
599.424821
 31
0.0
  0
LINE
  5
4053
100
AcDbEntity
  8
0
100
AcDbLine
 10
1306.250565
 20
607.930687
 30
0.0
 11
1306.790938
 21
607.610466
 31
0.0
  0
LINE
  5
4054
100
AcDbEntity
  8
0
100
AcDbLine
 10
1306.020406
 20
607.610466
 30
0.0
 11
1306.790938
 21
607.610466
 31
0.0
  0
LINE
  5
4055
100
AcDbEntity
  8
0
100
AcDbLine
 10
1306.020406
 20
606.529721
 30
0.0
 11
1306.020406
 21
607.610466
 31
0.0
  0
LINE
  5
4056
100
AcDbEntity
  8
0
100
AcDbLine
 10
1306.020406
 20
607.610466
 30
0.0
 11
1305.219854
 21
607.930687
 31
0.0
  0
LINE
  5
4057
100
AcDbEntity
  8
0
100
AcDbLine
 10
1306.790938
 20
607.610466
 30
0.0
 11
1306.790938
 21
606.529721
 31
0.0
  0
LINE
  5
4058
100
AcDbEntity
  8
0
100
AcDbLine
 10
1300.786797
 20
606.529721
 30
0.0
 11
1300.786797
 21
607.610466
 31
0.0
  0
LINE
  5
4059
100
AcDbEntity
  8
0
100
AcDbLine
 10
1300.786797
 20
607.610466
 30
0.0
 11
1301.32717
 21
607.930687
 31
0.0
  0
LINE
  5
405A
100
AcDbEntity
  8
0
100
AcDbLine
 10
1301.547321
 20
607.610466
 30
0.0
 11
1301.547321
 21
606.529721
 31
0.0
  0
LINE
  5
405B
100
AcDbEntity
  8
0
100
AcDbLine
 10
1300.786797
 20
607.610466
 30
0.0
 11
1301.547321
 21
607.610466
 31
0.0
  0
LINE
  5
405C
100
AcDbEntity
  8
0
100
AcDbLine
 10
1302.35788
 20
607.930687
 30
0.0
 11
1301.547321
 21
607.610466
 31
0.0
  0
LINE
  5
405D
100
AcDbEntity
  8
0
100
AcDbLine
 10
1299.435865
 20
606.529721
 30
0.0
 11
1308.141869
 21
606.529721
 31
0.0
  0
LINE
  5
405E
100
AcDbEntity
  8
0
100
AcDbLine
 10
1301.32717
 20
607.930687
 30
0.0
 11
1306.250565
 21
607.930687
 31
0.0
  0
LINE
  5
405F
100
AcDbEntity
  8
0
100
AcDbLine
 10
1614.794629
 20
465.133469
 30
0.0
 11
1622.579998
 21
457.3481
 31
0.0
  0
LINE
  5
4060
100
AcDbEntity
  8
0
100
AcDbLine
 10
1599.262654
 20
449.601495
 30
0.0
 11
1618.305788
 21
468.644628
 31
0.0
  0
LINE
  5
4061
100
AcDbEntity
  8
0
100
AcDbLine
 10
1591.797506
 20
451.282654
 30
0.0
 11
1617.665608
 21
477.166206
 31
0.0
  0
CIRCLE
  5
4062
100
AcDbEntity
  8
0
100
AcDbCircle
 10
1555.972799
 20
459.898596
 30
0.0
 40
15.010352
  0
LINE
  5
4063
100
AcDbEntity
  8
0
100
AcDbLine
 10
1477.159372
 20
457.643435
 30
0.0
 11
1479.353326
 21
470.069235
 31
0.0
  0
ARC
  5
4064
100
AcDbEntity
  8
0
100
AcDbCircle
 10
1491.55611
 20
461.50807
 30
0.0
 40
13.352467
100
AcDbArc
 50
153.667103
 51
186.30651
  0
LINE
  5
4065
100
AcDbEntity
  8
0
100
AcDbLine
 10
1496.060132
 20
527.351089
 30
0.0
 11
1482.84457
 21
452.452336
 31
0.0
  0
LINE
  5
4066
100
AcDbEntity
  8
0
100
AcDbLine
 10
1504.040133
 20
448.712826
 30
0.0
 11
1517.238934
 21
523.603801
 31
0.0
  0
LINE
  5
4067
100
AcDbEntity
  8
0
100
AcDbLine
 10
1505.908272
 20
525.613917
 30
0.0
 11
1492.709169
 21
450.712261
 31
0.0
  0
LINE
  5
4068
100
AcDbEntity
  8
0
100
AcDbLine
 10
1507.393972
 20
525.352907
 30
0.0
 11
1494.181083
 21
450.451923
 31
0.0
  0
LINE
  5
4069
100
AcDbEntity
  8
0
100
AcDbLine
 10
1759.394137
 20
472.888244
 30
0.0
 11
1759.394137
 21
446.888244
 31
0.0
  0
LINE
  5
406A
100
AcDbEntity
  8
0
100
AcDbLine
 10
1610.559183
 20
445.327284
 30
0.0
 11
1622.579998
 21
457.3481
 31
0.0
  0
LINE
  5
406C
100
AcDbEntity
  8
0
100
AcDbLine
 10
1504.908639
 20
453.640791
 30
0.0
 11
1553.220902
 21
445.138417
 31
0.0
  0
LINE
  5
406D
100
AcDbEntity
  8
0
100
AcDbLine
 10
1494.180184
 20
450.452081
 30
0.0
 11
1504.040133
 21
448.712826
 31
0.0
  0
LINE
  5
406E
100
AcDbEntity
  8
0
100
AcDbLine
 10
1494.980736
 20
454.985208
 30
0.0
 11
1493.499714
 21
455.245387
 31
0.0
  0
LINE
  5
406F
100
AcDbEntity
  8
0
100
AcDbLine
 10
1478.284445
 20
460.041339
 30
0.0
 11
1484.004961
 21
459.031299
 31
0.0
  0
LINE
  5
4070
100
AcDbEntity
  8
0
100
AcDbLine
 10
1483.352234
 20
455.334481
 30
0.0
 11
1477.631718
 21
456.344521
 31
0.0
  0
ARC
  5
4071
100
AcDbEntity
  8
0
100
AcDbCircle
 10
1480.915385
 20
457.671283
 30
0.0
 40
3.541047
100
AcDbArc
 50
137.986212
 51
201.987401
  0
LINE
  5
4072
100
AcDbEntity
  8
0
100
AcDbLine
 10
1477.631718
 20
456.344521
 30
0.0
 11
1477.159372
 21
457.643435
 31
0.0
  0
LINE
  5
4073
100
AcDbEntity
  8
0
100
AcDbLine
 10
1492.709169
 20
450.712261
 30
0.0
 11
1482.844553
 21
452.452241
 31
0.0
  0
ARC
  5
4074
100
AcDbEntity
  8
0
100
AcDbCircle
 10
1574.337314
 20
442.731531
 30
0.0
 40
10.012131
100
AcDbArc
 50
90.01059
 51
133.933444
  0
LINE
  5
4075
100
AcDbEntity
  8
0
100
AcDbLine
 10
1565.65948
 20
448.432172
 30
0.0
 11
1567.390674
 21
449.941729
 31
0.0
  0
ARC
  5
4076
100
AcDbEntity
  8
0
100
AcDbCircle
 10
1589.931219
 20
452.670006
 30
0.0
 40
2.325462
100
AcDbArc
 50
255.164798
 51
323.373791
  0
LINE
  5
4077
100
AcDbEntity
  8
0
100
AcDbLine
 10
1574.335463
 20
452.743662
 30
0.0
 11
1589.335808
 21
450.422061
 31
0.0
  0
LINE
  5
4078
100
AcDbEntity
  8
0
100
AcDbLine
 10
1602.773813
 20
453.112654
 30
0.0
 11
1610.559183
 21
445.327284
 31
0.0
  0
LINE
  5
4079
100
AcDbEntity
  8
0
100
AcDbLine
 10
1594.829597
 20
454.324752
 30
0.0
 11
1599.262654
 21
449.601495
 31
0.0
  0
ARC
  5
407A
100
AcDbEntity
  8
0
100
AcDbCircle
 10
1761.394137
 20
446.888244
 30
0.0
 40
2.0
100
AcDbArc
 50
180.0
 51
270.0
  0
LINE
  5
407B
100
AcDbEntity
  8
0
100
AcDbLine
 10
1634.446919
 20
580.912054
 30
0.0
 11
1591.717451
 21
580.912054
 31
0.0
  0
LINE
  5
407C
100
AcDbEntity
  8
0
100
AcDbLine
 10
1619.806823
 20
534.349942
 30
0.0
 11
1608.659135
 21
545.887899
 31
0.0
  0
LINE
  5
407D
100
AcDbEntity
  8
0
100
AcDbLine
 10
1660.76507
 20
626.443455
 30
0.0
 11
1607.627322
 21
626.443455
 31
0.0
  0
LINE
  5
407E
100
AcDbEntity
  8
0
100
AcDbLine
 10
1583.411723
 20
567.903082
 30
0.0
 11
1583.411723
 21
536.091143
 31
0.0
  0
LINE
  5
407F
100
AcDbEntity
  8
0
100
AcDbLine
 10
1580.109445
 20
563.900322
 30
0.0
 11
1580.109445
 21
534.880308
 31
0.0
  0
LINE
  5
4080
100
AcDbEntity
  8
0
100
AcDbLine
 10
1489.446919
 20
532.878927
 30
0.0
 11
1489.446919
 21
556.895491
 31
0.0
  0
LINE
  5
4081
100
AcDbEntity
  8
0
100
AcDbLine
 10
1528.073559
 20
534.880308
 30
0.0
 11
1528.073559
 21
563.900322
 31
0.0
  0
LINE
  5
4082
100
AcDbEntity
  8
0
100
AcDbLine
 10
1515.084601
 20
578.390315
 30
0.0
 11
1515.084601
 21
534.289901
 31
0.0
  0
LINE
  5
4083
100
AcDbEntity
  8
0
100
AcDbLine
 10
1580.109445
 20
534.880308
 30
0.0
 11
1528.073559
 21
534.880308
 31
0.0
  0
ARC
  5
4084
100
AcDbEntity
  8
0
100
AcDbCircle
 10
1544.453074
 20
511.57854
 30
0.0
 40
18.544725
100
AcDbArc
 50
0.234037
 51
136.885973
  0
ARC
  5
4085
100
AcDbEntity
  8
0
100
AcDbCircle
 10
1523.202277
 20
499.779003
 30
0.0
 40
5.001319
100
AcDbArc
 50
102.621454
 51
170.009013
  0
LINE
  5
4086
100
AcDbEntity
  8
0
100
AcDbLine
 10
1479.589203
 20
467.431036
 30
0.0
 11
1485.309718
 21
466.420996
 31
0.0
  0
LINE
  5
4087
100
AcDbEntity
  8
0
100
AcDbLine
 10
1480.241755
 20
471.126869
 30
0.0
 11
1485.962271
 21
470.11683
 31
0.0
  0
ARC
  5
4088
100
AcDbEntity
  8
0
100
AcDbCircle
 10
1482.872695
 20
468.756813
 30
0.0
 40
3.541047
100
AcDbArc
 50
137.986212
 51
201.987401
  0
LINE
  5
4089
100
AcDbEntity
  8
0
100
AcDbLine
 10
1479.353326
 20
470.069235
 30
0.0
 11
1480.241755
 21
471.126869
 31
0.0
  0
LINE
  5
408A
100
AcDbEntity
  8
0
100
AcDbLine
 10
1495.550766
 20
524.469244
 30
0.0
 11
1489.830018
 21
525.477967
 31
0.0
  0
LINE
  5
408B
100
AcDbEntity
  8
0
100
AcDbLine
 10
1489.446919
 20
532.878927
 30
0.0
 11
1513.403441
 21
532.878927
 31
0.0
  0
LINE
  5
408C
100
AcDbEntity
  8
0
100
AcDbLine
 10
1488.941659
 20
524.419143
 30
0.0
 11
1486.750566
 21
511.992838
 31
0.0
  0
ARC
  5
408D
100
AcDbEntity
  8
0
100
AcDbCircle
 10
1492.46133
 20
523.107532
 30
0.0
 40
3.541047
100
AcDbArc
 50
137.999406
 51
202.000594
  0
LINE
  5
408E
100
AcDbEntity
  8
0
100
AcDbLine
 10
1487.846112
 20
518.20599
 30
0.0
 11
1494.247363
 21
517.077277
 31
0.0
  0
ARC
  5
408F
100
AcDbEntity
  8
0
100
AcDbCircle
 10
1501.146413
 20
515.860789
 30
0.0
 40
13.352467
100
AcDbArc
 50
153.680297
 51
186.319703
  0
LINE
  5
4090
100
AcDbEntity
  8
0
100
AcDbLine
 10
1486.750566
 20
511.992838
 30
0.0
 11
1487.223385
 21
510.695017
 31
0.0
  0
ARC
  5
4091
100
AcDbEntity
  8
0
100
AcDbCircle
 10
1490.506572
 20
512.021551
 30
0.0
 40
3.541047
100
AcDbArc
 50
137.999406
 51
202.000594
  0
LINE
  5
4092
100
AcDbEntity
  8
0
100
AcDbLine
 10
1487.223385
 20
510.695017
 30
0.0
 11
1492.944133
 21
509.686295
 31
0.0
  0
LINE
  5
4093
100
AcDbEntity
  8
0
100
AcDbLine
 10
1489.178142
 20
521.780998
 30
0.0
 11
1494.898891
 21
520.772276
 31
0.0
  0
LINE
  5
4094
100
AcDbEntity
  8
0
100
AcDbLine
 10
1487.875086
 20
514.391001
 30
0.0
 11
1493.595835
 21
513.382279
 31
0.0
  0
LINE
  5
4095
100
AcDbEntity
  8
0
100
AcDbLine
 10
1489.830018
 20
525.477967
 30
0.0
 11
1488.941659
 21
524.419143
 31
0.0
  0
ARC
  5
4096
100
AcDbEntity
  8
0
100
AcDbCircle
 10
1512.143024
 20
528.410542
 30
0.0
 40
3.852593
100
AcDbArc
 50
264.328754
 51
359.18597
  0
LINE
  5
4097
100
AcDbEntity
  8
0
100
AcDbLine
 10
1517.238741
 20
523.602702
 30
0.0
 11
1507.389294
 21
525.353738
 31
0.0
  0
ARC
  5
4098
100
AcDbEntity
  8
0
100
AcDbCircle
 10
1524.591633
 20
524.239874
 30
0.0
 40
4.50417
100
AcDbArc
 50
172.299808
 51
249.171167
  0
LINE
  5
4099
100
AcDbEntity
  8
0
100
AcDbLine
 10
1505.10772
 20
521.080791
 30
0.0
 11
1506.588741
 21
520.820611
 31
0.0
  0
ARC
  5
409A
100
AcDbEntity
  8
0
100
AcDbCircle
 10
1520.361971
 20
512.470107
 30
0.0
 40
8.003736
100
AcDbArc
 50
282.611099
 51
70.830929
  0
ARC
  5
409B
100
AcDbEntity
  8
0
100
AcDbCircle
 10
1513.4034
 20
529.874786
 30
0.0
 40
3.004142
100
AcDbArc
 50
329.626963
 51
89.999218
  0
LINE
  5
409C
100
AcDbEntity
  8
0
100
AcDbLine
 10
1496.060116
 20
527.350993
 30
0.0
 11
1505.908272
 21
525.613917
 31
0.0
  0
LINE
  5
409D
100
AcDbEntity
  8
0
100
AcDbLine
 10
1562.997644
 20
511.65429
 30
0.0
 11
1562.997644
 21
492.951391
 31
0.0
  0
LINE
  5
409E
100
AcDbEntity
  8
0
100
AcDbLine
 10
1583.111516
 20
533.669473
 30
0.0
 11
1571.583565
 21
480.863054
 31
0.0
  0
ARC
  5
409F
100
AcDbEntity
  8
0
100
AcDbCircle
 10
1551.495349
 20
478.860323
 30
0.0
 40
14.963232
100
AcDbArc
 50
350.419541
 51
216.140074
  0
ARC
  5
40A0
100
AcDbEntity
  8
0
100
AcDbCircle
 10
1572.892076
 20
536.165788
 30
0.0
 40
10.519912
100
AcDbArc
 50
346.273094
 51
359.593446
  0
LINE
  5
40A1
100
AcDbEntity
  8
0
100
AcDbLine
 10
1528.073559
 20
563.900322
 30
0.0
 11
1580.109445
 21
563.900322
 31
0.0
  0
LINE
  5
40A2
100
AcDbEntity
  8
0
100
AcDbLine
 10
1548.687775
 20
573.907223
 30
0.0
 11
1522.458946
 21
573.907223
 31
0.0
  0
LINE
  5
40A3
100
AcDbEntity
  8
0
100
AcDbLine
 10
1514.935238
 20
580.912054
 30
0.0
 11
1489.446919
 21
580.912054
 31
0.0
  0
LINE
  5
40A4
100
AcDbEntity
  8
0
100
AcDbLine
 10
1489.446919
 20
556.895491
 30
0.0
 11
1489.446919
 21
580.912054
 31
0.0
  0
LINE
  5
40A5
100
AcDbEntity
  8
0
100
AcDbLine
 10
1520.468314
 20
571.925856
 30
0.0
 11
1520.468314
 21
551.681895
 31
0.0
  0
LINE
  5
40A6
100
AcDbEntity
  8
0
100
AcDbLine
 10
1522.458946
 20
573.907223
 30
0.0
 11
1514.935238
 21
580.912054
 31
0.0
  0
LINE
  5
40A7
100
AcDbEntity
  8
0
100
AcDbLine
 10
1589.716071
 20
582.913434
 30
0.0
 11
1589.716071
 21
590.41861
 31
0.0
  0
LINE
  5
40A8
100
AcDbEntity
  8
0
100
AcDbLine
 10
1551.689846
 20
590.41861
 30
0.0
 11
1551.689846
 21
576.909293
 31
0.0
  0
LINE
  5
40A9
100
AcDbEntity
  8
0
100
AcDbLine
 10
1551.689846
 20
573.907223
 30
0.0
 11
1561.906892
 21
564.760915
 31
0.0
  0
ARC
  5
40AA
100
AcDbEntity
  8
0
100
AcDbCircle
 10
1548.700304
 20
576.896765
 30
0.0
 40
2.989568
100
AcDbArc
 50
269.759885
 51
0.240115
  0
ARC
  5
40AB
100
AcDbEntity
  8
0
100
AcDbCircle
 10
1596.537795
 20
567.785982
 30
0.0
 40
13.126594
100
AcDbArc
 50
90.511133
 51
179.488867
  0
ARC
  5
40AC
100
AcDbEntity
  8
0
100
AcDbCircle
 10
1591.697914
 20
582.893897
 30
0.0
 40
1.981939
100
AcDbArc
 50
179.435189
 51
270.564811
  0
ARC
  5
40AD
100
AcDbEntity
  8
0
100
AcDbCircle
 10
1575.030943
 20
602.822976
 30
0.0
 40
2.68785
100
AcDbArc
 50
57.454081
 51
122.545919
  0
LINE
  5
40AE
100
AcDbEntity
  8
0
100
AcDbLine
 10
1566.349956
 20
606.529721
 30
0.0
 11
1575.05596
 21
606.529721
 31
0.0
  0
LINE
  5
40AF
100
AcDbEntity
  8
0
100
AcDbLine
 10
1562.197092
 20
591.4193
 30
0.0
 11
1579.208824
 21
591.4193
 31
0.0
  0
LINE
  5
40B0
100
AcDbEntity
  8
0
100
AcDbLine
 10
1579.208824
 20
597.423441
 30
0.0
 11
1562.197092
 21
597.423441
 31
0.0
  0
LINE
  5
40B1
100
AcDbEntity
  8
0
100
AcDbLine
 10
1589.718873
 20
601.426201
 30
0.0
 11
1553.691226
 21
601.426201
 31
0.0
  0
LINE
  5
40B2
100
AcDbEntity
  8
0
100
AcDbLine
 10
1589.716071
 20
590.41861
 30
0.0
 11
1551.689846
 21
590.41861
 31
0.0
  0
LINE
  5
40B3
100
AcDbEntity
  8
0
100
AcDbLine
 10
1573.705028
 20
599.424821
 30
0.0
 11
1590.870556
 21
599.424821
 31
0.0
  0
ARC
  5
40B4
100
AcDbEntity
  8
0
100
AcDbCircle
 10
1566.364367
 20
606.006917
 30
0.0
 40
0.523003
100
AcDbArc
 50
91.578974
 51
169.812088
  0
LINE
  5
40B5
100
AcDbEntity
  8
0
100
AcDbLine
 10
1553.691226
 20
599.424821
 30
0.0
 11
1567.700888
 21
599.424821
 31
0.0
  0
LINE
  5
40B6
100
AcDbEntity
  8
0
100
AcDbLine
 10
1553.691226
 20
601.426201
 30
0.0
 11
1553.691226
 21
599.424821
 31
0.0
  0
LINE
  5
40B7
100
AcDbEntity
  8
0
100
AcDbLine
 10
1565.849611
 20
605.458983
 30
0.0
 11
1565.849611
 21
606.099424
 31
0.0
  0
ARC
  5
40B8
100
AcDbEntity
  8
0
100
AcDbCircle
 10
1566.36997
 20
602.835417
 30
0.0
 40
2.674672
100
AcDbArc
 50
57.401057
 51
122.598943
  0
ARC
  5
40B9
100
AcDbEntity
  8
0
100
AcDbCircle
 10
1570.697955
 20
596.525422
 30
0.0
 40
9.036864
100
AcDbArc
 50
71.369231
 51
108.630769
  0
LINE
  5
40BA
100
AcDbEntity
  8
0
100
AcDbLine
 10
1573.705028
 20
601.426201
 30
0.0
 11
1573.705028
 21
597.423441
 31
0.0
  0
LINE
  5
40BB
100
AcDbEntity
  8
0
100
AcDbLine
 10
1573.715035
 20
597.423441
 30
0.0
 11
1573.705028
 21
597.423441
 31
0.0
  0
LINE
  5
40BC
100
AcDbEntity
  8
0
100
AcDbLine
 10
1562.697437
 20
591.4193
 30
0.0
 11
1562.697437
 21
590.41861
 31
0.0
  0
LINE
  5
40BD
100
AcDbEntity
  8
0
100
AcDbLine
 10
1562.197092
 20
597.423441
 30
0.0
 11
1562.197092
 21
591.4193
 31
0.0
  0
LINE
  5
40BE
100
AcDbEntity
  8
0
100
AcDbLine
 10
1563.698127
 20
601.426201
 30
0.0
 11
1563.698127
 21
602.426892
 31
0.0
  0
LINE
  5
40BF
100
AcDbEntity
  8
0
100
AcDbLine
 10
1568.461412
 20
597.923786
 30
0.0
 11
1572.934497
 21
597.923786
 31
0.0
  0
LINE
  5
40C0
100
AcDbEntity
  8
0
100
AcDbLine
 10
1568.461412
 20
601.426201
 30
0.0
 11
1568.461412
 21
597.923786
 31
0.0
  0
LINE
  5
40C1
100
AcDbEntity
  8
0
100
AcDbLine
 10
1567.700888
 20
597.423441
 30
0.0
 11
1567.700888
 21
601.426201
 31
0.0
  0
LINE
  5
40C2
100
AcDbEntity
  8
0
100
AcDbLine
 10
1567.710895
 20
597.423441
 30
0.0
 11
1567.700888
 21
597.423441
 31
0.0
  0
LINE
  5
40C3
100
AcDbEntity
  8
0
100
AcDbLine
 10
1563.698127
 20
597.423441
 30
0.0
 11
1563.698127
 21
599.424821
 31
0.0
  0
LINE
  5
40C4
100
AcDbEntity
  8
0
100
AcDbLine
 10
1572.934497
 20
597.923786
 30
0.0
 11
1572.934497
 21
601.426201
 31
0.0
  0
LINE
  5
40C5
100
AcDbEntity
  8
0
100
AcDbLine
 10
1563.698127
 20
602.426892
 30
0.0
 11
1564.928976
 21
602.426892
 31
0.0
  0
LINE
  5
40C6
100
AcDbEntity
  8
0
100
AcDbLine
 10
1567.810964
 20
605.088727
 30
0.0
 11
1567.810964
 21
601.426201
 31
0.0
  0
LINE
  5
40C7
100
AcDbEntity
  8
0
100
AcDbLine
 10
1564.928976
 20
605.088727
 30
0.0
 11
1564.928976
 21
601.426201
 31
0.0
  0
LINE
  5
40C8
100
AcDbEntity
  8
0
100
AcDbLine
 10
1573.584946
 20
605.088727
 30
0.0
 11
1573.584946
 21
601.426201
 31
0.0
  0
LINE
  5
40C9
100
AcDbEntity
  8
0
100
AcDbLine
 10
1567.810964
 20
605.088727
 30
0.0
 11
1567.810964
 21
602.306809
 31
0.0
  0
LINE
  5
40CA
100
AcDbEntity
  8
0
100
AcDbLine
 10
1573.584946
 20
602.306809
 30
0.0
 11
1573.584946
 21
605.088727
 31
0.0
  0
LINE
  5
40CB
100
AcDbEntity
  8
0
100
AcDbLine
 10
1573.584946
 20
605.088727
 30
0.0
 11
1573.584946
 21
602.306809
 31
0.0
  0
LINE
  5
40CC
100
AcDbEntity
  8
0
100
AcDbLine
 10
1573.705028
 20
607.610466
 30
0.0
 11
1573.705028
 21
606.529721
 31
0.0
  0
LINE
  5
40CD
100
AcDbEntity
  8
0
100
AcDbLine
 10
1568.24126
 20
607.930687
 30
0.0
 11
1573.164656
 21
607.930687
 31
0.0
  0
LINE
  5
40CE
100
AcDbEntity
  8
0
100
AcDbLine
 10
1569.271971
 20
607.930687
 30
0.0
 11
1568.461412
 21
607.610466
 31
0.0
  0
LINE
  5
40CF
100
AcDbEntity
  8
0
100
AcDbLine
 10
1567.700888
 20
607.610466
 30
0.0
 11
1568.461412
 21
607.610466
 31
0.0
  0
LINE
  5
40D0
100
AcDbEntity
  8
0
100
AcDbLine
 10
1568.461412
 20
607.610466
 30
0.0
 11
1568.461412
 21
606.529721
 31
0.0
  0
LINE
  5
40D1
100
AcDbEntity
  8
0
100
AcDbLine
 10
1567.700888
 20
607.610466
 30
0.0
 11
1568.24126
 21
607.930687
 31
0.0
  0
LINE
  5
40D2
100
AcDbEntity
  8
0
100
AcDbLine
 10
1567.700888
 20
606.529721
 30
0.0
 11
1567.700888
 21
607.610466
 31
0.0
  0
LINE
  5
40D3
100
AcDbEntity
  8
0
100
AcDbLine
 10
1572.934497
 20
607.610466
 30
0.0
 11
1572.133945
 21
607.930687
 31
0.0
  0
LINE
  5
40D4
100
AcDbEntity
  8
0
100
AcDbLine
 10
1572.934497
 20
606.529721
 30
0.0
 11
1572.934497
 21
607.610466
 31
0.0
  0
LINE
  5
40D5
100
AcDbEntity
  8
0
100
AcDbLine
 10
1572.934497
 20
607.610466
 30
0.0
 11
1573.705028
 21
607.610466
 31
0.0
  0
LINE
  5
40D6
100
AcDbEntity
  8
0
100
AcDbLine
 10
1573.164656
 20
607.930687
 30
0.0
 11
1573.705028
 21
607.610466
 31
0.0
  0
ARC
  5
40D7
100
AcDbEntity
  8
0
100
AcDbCircle
 10
1575.041549
 20
606.006917
 30
0.0
 40
0.523003
100
AcDbArc
 50
10.187912
 51
88.421026
  0
LINE
  5
40D8
100
AcDbEntity
  8
0
100
AcDbLine
 10
1575.556305
 20
606.099424
 30
0.0
 11
1575.556305
 21
605.458983
 31
0.0
  0
LINE
  5
40D9
100
AcDbEntity
  8
0
100
AcDbLine
 10
1576.47694
 20
602.426892
 30
0.0
 11
1577.707789
 21
602.426892
 31
0.0
  0
LINE
  5
40DA
100
AcDbEntity
  8
0
100
AcDbLine
 10
1577.707789
 20
602.426892
 30
0.0
 11
1577.707789
 21
601.426201
 31
0.0
  0
LINE
  5
40DB
100
AcDbEntity
  8
0
100
AcDbLine
 10
1578.708479
 20
591.4193
 30
0.0
 11
1578.708479
 21
590.41861
 31
0.0
  0
LINE
  5
40DC
100
AcDbEntity
  8
0
100
AcDbLine
 10
1579.208824
 20
597.423441
 30
0.0
 11
1579.208824
 21
591.4193
 31
0.0
  0
LINE
  5
40DD
100
AcDbEntity
  8
0
100
AcDbLine
 10
1577.707789
 20
598.924476
 30
0.0
 11
1577.707789
 21
599.424821
 31
0.0
  0
LINE
  5
40DE
100
AcDbEntity
  8
0
100
AcDbLine
 10
1577.707789
 20
599.424821
 30
0.0
 11
1577.707789
 21
597.423441
 31
0.0
  0
LINE
  5
40DF
100
AcDbEntity
  8
0
100
AcDbLine
 10
1576.47694
 20
605.088727
 30
0.0
 11
1576.47694
 21
601.426201
 31
0.0
  0
LINE
  5
40E0
100
AcDbEntity
  8
0
100
AcDbLine
 10
1600.983841
 20
614.945525
 30
0.0
 11
1600.123248
 21
615.44587
 31
0.0
  0
LINE
  5
40E1
100
AcDbEntity
  8
0
100
AcDbLine
 10
1598.382047
 20
616.44656
 30
0.0
 11
1597.521454
 21
616.946905
 31
0.0
  0
LINE
  5
40E2
100
AcDbEntity
  8
0
100
AcDbLine
 10
1607.627322
 20
626.443455
 30
0.0
 11
1600.983841
 21
614.945525
 31
0.0
  0
LINE
  5
40E3
100
AcDbEntity
  8
0
100
AcDbLine
 10
1634.446919
 20
532.878927
 30
0.0
 11
1634.446919
 21
556.895491
 31
0.0
  0
LINE
  5
40E4
100
AcDbEntity
  8
0
100
AcDbLine
 10
1617.665608
 20
477.166206
 30
0.0
 11
1620.679434
 21
532.878927
 31
0.0
  0
LINE
  5
40E5
100
AcDbEntity
  8
0
100
AcDbLine
 10
1618.305788
 20
468.644628
 30
0.0
 11
1613.58253
 21
473.077685
 31
0.0
  0
LINE
  5
40E6
100
AcDbEntity
  8
0
100
AcDbLine
 10
1620.679434
 20
532.878927
 30
0.0
 11
1634.446919
 21
532.878927
 31
0.0
  0
LINE
  5
40E7
100
AcDbEntity
  8
0
100
AcDbLine
 10
1766.394137
 20
512.579026
 30
0.0
 11
1766.394137
 21
488.668964
 31
0.0
  0
ARC
  5
40E8
100
AcDbEntity
  8
0
100
AcDbCircle
 10
1761.394137
 20
477.888244
 30
0.0
 40
3.0
100
AcDbArc
 50
270.0
 51
0.0
  0
LINE
  5
40E9
100
AcDbEntity
  8
0
100
AcDbLine
 10
1764.394137
 20
478.434541
 30
0.0
 11
1764.394137
 21
477.888244
 31
0.0
  0
ARC
  5
40EA
100
AcDbEntity
  8
0
100
AcDbCircle
 10
1761.394137
 20
472.888244
 30
0.0
 40
2.0
100
AcDbArc
 50
90.0
 51
180.0
  0
LINE
  5
40EB
100
AcDbEntity
  8
0
100
AcDbLine
 10
1761.394137
 20
474.888244
 30
0.0
 11
1761.394137
 21
474.888244
 31
0.0
  0
LINE
  5
40EC
100
AcDbEntity
  8
0
100
AcDbLine
 10
1634.446919
 20
556.895491
 30
0.0
 11
1634.446919
 21
580.912054
 31
0.0
  0
ARC
  5
40ED
100
AcDbEntity
  8
0
100
AcDbCircle
 10
1834.394137
 20
474.46055
 30
0.0
 40
15.0
100
AcDbArc
 50
275.287125
 51
0.0
  0
ELLIPSE
  5
40EE
100
AcDbEntity
  8
0
100
AcDbEllipse
 10
1804.394137
 20
470.819403
 30
0.0
 11
-26.79129999999997
 21
0.0
 31
0.0
210
0.0
220
0.0
230
1.0
 40
0.698623
 41
8.415985257308701
 42
9.470080485211866
  0
ELLIPSE
  5
40EF
100
AcDbEntity
  8
0
100
AcDbEllipse
 10
1804.394137
 20
470.819403
 30
0.0
 11
-26.79129999999997
 21
0.0
 31
0.0
210
0.0
220
0.0
230
1.0
 40
0.698623
 41
6.237882782737512
 42
7.291978010640269
  0
LINE
  5
40F0
100
AcDbEntity
  8
0
100
AcDbLine
 10
1812.894137
 20
465.133469
 30
0.0
 11
1812.894137
 21
445.327284
 31
0.0
  0
LINE
  5
40F1
100
AcDbEntity
  8
0
100
AcDbLine
 10
1795.894137
 20
465.133469
 30
0.0
 11
1795.894137
 21
445.327284
 31
0.0
  0
LINE
  5
40F2
100
AcDbEntity
  8
0
100
AcDbLine
 10
1790.934137
 20
459.123061
 30
0.0
 11
1790.934137
 21
463.560028
 31
0.0
  0
LINE
  5
40F3
100
AcDbEntity
  8
0
100
AcDbLine
 10
1817.854137
 20
459.123061
 30
0.0
 11
1817.854137
 21
463.560028
 31
0.0
  0
ELLIPSE
  5
40F4
100
AcDbEntity
  8
0
100
AcDbEllipse
 10
1804.394137
 20
459.123061
 30
0.0
 11
-13.46000000000003
 21
0.0
 31
0.0
210
0.0
220
0.0
230
1.0
 40
0.707107
 41
2.254283521725644
 42
7.170494439043817
  0
ELLIPSE
  5
40F5
100
AcDbEntity
  8
0
100
AcDbEllipse
 10
1804.394137
 20
463.846319
 30
0.0
 11
-19.0
 21
0.0
 31
0.0
210
0.0
220
0.0
230
1.0
 40
0.707107
 41
2.056715815188956
 42
7.368062145580465
  0
LINE
  5
40F6
100
AcDbEntity
  8
0
100
AcDbLine
 10
1852.394137
 20
472.888244
 30
0.0
 11
1852.394137
 21
446.888244
 31
0.0
  0
LINE
  5
40F7
100
AcDbEntity
  8
0
100
AcDbLine
 10
1795.894137
 20
445.327284
 30
0.0
 11
1812.894137
 21
445.327284
 31
0.0
  0
LINE
  5
40F8
100
AcDbEntity
  8
0
100
AcDbLine
 10
1795.894137
 20
457.3481
 30
0.0
 11
1812.894137
 21
457.3481
 31
0.0
  0
ELLIPSE
  5
40F9
100
AcDbEntity
  8
0
100
AcDbEllipse
 10
1804.394137
 20
477.617203
 30
0.0
 11
-33.0
 21
0.0
 31
0.0
210
0.0
220
0.0
230
1.0
 40
0.984808
 41
0.8995696233552447
 42
1.310283863427573
  0
ARC
  5
40FA
100
AcDbEntity
  8
0
100
AcDbCircle
 10
1836.697807
 20
449.566914
 30
0.0
 40
10.0
100
AcDbArc
 50
95.287125
 51
138.365006
  0
ELLIPSE
  5
40FB
100
AcDbEntity
  8
0
100
AcDbEllipse
 10
1804.394137
 20
477.617203
 30
0.0
 11
-33.0
 21
0.0
 31
0.0
210
0.0
220
0.0
230
1.0
 40
0.984808
 41
1.831308790162253
 42
2.422519496535802
  0
ARC
  5
40FC
100
AcDbEntity
  8
0
100
AcDbCircle
 10
1850.394137
 20
446.888244
 30
0.0
 40
2.0
100
AcDbArc
 50
270.0
 51
0.0
  0
LINE
  5
40FD
100
AcDbEntity
  8
0
100
AcDbLine
 10
1828.458959
 20
554.896541
 30
0.0
 11
1831.157949
 21
471.66704
 31
0.0
  0
LINE
  5
40FE
100
AcDbEntity
  8
0
100
AcDbLine
 10
1780.329314
 20
554.896541
 30
0.0
 11
1777.602837
 21
470.819403
 31
0.0
  0
CIRCLE
  5
40FF
100
AcDbEntity
  8
0
100
AcDbCircle
 10
1804.394137
 20
556.895491
 30
0.0
 40
24.0
  0
ARC
  5
4100
100
AcDbEntity
  8
0
100
AcDbCircle
 10
1834.394137
 20
479.991155
 30
0.0
 40
15.0
100
AcDbArc
 50
0.0
 51
53.130102
  0
LINE
  5
4101
100
AcDbEntity
  8
0
100
AcDbLine
 10
1842.394137
 20
512.579026
 30
0.0
 11
1842.394137
 21
492.810816
 31
0.0
  0
ARC
  5
4102
100
AcDbEntity
  8
0
100
AcDbCircle
 10
1852.394137
 20
503.991155
 30
0.0
 40
15.0
100
AcDbArc
 50
180.0
 51
233.130102
  0
LINE
  5
4103
100
AcDbEntity
  8
0
100
AcDbLine
 10
1771.394137
 20
511.598596
 30
0.0
 11
1771.394137
 21
500.166113
 31
0.0
  0
LINE
  5
4104
100
AcDbEntity
  8
0
100
AcDbLine
 10
1795.894137
 20
465.133469
 30
0.0
 11
1812.894137
 21
465.133469
 31
0.0
  0
ELLIPSE
  5
4105
100
AcDbEntity
  8
0
100
AcDbEllipse
 10
1804.394137
 20
463.560028
 30
0.0
 11
-13.46000000000003
 21
0.0
 31
0.0
210
0.0
220
0.0
230
1.0
 40
0.707107
 41
3.141592653589793
 42
6.283185307179586
  0
ELLIPSE
  5
4106
100
AcDbEntity
  8
0
100
AcDbEllipse
 10
1827.394137
 20
512.579026
 30
0.0
 11
15.00000000000005
 21
0.0000000000000284
 31
0.0
210
0.0
220
0.0
230
1.0
 40
0.984798
 41
6.283185307179586
 42
7.382139219865466
  0
ARC
  5
4107
100
AcDbEntity
  8
0
100
AcDbCircle
 10
1804.394137
 20
511.598596
 30
0.0
 40
33.0
100
AcDbArc
 50
0.0
 51
41.379434
  0
ELLIPSE
  5
4108
100
AcDbEntity
  8
0
100
AcDbEllipse
 10
1827.394137
 20
508.831834
 30
0.0
 11
15.00000000000005
 21
0.0000000000000284
 31
0.0
210
0.0
220
0.0
230
1.0
 40
0.984798
 41
6.283185307179586
 42
7.238111907842669
  0
ELLIPSE
  5
4109
100
AcDbEntity
  8
0
100
AcDbEllipse
 10
1827.394137
 20
510.580939
 30
0.0
 11
15.00000000000005
 21
0.0000000000000284
 31
0.0
210
0.0
220
0.0
230
1.0
 40
0.984798
 41
6.283185307179586
 42
7.297616549881648
  0
LINE
  5
410A
100
AcDbEntity
  8
0
100
AcDbLine
 10
1837.394137
 20
511.598596
 30
0.0
 11
1837.394137
 21
503.991155
 31
0.0
  0
ARC
  5
410B
100
AcDbEntity
  8
0
100
AcDbCircle
 10
1851.394137
 20
476.761228
 30
0.0
 40
2.0
100
AcDbArc
 50
180.0
 51
255.522488
  0
LINE
  5
410C
100
AcDbEntity
  8
0
100
AcDbLine
 10
1849.394137
 20
476.388244
 30
0.0
 11
1849.410137
 21
476.170244
 31
0.0
  0
LINE
  5
410D
100
AcDbEntity
  8
0
100
AcDbLine
 10
1849.394137
 20
479.991155
 30
0.0
 11
1849.394137
 21
474.46055
 31
0.0
  0
LINE
  5
410E
100
AcDbEntity
  8
0
100
AcDbLine
 10
1849.394137
 20
478.811956
 30
0.0
 11
1849.394137
 21
477.47082
 31
0.0
  0
ARC
  5
410F
100
AcDbEntity
  8
0
100
AcDbCircle
 10
1850.394137
 20
472.888244
 30
0.0
 40
2.0
100
AcDbArc
 50
0.0
 51
75.522488
  0
LINE
  5
4110
100
AcDbEntity
  8
0
100
AcDbLine
 10
1823.407249
 20
571.541362
 30
0.0
 11
1823.407249
 21
590.41861
 31
0.0
  0
LINE
  5
4111
100
AcDbEntity
  8
0
100
AcDbLine
 10
1785.381024
 20
590.41861
 30
0.0
 11
1785.381024
 21
571.541362
 31
0.0
  0
ARC
  5
4112
100
AcDbEntity
  8
0
100
AcDbCircle
 10
1780.394137
 20
556.895491
 30
0.0
 40
2.0
100
AcDbArc
 50
87.611985
 51
272.388015
  0
ARC
  5
4113
100
AcDbEntity
  8
0
100
AcDbCircle
 10
1828.394137
 20
556.895491
 30
0.0
 40
2.0
100
AcDbArc
 50
267.611985
 51
92.388015
  0
LINE
  5
4114
100
AcDbEntity
  8
0
100
AcDbLine
 10
1795.394137
 20
614.945525
 30
0.0
 11
1813.394137
 21
614.945525
 31
0.0
  0
LINE
  5
4115
100
AcDbEntity
  8
0
100
AcDbLine
 10
1813.394137
 20
626.443455
 30
0.0
 11
1795.394137
 21
626.443455
 31
0.0
  0
LINE
  5
4116
100
AcDbEntity
  8
0
100
AcDbLine
 10
1785.394137
 20
599.424821
 30
0.0
 11
1823.394137
 21
599.424821
 31
0.0
  0
LINE
  5
4117
100
AcDbEntity
  8
0
100
AcDbLine
 10
1823.407249
 20
590.41861
 30
0.0
 11
1785.381024
 21
590.41861
 31
0.0
  0
LINE
  5
4118
100
AcDbEntity
  8
0
100
AcDbLine
 10
1812.900003
 20
597.423441
 30
0.0
 11
1795.888271
 21
597.423441
 31
0.0
  0
LINE
  5
4119
100
AcDbEntity
  8
0
100
AcDbLine
 10
1795.888271
 20
591.4193
 30
0.0
 11
1812.900003
 21
591.4193
 31
0.0
  0
LINE
  5
411A
100
AcDbEntity
  8
0
100
AcDbLine
 10
1796.894137
 20
614.945525
 30
0.0
 11
1796.894137
 21
599.424821
 31
0.0
  0
LINE
  5
411B
100
AcDbEntity
  8
0
100
AcDbLine
 10
1796.894137
 20
601.426201
 30
0.0
 11
1785.394137
 21
601.426201
 31
0.0
  0
LINE
  5
411C
100
AcDbEntity
  8
0
100
AcDbLine
 10
1785.394137
 20
601.426201
 30
0.0
 11
1785.394137
 21
599.424821
 31
0.0
  0
LINE
  5
411D
100
AcDbEntity
  8
0
100
AcDbLine
 10
1806.625676
 20
597.923786
 30
0.0
 11
1806.625676
 21
599.424821
 31
0.0
  0
LINE
  5
411E
100
AcDbEntity
  8
0
100
AcDbLine
 10
1807.406214
 20
597.423441
 30
0.0
 11
1807.396207
 21
597.423441
 31
0.0
  0
LINE
  5
411F
100
AcDbEntity
  8
0
100
AcDbLine
 10
1807.396207
 20
599.424821
 30
0.0
 11
1807.396207
 21
597.423441
 31
0.0
  0
LINE
  5
4120
100
AcDbEntity
  8
0
100
AcDbLine
 10
1797.389306
 20
597.423441
 30
0.0
 11
1797.389306
 21
599.424821
 31
0.0
  0
LINE
  5
4121
100
AcDbEntity
  8
0
100
AcDbLine
 10
1801.402073
 20
597.423441
 30
0.0
 11
1801.392066
 21
597.423441
 31
0.0
  0
LINE
  5
4122
100
AcDbEntity
  8
0
100
AcDbLine
 10
1801.392066
 20
597.423441
 30
0.0
 11
1801.392066
 21
599.424821
 31
0.0
  0
LINE
  5
4123
100
AcDbEntity
  8
0
100
AcDbLine
 10
1802.152591
 20
599.424821
 30
0.0
 11
1802.152591
 21
597.923786
 31
0.0
  0
LINE
  5
4124
100
AcDbEntity
  8
0
100
AcDbLine
 10
1795.888271
 20
597.423441
 30
0.0
 11
1795.888271
 21
591.4193
 31
0.0
  0
LINE
  5
4125
100
AcDbEntity
  8
0
100
AcDbLine
 10
1796.388616
 20
591.4193
 30
0.0
 11
1796.388616
 21
590.41861
 31
0.0
  0
LINE
  5
4126
100
AcDbEntity
  8
0
100
AcDbLine
 10
1802.152591
 20
597.923786
 30
0.0
 11
1806.625676
 21
597.923786
 31
0.0
  0
LINE
  5
4127
100
AcDbEntity
  8
0
100
AcDbLine
 10
1811.894137
 20
614.945525
 30
0.0
 11
1811.894137
 21
599.424821
 31
0.0
  0
LINE
  5
4128
100
AcDbEntity
  8
0
100
AcDbLine
 10
1811.894137
 20
601.426201
 30
0.0
 11
1823.394137
 21
601.426201
 31
0.0
  0
LINE
  5
4129
100
AcDbEntity
  8
0
100
AcDbLine
 10
1823.394137
 20
601.426201
 30
0.0
 11
1823.394137
 21
599.424821
 31
0.0
  0
LINE
  5
412A
100
AcDbEntity
  8
0
100
AcDbLine
 10
1811.398968
 20
599.424821
 30
0.0
 11
1811.398968
 21
597.423441
 31
0.0
  0
LINE
  5
412B
100
AcDbEntity
  8
0
100
AcDbLine
 10
1811.398968
 20
598.924476
 30
0.0
 11
1811.398968
 21
599.424821
 31
0.0
  0
LINE
  5
412C
100
AcDbEntity
  8
0
100
AcDbLine
 10
1812.900003
 20
597.423441
 30
0.0
 11
1812.900003
 21
591.4193
 31
0.0
  0
LINE
  5
412D
100
AcDbEntity
  8
0
100
AcDbLine
 10
1812.399658
 20
591.4193
 30
0.0
 11
1812.399658
 21
590.41861
 31
0.0
  0
LINE
  5
412E
100
AcDbEntity
  8
0
100
AcDbLine
 10
1312.788867
 20
630.446215
 30
0.0
 11
1294.788867
 21
630.446215
 31
0.0
  0
ARC
  5
412F
100
AcDbEntity
  8
0
100
AcDbCircle
 10
1655.758759
 20
790.965738
 30
0.0
 40
5.006311
100
AcDbArc
 50
0.021933
 51
91.1126
  0
LINE
  5
4130
100
AcDbEntity
  8
0
100
AcDbLine
 10
1605.887223
 20
780.330318
 30
0.0
 11
1605.887223
 21
793.939704
 31
0.0
  0
LINE
  5
4131
100
AcDbEntity
  8
0
100
AcDbLine
 10
1589.716071
 20
781.180905
 30
0.0
 11
1589.716071
 21
792.878973
 31
0.0
  0
LINE
  5
4132
100
AcDbEntity
  8
0
100
AcDbLine
 10
1570.702958
 20
792.848952
 30
0.0
 11
1575.706409
 21
789.956957
 31
0.0
  0
LINE
  5
4133
100
AcDbEntity
  8
0
100
AcDbLine
 10
1565.699507
 20
789.956957
 30
0.0
 11
1570.702958
 21
792.848952
 31
0.0
  0
ARC
  5
4134
100
AcDbEntity
  8
0
100
AcDbCircle
 10
1570.702958
 20
787.064963
 30
0.0
 40
12.506949
100
AcDbArc
 50
54.477649
 51
215.524723
  0
LINE
  5
4135
100
AcDbEntity
  8
0
100
AcDbLine
 10
1489.446919
 20
787.064963
 30
0.0
 11
1489.446919
 21
811.081526
 31
0.0
  0
CIRCLE
  5
4136
100
AcDbEntity
  8
0
100
AcDbCircle
 10
1501.955546
 20
787.064963
 30
0.0
 40
7.505176
  0
CIRCLE
  5
4137
100
AcDbEntity
  8
0
100
AcDbCircle
 10
1501.955546
 20
787.064963
 30
0.0
 40
8.505926
  0
LINE
  5
4138
100
AcDbEntity
  8
0
100
AcDbLine
 10
1515.084601
 20
810.84136
 30
0.0
 11
1515.084601
 21
763.288565
 31
0.0
  0
LINE
  5
4139
100
AcDbEntity
  8
0
100
AcDbLine
 10
1522.369625
 20
806.318241
 30
0.0
 11
1522.369625
 21
767.811685
 31
0.0
  0
LINE
  5
413A
100
AcDbEntity
  8
0
100
AcDbLine
 10
1483.202613
 20
808.079456
 30
0.0
 11
1483.202613
 21
766.05047
 31
0.0
  0
ARC
  5
413B
100
AcDbEntity
  8
0
100
AcDbCircle
 10
1580.534331
 20
787.010512
 30
0.0
 40
95.470449
100
AcDbArc
 50
165.597708
 51
194.430647
  0
ARC
  5
413C
100
AcDbEntity
  8
0
100
AcDbCircle
 10
1570.702958
 20
787.064963
 30
0.0
 40
19.013112
100
AcDbArc
 50
23.259361
 51
336.773169
  0
LINE
  5
413D
100
AcDbEntity
  8
0
100
AcDbLine
 10
1588.415173
 20
763.0484
 30
0.0
 11
1634.446919
 21
763.0484
 31
0.0
  0
ARC
  5
413E
100
AcDbEntity
  8
0
100
AcDbCircle
 10
1607.938567
 20
770.75048
 30
0.0
 40
11.707102
100
AcDbArc
 50
268.873853
 51
318.860232
  0
LINE
  5
413F
100
AcDbEntity
  8
0
100
AcDbLine
 10
1655.66155
 20
778.168828
 30
0.0
 11
1588.175072
 21
779.566718
 31
0.0
  0
LINE
  5
4140
100
AcDbEntity
  8
0
100
AcDbLine
 10
1605.309045
 20
630.446215
 30
0.0
 11
1660.76507
 21
630.446215
 31
0.0
  0
LINE
  5
4141
100
AcDbEntity
  8
0
100
AcDbLine
 10
1659.76438
 20
629.445525
 30
0.0
 11
1605.891626
 21
629.445525
 31
0.0
  0
LINE
  5
4142
100
AcDbEntity
  8
0
100
AcDbLine
 10
1607.070076
 20
627.444145
 30
0.0
 11
1659.76438
 21
627.444145
 31
0.0
  0
LINE
  5
4143
100
AcDbEntity
  8
0
100
AcDbLine
 10
1539.591502
 20
749.238876
 30
0.0
 11
1530.958521
 21
754.042189
 31
0.0
  0
ARC
  5
4144
100
AcDbEntity
  8
0
100
AcDbCircle
 10
1544.705773
 20
786.71679
 30
0.0
 40
32.626068
100
AcDbArc
 50
219.382799
 51
325.137826
  0
LINE
  5
4145
100
AcDbEntity
  8
0
100
AcDbLine
 10
1522.818169
 20
768.05185
 30
0.0
 11
1583.411723
 21
768.05185
 31
0.0
  0
ARC
  5
4146
100
AcDbEntity
  8
0
100
AcDbCircle
 10
1499.957669
 20
756.702785
 30
0.0
 40
17.405441
100
AcDbArc
 50
333.875396
 51
1.618407
  0
ARC
  5
4147
100
AcDbEntity
  8
0
100
AcDbCircle
 10
1463.805668
 20
758.786407
 30
0.0
 40
43.572329
100
AcDbArc
 50
347.072827
 51
358.853875
  0
ARC
  5
4148
100
AcDbEntity
  8
0
100
AcDbCircle
 10
1464.940656
 20
758.653123
 30
0.0
 40
41.72529
100
AcDbArc
 50
346.678138
 51
1.061214
  0
LINE
  5
4149
100
AcDbEntity
  8
0
100
AcDbLine
 10
1485.003855
 20
749.038738
 30
0.0
 11
1483.582875
 21
753.041498
 31
0.0
  0
ARC
  5
414A
100
AcDbEntity
  8
0
100
AcDbCircle
 10
1462.861414
 20
758.285115
 30
0.0
 40
34.72985
100
AcDbArc
 50
344.559522
 51
1.882358
  0
LINE
  5
414B
100
AcDbEntity
  8
0
100
AcDbLine
 10
1515.584946
 20
749.038738
 30
0.0
 11
1485.003855
 21
749.038738
 31
0.0
  0
LINE
  5
414C
100
AcDbEntity
  8
0
100
AcDbLine
 10
1494.722055
 20
763.0484
 30
0.0
 11
1495.551129
 21
759.545984
 31
0.0
  0
LINE
  5
414D
100
AcDbEntity
  8
0
100
AcDbLine
 10
1490.957962
 20
759.545984
 30
0.0
 11
1495.551129
 21
759.545984
 31
0.0
  0
LINE
  5
414E
100
AcDbEntity
  8
0
100
AcDbLine
 10
1495.551129
 20
759.545984
 30
0.0
 11
1494.080115
 21
753.041498
 31
0.0
  0
LINE
  5
414F
100
AcDbEntity
  8
0
100
AcDbLine
 10
1489.446919
 20
763.0484
 30
0.0
 11
1513.903786
 21
763.0484
 31
0.0
  0
LINE
  5
4150
100
AcDbEntity
  8
0
100
AcDbLine
 10
1489.446919
 20
763.0484
 30
0.0
 11
1489.446919
 21
787.064963
 31
0.0
  0
LINE
  5
4151
100
AcDbEntity
  8
0
100
AcDbLine
 10
1490.957962
 20
759.545984
 30
0.0
 11
1490.121859
 21
763.0484
 31
0.0
  0
LINE
  5
4152
100
AcDbEntity
  8
0
100
AcDbLine
 10
1489.406892
 20
766.05047
 30
0.0
 11
1488.496264
 21
766.05047
 31
0.0
  0
LINE
  5
4153
100
AcDbEntity
  8
0
100
AcDbLine
 10
1489.446919
 20
766.05047
 30
0.0
 11
1489.446919
 21
766.05047
 31
0.0
  0
ARC
  5
4154
100
AcDbEntity
  8
0
100
AcDbCircle
 10
1494.388282
 20
766.608845
 30
0.0
 40
5.012587
100
AcDbArc
 50
186.395706
 51
189.670239
  0
LINE
  5
4155
100
AcDbEntity
  8
0
100
AcDbLine
 10
1488.496264
 20
766.05047
 30
0.0
 11
1487.875836
 21
759.535977
 31
0.0
  0
LINE
  5
4156
100
AcDbEntity
  8
0
100
AcDbLine
 10
1484.413448
 20
766.05047
 30
0.0
 11
1485.964518
 21
759.545984
 31
0.0
  0
LINE
  5
4157
100
AcDbEntity
  8
0
100
AcDbLine
 10
1488.496264
 20
753.041498
 30
0.0
 11
1494.080115
 21
753.041498
 31
0.0
  0
LINE
  5
4158
100
AcDbEntity
  8
0
100
AcDbLine
 10
1487.875836
 20
759.535977
 30
0.0
 11
1488.496264
 21
753.041498
 31
0.0
  0
LINE
  5
4159
100
AcDbEntity
  8
0
100
AcDbLine
 10
1484.493503
 20
753.041498
 30
0.0
 11
1485.964518
 21
759.545984
 31
0.0
  0
LINE
  5
415A
100
AcDbEntity
  8
0
100
AcDbLine
 10
1489.486947
 20
753.041498
 30
0.0
 11
1490.957962
 21
759.545984
 31
0.0
  0
LINE
  5
415B
100
AcDbEntity
  8
0
100
AcDbLine
 10
1481.37135
 20
759.545984
 30
0.0
 11
1479.82028
 21
766.05047
 31
0.0
  0
LINE
  5
415C
100
AcDbEntity
  8
0
100
AcDbLine
 10
1478.909652
 20
766.05047
 30
0.0
 11
1478.289224
 21
759.535977
 31
0.0
  0
LINE
  5
415D
100
AcDbEntity
  8
0
100
AcDbLine
 10
1479.82028
 20
766.05047
 30
0.0
 11
1478.909652
 21
766.05047
 31
0.0
  0
LINE
  5
415E
100
AcDbEntity
  8
0
100
AcDbLine
 10
1478.289224
 20
759.535977
 30
0.0
 11
1478.909652
 21
753.041498
 31
0.0
  0
LINE
  5
415F
100
AcDbEntity
  8
0
100
AcDbLine
 10
1481.37135
 20
759.545984
 30
0.0
 11
1479.900336
 21
753.041498
 31
0.0
  0
LINE
  5
4160
100
AcDbEntity
  8
0
100
AcDbLine
 10
1479.82028
 20
766.05047
 30
0.0
 11
1484.413448
 21
766.05047
 31
0.0
  0
LINE
  5
4161
100
AcDbEntity
  8
0
100
AcDbLine
 10
1478.909652
 20
753.041498
 30
0.0
 11
1484.493503
 21
753.041498
 31
0.0
  0
LINE
  5
4162
100
AcDbEntity
  8
0
100
AcDbLine
 10
1481.37135
 20
759.545984
 30
0.0
 11
1485.964518
 21
759.545984
 31
0.0
  0
ARC
  5
4163
100
AcDbEntity
  8
0
100
AcDbCircle
 10
1513.912172
 20
766.030086
 30
0.0
 40
2.981698
100
AcDbArc
 50
269.838855
 51
312.987084
  0
LINE
  5
4164
100
AcDbEntity
  8
0
100
AcDbLine
 10
1507.389294
 20
759.425902
 30
0.0
 11
1507.389294
 21
759.425902
 31
0.0
  0
LINE
  5
4165
100
AcDbEntity
  8
0
100
AcDbLine
 10
1506.65879
 20
759.425902
 30
0.0
 11
1506.65879
 21
759.425902
 31
0.0
  0
LINE
  5
4166
100
AcDbEntity
  8
0
100
AcDbLine
 10
1506.65879
 20
763.0484
 30
0.0
 11
1506.65879
 21
759.425902
 31
0.0
  0
LINE
  5
4167
100
AcDbEntity
  8
0
100
AcDbLine
 10
1497.572523
 20
763.0484
 30
0.0
 11
1497.572523
 21
759.425902
 31
0.0
  0
LINE
  5
4168
100
AcDbEntity
  8
0
100
AcDbLine
 10
1507.402082
 20
763.0484
 30
0.0
 11
1507.36928
 21
757.914859
 31
0.0
  0
LINE
  5
4169
100
AcDbEntity
  8
0
100
AcDbLine
 10
1515.945194
 20
763.848952
 30
0.0
 11
1522.818169
 21
768.05185
 31
0.0
  0
LINE
  5
416A
100
AcDbEntity
  8
0
100
AcDbLine
 10
1517.396195
 20
757.194363
 30
0.0
 11
1517.396195
 21
764.619483
 31
0.0
  0
LINE
  5
416B
100
AcDbEntity
  8
0
100
AcDbLine
 10
1530.958521
 20
754.042189
 30
0.0
 11
1517.136015
 21
754.042189
 31
0.0
  0
LINE
  5
416C
100
AcDbEntity
  8
0
100
AcDbLine
 10
1570.983151
 20
742.033907
 30
0.0
 11
1570.983151
 21
757.404507
 31
0.0
  0
ARC
  5
416D
100
AcDbEntity
  8
0
100
AcDbCircle
 10
1550.116717
 20
773.199389
 30
0.0
 40
26.170333
100
AcDbArc
 50
246.285394
 51
327.259716
  0
LINE
  5
416E
100
AcDbEntity
  8
0
100
AcDbLine
 10
1540.962447
 20
742.033907
 30
0.0
 11
1570.983151
 21
742.033907
 31
0.0
  0
LINE
  5
416F
100
AcDbEntity
  8
0
100
AcDbLine
 10
1540.962447
 20
748.68234
 30
0.0
 11
1540.962447
 21
742.033907
 31
0.0
  0
LINE
  5
4170
100
AcDbEntity
  8
0
100
AcDbLine
 10
1575.706409
 20
784.182975
 30
0.0
 11
1570.702958
 21
781.290981
 31
0.0
  0
LINE
  5
4171
100
AcDbEntity
  8
0
100
AcDbLine
 10
1585.444044
 20
775.056681
 30
0.0
 11
1555.961872
 21
775.056681
 31
0.0
  0
LINE
  5
4172
100
AcDbEntity
  8
0
100
AcDbLine
 10
1607.708479
 20
759.045639
 30
0.0
 11
1572.129389
 21
759.045639
 31
0.0
  0
LINE
  5
4173
100
AcDbEntity
  8
0
100
AcDbLine
 10
1553.217951
 20
779.596831
 30
0.0
 11
1560.454775
 21
779.795844
 31
0.0
  0
LINE
  5
4174
100
AcDbEntity
  8
0
100
AcDbLine
 10
1551.689846
 20
787.064963
 30
0.0
 11
1551.689846
 21
787.064963
 31
0.0
  0
LINE
  5
4175
100
AcDbEntity
  8
0
100
AcDbLine
 10
1568.461412
 20
789.066343
 30
0.0
 11
1572.944504
 21
789.066343
 31
0.0
  0
LINE
  5
4176
100
AcDbEntity
  8
0
100
AcDbLine
 10
1568.461412
 20
785.063583
 30
0.0
 11
1572.944504
 21
785.063583
 31
0.0
  0
LINE
  5
4177
100
AcDbEntity
  8
0
100
AcDbLine
 10
1565.699507
 20
784.182975
 30
0.0
 11
1565.699507
 21
789.956957
 31
0.0
  0
CIRCLE
  5
4178
100
AcDbEntity
  8
0
100
AcDbCircle
 10
1570.702958
 20
787.064963
 30
0.0
 40
3.00195
  0
CIRCLE
  5
4179
100
AcDbEntity
  8
0
100
AcDbCircle
 10
1570.702958
 20
787.064963
 30
0.0
 40
3.0021
  0
LINE
  5
417A
100
AcDbEntity
  8
0
100
AcDbLine
 10
1570.702958
 20
781.290981
 30
0.0
 11
1565.699507
 21
784.182975
 31
0.0
  0
LINE
  5
417B
100
AcDbEntity
  8
0
100
AcDbLine
 10
1583.411723
 20
772.925211
 30
0.0
 11
1583.411723
 21
768.05185
 31
0.0
  0
LINE
  5
417C
100
AcDbEntity
  8
0
100
AcDbLine
 10
1588.415173
 20
779.25958
 30
0.0
 11
1588.415173
 21
763.318586
 31
0.0
  0
ARC
  5
417D
100
AcDbEntity
  8
0
100
AcDbCircle
 10
1596.414941
 20
772.037223
 30
0.0
 40
12.991584
100
AcDbArc
 50
202.616551
 51
269.981243
  0
LINE
  5
417E
100
AcDbEntity
  8
0
100
AcDbLine
 10
1583.411723
 20
768.05185
 30
0.0
 11
1588.415173
 21
763.0484
 31
0.0
  0
LINE
  5
417F
100
AcDbEntity
  8
0
100
AcDbLine
 10
1609.189501
 20
759.135701
 30
0.0
 11
1607.708479
 21
759.045639
 31
0.0
  0
LINE
  5
4180
100
AcDbEntity
  8
0
100
AcDbLine
 10
1575.706409
 20
789.956957
 30
0.0
 11
1575.706409
 21
784.182975
 31
0.0
  0
LINE
  5
4181
100
AcDbEntity
  8
0
100
AcDbLine
 10
1659.76438
 20
627.444145
 30
0.0
 11
1659.76438
 21
629.445525
 31
0.0
  0
LINE
  5
4182
100
AcDbEntity
  8
0
100
AcDbLine
 10
1634.446919
 20
763.0484
 30
0.0
 11
1634.446919
 21
778.609131
 31
0.0
  0
LINE
  5
4183
100
AcDbEntity
  8
0
100
AcDbLine
 10
1660.76507
 20
783.172278
 30
0.0
 11
1660.76507
 21
783.172278
 31
0.0
  0
LINE
  5
4184
100
AcDbEntity
  8
0
100
AcDbLine
 10
1660.76507
 20
783.172278
 30
0.0
 11
1660.715035
 21
782.431768
 31
0.0
  0
ARC
  5
4185
100
AcDbEntity
  8
0
100
AcDbCircle
 10
1655.720605
 20
783.225608
 30
0.0
 40
5.057125
100
AcDbArc
 50
269.330909
 51
350.968662
  0
LINE
  5
4186
100
AcDbEntity
  8
0
100
AcDbLine
 10
1660.76507
 20
790.967654
 30
0.0
 11
1660.76507
 21
783.172278
 31
0.0
  0
ARC
  5
4187
100
AcDbEntity
  8
0
100
AcDbCircle
 10
1607.938567
 20
803.379445
 30
0.0
 40
11.707102
100
AcDbArc
 50
41.139768
 51
91.126147
  0
LINE
  5
4188
100
AcDbEntity
  8
0
100
AcDbLine
 10
1634.446919
 20
811.081526
 30
0.0
 11
1588.415173
 21
811.081526
 31
0.0
  0
LINE
  5
4189
100
AcDbEntity
  8
0
100
AcDbLine
 10
1588.415173
 20
794.463065
 30
0.0
 11
1655.66155
 21
795.971105
 31
0.0
  0
LINE
  5
418A
100
AcDbEntity
  8
0
100
AcDbLine
 10
1548.937948
 20
830.084632
 30
0.0
 11
1531.608479
 21
820.087737
 31
0.0
  0
ARC
  5
418B
100
AcDbEntity
  8
0
100
AcDbCircle
 10
1544.480927
 20
787.060195
 30
0.0
 40
33.027542
100
AcDbArc
 50
35.156994
 51
139.980926
  0
LINE
  5
418C
100
AcDbEntity
  8
0
100
AcDbLine
 10
1583.411723
 20
806.078075
 30
0.0
 11
1522.818169
 21
806.078075
 31
0.0
  0
LINE
  5
418D
100
AcDbEntity
  8
0
100
AcDbLine
 10
1495.551129
 20
814.583942
 30
0.0
 11
1494.757478
 21
811.081526
 31
0.0
  0
LINE
  5
418E
100
AcDbEntity
  8
0
100
AcDbLine
 10
1495.551129
 20
814.583942
 30
0.0
 11
1490.957962
 21
814.583942
 31
0.0
  0
LINE
  5
418F
100
AcDbEntity
  8
0
100
AcDbLine
 10
1494.00006
 20
821.088427
 30
0.0
 11
1495.551129
 21
814.583942
 31
0.0
  0
LINE
  5
4190
100
AcDbEntity
  8
0
100
AcDbLine
 10
1497.572523
 20
825.091188
 30
0.0
 11
1486.174663
 21
825.091188
 31
0.0
  0
LINE
  5
4191
100
AcDbEntity
  8
0
100
AcDbLine
 10
1513.903786
 20
811.081526
 30
0.0
 11
1489.446919
 21
811.081526
 31
0.0
  0
LINE
  5
4192
100
AcDbEntity
  8
0
100
AcDbLine
 10
1490.165877
 20
811.081526
 30
0.0
 11
1490.957962
 21
814.583942
 31
0.0
  0
LINE
  5
4193
100
AcDbEntity
  8
0
100
AcDbLine
 10
1487.875836
 20
814.573935
 30
0.0
 11
1488.496264
 21
808.079456
 31
0.0
  0
LINE
  5
4194
100
AcDbEntity
  8
0
100
AcDbLine
 10
1484.493503
 20
808.079456
 30
0.0
 11
1485.964518
 21
814.583942
 31
0.0
  0
LINE
  5
4195
100
AcDbEntity
  8
0
100
AcDbLine
 10
1478.289224
 20
814.573935
 30
0.0
 11
1478.909652
 21
808.079456
 31
0.0
  0
LINE
  5
4196
100
AcDbEntity
  8
0
100
AcDbLine
 10
1481.37135
 20
814.583942
 30
0.0
 11
1479.900336
 21
808.079456
 31
0.0
  0
LINE
  5
4197
100
AcDbEntity
  8
0
100
AcDbLine
 10
1492.44899
 20
811.081526
 30
0.0
 11
1492.44899
 21
811.081526
 31
0.0
  0
LINE
  5
4198
100
AcDbEntity
  8
0
100
AcDbLine
 10
1488.496264
 20
808.079456
 30
0.0
 11
1489.446919
 21
808.079456
 31
0.0
  0
LINE
  5
4199
100
AcDbEntity
  8
0
100
AcDbLine
 10
1478.909652
 20
808.079456
 30
0.0
 11
1484.493503
 21
808.079456
 31
0.0
  0
LINE
  5
419A
100
AcDbEntity
  8
0
100
AcDbLine
 10
1486.174663
 20
825.091188
 30
0.0
 11
1485.003855
 21
825.091188
 31
0.0
  0
LINE
  5
419B
100
AcDbEntity
  8
0
100
AcDbLine
 10
1489.406892
 20
821.088427
 30
0.0
 11
1488.496264
 21
821.088427
 31
0.0
  0
ARC
  5
419C
100
AcDbEntity
  8
0
100
AcDbCircle
 10
1491.945211
 20
820.373402
 30
0.0
 40
8.39285
100
AcDbArc
 50
145.797488
 51
175.112787
  0
LINE
  5
419D
100
AcDbEntity
  8
0
100
AcDbLine
 10
1489.406892
 20
821.088427
 30
0.0
 11
1494.00006
 21
821.088427
 31
0.0
  0
LINE
  5
419E
100
AcDbEntity
  8
0
100
AcDbLine
 10
1490.957962
 20
814.583942
 30
0.0
 11
1489.406892
 21
821.088427
 31
0.0
  0
LINE
  5
419F
100
AcDbEntity
  8
0
100
AcDbLine
 10
1488.496264
 20
821.088427
 30
0.0
 11
1487.875836
 21
814.573935
 31
0.0
  0
LINE
  5
41A0
100
AcDbEntity
  8
0
100
AcDbLine
 10
1484.413448
 20
821.088427
 30
0.0
 11
1485.964518
 21
814.583942
 31
0.0
  0
LINE
  5
41A1
100
AcDbEntity
  8
0
100
AcDbLine
 10
1479.82028
 20
821.088427
 30
0.0
 11
1478.909652
 21
821.088427
 31
0.0
  0
LINE
  5
41A2
100
AcDbEntity
  8
0
100
AcDbLine
 10
1478.909652
 20
821.088427
 30
0.0
 11
1478.289224
 21
814.573935
 31
0.0
  0
LINE
  5
41A3
100
AcDbEntity
  8
0
100
AcDbLine
 10
1481.37135
 20
814.583942
 30
0.0
 11
1479.82028
 21
821.088427
 31
0.0
  0
LINE
  5
41A4
100
AcDbEntity
  8
0
100
AcDbLine
 10
1479.82028
 20
821.088427
 30
0.0
 11
1484.413448
 21
821.088427
 31
0.0
  0
LINE
  5
41A5
100
AcDbEntity
  8
0
100
AcDbLine
 10
1481.37135
 20
814.583942
 30
0.0
 11
1485.964518
 21
814.583942
 31
0.0
  0
LINE
  5
41A6
100
AcDbEntity
  8
0
100
AcDbLine
 10
1517.206064
 20
817.629122
 30
0.0
 11
1517.206064
 21
809.510443
 31
0.0
  0
LINE
  5
41A7
100
AcDbEntity
  8
0
100
AcDbLine
 10
1507.402082
 20
811.081526
 30
0.0
 11
1507.36928
 21
816.215066
 31
0.0
  0
LINE
  5
41A8
100
AcDbEntity
  8
0
100
AcDbLine
 10
1506.65879
 20
811.081526
 30
0.0
 11
1506.65879
 21
814.704024
 31
0.0
  0
LINE
  5
41A9
100
AcDbEntity
  8
0
100
AcDbLine
 10
1497.572523
 20
811.081526
 30
0.0
 11
1497.572523
 21
814.704024
 31
0.0
  0
ARC
  5
41AA
100
AcDbEntity
  8
0
100
AcDbCircle
 10
1513.912172
 20
808.099839
 30
0.0
 40
2.981698
100
AcDbArc
 50
47.012916
 51
90.161145
  0
LINE
  5
41AB
100
AcDbEntity
  8
0
100
AcDbLine
 10
1522.818169
 20
806.078075
 30
0.0
 11
1515.945194
 21
810.280974
 31
0.0
  0
LINE
  5
41AC
100
AcDbEntity
  8
0
100
AcDbLine
 10
1515.404821
 20
825.091188
 30
0.0
 11
1497.572523
 21
825.091188
 31
0.0
  0
LINE
  5
41AD
100
AcDbEntity
  8
0
100
AcDbLine
 10
1506.65879
 20
814.704024
 30
0.0
 11
1506.65879
 21
814.704024
 31
0.0
  0
LINE
  5
41AE
100
AcDbEntity
  8
0
100
AcDbLine
 10
1507.389294
 20
814.704024
 30
0.0
 11
1507.389294
 21
814.704024
 31
0.0
  0
ARC
  5
41AF
100
AcDbEntity
  8
0
100
AcDbCircle
 10
1464.940656
 20
815.476803
 30
0.0
 40
41.72529
100
AcDbArc
 50
358.938786
 51
13.321862
  0
ARC
  5
41B0
100
AcDbEntity
  8
0
100
AcDbCircle
 10
1463.805668
 20
815.343519
 30
0.0
 40
43.572329
100
AcDbArc
 50
1.146125
 51
12.927173
  0
ARC
  5
41B1
100
AcDbEntity
  8
0
100
AcDbCircle
 10
1462.861414
 20
815.844811
 30
0.0
 40
34.72985
100
AcDbArc
 50
358.117642
 51
15.440478
  0
ARC
  5
41B2
100
AcDbEntity
  8
0
100
AcDbCircle
 10
1500.275273
 20
817.490688
 30
0.0
 40
16.931357
100
AcDbArc
 50
0.468467
 51
26.673184
  0
LINE
  5
41B3
100
AcDbEntity
  8
0
100
AcDbLine
 10
1531.618181
 20
820.087737
 30
0.0
 11
1516.980671
 21
820.087737
 31
0.0
  0
LINE
  5
41B4
100
AcDbEntity
  8
0
100
AcDbLine
 10
1540.962447
 20
825.483785
 30
0.0
 11
1540.962447
 21
835.098089
 31
0.0
  0
ARC
  5
41B5
100
AcDbEntity
  8
0
100
AcDbCircle
 10
1556.101818
 20
816.85258
 30
0.0
 40
15.046868
100
AcDbArc
 50
8.506645
 51
118.431241
  0
LINE
  5
41B6
100
AcDbEntity
  8
0
100
AcDbLine
 10
1570.983151
 20
835.098089
 30
0.0
 11
1570.983151
 21
819.078375
 31
0.0
  0
ARC
  5
41B7
100
AcDbEntity
  8
0
100
AcDbCircle
 10
1576.515273
 20
820.90744
 30
0.0
 40
5.82665
100
AcDbArc
 50
198.295248
 51
271.9851
  0
ARC
  5
41B8
100
AcDbEntity
  8
0
100
AcDbCircle
 10
1570.702958
 20
787.025466
 30
0.0
 40
15.048396
100
AcDbArc
 50
62.258263
 51
117.741737
  0
LINE
  5
41B9
100
AcDbEntity
  8
0
100
AcDbLine
 10
1570.692951
 20
806.078075
 30
0.0
 11
1572.704338
 21
805.978006
 31
0.0
  0
LINE
  5
41BA
100
AcDbEntity
  8
0
100
AcDbLine
 10
1563.698127
 20
804.747158
 30
0.0
 11
1563.698127
 21
800.344121
 31
0.0
  0
ARC
  5
41BB
100
AcDbEntity
  8
0
100
AcDbCircle
 10
1596.414941
 20
802.092703
 30
0.0
 40
12.991584
100
AcDbArc
 50
90.018757
 51
157.383449
  0
LINE
  5
41BC
100
AcDbEntity
  8
0
100
AcDbLine
 10
1588.415173
 20
811.081526
 30
0.0
 11
1583.411723
 21
806.078075
 31
0.0
  0
LINE
  5
41BD
100
AcDbEntity
  8
0
100
AcDbLine
 10
1583.411723
 20
806.078075
 30
0.0
 11
1583.411723
 21
801.204715
 31
0.0
  0
LINE
  5
41BE
100
AcDbEntity
  8
0
100
AcDbLine
 10
1588.415173
 20
810.81134
 30
0.0
 11
1588.415173
 21
794.880353
 31
0.0
  0
LINE
  5
41BF
100
AcDbEntity
  8
0
100
AcDbLine
 10
1577.707789
 20
800.344121
 30
0.0
 11
1577.707789
 21
804.747158
 31
0.0
  0
LINE
  5
41C0
100
AcDbEntity
  8
0
100
AcDbLine
 10
1577.969752
 20
797.244231
 30
0.0
 11
1578.17017
 21
804.550363
 31
0.0
  0
LINE
  5
41C1
100
AcDbEntity
  8
0
100
AcDbLine
 10
1607.708479
 20
815.084287
 30
0.0
 11
1576.717106
 21
815.084287
 31
0.0
  0
LINE
  5
41C2
100
AcDbEntity
  8
0
100
AcDbLine
 10
1540.962447
 20
835.098089
 30
0.0
 11
1570.983151
 21
835.098089
 31
0.0
  0
LINE
  5
41C3
100
AcDbEntity
  8
0
100
AcDbLine
 10
1634.446919
 20
795.530801
 30
0.0
 11
1634.446919
 21
811.081526
 31
0.0
  0
LINE
  5
41C4
100
AcDbEntity
  8
0
100
AcDbLine
 10
1556.192951
 20
1119.521666
 30
0.0
 11
1556.192951
 21
1123.524427
 31
0.0
  0
LINE
  5
41C5
100
AcDbEntity
  8
0
100
AcDbLine
 10
1560.195712
 20
1119.521666
 30
0.0
 11
1560.195712
 21
1121.523046
 31
0.0
  0
LINE
  5
41C6
100
AcDbEntity
  8
0
100
AcDbLine
 10
1546.18605
 20
1121.523046
 30
0.0
 11
1546.18605
 21
1119.521666
 31
0.0
  0
LINE
  5
41C7
100
AcDbEntity
  8
0
100
AcDbLine
 10
1550.18881
 20
1123.524427
 30
0.0
 11
1550.18881
 21
1119.521666
 31
0.0
  0
LINE
  5
41C8
100
AcDbEntity
  8
0
100
AcDbLine
 10
1634.446919
 20
1054.977153
 30
0.0
 11
1610.490398
 21
1054.977153
 31
0.0
  0
LINE
  5
41C9
100
AcDbEntity
  8
0
100
AcDbLine
 10
1619.853706
 20
970.811051
 30
0.0
 11
1606.654905
 21
1045.702027
 31
0.0
  0
LINE
  5
41CA
100
AcDbEntity
  8
0
100
AcDbLine
 10
1618.9852
 20
975.739016
 30
0.0
 11
1570.672937
 21
967.236642
 31
0.0
  0
LINE
  5
41CB
100
AcDbEntity
  8
0
100
AcDbLine
 10
1606.655098
 20
1045.700927
 30
0.0
 11
1616.504545
 21
1047.451963
 31
0.0
  0
LINE
  5
41CC
100
AcDbEntity
  8
0
100
AcDbLine
 10
1608.958601
 20
1103.010279
 30
0.0
 11
1634.446919
 21
1103.010279
 31
0.0
  0
ARC
  5
41CD
100
AcDbEntity
  8
0
100
AcDbCircle
 10
1603.531867
 20
1034.568333
 30
0.0
 40
8.003736
100
AcDbArc
 50
109.169071
 51
257.388901
  0
ARC
  5
41CE
100
AcDbEntity
  8
0
100
AcDbCircle
 10
1579.440765
 20
1033.676765
 30
0.0
 40
18.544725
100
AcDbArc
 50
43.114027
 51
179.765963
  0
LINE
  5
41CF
100
AcDbEntity
  8
0
100
AcDbLine
 10
1506.228231
 20
999.264431
 30
0.0
 11
1503.214405
 21
1054.977153
 31
0.0
  0
LINE
  5
41D0
100
AcDbEntity
  8
0
100
AcDbLine
 10
1540.782323
 20
1055.767698
 30
0.0
 11
1552.310273
 21
1002.96128
 31
0.0
  0
LINE
  5
41D1
100
AcDbEntity
  8
0
100
AcDbLine
 10
1549.558376
 20
974.841887
 30
0.0
 11
1534.558031
 21
972.520286
 31
0.0
  0
LINE
  5
41D2
100
AcDbEntity
  8
0
100
AcDbLine
 10
1532.096333
 20
973.380879
 30
0.0
 11
1506.228231
 21
999.264431
 31
0.0
  0
LINE
  5
41D3
100
AcDbEntity
  8
0
100
AcDbLine
 10
1513.584424
 20
967.175742
 30
0.0
 11
1501.557572
 21
979.202594
 31
0.0
  0
LINE
  5
41D4
100
AcDbEntity
  8
0
100
AcDbLine
 10
1529.064242
 20
976.422977
 30
0.0
 11
1524.631184
 21
971.69972
 31
0.0
  0
LINE
  5
41D5
100
AcDbEntity
  8
0
100
AcDbLine
 10
1524.631184
 20
971.69972
 30
0.0
 11
1505.588051
 21
990.742853
 31
0.0
  0
LINE
  5
41D6
100
AcDbEntity
  8
0
100
AcDbLine
 10
1521.123044
 20
975.207861
 30
0.0
 11
1513.584424
 21
967.175742
 31
0.0
  0
ARC
  5
41D7
100
AcDbEntity
  8
0
100
AcDbCircle
 10
1533.96262
 20
974.768231
 30
0.0
 40
2.325462
100
AcDbArc
 50
216.626209
 51
284.835202
  0
LINE
  5
41D8
100
AcDbEntity
  8
0
100
AcDbLine
 10
1509.096192
 20
987.234712
 30
0.0
 11
1501.557572
 21
979.202594
 31
0.0
  0
LINE
  5
41D9
100
AcDbEntity
  8
0
100
AcDbLine
 10
1505.588051
 20
990.742853
 30
0.0
 11
1510.311309
 21
995.17591
 31
0.0
  0
ARC
  5
41DA
100
AcDbEntity
  8
0
100
AcDbCircle
 10
1572.39849
 20
1000.958548
 30
0.0
 40
14.963232
100
AcDbArc
 50
323.859926
 51
189.580459
  0
CIRCLE
  5
41DB
100
AcDbEntity
  8
0
100
AcDbCircle
 10
1567.92104
 20
981.996821
 30
0.0
 40
15.010352
  0
ARC
  5
41DC
100
AcDbEntity
  8
0
100
AcDbCircle
 10
1549.556525
 20
964.829756
 30
0.0
 40
10.012131
100
AcDbArc
 50
46.066556
 51
89.98941
  0
LINE
  5
41DD
100
AcDbEntity
  8
0
100
AcDbLine
 10
1558.234359
 20
970.530397
 30
0.0
 11
1556.503165
 21
972.039955
 31
0.0
  0
LINE
  5
41DE
100
AcDbEntity
  8
0
100
AcDbLine
 10
1560.896195
 20
1033.752515
 30
0.0
 11
1560.896195
 21
1015.049616
 31
0.0
  0
ARC
  5
41DF
100
AcDbEntity
  8
0
100
AcDbCircle
 10
1600.691562
 20
1021.877228
 30
0.0
 40
5.001319
100
AcDbArc
 50
9.990987
 51
77.378546
  0
ARC
  5
41E0
100
AcDbEntity
  8
0
100
AcDbCircle
 10
1527.356044
 20
1089.884207
 30
0.0
 40
13.126594
100
AcDbArc
 50
0.511133
 51
89.488867
  0
LINE
  5
41E1
100
AcDbEntity
  8
0
100
AcDbLine
 10
1534.177768
 20
1112.516835
 30
0.0
 11
1572.203993
 21
1112.516835
 31
0.0
  0
LINE
  5
41E2
100
AcDbEntity
  8
0
100
AcDbLine
 10
1489.446919
 20
1054.977153
 30
0.0
 11
1489.446919
 21
1078.993716
 31
0.0
  0
LINE
  5
41E3
100
AcDbEntity
  8
0
100
AcDbLine
 10
1503.214405
 20
1054.977153
 30
0.0
 11
1489.446919
 21
1054.977153
 31
0.0
  0
LINE
  5
41E4
100
AcDbEntity
  8
0
100
AcDbLine
 10
1504.087016
 20
1056.448167
 30
0.0
 11
1515.234704
 21
1067.986124
 31
0.0
  0
LINE
  5
41E5
100
AcDbEntity
  8
0
100
AcDbLine
 10
1489.446919
 20
1103.010279
 30
0.0
 11
1532.176388
 21
1103.010279
 31
0.0
  0
LINE
  5
41E6
100
AcDbEntity
  8
0
100
AcDbLine
 10
1489.446919
 20
1078.993716
 30
0.0
 11
1489.446919
 21
1103.010279
 31
0.0
  0
ARC
  5
41E7
100
AcDbEntity
  8
0
100
AcDbCircle
 10
1532.195925
 20
1104.992122
 30
0.0
 40
1.981939
100
AcDbArc
 50
269.435189
 51
0.564811
  0
LINE
  5
41E8
100
AcDbEntity
  8
0
100
AcDbLine
 10
1534.177768
 20
1105.011659
 30
0.0
 11
1534.177768
 21
1112.516835
 31
0.0
  0
LINE
  5
41E9
100
AcDbEntity
  8
0
100
AcDbLine
 10
1603.425525
 20
1094.024082
 30
0.0
 11
1603.425525
 21
1073.78012
 31
0.0
  0
LINE
  5
41EA
100
AcDbEntity
  8
0
100
AcDbLine
 10
1608.809238
 20
1100.48854
 30
0.0
 11
1608.809238
 21
1056.388126
 31
0.0
  0
LINE
  5
41EB
100
AcDbEntity
  8
0
100
AcDbLine
 10
1540.482116
 20
1090.001307
 30
0.0
 11
1540.482116
 21
1058.189368
 31
0.0
  0
ARC
  5
41EC
100
AcDbEntity
  8
0
100
AcDbCircle
 10
1551.001763
 20
1058.264013
 30
0.0
 40
10.519912
100
AcDbArc
 50
180.406554
 51
193.726906
  0
ARC
  5
41ED
100
AcDbEntity
  8
0
100
AcDbCircle
 10
1599.302206
 20
1046.338099
 30
0.0
 40
4.50417
100
AcDbArc
 50
290.828833
 51
7.700192
  0
ARC
  5
41EE
100
AcDbEntity
  8
0
100
AcDbCircle
 10
1610.490439
 20
1051.973011
 30
0.0
 40
3.004142
100
AcDbArc
 50
90.000782
 51
210.373037
  0
ARC
  5
41EF
100
AcDbEntity
  8
0
100
AcDbCircle
 10
1611.750815
 20
1050.508767
 30
0.0
 40
3.852593
100
AcDbArc
 50
180.81403
 51
275.671246
  0
ARC
  5
41F0
100
AcDbEntity
  8
0
100
AcDbCircle
 10
1575.193535
 20
1098.99499
 30
0.0
 40
2.989568
100
AcDbArc
 50
179.759885
 51
270.240115
  0
LINE
  5
41F1
100
AcDbEntity
  8
0
100
AcDbLine
 10
1572.203993
 20
1112.516835
 30
0.0
 11
1572.203993
 21
1099.007518
 31
0.0
  0
LINE
  5
41F2
100
AcDbEntity
  8
0
100
AcDbLine
 10
1572.203993
 20
1096.005448
 30
0.0
 11
1561.986947
 21
1086.85914
 31
0.0
  0
LINE
  5
41F3
100
AcDbEntity
  8
0
100
AcDbLine
 10
1561.696747
 20
1113.517525
 30
0.0
 11
1544.685015
 21
1113.517525
 31
0.0
  0
LINE
  5
41F4
100
AcDbEntity
  8
0
100
AcDbLine
 10
1544.685015
 20
1119.521666
 30
0.0
 11
1561.696747
 21
1119.521666
 31
0.0
  0
LINE
  5
41F5
100
AcDbEntity
  8
0
100
AcDbLine
 10
1544.685015
 20
1119.521666
 30
0.0
 11
1544.685015
 21
1113.517525
 31
0.0
  0
LINE
  5
41F6
100
AcDbEntity
  8
0
100
AcDbLine
 10
1545.18536
 20
1113.517525
 30
0.0
 11
1545.18536
 21
1112.516835
 31
0.0
  0
LINE
  5
41F7
100
AcDbEntity
  8
0
100
AcDbLine
 10
1550.178804
 20
1119.521666
 30
0.0
 11
1550.18881
 21
1119.521666
 31
0.0
  0
LINE
  5
41F8
100
AcDbEntity
  8
0
100
AcDbLine
 10
1561.696747
 20
1119.521666
 30
0.0
 11
1561.696747
 21
1113.517525
 31
0.0
  0
LINE
  5
41F9
100
AcDbEntity
  8
0
100
AcDbLine
 10
1561.196402
 20
1113.517525
 30
0.0
 11
1561.196402
 21
1112.516835
 31
0.0
  0
LINE
  5
41FA
100
AcDbEntity
  8
0
100
AcDbLine
 10
1556.182944
 20
1119.521666
 30
0.0
 11
1556.192951
 21
1119.521666
 31
0.0
  0
LINE
  5
41FB
100
AcDbEntity
  8
0
100
AcDbLine
 10
1601.434893
 20
1096.005448
 30
0.0
 11
1608.958601
 21
1103.010279
 31
0.0
  0
LINE
  5
41FC
100
AcDbEntity
  8
0
100
AcDbLine
 10
1575.206064
 20
1096.005448
 30
0.0
 11
1601.434893
 21
1096.005448
 31
0.0
  0
ARC
  5
41FD
100
AcDbEntity
  8
0
100
AcDbCircle
 10
1622.747426
 20
1037.959014
 30
0.0
 40
13.352467
100
AcDbArc
 50
353.680297
 51
26.319703
  0
LINE
  5
41FE
100
AcDbEntity
  8
0
100
AcDbLine
 10
1634.95218
 20
1046.517368
 30
0.0
 11
1637.143273
 21
1034.091063
 31
0.0
  0
LINE
  5
41FF
100
AcDbEntity
  8
0
100
AcDbLine
 10
1616.499867
 20
1047.451132
 30
0.0
 11
1629.712756
 21
972.550148
 31
0.0
  0
LINE
  5
4200
100
AcDbEntity
  8
0
100
AcDbLine
 10
1617.985567
 20
1047.712142
 30
0.0
 11
1631.18467
 21
972.810486
 31
0.0
  0
LINE
  5
4201
100
AcDbEntity
  8
0
100
AcDbLine
 10
1627.833707
 20
1049.449314
 30
0.0
 11
1641.049269
 21
974.550561
 31
0.0
  0
LINE
  5
4202
100
AcDbEntity
  8
0
100
AcDbLine
 10
1631.18467
 20
972.810486
 30
0.0
 11
1641.049286
 21
974.550467
 31
0.0
  0
LINE
  5
4203
100
AcDbEntity
  8
0
100
AcDbLine
 10
1629.713655
 20
972.550307
 30
0.0
 11
1619.853706
 21
970.811051
 31
0.0
  0
LINE
  5
4204
100
AcDbEntity
  8
0
100
AcDbLine
 10
1628.913103
 20
977.083433
 30
0.0
 11
1630.394124
 21
977.343612
 31
0.0
  0
ARC
  5
4205
100
AcDbEntity
  8
0
100
AcDbCircle
 10
1632.337729
 20
983.606296
 30
0.0
 40
13.352467
100
AcDbArc
 50
353.69349
 51
26.332897
  0
LINE
  5
4206
100
AcDbEntity
  8
0
100
AcDbLine
 10
1643.652084
 20
993.225094
 30
0.0
 11
1637.931568
 21
992.215055
 31
0.0
  0
LINE
  5
4207
100
AcDbEntity
  8
0
100
AcDbLine
 10
1644.304636
 20
989.529261
 30
0.0
 11
1638.584121
 21
988.519221
 31
0.0
  0
ARC
  5
4208
100
AcDbEntity
  8
0
100
AcDbCircle
 10
1641.021143
 20
990.855038
 30
0.0
 40
3.541047
100
AcDbArc
 50
338.012599
 51
42.013788
  0
LINE
  5
4209
100
AcDbEntity
  8
0
100
AcDbLine
 10
1644.540513
 20
992.16746
 30
0.0
 11
1643.652084
 21
993.225094
 31
0.0
  0
LINE
  5
420A
100
AcDbEntity
  8
0
100
AcDbLine
 10
1640.541605
 20
977.432706
 30
0.0
 11
1646.262121
 21
978.442746
 31
0.0
  0
LINE
  5
420B
100
AcDbEntity
  8
0
100
AcDbLine
 10
1646.262121
 20
978.442746
 30
0.0
 11
1646.734467
 21
979.74166
 31
0.0
  0
LINE
  5
420C
100
AcDbEntity
  8
0
100
AcDbLine
 10
1646.734467
 20
979.74166
 30
0.0
 11
1644.540513
 21
992.16746
 31
0.0
  0
LINE
  5
420D
100
AcDbEntity
  8
0
100
AcDbLine
 10
1645.609394
 20
982.139564
 30
0.0
 11
1639.888878
 21
981.129524
 31
0.0
  0
ARC
  5
420E
100
AcDbEntity
  8
0
100
AcDbCircle
 10
1642.978454
 20
979.769508
 30
0.0
 40
3.541047
100
AcDbArc
 50
338.012599
 51
42.013788
  0
LINE
  5
420F
100
AcDbEntity
  8
0
100
AcDbLine
 10
1636.018753
 20
1036.489226
 30
0.0
 11
1630.298004
 21
1035.480504
 31
0.0
  0
LINE
  5
4210
100
AcDbEntity
  8
0
100
AcDbLine
 10
1636.670454
 20
1032.793243
 30
0.0
 11
1630.949706
 21
1031.78452
 31
0.0
  0
ARC
  5
4211
100
AcDbEntity
  8
0
100
AcDbCircle
 10
1633.387267
 20
1034.119776
 30
0.0
 40
3.541047
100
AcDbArc
 50
337.999406
 51
42.000594
  0
LINE
  5
4212
100
AcDbEntity
  8
0
100
AcDbLine
 10
1637.143273
 20
1034.091063
 30
0.0
 11
1636.670454
 21
1032.793243
 31
0.0
  0
LINE
  5
4213
100
AcDbEntity
  8
0
100
AcDbLine
 10
1634.446919
 20
1054.977153
 30
0.0
 11
1634.446919
 21
1078.993716
 31
0.0
  0
LINE
  5
4214
100
AcDbEntity
  8
0
100
AcDbLine
 10
1634.715697
 20
1043.879223
 30
0.0
 11
1628.994948
 21
1042.870501
 31
0.0
  0
LINE
  5
4215
100
AcDbEntity
  8
0
100
AcDbLine
 10
1628.343073
 20
1046.567469
 30
0.0
 11
1634.063821
 21
1047.576192
 31
0.0
  0
LINE
  5
4216
100
AcDbEntity
  8
0
100
AcDbLine
 10
1618.786119
 20
1043.179016
 30
0.0
 11
1617.305098
 21
1042.918837
 31
0.0
  0
LINE
  5
4217
100
AcDbEntity
  8
0
100
AcDbLine
 10
1627.833723
 20
1049.449219
 30
0.0
 11
1617.985567
 21
1047.712142
 31
0.0
  0
ARC
  5
4218
100
AcDbEntity
  8
0
100
AcDbCircle
 10
1631.432509
 20
1045.205757
 30
0.0
 40
3.541047
100
AcDbArc
 50
337.999406
 51
42.000594
  0
LINE
  5
4219
100
AcDbEntity
  8
0
100
AcDbLine
 10
1634.063821
 20
1047.576192
 30
0.0
 11
1634.95218
 21
1046.517368
 31
0.0
  0
LINE
  5
421A
100
AcDbEntity
  8
0
100
AcDbLine
 10
1634.446919
 20
1078.993716
 30
0.0
 11
1634.446919
 21
1103.010279
 31
0.0
  0
LINE
  5
421B
100
AcDbEntity
  8
0
100
AcDbLine
 10
1550.18881
 20
1121.523046
 30
0.0
 11
1533.023283
 21
1121.523046
 31
0.0
  0
LINE
  5
421C
100
AcDbEntity
  8
0
100
AcDbLine
 10
1534.174966
 20
1123.524427
 30
0.0
 11
1570.202613
 21
1123.524427
 31
0.0
  0
LINE
  5
421D
100
AcDbEntity
  8
0
100
AcDbLine
 10
1516.823762
 20
1149.54237
 30
0.0
 11
1464.129459
 21
1149.54237
 31
0.0
  0
LINE
  5
421E
100
AcDbEntity
  8
0
100
AcDbLine
 10
1464.129459
 20
1151.54375
 30
0.0
 11
1518.002213
 21
1151.54375
 31
0.0
  0
LINE
  5
421F
100
AcDbEntity
  8
0
100
AcDbLine
 10
1518.584794
 20
1152.54444
 30
0.0
 11
1463.128769
 21
1152.54444
 31
0.0
  0
LINE
  5
4220
100
AcDbEntity
  8
0
100
AcDbLine
 10
1463.128769
 20
1148.54168
 30
0.0
 11
1516.266517
 21
1148.54168
 31
0.0
  0
LINE
  5
4221
100
AcDbEntity
  8
0
100
AcDbLine
 10
1464.129459
 20
1149.54237
 30
0.0
 11
1464.129459
 21
1151.54375
 31
0.0
  0
LINE
  5
4222
100
AcDbEntity
  8
0
100
AcDbLine
 10
1463.128769
 20
1152.54444
 30
0.0
 11
1463.128769
 21
1148.54168
 31
0.0
  0
LINE
  5
4223
100
AcDbEntity
  8
0
100
AcDbLine
 10
1526.372385
 20
1139.045131
 30
0.0
 11
1518.584794
 21
1152.54444
 31
0.0
  0
LINE
  5
4224
100
AcDbEntity
  8
0
100
AcDbLine
 10
1533.023283
 20
1121.523046
 30
0.0
 11
1516.823762
 21
1149.54237
 31
0.0
  0
LINE
  5
4225
100
AcDbEntity
  8
0
100
AcDbLine
 10
1518.002213
 20
1151.54375
 30
0.0
 11
1534.174966
 21
1123.524427
 31
0.0
  0
LINE
  5
4226
100
AcDbEntity
  8
0
100
AcDbLine
 10
1516.266517
 20
1148.54168
 30
0.0
 11
1522.909997
 21
1137.04375
 31
0.0
  0
LINE
  5
4227
100
AcDbEntity
  8
0
100
AcDbLine
 10
1522.909997
 20
1137.04375
 30
0.0
 11
1523.770591
 21
1137.544095
 31
0.0
  0
LINE
  5
4228
100
AcDbEntity
  8
0
100
AcDbLine
 10
1525.511792
 20
1138.544785
 30
0.0
 11
1526.372385
 21
1139.045131
 31
0.0
  0
LINE
  5
4229
100
AcDbEntity
  8
0
100
AcDbLine
 10
1557.543883
 20
1128.627946
 30
0.0
 11
1548.837879
 21
1128.627946
 31
0.0
  0
LINE
  5
422A
100
AcDbEntity
  8
0
100
AcDbLine
 10
1555.432427
 20
1120.022011
 30
0.0
 11
1550.959342
 21
1120.022011
 31
0.0
  0
LINE
  5
422B
100
AcDbEntity
  8
0
100
AcDbLine
 10
1555.652579
 20
1130.028912
 30
0.0
 11
1550.729183
 21
1130.028912
 31
0.0
  0
ARC
  5
422C
100
AcDbEntity
  8
0
100
AcDbCircle
 10
1553.195884
 20
1118.623647
 30
0.0
 40
9.036864
100
AcDbArc
 50
71.369231
 51
108.630769
  0
ARC
  5
422D
100
AcDbEntity
  8
0
100
AcDbCircle
 10
1548.862896
 20
1124.921201
 30
0.0
 40
2.68785
100
AcDbArc
 50
57.454081
 51
122.545919
  0
LINE
  5
422E
100
AcDbEntity
  8
0
100
AcDbLine
 10
1547.416899
 20
1127.186952
 30
0.0
 11
1547.416899
 21
1123.524427
 31
0.0
  0
LINE
  5
422F
100
AcDbEntity
  8
0
100
AcDbLine
 10
1547.416899
 20
1124.525117
 30
0.0
 11
1546.18605
 21
1124.525117
 31
0.0
  0
LINE
  5
4230
100
AcDbEntity
  8
0
100
AcDbLine
 10
1546.18605
 20
1121.022701
 30
0.0
 11
1546.18605
 21
1121.523046
 31
0.0
  0
LINE
  5
4231
100
AcDbEntity
  8
0
100
AcDbLine
 10
1546.18605
 20
1124.525117
 30
0.0
 11
1546.18605
 21
1123.524427
 31
0.0
  0
ARC
  5
4232
100
AcDbEntity
  8
0
100
AcDbCircle
 10
1548.85229
 20
1128.105142
 30
0.0
 40
0.523003
100
AcDbArc
 50
91.578974
 51
169.812088
  0
LINE
  5
4233
100
AcDbEntity
  8
0
100
AcDbLine
 10
1548.337534
 20
1128.19765
 30
0.0
 11
1548.337534
 21
1127.557208
 31
0.0
  0
LINE
  5
4234
100
AcDbEntity
  8
0
100
AcDbLine
 10
1550.308893
 20
1127.186952
 30
0.0
 11
1550.308893
 21
1124.405034
 31
0.0
  0
LINE
  5
4235
100
AcDbEntity
  8
0
100
AcDbLine
 10
1550.308893
 20
1124.405034
 30
0.0
 11
1550.308893
 21
1127.186952
 31
0.0
  0
LINE
  5
4236
100
AcDbEntity
  8
0
100
AcDbLine
 10
1550.308893
 20
1127.186952
 30
0.0
 11
1550.308893
 21
1123.524427
 31
0.0
  0
LINE
  5
4237
100
AcDbEntity
  8
0
100
AcDbLine
 10
1550.959342
 20
1129.708692
 30
0.0
 11
1551.759894
 21
1130.028912
 31
0.0
  0
LINE
  5
4238
100
AcDbEntity
  8
0
100
AcDbLine
 10
1550.959342
 20
1129.708692
 30
0.0
 11
1550.18881
 21
1129.708692
 31
0.0
  0
LINE
  5
4239
100
AcDbEntity
  8
0
100
AcDbLine
 10
1550.959342
 20
1128.627946
 30
0.0
 11
1550.959342
 21
1129.708692
 31
0.0
  0
LINE
  5
423A
100
AcDbEntity
  8
0
100
AcDbLine
 10
1550.729183
 20
1130.028912
 30
0.0
 11
1550.18881
 21
1129.708692
 31
0.0
  0
LINE
  5
423B
100
AcDbEntity
  8
0
100
AcDbLine
 10
1550.18881
 20
1129.708692
 30
0.0
 11
1550.18881
 21
1128.627946
 31
0.0
  0
LINE
  5
423C
100
AcDbEntity
  8
0
100
AcDbLine
 10
1550.959342
 20
1120.022011
 30
0.0
 11
1550.959342
 21
1123.524427
 31
0.0
  0
LINE
  5
423D
100
AcDbEntity
  8
0
100
AcDbLine
 10
1570.202613
 20
1123.524427
 30
0.0
 11
1570.202613
 21
1121.523046
 31
0.0
  0
ARC
  5
423E
100
AcDbEntity
  8
0
100
AcDbCircle
 10
1557.523869
 20
1124.933642
 30
0.0
 40
2.674672
100
AcDbArc
 50
57.401057
 51
122.598943
  0
LINE
  5
423F
100
AcDbEntity
  8
0
100
AcDbLine
 10
1556.082875
 20
1127.186952
 30
0.0
 11
1556.082875
 21
1124.405034
 31
0.0
  0
LINE
  5
4240
100
AcDbEntity
  8
0
100
AcDbLine
 10
1556.082875
 20
1127.186952
 30
0.0
 11
1556.082875
 21
1123.524427
 31
0.0
  0
LINE
  5
4241
100
AcDbEntity
  8
0
100
AcDbLine
 10
1554.621868
 20
1130.028912
 30
0.0
 11
1555.432427
 21
1129.708692
 31
0.0
  0
LINE
  5
4242
100
AcDbEntity
  8
0
100
AcDbLine
 10
1556.192951
 20
1128.627946
 30
0.0
 11
1556.192951
 21
1129.708692
 31
0.0
  0
LINE
  5
4243
100
AcDbEntity
  8
0
100
AcDbLine
 10
1556.192951
 20
1129.708692
 30
0.0
 11
1555.652579
 21
1130.028912
 31
0.0
  0
LINE
  5
4244
100
AcDbEntity
  8
0
100
AcDbLine
 10
1555.432427
 20
1129.708692
 30
0.0
 11
1555.432427
 21
1128.627946
 31
0.0
  0
LINE
  5
4245
100
AcDbEntity
  8
0
100
AcDbLine
 10
1556.192951
 20
1129.708692
 30
0.0
 11
1555.432427
 21
1129.708692
 31
0.0
  0
LINE
  5
4246
100
AcDbEntity
  8
0
100
AcDbLine
 10
1558.964863
 20
1127.186952
 30
0.0
 11
1558.964863
 21
1123.524427
 31
0.0
  0
LINE
  5
4247
100
AcDbEntity
  8
0
100
AcDbLine
 10
1560.195712
 20
1124.525117
 30
0.0
 11
1558.964863
 21
1124.525117
 31
0.0
  0
LINE
  5
4248
100
AcDbEntity
  8
0
100
AcDbLine
 10
1560.195712
 20
1123.524427
 30
0.0
 11
1560.195712
 21
1124.525117
 31
0.0
  0
ARC
  5
4249
100
AcDbEntity
  8
0
100
AcDbCircle
 10
1557.529472
 20
1128.105142
 30
0.0
 40
0.523003
100
AcDbArc
 50
10.187912
 51
88.421026
  0
LINE
  5
424A
100
AcDbEntity
  8
0
100
AcDbLine
 10
1558.044228
 20
1127.557208
 30
0.0
 11
1558.044228
 21
1128.19765
 31
0.0
  0
LINE
  5
424B
100
AcDbEntity
  8
0
100
AcDbLine
 10
1570.202613
 20
1121.523046
 30
0.0
 11
1556.192951
 21
1121.523046
 31
0.0
  0
LINE
  5
424C
100
AcDbEntity
  8
0
100
AcDbLine
 10
1555.432427
 20
1123.524427
 30
0.0
 11
1555.432427
 21
1120.022011
 31
0.0
  0
LINE
  5
424D
100
AcDbEntity
  8
0
100
AcDbLine
 10
1795.394137
 20
630.446215
 30
0.0
 11
1813.394137
 21
630.446215
 31
0.0
  0
VIEWPORT
  5
41
100
AcDbEntity
 67
     1
  8
0
100
AcDbViewport
 10
117.358407
 20
73.5
 30
0.0
 40
234.716814
 41
147.0
 68
    -1
 69
     1
1001
ACAD
1000
MVIEW
1002
{
1070
    16
1010
0.0
1020
0.0
1030
0.0
1010
0.0
1020
0.0
1030
1.0
1040
0.0
1040
147.0
1040
117.358407
1040
73.5
1040
50.0
1040
0.0
1040
0.0
1070
     0
1070
   100
1070
     1
1070
     1
1070
     0
1070
     0
1070
     0
1070
     0
1040
0.0
1040
0.0
1040
0.0
1040
1.0
1040
1.0
1040
0.0
1040
0.0
1070
     0
1002
{
1002
}
1002
}
  0
ENDSEC
  0
SECTION
  2
OBJECTS
  0
DICTIONARY
  5
C
100
AcDbDictionary
  3
ACAD_GROUP
350
D
  3
ACAD_MLINESTYLE
350
E
  0
DICTIONARY
  5
D
102
{ACAD_REACTORS
330
C
102
}
100
AcDbDictionary
  0
DICTIONARY
  5
E
102
{ACAD_REACTORS
330
C
102
}
100
AcDbDictionary
  3
STANDARD
350
1B
  0
MLINESTYLE
  5
1B
102
{ACAD_REACTORS
330
E
102
}
100
AcDbMlineStyle
  2
STANDARD
 70
     0
  3

 62
     0
 51
90.0
 52
90.0
 71
     2
 49
0.5
 62
   256
  6
BYLAYER
 49
-0.5
 62
   256
  6
BYLAYER
  0
ENDSEC
  0
EOF
