  0
SECTION
  2
HEADER
  9
$ACADVER
  1
AC1012
  9
$DWGCODEPAGE
  3
dos932
  9
$INSBASE
 10
0.0
 20
0.0
 30
0.0
  9
$EXTMIN
 10
89.97803233794185
 20
34.96330611054236
 30
-0.0000000349181948
  9
$EXTMAX
 10
2045.109562931011
 20
1410.043033155429
 30
0.0000000814935746
  9
$LIMMIN
 10
0.0
 20
0.0
  9
$LIMMAX
 10
2100.0
 20
1485.0
  9
$ORTHOMODE
 70
     1
  9
$REGENMODE
 70
     1
  9
$FILLMODE
 70
     1
  9
$QTEXTMODE
 70
     0
  9
$MIRRTEXT
 70
     1
  9
$DRAGMODE
 70
     2
  9
$LTSCALE
 40
20.0
  9
$OSMODE
 70
   163
  9
$ATTMODE
 70
     1
  9
$TEXTSIZE
 40
20.0
  9
$TRACEWID
 40
0.05
  9
$TEXTSTYLE
  7
STANDARD
  9
$CLAYER
  8
0
  9
$CELTYPE
  6
BYLAYER
  9
$CECOLOR
 62
   256
  9
$CELTSCALE
 40
1.0
  9
$DELOBJ
 70
     1
  9
$DISPSILH
 70
     0
  9
$DIMSCALE
 40
5.0
  9
$DIMASZ
 40
2.799999999999999
  9
$DIMEXO
 40
1.0
  9
$DIMDLI
 40
5.0
  9
$DIMRND
 40
0.1
  9
$DIMDLE
 40
0.0
  9
$DIMEXE
 40
1.0
  9
$DIMTP
 40
0.0
  9
$DIMTM
 40
0.0
  9
$DIMTXT
 40
2.5
  9
$DIMCEN
 40
0.0
  9
$DIMTSZ
 40
0.0
  9
$DIMTOL
 70
     0
  9
$DIMLIM
 70
     0
  9
$DIMTIH
 70
     0
  9
$DIMTOH
 70
     0
  9
$DIMSE1
 70
     0
  9
$DIMSE2
 70
     0
  9
$DIMTAD
 70
     3
  9
$DIMZIN
 70
     8
  9
$DIMBLK
  1

  9
$DIMASO
 70
     1
  9
$DIMSHO
 70
     1
  9
$DIMPOST
  1

  9
$DIMAPOST
  1

  9
$DIMALT
 70
     0
  9
$DIMALTD
 70
     2
  9
$DIMALTF
 40
1.0
  9
$DIMLFAC
 40
1.0
  9
$DIMTOFL
 70
     1
  9
$DIMTVP
 40
0.0
  9
$DIMTIX
 70
     0
  9
$DIMSOXD
 70
     0
  9
$DIMSAH
 70
     1
  9
$DIMBLK1
  1
OPEN
  9
$DIMBLK2
  1
OPEN
  9
$DIMSTYLE
  2
DIM1
  9
$DIMCLRD
 70
     2
  9
$DIMCLRE
 70
     2
  9
$DIMCLRT
 70
     2
  9
$DIMTFAC
 40
0.7
  9
$DIMGAP
 40
0.85
  9
$DIMJUST
 70
     0
  9
$DIMSD1
 70
     0
  9
$DIMSD2
 70
     0
  9
$DIMTOLJ
 70
     1
  9
$DIMTZIN
 70
     8
  9
$DIMALTZ
 70
     8
  9
$DIMALTTZ
 70
     8
  9
$DIMFIT
 70
     3
  9
$DIMUPT
 70
     0
  9
$DIMUNIT
 70
     2
  9
$DIMDEC
 70
     2
  9
$DIMTDEC
 70
     3
  9
$DIMALTU
 70
     2
  9
$DIMALTTD
 70
     3
  9
$DIMTXSTY
  7
DIM
  9
$DIMAUNIT
 70
     0
  9
$LUNITS
 70
     2
  9
$LUPREC
 70
     4
  9
$SKETCHINC
 40
0.1
  9
$FILLETRAD
 40
2.0
  9
$AUNITS
 70
     0
  9
$AUPREC
 70
     0
  9
$MENU
  1
C:\ACADR13\WIN\SUPPORT\ACAD.mnc
  9
$ELEVATION
 40
0.0
  9
$PELEVATION
 40
0.0
  9
$THICKNESS
 40
0.0
  9
$LIMCHECK
 70
     0
  9
$BLIPMODE
 70
     0
  9
$CHAMFERA
 40
2.0
  9
$CHAMFERB
 40
2.0
  9
$CHAMFERC
 40
0.0
  9
$CHAMFERD
 40
0.0
  9
$SKPOLY
 70
     0
  9
$TDCREATE
 40
2452598.380379583
  9
$TDUPDATE
 40
2452598.673986724
  9
$TDINDWG
 40
0.2936219676
  9
$TDUSRTIMER
 40
0.2936219676
  9
$USRTIMER
 70
     1
  9
$ANGBASE
 50
0.0
  9
$ANGDIR
 70
     0
  9
$PDMODE
 70
     0
  9
$PDSIZE
 40
0.0
  9
$PLINEWID
 40
0.0
  9
$COORDS
 70
     2
  9
$SPLFRAME
 70
     0
  9
$SPLINETYPE
 70
     6
  9
$SPLINESEGS
 70
     8
  9
$ATTDIA
 70
     0
  9
$ATTREQ
 70
     1
  9
$HANDLING
 70
 22529
  9
$HANDSEED
  5
3E85
  9
$SURFTAB1
 70
     6
  9
$SURFTAB2
 70
     6
  9
$SURFTYPE
 70
     6
  9
$SURFU
 70
     6
  9
$SURFV
 70
     6
  9
$UCSNAME
  2

  9
$UCSORG
 10
0.0
 20
0.0
 30
0.0
  9
$UCSXDIR
 10
1.0
 20
0.0
 30
0.0
  9
$UCSYDIR
 10
0.0
 20
1.0
 30
0.0
  9
$PUCSNAME
  2

  9
$PUCSORG
 10
0.0
 20
0.0
 30
0.0
  9
$PUCSXDIR
 10
1.0
 20
0.0
 30
0.0
  9
$PUCSYDIR
 10
0.0
 20
1.0
 30
0.0
  9
$USERI1
 70
     0
  9
$USERI2
 70
     0
  9
$USERI3
 70
     0
  9
$USERI4
 70
     0
  9
$USERI5
 70
     0
  9
$USERR1
 40
0.0
  9
$USERR2
 40
0.0
  9
$USERR3
 40
0.0
  9
$USERR4
 40
0.0
  9
$USERR5
 40
0.0
  9
$WORLDVIEW
 70
     1
  9
$SHADEDGE
 70
     3
  9
$SHADEDIF
 70
    70
  9
$TILEMODE
 70
     1
  9
$MAXACTVP
 70
    16
  9
$PINSBASE
 10
0.0
 20
0.0
 30
0.0
  9
$PLIMCHECK
 70
     0
  9
$PEXTMIN
 10
1.000000000000000E+20
 20
1.000000000000000E+20
 30
1.000000000000000E+20
  9
$PEXTMAX
 10
-1.000000000000000E+20
 20
-1.000000000000000E+20
 30
-1.000000000000000E+20
  9
$PLIMMIN
 10
0.0
 20
0.0
  9
$PLIMMAX
 10
20.0
 20
147.0
  9
$UNITMODE
 70
     0
  9
$VISRETAIN
 70
     0
  9
$PLINEGEN
 70
     0
  9
$PSLTSCALE
 70
     1
  9
$TREEDEPTH
 70
  3020
  9
$PICKSTYLE
 70
     0
  9
$CMLSTYLE
  2
STANDARD
  9
$CMLJUST
 70
     0
  9
$CMLSCALE
 40
1.0
  9
$SAVEIMAGES
 70
     1
  0
ENDSEC
  0
SECTION
  2
CLASSES
  0
CLASS
  1
LWPOLYLINE
  2
AcDbPolyline
  3
AutoCAD 2000
 90
    32768
280
     0
281
     1
  0
CLASS
  1
ACDBDICTIONARYWDFLT
  2
AcDbDictionaryWithDefault
  3
AutoCAD 2000
 90
    32768
280
     0
281
     0
  0
CLASS
  1
ACDBPLACEHOLDER
  2
AcDbPlaceHolder
  3
AutoCAD 2000
 90
    32768
280
     0
281
     0
  0
CLASS
  1
LAYOUT
  2
AcDbLayout
  3
AutoCAD 2000
 90
    32768
280
     0
281
     0
  0
CLASS
  1
DICTIONARYVAR
  2
AcDbDictionaryVar
  3
AutoCAD 2000
 90
    32768
280
     0
281
     0
  0
CLASS
  1
LONG_TRANSACTION
  2
AcDbLongTransaction
  3
AutoCAD 2000
 90
    32768
280
     0
281
     0
  0
CLASS
  1
LWPOLYLINE
  2
AcDbPolyline
  3
AutoCAD 2000
 90
    32768
280
     0
281
     1
  0
CLASS
  1
HATCH
  2
AcDbHatch
  3
AutoCAD 2000
 90
    32768
280
     0
281
     1
  0
CLASS
  1
XRECORD
  2
AcDbXrecord
  3
AutoCAD 2000
 90
    32768
280
     0
281
     0
  0
ENDSEC
  0
SECTION
  2
TABLES
  0
TABLE
  2
VPORT
  5
8
330
0
100
AcDbSymbolTable
 70
    11
  0
VPORT
  5
3E4E
330
8
100
AcDbSymbolTableRecord
100
AcDbViewportTableRecord
  2
*ACTIVE
 70
     0
 10
0.0
 20
0.0
 11
1.0
 21
1.0
 12
1050.0
 22
742.4999999999999
 13
0.0
 23
0.0
 14
1.0
 24
1.0
 15
0.0
 25
0.0
 16
0.0
 26
0.0
 36
1.0
 17
0.0
 27
0.0
 37
0.0
 40
1723.395265402195
 41
1.226267880364109
 42
50.0
 43
0.0
 44
0.0
 50
0.0
 51
0.0
 71
     0
 72
   100
 73
     1
 74
     1
 75
     0
 76
     0
 77
     0
 78
     0
  0
ENDTAB
  0
TABLE
  2
LTYPE
  5
5
330
0
100
AcDbSymbolTable
 70
     5
  0
LTYPE
  5
12
330
5
100
AcDbSymbolTableRecord
100
AcDbLinetypeTableRecord
  2
BYBLOCK
 70
     0
  3

 72
    65
 73
     0
 40
0.0
  0
LTYPE
  5
13
330
5
100
AcDbSymbolTableRecord
100
AcDbLinetypeTableRecord
  2
BYLAYER
 70
     0
  3

 72
    65
 73
     0
 40
0.0
  0
LTYPE
  5
14
330
5
100
AcDbSymbolTableRecord
100
AcDbLinetypeTableRecord
  2
CONTINUOUS
 70
     0
  3
Solid line
 72
    65
 73
     0
 40
0.0
  0
ENDTAB
  0
TABLE
  2
LAYER
  5
2
330
0
100
AcDbSymbolTable
 70
    15
  0
LAYER
  5
F
330
2
100
AcDbSymbolTableRecord
100
AcDbLayerTableRecord
  2
0
 70
     0
 62
     7
  6
CONTINUOUS
  0
ENDTAB
  0
TABLE
  2
STYLE
  5
3
330
0
100
AcDbSymbolTable
 70
     3
  0
STYLE
  5
10
330
3
100
AcDbSymbolTableRecord
100
AcDbTextStyleTableRecord
  2
STANDARD
 70
     0
 40
0.0
 41
0.8
 50
0.0
 71
     0
 42
20.0
  3
simplex
  4
extfont
  0
STYLE
  5
237C
330
3
100
AcDbSymbolTableRecord
100
AcDbTextStyleTableRecord
  2
PTSH
 70
     0
 40
0.0
 41
0.9
 50
0.0
 71
     0
 42
4.0
  3
SIMPLEX
  4
EXTFONT
  0
STYLE
  5
2592
330
3
100
AcDbSymbolTableRecord
100
AcDbTextStyleTableRecord
  2
DIM
 70
     0
 40
0.0
 41
0.8
 50
0.0
 71
     0
 42
4.0
  3
simplex
  4
extfont
  0
ENDTAB
  0
TABLE
  2
VIEW
  5
6
330
0
100
AcDbSymbolTable
 70
     0
  0
ENDTAB
  0
TABLE
  2
UCS
  5
7
330
0
100
AcDbSymbolTable
 70
     0
  0
ENDTAB
  0
TABLE
  2
APPID
  5
9
330
0
100
AcDbSymbolTable
 70
     1
  0
APPID
  5
11
330
9
100
AcDbSymbolTableRecord
100
AcDbRegAppTableRecord
  2
ACAD
 70
     0
  0
ENDTAB
  0
TABLE
  2
DIMSTYLE
  5
A
330
0
100
AcDbSymbolTable
 70
     6
  0
DIMSTYLE
105
2237
330
A
100
AcDbSymbolTableRecord
100
AcDbDimStyleTableRecord
  2
DIM1
 70
     0
  3

  4

  5

  6
OPEN
  7
OPEN
 40
5.0
 41
2.799999999999999
 42
1.0
 43
5.0
 44
1.0
 45
0.1
 46
0.0
 47
0.0
 48
0.0
140
2.5
141
0.0
142
0.0
143
1.0
144
1.0
145
0.0
146
0.7
147
0.85
 71
     0
 72
     0
 73
     0
 74
     0
 75
     0
 76
     0
 77
     3
 78
     8
170
     0
171
     2
172
     1
173
     1
174
     0
175
     0
176
     2
177
     2
178
     2
270
     2
271
     2
272
     3
273
     2
274
     3
340
2592
275
     0
280
     0
281
     0
282
     0
283
     1
284
     8
285
     8
286
     8
287
     3
288
     0
  0
ENDTAB
  0
TABLE
  2
BLOCK_RECORD
  5
1
330
0
100
AcDbSymbolTable
 70
    13
  0
BLOCK_RECORD
  5
18
102
{ACAD_XDICTIONARY
360
3E51
102
}
330
1
100
AcDbSymbolTableRecord
100
AcDbBlockTableRecord
  2
*MODEL_SPACE
  0
BLOCK_RECORD
  5
15
102
{ACAD_XDICTIONARY
360
3E4F
102
}
330
1
100
AcDbSymbolTableRecord
100
AcDbBlockTableRecord
  2
*PAPER_SPACE
  0
BLOCK_RECORD
  5
2448
330
1
100
AcDbSymbolTableRecord
100
AcDbBlockTableRecord
  2
_OPEN
  0
ENDTAB
  0
ENDSEC
  0
SECTION
  2
BLOCKS
  0
BLOCK
  5
3C
330
18
100
AcDbEntity
  8
0
100
AcDbBlockBegin
  2
*MODEL_SPACE
 70
     0
 10
0.0
 20
0.0
 30
0.0
  3
*MODEL_SPACE
  1

  0
ENDBLK
  5
3D
330
18
100
AcDbEntity
  8
0
100
AcDbBlockEnd
  0
BLOCK
  5
3A
330
15
100
AcDbEntity
 67
     1
  8
0
100
AcDbBlockBegin
  2
*PAPER_SPACE
 70
     0
 10
0.0
 20
0.0
 30
0.0
  3
*PAPER_SPACE
  1

  0
ENDBLK
  5
3B
330
15
100
AcDbEntity
 67
     1
  8
0
100
AcDbBlockEnd
  0
BLOCK
  5
2449
330
2448
100
AcDbEntity
  8
0
 48
4.0
100
AcDbBlockBegin
  2
_OPEN
 70
     0
 10
0.0
 20
0.0
 30
0.0
  3
_OPEN
  1
H1111.DWG
  0
LINE
  5
244A
330
2448
100
AcDbEntity
  8
0
  6
BYBLOCK
 62
     0
 48
4.0
100
AcDbLine
 10
-1.0
 20
0.1666666666666666
 30
0.0
 11
0.0
 21
0.0
 31
0.0
  0
LINE
  5
244B
330
2448
100
AcDbEntity
  8
0
  6
BYBLOCK
 62
     0
 48
4.0
100
AcDbLine
 10
0.0
 20
0.0
 30
0.0
 11
-1.0
 21
-0.1666666666666666
 31
0.0
  0
LINE
  5
244C
330
2448
100
AcDbEntity
  8
0
  6
BYBLOCK
 62
     0
 48
4.0
100
AcDbLine
 10
0.0
 20
0.0
 30
0.0
 11
-1.0
 21
0.0
 31
0.0
  0
ENDBLK
  5
244D
330
2448
100
AcDbEntity
  8
0
 48
4.0
100
AcDbBlockEnd
  0
ENDSEC
  0
SECTION
  2
ENTITIES
  0
MTEXT
  5
ADA
330
18
100
AcDbEntity
  8
0
100
AcDbMText
 10
1900.696398858539
 20
249.2315556811139
 30
0.0
 40
1.0
 41
236.1323242437311
 71
     1
 72
     1
  1

1001
ACAD
1000
MTEXTBEGIN
1070
    73
1070
     1
1070
    44
1040
1.0
1070
    74
1070
     0
1000
MTEXTEND
  0
MTEXT
  5
ADB
330
18
100
AcDbEntity
  8
0
100
AcDbMText
 10
1945.249665834573
 20
289.2539686644955
 30
0.0
 40
1.0
 41
227.2216708485234
 71
     1
 72
     1
  1

1001
ACAD
1000
MTEXTBEGIN
1070
    73
1070
     1
1070
    44
1040
1.0
1070
    74
1070
     0
1000
MTEXTEND
  0
MTEXT
  5
ADC
330
18
100
AcDbEntity
  8
0
100
AcDbMText
 10
1918.517705648952
 20
-239.9312320274634
 30
0.0
 40
1.0
 41
258.4089577317491
 71
     1
 72
     1
  1

1001
ACAD
1000
MTEXTBEGIN
1070
    73
1070
     1
1070
    44
1040
1.0
1070
    74
1070
     0
1000
MTEXTEND
  0
TEXT
  5
2529
330
18
100
AcDbEntity
  8
0
  6
CONTINUOUS
100
AcDbText
 10
1899.0
 20
76.25000000000001
 30
0.0
 40
17.5
  1
DR2
 41
0.9
  7
PTSH
 72
     1
 11
1920.0
 21
85.00000000000001
 31
0.0
100
AcDbText
 73
     2
  0
POLYLINE
  5
2563
330
18
100
AcDbEntity
  8
0
100
AcDb2dPolyline
 66
     1
 10
0.0
 20
0.0
 30
0.0
 70
     1
  0
VERTEX
  5
3E56
330
2563
100
AcDbEntity
  8
0
100
AcDbVertex
100
AcDb2dVertex
 10
90.00000000000001
 20
35.0
 30
0.0
  0
VERTEX
  5
3E57
330
2563
100
AcDbEntity
  8
0
100
AcDbVertex
100
AcDb2dVertex
 10
2045.0
 20
35.0
 30
0.0
  0
VERTEX
  5
3E58
330
2563
100
AcDbEntity
  8
0
100
AcDbVertex
100
AcDb2dVertex
 10
2045.0
 20
1410.0
 30
0.0
  0
VERTEX
  5
3E59
330
2563
100
AcDbEntity
  8
0
100
AcDbVertex
100
AcDb2dVertex
 10
90.00000000000001
 20
1410.0
 30
0.0
  0
SEQEND
  5
3E5A
330
2563
100
AcDbEntity
  8
0
  0
LINE
  5
29AF
330
18
100
AcDbEntity
  8
0
100
AcDbLine
 10
1656.190149035858
 20
582.5097053644794
 30
0.0
 11
1656.190149035858
 21
641.5097053644794
 31
0.0
  0
LINE
  5
29B0
330
18
100
AcDbEntity
  8
0
100
AcDbLine
 10
1626.190149035858
 20
641.5097053644796
 30
0.0
 11
1626.190149035858
 21
582.5006166198907
 31
0.0
  0
LINE
  5
29B1
330
18
100
AcDbEntity
  8
0
100
AcDbLine
 10
1617.249125911835
 20
533.589817091763
 30
0.0
 11
1619.190149035858
 21
471.5097053644795
 31
0.0
  0
LINE
  5
29B2
330
18
100
AcDbEntity
  8
0
100
AcDbLine
 10
1663.190149035858
 20
471.5097053644795
 30
0.0
 11
1665.131172159882
 21
533.589817091763
 31
0.0
  0
LINE
  5
29B3
330
18
100
AcDbEntity
  8
0
100
AcDbLine
 10
1619.190149035858
 20
471.5097053644795
 30
0.0
 11
1663.190149035858
 21
471.5097053644795
 31
0.0
  0
LINE
  5
29B4
330
18
100
AcDbEntity
  8
0
100
AcDbLine
 10
1619.190149035858
 20
469.5097053644794
 30
0.0
 11
1663.190149035858
 21
469.5097053644794
 31
0.0
  0
LINE
  5
29B5
330
18
100
AcDbEntity
  8
0
100
AcDbLine
 10
1620.190149035858
 20
445.5097053644794
 30
0.0
 11
1662.190149035859
 21
445.5097053644794
 31
0.0
  0
LINE
  5
29B6
330
18
100
AcDbEntity
  8
0
100
AcDbLine
 10
1643.190149035858
 20
467.0097053644794
 30
0.0
 11
1643.190149035858
 21
446.5097053644795
 31
0.0
  0
LINE
  5
29B7
330
18
100
AcDbEntity
  8
0
100
AcDbLine
 10
1639.690149035858
 20
446.5097053644795
 30
0.0
 11
1639.690149035858
 21
467.0097053644794
 31
0.0
  0
LINE
  5
29B8
330
18
100
AcDbEntity
  8
0
100
AcDbLine
 10
1631.190149035858
 20
467.0097053644794
 30
0.0
 11
1631.190149035858
 21
446.5097053644795
 31
0.0
  0
LINE
  5
29B9
330
18
100
AcDbEntity
  8
0
100
AcDbLine
 10
1627.690149035858
 20
446.5097053644795
 30
0.0
 11
1627.690149035858
 21
467.0097053644794
 31
0.0
  0
LINE
  5
29BA
330
18
100
AcDbEntity
  8
0
100
AcDbLine
 10
1637.190149035858
 20
467.0097053644794
 30
0.0
 11
1637.190149035858
 21
446.5097053644795
 31
0.0
  0
LINE
  5
29BB
330
18
100
AcDbEntity
  8
0
100
AcDbLine
 10
1633.690149035858
 20
446.5097053644795
 30
0.0
 11
1633.690149035858
 21
467.0097053644794
 31
0.0
  0
LINE
  5
29BC
330
18
100
AcDbEntity
  8
0
100
AcDbLine
 10
1625.190149035858
 20
467.0097053644794
 30
0.0
 11
1625.190149035858
 21
446.5097053644795
 31
0.0
  0
LINE
  5
29BD
330
18
100
AcDbEntity
  8
0
100
AcDbLine
 10
1621.690149035858
 20
446.5097053644795
 30
0.0
 11
1621.690149035858
 21
467.0097053644794
 31
0.0
  0
LINE
  5
29BE
330
18
100
AcDbEntity
  8
0
100
AcDbLine
 10
1619.190149035858
 20
469.5097053644794
 30
0.0
 11
1619.190149035858
 21
446.5097053644795
 31
0.0
  0
LINE
  5
29BF
330
18
100
AcDbEntity
  8
0
100
AcDbLine
 10
1625.190149035858
 20
446.5097053644795
 30
0.0
 11
1621.690149035858
 21
446.5097053644795
 31
0.0
  0
LINE
  5
29C0
330
18
100
AcDbEntity
  8
0
100
AcDbLine
 10
1619.190149035858
 20
446.5097053644795
 30
0.0
 11
1620.190149035858
 21
445.5097053644794
 31
0.0
  0
LINE
  5
29C1
330
18
100
AcDbEntity
  8
0
100
AcDbLine
 10
1637.190149035858
 20
446.5097053644795
 30
0.0
 11
1633.690149035858
 21
446.5097053644795
 31
0.0
  0
LINE
  5
29C2
330
18
100
AcDbEntity
  8
0
100
AcDbLine
 10
1631.190149035858
 20
446.5097053644795
 30
0.0
 11
1627.690149035858
 21
446.5097053644795
 31
0.0
  0
LINE
  5
29C3
330
18
100
AcDbEntity
  8
0
100
AcDbLine
 10
1643.190149035858
 20
446.5097053644795
 30
0.0
 11
1639.690149035858
 21
446.5097053644795
 31
0.0
  0
LINE
  5
29C4
330
18
100
AcDbEntity
  8
0
100
AcDbLine
 10
1621.690149035858
 20
467.0097053644794
 30
0.0
 11
1625.190149035858
 21
467.0097053644794
 31
0.0
  0
LINE
  5
29C5
330
18
100
AcDbEntity
  8
0
100
AcDbLine
 10
1619.190149035858
 20
471.5097053644795
 30
0.0
 11
1619.190149035858
 21
469.5097053644794
 31
0.0
  0
LINE
  5
29C6
330
18
100
AcDbEntity
  8
0
100
AcDbLine
 10
1633.690149035858
 20
467.0097053644794
 30
0.0
 11
1637.190149035858
 21
467.0097053644794
 31
0.0
  0
LINE
  5
29C7
330
18
100
AcDbEntity
  8
0
100
AcDbLine
 10
1627.690149035858
 20
467.0097053644794
 30
0.0
 11
1631.190149035858
 21
467.0097053644794
 31
0.0
  0
LINE
  5
29C8
330
18
100
AcDbEntity
  8
0
100
AcDbLine
 10
1639.690149035858
 20
467.0097053644794
 30
0.0
 11
1643.190149035858
 21
467.0097053644794
 31
0.0
  0
LINE
  5
29C9
330
18
100
AcDbEntity
  8
0
100
AcDbLine
 10
1649.190149035858
 20
467.0097053644794
 30
0.0
 11
1649.190149035858
 21
446.5097053644795
 31
0.0
  0
LINE
  5
29CA
330
18
100
AcDbEntity
  8
0
100
AcDbLine
 10
1645.690149035858
 20
446.5097053644795
 30
0.0
 11
1645.690149035858
 21
467.0097053644794
 31
0.0
  0
LINE
  5
29CB
330
18
100
AcDbEntity
  8
0
100
AcDbLine
 10
1655.190149035858
 20
467.0097053644794
 30
0.0
 11
1655.190149035858
 21
446.5097053644795
 31
0.0
  0
LINE
  5
29CC
330
18
100
AcDbEntity
  8
0
100
AcDbLine
 10
1651.690149035858
 20
446.5097053644795
 30
0.0
 11
1651.690149035858
 21
467.0097053644794
 31
0.0
  0
LINE
  5
29CD
330
18
100
AcDbEntity
  8
0
100
AcDbLine
 10
1661.190149035858
 20
467.0097053644794
 30
0.0
 11
1661.190149035858
 21
446.5097053644795
 31
0.0
  0
LINE
  5
29CE
330
18
100
AcDbEntity
  8
0
100
AcDbLine
 10
1657.690149035858
 20
446.5097053644795
 30
0.0
 11
1657.690149035858
 21
467.0097053644794
 31
0.0
  0
LINE
  5
29CF
330
18
100
AcDbEntity
  8
0
100
AcDbLine
 10
1663.190149035858
 20
446.5097053644795
 30
0.0
 11
1663.190149035858
 21
469.5097053644794
 31
0.0
  0
LINE
  5
29D0
330
18
100
AcDbEntity
  8
0
100
AcDbLine
 10
1649.190149035858
 20
446.5097053644795
 30
0.0
 11
1645.690149035858
 21
446.5097053644795
 31
0.0
  0
LINE
  5
29D1
330
18
100
AcDbEntity
  8
0
100
AcDbLine
 10
1655.190149035858
 20
446.5097053644795
 30
0.0
 11
1651.690149035858
 21
446.5097053644795
 31
0.0
  0
POINT
  5
29D2
330
18
100
AcDbEntity
  8
0
  6
BYBLOCK
100
AcDbPoint
 10
1652.035387131096
 20
445.5097053644794
 30
0.0
  0
LINE
  5
29D3
330
18
100
AcDbEntity
  8
0
100
AcDbLine
 10
1656.797291893001
 20
445.5097053644794
 30
0.0
 11
1656.797291893001
 21
445.5097053644794
 31
0.0
  0
LINE
  5
29D4
330
18
100
AcDbEntity
  8
0
100
AcDbLine
 10
1662.190149035859
 20
445.5097053644794
 30
0.0
 11
1663.190149035858
 21
446.5097053644795
 31
0.0
  0
LINE
  5
29D5
330
18
100
AcDbEntity
  8
0
100
AcDbLine
 10
1661.190149035858
 20
446.5097053644795
 30
0.0
 11
1657.690149035858
 21
446.5097053644795
 31
0.0
  0
LINE
  5
29D6
330
18
100
AcDbEntity
  8
0
100
AcDbLine
 10
1645.690149035858
 20
467.0097053644794
 30
0.0
 11
1649.190149035858
 21
467.0097053644794
 31
0.0
  0
LINE
  5
29D7
330
18
100
AcDbEntity
  8
0
100
AcDbLine
 10
1651.690149035858
 20
467.0097053644794
 30
0.0
 11
1655.190149035858
 21
467.0097053644794
 31
0.0
  0
LINE
  5
29D8
330
18
100
AcDbEntity
  8
0
100
AcDbLine
 10
1657.690149035858
 20
467.0097053644794
 30
0.0
 11
1661.190149035858
 21
467.0097053644794
 31
0.0
  0
LINE
  5
29D9
330
18
100
AcDbEntity
  8
0
100
AcDbLine
 10
1663.190149035858
 20
471.5097053644795
 30
0.0
 11
1663.190149035858
 21
469.5097053644794
 31
0.0
  0
LINE
  5
29DA
330
18
100
AcDbEntity
  8
0
100
AcDbLine
 10
1663.190149035858
 20
469.5097053644794
 30
0.0
 11
1663.190149035858
 21
471.5097053644795
 31
0.0
  0
CIRCLE
  5
29DB
330
18
100
AcDbEntity
  8
0
100
AcDbCircle
 10
1601.690149035858
 20
557.0097053644794
 30
0.0
 40
4.500023809523807
  0
CIRCLE
  5
29DC
330
18
100
AcDbEntity
  8
0
100
AcDbCircle
 10
1601.690149035858
 20
557.0097053644794
 30
0.0
 40
3.08890476190476
  0
ARC
  5
29DD
330
18
100
AcDbEntity
  8
0
100
AcDbCircle
 10
1601.685387131106
 20
557.0097053644794
 30
0.0
 40
6.500001744287216
100
AcDbArc
 50
89.95802507754998
 51
270.0419749223555
  0
LINE
  5
29DE
330
18
100
AcDbEntity
  8
0
100
AcDbLine
 10
1671.190149035858
 20
559.5278828536569
 30
0.0
 11
1671.190149035858
 21
554.5097053644793
 31
0.0
  0
CIRCLE
  5
29DF
330
18
100
AcDbEntity
  8
0
100
AcDbCircle
 10
1680.690149035858
 20
557.0097053644794
 30
0.0
 40
3.08895238095238
  0
LINE
  5
29E0
330
18
100
AcDbEntity
  8
0
100
AcDbLine
 10
1611.190149035858
 20
559.5278828536569
 30
0.0
 11
1611.190149035858
 21
554.5097053644793
 31
0.0
  0
CIRCLE
  5
29E1
330
18
100
AcDbEntity
  8
0
100
AcDbCircle
 10
1680.690149035858
 20
557.0097053644794
 30
0.0
 40
4.500023809523807
  0
ARC
  5
29E2
330
18
100
AcDbEntity
  8
0
100
AcDbCircle
 10
1680.69491094061
 20
557.0097053644794
 30
0.0
 40
6.500001744287209
100
AcDbArc
 50
269.9580250776444
 51
90.04197492245003
  0
LINE
  5
29E3
330
18
100
AcDbEntity
  8
0
100
AcDbLine
 10
1615.252053797763
 20
535.5097053644795
 30
0.0
 11
1667.128244273953
 21
535.5097053644795
 31
0.0
  0
LINE
  5
29E4
330
18
100
AcDbEntity
  8
0
100
AcDbLine
 10
1608.208326525036
 20
550.5097053644795
 30
0.0
 11
1674.190149035858
 21
550.5097053644795
 31
0.0
  0
LINE
  5
29E5
330
18
100
AcDbEntity
  8
0
100
AcDbLine
 10
1610.190149035858
 20
548.5278828536569
 30
0.0
 11
1610.190149035858
 21
537.4915278753019
 31
0.0
  0
ARC
  5
29E6
330
18
100
AcDbEntity
  8
0
100
AcDbCircle
 10
1612.171971546681
 20
537.4915278753019
 30
0.0
 40
1.981822510822503
100
AcDbArc
 50
180.0
 51
270.0
  0
ARC
  5
29E7
330
18
100
AcDbEntity
  8
0
100
AcDbCircle
 10
1615.268271395583
 20
533.5278828536569
 30
0.0
 40
1.98182251082251
100
AcDbArc
 50
1.790850742120779
 51
90.0
  0
LINE
  5
29E8
330
18
100
AcDbEntity
  8
0
100
AcDbLine
 10
1612.171971546681
 20
535.5097053644795
 30
0.0
 11
1615.268271395583
 21
535.5097053644795
 31
0.0
  0
LINE
  5
29E9
330
18
100
AcDbEntity
  8
0
100
AcDbLine
 10
1601.690149035858
 20
552.5097053644794
 30
0.0
 11
1620.928244273954
 21
552.5097053644794
 31
0.0
  0
ARC
  5
29EA
330
18
100
AcDbEntity
  8
0
100
AcDbCircle
 10
1608.208326525036
 20
548.5278828536569
 30
0.0
 40
1.981822510822496
100
AcDbArc
 50
0.0
 51
90.0
  0
ARC
  5
29EB
330
18
100
AcDbEntity
  8
0
100
AcDbCircle
 10
1609.208326525036
 20
554.5097053644793
 30
0.0
 40
1.98182251082251
100
AcDbArc
 50
270.0
 51
0.0
  0
LINE
  5
29EC
330
18
100
AcDbEntity
  8
0
100
AcDbLine
 10
1601.690149035848
 20
550.5097053644795
 30
0.0
 11
1608.208326525036
 21
550.5097053644793
 31
0.0
  0
LINE
  5
29ED
330
18
100
AcDbEntity
  8
0
100
AcDbLine
 10
1609.190149035858
 20
552.5097053644794
 30
0.0
 11
1608.442529988239
 21
552.5097053644794
 31
0.0
  0
LINE
  5
29EE
330
18
100
AcDbEntity
  8
0
100
AcDbLine
 10
1609.190149035858
 20
552.5097053644794
 30
0.0
 11
1608.442529988239
 21
552.5097053644794
 31
0.0
  0
LINE
  5
29EF
330
18
100
AcDbEntity
  8
0
100
AcDbLine
 10
1680.690149035858
 20
552.5097053644794
 30
0.0
 11
1661.452053797763
 21
552.5097053644794
 31
0.0
  0
LINE
  5
29F0
330
18
100
AcDbEntity
  8
0
100
AcDbLine
 10
1667.112026676133
 20
535.5097053644795
 30
0.0
 11
1670.208326525036
 21
535.5097053644795
 31
0.0
  0
ARC
  5
29F1
330
18
100
AcDbEntity
  8
0
100
AcDbCircle
 10
1667.112026676133
 20
533.5278828536569
 30
0.0
 40
1.981822510822524
100
AcDbArc
 50
90.0
 51
178.2091492578792
  0
LINE
  5
29F2
330
18
100
AcDbEntity
  8
0
100
AcDbLine
 10
1672.190149035858
 20
537.4915278753019
 30
0.0
 11
1672.190149035858
 21
548.5278828536569
 31
0.0
  0
ARC
  5
29F3
330
18
100
AcDbEntity
  8
0
100
AcDbCircle
 10
1670.208326525036
 20
537.4915278753019
 30
0.0
 40
1.981822510822496
100
AcDbArc
 50
270.0
 51
0.0
  0
LINE
  5
29F4
330
18
100
AcDbEntity
  8
0
100
AcDbLine
 10
1674.171971546681
 20
550.5097053644795
 30
0.0
 11
1680.690149035869
 21
550.5097053644795
 31
0.0
  0
LINE
  5
29F5
330
18
100
AcDbEntity
  8
0
100
AcDbLine
 10
1673.190149035858
 20
552.5097053644794
 30
0.0
 11
1673.937768083477
 21
552.5097053644794
 31
0.0
  0
ARC
  5
29F6
330
18
100
AcDbEntity
  8
0
100
AcDbCircle
 10
1674.171971546681
 20
548.5278828536569
 30
0.0
 40
1.98182251082251
100
AcDbArc
 50
90.0
 51
180.0
  0
ARC
  5
29F7
330
18
100
AcDbEntity
  8
0
100
AcDbCircle
 10
1673.171971546681
 20
554.5097053644793
 30
0.0
 40
1.98182251082251
100
AcDbArc
 50
180.0
 51
270.0
  0
ARC
  5
29F8
330
18
100
AcDbEntity
  8
0
100
AcDbCircle
 10
1641.190149035858
 20
555.5097053644793
 30
0.0
 40
26.00000000000003
100
AcDbArc
 50
67.38013505195756
 51
112.6198649480424
  0
LINE
  5
29F9
330
18
100
AcDbEntity
  8
0
100
AcDbLine
 10
1619.190149035858
 20
571.5097053644795
 30
0.0
 11
1663.190149035858
 21
571.5097053644795
 31
0.0
  0
LINE
  5
29FA
330
18
100
AcDbEntity
  8
0
100
AcDbLine
 10
1626.190149035858
 20
581.5097053644795
 30
0.0
 11
1656.190149035858
 21
581.5097053644795
 31
0.0
  0
LINE
  5
29FB
330
18
100
AcDbEntity
  8
0
100
AcDbLine
 10
1672.190149035858
 20
569.5097053644794
 30
0.0
 11
1610.190149035858
 21
569.5097053644794
 31
0.0
  0
LINE
  5
29FC
330
18
100
AcDbEntity
  8
0
100
AcDbLine
 10
1610.190149035858
 20
563.5097053644795
 30
0.0
 11
1672.213958559668
 21
563.5097053644795
 31
0.0
  0
ARC
  5
29FD
330
18
100
AcDbEntity
  8
0
100
AcDbCircle
 10
1626.190149035858
 20
570.9804352764336
 30
0.0
 40
9.886781490193518
100
AcDbArc
 50
59.62045877107969
 51
120.3795412289202
  0
ARC
  5
29FE
330
18
100
AcDbEntity
  8
0
100
AcDbCircle
 10
1623.171971546681
 20
579.5278828536569
 30
0.0
 40
1.981822510822524
100
AcDbArc
 50
90.0
 51
180.0
  0
LINE
  5
29FF
330
18
100
AcDbEntity
  8
0
100
AcDbLine
 10
1612.190149035859
 20
571.5097053644795
 30
0.0
 11
1610.190149035858
 21
569.5097053644794
 31
0.0
  0
ARC
  5
2A00
330
18
100
AcDbEntity
  8
0
100
AcDbCircle
 10
1609.208326525036
 20
559.5278828536569
 30
0.0
 40
1.98182251082251
100
AcDbArc
 50
0.0
 51
90.0
  0
LINE
  5
2A01
330
18
100
AcDbEntity
  8
0
100
AcDbLine
 10
1601.690149035858
 20
561.5097053644794
 30
0.0
 11
1620.928244273954
 21
561.5097053644794
 31
0.0
  0
CIRCLE
  5
2A02
330
18
100
AcDbEntity
  8
0
100
AcDbCircle
 10
1601.690149035858
 20
557.0097053644794
 30
0.0
 40
2.354511904761904
  0
LINE
  5
2A03
330
18
100
AcDbEntity
  8
0
100
AcDbLine
 10
1608.735387131096
 20
561.5097053644794
 30
0.0
 11
1609.190149035858
 21
561.5097053644794
 31
0.0
  0
LINE
  5
2A04
330
18
100
AcDbEntity
  8
0
100
AcDbLine
 10
1610.190149035858
 20
563.5097053644795
 30
0.0
 11
1601.690149035858
 21
563.5097053644795
 31
0.0
  0
LINE
  5
2A05
330
18
100
AcDbEntity
  8
0
100
AcDbLine
 10
1610.190149035858
 20
569.5097053644794
 30
0.0
 11
1610.190149035858
 21
563.5097053644795
 31
0.0
  0
LINE
  5
2A06
330
18
100
AcDbEntity
  8
0
100
AcDbLine
 10
1621.190149035858
 20
579.5278828536569
 30
0.0
 11
1621.190149035858
 21
573.4915278753019
 31
0.0
  0
LINE
  5
2A07
330
18
100
AcDbEntity
  8
0
100
AcDbLine
 10
1619.208326525036
 20
571.5097053644795
 30
0.0
 11
1612.190149035859
 21
571.5097053644795
 31
0.0
  0
ARC
  5
2A08
330
18
100
AcDbEntity
  8
0
100
AcDbCircle
 10
1619.208326525036
 20
573.4915278753019
 30
0.0
 40
1.981822510822503
100
AcDbArc
 50
270.0
 51
0.0
  0
LINE
  5
2A09
330
18
100
AcDbEntity
  8
0
100
AcDbLine
 10
1631.190149035858
 20
579.5097053644794
 30
0.0
 11
1631.190149035858
 21
571.5097053644795
 31
0.0
  0
LINE
  5
2A0A
330
18
100
AcDbEntity
  8
0
100
AcDbLine
 10
1626.190149035858
 20
582.5097053644794
 30
0.0
 11
1626.190149035858
 21
582.5097053644794
 31
0.0
  0
LINE
  5
2A0B
330
18
100
AcDbEntity
  8
0
100
AcDbLine
 10
1626.190149035858
 20
582.5097053644794
 30
0.0
 11
1626.180625226335
 21
582.3649434597175
 31
0.0
  0
LINE
  5
2A0C
330
18
100
AcDbEntity
  8
0
100
AcDbLine
 10
1626.180625226335
 20
582.3649434597175
 30
0.0
 11
1626.147291893001
 21
582.2158958406698
 31
0.0
  0
LINE
  5
2A0D
330
18
100
AcDbEntity
  8
0
100
AcDbLine
 10
1626.147291893001
 20
582.2158958406698
 30
0.0
 11
1626.087768083477
 21
582.068514888289
 31
0.0
  0
ARC
  5
2A0E
330
18
100
AcDbEntity
  8
0
100
AcDbCircle
 10
1625.199237780447
 20
582.5006166198907
 30
0.0
 40
0.9909112554112482
100
AcDbArc
 50
270.0
 51
0.0
  0
LINE
  5
2A0F
330
18
100
AcDbEntity
  8
0
100
AcDbLine
 10
1625.199237780447
 20
581.5097053644795
 30
0.0
 11
1623.171971546681
 21
581.5097053644795
 31
0.0
  0
LINE
  5
2A10
330
18
100
AcDbEntity
  8
0
100
AcDbLine
 10
1680.690149035858
 20
561.5097053644794
 30
0.0
 11
1661.452053797763
 21
561.5097053644794
 31
0.0
  0
LINE
  5
2A11
330
18
100
AcDbEntity
  8
0
100
AcDbLine
 10
1670.190149035858
 20
571.5097053644795
 30
0.0
 11
1663.171971546681
 21
571.5097053644793
 31
0.0
  0
ARC
  5
2A12
330
18
100
AcDbEntity
  8
0
100
AcDbCircle
 10
1656.190149035858
 20
570.9804352764336
 30
0.0
 40
9.886781490193518
100
AcDbArc
 50
59.62045877107969
 51
120.3795412289202
  0
ARC
  5
2A13
330
18
100
AcDbEntity
  8
0
100
AcDbCircle
 10
1657.183800377783
 20
582.5006166198907
 30
0.0
 40
0.9909112554112482
100
AcDbArc
 50
183.7640348649377
 51
270.0
  0
LINE
  5
2A14
330
18
100
AcDbEntity
  8
0
100
AcDbLine
 10
1651.190149035858
 20
579.5097053644794
 30
0.0
 11
1651.190149035858
 21
571.5097053644795
 31
0.0
  0
LINE
  5
2A15
330
18
100
AcDbEntity
  8
0
100
AcDbLine
 10
1656.195026644286
 20
582.4355657163706
 30
0.0
 11
1656.190149035858
 21
582.5097053644794
 31
0.0
  0
LINE
  5
2A16
330
18
100
AcDbEntity
  8
0
100
AcDbLine
 10
1661.190149035858
 20
573.4915278753019
 30
0.0
 11
1661.190149035858
 21
579.5278828536569
 31
0.0
  0
ARC
  5
2A17
330
18
100
AcDbEntity
  8
0
100
AcDbCircle
 10
1663.171971546681
 20
573.4915278753019
 30
0.0
 40
1.981822510822496
100
AcDbArc
 50
180.0
 51
270.0
  0
ARC
  5
2A18
330
18
100
AcDbEntity
  8
0
100
AcDbCircle
 10
1659.208326525036
 20
579.5278828536569
 30
0.0
 40
1.981822510822524
100
AcDbArc
 50
0.0
 51
90.0
  0
LINE
  5
2A19
330
18
100
AcDbEntity
  8
0
100
AcDbLine
 10
1659.208326525036
 20
581.5097053644795
 30
0.0
 11
1657.183800377783
 21
581.5097053644794
 31
0.0
  0
LINE
  5
2A1A
330
18
100
AcDbEntity
  8
0
100
AcDbLine
 10
1672.213958559668
 20
569.5097053644794
 30
0.0
 11
1670.190149035858
 21
571.5097053644795
 31
0.0
  0
CIRCLE
  5
2A1B
330
18
100
AcDbEntity
  8
0
100
AcDbCircle
 10
1680.690149035858
 20
557.0097053644794
 30
0.0
 40
2.354485714285713
  0
LINE
  5
2A1C
330
18
100
AcDbEntity
  8
0
100
AcDbLine
 10
1680.690149035858
 20
563.5097053644795
 30
0.0
 11
1672.213958559668
 21
563.5097053644795
 31
0.0
  0
ARC
  5
2A1D
330
18
100
AcDbEntity
  8
0
100
AcDbCircle
 10
1673.171971546681
 20
559.5278828536569
 30
0.0
 40
1.98182251082251
100
AcDbArc
 50
90.0
 51
180.0
  0
LINE
  5
2A1E
330
18
100
AcDbEntity
  8
0
100
AcDbLine
 10
1672.213958559668
 20
569.5097053644794
 30
0.0
 11
1672.190149035858
 21
569.5097053644794
 31
0.0
  0
LINE
  5
2A1F
330
18
100
AcDbEntity
  8
0
100
AcDbLine
 10
1672.213958559668
 20
563.5097053644795
 30
0.0
 11
1672.213958559668
 21
569.5097053644794
 31
0.0
  0
LINE
  5
2A20
330
18
100
AcDbEntity
  8
0
100
AcDbLine
 10
1598.190149035858
 20
639.5097053644795
 30
0.0
 11
1607.190149035858
 21
639.5097053644795
 31
0.0
  0
LINE
  5
2A21
330
18
100
AcDbEntity
  8
0
100
AcDbLine
 10
1607.190149035858
 20
691.5097053644794
 30
0.0
 11
1598.190149035858
 21
691.5097053644794
 31
0.0
  0
LINE
  5
2A22
330
18
100
AcDbEntity
  8
0
100
AcDbLine
 10
1607.190149035858
 20
679.5097053644795
 30
0.0
 11
1598.190149035858
 21
679.5097053644795
 31
0.0
  0
LINE
  5
2A23
330
18
100
AcDbEntity
  8
0
100
AcDbLine
 10
1607.190149035858
 20
651.5097053644796
 30
0.0
 11
1598.190149035858
 21
651.5097053644796
 31
0.0
  0
LINE
  5
2A24
330
18
100
AcDbEntity
  8
0
100
AcDbLine
 10
1596.190149035858
 20
689.5097053644795
 30
0.0
 11
1596.190149035858
 21
641.5097053644794
 31
0.0
  0
ARC
  5
2A25
330
18
100
AcDbEntity
  8
0
100
AcDbCircle
 10
1605.570850079045
 20
685.5097053644795
 30
0.0
 40
9.51182148113072
100
AcDbArc
 50
140.8912726349672
 51
219.1087273650328
  0
ARC
  5
2A26
330
18
100
AcDbEntity
  8
0
100
AcDbCircle
 10
1655.733842044977
 20
665.5097053644794
 30
0.0
 40
59.22226443768995
100
AcDbArc
 50
166.3259803408843
 51
193.6740196591156
  0
ARC
  5
2A27
330
18
100
AcDbEntity
  8
0
100
AcDbCircle
 10
1605.570850079045
 20
645.5097053644794
 30
0.0
 40
9.51182148113072
100
AcDbArc
 50
140.8912726349672
 51
219.1087273650328
  0
LINE
  5
2A28
330
18
100
AcDbEntity
  8
0
100
AcDbLine
 10
1596.190149035858
 20
641.5097053644794
 30
0.0
 11
1598.190149035858
 21
639.5097053644795
 31
0.0
  0
LINE
  5
2A29
330
18
100
AcDbEntity
  8
0
100
AcDbLine
 10
1598.190149035858
 20
691.5097053644794
 30
0.0
 11
1596.190149035858
 21
689.5097053644795
 31
0.0
  0
ARC
  5
2A2A
330
18
100
AcDbEntity
  8
0
100
AcDbCircle
 10
1614.421495679157
 20
688.4824391307132
 30
0.0
 40
2.972733766233773
100
AcDbArc
 50
225.0
 51
270.0
  0
ARC
  5
2A2D
330
18
100
AcDbEntity
  8
0
100
AcDbCircle
 10
1667.137904630361
 20
690.4642616415358
 30
0.0
 40
4.954556277056273
100
AcDbArc
 50
270.0
 51
315.0
  0
LINE
  5
2A2E
330
18
100
AcDbEntity
  8
0
100
AcDbLine
 10
1686.190149035858
 20
641.5097053644794
 30
0.0
 11
1686.190149035858
 21
689.5097053644795
 31
0.0
  0
ARC
  5
2A2F
330
18
100
AcDbEntity
  8
0
100
AcDbCircle
 10
1599.809447992671
 20
685.5097053644795
 30
0.0
 40
9.51182148113072
100
AcDbArc
 50
320.8912726349672
 51
39.10872736503276
  0
ARC
  5
2A30
330
18
100
AcDbEntity
  8
0
100
AcDbCircle
 10
1676.809447992671
 20
685.5097053644795
 30
0.0
 40
9.51182148113072
100
AcDbArc
 50
320.8912726349672
 51
39.10872736503276
  0
ARC
  5
2A31
330
18
100
AcDbEntity
  8
0
100
AcDbCircle
 10
1682.570850079045
 20
685.5097053644795
 30
0.0
 40
9.51182148113072
100
AcDbArc
 50
140.8912726349672
 51
219.1087273650328
  0
LINE
  5
2A34
330
18
100
AcDbEntity
  8
0
100
AcDbLine
 10
1626.190149035858
 20
632.0882767930509
 30
0.0
 11
1656.190149035858
 21
632.0882767930509
 31
0.0
  0
ARC
  5
2A39
330
18
100
AcDbEntity
  8
0
100
AcDbCircle
 10
1641.190149035858
 20
720.5453499881032
 30
0.0
 40
37.31131470916864
100
AcDbArc
 50
249.7669296871602
 51
290.2330703128396
  0
ARC
  5
2A3A
330
18
100
AcDbEntity
  8
0
100
AcDbCircle
 10
1641.190149035858
 20
610.4740607408558
 30
0.0
 40
37.31131470916864
100
AcDbArc
 50
69.76692968716031
 51
110.2330703128396
  0
LINE
  5
2A3B
330
18
100
AcDbEntity
  8
0
100
AcDbLine
 10
1613.190149035858
 20
685.5097053644795
 30
0.0
 11
1613.190149035858
 21
645.5097053644794
 31
0.0
  0
ARC
  5
2A3C
330
18
100
AcDbEntity
  8
0
100
AcDbCircle
 10
1549.64645602674
 20
665.5097053644794
 30
0.0
 40
59.22226443768995
100
AcDbArc
 50
346.3259803408843
 51
13.67401965911563
  0
LINE
  5
2A3D
330
18
100
AcDbEntity
  8
0
100
AcDbLine
 10
1614.421495679157
 20
645.5097053644794
 30
0.0
 11
1622.190149035858
 21
645.5097053644796
 31
0.0
  0
LINE
  5
2A3E
330
18
100
AcDbEntity
  8
0
100
AcDbLine
 10
1607.190149035858
 20
639.5097053644795
 30
0.0
 11
1612.319455474391
 21
644.6390118030118
 31
0.0
  0
ARC
  5
2A3F
330
18
100
AcDbEntity
  8
0
100
AcDbCircle
 10
1599.809447992671
 20
645.5097053644794
 30
0.0
 40
9.51182148113072
100
AcDbArc
 50
320.8912726349672
 51
39.10872736503276
  0
ARC
  5
2A40
330
18
100
AcDbEntity
  8
0
100
AcDbCircle
 10
1614.421495679157
 20
642.5369715982457
 30
0.0
 40
2.972733766233773
100
AcDbArc
 50
90.0
 51
135.0
  0
ARC
  5
2A41
330
18
100
AcDbEntity
  8
0
100
AcDbCircle
 10
1622.190149035858
 20
641.5097053644794
 30
0.0
 40
4.000000000000028
100
AcDbArc
 50
0.0
 51
90.0
  0
LINE
  5
2A42
330
18
100
AcDbEntity
  8
0
100
AcDbLine
 10
1622.226504014213
 20
685.5097053644795
 30
0.0
 11
1614.421495679157
 21
685.5097053644795
 31
0.0
  0
LINE
  5
2A86
330
18
100
AcDbEntity
  8
0
100
AcDbLine
 10
1669.049672845382
 20
685.5097053644795
 30
0.0
 11
1669.049672845382
 21
645.7573244120986
 31
0.0
  0
ARC
  5
2A87
330
18
100
AcDbEntity
  8
0
100
AcDbCircle
 10
1626.64645602674
 20
665.5097053644794
 30
0.0
 40
59.22226443768995
100
AcDbArc
 50
346.3259803408843
 51
13.67401965911563
  0
ARC
  5
2A88
330
18
100
AcDbEntity
  8
0
100
AcDbCircle
 10
1732.733842044977
 20
665.5097053644794
 30
0.0
 40
59.22226443768995
100
AcDbArc
 50
166.3259803408843
 51
193.6740196591156
  0
ARC
  5
2A89
330
18
100
AcDbEntity
  8
0
100
AcDbCircle
 10
1667.137904630361
 20
640.5551490874232
 30
0.0
 40
4.954556277056269
100
AcDbArc
 50
45.0
 51
90.0
  0
ARC
  5
2A8A
330
18
100
AcDbEntity
  8
0
100
AcDbCircle
 10
1660.190149035858
 20
641.5097053644794
 30
0.0
 40
4.0
100
AcDbArc
 50
90.0
 51
180.0
  0
LINE
  5
2A8B
330
18
100
AcDbEntity
  8
0
100
AcDbLine
 10
1660.190149035858
 20
645.5097053644794
 30
0.0
 11
1667.137904630361
 21
645.5097053644794
 31
0.0
  0
LINE
  5
2A8C
330
18
100
AcDbEntity
  8
0
100
AcDbLine
 10
1675.190149035858
 20
639.5097053644795
 30
0.0
 11
1684.190149035858
 21
639.5097053644795
 31
0.0
  0
LINE
  5
2A8D
330
18
100
AcDbEntity
  8
0
100
AcDbLine
 10
1675.190149035858
 20
651.5097053644796
 30
0.0
 11
1684.190149035858
 21
651.5097053644796
 31
0.0
  0
ARC
  5
2A8E
330
18
100
AcDbEntity
  8
0
100
AcDbCircle
 10
1682.570850079045
 20
645.5097053644794
 30
0.0
 40
9.51182148113072
100
AcDbArc
 50
140.8912726349672
 51
219.1087273650328
  0
LINE
  5
2A8F
330
18
100
AcDbEntity
  8
0
100
AcDbLine
 10
1670.641304971638
 20
644.0585494287001
 30
0.0
 11
1675.190149035858
 21
639.5097053644795
 31
0.0
  0
ARC
  5
2A90
330
18
100
AcDbEntity
  8
0
100
AcDbCircle
 10
1676.809447992671
 20
645.5097053644794
 30
0.0
 40
9.51182148113072
100
AcDbArc
 50
320.8912726349672
 51
39.10872736503276
  0
LINE
  5
2A91
330
18
100
AcDbEntity
  8
0
100
AcDbLine
 10
1684.190149035858
 20
639.5097053644795
 30
0.0
 11
1686.190149035858
 21
641.5097053644794
 31
0.0
  0
LINE
  5
2AB9
330
18
100
AcDbEntity
  8
0
100
AcDbLine
 10
1667.137904630361
 20
685.5097053644795
 30
0.0
 11
1659.254616485107
 21
685.5097053644794
 31
0.0
  0
LINE
  5
2ABA
330
18
100
AcDbEntity
  8
0
100
AcDbLine
 10
1675.190149035858
 20
679.5097053644795
 30
0.0
 11
1684.190149035858
 21
679.5097053644795
 31
0.0
  0
LINE
  5
2ABB
330
18
100
AcDbEntity
  8
0
100
AcDbLine
 10
1659.190149035858
 20
711.5097053644794
 30
0.0
 11
1641.190149035858
 21
711.5097053644794
 31
0.0
  0
LINE
  5
2ABC
330
18
100
AcDbEntity
  8
0
100
AcDbLine
 10
1660.190149035858
 20
706.8335148882889
 30
0.0
 11
1622.190149035858
 21
706.8335148882889
 31
0.0
  0
LINE
  5
2ABD
330
18
100
AcDbEntity
  8
0
100
AcDbLine
 10
1622.397291893001
 20
710.5311339359079
 30
0.0
 11
1659.985387131096
 21
710.5311339359079
 31
0.0
  0
LINE
  5
2ABE
330
18
100
AcDbEntity
  8
0
100
AcDbLine
 10
1612.319455474391
 20
686.3803989259471
 30
0.0
 11
1607.190149035858
 21
691.5097053644794
 31
0.0
  0
LINE
  5
2ABF
330
18
100
AcDbEntity
  8
0
100
AcDbLine
 10
1622.190149035858
 20
706.8335148882891
 30
0.0
 11
1626.190149035858
 21
691.5097053644794
 31
0.0
  0
LINE
  5
2AC1
330
18
100
AcDbEntity
  8
0
100
AcDbLine
 10
1641.190149035858
 20
711.5097053644794
 30
0.0
 11
1623.190149035858
 21
711.5097053644794
 31
0.0
  0
LINE
  5
2AC2
330
18
100
AcDbEntity
  8
0
100
AcDbLine
 10
1623.190149035858
 20
711.5097053644794
 30
0.0
 11
1622.397291893001
 21
710.5311339359079
 31
0.0
  0
LINE
  5
2AC3
330
18
100
AcDbEntity
  8
0
100
AcDbLine
 10
1622.397291893001
 20
710.5311339359079
 30
0.0
 11
1622.190149035858
 21
706.8335148882891
 31
0.0
  0
POINT
  5
2AC4
330
18
100
AcDbEntity
  8
0
  6
BYBLOCK
100
AcDbPoint
 10
1642.942529988239
 20
711.5097053644794
 30
0.0
  0
POINT
  5
2AC5
330
18
100
AcDbEntity
  8
0
  6
BYBLOCK
100
AcDbPoint
 10
1642.942529988239
 20
711.5097053644794
 30
0.0
  0
LINE
  5
2AC6
330
18
100
AcDbEntity
  8
0
100
AcDbLine
 10
1656.190149035858
 20
691.5097053644794
 30
0.0
 11
1660.190149035858
 21
706.8335148882891
 31
0.0
  0
LINE
  5
2AC8
330
18
100
AcDbEntity
  8
0
100
AcDbLine
 10
1647.704434750144
 20
711.5097053644794
 30
0.0
 11
1647.704434750144
 21
711.5097053644794
 31
0.0
  0
LINE
  5
2AC9
330
18
100
AcDbEntity
  8
0
100
AcDbLine
 10
1659.985387131096
 20
710.5311339359079
 30
0.0
 11
1659.190149035858
 21
711.5097053644794
 31
0.0
  0
LINE
  5
2ACA
330
18
100
AcDbEntity
  8
0
100
AcDbLine
 10
1660.190149035858
 20
706.8335148882891
 30
0.0
 11
1659.985387131096
 21
710.5311339359079
 31
0.0
  0
LINE
  5
2ACB
330
18
100
AcDbEntity
  8
0
100
AcDbLine
 10
1684.190149035858
 20
691.5097053644794
 30
0.0
 11
1675.190149035858
 21
691.5097053644794
 31
0.0
  0
LINE
  5
2ACC
330
18
100
AcDbEntity
  8
0
100
AcDbLine
 10
1675.190149035858
 20
691.5097053644794
 30
0.0
 11
1670.641304971638
 21
686.960861300259
 31
0.0
  0
LINE
  5
2ACD
330
18
100
AcDbEntity
  8
0
100
AcDbLine
 10
1686.190149035858
 20
689.5097053644795
 30
0.0
 11
1684.190149035858
 21
691.5097053644794
 31
0.0
  0
POLYLINE
  5
2AD3
330
18
100
AcDbEntity
  8
0
100
AcDb2dPolyline
 66
     1
 10
0.0
 20
0.0
 30
0.0
 70
     1
  0
VERTEX
  5
3E5B
330
2AD3
100
AcDbEntity
  8
0
100
AcDbVertex
100
AcDb2dVertex
 10
1763.316061690842
 20
691.5097053644794
 30
0.0
  0
VERTEX
  5
3E5C
330
2AD3
100
AcDbEntity
  8
0
100
AcDbVertex
100
AcDb2dVertex
 10
1740.799401192447
 20
678.5097053644794
 30
0.0
  0
VERTEX
  5
3E5D
330
2AD3
100
AcDbEntity
  8
0
100
AcDbVertex
100
AcDb2dVertex
 10
1740.799401192447
 20
652.5097053644794
 30
0.0
  0
VERTEX
  5
3E5E
330
2AD3
100
AcDbEntity
  8
0
100
AcDbVertex
100
AcDb2dVertex
 10
1763.316061690842
 20
639.5097053644795
 30
0.0
  0
VERTEX
  5
3E5F
330
2AD3
100
AcDbEntity
  8
0
100
AcDbVertex
100
AcDb2dVertex
 10
1785.832722189238
 20
652.5097053644794
 30
0.0
  0
VERTEX
  5
3E60
330
2AD3
100
AcDbEntity
  8
0
100
AcDbVertex
100
AcDb2dVertex
 10
1785.832722189238
 20
678.5097053644794
 30
0.0
  0
SEQEND
  5
3E61
330
2AD3
100
AcDbEntity
  8
0
  0
LINE
  5
2AD4
330
18
100
AcDbEntity
  8
0
100
AcDbLine
 10
1763.316061690842
 20
711.5097053644794
 30
0.0
 11
1745.316061690842
 21
711.5097053644794
 31
0.0
  0
LINE
  5
2AD5
330
18
100
AcDbEntity
  8
0
100
AcDbLine
 10
1744.523204547985
 20
710.5311339359079
 30
0.0
 11
1782.11129978608
 21
710.5311339359079
 31
0.0
  0
LINE
  5
2AD6
330
18
100
AcDbEntity
  8
0
100
AcDbLine
 10
1782.316061690842
 20
706.8335148882889
 30
0.0
 11
1744.316061690842
 21
706.8335148882889
 31
0.0
  0
LINE
  5
2AD9
330
18
100
AcDbEntity
  8
0
100
AcDbLine
 10
1744.523204547985
 20
710.5311339359079
 30
0.0
 11
1744.316061690842
 21
706.8335148882891
 31
0.0
  0
LINE
  5
2ADA
330
18
100
AcDbEntity
  8
0
100
AcDbLine
 10
1745.316061690842
 20
711.5097053644794
 30
0.0
 11
1744.523204547985
 21
710.5311339359079
 31
0.0
  0
LINE
  5
2ADC
330
18
100
AcDbEntity
  8
0
100
AcDbLine
 10
1744.316061690842
 20
706.8335148882891
 30
0.0
 11
1748.316061690842
 21
691.5097053644794
 31
0.0
  0
LINE
  5
2ADE
330
18
100
AcDbEntity
  8
0
100
AcDbLine
 10
1781.316061690842
 20
711.5097053644794
 30
0.0
 11
1763.316061690842
 21
711.5097053644794
 31
0.0
  0
LINE
  5
2ADF
330
18
100
AcDbEntity
  8
0
100
AcDbLine
 10
1769.830347405128
 20
711.5097053644794
 30
0.0
 11
1769.830347405128
 21
711.5097053644794
 31
0.0
  0
POINT
  5
2AE0
330
18
100
AcDbEntity
  8
0
  6
BYBLOCK
100
AcDbPoint
 10
1765.068442643223
 20
711.5097053644794
 30
0.0
  0
POINT
  5
2AE1
330
18
100
AcDbEntity
  8
0
  6
BYBLOCK
100
AcDbPoint
 10
1765.068442643223
 20
711.5097053644794
 30
0.0
  0
LINE
  5
2AE2
330
18
100
AcDbEntity
  8
0
100
AcDbLine
 10
1782.316061690842
 20
706.8335148882891
 30
0.0
 11
1782.11129978608
 21
710.5311339359079
 31
0.0
  0
LINE
  5
2AE3
330
18
100
AcDbEntity
  8
0
100
AcDbLine
 10
1782.11129978608
 20
710.5311339359079
 30
0.0
 11
1781.316061690842
 21
711.5097053644794
 31
0.0
  0
LINE
  5
2AE5
330
18
100
AcDbEntity
  8
0
100
AcDbLine
 10
1778.316061690842
 20
691.5097053644794
 30
0.0
 11
1782.316061690842
 21
706.8335148882891
 31
0.0
  0
LINE
  5
2AF0
330
18
100
AcDbEntity
  8
0
100
AcDbLine
 10
1614.421495679157
 20
685.5097053644795
 30
0.0
 11
1623.128062538991
 21
685.5097053644795
 31
0.0
  0
LINE
  5
2AFC
330
18
100
AcDbEntity
  8
0
100
AcDbLine
 10
1748.14350876806
 20
689.0880098426302
 30
0.0
 11
1744.351226193007
 21
680.5603524846672
 31
0.0
  0
LINE
  5
2AFD
330
18
100
AcDbEntity
  8
0
100
AcDbLine
 10
1778.489805089814
 20
689.0853328340361
 30
0.0
 11
1782.280897188678
 21
680.5603524846672
 31
0.0
  0
ARC
  5
2AFE
330
18
100
AcDbEntity
  8
0
100
AcDbCircle
 10
1746.316061690842
 20
689.9006827042216
 30
0.0
 40
2.0
100
AcDbArc
 50
336.0250980827019
 51
0.0
  0
ARC
  5
2AFF
330
18
100
AcDbEntity
  8
0
100
AcDbCircle
 10
1780.317252167033
 20
689.8980056956276
 30
0.0
 40
2.0
100
AcDbArc
 50
180.0
 51
203.974901917298
  0
LINE
  5
2B00
330
18
100
AcDbEntity
  8
0
100
AcDbLine
 10
1748.316061690842
 20
691.5097053644794
 30
0.0
 11
1748.316061690842
 21
689.9006827042216
 31
0.0
  0
LINE
  5
2B01
330
18
100
AcDbEntity
  8
0
100
AcDbLine
 10
1778.316061690842
 20
691.5097053644794
 30
0.0
 11
1778.317252167033
 21
689.8980056956276
 31
0.0
  0
LINE
  5
2B02
330
18
100
AcDbEntity
  8
0
100
AcDbLine
 10
1626.018786589267
 20
689.0880098426301
 30
0.0
 11
1624.955509616209
 21
686.6970325028882
 31
0.0
  0
LINE
  5
2B03
330
18
100
AcDbEntity
  8
0
100
AcDbLine
 10
1626.191339512049
 20
691.5097053644793
 30
0.0
 11
1626.191339512049
 21
689.9006827042216
 31
0.0
  0
ARC
  5
2B04
330
18
100
AcDbEntity
  8
0
100
AcDbCircle
 10
1624.191339512049
 20
689.9006827042216
 30
0.0
 40
2.0
100
AcDbArc
 50
336.0250980827019
 51
0.0
  0
LINE
  5
2B05
330
18
100
AcDbEntity
  8
0
100
AcDbLine
 10
1656.365082911021
 20
689.0853328340361
 30
0.0
 11
1657.427169407889
 21
686.6970325028879
 31
0.0
  0
LINE
  5
2B06
330
18
100
AcDbEntity
  8
0
100
AcDbLine
 10
1656.191339512049
 20
691.5097053644793
 30
0.0
 11
1656.192529988239
 21
689.8980056956275
 31
0.0
  0
ARC
  5
2B07
330
18
100
AcDbEntity
  8
0
100
AcDbCircle
 10
1658.192529988239
 20
689.8980056956275
 30
0.0
 40
2.0
100
AcDbArc
 50
180.0
 51
203.974901917298
  0
ARC
  5
2B08
330
18
100
AcDbEntity
  8
0
100
AcDbCircle
 10
1623.128062538991
 20
687.5097053644796
 30
0.0
 40
2.0
100
AcDbArc
 50
270.0
 51
336.0250980827016
  0
ARC
  5
2B09
330
18
100
AcDbEntity
  8
0
100
AcDbCircle
 10
1659.254616485107
 20
687.5097053644793
 30
0.0
 40
2.0
100
AcDbArc
 50
203.9749019172984
 51
270.0
  0
LINE
  5
2B0C
330
18
100
AcDbEntity
  8
0
100
AcDbLine
 10
1748.314871214652
 20
641.1214050333314
 30
0.0
 11
1748.314871214652
 21
582.0097053644798
 31
0.0
  0
LINE
  5
2B18
330
18
100
AcDbEntity
  8
0
100
AcDbLine
 10
1778.314871214652
 20
582.0097053644798
 30
0.0
 11
1778.314871214652
 21
641.116051016143
 31
0.0
  0
LINE
  5
2B21
330
18
100
AcDbEntity
  8
0
100
AcDbLine
 10
1748.314871214652
 20
632.0882767930509
 30
0.0
 11
1778.314871214652
 21
632.0882767930509
 31
0.0
  0
LINE
  5
2B3E
330
18
100
AcDbEntity
  8
0
100
AcDbLine
 10
1747.49452263253
 20
581.5097053644795
 30
0.0
 11
1779.137600749155
 21
581.5097053644797
 31
0.0
  0
ARC
  5
2B3F
330
18
100
AcDbEntity
  8
0
100
AcDbCircle
 10
1754.657354126933
 20
561.7485429893771
 30
0.0
 40
19.76116237510232
100
AcDbArc
 50
63.99965133804855
 51
116.0003486619511
  0
LINE
  5
2B40
330
18
100
AcDbEntity
  8
0
100
AcDbLine
 10
1745.99452263253
 20
580.0097053644796
 30
0.0
 11
1745.99452263253
 21
573.4915278753019
 31
0.0
  0
ARC
  5
2B41
330
18
100
AcDbEntity
  8
0
100
AcDbCircle
 10
1747.49452263253
 20
580.0097053644796
 30
0.0
 40
1.5
100
AcDbArc
 50
90.00000000000019
 51
179.9999999999994
  0
LINE
  5
2B42
330
18
100
AcDbEntity
  8
0
100
AcDbLine
 10
1780.637600749155
 20
580.0097053644797
 30
0.0
 11
1780.637600749154
 21
573.491527875302
 31
0.0
  0
LINE
  5
2B43
330
18
100
AcDbEntity
  8
0
100
AcDbLine
 10
1763.320185621337
 20
579.5097053644789
 30
0.0
 11
1763.320185621337
 21
571.5097053644795
 31
0.0
  0
ARC
  5
2B44
330
18
100
AcDbEntity
  8
0
100
AcDbCircle
 10
1779.137600749155
 20
580.0097053644797
 30
0.0
 40
1.5
100
AcDbArc
 50
0.0
 51
90.00000000000019
  0
ARC
  5
2B45
330
18
100
AcDbEntity
  8
0
100
AcDbCircle
 10
1771.98301711574
 20
561.7485429893771
 30
0.0
 40
19.76116237510232
100
AcDbArc
 50
63.99965133804887
 51
116.0003486619514
  0
ARC
  5
2B46
330
18
100
AcDbEntity
  8
0
100
AcDbCircle
 10
1744.012700121707
 20
573.4915278753019
 30
0.0
 40
1.981822510822503
100
AcDbArc
 50
270.0
 51
0.0
  0
ARC
  5
2B47
330
18
100
AcDbEntity
  8
0
100
AcDbCircle
 10
1782.619423259977
 20
573.491527875302
 30
0.0
 40
1.981822510822496
100
AcDbArc
 50
180.0
 51
270.0
  0
ARC
  5
2B48
330
18
100
AcDbEntity
  8
0
100
AcDbCircle
 10
1747.814871214652
 20
582.0097053644798
 30
0.0
 40
0.5
100
AcDbArc
 50
270.0
 51
0.0
  0
ARC
  5
2B49
330
18
100
AcDbEntity
  8
0
100
AcDbCircle
 10
1778.814871214652
 20
582.0097053644798
 30
0.0
 40
0.5
100
AcDbArc
 50
180.0
 51
270.0
  0
LINE
  5
2B4A
330
18
100
AcDbEntity
  8
0
100
AcDbLine
 10
1748.14231829187
 20
641.9340778949228
 30
0.0
 11
1744.351226193007
 21
650.4590582442918
 31
0.0
  0
LINE
  5
2B4B
330
18
100
AcDbEntity
  8
0
100
AcDbLine
 10
1778.487424137434
 20
641.9287238777344
 30
0.0
 11
1782.280897188678
 21
650.4590582442918
 31
0.0
  0
ARC
  5
2B4C
330
18
100
AcDbEntity
  8
0
100
AcDbCircle
 10
1780.314871214652
 20
641.116051016143
 30
0.0
 40
2.0
100
AcDbArc
 50
156.0250980827015
 51
180.0
  0
ARC
  5
2B4D
330
18
100
AcDbEntity
  8
0
100
AcDbCircle
 10
1746.314871214652
 20
641.1214050333314
 30
0.0
 40
2.0
100
AcDbArc
 50
0.0
 51
23.97490191729834
  0
LINE
  5
2BC2
330
18
100
AcDbEntity
  8
0
100
AcDbLine
 10
1794.320185621336
 20
537.4915278753019
 30
0.0
 11
1794.320185621337
 21
569.5097053644794
 31
0.0
  0
LINE
  5
2BC3
330
18
100
AcDbEntity
  8
0
100
AcDbLine
 10
1732.320185621337
 20
569.5097053644794
 30
0.0
 11
1732.320185621337
 21
537.4915278753019
 31
0.0
  0
LINE
  5
2BC4
330
18
100
AcDbEntity
  8
0
100
AcDbLine
 10
1737.382090383241
 20
535.5097053644795
 30
0.0
 11
1789.258280859431
 21
535.5097053644795
 31
0.0
  0
LINE
  5
2BC5
330
18
100
AcDbEntity
  8
0
100
AcDbLine
 10
1742.320185621336
 20
445.5097053644794
 30
0.0
 11
1784.320185621337
 21
445.5097053644794
 31
0.0
  0
LINE
  5
2BC6
330
18
100
AcDbEntity
  8
0
100
AcDbLine
 10
1741.320185621336
 20
469.5097053644794
 30
0.0
 11
1785.320185621336
 21
469.5097053644794
 31
0.0
  0
LINE
  5
2BC7
330
18
100
AcDbEntity
  8
0
100
AcDbLine
 10
1741.320185621336
 20
471.5097053644795
 30
0.0
 11
1785.320185621336
 21
471.5097053644795
 31
0.0
  0
LINE
  5
2BC8
330
18
100
AcDbEntity
  8
0
100
AcDbLine
 10
1739.379162497313
 20
533.589817091763
 30
0.0
 11
1741.320185621336
 21
471.5097053644795
 31
0.0
  0
LINE
  5
2BC9
330
18
100
AcDbEntity
  8
0
100
AcDbLine
 10
1741.320185621336
 20
469.5097053644794
 30
0.0
 11
1741.320185621336
 21
446.5097053644795
 31
0.0
  0
LINE
  5
2BCA
330
18
100
AcDbEntity
  8
0
100
AcDbLine
 10
1743.820185621336
 20
446.5097053644795
 30
0.0
 11
1743.820185621336
 21
467.0097053644794
 31
0.0
  0
LINE
  5
2BCB
330
18
100
AcDbEntity
  8
0
100
AcDbLine
 10
1747.320185621336
 20
467.0097053644794
 30
0.0
 11
1747.320185621336
 21
446.5097053644795
 31
0.0
  0
LINE
  5
2BCC
330
18
100
AcDbEntity
  8
0
100
AcDbLine
 10
1749.820185621336
 20
446.5097053644795
 30
0.0
 11
1749.820185621336
 21
467.0097053644794
 31
0.0
  0
LINE
  5
2BCD
330
18
100
AcDbEntity
  8
0
100
AcDbLine
 10
1753.320185621336
 20
467.0097053644794
 30
0.0
 11
1753.320185621336
 21
446.5097053644795
 31
0.0
  0
LINE
  5
2BCE
330
18
100
AcDbEntity
  8
0
100
AcDbLine
 10
1753.320185621336
 20
446.5097053644795
 30
0.0
 11
1749.820185621336
 21
446.5097053644795
 31
0.0
  0
LINE
  5
2BCF
330
18
100
AcDbEntity
  8
0
100
AcDbLine
 10
1741.320185621336
 20
446.5097053644795
 30
0.0
 11
1742.320185621336
 21
445.5097053644794
 31
0.0
  0
LINE
  5
2BD0
330
18
100
AcDbEntity
  8
0
100
AcDbLine
 10
1747.320185621336
 20
446.5097053644795
 30
0.0
 11
1743.820185621336
 21
446.5097053644795
 31
0.0
  0
LINE
  5
2BD1
330
18
100
AcDbEntity
  8
0
100
AcDbLine
 10
1749.820185621336
 20
467.0097053644794
 30
0.0
 11
1753.320185621336
 21
467.0097053644794
 31
0.0
  0
LINE
  5
2BD2
330
18
100
AcDbEntity
  8
0
100
AcDbLine
 10
1741.320185621336
 20
471.5097053644795
 30
0.0
 11
1741.320185621336
 21
469.5097053644794
 31
0.0
  0
LINE
  5
2BD3
330
18
100
AcDbEntity
  8
0
100
AcDbLine
 10
1743.820185621336
 20
467.0097053644794
 30
0.0
 11
1747.320185621336
 21
467.0097053644794
 31
0.0
  0
ARC
  5
2BD4
330
18
100
AcDbEntity
  8
0
100
AcDbCircle
 10
1734.302008132159
 20
537.4915278753019
 30
0.0
 40
1.981822510822503
100
AcDbArc
 50
180.0
 51
270.0
  0
LINE
  5
2BD5
330
18
100
AcDbEntity
  8
0
100
AcDbLine
 10
1734.302008132159
 20
535.5097053644795
 30
0.0
 11
1737.398307981061
 21
535.5097053644795
 31
0.0
  0
ARC
  5
2BD6
330
18
100
AcDbEntity
  8
0
100
AcDbCircle
 10
1737.398307981061
 20
533.5278828536569
 30
0.0
 40
1.98182251082251
100
AcDbArc
 50
1.790850742120779
 51
90.0
  0
LINE
  5
2BD7
330
18
100
AcDbEntity
  8
0
100
AcDbLine
 10
1785.320185621336
 20
471.5097053644795
 30
0.0
 11
1787.26120874536
 21
533.589817091763
 31
0.0
  0
LINE
  5
2BD8
330
18
100
AcDbEntity
  8
0
100
AcDbLine
 10
1785.320185621336
 20
446.5097053644795
 30
0.0
 11
1785.320185621336
 21
469.5097053644794
 31
0.0
  0
LINE
  5
2BD9
330
18
100
AcDbEntity
  8
0
100
AcDbLine
 10
1779.820185621336
 20
446.5097053644795
 30
0.0
 11
1779.820185621336
 21
467.0097053644794
 31
0.0
  0
LINE
  5
2BDA
330
18
100
AcDbEntity
  8
0
100
AcDbLine
 10
1783.320185621336
 20
467.0097053644794
 30
0.0
 11
1783.320185621336
 21
446.5097053644795
 31
0.0
  0
LINE
  5
2BDB
330
18
100
AcDbEntity
  8
0
100
AcDbLine
 10
1773.820185621336
 20
446.5097053644795
 30
0.0
 11
1773.820185621336
 21
467.0097053644794
 31
0.0
  0
LINE
  5
2BDC
330
18
100
AcDbEntity
  8
0
100
AcDbLine
 10
1777.320185621336
 20
467.0097053644794
 30
0.0
 11
1777.320185621336
 21
446.5097053644795
 31
0.0
  0
LINE
  5
2BDD
330
18
100
AcDbEntity
  8
0
100
AcDbLine
 10
1767.820185621337
 20
446.5097053644795
 30
0.0
 11
1767.820185621337
 21
467.0097053644794
 31
0.0
  0
LINE
  5
2BDE
330
18
100
AcDbEntity
  8
0
100
AcDbLine
 10
1771.320185621337
 20
467.0097053644794
 30
0.0
 11
1771.320185621337
 21
446.5097053644795
 31
0.0
  0
LINE
  5
2BDF
330
18
100
AcDbEntity
  8
0
100
AcDbLine
 10
1755.820185621336
 20
446.5097053644795
 30
0.0
 11
1755.820185621336
 21
467.0097053644794
 31
0.0
  0
LINE
  5
2BE0
330
18
100
AcDbEntity
  8
0
100
AcDbLine
 10
1759.320185621336
 20
467.0097053644794
 30
0.0
 11
1759.320185621336
 21
446.5097053644795
 31
0.0
  0
LINE
  5
2BE1
330
18
100
AcDbEntity
  8
0
100
AcDbLine
 10
1761.820185621336
 20
446.5097053644795
 30
0.0
 11
1761.820185621336
 21
467.0097053644794
 31
0.0
  0
LINE
  5
2BE2
330
18
100
AcDbEntity
  8
0
100
AcDbLine
 10
1765.320185621336
 20
467.0097053644794
 30
0.0
 11
1765.320185621336
 21
446.5097053644795
 31
0.0
  0
LINE
  5
2BE3
330
18
100
AcDbEntity
  8
0
100
AcDbLine
 10
1777.320185621336
 20
446.5097053644795
 30
0.0
 11
1773.820185621336
 21
446.5097053644795
 31
0.0
  0
POINT
  5
2BE4
330
18
100
AcDbEntity
  8
0
  6
BYBLOCK
100
AcDbPoint
 10
1774.165423716575
 20
445.5097053644794
 30
0.0
  0
LINE
  5
2BE5
330
18
100
AcDbEntity
  8
0
100
AcDbLine
 10
1771.320185621337
 20
446.5097053644795
 30
0.0
 11
1767.820185621337
 21
446.5097053644795
 31
0.0
  0
LINE
  5
2BE6
330
18
100
AcDbEntity
  8
0
100
AcDbLine
 10
1765.320185621336
 20
446.5097053644795
 30
0.0
 11
1761.820185621336
 21
446.5097053644795
 31
0.0
  0
LINE
  5
2BE7
330
18
100
AcDbEntity
  8
0
100
AcDbLine
 10
1759.320185621336
 20
446.5097053644795
 30
0.0
 11
1755.820185621336
 21
446.5097053644795
 31
0.0
  0
LINE
  5
2BE8
330
18
100
AcDbEntity
  8
0
100
AcDbLine
 10
1783.320185621336
 20
446.5097053644795
 30
0.0
 11
1779.820185621336
 21
446.5097053644795
 31
0.0
  0
LINE
  5
2BE9
330
18
100
AcDbEntity
  8
0
100
AcDbLine
 10
1784.320185621337
 20
445.5097053644794
 30
0.0
 11
1785.320185621336
 21
446.5097053644795
 31
0.0
  0
LINE
  5
2BEA
330
18
100
AcDbEntity
  8
0
100
AcDbLine
 10
1778.927328478479
 20
445.5097053644794
 30
0.0
 11
1778.927328478479
 21
445.5097053644794
 31
0.0
  0
LINE
  5
2BEB
330
18
100
AcDbEntity
  8
0
100
AcDbLine
 10
1773.820185621336
 20
467.0097053644794
 30
0.0
 11
1777.320185621336
 21
467.0097053644794
 31
0.0
  0
LINE
  5
2BEC
330
18
100
AcDbEntity
  8
0
100
AcDbLine
 10
1767.820185621337
 20
467.0097053644794
 30
0.0
 11
1771.320185621337
 21
467.0097053644794
 31
0.0
  0
LINE
  5
2BED
330
18
100
AcDbEntity
  8
0
100
AcDbLine
 10
1761.820185621336
 20
467.0097053644794
 30
0.0
 11
1765.320185621336
 21
467.0097053644794
 31
0.0
  0
LINE
  5
2BEE
330
18
100
AcDbEntity
  8
0
100
AcDbLine
 10
1755.820185621336
 20
467.0097053644794
 30
0.0
 11
1759.320185621336
 21
467.0097053644794
 31
0.0
  0
LINE
  5
2BEF
330
18
100
AcDbEntity
  8
0
100
AcDbLine
 10
1785.320185621336
 20
469.5097053644794
 30
0.0
 11
1785.320185621336
 21
471.5097053644795
 31
0.0
  0
LINE
  5
2BF0
330
18
100
AcDbEntity
  8
0
100
AcDbLine
 10
1785.320185621336
 20
471.5097053644795
 30
0.0
 11
1785.320185621336
 21
469.5097053644794
 31
0.0
  0
LINE
  5
2BF1
330
18
100
AcDbEntity
  8
0
100
AcDbLine
 10
1779.820185621336
 20
467.0097053644794
 30
0.0
 11
1783.320185621336
 21
467.0097053644794
 31
0.0
  0
ARC
  5
2BF2
330
18
100
AcDbEntity
  8
0
100
AcDbCircle
 10
1792.338363110514
 20
537.4915278753019
 30
0.0
 40
1.981822510822496
100
AcDbArc
 50
270.0
 51
0.0
  0
ARC
  5
2BF3
330
18
100
AcDbEntity
  8
0
100
AcDbCircle
 10
1789.242063261611
 20
533.5278828536569
 30
0.0
 40
1.981822510822524
100
AcDbArc
 50
90.0
 51
178.2091492578792
  0
LINE
  5
2BF4
330
18
100
AcDbEntity
  8
0
100
AcDbLine
 10
1789.242063261611
 20
535.5097053644795
 30
0.0
 11
1792.338363110514
 21
535.5097053644795
 31
0.0
  0
LINE
  5
2BF5
330
18
100
AcDbEntity
  8
0
100
AcDbLine
 10
1732.320185621337
 20
563.5097053644795
 30
0.0
 11
1794.343995145146
 21
563.5097053644795
 31
0.0
  0
LINE
  5
2BF6
330
18
100
AcDbEntity
  8
0
100
AcDbLine
 10
1794.320185621336
 20
569.5097053644794
 30
0.0
 11
1732.320185621337
 21
569.5097053644794
 31
0.0
  0
LINE
  5
2BF7
330
18
100
AcDbEntity
  8
0
100
AcDbLine
 10
1741.320185621336
 20
571.5097053644795
 30
0.0
 11
1785.320185621336
 21
571.5097053644795
 31
0.0
  0
LINE
  5
2BF8
330
18
100
AcDbEntity
  8
0
100
AcDbLine
 10
1732.320185621337
 20
550.5097053644795
 30
0.0
 11
1794.320185621336
 21
550.5097053644795
 31
0.0
  0
LINE
  5
2BF9
330
18
100
AcDbEntity
  8
0
100
AcDbLine
 10
1734.320185621337
 20
571.5097053644795
 30
0.0
 11
1732.320185621337
 21
569.5097053644794
 31
0.0
  0
LINE
  5
2C0A
330
18
100
AcDbEntity
  8
0
100
AcDbLine
 10
1741.338363110514
 20
571.5097053644795
 30
0.0
 11
1734.320185621337
 21
571.5097053644795
 31
0.0
  0
LINE
  5
2C10
330
18
100
AcDbEntity
  8
0
100
AcDbLine
 10
1794.343995145146
 20
569.5097053644794
 30
0.0
 11
1792.320185621336
 21
571.5097053644795
 31
0.0
  0
LINE
  5
2C12
330
18
100
AcDbEntity
  8
0
100
AcDbLine
 10
1794.343995145146
 20
569.5097053644794
 30
0.0
 11
1794.320185621336
 21
569.5097053644794
 31
0.0
  0
LINE
  5
2C16
330
18
100
AcDbEntity
  8
0
100
AcDbLine
 10
1792.320185621336
 20
571.5097053644795
 30
0.0
 11
1785.302008132159
 21
571.5097053644793
 31
0.0
  0
LINE
  5
2C1C
330
18
100
AcDbEntity
  8
0
100
AcDbLine
 10
1735.320185621336
 20
563.5097053644795
 30
0.0
 11
1735.320185621336
 21
550.5097053644795
 31
0.0
  0
LINE
  5
2C1D
330
18
100
AcDbEntity
  8
0
100
AcDbLine
 10
1791.320185621336
 20
550.5097053644795
 30
0.0
 11
1791.320185621336
 21
563.5097053644796
 31
0.0
  0
CIRCLE
  5
2C1E
330
18
100
AcDbEntity
  8
0
100
AcDbCircle
 10
1641.190149035858
 20
780.6030969432556
 30
0.0
 40
18.0
  0
CIRCLE
  5
2C1F
330
18
100
AcDbEntity
  8
0
100
AcDbCircle
 10
1641.190149035858
 20
780.6030969432556
 30
0.0
 40
18.79404761904766
  0
CIRCLE
  5
2C20
330
18
100
AcDbEntity
  8
0
100
AcDbCircle
 10
1641.190149035858
 20
780.6030969432556
 30
0.0
 40
18.99880952380954
  0
CIRCLE
  5
2C22
330
18
100
AcDbEntity
  8
0
100
AcDbCircle
 10
1641.190149035858
 20
780.6030969432556
 30
0.0
 40
22.51666049839542
  0
LINE
  5
2C23
330
18
100
AcDbEntity
  8
0
100
AcDbLine
 10
1675.511577607287
 20
780.6030969432556
 30
0.0
 11
1684.190149035858
 21
780.6030969432558
 31
0.0
  0
LINE
  5
2C26
330
18
100
AcDbEntity
  8
0
100
AcDbLine
 10
1667.137904630361
 20
800.6030969432558
 30
0.0
 11
1652.240034238442
 21
800.6030969432554
 31
0.0
  0
LINE
  5
2C27
330
18
100
AcDbEntity
  8
0
100
AcDbLine
 10
1652.240034238442
 20
760.6030969432558
 30
0.0
 11
1667.137904630361
 21
760.6030969432557
 31
0.0
  0
ARC
  5
2C2A
330
18
100
AcDbEntity
  8
0
100
AcDbCircle
 10
1652.240034238442
 20
803.6030969432555
 30
0.0
 40
3.0
100
AcDbArc
 50
244.3389835246464
 51
270.0000000000021
  0
ARC
  5
2C2B
330
18
100
AcDbEntity
  8
0
100
AcDbCircle
 10
1652.240034238442
 20
757.6030969432557
 30
0.0
 40
3.0
100
AcDbArc
 50
90.0
 51
115.6610164753544
  0
LINE
  5
2C2C
330
18
100
AcDbEntity
  8
0
100
AcDbLine
 10
1686.190149035858
 20
760.0864364448601
 30
0.0
 11
1686.190149035858
 21
801.119757441651
 31
0.0
  0
LINE
  5
2C2F
330
18
100
AcDbEntity
  8
0
100
AcDbLine
 10
1684.190149035858
 20
803.1197574416509
 30
0.0
 11
1675.511577607287
 21
803.1197574416509
 31
0.0
  0
LINE
  5
2C30
330
18
100
AcDbEntity
  8
0
100
AcDbLine
 10
1684.190149035858
 20
758.0864364448602
 30
0.0
 11
1675.511577607292
 21
758.0864364448607
 31
0.0
  0
ARC
  5
2C33
330
18
100
AcDbEntity
  8
0
100
AcDbCircle
 10
1653.502649035859
 20
791.8614271924536
 30
0.0
 40
32.6874999999992
100
AcDbArc
 50
339.8534160544343
 51
20.14658394556526
  0
ARC
  5
2C34
330
18
100
AcDbEntity
  8
0
100
AcDbCircle
 10
1653.502649035856
 20
769.3447666940652
 30
0.0
 40
32.6874999999992
100
AcDbArc
 50
339.8534160544217
 51
20.14658394555268
  0
LINE
  5
2C38
330
18
100
AcDbEntity
  8
0
100
AcDbLine
 10
1684.190149035858
 20
803.1197574416509
 30
0.0
 11
1686.190149035858
 21
801.119757441651
 31
0.0
  0
LINE
  5
2C39
330
18
100
AcDbEntity
  8
0
100
AcDbLine
 10
1686.190149035858
 20
760.0864364448601
 30
0.0
 11
1684.190149035858
 21
758.0864364448602
 31
0.0
  0
ARC
  5
2C3A
330
18
100
AcDbEntity
  8
0
100
AcDbCircle
 10
1706.199077607286
 20
791.8614271924536
 30
0.0
 40
32.6874999999992
100
AcDbArc
 50
159.8534160544347
 51
200.1465839455657
  0
ARC
  5
2C3B
330
18
100
AcDbEntity
  8
0
100
AcDbCircle
 10
1706.199077607289
 20
769.3447666940652
 30
0.0
 40
32.6874999999992
100
AcDbArc
 50
159.8534160544473
 51
200.1465839455783
  0
LINE
  5
2C3C
330
18
100
AcDbEntity
  8
0
100
AcDbLine
 10
1667.137904630361
 20
800.6030969432558
 30
0.0
 11
1667.137904630361
 21
760.6030969432558
 31
0.0
  0
LINE
  5
2C3D
330
18
100
AcDbEntity
  8
0
100
AcDbLine
 10
1667.137904630361
 20
760.6030969432557
 30
0.0
 11
1675.511577607292
 21
758.0864364448607
 31
0.0
  0
LINE
  5
2C3E
330
18
100
AcDbEntity
  8
0
100
AcDbLine
 10
1675.511577607287
 20
803.1197574416513
 30
0.0
 11
1667.137904630361
 21
800.6030969432558
 31
0.0
  0
LINE
  5
2C40
330
18
100
AcDbEntity
  8
0
100
AcDbLine
 10
1606.86872046443
 20
803.1197574416513
 30
0.0
 11
1615.242393441356
 21
800.6030969432558
 31
0.0
  0
LINE
  5
2C41
330
18
100
AcDbEntity
  8
0
100
AcDbLine
 10
1615.242393441356
 20
800.6030969432558
 30
0.0
 11
1630.140263833275
 21
800.6030969432554
 31
0.0
  0
ARC
  5
2C42
330
18
100
AcDbEntity
  8
0
100
AcDbCircle
 10
1630.140263833275
 20
803.6030969432555
 30
0.0
 40
3.0
100
AcDbArc
 50
269.9999999999978
 51
295.6610164753535
  0
LINE
  5
2C43
330
18
100
AcDbEntity
  8
0
100
AcDbLine
 10
1598.190149035858
 20
803.1197574416509
 30
0.0
 11
1606.86872046443
 21
803.1197574416509
 31
0.0
  0
LINE
  5
2C44
330
18
100
AcDbEntity
  8
0
100
AcDbLine
 10
1598.190149035858
 20
803.1197574416509
 30
0.0
 11
1596.190149035858
 21
801.119757441651
 31
0.0
  0
LINE
  5
2C45
330
18
100
AcDbEntity
  8
0
100
AcDbLine
 10
1615.242393441356
 20
800.6030969432558
 30
0.0
 11
1615.242393441356
 21
760.6030969432558
 31
0.0
  0
ARC
  5
2C46
330
18
100
AcDbEntity
  8
0
100
AcDbCircle
 10
1576.18122046443
 20
791.8614271924536
 30
0.0
 40
32.6874999999992
100
AcDbArc
 50
339.8534160544343
 51
20.14658394556527
  0
LINE
  5
2C47
330
18
100
AcDbEntity
  8
0
100
AcDbLine
 10
1596.190149035858
 20
760.0864364448601
 30
0.0
 11
1596.190149035858
 21
801.119757441651
 31
0.0
  0
ARC
  5
2C48
330
18
100
AcDbEntity
  8
0
100
AcDbCircle
 10
1628.877649035858
 20
791.8614271924536
 30
0.0
 40
32.6874999999992
100
AcDbArc
 50
159.8534160544347
 51
200.1465839455657
  0
LINE
  5
2C49
330
18
100
AcDbEntity
  8
0
100
AcDbLine
 10
1615.242393441356
 20
760.6030969432557
 30
0.0
 11
1606.868720464424
 21
758.0864364448607
 31
0.0
  0
ARC
  5
2C4A
330
18
100
AcDbEntity
  8
0
100
AcDbCircle
 10
1576.181220464428
 20
769.3447666940652
 30
0.0
 40
32.6874999999992
100
AcDbArc
 50
339.8534160544217
 51
20.1465839455527
  0
ARC
  5
2C4B
330
18
100
AcDbEntity
  8
0
100
AcDbCircle
 10
1628.87764903586
 20
769.3447666940652
 30
0.0
 40
32.6874999999992
100
AcDbArc
 50
159.8534160544473
 51
200.1465839455783
  0
LINE
  5
2C4C
330
18
100
AcDbEntity
  8
0
100
AcDbLine
 10
1598.190149035858
 20
758.0864364448602
 30
0.0
 11
1606.868720464424
 21
758.0864364448607
 31
0.0
  0
LINE
  5
2C4D
330
18
100
AcDbEntity
  8
0
100
AcDbLine
 10
1596.190149035858
 20
760.0864364448601
 30
0.0
 11
1598.190149035858
 21
758.0864364448602
 31
0.0
  0
LINE
  5
2C4E
330
18
100
AcDbEntity
  8
0
100
AcDbLine
 10
1606.868720464429
 20
780.6030969432556
 30
0.0
 11
1598.190149035858
 21
780.6030969432558
 31
0.0
  0
LINE
  5
2C4F
330
18
100
AcDbEntity
  8
0
100
AcDbLine
 10
1630.140263833275
 20
760.6030969432558
 30
0.0
 11
1615.242393441356
 21
760.6030969432557
 31
0.0
  0
ARC
  5
2C50
330
18
100
AcDbEntity
  8
0
100
AcDbCircle
 10
1630.140263833275
 20
757.6030969432557
 30
0.0
 40
3.0
100
AcDbArc
 50
64.33898352464552
 51
90.0
  0
ARC
  5
2C51
330
18
100
AcDbEntity
  8
0
100
AcDbCircle
 10
1641.190149035858
 20
780.6030969432556
 30
0.0
 40
31.00000000000005
100
AcDbArc
 50
40.17776954014759
 51
139.8222304598521
  0
ARC
  5
2C52
330
18
100
AcDbEntity
  8
0
100
AcDbCircle
 10
1641.190149035858
 20
780.6030969432556
 30
0.0
 40
31.00000000000005
100
AcDbArc
 50
220.1777695401473
 51
319.8222304598527
  0
CIRCLE
  5
2C55
330
18
100
AcDbEntity
  8
0
100
AcDbCircle
 10
1763.316061690842
 20
665.5097053644794
 30
0.0
 40
22.51666049839539
  0
LINE
  5
2C56
330
18
100
AcDbEntity
  8
0
100
AcDbLine
 10
1488.06011245038
 20
537.4915278753019
 30
0.0
 11
1488.06011245038
 21
569.5097053644794
 31
0.0
  0
LINE
  5
2C57
330
18
100
AcDbEntity
  8
0
100
AcDbLine
 10
1550.06011245038
 20
569.5097053644794
 30
0.0
 11
1550.06011245038
 21
537.4915278753019
 31
0.0
  0
LINE
  5
2C58
330
18
100
AcDbEntity
  8
0
100
AcDbLine
 10
1497.06011245038
 20
471.5097053644795
 30
0.0
 11
1495.119089326357
 21
533.589817091763
 31
0.0
  0
LINE
  5
2C59
330
18
100
AcDbEntity
  8
0
100
AcDbLine
 10
1543.001135574404
 20
533.589817091763
 30
0.0
 11
1541.06011245038
 21
471.5097053644795
 31
0.0
  0
LINE
  5
2C5A
330
18
100
AcDbEntity
  8
0
100
AcDbLine
 10
1541.06011245038
 20
471.5097053644795
 30
0.0
 11
1497.06011245038
 21
471.5097053644795
 31
0.0
  0
LINE
  5
2C5B
330
18
100
AcDbEntity
  8
0
100
AcDbLine
 10
1541.06011245038
 20
469.5097053644794
 30
0.0
 11
1497.06011245038
 21
469.5097053644794
 31
0.0
  0
LINE
  5
2C5C
330
18
100
AcDbEntity
  8
0
100
AcDbLine
 10
1540.06011245038
 20
445.5097053644794
 30
0.0
 11
1498.06011245038
 21
445.5097053644794
 31
0.0
  0
LINE
  5
2C5D
330
18
100
AcDbEntity
  8
0
100
AcDbLine
 10
1529.06011245038
 20
467.0097053644794
 30
0.0
 11
1529.06011245038
 21
446.5097053644795
 31
0.0
  0
LINE
  5
2C5E
330
18
100
AcDbEntity
  8
0
100
AcDbLine
 10
1532.56011245038
 20
446.5097053644795
 30
0.0
 11
1532.56011245038
 21
467.0097053644794
 31
0.0
  0
LINE
  5
2C5F
330
18
100
AcDbEntity
  8
0
100
AcDbLine
 10
1535.06011245038
 20
467.0097053644794
 30
0.0
 11
1535.06011245038
 21
446.5097053644795
 31
0.0
  0
LINE
  5
2C60
330
18
100
AcDbEntity
  8
0
100
AcDbLine
 10
1538.56011245038
 20
446.5097053644795
 30
0.0
 11
1538.56011245038
 21
467.0097053644794
 31
0.0
  0
LINE
  5
2C61
330
18
100
AcDbEntity
  8
0
100
AcDbLine
 10
1541.06011245038
 20
469.5097053644794
 30
0.0
 11
1541.06011245038
 21
446.5097053644795
 31
0.0
  0
LINE
  5
2C62
330
18
100
AcDbEntity
  8
0
100
AcDbLine
 10
1535.06011245038
 20
446.5097053644795
 30
0.0
 11
1538.56011245038
 21
446.5097053644795
 31
0.0
  0
LINE
  5
2C63
330
18
100
AcDbEntity
  8
0
100
AcDbLine
 10
1541.06011245038
 20
446.5097053644795
 30
0.0
 11
1540.06011245038
 21
445.5097053644794
 31
0.0
  0
LINE
  5
2C64
330
18
100
AcDbEntity
  8
0
100
AcDbLine
 10
1529.06011245038
 20
446.5097053644795
 30
0.0
 11
1532.56011245038
 21
446.5097053644795
 31
0.0
  0
LINE
  5
2C65
330
18
100
AcDbEntity
  8
0
100
AcDbLine
 10
1538.56011245038
 20
467.0097053644794
 30
0.0
 11
1535.06011245038
 21
467.0097053644794
 31
0.0
  0
LINE
  5
2C66
330
18
100
AcDbEntity
  8
0
100
AcDbLine
 10
1541.06011245038
 20
471.5097053644795
 30
0.0
 11
1541.06011245038
 21
469.5097053644794
 31
0.0
  0
LINE
  5
2C67
330
18
100
AcDbEntity
  8
0
100
AcDbLine
 10
1532.56011245038
 20
467.0097053644794
 30
0.0
 11
1529.06011245038
 21
467.0097053644794
 31
0.0
  0
LINE
  5
2C68
330
18
100
AcDbEntity
  8
0
100
AcDbLine
 10
1517.06011245038
 20
467.0097053644794
 30
0.0
 11
1517.06011245038
 21
446.5097053644795
 31
0.0
  0
LINE
  5
2C69
330
18
100
AcDbEntity
  8
0
100
AcDbLine
 10
1520.56011245038
 20
446.5097053644795
 30
0.0
 11
1520.56011245038
 21
467.0097053644794
 31
0.0
  0
LINE
  5
2C6A
330
18
100
AcDbEntity
  8
0
100
AcDbLine
 10
1523.06011245038
 20
467.0097053644794
 30
0.0
 11
1523.06011245038
 21
446.5097053644795
 31
0.0
  0
LINE
  5
2C6B
330
18
100
AcDbEntity
  8
0
100
AcDbLine
 10
1526.56011245038
 20
446.5097053644795
 30
0.0
 11
1526.56011245038
 21
467.0097053644794
 31
0.0
  0
LINE
  5
2C6C
330
18
100
AcDbEntity
  8
0
100
AcDbLine
 10
1511.06011245038
 20
467.0097053644794
 30
0.0
 11
1511.06011245038
 21
446.5097053644795
 31
0.0
  0
LINE
  5
2C6D
330
18
100
AcDbEntity
  8
0
100
AcDbLine
 10
1514.56011245038
 20
446.5097053644795
 30
0.0
 11
1514.56011245038
 21
467.0097053644794
 31
0.0
  0
LINE
  5
2C6E
330
18
100
AcDbEntity
  8
0
100
AcDbLine
 10
1505.06011245038
 20
467.0097053644794
 30
0.0
 11
1505.06011245038
 21
446.5097053644795
 31
0.0
  0
LINE
  5
2C6F
330
18
100
AcDbEntity
  8
0
100
AcDbLine
 10
1508.56011245038
 20
446.5097053644795
 30
0.0
 11
1508.56011245038
 21
467.0097053644794
 31
0.0
  0
LINE
  5
2C70
330
18
100
AcDbEntity
  8
0
100
AcDbLine
 10
1499.06011245038
 20
467.0097053644794
 30
0.0
 11
1499.06011245038
 21
446.5097053644795
 31
0.0
  0
LINE
  5
2C71
330
18
100
AcDbEntity
  8
0
100
AcDbLine
 10
1502.56011245038
 20
446.5097053644795
 30
0.0
 11
1502.56011245038
 21
467.0097053644794
 31
0.0
  0
LINE
  5
2C72
330
18
100
AcDbEntity
  8
0
100
AcDbLine
 10
1497.06011245038
 20
446.5097053644795
 30
0.0
 11
1497.06011245038
 21
469.5097053644794
 31
0.0
  0
LINE
  5
2C73
330
18
100
AcDbEntity
  8
0
100
AcDbLine
 10
1505.06011245038
 20
446.5097053644795
 30
0.0
 11
1508.56011245038
 21
446.5097053644795
 31
0.0
  0
LINE
  5
2C74
330
18
100
AcDbEntity
  8
0
100
AcDbLine
 10
1523.06011245038
 20
446.5097053644795
 30
0.0
 11
1526.56011245038
 21
446.5097053644795
 31
0.0
  0
LINE
  5
2C75
330
18
100
AcDbEntity
  8
0
100
AcDbLine
 10
1517.06011245038
 20
446.5097053644795
 30
0.0
 11
1520.56011245038
 21
446.5097053644795
 31
0.0
  0
LINE
  5
2C76
330
18
100
AcDbEntity
  8
0
100
AcDbLine
 10
1511.06011245038
 20
446.5097053644795
 30
0.0
 11
1514.56011245038
 21
446.5097053644795
 31
0.0
  0
POINT
  5
2C77
330
18
100
AcDbEntity
  8
0
  6
BYBLOCK
100
AcDbPoint
 10
1508.214874355142
 20
445.5097053644794
 30
0.0
  0
LINE
  5
2C78
330
18
100
AcDbEntity
  8
0
100
AcDbLine
 10
1503.452969593237
 20
445.5097053644794
 30
0.0
 11
1503.452969593237
 21
445.5097053644794
 31
0.0
  0
LINE
  5
2C79
330
18
100
AcDbEntity
  8
0
100
AcDbLine
 10
1498.06011245038
 20
445.5097053644794
 30
0.0
 11
1497.06011245038
 21
446.5097053644795
 31
0.0
  0
LINE
  5
2C7A
330
18
100
AcDbEntity
  8
0
100
AcDbLine
 10
1499.06011245038
 20
446.5097053644795
 30
0.0
 11
1502.56011245038
 21
446.5097053644795
 31
0.0
  0
LINE
  5
2C7B
330
18
100
AcDbEntity
  8
0
100
AcDbLine
 10
1508.56011245038
 20
467.0097053644794
 30
0.0
 11
1505.06011245038
 21
467.0097053644794
 31
0.0
  0
LINE
  5
2C7C
330
18
100
AcDbEntity
  8
0
100
AcDbLine
 10
1526.56011245038
 20
467.0097053644794
 30
0.0
 11
1523.06011245038
 21
467.0097053644794
 31
0.0
  0
LINE
  5
2C7D
330
18
100
AcDbEntity
  8
0
100
AcDbLine
 10
1520.56011245038
 20
467.0097053644794
 30
0.0
 11
1517.06011245038
 21
467.0097053644794
 31
0.0
  0
LINE
  5
2C7E
330
18
100
AcDbEntity
  8
0
100
AcDbLine
 10
1514.56011245038
 20
467.0097053644794
 30
0.0
 11
1511.06011245038
 21
467.0097053644794
 31
0.0
  0
LINE
  5
2C7F
330
18
100
AcDbEntity
  8
0
100
AcDbLine
 10
1502.56011245038
 20
467.0097053644794
 30
0.0
 11
1499.06011245038
 21
467.0097053644794
 31
0.0
  0
LINE
  5
2C80
330
18
100
AcDbEntity
  8
0
100
AcDbLine
 10
1497.06011245038
 20
471.5097053644795
 30
0.0
 11
1497.06011245038
 21
469.5097053644794
 31
0.0
  0
LINE
  5
2C81
330
18
100
AcDbEntity
  8
0
100
AcDbLine
 10
1497.06011245038
 20
469.5097053644794
 30
0.0
 11
1497.06011245038
 21
471.5097053644795
 31
0.0
  0
LINE
  5
2C82
330
18
100
AcDbEntity
  8
0
100
AcDbLine
 10
1544.998207688475
 20
535.5097053644795
 30
0.0
 11
1493.122017212285
 21
535.5097053644795
 31
0.0
  0
LINE
  5
2C83
330
18
100
AcDbEntity
  8
0
100
AcDbLine
 10
1548.078289939558
 20
535.5097053644795
 30
0.0
 11
1544.981990090655
 21
535.5097053644795
 31
0.0
  0
ARC
  5
2C84
330
18
100
AcDbEntity
  8
0
100
AcDbCircle
 10
1548.078289939558
 20
537.4915278753019
 30
0.0
 40
1.981822510822503
100
AcDbArc
 50
270.0
 51
0.000000000000007
  0
ARC
  5
2C85
330
18
100
AcDbEntity
  8
0
100
AcDbCircle
 10
1544.981990090655
 20
533.5278828536569
 30
0.0
 40
1.98182251082251
100
AcDbArc
 50
90.0
 51
178.2091492578792
  0
LINE
  5
2C86
330
18
100
AcDbEntity
  8
0
100
AcDbLine
 10
1493.138234810105
 20
535.5097053644795
 30
0.0
 11
1490.041934961203
 21
535.5097053644795
 31
0.0
  0
ARC
  5
2C87
330
18
100
AcDbEntity
  8
0
100
AcDbCircle
 10
1493.138234810105
 20
533.5278828536569
 30
0.0
 40
1.981822510822524
100
AcDbArc
 50
1.790850742120782
 51
90.0
  0
ARC
  5
2C88
330
18
100
AcDbEntity
  8
0
100
AcDbCircle
 10
1490.041934961203
 20
537.4915278753019
 30
0.0
 40
1.981822510822496
100
AcDbArc
 50
180.0
 51
270.0
  0
CIRCLE
  5
2C89
330
18
100
AcDbEntity
  8
0
100
AcDbCircle
 10
1519.064236380874
 20
665.5097053644794
 30
0.0
 40
22.51666049839539
  0
POLYLINE
  5
2C8A
330
18
100
AcDbEntity
  8
0
100
AcDb2dPolyline
 66
     1
 10
0.0
 20
0.0
 30
0.0
 70
     1
  0
VERTEX
  5
3E62
330
2C8A
100
AcDbEntity
  8
0
100
AcDbVertex
100
AcDb2dVertex
 10
1519.064236380874
 20
691.5097053644794
 30
0.0
  0
VERTEX
  5
3E63
330
2C8A
100
AcDbEntity
  8
0
100
AcDbVertex
100
AcDb2dVertex
 10
1541.58089687927
 20
678.5097053644794
 30
0.0
  0
VERTEX
  5
3E64
330
2C8A
100
AcDbEntity
  8
0
100
AcDbVertex
100
AcDb2dVertex
 10
1541.58089687927
 20
652.5097053644794
 30
0.0
  0
VERTEX
  5
3E65
330
2C8A
100
AcDbEntity
  8
0
100
AcDbVertex
100
AcDb2dVertex
 10
1519.064236380874
 20
639.5097053644795
 30
0.0
  0
VERTEX
  5
3E66
330
2C8A
100
AcDbEntity
  8
0
100
AcDbVertex
100
AcDb2dVertex
 10
1496.547575882479
 20
652.5097053644794
 30
0.0
  0
VERTEX
  5
3E67
330
2C8A
100
AcDbEntity
  8
0
100
AcDbVertex
100
AcDb2dVertex
 10
1496.547575882479
 20
678.5097053644794
 30
0.0
  0
SEQEND
  5
3E68
330
2C8A
100
AcDbEntity
  8
0
  0
LINE
  5
2C8B
330
18
100
AcDbEntity
  8
0
100
AcDbLine
 10
1534.065426857065
 20
641.1214050333314
 30
0.0
 11
1534.065426857065
 21
582.0097053644798
 31
0.0
  0
LINE
  5
2C8C
330
18
100
AcDbEntity
  8
0
100
AcDbLine
 10
1504.065426857065
 20
582.0097053644798
 30
0.0
 11
1504.065426857065
 21
641.116051016143
 31
0.0
  0
LINE
  5
2C8D
330
18
100
AcDbEntity
  8
0
100
AcDbLine
 10
1550.06011245038
 20
550.5097053644795
 30
0.0
 11
1488.06011245038
 21
550.5097053644795
 31
0.0
  0
LINE
  5
2C8E
330
18
100
AcDbEntity
  8
0
100
AcDbLine
 10
1541.06011245038
 20
571.5097053644795
 30
0.0
 11
1497.06011245038
 21
571.5097053644795
 31
0.0
  0
LINE
  5
2C8F
330
18
100
AcDbEntity
  8
0
100
AcDbLine
 10
1488.06011245038
 20
569.5097053644794
 30
0.0
 11
1550.06011245038
 21
569.5097053644794
 31
0.0
  0
LINE
  5
2C90
330
18
100
AcDbEntity
  8
0
100
AcDbLine
 10
1550.06011245038
 20
563.5097053644795
 30
0.0
 11
1488.036302926571
 21
563.5097053644795
 31
0.0
  0
LINE
  5
2C91
330
18
100
AcDbEntity
  8
0
100
AcDbLine
 10
1534.885775439187
 20
581.5097053644795
 30
0.0
 11
1503.242697322562
 21
581.5097053644797
 31
0.0
  0
ARC
  5
2C92
330
18
100
AcDbEntity
  8
0
100
AcDbCircle
 10
1527.722943944784
 20
561.7485429893771
 30
0.0
 40
19.76116237510232
100
AcDbArc
 50
63.99965133804887
 51
116.0003486619514
  0
LINE
  5
2C93
330
18
100
AcDbEntity
  8
0
100
AcDbLine
 10
1548.06011245038
 20
571.5097053644795
 30
0.0
 11
1550.06011245038
 21
569.5097053644794
 31
0.0
  0
ARC
  5
2C94
330
18
100
AcDbEntity
  8
0
100
AcDbCircle
 10
1538.367597950009
 20
573.4915278753019
 30
0.0
 40
1.981822510822503
100
AcDbArc
 50
180.0
 51
270.0
  0
LINE
  5
2C95
330
18
100
AcDbEntity
  8
0
100
AcDbLine
 10
1547.06011245038
 20
563.5097053644795
 30
0.0
 11
1547.06011245038
 21
550.5097053644795
 31
0.0
  0
LINE
  5
2C96
330
18
100
AcDbEntity
  8
0
100
AcDbLine
 10
1541.041934961203
 20
571.5097053644795
 30
0.0
 11
1548.06011245038
 21
571.5097053644795
 31
0.0
  0
ARC
  5
2C97
330
18
100
AcDbEntity
  8
0
100
AcDbCircle
 10
1534.565426857065
 20
582.0097053644798
 30
0.0
 40
0.5
100
AcDbArc
 50
180.0
 51
270.0
  0
ARC
  5
2C98
330
18
100
AcDbEntity
  8
0
100
AcDbCircle
 10
1534.885775439187
 20
580.0097053644796
 30
0.0
 40
1.5
100
AcDbArc
 50
0.0000000000005668
 51
89.99999999999982
  0
LINE
  5
2C99
330
18
100
AcDbEntity
  8
0
100
AcDbLine
 10
1536.385775439187
 20
580.0097053644796
 30
0.0
 11
1536.385775439187
 21
573.4915278753019
 31
0.0
  0
LINE
  5
2C9A
330
18
100
AcDbEntity
  8
0
100
AcDbLine
 10
1488.036302926571
 20
569.5097053644794
 30
0.0
 11
1490.06011245038
 21
571.5097053644795
 31
0.0
  0
ARC
  5
2C9B
330
18
100
AcDbEntity
  8
0
100
AcDbCircle
 10
1499.76087481174
 20
573.491527875302
 30
0.0
 40
1.981822510822496
100
AcDbArc
 50
270.0
 51
0.000000000000007
  0
LINE
  5
2C9C
330
18
100
AcDbEntity
  8
0
100
AcDbLine
 10
1491.06011245038
 20
550.5097053644795
 30
0.0
 11
1491.06011245038
 21
563.5097053644796
 31
0.0
  0
LINE
  5
2C9D
330
18
100
AcDbEntity
  8
0
100
AcDbLine
 10
1488.036302926571
 20
569.5097053644794
 30
0.0
 11
1488.06011245038
 21
569.5097053644794
 31
0.0
  0
ARC
  5
2C9E
330
18
100
AcDbEntity
  8
0
100
AcDbCircle
 10
1510.397280955977
 20
561.7485429893771
 30
0.0
 40
19.76116237510232
100
AcDbArc
 50
63.99965133804855
 51
116.0003486619511
  0
LINE
  5
2C9F
330
18
100
AcDbEntity
  8
0
100
AcDbLine
 10
1519.06011245038
 20
579.5097053644789
 30
0.0
 11
1519.06011245038
 21
571.5097053644795
 31
0.0
  0
LINE
  5
2CA0
330
18
100
AcDbEntity
  8
0
100
AcDbLine
 10
1490.06011245038
 20
571.5097053644795
 30
0.0
 11
1497.078289939558
 21
571.5097053644793
 31
0.0
  0
ARC
  5
2CA1
330
18
100
AcDbEntity
  8
0
100
AcDbCircle
 10
1503.565426857065
 20
582.0097053644798
 30
0.0
 40
0.5
100
AcDbArc
 50
270.0
 51
0.000000000000007
  0
ARC
  5
2CA2
330
18
100
AcDbEntity
  8
0
100
AcDbCircle
 10
1503.242697322562
 20
580.0097053644797
 30
0.0
 40
1.5
100
AcDbArc
 50
89.99999999999982
 51
180.0
  0
LINE
  5
2CA3
330
18
100
AcDbEntity
  8
0
100
AcDbLine
 10
1501.742697322562
 20
580.0097053644797
 30
0.0
 11
1501.742697322562
 21
573.491527875302
 31
0.0
  0
LINE
  5
2CA4
330
18
100
AcDbEntity
  8
0
100
AcDbLine
 10
1534.065426857065
 20
632.0882767930509
 30
0.0
 11
1504.065426857065
 21
632.0882767930509
 31
0.0
  0
ARC
  5
2CA5
330
18
100
AcDbEntity
  8
0
100
AcDbCircle
 10
1536.065426857065
 20
641.1214050333314
 30
0.0
 40
2.0
100
AcDbArc
 50
156.0250980827016
 51
180.0
  0
LINE
  5
2CA6
330
18
100
AcDbEntity
  8
0
100
AcDbLine
 10
1534.237979779847
 20
641.9340778949228
 30
0.0
 11
1538.02907187871
 21
650.4590582442918
 31
0.0
  0
ARC
  5
2CA7
330
18
100
AcDbEntity
  8
0
100
AcDbCircle
 10
1502.065426857065
 20
641.116051016143
 30
0.0
 40
2.0
100
AcDbArc
 50
0.000000000000007
 51
23.97490191729843
  0
LINE
  5
2CA8
330
18
100
AcDbEntity
  8
0
100
AcDbLine
 10
1503.892873934283
 20
641.9287238777344
 30
0.0
 11
1500.099400883039
 21
650.4590582442918
 31
0.0
  0
LINE
  5
2CA9
330
18
100
AcDbEntity
  8
0
100
AcDbLine
 10
1519.064236380874
 20
711.5097053644794
 30
0.0
 11
1537.064236380874
 21
711.5097053644794
 31
0.0
  0
LINE
  5
2CAA
330
18
100
AcDbEntity
  8
0
100
AcDbLine
 10
1537.857093523732
 20
710.5311339359079
 30
0.0
 11
1500.268998285636
 21
710.5311339359079
 31
0.0
  0
LINE
  5
2CAB
330
18
100
AcDbEntity
  8
0
100
AcDbLine
 10
1500.064236380874
 20
706.8335148882889
 30
0.0
 11
1538.064236380875
 21
706.8335148882889
 31
0.0
  0
LINE
  5
2CAC
330
18
100
AcDbEntity
  8
0
100
AcDbLine
 10
1534.236789303656
 20
689.0880098426302
 30
0.0
 11
1538.02907187871
 21
680.5603524846672
 31
0.0
  0
LINE
  5
2CAD
330
18
100
AcDbEntity
  8
0
100
AcDbLine
 10
1534.064236380874
 20
691.5097053644794
 30
0.0
 11
1534.064236380874
 21
689.9006827042216
 31
0.0
  0
ARC
  5
2CAE
330
18
100
AcDbEntity
  8
0
100
AcDbCircle
 10
1536.064236380874
 20
689.9006827042216
 30
0.0
 40
2.0
100
AcDbArc
 50
180.0
 51
203.974901917298
  0
LINE
  5
2CAF
330
18
100
AcDbEntity
  8
0
100
AcDbLine
 10
1537.857093523732
 20
710.5311339359079
 30
0.0
 11
1538.064236380875
 21
706.8335148882891
 31
0.0
  0
LINE
  5
2CB0
330
18
100
AcDbEntity
  8
0
100
AcDbLine
 10
1537.064236380874
 20
711.5097053644794
 30
0.0
 11
1537.857093523732
 21
710.5311339359079
 31
0.0
  0
LINE
  5
2CB1
330
18
100
AcDbEntity
  8
0
100
AcDbLine
 10
1538.064236380875
 20
706.8335148882891
 30
0.0
 11
1534.064236380874
 21
691.5097053644794
 31
0.0
  0
LINE
  5
2CB2
330
18
100
AcDbEntity
  8
0
100
AcDbLine
 10
1503.890492981902
 20
689.0853328340361
 30
0.0
 11
1500.099400883039
 21
680.5603524846672
 31
0.0
  0
LINE
  5
2CB3
330
18
100
AcDbEntity
  8
0
100
AcDbLine
 10
1501.064236380874
 20
711.5097053644794
 30
0.0
 11
1519.064236380874
 21
711.5097053644794
 31
0.0
  0
LINE
  5
2CB4
330
18
100
AcDbEntity
  8
0
100
AcDbLine
 10
1512.549950666588
 20
711.5097053644794
 30
0.0
 11
1512.549950666588
 21
711.5097053644794
 31
0.0
  0
POINT
  5
2CB5
330
18
100
AcDbEntity
  8
0
  6
BYBLOCK
100
AcDbPoint
 10
1517.311855428493
 20
711.5097053644794
 30
0.0
  0
POINT
  5
2CB6
330
18
100
AcDbEntity
  8
0
  6
BYBLOCK
100
AcDbPoint
 10
1517.311855428493
 20
711.5097053644794
 30
0.0
  0
LINE
  5
2CB7
330
18
100
AcDbEntity
  8
0
100
AcDbLine
 10
1504.064236380874
 20
691.5097053644794
 30
0.0
 11
1504.063045904684
 21
689.8980056956276
 31
0.0
  0
ARC
  5
2CB8
330
18
100
AcDbEntity
  8
0
100
AcDbCircle
 10
1502.063045904684
 20
689.8980056956276
 30
0.0
 40
2.0
100
AcDbArc
 50
336.0250980827019
 51
0.000000000000007
  0
LINE
  5
2CB9
330
18
100
AcDbEntity
  8
0
100
AcDbLine
 10
1500.064236380874
 20
706.8335148882891
 30
0.0
 11
1500.268998285636
 21
710.5311339359079
 31
0.0
  0
LINE
  5
2CBA
330
18
100
AcDbEntity
  8
0
100
AcDbLine
 10
1500.268998285636
 20
710.5311339359079
 30
0.0
 11
1501.064236380874
 21
711.5097053644794
 31
0.0
  0
LINE
  5
2CBB
330
18
100
AcDbEntity
  8
0
100
AcDbLine
 10
1504.064236380874
 20
691.5097053644794
 30
0.0
 11
1500.064236380874
 21
706.8335148882891
 31
0.0
  0
LINE
  5
2CBC
330
18
100
AcDbEntity
  8
0
100
AcDbLine
 10
1610.190149035858
 20
954.5945502132539
 30
0.0
 11
1610.190149035858
 21
965.6309051916091
 31
0.0
  0
LINE
  5
2CBD
330
18
100
AcDbEntity
  8
0
100
AcDbLine
 10
1672.190149035859
 20
965.6309051916091
 30
0.0
 11
1672.190149035859
 21
954.5945502132539
 31
0.0
  0
LINE
  5
2CBE
330
18
100
AcDbEntity
  8
0
100
AcDbLine
 10
1667.128244273954
 20
952.6127277024315
 30
0.0
 11
1615.252053797763
 21
952.6127277024315
 31
0.0
  0
LINE
  5
2CBF
330
18
100
AcDbEntity
  8
0
100
AcDbLine
 10
1662.190149035859
 20
862.6127277024316
 30
0.0
 11
1620.190149035859
 21
862.6127277024316
 31
0.0
  0
LINE
  5
2CC0
330
18
100
AcDbEntity
  8
0
100
AcDbLine
 10
1663.190149035859
 20
886.6127277024316
 30
0.0
 11
1619.190149035858
 21
886.6127277024316
 31
0.0
  0
LINE
  5
2CC1
330
18
100
AcDbEntity
  8
0
100
AcDbLine
 10
1663.190149035859
 20
888.6127277024316
 30
0.0
 11
1619.190149035858
 21
888.6127277024316
 31
0.0
  0
LINE
  5
2CC2
330
18
100
AcDbEntity
  8
0
100
AcDbLine
 10
1665.131172159882
 20
950.6928394297151
 30
0.0
 11
1663.190149035859
 21
888.6127277024316
 31
0.0
  0
LINE
  5
2CC3
330
18
100
AcDbEntity
  8
0
100
AcDbLine
 10
1663.190149035859
 20
886.6127277024316
 30
0.0
 11
1663.190149035859
 21
863.6127277024316
 31
0.0
  0
LINE
  5
2CC4
330
18
100
AcDbEntity
  8
0
100
AcDbLine
 10
1660.690149035858
 20
863.6127277024316
 30
0.0
 11
1660.690149035858
 21
884.1127277024316
 31
0.0
  0
LINE
  5
2CC5
330
18
100
AcDbEntity
  8
0
100
AcDbLine
 10
1657.190149035858
 20
884.1127277024316
 30
0.0
 11
1657.190149035858
 21
863.6127277024316
 31
0.0
  0
LINE
  5
2CC6
330
18
100
AcDbEntity
  8
0
100
AcDbLine
 10
1654.690149035858
 20
863.6127277024316
 30
0.0
 11
1654.690149035858
 21
884.1127277024316
 31
0.0
  0
LINE
  5
2CC7
330
18
100
AcDbEntity
  8
0
100
AcDbLine
 10
1651.190149035858
 20
884.1127277024316
 30
0.0
 11
1651.190149035858
 21
863.6127277024316
 31
0.0
  0
LINE
  5
2CC8
330
18
100
AcDbEntity
  8
0
100
AcDbLine
 10
1651.190149035858
 20
863.6127277024316
 30
0.0
 11
1654.690149035858
 21
863.6127277024316
 31
0.0
  0
LINE
  5
2CC9
330
18
100
AcDbEntity
  8
0
100
AcDbLine
 10
1663.190149035859
 20
863.6127277024316
 30
0.0
 11
1662.190149035859
 21
862.6127277024316
 31
0.0
  0
LINE
  5
2CCA
330
18
100
AcDbEntity
  8
0
100
AcDbLine
 10
1657.190149035858
 20
863.6127277024316
 30
0.0
 11
1660.690149035858
 21
863.6127277024316
 31
0.0
  0
LINE
  5
2CCB
330
18
100
AcDbEntity
  8
0
100
AcDbLine
 10
1654.690149035858
 20
884.1127277024316
 30
0.0
 11
1651.190149035858
 21
884.1127277024316
 31
0.0
  0
LINE
  5
2CCC
330
18
100
AcDbEntity
  8
0
100
AcDbLine
 10
1663.190149035859
 20
888.6127277024316
 30
0.0
 11
1663.190149035859
 21
886.6127277024316
 31
0.0
  0
LINE
  5
2CCD
330
18
100
AcDbEntity
  8
0
100
AcDbLine
 10
1660.690149035858
 20
884.1127277024316
 30
0.0
 11
1657.190149035858
 21
884.1127277024316
 31
0.0
  0
ARC
  5
2CCE
330
18
100
AcDbEntity
  8
0
100
AcDbCircle
 10
1670.208326525036
 20
954.5945502132539
 30
0.0
 40
1.981822510822503
100
AcDbArc
 50
270.0
 51
0.000000000000007
  0
LINE
  5
2CCF
330
18
100
AcDbEntity
  8
0
100
AcDbLine
 10
1670.208326525036
 20
952.6127277024315
 30
0.0
 11
1667.112026676133
 21
952.6127277024315
 31
0.0
  0
ARC
  5
2CD0
330
18
100
AcDbEntity
  8
0
100
AcDbCircle
 10
1667.112026676133
 20
950.630905191609
 30
0.0
 40
1.98182251082251
100
AcDbArc
 50
90.0
 51
178.2091492578792
  0
LINE
  5
2CD1
330
18
100
AcDbEntity
  8
0
100
AcDbLine
 10
1619.190149035858
 20
888.6127277024316
 30
0.0
 11
1617.249125911835
 21
950.6928394297151
 31
0.0
  0
LINE
  5
2CD2
330
18
100
AcDbEntity
  8
0
100
AcDbLine
 10
1619.190149035858
 20
863.6127277024316
 30
0.0
 11
1619.190149035858
 21
886.6127277024316
 31
0.0
  0
LINE
  5
2CD3
330
18
100
AcDbEntity
  8
0
100
AcDbLine
 10
1624.690149035858
 20
863.6127277024316
 30
0.0
 11
1624.690149035858
 21
884.1127277024316
 31
0.0
  0
LINE
  5
2CD4
330
18
100
AcDbEntity
  8
0
100
AcDbLine
 10
1621.190149035858
 20
884.1127277024316
 30
0.0
 11
1621.190149035858
 21
863.6127277024316
 31
0.0
  0
LINE
  5
2CD5
330
18
100
AcDbEntity
  8
0
100
AcDbLine
 10
1630.690149035859
 20
863.6127277024316
 30
0.0
 11
1630.690149035859
 21
884.1127277024316
 31
0.0
  0
LINE
  5
2CD6
330
18
100
AcDbEntity
  8
0
100
AcDbLine
 10
1627.190149035859
 20
884.1127277024316
 30
0.0
 11
1627.190149035859
 21
863.6127277024316
 31
0.0
  0
LINE
  5
2CD7
330
18
100
AcDbEntity
  8
0
100
AcDbLine
 10
1636.690149035858
 20
863.6127277024316
 30
0.0
 11
1636.690149035858
 21
884.1127277024316
 31
0.0
  0
LINE
  5
2CD8
330
18
100
AcDbEntity
  8
0
100
AcDbLine
 10
1633.190149035859
 20
884.1127277024316
 30
0.0
 11
1633.190149035859
 21
863.6127277024316
 31
0.0
  0
LINE
  5
2CD9
330
18
100
AcDbEntity
  8
0
100
AcDbLine
 10
1648.690149035859
 20
863.6127277024316
 30
0.0
 11
1648.690149035859
 21
884.1127277024316
 31
0.0
  0
LINE
  5
2CDA
330
18
100
AcDbEntity
  8
0
100
AcDbLine
 10
1645.190149035859
 20
884.1127277024316
 30
0.0
 11
1645.190149035859
 21
863.6127277024316
 31
0.0
  0
LINE
  5
2CDB
330
18
100
AcDbEntity
  8
0
100
AcDbLine
 10
1642.690149035859
 20
863.6127277024316
 30
0.0
 11
1642.690149035859
 21
884.1127277024316
 31
0.0
  0
LINE
  5
2CDC
330
18
100
AcDbEntity
  8
0
100
AcDbLine
 10
1639.190149035858
 20
884.1127277024316
 30
0.0
 11
1639.190149035858
 21
863.6127277024316
 31
0.0
  0
LINE
  5
2CDD
330
18
100
AcDbEntity
  8
0
100
AcDbLine
 10
1627.190149035859
 20
863.6127277024316
 30
0.0
 11
1630.690149035859
 21
863.6127277024316
 31
0.0
  0
POINT
  5
2CDE
330
18
100
AcDbEntity
  8
0
  6
BYBLOCK
100
AcDbPoint
 10
1630.34491094062
 20
862.6127277024316
 30
0.0
  0
LINE
  5
2CDF
330
18
100
AcDbEntity
  8
0
100
AcDbLine
 10
1633.190149035859
 20
863.6127277024316
 30
0.0
 11
1636.690149035858
 21
863.6127277024316
 31
0.0
  0
LINE
  5
2CE0
330
18
100
AcDbEntity
  8
0
100
AcDbLine
 10
1639.190149035858
 20
863.6127277024316
 30
0.0
 11
1642.690149035859
 21
863.6127277024316
 31
0.0
  0
LINE
  5
2CE1
330
18
100
AcDbEntity
  8
0
100
AcDbLine
 10
1645.190149035859
 20
863.6127277024316
 30
0.0
 11
1648.690149035859
 21
863.6127277024316
 31
0.0
  0
LINE
  5
2CE2
330
18
100
AcDbEntity
  8
0
100
AcDbLine
 10
1621.190149035858
 20
863.6127277024316
 30
0.0
 11
1624.690149035858
 21
863.6127277024316
 31
0.0
  0
LINE
  5
2CE3
330
18
100
AcDbEntity
  8
0
100
AcDbLine
 10
1620.190149035859
 20
862.6127277024316
 30
0.0
 11
1619.190149035858
 21
863.6127277024316
 31
0.0
  0
LINE
  5
2CE4
330
18
100
AcDbEntity
  8
0
100
AcDbLine
 10
1625.583006178716
 20
862.6127277024316
 30
0.0
 11
1625.583006178716
 21
862.6127277024316
 31
0.0
  0
LINE
  5
2CE5
330
18
100
AcDbEntity
  8
0
100
AcDbLine
 10
1630.690149035859
 20
884.1127277024316
 30
0.0
 11
1627.190149035859
 21
884.1127277024316
 31
0.0
  0
LINE
  5
2CE6
330
18
100
AcDbEntity
  8
0
100
AcDbLine
 10
1636.690149035858
 20
884.1127277024316
 30
0.0
 11
1633.190149035859
 21
884.1127277024316
 31
0.0
  0
LINE
  5
2CE7
330
18
100
AcDbEntity
  8
0
100
AcDbLine
 10
1642.690149035859
 20
884.1127277024316
 30
0.0
 11
1639.190149035858
 21
884.1127277024316
 31
0.0
  0
LINE
  5
2CE8
330
18
100
AcDbEntity
  8
0
100
AcDbLine
 10
1648.690149035859
 20
884.1127277024316
 30
0.0
 11
1645.190149035859
 21
884.1127277024316
 31
0.0
  0
LINE
  5
2CE9
330
18
100
AcDbEntity
  8
0
100
AcDbLine
 10
1619.190149035858
 20
886.6127277024316
 30
0.0
 11
1619.190149035858
 21
888.6127277024316
 31
0.0
  0
LINE
  5
2CEA
330
18
100
AcDbEntity
  8
0
100
AcDbLine
 10
1619.190149035858
 20
888.6127277024316
 30
0.0
 11
1619.190149035858
 21
886.6127277024316
 31
0.0
  0
LINE
  5
2CEB
330
18
100
AcDbEntity
  8
0
100
AcDbLine
 10
1624.690149035858
 20
884.1127277024316
 30
0.0
 11
1621.190149035858
 21
884.1127277024316
 31
0.0
  0
ARC
  5
2CEC
330
18
100
AcDbEntity
  8
0
100
AcDbCircle
 10
1612.171971546681
 20
954.5945502132539
 30
0.0
 40
1.981822510822496
100
AcDbArc
 50
180.0
 51
270.0
  0
ARC
  5
2CED
330
18
100
AcDbEntity
  8
0
100
AcDbCircle
 10
1615.268271395584
 20
950.630905191609
 30
0.0
 40
1.981822510822524
100
AcDbArc
 50
1.790850742120782
 51
90.0
  0
LINE
  5
2CEE
330
18
100
AcDbEntity
  8
0
100
AcDbLine
 10
1615.268271395584
 20
952.6127277024315
 30
0.0
 11
1612.171971546681
 21
952.6127277024315
 31
0.0
  0
ARC
  5
2CEF
330
18
100
AcDbEntity
  8
0
100
AcDbCircle
 10
1641.190149035858
 20
1137.648372326055
 30
0.0
 40
37.31131470916864
100
AcDbArc
 50
249.7669296871603
 51
290.2330703128397
  0
LINE
  5
2CF0
330
18
100
AcDbEntity
  8
0
100
AcDbLine
 10
1641.190149035858
 20
1127.612727702431
 30
0.0
 11
1659.190149035858
 21
1127.612727702431
 31
0.0
  0
LINE
  5
2CF1
330
18
100
AcDbEntity
  8
0
100
AcDbLine
 10
1659.983006178716
 20
1126.63415627386
 30
0.0
 11
1622.394910940621
 21
1126.63415627386
 31
0.0
  0
LINE
  5
2CF2
330
18
100
AcDbEntity
  8
0
100
AcDbLine
 10
1622.190149035859
 20
1122.93653722624
 30
0.0
 11
1660.190149035859
 21
1122.93653722624
 31
0.0
  0
ARC
  5
2CF3
330
18
100
AcDbEntity
  8
0
100
AcDbCircle
 10
1641.190149035858
 20
1027.577083078807
 30
0.0
 40
37.31131470916864
100
AcDbArc
 50
69.76692968716031
 51
110.2330703128396
  0
LINE
  5
2CF5
330
18
100
AcDbEntity
  8
0
100
AcDbLine
 10
1656.190149035858
 20
1049.191299131003
 30
0.0
 11
1626.190149035859
 21
1049.191299131003
 31
0.0
  0
LINE
  5
2CF7
330
18
100
AcDbEntity
  8
0
100
AcDbLine
 10
1672.190149035859
 20
980.6127277024316
 30
0.0
 11
1610.166339512049
 21
980.6127277024316
 31
0.0
  0
LINE
  5
2CF8
330
18
100
AcDbEntity
  8
0
100
AcDbLine
 10
1610.190149035858
 20
986.6127277024316
 30
0.0
 11
1672.190149035859
 21
986.6127277024316
 31
0.0
  0
LINE
  5
2CF9
330
18
100
AcDbEntity
  8
0
100
AcDbLine
 10
1656.190149035858
 20
998.6127277024316
 30
0.0
 11
1626.190149035859
 21
998.6127277024316
 31
0.0
  0
LINE
  5
2CFA
330
18
100
AcDbEntity
  8
0
100
AcDbLine
 10
1663.190149035859
 20
988.6127277024316
 30
0.0
 11
1619.190149035858
 21
988.6127277024316
 31
0.0
  0
ARC
  5
2CFB
330
18
100
AcDbEntity
  8
0
100
AcDbCircle
 10
1641.190149035858
 20
972.6127277024316
 30
0.0
 40
26.00000000000003
100
AcDbArc
 50
67.38013505195758
 51
112.6198649480424
  0
LINE
  5
2CFC
330
18
100
AcDbEntity
  8
0
100
AcDbLine
 10
1674.171971546681
 20
967.6127277024315
 30
0.0
 11
1608.190149035858
 21
967.6127277024315
 31
0.0
  0
ARC
  5
2CFE
330
18
100
AcDbEntity
  8
0
100
AcDbCircle
 10
1732.733842044977
 20
1082.612727702431
 30
0.0
 40
59.22226443768995
100
AcDbArc
 50
166.3259803408843
 51
193.6740196591156
  0
LINE
  5
2CFF
330
18
100
AcDbEntity
  8
0
100
AcDbLine
 10
1669.190149035858
 20
1102.612727702431
 30
0.0
 11
1669.190149035858
 21
1062.612727702431
 31
0.0
  0
ARC
  5
2D00
330
18
100
AcDbEntity
  8
0
100
AcDbCircle
 10
1626.64645602674
 20
1082.612727702431
 30
0.0
 40
59.22226443768995
100
AcDbArc
 50
346.3259803408843
 51
13.67401965911564
  0
LINE
  5
2D01
330
18
100
AcDbEntity
  8
0
100
AcDbLine
 10
1686.190149035859
 20
1106.612727702431
 30
0.0
 11
1686.190149035859
 21
1058.612727702431
 31
0.0
  0
LINE
  5
2D02
330
18
100
AcDbEntity
  8
0
100
AcDbLine
 10
1656.190149035858
 20
1058.612727702431
 30
0.0
 11
1656.190149035858
 21
999.6036389578428
 31
0.0
  0
ARC
  5
2D03
330
18
100
AcDbEntity
  8
0
100
AcDbCircle
 10
1663.171971546681
 20
990.594550213254
 30
0.0
 40
1.981822510822503
100
AcDbArc
 50
180.0
 51
270.0
  0
LINE
  5
2D04
330
18
100
AcDbEntity
  8
0
100
AcDbLine
 10
1670.190149035859
 20
988.6127277024316
 30
0.0
 11
1672.190149035859
 21
986.6127277024316
 31
0.0
  0
LINE
  5
2D05
330
18
100
AcDbEntity
  8
0
100
AcDbLine
 10
1680.690149035859
 20
978.6127277024316
 30
0.0
 11
1661.452053797763
 21
978.6127277024316
 31
0.0
  0
LINE
  5
2D06
330
18
100
AcDbEntity
  8
0
100
AcDbLine
 10
1680.690149035859
 20
969.6127277024315
 30
0.0
 11
1661.452053797763
 21
969.6127277024315
 31
0.0
  0
LINE
  5
2D07
330
18
100
AcDbEntity
  8
0
100
AcDbLine
 10
1672.190149035859
 20
986.6127277024316
 30
0.0
 11
1672.190149035859
 21
980.6127277024316
 31
0.0
  0
LINE
  5
2D08
330
18
100
AcDbEntity
  8
0
100
AcDbLine
 10
1672.190149035859
 20
980.6127277024316
 30
0.0
 11
1680.690149035859
 21
980.6127277024316
 31
0.0
  0
LINE
  5
2D09
330
18
100
AcDbEntity
  8
0
100
AcDbLine
 10
1673.644910940621
 20
978.6127277024316
 30
0.0
 11
1673.190149035858
 21
978.6127277024316
 31
0.0
  0
CIRCLE
  5
2D0A
330
18
100
AcDbEntity
  8
0
100
AcDbCircle
 10
1680.690149035859
 20
974.1127277024316
 30
0.0
 40
2.354511904761904
  0
ARC
  5
2D0B
330
18
100
AcDbEntity
  8
0
100
AcDbCircle
 10
1673.171971546681
 20
976.6309051916092
 30
0.0
 40
1.98182251082251
100
AcDbArc
 50
90.0
 51
180.0
  0
LINE
  5
2D0C
330
18
100
AcDbEntity
  8
0
100
AcDbLine
 10
1673.190149035858
 20
969.6127277024315
 30
0.0
 11
1673.937768083478
 21
969.6127277024315
 31
0.0
  0
LINE
  5
2D0D
330
18
100
AcDbEntity
  8
0
100
AcDbLine
 10
1673.190149035858
 20
969.6127277024315
 30
0.0
 11
1673.937768083478
 21
969.6127277024315
 31
0.0
  0
LINE
  5
2D0E
330
18
100
AcDbEntity
  8
0
100
AcDbLine
 10
1680.690149035869
 20
967.6127277024315
 30
0.0
 11
1674.171971546681
 21
967.6127277024315
 31
0.0
  0
ARC
  5
2D0F
330
18
100
AcDbEntity
  8
0
100
AcDbCircle
 10
1673.171971546681
 20
971.6127277024316
 30
0.0
 40
1.98182251082251
100
AcDbArc
 50
180.0
 51
270.0
  0
ARC
  5
2D10
330
18
100
AcDbEntity
  8
0
100
AcDbCircle
 10
1674.171971546681
 20
965.6309051916091
 30
0.0
 40
1.981822510822496
100
AcDbArc
 50
90.0
 51
180.0
  0
LINE
  5
2D11
330
18
100
AcDbEntity
  8
0
100
AcDbLine
 10
1671.190149035858
 20
976.6309051916092
 30
0.0
 11
1671.190149035858
 21
971.6127277024316
 31
0.0
  0
ARC
  5
2D12
330
18
100
AcDbEntity
  8
0
100
AcDbCircle
 10
1680.69491094061
 20
974.1127277024316
 30
0.0
 40
6.500001744287216
100
AcDbArc
 50
269.9580250776444
 51
90.04197492245003
  0
CIRCLE
  5
2D13
330
18
100
AcDbEntity
  8
0
100
AcDbCircle
 10
1680.690149035859
 20
974.1127277024316
 30
0.0
 40
3.08890476190476
  0
CIRCLE
  5
2D14
330
18
100
AcDbEntity
  8
0
100
AcDbCircle
 10
1680.690149035859
 20
974.1127277024316
 30
0.0
 40
4.500023809523807
  0
LINE
  5
2D15
330
18
100
AcDbEntity
  8
0
100
AcDbLine
 10
1657.18106029127
 20
998.6127277024316
 30
0.0
 11
1659.208326525036
 21
998.6127277024316
 31
0.0
  0
ARC
  5
2D16
330
18
100
AcDbEntity
  8
0
100
AcDbCircle
 10
1657.18106029127
 20
999.6036389578428
 30
0.0
 40
0.9909112554112482
100
AcDbArc
 50
180.0
 51
270.0
  0
LINE
  5
2D17
330
18
100
AcDbEntity
  8
0
100
AcDbLine
 10
1656.233006178716
 20
999.3189181786219
 30
0.0
 11
1656.292529988239
 21
999.171537226241
 31
0.0
  0
LINE
  5
2D18
330
18
100
AcDbEntity
  8
0
100
AcDbLine
 10
1656.199672845382
 20
999.4679657976696
 30
0.0
 11
1656.233006178716
 21
999.3189181786219
 31
0.0
  0
LINE
  5
2D19
330
18
100
AcDbEntity
  8
0
100
AcDbLine
 10
1656.190149035858
 20
999.6127277024315
 30
0.0
 11
1656.199672845382
 21
999.4679657976696
 31
0.0
  0
LINE
  5
2D1A
330
18
100
AcDbEntity
  8
0
100
AcDbLine
 10
1656.190149035858
 20
999.6127277024315
 30
0.0
 11
1656.190149035858
 21
999.6127277024315
 31
0.0
  0
LINE
  5
2D1B
330
18
100
AcDbEntity
  8
0
100
AcDbLine
 10
1651.190149035858
 20
996.6127277024316
 30
0.0
 11
1651.190149035858
 21
988.6127277024316
 31
0.0
  0
LINE
  5
2D1C
330
18
100
AcDbEntity
  8
0
100
AcDbLine
 10
1663.171971546681
 20
988.6127277024316
 30
0.0
 11
1670.190149035859
 21
988.6127277024316
 31
0.0
  0
LINE
  5
2D1D
330
18
100
AcDbEntity
  8
0
100
AcDbLine
 10
1661.190149035859
 20
996.6309051916091
 30
0.0
 11
1661.190149035859
 21
990.594550213254
 31
0.0
  0
ARC
  5
2D1E
330
18
100
AcDbEntity
  8
0
100
AcDbCircle
 10
1659.208326525036
 20
996.6309051916091
 30
0.0
 40
1.981822510822524
100
AcDbArc
 50
0.000000000000007
 51
90.0
  0
ARC
  5
2D1F
330
18
100
AcDbEntity
  8
0
100
AcDbCircle
 10
1656.190149035858
 20
988.0834576143856
 30
0.0
 40
9.886781490193518
100
AcDbArc
 50
59.6204587710797
 51
120.3795412289202
  0
LINE
  5
2D20
330
18
100
AcDbEntity
  8
0
100
AcDbLine
 10
1675.190149035858
 20
1056.612727702431
 30
0.0
 11
1670.060842597326
 21
1061.742034140964
 31
0.0
  0
ARC
  5
2D21
330
18
100
AcDbEntity
  8
0
100
AcDbCircle
 10
1682.570850079045
 20
1062.612727702431
 30
0.0
 40
9.51182148113072
100
AcDbArc
 50
140.8912726349672
 51
219.1087273650328
  0
LINE
  5
2D22
330
18
100
AcDbEntity
  8
0
100
AcDbLine
 10
1686.190149035859
 20
1058.612727702431
 30
0.0
 11
1684.190149035858
 21
1056.612727702431
 31
0.0
  0
ARC
  5
2D23
330
18
100
AcDbEntity
  8
0
100
AcDbCircle
 10
1676.809447992672
 20
1062.612727702431
 30
0.0
 40
9.51182148113072
100
AcDbArc
 50
320.8912726349672
 51
39.10872736503276
  0
LINE
  5
2D24
330
18
100
AcDbEntity
  8
0
100
AcDbLine
 10
1675.190149035858
 20
1068.612727702431
 30
0.0
 11
1684.190149035858
 21
1068.612727702431
 31
0.0
  0
LINE
  5
2D25
330
18
100
AcDbEntity
  8
0
100
AcDbLine
 10
1684.190149035858
 20
1056.612727702431
 30
0.0
 11
1675.190149035858
 21
1056.612727702431
 31
0.0
  0
ARC
  5
2D30
330
18
100
AcDbEntity
  8
0
100
AcDbCircle
 10
1660.190149035859
 20
1058.612727702431
 30
0.0
 40
4.000000000000028
100
AcDbArc
 50
90.0
 51
180.0
  0
ARC
  5
2D31
330
18
100
AcDbEntity
  8
0
100
AcDbCircle
 10
1667.95880239256
 20
1059.639993936197
 30
0.0
 40
2.972733766233773
100
AcDbArc
 50
45.00000000000001
 51
90.0
  0
LINE
  5
2D32
330
18
100
AcDbEntity
  8
0
100
AcDbLine
 10
1667.95880239256
 20
1062.612727702431
 30
0.0
 11
1660.190149035859
 21
1062.612727702431
 31
0.0
  0
LINE
  5
2D33
330
18
100
AcDbEntity
  8
0
100
AcDbLine
 10
1656.36151148245
 20
1106.191032180582
 30
0.0
 11
1657.424788455508
 21
1103.80005484084
 31
0.0
  0
LINE
  5
2D34
330
18
100
AcDbEntity
  8
0
100
AcDbLine
 10
1670.060842597326
 20
1103.483421263899
 30
0.0
 11
1675.190149035858
 21
1108.612727702431
 31
0.0
  0
ARC
  5
2D35
330
18
100
AcDbEntity
  8
0
100
AcDbCircle
 10
1682.570850079045
 20
1102.612727702431
 30
0.0
 40
9.51182148113072
100
AcDbArc
 50
140.8912726349672
 51
219.1087273650328
  0
ARC
  5
2D36
330
18
100
AcDbEntity
  8
0
100
AcDbCircle
 10
1676.809447992672
 20
1102.612727702431
 30
0.0
 40
9.51182148113072
100
AcDbArc
 50
320.8912726349672
 51
39.10872736503276
  0
LINE
  5
2D37
330
18
100
AcDbEntity
  8
0
100
AcDbLine
 10
1675.190149035858
 20
1096.612727702431
 30
0.0
 11
1684.190149035858
 21
1096.612727702431
 31
0.0
  0
ARC
  5
2D38
330
18
100
AcDbEntity
  8
0
100
AcDbCircle
 10
1659.252235532727
 20
1104.612727702431
 30
0.0
 40
2.0
100
AcDbArc
 50
203.9749019172983
 51
270.0
  0
LINE
  5
2D39
330
18
100
AcDbEntity
  8
0
100
AcDbLine
 10
1667.95880239256
 20
1102.612727702431
 30
0.0
 11
1659.252235532727
 21
1102.612727702431
 31
0.0
  0
LINE
  5
2D3A
330
18
100
AcDbEntity
  8
0
100
AcDbLine
 10
1660.153794057503
 20
1102.612727702431
 30
0.0
 11
1667.95880239256
 21
1102.612727702431
 31
0.0
  0
ARC
  5
2D3B
330
18
100
AcDbEntity
  8
0
100
AcDbCircle
 10
1667.95880239256
 20
1105.585461468665
 30
0.0
 40
2.972733766233773
100
AcDbArc
 50
270.0
 51
315.0
  0
LINE
  5
2D47
330
18
100
AcDbEntity
  8
0
100
AcDbLine
 10
1684.190149035858
 20
1108.612727702431
 30
0.0
 11
1686.190149035859
 21
1106.612727702431
 31
0.0
  0
LINE
  5
2D48
330
18
100
AcDbEntity
  8
0
100
AcDbLine
 10
1675.190149035858
 20
1108.612727702431
 30
0.0
 11
1684.190149035858
 21
1108.612727702431
 31
0.0
  0
ARC
  5
2D49
330
18
100
AcDbEntity
  8
0
100
AcDbCircle
 10
1658.188958559668
 20
1107.003705042173
 30
0.0
 40
2.0
100
AcDbArc
 50
180.0
 51
203.974901917298
  0
LINE
  5
2D4A
330
18
100
AcDbEntity
  8
0
100
AcDbLine
 10
1656.188958559668
 20
1108.612727702431
 30
0.0
 11
1656.188958559668
 21
1107.003705042173
 31
0.0
  0
LINE
  5
2D4B
330
18
100
AcDbEntity
  8
0
100
AcDbLine
 10
1659.983006178716
 20
1126.63415627386
 30
0.0
 11
1660.190149035859
 21
1122.936537226241
 31
0.0
  0
LINE
  5
2D4C
330
18
100
AcDbEntity
  8
0
100
AcDbLine
 10
1659.190149035858
 20
1127.612727702431
 30
0.0
 11
1659.983006178716
 21
1126.63415627386
 31
0.0
  0
LINE
  5
2D4D
330
18
100
AcDbEntity
  8
0
100
AcDbLine
 10
1660.190149035859
 20
1122.936537226241
 30
0.0
 11
1656.190149035858
 21
1108.612727702431
 31
0.0
  0
ARC
  5
2D4F
330
18
100
AcDbEntity
  8
0
100
AcDbCircle
 10
1549.64645602674
 20
1082.612727702431
 30
0.0
 40
59.22226443768995
100
AcDbArc
 50
346.3259803408843
 51
13.67401965911564
  0
ARC
  5
2D50
330
18
100
AcDbEntity
  8
0
100
AcDbCircle
 10
1655.733842044977
 20
1082.612727702431
 30
0.0
 40
59.22226443768995
100
AcDbArc
 50
166.3259803408843
 51
193.6740196591156
  0
LINE
  5
2D51
330
18
100
AcDbEntity
  8
0
100
AcDbLine
 10
1613.330625226335
 20
1102.612727702431
 30
0.0
 11
1613.330625226335
 21
1062.86034675005
 31
0.0
  0
LINE
  5
2D52
330
18
100
AcDbEntity
  8
0
100
AcDbLine
 10
1596.190149035859
 20
1058.612727702431
 30
0.0
 11
1596.190149035859
 21
1106.612727702431
 31
0.0
  0
LINE
  5
2D53
330
18
100
AcDbEntity
  8
0
100
AcDbLine
 10
1626.190149035859
 20
999.6127277024315
 30
0.0
 11
1626.190149035859
 21
1058.612727702431
 31
0.0
  0
LINE
  5
2D54
330
18
100
AcDbEntity
  8
0
100
AcDbLine
 10
1601.690149035858
 20
980.6127277024316
 30
0.0
 11
1610.166339512049
 21
980.6127277024316
 31
0.0
  0
LINE
  5
2D55
330
18
100
AcDbEntity
  8
0
100
AcDbLine
 10
1601.690149035858
 20
978.6127277024316
 30
0.0
 11
1620.928244273954
 21
978.6127277024316
 31
0.0
  0
ARC
  5
2D56
330
18
100
AcDbEntity
  8
0
100
AcDbCircle
 10
1608.208326525036
 20
965.6309051916091
 30
0.0
 40
1.98182251082251
100
AcDbArc
 50
0.000000000000007
 51
90.0
  0
LINE
  5
2D57
330
18
100
AcDbEntity
  8
0
100
AcDbLine
 10
1609.190149035858
 20
969.6127277024315
 30
0.0
 11
1608.442529988239
 21
969.6127277024315
 31
0.0
  0
LINE
  5
2D58
330
18
100
AcDbEntity
  8
0
100
AcDbLine
 10
1601.690149035858
 20
969.6127277024315
 30
0.0
 11
1620.928244273954
 21
969.6127277024315
 31
0.0
  0
LINE
  5
2D59
330
18
100
AcDbEntity
  8
0
100
AcDbLine
 10
1610.166339512049
 20
986.6127277024316
 30
0.0
 11
1612.190149035859
 21
988.6127277024316
 31
0.0
  0
ARC
  5
2D5A
330
18
100
AcDbEntity
  8
0
100
AcDbCircle
 10
1619.208326525036
 20
990.594550213254
 30
0.0
 40
1.981822510822496
100
AcDbArc
 50
270.0
 51
0.000000000000007
  0
LINE
  5
2D5B
330
18
100
AcDbEntity
  8
0
100
AcDbLine
 10
1610.166339512049
 20
980.6127277024316
 30
0.0
 11
1610.166339512049
 21
986.6127277024316
 31
0.0
  0
LINE
  5
2D5C
330
18
100
AcDbEntity
  8
0
100
AcDbLine
 10
1610.166339512049
 20
986.6127277024316
 30
0.0
 11
1610.190149035858
 21
986.6127277024316
 31
0.0
  0
ARC
  5
2D5D
330
18
100
AcDbEntity
  8
0
100
AcDbCircle
 10
1609.208326525036
 20
976.6309051916092
 30
0.0
 40
1.98182251082251
100
AcDbArc
 50
0.000000000000007
 51
90.0
  0
ARC
  5
2D5E
330
18
100
AcDbEntity
  8
0
100
AcDbCircle
 10
1609.208326525036
 20
971.6127277024316
 30
0.0
 40
1.98182251082251
100
AcDbArc
 50
270.0
 51
0.000000000000007
  0
LINE
  5
2D5F
330
18
100
AcDbEntity
  8
0
100
AcDbLine
 10
1611.190149035859
 20
976.6309051916092
 30
0.0
 11
1611.190149035859
 21
971.6127277024316
 31
0.0
  0
ARC
  5
2D60
330
18
100
AcDbEntity
  8
0
100
AcDbCircle
 10
1626.190149035859
 20
988.0834576143856
 30
0.0
 40
9.886781490193518
100
AcDbArc
 50
59.6204587710797
 51
120.3795412289202
  0
LINE
  5
2D61
330
18
100
AcDbEntity
  8
0
100
AcDbLine
 10
1631.190149035859
 20
996.6127277024316
 30
0.0
 11
1631.190149035859
 21
988.6127277024316
 31
0.0
  0
LINE
  5
2D62
330
18
100
AcDbEntity
  8
0
100
AcDbLine
 10
1623.171971546681
 20
998.6127277024316
 30
0.0
 11
1625.196497693934
 21
998.6127277024316
 31
0.0
  0
ARC
  5
2D63
330
18
100
AcDbEntity
  8
0
100
AcDbCircle
 10
1623.171971546681
 20
996.6309051916091
 30
0.0
 40
1.981822510822524
100
AcDbArc
 50
90.0
 51
180.0
  0
LINE
  5
2D64
330
18
100
AcDbEntity
  8
0
100
AcDbLine
 10
1621.190149035858
 20
990.594550213254
 30
0.0
 11
1621.190149035858
 21
996.6309051916091
 31
0.0
  0
LINE
  5
2D65
330
18
100
AcDbEntity
  8
0
100
AcDbLine
 10
1626.185271427431
 20
999.5385880543226
 30
0.0
 11
1626.190149035859
 21
999.6127277024315
 31
0.0
  0
ARC
  5
2D66
330
18
100
AcDbEntity
  8
0
100
AcDbCircle
 10
1625.196497693934
 20
999.6036389578428
 30
0.0
 40
0.9909112554112482
100
AcDbArc
 50
270.0
 51
356.2359651350622
  0
LINE
  5
2D67
330
18
100
AcDbEntity
  8
0
100
AcDbLine
 10
1612.190149035859
 20
988.6127277024316
 30
0.0
 11
1619.208326525036
 21
988.6127277024316
 31
0.0
  0
CIRCLE
  5
2D68
330
18
100
AcDbEntity
  8
0
100
AcDbCircle
 10
1601.690149035858
 20
974.1127277024316
 30
0.0
 40
2.354485714285713
  0
LINE
  5
2D69
330
18
100
AcDbEntity
  8
0
100
AcDbLine
 10
1608.208326525036
 20
967.6127277024315
 30
0.0
 11
1601.690149035848
 21
967.6127277024315
 31
0.0
  0
ARC
  5
2D6A
330
18
100
AcDbEntity
  8
0
100
AcDbCircle
 10
1601.685387131107
 20
974.1127277024316
 30
0.0
 40
6.500001744287209
100
AcDbArc
 50
89.95802507755
 51
270.0419749223555
  0
CIRCLE
  5
2D6B
330
18
100
AcDbEntity
  8
0
100
AcDbCircle
 10
1601.690149035858
 20
974.1127277024316
 30
0.0
 40
4.500023809523807
  0
CIRCLE
  5
2D6C
330
18
100
AcDbEntity
  8
0
100
AcDbCircle
 10
1601.690149035858
 20
974.1127277024316
 30
0.0
 40
3.08895238095238
  0
LINE
  5
2D6D
330
18
100
AcDbEntity
  8
0
100
AcDbLine
 10
1611.738993100079
 20
1061.161571766652
 30
0.0
 11
1607.190149035858
 21
1056.612727702431
 31
0.0
  0
ARC
  5
2D6E
330
18
100
AcDbEntity
  8
0
100
AcDbCircle
 10
1599.809447992672
 20
1062.612727702431
 30
0.0
 40
9.51182148113072
100
AcDbArc
 50
320.8912726349672
 51
39.10872736503276
  0
LINE
  5
2D78
330
18
100
AcDbEntity
  8
0
100
AcDbLine
 10
1622.190149035859
 20
1062.612727702431
 30
0.0
 11
1615.242393441356
 21
1062.612727702431
 31
0.0
  0
ARC
  5
2D79
330
18
100
AcDbEntity
  8
0
100
AcDbCircle
 10
1622.190149035859
 20
1058.612727702431
 30
0.0
 40
4.0
100
AcDbArc
 50
0.000000000000007
 51
90.0
  0
ARC
  5
2D7A
330
18
100
AcDbEntity
  8
0
100
AcDbCircle
 10
1615.242393441356
 20
1057.658171425375
 30
0.0
 40
4.954556277056269
100
AcDbArc
 50
90.0
 51
135.0
  0
LINE
  5
2D7B
330
18
100
AcDbEntity
  8
0
100
AcDbLine
 10
1598.190149035858
 20
1056.612727702431
 30
0.0
 11
1596.190149035859
 21
1058.612727702431
 31
0.0
  0
ARC
  5
2D7C
330
18
100
AcDbEntity
  8
0
100
AcDbCircle
 10
1605.570850079045
 20
1062.612727702431
 30
0.0
 40
9.51182148113072
100
AcDbArc
 50
140.8912726349672
 51
219.1087273650328
  0
LINE
  5
2D7D
330
18
100
AcDbEntity
  8
0
100
AcDbLine
 10
1607.190149035858
 20
1068.612727702431
 30
0.0
 11
1598.190149035858
 21
1068.612727702431
 31
0.0
  0
LINE
  5
2D7E
330
18
100
AcDbEntity
  8
0
100
AcDbLine
 10
1607.190149035858
 20
1056.612727702431
 30
0.0
 11
1598.190149035858
 21
1056.612727702431
 31
0.0
  0
LINE
  5
2D7F
330
18
100
AcDbEntity
  8
0
100
AcDbLine
 10
1607.190149035858
 20
1108.612727702431
 30
0.0
 11
1611.738993100079
 21
1104.063883638211
 31
0.0
  0
ARC
  5
2D80
330
18
100
AcDbEntity
  8
0
100
AcDbCircle
 10
1599.809447992672
 20
1102.612727702431
 30
0.0
 40
9.51182148113072
100
AcDbArc
 50
320.8912726349672
 51
39.10872736503276
  0
LINE
  5
2D81
330
18
100
AcDbEntity
  8
0
100
AcDbLine
 10
1626.015215160696
 20
1106.188355171988
 30
0.0
 11
1624.953128663828
 21
1103.800054840839
 31
0.0
  0
ARC
  5
2DC5
330
18
100
AcDbEntity
  8
0
100
AcDbCircle
 10
1623.12568158661
 20
1104.612727702431
 30
0.0
 40
2.0
100
AcDbArc
 50
270.0
 51
336.0250980827015
  0
LINE
  5
2DC6
330
18
100
AcDbEntity
  8
0
100
AcDbLine
 10
1615.242393441356
 20
1102.612727702431
 30
0.0
 11
1623.12568158661
 21
1102.612727702431
 31
0.0
  0
ARC
  5
2DD2
330
18
100
AcDbEntity
  8
0
100
AcDbCircle
 10
1615.242393441356
 20
1107.567283979488
 30
0.0
 40
4.954556277056273
100
AcDbArc
 50
225.0
 51
270.0
  0
LINE
  5
2DD3
330
18
100
AcDbEntity
  8
0
100
AcDbLine
 10
1623.190149035858
 20
1127.612727702431
 30
0.0
 11
1641.190149035858
 21
1127.612727702431
 31
0.0
  0
LINE
  5
2DD4
330
18
100
AcDbEntity
  8
0
100
AcDbLine
 10
1634.675863321573
 20
1127.612727702431
 30
0.0
 11
1634.675863321573
 21
1127.612727702431
 31
0.0
  0
POINT
  5
2DD5
330
18
100
AcDbEntity
  8
0
  6
BYBLOCK
100
AcDbPoint
 10
1639.437768083477
 20
1127.612727702431
 30
0.0
  0
POINT
  5
2DD6
330
18
100
AcDbEntity
  8
0
  6
BYBLOCK
100
AcDbPoint
 10
1639.437768083477
 20
1127.612727702431
 30
0.0
  0
ARC
  5
2DD7
330
18
100
AcDbEntity
  8
0
100
AcDbCircle
 10
1624.187768083477
 20
1107.001028033579
 30
0.0
 40
2.0
100
AcDbArc
 50
336.0250980827019
 51
0.000000000000007
  0
LINE
  5
2DD8
330
18
100
AcDbEntity
  8
0
100
AcDbLine
 10
1626.188958559668
 20
1108.612727702431
 30
0.0
 11
1626.187768083477
 21
1107.001028033579
 31
0.0
  0
LINE
  5
2DD9
330
18
100
AcDbEntity
  8
0
100
AcDbLine
 10
1622.190149035859
 20
1122.936537226241
 30
0.0
 11
1622.394910940621
 21
1126.63415627386
 31
0.0
  0
LINE
  5
2DDA
330
18
100
AcDbEntity
  8
0
100
AcDbLine
 10
1622.394910940621
 20
1126.63415627386
 30
0.0
 11
1623.190149035858
 21
1127.612727702431
 31
0.0
  0
LINE
  5
2DDB
330
18
100
AcDbEntity
  8
0
100
AcDbLine
 10
1626.190149035859
 20
1108.612727702431
 30
0.0
 11
1622.190149035859
 21
1122.936537226241
 31
0.0
  0
ARC
  5
2DDC
330
18
100
AcDbEntity
  8
0
100
AcDbCircle
 10
1605.570850079045
 20
1102.612727702431
 30
0.0
 40
9.51182148113072
100
AcDbArc
 50
140.8912726349672
 51
219.1087273650328
  0
LINE
  5
2DDD
330
18
100
AcDbEntity
  8
0
100
AcDbLine
 10
1607.190149035858
 20
1096.612727702431
 30
0.0
 11
1598.190149035858
 21
1096.612727702431
 31
0.0
  0
LINE
  5
2DDE
330
18
100
AcDbEntity
  8
0
100
AcDbLine
 10
1596.190149035859
 20
1106.612727702431
 30
0.0
 11
1598.190149035858
 21
1108.612727702431
 31
0.0
  0
LINE
  5
2DDF
330
18
100
AcDbEntity
  8
0
100
AcDbLine
 10
1598.190149035858
 20
1108.612727702431
 30
0.0
 11
1607.190149035858
 21
1108.612727702431
 31
0.0
  0
CIRCLE
  5
30F5
330
18
100
AcDbEntity
  8
0
100
AcDbCircle
 10
1238.290093956291
 20
665.5097053644794
 30
0.0
 40
18.76388374866269
  0
POLYLINE
  5
30F6
330
18
100
AcDbEntity
  8
0
100
AcDb2dPolyline
 66
     1
 10
0.0
 20
0.0
 30
0.0
 70
     1
  0
VERTEX
  5
3E69
330
30F6
100
AcDbEntity
  8
0
100
AcDbVertex
100
AcDb2dVertex
 10
1238.290093956291
 20
687.1763720311459
 30
0.0
  0
VERTEX
  5
3E6A
330
30F6
100
AcDbEntity
  8
0
100
AcDbVertex
100
AcDb2dVertex
 10
1219.526210207628
 20
676.3430386978127
 30
0.0
  0
VERTEX
  5
3E6B
330
30F6
100
AcDbEntity
  8
0
100
AcDbVertex
100
AcDb2dVertex
 10
1219.526210207628
 20
654.6763720311462
 30
0.0
  0
VERTEX
  5
3E6C
330
30F6
100
AcDbEntity
  8
0
100
AcDbVertex
100
AcDb2dVertex
 10
1238.290093956291
 20
643.8430386978129
 30
0.0
  0
VERTEX
  5
3E6D
330
30F6
100
AcDbEntity
  8
0
100
AcDbVertex
100
AcDb2dVertex
 10
1257.053977704954
 20
654.6763720311462
 30
0.0
  0
VERTEX
  5
3E6E
330
30F6
100
AcDbEntity
  8
0
100
AcDbVertex
100
AcDb2dVertex
 10
1257.053977704954
 20
676.3430386978127
 30
0.0
  0
SEQEND
  5
3E6F
330
30F6
100
AcDbEntity
  8
0
  0
LINE
  5
30F7
330
18
100
AcDbEntity
  8
0
100
AcDbLine
 10
1207.294217886785
 20
550.5097053644795
 30
0.0
 11
1269.294217886785
 21
550.5097053644795
 31
0.0
  0
LINE
  5
30F8
330
18
100
AcDbEntity
  8
0
100
AcDbLine
 10
1216.294217886785
 20
571.5097053644795
 30
0.0
 11
1260.294217886785
 21
571.5097053644795
 31
0.0
  0
LINE
  5
30F9
330
18
100
AcDbEntity
  8
0
100
AcDbLine
 10
1269.294217886785
 20
569.5097053644794
 30
0.0
 11
1207.294217886785
 21
569.5097053644794
 31
0.0
  0
LINE
  5
30FA
330
18
100
AcDbEntity
  8
0
100
AcDbLine
 10
1207.294217886785
 20
563.5097053644795
 30
0.0
 11
1269.318027410595
 21
563.5097053644795
 31
0.0
  0
LINE
  5
30FB
330
18
100
AcDbEntity
  8
0
100
AcDbLine
 10
1222.468554897979
 20
581.5097053644795
 30
0.0
 11
1254.111633014603
 21
581.5097053644797
 31
0.0
  0
ARC
  5
30FC
330
18
100
AcDbEntity
  8
0
100
AcDbCircle
 10
1229.631386392382
 20
561.7485429893771
 30
0.0
 40
19.76116237510232
100
AcDbArc
 50
63.99965133804855
 51
116.0003486619511
  0
LINE
  5
30FD
330
18
100
AcDbEntity
  8
0
100
AcDbLine
 10
1223.288903480101
 20
632.0882767930509
 30
0.0
 11
1253.288903480101
 21
632.0882767930509
 31
0.0
  0
LINE
  5
30FE
330
18
100
AcDbEntity
  8
0
100
AcDbLine
 10
1238.290093956291
 20
711.5097053644794
 30
0.0
 11
1220.290093956291
 21
711.5097053644794
 31
0.0
  0
LINE
  5
30FF
330
18
100
AcDbEntity
  8
0
100
AcDbLine
 10
1219.497236813434
 20
710.5311339359079
 30
0.0
 11
1257.085332051529
 21
710.5311339359079
 31
0.0
  0
LINE
  5
3100
330
18
100
AcDbEntity
  8
0
100
AcDbLine
 10
1257.290093956291
 20
706.8335148882889
 30
0.0
 11
1219.290093956291
 21
706.8335148882889
 31
0.0
  0
LINE
  5
3101
330
18
100
AcDbEntity
  8
0
100
AcDbLine
 10
1216.294217886785
 20
471.5097053644795
 30
0.0
 11
1260.294217886785
 21
471.5097053644795
 31
0.0
  0
LINE
  5
3102
330
18
100
AcDbEntity
  8
0
100
AcDbLine
 10
1216.294217886785
 20
469.5097053644794
 30
0.0
 11
1260.294217886785
 21
469.5097053644794
 31
0.0
  0
LINE
  5
3103
330
18
100
AcDbEntity
  8
0
100
AcDbLine
 10
1217.294217886785
 20
445.5097053644794
 30
0.0
 11
1259.294217886785
 21
445.5097053644794
 31
0.0
  0
LINE
  5
3104
330
18
100
AcDbEntity
  8
0
100
AcDbLine
 10
1228.294217886785
 20
446.5097053644795
 30
0.0
 11
1224.794217886785
 21
446.5097053644795
 31
0.0
  0
LINE
  5
3105
330
18
100
AcDbEntity
  8
0
100
AcDbLine
 10
1224.794217886785
 20
467.0097053644794
 30
0.0
 11
1228.294217886785
 21
467.0097053644794
 31
0.0
  0
LINE
  5
3106
330
18
100
AcDbEntity
  8
0
100
AcDbLine
 10
1212.35612264869
 20
535.5097053644795
 30
0.0
 11
1264.23231312488
 21
535.5097053644795
 31
0.0
  0
LINE
  5
3107
330
18
100
AcDbEntity
  8
0
100
AcDbLine
 10
1223.288903480101
 20
641.1214050333314
 30
0.0
 11
1223.288903480101
 21
582.0097053644798
 31
0.0
  0
LINE
  5
3108
330
18
100
AcDbEntity
  8
0
100
AcDbLine
 10
1101.164181301307
 20
645.1174607299232
 30
0.0
 11
1101.164181301307
 21
582.5006166198907
 31
0.0
  0
LINE
  5
3109
330
18
100
AcDbEntity
  8
0
100
AcDbLine
 10
1131.164181301307
 20
582.5097053644794
 30
0.0
 11
1131.164181301307
 21
644.6337420846633
 31
0.0
  0
LINE
  5
3156
330
18
100
AcDbEntity
  8
0
100
AcDbLine
 10
1216.294217886785
 20
469.5097053644794
 30
0.0
 11
1216.294217886785
 21
446.5097053644795
 31
0.0
  0
LINE
  5
3157
330
18
100
AcDbEntity
  8
0
100
AcDbLine
 10
1138.164181301307
 20
446.5097053644795
 30
0.0
 11
1138.164181301307
 21
469.5097053644794
 31
0.0
  0
LINE
  5
3158
330
18
100
AcDbEntity
  8
0
100
AcDbLine
 10
1094.164181301307
 20
469.5097053644794
 30
0.0
 11
1094.164181301307
 21
446.5097053644795
 31
0.0
  0
LINE
  5
3159
330
18
100
AcDbEntity
  8
0
100
AcDbLine
 10
1095.164181301307
 20
445.5097053644794
 30
0.0
 11
1137.164181301307
 21
445.5097053644794
 31
0.0
  0
LINE
  5
315A
330
18
100
AcDbEntity
  8
0
100
AcDbLine
 10
1106.164181301307
 20
446.5097053644795
 30
0.0
 11
1102.664181301307
 21
446.5097053644795
 31
0.0
  0
LINE
  5
315B
330
18
100
AcDbEntity
  8
0
100
AcDbLine
 10
1102.664181301307
 20
467.0097053644794
 30
0.0
 11
1106.164181301307
 21
467.0097053644794
 31
0.0
  0
LINE
  5
315C
330
18
100
AcDbEntity
  8
0
100
AcDbLine
 10
1096.664181301307
 20
467.0097053644794
 30
0.0
 11
1100.164181301307
 21
467.0097053644794
 31
0.0
  0
LINE
  5
315D
330
18
100
AcDbEntity
  8
0
100
AcDbLine
 10
1094.164181301307
 20
446.5097053644795
 30
0.0
 11
1095.164181301307
 21
445.5097053644794
 31
0.0
  0
LINE
  5
315E
330
18
100
AcDbEntity
  8
0
100
AcDbLine
 10
1100.164181301307
 20
446.5097053644795
 30
0.0
 11
1096.664181301307
 21
446.5097053644795
 31
0.0
  0
LINE
  5
315F
330
18
100
AcDbEntity
  8
0
100
AcDbLine
 10
1096.664181301307
 20
446.5097053644795
 30
0.0
 11
1096.664181301307
 21
467.0097053644794
 31
0.0
  0
LINE
  5
3160
330
18
100
AcDbEntity
  8
0
100
AcDbLine
 10
1100.164181301307
 20
467.0097053644794
 30
0.0
 11
1100.164181301307
 21
446.5097053644795
 31
0.0
  0
LINE
  5
3161
330
18
100
AcDbEntity
  8
0
100
AcDbLine
 10
1102.664181301307
 20
446.5097053644795
 30
0.0
 11
1102.664181301307
 21
467.0097053644794
 31
0.0
  0
LINE
  5
3162
330
18
100
AcDbEntity
  8
0
100
AcDbLine
 10
1120.664181301307
 20
467.0097053644794
 30
0.0
 11
1124.164181301307
 21
467.0097053644794
 31
0.0
  0
LINE
  5
3163
330
18
100
AcDbEntity
  8
0
100
AcDbLine
 10
1124.164181301307
 20
446.5097053644795
 30
0.0
 11
1120.664181301307
 21
446.5097053644795
 31
0.0
  0
LINE
  5
3164
330
18
100
AcDbEntity
  8
0
100
AcDbLine
 10
1114.664181301307
 20
467.0097053644794
 30
0.0
 11
1118.164181301307
 21
467.0097053644794
 31
0.0
  0
LINE
  5
3165
330
18
100
AcDbEntity
  8
0
100
AcDbLine
 10
1108.664181301307
 20
467.0097053644794
 30
0.0
 11
1112.164181301307
 21
467.0097053644794
 31
0.0
  0
LINE
  5
3166
330
18
100
AcDbEntity
  8
0
100
AcDbLine
 10
1118.164181301307
 20
446.5097053644795
 30
0.0
 11
1114.664181301307
 21
446.5097053644795
 31
0.0
  0
LINE
  5
3167
330
18
100
AcDbEntity
  8
0
100
AcDbLine
 10
1112.164181301307
 20
446.5097053644795
 30
0.0
 11
1108.664181301307
 21
446.5097053644795
 31
0.0
  0
LINE
  5
3168
330
18
100
AcDbEntity
  8
0
100
AcDbLine
 10
1106.164181301307
 20
467.0097053644794
 30
0.0
 11
1106.164181301307
 21
446.5097053644795
 31
0.0
  0
LINE
  5
3169
330
18
100
AcDbEntity
  8
0
100
AcDbLine
 10
1120.664181301307
 20
446.5097053644795
 30
0.0
 11
1120.664181301307
 21
467.0097053644794
 31
0.0
  0
LINE
  5
316A
330
18
100
AcDbEntity
  8
0
100
AcDbLine
 10
1108.664181301307
 20
446.5097053644795
 30
0.0
 11
1108.664181301307
 21
467.0097053644794
 31
0.0
  0
LINE
  5
316B
330
18
100
AcDbEntity
  8
0
100
AcDbLine
 10
1112.164181301307
 20
467.0097053644794
 30
0.0
 11
1112.164181301307
 21
446.5097053644795
 31
0.0
  0
LINE
  5
316C
330
18
100
AcDbEntity
  8
0
100
AcDbLine
 10
1114.664181301307
 20
446.5097053644795
 30
0.0
 11
1114.664181301307
 21
467.0097053644794
 31
0.0
  0
LINE
  5
316D
330
18
100
AcDbEntity
  8
0
100
AcDbLine
 10
1118.164181301307
 20
467.0097053644794
 30
0.0
 11
1118.164181301307
 21
446.5097053644795
 31
0.0
  0
LINE
  5
316E
330
18
100
AcDbEntity
  8
0
100
AcDbLine
 10
1126.664181301307
 20
467.0097053644794
 30
0.0
 11
1130.164181301307
 21
467.0097053644794
 31
0.0
  0
LINE
  5
316F
330
18
100
AcDbEntity
  8
0
100
AcDbLine
 10
1132.664181301307
 20
467.0097053644794
 30
0.0
 11
1136.164181301307
 21
467.0097053644794
 31
0.0
  0
LINE
  5
3170
330
18
100
AcDbEntity
  8
0
100
AcDbLine
 10
1130.164181301307
 20
446.5097053644795
 30
0.0
 11
1126.664181301307
 21
446.5097053644795
 31
0.0
  0
POINT
  5
3171
330
18
100
AcDbEntity
  8
0
  6
BYBLOCK
100
AcDbPoint
 10
1127.009419396545
 20
445.5097053644794
 30
0.0
  0
LINE
  5
3172
330
18
100
AcDbEntity
  8
0
100
AcDbLine
 10
1136.164181301307
 20
446.5097053644795
 30
0.0
 11
1132.664181301307
 21
446.5097053644795
 31
0.0
  0
LINE
  5
3173
330
18
100
AcDbEntity
  8
0
100
AcDbLine
 10
1137.164181301307
 20
445.5097053644794
 30
0.0
 11
1138.164181301307
 21
446.5097053644795
 31
0.0
  0
LINE
  5
3174
330
18
100
AcDbEntity
  8
0
100
AcDbLine
 10
1131.77132415845
 20
445.5097053644794
 30
0.0
 11
1131.77132415845
 21
445.5097053644794
 31
0.0
  0
LINE
  5
3175
330
18
100
AcDbEntity
  8
0
100
AcDbLine
 10
1132.664181301307
 20
446.5097053644795
 30
0.0
 11
1132.664181301307
 21
467.0097053644794
 31
0.0
  0
LINE
  5
3176
330
18
100
AcDbEntity
  8
0
100
AcDbLine
 10
1136.164181301307
 20
467.0097053644794
 30
0.0
 11
1136.164181301307
 21
446.5097053644795
 31
0.0
  0
LINE
  5
3177
330
18
100
AcDbEntity
  8
0
100
AcDbLine
 10
1126.664181301307
 20
446.5097053644795
 30
0.0
 11
1126.664181301307
 21
467.0097053644794
 31
0.0
  0
LINE
  5
3178
330
18
100
AcDbEntity
  8
0
100
AcDbLine
 10
1130.164181301307
 20
467.0097053644794
 30
0.0
 11
1130.164181301307
 21
446.5097053644795
 31
0.0
  0
LINE
  5
3179
330
18
100
AcDbEntity
  8
0
100
AcDbLine
 10
1124.164181301307
 20
467.0097053644794
 30
0.0
 11
1124.164181301307
 21
446.5097053644795
 31
0.0
  0
LINE
  5
317A
330
18
100
AcDbEntity
  8
0
100
AcDbLine
 10
1218.794217886785
 20
467.0097053644794
 30
0.0
 11
1222.294217886785
 21
467.0097053644794
 31
0.0
  0
LINE
  5
317B
330
18
100
AcDbEntity
  8
0
100
AcDbLine
 10
1222.294217886785
 20
446.5097053644795
 30
0.0
 11
1218.794217886785
 21
446.5097053644795
 31
0.0
  0
LINE
  5
317C
330
18
100
AcDbEntity
  8
0
100
AcDbLine
 10
1216.294217886785
 20
446.5097053644795
 30
0.0
 11
1217.294217886785
 21
445.5097053644794
 31
0.0
  0
LINE
  5
317D
330
18
100
AcDbEntity
  8
0
100
AcDbLine
 10
1224.794217886785
 20
446.5097053644795
 30
0.0
 11
1224.794217886785
 21
467.0097053644794
 31
0.0
  0
LINE
  5
317E
330
18
100
AcDbEntity
  8
0
100
AcDbLine
 10
1222.294217886785
 20
467.0097053644794
 30
0.0
 11
1222.294217886785
 21
446.5097053644795
 31
0.0
  0
LINE
  5
317F
330
18
100
AcDbEntity
  8
0
100
AcDbLine
 10
1218.794217886785
 20
446.5097053644795
 30
0.0
 11
1218.794217886785
 21
467.0097053644794
 31
0.0
  0
LINE
  5
3180
330
18
100
AcDbEntity
  8
0
100
AcDbLine
 10
1085.164181301307
 20
563.5097053644795
 30
0.0
 11
1147.187990825117
 21
563.5097053644795
 31
0.0
  0
LINE
  5
3181
330
18
100
AcDbEntity
  8
0
100
AcDbLine
 10
1147.164181301307
 20
569.5097053644794
 30
0.0
 11
1085.164181301307
 21
569.5097053644794
 31
0.0
  0
LINE
  5
3182
330
18
100
AcDbEntity
  8
0
100
AcDbLine
 10
1083.182358790484
 20
550.5097053644795
 30
0.0
 11
1149.164181301307
 21
550.5097053644795
 31
0.0
  0
LINE
  5
3183
330
18
100
AcDbEntity
  8
0
100
AcDbLine
 10
1155.664181301307
 20
561.5097053644794
 30
0.0
 11
1136.426086063212
 21
561.5097053644794
 31
0.0
  0
LINE
  5
3184
330
18
100
AcDbEntity
  8
0
100
AcDbLine
 10
1155.664181301307
 20
552.5097053644794
 30
0.0
 11
1136.426086063212
 21
552.5097053644794
 31
0.0
  0
LINE
  5
3185
330
18
100
AcDbEntity
  8
0
100
AcDbLine
 10
1145.164181301307
 20
571.5097053644795
 30
0.0
 11
1138.14600381213
 21
571.5097053644793
 31
0.0
  0
LINE
  5
3186
330
18
100
AcDbEntity
  8
0
100
AcDbLine
 10
1142.086058941582
 20
535.5097053644795
 30
0.0
 11
1145.182358790485
 21
535.5097053644795
 31
0.0
  0
LINE
  5
3187
330
18
100
AcDbEntity
  8
0
100
AcDbLine
 10
1092.223158177284
 20
533.589817091763
 30
0.0
 11
1094.164181301307
 21
471.5097053644795
 31
0.0
  0
LINE
  5
3188
330
18
100
AcDbEntity
  8
0
100
AcDbLine
 10
1138.164181301307
 20
471.5097053644795
 30
0.0
 11
1140.105204425331
 21
533.589817091763
 31
0.0
  0
LINE
  5
3189
330
18
100
AcDbEntity
  8
0
100
AcDbLine
 10
1094.164181301307
 20
469.5097053644794
 30
0.0
 11
1138.164181301307
 21
469.5097053644794
 31
0.0
  0
LINE
  5
318A
330
18
100
AcDbEntity
  8
0
100
AcDbLine
 10
1094.164181301307
 20
471.5097053644795
 30
0.0
 11
1138.164181301307
 21
471.5097053644795
 31
0.0
  0
LINE
  5
318B
330
18
100
AcDbEntity
  8
0
100
AcDbLine
 10
1094.164181301307
 20
471.5097053644795
 30
0.0
 11
1094.164181301307
 21
469.5097053644794
 31
0.0
  0
LINE
  5
318C
330
18
100
AcDbEntity
  8
0
100
AcDbLine
 10
1138.164181301307
 20
469.5097053644794
 30
0.0
 11
1138.164181301307
 21
471.5097053644795
 31
0.0
  0
LINE
  5
318D
330
18
100
AcDbEntity
  8
0
100
AcDbLine
 10
1138.164181301307
 20
471.5097053644795
 30
0.0
 11
1138.164181301307
 21
469.5097053644794
 31
0.0
  0
LINE
  5
318E
330
18
100
AcDbEntity
  8
0
100
AcDbLine
 10
1101.164181301307
 20
581.5097053644795
 30
0.0
 11
1131.164181301307
 21
581.5097053644795
 31
0.0
  0
LINE
  5
318F
330
18
100
AcDbEntity
  8
0
100
AcDbLine
 10
1094.164181301307
 20
571.5097053644795
 30
0.0
 11
1138.164181301307
 21
571.5097053644795
 31
0.0
  0
ARC
  5
3190
330
18
100
AcDbEntity
  8
0
100
AcDbCircle
 10
1101.164181301307
 20
570.9804352764336
 30
0.0
 40
9.886781490193518
100
AcDbArc
 50
59.62045877107969
 51
120.3795412289202
  0
LINE
  5
3191
330
18
100
AcDbEntity
  8
0
100
AcDbLine
 10
1090.226086063212
 20
535.5097053644795
 30
0.0
 11
1142.102276539402
 21
535.5097053644795
 31
0.0
  0
LINE
  5
3192
330
18
100
AcDbEntity
  8
0
100
AcDbLine
 10
1086.164181301307
 20
559.5278828536569
 30
0.0
 11
1086.164181301307
 21
554.5097053644793
 31
0.0
  0
CIRCLE
  5
3193
330
18
100
AcDbEntity
  8
0
100
AcDbCircle
 10
1076.664181301307
 20
557.0097053644794
 30
0.0
 40
2.354511904761904
  0
CIRCLE
  5
3194
330
18
100
AcDbEntity
  8
0
100
AcDbCircle
 10
1076.664181301307
 20
557.0097053644794
 30
0.0
 40
3.08890476190476
  0
CIRCLE
  5
3195
330
18
100
AcDbEntity
  8
0
100
AcDbCircle
 10
1076.664181301307
 20
557.0097053644794
 30
0.0
 40
4.500023809523807
  0
ARC
  5
3196
330
18
100
AcDbEntity
  8
0
100
AcDbCircle
 10
1076.659419396555
 20
557.0097053644794
 30
0.0
 40
6.500001744287216
100
AcDbArc
 50
89.95802507754998
 51
270.0419749223555
  0
LINE
  5
3197
330
18
100
AcDbEntity
  8
0
100
AcDbLine
 10
1076.664181301307
 20
552.5097053644794
 30
0.0
 11
1095.902276539403
 21
552.5097053644794
 31
0.0
  0
LINE
  5
3198
330
18
100
AcDbEntity
  8
0
100
AcDbLine
 10
1076.664181301297
 20
550.5097053644795
 30
0.0
 11
1083.182358790484
 21
550.5097053644793
 31
0.0
  0
LINE
  5
3199
330
18
100
AcDbEntity
  8
0
100
AcDbLine
 10
1084.164181301307
 20
552.5097053644794
 30
0.0
 11
1083.416562253688
 21
552.5097053644794
 31
0.0
  0
LINE
  5
319A
330
18
100
AcDbEntity
  8
0
100
AcDbLine
 10
1084.164181301307
 20
552.5097053644794
 30
0.0
 11
1083.416562253688
 21
552.5097053644794
 31
0.0
  0
ARC
  5
319B
330
18
100
AcDbEntity
  8
0
100
AcDbCircle
 10
1084.182358790485
 20
554.5097053644793
 30
0.0
 40
1.98182251082251
100
AcDbArc
 50
270.0
 51
0.0
  0
ARC
  5
319C
330
18
100
AcDbEntity
  8
0
100
AcDbCircle
 10
1083.182358790484
 20
548.5278828536569
 30
0.0
 40
1.981822510822496
100
AcDbArc
 50
0.0
 51
90.0
  0
ARC
  5
319D
330
18
100
AcDbEntity
  8
0
100
AcDbCircle
 10
1087.146003812129
 20
537.4915278753019
 30
0.0
 40
1.981822510822503
100
AcDbArc
 50
180.0
 51
270.0
  0
LINE
  5
319E
330
18
100
AcDbEntity
  8
0
100
AcDbLine
 10
1087.146003812129
 20
535.5097053644795
 30
0.0
 11
1090.242303661032
 21
535.5097053644795
 31
0.0
  0
ARC
  5
319F
330
18
100
AcDbEntity
  8
0
100
AcDbCircle
 10
1090.242303661032
 20
533.5278828536569
 30
0.0
 40
1.98182251082251
100
AcDbArc
 50
1.790850742120779
 51
90.0
  0
LINE
  5
31A0
330
18
100
AcDbEntity
  8
0
100
AcDbLine
 10
1085.164181301307
 20
548.5278828536569
 30
0.0
 11
1085.164181301307
 21
537.4915278753019
 31
0.0
  0
LINE
  5
31A1
330
18
100
AcDbEntity
  8
0
100
AcDbLine
 10
1076.664181301307
 20
561.5097053644794
 30
0.0
 11
1095.902276539403
 21
561.5097053644794
 31
0.0
  0
LINE
  5
31A2
330
18
100
AcDbEntity
  8
0
100
AcDbLine
 10
1085.164181301307
 20
563.5097053644795
 30
0.0
 11
1076.664181301307
 21
563.5097053644795
 31
0.0
  0
LINE
  5
31A3
330
18
100
AcDbEntity
  8
0
100
AcDbLine
 10
1100.173270045896
 20
581.5097053644795
 30
0.0
 11
1098.14600381213
 21
581.5097053644795
 31
0.0
  0
ARC
  5
31A4
330
18
100
AcDbEntity
  8
0
100
AcDbCircle
 10
1100.173270045896
 20
582.5006166198907
 30
0.0
 40
0.9909112554112482
100
AcDbArc
 50
270.0
 51
0.0
  0
LINE
  5
31A5
330
18
100
AcDbEntity
  8
0
100
AcDbLine
 10
1101.12132415845
 20
582.2158958406698
 30
0.0
 11
1101.061800348926
 21
582.068514888289
 31
0.0
  0
LINE
  5
31A6
330
18
100
AcDbEntity
  8
0
100
AcDbLine
 10
1101.154657491783
 20
582.3649434597175
 30
0.0
 11
1101.12132415845
 21
582.2158958406698
 31
0.0
  0
LINE
  5
31A7
330
18
100
AcDbEntity
  8
0
100
AcDbLine
 10
1101.164181301307
 20
582.5097053644794
 30
0.0
 11
1101.154657491783
 21
582.3649434597175
 31
0.0
  0
LINE
  5
31A8
330
18
100
AcDbEntity
  8
0
100
AcDbLine
 10
1101.164181301307
 20
582.5097053644794
 30
0.0
 11
1101.164181301307
 21
582.5097053644794
 31
0.0
  0
LINE
  5
31A9
330
18
100
AcDbEntity
  8
0
100
AcDbLine
 10
1094.182358790485
 20
571.5097053644795
 30
0.0
 11
1087.164181301307
 21
571.5097053644795
 31
0.0
  0
LINE
  5
31AA
330
18
100
AcDbEntity
  8
0
100
AcDbLine
 10
1096.164181301307
 20
579.5278828536569
 30
0.0
 11
1096.164181301307
 21
573.4915278753019
 31
0.0
  0
ARC
  5
31AB
330
18
100
AcDbEntity
  8
0
100
AcDbCircle
 10
1098.14600381213
 20
579.5278828536569
 30
0.0
 40
1.981822510822524
100
AcDbArc
 50
90.0
 51
180.0
  0
LINE
  5
31AC
330
18
100
AcDbEntity
  8
0
100
AcDbLine
 10
1085.164181301307
 20
569.5097053644794
 30
0.0
 11
1085.164181301307
 21
563.5097053644795
 31
0.0
  0
LINE
  5
31AD
330
18
100
AcDbEntity
  8
0
100
AcDbLine
 10
1083.709419396545
 20
561.5097053644794
 30
0.0
 11
1084.164181301307
 21
561.5097053644794
 31
0.0
  0
ARC
  5
31AE
330
18
100
AcDbEntity
  8
0
100
AcDbCircle
 10
1084.182358790485
 20
559.5278828536569
 30
0.0
 40
1.98182251082251
100
AcDbArc
 50
0.0
 51
90.0
  0
ARC
  5
31AF
330
18
100
AcDbEntity
  8
0
100
AcDbCircle
 10
1094.182358790485
 20
573.4915278753019
 30
0.0
 40
1.981822510822503
100
AcDbArc
 50
270.0
 51
0.0
  0
LINE
  5
31B0
330
18
100
AcDbEntity
  8
0
100
AcDbLine
 10
1087.164181301307
 20
571.5097053644795
 30
0.0
 11
1085.164181301307
 21
569.5097053644794
 31
0.0
  0
ARC
  5
31B1
330
18
100
AcDbEntity
  8
0
100
AcDbCircle
 10
1142.086058941582
 20
533.5278828536569
 30
0.0
 40
1.981822510822524
100
AcDbArc
 50
90.0
 51
178.2091492578792
  0
ARC
  5
31B2
330
18
100
AcDbEntity
  8
0
100
AcDbCircle
 10
1116.164181301307
 20
555.5097053644793
 30
0.0
 40
26.00000000000003
100
AcDbArc
 50
67.38013505195756
 51
112.6198649480424
  0
LINE
  5
31B3
330
18
100
AcDbEntity
  8
0
100
AcDbLine
 10
1106.164181301307
 20
579.5097053644794
 30
0.0
 11
1106.164181301307
 21
571.5097053644795
 31
0.0
  0
ARC
  5
31B4
330
18
100
AcDbEntity
  8
0
100
AcDbCircle
 10
1131.164181301307
 20
570.9804352764336
 30
0.0
 40
9.886781490193518
100
AcDbArc
 50
59.62045877107969
 51
120.3795412289202
  0
LINE
  5
31B5
330
18
100
AcDbEntity
  8
0
100
AcDbLine
 10
1126.164181301307
 20
579.5097053644794
 30
0.0
 11
1126.164181301307
 21
571.5097053644795
 31
0.0
  0
LINE
  5
31B6
330
18
100
AcDbEntity
  8
0
100
AcDbLine
 10
1134.182358790485
 20
581.5097053644795
 30
0.0
 11
1132.157832643231
 21
581.5097053644794
 31
0.0
  0
ARC
  5
31B7
330
18
100
AcDbEntity
  8
0
100
AcDbCircle
 10
1134.182358790485
 20
579.5278828536569
 30
0.0
 40
1.981822510822524
100
AcDbArc
 50
0.0
 51
90.0
  0
LINE
  5
31B8
330
18
100
AcDbEntity
  8
0
100
AcDbLine
 10
1136.164181301307
 20
573.4915278753019
 30
0.0
 11
1136.164181301307
 21
579.5278828536569
 31
0.0
  0
LINE
  5
31B9
330
18
100
AcDbEntity
  8
0
100
AcDbLine
 10
1131.169058909735
 20
582.4355657163706
 30
0.0
 11
1131.164181301307
 21
582.5097053644794
 31
0.0
  0
ARC
  5
31BA
330
18
100
AcDbEntity
  8
0
100
AcDbCircle
 10
1132.157832643231
 20
582.5006166198907
 30
0.0
 40
0.9909112554112482
100
AcDbArc
 50
183.7640348649377
 51
270.0
  0
ARC
  5
31BB
330
18
100
AcDbEntity
  8
0
100
AcDbCircle
 10
1138.14600381213
 20
573.4915278753019
 30
0.0
 40
1.981822510822496
100
AcDbArc
 50
180.0
 51
270.0
  0
LINE
  5
31BC
330
18
100
AcDbEntity
  8
0
100
AcDbLine
 10
1214.353194762762
 20
533.589817091763
 30
0.0
 11
1216.294217886785
 21
471.5097053644795
 31
0.0
  0
LINE
  5
31BD
330
18
100
AcDbEntity
  8
0
100
AcDbLine
 10
1216.294217886785
 20
471.5097053644795
 30
0.0
 11
1216.294217886785
 21
469.5097053644794
 31
0.0
  0
LINE
  5
31BE
330
18
100
AcDbEntity
  8
0
100
AcDbLine
 10
1146.164181301307
 20
559.5278828536569
 30
0.0
 11
1146.164181301307
 21
554.5097053644793
 31
0.0
  0
CIRCLE
  5
31BF
330
18
100
AcDbEntity
  8
0
100
AcDbCircle
 10
1155.664181301307
 20
557.0097053644794
 30
0.0
 40
2.354485714285713
  0
ARC
  5
31C0
330
18
100
AcDbEntity
  8
0
100
AcDbCircle
 10
1155.668943206059
 20
557.0097053644794
 30
0.0
 40
6.500001744287209
100
AcDbArc
 50
269.9580250776444
 51
90.04197492245003
  0
CIRCLE
  5
31C1
330
18
100
AcDbEntity
  8
0
100
AcDbCircle
 10
1155.664181301307
 20
557.0097053644794
 30
0.0
 40
4.500023809523807
  0
CIRCLE
  5
31C2
330
18
100
AcDbEntity
  8
0
100
AcDbCircle
 10
1155.664181301307
 20
557.0097053644794
 30
0.0
 40
3.08895238095238
  0
ARC
  5
31C3
330
18
100
AcDbEntity
  8
0
100
AcDbCircle
 10
1149.146003812129
 20
548.5278828536569
 30
0.0
 40
1.98182251082251
100
AcDbArc
 50
90.0
 51
180.0
  0
LINE
  5
31C4
330
18
100
AcDbEntity
  8
0
100
AcDbLine
 10
1148.164181301307
 20
552.5097053644794
 30
0.0
 11
1148.911800348926
 21
552.5097053644794
 31
0.0
  0
ARC
  5
31C5
330
18
100
AcDbEntity
  8
0
100
AcDbCircle
 10
1148.14600381213
 20
554.5097053644793
 30
0.0
 40
1.98182251082251
100
AcDbArc
 50
180.0
 51
270.0
  0
LINE
  5
31C6
330
18
100
AcDbEntity
  8
0
100
AcDbLine
 10
1149.146003812129
 20
550.5097053644795
 30
0.0
 11
1155.664181301318
 21
550.5097053644795
 31
0.0
  0
ARC
  5
31C7
330
18
100
AcDbEntity
  8
0
100
AcDbCircle
 10
1145.182358790485
 20
537.4915278753019
 30
0.0
 40
1.981822510822496
100
AcDbArc
 50
270.0
 51
0.0
  0
LINE
  5
31C8
330
18
100
AcDbEntity
  8
0
100
AcDbLine
 10
1147.164181301307
 20
537.4915278753019
 30
0.0
 11
1147.164181301307
 21
548.5278828536569
 31
0.0
  0
LINE
  5
31C9
330
18
100
AcDbEntity
  8
0
100
AcDbLine
 10
1155.664181301307
 20
563.5097053644795
 30
0.0
 11
1147.187990825117
 21
563.5097053644795
 31
0.0
  0
LINE
  5
31CA
330
18
100
AcDbEntity
  8
0
100
AcDbLine
 10
1147.187990825117
 20
563.5097053644795
 30
0.0
 11
1147.187990825117
 21
569.5097053644794
 31
0.0
  0
LINE
  5
31CB
330
18
100
AcDbEntity
  8
0
100
AcDbLine
 10
1147.187990825117
 20
569.5097053644794
 30
0.0
 11
1147.164181301307
 21
569.5097053644794
 31
0.0
  0
ARC
  5
31CC
330
18
100
AcDbEntity
  8
0
100
AcDbCircle
 10
1148.14600381213
 20
559.5278828536569
 30
0.0
 40
1.98182251082251
100
AcDbArc
 50
90.0
 51
180.0
  0
LINE
  5
31CD
330
18
100
AcDbEntity
  8
0
100
AcDbLine
 10
1147.187990825117
 20
569.5097053644794
 30
0.0
 11
1145.164181301307
 21
571.5097053644795
 31
0.0
  0
LINE
  5
31CE
330
18
100
AcDbEntity
  8
0
100
AcDbLine
 10
1210.294217886785
 20
563.5097053644795
 30
0.0
 11
1210.294217886785
 21
550.5097053644795
 31
0.0
  0
LINE
  5
31CF
330
18
100
AcDbEntity
  8
0
100
AcDbLine
 10
1207.294217886785
 20
569.5097053644794
 30
0.0
 11
1207.294217886785
 21
537.4915278753019
 31
0.0
  0
LINE
  5
31D0
330
18
100
AcDbEntity
  8
0
100
AcDbLine
 10
1209.276040397608
 20
535.5097053644795
 30
0.0
 11
1212.37234024651
 21
535.5097053644795
 31
0.0
  0
ARC
  5
31D1
330
18
100
AcDbEntity
  8
0
100
AcDbCircle
 10
1209.276040397608
 20
537.4915278753019
 30
0.0
 40
1.981822510822503
100
AcDbArc
 50
180.0
 51
270.0
  0
ARC
  5
31D2
330
18
100
AcDbEntity
  8
0
100
AcDbCircle
 10
1212.37234024651
 20
533.5278828536569
 30
0.0
 40
1.98182251082251
100
AcDbArc
 50
1.790850742120779
 51
90.0
  0
LINE
  5
31D3
330
18
100
AcDbEntity
  8
0
100
AcDbLine
 10
1216.312395375963
 20
571.5097053644795
 30
0.0
 11
1209.294217886785
 21
571.5097053644795
 31
0.0
  0
ARC
  5
31D4
330
18
100
AcDbEntity
  8
0
100
AcDbCircle
 10
1222.7889034801
 20
582.0097053644798
 30
0.0
 40
0.5
100
AcDbArc
 50
270.0
 51
0.0
  0
ARC
  5
31D5
330
18
100
AcDbEntity
  8
0
100
AcDbCircle
 10
1222.468554897979
 20
580.0097053644796
 30
0.0
 40
1.5
100
AcDbArc
 50
90.00000000000019
 51
179.9999999999994
  0
LINE
  5
31D6
330
18
100
AcDbEntity
  8
0
100
AcDbLine
 10
1220.968554897979
 20
580.0097053644796
 30
0.0
 11
1220.968554897979
 21
573.4915278753019
 31
0.0
  0
LINE
  5
31D7
330
18
100
AcDbEntity
  8
0
100
AcDbLine
 10
1209.294217886785
 20
571.5097053644795
 30
0.0
 11
1207.294217886785
 21
569.5097053644794
 31
0.0
  0
ARC
  5
31D8
330
18
100
AcDbEntity
  8
0
100
AcDbCircle
 10
1218.986732387156
 20
573.4915278753019
 30
0.0
 40
1.981822510822503
100
AcDbArc
 50
270.0
 51
0.0
  0
LINE
  5
31F3
330
18
100
AcDbEntity
  8
0
100
AcDbLine
 10
1219.290093956291
 20
706.8335148882891
 30
0.0
 11
1223.290093956291
 21
691.5097053644794
 31
0.0
  0
LINE
  5
31F4
330
18
100
AcDbEntity
  8
0
100
AcDbLine
 10
1131.164181301307
 20
691.5097053644794
 30
0.0
 11
1135.164181301307
 21
706.8335148882891
 31
0.0
  0
LINE
  5
31F5
330
18
100
AcDbEntity
  8
0
100
AcDbLine
 10
1097.164181301307
 20
706.8335148882891
 30
0.0
 11
1101.164181301307
 21
691.5097053644794
 31
0.0
  0
LINE
  5
31FE
330
18
100
AcDbEntity
  8
0
100
AcDbLine
 10
1101.164181301307
 20
632.0882767930509
 30
0.0
 11
1131.164181301307
 21
632.0882767930509
 31
0.0
  0
ARC
  5
321B
330
18
100
AcDbEntity
  8
0
100
AcDbCircle
 10
1099.165371777498
 20
689.9006827042216
 30
0.0
 40
2.0
100
AcDbArc
 50
336.0250980827019
 51
0.0
  0
LINE
  5
321C
330
18
100
AcDbEntity
  8
0
100
AcDbLine
 10
1101.165371777498
 20
691.5097053644793
 30
0.0
 11
1101.165371777498
 21
689.9006827042216
 31
0.0
  0
LINE
  5
322B
330
18
100
AcDbEntity
  8
0
100
AcDbLine
 10
1100.992818854716
 20
689.0880098426301
 30
0.0
 11
1099.033867383631
 21
684.6829407066488
 31
0.0
  0
ARC
  5
3237
330
18
100
AcDbEntity
  8
0
100
AcDbCircle
 10
1116.164181301307
 20
613.5428394525921
 30
0.0
 40
37.31131470916864
100
AcDbArc
 50
69.76692968716031
 51
110.2330703128396
  0
ARC
  5
3275
330
18
100
AcDbEntity
  8
0
100
AcDbCircle
 10
1116.164181301307
 20
717.7323028356782
 30
0.0
 40
37.31131470916864
100
AcDbArc
 50
249.7669296871602
 51
290.2330703128396
  0
ARC
  5
327D
330
18
100
AcDbEntity
  8
0
100
AcDbCircle
 10
1133.166562253688
 20
689.8980056956275
 30
0.0
 40
2.0
100
AcDbArc
 50
180.0
 51
203.974901917298
  0
LINE
  5
327E
330
18
100
AcDbEntity
  8
0
100
AcDbLine
 10
1131.165371777498
 20
691.5097053644793
 30
0.0
 11
1131.166562253688
 21
689.8980056956275
 31
0.0
  0
LINE
  5
328B
330
18
100
AcDbEntity
  8
0
100
AcDbLine
 10
1131.33911517647
 20
689.0853328340361
 30
0.0
 11
1133.081764598203
 21
685.1666593519088
 31
0.0
  0
LINE
  5
328C
330
18
100
AcDbEntity
  8
0
100
AcDbLine
 10
1223.116350557319
 20
641.9340778949228
 30
0.0
 11
1219.325258458456
 21
650.4590582442918
 31
0.0
  0
ARC
  5
3293
330
18
100
AcDbEntity
  8
0
100
AcDbCircle
 10
1221.288903480101
 20
641.1214050333314
 30
0.0
 40
2.0
100
AcDbArc
 50
0.0
 51
23.97490191729834
  0
LINE
  5
329E
330
18
100
AcDbEntity
  8
0
100
AcDbLine
 10
1223.290093956291
 20
691.5097053644794
 30
0.0
 11
1223.290093956291
 21
689.9006827042216
 31
0.0
  0
ARC
  5
329F
330
18
100
AcDbEntity
  8
0
100
AcDbCircle
 10
1221.290093956291
 20
689.9006827042216
 30
0.0
 40
2.0
100
AcDbArc
 50
336.0250980827019
 51
0.0
  0
LINE
  5
32A0
330
18
100
AcDbEntity
  8
0
100
AcDbLine
 10
1223.117541033509
 20
689.0880098426302
 30
0.0
 11
1219.325258458456
 21
680.5603524846672
 31
0.0
  0
CIRCLE
  5
32A3
330
18
100
AcDbEntity
  8
0
100
AcDbCircle
 10
1116.164181301307
 20
780.6030969432556
 30
0.0
 40
18.99880952380954
  0
CIRCLE
  5
32A4
330
18
100
AcDbEntity
  8
0
100
AcDbCircle
 10
1116.164181301307
 20
780.6030969432556
 30
0.0
 40
18.79404761904766
  0
CIRCLE
  5
32A5
330
18
100
AcDbEntity
  8
0
100
AcDbCircle
 10
1116.164181301307
 20
780.6030969432556
 30
0.0
 40
18.0
  0
CIRCLE
  5
32A6
330
18
100
AcDbEntity
  8
0
100
AcDbCircle
 10
1116.164181301307
 20
780.6030969432556
 30
0.0
 40
22.51666049839542
  0
ARC
  5
32AC
330
18
100
AcDbEntity
  8
0
100
AcDbCircle
 10
1116.164181301307
 20
780.6030969432556
 30
0.0
 40
31.00000000000005
100
AcDbArc
 50
215.2148423704311
 51
324.7851576295688
  0
LINE
  5
32AE
330
18
100
AcDbEntity
  8
0
100
AcDbLine
 10
1116.164181301307
 20
711.5097053644794
 30
0.0
 11
1098.164181301307
 21
711.5097053644794
 31
0.0
  0
LINE
  5
32AF
330
18
100
AcDbEntity
  8
0
100
AcDbLine
 10
1097.37132415845
 20
710.5311339359079
 30
0.0
 11
1134.959419396545
 21
710.5311339359079
 31
0.0
  0
LINE
  5
32B0
330
18
100
AcDbEntity
  8
0
100
AcDbLine
 10
1135.164181301307
 20
706.8335148882889
 30
0.0
 11
1097.164181301307
 21
706.8335148882889
 31
0.0
  0
LINE
  5
32B1
330
18
100
AcDbEntity
  8
0
100
AcDbLine
 10
1097.37132415845
 20
710.5311339359079
 30
0.0
 11
1097.164181301307
 21
706.8335148882891
 31
0.0
  0
LINE
  5
32B2
330
18
100
AcDbEntity
  8
0
100
AcDbLine
 10
1098.164181301307
 20
711.5097053644794
 30
0.0
 11
1097.37132415845
 21
710.5311339359079
 31
0.0
  0
LINE
  5
32B9
330
18
100
AcDbEntity
  8
0
100
AcDbLine
 10
1134.164181301307
 20
711.5097053644794
 30
0.0
 11
1116.164181301307
 21
711.5097053644794
 31
0.0
  0
LINE
  5
32BA
330
18
100
AcDbEntity
  8
0
100
AcDbLine
 10
1122.678467015593
 20
711.5097053644794
 30
0.0
 11
1122.678467015593
 21
711.5097053644794
 31
0.0
  0
POINT
  5
32BB
330
18
100
AcDbEntity
  8
0
  6
BYBLOCK
100
AcDbPoint
 10
1117.916562253688
 20
711.5097053644794
 30
0.0
  0
POINT
  5
32BC
330
18
100
AcDbEntity
  8
0
  6
BYBLOCK
100
AcDbPoint
 10
1117.916562253688
 20
711.5097053644794
 30
0.0
  0
LINE
  5
32BD
330
18
100
AcDbEntity
  8
0
100
AcDbLine
 10
1135.164181301307
 20
706.8335148882891
 30
0.0
 11
1134.959419396545
 21
710.5311339359079
 31
0.0
  0
LINE
  5
32BE
330
18
100
AcDbEntity
  8
0
100
AcDbLine
 10
1134.959419396545
 20
710.5311339359079
 30
0.0
 11
1134.164181301307
 21
711.5097053644794
 31
0.0
  0
ARC
  5
32C3
330
18
100
AcDbEntity
  8
0
100
AcDbCircle
 10
1116.164181301307
 20
780.6030969432556
 30
0.0
 40
31.00000000000005
100
AcDbArc
 50
35.21484237043111
 51
144.7851576295688
  0
LINE
  5
32DE
330
18
100
AcDbEntity
  8
0
100
AcDbLine
 10
1219.497236813434
 20
710.5311339359079
 30
0.0
 11
1219.290093956291
 21
706.8335148882891
 31
0.0
  0
LINE
  5
32DF
330
18
100
AcDbEntity
  8
0
100
AcDbLine
 10
1220.290093956291
 20
711.5097053644794
 30
0.0
 11
1219.497236813434
 21
710.5311339359079
 31
0.0
  0
LINE
  5
32E2
330
18
100
AcDbEntity
  8
0
100
AcDbLine
 10
1253.288903480101
 20
582.0097053644798
 30
0.0
 11
1253.288903480101
 21
641.116051016143
 31
0.0
  0
LINE
  5
32E3
330
18
100
AcDbEntity
  8
0
100
AcDbLine
 10
1260.294217886785
 20
446.5097053644795
 30
0.0
 11
1260.294217886785
 21
469.5097053644794
 31
0.0
  0
LINE
  5
32E4
330
18
100
AcDbEntity
  8
0
100
AcDbLine
 10
1230.794217886785
 20
467.0097053644794
 30
0.0
 11
1234.294217886785
 21
467.0097053644794
 31
0.0
  0
LINE
  5
32E5
330
18
100
AcDbEntity
  8
0
100
AcDbLine
 10
1236.794217886785
 20
467.0097053644794
 30
0.0
 11
1240.294217886785
 21
467.0097053644794
 31
0.0
  0
LINE
  5
32E6
330
18
100
AcDbEntity
  8
0
100
AcDbLine
 10
1242.794217886785
 20
467.0097053644794
 30
0.0
 11
1246.294217886785
 21
467.0097053644794
 31
0.0
  0
LINE
  5
32E7
330
18
100
AcDbEntity
  8
0
100
AcDbLine
 10
1234.294217886785
 20
446.5097053644795
 30
0.0
 11
1230.794217886785
 21
446.5097053644795
 31
0.0
  0
LINE
  5
32E8
330
18
100
AcDbEntity
  8
0
100
AcDbLine
 10
1240.294217886785
 20
446.5097053644795
 30
0.0
 11
1236.794217886785
 21
446.5097053644795
 31
0.0
  0
LINE
  5
32E9
330
18
100
AcDbEntity
  8
0
100
AcDbLine
 10
1246.294217886785
 20
446.5097053644795
 30
0.0
 11
1242.794217886785
 21
446.5097053644795
 31
0.0
  0
LINE
  5
32EA
330
18
100
AcDbEntity
  8
0
100
AcDbLine
 10
1228.294217886785
 20
467.0097053644794
 30
0.0
 11
1228.294217886785
 21
446.5097053644795
 31
0.0
  0
LINE
  5
32EB
330
18
100
AcDbEntity
  8
0
100
AcDbLine
 10
1240.294217886785
 20
467.0097053644794
 30
0.0
 11
1240.294217886785
 21
446.5097053644795
 31
0.0
  0
LINE
  5
32EC
330
18
100
AcDbEntity
  8
0
100
AcDbLine
 10
1236.794217886785
 20
446.5097053644795
 30
0.0
 11
1236.794217886785
 21
467.0097053644794
 31
0.0
  0
LINE
  5
32ED
330
18
100
AcDbEntity
  8
0
100
AcDbLine
 10
1234.294217886785
 20
467.0097053644794
 30
0.0
 11
1234.294217886785
 21
446.5097053644795
 31
0.0
  0
LINE
  5
32EE
330
18
100
AcDbEntity
  8
0
100
AcDbLine
 10
1230.794217886785
 20
446.5097053644795
 30
0.0
 11
1230.794217886785
 21
467.0097053644794
 31
0.0
  0
LINE
  5
32EF
330
18
100
AcDbEntity
  8
0
100
AcDbLine
 10
1246.294217886785
 20
467.0097053644794
 30
0.0
 11
1246.294217886785
 21
446.5097053644795
 31
0.0
  0
LINE
  5
32F0
330
18
100
AcDbEntity
  8
0
100
AcDbLine
 10
1242.794217886785
 20
446.5097053644795
 30
0.0
 11
1242.794217886785
 21
467.0097053644794
 31
0.0
  0
LINE
  5
32F1
330
18
100
AcDbEntity
  8
0
100
AcDbLine
 10
1248.794217886785
 20
467.0097053644794
 30
0.0
 11
1252.294217886785
 21
467.0097053644794
 31
0.0
  0
LINE
  5
32F2
330
18
100
AcDbEntity
  8
0
100
AcDbLine
 10
1254.794217886785
 20
467.0097053644794
 30
0.0
 11
1258.294217886785
 21
467.0097053644794
 31
0.0
  0
LINE
  5
32F3
330
18
100
AcDbEntity
  8
0
100
AcDbLine
 10
1252.294217886785
 20
446.5097053644795
 30
0.0
 11
1248.794217886785
 21
446.5097053644795
 31
0.0
  0
POINT
  5
32F4
330
18
100
AcDbEntity
  8
0
  6
BYBLOCK
100
AcDbPoint
 10
1249.139455982023
 20
445.5097053644794
 30
0.0
  0
LINE
  5
32F5
330
18
100
AcDbEntity
  8
0
100
AcDbLine
 10
1253.901360743928
 20
445.5097053644794
 30
0.0
 11
1253.901360743928
 21
445.5097053644794
 31
0.0
  0
LINE
  5
32F6
330
18
100
AcDbEntity
  8
0
100
AcDbLine
 10
1259.294217886785
 20
445.5097053644794
 30
0.0
 11
1260.294217886785
 21
446.5097053644795
 31
0.0
  0
LINE
  5
32F7
330
18
100
AcDbEntity
  8
0
100
AcDbLine
 10
1258.294217886785
 20
446.5097053644795
 30
0.0
 11
1254.794217886785
 21
446.5097053644795
 31
0.0
  0
LINE
  5
32F8
330
18
100
AcDbEntity
  8
0
100
AcDbLine
 10
1252.294217886785
 20
467.0097053644794
 30
0.0
 11
1252.294217886785
 21
446.5097053644795
 31
0.0
  0
LINE
  5
32F9
330
18
100
AcDbEntity
  8
0
100
AcDbLine
 10
1248.794217886785
 20
446.5097053644795
 30
0.0
 11
1248.794217886785
 21
467.0097053644794
 31
0.0
  0
LINE
  5
32FA
330
18
100
AcDbEntity
  8
0
100
AcDbLine
 10
1258.294217886785
 20
467.0097053644794
 30
0.0
 11
1258.294217886785
 21
446.5097053644795
 31
0.0
  0
LINE
  5
32FB
330
18
100
AcDbEntity
  8
0
100
AcDbLine
 10
1254.794217886785
 20
446.5097053644795
 30
0.0
 11
1254.794217886785
 21
467.0097053644794
 31
0.0
  0
LINE
  5
32FC
330
18
100
AcDbEntity
  8
0
100
AcDbLine
 10
1260.294217886785
 20
471.5097053644795
 30
0.0
 11
1262.235241010809
 21
533.589817091763
 31
0.0
  0
LINE
  5
32FD
330
18
100
AcDbEntity
  8
0
100
AcDbLine
 10
1260.294217886785
 20
471.5097053644795
 30
0.0
 11
1260.294217886785
 21
469.5097053644794
 31
0.0
  0
LINE
  5
32FE
330
18
100
AcDbEntity
  8
0
100
AcDbLine
 10
1260.294217886785
 20
469.5097053644794
 30
0.0
 11
1260.294217886785
 21
471.5097053644795
 31
0.0
  0
LINE
  5
32FF
330
18
100
AcDbEntity
  8
0
100
AcDbLine
 10
1267.294217886785
 20
571.5097053644795
 30
0.0
 11
1260.276040397608
 21
571.5097053644793
 31
0.0
  0
LINE
  5
3300
330
18
100
AcDbEntity
  8
0
100
AcDbLine
 10
1264.21609552706
 20
535.5097053644795
 30
0.0
 11
1267.312395375963
 21
535.5097053644795
 31
0.0
  0
LINE
  5
3301
330
18
100
AcDbEntity
  8
0
100
AcDbLine
 10
1266.294217886785
 20
550.5097053644795
 30
0.0
 11
1266.294217886785
 21
563.5097053644796
 31
0.0
  0
ARC
  5
3302
330
18
100
AcDbEntity
  8
0
100
AcDbCircle
 10
1264.21609552706
 20
533.5278828536569
 30
0.0
 40
1.981822510822524
100
AcDbArc
 50
90.0
 51
178.2091492578792
  0
ARC
  5
3303
330
18
100
AcDbEntity
  8
0
100
AcDbCircle
 10
1246.957049381189
 20
561.7485429893771
 30
0.0
 40
19.76116237510232
100
AcDbArc
 50
63.99965133804887
 51
116.0003486619514
  0
LINE
  5
3304
330
18
100
AcDbEntity
  8
0
100
AcDbLine
 10
1238.294217886785
 20
579.5097053644789
 30
0.0
 11
1238.294217886785
 21
571.5097053644795
 31
0.0
  0
ARC
  5
3305
330
18
100
AcDbEntity
  8
0
100
AcDbCircle
 10
1253.788903480101
 20
582.0097053644798
 30
0.0
 40
0.5
100
AcDbArc
 50
180.0
 51
270.0
  0
ARC
  5
3306
330
18
100
AcDbEntity
  8
0
100
AcDbCircle
 10
1254.111633014603
 20
580.0097053644797
 30
0.0
 40
1.5
100
AcDbArc
 50
0.0
 51
90.00000000000019
  0
LINE
  5
3307
330
18
100
AcDbEntity
  8
0
100
AcDbLine
 10
1255.611633014603
 20
580.0097053644797
 30
0.0
 11
1255.611633014603
 21
573.491527875302
 31
0.0
  0
ARC
  5
3308
330
18
100
AcDbEntity
  8
0
100
AcDbCircle
 10
1257.593455525426
 20
573.491527875302
 30
0.0
 40
1.981822510822496
100
AcDbArc
 50
180.0
 51
270.0
  0
LINE
  5
3309
330
18
100
AcDbEntity
  8
0
100
AcDbLine
 10
1269.294217886785
 20
537.4915278753019
 30
0.0
 11
1269.294217886786
 21
569.5097053644794
 31
0.0
  0
ARC
  5
330A
330
18
100
AcDbEntity
  8
0
100
AcDbCircle
 10
1267.312395375963
 20
537.4915278753019
 30
0.0
 40
1.981822510822496
100
AcDbArc
 50
270.0
 51
0.0
  0
LINE
  5
330B
330
18
100
AcDbEntity
  8
0
100
AcDbLine
 10
1269.318027410595
 20
569.5097053644794
 30
0.0
 11
1269.294217886785
 21
569.5097053644794
 31
0.0
  0
LINE
  5
330C
330
18
100
AcDbEntity
  8
0
100
AcDbLine
 10
1269.318027410595
 20
569.5097053644794
 30
0.0
 11
1267.294217886785
 21
571.5097053644795
 31
0.0
  0
LINE
  5
330D
330
18
100
AcDbEntity
  8
0
100
AcDbLine
 10
1253.290093956291
 20
691.5097053644794
 30
0.0
 11
1257.290093956291
 21
706.8335148882891
 31
0.0
  0
LINE
  5
330E
330
18
100
AcDbEntity
  8
0
100
AcDbLine
 10
1253.461456402883
 20
641.9287238777344
 30
0.0
 11
1257.254929454126
 21
650.4590582442918
 31
0.0
  0
ARC
  5
330F
330
18
100
AcDbEntity
  8
0
100
AcDbCircle
 10
1255.288903480101
 20
641.116051016143
 30
0.0
 40
2.0
100
AcDbArc
 50
156.0250980827015
 51
180.0
  0
LINE
  5
3310
330
18
100
AcDbEntity
  8
0
100
AcDbLine
 10
1253.290093956291
 20
691.5097053644794
 30
0.0
 11
1253.291284432481
 21
689.8980056956276
 31
0.0
  0
ARC
  5
3311
330
18
100
AcDbEntity
  8
0
100
AcDbCircle
 10
1255.291284432481
 20
689.8980056956276
 30
0.0
 40
2.0
100
AcDbArc
 50
180.0
 51
203.974901917298
  0
LINE
  5
3312
330
18
100
AcDbEntity
  8
0
100
AcDbLine
 10
1253.463837355264
 20
689.0853328340361
 30
0.0
 11
1257.254929454126
 21
680.5603524846672
 31
0.0
  0
LINE
  5
3313
330
18
100
AcDbEntity
  8
0
100
AcDbLine
 10
1256.290093956291
 20
711.5097053644794
 30
0.0
 11
1238.290093956291
 21
711.5097053644794
 31
0.0
  0
LINE
  5
3314
330
18
100
AcDbEntity
  8
0
100
AcDbLine
 10
1244.804379670577
 20
711.5097053644794
 30
0.0
 11
1244.804379670577
 21
711.5097053644794
 31
0.0
  0
POINT
  5
3315
330
18
100
AcDbEntity
  8
0
  6
BYBLOCK
100
AcDbPoint
 10
1240.042474908672
 20
711.5097053644794
 30
0.0
  0
POINT
  5
3316
330
18
100
AcDbEntity
  8
0
  6
BYBLOCK
100
AcDbPoint
 10
1240.042474908672
 20
711.5097053644794
 30
0.0
  0
LINE
  5
3317
330
18
100
AcDbEntity
  8
0
100
AcDbLine
 10
1257.290093956291
 20
706.8335148882891
 30
0.0
 11
1257.085332051529
 21
710.5311339359079
 31
0.0
  0
LINE
  5
3318
330
18
100
AcDbEntity
  8
0
100
AcDbLine
 10
1257.085332051529
 20
710.5311339359079
 30
0.0
 11
1256.290093956291
 21
711.5097053644794
 31
0.0
  0
ARC
  5
345C
330
18
100
AcDbEntity
  8
0
100
AcDbCircle
 10
1086.481432170629
 20
648.8430386978128
 30
0.0
 40
7.926517900942267
100
AcDbArc
 50
140.8912726349672
 51
219.1087273650328
  0
ARC
  5
345D
330
18
100
AcDbEntity
  8
0
100
AcDbCircle
 10
1086.481432170629
 20
682.176372031146
 30
0.0
 40
7.926517900942267
100
AcDbArc
 50
140.8912726349672
 51
219.1087273650328
  0
ARC
  5
345E
330
18
100
AcDbEntity
  8
0
100
AcDbCircle
 10
1128.283925475573
 20
665.5097053644794
 30
0.0
 40
49.3518870314083
100
AcDbArc
 50
166.3259803408843
 51
193.6740196591156
  0
ARC
  5
345F
330
18
100
AcDbEntity
  8
0
100
AcDbCircle
 10
1039.877770460375
 20
665.5097053644794
 30
0.0
 40
49.3518870314083
100
AcDbArc
 50
346.3259803408843
 51
13.67401965911563
  0
LINE
  5
3460
330
18
100
AcDbEntity
  8
0
100
AcDbLine
 10
1078.664181301307
 20
685.5097053644795
 30
0.0
 11
1078.664181301307
 21
645.5097053644794
 31
0.0
  0
LINE
  5
3461
330
18
100
AcDbEntity
  8
0
100
AcDbLine
 10
1087.830847967974
 20
653.8430386978129
 30
0.0
 11
1080.330847967974
 21
653.8430386978129
 31
0.0
  0
LINE
  5
3462
330
18
100
AcDbEntity
  8
0
100
AcDbLine
 10
1080.330847967974
 20
643.8430386978129
 30
0.0
 11
1087.830847967974
 21
643.8430386978129
 31
0.0
  0
LINE
  5
3463
330
18
100
AcDbEntity
  8
0
100
AcDbLine
 10
1078.664181301307
 20
645.5097053644794
 30
0.0
 11
1080.330847967974
 21
643.8430386978129
 31
0.0
  0
ARC
  5
3464
330
18
100
AcDbEntity
  8
0
100
AcDbCircle
 10
1081.680263765318
 20
648.8430386978128
 30
0.0
 40
7.926517900942267
100
AcDbArc
 50
320.8912726349672
 51
39.10872736503276
  0
LINE
  5
3465
330
18
100
AcDbEntity
  8
0
100
AcDbLine
 10
1087.830847967974
 20
643.8430386978129
 30
0.0
 11
1092.105270000084
 21
648.117460729923
 31
0.0
  0
LINE
  5
3466
330
18
100
AcDbEntity
  8
0
100
AcDbLine
 10
1087.830847967974
 20
677.1763720311461
 30
0.0
 11
1080.330847967974
 21
677.1763720311461
 31
0.0
  0
LINE
  5
3467
330
18
100
AcDbEntity
  8
0
100
AcDbLine
 10
1087.830847967974
 20
687.1763720311461
 30
0.0
 11
1080.330847967974
 21
687.1763720311461
 31
0.0
  0
LINE
  5
3468
330
18
100
AcDbEntity
  8
0
100
AcDbLine
 10
1080.330847967974
 20
687.1763720311461
 30
0.0
 11
1078.664181301307
 21
685.5097053644795
 31
0.0
  0
ARC
  5
3469
330
18
100
AcDbEntity
  8
0
100
AcDbCircle
 10
1081.680263765318
 20
682.176372031146
 30
0.0
 40
7.926517900942267
100
AcDbArc
 50
320.8912726349672
 51
39.10872736503276
  0
LINE
  5
346A
330
18
100
AcDbEntity
  8
0
100
AcDbLine
 10
1092.105270000084
 20
682.9019499990359
 30
0.0
 11
1087.830847967974
 21
687.1763720311461
 31
0.0
  0
ARC
  5
346B
330
18
100
AcDbEntity
  8
0
100
AcDbCircle
 10
1104.044437127042
 20
665.5097053644794
 30
0.0
 40
49.3518870314083
100
AcDbArc
 50
346.3259803408843
 51
13.67401965911563
  0
LINE
  5
346C
330
18
100
AcDbEntity
  8
0
100
AcDbLine
 10
1153.664181301307
 20
645.5097053644794
 30
0.0
 11
1153.664181301307
 21
685.5097053644795
 31
0.0
  0
ARC
  5
346E
330
18
100
AcDbEntity
  8
0
100
AcDbCircle
 10
1192.450592142239
 20
665.5097053644794
 30
0.0
 40
49.3518870314083
100
AcDbArc
 50
166.3259803408843
 51
193.6740196591156
  0
LINE
  5
346F
330
18
100
AcDbEntity
  8
0
100
AcDbLine
 10
1151.997514634641
 20
643.8430386978129
 30
0.0
 11
1153.664181301307
 21
645.5097053644794
 31
0.0
  0
ARC
  5
3470
330
18
100
AcDbEntity
  8
0
100
AcDbCircle
 10
1145.846930431985
 20
648.8430386978128
 30
0.0
 40
7.926517900942267
100
AcDbArc
 50
320.8912726349672
 51
39.10872736503276
  0
ARC
  5
3471
330
18
100
AcDbEntity
  8
0
100
AcDbCircle
 10
1150.648098837296
 20
648.8430386978128
 30
0.0
 40
7.926517900942267
100
AcDbArc
 50
140.8912726349672
 51
219.1087273650328
  0
LINE
  5
3472
330
18
100
AcDbEntity
  8
0
100
AcDbLine
 10
1140.70681124779
 20
647.6337420846633
 30
0.0
 11
1144.49751463464
 21
643.8430386978129
 31
0.0
  0
LINE
  5
3473
330
18
100
AcDbEntity
  8
0
100
AcDbLine
 10
1144.49751463464
 20
643.8430386978129
 30
0.0
 11
1151.997514634641
 21
643.8430386978129
 31
0.0
  0
LINE
  5
3474
330
18
100
AcDbEntity
  8
0
100
AcDbLine
 10
1144.49751463464
 20
653.8430386978129
 30
0.0
 11
1151.997514634641
 21
653.8430386978129
 31
0.0
  0
ARC
  5
3475
330
18
100
AcDbEntity
  8
0
100
AcDbCircle
 10
1145.846930431985
 20
682.176372031146
 30
0.0
 40
7.926517900942267
100
AcDbArc
 50
320.8912726349672
 51
39.10872736503276
  0
LINE
  5
3476
330
18
100
AcDbEntity
  8
0
100
AcDbLine
 10
1153.664181301307
 20
685.5097053644795
 30
0.0
 11
1151.997514634641
 21
687.1763720311461
 31
0.0
  0
ARC
  5
3477
330
18
100
AcDbEntity
  8
0
100
AcDbCircle
 10
1150.648098837296
 20
682.176372031146
 30
0.0
 40
7.926517900942267
100
AcDbArc
 50
140.8912726349672
 51
219.1087273650328
  0
LINE
  5
3478
330
18
100
AcDbEntity
  8
0
100
AcDbLine
 10
1144.49751463464
 20
687.1763720311461
 30
0.0
 11
1140.70681124779
 21
683.3856686442957
 31
0.0
  0
LINE
  5
3479
330
18
100
AcDbEntity
  8
0
100
AcDbLine
 10
1144.49751463464
 20
677.1763720311461
 30
0.0
 11
1151.997514634641
 21
677.1763720311461
 31
0.0
  0
LINE
  5
347A
330
18
100
AcDbEntity
  8
0
100
AcDbLine
 10
1151.997514634641
 20
687.1763720311461
 30
0.0
 11
1144.49751463464
 21
687.1763720311461
 31
0.0
  0
LINE
  5
347B
330
18
100
AcDbEntity
  8
0
100
AcDbLine
 10
1092.105270000084
 20
682.9019499990359
 30
0.0
 11
1096.292696767804
 21
682.9019499990359
 31
0.0
  0
LINE
  5
347C
330
18
100
AcDbEntity
  8
0
100
AcDbLine
 10
1140.70681124779
 20
683.3856686442957
 30
0.0
 11
1135.82293521403
 21
683.3856686442957
 31
0.0
  0
LINE
  5
347D
330
18
100
AcDbEntity
  8
0
100
AcDbLine
 10
1140.70681124779
 20
647.6337420846633
 30
0.0
 11
1134.164181301307
 21
647.6337420846633
 31
0.0
  0
LINE
  5
347E
330
18
100
AcDbEntity
  8
0
100
AcDbLine
 10
1092.105270000084
 20
648.117460729923
 30
0.0
 11
1098.164181301307
 21
648.1174607299232
 31
0.0
  0
ARC
  5
347F
330
18
100
AcDbEntity
  8
0
100
AcDbCircle
 10
1096.292696767804
 20
685.9019499990359
 30
0.0
 40
3.0
100
AcDbArc
 50
270.0
 51
336.0250980827029
  0
ARC
  5
3480
330
18
100
AcDbEntity
  8
0
100
AcDbCircle
 10
1135.82293521403
 20
686.3856686442957
 30
0.0
 40
3.0
100
AcDbArc
 50
203.9749019172941
 51
270.0
  0
ARC
  5
3481
330
18
100
AcDbEntity
  8
0
100
AcDbCircle
 10
1098.164181301307
 20
645.1174607299232
 30
0.0
 40
3.0
100
AcDbArc
 50
0.0
 51
90.0
  0
ARC
  5
3482
330
18
100
AcDbEntity
  8
0
100
AcDbCircle
 10
1134.164181301307
 20
644.6337420846633
 30
0.0
 40
3.0
100
AcDbArc
 50
90.0
 51
180.0
  0
ARC
  5
3490
330
18
100
AcDbEntity
  8
0
100
AcDbCircle
 10
1126.424597967975
 20
789.9850388175872
 30
0.0
 40
27.23958333333267
100
AcDbArc
 50
339.8534160544343
 51
20.14658394556526
  0
LINE
  5
3491
330
18
100
AcDbEntity
  8
0
100
AcDbLine
 10
1153.664181301307
 20
763.5058798612594
 30
0.0
 11
1153.664181301307
 21
797.7003140252518
 31
0.0
  0
ARC
  5
3492
330
18
100
AcDbEntity
  8
0
100
AcDbCircle
 10
1170.338288444163
 20
789.9850388175872
 30
0.0
 40
27.23958333333267
100
AcDbArc
 50
159.8534160544347
 51
200.1465839455657
  0
LINE
  5
3494
330
18
100
AcDbEntity
  8
0
100
AcDbLine
 10
1151.99751463464
 20
761.8392131945927
 30
0.0
 11
1144.765371777502
 21
761.8392131945931
 31
0.0
  0
LINE
  5
3495
330
18
100
AcDbEntity
  8
0
100
AcDbLine
 10
1144.765371777498
 20
780.6030969432556
 30
0.0
 11
1151.99751463464
 21
780.6030969432558
 31
0.0
  0
ARC
  5
3496
330
18
100
AcDbEntity
  8
0
100
AcDbCircle
 10
1170.338288444166
 20
771.2211550689303
 30
0.0
 40
27.23958333333267
100
AcDbArc
 50
159.8534160544473
 51
200.1465839455783
  0
LINE
  5
3497
330
18
100
AcDbEntity
  8
0
100
AcDbLine
 10
1142.092602561261
 20
762.642499007924
 30
0.0
 11
1144.765371777502
 21
761.8392131945931
 31
0.0
  0
ARC
  5
3498
330
18
100
AcDbEntity
  8
0
100
AcDbCircle
 10
1126.424597967972
 20
771.2211550689303
 30
0.0
 40
27.23958333333267
100
AcDbArc
 50
339.8534160544217
 51
20.14658394555268
  0
LINE
  5
3499
330
18
100
AcDbEntity
  8
0
100
AcDbLine
 10
1153.664181301307
 20
763.5058798612594
 30
0.0
 11
1151.99751463464
 21
761.8392131945927
 31
0.0
  0
LINE
  5
349A
330
18
100
AcDbEntity
  8
0
100
AcDbLine
 10
1151.99751463464
 20
799.3669806919184
 30
0.0
 11
1144.765371777497
 21
799.3669806919184
 31
0.0
  0
LINE
  5
349C
330
18
100
AcDbEntity
  8
0
100
AcDbLine
 10
1151.99751463464
 20
799.3669806919184
 30
0.0
 11
1153.664181301307
 21
797.7003140252518
 31
0.0
  0
LINE
  5
34A0
330
18
100
AcDbEntity
  8
0
100
AcDbLine
 10
1141.516950238112
 20
762.7271336634393
 30
0.0
 11
1129.855417067981
 21
762.7271336634395
 31
0.0
  0
ARC
  5
34A1
330
18
100
AcDbEntity
  8
0
100
AcDbCircle
 10
1141.516950238112
 20
760.7271336634393
 30
0.0
 40
2.0
100
AcDbArc
 50
73.27214384432181
 51
89.99999999999939
  0
LINE
  5
34A2
330
18
100
AcDbEntity
  8
0
100
AcDbLine
 10
1141.516950238112
 20
798.4790602230719
 30
0.0
 11
1129.855417067981
 21
798.4790602230718
 31
0.0
  0
LINE
  5
34A3
330
18
100
AcDbEntity
  8
0
100
AcDbLine
 10
1142.092602561261
 20
798.5636948785873
 30
0.0
 11
1144.765371777502
 21
799.366980691918
 31
0.0
  0
ARC
  5
34A4
330
18
100
AcDbEntity
  8
0
100
AcDbCircle
 10
1141.516950238112
 20
800.479060223072
 30
0.0
 40
2.0
100
AcDbArc
 50
270.0000000000006
 51
286.7278561556781
  0
ARC
  5
34A5
330
18
100
AcDbEntity
  8
0
100
AcDbCircle
 10
1105.90376463464
 20
789.9850388175872
 30
0.0
 40
27.23958333333267
100
AcDbArc
 50
159.8534160544347
 51
200.1465839455657
  0
ARC
  5
34A6
330
18
100
AcDbEntity
  8
0
100
AcDbCircle
 10
1061.990074158451
 20
789.9850388175872
 30
0.0
 40
27.23958333333267
100
AcDbArc
 50
339.8534160544343
 51
20.14658394556527
  0
LINE
  5
34A7
330
18
100
AcDbEntity
  8
0
100
AcDbLine
 10
1078.664181301307
 20
763.5058798612594
 30
0.0
 11
1078.664181301307
 21
797.7003140252518
 31
0.0
  0
LINE
  5
34A8
330
18
100
AcDbEntity
  8
0
100
AcDbLine
 10
1090.811412364502
 20
762.7271336634393
 30
0.0
 11
1102.472945534633
 21
762.7271336634395
 31
0.0
  0
LINE
  5
34A9
330
18
100
AcDbEntity
  8
0
100
AcDbLine
 10
1090.235760041353
 20
762.642499007924
 30
0.0
 11
1087.562990825112
 21
761.8392131945931
 31
0.0
  0
ARC
  5
34AA
330
18
100
AcDbEntity
  8
0
100
AcDbCircle
 10
1090.811412364502
 20
760.7271336634393
 30
0.0
 40
2.0
100
AcDbArc
 50
90.00000000000062
 51
106.7278561556781
  0
LINE
  5
34AB
330
18
100
AcDbEntity
  8
0
100
AcDbLine
 10
1078.664181301307
 20
763.5058798612594
 30
0.0
 11
1080.330847967974
 21
761.8392131945927
 31
0.0
  0
ARC
  5
34AC
330
18
100
AcDbEntity
  8
0
100
AcDbCircle
 10
1105.903764634642
 20
771.2211550689303
 30
0.0
 40
27.23958333333267
100
AcDbArc
 50
159.8534160544473
 51
200.1465839455783
  0
ARC
  5
34AD
330
18
100
AcDbEntity
  8
0
100
AcDbCircle
 10
1061.990074158449
 20
771.2211550689303
 30
0.0
 40
27.23958333333267
100
AcDbArc
 50
339.8534160544217
 51
20.1465839455527
  0
LINE
  5
34AE
330
18
100
AcDbEntity
  8
0
100
AcDbLine
 10
1087.562990825116
 20
780.6030969432556
 30
0.0
 11
1080.330847967974
 21
780.6030969432558
 31
0.0
  0
LINE
  5
34AF
330
18
100
AcDbEntity
  8
0
100
AcDbLine
 10
1080.330847967974
 20
761.8392131945927
 30
0.0
 11
1087.562990825112
 21
761.8392131945931
 31
0.0
  0
LINE
  5
34B0
330
18
100
AcDbEntity
  8
0
100
AcDbLine
 10
1090.811412364502
 20
798.4790602230719
 30
0.0
 11
1102.472945534633
 21
798.4790602230718
 31
0.0
  0
ARC
  5
34B1
330
18
100
AcDbEntity
  8
0
100
AcDbCircle
 10
1090.811412364502
 20
800.479060223072
 30
0.0
 40
2.0
100
AcDbArc
 50
253.2721438443218
 51
269.9999999999993
  0
LINE
  5
34B2
330
18
100
AcDbEntity
  8
0
100
AcDbLine
 10
1090.235760041353
 20
798.5636948785873
 30
0.0
 11
1087.562990825112
 21
799.366980691918
 31
0.0
  0
LINE
  5
34B3
330
18
100
AcDbEntity
  8
0
100
AcDbLine
 10
1080.330847967974
 20
799.3669806919184
 30
0.0
 11
1078.664181301307
 21
797.7003140252518
 31
0.0
  0
LINE
  5
34B4
330
18
100
AcDbEntity
  8
0
100
AcDbLine
 10
1080.330847967974
 20
799.3669806919184
 30
0.0
 11
1087.562990825117
 21
799.3669806919184
 31
0.0
  0
ARC
  5
34C4
330
18
100
AcDbEntity
  8
0
100
AcDbCircle
 10
1274.955753142559
 20
665.5097053644794
 30
0.0
 40
57.63049468410372
100
AcDbArc
 50
164.861233279292
 51
169.0204441860218
  0
LINE
  5
34C5
330
18
100
AcDbEntity
  8
0
100
AcDbLine
 10
1218.325258458456
 20
675.9145594897485
 30
0.0
 11
1218.325258458456
 21
655.1048512392108
 31
0.0
  0
ARC
  5
34C6
330
18
100
AcDbEntity
  8
0
100
AcDbCircle
 10
1274.955753142559
 20
665.5097053644794
 30
0.0
 40
57.63049468410372
100
AcDbArc
 50
190.9795558139776
 51
195.1387667207079
  0
ARC
  5
34C9
330
18
100
AcDbEntity
  8
0
100
AcDbCircle
 10
1221.325258458456
 20
675.9145594897485
 30
0.0
 40
3.0
100
AcDbArc
 50
169.0204441860228
 51
180.0
  0
ARC
  5
34CA
330
18
100
AcDbEntity
  8
0
100
AcDbCircle
 10
1221.325258458456
 20
655.1048512392108
 30
0.0
 40
3.0
100
AcDbArc
 50
180.0
 51
190.9795558139771
  0
LINE
  5
34CB
330
18
100
AcDbEntity
  8
0
100
AcDbLine
 10
1258.254929454126
 20
675.9145594897485
 30
0.0
 11
1258.254929454126
 21
655.1048512392108
 31
0.0
  0
ARC
  5
34CC
330
18
100
AcDbEntity
  8
0
100
AcDbCircle
 10
1201.624434770023
 20
665.5097053644794
 30
0.0
 40
57.63049468410372
100
AcDbArc
 50
10.97955581397812
 51
15.13876672070792
  0
ARC
  5
34CD
330
18
100
AcDbEntity
  8
0
100
AcDbCircle
 10
1255.254929454126
 20
675.9145594897485
 30
0.0
 40
3.0
100
AcDbArc
 50
0.000000000000007
 51
10.97955581397723
  0
ARC
  5
34CE
330
18
100
AcDbEntity
  8
0
100
AcDbCircle
 10
1201.624434770023
 20
665.5097053644794
 30
0.0
 40
57.63049468410372
100
AcDbArc
 50
344.8612332792921
 51
349.0204441860223
  0
ARC
  5
34CF
330
18
100
AcDbEntity
  8
0
100
AcDbCircle
 10
1255.254929454126
 20
655.1048512392108
 30
0.0
 40
3.0
100
AcDbArc
 50
349.0204441860228
 51
0.000000000000007
  0
LINE
  5
34D0
330
18
100
AcDbEntity
  8
0
100
AcDbLine
 10
980.467327909997
 20
582.0097053644798
 30
0.0
 11
980.467327909997
 21
641.116051016143
 31
0.0
  0
LINE
  5
34D1
330
18
100
AcDbEntity
  8
0
100
AcDbLine
 10
950.467327909997
 20
641.1214050333314
 30
0.0
 11
950.467327909997
 21
582.0097053644798
 31
0.0
  0
LINE
  5
34D2
330
18
100
AcDbEntity
  8
0
100
AcDbLine
 10
939.5345470785864
 20
535.5097053644795
 30
0.0
 11
991.410737554777
 21
535.5097053644795
 31
0.0
  0
LINE
  5
34D3
330
18
100
AcDbEntity
  8
0
100
AcDbLine
 10
944.4726423166816
 20
445.5097053644794
 30
0.0
 11
986.4726423166816
 21
445.5097053644794
 31
0.0
  0
LINE
  5
34D4
330
18
100
AcDbEntity
  8
0
100
AcDbLine
 10
943.4726423166816
 20
469.5097053644794
 30
0.0
 11
987.4726423166817
 21
469.5097053644794
 31
0.0
  0
LINE
  5
34D5
330
18
100
AcDbEntity
  8
0
100
AcDbLine
 10
943.4726423166816
 20
471.5097053644795
 30
0.0
 11
987.4726423166817
 21
471.5097053644795
 31
0.0
  0
LINE
  5
34D6
330
18
100
AcDbEntity
  8
0
100
AcDbLine
 10
934.4726423166816
 20
563.5097053644795
 30
0.0
 11
996.496451840491
 21
563.5097053644795
 31
0.0
  0
LINE
  5
34D7
330
18
100
AcDbEntity
  8
0
100
AcDbLine
 10
996.4726423166817
 20
569.5097053644794
 30
0.0
 11
934.4726423166816
 21
569.5097053644794
 31
0.0
  0
LINE
  5
34D8
330
18
100
AcDbEntity
  8
0
100
AcDbLine
 10
943.4726423166816
 20
571.5097053644795
 30
0.0
 11
987.4726423166817
 21
571.5097053644795
 31
0.0
  0
LINE
  5
34D9
330
18
100
AcDbEntity
  8
0
100
AcDbLine
 10
934.4726423166816
 20
550.5097053644795
 30
0.0
 11
996.4726423166817
 21
550.5097053644795
 31
0.0
  0
LINE
  5
34DA
330
18
100
AcDbEntity
  8
0
100
AcDbLine
 10
943.4726423166816
 20
469.5097053644794
 30
0.0
 11
943.4726423166816
 21
446.5097053644795
 31
0.0
  0
LINE
  5
34DB
330
18
100
AcDbEntity
  8
0
100
AcDbLine
 10
943.4726423166816
 20
446.5097053644795
 30
0.0
 11
944.4726423166816
 21
445.5097053644794
 31
0.0
  0
LINE
  5
34DC
330
18
100
AcDbEntity
  8
0
100
AcDbLine
 10
967.4726423166816
 20
446.5097053644795
 30
0.0
 11
963.9726423166816
 21
446.5097053644795
 31
0.0
  0
LINE
  5
34DD
330
18
100
AcDbEntity
  8
0
100
AcDbLine
 10
963.9726423166816
 20
467.0097053644794
 30
0.0
 11
967.4726423166816
 21
467.0097053644794
 31
0.0
  0
LINE
  5
34DE
330
18
100
AcDbEntity
  8
0
100
AcDbLine
 10
957.9726423166816
 20
446.5097053644795
 30
0.0
 11
957.9726423166816
 21
467.0097053644794
 31
0.0
  0
LINE
  5
34DF
330
18
100
AcDbEntity
  8
0
100
AcDbLine
 10
961.4726423166816
 20
467.0097053644794
 30
0.0
 11
961.4726423166816
 21
446.5097053644795
 31
0.0
  0
LINE
  5
34E0
330
18
100
AcDbEntity
  8
0
100
AcDbLine
 10
963.9726423166816
 20
446.5097053644795
 30
0.0
 11
963.9726423166816
 21
467.0097053644794
 31
0.0
  0
LINE
  5
34E1
330
18
100
AcDbEntity
  8
0
100
AcDbLine
 10
955.4726423166817
 20
467.0097053644794
 30
0.0
 11
955.4726423166817
 21
446.5097053644795
 31
0.0
  0
LINE
  5
34E2
330
18
100
AcDbEntity
  8
0
100
AcDbLine
 10
961.4726423166816
 20
446.5097053644795
 30
0.0
 11
957.9726423166816
 21
446.5097053644795
 31
0.0
  0
LINE
  5
34E3
330
18
100
AcDbEntity
  8
0
100
AcDbLine
 10
957.9726423166816
 20
467.0097053644794
 30
0.0
 11
961.4726423166816
 21
467.0097053644794
 31
0.0
  0
LINE
  5
34E4
330
18
100
AcDbEntity
  8
0
100
AcDbLine
 10
945.9726423166816
 20
446.5097053644795
 30
0.0
 11
945.9726423166816
 21
467.0097053644794
 31
0.0
  0
LINE
  5
34E5
330
18
100
AcDbEntity
  8
0
100
AcDbLine
 10
949.4726423166817
 20
467.0097053644794
 30
0.0
 11
949.4726423166817
 21
446.5097053644795
 31
0.0
  0
LINE
  5
34E6
330
18
100
AcDbEntity
  8
0
100
AcDbLine
 10
951.9726423166817
 20
446.5097053644795
 30
0.0
 11
951.9726423166817
 21
467.0097053644794
 31
0.0
  0
LINE
  5
34E7
330
18
100
AcDbEntity
  8
0
100
AcDbLine
 10
949.4726423166817
 20
446.5097053644795
 30
0.0
 11
945.9726423166816
 21
446.5097053644795
 31
0.0
  0
LINE
  5
34E8
330
18
100
AcDbEntity
  8
0
100
AcDbLine
 10
945.9726423166816
 20
467.0097053644794
 30
0.0
 11
949.4726423166817
 21
467.0097053644794
 31
0.0
  0
LINE
  5
34E9
330
18
100
AcDbEntity
  8
0
100
AcDbLine
 10
951.9726423166817
 20
467.0097053644794
 30
0.0
 11
955.4726423166817
 21
467.0097053644794
 31
0.0
  0
LINE
  5
34EA
330
18
100
AcDbEntity
  8
0
100
AcDbLine
 10
955.4726423166817
 20
446.5097053644795
 30
0.0
 11
951.9726423166817
 21
446.5097053644795
 31
0.0
  0
LINE
  5
34EB
330
18
100
AcDbEntity
  8
0
100
AcDbLine
 10
981.9726423166816
 20
446.5097053644795
 30
0.0
 11
981.9726423166816
 21
467.0097053644794
 31
0.0
  0
LINE
  5
34EC
330
18
100
AcDbEntity
  8
0
100
AcDbLine
 10
985.4726423166816
 20
467.0097053644794
 30
0.0
 11
985.4726423166816
 21
446.5097053644795
 31
0.0
  0
LINE
  5
34ED
330
18
100
AcDbEntity
  8
0
100
AcDbLine
 10
975.9726423166817
 20
446.5097053644795
 30
0.0
 11
975.9726423166817
 21
467.0097053644794
 31
0.0
  0
LINE
  5
34EE
330
18
100
AcDbEntity
  8
0
100
AcDbLine
 10
979.4726423166817
 20
467.0097053644794
 30
0.0
 11
979.4726423166817
 21
446.5097053644795
 31
0.0
  0
LINE
  5
34EF
330
18
100
AcDbEntity
  8
0
100
AcDbLine
 10
985.4726423166816
 20
446.5097053644795
 30
0.0
 11
981.9726423166816
 21
446.5097053644795
 31
0.0
  0
LINE
  5
34F0
330
18
100
AcDbEntity
  8
0
100
AcDbLine
 10
981.0797851738243
 20
445.5097053644794
 30
0.0
 11
981.0797851738243
 21
445.5097053644794
 31
0.0
  0
POINT
  5
34F1
330
18
100
AcDbEntity
  8
0
  6
BYBLOCK
100
AcDbPoint
 10
976.3178804119197
 20
445.5097053644794
 30
0.0
  0
LINE
  5
34F2
330
18
100
AcDbEntity
  8
0
100
AcDbLine
 10
979.4726423166817
 20
446.5097053644795
 30
0.0
 11
975.9726423166817
 21
446.5097053644795
 31
0.0
  0
LINE
  5
34F3
330
18
100
AcDbEntity
  8
0
100
AcDbLine
 10
981.9726423166816
 20
467.0097053644794
 30
0.0
 11
985.4726423166816
 21
467.0097053644794
 31
0.0
  0
LINE
  5
34F4
330
18
100
AcDbEntity
  8
0
100
AcDbLine
 10
975.9726423166817
 20
467.0097053644794
 30
0.0
 11
979.4726423166817
 21
467.0097053644794
 31
0.0
  0
LINE
  5
34F5
330
18
100
AcDbEntity
  8
0
100
AcDbLine
 10
969.9726423166817
 20
446.5097053644795
 30
0.0
 11
969.9726423166817
 21
467.0097053644794
 31
0.0
  0
LINE
  5
34F6
330
18
100
AcDbEntity
  8
0
100
AcDbLine
 10
973.4726423166817
 20
467.0097053644794
 30
0.0
 11
973.4726423166817
 21
446.5097053644795
 31
0.0
  0
LINE
  5
34F7
330
18
100
AcDbEntity
  8
0
100
AcDbLine
 10
967.4726423166816
 20
467.0097053644794
 30
0.0
 11
967.4726423166816
 21
446.5097053644795
 31
0.0
  0
LINE
  5
34F8
330
18
100
AcDbEntity
  8
0
100
AcDbLine
 10
973.4726423166817
 20
446.5097053644795
 30
0.0
 11
969.9726423166817
 21
446.5097053644795
 31
0.0
  0
LINE
  5
34F9
330
18
100
AcDbEntity
  8
0
100
AcDbLine
 10
969.9726423166817
 20
467.0097053644794
 30
0.0
 11
973.4726423166817
 21
467.0097053644794
 31
0.0
  0
LINE
  5
34FA
330
18
100
AcDbEntity
  8
0
100
AcDbLine
 10
941.5316191926581
 20
533.589817091763
 30
0.0
 11
943.4726423166816
 21
471.5097053644795
 31
0.0
  0
LINE
  5
34FB
330
18
100
AcDbEntity
  8
0
100
AcDbLine
 10
943.4726423166816
 20
471.5097053644795
 30
0.0
 11
943.4726423166816
 21
469.5097053644794
 31
0.0
  0
LINE
  5
34FC
330
18
100
AcDbEntity
  8
0
100
AcDbLine
 10
934.4726423166816
 20
569.5097053644794
 30
0.0
 11
934.4726423166816
 21
537.4915278753019
 31
0.0
  0
LINE
  5
34FD
330
18
100
AcDbEntity
  8
0
100
AcDbLine
 10
937.4726423166817
 20
563.5097053644795
 30
0.0
 11
937.4726423166817
 21
550.5097053644795
 31
0.0
  0
ARC
  5
34FE
330
18
100
AcDbEntity
  8
0
100
AcDbCircle
 10
939.5507646764068
 20
533.5278828536569
 30
0.0
 40
1.98182251082251
100
AcDbArc
 50
1.790850742120779
 51
90.0
  0
ARC
  5
34FF
330
18
100
AcDbEntity
  8
0
100
AcDbCircle
 10
936.4544648275041
 20
537.4915278753019
 30
0.0
 40
1.981822510822503
100
AcDbArc
 50
180.0
 51
270.0
  0
LINE
  5
3500
330
18
100
AcDbEntity
  8
0
100
AcDbLine
 10
936.4544648275041
 20
535.5097053644795
 30
0.0
 11
939.5507646764068
 21
535.5097053644795
 31
0.0
  0
LINE
  5
3501
330
18
100
AcDbEntity
  8
0
100
AcDbLine
 10
936.4726423166816
 20
571.5097053644795
 30
0.0
 11
934.4726423166816
 21
569.5097053644794
 31
0.0
  0
LINE
  5
3502
330
18
100
AcDbEntity
  8
0
100
AcDbLine
 10
943.490819805859
 20
571.5097053644795
 30
0.0
 11
936.4726423166816
 21
571.5097053644795
 31
0.0
  0
ARC
  5
3503
330
18
100
AcDbEntity
  8
0
100
AcDbCircle
 10
974.135473811085
 20
561.7485429893771
 30
0.0
 40
19.76116237510232
100
AcDbArc
 50
63.99965133804887
 51
116.0003486619514
  0
LINE
  5
3504
330
18
100
AcDbEntity
  8
0
100
AcDbLine
 10
949.6469793278752
 20
581.5097053644795
 30
0.0
 11
981.2900574444997
 21
581.5097053644797
 31
0.0
  0
LINE
  5
3505
330
18
100
AcDbEntity
  8
0
100
AcDbLine
 10
965.4726423166817
 20
579.5097053644789
 30
0.0
 11
965.4726423166817
 21
571.5097053644795
 31
0.0
  0
ARC
  5
3506
330
18
100
AcDbEntity
  8
0
100
AcDbCircle
 10
946.1651568170525
 20
573.4915278753019
 30
0.0
 40
1.981822510822503
100
AcDbArc
 50
270.0
 51
0.0
  0
LINE
  5
3507
330
18
100
AcDbEntity
  8
0
100
AcDbLine
 10
948.1469793278751
 20
580.0097053644796
 30
0.0
 11
948.1469793278749
 21
573.4915278753019
 31
0.0
  0
ARC
  5
3508
330
18
100
AcDbEntity
  8
0
100
AcDbCircle
 10
949.6469793278752
 20
580.0097053644796
 30
0.0
 40
1.5
100
AcDbArc
 50
90.00000000000019
 51
179.9999999999994
  0
ARC
  5
3509
330
18
100
AcDbEntity
  8
0
100
AcDbCircle
 10
949.9673279099971
 20
582.0097053644798
 30
0.0
 40
0.5
100
AcDbArc
 50
270.0
 51
0.0
  0
ARC
  5
350A
330
18
100
AcDbEntity
  8
0
100
AcDbCircle
 10
956.8098108222782
 20
561.7485429893771
 30
0.0
 40
19.76116237510232
100
AcDbArc
 50
63.99965133804855
 51
116.0003486619511
  0
ARC
  5
350B
330
18
100
AcDbEntity
  8
0
100
AcDbCircle
 10
984.771879955322
 20
573.491527875302
 30
0.0
 40
1.981822510822496
100
AcDbArc
 50
180.0
 51
270.0
  0
LINE
  5
350C
330
18
100
AcDbEntity
  8
0
100
AcDbLine
 10
982.7900574444997
 20
580.0097053644797
 30
0.0
 11
982.7900574444996
 21
573.491527875302
 31
0.0
  0
ARC
  5
350D
330
18
100
AcDbEntity
  8
0
100
AcDbCircle
 10
981.2900574444997
 20
580.0097053644797
 30
0.0
 40
1.5
100
AcDbArc
 50
0.0
 51
90.00000000000019
  0
ARC
  5
350E
330
18
100
AcDbEntity
  8
0
100
AcDbCircle
 10
980.9673279099969
 20
582.0097053644798
 30
0.0
 40
0.5
100
AcDbArc
 50
180.0
 51
270.0
  0
LINE
  5
350F
330
18
100
AcDbEntity
  8
0
100
AcDbLine
 10
987.4726423166817
 20
446.5097053644795
 30
0.0
 11
987.4726423166817
 21
469.5097053644794
 31
0.0
  0
LINE
  5
3510
330
18
100
AcDbEntity
  8
0
100
AcDbLine
 10
986.4726423166816
 20
445.5097053644794
 30
0.0
 11
987.4726423166817
 21
446.5097053644795
 31
0.0
  0
LINE
  5
3511
330
18
100
AcDbEntity
  8
0
100
AcDbLine
 10
987.4726423166817
 20
471.5097053644795
 30
0.0
 11
989.4136654407052
 21
533.589817091763
 31
0.0
  0
LINE
  5
3512
330
18
100
AcDbEntity
  8
0
100
AcDbLine
 10
987.4726423166817
 20
469.5097053644794
 30
0.0
 11
987.4726423166817
 21
471.5097053644795
 31
0.0
  0
LINE
  5
3513
330
18
100
AcDbEntity
  8
0
100
AcDbLine
 10
987.4726423166817
 20
471.5097053644795
 30
0.0
 11
987.4726423166817
 21
469.5097053644794
 31
0.0
  0
LINE
  5
3514
330
18
100
AcDbEntity
  8
0
100
AcDbLine
 10
996.4726423166817
 20
537.4915278753019
 30
0.0
 11
996.4726423166819
 21
569.5097053644794
 31
0.0
  0
LINE
  5
3515
330
18
100
AcDbEntity
  8
0
100
AcDbLine
 10
993.4726423166816
 20
550.5097053644795
 30
0.0
 11
993.4726423166816
 21
563.5097053644796
 31
0.0
  0
ARC
  5
3516
330
18
100
AcDbEntity
  8
0
100
AcDbCircle
 10
994.4908198058589
 20
537.4915278753019
 30
0.0
 40
1.981822510822496
100
AcDbArc
 50
270.0
 51
0.0
  0
ARC
  5
3517
330
18
100
AcDbEntity
  8
0
100
AcDbCircle
 10
991.3945199569564
 20
533.5278828536569
 30
0.0
 40
1.981822510822524
100
AcDbArc
 50
90.0
 51
178.2091492578792
  0
LINE
  5
3518
330
18
100
AcDbEntity
  8
0
100
AcDbLine
 10
991.3945199569564
 20
535.5097053644795
 30
0.0
 11
994.4908198058589
 21
535.5097053644795
 31
0.0
  0
LINE
  5
3519
330
18
100
AcDbEntity
  8
0
100
AcDbLine
 10
996.496451840491
 20
569.5097053644794
 30
0.0
 11
994.4726423166816
 21
571.5097053644795
 31
0.0
  0
LINE
  5
351A
330
18
100
AcDbEntity
  8
0
100
AcDbLine
 10
996.496451840491
 20
569.5097053644794
 30
0.0
 11
996.4726423166817
 21
569.5097053644794
 31
0.0
  0
LINE
  5
351B
330
18
100
AcDbEntity
  8
0
100
AcDbLine
 10
994.4726423166816
 20
571.5097053644795
 30
0.0
 11
987.454464827504
 21
571.5097053644793
 31
0.0
  0
LINE
  5
351D
330
18
100
AcDbEntity
  8
0
100
AcDbLine
 10
980.4685183861876
 20
691.5097053644794
 30
0.0
 11
984.4685183861875
 21
706.8335148882891
 31
0.0
  0
LINE
  5
351E
330
18
100
AcDbEntity
  8
0
100
AcDbLine
 10
946.4685183861874
 20
706.8335148882891
 30
0.0
 11
950.4685183861875
 21
691.5097053644794
 31
0.0
  0
LINE
  5
351F
330
18
100
AcDbEntity
  8
0
100
AcDbLine
 10
980.639880832779
 20
641.9287238777344
 30
0.0
 11
984.4333538840228
 21
650.4590582442918
 31
0.0
  0
LINE
  5
3520
330
18
100
AcDbEntity
  8
0
100
AcDbLine
 10
950.2947749872152
 20
641.9340778949228
 30
0.0
 11
946.5036828883521
 21
650.4590582442918
 31
0.0
  0
LINE
  5
3521
330
18
100
AcDbEntity
  8
0
100
AcDbLine
 10
950.467327909997
 20
632.0882767930509
 30
0.0
 11
980.467327909997
 21
632.0882767930509
 31
0.0
  0
ARC
  5
3522
330
18
100
AcDbEntity
  8
0
100
AcDbCircle
 10
948.467327909997
 20
641.1214050333314
 30
0.0
 40
2.0
100
AcDbArc
 50
0.0
 51
23.97490191729834
  0
ARC
  5
3523
330
18
100
AcDbEntity
  8
0
100
AcDbCircle
 10
982.467327909997
 20
641.116051016143
 30
0.0
 40
2.0
100
AcDbArc
 50
156.0250980827015
 51
180.0
  0
LINE
  5
3524
330
18
100
AcDbEntity
  8
0
100
AcDbLine
 10
985.4333538840228
 20
675.9145594897485
 30
0.0
 11
985.4333538840228
 21
655.1048512392108
 31
0.0
  0
LINE
  5
3525
330
18
100
AcDbEntity
  8
0
100
AcDbLine
 10
945.5036828883521
 20
675.9145594897485
 30
0.0
 11
945.5036828883521
 21
655.1048512392108
 31
0.0
  0
POLYLINE
  5
3526
330
18
100
AcDbEntity
  8
0
100
AcDb2dPolyline
 66
     1
 10
0.0
 20
0.0
 30
0.0
 70
     1
  0
VERTEX
  5
3E70
330
3526
100
AcDbEntity
  8
0
100
AcDbVertex
100
AcDb2dVertex
 10
965.4685183861875
 20
687.1763720311459
 30
0.0
  0
VERTEX
  5
3E71
330
3526
100
AcDbEntity
  8
0
100
AcDbVertex
100
AcDb2dVertex
 10
946.7046346375248
 20
676.3430386978127
 30
0.0
  0
VERTEX
  5
3E72
330
3526
100
AcDbEntity
  8
0
100
AcDbVertex
100
AcDb2dVertex
 10
946.7046346375248
 20
654.6763720311462
 30
0.0
  0
VERTEX
  5
3E73
330
3526
100
AcDbEntity
  8
0
100
AcDbVertex
100
AcDb2dVertex
 10
965.4685183861875
 20
643.8430386978129
 30
0.0
  0
VERTEX
  5
3E74
330
3526
100
AcDbEntity
  8
0
100
AcDbVertex
100
AcDb2dVertex
 10
984.2324021348501
 20
654.6763720311462
 30
0.0
  0
VERTEX
  5
3E75
330
3526
100
AcDbEntity
  8
0
100
AcDbVertex
100
AcDb2dVertex
 10
984.2324021348501
 20
676.3430386978127
 30
0.0
  0
SEQEND
  5
3E76
330
3526
100
AcDbEntity
  8
0
  0
CIRCLE
  5
3527
330
18
100
AcDbEntity
  8
0
100
AcDbCircle
 10
965.4685183861875
 20
665.5097053644794
 30
0.0
 40
18.76388374866269
  0
ARC
  5
3528
330
18
100
AcDbEntity
  8
0
100
AcDbCircle
 10
1002.134177572455
 20
665.5097053644794
 30
0.0
 40
57.63049468410372
100
AcDbArc
 50
190.9795558139776
 51
195.1387667207079
  0
ARC
  5
3529
330
18
100
AcDbEntity
  8
0
100
AcDbCircle
 10
948.503682888352
 20
655.1048512392108
 30
0.0
 40
3.0
100
AcDbArc
 50
180.0
 51
190.9795558139771
  0
ARC
  5
352A
330
18
100
AcDbEntity
  8
0
100
AcDbCircle
 10
982.4333538840228
 20
655.1048512392108
 30
0.0
 40
3.0
100
AcDbArc
 50
349.0204441860228
 51
0.000000000000007
  0
ARC
  5
352B
330
18
100
AcDbEntity
  8
0
100
AcDbCircle
 10
928.8028591999191
 20
665.5097053644794
 30
0.0
 40
57.63049468410372
100
AcDbArc
 50
344.8612332792921
 51
349.0204441860223
  0
ARC
  5
352C
330
18
100
AcDbEntity
  8
0
100
AcDbCircle
 10
1002.134177572455
 20
665.5097053644794
 30
0.0
 40
57.63049468410372
100
AcDbArc
 50
164.861233279292
 51
169.0204441860218
  0
ARC
  5
352D
330
18
100
AcDbEntity
  8
0
100
AcDbCircle
 10
948.503682888352
 20
675.9145594897485
 30
0.0
 40
3.0
100
AcDbArc
 50
169.0204441860228
 51
180.0
  0
LINE
  5
352E
330
18
100
AcDbEntity
  8
0
100
AcDbLine
 10
950.2959654634056
 20
689.0880098426302
 30
0.0
 11
946.5036828883521
 21
680.5603524846672
 31
0.0
  0
ARC
  5
352F
330
18
100
AcDbEntity
  8
0
100
AcDbCircle
 10
948.4685183861875
 20
689.9006827042216
 30
0.0
 40
2.0
100
AcDbArc
 50
336.0250980827019
 51
0.0
  0
LINE
  5
3530
330
18
100
AcDbEntity
  8
0
100
AcDbLine
 10
950.4685183861875
 20
691.5097053644794
 30
0.0
 11
950.4685183861875
 21
689.9006827042216
 31
0.0
  0
ARC
  5
3531
330
18
100
AcDbEntity
  8
0
100
AcDbCircle
 10
982.4333538840228
 20
675.9145594897485
 30
0.0
 40
3.0
100
AcDbArc
 50
0.000000000000007
 51
10.97955581397723
  0
ARC
  5
3532
330
18
100
AcDbEntity
  8
0
100
AcDbCircle
 10
928.8028591999191
 20
665.5097053644794
 30
0.0
 40
57.63049468410372
100
AcDbArc
 50
10.97955581397812
 51
15.13876672070792
  0
LINE
  5
3533
330
18
100
AcDbEntity
  8
0
100
AcDbLine
 10
980.6422617851598
 20
689.0853328340361
 30
0.0
 11
984.4333538840228
 21
680.5603524846672
 31
0.0
  0
ARC
  5
3534
330
18
100
AcDbEntity
  8
0
100
AcDbCircle
 10
982.4697088623778
 20
689.8980056956276
 30
0.0
 40
2.0
100
AcDbArc
 50
180.0
 51
203.974901917298
  0
LINE
  5
3535
330
18
100
AcDbEntity
  8
0
100
AcDbLine
 10
980.4685183861876
 20
691.5097053644794
 30
0.0
 11
980.4697088623779
 21
689.8980056956276
 31
0.0
  0
LINE
  5
3536
330
18
100
AcDbEntity
  8
0
100
AcDbLine
 10
983.4685183861875
 20
711.5097053644794
 30
0.0
 11
965.4685183861875
 21
711.5097053644794
 31
0.0
  0
LINE
  5
3537
330
18
100
AcDbEntity
  8
0
100
AcDbLine
 10
984.4685183861875
 20
706.8335148882889
 30
0.0
 11
946.4685183861874
 21
706.8335148882889
 31
0.0
  0
LINE
  5
3538
330
18
100
AcDbEntity
  8
0
100
AcDbLine
 10
946.6756612433302
 20
710.5311339359079
 30
0.0
 11
984.2637564814255
 21
710.5311339359079
 31
0.0
  0
LINE
  5
3539
330
18
100
AcDbEntity
  8
0
100
AcDbLine
 10
947.4685183861875
 20
711.5097053644794
 30
0.0
 11
946.6756612433302
 21
710.5311339359079
 31
0.0
  0
LINE
  5
353A
330
18
100
AcDbEntity
  8
0
100
AcDbLine
 10
946.6756612433302
 20
710.5311339359079
 30
0.0
 11
946.4685183861874
 21
706.8335148882891
 31
0.0
  0
LINE
  5
353B
330
18
100
AcDbEntity
  8
0
100
AcDbLine
 10
965.4685183861875
 20
711.5097053644794
 30
0.0
 11
947.4685183861875
 21
711.5097053644794
 31
0.0
  0
LINE
  5
353C
330
18
100
AcDbEntity
  8
0
100
AcDbLine
 10
984.2637564814255
 20
710.5311339359079
 30
0.0
 11
983.4685183861875
 21
711.5097053644794
 31
0.0
  0
LINE
  5
353D
330
18
100
AcDbEntity
  8
0
100
AcDbLine
 10
984.4685183861875
 20
706.8335148882891
 30
0.0
 11
984.2637564814255
 21
710.5311339359079
 31
0.0
  0
POINT
  5
353E
330
18
100
AcDbEntity
  8
0
  6
BYBLOCK
100
AcDbPoint
 10
967.2208993385684
 20
711.5097053644794
 30
0.0
  0
POINT
  5
353F
330
18
100
AcDbEntity
  8
0
  6
BYBLOCK
100
AcDbPoint
 10
967.2208993385684
 20
711.5097053644794
 30
0.0
  0
LINE
  5
3540
330
18
100
AcDbEntity
  8
0
100
AcDbLine
 10
971.9828041004731
 20
711.5097053644794
 30
0.0
 11
971.9828041004731
 21
711.5097053644794
 31
0.0
  0
LINE
  5
354F
330
18
100
AcDbEntity
  8
0
100
AcDbLine
 10
1092.105270000084
 20
1064.220483067875
 30
0.0
 11
1098.164181301307
 21
1064.220483067875
 31
0.0
  0
LINE
  5
3550
330
18
100
AcDbEntity
  8
0
100
AcDbLine
 10
1092.105270000084
 20
1099.004972336988
 30
0.0
 11
1096.292696767804
 21
1099.004972336988
 31
0.0
  0
ARC
  5
3551
330
18
100
AcDbEntity
  8
0
100
AcDbCircle
 10
1094.182358790485
 20
989.5945502132541
 30
0.0
 40
1.981822510822503
100
AcDbArc
 50
270.0
 51
0.0
  0
LINE
  5
3552
330
18
100
AcDbEntity
  8
0
100
AcDbLine
 10
1076.664181301307
 20
977.6127277024315
 30
0.0
 11
1095.902276539403
 21
977.6127277024315
 31
0.0
  0
LINE
  5
3553
330
18
100
AcDbEntity
  8
0
100
AcDbLine
 10
1076.664181301307
 20
968.6127277024315
 30
0.0
 11
1095.902276539403
 21
968.6127277024315
 31
0.0
  0
LINE
  5
3554
330
18
100
AcDbEntity
  8
0
100
AcDbLine
 10
1090.226086063212
 20
951.6127277024315
 30
0.0
 11
1142.102276539402
 21
951.6127277024315
 31
0.0
  0
LINE
  5
3555
330
18
100
AcDbEntity
  8
0
100
AcDbLine
 10
1094.164181301307
 20
987.6127277024316
 30
0.0
 11
1138.164181301307
 21
987.6127277024316
 31
0.0
  0
LINE
  5
3556
330
18
100
AcDbEntity
  8
0
100
AcDbLine
 10
1094.164181301307
 20
887.6127277024316
 30
0.0
 11
1138.164181301307
 21
887.6127277024316
 31
0.0
  0
LINE
  5
3557
330
18
100
AcDbEntity
  8
0
100
AcDbLine
 10
1094.164181301307
 20
885.6127277024315
 30
0.0
 11
1138.164181301307
 21
885.6127277024315
 31
0.0
  0
LINE
  5
3558
330
18
100
AcDbEntity
  8
0
100
AcDbLine
 10
1083.182358790484
 20
966.6127277024315
 30
0.0
 11
1149.164181301307
 21
966.6127277024315
 31
0.0
  0
LINE
  5
3559
330
18
100
AcDbEntity
  8
0
100
AcDbLine
 10
1147.164181301307
 20
985.6127277024315
 30
0.0
 11
1085.164181301307
 21
985.6127277024315
 31
0.0
  0
LINE
  5
355A
330
18
100
AcDbEntity
  8
0
100
AcDbLine
 10
1085.164181301307
 20
979.6127277024316
 30
0.0
 11
1147.187990825117
 21
979.6127277024316
 31
0.0
  0
LINE
  5
355B
330
18
100
AcDbEntity
  8
0
100
AcDbLine
 10
1094.164181301307
 20
862.6127277024316
 30
0.0
 11
1095.164181301307
 21
861.6127277024316
 31
0.0
  0
LINE
  5
355C
330
18
100
AcDbEntity
  8
0
100
AcDbLine
 10
1094.164181301307
 20
885.6127277024315
 30
0.0
 11
1094.164181301307
 21
862.6127277024316
 31
0.0
  0
LINE
  5
355D
330
18
100
AcDbEntity
  8
0
100
AcDbLine
 10
1092.223158177284
 20
949.6928394297151
 30
0.0
 11
1094.164181301307
 21
887.6127277024316
 31
0.0
  0
LINE
  5
355E
330
18
100
AcDbEntity
  8
0
100
AcDbLine
 10
1094.164181301307
 20
887.6127277024316
 30
0.0
 11
1094.164181301307
 21
885.6127277024315
 31
0.0
  0
ARC
  5
355F
330
18
100
AcDbEntity
  8
0
100
AcDbCircle
 10
1076.659419396555
 20
973.1127277024315
 30
0.0
 40
6.500001744287216
100
AcDbArc
 50
89.95802507754998
 51
270.0419749223555
  0
CIRCLE
  5
3560
330
18
100
AcDbEntity
  8
0
100
AcDbCircle
 10
1076.664181301307
 20
973.1127277024315
 30
0.0
 40
4.500023809523807
  0
CIRCLE
  5
3561
330
18
100
AcDbEntity
  8
0
100
AcDbCircle
 10
1076.664181301307
 20
973.1127277024315
 30
0.0
 40
3.08890476190476
  0
CIRCLE
  5
3562
330
18
100
AcDbEntity
  8
0
100
AcDbCircle
 10
1076.664181301307
 20
973.1127277024315
 30
0.0
 40
2.354511904761904
  0
LINE
  5
3563
330
18
100
AcDbEntity
  8
0
100
AcDbLine
 10
1086.164181301307
 20
975.630905191609
 30
0.0
 11
1086.164181301307
 21
970.6127277024314
 31
0.0
  0
LINE
  5
3564
330
18
100
AcDbEntity
  8
0
100
AcDbLine
 10
1085.164181301307
 20
964.6309051916089
 30
0.0
 11
1085.164181301307
 21
953.5945502132539
 31
0.0
  0
ARC
  5
3565
330
18
100
AcDbEntity
  8
0
100
AcDbCircle
 10
1090.242303661032
 20
949.6309051916091
 30
0.0
 40
1.98182251082251
100
AcDbArc
 50
1.790850742120779
 51
90.0
  0
LINE
  5
3566
330
18
100
AcDbEntity
  8
0
100
AcDbLine
 10
1087.146003812129
 20
951.6127277024315
 30
0.0
 11
1090.242303661032
 21
951.6127277024315
 31
0.0
  0
ARC
  5
3567
330
18
100
AcDbEntity
  8
0
100
AcDbCircle
 10
1087.146003812129
 20
953.5945502132539
 30
0.0
 40
1.981822510822503
100
AcDbArc
 50
180.0
 51
270.0
  0
ARC
  5
3568
330
18
100
AcDbEntity
  8
0
100
AcDbCircle
 10
1083.182358790484
 20
964.6309051916089
 30
0.0
 40
1.981822510822496
100
AcDbArc
 50
0.0
 51
90.0
  0
ARC
  5
3569
330
18
100
AcDbEntity
  8
0
100
AcDbCircle
 10
1084.182358790485
 20
970.6127277024314
 30
0.0
 40
1.98182251082251
100
AcDbArc
 50
270.0
 51
0.0
  0
LINE
  5
356A
330
18
100
AcDbEntity
  8
0
100
AcDbLine
 10
1084.164181301307
 20
968.6127277024315
 30
0.0
 11
1083.416562253688
 21
968.6127277024315
 31
0.0
  0
LINE
  5
356B
330
18
100
AcDbEntity
  8
0
100
AcDbLine
 10
1084.164181301307
 20
968.6127277024315
 30
0.0
 11
1083.416562253688
 21
968.6127277024315
 31
0.0
  0
LINE
  5
356C
330
18
100
AcDbEntity
  8
0
100
AcDbLine
 10
1076.664181301297
 20
966.6127277024315
 30
0.0
 11
1083.182358790484
 21
966.6127277024314
 31
0.0
  0
LINE
  5
356D
330
18
100
AcDbEntity
  8
0
100
AcDbLine
 10
1087.164181301307
 20
987.6127277024316
 30
0.0
 11
1085.164181301307
 21
985.6127277024315
 31
0.0
  0
ARC
  5
356E
330
18
100
AcDbEntity
  8
0
100
AcDbCircle
 10
1084.182358790485
 20
975.630905191609
 30
0.0
 40
1.98182251082251
100
AcDbArc
 50
0.0
 51
90.0
  0
LINE
  5
356F
330
18
100
AcDbEntity
  8
0
100
AcDbLine
 10
1083.709419396545
 20
977.6127277024315
 30
0.0
 11
1084.164181301307
 21
977.6127277024315
 31
0.0
  0
LINE
  5
3570
330
18
100
AcDbEntity
  8
0
100
AcDbLine
 10
1085.164181301307
 20
985.6127277024315
 30
0.0
 11
1085.164181301307
 21
979.6127277024316
 31
0.0
  0
LINE
  5
3571
330
18
100
AcDbEntity
  8
0
100
AcDbLine
 10
1094.182358790485
 20
987.6127277024316
 30
0.0
 11
1087.164181301307
 21
987.6127277024316
 31
0.0
  0
LINE
  5
3572
330
18
100
AcDbEntity
  8
0
100
AcDbLine
 10
1085.164181301307
 20
979.6127277024316
 30
0.0
 11
1076.664181301307
 21
979.6127277024316
 31
0.0
  0
LINE
  5
3573
330
18
100
AcDbEntity
  8
0
100
AcDbLine
 10
1078.664181301307
 20
1101.612727702431
 30
0.0
 11
1078.664181301307
 21
1061.612727702431
 31
0.0
  0
ARC
  5
3574
330
18
100
AcDbEntity
  8
0
100
AcDbCircle
 10
1039.877770460375
 20
1081.612727702431
 30
0.0
 40
49.3518870314083
100
AcDbArc
 50
346.3259803408843
 51
13.67401965911563
  0
ARC
  5
3575
330
18
100
AcDbEntity
  8
0
100
AcDbCircle
 10
1128.283925475573
 20
1081.612727702431
 30
0.0
 40
49.3518870314083
100
AcDbArc
 50
166.3259803408843
 51
193.6740196591156
  0
LINE
  5
3576
330
18
100
AcDbEntity
  8
0
100
AcDbLine
 10
1087.830847967974
 20
1059.946061035765
 30
0.0
 11
1092.105270000084
 21
1064.220483067875
 31
0.0
  0
ARC
  5
3577
330
18
100
AcDbEntity
  8
0
100
AcDbCircle
 10
1081.680263765318
 20
1064.946061035765
 30
0.0
 40
7.926517900942267
100
AcDbArc
 50
320.8912726349672
 51
39.10872736503276
  0
LINE
  5
3578
330
18
100
AcDbEntity
  8
0
100
AcDbLine
 10
1078.664181301307
 20
1061.612727702431
 30
0.0
 11
1080.330847967974
 21
1059.946061035765
 31
0.0
  0
LINE
  5
3579
330
18
100
AcDbEntity
  8
0
100
AcDbLine
 10
1080.330847967974
 20
1059.946061035765
 30
0.0
 11
1087.830847967974
 21
1059.946061035765
 31
0.0
  0
LINE
  5
357A
330
18
100
AcDbEntity
  8
0
100
AcDbLine
 10
1087.830847967974
 20
1069.946061035765
 30
0.0
 11
1080.330847967974
 21
1069.946061035765
 31
0.0
  0
ARC
  5
357B
330
18
100
AcDbEntity
  8
0
100
AcDbCircle
 10
1086.481432170629
 20
1064.946061035765
 30
0.0
 40
7.926517900942267
100
AcDbArc
 50
140.8912726349672
 51
219.1087273650328
  0
LINE
  5
357C
330
18
100
AcDbEntity
  8
0
100
AcDbLine
 10
1092.105270000084
 20
1099.004972336988
 30
0.0
 11
1087.830847967974
 21
1103.279394369098
 31
0.0
  0
ARC
  5
357D
330
18
100
AcDbEntity
  8
0
100
AcDbCircle
 10
1081.680263765318
 20
1098.279394369098
 30
0.0
 40
7.926517900942267
100
AcDbArc
 50
320.8912726349672
 51
39.10872736503276
  0
LINE
  5
357E
330
18
100
AcDbEntity
  8
0
100
AcDbLine
 10
1080.330847967974
 20
1103.279394369098
 30
0.0
 11
1078.664181301307
 21
1101.612727702431
 31
0.0
  0
LINE
  5
357F
330
18
100
AcDbEntity
  8
0
100
AcDbLine
 10
1087.830847967974
 20
1103.279394369098
 30
0.0
 11
1080.330847967974
 21
1103.279394369098
 31
0.0
  0
LINE
  5
3580
330
18
100
AcDbEntity
  8
0
100
AcDbLine
 10
1087.830847967974
 20
1093.279394369098
 30
0.0
 11
1080.330847967974
 21
1093.279394369098
 31
0.0
  0
ARC
  5
3581
330
18
100
AcDbEntity
  8
0
100
AcDbCircle
 10
1086.481432170629
 20
1098.279394369098
 30
0.0
 40
7.926517900942267
100
AcDbArc
 50
140.8912726349672
 51
219.1087273650328
  0
LINE
  5
3582
330
18
100
AcDbEntity
  8
0
100
AcDbLine
 10
1131.164181301307
 20
998.6127277024316
 30
0.0
 11
1131.164181301307
 21
1060.736764422615
 31
0.0
  0
LINE
  5
3583
330
18
100
AcDbEntity
  8
0
100
AcDbLine
 10
1101.164181301307
 20
1061.220483067875
 30
0.0
 11
1101.164181301307
 21
998.6036389578428
 31
0.0
  0
LINE
  5
3584
330
18
100
AcDbEntity
  8
0
100
AcDbLine
 10
1138.164181301307
 20
862.6127277024316
 30
0.0
 11
1138.164181301307
 21
885.6127277024315
 31
0.0
  0
LINE
  5
3585
330
18
100
AcDbEntity
  8
0
100
AcDbLine
 10
1136.164181301307
 20
862.6127277024316
 30
0.0
 11
1132.664181301307
 21
862.6127277024316
 31
0.0
  0
LINE
  5
3586
330
18
100
AcDbEntity
  8
0
100
AcDbLine
 10
1132.664181301307
 20
883.1127277024316
 30
0.0
 11
1136.164181301307
 21
883.1127277024316
 31
0.0
  0
LINE
  5
3587
330
18
100
AcDbEntity
  8
0
100
AcDbLine
 10
1095.164181301307
 20
861.6127277024316
 30
0.0
 11
1137.164181301307
 21
861.6127277024316
 31
0.0
  0
LINE
  5
3588
330
18
100
AcDbEntity
  8
0
100
AcDbLine
 10
1118.164181301307
 20
862.6127277024316
 30
0.0
 11
1114.664181301307
 21
862.6127277024316
 31
0.0
  0
LINE
  5
3589
330
18
100
AcDbEntity
  8
0
100
AcDbLine
 10
1114.664181301307
 20
883.1127277024316
 30
0.0
 11
1118.164181301307
 21
883.1127277024316
 31
0.0
  0
LINE
  5
358A
330
18
100
AcDbEntity
  8
0
100
AcDbLine
 10
1114.664181301307
 20
862.6127277024316
 30
0.0
 11
1114.664181301307
 21
883.1127277024316
 31
0.0
  0
LINE
  5
358B
330
18
100
AcDbEntity
  8
0
100
AcDbLine
 10
1112.164181301307
 20
883.1127277024316
 30
0.0
 11
1112.164181301307
 21
862.6127277024316
 31
0.0
  0
LINE
  5
358C
330
18
100
AcDbEntity
  8
0
100
AcDbLine
 10
1108.664181301307
 20
862.6127277024316
 30
0.0
 11
1108.664181301307
 21
883.1127277024316
 31
0.0
  0
LINE
  5
358D
330
18
100
AcDbEntity
  8
0
100
AcDbLine
 10
1106.164181301307
 20
883.1127277024316
 30
0.0
 11
1106.164181301307
 21
862.6127277024316
 31
0.0
  0
LINE
  5
358E
330
18
100
AcDbEntity
  8
0
100
AcDbLine
 10
1112.164181301307
 20
862.6127277024316
 30
0.0
 11
1108.664181301307
 21
862.6127277024316
 31
0.0
  0
LINE
  5
358F
330
18
100
AcDbEntity
  8
0
100
AcDbLine
 10
1108.664181301307
 20
883.1127277024316
 30
0.0
 11
1112.164181301307
 21
883.1127277024316
 31
0.0
  0
LINE
  5
3590
330
18
100
AcDbEntity
  8
0
100
AcDbLine
 10
1102.664181301307
 20
862.6127277024316
 30
0.0
 11
1102.664181301307
 21
883.1127277024316
 31
0.0
  0
LINE
  5
3591
330
18
100
AcDbEntity
  8
0
100
AcDbLine
 10
1100.164181301307
 20
883.1127277024316
 30
0.0
 11
1100.164181301307
 21
862.6127277024316
 31
0.0
  0
LINE
  5
3592
330
18
100
AcDbEntity
  8
0
100
AcDbLine
 10
1096.664181301307
 20
862.6127277024316
 30
0.0
 11
1096.664181301307
 21
883.1127277024316
 31
0.0
  0
LINE
  5
3593
330
18
100
AcDbEntity
  8
0
100
AcDbLine
 10
1100.164181301307
 20
862.6127277024316
 30
0.0
 11
1096.664181301307
 21
862.6127277024316
 31
0.0
  0
LINE
  5
3594
330
18
100
AcDbEntity
  8
0
100
AcDbLine
 10
1096.664181301307
 20
883.1127277024316
 30
0.0
 11
1100.164181301307
 21
883.1127277024316
 31
0.0
  0
LINE
  5
3595
330
18
100
AcDbEntity
  8
0
100
AcDbLine
 10
1102.664181301307
 20
883.1127277024316
 30
0.0
 11
1106.164181301307
 21
883.1127277024316
 31
0.0
  0
LINE
  5
3596
330
18
100
AcDbEntity
  8
0
100
AcDbLine
 10
1106.164181301307
 20
862.6127277024316
 30
0.0
 11
1102.664181301307
 21
862.6127277024316
 31
0.0
  0
LINE
  5
3597
330
18
100
AcDbEntity
  8
0
100
AcDbLine
 10
1124.164181301307
 20
883.1127277024316
 30
0.0
 11
1124.164181301307
 21
862.6127277024316
 31
0.0
  0
LINE
  5
3598
330
18
100
AcDbEntity
  8
0
100
AcDbLine
 10
1130.164181301307
 20
883.1127277024316
 30
0.0
 11
1130.164181301307
 21
862.6127277024316
 31
0.0
  0
LINE
  5
3599
330
18
100
AcDbEntity
  8
0
100
AcDbLine
 10
1126.664181301307
 20
862.6127277024316
 30
0.0
 11
1126.664181301307
 21
883.1127277024316
 31
0.0
  0
LINE
  5
359A
330
18
100
AcDbEntity
  8
0
100
AcDbLine
 10
1132.664181301307
 20
862.6127277024316
 30
0.0
 11
1132.664181301307
 21
883.1127277024316
 31
0.0
  0
LINE
  5
359B
330
18
100
AcDbEntity
  8
0
100
AcDbLine
 10
1131.77132415845
 20
861.6127277024316
 30
0.0
 11
1131.77132415845
 21
861.6127277024316
 31
0.0
  0
POINT
  5
359C
330
18
100
AcDbEntity
  8
0
  6
BYBLOCK
100
AcDbPoint
 10
1127.009419396545
 20
861.6127277024316
 30
0.0
  0
LINE
  5
359D
330
18
100
AcDbEntity
  8
0
100
AcDbLine
 10
1130.164181301307
 20
862.6127277024316
 30
0.0
 11
1126.664181301307
 21
862.6127277024316
 31
0.0
  0
LINE
  5
359E
330
18
100
AcDbEntity
  8
0
100
AcDbLine
 10
1126.664181301307
 20
883.1127277024316
 30
0.0
 11
1130.164181301307
 21
883.1127277024316
 31
0.0
  0
LINE
  5
359F
330
18
100
AcDbEntity
  8
0
100
AcDbLine
 10
1118.164181301307
 20
883.1127277024316
 30
0.0
 11
1118.164181301307
 21
862.6127277024316
 31
0.0
  0
LINE
  5
35A0
330
18
100
AcDbEntity
  8
0
100
AcDbLine
 10
1120.664181301307
 20
862.6127277024316
 30
0.0
 11
1120.664181301307
 21
883.1127277024316
 31
0.0
  0
LINE
  5
35A1
330
18
100
AcDbEntity
  8
0
100
AcDbLine
 10
1124.164181301307
 20
862.6127277024316
 30
0.0
 11
1120.664181301307
 21
862.6127277024316
 31
0.0
  0
LINE
  5
35A2
330
18
100
AcDbEntity
  8
0
100
AcDbLine
 10
1120.664181301307
 20
883.1127277024316
 30
0.0
 11
1124.164181301307
 21
883.1127277024316
 31
0.0
  0
LINE
  5
35A3
330
18
100
AcDbEntity
  8
0
100
AcDbLine
 10
1136.164181301307
 20
883.1127277024316
 30
0.0
 11
1136.164181301307
 21
862.6127277024316
 31
0.0
  0
LINE
  5
35A4
330
18
100
AcDbEntity
  8
0
100
AcDbLine
 10
1137.164181301307
 20
861.6127277024316
 30
0.0
 11
1138.164181301307
 21
862.6127277024316
 31
0.0
  0
LINE
  5
35A5
330
18
100
AcDbEntity
  8
0
100
AcDbLine
 10
1138.164181301307
 20
887.6127277024316
 30
0.0
 11
1140.105204425331
 21
949.6928394297151
 31
0.0
  0
LINE
  5
35A6
330
18
100
AcDbEntity
  8
0
100
AcDbLine
 10
1138.164181301307
 20
887.6127277024316
 30
0.0
 11
1138.164181301307
 21
885.6127277024315
 31
0.0
  0
LINE
  5
35A7
330
18
100
AcDbEntity
  8
0
100
AcDbLine
 10
1138.164181301307
 20
885.6127277024315
 30
0.0
 11
1138.164181301307
 21
887.6127277024316
 31
0.0
  0
ARC
  5
35A8
330
18
100
AcDbEntity
  8
0
100
AcDbCircle
 10
1138.14600381213
 20
989.5945502132541
 30
0.0
 40
1.981822510822496
100
AcDbArc
 50
180.0
 51
270.0
  0
ARC
  5
35A9
330
18
100
AcDbEntity
  8
0
100
AcDbCircle
 10
1134.182358790485
 20
995.630905191609
 30
0.0
 40
1.981822510822524
100
AcDbArc
 50
0.0
 51
90.0
  0
ARC
  5
35AA
330
18
100
AcDbEntity
  8
0
100
AcDbCircle
 10
1131.164181301307
 20
987.0834576143856
 30
0.0
 40
9.886781490193518
100
AcDbArc
 50
59.62045877107969
 51
120.3795412289202
  0
ARC
  5
35AB
330
18
100
AcDbEntity
  8
0
100
AcDbCircle
 10
1116.164181301307
 20
971.6127277024314
 30
0.0
 40
26.00000000000003
100
AcDbArc
 50
67.38013505195756
 51
112.6198649480424
  0
LINE
  5
35AC
330
18
100
AcDbEntity
  8
0
100
AcDbLine
 10
1101.164181301307
 20
997.6127277024316
 30
0.0
 11
1131.164181301307
 21
997.6127277024316
 31
0.0
  0
LINE
  5
35AD
330
18
100
AcDbEntity
  8
0
100
AcDbLine
 10
1106.164181301307
 20
995.6127277024316
 30
0.0
 11
1106.164181301307
 21
987.6127277024316
 31
0.0
  0
ARC
  5
35AE
330
18
100
AcDbEntity
  8
0
100
AcDbCircle
 10
1098.14600381213
 20
995.630905191609
 30
0.0
 40
1.981822510822524
100
AcDbArc
 50
90.0
 51
180.0
  0
LINE
  5
35AF
330
18
100
AcDbEntity
  8
0
100
AcDbLine
 10
1096.164181301307
 20
995.630905191609
 30
0.0
 11
1096.164181301307
 21
989.5945502132541
 31
0.0
  0
LINE
  5
35B0
330
18
100
AcDbEntity
  8
0
100
AcDbLine
 10
1101.164181301307
 20
998.6127277024316
 30
0.0
 11
1101.164181301307
 21
998.6127277024316
 31
0.0
  0
LINE
  5
35B1
330
18
100
AcDbEntity
  8
0
100
AcDbLine
 10
1101.164181301307
 20
998.6127277024316
 30
0.0
 11
1101.154657491783
 21
998.4679657976696
 31
0.0
  0
LINE
  5
35B2
330
18
100
AcDbEntity
  8
0
100
AcDbLine
 10
1101.154657491783
 20
998.4679657976696
 30
0.0
 11
1101.12132415845
 21
998.3189181786219
 31
0.0
  0
LINE
  5
35B3
330
18
100
AcDbEntity
  8
0
100
AcDbLine
 10
1101.12132415845
 20
998.3189181786219
 30
0.0
 11
1101.061800348926
 21
998.171537226241
 31
0.0
  0
ARC
  5
35B4
330
18
100
AcDbEntity
  8
0
100
AcDbCircle
 10
1100.173270045896
 20
998.6036389578428
 30
0.0
 40
0.9909112554112482
100
AcDbArc
 50
270.0
 51
0.0
  0
LINE
  5
35B5
330
18
100
AcDbEntity
  8
0
100
AcDbLine
 10
1100.173270045896
 20
997.6127277024316
 30
0.0
 11
1098.14600381213
 21
997.6127277024316
 31
0.0
  0
ARC
  5
35B6
330
18
100
AcDbEntity
  8
0
100
AcDbCircle
 10
1101.164181301307
 20
987.0834576143856
 30
0.0
 40
9.886781490193518
100
AcDbArc
 50
59.62045877107969
 51
120.3795412289202
  0
ARC
  5
35B7
330
18
100
AcDbEntity
  8
0
100
AcDbCircle
 10
1132.157832643231
 20
998.6036389578428
 30
0.0
 40
0.9909112554112482
100
AcDbArc
 50
183.7640348649377
 51
270.0
  0
LINE
  5
35B8
330
18
100
AcDbEntity
  8
0
100
AcDbLine
 10
1131.169058909735
 20
998.5385880543228
 30
0.0
 11
1131.164181301307
 21
998.6127277024316
 31
0.0
  0
LINE
  5
35B9
330
18
100
AcDbEntity
  8
0
100
AcDbLine
 10
1134.182358790485
 20
997.6127277024316
 30
0.0
 11
1132.157832643231
 21
997.6127277024314
 31
0.0
  0
LINE
  5
35BA
330
18
100
AcDbEntity
  8
0
100
AcDbLine
 10
1126.164181301307
 20
995.6127277024316
 30
0.0
 11
1126.164181301307
 21
987.6127277024316
 31
0.0
  0
CIRCLE
  5
35BB
330
18
100
AcDbEntity
  8
0
100
AcDbCircle
 10
1155.664181301307
 20
973.1127277024315
 30
0.0
 40
3.08895238095238
  0
CIRCLE
  5
35BC
330
18
100
AcDbEntity
  8
0
100
AcDbCircle
 10
1155.664181301307
 20
973.1127277024315
 30
0.0
 40
4.500023809523807
  0
ARC
  5
35BD
330
18
100
AcDbEntity
  8
0
100
AcDbCircle
 10
1155.668943206059
 20
973.1127277024315
 30
0.0
 40
6.500001744287209
100
AcDbArc
 50
269.9580250776444
 51
90.04197492245003
  0
CIRCLE
  5
35BE
330
18
100
AcDbEntity
  8
0
100
AcDbCircle
 10
1155.664181301307
 20
973.1127277024315
 30
0.0
 40
2.354485714285713
  0
LINE
  5
35BF
330
18
100
AcDbEntity
  8
0
100
AcDbLine
 10
1146.164181301307
 20
975.630905191609
 30
0.0
 11
1146.164181301307
 21
970.6127277024314
 31
0.0
  0
LINE
  5
35C0
330
18
100
AcDbEntity
  8
0
100
AcDbLine
 10
1147.164181301307
 20
953.5945502132539
 30
0.0
 11
1147.164181301307
 21
964.6309051916089
 31
0.0
  0
ARC
  5
35C1
330
18
100
AcDbEntity
  8
0
100
AcDbCircle
 10
1145.182358790485
 20
953.5945502132539
 30
0.0
 40
1.981822510822496
100
AcDbArc
 50
270.0
 51
0.0
  0
LINE
  5
35C2
330
18
100
AcDbEntity
  8
0
100
AcDbLine
 10
1149.146003812129
 20
966.6127277024315
 30
0.0
 11
1155.664181301318
 21
966.6127277024315
 31
0.0
  0
ARC
  5
35C3
330
18
100
AcDbEntity
  8
0
100
AcDbCircle
 10
1148.14600381213
 20
970.6127277024314
 30
0.0
 40
1.98182251082251
100
AcDbArc
 50
180.0
 51
270.0
  0
LINE
  5
35C4
330
18
100
AcDbEntity
  8
0
100
AcDbLine
 10
1148.164181301307
 20
968.6127277024315
 30
0.0
 11
1148.911800348926
 21
968.6127277024315
 31
0.0
  0
ARC
  5
35C5
330
18
100
AcDbEntity
  8
0
100
AcDbCircle
 10
1149.146003812129
 20
964.6309051916089
 30
0.0
 40
1.98182251082251
100
AcDbArc
 50
90.0
 51
180.0
  0
ARC
  5
35C6
330
18
100
AcDbEntity
  8
0
100
AcDbCircle
 10
1142.086058941582
 20
949.6309051916091
 30
0.0
 40
1.981822510822524
100
AcDbArc
 50
90.0
 51
178.2091492578792
  0
LINE
  5
35C7
330
18
100
AcDbEntity
  8
0
100
AcDbLine
 10
1142.086058941582
 20
951.6127277024315
 30
0.0
 11
1145.182358790485
 21
951.6127277024315
 31
0.0
  0
LINE
  5
35C8
330
18
100
AcDbEntity
  8
0
100
AcDbLine
 10
1155.664181301307
 20
968.6127277024315
 30
0.0
 11
1136.426086063212
 21
968.6127277024315
 31
0.0
  0
LINE
  5
35C9
330
18
100
AcDbEntity
  8
0
100
AcDbLine
 10
1147.187990825117
 20
985.6127277024315
 30
0.0
 11
1145.164181301307
 21
987.6127277024316
 31
0.0
  0
ARC
  5
35CA
330
18
100
AcDbEntity
  8
0
100
AcDbCircle
 10
1148.14600381213
 20
975.630905191609
 30
0.0
 40
1.98182251082251
100
AcDbArc
 50
90.0
 51
180.0
  0
LINE
  5
35CB
330
18
100
AcDbEntity
  8
0
100
AcDbLine
 10
1147.187990825117
 20
985.6127277024315
 30
0.0
 11
1147.164181301307
 21
985.6127277024315
 31
0.0
  0
LINE
  5
35CC
330
18
100
AcDbEntity
  8
0
100
AcDbLine
 10
1147.187990825117
 20
979.6127277024316
 30
0.0
 11
1147.187990825117
 21
985.6127277024315
 31
0.0
  0
LINE
  5
35CD
330
18
100
AcDbEntity
  8
0
100
AcDbLine
 10
1155.664181301307
 20
979.6127277024316
 30
0.0
 11
1147.187990825117
 21
979.6127277024316
 31
0.0
  0
LINE
  5
35CE
330
18
100
AcDbEntity
  8
0
100
AcDbLine
 10
1136.164181301307
 20
989.5945502132541
 30
0.0
 11
1136.164181301307
 21
995.630905191609
 31
0.0
  0
LINE
  5
35CF
330
18
100
AcDbEntity
  8
0
100
AcDbLine
 10
1145.164181301307
 20
987.6127277024316
 30
0.0
 11
1138.14600381213
 21
987.6127277024314
 31
0.0
  0
LINE
  5
35D0
330
18
100
AcDbEntity
  8
0
100
AcDbLine
 10
1155.664181301307
 20
977.6127277024315
 30
0.0
 11
1136.426086063212
 21
977.6127277024315
 31
0.0
  0
LINE
  5
35D1
330
18
100
AcDbEntity
  8
0
100
AcDbLine
 10
1097.164181301307
 20
1122.936537226241
 30
0.0
 11
1101.164181301307
 21
1107.612727702431
 31
0.0
  0
LINE
  5
35D2
330
18
100
AcDbEntity
  8
0
100
AcDbLine
 10
1131.164181301307
 20
1107.612727702431
 30
0.0
 11
1135.164181301307
 21
1122.936537226241
 31
0.0
  0
LINE
  5
35D3
330
18
100
AcDbEntity
  8
0
100
AcDbLine
 10
1101.164181301307
 20
1048.191299131003
 30
0.0
 11
1131.164181301307
 21
1048.191299131003
 31
0.0
  0
LINE
  5
35D4
330
18
100
AcDbEntity
  8
0
100
AcDbLine
 10
1140.70681124779
 20
1063.736764422615
 30
0.0
 11
1134.164181301307
 21
1063.736764422615
 31
0.0
  0
ARC
  5
35D5
330
18
100
AcDbEntity
  8
0
100
AcDbCircle
 10
1135.82293521403
 20
1102.488690982247
 30
0.0
 40
3.0
100
AcDbArc
 50
203.9749019172941
 51
270.0
  0
ARC
  5
35E0
330
18
100
AcDbEntity
  8
0
100
AcDbCircle
 10
1116.164181301307
 20
1029.645861790544
 30
0.0
 40
37.31131470916864
100
AcDbArc
 50
69.76692968716031
 51
110.2330703128396
  0
ARC
  5
35E5
330
18
100
AcDbEntity
  8
0
100
AcDbCircle
 10
1098.164181301307
 20
1061.220483067875
 30
0.0
 40
3.0
100
AcDbArc
 50
0.0
 51
90.0
  0
ARC
  5
35FC
330
18
100
AcDbEntity
  8
0
100
AcDbCircle
 10
1134.164181301307
 20
1060.736764422615
 30
0.0
 40
3.0
100
AcDbArc
 50
90.0
 51
180.0
  0
ARC
  5
362D
330
18
100
AcDbEntity
  8
0
100
AcDbCircle
 10
1116.164181301307
 20
1133.83532517363
 30
0.0
 40
37.31131470916864
100
AcDbArc
 50
249.7669296871602
 51
290.2330703128396
  0
LINE
  5
3630
330
18
100
AcDbEntity
  8
0
100
AcDbLine
 10
1100.992818854716
 20
1105.191032180582
 30
0.0
 11
1099.033867383631
 21
1100.785963044601
 31
0.0
  0
ARC
  5
3631
330
18
100
AcDbEntity
  8
0
100
AcDbCircle
 10
1096.292696767804
 20
1102.004972336988
 30
0.0
 40
3.0
100
AcDbArc
 50
270.0
 51
336.0250980827029
  0
LINE
  5
363E
330
18
100
AcDbEntity
  8
0
100
AcDbLine
 10
1101.165371777498
 20
1107.612727702431
 30
0.0
 11
1101.165371777498
 21
1106.003705042174
 31
0.0
  0
ARC
  5
363F
330
18
100
AcDbEntity
  8
0
100
AcDbCircle
 10
1099.165371777498
 20
1106.003705042174
 30
0.0
 40
2.0
100
AcDbArc
 50
336.0250980827019
 51
0.0
  0
LINE
  5
3640
330
18
100
AcDbEntity
  8
0
100
AcDbLine
 10
1131.33911517647
 20
1105.188355171988
 30
0.0
 11
1133.081764598203
 21
1101.269681689861
 31
0.0
  0
LINE
  5
364B
330
18
100
AcDbEntity
  8
0
100
AcDbLine
 10
1131.165371777498
 20
1107.612727702431
 30
0.0
 11
1131.166562253688
 21
1106.001028033579
 31
0.0
  0
ARC
  5
364C
330
18
100
AcDbEntity
  8
0
100
AcDbCircle
 10
1133.166562253688
 20
1106.001028033579
 30
0.0
 40
2.0
100
AcDbArc
 50
180.0
 51
203.974901917298
  0
ARC
  5
3651
330
18
100
AcDbEntity
  8
0
100
AcDbCircle
 10
1192.450592142239
 20
1081.612727702431
 30
0.0
 40
49.3518870314083
100
AcDbArc
 50
166.3259803408843
 51
193.6740196591156
  0
LINE
  5
3652
330
18
100
AcDbEntity
  8
0
100
AcDbLine
 10
1139.380451142577
 20
1098.279394369098
 30
0.0
 11
1139.380451142577
 21
1065.152410242114
 31
0.0
  0
LINE
  5
3653
330
18
100
AcDbEntity
  8
0
100
AcDbLine
 10
1153.664181301307
 20
1061.612727702431
 30
0.0
 11
1153.664181301307
 21
1101.612727702431
 31
0.0
  0
ARC
  5
3654
330
18
100
AcDbEntity
  8
0
100
AcDbCircle
 10
1104.044437127042
 20
1081.612727702431
 30
0.0
 40
49.3518870314083
100
AcDbArc
 50
346.3259803408843
 51
13.67401965911563
  0
LINE
  5
3655
330
18
100
AcDbEntity
  8
0
100
AcDbLine
 10
1144.49751463464
 20
1069.946061035765
 30
0.0
 11
1151.997514634641
 21
1069.946061035765
 31
0.0
  0
LINE
  5
3656
330
18
100
AcDbEntity
  8
0
100
AcDbLine
 10
1144.49751463464
 20
1059.946061035765
 30
0.0
 11
1151.997514634641
 21
1059.946061035765
 31
0.0
  0
LINE
  5
3657
330
18
100
AcDbEntity
  8
0
100
AcDbLine
 10
1140.70681124779
 20
1063.736764422615
 30
0.0
 11
1144.49751463464
 21
1059.946061035765
 31
0.0
  0
ARC
  5
3658
330
18
100
AcDbEntity
  8
0
100
AcDbCircle
 10
1150.648098837296
 20
1064.946061035765
 30
0.0
 40
7.926517900942267
100
AcDbArc
 50
140.8912726349672
 51
219.1087273650328
  0
ARC
  5
3659
330
18
100
AcDbEntity
  8
0
100
AcDbCircle
 10
1145.846930431985
 20
1064.946061035765
 30
0.0
 40
7.926517900942267
100
AcDbArc
 50
320.8912726349672
 51
39.10872736503276
  0
LINE
  5
365A
330
18
100
AcDbEntity
  8
0
100
AcDbLine
 10
1151.997514634641
 20
1059.946061035765
 30
0.0
 11
1153.664181301307
 21
1061.612727702431
 31
0.0
  0
LINE
  5
365B
330
18
100
AcDbEntity
  8
0
100
AcDbLine
 10
1140.70681124779
 20
1099.488690982247
 30
0.0
 11
1135.82293521403
 21
1099.488690982247
 31
0.0
  0
LINE
  5
365C
330
18
100
AcDbEntity
  8
0
100
AcDbLine
 10
1151.997514634641
 20
1103.279394369098
 30
0.0
 11
1144.49751463464
 21
1103.279394369098
 31
0.0
  0
LINE
  5
365D
330
18
100
AcDbEntity
  8
0
100
AcDbLine
 10
1144.49751463464
 20
1093.279394369098
 30
0.0
 11
1151.997514634641
 21
1093.279394369098
 31
0.0
  0
LINE
  5
365E
330
18
100
AcDbEntity
  8
0
100
AcDbLine
 10
1144.49751463464
 20
1103.279394369098
 30
0.0
 11
1140.70681124779
 21
1099.488690982247
 31
0.0
  0
ARC
  5
365F
330
18
100
AcDbEntity
  8
0
100
AcDbCircle
 10
1150.648098837296
 20
1098.279394369098
 30
0.0
 40
7.926517900942267
100
AcDbArc
 50
140.8912726349672
 51
219.1087273650328
  0
LINE
  5
3660
330
18
100
AcDbEntity
  8
0
100
AcDbLine
 10
1153.664181301307
 20
1101.612727702431
 30
0.0
 11
1151.997514634641
 21
1103.279394369098
 31
0.0
  0
ARC
  5
3661
330
18
100
AcDbEntity
  8
0
100
AcDbCircle
 10
1145.846930431985
 20
1098.279394369098
 30
0.0
 40
7.926517900942267
100
AcDbArc
 50
320.8912726349672
 51
39.10872736503276
  0
LINE
  5
3662
330
18
100
AcDbEntity
  8
0
100
AcDbLine
 10
1135.164181301307
 20
1122.93653722624
 30
0.0
 11
1097.164181301307
 21
1122.93653722624
 31
0.0
  0
LINE
  5
3663
330
18
100
AcDbEntity
  8
0
100
AcDbLine
 10
1097.37132415845
 20
1126.63415627386
 30
0.0
 11
1134.959419396545
 21
1126.63415627386
 31
0.0
  0
LINE
  5
3664
330
18
100
AcDbEntity
  8
0
100
AcDbLine
 10
1116.164181301307
 20
1127.612727702431
 30
0.0
 11
1098.164181301307
 21
1127.612727702431
 31
0.0
  0
LINE
  5
3665
330
18
100
AcDbEntity
  8
0
100
AcDbLine
 10
1098.164181301307
 20
1127.612727702431
 30
0.0
 11
1097.37132415845
 21
1126.63415627386
 31
0.0
  0
LINE
  5
3666
330
18
100
AcDbEntity
  8
0
100
AcDbLine
 10
1097.37132415845
 20
1126.63415627386
 30
0.0
 11
1097.164181301307
 21
1122.936537226241
 31
0.0
  0
LINE
  5
3667
330
18
100
AcDbEntity
  8
0
100
AcDbLine
 10
1134.959419396545
 20
1126.63415627386
 30
0.0
 11
1134.164181301307
 21
1127.612727702431
 31
0.0
  0
LINE
  5
3668
330
18
100
AcDbEntity
  8
0
100
AcDbLine
 10
1135.164181301307
 20
1122.936537226241
 30
0.0
 11
1134.959419396545
 21
1126.63415627386
 31
0.0
  0
POINT
  5
3669
330
18
100
AcDbEntity
  8
0
  6
BYBLOCK
100
AcDbPoint
 10
1117.916562253688
 20
1127.612727702431
 30
0.0
  0
POINT
  5
366A
330
18
100
AcDbEntity
  8
0
  6
BYBLOCK
100
AcDbPoint
 10
1117.916562253688
 20
1127.612727702431
 30
0.0
  0
LINE
  5
366B
330
18
100
AcDbEntity
  8
0
100
AcDbLine
 10
1122.678467015593
 20
1127.612727702431
 30
0.0
 11
1122.678467015593
 21
1127.612727702431
 31
0.0
  0
LINE
  5
366C
330
18
100
AcDbEntity
  8
0
100
AcDbLine
 10
1134.164181301307
 20
1127.612727702431
 30
0.0
 11
1116.164181301307
 21
1127.612727702431
 31
0.0
  0
ARC
  5
367A
330
18
100
AcDbEntity
  8
0
100
AcDbCircle
 10
556.1364861275706
 20
780.6030969432556
 30
0.0
 40
31.00000000000005
100
AcDbArc
 50
31.64008751548369
 51
148.3599124845162
  0
ARC
  5
367B
330
18
100
AcDbEntity
  8
0
100
AcDbCircle
 10
556.1364861275706
 20
780.6030969432556
 30
0.0
 40
31.00000000000005
100
AcDbArc
 50
211.6400875154832
 51
328.3599124845165
  0
CIRCLE
  5
3680
330
18
100
AcDbEntity
  8
0
100
AcDbCircle
 10
556.1364861275706
 20
780.6030969432556
 30
0.0
 40
22.51666049839542
  0
ARC
  5
3681
330
18
100
AcDbEntity
  8
0
100
AcDbCircle
 10
534.1546636167481
 20
573.4915278753019
 30
0.0
 40
1.981822510822503
100
AcDbArc
 50
270.0
 51
0.0
  0
LINE
  5
3682
330
18
100
AcDbEntity
  8
0
100
AcDbLine
 10
516.6364861275706
 20
561.5097053644794
 30
0.0
 11
535.874581365666
 21
561.5097053644794
 31
0.0
  0
LINE
  5
3683
330
18
100
AcDbEntity
  8
0
100
AcDbLine
 10
516.6364861275706
 20
552.5097053644794
 30
0.0
 11
535.874581365666
 21
552.5097053644794
 31
0.0
  0
LINE
  5
3684
330
18
100
AcDbEntity
  8
0
100
AcDbLine
 10
530.1983908894754
 20
535.5097053644795
 30
0.0
 11
582.0745813656658
 21
535.5097053644795
 31
0.0
  0
LINE
  5
3685
330
18
100
AcDbEntity
  8
0
100
AcDbLine
 10
534.1364861275706
 20
571.5097053644795
 30
0.0
 11
578.1364861275705
 21
571.5097053644795
 31
0.0
  0
LINE
  5
3686
330
18
100
AcDbEntity
  8
0
100
AcDbLine
 10
534.1364861275706
 20
471.5097053644795
 30
0.0
 11
578.1364861275705
 21
471.5097053644795
 31
0.0
  0
LINE
  5
3687
330
18
100
AcDbEntity
  8
0
100
AcDbLine
 10
534.1364861275706
 20
469.5097053644794
 30
0.0
 11
578.1364861275705
 21
469.5097053644794
 31
0.0
  0
LINE
  5
3688
330
18
100
AcDbEntity
  8
0
100
AcDbLine
 10
523.1546636167482
 20
550.5097053644795
 30
0.0
 11
589.1364861275706
 21
550.5097053644795
 31
0.0
  0
LINE
  5
3689
330
18
100
AcDbEntity
  8
0
100
AcDbLine
 10
587.1364861275706
 20
569.5097053644794
 30
0.0
 11
525.1364861275706
 21
569.5097053644794
 31
0.0
  0
LINE
  5
368A
330
18
100
AcDbEntity
  8
0
100
AcDbLine
 10
525.1364861275706
 20
563.5097053644795
 30
0.0
 11
587.1602956513802
 21
563.5097053644795
 31
0.0
  0
LINE
  5
368B
330
18
100
AcDbEntity
  8
0
100
AcDbLine
 10
534.1364861275706
 20
446.5097053644795
 30
0.0
 11
535.1364861275706
 21
445.5097053644794
 31
0.0
  0
LINE
  5
3690
330
18
100
AcDbEntity
  8
0
100
AcDbLine
 10
534.1364861275706
 20
469.5097053644794
 30
0.0
 11
534.1364861275706
 21
446.5097053644795
 31
0.0
  0
LINE
  5
36D9
330
18
100
AcDbEntity
  8
0
100
AcDbLine
 10
532.195463003547
 20
533.589817091763
 30
0.0
 11
534.1364861275706
 21
471.5097053644795
 31
0.0
  0
LINE
  5
36DA
330
18
100
AcDbEntity
  8
0
100
AcDbLine
 10
534.1364861275706
 20
471.5097053644795
 30
0.0
 11
534.1364861275706
 21
469.5097053644794
 31
0.0
  0
ARC
  5
36DB
330
18
100
AcDbEntity
  8
0
100
AcDbCircle
 10
516.6317242228188
 20
557.0097053644794
 30
0.0
 40
6.500001744287216
100
AcDbArc
 50
89.95802507754998
 51
270.0419749223555
  0
CIRCLE
  5
36DC
330
18
100
AcDbEntity
  8
0
100
AcDbCircle
 10
516.6364861275706
 20
557.0097053644794
 30
0.0
 40
4.500023809523807
  0
CIRCLE
  5
36DD
330
18
100
AcDbEntity
  8
0
100
AcDbCircle
 10
516.6364861275706
 20
557.0097053644794
 30
0.0
 40
3.08890476190476
  0
CIRCLE
  5
36DE
330
18
100
AcDbEntity
  8
0
100
AcDbCircle
 10
516.6364861275706
 20
557.0097053644794
 30
0.0
 40
2.354511904761904
  0
LINE
  5
36DF
330
18
100
AcDbEntity
  8
0
100
AcDbLine
 10
526.1364861275706
 20
559.5278828536569
 30
0.0
 11
526.1364861275706
 21
554.5097053644793
 31
0.0
  0
LINE
  5
36E0
330
18
100
AcDbEntity
  8
0
100
AcDbLine
 10
525.1364861275706
 20
548.5278828536569
 30
0.0
 11
525.1364861275706
 21
537.4915278753019
 31
0.0
  0
ARC
  5
36E1
330
18
100
AcDbEntity
  8
0
100
AcDbCircle
 10
530.2146084872957
 20
533.5278828536569
 30
0.0
 40
1.98182251082251
100
AcDbArc
 50
1.790850742120779
 51
90.0
  0
LINE
  5
36E2
330
18
100
AcDbEntity
  8
0
100
AcDbLine
 10
527.118308638393
 20
535.5097053644795
 30
0.0
 11
530.2146084872957
 21
535.5097053644795
 31
0.0
  0
ARC
  5
36E3
330
18
100
AcDbEntity
  8
0
100
AcDbCircle
 10
527.118308638393
 20
537.4915278753019
 30
0.0
 40
1.981822510822503
100
AcDbArc
 50
180.0
 51
270.0
  0
ARC
  5
36E4
330
18
100
AcDbEntity
  8
0
100
AcDbCircle
 10
523.1546636167482
 20
548.5278828536569
 30
0.0
 40
1.981822510822496
100
AcDbArc
 50
0.0
 51
90.0
  0
ARC
  5
36E5
330
18
100
AcDbEntity
  8
0
100
AcDbCircle
 10
524.1546636167481
 20
554.5097053644793
 30
0.0
 40
1.98182251082251
100
AcDbArc
 50
270.0
 51
0.0
  0
LINE
  5
36E6
330
18
100
AcDbEntity
  8
0
100
AcDbLine
 10
524.1364861275705
 20
552.5097053644794
 30
0.0
 11
523.3888670799514
 21
552.5097053644794
 31
0.0
  0
LINE
  5
36E7
330
18
100
AcDbEntity
  8
0
100
AcDbLine
 10
524.1364861275705
 20
552.5097053644794
 30
0.0
 11
523.3888670799514
 21
552.5097053644794
 31
0.0
  0
LINE
  5
36E8
330
18
100
AcDbEntity
  8
0
100
AcDbLine
 10
516.6364861275601
 20
550.5097053644795
 30
0.0
 11
523.1546636167482
 21
550.5097053644793
 31
0.0
  0
LINE
  5
36E9
330
18
100
AcDbEntity
  8
0
100
AcDbLine
 10
527.1364861275706
 20
571.5097053644795
 30
0.0
 11
525.1364861275706
 21
569.5097053644794
 31
0.0
  0
ARC
  5
36EA
330
18
100
AcDbEntity
  8
0
100
AcDbCircle
 10
524.1546636167481
 20
559.5278828536569
 30
0.0
 40
1.98182251082251
100
AcDbArc
 50
0.0
 51
90.0
  0
LINE
  5
36EB
330
18
100
AcDbEntity
  8
0
100
AcDbLine
 10
523.6817242228087
 20
561.5097053644794
 30
0.0
 11
524.1364861275705
 21
561.5097053644794
 31
0.0
  0
LINE
  5
36EC
330
18
100
AcDbEntity
  8
0
100
AcDbLine
 10
525.1364861275706
 20
569.5097053644794
 30
0.0
 11
525.1364861275706
 21
563.5097053644795
 31
0.0
  0
LINE
  5
36ED
330
18
100
AcDbEntity
  8
0
100
AcDbLine
 10
534.1546636167481
 20
571.5097053644795
 30
0.0
 11
527.1364861275706
 21
571.5097053644795
 31
0.0
  0
LINE
  5
36EE
330
18
100
AcDbEntity
  8
0
100
AcDbLine
 10
525.1364861275706
 20
563.5097053644795
 30
0.0
 11
516.6364861275706
 21
563.5097053644795
 31
0.0
  0
LINE
  5
3758
330
18
100
AcDbEntity
  8
0
100
AcDbLine
 10
571.1364861275706
 20
582.5097053644794
 30
0.0
 11
571.1364861275706
 21
647.4364266811974
 31
0.0
  0
LINE
  5
3759
330
18
100
AcDbEntity
  8
0
100
AcDbLine
 10
541.1364861275706
 20
647.4364266811972
 30
0.0
 11
541.1364861275706
 21
582.5006166198907
 31
0.0
  0
LINE
  5
375A
330
18
100
AcDbEntity
  8
0
100
AcDbLine
 10
693.2612083063641
 20
582.0097053644798
 30
0.0
 11
693.2612083063641
 21
641.116051016143
 31
0.0
  0
LINE
  5
375B
330
18
100
AcDbEntity
  8
0
100
AcDbLine
 10
663.2612083063641
 20
641.1214050333314
 30
0.0
 11
663.2612083063641
 21
582.0097053644798
 31
0.0
  0
LINE
  5
375C
330
18
100
AcDbEntity
  8
0
100
AcDbLine
 10
652.3284274749535
 20
535.5097053644795
 30
0.0
 11
704.2046179511439
 21
535.5097053644795
 31
0.0
  0
LINE
  5
375D
330
18
100
AcDbEntity
  8
0
100
AcDbLine
 10
657.2665227130487
 20
445.5097053644794
 30
0.0
 11
699.2665227130487
 21
445.5097053644794
 31
0.0
  0
LINE
  5
375E
330
18
100
AcDbEntity
  8
0
100
AcDbLine
 10
656.2665227130487
 20
469.5097053644794
 30
0.0
 11
700.2665227130487
 21
469.5097053644794
 31
0.0
  0
LINE
  5
375F
330
18
100
AcDbEntity
  8
0
100
AcDbLine
 10
656.2665227130487
 20
471.5097053644795
 30
0.0
 11
700.2665227130487
 21
471.5097053644795
 31
0.0
  0
LINE
  5
3760
330
18
100
AcDbEntity
  8
0
100
AcDbLine
 10
647.2665227130487
 20
563.5097053644795
 30
0.0
 11
709.2903322368581
 21
563.5097053644795
 31
0.0
  0
LINE
  5
3761
330
18
100
AcDbEntity
  8
0
100
AcDbLine
 10
709.2665227130487
 20
569.5097053644794
 30
0.0
 11
647.2665227130487
 21
569.5097053644794
 31
0.0
  0
LINE
  5
3762
330
18
100
AcDbEntity
  8
0
100
AcDbLine
 10
656.2665227130487
 20
571.5097053644795
 30
0.0
 11
700.2665227130487
 21
571.5097053644795
 31
0.0
  0
LINE
  5
3763
330
18
100
AcDbEntity
  8
0
100
AcDbLine
 10
647.2665227130487
 20
550.5097053644795
 30
0.0
 11
709.2665227130487
 21
550.5097053644795
 31
0.0
  0
LINE
  5
3764
330
18
100
AcDbEntity
  8
0
100
AcDbLine
 10
578.1364861275705
 20
446.5097053644795
 30
0.0
 11
578.1364861275705
 21
469.5097053644794
 31
0.0
  0
LINE
  5
3765
330
18
100
AcDbEntity
  8
0
100
AcDbLine
 10
656.2665227130487
 20
469.5097053644794
 30
0.0
 11
656.2665227130487
 21
446.5097053644795
 31
0.0
  0
LINE
  5
3766
330
18
100
AcDbEntity
  8
0
100
AcDbLine
 10
576.1364861275706
 20
446.5097053644795
 30
0.0
 11
572.6364861275706
 21
446.5097053644795
 31
0.0
  0
LINE
  5
3767
330
18
100
AcDbEntity
  8
0
100
AcDbLine
 10
572.6364861275706
 20
467.0097053644794
 30
0.0
 11
576.1364861275706
 21
467.0097053644794
 31
0.0
  0
LINE
  5
3768
330
18
100
AcDbEntity
  8
0
100
AcDbLine
 10
535.1364861275706
 20
445.5097053644794
 30
0.0
 11
577.1364861275706
 21
445.5097053644794
 31
0.0
  0
LINE
  5
3769
330
18
100
AcDbEntity
  8
0
100
AcDbLine
 10
558.1364861275706
 20
446.5097053644795
 30
0.0
 11
554.6364861275706
 21
446.5097053644795
 31
0.0
  0
LINE
  5
376A
330
18
100
AcDbEntity
  8
0
100
AcDbLine
 10
554.6364861275706
 20
467.0097053644794
 30
0.0
 11
558.1364861275706
 21
467.0097053644794
 31
0.0
  0
LINE
  5
376B
330
18
100
AcDbEntity
  8
0
100
AcDbLine
 10
554.6364861275706
 20
446.5097053644795
 30
0.0
 11
554.6364861275706
 21
467.0097053644794
 31
0.0
  0
LINE
  5
376C
330
18
100
AcDbEntity
  8
0
100
AcDbLine
 10
552.1364861275706
 20
467.0097053644794
 30
0.0
 11
552.1364861275706
 21
446.5097053644795
 31
0.0
  0
LINE
  5
376D
330
18
100
AcDbEntity
  8
0
100
AcDbLine
 10
548.6364861275705
 20
446.5097053644795
 30
0.0
 11
548.6364861275705
 21
467.0097053644794
 31
0.0
  0
LINE
  5
376E
330
18
100
AcDbEntity
  8
0
100
AcDbLine
 10
546.1364861275706
 20
467.0097053644794
 30
0.0
 11
546.1364861275706
 21
446.5097053644795
 31
0.0
  0
LINE
  5
376F
330
18
100
AcDbEntity
  8
0
100
AcDbLine
 10
552.1364861275706
 20
446.5097053644795
 30
0.0
 11
548.6364861275705
 21
446.5097053644795
 31
0.0
  0
LINE
  5
3770
330
18
100
AcDbEntity
  8
0
100
AcDbLine
 10
548.6364861275705
 20
467.0097053644794
 30
0.0
 11
552.1364861275706
 21
467.0097053644794
 31
0.0
  0
LINE
  5
3771
330
18
100
AcDbEntity
  8
0
100
AcDbLine
 10
542.6364861275706
 20
446.5097053644795
 30
0.0
 11
542.6364861275706
 21
467.0097053644794
 31
0.0
  0
LINE
  5
3772
330
18
100
AcDbEntity
  8
0
100
AcDbLine
 10
540.1364861275705
 20
467.0097053644794
 30
0.0
 11
540.1364861275705
 21
446.5097053644795
 31
0.0
  0
LINE
  5
3773
330
18
100
AcDbEntity
  8
0
100
AcDbLine
 10
536.6364861275705
 20
446.5097053644795
 30
0.0
 11
536.6364861275705
 21
467.0097053644794
 31
0.0
  0
LINE
  5
3774
330
18
100
AcDbEntity
  8
0
100
AcDbLine
 10
540.1364861275705
 20
446.5097053644795
 30
0.0
 11
536.6364861275705
 21
446.5097053644795
 31
0.0
  0
LINE
  5
3775
330
18
100
AcDbEntity
  8
0
100
AcDbLine
 10
536.6364861275705
 20
467.0097053644794
 30
0.0
 11
540.1364861275705
 21
467.0097053644794
 31
0.0
  0
LINE
  5
3776
330
18
100
AcDbEntity
  8
0
100
AcDbLine
 10
542.6364861275706
 20
467.0097053644794
 30
0.0
 11
546.1364861275706
 21
467.0097053644794
 31
0.0
  0
LINE
  5
3777
330
18
100
AcDbEntity
  8
0
100
AcDbLine
 10
546.1364861275706
 20
446.5097053644795
 30
0.0
 11
542.6364861275706
 21
446.5097053644795
 31
0.0
  0
LINE
  5
3778
330
18
100
AcDbEntity
  8
0
100
AcDbLine
 10
564.1364861275706
 20
467.0097053644794
 30
0.0
 11
564.1364861275706
 21
446.5097053644795
 31
0.0
  0
LINE
  5
3779
330
18
100
AcDbEntity
  8
0
100
AcDbLine
 10
570.1364861275705
 20
467.0097053644794
 30
0.0
 11
570.1364861275705
 21
446.5097053644795
 31
0.0
  0
LINE
  5
377A
330
18
100
AcDbEntity
  8
0
100
AcDbLine
 10
566.6364861275706
 20
446.5097053644795
 30
0.0
 11
566.6364861275706
 21
467.0097053644794
 31
0.0
  0
LINE
  5
377B
330
18
100
AcDbEntity
  8
0
100
AcDbLine
 10
572.6364861275706
 20
446.5097053644795
 30
0.0
 11
572.6364861275706
 21
467.0097053644794
 31
0.0
  0
LINE
  5
377C
330
18
100
AcDbEntity
  8
0
100
AcDbLine
 10
571.7436289847134
 20
445.5097053644794
 30
0.0
 11
571.7436289847134
 21
445.5097053644794
 31
0.0
  0
POINT
  5
377D
330
18
100
AcDbEntity
  8
0
  6
BYBLOCK
100
AcDbPoint
 10
566.9817242228086
 20
445.5097053644794
 30
0.0
  0
LINE
  5
377E
330
18
100
AcDbEntity
  8
0
100
AcDbLine
 10
570.1364861275705
 20
446.5097053644795
 30
0.0
 11
566.6364861275706
 21
446.5097053644795
 31
0.0
  0
LINE
  5
377F
330
18
100
AcDbEntity
  8
0
100
AcDbLine
 10
566.6364861275706
 20
467.0097053644794
 30
0.0
 11
570.1364861275705
 21
467.0097053644794
 31
0.0
  0
LINE
  5
3780
330
18
100
AcDbEntity
  8
0
100
AcDbLine
 10
558.1364861275706
 20
467.0097053644794
 30
0.0
 11
558.1364861275706
 21
446.5097053644795
 31
0.0
  0
LINE
  5
3781
330
18
100
AcDbEntity
  8
0
100
AcDbLine
 10
560.6364861275705
 20
446.5097053644795
 30
0.0
 11
560.6364861275705
 21
467.0097053644794
 31
0.0
  0
LINE
  5
3782
330
18
100
AcDbEntity
  8
0
100
AcDbLine
 10
564.1364861275706
 20
446.5097053644795
 30
0.0
 11
560.6364861275705
 21
446.5097053644795
 31
0.0
  0
LINE
  5
3783
330
18
100
AcDbEntity
  8
0
100
AcDbLine
 10
560.6364861275705
 20
467.0097053644794
 30
0.0
 11
564.1364861275706
 21
467.0097053644794
 31
0.0
  0
LINE
  5
3784
330
18
100
AcDbEntity
  8
0
100
AcDbLine
 10
576.1364861275706
 20
467.0097053644794
 30
0.0
 11
576.1364861275706
 21
446.5097053644795
 31
0.0
  0
LINE
  5
3785
330
18
100
AcDbEntity
  8
0
100
AcDbLine
 10
577.1364861275706
 20
445.5097053644794
 30
0.0
 11
578.1364861275705
 21
446.5097053644795
 31
0.0
  0
LINE
  5
3786
330
18
100
AcDbEntity
  8
0
100
AcDbLine
 10
656.2665227130487
 20
446.5097053644795
 30
0.0
 11
657.2665227130487
 21
445.5097053644794
 31
0.0
  0
LINE
  5
3787
330
18
100
AcDbEntity
  8
0
100
AcDbLine
 10
680.2665227130487
 20
446.5097053644795
 30
0.0
 11
676.7665227130487
 21
446.5097053644795
 31
0.0
  0
LINE
  5
3788
330
18
100
AcDbEntity
  8
0
100
AcDbLine
 10
676.7665227130487
 20
467.0097053644794
 30
0.0
 11
680.2665227130487
 21
467.0097053644794
 31
0.0
  0
LINE
  5
3789
330
18
100
AcDbEntity
  8
0
100
AcDbLine
 10
670.7665227130487
 20
446.5097053644795
 30
0.0
 11
670.7665227130487
 21
467.0097053644794
 31
0.0
  0
LINE
  5
378A
330
18
100
AcDbEntity
  8
0
100
AcDbLine
 10
674.2665227130487
 20
467.0097053644794
 30
0.0
 11
674.2665227130487
 21
446.5097053644795
 31
0.0
  0
LINE
  5
378B
330
18
100
AcDbEntity
  8
0
100
AcDbLine
 10
676.7665227130487
 20
446.5097053644795
 30
0.0
 11
676.7665227130487
 21
467.0097053644794
 31
0.0
  0
LINE
  5
378C
330
18
100
AcDbEntity
  8
0
100
AcDbLine
 10
668.2665227130487
 20
467.0097053644794
 30
0.0
 11
668.2665227130487
 21
446.5097053644795
 31
0.0
  0
LINE
  5
378D
330
18
100
AcDbEntity
  8
0
100
AcDbLine
 10
674.2665227130487
 20
446.5097053644795
 30
0.0
 11
670.7665227130487
 21
446.5097053644795
 31
0.0
  0
LINE
  5
378E
330
18
100
AcDbEntity
  8
0
100
AcDbLine
 10
670.7665227130487
 20
467.0097053644794
 30
0.0
 11
674.2665227130487
 21
467.0097053644794
 31
0.0
  0
LINE
  5
378F
330
18
100
AcDbEntity
  8
0
100
AcDbLine
 10
658.7665227130487
 20
446.5097053644795
 30
0.0
 11
658.7665227130487
 21
467.0097053644794
 31
0.0
  0
LINE
  5
3790
330
18
100
AcDbEntity
  8
0
100
AcDbLine
 10
662.2665227130487
 20
467.0097053644794
 30
0.0
 11
662.2665227130487
 21
446.5097053644795
 31
0.0
  0
LINE
  5
3791
330
18
100
AcDbEntity
  8
0
100
AcDbLine
 10
664.7665227130487
 20
446.5097053644795
 30
0.0
 11
664.7665227130487
 21
467.0097053644794
 31
0.0
  0
LINE
  5
3792
330
18
100
AcDbEntity
  8
0
100
AcDbLine
 10
662.2665227130487
 20
446.5097053644795
 30
0.0
 11
658.7665227130487
 21
446.5097053644795
 31
0.0
  0
LINE
  5
3793
330
18
100
AcDbEntity
  8
0
100
AcDbLine
 10
658.7665227130487
 20
467.0097053644794
 30
0.0
 11
662.2665227130487
 21
467.0097053644794
 31
0.0
  0
LINE
  5
3794
330
18
100
AcDbEntity
  8
0
100
AcDbLine
 10
664.7665227130487
 20
467.0097053644794
 30
0.0
 11
668.2665227130487
 21
467.0097053644794
 31
0.0
  0
LINE
  5
3795
330
18
100
AcDbEntity
  8
0
100
AcDbLine
 10
668.2665227130487
 20
446.5097053644795
 30
0.0
 11
664.7665227130487
 21
446.5097053644795
 31
0.0
  0
LINE
  5
3796
330
18
100
AcDbEntity
  8
0
100
AcDbLine
 10
694.7665227130487
 20
446.5097053644795
 30
0.0
 11
694.7665227130487
 21
467.0097053644794
 31
0.0
  0
LINE
  5
3797
330
18
100
AcDbEntity
  8
0
100
AcDbLine
 10
698.2665227130487
 20
467.0097053644794
 30
0.0
 11
698.2665227130487
 21
446.5097053644795
 31
0.0
  0
LINE
  5
3798
330
18
100
AcDbEntity
  8
0
100
AcDbLine
 10
688.7665227130487
 20
446.5097053644795
 30
0.0
 11
688.7665227130487
 21
467.0097053644794
 31
0.0
  0
LINE
  5
3799
330
18
100
AcDbEntity
  8
0
100
AcDbLine
 10
692.2665227130487
 20
467.0097053644794
 30
0.0
 11
692.2665227130487
 21
446.5097053644795
 31
0.0
  0
LINE
  5
379A
330
18
100
AcDbEntity
  8
0
100
AcDbLine
 10
698.2665227130487
 20
446.5097053644795
 30
0.0
 11
694.7665227130487
 21
446.5097053644795
 31
0.0
  0
LINE
  5
379B
330
18
100
AcDbEntity
  8
0
100
AcDbLine
 10
693.8736655701914
 20
445.5097053644794
 30
0.0
 11
693.8736655701914
 21
445.5097053644794
 31
0.0
  0
POINT
  5
379C
330
18
100
AcDbEntity
  8
0
  6
BYBLOCK
100
AcDbPoint
 10
689.1117608082867
 20
445.5097053644794
 30
0.0
  0
LINE
  5
379D
330
18
100
AcDbEntity
  8
0
100
AcDbLine
 10
692.2665227130487
 20
446.5097053644795
 30
0.0
 11
688.7665227130487
 21
446.5097053644795
 31
0.0
  0
LINE
  5
379E
330
18
100
AcDbEntity
  8
0
100
AcDbLine
 10
694.7665227130487
 20
467.0097053644794
 30
0.0
 11
698.2665227130487
 21
467.0097053644794
 31
0.0
  0
LINE
  5
379F
330
18
100
AcDbEntity
  8
0
100
AcDbLine
 10
688.7665227130487
 20
467.0097053644794
 30
0.0
 11
692.2665227130487
 21
467.0097053644794
 31
0.0
  0
LINE
  5
37A0
330
18
100
AcDbEntity
  8
0
100
AcDbLine
 10
682.7665227130487
 20
446.5097053644795
 30
0.0
 11
682.7665227130487
 21
467.0097053644794
 31
0.0
  0
LINE
  5
37A1
330
18
100
AcDbEntity
  8
0
100
AcDbLine
 10
686.2665227130487
 20
467.0097053644794
 30
0.0
 11
686.2665227130487
 21
446.5097053644795
 31
0.0
  0
LINE
  5
37A2
330
18
100
AcDbEntity
  8
0
100
AcDbLine
 10
680.2665227130487
 20
467.0097053644794
 30
0.0
 11
680.2665227130487
 21
446.5097053644795
 31
0.0
  0
LINE
  5
37A3
330
18
100
AcDbEntity
  8
0
100
AcDbLine
 10
686.2665227130487
 20
446.5097053644795
 30
0.0
 11
682.7665227130487
 21
446.5097053644795
 31
0.0
  0
LINE
  5
37A4
330
18
100
AcDbEntity
  8
0
100
AcDbLine
 10
682.7665227130487
 20
467.0097053644794
 30
0.0
 11
686.2665227130487
 21
467.0097053644794
 31
0.0
  0
LINE
  5
37A5
330
18
100
AcDbEntity
  8
0
100
AcDbLine
 10
578.1364861275705
 20
471.5097053644795
 30
0.0
 11
580.0775092515941
 21
533.589817091763
 31
0.0
  0
LINE
  5
37A6
330
18
100
AcDbEntity
  8
0
100
AcDbLine
 10
578.1364861275705
 20
471.5097053644795
 30
0.0
 11
578.1364861275705
 21
469.5097053644794
 31
0.0
  0
LINE
  5
37A7
330
18
100
AcDbEntity
  8
0
100
AcDbLine
 10
578.1364861275705
 20
469.5097053644794
 30
0.0
 11
578.1364861275705
 21
471.5097053644795
 31
0.0
  0
ARC
  5
37A8
330
18
100
AcDbEntity
  8
0
100
AcDbCircle
 10
578.118308638393
 20
573.4915278753019
 30
0.0
 40
1.981822510822496
100
AcDbArc
 50
180.0
 51
270.0
  0
ARC
  5
37A9
330
18
100
AcDbEntity
  8
0
100
AcDbCircle
 10
574.1546636167481
 20
579.5278828536569
 30
0.0
 40
1.981822510822524
100
AcDbArc
 50
0.0
 51
90.0
  0
ARC
  5
37AA
330
18
100
AcDbEntity
  8
0
100
AcDbCircle
 10
571.1364861275706
 20
570.9804352764336
 30
0.0
 40
9.886781490193518
100
AcDbArc
 50
59.62045877107969
 51
120.3795412289202
  0
ARC
  5
37AB
330
18
100
AcDbEntity
  8
0
100
AcDbCircle
 10
556.1364861275706
 20
555.5097053644793
 30
0.0
 40
26.00000000000003
100
AcDbArc
 50
67.38013505195756
 51
112.6198649480424
  0
LINE
  5
37AC
330
18
100
AcDbEntity
  8
0
100
AcDbLine
 10
541.1364861275706
 20
581.5097053644795
 30
0.0
 11
571.1364861275706
 21
581.5097053644795
 31
0.0
  0
LINE
  5
37AD
330
18
100
AcDbEntity
  8
0
100
AcDbLine
 10
546.1364861275706
 20
579.5097053644794
 30
0.0
 11
546.1364861275706
 21
571.5097053644795
 31
0.0
  0
ARC
  5
37AE
330
18
100
AcDbEntity
  8
0
100
AcDbCircle
 10
538.118308638393
 20
579.5278828536569
 30
0.0
 40
1.981822510822524
100
AcDbArc
 50
90.0
 51
180.0
  0
LINE
  5
37AF
330
18
100
AcDbEntity
  8
0
100
AcDbLine
 10
536.1364861275705
 20
579.5278828536569
 30
0.0
 11
536.1364861275705
 21
573.4915278753019
 31
0.0
  0
LINE
  5
37B0
330
18
100
AcDbEntity
  8
0
100
AcDbLine
 10
541.1364861275706
 20
582.5097053644794
 30
0.0
 11
541.1364861275706
 21
582.5097053644794
 31
0.0
  0
LINE
  5
37B1
330
18
100
AcDbEntity
  8
0
100
AcDbLine
 10
541.1364861275706
 20
582.5097053644794
 30
0.0
 11
541.1269623180469
 21
582.3649434597175
 31
0.0
  0
LINE
  5
37B2
330
18
100
AcDbEntity
  8
0
100
AcDbLine
 10
541.1269623180469
 20
582.3649434597175
 30
0.0
 11
541.0936289847134
 21
582.2158958406698
 31
0.0
  0
LINE
  5
37B3
330
18
100
AcDbEntity
  8
0
100
AcDbLine
 10
541.0936289847134
 20
582.2158958406698
 30
0.0
 11
541.0341051751897
 21
582.068514888289
 31
0.0
  0
ARC
  5
37B4
330
18
100
AcDbEntity
  8
0
100
AcDbCircle
 10
540.1455748721594
 20
582.5006166198907
 30
0.0
 40
0.9909112554112482
100
AcDbArc
 50
270.0
 51
0.0
  0
LINE
  5
37B5
330
18
100
AcDbEntity
  8
0
100
AcDbLine
 10
540.1455748721594
 20
581.5097053644795
 30
0.0
 11
538.118308638393
 21
581.5097053644795
 31
0.0
  0
ARC
  5
37B6
330
18
100
AcDbEntity
  8
0
100
AcDbCircle
 10
541.1364861275706
 20
570.9804352764336
 30
0.0
 40
9.886781490193518
100
AcDbArc
 50
59.62045877107969
 51
120.3795412289202
  0
ARC
  5
37B7
330
18
100
AcDbEntity
  8
0
100
AcDbCircle
 10
572.1301374694949
 20
582.5006166198907
 30
0.0
 40
0.9909112554112482
100
AcDbArc
 50
183.7640348649377
 51
270.0
  0
LINE
  5
37B8
330
18
100
AcDbEntity
  8
0
100
AcDbLine
 10
571.1413637359988
 20
582.4355657163706
 30
0.0
 11
571.1364861275706
 21
582.5097053644794
 31
0.0
  0
LINE
  5
37B9
330
18
100
AcDbEntity
  8
0
100
AcDbLine
 10
574.1546636167481
 20
581.5097053644795
 30
0.0
 11
572.1301374694949
 21
581.5097053644794
 31
0.0
  0
LINE
  5
37BA
330
18
100
AcDbEntity
  8
0
100
AcDbLine
 10
566.1364861275706
 20
579.5097053644794
 30
0.0
 11
566.1364861275706
 21
571.5097053644795
 31
0.0
  0
CIRCLE
  5
37BB
330
18
100
AcDbEntity
  8
0
100
AcDbCircle
 10
595.6364861275706
 20
557.0097053644794
 30
0.0
 40
3.08895238095238
  0
CIRCLE
  5
37BC
330
18
100
AcDbEntity
  8
0
100
AcDbCircle
 10
595.6364861275706
 20
557.0097053644794
 30
0.0
 40
4.500023809523807
  0
ARC
  5
37BD
330
18
100
AcDbEntity
  8
0
100
AcDbCircle
 10
595.6412480323224
 20
557.0097053644794
 30
0.0
 40
6.500001744287209
100
AcDbArc
 50
269.9580250776444
 51
90.04197492245003
  0
CIRCLE
  5
37BE
330
18
100
AcDbEntity
  8
0
100
AcDbCircle
 10
595.6364861275706
 20
557.0097053644794
 30
0.0
 40
2.354485714285713
  0
LINE
  5
37BF
330
18
100
AcDbEntity
  8
0
100
AcDbLine
 10
586.1364861275705
 20
559.5278828536569
 30
0.0
 11
586.1364861275705
 21
554.5097053644793
 31
0.0
  0
LINE
  5
37C0
330
18
100
AcDbEntity
  8
0
100
AcDbLine
 10
587.1364861275706
 20
537.4915278753019
 30
0.0
 11
587.1364861275706
 21
548.5278828536569
 31
0.0
  0
ARC
  5
37C1
330
18
100
AcDbEntity
  8
0
100
AcDbCircle
 10
585.1546636167482
 20
537.4915278753019
 30
0.0
 40
1.981822510822496
100
AcDbArc
 50
270.0
 51
0.0
  0
LINE
  5
37C2
330
18
100
AcDbEntity
  8
0
100
AcDbLine
 10
589.118308638393
 20
550.5097053644795
 30
0.0
 11
595.6364861275813
 21
550.5097053644795
 31
0.0
  0
ARC
  5
37C3
330
18
100
AcDbEntity
  8
0
100
AcDbCircle
 10
588.118308638393
 20
554.5097053644793
 30
0.0
 40
1.98182251082251
100
AcDbArc
 50
180.0
 51
270.0
  0
LINE
  5
37C4
330
18
100
AcDbEntity
  8
0
100
AcDbLine
 10
588.1364861275706
 20
552.5097053644794
 30
0.0
 11
588.8841051751897
 21
552.5097053644794
 31
0.0
  0
ARC
  5
37C5
330
18
100
AcDbEntity
  8
0
100
AcDbCircle
 10
589.118308638393
 20
548.5278828536569
 30
0.0
 40
1.98182251082251
100
AcDbArc
 50
90.0
 51
180.0
  0
ARC
  5
37C6
330
18
100
AcDbEntity
  8
0
100
AcDbCircle
 10
582.0583637678455
 20
533.5278828536569
 30
0.0
 40
1.981822510822524
100
AcDbArc
 50
90.0
 51
178.2091492578792
  0
LINE
  5
37C7
330
18
100
AcDbEntity
  8
0
100
AcDbLine
 10
582.0583637678455
 20
535.5097053644795
 30
0.0
 11
585.1546636167482
 21
535.5097053644795
 31
0.0
  0
LINE
  5
37C8
330
18
100
AcDbEntity
  8
0
100
AcDbLine
 10
595.6364861275706
 20
552.5097053644794
 30
0.0
 11
576.3983908894754
 21
552.5097053644794
 31
0.0
  0
LINE
  5
37C9
330
18
100
AcDbEntity
  8
0
100
AcDbLine
 10
587.1602956513802
 20
569.5097053644794
 30
0.0
 11
585.1364861275706
 21
571.5097053644795
 31
0.0
  0
ARC
  5
37CA
330
18
100
AcDbEntity
  8
0
100
AcDbCircle
 10
588.118308638393
 20
559.5278828536569
 30
0.0
 40
1.98182251082251
100
AcDbArc
 50
90.0
 51
180.0
  0
LINE
  5
37CB
330
18
100
AcDbEntity
  8
0
100
AcDbLine
 10
587.1602956513802
 20
569.5097053644794
 30
0.0
 11
587.1364861275706
 21
569.5097053644794
 31
0.0
  0
LINE
  5
37CC
330
18
100
AcDbEntity
  8
0
100
AcDbLine
 10
587.1602956513802
 20
563.5097053644795
 30
0.0
 11
587.1602956513802
 21
569.5097053644794
 31
0.0
  0
LINE
  5
37CD
330
18
100
AcDbEntity
  8
0
100
AcDbLine
 10
595.6364861275706
 20
563.5097053644795
 30
0.0
 11
587.1602956513802
 21
563.5097053644795
 31
0.0
  0
LINE
  5
37CE
330
18
100
AcDbEntity
  8
0
100
AcDbLine
 10
576.1364861275706
 20
573.4915278753019
 30
0.0
 11
576.1364861275706
 21
579.5278828536569
 31
0.0
  0
LINE
  5
37CF
330
18
100
AcDbEntity
  8
0
100
AcDbLine
 10
585.1364861275706
 20
571.5097053644795
 30
0.0
 11
578.118308638393
 21
571.5097053644793
 31
0.0
  0
LINE
  5
37D0
330
18
100
AcDbEntity
  8
0
100
AcDbLine
 10
595.6364861275706
 20
561.5097053644794
 30
0.0
 11
576.3983908894754
 21
561.5097053644794
 31
0.0
  0
LINE
  5
37D1
330
18
100
AcDbEntity
  8
0
100
AcDbLine
 10
654.3254995890252
 20
533.589817091763
 30
0.0
 11
656.2665227130487
 21
471.5097053644795
 31
0.0
  0
LINE
  5
37D2
330
18
100
AcDbEntity
  8
0
100
AcDbLine
 10
656.2665227130487
 20
471.5097053644795
 30
0.0
 11
656.2665227130487
 21
469.5097053644794
 31
0.0
  0
LINE
  5
37D3
330
18
100
AcDbEntity
  8
0
100
AcDbLine
 10
647.2665227130487
 20
569.5097053644794
 30
0.0
 11
647.2665227130487
 21
537.4915278753019
 31
0.0
  0
LINE
  5
37D4
330
18
100
AcDbEntity
  8
0
100
AcDbLine
 10
650.2665227130487
 20
563.5097053644795
 30
0.0
 11
650.2665227130487
 21
550.5097053644795
 31
0.0
  0
ARC
  5
37D5
330
18
100
AcDbEntity
  8
0
100
AcDbCircle
 10
652.3446450727738
 20
533.5278828536569
 30
0.0
 40
1.98182251082251
100
AcDbArc
 50
1.790850742120779
 51
90.0
  0
ARC
  5
37D6
330
18
100
AcDbEntity
  8
0
100
AcDbCircle
 10
649.2483452238712
 20
537.4915278753019
 30
0.0
 40
1.981822510822503
100
AcDbArc
 50
180.0
 51
270.0
  0
LINE
  5
37D7
330
18
100
AcDbEntity
  8
0
100
AcDbLine
 10
649.2483452238712
 20
535.5097053644795
 30
0.0
 11
652.3446450727738
 21
535.5097053644795
 31
0.0
  0
LINE
  5
37D8
330
18
100
AcDbEntity
  8
0
100
AcDbLine
 10
649.2665227130487
 20
571.5097053644795
 30
0.0
 11
647.2665227130487
 21
569.5097053644794
 31
0.0
  0
LINE
  5
37D9
330
18
100
AcDbEntity
  8
0
100
AcDbLine
 10
656.2847002022261
 20
571.5097053644795
 30
0.0
 11
649.2665227130487
 21
571.5097053644795
 31
0.0
  0
ARC
  5
37DA
330
18
100
AcDbEntity
  8
0
100
AcDbCircle
 10
686.929354207452
 20
561.7485429893771
 30
0.0
 40
19.76116237510232
100
AcDbArc
 50
63.99965133804887
 51
116.0003486619514
  0
LINE
  5
37DB
330
18
100
AcDbEntity
  8
0
100
AcDbLine
 10
662.4408597242422
 20
581.5097053644795
 30
0.0
 11
694.0839378408668
 21
581.5097053644797
 31
0.0
  0
LINE
  5
37DC
330
18
100
AcDbEntity
  8
0
100
AcDbLine
 10
678.2665227130487
 20
579.5097053644789
 30
0.0
 11
678.2665227130487
 21
571.5097053644795
 31
0.0
  0
ARC
  5
37DD
330
18
100
AcDbEntity
  8
0
100
AcDbCircle
 10
658.9590372134196
 20
573.4915278753019
 30
0.0
 40
1.981822510822503
100
AcDbArc
 50
270.0
 51
0.0
  0
LINE
  5
37DE
330
18
100
AcDbEntity
  8
0
100
AcDbLine
 10
660.9408597242422
 20
580.0097053644796
 30
0.0
 11
660.9408597242421
 21
573.4915278753019
 31
0.0
  0
ARC
  5
37DF
330
18
100
AcDbEntity
  8
0
100
AcDbCircle
 10
662.4408597242422
 20
580.0097053644796
 30
0.0
 40
1.5
100
AcDbArc
 50
90.00000000000019
 51
179.9999999999994
  0
ARC
  5
37E0
330
18
100
AcDbEntity
  8
0
100
AcDbCircle
 10
662.7612083063641
 20
582.0097053644798
 30
0.0
 40
0.5
100
AcDbArc
 50
270.0
 51
0.0
  0
ARC
  5
37E1
330
18
100
AcDbEntity
  8
0
100
AcDbCircle
 10
669.6036912186452
 20
561.7485429893771
 30
0.0
 40
19.76116237510232
100
AcDbArc
 50
63.99965133804855
 51
116.0003486619511
  0
ARC
  5
37E2
330
18
100
AcDbEntity
  8
0
100
AcDbCircle
 10
697.565760351689
 20
573.491527875302
 30
0.0
 40
1.981822510822496
100
AcDbArc
 50
180.0
 51
270.0
  0
LINE
  5
37E3
330
18
100
AcDbEntity
  8
0
100
AcDbLine
 10
695.5839378408668
 20
580.0097053644797
 30
0.0
 11
695.5839378408666
 21
573.491527875302
 31
0.0
  0
ARC
  5
37E4
330
18
100
AcDbEntity
  8
0
100
AcDbCircle
 10
694.0839378408668
 20
580.0097053644797
 30
0.0
 40
1.5
100
AcDbArc
 50
0.0
 51
90.00000000000019
  0
ARC
  5
37E5
330
18
100
AcDbEntity
  8
0
100
AcDbCircle
 10
693.761208306364
 20
582.0097053644798
 30
0.0
 40
0.5
100
AcDbArc
 50
180.0
 51
270.0
  0
LINE
  5
37E6
330
18
100
AcDbEntity
  8
0
100
AcDbLine
 10
700.2665227130487
 20
446.5097053644795
 30
0.0
 11
700.2665227130487
 21
469.5097053644794
 31
0.0
  0
LINE
  5
37E7
330
18
100
AcDbEntity
  8
0
100
AcDbLine
 10
699.2665227130487
 20
445.5097053644794
 30
0.0
 11
700.2665227130487
 21
446.5097053644795
 31
0.0
  0
LINE
  5
37E8
330
18
100
AcDbEntity
  8
0
100
AcDbLine
 10
700.2665227130487
 20
471.5097053644795
 30
0.0
 11
702.2075458370722
 21
533.589817091763
 31
0.0
  0
LINE
  5
37E9
330
18
100
AcDbEntity
  8
0
100
AcDbLine
 10
700.2665227130487
 20
469.5097053644794
 30
0.0
 11
700.2665227130487
 21
471.5097053644795
 31
0.0
  0
LINE
  5
37EA
330
18
100
AcDbEntity
  8
0
100
AcDbLine
 10
700.2665227130487
 20
471.5097053644795
 30
0.0
 11
700.2665227130487
 21
469.5097053644794
 31
0.0
  0
LINE
  5
37EB
330
18
100
AcDbEntity
  8
0
100
AcDbLine
 10
709.2665227130487
 20
537.4915278753019
 30
0.0
 11
709.2665227130489
 21
569.5097053644794
 31
0.0
  0
LINE
  5
37EC
330
18
100
AcDbEntity
  8
0
100
AcDbLine
 10
706.2665227130487
 20
550.5097053644795
 30
0.0
 11
706.2665227130487
 21
563.5097053644796
 31
0.0
  0
ARC
  5
37ED
330
18
100
AcDbEntity
  8
0
100
AcDbCircle
 10
707.284700202226
 20
537.4915278753019
 30
0.0
 40
1.981822510822496
100
AcDbArc
 50
270.0
 51
0.0
  0
ARC
  5
37EE
330
18
100
AcDbEntity
  8
0
100
AcDbCircle
 10
704.1884003533234
 20
533.5278828536569
 30
0.0
 40
1.981822510822524
100
AcDbArc
 50
90.0
 51
178.2091492578792
  0
LINE
  5
37EF
330
18
100
AcDbEntity
  8
0
100
AcDbLine
 10
704.1884003533234
 20
535.5097053644795
 30
0.0
 11
707.284700202226
 21
535.5097053644795
 31
0.0
  0
LINE
  5
37F0
330
18
100
AcDbEntity
  8
0
100
AcDbLine
 10
709.2903322368581
 20
569.5097053644794
 30
0.0
 11
707.2665227130487
 21
571.5097053644795
 31
0.0
  0
LINE
  5
37F1
330
18
100
AcDbEntity
  8
0
100
AcDbLine
 10
709.2903322368581
 20
569.5097053644794
 30
0.0
 11
709.2665227130487
 21
569.5097053644794
 31
0.0
  0
LINE
  5
37F2
330
18
100
AcDbEntity
  8
0
100
AcDbLine
 10
707.2665227130487
 20
571.5097053644795
 30
0.0
 11
700.2483452238712
 21
571.5097053644793
 31
0.0
  0
LINE
  5
37F4
330
18
100
AcDbEntity
  8
0
100
AcDbLine
 10
693.2623987825545
 20
691.5097053644794
 30
0.0
 11
697.2623987825545
 21
706.8335148882891
 31
0.0
  0
LINE
  5
37F5
330
18
100
AcDbEntity
  8
0
100
AcDbLine
 10
537.1364861275706
 20
706.8335148882891
 30
0.0
 11
541.1364861275706
 21
691.5097053644794
 31
0.0
  0
LINE
  5
37F6
330
18
100
AcDbEntity
  8
0
100
AcDbLine
 10
571.1364861275706
 20
691.5097053644794
 30
0.0
 11
575.1364861275706
 21
706.8335148882891
 31
0.0
  0
LINE
  5
37F7
330
18
100
AcDbEntity
  8
0
100
AcDbLine
 10
659.2623987825545
 20
706.8335148882891
 30
0.0
 11
663.2623987825545
 21
691.5097053644794
 31
0.0
  0
LINE
  5
37F8
330
18
100
AcDbEntity
  8
0
100
AcDbLine
 10
541.1364861275706
 20
632.0882767930509
 30
0.0
 11
571.1364861275706
 21
632.0882767930509
 31
0.0
  0
ARC
  5
3805
330
18
100
AcDbEntity
  8
0
100
AcDbCircle
 10
556.1364861275706
 20
613.5428394525921
 30
0.0
 40
37.31131470916864
100
AcDbArc
 50
69.76692968716031
 51
110.2330703128396
  0
ARC
  5
3852
330
18
100
AcDbEntity
  8
0
100
AcDbCircle
 10
556.1364861275706
 20
717.7323028356782
 30
0.0
 40
37.31131470916864
100
AcDbArc
 50
249.7669296871602
 51
290.2330703128396
  0
LINE
  5
3855
330
18
100
AcDbEntity
  8
0
100
AcDbLine
 10
540.9651236809791
 20
689.0880098426301
 30
0.0
 11
539.614490732857
 21
682.9393415060949
 31
0.0
  0
LINE
  5
3863
330
18
100
AcDbEntity
  8
0
100
AcDbLine
 10
541.137676603761
 20
691.5097053644793
 30
0.0
 11
541.137676603761
 21
689.9006827042216
 31
0.0
  0
ARC
  5
3864
330
18
100
AcDbEntity
  8
0
100
AcDbCircle
 10
539.137676603761
 20
689.9006827042216
 30
0.0
 40
2.0
100
AcDbArc
 50
336.0250980827019
 51
0.0
  0
LINE
  5
3887
330
18
100
AcDbEntity
  8
0
100
AcDbLine
 10
693.433761229146
 20
641.9287238777344
 30
0.0
 11
697.2272342803899
 21
650.4590582442918
 31
0.0
  0
LINE
  5
3888
330
18
100
AcDbEntity
  8
0
100
AcDbLine
 10
663.0886553835823
 20
641.9340778949228
 30
0.0
 11
659.2975632847192
 21
650.4590582442918
 31
0.0
  0
LINE
  5
3889
330
18
100
AcDbEntity
  8
0
100
AcDbLine
 10
663.2612083063641
 20
632.0882767930509
 30
0.0
 11
693.2612083063641
 21
632.0882767930509
 31
0.0
  0
ARC
  5
388A
330
18
100
AcDbEntity
  8
0
100
AcDbCircle
 10
661.261208306364
 20
641.1214050333314
 30
0.0
 40
2.0
100
AcDbArc
 50
0.0
 51
23.97490191729834
  0
ARC
  5
388B
330
18
100
AcDbEntity
  8
0
100
AcDbCircle
 10
695.2612083063641
 20
641.116051016143
 30
0.0
 40
2.0
100
AcDbArc
 50
156.0250980827015
 51
180.0
  0
LINE
  5
388C
330
18
100
AcDbEntity
  8
0
100
AcDbLine
 10
698.2272342803899
 20
675.9145594897485
 30
0.0
 11
698.2272342803899
 21
655.1048512392108
 31
0.0
  0
LINE
  5
388D
330
18
100
AcDbEntity
  8
0
100
AcDbLine
 10
658.2975632847192
 20
675.9145594897485
 30
0.0
 11
658.2975632847192
 21
655.1048512392108
 31
0.0
  0
POLYLINE
  5
388E
330
18
100
AcDbEntity
  8
0
100
AcDb2dPolyline
 66
     1
 10
0.0
 20
0.0
 30
0.0
 70
     1
  0
VERTEX
  5
3E77
330
388E
100
AcDbEntity
  8
0
100
AcDbVertex
100
AcDb2dVertex
 10
678.2623987825545
 20
684.2735891131422
 30
0.0
  0
VERTEX
  5
3E78
330
388E
100
AcDbEntity
  8
0
100
AcDbVertex
100
AcDb2dVertex
 10
662.0123987825548
 20
674.8916472388108
 30
0.0
  0
VERTEX
  5
3E79
330
388E
100
AcDbEntity
  8
0
100
AcDbVertex
100
AcDb2dVertex
 10
662.0123987825548
 20
656.1277634901481
 30
0.0
  0
VERTEX
  5
3E7A
330
388E
100
AcDbEntity
  8
0
100
AcDbVertex
100
AcDb2dVertex
 10
678.2623987825545
 20
646.7458216158168
 30
0.0
  0
VERTEX
  5
3E7B
330
388E
100
AcDbEntity
  8
0
100
AcDbVertex
100
AcDb2dVertex
 10
694.5123987825544
 20
656.1277634901481
 30
0.0
  0
VERTEX
  5
3E7C
330
388E
100
AcDbEntity
  8
0
100
AcDbVertex
100
AcDb2dVertex
 10
694.5123987825544
 20
674.8916472388108
 30
0.0
  0
SEQEND
  5
3E7D
330
388E
100
AcDbEntity
  8
0
  0
CIRCLE
  5
388F
330
18
100
AcDbEntity
  8
0
100
AcDbCircle
 10
678.2623987825545
 20
665.5097053644794
 30
0.0
 40
16.24999999999986
  0
ARC
  5
3890
330
18
100
AcDbEntity
  8
0
100
AcDbCircle
 10
714.9280579688229
 20
665.5097053644794
 30
0.0
 40
57.63049468410372
100
AcDbArc
 50
190.9795558139776
 51
195.1387667207079
  0
ARC
  5
3891
330
18
100
AcDbEntity
  8
0
100
AcDbCircle
 10
661.2975632847192
 20
655.1048512392108
 30
0.0
 40
3.0
100
AcDbArc
 50
180.0
 51
190.9795558139771
  0
ARC
  5
3892
330
18
100
AcDbEntity
  8
0
100
AcDbCircle
 10
695.2272342803898
 20
655.1048512392108
 30
0.0
 40
3.0
100
AcDbArc
 50
349.0204441860228
 51
0.000000000000007
  0
ARC
  5
3893
330
18
100
AcDbEntity
  8
0
100
AcDbCircle
 10
641.5967395962861
 20
665.5097053644794
 30
0.0
 40
57.63049468410372
100
AcDbArc
 50
344.8612332792921
 51
349.0204441860223
  0
ARC
  5
3894
330
18
100
AcDbEntity
  8
0
100
AcDbCircle
 10
714.9280579688229
 20
665.5097053644794
 30
0.0
 40
57.63049468410372
100
AcDbArc
 50
164.861233279292
 51
169.0204441860218
  0
ARC
  5
3895
330
18
100
AcDbEntity
  8
0
100
AcDbCircle
 10
661.2975632847192
 20
675.9145594897485
 30
0.0
 40
3.0
100
AcDbArc
 50
169.0204441860228
 51
180.0
  0
LINE
  5
3896
330
18
100
AcDbEntity
  8
0
100
AcDbLine
 10
663.0898458597726
 20
689.0880098426302
 30
0.0
 11
659.2975632847192
 21
680.5603524846672
 31
0.0
  0
ARC
  5
3897
330
18
100
AcDbEntity
  8
0
100
AcDbCircle
 10
661.2623987825545
 20
689.9006827042216
 30
0.0
 40
2.0
100
AcDbArc
 50
336.0250980827019
 51
0.0
  0
LINE
  5
3898
330
18
100
AcDbEntity
  8
0
100
AcDbLine
 10
663.2623987825545
 20
691.5097053644794
 30
0.0
 11
663.2623987825545
 21
689.9006827042216
 31
0.0
  0
ARC
  5
3899
330
18
100
AcDbEntity
  8
0
100
AcDbCircle
 10
695.2272342803898
 20
675.9145594897485
 30
0.0
 40
3.0
100
AcDbArc
 50
0.000000000000007
 51
10.97955581397723
  0
ARC
  5
389A
330
18
100
AcDbEntity
  8
0
100
AcDbCircle
 10
641.5967395962861
 20
665.5097053644794
 30
0.0
 40
57.63049468410372
100
AcDbArc
 50
10.97955581397812
 51
15.13876672070792
  0
LINE
  5
389B
330
18
100
AcDbEntity
  8
0
100
AcDbLine
 10
693.4361421815269
 20
689.0853328340361
 30
0.0
 11
697.2272342803899
 21
680.5603524846672
 31
0.0
  0
ARC
  5
389C
330
18
100
AcDbEntity
  8
0
100
AcDbCircle
 10
695.263589258745
 20
689.8980056956276
 30
0.0
 40
2.0
100
AcDbArc
 50
180.0
 51
203.974901917298
  0
LINE
  5
389D
330
18
100
AcDbEntity
  8
0
100
AcDbLine
 10
693.2623987825545
 20
691.5097053644794
 30
0.0
 11
693.263589258745
 21
689.8980056956276
 31
0.0
  0
CIRCLE
  5
38A2
330
18
100
AcDbEntity
  8
0
100
AcDbCircle
 10
556.1364861275706
 20
780.6030969432556
 30
0.0
 40
18.0
  0
CIRCLE
  5
38A3
330
18
100
AcDbEntity
  8
0
100
AcDbCircle
 10
556.1364861275706
 20
780.6030969432556
 30
0.0
 40
18.79404761904766
  0
CIRCLE
  5
38A4
330
18
100
AcDbEntity
  8
0
100
AcDbCircle
 10
556.1364861275706
 20
780.6030969432556
 30
0.0
 40
18.99880952380954
  0
LINE
  5
38A6
330
18
100
AcDbEntity
  8
0
100
AcDbLine
 10
575.1364861275706
 20
706.8335148882889
 30
0.0
 11
537.1364861275706
 21
706.8335148882889
 31
0.0
  0
LINE
  5
38A7
330
18
100
AcDbEntity
  8
0
100
AcDbLine
 10
537.3436289847133
 20
710.5311339359079
 30
0.0
 11
574.9317242228086
 21
710.5311339359079
 31
0.0
  0
LINE
  5
38A8
330
18
100
AcDbEntity
  8
0
100
AcDbLine
 10
556.1364861275706
 20
711.5097053644794
 30
0.0
 11
538.1364861275706
 21
711.5097053644794
 31
0.0
  0
LINE
  5
38A9
330
18
100
AcDbEntity
  8
0
100
AcDbLine
 10
538.1364861275706
 20
711.5097053644794
 30
0.0
 11
537.3436289847133
 21
710.5311339359079
 31
0.0
  0
LINE
  5
38AA
330
18
100
AcDbEntity
  8
0
100
AcDbLine
 10
537.3436289847133
 20
710.5311339359079
 30
0.0
 11
537.1364861275706
 21
706.8335148882891
 31
0.0
  0
LINE
  5
38AB
330
18
100
AcDbEntity
  8
0
100
AcDbLine
 10
574.9317242228086
 20
710.5311339359079
 30
0.0
 11
574.1364861275705
 21
711.5097053644794
 31
0.0
  0
LINE
  5
38AC
330
18
100
AcDbEntity
  8
0
100
AcDbLine
 10
575.1364861275706
 20
706.8335148882891
 30
0.0
 11
574.9317242228086
 21
710.5311339359079
 31
0.0
  0
POINT
  5
38AD
330
18
100
AcDbEntity
  8
0
  6
BYBLOCK
100
AcDbPoint
 10
557.8888670799515
 20
711.5097053644794
 30
0.0
  0
POINT
  5
38AE
330
18
100
AcDbEntity
  8
0
  6
BYBLOCK
100
AcDbPoint
 10
557.8888670799515
 20
711.5097053644794
 30
0.0
  0
LINE
  5
38AF
330
18
100
AcDbEntity
  8
0
100
AcDbLine
 10
562.6507718418563
 20
711.5097053644794
 30
0.0
 11
562.6507718418563
 21
711.5097053644794
 31
0.0
  0
LINE
  5
38B0
330
18
100
AcDbEntity
  8
0
100
AcDbLine
 10
574.1364861275705
 20
711.5097053644794
 30
0.0
 11
556.1364861275706
 21
711.5097053644794
 31
0.0
  0
LINE
  5
38BD
330
18
100
AcDbEntity
  8
0
100
AcDbLine
 10
696.2623987825545
 20
711.5097053644794
 30
0.0
 11
678.2623987825545
 21
711.5097053644794
 31
0.0
  0
LINE
  5
38BE
330
18
100
AcDbEntity
  8
0
100
AcDbLine
 10
697.2623987825545
 20
706.8335148882889
 30
0.0
 11
659.2623987825545
 21
706.8335148882889
 31
0.0
  0
LINE
  5
38BF
330
18
100
AcDbEntity
  8
0
100
AcDbLine
 10
659.4695416396973
 20
710.5311339359079
 30
0.0
 11
697.0576368777926
 21
710.5311339359079
 31
0.0
  0
LINE
  5
38C0
330
18
100
AcDbEntity
  8
0
100
AcDbLine
 10
660.2623987825545
 20
711.5097053644794
 30
0.0
 11
659.4695416396973
 21
710.5311339359079
 31
0.0
  0
LINE
  5
38C1
330
18
100
AcDbEntity
  8
0
100
AcDbLine
 10
659.4695416396973
 20
710.5311339359079
 30
0.0
 11
659.2623987825545
 21
706.8335148882891
 31
0.0
  0
LINE
  5
38C2
330
18
100
AcDbEntity
  8
0
100
AcDbLine
 10
678.2623987825545
 20
711.5097053644794
 30
0.0
 11
660.2623987825545
 21
711.5097053644794
 31
0.0
  0
LINE
  5
38C3
330
18
100
AcDbEntity
  8
0
100
AcDbLine
 10
697.0576368777926
 20
710.5311339359079
 30
0.0
 11
696.2623987825545
 21
711.5097053644794
 31
0.0
  0
LINE
  5
38C4
330
18
100
AcDbEntity
  8
0
100
AcDbLine
 10
697.2623987825545
 20
706.8335148882891
 30
0.0
 11
697.0576368777926
 21
710.5311339359079
 31
0.0
  0
POINT
  5
38C5
330
18
100
AcDbEntity
  8
0
  6
BYBLOCK
100
AcDbPoint
 10
680.0147797349354
 20
711.5097053644794
 30
0.0
  0
POINT
  5
38C6
330
18
100
AcDbEntity
  8
0
  6
BYBLOCK
100
AcDbPoint
 10
680.0147797349354
 20
711.5097053644794
 30
0.0
  0
LINE
  5
38C7
330
18
100
AcDbEntity
  8
0
100
AcDbLine
 10
684.7766844968402
 20
711.5097053644794
 30
0.0
 11
684.7766844968402
 21
711.5097053644794
 31
0.0
  0
LINE
  5
39EA
330
18
100
AcDbEntity
  8
0
100
AcDbLine
 10
535.2854296665104
 20
680.5829840477616
 30
0.0
 11
536.6843500743634
 21
680.5829840477616
 31
0.0
  0
LINE
  5
39EB
330
18
100
AcDbEntity
  8
0
100
AcDbLine
 10
535.2854296665104
 20
650.4364266811973
 30
0.0
 11
538.1364861275706
 21
650.4364266811973
 31
0.0
  0
ARC
  5
39EC
330
18
100
AcDbEntity
  8
0
100
AcDbCircle
 10
566.6402644119341
 20
665.5097053644794
 30
0.0
 40
42.77163542722052
100
AcDbArc
 50
166.3259803408843
 51
193.6740196591156
  0
LINE
  5
39ED
330
18
100
AcDbEntity
  8
0
100
AcDbLine
 10
523.6364861275705
 20
682.8430386978128
 30
0.0
 11
523.6364861275705
 21
648.1763720311461
 31
0.0
  0
ARC
  5
39EE
330
18
100
AcDbEntity
  8
0
100
AcDbCircle
 10
490.0215967320962
 20
665.5097053644794
 30
0.0
 40
42.77163542722052
100
AcDbArc
 50
346.3259803408843
 51
13.67401965911563
  0
LINE
  5
39EF
330
18
100
AcDbEntity
  8
0
100
AcDbLine
 10
531.5809305720149
 20
655.3985942533685
 30
0.0
 11
525.0809305720149
 21
655.3985942533685
 31
0.0
  0
LINE
  5
39F0
330
18
100
AcDbEntity
  8
0
100
AcDbLine
 10
525.0809305720149
 20
646.7319275867018
 30
0.0
 11
531.5809305720149
 21
646.7319275867018
 31
0.0
  0
ARC
  5
39F1
330
18
100
AcDbEntity
  8
0
100
AcDbCircle
 10
530.4114368809832
 20
651.065260920035
 30
0.0
 40
6.869648847483298
100
AcDbArc
 50
140.8912726349672
 51
219.1087273650328
  0
LINE
  5
39F2
330
18
100
AcDbEntity
  8
0
100
AcDbLine
 10
523.6364861275705
 20
648.1763720311461
 30
0.0
 11
525.0809305720149
 21
646.7319275867018
 31
0.0
  0
ARC
  5
39F3
330
18
100
AcDbEntity
  8
0
100
AcDbCircle
 10
526.2504242630466
 20
651.065260920035
 30
0.0
 40
6.869648847483298
100
AcDbArc
 50
320.8912726349672
 51
39.10872736503276
  0
LINE
  5
39F4
330
18
100
AcDbEntity
  8
0
100
AcDbLine
 10
531.5809305720149
 20
646.7319275867018
 30
0.0
 11
535.2854296665104
 21
650.4364266811973
 31
0.0
  0
LINE
  5
39F5
330
18
100
AcDbEntity
  8
0
100
AcDbLine
 10
531.5809305720149
 20
675.6208164755905
 30
0.0
 11
525.0809305720149
 21
675.6208164755905
 31
0.0
  0
LINE
  5
39F6
330
18
100
AcDbEntity
  8
0
100
AcDbLine
 10
531.5809305720149
 20
684.2874831422571
 30
0.0
 11
525.0809305720149
 21
684.2874831422571
 31
0.0
  0
ARC
  5
39F7
330
18
100
AcDbEntity
  8
0
100
AcDbCircle
 10
530.4114368809832
 20
679.9541498089239
 30
0.0
 40
6.869648847483298
100
AcDbArc
 50
140.8912726349672
 51
219.1087273650328
  0
LINE
  5
39F8
330
18
100
AcDbEntity
  8
0
100
AcDbLine
 10
525.0809305720149
 20
684.2874831422571
 30
0.0
 11
523.6364861275705
 21
682.8430386978128
 31
0.0
  0
ARC
  5
39F9
330
18
100
AcDbEntity
  8
0
100
AcDbCircle
 10
526.2504242630466
 20
679.9541498089239
 30
0.0
 40
6.869648847483298
100
AcDbArc
 50
320.8912726349672
 51
39.10872736503276
  0
LINE
  5
39FA
330
18
100
AcDbEntity
  8
0
100
AcDbLine
 10
535.2854296665104
 20
680.5829840477616
 30
0.0
 11
531.5809305720149
 21
684.2874831422571
 31
0.0
  0
ARC
  5
3A0D
330
18
100
AcDbEntity
  8
0
100
AcDbCircle
 10
538.1364861275706
 20
647.4364266811972
 30
0.0
 40
3.0
100
AcDbArc
 50
0.0
 51
90.00000000000122
  0
ARC
  5
3A11
330
18
100
AcDbEntity
  8
0
100
AcDbCircle
 10
536.6843500743634
 20
683.5829840477616
 30
0.0
 40
3.0
100
AcDbArc
 50
270.0
 51
347.6110176985719
  0
ARC
  5
3A1B
330
18
100
AcDbEntity
  8
0
100
AcDbCircle
 10
622.2513755230452
 20
665.5097053644798
 30
0.0
 40
42.77163542722052
100
AcDbArc
 50
166.3259803408847
 51
193.6740196591159
  0
LINE
  5
3A1C
330
18
100
AcDbEntity
  8
0
100
AcDbLine
 10
588.6364861275706
 20
682.8430386978129
 30
0.0
 11
588.6364861275708
 21
648.1763720311462
 31
0.0
  0
ARC
  5
3A1D
330
18
100
AcDbEntity
  8
0
100
AcDbCircle
 10
545.6327078432073
 20
665.5097053644793
 30
0.0
 40
42.77163542722052
100
AcDbArc
 50
346.3259803408847
 51
13.674019659116
  0
ARC
  5
3A1E
330
18
100
AcDbEntity
  8
0
100
AcDbCircle
 10
574.1364861275708
 20
647.4364266811974
 30
0.0
 40
3.0
100
AcDbArc
 50
89.99999999999914
 51
180.0000000000003
  0
LINE
  5
3A1F
330
18
100
AcDbEntity
  8
0
100
AcDbLine
 10
576.987542588631
 20
650.4364266811974
 30
0.0
 11
574.1364861275708
 21
650.4364266811974
 31
0.0
  0
LINE
  5
3A20
330
18
100
AcDbEntity
  8
0
100
AcDbLine
 10
580.6920416831265
 20
646.7319275867019
 30
0.0
 11
576.987542588631
 21
650.4364266811974
 31
0.0
  0
ARC
  5
3A21
330
18
100
AcDbEntity
  8
0
100
AcDbCircle
 10
586.0225479920948
 20
651.0652609200351
 30
0.0
 40
6.869648847483298
100
AcDbArc
 50
140.8912726349676
 51
219.1087273650331
  0
LINE
  5
3A22
330
18
100
AcDbEntity
  8
0
100
AcDbLine
 10
588.6364861275708
 20
648.1763720311462
 30
0.0
 11
587.1920416831264
 21
646.7319275867019
 31
0.0
  0
ARC
  5
3A23
330
18
100
AcDbEntity
  8
0
100
AcDbCircle
 10
581.8615353741582
 20
651.0652609200351
 30
0.0
 40
6.869648847483298
100
AcDbArc
 50
320.8912726349676
 51
39.10872736503312
  0
LINE
  5
3A24
330
18
100
AcDbEntity
  8
0
100
AcDbLine
 10
587.1920416831264
 20
646.7319275867019
 30
0.0
 11
580.6920416831265
 21
646.7319275867019
 31
0.0
  0
LINE
  5
3A25
330
18
100
AcDbEntity
  8
0
100
AcDbLine
 10
580.6920416831265
 20
655.3985942533686
 30
0.0
 11
587.1920416831264
 21
655.3985942533686
 31
0.0
  0
LINE
  5
3A26
330
18
100
AcDbEntity
  8
0
100
AcDbLine
 10
576.9875425886307
 20
680.5829840477618
 30
0.0
 11
575.5886221807777
 21
680.5829840477618
 31
0.0
  0
ARC
  5
3A27
330
18
100
AcDbEntity
  8
0
100
AcDbCircle
 10
575.5886221807777
 20
683.5829840477617
 30
0.0
 40
3.0
100
AcDbArc
 50
192.3889823014284
 51
270.0000000000003
  0
LINE
  5
3A28
330
18
100
AcDbEntity
  8
0
100
AcDbLine
 10
576.9875425886307
 20
680.5829840477618
 30
0.0
 11
580.6920416831262
 21
684.2874831422573
 31
0.0
  0
ARC
  5
3A29
330
18
100
AcDbEntity
  8
0
100
AcDbCircle
 10
586.0225479920946
 20
679.954149808924
 30
0.0
 40
6.869648847483298
100
AcDbArc
 50
140.8912726349676
 51
219.1087273650331
  0
LINE
  5
3A2A
330
18
100
AcDbEntity
  8
0
100
AcDbLine
 10
587.1920416831263
 20
684.2874831422573
 30
0.0
 11
588.6364861275706
 21
682.8430386978129
 31
0.0
  0
ARC
  5
3A2B
330
18
100
AcDbEntity
  8
0
100
AcDbCircle
 10
581.8615353741579
 20
679.954149808924
 30
0.0
 40
6.869648847483298
100
AcDbArc
 50
320.8912726349676
 51
39.10872736503312
  0
LINE
  5
3A2C
330
18
100
AcDbEntity
  8
0
100
AcDbLine
 10
580.6920416831262
 20
684.2874831422573
 30
0.0
 11
587.1920416831263
 21
684.2874831422573
 31
0.0
  0
LINE
  5
3A2D
330
18
100
AcDbEntity
  8
0
100
AcDbLine
 10
580.6920416831262
 20
675.6208164755906
 30
0.0
 11
587.1920416831263
 21
675.6208164755906
 31
0.0
  0
ARC
  5
3A2E
330
18
100
AcDbEntity
  8
0
100
AcDbCircle
 10
573.1352956513801
 20
689.9006827042216
 30
0.0
 40
2.0
100
AcDbArc
 50
180.0000000000003
 51
203.9749019172983
  0
LINE
  5
3A2F
330
18
100
AcDbEntity
  8
0
100
AcDbLine
 10
571.3078485741621
 20
689.0880098426301
 30
0.0
 11
572.6584815222841
 21
682.939341506095
 31
0.0
  0
LINE
  5
3A30
330
18
100
AcDbEntity
  8
0
100
AcDbLine
 10
571.1352956513801
 20
691.5097053644793
 30
0.0
 11
571.1352956513801
 21
689.9006827042216
 31
0.0
  0
LINE
  5
3A32
330
18
100
AcDbEntity
  8
0
100
AcDbLine
 10
588.6364861275706
 20
765.7855088055256
 30
0.0
 11
588.6364861275706
 21
795.4206850809856
 31
0.0
  0
ARC
  5
3A33
330
18
100
AcDbEntity
  8
0
100
AcDbCircle
 10
603.0873789847127
 20
788.734113234343
 30
0.0
 40
23.60763888888831
100
AcDbArc
 50
159.8534160544347
 51
200.1465839455657
  0
ARC
  5
3A34
330
18
100
AcDbEntity
  8
0
100
AcDbCircle
 10
565.0288472386823
 20
788.734113234343
 30
0.0
 40
23.60763888888831
100
AcDbArc
 50
339.8534160544343
 51
20.14658394556526
  0
LINE
  5
3A35
330
18
100
AcDbEntity
  8
0
100
AcDbLine
 10
578.3637273172994
 20
765.1105954340814
 30
0.0
 11
580.9241845402725
 21
764.3410643610815
 31
0.0
  0
LINE
  5
3A36
330
18
100
AcDbEntity
  8
0
100
AcDbLine
 10
587.1920416831263
 20
764.3410643610811
 30
0.0
 11
580.9241845402725
 21
764.3410643610815
 31
0.0
  0
LINE
  5
3A37
330
18
100
AcDbEntity
  8
0
100
AcDbLine
 10
580.9241845402693
 20
780.6030969432556
 30
0.0
 11
587.1920416831263
 21
780.6030969432558
 31
0.0
  0
ARC
  5
3A38
330
18
100
AcDbEntity
  8
0
100
AcDbCircle
 10
603.0873789847146
 20
772.4720806521737
 30
0.0
 40
23.60763888888831
100
AcDbArc
 50
159.8534160544473
 51
200.1465839455783
  0
ARC
  5
3A39
330
18
100
AcDbEntity
  8
0
100
AcDbCircle
 10
565.0288472386805
 20
772.4720806521737
 30
0.0
 40
23.60763888888831
100
AcDbArc
 50
339.8534160544217
 51
20.14658394555268
  0
LINE
  5
3A3A
330
18
100
AcDbEntity
  8
0
100
AcDbLine
 10
588.6364861275706
 20
765.7855088055256
 30
0.0
 11
587.1920416831263
 21
764.3410643610811
 31
0.0
  0
LINE
  5
3A3B
330
18
100
AcDbEntity
  8
0
100
AcDbLine
 10
578.3637273172989
 20
796.0955984524299
 30
0.0
 11
580.9241845402725
 21
796.8651295254297
 31
0.0
  0
LINE
  5
3A3C
330
18
100
AcDbEntity
  8
0
100
AcDbLine
 10
587.1920416831263
 20
796.8651295254301
 30
0.0
 11
580.9241845402687
 21
796.8651295254301
 31
0.0
  0
LINE
  5
3A3D
330
18
100
AcDbEntity
  8
0
100
AcDbLine
 10
587.1920416831263
 20
796.8651295254301
 30
0.0
 11
588.6364861275706
 21
795.4206850809856
 31
0.0
  0
LINE
  5
3A3E
330
18
100
AcDbEntity
  8
0
100
AcDbLine
 10
578.3637273172989
 20
796.0955984524299
 30
0.0
 11
572.4760821136481
 21
796.0955984524297
 31
0.0
  0
LINE
  5
3A3F
330
18
100
AcDbEntity
  8
0
100
AcDbLine
 10
578.3637273172994
 20
765.1105954340814
 30
0.0
 11
572.4760821136481
 21
765.1105954340815
 31
0.0
  0
LINE
  5
3A40
330
18
100
AcDbEntity
  8
0
100
AcDbLine
 10
525.0809305720149
 20
796.8651295254301
 30
0.0
 11
531.3487877148725
 21
796.8651295254301
 31
0.0
  0
LINE
  5
3A41
330
18
100
AcDbEntity
  8
0
100
AcDbLine
 10
531.3487877148718
 20
780.6030969432556
 30
0.0
 11
525.0809305720149
 21
780.6030969432558
 31
0.0
  0
LINE
  5
3A42
330
18
100
AcDbEntity
  8
0
100
AcDbLine
 10
525.0809305720149
 20
764.3410643610811
 30
0.0
 11
531.3487877148686
 21
764.3410643610815
 31
0.0
  0
ARC
  5
3A43
330
18
100
AcDbEntity
  8
0
100
AcDbCircle
 10
547.2441250164588
 20
788.734113234343
 30
0.0
 40
23.60763888888831
100
AcDbArc
 50
159.8534160544347
 51
200.1465839455657
  0
LINE
  5
3A44
330
18
100
AcDbEntity
  8
0
100
AcDbLine
 10
523.6364861275705
 20
765.7855088055256
 30
0.0
 11
523.6364861275705
 21
795.4206850809856
 31
0.0
  0
LINE
  5
3A45
330
18
100
AcDbEntity
  8
0
100
AcDbLine
 10
523.6364861275705
 20
765.7855088055256
 30
0.0
 11
525.0809305720149
 21
764.3410643610811
 31
0.0
  0
ARC
  5
3A46
330
18
100
AcDbEntity
  8
0
100
AcDbCircle
 10
547.2441250164606
 20
772.4720806521737
 30
0.0
 40
23.60763888888831
100
AcDbArc
 50
159.8534160544473
 51
200.1465839455783
  0
LINE
  5
3A47
330
18
100
AcDbEntity
  8
0
100
AcDbLine
 10
525.0809305720149
 20
796.8651295254301
 30
0.0
 11
523.6364861275705
 21
795.4206850809856
 31
0.0
  0
ARC
  5
3A48
330
18
100
AcDbEntity
  8
0
100
AcDbCircle
 10
509.1855932704284
 20
788.734113234343
 30
0.0
 40
23.60763888888831
100
AcDbArc
 50
339.8534160544343
 51
20.14658394556527
  0
LINE
  5
3A49
330
18
100
AcDbEntity
  8
0
100
AcDbLine
 10
534.1640863823399
 20
765.1105954340814
 30
0.0
 11
539.7968901414929
 21
765.1105954340817
 31
0.0
  0
LINE
  5
3A4A
330
18
100
AcDbEntity
  8
0
100
AcDbLine
 10
533.6651877022773
 20
765.0372453993015
 30
0.0
 11
531.3487877148686
 21
764.3410643610815
 31
0.0
  0
ARC
  5
3A4B
330
18
100
AcDbEntity
  8
0
100
AcDbCircle
 10
534.1640863823399
 20
763.3772621007481
 30
0.0
 40
1.733333333333333
100
AcDbArc
 50
90.00000000000062
 51
106.7278561556781
  0
ARC
  5
3A4C
330
18
100
AcDbEntity
  8
0
100
AcDbCircle
 10
509.1855932704265
 20
772.4720806521737
 30
0.0
 40
23.60763888888831
100
AcDbArc
 50
339.8534160544217
 51
20.1465839455527
  0
LINE
  5
3A4D
330
18
100
AcDbEntity
  8
0
100
AcDbLine
 10
534.1640863823399
 20
796.0955984524298
 30
0.0
 11
539.7968901414929
 21
796.0955984524296
 31
0.0
  0
ARC
  5
3A4E
330
18
100
AcDbEntity
  8
0
100
AcDbCircle
 10
534.1640863823399
 20
797.8289317857631
 30
0.0
 40
1.733333333333333
100
AcDbArc
 50
253.2721438443218
 51
269.9999999999993
  0
LINE
  5
3A4F
330
18
100
AcDbEntity
  8
0
100
AcDbLine
 10
533.6651877022773
 20
796.1689484872096
 30
0.0
 11
531.3487877148686
 21
796.8651295254297
 31
0.0
  0
LINE
  5
3A53
330
18
100
AcDbEntity
  8
0
100
AcDbLine
 10
571.1364861275706
 20
998.6127277024316
 30
0.0
 11
571.1364861275706
 21
1063.539449019149
 31
0.0
  0
LINE
  5
3A54
330
18
100
AcDbEntity
  8
0
100
AcDbLine
 10
541.1364861275706
 20
1063.539449019149
 30
0.0
 11
541.1364861275706
 21
998.6036389578428
 31
0.0
  0
LINE
  5
3A55
330
18
100
AcDbEntity
  8
0
100
AcDbLine
 10
578.1364861275705
 20
862.6127277024316
 30
0.0
 11
578.1364861275705
 21
885.6127277024315
 31
0.0
  0
LINE
  5
3A56
330
18
100
AcDbEntity
  8
0
100
AcDbLine
 10
534.1364861275706
 20
885.6127277024315
 30
0.0
 11
534.1364861275706
 21
862.6127277024316
 31
0.0
  0
LINE
  5
3A57
330
18
100
AcDbEntity
  8
0
100
AcDbLine
 10
560.6364861275705
 20
883.1127277024316
 30
0.0
 11
564.1364861275706
 21
883.1127277024316
 31
0.0
  0
LINE
  5
3A58
330
18
100
AcDbEntity
  8
0
100
AcDbLine
 10
564.1364861275706
 20
862.6127277024316
 30
0.0
 11
560.6364861275705
 21
862.6127277024316
 31
0.0
  0
LINE
  5
3A59
330
18
100
AcDbEntity
  8
0
100
AcDbLine
 10
535.1364861275706
 20
861.6127277024316
 30
0.0
 11
577.1364861275706
 21
861.6127277024316
 31
0.0
  0
LINE
  5
3A5A
330
18
100
AcDbEntity
  8
0
100
AcDbLine
 10
536.6364861275705
 20
883.1127277024316
 30
0.0
 11
540.1364861275705
 21
883.1127277024316
 31
0.0
  0
LINE
  5
3A5B
330
18
100
AcDbEntity
  8
0
100
AcDbLine
 10
540.1364861275705
 20
862.6127277024316
 30
0.0
 11
536.6364861275705
 21
862.6127277024316
 31
0.0
  0
LINE
  5
3A5C
330
18
100
AcDbEntity
  8
0
100
AcDbLine
 10
536.6364861275705
 20
862.6127277024316
 30
0.0
 11
536.6364861275705
 21
883.1127277024316
 31
0.0
  0
LINE
  5
3A5D
330
18
100
AcDbEntity
  8
0
100
AcDbLine
 10
540.1364861275705
 20
883.1127277024316
 30
0.0
 11
540.1364861275705
 21
862.6127277024316
 31
0.0
  0
LINE
  5
3A5E
330
18
100
AcDbEntity
  8
0
100
AcDbLine
 10
534.1364861275706
 20
862.6127277024316
 30
0.0
 11
535.1364861275706
 21
861.6127277024316
 31
0.0
  0
LINE
  5
3A5F
330
18
100
AcDbEntity
  8
0
100
AcDbLine
 10
560.6364861275705
 20
862.6127277024316
 30
0.0
 11
560.6364861275705
 21
883.1127277024316
 31
0.0
  0
LINE
  5
3A60
330
18
100
AcDbEntity
  8
0
100
AcDbLine
 10
558.1364861275706
 20
883.1127277024316
 30
0.0
 11
558.1364861275706
 21
862.6127277024316
 31
0.0
  0
LINE
  5
3A61
330
18
100
AcDbEntity
  8
0
100
AcDbLine
 10
546.1364861275706
 20
862.6127277024316
 30
0.0
 11
542.6364861275706
 21
862.6127277024316
 31
0.0
  0
LINE
  5
3A62
330
18
100
AcDbEntity
  8
0
100
AcDbLine
 10
542.6364861275706
 20
883.1127277024316
 30
0.0
 11
546.1364861275706
 21
883.1127277024316
 31
0.0
  0
LINE
  5
3A63
330
18
100
AcDbEntity
  8
0
100
AcDbLine
 10
542.6364861275706
 20
862.6127277024316
 30
0.0
 11
542.6364861275706
 21
883.1127277024316
 31
0.0
  0
LINE
  5
3A64
330
18
100
AcDbEntity
  8
0
100
AcDbLine
 10
548.6364861275705
 20
883.1127277024316
 30
0.0
 11
552.1364861275706
 21
883.1127277024316
 31
0.0
  0
LINE
  5
3A65
330
18
100
AcDbEntity
  8
0
100
AcDbLine
 10
552.1364861275706
 20
862.6127277024316
 30
0.0
 11
548.6364861275705
 21
862.6127277024316
 31
0.0
  0
LINE
  5
3A66
330
18
100
AcDbEntity
  8
0
100
AcDbLine
 10
546.1364861275706
 20
883.1127277024316
 30
0.0
 11
546.1364861275706
 21
862.6127277024316
 31
0.0
  0
LINE
  5
3A67
330
18
100
AcDbEntity
  8
0
100
AcDbLine
 10
548.6364861275705
 20
862.6127277024316
 30
0.0
 11
548.6364861275705
 21
883.1127277024316
 31
0.0
  0
LINE
  5
3A68
330
18
100
AcDbEntity
  8
0
100
AcDbLine
 10
552.1364861275706
 20
883.1127277024316
 30
0.0
 11
552.1364861275706
 21
862.6127277024316
 31
0.0
  0
LINE
  5
3A69
330
18
100
AcDbEntity
  8
0
100
AcDbLine
 10
554.6364861275706
 20
862.6127277024316
 30
0.0
 11
554.6364861275706
 21
883.1127277024316
 31
0.0
  0
LINE
  5
3A6A
330
18
100
AcDbEntity
  8
0
100
AcDbLine
 10
554.6364861275706
 20
883.1127277024316
 30
0.0
 11
558.1364861275706
 21
883.1127277024316
 31
0.0
  0
LINE
  5
3A6B
330
18
100
AcDbEntity
  8
0
100
AcDbLine
 10
558.1364861275706
 20
862.6127277024316
 30
0.0
 11
554.6364861275706
 21
862.6127277024316
 31
0.0
  0
LINE
  5
3A6C
330
18
100
AcDbEntity
  8
0
100
AcDbLine
 10
577.1364861275706
 20
861.6127277024316
 30
0.0
 11
578.1364861275705
 21
862.6127277024316
 31
0.0
  0
LINE
  5
3A6D
330
18
100
AcDbEntity
  8
0
100
AcDbLine
 10
576.1364861275706
 20
883.1127277024316
 30
0.0
 11
576.1364861275706
 21
862.6127277024316
 31
0.0
  0
LINE
  5
3A6E
330
18
100
AcDbEntity
  8
0
100
AcDbLine
 10
566.6364861275706
 20
883.1127277024316
 30
0.0
 11
570.1364861275705
 21
883.1127277024316
 31
0.0
  0
LINE
  5
3A6F
330
18
100
AcDbEntity
  8
0
100
AcDbLine
 10
570.1364861275705
 20
862.6127277024316
 30
0.0
 11
566.6364861275706
 21
862.6127277024316
 31
0.0
  0
POINT
  5
3A70
330
18
100
AcDbEntity
  8
0
  6
BYBLOCK
100
AcDbPoint
 10
566.9817242228086
 20
861.6127277024316
 30
0.0
  0
LINE
  5
3A71
330
18
100
AcDbEntity
  8
0
100
AcDbLine
 10
571.7436289847134
 20
861.6127277024316
 30
0.0
 11
571.7436289847134
 21
861.6127277024316
 31
0.0
  0
LINE
  5
3A72
330
18
100
AcDbEntity
  8
0
100
AcDbLine
 10
572.6364861275706
 20
862.6127277024316
 30
0.0
 11
572.6364861275706
 21
883.1127277024316
 31
0.0
  0
LINE
  5
3A73
330
18
100
AcDbEntity
  8
0
100
AcDbLine
 10
566.6364861275706
 20
862.6127277024316
 30
0.0
 11
566.6364861275706
 21
883.1127277024316
 31
0.0
  0
LINE
  5
3A74
330
18
100
AcDbEntity
  8
0
100
AcDbLine
 10
570.1364861275705
 20
883.1127277024316
 30
0.0
 11
570.1364861275705
 21
862.6127277024316
 31
0.0
  0
LINE
  5
3A75
330
18
100
AcDbEntity
  8
0
100
AcDbLine
 10
564.1364861275706
 20
883.1127277024316
 30
0.0
 11
564.1364861275706
 21
862.6127277024316
 31
0.0
  0
LINE
  5
3A76
330
18
100
AcDbEntity
  8
0
100
AcDbLine
 10
572.6364861275706
 20
883.1127277024316
 30
0.0
 11
576.1364861275706
 21
883.1127277024316
 31
0.0
  0
LINE
  5
3A77
330
18
100
AcDbEntity
  8
0
100
AcDbLine
 10
576.1364861275706
 20
862.6127277024316
 30
0.0
 11
572.6364861275706
 21
862.6127277024316
 31
0.0
  0
LINE
  5
3A78
330
18
100
AcDbEntity
  8
0
100
AcDbLine
 10
525.1364861275706
 20
979.6127277024316
 30
0.0
 11
516.6364861275706
 21
979.6127277024316
 31
0.0
  0
LINE
  5
3A79
330
18
100
AcDbEntity
  8
0
100
AcDbLine
 10
516.6364861275601
 20
966.6127277024315
 30
0.0
 11
523.1546636167482
 21
966.6127277024314
 31
0.0
  0
CIRCLE
  5
3A7A
330
18
100
AcDbEntity
  8
0
100
AcDbCircle
 10
516.6364861275706
 20
973.1127277024315
 30
0.0
 40
4.500023809523807
  0
ARC
  5
3A7B
330
18
100
AcDbEntity
  8
0
100
AcDbCircle
 10
516.6317242228188
 20
973.1127277024315
 30
0.0
 40
6.500001744287216
100
AcDbArc
 50
89.95802507754998
 51
270.0419749223555
  0
LINE
  5
3A7C
330
18
100
AcDbEntity
  8
0
100
AcDbLine
 10
516.6364861275706
 20
968.6127277024315
 30
0.0
 11
535.874581365666
 21
968.6127277024315
 31
0.0
  0
LINE
  5
3A7D
330
18
100
AcDbEntity
  8
0
100
AcDbLine
 10
516.6364861275706
 20
977.6127277024315
 30
0.0
 11
535.874581365666
 21
977.6127277024315
 31
0.0
  0
CIRCLE
  5
3A7E
330
18
100
AcDbEntity
  8
0
100
AcDbCircle
 10
516.6364861275706
 20
973.1127277024315
 30
0.0
 40
2.354511904761904
  0
CIRCLE
  5
3A7F
330
18
100
AcDbEntity
  8
0
100
AcDbCircle
 10
516.6364861275706
 20
973.1127277024315
 30
0.0
 40
3.08890476190476
  0
LINE
  5
3A80
330
18
100
AcDbEntity
  8
0
100
AcDbLine
 10
578.1364861275705
 20
887.6127277024316
 30
0.0
 11
580.0775092515941
 21
949.6928394297151
 31
0.0
  0
LINE
  5
3A81
330
18
100
AcDbEntity
  8
0
100
AcDbLine
 10
532.195463003547
 20
949.6928394297151
 30
0.0
 11
534.1364861275706
 21
887.6127277024316
 31
0.0
  0
LINE
  5
3A82
330
18
100
AcDbEntity
  8
0
100
AcDbLine
 10
534.1364861275706
 20
885.6127277024315
 30
0.0
 11
578.1364861275705
 21
885.6127277024315
 31
0.0
  0
LINE
  5
3A83
330
18
100
AcDbEntity
  8
0
100
AcDbLine
 10
534.1364861275706
 20
887.6127277024316
 30
0.0
 11
578.1364861275705
 21
887.6127277024316
 31
0.0
  0
LINE
  5
3A84
330
18
100
AcDbEntity
  8
0
100
AcDbLine
 10
534.1364861275706
 20
887.6127277024316
 30
0.0
 11
534.1364861275706
 21
885.6127277024315
 31
0.0
  0
LINE
  5
3A85
330
18
100
AcDbEntity
  8
0
100
AcDbLine
 10
578.1364861275705
 20
885.6127277024315
 30
0.0
 11
578.1364861275705
 21
887.6127277024316
 31
0.0
  0
LINE
  5
3A86
330
18
100
AcDbEntity
  8
0
100
AcDbLine
 10
578.1364861275705
 20
887.6127277024316
 30
0.0
 11
578.1364861275705
 21
885.6127277024315
 31
0.0
  0
LINE
  5
3A87
330
18
100
AcDbEntity
  8
0
100
AcDbLine
 10
541.1364861275706
 20
997.6127277024316
 30
0.0
 11
571.1364861275706
 21
997.6127277024316
 31
0.0
  0
ARC
  5
3A88
330
18
100
AcDbEntity
  8
0
100
AcDbCircle
 10
556.1364861275706
 20
971.6127277024314
 30
0.0
 40
26.00000000000003
100
AcDbArc
 50
67.38013505195756
 51
112.6198649480424
  0
LINE
  5
3A89
330
18
100
AcDbEntity
  8
0
100
AcDbLine
 10
525.1364861275706
 20
979.6127277024316
 30
0.0
 11
587.1602956513802
 21
979.6127277024316
 31
0.0
  0
LINE
  5
3A8A
330
18
100
AcDbEntity
  8
0
100
AcDbLine
 10
587.1364861275706
 20
985.6127277024315
 30
0.0
 11
525.1364861275706
 21
985.6127277024315
 31
0.0
  0
LINE
  5
3A8B
330
18
100
AcDbEntity
  8
0
100
AcDbLine
 10
523.1546636167482
 20
966.6127277024315
 30
0.0
 11
589.1364861275706
 21
966.6127277024315
 31
0.0
  0
LINE
  5
3A8C
330
18
100
AcDbEntity
  8
0
100
AcDbLine
 10
534.1364861275706
 20
987.6127277024316
 30
0.0
 11
578.1364861275705
 21
987.6127277024316
 31
0.0
  0
LINE
  5
3A8D
330
18
100
AcDbEntity
  8
0
100
AcDbLine
 10
530.1983908894754
 20
951.6127277024315
 30
0.0
 11
582.0745813656658
 21
951.6127277024315
 31
0.0
  0
LINE
  5
3A8E
330
18
100
AcDbEntity
  8
0
100
AcDbLine
 10
526.1364861275706
 20
975.630905191609
 30
0.0
 11
526.1364861275706
 21
970.6127277024314
 31
0.0
  0
LINE
  5
3A8F
330
18
100
AcDbEntity
  8
0
100
AcDbLine
 10
524.1364861275705
 20
968.6127277024315
 30
0.0
 11
523.3888670799514
 21
968.6127277024315
 31
0.0
  0
LINE
  5
3A90
330
18
100
AcDbEntity
  8
0
100
AcDbLine
 10
524.1364861275705
 20
968.6127277024315
 30
0.0
 11
523.3888670799514
 21
968.6127277024315
 31
0.0
  0
ARC
  5
3A91
330
18
100
AcDbEntity
  8
0
100
AcDbCircle
 10
524.1546636167481
 20
970.6127277024314
 30
0.0
 40
1.98182251082251
100
AcDbArc
 50
270.0
 51
0.0
  0
ARC
  5
3A92
330
18
100
AcDbEntity
  8
0
100
AcDbCircle
 10
523.1546636167482
 20
964.6309051916089
 30
0.0
 40
1.981822510822496
100
AcDbArc
 50
0.0
 51
90.0
  0
ARC
  5
3A93
330
18
100
AcDbEntity
  8
0
100
AcDbCircle
 10
527.118308638393
 20
953.5945502132539
 30
0.0
 40
1.981822510822503
100
AcDbArc
 50
180.0
 51
270.0
  0
LINE
  5
3A94
330
18
100
AcDbEntity
  8
0
100
AcDbLine
 10
527.118308638393
 20
951.6127277024315
 30
0.0
 11
530.2146084872957
 21
951.6127277024315
 31
0.0
  0
ARC
  5
3A95
330
18
100
AcDbEntity
  8
0
100
AcDbCircle
 10
530.2146084872957
 20
949.6309051916091
 30
0.0
 40
1.98182251082251
100
AcDbArc
 50
1.790850742120779
 51
90.0
  0
LINE
  5
3A96
330
18
100
AcDbEntity
  8
0
100
AcDbLine
 10
525.1364861275706
 20
964.6309051916089
 30
0.0
 11
525.1364861275706
 21
953.5945502132539
 31
0.0
  0
ARC
  5
3A97
330
18
100
AcDbEntity
  8
0
100
AcDbCircle
 10
541.1364861275706
 20
987.0834576143856
 30
0.0
 40
9.886781490193518
100
AcDbArc
 50
59.62045877107969
 51
120.3795412289202
  0
ARC
  5
3A98
330
18
100
AcDbEntity
  8
0
100
AcDbCircle
 10
540.1455748721594
 20
998.6036389578428
 30
0.0
 40
0.9909112554112482
100
AcDbArc
 50
270.0
 51
0.0
  0
LINE
  5
3A99
330
18
100
AcDbEntity
  8
0
100
AcDbLine
 10
541.0936289847134
 20
998.3189181786219
 30
0.0
 11
541.0341051751897
 21
998.171537226241
 31
0.0
  0
LINE
  5
3A9A
330
18
100
AcDbEntity
  8
0
100
AcDbLine
 10
540.1455748721594
 20
997.6127277024316
 30
0.0
 11
538.118308638393
 21
997.6127277024316
 31
0.0
  0
LINE
  5
3A9B
330
18
100
AcDbEntity
  8
0
100
AcDbLine
 10
536.1364861275705
 20
995.630905191609
 30
0.0
 11
536.1364861275705
 21
989.5945502132541
 31
0.0
  0
ARC
  5
3A9C
330
18
100
AcDbEntity
  8
0
100
AcDbCircle
 10
538.118308638393
 20
995.630905191609
 30
0.0
 40
1.981822510822524
100
AcDbArc
 50
90.0
 51
180.0
  0
LINE
  5
3A9D
330
18
100
AcDbEntity
  8
0
100
AcDbLine
 10
534.1546636167481
 20
987.6127277024316
 30
0.0
 11
527.1364861275706
 21
987.6127277024316
 31
0.0
  0
LINE
  5
3A9E
330
18
100
AcDbEntity
  8
0
100
AcDbLine
 10
525.1364861275706
 20
985.6127277024315
 30
0.0
 11
525.1364861275706
 21
979.6127277024316
 31
0.0
  0
LINE
  5
3A9F
330
18
100
AcDbEntity
  8
0
100
AcDbLine
 10
523.6817242228087
 20
977.6127277024315
 30
0.0
 11
524.1364861275705
 21
977.6127277024315
 31
0.0
  0
ARC
  5
3AA0
330
18
100
AcDbEntity
  8
0
100
AcDbCircle
 10
524.1546636167481
 20
975.630905191609
 30
0.0
 40
1.98182251082251
100
AcDbArc
 50
0.0
 51
90.0
  0
LINE
  5
3AA1
330
18
100
AcDbEntity
  8
0
100
AcDbLine
 10
527.1364861275706
 20
987.6127277024316
 30
0.0
 11
525.1364861275706
 21
985.6127277024315
 31
0.0
  0
ARC
  5
3AA2
330
18
100
AcDbEntity
  8
0
100
AcDbCircle
 10
534.1546636167481
 20
989.5945502132541
 30
0.0
 40
1.981822510822503
100
AcDbArc
 50
270.0
 51
0.0
  0
LINE
  5
3AA3
330
18
100
AcDbEntity
  8
0
100
AcDbLine
 10
541.1269623180469
 20
998.4679657976696
 30
0.0
 11
541.0936289847134
 21
998.3189181786219
 31
0.0
  0
LINE
  5
3AA4
330
18
100
AcDbEntity
  8
0
100
AcDbLine
 10
541.1364861275706
 20
998.6127277024316
 30
0.0
 11
541.1269623180469
 21
998.4679657976696
 31
0.0
  0
LINE
  5
3AA5
330
18
100
AcDbEntity
  8
0
100
AcDbLine
 10
541.1364861275706
 20
998.6127277024316
 30
0.0
 11
541.1364861275706
 21
998.6127277024316
 31
0.0
  0
LINE
  5
3AA6
330
18
100
AcDbEntity
  8
0
100
AcDbLine
 10
546.1364861275706
 20
995.6127277024316
 30
0.0
 11
546.1364861275706
 21
987.6127277024316
 31
0.0
  0
LINE
  5
3AA7
330
18
100
AcDbEntity
  8
0
100
AcDbLine
 10
586.1364861275705
 20
975.630905191609
 30
0.0
 11
586.1364861275705
 21
970.6127277024314
 31
0.0
  0
CIRCLE
  5
3AA8
330
18
100
AcDbEntity
  8
0
100
AcDbCircle
 10
595.6364861275706
 20
973.1127277024315
 30
0.0
 40
2.354485714285713
  0
ARC
  5
3AA9
330
18
100
AcDbEntity
  8
0
100
AcDbCircle
 10
595.6412480323224
 20
973.1127277024315
 30
0.0
 40
6.500001744287209
100
AcDbArc
 50
269.9580250776444
 51
90.04197492245003
  0
CIRCLE
  5
3AAA
330
18
100
AcDbEntity
  8
0
100
AcDbCircle
 10
595.6364861275706
 20
973.1127277024315
 30
0.0
 40
4.500023809523807
  0
CIRCLE
  5
3AAB
330
18
100
AcDbEntity
  8
0
100
AcDbCircle
 10
595.6364861275706
 20
973.1127277024315
 30
0.0
 40
3.08895238095238
  0
LINE
  5
3AAC
330
18
100
AcDbEntity
  8
0
100
AcDbLine
 10
595.6364861275706
 20
968.6127277024315
 30
0.0
 11
576.3983908894754
 21
968.6127277024315
 31
0.0
  0
LINE
  5
3AAD
330
18
100
AcDbEntity
  8
0
100
AcDbLine
 10
582.0583637678455
 20
951.6127277024315
 30
0.0
 11
585.1546636167482
 21
951.6127277024315
 31
0.0
  0
ARC
  5
3AAE
330
18
100
AcDbEntity
  8
0
100
AcDbCircle
 10
582.0583637678455
 20
949.6309051916091
 30
0.0
 40
1.981822510822524
100
AcDbArc
 50
90.0
 51
178.2091492578792
  0
ARC
  5
3AAF
330
18
100
AcDbEntity
  8
0
100
AcDbCircle
 10
589.118308638393
 20
964.6309051916089
 30
0.0
 40
1.98182251082251
100
AcDbArc
 50
90.0
 51
180.0
  0
LINE
  5
3AB0
330
18
100
AcDbEntity
  8
0
100
AcDbLine
 10
588.1364861275706
 20
968.6127277024315
 30
0.0
 11
588.8841051751897
 21
968.6127277024315
 31
0.0
  0
ARC
  5
3AB1
330
18
100
AcDbEntity
  8
0
100
AcDbCircle
 10
588.118308638393
 20
970.6127277024314
 30
0.0
 40
1.98182251082251
100
AcDbArc
 50
180.0
 51
270.0
  0
LINE
  5
3AB2
330
18
100
AcDbEntity
  8
0
100
AcDbLine
 10
589.118308638393
 20
966.6127277024315
 30
0.0
 11
595.6364861275813
 21
966.6127277024315
 31
0.0
  0
ARC
  5
3AB3
330
18
100
AcDbEntity
  8
0
100
AcDbCircle
 10
585.1546636167482
 20
953.5945502132539
 30
0.0
 40
1.981822510822496
100
AcDbArc
 50
270.0
 51
0.0
  0
LINE
  5
3AB4
330
18
100
AcDbEntity
  8
0
100
AcDbLine
 10
587.1364861275706
 20
953.5945502132539
 30
0.0
 11
587.1364861275706
 21
964.6309051916089
 31
0.0
  0
LINE
  5
3AB5
330
18
100
AcDbEntity
  8
0
100
AcDbLine
 10
595.6364861275706
 20
977.6127277024315
 30
0.0
 11
576.3983908894754
 21
977.6127277024315
 31
0.0
  0
LINE
  5
3AB6
330
18
100
AcDbEntity
  8
0
100
AcDbLine
 10
585.1364861275706
 20
987.6127277024316
 30
0.0
 11
578.118308638393
 21
987.6127277024314
 31
0.0
  0
LINE
  5
3AB7
330
18
100
AcDbEntity
  8
0
100
AcDbLine
 10
576.1364861275706
 20
989.5945502132541
 30
0.0
 11
576.1364861275706
 21
995.630905191609
 31
0.0
  0
LINE
  5
3AB8
330
18
100
AcDbEntity
  8
0
100
AcDbLine
 10
566.1364861275706
 20
995.6127277024316
 30
0.0
 11
566.1364861275706
 21
987.6127277024316
 31
0.0
  0
LINE
  5
3AB9
330
18
100
AcDbEntity
  8
0
100
AcDbLine
 10
574.1546636167481
 20
997.6127277024316
 30
0.0
 11
572.1301374694949
 21
997.6127277024314
 31
0.0
  0
LINE
  5
3ABA
330
18
100
AcDbEntity
  8
0
100
AcDbLine
 10
571.1413637359988
 20
998.5385880543228
 30
0.0
 11
571.1364861275706
 21
998.6127277024316
 31
0.0
  0
ARC
  5
3ABB
330
18
100
AcDbEntity
  8
0
100
AcDbCircle
 10
572.1301374694949
 20
998.6036389578428
 30
0.0
 40
0.9909112554112482
100
AcDbArc
 50
183.7640348649377
 51
270.0
  0
ARC
  5
3ABC
330
18
100
AcDbEntity
  8
0
100
AcDbCircle
 10
571.1364861275706
 20
987.0834576143856
 30
0.0
 40
9.886781490193518
100
AcDbArc
 50
59.62045877107969
 51
120.3795412289202
  0
ARC
  5
3ABD
330
18
100
AcDbEntity
  8
0
100
AcDbCircle
 10
574.1546636167481
 20
995.630905191609
 30
0.0
 40
1.981822510822524
100
AcDbArc
 50
0.0
 51
90.0
  0
ARC
  5
3ABE
330
18
100
AcDbEntity
  8
0
100
AcDbCircle
 10
578.118308638393
 20
989.5945502132541
 30
0.0
 40
1.981822510822496
100
AcDbArc
 50
180.0
 51
270.0
  0
LINE
  5
3ABF
330
18
100
AcDbEntity
  8
0
100
AcDbLine
 10
595.6364861275706
 20
979.6127277024316
 30
0.0
 11
587.1602956513802
 21
979.6127277024316
 31
0.0
  0
LINE
  5
3AC0
330
18
100
AcDbEntity
  8
0
100
AcDbLine
 10
587.1602956513802
 20
979.6127277024316
 30
0.0
 11
587.1602956513802
 21
985.6127277024315
 31
0.0
  0
LINE
  5
3AC1
330
18
100
AcDbEntity
  8
0
100
AcDbLine
 10
587.1602956513802
 20
985.6127277024315
 30
0.0
 11
587.1364861275706
 21
985.6127277024315
 31
0.0
  0
ARC
  5
3AC2
330
18
100
AcDbEntity
  8
0
100
AcDbCircle
 10
588.118308638393
 20
975.630905191609
 30
0.0
 40
1.98182251082251
100
AcDbArc
 50
90.0
 51
180.0
  0
LINE
  5
3AC3
330
18
100
AcDbEntity
  8
0
100
AcDbLine
 10
587.1602956513802
 20
985.6127277024315
 30
0.0
 11
585.1364861275706
 21
987.6127277024316
 31
0.0
  0
LINE
  5
3AC4
330
18
100
AcDbEntity
  8
0
100
AcDbLine
 10
571.1364861275706
 20
1108.612727702431
 30
0.0
 11
575.1364861275706
 21
1122.936537226241
 31
0.0
  0
LINE
  5
3AC5
330
18
100
AcDbEntity
  8
0
100
AcDbLine
 10
537.1364861275706
 20
1122.936537226241
 30
0.0
 11
541.1364861275706
 21
1108.612727702431
 31
0.0
  0
LINE
  5
3AC6
330
18
100
AcDbEntity
  8
0
100
AcDbLine
 10
541.1364861275706
 20
1048.191299131003
 30
0.0
 11
571.1364861275706
 21
1048.191299131003
 31
0.0
  0
ARC
  5
3AC8
330
18
100
AcDbEntity
  8
0
100
AcDbCircle
 10
556.1364861275706
 20
1133.83532517363
 30
0.0
 40
37.31131470916864
100
AcDbArc
 50
249.7669296871602
 51
290.2330703128396
  0
ARC
  5
3ACD
330
18
100
AcDbEntity
  8
0
100
AcDbCircle
 10
556.1364861275706
 20
1029.645861790544
 30
0.0
 40
37.31131470916864
100
AcDbArc
 50
69.76692968716031
 51
110.2330703128396
  0
LINE
  5
3ACF
330
18
100
AcDbEntity
  8
0
100
AcDbLine
 10
536.0157189318033
 20
1096.057172146876
 30
0.0
 11
536.0157189318033
 21
1067.347119236823
 31
0.0
  0
ARC
  5
3AD0
330
18
100
AcDbEntity
  8
0
100
AcDbCircle
 10
490.0215967320962
 20
1081.612727702431
 30
0.0
 40
42.77163542722052
100
AcDbArc
 50
346.3259803408843
 51
13.67401965911563
  0
LINE
  5
3AD1
330
18
100
AcDbEntity
  8
0
100
AcDbLine
 10
523.6364861275705
 20
1098.946061035765
 30
0.0
 11
523.6364861275705
 21
1064.279394369098
 31
0.0
  0
ARC
  5
3AD2
330
18
100
AcDbEntity
  8
0
100
AcDbCircle
 10
566.6402644119341
 20
1081.612727702431
 30
0.0
 40
42.77163542722052
100
AcDbArc
 50
166.3259803408843
 51
193.6740196591156
  0
ARC
  5
3ADA
330
18
100
AcDbEntity
  8
0
100
AcDbCircle
 10
538.1364861275706
 20
1063.539449019149
 30
0.0
 40
3.0
100
AcDbArc
 50
0.0
 51
90.00000000000122
  0
LINE
  5
3ADC
330
18
100
AcDbEntity
  8
0
100
AcDbLine
 10
535.2854296665104
 20
1066.539449019149
 30
0.0
 11
538.1364861275706
 21
1066.539449019149
 31
0.0
  0
LINE
  5
3ADD
330
18
100
AcDbEntity
  8
0
100
AcDbLine
 10
531.5809305720149
 20
1062.834949924653
 30
0.0
 11
535.2854296665104
 21
1066.539449019149
 31
0.0
  0
ARC
  5
3ADE
330
18
100
AcDbEntity
  8
0
100
AcDbCircle
 10
526.2504242630466
 20
1067.168283257987
 30
0.0
 40
6.869648847483298
100
AcDbArc
 50
320.8912726349672
 51
39.10872736503276
  0
LINE
  5
3ADF
330
18
100
AcDbEntity
  8
0
100
AcDbLine
 10
523.6364861275705
 20
1064.279394369098
 30
0.0
 11
525.0809305720149
 21
1062.834949924653
 31
0.0
  0
ARC
  5
3AE0
330
18
100
AcDbEntity
  8
0
100
AcDbCircle
 10
530.4114368809832
 20
1067.168283257987
 30
0.0
 40
6.869648847483298
100
AcDbArc
 50
140.8912726349672
 51
219.1087273650328
  0
LINE
  5
3AE1
330
18
100
AcDbEntity
  8
0
100
AcDbLine
 10
525.0809305720149
 20
1062.834949924653
 30
0.0
 11
531.5809305720149
 21
1062.834949924653
 31
0.0
  0
LINE
  5
3AE2
330
18
100
AcDbEntity
  8
0
100
AcDbLine
 10
531.5809305720149
 20
1071.50161659132
 30
0.0
 11
525.0809305720149
 21
1071.50161659132
 31
0.0
  0
ARC
  5
3B1E
330
18
100
AcDbEntity
  8
0
100
AcDbCircle
 10
539.137676603761
 20
1107.003705042173
 30
0.0
 40
2.0
100
AcDbArc
 50
336.0250980827019
 51
0.0
  0
LINE
  5
3B1F
330
18
100
AcDbEntity
  8
0
100
AcDbLine
 10
535.2854296665104
 20
1096.686006385714
 30
0.0
 11
536.6843500743634
 21
1096.686006385714
 31
0.0
  0
LINE
  5
3B20
330
18
100
AcDbEntity
  8
0
100
AcDbLine
 10
540.9651236809791
 20
1106.191032180582
 30
0.0
 11
539.614490732857
 21
1099.042363844046
 31
0.0
  0
ARC
  5
3B21
330
18
100
AcDbEntity
  8
0
100
AcDbCircle
 10
536.6843500743634
 20
1099.686006385714
 30
0.0
 40
3.0
100
AcDbArc
 50
270.0
 51
347.6110176985719
  0
LINE
  5
3B22
330
18
100
AcDbEntity
  8
0
100
AcDbLine
 10
535.2854296665104
 20
1096.686006385714
 30
0.0
 11
531.5809305720149
 21
1100.390505480209
 31
0.0
  0
ARC
  5
3B23
330
18
100
AcDbEntity
  8
0
100
AcDbCircle
 10
526.2504242630466
 20
1096.057172146876
 30
0.0
 40
6.869648847483298
100
AcDbArc
 50
320.8912726349672
 51
39.10872736503276
  0
LINE
  5
3B24
330
18
100
AcDbEntity
  8
0
100
AcDbLine
 10
525.0809305720149
 20
1100.390505480209
 30
0.0
 11
523.6364861275705
 21
1098.946061035765
 31
0.0
  0
ARC
  5
3B25
330
18
100
AcDbEntity
  8
0
100
AcDbCircle
 10
530.4114368809832
 20
1096.057172146876
 30
0.0
 40
6.869648847483298
100
AcDbArc
 50
140.8912726349672
 51
219.1087273650328
  0
LINE
  5
3B26
330
18
100
AcDbEntity
  8
0
100
AcDbLine
 10
531.5809305720149
 20
1100.390505480209
 30
0.0
 11
525.0809305720149
 21
1100.390505480209
 31
0.0
  0
LINE
  5
3B27
330
18
100
AcDbEntity
  8
0
100
AcDbLine
 10
531.5809305720149
 20
1091.723838813542
 30
0.0
 11
525.0809305720149
 21
1091.723838813542
 31
0.0
  0
LINE
  5
3B34
330
18
100
AcDbEntity
  8
0
100
AcDbLine
 10
541.137676603761
 20
1108.612727702431
 30
0.0
 11
541.137676603761
 21
1107.003705042173
 31
0.0
  0
ARC
  5
3B38
330
18
100
AcDbEntity
  8
0
100
AcDbCircle
 10
545.6327078432073
 20
1081.612727702431
 30
0.0
 40
42.77163542722052
100
AcDbArc
 50
346.3259803408847
 51
13.674019659116
  0
LINE
  5
3B39
330
18
100
AcDbEntity
  8
0
100
AcDbLine
 10
588.6364861275706
 20
1098.946061035765
 30
0.0
 11
588.6364861275708
 21
1064.279394369098
 31
0.0
  0
ARC
  5
3B3A
330
18
100
AcDbEntity
  8
0
100
AcDbCircle
 10
622.2513755230452
 20
1081.612727702432
 30
0.0
 40
42.77163542722052
100
AcDbArc
 50
166.3259803408847
 51
193.6740196591159
  0
LINE
  5
3B3B
330
18
100
AcDbEntity
  8
0
100
AcDbLine
 10
576.2572533233378
 20
1096.057172146876
 30
0.0
 11
576.2572533233378
 21
1067.347119236823
 31
0.0
  0
LINE
  5
3B3E
330
18
100
AcDbEntity
  8
0
100
AcDbLine
 10
580.6920416831265
 20
1071.50161659132
 30
0.0
 11
587.1920416831264
 21
1071.50161659132
 31
0.0
  0
LINE
  5
3B3F
330
18
100
AcDbEntity
  8
0
100
AcDbLine
 10
587.1920416831264
 20
1062.834949924654
 30
0.0
 11
580.6920416831265
 21
1062.834949924654
 31
0.0
  0
ARC
  5
3B40
330
18
100
AcDbEntity
  8
0
100
AcDbCircle
 10
586.0225479920948
 20
1067.168283257987
 30
0.0
 40
6.869648847483298
100
AcDbArc
 50
140.8912726349676
 51
219.1087273650331
  0
LINE
  5
3B41
330
18
100
AcDbEntity
  8
0
100
AcDbLine
 10
580.6920416831265
 20
1062.834949924654
 30
0.0
 11
576.987542588631
 21
1066.539449019149
 31
0.0
  0
LINE
  5
3B42
330
18
100
AcDbEntity
  8
0
100
AcDbLine
 10
576.987542588631
 20
1066.539449019149
 30
0.0
 11
574.1364861275708
 21
1066.539449019149
 31
0.0
  0
ARC
  5
3B43
330
18
100
AcDbEntity
  8
0
100
AcDbCircle
 10
574.1364861275708
 20
1063.539449019149
 30
0.0
 40
3.0
100
AcDbArc
 50
89.99999999999914
 51
180.0000000000003
  0
ARC
  5
3B4E
330
18
100
AcDbEntity
  8
0
100
AcDbCircle
 10
581.8615353741582
 20
1067.168283257987
 30
0.0
 40
6.869648847483298
100
AcDbArc
 50
320.8912726349676
 51
39.10872736503312
  0
LINE
  5
3B4F
330
18
100
AcDbEntity
  8
0
100
AcDbLine
 10
588.6364861275708
 20
1064.279394369098
 30
0.0
 11
587.1920416831264
 21
1062.834949924654
 31
0.0
  0
LINE
  5
3B50
330
18
100
AcDbEntity
  8
0
100
AcDbLine
 10
580.6920416831262
 20
1091.723838813542
 30
0.0
 11
587.1920416831263
 21
1091.723838813542
 31
0.0
  0
LINE
  5
3B51
330
18
100
AcDbEntity
  8
0
100
AcDbLine
 10
580.6920416831262
 20
1100.390505480209
 30
0.0
 11
587.1920416831263
 21
1100.390505480209
 31
0.0
  0
LINE
  5
3B52
330
18
100
AcDbEntity
  8
0
100
AcDbLine
 10
571.1352956513801
 20
1108.612727702431
 30
0.0
 11
571.1352956513801
 21
1107.003705042173
 31
0.0
  0
LINE
  5
3B53
330
18
100
AcDbEntity
  8
0
100
AcDbLine
 10
571.3078485741621
 20
1106.191032180582
 30
0.0
 11
572.6584815222841
 21
1099.042363844046
 31
0.0
  0
ARC
  5
3B54
330
18
100
AcDbEntity
  8
0
100
AcDbCircle
 10
573.1352956513801
 20
1107.003705042173
 30
0.0
 40
2.0
100
AcDbArc
 50
180.0000000000003
 51
203.9749019172983
  0
ARC
  5
3B55
330
18
100
AcDbEntity
  8
0
100
AcDbCircle
 10
586.0225479920946
 20
1096.057172146876
 30
0.0
 40
6.869648847483298
100
AcDbArc
 50
140.8912726349676
 51
219.1087273650331
  0
LINE
  5
3B56
330
18
100
AcDbEntity
  8
0
100
AcDbLine
 10
576.9875425886307
 20
1096.686006385714
 30
0.0
 11
580.6920416831262
 21
1100.390505480209
 31
0.0
  0
ARC
  5
3B57
330
18
100
AcDbEntity
  8
0
100
AcDbCircle
 10
575.5886221807777
 20
1099.686006385714
 30
0.0
 40
3.0
100
AcDbArc
 50
192.3889823014284
 51
270.0000000000003
  0
LINE
  5
3B58
330
18
100
AcDbEntity
  8
0
100
AcDbLine
 10
576.9875425886307
 20
1096.686006385714
 30
0.0
 11
575.5886221807777
 21
1096.686006385714
 31
0.0
  0
ARC
  5
3B65
330
18
100
AcDbEntity
  8
0
100
AcDbCircle
 10
581.8615353741579
 20
1096.057172146876
 30
0.0
 40
6.869648847483298
100
AcDbArc
 50
320.8912726349676
 51
39.10872736503312
  0
LINE
  5
3B66
330
18
100
AcDbEntity
  8
0
100
AcDbLine
 10
587.1920416831263
 20
1100.390505480209
 30
0.0
 11
588.6364861275706
 21
1098.946061035765
 31
0.0
  0
LINE
  5
3B67
330
18
100
AcDbEntity
  8
0
100
AcDbLine
 10
574.1364861275705
 20
1127.612727702431
 30
0.0
 11
556.1364861275706
 21
1127.612727702431
 31
0.0
  0
LINE
  5
3B68
330
18
100
AcDbEntity
  8
0
100
AcDbLine
 10
537.3436289847133
 20
1126.63415627386
 30
0.0
 11
574.9317242228086
 21
1126.63415627386
 31
0.0
  0
LINE
  5
3B69
330
18
100
AcDbEntity
  8
0
100
AcDbLine
 10
575.1364861275706
 20
1122.93653722624
 30
0.0
 11
537.1364861275706
 21
1122.93653722624
 31
0.0
  0
LINE
  5
3B6A
330
18
100
AcDbEntity
  8
0
100
AcDbLine
 10
556.1364861275706
 20
1127.612727702431
 30
0.0
 11
538.1364861275706
 21
1127.612727702431
 31
0.0
  0
LINE
  5
3B6B
330
18
100
AcDbEntity
  8
0
100
AcDbLine
 10
537.3436289847133
 20
1126.63415627386
 30
0.0
 11
537.1364861275706
 21
1122.936537226241
 31
0.0
  0
LINE
  5
3B6C
330
18
100
AcDbEntity
  8
0
100
AcDbLine
 10
538.1364861275706
 20
1127.612727702431
 30
0.0
 11
537.3436289847133
 21
1126.63415627386
 31
0.0
  0
POINT
  5
3B6D
330
18
100
AcDbEntity
  8
0
  6
BYBLOCK
100
AcDbPoint
 10
557.8888670799515
 20
1127.612727702431
 30
0.0
  0
POINT
  5
3B6E
330
18
100
AcDbEntity
  8
0
  6
BYBLOCK
100
AcDbPoint
 10
557.8888670799515
 20
1127.612727702431
 30
0.0
  0
LINE
  5
3B6F
330
18
100
AcDbEntity
  8
0
100
AcDbLine
 10
562.6507718418563
 20
1127.612727702431
 30
0.0
 11
562.6507718418563
 21
1127.612727702431
 31
0.0
  0
LINE
  5
3B70
330
18
100
AcDbEntity
  8
0
100
AcDbLine
 10
575.1364861275706
 20
1122.936537226241
 30
0.0
 11
574.9317242228086
 21
1126.63415627386
 31
0.0
  0
LINE
  5
3B71
330
18
100
AcDbEntity
  8
0
100
AcDbLine
 10
574.9317242228086
 20
1126.63415627386
 30
0.0
 11
574.1364861275705
 21
1127.612727702431
 31
0.0
  0
TEXT
  5
3B72
330
18
100
AcDbEntity
  8
0
100
AcDbText
 10
532.0770218866705
 20
346.4146953714107
 30
0.0
 40
20.0
  1
15A
 41
0.8
 72
     4
 11
551.8865456961943
 21
356.4146953714107
 31
0.0
100
AcDbText
  0
TEXT
  5
3B73
330
18
100
AcDbEntity
  8
0
100
AcDbText
 10
1083.515110928434
 20
346.4146953714107
 30
0.0
 40
20.0
  1
20A
 41
0.8
 72
     4
 11
1104.848444261767
 21
356.4146953714107
 31
0.0
100
AcDbText
  0
TEXT
  5
3B74
330
18
100
AcDbEntity
  8
0
100
AcDbText
 10
1618.567312927367
 20
346.4146953714107
 30
0.0
 40
20.0
  1
25A
 41
0.8
 72
     4
 11
1639.9006462607
 21
356.4146953714107
 31
0.0
100
AcDbText
  0
TEXT
  5
3B75
330
18
100
AcDbEntity
  8
0
100
AcDbText
 10
232.5937369490679
 20
959.6748297262134
 30
0.0
 40
20.0
  1
背面
 41
0.8
 72
     4
 11
249.6604036157346
 21
969.6748297262134
 31
0.0
100
AcDbText
  0
TEXT
  5
3B76
330
18
100
AcDbEntity
  8
0
100
AcDbText
 10
232.5937369490679
 20
764.953544903124
 30
0.0
 40
20.0
  1
上面
 41
0.8
 72
     4
 11
249.6604036157346
 21
774.9535449031241
 31
0.0
100
AcDbText
  0
TEXT
  5
3B77
330
18
100
AcDbEntity
  8
0
100
AcDbText
 10
232.5937369490679
 20
541.8026431489708
 30
0.0
 40
20.0
  1
正面
 41
0.8
 72
     4
 11
249.6604036157346
 21
551.1359764823041
 31
0.0
100
AcDbText
  0
TEXT
  5
3B78
330
18
100
AcDbEntity
  8
0
100
AcDbText
 10
735.4072682741075
 20
140.0742032249501
 30
0.0
 40
40.0
  1
TLV DR2/DR4/DR6/DR10 (PT)
 41
0.8
 72
     4
 11
1093.654887321726
 21
157.2170603678073
 31
0.0
100
AcDbText
  0
LINE
  5
3C32
330
18
100
AcDbEntity
  8
0
100
AcDbLine
 10
388.4327290008873
 20
533.589817091763
 30
0.0
 11
390.3737521249108
 21
471.5097053644795
 31
0.0
  0
LINE
  5
3C33
330
18
100
AcDbEntity
  8
0
100
AcDbLine
 10
434.3737521249108
 20
471.5097053644795
 30
0.0
 11
436.3147752489344
 21
533.589817091763
 31
0.0
  0
LINE
  5
3C34
330
18
100
AcDbEntity
  8
0
100
AcDbLine
 10
416.8737521249108
 20
446.5097053644795
 30
0.0
 11
416.8737521249108
 21
467.0097053644794
 31
0.0
  0
LINE
  5
3C35
330
18
100
AcDbEntity
  8
0
100
AcDbLine
 10
428.8737521249109
 20
446.5097053644795
 30
0.0
 11
428.8737521249109
 21
467.0097053644794
 31
0.0
  0
LINE
  5
3C36
330
18
100
AcDbEntity
  8
0
100
AcDbLine
 10
432.3737521249109
 20
467.0097053644794
 30
0.0
 11
432.3737521249109
 21
446.5097053644795
 31
0.0
  0
LINE
  5
3C37
330
18
100
AcDbEntity
  8
0
100
AcDbLine
 10
422.8737521249108
 20
446.5097053644795
 30
0.0
 11
422.8737521249108
 21
467.0097053644794
 31
0.0
  0
LINE
  5
3C38
330
18
100
AcDbEntity
  8
0
100
AcDbLine
 10
426.3737521249108
 20
467.0097053644794
 30
0.0
 11
426.3737521249108
 21
446.5097053644795
 31
0.0
  0
LINE
  5
3C39
330
18
100
AcDbEntity
  8
0
100
AcDbLine
 10
420.3737521249109
 20
467.0097053644794
 30
0.0
 11
420.3737521249109
 21
446.5097053644795
 31
0.0
  0
LINE
  5
3C3A
330
18
100
AcDbEntity
  8
0
100
AcDbLine
 10
434.3737521249108
 20
446.5097053644795
 30
0.0
 11
434.3737521249108
 21
469.5097053644794
 31
0.0
  0
LINE
  5
3C3B
330
18
100
AcDbEntity
  8
0
100
AcDbLine
 10
404.8737521249108
 20
446.5097053644795
 30
0.0
 11
404.8737521249108
 21
467.0097053644794
 31
0.0
  0
LINE
  5
3C3C
330
18
100
AcDbEntity
  8
0
100
AcDbLine
 10
408.3737521249108
 20
467.0097053644794
 30
0.0
 11
408.3737521249108
 21
446.5097053644795
 31
0.0
  0
LINE
  5
3C3D
330
18
100
AcDbEntity
  8
0
100
AcDbLine
 10
410.8737521249109
 20
446.5097053644795
 30
0.0
 11
410.8737521249109
 21
467.0097053644794
 31
0.0
  0
LINE
  5
3C3E
330
18
100
AcDbEntity
  8
0
100
AcDbLine
 10
402.3737521249108
 20
467.0097053644794
 30
0.0
 11
402.3737521249108
 21
446.5097053644795
 31
0.0
  0
LINE
  5
3C3F
330
18
100
AcDbEntity
  8
0
100
AcDbLine
 10
398.8737521249108
 20
446.5097053644795
 30
0.0
 11
398.8737521249108
 21
467.0097053644794
 31
0.0
  0
LINE
  5
3C40
330
18
100
AcDbEntity
  8
0
100
AcDbLine
 10
414.3737521249108
 20
467.0097053644794
 30
0.0
 11
414.3737521249108
 21
446.5097053644795
 31
0.0
  0
LINE
  5
3C41
330
18
100
AcDbEntity
  8
0
100
AcDbLine
 10
392.8737521249108
 20
446.5097053644795
 30
0.0
 11
392.8737521249108
 21
467.0097053644794
 31
0.0
  0
LINE
  5
3C42
330
18
100
AcDbEntity
  8
0
100
AcDbLine
 10
396.3737521249108
 20
467.0097053644794
 30
0.0
 11
396.3737521249108
 21
446.5097053644795
 31
0.0
  0
LINE
  5
3C43
330
18
100
AcDbEntity
  8
0
100
AcDbLine
 10
390.3737521249108
 20
469.5097053644794
 30
0.0
 11
390.3737521249108
 21
446.5097053644795
 31
0.0
  0
LINE
  5
3C44
330
18
100
AcDbEntity
  8
0
100
AcDbLine
 10
391.3737521249109
 20
445.5097053644794
 30
0.0
 11
433.3737521249108
 21
445.5097053644794
 31
0.0
  0
LINE
  5
3C45
330
18
100
AcDbEntity
  8
0
100
AcDbLine
 10
396.3737521249108
 20
446.5097053644795
 30
0.0
 11
392.8737521249108
 21
446.5097053644795
 31
0.0
  0
LINE
  5
3C46
330
18
100
AcDbEntity
  8
0
100
AcDbLine
 10
390.3737521249108
 20
446.5097053644795
 30
0.0
 11
391.3737521249109
 21
445.5097053644794
 31
0.0
  0
LINE
  5
3C47
330
18
100
AcDbEntity
  8
0
100
AcDbLine
 10
414.3737521249108
 20
446.5097053644795
 30
0.0
 11
410.8737521249109
 21
446.5097053644795
 31
0.0
  0
LINE
  5
3C48
330
18
100
AcDbEntity
  8
0
100
AcDbLine
 10
408.3737521249108
 20
446.5097053644795
 30
0.0
 11
404.8737521249108
 21
446.5097053644795
 31
0.0
  0
LINE
  5
3C49
330
18
100
AcDbEntity
  8
0
100
AcDbLine
 10
402.3737521249108
 20
446.5097053644795
 30
0.0
 11
398.8737521249108
 21
446.5097053644795
 31
0.0
  0
LINE
  5
3C4A
330
18
100
AcDbEntity
  8
0
100
AcDbLine
 10
420.3737521249109
 20
446.5097053644795
 30
0.0
 11
416.8737521249108
 21
446.5097053644795
 31
0.0
  0
LINE
  5
3C4B
330
18
100
AcDbEntity
  8
0
100
AcDbLine
 10
432.3737521249109
 20
446.5097053644795
 30
0.0
 11
428.8737521249109
 21
446.5097053644795
 31
0.0
  0
LINE
  5
3C4C
330
18
100
AcDbEntity
  8
0
100
AcDbLine
 10
427.9808949820535
 20
445.5097053644794
 30
0.0
 11
427.9808949820535
 21
445.5097053644794
 31
0.0
  0
POINT
  5
3C4D
330
18
100
AcDbEntity
  8
0
  6
BYBLOCK
100
AcDbPoint
 10
423.2189902201489
 20
445.5097053644794
 30
0.0
  0
LINE
  5
3C4E
330
18
100
AcDbEntity
  8
0
100
AcDbLine
 10
426.3737521249108
 20
446.5097053644795
 30
0.0
 11
422.8737521249108
 21
446.5097053644795
 31
0.0
  0
LINE
  5
3C4F
330
18
100
AcDbEntity
  8
0
100
AcDbLine
 10
433.3737521249108
 20
445.5097053644794
 30
0.0
 11
434.3737521249108
 21
446.5097053644795
 31
0.0
  0
LINE
  5
3C50
330
18
100
AcDbEntity
  8
0
100
AcDbLine
 10
390.3737521249108
 20
469.5097053644794
 30
0.0
 11
434.3737521249108
 21
469.5097053644794
 31
0.0
  0
LINE
  5
3C51
330
18
100
AcDbEntity
  8
0
100
AcDbLine
 10
390.3737521249108
 20
471.5097053644795
 30
0.0
 11
434.3737521249108
 21
471.5097053644795
 31
0.0
  0
LINE
  5
3C52
330
18
100
AcDbEntity
  8
0
100
AcDbLine
 10
392.8737521249108
 20
467.0097053644794
 30
0.0
 11
396.3737521249108
 21
467.0097053644794
 31
0.0
  0
LINE
  5
3C53
330
18
100
AcDbEntity
  8
0
100
AcDbLine
 10
390.3737521249108
 20
471.5097053644795
 30
0.0
 11
390.3737521249108
 21
469.5097053644794
 31
0.0
  0
LINE
  5
3C54
330
18
100
AcDbEntity
  8
0
100
AcDbLine
 10
410.8737521249109
 20
467.0097053644794
 30
0.0
 11
414.3737521249108
 21
467.0097053644794
 31
0.0
  0
LINE
  5
3C55
330
18
100
AcDbEntity
  8
0
100
AcDbLine
 10
404.8737521249108
 20
467.0097053644794
 30
0.0
 11
408.3737521249108
 21
467.0097053644794
 31
0.0
  0
LINE
  5
3C56
330
18
100
AcDbEntity
  8
0
100
AcDbLine
 10
398.8737521249108
 20
467.0097053644794
 30
0.0
 11
402.3737521249108
 21
467.0097053644794
 31
0.0
  0
LINE
  5
3C57
330
18
100
AcDbEntity
  8
0
100
AcDbLine
 10
416.8737521249108
 20
467.0097053644794
 30
0.0
 11
420.3737521249109
 21
467.0097053644794
 31
0.0
  0
LINE
  5
3C58
330
18
100
AcDbEntity
  8
0
100
AcDbLine
 10
434.3737521249108
 20
469.5097053644794
 30
0.0
 11
434.3737521249108
 21
471.5097053644795
 31
0.0
  0
LINE
  5
3C59
330
18
100
AcDbEntity
  8
0
100
AcDbLine
 10
434.3737521249108
 20
471.5097053644795
 30
0.0
 11
434.3737521249108
 21
469.5097053644794
 31
0.0
  0
LINE
  5
3C5A
330
18
100
AcDbEntity
  8
0
100
AcDbLine
 10
428.8737521249109
 20
467.0097053644794
 30
0.0
 11
432.3737521249109
 21
467.0097053644794
 31
0.0
  0
LINE
  5
3C5B
330
18
100
AcDbEntity
  8
0
100
AcDbLine
 10
422.8737521249108
 20
467.0097053644794
 30
0.0
 11
426.3737521249108
 21
467.0097053644794
 31
0.0
  0
LINE
  5
3C5C
330
18
100
AcDbEntity
  8
0
100
AcDbLine
 10
397.3684377182262
 20
641.1214050333314
 30
0.0
 11
397.3684377182262
 21
582.0097053644798
 31
0.0
  0
LINE
  5
3C5D
330
18
100
AcDbEntity
  8
0
100
AcDbLine
 10
427.3684377182262
 20
582.0097053644798
 30
0.0
 11
427.3684377182262
 21
641.116051016143
 31
0.0
  0
LINE
  5
3C5E
330
18
100
AcDbEntity
  8
0
100
AcDbLine
 10
443.3737521249108
 20
537.4915278753019
 30
0.0
 11
443.3737521249111
 21
569.5097053644794
 31
0.0
  0
LINE
  5
3C5F
330
18
100
AcDbEntity
  8
0
100
AcDbLine
 10
381.3737521249109
 20
569.5097053644794
 30
0.0
 11
381.3737521249109
 21
537.4915278753019
 31
0.0
  0
LINE
  5
3C60
330
18
100
AcDbEntity
  8
0
100
AcDbLine
 10
381.3737521249109
 20
563.5097053644795
 30
0.0
 11
443.3975616487202
 21
563.5097053644795
 31
0.0
  0
LINE
  5
3C61
330
18
100
AcDbEntity
  8
0
100
AcDbLine
 10
381.3737521249109
 20
550.5097053644795
 30
0.0
 11
443.3737521249108
 21
550.5097053644795
 31
0.0
  0
LINE
  5
3C62
330
18
100
AcDbEntity
  8
0
100
AcDbLine
 10
386.4356568868156
 20
535.5097053644795
 30
0.0
 11
438.3118473630061
 21
535.5097053644795
 31
0.0
  0
ARC
  5
3C63
330
18
100
AcDbEntity
  8
0
100
AcDbCircle
 10
386.4518744846359
 20
533.5278828536569
 30
0.0
 40
1.98182251082251
100
AcDbArc
 50
1.790850742120779
 51
90.0
  0
LINE
  5
3C64
330
18
100
AcDbEntity
  8
0
100
AcDbLine
 10
383.3555746357333
 20
535.5097053644795
 30
0.0
 11
386.4518744846359
 21
535.5097053644795
 31
0.0
  0
ARC
  5
3C65
330
18
100
AcDbEntity
  8
0
100
AcDbCircle
 10
383.3555746357333
 20
537.4915278753019
 30
0.0
 40
1.981822510822503
100
AcDbArc
 50
180.0
 51
270.0
  0
LINE
  5
3C66
330
18
100
AcDbEntity
  8
0
100
AcDbLine
 10
384.3737521249108
 20
563.5097053644795
 30
0.0
 11
384.3737521249108
 21
550.5097053644795
 31
0.0
  0
LINE
  5
3C67
330
18
100
AcDbEntity
  8
0
100
AcDbLine
 10
438.2956297651856
 20
535.5097053644795
 30
0.0
 11
441.3919296140882
 21
535.5097053644795
 31
0.0
  0
ARC
  5
3C68
330
18
100
AcDbEntity
  8
0
100
AcDbCircle
 10
438.2956297651856
 20
533.5278828536569
 30
0.0
 40
1.981822510822524
100
AcDbArc
 50
90.0
 51
178.2091492578792
  0
ARC
  5
3C69
330
18
100
AcDbEntity
  8
0
100
AcDbCircle
 10
441.3919296140882
 20
537.4915278753019
 30
0.0
 40
1.981822510822496
100
AcDbArc
 50
270.0
 51
0.0
  0
LINE
  5
3C6A
330
18
100
AcDbEntity
  8
0
100
AcDbLine
 10
440.3737521249109
 20
550.5097053644795
 30
0.0
 11
440.3737521249109
 21
563.5097053644796
 31
0.0
  0
LINE
  5
3C6B
330
18
100
AcDbEntity
  8
0
100
AcDbLine
 10
443.3737521249108
 20
569.5097053644794
 30
0.0
 11
381.3737521249109
 21
569.5097053644794
 31
0.0
  0
LINE
  5
3C6C
330
18
100
AcDbEntity
  8
0
100
AcDbLine
 10
390.3737521249108
 20
571.5097053644795
 30
0.0
 11
434.3737521249108
 21
571.5097053644795
 31
0.0
  0
ARC
  5
3C6D
330
18
100
AcDbEntity
  8
0
100
AcDbCircle
 10
421.036583619314
 20
561.7485429893771
 30
0.0
 40
19.76116237510232
100
AcDbArc
 50
63.99965133804887
 51
116.0003486619514
  0
LINE
  5
3C6E
330
18
100
AcDbEntity
  8
0
100
AcDbLine
 10
396.5480891361043
 20
581.5097053644795
 30
0.0
 11
428.1911672527289
 21
581.5097053644797
 31
0.0
  0
ARC
  5
3C6F
330
18
100
AcDbEntity
  8
0
100
AcDbCircle
 10
393.0662666252817
 20
573.4915278753019
 30
0.0
 40
1.981822510822503
100
AcDbArc
 50
270.0
 51
0.0
  0
LINE
  5
3C70
330
18
100
AcDbEntity
  8
0
100
AcDbLine
 10
383.3737521249108
 20
571.5097053644795
 30
0.0
 11
381.3737521249109
 21
569.5097053644794
 31
0.0
  0
LINE
  5
3C71
330
18
100
AcDbEntity
  8
0
100
AcDbLine
 10
390.3919296140882
 20
571.5097053644795
 30
0.0
 11
383.3737521249108
 21
571.5097053644795
 31
0.0
  0
ARC
  5
3C72
330
18
100
AcDbEntity
  8
0
100
AcDbCircle
 10
403.7109206305074
 20
561.7485429893771
 30
0.0
 40
19.76116237510232
100
AcDbArc
 50
63.99965133804855
 51
116.0003486619511
  0
LINE
  5
3C73
330
18
100
AcDbEntity
  8
0
100
AcDbLine
 10
395.0480891361044
 20
580.0097053644796
 30
0.0
 11
395.0480891361042
 21
573.4915278753019
 31
0.0
  0
ARC
  5
3C74
330
18
100
AcDbEntity
  8
0
100
AcDbCircle
 10
396.5480891361043
 20
580.0097053644796
 30
0.0
 40
1.5
100
AcDbArc
 50
90.00000000000019
 51
179.9999999999994
  0
ARC
  5
3C75
330
18
100
AcDbEntity
  8
0
100
AcDbCircle
 10
396.8684377182262
 20
582.0097053644798
 30
0.0
 40
0.5
100
AcDbArc
 50
270.0
 51
0.0
  0
LINE
  5
3C76
330
18
100
AcDbEntity
  8
0
100
AcDbLine
 10
412.3737521249108
 20
579.5097053644789
 30
0.0
 11
412.3737521249108
 21
571.5097053644795
 31
0.0
  0
LINE
  5
3C77
330
18
100
AcDbEntity
  8
0
100
AcDbLine
 10
441.3737521249109
 20
571.5097053644795
 30
0.0
 11
434.3555746357333
 21
571.5097053644793
 31
0.0
  0
ARC
  5
3C78
330
18
100
AcDbEntity
  8
0
100
AcDbCircle
 10
431.6729897635512
 20
573.491527875302
 30
0.0
 40
1.981822510822496
100
AcDbArc
 50
180.0
 51
270.0
  0
LINE
  5
3C79
330
18
100
AcDbEntity
  8
0
100
AcDbLine
 10
429.6911672527289
 20
580.0097053644797
 30
0.0
 11
429.6911672527287
 21
573.491527875302
 31
0.0
  0
ARC
  5
3C7A
330
18
100
AcDbEntity
  8
0
100
AcDbCircle
 10
428.1911672527289
 20
580.0097053644797
 30
0.0
 40
1.5
100
AcDbArc
 50
0.0
 51
90.00000000000019
  0
ARC
  5
3C7B
330
18
100
AcDbEntity
  8
0
100
AcDbCircle
 10
427.8684377182262
 20
582.0097053644798
 30
0.0
 40
0.5
100
AcDbArc
 50
180.0
 51
270.0
  0
LINE
  5
3C7C
330
18
100
AcDbEntity
  8
0
100
AcDbLine
 10
443.3975616487202
 20
569.5097053644794
 30
0.0
 11
441.3737521249109
 21
571.5097053644795
 31
0.0
  0
LINE
  5
3C7D
330
18
100
AcDbEntity
  8
0
100
AcDbLine
 10
443.3975616487202
 20
569.5097053644794
 30
0.0
 11
443.3737521249108
 21
569.5097053644794
 31
0.0
  0
LINE
  5
3C7E
330
18
100
AcDbEntity
  8
0
100
AcDbLine
 10
427.5433715933891
 20
689.0853328340361
 30
0.0
 11
431.334463692252
 21
680.5603524846672
 31
0.0
  0
LINE
  5
3C7F
330
18
100
AcDbEntity
  8
0
100
AcDbLine
 10
397.1970752716347
 20
689.0880098426302
 30
0.0
 11
393.4047926965813
 21
680.5603524846672
 31
0.0
  0
LINE
  5
3C80
330
18
100
AcDbEntity
  8
0
100
AcDbLine
 10
397.3684377182262
 20
632.0882767930509
 30
0.0
 11
427.3684377182262
 21
632.0882767930509
 31
0.0
  0
CIRCLE
  5
3C81
330
18
100
AcDbEntity
  8
0
100
AcDbCircle
 10
412.3696281944167
 20
665.5097053644794
 30
0.0
 40
16.24999999999986
  0
POLYLINE
  5
3C82
330
18
100
AcDbEntity
  8
0
100
AcDb2dPolyline
 66
     1
 10
0.0
 20
0.0
 30
0.0
 70
     1
  0
VERTEX
  5
3E7E
330
3C82
100
AcDbEntity
  8
0
100
AcDbVertex
100
AcDb2dVertex
 10
412.3696281944167
 20
684.2735891131422
 30
0.0
  0
VERTEX
  5
3E7F
330
3C82
100
AcDbEntity
  8
0
100
AcDbVertex
100
AcDb2dVertex
 10
396.1196281944168
 20
674.8916472388108
 30
0.0
  0
VERTEX
  5
3E80
330
3C82
100
AcDbEntity
  8
0
100
AcDbVertex
100
AcDb2dVertex
 10
396.1196281944168
 20
656.1277634901481
 30
0.0
  0
VERTEX
  5
3E81
330
3C82
100
AcDbEntity
  8
0
100
AcDbVertex
100
AcDb2dVertex
 10
412.3696281944167
 20
646.7458216158168
 30
0.0
  0
VERTEX
  5
3E82
330
3C82
100
AcDbEntity
  8
0
100
AcDbVertex
100
AcDb2dVertex
 10
428.6196281944166
 20
656.1277634901481
 30
0.0
  0
VERTEX
  5
3E83
330
3C82
100
AcDbEntity
  8
0
100
AcDbVertex
100
AcDb2dVertex
 10
428.6196281944166
 20
674.8916472388108
 30
0.0
  0
SEQEND
  5
3E84
330
3C82
100
AcDbEntity
  8
0
  0
LINE
  5
3C83
330
18
100
AcDbEntity
  8
0
100
AcDbLine
 10
392.4047926965813
 20
675.9145594897485
 30
0.0
 11
392.4047926965813
 21
655.1048512392108
 31
0.0
  0
LINE
  5
3C84
330
18
100
AcDbEntity
  8
0
100
AcDbLine
 10
397.1958847954445
 20
641.9340778949228
 30
0.0
 11
393.4047926965813
 21
650.4590582442918
 31
0.0
  0
ARC
  5
3C85
330
18
100
AcDbEntity
  8
0
100
AcDbCircle
 10
395.4047926965813
 20
655.1048512392108
 30
0.0
 40
3.0
100
AcDbArc
 50
180.0
 51
190.9795558139771
  0
ARC
  5
3C86
330
18
100
AcDbEntity
  8
0
100
AcDbCircle
 10
449.035287380685
 20
665.5097053644794
 30
0.0
 40
57.63049468410372
100
AcDbArc
 50
190.9795558139776
 51
195.1387667207079
  0
ARC
  5
3C87
330
18
100
AcDbEntity
  8
0
100
AcDbCircle
 10
395.3684377182262
 20
641.1214050333314
 30
0.0
 40
2.0
100
AcDbArc
 50
0.0
 51
23.97490191729834
  0
ARC
  5
3C88
330
18
100
AcDbEntity
  8
0
100
AcDbCircle
 10
449.035287380685
 20
665.5097053644794
 30
0.0
 40
57.63049468410372
100
AcDbArc
 50
164.861233279292
 51
169.0204441860218
  0
ARC
  5
3C89
330
18
100
AcDbEntity
  8
0
100
AcDbCircle
 10
395.4047926965813
 20
675.9145594897485
 30
0.0
 40
3.0
100
AcDbArc
 50
169.0204441860228
 51
180.0
  0
LINE
  5
3C8A
330
18
100
AcDbEntity
  8
0
100
AcDbLine
 10
432.334463692252
 20
675.9145594897485
 30
0.0
 11
432.334463692252
 21
655.1048512392108
 31
0.0
  0
ARC
  5
3C8B
330
18
100
AcDbEntity
  8
0
100
AcDbCircle
 10
429.334463692252
 20
655.1048512392108
 30
0.0
 40
3.0
100
AcDbArc
 50
349.0204441860228
 51
0.000000000000007
  0
ARC
  5
3C8C
330
18
100
AcDbEntity
  8
0
100
AcDbCircle
 10
429.3684377182262
 20
641.116051016143
 30
0.0
 40
2.0
100
AcDbArc
 50
156.0250980827015
 51
180.0
  0
LINE
  5
3C8D
330
18
100
AcDbEntity
  8
0
100
AcDbLine
 10
427.5409906410081
 20
641.9287238777344
 30
0.0
 11
431.334463692252
 21
650.4590582442918
 31
0.0
  0
ARC
  5
3C8E
330
18
100
AcDbEntity
  8
0
100
AcDbCircle
 10
375.7039690081483
 20
665.5097053644794
 30
0.0
 40
57.63049468410372
100
AcDbArc
 50
344.8612332792921
 51
349.0204441860223
  0
ARC
  5
3C8F
330
18
100
AcDbEntity
  8
0
100
AcDbCircle
 10
429.334463692252
 20
675.9145594897485
 30
0.0
 40
3.0
100
AcDbArc
 50
0.000000000000007
 51
10.97955581397723
  0
ARC
  5
3C90
330
18
100
AcDbEntity
  8
0
100
AcDbCircle
 10
375.7039690081483
 20
665.5097053644794
 30
0.0
 40
57.63049468410372
100
AcDbArc
 50
10.97955581397812
 51
15.13876672070792
  0
LINE
  5
3C91
330
18
100
AcDbEntity
  8
0
100
AcDbLine
 10
430.3696281944167
 20
711.5097053644794
 30
0.0
 11
412.3696281944167
 21
711.5097053644794
 31
0.0
  0
LINE
  5
3C92
330
18
100
AcDbEntity
  8
0
100
AcDbLine
 10
431.3696281944166
 20
706.8335148882889
 30
0.0
 11
393.3696281944166
 21
706.8335148882889
 31
0.0
  0
LINE
  5
3C93
330
18
100
AcDbEntity
  8
0
100
AcDbLine
 10
393.5767710515595
 20
710.5311339359079
 30
0.0
 11
431.1648662896548
 21
710.5311339359079
 31
0.0
  0
LINE
  5
3C94
330
18
100
AcDbEntity
  8
0
100
AcDbLine
 10
412.3696281944167
 20
711.5097053644794
 30
0.0
 11
394.3696281944167
 21
711.5097053644794
 31
0.0
  0
LINE
  5
3C95
330
18
100
AcDbEntity
  8
0
100
AcDbLine
 10
393.3696281944166
 20
706.8335148882891
 30
0.0
 11
397.3696281944167
 21
691.5097053644794
 31
0.0
  0
LINE
  5
3C96
330
18
100
AcDbEntity
  8
0
100
AcDbLine
 10
394.3696281944167
 20
711.5097053644794
 30
0.0
 11
393.5767710515595
 21
710.5311339359079
 31
0.0
  0
LINE
  5
3C97
330
18
100
AcDbEntity
  8
0
100
AcDbLine
 10
393.5767710515595
 20
710.5311339359079
 30
0.0
 11
393.3696281944166
 21
706.8335148882891
 31
0.0
  0
ARC
  5
3C98
330
18
100
AcDbEntity
  8
0
100
AcDbCircle
 10
395.3696281944166
 20
689.9006827042216
 30
0.0
 40
2.0
100
AcDbArc
 50
336.0250980827019
 51
0.0
  0
LINE
  5
3C99
330
18
100
AcDbEntity
  8
0
100
AcDbLine
 10
397.3696281944167
 20
691.5097053644794
 30
0.0
 11
397.3696281944167
 21
689.9006827042216
 31
0.0
  0
POINT
  5
3C9A
330
18
100
AcDbEntity
  8
0
  6
BYBLOCK
100
AcDbPoint
 10
414.1220091467975
 20
711.5097053644794
 30
0.0
  0
POINT
  5
3C9B
330
18
100
AcDbEntity
  8
0
  6
BYBLOCK
100
AcDbPoint
 10
414.1220091467975
 20
711.5097053644794
 30
0.0
  0
LINE
  5
3C9C
330
18
100
AcDbEntity
  8
0
100
AcDbLine
 10
431.1648662896548
 20
710.5311339359079
 30
0.0
 11
430.3696281944167
 21
711.5097053644794
 31
0.0
  0
LINE
  5
3C9D
330
18
100
AcDbEntity
  8
0
100
AcDbLine
 10
431.3696281944166
 20
706.8335148882891
 30
0.0
 11
431.1648662896548
 21
710.5311339359079
 31
0.0
  0
LINE
  5
3C9E
330
18
100
AcDbEntity
  8
0
100
AcDbLine
 10
418.8839139087024
 20
711.5097053644794
 30
0.0
 11
418.8839139087024
 21
711.5097053644794
 31
0.0
  0
ARC
  5
3C9F
330
18
100
AcDbEntity
  8
0
100
AcDbCircle
 10
429.3708186706071
 20
689.8980056956276
 30
0.0
 40
2.0
100
AcDbArc
 50
180.0
 51
203.974901917298
  0
LINE
  5
3CA0
330
18
100
AcDbEntity
  8
0
100
AcDbLine
 10
427.3696281944166
 20
691.5097053644794
 30
0.0
 11
427.3708186706071
 21
689.8980056956276
 31
0.0
  0
LINE
  5
3CA1
330
18
100
AcDbEntity
  8
0
100
AcDbLine
 10
427.3696281944166
 20
691.5097053644794
 30
0.0
 11
431.3696281944166
 21
706.8335148882891
 31
0.0
  0
LINE
  5
3D71
330
18
100
AcDbEntity
  8
0
100
AcDbLine
 10
538.1364861275706
 20
678.0097053644795
 30
0.0
 11
574.1364861275705
 21
678.0097053644795
 31
0.0
  0
LINE
  5
3D72
330
18
100
AcDbEntity
  8
0
100
AcDbLine
 10
538.1364861275705
 20
653.0097053644794
 30
0.0
 11
574.1364861275705
 21
653.0097053644794
 31
0.0
  0
LINE
  5
3D74
330
18
100
AcDbEntity
  8
0
100
AcDbLine
 10
536.1364861275704
 20
655.0097053644795
 30
0.0
 11
536.1364861275705
 21
676.0097053644796
 31
0.0
  0
LINE
  5
3D75
330
18
100
AcDbEntity
  8
0
100
AcDbLine
 10
576.1364861275706
 20
655.0097053644795
 30
0.0
 11
576.1364861275706
 21
676.0097053644796
 31
0.0
  0
ARC
  5
3D76
330
18
100
AcDbEntity
  8
0
100
AcDbCircle
 10
538.1364861275706
 20
676.0097053644796
 30
0.0
 40
2.0
100
AcDbArc
 50
90.0
 51
180.0
  0
ARC
  5
3D77
330
18
100
AcDbEntity
  8
0
100
AcDbCircle
 10
538.1364861275705
 20
655.0097053644795
 30
0.0
 40
2.0
100
AcDbArc
 50
180.0
 51
270.0
  0
ARC
  5
3D78
330
18
100
AcDbEntity
  8
0
100
AcDbCircle
 10
574.1364861275705
 20
655.0097053644795
 30
0.0
 40
2.0
100
AcDbArc
 50
270.0
 51
0.0
  0
ARC
  5
3D79
330
18
100
AcDbEntity
  8
0
100
AcDbCircle
 10
574.1364861275705
 20
676.0097053644796
 30
0.0
 40
2.0
100
AcDbArc
 50
0.0
 51
89.99999999999992
  0
LINE
  5
3D8C
330
18
100
AcDbEntity
  8
0
100
AcDbLine
 10
473.571192347214
 20
669.4123972931033
 30
0.0
 11
492.4779423472141
 21
669.4123972931033
 31
0.0
  0
LINE
  5
3D8D
330
18
100
AcDbEntity
  8
0
100
AcDbLine
 10
511.385817347214
 20
663.1101472931036
 30
0.0
 11
479.8734423472137
 21
663.1101472931036
 31
0.0
  0
LINE
  5
3D8E
330
18
100
AcDbEntity
  8
0
100
AcDbLine
 10
479.8734423472137
 20
663.1101472931036
 30
0.0
 11
473.571192347214
 21
669.4123972931033
 31
0.0
  0
LINE
  5
3D8F
330
18
100
AcDbEntity
  8
0
100
AcDbLine
 10
495.6301923472142
 20
666.2612722931035
 30
0.0
 11
504.9463173472145
 21
666.2612722931035
 31
0.0
  0
LINE
  5
3D90
330
18
100
AcDbEntity
  8
0
100
AcDbLine
 10
492.4779423472141
 20
669.4123972931033
 30
0.0
 11
495.6301923472142
 21
666.2612722931035
 31
0.0
  0
LINE
  5
3D91
330
18
100
AcDbEntity
  8
0
100
AcDbLine
 10
504.9463173472145
 20
666.2612722931035
 30
0.0
 11
504.9463173472145
 21
669.4123972931033
 31
0.0
  0
LINE
  5
3D92
330
18
100
AcDbEntity
  8
0
100
AcDbLine
 10
504.9463173472145
 20
669.4123972931033
 30
0.0
 11
511.385817347214
 21
663.1101472931036
 31
0.0
  0
LINE
  5
3D93
330
18
100
AcDbEntity
  8
0
100
AcDbLine
 10
644.5278658707898
 20
1087.957999307282
 30
0.0
 11
625.6211158707897
 21
1087.957999307282
 31
0.0
  0
LINE
  5
3D94
330
18
100
AcDbEntity
  8
0
100
AcDbLine
 10
606.7132408707898
 20
1081.655749307282
 30
0.0
 11
638.22561587079
 21
1081.655749307282
 31
0.0
  0
LINE
  5
3D95
330
18
100
AcDbEntity
  8
0
100
AcDbLine
 10
638.22561587079
 20
1081.655749307282
 30
0.0
 11
644.5278658707898
 21
1087.957999307282
 31
0.0
  0
LINE
  5
3D96
330
18
100
AcDbEntity
  8
0
100
AcDbLine
 10
622.4688658707896
 20
1084.806874307282
 30
0.0
 11
613.1527408707893
 21
1084.806874307282
 31
0.0
  0
LINE
  5
3D97
330
18
100
AcDbEntity
  8
0
100
AcDbLine
 10
625.6211158707897
 20
1087.957999307282
 30
0.0
 11
622.4688658707896
 21
1084.806874307282
 31
0.0
  0
LINE
  5
3D98
330
18
100
AcDbEntity
  8
0
100
AcDbLine
 10
613.1527408707893
 20
1084.806874307282
 30
0.0
 11
613.1527408707893
 21
1087.957999307282
 31
0.0
  0
LINE
  5
3D99
330
18
100
AcDbEntity
  8
0
100
AcDbLine
 10
613.1527408707893
 20
1087.957999307282
 30
0.0
 11
606.7132408707898
 21
1081.655749307282
 31
0.0
  0
LINE
  5
3D9A
330
18
100
AcDbEntity
  8
0
100
AcDbLine
 10
504.9463173472145
 20
785.906202476568
 30
0.0
 11
511.385817347214
 21
779.6039524765683
 31
0.0
  0
LINE
  5
3D9B
330
18
100
AcDbEntity
  8
0
100
AcDbLine
 10
511.385817347214
 20
779.6039524765683
 30
0.0
 11
479.8734423472137
 21
779.6039524765683
 31
0.0
  0
LINE
  5
3D9C
330
18
100
AcDbEntity
  8
0
100
AcDbLine
 10
473.571192347214
 20
785.906202476568
 30
0.0
 11
492.4779423472141
 21
785.906202476568
 31
0.0
  0
LINE
  5
3D9D
330
18
100
AcDbEntity
  8
0
100
AcDbLine
 10
479.8734423472137
 20
779.6039524765683
 30
0.0
 11
473.571192347214
 21
785.906202476568
 31
0.0
  0
LINE
  5
3D9E
330
18
100
AcDbEntity
  8
0
100
AcDbLine
 10
504.9463173472145
 20
782.7550774765682
 30
0.0
 11
504.9463173472145
 21
785.906202476568
 31
0.0
  0
LINE
  5
3D9F
330
18
100
AcDbEntity
  8
0
100
AcDbLine
 10
492.4779423472141
 20
785.906202476568
 30
0.0
 11
495.6301923472142
 21
782.7550774765682
 31
0.0
  0
LINE
  5
3DA0
330
18
100
AcDbEntity
  8
0
100
AcDbLine
 10
495.6301923472142
 20
782.7550774765682
 30
0.0
 11
504.9463173472145
 21
782.7550774765682
 31
0.0
  0
LINE
  5
3DAF
330
18
100
AcDbEntity
  8
0
100
AcDbLine
 10
1035.918317755505
 20
663.1101472931036
 30
0.0
 11
1029.616067755505
 21
669.4123972931033
 31
0.0
  0
LINE
  5
3DB0
330
18
100
AcDbEntity
  8
0
100
AcDbLine
 10
1029.616067755505
 20
669.4123972931033
 30
0.0
 11
1048.522817755505
 21
669.4123972931033
 31
0.0
  0
LINE
  5
3DB1
330
18
100
AcDbEntity
  8
0
100
AcDbLine
 10
1051.675067755506
 20
666.2612722931035
 30
0.0
 11
1060.991192755506
 21
666.2612722931035
 31
0.0
  0
LINE
  5
3DB2
330
18
100
AcDbEntity
  8
0
100
AcDbLine
 10
1067.430692755505
 20
663.1101472931036
 30
0.0
 11
1035.918317755505
 21
663.1101472931036
 31
0.0
  0
LINE
  5
3DB3
330
18
100
AcDbEntity
  8
0
100
AcDbLine
 10
1048.522817755505
 20
669.4123972931033
 30
0.0
 11
1051.675067755506
 21
666.2612722931035
 31
0.0
  0
LINE
  5
3DB4
330
18
100
AcDbEntity
  8
0
100
AcDbLine
 10
1060.991192755506
 20
666.2612722931035
 30
0.0
 11
1060.991192755506
 21
669.4123972931033
 31
0.0
  0
LINE
  5
3DB5
330
18
100
AcDbEntity
  8
0
100
AcDbLine
 10
1060.991192755506
 20
669.4123972931033
 30
0.0
 11
1067.430692755505
 21
663.1101472931036
 31
0.0
  0
LINE
  5
3DB6
330
18
100
AcDbEntity
  8
0
100
AcDbLine
 10
1035.918317755505
 20
779.6039524765683
 30
0.0
 11
1029.616067755505
 21
785.906202476568
 31
0.0
  0
LINE
  5
3DB7
330
18
100
AcDbEntity
  8
0
100
AcDbLine
 10
1029.616067755505
 20
785.906202476568
 30
0.0
 11
1048.522817755505
 21
785.906202476568
 31
0.0
  0
LINE
  5
3DB8
330
18
100
AcDbEntity
  8
0
100
AcDbLine
 10
1051.675067755506
 20
782.7550774765682
 30
0.0
 11
1060.991192755506
 21
782.7550774765682
 31
0.0
  0
LINE
  5
3DB9
330
18
100
AcDbEntity
  8
0
100
AcDbLine
 10
1067.430692755505
 20
779.6039524765683
 30
0.0
 11
1035.918317755505
 21
779.6039524765683
 31
0.0
  0
LINE
  5
3DBA
330
18
100
AcDbEntity
  8
0
100
AcDbLine
 10
1048.522817755505
 20
785.906202476568
 30
0.0
 11
1051.675067755506
 21
782.7550774765682
 31
0.0
  0
LINE
  5
3DBB
330
18
100
AcDbEntity
  8
0
100
AcDbLine
 10
1060.991192755506
 20
782.7550774765682
 30
0.0
 11
1060.991192755506
 21
785.906202476568
 31
0.0
  0
LINE
  5
3DBC
330
18
100
AcDbEntity
  8
0
100
AcDbLine
 10
1060.991192755506
 20
785.906202476568
 30
0.0
 11
1067.430692755505
 21
779.6039524765683
 31
0.0
  0
LINE
  5
3DBD
330
18
100
AcDbEntity
  8
0
100
AcDbLine
 10
1194.270491279081
 20
1081.655749307282
 30
0.0
 11
1200.572741279081
 21
1087.957999307282
 31
0.0
  0
LINE
  5
3DBE
330
18
100
AcDbEntity
  8
0
100
AcDbLine
 10
1200.572741279081
 20
1087.957999307282
 30
0.0
 11
1181.665991279081
 21
1087.957999307282
 31
0.0
  0
LINE
  5
3DBF
330
18
100
AcDbEntity
  8
0
100
AcDbLine
 10
1178.513741279081
 20
1084.806874307282
 30
0.0
 11
1169.197616279081
 21
1084.806874307282
 31
0.0
  0
LINE
  5
3DC0
330
18
100
AcDbEntity
  8
0
100
AcDbLine
 10
1162.758116279081
 20
1081.655749307282
 30
0.0
 11
1194.270491279081
 21
1081.655749307282
 31
0.0
  0
LINE
  5
3DC1
330
18
100
AcDbEntity
  8
0
100
AcDbLine
 10
1169.197616279081
 20
1087.957999307282
 30
0.0
 11
1162.758116279081
 21
1081.655749307282
 31
0.0
  0
LINE
  5
3DC2
330
18
100
AcDbEntity
  8
0
100
AcDbLine
 10
1169.197616279081
 20
1084.806874307282
 30
0.0
 11
1169.197616279081
 21
1087.957999307282
 31
0.0
  0
LINE
  5
3DC3
330
18
100
AcDbEntity
  8
0
100
AcDbLine
 10
1181.665991279081
 20
1087.957999307282
 30
0.0
 11
1178.513741279081
 21
1084.806874307282
 31
0.0
  0
LINE
  5
3DC7
330
18
100
AcDbEntity
  8
0
100
AcDbLine
 10
1573.548785490057
 20
785.906202476568
 30
0.0
 11
1576.701035490057
 21
782.7550774765682
 31
0.0
  0
LINE
  5
3DC8
330
18
100
AcDbEntity
  8
0
100
AcDbLine
 10
1592.456660490057
 20
779.6039524765683
 30
0.0
 11
1560.944285490057
 21
779.6039524765683
 31
0.0
  0
LINE
  5
3DC9
330
18
100
AcDbEntity
  8
0
100
AcDbLine
 10
1573.548785490057
 20
669.4123972931033
 30
0.0
 11
1576.701035490057
 21
666.2612722931035
 31
0.0
  0
LINE
  5
3DCA
330
18
100
AcDbEntity
  8
0
100
AcDbLine
 10
1592.456660490057
 20
663.1101472931036
 30
0.0
 11
1560.944285490057
 21
663.1101472931036
 31
0.0
  0
LINE
  5
3DCB
330
18
100
AcDbEntity
  8
0
100
AcDbLine
 10
1554.642035490057
 20
669.4123972931033
 30
0.0
 11
1573.548785490057
 21
669.4123972931033
 31
0.0
  0
LINE
  5
3DCC
330
18
100
AcDbEntity
  8
0
100
AcDbLine
 10
1560.944285490057
 20
663.1101472931036
 30
0.0
 11
1554.642035490057
 21
669.4123972931033
 31
0.0
  0
LINE
  5
3DCD
330
18
100
AcDbEntity
  8
0
100
AcDbLine
 10
1554.642035490057
 20
785.906202476568
 30
0.0
 11
1573.548785490057
 21
785.906202476568
 31
0.0
  0
LINE
  5
3DCE
330
18
100
AcDbEntity
  8
0
100
AcDbLine
 10
1560.944285490057
 20
779.6039524765683
 30
0.0
 11
1554.642035490057
 21
785.906202476568
 31
0.0
  0
LINE
  5
3DCF
330
18
100
AcDbEntity
  8
0
100
AcDbLine
 10
1586.017160490057
 20
669.4123972931033
 30
0.0
 11
1592.456660490057
 21
663.1101472931036
 31
0.0
  0
LINE
  5
3DD0
330
18
100
AcDbEntity
  8
0
100
AcDbLine
 10
1586.017160490057
 20
666.2612722931035
 30
0.0
 11
1586.017160490057
 21
669.4123972931033
 31
0.0
  0
LINE
  5
3DD1
330
18
100
AcDbEntity
  8
0
100
AcDbLine
 10
1576.701035490057
 20
666.2612722931035
 30
0.0
 11
1586.017160490057
 21
666.2612722931035
 31
0.0
  0
LINE
  5
3DD2
330
18
100
AcDbEntity
  8
0
100
AcDbLine
 10
1586.017160490057
 20
785.906202476568
 30
0.0
 11
1592.456660490057
 21
779.6039524765683
 31
0.0
  0
LINE
  5
3DD3
330
18
100
AcDbEntity
  8
0
100
AcDbLine
 10
1586.017160490057
 20
782.7550774765682
 30
0.0
 11
1586.017160490057
 21
785.906202476568
 31
0.0
  0
LINE
  5
3DD4
330
18
100
AcDbEntity
  8
0
100
AcDbLine
 10
1576.701035490057
 20
782.7550774765682
 30
0.0
 11
1586.017160490057
 21
782.7550774765682
 31
0.0
  0
LINE
  5
3DD5
330
18
100
AcDbEntity
  8
0
100
AcDbLine
 10
1687.784084013633
 20
1081.655749307282
 30
0.0
 11
1719.296459013633
 21
1081.655749307282
 31
0.0
  0
LINE
  5
3DD6
330
18
100
AcDbEntity
  8
0
100
AcDbLine
 10
1703.539709013632
 20
1084.806874307282
 30
0.0
 11
1694.223584013632
 21
1084.806874307282
 31
0.0
  0
LINE
  5
3DD7
330
18
100
AcDbEntity
  8
0
100
AcDbLine
 10
1694.223584013632
 20
1084.806874307282
 30
0.0
 11
1694.223584013632
 21
1087.957999307282
 31
0.0
  0
LINE
  5
3DD8
330
18
100
AcDbEntity
  8
0
100
AcDbLine
 10
1694.223584013632
 20
1087.957999307282
 30
0.0
 11
1687.784084013633
 21
1081.655749307282
 31
0.0
  0
LINE
  5
3DD9
330
18
100
AcDbEntity
  8
0
100
AcDbLine
 10
1725.598709013633
 20
1087.957999307282
 30
0.0
 11
1706.691959013633
 21
1087.957999307282
 31
0.0
  0
LINE
  5
3DDA
330
18
100
AcDbEntity
  8
0
100
AcDbLine
 10
1706.691959013633
 20
1087.957999307282
 30
0.0
 11
1703.539709013632
 21
1084.806874307282
 31
0.0
  0
LINE
  5
3DDB
330
18
100
AcDbEntity
  8
0
100
AcDbLine
 10
1719.296459013633
 20
1081.655749307282
 30
0.0
 11
1725.598709013633
 21
1087.957999307282
 31
0.0
  0
LINE
  5
3DDC
330
18
100
AcDbEntity
  8
0
100
AcDbLine
 10
1098.164181301307
 20
678.0097053644795
 30
0.0
 11
1134.164181301307
 21
678.0097053644795
 31
0.0
  0
LINE
  5
3DDD
330
18
100
AcDbEntity
  8
0
100
AcDbLine
 10
1098.164181301307
 20
653.0097053644794
 30
0.0
 11
1134.164181301307
 21
653.0097053644794
 31
0.0
  0
LINE
  5
3DDE
330
18
100
AcDbEntity
  8
0
100
AcDbLine
 10
1096.164181301307
 20
655.0097053644795
 30
0.0
 11
1096.164181301307
 21
676.0097053644796
 31
0.0
  0
ARC
  5
3DDF
330
18
100
AcDbEntity
  8
0
100
AcDbCircle
 10
1098.164181301307
 20
655.0097053644795
 30
0.0
 40
2.0
100
AcDbArc
 50
180.0
 51
270.0
  0
ARC
  5
3DE0
330
18
100
AcDbEntity
  8
0
100
AcDbCircle
 10
1098.164181301307
 20
676.0097053644796
 30
0.0
 40
2.0
100
AcDbArc
 50
90.0
 51
180.0
  0
ARC
  5
3DE1
330
18
100
AcDbEntity
  8
0
100
AcDbCircle
 10
1134.164181301307
 20
655.0097053644795
 30
0.0
 40
2.0
100
AcDbArc
 50
270.0
 51
0.0
  0
ARC
  5
3DE2
330
18
100
AcDbEntity
  8
0
100
AcDbCircle
 10
1134.164181301307
 20
676.0097053644796
 30
0.0
 40
2.0
100
AcDbArc
 50
0.0
 51
89.99999999999992
  0
LINE
  5
3DE3
330
18
100
AcDbEntity
  8
0
100
AcDbLine
 10
1136.164181301307
 20
655.0097053644795
 30
0.0
 11
1136.164181301307
 21
676.0097053644796
 31
0.0
  0
LINE
  5
3DE4
330
18
100
AcDbEntity
  8
0
100
AcDbLine
 10
1623.190149035858
 20
653.0097053644794
 30
0.0
 11
1659.190149035858
 21
653.0097053644794
 31
0.0
  0
LINE
  5
3DE5
330
18
100
AcDbEntity
  8
0
100
AcDbLine
 10
1623.190149035858
 20
678.0097053644795
 30
0.0
 11
1659.190149035858
 21
678.0097053644795
 31
0.0
  0
LINE
  5
3DE6
330
18
100
AcDbEntity
  8
0
100
AcDbLine
 10
1621.190149035858
 20
655.0097053644795
 30
0.0
 11
1621.190149035858
 21
676.0097053644796
 31
0.0
  0
ARC
  5
3DE7
330
18
100
AcDbEntity
  8
0
100
AcDbCircle
 10
1623.190149035858
 20
655.0097053644795
 30
0.0
 40
2.0
100
AcDbArc
 50
180.0
 51
270.0
  0
ARC
  5
3DE8
330
18
100
AcDbEntity
  8
0
100
AcDbCircle
 10
1623.190149035858
 20
676.0097053644796
 30
0.0
 40
2.0
100
AcDbArc
 50
90.0
 51
180.0
  0
LINE
  5
3DE9
330
18
100
AcDbEntity
  8
0
100
AcDbLine
 10
1661.190149035858
 20
655.0097053644795
 30
0.0
 11
1661.190149035858
 21
676.0097053644796
 31
0.0
  0
ARC
  5
3DEA
330
18
100
AcDbEntity
  8
0
100
AcDbCircle
 10
1659.190149035858
 20
655.0097053644795
 30
0.0
 40
2.0
100
AcDbArc
 50
270.0
 51
0.0
  0
ARC
  5
3DEB
330
18
100
AcDbEntity
  8
0
100
AcDbCircle
 10
1659.190149035858
 20
676.0097053644796
 30
0.0
 40
2.0
100
AcDbArc
 50
0.0
 51
89.99999999999992
  0
VIEWPORT
  5
41
330
15
100
AcDbEntity
 67
     1
  8
0
100
AcDbViewport
 10
117.358407079646
 20
73.5
 30
0.0
 40
234.716814159292
 41
147.0
 68
     1
 69
     1
1001
ACAD
1000
MVIEW
1002
{
1070
    16
1010
0.0
1020
0.0
1030
0.0
1010
0.0
1020
0.0
1030
1.0
1040
0.0
1040
147.0
1040
117.358407079646
1040
73.5
1040
50.0
1040
0.0
1040
0.0
1070
     0
1070
   100
1070
     1
1070
     1
1070
     0
1070
     0
1070
     0
1070
     0
1040
0.0
1040
0.0
1040
0.0
1040
1.0
1040
1.0
1040
0.0
1040
0.0
1070
     0
1002
{
1002
}
1002
}
  0
ENDSEC
  0
SECTION
  2
OBJECTS
  0
DICTIONARY
  5
C
330
0
100
AcDbDictionary
  3
ACAD_GROUP
350
D
  3
ACAD_LAYOUT
350
2642
  3
ACAD_MLINESTYLE
350
E
  3
ACAD_PLOTSETTINGS
350
2643
1001
ACAD
1000
TREAT_AS_HARD
1070
     0
  0
DICTIONARY
  5
3E51
330
18
100
AcDbDictionary
  3
ACAD_LAYOUTSELFREF
350
3E52
  0
DICTIONARY
  5
3E4F
330
15
100
AcDbDictionary
  3
ACAD_LAYOUTSELFREF
350
3E50
  0
DICTIONARY
  5
D
102
{ACAD_REACTORS
330
C
102
}
330
C
100
AcDbDictionary
1001
ACAD
1000
TREAT_AS_HARD
1070
     0
  0
DICTIONARY
  5
2642
102
{ACAD_REACTORS
330
C
102
}
330
C
100
AcDbDictionary
1001
ACAD
1000
TREAT_AS_HARD
1070
     0
  0
DICTIONARY
  5
E
102
{ACAD_REACTORS
330
C
102
}
330
C
100
AcDbDictionary
  3
STANDARD
350
1B
1001
ACAD
1000
TREAT_AS_HARD
1070
     0
  0
DICTIONARY
  5
2643
102
{ACAD_REACTORS
330
C
102
}
330
C
100
AcDbDictionary
1001
ACAD
1000
TREAT_AS_HARD
1070
     0
  0
XRECORD
  5
3E52
102
{ACAD_REACTORS
330
3E51
102
}
330
3E51
100
AcDbXrecord
340
18
  0
XRECORD
  5
3E50
102
{ACAD_REACTORS
330
3E4F
102
}
330
3E4F
100
AcDbXrecord
340
15
  0
MLINESTYLE
  5
1B
102
{ACAD_REACTORS
330
E
102
}
330
E
100
AcDbMlineStyle
  2
STANDARD
 70
     0
  3

 62
     0
 51
90.0
 52
90.0
 71
     2
 49
0.5
 62
   256
  6
BYLAYER
 49
-0.5
 62
   256
  6
BYLAYER
  0
ENDSEC
  0
EOF
