  0
SECTION
  2
HEADER
  9
$ACADVER
  1
AC1012
  9
$DWGCODEPAGE
  3
dos932
  9
$INSBASE
 10
0.0
 20
0.0
 30
0.0
  9
$EXTMIN
 10
53.98681940276492
 20
20.97798366632559
 30
-0.0000000000112498
  9
$EXTMAX
 10
1227.065737758606
 20
846.0258198932578
 30
0.0000000000002956
  9
$LIMMIN
 10
0.0
 20
0.0
  9
$LIMMAX
 10
1260.0
 20
891.0
  9
$ORTHOMODE
 70
     1
  9
$REGENMODE
 70
     1
  9
$FILLMODE
 70
     1
  9
$QTEXTMODE
 70
     0
  9
$MIRRTEXT
 70
     1
  9
$DRAGMODE
 70
     2
  9
$LTSCALE
 40
12.0
  9
$OSMODE
 70
   163
  9
$ATTMODE
 70
     1
  9
$TEXTSIZE
 40
12.0
  9
$TRACEWID
 40
0.05
  9
$TEXTSTYLE
  7
STANDARD
  9
$CLAYER
  8
0
  9
$CELTYPE
  6
BYLAYER
  9
$CECOLOR
 62
   256
  9
$CELTSCALE
 40
1.0
  9
$DELOBJ
 70
     1
  9
$DISPSILH
 70
     0
  9
$DIMSCALE
 40
3.0
  9
$DIMASZ
 40
2.799999999999999
  9
$DIMEXO
 40
1.0
  9
$DIMDLI
 40
5.0
  9
$DIMRND
 40
0.1
  9
$DIMDLE
 40
0.0
  9
$DIMEXE
 40
1.0
  9
$DIMTP
 40
0.0
  9
$DIMTM
 40
0.0
  9
$DIMTXT
 40
2.5
  9
$DIMCEN
 40
0.0
  9
$DIMTSZ
 40
0.0
  9
$DIMTOL
 70
     0
  9
$DIMLIM
 70
     0
  9
$DIMTIH
 70
     0
  9
$DIMTOH
 70
     0
  9
$DIMSE1
 70
     0
  9
$DIMSE2
 70
     0
  9
$DIMTAD
 70
     3
  9
$DIMZIN
 70
     8
  9
$DIMBLK
  1

  9
$DIMASO
 70
     1
  9
$DIMSHO
 70
     1
  9
$DIMPOST
  1

  9
$DIMAPOST
  1

  9
$DIMALT
 70
     0
  9
$DIMALTD
 70
     2
  9
$DIMALTF
 40
1.0
  9
$DIMLFAC
 40
1.0
  9
$DIMTOFL
 70
     1
  9
$DIMTVP
 40
0.0
  9
$DIMTIX
 70
     0
  9
$DIMSOXD
 70
     0
  9
$DIMSAH
 70
     1
  9
$DIMBLK1
  1
OPEN
  9
$DIMBLK2
  1
OPEN
  9
$DIMSTYLE
  2
DIM1
  9
$DIMCLRD
 70
     2
  9
$DIMCLRE
 70
     2
  9
$DIMCLRT
 70
     2
  9
$DIMTFAC
 40
0.7
  9
$DIMGAP
 40
0.85
  9
$DIMJUST
 70
     0
  9
$DIMSD1
 70
     0
  9
$DIMSD2
 70
     0
  9
$DIMTOLJ
 70
     1
  9
$DIMTZIN
 70
     8
  9
$DIMALTZ
 70
     8
  9
$DIMALTTZ
 70
     8
  9
$DIMFIT
 70
     3
  9
$DIMUPT
 70
     0
  9
$DIMUNIT
 70
     2
  9
$DIMDEC
 70
     2
  9
$DIMTDEC
 70
     3
  9
$DIMALTU
 70
     2
  9
$DIMALTTD
 70
     3
  9
$DIMTXSTY
  7
DIM
  9
$DIMAUNIT
 70
     0
  9
$LUNITS
 70
     2
  9
$LUPREC
 70
     4
  9
$SKETCHINC
 40
0.1
  9
$FILLETRAD
 40
0.0
  9
$AUNITS
 70
     0
  9
$AUPREC
 70
     0
  9
$MENU
  1
C:\ACADR13\WIN\SUPPORT\ACAD.mnc
  9
$ELEVATION
 40
0.0
  9
$PELEVATION
 40
0.0
  9
$THICKNESS
 40
0.0
  9
$LIMCHECK
 70
     0
  9
$BLIPMODE
 70
     0
  9
$CHAMFERA
 40
0.0
  9
$CHAMFERB
 40
0.0
  9
$CHAMFERC
 40
0.0
  9
$CHAMFERD
 40
0.0
  9
$SKPOLY
 70
     0
  9
$TDCREATE
 40
2452517.655947627
  9
$TDUPDATE
 40
2452520.410491354
  9
$TDINDWG
 40
0.1076115741
  9
$TDUSRTIMER
 40
0.1076115741
  9
$USRTIMER
 70
     1
  9
$ANGBASE
 50
0.0
  9
$ANGDIR
 70
     0
  9
$PDMODE
 70
     0
  9
$PDSIZE
 40
0.0
  9
$PLINEWID
 40
0.0
  9
$COORDS
 70
     0
  9
$SPLFRAME
 70
     0
  9
$SPLINETYPE
 70
     6
  9
$SPLINESEGS
 70
     8
  9
$ATTDIA
 70
     0
  9
$ATTREQ
 70
     1
  9
$HANDLING
 70
-16383
  9
$HANDSEED
  5
3EAC
  9
$SURFTAB1
 70
     6
  9
$SURFTAB2
 70
     6
  9
$SURFTYPE
 70
     6
  9
$SURFU
 70
     6
  9
$SURFV
 70
     6
  9
$UCSNAME
  2

  9
$UCSORG
 10
0.0
 20
0.0
 30
0.0
  9
$UCSXDIR
 10
1.0
 20
0.0
 30
0.0
  9
$UCSYDIR
 10
0.0
 20
1.0
 30
0.0
  9
$PUCSNAME
  2

  9
$PUCSORG
 10
0.0
 20
0.0
 30
0.0
  9
$PUCSXDIR
 10
1.0
 20
0.0
 30
0.0
  9
$PUCSYDIR
 10
0.0
 20
1.0
 30
0.0
  9
$USERI1
 70
     0
  9
$USERI2
 70
     0
  9
$USERI3
 70
     0
  9
$USERI4
 70
     0
  9
$USERI5
 70
     0
  9
$USERR1
 40
0.0
  9
$USERR2
 40
0.0
  9
$USERR3
 40
0.0
  9
$USERR4
 40
0.0
  9
$USERR5
 40
0.0
  9
$WORLDVIEW
 70
     1
  9
$SHADEDGE
 70
     3
  9
$SHADEDIF
 70
    70
  9
$TILEMODE
 70
     1
  9
$MAXACTVP
 70
    16
  9
$PINSBASE
 10
0.0
 20
0.0
 30
0.0
  9
$PLIMCHECK
 70
     0
  9
$PEXTMIN
 10
1.000000000000000E+20
 20
1.000000000000000E+20
 30
1.000000000000000E+20
  9
$PEXTMAX
 10
-1.000000000000000E+20
 20
-1.000000000000000E+20
 30
-1.000000000000000E+20
  9
$PLIMMIN
 10
0.0
 20
0.0
  9
$PLIMMAX
 10
20.0
 20
147.0
  9
$UNITMODE
 70
     0
  9
$VISRETAIN
 70
     0
  9
$PLINEGEN
 70
     0
  9
$PSLTSCALE
 70
     1
  9
$TREEDEPTH
 70
  3020
  9
$PICKSTYLE
 70
     1
  9
$CMLSTYLE
  2
STANDARD
  9
$CMLJUST
 70
     0
  9
$CMLSCALE
 40
1.0
  9
$SAVEIMAGES
 70
     1
  0
ENDSEC
  0
SECTION
  2
CLASSES
  0
CLASS
  1
LWPOLYLINE
  2
AcDbPolyline
  3
AutoCAD 2000
 90
    32768
280
     0
281
     1
  0
CLASS
  1
ACDBDICTIONARYWDFLT
  2
AcDbDictionaryWithDefault
  3
AutoCAD 2000
 90
    32768
280
     0
281
     0
  0
CLASS
  1
ACDBPLACEHOLDER
  2
AcDbPlaceHolder
  3
AutoCAD 2000
 90
    32768
280
     0
281
     0
  0
CLASS
  1
LAYOUT
  2
AcDbLayout
  3
AutoCAD 2000
 90
    32768
280
     0
281
     0
  0
CLASS
  1
LONG_TRANSACTION
  2
AcDbLongTransaction
  3
AutoCAD 2000
 90
    32768
280
     0
281
     0
  0
CLASS
  1
LWPOLYLINE
  2
AcDbPolyline
  3
AutoCAD 2000
 90
    32768
280
     0
281
     1
  0
CLASS
  1
HATCH
  2
AcDbHatch
  3
AutoCAD 2000
 90
    32768
280
     0
281
     1
  0
CLASS
  1
XRECORD
  2
AcDbXrecord
  3
AutoCAD 2000
 90
    32768
280
     0
281
     0
  0
CLASS
  1
LONG_TRANSACTION
  2
AcDbLongTransaction
  3
AutoCAD 2000
 90
    32768
280
     0
281
     0
  0
CLASS
  1
LWPOLYLINE
  2
AcDbPolyline
  3
AutoCAD 2000
 90
    32768
280
     0
281
     1
  0
CLASS
  1
HATCH
  2
AcDbHatch
  3
AutoCAD 2000
 90
    32768
280
     0
281
     1
  0
CLASS
  1
XRECORD
  2
AcDbXrecord
  3
AutoCAD 2000
 90
    32768
280
     0
281
     0
  0
ENDSEC
  0
SECTION
  2
TABLES
  0
TABLE
  2
VPORT
  5
8
330
0
100
AcDbSymbolTable
 70
     8
  0
VPORT
  5
3EA4
330
8
100
AcDbSymbolTableRecord
100
AcDbViewportTableRecord
  2
*ACTIVE
 70
     0
 10
0.0
 20
0.0
 11
1.0
 21
1.0
 12
630.0
 22
445.4999999999999
 13
0.0
 23
0.0
 14
1.0
 24
1.0
 15
0.0
 25
0.0
 16
0.0
 26
0.0
 36
1.0
 17
0.0
 27
0.0
 37
0.0
 40
969.1854746542555
 41
1.308108108108108
 42
50.0
 43
0.0
 44
0.0
 50
0.0
 51
0.0
 71
     0
 72
   100
 73
     1
 74
     1
 75
     0
 76
     0
 77
     0
 78
     0
  0
ENDTAB
  0
TABLE
  2
LTYPE
  5
5
330
0
100
AcDbSymbolTable
 70
     5
  0
LTYPE
  5
12
330
5
100
AcDbSymbolTableRecord
100
AcDbLinetypeTableRecord
  2
BYBLOCK
 70
     0
  3

 72
    65
 73
     0
 40
0.0
  0
LTYPE
  5
13
330
5
100
AcDbSymbolTableRecord
100
AcDbLinetypeTableRecord
  2
BYLAYER
 70
     0
  3

 72
    65
 73
     0
 40
0.0
  0
LTYPE
  5
14
330
5
100
AcDbSymbolTableRecord
100
AcDbLinetypeTableRecord
  2
CONTINUOUS
 70
     0
  3
Solid line
 72
    65
 73
     0
 40
0.0
  0
ENDTAB
  0
TABLE
  2
LAYER
  5
2
330
0
100
AcDbSymbolTable
 70
    15
  0
LAYER
  5
F
330
2
100
AcDbSymbolTableRecord
100
AcDbLayerTableRecord
  2
0
 70
     0
 62
     7
  6
CONTINUOUS
  0
ENDTAB
  0
TABLE
  2
STYLE
  5
3
330
0
100
AcDbSymbolTable
 70
     3
  0
STYLE
  5
10
330
3
100
AcDbSymbolTableRecord
100
AcDbTextStyleTableRecord
  2
STANDARD
 70
     0
 40
0.0
 41
0.8
 50
0.0
 71
     0
 42
12.0
  3
simplex
  4
extfont
  0
STYLE
  5
237C
330
3
100
AcDbSymbolTableRecord
100
AcDbTextStyleTableRecord
  2
PTSH
 70
     0
 40
0.0
 41
0.9
 50
0.0
 71
     0
 42
4.0
  3
SIMPLEX
  4
EXTFONT
  0
STYLE
  5
2592
330
3
100
AcDbSymbolTableRecord
100
AcDbTextStyleTableRecord
  2
DIM
 70
     0
 40
0.0
 41
0.8
 50
0.0
 71
     0
 42
4.0
  3
simplex
  4
extfont
  0
ENDTAB
  0
TABLE
  2
VIEW
  5
6
330
0
100
AcDbSymbolTable
 70
     0
  0
ENDTAB
  0
TABLE
  2
UCS
  5
7
330
0
100
AcDbSymbolTable
 70
     0
  0
ENDTAB
  0
TABLE
  2
APPID
  5
9
330
0
100
AcDbSymbolTable
 70
     1
  0
APPID
  5
11
330
9
100
AcDbSymbolTableRecord
100
AcDbRegAppTableRecord
  2
ACAD
 70
     0
  0
ENDTAB
  0
TABLE
  2
DIMSTYLE
  5
A
330
0
100
AcDbSymbolTable
 70
     6
  0
DIMSTYLE
105
2237
330
A
100
AcDbSymbolTableRecord
100
AcDbDimStyleTableRecord
  2
DIM1
 70
     0
  3

  4

  5

  6
OPEN
  7
OPEN
 40
3.0
 41
2.799999999999999
 42
1.0
 43
5.0
 44
1.0
 45
0.1
 46
0.0
 47
0.0
 48
0.0
140
2.5
141
0.0
142
0.0
143
1.0
144
1.0
145
0.0
146
0.7
147
0.85
 71
     0
 72
     0
 73
     0
 74
     0
 75
     0
 76
     0
 77
     3
 78
     8
170
     0
171
     2
172
     1
173
     1
174
     0
175
     0
176
     2
177
     2
178
     2
270
     2
271
     2
272
     3
273
     2
274
     3
340
2592
275
     0
280
     0
281
     0
282
     0
283
     1
284
     8
285
     8
286
     8
287
     3
288
     0
  0
ENDTAB
  0
TABLE
  2
BLOCK_RECORD
  5
1
330
0
100
AcDbSymbolTable
 70
     6
  0
BLOCK_RECORD
  5
18
102
{ACAD_XDICTIONARY
360
3D3C
102
}
330
1
100
AcDbSymbolTableRecord
100
AcDbBlockTableRecord
  2
*MODEL_SPACE
  0
BLOCK_RECORD
  5
15
102
{ACAD_XDICTIONARY
360
3D3A
102
}
330
1
100
AcDbSymbolTableRecord
100
AcDbBlockTableRecord
  2
*PAPER_SPACE
  0
BLOCK_RECORD
  5
2448
330
1
100
AcDbSymbolTableRecord
100
AcDbBlockTableRecord
  2
_OPEN
  0
BLOCK_RECORD
  5
34A0
330
1
100
AcDbSymbolTableRecord
100
AcDbBlockTableRecord
  2
DT-ARROW
  0
BLOCK_RECORD
  5
34AF
330
1
100
AcDbSymbolTableRecord
100
AcDbBlockTableRecord
  2
DT-TLV
  0
BLOCK_RECORD
  5
34E7
330
1
100
AcDbSymbolTableRecord
100
AcDbBlockTableRecord
  2
M8BS
  0
ENDTAB
  0
ENDSEC
  0
SECTION
  2
BLOCKS
  0
BLOCK
  5
3C
330
18
100
AcDbEntity
  8
0
100
AcDbBlockBegin
  2
*MODEL_SPACE
 70
     0
 10
0.0
 20
0.0
 30
0.0
  3
*MODEL_SPACE
  1

  0
ENDBLK
  5
3D
330
18
100
AcDbEntity
  8
0
100
AcDbBlockEnd
  0
BLOCK
  5
3A
330
15
100
AcDbEntity
 67
     1
  8
0
100
AcDbBlockBegin
  2
*PAPER_SPACE
 70
     0
 10
0.0
 20
0.0
 30
0.0
  3
*PAPER_SPACE
  1

  0
ENDBLK
  5
3B
330
15
100
AcDbEntity
 67
     1
  8
0
100
AcDbBlockEnd
  0
BLOCK
  5
2449
330
2448
100
AcDbEntity
  8
0
 48
4.0
100
AcDbBlockBegin
  2
_OPEN
 70
     0
 10
0.0
 20
0.0
 30
0.0
  3
_OPEN
  1
H1111.DWG
  0
LINE
  5
244A
330
2448
100
AcDbEntity
  8
0
  6
BYBLOCK
 62
     0
 48
4.0
100
AcDbLine
 10
-1.0
 20
0.1666666666666666
 30
0.0
 11
0.0
 21
0.0
 31
0.0
  0
LINE
  5
244B
330
2448
100
AcDbEntity
  8
0
  6
BYBLOCK
 62
     0
 48
4.0
100
AcDbLine
 10
0.0
 20
0.0
 30
0.0
 11
-1.0
 21
-0.1666666666666666
 31
0.0
  0
LINE
  5
244C
330
2448
100
AcDbEntity
  8
0
  6
BYBLOCK
 62
     0
 48
4.0
100
AcDbLine
 10
0.0
 20
0.0
 30
0.0
 11
-1.0
 21
0.0
 31
0.0
  0
ENDBLK
  5
244D
330
2448
100
AcDbEntity
  8
0
 48
4.0
100
AcDbBlockEnd
  0
BLOCK
  5
34AD
330
34A0
100
AcDbEntity
  8
0
100
AcDbBlockBegin
  2
DT-ARROW
 70
     0
 10
0.0
 20
0.0
 30
0.0
  3
DT-ARROW
  1

  0
LINE
  5
34A1
330
34A0
100
AcDbEntity
  8
0
100
AcDbLine
 10
-21.65100000000001
 20
-5.0
 30
0.0
 11
-50.0
 21
-5.0
 31
0.0
  0
LINE
  5
34A2
330
34A0
100
AcDbEntity
  8
0
100
AcDbLine
 10
-50.0
 20
5.0
 30
0.0
 11
-21.65100000000001
 21
5.0
 31
0.0
  0
LINE
  5
34A3
330
34A0
100
AcDbEntity
  8
0
100
AcDbLine
 10
-54.3301
 20
-12.5
 30
0.0
 11
-100.0
 21
-12.5
 31
0.0
  0
LINE
  5
34A4
330
34A0
100
AcDbEntity
  8
0
100
AcDbLine
 10
-100.0
 20
12.5
 30
0.0
 11
-54.3301
 21
12.5
 31
0.0
  0
LINE
  5
34A5
330
34A0
100
AcDbEntity
  8
0
100
AcDbLine
 10
-92.78319999999999
 20
0.0
 30
0.0
 11
-100.0
 21
12.5
 31
0.0
  0
LINE
  5
34A6
330
34A0
100
AcDbEntity
  8
0
100
AcDbLine
 10
-100.0
 20
-12.5
 30
0.0
 11
-92.78319999999999
 21
0.0
 31
0.0
  0
LINE
  5
34A7
330
34A0
100
AcDbEntity
  8
0
100
AcDbLine
 10
-54.3301
 20
12.5
 30
0.0
 11
-50.0
 21
5.0
 31
0.0
  0
LINE
  5
34A8
330
34A0
100
AcDbEntity
  8
0
100
AcDbLine
 10
-50.0
 20
-5.0
 30
0.0
 11
-54.3301
 21
-12.5
 31
0.0
  0
LINE
  5
34A9
330
34A0
100
AcDbEntity
  8
0
100
AcDbLine
 10
0.0
 20
0.0
 30
0.0
 11
-21.65100000000001
 21
-12.5
 31
0.0
  0
LINE
  5
34AA
330
34A0
100
AcDbEntity
  8
0
100
AcDbLine
 10
-21.65100000000001
 20
12.5
 30
0.0
 11
0.0
 21
0.0
 31
0.0
  0
LINE
  5
34AB
330
34A0
100
AcDbEntity
  8
0
100
AcDbLine
 10
-21.65100000000001
 20
5.0
 30
0.0
 11
-21.65100000000001
 21
12.5
 31
0.0
  0
LINE
  5
34AC
330
34A0
100
AcDbEntity
  8
0
100
AcDbLine
 10
-21.65100000000001
 20
-12.5
 30
0.0
 11
-21.65100000000001
 21
-5.0
 31
0.0
  0
ENDBLK
  5
34AE
330
34A0
100
AcDbEntity
  8
0
100
AcDbBlockEnd
  0
BLOCK
  5
34E5
330
34AF
100
AcDbEntity
  8
0
100
AcDbBlockBegin
  2
DT-TLV
 70
     0
 10
0.0
 20
0.0
 30
0.0
  3
DT-TLV
  1

  0
ARC
  5
34B0
330
34AF
100
AcDbEntity
  8
0
100
AcDbCircle
 10
10.7136
 20
-9.3245
 30
0.0
 40
3.174499999999994
100
AcDbArc
 50
270.0
 51
90.0
  0
LINE
  5
34B1
330
34AF
100
AcDbEntity
  8
0
100
AcDbLine
 10
19.69299999999999
 20
-8.942000000000007
 30
0.0
 11
11.4337
 21
7.929000000000002
 31
0.0
  0
ARC
  5
34B2
330
34AF
100
AcDbEntity
  8
0
100
AcDbCircle
 10
14.28563505775694
 20
9.323294532112583
 30
0.0
 40
3.174522139778231
100
AcDbArc
 50
26.12228754046496
 51
206.053741294884
  0
LINE
  5
34B3
330
34AF
100
AcDbEntity
  8
0
100
AcDbLine
 10
-17.856
 20
6.150000000000005
 30
0.0
 11
-24.0064
 21
6.150000000000005
 31
0.0
  0
LINE
  5
34B4
330
34AF
100
AcDbEntity
  8
0
100
AcDbLine
 10
-36.48749999999999
 20
12.49900000000002
 30
0.0
 11
-17.856
 21
12.49900000000002
 31
0.0
  0
LINE
  5
34B5
330
34AF
100
AcDbEntity
  8
0
100
AcDbLine
 10
-30.3552
 20
-9.324999999999988
 30
0.0
 11
-30.3552
 21
6.150000000000005
 31
0.0
  0
LINE
  5
34B6
330
34AF
100
AcDbEntity
  8
0
100
AcDbLine
 10
-24.0064
 20
6.150000000000005
 30
0.0
 11
-24.0064
 21
-9.324999999999988
 31
0.0
  0
ARC
  5
34B7
330
34AF
100
AcDbEntity
  8
0
100
AcDbCircle
 10
-27.1808
 20
-9.324999999999988
 30
0.0
 40
3.174400000000005
100
AcDbArc
 50
180.0
 51
0.0
  0
ARC
  5
34B8
330
34AF
100
AcDbEntity
  8
0
100
AcDbCircle
 10
-36.50544235061627
 20
9.324488311114009
 30
0.0
 40
3.174562393593735
100
AcDbArc
 50
89.67616751202797
 51
180.0990552968079
  0
ARC
  5
34B9
330
34AF
100
AcDbEntity
  8
0
100
AcDbCircle
 10
-36.50558278130271
 20
9.324370257396992
 30
0.0
 40
3.174421761207268
100
AcDbArc
 50
180.096928906635
 51
270.3263815370938
  0
LINE
  5
34BA
330
34AF
100
AcDbEntity
  8
0
100
AcDbLine
 10
-30.3552
 20
6.150000000000005
 30
0.0
 11
-36.48749999999999
 21
6.150000000000005
 31
0.0
  0
LINE
  5
34BB
330
34AF
100
AcDbEntity
  8
0
100
AcDbLine
 10
-8.729600000000004
 20
-6.150000000000005
 30
0.0
 11
-8.729600000000004
 21
9.324999999999988
 31
0.0
  0
LINE
  5
34BC
330
34AF
100
AcDbEntity
  8
0
100
AcDbLine
 10
-2.380799999999993
 20
9.324999999999988
 30
0.0
 11
-2.380799999999993
 21
-5.435999999999978
 31
0.0
  0
LINE
  5
34BD
330
34AF
100
AcDbEntity
  8
0
100
AcDbLine
 10
-4.246099999999998
 20
-12.21900000000002
 30
0.0
 11
-5.182299999999997
 21
-11.84799999999998
 31
0.0
  0
LINE
  5
34BE
330
34AF
100
AcDbEntity
  8
0
100
AcDbLine
 10
-8.449399999999997
 20
-8.015999999999991
 30
0.0
 11
-8.729600000000004
 21
-6.150000000000005
 31
0.0
  0
LINE
  5
34BF
330
34AF
100
AcDbEntity
  8
0
100
AcDbLine
 10
-8.078100000000006
 20
-8.951999999999998
 30
0.0
 11
-8.449399999999997
 21
-8.015999999999991
 31
0.0
  0
LINE
  5
34C0
330
34AF
100
AcDbEntity
  8
0
100
AcDbLine
 10
-7.547600000000002
 20
-9.840000000000003
 30
0.0
 11
-8.078100000000006
 21
-8.951999999999998
 31
0.0
  0
LINE
  5
34C1
330
34AF
100
AcDbEntity
  8
0
100
AcDbLine
 10
-6.870099999999993
 20
-10.63999999999998
 30
0.0
 11
-7.547600000000002
 21
-9.840000000000003
 31
0.0
  0
LINE
  5
34C2
330
34AF
100
AcDbEntity
  8
0
100
AcDbLine
 10
-6.070099999999996
 20
-11.317
 30
0.0
 11
-6.870099999999993
 21
-10.63999999999998
 31
0.0
  0
LINE
  5
34C3
330
34AF
100
AcDbEntity
  8
0
100
AcDbLine
 10
-5.182299999999997
 20
-11.84799999999998
 30
0.0
 11
-6.070099999999996
 21
-11.317
 31
0.0
  0
LINE
  5
34C4
330
34AF
100
AcDbEntity
  8
0
100
AcDbLine
 10
10.7136
 20
-12.49900000000002
 30
0.0
 11
-2.380799999999993
 21
-12.49900000000002
 31
0.0
  0
LINE
  5
34C5
330
34AF
100
AcDbEntity
  8
0
100
AcDbLine
 10
-1.666600000000002
 20
-6.150000000000005
 30
0.0
 11
10.7136
 21
-6.150000000000005
 31
0.0
  0
LINE
  5
34C6
330
34AF
100
AcDbEntity
  8
0
100
AcDbLine
 10
-3.300899999999998
 20
-12.43200000000001
 30
0.0
 11
-4.246099999999998
 21
-12.21900000000002
 31
0.0
  0
LINE
  5
34C7
330
34AF
100
AcDbEntity
  8
0
100
AcDbLine
 10
-2.380799999999993
 20
-12.49900000000002
 30
0.0
 11
-3.300899999999998
 21
-12.43200000000001
 31
0.0
  0
LINE
  5
34C8
330
34AF
100
AcDbEntity
  8
0
100
AcDbLine
 10
-2.380799999999993
 20
-12.49900000000002
 30
0.0
 11
-2.380799999999993
 21
-12.49900000000002
 31
0.0
  0
LINE
  5
34C9
330
34AF
100
AcDbEntity
  8
0
100
AcDbLine
 10
-1.876400000000003
 20
-6.119000000000028
 30
0.0
 11
-1.666600000000002
 21
-6.150000000000005
 31
0.0
  0
LINE
  5
34CA
330
34AF
100
AcDbEntity
  8
0
100
AcDbLine
 10
-1.981700000000003
 20
-6.076999999999998
 30
0.0
 11
-1.876400000000003
 21
-6.119000000000028
 31
0.0
  0
LINE
  5
34CB
330
34AF
100
AcDbEntity
  8
0
100
AcDbLine
 10
-2.081599999999994
 20
-6.016999999999995
 30
0.0
 11
-1.981700000000003
 21
-6.076999999999998
 31
0.0
  0
LINE
  5
34CC
330
34AF
100
AcDbEntity
  8
0
100
AcDbLine
 10
-2.171599999999997
 20
-5.940999999999974
 30
0.0
 11
-2.081599999999994
 21
-6.016999999999995
 31
0.0
  0
LINE
  5
34CD
330
34AF
100
AcDbEntity
  8
0
100
AcDbLine
 10
-2.247799999999998
 20
-5.850999999999999
 30
0.0
 11
-2.171599999999997
 21
-5.940999999999974
 31
0.0
  0
LINE
  5
34CE
330
34AF
100
AcDbEntity
  8
0
100
AcDbLine
 10
-2.307500000000004
 20
-5.750999999999976
 30
0.0
 11
-2.247799999999998
 21
-5.850999999999999
 31
0.0
  0
LINE
  5
34CF
330
34AF
100
AcDbEntity
  8
0
100
AcDbLine
 10
-2.349299999999999
 20
-5.645999999999986
 30
0.0
 11
-2.307500000000004
 21
-5.750999999999976
 31
0.0
  0
LINE
  5
34D0
330
34AF
100
AcDbEntity
  8
0
100
AcDbLine
 10
-2.3733
 20
-5.539999999999992
 30
0.0
 11
-2.349299999999999
 21
-5.645999999999986
 31
0.0
  0
LINE
  5
34D1
330
34AF
100
AcDbEntity
  8
0
100
AcDbLine
 10
-2.380799999999993
 20
-5.435999999999978
 30
0.0
 11
-2.3733
 21
-5.539999999999992
 31
0.0
  0
LINE
  5
34D2
330
34AF
100
AcDbEntity
  8
0
100
AcDbLine
 10
-2.380799999999993
 20
-5.435999999999978
 30
0.0
 11
-2.380799999999993
 21
-5.435999999999978
 31
0.0
  0
ARC
  5
34D3
330
34AF
100
AcDbEntity
  8
0
100
AcDbCircle
 10
-5.555199999999999
 20
9.324999999999988
 30
0.0
 40
3.174400000000005
100
AcDbArc
 50
0.0
 51
180.0
  0
ARC
  5
34D4
330
34AF
100
AcDbEntity
  8
0
100
AcDbCircle
 10
-17.86986474826061
 20
9.3245
 30
0.0
 40
3.174530277260633
100
AcDbArc
 50
270.2502398829087
 51
89.74976011709127
  0
LINE
  5
34D5
330
34AF
100
AcDbEntity
  8
0
100
AcDbLine
 10
39.34899999999998
 20
7.914000000000015
 30
0.0
 11
31.09700000000001
 21
-8.942000000000007
 31
0.0
  0
LINE
  5
34D6
330
34AF
100
AcDbEntity
  8
0
100
AcDbLine
 10
26.03
 20
-4.854000000000013
 30
0.0
 11
33.65399999999999
 21
10.72099999999997
 31
0.0
  0
LINE
  5
34D7
330
34AF
100
AcDbEntity
  8
0
100
AcDbLine
 10
17.1359
 20
10.72099999999997
 30
0.0
 11
24.76
 21
-4.854000000000013
 31
0.0
  0
ARC
  5
34D8
330
34AF
100
AcDbEntity
  8
0
100
AcDbCircle
 10
25.39500000000001
 20
-6.150546827618228
 30
0.0
 40
6.348623064381778
100
AcDbArc
 50
206.0843758760373
 51
333.9156241239625
  0
LINE
  5
34D9
330
34AF
100
AcDbEntity
  8
0
100
AcDbLine
 10
25.85899999999999
 20
-5.075999999999993
 30
0.0
 11
26.03
 21
-4.854000000000013
 31
0.0
  0
LINE
  5
34DA
330
34AF
100
AcDbEntity
  8
0
100
AcDbLine
 10
25.727
 20
-5.167000000000001
 30
0.0
 11
25.85899999999999
 21
-5.075999999999993
 31
0.0
  0
LINE
  5
34DB
330
34AF
100
AcDbEntity
  8
0
100
AcDbLine
 10
25.569
 20
-5.22799999999998
 30
0.0
 11
25.727
 21
-5.167000000000001
 31
0.0
  0
LINE
  5
34DC
330
34AF
100
AcDbEntity
  8
0
100
AcDbLine
 10
25.39499999999999
 20
-5.25
 30
0.0
 11
25.569
 21
-5.22799999999998
 31
0.0
  0
LINE
  5
34DD
330
34AF
100
AcDbEntity
  8
0
100
AcDbLine
 10
25.22200000000001
 20
-5.22799999999998
 30
0.0
 11
25.39499999999999
 21
-5.25
 31
0.0
  0
LINE
  5
34DE
330
34AF
100
AcDbEntity
  8
0
100
AcDbLine
 10
25.06299999999999
 20
-5.167000000000001
 30
0.0
 11
25.22200000000001
 21
-5.22799999999998
 31
0.0
  0
LINE
  5
34DF
330
34AF
100
AcDbEntity
  8
0
100
AcDbLine
 10
24.931
 20
-5.075999999999993
 30
0.0
 11
25.06299999999999
 21
-5.167000000000001
 31
0.0
  0
LINE
  5
34E0
330
34AF
100
AcDbEntity
  8
0
100
AcDbLine
 10
24.83
 20
-4.967999999999989
 30
0.0
 11
24.931
 21
-5.075999999999993
 31
0.0
  0
LINE
  5
34E1
330
34AF
100
AcDbEntity
  8
0
100
AcDbLine
 10
24.76
 20
-4.854000000000013
 30
0.0
 11
24.83
 21
-4.967999999999989
 31
0.0
  0
LINE
  5
34E2
330
34AF
100
AcDbEntity
  8
0
100
AcDbLine
 10
24.76
 20
-4.854000000000013
 30
0.0
 11
24.76
 21
-4.854000000000013
 31
0.0
  0
ARC
  5
34E3
330
34AF
100
AcDbEntity
  8
0
100
AcDbCircle
 10
36.50510030433511
 20
9.32511291132576
 30
0.0
 40
3.174744891721688
100
AcDbArc
 50
333.609879507785
 51
63.9360666899439
  0
ARC
  5
34E4
330
34AF
100
AcDbEntity
  8
0
100
AcDbCircle
 10
36.50539424312931
 20
9.324850304720484
 30
0.0
 40
3.174851666043634
100
AcDbArc
 50
63.94291415240498
 51
153.9118944378472
  0
ENDBLK
  5
34E6
330
34AF
100
AcDbEntity
  8
0
100
AcDbBlockEnd
  0
BLOCK
  5
34FA
330
34E7
100
AcDbEntity
  8
0
100
AcDbBlockBegin
  2
M8BS
 70
     0
 10
0.0
 20
0.0
 30
0.0
  3
M8BS
  1

  0
LINE
  5
34E8
330
34E7
100
AcDbEntity
  8
0
100
AcDbLine
 10
5.5
 20
-6.309000000000025
 30
0.0
 11
5.5
 21
6.309000000000025
 31
0.0
  0
ARC
  5
34E9
330
34E7
100
AcDbEntity
  8
0
100
AcDbCircle
 10
-8.005479385169905
 20
0.0
 30
0.0
 40
13.35246740916993
100
AcDbArc
 50
343.6802968976861
 51
16.31970310231387
  0
LINE
  5
34EA
330
34E7
100
AcDbEntity
  8
0
100
AcDbLine
 10
0.0
 20
-7.505999999999971
 30
0.0
 11
4.809000000000025
 21
-7.505999999999971
 31
0.0
  0
LINE
  5
34EB
330
34E7
100
AcDbEntity
  8
0
100
AcDbLine
 10
4.809000000000025
 20
-3.752000000000009
 30
0.0
 11
0.0
 21
-3.752000000000009
 31
0.0
  0
LINE
  5
34EC
330
34E7
100
AcDbEntity
  8
0
100
AcDbLine
 10
4.809000000000025
 20
-7.505999999999971
 30
0.0
 11
5.5
 21
-6.309000000000025
 31
0.0
  0
LINE
  5
34ED
330
34E7
100
AcDbEntity
  8
0
100
AcDbLine
 10
5.144000000000005
 20
-6.812999999999988
 30
0.0
 11
4.809000000000025
 21
-7.505999999999971
 31
0.0
  0
LINE
  5
34EE
330
34E7
100
AcDbEntity
  8
0
100
AcDbLine
 10
4.992999999999994
 20
-4.085999999999984
 30
0.0
 11
5.144000000000005
 21
-4.445999999999997
 31
0.0
  0
LINE
  5
34EF
330
34E7
100
AcDbEntity
  8
0
100
AcDbLine
 10
4.809000000000025
 20
-3.752000000000009
 30
0.0
 11
4.992999999999994
 21
-4.085999999999984
 31
0.0
  0
LINE
  5
34F0
330
34E7
100
AcDbEntity
  8
0
100
AcDbLine
 10
5.254999999999995
 20
-6.430999999999983
 30
0.0
 11
5.144000000000005
 21
-6.812999999999988
 31
0.0
  0
LINE
  5
34F1
330
34E7
100
AcDbEntity
  8
0
100
AcDbLine
 10
5.324000000000012
 20
-6.03400000000002
 30
0.0
 11
5.254999999999995
 21
-6.430999999999983
 31
0.0
  0
LINE
  5
34F2
330
34E7
100
AcDbEntity
  8
0
100
AcDbLine
 10
5.347000000000008
 20
-5.629000000000019
 30
0.0
 11
5.324000000000012
 21
-6.03400000000002
 31
0.0
  0
LINE
  5
34F3
330
34E7
100
AcDbEntity
  8
0
100
AcDbLine
 10
5.324000000000012
 20
-5.224000000000017
 30
0.0
 11
5.347000000000008
 21
-5.629000000000019
 31
0.0
  0
LINE
  5
34F4
330
34E7
100
AcDbEntity
  8
0
100
AcDbLine
 10
5.254999999999995
 20
-4.826999999999998
 30
0.0
 11
5.324000000000012
 21
-5.224000000000017
 31
0.0
  0
LINE
  5
34F5
330
34E7
100
AcDbEntity
  8
0
100
AcDbLine
 10
5.144000000000005
 20
-4.445999999999997
 30
0.0
 11
5.254999999999995
 21
-4.826999999999998
 31
0.0
  0
LINE
  5
34F6
330
34E7
100
AcDbEntity
  8
0
100
AcDbLine
 10
4.809000000000025
 20
7.504999999999995
 30
0.0
 11
0.0
 21
7.504999999999995
 31
0.0
  0
LINE
  5
34F7
330
34E7
100
AcDbEntity
  8
0
100
AcDbLine
 10
4.809000000000025
 20
3.752000000000009
 30
0.0
 11
0.0
 21
3.752000000000009
 31
0.0
  0
LINE
  5
34F8
330
34E7
100
AcDbEntity
  8
0
100
AcDbLine
 10
5.5
 20
6.309000000000025
 30
0.0
 11
4.809000000000025
 21
7.504999999999995
 31
0.0
  0
ARC
  5
34F9
330
34E7
100
AcDbEntity
  8
0
100
AcDbCircle
 10
1.80604158696201
 20
5.628500000000002
 30
0.0
 40
3.54104666453801
100
AcDbArc
 50
327.9994055349557
 51
32.0005944650442
  0
ENDBLK
  5
34FB
330
34E7
100
AcDbEntity
  8
0
100
AcDbBlockEnd
  0
ENDSEC
  0
SECTION
  2
ENTITIES
  0
MTEXT
  5
ADA
330
18
100
AcDbEntity
  8
0
100
AcDbMText
 10
1140.417839315123
 20
149.5389334086683
 30
0.0
 40
0.6
 41
141.6793945462386
 71
     1
 72
     1
  1

1001
ACAD
1000
MTEXTBEGIN
1070
    73
1070
     1
1070
    44
1040
1.0
1070
    74
1070
     0
1000
MTEXTEND
1000
MTEXTBEGIN
1070
    73
1070
     1
1070
    44
1040
1.0
1070
    74
1070
     0
1000
MTEXTEND
  0
MTEXT
  5
ADB
330
18
100
AcDbEntity
  8
0
100
AcDbMText
 10
1167.149799500743
 20
173.5523811986972
 30
0.0
 40
0.6
 41
136.333002509114
 71
     1
 72
     1
  1

1001
ACAD
1000
MTEXTBEGIN
1070
    73
1070
     1
1070
    44
1040
1.0
1070
    74
1070
     0
1000
MTEXTEND
1000
MTEXTBEGIN
1070
    73
1070
     1
1070
    44
1040
1.0
1070
    74
1070
     0
1000
MTEXTEND
  0
MTEXT
  5
ADC
330
18
100
AcDbEntity
  8
0
100
AcDbMText
 10
1151.110623389371
 20
-143.958739216478
 30
0.0
 40
0.6
 41
155.0453746390494
 71
     1
 72
     1
  1

1001
ACAD
1000
MTEXTBEGIN
1070
    73
1070
     1
1070
    44
1040
1.0
1070
    74
1070
     0
1000
MTEXTEND
1000
MTEXTBEGIN
1070
    73
1070
     1
1070
    44
1040
1.0
1070
    74
1070
     0
1000
MTEXTEND
  0
TEXT
  5
2529
330
18
100
AcDbEntity
  8
0
  6
CONTINUOUS
100
AcDbText
 10
1134.9
 20
45.75
 30
0.0
 40
10.5
  1
DR20
 41
0.9
  7
PTSH
 72
     1
 11
1152.0
 21
51.0
 31
0.0
100
AcDbText
 73
     2
  0
POLYLINE
  5
2563
330
18
100
AcDbEntity
  8
0
100
AcDb2dPolyline
 66
     1
 10
0.0
 20
0.0
 30
0.0
 70
     1
  0
VERTEX
  5
3EA7
330
2563
100
AcDbEntity
  8
0
100
AcDbVertex
100
AcDb2dVertex
 10
54.0
 20
21.0
 30
0.0
  0
VERTEX
  5
3EA8
330
2563
100
AcDbEntity
  8
0
100
AcDbVertex
100
AcDb2dVertex
 10
1227.0
 20
21.0
 30
0.0
  0
VERTEX
  5
3EA9
330
2563
100
AcDbEntity
  8
0
100
AcDbVertex
100
AcDb2dVertex
 10
1227.0
 20
846.0
 30
0.0
  0
VERTEX
  5
3EAA
330
2563
100
AcDbEntity
  8
0
100
AcDbVertex
100
AcDb2dVertex
 10
54.0
 20
846.0
 30
0.0
  0
SEQEND
  5
3EAB
330
2563
100
AcDbEntity
  8
0
  0
INSERT
  5
384E
330
18
100
AcDbEntity
  8
0
100
AcDbBlockReference
  2
DT-TLV
 10
606.2891279087416
 20
476.516751803579
 30
0.0
 41
0.2000000000000455
 42
0.2000000000000455
 43
0.2
  0
LINE
  5
384F
330
18
100
AcDbEntity
  8
0
100
AcDbLine
 10
577.0802837860259
 20
473.0609076808633
 30
0.0
 11
573.3272837860259
 21
479.5609076808633
 31
0.0
  0
CIRCLE
  5
3850
330
18
100
AcDbEntity
  8
0
100
AcDbCircle
 10
580.8332837860259
 20
479.5609076808633
 30
0.0
 40
6.308759999999999
  0
LINE
  5
3851
330
18
100
AcDbEntity
  8
0
100
AcDbLine
 10
588.3392837860259
 20
479.5609076808633
 30
0.0
 11
584.5862837860259
 21
473.0609076808633
 31
0.0
  0
LINE
  5
3852
330
18
100
AcDbEntity
  8
0
100
AcDbLine
 10
639.2509720314572
 20
479.5609076808633
 30
0.0
 11
635.4979720314574
 21
473.0609076808633
 31
0.0
  0
CIRCLE
  5
3853
330
18
100
AcDbEntity
  8
0
100
AcDbCircle
 10
631.7449720314573
 20
479.5609076808633
 30
0.0
 40
6.308759999999999
  0
LINE
  5
3854
330
18
100
AcDbEntity
  8
0
100
AcDbLine
 10
627.9919720314572
 20
473.0609076808633
 30
0.0
 11
624.2389720314573
 21
479.5609076808633
 31
0.0
  0
ARC
  5
3855
330
18
100
AcDbEntity
  8
0
100
AcDbCircle
 10
580.8332837860259
 20
479.5609076808633
 30
0.0
 40
9.044155877284282
100
AcDbArc
 50
180.0
 51
307.021567605573
  0
ARC
  5
3856
330
18
100
AcDbEntity
  8
0
100
AcDbCircle
 10
631.7449720314573
 20
479.5609076808633
 30
0.0
 40
9.044155877284296
100
AcDbArc
 50
232.9784323944269
 51
0.0
  0
LINE
  5
3857
330
18
100
AcDbEntity
  8
0
100
AcDbLine
 10
449.6931183702587
 20
219.9251920085994
 30
0.0
 11
413.7128916896232
 21
219.9251920085994
 31
0.0
  0
LINE
  5
3858
330
18
100
AcDbEntity
  8
0
100
AcDbLine
 10
400.6543615087336
 20
319.1206569081662
 30
0.0
 11
462.1184631238707
 21
319.1206569081671
 31
0.0
  0
LINE
  5
3859
330
18
100
AcDbEntity
  8
0
100
AcDbLine
 10
407.1648112372851
 20
329.1245490438549
 30
0.0
 11
455.6080133953194
 21
329.1245490438548
 31
0.0
  0
LINE
  5
385A
330
18
100
AcDbEntity
  8
0
100
AcDbLine
 10
454.7619649501102
 20
378.4273813999158
 30
0.0
 11
405.7631935051087
 21
378.4273813999158
 31
0.0
  0
LINE
  5
385B
330
18
100
AcDbEntity
  8
0
100
AcDbLine
 10
406.7631935051087
 20
377.4273813999158
 30
0.0
 11
431.3864123163052
 21
377.4273813999158
 31
0.0
  0
ARC
  5
385C
330
18
100
AcDbEntity
  8
0
100
AcDbCircle
 10
413.0239386097071
 20
378.2455129489109
 30
0.0
 40
14.18154922536801
100
AcDbArc
 50
59.20383797140256
 51
120.7961620285974
  0
ARC
  5
385D
330
18
100
AcDbEntity
  8
0
100
AcDbCircle
 10
425.1364123163052
 20
359.3014706892661
 30
0.0
 40
36.66256844076576
100
AcDbArc
 50
99.81535625084546
 51
121.8987339024557
  0
LINE
  5
385E
330
18
100
AcDbEntity
  8
0
100
AcDbLine
 10
415.3311589245309
 20
351.1251917657657
 30
0.0
 11
418.3864123163021
 21
351.1251917657657
 31
0.0
  0
LINE
  5
385F
330
18
100
AcDbEntity
  8
0
100
AcDbLine
 10
409.9305681935894
 20
318.1251920086011
 30
0.0
 11
431.3864123163021
 21
318.1251920086008
 31
0.0
  0
LINE
  5
3860
330
18
100
AcDbEntity
  8
0
100
AcDbLine
 10
431.3864123163021
 20
317.8870163971012
 30
0.0
 11
398.8864123163054
 21
317.887016397101
 31
0.0
  0
LINE
  5
3861
330
18
100
AcDbEntity
  8
0
100
AcDbLine
 10
400.8864123163021
 20
307.8870163971011
 30
0.0
 11
431.3864123163021
 21
307.8870163971009
 31
0.0
  0
LINE
  5
3862
330
18
100
AcDbEntity
  8
0
100
AcDbLine
 10
431.3864123163021
 20
213.4251920085995
 30
0.0
 11
415.3864123163022
 21
213.4251920085994
 31
0.0
  0
ARC
  5
3863
330
18
100
AcDbEntity
  8
0
100
AcDbCircle
 10
431.3864123163021
 20
266.9251920085994
 30
0.0
 40
22.89760911873429
100
AcDbArc
 50
90.0
 51
270.0
  0
LINE
  5
3865
330
18
100
AcDbEntity
  8
0
100
AcDbLine
 10
454.3864123163022
 20
257.9251920085993
 30
0.0
 11
454.3864123163022
 21
266.9251920085994
 31
0.0
  0
ARC
  5
3866
330
18
100
AcDbEntity
  8
0
100
AcDbCircle
 10
450.8864123163024
 20
258.9588131668256
 30
0.0
 40
4.0
100
AcDbArc
 50
329.9999999999994
 51
0.000000000000007
  0
ARC
  5
3867
330
18
100
AcDbEntity
  8
0
100
AcDbCircle
 10
431.3864123163021
 20
266.9251920085994
 30
0.0
 40
22.89760911873429
100
AcDbArc
 50
270.0
 51
90.0
  0
LINE
  5
386A
330
18
100
AcDbEntity
  8
0
100
AcDbLine
 10
452.3864123163021
 20
252.4850926084542
 30
0.0
 11
452.3864123163021
 21
221.9251920085994
 31
0.0
  0
LINE
  5
386B
330
18
100
AcDbEntity
  8
0
100
AcDbLine
 10
431.3864123163021
 20
213.4251920085995
 30
0.0
 11
447.3864123163021
 21
213.4251920085994
 31
0.0
  0
LINE
  5
386C
330
18
100
AcDbEntity
  8
0
100
AcDbLine
 10
423.3864123163021
 20
210.4251920085994
 30
0.0
 11
439.5134289700949
 21
210.4251920085994
 31
0.0
  0
ARC
  5
386D
330
18
100
AcDbEntity
  8
0
100
AcDbCircle
 10
451.3864123163021
 20
218.0522086623919
 30
0.0
 40
2.0
100
AcDbArc
 50
104.4775121859302
 51
180.0
  0
ARC
  5
386E
330
18
100
AcDbEntity
  8
0
100
AcDbCircle
 10
450.3864123163022
 20
221.9251920085994
 30
0.0
 40
2.0
100
AcDbArc
 50
284.4775121859303
 51
0.000000000000007
  0
ARC
  5
386F
330
18
100
AcDbEntity
  8
0
100
AcDbCircle
 10
447.3864123163021
 20
215.4251920085994
 30
0.0
 40
2.0
100
AcDbArc
 50
270.0
 51
0.000000000000007
  0
LINE
  5
3870
330
18
100
AcDbEntity
  8
0
100
AcDbLine
 10
449.3864123163022
 20
215.4251920085995
 30
0.0
 11
449.3864123163022
 21
218.0522086623919
 31
0.0
  0
ARC
  5
3871
330
18
100
AcDbEntity
  8
0
100
AcDbCircle
 10
443.3864123163021
 20
211.4251920085994
 30
0.0
 40
2.0
100
AcDbArc
 50
90.0
 51
165.5224878140705
  0
ARC
  5
3872
330
18
100
AcDbEntity
  8
0
100
AcDbCircle
 10
439.5134289700949
 20
212.4251920085994
 30
0.0
 40
2.0
100
AcDbArc
 50
270.0
 51
345.5224878140705
  0
ARC
  5
3873
330
18
100
AcDbEntity
  8
0
100
AcDbCircle
 10
423.2593956625097
 20
212.4251920085994
 30
0.0
 40
2.0
100
AcDbArc
 50
194.4775121859294
 51
270.0
  0
ARC
  5
3874
330
18
100
AcDbEntity
  8
0
100
AcDbCircle
 10
419.3864123163022
 20
211.4251920085994
 30
0.0
 40
2.0
100
AcDbArc
 50
14.47751218592945
 51
90.0
  0
LINE
  5
3875
330
18
100
AcDbEntity
  8
0
100
AcDbLine
 10
452.9223107011644
 20
254.4850926084541
 30
0.0
 11
454.3505139314401
 21
256.9588131668256
 31
0.0
  0
ARC
  5
3876
330
18
100
AcDbEntity
  8
0
100
AcDbCircle
 10
456.3864123163021
 20
252.4850926084542
 30
0.0
 40
4.0
100
AcDbArc
 50
150.0000000000083
 51
180.0
  0
ARC
  5
3877
330
18
100
AcDbEntity
  8
0
100
AcDbCircle
 10
453.3864123163022
 20
257.9251920085993
 30
0.0
 40
1.0
100
AcDbArc
 50
270.0
 51
0.000000000000007
  0
LINE
  5
3878
330
18
100
AcDbEntity
  8
0
100
AcDbLine
 10
451.9849681723409
 20
256.9251920085993
 30
0.0
 11
453.3864123163022
 21
256.9251920085993
 31
0.0
  0
LINE
  5
3879
330
18
100
AcDbEntity
  8
0
100
AcDbLine
 10
437.386412316305
 20
365.1351917657659
 30
0.0
 11
437.3864123163052
 21
373.4273813999158
 31
0.0
  0
LINE
  5
387A
330
18
100
AcDbEntity
  8
0
100
AcDbLine
 10
425.3864123163051
 20
365.1351917657659
 30
0.0
 11
425.3864123163054
 21
373.4273813999158
 31
0.0
  0
ARC
  5
387B
330
18
100
AcDbEntity
  8
0
100
AcDbCircle
 10
463.8864123163053
 20
315.8870163971009
 30
0.0
 40
2.0
100
AcDbArc
 50
0.000000000000007
 51
90.0
  0
LINE
  5
387C
330
18
100
AcDbEntity
  8
0
100
AcDbLine
 10
460.8422564390211
 20
304.7594812966665
 30
0.0
 11
452.842256439021
 21
304.7594812966665
 31
0.0
  0
LINE
  5
387D
330
18
100
AcDbEntity
  8
0
100
AcDbLine
 10
453.5192564390209
 20
304.0824812966663
 30
0.0
 11
460.1652564390209
 21
304.0824812966663
 31
0.0
  0
ARC
  5
387E
330
18
100
AcDbEntity
  8
0
100
AcDbCircle
 10
455.8864123163021
 20
283.9588131668256
 30
0.0
 40
4.0
100
AcDbArc
 50
330.0000000000082
 51
0.000000000000007
  0
LINE
  5
387F
330
18
100
AcDbEntity
  8
0
100
AcDbLine
 10
461.8864123163022
 20
307.8870163971011
 30
0.0
 11
431.3864123163021
 21
307.8870163971009
 31
0.0
  0
LINE
  5
3880
330
18
100
AcDbEntity
  8
0
100
AcDbLine
 10
460.8864123163022
 20
303.1549655895321
 30
0.0
 11
460.8864123163023
 21
284.8870163971009
 31
0.0
  0
LINE
  5
3881
330
18
100
AcDbEntity
  8
0
100
AcDbLine
 10
459.8864123163023
 20
304.0824812966663
 30
0.0
 11
459.8864123163021
 21
283.9588131668256
 31
0.0
  0
LINE
  5
3882
330
18
100
AcDbEntity
  8
0
100
AcDbLine
 10
459.8864123163052
 20
303.1549655895321
 30
0.0
 11
459.8864123163052
 21
285.1213444313061
 31
0.0
  0
LINE
  5
3883
330
18
100
AcDbEntity
  8
0
100
AcDbLine
 10
461.3864123163022
 20
284.6775644844896
 30
0.0
 11
461.3864123163022
 21
293.9162650370107
 31
0.0
  0
ARC
  5
3884
330
18
100
AcDbEntity
  8
0
100
AcDbCircle
 10
459.8864123163021
 20
284.8870163971009
 30
0.0
 40
1.0
100
AcDbArc
 50
270.0
 51
0.000000000000007
  0
LINE
  5
3885
330
18
100
AcDbEntity
  8
0
100
AcDbLine
 10
460.8642312649341
 20
284.6775644844896
 30
0.0
 11
461.3864123163022
 21
284.6775644844896
 31
0.0
  0
LINE
  5
3886
330
18
100
AcDbEntity
  8
0
100
AcDbLine
 10
460.8422564390211
 20
304.7594812966665
 30
0.0
 11
460.8422564390211
 21
307.8870163971011
 31
0.0
  0
ARC
  5
3888
330
18
100
AcDbEntity
  8
0
100
AcDbCircle
 10
459.8864123163021
 20
302.887016397101
 30
0.0
 40
1.0
100
AcDbArc
 50
0.000000000000007
 51
90.0
  0
LINE
  5
3889
330
18
100
AcDbEntity
  8
0
100
AcDbLine
 10
461.3864123163022
 20
303.1549655895321
 30
0.0
 11
460.8864123163022
 21
303.1549655895321
 31
0.0
  0
LINE
  5
388A
330
18
100
AcDbEntity
  8
0
100
AcDbLine
 10
460.1652564390209
 20
304.0824812966663
 30
0.0
 11
460.8422564390211
 21
304.7594812966665
 31
0.0
  0
LINE
  5
388B
330
18
100
AcDbEntity
  8
0
100
AcDbLine
 10
465.8864123163054
 20
315.887016397101
 30
0.0
 11
465.8864123163054
 21
310.8870163971009
 31
0.0
  0
LINE
  5
388C
330
18
100
AcDbEntity
  8
0
100
AcDbLine
 10
461.8864123163022
 20
307.8870163971011
 30
0.0
 11
462.8864123163053
 21
307.8870163971009
 31
0.0
  0
ARC
  5
388D
330
18
100
AcDbEntity
  8
0
100
AcDbCircle
 10
461.8864123163022
 20
305.8870163971011
 30
0.0
 40
2.0
100
AcDbArc
 50
90.0
 51
121.4717390065293
  0
LINE
  5
388E
330
18
100
AcDbEntity
  8
0
100
AcDbLine
 10
461.3864123163022
 20
303.1549655895321
 30
0.0
 11
461.3864123163022
 21
293.9162650370107
 31
0.0
  0
ARC
  5
388F
330
18
100
AcDbEntity
  8
0
100
AcDbCircle
 10
461.3540528205589
 20
293.9162650370109
 30
0.0
 40
0.7878259136102313
100
AcDbArc
 50
272.3540533910796
 51
87.64594660892042
  0
ARC
  5
3890
330
18
100
AcDbEntity
  8
0
100
AcDbCircle
 10
462.8864123163054
 20
310.8870163971009
 30
0.0
 40
3.0
100
AcDbArc
 50
270.0
 51
0.000000000000007
  0
LINE
  5
3894
330
18
100
AcDbEntity
  8
0
100
AcDbLine
 10
457.6275050929531
 20
282.8899158281893
 30
0.0
 11
450.0890463591191
 21
282.8899158281894
 31
0.0
  0
LINE
  5
3895
330
18
100
AcDbEntity
  8
0
100
AcDbLine
 10
454.3864123163022
 20
266.9251920085994
 30
0.0
 11
454.3864123163022
 21
275.9251920085994
 31
0.0
  0
LINE
  5
3896
330
18
100
AcDbEntity
  8
0
100
AcDbLine
 10
454.8864123163024
 20
273.1549655895319
 30
0.0
 11
454.8864123163024
 21
258.9588131668256
 31
0.0
  0
POINT
  5
3897
330
18
100
AcDbEntity
  8
0
  6
BYBLOCK
100
AcDbPoint
 10
454.8864123163024
 20
266.9251920085994
 30
0.0
  0
LINE
  5
3898
330
18
100
AcDbEntity
  8
0
100
AcDbLine
 10
455.4223107011645
 20
275.1549655895319
 30
0.0
 11
459.3505139314401
 21
281.9588131668256
 31
0.0
  0
ARC
  5
3899
330
18
100
AcDbEntity
  8
0
100
AcDbCircle
 10
458.8864123163024
 20
273.1549655895319
 30
0.0
 40
4.0
100
AcDbArc
 50
150.0000000000083
 51
180.0
  0
ARC
  5
389A
330
18
100
AcDbEntity
  8
0
100
AcDbCircle
 10
453.3864123163022
 20
275.9251920085994
 30
0.0
 40
1.0
100
AcDbArc
 50
0.000000000000007
 51
90.0
  0
LINE
  5
389B
330
18
100
AcDbEntity
  8
0
100
AcDbLine
 10
453.3864123163022
 20
276.9251920085994
 30
0.0
 11
451.9849681723409
 21
276.9251920085994
 31
0.0
  0
LINE
  5
38A2
330
18
100
AcDbEntity
  8
0
100
AcDbLine
 10
452.842256439021
 20
307.8870163971011
 30
0.0
 11
452.842256439021
 21
304.7594812966665
 31
0.0
  0
LINE
  5
38A4
330
18
100
AcDbEntity
  8
0
100
AcDbLine
 10
452.842256439021
 20
304.7594812966665
 30
0.0
 11
453.5192564390209
 21
304.0824812966663
 31
0.0
  0
LINE
  5
38A5
330
18
100
AcDbEntity
  8
0
100
AcDbLine
 10
431.3864123163021
 20
317.8870163971012
 30
0.0
 11
463.8864123163053
 21
317.887016397101
 31
0.0
  0
LINE
  5
38A6
330
18
100
AcDbEntity
  8
0
100
AcDbLine
 10
464.3864123163021
 20
329.1206569081664
 30
0.0
 11
455.6080133953194
 21
329.1245490438549
 31
0.0
  0
ARC
  5
38A7
330
18
100
AcDbEntity
  8
0
100
AcDbCircle
 10
460.1177169370213
 20
324.2308166313355
 30
0.0
 40
10.23726888199896
100
AcDbArc
 50
71.34254553787091
 51
108.6574544621218
  0
LINE
  5
38A8
330
18
100
AcDbEntity
  8
0
100
AcDbLine
 10
456.8427169370213
 20
334.6210974893342
 30
0.0
 11
462.1967169370212
 21
334.6210974893342
 31
0.0
  0
ARC
  5
38A9
330
18
100
AcDbEntity
  8
0
100
AcDbCircle
 10
462.1184631238709
 20
317.1206569081671
 30
0.0
 40
2.0
100
AcDbArc
 50
90.00000000000651
 51
129.6505354741935
  0
ARC
  5
38AA
330
18
100
AcDbEntity
  8
0
100
AcDbCircle
 10
462.1184631238709
 20
317.1206569081661
 30
0.0
 40
2.0
100
AcDbArc
 50
90.0
 51
129.6505354741935
  0
ARC
  5
38AB
330
18
100
AcDbEntity
  8
0
100
AcDbCircle
 10
464.3797861591194
 20
320.6206569081666
 30
0.0
 40
1.5
100
AcDbArc
 50
270.0
 51
0.000000000000007
  0
LINE
  5
38AC
330
18
100
AcDbEntity
  8
0
100
AcDbLine
 10
464.3797861591194
 20
319.1206569081666
 30
0.0
 11
462.1184631238709
 21
319.1206569081662
 31
0.0
  0
LINE
  5
38AE
330
18
100
AcDbEntity
  8
0
100
AcDbLine
 10
461.3863809535452
 20
318.1251920086006
 30
0.0
 11
460.8422564390211
 21
318.1251920086008
 31
0.0
  0
LINE
  5
38AF
330
18
100
AcDbEntity
  8
0
100
AcDbLine
 10
461.3863809535452
 20
317.887016397101
 30
0.0
 11
461.3863809535452
 21
318.1251920085994
 31
0.0
  0
LINE
  5
38B0
330
18
100
AcDbEntity
  8
0
100
AcDbLine
 10
460.8422564390211
 20
317.887016397101
 30
0.0
 11
460.8422564390209
 21
319.1206569081671
 31
0.0
  0
LINE
  5
38B1
330
18
100
AcDbEntity
  8
0
100
AcDbLine
 10
463.3927169370214
 20
329.1210974893342
 30
0.0
 11
463.3927169370212
 21
333.9300974893343
 31
0.0
  0
LINE
  5
38B2
330
18
100
AcDbEntity
  8
0
100
AcDbLine
 10
465.8797861591193
 20
320.6206569081666
 30
0.0
 11
465.8797861591192
 21
327.6206569081664
 31
0.0
  0
ARC
  5
38B3
330
18
100
AcDbEntity
  8
0
100
AcDbCircle
 10
464.3797861591192
 20
327.6206569081664
 30
0.0
 40
1.5
100
AcDbArc
 50
0.000000000000007
 51
90.0
  0
LINE
  5
38B4
330
18
100
AcDbEntity
  8
0
100
AcDbLine
 10
462.1967169370212
 20
334.6210974893342
 30
0.0
 11
463.3927169370212
 21
333.9300974893343
 31
0.0
  0
LINE
  5
38B5
330
18
100
AcDbEntity
  8
0
100
AcDbLine
 10
453.1294708276996
 20
334.6206569081658
 30
0.0
 11
451.3974106130778
 21
347.7185570695703
 31
0.0
  0
LINE
  5
38B6
330
18
100
AcDbEntity
  8
0
100
AcDbLine
 10
452.842256439021
 20
318.1251920086019
 30
0.0
 11
431.3864123163023
 21
318.1251920086008
 31
0.0
  0
LINE
  5
38B7
330
18
100
AcDbEntity
  8
0
100
AcDbLine
 10
451.4887169370214
 20
334.6210974893342
 30
0.0
 11
450.2927169370214
 21
333.9300974893343
 31
0.0
  0
ARC
  5
38B8
330
18
100
AcDbEntity
  8
0
100
AcDbCircle
 10
453.5677169370213
 20
324.2308166313355
 30
0.0
 40
10.23726888199896
100
AcDbArc
 50
71.34254553787812
 51
108.657454462129
  0
LINE
  5
38BA
330
18
100
AcDbEntity
  8
0
100
AcDbLine
 10
452.842256439021
 20
317.887016397101
 30
0.0
 11
452.842256439021
 21
319.1206569081669
 31
0.0
  0
LINE
  5
38BB
330
18
100
AcDbEntity
  8
0
100
AcDbLine
 10
456.8427169370213
 20
333.9300974893344
 30
0.0
 11
456.8422564390208
 21
329.1240018095081
 31
0.0
  0
LINE
  5
38BC
330
18
100
AcDbEntity
  8
0
100
AcDbLine
 10
456.8427169370213
 20
334.6210974893342
 30
0.0
 11
451.4887169370214
 21
334.6210974893342
 31
0.0
  0
LINE
  5
38BD
330
18
100
AcDbEntity
  8
0
100
AcDbLine
 10
450.2927169370214
 20
333.9300974893343
 30
0.0
 11
450.2927169370214
 21
329.1210974893345
 31
0.0
  0
LINE
  5
38BE
330
18
100
AcDbEntity
  8
0
100
AcDbLine
 10
439.1374123163051
 20
365.1351917657657
 30
0.0
 11
431.3864123163051
 21
365.1351917657659
 31
0.0
  0
ARC
  5
38BF
330
18
100
AcDbEntity
  8
0
100
AcDbCircle
 10
436.1364123163046
 20
350.3793916276815
 30
0.0
 40
14.54336692228284
100
AcDbArc
 50
70.93689288995287
 51
109.0631071100471
  0
LINE
  5
38C0
330
18
100
AcDbEntity
  8
0
100
AcDbLine
 10
440.3864123163022
 20
356.1251917657658
 30
0.0
 11
431.3864123163017
 21
356.1251917657657
 31
0.0
  0
ARC
  5
38C1
330
18
100
AcDbEntity
  8
0
100
AcDbCircle
 10
436.1364123163049
 20
370.8428162923497
 30
0.0
 40
14.54336692228284
100
AcDbArc
 50
250.9368928899528
 51
289.0631071100471
  0
LINE
  5
38C2
330
18
100
AcDbEntity
  8
0
100
AcDbLine
 10
442.3864123163022
 20
351.1251917657658
 30
0.0
 11
431.3864123163021
 21
351.1251917657658
 31
0.0
  0
LINE
  5
38C3
330
18
100
AcDbEntity
  8
0
100
AcDbLine
 10
439.1374123163051
 20
356.0870161542657
 30
0.0
 11
423.6354123163051
 21
356.0870161542657
 31
0.0
  0
LINE
  5
38C4
330
18
100
AcDbEntity
  8
0
100
AcDbLine
 10
447.4416657080735
 20
351.1251917657657
 30
0.0
 11
444.3864123163022
 21
351.1251917657657
 31
0.0
  0
LINE
  5
38C5
330
18
100
AcDbEntity
  8
0
100
AcDbLine
 10
442.3864123163022
 20
353.1251917657657
 30
0.0
 11
442.3864123163022
 21
354.1251917657658
 31
0.0
  0
ARC
  5
38C6
330
18
100
AcDbEntity
  8
0
100
AcDbCircle
 10
444.3864123163022
 20
353.1251917657657
 30
0.0
 40
2.0
100
AcDbArc
 50
180.0
 51
270.0
  0
ARC
  5
38C7
330
18
100
AcDbEntity
  8
0
100
AcDbCircle
 10
440.3864123163022
 20
354.1251917657658
 30
0.0
 40
2.0
100
AcDbArc
 50
0.000000000000007
 51
90.0
  0
LINE
  5
38C8
330
18
100
AcDbEntity
  8
0
100
AcDbLine
 10
440.8864123163058
 20
364.1251917657652
 30
0.0
 11
440.8864123163059
 21
357.0970161542661
 31
0.0
  0
LINE
  5
38C9
330
18
100
AcDbEntity
  8
0
100
AcDbLine
 10
440.8864123163051
 20
357.0970161542656
 30
0.0
 11
439.1374123163051
 21
356.0870161542657
 31
0.0
  0
LINE
  5
38CA
330
18
100
AcDbEntity
  8
0
100
AcDbLine
 10
440.8864123163051
 20
364.1251917657657
 30
0.0
 11
439.1374123163051
 21
365.1351917657657
 31
0.0
  0
ARC
  5
38CB
330
18
100
AcDbEntity
  8
0
100
AcDbCircle
 10
447.4416657080735
 20
347.1251917657657
 30
0.0
 40
4.0
100
AcDbArc
 50
8.530816189958022
 51
90.0
  0
LINE
  5
38CC
330
18
100
AcDbEntity
  8
0
100
AcDbLine
 10
420.3864123163022
 20
353.1251917657657
 30
0.0
 11
420.3864123163022
 21
354.1251917657658
 31
0.0
  0
ARC
  5
38CD
330
18
100
AcDbEntity
  8
0
100
AcDbCircle
 10
418.3864123163021
 20
353.1251917657657
 30
0.0
 40
2.0
100
AcDbArc
 50
270.0
 51
0.000000000000007
  0
LINE
  5
38CE
330
18
100
AcDbEntity
  8
0
100
AcDbLine
 10
421.8864123163053
 20
357.0970161542657
 30
0.0
 11
421.8864123163051
 21
364.1251917657657
 31
0.0
  0
ARC
  5
38CF
330
18
100
AcDbEntity
  8
0
100
AcDbCircle
 10
422.3864123163021
 20
354.1251917657658
 30
0.0
 40
2.0
100
AcDbArc
 50
90.0
 51
180.0
  0
LINE
  5
38D0
330
18
100
AcDbEntity
  8
0
100
AcDbLine
 10
421.8864123163051
 20
357.0970161542657
 30
0.0
 11
423.6354123163051
 21
356.0870161542657
 31
0.0
  0
LINE
  5
38D1
330
18
100
AcDbEntity
  8
0
100
AcDbLine
 10
421.8864123163051
 20
364.1251917657657
 30
0.0
 11
423.6354123163051
 21
365.1351917657657
 31
0.0
  0
LINE
  5
38D2
330
18
100
AcDbEntity
  8
0
100
AcDbLine
 10
423.6354123163051
 20
365.1351917657657
 30
0.0
 11
425.3762604532611
 21
365.1392228941062
 31
0.0
  0
LINE
  5
38D3
330
18
100
AcDbEntity
  8
0
100
AcDbLine
 10
431.3864123163052
 20
364.1251917657657
 30
0.0
 11
431.3864123163051
 21
357.0970161542657
 31
0.0
  0
LINE
  5
38D4
330
18
100
AcDbEntity
  8
0
100
AcDbLine
 10
420.3864123163022
 20
351.1251917657658
 30
0.0
 11
431.3864123163021
 21
351.1251917657658
 31
0.0
  0
LINE
  5
38D5
330
18
100
AcDbEntity
  8
0
100
AcDbLine
 10
425.3864123163051
 20
365.1351917657658
 30
0.0
 11
431.3864123163051
 21
365.1351917657659
 31
0.0
  0
ARC
  5
38D6
330
18
100
AcDbEntity
  8
0
100
AcDbCircle
 10
426.6364123163055
 20
350.3793916276817
 30
0.0
 40
14.54336692228284
100
AcDbArc
 50
70.93689288995287
 51
109.0631071100471
  0
LINE
  5
38D7
330
18
100
AcDbEntity
  8
0
100
AcDbLine
 10
422.3864123163021
 20
356.1251917657658
 30
0.0
 11
431.3864123163027
 21
356.1251917657657
 31
0.0
  0
ARC
  5
38D8
330
18
100
AcDbEntity
  8
0
100
AcDbCircle
 10
426.6364123163055
 20
370.8428162923498
 30
0.0
 40
14.54336692228284
100
AcDbArc
 50
250.9368928899528
 51
289.0631071100471
  0
ARC
  5
38D9
330
18
100
AcDbEntity
  8
0
100
AcDbCircle
 10
442.6254856047806
 20
378.4452552939205
 30
0.0
 40
17.05477871212588
100
AcDbArc
 50
44.63332587985327
 51
84.70952729441716
  0
ARC
  5
38DA
330
18
100
AcDbEntity
  8
0
100
AcDbCircle
 10
435.0867456097012
 20
336.643218469142
 30
0.0
 40
55.78384370513684
100
AcDbArc
 50
74.61244196552669
 51
105.3875580344733
  0
LINE
  5
38DB
330
18
100
AcDbEntity
  8
0
100
AcDbLine
 10
453.7619649501102
 20
377.4273813999158
 30
0.0
 11
431.3864123163052
 21
377.4273813999158
 31
0.0
  0
LINE
  5
38DC
330
18
100
AcDbEntity
  8
0
100
AcDbLine
 10
418.8864123163052
 20
373.4273813999158
 30
0.0
 11
443.8864123163052
 21
373.4273813999158
 31
0.0
  0
LINE
  5
38DD
330
18
100
AcDbEntity
  8
0
100
AcDbLine
 10
443.8864123163052
 20
373.4273813999158
 30
0.0
 11
443.8864123163052
 21
377.4273813999158
 31
0.0
  0
ARC
  5
38DE
330
18
100
AcDbEntity
  8
0
100
AcDbCircle
 10
452.3253862276034
 20
385.0850162528848
 30
0.0
 40
5.871778370748047
100
AcDbArc
 50
65.48292825112373
 51
114.5170717488762
  0
LINE
  5
38DF
330
18
100
AcDbEntity
  8
0
100
AcDbLine
 10
454.7619649501102
 20
390.4273813999158
 30
0.0
 11
454.7619649501101
 21
378.4273813999158
 31
0.0
  0
LINE
  5
38E0
330
18
100
AcDbEntity
  8
0
100
AcDbLine
 10
454.7619649501101
 20
378.4273813999158
 30
0.0
 11
453.7619649501102
 21
377.4273813999158
 31
0.0
  0
LINE
  5
38E1
330
18
100
AcDbEntity
  8
0
100
AcDbLine
 10
449.8888075050967
 20
390.4273813999158
 30
0.0
 11
449.8888075050967
 21
378.4273813999158
 31
0.0
  0
LINE
  5
38E2
330
18
100
AcDbEntity
  8
0
100
AcDbLine
 10
418.8864123163052
 20
373.4273813999158
 30
0.0
 11
418.8864123163052
 21
377.4273813999158
 31
0.0
  0
LINE
  5
38E3
330
18
100
AcDbEntity
  8
0
100
AcDbLine
 10
420.2846837143054
 20
390.4273813999158
 30
0.0
 11
420.2846837143055
 21
378.4273813999158
 31
0.0
  0
LINE
  5
38E4
330
18
100
AcDbEntity
  8
0
100
AcDbLine
 10
431.3864123163052
 20
395.4273813999158
 30
0.0
 11
444.1980217219036
 21
395.4273813999158
 31
0.0
  0
LINE
  5
38E5
330
18
100
AcDbEntity
  8
0
100
AcDbLine
 10
431.3864123163052
 20
395.4273813999158
 30
0.0
 11
418.8864123163051
 21
395.4273813999158
 31
0.0
  0
ARC
  5
38E6
330
18
100
AcDbEntity
  8
0
100
AcDbCircle
 10
788.4675239700001
 20
266.9251920085994
 30
0.0
 40
22.89760911873429
100
AcDbArc
 50
90.0
 51
270.0
  0
ARC
  5
38E7
330
18
100
AcDbEntity
  8
0
100
AcDbCircle
 10
784.767190676601
 20
336.643218469142
 30
0.0
 40
55.78384370513684
100
AcDbArc
 50
74.61244196552669
 51
105.3875580344733
  0
LINE
  5
38E8
330
18
100
AcDbEntity
  8
0
100
AcDbLine
 10
772.4122705782288
 20
351.1251917657657
 30
0.0
 11
775.46752397
 21
351.1251917657657
 31
0.0
  0
ARC
  5
38E9
330
18
100
AcDbEntity
  8
0
100
AcDbCircle
 10
777.2284506815216
 20
378.4452552939205
 30
0.0
 40
17.05477871212588
100
AcDbArc
 50
95.29047270558285
 51
135.3666741201467
  0
LINE
  5
38EA
330
18
100
AcDbEntity
  8
0
100
AcDbLine
 10
765.091971336192
 20
378.4273813999158
 30
0.0
 11
814.0907427811935
 21
378.4273813999158
 31
0.0
  0
LINE
  5
38EB
330
18
100
AcDbEntity
  8
0
100
AcDbLine
 10
766.0919713361921
 20
377.4273813999158
 30
0.0
 11
788.467523969997
 21
377.4273813999158
 31
0.0
  0
LINE
  5
38EC
330
18
100
AcDbEntity
  8
0
100
AcDbLine
 10
767.0116798472812
 20
318.1251920086019
 30
0.0
 11
788.4675239699999
 21
318.1251920086008
 31
0.0
  0
LINE
  5
38ED
330
18
100
AcDbEntity
  8
0
100
AcDbLine
 10
812.6891250490171
 20
329.1245490438549
 30
0.0
 11
764.2459228909829
 21
329.1245490438548
 31
0.0
  0
LINE
  5
38EE
330
18
100
AcDbEntity
  8
0
100
AcDbLine
 10
757.9675239700001
 20
307.8870163971011
 30
0.0
 11
788.4675239700001
 21
307.8870163971009
 31
0.0
  0
LINE
  5
38EF
330
18
100
AcDbEntity
  8
0
100
AcDbLine
 10
788.4675239700001
 20
317.8870163971012
 30
0.0
 11
755.9675239699969
 21
317.887016397101
 31
0.0
  0
LINE
  5
38F0
330
18
100
AcDbEntity
  8
0
100
AcDbLine
 10
819.1995747775687
 20
319.1206569081662
 30
0.0
 11
757.7354731624315
 21
319.1206569081671
 31
0.0
  0
LINE
  5
38F1
330
18
100
AcDbEntity
  8
0
100
AcDbLine
 10
788.4675239700001
 20
213.4251920085995
 30
0.0
 11
772.4675239700001
 21
213.4251920085994
 31
0.0
  0
LINE
  5
38F2
330
18
100
AcDbEntity
  8
0
100
AcDbLine
 10
770.1608179160436
 20
219.9251920085994
 30
0.0
 11
806.1410445966791
 21
219.9251920085994
 31
0.0
  0
LINE
  5
38F4
330
18
100
AcDbEntity
  8
0
100
AcDbLine
 10
408.3864123163022
 20
257.9251920085993
 30
0.0
 11
408.3864123163022
 21
266.9251920085994
 31
0.0
  0
ARC
  5
38F5
330
18
100
AcDbEntity
  8
0
100
AcDbCircle
 10
411.8864123163022
 20
258.9588131668256
 30
0.0
 40
4.0
100
AcDbArc
 50
180.0
 51
210.0000000000005
  0
ARC
  5
38F6
330
18
100
AcDbEntity
  8
0
100
AcDbCircle
 10
768.9675239699998
 20
258.9588131668256
 30
0.0
 40
4.0
100
AcDbArc
 50
180.0
 51
210.0000000000004
  0
LINE
  5
38F7
330
18
100
AcDbEntity
  8
0
100
AcDbLine
 10
765.4675239700001
 20
257.9251920085993
 30
0.0
 11
765.4675239700001
 21
266.9251920085994
 31
0.0
  0
ARC
  5
38F8
330
18
100
AcDbEntity
  8
0
100
AcDbCircle
 10
646.8525651030901
 20
259.9273762449985
 30
0.0
 40
3.0
100
AcDbArc
 50
270.0
 51
0.0
  0
LINE
  5
38F9
330
18
100
AcDbEntity
  8
0
100
AcDbLine
 10
649.8525382175061
 20
289.9232856052788
 30
0.0
 11
649.8525919886741
 21
243.9269633367786
 31
0.0
  0
LINE
  5
38FA
330
18
100
AcDbEntity
  8
0
100
AcDbLine
 10
651.8525773111274
 20
287.9232488497602
 30
0.0
 11
651.8525927177127
 21
245.9247881759667
 31
0.0
  0
ARC
  5
38FB
330
18
100
AcDbEntity
  8
0
100
AcDbCircle
 10
637.85256510309
 20
259.9273762449985
 30
0.0
 40
3.0
100
AcDbArc
 50
180.0
 51
270.0
  0
ARC
  5
38FC
330
18
100
AcDbEntity
  8
0
100
AcDbCircle
 10
561.8512256714366
 20
259.9250995742938
 30
0.0
 40
3.0
100
AcDbArc
 50
180.0
 51
270.0
  0
ARC
  5
38FD
330
18
100
AcDbEntity
  8
0
100
AcDbCircle
 10
570.8512256714367
 20
259.9250995742938
 30
0.0
 40
3.0
100
AcDbArc
 50
270.0
 51
0.0
  0
LINE
  5
38FE
330
18
100
AcDbEntity
  8
0
100
AcDbLine
 10
558.85264981211
 20
289.9232805460642
 30
0.0
 11
558.8498015307632
 21
243.9269186025234
 31
0.0
  0
LINE
  5
38FF
330
18
100
AcDbEntity
  8
0
100
AcDbLine
 10
556.852632831162
 20
287.9232652350266
 30
0.0
 11
556.8526171914633
 21
245.9248436438941
 31
0.0
  0
LINE
  5
3900
330
18
100
AcDbEntity
  8
0
100
AcDbLine
 10
606.3526285063254
 20
213.4273813999157
 30
0.0
 11
622.3526285063254
 21
213.4273813999158
 31
0.0
  0
LINE
  5
3901
330
18
100
AcDbEntity
  8
0
100
AcDbLine
 10
614.3526285063254
 20
210.4273813999158
 30
0.0
 11
598.2256118525327
 21
210.4273813999157
 31
0.0
  0
LINE
  5
3902
330
18
100
AcDbEntity
  8
0
100
AcDbLine
 10
623.9937056725112
 20
219.8992516638803
 30
0.0
 11
589.164453442255
 21
219.8992516638803
 31
0.0
  0
INSERT
  5
3903
330
18
100
AcDbEntity
  8
0
100
AcDbBlockReference
  2
DT-ARROW
 10
616.1613332862174
 20
249.9655570114144
 30
0.0
 41
0.2000000000000455
 42
0.2000000000000455
 43
0.2
  0
LINE
  5
3904
330
18
100
AcDbEntity
  8
0
100
AcDbLine
 10
410.3864123163023
 20
252.4850926084542
 30
0.0
 11
410.3864123163023
 21
221.7981753548067
 31
0.0
  0
ARC
  5
3905
330
18
100
AcDbEntity
  8
0
100
AcDbCircle
 10
415.3864123163022
 20
215.4251920085994
 30
0.0
 40
2.0
100
AcDbArc
 50
180.0
 51
270.0
  0
ARC
  5
3906
330
18
100
AcDbEntity
  8
0
100
AcDbCircle
 10
412.3864123163023
 20
221.7981753548067
 30
0.0
 40
2.0
100
AcDbArc
 50
180.0
 51
255.5224878140696
  0
LINE
  5
3907
330
18
100
AcDbEntity
  8
0
100
AcDbLine
 10
413.3864123163021
 20
215.4251920085995
 30
0.0
 11
413.3864123163021
 21
217.9251920085994
 31
0.0
  0
ARC
  5
3908
330
18
100
AcDbEntity
  8
0
100
AcDbCircle
 10
411.3864123163022
 20
217.9251920085994
 30
0.0
 40
2.0
100
AcDbArc
 50
0.000000000000007
 51
75.52248781406975
  0
LINE
  5
3909
330
18
100
AcDbEntity
  8
0
100
AcDbLine
 10
409.8505139314401
 20
254.4850926084542
 30
0.0
 11
408.4223107011645
 21
256.9588131668256
 31
0.0
  0
LINE
  5
390A
330
18
100
AcDbEntity
  8
0
100
AcDbLine
 10
410.7878564602637
 20
256.9251920085993
 30
0.0
 11
409.3864123163021
 21
256.9251920085993
 31
0.0
  0
ARC
  5
390B
330
18
100
AcDbEntity
  8
0
100
AcDbCircle
 10
406.3864123163023
 20
252.4850926084542
 30
0.0
 40
4.0
100
AcDbArc
 50
0.000000000000007
 51
30.00000000000055
  0
ARC
  5
390C
330
18
100
AcDbEntity
  8
0
100
AcDbCircle
 10
409.3864123163021
 20
257.9251920085993
 30
0.0
 40
1.0
100
AcDbArc
 50
180.0
 51
270.0
  0
LINE
  5
390D
330
18
100
AcDbEntity
  8
0
100
AcDbLine
 10
570.8512256714367
 20
256.9250995742939
 30
0.0
 11
561.8512256714366
 21
256.9250995742939
 31
0.0
  0
LINE
  5
390E
330
18
100
AcDbEntity
  8
0
100
AcDbLine
 10
587.1810556310716
 20
220.2975873427114
 30
0.0
 11
564.7234858288619
 21
242.755157144921
 31
0.0
  0
LINE
  5
390F
330
18
100
AcDbEntity
  8
0
100
AcDbLine
 10
564.8623584290838
 20
243.9649264000026
 30
0.0
 11
584.9035849287141
 21
243.9649264000026
 31
0.0
  0
LINE
  5
3910
330
18
100
AcDbEntity
  8
0
100
AcDbLine
 10
556.8526171922767
 20
245.9270274502989
 30
0.0
 11
558.8526002056103
 21
243.9269184292181
 31
0.0
  0
LINE
  5
3911
330
18
100
AcDbEntity
  8
0
100
AcDbLine
 10
558.8526002056103
 20
243.9269184292181
 30
0.0
 11
561.895306400344
 21
243.9267300125058
 31
0.0
  0
ARC
  5
3912
330
18
100
AcDbEntity
  8
0
100
AcDbCircle
 10
561.8950587041158
 20
239.9267300201749
 30
0.0
 40
4.0
100
AcDbArc
 50
45.0
 51
89.99645201287274
  0
LINE
  5
3913
330
18
100
AcDbEntity
  8
0
100
AcDbLine
 10
585.3526285063254
 20
249.4488097143665
 30
0.0
 11
585.3526285063254
 21
224.2198962486427
 31
0.0
  0
ARC
  5
3914
330
18
100
AcDbEntity
  8
0
100
AcDbCircle
 10
584.3526285063254
 20
217.4691602179653
 30
0.0
 40
4.0
100
AcDbArc
 50
0.0
 51
45.0
  0
ARC
  5
3915
330
18
100
AcDbEntity
  8
0
100
AcDbCircle
 10
590.3526285063255
 20
215.4273813999158
 30
0.0
 40
2.0
100
AcDbArc
 50
180.0
 51
270.0
  0
ARC
  5
3916
330
18
100
AcDbEntity
  8
0
100
AcDbCircle
 10
594.3526285063255
 20
211.4273813999158
 30
0.0
 40
2.0
100
AcDbArc
 50
14.47751218592945
 51
90.0
  0
ARC
  5
3917
330
18
100
AcDbEntity
  8
0
100
AcDbCircle
 10
598.2256118525327
 20
212.4273813999157
 30
0.0
 40
2.0
100
AcDbArc
 50
194.4775121859294
 51
270.0
  0
LINE
  5
3918
330
18
100
AcDbEntity
  8
0
100
AcDbLine
 10
588.3526285063254
 20
215.4273813999158
 30
0.0
 11
588.3526285063254
 21
217.4691602179652
 31
0.0
  0
LINE
  5
3919
330
18
100
AcDbEntity
  8
0
100
AcDbLine
 10
606.3526285063254
 20
213.4273813999158
 30
0.0
 11
590.3526285063255
 21
213.4273813999158
 31
0.0
  0
ARC
  5
391A
330
18
100
AcDbEntity
  8
0
100
AcDbCircle
 10
585.8526378063437
 20
257.6545649722022
 30
0.0
 40
4.0
100
AcDbArc
 50
179.9995028430761
 51
210.0000000000004
  0
LINE
  5
391B
330
18
100
AcDbEntity
  8
0
100
AcDbLine
 10
584.8167301214631
 20
251.4488097143665
 30
0.0
 11
582.388536191206
 21
255.6545649722022
 31
0.0
  0
ARC
  5
391C
330
18
100
AcDbEntity
  8
0
100
AcDbCircle
 10
581.3526285063254
 20
249.4488097143665
 30
0.0
 40
4.0
100
AcDbArc
 50
0.0
 51
30.00000000000054
  0
LINE
  5
391D
330
18
100
AcDbEntity
  8
0
100
AcDbLine
 10
649.8525919886741
 20
243.9269633367786
 30
0.0
 11
629.8526079184499
 21
243.9267574501595
 31
0.0
  0
LINE
  5
391E
330
18
100
AcDbEntity
  8
0
100
AcDbLine
 10
631.3526285063254
 20
221.9273813999158
 30
0.0
 11
631.3526285063254
 21
237.9273813999158
 31
0.0
  0
LINE
  5
391F
330
18
100
AcDbEntity
  8
0
100
AcDbLine
 10
627.3526285063256
 20
249.4488097143667
 30
0.0
 11
627.3526285063249
 21
223.0582163595371
 31
0.0
  0
LINE
  5
3920
330
18
100
AcDbEntity
  8
0
100
AcDbLine
 10
629.3526285063254
 20
219.9273813999158
 30
0.0
 11
626.3526285063254
 21
219.9273813999158
 31
0.0
  0
LINE
  5
3921
330
18
100
AcDbEntity
  8
0
100
AcDbLine
 10
624.3526285063254
 20
215.4273813999158
 30
0.0
 11
624.3526285063254
 21
217.9273813999159
 31
0.0
  0
ARC
  5
3922
330
18
100
AcDbEntity
  8
0
100
AcDbCircle
 10
626.3526285063254
 20
217.9273813999158
 30
0.0
 40
2.0
100
AcDbArc
 50
90.0
 51
179.9999999999934
  0
ARC
  5
3923
330
18
100
AcDbEntity
  8
0
100
AcDbCircle
 10
623.3526285063249
 20
223.0582163595372
 30
0.0
 40
4.0
100
AcDbArc
 50
300.7027855757851
 51
359.9999999999934
  0
ARC
  5
3924
330
18
100
AcDbEntity
  8
0
100
AcDbCircle
 10
622.3526285063254
 20
215.4273813999158
 30
0.0
 40
2.0
100
AcDbArc
 50
270.0
 51
0.0
  0
ARC
  5
3925
330
18
100
AcDbEntity
  8
0
100
AcDbCircle
 10
614.3526285063254
 20
212.4273813999158
 30
0.0
 40
2.0
100
AcDbArc
 50
270.0
 51
345.5224878140705
  0
ARC
  5
3926
330
18
100
AcDbEntity
  8
0
100
AcDbCircle
 10
618.2256118525327
 20
211.4273813999158
 30
0.0
 40
2.0
100
AcDbArc
 50
90.0
 51
165.5224878140705
  0
ARC
  5
3927
330
18
100
AcDbEntity
  8
0
100
AcDbCircle
 10
629.3526285063254
 20
221.9273813999158
 30
0.0
 40
2.0
100
AcDbArc
 50
270.0
 51
0.0
  0
LINE
  5
3928
330
18
100
AcDbEntity
  8
0
100
AcDbLine
 10
627.8885268911878
 20
251.4488097143666
 30
0.0
 11
630.3167208214448
 21
255.6545649722022
 31
0.0
  0
ARC
  5
3929
330
18
100
AcDbEntity
  8
0
100
AcDbCircle
 10
629.8526285063254
 20
241.8960083665127
 30
0.0
 40
2.0
100
AcDbArc
 50
180.0
 51
262.8192442185418
  0
ARC
  5
392A
330
18
100
AcDbEntity
  8
0
100
AcDbCircle
 10
629.8526548672031
 20
241.9267310898032
 30
0.0
 40
2.00002636090732
100
AcDbArc
 50
90.00134499252087
 51
179.9996871991428
  0
ARC
  5
392B
330
18
100
AcDbEntity
  8
0
100
AcDbCircle
 10
631.3526285063254
 20
249.4488097143666
 30
0.0
 40
4.0
100
AcDbArc
 50
149.9999999999994
 51
180.0
  0
ARC
  5
392C
330
18
100
AcDbEntity
  8
0
100
AcDbCircle
 10
626.8526192063071
 20
257.6545649722022
 30
0.0
 40
4.0
100
AcDbArc
 50
329.9999999999994
 51
0.0004971569238984
  0
ARC
  5
392D
330
18
100
AcDbEntity
  8
0
100
AcDbCircle
 10
629.3526285063254
 20
237.9273813999158
 30
0.0
 40
2.0
100
AcDbArc
 50
0.0
 51
82.81924421854185
  0
LINE
  5
392E
330
18
100
AcDbEntity
  8
0
100
AcDbLine
 10
646.8525651030901
 20
256.9273762449985
 30
0.0
 11
637.85256510309
 21
256.9273762449985
 31
0.0
  0
LINE
  5
392F
330
18
100
AcDbEntity
  8
0
100
AcDbLine
 10
651.852592716906
 20
245.9269869918872
 30
0.0
 11
649.8525919886741
 21
243.9269633367786
 31
0.0
  0
LINE
  5
3930
330
18
100
AcDbEntity
  8
0
100
AcDbLine
 10
767.46752397
 20
252.4850926084542
 30
0.0
 11
767.46752397
 21
221.9251920085994
 31
0.0
  0
LINE
  5
3931
330
18
100
AcDbEntity
  8
0
100
AcDbLine
 10
770.4675239700001
 20
215.4251920085995
 30
0.0
 11
770.4675239700001
 21
218.0522086623919
 31
0.0
  0
ARC
  5
3932
330
18
100
AcDbEntity
  8
0
100
AcDbCircle
 10
772.4675239700001
 20
215.4251920085994
 30
0.0
 40
2.0
100
AcDbArc
 50
180.0
 51
270.0
  0
ARC
  5
3933
330
18
100
AcDbEntity
  8
0
100
AcDbCircle
 10
769.4675239700001
 20
221.9251920085994
 30
0.0
 40
2.0
100
AcDbArc
 50
180.0
 51
255.5224878140696
  0
ARC
  5
3934
330
18
100
AcDbEntity
  8
0
100
AcDbCircle
 10
768.4675239700001
 20
218.0522086623919
 30
0.0
 40
2.0
100
AcDbArc
 50
0.0
 51
75.52248781406973
  0
LINE
  5
3935
330
18
100
AcDbEntity
  8
0
100
AcDbLine
 10
767.8689681139614
 20
256.9251920085993
 30
0.0
 11
766.4675239700001
 21
256.9251920085993
 31
0.0
  0
ARC
  5
3936
330
18
100
AcDbEntity
  8
0
100
AcDbCircle
 10
766.4675239700001
 20
257.9251920085993
 30
0.0
 40
1.0
100
AcDbArc
 50
180.0
 51
270.0
  0
ARC
  5
3937
330
18
100
AcDbEntity
  8
0
100
AcDbCircle
 10
763.4675239700001
 20
252.4850926084542
 30
0.0
 40
4.0
100
AcDbArc
 50
0.0
 51
29.99999999999164
  0
LINE
  5
3938
330
18
100
AcDbEntity
  8
0
100
AcDbLine
 10
766.9316255851377
 20
254.4850926084541
 30
0.0
 11
765.5034223548621
 21
256.9588131668256
 31
0.0
  0
ARC
  5
3939
330
18
100
AcDbEntity
  8
0
100
AcDbCircle
 10
606.2891279087416
 20
505.016751803579
 30
0.0
 40
33.0
100
AcDbArc
 50
251.0146131537343
 51
288.9853868462657
  0
ARC
  5
393A
330
18
100
AcDbEntity
  8
0
100
AcDbCircle
 10
606.2891279087389
 20
354.6572248190776
 30
0.0
 40
37.76983735520119
100
AcDbArc
 50
71.27247501907834
 51
89.99999999999349
  0
LINE
  5
393B
330
18
100
AcDbEntity
  8
0
100
AcDbLine
 10
606.2891279087416
 20
395.4273813999158
 30
0.0
 11
618.7891279087417
 21
395.4273813999158
 31
0.0
  0
LINE
  5
393C
330
18
100
AcDbEntity
  8
0
100
AcDbLine
 10
630.9123467199382
 20
377.4273813999158
 30
0.0
 11
606.2891279087416
 21
377.4273813999158
 31
0.0
  0
LINE
  5
393D
330
18
100
AcDbEntity
  8
0
100
AcDbLine
 10
580.6659090975451
 20
378.4273813999158
 30
0.0
 11
631.9123467199382
 21
378.4273813999158
 31
0.0
  0
LINE
  5
393E
330
18
100
AcDbEntity
  8
0
100
AcDbLine
 10
617.2891279087417
 20
351.1212996300769
 30
0.0
 11
606.2891279087417
 21
351.1212996300769
 31
0.0
  0
ARC
  5
393F
330
18
100
AcDbEntity
  8
0
100
AcDbCircle
 10
606.2891278913964
 20
375.8649610278544
 30
0.0
 40
19.51610905408855
100
AcDbArc
 50
253.6801846146672
 51
286.3198153853327
  0
ARC
  5
3940
330
18
100
AcDbEntity
  8
0
100
AcDbCircle
 10
606.2891278913964
 20
345.3954225036773
 30
0.0
 40
19.51610905408855
100
AcDbArc
 50
73.68018461466724
 51
106.3198153853327
  0
LINE
  5
3941
330
18
100
AcDbEntity
  8
0
100
AcDbLine
 10
615.5101278913963
 20
356.125191765766
 30
0.0
 11
597.0681278913964
 21
356.125191765766
 31
0.0
  0
LINE
  5
3942
330
18
100
AcDbEntity
  8
0
100
AcDbLine
 10
615.5101278913963
 20
365.1351917657659
 30
0.0
 11
597.0681278913964
 21
365.1351917657659
 31
0.0
  0
LINE
  5
3943
330
18
100
AcDbEntity
  8
0
100
AcDbLine
 10
618.7891279087417
 20
373.4273813999158
 30
0.0
 11
593.7891279087417
 21
373.4273813999158
 31
0.0
  0
LINE
  5
3944
330
18
100
AcDbEntity
  8
0
100
AcDbLine
 10
606.3526285063254
 20
303.9273813999162
 30
0.0
 11
621.8526285063254
 21
303.9273813999162
 31
0.0
  0
LINE
  5
3945
330
18
100
AcDbEntity
  8
0
100
AcDbLine
 10
637.3526285063254
 20
307.8892057884174
 30
0.0
 11
606.3526285063254
 21
307.9273813999157
 31
0.0
  0
LINE
  5
3946
330
18
100
AcDbEntity
  8
0
100
AcDbLine
 10
636.2890965459845
 20
318.1251920086006
 30
0.0
 11
636.1744297525468
 21
318.1251920086006
 31
0.0
  0
LINE
  5
3947
330
18
100
AcDbEntity
  8
0
100
AcDbLine
 10
575.5570771011732
 20
319.1206569081657
 30
0.0
 11
637.0211787163103
 21
319.1206569081657
 31
0.0
  0
INSERT
  5
3948
330
18
100
AcDbEntity
  8
0
100
AcDbBlockReference
  2
DT-TLV
 10
606.2543843129557
 20
266.1877570114145
 30
0.0
 41
0.3999999999999772
 42
0.3999999999999772
 43
0.4
  0
LINE
  5
3949
330
18
100
AcDbEntity
  8
0
100
AcDbLine
 10
621.8526285063254
 20
283.9273813999162
 30
0.0
 11
590.8526285063254
 21
283.9273813999162
 31
0.0
  0
LINE
  5
394A
330
18
100
AcDbEntity
  8
0
100
AcDbLine
 10
638.8526285063254
 20
317.9273813999158
 30
0.0
 11
606.3526285063254
 21
317.9273813999157
 31
0.0
  0
LINE
  5
394B
330
18
100
AcDbEntity
  8
0
100
AcDbLine
 10
573.2957540659246
 20
329.1206569081658
 30
0.0
 11
639.2825017515587
 21
329.1206569081658
 31
0.0
  0
LINE
  5
394C
330
18
100
AcDbEntity
  8
0
100
AcDbLine
 10
600.2898321645294
 20
365.1351917657659
 30
0.0
 11
600.2898321645298
 21
373.4273813999158
 31
0.0
  0
ARC
  5
394D
330
18
100
AcDbEntity
  8
0
100
AcDbCircle
 10
398.8864123163054
 20
315.8870163971009
 30
0.0
 40
2.0
100
AcDbArc
 50
90.0
 51
180.0
  0
LINE
  5
394E
330
18
100
AcDbEntity
  8
0
100
AcDbLine
 10
399.3864123163021
 20
301.8870163971009
 30
0.0
 11
399.3864123163021
 21
285.8870163971009
 31
0.0
  0
LINE
  5
394F
330
18
100
AcDbEntity
  8
0
100
AcDbLine
 10
402.8864123163022
 20
304.0824812966663
 30
0.0
 11
402.8864123163022
 21
283.4229147819634
 31
0.0
  0
ARC
  5
3950
330
18
100
AcDbEntity
  8
0
100
AcDbCircle
 10
401.1910562966453
 20
281.8917897420058
 30
0.0
 40
2.0
100
AcDbArc
 50
22.50606706040418
 51
87.20061751934521
  0
ARC
  5
3951
330
18
100
AcDbEntity
  8
0
100
AcDbCircle
 10
404.8864123163022
 20
283.4229147819634
 30
0.0
 40
2.0
100
AcDbArc
 50
180.0
 51
209.9999999999916
  0
ARC
  5
3952
330
18
100
AcDbEntity
  8
0
100
AcDbCircle
 10
401.3864123163021
 20
285.8870163971009
 30
0.0
 40
2.0
100
AcDbArc
 50
180.0
 51
267.2006175193452
  0
LINE
  5
3953
330
18
100
AcDbEntity
  8
0
100
AcDbLine
 10
408.3864123163022
 20
266.9251920085994
 30
0.0
 11
408.3864123163022
 21
275.9251920085994
 31
0.0
  0
LINE
  5
3954
330
18
100
AcDbEntity
  8
0
100
AcDbLine
 10
407.886412316302
 20
273.154965589532
 30
0.0
 11
407.8864123163022
 21
258.9588131668256
 31
0.0
  0
POINT
  5
3955
330
18
100
AcDbEntity
  8
0
  6
BYBLOCK
100
AcDbPoint
 10
407.8864123163022
 20
266.9251920085994
 30
0.0
  0
POINT
  5
3956
330
18
100
AcDbEntity
  8
0
  6
BYBLOCK
100
AcDbPoint
 10
407.8864123163051
 20
266.9251920085994
 30
0.0
  0
LINE
  5
3957
330
18
100
AcDbEntity
  8
0
100
AcDbLine
 10
409.3864123163021
 20
276.9251920085994
 30
0.0
 11
410.7878564602637
 21
276.9251920085994
 31
0.0
  0
ARC
  5
3958
330
18
100
AcDbEntity
  8
0
100
AcDbCircle
 10
409.3864123163021
 20
275.9251920085994
 30
0.0
 40
1.0
100
AcDbArc
 50
90.0
 51
180.0
  0
ARC
  5
3959
330
18
100
AcDbEntity
  8
0
100
AcDbCircle
 10
403.8864123163022
 20
273.1549655895319
 30
0.0
 40
4.0
100
AcDbArc
 50
0.000000000000007
 51
29.99999999999165
  0
LINE
  5
395A
330
18
100
AcDbEntity
  8
0
100
AcDbLine
 10
405.1453195396512
 20
282.8899158281893
 30
0.0
 11
412.6837782734852
 21
282.8899158281894
 31
0.0
  0
LINE
  5
395B
330
18
100
AcDbEntity
  8
0
100
AcDbLine
 10
407.3505139314399
 20
275.1549655895319
 30
0.0
 11
403.1543615087334
 21
282.4229147819634
 31
0.0
  0
ARC
  5
395C
330
18
100
AcDbEntity
  8
0
100
AcDbCircle
 10
399.8864123163053
 20
310.8870163971009
 30
0.0
 40
3.0
100
AcDbArc
 50
180.0
 51
270.0
  0
ARC
  5
395D
330
18
100
AcDbEntity
  8
0
100
AcDbCircle
 10
400.8864123163021
 20
305.8870163971009
 30
0.0
 40
2.0
100
AcDbArc
 50
58.52826099327178
 51
90.0
  0
ARC
  5
395E
330
18
100
AcDbEntity
  8
0
100
AcDbCircle
 10
400.8864123163021
 20
305.8556433636979
 30
0.0
 40
2.0
100
AcDbArc
 50
277.1807557814581
 51
313.9464451536504
  0
LINE
  5
395F
330
18
100
AcDbEntity
  8
0
100
AcDbLine
 10
401.9305681935894
 20
304.7594812966665
 30
0.0
 11
401.9305681935894
 21
307.8870163971011
 31
0.0
  0
LINE
  5
3961
330
18
100
AcDbEntity
  8
0
100
AcDbLine
 10
402.8864123163052
 20
303.8870163971009
 30
0.0
 11
402.8864123163052
 21
303.8870163971009
 31
0.0
  0
LINE
  5
3962
330
18
100
AcDbEntity
  8
0
100
AcDbLine
 10
402.6075681935895
 20
304.0824812966663
 30
0.0
 11
401.9305681935894
 21
304.7594812966665
 31
0.0
  0
LINE
  5
3963
330
18
100
AcDbEntity
  8
0
100
AcDbLine
 10
400.8864123163021
 20
303.8870163971009
 30
0.0
 11
400.8864123163021
 21
303.8870163971009
 31
0.0
  0
ARC
  5
3964
330
18
100
AcDbEntity
  8
0
100
AcDbCircle
 10
401.3864123163021
 20
301.8870163971009
 30
0.0
 40
2.0
100
AcDbArc
 50
97.18075578145816
 51
180.0
  0
LINE
  5
3965
330
18
100
AcDbEntity
  8
0
100
AcDbLine
 10
400.8864123163022
 20
307.8870163971009
 30
0.0
 11
399.8864123163052
 21
307.8870163971009
 31
0.0
  0
LINE
  5
3966
330
18
100
AcDbEntity
  8
0
100
AcDbLine
 10
409.9305681935894
 20
307.8870163971011
 30
0.0
 11
409.9305681935894
 21
304.7594812966665
 31
0.0
  0
LINE
  5
3968
330
18
100
AcDbEntity
  8
0
100
AcDbLine
 10
409.9305681935894
 20
304.7594812966665
 30
0.0
 11
409.2535681935896
 21
304.0824812966663
 31
0.0
  0
LINE
  5
3969
330
18
100
AcDbEntity
  8
0
100
AcDbLine
 10
401.9305681935894
 20
304.7594812966665
 30
0.0
 11
409.9305681935894
 21
304.7594812966665
 31
0.0
  0
LINE
  5
396A
330
18
100
AcDbEntity
  8
0
100
AcDbLine
 10
409.2535681935896
 20
304.0824812966663
 30
0.0
 11
402.6075681935895
 21
304.0824812966663
 31
0.0
  0
LINE
  5
396B
330
18
100
AcDbEntity
  8
0
100
AcDbLine
 10
396.8864123163053
 20
315.887016397101
 30
0.0
 11
396.8864123163053
 21
310.8870163971009
 31
0.0
  0
LINE
  5
396C
330
18
100
AcDbEntity
  8
0
100
AcDbLine
 10
409.6407120475661
 20
334.5672866735481
 30
0.0
 11
411.3754140542172
 21
347.7185570695703
 31
0.0
  0
ARC
  5
396D
330
18
100
AcDbEntity
  8
0
100
AcDbCircle
 10
398.393038473485
 20
320.6206569081666
 30
0.0
 40
1.5
100
AcDbArc
 50
180.0
 51
270.0
  0
ARC
  5
396E
330
18
100
AcDbEntity
  8
0
100
AcDbCircle
 10
398.3930384734852
 20
327.6206569081664
 30
0.0
 40
1.5
100
AcDbArc
 50
90.0
 51
180.0
  0
ARC
  5
396F
330
18
100
AcDbEntity
  8
0
100
AcDbCircle
 10
400.6543615087336
 20
317.1206569081661
 30
0.0
 40
2.0
100
AcDbArc
 50
50.34946452559376
 51
90.0
  0
LINE
  5
3970
330
18
100
AcDbEntity
  8
0
100
AcDbLine
 10
401.3864436790592
 20
318.1251920086006
 30
0.0
 11
401.9305681935894
 21
318.1251920086006
 31
0.0
  0
LINE
  5
3972
330
18
100
AcDbEntity
  8
0
100
AcDbLine
 10
401.9305681935894
 20
317.887016397101
 30
0.0
 11
401.9305681935894
 21
319.1206569081662
 31
0.0
  0
LINE
  5
3973
330
18
100
AcDbEntity
  8
0
100
AcDbLine
 10
401.3864436790592
 20
317.887016397101
 30
0.0
 11
401.3864436790592
 21
318.1251920085994
 31
0.0
  0
LINE
  5
3974
330
18
100
AcDbEntity
  8
0
100
AcDbLine
 10
398.393038473485
 20
319.1206569081666
 30
0.0
 11
400.6543615087336
 21
319.1206569081662
 31
0.0
  0
LINE
  5
3975
330
18
100
AcDbEntity
  8
0
100
AcDbLine
 10
405.9310286915899
 20
334.6210974893342
 30
0.0
 11
400.57702869159
 21
334.6210974893342
 31
0.0
  0
ARC
  5
3976
330
18
100
AcDbEntity
  8
0
100
AcDbCircle
 10
402.6560286915899
 20
324.2308166313355
 30
0.0
 40
10.23726888199896
100
AcDbArc
 50
71.34254553787812
 51
108.657454462129
  0
LINE
  5
3977
330
18
100
AcDbEntity
  8
0
100
AcDbLine
 10
405.93102869159
 20
333.9300974893344
 30
0.0
 11
405.9331596009067
 21
329.1240029584773
 31
0.0
  0
LINE
  5
3978
330
18
100
AcDbEntity
  8
0
100
AcDbLine
 10
399.3810286915899
 20
329.1210974893342
 30
0.0
 11
399.38102869159
 21
333.9300974893343
 31
0.0
  0
LINE
  5
3979
330
18
100
AcDbEntity
  8
0
100
AcDbLine
 10
400.57702869159
 20
334.6210974893342
 30
0.0
 11
399.38102869159
 21
333.9300974893343
 31
0.0
  0
LINE
  5
397A
330
18
100
AcDbEntity
  8
0
100
AcDbLine
 10
409.9305681935894
 20
317.887016397101
 30
0.0
 11
409.9305681935894
 21
319.1206569081664
 31
0.0
  0
LINE
  5
397C
330
18
100
AcDbEntity
  8
0
100
AcDbLine
 10
412.4810286915899
 20
333.9300974893343
 30
0.0
 11
412.4810286915899
 21
329.1210974893345
 31
0.0
  0
LINE
  5
397D
330
18
100
AcDbEntity
  8
0
100
AcDbLine
 10
411.2850286915898
 20
334.6210974893342
 30
0.0
 11
412.4810286915899
 21
333.9300974893343
 31
0.0
  0
LINE
  5
397E
330
18
100
AcDbEntity
  8
0
100
AcDbLine
 10
398.3864123163021
 20
329.1206569081664
 30
0.0
 11
407.1648112372851
 21
329.1245490438549
 31
0.0
  0
ARC
  5
397F
330
18
100
AcDbEntity
  8
0
100
AcDbCircle
 10
409.2060286915899
 20
324.2308166313355
 30
0.0
 40
10.23726888199896
100
AcDbArc
 50
71.34254553787091
 51
108.6574544621218
  0
LINE
  5
3980
330
18
100
AcDbEntity
  8
0
100
AcDbLine
 10
405.9310286915899
 20
334.6210974893342
 30
0.0
 11
411.2850286915898
 21
334.6210974893342
 31
0.0
  0
LINE
  5
3981
330
18
100
AcDbEntity
  8
0
100
AcDbLine
 10
396.893038473485
 20
320.6206569081666
 30
0.0
 11
396.8930384734852
 21
327.6206569081664
 31
0.0
  0
ARC
  5
3982
330
18
100
AcDbEntity
  8
0
100
AcDbCircle
 10
415.3311589245309
 20
347.1251917657657
 30
0.0
 40
4.0
100
AcDbArc
 50
90.0
 51
171.4691838100419
  0
ARC
  5
3983
330
18
100
AcDbEntity
  8
0
100
AcDbCircle
 10
573.8774752456318
 20
315.9273813999158
 30
0.0
 40
2.0
100
AcDbArc
 50
90.0
 51
180.0
  0
LINE
  5
3984
330
18
100
AcDbEntity
  8
0
100
AcDbLine
 10
561.8512256714366
 20
276.9250995742938
 30
0.0
 11
570.8512256714367
 21
276.9250995742938
 31
0.0
  0
LINE
  5
3985
330
18
100
AcDbEntity
  8
0
100
AcDbLine
 10
574.8526292365801
 20
289.9232844407513
 30
0.0
 11
558.85264981211
 21
289.9232805460642
 31
0.0
  0
ARC
  5
3986
330
18
100
AcDbEntity
  8
0
100
AcDbCircle
 10
561.8512256714366
 20
273.9250995742938
 30
0.0
 40
3.0
100
AcDbArc
 50
90.0
 51
180.0
  0
LINE
  5
3987
330
18
100
AcDbEntity
  8
0
100
AcDbLine
 10
558.8512256714365
 20
273.9250995742938
 30
0.0
 11
558.8512256714365
 21
259.9250995742938
 31
0.0
  0
LINE
  5
3988
330
18
100
AcDbEntity
  8
0
100
AcDbLine
 10
558.85264981211
 20
289.9232805460642
 30
0.0
 11
556.852632831162
 21
287.9232652350265
 31
0.0
  0
ARC
  5
3989
330
18
100
AcDbEntity
  8
0
100
AcDbCircle
 10
614.8221656672302
 20
310.9620484320839
 30
0.0
 40
39.74010723793169
100
AcDbArc
 50
213.6987499964722
 51
243.2787292577012
  0
LINE
  5
398A
330
18
100
AcDbEntity
  8
0
100
AcDbLine
 10
589.8526285063254
 20
302.9273813999163
 30
0.0
 11
589.8526285063254
 21
284.9273813999162
 31
0.0
  0
LINE
  5
398B
330
18
100
AcDbEntity
  8
0
100
AcDbLine
 10
573.8512256714367
 20
273.9250995742938
 30
0.0
 11
573.8512256714367
 21
259.9250995742939
 31
0.0
  0
ARC
  5
398C
330
18
100
AcDbEntity
  8
0
100
AcDbCircle
 10
570.8512256714367
 20
273.9250995742938
 30
0.0
 40
3.0
100
AcDbArc
 50
0.0
 51
90.0
  0
ARC
  5
398D
330
18
100
AcDbEntity
  8
0
100
AcDbCircle
 10
590.8526285063254
 20
284.9273813999162
 30
0.0
 40
1.0
100
AcDbArc
 50
180.0
 51
270.0
  0
LINE
  5
398E
330
18
100
AcDbEntity
  8
0
100
AcDbLine
 10
606.3526285063254
 20
307.9273813999158
 30
0.0
 11
576.4733364255472
 21
307.9273813999158
 31
0.0
  0
LINE
  5
398F
330
18
100
AcDbEntity
  8
0
100
AcDbLine
 10
574.8774752456319
 20
307.8892057884175
 30
0.0
 11
575.8526285063254
 21
307.8892057884175
 31
0.0
  0
ARC
  5
3990
330
18
100
AcDbEntity
  8
0
100
AcDbCircle
 10
575.8526285063254
 20
305.8892057884175
 30
0.0
 40
2.0
100
AcDbArc
 50
74.00229933075904
 51
90.0
  0
ARC
  5
3991
330
18
100
AcDbEntity
  8
0
100
AcDbCircle
 10
574.8526285063254
 20
292.9232844407512
 30
0.0
 40
3.0
100
AcDbArc
 50
270.0000139468346
 51
0.0
  0
LINE
  5
3992
330
18
100
AcDbEntity
  8
0
100
AcDbLine
 10
577.8526285063255
 20
292.9232844407512
 30
0.0
 11
577.8526285063255
 21
304.082040715498
 31
0.0
  0
LINE
  5
3993
330
18
100
AcDbEntity
  8
0
100
AcDbLine
 10
571.8774752456319
 20
315.9273813999158
 30
0.0
 11
571.8774752456316
 21
310.8892057884176
 31
0.0
  0
ARC
  5
3994
330
18
100
AcDbEntity
  8
0
100
AcDbCircle
 10
574.8774752456316
 20
310.8892057884176
 30
0.0
 40
3.0
100
AcDbArc
 50
180.0
 51
270.0
  0
ARC
  5
3995
330
18
100
AcDbEntity
  8
0
100
AcDbCircle
 10
590.8526285063254
 20
302.9273813999163
 30
0.0
 40
1.0
100
AcDbArc
 50
90.0
 51
180.0
  0
LINE
  5
3996
330
18
100
AcDbEntity
  8
0
100
AcDbLine
 10
606.3526285063254
 20
303.9273813999162
 30
0.0
 11
590.8526285063254
 21
303.9273813999163
 31
0.0
  0
LINE
  5
3997
330
18
100
AcDbEntity
  8
0
100
AcDbLine
 10
584.5460693973442
 20
334.6206569081658
 30
0.0
 11
586.278129611966
 21
347.7185570695703
 31
0.0
  0
LINE
  5
3998
330
18
100
AcDbEntity
  8
0
100
AcDbLine
 10
606.3526285063254
 20
317.9273813999158
 30
0.0
 11
573.8774752456318
 21
317.9273813999158
 31
0.0
  0
LINE
  5
3999
330
18
100
AcDbEntity
  8
0
100
AcDbLine
 10
576.2891592714987
 20
318.1251920086006
 30
0.0
 11
576.4038260649363
 21
318.1251920086006
 31
0.0
  0
INSERT
  5
399A
330
18
100
AcDbEntity
  8
0
100
AcDbBlockReference
  2
M8BS
 10
580.4033655669358
 20
329.1206569081658
 30
0.0
 50
90.0
  0
LINE
  5
399B
330
18
100
AcDbEntity
  8
0
100
AcDbLine
 10
573.2957540659246
 20
319.1206569081661
 30
0.0
 11
575.5570771011729
 21
319.1206569081657
 31
0.0
  0
LINE
  5
399C
330
18
100
AcDbEntity
  8
0
100
AcDbLine
 10
576.2891592714987
 20
317.9251920085994
 30
0.0
 11
576.2891592714987
 21
318.1251920085994
 31
0.0
  0
ARC
  5
399D
330
18
100
AcDbEntity
  8
0
100
AcDbCircle
 10
575.5570771011729
 20
317.1206569081657
 30
0.0
 40
2.0
100
AcDbArc
 50
64.95218328631088
 51
90.0
  0
ARC
  5
399E
330
18
100
AcDbEntity
  8
0
100
AcDbCircle
 10
575.5570771011729
 20
317.1206569081664
 30
0.0
 40
2.0
100
AcDbArc
 50
64.95218328631088
 51
89.99999999999349
  0
LINE
  5
399F
330
18
100
AcDbEntity
  8
0
100
AcDbLine
 10
571.7957540659246
 20
320.6206569081661
 30
0.0
 11
571.7957540659246
 21
327.6206569081658
 31
0.0
  0
ARC
  5
39A0
330
18
100
AcDbEntity
  8
0
100
AcDbCircle
 10
573.2957540659246
 20
327.6206569081658
 30
0.0
 40
1.5
100
AcDbArc
 50
90.0
 51
180.0
  0
ARC
  5
39A1
330
18
100
AcDbEntity
  8
0
100
AcDbCircle
 10
573.2957540659246
 20
320.6206569081661
 30
0.0
 40
1.5
100
AcDbArc
 50
180.0
 51
270.0
  0
ARC
  5
39A2
330
18
100
AcDbEntity
  8
0
100
AcDbCircle
 10
590.2338744996251
 20
347.1251917657658
 30
0.0
 40
4.0
100
AcDbArc
 50
90.0
 51
171.4691838100355
  0
LINE
  5
39A3
330
18
100
AcDbEntity
  8
0
100
AcDbLine
 10
600.8051278913963
 20
364.1251917657659
 30
0.0
 11
600.8051278913963
 21
357.1351917657659
 31
0.0
  0
LINE
  5
39A4
330
18
100
AcDbEntity
  8
0
100
AcDbLine
 10
595.3191278913964
 20
364.1251917657659
 30
0.0
 11
595.3191278913964
 21
357.1351917657659
 31
0.0
  0
ARC
  5
39A5
330
18
100
AcDbEntity
  8
0
100
AcDbCircle
 10
598.0621278913964
 20
361.52498855073
 30
0.0
 40
5.176327347964122
100
AcDbArc
 50
238.0004643881695
 51
301.9995356118304
  0
ARC
  5
39A6
330
18
100
AcDbEntity
  8
0
100
AcDbCircle
 10
597.2891278913963
 20
354.125191765766
 30
0.0
 40
2.0
100
AcDbArc
 50
90.0
 51
180.0
  0
LINE
  5
39A7
330
18
100
AcDbEntity
  8
0
100
AcDbLine
 10
597.0681278913964
 20
356.125191765766
 30
0.0
 11
595.3191278913964
 21
357.1351917657659
 31
0.0
  0
ARC
  5
39A8
330
18
100
AcDbEntity
  8
0
100
AcDbCircle
 10
598.0621278913964
 20
359.7353949808018
 30
0.0
 40
5.176327347964122
100
AcDbArc
 50
58.00046438816957
 51
121.9995356118304
  0
LINE
  5
39A9
330
18
100
AcDbEntity
  8
0
100
AcDbLine
 10
597.0681278913964
 20
365.1351917657659
 30
0.0
 11
595.3191278913964
 21
364.1251917657659
 31
0.0
  0
ARC
  5
39AA
330
18
100
AcDbEntity
  8
0
100
AcDbCircle
 10
593.2891278913964
 20
353.1251917657658
 30
0.0
 40
2.0
100
AcDbArc
 50
270.0
 51
0.0
  0
LINE
  5
39AB
330
18
100
AcDbEntity
  8
0
100
AcDbLine
 10
590.2338744996251
 20
351.1251917657658
 30
0.0
 11
593.2891278913964
 21
351.1251917657658
 31
0.0
  0
LINE
  5
39AC
330
18
100
AcDbEntity
  8
0
100
AcDbLine
 10
595.2891278913964
 20
353.1251917657658
 30
0.0
 11
595.2891278913963
 21
354.125191765766
 31
0.0
  0
LINE
  5
39AD
330
18
100
AcDbEntity
  8
0
100
AcDbLine
 10
595.2891279087417
 20
351.1212996300769
 30
0.0
 11
606.2891279087417
 21
351.1212996300769
 31
0.0
  0
LINE
  5
39AE
330
18
100
AcDbEntity
  8
0
100
AcDbLine
 10
405.7631935051087
 20
390.4273813999158
 30
0.0
 11
405.7631935051087
 21
378.4273813999158
 31
0.0
  0
LINE
  5
39AF
330
18
100
AcDbEntity
  8
0
100
AcDbLine
 10
406.7631935051087
 20
377.4273813999158
 30
0.0
 11
405.7631935051087
 21
378.4273813999158
 31
0.0
  0
ARC
  5
39B0
330
18
100
AcDbEntity
  8
0
100
AcDbCircle
 10
599.8833232059425
 20
360.0999142875931
 30
0.0
 40
35.9035411409884
100
AcDbArc
 50
100.277572316662
 51
122.3609499682761
  0
ARC
  5
39B1
330
18
100
AcDbEntity
  8
0
100
AcDbCircle
 10
606.2891279087445
 20
354.6572248190776
 30
0.0
 40
37.76983735520119
100
AcDbArc
 50
90.0
 51
108.7275249809216
  0
ARC
  5
39B2
330
18
100
AcDbEntity
  8
0
100
AcDbCircle
 10
584.4146287996722
 20
385.7387479763073
 30
0.0
 40
6.003014474919505
100
AcDbArc
 50
51.35649173848094
 51
128.643508261517
  0
LINE
  5
39B3
330
18
100
AcDbEntity
  8
0
100
AcDbLine
 10
581.6659090975451
 20
377.4273813999158
 30
0.0
 11
606.2891279087417
 21
377.4273813999158
 31
0.0
  0
LINE
  5
39B4
330
18
100
AcDbEntity
  8
0
100
AcDbLine
 10
580.6659090975451
 20
378.4273813999158
 30
0.0
 11
581.6659090975451
 21
377.4273813999158
 31
0.0
  0
LINE
  5
39B5
330
18
100
AcDbEntity
  8
0
100
AcDbLine
 10
580.6659090975451
 20
390.4273813999158
 30
0.0
 11
580.6659090975451
 21
378.4273813999158
 31
0.0
  0
LINE
  5
39B6
330
18
100
AcDbEntity
  8
0
100
AcDbLine
 10
594.162441963249
 20
390.4273813999158
 30
0.0
 11
594.162441963249
 21
378.4273813999158
 31
0.0
  0
LINE
  5
39B7
330
18
100
AcDbEntity
  8
0
100
AcDbLine
 10
588.1633485017992
 20
390.4273813999158
 30
0.0
 11
588.1633485017992
 21
378.4273813999158
 31
0.0
  0
LINE
  5
39B8
330
18
100
AcDbEntity
  8
0
100
AcDbLine
 10
594.162441963249
 20
390.4273813999158
 30
0.0
 11
588.1633485017992
 21
390.4273813999158
 31
0.0
  0
LINE
  5
39B9
330
18
100
AcDbEntity
  8
0
100
AcDbLine
 10
593.7891279087417
 20
373.4273813999158
 30
0.0
 11
593.7891279087417
 21
377.4273813999158
 31
0.0
  0
LINE
  5
39BA
330
18
100
AcDbEntity
  8
0
100
AcDbLine
 10
606.2891279087416
 20
395.4273813999158
 30
0.0
 11
593.4775185031432
 21
395.4273813999158
 31
0.0
  0
ARC
  5
39BB
330
18
100
AcDbEntity
  8
0
100
AcDbCircle
 10
592.3000672706685
 20
464.3558838533703
 30
0.0
 40
10.0
100
AcDbArc
 50
71.0146131537343
 51
127.0215676055731
  0
LINE
  5
39BC
330
18
100
AcDbEntity
  8
0
100
AcDbLine
 10
584.5862837860259
 20
473.0609076808633
 30
0.0
 11
577.0802837860259
 21
473.0609076808633
 31
0.0
  0
LINE
  5
39BD
330
18
100
AcDbEntity
  8
0
100
AcDbLine
 10
612.2978248332732
 20
373.4273813999158
 30
0.0
 11
612.2922369305075
 21
365.1351917657659
 31
0.0
  0
ARC
  5
39BE
330
18
100
AcDbEntity
  8
0
100
AcDbCircle
 10
638.8526285063254
 20
315.9273813999158
 30
0.0
 40
2.0
100
AcDbArc
 50
0.0
 51
90.0
  0
ARC
  5
39BF
330
18
100
AcDbEntity
  8
0
100
AcDbCircle
 10
646.8525651030901
 20
273.9273762449985
 30
0.0
 40
3.0
100
AcDbArc
 50
0.0
 51
90.0
  0
LINE
  5
39C0
330
18
100
AcDbEntity
  8
0
100
AcDbLine
 10
649.8525382175061
 20
289.9232856052788
 30
0.0
 11
637.8499851817842
 21
289.9232856052789
 31
0.0
  0
ARC
  5
39C1
330
18
100
AcDbEntity
  8
0
100
AcDbCircle
 10
597.8830913454204
 20
310.9620484320839
 30
0.0
 40
39.74010723793169
100
AcDbArc
 50
296.7212707422987
 51
326.3012500035278
  0
LINE
  5
39C2
330
18
100
AcDbEntity
  8
0
100
AcDbLine
 10
622.8526285063254
 20
302.9273813999162
 30
0.0
 11
622.8526285063254
 21
284.9273813999162
 31
0.0
  0
ARC
  5
39C3
330
18
100
AcDbEntity
  8
0
100
AcDbCircle
 10
621.8526285063254
 20
284.9273813999162
 30
0.0
 40
1.0
100
AcDbArc
 50
270.0
 51
0.0
  0
ARC
  5
39C4
330
18
100
AcDbEntity
  8
0
100
AcDbCircle
 10
637.85256510309
 20
273.9273762449985
 30
0.0
 40
3.0
100
AcDbArc
 50
90.0
 51
180.0
  0
LINE
  5
39C5
330
18
100
AcDbEntity
  8
0
100
AcDbLine
 10
634.8525651030901
 20
259.9273762449985
 30
0.0
 11
634.8525651030901
 21
273.9273762449985
 31
0.0
  0
LINE
  5
39C6
330
18
100
AcDbEntity
  8
0
100
AcDbLine
 10
637.85256510309
 20
276.9273762449985
 30
0.0
 11
646.8525651030901
 21
276.9273762449985
 31
0.0
  0
ARC
  5
39C7
330
18
100
AcDbEntity
  8
0
100
AcDbCircle
 10
621.8526285063254
 20
302.9273813999162
 30
0.0
 40
1.0
100
AcDbArc
 50
0.0
 51
90.0
  0
POINT
  5
39C8
330
18
100
AcDbEntity
  8
0
  6
BYBLOCK
100
AcDbPoint
 10
639.973948849885
 20
308.7678854448578
 30
0.0
  0
LINE
  5
39C9
330
18
100
AcDbEntity
  8
0
100
AcDbLine
 10
640.8526285063254
 20
315.9273813999158
 30
0.0
 11
640.8526285063254
 21
310.8892057884174
 31
0.0
  0
LINE
  5
39CA
330
18
100
AcDbEntity
  8
0
100
AcDbLine
 10
637.8526285063254
 20
307.8892057884174
 30
0.0
 11
636.8526285063254
 21
307.8892057884174
 31
0.0
  0
ARC
  5
39CB
330
18
100
AcDbEntity
  8
0
100
AcDbCircle
 10
636.8526285063254
 20
305.8892057884175
 30
0.0
 40
2.0
100
AcDbArc
 50
90.0
 51
109.8220127499282
  0
ARC
  5
39CC
330
18
100
AcDbEntity
  8
0
100
AcDbCircle
 10
637.8526285063254
 20
292.9232844407512
 30
0.0
 40
3.0
100
AcDbArc
 50
180.0
 51
269.9999860531588
  0
LINE
  5
39CD
330
18
100
AcDbEntity
  8
0
100
AcDbLine
 10
634.8526285063254
 20
292.9232844407512
 30
0.0
 11
634.8526285063256
 21
304.0820407154975
 31
0.0
  0
ARC
  5
39CE
330
18
100
AcDbEntity
  8
0
100
AcDbCircle
 10
637.8526285063254
 20
310.8892057884174
 30
0.0
 40
3.0
100
AcDbArc
 50
270.0
 51
0.0
  0
LINE
  5
39CF
330
18
100
AcDbEntity
  8
0
100
AcDbLine
 10
649.8525651030901
 20
273.9273762449985
 30
0.0
 11
649.8525651030901
 21
259.9273762449985
 31
0.0
  0
LINE
  5
39D0
330
18
100
AcDbEntity
  8
0
100
AcDbLine
 10
651.8525773111274
 20
287.9232488497602
 30
0.0
 11
649.8525382175061
 21
289.9232856052788
 31
0.0
  0
LINE
  5
39D1
330
18
100
AcDbEntity
  8
0
100
AcDbLine
 10
628.0348281774778
 20
334.5672866735481
 30
0.0
 11
626.3001261708267
 21
347.7185570695703
 31
0.0
  0
INSERT
  5
39D2
330
18
100
AcDbEntity
  8
0
100
AcDbBlockReference
  2
M8BS
 10
632.314139025092
 20
329.0567302784848
 30
0.0
 41
-1.0
 50
269.8588838507407
  0
ARC
  5
39D3
330
18
100
AcDbEntity
  8
0
100
AcDbCircle
 10
639.2825017515587
 20
327.6206569081658
 30
0.0
 40
1.5
100
AcDbArc
 50
0.0
 51
90.0
  0
LINE
  5
39D4
330
18
100
AcDbEntity
  8
0
100
AcDbLine
 10
640.7825017515587
 20
320.6206569081661
 30
0.0
 11
640.7825017515587
 21
327.6206569081658
 31
0.0
  0
ARC
  5
39D5
330
18
100
AcDbEntity
  8
0
100
AcDbCircle
 10
639.2825017515588
 20
320.6206569081661
 30
0.0
 40
1.5
100
AcDbArc
 50
270.0
 51
0.0
  0
LINE
  5
39D6
330
18
100
AcDbEntity
  8
0
100
AcDbLine
 10
636.2890965459845
 20
317.9251920085994
 30
0.0
 11
636.2890965459845
 21
318.1251920085994
 31
0.0
  0
ARC
  5
39D7
330
18
100
AcDbEntity
  8
0
100
AcDbCircle
 10
637.0211787163103
 20
317.1206569081657
 30
0.0
 40
2.0
100
AcDbArc
 50
90.0
 51
115.0478167136927
  0
LINE
  5
39D8
330
18
100
AcDbEntity
  8
0
100
AcDbLine
 10
639.2825017515588
 20
319.1206569081661
 30
0.0
 11
637.0211787163103
 21
319.1206569081657
 31
0.0
  0
ARC
  5
39D9
330
18
100
AcDbEntity
  8
0
100
AcDbCircle
 10
622.3443812831676
 20
347.1251917657658
 30
0.0
 40
4.0
100
AcDbArc
 50
8.530816189964467
 51
90.0
  0
LINE
  5
39DA
330
18
100
AcDbEntity
  8
0
100
AcDbLine
 10
615.1081278913964
 20
364.8781917657659
 30
0.0
 11
615.6881278913964
 21
364.7771917657657
 31
0.0
  0
LINE
  5
39DB
330
18
100
AcDbEntity
  8
0
100
AcDbLine
 10
613.9241278913964
 20
364.8781917657659
 30
0.0
 11
614.5161278913964
 21
364.9121917657657
 31
0.0
  0
LINE
  5
39DC
330
18
100
AcDbEntity
  8
0
100
AcDbLine
 10
614.5161278913964
 20
364.9121917657657
 30
0.0
 11
615.1081278913964
 21
364.8781917657659
 31
0.0
  0
LINE
  5
39DD
330
18
100
AcDbEntity
  8
0
100
AcDbLine
 10
615.6881278913964
 20
364.7771917657657
 30
0.0
 11
616.2461278913964
 21
364.614191765766
 31
0.0
  0
LINE
  5
39DE
330
18
100
AcDbEntity
  8
0
100
AcDbLine
 10
616.2461278913964
 20
364.614191765766
 30
0.0
 11
617.2591278913963
 21
364.1251917657659
 31
0.0
  0
LINE
  5
39DF
330
18
100
AcDbEntity
  8
0
100
AcDbLine
 10
617.2591278913963
 20
364.1251917657659
 30
0.0
 11
615.5101278913963
 21
365.1351917657659
 31
0.0
  0
LINE
  5
39E0
330
18
100
AcDbEntity
  8
0
100
AcDbLine
 10
615.1081278913964
 20
356.3821917657658
 30
0.0
 11
615.6881278913964
 21
356.4831917657659
 31
0.0
  0
LINE
  5
39E1
330
18
100
AcDbEntity
  8
0
100
AcDbLine
 10
613.9241278913964
 20
356.3821917657658
 30
0.0
 11
614.5161278913964
 21
356.3481917657659
 31
0.0
  0
LINE
  5
39E2
330
18
100
AcDbEntity
  8
0
100
AcDbLine
 10
614.5161278913964
 20
356.3481917657659
 30
0.0
 11
615.1081278913964
 21
356.3821917657658
 31
0.0
  0
LINE
  5
39E3
330
18
100
AcDbEntity
  8
0
100
AcDbLine
 10
615.6881278913964
 20
356.4831917657659
 30
0.0
 11
616.2461278913964
 21
356.6461917657659
 31
0.0
  0
LINE
  5
39E4
330
18
100
AcDbEntity
  8
0
100
AcDbLine
 10
616.2461278913964
 20
356.6461917657659
 30
0.0
 11
617.2591278913963
 21
357.1351917657659
 31
0.0
  0
LINE
  5
39E5
330
18
100
AcDbEntity
  8
0
100
AcDbLine
 10
617.2591278913963
 20
357.1351917657659
 30
0.0
 11
615.5101278913963
 21
356.125191765766
 31
0.0
  0
ARC
  5
39E6
330
18
100
AcDbEntity
  8
0
100
AcDbCircle
 10
615.2891278913964
 20
354.125191765766
 30
0.0
 40
2.0
100
AcDbArc
 50
0.0
 51
90.0
  0
LINE
  5
39E7
330
18
100
AcDbEntity
  8
0
100
AcDbLine
 10
617.2591278913963
 20
357.1351917657659
 30
0.0
 11
617.2591278913963
 21
364.1251917657659
 31
0.0
  0
LINE
  5
39E8
330
18
100
AcDbEntity
  8
0
100
AcDbLine
 10
612.7861278913964
 20
364.614191765766
 30
0.0
 11
613.3441278913964
 21
364.7771917657657
 31
0.0
  0
LINE
  5
39E9
330
18
100
AcDbEntity
  8
0
100
AcDbLine
 10
611.7731278913964
 20
364.1251917657659
 30
0.0
 11
612.2601278913963
 21
364.3941917657659
 31
0.0
  0
LINE
  5
39EA
330
18
100
AcDbEntity
  8
0
100
AcDbLine
 10
612.2601278913963
 20
364.3941917657659
 30
0.0
 11
612.7861278913964
 21
364.614191765766
 31
0.0
  0
LINE
  5
39EB
330
18
100
AcDbEntity
  8
0
100
AcDbLine
 10
612.7861278913964
 20
356.6461917657659
 30
0.0
 11
613.3441278913964
 21
356.4831917657659
 31
0.0
  0
LINE
  5
39EC
330
18
100
AcDbEntity
  8
0
100
AcDbLine
 10
611.7731278913964
 20
357.1351917657659
 30
0.0
 11
612.2601278913963
 21
356.8661917657659
 31
0.0
  0
LINE
  5
39ED
330
18
100
AcDbEntity
  8
0
100
AcDbLine
 10
612.2601278913963
 20
356.8661917657659
 30
0.0
 11
612.7861278913964
 21
356.6461917657659
 31
0.0
  0
LINE
  5
39EE
330
18
100
AcDbEntity
  8
0
100
AcDbLine
 10
611.7731278913964
 20
364.1251917657659
 30
0.0
 11
611.7731278913964
 21
357.1351917657659
 31
0.0
  0
LINE
  5
39EF
330
18
100
AcDbEntity
  8
0
100
AcDbLine
 10
613.3441278913964
 20
356.4831917657659
 30
0.0
 11
613.9241278913964
 21
356.3821917657658
 31
0.0
  0
LINE
  5
39F0
330
18
100
AcDbEntity
  8
0
100
AcDbLine
 10
613.3441278913964
 20
364.7771917657657
 30
0.0
 11
613.9241278913964
 21
364.8781917657659
 31
0.0
  0
ARC
  5
39F1
330
18
100
AcDbEntity
  8
0
100
AcDbCircle
 10
619.2891278913964
 20
353.1251917657658
 30
0.0
 40
2.0
100
AcDbArc
 50
180.0
 51
270.0
  0
LINE
  5
39F2
330
18
100
AcDbEntity
  8
0
100
AcDbLine
 10
617.2891278913964
 20
353.1251917657658
 30
0.0
 11
617.2891278913964
 21
354.125191765766
 31
0.0
  0
LINE
  5
39F3
330
18
100
AcDbEntity
  8
0
100
AcDbLine
 10
622.3443812831676
 20
351.1251917657658
 30
0.0
 11
619.2891278913964
 21
351.1251917657658
 31
0.0
  0
ARC
  5
39F4
330
18
100
AcDbEntity
  8
0
100
AcDbCircle
 10
755.9675239699969
 20
315.8870163971009
 30
0.0
 40
2.0
100
AcDbArc
 50
90.0
 51
180.0
  0
LINE
  5
39F5
330
18
100
AcDbEntity
  8
0
100
AcDbLine
 10
758.4675239700001
 20
284.6775644844896
 30
0.0
 11
758.4675239700001
 21
293.9162650370107
 31
0.0
  0
LINE
  5
39F6
330
18
100
AcDbEntity
  8
0
100
AcDbLine
 10
759.967523969997
 20
303.1549655895321
 30
0.0
 11
759.967523969997
 21
285.1213444313061
 31
0.0
  0
LINE
  5
39F7
330
18
100
AcDbEntity
  8
0
100
AcDbLine
 10
759.9675239699999
 20
304.0824812966663
 30
0.0
 11
759.9675239700001
 21
283.9588131668256
 31
0.0
  0
LINE
  5
39F8
330
18
100
AcDbEntity
  8
0
100
AcDbLine
 10
758.96752397
 20
303.1549655895321
 30
0.0
 11
758.96752397
 21
284.8870163971009
 31
0.0
  0
LINE
  5
39F9
330
18
100
AcDbEntity
  8
0
100
AcDbLine
 10
758.9897050213681
 20
284.6775644844896
 30
0.0
 11
758.4675239700001
 21
284.6775644844896
 31
0.0
  0
LINE
  5
39FA
330
18
100
AcDbEntity
  8
0
100
AcDbLine
 10
766.4675239700001
 20
276.9251920085994
 30
0.0
 11
767.8689681139614
 21
276.9251920085994
 31
0.0
  0
ARC
  5
39FB
330
18
100
AcDbEntity
  8
0
100
AcDbCircle
 10
766.4675239700001
 20
275.9251920085994
 30
0.0
 40
1.0
100
AcDbArc
 50
90.0
 51
180.0
  0
ARC
  5
39FC
330
18
100
AcDbEntity
  8
0
100
AcDbCircle
 10
760.9675239699998
 20
273.1549655895319
 30
0.0
 40
4.0
100
AcDbArc
 50
0.0
 51
29.99999999999164
  0
ARC
  5
39FD
330
18
100
AcDbEntity
  8
0
100
AcDbCircle
 10
763.9675239700001
 20
283.9588131668256
 30
0.0
 40
4.0
100
AcDbArc
 50
180.0
 51
209.9999999999916
  0
LINE
  5
39FE
330
18
100
AcDbEntity
  8
0
100
AcDbLine
 10
764.4316255851378
 20
275.1549655895319
 30
0.0
 11
760.5034223548622
 21
281.9588131668256
 31
0.0
  0
ARC
  5
39FF
330
18
100
AcDbEntity
  8
0
100
AcDbCircle
 10
759.9675239700001
 20
284.8870163971009
 30
0.0
 40
1.0
100
AcDbArc
 50
180.0
 51
270.0
  0
POINT
  5
3A00
330
18
100
AcDbEntity
  8
0
  6
BYBLOCK
100
AcDbPoint
 10
764.9675239699998
 20
266.9251920085994
 30
0.0
  0
LINE
  5
3A01
330
18
100
AcDbEntity
  8
0
100
AcDbLine
 10
764.9675239699998
 20
273.1549655895319
 30
0.0
 11
764.9675239699998
 21
258.9588131668256
 31
0.0
  0
LINE
  5
3A02
330
18
100
AcDbEntity
  8
0
100
AcDbLine
 10
765.4675239700001
 20
266.9251920085994
 30
0.0
 11
765.4675239700001
 21
275.9251920085994
 31
0.0
  0
LINE
  5
3A03
330
18
100
AcDbEntity
  8
0
100
AcDbLine
 10
762.2264311933491
 20
282.8899158281893
 30
0.0
 11
769.7648899271832
 21
282.8899158281894
 31
0.0
  0
ARC
  5
3A04
330
18
100
AcDbEntity
  8
0
100
AcDbCircle
 10
757.9675239700001
 20
305.8870163971011
 30
0.0
 40
2.0
100
AcDbArc
 50
58.52826099347063
 51
90.0
  0
LINE
  5
3A05
330
18
100
AcDbEntity
  8
0
100
AcDbLine
 10
757.9675239700001
 20
307.8870163971011
 30
0.0
 11
756.967523969997
 21
307.8870163971009
 31
0.0
  0
LINE
  5
3A06
330
18
100
AcDbEntity
  8
0
100
AcDbLine
 10
753.9675239699969
 20
315.887016397101
 30
0.0
 11
753.9675239699969
 21
310.8870163971009
 31
0.0
  0
LINE
  5
3A07
330
18
100
AcDbEntity
  8
0
100
AcDbLine
 10
767.0116798472812
 20
304.7594812966665
 30
0.0
 11
766.3346798472813
 21
304.0824812966663
 31
0.0
  0
LINE
  5
3A08
330
18
100
AcDbEntity
  8
0
100
AcDbLine
 10
759.6886798472813
 20
304.0824812966663
 30
0.0
 11
759.0116798472812
 21
304.7594812966665
 31
0.0
  0
LINE
  5
3A09
330
18
100
AcDbEntity
  8
0
100
AcDbLine
 10
758.4675239700001
 20
303.1549655895321
 30
0.0
 11
758.96752397
 21
303.1549655895321
 31
0.0
  0
ARC
  5
3A0A
330
18
100
AcDbEntity
  8
0
100
AcDbCircle
 10
759.9675239700001
 20
302.887016397101
 30
0.0
 40
1.0
100
AcDbArc
 50
90.0
 51
180.0
  0
LINE
  5
3A0B
330
18
100
AcDbEntity
  8
0
100
AcDbLine
 10
766.3346798472813
 20
304.0824812966663
 30
0.0
 11
759.6886798472813
 21
304.0824812966663
 31
0.0
  0
LINE
  5
3A0C
330
18
100
AcDbEntity
  8
0
100
AcDbLine
 10
759.0116798472812
 20
304.7594812966665
 30
0.0
 11
767.0116798472812
 21
304.7594812966665
 31
0.0
  0
LINE
  5
3A0E
330
18
100
AcDbEntity
  8
0
100
AcDbLine
 10
767.0116798472812
 20
307.8870163971011
 30
0.0
 11
767.0116798472812
 21
304.7594812966665
 31
0.0
  0
LINE
  5
3A10
330
18
100
AcDbEntity
  8
0
100
AcDbLine
 10
759.0116798472812
 20
304.7594812966665
 30
0.0
 11
759.0116798472812
 21
307.8870163971011
 31
0.0
  0
ARC
  5
3A11
330
18
100
AcDbEntity
  8
0
100
AcDbCircle
 10
756.9675239699969
 20
310.8870163971009
 30
0.0
 40
3.0
100
AcDbArc
 50
180.0
 51
270.0
  0
ARC
  5
3A12
330
18
100
AcDbEntity
  8
0
100
AcDbCircle
 10
758.4998834657434
 20
293.9162650370109
 30
0.0
 40
0.7878259136102313
100
AcDbArc
 50
92.35405339107961
 51
267.6459466089204
  0
LINE
  5
3A13
330
18
100
AcDbEntity
  8
0
100
AcDbLine
 10
758.4675239700001
 20
303.1549655895321
 30
0.0
 11
758.4675239700001
 21
293.9162650370107
 31
0.0
  0
LINE
  5
3A14
330
18
100
AcDbEntity
  8
0
100
AcDbLine
 10
766.7244654586026
 20
334.6206569081658
 30
0.0
 11
768.4565256732245
 21
347.7185570695703
 31
0.0
  0
LINE
  5
3A15
330
18
100
AcDbEntity
  8
0
100
AcDbLine
 10
769.5612193492809
 20
333.9300974893343
 30
0.0
 11
769.5612193492809
 21
329.1210974893345
 31
0.0
  0
LINE
  5
3A16
330
18
100
AcDbEntity
  8
0
100
AcDbLine
 10
763.0112193492809
 20
334.6210974893342
 30
0.0
 11
768.3652193492808
 21
334.6210974893342
 31
0.0
  0
LINE
  5
3A17
330
18
100
AcDbEntity
  8
0
100
AcDbLine
 10
757.657219349281
 20
334.6210974893342
 30
0.0
 11
756.461219349281
 21
333.9300974893343
 31
0.0
  0
LINE
  5
3A18
330
18
100
AcDbEntity
  8
0
100
AcDbLine
 10
763.0112193492809
 20
334.6210974893342
 30
0.0
 11
757.657219349281
 21
334.6210974893342
 31
0.0
  0
ARC
  5
3A19
330
18
100
AcDbEntity
  8
0
100
AcDbCircle
 10
759.7362193492809
 20
324.2308166313355
 30
0.0
 40
10.23726888199896
100
AcDbArc
 50
71.34254553787812
 51
108.657454462129
  0
ARC
  5
3A1A
330
18
100
AcDbEntity
  8
0
100
AcDbCircle
 10
755.4741501271831
 20
327.6206569081664
 30
0.0
 40
1.5
100
AcDbArc
 50
90.0
 51
180.0
  0
LINE
  5
3A1B
330
18
100
AcDbEntity
  8
0
100
AcDbLine
 10
753.9741501271829
 20
320.6206569081666
 30
0.0
 11
753.974150127183
 21
327.6206569081664
 31
0.0
  0
LINE
  5
3A1C
330
18
100
AcDbEntity
  8
0
100
AcDbLine
 10
755.4675239700001
 20
329.1206569081664
 30
0.0
 11
764.2459228909829
 21
329.1245490438549
 31
0.0
  0
LINE
  5
3A1D
330
18
100
AcDbEntity
  8
0
100
AcDbLine
 10
763.0112193492809
 20
333.9300974893344
 30
0.0
 11
763.0116798472815
 21
329.1240018095081
 31
0.0
  0
LINE
  5
3A1E
330
18
100
AcDbEntity
  8
0
100
AcDbLine
 10
756.4612193492808
 20
329.1210974893342
 30
0.0
 11
756.461219349281
 21
333.9300974893343
 31
0.0
  0
LINE
  5
3A1F
330
18
100
AcDbEntity
  8
0
100
AcDbLine
 10
767.0116798472812
 20
317.887016397101
 30
0.0
 11
767.0116798472812
 21
319.1206569081669
 31
0.0
  0
LINE
  5
3A21
330
18
100
AcDbEntity
  8
0
100
AcDbLine
 10
759.0116798472812
 20
317.887016397101
 30
0.0
 11
759.0116798472813
 21
319.1206569081671
 31
0.0
  0
LINE
  5
3A22
330
18
100
AcDbEntity
  8
0
100
AcDbLine
 10
758.4675553327571
 20
317.887016397101
 30
0.0
 11
758.4675553327571
 21
318.1251920085994
 31
0.0
  0
LINE
  5
3A23
330
18
100
AcDbEntity
  8
0
100
AcDbLine
 10
758.4675553327571
 20
318.1251920086006
 30
0.0
 11
759.0116798472812
 21
318.1251920086008
 31
0.0
  0
LINE
  5
3A25
330
18
100
AcDbEntity
  8
0
100
AcDbLine
 10
755.4741501271829
 20
319.1206569081666
 30
0.0
 11
757.7354731624313
 21
319.1206569081662
 31
0.0
  0
ARC
  5
3A26
330
18
100
AcDbEntity
  8
0
100
AcDbCircle
 10
755.4741501271829
 20
320.6206569081666
 30
0.0
 40
1.5
100
AcDbArc
 50
180.0
 51
270.0
  0
ARC
  5
3A27
330
18
100
AcDbEntity
  8
0
100
AcDbCircle
 10
757.7354731624313
 20
317.1206569081661
 30
0.0
 40
2.0
100
AcDbArc
 50
50.34946452580641
 51
90.0
  0
ARC
  5
3A28
330
18
100
AcDbEntity
  8
0
100
AcDbCircle
 10
757.7354731624313
 20
317.1206569081671
 30
0.0
 40
2.0
100
AcDbArc
 50
50.34946452580641
 51
89.99999999999349
  0
ARC
  5
3A29
330
18
100
AcDbEntity
  8
0
100
AcDbCircle
 10
766.2862193492809
 20
324.2308166313355
 30
0.0
 40
10.23726888199896
100
AcDbArc
 50
71.34254553787091
 51
108.6574544621218
  0
LINE
  5
3A2A
330
18
100
AcDbEntity
  8
0
100
AcDbLine
 10
768.3652193492808
 20
334.6210974893342
 30
0.0
 11
769.5612193492809
 21
333.9300974893343
 31
0.0
  0
ARC
  5
3A2B
330
18
100
AcDbEntity
  8
0
100
AcDbCircle
 10
772.4122705782288
 20
347.1251917657657
 30
0.0
 40
4.0
100
AcDbArc
 50
90.0
 51
171.4691838100419
  0
ARC
  5
3A2C
330
18
100
AcDbEntity
  8
0
100
AcDbCircle
 10
612.5391279087417
 20
359.3014706892661
 30
0.0
 40
36.66256844076576
100
AcDbArc
 50
58.10126609754426
 51
80.18464374915456
  0
ARC
  5
3A2D
330
18
100
AcDbEntity
  8
0
100
AcDbCircle
 10
628.1636270178111
 20
385.7387479763073
 30
0.0
 40
6.003014474919505
100
AcDbArc
 50
51.35649173848298
 51
128.643508261519
  0
LINE
  5
3A2E
330
18
100
AcDbEntity
  8
0
100
AcDbLine
 10
624.4149073156842
 20
390.4273813999158
 30
0.0
 11
624.4149073156842
 21
378.4273813999158
 31
0.0
  0
LINE
  5
3A2F
330
18
100
AcDbEntity
  8
0
100
AcDbLine
 10
618.4158138542342
 20
390.4273813999158
 30
0.0
 11
618.4158138542342
 21
378.4273813999158
 31
0.0
  0
LINE
  5
3A30
330
18
100
AcDbEntity
  8
0
100
AcDbLine
 10
618.4158138542342
 20
390.4273813999158
 30
0.0
 11
624.414907315684
 21
390.4273813999158
 31
0.0
  0
LINE
  5
3A31
330
18
100
AcDbEntity
  8
0
100
AcDbLine
 10
618.7891279087417
 20
373.4273813999158
 30
0.0
 11
618.7891279087417
 21
377.4273813999158
 31
0.0
  0
LINE
  5
3A32
330
18
100
AcDbEntity
  8
0
100
AcDbLine
 10
630.9123467199382
 20
377.4273813999158
 30
0.0
 11
631.9123467199382
 21
378.4273813999158
 31
0.0
  0
LINE
  5
3A33
330
18
100
AcDbEntity
  8
0
100
AcDbLine
 10
631.9123467199382
 20
390.4273813999158
 30
0.0
 11
631.9123467199382
 21
378.4273813999158
 31
0.0
  0
LINE
  5
3A34
330
18
100
AcDbEntity
  8
0
100
AcDbLine
 10
635.4979720314574
 20
473.0609076808633
 30
0.0
 11
627.9919720314572
 21
473.0609076808633
 31
0.0
  0
ARC
  5
3A35
330
18
100
AcDbEntity
  8
0
100
AcDbCircle
 10
620.2781885468148
 20
464.3558838533703
 30
0.0
 40
10.0
100
AcDbArc
 50
52.97843239442689
 51
108.9853868462657
  0
LINE
  5
3A36
330
18
100
AcDbEntity
  8
0
100
AcDbLine
 10
769.9651287812056
 20
390.4273813999158
 30
0.0
 11
769.9651287812056
 21
378.4273813999158
 31
0.0
  0
LINE
  5
3A37
330
18
100
AcDbEntity
  8
0
100
AcDbLine
 10
765.0919713361921
 20
378.4273813999158
 30
0.0
 11
766.0919713361921
 21
377.4273813999158
 31
0.0
  0
LINE
  5
3A38
330
18
100
AcDbEntity
  8
0
100
AcDbLine
 10
765.091971336192
 20
390.4273813999158
 30
0.0
 11
765.0919713361921
 21
378.4273813999158
 31
0.0
  0
ARC
  5
3A39
330
18
100
AcDbEntity
  8
0
100
AcDbCircle
 10
767.5285500586989
 20
385.0850162528848
 30
0.0
 40
5.871778370748047
100
AcDbArc
 50
65.48292825112373
 51
114.5170717488762
  0
ARC
  5
3A3A
330
18
100
AcDbEntity
  8
0
100
AcDbCircle
 10
807.9675239700002
 20
258.9588131668256
 30
0.0
 40
4.0
100
AcDbArc
 50
329.9999999999994
 51
0.0
  0
LINE
  5
3A3B
330
18
100
AcDbEntity
  8
0
100
AcDbLine
 10
811.4675239700002
 20
257.9251920085993
 30
0.0
 11
811.4675239700002
 21
266.9251920085994
 31
0.0
  0
ARC
  5
3A3E
330
18
100
AcDbEntity
  8
0
100
AcDbCircle
 10
788.4675239700001
 20
266.9251920085994
 30
0.0
 40
22.89760911873429
100
AcDbArc
 50
270.0
 51
90.0
  0
CIRCLE
  5
3A3F
330
18
100
AcDbEntity
  8
0
100
AcDbCircle
 10
788.5106739312044
 20
229.9251920085994
 30
0.0
 40
10.0
  0
LINE
  5
3A40
330
18
100
AcDbEntity
  8
0
100
AcDbLine
 10
809.46752397
 20
252.4850926084542
 30
0.0
 11
809.46752397
 21
221.7981753548067
 31
0.0
  0
LINE
  5
3A41
330
18
100
AcDbEntity
  8
0
100
AcDbLine
 10
796.46752397
 20
210.4251920085994
 30
0.0
 11
780.3405073162074
 21
210.4251920085994
 31
0.0
  0
LINE
  5
3A42
330
18
100
AcDbEntity
  8
0
100
AcDbLine
 10
788.4675239700001
 20
213.4251920085995
 30
0.0
 11
804.4675239700001
 21
213.4251920085994
 31
0.0
  0
ARC
  5
3A43
330
18
100
AcDbEntity
  8
0
100
AcDbCircle
 10
780.3405073162074
 20
212.4251920085994
 30
0.0
 40
2.0
100
AcDbArc
 50
194.4775121859294
 51
270.0
  0
ARC
  5
3A44
330
18
100
AcDbEntity
  8
0
100
AcDbCircle
 10
776.4675239700001
 20
211.4251920085994
 30
0.0
 40
2.0
100
AcDbArc
 50
14.47751218592945
 51
90.0
  0
ARC
  5
3A45
330
18
100
AcDbEntity
  8
0
100
AcDbCircle
 10
808.4675239700001
 20
217.9251920085994
 30
0.0
 40
2.0
100
AcDbArc
 50
104.4775121859302
 51
180.0
  0
LINE
  5
3A46
330
18
100
AcDbEntity
  8
0
100
AcDbLine
 10
806.4675239700001
 20
215.4251920085995
 30
0.0
 11
806.4675239700001
 21
217.9251920085994
 31
0.0
  0
ARC
  5
3A47
330
18
100
AcDbEntity
  8
0
100
AcDbCircle
 10
807.4675239699999
 20
221.7981753548067
 30
0.0
 40
2.0
100
AcDbArc
 50
284.4775121859303
 51
0.0
  0
ARC
  5
3A48
330
18
100
AcDbEntity
  8
0
100
AcDbCircle
 10
804.4675239700001
 20
215.4251920085994
 30
0.0
 40
2.0
100
AcDbArc
 50
270.0
 51
0.0
  0
ARC
  5
3A49
330
18
100
AcDbEntity
  8
0
100
AcDbCircle
 10
800.46752397
 20
211.4251920085994
 30
0.0
 40
2.0
100
AcDbArc
 50
90.0
 51
165.5224878140705
  0
ARC
  5
3A4A
330
18
100
AcDbEntity
  8
0
100
AcDbCircle
 10
796.5945406237925
 20
212.4251920085994
 30
0.0
 40
2.0
100
AcDbArc
 50
270.0
 51
345.5224878140705
  0
LINE
  5
3A4B
330
18
100
AcDbEntity
  8
0
100
AcDbLine
 10
797.9748241066978
 20
243.7960095398086
 30
0.0
 11
788.4675239700001
 21
243.7960095398086
 31
0.0
  0
LINE
  5
3A4C
330
18
100
AcDbEntity
  8
0
100
AcDbLine
 10
778.9602238333023
 20
243.7960095398086
 30
0.0
 11
788.4675239700001
 21
243.7960095398086
 31
0.0
  0
ARC
  5
3A4D
330
18
100
AcDbEntity
  8
0
100
AcDbCircle
 10
810.46752397
 20
257.9251920085993
 30
0.0
 40
1.0
100
AcDbArc
 50
270.0
 51
0.0
  0
ARC
  5
3A4E
330
18
100
AcDbEntity
  8
0
100
AcDbCircle
 10
813.4675239699999
 20
252.4850926084542
 30
0.0
 40
4.0
100
AcDbArc
 50
149.9999999999994
 51
180.0
  0
LINE
  5
3A4F
330
18
100
AcDbEntity
  8
0
100
AcDbLine
 10
809.0660798260385
 20
256.9251920085993
 30
0.0
 11
810.46752397
 21
256.9251920085993
 31
0.0
  0
LINE
  5
3A50
330
18
100
AcDbEntity
  8
0
100
AcDbLine
 10
810.0034223548622
 20
254.4850926084542
 30
0.0
 11
811.4316255851377
 21
256.9588131668256
 31
0.0
  0
LINE
  5
3A51
330
18
100
AcDbEntity
  8
0
100
AcDbLine
 10
794.4675239699972
 20
365.1351917657659
 30
0.0
 11
794.4675239699969
 21
373.4273813999158
 31
0.0
  0
LINE
  5
3A52
330
18
100
AcDbEntity
  8
0
100
AcDbLine
 10
782.4675239699972
 20
365.1351917657659
 30
0.0
 11
782.4675239699971
 21
373.4273813999158
 31
0.0
  0
ARC
  5
3A53
330
18
100
AcDbEntity
  8
0
100
AcDbCircle
 10
820.9675239699969
 20
315.8870163971009
 30
0.0
 40
2.0
100
AcDbArc
 50
0.0
 51
90.0
  0
LINE
  5
3A54
330
18
100
AcDbEntity
  8
0
100
AcDbLine
 10
810.6003680927127
 20
304.0824812966663
 30
0.0
 11
817.2463680927126
 21
304.0824812966663
 31
0.0
  0
LINE
  5
3A55
330
18
100
AcDbEntity
  8
0
100
AcDbLine
 10
817.9233680927127
 20
304.7594812966665
 30
0.0
 11
809.9233680927127
 21
304.7594812966665
 31
0.0
  0
LINE
  5
3A56
330
18
100
AcDbEntity
  8
0
100
AcDbLine
 10
818.9675239700001
 20
307.8870163971011
 30
0.0
 11
788.4675239700001
 21
307.8870163971009
 31
0.0
  0
LINE
  5
3A57
330
18
100
AcDbEntity
  8
0
100
AcDbLine
 10
812.5034223548624
 20
275.1549655895319
 30
0.0
 11
816.699574777569
 21
282.4229147819634
 31
0.0
  0
LINE
  5
3A58
330
18
100
AcDbEntity
  8
0
100
AcDbLine
 10
814.7086167466509
 20
282.8899158281893
 30
0.0
 11
807.170158012817
 21
282.8899158281894
 31
0.0
  0
ARC
  5
3A61
330
18
100
AcDbEntity
  8
0
100
AcDbCircle
 10
815.9675239700002
 20
273.1549655895319
 30
0.0
 40
4.0
100
AcDbArc
 50
150.0000000000083
 51
180.0
  0
ARC
  5
3A62
330
18
100
AcDbEntity
  8
0
100
AcDbCircle
 10
810.46752397
 20
275.9251920085994
 30
0.0
 40
1.0
100
AcDbArc
 50
0.0
 51
90.0
  0
LINE
  5
3A63
330
18
100
AcDbEntity
  8
0
100
AcDbLine
 10
810.46752397
 20
276.9251920085994
 30
0.0
 11
809.0660798260385
 21
276.9251920085994
 31
0.0
  0
POINT
  5
3A64
330
18
100
AcDbEntity
  8
0
  6
BYBLOCK
100
AcDbPoint
 10
811.967523969997
 20
266.9251920085994
 30
0.0
  0
POINT
  5
3A65
330
18
100
AcDbEntity
  8
0
  6
BYBLOCK
100
AcDbPoint
 10
811.9675239700001
 20
266.9251920085994
 30
0.0
  0
LINE
  5
3A66
330
18
100
AcDbEntity
  8
0
100
AcDbLine
 10
811.9675239700002
 20
273.154965589532
 30
0.0
 11
811.9675239700001
 21
258.9588131668256
 31
0.0
  0
LINE
  5
3A67
330
18
100
AcDbEntity
  8
0
100
AcDbLine
 10
811.4675239700002
 20
266.9251920085994
 30
0.0
 11
811.4675239700002
 21
275.9251920085994
 31
0.0
  0
LINE
  5
3A69
330
18
100
AcDbEntity
  8
0
100
AcDbLine
 10
809.9233680927127
 20
304.7594812966665
 30
0.0
 11
810.6003680927127
 21
304.0824812966663
 31
0.0
  0
LINE
  5
3A6B
330
18
100
AcDbEntity
  8
0
100
AcDbLine
 10
809.9233680927127
 20
307.8870163971011
 30
0.0
 11
809.9233680927127
 21
304.7594812966665
 31
0.0
  0
LINE
  5
3A6C
330
18
100
AcDbEntity
  8
0
100
AcDbLine
 10
816.9675239700001
 20
304.0824812966663
 30
0.0
 11
816.9675239700001
 21
283.4229147819634
 31
0.0
  0
LINE
  5
3A6D
330
18
100
AcDbEntity
  8
0
100
AcDbLine
 10
820.4675239700002
 20
301.8870163971009
 30
0.0
 11
820.4675239700002
 21
285.8870163971009
 31
0.0
  0
ARC
  5
3A6E
330
18
100
AcDbEntity
  8
0
100
AcDbCircle
 10
818.46752397
 20
285.8870163971009
 30
0.0
 40
2.0
100
AcDbArc
 50
272.7993824806547
 51
0.0
  0
ARC
  5
3A6F
330
18
100
AcDbEntity
  8
0
100
AcDbCircle
 10
814.96752397
 20
283.4229147819634
 30
0.0
 40
2.0
100
AcDbArc
 50
330.0000000000083
 51
0.0
  0
ARC
  5
3A70
330
18
100
AcDbEntity
  8
0
100
AcDbCircle
 10
818.6628799896569
 20
281.8917897420058
 30
0.0
 40
2.0
100
AcDbArc
 50
92.7993824806548
 51
157.4939329395958
  0
LINE
  5
3A71
330
18
100
AcDbEntity
  8
0
100
AcDbLine
 10
818.9675239699999
 20
307.8870163971009
 30
0.0
 11
819.9675239699971
 21
307.8870163971009
 31
0.0
  0
LINE
  5
3A72
330
18
100
AcDbEntity
  8
0
100
AcDbLine
 10
822.9675239699968
 20
315.887016397101
 30
0.0
 11
822.9675239699968
 21
310.8870163971009
 31
0.0
  0
ARC
  5
3A73
330
18
100
AcDbEntity
  8
0
100
AcDbCircle
 10
818.46752397
 20
301.8870163971009
 30
0.0
 40
2.0
100
AcDbArc
 50
0.0
 51
82.81924421854185
  0
LINE
  5
3A74
330
18
100
AcDbEntity
  8
0
100
AcDbLine
 10
818.9675239700001
 20
303.8870163971009
 30
0.0
 11
818.9675239700001
 21
303.8870163971009
 31
0.0
  0
ARC
  5
3A75
330
18
100
AcDbEntity
  8
0
100
AcDbCircle
 10
819.9675239699969
 20
310.8870163971009
 30
0.0
 40
3.0
100
AcDbArc
 50
270.0
 51
0.0
  0
LINE
  5
3A76
330
18
100
AcDbEntity
  8
0
100
AcDbLine
 10
817.2463680927126
 20
304.0824812966663
 30
0.0
 11
817.9233680927127
 21
304.7594812966665
 31
0.0
  0
LINE
  5
3A77
330
18
100
AcDbEntity
  8
0
100
AcDbLine
 10
816.9675239699969
 20
303.8870163971009
 30
0.0
 11
816.9675239699969
 21
303.8870163971009
 31
0.0
  0
LINE
  5
3A79
330
18
100
AcDbEntity
  8
0
100
AcDbLine
 10
817.9233680927127
 20
304.7594812966665
 30
0.0
 11
817.9233680927127
 21
307.8870163971011
 31
0.0
  0
ARC
  5
3A7A
330
18
100
AcDbEntity
  8
0
100
AcDbCircle
 10
818.9675239700001
 20
305.8556433636979
 30
0.0
 40
2.0
100
AcDbArc
 50
226.0535548463495
 51
262.8192442185418
  0
ARC
  5
3A7B
330
18
100
AcDbEntity
  8
0
100
AcDbCircle
 10
818.9675239700001
 20
305.8870163971009
 30
0.0
 40
2.0
100
AcDbArc
 50
90.0
 51
121.4717390067282
  0
LINE
  5
3A7C
330
18
100
AcDbEntity
  8
0
100
AcDbLine
 10
813.9229075947124
 20
334.6210974893342
 30
0.0
 11
808.5689075947124
 21
334.6210974893342
 31
0.0
  0
ARC
  5
3A7D
330
18
100
AcDbEntity
  8
0
100
AcDbCircle
 10
810.6479075947124
 20
324.2308166313355
 30
0.0
 40
10.23726888199896
100
AcDbArc
 50
71.34254553787812
 51
108.657454462129
  0
LINE
  5
3A7E
330
18
100
AcDbEntity
  8
0
100
AcDbLine
 10
821.4675239700001
 20
329.1206569081664
 30
0.0
 11
812.6891250490171
 21
329.1245490438549
 31
0.0
  0
LINE
  5
3A7F
330
18
100
AcDbEntity
  8
0
100
AcDbLine
 10
788.4675239700001
 20
317.8870163971012
 30
0.0
 11
820.9675239699969
 21
317.887016397101
 31
0.0
  0
LINE
  5
3A80
330
18
100
AcDbEntity
  8
0
100
AcDbLine
 10
810.2132242387362
 20
334.5672866735481
 30
0.0
 11
808.4785222320851
 21
347.7185570695703
 31
0.0
  0
LINE
  5
3A81
330
18
100
AcDbEntity
  8
0
100
AcDbLine
 10
809.9233680927127
 20
318.1251920086011
 30
0.0
 11
788.4675239700001
 21
318.1251920086008
 31
0.0
  0
LINE
  5
3A82
330
18
100
AcDbEntity
  8
0
100
AcDbLine
 10
808.5689075947124
 20
334.6210974893342
 30
0.0
 11
807.3729075947124
 21
333.9300974893343
 31
0.0
  0
LINE
  5
3A83
330
18
100
AcDbEntity
  8
0
100
AcDbLine
 10
807.3729075947124
 20
333.9300974893343
 30
0.0
 11
807.3729075947124
 21
329.1210974893345
 31
0.0
  0
LINE
  5
3A85
330
18
100
AcDbEntity
  8
0
100
AcDbLine
 10
809.9233680927127
 20
317.887016397101
 30
0.0
 11
809.9233680927127
 21
319.1206569081664
 31
0.0
  0
ARC
  5
3A86
330
18
100
AcDbEntity
  8
0
100
AcDbCircle
 10
793.2175239699968
 20
370.8428162923498
 30
0.0
 40
14.54336692228284
100
AcDbArc
 50
250.9368928899528
 51
289.0631071100471
  0
LINE
  5
3A87
330
18
100
AcDbEntity
  8
0
100
AcDbLine
 10
797.4675239700001
 20
356.1251917657658
 30
0.0
 11
788.4675239699996
 21
356.1251917657657
 31
0.0
  0
ARC
  5
3A88
330
18
100
AcDbEntity
  8
0
100
AcDbCircle
 10
793.2175239699968
 20
350.3793916276817
 30
0.0
 40
14.54336692228284
100
AcDbArc
 50
70.93689288995287
 51
109.0631071100471
  0
LINE
  5
3A89
330
18
100
AcDbEntity
  8
0
100
AcDbLine
 10
794.4675239699972
 20
365.1351917657658
 30
0.0
 11
788.4675239699971
 21
365.1351917657659
 31
0.0
  0
LINE
  5
3A8A
330
18
100
AcDbEntity
  8
0
100
AcDbLine
 10
799.4675239700001
 20
351.1251917657658
 30
0.0
 11
788.4675239700001
 21
351.1251917657658
 31
0.0
  0
LINE
  5
3A8B
330
18
100
AcDbEntity
  8
0
100
AcDbLine
 10
780.7165239699972
 20
356.0870161542657
 30
0.0
 11
796.2185239699971
 21
356.0870161542657
 31
0.0
  0
LINE
  5
3A8C
330
18
100
AcDbEntity
  8
0
100
AcDbLine
 10
788.467523969997
 20
364.1251917657657
 30
0.0
 11
788.4675239699971
 21
357.0970161542657
 31
0.0
  0
LINE
  5
3A8D
330
18
100
AcDbEntity
  8
0
100
AcDbLine
 10
778.9675239699971
 20
364.1251917657657
 30
0.0
 11
780.7165239699972
 21
365.1351917657657
 31
0.0
  0
LINE
  5
3A8E
330
18
100
AcDbEntity
  8
0
100
AcDbLine
 10
778.9675239699971
 20
357.0970161542656
 30
0.0
 11
780.7165239699972
 21
356.0870161542657
 31
0.0
  0
LINE
  5
3A8F
330
18
100
AcDbEntity
  8
0
100
AcDbLine
 10
778.9675239699964
 20
364.1251917657652
 30
0.0
 11
778.9675239699963
 21
357.0970161542661
 31
0.0
  0
ARC
  5
3A90
330
18
100
AcDbEntity
  8
0
100
AcDbCircle
 10
779.46752397
 20
354.1251917657658
 30
0.0
 40
2.0
100
AcDbArc
 50
90.0
 51
180.0
  0
ARC
  5
3A91
330
18
100
AcDbEntity
  8
0
100
AcDbCircle
 10
775.46752397
 20
353.1251917657657
 30
0.0
 40
2.0
100
AcDbArc
 50
270.0
 51
0.0
  0
LINE
  5
3A92
330
18
100
AcDbEntity
  8
0
100
AcDbLine
 10
777.4675239700001
 20
353.1251917657657
 30
0.0
 11
777.4675239700001
 21
354.1251917657658
 31
0.0
  0
LINE
  5
3A93
330
18
100
AcDbEntity
  8
0
100
AcDbLine
 10
777.4675239700001
 20
351.1251917657658
 30
0.0
 11
788.4675239700001
 21
351.1251917657658
 31
0.0
  0
ARC
  5
3A94
330
18
100
AcDbEntity
  8
0
100
AcDbCircle
 10
783.7175239699973
 20
370.8428162923497
 30
0.0
 40
14.54336692228284
100
AcDbArc
 50
250.9368928899528
 51
289.0631071100471
  0
LINE
  5
3A95
330
18
100
AcDbEntity
  8
0
100
AcDbLine
 10
779.46752397
 20
356.1251917657658
 30
0.0
 11
788.4675239700006
 21
356.1251917657657
 31
0.0
  0
ARC
  5
3A96
330
18
100
AcDbEntity
  8
0
100
AcDbCircle
 10
783.7175239699976
 20
350.3793916276815
 30
0.0
 40
14.54336692228284
100
AcDbArc
 50
70.93689288995287
 51
109.0631071100471
  0
LINE
  5
3A97
330
18
100
AcDbEntity
  8
0
100
AcDbLine
 10
780.7165239699972
 20
365.1351917657657
 30
0.0
 11
788.4675239699971
 21
365.1351917657659
 31
0.0
  0
ARC
  5
3A98
330
18
100
AcDbEntity
  8
0
100
AcDbCircle
 10
804.5227773617712
 20
347.1251917657657
 30
0.0
 40
4.0
100
AcDbArc
 50
8.530816189958024
 51
90.0
  0
LINE
  5
3A99
330
18
100
AcDbEntity
  8
0
100
AcDbLine
 10
796.2185239699971
 20
365.1351917657657
 30
0.0
 11
794.4776758330411
 21
365.1392228941062
 31
0.0
  0
LINE
  5
3A9A
330
18
100
AcDbEntity
  8
0
100
AcDbLine
 10
797.9675239699972
 20
364.1251917657657
 30
0.0
 11
796.2185239699971
 21
365.1351917657657
 31
0.0
  0
LINE
  5
3A9B
330
18
100
AcDbEntity
  8
0
100
AcDbLine
 10
797.9675239699972
 20
357.0970161542657
 30
0.0
 11
796.2185239699971
 21
356.0870161542657
 31
0.0
  0
ARC
  5
3A9C
330
18
100
AcDbEntity
  8
0
100
AcDbCircle
 10
797.4675239700001
 20
354.1251917657658
 30
0.0
 40
2.0
100
AcDbArc
 50
0.0
 51
90.0
  0
LINE
  5
3A9D
330
18
100
AcDbEntity
  8
0
100
AcDbLine
 10
797.9675239699969
 20
357.0970161542657
 30
0.0
 11
797.9675239699972
 21
364.1251917657657
 31
0.0
  0
ARC
  5
3A9E
330
18
100
AcDbEntity
  8
0
100
AcDbCircle
 10
801.46752397
 20
353.1251917657657
 30
0.0
 40
2.0
100
AcDbArc
 50
180.0
 51
270.0
  0
LINE
  5
3A9F
330
18
100
AcDbEntity
  8
0
100
AcDbLine
 10
799.4675239700001
 20
353.1251917657657
 30
0.0
 11
799.4675239700001
 21
354.1251917657658
 31
0.0
  0
LINE
  5
3AA0
330
18
100
AcDbEntity
  8
0
100
AcDbLine
 10
804.5227773617712
 20
351.1251917657657
 30
0.0
 11
801.46752397
 21
351.1251917657657
 31
0.0
  0
LINE
  5
3AA1
330
18
100
AcDbEntity
  8
0
100
AcDbLine
 10
819.2769075947122
 20
334.6210974893342
 30
0.0
 11
820.4729075947122
 21
333.9300974893343
 31
0.0
  0
ARC
  5
3AA2
330
18
100
AcDbEntity
  8
0
100
AcDbCircle
 10
821.460897812817
 20
327.6206569081664
 30
0.0
 40
1.5
100
AcDbArc
 50
0.0
 51
90.0
  0
LINE
  5
3AA3
330
18
100
AcDbEntity
  8
0
100
AcDbLine
 10
822.9608978128172
 20
320.6206569081666
 30
0.0
 11
822.9608978128171
 21
327.6206569081664
 31
0.0
  0
LINE
  5
3AA4
330
18
100
AcDbEntity
  8
0
100
AcDbLine
 10
820.4729075947124
 20
329.1210974893342
 30
0.0
 11
820.4729075947122
 21
333.9300974893343
 31
0.0
  0
LINE
  5
3AA5
330
18
100
AcDbEntity
  8
0
100
AcDbLine
 10
813.9229075947122
 20
333.9300974893344
 30
0.0
 11
813.9207766853955
 21
329.1240029584773
 31
0.0
  0
ARC
  5
3AA6
330
18
100
AcDbEntity
  8
0
100
AcDbCircle
 10
817.1979075947122
 20
324.2308166313355
 30
0.0
 40
10.23726888199896
100
AcDbArc
 50
71.34254553787091
 51
108.6574544621218
  0
LINE
  5
3AA7
330
18
100
AcDbEntity
  8
0
100
AcDbLine
 10
813.9229075947124
 20
334.6210974893342
 30
0.0
 11
819.2769075947122
 21
334.6210974893342
 31
0.0
  0
LINE
  5
3AA8
330
18
100
AcDbEntity
  8
0
100
AcDbLine
 10
821.4608978128172
 20
319.1206569081666
 30
0.0
 11
819.1995747775687
 21
319.1206569081662
 31
0.0
  0
LINE
  5
3AA9
330
18
100
AcDbEntity
  8
0
100
AcDbLine
 10
818.467492607243
 20
317.887016397101
 30
0.0
 11
818.467492607243
 21
318.1251920085994
 31
0.0
  0
LINE
  5
3AAA
330
18
100
AcDbEntity
  8
0
100
AcDbLine
 10
817.9233680927127
 20
317.887016397101
 30
0.0
 11
817.9233680927127
 21
319.1206569081662
 31
0.0
  0
LINE
  5
3AAC
330
18
100
AcDbEntity
  8
0
100
AcDbLine
 10
818.467492607243
 20
318.1251920086006
 30
0.0
 11
817.9233680927127
 21
318.1251920086006
 31
0.0
  0
ARC
  5
3AAD
330
18
100
AcDbEntity
  8
0
100
AcDbCircle
 10
819.1995747775687
 20
317.1206569081661
 30
0.0
 40
2.0
100
AcDbArc
 50
90.0
 51
129.6505354744062
  0
ARC
  5
3AAE
330
18
100
AcDbEntity
  8
0
100
AcDbCircle
 10
821.4608978128172
 20
320.6206569081666
 30
0.0
 40
1.5
100
AcDbArc
 50
270.0
 51
0.0
  0
LINE
  5
3AAF
330
18
100
AcDbEntity
  8
0
100
AcDbLine
 10
813.0907427811935
 20
377.4273813999158
 30
0.0
 11
814.0907427811935
 21
378.4273813999158
 31
0.0
  0
ARC
  5
3AB0
330
18
100
AcDbEntity
  8
0
100
AcDbCircle
 10
794.717523969997
 20
359.3014706892661
 30
0.0
 40
36.66256844076576
100
AcDbArc
 50
58.10126609754426
 51
80.18464374915456
  0
ARC
  5
3AB1
330
18
100
AcDbEntity
  8
0
100
AcDbCircle
 10
806.8299976765953
 20
378.2455129489109
 30
0.0
 40
14.18154922536801
100
AcDbArc
 50
59.20383797140256
 51
120.7961620285974
  0
LINE
  5
3AB2
330
18
100
AcDbEntity
  8
0
100
AcDbLine
 10
813.0907427811935
 20
377.4273813999158
 30
0.0
 11
788.467523969997
 21
377.4273813999158
 31
0.0
  0
LINE
  5
3AB3
330
18
100
AcDbEntity
  8
0
100
AcDbLine
 10
800.9675239699969
 20
373.4273813999158
 30
0.0
 11
775.967523969997
 21
373.4273813999158
 31
0.0
  0
LINE
  5
3AB4
330
18
100
AcDbEntity
  8
0
100
AcDbLine
 10
775.967523969997
 20
373.4273813999158
 30
0.0
 11
775.967523969997
 21
377.4273813999158
 31
0.0
  0
LINE
  5
3AB5
330
18
100
AcDbEntity
  8
0
100
AcDbLine
 10
799.5692525719968
 20
390.4273813999158
 30
0.0
 11
799.5692525719968
 21
378.4273813999158
 31
0.0
  0
LINE
  5
3AB6
330
18
100
AcDbEntity
  8
0
100
AcDbLine
 10
800.9675239699969
 20
373.4273813999158
 30
0.0
 11
800.9675239699969
 21
377.4273813999158
 31
0.0
  0
LINE
  5
3AB7
330
18
100
AcDbEntity
  8
0
100
AcDbLine
 10
788.467523969997
 20
395.4273813999158
 30
0.0
 11
800.9675239699971
 21
395.4273813999158
 31
0.0
  0
LINE
  5
3AB8
330
18
100
AcDbEntity
  8
0
100
AcDbLine
 10
788.467523969997
 20
395.4273813999158
 30
0.0
 11
775.6559145643986
 21
395.4273813999158
 31
0.0
  0
LINE
  5
3AB9
330
18
100
AcDbEntity
  8
0
100
AcDbLine
 10
814.0907427811935
 20
390.4273813999158
 30
0.0
 11
814.0907427811935
 21
378.4273813999158
 31
0.0
  0
LINE
  5
3AC5
330
18
100
AcDbEntity
  8
0
100
AcDbLine
 10
603.4361279087415
 20
534.8992075124122
 30
0.0
 11
609.1421279087417
 21
534.8992075124122
 31
0.0
  0
LINE
  5
3AC6
330
18
100
AcDbEntity
  8
0
100
AcDbLine
 10
609.1421279087417
 20
533.0242075124122
 30
0.0
 11
603.4361279087415
 21
533.0242075124122
 31
0.0
  0
ARC
  5
3AC7
330
18
100
AcDbEntity
  8
0
100
AcDbCircle
 10
606.2891279087416
 20
505.016751803579
 30
0.0
 40
22.49999999999997
100
AcDbArc
 50
253.4786489706131
 51
286.5213510293734
  0
CIRCLE
  5
3AC8
330
18
100
AcDbEntity
  8
0
100
AcDbCircle
 10
606.2891279087416
 20
505.0167518035789
 30
0.0
 40
12.5
  0
ARC
  5
3AC9
330
18
100
AcDbEntity
  8
0
100
AcDbCircle
 10
606.2891279087345
 20
445.5684145842289
 30
0.0
 40
38.41389536560157
100
AcDbArc
 50
71.59783568814089
 51
108.4021643118457
  0
ARC
  5
3ACA
330
18
100
AcDbEntity
  8
0
100
AcDbCircle
 10
606.2891279087415
 20
505.016751803579
 30
0.0
 40
26.0
100
AcDbArc
 50
81.80157769133334
 51
98.19842230866667
  0
ARC
  5
3ACB
330
18
100
AcDbEntity
  8
0
100
AcDbCircle
 10
606.2891279087416
 20
505.016751803579
 30
0.0
 40
33.0
100
AcDbArc
 50
71.0146131537343
 51
108.9853868462657
  0
LINE
  5
3ACE
330
18
100
AcDbEntity
  8
0
100
AcDbLine
 10
599.5391279087416
 20
533.9617075124122
 30
0.0
 11
603.4361279087415
 21
536.2117075124122
 31
0.0
  0
LINE
  5
3ACF
330
18
100
AcDbEntity
  8
0
100
AcDbLine
 10
603.4361279087415
 20
536.2117075124122
 30
0.0
 11
603.4361279087415
 21
534.8992075124122
 31
0.0
  0
LINE
  5
3AD0
330
18
100
AcDbEntity
  8
0
100
AcDbLine
 10
584.5862837860258
 20
536.9725959262946
 30
0.0
 11
588.3392837860258
 21
530.4725959262945
 31
0.0
  0
LINE
  5
3AD1
330
18
100
AcDbEntity
  8
0
100
AcDbLine
 10
573.3272837860258
 20
530.4725959262945
 30
0.0
 11
577.0802837860258
 21
536.9725959262946
 31
0.0
  0
CIRCLE
  5
3AD2
330
18
100
AcDbEntity
  8
0
100
AcDbCircle
 10
580.8332837860258
 20
530.4725959262945
 30
0.0
 40
6.308759999999999
  0
ARC
  5
3AD3
330
18
100
AcDbEntity
  8
0
100
AcDbCircle
 10
592.3000672706685
 20
545.6776197537878
 30
0.0
 40
10.0
100
AcDbArc
 50
232.9784323944269
 51
288.9853868462657
  0
ARC
  5
3AD4
330
18
100
AcDbEntity
  8
0
100
AcDbCircle
 10
580.8332837860259
 20
530.4725959262947
 30
0.0
 40
9.044155877284282
100
AcDbArc
 50
52.97843239442689
 51
180.0
  0
ARC
  5
3AD5
330
18
100
AcDbEntity
  8
0
100
AcDbCircle
 10
549.4303055902076
 20
486.4404885800503
 30
0.0
 40
38.78201329076775
100
AcDbArc
 50
359.835639017985
 51
36.34967605679043
  0
LINE
  5
3AD6
330
18
100
AcDbEntity
  8
0
100
AcDbLine
 10
571.7891279087417
 20
530.4725959262947
 30
0.0
 11
571.7891279087417
 21
479.5609076808633
 31
0.0
  0
LINE
  5
3AD7
330
18
100
AcDbEntity
  8
0
100
AcDbLine
 10
584.5862837860259
 20
486.0609076808633
 30
0.0
 11
588.3392837860259
 21
479.5609076808633
 31
0.0
  0
LINE
  5
3AD8
330
18
100
AcDbEntity
  8
0
100
AcDbLine
 10
573.3272837860259
 20
479.5609076808633
 30
0.0
 11
577.0802837860259
 21
486.0609076808633
 31
0.0
  0
LINE
  5
3AD9
330
18
100
AcDbEntity
  8
0
100
AcDbLine
 10
577.0802837860259
 20
486.0609076808633
 30
0.0
 11
584.5862837860259
 21
486.0609076808633
 31
0.0
  0
ARC
  5
3ADA
330
18
100
AcDbEntity
  8
0
100
AcDbCircle
 10
606.2891279087416
 20
505.016751803579
 30
0.0
 40
22.49999999999997
100
AcDbArc
 50
181.5415174088407
 51
214.6437976659348
  0
ARC
  5
3ADB
330
18
100
AcDbEntity
  8
0
100
AcDbCircle
 10
606.2891279087415
 20
505.016751803579
 30
0.0
 40
26.0
100
AcDbArc
 50
225.951420972439
 51
242.1984223086677
  0
LINE
  5
3ADC
330
18
100
AcDbEntity
  8
0
100
AcDbLine
 10
588.3392837860258
 20
530.4725959262945
 30
0.0
 11
584.5862837860258
 21
523.9725959262946
 31
0.0
  0
ARC
  5
3ADD
330
18
100
AcDbEntity
  8
0
100
AcDbCircle
 10
606.2891279087416
 20
505.016751803579
 30
0.0
 40
22.49999999999997
100
AcDbArc
 50
109.4786489706133
 51
142.5213510293868
  0
ARC
  5
3ADE
330
18
100
AcDbEntity
  8
0
100
AcDbCircle
 10
571.3462720178819
 20
553.1114669013881
 30
0.0
 40
38.41389536562871
100
AcDbArc
 50
287.5978356881598
 51
324.4021643118438
  0
LINE
  5
3ADF
330
18
100
AcDbEntity
  8
0
100
AcDbLine
 10
584.5862837860258
 20
523.9725959262946
 30
0.0
 11
577.0802837860258
 21
523.9725959262946
 31
0.0
  0
LINE
  5
3AE0
330
18
100
AcDbEntity
  8
0
100
AcDbLine
 10
577.0802837860258
 20
523.9725959262946
 30
0.0
 11
573.3272837860258
 21
530.4725959262945
 31
0.0
  0
ARC
  5
3AE1
330
18
100
AcDbEntity
  8
0
100
AcDbCircle
 10
606.2891279087415
 20
505.016751803579
 30
0.0
 40
26.0
100
AcDbArc
 50
153.8015776913327
 51
170.2338941023389
  0
LINE
  5
3AE2
330
18
100
AcDbEntity
  8
0
100
AcDbLine
 10
603.4361279087415
 20
531.7117075124122
 30
0.0
 11
599.5391279087416
 21
533.9617075124122
 31
0.0
  0
LINE
  5
3AE3
330
18
100
AcDbEntity
  8
0
100
AcDbLine
 10
603.4361279087415
 20
533.0242075124122
 30
0.0
 11
603.4361279087415
 21
531.7117075124122
 31
0.0
  0
LINE
  5
3AE4
330
18
100
AcDbEntity
  8
0
100
AcDbLine
 10
577.0802837860258
 20
536.9725959262946
 30
0.0
 11
584.5862837860258
 21
536.9725959262946
 31
0.0
  0
LINE
  5
3B16
330
18
100
AcDbEntity
  8
0
100
AcDbLine
 10
609.1421279087417
 20
536.2117075124122
 30
0.0
 11
613.0391279087416
 21
533.9617075124122
 31
0.0
  0
LINE
  5
3B17
330
18
100
AcDbEntity
  8
0
100
AcDbLine
 10
609.1421279087417
 20
534.8992075124122
 30
0.0
 11
609.1421279087417
 21
536.2117075124122
 31
0.0
  0
LINE
  5
3B18
330
18
100
AcDbEntity
  8
0
100
AcDbLine
 10
635.4979720314574
 20
536.9725959262947
 30
0.0
 11
639.2509720314572
 21
530.4725959262947
 31
0.0
  0
LINE
  5
3B19
330
18
100
AcDbEntity
  8
0
100
AcDbLine
 10
624.2389720314573
 20
530.4725959262947
 30
0.0
 11
627.9919720314572
 21
536.9725959262947
 31
0.0
  0
CIRCLE
  5
3B1A
330
18
100
AcDbEntity
  8
0
100
AcDbCircle
 10
631.7449720314573
 20
530.4725959262947
 30
0.0
 40
6.308759999999999
  0
ARC
  5
3B1B
330
18
100
AcDbEntity
  8
0
100
AcDbCircle
 10
620.2781885468148
 20
545.6776197537878
 30
0.0
 40
10.0
100
AcDbArc
 50
251.0146131537343
 51
307.021567605573
  0
ARC
  5
3B1C
330
18
100
AcDbEntity
  8
0
100
AcDbCircle
 10
631.7449720314573
 20
530.4725959262947
 30
0.0
 40
9.044155877284282
100
AcDbArc
 50
0.0
 51
127.0215676055731
  0
ARC
  5
3B1D
330
18
100
AcDbEntity
  8
0
100
AcDbCircle
 10
662.8278564041425
 20
486.6462053154585
 30
0.0
 40
38.41389536562905
100
AcDbArc
 50
143.5978356881624
 51
180.4021643118412
  0
LINE
  5
3B1E
330
18
100
AcDbEntity
  8
0
100
AcDbLine
 10
640.7891279087416
 20
530.4725959262947
 30
0.0
 11
640.7891279087416
 21
479.5609076808633
 31
0.0
  0
LINE
  5
3B1F
330
18
100
AcDbEntity
  8
0
100
AcDbLine
 10
627.9919720314572
 20
486.0609076808633
 30
0.0
 11
635.4979720314574
 21
486.0609076808633
 31
0.0
  0
ARC
  5
3B20
330
18
100
AcDbEntity
  8
0
100
AcDbCircle
 10
606.2891279087416
 20
505.016751803579
 30
0.0
 40
22.49999999999997
100
AcDbArc
 50
325.478648970617
 51
358.5213510293883
  0
LINE
  5
3B21
330
18
100
AcDbEntity
  8
0
100
AcDbLine
 10
624.2389720314573
 20
479.5609076808633
 30
0.0
 11
627.9919720314572
 21
486.0609076808633
 31
0.0
  0
ARC
  5
3B22
330
18
100
AcDbEntity
  8
0
100
AcDbCircle
 10
606.2891279087415
 20
505.016751803579
 30
0.0
 40
26.0
100
AcDbArc
 50
297.8015776913249
 51
314.1984223086676
  0
LINE
  5
3B23
330
18
100
AcDbEntity
  8
0
100
AcDbLine
 10
635.4979720314574
 20
486.0609076808633
 30
0.0
 11
639.2509720314572
 21
479.5609076808633
 31
0.0
  0
LINE
  5
3B24
330
18
100
AcDbEntity
  8
0
100
AcDbLine
 10
635.4979720314574
 20
523.9725959262947
 30
0.0
 11
627.9919720314572
 21
523.9725959262947
 31
0.0
  0
ARC
  5
3B25
330
18
100
AcDbEntity
  8
0
100
AcDbCircle
 10
641.2319837996014
 20
553.1114669013881
 30
0.0
 40
38.4138953656288
100
AcDbArc
 50
215.5978356881561
 51
252.4021643118401
  0
LINE
  5
3B26
330
18
100
AcDbEntity
  8
0
100
AcDbLine
 10
613.0391279087416
 20
533.9617075124122
 30
0.0
 11
609.1421279087417
 21
531.7117075124122
 31
0.0
  0
LINE
  5
3B27
330
18
100
AcDbEntity
  8
0
100
AcDbLine
 10
609.1421279087417
 20
531.7117075124122
 30
0.0
 11
609.1421279087417
 21
533.0242075124122
 31
0.0
  0
LINE
  5
3B28
330
18
100
AcDbEntity
  8
0
100
AcDbLine
 10
627.9919720314572
 20
523.9725959262947
 30
0.0
 11
624.2389720314573
 21
530.4725959262947
 31
0.0
  0
ARC
  5
3B29
330
18
100
AcDbEntity
  8
0
100
AcDbCircle
 10
606.2891279087416
 20
505.016751803579
 30
0.0
 40
22.49999999999997
100
AcDbArc
 50
37.47864897061319
 51
70.5213510293866
  0
LINE
  5
3B2A
330
18
100
AcDbEntity
  8
0
100
AcDbLine
 10
639.2509720314572
 20
530.4725959262947
 30
0.0
 11
635.4979720314574
 21
523.9725959262947
 31
0.0
  0
ARC
  5
3B2B
330
18
100
AcDbEntity
  8
0
100
AcDbCircle
 10
606.2891279087415
 20
505.016751803579
 30
0.0
 40
26.0
100
AcDbArc
 50
9.801577691334635
 51
26.19842230866721
  0
LINE
  5
3B2C
330
18
100
AcDbEntity
  8
0
100
AcDbLine
 10
627.9919720314572
 20
536.9725959262947
 30
0.0
 11
635.4979720314574
 21
536.9725959262947
 31
0.0
  0
TEXT
  5
3B9C
330
18
100
AcDbEntity
  8
0
100
AcDbText
 10
503.3570784926983
 20
47.28092536227669
 30
0.0
 40
24.0
  1
TLV DR20 (PT)
 41
0.8
 72
     4
 11
604.9342213498412
 21
57.56663964799099
 31
0.0
100
AcDbText
  0
TEXT
  5
3B9D
330
18
100
AcDbEntity
  8
0
100
AcDbText
 10
233.5854806294086
 20
669.1075394313465
 30
0.0
 40
16.0
  1
背面
 41
0.8
 72
     4
 11
247.2388139627418
 21
677.1075394313466
 31
0.0
100
AcDbText
  0
TEXT
  5
3B9E
330
18
100
AcDbEntity
  8
0
100
AcDbText
 10
233.5854806294086
 20
488.612116112512
 30
0.0
 40
16.0
  1
平面
 41
0.8
 72
     4
 11
247.2388139627418
 21
496.0787827791786
 31
0.0
100
AcDbText
  0
TEXT
  5
3B9F
330
18
100
AcDbEntity
  8
0
100
AcDbText
 10
233.5854806294086
 20
294.4637385570609
 30
0.0
 40
16.0
  1
正面
 41
0.8
 72
     4
 11
247.2388139627418
 21
301.9304052237275
 31
0.0
100
AcDbText
  0
TEXT
  5
3BA1
330
18
100
AcDbEntity
  8
0
100
AcDbText
 10
542.6708666655933
 20
113.4918077967057
 30
0.0
 40
16.0
  1
15A,20A,25A
 41
0.8
 72
     4
 11
602.4041999989267
 21
119.9679982728962
 31
0.0
100
AcDbText
  0
LINE
  5
3C1A
330
18
100
AcDbEntity
  8
0
100
AcDbLine
 10
584.4038260649362
 20
304.7590407154981
 30
0.0
 11
584.4038260649362
 21
307.8865758159327
 31
0.0
  0
LINE
  5
3C1B
330
18
100
AcDbEntity
  8
0
100
AcDbLine
 10
576.4038260649363
 20
307.8865758159327
 30
0.0
 11
576.4038260649363
 21
304.7590407154981
 31
0.0
  0
LINE
  5
3C1C
330
18
100
AcDbEntity
  8
0
100
AcDbLine
 10
577.0808260649362
 20
304.082040715498
 30
0.0
 11
583.7268260649361
 21
304.082040715498
 31
0.0
  0
LINE
  5
3C1D
330
18
100
AcDbEntity
  8
0
100
AcDbLine
 10
584.4038260649362
 20
304.7590407154981
 30
0.0
 11
576.4038260649363
 21
304.7590407154981
 31
0.0
  0
LINE
  5
3C1E
330
18
100
AcDbEntity
  8
0
100
AcDbLine
 10
576.4038260649363
 20
304.7590407154981
 30
0.0
 11
577.0808260649362
 21
304.082040715498
 31
0.0
  0
LINE
  5
3C1F
330
18
100
AcDbEntity
  8
0
100
AcDbLine
 10
583.7268260649361
 20
304.082040715498
 30
0.0
 11
584.4038260649362
 21
304.7590407154981
 31
0.0
  0
LINE
  5
3C21
330
18
100
AcDbEntity
  8
0
100
AcDbLine
 10
576.4038260649363
 20
317.8865758159326
 30
0.0
 11
576.4038260649363
 21
319.120216326998
 31
0.0
  0
LINE
  5
3C22
330
18
100
AcDbEntity
  8
0
100
AcDbLine
 10
584.4038260649362
 20
317.8865758159326
 30
0.0
 11
584.4038260649362
 21
319.1202163269978
 31
0.0
  0
LINE
  5
3C24
330
18
100
AcDbEntity
  8
0
100
AcDbLine
 10
584.4038260649362
 20
318.1251920086006
 30
0.0
 11
606.3526285063254
 21
318.1251920086006
 31
0.0
  0
LINE
  5
3C25
330
18
100
AcDbEntity
  8
0
100
AcDbLine
 10
636.1744297525466
 20
307.8865758159321
 30
0.0
 11
636.1744297525465
 21
304.7590407154975
 31
0.0
  0
LINE
  5
3C26
330
18
100
AcDbEntity
  8
0
100
AcDbLine
 10
628.1744297525465
 20
304.7590407154977
 30
0.0
 11
628.1744297525466
 21
307.8865758159323
 31
0.0
  0
LINE
  5
3C27
330
18
100
AcDbEntity
  8
0
100
AcDbLine
 10
628.1744297525465
 20
304.7590407154977
 30
0.0
 11
636.1744297525465
 21
304.7590407154975
 31
0.0
  0
LINE
  5
3C28
330
18
100
AcDbEntity
  8
0
100
AcDbLine
 10
635.4974297525465
 20
304.0820407154974
 30
0.0
 11
628.8514297525466
 21
304.0820407154975
 31
0.0
  0
LINE
  5
3C29
330
18
100
AcDbEntity
  8
0
100
AcDbLine
 10
636.1744297525465
 20
304.7590407154975
 30
0.0
 11
635.4974297525465
 21
304.0820407154974
 31
0.0
  0
LINE
  5
3C2A
330
18
100
AcDbEntity
  8
0
100
AcDbLine
 10
628.8514297525466
 20
304.0820407154975
 30
0.0
 11
628.1744297525465
 21
304.7590407154977
 31
0.0
  0
LINE
  5
3C2B
330
18
100
AcDbEntity
  8
0
100
AcDbLine
 10
636.2890965459844
 20
318.1251920086
 30
0.0
 11
636.1744297525468
 21
318.1251920086
 31
0.0
  0
LINE
  5
3C2C
330
18
100
AcDbEntity
  8
0
100
AcDbLine
 10
636.1744297525468
 20
317.8865758159321
 30
0.0
 11
636.1744297525468
 21
319.1202163269974
 31
0.0
  0
LINE
  5
3C2D
330
18
100
AcDbEntity
  8
0
100
AcDbLine
 10
636.2890965459842
 20
317.9251920085988
 30
0.0
 11
636.2890965459844
 21
318.1251920085989
 31
0.0
  0
LINE
  5
3C2E
330
18
100
AcDbEntity
  8
0
100
AcDbLine
 10
628.1744297525468
 20
317.8865758159322
 30
0.0
 11
628.1744297525468
 21
319.1202163269974
 31
0.0
  0
LINE
  5
3C30
330
18
100
AcDbEntity
  8
0
100
AcDbLine
 10
628.1744297525468
 20
318.1251920086006
 30
0.0
 11
606.3526285063254
 21
318.1251920086006
 31
0.0
  0
LINE
  5
3C48
330
18
100
AcDbEntity
  8
0
100
AcDbLine
 10
560.7256785063561
 20
669.8225148611402
 30
0.0
 11
560.7256630997708
 21
627.8240541873467
 31
0.0
  0
LINE
  5
3C49
330
18
100
AcDbEntity
  8
0
100
AcDbLine
 10
562.7257175999774
 20
671.8225516166588
 30
0.0
 11
562.7256638288094
 21
625.8262293481585
 31
0.0
  0
ARC
  5
3C4A
330
18
100
AcDbEntity
  8
0
100
AcDbCircle
 10
614.6951644720631
 20
692.8613144434639
 30
0.0
 40
39.74010723793169
100
AcDbArc
 50
213.6987499964722
 51
243.2787292577012
  0
ARC
  5
3C4B
330
18
100
AcDbEntity
  8
0
100
AcDbCircle
 10
597.7560901502532
 20
692.8613144434639
 30
0.0
 40
39.74010723793169
100
AcDbArc
 50
296.7212707422987
 51
326.3012500035278
  0
LINE
  5
3C4C
330
18
100
AcDbEntity
  8
0
100
AcDbLine
 10
653.7256060053735
 20
671.8225465574441
 30
0.0
 11
653.7284542867203
 21
625.8261846139035
 31
0.0
  0
LINE
  5
3C4D
330
18
100
AcDbEntity
  8
0
100
AcDbLine
 10
574.7256907143934
 20
658.8266422563784
 30
0.0
 11
565.7256907143934
 21
658.8266422563784
 31
0.0
  0
LINE
  5
3C4E
330
18
100
AcDbEntity
  8
0
100
AcDbLine
 10
565.7256907143934
 20
638.8266422563784
 30
0.0
 11
574.7256907143934
 21
638.8266422563786
 31
0.0
  0
LINE
  5
3C4F
330
18
100
AcDbEntity
  8
0
100
AcDbLine
 10
562.7256638288094
 20
625.8262293481585
 30
0.0
 11
582.7256478990335
 21
625.8260234615395
 31
0.0
  0
ARC
  5
3C50
330
18
100
AcDbEntity
  8
0
100
AcDbCircle
 10
583.225627311158
 20
603.8266474112957
 30
0.0
 40
2.0
100
AcDbArc
 50
180.0
 51
270.0
  0
ARC
  5
3C51
330
18
100
AcDbEntity
  8
0
100
AcDbCircle
 10
589.2256273111585
 20
604.9574823709171
 30
0.0
 40
4.0
100
AcDbArc
 50
180.0000000000065
 51
239.2972144242148
  0
LINE
  5
3C52
330
18
100
AcDbEntity
  8
0
100
AcDbLine
 10
625.3972001864118
 20
602.1968533540914
 30
0.0
 11
647.8547699886215
 21
624.654423156301
 31
0.0
  0
LINE
  5
3C53
330
18
100
AcDbEntity
  8
0
100
AcDbLine
 10
606.225627311158
 20
595.3266474112957
 30
0.0
 11
622.2256273111581
 21
595.3266474112957
 31
0.0
  0
LINE
  5
3C54
330
18
100
AcDbEntity
  8
0
100
AcDbLine
 10
588.5845501449722
 20
601.7985176752603
 30
0.0
 11
623.4138023752286
 21
601.7985176752603
 31
0.0
  0
LINE
  5
3C55
330
18
100
AcDbEntity
  8
0
100
AcDbLine
 10
598.225627311158
 20
592.3266474112957
 30
0.0
 11
614.3526439649507
 21
592.3266474112956
 31
0.0
  0
LINE
  5
3C56
330
18
100
AcDbEntity
  8
0
100
AcDbLine
 10
624.225627311158
 20
597.3266474112957
 30
0.0
 11
624.225627311158
 21
599.3684262293452
 31
0.0
  0
ARC
  5
3C57
330
18
100
AcDbEntity
  8
0
100
AcDbCircle
 10
628.225627311158
 20
599.3684262293452
 30
0.0
 40
4.0
100
AcDbArc
 50
135.0
 51
180.0
  0
ARC
  5
3C58
330
18
100
AcDbEntity
  8
0
100
AcDbCircle
 10
614.3526439649507
 20
594.3266474112956
 30
0.0
 40
2.0
100
AcDbArc
 50
270.0
 51
345.5224878140705
  0
ARC
  5
3C59
330
18
100
AcDbEntity
  8
0
100
AcDbCircle
 10
618.2256273111581
 20
593.3266474112957
 30
0.0
 40
2.0
100
AcDbArc
 50
90.0
 51
165.5224878140705
  0
ARC
  5
3C5A
330
18
100
AcDbEntity
  8
0
100
AcDbCircle
 10
622.2256273111581
 20
597.3266474112957
 30
0.0
 40
2.0
100
AcDbArc
 50
270.0
 51
0.000000000000007
  0
LINE
  5
3C5B
330
18
100
AcDbEntity
  8
0
100
AcDbLine
 10
606.225627311158
 20
595.3266474112957
 30
0.0
 11
590.225627311158
 21
595.3266474112957
 31
0.0
  0
ARC
  5
3C5C
330
18
100
AcDbEntity
  8
0
100
AcDbCircle
 10
598.225627311158
 20
594.3266474112958
 30
0.0
 40
2.0
100
AcDbArc
 50
194.4775121859294
 51
270.0
  0
ARC
  5
3C5D
330
18
100
AcDbEntity
  8
0
100
AcDbCircle
 10
594.3526439649507
 20
593.3266474112957
 30
0.0
 40
2.0
100
AcDbArc
 50
14.47751218592945
 51
90.0
  0
ARC
  5
3C5E
330
18
100
AcDbEntity
  8
0
100
AcDbCircle
 10
586.225627311158
 20
599.8266474112957
 30
0.0
 40
2.0
100
AcDbArc
 50
0.0000000000065208
 51
90.0
  0
LINE
  5
3C5F
330
18
100
AcDbEntity
  8
0
100
AcDbLine
 10
588.225627311158
 20
597.3266474112957
 30
0.0
 11
588.225627311158
 21
599.8266474112958
 31
0.0
  0
LINE
  5
3C60
330
18
100
AcDbEntity
  8
0
100
AcDbLine
 10
583.225627311158
 20
601.8266474112957
 30
0.0
 11
586.225627311158
 21
601.8266474112957
 31
0.0
  0
ARC
  5
3C61
330
18
100
AcDbEntity
  8
0
100
AcDbCircle
 10
590.225627311158
 20
597.3266474112957
 30
0.0
 40
2.0
100
AcDbArc
 50
180.0
 51
270.0
  0
LINE
  5
3C64
330
18
100
AcDbEntity
  8
0
100
AcDbLine
 10
627.225627311158
 20
631.3480757257464
 30
0.0
 11
627.225627311158
 21
606.1191622600226
 31
0.0
  0
LINE
  5
3C65
330
18
100
AcDbEntity
  8
0
100
AcDbLine
 10
647.7158973883996
 20
625.8641924113825
 30
0.0
 11
627.6746708887693
 21
625.8641924113825
 31
0.0
  0
ARC
  5
3C66
330
18
100
AcDbEntity
  8
0
100
AcDbCircle
 10
650.6831971133676
 20
621.8259960315549
 30
0.0
 40
4.0
100
AcDbArc
 50
90.00354798712725
 51
135.0
  0
LINE
  5
3C67
330
18
100
AcDbEntity
  8
0
100
AcDbLine
 10
653.7256556118732
 20
625.8261844405981
 30
0.0
 11
650.6829494171395
 21
625.8259960238857
 31
0.0
  0
ARC
  5
3C68
330
18
100
AcDbEntity
  8
0
100
AcDbCircle
 10
641.7270301460468
 20
655.8243655856738
 30
0.0
 40
3.0
100
AcDbArc
 50
90.0
 51
180.0
  0
ARC
  5
3C69
330
18
100
AcDbEntity
  8
0
100
AcDbCircle
 10
650.7270301460469
 20
655.8243655856738
 30
0.0
 40
3.0
100
AcDbArc
 50
0.000000000000007
 51
90.0
  0
LINE
  5
3C6A
330
18
100
AcDbEntity
  8
0
100
AcDbLine
 10
650.7270301460469
 20
658.8243655856738
 30
0.0
 11
641.7270301460468
 21
658.8243655856738
 31
0.0
  0
LINE
  5
3C6B
330
18
100
AcDbEntity
  8
0
100
AcDbLine
 10
641.7270301460468
 20
638.8243655856738
 30
0.0
 11
650.7270301460469
 21
638.8243655856738
 31
0.0
  0
ARC
  5
3C6C
330
18
100
AcDbEntity
  8
0
100
AcDbCircle
 10
641.7270301460468
 20
641.8243655856738
 30
0.0
 40
3.0
100
AcDbArc
 50
180.0
 51
270.0
  0
ARC
  5
3C6D
330
18
100
AcDbEntity
  8
0
100
AcDbCircle
 10
650.7270301460469
 20
641.8243655856738
 30
0.0
 40
3.0
100
AcDbArc
 50
270.0
 51
0.000000000000007
  0
LINE
  5
3C6E
330
18
100
AcDbEntity
  8
0
100
AcDbLine
 10
638.7270301460468
 20
655.8243655856738
 30
0.0
 11
638.7270301460468
 21
641.8243655856738
 31
0.0
  0
LINE
  5
3C6F
330
18
100
AcDbEntity
  8
0
100
AcDbLine
 10
653.7270301460469
 20
655.8243655856738
 30
0.0
 11
653.7270301460469
 21
641.8243655856738
 31
0.0
  0
ARC
  5
3C70
330
18
100
AcDbEntity
  8
0
100
AcDbCircle
 10
631.225627311158
 20
631.3480757257464
 30
0.0
 40
4.0
100
AcDbArc
 50
149.9999999999994
 51
180.0
  0
LINE
  5
3C71
330
18
100
AcDbEntity
  8
0
100
AcDbLine
 10
627.7615256960204
 20
633.3480757257465
 30
0.0
 11
630.1897196262774
 21
637.5538309835822
 31
0.0
  0
ARC
  5
3C72
330
18
100
AcDbEntity
  8
0
100
AcDbCircle
 10
626.7256180111397
 20
639.5538309835822
 30
0.0
 40
4.0
100
AcDbArc
 50
329.9999999999994
 51
0.0004971569238991
  0
LINE
  5
3C73
330
18
100
AcDbEntity
  8
0
100
AcDbLine
 10
585.2256273111578
 20
631.3480757257466
 30
0.0
 11
585.2256273111585
 21
604.957482370917
 31
0.0
  0
LINE
  5
3C74
330
18
100
AcDbEntity
  8
0
100
AcDbLine
 10
581.225627311158
 20
603.8266474112957
 30
0.0
 11
581.225627311158
 21
619.8266474112958
 31
0.0
  0
ARC
  5
3C75
330
18
100
AcDbEntity
  8
0
100
AcDbCircle
 10
583.225627311158
 20
619.8266474112958
 30
0.0
 40
2.0
100
AcDbArc
 50
97.18075578145816
 51
180.0
  0
ARC
  5
3C76
330
18
100
AcDbEntity
  8
0
100
AcDbCircle
 10
582.725627311158
 20
623.7952743778927
 30
0.0
 40
2.0
100
AcDbArc
 50
277.1807557814581
 51
0.000000000000007
  0
ARC
  5
3C77
330
18
100
AcDbEntity
  8
0
100
AcDbCircle
 10
582.7256009502804
 20
623.8259971011832
 30
0.0
 40
2.00002636090732
100
AcDbArc
 50
0.0003128008571743
 51
89.99865500747914
  0
ARC
  5
3C78
330
18
100
AcDbEntity
  8
0
100
AcDbCircle
 10
574.7256907143934
 20
655.8266422563784
 30
0.0
 40
3.0
100
AcDbArc
 50
0.000000000000007
 51
90.0
  0
ARC
  5
3C79
330
18
100
AcDbEntity
  8
0
100
AcDbCircle
 10
585.7256366111763
 20
639.5538309835822
 30
0.0
 40
4.0
100
AcDbArc
 50
179.9995028430761
 51
210.0000000000005
  0
ARC
  5
3C7A
330
18
100
AcDbEntity
  8
0
100
AcDbCircle
 10
581.225627311158
 20
631.3480757257466
 30
0.0
 40
4.0
100
AcDbArc
 50
0.000000000000007
 51
30.00000000000055
  0
LINE
  5
3C7B
330
18
100
AcDbEntity
  8
0
100
AcDbLine
 10
584.6897289262957
 20
633.3480757257466
 30
0.0
 11
582.2615349960386
 21
637.5538309835822
 31
0.0
  0
ARC
  5
3C7C
330
18
100
AcDbEntity
  8
0
100
AcDbCircle
 10
574.7256907143934
 20
641.8266422563785
 30
0.0
 40
3.0
100
AcDbArc
 50
270.0
 51
0.000000000000007
  0
LINE
  5
3C7D
330
18
100
AcDbEntity
  8
0
100
AcDbLine
 10
577.7256907143934
 20
641.8266422563785
 30
0.0
 11
577.7256907143934
 21
655.8266422563784
 31
0.0
  0
LINE
  5
3C7E
330
18
100
AcDbEntity
  8
0
100
AcDbLine
 10
560.7256631005774
 20
627.8262530032671
 30
0.0
 11
562.7256638288094
 21
625.8262293481585
 31
0.0
  0
ARC
  5
3C7F
330
18
100
AcDbEntity
  8
0
100
AcDbCircle
 10
565.7256907143934
 20
655.8266422563784
 30
0.0
 40
3.0
100
AcDbArc
 50
90.0
 51
180.0
  0
ARC
  5
3C80
330
18
100
AcDbEntity
  8
0
100
AcDbCircle
 10
565.7256907143934
 20
641.8266422563784
 30
0.0
 40
3.0
100
AcDbArc
 50
180.0
 51
270.0
  0
LINE
  5
3C81
330
18
100
AcDbEntity
  8
0
100
AcDbLine
 10
562.7256907143934
 20
655.8266422563784
 30
0.0
 11
562.7256907143934
 21
641.8266422563784
 31
0.0
  0
LINE
  5
3C82
330
18
100
AcDbEntity
  8
0
100
AcDbLine
 10
580.6659168268578
 20
772.3266474112956
 30
0.0
 11
580.6659168268578
 21
760.3266474112956
 31
0.0
  0
LINE
  5
3C83
330
18
100
AcDbEntity
  8
0
100
AcDbLine
 10
588.1633562311118
 20
772.3266474112956
 30
0.0
 11
588.1633562311118
 21
760.3266474112956
 31
0.0
  0
LINE
  5
3C84
330
18
100
AcDbEntity
  8
0
100
AcDbLine
 10
594.1624496925618
 20
772.3266474112956
 30
0.0
 11
594.1624496925618
 21
760.3266474112956
 31
0.0
  0
LINE
  5
3C85
330
18
100
AcDbEntity
  8
0
100
AcDbLine
 10
624.4149150449967
 20
772.3266474112956
 30
0.0
 11
624.4149150449967
 21
760.3266474112956
 31
0.0
  0
LINE
  5
3C86
330
18
100
AcDbEntity
  8
0
100
AcDbLine
 10
618.4158215835469
 20
772.3266474112956
 30
0.0
 11
618.4158215835469
 21
760.3266474112956
 31
0.0
  0
LINE
  5
3C87
330
18
100
AcDbEntity
  8
0
100
AcDbLine
 10
631.9123544492509
 20
772.3266474112956
 30
0.0
 11
631.9123544492509
 21
760.3266474112956
 31
0.0
  0
ARC
  5
3C88
330
18
100
AcDbEntity
  8
0
100
AcDbCircle
 10
573.2957540659247
 20
702.519922919546
 30
0.0
 40
1.5
100
AcDbArc
 50
180.0
 51
270.0
  0
ARC
  5
3C89
330
18
100
AcDbEntity
  8
0
100
AcDbCircle
 10
574.725627311158
 20
692.7884717997974
 30
0.0
 40
3.0
100
AcDbArc
 50
180.0
 51
270.0
  0
ARC
  5
3C8A
330
18
100
AcDbEntity
  8
0
100
AcDbCircle
 10
573.725627311158
 20
697.8266474112957
 30
0.0
 40
2.0
100
AcDbArc
 50
90.0
 51
180.0
  0
ARC
  5
3C8B
330
18
100
AcDbEntity
  8
0
100
AcDbCircle
 10
573.2957540659248
 20
709.5199229195458
 30
0.0
 40
1.5
100
AcDbArc
 50
90.0
 51
180.0
  0
LINE
  5
3C8C
330
18
100
AcDbEntity
  8
0
100
AcDbLine
 10
562.7257175999774
 20
671.8225516166588
 30
0.0
 11
574.7282706356992
 21
671.8225516166588
 31
0.0
  0
LINE
  5
3C8D
330
18
100
AcDbEntity
  8
0
100
AcDbLine
 10
584.5434276400056
 20
716.466552684928
 30
0.0
 11
586.2781296466567
 21
729.6178230809503
 31
0.0
  0
LINE
  5
3C8E
330
18
100
AcDbEntity
  8
0
100
AcDbLine
 10
628.0321864201392
 20
716.5199229195458
 30
0.0
 11
626.3001262055174
 21
729.6178230809503
 31
0.0
  0
LINE
  5
3C8F
330
18
100
AcDbEntity
  8
0
100
AcDbLine
 10
628.1744297525472
 20
700.0244580199805
 30
0.0
 11
606.225627311158
 21
700.0244580199805
 31
0.0
  0
LINE
  5
3C90
330
18
100
AcDbEntity
  8
0
100
AcDbLine
 10
606.225627311158
 20
699.8266474112957
 30
0.0
 11
638.7007805718516
 21
699.8266474112957
 31
0.0
  0
LINE
  5
3C92
330
18
100
AcDbEntity
  8
0
100
AcDbLine
 10
606.225627311158
 20
689.8266474112958
 30
0.0
 11
636.1049193919362
 21
689.8266474112958
 31
0.0
  0
LINE
  5
3C93
330
18
100
AcDbEntity
  8
0
100
AcDbLine
 10
637.0211787163102
 20
701.0199229195457
 30
0.0
 11
575.5570771011731
 21
701.0199229195457
 31
0.0
  0
LINE
  5
3C94
330
18
100
AcDbEntity
  8
0
100
AcDbLine
 10
639.2825017515589
 20
711.0199229195458
 30
0.0
 11
573.2957540659248
 21
711.0199229195458
 31
0.0
  0
LINE
  5
3C96
330
18
100
AcDbEntity
  8
0
100
AcDbLine
 10
636.1744297525472
 20
689.7858418273126
 30
0.0
 11
636.1744297525472
 21
686.6583067268781
 31
0.0
  0
LINE
  5
3C97
330
18
100
AcDbEntity
  8
0
100
AcDbLine
 10
628.1744297525472
 20
686.6583067268781
 30
0.0
 11
628.1744297525472
 21
689.7858418273126
 31
0.0
  0
ARC
  5
3C98
330
18
100
AcDbEntity
  8
0
100
AcDbCircle
 10
637.7007805718518
 20
692.7884717997975
 30
0.0
 40
3.0
100
AcDbArc
 50
270.0
 51
0.000000000000007
  0
LINE
  5
3C99
330
18
100
AcDbEntity
  8
0
100
AcDbLine
 10
628.1744297525472
 20
686.6583067268781
 30
0.0
 11
636.1744297525472
 21
686.6583067268781
 31
0.0
  0
LINE
  5
3C9A
330
18
100
AcDbEntity
  8
0
100
AcDbLine
 10
635.4974297525473
 20
685.9813067268779
 30
0.0
 11
628.8514297525473
 21
685.9813067268779
 31
0.0
  0
ARC
  5
3C9B
330
18
100
AcDbEntity
  8
0
100
AcDbCircle
 10
637.725627311158
 20
674.8225504521311
 30
0.0
 40
3.0
100
AcDbArc
 50
180.0
 51
269.9999860531653
  0
LINE
  5
3C9C
330
18
100
AcDbEntity
  8
0
100
AcDbLine
 10
634.7256273111581
 20
674.8225504521311
 30
0.0
 11
634.7256273111579
 21
685.9813067268779
 31
0.0
  0
LINE
  5
3C9D
330
18
100
AcDbEntity
  8
0
100
AcDbLine
 10
636.1744297525472
 20
686.6583067268781
 30
0.0
 11
635.4974297525473
 21
685.9813067268779
 31
0.0
  0
LINE
  5
3C9E
330
18
100
AcDbEntity
  8
0
100
AcDbLine
 10
637.7256265809034
 20
671.8225504521313
 30
0.0
 11
653.7256060053735
 21
671.8225465574441
 31
0.0
  0
LINE
  5
3C9F
330
18
100
AcDbEntity
  8
0
100
AcDbLine
 10
628.8514297525473
 20
685.9813067268779
 30
0.0
 11
628.1744297525472
 21
686.6583067268781
 31
0.0
  0
INSERT
  5
3CA3
330
18
100
AcDbEntity
  8
0
100
AcDbBlockReference
  2
M8BS
 10
632.1748902505476
 20
711.0199229195458
 30
0.0
 41
-1.0
 50
270.0
  0
ARC
  5
3CA4
330
18
100
AcDbEntity
  8
0
100
AcDbCircle
 10
636.725627311158
 20
687.7884717997975
 30
0.0
 40
2.0
100
AcDbArc
 50
90.0
 51
105.9977006692409
  0
LINE
  5
3CA5
330
18
100
AcDbEntity
  8
0
100
AcDbLine
 10
636.2890965459847
 20
700.0244580199805
 30
0.0
 11
636.1744297525472
 21
700.0244580199805
 31
0.0
  0
ARC
  5
3CA6
330
18
100
AcDbEntity
  8
0
100
AcDbCircle
 10
637.0211787163106
 20
699.0199229195456
 30
0.0
 40
2.0
100
AcDbArc
 50
90.0
 51
115.0478167136891
  0
ARC
  5
3CA7
330
18
100
AcDbEntity
  8
0
100
AcDbCircle
 10
637.0211787163106
 20
699.0199229195463
 30
0.0
 40
2.0
100
AcDbArc
 50
90.00000000000651
 51
115.0478167136891
  0
LINE
  5
3CA8
330
18
100
AcDbEntity
  8
0
100
AcDbLine
 10
636.1744297525472
 20
699.7858418273126
 30
0.0
 11
636.1744297525472
 21
701.019482338378
 31
0.0
  0
LINE
  5
3CA9
330
18
100
AcDbEntity
  8
0
100
AcDbLine
 10
640.7825017515589
 20
702.519922919546
 30
0.0
 11
640.7825017515589
 21
709.5199229195458
 31
0.0
  0
ARC
  5
3CAA
330
18
100
AcDbEntity
  8
0
100
AcDbCircle
 10
639.2825017515589
 20
702.519922919546
 30
0.0
 40
1.5
100
AcDbArc
 50
270.0
 51
0.000000000000007
  0
LINE
  5
3CAB
330
18
100
AcDbEntity
  8
0
100
AcDbLine
 10
636.2890965459847
 20
699.8244580199793
 30
0.0
 11
636.2890965459847
 21
700.0244580199794
 31
0.0
  0
LINE
  5
3CAC
330
18
100
AcDbEntity
  8
0
100
AcDbLine
 10
639.2825017515589
 20
701.019922919546
 30
0.0
 11
637.0211787163106
 21
701.0199229195457
 31
0.0
  0
LINE
  5
3CAD
330
18
100
AcDbEntity
  8
0
100
AcDbLine
 10
640.7007805718516
 20
697.8266474112957
 30
0.0
 11
640.7007805718518
 21
692.7884717997975
 31
0.0
  0
LINE
  5
3CAE
330
18
100
AcDbEntity
  8
0
100
AcDbLine
 10
637.7007805718516
 20
689.7884717997975
 30
0.0
 11
636.725627311158
 21
689.7884717997975
 31
0.0
  0
ARC
  5
3CAF
330
18
100
AcDbEntity
  8
0
100
AcDbCircle
 10
638.7007805718516
 20
697.8266474112957
 30
0.0
 40
2.0
100
AcDbArc
 50
0.000000000000007
 51
90.0
  0
ARC
  5
3CB0
330
18
100
AcDbEntity
  8
0
100
AcDbCircle
 10
639.2825017515589
 20
709.5199229195458
 30
0.0
 40
1.5
100
AcDbArc
 50
0.000000000000007
 51
90.0
  0
LINE
  5
3CB1
330
18
100
AcDbEntity
  8
0
100
AcDbLine
 10
628.1744297525472
 20
699.7858418273126
 30
0.0
 11
628.1744297525472
 21
701.0194823383777
 31
0.0
  0
LINE
  5
3CB2
330
18
100
AcDbEntity
  8
0
100
AcDbLine
 10
584.4038260649369
 20
686.6583067268777
 30
0.0
 11
584.4038260649369
 21
689.7858418273122
 31
0.0
  0
LINE
  5
3CB3
330
18
100
AcDbEntity
  8
0
100
AcDbLine
 10
576.4038260649368
 20
689.7858418273121
 30
0.0
 11
576.4038260649369
 21
686.6583067268775
 31
0.0
  0
LINE
  5
3CB5
330
18
100
AcDbEntity
  8
0
100
AcDbLine
 10
577.725627311158
 20
674.8225504521311
 30
0.0
 11
577.7256273111579
 21
685.9813067268774
 31
0.0
  0
LINE
  5
3CB6
330
18
100
AcDbEntity
  8
0
100
AcDbLine
 10
583.7268260649368
 20
685.9813067268775
 30
0.0
 11
584.4038260649369
 21
686.6583067268777
 31
0.0
  0
LINE
  5
3CB7
330
18
100
AcDbEntity
  8
0
100
AcDbLine
 10
576.4038260649369
 20
686.6583067268775
 30
0.0
 11
577.0808260649369
 21
685.9813067268774
 31
0.0
  0
LINE
  5
3CB8
330
18
100
AcDbEntity
  8
0
100
AcDbLine
 10
577.0808260649369
 20
685.9813067268774
 30
0.0
 11
583.7268260649368
 21
685.9813067268775
 31
0.0
  0
LINE
  5
3CB9
330
18
100
AcDbEntity
  8
0
100
AcDbLine
 10
584.4038260649369
 20
686.6583067268777
 30
0.0
 11
576.4038260649369
 21
686.6583067268775
 31
0.0
  0
ARC
  5
3CBB
330
18
100
AcDbEntity
  8
0
100
AcDbCircle
 10
574.725627311158
 20
674.8225504521311
 30
0.0
 40
3.0
100
AcDbArc
 50
270.0000139468412
 51
0.000000000000007
  0
LINE
  5
3CBE
330
18
100
AcDbEntity
  8
0
100
AcDbLine
 10
584.4038260649368
 20
700.0244580199805
 30
0.0
 11
606.225627311158
 21
700.0244580199805
 31
0.0
  0
LINE
  5
3CBF
330
18
100
AcDbEntity
  8
0
100
AcDbLine
 10
573.725627311158
 20
699.8266474112957
 30
0.0
 11
606.225627311158
 21
699.8266474112956
 31
0.0
  0
LINE
  5
3CC0
330
18
100
AcDbEntity
  8
0
100
AcDbLine
 10
575.225627311158
 20
689.7884717997974
 30
0.0
 11
606.225627311158
 21
689.8266474112956
 31
0.0
  0
ARC
  5
3CC1
330
18
100
AcDbEntity
  8
0
100
AcDbCircle
 10
575.725627311158
 20
687.7884717997975
 30
0.0
 40
2.0
100
AcDbArc
 50
70.17798725007176
 51
90.0
  0
LINE
  5
3CC2
330
18
100
AcDbEntity
  8
0
100
AcDbLine
 10
576.2891592714989
 20
700.0244580199805
 30
0.0
 11
576.4038260649366
 21
700.0244580199805
 31
0.0
  0
ARC
  5
3CC3
330
18
100
AcDbEntity
  8
0
100
AcDbCircle
 10
575.5570771011731
 20
699.0199229195456
 30
0.0
 40
2.0
100
AcDbArc
 50
64.95218328630724
 51
90.0
  0
LINE
  5
3CC4
330
18
100
AcDbEntity
  8
0
100
AcDbLine
 10
584.4038260649368
 20
699.7858418273121
 30
0.0
 11
584.4038260649366
 21
701.0194823383774
 31
0.0
  0
LINE
  5
3CC5
330
18
100
AcDbEntity
  8
0
100
AcDbLine
 10
576.2891592714992
 20
699.8244580199788
 30
0.0
 11
576.2891592714991
 21
700.0244580199789
 31
0.0
  0
LINE
  5
3CC6
330
18
100
AcDbEntity
  8
0
100
AcDbLine
 10
576.4038260649368
 20
699.785841827312
 30
0.0
 11
576.4038260649366
 21
701.0194823383774
 31
0.0
  0
LINE
  5
3CC7
330
18
100
AcDbEntity
  8
0
100
AcDbLine
 10
576.2891592714991
 20
700.0244580199799
 30
0.0
 11
576.4038260649366
 21
700.0244580199799
 31
0.0
  0
LINE
  5
3CC8
330
18
100
AcDbEntity
  8
0
100
AcDbLine
 10
573.2957540659247
 20
701.019922919546
 30
0.0
 11
575.5570771011731
 21
701.0199229195457
 31
0.0
  0
LINE
  5
3CC9
330
18
100
AcDbEntity
  8
0
100
AcDbLine
 10
576.2891592714989
 20
699.8244580199793
 30
0.0
 11
576.2891592714989
 21
700.0244580199794
 31
0.0
  0
LINE
  5
3CCA
330
18
100
AcDbEntity
  8
0
100
AcDbLine
 10
574.725627311158
 20
689.7884717997974
 30
0.0
 11
575.725627311158
 21
689.7884717997974
 31
0.0
  0
INSERT
  5
3CCB
330
18
100
AcDbEntity
  8
0
100
AcDbBlockReference
  2
M8BS
 10
580.2641167923915
 20
710.9559962898648
 30
0.0
 50
90.1411161492593
  0
ARC
  5
3CCC
330
18
100
AcDbEntity
  8
0
100
AcDbCircle
 10
614.516127926087
 20
741.6346609921817
 30
0.0
 40
5.176327347964122
100
AcDbArc
 50
58.00046438816959
 51
121.9995356118304
  0
LINE
  5
3CCD
330
18
100
AcDbEntity
  8
0
100
AcDbLine
 10
597.0681279260872
 20
747.0344577771458
 30
0.0
 11
615.510127926087
 21
747.0344577771458
 31
0.0
  0
LINE
  5
3CCE
330
18
100
AcDbEntity
  8
0
100
AcDbLine
 10
630.9123544492508
 20
759.3266474112956
 30
0.0
 11
606.2891356380543
 21
759.3266474112956
 31
0.0
  0
LINE
  5
3CCF
330
18
100
AcDbEntity
  8
0
100
AcDbLine
 10
593.7891356380543
 20
755.3266474112956
 30
0.0
 11
618.7891356380543
 21
755.3266474112956
 31
0.0
  0
LINE
  5
3CD0
330
18
100
AcDbEntity
  8
0
100
AcDbLine
 10
631.9123544492509
 20
760.3266474112956
 30
0.0
 11
580.6659168268578
 21
760.3266474112956
 31
0.0
  0
LINE
  5
3CD1
330
18
100
AcDbEntity
  8
0
100
AcDbLine
 10
617.2891279087417
 20
733.0205656414569
 30
0.0
 11
606.2891279087417
 21
733.0205656414569
 31
0.0
  0
ARC
  5
3CD2
330
18
100
AcDbEntity
  8
0
100
AcDbCircle
 10
614.516127926087
 20
743.42425456211
 30
0.0
 40
5.176327347964122
100
AcDbArc
 50
238.0004643881695
 51
301.9995356118303
  0
LINE
  5
3CD3
330
18
100
AcDbEntity
  8
0
100
AcDbLine
 10
597.0681279260872
 20
738.0244577771459
 30
0.0
 11
615.510127926087
 21
738.0244577771459
 31
0.0
  0
LINE
  5
3CD4
330
18
100
AcDbEntity
  8
0
100
AcDbLine
 10
615.510127926087
 20
747.0344577771458
 30
0.0
 11
617.2591279260871
 21
746.0244577771459
 31
0.0
  0
ARC
  5
3CD5
330
18
100
AcDbEntity
  8
0
100
AcDbCircle
 10
619.289127926087
 20
735.0244577771458
 30
0.0
 40
2.0
100
AcDbArc
 50
180.0
 51
270.0
  0
ARC
  5
3CD6
330
18
100
AcDbEntity
  8
0
100
AcDbCircle
 10
622.3443813178583
 20
729.0244577771458
 30
0.0
 40
4.0
100
AcDbArc
 50
8.530816189964486
 51
90.0
  0
LINE
  5
3CD7
330
18
100
AcDbEntity
  8
0
100
AcDbLine
 10
617.2891279260871
 20
735.0244577771458
 30
0.0
 11
617.2891279260872
 21
736.0244577771459
 31
0.0
  0
LINE
  5
3CD8
330
18
100
AcDbEntity
  8
0
100
AcDbLine
 10
622.3443813178583
 20
733.0244577771458
 30
0.0
 11
619.289127926087
 21
733.0244577771458
 31
0.0
  0
LINE
  5
3CD9
330
18
100
AcDbEntity
  8
0
100
AcDbLine
 10
615.510127926087
 20
738.0244577771459
 30
0.0
 11
617.2591279260871
 21
739.0344577771458
 31
0.0
  0
ARC
  5
3CDA
330
18
100
AcDbEntity
  8
0
100
AcDbCircle
 10
615.2891279260871
 20
736.0244577771459
 30
0.0
 40
2.0
100
AcDbArc
 50
0.000000000000007
 51
90.0
  0
LINE
  5
3CDB
330
18
100
AcDbEntity
  8
0
100
AcDbLine
 10
617.2591279260871
 20
746.0244577771459
 30
0.0
 11
617.2591279260871
 21
739.0344577771458
 31
0.0
  0
LINE
  5
3CDC
330
18
100
AcDbEntity
  8
0
100
AcDbLine
 10
631.9123544492509
 20
760.3266474112956
 30
0.0
 11
630.9123544492508
 21
759.3266474112956
 31
0.0
  0
LINE
  5
3CDD
330
18
100
AcDbEntity
  8
0
100
AcDbLine
 10
618.7891356380543
 20
755.3266474112956
 30
0.0
 11
618.7891356380543
 21
759.3266474112956
 31
0.0
  0
LINE
  5
3CDE
330
18
100
AcDbEntity
  8
0
100
AcDbLine
 10
600.2804387135228
 20
755.3266474112956
 30
0.0
 11
600.2860188869759
 21
747.0344577771458
 31
0.0
  0
LINE
  5
3CDF
330
18
100
AcDbEntity
  8
0
100
AcDbLine
 10
612.288423652954
 20
747.0344577771458
 30
0.0
 11
612.2884313822662
 21
755.3266474112956
 31
0.0
  0
LINE
  5
3CE0
330
18
100
AcDbEntity
  8
0
100
AcDbLine
 10
590.2338745343159
 20
733.0244577771458
 30
0.0
 11
593.2891279260871
 21
733.0244577771458
 31
0.0
  0
LINE
  5
3CE1
330
18
100
AcDbEntity
  8
0
100
AcDbLine
 10
599.2341279260871
 20
746.6764577771457
 30
0.0
 11
598.6541279260871
 21
746.7774577771458
 31
0.0
  0
LINE
  5
3CE2
330
18
100
AcDbEntity
  8
0
100
AcDbLine
 10
600.3181279260871
 20
746.2934577771459
 30
0.0
 11
599.7921279260871
 21
746.5134577771459
 31
0.0
  0
LINE
  5
3CE3
330
18
100
AcDbEntity
  8
0
100
AcDbLine
 10
600.805127926087
 20
746.0244577771459
 30
0.0
 11
600.3181279260871
 21
746.2934577771459
 31
0.0
  0
LINE
  5
3CE4
330
18
100
AcDbEntity
  8
0
100
AcDbLine
 10
599.7921279260871
 20
746.5134577771459
 30
0.0
 11
599.2341279260871
 21
746.6764577771457
 31
0.0
  0
LINE
  5
3CE5
330
18
100
AcDbEntity
  8
0
100
AcDbLine
 10
595.3191279260871
 20
746.0244577771459
 30
0.0
 11
597.0681279260872
 21
747.0344577771458
 31
0.0
  0
LINE
  5
3CE6
330
18
100
AcDbEntity
  8
0
100
AcDbLine
 10
596.332127926087
 20
746.5134577771459
 30
0.0
 11
595.3191279260871
 21
746.0244577771459
 31
0.0
  0
LINE
  5
3CE7
330
18
100
AcDbEntity
  8
0
100
AcDbLine
 10
596.8901279260871
 20
746.6764577771457
 30
0.0
 11
596.332127926087
 21
746.5134577771459
 31
0.0
  0
LINE
  5
3CE8
330
18
100
AcDbEntity
  8
0
100
AcDbLine
 10
598.0621279260871
 20
746.8114577771457
 30
0.0
 11
597.470127926087
 21
746.7774577771458
 31
0.0
  0
LINE
  5
3CE9
330
18
100
AcDbEntity
  8
0
100
AcDbLine
 10
598.6541279260871
 20
746.7774577771458
 30
0.0
 11
598.0621279260871
 21
746.8114577771457
 31
0.0
  0
LINE
  5
3CEA
330
18
100
AcDbEntity
  8
0
100
AcDbLine
 10
597.470127926087
 20
746.7774577771458
 30
0.0
 11
596.8901279260871
 21
746.6764577771457
 31
0.0
  0
ARC
  5
3CEB
330
18
100
AcDbEntity
  8
0
100
AcDbCircle
 10
606.289127926087
 20
727.2946885150572
 30
0.0
 40
19.51610905408855
100
AcDbArc
 50
73.68018461466724
 51
106.3198153853327
  0
ARC
  5
3CEC
330
18
100
AcDbEntity
  8
0
100
AcDbCircle
 10
593.2891279260871
 20
735.0244577771458
 30
0.0
 40
2.0
100
AcDbArc
 50
270.0
 51
0.000000000000007
  0
LINE
  5
3CED
330
18
100
AcDbEntity
  8
0
100
AcDbLine
 10
595.289127926087
 20
735.0244577771458
 30
0.0
 11
595.289127926087
 21
736.0244577771459
 31
0.0
  0
LINE
  5
3CEE
330
18
100
AcDbEntity
  8
0
100
AcDbLine
 10
599.2341279260871
 20
738.3824577771458
 30
0.0
 11
598.6541279260871
 21
738.2814577771457
 31
0.0
  0
LINE
  5
3CEF
330
18
100
AcDbEntity
  8
0
100
AcDbLine
 10
600.3181279260871
 20
738.7654577771459
 30
0.0
 11
599.7921279260871
 21
738.5454577771459
 31
0.0
  0
LINE
  5
3CF0
330
18
100
AcDbEntity
  8
0
100
AcDbLine
 10
600.805127926087
 20
739.0344577771458
 30
0.0
 11
600.3181279260871
 21
738.7654577771459
 31
0.0
  0
LINE
  5
3CF1
330
18
100
AcDbEntity
  8
0
100
AcDbLine
 10
599.7921279260871
 20
738.5454577771459
 30
0.0
 11
599.2341279260871
 21
738.3824577771458
 31
0.0
  0
ARC
  5
3CF2
330
18
100
AcDbEntity
  8
0
100
AcDbCircle
 10
597.2891279260871
 20
736.0244577771459
 30
0.0
 40
2.0
100
AcDbArc
 50
90.0
 51
180.0
  0
LINE
  5
3CF3
330
18
100
AcDbEntity
  8
0
100
AcDbLine
 10
595.3191279260871
 20
739.0344577771458
 30
0.0
 11
597.0681279260872
 21
738.0244577771459
 31
0.0
  0
LINE
  5
3CF4
330
18
100
AcDbEntity
  8
0
100
AcDbLine
 10
596.332127926087
 20
738.5454577771459
 30
0.0
 11
595.3191279260871
 21
739.0344577771458
 31
0.0
  0
LINE
  5
3CF5
330
18
100
AcDbEntity
  8
0
100
AcDbLine
 10
596.8901279260871
 20
738.3824577771458
 30
0.0
 11
596.332127926087
 21
738.5454577771459
 31
0.0
  0
LINE
  5
3CF6
330
18
100
AcDbEntity
  8
0
100
AcDbLine
 10
598.0621279260871
 20
738.2474577771459
 30
0.0
 11
597.470127926087
 21
738.2814577771457
 31
0.0
  0
LINE
  5
3CF7
330
18
100
AcDbEntity
  8
0
100
AcDbLine
 10
598.6541279260871
 20
738.2814577771457
 30
0.0
 11
598.0621279260871
 21
738.2474577771459
 31
0.0
  0
LINE
  5
3CF8
330
18
100
AcDbEntity
  8
0
100
AcDbLine
 10
597.470127926087
 20
738.2814577771457
 30
0.0
 11
596.8901279260871
 21
738.3824577771458
 31
0.0
  0
ARC
  5
3CF9
330
18
100
AcDbEntity
  8
0
100
AcDbCircle
 10
606.289127926087
 20
757.7642270392344
 30
0.0
 40
19.51610905408855
100
AcDbArc
 50
253.6801846146672
 51
286.3198153853327
  0
LINE
  5
3CFA
330
18
100
AcDbEntity
  8
0
100
AcDbLine
 10
595.2891279087417
 20
733.0205656414569
 30
0.0
 11
606.2891279087417
 21
733.0205656414569
 31
0.0
  0
LINE
  5
3CFB
330
18
100
AcDbEntity
  8
0
100
AcDbLine
 10
600.805127926087
 20
746.0244577771459
 30
0.0
 11
600.805127926087
 21
739.0344577771458
 31
0.0
  0
LINE
  5
3CFC
330
18
100
AcDbEntity
  8
0
100
AcDbLine
 10
595.3191279260871
 20
739.0344577771458
 30
0.0
 11
595.3191279260871
 21
746.0244577771459
 31
0.0
  0
LINE
  5
3CFD
330
18
100
AcDbEntity
  8
0
100
AcDbLine
 10
611.7731279260871
 20
746.0244577771459
 30
0.0
 11
611.7731279260871
 21
739.0344577771458
 31
0.0
  0
ARC
  5
3CFE
330
18
100
AcDbEntity
  8
0
100
AcDbCircle
 10
590.2338745343159
 20
729.0244577771458
 30
0.0
 40
4.0
100
AcDbArc
 50
90.0
 51
171.4691838100355
  0
LINE
  5
3CFF
330
18
100
AcDbEntity
  8
0
100
AcDbLine
 10
581.6659168268578
 20
759.3266474112956
 30
0.0
 11
606.2891356380544
 21
759.3266474112956
 31
0.0
  0
LINE
  5
3D00
330
18
100
AcDbEntity
  8
0
100
AcDbLine
 10
593.7891356380543
 20
755.3266474112956
 30
0.0
 11
593.7891356380543
 21
759.3266474112956
 31
0.0
  0
LINE
  5
3D01
330
18
100
AcDbEntity
  8
0
100
AcDbLine
 10
581.6659168268578
 20
759.3266474112956
 30
0.0
 11
580.6659168268578
 21
760.3266474112956
 31
0.0
  0
LINE
  5
3D02
330
18
100
AcDbEntity
  8
0
100
AcDbLine
 10
560.7256785063561
 20
669.8225148611402
 30
0.0
 11
562.7257175999774
 21
671.8225516166588
 31
0.0
  0
LINE
  5
3D03
330
18
100
AcDbEntity
  8
0
100
AcDbLine
 10
571.7957540659247
 20
702.519922919546
 30
0.0
 11
571.7957540659248
 21
709.5199229195458
 31
0.0
  0
LINE
  5
3D04
330
18
100
AcDbEntity
  8
0
100
AcDbLine
 10
571.725627311158
 20
697.8266474112957
 30
0.0
 11
571.725627311158
 21
692.7884717997974
 31
0.0
  0
POINT
  5
3D05
330
18
100
AcDbEntity
  8
0
  6
BYBLOCK
100
AcDbPoint
 10
572.6043069675985
 20
690.6671514562377
 30
0.0
  0
LINE
  5
3D06
330
18
100
AcDbEntity
  8
0
100
AcDbLine
 10
606.2891356380544
 20
777.3266474112956
 30
0.0
 11
619.1007450436528
 21
777.3266474112956
 31
0.0
  0
ARC
  5
3D07
330
18
100
AcDbEntity
  8
0
100
AcDbCircle
 10
606.2891356380515
 20
736.5564908304575
 30
0.0
 40
37.76983735520119
100
AcDbArc
 50
71.27247501907835
 51
90.0
  0
LINE
  5
3D08
330
18
100
AcDbEntity
  8
0
100
AcDbLine
 10
618.4158215835469
 20
772.3266474112956
 30
0.0
 11
624.4149150449967
 21
772.3266474112956
 31
0.0
  0
ARC
  5
3D09
330
18
100
AcDbEntity
  8
0
100
AcDbCircle
 10
628.1636347471237
 20
767.6380139876871
 30
0.0
 40
6.003014474919505
100
AcDbArc
 50
51.35649173848298
 51
128.643508261519
  0
ARC
  5
3D0A
330
18
100
AcDbEntity
  8
0
100
AcDbCircle
 10
612.6949403408535
 20
741.999180298973
 30
0.0
 40
35.9035411409884
100
AcDbArc
 50
57.63905003172389
 51
79.72242768333797
  0
LINE
  5
3D0B
330
18
100
AcDbEntity
  8
0
100
AcDbLine
 10
594.1624496925618
 20
772.3266474112956
 30
0.0
 11
588.1633562311119
 21
772.3266474112956
 31
0.0
  0
ARC
  5
3D0C
330
18
100
AcDbEntity
  8
0
100
AcDbCircle
 10
600.0391356380543
 20
741.2007367006459
 30
0.0
 40
36.66256844076576
100
AcDbArc
 50
99.81535625084546
 51
121.8987339024557
  0
LINE
  5
3D0D
330
18
100
AcDbEntity
  8
0
100
AcDbLine
 10
606.2891356380544
 20
777.3266474112956
 30
0.0
 11
593.7891356380543
 21
777.3266474112956
 31
0.0
  0
ARC
  5
3D0E
330
18
100
AcDbEntity
  8
0
100
AcDbCircle
 10
606.2891356380571
 20
736.5564908304575
 30
0.0
 40
37.76983735520119
100
AcDbArc
 50
90.00000000000651
 51
108.7275249809216
  0
ARC
  5
3D0F
330
18
100
AcDbEntity
  8
0
100
AcDbCircle
 10
584.4146365289849
 20
767.6380139876871
 30
0.0
 40
6.003014474919505
100
AcDbArc
 50
51.35649173848094
 51
128.643508261517
  0
LINE
  5
3D10
330
18
100
AcDbEntity
  8
0
100
AcDbLine
 10
655.7256229863214
 20
669.8225312464066
 30
0.0
 11
655.7256386260201
 21
627.824109655274
 31
0.0
  0
LINE
  5
3D11
330
18
100
AcDbEntity
  8
0
100
AcDbLine
 10
655.7256386252068
 20
627.8262934616789
 30
0.0
 11
653.7256556118732
 21
625.8261844405981
 31
0.0
  0
LINE
  5
3D12
330
18
100
AcDbEntity
  8
0
100
AcDbLine
 10
653.7256060053735
 20
671.8225465574441
 30
0.0
 11
655.7256229863214
 21
669.8225312464065
 31
0.0
  0
LINE
  5
3D54
330
18
100
AcDbEntity
  8
0
100
AcDbLine
 10
651.8525773111274
 20
526.0159821404756
 30
0.0
 11
651.8525927177127
 21
484.0175214666821
 31
0.0
  0
LINE
  5
3D55
330
18
100
AcDbEntity
  8
0
100
AcDbLine
 10
649.8525382175061
 20
528.0160188959942
 30
0.0
 11
649.8525919886741
 21
482.019696627494
 31
0.0
  0
LINE
  5
3D56
330
18
100
AcDbEntity
  8
0
100
AcDbLine
 10
651.8525773111274
 20
526.0159821404756
 30
0.0
 11
649.8525382175061
 21
528.0160188959942
 31
0.0
  0
LINE
  5
3D57
330
18
100
AcDbEntity
  8
0
100
AcDbLine
 10
649.8525382175061
 20
528.0160188959942
 30
0.0
 11
640.7891279087416
 21
528.0160188959943
 31
0.0
  0
LINE
  5
3D58
330
18
100
AcDbEntity
  8
0
100
AcDbLine
 10
651.852592716906
 20
484.0197202826026
 30
0.0
 11
649.8525919886741
 21
482.019696627494
 31
0.0
  0
LINE
  5
3D59
330
18
100
AcDbEntity
  8
0
100
AcDbLine
 10
649.8525919886741
 20
482.019696627494
 30
0.0
 11
640.7891279087416
 21
482.0196033251208
 31
0.0
  0
LINE
  5
3D5A
330
18
100
AcDbEntity
  8
0
100
AcDbLine
 10
556.852632831162
 20
526.015998525742
 30
0.0
 11
556.8526171914633
 21
484.0175769346095
 31
0.0
  0
LINE
  5
3D5B
330
18
100
AcDbEntity
  8
0
100
AcDbLine
 10
558.85264981211
 20
528.0160138367796
 30
0.0
 11
558.8498015307632
 21
482.0196518932388
 31
0.0
  0
LINE
  5
3D5C
330
18
100
AcDbEntity
  8
0
100
AcDbLine
 10
558.85264981211
 20
528.0160138367796
 30
0.0
 11
556.852632831162
 21
526.0159985257419
 31
0.0
  0
LINE
  5
3D5D
330
18
100
AcDbEntity
  8
0
100
AcDbLine
 10
571.7891279087417
 20
528.0160169857545
 30
0.0
 11
558.85264981211
 21
528.0160138367796
 31
0.0
  0
LINE
  5
3D5E
330
18
100
AcDbEntity
  8
0
100
AcDbLine
 10
558.8526002056103
 20
482.0196517199335
 30
0.0
 11
571.7891279087417
 21
482.0188506376522
 31
0.0
  0
LINE
  5
3D5F
330
18
100
AcDbEntity
  8
0
100
AcDbLine
 10
556.8526171922767
 20
484.0197607410143
 30
0.0
 11
558.8526002056103
 21
482.0196517199335
 31
0.0
  0
CIRCLE
  5
3D65
330
18
100
AcDbEntity
  8
0
100
AcDbCircle
 10
606.2891279087418
 20
675.8266474112957
 30
0.0
 40
10.0
  0
VIEWPORT
  5
41
330
15
100
AcDbEntity
 67
     1
  8
0
100
AcDbViewport
 10
117.358407079646
 20
73.5
 30
0.0
 40
234.716814159292
 41
147.0
 68
     1
 69
     1
1001
ACAD
1000
MVIEW
1002
{
1070
    16
1010
0.0
1020
0.0
1030
0.0
1010
0.0
1020
0.0
1030
1.0
1040
0.0
1040
147.0
1040
117.358407079646
1040
73.5
1040
50.0
1040
0.0
1040
0.0
1070
     0
1070
   100
1070
     1
1070
     1
1070
     0
1070
     0
1070
     0
1070
     0
1040
0.0
1040
0.0
1040
0.0
1040
1.0
1040
1.0
1040
0.0
1040
0.0
1070
     0
1002
{
1002
}
1002
}
  0
ENDSEC
  0
SECTION
  2
OBJECTS
  0
DICTIONARY
  5
C
330
0
100
AcDbDictionary
  3
ACAD_GROUP
350
D
  3
ACAD_LAYOUT
350
2642
  3
ACAD_MLINESTYLE
350
E
  3
ACAD_PLOTSETTINGS
350
2643
1001
ACAD
1000
TREAT_AS_HARD
1070
     0
  0
DICTIONARY
  5
3D3C
330
18
100
AcDbDictionary
  3
ACAD_LAYOUTSELFREF
350
3EA6
1001
ACAD
1000
TREAT_AS_HARD
1070
     1
  0
DICTIONARY
  5
3D3A
330
15
100
AcDbDictionary
  3
ACAD_LAYOUTSELFREF
350
3EA5
1001
ACAD
1000
TREAT_AS_HARD
1070
     1
  0
DICTIONARY
  5
D
102
{ACAD_REACTORS
330
C
102
}
330
C
100
AcDbDictionary
1001
ACAD
1000
TREAT_AS_HARD
1070
     0
  0
DICTIONARY
  5
2642
102
{ACAD_REACTORS
330
C
102
}
330
C
100
AcDbDictionary
1001
ACAD
1000
TREAT_AS_HARD
1070
     0
  0
DICTIONARY
  5
E
102
{ACAD_REACTORS
330
C
102
}
330
C
100
AcDbDictionary
  3
STANDARD
350
1B
1001
ACAD
1000
TREAT_AS_HARD
1070
     0
  0
DICTIONARY
  5
2643
102
{ACAD_REACTORS
330
C
102
}
330
C
100
AcDbDictionary
1001
ACAD
1000
TREAT_AS_HARD
1070
     0
  0
XRECORD
  5
3EA6
102
{ACAD_REACTORS
330
3D3C
102
}
330
3D3C
100
AcDbXrecord
340
18
  0
XRECORD
  5
3EA5
102
{ACAD_REACTORS
330
3D3A
102
}
330
3D3A
100
AcDbXrecord
340
15
  0
MLINESTYLE
  5
1B
102
{ACAD_REACTORS
330
E
102
}
330
E
100
AcDbMlineStyle
  2
STANDARD
 70
     0
  3

 62
     0
 51
90.0
 52
90.0
 71
     2
 49
0.5
 62
   256
  6
BYLAYER
 49
-0.5
 62
   256
  6
BYLAYER
  0
ENDSEC
  0
EOF
