  0
SECTION
  2
HEADER
  9
$ACADVER
  1
AC1012
  9
$DWGCODEPAGE
  3
dos932
  9
$INSBASE
 10
0.0
 20
0.0
 30
0.0
  9
$EXTMIN
 10
55.0
 20
25.0
 30
0.0
  9
$EXTMAX
 10
1430.0
 20
955.0
 30
0.0
  9
$LIMMIN
 10
0.0
 20
0.0
  9
$LIMMAX
 10
1485.0
 20
1050.0
  9
$ORTHOMODE
 70
     1
  9
$REGENMODE
 70
     1
  9
$FILLMODE
 70
     1
  9
$QTEXTMODE
 70
     0
  9
$MIRRTEXT
 70
     1
  9
$DRAGMODE
 70
     2
  9
$LTSCALE
 40
20.0
  9
$OSMODE
 70
    35
  9
$ATTMODE
 70
     1
  9
$TEXTSIZE
 40
20.0
  9
$TRACEWID
 40
0.05
  9
$TEXTSTYLE
  7
STANDARD
  9
$CLAYER
  8
0
  9
$CELTYPE
  6
BYLAYER
  9
$CECOLOR
 62
   256
  9
$CELTSCALE
 40
1.0
  9
$DELOBJ
 70
     1
  9
$DISPSILH
 70
     0
  9
$DIMSCALE
 40
5.0
  9
$DIMASZ
 40
2.8
  9
$DIMEXO
 40
1.0
  9
$DIMDLI
 40
5.0
  9
$DIMRND
 40
0.1
  9
$DIMDLE
 40
0.0
  9
$DIMEXE
 40
1.0
  9
$DIMTP
 40
0.0
  9
$DIMTM
 40
0.0
  9
$DIMTXT
 40
2.5
  9
$DIMCEN
 40
0.0
  9
$DIMTSZ
 40
0.0
  9
$DIMTOL
 70
     0
  9
$DIMLIM
 70
     0
  9
$DIMTIH
 70
     0
  9
$DIMTOH
 70
     0
  9
$DIMSE1
 70
     0
  9
$DIMSE2
 70
     0
  9
$DIMTAD
 70
     3
  9
$DIMZIN
 70
     8
  9
$DIMBLK
  1

  9
$DIMASO
 70
     1
  9
$DIMSHO
 70
     1
  9
$DIMPOST
  1
 
  9
$DIMAPOST
  1

  9
$DIMALT
 70
     0
  9
$DIMALTD
 70
     2
  9
$DIMALTF
 40
1.0
  9
$DIMLFAC
 40
1.0
  9
$DIMTOFL
 70
     1
  9
$DIMTVP
 40
0.0
  9
$DIMTIX
 70
     0
  9
$DIMSOXD
 70
     0
  9
$DIMSAH
 70
     1
  9
$DIMBLK1
  1
_OPEN
  9
$DIMBLK2
  1
_OPEN
  9
$DIMSTYLE
  2
DIM1
  9
$DIMCLRD
 70
     2
  9
$DIMCLRE
 70
     2
  9
$DIMCLRT
 70
     2
  9
$DIMTFAC
 40
0.7
  9
$DIMGAP
 40
0.85
  9
$DIMJUST
 70
     0
  9
$DIMSD1
 70
     0
  9
$DIMSD2
 70
     0
  9
$DIMTOLJ
 70
     1
  9
$DIMTZIN
 70
     8
  9
$DIMALTZ
 70
     8
  9
$DIMALTTZ
 70
     8
  9
$DIMFIT
 70
     3
  9
$DIMUPT
 70
     0
  9
$DIMUNIT
 70
     2
  9
$DIMDEC
 70
     2
  9
$DIMTDEC
 70
     3
  9
$DIMALTU
 70
     2
  9
$DIMALTTD
 70
     3
  9
$DIMTXSTY
  7
DIM
  9
$DIMAUNIT
 70
     0
  9
$LUNITS
 70
     2
  9
$LUPREC
 70
     4
  9
$SKETCHINC
 40
0.1
  9
$FILLETRAD
 40
2.0
  9
$AUNITS
 70
     0
  9
$AUPREC
 70
     0
  9
$MENU
  1
C:\ACADR13\WIN\SUPPORT\ACAD.mnc
  9
$ELEVATION
 40
0.0
  9
$PELEVATION
 40
0.0
  9
$THICKNESS
 40
0.0
  9
$LIMCHECK
 70
     0
  9
$BLIPMODE
 70
     1
  9
$CHAMFERA
 40
0.0
  9
$CHAMFERB
 40
0.0
  9
$CHAMFERC
 40
0.0
  9
$CHAMFERD
 40
0.0
  9
$SKPOLY
 70
     0
  9
$TDCREATE
 40
2451589.540470243
  9
$TDUPDATE
 40
2451967.653971354
  9
$TDINDWG
 40
0.9165081250
  9
$TDUSRTIMER
 40
0.9165081250
  9
$USRTIMER
 70
     1
  9
$ANGBASE
 50
0.0
  9
$ANGDIR
 70
     0
  9
$PDMODE
 70
     0
  9
$PDSIZE
 40
0.0
  9
$PLINEWID
 40
0.0
  9
$COORDS
 70
     2
  9
$SPLFRAME
 70
     0
  9
$SPLINETYPE
 70
     6
  9
$SPLINESEGS
 70
     8
  9
$ATTDIA
 70
     0
  9
$ATTREQ
 70
     1
  9
$HANDLING
 70
     1
  9
$HANDSEED
  5
24D61
  9
$SURFTAB1
 70
     6
  9
$SURFTAB2
 70
     6
  9
$SURFTYPE
 70
     6
  9
$SURFU
 70
     6
  9
$SURFV
 70
     6
  9
$UCSNAME
  2

  9
$UCSORG
 10
0.0
 20
0.0
 30
0.0
  9
$UCSXDIR
 10
1.0
 20
0.0
 30
0.0
  9
$UCSYDIR
 10
0.0
 20
1.0
 30
0.0
  9
$PUCSNAME
  2

  9
$PUCSORG
 10
0.0
 20
0.0
 30
0.0
  9
$PUCSXDIR
 10
1.0
 20
0.0
 30
0.0
  9
$PUCSYDIR
 10
0.0
 20
1.0
 30
0.0
  9
$USERI1
 70
     0
  9
$USERI2
 70
     0
  9
$USERI3
 70
     0
  9
$USERI4
 70
     0
  9
$USERI5
 70
     0
  9
$USERR1
 40
0.0
  9
$USERR2
 40
0.0
  9
$USERR3
 40
0.0
  9
$USERR4
 40
0.0
  9
$USERR5
 40
0.0
  9
$WORLDVIEW
 70
     1
  9
$SHADEDGE
 70
     3
  9
$SHADEDIF
 70
    70
  9
$TILEMODE
 70
     1
  9
$MAXACTVP
 70
    16
  9
$PINSBASE
 10
0.0
 20
0.0
 30
0.0
  9
$PLIMCHECK
 70
     0
  9
$PEXTMIN
 10
1.000000E+20
 20
1.000000E+20
 30
1.000000E+20
  9
$PEXTMAX
 10
-1.000000E+20
 20
-1.000000E+20
 30
-1.000000E+20
  9
$PLIMMIN
 10
0.0
 20
0.0
  9
$PLIMMAX
 10
20.0
 20
147.0
  9
$UNITMODE
 70
     0
  9
$VISRETAIN
 70
     0
  9
$PLINEGEN
 70
     0
  9
$PSLTSCALE
 70
     1
  9
$TREEDEPTH
 70
  3020
  9
$PICKSTYLE
 70
     1
  9
$CMLSTYLE
  2
STANDARD
  9
$CMLJUST
 70
     0
  9
$CMLSCALE
 40
1.0
  9
$SAVEIMAGES
 70
     1
  0
ENDSEC
  0
SECTION
  2
CLASSES
  0
CLASS
  1
LWPOLYLINE
  2
AcDbPolyline
  3
"AutoCAD"
 90
    32768
280
     0
281
     1
  0
CLASS
  1
HATCH
  2
AcDbHatch
  3
"ACAD_SEDONA"
 90
    32768
280
     0
281
     1
  0
ENDSEC
  0
SECTION
  2
TABLES
  0
TABLE
  2
VPORT
  5
8
100
AcDbSymbolTable
 70
     2
  0
VPORT
  5
24D60
100
AcDbSymbolTableRecord
100
AcDbViewportTableRecord
  2
*ACTIVE
 70
     0
 10
0.0
 20
0.0
 11
1.0
 21
1.0
 12
992.356419
 22
563.178666
 13
0.0
 23
0.0
 14
1.0
 24
1.0
 15
0.0
 25
0.0
 16
0.0
 26
0.0
 36
1.0
 17
0.0
 27
0.0
 37
0.0
 40
1126.357333
 41
1.762063
 42
50.0
 43
0.0
 44
0.0
 50
0.0
 51
0.0
 71
     0
 72
   100
 73
     1
 74
     1
 75
     0
 76
     0
 77
     0
 78
     0
  0
ENDTAB
  0
TABLE
  2
LTYPE
  5
5
100
AcDbSymbolTable
 70
     5
  0
LTYPE
  5
12
100
AcDbSymbolTableRecord
100
AcDbLinetypeTableRecord
  2
BYBLOCK
 70
     0
  3

 72
    65
 73
     0
 40
0.0
  0
LTYPE
  5
13
100
AcDbSymbolTableRecord
100
AcDbLinetypeTableRecord
  2
BYLAYER
 70
     0
  3

 72
    65
 73
     0
 40
0.0
  0
LTYPE
  5
14
100
AcDbSymbolTableRecord
100
AcDbLinetypeTableRecord
  2
CONTINUOUS
 70
     0
  3
Solid line
 72
    65
 73
     0
 40
0.0
  0
ENDTAB
  0
TABLE
  2
LAYER
  5
2
100
AcDbSymbolTable
 70
     4
  0
LAYER
  5
F
100
AcDbSymbolTableRecord
100
AcDbLayerTableRecord
  2
0
 70
     0
 62
     7
  6
CONTINUOUS
  0
ENDTAB
  0
TABLE
  2
STYLE
  5
3
100
AcDbSymbolTable
 70
     3
  0
STYLE
  5
10
100
AcDbSymbolTableRecord
100
AcDbTextStyleTableRecord
  2
STANDARD
 70
     0
 40
0.0
 41
0.8
 50
0.0
 71
     0
 42
20.0
  3
simplex
  4
extfont
  0
STYLE
  5
237C
100
AcDbSymbolTableRecord
100
AcDbTextStyleTableRecord
  2
PTSH
 70
     0
 40
0.0
 41
0.9
 50
0.0
 71
     0
 42
4.0
  3
SIMPLEX
  4
EXTFONT
  0
STYLE
  5
2592
100
AcDbSymbolTableRecord
100
AcDbTextStyleTableRecord
  2
DIM
 70
     0
 40
0.0
 41
0.8
 50
0.0
 71
     0
 42
4.0
  3
simplex
  4
extfont
  0
ENDTAB
  0
TABLE
  2
VIEW
  5
6
100
AcDbSymbolTable
 70
     0
  0
ENDTAB
  0
TABLE
  2
UCS
  5
7
100
AcDbSymbolTable
 70
     0
  0
ENDTAB
  0
TABLE
  2
APPID
  5
9
100
AcDbSymbolTable
 70
     1
  0
APPID
  5
11
100
AcDbSymbolTableRecord
100
AcDbRegAppTableRecord
  2
ACAD
 70
     0
  0
ENDTAB
  0
TABLE
  2
DIMSTYLE
  5
A
100
AcDbSymbolTable
 70
     1
  0
DIMSTYLE
105
2237
100
AcDbSymbolTableRecord
100
AcDbDimStyleTableRecord
  2
DIM1
 70
     0
  3
 
  4

  5

  6
_OPEN
  7
_OPEN
 40
5.0
 41
2.8
 42
1.0
 43
5.0
 44
1.0
 45
0.1
 46
0.0
 47
0.0
 48
0.0
140
2.5
141
0.0
142
0.0
143
1.0
144
1.0
145
0.0
146
0.7
147
0.85
 71
     0
 72
     0
 73
     0
 74
     0
 75
     0
 76
     0
 77
     3
 78
     8
170
     0
171
     2
172
     1
173
     1
174
     0
175
     0
176
     2
177
     2
178
     2
270
     2
271
     2
272
     3
273
     2
274
     3
340
2592
275
     0
280
     0
281
     0
282
     0
283
     1
284
     8
285
     8
286
     8
287
     3
288
     0
  0
ENDTAB
  0
TABLE
  2
BLOCK_RECORD
  5
1
100
AcDbSymbolTable
 70
     2
  0
BLOCK_RECORD
  5
18
100
AcDbSymbolTableRecord
100
AcDbBlockTableRecord
  2
*MODEL_SPACE
  0
BLOCK_RECORD
  5
15
100
AcDbSymbolTableRecord
100
AcDbBlockTableRecord
  2
*PAPER_SPACE
  0
BLOCK_RECORD
  5
2448
100
AcDbSymbolTableRecord
100
AcDbBlockTableRecord
  2
_OPEN
  0
BLOCK_RECORD
  5
47DB
100
AcDbSymbolTableRecord
100
AcDbBlockTableRecord
  2
YA
  0
ENDTAB
  0
ENDSEC
  0
SECTION
  2
BLOCKS
  0
BLOCK
  5
3C
100
AcDbEntity
  8
0
100
AcDbBlockBegin
  2
*MODEL_SPACE
 70
     0
 10
0.0
 20
0.0
 30
0.0
  3
*MODEL_SPACE
  1

  0
ENDBLK
  5
3D
100
AcDbEntity
  8
0
100
AcDbBlockEnd
  0
BLOCK
  5
3A
100
AcDbEntity
 67
     1
  8
0
100
AcDbBlockBegin
  2
*PAPER_SPACE
 70
     0
 10
0.0
 20
0.0
 30
0.0
  3
*PAPER_SPACE
  1

  0
ENDBLK
  5
3B
100
AcDbEntity
 67
     1
  8
0
100
AcDbBlockEnd
  0
BLOCK
  5
2449
100
AcDbEntity
  8
0
 48
4.0
100
AcDbBlockBegin
  2
_OPEN
 70
     0
 10
0.0
 20
0.0
 30
0.0
  3
_OPEN
  1
H1111.DWG
  0
LINE
  5
244A
100
AcDbEntity
  8
0
  6
BYBLOCK
 62
     0
 48
4.0
100
AcDbLine
 10
-1.0
 20
0.166667
 30
0.0
 11
0.0
 21
0.0
 31
0.0
  0
LINE
  5
244B
100
AcDbEntity
  8
0
  6
BYBLOCK
 62
     0
 48
4.0
100
AcDbLine
 10
0.0
 20
0.0
 30
0.0
 11
-1.0
 21
-0.166667
 31
0.0
  0
LINE
  5
244C
100
AcDbEntity
  8
0
  6
BYBLOCK
 62
     0
 48
4.0
100
AcDbLine
 10
0.0
 20
0.0
 30
0.0
 11
-1.0
 21
0.0
 31
0.0
  0
ENDBLK
  5
244D
100
AcDbEntity
  8
0
 48
4.0
100
AcDbBlockEnd
  0
BLOCK
  5
47E3
100
AcDbEntity
  8
0
100
AcDbBlockBegin
  2
YA
 70
     0
 10
0.0
 20
0.0
 30
0.0
  3
YA
  1

  0
LINE
  5
47DC
100
AcDbEntity
  8
0
100
AcDbLine
 10
-16.8065
 20
2.801
 30
0.0
 11
-8.4035
 21
2.801
 31
0.0
  0
LINE
  5
47DD
100
AcDbEntity
  8
0
100
AcDbLine
 10
-8.4035
 20
2.801
 30
0.0
 11
-7.0025
 21
1.4005
 31
0.0
  0
LINE
  5
47DE
100
AcDbEntity
  8
0
100
AcDbLine
 10
-7.0025
 20
1.4005
 30
0.0
 11
-2.862
 21
1.4005
 31
0.0
  0
LINE
  5
47DF
100
AcDbEntity
  8
0
100
AcDbLine
 10
-2.862
 20
1.4005
 30
0.0
 11
-2.862
 21
2.801
 31
0.0
  0
LINE
  5
47E0
100
AcDbEntity
  8
0
100
AcDbLine
 10
-2.862
 20
2.801
 30
0.0
 11
0.0
 21
0.0
 31
0.0
  0
LINE
  5
47E1
100
AcDbEntity
  8
0
100
AcDbLine
 10
0.0
 20
0.0
 30
0.0
 11
-14.0055
 21
0.0
 31
0.0
  0
LINE
  5
47E2
100
AcDbEntity
  8
0
100
AcDbLine
 10
-14.0055
 20
0.0
 30
0.0
 11
-16.8065
 21
2.801
 31
0.0
  0
ENDBLK
  5
47E4
100
AcDbEntity
  8
0
100
AcDbBlockEnd
  0
ENDSEC
  0
SECTION
  2
ENTITIES
  0
MTEXT
  5
ADA
100
AcDbEntity
  8
0
100
AcDbMText
 10
1900.696399
 20
249.231556
 30
0.0
 40
1.0
 41
236.132324
 71
     1
 72
     1
  1

  0
MTEXT
  5
ADB
100
AcDbEntity
  8
0
100
AcDbMText
 10
1945.249666
 20
289.253969
 30
0.0
 40
1.0
 41
227.221671
 71
     1
 72
     1
  1

  0
MTEXT
  5
ADC
100
AcDbEntity
  8
0
100
AcDbMText
 10
1918.517706
 20
-239.931232
 30
0.0
 40
1.0
 41
258.408958
 71
     1
 72
     1
  1

  0
TEXT
  5
2529
100
AcDbEntity
  8
0
  6
CONTINUOUS
100
AcDbText
 10
1371.571429
 20
35.0
 30
0.0
 40
15.0
  1
FS5
 41
0.9
  7
PTSH
 72
     2
 11
1405.0
 21
42.5
 31
0.0
100
AcDbText
 73
     2
  0
POLYLINE
  5
2563
100
AcDbEntity
  8
0
100
AcDb2dPolyline
 66
     1
 10
0.0
 20
0.0
 30
0.0
 70
     1
  0
VERTEX
  5
24CE7
100
AcDbEntity
  8
0
100
AcDbVertex
100
AcDb2dVertex
 10
55.0
 20
25.0
 30
0.0
  0
VERTEX
  5
24CE8
100
AcDbEntity
  8
0
100
AcDbVertex
100
AcDb2dVertex
 10
1430.0
 20
25.0
 30
0.0
  0
VERTEX
  5
24CE9
100
AcDbEntity
  8
0
100
AcDbVertex
100
AcDb2dVertex
 10
1430.0
 20
955.0
 30
0.0
  0
VERTEX
  5
24CEA
100
AcDbEntity
  8
0
100
AcDbVertex
100
AcDb2dVertex
 10
55.0
 20
955.0
 30
0.0
  0
SEQEND
  5
24CEB
100
AcDbEntity
  8
0
  0
TEXT
  5
20D68
100
AcDbEntity
  8
0
100
AcDbText
 10
632.261804
 20
54.707353
 30
0.0
 40
17.5
  1
TLV  FS5 (PT,SW)
 72
     4
 11
742.595137
 21
62.207353
 31
0.0
100
AcDbText
  0
ARC
  5
247EF
100
AcDbEntity
  8
0
100
AcDbCircle
 10
584.439697
 20
288.317914
 30
0.0
 40
2.0
100
AcDbArc
 50
225.0
 51
315.0
  0
ARC
  5
247F0
100
AcDbEntity
  8
0
100
AcDbCircle
 10
576.886318
 20
276.77941
 30
0.0
 40
12.182091
100
AcDbArc
 50
295.179294
 51
334.820706
  0
LINE
  5
247F1
100
AcDbEntity
  8
0
100
AcDbLine
 10
587.910877
 20
271.596512
 30
0.0
 11
584.688857
 21
274.818532
 31
0.0
  0
LINE
  5
247F2
100
AcDbEntity
  8
0
100
AcDbLine
 10
584.688857
 20
274.818532
 30
0.0
 11
587.043709
 21
277.173383
 31
0.0
  0
LINE
  5
247F3
100
AcDbEntity
  8
0
100
AcDbLine
 10
588.682338
 20
281.246846
 30
0.0
 11
572.418882
 21
264.98339
 31
0.0
  0
LINE
  5
247F4
100
AcDbEntity
  8
0
100
AcDbLine
 10
573.833095
 20
264.98339
 30
0.0
 11
588.682338
 21
279.832633
 31
0.0
  0
LINE
  5
247F5
100
AcDbEntity
  8
0
100
AcDbLine
 10
569.590455
 20
264.98339
 30
0.0
 11
588.682338
 21
284.075274
 31
0.0
  0
LINE
  5
247F6
100
AcDbEntity
  8
0
100
AcDbLine
 10
578.075736
 20
260.74075
 30
0.0
 11
592.924979
 21
275.589992
 31
0.0
  0
ELLIPSE
  5
247F7
100
AcDbEntity
  8
0
100
AcDbEllipse
 10
576.307969
 20
507.809945
 30
0.0
 11
-0.0000000000000025
 21
-13.5
 31
0.0
210
0.0
220
0.0
230
-1.0
 40
0.707107
 41
2.590307055156976
 42
6.834470905611832
  0
ELLIPSE
  5
247F8
100
AcDbEntity
  8
0
100
AcDbEllipse
 10
579.136396
 20
507.809945
 30
0.0
 11
-0.0000000000000025
 21
-13.5
 31
0.0
210
0.0
220
0.0
230
-1.0
 40
0.707107
 41
3.141592653589793
 42
6.283185307179586
  0
LINE
  5
247F9
100
AcDbEntity
  8
0
100
AcDbLine
 10
585.500357
 20
496.809945
 30
0.0
 11
584.646326
 21
496.809945
 31
0.0
  0
LINE
  5
247FA
100
AcDbEntity
  8
0
100
AcDbLine
 10
585.500357
 20
518.809945
 30
0.0
 11
584.646326
 21
518.809945
 31
0.0
  0
LINE
  5
247FB
100
AcDbEntity
  8
0
100
AcDbLine
 10
579.278532
 20
749.998738
 30
0.0
 11
492.778532
 21
749.998738
 31
0.0
  0
LINE
  5
247FC
100
AcDbEntity
  8
0
100
AcDbLine
 10
561.515076
 20
645.998738
 30
0.0
 11
510.541988
 21
645.998738
 31
0.0
  0
INSERT
  5
247FD
100
AcDbEntity
  8
0
100
AcDbBlockReference
  2
YA
 10
537.417096
 20
335.15157
 30
0.0
 41
-1.630435
 42
1.630435
 43
1.630435
 50
90.0
  0
CIRCLE
  5
247FE
100
AcDbEntity
  8
0
100
AcDbCircle
 10
287.099352
 20
268.248632
 30
0.0
 40
52.0
  0
TEXT
  5
247FF
100
AcDbEntity
  8
0
100
AcDbText
 10
109.130076
 20
269.11661
 30
0.0
 40
17.5
  1
正面
100
AcDbText
  0
LINE
  5
24800
100
AcDbEntity
  8
0
100
AcDbLine
 10
379.272096
 20
320.248632
 30
0.0
 11
465.772096
 21
320.248632
 31
0.0
  0
LINE
  5
24801
100
AcDbEntity
  8
0
100
AcDbLine
 10
397.035552
 20
216.248632
 30
0.0
 11
448.00864
 21
216.248632
 31
0.0
  0
ELLIPSE
  5
24802
100
AcDbEntity
  8
0
100
AcDbEllipse
 10
287.099352
 20
229.748632
 30
0.0
 11
-18.0
 21
0.0
 31
0.0
210
0.0
220
0.0
230
1.0
 40
0.562874
 41
0.0
 42
6.283185307179586
  0
CIRCLE
  5
24803
100
AcDbEntity
  8
0
100
AcDbCircle
 10
287.099352
 20
287.248632
 30
0.0
 40
14.0
  0
LINE
  5
24804
100
AcDbEntity
  8
0
100
AcDbLine
 10
269.099352
 20
329.248632
 30
0.0
 11
287.099352
 21
329.248632
 31
0.0
  0
ARC
  5
24805
100
AcDbEntity
  8
0
100
AcDbCircle
 10
287.099352
 20
287.248632
 30
0.0
 40
33.5
100
AcDbArc
 50
73.527355
 51
106.472645
  0
ARC
  5
24806
100
AcDbEntity
  8
0
100
AcDbCircle
 10
269.360182
 20
323.748286
 30
0.0
 40
1.0
100
AcDbArc
 50
269.990253
 51
0.009747
  0
LINE
  5
24807
100
AcDbEntity
  8
0
100
AcDbLine
 10
269.360012
 20
322.748286
 30
0.0
 11
268.600005
 21
322.748286
 31
0.0
  0
LINE
  5
24808
100
AcDbEntity
  8
0
100
AcDbLine
 10
269.099352
 20
329.248632
 30
0.0
 11
267.599352
 21
327.748632
 31
0.0
  0
ARC
  5
24809
100
AcDbEntity
  8
0
100
AcDbCircle
 10
268.599835
 20
321.748286
 30
0.0
 40
1.0
100
AcDbArc
 50
89.990253
 51
180.009747
  0
LINE
  5
2480A
100
AcDbEntity
  8
0
100
AcDbLine
 10
270.359422
 20
321.854517
 30
0.0
 11
270.359422
 21
317.480479
 31
0.0
  0
LINE
  5
2480B
100
AcDbEntity
  8
0
100
AcDbLine
 10
267.599352
 20
327.748632
 30
0.0
 11
267.599352
 21
316.453922
 31
0.0
  0
LINE
  5
2480C
100
AcDbEntity
  8
0
100
AcDbLine
 10
267.599352
 20
327.748632
 30
0.0
 11
267.599352
 21
316.453922
 31
0.0
  0
LINE
  5
2480D
100
AcDbEntity
  8
0
100
AcDbLine
 10
305.099352
 20
329.248632
 30
0.0
 11
287.099352
 21
329.248632
 31
0.0
  0
LINE
  5
2480E
100
AcDbEntity
  8
0
100
AcDbLine
 10
304.838691
 20
322.748286
 30
0.0
 11
305.598698
 21
322.748286
 31
0.0
  0
ARC
  5
2480F
100
AcDbEntity
  8
0
100
AcDbCircle
 10
304.838521
 20
323.748286
 30
0.0
 40
1.0
100
AcDbArc
 50
179.990253
 51
270.009747
  0
LINE
  5
24810
100
AcDbEntity
  8
0
100
AcDbLine
 10
303.839281
 20
321.854517
 30
0.0
 11
303.839281
 21
317.480479
 31
0.0
  0
LINE
  5
24811
100
AcDbEntity
  8
0
100
AcDbLine
 10
306.599629
 20
321.748116
 30
0.0
 11
306.599629
 21
316.45381
 31
0.0
  0
LINE
  5
24812
100
AcDbEntity
  8
0
100
AcDbLine
 10
306.599352
 20
327.748632
 30
0.0
 11
306.599352
 21
316.453922
 31
0.0
  0
ARC
  5
24813
100
AcDbEntity
  8
0
100
AcDbCircle
 10
305.598869
 20
321.748286
 30
0.0
 40
1.0
100
AcDbArc
 50
359.990253
 51
90.009747
  0
LINE
  5
24814
100
AcDbEntity
  8
0
100
AcDbLine
 10
305.099352
 20
329.248632
 30
0.0
 11
306.599352
 21
327.748632
 31
0.0
  0
LINE
  5
24815
100
AcDbEntity
  8
0
100
AcDbLine
 10
365.272096
 20
306.248632
 30
0.0
 11
365.272096
 21
248.012088
 31
0.0
  0
LINE
  5
24816
100
AcDbEntity
  8
0
100
AcDbLine
 10
368.640368
 20
239.88036
 30
0.0
 11
388.903824
 21
219.616904
 31
0.0
  0
ARC
  5
24817
100
AcDbEntity
  8
0
100
AcDbCircle
 10
376.772096
 20
248.012088
 30
0.0
 40
11.5
100
AcDbArc
 50
180.0
 51
225.0
  0
ARC
  5
24818
100
AcDbEntity
  8
0
100
AcDbCircle
 10
397.035552
 20
227.748632
 30
0.0
 40
11.5
100
AcDbArc
 50
225.0
 51
270.0
  0
ARC
  5
24819
100
AcDbEntity
  8
0
100
AcDbCircle
 10
379.272096
 20
306.248632
 30
0.0
 40
14.0
100
AcDbArc
 50
90.0
 51
180.0
  0
TEXT
  5
2481A
100
AcDbEntity
  8
0
100
AcDbText
 10
466.017933
 20
188.626687
 30
0.0
 40
15.0
  1
15,20A
 72
     4
 11
502.446504
 21
194.698115
 31
0.0
100
AcDbText
  0
LINE
  5
2481B
100
AcDbEntity
  8
0
100
AcDbLine
 10
497.622096
 20
253.748632
 30
0.0
 11
510.622096
 21
253.748632
 31
0.0
  0
LINE
  5
2481C
100
AcDbEntity
  8
0
100
AcDbLine
 10
497.622096
 20
320.748632
 30
0.0
 11
510.622096
 21
320.748632
 31
0.0
  0
LINE
  5
2481D
100
AcDbEntity
  8
0
100
AcDbLine
 10
479.772096
 20
306.248632
 30
0.0
 11
479.772096
 21
248.012088
 31
0.0
  0
LINE
  5
2481E
100
AcDbEntity
  8
0
100
AcDbLine
 10
497.622096
 20
253.748632
 30
0.0
 11
497.622096
 21
320.748632
 31
0.0
  0
ARC
  5
2481F
100
AcDbEntity
  8
0
100
AcDbCircle
 10
448.00864
 20
227.748632
 30
0.0
 40
11.5
100
AcDbArc
 50
270.0
 51
315.0
  0
LINE
  5
24820
100
AcDbEntity
  8
0
100
AcDbLine
 10
476.403824
 20
239.88036
 30
0.0
 11
456.140368
 21
219.616904
 31
0.0
  0
ARC
  5
24821
100
AcDbEntity
  8
0
100
AcDbCircle
 10
468.272096
 20
248.012088
 30
0.0
 40
11.5
100
AcDbArc
 50
315.0
 51
0.0
  0
LINE
  5
24822
100
AcDbEntity
  8
0
100
AcDbLine
 10
479.772096
 20
306.248632
 30
0.0
 11
483.772096
 21
302.248632
 31
0.0
  0
LINE
  5
24823
100
AcDbEntity
  8
0
100
AcDbLine
 10
489.772096
 20
304.748632
 30
0.0
 11
489.772096
 21
269.748632
 31
0.0
  0
ARC
  5
24824
100
AcDbEntity
  8
0
100
AcDbCircle
 10
487.772096
 20
304.248632
 30
0.0
 40
2.0
100
AcDbArc
 50
270.0
 51
0.0
  0
LINE
  5
24825
100
AcDbEntity
  8
0
100
AcDbLine
 10
495.913617
 20
282.486132
 30
0.0
 11
497.622096
 21
282.486132
 31
0.0
  0
LINE
  5
24826
100
AcDbEntity
  8
0
100
AcDbLine
 10
495.913617
 20
292.011132
 30
0.0
 11
497.622096
 21
292.011132
 31
0.0
  0
LINE
  5
24827
100
AcDbEntity
  8
0
100
AcDbLine
 10
495.417096
 20
283.346132
 30
0.0
 11
495.417096
 21
291.151132
 31
0.0
  0
LINE
  5
24828
100
AcDbEntity
  8
0
100
AcDbLine
 10
495.417096
 20
283.346132
 30
0.0
 11
495.913617
 21
282.486132
 31
0.0
  0
LINE
  5
24829
100
AcDbEntity
  8
0
100
AcDbLine
 10
495.417096
 20
291.151132
 30
0.0
 11
495.913617
 21
292.011132
 31
0.0
  0
LINE
  5
2482A
100
AcDbEntity
  8
0
100
AcDbLine
 10
489.772096
 20
269.748632
 30
0.0
 11
497.622096
 21
269.748632
 31
0.0
  0
LINE
  5
2482B
100
AcDbEntity
  8
0
100
AcDbLine
 10
483.772096
 20
302.248632
 30
0.0
 11
487.772096
 21
302.248632
 31
0.0
  0
LINE
  5
2482C
100
AcDbEntity
  8
0
100
AcDbLine
 10
479.772096
 20
268.248632
 30
0.0
 11
483.772096
 21
272.248632
 31
0.0
  0
ARC
  5
2482D
100
AcDbEntity
  8
0
100
AcDbCircle
 10
487.772096
 20
270.248632
 30
0.0
 40
2.0
100
AcDbArc
 50
360.0
 51
90.0
  0
LINE
  5
2482E
100
AcDbEntity
  8
0
100
AcDbLine
 10
483.772096
 20
272.248632
 30
0.0
 11
487.772096
 21
272.248632
 31
0.0
  0
LINE
  5
2482F
100
AcDbEntity
  8
0
100
AcDbLine
 10
483.772096
 20
302.248632
 30
0.0
 11
483.772096
 21
272.248632
 31
0.0
  0
ARC
  5
24830
100
AcDbEntity
  8
0
100
AcDbCircle
 10
465.772096
 20
306.248632
 30
0.0
 40
14.0
100
AcDbArc
 50
0.0
 51
90.0
  0
LINE
  5
24831
100
AcDbEntity
  8
0
100
AcDbLine
 10
489.772096
 20
304.748632
 30
0.0
 11
497.622096
 21
304.748632
 31
0.0
  0
LINE
  5
24832
100
AcDbEntity
  8
0
100
AcDbLine
 10
510.622096
 20
253.748632
 30
0.0
 11
510.622096
 21
320.748632
 31
0.0
  0
LINE
  5
24833
100
AcDbEntity
  8
0
100
AcDbLine
 10
527.417096
 20
267.089435
 30
0.0
 11
527.417096
 21
307.407829
 31
0.0
  0
LINE
  5
24834
100
AcDbEntity
  8
0
100
AcDbLine
 10
514.417096
 20
264.748632
 30
0.0
 11
514.417096
 21
309.748632
 31
0.0
  0
LINE
  5
24835
100
AcDbEntity
  8
0
100
AcDbLine
 10
582.069217
 20
265.754851
 30
0.0
 11
578.847197
 21
268.976871
 31
0.0
  0
LINE
  5
24836
100
AcDbEntity
  8
0
100
AcDbLine
 10
576.492345
 20
266.62202
 30
0.0
 11
578.847197
 21
268.976871
 31
0.0
  0
LINE
  5
24837
100
AcDbEntity
  8
0
100
AcDbLine
 10
556.917096
 20
270.828322
 30
0.0
 11
556.917096
 21
250.748632
 31
0.0
  0
ARC
  5
24838
100
AcDbEntity
  8
0
100
AcDbCircle
 10
565.347814
 20
269.226031
 30
0.0
 40
2.0
100
AcDbArc
 50
315.0
 51
45.0
  0
LINE
  5
24839
100
AcDbEntity
  8
0
100
AcDbLine
 10
545.417096
 20
265.748632
 30
0.0
 11
529.417096
 21
265.748632
 31
0.0
  0
LINE
  5
2483A
100
AcDbEntity
  8
0
100
AcDbLine
 10
545.417096
 20
255.748632
 30
0.0
 11
529.417096
 21
255.748632
 31
0.0
  0
LINE
  5
2483B
100
AcDbEntity
  8
0
100
AcDbLine
 10
555.417096
 20
249.248632
 30
0.0
 11
537.417096
 21
249.248632
 31
0.0
  0
LINE
  5
2483C
100
AcDbEntity
  8
0
100
AcDbLine
 10
517.917096
 20
264.748632
 30
0.0
 11
527.417096
 21
267.089435
 31
0.0
  0
LINE
  5
2483D
100
AcDbEntity
  8
0
100
AcDbLine
 10
537.417096
 20
249.248632
 30
0.0
 11
519.417096
 21
249.248632
 31
0.0
  0
LINE
  5
2483E
100
AcDbEntity
  8
0
100
AcDbLine
 10
514.417096
 20
267.089435
 30
0.0
 11
527.417096
 21
267.089435
 31
0.0
  0
LINE
  5
2483F
100
AcDbEntity
  8
0
100
AcDbLine
 10
514.417096
 20
264.748632
 30
0.0
 11
515.917096
 21
264.748632
 31
0.0
  0
LINE
  5
24840
100
AcDbEntity
  8
0
100
AcDbLine
 10
517.917096
 20
262.748632
 30
0.0
 11
517.917096
 21
250.748632
 31
0.0
  0
ARC
  5
24841
100
AcDbEntity
  8
0
100
AcDbCircle
 10
515.917096
 20
262.748632
 30
0.0
 40
2.0
100
AcDbArc
 50
0.0
 51
90.0
  0
LINE
  5
24842
100
AcDbEntity
  8
0
100
AcDbLine
 10
517.917096
 20
250.748632
 30
0.0
 11
519.417096
 21
249.248632
 31
0.0
  0
LINE
  5
24843
100
AcDbEntity
  8
0
100
AcDbLine
 10
529.417096
 20
255.748632
 30
0.0
 11
529.417096
 21
265.748632
 31
0.0
  0
LINE
  5
24844
100
AcDbEntity
  8
0
100
AcDbLine
 10
555.417096
 20
249.248632
 30
0.0
 11
556.917096
 21
250.748632
 31
0.0
  0
LINE
  5
24845
100
AcDbEntity
  8
0
100
AcDbLine
 10
545.417096
 20
255.748632
 30
0.0
 11
545.417096
 21
265.748632
 31
0.0
  0
ARC
  5
24846
100
AcDbEntity
  8
0
100
AcDbCircle
 10
576.970751
 20
263.110791
 30
0.0
 40
3.54367
100
AcDbArc
 50
97.758785
 51
157.758785
  0
LINE
  5
24847
100
AcDbEntity
  8
0
100
AcDbLine
 10
566.762028
 20
267.811818
 30
0.0
 11
569.590455
 21
264.98339
 31
0.0
  0
LINE
  5
24848
100
AcDbEntity
  8
0
100
AcDbLine
 10
573.833095
 20
264.98339
 30
0.0
 11
573.459522
 21
263.589197
 31
0.0
  0
LINE
  5
24849
100
AcDbEntity
  8
0
100
AcDbLine
 10
573.833095
 20
264.98339
 30
0.0
 11
573.125989
 21
265.690497
 31
0.0
  0
LINE
  5
2484A
100
AcDbEntity
  8
0
100
AcDbLine
 10
572.418882
 20
264.98339
 30
0.0
 11
569.590455
 21
264.98339
 31
0.0
  0
LINE
  5
2484B
100
AcDbEntity
  8
0
100
AcDbLine
 10
578.075736
 20
260.74075
 30
0.0
 11
576.681542
 21
260.367177
 31
0.0
  0
ARC
  5
2484C
100
AcDbEntity
  8
0
100
AcDbCircle
 10
576.203137
 20
263.878405
 30
0.0
 40
3.54367
100
AcDbArc
 50
292.241215
 51
352.241215
  0
LINE
  5
2484D
100
AcDbEntity
  8
0
100
AcDbLine
 10
579.714365
 20
263.4
 30
0.0
 11
582.069217
 21
265.754851
 31
0.0
  0
LINE
  5
2484E
100
AcDbEntity
  8
0
100
AcDbLine
 10
576.681542
 20
260.367177
 30
0.0
 11
573.459522
 21
263.589197
 31
0.0
  0
LINE
  5
2484F
100
AcDbEntity
  8
0
100
AcDbLine
 10
579.714365
 20
263.4
 30
0.0
 11
576.492345
 21
266.62202
 31
0.0
  0
LINE
  5
24850
100
AcDbEntity
  8
0
100
AcDbLine
 10
536.217096
 20
279.248632
 30
0.0
 11
551.417096
 21
279.248632
 31
0.0
  0
LINE
  5
24851
100
AcDbEntity
  8
0
100
AcDbLine
 10
534.717096
 20
295.248632
 30
0.0
 11
543.917096
 21
295.248632
 31
0.0
  0
LINE
  5
24852
100
AcDbEntity
  8
0
100
AcDbLine
 10
545.417096
 20
322.748632
 30
0.0
 11
529.417096
 21
322.748632
 31
0.0
  0
LINE
  5
24853
100
AcDbEntity
  8
0
100
AcDbLine
 10
545.417096
 20
312.748632
 30
0.0
 11
529.417096
 21
312.748632
 31
0.0
  0
LINE
  5
24854
100
AcDbEntity
  8
0
100
AcDbLine
 10
555.417096
 20
329.248632
 30
0.0
 11
537.417096
 21
329.248632
 31
0.0
  0
LINE
  5
24855
100
AcDbEntity
  8
0
100
AcDbLine
 10
514.417096
 20
282.486132
 30
0.0
 11
510.622096
 21
282.486132
 31
0.0
  0
LINE
  5
24856
100
AcDbEntity
  8
0
100
AcDbLine
 10
514.417096
 20
292.011132
 30
0.0
 11
510.622096
 21
292.011132
 31
0.0
  0
LINE
  5
24857
100
AcDbEntity
  8
0
100
AcDbLine
 10
510.622096
 20
269.748632
 30
0.0
 11
514.417096
 21
269.748632
 31
0.0
  0
LINE
  5
24858
100
AcDbEntity
  8
0
100
AcDbLine
 10
533.178484
 20
295.504741
 30
0.0
 11
527.417096
 21
295.504741
 31
0.0
  0
LINE
  5
24859
100
AcDbEntity
  8
0
100
AcDbLine
 10
533.817096
 20
294.398632
 30
0.0
 11
533.178484
 21
295.504741
 31
0.0
  0
LINE
  5
2485A
100
AcDbEntity
  8
0
100
AcDbLine
 10
533.178484
 20
283.120578
 30
0.0
 11
527.417096
 21
283.120578
 31
0.0
  0
LINE
  5
2485B
100
AcDbEntity
  8
0
100
AcDbLine
 10
533.178484
 20
278.992523
 30
0.0
 11
527.417096
 21
278.992523
 31
0.0
  0
LINE
  5
2485C
100
AcDbEntity
  8
0
100
AcDbLine
 10
533.178484
 20
291.376687
 30
0.0
 11
527.417096
 21
291.376687
 31
0.0
  0
ARC
  5
2485D
100
AcDbEntity
  8
0
100
AcDbCircle
 10
520.155708
 20
287.248632
 30
0.0
 40
13.661388
100
AcDbArc
 50
342.412046
 51
17.587954
  0
ARC
  5
2485E
100
AcDbEntity
  8
0
100
AcDbCircle
 10
530.16227
 20
281.05655
 30
0.0
 40
3.654827
100
AcDbArc
 50
325.615753
 51
34.384247
  0
LINE
  5
2485F
100
AcDbEntity
  8
0
100
AcDbLine
 10
533.817096
 20
280.098632
 30
0.0
 11
533.178484
 21
278.992523
 31
0.0
  0
LINE
  5
24860
100
AcDbEntity
  8
0
100
AcDbLine
 10
533.817096
 20
280.098632
 30
0.0
 11
533.817096
 21
294.398632
 31
0.0
  0
ARC
  5
24861
100
AcDbEntity
  8
0
100
AcDbCircle
 10
530.16227
 20
293.440714
 30
0.0
 40
3.654827
100
AcDbArc
 50
325.615753
 51
34.384247
  0
LINE
  5
24862
100
AcDbEntity
  8
0
100
AcDbLine
 10
537.417096
 20
329.248632
 30
0.0
 11
519.417096
 21
329.248632
 31
0.0
  0
LINE
  5
24863
100
AcDbEntity
  8
0
100
AcDbLine
 10
517.917096
 20
309.748632
 30
0.0
 11
527.417096
 21
307.407829
 31
0.0
  0
LINE
  5
24864
100
AcDbEntity
  8
0
100
AcDbLine
 10
514.417096
 20
307.407829
 30
0.0
 11
527.417096
 21
307.407829
 31
0.0
  0
LINE
  5
24865
100
AcDbEntity
  8
0
100
AcDbLine
 10
510.622096
 20
304.748632
 30
0.0
 11
514.417096
 21
304.748632
 31
0.0
  0
ARC
  5
24866
100
AcDbEntity
  8
0
100
AcDbCircle
 10
515.917096
 20
311.748632
 30
0.0
 40
2.0
100
AcDbArc
 50
270.0
 51
0.0
  0
LINE
  5
24867
100
AcDbEntity
  8
0
100
AcDbLine
 10
514.417096
 20
309.748632
 30
0.0
 11
515.917096
 21
309.748632
 31
0.0
  0
LINE
  5
24868
100
AcDbEntity
  8
0
100
AcDbLine
 10
517.917096
 20
325.248632
 30
0.0
 11
517.917096
 21
311.748632
 31
0.0
  0
LINE
  5
24869
100
AcDbEntity
  8
0
100
AcDbLine
 10
517.917096
 20
327.748632
 30
0.0
 11
517.917096
 21
311.748632
 31
0.0
  0
LINE
  5
2486A
100
AcDbEntity
  8
0
100
AcDbLine
 10
519.417096
 20
329.248632
 30
0.0
 11
517.917096
 21
327.748632
 31
0.0
  0
LINE
  5
2486B
100
AcDbEntity
  8
0
100
AcDbLine
 10
529.417096
 20
322.748632
 30
0.0
 11
529.417096
 21
312.748632
 31
0.0
  0
LINE
  5
2486C
100
AcDbEntity
  8
0
100
AcDbLine
 10
556.917096
 20
313.012088
 30
0.0
 11
583.025484
 21
286.903701
 31
0.0
  0
ARC
  5
2486D
100
AcDbEntity
  8
0
100
AcDbCircle
 10
560.917096
 20
270.828322
 30
0.0
 40
4.0
100
AcDbArc
 50
45.0
 51
180.0
  0
ARC
  5
2486E
100
AcDbEntity
  8
0
100
AcDbCircle
 10
589.871756
 20
263.793973
 30
0.0
 40
12.182091
100
AcDbArc
 50
115.179294
 51
154.820706
  0
LINE
  5
2486F
100
AcDbEntity
  8
0
100
AcDbLine
 10
563.745523
 20
273.656749
 30
0.0
 11
566.762028
 21
270.640245
 31
0.0
  0
LINE
  5
24870
100
AcDbEntity
  8
0
100
AcDbLine
 10
584.846284
 20
285.896074
 30
0.0
 11
567.769655
 21
268.819445
 31
0.0
  0
LINE
  5
24871
100
AcDbEntity
  8
0
100
AcDbLine
 10
582.212311
 20
286.090528
 30
0.0
 11
567.5752
 21
271.453418
 31
0.0
  0
LINE
  5
24872
100
AcDbEntity
  8
0
100
AcDbLine
 10
556.917096
 20
327.748632
 30
0.0
 11
555.417096
 21
329.248632
 31
0.0
  0
LINE
  5
24873
100
AcDbEntity
  8
0
100
AcDbLine
 10
556.917096
 20
327.748632
 30
0.0
 11
556.917096
 21
313.012088
 31
0.0
  0
LINE
  5
24874
100
AcDbEntity
  8
0
100
AcDbLine
 10
545.417096
 20
322.748632
 30
0.0
 11
545.417096
 21
312.748632
 31
0.0
  0
TEXT
  5
24875
100
AcDbEntity
  8
0
100
AcDbText
 10
109.130076
 20
503.353423
 30
0.0
 40
17.5
  1
平面
100
AcDbText
  0
TEXT
  5
24876
100
AcDbEntity
  8
0
100
AcDbText
 10
108.261532
 20
703.629216
 30
0.0
 40
17.5
  1
背面
100
AcDbText
  0
LINE
  5
24877
100
AcDbEntity
  8
0
100
AcDbLine
 10
389.289124
 20
455.809945
 30
0.0
 11
454.844668
 21
455.809945
 31
0.0
  0
LINE
  5
24878
100
AcDbEntity
  8
0
100
AcDbLine
 10
389.289124
 20
559.809945
 30
0.0
 11
454.844668
 21
559.809945
 31
0.0
  0
ARC
  5
24879
100
AcDbEntity
  8
0
100
AcDbCircle
 10
456.816896
 20
507.809945
 30
0.0
 40
92.0
100
AcDbArc
 50
151.280664
 51
208.719336
  0
ARC
  5
2487A
100
AcDbEntity
  8
0
100
AcDbCircle
 10
389.289124
 20
470.809945
 30
0.0
 40
15.0
100
AcDbArc
 50
208.719336
 51
270.0
  0
ARC
  5
2487B
100
AcDbEntity
  8
0
100
AcDbCircle
 10
389.289124
 20
544.809945
 30
0.0
 40
15.0
100
AcDbArc
 50
90.0
 51
151.280664
  0
ARC
  5
2487C
100
AcDbEntity
  8
0
100
AcDbCircle
 10
387.316896
 20
507.809945
 30
0.0
 40
92.0
100
AcDbArc
 50
331.280664
 51
28.719336
  0
ARC
  5
2487D
100
AcDbEntity
  8
0
100
AcDbCircle
 10
454.844668
 20
470.809945
 30
0.0
 40
15.0
100
AcDbArc
 50
270.0
 51
331.280664
  0
LINE
  5
2487E
100
AcDbEntity
  8
0
100
AcDbLine
 10
510.622096
 20
474.309945
 30
0.0
 11
497.622096
 21
474.309945
 31
0.0
  0
LINE
  5
2487F
100
AcDbEntity
  8
0
100
AcDbLine
 10
510.622096
 20
541.309945
 30
0.0
 11
497.622096
 21
541.309945
 31
0.0
  0
LINE
  5
24880
100
AcDbEntity
  8
0
100
AcDbLine
 10
497.622096
 20
474.309945
 30
0.0
 11
497.622096
 21
541.309945
 31
0.0
  0
LINE
  5
24881
100
AcDbEntity
  8
0
100
AcDbLine
 10
495.417096
 20
537.212445
 30
0.0
 11
495.913617
 21
538.072445
 31
0.0
  0
LINE
  5
24882
100
AcDbEntity
  8
0
100
AcDbLine
 10
483.772096
 20
522.809945
 30
0.0
 11
483.772096
 21
492.809945
 31
0.0
  0
LINE
  5
24883
100
AcDbEntity
  8
0
100
AcDbLine
 10
489.772096
 20
525.309945
 30
0.0
 11
489.772096
 21
490.309945
 31
0.0
  0
LINE
  5
24884
100
AcDbEntity
  8
0
100
AcDbLine
 10
476.606895
 20
485.644744
 30
0.0
 11
483.772096
 21
492.809945
 31
0.0
  0
ARC
  5
24885
100
AcDbEntity
  8
0
100
AcDbCircle
 10
487.772096
 20
490.809945
 30
0.0
 40
2.0
100
AcDbArc
 50
360.0
 51
90.0
  0
LINE
  5
24886
100
AcDbEntity
  8
0
100
AcDbLine
 10
483.772096
 20
492.809945
 30
0.0
 11
487.772096
 21
492.809945
 31
0.0
  0
LINE
  5
24887
100
AcDbEntity
  8
0
100
AcDbLine
 10
497.622096
 20
490.309945
 30
0.0
 11
489.772096
 21
490.309945
 31
0.0
  0
LINE
  5
24888
100
AcDbEntity
  8
0
100
AcDbLine
 10
476.606895
 20
529.975147
 30
0.0
 11
483.772096
 21
522.809945
 31
0.0
  0
ARC
  5
24889
100
AcDbEntity
  8
0
100
AcDbCircle
 10
487.772096
 20
524.809945
 30
0.0
 40
2.0
100
AcDbArc
 50
270.0
 51
0.0
  0
LINE
  5
2488A
100
AcDbEntity
  8
0
100
AcDbLine
 10
483.772096
 20
522.809945
 30
0.0
 11
487.772096
 21
522.809945
 31
0.0
  0
LINE
  5
2488B
100
AcDbEntity
  8
0
100
AcDbLine
 10
497.622096
 20
525.309945
 30
0.0
 11
489.772096
 21
525.309945
 31
0.0
  0
LINE
  5
2488C
100
AcDbEntity
  8
0
100
AcDbLine
 10
495.417096
 20
529.407445
 30
0.0
 11
495.417096
 21
537.212445
 31
0.0
  0
LINE
  5
2488D
100
AcDbEntity
  8
0
100
AcDbLine
 10
495.417096
 20
529.407445
 30
0.0
 11
495.913617
 21
528.547445
 31
0.0
  0
LINE
  5
2488E
100
AcDbEntity
  8
0
100
AcDbLine
 10
495.913617
 20
528.547445
 30
0.0
 11
497.622096
 21
528.547445
 31
0.0
  0
ARC
  5
2488F
100
AcDbEntity
  8
0
100
AcDbCircle
 10
454.844668
 20
544.809945
 30
0.0
 40
15.0
100
AcDbArc
 50
28.719336
 51
90.0
  0
LINE
  5
24890
100
AcDbEntity
  8
0
100
AcDbLine
 10
495.913617
 20
538.072445
 30
0.0
 11
497.622096
 21
538.072445
 31
0.0
  0
LINE
  5
24891
100
AcDbEntity
  8
0
100
AcDbLine
 10
527.417096
 20
541.309945
 30
0.0
 11
527.417096
 21
524.550614
 31
0.0
  0
LINE
  5
24892
100
AcDbEntity
  8
0
100
AcDbLine
 10
514.417096
 20
541.309945
 30
0.0
 11
514.417096
 21
474.309945
 31
0.0
  0
LINE
  5
24893
100
AcDbEntity
  8
0
100
AcDbLine
 10
510.622096
 20
541.309945
 30
0.0
 11
510.622096
 21
474.309945
 31
0.0
  0
ARC
  5
24894
100
AcDbEntity
  8
0
100
AcDbCircle
 10
525.002419
 20
536.884945
 30
0.0
 40
8.814677
100
AcDbArc
 50
336.072926
 51
23.927074
  0
LINE
  5
24895
100
AcDbEntity
  8
0
100
AcDbLine
 10
533.817096
 20
539.147896
 30
0.0
 11
533.817096
 21
527.471995
 31
0.0
  0
CIRCLE
  5
24896
100
AcDbEntity
  8
0
100
AcDbCircle
 10
537.417096
 20
507.809945
 30
0.0
 40
19.5
  0
LINE
  5
24897
100
AcDbEntity
  8
0
100
AcDbLine
 10
545.417096
 20
488.309945
 30
0.0
 11
529.417096
 21
488.309945
 31
0.0
  0
LINE
  5
24898
100
AcDbEntity
  8
0
100
AcDbLine
 10
545.417096
 20
527.309945
 30
0.0
 11
529.417096
 21
527.309945
 31
0.0
  0
LINE
  5
24899
100
AcDbEntity
  8
0
100
AcDbLine
 10
524.417096
 20
477.855813
 30
0.0
 11
516.417096
 21
477.855813
 31
0.0
  0
LINE
  5
2489A
100
AcDbEntity
  8
0
100
AcDbLine
 10
515.067096
 20
481.054445
 30
0.0
 11
526.767096
 21
481.054445
 31
0.0
  0
LINE
  5
2489B
100
AcDbEntity
  8
0
100
AcDbLine
 10
524.417096
 20
473.309945
 30
0.0
 11
516.417096
 21
473.309945
 31
0.0
  0
ARC
  5
2489C
100
AcDbEntity
  8
0
100
AcDbCircle
 10
515.417096
 20
476.855813
 30
0.0
 40
1.0
100
AcDbArc
 50
0.0
 51
90.0
  0
LINE
  5
2489D
100
AcDbEntity
  8
0
100
AcDbLine
 10
514.417096
 20
474.309945
 30
0.0
 11
516.417096
 21
474.309945
 31
0.0
  0
LINE
  5
2489E
100
AcDbEntity
  8
0
100
AcDbLine
 10
514.417096
 20
477.547445
 30
0.0
 11
510.622096
 21
477.547445
 31
0.0
  0
LINE
  5
2489F
100
AcDbEntity
  8
0
100
AcDbLine
 10
514.417096
 20
487.072445
 30
0.0
 11
510.622096
 21
487.072445
 31
0.0
  0
LINE
  5
248A0
100
AcDbEntity
  8
0
100
AcDbLine
 10
516.417096
 20
476.855813
 30
0.0
 11
516.417096
 21
473.309945
 31
0.0
  0
LINE
  5
248A1
100
AcDbEntity
  8
0
100
AcDbLine
 10
514.417096
 20
490.309945
 30
0.0
 11
510.622096
 21
490.309945
 31
0.0
  0
LINE
  5
248A2
100
AcDbEntity
  8
0
100
AcDbLine
 10
527.417096
 20
474.309945
 30
0.0
 11
527.417096
 21
491.069276
 31
0.0
  0
LINE
  5
248A3
100
AcDbEntity
  8
0
100
AcDbLine
 10
529.417096
 20
490.026526
 30
0.0
 11
529.417096
 21
488.309945
 31
0.0
  0
ARC
  5
248A4
100
AcDbEntity
  8
0
100
AcDbCircle
 10
525.002419
 20
478.734945
 30
0.0
 40
8.814677
100
AcDbArc
 50
336.072926
 51
23.927074
  0
LINE
  5
248A5
100
AcDbEntity
  8
0
100
AcDbLine
 10
533.817096
 20
476.471995
 30
0.0
 11
533.817096
 21
488.147896
 31
0.0
  0
LINE
  5
248A6
100
AcDbEntity
  8
0
100
AcDbLine
 10
533.817096
 20
476.471995
 30
0.0
 11
533.059584
 21
475.159945
 31
0.0
  0
ARC
  5
248A7
100
AcDbEntity
  8
0
100
AcDbCircle
 10
525.417096
 20
476.855813
 30
0.0
 40
1.0
100
AcDbArc
 50
90.0
 51
180.0
  0
LINE
  5
248A8
100
AcDbEntity
  8
0
100
AcDbLine
 10
524.417096
 20
474.309945
 30
0.0
 11
527.417096
 21
474.309945
 31
0.0
  0
LINE
  5
248A9
100
AcDbEntity
  8
0
100
AcDbLine
 10
533.059584
 20
475.159945
 30
0.0
 11
527.417096
 21
475.159945
 31
0.0
  0
ARC
  5
248AA
100
AcDbEntity
  8
0
100
AcDbCircle
 10
525.002419
 20
485.884945
 30
0.0
 40
8.814677
100
AcDbArc
 50
336.072926
 51
15.96853
  0
LINE
  5
248AB
100
AcDbEntity
  8
0
100
AcDbLine
 10
533.817096
 20
488.147896
 30
0.0
 11
533.723537
 21
488.309945
 31
0.0
  0
ARC
  5
248AC
100
AcDbEntity
  8
0
100
AcDbCircle
 10
533.059584
 20
482.309945
 30
0.0
 40
0.0
100
AcDbArc
 50
90.0
 51
137.854147
  0
LINE
  5
248AD
100
AcDbEntity
  8
0
100
AcDbLine
 10
527.417096
 20
482.309945
 30
0.0
 11
533.059584
 21
482.309945
 31
0.0
  0
LINE
  5
248AE
100
AcDbEntity
  8
0
100
AcDbLine
 10
533.059584
 20
482.309945
 30
0.0
 11
527.417096
 21
482.309945
 31
0.0
  0
LINE
  5
248AF
100
AcDbEntity
  8
0
100
AcDbLine
 10
524.417096
 20
476.855813
 30
0.0
 11
524.417096
 21
473.309945
 31
0.0
  0
LINE
  5
248B0
100
AcDbEntity
  8
0
100
AcDbLine
 10
529.417096
 20
489.459945
 30
0.0
 11
527.417096
 21
489.459945
 31
0.0
  0
LINE
  5
248B1
100
AcDbEntity
  8
0
100
AcDbLine
 10
515.067096
 20
534.565445
 30
0.0
 11
526.767096
 21
534.565445
 31
0.0
  0
LINE
  5
248B2
100
AcDbEntity
  8
0
100
AcDbLine
 10
514.417096
 20
525.309945
 30
0.0
 11
510.622096
 21
525.309945
 31
0.0
  0
LINE
  5
248B3
100
AcDbEntity
  8
0
100
AcDbLine
 10
514.417096
 20
528.547445
 30
0.0
 11
510.622096
 21
528.547445
 31
0.0
  0
LINE
  5
248B4
100
AcDbEntity
  8
0
100
AcDbLine
 10
529.417096
 20
525.593364
 30
0.0
 11
529.417096
 21
527.309945
 31
0.0
  0
LINE
  5
248B5
100
AcDbEntity
  8
0
100
AcDbLine
 10
529.417096
 20
525.593364
 30
0.0
 11
529.417096
 21
527.309945
 31
0.0
  0
ARC
  5
248B6
100
AcDbEntity
  8
0
100
AcDbCircle
 10
533.059584
 20
533.309945
 30
0.0
 40
0.0
100
AcDbArc
 50
222.145853
 51
270.0
  0
LINE
  5
248B7
100
AcDbEntity
  8
0
100
AcDbLine
 10
533.817096
 20
527.471995
 30
0.0
 11
533.723537
 21
527.309945
 31
0.0
  0
ARC
  5
248B8
100
AcDbEntity
  8
0
100
AcDbCircle
 10
525.002419
 20
529.734945
 30
0.0
 40
8.814677
100
AcDbArc
 50
344.03147
 51
23.927074
  0
LINE
  5
248B9
100
AcDbEntity
  8
0
100
AcDbLine
 10
533.059584
 20
533.309945
 30
0.0
 11
527.417096
 21
533.309945
 31
0.0
  0
LINE
  5
248BA
100
AcDbEntity
  8
0
100
AcDbLine
 10
527.417096
 20
533.309945
 30
0.0
 11
533.059584
 21
533.309945
 31
0.0
  0
LINE
  5
248BB
100
AcDbEntity
  8
0
100
AcDbLine
 10
529.417096
 20
526.159945
 30
0.0
 11
527.417096
 21
526.159945
 31
0.0
  0
ELLIPSE
  5
248BC
100
AcDbEntity
  8
0
100
AcDbEllipse
 10
574.893756
 20
507.809945
 30
0.0
 11
-0.0000000000000021
 21
-11.5
 31
0.0
210
0.0
220
0.0
230
-1.0
 40
0.707107
 41
3.141592653589793
 42
6.283185307179586
  0
LINE
  5
248BD
100
AcDbEntity
  8
0
100
AcDbLine
 10
553.165112
 20
496.309945
 30
0.0
 11
574.893756
 21
496.309945
 31
0.0
  0
LINE
  5
248BE
100
AcDbEntity
  8
0
100
AcDbLine
 10
545.417096
 20
490.026526
 30
0.0
 11
545.417096
 21
488.309945
 31
0.0
  0
LINE
  5
248BF
100
AcDbEntity
  8
0
100
AcDbLine
 10
576.307969
 20
494.309945
 30
0.0
 11
579.136396
 21
494.309945
 31
0.0
  0
LINE
  5
248C0
100
AcDbEntity
  8
0
100
AcDbLine
 10
553.165112
 20
519.309945
 30
0.0
 11
574.893756
 21
519.309945
 31
0.0
  0
LINE
  5
248C1
100
AcDbEntity
  8
0
100
AcDbLine
 10
545.417096
 20
525.593364
 30
0.0
 11
545.417096
 21
527.309945
 31
0.0
  0
LINE
  5
248C2
100
AcDbEntity
  8
0
100
AcDbLine
 10
576.307969
 20
521.309945
 30
0.0
 11
579.136396
 21
521.309945
 31
0.0
  0
LINE
  5
248C3
100
AcDbEntity
  8
0
100
AcDbLine
 10
514.417096
 20
541.309945
 30
0.0
 11
527.417096
 21
541.309945
 31
0.0
  0
LINE
  5
248C4
100
AcDbEntity
  8
0
100
AcDbLine
 10
524.417096
 20
542.309945
 30
0.0
 11
516.417096
 21
542.309945
 31
0.0
  0
LINE
  5
248C5
100
AcDbEntity
  8
0
100
AcDbLine
 10
516.417096
 20
541.309945
 30
0.0
 11
516.417096
 21
542.309945
 31
0.0
  0
LINE
  5
248C6
100
AcDbEntity
  8
0
100
AcDbLine
 10
514.417096
 20
538.072445
 30
0.0
 11
510.622096
 21
538.072445
 31
0.0
  0
LINE
  5
248C7
100
AcDbEntity
  8
0
100
AcDbLine
 10
524.417096
 20
541.309945
 30
0.0
 11
524.417096
 21
542.309945
 31
0.0
  0
LINE
  5
248C8
100
AcDbEntity
  8
0
100
AcDbLine
 10
533.817096
 20
539.147896
 30
0.0
 11
533.059584
 21
540.459945
 31
0.0
  0
LINE
  5
248C9
100
AcDbEntity
  8
0
100
AcDbLine
 10
533.059584
 20
540.459945
 30
0.0
 11
527.417096
 21
540.459945
 31
0.0
  0
LINE
  5
248CA
100
AcDbEntity
  8
0
100
AcDbLine
 10
401.633532
 20
742.762194
 30
0.0
 11
375.525145
 21
716.653806
 31
0.0
  0
LINE
  5
248CB
100
AcDbEntity
  8
0
100
AcDbLine
 10
381.869086
 20
690.117282
 30
0.0
 11
385.091106
 21
693.339302
 31
0.0
  0
ARC
  5
248CC
100
AcDbEntity
  8
0
100
AcDbCircle
 10
381.579877
 20
692.860897
 30
0.0
 40
3.54367
100
AcDbArc
 50
22.241215
 51
82.241215
  0
LINE
  5
248CD
100
AcDbEntity
  8
0
100
AcDbLine
 10
388.960173
 20
694.733496
 30
0.0
 11
369.86829
 21
713.825379
 31
0.0
  0
LINE
  5
248CE
100
AcDbEntity
  8
0
100
AcDbLine
 10
373.704345
 20
715.646179
 30
0.0
 11
390.780973
 21
698.56955
 31
0.0
  0
LINE
  5
248CF
100
AcDbEntity
  8
0
100
AcDbLine
 10
376.338317
 20
715.840633
 30
0.0
 11
390.975428
 21
701.203523
 31
0.0
  0
LINE
  5
248D0
100
AcDbEntity
  8
0
100
AcDbLine
 10
369.86829
 20
710.996952
 30
0.0
 11
386.131746
 21
694.733496
 31
0.0
  0
LINE
  5
248D1
100
AcDbEntity
  8
0
100
AcDbLine
 10
384.717533
 20
694.733496
 30
0.0
 11
369.86829
 21
709.582738
 31
0.0
  0
LINE
  5
248D2
100
AcDbEntity
  8
0
100
AcDbLine
 10
369.86829
 20
710.996952
 30
0.0
 11
369.86829
 21
713.825379
 31
0.0
  0
LINE
  5
248D3
100
AcDbEntity
  8
0
100
AcDbLine
 10
370.639751
 20
701.346617
 30
0.0
 11
373.861771
 21
704.568637
 31
0.0
  0
ARC
  5
248D4
100
AcDbEntity
  8
0
100
AcDbCircle
 10
368.678873
 20
693.544078
 30
0.0
 40
12.182091
100
AcDbArc
 50
25.179294
 51
64.820706
  0
ARC
  5
248D5
100
AcDbEntity
  8
0
100
AcDbCircle
 10
368.763305
 20
707.212697
 30
0.0
 40
3.54367
100
AcDbArc
 50
202.241215
 51
262.241215
  0
LINE
  5
248D6
100
AcDbEntity
  8
0
100
AcDbLine
 10
368.2849
 20
703.701468
 30
0.0
 11
371.50692
 21
706.923488
 31
0.0
  0
LINE
  5
248D7
100
AcDbEntity
  8
0
100
AcDbLine
 10
380.474892
 20
690.490855
 30
0.0
 11
365.62565
 21
705.340098
 31
0.0
  0
LINE
  5
248D8
100
AcDbEntity
  8
0
100
AcDbLine
 10
380.474892
 20
690.490855
 30
0.0
 11
381.869086
 21
690.117282
 31
0.0
  0
LINE
  5
248D9
100
AcDbEntity
  8
0
100
AcDbLine
 10
382.058283
 20
696.372125
 30
0.0
 11
379.703431
 21
698.726976
 31
0.0
  0
LINE
  5
248DA
100
AcDbEntity
  8
0
100
AcDbLine
 10
378.836263
 20
693.150105
 30
0.0
 11
376.481412
 21
695.504956
 31
0.0
  0
ARC
  5
248DB
100
AcDbEntity
  8
0
100
AcDbCircle
 10
381.66431
 20
706.529515
 30
0.0
 40
12.182091
100
AcDbArc
 50
205.179294
 51
244.820706
  0
LINE
  5
248DC
100
AcDbEntity
  8
0
100
AcDbLine
 10
376.481412
 20
695.504956
 30
0.0
 11
379.703431
 21
698.726976
 31
0.0
  0
ARC
  5
248DD
100
AcDbEntity
  8
0
100
AcDbCircle
 10
382.347491
 20
693.628511
 30
0.0
 40
3.54367
100
AcDbArc
 50
187.758785
 51
247.758785
  0
LINE
  5
248DE
100
AcDbEntity
  8
0
100
AcDbLine
 10
378.836263
 20
693.150105
 30
0.0
 11
382.058283
 21
696.372125
 31
0.0
  0
LINE
  5
248DF
100
AcDbEntity
  8
0
100
AcDbLine
 10
370.639751
 20
701.346617
 30
0.0
 11
368.2849
 21
703.701468
 31
0.0
  0
LINE
  5
248E0
100
AcDbEntity
  8
0
100
AcDbLine
 10
369.86829
 20
709.582738
 30
0.0
 11
370.575397
 21
710.289845
 31
0.0
  0
LINE
  5
248E1
100
AcDbEntity
  8
0
100
AcDbLine
 10
369.86829
 20
709.582738
 30
0.0
 11
368.474096
 21
709.956311
 31
0.0
  0
LINE
  5
248E2
100
AcDbEntity
  8
0
100
AcDbLine
 10
373.861771
 20
704.568637
 30
0.0
 11
371.50692
 21
706.923488
 31
0.0
  0
LINE
  5
248E3
100
AcDbEntity
  8
0
100
AcDbLine
 10
365.62565
 20
705.340098
 30
0.0
 11
365.252076
 21
706.734291
 31
0.0
  0
LINE
  5
248E4
100
AcDbEntity
  8
0
100
AcDbLine
 10
365.252076
 20
706.734291
 30
0.0
 11
368.474096
 21
709.956311
 31
0.0
  0
ARC
  5
248E5
100
AcDbEntity
  8
0
100
AcDbCircle
 10
367.995691
 20
706.445083
 30
0.0
 40
3.54367
100
AcDbArc
 50
7.758785
 51
67.758785
  0
ARC
  5
248E6
100
AcDbEntity
  8
0
100
AcDbCircle
 10
374.110931
 20
718.06802
 30
0.0
 40
2.0
100
AcDbArc
 50
225.0
 51
315.0
  0
LINE
  5
248E7
100
AcDbEntity
  8
0
100
AcDbLine
 10
369.86829
 20
713.825379
 30
0.0
 11
372.696717
 21
716.653806
 31
0.0
  0
ARC
  5
248E8
100
AcDbEntity
  8
0
100
AcDbCircle
 10
490.278532
 20
677.762194
 30
0.0
 40
11.5
100
AcDbArc
 50
180.0
 51
225.0
  0
LINE
  5
248E9
100
AcDbEntity
  8
0
100
AcDbLine
 10
482.146804
 20
669.630466
 30
0.0
 11
502.41026
 21
649.36701
 31
0.0
  0
ARC
  5
248EA
100
AcDbEntity
  8
0
100
AcDbCircle
 10
510.541988
 20
657.498738
 30
0.0
 40
11.5
100
AcDbArc
 50
225.0
 51
270.0
  0
LINE
  5
248EB
100
AcDbEntity
  8
0
100
AcDbLine
 10
474.778532
 20
731.998738
 30
0.0
 11
470.778532
 21
731.998738
 31
0.0
  0
LINE
  5
248EC
100
AcDbEntity
  8
0
100
AcDbLine
 10
474.778532
 20
701.998738
 30
0.0
 11
470.778532
 21
701.998738
 31
0.0
  0
LINE
  5
248ED
100
AcDbEntity
  8
0
100
AcDbLine
 10
460.928532
 20
683.498738
 30
0.0
 11
460.928532
 21
750.498738
 31
0.0
  0
LINE
  5
248EE
100
AcDbEntity
  8
0
100
AcDbLine
 10
447.928532
 20
683.498738
 30
0.0
 11
447.928532
 21
750.498738
 31
0.0
  0
LINE
  5
248EF
100
AcDbEntity
  8
0
100
AcDbLine
 10
401.633532
 20
757.498738
 30
0.0
 11
401.633532
 21
742.762194
 31
0.0
  0
LINE
  5
248F0
100
AcDbEntity
  8
0
100
AcDbLine
 10
413.133532
 20
752.498738
 30
0.0
 11
413.133532
 21
742.498738
 31
0.0
  0
LINE
  5
248F1
100
AcDbEntity
  8
0
100
AcDbLine
 10
440.633532
 20
754.998738
 30
0.0
 11
440.633532
 21
741.498738
 31
0.0
  0
LINE
  5
248F2
100
AcDbEntity
  8
0
100
AcDbLine
 10
440.633532
 20
757.498738
 30
0.0
 11
440.633532
 21
741.498738
 31
0.0
  0
LINE
  5
248F3
100
AcDbEntity
  8
0
100
AcDbLine
 10
429.133532
 20
752.498738
 30
0.0
 11
429.133532
 21
742.498738
 31
0.0
  0
LINE
  5
248F4
100
AcDbEntity
  8
0
100
AcDbLine
 10
425.372144
 20
725.254846
 30
0.0
 11
431.133532
 21
725.254846
 31
0.0
  0
LINE
  5
248F5
100
AcDbEntity
  8
0
100
AcDbLine
 10
425.372144
 20
712.870683
 30
0.0
 11
431.133532
 21
712.870683
 31
0.0
  0
LINE
  5
248F6
100
AcDbEntity
  8
0
100
AcDbLine
 10
425.372144
 20
721.126792
 30
0.0
 11
431.133532
 21
721.126792
 31
0.0
  0
LINE
  5
248F7
100
AcDbEntity
  8
0
100
AcDbLine
 10
425.372144
 20
708.742629
 30
0.0
 11
431.133532
 21
708.742629
 31
0.0
  0
LINE
  5
248F8
100
AcDbEntity
  8
0
100
AcDbLine
 10
413.133532
 20
695.498738
 30
0.0
 11
429.133532
 21
695.498738
 31
0.0
  0
LINE
  5
248F9
100
AcDbEntity
  8
0
100
AcDbLine
 10
413.133532
 20
685.498738
 30
0.0
 11
429.133532
 21
685.498738
 31
0.0
  0
LINE
  5
248FA
100
AcDbEntity
  8
0
100
AcDbLine
 10
421.133532
 20
678.998738
 30
0.0
 11
439.133532
 21
678.998738
 31
0.0
  0
LINE
  5
248FB
100
AcDbEntity
  8
0
100
AcDbLine
 10
413.133532
 20
742.498738
 30
0.0
 11
429.133532
 21
742.498738
 31
0.0
  0
ARC
  5
248FC
100
AcDbEntity
  8
0
100
AcDbCircle
 10
438.39492
 20
716.998738
 30
0.0
 40
13.661388
100
AcDbArc
 50
162.412046
 51
197.587954
  0
LINE
  5
248FD
100
AcDbEntity
  8
0
100
AcDbLine
 10
424.733532
 20
709.848738
 30
0.0
 11
424.733532
 21
724.148738
 31
0.0
  0
LINE
  5
248FE
100
AcDbEntity
  8
0
100
AcDbLine
 10
403.133532
 20
678.998738
 30
0.0
 11
421.133532
 21
678.998738
 31
0.0
  0
ARC
  5
248FF
100
AcDbEntity
  8
0
100
AcDbCircle
 10
397.633532
 20
700.578427
 30
0.0
 40
4.0
100
AcDbArc
 50
0.0
 51
135.0
  0
LINE
  5
24900
100
AcDbEntity
  8
0
100
AcDbLine
 10
403.133532
 20
678.998738
 30
0.0
 11
401.633532
 21
680.498738
 31
0.0
  0
LINE
  5
24901
100
AcDbEntity
  8
0
100
AcDbLine
 10
401.633532
 20
700.578427
 30
0.0
 11
401.633532
 21
680.498738
 31
0.0
  0
LINE
  5
24902
100
AcDbEntity
  8
0
100
AcDbLine
 10
391.788601
 20
697.561923
 30
0.0
 11
388.960173
 21
694.733496
 31
0.0
  0
ARC
  5
24903
100
AcDbEntity
  8
0
100
AcDbCircle
 10
393.202814
 20
698.976137
 30
0.0
 40
2.0
100
AcDbArc
 50
135.0
 51
225.0
  0
LINE
  5
24904
100
AcDbEntity
  8
0
100
AcDbLine
 10
394.805105
 20
703.406854
 30
0.0
 11
391.788601
 21
700.39035
 31
0.0
  0
LINE
  5
24905
100
AcDbEntity
  8
0
100
AcDbLine
 10
384.717533
 20
694.733496
 30
0.0
 11
385.091106
 21
693.339302
 31
0.0
  0
LINE
  5
24906
100
AcDbEntity
  8
0
100
AcDbLine
 10
384.717533
 20
694.733496
 30
0.0
 11
385.424639
 21
695.440603
 31
0.0
  0
LINE
  5
24907
100
AcDbEntity
  8
0
100
AcDbLine
 10
386.131746
 20
694.733496
 30
0.0
 11
388.960173
 21
694.733496
 31
0.0
  0
LINE
  5
24908
100
AcDbEntity
  8
0
100
AcDbLine
 10
413.133532
 20
685.498738
 30
0.0
 11
413.133532
 21
695.498738
 31
0.0
  0
ARC
  5
24909
100
AcDbEntity
  8
0
100
AcDbCircle
 10
428.388358
 20
710.806656
 30
0.0
 40
3.654827
100
AcDbArc
 50
145.615753
 51
214.384247
  0
LINE
  5
2490A
100
AcDbEntity
  8
0
100
AcDbLine
 10
424.733532
 20
709.848738
 30
0.0
 11
425.372144
 21
708.742629
 31
0.0
  0
LINE
  5
2490B
100
AcDbEntity
  8
0
100
AcDbLine
 10
422.333532
 20
708.998738
 30
0.0
 11
407.133532
 21
708.998738
 31
0.0
  0
LINE
  5
2490C
100
AcDbEntity
  8
0
100
AcDbLine
 10
424.733532
 20
724.148738
 30
0.0
 11
425.372144
 21
725.254846
 31
0.0
  0
ARC
  5
2490D
100
AcDbEntity
  8
0
100
AcDbCircle
 10
428.388358
 20
723.190819
 30
0.0
 40
3.654827
100
AcDbArc
 50
145.615753
 51
214.384247
  0
LINE
  5
2490E
100
AcDbEntity
  8
0
100
AcDbLine
 10
423.833532
 20
724.998738
 30
0.0
 11
414.633532
 21
724.998738
 31
0.0
  0
LINE
  5
2490F
100
AcDbEntity
  8
0
100
AcDbLine
 10
468.778532
 20
734.498738
 30
0.0
 11
468.778532
 21
699.498738
 31
0.0
  0
LINE
  5
24910
100
AcDbEntity
  8
0
100
AcDbLine
 10
431.133532
 20
696.83954
 30
0.0
 11
431.133532
 21
737.157935
 31
0.0
  0
LINE
  5
24911
100
AcDbEntity
  8
0
100
AcDbLine
 10
444.133532
 20
694.498738
 30
0.0
 11
444.133532
 21
739.498738
 31
0.0
  0
LINE
  5
24912
100
AcDbEntity
  8
0
100
AcDbLine
 10
463.133532
 20
713.096238
 30
0.0
 11
463.133532
 21
720.901238
 31
0.0
  0
LINE
  5
24913
100
AcDbEntity
  8
0
100
AcDbLine
 10
460.928532
 20
683.498738
 30
0.0
 11
447.928532
 21
683.498738
 31
0.0
  0
LINE
  5
24914
100
AcDbEntity
  8
0
100
AcDbLine
 10
447.928532
 20
699.498738
 30
0.0
 11
444.133532
 21
699.498738
 31
0.0
  0
ARC
  5
24915
100
AcDbEntity
  8
0
100
AcDbCircle
 10
442.633532
 20
692.498738
 30
0.0
 40
2.0
100
AcDbArc
 50
90.0
 51
180.0
  0
LINE
  5
24916
100
AcDbEntity
  8
0
100
AcDbLine
 10
440.633532
 20
680.498738
 30
0.0
 11
439.133532
 21
678.998738
 31
0.0
  0
LINE
  5
24917
100
AcDbEntity
  8
0
100
AcDbLine
 10
440.633532
 20
692.498738
 30
0.0
 11
440.633532
 21
680.498738
 31
0.0
  0
LINE
  5
24918
100
AcDbEntity
  8
0
100
AcDbLine
 10
444.133532
 20
694.498738
 30
0.0
 11
442.633532
 21
694.498738
 31
0.0
  0
LINE
  5
24919
100
AcDbEntity
  8
0
100
AcDbLine
 10
429.133532
 20
685.498738
 30
0.0
 11
429.133532
 21
695.498738
 31
0.0
  0
LINE
  5
2491A
100
AcDbEntity
  8
0
100
AcDbLine
 10
440.633532
 20
694.498738
 30
0.0
 11
431.133532
 21
696.83954
 31
0.0
  0
LINE
  5
2491B
100
AcDbEntity
  8
0
100
AcDbLine
 10
444.133532
 20
696.83954
 30
0.0
 11
431.133532
 21
696.83954
 31
0.0
  0
LINE
  5
2491C
100
AcDbEntity
  8
0
100
AcDbLine
 10
444.133532
 20
712.236238
 30
0.0
 11
447.928532
 21
712.236238
 31
0.0
  0
ARC
  5
2491D
100
AcDbEntity
  8
0
100
AcDbCircle
 10
470.778532
 20
699.998738
 30
0.0
 40
2.0
100
AcDbArc
 50
90.0
 51
180.0
  0
LINE
  5
2491E
100
AcDbEntity
  8
0
100
AcDbLine
 10
468.778532
 20
699.498738
 30
0.0
 11
460.928532
 21
699.498738
 31
0.0
  0
LINE
  5
2491F
100
AcDbEntity
  8
0
100
AcDbLine
 10
462.637011
 20
712.236238
 30
0.0
 11
460.928532
 21
712.236238
 31
0.0
  0
LINE
  5
24920
100
AcDbEntity
  8
0
100
AcDbLine
 10
463.133532
 20
713.096238
 30
0.0
 11
462.637011
 21
712.236238
 31
0.0
  0
ARC
  5
24921
100
AcDbEntity
  8
0
100
AcDbCircle
 10
442.633532
 20
741.498738
 30
0.0
 40
2.0
100
AcDbArc
 50
180.0
 51
270.0
  0
LINE
  5
24922
100
AcDbEntity
  8
0
100
AcDbLine
 10
447.928532
 20
734.498738
 30
0.0
 11
444.133532
 21
734.498738
 31
0.0
  0
LINE
  5
24923
100
AcDbEntity
  8
0
100
AcDbLine
 10
444.133532
 20
721.761238
 30
0.0
 11
447.928532
 21
721.761238
 31
0.0
  0
LINE
  5
24924
100
AcDbEntity
  8
0
100
AcDbLine
 10
444.133532
 20
739.498738
 30
0.0
 11
442.633532
 21
739.498738
 31
0.0
  0
LINE
  5
24925
100
AcDbEntity
  8
0
100
AcDbLine
 10
440.633532
 20
739.498738
 30
0.0
 11
431.133532
 21
737.157935
 31
0.0
  0
LINE
  5
24926
100
AcDbEntity
  8
0
100
AcDbLine
 10
444.133532
 20
737.157935
 30
0.0
 11
431.133532
 21
737.157935
 31
0.0
  0
ARC
  5
24927
100
AcDbEntity
  8
0
100
AcDbCircle
 10
470.778532
 20
733.998738
 30
0.0
 40
2.0
100
AcDbArc
 50
180.0
 51
270.0
  0
LINE
  5
24928
100
AcDbEntity
  8
0
100
AcDbLine
 10
462.637011
 20
721.761238
 30
0.0
 11
460.928532
 21
721.761238
 31
0.0
  0
LINE
  5
24929
100
AcDbEntity
  8
0
100
AcDbLine
 10
463.133532
 20
720.901238
 30
0.0
 11
462.637011
 21
721.761238
 31
0.0
  0
LINE
  5
2492A
100
AcDbEntity
  8
0
100
AcDbLine
 10
468.778532
 20
734.498738
 30
0.0
 11
460.928532
 21
734.498738
 31
0.0
  0
LINE
  5
2492B
100
AcDbEntity
  8
0
100
AcDbLine
 10
413.133532
 20
752.498738
 30
0.0
 11
429.133532
 21
752.498738
 31
0.0
  0
LINE
  5
2492C
100
AcDbEntity
  8
0
100
AcDbLine
 10
421.133532
 20
758.998738
 30
0.0
 11
439.133532
 21
758.998738
 31
0.0
  0
INSERT
  5
2492D
100
AcDbEntity
  8
0
100
AcDbBlockReference
  2
YA
 10
421.133532
 20
764.901676
 30
0.0
 41
-1.630435
 42
1.630435
 43
1.630435
 50
90.0
  0
LINE
  5
2492E
100
AcDbEntity
  8
0
100
AcDbLine
 10
403.133532
 20
758.998738
 30
0.0
 11
421.133532
 21
758.998738
 31
0.0
  0
LINE
  5
2492F
100
AcDbEntity
  8
0
100
AcDbLine
 10
401.633532
 20
757.498738
 30
0.0
 11
403.133532
 21
758.998738
 31
0.0
  0
LINE
  5
24930
100
AcDbEntity
  8
0
100
AcDbLine
 10
460.928532
 20
750.498738
 30
0.0
 11
447.928532
 21
750.498738
 31
0.0
  0
LINE
  5
24931
100
AcDbEntity
  8
0
100
AcDbLine
 10
439.133532
 20
758.998738
 30
0.0
 11
440.633532
 21
757.498738
 31
0.0
  0
ARC
  5
24932
100
AcDbEntity
  8
0
100
AcDbCircle
 10
492.778532
 20
735.998738
 30
0.0
 40
14.0
100
AcDbArc
 50
90.0
 51
180.0
  0
LINE
  5
24933
100
AcDbEntity
  8
0
100
AcDbLine
 10
474.778532
 20
731.998738
 30
0.0
 11
474.778532
 21
701.998738
 31
0.0
  0
LINE
  5
24934
100
AcDbEntity
  8
0
100
AcDbLine
 10
478.778532
 20
735.998738
 30
0.0
 11
478.778532
 21
677.762194
 31
0.0
  0
LINE
  5
24935
100
AcDbEntity
  8
0
100
AcDbLine
 10
478.778532
 20
697.998738
 30
0.0
 11
474.778532
 21
701.998738
 31
0.0
  0
LINE
  5
24936
100
AcDbEntity
  8
0
100
AcDbLine
 10
478.778532
 20
735.998738
 30
0.0
 11
474.778532
 21
731.998738
 31
0.0
  0
LINE
  5
24937
100
AcDbEntity
  8
0
100
AcDbLine
 10
1305.56768
 20
340.248632
 30
0.0
 11
1327.56768
 21
340.248632
 31
0.0
  0
ELLIPSE
  5
24938
100
AcDbEntity
  8
0
100
AcDbEllipse
 10
1305.56768
 20
305.706136
 30
0.0
 11
-17.52291503460766
 21
0.0000000000000166
 31
0.0
210
0.0
220
0.0
230
1.0
 40
0.81865
 41
3.494035181711411
 42
5.930742779057948
  0
POLYLINE
  5
24939
100
AcDbEntity
  8
0
100
AcDb2dPolyline
 66
     1
 10
0.0
 20
0.0
 30
0.0
  0
VERTEX
  5
24CEC
100
AcDbEntity
  8
0
100
AcDbVertex
100
AcDb2dVertex
 10
1307.260065
 20
272.107541
 30
0.0
  0
VERTEX
  5
24CED
100
AcDbEntity
  8
0
100
AcDbVertex
100
AcDb2dVertex
 10
1322.813646
 20
265.779396
 30
0.0
  0
SEQEND
  5
24CEE
100
AcDbEntity
  8
0
  0
POLYLINE
  5
2493A
100
AcDbEntity
  8
0
100
AcDb2dPolyline
 66
     1
 10
0.0
 20
0.0
 30
0.0
  0
VERTEX
  5
24CEF
100
AcDbEntity
  8
0
100
AcDbVertex
100
AcDb2dVertex
 10
1307.260065
 20
277.844474
 30
0.0
  0
VERTEX
  5
24CF0
100
AcDbEntity
  8
0
100
AcDbVertex
100
AcDb2dVertex
 10
1322.813646
 20
271.51633
 30
0.0
  0
SEQEND
  5
24CF1
100
AcDbEntity
  8
0
  0
POLYLINE
  5
2493B
100
AcDbEntity
  8
0
100
AcDb2dPolyline
 66
     1
 10
0.0
 20
0.0
 30
0.0
  0
VERTEX
  5
24CF2
100
AcDbEntity
  8
0
100
AcDbVertex
100
AcDb2dVertex
 10
1307.260065
 20
242.505655
 30
0.0
  0
VERTEX
  5
24CF3
100
AcDbEntity
  8
0
100
AcDbVertex
100
AcDb2dVertex
 10
1322.813646
 20
248.833799
 30
0.0
  0
SEQEND
  5
24CF4
100
AcDbEntity
  8
0
  0
LINE
  5
2493C
100
AcDbEntity
  8
0
100
AcDbLine
 10
1311.544029
 20
244.248632
 30
0.0
 11
1327.56768
 21
244.248632
 31
0.0
  0
ELLIPSE
  5
2493D
100
AcDbEntity
  8
0
100
AcDbEllipse
 10
1305.56768
 20
257.306598
 30
0.0
 11
-18.5
 21
0.0
 31
0.0
210
0.0
220
0.0
230
1.0
 40
0.707107
 41
0.0
 42
6.283185307179586
  0
ELLIPSE
  5
2493E
100
AcDbEntity
  8
0
100
AcDbEllipse
 10
1305.56768
 20
269.721006
 30
0.0
 11
-20.0
 21
0.0
 31
0.0
210
0.0
220
0.0
230
1.0
 40
0.707107
 41
3.141592653589793
 42
6.283185307179586
  0
ELLIPSE
  5
2493F
100
AcDbEntity
  8
0
100
AcDbEllipse
 10
1305.56768
 20
264.748632
 30
0.0
 11
-20.0
 21
0.0
 31
0.0
210
0.0
220
0.0
230
1.0
 40
0.707107
 41
2.82403222429789
 42
6.600745736470893
  0
ARC
  5
24941
100
AcDbEntity
  8
0
100
AcDbCircle
 10
671.934056
 20
268.248632
 30
0.0
 40
52.0
100
AcDbArc
 50
112.024313
 51
67.975687
  0
ELLIPSE
  5
24942
100
AcDbEntity
  8
0
100
AcDbEllipse
 10
671.934056
 20
229.748632
 30
0.0
 11
-18.0
 21
0.0
 31
0.0
210
0.0
220
0.0
230
1.0
 40
0.562874
 41
0.0
 42
6.283185307179586
  0
ELLIPSE
  5
24943
100
AcDbEntity
  8
0
100
AcDbEllipse
 10
671.934056
 20
268.165371
 30
0.0
 11
11.75
 21
0.0
 31
0.0
210
0.0
220
0.0
230
1.0
 40
0.707107
 41
0.359223129284924
 42
0.827232605862334
  0
ELLIPSE
  5
24944
100
AcDbEntity
  8
0
100
AcDbEllipse
 10
671.934056
 20
270.286691
 30
0.0
 11
11.75
 21
0.0
 31
0.0
210
0.0
220
0.0
230
1.0
 40
0.707107
 41
0.359223129284924
 42
0.827232605862334
  0
LINE
  5
24945
100
AcDbEntity
  8
0
100
AcDbLine
 10
689.934056
 20
249.248632
 30
0.0
 11
671.934056
 21
249.248632
 31
0.0
  0
ELLIPSE
  5
24946
100
AcDbEntity
  8
0
100
AcDbEllipse
 10
671.934056
 20
268.165371
 30
0.0
 11
11.75
 21
0.0
 31
0.0
210
0.0
220
0.0
230
1.0
 40
0.707107
 41
5.455952701317142
 42
5.923962177894978
  0
ELLIPSE
  5
24947
100
AcDbEntity
  8
0
100
AcDbEllipse
 10
671.934056
 20
277.357759
 30
0.0
 11
-13.5
 21
0.0
 31
0.0
210
0.0
220
0.0
230
1.0
 40
0.707107
 41
3.141592653589793
 42
6.283185307179586
  0
ELLIPSE
  5
24948
100
AcDbEntity
  8
0
100
AcDbEllipse
 10
671.934056
 20
273.115118
 30
0.0
 11
11.5
 21
0.0
 31
0.0
210
0.0
220
0.0
230
-1.0
 40
0.707107
 41
2.845629732092404
 42
6.579148228677147
  0
ELLIPSE
  5
24949
100
AcDbEntity
  8
0
100
AcDbEllipse
 10
671.934056
 20
268.165371
 30
0.0
 11
-10.5
 21
0.0
 31
0.0
210
0.0
220
0.0
230
1.0
 40
0.707107
 41
0.0
 42
6.283185307179586
  0
ELLIPSE
  5
2494A
100
AcDbEntity
  8
0
100
AcDbEllipse
 10
671.934056
 20
274.529332
 30
0.0
 11
-13.5
 21
0.0
 31
0.0
210
0.0
220
0.0
230
1.0
 40
0.707107
 41
2.5232060117038
 42
6.901571949065703
  0
LINE
  5
2494B
100
AcDbEntity
  8
0
100
AcDbLine
 10
671.934056
 20
329.248632
 30
0.0
 11
689.934056
 21
329.248632
 31
0.0
  0
ELLIPSE
  5
2494C
100
AcDbEntity
  8
0
100
AcDbEllipse
 10
671.934056
 20
304.88036
 30
0.0
 11
-11.5
 21
0.0
 31
0.0
210
0.0
220
0.0
230
1.0
 40
0.707107
 41
3.141592653589793
 42
6.283185307179586
  0
ARC
  5
2494D
100
AcDbEntity
  8
0
100
AcDbCircle
 10
671.934056
 20
287.248632
 30
0.0
 40
33.5
100
AcDbArc
 50
125.597645
 51
234.402355
  0
POLYLINE
  5
2494E
100
AcDbEntity
  8
0
100
AcDb2dPolyline
 66
     1
 10
0.0
 20
0.0
 30
0.0
  0
VERTEX
  5
24CF5
100
AcDbEntity
  8
0
100
AcDbVertex
100
AcDb2dVertex
 10
660.934056
 20
273.207522
 30
0.0
  0
VERTEX
  5
24CF6
100
AcDbEntity
  8
0
100
AcDbVertex
100
AcDb2dVertex
 10
660.934056
 20
265.244541
 30
0.0
  0
SEQEND
  5
24CF7
100
AcDbEntity
  8
0
  0
ARC
  5
2494F
100
AcDbEntity
  8
0
100
AcDbCircle
 10
646.808487
 20
269.958294
 30
0.0
 40
3.0
100
AcDbArc
 50
214.53408
 51
265.0
  0
ARC
  5
24950
100
AcDbEntity
  8
0
100
AcDbCircle
 10
660.434056
 20
267.434924
 30
0.0
 40
8.0
100
AcDbArc
 50
135.0
 51
180.0
  0
LINE
  5
24951
100
AcDbEntity
  8
0
100
AcDbLine
 10
653.934056
 20
249.248632
 30
0.0
 11
671.934056
 21
249.248632
 31
0.0
  0
LINE
  5
24952
100
AcDbEntity
  8
0
100
AcDbLine
 10
649.695246
 20
266.694276
 30
0.0
 11
646.54702
 21
266.96971
 31
0.0
  0
ARC
  5
24953
100
AcDbEntity
  8
0
100
AcDbCircle
 10
649.433779
 20
263.705692
 30
0.0
 40
3.0
100
AcDbArc
 50
0.0
 51
85.0
  0
LINE
  5
24954
100
AcDbEntity
  8
0
100
AcDbLine
 10
652.434056
 20
250.748632
 30
0.0
 11
652.434056
 21
267.434924
 31
0.0
  0
ARC
  5
24955
100
AcDbEntity
  8
0
100
AcDbCircle
 10
654.194887
 20
266.749159
 30
0.0
 40
1.0
100
AcDbArc
 50
269.990253
 51
0.009747
  0
LINE
  5
24956
100
AcDbEntity
  8
0
100
AcDbLine
 10
653.434709
 20
265.749159
 30
0.0
 11
654.194717
 21
265.749159
 31
0.0
  0
LINE
  5
24957
100
AcDbEntity
  8
0
100
AcDbLine
 10
654.194717
 20
265.749159
 30
0.0
 11
653.434709
 21
265.749159
 31
0.0
  0
ARC
  5
24958
100
AcDbEntity
  8
0
100
AcDbCircle
 10
653.434539
 20
264.749159
 30
0.0
 40
1.0
100
AcDbArc
 50
89.990253
 51
180.009747
  0
ARC
  5
24959
100
AcDbEntity
  8
0
100
AcDbCircle
 10
654.194887
 20
254.748978
 30
0.0
 40
1.0
100
AcDbArc
 50
359.990253
 51
90.009747
  0
LINE
  5
2495A
100
AcDbEntity
  8
0
100
AcDbLine
 10
654.194717
 20
255.748978
 30
0.0
 11
653.434709
 21
255.748978
 31
0.0
  0
LINE
  5
2495B
100
AcDbEntity
  8
0
100
AcDbLine
 10
653.934056
 20
249.248632
 30
0.0
 11
652.434056
 21
250.748632
 31
0.0
  0
ARC
  5
2495C
100
AcDbEntity
  8
0
100
AcDbCircle
 10
653.434539
 20
256.748978
 30
0.0
 40
1.0
100
AcDbArc
 50
179.990253
 51
270.009747
  0
LINE
  5
2495D
100
AcDbEntity
  8
0
100
AcDbLine
 10
655.194127
 20
256.642747
 30
0.0
 11
655.194127
 21
264.740629
 31
0.0
  0
LINE
  5
2495E
100
AcDbEntity
  8
0
100
AcDbLine
 10
652.433779
 20
256.749148
 30
0.0
 11
652.433779
 21
264.748989
 31
0.0
  0
ELLIPSE
  5
2495F
100
AcDbEntity
  8
0
100
AcDbEllipse
 10
671.934056
 20
268.165371
 30
0.0
 11
11.75
 21
0.0
 31
0.0
210
0.0
220
0.0
230
1.0
 40
0.707107
 41
4.513745654064261
 42
4.911032306705117
  0
POLYLINE
  5
24960
100
AcDbEntity
  8
0
100
AcDb2dPolyline
 66
     1
 10
0.0
 20
0.0
 30
0.0
  0
VERTEX
  5
24CF8
100
AcDbEntity
  8
0
100
AcDbVertex
100
AcDb2dVertex
 10
674.252795
 20
260.020251
 30
0.0
  0
VERTEX
  5
24CF9
100
AcDbEntity
  8
0
100
AcDbVertex
100
AcDb2dVertex
 10
679.887811
 20
262.049806
 30
0.0
  0
SEQEND
  5
24CFA
100
AcDbEntity
  8
0
  0
ELLIPSE
  5
24961
100
AcDbEntity
  8
0
100
AcDbEllipse
 10
671.934056
 20
268.165371
 30
0.0
 11
11.75
 21
0.0
 31
0.0
210
0.0
220
0.0
230
1.0
 40
0.707107
 41
3.500815782874589
 42
3.968825259452236
  0
POLYLINE
  5
24962
100
AcDbEntity
  8
0
100
AcDb2dPolyline
 66
     1
 10
0.0
 20
0.0
 30
0.0
  0
VERTEX
  5
24CFB
100
AcDbEntity
  8
0
100
AcDbVertex
100
AcDb2dVertex
 10
663.980301
 20
262.049806
 30
0.0
  0
VERTEX
  5
24CFC
100
AcDbEntity
  8
0
100
AcDbVertex
100
AcDb2dVertex
 10
669.615317
 20
260.020251
 30
0.0
  0
SEQEND
  5
24CFD
100
AcDbEntity
  8
0
  0
LINE
  5
24963
100
AcDbEntity
  8
0
100
AcDbLine
 10
638.434056
 20
302.248632
 30
0.0
 11
640.181103
 21
302.248632
 31
0.0
  0
LINE
  5
24964
100
AcDbEntity
  8
0
100
AcDbLine
 10
638.434056
 20
302.248632
 30
0.0
 11
640.181103
 21
302.248632
 31
0.0
  0
LINE
  5
24965
100
AcDbEntity
  8
0
100
AcDbLine
 10
638.434056
 20
272.248632
 30
0.0
 11
640.181103
 21
272.248632
 31
0.0
  0
LINE
  5
24966
100
AcDbEntity
  8
0
100
AcDbLine
 10
638.434056
 20
272.248632
 30
0.0
 11
640.181103
 21
272.248632
 31
0.0
  0
LINE
  5
24967
100
AcDbEntity
  8
0
100
AcDbLine
 10
593.298552
 20
276.984186
 30
0.0
 11
590.076532
 21
280.206206
 31
0.0
  0
LINE
  5
24968
100
AcDbEntity
  8
0
100
AcDbLine
 10
592.924979
 20
275.589992
 30
0.0
 11
593.298552
 21
276.984186
 31
0.0
  0
ARC
  5
24969
100
AcDbEntity
  8
0
100
AcDbCircle
 10
589.787323
 20
277.462592
 30
0.0
 40
3.54367
100
AcDbArc
 50
277.758785
 51
337.758785
  0
LINE
  5
2496A
100
AcDbEntity
  8
0
100
AcDbLine
 10
588.682338
 20
284.075274
 30
0.0
 11
585.853911
 21
286.903701
 31
0.0
  0
LINE
  5
2496B
100
AcDbEntity
  8
0
100
AcDbLine
 10
588.682338
 20
281.246846
 30
0.0
 11
588.682338
 21
284.075274
 31
0.0
  0
LINE
  5
2496C
100
AcDbEntity
  8
0
100
AcDbLine
 10
588.682338
 20
279.832633
 30
0.0
 11
587.975231
 21
280.53974
 31
0.0
  0
ARC
  5
2496D
100
AcDbEntity
  8
0
100
AcDbCircle
 10
590.554937
 20
276.694977
 30
0.0
 40
3.54367
100
AcDbArc
 50
112.241215
 51
172.241215
  0
LINE
  5
2496E
100
AcDbEntity
  8
0
100
AcDbLine
 10
588.682338
 20
279.832633
 30
0.0
 11
590.076532
 21
280.206206
 31
0.0
  0
LINE
  5
2496F
100
AcDbEntity
  8
0
100
AcDbLine
 10
587.910877
 20
271.596512
 30
0.0
 11
590.265729
 21
273.951363
 31
0.0
  0
LINE
  5
24970
100
AcDbEntity
  8
0
100
AcDbLine
 10
590.265729
 20
273.951363
 30
0.0
 11
587.043709
 21
277.173383
 31
0.0
  0
ARC
  5
24971
100
AcDbEntity
  8
0
100
AcDbCircle
 10
638.434056
 20
301.248632
 30
0.0
 40
1.0
100
AcDbArc
 50
90.0
 51
180.0
  0
ARC
  5
24972
100
AcDbEntity
  8
0
100
AcDbCircle
 10
638.434056
 20
301.248632
 30
0.0
 40
1.0
100
AcDbArc
 50
90.0
 51
180.0
  0
ARC
  5
24973
100
AcDbEntity
  8
0
100
AcDbCircle
 10
638.434056
 20
273.248632
 30
0.0
 40
1.0
100
AcDbArc
 50
180.0
 51
270.0
  0
ARC
  5
24974
100
AcDbEntity
  8
0
100
AcDbCircle
 10
638.434056
 20
273.248632
 30
0.0
 40
1.0
100
AcDbArc
 50
180.0
 51
270.0
  0
LINE
  5
24975
100
AcDbEntity
  8
0
100
AcDbLine
 10
637.434056
 20
273.248632
 30
0.0
 11
637.434056
 21
301.248632
 31
0.0
  0
LINE
  5
24976
100
AcDbEntity
  8
0
100
AcDbLine
 10
637.434056
 20
273.248632
 30
0.0
 11
637.434056
 21
301.248632
 31
0.0
  0
ARC
  5
24977
100
AcDbEntity
  8
0
100
AcDbCircle
 10
660.434056
 20
307.062341
 30
0.0
 40
8.0
100
AcDbArc
 50
180.0
 51
225.0
  0
LINE
  5
24978
100
AcDbEntity
  8
0
100
AcDbLine
 10
660.434056
 20
282.357759
 30
0.0
 11
660.434056
 21
304.88036
 31
0.0
  0
ARC
  5
24979
100
AcDbEntity
  8
0
100
AcDbCircle
 10
654.434056
 20
293.263351
 30
0.0
 40
6.0
100
AcDbArc
 50
0.0
 51
45.0
  0
ARC
  5
2497A
100
AcDbEntity
  8
0
100
AcDbCircle
 10
640.181103
 20
305.248632
 30
0.0
 40
3.0
100
AcDbArc
 50
270.0
 51
330.452122
  0
ARC
  5
2497B
100
AcDbEntity
  8
0
100
AcDbCircle
 10
640.181103
 20
305.248632
 30
0.0
 40
3.0
100
AcDbArc
 50
270.0
 51
330.452122
  0
LINE
  5
2497C
100
AcDbEntity
  8
0
100
AcDbLine
 10
658.676697
 20
297.505991
 30
0.0
 11
654.777202
 21
301.405486
 31
0.0
  0
LINE
  5
2497D
100
AcDbEntity
  8
0
100
AcDbLine
 10
658.434056
 20
276.748632
 30
0.0
 11
654.777202
 21
273.091778
 31
0.0
  0
LINE
  5
2497E
100
AcDbEntity
  8
0
100
AcDbLine
 10
658.434056
 20
277.357759
 30
0.0
 11
658.434056
 21
274.529332
 31
0.0
  0
ARC
  5
2497F
100
AcDbEntity
  8
0
100
AcDbCircle
 10
640.181103
 20
269.248632
 30
0.0
 40
3.0
100
AcDbArc
 50
29.547878
 51
90.0
  0
ARC
  5
24980
100
AcDbEntity
  8
0
100
AcDbCircle
 10
640.181103
 20
269.248632
 30
0.0
 40
3.0
100
AcDbArc
 50
29.547878
 51
90.0
  0
CIRCLE
  5
24981
100
AcDbEntity
  8
0
100
AcDbCircle
 10
646.43512
 20
287.248094
 30
0.0
 40
6.750069
  0
POLYLINE
  5
24982
100
AcDbEntity
  8
0
100
AcDb2dPolyline
 66
     1
 10
0.0
 20
0.0
 30
0.0
 70
     1
  0
VERTEX
  5
24CFE
100
AcDbEntity
  8
0
100
AcDbVertex
100
AcDb2dVertex
 10
653.58512
 20
291.376149
 30
0.0
  0
VERTEX
  5
24CFF
100
AcDbEntity
  8
0
100
AcDbVertex
100
AcDb2dVertex
 10
646.43512
 20
295.504203
 30
0.0
  0
VERTEX
  5
24D00
100
AcDbEntity
  8
0
100
AcDbVertex
100
AcDb2dVertex
 10
639.28512
 20
291.376149
 30
0.0
  0
VERTEX
  5
24D01
100
AcDbEntity
  8
0
100
AcDbVertex
100
AcDb2dVertex
 10
639.28512
 20
283.12004
 30
0.0
  0
VERTEX
  5
24D02
100
AcDbEntity
  8
0
100
AcDbVertex
100
AcDb2dVertex
 10
646.43512
 20
278.991986
 30
0.0
  0
VERTEX
  5
24D03
100
AcDbEntity
  8
0
100
AcDbVertex
100
AcDb2dVertex
 10
653.58512
 20
283.12004
 30
0.0
  0
SEQEND
  5
24D04
100
AcDbEntity
  8
0
  0
ELLIPSE
  5
24983
100
AcDbEntity
  8
0
100
AcDbEllipse
 10
671.934056
 20
270.286691
 30
0.0
 11
11.75
 21
0.0
 31
0.0
210
0.0
220
0.0
230
1.0
 40
0.707107
 41
1.372153000474518
 42
1.769439653115324
  0
ELLIPSE
  5
24984
100
AcDbEntity
  8
0
100
AcDbEllipse
 10
671.934056
 20
268.165371
 30
0.0
 11
11.75
 21
0.0
 31
0.0
210
0.0
220
0.0
230
1.0
 40
0.707107
 41
1.372153000474518
 42
1.769439653115324
  0
LINE
  5
24985
100
AcDbEntity
  8
0
100
AcDbLine
 10
669.615317
 20
278.431811
 30
0.0
 11
669.615317
 21
276.310491
 31
0.0
  0
LINE
  5
24986
100
AcDbEntity
  8
0
100
AcDbLine
 10
674.252795
 20
278.431811
 30
0.0
 11
674.252795
 21
276.310491
 31
0.0
  0
POLYLINE
  5
24987
100
AcDbEntity
  8
0
100
AcDb2dPolyline
 66
     1
 10
0.0
 20
0.0
 30
0.0
  0
VERTEX
  5
24D05
100
AcDbEntity
  8
0
100
AcDbVertex
100
AcDb2dVertex
 10
679.887811
 20
276.402257
 30
0.0
  0
VERTEX
  5
24D06
100
AcDbEntity
  8
0
100
AcDbVertex
100
AcDb2dVertex
 10
674.252795
 20
278.431811
 30
0.0
  0
SEQEND
  5
24D07
100
AcDbEntity
  8
0
  0
LINE
  5
24988
100
AcDbEntity
  8
0
100
AcDbLine
 10
679.887811
 20
276.402257
 30
0.0
 11
679.887811
 21
274.280936
 31
0.0
  0
POLYLINE
  5
24989
100
AcDbEntity
  8
0
100
AcDb2dPolyline
 66
     1
 10
0.0
 20
0.0
 30
0.0
  0
VERTEX
  5
24D08
100
AcDbEntity
  8
0
100
AcDbVertex
100
AcDb2dVertex
 10
679.887811
 20
274.280936
 30
0.0
  0
VERTEX
  5
24D09
100
AcDbEntity
  8
0
100
AcDbVertex
100
AcDb2dVertex
 10
674.252795
 20
276.310491
 30
0.0
  0
SEQEND
  5
24D0A
100
AcDbEntity
  8
0
  0
ELLIPSE
  5
2498A
100
AcDbEntity
  8
0
100
AcDbEllipse
 10
671.934056
 20
268.165371
 30
0.0
 11
11.75
 21
0.0
 31
0.0
210
0.0
220
0.0
230
1.0
 40
0.707107
 41
2.314360047727349
 42
2.782369524304982
  0
ELLIPSE
  5
2498B
100
AcDbEntity
  8
0
100
AcDbEllipse
 10
671.934056
 20
270.286691
 30
0.0
 11
11.75
 21
0.0
 31
0.0
210
0.0
220
0.0
230
1.0
 40
0.707107
 41
2.314360047727349
 42
2.782369524304982
  0
LINE
  5
2498C
100
AcDbEntity
  8
0
100
AcDbLine
 10
663.980301
 20
276.402257
 30
0.0
 11
663.980301
 21
274.280936
 31
0.0
  0
POLYLINE
  5
2498D
100
AcDbEntity
  8
0
100
AcDb2dPolyline
 66
     1
 10
0.0
 20
0.0
 30
0.0
  0
VERTEX
  5
24D0B
100
AcDbEntity
  8
0
100
AcDbVertex
100
AcDb2dVertex
 10
663.980301
 20
276.402257
 30
0.0
  0
VERTEX
  5
24D0C
100
AcDbEntity
  8
0
100
AcDbVertex
100
AcDb2dVertex
 10
669.615317
 20
278.431811
 30
0.0
  0
SEQEND
  5
24D0D
100
AcDbEntity
  8
0
  0
POLYLINE
  5
2498E
100
AcDbEntity
  8
0
100
AcDb2dPolyline
 66
     1
 10
0.0
 20
0.0
 30
0.0
  0
VERTEX
  5
24D0E
100
AcDbEntity
  8
0
100
AcDbVertex
100
AcDb2dVertex
 10
669.615317
 20
278.431811
 30
0.0
  0
VERTEX
  5
24D0F
100
AcDbEntity
  8
0
100
AcDbVertex
100
AcDb2dVertex
 10
663.980301
 20
276.402257
 30
0.0
  0
SEQEND
  5
24D10
100
AcDbEntity
  8
0
  0
POLYLINE
  5
2498F
100
AcDbEntity
  8
0
100
AcDb2dPolyline
 66
     1
 10
0.0
 20
0.0
 30
0.0
  0
VERTEX
  5
24D11
100
AcDbEntity
  8
0
100
AcDbVertex
100
AcDb2dVertex
 10
663.980301
 20
274.280936
 30
0.0
  0
VERTEX
  5
24D12
100
AcDbEntity
  8
0
100
AcDbVertex
100
AcDb2dVertex
 10
669.615317
 20
276.310491
 30
0.0
  0
SEQEND
  5
24D13
100
AcDbEntity
  8
0
  0
POLYLINE
  5
24990
100
AcDbEntity
  8
0
100
AcDb2dPolyline
 66
     1
 10
0.0
 20
0.0
 30
0.0
  0
VERTEX
  5
24D14
100
AcDbEntity
  8
0
100
AcDbVertex
100
AcDb2dVertex
 10
669.615317
 20
276.310491
 30
0.0
  0
VERTEX
  5
24D15
100
AcDbEntity
  8
0
100
AcDbVertex
100
AcDb2dVertex
 10
663.980301
 20
274.280936
 30
0.0
  0
SEQEND
  5
24D16
100
AcDbEntity
  8
0
  0
LINE
  5
24991
100
AcDbEntity
  8
0
100
AcDbLine
 10
671.934056
 20
329.248632
 30
0.0
 11
653.934056
 21
329.248632
 31
0.0
  0
ARC
  5
24992
100
AcDbEntity
  8
0
100
AcDbCircle
 10
654.194887
 20
323.748286
 30
0.0
 40
1.0
100
AcDbArc
 50
269.990253
 51
0.009747
  0
LINE
  5
24993
100
AcDbEntity
  8
0
100
AcDbLine
 10
654.194717
 20
322.748286
 30
0.0
 11
653.434709
 21
322.748286
 31
0.0
  0
ARC
  5
24994
100
AcDbEntity
  8
0
100
AcDbCircle
 10
654.194887
 20
311.748105
 30
0.0
 40
1.0
100
AcDbArc
 50
359.990253
 51
90.009747
  0
LINE
  5
24995
100
AcDbEntity
  8
0
100
AcDbLine
 10
654.194717
 20
312.748105
 30
0.0
 11
653.434709
 21
312.748105
 31
0.0
  0
LINE
  5
24996
100
AcDbEntity
  8
0
100
AcDbLine
 10
653.434709
 20
312.748105
 30
0.0
 11
654.194717
 21
312.748105
 31
0.0
  0
LINE
  5
24997
100
AcDbEntity
  8
0
100
AcDbLine
 10
655.194127
 20
321.854517
 30
0.0
 11
655.194127
 21
313.756636
 31
0.0
  0
LINE
  5
24998
100
AcDbEntity
  8
0
100
AcDbLine
 10
652.434056
 20
327.748632
 30
0.0
 11
652.434056
 21
307.062341
 31
0.0
  0
LINE
  5
24999
100
AcDbEntity
  8
0
100
AcDbLine
 10
652.433779
 20
321.748116
 30
0.0
 11
652.433779
 21
313.748276
 31
0.0
  0
ARC
  5
2499A
100
AcDbEntity
  8
0
100
AcDbCircle
 10
653.434539
 20
313.748105
 30
0.0
 40
1.0
100
AcDbArc
 50
179.990253
 51
270.009747
  0
ARC
  5
2499B
100
AcDbEntity
  8
0
100
AcDbCircle
 10
653.434539
 20
321.748286
 30
0.0
 40
1.0
100
AcDbArc
 50
89.990253
 51
180.009747
  0
LINE
  5
2499C
100
AcDbEntity
  8
0
100
AcDbLine
 10
653.934056
 20
329.248632
 30
0.0
 11
652.434056
 21
327.748632
 31
0.0
  0
LINE
  5
2499D
100
AcDbEntity
  8
0
100
AcDbLine
 10
649.695246
 20
307.802988
 30
0.0
 11
646.54702
 21
307.527554
 31
0.0
  0
ARC
  5
2499E
100
AcDbEntity
  8
0
100
AcDbCircle
 10
646.808487
 20
304.53897
 30
0.0
 40
3.0
100
AcDbArc
 50
95.0
 51
145.46592
  0
ARC
  5
2499F
100
AcDbEntity
  8
0
100
AcDbCircle
 10
649.433779
 20
310.791572
 30
0.0
 40
3.0
100
AcDbArc
 50
275.0
 51
0.0
  0
ARC
  5
249A0
100
AcDbEntity
  8
0
100
AcDbCircle
 10
671.934056
 20
287.248632
 30
0.0
 40
33.5
100
AcDbArc
 50
305.597645
 51
54.402355
  0
ARC
  5
249A1
100
AcDbEntity
  8
0
100
AcDbCircle
 10
697.059625
 20
269.958294
 30
0.0
 40
3.0
100
AcDbArc
 50
275.0
 51
325.46592
  0
POLYLINE
  5
249A2
100
AcDbEntity
  8
0
100
AcDb2dPolyline
 66
     1
 10
0.0
 20
0.0
 30
0.0
  0
VERTEX
  5
24D17
100
AcDbEntity
  8
0
100
AcDbVertex
100
AcDb2dVertex
 10
682.934056
 20
265.244541
 30
0.0
  0
VERTEX
  5
24D18
100
AcDbEntity
  8
0
100
AcDbVertex
100
AcDb2dVertex
 10
682.934056
 20
273.207522
 30
0.0
  0
SEQEND
  5
24D19
100
AcDbEntity
  8
0
  0
ARC
  5
249A3
100
AcDbEntity
  8
0
100
AcDbCircle
 10
683.434056
 20
267.434924
 30
0.0
 40
8.0
100
AcDbArc
 50
0.0
 51
45.0
  0
LINE
  5
249A4
100
AcDbEntity
  8
0
100
AcDbLine
 10
694.172866
 20
266.694276
 30
0.0
 11
697.321092
 21
266.96971
 31
0.0
  0
ARC
  5
249A5
100
AcDbEntity
  8
0
100
AcDbCircle
 10
694.434333
 20
263.705692
 30
0.0
 40
3.0
100
AcDbArc
 50
95.0
 51
180.0
  0
LINE
  5
249A6
100
AcDbEntity
  8
0
100
AcDbLine
 10
691.434056
 20
250.748632
 30
0.0
 11
691.434056
 21
267.434924
 31
0.0
  0
LINE
  5
249A7
100
AcDbEntity
  8
0
100
AcDbLine
 10
689.673395
 20
265.749159
 30
0.0
 11
690.433403
 21
265.749159
 31
0.0
  0
ARC
  5
249A8
100
AcDbEntity
  8
0
100
AcDbCircle
 10
689.673225
 20
266.749159
 30
0.0
 40
1.0
100
AcDbArc
 50
179.990253
 51
270.009747
  0
LINE
  5
249A9
100
AcDbEntity
  8
0
100
AcDbLine
 10
690.433403
 20
265.749159
 30
0.0
 11
689.673395
 21
265.749159
 31
0.0
  0
ARC
  5
249AA
100
AcDbEntity
  8
0
100
AcDbCircle
 10
690.433573
 20
264.749159
 30
0.0
 40
1.0
100
AcDbArc
 50
359.990253
 51
90.009747
  0
ARC
  5
249AB
100
AcDbEntity
  8
0
100
AcDbCircle
 10
690.433573
 20
256.748978
 30
0.0
 40
1.0
100
AcDbArc
 50
269.990253
 51
0.009747
  0
ARC
  5
249AC
100
AcDbEntity
  8
0
100
AcDbCircle
 10
689.673225
 20
254.748978
 30
0.0
 40
1.0
100
AcDbArc
 50
89.990253
 51
180.009747
  0
LINE
  5
249AD
100
AcDbEntity
  8
0
100
AcDbLine
 10
689.673395
 20
255.748978
 30
0.0
 11
690.433403
 21
255.748978
 31
0.0
  0
LINE
  5
249AE
100
AcDbEntity
  8
0
100
AcDbLine
 10
689.934056
 20
249.248632
 30
0.0
 11
691.434056
 21
250.748632
 31
0.0
  0
LINE
  5
249AF
100
AcDbEntity
  8
0
100
AcDbLine
 10
691.434333
 20
256.749148
 30
0.0
 11
691.434333
 21
264.748989
 31
0.0
  0
LINE
  5
249B0
100
AcDbEntity
  8
0
100
AcDbLine
 10
688.673985
 20
256.642747
 30
0.0
 11
688.673985
 21
264.740629
 31
0.0
  0
LINE
  5
249B1
100
AcDbEntity
  8
0
100
AcDbLine
 10
691.434056
 20
250.748632
 30
0.0
 11
691.434056
 21
264.089435
 31
0.0
  0
ARC
  5
249B2
100
AcDbEntity
  8
0
100
AcDbCircle
 10
683.434056
 20
307.062341
 30
0.0
 40
8.0
100
AcDbArc
 50
315.0
 51
0.0
  0
LINE
  5
249B3
100
AcDbEntity
  8
0
100
AcDbLine
 10
683.434056
 20
282.357759
 30
0.0
 11
683.434056
 21
304.88036
 31
0.0
  0
POLYLINE
  5
249B4
100
AcDbEntity
  8
0
100
AcDb2dPolyline
 66
     1
 10
0.0
 20
0.0
 30
0.0
 70
     1
  0
VERTEX
  5
24D1A
100
AcDbEntity
  8
0
100
AcDbVertex
100
AcDb2dVertex
 10
704.582992
 20
283.12004
 30
0.0
  0
VERTEX
  5
24D1B
100
AcDbEntity
  8
0
100
AcDbVertex
100
AcDb2dVertex
 10
697.432992
 20
278.991986
 30
0.0
  0
VERTEX
  5
24D1C
100
AcDbEntity
  8
0
100
AcDbVertex
100
AcDb2dVertex
 10
690.282992
 20
283.12004
 30
0.0
  0
VERTEX
  5
24D1D
100
AcDbEntity
  8
0
100
AcDbVertex
100
AcDb2dVertex
 10
690.282992
 20
291.376149
 30
0.0
  0
VERTEX
  5
24D1E
100
AcDbEntity
  8
0
100
AcDbVertex
100
AcDb2dVertex
 10
697.432992
 20
295.504203
 30
0.0
  0
VERTEX
  5
24D1F
100
AcDbEntity
  8
0
100
AcDbVertex
100
AcDb2dVertex
 10
704.582992
 20
291.376149
 30
0.0
  0
SEQEND
  5
24D20
100
AcDbEntity
  8
0
  0
CIRCLE
  5
249B5
100
AcDbEntity
  8
0
100
AcDbCircle
 10
697.432992
 20
287.248094
 30
0.0
 40
6.750069
  0
LINE
  5
249B6
100
AcDbEntity
  8
0
100
AcDbLine
 10
685.191415
 20
297.505991
 30
0.0
 11
689.09091
 21
301.405486
 31
0.0
  0
LINE
  5
249B7
100
AcDbEntity
  8
0
100
AcDbLine
 10
685.434056
 20
277.357759
 30
0.0
 11
685.434056
 21
274.529332
 31
0.0
  0
LINE
  5
249B8
100
AcDbEntity
  8
0
100
AcDbLine
 10
685.434056
 20
276.748632
 30
0.0
 11
689.09091
 21
273.091778
 31
0.0
  0
ARC
  5
249B9
100
AcDbEntity
  8
0
100
AcDbCircle
 10
689.434056
 20
293.263351
 30
0.0
 40
6.0
100
AcDbArc
 50
135.0
 51
180.0
  0
LINE
  5
249BA
100
AcDbEntity
  8
0
100
AcDbLine
 10
703.9067
 20
297.248632
 30
0.0
 11
704.95299
 21
297.248632
 31
0.0
  0
LINE
  5
249BB
100
AcDbEntity
  8
0
100
AcDbLine
 10
703.9067
 20
277.248632
 30
0.0
 11
704.95299
 21
277.248632
 31
0.0
  0
ARC
  5
249BC
100
AcDbEntity
  8
0
100
AcDbCircle
 10
671.934056
 20
287.248632
 30
0.0
 40
34.5
100
AcDbArc
 50
343.15072
 51
16.84928
  0
ARC
  5
249BD
100
AcDbEntity
  8
0
100
AcDbCircle
 10
694.434333
 20
310.791572
 30
0.0
 40
3.0
100
AcDbArc
 50
180.0
 51
265.0
  0
LINE
  5
249BE
100
AcDbEntity
  8
0
100
AcDbLine
 10
694.172866
 20
307.802988
 30
0.0
 11
697.321092
 21
307.527554
 31
0.0
  0
ARC
  5
249BF
100
AcDbEntity
  8
0
100
AcDbCircle
 10
697.059625
 20
304.53897
 30
0.0
 40
3.0
100
AcDbArc
 50
34.53408
 51
85.0
  0
LINE
  5
249C0
100
AcDbEntity
  8
0
100
AcDbLine
 10
689.673395
 20
322.748286
 30
0.0
 11
690.433403
 21
322.748286
 31
0.0
  0
ARC
  5
249C1
100
AcDbEntity
  8
0
100
AcDbCircle
 10
689.673225
 20
323.748286
 30
0.0
 40
1.0
100
AcDbArc
 50
179.990253
 51
270.009747
  0
ARC
  5
249C2
100
AcDbEntity
  8
0
100
AcDbCircle
 10
690.433573
 20
321.748286
 30
0.0
 40
1.0
100
AcDbArc
 50
359.990253
 51
90.009747
  0
LINE
  5
249C3
100
AcDbEntity
  8
0
100
AcDbLine
 10
689.934056
 20
329.248632
 30
0.0
 11
691.434056
 21
327.748632
 31
0.0
  0
ARC
  5
249C4
100
AcDbEntity
  8
0
100
AcDbCircle
 10
690.433573
 20
313.748105
 30
0.0
 40
1.0
100
AcDbArc
 50
269.990253
 51
0.009747
  0
LINE
  5
249C5
100
AcDbEntity
  8
0
100
AcDbLine
 10
690.433403
 20
312.748105
 30
0.0
 11
689.673395
 21
312.748105
 31
0.0
  0
ARC
  5
249C6
100
AcDbEntity
  8
0
100
AcDbCircle
 10
689.673225
 20
311.748105
 30
0.0
 40
1.0
100
AcDbArc
 50
89.990253
 51
180.009747
  0
LINE
  5
249C7
100
AcDbEntity
  8
0
100
AcDbLine
 10
689.673395
 20
312.748105
 30
0.0
 11
690.433403
 21
312.748105
 31
0.0
  0
LINE
  5
249C8
100
AcDbEntity
  8
0
100
AcDbLine
 10
691.434056
 20
327.748632
 30
0.0
 11
691.434056
 21
307.062341
 31
0.0
  0
LINE
  5
249C9
100
AcDbEntity
  8
0
100
AcDbLine
 10
688.673985
 20
321.854517
 30
0.0
 11
688.673985
 21
313.756636
 31
0.0
  0
LINE
  5
249CA
100
AcDbEntity
  8
0
100
AcDbLine
 10
691.434333
 20
321.748116
 30
0.0
 11
691.434333
 21
313.748276
 31
0.0
  0
ARC
  5
249CD
100
AcDbEntity
  8
0
100
AcDbCircle
 10
873.978956
 20
287.248632
 30
0.0
 40
33.5
100
AcDbArc
 50
73.527355
 51
106.472645
  0
LINE
  5
249CF
100
AcDbEntity
  8
0
100
AcDbLine
 10
873.978956
 20
340.248632
 30
0.0
 11
851.978956
 21
340.248632
 31
0.0
  0
ARC
  5
249D2
100
AcDbEntity
  8
0
100
AcDbCircle
 10
852.978956
 20
331.248632
 30
0.0
 40
2.0
100
AcDbArc
 50
90.0
 51
180.0
  0
ARC
  5
249D3
100
AcDbEntity
  8
0
100
AcDbCircle
 10
852.978956
 20
321.248632
 30
0.0
 40
2.0
100
AcDbArc
 50
180.0
 51
270.0
  0
LINE
  5
249D4
100
AcDbEntity
  8
0
100
AcDbLine
 10
851.978956
 20
340.248632
 30
0.0
 11
850.978956
 21
339.248632
 31
0.0
  0
LINE
  5
249D5
100
AcDbEntity
  8
0
100
AcDbLine
 10
851.978956
 20
340.248632
 30
0.0
 11
850.978956
 21
339.248632
 31
0.0
  0
LINE
  5
249D6
100
AcDbEntity
  8
0
100
AcDbLine
 10
852.978956
 20
333.248632
 30
0.0
 11
853.266641
 21
333.248632
 31
0.0
  0
ARC
  5
249D7
100
AcDbEntity
  8
0
100
AcDbCircle
 10
853.266641
 20
335.248632
 30
0.0
 40
2.0
100
AcDbArc
 50
270.0
 51
315.0
  0
LINE
  5
249D8
100
AcDbEntity
  8
0
100
AcDbLine
 10
852.978956
 20
319.248632
 30
0.0
 11
853.266641
 21
319.248632
 31
0.0
  0
ARC
  5
249D9
100
AcDbEntity
  8
0
100
AcDbCircle
 10
853.266641
 20
317.248632
 30
0.0
 40
2.0
100
AcDbArc
 50
45.0
 51
90.0
  0
LINE
  5
249DA
100
AcDbEntity
  8
0
100
AcDbLine
 10
853.266641
 20
332.113618
 30
0.0
 11
853.266641
 21
320.383646
 31
0.0
  0
LINE
  5
249DB
100
AcDbEntity
  8
0
100
AcDbLine
 10
850.978956
 20
314.885527
 30
0.0
 11
850.978956
 21
339.248632
 31
0.0
  0
ARC
  5
249E4
100
AcDbEntity
  8
0
100
AcDbCircle
 10
894.691271
 20
335.248632
 30
0.0
 40
2.0
100
AcDbArc
 50
225.0
 51
270.0
  0
ARC
  5
249E5
100
AcDbEntity
  8
0
100
AcDbCircle
 10
894.691271
 20
317.248632
 30
0.0
 40
2.0
100
AcDbArc
 50
90.0
 51
135.0
  0
LINE
  5
249E6
100
AcDbEntity
  8
0
100
AcDbLine
 10
873.978956
 20
340.248632
 30
0.0
 11
895.978956
 21
340.248632
 31
0.0
  0
LINE
  5
249E7
100
AcDbEntity
  8
0
100
AcDbLine
 10
895.978956
 20
340.248632
 30
0.0
 11
896.978956
 21
339.248632
 31
0.0
  0
ARC
  5
249E8
100
AcDbEntity
  8
0
100
AcDbCircle
 10
894.978956
 20
331.248632
 30
0.0
 40
2.0
100
AcDbArc
 50
360.0
 51
90.0
  0
LINE
  5
249E9
100
AcDbEntity
  8
0
100
AcDbLine
 10
894.978956
 20
333.248632
 30
0.0
 11
894.691271
 21
333.248632
 31
0.0
  0
LINE
  5
249EA
100
AcDbEntity
  8
0
100
AcDbLine
 10
894.978956
 20
319.248632
 30
0.0
 11
894.691271
 21
319.248632
 31
0.0
  0
ARC
  5
249EB
100
AcDbEntity
  8
0
100
AcDbCircle
 10
894.978956
 20
321.248632
 30
0.0
 40
2.0
100
AcDbArc
 50
270.0
 51
0.0
  0
LINE
  5
249EC
100
AcDbEntity
  8
0
100
AcDbLine
 10
894.691271
 20
332.113618
 30
0.0
 11
894.691271
 21
320.383646
 31
0.0
  0
LINE
  5
249ED
100
AcDbEntity
  8
0
100
AcDbLine
 10
896.978956
 20
314.885527
 30
0.0
 11
896.978956
 21
339.248632
 31
0.0
  0
LINE
  5
249EE
100
AcDbEntity
  8
0
100
AcDbLine
 10
1134.374953
 20
340.248632
 30
0.0
 11
1112.374953
 21
340.248632
 31
0.0
  0
LINE
  5
249EF
100
AcDbEntity
  8
0
100
AcDbLine
 10
1146.132243
 20
301.018937
 30
0.0
 11
1122.617664
 21
301.018937
 31
0.0
  0
LINE
  5
249F0
100
AcDbEntity
  8
0
100
AcDbLine
 10
1127.136341
 20
283.120578
 30
0.0
 11
1121.374953
 21
283.120578
 31
0.0
  0
LINE
  5
249F1
100
AcDbEntity
  8
0
100
AcDbLine
 10
1127.136341
 20
278.992523
 30
0.0
 11
1121.374953
 21
278.992523
 31
0.0
  0
LINE
  5
249F2
100
AcDbEntity
  8
0
100
AcDbLine
 10
1127.136341
 20
291.376687
 30
0.0
 11
1121.374953
 21
291.376687
 31
0.0
  0
LINE
  5
249F3
100
AcDbEntity
  8
0
100
AcDbLine
 10
1127.136341
 20
295.504741
 30
0.0
 11
1121.374953
 21
295.504741
 31
0.0
  0
LINE
  5
249F4
100
AcDbEntity
  8
0
100
AcDbLine
 10
1150.334212
 20
273.478327
 30
0.0
 11
1122.617664
 21
273.478327
 31
0.0
  0
LINE
  5
249F5
100
AcDbEntity
  8
0
100
AcDbLine
 10
1112.374953
 20
244.248632
 30
0.0
 11
1134.374953
 21
244.248632
 31
0.0
  0
TEXT
  5
249F6
100
AcDbEntity
  8
0
100
AcDbText
 10
1109.721236
 20
187.198115
 30
0.0
 40
15.0
  1
25A
 72
     4
 11
1129.721236
 21
194.698115
 31
0.0
100
AcDbText
  0
LINE
  5
249F7
100
AcDbEntity
  8
0
100
AcDbLine
 10
989.993409
 20
216.248632
 30
0.0
 11
1040.966497
 21
216.248632
 31
0.0
  0
LINE
  5
249F8
100
AcDbEntity
  8
0
100
AcDbLine
 10
972.229953
 20
320.248632
 30
0.0
 11
1058.729953
 21
320.248632
 31
0.0
  0
LINE
  5
249F9
100
AcDbEntity
  8
0
100
AcDbLine
 10
958.229953
 20
306.248632
 30
0.0
 11
958.229953
 21
248.012088
 31
0.0
  0
LINE
  5
249FA
100
AcDbEntity
  8
0
100
AcDbLine
 10
961.598225
 20
239.88036
 30
0.0
 11
981.861681
 21
219.616904
 31
0.0
  0
ARC
  5
249FB
100
AcDbEntity
  8
0
100
AcDbCircle
 10
989.993409
 20
227.748632
 30
0.0
 40
11.5
100
AcDbArc
 50
225.0
 51
270.0
  0
ARC
  5
249FC
100
AcDbEntity
  8
0
100
AcDbCircle
 10
969.729953
 20
248.012088
 30
0.0
 40
11.5
100
AcDbArc
 50
180.0
 51
225.0
  0
ARC
  5
249FD
100
AcDbEntity
  8
0
100
AcDbCircle
 10
972.229953
 20
306.248632
 30
0.0
 40
14.0
100
AcDbArc
 50
90.0
 51
180.0
  0
LINE
  5
249FE
100
AcDbEntity
  8
0
100
AcDbLine
 10
1103.579953
 20
253.748632
 30
0.0
 11
1103.579953
 21
320.748632
 31
0.0
  0
LINE
  5
249FF
100
AcDbEntity
  8
0
100
AcDbLine
 10
1090.579953
 20
253.748632
 30
0.0
 11
1090.579953
 21
320.748632
 31
0.0
  0
LINE
  5
24A00
100
AcDbEntity
  8
0
100
AcDbLine
 10
1072.729953
 20
306.248632
 30
0.0
 11
1072.729953
 21
248.012088
 31
0.0
  0
LINE
  5
24A01
100
AcDbEntity
  8
0
100
AcDbLine
 10
1121.374953
 20
267.089435
 30
0.0
 11
1121.374953
 21
307.407829
 31
0.0
  0
LINE
  5
24A02
100
AcDbEntity
  8
0
100
AcDbLine
 10
1107.374953
 20
264.748632
 30
0.0
 11
1107.374953
 21
309.748632
 31
0.0
  0
LINE
  5
24A03
100
AcDbEntity
  8
0
100
AcDbLine
 10
1069.361681
 20
239.88036
 30
0.0
 11
1049.098225
 21
219.616904
 31
0.0
  0
ARC
  5
24A04
100
AcDbEntity
  8
0
100
AcDbCircle
 10
1040.966497
 20
227.748632
 30
0.0
 40
11.5
100
AcDbArc
 50
270.0
 51
315.0
  0
ARC
  5
24A05
100
AcDbEntity
  8
0
100
AcDbCircle
 10
1061.229953
 20
248.012088
 30
0.0
 40
11.5
100
AcDbArc
 50
315.0
 51
0.0
  0
LINE
  5
24A06
100
AcDbEntity
  8
0
100
AcDbLine
 10
1090.579953
 20
253.748632
 30
0.0
 11
1103.579953
 21
253.748632
 31
0.0
  0
LINE
  5
24A07
100
AcDbEntity
  8
0
100
AcDbLine
 10
1110.874953
 20
264.584171
 30
0.0
 11
1121.374953
 21
267.089435
 31
0.0
  0
LINE
  5
24A08
100
AcDbEntity
  8
0
100
AcDbLine
 10
1109.374953
 20
264.748632
 30
0.0
 11
1107.374953
 21
264.748632
 31
0.0
  0
LINE
  5
24A09
100
AcDbEntity
  8
0
100
AcDbLine
 10
1111.374953
 20
245.248632
 30
0.0
 11
1112.374953
 21
244.248632
 31
0.0
  0
LINE
  5
24A0A
100
AcDbEntity
  8
0
100
AcDbLine
 10
1111.374953
 20
245.248632
 30
0.0
 11
1111.374953
 21
262.748632
 31
0.0
  0
ARC
  5
24A0B
100
AcDbEntity
  8
0
100
AcDbCircle
 10
1109.374953
 20
262.748632
 30
0.0
 40
2.0
100
AcDbArc
 50
0.0
 51
90.0
  0
LINE
  5
24A0C
100
AcDbEntity
  8
0
100
AcDbLine
 10
1107.374953
 20
267.089435
 30
0.0
 11
1121.374953
 21
267.089435
 31
0.0
  0
ARC
  5
24A0D
100
AcDbEntity
  8
0
100
AcDbCircle
 10
1080.729953
 20
304.248632
 30
0.0
 40
2.0
100
AcDbArc
 50
270.0
 51
0.0
  0
ARC
  5
24A0E
100
AcDbEntity
  8
0
100
AcDbCircle
 10
1080.729953
 20
270.248632
 30
0.0
 40
2.0
100
AcDbArc
 50
360.0
 51
90.0
  0
LINE
  5
24A0F
100
AcDbEntity
  8
0
100
AcDbLine
 10
1072.729953
 20
306.248632
 30
0.0
 11
1076.729953
 21
302.248632
 31
0.0
  0
LINE
  5
24A10
100
AcDbEntity
  8
0
100
AcDbLine
 10
1076.729953
 20
302.248632
 30
0.0
 11
1076.729953
 21
272.248632
 31
0.0
  0
LINE
  5
24A11
100
AcDbEntity
  8
0
100
AcDbLine
 10
1076.729953
 20
272.248632
 30
0.0
 11
1080.729953
 21
272.248632
 31
0.0
  0
LINE
  5
24A12
100
AcDbEntity
  8
0
100
AcDbLine
 10
1072.729953
 20
268.248632
 30
0.0
 11
1076.729953
 21
272.248632
 31
0.0
  0
LINE
  5
24A13
100
AcDbEntity
  8
0
100
AcDbLine
 10
1076.729953
 20
302.248632
 30
0.0
 11
1080.729953
 21
302.248632
 31
0.0
  0
ARC
  5
24A14
100
AcDbEntity
  8
0
100
AcDbCircle
 10
1058.729953
 20
306.248632
 30
0.0
 40
14.0
100
AcDbArc
 50
0.0
 51
90.0
  0
LINE
  5
24A15
100
AcDbEntity
  8
0
100
AcDbLine
 10
1082.729953
 20
304.748632
 30
0.0
 11
1082.729953
 21
269.748632
 31
0.0
  0
LINE
  5
24A16
100
AcDbEntity
  8
0
100
AcDbLine
 10
1082.729953
 20
269.748632
 30
0.0
 11
1090.579953
 21
269.748632
 31
0.0
  0
LINE
  5
24A17
100
AcDbEntity
  8
0
100
AcDbLine
 10
1088.374953
 20
291.151132
 30
0.0
 11
1088.871475
 21
292.011132
 31
0.0
  0
LINE
  5
24A18
100
AcDbEntity
  8
0
100
AcDbLine
 10
1088.374953
 20
283.346132
 30
0.0
 11
1088.871475
 21
282.486132
 31
0.0
  0
LINE
  5
24A19
100
AcDbEntity
  8
0
100
AcDbLine
 10
1088.374953
 20
283.346132
 30
0.0
 11
1088.374953
 21
291.151132
 31
0.0
  0
LINE
  5
24A1A
100
AcDbEntity
  8
0
100
AcDbLine
 10
1088.871475
 20
292.011132
 30
0.0
 11
1090.579953
 21
292.011132
 31
0.0
  0
LINE
  5
24A1B
100
AcDbEntity
  8
0
100
AcDbLine
 10
1088.871475
 20
282.486132
 30
0.0
 11
1090.579953
 21
282.486132
 31
0.0
  0
LINE
  5
24A1C
100
AcDbEntity
  8
0
100
AcDbLine
 10
1103.579953
 20
269.748632
 30
0.0
 11
1107.374953
 21
269.748632
 31
0.0
  0
LINE
  5
24A1D
100
AcDbEntity
  8
0
100
AcDbLine
 10
1107.374953
 20
292.011132
 30
0.0
 11
1103.579953
 21
292.011132
 31
0.0
  0
LINE
  5
24A1E
100
AcDbEntity
  8
0
100
AcDbLine
 10
1107.374953
 20
282.486132
 30
0.0
 11
1103.579953
 21
282.486132
 31
0.0
  0
LINE
  5
24A1F
100
AcDbEntity
  8
0
100
AcDbLine
 10
1090.579953
 20
320.748632
 30
0.0
 11
1103.579953
 21
320.748632
 31
0.0
  0
LINE
  5
24A20
100
AcDbEntity
  8
0
100
AcDbLine
 10
1082.729953
 20
304.748632
 30
0.0
 11
1090.579953
 21
304.748632
 31
0.0
  0
LINE
  5
24A21
100
AcDbEntity
  8
0
100
AcDbLine
 10
1112.374953
 20
340.248632
 30
0.0
 11
1111.374953
 21
339.248632
 31
0.0
  0
LINE
  5
24A22
100
AcDbEntity
  8
0
100
AcDbLine
 10
1103.579953
 20
304.748632
 30
0.0
 11
1107.374953
 21
304.748632
 31
0.0
  0
LINE
  5
24A23
100
AcDbEntity
  8
0
100
AcDbLine
 10
1109.374953
 20
309.748632
 30
0.0
 11
1107.374953
 21
309.748632
 31
0.0
  0
ARC
  5
24A24
100
AcDbEntity
  8
0
100
AcDbCircle
 10
1109.374953
 20
311.748632
 30
0.0
 40
2.0
100
AcDbArc
 50
270.0
 51
0.0
  0
LINE
  5
24A25
100
AcDbEntity
  8
0
100
AcDbLine
 10
1110.874953
 20
309.913093
 30
0.0
 11
1121.374953
 21
307.407829
 31
0.0
  0
LINE
  5
24A26
100
AcDbEntity
  8
0
100
AcDbLine
 10
1107.374953
 20
307.407829
 30
0.0
 11
1121.374953
 21
307.407829
 31
0.0
  0
LINE
  5
24A27
100
AcDbEntity
  8
0
100
AcDbLine
 10
1111.374953
 20
311.748632
 30
0.0
 11
1111.374953
 21
339.248632
 31
0.0
  0
LINE
  5
24A28
100
AcDbEntity
  8
0
100
AcDbLine
 10
1196.052853
 20
271.51633
 30
0.0
 11
1201.789786
 21
265.779396
 31
0.0
  0
LINE
  5
24A29
100
AcDbEntity
  8
0
100
AcDbLine
 10
1193.90461
 20
269.368086
 30
0.0
 11
1199.641543
 21
263.631153
 31
0.0
  0
ARC
  5
24A2A
100
AcDbEntity
  8
0
100
AcDbCircle
 10
1206.665662
 20
243.957923
 30
0.0
 40
28.434501
100
AcDbArc
 50
116.665926
 51
153.334074
  0
LINE
  5
24A2B
100
AcDbEntity
  8
0
100
AcDbLine
 10
1172.417298
 20
251.33623
 30
0.0
 11
1199.287356
 21
278.206287
 31
0.0
  0
LINE
  5
24A2C
100
AcDbEntity
  8
0
100
AcDbLine
 10
1199.640909
 20
277.145627
 30
0.0
 11
1173.477958
 21
250.982676
 31
0.0
  0
LINE
  5
24A2D
100
AcDbEntity
  8
0
100
AcDbLine
 10
1168.881764
 20
257.700191
 30
0.0
 11
1192.923395
 21
281.741821
 31
0.0
  0
ARC
  5
24A2E
100
AcDbEntity
  8
0
100
AcDbCircle
 10
1200.508624
 20
273.437002
 30
0.0
 40
7.764039
100
AcDbArc
 50
279.497951
 51
339.497951
  0
LINE
  5
24A2F
100
AcDbEntity
  8
0
100
AcDbLine
 10
1207.419084
 20
269.367453
 30
0.0
 11
1181.256133
 21
243.204502
 31
0.0
  0
ARC
  5
24A30
100
AcDbEntity
  8
0
100
AcDbCircle
 10
1164.467551
 20
256.566508
 30
0.0
 40
3.0
100
AcDbArc
 50
0.0
 51
56.307687
  0
LINE
  5
24A31
100
AcDbEntity
  8
0
100
AcDbLine
 10
1134.374953
 20
244.248632
 30
0.0
 11
1156.374953
 21
244.248632
 31
0.0
  0
LINE
  5
24A32
100
AcDbEntity
  8
0
100
AcDbLine
 10
1144.374953
 20
265.248632
 30
0.0
 11
1144.374953
 21
251.248632
 31
0.0
  0
LINE
  5
24A33
100
AcDbEntity
  8
0
100
AcDbLine
 10
1124.374953
 20
265.248632
 30
0.0
 11
1124.374953
 21
251.248632
 31
0.0
  0
LINE
  5
24A34
100
AcDbEntity
  8
0
100
AcDbLine
 10
1124.374953
 20
265.248632
 30
0.0
 11
1144.374953
 21
265.248632
 31
0.0
  0
LINE
  5
24A35
100
AcDbEntity
  8
0
100
AcDbLine
 10
1124.374953
 20
251.248632
 30
0.0
 11
1144.374953
 21
251.248632
 31
0.0
  0
ARC
  5
24A36
100
AcDbEntity
  8
0
100
AcDbCircle
 10
1160.374953
 20
259.435433
 30
0.0
 40
3.0
100
AcDbArc
 50
53.631137
 51
180.0
  0
ARC
  5
24A37
100
AcDbEntity
  8
0
100
AcDbCircle
 10
1223.823961
 20
345.593564
 30
0.0
 40
104.0
100
AcDbArc
 50
233.631137
 51
236.307687
  0
LINE
  5
24A38
100
AcDbEntity
  8
0
100
AcDbLine
 10
1157.374953
 20
245.248632
 30
0.0
 11
1156.374953
 21
244.248632
 31
0.0
  0
LINE
  5
24A39
100
AcDbEntity
  8
0
100
AcDbLine
 10
1157.374953
 20
259.435433
 30
0.0
 11
1157.374953
 21
245.248632
 31
0.0
  0
ARC
  5
24A3A
100
AcDbEntity
  8
0
100
AcDbCircle
 10
1174.23138
 20
276.392205
 30
0.0
 40
28.434501
100
AcDbArc
 50
296.665926
 51
333.334074
  0
LINE
  5
24A3B
100
AcDbEntity
  8
0
100
AcDbLine
 10
1179.107256
 20
254.570732
 30
0.0
 11
1181.255499
 21
256.718976
 31
0.0
  0
LINE
  5
24A3C
100
AcDbEntity
  8
0
100
AcDbLine
 10
1178.467745
 20
242.457355
 30
0.0
 11
1181.256133
 21
243.204502
 31
0.0
  0
LINE
  5
24A3D
100
AcDbEntity
  8
0
100
AcDbLine
 10
1179.107256
 20
254.570732
 30
0.0
 11
1184.844189
 21
248.833799
 31
0.0
  0
LINE
  5
24A3E
100
AcDbEntity
  8
0
100
AcDbLine
 10
1171.003085
 20
251.33623
 30
0.0
 11
1172.417298
 21
251.33623
 31
0.0
  0
LINE
  5
24A3F
100
AcDbEntity
  8
0
100
AcDbLine
 10
1172.730812
 20
248.194289
 30
0.0
 11
1173.477958
 21
250.982676
 31
0.0
  0
LINE
  5
24A40
100
AcDbEntity
  8
0
100
AcDbLine
 10
1175.245725
 20
252.750443
 30
0.0
 11
1174.538619
 21
253.45755
 31
0.0
  0
ARC
  5
24A41
100
AcDbEntity
  8
0
100
AcDbCircle
 10
1180.388418
 20
246.913126
 30
0.0
 40
7.764039
100
AcDbArc
 50
99.497951
 51
159.497951
  0
LINE
  5
24A42
100
AcDbEntity
  8
0
100
AcDbLine
 10
1172.730812
 20
248.194289
 30
0.0
 11
1178.467745
 21
242.457355
 31
0.0
  0
ARC
  5
24A43
100
AcDbEntity
  8
0
100
AcDbCircle
 10
1177.186583
 20
250.114961
 30
0.0
 40
7.764039
100
AcDbArc
 50
290.502049
 51
350.502049
  0
LINE
  5
24A44
100
AcDbEntity
  8
0
100
AcDbLine
 10
1184.844189
 20
248.833799
 30
0.0
 11
1186.992432
 21
250.982042
 31
0.0
  0
LINE
  5
24A45
100
AcDbEntity
  8
0
100
AcDbLine
 10
1181.255499
 20
256.718976
 30
0.0
 11
1186.992432
 21
250.982042
 31
0.0
  0
LINE
  5
24A46
100
AcDbEntity
  8
0
100
AcDbLine
 10
1167.467551
 20
254.871764
 30
0.0
 11
1167.467551
 21
256.566508
 31
0.0
  0
LINE
  5
24A47
100
AcDbEntity
  8
0
100
AcDbLine
 10
1171.003085
 20
251.33623
 30
0.0
 11
1167.467551
 21
254.871764
 31
0.0
  0
LINE
  5
24A48
100
AcDbEntity
  8
0
100
AcDbLine
 10
1201.789786
 20
265.779396
 30
0.0
 11
1199.641543
 21
263.631153
 31
0.0
  0
ARC
  5
24A49
100
AcDbEntity
  8
0
100
AcDbCircle
 10
1105.030022
 20
226.799624
 30
0.0
 40
104.0
100
AcDbArc
 50
33.745287
 51
57.966943
  0
LINE
  5
24A4A
100
AcDbEntity
  8
0
100
AcDbLine
 10
1127.774953
 20
280.098632
 30
0.0
 11
1127.774953
 21
294.398632
 31
0.0
  0
ARC
  5
24A4B
100
AcDbEntity
  8
0
100
AcDbCircle
 10
1124.120127
 20
293.440714
 30
0.0
 40
3.654827
100
AcDbArc
 50
325.615753
 51
34.384247
  0
ARC
  5
24A4C
100
AcDbEntity
  8
0
100
AcDbCircle
 10
1114.113566
 20
287.248632
 30
0.0
 40
13.661388
100
AcDbArc
 50
342.412046
 51
17.587954
  0
ARC
  5
24A4D
100
AcDbEntity
  8
0
100
AcDbCircle
 10
1124.120127
 20
281.05655
 30
0.0
 40
3.654827
100
AcDbArc
 50
325.615753
 51
34.384247
  0
LINE
  5
24A4E
100
AcDbEntity
  8
0
100
AcDbLine
 10
1127.774953
 20
280.098632
 30
0.0
 11
1127.136341
 21
278.992523
 31
0.0
  0
LINE
  5
24A4F
100
AcDbEntity
  8
0
100
AcDbLine
 10
1127.774953
 20
294.398632
 30
0.0
 11
1127.136341
 21
295.504741
 31
0.0
  0
LINE
  5
24A50
100
AcDbEntity
  8
0
100
AcDbLine
 10
1134.374953
 20
340.248632
 30
0.0
 11
1156.374953
 21
340.248632
 31
0.0
  0
LINE
  5
24A51
100
AcDbEntity
  8
0
100
AcDbLine
 10
1144.374953
 20
319.248632
 30
0.0
 11
1144.374953
 21
333.248632
 31
0.0
  0
LINE
  5
24A52
100
AcDbEntity
  8
0
100
AcDbLine
 10
1124.374953
 20
319.248632
 30
0.0
 11
1124.374953
 21
333.248632
 31
0.0
  0
LINE
  5
24A53
100
AcDbEntity
  8
0
100
AcDbLine
 10
1124.374953
 20
319.248632
 30
0.0
 11
1144.374953
 21
319.248632
 31
0.0
  0
LINE
  5
24A54
100
AcDbEntity
  8
0
100
AcDbLine
 10
1124.374953
 20
333.248632
 30
0.0
 11
1144.374953
 21
333.248632
 31
0.0
  0
LINE
  5
24A55
100
AcDbEntity
  8
0
100
AcDbLine
 10
1156.374953
 20
340.248632
 30
0.0
 11
1157.374953
 21
339.248632
 31
0.0
  0
ARC
  5
24A56
100
AcDbEntity
  8
0
100
AcDbCircle
 10
1163.374953
 20
320.051268
 30
0.0
 40
6.0
100
AcDbArc
 50
180.0
 51
237.966943
  0
LINE
  5
24A57
100
AcDbEntity
  8
0
100
AcDbLine
 10
1157.374953
 20
320.051268
 30
0.0
 11
1157.374953
 21
339.248632
 31
0.0
  0
LINE
  5
24A58
100
AcDbEntity
  8
0
100
AcDbLine
 10
1208.16623
 20
272.15584
 30
0.0
 11
1207.419084
 21
269.367453
 31
0.0
  0
LINE
  5
24A59
100
AcDbEntity
  8
0
100
AcDbLine
 10
1202.429297
 20
277.892773
 30
0.0
 11
1208.16623
 21
272.15584
 31
0.0
  0
LINE
  5
24A5A
100
AcDbEntity
  8
0
100
AcDbLine
 10
1199.287356
 20
279.620501
 30
0.0
 11
1199.287356
 21
278.206287
 31
0.0
  0
LINE
  5
24A5B
100
AcDbEntity
  8
0
100
AcDbLine
 10
1197.873142
 20
275.37786
 30
0.0
 11
1197.166036
 21
276.084967
 31
0.0
  0
ARC
  5
24A5C
100
AcDbEntity
  8
0
100
AcDbCircle
 10
1194.166036
 20
286.156035
 30
0.0
 40
3.0
100
AcDbArc
 50
225.0
 51
270.0
  0
LINE
  5
24A5D
100
AcDbEntity
  8
0
100
AcDbLine
 10
1192.044715
 20
284.034714
 30
0.0
 11
1191.507614
 21
284.571816
 31
0.0
  0
LINE
  5
24A5E
100
AcDbEntity
  8
0
100
AcDbLine
 10
1195.751822
 20
283.156035
 30
0.0
 11
1194.166036
 21
283.156035
 31
0.0
  0
LINE
  5
24A5F
100
AcDbEntity
  8
0
100
AcDbLine
 10
1199.287356
 20
279.620501
 30
0.0
 11
1195.751822
 21
283.156035
 31
0.0
  0
LINE
  5
24A60
100
AcDbEntity
  8
0
100
AcDbLine
 10
1196.052853
 20
271.51633
 30
0.0
 11
1193.90461
 21
269.368086
 31
0.0
  0
ARC
  5
24A61
100
AcDbEntity
  8
0
100
AcDbCircle
 10
1203.710459
 20
270.235167
 30
0.0
 40
7.764039
100
AcDbArc
 50
110.502049
 51
170.502049
  0
LINE
  5
24A62
100
AcDbEntity
  8
0
100
AcDbLine
 10
1202.429297
 20
277.892773
 30
0.0
 11
1199.640909
 21
277.145627
 31
0.0
  0
ARC
  5
24A63
100
AcDbEntity
  8
0
100
AcDbCircle
 10
1305.56768
 20
287.248632
 30
0.0
 40
33.5
100
AcDbArc
 50
133.358981
 51
226.641019
  0
LINE
  5
24A64
100
AcDbEntity
  8
0
100
AcDbLine
 10
1285.56768
 20
269.721006
 30
0.0
 11
1285.56768
 21
264.748632
 31
0.0
  0
LINE
  5
24A65
100
AcDbEntity
  8
0
100
AcDbLine
 10
1288.321713
 20
271.51633
 30
0.0
 11
1288.321713
 21
265.779396
 31
0.0
  0
ARC
  5
24A66
100
AcDbEntity
  8
0
100
AcDbCircle
 10
1290.56768
 20
266.12983
 30
0.0
 40
8.0
100
AcDbArc
 50
124.643441
 51
180.0
  0
ARC
  5
24A67
100
AcDbEntity
  8
0
100
AcDbCircle
 10
1280.442111
 20
269.957219
 30
0.0
 40
3.0
100
AcDbArc
 50
214.53408
 51
265.0
  0
POLYLINE
  5
24A68
100
AcDbEntity
  8
0
100
AcDb2dPolyline
 66
     1
 10
0.0
 20
0.0
 30
0.0
  0
VERTEX
  5
24D21
100
AcDbEntity
  8
0
100
AcDbVertex
100
AcDb2dVertex
 10
1286.56768
 20
269.368086
 30
0.0
  0
VERTEX
  5
24D22
100
AcDbEntity
  8
0
100
AcDbVertex
100
AcDb2dVertex
 10
1286.56768
 20
250.982042
 30
0.0
  0
SEQEND
  5
24D23
100
AcDbEntity
  8
0
  0
POLYLINE
  5
24A69
100
AcDbEntity
  8
0
100
AcDb2dPolyline
 66
     1
 10
0.0
 20
0.0
 30
0.0
  0
VERTEX
  5
24D24
100
AcDbEntity
  8
0
100
AcDbVertex
100
AcDb2dVertex
 10
1303.875294
 20
272.107541
 30
0.0
  0
VERTEX
  5
24D25
100
AcDbEntity
  8
0
100
AcDbVertex
100
AcDb2dVertex
 10
1288.321713
 20
265.779396
 30
0.0
  0
SEQEND
  5
24D26
100
AcDbEntity
  8
0
  0
POLYLINE
  5
24A6A
100
AcDbEntity
  8
0
100
AcDb2dPolyline
 66
     1
 10
0.0
 20
0.0
 30
0.0
  0
VERTEX
  5
24D27
100
AcDbEntity
  8
0
100
AcDbVertex
100
AcDb2dVertex
 10
1303.875294
 20
242.505655
 30
0.0
  0
VERTEX
  5
24D28
100
AcDbEntity
  8
0
100
AcDbVertex
100
AcDb2dVertex
 10
1288.321713
 20
248.833799
 30
0.0
  0
SEQEND
  5
24D29
100
AcDbEntity
  8
0
  0
LINE
  5
24A6B
100
AcDbEntity
  8
0
100
AcDbLine
 10
1283.56768
 20
244.248632
 30
0.0
 11
1299.59133
 21
244.248632
 31
0.0
  0
LINE
  5
24A6C
100
AcDbEntity
  8
0
100
AcDbLine
 10
1282.592436
 20
266.75763
 30
0.0
 11
1280.180643
 21
266.968635
 31
0.0
  0
ARC
  5
24A6D
100
AcDbEntity
  8
0
100
AcDbCircle
 10
1284.855364
 20
267.248632
 30
0.0
 40
2.0
100
AcDbArc
 50
270.0
 51
291.492096
  0
LINE
  5
24A6E
100
AcDbEntity
  8
0
100
AcDbLine
 10
1284.56768
 20
265.248632
 30
0.0
 11
1284.855364
 21
265.248632
 31
0.0
  0
ELLIPSE
  5
24A6F
100
AcDbEntity
  8
0
100
AcDbEllipse
 10
1305.56768
 20
257.306598
 30
0.0
 11
-21.0
 21
0.0
 31
0.0
210
0.0
220
0.0
230
1.0
 40
0.707107
 41
5.675963710774241
 42
5.843209352388812
  0
ARC
  5
24A70
100
AcDbEntity
  8
0
100
AcDbCircle
 10
1284.855364
 20
249.248632
 30
0.0
 40
2.0
100
AcDbArc
 50
45.0
 51
90.0
  0
LINE
  5
24A71
100
AcDbEntity
  8
0
100
AcDbLine
 10
1284.56768
 20
251.248632
 30
0.0
 11
1284.855364
 21
251.248632
 31
0.0
  0
ELLIPSE
  5
24A72
100
AcDbEntity
  8
0
100
AcDbEllipse
 10
1305.56768
 20
257.306598
 30
0.0
 11
-21.0
 21
0.0
 31
0.0
210
0.0
220
0.0
230
-1.0
 40
0.707107
 41
5.675963710774241
 42
5.843209352388812
  0
LINE
  5
24A73
100
AcDbEntity
  8
0
100
AcDbLine
 10
1282.56768
 20
245.248632
 30
0.0
 11
1283.56768
 21
244.248632
 31
0.0
  0
ARC
  5
24A74
100
AcDbEntity
  8
0
100
AcDbCircle
 10
1284.56768
 20
253.248632
 30
0.0
 40
2.0
100
AcDbArc
 50
180.0
 51
270.0
  0
LINE
  5
24A75
100
AcDbEntity
  8
0
100
AcDbLine
 10
1284.855364
 20
252.383646
 30
0.0
 11
1284.855364
 21
264.113618
 31
0.0
  0
LINE
  5
24A76
100
AcDbEntity
  8
0
100
AcDbLine
 10
1282.56768
 20
266.12983
 30
0.0
 11
1282.56768
 21
245.248632
 31
0.0
  0
ARC
  5
24A77
100
AcDbEntity
  8
0
100
AcDbCircle
 10
1284.56768
 20
263.248632
 30
0.0
 40
2.0
100
AcDbArc
 50
90.0
 51
180.0
  0
ELLIPSE
  5
24A78
100
AcDbEntity
  8
0
100
AcDbEllipse
 10
1305.56768
 20
257.306598
 30
0.0
 11
-21.0
 21
0.0
 31
0.0
210
0.0
220
0.0
230
-1.0
 40
0.707107
 41
4.631711697362801
 42
4.793066263406571
  0
ARC
  5
24A79
100
AcDbEntity
  8
0
100
AcDbCircle
 10
1280.068744
 20
287.248094
 30
0.0
 40
6.750069
100
AcDbArc
 50
17.511975
 51
343.944189
  0
POLYLINE
  5
24A7A
100
AcDbEntity
  8
0
100
AcDb2dPolyline
 66
     1
 10
0.0
 20
0.0
 30
0.0
  0
VERTEX
  5
24D2A
100
AcDbEntity
  8
0
100
AcDbVertex
100
AcDb2dVertex
 10
1286.556368
 20
291.758572
 30
0.0
  0
VERTEX
  5
24D2B
100
AcDbEntity
  8
0
100
AcDbVertex
100
AcDb2dVertex
 10
1280.068744
 20
295.504203
 30
0.0
  0
VERTEX
  5
24D2C
100
AcDbEntity
  8
0
100
AcDbVertex
100
AcDb2dVertex
 10
1272.918744
 20
291.376149
 30
0.0
  0
VERTEX
  5
24D2D
100
AcDbEntity
  8
0
100
AcDbVertex
100
AcDb2dVertex
 10
1272.918744
 20
283.12004
 30
0.0
  0
VERTEX
  5
24D2E
100
AcDbEntity
  8
0
100
AcDbVertex
100
AcDb2dVertex
 10
1280.068744
 20
278.991986
 30
0.0
  0
VERTEX
  5
24D2F
100
AcDbEntity
  8
0
100
AcDbVertex
100
AcDb2dVertex
 10
1286.674691
 20
282.805931
 30
0.0
  0
SEQEND
  5
24D30
100
AcDbEntity
  8
0
  0
ARC
  5
24A7B
100
AcDbEntity
  8
0
100
AcDbCircle
 10
1273.814727
 20
305.248632
 30
0.0
 40
3.0
100
AcDbArc
 50
270.0
 51
330.452122
  0
ARC
  5
24A7C
100
AcDbEntity
  8
0
100
AcDbCircle
 10
1273.814727
 20
305.248632
 30
0.0
 40
3.0
100
AcDbArc
 50
270.0
 51
330.452122
  0
ARC
  5
24A7D
100
AcDbEntity
  8
0
100
AcDbCircle
 10
1272.06768
 20
301.248632
 30
0.0
 40
1.0
100
AcDbArc
 50
90.0
 51
180.0
  0
LINE
  5
24A7E
100
AcDbEntity
  8
0
100
AcDbLine
 10
1272.06768
 20
302.248632
 30
0.0
 11
1273.814727
 21
302.248632
 31
0.0
  0
ARC
  5
24A7F
100
AcDbEntity
  8
0
100
AcDbCircle
 10
1272.06768
 20
301.248632
 30
0.0
 40
1.0
100
AcDbArc
 50
90.0
 51
180.0
  0
LINE
  5
24A80
100
AcDbEntity
  8
0
100
AcDbLine
 10
1272.06768
 20
302.248632
 30
0.0
 11
1273.814727
 21
302.248632
 31
0.0
  0
ARC
  5
24A81
100
AcDbEntity
  8
0
100
AcDbCircle
 10
1273.814727
 20
269.248632
 30
0.0
 40
3.0
100
AcDbArc
 50
29.547878
 51
90.0
  0
ARC
  5
24A82
100
AcDbEntity
  8
0
100
AcDbCircle
 10
1273.814727
 20
269.248632
 30
0.0
 40
3.0
100
AcDbArc
 50
29.547878
 51
90.0
  0
LINE
  5
24A83
100
AcDbEntity
  8
0
100
AcDbLine
 10
1272.06768
 20
272.248632
 30
0.0
 11
1273.814727
 21
272.248632
 31
0.0
  0
LINE
  5
24A84
100
AcDbEntity
  8
0
100
AcDbLine
 10
1272.06768
 20
272.248632
 30
0.0
 11
1273.814727
 21
272.248632
 31
0.0
  0
ARC
  5
24A85
100
AcDbEntity
  8
0
100
AcDbCircle
 10
1272.06768
 20
273.248632
 30
0.0
 40
1.0
100
AcDbArc
 50
180.0
 51
270.0
  0
ARC
  5
24A86
100
AcDbEntity
  8
0
100
AcDbCircle
 10
1272.06768
 20
273.248632
 30
0.0
 40
1.0
100
AcDbArc
 50
180.0
 51
270.0
  0
LINE
  5
24A87
100
AcDbEntity
  8
0
100
AcDbLine
 10
1271.06768
 20
273.248632
 30
0.0
 11
1271.06768
 21
301.248632
 31
0.0
  0
LINE
  5
24A88
100
AcDbEntity
  8
0
100
AcDbLine
 10
1271.06768
 20
273.248632
 30
0.0
 11
1271.06768
 21
301.248632
 31
0.0
  0
ARC
  5
24A89
100
AcDbEntity
  8
0
100
AcDbCircle
 10
1290.56768
 20
308.367434
 30
0.0
 40
8.0
100
AcDbArc
 50
180.0
 51
240.0
  0
ARC
  5
24A8A
100
AcDbEntity
  8
0
100
AcDbCircle
 10
1383.060556
 20
288.556926
 30
0.0
 40
96.557283
100
AcDbArc
 50
168.011772
 51
187.71261
  0
POLYLINE
  5
24A8B
100
AcDbEntity
  8
0
100
AcDb2dPolyline
 66
     1
 10
0.0
 20
0.0
 30
0.0
  0
VERTEX
  5
24D31
100
AcDbEntity
  8
0
100
AcDbVertex
100
AcDb2dVertex
 10
1303.875294
 20
277.844474
 30
0.0
  0
VERTEX
  5
24D32
100
AcDbEntity
  8
0
100
AcDbVertex
100
AcDb2dVertex
 10
1288.321713
 20
271.51633
 30
0.0
  0
SEQEND
  5
24D33
100
AcDbEntity
  8
0
  0
LINE
  5
24A8C
100
AcDbEntity
  8
0
100
AcDbLine
 10
1286.56768
 20
301.439231
 30
0.0
 11
1287.309783
 21
301.010777
 31
0.0
  0
ELLIPSE
  5
24A8D
100
AcDbEntity
  8
0
100
AcDbEllipse
 10
1305.56768
 20
263.043531
 30
0.0
 11
-21.0
 21
0.0
 31
0.0
210
0.0
220
0.0
230
1.0
 40
0.707107
 41
5.675963710774241
 42
5.843209352388812
  0
ELLIPSE
  5
24A8E
100
AcDbEntity
  8
0
100
AcDbEllipse
 10
1305.56768
 20
263.043531
 30
0.0
 11
-21.0
 21
0.0
 31
0.0
210
0.0
220
0.0
230
1.0
 40
0.707107
 41
4.631711697362801
 42
4.793066263406571
  0
ELLIPSE
  5
24A8F
100
AcDbEntity
  8
0
100
AcDbEllipse
 10
1305.56768
 20
257.306598
 30
0.0
 11
-21.0
 21
0.0
 31
0.0
210
0.0
220
0.0
230
1.0
 40
0.707107
 41
4.631711697362801
 42
4.793066263406571
  0
LINE
  5
24A90
100
AcDbEntity
  8
0
100
AcDbLine
 10
1307.260065
 20
277.844474
 30
0.0
 11
1307.260065
 21
272.107541
 31
0.0
  0
LINE
  5
24A91
100
AcDbEntity
  8
0
100
AcDbLine
 10
1303.875294
 20
277.844474
 30
0.0
 11
1303.875294
 21
272.107541
 31
0.0
  0
LINE
  5
24A92
100
AcDbEntity
  8
0
100
AcDbLine
 10
1305.56768
 20
340.248632
 30
0.0
 11
1283.56768
 21
340.248632
 31
0.0
  0
LINE
  5
24A93
100
AcDbEntity
  8
0
100
AcDbLine
 10
1283.56768
 20
340.248632
 30
0.0
 11
1282.56768
 21
339.248632
 31
0.0
  0
ARC
  5
24A94
100
AcDbEntity
  8
0
100
AcDbCircle
 10
1284.855364
 20
335.248632
 30
0.0
 40
2.0
100
AcDbArc
 50
270.0
 51
315.0
  0
LINE
  5
24A95
100
AcDbEntity
  8
0
100
AcDbLine
 10
1284.56768
 20
333.248632
 30
0.0
 11
1284.855364
 21
333.248632
 31
0.0
  0
ARC
  5
24A96
100
AcDbEntity
  8
0
100
AcDbCircle
 10
1284.56768
 20
331.248632
 30
0.0
 40
2.0
100
AcDbArc
 50
90.0
 51
180.0
  0
LINE
  5
24A97
100
AcDbEntity
  8
0
100
AcDbLine
 10
1282.592436
 20
307.738559
 30
0.0
 11
1280.180643
 21
307.527554
 31
0.0
  0
ARC
  5
24A98
100
AcDbEntity
  8
0
100
AcDbCircle
 10
1284.855364
 20
317.248632
 30
0.0
 40
2.0
100
AcDbArc
 50
45.0
 51
90.0
  0
LINE
  5
24A99
100
AcDbEntity
  8
0
100
AcDbLine
 10
1284.56768
 20
319.248632
 30
0.0
 11
1284.855364
 21
319.248632
 31
0.0
  0
ARC
  5
24A9A
100
AcDbEntity
  8
0
100
AcDbCircle
 10
1284.56768
 20
321.248632
 30
0.0
 40
2.0
100
AcDbArc
 50
180.0
 51
270.0
  0
ARC
  5
24A9B
100
AcDbEntity
  8
0
100
AcDbCircle
 10
1294.594869
 20
308.199061
 30
0.0
 40
6.0
100
AcDbArc
 50
155.806806
 51
176.044902
  0
ARC
  5
24A9C
100
AcDbEntity
  8
0
100
AcDbCircle
 10
1294.594869
 20
308.199061
 30
0.0
 40
6.0
100
AcDbArc
 50
155.806806
 51
176.044902
  0
ARC
  5
24A9D
100
AcDbEntity
  8
0
100
AcDbCircle
 10
1280.442111
 20
304.53897
 30
0.0
 40
3.0
100
AcDbArc
 50
95.0
 51
145.46592
  0
LINE
  5
24A9E
100
AcDbEntity
  8
0
100
AcDbLine
 10
1284.855364
 20
332.113618
 30
0.0
 11
1284.855364
 21
320.383646
 31
0.0
  0
LINE
  5
24A9F
100
AcDbEntity
  8
0
100
AcDbLine
 10
1282.56768
 20
308.367434
 30
0.0
 11
1282.56768
 21
339.248632
 31
0.0
  0
LINE
  5
24AA0
100
AcDbEntity
  8
0
100
AcDbLine
 10
589.470561
 20
505.887217
 30
0.0
 11
586.54973
 21
498.732673
 31
0.0
  0
POLYLINE
  5
24AA1
100
AcDbEntity
  8
0
100
AcDb2dPolyline
 66
     1
 10
0.0
 20
0.0
 30
0.0
  0
VERTEX
  5
24D34
100
AcDbEntity
  8
0
100
AcDbVertex
100
AcDb2dVertex
 10
585.500357
 20
518.809945
 30
0.0
 42
-0.133256
  0
VERTEX
  5
24D35
100
AcDbEntity
  8
0
100
AcDbVertex
100
AcDb2dVertex
 10
588.325403
 20
518.043425
 30
0.0
 42
-0.106756
  0
VERTEX
  5
24D36
100
AcDbEntity
  8
0
100
AcDbVertex
100
AcDb2dVertex
 10
591.000357
 20
515.58812
 30
0.0
 42
-0.082828
  0
VERTEX
  5
24D37
100
AcDbEntity
  8
0
100
AcDbVertex
100
AcDb2dVertex
 10
592.653492
 20
512.167633
 30
0.0
 42
-0.071352
  0
VERTEX
  5
24D38
100
AcDbEntity
  8
0
100
AcDbVertex
100
AcDb2dVertex
 10
593.278532
 20
507.809945
 30
0.0
 42
-0.071352
  0
VERTEX
  5
24D39
100
AcDbEntity
  8
0
100
AcDbVertex
100
AcDb2dVertex
 10
592.653492
 20
503.452257
 30
0.0
 42
-0.082828
  0
VERTEX
  5
24D3A
100
AcDbEntity
  8
0
100
AcDbVertex
100
AcDb2dVertex
 10
591.000357
 20
500.03177
 30
0.0
 42
-0.106756
  0
VERTEX
  5
24D3B
100
AcDbEntity
  8
0
100
AcDbVertex
100
AcDb2dVertex
 10
588.325403
 20
497.576466
 30
0.0
 42
-0.133256
  0
VERTEX
  5
24D3C
100
AcDbEntity
  8
0
100
AcDbVertex
100
AcDb2dVertex
 10
585.500357
 20
496.809945
 30
0.0
 42
-0.097633
  0
SEQEND
  5
24D3D
100
AcDbEntity
  8
0
  0
LINE
  5
24AA2
100
AcDbEntity
  8
0
100
AcDbLine
 10
586.54973
 20
498.732673
 30
0.0
 11
589.870716
 21
498.732673
 31
0.0
  0
ARC
  5
24AA3
100
AcDbEntity
  8
0
100
AcDbCircle
 10
580.361375
 20
503.940913
 30
0.0
 40
8.088356
100
AcDbArc
 50
308.201734
 51
319.915384
  0
LINE
  5
24AA4
100
AcDbEntity
  8
0
100
AcDbLine
 10
586.54973
 20
516.887217
 30
0.0
 11
589.870716
 21
516.887217
 31
0.0
  0
ARC
  5
24AA5
100
AcDbEntity
  8
0
100
AcDbCircle
 10
580.361375
 20
511.678977
 30
0.0
 40
8.088356
100
AcDbArc
 50
40.084616
 51
51.798266
  0
ARC
  5
24AA6
100
AcDbEntity
  8
0
100
AcDbCircle
 10
570.195473
 20
507.809945
 30
0.0
 40
19.370748
100
AcDbArc
 50
354.303478
 51
5.696522
  0
LINE
  5
24AA7
100
AcDbEntity
  8
0
100
AcDbLine
 10
589.470561
 20
505.887217
 30
0.0
 11
593.15884
 21
505.887217
 31
0.0
  0
LINE
  5
24AA8
100
AcDbEntity
  8
0
100
AcDbLine
 10
589.470561
 20
509.732673
 30
0.0
 11
593.15884
 21
509.732673
 31
0.0
  0
LINE
  5
24AA9
100
AcDbEntity
  8
0
100
AcDbLine
 10
589.470561
 20
509.732673
 30
0.0
 11
586.54973
 21
516.887217
 31
0.0
  0
ARC
  5
24AAA
100
AcDbEntity
  8
0
100
AcDbCircle
 10
581.778532
 20
677.762194
 30
0.0
 40
11.5
100
AcDbArc
 50
315.0
 51
0.0
  0
LINE
  5
24AAB
100
AcDbEntity
  8
0
100
AcDbLine
 10
589.91026
 20
669.630466
 30
0.0
 11
569.646804
 21
649.36701
 31
0.0
  0
ARC
  5
24AAC
100
AcDbEntity
  8
0
100
AcDbCircle
 10
561.515076
 20
657.498738
 30
0.0
 40
11.5
100
AcDbArc
 50
270.0
 51
315.0
  0
ARC
  5
24AAD
100
AcDbEntity
  8
0
100
AcDbCircle
 10
579.278532
 20
735.998738
 30
0.0
 40
14.0
100
AcDbArc
 50
0.0
 51
90.0
  0
LINE
  5
24AAE
100
AcDbEntity
  8
0
100
AcDbLine
 10
593.278532
 20
735.998738
 30
0.0
 11
593.278532
 21
677.762194
 31
0.0
  0
CIRCLE
  5
24AAF
100
AcDbEntity
  8
0
100
AcDbCircle
 10
1134.374953
 20
507.809945
 30
0.0
 40
23.0
  0
LINE
  5
24AB0
100
AcDbEntity
  8
0
100
AcDbLine
 10
1127.017441
 20
475.159945
 30
0.0
 11
1121.374953
 21
475.159945
 31
0.0
  0
LINE
  5
24AB1
100
AcDbEntity
  8
0
100
AcDbLine
 10
1127.017441
 20
482.309945
 30
0.0
 11
1121.374953
 21
482.309945
 31
0.0
  0
LINE
  5
24AB2
100
AcDbEntity
  8
0
100
AcDbLine
 10
1121.374953
 20
482.309945
 30
0.0
 11
1127.017441
 21
482.309945
 31
0.0
  0
LINE
  5
24AB3
100
AcDbEntity
  8
0
100
AcDbLine
 10
1127.017441
 20
540.459945
 30
0.0
 11
1121.374953
 21
540.459945
 31
0.0
  0
LINE
  5
24AB4
100
AcDbEntity
  8
0
100
AcDbLine
 10
1121.374953
 20
533.309945
 30
0.0
 11
1127.017441
 21
533.309945
 31
0.0
  0
LINE
  5
24AB5
100
AcDbEntity
  8
0
100
AcDbLine
 10
1127.017441
 20
533.309945
 30
0.0
 11
1121.374953
 21
533.309945
 31
0.0
  0
ARC
  5
24AB6
100
AcDbEntity
  8
0
100
AcDbCircle
 10
1049.774753
 20
507.809945
 30
0.0
 40
92.0
100
AcDbArc
 50
151.280664
 51
208.719336
  0
ARC
  5
24AB7
100
AcDbEntity
  8
0
100
AcDbCircle
 10
980.274753
 20
507.809945
 30
0.0
 40
92.0
100
AcDbArc
 50
331.280664
 51
28.719336
  0
LINE
  5
24AB8
100
AcDbEntity
  8
0
100
AcDbLine
 10
982.246981
 20
455.809945
 30
0.0
 11
1047.802526
 21
455.809945
 31
0.0
  0
ARC
  5
24AB9
100
AcDbEntity
  8
0
100
AcDbCircle
 10
982.246981
 20
470.809945
 30
0.0
 40
15.0
100
AcDbArc
 50
208.719336
 51
270.0
  0
ARC
  5
24ABA
100
AcDbEntity
  8
0
100
AcDbCircle
 10
1047.802526
 20
470.809945
 30
0.0
 40
15.0
100
AcDbArc
 50
270.0
 51
331.280664
  0
LINE
  5
24ABB
100
AcDbEntity
  8
0
100
AcDbLine
 10
982.246981
 20
559.809945
 30
0.0
 11
1047.802526
 21
559.809945
 31
0.0
  0
ARC
  5
24ABC
100
AcDbEntity
  8
0
100
AcDbCircle
 10
982.246981
 20
544.809945
 30
0.0
 40
15.0
100
AcDbArc
 50
90.0
 51
151.280664
  0
LINE
  5
24ABD
100
AcDbEntity
  8
0
100
AcDbLine
 10
1090.579953
 20
474.309945
 30
0.0
 11
1090.579953
 21
541.309945
 31
0.0
  0
LINE
  5
24ABE
100
AcDbEntity
  8
0
100
AcDbLine
 10
1103.579953
 20
541.309945
 30
0.0
 11
1103.579953
 21
474.309945
 31
0.0
  0
LINE
  5
24ABF
100
AcDbEntity
  8
0
100
AcDbLine
 10
1107.374953
 20
541.309945
 30
0.0
 11
1107.374953
 21
474.309945
 31
0.0
  0
LINE
  5
24AC0
100
AcDbEntity
  8
0
100
AcDbLine
 10
1088.374953
 20
537.212445
 30
0.0
 11
1088.871475
 21
538.072445
 31
0.0
  0
LINE
  5
24AC1
100
AcDbEntity
  8
0
100
AcDbLine
 10
1121.374953
 20
541.309945
 30
0.0
 11
1121.374953
 21
526.783611
 31
0.0
  0
ARC
  5
24AC2
100
AcDbEntity
  8
0
100
AcDbCircle
 10
1080.729953
 20
490.809945
 30
0.0
 40
2.0
100
AcDbArc
 50
360.0
 51
90.0
  0
ARC
  5
24AC3
100
AcDbEntity
  8
0
100
AcDbCircle
 10
1080.729953
 20
524.809945
 30
0.0
 40
2.0
100
AcDbArc
 50
270.0
 51
0.0
  0
LINE
  5
24AC4
100
AcDbEntity
  8
0
100
AcDbLine
 10
1076.729953
 20
522.809945
 30
0.0
 11
1076.729953
 21
492.809945
 31
0.0
  0
LINE
  5
24AC5
100
AcDbEntity
  8
0
100
AcDbLine
 10
1069.564752
 20
485.644744
 30
0.0
 11
1076.729953
 21
492.809945
 31
0.0
  0
LINE
  5
24AC6
100
AcDbEntity
  8
0
100
AcDbLine
 10
1076.729953
 20
492.809945
 30
0.0
 11
1080.729953
 21
492.809945
 31
0.0
  0
LINE
  5
24AC7
100
AcDbEntity
  8
0
100
AcDbLine
 10
1069.564752
 20
529.975147
 30
0.0
 11
1076.729953
 21
522.809945
 31
0.0
  0
LINE
  5
24AC8
100
AcDbEntity
  8
0
100
AcDbLine
 10
1076.729953
 20
522.809945
 30
0.0
 11
1080.729953
 21
522.809945
 31
0.0
  0
LINE
  5
24AC9
100
AcDbEntity
  8
0
100
AcDbLine
 10
1082.729953
 20
525.309945
 30
0.0
 11
1082.729953
 21
490.309945
 31
0.0
  0
LINE
  5
24ACA
100
AcDbEntity
  8
0
100
AcDbLine
 10
1103.579953
 20
474.309945
 30
0.0
 11
1090.579953
 21
474.309945
 31
0.0
  0
LINE
  5
24ACB
100
AcDbEntity
  8
0
100
AcDbLine
 10
1090.579953
 20
490.309945
 30
0.0
 11
1082.729953
 21
490.309945
 31
0.0
  0
LINE
  5
24ACC
100
AcDbEntity
  8
0
100
AcDbLine
 10
1107.374953
 20
487.072445
 30
0.0
 11
1103.579953
 21
487.072445
 31
0.0
  0
LINE
  5
24ACD
100
AcDbEntity
  8
0
100
AcDbLine
 10
1107.374953
 20
477.547445
 30
0.0
 11
1103.579953
 21
477.547445
 31
0.0
  0
LINE
  5
24ACE
100
AcDbEntity
  8
0
100
AcDbLine
 10
1118.374953
 20
477.855813
 30
0.0
 11
1110.374953
 21
477.855813
 31
0.0
  0
LINE
  5
24ACF
100
AcDbEntity
  8
0
100
AcDbLine
 10
1109.024953
 20
481.054445
 30
0.0
 11
1119.724953
 21
481.054445
 31
0.0
  0
LINE
  5
24AD0
100
AcDbEntity
  8
0
100
AcDbLine
 10
1107.374953
 20
474.309945
 30
0.0
 11
1110.374953
 21
474.309945
 31
0.0
  0
ARC
  5
24AD1
100
AcDbEntity
  8
0
100
AcDbCircle
 10
1109.374953
 20
476.855813
 30
0.0
 40
1.0
100
AcDbArc
 50
0.0
 51
90.0
  0
LINE
  5
24AD2
100
AcDbEntity
  8
0
100
AcDbLine
 10
1121.374953
 20
474.309945
 30
0.0
 11
1121.374953
 21
488.836279
 31
0.0
  0
LINE
  5
24AD3
100
AcDbEntity
  8
0
100
AcDbLine
 10
1118.374953
 20
474.309945
 30
0.0
 11
1121.374953
 21
474.309945
 31
0.0
  0
ARC
  5
24AD4
100
AcDbEntity
  8
0
100
AcDbCircle
 10
1119.374953
 20
476.855813
 30
0.0
 40
1.0
100
AcDbArc
 50
90.0
 51
180.0
  0
LINE
  5
24AD5
100
AcDbEntity
  8
0
100
AcDbLine
 10
1118.374953
 20
473.309945
 30
0.0
 11
1110.374953
 21
473.309945
 31
0.0
  0
LINE
  5
24AD6
100
AcDbEntity
  8
0
100
AcDbLine
 10
1110.374953
 20
476.855813
 30
0.0
 11
1110.374953
 21
473.309945
 31
0.0
  0
LINE
  5
24AD7
100
AcDbEntity
  8
0
100
AcDbLine
 10
1118.374953
 20
476.855813
 30
0.0
 11
1118.374953
 21
473.309945
 31
0.0
  0
LINE
  5
24AD8
100
AcDbEntity
  8
0
100
AcDbLine
 10
1107.374953
 20
490.309945
 30
0.0
 11
1103.579953
 21
490.309945
 31
0.0
  0
LINE
  5
24AD9
100
AcDbEntity
  8
0
100
AcDbLine
 10
1090.579953
 20
525.309945
 30
0.0
 11
1082.729953
 21
525.309945
 31
0.0
  0
LINE
  5
24ADA
100
AcDbEntity
  8
0
100
AcDbLine
 10
1088.871475
 20
528.547445
 30
0.0
 11
1090.579953
 21
528.547445
 31
0.0
  0
LINE
  5
24ADB
100
AcDbEntity
  8
0
100
AcDbLine
 10
1088.374953
 20
529.407445
 30
0.0
 11
1088.871475
 21
528.547445
 31
0.0
  0
LINE
  5
24ADC
100
AcDbEntity
  8
0
100
AcDbLine
 10
1088.374953
 20
529.407445
 30
0.0
 11
1088.374953
 21
537.212445
 31
0.0
  0
LINE
  5
24ADD
100
AcDbEntity
  8
0
100
AcDbLine
 10
1107.374953
 20
525.309945
 30
0.0
 11
1103.579953
 21
525.309945
 31
0.0
  0
LINE
  5
24ADE
100
AcDbEntity
  8
0
100
AcDbLine
 10
1107.374953
 20
528.547445
 30
0.0
 11
1103.579953
 21
528.547445
 31
0.0
  0
LINE
  5
24ADF
100
AcDbEntity
  8
0
100
AcDbLine
 10
1109.024953
 20
534.565445
 30
0.0
 11
1119.724953
 21
534.565445
 31
0.0
  0
ARC
  5
24AE0
100
AcDbEntity
  8
0
100
AcDbCircle
 10
1047.802526
 20
544.809945
 30
0.0
 40
15.0
100
AcDbArc
 50
28.719336
 51
90.0
  0
LINE
  5
24AE1
100
AcDbEntity
  8
0
100
AcDbLine
 10
1103.579953
 20
541.309945
 30
0.0
 11
1090.579953
 21
541.309945
 31
0.0
  0
LINE
  5
24AE2
100
AcDbEntity
  8
0
100
AcDbLine
 10
1088.871475
 20
538.072445
 30
0.0
 11
1090.579953
 21
538.072445
 31
0.0
  0
LINE
  5
24AE3
100
AcDbEntity
  8
0
100
AcDbLine
 10
1107.374953
 20
538.072445
 30
0.0
 11
1103.579953
 21
538.072445
 31
0.0
  0
LINE
  5
24AE4
100
AcDbEntity
  8
0
100
AcDbLine
 10
1107.374953
 20
541.309945
 30
0.0
 11
1121.374953
 21
541.309945
 31
0.0
  0
LINE
  5
24AE5
100
AcDbEntity
  8
0
100
AcDbLine
 10
1118.374953
 20
542.309945
 30
0.0
 11
1110.374953
 21
542.309945
 31
0.0
  0
LINE
  5
24AE6
100
AcDbEntity
  8
0
100
AcDbLine
 10
1110.374953
 20
541.309945
 30
0.0
 11
1110.374953
 21
542.309945
 31
0.0
  0
LINE
  5
24AE7
100
AcDbEntity
  8
0
100
AcDbLine
 10
1118.374953
 20
541.309945
 30
0.0
 11
1118.374953
 21
542.309945
 31
0.0
  0
INSERT
  5
24AE8
100
AcDbEntity
  8
0
100
AcDbBlockReference
  2
YA
 10
1134.374953
 20
346.15157
 30
0.0
 41
-1.630435
 42
1.630435
 43
1.630435
 50
90.0
  0
LINE
  5
24AE9
100
AcDbEntity
  8
0
100
AcDbLine
 10
1127.774953
 20
539.147896
 30
0.0
 11
1127.774953
 21
530.809945
 31
0.0
  0
ARC
  5
24AEA
100
AcDbEntity
  8
0
100
AcDbCircle
 10
1118.960276
 20
536.884945
 30
0.0
 40
8.814677
100
AcDbArc
 50
336.072926
 51
23.927074
  0
ARC
  5
24AEB
100
AcDbEntity
  8
0
100
AcDbCircle
 10
1160.013273
 20
430.317069
 30
0.0
 40
96.557283
100
AcDbArc
 50
78.011772
 51
96.998713
  0
ARC
  5
24AEC
100
AcDbEntity
  8
0
100
AcDbCircle
 10
1160.013273
 20
585.302821
 30
0.0
 40
96.557283
100
AcDbArc
 50
263.001287
 51
281.988228
  0
LINE
  5
24AED
100
AcDbEntity
  8
0
100
AcDbLine
 10
1124.374953
 20
484.809945
 30
0.0
 11
1144.374953
 21
484.809945
 31
0.0
  0
LINE
  5
24AEE
100
AcDbEntity
  8
0
100
AcDbLine
 10
1127.774953
 20
476.471995
 30
0.0
 11
1127.774953
 21
484.809945
 31
0.0
  0
ARC
  5
24AEF
100
AcDbEntity
  8
0
100
AcDbCircle
 10
1118.960276
 20
478.734945
 30
0.0
 40
8.814677
100
AcDbArc
 50
336.072926
 51
23.927074
  0
LINE
  5
24AF0
100
AcDbEntity
  8
0
100
AcDbLine
 10
1127.774953
 20
476.471995
 30
0.0
 11
1127.017441
 21
475.159945
 31
0.0
  0
ARC
  5
24AF1
100
AcDbEntity
  8
0
100
AcDbCircle
 10
1118.960276
 20
485.884945
 30
0.0
 40
8.814677
100
AcDbArc
 50
336.072926
 51
352.995016
  0
LINE
  5
24AF2
100
AcDbEntity
  8
0
100
AcDbLine
 10
1124.374953
 20
487.09763
 30
0.0
 11
1124.374953
 21
484.809945
 31
0.0
  0
ARC
  5
24AF3
100
AcDbEntity
  8
0
100
AcDbCircle
 10
1127.017441
 20
482.309945
 30
0.0
 40
0.0
100
AcDbArc
 50
90.0
 51
137.854147
  0
LINE
  5
24AF4
100
AcDbEntity
  8
0
100
AcDbLine
 10
1144.374953
 20
487.09763
 30
0.0
 11
1144.374953
 21
484.809945
 31
0.0
  0
LINE
  5
24AF5
100
AcDbEntity
  8
0
100
AcDbLine
 10
1124.374953
 20
530.809945
 30
0.0
 11
1144.374953
 21
530.809945
 31
0.0
  0
ARC
  5
24AF6
100
AcDbEntity
  8
0
100
AcDbCircle
 10
1118.960276
 20
529.734945
 30
0.0
 40
8.814677
100
AcDbArc
 50
7.004984
 51
23.927074
  0
LINE
  5
24AF7
100
AcDbEntity
  8
0
100
AcDbLine
 10
1124.374953
 20
528.52226
 30
0.0
 11
1124.374953
 21
530.809945
 31
0.0
  0
ARC
  5
24AF8
100
AcDbEntity
  8
0
100
AcDbCircle
 10
1127.017441
 20
533.309945
 30
0.0
 40
0.0
100
AcDbArc
 50
222.145853
 51
270.0
  0
LINE
  5
24AF9
100
AcDbEntity
  8
0
100
AcDbLine
 10
1144.374953
 20
528.52226
 30
0.0
 11
1144.374953
 21
530.809945
 31
0.0
  0
ELLIPSE
  5
24AFA
100
AcDbEntity
  8
0
100
AcDbEllipse
 10
1181.609686
 20
507.809945
 30
0.0
 11
0.0000000000000012
 21
-20.0
 31
0.0
210
0.0
220
0.0
230
-1.0
 40
0.707107
 41
2.674352144222319
 42
6.750425816556282
  0
ELLIPSE
  5
24AFB
100
AcDbEntity
  8
0
100
AcDbEllipse
 10
1185.14522
 20
507.809945
 30
0.0
 11
0.0000000000000012
 21
-20.0
 31
0.0
210
0.0
220
0.0
230
-1.0
 40
0.707107
 41
3.141592653589793
 42
6.283185307179586
  0
ELLIPSE
  5
24AFC
100
AcDbEntity
  8
0
100
AcDbEllipse
 10
1177.162482
 20
507.809945
 30
0.0
 11
0.0000000000000177
 21
-17.52291503460766
 31
0.0
210
0.0
220
0.0
230
-1.0
 40
0.81865
 41
3.494035181711411
 42
5.930742779057948
  0
POLYLINE
  5
24AFD
100
AcDbEntity
  8
0
100
AcDb2dPolyline
 66
     1
 10
0.0
 20
0.0
 30
0.0
  0
VERTEX
  5
24D3E
100
AcDbEntity
  8
0
100
AcDbVertex
100
AcDb2dVertex
 10
1202.380998
 20
506.117559
 30
0.0
  0
VERTEX
  5
24D3F
100
AcDbEntity
  8
0
100
AcDbVertex
100
AcDb2dVertex
 10
1196.052853
 20
490.563978
 30
0.0
  0
SEQEND
  5
24D40
100
AcDbEntity
  8
0
  0
POLYLINE
  5
24AFE
100
AcDbEntity
  8
0
100
AcDb2dPolyline
 66
     1
 10
0.0
 20
0.0
 30
0.0
  0
VERTEX
  5
24D41
100
AcDbEntity
  8
0
100
AcDbVertex
100
AcDb2dVertex
 10
1208.117931
 20
506.117559
 30
0.0
  0
VERTEX
  5
24D42
100
AcDbEntity
  8
0
100
AcDbVertex
100
AcDb2dVertex
 10
1201.789786
 20
490.563978
 30
0.0
  0
SEQEND
  5
24D43
100
AcDbEntity
  8
0
  0
LINE
  5
24AFF
100
AcDbEntity
  8
0
100
AcDbLine
 10
1185.14522
 20
487.809945
 30
0.0
 11
1181.609686
 21
487.809945
 31
0.0
  0
ARC
  5
24B00
100
AcDbEntity
  8
0
100
AcDbCircle
 10
1179.655408
 20
496.837135
 30
0.0
 40
6.0
100
AcDbArc
 50
273.955098
 51
294.193194
  0
ELLIPSE
  5
24B01
100
AcDbEntity
  8
0
100
AcDbEllipse
 10
1187.580055
 20
507.809945
 30
0.0
 11
-0.0000000000000013
 21
-21.0
 31
0.0
210
0.0
220
0.0
230
-1.0
 40
0.707107
 41
5.675963710774241
 42
5.843209352388812
  0
ELLIPSE
  5
24B02
100
AcDbEntity
  8
0
100
AcDbEllipse
 10
1193.316988
 20
507.809945
 30
0.0
 11
-0.0000000000000013
 21
-21.0
 31
0.0
210
0.0
220
0.0
230
-1.0
 40
0.707107
 41
5.675963710774241
 42
5.843209352388812
  0
POLYLINE
  5
24B03
100
AcDbEntity
  8
0
100
AcDb2dPolyline
 66
     1
 10
0.0
 20
0.0
 30
0.0
  0
VERTEX
  5
24D44
100
AcDbEntity
  8
0
100
AcDbVertex
100
AcDb2dVertex
 10
1189.561101
 20
488.809945
 30
0.0
  0
VERTEX
  5
24D45
100
AcDbEntity
  8
0
100
AcDbVertex
100
AcDb2dVertex
 10
1199.641543
 20
488.809945
 30
0.0
  0
SEQEND
  5
24D46
100
AcDbEntity
  8
0
  0
POLYLINE
  5
24B04
100
AcDbEntity
  8
0
100
AcDb2dPolyline
 66
     1
 10
0.0
 20
0.0
 30
0.0
  0
VERTEX
  5
24D47
100
AcDbEntity
  8
0
100
AcDbVertex
100
AcDb2dVertex
 10
1189.561101
 20
488.809945
 30
0.0
  0
VERTEX
  5
24D48
100
AcDbEntity
  8
0
100
AcDbVertex
100
AcDb2dVertex
 10
1193.90461
 20
488.809945
 30
0.0
  0
SEQEND
  5
24D49
100
AcDbEntity
  8
0
  0
LINE
  5
24B05
100
AcDbEntity
  8
0
100
AcDbLine
 10
1196.052853
 20
490.563978
 30
0.0
 11
1201.789786
 21
490.563978
 31
0.0
  0
ARC
  5
24B06
100
AcDbEntity
  8
0
100
AcDbCircle
 10
1179.655408
 20
518.782755
 30
0.0
 40
6.0
100
AcDbArc
 50
65.806806
 51
86.044902
  0
LINE
  5
24B07
100
AcDbEntity
  8
0
100
AcDbLine
 10
1185.14522
 20
527.809945
 30
0.0
 11
1181.609686
 21
527.809945
 31
0.0
  0
ELLIPSE
  5
24B08
100
AcDbEntity
  8
0
100
AcDbEllipse
 10
1187.580055
 20
507.809945
 30
0.0
 11
-0.0000000000000013
 21
-21.0
 31
0.0
210
0.0
220
0.0
230
-1.0
 40
0.707107
 41
3.581568608380711
 42
3.748814249995137
  0
ELLIPSE
  5
24B09
100
AcDbEntity
  8
0
100
AcDbEllipse
 10
1193.316988
 20
507.809945
 30
0.0
 11
-0.0000000000000013
 21
-21.0
 31
0.0
210
0.0
220
0.0
230
-1.0
 40
0.707107
 41
3.581568608380711
 42
3.748814249995137
  0
LINE
  5
24B0A
100
AcDbEntity
  8
0
100
AcDbLine
 10
1196.052853
 20
525.055912
 30
0.0
 11
1201.789786
 21
525.055912
 31
0.0
  0
LINE
  5
24B0B
100
AcDbEntity
  8
0
100
AcDbLine
 10
1202.380998
 20
506.117559
 30
0.0
 11
1208.117931
 21
506.117559
 31
0.0
  0
LINE
  5
24B0C
100
AcDbEntity
  8
0
100
AcDbLine
 10
1202.380998
 20
509.502331
 30
0.0
 11
1208.117931
 21
509.502331
 31
0.0
  0
ELLIPSE
  5
24B0D
100
AcDbEntity
  8
0
100
AcDbEllipse
 10
1187.580055
 20
507.809945
 30
0.0
 11
-0.0000000000000013
 21
-21.0
 31
0.0
210
0.0
220
0.0
230
-1.0
 40
0.707107
 41
4.631711697362801
 42
4.793066263406571
  0
ELLIPSE
  5
24B0E
100
AcDbEntity
  8
0
100
AcDbEllipse
 10
1193.316988
 20
507.809945
 30
0.0
 11
-0.0000000000000013
 21
-21.0
 31
0.0
210
0.0
220
0.0
230
-1.0
 40
0.707107
 41
4.631711697362801
 42
4.793066263406571
  0
POLYLINE
  5
24B0F
100
AcDbEntity
  8
0
100
AcDb2dPolyline
 66
     1
 10
0.0
 20
0.0
 30
0.0
  0
VERTEX
  5
24D4A
100
AcDbEntity
  8
0
100
AcDbVertex
100
AcDb2dVertex
 10
1202.380998
 20
509.502331
 30
0.0
  0
VERTEX
  5
24D4B
100
AcDbEntity
  8
0
100
AcDbVertex
100
AcDb2dVertex
 10
1196.052853
 20
525.055912
 30
0.0
  0
SEQEND
  5
24D4C
100
AcDbEntity
  8
0
  0
POLYLINE
  5
24B10
100
AcDbEntity
  8
0
100
AcDb2dPolyline
 66
     1
 10
0.0
 20
0.0
 30
0.0
  0
VERTEX
  5
24D4D
100
AcDbEntity
  8
0
100
AcDbVertex
100
AcDb2dVertex
 10
1208.117931
 20
509.502331
 30
0.0
  0
VERTEX
  5
24D4E
100
AcDbEntity
  8
0
100
AcDbVertex
100
AcDb2dVertex
 10
1201.789786
 20
525.055912
 30
0.0
  0
SEQEND
  5
24D4F
100
AcDbEntity
  8
0
  0
POLYLINE
  5
24B11
100
AcDbEntity
  8
0
100
AcDb2dPolyline
 66
     1
 10
0.0
 20
0.0
 30
0.0
  0
VERTEX
  5
24D50
100
AcDbEntity
  8
0
100
AcDbVertex
100
AcDb2dVertex
 10
1199.641543
 20
526.809945
 30
0.0
  0
VERTEX
  5
24D51
100
AcDbEntity
  8
0
100
AcDbVertex
100
AcDb2dVertex
 10
1189.561101
 20
526.809945
 30
0.0
  0
SEQEND
  5
24D52
100
AcDbEntity
  8
0
  0
POLYLINE
  5
24B12
100
AcDbEntity
  8
0
100
AcDb2dPolyline
 66
     1
 10
0.0
 20
0.0
 30
0.0
  0
VERTEX
  5
24D53
100
AcDbEntity
  8
0
100
AcDbVertex
100
AcDb2dVertex
 10
1193.90461
 20
526.809945
 30
0.0
  0
VERTEX
  5
24D54
100
AcDbEntity
  8
0
100
AcDbVertex
100
AcDb2dVertex
 10
1189.561101
 20
526.809945
 30
0.0
  0
SEQEND
  5
24D55
100
AcDbEntity
  8
0
  0
LINE
  5
24B13
100
AcDbEntity
  8
0
100
AcDbLine
 10
1127.774953
 20
539.147896
 30
0.0
 11
1127.017441
 21
540.459945
 31
0.0
  0
ARC
  5
24B14
100
AcDbEntity
  8
0
100
AcDbCircle
 10
1105.16623
 20
677.762194
 30
0.0
 40
11.5
100
AcDbArc
 50
180.0
 51
225.0
  0
ARC
  5
24B15
100
AcDbEntity
  8
0
100
AcDbCircle
 10
1107.66623
 20
735.998738
 30
0.0
 40
14.0
100
AcDbArc
 50
90.0
 51
180.0
  0
LINE
  5
24B16
100
AcDbEntity
  8
0
100
AcDbLine
 10
958.9771
 20
699.117558
 30
0.0
 11
985.140051
 21
672.954607
 31
0.0
  0
LINE
  5
24B17
100
AcDbEntity
  8
0
100
AcDbLine
 10
993.665371
 20
677.944394
 30
0.0
 11
987.928438
 21
672.207461
 31
0.0
  0
ARC
  5
24B18
100
AcDbEntity
  8
0
100
AcDbCircle
 10
989.209601
 20
679.865067
 30
0.0
 40
7.764039
100
AcDbArc
 50
189.497951
 51
249.497951
  0
LINE
  5
24B19
100
AcDbEntity
  8
0
100
AcDbLine
 10
1009.02123
 20
689.185539
 30
0.0
 11
1009.02123
 21
674.998738
 31
0.0
  0
LINE
  5
24B1A
100
AcDbEntity
  8
0
100
AcDbLine
 10
1055.02123
 20
674.998738
 30
0.0
 11
1055.02123
 21
692.498738
 31
0.0
  0
LINE
  5
24B1B
100
AcDbEntity
  8
0
100
AcDbLine
 10
1009.02123
 20
674.998738
 30
0.0
 11
1010.02123
 21
673.998738
 31
0.0
  0
LINE
  5
24B1C
100
AcDbEntity
  8
0
100
AcDbLine
 10
987.928438
 20
672.207461
 30
0.0
 11
985.140051
 21
672.954607
 31
0.0
  0
LINE
  5
24B1D
100
AcDbEntity
  8
0
100
AcDbLine
 10
1054.02123
 20
673.998738
 30
0.0
 11
1032.02123
 21
673.998738
 31
0.0
  0
LINE
  5
24B1E
100
AcDbEntity
  8
0
100
AcDbLine
 10
1032.02123
 20
673.998738
 30
0.0
 11
1010.02123
 21
673.998738
 31
0.0
  0
LINE
  5
24B1F
100
AcDbEntity
  8
0
100
AcDbLine
 10
1055.02123
 20
674.998738
 30
0.0
 11
1054.02123
 21
673.998738
 31
0.0
  0
LINE
  5
24B20
100
AcDbEntity
  8
0
100
AcDbLine
 10
1010.02123
 20
769.998738
 30
0.0
 11
1009.02123
 21
768.998738
 31
0.0
  0
LINE
  5
24B21
100
AcDbEntity
  8
0
100
AcDbLine
 10
1009.02123
 20
749.801373
 30
0.0
 11
1009.02123
 21
768.998738
 31
0.0
  0
LINE
  5
24B22
100
AcDbEntity
  8
0
100
AcDbLine
 10
972.491574
 20
699.118192
 30
0.0
 11
966.754641
 21
693.381259
 31
0.0
  0
ARC
  5
24B23
100
AcDbEntity
  8
0
100
AcDbCircle
 10
992.164803
 20
706.142311
 30
0.0
 40
28.434501
100
AcDbArc
 50
206.665926
 51
243.334074
  0
LINE
  5
24B24
100
AcDbEntity
  8
0
100
AcDbLine
 10
966.755274
 20
706.895733
 30
0.0
 11
992.918225
 21
680.732782
 31
0.0
  0
LINE
  5
24B25
100
AcDbEntity
  8
0
100
AcDbLine
 10
970.34333
 20
701.266435
 30
0.0
 11
964.606397
 21
695.529502
 31
0.0
  0
ARC
  5
24B26
100
AcDbEntity
  8
0
100
AcDbCircle
 10
962.685724
 20
699.985273
 30
0.0
 40
7.764039
100
AcDbArc
 50
9.497951
 51
69.497951
  0
LINE
  5
24B27
100
AcDbEntity
  8
0
100
AcDbLine
 10
963.966887
 20
707.642879
 30
0.0
 11
958.229953
 21
701.905946
 31
0.0
  0
ARC
  5
24B28
100
AcDbEntity
  8
0
100
AcDbCircle
 10
965.887559
 20
703.187108
 30
0.0
 40
7.764039
100
AcDbArc
 50
200.502049
 51
260.502049
  0
LINE
  5
24B29
100
AcDbEntity
  8
0
100
AcDbLine
 10
958.229953
 20
701.905946
 30
0.0
 11
958.9771
 21
699.117558
 31
0.0
  0
LINE
  5
24B2A
100
AcDbEntity
  8
0
100
AcDbLine
 10
964.606397
 20
695.529502
 30
0.0
 11
966.754641
 21
693.381259
 31
0.0
  0
LINE
  5
24B2B
100
AcDbEntity
  8
0
100
AcDbLine
 10
963.966887
 20
707.642879
 30
0.0
 11
966.755274
 21
706.895733
 31
0.0
  0
ARC
  5
24B2C
100
AcDbEntity
  8
0
100
AcDbCircle
 10
972.230148
 20
715.90614
 30
0.0
 40
3.0
100
AcDbArc
 50
270.0
 51
315.0
  0
LINE
  5
24B2D
100
AcDbEntity
  8
0
100
AcDbLine
 10
997.514419
 20
687.450296
 30
0.0
 11
973.472789
 21
711.491927
 31
0.0
  0
LINE
  5
24B2E
100
AcDbEntity
  8
0
100
AcDbLine
 10
993.978885
 20
681.086335
 30
0.0
 11
967.108828
 21
707.956393
 31
0.0
  0
ARC
  5
24B2F
100
AcDbEntity
  8
0
100
AcDbCircle
 10
986.007765
 20
676.663232
 30
0.0
 40
7.764039
100
AcDbArc
 50
20.502049
 51
80.502049
  0
LINE
  5
24B30
100
AcDbEntity
  8
0
100
AcDbLine
 10
987.288928
 20
684.320838
 30
0.0
 11
985.140684
 21
686.469081
 31
0.0
  0
LINE
  5
24B31
100
AcDbEntity
  8
0
100
AcDbLine
 10
981.551994
 20
678.583905
 30
0.0
 11
979.403751
 21
680.732148
 31
0.0
  0
LINE
  5
24B32
100
AcDbEntity
  8
0
100
AcDbLine
 10
970.34333
 20
701.266435
 30
0.0
 11
972.491574
 21
699.118192
 31
0.0
  0
LINE
  5
24B33
100
AcDbEntity
  8
0
100
AcDbLine
 10
985.140684
 20
686.469081
 30
0.0
 11
979.403751
 21
680.732148
 31
0.0
  0
LINE
  5
24B34
100
AcDbEntity
  8
0
100
AcDbLine
 10
987.288928
 20
684.320838
 30
0.0
 11
981.551994
 21
678.583905
 31
0.0
  0
ARC
  5
24B35
100
AcDbEntity
  8
0
100
AcDbCircle
 10
959.730521
 20
673.708029
 30
0.0
 40
28.434501
100
AcDbArc
 50
26.665926
 51
63.334074
  0
LINE
  5
24B36
100
AcDbEntity
  8
0
100
AcDbLine
 10
970.644362
 20
712.90614
 30
0.0
 11
972.230148
 21
712.90614
 31
0.0
  0
LINE
  5
24B37
100
AcDbEntity
  8
0
100
AcDbLine
 10
967.108828
 20
709.370606
 30
0.0
 11
970.644362
 21
712.90614
 31
0.0
  0
LINE
  5
24B38
100
AcDbEntity
  8
0
100
AcDbLine
 10
967.108828
 20
709.370606
 30
0.0
 11
967.108828
 21
707.956393
 31
0.0
  0
LINE
  5
24B39
100
AcDbEntity
  8
0
100
AcDbLine
 10
968.523041
 20
705.127966
 30
0.0
 11
969.230148
 21
705.835072
 31
0.0
  0
ARC
  5
24B3A
100
AcDbEntity
  8
0
100
AcDbCircle
 10
942.572222
 20
775.343669
 30
0.0
 40
104.0
100
AcDbArc
 50
303.692313
 51
306.368863
  0
ARC
  5
24B3B
100
AcDbEntity
  8
0
100
AcDbCircle
 10
1006.02123
 20
689.185539
 30
0.0
 40
3.0
100
AcDbArc
 50
0.0
 51
126.368863
  0
LINE
  5
24B3C
100
AcDbEntity
  8
0
100
AcDbLine
 10
998.928633
 20
684.621869
 30
0.0
 11
998.928633
 21
686.316614
 31
0.0
  0
LINE
  5
24B3D
100
AcDbEntity
  8
0
100
AcDbLine
 10
995.393099
 20
681.086335
 30
0.0
 11
993.978885
 21
681.086335
 31
0.0
  0
LINE
  5
24B3E
100
AcDbEntity
  8
0
100
AcDbLine
 10
993.665371
 20
677.944394
 30
0.0
 11
992.918225
 21
680.732782
 31
0.0
  0
LINE
  5
24B3F
100
AcDbEntity
  8
0
100
AcDbLine
 10
991.150458
 20
682.500549
 30
0.0
 11
991.857565
 21
683.207655
 31
0.0
  0
LINE
  5
24B40
100
AcDbEntity
  8
0
100
AcDbLine
 10
995.393099
 20
681.086335
 30
0.0
 11
998.928633
 21
684.621869
 31
0.0
  0
ARC
  5
24B41
100
AcDbEntity
  8
0
100
AcDbCircle
 10
1001.928633
 20
686.316614
 30
0.0
 40
3.0
100
AcDbArc
 50
123.692313
 51
180.0
  0
ARC
  5
24B42
100
AcDbEntity
  8
0
100
AcDbCircle
 10
1061.366162
 20
656.54973
 30
0.0
 40
104.0
100
AcDbArc
 50
122.033057
 51
146.254713
  0
LINE
  5
24B43
100
AcDbEntity
  8
0
100
AcDbLine
 10
974.351468
 20
713.78482
 30
0.0
 11
974.88857
 21
714.321921
 31
0.0
  0
ARC
  5
24B44
100
AcDbEntity
  8
0
100
AcDbCircle
 10
1003.02123
 20
749.801373
 30
0.0
 40
6.0
100
AcDbArc
 50
302.033057
 51
0.0
  0
LINE
  5
24B45
100
AcDbEntity
  8
0
100
AcDbLine
 10
1062.81623
 20
683.498738
 30
0.0
 11
1062.81623
 21
750.498738
 31
0.0
  0
LINE
  5
24B46
100
AcDbEntity
  8
0
100
AcDbLine
 10
1075.81623
 20
683.498738
 30
0.0
 11
1075.81623
 21
750.498738
 31
0.0
  0
LINE
  5
24B47
100
AcDbEntity
  8
0
100
AcDbLine
 10
1022.02123
 20
748.998738
 30
0.0
 11
1022.02123
 21
762.998738
 31
0.0
  0
LINE
  5
24B48
100
AcDbEntity
  8
0
100
AcDbLine
 10
1042.02123
 20
748.998738
 30
0.0
 11
1042.02123
 21
762.998738
 31
0.0
  0
LINE
  5
24B49
100
AcDbEntity
  8
0
100
AcDbLine
 10
1055.02123
 20
741.498738
 30
0.0
 11
1055.02123
 21
768.998738
 31
0.0
  0
LINE
  5
24B4A
100
AcDbEntity
  8
0
100
AcDbLine
 10
1055.52123
 20
739.663199
 30
0.0
 11
1045.02123
 21
737.157935
 31
0.0
  0
LINE
  5
24B4B
100
AcDbEntity
  8
0
100
AcDbLine
 10
1059.02123
 20
737.157935
 30
0.0
 11
1045.02123
 21
737.157935
 31
0.0
  0
LINE
  5
24B4C
100
AcDbEntity
  8
0
100
AcDbLine
 10
1059.02123
 20
696.83954
 30
0.0
 11
1045.02123
 21
696.83954
 31
0.0
  0
LINE
  5
24B4D
100
AcDbEntity
  8
0
100
AcDbLine
 10
1055.52123
 20
694.334276
 30
0.0
 11
1045.02123
 21
696.83954
 31
0.0
  0
LINE
  5
24B4E
100
AcDbEntity
  8
0
100
AcDbLine
 10
1045.02123
 20
696.83954
 30
0.0
 11
1045.02123
 21
737.157935
 31
0.0
  0
LINE
  5
24B4F
100
AcDbEntity
  8
0
100
AcDbLine
 10
1038.62123
 20
709.848738
 30
0.0
 11
1038.62123
 21
724.148738
 31
0.0
  0
ARC
  5
24B50
100
AcDbEntity
  8
0
100
AcDbCircle
 10
1052.282618
 20
716.998738
 30
0.0
 40
13.661388
100
AcDbArc
 50
162.412046
 51
197.587954
  0
LINE
  5
24B51
100
AcDbEntity
  8
0
100
AcDbLine
 10
1042.02123
 20
694.998738
 30
0.0
 11
1022.02123
 21
694.998738
 31
0.0
  0
LINE
  5
24B52
100
AcDbEntity
  8
0
100
AcDbLine
 10
1042.02123
 20
680.998738
 30
0.0
 11
1022.02123
 21
680.998738
 31
0.0
  0
LINE
  5
24B53
100
AcDbEntity
  8
0
100
AcDbLine
 10
1016.061972
 20
703.228432
 30
0.0
 11
1043.77852
 21
703.228432
 31
0.0
  0
LINE
  5
24B54
100
AcDbEntity
  8
0
100
AcDbLine
 10
1022.02123
 20
694.998738
 30
0.0
 11
1022.02123
 21
680.998738
 31
0.0
  0
LINE
  5
24B55
100
AcDbEntity
  8
0
100
AcDbLine
 10
1042.02123
 20
694.998738
 30
0.0
 11
1042.02123
 21
680.998738
 31
0.0
  0
LINE
  5
24B56
100
AcDbEntity
  8
0
100
AcDbLine
 10
1039.259842
 20
712.870683
 30
0.0
 11
1045.02123
 21
712.870683
 31
0.0
  0
LINE
  5
24B57
100
AcDbEntity
  8
0
100
AcDbLine
 10
1039.259842
 20
708.742629
 30
0.0
 11
1045.02123
 21
708.742629
 31
0.0
  0
ARC
  5
24B58
100
AcDbEntity
  8
0
100
AcDbCircle
 10
1042.276057
 20
710.806656
 30
0.0
 40
3.654827
100
AcDbArc
 50
145.615753
 51
214.384247
  0
LINE
  5
24B59
100
AcDbEntity
  8
0
100
AcDbLine
 10
1038.62123
 20
709.848738
 30
0.0
 11
1039.259842
 21
708.742629
 31
0.0
  0
LINE
  5
24B5A
100
AcDbEntity
  8
0
100
AcDbLine
 10
1020.26394
 20
730.769043
 30
0.0
 11
1043.77852
 21
730.769043
 31
0.0
  0
LINE
  5
24B5B
100
AcDbEntity
  8
0
100
AcDbLine
 10
1042.02123
 20
748.998738
 30
0.0
 11
1022.02123
 21
748.998738
 31
0.0
  0
ARC
  5
24B5C
100
AcDbEntity
  8
0
100
AcDbCircle
 10
1042.276057
 20
723.190819
 30
0.0
 40
3.654827
100
AcDbArc
 50
145.615753
 51
214.384247
  0
LINE
  5
24B5D
100
AcDbEntity
  8
0
100
AcDbLine
 10
1038.62123
 20
724.148738
 30
0.0
 11
1039.259842
 21
725.254846
 31
0.0
  0
LINE
  5
24B5E
100
AcDbEntity
  8
0
100
AcDbLine
 10
1039.259842
 20
721.126792
 30
0.0
 11
1045.02123
 21
721.126792
 31
0.0
  0
LINE
  5
24B5F
100
AcDbEntity
  8
0
100
AcDbLine
 10
1039.259842
 20
725.254846
 30
0.0
 11
1045.02123
 21
725.254846
 31
0.0
  0
LINE
  5
24B60
100
AcDbEntity
  8
0
100
AcDbLine
 10
1093.66623
 20
735.998738
 30
0.0
 11
1093.66623
 21
677.762194
 31
0.0
  0
LINE
  5
24B61
100
AcDbEntity
  8
0
100
AcDbLine
 10
1089.66623
 20
731.998738
 30
0.0
 11
1089.66623
 21
701.998738
 31
0.0
  0
LINE
  5
24B62
100
AcDbEntity
  8
0
100
AcDbLine
 10
1083.66623
 20
734.498738
 30
0.0
 11
1083.66623
 21
699.498738
 31
0.0
  0
LINE
  5
24B63
100
AcDbEntity
  8
0
100
AcDbLine
 10
1059.02123
 20
694.498738
 30
0.0
 11
1059.02123
 21
739.498738
 31
0.0
  0
LINE
  5
24B64
100
AcDbEntity
  8
0
100
AcDbLine
 10
1078.02123
 20
713.096238
 30
0.0
 11
1078.02123
 21
720.901238
 31
0.0
  0
LINE
  5
24B65
100
AcDbEntity
  8
0
100
AcDbLine
 10
1075.81623
 20
683.498738
 30
0.0
 11
1062.81623
 21
683.498738
 31
0.0
  0
LINE
  5
24B66
100
AcDbEntity
  8
0
100
AcDbLine
 10
1062.81623
 20
699.498738
 30
0.0
 11
1059.02123
 21
699.498738
 31
0.0
  0
LINE
  5
24B67
100
AcDbEntity
  8
0
100
AcDbLine
 10
1057.02123
 20
694.498738
 30
0.0
 11
1059.02123
 21
694.498738
 31
0.0
  0
ARC
  5
24B68
100
AcDbEntity
  8
0
100
AcDbCircle
 10
1057.02123
 20
692.498738
 30
0.0
 40
2.0
100
AcDbArc
 50
90.0
 51
180.0
  0
LINE
  5
24B69
100
AcDbEntity
  8
0
100
AcDbLine
 10
1059.02123
 20
712.236238
 30
0.0
 11
1062.81623
 21
712.236238
 31
0.0
  0
LINE
  5
24B6A
100
AcDbEntity
  8
0
100
AcDbLine
 10
1093.66623
 20
697.998738
 30
0.0
 11
1089.66623
 21
701.998738
 31
0.0
  0
LINE
  5
24B6B
100
AcDbEntity
  8
0
100
AcDbLine
 10
1083.66623
 20
699.498738
 30
0.0
 11
1075.81623
 21
699.498738
 31
0.0
  0
ARC
  5
24B6C
100
AcDbEntity
  8
0
100
AcDbCircle
 10
1085.66623
 20
699.998738
 30
0.0
 40
2.0
100
AcDbArc
 50
90.0
 51
180.0
  0
LINE
  5
24B6D
100
AcDbEntity
  8
0
100
AcDbLine
 10
1089.66623
 20
701.998738
 30
0.0
 11
1085.66623
 21
701.998738
 31
0.0
  0
LINE
  5
24B6E
100
AcDbEntity
  8
0
100
AcDbLine
 10
1078.02123
 20
713.096238
 30
0.0
 11
1077.524709
 21
712.236238
 31
0.0
  0
LINE
  5
24B6F
100
AcDbEntity
  8
0
100
AcDbLine
 10
1077.524709
 20
712.236238
 30
0.0
 11
1075.81623
 21
712.236238
 31
0.0
  0
ARC
  5
24B70
100
AcDbEntity
  8
0
100
AcDbCircle
 10
1057.02123
 20
741.498738
 30
0.0
 40
2.0
100
AcDbArc
 50
180.0
 51
270.0
  0
LINE
  5
24B71
100
AcDbEntity
  8
0
100
AcDbLine
 10
1059.02123
 20
721.761238
 30
0.0
 11
1062.81623
 21
721.761238
 31
0.0
  0
LINE
  5
24B72
100
AcDbEntity
  8
0
100
AcDbLine
 10
1062.81623
 20
734.498738
 30
0.0
 11
1059.02123
 21
734.498738
 31
0.0
  0
LINE
  5
24B73
100
AcDbEntity
  8
0
100
AcDbLine
 10
1057.02123
 20
739.498738
 30
0.0
 11
1059.02123
 21
739.498738
 31
0.0
  0
LINE
  5
24B74
100
AcDbEntity
  8
0
100
AcDbLine
 10
1093.66623
 20
735.998738
 30
0.0
 11
1089.66623
 21
731.998738
 31
0.0
  0
LINE
  5
24B75
100
AcDbEntity
  8
0
100
AcDbLine
 10
1083.66623
 20
734.498738
 30
0.0
 11
1075.81623
 21
734.498738
 31
0.0
  0
LINE
  5
24B76
100
AcDbEntity
  8
0
100
AcDbLine
 10
1078.02123
 20
720.901238
 30
0.0
 11
1077.524709
 21
721.761238
 31
0.0
  0
LINE
  5
24B77
100
AcDbEntity
  8
0
100
AcDbLine
 10
1077.524709
 20
721.761238
 30
0.0
 11
1075.81623
 21
721.761238
 31
0.0
  0
ARC
  5
24B78
100
AcDbEntity
  8
0
100
AcDbCircle
 10
1085.66623
 20
733.998738
 30
0.0
 40
2.0
100
AcDbArc
 50
180.0
 51
270.0
  0
LINE
  5
24B79
100
AcDbEntity
  8
0
100
AcDbLine
 10
1089.66623
 20
731.998738
 30
0.0
 11
1085.66623
 21
731.998738
 31
0.0
  0
LINE
  5
24B7A
100
AcDbEntity
  8
0
100
AcDbLine
 10
1032.02123
 20
769.998738
 30
0.0
 11
1054.02123
 21
769.998738
 31
0.0
  0
INSERT
  5
24B7B
100
AcDbEntity
  8
0
100
AcDbBlockReference
  2
YA
 10
1032.02123
 20
775.901676
 30
0.0
 41
-1.630435
 42
1.630435
 43
1.630435
 50
90.0
  0
LINE
  5
24B7C
100
AcDbEntity
  8
0
100
AcDbLine
 10
1032.02123
 20
769.998738
 30
0.0
 11
1010.02123
 21
769.998738
 31
0.0
  0
LINE
  5
24B7D
100
AcDbEntity
  8
0
100
AcDbLine
 10
1042.02123
 20
762.998738
 30
0.0
 11
1022.02123
 21
762.998738
 31
0.0
  0
LINE
  5
24B7E
100
AcDbEntity
  8
0
100
AcDbLine
 10
1075.81623
 20
750.498738
 30
0.0
 11
1062.81623
 21
750.498738
 31
0.0
  0
LINE
  5
24B7F
100
AcDbEntity
  8
0
100
AcDbLine
 10
1054.02123
 20
769.998738
 30
0.0
 11
1055.02123
 21
768.998738
 31
0.0
  0
ARC
  5
24B80
100
AcDbEntity
  8
0
100
AcDbCircle
 10
1196.66623
 20
677.762194
 30
0.0
 40
11.5
100
AcDbArc
 50
315.0
 51
0.0
  0
ARC
  5
24B81
100
AcDbEntity
  8
0
100
AcDbCircle
 10
1176.402774
 20
657.498738
 30
0.0
 40
11.5
100
AcDbArc
 50
270.0
 51
315.0
  0
LINE
  5
24B82
100
AcDbEntity
  8
0
100
AcDbLine
 10
1176.402774
 20
645.998738
 30
0.0
 11
1125.429686
 21
645.998738
 31
0.0
  0
ARC
  5
24B83
100
AcDbEntity
  8
0
100
AcDbCircle
 10
1125.429686
 20
657.498738
 30
0.0
 40
11.5
100
AcDbArc
 50
225.0
 51
270.0
  0
LINE
  5
24B84
100
AcDbEntity
  8
0
100
AcDbLine
 10
1097.034502
 20
669.630466
 30
0.0
 11
1117.297958
 21
649.36701
 31
0.0
  0
LINE
  5
24B85
100
AcDbEntity
  8
0
100
AcDbLine
 10
1204.797958
 20
669.630466
 30
0.0
 11
1184.534502
 21
649.36701
 31
0.0
  0
LINE
  5
24B86
100
AcDbEntity
  8
0
100
AcDbLine
 10
1194.16623
 20
749.998738
 30
0.0
 11
1107.66623
 21
749.998738
 31
0.0
  0
ARC
  5
24B87
100
AcDbEntity
  8
0
100
AcDbCircle
 10
1194.16623
 20
735.998738
 30
0.0
 40
14.0
100
AcDbArc
 50
0.0
 51
90.0
  0
LINE
  5
24B88
100
AcDbEntity
  8
0
100
AcDbLine
 10
1208.16623
 20
735.998738
 30
0.0
 11
1208.16623
 21
677.762194
 31
0.0
  0
ARC
  5
24B89
100
AcDbEntity
  8
0
100
AcDbCircle
 10
1305.56768
 20
287.248632
 30
0.0
 40
33.5
100
AcDbArc
 50
313.358981
 51
46.641019
  0
ARC
  5
24B8A
100
AcDbEntity
  8
0
100
AcDbCircle
 10
1330.693248
 20
269.957219
 30
0.0
 40
3.0
100
AcDbArc
 50
275.0
 51
325.46592
  0
LINE
  5
24B8B
100
AcDbEntity
  8
0
100
AcDbLine
 10
1325.56768
 20
269.721006
 30
0.0
 11
1325.56768
 21
264.748632
 31
0.0
  0
LINE
  5
24B8C
100
AcDbEntity
  8
0
100
AcDbLine
 10
1322.813646
 20
271.51633
 30
0.0
 11
1322.813646
 21
265.779396
 31
0.0
  0
ARC
  5
24B8D
100
AcDbEntity
  8
0
100
AcDbCircle
 10
1320.56768
 20
266.12983
 30
0.0
 40
8.0
100
AcDbArc
 50
360.0
 51
55.356559
  0
POLYLINE
  5
24B8E
100
AcDbEntity
  8
0
100
AcDb2dPolyline
 66
     1
 10
0.0
 20
0.0
 30
0.0
  0
VERTEX
  5
24D56
100
AcDbEntity
  8
0
100
AcDbVertex
100
AcDb2dVertex
 10
1324.56768
 20
250.982042
 30
0.0
  0
VERTEX
  5
24D57
100
AcDbEntity
  8
0
100
AcDbVertex
100
AcDb2dVertex
 10
1324.56768
 20
269.368086
 30
0.0
  0
SEQEND
  5
24D58
100
AcDbEntity
  8
0
  0
LINE
  5
24B8F
100
AcDbEntity
  8
0
100
AcDbLine
 10
1328.542923
 20
266.75763
 30
0.0
 11
1330.954716
 21
266.968635
 31
0.0
  0
ARC
  5
24B90
100
AcDbEntity
  8
0
100
AcDbCircle
 10
1326.279995
 20
267.248632
 30
0.0
 40
2.0
100
AcDbArc
 50
248.507904
 51
270.0
  0
LINE
  5
24B91
100
AcDbEntity
  8
0
100
AcDbLine
 10
1326.56768
 20
265.248632
 30
0.0
 11
1326.279995
 21
265.248632
 31
0.0
  0
ELLIPSE
  5
24B92
100
AcDbEntity
  8
0
100
AcDbEllipse
 10
1305.56768
 20
257.306598
 30
0.0
 11
-21.0
 21
0.0
 31
0.0
210
0.0
220
0.0
230
1.0
 40
0.707107
 41
3.581568608380711
 42
3.748814249995137
  0
LINE
  5
24B93
100
AcDbEntity
  8
0
100
AcDbLine
 10
1328.56768
 20
245.248632
 30
0.0
 11
1327.56768
 21
244.248632
 31
0.0
  0
LINE
  5
24B94
100
AcDbEntity
  8
0
100
AcDbLine
 10
1328.56768
 20
245.248632
 30
0.0
 11
1327.56768
 21
244.248632
 31
0.0
  0
LINE
  5
24B95
100
AcDbEntity
  8
0
100
AcDbLine
 10
1326.56768
 20
251.248632
 30
0.0
 11
1326.279995
 21
251.248632
 31
0.0
  0
ARC
  5
24B96
100
AcDbEntity
  8
0
100
AcDbCircle
 10
1326.279995
 20
249.248632
 30
0.0
 40
2.0
100
AcDbArc
 50
90.0
 51
135.0
  0
ELLIPSE
  5
24B97
100
AcDbEntity
  8
0
100
AcDbEllipse
 10
1305.56768
 20
257.306598
 30
0.0
 11
-21.0
 21
0.0
 31
0.0
210
0.0
220
0.0
230
-1.0
 40
0.707107
 41
3.581568608380711
 42
3.748814249995137
  0
ARC
  5
24B98
100
AcDbEntity
  8
0
100
AcDbCircle
 10
1326.56768
 20
253.248632
 30
0.0
 40
2.0
100
AcDbArc
 50
270.0
 51
0.0
  0
LINE
  5
24B99
100
AcDbEntity
  8
0
100
AcDbLine
 10
1328.56768
 20
266.12983
 30
0.0
 11
1328.56768
 21
245.248632
 31
0.0
  0
LINE
  5
24B9A
100
AcDbEntity
  8
0
100
AcDbLine
 10
1326.279995
 20
252.383646
 30
0.0
 11
1326.279995
 21
264.113618
 31
0.0
  0
ARC
  5
24B9B
100
AcDbEntity
  8
0
100
AcDbCircle
 10
1326.56768
 20
263.248632
 30
0.0
 40
2.0
100
AcDbArc
 50
360.0
 51
90.0
  0
ARC
  5
24B9C
100
AcDbEntity
  8
0
100
AcDbCircle
 10
1320.56768
 20
308.367434
 30
0.0
 40
8.0
100
AcDbArc
 50
300.0
 51
0.0
  0
ARC
  5
24B9D
100
AcDbEntity
  8
0
100
AcDbCircle
 10
1228.074804
 20
288.556926
 30
0.0
 40
96.557283
100
AcDbArc
 50
352.28739
 51
11.988228
  0
LINE
  5
24B9E
100
AcDbEntity
  8
0
100
AcDbLine
 10
1337.540324
 20
297.248632
 30
0.0
 11
1338.586614
 21
297.248632
 31
0.0
  0
LINE
  5
24B9F
100
AcDbEntity
  8
0
100
AcDbLine
 10
1337.540324
 20
277.248632
 30
0.0
 11
1338.586614
 21
277.248632
 31
0.0
  0
ARC
  5
24BA0
100
AcDbEntity
  8
0
100
AcDbCircle
 10
1305.56768
 20
287.248632
 30
0.0
 40
34.5
100
AcDbArc
 50
343.15072
 51
16.84928
  0
LINE
  5
24BA1
100
AcDbEntity
  8
0
100
AcDbLine
 10
1324.56768
 20
301.439231
 30
0.0
 11
1323.825576
 21
301.010777
 31
0.0
  0
ELLIPSE
  5
24BA2
100
AcDbEntity
  8
0
100
AcDbEllipse
 10
1305.56768
 20
263.043531
 30
0.0
 11
-21.0
 21
0.0
 31
0.0
210
0.0
220
0.0
230
1.0
 40
0.707107
 41
3.581568608380711
 42
3.748814249995137
  0
ARC
  5
24BA3
100
AcDbEntity
  8
0
100
AcDbCircle
 10
1331.066615
 20
287.248094
 30
0.0
 40
6.750069
100
AcDbArc
 50
196.055811
 51
162.488025
  0
POLYLINE
  5
24BA4
100
AcDbEntity
  8
0
100
AcDb2dPolyline
 66
     1
 10
0.0
 20
0.0
 30
0.0
  0
VERTEX
  5
24D59
100
AcDbEntity
  8
0
100
AcDbVertex
100
AcDb2dVertex
 10
1324.578991
 20
291.758572
 30
0.0
  0
VERTEX
  5
24D5A
100
AcDbEntity
  8
0
100
AcDbVertex
100
AcDb2dVertex
 10
1331.066615
 20
295.504203
 30
0.0
  0
VERTEX
  5
24D5B
100
AcDbEntity
  8
0
100
AcDbVertex
100
AcDb2dVertex
 10
1338.216615
 20
291.376149
 30
0.0
  0
VERTEX
  5
24D5C
100
AcDbEntity
  8
0
100
AcDbVertex
100
AcDb2dVertex
 10
1338.216615
 20
283.12004
 30
0.0
  0
VERTEX
  5
24D5D
100
AcDbEntity
  8
0
100
AcDbVertex
100
AcDb2dVertex
 10
1331.066615
 20
278.991986
 30
0.0
  0
VERTEX
  5
24D5E
100
AcDbEntity
  8
0
100
AcDbVertex
100
AcDb2dVertex
 10
1324.460668
 20
282.805931
 30
0.0
  0
SEQEND
  5
24D5F
100
AcDbEntity
  8
0
  0
LINE
  5
24BA5
100
AcDbEntity
  8
0
100
AcDbLine
 10
1327.56768
 20
340.248632
 30
0.0
 11
1328.56768
 21
339.248632
 31
0.0
  0
LINE
  5
24BA6
100
AcDbEntity
  8
0
100
AcDbLine
 10
1327.56768
 20
340.248632
 30
0.0
 11
1328.56768
 21
339.248632
 31
0.0
  0
ARC
  5
24BA7
100
AcDbEntity
  8
0
100
AcDbCircle
 10
1330.693248
 20
304.53897
 30
0.0
 40
3.0
100
AcDbArc
 50
34.53408
 51
85.0
  0
ARC
  5
24BA8
100
AcDbEntity
  8
0
100
AcDbCircle
 10
1326.279995
 20
335.248632
 30
0.0
 40
2.0
100
AcDbArc
 50
225.0
 51
270.0
  0
LINE
  5
24BA9
100
AcDbEntity
  8
0
100
AcDbLine
 10
1326.56768
 20
333.248632
 30
0.0
 11
1326.279995
 21
333.248632
 31
0.0
  0
ARC
  5
24BAA
100
AcDbEntity
  8
0
100
AcDbCircle
 10
1326.56768
 20
331.248632
 30
0.0
 40
2.0
100
AcDbArc
 50
360.0
 51
90.0
  0
ARC
  5
24BAB
100
AcDbEntity
  8
0
100
AcDbCircle
 10
1326.279995
 20
317.248632
 30
0.0
 40
2.0
100
AcDbArc
 50
90.0
 51
135.0
  0
LINE
  5
24BAC
100
AcDbEntity
  8
0
100
AcDbLine
 10
1326.56768
 20
319.248632
 30
0.0
 11
1326.279995
 21
319.248632
 31
0.0
  0
ARC
  5
24BAD
100
AcDbEntity
  8
0
100
AcDbCircle
 10
1326.56768
 20
321.248632
 30
0.0
 40
2.0
100
AcDbArc
 50
270.0
 51
0.0
  0
ARC
  5
24BAE
100
AcDbEntity
  8
0
100
AcDbCircle
 10
1316.54049
 20
308.199061
 30
0.0
 40
6.0
100
AcDbArc
 50
3.955098
 51
24.193194
  0
ARC
  5
24BAF
100
AcDbEntity
  8
0
100
AcDbCircle
 10
1316.54049
 20
308.199061
 30
0.0
 40
6.0
100
AcDbArc
 50
3.955098
 51
24.193194
  0
LINE
  5
24BB0
100
AcDbEntity
  8
0
100
AcDbLine
 10
1326.279995
 20
332.113618
 30
0.0
 11
1326.279995
 21
320.383646
 31
0.0
  0
LINE
  5
24BB1
100
AcDbEntity
  8
0
100
AcDbLine
 10
1328.56768
 20
308.367434
 30
0.0
 11
1328.56768
 21
339.248632
 31
0.0
  0
LINE
  5
24BB2
100
AcDbEntity
  8
0
100
AcDbLine
 10
1328.542923
 20
307.738559
 30
0.0
 11
1330.954716
 21
307.527554
 31
0.0
  0
CIRCLE
  5
24BB6
100
AcDbEntity
  8
0
100
AcDbCircle
 10
873.978956
 20
268.248632
 30
0.0
 40
52.0
  0
CIRCLE
  5
24BB7
100
AcDbEntity
  8
0
100
AcDbCircle
 10
873.978956
 20
287.248632
 30
0.0
 40
14.0
  0
ELLIPSE
  5
24BB8
100
AcDbEntity
  8
0
100
AcDbEllipse
 10
873.978956
 20
229.748632
 30
0.0
 11
-18.0
 21
0.0
 31
0.0
210
0.0
220
0.0
230
1.0
 40
0.562874
 41
0.0
 42
6.283185307179586
  0
ARC
  5
24BB9
100
AcDbEntity
  8
0
100
AcDbCircle
 10
1305.56768
 20
268.248632
 30
0.0
 40
52.0
100
AcDbArc
 50
116.251214
 51
63.748786
  0
ELLIPSE
  5
24BBA
100
AcDbEntity
  8
0
100
AcDbEllipse
 10
1305.56768
 20
229.748632
 30
0.0
 11
-18.0
 21
0.0
 31
0.0
210
0.0
220
0.0
230
1.0
 40
0.562874
 41
0.0
 42
6.283185307179586
  0
VIEWPORT
  5
41
100
AcDbEntity
 67
     1
  8
0
100
AcDbViewport
 10
117.358407
 20
73.5
 30
0.0
 40
234.716814
 41
147.0
 68
    -1
 69
     1
1001
ACAD
1000
MVIEW
1002
{
1070
    16
1010
0.0
1020
0.0
1030
0.0
1010
0.0
1020
0.0
1030
1.0
1040
0.0
1040
147.0
1040
117.358407
1040
73.5
1040
50.0
1040
0.0
1040
0.0
1070
     0
1070
   100
1070
     1
1070
     1
1070
     0
1070
     0
1070
     0
1070
     0
1040
0.0
1040
0.0
1040
0.0
1040
1.0
1040
1.0
1040
0.0
1040
0.0
1070
     0
1002
{
1002
}
1002
}
  0
ENDSEC
  0
SECTION
  2
OBJECTS
  0
DICTIONARY
  5
C
100
AcDbDictionary
  3
ACAD_GROUP
350
D
  3
ACAD_MLINESTYLE
350
E
  0
DICTIONARY
  5
D
102
{ACAD_REACTORS
330
C
102
}
100
AcDbDictionary
  0
DICTIONARY
  5
E
102
{ACAD_REACTORS
330
C
102
}
100
AcDbDictionary
  3
STANDARD
350
1B
  0
MLINESTYLE
  5
1B
102
{ACAD_REACTORS
330
E
102
}
100
AcDbMlineStyle
  2
STANDARD
 70
     0
  3

 62
     0
 51
90.0
 52
90.0
 71
     2
 49
0.5
 62
   256
  6
BYLAYER
 49
-0.5
 62
   256
  6
BYLAYER
  0
ENDSEC
  0
EOF
