  0
SECTION
  2
HEADER
  9
$ACADVER
  1
AC1012
  9
$DWGCODEPAGE
  3
dos932
  9
$INSBASE
 10
0.0
 20
0.0
 30
0.0
  9
$EXTMIN
 10
179.9560646758836
 20
69.92661222108472
 30
-0.0000000000000058
  9
$EXTMAX
 10
4090.219125862023
 20
2820.086066310859
 30
0.0000000000000104
  9
$LIMMIN
 10
0.0
 20
0.0
  9
$LIMMAX
 10
4200.0
 20
2970.0
  9
$ORTHOMODE
 70
     1
  9
$REGENMODE
 70
     1
  9
$FILLMODE
 70
     1
  9
$QTEXTMODE
 70
     0
  9
$MIRRTEXT
 70
     1
  9
$DRAGMODE
 70
     2
  9
$LTSCALE
 40
40.0
  9
$OSMODE
 70
   163
  9
$ATTMODE
 70
     1
  9
$TEXTSIZE
 40
40.0
  9
$TRACEWID
 40
0.05
  9
$TEXTSTYLE
  7
STANDARD
  9
$CLAYER
  8
0
  9
$CELTYPE
  6
BYLAYER
  9
$CECOLOR
 62
   256
  9
$CELTSCALE
 40
1.0
  9
$DELOBJ
 70
     1
  9
$DISPSILH
 70
     0
  9
$DIMSCALE
 40
10.0
  9
$DIMASZ
 40
2.799999999999999
  9
$DIMEXO
 40
1.0
  9
$DIMDLI
 40
5.0
  9
$DIMRND
 40
0.1
  9
$DIMDLE
 40
0.0
  9
$DIMEXE
 40
1.0
  9
$DIMTP
 40
0.0
  9
$DIMTM
 40
0.0
  9
$DIMTXT
 40
2.5
  9
$DIMCEN
 40
0.0
  9
$DIMTSZ
 40
0.0
  9
$DIMTOL
 70
     0
  9
$DIMLIM
 70
     0
  9
$DIMTIH
 70
     0
  9
$DIMTOH
 70
     0
  9
$DIMSE1
 70
     0
  9
$DIMSE2
 70
     0
  9
$DIMTAD
 70
     3
  9
$DIMZIN
 70
     8
  9
$DIMBLK
  1

  9
$DIMASO
 70
     1
  9
$DIMSHO
 70
     1
  9
$DIMPOST
  1

  9
$DIMAPOST
  1

  9
$DIMALT
 70
     0
  9
$DIMALTD
 70
     2
  9
$DIMALTF
 40
1.0
  9
$DIMLFAC
 40
1.0
  9
$DIMTOFL
 70
     1
  9
$DIMTVP
 40
0.0
  9
$DIMTIX
 70
     0
  9
$DIMSOXD
 70
     0
  9
$DIMSAH
 70
     1
  9
$DIMBLK1
  1
OPEN
  9
$DIMBLK2
  1
OPEN
  9
$DIMSTYLE
  2
DIM1
  9
$DIMCLRD
 70
     2
  9
$DIMCLRE
 70
     2
  9
$DIMCLRT
 70
     2
  9
$DIMTFAC
 40
0.7
  9
$DIMGAP
 40
0.85
  9
$DIMJUST
 70
     0
  9
$DIMSD1
 70
     0
  9
$DIMSD2
 70
     0
  9
$DIMTOLJ
 70
     1
  9
$DIMTZIN
 70
     8
  9
$DIMALTZ
 70
     8
  9
$DIMALTTZ
 70
     8
  9
$DIMFIT
 70
     3
  9
$DIMUPT
 70
     0
  9
$DIMUNIT
 70
     2
  9
$DIMDEC
 70
     2
  9
$DIMTDEC
 70
     3
  9
$DIMALTU
 70
     2
  9
$DIMALTTD
 70
     3
  9
$DIMTXSTY
  7
DIM
  9
$DIMAUNIT
 70
     0
  9
$LUNITS
 70
     2
  9
$LUPREC
 70
     4
  9
$SKETCHINC
 40
0.1
  9
$FILLETRAD
 40
3.0
  9
$AUNITS
 70
     0
  9
$AUPREC
 70
     0
  9
$MENU
  1
C:\ACADR13\WIN\SUPPORT\ACAD.mnc
  9
$ELEVATION
 40
0.0
  9
$PELEVATION
 40
0.0
  9
$THICKNESS
 40
0.0
  9
$LIMCHECK
 70
     0
  9
$BLIPMODE
 70
     0
  9
$CHAMFERA
 40
0.0
  9
$CHAMFERB
 40
0.0
  9
$CHAMFERC
 40
0.0
  9
$CHAMFERD
 40
0.0
  9
$SKPOLY
 70
     0
  9
$TDCREATE
 40
2452405.582679213
  9
$TDUPDATE
 40
2452410.641517824
  9
$TDINDWG
 40
0.1160026157
  9
$TDUSRTIMER
 40
0.1160026157
  9
$USRTIMER
 70
     1
  9
$ANGBASE
 50
0.0
  9
$ANGDIR
 70
     0
  9
$PDMODE
 70
     0
  9
$PDSIZE
 40
0.0
  9
$PLINEWID
 40
0.0
  9
$COORDS
 70
     2
  9
$SPLFRAME
 70
     0
  9
$SPLINETYPE
 70
     6
  9
$SPLINESEGS
 70
     8
  9
$ATTDIA
 70
     0
  9
$ATTREQ
 70
     1
  9
$HANDLING
 70
-16383
  9
$HANDSEED
  5
464C
  9
$SURFTAB1
 70
     6
  9
$SURFTAB2
 70
     6
  9
$SURFTYPE
 70
     6
  9
$SURFU
 70
     6
  9
$SURFV
 70
     6
  9
$UCSNAME
  2

  9
$UCSORG
 10
0.0
 20
0.0
 30
0.0
  9
$UCSXDIR
 10
1.0
 20
0.0
 30
0.0
  9
$UCSYDIR
 10
0.0
 20
1.0
 30
0.0
  9
$PUCSNAME
  2

  9
$PUCSORG
 10
0.0
 20
0.0
 30
0.0
  9
$PUCSXDIR
 10
1.0
 20
0.0
 30
0.0
  9
$PUCSYDIR
 10
0.0
 20
1.0
 30
0.0
  9
$USERI1
 70
     0
  9
$USERI2
 70
     0
  9
$USERI3
 70
     0
  9
$USERI4
 70
     0
  9
$USERI5
 70
     0
  9
$USERR1
 40
0.0
  9
$USERR2
 40
0.0
  9
$USERR3
 40
0.0
  9
$USERR4
 40
0.0
  9
$USERR5
 40
0.0
  9
$WORLDVIEW
 70
     1
  9
$SHADEDGE
 70
     3
  9
$SHADEDIF
 70
    70
  9
$TILEMODE
 70
     1
  9
$MAXACTVP
 70
    16
  9
$PINSBASE
 10
0.0
 20
0.0
 30
0.0
  9
$PLIMCHECK
 70
     0
  9
$PEXTMIN
 10
1.000000000000000E+20
 20
1.000000000000000E+20
 30
1.000000000000000E+20
  9
$PEXTMAX
 10
-1.000000000000000E+20
 20
-1.000000000000000E+20
 30
-1.000000000000000E+20
  9
$PLIMMIN
 10
0.0
 20
0.0
  9
$PLIMMAX
 10
20.0
 20
147.0
  9
$UNITMODE
 70
     0
  9
$VISRETAIN
 70
     0
  9
$PLINEGEN
 70
     0
  9
$PSLTSCALE
 70
     1
  9
$TREEDEPTH
 70
  3020
  9
$PICKSTYLE
 70
     0
  9
$CMLSTYLE
  2
STANDARD
  9
$CMLJUST
 70
     0
  9
$CMLSCALE
 40
1.0
  9
$SAVEIMAGES
 70
     1
  0
ENDSEC
  0
SECTION
  2
CLASSES
  0
CLASS
  1
LWPOLYLINE
  2
AcDbPolyline
  3
AutoCAD 2000
 90
    32768
280
     0
281
     1
  0
CLASS
  1
ACDBDICTIONARYWDFLT
  2
AcDbDictionaryWithDefault
  3
AutoCAD 2000
 90
    32768
280
     0
281
     0
  0
CLASS
  1
ACDBPLACEHOLDER
  2
AcDbPlaceHolder
  3
AutoCAD 2000
 90
    32768
280
     0
281
     0
  0
CLASS
  1
LAYOUT
  2
AcDbLayout
  3
AutoCAD 2000
 90
    32768
280
     0
281
     0
  0
CLASS
  1
LONG_TRANSACTION
  2
AcDbLongTransaction
  3
AutoCAD 2000
 90
    32768
280
     0
281
     0
  0
CLASS
  1
LWPOLYLINE
  2
AcDbPolyline
  3
AutoCAD 2000
 90
    32768
280
     0
281
     1
  0
CLASS
  1
HATCH
  2
AcDbHatch
  3
AutoCAD 2000
 90
    32768
280
     0
281
     1
  0
CLASS
  1
XRECORD
  2
AcDbXrecord
  3
AutoCAD 2000
 90
    32768
280
     0
281
     0
  0
CLASS
  1
LONG_TRANSACTION
  2
AcDbLongTransaction
  3
AutoCAD 2000
 90
    32768
280
     0
281
     0
  0
CLASS
  1
LWPOLYLINE
  2
AcDbPolyline
  3
AutoCAD 2000
 90
    32768
280
     0
281
     1
  0
CLASS
  1
HATCH
  2
AcDbHatch
  3
AutoCAD 2000
 90
    32768
280
     0
281
     1
  0
CLASS
  1
XRECORD
  2
AcDbXrecord
  3
AutoCAD 2000
 90
    32768
280
     0
281
     0
  0
CLASS
  1
LONG_TRANSACTION
  2
AcDbLongTransaction
  3
AutoCAD 2000
 90
    32768
280
     0
281
     0
  0
CLASS
  1
LWPOLYLINE
  2
AcDbPolyline
  3
AutoCAD 2000
 90
    32768
280
     0
281
     1
  0
CLASS
  1
HATCH
  2
AcDbHatch
  3
AutoCAD 2000
 90
    32768
280
     0
281
     1
  0
CLASS
  1
XRECORD
  2
AcDbXrecord
  3
AutoCAD 2000
 90
    32768
280
     0
281
     0
  0
ENDSEC
  0
SECTION
  2
TABLES
  0
TABLE
  2
VPORT
  5
8
330
0
100
AcDbSymbolTable
 70
     3
  0
VPORT
  5
45B4
330
8
100
AcDbSymbolTableRecord
100
AcDbViewportTableRecord
  2
*ACTIVE
 70
     0
 10
0.0
 20
0.0
 11
1.0
 21
1.0
 12
2100.0
 22
1485.0
 13
0.0
 23
0.0
 14
1.0
 24
1.0
 15
0.0
 25
0.0
 16
0.0
 26
0.0
 36
1.0
 17
0.0
 27
0.0
 37
0.0
 40
3034.618952548983
 41
1.392405063291139
 42
50.0
 43
0.0
 44
0.0
 50
0.0
 51
0.0
 71
     0
 72
   100
 73
     1
 74
     1
 75
     0
 76
     0
 77
     0
 78
     0
  0
ENDTAB
  0
TABLE
  2
LTYPE
  5
5
330
0
100
AcDbSymbolTable
 70
     1
  0
LTYPE
  5
12
330
5
100
AcDbSymbolTableRecord
100
AcDbLinetypeTableRecord
  2
BYBLOCK
 70
     0
  3

 72
    65
 73
     0
 40
0.0
  0
LTYPE
  5
13
330
5
100
AcDbSymbolTableRecord
100
AcDbLinetypeTableRecord
  2
BYLAYER
 70
     0
  3

 72
    65
 73
     0
 40
0.0
  0
LTYPE
  5
14
330
5
100
AcDbSymbolTableRecord
100
AcDbLinetypeTableRecord
  2
CONTINUOUS
 70
     0
  3
Solid line
 72
    65
 73
     0
 40
0.0
  0
ENDTAB
  0
TABLE
  2
LAYER
  5
2
330
0
100
AcDbSymbolTable
 70
     1
  0
LAYER
  5
F
330
2
100
AcDbSymbolTableRecord
100
AcDbLayerTableRecord
  2
0
 70
     0
 62
     7
  6
CONTINUOUS
  0
ENDTAB
  0
TABLE
  2
STYLE
  5
3
330
0
100
AcDbSymbolTable
 70
     3
  0
STYLE
  5
10
330
3
100
AcDbSymbolTableRecord
100
AcDbTextStyleTableRecord
  2
STANDARD
 70
     0
 40
0.0
 41
0.8
 50
0.0
 71
     0
 42
40.0
  3
simplex
  4
extfont
  0
STYLE
  5
237C
330
3
100
AcDbSymbolTableRecord
100
AcDbTextStyleTableRecord
  2
PTSH
 70
     0
 40
0.0
 41
0.9
 50
0.0
 71
     0
 42
4.0
  3
SIMPLEX
  4
EXTFONT
  0
STYLE
  5
2592
330
3
100
AcDbSymbolTableRecord
100
AcDbTextStyleTableRecord
  2
DIM
 70
     0
 40
0.0
 41
0.8
 50
0.0
 71
     0
 42
4.0
  3
simplex
  4
extfont
  0
ENDTAB
  0
TABLE
  2
VIEW
  5
6
330
0
100
AcDbSymbolTable
 70
     0
  0
ENDTAB
  0
TABLE
  2
UCS
  5
7
330
0
100
AcDbSymbolTable
 70
     0
  0
ENDTAB
  0
TABLE
  2
APPID
  5
9
330
0
100
AcDbSymbolTable
 70
     1
  0
APPID
  5
11
330
9
100
AcDbSymbolTableRecord
100
AcDbRegAppTableRecord
  2
ACAD
 70
     0
  0
ENDTAB
  0
TABLE
  2
DIMSTYLE
  5
A
330
0
100
AcDbSymbolTable
 70
     1
  0
DIMSTYLE
105
2237
330
A
100
AcDbSymbolTableRecord
100
AcDbDimStyleTableRecord
  2
DIM1
 70
     0
  3

  4

  5

  6
OPEN
  7
OPEN
 40
10.0
 41
2.799999999999999
 42
1.0
 43
5.0
 44
1.0
 45
0.1
 46
0.0
 47
0.0
 48
0.0
140
2.5
141
0.0
142
0.0
143
1.0
144
1.0
145
0.0
146
0.7
147
0.85
 71
     0
 72
     0
 73
     0
 74
     0
 75
     0
 76
     0
 77
     3
 78
     8
170
     0
171
     2
172
     1
173
     1
174
     0
175
     0
176
     2
177
     2
178
     2
270
     2
271
     2
272
     3
273
     2
274
     3
340
2592
275
     0
280
     0
281
     0
282
     0
283
     1
284
     8
285
     8
286
     8
287
     3
288
     0
  0
ENDTAB
  0
TABLE
  2
BLOCK_RECORD
  5
1
330
0
100
AcDbSymbolTable
 70
     2
  0
BLOCK_RECORD
  5
18
102
{ACAD_XDICTIONARY
360
4225
102
}
330
1
100
AcDbSymbolTableRecord
100
AcDbBlockTableRecord
  2
*MODEL_SPACE
  0
BLOCK_RECORD
  5
15
102
{ACAD_XDICTIONARY
360
4223
102
}
330
1
100
AcDbSymbolTableRecord
100
AcDbBlockTableRecord
  2
*PAPER_SPACE
  0
BLOCK_RECORD
  5
2448
330
1
100
AcDbSymbolTableRecord
100
AcDbBlockTableRecord
  2
_OPEN
  0
BLOCK_RECORD
  5
2648
330
1
100
AcDbSymbolTableRecord
100
AcDbBlockTableRecord
  2
YA
  0
ENDTAB
  0
ENDSEC
  0
SECTION
  2
BLOCKS
  0
BLOCK
  5
3C
330
18
100
AcDbEntity
  8
0
100
AcDbBlockBegin
  2
*MODEL_SPACE
 70
     0
 10
0.0
 20
0.0
 30
0.0
  3
*MODEL_SPACE
  1

  0
ENDBLK
  5
3D
330
18
100
AcDbEntity
  8
0
100
AcDbBlockEnd
  0
BLOCK
  5
3A
330
15
100
AcDbEntity
 67
     1
  8
0
100
AcDbBlockBegin
  2
*PAPER_SPACE
 70
     0
 10
0.0
 20
0.0
 30
0.0
  3
*PAPER_SPACE
  1

  0
ENDBLK
  5
3B
330
15
100
AcDbEntity
 67
     1
  8
0
100
AcDbBlockEnd
  0
BLOCK
  5
2449
330
2448
100
AcDbEntity
  8
0
 48
4.0
100
AcDbBlockBegin
  2
_OPEN
 70
     0
 10
0.0
 20
0.0
 30
0.0
  3
_OPEN
  1
H1111.DWG
  0
LINE
  5
244A
330
2448
100
AcDbEntity
  8
0
  6
BYBLOCK
 62
     0
 48
4.0
100
AcDbLine
 10
-1.0
 20
0.1666666666666666
 30
0.0
 11
0.0
 21
0.0
 31
0.0
  0
LINE
  5
244B
330
2448
100
AcDbEntity
  8
0
  6
BYBLOCK
 62
     0
 48
4.0
100
AcDbLine
 10
0.0
 20
0.0
 30
0.0
 11
-1.0
 21
-0.1666666666666666
 31
0.0
  0
LINE
  5
244C
330
2448
100
AcDbEntity
  8
0
  6
BYBLOCK
 62
     0
 48
4.0
100
AcDbLine
 10
0.0
 20
0.0
 30
0.0
 11
-1.0
 21
0.0
 31
0.0
  0
ENDBLK
  5
244D
330
2448
100
AcDbEntity
  8
0
 48
4.0
100
AcDbBlockEnd
  0
BLOCK
  5
2650
330
2648
100
AcDbEntity
  8
0
100
AcDbBlockBegin
  2
YA
 70
     0
 10
0.0
 20
0.0
 30
0.0
  3
YA
  1

  0
LINE
  5
2649
330
2648
100
AcDbEntity
  8
0
100
AcDbLine
 10
-16.80650000000002
 20
2.80099999999993
 30
0.0
 11
-8.403500000000008
 21
2.80099999999993
 31
0.0
  0
LINE
  5
264A
330
2648
100
AcDbEntity
  8
0
100
AcDbLine
 10
-8.403500000000008
 20
2.80099999999993
 30
0.0
 11
-7.002499999999997
 21
1.400499999999965
 31
0.0
  0
LINE
  5
264B
330
2648
100
AcDbEntity
  8
0
100
AcDbLine
 10
-7.002499999999997
 20
1.400499999999965
 30
0.0
 11
-2.861999999999966
 21
1.400499999999965
 31
0.0
  0
LINE
  5
264C
330
2648
100
AcDbEntity
  8
0
100
AcDbLine
 10
-2.861999999999966
 20
1.400499999999965
 30
0.0
 11
-2.861999999999966
 21
2.80099999999993
 31
0.0
  0
LINE
  5
264D
330
2648
100
AcDbEntity
  8
0
100
AcDbLine
 10
-2.861999999999966
 20
2.80099999999993
 30
0.0
 11
0.0
 21
0.0
 31
0.0
  0
LINE
  5
264E
330
2648
100
AcDbEntity
  8
0
100
AcDbLine
 10
0.0
 20
0.0
 30
0.0
 11
-14.00549999999998
 21
0.0
 31
0.0
  0
LINE
  5
264F
330
2648
100
AcDbEntity
  8
0
100
AcDbLine
 10
-14.00549999999998
 20
0.0
 30
0.0
 11
-16.80650000000002
 21
2.80099999999993
 31
0.0
  0
ENDBLK
  5
2651
330
2648
100
AcDbEntity
  8
0
100
AcDbBlockEnd
  0
ENDSEC
  0
SECTION
  2
ENTITIES
  0
MTEXT
  5
ADA
330
18
100
AcDbEntity
  8
0
100
AcDbMText
 10
3801.392797717078
 20
498.4631113622277
 30
0.0
 40
2.0
 41
472.2646484874622
 71
     1
 72
     1
  1

1001
ACAD
1000
MTEXTBEGIN
1070
    73
1070
     1
1070
    44
1040
1.0
1070
    74
1070
     0
1000
MTEXTEND
1000
MTEXTBEGIN
1070
    73
1070
     1
1070
    44
1040
1.0
1070
    74
1070
     0
1000
MTEXTEND
1000
MTEXTBEGIN
1070
    73
1070
     1
1070
    44
1040
1.0
1070
    74
1070
     0
1000
MTEXTEND
  0
MTEXT
  5
ADB
330
18
100
AcDbEntity
  8
0
100
AcDbMText
 10
3890.499331669145
 20
578.5079373289909
 30
0.0
 40
2.0
 41
454.4433416970469
 71
     1
 72
     1
  1

1001
ACAD
1000
MTEXTBEGIN
1070
    73
1070
     1
1070
    44
1040
1.0
1070
    74
1070
     0
1000
MTEXTEND
1000
MTEXTBEGIN
1070
    73
1070
     1
1070
    44
1040
1.0
1070
    74
1070
     0
1000
MTEXTEND
1000
MTEXTBEGIN
1070
    73
1070
     1
1070
    44
1040
1.0
1070
    74
1070
     0
1000
MTEXTEND
  0
MTEXT
  5
ADC
330
18
100
AcDbEntity
  8
0
100
AcDbMText
 10
3837.035411297904
 20
-479.8624640549269
 30
0.0
 40
2.0
 41
516.8179154634981
 71
     1
 72
     1
  1

1001
ACAD
1000
MTEXTBEGIN
1070
    73
1070
     1
1070
    44
1040
1.0
1070
    74
1070
     0
1000
MTEXTEND
1000
MTEXTBEGIN
1070
    73
1070
     1
1070
    44
1040
1.0
1070
    74
1070
     0
1000
MTEXTEND
1000
MTEXTBEGIN
1070
    73
1070
     1
1070
    44
1040
1.0
1070
    74
1070
     0
1000
MTEXTEND
  0
TEXT
  5
2529
330
18
100
AcDbEntity
  8
0
  6
CONTINUOUS
100
AcDbText
 10
3728.25
 20
152.5
 30
0.0
 40
35.0
  1
GPGT10F2
 41
0.9
  7
PTSH
 72
     1
 11
3840.0
 21
170.0
 31
0.0
100
AcDbText
 73
     2
  0
POLYLINE
  5
2563
330
18
100
AcDbEntity
  8
0
100
AcDb2dPolyline
 66
     1
 10
0.0
 20
0.0
 30
0.0
 70
     1
  0
VERTEX
  5
45B7
330
2563
100
AcDbEntity
  8
0
100
AcDbVertex
100
AcDb2dVertex
 10
180.0
 20
70.0
 30
0.0
  0
VERTEX
  5
45B8
330
2563
100
AcDbEntity
  8
0
100
AcDbVertex
100
AcDb2dVertex
 10
4090.0
 20
70.0
 30
0.0
  0
VERTEX
  5
45B9
330
2563
100
AcDbEntity
  8
0
100
AcDbVertex
100
AcDb2dVertex
 10
4090.0
 20
2820.0
 30
0.0
  0
VERTEX
  5
45BA
330
2563
100
AcDbEntity
  8
0
100
AcDbVertex
100
AcDb2dVertex
 10
180.0
 20
2820.0
 30
0.0
  0
SEQEND
  5
45BB
330
2563
100
AcDbEntity
  8
0
  0
INSERT
  5
2A84
330
18
100
AcDbEntity
  8
0
100
AcDbBlockReference
  2
YA
 10
2592.435572657134
 20
551.2436911345258
 30
0.0
 41
5.0
 42
5.0
 43
5.0
  0
INSERT
  5
2A85
330
18
100
AcDbEntity
  8
0
100
AcDbBlockReference
  2
YA
 10
2508.403072657134
 20
813.2436911345257
 30
0.0
 41
-5.0
 42
5.0
 43
5.0
  0
POLYLINE
  5
2A8B
330
18
100
AcDbEntity
  8
0
100
AcDb2dPolyline
 66
     1
 10
0.0
 20
0.0
 30
0.0
  0
VERTEX
  5
45BC
330
2A8B
100
AcDbEntity
  8
0
100
AcDbVertex
100
AcDb2dVertex
 10
2238.712202857719
 20
704.0895383030972
 30
0.0
 42
0.1110900395357144
  0
VERTEX
  5
45BD
330
2A8B
100
AcDbEntity
  8
0
100
AcDbVertex
100
AcDb2dVertex
 10
2235.062447502123
 20
720.3138269575572
 30
0.0
 42
0.1028481776418138
  0
VERTEX
  5
45BE
330
2A8B
100
AcDbEntity
  8
0
100
AcDbVertex
100
AcDb2dVertex
 10
2224.246206780523
 20
734.6153380469206
 30
0.0
 42
0.0929995041670857
  0
VERTEX
  5
45BF
330
2A8B
100
AcDbEntity
  8
0
100
AcDbVertex
100
AcDb2dVertex
 10
2208.515914343052
 20
743.8919642548646
 30
0.0
 42
0.0870610434407608
  0
VERTEX
  5
45C0
330
2A8B
100
AcDbEntity
  8
0
100
AcDbVertex
100
AcDb2dVertex
 10
2189.32220285772
 20
747.2595383030973
 30
0.0
 42
0.0870610434407572
  0
SEQEND
  5
45C1
330
2A8B
100
AcDbEntity
  8
0
  0
LINE
  5
2A8C
330
18
100
AcDbEntity
  8
0
100
AcDbLine
 10
2158.20220285772
 20
741.6195383030969
 30
0.0
 11
2158.20220285772
 21
886.909538303097
 31
0.0
  0
LINE
  5
2A8D
330
18
100
AcDbEntity
  8
0
100
AcDbLine
 10
2265.822202857719
 20
901.1895383030971
 30
0.0
 11
2265.822202857719
 21
641.9755086524194
 31
0.0
  0
LINE
  5
2A8E
330
18
100
AcDbEntity
  8
0
100
AcDbLine
 10
2189.322202857719
 20
1006.689538303097
 30
0.0
 11
2189.322202857719
 21
446.6895383030971
 31
0.0
  0
LINE
  5
2A8F
330
18
100
AcDbEntity
  8
0
100
AcDbLine
 10
2161.822202857719
 20
446.6855383030972
 30
0.0
 11
2161.822202857719
 21
1006.685538303097
 31
0.0
  0
LINE
  5
2A90
330
18
100
AcDbEntity
  8
0
100
AcDbLine
 10
2163.322202857719
 20
1009.689538303097
 30
0.0
 11
2163.322202857719
 21
446.6895383030971
 31
0.0
  0
LINE
  5
2A91
330
18
100
AcDbEntity
  8
0
100
AcDbLine
 10
1762.822202857719
 20
668.6855383030972
 30
0.0
 11
1762.822202857719
 21
794.6855383030972
 31
0.0
  0
LINE
  5
2A92
330
18
100
AcDbEntity
  8
0
100
AcDbLine
 10
2300.322202857719
 20
762.1895383030971
 30
0.0
 11
2300.322202857719
 21
600.6895383030971
 31
0.0
  0
LINE
  5
2A93
330
18
100
AcDbEntity
  8
0
100
AcDbLine
 10
1425.688179849819
 20
794.6895383030971
 30
0.0
 11
1425.688179849819
 21
668.6895383030972
 31
0.0
  0
LINE
  5
2A94
330
18
100
AcDbEntity
  8
0
100
AcDbLine
 10
1001.688179849819
 20
668.6905383030971
 30
0.0
 11
1001.688179849819
 21
794.6895383030971
 31
0.0
  0
LINE
  5
2A95
330
18
100
AcDbEntity
  8
0
100
AcDbLine
 10
1361.688179849819
 20
446.6895383030971
 30
0.0
 11
1065.688179849819
 21
446.6895383030971
 31
0.0
  0
ARC
  5
2A96
330
18
100
AcDbEntity
  8
0
100
AcDbCircle
 10
1213.68817984982
 20
496.6855383030972
 30
0.0
 40
40.0
100
AcDbArc
 50
270.0
 51
0.0
  0
ARC
  5
2A97
330
18
100
AcDbEntity
  8
0
100
AcDbCircle
 10
1213.688179849819
 20
668.6895383030972
 30
0.0
 40
212.0
100
AcDbArc
 50
180.0
 51
224.9643048629102
  0
LINE
  5
2A98
330
18
100
AcDbEntity
  8
0
100
AcDbLine
 10
1138.688179849819
 20
496.6855383030972
 30
0.0
 11
1138.688179849818
 21
532.3441877054094
 31
0.0
  0
LINE
  5
2A99
330
18
100
AcDbEntity
  8
0
100
AcDbLine
 10
1063.688179849819
 20
448.6895383030971
 30
0.0
 11
1063.688179849819
 21
518.876321262677
 31
0.0
  0
ARC
  5
2A9A
330
18
100
AcDbEntity
  8
0
100
AcDbCircle
 10
1213.68817984982
 20
1073.081655472628
 30
0.0
 40
574.1459330751752
100
AcDbArc
 50
256.7353292570042
 51
262.4940696597461
  0
ARC
  5
2A9B
330
18
100
AcDbEntity
  8
0
100
AcDbCircle
 10
1065.688179849819
 20
448.6895383030971
 30
0.0
 40
2.0
100
AcDbArc
 50
180.0
 51
270.0
  0
ARC
  5
2A9C
330
18
100
AcDbEntity
  8
0
100
AcDbCircle
 10
1178.688179849819
 20
496.6855383030972
 30
0.0
 40
40.0
100
AcDbArc
 50
180.0
 51
270.0
  0
LINE
  5
2A9D
330
18
100
AcDbEntity
  8
0
100
AcDbLine
 10
1168.688179849818
 20
477.686538303097
 30
0.0
 11
1178.588179849819
 21
467.7865383030971
 31
0.0
  0
LINE
  5
2A9E
330
18
100
AcDbEntity
  8
0
100
AcDbLine
 10
1178.588179849819
 20
487.585538303097
 30
0.0
 11
1168.688179849818
 21
477.686538303097
 31
0.0
  0
CIRCLE
  5
2A9F
330
18
100
AcDbEntity
  8
0
100
AcDbCircle
 10
1178.688179849819
 20
477.6855383030972
 30
0.0
 40
10.62976594286058
  0
LINE
  5
2AA0
330
18
100
AcDbEntity
  8
0
100
AcDbLine
 10
1213.68817984982
 20
456.6855383030972
 30
0.0
 11
1178.688179849819
 21
456.6855383030972
 31
0.0
  0
LINE
  5
2AA1
330
18
100
AcDbEntity
  8
0
100
AcDbLine
 10
1203.688179849819
 20
501.6865383030969
 30
0.0
 11
1213.588179849819
 21
491.7865383030971
 31
0.0
  0
LINE
  5
2AA2
330
18
100
AcDbEntity
  8
0
100
AcDbLine
 10
1213.588179849819
 20
511.5855383030971
 30
0.0
 11
1203.688179849819
 21
501.6865383030969
 31
0.0
  0
CIRCLE
  5
2AA3
330
18
100
AcDbEntity
  8
0
100
AcDbCircle
 10
1213.688179849819
 20
501.6855383030972
 30
0.0
 40
10.62976594286058
  0
LINE
  5
2AA4
330
18
100
AcDbEntity
  8
0
100
AcDbLine
 10
1178.588179849819
 20
467.7865383030971
 30
0.0
 11
1188.488179849819
 21
477.686538303097
 31
0.0
  0
LINE
  5
2AA5
330
18
100
AcDbEntity
  8
0
100
AcDbLine
 10
1188.488179849819
 20
477.686538303097
 30
0.0
 11
1178.588179849819
 21
487.585538303097
 31
0.0
  0
LINE
  5
2AA6
330
18
100
AcDbEntity
  8
0
100
AcDbLine
 10
1213.588179849819
 20
491.7865383030971
 30
0.0
 11
1223.488179849819
 21
501.6865383030969
 31
0.0
  0
LINE
  5
2AA7
330
18
100
AcDbEntity
  8
0
100
AcDbLine
 10
1223.488179849819
 20
501.6865383030969
 30
0.0
 11
1213.588179849819
 21
511.5855383030971
 31
0.0
  0
ARC
  5
2AA8
330
18
100
AcDbEntity
  8
0
100
AcDbCircle
 10
1196.188179849819
 20
786.1764322063423
 30
0.0
 40
260.263440283843
100
AcDbArc
 50
260.9777823391826
 51
279.0222176608173
  0
LINE
  5
2AA9
330
18
100
AcDbEntity
  8
0
100
AcDbLine
 10
1867.82220285772
 20
456.6855383030972
 30
0.0
 11
2113.793605328603
 21
456.6855383030972
 31
0.0
  0
ARC
  5
2AAA
330
18
100
AcDbEntity
  8
0
100
AcDbCircle
 10
1974.82220285772
 20
668.6855383030972
 30
0.0
 40
212.0
100
AcDbArc
 50
239.6874332564133
 51
270.0
  0
ARC
  5
2AAB
330
18
100
AcDbEntity
  8
0
100
AcDbCircle
 10
1213.688179849819
 20
668.6895383030972
 30
0.0
 40
212.0
100
AcDbArc
 50
315.0356951370897
 51
0.0
  0
LINE
  5
2AAC
330
18
100
AcDbEntity
  8
0
100
AcDbLine
 10
1363.688179849819
 20
448.6895383030971
 30
0.0
 11
1363.688179849819
 21
518.8763212626768
 31
0.0
  0
LINE
  5
2AAD
330
18
100
AcDbEntity
  8
0
100
AcDbLine
 10
1253.68817984982
 20
496.6855383030972
 30
0.0
 11
1253.688179849819
 21
532.3441877054094
 31
0.0
  0
ARC
  5
2AAE
330
18
100
AcDbEntity
  8
0
100
AcDbCircle
 10
1213.68817984982
 20
1073.081655472628
 30
0.0
 40
574.1459330751752
100
AcDbArc
 50
273.9949585931572
 51
283.2646707429957
  0
ARC
  5
2AAF
330
18
100
AcDbEntity
  8
0
100
AcDbCircle
 10
1361.688179849819
 20
448.6895383030971
 30
0.0
 40
2.0
100
AcDbArc
 50
270.0
 51
0.0
  0
LINE
  5
2AB0
330
18
100
AcDbEntity
  8
0
100
AcDbLine
 10
1847.822202857719
 20
606.6855383030972
 30
0.0
 11
1847.822202857719
 21
446.6855383030972
 31
0.0
  0
LINE
  5
2AB1
330
18
100
AcDbEntity
  8
0
100
AcDbLine
 10
1867.82220285772
 20
606.6855383030972
 30
0.0
 11
1867.82220285772
 21
446.6855383030972
 31
0.0
  0
LINE
  5
2AB2
330
18
100
AcDbEntity
  8
0
100
AcDbLine
 10
1814.82220285772
 20
461.6855383030972
 30
0.0
 11
1814.82220285772
 21
529.6028290973874
 31
0.0
  0
ARC
  5
2AB3
330
18
100
AcDbEntity
  8
0
100
AcDbCircle
 10
1974.82220285772
 20
668.6855383030972
 30
0.0
 40
212.0
100
AcDbArc
 50
180.0
 51
233.1976382951489
  0
LINE
  5
2AB4
330
18
100
AcDbEntity
  8
0
100
AcDbLine
 10
1819.82220285772
 20
456.6855383030972
 30
0.0
 11
1847.822202857719
 21
456.6855383030972
 31
0.0
  0
ARC
  5
2AB5
330
18
100
AcDbEntity
  8
0
100
AcDbCircle
 10
1819.82220285772
 20
461.6855383030972
 30
0.0
 40
5.0
100
AcDbArc
 50
180.0
 51
270.0
  0
LINE
  5
2AB6
330
18
100
AcDbEntity
  8
0
100
AcDbLine
 10
1814.82220285772
 20
512.1625383030971
 30
0.0
 11
1810.322202857719
 21
512.3035383030972
 31
0.0
  0
LINE
  5
2AB7
330
18
100
AcDbEntity
  8
0
100
AcDbLine
 10
1810.322202857719
 20
512.3035383030972
 30
0.0
 11
1809.82220285772
 21
511.8195383030972
 31
0.0
  0
LINE
  5
2AB8
330
18
100
AcDbEntity
  8
0
100
AcDbLine
 10
1799.82220285772
 20
511.5845383030976
 30
0.0
 11
1809.82220285772
 21
511.5845383030976
 31
0.0
  0
LINE
  5
2AB9
330
18
100
AcDbEntity
  8
0
100
AcDbLine
 10
1799.82220285772
 20
501.6855383030972
 30
0.0
 11
1809.82220285772
 21
501.6855383030972
 31
0.0
  0
LINE
  5
2ABA
330
18
100
AcDbEntity
  8
0
100
AcDbLine
 10
1810.322202857719
 20
491.0675383030977
 30
0.0
 11
1814.82220285772
 21
491.2075383030972
 31
0.0
  0
LINE
  5
2ABB
330
18
100
AcDbEntity
  8
0
100
AcDbLine
 10
1814.82220285772
 20
490.1625383030971
 30
0.0
 11
1810.322202857719
 21
490.3035383030972
 31
0.0
  0
LINE
  5
2ABC
330
18
100
AcDbEntity
  8
0
100
AcDbLine
 10
1809.82220285772
 20
491.5515383030972
 30
0.0
 11
1810.322202857719
 21
491.0675383030977
 31
0.0
  0
LINE
  5
2ABD
330
18
100
AcDbEntity
  8
0
100
AcDbLine
 10
1810.322202857719
 20
490.3035383030972
 30
0.0
 11
1809.82220285772
 21
489.818538303097
 31
0.0
  0
LINE
  5
2ABE
330
18
100
AcDbEntity
  8
0
100
AcDbLine
 10
1809.82220285772
 20
491.7855383030967
 30
0.0
 11
1799.82220285772
 21
491.7855383030967
 31
0.0
  0
LINE
  5
2ABF
330
18
100
AcDbEntity
  8
0
100
AcDbLine
 10
1799.82220285772
 20
489.5845383030966
 30
0.0
 11
1809.82220285772
 21
489.5845383030966
 31
0.0
  0
LINE
  5
2AC0
330
18
100
AcDbEntity
  8
0
100
AcDbLine
 10
1799.82220285772
 20
479.6855383030972
 30
0.0
 11
1809.82220285772
 21
479.6855383030972
 31
0.0
  0
LINE
  5
2AC1
330
18
100
AcDbEntity
  8
0
100
AcDbLine
 10
1809.82220285772
 20
511.5845383030976
 30
0.0
 11
1809.82220285772
 21
491.7855383030967
 31
0.0
  0
LINE
  5
2AC2
330
18
100
AcDbEntity
  8
0
100
AcDbLine
 10
1809.82220285772
 20
511.8195383030972
 30
0.0
 11
1809.82220285772
 21
491.5515383030972
 31
0.0
  0
LINE
  5
2AC3
330
18
100
AcDbEntity
  8
0
100
AcDbLine
 10
1799.82220285772
 20
491.7855383030967
 30
0.0
 11
1799.82220285772
 21
511.5845383030976
 31
0.0
  0
LINE
  5
2AC4
330
18
100
AcDbEntity
  8
0
100
AcDbLine
 10
1810.322202857719
 20
469.0665383030975
 30
0.0
 11
1814.82220285772
 21
469.2075383030972
 31
0.0
  0
LINE
  5
2AC5
330
18
100
AcDbEntity
  8
0
100
AcDbLine
 10
1809.82220285772
 20
469.5515383030972
 30
0.0
 11
1810.322202857719
 21
469.0665383030975
 31
0.0
  0
LINE
  5
2AC6
330
18
100
AcDbEntity
  8
0
100
AcDbLine
 10
1809.82220285772
 20
469.7855383030971
 30
0.0
 11
1799.82220285772
 21
469.7855383030971
 31
0.0
  0
LINE
  5
2AC7
330
18
100
AcDbEntity
  8
0
100
AcDbLine
 10
1809.82220285772
 20
489.5845383030966
 30
0.0
 11
1809.82220285772
 21
469.7855383030971
 31
0.0
  0
LINE
  5
2AC8
330
18
100
AcDbEntity
  8
0
100
AcDbLine
 10
1799.82220285772
 20
469.7855383030971
 30
0.0
 11
1799.82220285772
 21
489.5845383030966
 31
0.0
  0
LINE
  5
2AC9
330
18
100
AcDbEntity
  8
0
100
AcDbLine
 10
1809.82220285772
 20
489.818538303097
 30
0.0
 11
1809.82220285772
 21
469.5515383030972
 31
0.0
  0
LINE
  5
2ACA
330
18
100
AcDbEntity
  8
0
100
AcDbLine
 10
1867.82220285772
 20
446.6855383030972
 30
0.0
 11
1847.822202857719
 21
446.6855383030972
 31
0.0
  0
POLYLINE
  5
2ACB
330
18
100
AcDbEntity
  8
0
100
AcDb2dPolyline
 66
     1
 10
0.0
 20
0.0
 30
0.0
  0
VERTEX
  5
45C2
330
2ACB
100
AcDbEntity
  8
0
100
AcDbVertex
100
AcDb2dVertex
 10
2189.32220285772
 20
491.3675383030965
 30
0.0
 42
0.107696942501049
  0
VERTEX
  5
45C3
330
2ACB
100
AcDbEntity
  8
0
100
AcDbVertex
100
AcDb2dVertex
 10
2207.976368626108
 20
495.4326816386585
 30
0.0
 42
0.1018398349839665
  0
VERTEX
  5
45C4
330
2ACB
100
AcDbEntity
  8
0
100
AcDbVertex
100
AcDb2dVertex
 10
2224.245508123784
 20
507.3474994283404
 30
0.0
 42
0.0945211726760977
  0
VERTEX
  5
45C5
330
2ACB
100
AcDbEntity
  8
0
100
AcDbVertex
100
AcDb2dVertex
 10
2234.881234473311
 20
524.8035097010371
 30
0.0
 42
0.0899257565637016
  0
VERTEX
  5
45C6
330
2ACB
100
AcDbEntity
  8
0
100
AcDbVertex
100
AcDb2dVertex
 10
2238.711214807884
 20
545.9265383030972
 30
0.0
 42
0.0899257565637006
  0
SEQEND
  5
45C7
330
2ACB
100
AcDbEntity
  8
0
  0
ARC
  5
2ACC
330
18
100
AcDbEntity
  8
0
100
AcDbCircle
 10
2168.422202857719
 20
581.6895383030971
 30
0.0
 40
102.0
100
AcDbArc
 50
281.8237599879839
 51
346.4636253248977
  0
POLYLINE
  5
2ACD
330
18
100
AcDbEntity
  8
0
100
AcDb2dPolyline
 66
     1
 10
0.0
 20
0.0
 30
0.0
  0
VERTEX
  5
45C8
330
2ACD
100
AcDbEntity
  8
0
100
AcDbVertex
100
AcDb2dVertex
 10
2238.712202857719
 20
622.8595383030981
 30
0.0
 42
0.1135446756219572
  0
VERTEX
  5
45C9
330
2ACD
100
AcDbEntity
  8
0
100
AcDbVertex
100
AcDb2dVertex
 10
2235.084618972507
 20
638.6278498826361
 30
0.0
 42
0.1035052482649747
  0
VERTEX
  5
45CA
330
2ACD
100
AcDbEntity
  8
0
100
AcDbVertex
100
AcDb2dVertex
 10
2224.246206780523
 20
652.6358048588629
 30
0.0
 42
0.0918863226898913
  0
VERTEX
  5
45CB
330
2ACD
100
AcDbEntity
  8
0
100
AcDbVertex
100
AcDb2dVertex
 10
2208.565085596395
 20
661.6714523827416
 30
0.0
 42
0.085075990665343
  0
VERTEX
  5
45CC
330
2ACD
100
AcDbEntity
  8
0
100
AcDbVertex
100
AcDb2dVertex
 10
2189.32220285772
 20
664.9695383030973
 30
0.0
 42
0.0850759906653445
  0
SEQEND
  5
45CD
330
2ACD
100
AcDbEntity
  8
0
  0
POLYLINE
  5
2ACE
330
18
100
AcDbEntity
  8
0
100
AcDb2dPolyline
 66
     1
 10
0.0
 20
0.0
 30
0.0
  0
VERTEX
  5
45CE
330
2ACE
100
AcDbEntity
  8
0
100
AcDbVertex
100
AcDb2dVertex
 10
2238.710936189216
 20
545.9265383030972
 30
0.0
 42
0.2303778337445353
  0
VERTEX
  5
45CF
330
2ACE
100
AcDbEntity
  8
0
100
AcDbVertex
100
AcDb2dVertex
 10
2236.403729735026
 20
550.4405851864923
 30
0.0
 42
0.0857134771080596
  0
VERTEX
  5
45D0
330
2ACE
100
AcDbEntity
  8
0
100
AcDbVertex
100
AcDb2dVertex
 10
2224.274372042475
 20
556.6696552288378
 30
0.0
 42
0.043280060836277
  0
VERTEX
  5
45D1
330
2ACE
100
AcDbEntity
  8
0
100
AcDbVertex
100
AcDb2dVertex
 10
2209.620276530325
 20
559.899177195308
 30
0.0
 42
0.0319607229775014
  0
VERTEX
  5
45D2
330
2ACE
100
AcDbEntity
  8
0
100
AcDbVertex
100
AcDb2dVertex
 10
2189.362202857719
 20
561.2485383030973
 30
0.0
 42
0.0319607229775038
  0
SEQEND
  5
45D3
330
2ACE
100
AcDbEntity
  8
0
  0
POLYLINE
  5
2ACF
330
18
100
AcDbEntity
  8
0
100
AcDb2dPolyline
 66
     1
 10
0.0
 20
0.0
 30
0.0
  0
VERTEX
  5
45D4
330
2ACF
100
AcDbEntity
  8
0
100
AcDbVertex
100
AcDb2dVertex
 10
2189.32220285772
 20
586.6115383030976
 30
0.0
 42
0.0739141019569554
  0
VERTEX
  5
45D5
330
2ACF
100
AcDbEntity
  8
0
100
AcDbVertex
100
AcDb2dVertex
 10
2208.830330946332
 20
589.511231719159
 30
0.0
 42
0.0847033099063923
  0
VERTEX
  5
45D6
330
2ACF
100
AcDbEntity
  8
0
100
AcDbVertex
100
AcDb2dVertex
 10
2224.246206780523
 20
597.2283316986469
 30
0.0
 42
0.1063598999383303
  0
VERTEX
  5
45D7
330
2ACF
100
AcDbEntity
  8
0
100
AcDbVertex
100
AcDb2dVertex
 10
2235.23089688737
 20
609.608410951416
 30
0.0
 42
0.1291672456714229
  0
VERTEX
  5
45D8
330
2ACF
100
AcDbEntity
  8
0
100
AcDbVertex
100
AcDb2dVertex
 10
2238.712202857719
 20
622.8595383030972
 30
0.0
 42
0.1291672456714209
  0
SEQEND
  5
45D9
330
2ACF
100
AcDbEntity
  8
0
  0
POLYLINE
  5
2AD0
330
18
100
AcDbEntity
  8
0
100
AcDb2dPolyline
 66
     1
 10
0.0
 20
0.0
 30
0.0
  0
VERTEX
  5
45DA
330
2AD0
100
AcDbEntity
  8
0
100
AcDbVertex
100
AcDb2dVertex
 10
2189.32220285772
 20
669.8495383030969
 30
0.0
 42
0.070022296758922
  0
VERTEX
  5
45DB
330
2AD0
100
AcDbEntity
  8
0
100
AcDbVertex
100
AcDb2dVertex
 10
2208.917774819358
 20
672.6073139236502
 30
0.0
 42
0.0818203175941617
  0
VERTEX
  5
45DC
330
2AD0
100
AcDbEntity
  8
0
100
AcDbVertex
100
AcDb2dVertex
 10
2224.246206780523
 20
679.8782021152699
 30
0.0
 42
0.1069143253087146
  0
VERTEX
  5
45DD
330
2AD0
100
AcDbEntity
  8
0
100
AcDbVertex
100
AcDb2dVertex
 10
2235.29211803281
 20
691.6974305568958
 30
0.0
 42
0.1354622733701762
  0
VERTEX
  5
45DE
330
2AD0
100
AcDbEntity
  8
0
100
AcDbVertex
100
AcDb2dVertex
 10
2238.712202857719
 20
704.0895383030972
 30
0.0
 42
0.1354622733701786
  0
SEQEND
  5
45DF
330
2AD0
100
AcDbEntity
  8
0
  0
ARC
  5
2AD1
330
18
100
AcDbEntity
  8
0
100
AcDbCircle
 10
2125.522202857719
 20
532.3855383030974
 30
0.0
 40
20.0
100
AcDbArc
 50
90.0
 51
270.0
  0
LINE
  5
2AD2
330
18
100
AcDbEntity
  8
0
100
AcDbLine
 10
2135.822202857719
 20
446.6855383030972
 30
0.0
 11
2135.822202857719
 21
606.6855383030972
 31
0.0
  0
LINE
  5
2AD3
330
18
100
AcDbEntity
  8
0
100
AcDbLine
 10
2156.822202857719
 20
446.6855383030972
 30
0.0
 11
2156.822202857719
 21
606.6855383030972
 31
0.0
  0
ARC
  5
2AD4
330
18
100
AcDbEntity
  8
0
100
AcDbCircle
 10
1825.18407988883
 20
689.1516160212288
 30
0.0
 40
299.9046610765653
100
AcDbArc
 50
317.9473567938915
 51
2.323366949997997
  0
LINE
  5
2AD5
330
18
100
AcDbEntity
  8
0
100
AcDbLine
 10
2135.822202857719
 20
446.6855383030972
 30
0.0
 11
2161.822202857719
 21
446.6855383030972
 31
0.0
  0
ARC
  5
2AD6
330
18
100
AcDbEntity
  8
0
100
AcDbCircle
 10
2125.522202857719
 20
472.885538303097
 30
0.0
 40
20.0
100
AcDbArc
 50
90.0
 51
270.0
  0
ARC
  5
2AD7
330
18
100
AcDbEntity
  8
0
100
AcDbCircle
 10
2130.822202857719
 20
447.885538303097
 30
0.0
 40
5.0
100
AcDbArc
 50
0.0
 51
90.0
  0
LINE
  5
2AD8
330
18
100
AcDbEntity
  8
0
100
AcDbLine
 10
2125.522202857719
 20
452.885538303097
 30
0.0
 11
2130.822202857719
 21
452.885538303097
 31
0.0
  0
ARC
  5
2AD9
330
18
100
AcDbEntity
  8
0
100
AcDbCircle
 10
2130.822202857719
 20
507.3855383030974
 30
0.0
 40
5.0
100
AcDbArc
 50
0.0
 51
90.0
  0
LINE
  5
2ADA
330
18
100
AcDbEntity
  8
0
100
AcDbLine
 10
2125.522202857719
 20
512.3855383030975
 30
0.0
 11
2130.822202857719
 21
512.3855383030975
 31
0.0
  0
LINE
  5
2ADB
330
18
100
AcDbEntity
  8
0
100
AcDbLine
 10
2125.522202857719
 20
492.885538303097
 30
0.0
 11
2130.822202857719
 21
492.885538303097
 31
0.0
  0
ARC
  5
2ADC
330
18
100
AcDbEntity
  8
0
100
AcDbCircle
 10
2130.822202857719
 20
497.885538303097
 30
0.0
 40
5.0
100
AcDbArc
 50
270.0
 51
0.0
  0
LINE
  5
2ADD
330
18
100
AcDbEntity
  8
0
100
AcDbLine
 10
2199.72220285772
 20
457.405538303097
 30
0.0
 11
2201.32220285772
 21
460.1675383030972
 31
0.0
  0
ARC
  5
2ADE
330
18
100
AcDbEntity
  8
0
100
AcDbCircle
 10
2192.79117151978
 20
461.7355383030969
 30
0.0
 40
8.172928263939018
100
AcDbArc
 50
327.9999349608691
 51
32.00006503913082
  0
LINE
  5
2ADF
330
18
100
AcDbEntity
  8
0
100
AcDbLine
 10
2189.322202857719
 20
457.405538303097
 30
0.0
 11
2199.72220285772
 21
457.405538303097
 31
0.0
  0
LINE
  5
2AE0
330
18
100
AcDbEntity
  8
0
100
AcDbLine
 10
2163.322202857719
 20
446.6895383030971
 30
0.0
 11
2189.322202857719
 21
446.6895383030971
 31
0.0
  0
LINE
  5
2AE1
330
18
100
AcDbEntity
  8
0
100
AcDbLine
 10
2199.72220285772
 20
466.0665383030971
 30
0.0
 11
2189.322202857719
 21
466.0665383030971
 31
0.0
  0
ARC
  5
2AE2
330
18
100
AcDbEntity
  8
0
100
AcDbCircle
 10
2192.790914991397
 20
487.7155383030969
 30
0.0
 40
8.173145813322054
100
AcDbArc
 50
328.0008879310268
 51
339.4480439959015
  0
LINE
  5
2AE3
330
18
100
AcDbEntity
  8
0
100
AcDbLine
 10
2199.72220285772
 20
483.3845383030973
 30
0.0
 11
2195.627477622
 21
483.3845383030973
 31
0.0
  0
ARC
  5
2AE4
330
18
100
AcDbEntity
  8
0
100
AcDbCircle
 10
2170.148488306498
 20
474.7255383030972
 30
0.0
 40
30.81530258422212
100
AcDbArc
 50
343.6802968976994
 51
16.31970310230057
  0
LINE
  5
2AE5
330
18
100
AcDbEntity
  8
0
100
AcDbLine
 10
2201.32220285772
 20
460.1675383030972
 30
0.0
 11
2201.32220285772
 21
485.1411566491308
 31
0.0
  0
ARC
  5
2AE6
330
18
100
AcDbEntity
  8
0
100
AcDbCircle
 10
2192.790914991398
 20
635.8485383030973
 30
0.0
 40
8.173145813321802
100
AcDbArc
 50
328.0008879310268
 51
31.99911206897319
  0
LINE
  5
2AE7
330
18
100
AcDbEntity
  8
0
100
AcDbLine
 10
2201.32220285772
 20
608.2995383030972
 30
0.0
 11
2201.32220285772
 21
637.4175383030972
 31
0.0
  0
ARC
  5
2AE8
330
18
100
AcDbEntity
  8
0
100
AcDbCircle
 10
2130.822202857719
 20
557.3855383030974
 30
0.0
 40
5.0
100
AcDbArc
 50
270.0
 51
0.0
  0
LINE
  5
2AE9
330
18
100
AcDbEntity
  8
0
100
AcDbLine
 10
2125.522202857719
 20
552.3855383030975
 30
0.0
 11
2130.822202857719
 21
552.3855383030975
 31
0.0
  0
LINE
  5
2AEA
330
18
100
AcDbEntity
  8
0
100
AcDbLine
 10
2199.72220285772
 20
524.7405383030971
 30
0.0
 11
2189.322202857719
 21
524.7405383030971
 31
0.0
  0
LINE
  5
2AEB
330
18
100
AcDbEntity
  8
0
100
AcDbLine
 10
2199.72220285772
 20
542.0585383030973
 30
0.0
 11
2189.322202857719
 21
542.0585383030973
 31
0.0
  0
LINE
  5
2AEC
330
18
100
AcDbEntity
  8
0
100
AcDbLine
 10
2199.72220285772
 20
550.7205383030971
 30
0.0
 11
2189.322202857719
 21
550.7205383030971
 31
0.0
  0
LINE
  5
2AED
330
18
100
AcDbEntity
  8
0
100
AcDbLine
 10
2189.322202857719
 20
516.0795383030965
 30
0.0
 11
2199.72220285772
 21
516.0795383030965
 31
0.0
  0
ARC
  5
2AEE
330
18
100
AcDbEntity
  8
0
100
AcDbCircle
 10
2170.148488306498
 20
533.3995383030972
 30
0.0
 40
30.81530258422212
100
AcDbArc
 50
343.6802968976994
 51
16.31970310230057
  0
ARC
  5
2AEF
330
18
100
AcDbEntity
  8
0
100
AcDbCircle
 10
2192.790914991397
 20
546.3895383030969
 30
0.0
 40
8.173145813322054
100
AcDbArc
 50
328.0008879310268
 51
31.99911206897319
  0
LINE
  5
2AF0
330
18
100
AcDbEntity
  8
0
100
AcDbLine
 10
2201.32220285772
 20
547.9585383030969
 30
0.0
 11
2199.72220285772
 21
550.7205383030971
 31
0.0
  0
LINE
  5
2AF1
330
18
100
AcDbEntity
  8
0
100
AcDbLine
 10
2199.72220285772
 20
516.0795383030965
 30
0.0
 11
2201.32220285772
 21
518.8415383030972
 31
0.0
  0
LINE
  5
2AF2
330
18
100
AcDbEntity
  8
0
100
AcDbLine
 10
2201.32220285772
 20
518.8415383030972
 30
0.0
 11
2201.32220285772
 21
547.9585383030969
 31
0.0
  0
ARC
  5
2AF3
330
18
100
AcDbEntity
  8
0
100
AcDbCircle
 10
2192.79117151978
 20
520.4095383030964
 30
0.0
 40
8.172928263939018
100
AcDbArc
 50
327.9999349608691
 51
32.00006503913082
  0
LINE
  5
2AF4
330
18
100
AcDbEntity
  8
0
100
AcDbLine
 10
2199.72220285772
 20
631.5175383030971
 30
0.0
 11
2189.322202857719
 21
631.5175383030971
 31
0.0
  0
LINE
  5
2AF5
330
18
100
AcDbEntity
  8
0
100
AcDbLine
 10
2199.72220285772
 20
614.1995383030973
 30
0.0
 11
2189.322202857719
 21
614.1995383030973
 31
0.0
  0
LINE
  5
2AF6
330
18
100
AcDbEntity
  8
0
100
AcDbLine
 10
2189.322202857719
 20
605.5385383030973
 30
0.0
 11
2199.72220285772
 21
605.5385383030973
 31
0.0
  0
LINE
  5
2AF7
330
18
100
AcDbEntity
  8
0
100
AcDbLine
 10
2199.72220285772
 20
605.5385383030973
 30
0.0
 11
2201.32220285772
 21
608.2995383030972
 31
0.0
  0
ARC
  5
2AF8
330
18
100
AcDbEntity
  8
0
100
AcDbCircle
 10
2192.790914991398
 20
609.8685383030972
 30
0.0
 40
8.173145813321802
100
AcDbArc
 50
328.0008879310268
 51
31.99911206897319
  0
ARC
  5
2AF9
330
18
100
AcDbEntity
  8
0
100
AcDbCircle
 10
2170.148488306498
 20
622.858538303097
 30
0.0
 40
30.81530258422233
100
AcDbArc
 50
343.6802968976994
 51
16.31970310230057
  0
ARC
  5
2AFA
330
18
100
AcDbEntity
  8
0
100
AcDbCircle
 10
2106.879694291885
 20
750.1342005644776
 30
0.0
 40
52.0240267464521
100
AcDbArc
 50
290.1984812779728
 51
350.580142241986
  0
LINE
  5
2AFB
330
18
100
AcDbEntity
  8
0
100
AcDbLine
 10
2201.32220285772
 20
689.5295383030973
 30
0.0
 11
2201.32220285772
 21
718.6495383030972
 31
0.0
  0
ARC
  5
2AFC
330
18
100
AcDbEntity
  8
0
100
AcDbCircle
 10
2192.792857336678
 20
691.099538303097
 30
0.0
 40
8.1709686910404
100
AcDbArc
 50
327.9996173051574
 51
32.00038269484255
  0
LINE
  5
2AFD
330
18
100
AcDbEntity
  8
0
100
AcDbLine
 10
2189.322202857719
 20
686.769538303097
 30
0.0
 11
2199.72220285772
 21
686.769538303097
 31
0.0
  0
LINE
  5
2AFE
330
18
100
AcDbEntity
  8
0
100
AcDbLine
 10
2199.72220285772
 20
640.1795383030978
 30
0.0
 11
2189.322202857719
 21
640.1795383030978
 31
0.0
  0
LINE
  5
2AFF
330
18
100
AcDbEntity
  8
0
100
AcDbLine
 10
2199.72220285772
 20
686.769538303097
 30
0.0
 11
2201.32220285772
 21
689.5295383030973
 31
0.0
  0
LINE
  5
2B00
330
18
100
AcDbEntity
  8
0
100
AcDbLine
 10
2201.32220285772
 20
637.4175383030972
 30
0.0
 11
2199.72220285772
 21
640.1795383030978
 31
0.0
  0
LINE
  5
2B01
330
18
100
AcDbEntity
  8
0
100
AcDbLine
 10
2199.72220285772
 20
695.4295383030969
 30
0.0
 11
2189.322202857719
 21
695.4295383030969
 31
0.0
  0
LINE
  5
2B02
330
18
100
AcDbEntity
  8
0
100
AcDbLine
 10
2199.72220285772
 20
712.7495383030971
 30
0.0
 11
2189.322202857719
 21
712.7495383030971
 31
0.0
  0
LINE
  5
2B03
330
18
100
AcDbEntity
  8
0
100
AcDbLine
 10
2199.72220285772
 20
721.4095383030969
 30
0.0
 11
2189.322202857719
 21
721.4095383030969
 31
0.0
  0
ARC
  5
2B04
330
18
100
AcDbEntity
  8
0
100
AcDbCircle
 10
2170.145287866894
 20
704.0895383030972
 30
0.0
 40
30.81865507082559
100
AcDbArc
 50
343.6801846146565
 51
16.31981538534343
  0
ARC
  5
2B05
330
18
100
AcDbEntity
  8
0
100
AcDbCircle
 10
2192.79274335443
 20
717.079538303097
 30
0.0
 40
8.171065353289751
100
AcDbArc
 50
328.0000408462067
 51
31.9999591537932
  0
LINE
  5
2B06
330
18
100
AcDbEntity
  8
0
100
AcDbLine
 10
2201.32220285772
 20
718.6495383030972
 30
0.0
 11
2199.72220285772
 21
721.4095383030969
 31
0.0
  0
LINE
  5
2B07
330
18
100
AcDbEntity
  8
0
100
AcDbLine
 10
2442.322202857719
 20
637.1895383030971
 30
0.0
 11
2442.322202857719
 21
482.1895383030971
 31
0.0
  0
LINE
  5
2B08
330
18
100
AcDbEntity
  8
0
100
AcDbLine
 10
2458.322202857719
 20
637.1895383030971
 30
0.0
 11
2458.322202857719
 21
482.1895383030971
 31
0.0
  0
LINE
  5
2B09
330
18
100
AcDbEntity
  8
0
100
AcDbLine
 10
2442.322202857719
 20
482.1895383030971
 30
0.0
 11
2458.322202857719
 21
482.1895383030971
 31
0.0
  0
LINE
  5
2B0A
330
18
100
AcDbEntity
  8
0
100
AcDbLine
 10
2329.322202857719
 20
589.9395383030974
 30
0.0
 11
2433.122202857719
 21
589.9395383030971
 31
0.0
  0
LINE
  5
2B0B
330
18
100
AcDbEntity
  8
0
100
AcDbLine
 10
2329.322202857719
 20
529.4395383030966
 30
0.0
 11
2433.122202857719
 21
529.4395383030972
 31
0.0
  0
ARC
  5
2B0C
330
18
100
AcDbEntity
  8
0
100
AcDbCircle
 10
2110.322202857719
 20
596.6895383030971
 30
0.0
 40
162.0
100
AcDbArc
 50
344.9319780115837
 51
15.06802198841625
  0
LINE
  5
2B0D
330
18
100
AcDbEntity
  8
0
100
AcDbLine
 10
2329.322202857719
 20
518.6895383030971
 30
0.0
 11
2248.640654600444
 21
518.6895383030971
 31
0.0
  0
LINE
  5
2B0E
330
18
100
AcDbEntity
  8
0
100
AcDbLine
 10
2329.322202857719
 20
600.6895383030971
 30
0.0
 11
2300.322202857719
 21
600.6895383030971
 31
0.0
  0
ARC
  5
2B0F
330
18
100
AcDbEntity
  8
0
100
AcDbCircle
 10
2217.729169372137
 20
595.4583752624305
 30
0.0
 40
82.75852975439168
100
AcDbArc
 50
303.7201606115925
 51
355.4229937256657
  0
LINE
  5
2B10
330
18
100
AcDbEntity
  8
0
100
AcDbLine
 10
2329.322202857719
 20
596.4395383030971
 30
0.0
 11
2329.322202857719
 21
522.9395383030971
 31
0.0
  0
LINE
  5
2B11
330
18
100
AcDbEntity
  8
0
100
AcDbLine
 10
2329.322202857719
 20
559.6895383030971
 30
0.0
 11
2329.322202857719
 21
600.6895383030971
 31
0.0
  0
LINE
  5
2B12
330
18
100
AcDbEntity
  8
0
100
AcDbLine
 10
2329.322202857719
 20
559.6895383030971
 30
0.0
 11
2329.322202857719
 21
518.6895383030971
 31
0.0
  0
ARC
  5
2B13
330
18
100
AcDbEntity
  8
0
100
AcDbCircle
 10
2168.422202857719
 20
611.6895383030971
 30
0.0
 40
102.0
100
AcDbArc
 50
13.53637467510222
 51
17.27278143065853
  0
LINE
  5
2B14
330
18
100
AcDbEntity
  8
0
100
AcDbLine
 10
2433.122202857719
 20
589.9395383030971
 30
0.0
 11
2433.122202857719
 21
529.4395383030972
 31
0.0
  0
LINE
  5
2B15
330
18
100
AcDbEntity
  8
0
100
AcDbLine
 10
2433.122202857719
 20
529.4395383030972
 30
0.0
 11
2442.322202857719
 21
520.2395383030973
 31
0.0
  0
LINE
  5
2B16
330
18
100
AcDbEntity
  8
0
100
AcDbLine
 10
2442.322202857719
 20
599.1395383030969
 30
0.0
 11
2433.122202857719
 21
589.9395383030971
 31
0.0
  0
LINE
  5
2B17
330
18
100
AcDbEntity
  8
0
100
AcDbLine
 10
2442.322202857719
 20
637.1895383030971
 30
0.0
 11
2458.322202857719
 21
637.1895383030971
 31
0.0
  0
ARC
  5
2B20
330
18
100
AcDbEntity
  8
0
100
AcDbCircle
 10
1213.688179849819
 20
794.6895383030971
 30
0.0
 40
212.0
100
AcDbArc
 50
0.0
 51
180.0
  0
LINE
  5
2B21
330
18
100
AcDbEntity
  8
0
100
AcDbLine
 10
1151.188179849819
 20
1159.689538303097
 30
0.0
 11
1276.188179849819
 21
1159.689538303097
 31
0.0
  0
LINE
  5
2B22
330
18
100
AcDbEntity
  8
0
100
AcDbLine
 10
1151.188179849819
 20
1173.689538303097
 30
0.0
 11
1276.188179849819
 21
1173.689538303097
 31
0.0
  0
ARC
  5
2B23
330
18
100
AcDbEntity
  8
0
100
AcDbCircle
 10
1213.688179849819
 20
961.6905383030973
 30
0.0
 40
24.0
100
AcDbArc
 50
0.0
 51
180.0
  0
LINE
  5
2B24
330
18
100
AcDbEntity
  8
0
100
AcDbLine
 10
1213.588179849819
 20
971.5910383030971
 30
0.0
 11
1203.688179849819
 21
961.6920383030972
 31
0.0
  0
ARC
  5
2B25
330
18
100
AcDbEntity
  8
0
100
AcDbCircle
 10
1213.688179849819
 20
880.4416152065893
 30
0.0
 40
57.5942316549036
100
AcDbArc
 50
72.45804874314398
 51
107.541951256856
  0
LINE
  5
2B26
330
18
100
AcDbEntity
  8
0
100
AcDbLine
 10
1203.688179849819
 20
961.6920383030972
 30
0.0
 11
1213.588179849819
 21
951.792038303097
 31
0.0
  0
CIRCLE
  5
2B27
330
18
100
AcDbEntity
  8
0
100
AcDbCircle
 10
1213.688179849819
 20
961.6910383030974
 30
0.0
 40
10.62976594286058
  0
ARC
  5
2B28
330
18
100
AcDbEntity
  8
0
100
AcDbCircle
 10
1185.68817984982
 20
938.0358468614929
 30
0.0
 40
4.0
100
AcDbArc
 50
270.0
 51
0.0
  0
LINE
  5
2B29
330
18
100
AcDbEntity
  8
0
100
AcDbLine
 10
1189.688179849819
 20
961.6905383030973
 30
0.0
 11
1189.688179849819
 21
938.0358468614929
 31
0.0
  0
ARC
  5
2B2A
330
18
100
AcDbEntity
  8
0
100
AcDbCircle
 10
1241.688179849819
 20
938.0358468614929
 30
0.0
 40
4.0
100
AcDbArc
 50
180.0
 51
270.0
  0
LINE
  5
2B2B
330
18
100
AcDbEntity
  8
0
100
AcDbLine
 10
1237.688179849819
 20
961.6905383030973
 30
0.0
 11
1237.688179849819
 21
938.0358468614929
 31
0.0
  0
LINE
  5
2B2C
330
18
100
AcDbEntity
  8
0
100
AcDbLine
 10
1223.488179849819
 20
961.6920383030972
 30
0.0
 11
1213.588179849819
 21
971.5910383030971
 31
0.0
  0
LINE
  5
2B2D
330
18
100
AcDbEntity
  8
0
100
AcDbLine
 10
1213.588179849819
 20
951.792038303097
 30
0.0
 11
1223.488179849819
 21
961.6920383030972
 31
0.0
  0
LINE
  5
2B2E
330
18
100
AcDbEntity
  8
0
100
AcDbLine
 10
1196.688179849819
 20
1006.006835276156
 30
0.0
 11
1196.688179849819
 21
1152.189538303097
 31
0.0
  0
LINE
  5
2B2F
330
18
100
AcDbEntity
  8
0
100
AcDbLine
 10
1230.688179849819
 20
1006.006835276156
 30
0.0
 11
1230.688179849819
 21
1152.189538303096
 31
0.0
  0
LINE
  5
2B62
330
18
100
AcDbEntity
  8
0
100
AcDbLine
 10
1151.188179849819
 20
1173.689538303097
 30
0.0
 11
1151.188179849819
 21
1159.689538303097
 31
0.0
  0
LINE
  5
2B63
330
18
100
AcDbEntity
  8
0
100
AcDbLine
 10
1238.188179849819
 20
1159.689538303097
 30
0.0
 11
1230.688179849819
 21
1152.189538303097
 31
0.0
  0
LINE
  5
2B64
330
18
100
AcDbEntity
  8
0
100
AcDbLine
 10
1189.188179849819
 20
1159.689538303097
 30
0.0
 11
1196.688179849819
 21
1152.189538303097
 31
0.0
  0
LINE
  5
2B65
330
18
100
AcDbEntity
  8
0
100
AcDbLine
 10
1196.688179849819
 20
1152.189538303097
 30
0.0
 11
1230.688179849819
 21
1152.189538303096
 31
0.0
  0
ARC
  5
2B66
330
18
100
AcDbEntity
  8
0
100
AcDbCircle
 10
2280.638560912112
 20
1616.406757609821
 30
0.0
 40
30.00215664841054
100
AcDbArc
 50
211.7828020222236
 51
270.0126842699353
  0
ARC
  5
2B67
330
18
100
AcDbEntity
  8
0
100
AcDbCircle
 10
2199.802296332077
 20
1566.470639272466
 30
0.0
 40
40.0
100
AcDbArc
 50
35.23913664721901
 51
73.80556916465704
  0
ARC
  5
2B68
330
18
100
AcDbEntity
  8
0
100
AcDbCircle
 10
2197.597466221469
 20
1531.035791612875
 30
0.0
 40
75.0
100
AcDbArc
 50
22.22537526638953
 51
79.41123078247497
  0
ARC
  5
2B69
330
18
100
AcDbEntity
  8
0
100
AcDbCircle
 10
2192.787741669092
 20
1598.599601696615
 30
0.0
 40
8.180500763628732
100
AcDbArc
 50
328.0000408462289
 51
31.9999591537711
  0
LINE
  5
2B6A
330
18
100
AcDbEntity
  8
0
100
AcDbLine
 10
2201.325202857721
 20
1594.011702667438
 30
0.0
 11
2201.325202857721
 21
1600.164601696616
 31
0.0
  0
LINE
  5
2B6B
330
18
100
AcDbEntity
  8
0
100
AcDbLine
 10
2189.325202857721
 20
1679.904601696615
 30
0.0
 11
2189.325202857721
 21
1591.447560902554
 31
0.0
  0
ARC
  5
2B6C
330
18
100
AcDbEntity
  8
0
100
AcDbCircle
 10
1991.99208523003
 20
1764.067717389262
 30
0.0
 40
185.7900741163913
100
AcDbArc
 50
296.0800107768651
 51
317.6482472350573
  0
LINE
  5
2B6D
330
18
100
AcDbEntity
  8
0
100
AcDbLine
 10
2161.825202857721
 20
1573.669167910095
 30
0.0
 11
2161.825202857721
 21
1681.904601696615
 31
0.0
  0
LINE
  5
2B6E
330
18
100
AcDbEntity
  8
0
100
AcDbLine
 10
2163.32520285772
 20
1575.281092921704
 30
0.0
 11
2163.32520285772
 21
1661.904601696615
 31
0.0
  0
LINE
  5
2B6F
330
18
100
AcDbEntity
  8
0
100
AcDbLine
 10
2163.32520285772
 20
1681.904601696615
 30
0.0
 11
2163.32520285772
 21
1575.281092921704
 31
0.0
  0
LINE
  5
2B70
330
18
100
AcDbEntity
  8
0
100
AcDbLine
 10
2161.825202857721
 20
1661.904601696615
 30
0.0
 11
2161.825202857721
 21
1573.669167910095
 31
0.0
  0
ARC
  5
2B71
330
18
100
AcDbEntity
  8
0
100
AcDbCircle
 10
1974.82124674574
 20
1531.903272704696
 30
0.0
 40
211.9990438921857
100
AcDbArc
 50
46.11371454038086
 51
179.9996408208819
  0
ARC
  5
2B74
330
18
100
AcDbEntity
  8
0
100
AcDbCircle
 10
1974.82220285772
 20
794.6855383030972
 30
0.0
 40
212.0
100
AcDbArc
 50
40.58567736699957
 51
180.0
  0
ARC
  5
2B75
330
18
100
AcDbEntity
  8
0
100
AcDbCircle
 10
1974.823249411628
 20
1531.900635660165
 30
0.0
 40
212.0010465910055
100
AcDbArc
 50
179.9989281319497
 51
313.8850138834311
  0
LINE
  5
2B76
330
18
100
AcDbEntity
  8
0
100
AcDbLine
 10
1276.188179849819
 20
1173.689538303097
 30
0.0
 11
1276.188179849819
 21
1159.689538303097
 31
0.0
  0
LINE
  5
2B77
330
18
100
AcDbEntity
  8
0
100
AcDbLine
 10
1814.82220285772
 20
937.458084683695
 30
0.0
 11
1814.82220285772
 21
980.6855383030972
 31
0.0
  0
LINE
  5
2B78
330
18
100
AcDbEntity
  8
0
100
AcDbLine
 10
1814.82220285772
 20
969.1555383030971
 30
0.0
 11
1810.322202857719
 21
969.2955383030973
 31
0.0
  0
LINE
  5
2B79
330
18
100
AcDbEntity
  8
0
100
AcDbLine
 10
1810.322202857719
 20
969.2955383030973
 30
0.0
 11
1809.82220285772
 21
968.8155383030974
 31
0.0
  0
LINE
  5
2B7A
330
18
100
AcDbEntity
  8
0
100
AcDbLine
 10
1799.82220285772
 20
968.5855383030977
 30
0.0
 11
1809.82220285772
 21
968.5855383030977
 31
0.0
  0
ARC
  5
2B7B
330
18
100
AcDbEntity
  8
0
100
AcDbCircle
 10
1804.82220285772
 20
937.458084683695
 30
0.0
 40
10.0
100
AcDbArc
 50
319.9751661144847
 51
0.0
  0
LINE
  5
2B7C
330
18
100
AcDbEntity
  8
0
100
AcDbLine
 10
1799.82220285772
 20
958.6855383030972
 30
0.0
 11
1809.82220285772
 21
958.6855383030972
 31
0.0
  0
LINE
  5
2B7D
330
18
100
AcDbEntity
  8
0
100
AcDbLine
 10
1810.322202857719
 20
948.0655383030974
 30
0.0
 11
1814.82220285772
 21
948.2055383030976
 31
0.0
  0
LINE
  5
2B7E
330
18
100
AcDbEntity
  8
0
100
AcDbLine
 10
1809.82220285772
 20
948.5455383030974
 30
0.0
 11
1810.322202857719
 21
948.0655383030974
 31
0.0
  0
LINE
  5
2B7F
330
18
100
AcDbEntity
  8
0
100
AcDbLine
 10
1809.82220285772
 20
948.7855383030975
 30
0.0
 11
1799.82220285772
 21
948.7855383030975
 31
0.0
  0
LINE
  5
2B80
330
18
100
AcDbEntity
  8
0
100
AcDbLine
 10
1809.82220285772
 20
968.5855383030977
 30
0.0
 11
1809.82220285772
 21
948.7855383030975
 31
0.0
  0
LINE
  5
2B81
330
18
100
AcDbEntity
  8
0
100
AcDbLine
 10
1809.82220285772
 20
968.8155383030974
 30
0.0
 11
1809.82220285772
 21
948.5455383030974
 31
0.0
  0
LINE
  5
2B82
330
18
100
AcDbEntity
  8
0
100
AcDbLine
 10
1799.82220285772
 20
948.7855383030975
 30
0.0
 11
1799.82220285772
 21
968.5855383030977
 31
0.0
  0
LINE
  5
2B83
330
18
100
AcDbEntity
  8
0
100
AcDbLine
 10
1882.827637800864
 20
985.6855383030973
 30
0.0
 11
1819.82220285772
 21
985.6855383030973
 31
0.0
  0
ARC
  5
2B84
330
18
100
AcDbEntity
  8
0
100
AcDbCircle
 10
1819.82220285772
 20
980.6855383030972
 30
0.0
 40
5.0
100
AcDbArc
 50
90.0
 51
180.0
  0
ARC
  5
2B85
330
18
100
AcDbEntity
  8
0
100
AcDbCircle
 10
1812.630665201501
 20
1003.533269685183
 30
0.0
 40
551.3690986840762
100
AcDbArc
 50
82.08868390036828
 51
89.24580777768795
  0
LINE
  5
2B86
330
18
100
AcDbEntity
  8
0
100
AcDbLine
 10
1819.88820285772
 20
1508.944601696615
 30
0.0
 11
1826.77120285772
 21
1509.084601696615
 31
0.0
  0
LINE
  5
2B87
330
18
100
AcDbEntity
  8
0
100
AcDbLine
 10
1814.822202857721
 20
1549.854601696615
 30
0.0
 11
1814.822202857721
 21
1513.944601696615
 31
0.0
  0
LINE
  5
2B88
330
18
100
AcDbEntity
  8
0
100
AcDbLine
 10
1810.322202857721
 20
1542.524601696615
 30
0.0
 11
1810.322202857721
 21
1521.284601696615
 31
0.0
  0
LINE
  5
2B89
330
18
100
AcDbEntity
  8
0
100
AcDbLine
 10
1814.822202857721
 20
1521.424601696615
 30
0.0
 11
1814.822202857721
 21
1542.374601696615
 31
0.0
  0
LINE
  5
2B8A
330
18
100
AcDbEntity
  8
0
100
AcDbLine
 10
1809.822202857721
 20
1542.034601696615
 30
0.0
 11
1809.822202857721
 21
1521.764601696615
 31
0.0
  0
LINE
  5
2B8B
330
18
100
AcDbEntity
  8
0
100
AcDbLine
 10
1809.822202857721
 20
1541.804601696615
 30
0.0
 11
1809.822202857721
 21
1522.004601696615
 31
0.0
  0
LINE
  5
2B8C
330
18
100
AcDbEntity
  8
0
100
AcDbLine
 10
1799.822202857721
 20
1522.004601696615
 30
0.0
 11
1799.822202857721
 21
1541.804601696615
 31
0.0
  0
ARC
  5
2B8D
330
18
100
AcDbEntity
  8
0
100
AcDbCircle
 10
1819.822242833122
 20
1513.944206599691
 30
0.0
 40
5.000039991010942
100
AcDbArc
 50
179.9954725589582
 51
270.7558620842466
  0
LINE
  5
2B8E
330
18
100
AcDbEntity
  8
0
100
AcDbLine
 10
1809.822202857721
 20
1521.764601696615
 30
0.0
 11
1810.322202857721
 21
1521.284601696615
 31
0.0
  0
LINE
  5
2B8F
330
18
100
AcDbEntity
  8
0
100
AcDbLine
 10
1810.322202857721
 20
1521.284601696615
 30
0.0
 11
1814.822202857721
 21
1521.424601696615
 31
0.0
  0
LINE
  5
2B90
330
18
100
AcDbEntity
  8
0
100
AcDbLine
 10
1809.822202857721
 20
1522.434601696615
 30
0.0
 11
1814.822202857721
 21
1522.584601696615
 31
0.0
  0
LINE
  5
2B91
330
18
100
AcDbEntity
  8
0
100
AcDbLine
 10
1819.88820285772
 20
1508.944601696615
 30
0.0
 11
1819.88820285772
 21
1508.944601696615
 31
0.0
  0
LINE
  5
2B92
330
18
100
AcDbEntity
  8
0
100
AcDbLine
 10
1799.822202857721
 20
1531.904601696616
 30
0.0
 11
1809.822202857721
 21
1531.904601696616
 31
0.0
  0
LINE
  5
2B93
330
18
100
AcDbEntity
  8
0
100
AcDbLine
 10
1809.822202857721
 20
1522.004601696615
 30
0.0
 11
1799.822202857721
 21
1522.004601696615
 31
0.0
  0
LINE
  5
2B94
330
18
100
AcDbEntity
  8
0
100
AcDbLine
 10
1809.822202857721
 20
1541.374601696615
 30
0.0
 11
1814.822202857721
 21
1541.214601696615
 31
0.0
  0
LINE
  5
2B95
330
18
100
AcDbEntity
  8
0
100
AcDbLine
 10
1814.822202857721
 20
1542.374601696615
 30
0.0
 11
1810.322202857721
 21
1542.524601696615
 31
0.0
  0
LINE
  5
2B96
330
18
100
AcDbEntity
  8
0
100
AcDbLine
 10
1810.322202857721
 20
1542.524601696615
 30
0.0
 11
1809.822202857721
 21
1542.034601696615
 31
0.0
  0
LINE
  5
2B97
330
18
100
AcDbEntity
  8
0
100
AcDbLine
 10
1799.822202857721
 20
1541.804601696615
 30
0.0
 11
1809.822202857721
 21
1541.804601696615
 31
0.0
  0
ARC
  5
2B98
330
18
100
AcDbEntity
  8
0
100
AcDbCircle
 10
1819.822251233652
 20
1549.854988282121
 30
0.0
 40
5.000048390875921
100
AcDbArc
 50
89.24423545610229
 51
180.0044299007112
  0
LINE
  5
2B99
330
18
100
AcDbEntity
  8
0
100
AcDbLine
 10
1861.153202857721
 20
1511.044601696615
 30
0.0
 11
1868.01120285772
 21
1511.694601696615
 31
0.0
  0
LINE
  5
2B9A
330
18
100
AcDbEntity
  8
0
100
AcDbLine
 10
1833.65420285772
 20
1509.304601696615
 30
0.0
 11
1840.53520285772
 21
1509.604601696615
 31
0.0
  0
LINE
  5
2B9B
330
18
100
AcDbEntity
  8
0
100
AcDbLine
 10
1826.77120285772
 20
1509.084601696615
 30
0.0
 11
1833.65420285772
 21
1509.304601696615
 31
0.0
  0
LINE
  5
2B9C
330
18
100
AcDbEntity
  8
0
100
AcDbLine
 10
1854.286202857721
 20
1510.474601696615
 30
0.0
 11
1861.153202857721
 21
1511.044601696615
 31
0.0
  0
LINE
  5
2B9D
330
18
100
AcDbEntity
  8
0
100
AcDbLine
 10
1847.41320285772
 20
1509.994601696615
 30
0.0
 11
1854.286202857721
 21
1510.474601696615
 31
0.0
  0
LINE
  5
2B9E
330
18
100
AcDbEntity
  8
0
100
AcDbLine
 10
1840.53520285772
 20
1509.604601696615
 30
0.0
 11
1847.41320285772
 21
1509.994601696615
 31
0.0
  0
LINE
  5
2B9F
330
18
100
AcDbEntity
  8
0
100
AcDbLine
 10
1874.86020285772
 20
1512.424601696615
 30
0.0
 11
1888.52120285772
 21
1514.154601696615
 31
0.0
  0
LINE
  5
2BA0
330
18
100
AcDbEntity
  8
0
100
AcDbLine
 10
1868.01120285772
 20
1511.694601696615
 30
0.0
 11
1874.86020285772
 21
1512.424601696615
 31
0.0
  0
ARC
  5
2BA1
330
18
100
AcDbEntity
  8
0
100
AcDbCircle
 10
2203.82220285772
 20
933.4169132983904
 30
0.0
 40
62.0
100
AcDbArc
 50
8.134304017786746
 51
66.92463879631363
  0
POLYLINE
  5
2BA2
330
18
100
AcDbEntity
  8
0
100
AcDb2dPolyline
 66
     1
 10
0.0
 20
0.0
 30
0.0
  0
VERTEX
  5
45E0
330
2BA2
100
AcDbEntity
  8
0
100
AcDbVertex
100
AcDb2dVertex
 10
2238.712202857719
 20
970.6395383030969
 30
0.0
 42
0.1427397834356985
  0
VERTEX
  5
45E1
330
2BA2
100
AcDbEntity
  8
0
100
AcDbVertex
100
AcDb2dVertex
 10
2235.364341879897
 20
982.1277492886876
 30
0.0
 42
0.107172048130841
  0
VERTEX
  5
45E2
330
2BA2
100
AcDbEntity
  8
0
100
AcDbVertex
100
AcDb2dVertex
 10
2224.246206780523
 20
993.3518081148088
 30
0.0
 42
0.0785305341780621
  0
VERTEX
  5
45E3
330
2BA2
100
AcDbEntity
  8
0
100
AcDbVertex
100
AcDb2dVertex
 10
2209.007658416337
 20
1000.154561317725
 30
0.0
 42
0.0658778674229943
  0
VERTEX
  5
45E4
330
2BA2
100
AcDbEntity
  8
0
100
AcDbVertex
100
AcDb2dVertex
 10
2189.32220285772
 20
1002.759538303097
 30
0.0
 42
0.0658778674229922
  0
SEQEND
  5
45E5
330
2BA2
100
AcDbEntity
  8
0
  0
POLYLINE
  5
2BA3
330
18
100
AcDbEntity
  8
0
100
AcDb2dPolyline
 66
     1
 10
0.0
 20
0.0
 30
0.0
  0
VERTEX
  5
45E6
330
2BA3
100
AcDbEntity
  8
0
100
AcDbVertex
100
AcDb2dVertex
 10
2189.32220285772
 20
956.9495383030973
 30
0.0
 42
0.0285857464481538
  0
VERTEX
  5
45E7
330
2BA3
100
AcDbEntity
  8
0
100
AcDbVertex
100
AcDb2dVertex
 10
2209.622211787575
 20
958.1110692585214
 30
0.0
 42
0.0390401790878681
  0
VERTEX
  5
45E8
330
2BA3
100
AcDbEntity
  8
0
100
AcDbVertex
100
AcDb2dVertex
 10
2224.246206780523
 20
960.9592464686532
 30
0.0
 42
0.0800061155234741
  0
VERTEX
  5
45E9
330
2BA3
100
AcDbEntity
  8
0
100
AcDbVertex
100
AcDb2dVertex
 10
2236.558496579318
 20
966.6068965267188
 30
0.0
 42
0.2503039277320076
  0
VERTEX
  5
45EA
330
2BA3
100
AcDbEntity
  8
0
100
AcDbVertex
100
AcDb2dVertex
 10
2238.712202857719
 20
970.6395383030965
 30
0.0
 42
0.2503039277320068
  0
SEQEND
  5
45EB
330
2BA3
100
AcDbEntity
  8
0
  0
POLYLINE
  5
2BA4
330
18
100
AcDbEntity
  8
0
100
AcDb2dPolyline
 66
     1
 10
0.0
 20
0.0
 30
0.0
  0
VERTEX
  5
45EC
330
2BA4
100
AcDbEntity
  8
0
100
AcDbVertex
100
AcDb2dVertex
 10
2189.32220285772
 20
845.0895383030976
 30
0.0
 42
0.0810936847216324
  0
VERTEX
  5
45ED
330
2BA4
100
AcDbEntity
  8
0
100
AcDbVertex
100
AcDb2dVertex
 10
2208.662000831296
 20
848.2469731398234
 30
0.0
 42
0.0895054263486445
  0
VERTEX
  5
45EE
330
2BA4
100
AcDbEntity
  8
0
100
AcDbVertex
100
AcDb2dVertex
 10
2224.246206780523
 20
856.8052670556355
 30
0.0
 42
0.104703589997003
  0
VERTEX
  5
45EF
330
2BA4
100
AcDbEntity
  8
0
100
AcDbVertex
100
AcDb2dVertex
 10
2235.132350427539
 20
870.2283697699515
 30
0.0
 42
0.118744877453476
  0
VERTEX
  5
45F0
330
2BA4
100
AcDbEntity
  8
0
100
AcDbVertex
100
AcDb2dVertex
 10
2238.712202857719
 20
885.0895383030977
 30
0.0
 42
0.1187448774534761
  0
SEQEND
  5
45F1
330
2BA4
100
AcDbEntity
  8
0
  0
POLYLINE
  5
2BA5
330
18
100
AcDbEntity
  8
0
100
AcDb2dPolyline
 66
     1
 10
0.0
 20
0.0
 30
0.0
  0
VERTEX
  5
45F2
330
2BA5
100
AcDbEntity
  8
0
100
AcDbVertex
100
AcDb2dVertex
 10
2238.712202857719
 20
885.0895383030977
 30
0.0
 42
0.1228007391858371
  0
VERTEX
  5
45F3
330
2BA5
100
AcDbEntity
  8
0
100
AcDbVertex
100
AcDb2dVertex
 10
2235.170260484847
 20
899.2935643892112
 30
0.0
 42
0.1054625936846602
  0
VERTEX
  5
45F4
330
2BA5
100
AcDbEntity
  8
0
100
AcDbVertex
100
AcDb2dVertex
 10
2224.246206780523
 20
912.2919361753435
 30
0.0
 42
0.0876370767901639
  0
VERTEX
  5
45F5
330
2BA5
100
AcDbEntity
  8
0
100
AcDbVertex
100
AcDb2dVertex
 10
2208.731332567661
 20
920.5060292031696
 30
0.0
 42
0.0781808700096935
  0
VERTEX
  5
45F6
330
2BA5
100
AcDbEntity
  8
0
100
AcDbVertex
100
AcDb2dVertex
 10
2189.32220285772
 20
923.559538303097
 30
0.0
 42
0.0781808700096899
  0
SEQEND
  5
45F7
330
2BA5
100
AcDbEntity
  8
0
  0
POLYLINE
  5
2BA6
330
18
100
AcDbEntity
  8
0
100
AcDb2dPolyline
 66
     1
 10
0.0
 20
0.0
 30
0.0
  0
VERTEX
  5
45F8
330
2BA6
100
AcDbEntity
  8
0
100
AcDbVertex
100
AcDb2dVertex
 10
2238.45220285772
 20
791.6895383030971
 30
0.0
 42
0.1111876059378975
  0
VERTEX
  5
45F9
330
2BA6
100
AcDbEntity
  8
0
100
AcDbVertex
100
AcDb2dVertex
 10
2234.822532741911
 20
807.8100295302514
 30
0.0
 42
0.1028754415618672
  0
VERTEX
  5
45FA
330
2BA6
100
AcDbEntity
  8
0
100
AcDbVertex
100
AcDb2dVertex
 10
2224.062359017414
 20
822.024419216
 30
0.0
 42
0.0929554327226999
  0
VERTEX
  5
45FB
330
2BA6
100
AcDbEntity
  8
0
100
AcDbVertex
100
AcDb2dVertex
 10
2208.416862696192
 20
831.2424788096434
 30
0.0
 42
0.0869807794646978
  0
VERTEX
  5
45FC
330
2BA6
100
AcDbEntity
  8
0
100
AcDbVertex
100
AcDb2dVertex
 10
2189.32220285772
 20
834.5895383030972
 30
0.0
 42
0.0869807794646999
  0
SEQEND
  5
45FD
330
2BA6
100
AcDbEntity
  8
0
  0
POLYLINE
  5
2BA7
330
18
100
AcDbEntity
  8
0
100
AcDb2dPolyline
 66
     1
 10
0.0
 20
0.0
 30
0.0
  0
VERTEX
  5
45FE
330
2BA7
100
AcDbEntity
  8
0
100
AcDbVertex
100
AcDb2dVertex
 10
2189.32220285772
 20
754.5895383030972
 30
0.0
 42
0.0759324646691649
  0
VERTEX
  5
45FF
330
2BA7
100
AcDbEntity
  8
0
100
AcDbVertex
100
AcDb2dVertex
 10
2208.681442307675
 20
757.5465773501303
 30
0.0
 42
0.0861204956053751
  0
VERTEX
  5
4600
330
2BA7
100
AcDbEntity
  8
0
100
AcDbVertex
100
AcDb2dVertex
 10
2224.062359017414
 20
765.4558767210763
 30
0.0
 42
0.1059698406576102
  0
VERTEX
  5
4601
330
2BA7
100
AcDbEntity
  8
0
100
AcDbVertex
100
AcDb2dVertex
 10
2234.959899230628
 20
778.0612111346165
 30
0.0
 42
0.126089610326612
  0
VERTEX
  5
4602
330
2BA7
100
AcDbEntity
  8
0
100
AcDbVertex
100
AcDb2dVertex
 10
2238.45220285772
 20
791.6895383030971
 30
0.0
 42
0.1260896103266131
  0
SEQEND
  5
4603
330
2BA7
100
AcDbEntity
  8
0
  0
LINE
  5
2BA8
330
18
100
AcDbEntity
  8
0
100
AcDbLine
 10
2300.322202857719
 20
942.1895383030971
 30
0.0
 11
2231.822202857719
 21
942.1895383030971
 31
0.0
  0
LINE
  5
2BA9
330
18
100
AcDbEntity
  8
0
100
AcDbLine
 10
2145.822202857719
 20
1173.689538303097
 30
0.0
 11
2270.822202857719
 21
1173.689538303097
 31
0.0
  0
LINE
  5
2BAA
330
18
100
AcDbEntity
  8
0
100
AcDbLine
 10
2274.322202857719
 20
1009.689538303097
 30
0.0
 11
2163.322202857719
 21
1009.689538303097
 31
0.0
  0
LINE
  5
2BAB
330
18
100
AcDbEntity
  8
0
100
AcDbLine
 10
2145.822202857719
 20
1159.689538303097
 30
0.0
 11
2270.822202857719
 21
1159.689538303097
 31
0.0
  0
LINE
  5
2BAC
330
18
100
AcDbEntity
  8
0
100
AcDbLine
 10
2298.322202857719
 20
1006.689538303097
 30
0.0
 11
2163.322202857719
 21
1006.689538303097
 31
0.0
  0
LINE
  5
2BAD
330
18
100
AcDbEntity
  8
0
100
AcDbLine
 10
2253.322202857719
 20
1020.689538303097
 30
0.0
 11
2234.82220285772
 21
1020.689538303097
 31
0.0
  0
LINE
  5
2BAE
330
18
100
AcDbEntity
  8
0
100
AcDbLine
 10
2271.822202857719
 20
1009.689538303097
 30
0.0
 11
2234.82220285772
 21
1009.689538303097
 31
0.0
  0
LINE
  5
2BAF
330
18
100
AcDbEntity
  8
0
100
AcDbLine
 10
2234.82220285772
 20
1010.689538303097
 30
0.0
 11
2271.822202857719
 21
1010.689538303097
 31
0.0
  0
ARC
  5
2BB0
330
18
100
AcDbEntity
  8
0
100
AcDbCircle
 10
2236.80720285772
 20
1010.504776398335
 30
0.0
 40
9.842470172893651
100
AcDbArc
 50
64.51478554771965
 51
115.4852144522803
  0
LINE
  5
2BB1
330
18
100
AcDbEntity
  8
0
100
AcDbLine
 10
2234.82220285772
 20
1010.689538303097
 30
0.0
 11
2238.322202857719
 21
1010.689538303097
 31
0.0
  0
ARC
  5
2BB2
330
18
100
AcDbEntity
  8
0
100
AcDbCircle
 10
2236.80720285772
 20
1020.874300207859
 30
0.0
 40
9.842470172893651
100
AcDbArc
 50
244.5147855477196
 51
295.4852144522803
  0
ARC
  5
2BB3
330
18
100
AcDbEntity
  8
0
100
AcDbCircle
 10
2192.792543878423
 20
983.6495383030971
 30
0.0
 40
8.171234519297257
100
AcDbArc
 50
328.0007820452305
 51
31.99921795476944
  0
LINE
  5
2BB4
330
18
100
AcDbEntity
  8
0
100
AcDbLine
 10
2201.32220285772
 20
985.2195383030974
 30
0.0
 11
2201.32220285772
 21
957.3545576326816
 31
0.0
  0
ARC
  5
2BB5
330
18
100
AcDbEntity
  8
0
100
AcDbCircle
 10
2192.784599022619
 20
807.5745383030973
 30
0.0
 40
8.180621735101421
100
AcDbArc
 50
328.0005702738149
 51
31.9994297261851
  0
LINE
  5
2BB6
330
18
100
AcDbEntity
  8
0
100
AcDbLine
 10
2201.32220285772
 20
780.0295383030973
 30
0.0
 11
2201.32220285772
 21
809.1395383030969
 31
0.0
  0
LINE
  5
2BB7
330
18
100
AcDbEntity
  8
0
100
AcDbLine
 10
2199.72220285772
 20
803.2395383030973
 30
0.0
 11
2189.322202857719
 21
803.2395383030973
 31
0.0
  0
LINE
  5
2BB8
330
18
100
AcDbEntity
  8
0
100
AcDbLine
 10
2189.322202857719
 20
777.2695383030971
 30
0.0
 11
2199.72220285772
 21
777.2695383030971
 31
0.0
  0
LINE
  5
2BB9
330
18
100
AcDbEntity
  8
0
100
AcDbLine
 10
2199.72220285772
 20
785.9295383030969
 30
0.0
 11
2189.322202857719
 21
785.9295383030969
 31
0.0
  0
LINE
  5
2BBA
330
18
100
AcDbEntity
  8
0
100
AcDbLine
 10
2199.72220285772
 20
777.2695383030971
 30
0.0
 11
2201.32220285772
 21
780.0295383030973
 31
0.0
  0
ARC
  5
2BBB
330
18
100
AcDbEntity
  8
0
100
AcDbCircle
 10
2192.784798726393
 20
781.5945383030968
 30
0.0
 40
8.180452376326213
100
AcDbArc
 50
327.999829075573
 51
32.000170924427
  0
ARC
  5
2BBC
330
18
100
AcDbEntity
  8
0
100
AcDbCircle
 10
2170.162364607651
 20
794.5845383030967
 30
0.0
 40
30.80086139006892
100
AcDbArc
 50
343.6801846146565
 51
16.31981538534343
  0
LINE
  5
2BBD
330
18
100
AcDbEntity
  8
0
100
AcDbLine
 10
2199.72220285772
 20
811.909538303097
 30
0.0
 11
2189.322202857719
 21
811.909538303097
 31
0.0
  0
LINE
  5
2BBE
330
18
100
AcDbEntity
  8
0
100
AcDbLine
 10
2201.32220285772
 20
809.1395383030969
 30
0.0
 11
2199.72220285772
 21
811.909538303097
 31
0.0
  0
LINE
  5
2BBF
330
18
100
AcDbEntity
  8
0
100
AcDbLine
 10
2199.72220285772
 20
902.4095383030974
 30
0.0
 11
2189.322202857719
 21
902.4095383030974
 31
0.0
  0
LINE
  5
2BC0
330
18
100
AcDbEntity
  8
0
100
AcDbLine
 10
2199.72220285772
 20
893.7395383030972
 30
0.0
 11
2189.322202857719
 21
893.7395383030972
 31
0.0
  0
LINE
  5
2BC1
330
18
100
AcDbEntity
  8
0
100
AcDbLine
 10
2189.322202857719
 20
867.769538303097
 30
0.0
 11
2199.72220285772
 21
867.769538303097
 31
0.0
  0
LINE
  5
2BC2
330
18
100
AcDbEntity
  8
0
100
AcDbLine
 10
2199.72220285772
 20
876.4295383030969
 30
0.0
 11
2189.322202857719
 21
876.4295383030969
 31
0.0
  0
LINE
  5
2BC3
330
18
100
AcDbEntity
  8
0
100
AcDbLine
 10
2201.32220285772
 20
899.6495383030971
 30
0.0
 11
2199.72220285772
 21
902.4095383030974
 31
0.0
  0
ARC
  5
2BC4
330
18
100
AcDbEntity
  8
0
100
AcDbCircle
 10
2192.784599022619
 20
898.0745383030974
 30
0.0
 40
8.180621735101421
100
AcDbArc
 50
328.0005702738149
 51
31.9994297261851
  0
ARC
  5
2BC5
330
18
100
AcDbEntity
  8
0
100
AcDbCircle
 10
2192.792600872485
 20
872.099538303097
 30
0.0
 40
8.171186185234011
100
AcDbArc
 50
328.0005702738149
 51
31.9994297261851
  0
LINE
  5
2BC6
330
18
100
AcDbEntity
  8
0
100
AcDbLine
 10
2199.72220285772
 20
867.769538303097
 30
0.0
 11
2201.32220285772
 21
870.5295383030973
 31
0.0
  0
ARC
  5
2BC7
330
18
100
AcDbEntity
  8
0
100
AcDbCircle
 10
2170.162364607651
 20
885.0845383030971
 30
0.0
 40
30.80086139006892
100
AcDbArc
 50
343.6801846146565
 51
16.31981538534343
  0
LINE
  5
2BC8
330
18
100
AcDbEntity
  8
0
100
AcDbLine
 10
2201.32220285772
 20
870.5295383030973
 30
0.0
 11
2201.32220285772
 21
899.6495383030971
 31
0.0
  0
LINE
  5
2BC9
330
18
100
AcDbEntity
  8
0
100
AcDbLine
 10
2189.322202857719
 20
979.3195383030973
 30
0.0
 11
2199.72220285772
 21
979.3195383030973
 31
0.0
  0
LINE
  5
2BCA
330
18
100
AcDbEntity
  8
0
100
AcDbLine
 10
2189.322202857719
 20
979.3195383030973
 30
0.0
 11
2199.72220285772
 21
979.3195383030973
 31
0.0
  0
LINE
  5
2BCB
330
18
100
AcDbEntity
  8
0
100
AcDbLine
 10
2189.322202857719
 20
956.9495383030973
 30
0.0
 11
2196.472202857719
 21
957.099538303097
 31
0.0
  0
LINE
  5
2BCC
330
18
100
AcDbEntity
  8
0
100
AcDbLine
 10
2189.322202857719
 20
961.9995383030971
 30
0.0
 11
2199.72220285772
 21
961.9995383030971
 31
0.0
  0
LINE
  5
2BCD
330
18
100
AcDbEntity
  8
0
100
AcDbLine
 10
2189.322202857719
 20
979.3195383030973
 30
0.0
 11
2189.322202857719
 21
979.3195383030973
 31
0.0
  0
LINE
  5
2BCE
330
18
100
AcDbEntity
  8
0
100
AcDbLine
 10
2196.472202857719
 20
957.099538303097
 30
0.0
 11
2203.832202857719
 21
957.559538303097
 31
0.0
  0
ARC
  5
2BCF
330
18
100
AcDbEntity
  8
0
100
AcDbCircle
 10
2192.792543878423
 20
957.6695383030971
 30
0.0
 40
8.171234519297257
100
AcDbArc
 50
357.9689504085869
 51
31.99921795476944
  0
ARC
  5
2BD0
330
18
100
AcDbEntity
  8
0
100
AcDbCircle
 10
2170.145287866894
 20
970.6595383030974
 30
0.0
 40
30.81865507082537
100
AcDbArc
 50
343.6801846146565
 51
16.31981538534343
  0
ARC
  5
2BD1
330
18
100
AcDbEntity
  8
0
100
AcDbCircle
 10
2072.32220285772
 20
1021.685538303097
 30
0.0
 40
15.0
100
AcDbArc
 50
180.0
 51
270.0
  0
ARC
  5
2BD2
330
18
100
AcDbEntity
  8
0
100
AcDbCircle
 10
1977.32220285772
 20
1021.685538303097
 30
0.0
 40
15.0
100
AcDbArc
 50
270.0
 51
0.0
  0
CIRCLE
  5
2BD3
330
18
100
AcDbEntity
  8
0
100
AcDbCircle
 10
2024.82220285772
 20
1024.185538303097
 30
0.0
 40
17.5
  0
ARC
  5
2BD4
330
18
100
AcDbEntity
  8
0
100
AcDbCircle
 10
2024.82220285772
 20
1024.185538303097
 30
0.0
 40
32.5
100
AcDbArc
 50
0.0
 51
180.0
  0
LINE
  5
2BD5
330
18
100
AcDbEntity
  8
0
100
AcDbLine
 10
1992.32220285772
 20
1024.185538303097
 30
0.0
 11
1992.32220285772
 21
1021.685538303097
 31
0.0
  0
LINE
  5
2BD6
330
18
100
AcDbEntity
  8
0
100
AcDbLine
 10
2057.32220285772
 20
1024.185538303097
 30
0.0
 11
2057.32220285772
 21
1021.685538303097
 31
0.0
  0
LINE
  5
2BD7
330
18
100
AcDbEntity
  8
0
100
AcDbLine
 10
2191.322202857719
 20
1009.689538303097
 30
0.0
 11
2191.322202857719
 21
1152.189538303097
 31
0.0
  0
LINE
  5
2BD8
330
18
100
AcDbEntity
  8
0
100
AcDbLine
 10
2225.322202857718
 20
1009.689538303097
 30
0.0
 11
2225.322202857719
 21
1152.189538303096
 31
0.0
  0
LINE
  5
2BD9
330
18
100
AcDbEntity
  8
0
100
AcDbLine
 10
2161.822202857719
 20
1006.685538303097
 30
0.0
 11
2072.32220285772
 21
1006.685538303097
 31
0.0
  0
LINE
  5
2BDA
330
18
100
AcDbEntity
  8
0
100
AcDbLine
 10
2189.322202857719
 20
987.9795383030971
 30
0.0
 11
2199.72220285772
 21
987.9795383030971
 31
0.0
  0
LINE
  5
2BDB
330
18
100
AcDbEntity
  8
0
100
AcDbLine
 10
2189.322202857719
 20
987.9795383030971
 30
0.0
 11
2199.72220285772
 21
987.9795383030971
 31
0.0
  0
LINE
  5
2BDC
330
18
100
AcDbEntity
  8
0
100
AcDbLine
 10
2199.72220285772
 20
987.9795383030971
 30
0.0
 11
2201.32220285772
 21
985.2195383030974
 31
0.0
  0
LINE
  5
2BDD
330
18
100
AcDbEntity
  8
0
100
AcDbLine
 10
2234.82220285772
 20
1020.689538303097
 30
0.0
 11
2232.57220285772
 21
1019.389538303097
 31
0.0
  0
LINE
  5
2BDE
330
18
100
AcDbEntity
  8
0
100
AcDbLine
 10
2234.82220285772
 20
1009.689538303097
 30
0.0
 11
2234.82220285772
 21
1010.689538303097
 31
0.0
  0
LINE
  5
2BDF
330
18
100
AcDbEntity
  8
0
100
AcDbLine
 10
2232.57220285772
 20
1011.989538303097
 30
0.0
 11
2234.82220285772
 21
1010.689538303097
 31
0.0
  0
LINE
  5
2BE0
330
18
100
AcDbEntity
  8
0
100
AcDbLine
 10
2232.57220285772
 20
1019.389538303097
 30
0.0
 11
2232.57220285772
 21
1011.989538303097
 31
0.0
  0
LINE
  5
2BE1
330
18
100
AcDbEntity
  8
0
100
AcDbLine
 10
2145.822202857719
 20
1173.689538303097
 30
0.0
 11
2145.822202857719
 21
1159.689538303097
 31
0.0
  0
LINE
  5
2BE2
330
18
100
AcDbEntity
  8
0
100
AcDbLine
 10
2183.822202857719
 20
1159.689538303097
 30
0.0
 11
2191.322202857719
 21
1152.189538303097
 31
0.0
  0
LINE
  5
2BE3
330
18
100
AcDbEntity
  8
0
100
AcDbLine
 10
2232.822202857719
 20
1159.689538303097
 30
0.0
 11
2225.322202857719
 21
1152.189538303097
 31
0.0
  0
LINE
  5
2BE4
330
18
100
AcDbEntity
  8
0
100
AcDbLine
 10
2191.322202857719
 20
1152.189538303097
 30
0.0
 11
2225.322202857719
 21
1152.189538303096
 31
0.0
  0
LINE
  5
2BE5
330
18
100
AcDbEntity
  8
0
100
AcDbLine
 10
2298.322202857719
 20
943.6895383030972
 30
0.0
 11
2298.322202857719
 21
1006.689538303097
 31
0.0
  0
LINE
  5
2BE6
330
18
100
AcDbEntity
  8
0
100
AcDbLine
 10
2361.822202857719
 20
961.6895383030966
 30
0.0
 11
2361.822202857719
 21
995.6895383030971
 31
0.0
  0
LINE
  5
2BE7
330
18
100
AcDbEntity
  8
0
100
AcDbLine
 10
2369.322202857719
 20
916.1895383030971
 30
0.0
 11
2369.322202857719
 21
1041.189538303097
 31
0.0
  0
LINE
  5
2BE8
330
18
100
AcDbEntity
  8
0
100
AcDbLine
 10
2383.322202857719
 20
916.1895383030971
 30
0.0
 11
2383.322202857719
 21
1041.189538303097
 31
0.0
  0
LINE
  5
2BEB
330
18
100
AcDbEntity
  8
0
100
AcDbLine
 10
2369.322202857719
 20
916.1895383030971
 30
0.0
 11
2383.322202857719
 21
916.1895383030971
 31
0.0
  0
LINE
  5
2BEC
330
18
100
AcDbEntity
  8
0
100
AcDbLine
 10
2329.322202857719
 20
821.6895383030971
 30
0.0
 11
2329.322202857719
 21
876.1895383030971
 31
0.0
  0
LINE
  5
2BED
330
18
100
AcDbEntity
  8
0
100
AcDbLine
 10
2329.322202857719
 20
767.1895383030971
 30
0.0
 11
2305.322202857719
 21
767.1895383030971
 31
0.0
  0
ARC
  5
2BEE
330
18
100
AcDbEntity
  8
0
100
AcDbCircle
 10
2305.322202857719
 20
762.1895383030971
 30
0.0
 40
5.0
100
AcDbArc
 50
90.0
 51
180.0
  0
LINE
  5
2BEF
330
18
100
AcDbEntity
  8
0
100
AcDbLine
 10
2329.322202857719
 20
821.6895383030971
 30
0.0
 11
2329.322202857719
 21
767.1895383030971
 31
0.0
  0
LINE
  5
2BF0
330
18
100
AcDbEntity
  8
0
100
AcDbLine
 10
2298.322202857719
 20
961.6895383030971
 30
0.0
 11
2361.822202857719
 21
961.6895383030971
 31
0.0
  0
LINE
  5
2BF1
330
18
100
AcDbEntity
  8
0
100
AcDbLine
 10
2329.322202857719
 20
876.1895383030971
 30
0.0
 11
2305.322202857719
 21
876.1895383030971
 31
0.0
  0
LINE
  5
2BF2
330
18
100
AcDbEntity
  8
0
100
AcDbLine
 10
2300.322202857719
 20
881.1895383030963
 30
0.0
 11
2300.322202857719
 21
943.6895383030972
 31
0.0
  0
LINE
  5
2BF3
330
18
100
AcDbEntity
  8
0
100
AcDbLine
 10
2315.322202857719
 20
911.7895383030971
 30
0.0
 11
2315.322202857719
 21
931.5895383030968
 31
0.0
  0
LINE
  5
2BF4
330
18
100
AcDbEntity
  8
0
100
AcDbLine
 10
2305.322202857719
 20
931.5895383030968
 30
0.0
 11
2305.322202857719
 21
911.7895383030971
 31
0.0
  0
LINE
  5
2BF5
330
18
100
AcDbEntity
  8
0
100
AcDbLine
 10
2305.322202857719
 20
931.8195383030973
 30
0.0
 11
2305.322202857719
 21
911.5595383030971
 31
0.0
  0
LINE
  5
2BF6
330
18
100
AcDbEntity
  8
0
100
AcDbLine
 10
2300.322202857719
 20
901.1895383030971
 30
0.0
 11
2249.566833783231
 21
901.1895383030971
 31
0.0
  0
LINE
  5
2BF7
330
18
100
AcDbEntity
  8
0
100
AcDbLine
 10
2302.32220285772
 20
911.1473160808747
 30
0.0
 11
2302.32220285772
 21
907.1895383030971
 31
0.0
  0
LINE
  5
2BF8
330
18
100
AcDbEntity
  8
0
100
AcDbLine
 10
2302.32220285772
 20
907.1895383030971
 30
0.0
 11
2300.322202857719
 21
907.1895383030971
 31
0.0
  0
LINE
  5
2BF9
330
18
100
AcDbEntity
  8
0
100
AcDbLine
 10
2304.822202857719
 20
911.0695383030963
 30
0.0
 11
2300.322202857719
 21
911.2095383030972
 31
0.0
  0
LINE
  5
2BFA
330
18
100
AcDbEntity
  8
0
100
AcDbLine
 10
2305.322202857719
 20
911.5595383030971
 30
0.0
 11
2304.822202857719
 21
911.0695383030963
 31
0.0
  0
LINE
  5
2BFB
330
18
100
AcDbEntity
  8
0
100
AcDbLine
 10
2315.322202857719
 20
921.6895383030971
 30
0.0
 11
2305.322202857719
 21
921.6895383030971
 31
0.0
  0
LINE
  5
2BFC
330
18
100
AcDbEntity
  8
0
100
AcDbLine
 10
2305.322202857719
 20
911.7895383030971
 30
0.0
 11
2315.322202857719
 21
911.7895383030971
 31
0.0
  0
ARC
  5
2BFD
330
18
100
AcDbEntity
  8
0
100
AcDbCircle
 10
2305.322202857719
 20
881.1895383030963
 30
0.0
 40
5.0
100
AcDbArc
 50
180.0
 51
270.0
  0
LINE
  5
2BFE
330
18
100
AcDbEntity
  8
0
100
AcDbLine
 10
2302.32220285772
 20
942.1895383030971
 30
0.0
 11
2302.32220285772
 21
932.23176052532
 31
0.0
  0
LINE
  5
2BFF
330
18
100
AcDbEntity
  8
0
100
AcDbLine
 10
2300.322202857719
 20
932.1695383030972
 30
0.0
 11
2304.822202857719
 21
932.309538303097
 31
0.0
  0
LINE
  5
2C00
330
18
100
AcDbEntity
  8
0
100
AcDbLine
 10
2304.822202857719
 20
932.309538303097
 30
0.0
 11
2305.322202857719
 21
931.8195383030973
 31
0.0
  0
LINE
  5
2C01
330
18
100
AcDbEntity
  8
0
100
AcDbLine
 10
2300.322202857719
 20
943.6895383030972
 30
0.0
 11
2298.322202857719
 21
943.6895383030972
 31
0.0
  0
LINE
  5
2C02
330
18
100
AcDbEntity
  8
0
100
AcDbLine
 10
2302.32220285772
 20
942.1895383030971
 30
0.0
 11
2300.322202857719
 21
942.1895383030971
 31
0.0
  0
LINE
  5
2C03
330
18
100
AcDbEntity
  8
0
100
AcDbLine
 10
2315.322202857719
 20
931.5895383030968
 30
0.0
 11
2305.322202857719
 21
931.5895383030968
 31
0.0
  0
LINE
  5
2C04
330
18
100
AcDbEntity
  8
0
100
AcDbLine
 10
2369.322202857719
 20
954.1895383030972
 30
0.0
 11
2361.822202857719
 21
961.6895383030971
 31
0.0
  0
LINE
  5
2C09
330
18
100
AcDbEntity
  8
0
100
AcDbLine
 10
2369.322202857719
 20
1041.189538303097
 30
0.0
 11
2383.322202857719
 21
1041.189538303097
 31
0.0
  0
LINE
  5
2C0A
330
18
100
AcDbEntity
  8
0
100
AcDbLine
 10
2298.322202857719
 20
995.6895383030978
 30
0.0
 11
2361.822202857719
 21
995.6895383030966
 31
0.0
  0
LINE
  5
2C0B
330
18
100
AcDbEntity
  8
0
100
AcDbLine
 10
2244.98220285772
 20
1019.389538303097
 30
0.0
 11
2241.042202857719
 21
1019.389538303097
 31
0.0
  0
LINE
  5
2C0C
330
18
100
AcDbEntity
  8
0
100
AcDbLine
 10
2253.322202857719
 20
1010.689538303097
 30
0.0
 11
2238.322202857719
 21
1010.689538303097
 31
0.0
  0
LINE
  5
2C0D
330
18
100
AcDbEntity
  8
0
100
AcDbLine
 10
2241.042202857719
 20
1011.989538303097
 30
0.0
 11
2244.98220285772
 21
1011.989538303097
 31
0.0
  0
LINE
  5
2C0E
330
18
100
AcDbEntity
  8
0
100
AcDbLine
 10
2241.042202857719
 20
1019.389538303097
 30
0.0
 11
2241.042202857719
 21
1011.989538303097
 31
0.0
  0
LINE
  5
2C0F
330
18
100
AcDbEntity
  8
0
100
AcDbLine
 10
2261.66220285772
 20
1019.389538303097
 30
0.0
 11
2265.612202857719
 21
1019.389538303097
 31
0.0
  0
LINE
  5
2C10
330
18
100
AcDbEntity
  8
0
100
AcDbLine
 10
2265.612202857719
 20
1011.989538303097
 30
0.0
 11
2261.66220285772
 21
1011.989538303097
 31
0.0
  0
LINE
  5
2C11
330
18
100
AcDbEntity
  8
0
100
AcDbLine
 10
2261.66220285772
 20
1011.989538303097
 30
0.0
 11
2261.66220285772
 21
1019.389538303097
 31
0.0
  0
LINE
  5
2C12
330
18
100
AcDbEntity
  8
0
100
AcDbLine
 10
2274.322202857719
 20
1009.689538303097
 30
0.0
 11
2274.322202857719
 21
1006.689538303097
 31
0.0
  0
LINE
  5
2C13
330
18
100
AcDbEntity
  8
0
100
AcDbLine
 10
2271.822202857719
 20
1020.689538303097
 30
0.0
 11
2274.072202857719
 21
1019.389538303097
 31
0.0
  0
ARC
  5
2C14
330
18
100
AcDbEntity
  8
0
100
AcDbCircle
 10
2269.837202857961
 20
1010.504776398335
 30
0.0
 40
9.842470172893651
100
AcDbArc
 50
64.51478554771965
 51
115.4852144522803
  0
LINE
  5
2C15
330
18
100
AcDbEntity
  8
0
100
AcDbLine
 10
2271.822202857719
 20
1010.689538303097
 30
0.0
 11
2271.822202857719
 21
1009.689538303097
 31
0.0
  0
LINE
  5
2C16
330
18
100
AcDbEntity
  8
0
100
AcDbLine
 10
2271.822202857719
 20
1010.689538303097
 30
0.0
 11
2268.322202857719
 21
1010.689538303097
 31
0.0
  0
LINE
  5
2C17
330
18
100
AcDbEntity
  8
0
100
AcDbLine
 10
2274.072202857719
 20
1011.989538303097
 30
0.0
 11
2271.822202857719
 21
1010.689538303097
 31
0.0
  0
ARC
  5
2C18
330
18
100
AcDbEntity
  8
0
100
AcDbCircle
 10
2269.837202857961
 20
1020.874300207859
 30
0.0
 40
9.842470172893651
100
AcDbArc
 50
244.5147855477196
 51
295.4852144522803
  0
LINE
  5
2C19
330
18
100
AcDbEntity
  8
0
100
AcDbLine
 10
2265.612202857719
 20
1019.389538303097
 30
0.0
 11
2265.612202857719
 21
1011.989538303097
 31
0.0
  0
LINE
  5
2C1A
330
18
100
AcDbEntity
  8
0
100
AcDbLine
 10
2274.072202857719
 20
1019.389538303097
 30
0.0
 11
2274.072202857719
 21
1011.989538303097
 31
0.0
  0
LINE
  5
2C1B
330
18
100
AcDbEntity
  8
0
100
AcDbLine
 10
2244.98220285772
 20
1011.989538303097
 30
0.0
 11
2244.98220285772
 21
1019.389538303097
 31
0.0
  0
LINE
  5
2C1C
330
18
100
AcDbEntity
  8
0
100
AcDbLine
 10
2253.322202857719
 20
1020.689538303097
 30
0.0
 11
2271.822202857719
 21
1020.689538303097
 31
0.0
  0
LINE
  5
2C1D
330
18
100
AcDbEntity
  8
0
100
AcDbLine
 10
2253.322202857719
 20
1010.689538303097
 30
0.0
 11
2268.322202857719
 21
1010.689538303097
 31
0.0
  0
ARC
  5
2C1E
330
18
100
AcDbEntity
  8
0
100
AcDbCircle
 10
2253.322202857719
 20
983.2563277767828
 30
0.0
 40
37.08321052631436
100
AcDbArc
 50
77.00302439966368
 51
102.9969756003363
  0
ARC
  5
2C1F
330
18
100
AcDbEntity
  8
0
100
AcDbCircle
 10
2253.322202857719
 20
1048.122748829411
 30
0.0
 40
37.08321052631436
100
AcDbArc
 50
257.0030243996636
 51
282.9969756003363
  0
LINE
  5
2C20
330
18
100
AcDbEntity
  8
0
100
AcDbLine
 10
2369.322202857719
 20
1003.189538303097
 30
0.0
 11
2361.822202857719
 21
995.6895383030971
 31
0.0
  0
LINE
  5
2C21
330
18
100
AcDbEntity
  8
0
100
AcDbLine
 10
2270.822202857719
 20
1173.689538303097
 30
0.0
 11
2270.822202857719
 21
1159.689538303097
 31
0.0
  0
CIRCLE
  5
2C22
330
18
100
AcDbEntity
  8
0
100
AcDbCircle
 10
2208.322202857719
 20
1531.904601696616
 30
0.0
 40
62.5
  0
ARC
  5
2C23
330
18
100
AcDbEntity
  8
0
100
AcDbCircle
 10
2166.372766574459
 20
1519.295865767412
 30
0.0
 40
105.0
100
AcDbArc
 50
293.2110048094148
 51
327.7101559058207
  0
ARC
  5
2C24
330
18
100
AcDbEntity
  8
0
100
AcDbCircle
 10
2197.597466221469
 20
1532.773411780355
 30
0.0
 40
75.0
100
AcDbArc
 50
280.588769217525
 51
303.7381875453356
  0
LINE
  5
2C25
330
18
100
AcDbEntity
  8
0
100
AcDbLine
 10
2248.60605306694
 20
1504.404601696615
 30
0.0
 11
2231.68396295529
 21
1504.404601696615
 31
0.0
  0
CIRCLE
  5
2C26
330
18
100
AcDbEntity
  8
0
100
AcDbCircle
 10
2240.145008011115
 20
1500.084796543221
 30
0.0
 40
9.5
  0
ARC
  5
2C27
330
18
100
AcDbEntity
  8
0
100
AcDbCircle
 10
2229.897326915924
 20
1489.685510168308
 30
0.0
 40
9.0
100
AcDbArc
 50
6.308626644146499
 51
61.7644607017978
  0
LINE
  5
2C28
330
18
100
AcDbEntity
  8
0
100
AcDbLine
 10
2231.68396295529
 20
1559.404601696616
 30
0.0
 11
2248.606053066941
 21
1559.404601696616
 31
0.0
  0
CIRCLE
  5
2C29
330
18
100
AcDbEntity
  8
0
100
AcDbCircle
 10
2240.145008011115
 20
1563.72440685001
 30
0.0
 40
9.5
  0
ARC
  5
2C2A
330
18
100
AcDbEntity
  8
0
100
AcDbCircle
 10
2229.897326915924
 20
1574.123693224922
 30
0.0
 40
9.0
100
AcDbArc
 50
298.2355392982021
 51
353.6913733558793
  0
ARC
  5
2C2B
330
18
100
AcDbEntity
  8
0
100
AcDbCircle
 10
1995.322202857721
 20
1536.404601696616
 30
0.0
 40
3.0
100
AcDbArc
 50
90.0
 51
180.0
  0
ARC
  5
2C2C
330
18
100
AcDbEntity
  8
0
100
AcDbCircle
 10
2054.322202857721
 20
1536.404601696616
 30
0.0
 40
3.0
100
AcDbArc
 50
0.0
 51
90.0
  0
LINE
  5
2C2D
330
18
100
AcDbEntity
  8
0
100
AcDbLine
 10
2054.322202857721
 20
1524.404601696615
 30
0.0
 11
1995.322202857721
 21
1524.404601696615
 31
0.0
  0
LINE
  5
2C2E
330
18
100
AcDbEntity
  8
0
100
AcDbLine
 10
2054.322202857721
 20
1524.404601696615
 30
0.0
 11
1995.322202857721
 21
1524.404601696615
 31
0.0
  0
LINE
  5
2C2F
330
18
100
AcDbEntity
  8
0
100
AcDbLine
 10
1992.322202857721
 20
1527.404601696615
 30
0.0
 11
1992.322202857721
 21
1536.404601696616
 31
0.0
  0
LINE
  5
2C30
330
18
100
AcDbEntity
  8
0
100
AcDbLine
 10
1992.322202857721
 20
1527.404601696615
 30
0.0
 11
1992.322202857721
 21
1536.404601696616
 31
0.0
  0
ARC
  5
2C31
330
18
100
AcDbEntity
  8
0
100
AcDbCircle
 10
1995.322202857721
 20
1527.404601696615
 30
0.0
 40
3.0
100
AcDbArc
 50
180.0
 51
270.0
  0
LINE
  5
2C32
330
18
100
AcDbEntity
  8
0
100
AcDbLine
 10
2057.322202857721
 20
1536.404601696616
 30
0.0
 11
2057.322202857721
 21
1527.404601696615
 31
0.0
  0
LINE
  5
2C33
330
18
100
AcDbEntity
  8
0
100
AcDbLine
 10
2057.322202857721
 20
1536.404601696616
 30
0.0
 11
2057.322202857721
 21
1527.404601696615
 31
0.0
  0
ARC
  5
2C34
330
18
100
AcDbEntity
  8
0
100
AcDbCircle
 10
2054.322202857721
 20
1527.404601696615
 30
0.0
 40
3.0
100
AcDbArc
 50
270.0
 51
0.0
  0
LINE
  5
2C35
330
18
100
AcDbEntity
  8
0
100
AcDbLine
 10
1995.322202857721
 20
1539.404601696616
 30
0.0
 11
2054.322202857721
 21
1539.404601696616
 31
0.0
  0
LINE
  5
2C36
330
18
100
AcDbEntity
  8
0
100
AcDbLine
 10
1995.322202857721
 20
1539.404601696616
 30
0.0
 11
2054.322202857721
 21
1539.404601696616
 31
0.0
  0
LINE
  5
2C37
330
18
100
AcDbEntity
  8
0
100
AcDbLine
 10
2163.32520285772
 20
1488.528110471527
 30
0.0
 11
2163.32520285772
 21
1381.904601696615
 31
0.0
  0
LINE
  5
2C38
330
18
100
AcDbEntity
  8
0
100
AcDbLine
 10
2161.825202857721
 20
1490.140035483136
 30
0.0
 11
2161.825202857721
 21
1401.904601696615
 31
0.0
  0
LINE
  5
2C39
330
18
100
AcDbEntity
  8
0
100
AcDbLine
 10
2163.32520285772
 20
1401.904601696615
 30
0.0
 11
2163.32520285772
 21
1488.528110471527
 31
0.0
  0
LINE
  5
2C3A
330
18
100
AcDbEntity
  8
0
100
AcDbLine
 10
2161.825202857721
 20
1381.904601696615
 30
0.0
 11
2161.825202857721
 21
1490.140035483136
 31
0.0
  0
LINE
  5
2C3B
330
18
100
AcDbEntity
  8
0
100
AcDbLine
 10
2128.71520285772
 20
1381.904601696615
 30
0.0
 11
2161.825202857721
 21
1381.904601696615
 31
0.0
  0
LINE
  5
2C3C
330
18
100
AcDbEntity
  8
0
100
AcDbLine
 10
2161.825202857721
 20
1424.904601696615
 30
0.0
 11
2129.295202857721
 21
1424.904601696615
 31
0.0
  0
ARC
  5
2C3D
330
18
100
AcDbEntity
  8
0
100
AcDbCircle
 10
2128.725257422714
 20
1371.903841648256
 30
0.0
 40
10.00076510268797
100
AcDbArc
 50
90.0576040163146
 51
133.9437926847717
  0
ARC
  5
2C3E
330
18
100
AcDbEntity
  8
0
100
AcDbCircle
 10
1991.992085230031
 20
1299.741486003969
 30
0.0
 40
185.7900741163909
100
AcDbArc
 50
42.35175276494263
 51
63.91998922313488
  0
ARC
  5
2C3F
330
18
100
AcDbEntity
  8
0
100
AcDbCircle
 10
2219.324706143471
 20
1395.119968368453
 30
0.0
 40
29.99950376577744
100
AcDbArc
 50
112.7052037224735
 51
180.0102497578097
  0
LINE
  5
2C40
330
18
100
AcDbEntity
  8
0
100
AcDbLine
 10
2189.325202857721
 20
1426.904601696615
 30
0.0
 11
2189.325202857721
 21
1383.904601696615
 31
0.0
  0
LINE
  5
2C41
330
18
100
AcDbEntity
  8
0
100
AcDbLine
 10
2189.325202857721
 20
1472.361642490677
 30
0.0
 11
2189.325202857721
 21
1383.904601696615
 31
0.0
  0
LINE
  5
2C42
330
18
100
AcDbEntity
  8
0
100
AcDbLine
 10
2199.725202857721
 20
1395.904601696615
 30
0.0
 11
2189.325202857721
 21
1395.904601696615
 31
0.0
  0
LINE
  5
2C43
330
18
100
AcDbEntity
  8
0
100
AcDbLine
 10
2199.725202857721
 20
1387.244601696615
 30
0.0
 11
2189.325202857721
 21
1387.244601696615
 31
0.0
  0
LINE
  5
2C44
330
18
100
AcDbEntity
  8
0
100
AcDbLine
 10
2161.825202857721
 20
1401.904601696615
 30
0.0
 11
2163.32520285772
 21
1401.904601696615
 31
0.0
  0
LINE
  5
2C45
330
18
100
AcDbEntity
  8
0
100
AcDbLine
 10
2188.94520285772
 20
1382.734601696616
 30
0.0
 11
2189.11520285772
 21
1383.014601696615
 31
0.0
  0
LINE
  5
2C46
330
18
100
AcDbEntity
  8
0
100
AcDbLine
 10
2187.32520285772
 20
1381.904601696615
 30
0.0
 11
2187.32520285772
 21
1381.904601696615
 31
0.0
  0
LINE
  5
2C47
330
18
100
AcDbEntity
  8
0
100
AcDbLine
 10
2187.32520285772
 20
1381.904601696615
 30
0.0
 11
2187.61520285772
 21
1381.924601696615
 31
0.0
  0
LINE
  5
2C48
330
18
100
AcDbEntity
  8
0
100
AcDbLine
 10
2187.61520285772
 20
1381.924601696615
 30
0.0
 11
2187.90520285772
 21
1381.994601696615
 31
0.0
  0
LINE
  5
2C49
330
18
100
AcDbEntity
  8
0
100
AcDbLine
 10
2187.90520285772
 20
1381.994601696615
 30
0.0
 11
2188.205202857721
 21
1382.104601696615
 31
0.0
  0
LINE
  5
2C4A
330
18
100
AcDbEntity
  8
0
100
AcDbLine
 10
2188.205202857721
 20
1382.104601696615
 30
0.0
 11
2188.48520285772
 21
1382.274601696615
 31
0.0
  0
LINE
  5
2C4B
330
18
100
AcDbEntity
  8
0
100
AcDbLine
 10
2188.48520285772
 20
1382.274601696615
 30
0.0
 11
2188.73520285772
 21
1382.484601696615
 31
0.0
  0
LINE
  5
2C4C
330
18
100
AcDbEntity
  8
0
100
AcDbLine
 10
2188.73520285772
 20
1382.484601696615
 30
0.0
 11
2188.94520285772
 21
1382.734601696616
 31
0.0
  0
LINE
  5
2C4D
330
18
100
AcDbEntity
  8
0
100
AcDbLine
 10
2189.11520285772
 20
1383.014601696615
 30
0.0
 11
2189.23520285772
 21
1383.314601696615
 31
0.0
  0
LINE
  5
2C4E
330
18
100
AcDbEntity
  8
0
100
AcDbLine
 10
2189.23520285772
 20
1383.314601696615
 30
0.0
 11
2189.325202857721
 21
1383.904601696615
 31
0.0
  0
LINE
  5
2C4F
330
18
100
AcDbEntity
  8
0
100
AcDbLine
 10
2189.325202857721
 20
1383.904601696615
 30
0.0
 11
2189.325202857721
 21
1395.114601696615
 31
0.0
  0
LINE
  5
2C50
330
18
100
AcDbEntity
  8
0
100
AcDbLine
 10
2163.32520285772
 20
1381.904601696615
 30
0.0
 11
2187.32520285772
 21
1381.904601696615
 31
0.0
  0
ARC
  5
2C51
330
18
100
AcDbEntity
  8
0
100
AcDbCircle
 10
2192.785935907633
 20
1417.556611965552
 30
0.0
 40
8.180448568064287
100
AcDbArc
 50
328.024501186157
 51
8.562625355559466
  0
LINE
  5
2C52
330
18
100
AcDbEntity
  8
0
100
AcDbLine
 10
2199.725202857721
 20
1413.224601696615
 30
0.0
 11
2195.40520285772
 21
1413.224601696615
 31
0.0
  0
LINE
  5
2C53
330
18
100
AcDbEntity
  8
0
100
AcDbLine
 10
2201.335202857721
 20
1419.124601696615
 30
0.0
 11
2201.325202857721
 21
1419.124601696615
 31
0.0
  0
ARC
  5
2C54
330
18
100
AcDbEntity
  8
0
100
AcDbCircle
 10
2192.795714858409
 20
1391.574601696615
 30
0.0
 40
8.171089519311577
100
AcDbArc
 50
328.00014673163
 51
31.99985326836994
  0
LINE
  5
2C55
330
18
100
AcDbEntity
  8
0
100
AcDbLine
 10
2201.325202857721
 20
1390.004601696615
 30
0.0
 11
2199.725202857721
 21
1387.244601696615
 31
0.0
  0
LINE
  5
2C56
330
18
100
AcDbEntity
  8
0
100
AcDbLine
 10
2201.325202857721
 20
1419.124601696615
 30
0.0
 11
2201.325202857721
 21
1390.004601696615
 31
0.0
  0
ARC
  5
2C57
330
18
100
AcDbEntity
  8
0
100
AcDbCircle
 10
2170.148287866895
 20
1404.564601696615
 30
0.0
 40
30.81865507082531
100
AcDbArc
 50
343.6801846146565
 51
16.31981538534343
  0
ARC
  5
2C58
330
18
100
AcDbEntity
  8
0
100
AcDbCircle
 10
2219.325139806862
 20
1430.116108180365
 30
0.0
 40
30.0
100
AcDbArc
 50
106.1944308353429
 51
180.1174688133263
  0
LINE
  5
2C59
330
18
100
AcDbEntity
  8
0
100
AcDbLine
 10
2189.325202857721
 20
1460.874601696615
 30
0.0
 11
2199.725202857721
 21
1460.874601696615
 31
0.0
  0
LINE
  5
2C5A
330
18
100
AcDbEntity
  8
0
100
AcDbLine
 10
2199.725202857721
 20
1469.534601696615
 30
0.0
 11
2189.325202857721
 21
1469.534601696615
 31
0.0
  0
LINE
  5
2C5B
330
18
100
AcDbEntity
  8
0
100
AcDbLine
 10
2199.725202857721
 20
1434.234601696615
 30
0.0
 11
2189.325202857721
 21
1434.234601696615
 31
0.0
  0
LINE
  5
2C5C
330
18
100
AcDbEntity
  8
0
100
AcDbLine
 10
2189.325202857721
 20
1425.574601696616
 30
0.0
 11
2199.725202857721
 21
1425.574601696616
 31
0.0
  0
LINE
  5
2C5D
330
18
100
AcDbEntity
  8
0
100
AcDbLine
 10
2188.48520285772
 20
1425.274601696615
 30
0.0
 11
2188.73520285772
 21
1425.484601696615
 31
0.0
  0
LINE
  5
2C5E
330
18
100
AcDbEntity
  8
0
100
AcDbLine
 10
2187.32520285772
 20
1424.904601696615
 30
0.0
 11
2187.32520285772
 21
1424.904601696615
 31
0.0
  0
LINE
  5
2C5F
330
18
100
AcDbEntity
  8
0
100
AcDbLine
 10
2187.32520285772
 20
1424.904601696615
 30
0.0
 11
2187.61520285772
 21
1424.924601696615
 31
0.0
  0
LINE
  5
2C60
330
18
100
AcDbEntity
  8
0
100
AcDbLine
 10
2187.61520285772
 20
1424.924601696615
 30
0.0
 11
2187.90520285772
 21
1424.994601696615
 31
0.0
  0
LINE
  5
2C61
330
18
100
AcDbEntity
  8
0
100
AcDbLine
 10
2187.90520285772
 20
1424.994601696615
 30
0.0
 11
2188.205202857721
 21
1425.104601696615
 31
0.0
  0
LINE
  5
2C62
330
18
100
AcDbEntity
  8
0
100
AcDbLine
 10
2188.205202857721
 20
1425.104601696615
 30
0.0
 11
2188.48520285772
 21
1425.274601696615
 31
0.0
  0
LINE
  5
2C63
330
18
100
AcDbEntity
  8
0
100
AcDbLine
 10
2188.94520285772
 20
1425.734601696615
 30
0.0
 11
2189.11520285772
 21
1426.014601696615
 31
0.0
  0
LINE
  5
2C64
330
18
100
AcDbEntity
  8
0
100
AcDbLine
 10
2188.73520285772
 20
1425.484601696615
 30
0.0
 11
2188.94520285772
 21
1425.734601696615
 31
0.0
  0
LINE
  5
2C65
330
18
100
AcDbEntity
  8
0
100
AcDbLine
 10
2189.11520285772
 20
1426.014601696615
 30
0.0
 11
2189.23520285772
 21
1426.314601696615
 31
0.0
  0
LINE
  5
2C66
330
18
100
AcDbEntity
  8
0
100
AcDbLine
 10
2189.23520285772
 20
1426.314601696615
 30
0.0
 11
2189.325202857721
 21
1426.904601696615
 31
0.0
  0
LINE
  5
2C67
330
18
100
AcDbEntity
  8
0
100
AcDbLine
 10
2189.325202857721
 20
1430.044601696615
 30
0.0
 11
2189.325202857721
 21
1426.904601696615
 31
0.0
  0
LINE
  5
2C68
330
18
100
AcDbEntity
  8
0
100
AcDbLine
 10
2189.325202857721
 20
1430.044601696615
 30
0.0
 11
2189.325202857721
 21
1426.904601696615
 31
0.0
  0
LINE
  5
2C69
330
18
100
AcDbEntity
  8
0
100
AcDbLine
 10
2163.32520285772
 20
1424.904601696615
 30
0.0
 11
2187.32520285772
 21
1424.904601696615
 31
0.0
  0
LINE
  5
2C6A
330
18
100
AcDbEntity
  8
0
100
AcDbLine
 10
2201.325202857721
 20
1463.634601696615
 30
0.0
 11
2201.325202857721
 21
1469.797500725793
 31
0.0
  0
ARC
  5
2C6B
330
18
100
AcDbEntity
  8
0
100
AcDbCircle
 10
2192.795771850268
 20
1465.204601696615
 30
0.0
 40
8.171041187452262
100
AcDbArc
 50
327.9999349608471
 51
32.00006503915292
  0
LINE
  5
2C6C
330
18
100
AcDbEntity
  8
0
100
AcDbLine
 10
2199.725202857721
 20
1460.874601696615
 30
0.0
 11
2201.325202857721
 21
1463.634601696615
 31
0.0
  0
ARC
  5
2C6D
330
18
100
AcDbEntity
  8
0
100
AcDbCircle
 10
2170.148287866895
 20
1478.194601696615
 30
0.0
 40
30.81865507082531
100
AcDbArc
 50
343.6801846146565
 51
344.5434028543783
  0
LINE
  5
2C6E
330
18
100
AcDbEntity
  8
0
100
AcDbLine
 10
2200.09520285772
 20
1452.524601696615
 30
0.0
 11
2199.725202857721
 21
1451.554601696615
 31
0.0
  0
LINE
  5
2C6F
330
18
100
AcDbEntity
  8
0
100
AcDbLine
 10
2199.725202857721
 20
1451.554601696615
 30
0.0
 11
2199.725202857721
 21
1451.554601696615
 31
0.0
  0
LINE
  5
2C70
330
18
100
AcDbEntity
  8
0
100
AcDbLine
 10
2199.725202857721
 20
1451.554601696615
 30
0.0
 11
2198.40520285772
 21
1451.554601696615
 31
0.0
  0
ARC
  5
2C71
330
18
100
AcDbEntity
  8
0
100
AcDbCircle
 10
2192.795771850268
 20
1429.904601696615
 30
0.0
 40
8.171041187452141
100
AcDbArc
 50
327.9999349608471
 51
32.00006503915292
  0
LINE
  5
2C72
330
18
100
AcDbEntity
  8
0
100
AcDbLine
 10
2199.725202857721
 20
1425.574601696616
 30
0.0
 11
2201.325202857721
 21
1428.334601696615
 31
0.0
  0
ARC
  5
2C73
330
18
100
AcDbEntity
  8
0
100
AcDbCircle
 10
2170.148287866895
 20
1442.894601696615
 30
0.0
 40
30.81865507082537
100
AcDbArc
 50
343.6801846146565
 51
16.31981538534343
  0
LINE
  5
2C74
330
18
100
AcDbEntity
  8
0
100
AcDbLine
 10
2201.325202857721
 20
1428.334601696615
 30
0.0
 11
2201.325202857721
 21
1454.044601696615
 31
0.0
  0
ARC
  5
2C75
330
18
100
AcDbEntity
  8
0
100
AcDbCircle
 10
2199.802296332077
 20
1497.338564120764
 30
0.0
 40
40.0
100
AcDbArc
 50
286.1944308353429
 51
324.7608633527809
  0
LINE
  5
2C77
330
18
100
AcDbEntity
  8
0
100
AcDbLine
 10
2180.930036256879
 20
1508.49149468692
 30
0.0
 11
2171.530696362307
 21
1508.178148540862
 31
0.0
  0
CIRCLE
  5
2C78
330
18
100
AcDbEntity
  8
0
100
AcDbCircle
 10
2176.505397704326
 20
1500.084796543221
 30
0.0
 40
9.5
  0
ARC
  5
2C79
330
18
100
AcDbEntity
  8
0
100
AcDbCircle
 10
2199.501656020057
 20
1414.553589834434
 30
0.0
 40
89.99999999999847
100
AcDbArc
 50
67.35381313771991
 51
69.71026607785475
  0
LINE
  5
2C7B
330
18
100
AcDbEntity
  8
0
100
AcDbLine
 10
2199.725202857721
 20
1594.264601696615
 30
0.0
 11
2189.325202857721
 21
1594.264601696615
 31
0.0
  0
LINE
  5
2C7C
330
18
100
AcDbEntity
  8
0
100
AcDbLine
 10
2171.530696362309
 20
1555.631054852368
 30
0.0
 11
2180.930036256877
 21
1555.317708706311
 31
0.0
  0
CIRCLE
  5
2C7D
330
18
100
AcDbEntity
  8
0
100
AcDbCircle
 10
2176.505397704326
 20
1563.72440685001
 30
0.0
 40
9.5
  0
ARC
  5
2C7E
330
18
100
AcDbEntity
  8
0
100
AcDbCircle
 10
2170.165364607652
 20
1585.609601696615
 30
0.0
 40
30.80086139006843
100
AcDbArc
 50
15.47469595830297
 51
16.31981538534343
  0
ARC
  5
2C7F
330
18
100
AcDbEntity
  8
0
100
AcDbCircle
 10
2199.501656020057
 20
1649.255613558797
 30
0.0
 40
89.99999999999847
100
AcDbArc
 50
290.2897339221452
 51
292.64618686228
  0
LINE
  5
2C80
330
18
100
AcDbEntity
  8
0
100
AcDbLine
 10
2371.294391184307
 20
1469.49783782512
 30
0.0
 11
2385.289650926859
 21
1469.49783782512
 31
0.0
  0
LINE
  5
2C81
330
18
100
AcDbEntity
  8
0
100
AcDbLine
 10
2371.294391184307
 20
1594.455514097904
 30
0.0
 11
2385.289650926859
 21
1594.455514097904
 31
0.0
  0
LINE
  5
2C82
330
18
100
AcDbEntity
  8
0
100
AcDbLine
 10
2315.32520285772
 20
1478.104601696615
 30
0.0
 11
2315.32520285772
 21
1497.904601696616
 31
0.0
  0
ARC
  5
2C83
330
18
100
AcDbEntity
  8
0
100
AcDbCircle
 10
2197.597466221469
 20
1532.773411780355
 30
0.0
 40
75.0
100
AcDbArc
 50
311.8962689380865
 51
334.3386719646009
  0
LINE
  5
2C84
330
18
100
AcDbEntity
  8
0
100
AcDbLine
 10
2300.32520285772
 20
1507.404601696616
 30
0.0
 11
2300.32520285772
 21
1473.404601696616
 31
0.0
  0
LINE
  5
2C85
330
18
100
AcDbEntity
  8
0
100
AcDbLine
 10
2304.82520285772
 20
1498.624601696615
 30
0.0
 11
2304.82520285772
 21
1477.384601696615
 31
0.0
  0
LINE
  5
2C86
330
18
100
AcDbEntity
  8
0
100
AcDbLine
 10
2329.32220285772
 20
1477.404601696616
 30
0.0
 11
2329.32220285772
 21
1514.904601696615
 31
0.0
  0
LINE
  5
2C87
330
18
100
AcDbEntity
  8
0
100
AcDbLine
 10
2305.325202857721
 20
1498.134601696615
 30
0.0
 11
2305.325202857721
 21
1477.864601696615
 31
0.0
  0
LINE
  5
2C88
330
18
100
AcDbEntity
  8
0
100
AcDbLine
 10
2305.325202857721
 20
1497.904601696616
 30
0.0
 11
2305.325202857721
 21
1478.104601696615
 31
0.0
  0
LINE
  5
2C89
330
18
100
AcDbEntity
  8
0
100
AcDbLine
 10
2371.294391184307
 20
1469.49783782512
 30
0.0
 11
2371.294391184307
 21
1594.455514097904
 31
0.0
  0
LINE
  5
2C8A
330
18
100
AcDbEntity
  8
0
100
AcDbLine
 10
2329.32220285772
 20
1477.404601696616
 30
0.0
 11
2305.32220285772
 21
1477.404601696616
 31
0.0
  0
LINE
  5
2C8B
330
18
100
AcDbEntity
  8
0
100
AcDbLine
 10
2297.32520285772
 20
1470.404601696615
 30
0.0
 11
2239.252376241037
 21
1470.404601696615
 31
0.0
  0
ARC
  5
2C8C
330
18
100
AcDbEntity
  8
0
100
AcDbCircle
 10
2280.638560912112
 20
1447.402445783409
 30
0.0
 40
30.00215664841054
100
AcDbArc
 50
129.9430105642951
 51
148.2171979777764
  0
ARC
  5
2C8D
330
18
100
AcDbEntity
  8
0
100
AcDbCircle
 10
2297.32520285772
 20
1473.404601696616
 30
0.0
 40
3.0
100
AcDbArc
 50
270.0
 51
0.0
  0
LINE
  5
2C8E
330
18
100
AcDbEntity
  8
0
100
AcDbLine
 10
2305.325202857721
 20
1477.864601696615
 30
0.0
 11
2304.82520285772
 21
1477.384601696615
 31
0.0
  0
LINE
  5
2C8F
330
18
100
AcDbEntity
  8
0
100
AcDbLine
 10
2304.82520285772
 20
1477.384601696615
 30
0.0
 11
2300.32520285772
 21
1477.524601696615
 31
0.0
  0
LINE
  5
2C90
330
18
100
AcDbEntity
  8
0
100
AcDbLine
 10
2305.325202857721
 20
1478.104601696615
 30
0.0
 11
2315.32520285772
 21
1478.104601696615
 31
0.0
  0
LINE
  5
2C91
330
18
100
AcDbEntity
  8
0
100
AcDbLine
 10
2300.32520285772
 20
1548.97091993461
 30
0.0
 11
2363.79693060794
 21
1548.97091993461
 31
0.0
  0
LINE
  5
2C92
330
18
100
AcDbEntity
  8
0
100
AcDbLine
 10
2300.32520285772
 20
1514.982431988413
 30
0.0
 11
2363.796930607939
 21
1514.982431988413
 31
0.0
  0
LINE
  5
2C93
330
18
100
AcDbEntity
  8
0
100
AcDbLine
 10
2329.32220285772
 20
1586.404601696616
 30
0.0
 11
2248.186940125738
 21
1586.404601696616
 31
0.0
  0
LINE
  5
2C94
330
18
100
AcDbEntity
  8
0
100
AcDbLine
 10
2271.81520285772
 20
1541.294601696615
 30
0.0
 11
2271.81520285772
 21
1531.904601696616
 31
0.0
  0
LINE
  5
2C95
330
18
100
AcDbEntity
  8
0
100
AcDbLine
 10
2273.39520285772
 20
1538.074601696616
 30
0.0
 11
2274.31520285772
 21
1531.904601696616
 31
0.0
  0
ARC
  5
2C96
330
18
100
AcDbEntity
  8
0
100
AcDbCircle
 10
2253.31520285772
 20
1531.904601696616
 30
0.0
 40
18.5
100
AcDbArc
 50
337.6452256458794
 51
22.3547743541206
  0
LINE
  5
2C97
330
18
100
AcDbEntity
  8
0
100
AcDbLine
 10
2300.32520285772
 20
1556.404601696615
 30
0.0
 11
2300.32520285772
 21
1507.404601696616
 31
0.0
  0
LINE
  5
2C98
330
18
100
AcDbEntity
  8
0
100
AcDbLine
 10
2297.32520285772
 20
1504.404601696615
 30
0.0
 11
2264.447063659328
 21
1504.404601696615
 31
0.0
  0
LINE
  5
2C99
330
18
100
AcDbEntity
  8
0
100
AcDbLine
 10
2274.31520285772
 20
1531.904601696616
 30
0.0
 11
2274.31520285772
 21
1531.904601696616
 31
0.0
  0
LINE
  5
2C9A
330
18
100
AcDbEntity
  8
0
100
AcDbLine
 10
2271.81520285772
 20
1531.904601696616
 30
0.0
 11
2271.81520285772
 21
1522.504601696615
 31
0.0
  0
LINE
  5
2C9B
330
18
100
AcDbEntity
  8
0
100
AcDbLine
 10
2274.31520285772
 20
1531.904601696616
 30
0.0
 11
2274.09520285772
 21
1528.854601696615
 31
0.0
  0
LINE
  5
2C9C
330
18
100
AcDbEntity
  8
0
100
AcDbLine
 10
2274.09520285772
 20
1528.854601696615
 30
0.0
 11
2273.39520285772
 21
1525.734601696616
 31
0.0
  0
LINE
  5
2C9D
330
18
100
AcDbEntity
  8
0
100
AcDbLine
 10
2271.81520285772
 20
1522.504601696615
 30
0.0
 11
2270.70520285772
 21
1520.574601696615
 31
0.0
  0
LINE
  5
2C9E
330
18
100
AcDbEntity
  8
0
100
AcDbLine
 10
2272.165202857721
 20
1522.634601696615
 30
0.0
 11
2270.415202857721
 21
1519.694601696615
 31
0.0
  0
LINE
  5
2C9F
330
18
100
AcDbEntity
  8
0
100
AcDbLine
 10
2270.415202857721
 20
1519.694601696615
 30
0.0
 11
2269.357633460443
 21
1518.453720270477
 31
0.0
  0
LINE
  5
2CA0
330
18
100
AcDbEntity
  8
0
100
AcDbLine
 10
2273.39520285772
 20
1525.734601696616
 30
0.0
 11
2272.165202857721
 21
1522.634601696615
 31
0.0
  0
LINE
  5
2CA1
330
18
100
AcDbEntity
  8
0
100
AcDbLine
 10
2270.70520285772
 20
1520.574601696615
 30
0.0
 11
2269.673980953761
 21
1519.979446584251
 31
0.0
  0
ARC
  5
2CA2
330
18
100
AcDbEntity
  8
0
100
AcDbCircle
 10
2297.313278656392
 20
1507.404577998759
 30
0.0
 40
3.0
100
AcDbArc
 50
270.2277360697026
 51
355.7949882173539
  0
LINE
  5
2CA3
330
18
100
AcDbEntity
  8
0
100
AcDbLine
 10
2300.32520285772
 20
1498.474601696615
 30
0.0
 11
2304.82520285772
 21
1498.624601696615
 31
0.0
  0
LINE
  5
2CA4
330
18
100
AcDbEntity
  8
0
100
AcDbLine
 10
2304.82520285772
 20
1498.624601696615
 30
0.0
 11
2305.325202857721
 21
1498.134601696615
 31
0.0
  0
LINE
  5
2CA5
330
18
100
AcDbEntity
  8
0
100
AcDbLine
 10
2315.32520285772
 20
1497.904601696616
 30
0.0
 11
2305.325202857721
 21
1497.904601696616
 31
0.0
  0
LINE
  5
2CA6
330
18
100
AcDbEntity
  8
0
100
AcDbLine
 10
2315.32520285772
 20
1488.004601696615
 30
0.0
 11
2305.325202857721
 21
1488.004601696615
 31
0.0
  0
LINE
  5
2CA7
330
18
100
AcDbEntity
  8
0
100
AcDbLine
 10
2264.447063659328
 20
1559.404601696615
 30
0.0
 11
2297.32520285772
 21
1559.404601696615
 31
0.0
  0
LINE
  5
2CA8
330
18
100
AcDbEntity
  8
0
100
AcDbLine
 10
2272.165202857721
 20
1541.164601696616
 30
0.0
 11
2273.39520285772
 21
1538.074601696616
 31
0.0
  0
LINE
  5
2CA9
330
18
100
AcDbEntity
  8
0
100
AcDbLine
 10
2270.415202857721
 20
1544.104601696615
 30
0.0
 11
2272.165202857721
 21
1541.164601696616
 31
0.0
  0
LINE
  5
2CAA
330
18
100
AcDbEntity
  8
0
100
AcDbLine
 10
2270.27520285772
 20
1543.874601696615
 30
0.0
 11
2271.81520285772
 21
1541.294601696615
 31
0.0
  0
LINE
  5
2CAB
330
18
100
AcDbEntity
  8
0
100
AcDbLine
 10
2269.359210214068
 20
1545.348326365806
 30
0.0
 11
2270.415202857721
 21
1544.104601696615
 31
0.0
  0
LINE
  5
2CAC
330
18
100
AcDbEntity
  8
0
100
AcDbLine
 10
2269.590196968561
 20
1544.252998257861
 30
0.0
 11
2270.27520285772
 21
1543.874601696615
 31
0.0
  0
ARC
  5
2CAD
330
18
100
AcDbEntity
  8
0
100
AcDbCircle
 10
2297.32520285772
 20
1556.404601696615
 30
0.0
 40
3.0
100
AcDbArc
 50
0.0
 51
90.0
  0
LINE
  5
2CAE
330
18
100
AcDbEntity
  8
0
100
AcDbLine
 10
2363.79693060794
 20
1514.982431988412
 30
0.0
 11
2363.79693060794
 21
1548.97091993461
 31
0.0
  0
LINE
  5
2CB1
330
18
100
AcDbEntity
  8
0
100
AcDbLine
 10
2371.294391184307
 20
1507.484971412046
 30
0.0
 11
2363.79693060794
 21
1514.982431988413
 31
0.0
  0
LINE
  5
2CB4
330
18
100
AcDbEntity
  8
0
100
AcDbLine
 10
2329.32220285772
 20
1548.904601696616
 30
0.0
 11
2329.32220285772
 21
1586.404601696616
 31
0.0
  0
LINE
  5
2CB5
330
18
100
AcDbEntity
  8
0
100
AcDbLine
 10
2371.294391184307
 20
1556.468380510978
 30
0.0
 11
2363.79693060794
 21
1548.97091993461
 31
0.0
  0
LINE
  5
2CB7
330
18
100
AcDbEntity
  8
0
100
AcDbLine
 10
2385.289650926859
 20
1469.49783782512
 30
0.0
 11
2385.289650926859
 21
1594.455514097904
 31
0.0
  0
ARC
  5
2CBD
330
18
100
AcDbEntity
  8
0
100
AcDbCircle
 10
2166.372766574459
 20
1544.513337625818
 30
0.0
 40
105.0
100
AcDbArc
 50
32.28984409417931
 51
66.78899519058515
  0
LINE
  5
2CBE
330
18
100
AcDbEntity
  8
0
100
AcDbLine
 10
2161.825202857721
 20
1638.904601696616
 30
0.0
 11
2129.295202857721
 21
1638.904601696616
 31
0.0
  0
LINE
  5
2CBF
330
18
100
AcDbEntity
  8
0
100
AcDbLine
 10
2161.825202857721
 20
1681.904601696615
 30
0.0
 11
2128.71520285772
 21
1681.904601696615
 31
0.0
  0
ARC
  5
2CC0
330
18
100
AcDbEntity
  8
0
100
AcDbCircle
 10
2128.712846513554
 20
1691.900361744975
 30
0.0
 40
9.995760326095089
100
AcDbArc
 50
226.1273179156027
 51
270.0135065840452
  0
ARC
  5
2CC1
330
18
100
AcDbEntity
  8
0
100
AcDbCircle
 10
2219.32433922307
 20
1668.693172260683
 30
0.0
 40
29.99913639940571
100
AcDbArc
 50
179.997269899881
 51
247.3159643329079
  0
LINE
  5
2CC2
330
18
100
AcDbEntity
  8
0
100
AcDbLine
 10
2201.325202857721
 20
1644.674601696615
 30
0.0
 11
2201.325202857721
 21
1673.794601696615
 31
0.0
  0
ARC
  5
2CC3
330
18
100
AcDbEntity
  8
0
100
AcDbCircle
 10
2170.148287866894
 20
1659.234601696615
 30
0.0
 40
30.81865507082559
100
AcDbArc
 50
343.6801846146565
 51
16.31981538534343
  0
ARC
  5
2CC4
330
18
100
AcDbEntity
  8
0
100
AcDbCircle
 10
2219.325139806862
 20
1633.693095212866
 30
0.0
 40
30.0
100
AcDbArc
 50
179.8825311866476
 51
253.805569164657
  0
LINE
  5
2CC5
330
18
100
AcDbEntity
  8
0
100
AcDbLine
 10
2199.725202857721
 20
1629.564601696615
 30
0.0
 11
2189.325202857721
 21
1629.564601696615
 31
0.0
  0
LINE
  5
2CC6
330
18
100
AcDbEntity
  8
0
100
AcDbLine
 10
2189.325202857721
 20
1638.224601696615
 30
0.0
 11
2199.725202857721
 21
1638.224601696615
 31
0.0
  0
LINE
  5
2CC7
330
18
100
AcDbEntity
  8
0
100
AcDbLine
 10
2199.725202857721
 20
1602.934601696615
 30
0.0
 11
2189.325202857721
 21
1602.934601696615
 31
0.0
  0
LINE
  5
2CC8
330
18
100
AcDbEntity
  8
0
100
AcDbLine
 10
2189.325202857721
 20
1636.904601696616
 30
0.0
 11
2189.325202857721
 21
1633.754601696615
 31
0.0
  0
LINE
  5
2CC9
330
18
100
AcDbEntity
  8
0
100
AcDbLine
 10
2189.325202857721
 20
1633.754601696615
 30
0.0
 11
2189.325202857721
 21
1636.904601696616
 31
0.0
  0
LINE
  5
2CCA
330
18
100
AcDbEntity
  8
0
100
AcDbLine
 10
2188.94520285772
 20
1638.064601696615
 30
0.0
 11
2189.11520285772
 21
1637.784601696615
 31
0.0
  0
LINE
  5
2CCB
330
18
100
AcDbEntity
  8
0
100
AcDbLine
 10
2187.32520285772
 20
1638.904601696616
 30
0.0
 11
2187.32520285772
 21
1638.904601696616
 31
0.0
  0
LINE
  5
2CCC
330
18
100
AcDbEntity
  8
0
100
AcDbLine
 10
2187.32520285772
 20
1638.904601696616
 30
0.0
 11
2187.61520285772
 21
1638.884601696615
 31
0.0
  0
LINE
  5
2CCD
330
18
100
AcDbEntity
  8
0
100
AcDbLine
 10
2187.61520285772
 20
1638.884601696615
 30
0.0
 11
2187.90520285772
 21
1638.814601696615
 31
0.0
  0
LINE
  5
2CCE
330
18
100
AcDbEntity
  8
0
100
AcDbLine
 10
2187.90520285772
 20
1638.814601696615
 30
0.0
 11
2188.205202857721
 21
1638.694601696615
 31
0.0
  0
LINE
  5
2CCF
330
18
100
AcDbEntity
  8
0
100
AcDbLine
 10
2188.205202857721
 20
1638.694601696615
 30
0.0
 11
2188.48520285772
 21
1638.534601696615
 31
0.0
  0
LINE
  5
2CD0
330
18
100
AcDbEntity
  8
0
100
AcDbLine
 10
2188.48520285772
 20
1638.534601696615
 30
0.0
 11
2188.73520285772
 21
1638.314601696615
 31
0.0
  0
LINE
  5
2CD1
330
18
100
AcDbEntity
  8
0
100
AcDbLine
 10
2188.73520285772
 20
1638.314601696615
 30
0.0
 11
2188.94520285772
 21
1638.064601696615
 31
0.0
  0
LINE
  5
2CD2
330
18
100
AcDbEntity
  8
0
100
AcDbLine
 10
2189.11520285772
 20
1637.784601696615
 30
0.0
 11
2189.23520285772
 21
1637.494601696616
 31
0.0
  0
LINE
  5
2CD3
330
18
100
AcDbEntity
  8
0
100
AcDbLine
 10
2189.23520285772
 20
1637.494601696616
 30
0.0
 11
2189.325202857721
 21
1636.904601696616
 31
0.0
  0
LINE
  5
2CD4
330
18
100
AcDbEntity
  8
0
100
AcDbLine
 10
2163.32520285772
 20
1638.904601696616
 30
0.0
 11
2187.32520285772
 21
1638.904601696616
 31
0.0
  0
ARC
  5
2CD5
330
18
100
AcDbEntity
  8
0
100
AcDbCircle
 10
2192.795771850268
 20
1633.894601696615
 30
0.0
 40
8.171041187452141
100
AcDbArc
 50
327.9999349608471
 51
32.00006503915292
  0
LINE
  5
2CD6
330
18
100
AcDbEntity
  8
0
100
AcDbLine
 10
2201.325202857721
 20
1635.464601696615
 30
0.0
 11
2201.325202857721
 21
1609.754601696615
 31
0.0
  0
LINE
  5
2CD7
330
18
100
AcDbEntity
  8
0
100
AcDbLine
 10
2200.09520285772
 20
1611.274601696615
 30
0.0
 11
2199.725202857721
 21
1612.254601696615
 31
0.0
  0
LINE
  5
2CD8
330
18
100
AcDbEntity
  8
0
100
AcDbLine
 10
2199.725202857721
 20
1612.254601696615
 30
0.0
 11
2199.725202857721
 21
1612.244601696615
 31
0.0
  0
LINE
  5
2CD9
330
18
100
AcDbEntity
  8
0
100
AcDbLine
 10
2199.725202857721
 20
1612.244601696615
 30
0.0
 11
2198.40520285772
 21
1612.244601696615
 31
0.0
  0
LINE
  5
2CDA
330
18
100
AcDbEntity
  8
0
100
AcDbLine
 10
2201.325202857721
 20
1609.754601696615
 30
0.0
 11
2200.09520285772
 21
1611.274601696615
 31
0.0
  0
LINE
  5
2CDB
330
18
100
AcDbEntity
  8
0
100
AcDbLine
 10
2198.995202857721
 20
1611.694601696615
 30
0.0
 11
2202.295202857721
 21
1609.064601696615
 31
0.0
  0
LINE
  5
2CDC
330
18
100
AcDbEntity
  8
0
100
AcDbLine
 10
2202.295202857721
 20
1609.064601696615
 30
0.0
 11
2198.995202857721
 21
1611.694601696615
 31
0.0
  0
ARC
  5
2CDD
330
18
100
AcDbEntity
  8
0
100
AcDbCircle
 10
2170.148287866895
 20
1620.904601696615
 30
0.0
 40
30.81865507082537
100
AcDbArc
 50
343.6801846146565
 51
16.31981538534343
  0
LINE
  5
2CDE
330
18
100
AcDbEntity
  8
0
100
AcDbLine
 10
2199.725202857721
 20
1650.574601696616
 30
0.0
 11
2195.40520285772
 21
1650.574601696616
 31
0.0
  0
ARC
  5
2CDF
330
18
100
AcDbEntity
  8
0
100
AcDbCircle
 10
2192.799475127363
 20
1646.247591427678
 30
0.0
 40
8.166316333728737
100
AcDbArc
 50
351.4579206908494
 51
31.99604486031174
  0
LINE
  5
2CE0
330
18
100
AcDbEntity
  8
0
100
AcDbLine
 10
2199.725202857721
 20
1638.224601696615
 30
0.0
 11
2201.325202857721
 21
1635.464601696615
 31
0.0
  0
LINE
  5
2CE1
330
18
100
AcDbEntity
  8
0
100
AcDbLine
 10
2201.335202857721
 20
1644.674601696615
 30
0.0
 11
2201.325202857721
 21
1644.674601696615
 31
0.0
  0
LINE
  5
2CE2
330
18
100
AcDbEntity
  8
0
100
AcDbLine
 10
2201.325202857721
 20
1600.164601696616
 30
0.0
 11
2199.725202857721
 21
1602.934601696615
 31
0.0
  0
LINE
  5
2CE3
330
18
100
AcDbEntity
  8
0
100
AcDbLine
 10
2199.725202857721
 20
1676.554601696615
 30
0.0
 11
2189.325202857721
 21
1676.554601696615
 31
0.0
  0
LINE
  5
2CE4
330
18
100
AcDbEntity
  8
0
100
AcDbLine
 10
2199.725202857721
 20
1667.894601696615
 30
0.0
 11
2189.325202857721
 21
1667.894601696615
 31
0.0
  0
LINE
  5
2CE5
330
18
100
AcDbEntity
  8
0
100
AcDbLine
 10
2163.32520285772
 20
1661.904601696615
 30
0.0
 11
2161.825202857721
 21
1661.904601696615
 31
0.0
  0
LINE
  5
2CE6
330
18
100
AcDbEntity
  8
0
100
AcDbLine
 10
2189.11520285772
 20
1680.784601696615
 30
0.0
 11
2188.94520285772
 21
1681.064601696615
 31
0.0
  0
LINE
  5
2CE7
330
18
100
AcDbEntity
  8
0
100
AcDbLine
 10
2188.94520285772
 20
1681.064601696615
 30
0.0
 11
2188.73520285772
 21
1681.314601696615
 31
0.0
  0
LINE
  5
2CE8
330
18
100
AcDbEntity
  8
0
100
AcDbLine
 10
2188.73520285772
 20
1681.314601696615
 30
0.0
 11
2188.48520285772
 21
1681.524601696615
 31
0.0
  0
LINE
  5
2CE9
330
18
100
AcDbEntity
  8
0
100
AcDbLine
 10
2188.48520285772
 20
1681.524601696615
 30
0.0
 11
2188.205202857721
 21
1681.694601696616
 31
0.0
  0
LINE
  5
2CEA
330
18
100
AcDbEntity
  8
0
100
AcDbLine
 10
2188.205202857721
 20
1681.694601696616
 30
0.0
 11
2187.90520285772
 21
1681.814601696615
 31
0.0
  0
LINE
  5
2CEB
330
18
100
AcDbEntity
  8
0
100
AcDbLine
 10
2187.90520285772
 20
1681.814601696615
 30
0.0
 11
2187.32520285772
 21
1681.904601696615
 31
0.0
  0
LINE
  5
2CEC
330
18
100
AcDbEntity
  8
0
100
AcDbLine
 10
2189.325202857721
 20
1679.904601696615
 30
0.0
 11
2189.325202857721
 21
1679.904601696615
 31
0.0
  0
LINE
  5
2CED
330
18
100
AcDbEntity
  8
0
100
AcDbLine
 10
2189.325202857721
 20
1679.904601696615
 30
0.0
 11
2189.305202857721
 21
1680.194601696616
 31
0.0
  0
LINE
  5
2CEE
330
18
100
AcDbEntity
  8
0
100
AcDbLine
 10
2189.305202857721
 20
1680.194601696616
 30
0.0
 11
2189.23520285772
 21
1680.484601696615
 31
0.0
  0
LINE
  5
2CEF
330
18
100
AcDbEntity
  8
0
100
AcDbLine
 10
2189.23520285772
 20
1680.484601696615
 30
0.0
 11
2189.11520285772
 21
1680.784601696615
 31
0.0
  0
LINE
  5
2CF0
330
18
100
AcDbEntity
  8
0
100
AcDbLine
 10
2189.325202857721
 20
1668.694601696615
 30
0.0
 11
2189.325202857721
 21
1679.904601696615
 31
0.0
  0
LINE
  5
2CF1
330
18
100
AcDbEntity
  8
0
100
AcDbLine
 10
2187.32520285772
 20
1681.904601696615
 30
0.0
 11
2163.32520285772
 21
1681.904601696615
 31
0.0
  0
LINE
  5
2CF2
330
18
100
AcDbEntity
  8
0
100
AcDbLine
 10
2201.325202857721
 20
1673.794601696615
 30
0.0
 11
2199.725202857721
 21
1676.554601696615
 31
0.0
  0
ARC
  5
2CF3
330
18
100
AcDbEntity
  8
0
100
AcDbCircle
 10
2192.795714858409
 20
1672.224601696615
 30
0.0
 40
8.171089519311262
100
AcDbArc
 50
328.00014673163
 51
31.99985326836994
  0
LINE
  5
2DCA
330
18
100
AcDbEntity
  8
0
100
AcDbLine
 10
2912.751190408287
 20
899.6895383030974
 30
0.0
 11
2912.751190408287
 21
709.6983875141213
 31
0.0
  0
LINE
  5
2DCB
330
18
100
AcDbEntity
  8
0
100
AcDbLine
 10
2807.751190408287
 20
794.6895383030971
 30
0.0
 11
2807.751190408287
 21
668.6895383030972
 31
0.0
  0
LINE
  5
2DCD
330
18
100
AcDbEntity
  8
0
100
AcDbLine
 10
3231.751190408287
 20
668.6905383030971
 30
0.0
 11
3231.751190408287
 21
794.6895383030971
 31
0.0
  0
LINE
  5
2DCE
330
18
100
AcDbEntity
  8
0
100
AcDbLine
 10
3126.761190642261
 20
709.6860950576062
 30
0.0
 11
3126.751186844038
 21
899.6619203877934
 31
0.0
  0
ARC
  5
2DD0
330
18
100
AcDbEntity
  8
0
100
AcDbCircle
 10
3019.751190408287
 20
668.6895383030972
 30
0.0
 40
212.0
100
AcDbArc
 50
315.0356951371266
 51
0.0
  0
LINE
  5
2DD1
330
18
100
AcDbEntity
  8
0
100
AcDbLine
 10
2871.751190408287
 20
446.6895383030971
 30
0.0
 11
3167.751190408287
 21
446.6895383030971
 31
0.0
  0
LINE
  5
2DD2
330
18
100
AcDbEntity
  8
0
100
AcDbLine
 10
2889.451190408287
 20
523.770538303097
 30
0.0
 11
2904.451190408288
 21
515.1105383030972
 31
0.0
  0
ARC
  5
2DD3
330
18
100
AcDbEntity
  8
0
100
AcDbCircle
 10
3019.751190408287
 20
596.6895383030971
 30
0.0
 40
150.0
100
AcDbArc
 50
138.3362423749311
 51
249.2164404041742
  0
CIRCLE
  5
2DD4
330
18
100
AcDbEntity
  8
0
100
AcDbCircle
 10
2899.751190408287
 20
466.6895383030971
 30
0.0
 40
9.5
  0
CIRCLE
  5
2DD5
330
18
100
AcDbEntity
  8
0
100
AcDbCircle
 10
2890.451190408288
 20
623.2665383030971
 30
0.0
 40
15.0
  0
LINE
  5
2DD6
330
18
100
AcDbEntity
  8
0
100
AcDbLine
 10
2905.451190408287
 20
631.926538303097
 30
0.0
 11
2890.451190408288
 21
640.587538303097
 31
0.0
  0
CIRCLE
  5
2DD7
330
18
100
AcDbEntity
  8
0
100
AcDbCircle
 10
2904.451190408288
 20
532.431538303097
 30
0.0
 40
15.0
  0
LINE
  5
2DD8
330
18
100
AcDbEntity
  8
0
100
AcDbLine
 10
2904.451190408288
 20
549.751538303097
 30
0.0
 11
2889.451190408287
 21
541.0915383030972
 31
0.0
  0
LINE
  5
2DD9
330
18
100
AcDbEntity
  8
0
100
AcDbLine
 10
2874.001190408287
 20
561.2535383030972
 30
0.0
 11
2908.331190408287
 21
558.3135383030971
 31
0.0
  0
LINE
  5
2DDA
330
18
100
AcDbEntity
  8
0
100
AcDbLine
 10
2901.941190408287
 20
599.751538303097
 30
0.0
 11
2870.091190408287
 21
586.6165383030971
 31
0.0
  0
LINE
  5
2DDB
330
18
100
AcDbEntity
  8
0
100
AcDbLine
 10
2890.451190408288
 20
605.9455383030972
 30
0.0
 11
2905.451190408287
 21
614.606538303097
 31
0.0
  0
LINE
  5
2DDC
330
18
100
AcDbEntity
  8
0
100
AcDbLine
 10
2886.201190408288
 20
664.9775383030971
 30
0.0
 11
2910.291190408288
 21
640.3425383030971
 31
0.0
  0
LINE
  5
2DDD
330
18
100
AcDbEntity
  8
0
100
AcDbLine
 10
2937.271190408287
 20
679.5795383030972
 30
0.0
 11
2888.811190408287
 21
669.858538303097
 31
0.0
  0
LINE
  5
2DDE
330
18
100
AcDbEntity
  8
0
100
AcDbLine
 10
2869.751190408287
 20
596.6895383030971
 30
0.0
 11
2869.751190408287
 21
448.6895383030971
 31
0.0
  0
ARC
  5
2DDF
330
18
100
AcDbEntity
  8
0
100
AcDbCircle
 10
3019.751190408287
 20
668.6895383030972
 30
0.0
 40
212.0
100
AcDbArc
 50
180.0
 51
224.9643048628734
  0
ARC
  5
2DE0
330
18
100
AcDbEntity
  8
0
100
AcDbCircle
 10
2871.751190408287
 20
448.6895383030971
 30
0.0
 40
2.0
100
AcDbArc
 50
180.0
 51
270.0
  0
LINE
  5
2DE1
330
18
100
AcDbEntity
  8
0
100
AcDbLine
 10
2890.451190408288
 20
640.587538303097
 30
0.0
 11
2875.451190408288
 21
631.926538303097
 31
0.0
  0
LINE
  5
2DE2
330
18
100
AcDbEntity
  8
0
100
AcDbLine
 10
2889.451190408287
 20
541.0915383030972
 30
0.0
 11
2889.451190408287
 21
523.770538303097
 31
0.0
  0
LINE
  5
2DE3
330
18
100
AcDbEntity
  8
0
100
AcDbLine
 10
2875.451190408288
 20
631.926538303097
 30
0.0
 11
2875.451190408288
 21
614.606538303097
 31
0.0
  0
LINE
  5
2DE4
330
18
100
AcDbEntity
  8
0
100
AcDbLine
 10
2875.451190408288
 20
614.606538303097
 30
0.0
 11
2890.451190408288
 21
605.9455383030972
 31
0.0
  0
CIRCLE
  5
2DE5
330
18
100
AcDbEntity
  8
0
100
AcDbCircle
 10
3019.751190408287
 20
559.690538303097
 30
0.0
 40
77.5
  0
LINE
  5
2DE6
330
18
100
AcDbEntity
  8
0
100
AcDbLine
 10
2904.451190408288
 20
515.1105383030972
 30
0.0
 11
2919.451190408288
 21
523.770538303097
 31
0.0
  0
LINE
  5
2DE7
330
18
100
AcDbEntity
  8
0
100
AcDbLine
 10
2928.501190408287
 20
522.115538303097
 30
0.0
 11
2912.941190408287
 21
491.3725383030971
 31
0.0
  0
CIRCLE
  5
2DE8
330
18
100
AcDbEntity
  8
0
100
AcDbCircle
 10
2977.324783537094
 20
517.2641314319044
 30
0.0
 40
9.5
  0
LINE
  5
2DE9
330
18
100
AcDbEntity
  8
0
100
AcDbLine
 10
3169.751190408287
 20
448.6895383030971
 30
0.0
 11
3169.751190408287
 21
596.6895383030971
 31
0.0
  0
LINE
  5
2DEA
330
18
100
AcDbEntity
  8
0
100
AcDbLine
 10
3135.051190408287
 20
515.1105383030972
 30
0.0
 11
3150.051190408287
 21
523.770538303097
 31
0.0
  0
LINE
  5
2DEB
330
18
100
AcDbEntity
  8
0
100
AcDbLine
 10
3120.051190408287
 20
523.770538303097
 30
0.0
 11
3135.051190408287
 21
515.1105383030972
 31
0.0
  0
LINE
  5
2DEC
330
18
100
AcDbEntity
  8
0
100
AcDbLine
 10
3111.001190408287
 20
522.115538303097
 30
0.0
 11
3126.561190408287
 21
491.3725383030971
 31
0.0
  0
CIRCLE
  5
2DED
330
18
100
AcDbEntity
  8
0
100
AcDbCircle
 10
3062.17759727948
 20
517.2641314319044
 30
0.0
 40
9.5
  0
ARC
  5
2DEE
330
18
100
AcDbEntity
  8
0
100
AcDbCircle
 10
3019.751190408287
 20
596.6895383030971
 30
0.0
 40
150.0
100
AcDbArc
 50
290.7835595958257
 51
41.65868724240542
  0
LINE
  5
2DEF
330
18
100
AcDbEntity
  8
0
100
AcDbLine
 10
2969.751190408287
 20
446.6895383030971
 30
0.0
 11
3069.751190408287
 21
446.6895383030971
 31
0.0
  0
CIRCLE
  5
2DF0
330
18
100
AcDbEntity
  8
0
100
AcDbCircle
 10
3065.441190408288
 20
472.8505383030972
 30
0.0
 40
15.0
  0
LINE
  5
2DF1
330
18
100
AcDbEntity
  8
0
100
AcDbLine
 10
3050.441190408287
 20
464.1895383030971
 30
0.0
 11
3065.441190408288
 21
455.529538303097
 31
0.0
  0
LINE
  5
2DF2
330
18
100
AcDbEntity
  8
0
100
AcDbLine
 10
3065.441190408288
 20
490.1705383030971
 30
0.0
 11
3050.441190408287
 21
481.510538303097
 31
0.0
  0
CIRCLE
  5
2DF3
330
18
100
AcDbEntity
  8
0
100
AcDbCircle
 10
2974.061190408287
 20
472.8505383030972
 30
0.0
 40
15.0
  0
LINE
  5
2DF4
330
18
100
AcDbEntity
  8
0
100
AcDbLine
 10
2959.061190408288
 20
464.1895383030971
 30
0.0
 11
2974.061190408287
 21
455.529538303097
 31
0.0
  0
LINE
  5
2DF5
330
18
100
AcDbEntity
  8
0
100
AcDbLine
 10
2974.061190408287
 20
490.1705383030971
 30
0.0
 11
2959.061190408288
 21
481.510538303097
 31
0.0
  0
ARC
  5
2DF6
330
18
100
AcDbEntity
  8
0
100
AcDbCircle
 10
2964.751190408287
 20
451.7757708412027
 30
0.0
 40
5.0
100
AcDbArc
 50
0.0
 51
69.21644040417425
  0
LINE
  5
2DF7
330
18
100
AcDbEntity
  8
0
100
AcDbLine
 10
2969.751190408287
 20
451.7757708412027
 30
0.0
 11
2969.751190408287
 21
446.6895383030971
 31
0.0
  0
LINE
  5
2DF8
330
18
100
AcDbEntity
  8
0
100
AcDbLine
 10
2966.521190408288
 20
456.450538303097
 30
0.0
 11
2966.521190408288
 21
456.450538303097
 31
0.0
  0
LINE
  5
2DF9
330
18
100
AcDbEntity
  8
0
100
AcDbLine
 10
2931.431190408287
 20
475.4465383030971
 30
0.0
 11
2960.671190408287
 21
495.3815383030971
 31
0.0
  0
LINE
  5
2DFA
330
18
100
AcDbEntity
  8
0
100
AcDbLine
 10
2959.061190408288
 20
481.510538303097
 30
0.0
 11
2959.061190408288
 21
464.1895383030971
 31
0.0
  0
ARC
  5
2DFB
330
18
100
AcDbEntity
  8
0
100
AcDbCircle
 10
2974.753389500702
 20
474.7280921223834
 30
0.0
 40
24.99746327966171
100
AcDbArc
 50
98.62975151035307
 51
124.287452623664
  0
LINE
  5
2DFC
330
18
100
AcDbEntity
  8
0
100
AcDbLine
 10
2974.061190408287
 20
455.529538303097
 30
0.0
 11
2989.061190408287
 21
464.1895383030971
 31
0.0
  0
LINE
  5
2DFD
330
18
100
AcDbEntity
  8
0
100
AcDbLine
 10
2999.161190408287
 20
480.125538303097
 30
0.0
 11
3006.421190408287
 21
447.2835383030972
 31
0.0
  0
LINE
  5
2DFE
330
18
100
AcDbEntity
  8
0
100
AcDbLine
 10
3040.341190408287
 20
480.125538303097
 30
0.0
 11
3033.081190408287
 21
447.2835383030972
 31
0.0
  0
LINE
  5
2DFF
330
18
100
AcDbEntity
  8
0
100
AcDbLine
 10
2989.061190408287
 20
481.510538303097
 30
0.0
 11
2974.061190408287
 21
490.1705383030971
 31
0.0
  0
LINE
  5
2E00
330
18
100
AcDbEntity
  8
0
100
AcDbLine
 10
2989.061190408287
 20
464.1895383030971
 30
0.0
 11
2989.061190408287
 21
481.510538303097
 31
0.0
  0
ARC
  5
2E01
330
18
100
AcDbEntity
  8
0
100
AcDbCircle
 10
2974.753389500702
 20
474.7280921223834
 30
0.0
 40
24.99746327966171
100
AcDbArc
 50
12.46949297231763
 51
25.55708023335654
  0
LINE
  5
2E02
330
18
100
AcDbEntity
  8
0
100
AcDbLine
 10
3050.441190408287
 20
481.510538303097
 30
0.0
 11
3050.441190408287
 21
464.1895383030971
 31
0.0
  0
ARC
  5
2E03
330
18
100
AcDbEntity
  8
0
100
AcDbCircle
 10
3064.753991315873
 20
474.7247080106192
 30
0.0
 40
25.00307613077947
100
AcDbArc
 50
154.440117954215
 51
167.5254090512306
  0
CIRCLE
  5
2E04
330
18
100
AcDbEntity
  8
0
100
AcDbCircle
 10
3139.751190408287
 20
466.6895383030971
 30
0.0
 40
9.5
  0
LINE
  5
2E05
330
18
100
AcDbEntity
  8
0
100
AcDbLine
 10
3065.441190408288
 20
455.529538303097
 30
0.0
 11
3080.441190408287
 21
464.1895383030971
 31
0.0
  0
ARC
  5
2E06
330
18
100
AcDbEntity
  8
0
100
AcDbCircle
 10
3074.751190408287
 20
451.7757708412027
 30
0.0
 40
5.0
100
AcDbArc
 50
110.7835595958257
 51
180.0
  0
LINE
  5
2E07
330
18
100
AcDbEntity
  8
0
100
AcDbLine
 10
3069.751190408287
 20
446.6895383030971
 30
0.0
 11
3069.751190408287
 21
451.7757708412027
 31
0.0
  0
LINE
  5
2E08
330
18
100
AcDbEntity
  8
0
100
AcDbLine
 10
3108.071190408288
 20
475.4465383030971
 30
0.0
 11
3078.841190408287
 21
495.3815383030971
 31
0.0
  0
LINE
  5
2E09
330
18
100
AcDbEntity
  8
0
100
AcDbLine
 10
3080.441190408287
 20
481.510538303097
 30
0.0
 11
3065.441190408288
 21
490.1705383030971
 31
0.0
  0
LINE
  5
2E0A
330
18
100
AcDbEntity
  8
0
100
AcDbLine
 10
3080.441190408287
 20
464.1895383030971
 30
0.0
 11
3080.441190408287
 21
481.510538303097
 31
0.0
  0
ARC
  5
2E0B
330
18
100
AcDbEntity
  8
0
100
AcDbCircle
 10
3064.753991315873
 20
474.7247080106192
 30
0.0
 40
25.00307613077947
100
AcDbArc
 50
55.70744939989183
 51
81.37642875295329
  0
ARC
  5
2E0C
330
18
100
AcDbEntity
  8
0
100
AcDbCircle
 10
3167.751190408287
 20
448.6895383030971
 30
0.0
 40
2.0
100
AcDbArc
 50
270.0
 51
0.0
  0
CIRCLE
  5
2E0D
330
18
100
AcDbEntity
  8
0
100
AcDbCircle
 10
3062.17759727948
 20
602.1169451742898
 30
0.0
 40
9.5
  0
ARC
  5
2E0E
330
18
100
AcDbEntity
  8
0
100
AcDbCircle
 10
2892.413785947779
 20
622.8657684956336
 30
0.0
 40
25.00078145074006
100
AcDbArc
 50
292.4008607987898
 51
44.3507501526015
  0
LINE
  5
2E0F
330
18
100
AcDbEntity
  8
0
100
AcDbLine
 10
2964.751190408287
 20
767.088714133493
 30
0.0
 11
2964.751190408287
 21
614.2913624727007
 31
0.0
  0
CIRCLE
  5
2E10
330
18
100
AcDbEntity
  8
0
100
AcDbCircle
 10
2977.324783537094
 20
602.1169451742898
 30
0.0
 40
9.5
  0
ARC
  5
2E11
330
18
100
AcDbEntity
  8
0
100
AcDbCircle
 10
2906.196700751655
 20
533.4056785214998
 30
0.0
 40
24.99915048544602
100
AcDbArc
 50
333.1522696026883
 51
85.10198024454508
  0
LINE
  5
2E12
330
18
100
AcDbEntity
  8
0
100
AcDbLine
 10
2919.451190408288
 20
541.0915383030972
 30
0.0
 11
2904.451190408288
 21
549.751538303097
 31
0.0
  0
LINE
  5
2E13
330
18
100
AcDbEntity
  8
0
100
AcDbLine
 10
2919.451190408288
 20
523.770538303097
 30
0.0
 11
2919.451190408288
 21
541.0915383030972
 31
0.0
  0
LINE
  5
2E14
330
18
100
AcDbEntity
  8
0
100
AcDbLine
 10
2905.451190408287
 20
614.606538303097
 30
0.0
 11
2905.451190408287
 21
631.926538303097
 31
0.0
  0
CIRCLE
  5
2E16
330
18
100
AcDbEntity
  8
0
100
AcDbCircle
 10
2930.371190408288
 20
704.3705383030972
 30
0.0
 40
15.0
  0
ARC
  5
2E17
330
18
100
AcDbEntity
  8
0
100
AcDbCircle
 10
2932.356709389348
 20
704.0919907834502
 30
0.0
 40
25.00024900450134
100
AcDbArc
 50
281.3368788128412
 51
56.23597778244872
  0
LINE
  5
2E18
330
18
100
AcDbEntity
  8
0
100
AcDbLine
 10
2930.371190408288
 20
687.0505383030972
 30
0.0
 11
2945.371190408287
 21
695.710538303097
 31
0.0
  0
LINE
  5
2E19
330
18
100
AcDbEntity
  8
0
100
AcDbLine
 10
2915.371190408288
 20
695.710538303097
 30
0.0
 11
2930.371190408288
 21
687.0505383030972
 31
0.0
  0
LINE
  5
2E1A
330
18
100
AcDbEntity
  8
0
100
AcDbLine
 10
2945.371190408287
 20
713.031538303097
 30
0.0
 11
2930.371190408288
 21
721.6915383030971
 31
0.0
  0
LINE
  5
2E1B
330
18
100
AcDbEntity
  8
0
100
AcDbLine
 10
2912.751190408287
 20
747.2655383030971
 30
0.0
 11
2946.251190408287
 21
724.875538303097
 31
0.0
  0
LINE
  5
2E1C
330
18
100
AcDbEntity
  8
0
100
AcDbLine
 10
2930.371190408288
 20
721.6915383030971
 30
0.0
 11
2915.371190408288
 21
713.031538303097
 31
0.0
  0
ARC
  5
2E1D
330
18
100
AcDbEntity
  8
0
100
AcDbCircle
 10
2892.751190408287
 20
709.6983875141213
 30
0.0
 40
20.0
100
AcDbArc
 50
318.336242374931
 51
0.0
  0
LINE
  5
2E1E
330
18
100
AcDbEntity
  8
0
100
AcDbLine
 10
2915.371190408288
 20
713.031538303097
 30
0.0
 11
2915.371190408288
 21
695.710538303097
 31
0.0
  0
LINE
  5
2E1F
330
18
100
AcDbEntity
  8
0
100
AcDbLine
 10
2945.371190408287
 20
695.710538303097
 30
0.0
 11
2945.371190408287
 21
713.031538303097
 31
0.0
  0
ARC
  5
2E20
330
18
100
AcDbEntity
  8
0
100
AcDbCircle
 10
3147.088594868796
 20
622.8657684956336
 30
0.0
 40
25.00078145074022
100
AcDbArc
 50
135.6492498473985
 51
247.5991392012101
  0
CIRCLE
  5
2E21
330
18
100
AcDbEntity
  8
0
100
AcDbCircle
 10
3149.051190408287
 20
623.2665383030971
 30
0.0
 40
15.0
  0
LINE
  5
2E22
330
18
100
AcDbEntity
  8
0
100
AcDbLine
 10
3149.051190408287
 20
640.587538303097
 30
0.0
 11
3134.051190408287
 21
631.926538303097
 31
0.0
  0
LINE
  5
2E23
330
18
100
AcDbEntity
  8
0
100
AcDbLine
 10
3164.051190408287
 20
631.926538303097
 30
0.0
 11
3149.051190408287
 21
640.587538303097
 31
0.0
  0
LINE
  5
2E24
330
18
100
AcDbEntity
  8
0
100
AcDbLine
 10
3074.751190408287
 20
767.088714133493
 30
0.0
 11
3074.751190408287
 21
614.2913624727007
 31
0.0
  0
CIRCLE
  5
2E25
330
18
100
AcDbEntity
  8
0
100
AcDbCircle
 10
3135.051190408287
 20
532.431538303097
 30
0.0
 40
15.0
  0
LINE
  5
2E26
330
18
100
AcDbEntity
  8
0
100
AcDbLine
 10
3150.051190408287
 20
541.0915383030972
 30
0.0
 11
3135.051190408287
 21
549.751538303097
 31
0.0
  0
LINE
  5
2E27
330
18
100
AcDbEntity
  8
0
100
AcDbLine
 10
3165.501190408287
 20
561.2535383030972
 30
0.0
 11
3131.171190408287
 21
558.3135383030971
 31
0.0
  0
LINE
  5
2E28
330
18
100
AcDbEntity
  8
0
100
AcDbLine
 10
3134.051190408287
 20
614.606538303097
 30
0.0
 11
3149.051190408287
 21
605.9455383030972
 31
0.0
  0
ARC
  5
2E29
330
18
100
AcDbEntity
  8
0
100
AcDbCircle
 10
3133.305680064919
 20
533.4056785214998
 30
0.0
 40
24.99915048544611
100
AcDbArc
 50
94.89801975540299
 51
206.8477303973117
  0
LINE
  5
2E2A
330
18
100
AcDbEntity
  8
0
100
AcDbLine
 10
3135.051190408287
 20
549.751538303097
 30
0.0
 11
3120.051190408287
 21
541.0915383030972
 31
0.0
  0
LINE
  5
2E2B
330
18
100
AcDbEntity
  8
0
100
AcDbLine
 10
3120.051190408287
 20
541.0915383030972
 30
0.0
 11
3120.051190408287
 21
523.770538303097
 31
0.0
  0
LINE
  5
2E2C
330
18
100
AcDbEntity
  8
0
100
AcDbLine
 10
3134.051190408287
 20
631.926538303097
 30
0.0
 11
3134.051190408287
 21
614.606538303097
 31
0.0
  0
LINE
  5
2E2D
330
18
100
AcDbEntity
  8
0
100
AcDbLine
 10
3150.051190408287
 20
523.770538303097
 30
0.0
 11
3150.051190408287
 21
541.0915383030972
 31
0.0
  0
LINE
  5
2E2E
330
18
100
AcDbEntity
  8
0
100
AcDbLine
 10
3137.561190408288
 20
599.751538303097
 30
0.0
 11
3169.411190408288
 21
586.6165383030971
 31
0.0
  0
LINE
  5
2E2F
330
18
100
AcDbEntity
  8
0
100
AcDbLine
 10
3164.051190408287
 20
614.606538303097
 30
0.0
 11
3164.051190408287
 21
631.926538303097
 31
0.0
  0
LINE
  5
2E30
330
18
100
AcDbEntity
  8
0
100
AcDbLine
 10
3149.051190408287
 20
605.9455383030972
 30
0.0
 11
3164.051190408287
 21
614.606538303097
 31
0.0
  0
LINE
  5
2E31
330
18
100
AcDbEntity
  8
0
100
AcDbLine
 10
3102.231190408287
 20
679.5795383030972
 30
0.0
 11
3150.701190408287
 21
669.858538303097
 31
0.0
  0
LINE
  5
2E32
330
18
100
AcDbEntity
  8
0
100
AcDbLine
 10
3153.301190408287
 20
664.9775383030971
 30
0.0
 11
3129.211190408287
 21
640.3425383030971
 31
0.0
  0
CIRCLE
  5
2E33
330
18
100
AcDbEntity
  8
0
100
AcDbCircle
 10
3109.131190408287
 20
704.3715383030971
 30
0.0
 40
15.0
  0
LINE
  5
2E34
330
18
100
AcDbEntity
  8
0
100
AcDbLine
 10
3094.131190408287
 20
695.710538303097
 30
0.0
 11
3109.131190408287
 21
687.0505383030972
 31
0.0
  0
ARC
  5
2E35
330
18
100
AcDbEntity
  8
0
100
AcDbCircle
 10
3107.150671427226
 20
704.0899145557436
 30
0.0
 40
24.99919673793544
100
AcDbArc
 50
123.7518508716
 51
258.6509498411608
  0
LINE
  5
2E36
330
18
100
AcDbEntity
  8
0
100
AcDbLine
 10
3109.131190408287
 20
687.0505383030972
 30
0.0
 11
3124.131190408287
 21
695.710538303097
 31
0.0
  0
LINE
  5
2E37
330
18
100
AcDbEntity
  8
0
100
AcDbLine
 10
3109.131190408287
 20
721.6915383030971
 30
0.0
 11
3094.131190408287
 21
713.031538303097
 31
0.0
  0
LINE
  5
2E38
330
18
100
AcDbEntity
  8
0
100
AcDbLine
 10
3126.761190408287
 20
747.2655383030971
 30
0.0
 11
3093.261190408287
 21
724.875538303097
 31
0.0
  0
LINE
  5
2E39
330
18
100
AcDbEntity
  8
0
100
AcDbLine
 10
3094.131190408287
 20
713.031538303097
 30
0.0
 11
3094.131190408287
 21
695.710538303097
 31
0.0
  0
LINE
  5
2E3A
330
18
100
AcDbEntity
  8
0
100
AcDbLine
 10
3124.131190408287
 20
713.031538303097
 30
0.0
 11
3109.131190408287
 21
721.6915383030971
 31
0.0
  0
ARC
  5
2E3B
330
18
100
AcDbEntity
  8
0
100
AcDbCircle
 10
3146.761190614532
 20
709.6871482229962
 30
0.0
 40
20.0
100
AcDbArc
 50
180.0030170965942
 51
221.6586872424054
  0
LINE
  5
2E3C
330
18
100
AcDbEntity
  8
0
100
AcDbLine
 10
3124.131190408287
 20
695.710538303097
 30
0.0
 11
3124.131190408287
 21
713.031538303097
 31
0.0
  0
ARC
  5
2E3D
330
18
100
AcDbEntity
  8
0
100
AcDbCircle
 10
3019.751190408287
 20
794.6895383030971
 30
0.0
 40
212.0
100
AcDbArc
 50
0.0
 51
73.64143761104554
  0
ARC
  5
2E3E
330
18
100
AcDbEntity
  8
0
100
AcDbCircle
 10
3019.751190408287
 20
794.6895383030971
 30
0.0
 40
212.0
100
AcDbArc
 50
106.3585623889544
 51
180.0
  0
CIRCLE
  5
2E40
330
18
100
AcDbEntity
  8
0
100
AcDbCircle
 10
3019.751190408287
 20
978.6895383030971
 30
0.0
 40
62.7873394881484
  0
ARC
  5
2E41
330
18
100
AcDbEntity
  8
0
100
AcDbCircle
 10
3019.751190408287
 20
899.6895383030972
 30
0.0
 40
107.0
100
AcDbArc
 50
125.5914494071251
 51
180.0
  0
LINE
  5
2E42
330
18
100
AcDbEntity
  8
0
100
AcDbLine
 10
2957.099955969995
 20
982.8214656207226
 30
0.0
 11
2951.041190408288
 21
979.3235383030971
 31
0.0
  0
ARC
  5
2E43
330
18
100
AcDbEntity
  8
0
100
AcDbCircle
 10
2966.041190408288
 20
970.6625383030971
 30
0.0
 40
15.0
100
AcDbArc
 50
126.6272132352702
 51
250.3727590454282
  0
ARC
  5
2E44
330
18
100
AcDbEntity
  8
0
100
AcDbCircle
 10
3019.751190408287
 20
899.6895383030972
 30
0.0
 40
107.0
100
AcDbArc
 50
359.9852113086845
 51
54.40855059287485
  0
ARC
  5
2E45
330
18
100
AcDbEntity
  8
0
100
AcDbCircle
 10
3073.461190408287
 20
970.6595383030972
 30
0.0
 40
15.0
100
AcDbArc
 50
289.6219395776616
 51
53.37182745844486
  0
LINE
  5
2E46
330
18
100
AcDbEntity
  8
0
100
AcDbLine
 10
3088.461190408287
 20
979.320538303097
 30
0.0
 11
3082.402630450935
 21
982.8183469184743
 31
0.0
  0
CIRCLE
  5
2E49
330
18
100
AcDbEntity
  8
0
100
AcDbCircle
 10
3051.570995561681
 20
946.8697331497025
 30
0.0
 40
9.5
  0
LINE
  5
2E62
330
18
100
AcDbEntity
  8
0
100
AcDbLine
 10
2929.371190408287
 20
956.9585383030972
 30
0.0
 11
2956.323681965585
 21
945.6155139184414
 31
0.0
  0
LINE
  5
2E63
330
18
100
AcDbEntity
  8
0
100
AcDbLine
 10
2951.041190408288
 20
979.3235383030971
 30
0.0
 11
2951.041190408288
 21
962.0025383030972
 31
0.0
  0
ARC
  5
2E64
330
18
100
AcDbEntity
  8
0
100
AcDbCircle
 10
2966.021190408287
 20
968.6580469824022
 30
0.0
 40
25.0
100
AcDbArc
 50
247.1760847823798
 51
273.6462917503595
  0
LINE
  5
2E65
330
18
100
AcDbEntity
  8
0
100
AcDbLine
 10
2951.041190408288
 20
962.0025383030972
 30
0.0
 11
2961.140592144381
 21
956.1718170341254
 31
0.0
  0
CIRCLE
  5
2E6C
330
18
100
AcDbEntity
  8
0
100
AcDbCircle
 10
2987.931385254892
 20
946.8697331497025
 30
0.0
 40
9.5
  0
LINE
  5
2E80
330
18
100
AcDbEntity
  8
0
100
AcDbLine
 10
3110.131190408287
 20
956.9585383030972
 30
0.0
 11
3083.178698850989
 21
945.6155139184414
 31
0.0
  0
LINE
  5
2E81
330
18
100
AcDbEntity
  8
0
100
AcDbLine
 10
3088.461190408287
 20
961.9995383030971
 30
0.0
 11
3088.461190408287
 21
979.320538303097
 31
0.0
  0
ARC
  5
2E82
330
18
100
AcDbEntity
  8
0
100
AcDbCircle
 10
3073.481190408287
 20
968.6580469824022
 30
0.0
 40
25.0
100
AcDbArc
 50
266.3537082496404
 51
292.8239152176201
  0
LINE
  5
2E83
330
18
100
AcDbEntity
  8
0
100
AcDbLine
 10
3078.360307392906
 20
956.1679618422171
 30
0.0
 11
3088.461190408287
 21
961.9995383030971
 31
0.0
  0
CIRCLE
  5
2E84
330
18
100
AcDbEntity
  8
0
100
AcDbCircle
 10
3051.570995561681
 20
1010.509343456491
 30
0.0
 40
9.5
  0
CIRCLE
  5
2E85
330
18
100
AcDbEntity
  8
0
100
AcDbCircle
 10
2987.931385254892
 20
1010.509343456491
 30
0.0
 40
9.5
  0
TEXT
  5
2EBF
330
18
100
AcDbEntity
  8
0
100
AcDbText
 10
659.4309683209622
 20
593.3411740791771
 30
0.0
 40
52.5
  1
正面
100
AcDbText
  0
TEXT
  5
2EC0
330
18
100
AcDbEntity
  8
0
100
AcDbText
 10
655.75363204314
 20
1442.460820169442
 30
0.0
 40
52.5
  1
平面
100
AcDbText
  0
TEXT
  5
2EC1
330
18
100
AcDbEntity
  8
0
100
AcDbText
 10
679.3139132050537
 20
2279.712431218337
 30
0.0
 40
52.5
  1
背面
100
AcDbText
  0
TEXT
  5
2EC2
330
18
100
AcDbEntity
  8
0
100
AcDbText
 10
1642.787420611678
 20
159.5337606193123
 30
0.0
 40
52.49999999999997
  1
TLV  GP10･GT10 (JIS10K)
 72
     4
 11
2116.537420611678
 21
182.0337606193123
 31
0.0
100
AcDbText
  0
LINE
  5
31C1
330
18
100
AcDbEntity
  8
0
100
AcDbLine
 10
2357.722202857718
 20
791.4395383030968
 30
0.0
 11
2433.122202857719
 21
791.4395383030972
 31
0.0
  0
LINE
  5
31C2
330
18
100
AcDbEntity
  8
0
100
AcDbLine
 10
2357.722202857719
 20
851.9395383030971
 30
0.0
 11
2433.122202857719
 21
851.9395383030971
 31
0.0
  0
LINE
  5
31C3
330
18
100
AcDbEntity
  8
0
100
AcDbLine
 10
2433.122202857719
 20
851.9395383030971
 30
0.0
 11
2433.122202857719
 21
791.4395383030972
 31
0.0
  0
LINE
  5
31C4
330
18
100
AcDbEntity
  8
0
100
AcDbLine
 10
2458.322202857719
 20
899.1895383030971
 30
0.0
 11
2458.322202857719
 21
744.1895383030971
 31
0.0
  0
LINE
  5
31C5
330
18
100
AcDbEntity
  8
0
100
AcDbLine
 10
2442.322202857719
 20
899.1895383030971
 30
0.0
 11
2442.322202857719
 21
744.1895383030971
 31
0.0
  0
LINE
  5
31C6
330
18
100
AcDbEntity
  8
0
100
AcDbLine
 10
2433.122202857719
 20
791.4395383030972
 30
0.0
 11
2442.322202857719
 21
782.2395383030973
 31
0.0
  0
LINE
  5
31C7
330
18
100
AcDbEntity
  8
0
100
AcDbLine
 10
2442.322202857719
 20
744.1895383030971
 30
0.0
 11
2458.322202857719
 21
744.1895383030971
 31
0.0
  0
LINE
  5
31C8
330
18
100
AcDbEntity
  8
0
100
AcDbLine
 10
2442.322202857719
 20
899.1895383030971
 30
0.0
 11
2458.322202857719
 21
899.1895383030971
 31
0.0
  0
LINE
  5
31C9
330
18
100
AcDbEntity
  8
0
100
AcDbLine
 10
2442.322202857719
 20
861.139538303097
 30
0.0
 11
2433.122202857719
 21
851.9395383030971
 31
0.0
  0
LINE
  5
31CB
330
18
100
AcDbEntity
  8
0
100
AcDbLine
 10
2329.322202857719
 20
1562.154601696616
 30
0.0
 11
2371.294391184307
 21
1562.154601696615
 31
0.0
  0
LINE
  5
31CC
330
18
100
AcDbEntity
  8
0
100
AcDbLine
 10
2329.322202857719
 20
1501.654601696615
 30
0.0
 11
2371.294391184307
 21
1501.654601696615
 31
0.0
  0
LINE
  5
31CD
330
18
100
AcDbEntity
  8
0
100
AcDbLine
 10
2442.322202857719
 20
1609.404601696615
 30
0.0
 11
2442.322202857719
 21
1454.404601696615
 31
0.0
  0
LINE
  5
31CE
330
18
100
AcDbEntity
  8
0
100
AcDbLine
 10
2458.322202857719
 20
1609.404601696615
 30
0.0
 11
2458.322202857719
 21
1454.404601696615
 31
0.0
  0
LINE
  5
31CF
330
18
100
AcDbEntity
  8
0
100
AcDbLine
 10
2433.122202857719
 20
1562.154601696615
 30
0.0
 11
2433.122202857719
 21
1501.654601696615
 31
0.0
  0
LINE
  5
31D0
330
18
100
AcDbEntity
  8
0
100
AcDbLine
 10
2442.322202857719
 20
1454.404601696615
 30
0.0
 11
2458.322202857719
 21
1454.404601696615
 31
0.0
  0
LINE
  5
31D1
330
18
100
AcDbEntity
  8
0
100
AcDbLine
 10
2433.122202857719
 20
1501.654601696615
 30
0.0
 11
2442.322202857719
 21
1492.454601696616
 31
0.0
  0
LINE
  5
31D2
330
18
100
AcDbEntity
  8
0
100
AcDbLine
 10
2442.322202857719
 20
1571.354601696615
 30
0.0
 11
2433.122202857719
 21
1562.154601696615
 31
0.0
  0
LINE
  5
31D3
330
18
100
AcDbEntity
  8
0
100
AcDbLine
 10
2442.322202857719
 20
1609.404601696615
 30
0.0
 11
2458.322202857719
 21
1609.404601696615
 31
0.0
  0
LINE
  5
31D4
330
18
100
AcDbEntity
  8
0
100
AcDbLine
 10
2385.289650926859
 20
1562.154601696615
 30
0.0
 11
2433.122202857719
 21
1562.154601696615
 31
0.0
  0
LINE
  5
31D5
330
18
100
AcDbEntity
  8
0
100
AcDbLine
 10
2385.289650926859
 20
1501.654601696615
 30
0.0
 11
2433.122202857719
 21
1501.654601696615
 31
0.0
  0
INSERT
  5
3252
330
18
100
AcDbEntity
  8
0
100
AcDbBlockReference
  2
YA
 10
1824.208833058304
 20
2064.291058418099
 30
0.0
 41
-5.0
 42
5.0
 43
5.0
  0
INSERT
  5
32D5
330
18
100
AcDbEntity
  8
0
100
AcDbBlockReference
  2
YA
 10
1908.241333058304
 20
2326.291058418099
 30
0.0
 41
5.0
 42
5.0
 43
5.0
  0
CIRCLE
  5
3588
330
18
100
AcDbEntity
  8
0
100
AcDbCircle
 10
3019.751190408287
 20
821.6895383030971
 30
0.0
 40
77.5
  0
CIRCLE
  5
358A
330
18
100
AcDbEntity
  8
0
100
AcDbCircle
 10
2977.324783537094
 20
864.1159451742899
 30
0.0
 40
9.5
  0
CIRCLE
  5
358B
330
18
100
AcDbEntity
  8
0
100
AcDbCircle
 10
3062.17759727948
 20
864.1159451742899
 30
0.0
 40
9.5
  0
CIRCLE
  5
358C
330
18
100
AcDbEntity
  8
0
100
AcDbCircle
 10
2977.324783537094
 20
779.2631314319044
 30
0.0
 40
9.5
  0
CIRCLE
  5
358D
330
18
100
AcDbEntity
  8
0
100
AcDbCircle
 10
3062.17759727948
 20
779.2631314319044
 30
0.0
 40
9.5
  0
LINE
  5
358F
330
18
100
AcDbEntity
  8
0
100
AcDbLine
 10
3044.251190408287
 20
907.1905383030971
 30
0.0
 11
2995.251190408287
 21
907.1905383030971
 31
0.0
  0
LINE
  5
3592
330
18
100
AcDbEntity
  8
0
100
AcDbLine
 10
2975.452425965479
 20
934.1938141395258
 30
0.0
 11
2965.951190408288
 21
924.6935383030971
 31
0.0
  0
LINE
  5
3593
330
18
100
AcDbEntity
  8
0
100
AcDbLine
 10
2965.951190408288
 20
924.6935383030971
 30
0.0
 11
2975.851190408287
 21
914.7935383030972
 31
0.0
  0
LINE
  5
3597
330
18
100
AcDbEntity
  8
0
100
AcDbLine
 10
2985.751190408287
 20
924.6935383030971
 30
0.0
 11
2981.692931579477
 21
928.7513872067732
 31
0.0
  0
ARC
  5
3598
330
18
100
AcDbEntity
  8
0
100
AcDbCircle
 10
2975.851190408287
 20
924.6935383030971
 30
0.0
 40
9.315489999999998
100
AcDbArc
 50
91.29162290308364
 51
10.48455582296607
  0
LINE
  5
3599
330
18
100
AcDbEntity
  8
0
100
AcDbLine
 10
2975.851190408287
 20
914.7935383030972
 30
0.0
 11
2985.751190408287
 21
924.6935383030971
 31
0.0
  0
ARC
  5
359A
330
18
100
AcDbEntity
  8
0
100
AcDbCircle
 10
2987.251190408287
 20
902.1935383030973
 30
0.0
 40
5.0
100
AcDbArc
 50
0.0
 51
90.0
  0
ARC
  5
359B
330
18
100
AcDbEntity
  8
0
100
AcDbCircle
 10
2995.251190408287
 20
909.1905383030971
 30
0.0
 40
2.0
100
AcDbArc
 50
180.0
 51
270.0
  0
LINE
  5
359C
330
18
100
AcDbEntity
  8
0
100
AcDbLine
 10
2975.851190408287
 20
907.1935383030973
 30
0.0
 11
2987.251190408287
 21
907.1935383030973
 31
0.0
  0
LINE
  5
359D
330
18
100
AcDbEntity
  8
0
100
AcDbLine
 10
2993.251190408287
 20
909.1905383030971
 30
0.0
 11
2993.251190408287
 21
921.7685404200663
 31
0.0
  0
ARC
  5
359E
330
18
100
AcDbEntity
  8
0
100
AcDbCircle
 10
2975.851190408287
 20
924.6935383030971
 30
0.0
 40
17.5
100
AcDbArc
 50
111.1877406955427
 51
270.0
  0
ARC
  5
359F
330
18
100
AcDbEntity
  8
0
100
AcDbCircle
 10
2975.851190408287
 20
924.6935383030971
 30
0.0
 40
10.6338
100
AcDbArc
 50
97.66330718268411
 51
4.11287154336604
  0
ARC
  5
35A3
330
18
100
AcDbEntity
  8
0
100
AcDbCircle
 10
3044.251190408287
 20
909.1905383030971
 30
0.0
 40
2.0
100
AcDbArc
 50
270.0
 51
0.0
  0
LINE
  5
35A4
330
18
100
AcDbEntity
  8
0
100
AcDbLine
 10
3046.251190408287
 20
921.7685404200663
 30
0.0
 11
3046.251190408287
 21
909.1905383030971
 31
0.0
  0
LINE
  5
35A5
330
18
100
AcDbEntity
  8
0
100
AcDbLine
 10
2992.251190408286
 20
894.1464220340442
 30
0.0
 11
2992.251190408287
 21
902.1935383030973
 31
0.0
  0
LINE
  5
35A7
330
18
100
AcDbEntity
  8
0
100
AcDbLine
 10
3051.481190408287
 20
866.6135383030971
 30
0.0
 11
3051.481190408287
 21
866.6135383030971
 31
0.0
  0
LINE
  5
35AA
330
18
100
AcDbEntity
  8
0
100
AcDbLine
 10
3047.251190408287
 20
894.1464220340446
 30
0.0
 11
3047.251190408287
 21
922.2448751364167
 31
0.0
  0
LINE
  5
35AB
330
18
100
AcDbEntity
  8
0
100
AcDbLine
 10
3108.751190408287
 20
867.770538303097
 30
0.0
 11
3123.751190408287
 21
876.430538303097
 31
0.0
  0
CIRCLE
  5
35AC
330
18
100
AcDbEntity
  8
0
100
AcDbCircle
 10
3108.751190408287
 20
885.0905383030973
 30
0.0
 40
15.0
  0
LINE
  5
35AD
330
18
100
AcDbEntity
  8
0
100
AcDbLine
 10
3123.751190408287
 20
893.7515383030973
 30
0.0
 11
3108.751190408287
 21
902.4115383030972
 31
0.0
  0
LINE
  5
35AE
330
18
100
AcDbEntity
  8
0
100
AcDbLine
 10
3126.751190408287
 20
834.5905383030972
 30
0.0
 11
3097.158275466103
 21
817.8957034553278
 31
0.0
  0
LINE
  5
35AF
330
18
100
AcDbEntity
  8
0
100
AcDbLine
 10
3094.444644199105
 20
863.3173099685386
 30
0.0
 11
3126.751190408287
 21
845.0905383030972
 31
0.0
  0
LINE
  5
35B0
330
18
100
AcDbEntity
  8
0
100
AcDbLine
 10
3124.051190408287
 20
923.568538303097
 30
0.0
 11
3094.444474081864
 21
906.8646570979176
 31
0.0
  0
CIRCLE
  5
35B1
330
18
100
AcDbEntity
  8
0
100
AcDbCircle
 10
3108.751190408287
 20
794.5905383030972
 30
0.0
 40
15.0
  0
LINE
  5
35B2
330
18
100
AcDbEntity
  8
0
100
AcDbLine
 10
3108.751190408287
 20
777.270538303097
 30
0.0
 11
3123.751190408287
 21
785.9305383030971
 31
0.0
  0
LINE
  5
35B3
330
18
100
AcDbEntity
  8
0
100
AcDbLine
 10
3094.444594536835
 20
772.8173379874625
 30
0.0
 11
3126.751190408287
 21
754.5905383030972
 31
0.0
  0
LINE
  5
35B4
330
18
100
AcDbEntity
  8
0
100
AcDbLine
 10
3123.751190408287
 20
803.2515383030972
 30
0.0
 11
3108.751190408287
 21
811.9115383030971
 31
0.0
  0
LINE
  5
35B5
330
18
100
AcDbEntity
  8
0
100
AcDbLine
 10
3093.751190408287
 20
785.9305383030971
 30
0.0
 11
3108.751190408287
 21
777.270538303097
 31
0.0
  0
ARC
  5
35B6
330
18
100
AcDbEntity
  8
0
100
AcDbCircle
 10
3106.728936183959
 20
794.5910595411321
 30
0.0
 40
25.0
100
AcDbArc
 50
212.8549039553382
 51
240.5690913029321
  0
LINE
  5
35B7
330
18
100
AcDbEntity
  8
0
100
AcDbLine
 10
3093.751190408287
 20
798.6623804237577
 30
0.0
 11
3093.751190408287
 21
785.9305383030971
 31
0.0
  0
LINE
  5
35B8
330
18
100
AcDbEntity
  8
0
100
AcDbLine
 10
3108.751190408287
 20
811.9115383030971
 30
0.0
 11
3095.229954228186
 21
804.1052779484521
 31
0.0
  0
LINE
  5
35B9
330
18
100
AcDbEntity
  8
0
100
AcDbLine
 10
3108.751190408287
 20
902.4115383030972
 30
0.0
 11
3093.751190408287
 21
893.7515383030973
 31
0.0
  0
ARC
  5
35BA
330
18
100
AcDbEntity
  8
0
100
AcDbCircle
 10
3106.728985846229
 20
885.0910315222083
 30
0.0
 40
25.0
100
AcDbArc
 50
119.431356347758
 51
240.5690913029321
  0
LINE
  5
35BB
330
18
100
AcDbEntity
  8
0
100
AcDbLine
 10
3093.751190408287
 20
893.7515383030973
 30
0.0
 11
3093.751190408287
 21
876.430538303097
 31
0.0
  0
LINE
  5
35BC
330
18
100
AcDbEntity
  8
0
100
AcDbLine
 10
3093.751190408287
 20
876.430538303097
 30
0.0
 11
3108.751190408287
 21
867.770538303097
 31
0.0
  0
LINE
  5
35BD
330
18
100
AcDbEntity
  8
0
100
AcDbLine
 10
3123.751190408287
 20
785.9305383030971
 30
0.0
 11
3123.751190408287
 21
803.2515383030972
 31
0.0
  0
LINE
  5
35BE
330
18
100
AcDbEntity
  8
0
100
AcDbLine
 10
3123.751190408287
 20
876.430538303097
 30
0.0
 11
3123.751190408287
 21
893.7515383030973
 31
0.0
  0
LINE
  5
35BF
330
18
100
AcDbEntity
  8
0
100
AcDbLine
 10
2915.741190408287
 20
785.9305383030971
 30
0.0
 11
2930.741190408287
 21
777.270538303097
 31
0.0
  0
CIRCLE
  5
35C0
330
18
100
AcDbEntity
  8
0
100
AcDbCircle
 10
2930.741190408287
 20
794.5905383030972
 30
0.0
 40
15.0
  0
LINE
  5
35C1
330
18
100
AcDbEntity
  8
0
100
AcDbLine
 10
2930.741190408287
 20
777.270538303097
 30
0.0
 11
2945.741190408287
 21
785.9305383030971
 31
0.0
  0
ARC
  5
35C2
330
18
100
AcDbEntity
  8
0
100
AcDbCircle
 10
2932.773444632615
 20
794.5910595410564
 30
0.0
 40
25.0
100
AcDbArc
 50
299.430908697155
 51
327.1450960447628
  0
LINE
  5
35C3
330
18
100
AcDbEntity
  8
0
100
AcDbLine
 10
2945.057786279772
 20
772.8173379874051
 30
0.0
 11
2912.751190408287
 21
754.5905383030972
 31
0.0
  0
LINE
  5
35C4
330
18
100
AcDbEntity
  8
0
100
AcDbLine
 10
2912.751190408287
 20
834.5905383030972
 30
0.0
 11
2942.344105350475
 21
817.8957034552558
 31
0.0
  0
LINE
  5
35C5
330
18
100
AcDbEntity
  8
0
100
AcDbLine
 10
2930.741190408287
 20
811.9115383030971
 30
0.0
 11
2915.741190408287
 21
803.2515383030972
 31
0.0
  0
LINE
  5
35C6
330
18
100
AcDbEntity
  8
0
100
AcDbLine
 10
2915.741190408287
 20
803.2515383030972
 30
0.0
 11
2915.741190408287
 21
785.9305383030971
 31
0.0
  0
LINE
  5
35C7
330
18
100
AcDbEntity
  8
0
100
AcDbLine
 10
2945.741190408287
 20
785.9305383030971
 30
0.0
 11
2945.741190408287
 21
798.6945410210806
 31
0.0
  0
LINE
  5
35C8
330
18
100
AcDbEntity
  8
0
100
AcDbLine
 10
2944.273980977681
 20
804.0986072143674
 30
0.0
 11
2930.741190408287
 21
811.9115383030971
 31
0.0
  0
LINE
  5
35C9
330
18
100
AcDbEntity
  8
0
100
AcDbLine
 10
2930.741190408287
 20
902.4115383030972
 30
0.0
 11
2915.741190408287
 21
893.7515383030973
 31
0.0
  0
ARC
  5
35CA
330
18
100
AcDbEntity
  8
0
100
AcDbCircle
 10
2932.773394970345
 20
885.0910315222083
 30
0.0
 40
25.0
100
AcDbArc
 50
299.4309086970387
 51
60.56864365224201
  0
LINE
  5
35CB
330
18
100
AcDbEntity
  8
0
100
AcDbLine
 10
2945.741190408287
 20
893.7515383030973
 30
0.0
 11
2930.741190408287
 21
902.4115383030972
 31
0.0
  0
CIRCLE
  5
35CC
330
18
100
AcDbEntity
  8
0
100
AcDbCircle
 10
2930.741190408287
 20
885.0905383030973
 30
0.0
 40
15.0
  0
LINE
  5
35CD
330
18
100
AcDbEntity
  8
0
100
AcDbLine
 10
2915.741190408287
 20
876.430538303097
 30
0.0
 11
2930.741190408287
 21
867.770538303097
 31
0.0
  0
LINE
  5
35CE
330
18
100
AcDbEntity
  8
0
100
AcDbLine
 10
2945.057736617469
 20
863.3173099685386
 30
0.0
 11
2912.751190408287
 21
845.0905383030972
 31
0.0
  0
LINE
  5
35CF
330
18
100
AcDbEntity
  8
0
100
AcDbLine
 10
2915.741190408287
 20
893.7515383030973
 30
0.0
 11
2915.741190408287
 21
876.430538303097
 31
0.0
  0
LINE
  5
35D0
330
18
100
AcDbEntity
  8
0
100
AcDbLine
 10
2945.741190408287
 20
876.430538303097
 30
0.0
 11
2945.741190408287
 21
893.7515383030973
 31
0.0
  0
LINE
  5
35D1
330
18
100
AcDbEntity
  8
0
100
AcDbLine
 10
2930.741190408287
 20
867.770538303097
 30
0.0
 11
2945.741190408287
 21
876.430538303097
 31
0.0
  0
LINE
  5
35D2
330
18
100
AcDbEntity
  8
0
100
AcDbLine
 10
2915.451190408288
 20
923.568538303097
 30
0.0
 11
2945.057906734711
 21
906.8646570979174
 31
0.0
  0
TEXT
  5
35D5
330
18
100
AcDbEntity
  8
0
100
AcDbText
 10
2005.670446084506
 20
282.2657809532293
 30
0.0
 40
40.0
  1
50Ax50A
 41
0.8
 72
     4
 11
2108.527588941649
 21
302.2657809532292
 31
0.0
100
AcDbText
  0
LINE
  5
3A91
330
18
100
AcDbEntity
  8
0
100
AcDbLine
 10
2329.322202857719
 20
866.239538303097
 30
0.0
 11
2329.322202857719
 21
777.1395383030967
 31
0.0
  0
LINE
  5
3A92
330
18
100
AcDbEntity
  8
0
100
AcDbLine
 10
2357.722202857719
 20
821.6895383030971
 30
0.0
 11
2357.722202857719
 21
866.2395383030974
 31
0.0
  0
LINE
  5
3A93
330
18
100
AcDbEntity
  8
0
100
AcDbLine
 10
2357.722202857719
 20
821.6895383030967
 30
0.0
 11
2357.722202857718
 21
777.1395383030965
 31
0.0
  0
LINE
  5
3A94
330
18
100
AcDbEntity
  8
0
100
AcDbLine
 10
2329.322202857719
 20
777.1395383030967
 30
0.0
 11
2357.722202857718
 21
777.1395383030969
 31
0.0
  0
LINE
  5
3A95
330
18
100
AcDbEntity
  8
0
100
AcDbLine
 10
2329.322202857719
 20
866.239538303097
 30
0.0
 11
2357.72220285772
 21
866.2395383030974
 31
0.0
  0
POLYLINE
  5
3A97
330
18
100
AcDbEntity
  8
0
100
AcDb2dPolyline
 66
     1
 10
0.0
 20
0.0
 30
0.0
  0
VERTEX
  5
4604
330
3A97
100
AcDbEntity
  8
0
100
AcDbVertex
100
AcDb2dVertex
 10
2177.932202857719
 20
2223.706847356148
 30
0.0
 42
-0.1110900395357144
  0
VERTEX
  5
4605
330
3A97
100
AcDbEntity
  8
0
100
AcDbVertex
100
AcDb2dVertex
 10
2181.581958213314
 20
2239.931136010608
 30
0.0
 42
-0.1028481776418138
  0
VERTEX
  5
4606
330
3A97
100
AcDbEntity
  8
0
100
AcDbVertex
100
AcDb2dVertex
 10
2192.398198934915
 20
2254.232647099971
 30
0.0
 42
-0.0929995041670857
  0
VERTEX
  5
4607
330
3A97
100
AcDbEntity
  8
0
100
AcDbVertex
100
AcDb2dVertex
 10
2208.128491372386
 20
2263.509273307915
 30
0.0
 42
-0.0870610434407608
  0
VERTEX
  5
4608
330
3A97
100
AcDbEntity
  8
0
100
AcDbVertex
100
AcDb2dVertex
 10
2227.322202857718
 20
2266.876847356148
 30
0.0
 42
-0.0870610434407572
  0
SEQEND
  5
4609
330
3A97
100
AcDbEntity
  8
0
  0
POLYLINE
  5
3A98
330
18
100
AcDbEntity
  8
0
100
AcDb2dPolyline
 66
     1
 10
0.0
 20
0.0
 30
0.0
  0
VERTEX
  5
460A
330
3A98
100
AcDbEntity
  8
0
100
AcDbVertex
100
AcDb2dVertex
 10
2227.322202857718
 20
2010.984847356147
 30
0.0
 42
-0.107696942501049
  0
VERTEX
  5
460B
330
3A98
100
AcDbEntity
  8
0
100
AcDbVertex
100
AcDb2dVertex
 10
2208.66803708933
 20
2015.049990691709
 30
0.0
 42
-0.1018398349839665
  0
VERTEX
  5
460C
330
3A98
100
AcDbEntity
  8
0
100
AcDbVertex
100
AcDb2dVertex
 10
2192.398897591654
 20
2026.964808481391
 30
0.0
 42
-0.0945211726760977
  0
VERTEX
  5
460D
330
3A98
100
AcDbEntity
  8
0
100
AcDbVertex
100
AcDb2dVertex
 10
2181.763171242127
 20
2044.420818754088
 30
0.0
 42
-0.0899257565637016
  0
VERTEX
  5
460E
330
3A98
100
AcDbEntity
  8
0
100
AcDbVertex
100
AcDb2dVertex
 10
2177.933190907554
 20
2065.543847356148
 30
0.0
 42
-0.0899257565637006
  0
SEQEND
  5
460F
330
3A98
100
AcDbEntity
  8
0
  0
POLYLINE
  5
3A99
330
18
100
AcDbEntity
  8
0
100
AcDb2dPolyline
 66
     1
 10
0.0
 20
0.0
 30
0.0
  0
VERTEX
  5
4610
330
3A99
100
AcDbEntity
  8
0
100
AcDbVertex
100
AcDb2dVertex
 10
2177.932202857719
 20
2142.476847356149
 30
0.0
 42
-0.1135446756219572
  0
VERTEX
  5
4611
330
3A99
100
AcDbEntity
  8
0
100
AcDbVertex
100
AcDb2dVertex
 10
2181.55978674293
 20
2158.245158935687
 30
0.0
 42
-0.1035052482649747
  0
VERTEX
  5
4612
330
3A99
100
AcDbEntity
  8
0
100
AcDbVertex
100
AcDb2dVertex
 10
2192.398198934915
 20
2172.253113911913
 30
0.0
 42
-0.0918863226898913
  0
VERTEX
  5
4613
330
3A99
100
AcDbEntity
  8
0
100
AcDbVertex
100
AcDb2dVertex
 10
2208.079320119042
 20
2181.288761435792
 30
0.0
 42
-0.085075990665343
  0
VERTEX
  5
4614
330
3A99
100
AcDbEntity
  8
0
100
AcDbVertex
100
AcDb2dVertex
 10
2227.322202857718
 20
2184.586847356148
 30
0.0
 42
-0.0850759906653445
  0
SEQEND
  5
4615
330
3A99
100
AcDbEntity
  8
0
  0
POLYLINE
  5
3A9A
330
18
100
AcDbEntity
  8
0
100
AcDb2dPolyline
 66
     1
 10
0.0
 20
0.0
 30
0.0
  0
VERTEX
  5
4616
330
3A9A
100
AcDbEntity
  8
0
100
AcDbVertex
100
AcDb2dVertex
 10
2177.933469526222
 20
2065.543847356148
 30
0.0
 42
-0.2303778337445353
  0
VERTEX
  5
4617
330
3A9A
100
AcDbEntity
  8
0
100
AcDbVertex
100
AcDb2dVertex
 10
2180.240675980412
 20
2070.057894239543
 30
0.0
 42
-0.0857134771080596
  0
VERTEX
  5
4618
330
3A9A
100
AcDbEntity
  8
0
100
AcDbVertex
100
AcDb2dVertex
 10
2192.370033672963
 20
2076.286964281889
 30
0.0
 42
-0.043280060836277
  0
VERTEX
  5
4619
330
3A9A
100
AcDbEntity
  8
0
100
AcDbVertex
100
AcDb2dVertex
 10
2207.024129185113
 20
2079.516486248358
 30
0.0
 42
-0.0319607229775014
  0
VERTEX
  5
461A
330
3A9A
100
AcDbEntity
  8
0
100
AcDbVertex
100
AcDb2dVertex
 10
2227.282202857718
 20
2080.865847356148
 30
0.0
 42
-0.0319607229775038
  0
SEQEND
  5
461B
330
3A9A
100
AcDbEntity
  8
0
  0
POLYLINE
  5
3A9B
330
18
100
AcDbEntity
  8
0
100
AcDb2dPolyline
 66
     1
 10
0.0
 20
0.0
 30
0.0
  0
VERTEX
  5
461C
330
3A9B
100
AcDbEntity
  8
0
100
AcDbVertex
100
AcDb2dVertex
 10
2227.322202857718
 20
2106.228847356148
 30
0.0
 42
-0.0739141019569554
  0
VERTEX
  5
461D
330
3A9B
100
AcDbEntity
  8
0
100
AcDbVertex
100
AcDb2dVertex
 10
2207.814074769105
 20
2109.128540772209
 30
0.0
 42
-0.0847033099063923
  0
VERTEX
  5
461E
330
3A9B
100
AcDbEntity
  8
0
100
AcDbVertex
100
AcDb2dVertex
 10
2192.398198934915
 20
2116.845640751698
 30
0.0
 42
-0.1063598999383303
  0
VERTEX
  5
461F
330
3A9B
100
AcDbEntity
  8
0
100
AcDbVertex
100
AcDb2dVertex
 10
2181.413508828068
 20
2129.225720004467
 30
0.0
 42
-0.1291672456714229
  0
VERTEX
  5
4620
330
3A9B
100
AcDbEntity
  8
0
100
AcDbVertex
100
AcDb2dVertex
 10
2177.932202857719
 20
2142.476847356148
 30
0.0
 42
-0.1291672456714209
  0
SEQEND
  5
4621
330
3A9B
100
AcDbEntity
  8
0
  0
POLYLINE
  5
3A9C
330
18
100
AcDbEntity
  8
0
100
AcDb2dPolyline
 66
     1
 10
0.0
 20
0.0
 30
0.0
  0
VERTEX
  5
4622
330
3A9C
100
AcDbEntity
  8
0
100
AcDbVertex
100
AcDb2dVertex
 10
2227.322202857718
 20
2189.466847356147
 30
0.0
 42
-0.070022296758922
  0
VERTEX
  5
4623
330
3A9C
100
AcDbEntity
  8
0
100
AcDbVertex
100
AcDb2dVertex
 10
2207.72663089608
 20
2192.224622976701
 30
0.0
 42
-0.0818203175941617
  0
VERTEX
  5
4624
330
3A9C
100
AcDbEntity
  8
0
100
AcDbVertex
100
AcDb2dVertex
 10
2192.398198934915
 20
2199.49551116832
 30
0.0
 42
-0.1069143253087146
  0
VERTEX
  5
4625
330
3A9C
100
AcDbEntity
  8
0
100
AcDbVertex
100
AcDb2dVertex
 10
2181.352287682628
 20
2211.314739609946
 30
0.0
 42
-0.1354622733701762
  0
VERTEX
  5
4626
330
3A9C
100
AcDbEntity
  8
0
100
AcDbVertex
100
AcDb2dVertex
 10
2177.932202857719
 20
2223.706847356148
 30
0.0
 42
-0.1354622733701786
  0
SEQEND
  5
4627
330
3A9C
100
AcDbEntity
  8
0
  0
POLYLINE
  5
3A9D
330
18
100
AcDbEntity
  8
0
100
AcDb2dPolyline
 66
     1
 10
0.0
 20
0.0
 30
0.0
  0
VERTEX
  5
4628
330
3A9D
100
AcDbEntity
  8
0
100
AcDbVertex
100
AcDb2dVertex
 10
2177.932202857719
 20
2490.256847356147
 30
0.0
 42
-0.1427397834356985
  0
VERTEX
  5
4629
330
3A9D
100
AcDbEntity
  8
0
100
AcDbVertex
100
AcDb2dVertex
 10
2181.280063835541
 20
2501.745058341738
 30
0.0
 42
-0.107172048130841
  0
VERTEX
  5
462A
330
3A9D
100
AcDbEntity
  8
0
100
AcDbVertex
100
AcDb2dVertex
 10
2192.398198934915
 20
2512.969117167859
 30
0.0
 42
-0.0785305341780621
  0
VERTEX
  5
462B
330
3A9D
100
AcDbEntity
  8
0
100
AcDbVertex
100
AcDb2dVertex
 10
2207.636747299101
 20
2519.771870370776
 30
0.0
 42
-0.0658778674229943
  0
VERTEX
  5
462C
330
3A9D
100
AcDbEntity
  8
0
100
AcDbVertex
100
AcDb2dVertex
 10
2227.322202857718
 20
2522.376847356148
 30
0.0
 42
-0.0658778674229922
  0
SEQEND
  5
462D
330
3A9D
100
AcDbEntity
  8
0
  0
POLYLINE
  5
3A9E
330
18
100
AcDbEntity
  8
0
100
AcDb2dPolyline
 66
     1
 10
0.0
 20
0.0
 30
0.0
  0
VERTEX
  5
462E
330
3A9E
100
AcDbEntity
  8
0
100
AcDbVertex
100
AcDb2dVertex
 10
2227.322202857718
 20
2476.566847356148
 30
0.0
 42
-0.0285857464481538
  0
VERTEX
  5
462F
330
3A9E
100
AcDbEntity
  8
0
100
AcDbVertex
100
AcDb2dVertex
 10
2207.022193927863
 20
2477.728378311572
 30
0.0
 42
-0.0390401790878681
  0
VERTEX
  5
4630
330
3A9E
100
AcDbEntity
  8
0
100
AcDbVertex
100
AcDb2dVertex
 10
2192.398198934915
 20
2480.576555521704
 30
0.0
 42
-0.0800061155234741
  0
VERTEX
  5
4631
330
3A9E
100
AcDbEntity
  8
0
100
AcDbVertex
100
AcDb2dVertex
 10
2180.08590913612
 20
2486.22420557977
 30
0.0
 42
-0.2503039277320076
  0
VERTEX
  5
4632
330
3A9E
100
AcDbEntity
  8
0
100
AcDbVertex
100
AcDb2dVertex
 10
2177.932202857719
 20
2490.256847356147
 30
0.0
 42
-0.2503039277320068
  0
SEQEND
  5
4633
330
3A9E
100
AcDbEntity
  8
0
  0
POLYLINE
  5
3A9F
330
18
100
AcDbEntity
  8
0
100
AcDb2dPolyline
 66
     1
 10
0.0
 20
0.0
 30
0.0
  0
VERTEX
  5
4634
330
3A9F
100
AcDbEntity
  8
0
100
AcDbVertex
100
AcDb2dVertex
 10
2227.322202857718
 20
2364.706847356148
 30
0.0
 42
-0.0810936847216324
  0
VERTEX
  5
4635
330
3A9F
100
AcDbEntity
  8
0
100
AcDbVertex
100
AcDb2dVertex
 10
2207.982404884142
 20
2367.864282192874
 30
0.0
 42
-0.0895054263486445
  0
VERTEX
  5
4636
330
3A9F
100
AcDbEntity
  8
0
100
AcDbVertex
100
AcDb2dVertex
 10
2192.398198934915
 20
2376.422576108686
 30
0.0
 42
-0.104703589997003
  0
VERTEX
  5
4637
330
3A9F
100
AcDbEntity
  8
0
100
AcDbVertex
100
AcDb2dVertex
 10
2181.512055287899
 20
2389.845678823002
 30
0.0
 42
-0.118744877453476
  0
VERTEX
  5
4638
330
3A9F
100
AcDbEntity
  8
0
100
AcDbVertex
100
AcDb2dVertex
 10
2177.932202857719
 20
2404.706847356148
 30
0.0
 42
-0.1187448774534761
  0
SEQEND
  5
4639
330
3A9F
100
AcDbEntity
  8
0
  0
POLYLINE
  5
3AA0
330
18
100
AcDbEntity
  8
0
100
AcDb2dPolyline
 66
     1
 10
0.0
 20
0.0
 30
0.0
  0
VERTEX
  5
463A
330
3AA0
100
AcDbEntity
  8
0
100
AcDbVertex
100
AcDb2dVertex
 10
2177.932202857719
 20
2404.706847356148
 30
0.0
 42
-0.1228007391858371
  0
VERTEX
  5
463B
330
3AA0
100
AcDbEntity
  8
0
100
AcDbVertex
100
AcDb2dVertex
 10
2181.474145230591
 20
2418.910873442262
 30
0.0
 42
-0.1054625936846602
  0
VERTEX
  5
463C
330
3AA0
100
AcDbEntity
  8
0
100
AcDbVertex
100
AcDb2dVertex
 10
2192.398198934915
 20
2431.909245228394
 30
0.0
 42
-0.0876370767901639
  0
VERTEX
  5
463D
330
3AA0
100
AcDbEntity
  8
0
100
AcDbVertex
100
AcDb2dVertex
 10
2207.913073147777
 20
2440.12333825622
 30
0.0
 42
-0.0781808700096935
  0
VERTEX
  5
463E
330
3AA0
100
AcDbEntity
  8
0
100
AcDbVertex
100
AcDb2dVertex
 10
2227.322202857718
 20
2443.176847356148
 30
0.0
 42
-0.0781808700096899
  0
SEQEND
  5
463F
330
3AA0
100
AcDbEntity
  8
0
  0
POLYLINE
  5
3AA1
330
18
100
AcDbEntity
  8
0
100
AcDb2dPolyline
 66
     1
 10
0.0
 20
0.0
 30
0.0
  0
VERTEX
  5
4640
330
3AA1
100
AcDbEntity
  8
0
100
AcDbVertex
100
AcDb2dVertex
 10
2178.192202857717
 20
2311.306847356147
 30
0.0
 42
-0.1111876059378975
  0
VERTEX
  5
4641
330
3AA1
100
AcDbEntity
  8
0
100
AcDbVertex
100
AcDb2dVertex
 10
2181.821872973527
 20
2327.427338583302
 30
0.0
 42
-0.1028754415618672
  0
VERTEX
  5
4642
330
3AA1
100
AcDbEntity
  8
0
100
AcDbVertex
100
AcDb2dVertex
 10
2192.582046698024
 20
2341.64172826905
 30
0.0
 42
-0.0929554327226999
  0
VERTEX
  5
4643
330
3AA1
100
AcDbEntity
  8
0
100
AcDbVertex
100
AcDb2dVertex
 10
2208.227543019245
 20
2350.859787862694
 30
0.0
 42
-0.0869807794646978
  0
VERTEX
  5
4644
330
3AA1
100
AcDbEntity
  8
0
100
AcDbVertex
100
AcDb2dVertex
 10
2227.322202857718
 20
2354.206847356148
 30
0.0
 42
-0.0869807794646999
  0
SEQEND
  5
4645
330
3AA1
100
AcDbEntity
  8
0
  0
POLYLINE
  5
3AA2
330
18
100
AcDbEntity
  8
0
100
AcDb2dPolyline
 66
     1
 10
0.0
 20
0.0
 30
0.0
  0
VERTEX
  5
4646
330
3AA2
100
AcDbEntity
  8
0
100
AcDbVertex
100
AcDb2dVertex
 10
2227.322202857718
 20
2274.206847356148
 30
0.0
 42
-0.0759324646691649
  0
VERTEX
  5
4647
330
3AA2
100
AcDbEntity
  8
0
100
AcDbVertex
100
AcDb2dVertex
 10
2207.962963407763
 20
2277.163886403181
 30
0.0
 42
-0.0861204956053751
  0
VERTEX
  5
4648
330
3AA2
100
AcDbEntity
  8
0
100
AcDbVertex
100
AcDb2dVertex
 10
2192.582046698024
 20
2285.073185774126
 30
0.0
 42
-0.1059698406576102
  0
VERTEX
  5
4649
330
3AA2
100
AcDbEntity
  8
0
100
AcDbVertex
100
AcDb2dVertex
 10
2181.68450648481
 20
2297.678520187667
 30
0.0
 42
-0.126089610326612
  0
VERTEX
  5
464A
330
3AA2
100
AcDbEntity
  8
0
100
AcDbVertex
100
AcDb2dVertex
 10
2178.192202857717
 20
2311.306847356147
 30
0.0
 42
-0.1260896103266131
  0
SEQEND
  5
464B
330
3AA2
100
AcDbEntity
  8
0
  0
ARC
  5
3AA3
330
18
100
AcDbEntity
  8
0
100
AcDbCircle
 10
2441.822202857718
 20
2314.302847356148
 30
0.0
 40
212.0
100
AcDbArc
 50
0.000000000000007
 51
139.4143226330004
  0
ARC
  5
3AA4
330
18
100
AcDbEntity
  8
0
100
AcDbCircle
 10
2591.460325826608
 20
2208.768925074279
 30
0.0
 40
299.9046610765653
100
AcDbArc
 50
177.6766330500019
 51
222.0526432061084
  0
LINE
  5
3AA5
330
18
100
AcDbEntity
  8
0
100
AcDbLine
 10
2548.822202857718
 20
1976.302847356148
 30
0.0
 11
2302.850800386835
 21
1976.302847356148
 31
0.0
  0
LINE
  5
3AA6
330
18
100
AcDbEntity
  8
0
100
AcDbLine
 10
2254.822202857719
 20
2526.302847356148
 30
0.0
 11
2344.322202857718
 21
2526.302847356148
 31
0.0
  0
ARC
  5
3AA7
330
18
100
AcDbEntity
  8
0
100
AcDbCircle
 10
2441.822202857718
 20
2188.302847356148
 30
0.0
 40
212.0
100
AcDbArc
 50
306.802361704851
 51
0.000000000000007
  0
LINE
  5
3AA8
330
18
100
AcDbEntity
  8
0
100
AcDbLine
 10
2548.822202857718
 20
2126.302847356148
 30
0.0
 11
2548.822202857718
 21
1966.302847356148
 31
0.0
  0
LINE
  5
3AA9
330
18
100
AcDbEntity
  8
0
100
AcDbLine
 10
2568.822202857719
 20
2126.302847356148
 30
0.0
 11
2568.822202857719
 21
1966.302847356148
 31
0.0
  0
ARC
  5
3AAA
330
18
100
AcDbEntity
  8
0
100
AcDbCircle
 10
2441.822202857718
 20
2188.302847356148
 30
0.0
 40
212.0
100
AcDbArc
 50
270.0
 51
300.3125667435866
  0
LINE
  5
3AAB
330
18
100
AcDbEntity
  8
0
100
AcDbLine
 10
2548.822202857718
 20
1966.302847356148
 30
0.0
 11
2568.822202857719
 21
1966.302847356148
 31
0.0
  0
LINE
  5
3AAC
330
18
100
AcDbEntity
  8
0
100
AcDbLine
 10
2616.822202857718
 20
2011.402847356147
 30
0.0
 11
2616.822202857718
 21
2031.201847356148
 31
0.0
  0
LINE
  5
3AAD
330
18
100
AcDbEntity
  8
0
100
AcDbLine
 10
2606.822202857718
 20
2031.436847356148
 30
0.0
 11
2606.822202857718
 21
2011.168847356148
 31
0.0
  0
LINE
  5
3AAE
330
18
100
AcDbEntity
  8
0
100
AcDbLine
 10
2606.822202857718
 20
2031.201847356148
 30
0.0
 11
2606.822202857718
 21
2011.402847356147
 31
0.0
  0
LINE
  5
3AAF
330
18
100
AcDbEntity
  8
0
100
AcDbLine
 10
2601.822202857718
 20
1981.302847356148
 30
0.0
 11
2601.822202857718
 21
2049.220138150438
 31
0.0
  0
LINE
  5
3AB0
330
18
100
AcDbEntity
  8
0
100
AcDbLine
 10
2606.322202857719
 20
1988.683847356148
 30
0.0
 11
2601.822202857718
 21
1988.824847356148
 31
0.0
  0
LINE
  5
3AB1
330
18
100
AcDbEntity
  8
0
100
AcDbLine
 10
2601.822202857718
 20
2009.779847356147
 30
0.0
 11
2606.322202857719
 21
2009.920847356148
 31
0.0
  0
LINE
  5
3AB2
330
18
100
AcDbEntity
  8
0
100
AcDbLine
 10
2606.322202857719
 20
2010.684847356148
 30
0.0
 11
2601.822202857718
 21
2010.824847356148
 31
0.0
  0
LINE
  5
3AB3
330
18
100
AcDbEntity
  8
0
100
AcDbLine
 10
2606.822202857718
 20
2009.435847356147
 30
0.0
 11
2606.822202857718
 21
1989.168847356148
 31
0.0
  0
LINE
  5
3AB4
330
18
100
AcDbEntity
  8
0
100
AcDbLine
 10
2616.822202857718
 20
1989.402847356148
 30
0.0
 11
2616.822202857718
 21
2009.201847356147
 31
0.0
  0
LINE
  5
3AB5
330
18
100
AcDbEntity
  8
0
100
AcDbLine
 10
2606.822202857718
 20
2009.201847356147
 30
0.0
 11
2606.822202857718
 21
1989.402847356148
 31
0.0
  0
LINE
  5
3AB6
330
18
100
AcDbEntity
  8
0
100
AcDbLine
 10
2606.822202857718
 20
1989.402847356148
 30
0.0
 11
2616.822202857718
 21
1989.402847356148
 31
0.0
  0
LINE
  5
3AB7
330
18
100
AcDbEntity
  8
0
100
AcDbLine
 10
2606.822202857718
 20
1989.168847356148
 30
0.0
 11
2606.322202857719
 21
1988.683847356148
 31
0.0
  0
LINE
  5
3AB8
330
18
100
AcDbEntity
  8
0
100
AcDbLine
 10
2616.822202857718
 20
1999.302847356148
 30
0.0
 11
2606.822202857718
 21
1999.302847356148
 31
0.0
  0
LINE
  5
3AB9
330
18
100
AcDbEntity
  8
0
100
AcDbLine
 10
2616.822202857718
 20
2009.201847356147
 30
0.0
 11
2606.822202857718
 21
2009.201847356147
 31
0.0
  0
LINE
  5
3ABA
330
18
100
AcDbEntity
  8
0
100
AcDbLine
 10
2606.822202857718
 20
2011.402847356147
 30
0.0
 11
2616.822202857718
 21
2011.402847356147
 31
0.0
  0
LINE
  5
3ABB
330
18
100
AcDbEntity
  8
0
100
AcDbLine
 10
2606.322202857719
 20
2009.920847356148
 30
0.0
 11
2606.822202857718
 21
2009.435847356147
 31
0.0
  0
LINE
  5
3ABC
330
18
100
AcDbEntity
  8
0
100
AcDbLine
 10
2606.822202857718
 20
2011.168847356148
 30
0.0
 11
2606.322202857719
 21
2010.684847356148
 31
0.0
  0
ARC
  5
3ABD
330
18
100
AcDbEntity
  8
0
100
AcDbCircle
 10
2596.822202857718
 20
1981.302847356148
 30
0.0
 40
5.0
100
AcDbArc
 50
270.0
 51
0.000000000000007
  0
LINE
  5
3ABE
330
18
100
AcDbEntity
  8
0
100
AcDbLine
 10
2596.822202857718
 20
1976.302847356148
 30
0.0
 11
2568.822202857719
 21
1976.302847356148
 31
0.0
  0
LINE
  5
3ABF
330
18
100
AcDbEntity
  8
0
100
AcDbLine
 10
2601.822202857718
 20
2031.779847356147
 30
0.0
 11
2606.322202857719
 21
2031.920847356148
 31
0.0
  0
LINE
  5
3AC0
330
18
100
AcDbEntity
  8
0
100
AcDbLine
 10
2616.822202857718
 20
2021.302847356147
 30
0.0
 11
2606.822202857718
 21
2021.302847356147
 31
0.0
  0
LINE
  5
3AC1
330
18
100
AcDbEntity
  8
0
100
AcDbLine
 10
2616.822202857718
 20
2031.201847356148
 30
0.0
 11
2606.822202857718
 21
2031.201847356148
 31
0.0
  0
LINE
  5
3AC2
330
18
100
AcDbEntity
  8
0
100
AcDbLine
 10
2606.322202857719
 20
2031.920847356148
 30
0.0
 11
2606.822202857718
 21
2031.436847356148
 31
0.0
  0
CIRCLE
  5
3AC3
330
18
100
AcDbEntity
  8
0
100
AcDbCircle
 10
2391.822202857718
 20
2543.802847356148
 30
0.0
 40
17.5
  0
ARC
  5
3AC4
330
18
100
AcDbEntity
  8
0
100
AcDbCircle
 10
2439.322202857718
 20
2541.302847356148
 30
0.0
 40
15.0
100
AcDbArc
 50
180.0
 51
270.0
  0
ARC
  5
3AC5
330
18
100
AcDbEntity
  8
0
100
AcDbCircle
 10
2344.322202857718
 20
2541.302847356148
 30
0.0
 40
15.0
100
AcDbArc
 50
270.0
 51
0.000000000000007
  0
LINE
  5
3AC6
330
18
100
AcDbEntity
  8
0
100
AcDbLine
 10
2653.822202857718
 20
2188.302847356148
 30
0.0
 11
2653.822202857718
 21
2314.302847356148
 31
0.0
  0
LINE
  5
3AC7
330
18
100
AcDbEntity
  8
0
100
AcDbLine
 10
2533.816767914574
 20
2505.302847356148
 30
0.0
 11
2596.822202857718
 21
2505.302847356148
 31
0.0
  0
LINE
  5
3AC8
330
18
100
AcDbEntity
  8
0
100
AcDbLine
 10
2616.822202857718
 20
2468.402847356148
 30
0.0
 11
2616.822202857718
 21
2488.202847356149
 31
0.0
  0
LINE
  5
3AC9
330
18
100
AcDbEntity
  8
0
100
AcDbLine
 10
2606.822202857718
 20
2488.432847356148
 30
0.0
 11
2606.822202857718
 21
2468.162847356148
 31
0.0
  0
LINE
  5
3ACA
330
18
100
AcDbEntity
  8
0
100
AcDbLine
 10
2606.822202857718
 20
2488.202847356149
 30
0.0
 11
2606.822202857718
 21
2468.402847356148
 31
0.0
  0
LINE
  5
3ACB
330
18
100
AcDbEntity
  8
0
100
AcDbLine
 10
2601.822202857718
 20
2457.075393736745
 30
0.0
 11
2601.822202857718
 21
2500.302847356148
 31
0.0
  0
LINE
  5
3ACC
330
18
100
AcDbEntity
  8
0
100
AcDbLine
 10
2606.322202857719
 20
2467.682847356148
 30
0.0
 11
2601.822202857718
 21
2467.822847356148
 31
0.0
  0
ARC
  5
3ACD
330
18
100
AcDbEntity
  8
0
100
AcDbCircle
 10
2611.822202857718
 20
2457.075393736745
 30
0.0
 40
10.0
100
AcDbArc
 50
180.0
 51
220.0248338855152
  0
LINE
  5
3ACE
330
18
100
AcDbEntity
  8
0
100
AcDbLine
 10
2606.822202857718
 20
2468.402847356148
 30
0.0
 11
2616.822202857718
 21
2468.402847356148
 31
0.0
  0
LINE
  5
3ACF
330
18
100
AcDbEntity
  8
0
100
AcDbLine
 10
2606.822202857718
 20
2468.162847356148
 30
0.0
 11
2606.322202857719
 21
2467.682847356148
 31
0.0
  0
LINE
  5
3AD0
330
18
100
AcDbEntity
  8
0
100
AcDbLine
 10
2616.822202857718
 20
2478.302847356148
 30
0.0
 11
2606.822202857718
 21
2478.302847356148
 31
0.0
  0
LINE
  5
3AD1
330
18
100
AcDbEntity
  8
0
100
AcDbLine
 10
2601.822202857718
 20
2488.772847356148
 30
0.0
 11
2606.322202857719
 21
2488.912847356148
 31
0.0
  0
LINE
  5
3AD2
330
18
100
AcDbEntity
  8
0
100
AcDbLine
 10
2616.822202857718
 20
2488.202847356149
 30
0.0
 11
2606.822202857718
 21
2488.202847356149
 31
0.0
  0
LINE
  5
3AD3
330
18
100
AcDbEntity
  8
0
100
AcDbLine
 10
2606.322202857719
 20
2488.912847356148
 30
0.0
 11
2606.822202857718
 21
2488.432847356148
 31
0.0
  0
ARC
  5
3AD4
330
18
100
AcDbEntity
  8
0
100
AcDbCircle
 10
2596.822202857718
 20
2500.302847356148
 30
0.0
 40
5.0
100
AcDbArc
 50
0.000000000000007
 51
90.0
  0
ARC
  5
3AD5
330
18
100
AcDbEntity
  8
0
100
AcDbCircle
 10
2391.822202857718
 20
2543.802847356148
 30
0.0
 40
32.5
100
AcDbArc
 50
0.000000000000007
 51
180.0
  0
LINE
  5
3AD6
330
18
100
AcDbEntity
  8
0
100
AcDbLine
 10
2424.322202857718
 20
2543.802847356148
 30
0.0
 11
2424.322202857718
 21
2541.302847356148
 31
0.0
  0
LINE
  5
3AD7
330
18
100
AcDbEntity
  8
0
100
AcDbLine
 10
2359.322202857718
 20
2543.802847356148
 30
0.0
 11
2359.322202857718
 21
2541.302847356148
 31
0.0
  0
LINE
  5
3AD8
330
18
100
AcDbEntity
  8
0
100
AcDbLine
 10
1983.522202857719
 20
2109.556847356148
 30
0.0
 11
1983.522202857719
 21
2049.056847356148
 31
0.0
  0
LINE
  5
3AD9
330
18
100
AcDbEntity
  8
0
100
AcDbLine
 10
2087.322202857719
 20
2079.306847356148
 30
0.0
 11
2087.322202857719
 21
2038.306847356147
 31
0.0
  0
LINE
  5
3ADA
330
18
100
AcDbEntity
  8
0
100
AcDbLine
 10
2087.322202857719
 20
2116.056847356147
 30
0.0
 11
2087.322202857719
 21
2042.556847356148
 31
0.0
  0
ARC
  5
3ADB
330
18
100
AcDbEntity
  8
0
100
AcDbCircle
 10
2198.915236343301
 20
2115.075684315481
 30
0.0
 40
82.75852975439168
100
AcDbArc
 50
184.5770062743343
 51
236.2798393884074
  0
ARC
  5
3ADC
330
18
100
AcDbEntity
  8
0
100
AcDbCircle
 10
2306.322202857719
 20
2116.306847356148
 30
0.0
 40
162.0
100
AcDbArc
 50
164.9319780115837
 51
195.0680219884162
  0
LINE
  5
3ADD
330
18
100
AcDbEntity
  8
0
100
AcDbLine
 10
1958.322202857719
 20
2156.806847356147
 30
0.0
 11
1958.322202857719
 21
2001.806847356148
 31
0.0
  0
LINE
  5
3ADE
330
18
100
AcDbEntity
  8
0
100
AcDbLine
 10
1974.322202857719
 20
2156.806847356147
 30
0.0
 11
1974.322202857719
 21
2001.806847356148
 31
0.0
  0
ARC
  5
3ADF
330
18
100
AcDbEntity
  8
0
100
AcDbCircle
 10
2285.822202857719
 20
2077.002847356148
 30
0.0
 40
5.0
100
AcDbArc
 50
180.0
 51
270.0
  0
LINE
  5
3AE0
330
18
100
AcDbEntity
  8
0
100
AcDbLine
 10
2259.822202857719
 20
1966.302847356148
 30
0.0
 11
2259.822202857719
 21
2126.302847356148
 31
0.0
  0
LINE
  5
3AE1
330
18
100
AcDbEntity
  8
0
100
AcDbLine
 10
2280.822202857719
 20
1966.302847356148
 30
0.0
 11
2280.822202857719
 21
2126.302847356148
 31
0.0
  0
ARC
  5
3AE2
330
18
100
AcDbEntity
  8
0
100
AcDbCircle
 10
2248.222202857719
 20
2101.306847356148
 30
0.0
 40
102.0
100
AcDbArc
 50
193.5363746751022
 51
258.176240012016
  0
LINE
  5
3AE3
330
18
100
AcDbEntity
  8
0
100
AcDbLine
 10
2253.322202857719
 20
2529.306847356147
 30
0.0
 11
2253.322202857719
 21
1966.306847356148
 31
0.0
  0
LINE
  5
3AE4
330
18
100
AcDbEntity
  8
0
100
AcDbLine
 10
2254.822202857719
 20
1966.302847356148
 30
0.0
 11
2254.822202857719
 21
2526.302847356148
 31
0.0
  0
LINE
  5
3AE5
330
18
100
AcDbEntity
  8
0
100
AcDbLine
 10
2227.322202857719
 20
2526.306847356147
 30
0.0
 11
2227.322202857719
 21
1966.306847356148
 31
0.0
  0
LINE
  5
3AE6
330
18
100
AcDbEntity
  8
0
100
AcDbLine
 10
2087.322202857719
 20
2049.056847356147
 30
0.0
 11
1983.522202857719
 21
2049.056847356148
 31
0.0
  0
LINE
  5
3AE7
330
18
100
AcDbEntity
  8
0
100
AcDbLine
 10
2087.322202857719
 20
2038.306847356147
 30
0.0
 11
2168.003751114993
 21
2038.306847356147
 31
0.0
  0
LINE
  5
3AE8
330
18
100
AcDbEntity
  8
0
100
AcDbLine
 10
2253.322202857719
 20
1966.306847356148
 30
0.0
 11
2227.322202857719
 21
1966.306847356148
 31
0.0
  0
LINE
  5
3AE9
330
18
100
AcDbEntity
  8
0
100
AcDbLine
 10
2280.822202857719
 20
1966.302847356148
 30
0.0
 11
2254.822202857719
 21
1966.302847356148
 31
0.0
  0
ARC
  5
3AEA
330
18
100
AcDbEntity
  8
0
100
AcDbCircle
 10
2285.822202857719
 20
2017.502847356147
 30
0.0
 40
5.0
100
AcDbArc
 50
180.0
 51
270.0
  0
LINE
  5
3AEB
330
18
100
AcDbEntity
  8
0
100
AcDbLine
 10
2291.122202857719
 20
2012.502847356147
 30
0.0
 11
2285.822202857719
 21
2012.502847356147
 31
0.0
  0
LINE
  5
3AEC
330
18
100
AcDbEntity
  8
0
100
AcDbLine
 10
2291.122202857719
 20
1972.502847356148
 30
0.0
 11
2285.822202857719
 21
1972.502847356148
 31
0.0
  0
ARC
  5
3AED
330
18
100
AcDbEntity
  8
0
100
AcDbCircle
 10
2285.822202857719
 20
1967.502847356147
 30
0.0
 40
5.0
100
AcDbArc
 50
90.0
 51
180.0
  0
ARC
  5
3AEE
330
18
100
AcDbEntity
  8
0
100
AcDbCircle
 10
2291.122202857719
 20
1992.502847356147
 30
0.0
 40
20.0
100
AcDbArc
 50
270.0
 51
90.0
  0
LINE
  5
3AEF
330
18
100
AcDbEntity
  8
0
100
AcDbLine
 10
2291.122202857719
 20
2072.002847356148
 30
0.0
 11
2285.822202857719
 21
2072.002847356148
 31
0.0
  0
LINE
  5
3AF0
330
18
100
AcDbEntity
  8
0
100
AcDbLine
 10
2291.122202857719
 20
2032.002847356148
 30
0.0
 11
2285.822202857719
 21
2032.002847356148
 31
0.0
  0
ARC
  5
3AF1
330
18
100
AcDbEntity
  8
0
100
AcDbCircle
 10
2285.822202857719
 20
2027.002847356148
 30
0.0
 40
5.0
100
AcDbArc
 50
90.0
 51
180.0
  0
ARC
  5
3AF2
330
18
100
AcDbEntity
  8
0
100
AcDbCircle
 10
2291.122202857719
 20
2052.002847356148
 30
0.0
 40
20.0
100
AcDbArc
 50
270.0
 51
90.0
  0
LINE
  5
3AF3
330
18
100
AcDbEntity
  8
0
100
AcDbLine
 10
2215.322202857718
 20
1979.784847356148
 30
0.0
 11
2215.322202857718
 21
2004.758465702181
 31
0.0
  0
ARC
  5
3AF4
330
18
100
AcDbEntity
  8
0
100
AcDbCircle
 10
2246.49591740894
 20
1994.342847356147
 30
0.0
 40
30.81530258422212
100
AcDbArc
 50
163.6802968976994
 51
196.3197031023005
  0
LINE
  5
3AF5
330
18
100
AcDbEntity
  8
0
100
AcDbLine
 10
2216.922202857718
 20
2003.001847356148
 30
0.0
 11
2221.016928093438
 21
2003.001847356148
 31
0.0
  0
ARC
  5
3AF6
330
18
100
AcDbEntity
  8
0
100
AcDbCircle
 10
2223.853490724041
 20
2007.332847356147
 30
0.0
 40
8.173145813322054
100
AcDbArc
 50
200.5519560040985
 51
211.9991120689732
  0
LINE
  5
3AF7
330
18
100
AcDbEntity
  8
0
100
AcDbLine
 10
2216.922202857718
 20
1985.683847356147
 30
0.0
 11
2227.322202857719
 21
1985.683847356147
 31
0.0
  0
LINE
  5
3AF8
330
18
100
AcDbEntity
  8
0
100
AcDbLine
 10
2227.322202857719
 20
1977.022847356147
 30
0.0
 11
2216.922202857718
 21
1977.022847356147
 31
0.0
  0
ARC
  5
3AF9
330
18
100
AcDbEntity
  8
0
100
AcDbCircle
 10
2223.853234195658
 20
1981.352847356148
 30
0.0
 40
8.172928263939018
100
AcDbArc
 50
147.9999349608691
 51
212.0000650391308
  0
LINE
  5
3AFA
330
18
100
AcDbEntity
  8
0
100
AcDbLine
 10
2216.922202857718
 20
1977.022847356147
 30
0.0
 11
2215.322202857718
 21
1979.784847356148
 31
0.0
  0
ARC
  5
3AFB
330
18
100
AcDbEntity
  8
0
100
AcDbCircle
 10
2223.853234195658
 20
2040.026847356147
 30
0.0
 40
8.172928263939018
100
AcDbArc
 50
147.9999349608691
 51
212.0000650391308
  0
LINE
  5
3AFC
330
18
100
AcDbEntity
  8
0
100
AcDbLine
 10
2215.322202857718
 20
2038.458847356147
 30
0.0
 11
2215.322202857718
 21
2067.575847356147
 31
0.0
  0
LINE
  5
3AFD
330
18
100
AcDbEntity
  8
0
100
AcDbLine
 10
2216.922202857718
 20
2035.696847356147
 30
0.0
 11
2215.322202857718
 21
2038.458847356147
 31
0.0
  0
LINE
  5
3AFE
330
18
100
AcDbEntity
  8
0
100
AcDbLine
 10
2215.322202857718
 20
2067.575847356147
 30
0.0
 11
2216.922202857718
 21
2070.337847356147
 31
0.0
  0
ARC
  5
3AFF
330
18
100
AcDbEntity
  8
0
100
AcDbCircle
 10
2223.853490724041
 20
2066.006847356147
 30
0.0
 40
8.173145813322054
100
AcDbArc
 50
148.0008879310267
 51
211.9991120689732
  0
ARC
  5
3B00
330
18
100
AcDbEntity
  8
0
100
AcDbCircle
 10
2246.49591740894
 20
2053.016847356148
 30
0.0
 40
30.81530258422212
100
AcDbArc
 50
163.6802968976994
 51
196.3197031023005
  0
LINE
  5
3B01
330
18
100
AcDbEntity
  8
0
100
AcDbLine
 10
2227.322202857719
 20
2035.696847356147
 30
0.0
 11
2216.922202857718
 21
2035.696847356147
 31
0.0
  0
LINE
  5
3B02
330
18
100
AcDbEntity
  8
0
100
AcDbLine
 10
2216.922202857718
 20
2070.337847356147
 30
0.0
 11
2227.322202857719
 21
2070.337847356147
 31
0.0
  0
LINE
  5
3B03
330
18
100
AcDbEntity
  8
0
100
AcDbLine
 10
2216.922202857718
 20
2061.675847356148
 30
0.0
 11
2227.322202857719
 21
2061.675847356148
 31
0.0
  0
LINE
  5
3B04
330
18
100
AcDbEntity
  8
0
100
AcDbLine
 10
2216.922202857718
 20
2044.357847356148
 30
0.0
 11
2227.322202857719
 21
2044.357847356148
 31
0.0
  0
LINE
  5
3B05
330
18
100
AcDbEntity
  8
0
100
AcDbLine
 10
1974.322202857719
 20
2001.806847356148
 30
0.0
 11
1958.322202857719
 21
2001.806847356148
 31
0.0
  0
LINE
  5
3B06
330
18
100
AcDbEntity
  8
0
100
AcDbLine
 10
1983.522202857719
 20
2049.056847356148
 30
0.0
 11
1974.322202857719
 21
2039.856847356148
 31
0.0
  0
LINE
  5
3B07
330
18
100
AcDbEntity
  8
0
100
AcDbLine
 10
2033.322202857719
 20
2435.806847356148
 30
0.0
 11
2033.322202857719
 21
2560.806847356148
 31
0.0
  0
LINE
  5
3B08
330
18
100
AcDbEntity
  8
0
100
AcDbLine
 10
2047.322202857719
 20
2435.806847356148
 30
0.0
 11
2047.322202857719
 21
2560.806847356148
 31
0.0
  0
LINE
  5
3B09
330
18
100
AcDbEntity
  8
0
100
AcDbLine
 10
2191.322202857719
 20
2529.306847356147
 30
0.0
 11
2191.322202857719
 21
2671.806847356148
 31
0.0
  0
LINE
  5
3B0A
330
18
100
AcDbEntity
  8
0
100
AcDbLine
 10
2225.322202857719
 20
2529.306847356147
 30
0.0
 11
2225.322202857719
 21
2671.806847356148
 31
0.0
  0
LINE
  5
3B0B
330
18
100
AcDbEntity
  8
0
100
AcDbLine
 10
2058.922202857719
 20
2371.556847356147
 30
0.0
 11
1983.522202857719
 21
2371.556847356147
 31
0.0
  0
LINE
  5
3B0C
330
18
100
AcDbEntity
  8
0
100
AcDbLine
 10
2058.922202857719
 20
2311.056847356147
 30
0.0
 11
1983.522202857719
 21
2311.056847356148
 31
0.0
  0
LINE
  5
3B0D
330
18
100
AcDbEntity
  8
0
100
AcDbLine
 10
2087.322202857719
 20
2109.556847356148
 30
0.0
 11
1983.522202857719
 21
2109.556847356148
 31
0.0
  0
LINE
  5
3B0E
330
18
100
AcDbEntity
  8
0
100
AcDbLine
 10
2087.322202857719
 20
2385.856847356148
 30
0.0
 11
2087.322202857719
 21
2296.756847356147
 31
0.0
  0
LINE
  5
3B0F
330
18
100
AcDbEntity
  8
0
100
AcDbLine
 10
2058.922202857719
 20
2341.306847356147
 30
0.0
 11
2058.922202857719
 21
2296.756847356147
 31
0.0
  0
LINE
  5
3B10
330
18
100
AcDbEntity
  8
0
100
AcDbLine
 10
2150.822202857719
 20
2420.806847356148
 30
0.0
 11
2150.822202857719
 21
2161.59281770547
 31
0.0
  0
LINE
  5
3B11
330
18
100
AcDbEntity
  8
0
100
AcDbLine
 10
2258.442202857718
 20
2261.236847356147
 30
0.0
 11
2258.442202857718
 21
2406.526847356147
 31
0.0
  0
LINE
  5
3B12
330
18
100
AcDbEntity
  8
0
100
AcDbLine
 10
2087.322202857719
 20
2341.306847356148
 30
0.0
 11
2087.322202857719
 21
2286.806847356147
 31
0.0
  0
ARC
  5
3B13
330
18
100
AcDbEntity
  8
0
100
AcDbCircle
 10
2246.482041107787
 20
2314.201847356147
 30
0.0
 40
30.80086139006892
100
AcDbArc
 50
163.6801846146565
 51
196.3198153853434
  0
LINE
  5
3B14
330
18
100
AcDbEntity
  8
0
100
AcDbLine
 10
2215.322202857718
 20
2299.646847356148
 30
0.0
 11
2215.322202857718
 21
2328.756847356147
 31
0.0
  0
ARC
  5
3B15
330
18
100
AcDbEntity
  8
0
100
AcDbCircle
 10
2246.49591740894
 20
2142.475847356148
 30
0.0
 40
30.81530258422233
100
AcDbArc
 50
163.6802968976994
 51
196.3197031023005
  0
LINE
  5
3B16
330
18
100
AcDbEntity
  8
0
100
AcDbLine
 10
2215.322202857718
 20
2127.916847356148
 30
0.0
 11
2215.322202857718
 21
2157.034847356148
 31
0.0
  0
ARC
  5
3B17
330
18
100
AcDbEntity
  8
0
100
AcDbCircle
 10
2223.85349072404
 20
2129.485847356148
 30
0.0
 40
8.173145813321802
100
AcDbArc
 50
148.0008879310267
 51
211.9991120689732
  0
LINE
  5
3B18
330
18
100
AcDbEntity
  8
0
100
AcDbLine
 10
2216.922202857718
 20
2125.155847356148
 30
0.0
 11
2215.322202857718
 21
2127.916847356148
 31
0.0
  0
LINE
  5
3B19
330
18
100
AcDbEntity
  8
0
100
AcDbLine
 10
2227.322202857719
 20
2125.155847356148
 30
0.0
 11
2216.922202857718
 21
2125.155847356148
 31
0.0
  0
LINE
  5
3B1A
330
18
100
AcDbEntity
  8
0
100
AcDbLine
 10
2216.922202857718
 20
2133.816847356148
 30
0.0
 11
2227.322202857719
 21
2133.816847356148
 31
0.0
  0
LINE
  5
3B1B
330
18
100
AcDbEntity
  8
0
100
AcDbLine
 10
2215.322202857718
 20
2157.034847356148
 30
0.0
 11
2216.922202857718
 21
2159.796847356148
 31
0.0
  0
LINE
  5
3B1C
330
18
100
AcDbEntity
  8
0
100
AcDbLine
 10
2216.922202857718
 20
2159.796847356148
 30
0.0
 11
2227.322202857719
 21
2159.796847356148
 31
0.0
  0
LINE
  5
3B1D
330
18
100
AcDbEntity
  8
0
100
AcDbLine
 10
2216.922202857718
 20
2151.134847356148
 30
0.0
 11
2227.322202857719
 21
2151.134847356148
 31
0.0
  0
ARC
  5
3B1E
330
18
100
AcDbEntity
  8
0
100
AcDbCircle
 10
2223.85349072404
 20
2155.465847356148
 30
0.0
 40
8.173145813321802
100
AcDbArc
 50
148.0008879310267
 51
211.9991120689732
  0
ARC
  5
3B1F
330
18
100
AcDbEntity
  8
0
100
AcDbCircle
 10
2309.764711423553
 20
2269.751509617528
 30
0.0
 40
52.0240267464521
100
AcDbArc
 50
189.4198577580139
 51
249.8015187220272
  0
LINE
  5
3B20
330
18
100
AcDbEntity
  8
0
100
AcDbLine
 10
2215.322202857718
 20
2238.266847356148
 30
0.0
 11
2216.922202857718
 21
2241.026847356147
 31
0.0
  0
ARC
  5
3B21
330
18
100
AcDbEntity
  8
0
100
AcDbCircle
 10
2223.851662361008
 20
2236.696847356147
 30
0.0
 40
8.171065353289751
100
AcDbArc
 50
148.0000408462067
 51
211.9999591537932
  0
ARC
  5
3B22
330
18
100
AcDbEntity
  8
0
100
AcDbCircle
 10
2246.499117848543
 20
2223.706847356148
 30
0.0
 40
30.81865507082559
100
AcDbArc
 50
163.6801846146565
 51
196.3198153853434
  0
LINE
  5
3B23
330
18
100
AcDbEntity
  8
0
100
AcDbLine
 10
2216.922202857718
 20
2241.026847356147
 30
0.0
 11
2227.322202857719
 21
2241.026847356147
 31
0.0
  0
LINE
  5
3B24
330
18
100
AcDbEntity
  8
0
100
AcDbLine
 10
2216.922202857718
 20
2232.366847356148
 30
0.0
 11
2227.322202857719
 21
2232.366847356148
 31
0.0
  0
LINE
  5
3B25
330
18
100
AcDbEntity
  8
0
100
AcDbLine
 10
2216.922202857718
 20
2215.046847356147
 30
0.0
 11
2227.322202857719
 21
2215.046847356147
 31
0.0
  0
LINE
  5
3B26
330
18
100
AcDbEntity
  8
0
100
AcDbLine
 10
2216.922202857718
 20
2206.386847356148
 30
0.0
 11
2215.322202857718
 21
2209.146847356147
 31
0.0
  0
LINE
  5
3B27
330
18
100
AcDbEntity
  8
0
100
AcDbLine
 10
2227.322202857719
 20
2206.386847356148
 30
0.0
 11
2216.922202857718
 21
2206.386847356148
 31
0.0
  0
ARC
  5
3B28
330
18
100
AcDbEntity
  8
0
100
AcDbCircle
 10
2223.851548378759
 20
2210.716847356148
 30
0.0
 40
8.1709686910404
100
AcDbArc
 50
147.9996173051574
 51
212.0003826948426
  0
LINE
  5
3B29
330
18
100
AcDbEntity
  8
0
100
AcDbLine
 10
2215.322202857718
 20
2209.146847356147
 30
0.0
 11
2215.322202857718
 21
2238.266847356148
 31
0.0
  0
ARC
  5
3B2A
330
18
100
AcDbEntity
  8
0
100
AcDbCircle
 10
2223.859606989045
 20
2301.211847356147
 30
0.0
 40
8.180452376326213
100
AcDbArc
 50
147.9998290755729
 51
212.000170924427
  0
LINE
  5
3B2B
330
18
100
AcDbEntity
  8
0
100
AcDbLine
 10
2216.922202857718
 20
2296.886847356148
 30
0.0
 11
2215.322202857718
 21
2299.646847356148
 31
0.0
  0
LINE
  5
3B2C
330
18
100
AcDbEntity
  8
0
100
AcDbLine
 10
2216.922202857718
 20
2305.546847356148
 30
0.0
 11
2227.322202857719
 21
2305.546847356148
 31
0.0
  0
LINE
  5
3B2D
330
18
100
AcDbEntity
  8
0
100
AcDbLine
 10
2227.322202857719
 20
2296.886847356148
 30
0.0
 11
2216.922202857718
 21
2296.886847356148
 31
0.0
  0
LINE
  5
3B2E
330
18
100
AcDbEntity
  8
0
100
AcDbLine
 10
2116.322202857718
 20
2281.806847356147
 30
0.0
 11
2116.322202857718
 21
2120.306847356148
 31
0.0
  0
LINE
  5
3B2F
330
18
100
AcDbEntity
  8
0
100
AcDbLine
 10
2087.322202857719
 20
2120.306847356148
 30
0.0
 11
2116.322202857718
 21
2120.306847356148
 31
0.0
  0
LINE
  5
3B30
330
18
100
AcDbEntity
  8
0
100
AcDbLine
 10
2087.322202857719
 20
2079.306847356148
 30
0.0
 11
2087.322202857719
 21
2120.306847356148
 31
0.0
  0
ARC
  5
3B31
330
18
100
AcDbEntity
  8
0
100
AcDbCircle
 10
2248.222202857719
 20
2131.306847356147
 30
0.0
 40
102.0
100
AcDbArc
 50
162.7272185693414
 51
166.4636253248978
  0
LINE
  5
3B32
330
18
100
AcDbEntity
  8
0
100
AcDbLine
 10
2087.322202857719
 20
2296.756847356147
 30
0.0
 11
2058.922202857719
 21
2296.756847356147
 31
0.0
  0
ARC
  5
3B33
330
18
100
AcDbEntity
  8
0
100
AcDbCircle
 10
2111.322202857718
 20
2281.806847356147
 30
0.0
 40
5.0
100
AcDbArc
 50
0.000000000000007
 51
90.0
  0
LINE
  5
3B34
330
18
100
AcDbEntity
  8
0
100
AcDbLine
 10
2087.322202857719
 20
2286.806847356147
 30
0.0
 11
2111.322202857718
 21
2286.806847356147
 31
0.0
  0
ARC
  5
3B35
330
18
100
AcDbEntity
  8
0
100
AcDbCircle
 10
2212.822202857718
 20
2453.034222351441
 30
0.0
 40
62.0
100
AcDbArc
 50
113.0753612036863
 51
171.8656959822132
  0
LINE
  5
3B36
330
18
100
AcDbEntity
  8
0
100
AcDbLine
 10
2163.322202857719
 20
2530.306847356148
 30
0.0
 11
2148.322202857719
 21
2530.306847356148
 31
0.0
  0
LINE
  5
3B37
330
18
100
AcDbEntity
  8
0
100
AcDbLine
 10
2163.322202857719
 20
2540.306847356148
 30
0.0
 11
2144.822202857719
 21
2540.306847356148
 31
0.0
  0
LINE
  5
3B38
330
18
100
AcDbEntity
  8
0
100
AcDbLine
 10
2151.032202857718
 20
2531.606847356148
 30
0.0
 11
2154.982202857718
 21
2531.606847356148
 31
0.0
  0
LINE
  5
3B39
330
18
100
AcDbEntity
  8
0
100
AcDbLine
 10
2154.982202857718
 20
2539.006847356148
 30
0.0
 11
2151.032202857718
 21
2539.006847356148
 31
0.0
  0
LINE
  5
3B3A
330
18
100
AcDbEntity
  8
0
100
AcDbLine
 10
2116.322202857718
 20
2420.806847356148
 30
0.0
 11
2167.077571932206
 21
2420.806847356148
 31
0.0
  0
LINE
  5
3B3B
330
18
100
AcDbEntity
  8
0
100
AcDbLine
 10
2181.822202857718
 20
2530.306847356148
 30
0.0
 11
2144.822202857719
 21
2530.306847356148
 31
0.0
  0
LINE
  5
3B3C
330
18
100
AcDbEntity
  8
0
100
AcDbLine
 10
2144.822202857719
 20
2529.306847356147
 30
0.0
 11
2181.822202857718
 21
2529.306847356147
 31
0.0
  0
LINE
  5
3B3D
330
18
100
AcDbEntity
  8
0
100
AcDbLine
 10
2118.322202857719
 20
2526.306847356147
 30
0.0
 11
2253.322202857719
 21
2526.306847356147
 31
0.0
  0
LINE
  5
3B3E
330
18
100
AcDbEntity
  8
0
100
AcDbLine
 10
2142.322202857719
 20
2529.306847356147
 30
0.0
 11
2253.322202857719
 21
2529.306847356147
 31
0.0
  0
LINE
  5
3B3F
330
18
100
AcDbEntity
  8
0
100
AcDbLine
 10
2116.322202857718
 20
2461.806847356148
 30
0.0
 11
2184.822202857719
 21
2461.806847356148
 31
0.0
  0
LINE
  5
3B40
330
18
100
AcDbEntity
  8
0
100
AcDbLine
 10
2215.322202857718
 20
2328.756847356147
 30
0.0
 11
2216.922202857718
 21
2331.526847356147
 31
0.0
  0
LINE
  5
3B41
330
18
100
AcDbEntity
  8
0
100
AcDbLine
 10
2216.922202857718
 20
2331.526847356147
 30
0.0
 11
2227.322202857719
 21
2331.526847356147
 31
0.0
  0
LINE
  5
3B42
330
18
100
AcDbEntity
  8
0
100
AcDbLine
 10
2216.922202857718
 20
2322.856847356148
 30
0.0
 11
2227.322202857719
 21
2322.856847356148
 31
0.0
  0
ARC
  5
3B43
330
18
100
AcDbEntity
  8
0
100
AcDbCircle
 10
2223.859806692819
 20
2327.191847356148
 30
0.0
 40
8.180621735101421
100
AcDbArc
 50
148.0005702738148
 51
211.9994297261851
  0
LINE
  5
3B44
330
18
100
AcDbEntity
  8
0
100
AcDbLine
 10
2215.322202857718
 20
2390.146847356148
 30
0.0
 11
2215.322202857718
 21
2419.266847356148
 31
0.0
  0
ARC
  5
3B45
330
18
100
AcDbEntity
  8
0
100
AcDbCircle
 10
2246.482041107787
 20
2404.701847356148
 30
0.0
 40
30.80086139006892
100
AcDbArc
 50
163.6801846146565
 51
196.3198153853434
  0
LINE
  5
3B46
330
18
100
AcDbEntity
  8
0
100
AcDbLine
 10
2216.922202857718
 20
2387.386847356148
 30
0.0
 11
2215.322202857718
 21
2390.146847356148
 31
0.0
  0
ARC
  5
3B47
330
18
100
AcDbEntity
  8
0
100
AcDbCircle
 10
2223.851804842952
 20
2391.716847356148
 30
0.0
 40
8.171186185234011
100
AcDbArc
 50
148.0005702738148
 51
211.9994297261851
  0
ARC
  5
3B48
330
18
100
AcDbEntity
  8
0
100
AcDbCircle
 10
2223.859806692819
 20
2417.691847356148
 30
0.0
 40
8.180621735101421
100
AcDbArc
 50
148.0005702738148
 51
211.9994297261851
  0
LINE
  5
3B49
330
18
100
AcDbEntity
  8
0
100
AcDbLine
 10
2215.322202857718
 20
2419.266847356148
 30
0.0
 11
2216.922202857718
 21
2422.026847356148
 31
0.0
  0
LINE
  5
3B4A
330
18
100
AcDbEntity
  8
0
100
AcDbLine
 10
2216.922202857718
 20
2396.046847356147
 30
0.0
 11
2227.322202857719
 21
2396.046847356147
 31
0.0
  0
LINE
  5
3B4B
330
18
100
AcDbEntity
  8
0
100
AcDbLine
 10
2227.322202857719
 20
2387.386847356148
 30
0.0
 11
2216.922202857718
 21
2387.386847356148
 31
0.0
  0
LINE
  5
3B4C
330
18
100
AcDbEntity
  8
0
100
AcDbLine
 10
2216.922202857718
 20
2413.356847356148
 30
0.0
 11
2227.322202857719
 21
2413.356847356148
 31
0.0
  0
LINE
  5
3B4D
330
18
100
AcDbEntity
  8
0
100
AcDbLine
 10
2216.922202857718
 20
2422.026847356148
 30
0.0
 11
2227.322202857719
 21
2422.026847356148
 31
0.0
  0
ARC
  5
3B4E
330
18
100
AcDbEntity
  8
0
100
AcDbCircle
 10
2246.499117848543
 20
2490.276847356148
 30
0.0
 40
30.81865507082537
100
AcDbArc
 50
163.6801846146565
 51
196.3198153853434
  0
LINE
  5
3B4F
330
18
100
AcDbEntity
  8
0
100
AcDbLine
 10
2215.322202857718
 20
2504.836847356148
 30
0.0
 11
2215.322202857718
 21
2476.971866685732
 31
0.0
  0
ARC
  5
3B50
330
18
100
AcDbEntity
  8
0
100
AcDbCircle
 10
2223.851861837015
 20
2477.286847356148
 30
0.0
 40
8.171234519297257
100
AcDbArc
 50
148.0007820452305
 51
182.0310495914131
  0
LINE
  5
3B51
330
18
100
AcDbEntity
  8
0
100
AcDbLine
 10
2220.172202857718
 20
2476.716847356148
 30
0.0
 11
2212.812202857719
 21
2477.176847356147
 31
0.0
  0
LINE
  5
3B52
330
18
100
AcDbEntity
  8
0
100
AcDbLine
 10
2227.322202857719
 20
2481.616847356148
 30
0.0
 11
2216.922202857718
 21
2481.616847356148
 31
0.0
  0
LINE
  5
3B53
330
18
100
AcDbEntity
  8
0
100
AcDbLine
 10
2227.322202857719
 20
2476.566847356148
 30
0.0
 11
2220.172202857718
 21
2476.716847356148
 31
0.0
  0
LINE
  5
3B54
330
18
100
AcDbEntity
  8
0
100
AcDbLine
 10
2216.922202857718
 20
2507.596847356148
 30
0.0
 11
2215.322202857718
 21
2504.836847356148
 31
0.0
  0
LINE
  5
3B55
330
18
100
AcDbEntity
  8
0
100
AcDbLine
 10
2227.322202857719
 20
2507.596847356148
 30
0.0
 11
2216.922202857718
 21
2507.596847356148
 31
0.0
  0
LINE
  5
3B56
330
18
100
AcDbEntity
  8
0
100
AcDbLine
 10
2227.322202857719
 20
2507.596847356148
 30
0.0
 11
2216.922202857718
 21
2507.596847356148
 31
0.0
  0
LINE
  5
3B57
330
18
100
AcDbEntity
  8
0
100
AcDbLine
 10
2227.322202857719
 20
2498.936847356148
 30
0.0
 11
2227.322202857719
 21
2498.936847356148
 31
0.0
  0
LINE
  5
3B58
330
18
100
AcDbEntity
  8
0
100
AcDbLine
 10
2227.322202857719
 20
2498.936847356148
 30
0.0
 11
2216.922202857718
 21
2498.936847356148
 31
0.0
  0
LINE
  5
3B59
330
18
100
AcDbEntity
  8
0
100
AcDbLine
 10
2227.322202857719
 20
2498.936847356148
 30
0.0
 11
2216.922202857718
 21
2498.936847356148
 31
0.0
  0
ARC
  5
3B5A
330
18
100
AcDbEntity
  8
0
100
AcDbCircle
 10
2223.851861837015
 20
2503.266847356147
 30
0.0
 40
8.171234519297257
100
AcDbArc
 50
148.0007820452305
 51
211.9992179547694
  0
ARC
  5
3B5B
330
18
100
AcDbEntity
  8
0
100
AcDbCircle
 10
2163.322202857719
 20
2567.740057882462
 30
0.0
 40
37.08321052631436
100
AcDbArc
 50
257.0030243996636
 51
282.9969756003363
  0
ARC
  5
3B5C
330
18
100
AcDbEntity
  8
0
100
AcDbCircle
 10
2163.322202857719
 20
2502.873636829833
 30
0.0
 40
37.08321052631436
100
AcDbArc
 50
77.00302439966368
 51
102.9969756003363
  0
LINE
  5
3B5D
330
18
100
AcDbEntity
  8
0
100
AcDbLine
 10
2171.662202857718
 20
2531.606847356148
 30
0.0
 11
2171.662202857718
 21
2539.006847356148
 31
0.0
  0
LINE
  5
3B5E
330
18
100
AcDbEntity
  8
0
100
AcDbLine
 10
2154.982202857718
 20
2531.606847356148
 30
0.0
 11
2154.982202857718
 21
2539.006847356148
 31
0.0
  0
LINE
  5
3B5F
330
18
100
AcDbEntity
  8
0
100
AcDbLine
 10
2175.602202857719
 20
2539.006847356148
 30
0.0
 11
2175.602202857719
 21
2531.606847356148
 31
0.0
  0
LINE
  5
3B60
330
18
100
AcDbEntity
  8
0
100
AcDbLine
 10
2175.602202857719
 20
2531.606847356148
 30
0.0
 11
2171.662202857718
 21
2531.606847356148
 31
0.0
  0
LINE
  5
3B61
330
18
100
AcDbEntity
  8
0
100
AcDbLine
 10
2163.322202857719
 20
2530.306847356148
 30
0.0
 11
2178.322202857719
 21
2530.306847356148
 31
0.0
  0
LINE
  5
3B62
330
18
100
AcDbEntity
  8
0
100
AcDbLine
 10
2171.662202857718
 20
2539.006847356148
 30
0.0
 11
2175.602202857719
 21
2539.006847356148
 31
0.0
  0
LINE
  5
3B63
330
18
100
AcDbEntity
  8
0
100
AcDbLine
 10
2184.072202857718
 20
2539.006847356148
 30
0.0
 11
2184.072202857718
 21
2531.606847356148
 31
0.0
  0
LINE
  5
3B64
330
18
100
AcDbEntity
  8
0
100
AcDbLine
 10
2184.072202857718
 20
2531.606847356148
 30
0.0
 11
2181.822202857718
 21
2530.306847356148
 31
0.0
  0
LINE
  5
3B65
330
18
100
AcDbEntity
  8
0
100
AcDbLine
 10
2181.822202857718
 20
2529.306847356147
 30
0.0
 11
2181.822202857718
 21
2530.306847356148
 31
0.0
  0
LINE
  5
3B66
330
18
100
AcDbEntity
  8
0
100
AcDbLine
 10
2181.822202857718
 20
2540.306847356148
 30
0.0
 11
2184.072202857718
 21
2539.006847356148
 31
0.0
  0
ARC
  5
3B67
330
18
100
AcDbEntity
  8
0
100
AcDbCircle
 10
2179.837202857718
 20
2540.49160926091
 30
0.0
 40
9.842470172893651
100
AcDbArc
 50
244.5147855477196
 51
295.4852144522803
  0
LINE
  5
3B68
330
18
100
AcDbEntity
  8
0
100
AcDbLine
 10
2181.822202857718
 20
2530.306847356148
 30
0.0
 11
2178.322202857719
 21
2530.306847356148
 31
0.0
  0
ARC
  5
3B69
330
18
100
AcDbEntity
  8
0
100
AcDbCircle
 10
2179.837202857718
 20
2530.122085451386
 30
0.0
 40
9.842470172893651
100
AcDbArc
 50
64.51478554771966
 51
115.4852144522803
  0
LINE
  5
3B6A
330
18
100
AcDbEntity
  8
0
100
AcDbLine
 10
2163.322202857719
 20
2540.306847356148
 30
0.0
 11
2181.822202857718
 21
2540.306847356148
 31
0.0
  0
LINE
  5
3B6B
330
18
100
AcDbEntity
  8
0
100
AcDbLine
 10
2116.322202857718
 20
2400.806847356147
 30
0.0
 11
2116.322202857718
 21
2463.306847356148
 31
0.0
  0
LINE
  5
3B6C
330
18
100
AcDbEntity
  8
0
100
AcDbLine
 10
2087.322202857719
 20
2385.856847356148
 30
0.0
 11
2058.922202857718
 21
2385.856847356148
 31
0.0
  0
LINE
  5
3B6D
330
18
100
AcDbEntity
  8
0
100
AcDbLine
 10
2087.322202857719
 20
2341.306847356148
 30
0.0
 11
2087.322202857719
 21
2395.806847356147
 31
0.0
  0
ARC
  5
3B6E
330
18
100
AcDbEntity
  8
0
100
AcDbCircle
 10
2111.322202857718
 20
2400.806847356147
 30
0.0
 40
5.0
100
AcDbArc
 50
270.0
 51
0.000000000000007
  0
LINE
  5
3B6F
330
18
100
AcDbEntity
  8
0
100
AcDbLine
 10
2087.322202857719
 20
2395.806847356147
 30
0.0
 11
2111.322202857718
 21
2395.806847356147
 31
0.0
  0
LINE
  5
3B70
330
18
100
AcDbEntity
  8
0
100
AcDbLine
 10
2058.922202857719
 20
2341.306847356148
 30
0.0
 11
2058.922202857719
 21
2385.856847356148
 31
0.0
  0
LINE
  5
3B71
330
18
100
AcDbEntity
  8
0
100
AcDbLine
 10
2118.322202857719
 20
2515.306847356149
 30
0.0
 11
2054.822202857719
 21
2515.306847356147
 31
0.0
  0
LINE
  5
3B72
330
18
100
AcDbEntity
  8
0
100
AcDbLine
 10
2118.322202857719
 20
2481.306847356147
 30
0.0
 11
2054.822202857719
 21
2481.306847356147
 31
0.0
  0
LINE
  5
3B73
330
18
100
AcDbEntity
  8
0
100
AcDbLine
 10
2118.322202857719
 20
2463.306847356148
 30
0.0
 11
2118.322202857719
 21
2526.306847356147
 31
0.0
  0
LINE
  5
3B74
330
18
100
AcDbEntity
  8
0
100
AcDbLine
 10
2111.822202857719
 20
2451.926847356148
 30
0.0
 11
2111.322202857718
 21
2451.436847356148
 31
0.0
  0
LINE
  5
3B75
330
18
100
AcDbEntity
  8
0
100
AcDbLine
 10
2111.322202857718
 20
2431.176847356148
 30
0.0
 11
2111.822202857719
 21
2430.686847356147
 31
0.0
  0
LINE
  5
3B76
330
18
100
AcDbEntity
  8
0
100
AcDbLine
 10
2114.322202857718
 20
2461.806847356148
 30
0.0
 11
2116.322202857718
 21
2461.806847356148
 31
0.0
  0
LINE
  5
3B77
330
18
100
AcDbEntity
  8
0
100
AcDbLine
 10
2116.322202857718
 20
2463.306847356148
 30
0.0
 11
2118.322202857719
 21
2463.306847356148
 31
0.0
  0
LINE
  5
3B78
330
18
100
AcDbEntity
  8
0
100
AcDbLine
 10
2116.322202857718
 20
2451.786847356148
 30
0.0
 11
2111.822202857719
 21
2451.926847356148
 31
0.0
  0
LINE
  5
3B79
330
18
100
AcDbEntity
  8
0
100
AcDbLine
 10
2114.322202857718
 20
2461.806847356148
 30
0.0
 11
2114.322202857718
 21
2451.84906957837
 31
0.0
  0
LINE
  5
3B7A
330
18
100
AcDbEntity
  8
0
100
AcDbLine
 10
2111.822202857719
 20
2430.686847356147
 30
0.0
 11
2116.322202857718
 21
2430.826847356148
 31
0.0
  0
LINE
  5
3B7B
330
18
100
AcDbEntity
  8
0
100
AcDbLine
 10
2114.322202857718
 20
2426.806847356148
 30
0.0
 11
2116.322202857718
 21
2426.806847356148
 31
0.0
  0
LINE
  5
3B7C
330
18
100
AcDbEntity
  8
0
100
AcDbLine
 10
2114.322202857718
 20
2430.764625133925
 30
0.0
 11
2114.322202857718
 21
2426.806847356148
 31
0.0
  0
LINE
  5
3B7D
330
18
100
AcDbEntity
  8
0
100
AcDbLine
 10
2101.322202857719
 20
2451.206847356147
 30
0.0
 11
2111.322202857718
 21
2451.206847356147
 31
0.0
  0
LINE
  5
3B7E
330
18
100
AcDbEntity
  8
0
100
AcDbLine
 10
2111.322202857718
 20
2431.406847356148
 30
0.0
 11
2101.322202857719
 21
2431.406847356148
 31
0.0
  0
LINE
  5
3B7F
330
18
100
AcDbEntity
  8
0
100
AcDbLine
 10
2101.322202857719
 20
2441.306847356148
 30
0.0
 11
2111.322202857718
 21
2441.306847356148
 31
0.0
  0
LINE
  5
3B80
330
18
100
AcDbEntity
  8
0
100
AcDbLine
 10
2111.322202857718
 20
2451.436847356148
 30
0.0
 11
2111.322202857718
 21
2431.176847356148
 31
0.0
  0
LINE
  5
3B81
330
18
100
AcDbEntity
  8
0
100
AcDbLine
 10
2111.322202857718
 20
2451.206847356147
 30
0.0
 11
2111.322202857718
 21
2431.406847356148
 31
0.0
  0
LINE
  5
3B82
330
18
100
AcDbEntity
  8
0
100
AcDbLine
 10
2101.322202857719
 20
2431.406847356148
 30
0.0
 11
2101.322202857719
 21
2451.206847356147
 31
0.0
  0
LINE
  5
3B83
330
18
100
AcDbEntity
  8
0
100
AcDbLine
 10
2142.572202857718
 20
2539.006847356148
 30
0.0
 11
2142.572202857718
 21
2531.606847356148
 31
0.0
  0
LINE
  5
3B84
330
18
100
AcDbEntity
  8
0
100
AcDbLine
 10
2151.032202857718
 20
2539.006847356148
 30
0.0
 11
2151.032202857718
 21
2531.606847356148
 31
0.0
  0
ARC
  5
3B85
330
18
100
AcDbEntity
  8
0
100
AcDbCircle
 10
2146.807202857476
 20
2540.49160926091
 30
0.0
 40
9.842470172893651
100
AcDbArc
 50
244.5147855477196
 51
295.4852144522803
  0
LINE
  5
3B86
330
18
100
AcDbEntity
  8
0
100
AcDbLine
 10
2142.572202857718
 20
2531.606847356148
 30
0.0
 11
2144.822202857719
 21
2530.306847356148
 31
0.0
  0
LINE
  5
3B87
330
18
100
AcDbEntity
  8
0
100
AcDbLine
 10
2144.822202857719
 20
2530.306847356148
 30
0.0
 11
2148.322202857719
 21
2530.306847356148
 31
0.0
  0
LINE
  5
3B88
330
18
100
AcDbEntity
  8
0
100
AcDbLine
 10
2144.822202857719
 20
2530.306847356148
 30
0.0
 11
2144.822202857719
 21
2529.306847356147
 31
0.0
  0
ARC
  5
3B89
330
18
100
AcDbEntity
  8
0
100
AcDbCircle
 10
2146.807202857476
 20
2530.122085451386
 30
0.0
 40
9.842470172893651
100
AcDbArc
 50
64.51478554771966
 51
115.4852144522803
  0
LINE
  5
3B8A
330
18
100
AcDbEntity
  8
0
100
AcDbLine
 10
2144.822202857719
 20
2540.306847356148
 30
0.0
 11
2142.572202857718
 21
2539.006847356148
 31
0.0
  0
LINE
  5
3B8B
330
18
100
AcDbEntity
  8
0
100
AcDbLine
 10
2142.322202857719
 20
2529.306847356147
 30
0.0
 11
2142.322202857719
 21
2526.306847356147
 31
0.0
  0
LINE
  5
3B8C
330
18
100
AcDbEntity
  8
0
100
AcDbLine
 10
2054.822202857719
 20
2481.306847356147
 30
0.0
 11
2054.822202857719
 21
2515.306847356148
 31
0.0
  0
LINE
  5
3B8D
330
18
100
AcDbEntity
  8
0
100
AcDbLine
 10
2047.322202857719
 20
2473.806847356148
 30
0.0
 11
2054.822202857719
 21
2481.306847356147
 31
0.0
  0
LINE
  5
3B8E
330
18
100
AcDbEntity
  8
0
100
AcDbLine
 10
2047.322202857719
 20
2435.806847356148
 30
0.0
 11
2033.322202857719
 21
2435.806847356148
 31
0.0
  0
LINE
  5
3B8F
330
18
100
AcDbEntity
  8
0
100
AcDbLine
 10
2047.322202857719
 20
2522.806847356148
 30
0.0
 11
2054.822202857719
 21
2515.306847356148
 31
0.0
  0
LINE
  5
3B90
330
18
100
AcDbEntity
  8
0
100
AcDbLine
 10
1983.522202857719
 20
2311.056847356148
 30
0.0
 11
1974.322202857719
 21
2301.856847356148
 31
0.0
  0
LINE
  5
3B91
330
18
100
AcDbEntity
  8
0
100
AcDbLine
 10
1974.322202857719
 20
2418.806847356147
 30
0.0
 11
1974.322202857719
 21
2263.806847356148
 31
0.0
  0
LINE
  5
3B92
330
18
100
AcDbEntity
  8
0
100
AcDbLine
 10
1958.322202857719
 20
2418.806847356147
 30
0.0
 11
1958.322202857719
 21
2263.806847356148
 31
0.0
  0
LINE
  5
3B93
330
18
100
AcDbEntity
  8
0
100
AcDbLine
 10
1974.322202857719
 20
2118.756847356147
 30
0.0
 11
1983.522202857719
 21
2109.556847356148
 31
0.0
  0
LINE
  5
3B94
330
18
100
AcDbEntity
  8
0
100
AcDbLine
 10
1974.322202857719
 20
2156.806847356147
 30
0.0
 11
1958.322202857719
 21
2156.806847356147
 31
0.0
  0
LINE
  5
3B95
330
18
100
AcDbEntity
  8
0
100
AcDbLine
 10
1974.322202857719
 20
2263.806847356148
 30
0.0
 11
1958.322202857719
 21
2263.806847356148
 31
0.0
  0
LINE
  5
3B96
330
18
100
AcDbEntity
  8
0
100
AcDbLine
 10
1983.522202857719
 20
2371.556847356147
 30
0.0
 11
1983.522202857719
 21
2311.056847356148
 31
0.0
  0
LINE
  5
3B97
330
18
100
AcDbEntity
  8
0
100
AcDbLine
 10
1974.322202857719
 20
2380.756847356147
 30
0.0
 11
1983.522202857719
 21
2371.556847356147
 31
0.0
  0
LINE
  5
3B98
330
18
100
AcDbEntity
  8
0
100
AcDbLine
 10
1974.322202857719
 20
2418.806847356147
 30
0.0
 11
1958.322202857719
 21
2418.806847356147
 31
0.0
  0
LINE
  5
3B99
330
18
100
AcDbEntity
  8
0
100
AcDbLine
 10
2270.822202857719
 20
2679.306847356148
 30
0.0
 11
2145.822202857719
 21
2679.306847356148
 31
0.0
  0
LINE
  5
3B9A
330
18
100
AcDbEntity
  8
0
100
AcDbLine
 10
2270.822202857719
 20
2693.306847356148
 30
0.0
 11
2145.822202857719
 21
2693.306847356148
 31
0.0
  0
LINE
  5
3B9B
330
18
100
AcDbEntity
  8
0
100
AcDbLine
 10
2270.822202857719
 20
2693.306847356148
 30
0.0
 11
2270.822202857719
 21
2679.306847356148
 31
0.0
  0
LINE
  5
3B9C
330
18
100
AcDbEntity
  8
0
100
AcDbLine
 10
2225.322202857719
 20
2671.806847356148
 30
0.0
 11
2191.322202857719
 21
2671.806847356148
 31
0.0
  0
LINE
  5
3B9D
330
18
100
AcDbEntity
  8
0
100
AcDbLine
 10
2232.822202857719
 20
2679.306847356148
 30
0.0
 11
2225.322202857719
 21
2671.806847356148
 31
0.0
  0
LINE
  5
3B9E
330
18
100
AcDbEntity
  8
0
100
AcDbLine
 10
2183.822202857719
 20
2679.306847356148
 30
0.0
 11
2191.322202857719
 21
2671.806847356148
 31
0.0
  0
LINE
  5
3B9F
330
18
100
AcDbEntity
  8
0
100
AcDbLine
 10
2047.322202857719
 20
2560.806847356148
 30
0.0
 11
2033.322202857719
 21
2560.806847356148
 31
0.0
  0
LINE
  5
3BA0
330
18
100
AcDbEntity
  8
0
100
AcDbLine
 10
2145.822202857719
 20
2693.306847356148
 30
0.0
 11
2145.822202857719
 21
2679.306847356148
 31
0.0
  0
LINE
  5
41F5
330
18
100
AcDbEntity
  8
0
100
AcDbLine
 10
3036.751190408287
 20
1039.131659377725
 30
0.0
 11
3036.751190408287
 21
1152.189538303096
 31
0.0
  0
LINE
  5
41F6
330
18
100
AcDbEntity
  8
0
100
AcDbLine
 10
3002.751190408287
 20
1039.131659377725
 30
0.0
 11
3002.751190408287
 21
1152.189538303097
 31
0.0
  0
LINE
  5
41F7
330
18
100
AcDbEntity
  8
0
100
AcDbLine
 10
2957.251190408287
 20
1159.689538303097
 30
0.0
 11
3082.251190408287
 21
1159.689538303097
 31
0.0
  0
LINE
  5
41F8
330
18
100
AcDbEntity
  8
0
100
AcDbLine
 10
2957.251190408287
 20
1173.689538303097
 30
0.0
 11
3082.251190408287
 21
1173.689538303097
 31
0.0
  0
LINE
  5
41F9
330
18
100
AcDbEntity
  8
0
100
AcDbLine
 10
2957.251190408287
 20
1173.689538303097
 30
0.0
 11
2957.251190408287
 21
1159.689538303097
 31
0.0
  0
LINE
  5
41FA
330
18
100
AcDbEntity
  8
0
100
AcDbLine
 10
3002.751190408287
 20
1152.189538303097
 30
0.0
 11
3036.751190408287
 21
1152.189538303096
 31
0.0
  0
LINE
  5
41FB
330
18
100
AcDbEntity
  8
0
100
AcDbLine
 10
2995.251190408287
 20
1159.689538303097
 30
0.0
 11
3002.751190408287
 21
1152.189538303097
 31
0.0
  0
LINE
  5
41FC
330
18
100
AcDbEntity
  8
0
100
AcDbLine
 10
3044.251190408287
 20
1159.689538303097
 30
0.0
 11
3036.751190408287
 21
1152.189538303097
 31
0.0
  0
LINE
  5
41FD
330
18
100
AcDbEntity
  8
0
100
AcDbLine
 10
3082.251190408287
 20
1173.689538303097
 30
0.0
 11
3082.251190408287
 21
1159.689538303097
 31
0.0
  0
LINE
  5
42C5
330
18
100
AcDbEntity
  8
0
100
AcDbLine
 10
1218.188179849819
 20
1056.685538303097
 30
0.0
 11
1209.18817984982
 21
1056.685538303097
 31
0.0
  0
LINE
  5
42C8
330
18
100
AcDbEntity
  8
0
100
AcDbLine
 10
1221.188179849819
 20
1053.685538303096
 30
0.0
 11
1221.188179849819
 21
1006.556831673263
 31
0.0
  0
LINE
  5
42C9
330
18
100
AcDbEntity
  8
0
100
AcDbLine
 10
1206.18817984982
 20
1053.685538303097
 30
0.0
 11
1206.18817984982
 21
1006.556831673263
 31
0.0
  0
ARC
  5
42CA
330
18
100
AcDbEntity
  8
0
100
AcDbCircle
 10
1209.18817984982
 20
1053.685538303097
 30
0.0
 40
3.0
100
AcDbArc
 50
90.0
 51
180.0
  0
ARC
  5
42CB
330
18
100
AcDbEntity
  8
0
100
AcDbCircle
 10
1218.188179849819
 20
1053.685538303096
 30
0.0
 40
3.0
100
AcDbArc
 50
0.0
 51
90.0
  0
VIEWPORT
  5
41
330
15
100
AcDbEntity
 67
     1
  8
0
100
AcDbViewport
 10
117.358407079646
 20
73.5
 30
0.0
 40
234.716814159292
 41
147.0
 68
     1
 69
     1
1001
ACAD
1000
MVIEW
1002
{
1070
    16
1010
0.0
1020
0.0
1030
0.0
1010
0.0
1020
0.0
1030
1.0
1040
0.0
1040
147.0
1040
117.358407079646
1040
73.5
1040
50.0
1040
0.0
1040
0.0
1070
     0
1070
   100
1070
     1
1070
     1
1070
     0
1070
     0
1070
     0
1070
     0
1040
0.0
1040
0.0
1040
0.0
1040
1.0
1040
1.0
1040
0.0
1040
0.0
1070
     0
1002
{
1002
}
1002
}
  0
ENDSEC
  0
SECTION
  2
OBJECTS
  0
DICTIONARY
  5
C
330
0
100
AcDbDictionary
  3
ACAD_GROUP
350
D
  3
ACAD_LAYOUT
350
2642
  3
ACAD_MLINESTYLE
350
E
  3
ACAD_PLOTSETTINGS
350
2643
1001
ACAD
1000
TREAT_AS_HARD
1070
     0
  0
DICTIONARY
  5
4225
330
18
100
AcDbDictionary
  3
ACAD_LAYOUTSELFREF
350
45B6
1001
ACAD
1000
TREAT_AS_HARD
1070
     1
  0
DICTIONARY
  5
4223
330
15
100
AcDbDictionary
  3
ACAD_LAYOUTSELFREF
350
45B5
1001
ACAD
1000
TREAT_AS_HARD
1070
     1
  0
DICTIONARY
  5
D
102
{ACAD_REACTORS
330
C
102
}
330
C
100
AcDbDictionary
1001
ACAD
1000
TREAT_AS_HARD
1070
     0
  0
DICTIONARY
  5
2642
102
{ACAD_REACTORS
330
C
102
}
330
C
100
AcDbDictionary
1001
ACAD
1000
TREAT_AS_HARD
1070
     0
  0
DICTIONARY
  5
E
102
{ACAD_REACTORS
330
C
102
}
330
C
100
AcDbDictionary
  3
STANDARD
350
1B
1001
ACAD
1000
TREAT_AS_HARD
1070
     0
  0
DICTIONARY
  5
2643
102
{ACAD_REACTORS
330
C
102
}
330
C
100
AcDbDictionary
1001
ACAD
1000
TREAT_AS_HARD
1070
     0
  0
XRECORD
  5
45B6
102
{ACAD_REACTORS
330
4225
102
}
330
4225
100
AcDbXrecord
340
18
  0
XRECORD
  5
45B5
102
{ACAD_REACTORS
330
4223
102
}
330
4223
100
AcDbXrecord
340
15
  0
MLINESTYLE
  5
1B
102
{ACAD_REACTORS
330
E
102
}
330
E
100
AcDbMlineStyle
  2
STANDARD
 70
     0
  3

 62
     0
 51
90.0
 52
90.0
 71
     2
 49
0.5
 62
   256
  6
BYLAYER
 49
-0.5
 62
   256
  6
BYLAYER
  0
ENDSEC
  0
EOF
