  0
SECTION
  2
HEADER
  9
$ACADVER
  1
AC1012
  9
$DWGCODEPAGE
  3
dos932
  9
$INSBASE
 10
0.0
 20
0.0
 30
0.0
  9
$EXTMIN
 10
110.0
 20
50.0
 30
0.0
  9
$EXTMAX
 10
2860.0
 20
1910.0
 30
0.0
  9
$LIMMIN
 10
0.0
 20
0.0
  9
$LIMMAX
 10
2970.0
 20
2100.0
  9
$ORTHOMODE
 70
     1
  9
$REGENMODE
 70
     1
  9
$FILLMODE
 70
     1
  9
$QTEXTMODE
 70
     0
  9
$MIRRTEXT
 70
     1
  9
$DRAGMODE
 70
     2
  9
$LTSCALE
 40
40.0
  9
$OSMODE
 70
    35
  9
$ATTMODE
 70
     1
  9
$TEXTSIZE
 40
40.0
  9
$TRACEWID
 40
0.05
  9
$TEXTSTYLE
  7
STANDARD
  9
$CLAYER
  8
0
  9
$CELTYPE
  6
BYLAYER
  9
$CECOLOR
 62
   256
  9
$CELTSCALE
 40
1.0
  9
$DELOBJ
 70
     1
  9
$DISPSILH
 70
     0
  9
$DIMSCALE
 40
10.0
  9
$DIMASZ
 40
2.8
  9
$DIMEXO
 40
1.0
  9
$DIMDLI
 40
5.0
  9
$DIMRND
 40
0.1
  9
$DIMDLE
 40
0.0
  9
$DIMEXE
 40
1.0
  9
$DIMTP
 40
0.0
  9
$DIMTM
 40
0.0
  9
$DIMTXT
 40
2.5
  9
$DIMCEN
 40
0.0
  9
$DIMTSZ
 40
0.0
  9
$DIMTOL
 70
     0
  9
$DIMLIM
 70
     0
  9
$DIMTIH
 70
     0
  9
$DIMTOH
 70
     0
  9
$DIMSE1
 70
     0
  9
$DIMSE2
 70
     0
  9
$DIMTAD
 70
     3
  9
$DIMZIN
 70
     8
  9
$DIMBLK
  1

  9
$DIMASO
 70
     1
  9
$DIMSHO
 70
     1
  9
$DIMPOST
  1
 
  9
$DIMAPOST
  1

  9
$DIMALT
 70
     0
  9
$DIMALTD
 70
     2
  9
$DIMALTF
 40
1.0
  9
$DIMLFAC
 40
1.0
  9
$DIMTOFL
 70
     1
  9
$DIMTVP
 40
0.0
  9
$DIMTIX
 70
     0
  9
$DIMSOXD
 70
     0
  9
$DIMSAH
 70
     1
  9
$DIMBLK1
  1
_OPEN
  9
$DIMBLK2
  1
_OPEN
  9
$DIMSTYLE
  2
DIM1
  9
$DIMCLRD
 70
     2
  9
$DIMCLRE
 70
     2
  9
$DIMCLRT
 70
     2
  9
$DIMTFAC
 40
0.7
  9
$DIMGAP
 40
0.85
  9
$DIMJUST
 70
     0
  9
$DIMSD1
 70
     0
  9
$DIMSD2
 70
     0
  9
$DIMTOLJ
 70
     1
  9
$DIMTZIN
 70
     8
  9
$DIMALTZ
 70
     8
  9
$DIMALTTZ
 70
     8
  9
$DIMFIT
 70
     0
  9
$DIMUPT
 70
     0
  9
$DIMUNIT
 70
     2
  9
$DIMDEC
 70
     2
  9
$DIMTDEC
 70
     3
  9
$DIMALTU
 70
     2
  9
$DIMALTTD
 70
     3
  9
$DIMTXSTY
  7
DIM
  9
$DIMAUNIT
 70
     0
  9
$LUNITS
 70
     2
  9
$LUPREC
 70
     4
  9
$SKETCHINC
 40
0.1
  9
$FILLETRAD
 40
3.0
  9
$AUNITS
 70
     0
  9
$AUPREC
 70
     0
  9
$MENU
  1
C:\ACADR13\WIN\SUPPORT\ACAD.mnc
  9
$ELEVATION
 40
0.0
  9
$PELEVATION
 40
0.0
  9
$THICKNESS
 40
0.0
  9
$LIMCHECK
 70
     0
  9
$BLIPMODE
 70
     1
  9
$CHAMFERA
 40
0.0
  9
$CHAMFERB
 40
0.0
  9
$CHAMFERC
 40
0.0
  9
$CHAMFERD
 40
0.0
  9
$SKPOLY
 70
     0
  9
$TDCREATE
 40
2451589.540470243
  9
$TDUPDATE
 40
2451981.562139757
  9
$TDINDWG
 40
0.3298389005
  9
$TDUSRTIMER
 40
0.3298389005
  9
$USRTIMER
 70
     1
  9
$ANGBASE
 50
0.0
  9
$ANGDIR
 70
     0
  9
$PDMODE
 70
     0
  9
$PDSIZE
 40
0.0
  9
$PLINEWID
 40
0.0
  9
$COORDS
 70
     2
  9
$SPLFRAME
 70
     0
  9
$SPLINETYPE
 70
     6
  9
$SPLINESEGS
 70
     8
  9
$ATTDIA
 70
     0
  9
$ATTREQ
 70
     1
  9
$HANDLING
 70
     1
  9
$HANDSEED
  5
20851
  9
$SURFTAB1
 70
     6
  9
$SURFTAB2
 70
     6
  9
$SURFTYPE
 70
     6
  9
$SURFU
 70
     6
  9
$SURFV
 70
     6
  9
$UCSNAME
  2

  9
$UCSORG
 10
0.0
 20
0.0
 30
0.0
  9
$UCSXDIR
 10
1.0
 20
0.0
 30
0.0
  9
$UCSYDIR
 10
0.0
 20
1.0
 30
0.0
  9
$PUCSNAME
  2

  9
$PUCSORG
 10
0.0
 20
0.0
 30
0.0
  9
$PUCSXDIR
 10
1.0
 20
0.0
 30
0.0
  9
$PUCSYDIR
 10
0.0
 20
1.0
 30
0.0
  9
$USERI1
 70
     0
  9
$USERI2
 70
     0
  9
$USERI3
 70
     0
  9
$USERI4
 70
     0
  9
$USERI5
 70
     0
  9
$USERR1
 40
0.0
  9
$USERR2
 40
0.0
  9
$USERR3
 40
0.0
  9
$USERR4
 40
0.0
  9
$USERR5
 40
0.0
  9
$WORLDVIEW
 70
     1
  9
$SHADEDGE
 70
     3
  9
$SHADEDIF
 70
    70
  9
$TILEMODE
 70
     1
  9
$MAXACTVP
 70
    16
  9
$PINSBASE
 10
0.0
 20
0.0
 30
0.0
  9
$PLIMCHECK
 70
     0
  9
$PEXTMIN
 10
1.000000E+20
 20
1.000000E+20
 30
1.000000E+20
  9
$PEXTMAX
 10
-1.000000E+20
 20
-1.000000E+20
 30
-1.000000E+20
  9
$PLIMMIN
 10
0.0
 20
0.0
  9
$PLIMMAX
 10
20.0
 20
147.0
  9
$UNITMODE
 70
     0
  9
$VISRETAIN
 70
     0
  9
$PLINEGEN
 70
     0
  9
$PSLTSCALE
 70
     1
  9
$TREEDEPTH
 70
  3020
  9
$PICKSTYLE
 70
     1
  9
$CMLSTYLE
  2
STANDARD
  9
$CMLJUST
 70
     0
  9
$CMLSCALE
 40
1.0
  9
$SAVEIMAGES
 70
     1
  0
ENDSEC
  0
SECTION
  2
CLASSES
  0
CLASS
  1
LWPOLYLINE
  2
AcDbPolyline
  3
"AutoCAD"
 90
    32768
280
     0
281
     1
  0
ENDSEC
  0
SECTION
  2
TABLES
  0
TABLE
  2
VPORT
  5
8
100
AcDbSymbolTable
 70
     2
  0
VPORT
  5
20850
100
AcDbSymbolTableRecord
100
AcDbViewportTableRecord
  2
*ACTIVE
 70
     0
 10
0.0
 20
0.0
 11
1.0
 21
1.0
 12
1923.80137
 22
1091.789068
 13
0.0
 23
0.0
 14
1.0
 24
1.0
 15
0.0
 25
0.0
 16
0.0
 26
0.0
 36
1.0
 17
0.0
 27
0.0
 37
0.0
 40
2183.578137
 41
1.762063
 42
50.0
 43
0.0
 44
0.0
 50
0.0
 51
0.0
 71
     0
 72
   100
 73
     1
 74
     1
 75
     0
 76
     0
 77
     0
 78
     2
  0
ENDTAB
  0
TABLE
  2
LTYPE
  5
5
100
AcDbSymbolTable
 70
     1
  0
LTYPE
  5
12
100
AcDbSymbolTableRecord
100
AcDbLinetypeTableRecord
  2
BYBLOCK
 70
     0
  3

 72
    65
 73
     0
 40
0.0
  0
LTYPE
  5
13
100
AcDbSymbolTableRecord
100
AcDbLinetypeTableRecord
  2
BYLAYER
 70
     0
  3

 72
    65
 73
     0
 40
0.0
  0
LTYPE
  5
14
100
AcDbSymbolTableRecord
100
AcDbLinetypeTableRecord
  2
CONTINUOUS
 70
     0
  3
Solid line
 72
    65
 73
     0
 40
0.0
  0
ENDTAB
  0
TABLE
  2
LAYER
  5
2
100
AcDbSymbolTable
 70
     1
  0
LAYER
  5
F
100
AcDbSymbolTableRecord
100
AcDbLayerTableRecord
  2
0
 70
     0
 62
     7
  6
CONTINUOUS
  0
ENDTAB
  0
TABLE
  2
STYLE
  5
3
100
AcDbSymbolTable
 70
     3
  0
STYLE
  5
10
100
AcDbSymbolTableRecord
100
AcDbTextStyleTableRecord
  2
STANDARD
 70
     0
 40
0.0
 41
0.8
 50
0.0
 71
     0
 42
40.0
  3
simplex
  4
extfont
  0
STYLE
  5
237C
100
AcDbSymbolTableRecord
100
AcDbTextStyleTableRecord
  2
PTSH
 70
     0
 40
0.0
 41
0.9
 50
0.0
 71
     0
 42
4.0
  3
SIMPLEX
  4
EXTFONT
  0
STYLE
  5
2592
100
AcDbSymbolTableRecord
100
AcDbTextStyleTableRecord
  2
DIM
 70
     0
 40
0.0
 41
0.8
 50
0.0
 71
     0
 42
4.0
  3
simplex
  4
extfont
  0
ENDTAB
  0
TABLE
  2
VIEW
  5
6
100
AcDbSymbolTable
 70
     0
  0
ENDTAB
  0
TABLE
  2
UCS
  5
7
100
AcDbSymbolTable
 70
     0
  0
ENDTAB
  0
TABLE
  2
APPID
  5
9
100
AcDbSymbolTable
 70
     1
  0
APPID
  5
11
100
AcDbSymbolTableRecord
100
AcDbRegAppTableRecord
  2
ACAD
 70
     0
  0
ENDTAB
  0
TABLE
  2
DIMSTYLE
  5
A
100
AcDbSymbolTable
 70
     1
  0
DIMSTYLE
105
2237
100
AcDbSymbolTableRecord
100
AcDbDimStyleTableRecord
  2
DIM1
 70
     0
  3
 
  4

  5

  6
_OPEN
  7
_OPEN
 40
10.0
 41
2.8
 42
1.0
 43
5.0
 44
1.0
 45
0.1
 46
0.0
 47
0.0
 48
0.0
140
2.5
141
0.0
142
0.0
143
1.0
144
1.0
145
0.0
146
0.7
147
0.85
 71
     0
 72
     0
 73
     0
 74
     0
 75
     0
 76
     0
 77
     3
 78
     8
170
     0
171
     2
172
     1
173
     1
174
     0
175
     0
176
     2
177
     2
178
     2
270
     2
271
     2
272
     3
273
     2
274
     3
340
2592
275
     0
280
     0
281
     0
282
     0
283
     1
284
     8
285
     8
286
     8
287
     0
288
     0
  0
ENDTAB
  0
TABLE
  2
BLOCK_RECORD
  5
1
100
AcDbSymbolTable
 70
     2
  0
BLOCK_RECORD
  5
18
100
AcDbSymbolTableRecord
100
AcDbBlockTableRecord
  2
*MODEL_SPACE
  0
BLOCK_RECORD
  5
15
100
AcDbSymbolTableRecord
100
AcDbBlockTableRecord
  2
*PAPER_SPACE
  0
BLOCK_RECORD
  5
2448
100
AcDbSymbolTableRecord
100
AcDbBlockTableRecord
  2
_OPEN
  0
BLOCK_RECORD
  5
1D7B4
100
AcDbSymbolTableRecord
100
AcDbBlockTableRecord
  2
YA
  0
ENDTAB
  0
ENDSEC
  0
SECTION
  2
BLOCKS
  0
BLOCK
  5
3C
100
AcDbEntity
  8
0
100
AcDbBlockBegin
  2
*MODEL_SPACE
 70
     0
 10
0.0
 20
0.0
 30
0.0
  3
*MODEL_SPACE
  1

  0
ENDBLK
  5
3D
100
AcDbEntity
  8
0
100
AcDbBlockEnd
  0
BLOCK
  5
3A
100
AcDbEntity
 67
     1
  8
0
100
AcDbBlockBegin
  2
*PAPER_SPACE
 70
     0
 10
0.0
 20
0.0
 30
0.0
  3
*PAPER_SPACE
  1

  0
ENDBLK
  5
3B
100
AcDbEntity
 67
     1
  8
0
100
AcDbBlockEnd
  0
BLOCK
  5
2449
100
AcDbEntity
  8
0
 48
4.0
100
AcDbBlockBegin
  2
_OPEN
 70
     0
 10
0.0
 20
0.0
 30
0.0
  3
_OPEN
  1
H1111.DWG
  0
LINE
  5
244A
100
AcDbEntity
  8
0
  6
BYBLOCK
 62
     0
 48
4.0
100
AcDbLine
 10
-1.0
 20
0.166667
 30
0.0
 11
0.0
 21
0.0
 31
0.0
  0
LINE
  5
244B
100
AcDbEntity
  8
0
  6
BYBLOCK
 62
     0
 48
4.0
100
AcDbLine
 10
0.0
 20
0.0
 30
0.0
 11
-1.0
 21
-0.166667
 31
0.0
  0
LINE
  5
244C
100
AcDbEntity
  8
0
  6
BYBLOCK
 62
     0
 48
4.0
100
AcDbLine
 10
0.0
 20
0.0
 30
0.0
 11
-1.0
 21
0.0
 31
0.0
  0
ENDBLK
  5
244D
100
AcDbEntity
  8
0
 48
4.0
100
AcDbBlockEnd
  0
BLOCK
  5
1D7BC
100
AcDbEntity
  8
0
100
AcDbBlockBegin
  2
YA
 70
     0
 10
0.0
 20
0.0
 30
0.0
  3
YA
  1

  0
LINE
  5
1D7B5
100
AcDbEntity
  8
0
100
AcDbLine
 10
-16.8065
 20
2.801
 30
0.0
 11
-8.4035
 21
2.801
 31
0.0
  0
LINE
  5
1D7B6
100
AcDbEntity
  8
0
100
AcDbLine
 10
-8.4035
 20
2.801
 30
0.0
 11
-7.0025
 21
1.4005
 31
0.0
  0
LINE
  5
1D7B7
100
AcDbEntity
  8
0
100
AcDbLine
 10
-7.0025
 20
1.4005
 30
0.0
 11
-2.862
 21
1.4005
 31
0.0
  0
LINE
  5
1D7B8
100
AcDbEntity
  8
0
100
AcDbLine
 10
-2.862
 20
1.4005
 30
0.0
 11
-2.862
 21
2.801
 31
0.0
  0
LINE
  5
1D7B9
100
AcDbEntity
  8
0
100
AcDbLine
 10
-2.862
 20
2.801
 30
0.0
 11
0.0
 21
0.0
 31
0.0
  0
LINE
  5
1D7BA
100
AcDbEntity
  8
0
100
AcDbLine
 10
0.0
 20
0.0
 30
0.0
 11
-14.0055
 21
0.0
 31
0.0
  0
LINE
  5
1D7BB
100
AcDbEntity
  8
0
100
AcDbLine
 10
-14.0055
 20
0.0
 30
0.0
 11
-16.8065
 21
2.801
 31
0.0
  0
ENDBLK
  5
1D7BD
100
AcDbEntity
  8
0
100
AcDbBlockEnd
  0
ENDSEC
  0
SECTION
  2
ENTITIES
  0
MTEXT
  5
ADA
100
AcDbEntity
  8
0
100
AcDbMText
 10
3801.392798
 20
498.463111
 30
0.0
 40
2.0
 41
472.264648
 71
     1
 72
     1
  1

  0
MTEXT
  5
ADB
100
AcDbEntity
  8
0
100
AcDbMText
 10
3890.499332
 20
578.507937
 30
0.0
 40
2.0
 41
454.443342
 71
     1
 72
     1
  1

  0
MTEXT
  5
ADC
100
AcDbEntity
  8
0
100
AcDbMText
 10
3837.035411
 20
-479.862464
 30
0.0
 40
2.0
 41
516.817915
 71
     1
 72
     1
  1

  0
TEXT
  5
2529
100
AcDbEntity
  8
0
  6
CONTINUOUS
100
AcDbText
 10
2645.125879
 20
77.270855
 30
0.0
 40
30.0
  1
GPGT10L
 41
0.9
  7
PTSH
 72
     1
 11
2728.054451
 21
92.270855
 31
0.0
100
AcDbText
 73
     2
  0
POLYLINE
  5
2563
100
AcDbEntity
  8
0
100
AcDb2dPolyline
 66
     1
 10
0.0
 20
0.0
 30
0.0
 70
     1
  0
VERTEX
  5
2084B
100
AcDbEntity
  8
0
100
AcDbVertex
100
AcDb2dVertex
 10
110.0
 20
50.0
 30
0.0
  0
VERTEX
  5
2084C
100
AcDbEntity
  8
0
100
AcDbVertex
100
AcDb2dVertex
 10
2860.0
 20
50.0
 30
0.0
  0
VERTEX
  5
2084D
100
AcDbEntity
  8
0
100
AcDbVertex
100
AcDb2dVertex
 10
2860.0
 20
1910.0
 30
0.0
  0
VERTEX
  5
2084E
100
AcDbEntity
  8
0
100
AcDbVertex
100
AcDb2dVertex
 10
110.0
 20
1910.0
 30
0.0
  0
SEQEND
  5
2084F
100
AcDbEntity
  8
0
  0
INSERT
  5
1E916
100
AcDbEntity
  8
0
100
AcDbBlockReference
  2
YA
 10
1708.465591
 20
576.513623
 30
0.0
 41
-3.333333
 42
3.333333
 43
3.333333
  0
INSERT
  5
1E917
100
AcDbEntity
  8
0
100
AcDbBlockReference
  2
YA
 10
1764.487257
 20
446.513623
 30
0.0
 41
3.333333
 42
3.333333
 43
3.333333
  0
TEXT
  5
1E919
100
AcDbEntity
  8
0
100
AcDbText
 10
1192.5
 20
114.188655
 30
0.0
 40
35.0
  1
TLV  GP10L･GT10L (PT)
 72
     4
 11
1485.0
 21
129.188655
 31
0.0
100
AcDbText
  0
TEXT
  5
1E91B
100
AcDbEntity
  8
0
100
AcDbText
 10
647.194541
 20
531.004123
 30
0.0
 40
35.0
  1
正面
100
AcDbText
  0
TEXT
  5
1E91C
100
AcDbEntity
  8
0
100
AcDbText
 10
1408.809524
 20
230.815649
 30
0.0
 40
25.0
  1
25A,40A
 72
     4
 11
1485.0
 21
240.934697
 31
0.0
100
AcDbText
  0
ARC
  5
1E91D
100
AcDbEntity
  8
0
100
AcDbCircle
 10
1012.773833
 20
589.640623
 30
0.0
 40
125.000006
100
AcDbArc
 50
359.982582
 51
180.017418
  0
LINE
  5
1E91E
100
AcDbEntity
  8
0
100
AcDbLine
 10
913.55661
 20
413.571112
 30
0.0
 11
922.773833
 21
399.102623
 31
0.0
  0
ARC
  5
1E91F
100
AcDbEntity
  8
0
100
AcDbCircle
 10
1012.773833
 20
489.603623
 30
0.0
 40
125.0
100
AcDbArc
 50
180.0
 51
0.0
  0
LINE
  5
1E920
100
AcDbEntity
  8
0
100
AcDbLine
 10
887.773833
 20
589.602623
 30
0.0
 11
887.773833
 21
489.603623
 31
0.0
  0
LINE
  5
1E921
100
AcDbEntity
  8
0
100
AcDbLine
 10
1096.264833
 20
364.603623
 30
0.0
 11
1012.650833
 21
364.603623
 31
0.0
  0
LINE
  5
1E922
100
AcDbEntity
  8
0
100
AcDbLine
 10
925.773833
 20
339.602623
 30
0.0
 11
1099.773833
 21
339.602623
 31
0.0
  0
CIRCLE
  5
1E923
100
AcDbEntity
  8
0
100
AcDbCircle
 10
937.773833
 20
356.602623
 30
0.0
 40
7.5
  0
LINE
  5
1E924
100
AcDbEntity
  8
0
100
AcDbLine
 10
922.773833
 20
399.102623
 30
0.0
 11
922.773833
 21
342.602623
 31
0.0
  0
ARC
  5
1E92F
100
AcDbEntity
  8
0
100
AcDbCircle
 10
1012.773833
 20
389.603623
 30
0.0
 40
25.0
100
AcDbArc
 50
180.0
 51
0.0
  0
LINE
  5
1E930
100
AcDbEntity
  8
0
100
AcDbLine
 10
987.773833
 20
417.346623
 30
0.0
 11
987.773833
 21
389.603623
 31
0.0
  0
ARC
  5
1E931
100
AcDbEntity
  8
0
100
AcDbCircle
 10
961.06092
 20
385.895197
 30
0.0
 40
16.244917
100
AcDbArc
 50
184.360016
 51
302.634852
  0
LINE
  5
1E932
100
AcDbEntity
  8
0
100
AcDbLine
 10
1037.773833
 20
389.603623
 30
0.0
 11
1037.773833
 21
417.346623
 31
0.0
  0
LINE
  5
1E933
100
AcDbEntity
  8
0
100
AcDbLine
 10
1012.773833
 20
398.918623
 30
0.0
 11
1003.458833
 21
389.602623
 31
0.0
  0
CIRCLE
  5
1E934
100
AcDbEntity
  8
0
100
AcDbCircle
 10
1012.773833
 20
389.602623
 30
0.0
 40
10.4775
  0
CIRCLE
  5
1E935
100
AcDbEntity
  8
0
100
AcDbCircle
 10
1012.773833
 20
389.602623
 30
0.0
 40
9.31549
  0
CIRCLE
  5
1E936
100
AcDbEntity
  8
0
100
AcDbCircle
 10
1012.773833
 20
389.602623
 30
0.0
 40
20.0
  0
LINE
  5
1E937
100
AcDbEntity
  8
0
100
AcDbLine
 10
1022.089833
 20
389.602623
 30
0.0
 11
1012.773833
 21
398.918623
 31
0.0
  0
LINE
  5
1E938
100
AcDbEntity
  8
0
100
AcDbLine
 10
1003.458833
 20
389.602623
 30
0.0
 11
1012.773833
 21
380.287623
 31
0.0
  0
LINE
  5
1E939
100
AcDbEntity
  8
0
100
AcDbLine
 10
1012.773833
 20
380.287623
 30
0.0
 11
1022.089833
 21
389.602623
 31
0.0
  0
CIRCLE
  5
1E93A
100
AcDbEntity
  8
0
100
AcDbCircle
 10
1087.773833
 20
356.602623
 30
0.0
 40
7.5
  0
LINE
  5
1E93B
100
AcDbEntity
  8
0
100
AcDbLine
 10
1102.773833
 20
342.602623
 30
0.0
 11
1102.773833
 21
364.603623
 31
0.0
  0
LINE
  5
1E946
100
AcDbEntity
  8
0
100
AcDbLine
 10
1119.764833
 20
400.080123
 30
0.0
 11
1124.264833
 21
400.220123
 31
0.0
  0
LINE
  5
1E947
100
AcDbEntity
  8
0
100
AcDbLine
 10
1124.264833
 20
378.984123
 30
0.0
 11
1119.764833
 21
379.125123
 31
0.0
  0
LINE
  5
1E948
100
AcDbEntity
  8
0
100
AcDbLine
 10
1119.764833
 20
400.080123
 30
0.0
 11
1119.764833
 21
379.125123
 31
0.0
  0
LINE
  5
1E949
100
AcDbEntity
  8
0
100
AcDbLine
 10
1119.764833
 20
408.102623
 30
0.0
 11
1119.764833
 21
371.102623
 31
0.0
  0
LINE
  5
1E94A
100
AcDbEntity
  8
0
100
AcDbLine
 10
1114.764833
 20
411.602623
 30
0.0
 11
1114.764833
 21
366.603623
 31
0.0
  0
LINE
  5
1E94C
100
AcDbEntity
  8
0
100
AcDbLine
 10
1113.352833
 20
364.691623
 30
0.0
 11
1112.764833
 21
364.603623
 31
0.0
  0
LINE
  5
1E94D
100
AcDbEntity
  8
0
100
AcDbLine
 10
1113.646833
 20
364.808623
 30
0.0
 11
1113.352833
 21
364.691623
 31
0.0
  0
LINE
  5
1E94E
100
AcDbEntity
  8
0
100
AcDbLine
 10
1113.926833
 20
364.975623
 30
0.0
 11
1113.646833
 21
364.808623
 31
0.0
  0
LINE
  5
1E94F
100
AcDbEntity
  8
0
100
AcDbLine
 10
1114.178833
 20
365.188623
 30
0.0
 11
1113.926833
 21
364.975623
 31
0.0
  0
LINE
  5
1E950
100
AcDbEntity
  8
0
100
AcDbLine
 10
1114.392833
 20
365.440623
 30
0.0
 11
1114.178833
 21
365.188623
 31
0.0
  0
LINE
  5
1E951
100
AcDbEntity
  8
0
100
AcDbLine
 10
1114.559833
 20
365.720623
 30
0.0
 11
1114.392833
 21
365.440623
 31
0.0
  0
LINE
  5
1E952
100
AcDbEntity
  8
0
100
AcDbLine
 10
1114.676833
 20
366.015623
 30
0.0
 11
1114.559833
 21
365.720623
 31
0.0
  0
LINE
  5
1E953
100
AcDbEntity
  8
0
100
AcDbLine
 10
1114.743833
 20
366.313623
 30
0.0
 11
1114.676833
 21
366.015623
 31
0.0
  0
LINE
  5
1E954
100
AcDbEntity
  8
0
100
AcDbLine
 10
1114.764833
 20
366.603623
 30
0.0
 11
1114.743833
 21
366.313623
 31
0.0
  0
LINE
  5
1E955
100
AcDbEntity
  8
0
100
AcDbLine
 10
1114.764833
 20
366.603623
 30
0.0
 11
1114.764833
 21
366.603623
 31
0.0
  0
LINE
  5
1E956
100
AcDbEntity
  8
0
100
AcDbLine
 10
1114.764833
 20
367.602623
 30
0.0
 11
1114.764833
 21
366.603623
 31
0.0
  0
LINE
  5
1E96B
100
AcDbEntity
  8
0
100
AcDbLine
 10
1112.764833
 20
364.603623
 30
0.0
 11
1096.264833
 21
364.603623
 31
0.0
  0
ARC
  5
1E96D
100
AcDbEntity
  8
0
100
AcDbCircle
 10
1117.763618
 20
416.398348
 30
0.0
 40
2.998785
100
AcDbArc
 50
145.110882
 51
179.994742
  0
LINE
  5
1E96E
100
AcDbEntity
  8
0
100
AcDbLine
 10
1111.988833
 20
413.568623
 30
0.0
 11
1111.988833
 21
413.568623
 31
0.0
  0
LINE
  5
1E971
100
AcDbEntity
  8
0
100
AcDbLine
 10
1114.764833
 20
416.398623
 30
0.0
 11
1114.764833
 21
411.602623
 31
0.0
  0
LINE
  5
1E984
100
AcDbEntity
  8
0
100
AcDbLine
 10
1124.264833
 20
400.220123
 30
0.0
 11
1124.264833
 21
378.984123
 31
0.0
  0
LINE
  5
1E985
100
AcDbEntity
  8
0
100
AcDbLine
 10
1124.764833
 20
399.736123
 30
0.0
 11
1124.764833
 21
379.469123
 31
0.0
  0
LINE
  5
1E986
100
AcDbEntity
  8
0
100
AcDbLine
 10
1134.763833
 20
379.703123
 30
0.0
 11
1134.763833
 21
399.502123
 31
0.0
  0
LINE
  5
1E987
100
AcDbEntity
  8
0
100
AcDbLine
 10
1124.764833
 20
399.502123
 30
0.0
 11
1124.764833
 21
379.703123
 31
0.0
  0
LINE
  5
1E988
100
AcDbEntity
  8
0
100
AcDbLine
 10
1124.764833
 20
379.469123
 30
0.0
 11
1124.264833
 21
378.984123
 31
0.0
  0
LINE
  5
1E989
100
AcDbEntity
  8
0
100
AcDbLine
 10
1124.764833
 20
379.703123
 30
0.0
 11
1134.763833
 21
379.703123
 31
0.0
  0
LINE
  5
1E98A
100
AcDbEntity
  8
0
100
AcDbLine
 10
1134.763833
 20
389.602123
 30
0.0
 11
1124.764833
 21
389.602123
 31
0.0
  0
LINE
  5
1E98B
100
AcDbEntity
  8
0
100
AcDbLine
 10
1124.264833
 20
400.220123
 30
0.0
 11
1124.764833
 21
399.736123
 31
0.0
  0
LINE
  5
1E98C
100
AcDbEntity
  8
0
100
AcDbLine
 10
1134.763833
 20
399.502123
 30
0.0
 11
1124.764833
 21
399.502123
 31
0.0
  0
LINE
  5
1E98D
100
AcDbEntity
  8
0
100
AcDbLine
 10
1137.773833
 20
489.603623
 30
0.0
 11
1137.773833
 21
589.602623
 31
0.0
  0
LINE
  5
1E98E
100
AcDbEntity
  8
0
100
AcDbLine
 10
1037.773833
 20
689.602623
 30
0.0
 11
1037.773833
 21
665.909781
 31
0.0
  0
LINE
  5
1E98F
100
AcDbEntity
  8
0
100
AcDbLine
 10
987.773833
 20
665.909781
 30
0.0
 11
987.773833
 21
689.564623
 31
0.0
  0
CIRCLE
  5
1E990
100
AcDbEntity
  8
0
100
AcDbCircle
 10
1012.773833
 20
689.602623
 30
0.0
 40
10.4775
  0
ARC
  5
1E991
100
AcDbEntity
  8
0
100
AcDbCircle
 10
1012.773833
 20
689.583623
 30
0.0
 40
25.000007
100
AcDbArc
 50
359.956455
 51
180.043545
  0
CIRCLE
  5
1E992
100
AcDbEntity
  8
0
100
AcDbCircle
 10
1012.773833
 20
689.602623
 30
0.0
 40
20.5001
  0
ARC
  5
1E993
100
AcDbEntity
  8
0
100
AcDbCircle
 10
983.773833
 20
665.909781
 30
0.0
 40
4.0
100
AcDbArc
 50
270.0
 51
0.0
  0
ARC
  5
1E994
100
AcDbEntity
  8
0
100
AcDbCircle
 10
1012.773833
 20
591.947431
 30
0.0
 40
74.0
100
AcDbArc
 50
74.413137
 51
105.586863
  0
ARC
  5
1E995
100
AcDbEntity
  8
0
100
AcDbCircle
 10
1041.773833
 20
665.909781
 30
0.0
 40
4.0
100
AcDbArc
 50
180.0
 51
270.0
  0
LINE
  5
1E996
100
AcDbEntity
  8
0
100
AcDbLine
 10
1021.773833
 20
717.171623
 30
0.0
 11
1021.773833
 21
746.602623
 31
0.0
  0
LINE
  5
1E997
100
AcDbEntity
  8
0
100
AcDbLine
 10
1003.773833
 20
746.602623
 30
0.0
 11
1003.773833
 21
717.171623
 31
0.0
  0
ARC
  5
1E998
100
AcDbEntity
  8
0
100
AcDbCircle
 10
1024.773938
 20
717.171617
 30
0.0
 40
3.000105
100
AcDbArc
 50
179.999879
 51
265.294618
  0
LINE
  5
1E999
100
AcDbEntity
  8
0
100
AcDbLine
 10
1012.773833
 20
698.918623
 30
0.0
 11
1003.458833
 21
689.602623
 31
0.0
  0
ARC
  5
1E99A
100
AcDbEntity
  8
0
100
AcDbCircle
 10
1000.773722
 20
717.171622
 30
0.0
 40
3.000111
100
AcDbArc
 50
274.705481
 51
0.000021
  0
LINE
  5
1E99B
100
AcDbEntity
  8
0
100
AcDbLine
 10
1003.458833
 20
689.602623
 30
0.0
 11
1012.773833
 21
680.287623
 31
0.0
  0
LINE
  5
1E99C
100
AcDbEntity
  8
0
100
AcDbLine
 10
1022.089833
 20
689.602623
 30
0.0
 11
1012.773833
 21
698.918623
 31
0.0
  0
CIRCLE
  5
1E99D
100
AcDbEntity
  8
0
100
AcDbCircle
 10
1012.773833
 20
689.602623
 30
0.0
 40
9.31549
  0
LINE
  5
1E99E
100
AcDbEntity
  8
0
100
AcDbLine
 10
1012.773833
 20
680.287623
 30
0.0
 11
1022.089833
 21
689.602623
 31
0.0
  0
LINE
  5
1E9B2
100
AcDbEntity
  8
0
100
AcDbLine
 10
1018.773833
 20
749.602623
 30
0.0
 11
1006.773833
 21
749.602623
 31
0.0
  0
ELLIPSE
  5
1E9B4
100
AcDbEntity
  8
0
100
AcDbEllipse
 10
1584.907882
 20
581.027623
 30
0.0
 11
55.52800000000001
 21
0.4859999999997627
 31
0.0
210
0.0
220
0.0
230
1.0
 40
0.438339
 41
4.708552509925306
 42
7.850145163515099
  0
LINE
  5
1E9B5
100
AcDbEntity
  8
0
100
AcDbLine
 10
1681.907882
 20
548.513623
 30
0.0
 11
1681.907882
 21
604.513623
 31
0.0
  0
LINE
  5
1E9B6
100
AcDbEntity
  8
0
100
AcDbLine
 10
1671.906882
 20
618.994623
 30
0.0
 11
1671.906882
 21
588.464623
 31
0.0
  0
LINE
  5
1E9B7
100
AcDbEntity
  8
0
100
AcDbLine
 10
1563.406882
 20
354.514623
 30
0.0
 11
1563.406882
 21
714.512623
 31
0.0
  0
LINE
  5
1E9B8
100
AcDbEntity
  8
0
100
AcDbLine
 10
1564.906882
 20
714.512623
 30
0.0
 11
1564.907882
 21
354.513623
 31
0.0
  0
LINE
  5
1E9B9
100
AcDbEntity
  8
0
100
AcDbLine
 10
1584.907882
 20
714.512623
 30
0.0
 11
1584.907882
 21
364.773623
 31
0.0
  0
LINE
  5
1E9BA
100
AcDbEntity
  8
0
100
AcDbLine
 10
1543.406882
 20
698.994623
 30
0.0
 11
1543.406882
 21
363.013623
 31
0.0
  0
ARC
  5
1E9BC
100
AcDbEntity
  8
0
100
AcDbCircle
 10
1445.406882
 20
589.512623
 30
0.0
 40
125.0
100
AcDbArc
 50
90.084271
 51
180.0
  0
ARC
  5
1E9C5
100
AcDbEntity
  8
0
100
AcDbCircle
 10
1445.406882
 20
389.512623
 30
0.0
 40
25.0
100
AcDbArc
 50
180.0
 51
0.512471
  0
LINE
  5
1E9C6
100
AcDbEntity
  8
0
100
AcDbLine
 10
1428.815882
 20
364.513623
 30
0.0
 11
1541.906882
 21
364.513623
 31
0.0
  0
ARC
  5
1E9C7
100
AcDbEntity
  8
0
100
AcDbCircle
 10
1445.406882
 20
489.512834
 30
0.0
 40
125.0
100
AcDbArc
 50
179.999638
 51
229.004481
  0
LINE
  5
1E9C8
100
AcDbEntity
  8
0
100
AcDbLine
 10
1323.407882
 20
399.412623
 30
0.0
 11
1333.406882
 21
399.412623
 31
0.0
  0
LINE
  5
1E9C9
100
AcDbEntity
  8
0
100
AcDbLine
 10
1323.407882
 20
389.512623
 30
0.0
 11
1333.406882
 21
389.512623
 31
0.0
  0
LINE
  5
1E9CA
100
AcDbEntity
  8
0
100
AcDbLine
 10
1333.406882
 20
379.613623
 30
0.0
 11
1323.407882
 21
379.613623
 31
0.0
  0
LINE
  5
1E9CB
100
AcDbEntity
  8
0
100
AcDbLine
 10
1323.407882
 20
379.613623
 30
0.0
 11
1323.407882
 21
399.412623
 31
0.0
  0
LINE
  5
1E9CC
100
AcDbEntity
  8
0
100
AcDbLine
 10
1373.406882
 20
341.012623
 30
0.0
 11
1373.406882
 21
363.013623
 31
0.0
  0
LINE
  5
1E9CD
100
AcDbEntity
  8
0
100
AcDbLine
 10
1363.406882
 20
363.013623
 30
0.0
 11
1363.406882
 21
341.012623
 31
0.0
  0
LINE
  5
1E9E2
100
AcDbEntity
  8
0
100
AcDbLine
 10
1364.906882
 20
339.512623
 30
0.0
 11
1371.906882
 21
339.512623
 31
0.0
  0
ARC
  5
1E9E3
100
AcDbEntity
  8
0
100
AcDbCircle
 10
1445.406882
 20
489.512834
 30
0.0
 40
125.0
100
AcDbArc
 50
234.830307
 51
269.448577
  0
LINE
  5
1E9E4
100
AcDbEntity
  8
0
100
AcDbLine
 10
1374.906882
 20
364.513623
 30
0.0
 11
1428.815882
 21
364.513623
 31
0.0
  0
LINE
  5
1E9E5
100
AcDbEntity
  8
0
100
AcDbLine
 10
1373.406882
 20
399.512623
 30
0.0
 11
1373.406882
 21
363.013623
 31
0.0
  0
LINE
  5
1E9E6
100
AcDbEntity
  8
0
100
AcDbLine
 10
1363.406882
 20
399.512623
 30
0.0
 11
1363.406882
 21
363.013623
 31
0.0
  0
LINE
  5
1E9E7
100
AcDbEntity
  8
0
100
AcDbLine
 10
1333.406882
 20
399.412623
 30
0.0
 11
1333.406882
 21
379.613623
 31
0.0
  0
LINE
  5
1E9E8
100
AcDbEntity
  8
0
100
AcDbLine
 10
1333.406882
 20
399.646623
 30
0.0
 11
1333.406882
 21
379.379623
 31
0.0
  0
LINE
  5
1E9E9
100
AcDbEntity
  8
0
100
AcDbLine
 10
1333.906882
 20
400.130623
 30
0.0
 11
1333.906882
 21
378.894623
 31
0.0
  0
LINE
  5
1E9EA
100
AcDbEntity
  8
0
100
AcDbLine
 10
1338.406882
 20
408.012623
 30
0.0
 11
1338.406882
 21
371.012623
 31
0.0
  0
LINE
  5
1E9EB
100
AcDbEntity
  8
0
100
AcDbLine
 10
1343.406882
 20
411.512623
 30
0.0
 11
1343.406882
 21
367.512623
 31
0.0
  0
LINE
  5
1E9EC
100
AcDbEntity
  8
0
100
AcDbLine
 10
1345.406882
 20
364.513623
 30
0.0
 11
1361.906882
 21
364.513623
 31
0.0
  0
LINE
  5
1E9ED
100
AcDbEntity
  8
0
100
AcDbLine
 10
1344.818882
 20
364.601623
 30
0.0
 11
1345.406882
 21
364.513623
 31
0.0
  0
LINE
  5
1E9EE
100
AcDbEntity
  8
0
100
AcDbLine
 10
1344.523882
 20
364.718623
 30
0.0
 11
1344.818882
 21
364.601623
 31
0.0
  0
LINE
  5
1E9EF
100
AcDbEntity
  8
0
100
AcDbLine
 10
1344.244882
 20
364.885623
 30
0.0
 11
1344.523882
 21
364.718623
 31
0.0
  0
LINE
  5
1E9F0
100
AcDbEntity
  8
0
100
AcDbLine
 10
1343.992882
 20
365.098623
 30
0.0
 11
1344.244882
 21
364.885623
 31
0.0
  0
LINE
  5
1E9F1
100
AcDbEntity
  8
0
100
AcDbLine
 10
1343.778882
 20
365.350623
 30
0.0
 11
1343.992882
 21
365.098623
 31
0.0
  0
LINE
  5
1E9F2
100
AcDbEntity
  8
0
100
AcDbLine
 10
1343.611882
 20
365.630623
 30
0.0
 11
1343.778882
 21
365.350623
 31
0.0
  0
LINE
  5
1E9F3
100
AcDbEntity
  8
0
100
AcDbLine
 10
1343.494882
 20
365.925623
 30
0.0
 11
1343.611882
 21
365.630623
 31
0.0
  0
LINE
  5
1E9F4
100
AcDbEntity
  8
0
100
AcDbLine
 10
1343.427882
 20
366.223623
 30
0.0
 11
1343.494882
 21
365.925623
 31
0.0
  0
LINE
  5
1E9F5
100
AcDbEntity
  8
0
100
AcDbLine
 10
1343.406882
 20
366.513623
 30
0.0
 11
1343.427882
 21
366.223623
 31
0.0
  0
LINE
  5
1E9F6
100
AcDbEntity
  8
0
100
AcDbLine
 10
1343.406882
 20
366.513623
 30
0.0
 11
1343.406882
 21
366.513623
 31
0.0
  0
LINE
  5
1E9F7
100
AcDbEntity
  8
0
100
AcDbLine
 10
1343.406882
 20
367.512623
 30
0.0
 11
1343.406882
 21
366.513623
 31
0.0
  0
LINE
  5
1EA0C
100
AcDbEntity
  8
0
100
AcDbLine
 10
1333.406882
 20
379.379623
 30
0.0
 11
1333.906882
 21
378.894623
 31
0.0
  0
LINE
  5
1EA0D
100
AcDbEntity
  8
0
100
AcDbLine
 10
1333.906882
 20
378.894623
 30
0.0
 11
1338.406882
 21
379.035623
 31
0.0
  0
LINE
  5
1EA0E
100
AcDbEntity
  8
0
100
AcDbLine
 10
1339.906882
 20
369.512623
 30
0.0
 11
1341.406882
 21
369.512623
 31
0.0
  0
LINE
  5
1EA0F
100
AcDbEntity
  8
0
100
AcDbLine
 10
1374.465882
 20
364.447623
 30
0.0
 11
1374.906882
 21
364.513623
 31
0.0
  0
LINE
  5
1EA10
100
AcDbEntity
  8
0
100
AcDbLine
 10
1374.244882
 20
364.359623
 30
0.0
 11
1374.465882
 21
364.447623
 31
0.0
  0
LINE
  5
1EA11
100
AcDbEntity
  8
0
100
AcDbLine
 10
1374.034882
 20
364.233623
 30
0.0
 11
1374.244882
 21
364.359623
 31
0.0
  0
LINE
  5
1EA12
100
AcDbEntity
  8
0
100
AcDbLine
 10
1373.845882
 20
364.073623
 30
0.0
 11
1374.034882
 21
364.233623
 31
0.0
  0
LINE
  5
1EA13
100
AcDbEntity
  8
0
100
AcDbLine
 10
1373.685882
 20
363.884623
 30
0.0
 11
1373.845882
 21
364.073623
 31
0.0
  0
LINE
  5
1EA14
100
AcDbEntity
  8
0
100
AcDbLine
 10
1373.560882
 20
363.675623
 30
0.0
 11
1373.685882
 21
363.884623
 31
0.0
  0
LINE
  5
1EA15
100
AcDbEntity
  8
0
100
AcDbLine
 10
1373.472882
 20
363.453623
 30
0.0
 11
1373.560882
 21
363.675623
 31
0.0
  0
LINE
  5
1EA16
100
AcDbEntity
  8
0
100
AcDbLine
 10
1373.422882
 20
363.230623
 30
0.0
 11
1373.472882
 21
363.453623
 31
0.0
  0
LINE
  5
1EA17
100
AcDbEntity
  8
0
100
AcDbLine
 10
1373.406882
 20
363.013623
 30
0.0
 11
1373.422882
 21
363.230623
 31
0.0
  0
LINE
  5
1EA18
100
AcDbEntity
  8
0
100
AcDbLine
 10
1373.406882
 20
363.013623
 30
0.0
 11
1373.406882
 21
363.013623
 31
0.0
  0
LINE
  5
1EA19
100
AcDbEntity
  8
0
100
AcDbLine
 10
1363.340882
 20
363.453623
 30
0.0
 11
1363.406882
 21
363.013623
 31
0.0
  0
LINE
  5
1EA1A
100
AcDbEntity
  8
0
100
AcDbLine
 10
1363.252882
 20
363.675623
 30
0.0
 11
1363.340882
 21
363.453623
 31
0.0
  0
LINE
  5
1EA1B
100
AcDbEntity
  8
0
100
AcDbLine
 10
1363.127882
 20
363.884623
 30
0.0
 11
1363.252882
 21
363.675623
 31
0.0
  0
LINE
  5
1EA1C
100
AcDbEntity
  8
0
100
AcDbLine
 10
1362.967882
 20
364.073623
 30
0.0
 11
1363.127882
 21
363.884623
 31
0.0
  0
LINE
  5
1EA1D
100
AcDbEntity
  8
0
100
AcDbLine
 10
1362.778882
 20
364.233623
 30
0.0
 11
1362.967882
 21
364.073623
 31
0.0
  0
LINE
  5
1EA1E
100
AcDbEntity
  8
0
100
AcDbLine
 10
1362.568882
 20
364.359623
 30
0.0
 11
1362.778882
 21
364.233623
 31
0.0
  0
LINE
  5
1EA1F
100
AcDbEntity
  8
0
100
AcDbLine
 10
1362.347882
 20
364.446623
 30
0.0
 11
1362.568882
 21
364.359623
 31
0.0
  0
LINE
  5
1EA20
100
AcDbEntity
  8
0
100
AcDbLine
 10
1362.123882
 20
364.497623
 30
0.0
 11
1362.347882
 21
364.446623
 31
0.0
  0
LINE
  5
1EA21
100
AcDbEntity
  8
0
100
AcDbLine
 10
1361.906882
 20
364.513623
 30
0.0
 11
1362.123882
 21
364.497623
 31
0.0
  0
LINE
  5
1EA22
100
AcDbEntity
  8
0
100
AcDbLine
 10
1361.906882
 20
364.513623
 30
0.0
 11
1361.906882
 21
364.513623
 31
0.0
  0
LINE
  5
1EA2C
100
AcDbEntity
  8
0
100
AcDbLine
 10
1343.406882
 20
416.307643
 30
0.0
 11
1343.406882
 21
411.512623
 31
0.0
  0
LINE
  5
1EA37
100
AcDbEntity
  8
0
100
AcDbLine
 10
1333.906882
 20
400.130623
 30
0.0
 11
1333.406882
 21
399.646623
 31
0.0
  0
LINE
  5
1EA38
100
AcDbEntity
  8
0
100
AcDbLine
 10
1338.406882
 20
399.990623
 30
0.0
 11
1333.906882
 21
400.130623
 31
0.0
  0
LINE
  5
1EA39
100
AcDbEntity
  8
0
100
AcDbLine
 10
1341.406882
 20
409.512623
 30
0.0
 11
1339.906882
 21
409.512623
 31
0.0
  0
LINE
  5
1EA3A
100
AcDbEntity
  8
0
100
AcDbLine
 10
1436.090882
 20
389.512623
 30
0.0
 11
1445.406882
 21
398.828623
 31
0.0
  0
LINE
  5
1EA3B
100
AcDbEntity
  8
0
100
AcDbLine
 10
1445.406882
 20
398.828623
 30
0.0
 11
1454.721882
 21
389.512623
 31
0.0
  0
CIRCLE
  5
1EA3C
100
AcDbEntity
  8
0
100
AcDbCircle
 10
1445.406882
 20
389.512623
 30
0.0
 40
9.31549
  0
LINE
  5
1EA3D
100
AcDbEntity
  8
0
100
AcDbLine
 10
1420.406882
 20
417.257623
 30
0.0
 11
1420.406882
 21
389.512623
 31
0.0
  0
LINE
  5
1EA3E
100
AcDbEntity
  8
0
100
AcDbLine
 10
1445.406882
 20
380.197623
 30
0.0
 11
1436.090882
 21
389.512623
 31
0.0
  0
LINE
  5
1EA3F
100
AcDbEntity
  8
0
100
AcDbLine
 10
1454.721882
 20
389.512623
 30
0.0
 11
1445.406882
 21
380.197623
 31
0.0
  0
LINE
  5
1EA40
100
AcDbEntity
  8
0
100
AcDbLine
 10
1320.406882
 20
529.512623
 30
0.0
 11
1320.406882
 21
489.513623
 31
0.0
  0
LINE
  5
1EA41
100
AcDbEntity
  8
0
100
AcDbLine
 10
1320.406882
 20
589.512623
 30
0.0
 11
1320.416882
 21
529.512623
 31
0.0
  0
LINE
  5
1EA63
100
AcDbEntity
  8
0
100
AcDbLine
 10
1671.906882
 20
434.562623
 30
0.0
 11
1671.906882
 21
402.697623
 31
0.0
  0
LINE
  5
1EA64
100
AcDbEntity
  8
0
100
AcDbLine
 10
1528.839882
 20
438.996623
 30
0.0
 11
1485.879882
 21
383.738623
 31
0.0
  0
LINE
  5
1EA65
100
AcDbEntity
  8
0
100
AcDbLine
 10
1681.907882
 20
418.513623
 30
0.0
 11
1681.907882
 21
474.513623
 31
0.0
  0
ELLIPSE
  5
1EA66
100
AcDbEntity
  8
0
100
AcDbEllipse
 10
1584.907882
 20
401.982623
 30
0.0
 11
55.51784521893169
 21
0.0
 31
0.0
210
0.0
220
0.0
230
1.0
 40
0.553282
 41
4.712388980384689
 42
6.283185307179586
  0
ELLIPSE
  5
1EA67
100
AcDbEntity
  8
0
100
AcDbEllipse
 10
1584.907882
 20
401.982623
 30
0.0
 11
55.52800000000002
 21
0.0
 31
0.0
210
0.0
220
0.0
230
1.0
 40
0.072828
 41
4.712388980384689
 42
6.283185307179586
  0
ARC
  5
1EA68
100
AcDbEntity
  8
0
100
AcDbCircle
 10
1571.907233
 20
465.665284
 30
0.0
 40
100.0
100
AcDbArc
 50
278.456964
 51
333.202627
  0
LINE
  5
1EA69
100
AcDbEntity
  8
0
100
AcDbLine
 10
1579.907882
 20
352.513623
 30
0.0
 11
1579.907882
 21
341.513623
 31
0.0
  0
LINE
  5
1EA6A
100
AcDbEntity
  8
0
100
AcDbLine
 10
1558.406882
 20
341.012623
 30
0.0
 11
1558.406882
 21
353.014623
 31
0.0
  0
LINE
  5
1EA6B
100
AcDbEntity
  8
0
100
AcDbLine
 10
1564.907882
 20
339.513623
 30
0.0
 11
1564.907882
 21
354.513623
 31
0.0
  0
LINE
  5
1EA6C
100
AcDbEntity
  8
0
100
AcDbLine
 10
1543.406882
 20
363.013623
 30
0.0
 11
1543.406882
 21
341.012623
 31
0.0
  0
LINE
  5
1EA81
100
AcDbEntity
  8
0
100
AcDbLine
 10
1544.906882
 20
339.512623
 30
0.0
 11
1556.906882
 21
339.512623
 31
0.0
  0
LINE
  5
1EA8D
100
AcDbEntity
  8
0
100
AcDbLine
 10
1577.907882
 20
339.513623
 30
0.0
 11
1564.907882
 21
339.513623
 31
0.0
  0
LINE
  5
1EA8E
100
AcDbEntity
  8
0
100
AcDbLine
 10
1543.406882
 20
391.517623
 30
0.0
 11
1526.732882
 21
391.517623
 31
0.0
  0
LINE
  5
1EA8F
100
AcDbEntity
  8
0
100
AcDbLine
 10
1543.406882
 20
369.681623
 30
0.0
 11
1526.732882
 21
369.681623
 31
0.0
  0
LINE
  5
1EA90
100
AcDbEntity
  8
0
100
AcDbLine
 10
1470.405882
 20
389.554623
 30
0.0
 11
1470.405882
 21
417.257623
 31
0.0
  0
ARC
  5
1EA91
100
AcDbEntity
  8
0
100
AcDbCircle
 10
1588.086734
 20
395.904752
 30
0.0
 40
6.538791
100
AcDbArc
 50
327.998991
 51
18.657915
  0
LINE
  5
1EA92
100
AcDbEntity
  8
0
100
AcDbLine
 10
1594.907882
 20
373.865623
 30
0.0
 11
1594.907882
 21
397.159623
 31
0.0
  0
LINE
  5
1EA93
100
AcDbEntity
  8
0
100
AcDbLine
 10
1558.406882
 20
353.014623
 30
0.0
 11
1558.406882
 21
399.512623
 31
0.0
  0
LINE
  5
1EA94
100
AcDbEntity
  8
0
100
AcDbLine
 10
1543.340882
 20
363.453623
 30
0.0
 11
1543.406882
 21
363.013623
 31
0.0
  0
LINE
  5
1EA95
100
AcDbEntity
  8
0
100
AcDbLine
 10
1543.252882
 20
363.674623
 30
0.0
 11
1543.340882
 21
363.453623
 31
0.0
  0
LINE
  5
1EA96
100
AcDbEntity
  8
0
100
AcDbLine
 10
1543.127882
 20
363.884623
 30
0.0
 11
1543.252882
 21
363.674623
 31
0.0
  0
LINE
  5
1EA97
100
AcDbEntity
  8
0
100
AcDbLine
 10
1559.906882
 20
354.514623
 30
0.0
 11
1563.406882
 21
354.514623
 31
0.0
  0
LINE
  5
1EAA2
100
AcDbEntity
  8
0
100
AcDbLine
 10
1542.778882
 20
364.233623
 30
0.0
 11
1542.967882
 21
364.073623
 31
0.0
  0
LINE
  5
1EAA3
100
AcDbEntity
  8
0
100
AcDbLine
 10
1542.568882
 20
364.359623
 30
0.0
 11
1542.778882
 21
364.233623
 31
0.0
  0
LINE
  5
1EAA4
100
AcDbEntity
  8
0
100
AcDbLine
 10
1542.347882
 20
364.446623
 30
0.0
 11
1542.568882
 21
364.359623
 31
0.0
  0
LINE
  5
1EAA5
100
AcDbEntity
  8
0
100
AcDbLine
 10
1542.123882
 20
364.497623
 30
0.0
 11
1542.347882
 21
364.446623
 31
0.0
  0
LINE
  5
1EAA6
100
AcDbEntity
  8
0
100
AcDbLine
 10
1541.906882
 20
364.513623
 30
0.0
 11
1542.123882
 21
364.497623
 31
0.0
  0
LINE
  5
1EAA7
100
AcDbEntity
  8
0
100
AcDbLine
 10
1541.906882
 20
364.513623
 30
0.0
 11
1541.906882
 21
364.513623
 31
0.0
  0
LINE
  5
1EAA8
100
AcDbEntity
  8
0
100
AcDbLine
 10
1542.967882
 20
364.073623
 30
0.0
 11
1543.127882
 21
363.884623
 31
0.0
  0
LINE
  5
1EAA9
100
AcDbEntity
  8
0
100
AcDbLine
 10
1593.631882
 20
392.439623
 30
0.0
 11
1584.907882
 21
392.439623
 31
0.0
  0
ARC
  5
1EAAA
100
AcDbEntity
  8
0
100
AcDbCircle
 10
1586.90836
 20
364.773938
 30
0.0
 40
2.000478
100
AcDbArc
 50
98.464922
 51
180.009013
  0
LINE
  5
1EAAB
100
AcDbEntity
  8
0
100
AcDbLine
 10
1593.631882
 20
371.656623
 30
0.0
 11
1594.907882
 21
373.865623
 31
0.0
  0
LINE
  5
1EAAC
100
AcDbEntity
  8
0
100
AcDbLine
 10
1584.907882
 20
371.656623
 30
0.0
 11
1593.631882
 21
371.656623
 31
0.0
  0
LINE
  5
1EAAD
100
AcDbEntity
  8
0
100
AcDbLine
 10
1593.631882
 20
378.585623
 30
0.0
 11
1584.907882
 21
378.585623
 31
0.0
  0
ARC
  5
1EAAE
100
AcDbEntity
  8
0
100
AcDbCircle
 10
1588.086828
 20
375.120623
 30
0.0
 40
6.538643
100
AcDbArc
 50
327.999511
 51
32.000489
  0
ARC
  5
1EAAF
100
AcDbEntity
  8
0
100
AcDbCircle
 10
1569.973766
 20
385.512623
 30
0.0
 40
24.651365
100
AcDbArc
 50
343.680185
 51
16.319815
  0
LINE
  5
1EAC5
100
AcDbEntity
  8
0
100
AcDbLine
 10
1584.907882
 20
356.513623
 30
0.0
 11
1584.907882
 21
364.773623
 31
0.0
  0
LINE
  5
1EAC6
100
AcDbEntity
  8
0
100
AcDbLine
 10
1564.907882
 20
354.513623
 30
0.0
 11
1582.907882
 21
354.513623
 31
0.0
  0
LINE
  5
1EAC7
100
AcDbEntity
  8
0
100
AcDbLine
 10
1594.907882
 20
397.159623
 30
0.0
 11
1594.423882
 21
397.997623
 31
0.0
  0
LINE
  5
1EAC8
100
AcDbEntity
  8
0
100
AcDbLine
 10
1647.062882
 20
399.697623
 30
0.0
 11
1668.906882
 21
399.697623
 31
0.0
  0
LINE
  5
1EAC9
100
AcDbEntity
  8
0
100
AcDbLine
 10
1668.906882
 20
399.697623
 30
0.0
 11
1647.062882
 21
399.697623
 31
0.0
  0
LINE
  5
1EACA
100
AcDbEntity
  8
0
100
AcDbLine
 10
1679.907882
 20
416.513623
 30
0.0
 11
1681.907882
 21
418.513623
 31
0.0
  0
LINE
  5
1EACB
100
AcDbEntity
  8
0
100
AcDbLine
 10
1671.906882
 20
416.513623
 30
0.0
 11
1679.907882
 21
416.513623
 31
0.0
  0
LINE
  5
1EAE0
100
AcDbEntity
  8
0
100
AcDbLine
 10
1671.906882
 20
402.697623
 30
0.0
 11
1671.906882
 21
416.513623
 31
0.0
  0
ELLIPSE
  5
1EAE1
100
AcDbEntity
  8
0
100
AcDbEllipse
 10
1584.907882
 20
476.856123
 30
0.0
 11
55.52800000000002
 21
-0.3974999999999226
 31
0.0
210
0.0
220
0.0
230
0.9999999999999998
 40
0.424325
 41
4.71542652016781
 42
7.857019173757604
  0
LINE
  5
1EAE2
100
AcDbEntity
  8
0
100
AcDbLine
 10
1543.406882
 20
460.457623
 30
0.0
 11
1504.302882
 21
460.457623
 31
0.0
  0
LINE
  5
1EAE3
100
AcDbEntity
  8
0
100
AcDbLine
 10
1543.406882
 20
492.457623
 30
0.0
 11
1504.302882
 21
492.457623
 31
0.0
  0
LINE
  5
1EAE4
100
AcDbEntity
  8
0
100
AcDbLine
 10
1594.907882
 20
464.910623
 30
0.0
 11
1594.907882
 21
488.204623
 31
0.0
  0
ARC
  5
1EAE5
100
AcDbEntity
  8
0
100
AcDbCircle
 10
1569.973938
 20
476.557623
 30
0.0
 40
24.6512
100
AcDbArc
 50
343.680072
 51
16.319928
  0
LINE
  5
1EAE6
100
AcDbEntity
  8
0
100
AcDbLine
 10
1593.631882
 20
462.701623
 30
0.0
 11
1594.907882
 21
464.910623
 31
0.0
  0
LINE
  5
1EAE7
100
AcDbEntity
  8
0
100
AcDbLine
 10
1584.907882
 20
462.701623
 30
0.0
 11
1593.631882
 21
462.701623
 31
0.0
  0
LINE
  5
1EAE8
100
AcDbEntity
  8
0
100
AcDbLine
 10
1593.631882
 20
469.630623
 30
0.0
 11
1584.907882
 21
469.630623
 31
0.0
  0
ARC
  5
1EAE9
100
AcDbEntity
  8
0
100
AcDbCircle
 10
1588.086851
 20
466.165623
 30
0.0
 40
6.538623
100
AcDbArc
 50
327.999406
 51
32.000594
  0
LINE
  5
1EAEA
100
AcDbEntity
  8
0
100
AcDbLine
 10
1593.631882
 20
490.414623
 30
0.0
 11
1584.907882
 21
490.414623
 31
0.0
  0
LINE
  5
1EAEB
100
AcDbEntity
  8
0
100
AcDbLine
 10
1594.907882
 20
488.204623
 30
0.0
 11
1593.631882
 21
490.414623
 31
0.0
  0
LINE
  5
1EAEC
100
AcDbEntity
  8
0
100
AcDbLine
 10
1593.631882
 20
483.484623
 30
0.0
 11
1584.907882
 21
483.484623
 31
0.0
  0
ARC
  5
1EAED
100
AcDbEntity
  8
0
100
AcDbCircle
 10
1588.086851
 20
486.949623
 30
0.0
 40
6.538623
100
AcDbArc
 50
327.999406
 51
32.000594
  0
LINE
  5
1EAEE
100
AcDbEntity
  8
0
100
AcDbLine
 10
1543.406882
 20
565.511623
 30
0.0
 11
1504.302882
 21
565.511623
 31
0.0
  0
LINE
  5
1EAEF
100
AcDbEntity
  8
0
100
AcDbLine
 10
1543.406882
 20
597.511623
 30
0.0
 11
1504.302882
 21
597.511623
 31
0.0
  0
LINE
  5
1EAFB
100
AcDbEntity
  8
0
100
AcDbLine
 10
1593.631882
 20
595.368623
 30
0.0
 11
1584.907882
 21
595.368623
 31
0.0
  0
LINE
  5
1EAFC
100
AcDbEntity
  8
0
100
AcDbLine
 10
1593.631882
 20
588.438623
 30
0.0
 11
1584.907882
 21
588.438623
 31
0.0
  0
LINE
  5
1EAFD
100
AcDbEntity
  8
0
100
AcDbLine
 10
1593.631882
 20
574.584623
 30
0.0
 11
1584.907882
 21
574.584623
 31
0.0
  0
ARC
  5
1EAFE
100
AcDbEntity
  8
0
100
AcDbCircle
 10
1569.973766
 20
581.511623
 30
0.0
 40
24.651365
100
AcDbArc
 50
343.680185
 51
16.319815
  0
LINE
  5
1EAFF
100
AcDbEntity
  8
0
100
AcDbLine
 10
1593.631882
 20
567.655623
 30
0.0
 11
1594.907882
 21
569.864623
 31
0.0
  0
LINE
  5
1EB00
100
AcDbEntity
  8
0
100
AcDbLine
 10
1584.907882
 20
567.655623
 30
0.0
 11
1593.631882
 21
567.655623
 31
0.0
  0
LINE
  5
1EB01
100
AcDbEntity
  8
0
100
AcDbLine
 10
1594.907882
 20
569.864623
 30
0.0
 11
1594.907882
 21
593.158623
 31
0.0
  0
ARC
  5
1EB02
100
AcDbEntity
  8
0
100
AcDbCircle
 10
1588.086828
 20
571.119623
 30
0.0
 40
6.538643
100
AcDbArc
 50
327.999511
 51
32.000489
  0
LINE
  5
1EB03
100
AcDbEntity
  8
0
100
AcDbLine
 10
1594.907882
 20
593.158623
 30
0.0
 11
1593.631882
 21
595.368623
 31
0.0
  0
ARC
  5
1EB04
100
AcDbEntity
  8
0
100
AcDbCircle
 10
1588.086828
 20
591.903623
 30
0.0
 40
6.538643
100
AcDbArc
 50
327.999511
 51
32.000489
  0
LINE
  5
1EB05
100
AcDbEntity
  8
0
100
AcDbLine
 10
1671.906882
 20
479.670623
 30
0.0
 11
1671.907882
 21
543.355623
 31
0.0
  0
LINE
  5
1EB06
100
AcDbEntity
  8
0
100
AcDbLine
 10
1671.907882
 20
526.513623
 30
0.0
 11
1671.906882
 21
496.513623
 31
0.0
  0
LINE
  5
1EB07
100
AcDbEntity
  8
0
100
AcDbLine
 10
1656.904882
 20
560.986623
 30
0.0
 11
1656.904882
 21
496.986623
 31
0.0
  0
LINE
  5
1EB08
100
AcDbEntity
  8
0
100
AcDbLine
 10
1661.546882
 20
493.329623
 30
0.0
 11
1668.906882
 21
493.329623
 31
0.0
  0
LINE
  5
1EB09
100
AcDbEntity
  8
0
100
AcDbLine
 10
1668.906882
 20
455.464623
 30
0.0
 11
1661.546882
 21
455.464623
 31
0.0
  0
LINE
  5
1EB0A
100
AcDbEntity
  8
0
100
AcDbLine
 10
1661.546882
 20
437.562623
 30
0.0
 11
1668.906882
 21
437.562623
 31
0.0
  0
LINE
  5
1EB15
100
AcDbEntity
  8
0
100
AcDbLine
 10
1653.904882
 20
493.986623
 30
0.0
 11
1637.090882
 21
493.986623
 31
0.0
  0
LINE
  5
1EB16
100
AcDbEntity
  8
0
100
AcDbLine
 10
1681.907882
 20
474.513623
 30
0.0
 11
1679.907882
 21
476.513623
 31
0.0
  0
LINE
  5
1EB17
100
AcDbEntity
  8
0
100
AcDbLine
 10
1671.906882
 20
490.329623
 30
0.0
 11
1671.906882
 21
458.464623
 31
0.0
  0
LINE
  5
1EB2C
100
AcDbEntity
  8
0
100
AcDbLine
 10
1668.906882
 20
455.464623
 30
0.0
 11
1668.906882
 21
437.562623
 31
0.0
  0
LINE
  5
1EB31
100
AcDbEntity
  8
0
100
AcDbLine
 10
1668.907882
 20
494.513623
 30
0.0
 11
1668.907882
 21
493.329623
 31
0.0
  0
LINE
  5
1EB3C
100
AcDbEntity
  8
0
100
AcDbLine
 10
1671.906882
 20
496.513623
 30
0.0
 11
1670.907882
 21
496.513623
 31
0.0
  0
LINE
  5
1EB4C
100
AcDbEntity
  8
0
100
AcDbLine
 10
1679.907882
 20
476.513623
 30
0.0
 11
1675.064882
 21
476.513623
 31
0.0
  0
LINE
  5
1EB4E
100
AcDbEntity
  8
0
100
AcDbLine
 10
1668.906882
 20
585.464623
 30
0.0
 11
1661.546882
 21
585.464623
 31
0.0
  0
LINE
  5
1EB4F
100
AcDbEntity
  8
0
100
AcDbLine
 10
1661.546882
 20
567.562623
 30
0.0
 11
1668.906882
 21
567.562623
 31
0.0
  0
LINE
  5
1EB50
100
AcDbEntity
  8
0
100
AcDbLine
 10
1668.907882
 20
529.697623
 30
0.0
 11
1661.546882
 21
529.697623
 31
0.0
  0
LINE
  5
1EB5B
100
AcDbEntity
  8
0
100
AcDbLine
 10
1637.090882
 20
563.986623
 30
0.0
 11
1653.904882
 21
563.986623
 31
0.0
  0
LINE
  5
1EB5C
100
AcDbEntity
  8
0
100
AcDbLine
 10
1671.906882
 20
564.562717
 30
0.0
 11
1671.907882
 21
532.697623
 31
0.0
  0
LINE
  5
1EB5D
100
AcDbEntity
  8
0
100
AcDbLine
 10
1675.065882
 20
546.512623
 30
0.0
 11
1679.907882
 21
546.513623
 31
0.0
  0
LINE
  5
1EB68
100
AcDbEntity
  8
0
100
AcDbLine
 10
1670.907882
 20
526.513623
 30
0.0
 11
1671.907882
 21
526.513623
 31
0.0
  0
LINE
  5
1EB73
100
AcDbEntity
  8
0
100
AcDbLine
 10
1668.907882
 20
529.697623
 30
0.0
 11
1668.907882
 21
528.513623
 31
0.0
  0
LINE
  5
1EB7F
100
AcDbEntity
  8
0
100
AcDbLine
 10
1679.907882
 20
546.513623
 30
0.0
 11
1681.907882
 21
548.513623
 31
0.0
  0
LINE
  5
1EB94
100
AcDbEntity
  8
0
100
AcDbLine
 10
1668.906882
 20
585.464623
 30
0.0
 11
1668.906882
 21
567.562623
 31
0.0
  0
ARC
  5
1EB95
100
AcDbEntity
  8
0
100
AcDbCircle
 10
1460.906882
 20
724.512623
 30
0.0
 40
10.0
100
AcDbArc
 50
270.000494
 51
0.0
  0
LINE
  5
1EB96
100
AcDbEntity
  8
0
100
AcDbLine
 10
1323.407882
 20
699.412623
 30
0.0
 11
1333.406882
 21
699.412623
 31
0.0
  0
LINE
  5
1EB97
100
AcDbEntity
  8
0
100
AcDbLine
 10
1323.407882
 20
689.512623
 30
0.0
 11
1333.406882
 21
689.512623
 31
0.0
  0
LINE
  5
1EB98
100
AcDbEntity
  8
0
100
AcDbLine
 10
1333.406882
 20
679.613623
 30
0.0
 11
1323.407882
 21
679.613623
 31
0.0
  0
LINE
  5
1EB99
100
AcDbEntity
  8
0
100
AcDbLine
 10
1323.407882
 20
679.613623
 30
0.0
 11
1323.407882
 21
699.412623
 31
0.0
  0
LINE
  5
1EB9A
100
AcDbEntity
  8
0
100
AcDbLine
 10
1338.406882
 20
707.512623
 30
0.0
 11
1338.406882
 21
671.512623
 31
0.0
  0
LINE
  5
1EB9B
100
AcDbEntity
  8
0
100
AcDbLine
 10
1333.406882
 20
699.412623
 30
0.0
 11
1333.406882
 21
679.613623
 31
0.0
  0
LINE
  5
1EB9C
100
AcDbEntity
  8
0
100
AcDbLine
 10
1333.406882
 20
699.646623
 30
0.0
 11
1333.406882
 21
679.379623
 31
0.0
  0
LINE
  5
1EB9D
100
AcDbEntity
  8
0
100
AcDbLine
 10
1333.906882
 20
700.130623
 30
0.0
 11
1333.906882
 21
678.894623
 31
0.0
  0
LINE
  5
1EB9E
100
AcDbEntity
  8
0
100
AcDbLine
 10
1343.406882
 20
711.512623
 30
0.0
 11
1343.406882
 21
667.512623
 31
0.0
  0
LINE
  5
1EBAA
100
AcDbEntity
  8
0
100
AcDbLine
 10
1343.406882
 20
667.512623
 30
0.0
 11
1343.406882
 21
662.717814
 31
0.0
  0
LINE
  5
1EBB4
100
AcDbEntity
  8
0
100
AcDbLine
 10
1333.406882
 20
679.379623
 30
0.0
 11
1333.906882
 21
678.894623
 31
0.0
  0
LINE
  5
1EBB5
100
AcDbEntity
  8
0
100
AcDbLine
 10
1333.906882
 20
678.894623
 30
0.0
 11
1338.406882
 21
679.035623
 31
0.0
  0
LINE
  5
1EBB9
100
AcDbEntity
  8
0
100
AcDbLine
 10
1460.906968
 20
714.512623
 30
0.0
 11
1344.906869
 21
714.511623
 31
0.0
  0
LINE
  5
1EBBC
100
AcDbEntity
  8
0
100
AcDbLine
 10
1341.406882
 20
709.512623
 30
0.0
 11
1340.406882
 21
709.512623
 31
0.0
  0
LINE
  5
1EBC7
100
AcDbEntity
  8
0
100
AcDbLine
 10
1343.406882
 20
713.011623
 30
0.0
 11
1343.406882
 21
711.512623
 31
0.0
  0
LINE
  5
1EBD6
100
AcDbEntity
  8
0
100
AcDbLine
 10
1338.992882
 20
708.927623
 30
0.0
 11
1338.778882
 21
708.674623
 31
0.0
  0
LINE
  5
1EBD8
100
AcDbEntity
  8
0
100
AcDbLine
 10
1333.906882
 20
700.130623
 30
0.0
 11
1333.406882
 21
699.646623
 31
0.0
  0
LINE
  5
1EBD9
100
AcDbEntity
  8
0
100
AcDbLine
 10
1338.406882
 20
699.990623
 30
0.0
 11
1333.906882
 21
700.130623
 31
0.0
  0
LINE
  5
1EBDC
100
AcDbEntity
  8
0
100
AcDbLine
 10
1579.977882
 20
729.512623
 30
0.0
 11
1599.776882
 21
729.512623
 31
0.0
  0
LINE
  5
1EBDD
100
AcDbEntity
  8
0
100
AcDbLine
 10
1599.776882
 20
719.513623
 30
0.0
 11
1579.977882
 21
719.513623
 31
0.0
  0
LINE
  5
1EBDE
100
AcDbEntity
  8
0
100
AcDbLine
 10
1600.010882
 20
719.513623
 30
0.0
 11
1579.743882
 21
719.513623
 31
0.0
  0
LINE
  5
1EBDF
100
AcDbEntity
  8
0
100
AcDbLine
 10
1600.495882
 20
719.013623
 30
0.0
 11
1579.259882
 21
719.013623
 31
0.0
  0
ELLIPSE
  5
1EBE0
100
AcDbEntity
  8
0
100
AcDbEllipse
 10
1584.907882
 20
662.320623
 30
0.0
 11
-55.52800000000002
 21
0.0
 31
0.0
210
0.0
220
0.0
230
1.0
 40
0.553342
 41
3.141592653589793
 42
4.712388980384689
  0
ELLIPSE
  5
1EBE1
100
AcDbEntity
  8
0
100
AcDbEllipse
 10
1584.907882
 20
662.320623
 30
0.0
 11
-55.52800000000002
 21
0.0
 31
0.0
210
0.0
220
0.0
230
1.0
 40
0.017685
 41
3.141592653589793
 42
4.712388980384689
  0
ARC
  5
1EBE2
100
AcDbEntity
  8
0
100
AcDbCircle
 10
1571.905597
 20
603.361876
 30
0.0
 40
100.0
100
AcDbArc
 50
17.021916
 51
81.062159
  0
LINE
  5
1EBE3
100
AcDbEntity
  8
0
100
AcDbLine
 10
1657.377882
 20
714.512623
 30
0.0
 11
1564.906882
 21
714.512623
 31
0.0
  0
ARC
  5
1EBE4
100
AcDbEntity
  8
0
100
AcDbCircle
 10
1569.97223
 20
677.592123
 30
0.0
 40
24.65298
100
AcDbArc
 50
343.680072
 51
16.319928
  0
LINE
  5
1EBE5
100
AcDbEntity
  8
0
100
AcDbLine
 10
1594.907882
 20
665.945623
 30
0.0
 11
1594.907882
 21
689.239623
 31
0.0
  0
LINE
  5
1EBE6
100
AcDbEntity
  8
0
100
AcDbLine
 10
1476.972882
 20
700.415623
 30
0.0
 11
1528.839882
 21
614.947623
 31
0.0
  0
LINE
  5
1EBE7
100
AcDbEntity
  8
0
100
AcDbLine
 10
1543.406882
 20
676.084623
 30
0.0
 11
1528.823882
 21
676.084623
 31
0.0
  0
LINE
  5
1EBE9
100
AcDbEntity
  8
0
100
AcDbLine
 10
1593.631882
 20
663.735623
 30
0.0
 11
1594.907882
 21
665.945623
 31
0.0
  0
LINE
  5
1EBEA
100
AcDbEntity
  8
0
100
AcDbLine
 10
1584.907882
 20
663.735623
 30
0.0
 11
1593.631882
 21
663.735623
 31
0.0
  0
LINE
  5
1EBEB
100
AcDbEntity
  8
0
100
AcDbLine
 10
1593.631882
 20
670.664623
 30
0.0
 11
1584.907882
 21
670.664623
 31
0.0
  0
ARC
  5
1EBEC
100
AcDbEntity
  8
0
100
AcDbCircle
 10
1588.087651
 20
667.200123
 30
0.0
 40
6.53768
100
AcDbArc
 50
327.999406
 51
32.000594
  0
LINE
  5
1EBED
100
AcDbEntity
  8
0
100
AcDbLine
 10
1543.406882
 20
693.592623
 30
0.0
 11
1528.823882
 21
693.592623
 31
0.0
  0
LINE
  5
1EBEE
100
AcDbEntity
  8
0
100
AcDbLine
 10
1563.406882
 20
714.512623
 30
0.0
 11
1525.810586
 21
714.512623
 31
0.0
  0
ARC
  5
1EBEF
100
AcDbEntity
  8
0
100
AcDbCircle
 10
1525.906882
 20
724.512623
 30
0.0
 40
10.0
100
AcDbArc
 50
180.0
 51
269.999506
  0
CIRCLE
  5
1EBF0
100
AcDbEntity
  8
0
100
AcDbCircle
 10
1493.406882
 20
727.012623
 30
0.0
 40
12.5
  0
ARC
  5
1EBF1
100
AcDbEntity
  8
0
100
AcDbCircle
 10
1493.406882
 20
727.012623
 30
0.0
 40
22.5
100
AcDbArc
 50
0.0
 51
180.0
  0
LINE
  5
1EBF2
100
AcDbEntity
  8
0
100
AcDbLine
 10
1470.906882
 20
724.512623
 30
0.0
 11
1470.906882
 21
727.012623
 31
0.0
  0
LINE
  5
1EBF3
100
AcDbEntity
  8
0
100
AcDbLine
 10
1515.906882
 20
724.512623
 30
0.0
 11
1515.906882
 21
727.012623
 31
0.0
  0
LINE
  5
1EBF4
100
AcDbEntity
  8
0
100
AcDbLine
 10
1589.877882
 20
729.512623
 30
0.0
 11
1589.877882
 21
719.513623
 31
0.0
  0
LINE
  5
1EBF5
100
AcDbEntity
  8
0
100
AcDbLine
 10
1579.977882
 20
719.513623
 30
0.0
 11
1579.977882
 21
729.512623
 31
0.0
  0
LINE
  5
1EBF7
100
AcDbEntity
  8
0
100
AcDbLine
 10
1587.441882
 20
702.147623
 30
0.0
 11
1587.441882
 21
702.147623
 31
0.0
  0
ARC
  5
1EBF8
100
AcDbEntity
  8
0
100
AcDbCircle
 10
1587.907583
 20
705.110954
 30
0.0
 40
2.999701
100
AcDbArc
 50
180.006319
 51
261.068752
  0
LINE
  5
1EBF9
100
AcDbEntity
  8
0
100
AcDbLine
 10
1593.631882
 20
691.448623
 30
0.0
 11
1584.907882
 21
691.448623
 31
0.0
  0
LINE
  5
1EBFA
100
AcDbEntity
  8
0
100
AcDbLine
 10
1594.907882
 20
689.239623
 30
0.0
 11
1593.631882
 21
691.448623
 31
0.0
  0
LINE
  5
1EBFB
100
AcDbEntity
  8
0
100
AcDbLine
 10
1584.907882
 20
714.512623
 30
0.0
 11
1584.907882
 21
705.110623
 31
0.0
  0
LINE
  5
1EBFC
100
AcDbEntity
  8
0
100
AcDbLine
 10
1593.631882
 20
684.519623
 30
0.0
 11
1584.907882
 21
684.519623
 31
0.0
  0
ARC
  5
1EBFD
100
AcDbEntity
  8
0
100
AcDbCircle
 10
1588.087651
 20
687.984123
 30
0.0
 40
6.53768
100
AcDbArc
 50
327.999406
 51
32.000594
  0
LINE
  5
1EBFE
100
AcDbEntity
  8
0
100
AcDbLine
 10
1579.259882
 20
719.013623
 30
0.0
 11
1579.399882
 21
714.513623
 31
0.0
  0
LINE
  5
1EBFF
100
AcDbEntity
  8
0
100
AcDbLine
 10
1579.743882
 20
719.513623
 30
0.0
 11
1579.259882
 21
719.013623
 31
0.0
  0
LINE
  5
1EC00
100
AcDbEntity
  8
0
100
AcDbLine
 10
1660.377882
 20
674.513623
 30
0.0
 11
1660.377882
 21
711.513623
 31
0.0
  0
LINE
  5
1EC01
100
AcDbEntity
  8
0
100
AcDbLine
 10
1658.377882
 20
712.513623
 30
0.0
 11
1658.377882
 21
671.513623
 31
0.0
  0
LINE
  5
1EC02
100
AcDbEntity
  8
0
100
AcDbLine
 10
1661.546882
 20
621.994623
 30
0.0
 11
1668.906882
 21
621.994623
 31
0.0
  0
LINE
  5
1EC03
100
AcDbEntity
  8
0
100
AcDbLine
 10
1672.065882
 20
664.663623
 30
0.0
 11
1658.115882
 21
665.402623
 31
0.0
  0
LINE
  5
1EC04
100
AcDbEntity
  8
0
100
AcDbLine
 10
1660.377882
 20
671.513623
 30
0.0
 11
1660.377882
 21
674.513623
 31
0.0
  0
LINE
  5
1EC0F
100
AcDbEntity
  8
0
100
AcDbLine
 10
1655.377882
 20
668.391623
 30
0.0
 11
1655.377882
 21
669.513623
 31
0.0
  0
LINE
  5
1EC1B
100
AcDbEntity
  8
0
100
AcDbLine
 10
1657.377882
 20
671.513623
 30
0.0
 11
1660.377882
 21
671.513623
 31
0.0
  0
LINE
  5
1EC1C
100
AcDbEntity
  8
0
100
AcDbLine
 10
1674.906882
 20
630.511623
 30
0.0
 11
1674.906882
 21
661.667623
 31
0.0
  0
LINE
  5
1EC1D
100
AcDbEntity
  8
0
100
AcDbLine
 10
1671.906882
 20
627.512623
 30
0.0
 11
1671.906882
 21
664.671623
 31
0.0
  0
LINE
  5
1EC29
100
AcDbEntity
  8
0
100
AcDbLine
 10
1673.318882
 20
629.424623
 30
0.0
 11
1673.906882
 21
629.512623
 31
0.0
  0
LINE
  5
1EC47
100
AcDbEntity
  8
0
100
AcDbLine
 10
1679.907882
 20
606.513623
 30
0.0
 11
1675.064882
 21
606.513623
 31
0.0
  0
LINE
  5
1EC48
100
AcDbEntity
  8
0
100
AcDbLine
 10
1681.907882
 20
604.513623
 30
0.0
 11
1679.907882
 21
606.513623
 31
0.0
  0
LINE
  5
1EC49
100
AcDbEntity
  8
0
100
AcDbLine
 10
1671.906882
 20
609.671623
 30
0.0
 11
1671.906882
 21
627.512623
 31
0.0
  0
LINE
  5
1EC54
100
AcDbEntity
  8
0
100
AcDbLine
 10
1599.776882
 20
729.512623
 30
0.0
 11
1599.776882
 21
719.513623
 31
0.0
  0
LINE
  5
1EC55
100
AcDbEntity
  8
0
100
AcDbLine
 10
1600.495882
 20
719.013623
 30
0.0
 11
1600.010882
 21
719.513623
 31
0.0
  0
LINE
  5
1EC56
100
AcDbEntity
  8
0
100
AcDbLine
 10
1600.354882
 20
714.513623
 30
0.0
 11
1600.495882
 21
719.013623
 31
0.0
  0
LINE
  5
1EC57
100
AcDbEntity
  8
0
100
AcDbLine
 10
1659.232882
 20
711.523623
 30
0.0
 11
1659.083882
 21
711.557623
 31
0.0
  0
LINE
  5
1EC58
100
AcDbEntity
  8
0
100
AcDbLine
 10
1659.377882
 20
711.513623
 30
0.0
 11
1659.232882
 21
711.523623
 31
0.0
  0
LINE
  5
1EC59
100
AcDbEntity
  8
0
100
AcDbLine
 10
1659.377882
 20
711.513623
 30
0.0
 11
1659.377882
 21
711.513623
 31
0.0
  0
LINE
  5
1EC5A
100
AcDbEntity
  8
0
100
AcDbLine
 10
1660.377882
 20
711.513623
 30
0.0
 11
1659.377882
 21
711.513623
 31
0.0
  0
LINE
  5
1EC5B
100
AcDbEntity
  8
0
100
AcDbLine
 10
1657.671882
 20
714.468623
 30
0.0
 11
1657.377882
 21
714.512623
 31
0.0
  0
LINE
  5
1EC5C
100
AcDbEntity
  8
0
100
AcDbLine
 10
1657.818882
 20
714.410623
 30
0.0
 11
1657.671882
 21
714.468623
 31
0.0
  0
LINE
  5
1EC5D
100
AcDbEntity
  8
0
100
AcDbLine
 10
1657.958882
 20
714.326623
 30
0.0
 11
1657.818882
 21
714.410623
 31
0.0
  0
LINE
  5
1EC5E
100
AcDbEntity
  8
0
100
AcDbLine
 10
1658.084882
 20
714.219623
 30
0.0
 11
1657.958882
 21
714.326623
 31
0.0
  0
LINE
  5
1EC5F
100
AcDbEntity
  8
0
100
AcDbLine
 10
1658.191882
 20
714.093623
 30
0.0
 11
1658.084882
 21
714.219623
 31
0.0
  0
LINE
  5
1EC60
100
AcDbEntity
  8
0
100
AcDbLine
 10
1658.274882
 20
713.954623
 30
0.0
 11
1658.191882
 21
714.093623
 31
0.0
  0
LINE
  5
1EC61
100
AcDbEntity
  8
0
100
AcDbLine
 10
1658.333882
 20
713.806623
 30
0.0
 11
1658.274882
 21
713.954623
 31
0.0
  0
LINE
  5
1EC62
100
AcDbEntity
  8
0
100
AcDbLine
 10
1658.366882
 20
713.657623
 30
0.0
 11
1658.333882
 21
713.806623
 31
0.0
  0
LINE
  5
1EC63
100
AcDbEntity
  8
0
100
AcDbLine
 10
1658.377882
 20
713.512623
 30
0.0
 11
1658.366882
 21
713.657623
 31
0.0
  0
LINE
  5
1EC64
100
AcDbEntity
  8
0
100
AcDbLine
 10
1658.377882
 20
713.512623
 30
0.0
 11
1658.377882
 21
713.512623
 31
0.0
  0
LINE
  5
1EC65
100
AcDbEntity
  8
0
100
AcDbLine
 10
1658.377882
 20
712.513623
 30
0.0
 11
1658.377882
 21
713.512623
 31
0.0
  0
LINE
  5
1EC66
100
AcDbEntity
  8
0
100
AcDbLine
 10
1658.421882
 20
712.219623
 30
0.0
 11
1658.377882
 21
712.513623
 31
0.0
  0
LINE
  5
1EC67
100
AcDbEntity
  8
0
100
AcDbLine
 10
1658.479882
 20
712.071623
 30
0.0
 11
1658.421882
 21
712.219623
 31
0.0
  0
LINE
  5
1EC68
100
AcDbEntity
  8
0
100
AcDbLine
 10
1658.563882
 20
711.931623
 30
0.0
 11
1658.479882
 21
712.071623
 31
0.0
  0
LINE
  5
1EC69
100
AcDbEntity
  8
0
100
AcDbLine
 10
1658.670882
 20
711.805623
 30
0.0
 11
1658.563882
 21
711.931623
 31
0.0
  0
LINE
  5
1EC6A
100
AcDbEntity
  8
0
100
AcDbLine
 10
1658.796882
 20
711.699623
 30
0.0
 11
1658.670882
 21
711.805623
 31
0.0
  0
LINE
  5
1EC6B
100
AcDbEntity
  8
0
100
AcDbLine
 10
1658.935882
 20
711.615623
 30
0.0
 11
1658.796882
 21
711.699623
 31
0.0
  0
LINE
  5
1EC6C
100
AcDbEntity
  8
0
100
AcDbLine
 10
1659.083882
 20
711.557623
 30
0.0
 11
1658.935882
 21
711.615623
 31
0.0
  0
TEXT
  5
1EC6D
100
AcDbEntity
  8
0
100
AcDbText
 10
644.742984
 20
1085.264623
 30
0.0
 40
35.0
  1
平面
100
AcDbText
  0
TEXT
  5
1EC73
100
AcDbEntity
  8
0
100
AcDbText
 10
660.449838
 20
1526.572379
 30
0.0
 40
35.0
  1
背面
100
AcDbText
  0
ARC
  5
1EC74
100
AcDbEntity
  8
0
100
AcDbCircle
 10
1535.892554
 20
1053.155747
 30
0.0
 40
90.0
100
AcDbArc
 50
192.017172
 51
254.124926
  0
ARC
  5
1EC75
100
AcDbEntity
  8
0
100
AcDbCircle
 10
1535.892554
 20
1059.132874
 30
0.0
 40
90.0
100
AcDbArc
 50
105.875074
 51
167.982828
  0
ARC
  5
1EC76
100
AcDbEntity
  8
0
100
AcDbCircle
 10
1445.406882
 20
1056.14431
 30
0.0
 40
125.0
100
AcDbArc
 50
49.398939
 51
310.601061
  0
LINE
  5
1EC77
100
AcDbEntity
  8
0
100
AcDbLine
 10
1333.406882
 20
1066.04431
 30
0.0
 11
1333.406882
 21
1046.24531
 31
0.0
  0
LINE
  5
1EC78
100
AcDbEntity
  8
0
100
AcDbLine
 10
1323.406882
 20
1046.24531
 30
0.0
 11
1323.406882
 21
1066.04431
 31
0.0
  0
LINE
  5
1EC79
100
AcDbEntity
  8
0
100
AcDbLine
 10
1333.406882
 20
1066.27831
 30
0.0
 11
1333.406882
 21
1046.01131
 31
0.0
  0
LINE
  5
1EC7A
100
AcDbEntity
  8
0
100
AcDbLine
 10
1333.906882
 20
1066.76231
 30
0.0
 11
1333.906882
 21
1045.52631
 31
0.0
  0
LINE
  5
1EC7B
100
AcDbEntity
  8
0
100
AcDbLine
 10
1338.406882
 20
1056.14431
 30
0.0
 11
1338.406882
 21
1074.64431
 31
0.0
  0
LINE
  5
1EC7C
100
AcDbEntity
  8
0
100
AcDbLine
 10
1343.406882
 20
1078.14431
 30
0.0
 11
1343.406882
 21
1056.14431
 31
0.0
  0
LINE
  5
1EC7D
100
AcDbEntity
  8
0
100
AcDbLine
 10
1323.406882
 20
1056.14431
 30
0.0
 11
1333.406882
 21
1056.14431
 31
0.0
  0
LINE
  5
1EC7E
100
AcDbEntity
  8
0
100
AcDbLine
 10
1333.406882
 20
1046.24531
 30
0.0
 11
1323.406882
 21
1046.24531
 31
0.0
  0
LINE
  5
1EC7F
100
AcDbEntity
  8
0
100
AcDbLine
 10
1393.879882
 20
1033.51131
 30
0.0
 11
1399.910882
 21
1034.32831
 31
0.0
  0
LINE
  5
1EC80
100
AcDbEntity
  8
0
100
AcDbLine
 10
1345.406882
 20
1031.64531
 30
0.0
 11
1361.906882
 21
1031.64531
 31
0.0
  0
LINE
  5
1EC81
100
AcDbEntity
  8
0
100
AcDbLine
 10
1344.818882
 20
1031.73331
 30
0.0
 11
1345.406882
 21
1031.64531
 31
0.0
  0
LINE
  5
1EC82
100
AcDbEntity
  8
0
100
AcDbLine
 10
1344.523882
 20
1031.85031
 30
0.0
 11
1344.818882
 21
1031.73331
 31
0.0
  0
LINE
  5
1EC83
100
AcDbEntity
  8
0
100
AcDbLine
 10
1344.243882
 20
1032.01731
 30
0.0
 11
1344.523882
 21
1031.85031
 31
0.0
  0
LINE
  5
1EC84
100
AcDbEntity
  8
0
100
AcDbLine
 10
1343.991882
 20
1032.23031
 30
0.0
 11
1344.243882
 21
1032.01731
 31
0.0
  0
LINE
  5
1EC85
100
AcDbEntity
  8
0
100
AcDbLine
 10
1343.778882
 20
1032.48231
 30
0.0
 11
1343.991882
 21
1032.23031
 31
0.0
  0
LINE
  5
1EC86
100
AcDbEntity
  8
0
100
AcDbLine
 10
1343.611882
 20
1032.76231
 30
0.0
 11
1343.778882
 21
1032.48231
 31
0.0
  0
LINE
  5
1EC87
100
AcDbEntity
  8
0
100
AcDbLine
 10
1343.494882
 20
1033.05731
 30
0.0
 11
1343.611882
 21
1032.76231
 31
0.0
  0
LINE
  5
1EC88
100
AcDbEntity
  8
0
100
AcDbLine
 10
1343.427882
 20
1033.35531
 30
0.0
 11
1343.494882
 21
1033.05731
 31
0.0
  0
LINE
  5
1EC89
100
AcDbEntity
  8
0
100
AcDbLine
 10
1343.406882
 20
1033.64531
 30
0.0
 11
1343.427882
 21
1033.35531
 31
0.0
  0
LINE
  5
1EC8A
100
AcDbEntity
  8
0
100
AcDbLine
 10
1343.406882
 20
1033.64531
 30
0.0
 11
1343.406882
 21
1033.64531
 31
0.0
  0
LINE
  5
1EC8B
100
AcDbEntity
  8
0
100
AcDbLine
 10
1343.406882
 20
1034.14431
 30
0.0
 11
1343.406882
 21
1033.64531
 31
0.0
  0
LINE
  5
1EC8C
100
AcDbEntity
  8
0
100
AcDbLine
 10
1343.317882
 20
1034.73231
 30
0.0
 11
1343.406882
 21
1034.14431
 31
0.0
  0
LINE
  5
1EC8D
100
AcDbEntity
  8
0
100
AcDbLine
 10
1343.200882
 20
1035.02731
 30
0.0
 11
1343.317882
 21
1034.73231
 31
0.0
  0
LINE
  5
1EC8E
100
AcDbEntity
  8
0
100
AcDbLine
 10
1343.033882
 20
1035.30631
 30
0.0
 11
1343.200882
 21
1035.02731
 31
0.0
  0
LINE
  5
1EC8F
100
AcDbEntity
  8
0
100
AcDbLine
 10
1342.820882
 20
1035.55831
 30
0.0
 11
1343.033882
 21
1035.30631
 31
0.0
  0
LINE
  5
1EC90
100
AcDbEntity
  8
0
100
AcDbLine
 10
1342.568882
 20
1035.77231
 30
0.0
 11
1342.820882
 21
1035.55831
 31
0.0
  0
LINE
  5
1EC91
100
AcDbEntity
  8
0
100
AcDbLine
 10
1342.288882
 20
1035.93931
 30
0.0
 11
1342.568882
 21
1035.77231
 31
0.0
  0
LINE
  5
1EC92
100
AcDbEntity
  8
0
100
AcDbLine
 10
1341.993882
 20
1036.05631
 30
0.0
 11
1342.288882
 21
1035.93931
 31
0.0
  0
LINE
  5
1EC93
100
AcDbEntity
  8
0
100
AcDbLine
 10
1341.695882
 20
1036.12331
 30
0.0
 11
1341.993882
 21
1036.05631
 31
0.0
  0
LINE
  5
1EC94
100
AcDbEntity
  8
0
100
AcDbLine
 10
1341.406882
 20
1036.14431
 30
0.0
 11
1341.695882
 21
1036.12331
 31
0.0
  0
LINE
  5
1EC95
100
AcDbEntity
  8
0
100
AcDbLine
 10
1341.406882
 20
1036.14431
 30
0.0
 11
1341.406882
 21
1036.14431
 31
0.0
  0
LINE
  5
1EC96
100
AcDbEntity
  8
0
100
AcDbLine
 10
1343.406882
 20
1034.14431
 30
0.0
 11
1343.406882
 21
1056.14431
 31
0.0
  0
LINE
  5
1EC97
100
AcDbEntity
  8
0
100
AcDbLine
 10
1339.465882
 20
1036.21131
 30
0.0
 11
1339.906882
 21
1036.14431
 31
0.0
  0
LINE
  5
1EC98
100
AcDbEntity
  8
0
100
AcDbLine
 10
1339.244882
 20
1036.29831
 30
0.0
 11
1339.465882
 21
1036.21131
 31
0.0
  0
LINE
  5
1EC99
100
AcDbEntity
  8
0
100
AcDbLine
 10
1339.034882
 20
1036.42431
 30
0.0
 11
1339.244882
 21
1036.29831
 31
0.0
  0
LINE
  5
1EC9A
100
AcDbEntity
  8
0
100
AcDbLine
 10
1338.845882
 20
1036.58431
 30
0.0
 11
1339.034882
 21
1036.42431
 31
0.0
  0
LINE
  5
1EC9B
100
AcDbEntity
  8
0
100
AcDbLine
 10
1338.685882
 20
1036.77331
 30
0.0
 11
1338.845882
 21
1036.58431
 31
0.0
  0
LINE
  5
1EC9C
100
AcDbEntity
  8
0
100
AcDbLine
 10
1338.560882
 20
1036.98231
 30
0.0
 11
1338.685882
 21
1036.77331
 31
0.0
  0
LINE
  5
1EC9D
100
AcDbEntity
  8
0
100
AcDbLine
 10
1338.472882
 20
1037.20431
 30
0.0
 11
1338.560882
 21
1036.98231
 31
0.0
  0
LINE
  5
1EC9E
100
AcDbEntity
  8
0
100
AcDbLine
 10
1338.421882
 20
1037.42731
 30
0.0
 11
1338.472882
 21
1037.20431
 31
0.0
  0
LINE
  5
1EC9F
100
AcDbEntity
  8
0
100
AcDbLine
 10
1338.406882
 20
1037.64431
 30
0.0
 11
1338.421882
 21
1037.42731
 31
0.0
  0
LINE
  5
1ECA0
100
AcDbEntity
  8
0
100
AcDbLine
 10
1338.406882
 20
1037.64431
 30
0.0
 11
1338.406882
 21
1037.64431
 31
0.0
  0
LINE
  5
1ECA1
100
AcDbEntity
  8
0
100
AcDbLine
 10
1333.406882
 20
1046.01131
 30
0.0
 11
1333.906882
 21
1045.52631
 31
0.0
  0
LINE
  5
1ECA2
100
AcDbEntity
  8
0
100
AcDbLine
 10
1333.906882
 20
1045.52631
 30
0.0
 11
1338.406882
 21
1045.66731
 31
0.0
  0
LINE
  5
1ECA3
100
AcDbEntity
  8
0
100
AcDbLine
 10
1338.406882
 20
1056.14431
 30
0.0
 11
1338.406882
 21
1037.64431
 31
0.0
  0
LINE
  5
1ECA4
100
AcDbEntity
  8
0
100
AcDbLine
 10
1339.906882
 20
1036.14431
 30
0.0
 11
1341.406882
 21
1036.14431
 31
0.0
  0
LINE
  5
1ECA5
100
AcDbEntity
  8
0
100
AcDbLine
 10
1387.645882
 20
1032.83731
 30
0.0
 11
1393.879882
 21
1033.51131
 31
0.0
  0
LINE
  5
1ECA6
100
AcDbEntity
  8
0
100
AcDbLine
 10
1374.813882
 20
1031.93931
 30
0.0
 11
1381.269882
 21
1032.31231
 31
0.0
  0
LINE
  5
1ECA7
100
AcDbEntity
  8
0
100
AcDbLine
 10
1381.269882
 20
1032.31231
 30
0.0
 11
1387.645882
 21
1032.83731
 31
0.0
  0
LINE
  5
1ECA8
100
AcDbEntity
  8
0
100
AcDbLine
 10
1361.906882
 20
1031.64531
 30
0.0
 11
1368.339882
 21
1031.71731
 31
0.0
  0
LINE
  5
1ECA9
100
AcDbEntity
  8
0
100
AcDbLine
 10
1361.906882
 20
1031.64531
 30
0.0
 11
1361.906882
 21
1031.64531
 31
0.0
  0
LINE
  5
1ECAA
100
AcDbEntity
  8
0
100
AcDbLine
 10
1368.339882
 20
1031.71731
 30
0.0
 11
1374.813882
 21
1031.93931
 31
0.0
  0
LINE
  5
1ECAB
100
AcDbEntity
  8
0
100
AcDbLine
 10
1427.591882
 20
1041.00931
 30
0.0
 11
1429.104882
 21
1041.59231
 31
0.0
  0
LINE
  5
1ECAC
100
AcDbEntity
  8
0
100
AcDbLine
 10
1424.394882
 20
1039.88731
 30
0.0
 11
1426.021882
 21
1040.44131
 31
0.0
  0
LINE
  5
1ECAD
100
AcDbEntity
  8
0
100
AcDbLine
 10
1422.714882
 20
1039.34731
 30
0.0
 11
1424.394882
 21
1039.88731
 31
0.0
  0
LINE
  5
1ECAE
100
AcDbEntity
  8
0
100
AcDbLine
 10
1420.983882
 20
1038.82431
 30
0.0
 11
1422.714882
 21
1039.34731
 31
0.0
  0
LINE
  5
1ECAF
100
AcDbEntity
  8
0
100
AcDbLine
 10
1420.983882
 20
1038.82431
 30
0.0
 11
1420.983882
 21
1038.82431
 31
0.0
  0
LINE
  5
1ECB0
100
AcDbEntity
  8
0
100
AcDbLine
 10
1405.683882
 20
1035.27931
 30
0.0
 11
1411.148882
 21
1036.35531
 31
0.0
  0
LINE
  5
1ECB1
100
AcDbEntity
  8
0
100
AcDbLine
 10
1399.910882
 20
1034.32831
 30
0.0
 11
1405.683882
 21
1035.27931
 31
0.0
  0
LINE
  5
1ECB2
100
AcDbEntity
  8
0
100
AcDbLine
 10
1411.148882
 20
1036.35531
 30
0.0
 11
1420.983882
 21
1038.82431
 31
0.0
  0
LINE
  5
1ECB3
100
AcDbEntity
  8
0
100
AcDbLine
 10
1426.021882
 20
1040.44131
 30
0.0
 11
1427.591882
 21
1041.00931
 31
0.0
  0
LINE
  5
1ECB4
100
AcDbEntity
  8
0
100
AcDbLine
 10
1433.274882
 20
1043.41431
 30
0.0
 11
1435.730882
 21
1044.68331
 31
0.0
  0
LINE
  5
1ECB5
100
AcDbEntity
  8
0
100
AcDbLine
 10
1431.947882
 20
1042.79531
 30
0.0
 11
1433.274882
 21
1043.41431
 31
0.0
  0
LINE
  5
1ECB6
100
AcDbEntity
  8
0
100
AcDbLine
 10
1430.556882
 20
1042.18731
 30
0.0
 11
1431.947882
 21
1042.79531
 31
0.0
  0
LINE
  5
1ECB7
100
AcDbEntity
  8
0
100
AcDbLine
 10
1429.104882
 20
1041.59231
 30
0.0
 11
1430.556882
 21
1042.18731
 31
0.0
  0
LINE
  5
1ECB8
100
AcDbEntity
  8
0
100
AcDbLine
 10
1323.406882
 20
1066.04431
 30
0.0
 11
1333.406882
 21
1066.04431
 31
0.0
  0
LINE
  5
1ECB9
100
AcDbEntity
  8
0
100
AcDbLine
 10
1393.879882
 20
1078.77831
 30
0.0
 11
1399.910882
 21
1077.96131
 31
0.0
  0
LINE
  5
1ECBA
100
AcDbEntity
  8
0
100
AcDbLine
 10
1345.406882
 20
1080.64431
 30
0.0
 11
1361.906882
 21
1080.64431
 31
0.0
  0
LINE
  5
1ECBB
100
AcDbEntity
  8
0
100
AcDbLine
 10
1344.818882
 20
1080.55631
 30
0.0
 11
1345.406882
 21
1080.64431
 31
0.0
  0
LINE
  5
1ECBC
100
AcDbEntity
  8
0
100
AcDbLine
 10
1344.523882
 20
1080.43931
 30
0.0
 11
1344.818882
 21
1080.55631
 31
0.0
  0
LINE
  5
1ECBD
100
AcDbEntity
  8
0
100
AcDbLine
 10
1344.243882
 20
1080.27231
 30
0.0
 11
1344.523882
 21
1080.43931
 31
0.0
  0
LINE
  5
1ECBE
100
AcDbEntity
  8
0
100
AcDbLine
 10
1343.991882
 20
1080.05831
 30
0.0
 11
1344.243882
 21
1080.27231
 31
0.0
  0
LINE
  5
1ECBF
100
AcDbEntity
  8
0
100
AcDbLine
 10
1343.778882
 20
1079.80631
 30
0.0
 11
1343.991882
 21
1080.05831
 31
0.0
  0
LINE
  5
1ECC0
100
AcDbEntity
  8
0
100
AcDbLine
 10
1343.611882
 20
1079.52731
 30
0.0
 11
1343.778882
 21
1079.80631
 31
0.0
  0
LINE
  5
1ECC1
100
AcDbEntity
  8
0
100
AcDbLine
 10
1343.494882
 20
1079.23231
 30
0.0
 11
1343.611882
 21
1079.52731
 31
0.0
  0
LINE
  5
1ECC2
100
AcDbEntity
  8
0
100
AcDbLine
 10
1343.427882
 20
1078.93431
 30
0.0
 11
1343.494882
 21
1079.23231
 31
0.0
  0
LINE
  5
1ECC3
100
AcDbEntity
  8
0
100
AcDbLine
 10
1343.406882
 20
1078.64431
 30
0.0
 11
1343.427882
 21
1078.93431
 31
0.0
  0
LINE
  5
1ECC4
100
AcDbEntity
  8
0
100
AcDbLine
 10
1343.406882
 20
1078.64431
 30
0.0
 11
1343.406882
 21
1078.64431
 31
0.0
  0
LINE
  5
1ECC5
100
AcDbEntity
  8
0
100
AcDbLine
 10
1343.406882
 20
1078.14431
 30
0.0
 11
1343.406882
 21
1078.64431
 31
0.0
  0
LINE
  5
1ECC6
100
AcDbEntity
  8
0
100
AcDbLine
 10
1343.317882
 20
1077.55731
 30
0.0
 11
1343.406882
 21
1078.14431
 31
0.0
  0
LINE
  5
1ECC7
100
AcDbEntity
  8
0
100
AcDbLine
 10
1343.200882
 20
1077.26231
 30
0.0
 11
1343.317882
 21
1077.55731
 31
0.0
  0
LINE
  5
1ECC8
100
AcDbEntity
  8
0
100
AcDbLine
 10
1343.033882
 20
1076.98231
 30
0.0
 11
1343.200882
 21
1077.26231
 31
0.0
  0
LINE
  5
1ECC9
100
AcDbEntity
  8
0
100
AcDbLine
 10
1342.820882
 20
1076.73031
 30
0.0
 11
1343.033882
 21
1076.98231
 31
0.0
  0
LINE
  5
1ECCA
100
AcDbEntity
  8
0
100
AcDbLine
 10
1342.568882
 20
1076.51731
 30
0.0
 11
1342.820882
 21
1076.73031
 31
0.0
  0
LINE
  5
1ECCB
100
AcDbEntity
  8
0
100
AcDbLine
 10
1342.288882
 20
1076.35031
 30
0.0
 11
1342.568882
 21
1076.51731
 31
0.0
  0
LINE
  5
1ECCC
100
AcDbEntity
  8
0
100
AcDbLine
 10
1341.993882
 20
1076.23331
 30
0.0
 11
1342.288882
 21
1076.35031
 31
0.0
  0
LINE
  5
1ECCD
100
AcDbEntity
  8
0
100
AcDbLine
 10
1341.695882
 20
1076.16531
 30
0.0
 11
1341.993882
 21
1076.23331
 31
0.0
  0
LINE
  5
1ECCE
100
AcDbEntity
  8
0
100
AcDbLine
 10
1341.406882
 20
1076.14431
 30
0.0
 11
1341.695882
 21
1076.16531
 31
0.0
  0
LINE
  5
1ECCF
100
AcDbEntity
  8
0
100
AcDbLine
 10
1341.406882
 20
1076.14431
 30
0.0
 11
1341.406882
 21
1076.14431
 31
0.0
  0
LINE
  5
1ECD0
100
AcDbEntity
  8
0
100
AcDbLine
 10
1339.465882
 20
1076.07831
 30
0.0
 11
1339.906882
 21
1076.14431
 31
0.0
  0
LINE
  5
1ECD1
100
AcDbEntity
  8
0
100
AcDbLine
 10
1339.244882
 20
1075.99031
 30
0.0
 11
1339.465882
 21
1076.07831
 31
0.0
  0
LINE
  5
1ECD2
100
AcDbEntity
  8
0
100
AcDbLine
 10
1339.034882
 20
1075.86531
 30
0.0
 11
1339.244882
 21
1075.99031
 31
0.0
  0
LINE
  5
1ECD3
100
AcDbEntity
  8
0
100
AcDbLine
 10
1338.845882
 20
1075.70531
 30
0.0
 11
1339.034882
 21
1075.86531
 31
0.0
  0
LINE
  5
1ECD4
100
AcDbEntity
  8
0
100
AcDbLine
 10
1338.685882
 20
1075.51631
 30
0.0
 11
1338.845882
 21
1075.70531
 31
0.0
  0
LINE
  5
1ECD5
100
AcDbEntity
  8
0
100
AcDbLine
 10
1338.560882
 20
1075.30631
 30
0.0
 11
1338.685882
 21
1075.51631
 31
0.0
  0
LINE
  5
1ECD6
100
AcDbEntity
  8
0
100
AcDbLine
 10
1338.472882
 20
1075.08531
 30
0.0
 11
1338.560882
 21
1075.30631
 31
0.0
  0
LINE
  5
1ECD7
100
AcDbEntity
  8
0
100
AcDbLine
 10
1338.421882
 20
1074.86231
 30
0.0
 11
1338.472882
 21
1075.08531
 31
0.0
  0
LINE
  5
1ECD8
100
AcDbEntity
  8
0
100
AcDbLine
 10
1338.406882
 20
1074.64431
 30
0.0
 11
1338.421882
 21
1074.86231
 31
0.0
  0
LINE
  5
1ECD9
100
AcDbEntity
  8
0
100
AcDbLine
 10
1338.406882
 20
1074.64431
 30
0.0
 11
1338.406882
 21
1074.64431
 31
0.0
  0
LINE
  5
1ECDA
100
AcDbEntity
  8
0
100
AcDbLine
 10
1333.906882
 20
1066.76231
 30
0.0
 11
1333.406882
 21
1066.27831
 31
0.0
  0
LINE
  5
1ECDB
100
AcDbEntity
  8
0
100
AcDbLine
 10
1338.406882
 20
1066.62231
 30
0.0
 11
1333.906882
 21
1066.76231
 31
0.0
  0
LINE
  5
1ECDC
100
AcDbEntity
  8
0
100
AcDbLine
 10
1339.906882
 20
1076.14431
 30
0.0
 11
1341.406882
 21
1076.14431
 31
0.0
  0
LINE
  5
1ECDD
100
AcDbEntity
  8
0
100
AcDbLine
 10
1387.645882
 20
1079.45131
 30
0.0
 11
1393.879882
 21
1078.77831
 31
0.0
  0
LINE
  5
1ECDE
100
AcDbEntity
  8
0
100
AcDbLine
 10
1374.813882
 20
1080.35031
 30
0.0
 11
1381.269882
 21
1079.97631
 31
0.0
  0
LINE
  5
1ECDF
100
AcDbEntity
  8
0
100
AcDbLine
 10
1381.269882
 20
1079.97631
 30
0.0
 11
1387.645882
 21
1079.45131
 31
0.0
  0
LINE
  5
1ECE0
100
AcDbEntity
  8
0
100
AcDbLine
 10
1361.906882
 20
1080.64431
 30
0.0
 11
1368.339882
 21
1080.57131
 31
0.0
  0
LINE
  5
1ECE1
100
AcDbEntity
  8
0
100
AcDbLine
 10
1361.906882
 20
1080.64431
 30
0.0
 11
1361.906882
 21
1080.64431
 31
0.0
  0
LINE
  5
1ECE2
100
AcDbEntity
  8
0
100
AcDbLine
 10
1368.339882
 20
1080.57131
 30
0.0
 11
1374.813882
 21
1080.35031
 31
0.0
  0
LINE
  5
1ECE3
100
AcDbEntity
  8
0
100
AcDbLine
 10
1427.591882
 20
1071.27931
 30
0.0
 11
1429.104882
 21
1070.69731
 31
0.0
  0
LINE
  5
1ECE4
100
AcDbEntity
  8
0
100
AcDbLine
 10
1405.683882
 20
1077.00931
 30
0.0
 11
1411.148882
 21
1075.93431
 31
0.0
  0
LINE
  5
1ECE5
100
AcDbEntity
  8
0
100
AcDbLine
 10
1399.910882
 20
1077.96131
 30
0.0
 11
1405.683882
 21
1077.00931
 31
0.0
  0
LINE
  5
1ECE6
100
AcDbEntity
  8
0
100
AcDbLine
 10
1424.394882
 20
1072.40231
 30
0.0
 11
1426.021882
 21
1071.84831
 31
0.0
  0
LINE
  5
1ECE7
100
AcDbEntity
  8
0
100
AcDbLine
 10
1422.714882
 20
1072.94131
 30
0.0
 11
1424.394882
 21
1072.40231
 31
0.0
  0
LINE
  5
1ECE8
100
AcDbEntity
  8
0
100
AcDbLine
 10
1420.983882
 20
1073.46431
 30
0.0
 11
1422.714882
 21
1072.94131
 31
0.0
  0
LINE
  5
1ECE9
100
AcDbEntity
  8
0
100
AcDbLine
 10
1420.983882
 20
1073.46431
 30
0.0
 11
1420.983882
 21
1073.46431
 31
0.0
  0
LINE
  5
1ECEA
100
AcDbEntity
  8
0
100
AcDbLine
 10
1411.148882
 20
1075.93431
 30
0.0
 11
1420.983882
 21
1073.46431
 31
0.0
  0
LINE
  5
1ECEB
100
AcDbEntity
  8
0
100
AcDbLine
 10
1426.021882
 20
1071.84831
 30
0.0
 11
1427.591882
 21
1071.27931
 31
0.0
  0
LINE
  5
1ECEC
100
AcDbEntity
  8
0
100
AcDbLine
 10
1433.274882
 20
1068.87531
 30
0.0
 11
1435.730882
 21
1067.60631
 31
0.0
  0
LINE
  5
1ECED
100
AcDbEntity
  8
0
100
AcDbLine
 10
1431.947882
 20
1069.49331
 30
0.0
 11
1433.274882
 21
1068.87531
 31
0.0
  0
LINE
  5
1ECEE
100
AcDbEntity
  8
0
100
AcDbLine
 10
1430.556882
 20
1070.10131
 30
0.0
 11
1431.947882
 21
1069.49331
 31
0.0
  0
LINE
  5
1ECEF
100
AcDbEntity
  8
0
100
AcDbLine
 10
1429.104882
 20
1070.69731
 30
0.0
 11
1430.556882
 21
1070.10131
 31
0.0
  0
ARC
  5
1ECF0
100
AcDbEntity
  8
0
100
AcDbCircle
 10
1571.904067
 20
1056.14431
 30
0.0
 40
100.0
100
AcDbArc
 50
278.463431
 51
81.536569
  0
LINE
  5
1ECF1
100
AcDbEntity
  8
0
100
AcDbLine
 10
1681.905882
 20
1084.14431
 30
0.0
 11
1681.905882
 21
1056.14431
 31
0.0
  0
LINE
  5
1ECF2
100
AcDbEntity
  8
0
100
AcDbLine
 10
1660.375882
 20
1092.14431
 30
0.0
 11
1660.375882
 21
1056.14431
 31
0.0
  0
LINE
  5
1ECF3
100
AcDbEntity
  8
0
100
AcDbLine
 10
1658.375882
 20
1093.14431
 30
0.0
 11
1658.375882
 21
1056.14431
 31
0.0
  0
LINE
  5
1ECF4
100
AcDbEntity
  8
0
100
AcDbLine
 10
1679.905882
 20
1086.14431
 30
0.0
 11
1679.905882
 21
1056.14431
 31
0.0
  0
LINE
  5
1ECF5
100
AcDbEntity
  8
0
100
AcDbLine
 10
1671.905882
 20
1089.30231
 30
0.0
 11
1671.905882
 21
1056.14431
 31
0.0
  0
LINE
  5
1ECF6
100
AcDbEntity
  8
0
100
AcDbLine
 10
1589.875882
 20
1065.46031
 30
0.0
 11
1599.191882
 21
1056.14431
 31
0.0
  0
ARC
  5
1ECF7
100
AcDbEntity
  8
0
100
AcDbCircle
 10
1589.876382
 20
1056.132276
 30
0.0
 40
9.315508
100
AcDbArc
 50
0.074017
 51
179.925983
  0
LINE
  5
1ECF8
100
AcDbEntity
  8
0
100
AcDbLine
 10
1580.560882
 20
1056.14431
 30
0.0
 11
1589.875882
 21
1065.46031
 31
0.0
  0
LINE
  5
1ECF9
100
AcDbEntity
  8
0
100
AcDbLine
 10
1543.406882
 20
1153.64431
 30
0.0
 11
1543.406882
 21
1057.50031
 31
0.0
  0
LINE
  5
1ECFA
100
AcDbEntity
  8
0
100
AcDbLine
 10
1515.906882
 20
1062.14431
 30
0.0
 11
1515.906882
 21
1056.14431
 31
0.0
  0
LINE
  5
1ECFB
100
AcDbEntity
  8
0
100
AcDbLine
 10
1563.406882
 20
1056.14431
 30
0.0
 11
1563.406882
 21
1168.64431
 31
0.0
  0
LINE
  5
1ECFC
100
AcDbEntity
  8
0
100
AcDbLine
 10
1564.916882
 20
1168.64431
 30
0.0
 11
1564.906882
 21
1056.15031
 31
0.0
  0
LINE
  5
1ECFD
100
AcDbEntity
  8
0
100
AcDbLine
 10
1470.906882
 20
1056.14431
 30
0.0
 11
1470.906882
 21
1062.14431
 31
0.0
  0
LINE
  5
1ECFE
100
AcDbEntity
  8
0
100
AcDbLine
 10
1589.875882
 20
1046.82931
 30
0.0
 11
1599.191882
 21
1056.14431
 31
0.0
  0
ARC
  5
1ECFF
100
AcDbEntity
  8
0
100
AcDbCircle
 10
1589.876382
 20
1056.156345
 30
0.0
 40
9.315508
100
AcDbArc
 50
180.074017
 51
359.925983
  0
LINE
  5
1ED00
100
AcDbEntity
  8
0
100
AcDbLine
 10
1594.230882
 20
1015.21231
 30
0.0
 11
1602.311882
 21
1014.94031
 31
0.0
  0
LINE
  5
1ED01
100
AcDbEntity
  8
0
100
AcDbLine
 10
1608.472882
 20
985.45531
 30
0.0
 11
1593.882882
 21
982.91031
 31
0.0
  0
LINE
  5
1ED02
100
AcDbEntity
  8
0
100
AcDbLine
 10
1564.916882
 20
1016.14431
 30
0.0
 11
1657.888882
 21
1018.55631
 31
0.0
  0
LINE
  5
1ED03
100
AcDbEntity
  8
0
100
AcDbLine
 10
1563.406882
 20
1056.14431
 30
0.0
 11
1563.406882
 21
943.64431
 31
0.0
  0
LINE
  5
1ED04
100
AcDbEntity
  8
0
100
AcDbLine
 10
1564.916882
 20
943.64431
 30
0.0
 11
1564.906882
 21
1056.13931
 31
0.0
  0
LINE
  5
1ED05
100
AcDbEntity
  8
0
100
AcDbLine
 10
1584.916882
 20
1016.72831
 30
0.0
 11
1584.916882
 21
957.07431
 31
0.0
  0
LINE
  5
1ED06
100
AcDbEntity
  8
0
100
AcDbLine
 10
1543.406882
 20
958.64431
 30
0.0
 11
1543.406882
 21
1054.78931
 31
0.0
  0
ARC
  5
1ED07
100
AcDbEntity
  8
0
100
AcDbCircle
 10
1533.263299
 20
953.64431
 30
0.0
 40
10.0
100
AcDbArc
 50
90.0
 51
130.601061
  0
LINE
  5
1ED08
100
AcDbEntity
  8
0
100
AcDbLine
 10
1546.406882
 20
943.64431
 30
0.0
 11
1499.892882
 21
943.64431
 31
0.0
  0
LINE
  5
1ED09
100
AcDbEntity
  8
0
100
AcDbLine
 10
1543.353882
 20
959.36931
 30
0.0
 11
1543.185882
 21
960.11331
 31
0.0
  0
LINE
  5
1ED0A
100
AcDbEntity
  8
0
100
AcDbLine
 10
1543.406882
 20
958.64431
 30
0.0
 11
1543.353882
 21
959.36931
 31
0.0
  0
LINE
  5
1ED0B
100
AcDbEntity
  8
0
100
AcDbLine
 10
1543.406882
 20
958.64431
 30
0.0
 11
1543.406882
 21
958.64431
 31
0.0
  0
LINE
  5
1ED0C
100
AcDbEntity
  8
0
100
AcDbLine
 10
1543.538882
 20
945.76331
 30
0.0
 11
1543.406882
 21
946.64431
 31
0.0
  0
LINE
  5
1ED0D
100
AcDbEntity
  8
0
100
AcDbLine
 10
1543.714882
 20
945.32031
 30
0.0
 11
1543.538882
 21
945.76331
 31
0.0
  0
LINE
  5
1ED0E
100
AcDbEntity
  8
0
100
AcDbLine
 10
1543.964882
 20
944.90131
 30
0.0
 11
1543.714882
 21
945.32031
 31
0.0
  0
LINE
  5
1ED0F
100
AcDbEntity
  8
0
100
AcDbLine
 10
1544.284882
 20
944.52331
 30
0.0
 11
1543.964882
 21
944.90131
 31
0.0
  0
LINE
  5
1ED10
100
AcDbEntity
  8
0
100
AcDbLine
 10
1544.662882
 20
944.20331
 30
0.0
 11
1544.284882
 21
944.52331
 31
0.0
  0
LINE
  5
1ED11
100
AcDbEntity
  8
0
100
AcDbLine
 10
1545.082882
 20
943.95231
 30
0.0
 11
1544.662882
 21
944.20331
 31
0.0
  0
LINE
  5
1ED12
100
AcDbEntity
  8
0
100
AcDbLine
 10
1545.524882
 20
943.77731
 30
0.0
 11
1545.082882
 21
943.95231
 31
0.0
  0
LINE
  5
1ED13
100
AcDbEntity
  8
0
100
AcDbLine
 10
1545.971882
 20
943.67631
 30
0.0
 11
1545.524882
 21
943.77731
 31
0.0
  0
LINE
  5
1ED14
100
AcDbEntity
  8
0
100
AcDbLine
 10
1546.406882
 20
943.64431
 30
0.0
 11
1545.971882
 21
943.67631
 31
0.0
  0
LINE
  5
1ED15
100
AcDbEntity
  8
0
100
AcDbLine
 10
1546.406882
 20
943.64431
 30
0.0
 11
1546.406882
 21
943.64431
 31
0.0
  0
LINE
  5
1ED16
100
AcDbEntity
  8
0
100
AcDbLine
 10
1543.406882
 20
946.64431
 30
0.0
 11
1543.406882
 21
958.64431
 31
0.0
  0
LINE
  5
1ED17
100
AcDbEntity
  8
0
100
AcDbLine
 10
1563.406882
 20
943.64431
 30
0.0
 11
1546.406882
 21
943.64431
 31
0.0
  0
LINE
  5
1ED18
100
AcDbEntity
  8
0
100
AcDbLine
 10
1539.875882
 20
963.42431
 30
0.0
 11
1538.406882
 21
963.64431
 31
0.0
  0
LINE
  5
1ED19
100
AcDbEntity
  8
0
100
AcDbLine
 10
1540.612882
 20
963.13131
 30
0.0
 11
1539.875882
 21
963.42431
 31
0.0
  0
LINE
  5
1ED1A
100
AcDbEntity
  8
0
100
AcDbLine
 10
1541.311882
 20
962.71331
 30
0.0
 11
1540.612882
 21
963.13131
 31
0.0
  0
LINE
  5
1ED1B
100
AcDbEntity
  8
0
100
AcDbLine
 10
1541.941882
 20
962.18031
 30
0.0
 11
1541.311882
 21
962.71331
 31
0.0
  0
LINE
  5
1ED1C
100
AcDbEntity
  8
0
100
AcDbLine
 10
1542.475882
 20
961.55031
 30
0.0
 11
1541.941882
 21
962.18031
 31
0.0
  0
LINE
  5
1ED1D
100
AcDbEntity
  8
0
100
AcDbLine
 10
1542.893882
 20
960.85131
 30
0.0
 11
1542.475882
 21
961.55031
 31
0.0
  0
LINE
  5
1ED1E
100
AcDbEntity
  8
0
100
AcDbLine
 10
1538.406882
 20
963.64431
 30
0.0
 11
1533.263299
 21
963.64431
 31
0.0
  0
LINE
  5
1ED1F
100
AcDbEntity
  8
0
100
AcDbLine
 10
1543.185882
 20
960.11331
 30
0.0
 11
1542.893882
 21
960.85131
 31
0.0
  0
LINE
  5
1ED20
100
AcDbEntity
  8
0
100
AcDbLine
 10
1584.608882
 20
945.32131
 30
0.0
 11
1584.357882
 21
944.90131
 31
0.0
  0
LINE
  5
1ED21
100
AcDbEntity
  8
0
100
AcDbLine
 10
1584.783882
 20
945.76331
 30
0.0
 11
1584.608882
 21
945.32131
 31
0.0
  0
LINE
  5
1ED22
100
AcDbEntity
  8
0
100
AcDbLine
 10
1584.884882
 20
946.21031
 30
0.0
 11
1584.783882
 21
945.76331
 31
0.0
  0
LINE
  5
1ED23
100
AcDbEntity
  8
0
100
AcDbLine
 10
1584.916882
 20
946.64431
 30
0.0
 11
1584.884882
 21
946.21031
 31
0.0
  0
LINE
  5
1ED24
100
AcDbEntity
  8
0
100
AcDbLine
 10
1584.916882
 20
946.64431
 30
0.0
 11
1584.916882
 21
946.64431
 31
0.0
  0
LINE
  5
1ED25
100
AcDbEntity
  8
0
100
AcDbLine
 10
1584.916882
 20
957.07431
 30
0.0
 11
1584.916882
 21
946.64431
 31
0.0
  0
ARC
  5
1ED26
100
AcDbEntity
  8
0
100
AcDbCircle
 10
1586.916407
 20
955.255596
 30
0.0
 40
1.999525
100
AcDbArc
 50
98.470336
 51
180.008184
  0
LINE
  5
1ED27
100
AcDbEntity
  8
0
100
AcDbLine
 10
1586.621882
 20
957.23331
 30
0.0
 11
1586.621882
 21
957.23331
 31
0.0
  0
LINE
  5
1ED28
100
AcDbEntity
  8
0
100
AcDbLine
 10
1584.916882
 20
947.64931
 30
0.0
 11
1594.799882
 21
947.64931
 31
0.0
  0
LINE
  5
1ED29
100
AcDbEntity
  8
0
100
AcDbLine
 10
1584.916882
 20
955.25531
 30
0.0
 11
1584.916882
 21
947.64931
 31
0.0
  0
LINE
  5
1ED2A
100
AcDbEntity
  8
0
100
AcDbLine
 10
1594.168882
 20
949.76131
 30
0.0
 11
1593.523882
 21
947.64931
 31
0.0
  0
LINE
  5
1ED2B
100
AcDbEntity
  8
0
100
AcDbLine
 10
1594.388882
 20
950.85631
 30
0.0
 11
1594.168882
 21
949.76131
 31
0.0
  0
LINE
  5
1ED2C
100
AcDbEntity
  8
0
100
AcDbLine
 10
1594.536882
 20
951.96831
 30
0.0
 11
1594.388882
 21
950.85631
 31
0.0
  0
LINE
  5
1ED2D
100
AcDbEntity
  8
0
100
AcDbLine
 10
1594.610882
 20
953.08931
 30
0.0
 11
1594.536882
 21
951.96831
 31
0.0
  0
LINE
  5
1ED2E
100
AcDbEntity
  8
0
100
AcDbLine
 10
1594.610882
 20
954.21431
 30
0.0
 11
1594.610882
 21
953.08931
 31
0.0
  0
LINE
  5
1ED2F
100
AcDbEntity
  8
0
100
AcDbLine
 10
1594.535882
 20
955.33331
 30
0.0
 11
1594.610882
 21
954.21431
 31
0.0
  0
LINE
  5
1ED30
100
AcDbEntity
  8
0
100
AcDbLine
 10
1594.388882
 20
956.44031
 30
0.0
 11
1594.535882
 21
955.33331
 31
0.0
  0
LINE
  5
1ED31
100
AcDbEntity
  8
0
100
AcDbLine
 10
1594.170882
 20
957.52731
 30
0.0
 11
1594.388882
 21
956.44031
 31
0.0
  0
LINE
  5
1ED32
100
AcDbEntity
  8
0
100
AcDbLine
 10
1594.799882
 20
947.64931
 30
0.0
 11
1594.799882
 21
958.80031
 31
0.0
  0
LINE
  5
1ED33
100
AcDbEntity
  8
0
100
AcDbLine
 10
1593.884882
 20
958.59031
 30
0.0
 11
1594.170882
 21
957.52731
 31
0.0
  0
LINE
  5
1ED34
100
AcDbEntity
  8
0
100
AcDbLine
 10
1582.797882
 20
943.77731
 30
0.0
 11
1581.916882
 21
943.64431
 31
0.0
  0
LINE
  5
1ED35
100
AcDbEntity
  8
0
100
AcDbLine
 10
1583.239882
 20
943.95231
 30
0.0
 11
1582.797882
 21
943.77731
 31
0.0
  0
LINE
  5
1ED36
100
AcDbEntity
  8
0
100
AcDbLine
 10
1583.659882
 20
944.20331
 30
0.0
 11
1583.239882
 21
943.95231
 31
0.0
  0
LINE
  5
1ED37
100
AcDbEntity
  8
0
100
AcDbLine
 10
1584.037882
 20
944.52331
 30
0.0
 11
1583.659882
 21
944.20331
 31
0.0
  0
LINE
  5
1ED38
100
AcDbEntity
  8
0
100
AcDbLine
 10
1584.357882
 20
944.90131
 30
0.0
 11
1584.037882
 21
944.52331
 31
0.0
  0
LINE
  5
1ED39
100
AcDbEntity
  8
0
100
AcDbLine
 10
1581.916882
 20
943.64431
 30
0.0
 11
1564.916882
 21
943.64431
 31
0.0
  0
LINE
  5
1ED3A
100
AcDbEntity
  8
0
100
AcDbLine
 10
1473.906882
 20
1047.14431
 30
0.0
 11
1512.906882
 21
1047.14431
 31
0.0
  0
ARC
  5
1ED3B
100
AcDbEntity
  8
0
100
AcDbCircle
 10
1473.906882
 20
1050.14431
 30
0.0
 40
3.0
100
AcDbArc
 50
180.0
 51
270.0
  0
LINE
  5
1ED3C
100
AcDbEntity
  8
0
100
AcDbLine
 10
1470.906882
 20
1056.14431
 30
0.0
 11
1470.906882
 21
1050.14431
 31
0.0
  0
LINE
  5
1ED3D
100
AcDbEntity
  8
0
100
AcDbLine
 10
1515.906882
 20
1050.14431
 30
0.0
 11
1515.906882
 21
1056.14431
 31
0.0
  0
ARC
  5
1ED3E
100
AcDbEntity
  8
0
100
AcDbCircle
 10
1512.906882
 20
1050.14431
 30
0.0
 40
3.0
100
AcDbArc
 50
270.0
 51
0.0
  0
LINE
  5
1ED3F
100
AcDbEntity
  8
0
100
AcDbLine
 10
1586.303882
 20
1015.32731
 30
0.0
 11
1594.230882
 21
1015.21231
 31
0.0
  0
LINE
  5
1ED40
100
AcDbEntity
  8
0
100
AcDbLine
 10
1586.303882
 20
1015.32731
 30
0.0
 11
1586.303882
 21
1015.32731
 31
0.0
  0
ARC
  5
1ED41
100
AcDbEntity
  8
0
100
AcDbCircle
 10
1586.316745
 20
1016.727114
 30
0.0
 40
1.399862
100
AcDbArc
 50
179.991945
 51
269.473545
  0
LINE
  5
1ED42
100
AcDbEntity
  8
0
100
AcDbLine
 10
1584.916882
 20
1016.80231
 30
0.0
 11
1584.916882
 21
1016.72731
 31
0.0
  0
LINE
  5
1ED43
100
AcDbEntity
  8
0
100
AcDbLine
 10
1584.916882
 20
1008.15431
 30
0.0
 11
1594.799882
 21
1008.15431
 31
0.0
  0
LINE
  5
1ED44
100
AcDbEntity
  8
0
100
AcDbLine
 10
1587.716882
 20
982.03031
 30
0.0
 11
1587.716882
 21
982.03031
 31
0.0
  0
LINE
  5
1ED45
100
AcDbEntity
  8
0
100
AcDbLine
 10
1588.241882
 20
982.06831
 30
0.0
 11
1587.716882
 21
982.03031
 31
0.0
  0
LINE
  5
1ED46
100
AcDbEntity
  8
0
100
AcDbLine
 10
1588.504882
 20
982.09031
 30
0.0
 11
1588.241882
 21
982.06831
 31
0.0
  0
LINE
  5
1ED47
100
AcDbEntity
  8
0
100
AcDbLine
 10
1588.766882
 20
982.11331
 30
0.0
 11
1588.504882
 21
982.09031
 31
0.0
  0
LINE
  5
1ED48
100
AcDbEntity
  8
0
100
AcDbLine
 10
1589.029882
 20
982.13831
 30
0.0
 11
1588.766882
 21
982.11331
 31
0.0
  0
LINE
  5
1ED49
100
AcDbEntity
  8
0
100
AcDbLine
 10
1589.290882
 20
982.16531
 30
0.0
 11
1589.029882
 21
982.13831
 31
0.0
  0
LINE
  5
1ED4A
100
AcDbEntity
  8
0
100
AcDbLine
 10
1589.552882
 20
982.19331
 30
0.0
 11
1589.290882
 21
982.16531
 31
0.0
  0
LINE
  5
1ED4B
100
AcDbEntity
  8
0
100
AcDbLine
 10
1589.813882
 20
982.22331
 30
0.0
 11
1589.552882
 21
982.19331
 31
0.0
  0
LINE
  5
1ED4C
100
AcDbEntity
  8
0
100
AcDbLine
 10
1590.074882
 20
982.25531
 30
0.0
 11
1589.813882
 21
982.22331
 31
0.0
  0
LINE
  5
1ED4D
100
AcDbEntity
  8
0
100
AcDbLine
 10
1590.335882
 20
982.28831
 30
0.0
 11
1590.074882
 21
982.25531
 31
0.0
  0
LINE
  5
1ED4E
100
AcDbEntity
  8
0
100
AcDbLine
 10
1590.335882
 20
982.28831
 30
0.0
 11
1590.335882
 21
982.28831
 31
0.0
  0
LINE
  5
1ED4F
100
AcDbEntity
  8
0
100
AcDbLine
 10
1593.882882
 20
982.91031
 30
0.0
 11
1590.335882
 21
982.28831
 31
0.0
  0
ARC
  5
1ED50
100
AcDbEntity
  8
0
100
AcDbCircle
 10
1577.647348
 20
990.15431
 30
0.0
 40
16.972459
100
AcDbArc
 50
339.297608
 51
20.702392
  0
LINE
  5
1ED51
100
AcDbEntity
  8
0
100
AcDbLine
 10
1584.916882
 20
996.15431
 30
0.0
 11
1593.523882
 21
996.15431
 31
0.0
  0
LINE
  5
1ED52
100
AcDbEntity
  8
0
100
AcDbLine
 10
1594.799882
 20
984.15431
 30
0.0
 11
1584.916882
 21
984.15431
 31
0.0
  0
ARC
  5
1ED53
100
AcDbEntity
  8
0
100
AcDbCircle
 10
1577.647348
 20
1002.15431
 30
0.0
 40
16.972459
100
AcDbArc
 50
339.297608
 51
20.702392
  0
LINE
  5
1ED54
100
AcDbEntity
  8
0
100
AcDbLine
 10
1584.916882
 20
984.15431
 30
0.0
 11
1584.916882
 21
1008.15431
 31
0.0
  0
LINE
  5
1ED55
100
AcDbEntity
  8
0
100
AcDbLine
 10
1594.799882
 20
1008.15431
 30
0.0
 11
1594.799882
 21
984.15431
 31
0.0
  0
ARC
  5
1ED56
100
AcDbEntity
  8
0
100
AcDbCircle
 10
1587.91721
 20
979.036678
 30
0.0
 40
3.000328
100
AcDbArc
 50
93.828409
 51
180.007017
  0
LINE
  5
1ED57
100
AcDbEntity
  8
0
100
AcDbLine
 10
1580.560882
 20
1056.14431
 30
0.0
 11
1589.875882
 21
1046.82931
 31
0.0
  0
LINE
  5
1ED58
100
AcDbEntity
  8
0
100
AcDbLine
 10
1564.906882
 20
1056.14431
 30
0.0
 11
1564.906882
 21
1056.13831
 31
0.0
  0
LINE
  5
1ED59
100
AcDbEntity
  8
0
100
AcDbLine
 10
1564.906882
 20
1056.14431
 30
0.0
 11
1564.906882
 21
1056.15031
 31
0.0
  0
LINE
  5
1ED5A
100
AcDbEntity
  8
0
100
AcDbLine
 10
1662.093882
 20
1011.82531
 30
0.0
 11
1668.905882
 21
1011.82531
 31
0.0
  0
LINE
  5
1ED5B
100
AcDbEntity
  8
0
100
AcDbLine
 10
1658.794882
 20
1019.95831
 30
0.0
 11
1658.934882
 21
1020.04231
 31
0.0
  0
LINE
  5
1ED5C
100
AcDbEntity
  8
0
100
AcDbLine
 10
1658.375882
 20
1019.14431
 30
0.0
 11
1658.375882
 21
1056.14431
 31
0.0
  0
LINE
  5
1ED5D
100
AcDbEntity
  8
0
100
AcDbLine
 10
1630.186882
 20
1012.23831
 30
0.0
 11
1634.640882
 21
1011.25731
 31
0.0
  0
LINE
  5
1ED5E
100
AcDbEntity
  8
0
100
AcDbLine
 10
1635.575882
 20
998.40631
 30
0.0
 11
1631.926882
 21
995.26131
 31
0.0
  0
LINE
  5
1ED5F
100
AcDbEntity
  8
0
100
AcDbLine
 10
1617.762882
 20
1013.89031
 30
0.0
 11
1624.494882
 21
1013.12831
 31
0.0
  0
LINE
  5
1ED60
100
AcDbEntity
  8
0
100
AcDbLine
 10
1627.257882
 20
992.32031
 30
0.0
 11
1621.679882
 21
989.66431
 31
0.0
  0
LINE
  5
1ED61
100
AcDbEntity
  8
0
100
AcDbLine
 10
1602.311882
 20
1014.94031
 30
0.0
 11
1610.262882
 21
1014.49931
 31
0.0
  0
LINE
  5
1ED62
100
AcDbEntity
  8
0
100
AcDbLine
 10
1615.352882
 20
987.36031
 30
0.0
 11
1608.472882
 21
985.45531
 31
0.0
  0
LINE
  5
1ED63
100
AcDbEntity
  8
0
100
AcDbLine
 10
1621.679882
 20
989.66431
 30
0.0
 11
1615.352882
 21
987.36031
 31
0.0
  0
LINE
  5
1ED64
100
AcDbEntity
  8
0
100
AcDbLine
 10
1610.262882
 20
1014.49931
 30
0.0
 11
1617.762882
 21
1013.89031
 31
0.0
  0
LINE
  5
1ED65
100
AcDbEntity
  8
0
100
AcDbLine
 10
1624.494882
 20
1013.12831
 30
0.0
 11
1630.186882
 21
1012.23831
 31
0.0
  0
LINE
  5
1ED66
100
AcDbEntity
  8
0
100
AcDbLine
 10
1631.926882
 20
995.26131
 30
0.0
 11
1627.257882
 21
992.32031
 31
0.0
  0
ARC
  5
1ED67
100
AcDbEntity
  8
0
100
AcDbCircle
 10
1655.808775
 20
998.14431
 30
0.0
 40
2.0
100
AcDbArc
 50
145.345431
 51
270.0
  0
ARC
  5
1ED68
100
AcDbEntity
  8
0
100
AcDbCircle
 10
1639.172187
 20
978.14431
 30
0.0
 40
3.0
100
AcDbArc
 50
90.0
 51
130.774872
  0
LINE
  5
1ED69
100
AcDbEntity
  8
0
100
AcDbLine
 10
1658.668882
 20
1019.85131
 30
0.0
 11
1658.794882
 21
1019.95831
 31
0.0
  0
LINE
  5
1ED6A
100
AcDbEntity
  8
0
100
AcDbLine
 10
1658.561882
 20
1019.72531
 30
0.0
 11
1658.668882
 21
1019.85131
 31
0.0
  0
LINE
  5
1ED6B
100
AcDbEntity
  8
0
100
AcDbLine
 10
1658.478882
 20
1019.58631
 30
0.0
 11
1658.561882
 21
1019.72531
 31
0.0
  0
LINE
  5
1ED6C
100
AcDbEntity
  8
0
100
AcDbLine
 10
1658.419882
 20
1019.43831
 30
0.0
 11
1658.478882
 21
1019.58631
 31
0.0
  0
LINE
  5
1ED6D
100
AcDbEntity
  8
0
100
AcDbLine
 10
1658.386882
 20
1019.28931
 30
0.0
 11
1658.419882
 21
1019.43831
 31
0.0
  0
LINE
  5
1ED6E
100
AcDbEntity
  8
0
100
AcDbLine
 10
1658.375882
 20
1019.14431
 30
0.0
 11
1658.386882
 21
1019.28931
 31
0.0
  0
LINE
  5
1ED6F
100
AcDbEntity
  8
0
100
AcDbLine
 10
1658.375882
 20
1019.14431
 30
0.0
 11
1658.375882
 21
1019.14431
 31
0.0
  0
LINE
  5
1ED70
100
AcDbEntity
  8
0
100
AcDbLine
 10
1658.375882
 20
1019.05631
 30
0.0
 11
1658.375882
 21
1019.14431
 31
0.0
  0
LINE
  5
1ED71
100
AcDbEntity
  8
0
100
AcDbLine
 10
1658.354882
 20
1018.91131
 30
0.0
 11
1658.375882
 21
1019.05631
 31
0.0
  0
LINE
  5
1ED72
100
AcDbEntity
  8
0
100
AcDbLine
 10
1658.325882
 20
1018.83831
 30
0.0
 11
1658.354882
 21
1018.91131
 31
0.0
  0
LINE
  5
1ED73
100
AcDbEntity
  8
0
100
AcDbLine
 10
1658.285882
 20
1018.76931
 30
0.0
 11
1658.325882
 21
1018.83831
 31
0.0
  0
LINE
  5
1ED74
100
AcDbEntity
  8
0
100
AcDbLine
 10
1658.233882
 20
1018.70731
 30
0.0
 11
1658.285882
 21
1018.76931
 31
0.0
  0
LINE
  5
1ED75
100
AcDbEntity
  8
0
100
AcDbLine
 10
1658.172882
 20
1018.65331
 30
0.0
 11
1658.233882
 21
1018.70731
 31
0.0
  0
LINE
  5
1ED76
100
AcDbEntity
  8
0
100
AcDbLine
 10
1658.104882
 20
1018.61131
 30
0.0
 11
1658.172882
 21
1018.65331
 31
0.0
  0
LINE
  5
1ED77
100
AcDbEntity
  8
0
100
AcDbLine
 10
1658.032882
 20
1018.58131
 30
0.0
 11
1658.104882
 21
1018.61131
 31
0.0
  0
LINE
  5
1ED78
100
AcDbEntity
  8
0
100
AcDbLine
 10
1657.959882
 20
1018.56331
 30
0.0
 11
1658.032882
 21
1018.58131
 31
0.0
  0
LINE
  5
1ED79
100
AcDbEntity
  8
0
100
AcDbLine
 10
1657.888882
 20
1018.55631
 30
0.0
 11
1657.959882
 21
1018.56331
 31
0.0
  0
LINE
  5
1ED7A
100
AcDbEntity
  8
0
100
AcDbLine
 10
1657.888882
 20
1018.55631
 30
0.0
 11
1657.888882
 21
1018.55631
 31
0.0
  0
LINE
  5
1ED7B
100
AcDbEntity
  8
0
100
AcDbLine
 10
1656.905882
 20
996.14431
 30
0.0
 11
1655.808775
 21
996.14431
 31
0.0
  0
LINE
  5
1ED7C
100
AcDbEntity
  8
0
100
AcDbLine
 10
1656.905882
 20
981.14431
 30
0.0
 11
1656.905882
 21
996.14431
 31
0.0
  0
LINE
  5
1ED7D
100
AcDbEntity
  8
0
100
AcDbLine
 10
1640.125882
 20
1008.16931
 30
0.0
 11
1640.125882
 21
1008.16931
 31
0.0
  0
LINE
  5
1ED7E
100
AcDbEntity
  8
0
100
AcDbLine
 10
1637.761882
 20
1010.22531
 30
0.0
 11
1640.125882
 21
1008.16931
 31
0.0
  0
LINE
  5
1ED7F
100
AcDbEntity
  8
0
100
AcDbLine
 10
1634.640882
 20
1011.25731
 30
0.0
 11
1637.761882
 21
1010.22531
 31
0.0
  0
LINE
  5
1ED80
100
AcDbEntity
  8
0
100
AcDbLine
 10
1638.146882
 20
1001.66431
 30
0.0
 11
1635.575882
 21
998.40631
 31
0.0
  0
LINE
  5
1ED81
100
AcDbEntity
  8
0
100
AcDbLine
 10
1639.645882
 20
1004.94531
 30
0.0
 11
1638.146882
 21
1001.66431
 31
0.0
  0
LINE
  5
1ED82
100
AcDbEntity
  8
0
100
AcDbLine
 10
1640.125882
 20
1008.16931
 30
0.0
 11
1639.645882
 21
1004.94531
 31
0.0
  0
LINE
  5
1ED83
100
AcDbEntity
  8
0
100
AcDbLine
 10
1639.172187
 20
981.14431
 30
0.0
 11
1656.905882
 21
981.14431
 31
0.0
  0
CIRCLE
  5
1ED84
100
AcDbEntity
  8
0
100
AcDbCircle
 10
1627.875882
 20
1040.14431
 30
0.0
 40
9.31546
  0
LINE
  5
1ED85
100
AcDbEntity
  8
0
100
AcDbLine
 10
1659.375882
 20
1020.14431
 30
0.0
 11
1660.375882
 21
1020.14431
 31
0.0
  0
LINE
  5
1ED86
100
AcDbEntity
  8
0
100
AcDbLine
 10
1659.081882
 20
1020.10031
 30
0.0
 11
1659.375882
 21
1020.14431
 31
0.0
  0
LINE
  5
1ED87
100
AcDbEntity
  8
0
100
AcDbLine
 10
1660.375882
 20
1020.14431
 30
0.0
 11
1660.375882
 21
1056.14431
 31
0.0
  0
LINE
  5
1ED88
100
AcDbEntity
  8
0
100
AcDbLine
 10
1658.934882
 20
1020.04231
 30
0.0
 11
1659.081882
 21
1020.10031
 31
0.0
  0
LINE
  5
1ED89
100
AcDbEntity
  8
0
100
AcDbLine
 10
1671.905882
 20
1014.82531
 30
0.0
 11
1671.905882
 21
1022.98631
 31
0.0
  0
LINE
  5
1ED8A
100
AcDbEntity
  8
0
100
AcDbLine
 10
1671.773882
 20
1013.94331
 30
0.0
 11
1671.905882
 21
1014.82531
 31
0.0
  0
LINE
  5
1ED8B
100
AcDbEntity
  8
0
100
AcDbLine
 10
1671.597882
 20
1013.50131
 30
0.0
 11
1671.773882
 21
1013.94331
 31
0.0
  0
LINE
  5
1ED8C
100
AcDbEntity
  8
0
100
AcDbLine
 10
1671.347882
 20
1013.08131
 30
0.0
 11
1671.597882
 21
1013.50131
 31
0.0
  0
LINE
  5
1ED8D
100
AcDbEntity
  8
0
100
AcDbLine
 10
1671.027882
 20
1012.70331
 30
0.0
 11
1671.347882
 21
1013.08131
 31
0.0
  0
LINE
  5
1ED8E
100
AcDbEntity
  8
0
100
AcDbLine
 10
1670.649882
 20
1012.38331
 30
0.0
 11
1671.027882
 21
1012.70331
 31
0.0
  0
LINE
  5
1ED8F
100
AcDbEntity
  8
0
100
AcDbLine
 10
1670.229882
 20
1012.13231
 30
0.0
 11
1670.649882
 21
1012.38331
 31
0.0
  0
LINE
  5
1ED90
100
AcDbEntity
  8
0
100
AcDbLine
 10
1669.787882
 20
1011.95731
 30
0.0
 11
1670.229882
 21
1012.13231
 31
0.0
  0
LINE
  5
1ED91
100
AcDbEntity
  8
0
100
AcDbLine
 10
1669.340882
 20
1011.85631
 30
0.0
 11
1669.787882
 21
1011.95731
 31
0.0
  0
LINE
  5
1ED92
100
AcDbEntity
  8
0
100
AcDbLine
 10
1668.905882
 20
1011.82531
 30
0.0
 11
1669.340882
 21
1011.85631
 31
0.0
  0
LINE
  5
1ED93
100
AcDbEntity
  8
0
100
AcDbLine
 10
1668.905882
 20
1011.82531
 30
0.0
 11
1668.905882
 21
1011.82531
 31
0.0
  0
LINE
  5
1ED94
100
AcDbEntity
  8
0
100
AcDbLine
 10
1679.905882
 20
1026.14431
 30
0.0
 11
1681.905882
 21
1028.14431
 31
0.0
  0
LINE
  5
1ED95
100
AcDbEntity
  8
0
100
AcDbLine
 10
1675.063882
 20
1026.14431
 30
0.0
 11
1679.905882
 21
1026.14431
 31
0.0
  0
LINE
  5
1ED96
100
AcDbEntity
  8
0
100
AcDbLine
 10
1674.135882
 20
1026.00531
 30
0.0
 11
1675.063882
 21
1026.14431
 31
0.0
  0
LINE
  5
1ED97
100
AcDbEntity
  8
0
100
AcDbLine
 10
1673.669882
 20
1025.82031
 30
0.0
 11
1674.135882
 21
1026.00531
 31
0.0
  0
LINE
  5
1ED98
100
AcDbEntity
  8
0
100
AcDbLine
 10
1673.228882
 20
1025.55631
 30
0.0
 11
1673.669882
 21
1025.82031
 31
0.0
  0
LINE
  5
1ED99
100
AcDbEntity
  8
0
100
AcDbLine
 10
1672.830882
 20
1025.21931
 30
0.0
 11
1673.228882
 21
1025.55631
 31
0.0
  0
LINE
  5
1ED9A
100
AcDbEntity
  8
0
100
AcDbLine
 10
1672.493882
 20
1024.82231
 30
0.0
 11
1672.830882
 21
1025.21931
 31
0.0
  0
LINE
  5
1ED9B
100
AcDbEntity
  8
0
100
AcDbLine
 10
1672.229882
 20
1024.38031
 30
0.0
 11
1672.493882
 21
1024.82231
 31
0.0
  0
LINE
  5
1ED9C
100
AcDbEntity
  8
0
100
AcDbLine
 10
1672.044882
 20
1023.91431
 30
0.0
 11
1672.229882
 21
1024.38031
 31
0.0
  0
LINE
  5
1ED9D
100
AcDbEntity
  8
0
100
AcDbLine
 10
1671.938882
 20
1023.44431
 30
0.0
 11
1672.044882
 21
1023.91431
 31
0.0
  0
LINE
  5
1ED9E
100
AcDbEntity
  8
0
100
AcDbLine
 10
1671.905882
 20
1022.98631
 30
0.0
 11
1671.938882
 21
1023.44431
 31
0.0
  0
LINE
  5
1ED9F
100
AcDbEntity
  8
0
100
AcDbLine
 10
1671.905882
 20
1022.98631
 30
0.0
 11
1671.905882
 21
1022.98631
 31
0.0
  0
LINE
  5
1EDA0
100
AcDbEntity
  8
0
100
AcDbLine
 10
1681.905882
 20
1028.14431
 30
0.0
 11
1681.905882
 21
1056.14431
 31
0.0
  0
LINE
  5
1EDA1
100
AcDbEntity
  8
0
100
AcDbLine
 10
1679.905882
 20
1026.14431
 30
0.0
 11
1679.905882
 21
1056.14431
 31
0.0
  0
LINE
  5
1EDA2
100
AcDbEntity
  8
0
100
AcDbLine
 10
1671.905882
 20
1022.98631
 30
0.0
 11
1671.905882
 21
1056.14431
 31
0.0
  0
LINE
  5
1EDA3
100
AcDbEntity
  8
0
100
AcDbLine
 10
1608.472882
 20
1126.83431
 30
0.0
 11
1593.882882
 21
1129.37831
 31
0.0
  0
LINE
  5
1EDA4
100
AcDbEntity
  8
0
100
AcDbLine
 10
1594.230882
 20
1097.07731
 30
0.0
 11
1602.311882
 21
1097.34931
 31
0.0
  0
LINE
  5
1EDA5
100
AcDbEntity
  8
0
100
AcDbLine
 10
1564.916882
 20
1096.14431
 30
0.0
 11
1657.888882
 21
1093.73331
 31
0.0
  0
LINE
  5
1EDA6
100
AcDbEntity
  8
0
100
AcDbLine
 10
1584.916882
 20
1095.56131
 30
0.0
 11
1584.916882
 21
1155.21531
 31
0.0
  0
LINE
  5
1EDA7
100
AcDbEntity
  8
0
100
AcDbLine
 10
1473.906882
 20
1065.14431
 30
0.0
 11
1512.906882
 21
1065.14431
 31
0.0
  0
ARC
  5
1EDA8
100
AcDbEntity
  8
0
100
AcDbCircle
 10
1473.906882
 20
1062.14431
 30
0.0
 40
3.0
100
AcDbArc
 50
90.0
 51
180.0
  0
ARC
  5
1EDA9
100
AcDbEntity
  8
0
100
AcDbCircle
 10
1512.906882
 20
1062.14431
 30
0.0
 40
3.0
100
AcDbArc
 50
0.0
 51
90.0
  0
LINE
  5
1EDAA
100
AcDbEntity
  8
0
100
AcDbLine
 10
1586.303882
 20
1096.96231
 30
0.0
 11
1594.230882
 21
1097.07731
 31
0.0
  0
LINE
  5
1EDAB
100
AcDbEntity
  8
0
100
AcDbLine
 10
1586.303882
 20
1096.96231
 30
0.0
 11
1586.303882
 21
1096.96231
 31
0.0
  0
ARC
  5
1EDAC
100
AcDbEntity
  8
0
100
AcDbCircle
 10
1586.316745
 20
1095.562507
 30
0.0
 40
1.399862
100
AcDbArc
 50
90.526455
 51
180.008055
  0
LINE
  5
1EDAD
100
AcDbEntity
  8
0
100
AcDbLine
 10
1584.916882
 20
1095.48631
 30
0.0
 11
1584.916882
 21
1095.56231
 31
0.0
  0
LINE
  5
1EDAE
100
AcDbEntity
  8
0
100
AcDbLine
 10
1587.716882
 20
1130.25931
 30
0.0
 11
1587.716882
 21
1130.25931
 31
0.0
  0
LINE
  5
1EDAF
100
AcDbEntity
  8
0
100
AcDbLine
 10
1588.241882
 20
1130.22031
 30
0.0
 11
1587.716882
 21
1130.25931
 31
0.0
  0
LINE
  5
1EDB0
100
AcDbEntity
  8
0
100
AcDbLine
 10
1588.504882
 20
1130.19931
 30
0.0
 11
1588.241882
 21
1130.22031
 31
0.0
  0
LINE
  5
1EDB1
100
AcDbEntity
  8
0
100
AcDbLine
 10
1588.766882
 20
1130.17531
 30
0.0
 11
1588.504882
 21
1130.19931
 31
0.0
  0
LINE
  5
1EDB2
100
AcDbEntity
  8
0
100
AcDbLine
 10
1589.029882
 20
1130.15031
 30
0.0
 11
1588.766882
 21
1130.17531
 31
0.0
  0
LINE
  5
1EDB3
100
AcDbEntity
  8
0
100
AcDbLine
 10
1589.290882
 20
1130.12431
 30
0.0
 11
1589.029882
 21
1130.15031
 31
0.0
  0
LINE
  5
1EDB4
100
AcDbEntity
  8
0
100
AcDbLine
 10
1589.552882
 20
1130.09531
 30
0.0
 11
1589.290882
 21
1130.12431
 31
0.0
  0
LINE
  5
1EDB5
100
AcDbEntity
  8
0
100
AcDbLine
 10
1589.813882
 20
1130.06531
 30
0.0
 11
1589.552882
 21
1130.09531
 31
0.0
  0
LINE
  5
1EDB6
100
AcDbEntity
  8
0
100
AcDbLine
 10
1590.074882
 20
1130.03431
 30
0.0
 11
1589.813882
 21
1130.06531
 31
0.0
  0
LINE
  5
1EDB7
100
AcDbEntity
  8
0
100
AcDbLine
 10
1590.335882
 20
1130.00131
 30
0.0
 11
1590.074882
 21
1130.03431
 31
0.0
  0
LINE
  5
1EDB8
100
AcDbEntity
  8
0
100
AcDbLine
 10
1590.335882
 20
1130.00131
 30
0.0
 11
1590.335882
 21
1130.00131
 31
0.0
  0
LINE
  5
1EDB9
100
AcDbEntity
  8
0
100
AcDbLine
 10
1593.882882
 20
1129.37831
 30
0.0
 11
1590.335882
 21
1130.00131
 31
0.0
  0
LINE
  5
1EDBA
100
AcDbEntity
  8
0
100
AcDbLine
 10
1584.916882
 20
1128.14931
 30
0.0
 11
1594.799882
 21
1128.14931
 31
0.0
  0
ARC
  5
1EDBB
100
AcDbEntity
  8
0
100
AcDbCircle
 10
1577.647348
 20
1110.14931
 30
0.0
 40
16.972459
100
AcDbArc
 50
339.297608
 51
20.702392
  0
LINE
  5
1EDBC
100
AcDbEntity
  8
0
100
AcDbLine
 10
1584.916882
 20
1116.14931
 30
0.0
 11
1593.523882
 21
1116.14931
 31
0.0
  0
LINE
  5
1EDBD
100
AcDbEntity
  8
0
100
AcDbLine
 10
1594.799882
 20
1104.14931
 30
0.0
 11
1584.916882
 21
1104.14931
 31
0.0
  0
ARC
  5
1EDBE
100
AcDbEntity
  8
0
100
AcDbCircle
 10
1577.647348
 20
1122.14931
 30
0.0
 40
16.972459
100
AcDbArc
 50
339.297608
 51
20.702392
  0
LINE
  5
1EDBF
100
AcDbEntity
  8
0
100
AcDbLine
 10
1584.916882
 20
1104.14931
 30
0.0
 11
1584.916882
 21
1128.14931
 31
0.0
  0
LINE
  5
1EDC0
100
AcDbEntity
  8
0
100
AcDbLine
 10
1594.799882
 20
1128.14931
 30
0.0
 11
1594.799882
 21
1104.14931
 31
0.0
  0
ARC
  5
1EDC1
100
AcDbEntity
  8
0
100
AcDbCircle
 10
1587.916676
 20
1133.252443
 30
0.0
 40
2.999793
100
AcDbArc
 50
180.002532
 51
266.181139
  0
ARC
  5
1EDC2
100
AcDbEntity
  8
0
100
AcDbCircle
 10
1533.263299
 20
1158.64431
 30
0.0
 40
10.0
100
AcDbArc
 50
229.398939
 51
270.0
  0
ARC
  5
1EDC3
100
AcDbEntity
  8
0
100
AcDbCircle
 10
1533.263632
 20
1158.644786
 30
0.0
 40
10.000476
100
AcDbArc
 50
229.394731
 51
269.995702
  0
LINE
  5
1EDC4
100
AcDbEntity
  8
0
100
AcDbLine
 10
1546.406882
 20
1168.64431
 30
0.0
 11
1499.892882
 21
1168.64431
 31
0.0
  0
LINE
  5
1EDC5
100
AcDbEntity
  8
0
100
AcDbLine
 10
1544.284882
 20
1167.76631
 30
0.0
 11
1543.964882
 21
1167.38831
 31
0.0
  0
LINE
  5
1EDC6
100
AcDbEntity
  8
0
100
AcDbLine
 10
1544.662882
 20
1168.08631
 30
0.0
 11
1544.284882
 21
1167.76631
 31
0.0
  0
LINE
  5
1EDC7
100
AcDbEntity
  8
0
100
AcDbLine
 10
1545.082882
 20
1168.33631
 30
0.0
 11
1544.662882
 21
1168.08631
 31
0.0
  0
LINE
  5
1EDC8
100
AcDbEntity
  8
0
100
AcDbLine
 10
1545.524882
 20
1168.51231
 30
0.0
 11
1545.082882
 21
1168.33631
 31
0.0
  0
LINE
  5
1EDC9
100
AcDbEntity
  8
0
100
AcDbLine
 10
1545.971882
 20
1168.61331
 30
0.0
 11
1545.524882
 21
1168.51231
 31
0.0
  0
LINE
  5
1EDCA
100
AcDbEntity
  8
0
100
AcDbLine
 10
1546.406882
 20
1168.64431
 30
0.0
 11
1545.971882
 21
1168.61331
 31
0.0
  0
LINE
  5
1EDCB
100
AcDbEntity
  8
0
100
AcDbLine
 10
1546.406882
 20
1168.64431
 30
0.0
 11
1546.406882
 21
1168.64431
 31
0.0
  0
LINE
  5
1EDCC
100
AcDbEntity
  8
0
100
AcDbLine
 10
1563.406882
 20
1168.64431
 30
0.0
 11
1546.406882
 21
1168.64431
 31
0.0
  0
LINE
  5
1EDCD
100
AcDbEntity
  8
0
100
AcDbLine
 10
1543.353882
 20
1152.92031
 30
0.0
 11
1543.185882
 21
1152.17531
 31
0.0
  0
LINE
  5
1EDCE
100
AcDbEntity
  8
0
100
AcDbLine
 10
1543.406882
 20
1153.64431
 30
0.0
 11
1543.353882
 21
1152.92031
 31
0.0
  0
LINE
  5
1EDCF
100
AcDbEntity
  8
0
100
AcDbLine
 10
1543.406882
 20
1153.64431
 30
0.0
 11
1543.406882
 21
1153.64431
 31
0.0
  0
LINE
  5
1EDD0
100
AcDbEntity
  8
0
100
AcDbLine
 10
1543.406882
 20
1165.64431
 30
0.0
 11
1543.406882
 21
1153.64431
 31
0.0
  0
LINE
  5
1EDD1
100
AcDbEntity
  8
0
100
AcDbLine
 10
1543.538882
 20
1166.52631
 30
0.0
 11
1543.406882
 21
1165.64431
 31
0.0
  0
LINE
  5
1EDD2
100
AcDbEntity
  8
0
100
AcDbLine
 10
1543.714882
 20
1166.96831
 30
0.0
 11
1543.538882
 21
1166.52631
 31
0.0
  0
LINE
  5
1EDD3
100
AcDbEntity
  8
0
100
AcDbLine
 10
1543.964882
 20
1167.38831
 30
0.0
 11
1543.714882
 21
1166.96831
 31
0.0
  0
LINE
  5
1EDD4
100
AcDbEntity
  8
0
100
AcDbLine
 10
1539.875882
 20
1148.86531
 30
0.0
 11
1538.406882
 21
1148.64431
 31
0.0
  0
LINE
  5
1EDD5
100
AcDbEntity
  8
0
100
AcDbLine
 10
1540.612882
 20
1149.15731
 30
0.0
 11
1539.875882
 21
1148.86531
 31
0.0
  0
LINE
  5
1EDD6
100
AcDbEntity
  8
0
100
AcDbLine
 10
1541.311882
 20
1149.57531
 30
0.0
 11
1540.612882
 21
1149.15731
 31
0.0
  0
LINE
  5
1EDD7
100
AcDbEntity
  8
0
100
AcDbLine
 10
1541.941882
 20
1150.10931
 30
0.0
 11
1541.311882
 21
1149.57531
 31
0.0
  0
LINE
  5
1EDD8
100
AcDbEntity
  8
0
100
AcDbLine
 10
1542.475882
 20
1150.73931
 30
0.0
 11
1541.941882
 21
1150.10931
 31
0.0
  0
LINE
  5
1EDD9
100
AcDbEntity
  8
0
100
AcDbLine
 10
1542.893882
 20
1151.43831
 30
0.0
 11
1542.475882
 21
1150.73931
 31
0.0
  0
LINE
  5
1EDDA
100
AcDbEntity
  8
0
100
AcDbLine
 10
1538.406882
 20
1148.64431
 30
0.0
 11
1533.263299
 21
1148.64431
 31
0.0
  0
LINE
  5
1EDDB
100
AcDbEntity
  8
0
100
AcDbLine
 10
1543.185882
 20
1152.17531
 30
0.0
 11
1542.893882
 21
1151.43831
 31
0.0
  0
LINE
  5
1EDDC
100
AcDbEntity
  8
0
100
AcDbLine
 10
1582.797882
 20
1168.51231
 30
0.0
 11
1581.916882
 21
1168.64431
 31
0.0
  0
LINE
  5
1EDDD
100
AcDbEntity
  8
0
100
AcDbLine
 10
1583.239882
 20
1168.33631
 30
0.0
 11
1582.797882
 21
1168.51231
 31
0.0
  0
LINE
  5
1EDDE
100
AcDbEntity
  8
0
100
AcDbLine
 10
1583.659882
 20
1168.08631
 30
0.0
 11
1583.239882
 21
1168.33631
 31
0.0
  0
LINE
  5
1EDDF
100
AcDbEntity
  8
0
100
AcDbLine
 10
1584.037882
 20
1167.76631
 30
0.0
 11
1583.659882
 21
1168.08631
 31
0.0
  0
LINE
  5
1EDE0
100
AcDbEntity
  8
0
100
AcDbLine
 10
1584.357882
 20
1167.38731
 30
0.0
 11
1584.037882
 21
1167.76631
 31
0.0
  0
LINE
  5
1EDE1
100
AcDbEntity
  8
0
100
AcDbLine
 10
1584.783882
 20
1166.52631
 30
0.0
 11
1584.608882
 21
1166.96831
 31
0.0
  0
LINE
  5
1EDE2
100
AcDbEntity
  8
0
100
AcDbLine
 10
1584.884882
 20
1166.07931
 30
0.0
 11
1584.783882
 21
1166.52631
 31
0.0
  0
LINE
  5
1EDE3
100
AcDbEntity
  8
0
100
AcDbLine
 10
1584.916882
 20
1165.64431
 30
0.0
 11
1584.884882
 21
1166.07931
 31
0.0
  0
LINE
  5
1EDE4
100
AcDbEntity
  8
0
100
AcDbLine
 10
1584.916882
 20
1165.64431
 30
0.0
 11
1584.916882
 21
1165.64431
 31
0.0
  0
LINE
  5
1EDE5
100
AcDbEntity
  8
0
100
AcDbLine
 10
1584.916882
 20
1155.21531
 30
0.0
 11
1584.916882
 21
1165.64431
 31
0.0
  0
ARC
  5
1EDE6
100
AcDbEntity
  8
0
100
AcDbCircle
 10
1586.916999
 20
1157.033535
 30
0.0
 40
2.000117
100
AcDbArc
 50
179.977797
 51
261.515041
  0
LINE
  5
1EDE7
100
AcDbEntity
  8
0
100
AcDbLine
 10
1586.621882
 20
1155.05531
 30
0.0
 11
1586.621882
 21
1155.05531
 31
0.0
  0
LINE
  5
1EDE8
100
AcDbEntity
  8
0
100
AcDbLine
 10
1594.799882
 20
1164.65431
 30
0.0
 11
1594.799882
 21
1153.48831
 31
0.0
  0
LINE
  5
1EDE9
100
AcDbEntity
  8
0
100
AcDbLine
 10
1584.916882
 20
1164.65431
 30
0.0
 11
1594.799882
 21
1164.65431
 31
0.0
  0
LINE
  5
1EDEA
100
AcDbEntity
  8
0
100
AcDbLine
 10
1593.523882
 20
1164.65431
 30
0.0
 11
1584.916882
 21
1164.65431
 31
0.0
  0
LINE
  5
1EDEB
100
AcDbEntity
  8
0
100
AcDbLine
 10
1594.386882
 20
1155.85231
 30
0.0
 11
1593.880882
 21
1153.70031
 31
0.0
  0
LINE
  5
1EDEC
100
AcDbEntity
  8
0
100
AcDbLine
 10
1594.534882
 20
1156.96031
 30
0.0
 11
1594.386882
 21
1155.85231
 31
0.0
  0
LINE
  5
1EDED
100
AcDbEntity
  8
0
100
AcDbLine
 10
1594.609882
 20
1158.08131
 30
0.0
 11
1594.534882
 21
1156.96031
 31
0.0
  0
LINE
  5
1EDEE
100
AcDbEntity
  8
0
100
AcDbLine
 10
1594.610882
 20
1159.20631
 30
0.0
 11
1594.609882
 21
1158.08131
 31
0.0
  0
LINE
  5
1EDEF
100
AcDbEntity
  8
0
100
AcDbLine
 10
1594.536882
 20
1160.32931
 30
0.0
 11
1594.610882
 21
1159.20631
 31
0.0
  0
LINE
  5
1EDF0
100
AcDbEntity
  8
0
100
AcDbLine
 10
1594.388882
 20
1161.44331
 30
0.0
 11
1594.536882
 21
1160.32931
 31
0.0
  0
LINE
  5
1EDF1
100
AcDbEntity
  8
0
100
AcDbLine
 10
1594.168882
 20
1162.53931
 30
0.0
 11
1594.388882
 21
1161.44331
 31
0.0
  0
LINE
  5
1EDF2
100
AcDbEntity
  8
0
100
AcDbLine
 10
1593.879882
 20
1163.61131
 30
0.0
 11
1594.168882
 21
1162.53931
 31
0.0
  0
LINE
  5
1EDF3
100
AcDbEntity
  8
0
100
AcDbLine
 10
1593.523882
 20
1164.65431
 30
0.0
 11
1593.879882
 21
1163.61131
 31
0.0
  0
LINE
  5
1EDF4
100
AcDbEntity
  8
0
100
AcDbLine
 10
1584.608882
 20
1166.96831
 30
0.0
 11
1584.357882
 21
1167.38731
 31
0.0
  0
LINE
  5
1EDF5
100
AcDbEntity
  8
0
100
AcDbLine
 10
1581.916882
 20
1168.64431
 30
0.0
 11
1564.916882
 21
1168.64431
 31
0.0
  0
LINE
  5
1EDF6
100
AcDbEntity
  8
0
100
AcDbLine
 10
1662.093882
 20
1100.46431
 30
0.0
 11
1668.905882
 21
1100.46431
 31
0.0
  0
LINE
  5
1EDF7
100
AcDbEntity
  8
0
100
AcDbLine
 10
1634.640882
 20
1101.03231
 30
0.0
 11
1637.761882
 21
1102.06431
 31
0.0
  0
LINE
  5
1EDF8
100
AcDbEntity
  8
0
100
AcDbLine
 10
1630.186882
 20
1100.05131
 30
0.0
 11
1634.640882
 21
1101.03231
 31
0.0
  0
LINE
  5
1EDF9
100
AcDbEntity
  8
0
100
AcDbLine
 10
1637.191882
 20
1072.14431
 30
0.0
 11
1627.875882
 21
1062.82931
 31
0.0
  0
LINE
  5
1EDFA
100
AcDbEntity
  8
0
100
AcDbLine
 10
1627.875882
 20
1081.46031
 30
0.0
 11
1637.191882
 21
1072.14431
 31
0.0
  0
CIRCLE
  5
1EDFB
100
AcDbEntity
  8
0
100
AcDbCircle
 10
1627.875882
 20
1072.14431
 30
0.0
 40
9.31546
  0
LINE
  5
1EDFC
100
AcDbEntity
  8
0
100
AcDbLine
 10
1617.762882
 20
1098.39931
 30
0.0
 11
1624.494882
 21
1099.16131
 31
0.0
  0
LINE
  5
1EDFD
100
AcDbEntity
  8
0
100
AcDbLine
 10
1602.311882
 20
1097.34931
 30
0.0
 11
1610.262882
 21
1097.79031
 31
0.0
  0
LINE
  5
1EDFE
100
AcDbEntity
  8
0
100
AcDbLine
 10
1610.262882
 20
1097.79031
 30
0.0
 11
1617.762882
 21
1098.39931
 31
0.0
  0
LINE
  5
1EDFF
100
AcDbEntity
  8
0
100
AcDbLine
 10
1627.875882
 20
1062.82931
 30
0.0
 11
1618.560882
 21
1072.14431
 31
0.0
  0
LINE
  5
1EE00
100
AcDbEntity
  8
0
100
AcDbLine
 10
1618.560882
 20
1072.14431
 30
0.0
 11
1627.875882
 21
1081.46031
 31
0.0
  0
LINE
  5
1EE01
100
AcDbEntity
  8
0
100
AcDbLine
 10
1624.494882
 20
1099.16131
 30
0.0
 11
1630.186882
 21
1100.05131
 31
0.0
  0
LINE
  5
1EE02
100
AcDbEntity
  8
0
100
AcDbLine
 10
1659.375882
 20
1092.14431
 30
0.0
 11
1660.375882
 21
1092.14431
 31
0.0
  0
LINE
  5
1EE03
100
AcDbEntity
  8
0
100
AcDbLine
 10
1659.081882
 20
1092.18831
 30
0.0
 11
1659.375882
 21
1092.14431
 31
0.0
  0
LINE
  5
1EE04
100
AcDbEntity
  8
0
100
AcDbLine
 10
1658.794882
 20
1092.33031
 30
0.0
 11
1658.934882
 21
1092.24731
 31
0.0
  0
LINE
  5
1EE05
100
AcDbEntity
  8
0
100
AcDbLine
 10
1658.668882
 20
1092.43731
 30
0.0
 11
1658.794882
 21
1092.33031
 31
0.0
  0
LINE
  5
1EE06
100
AcDbEntity
  8
0
100
AcDbLine
 10
1658.561882
 20
1092.56331
 30
0.0
 11
1658.668882
 21
1092.43731
 31
0.0
  0
LINE
  5
1EE07
100
AcDbEntity
  8
0
100
AcDbLine
 10
1658.478882
 20
1092.70331
 30
0.0
 11
1658.561882
 21
1092.56331
 31
0.0
  0
LINE
  5
1EE08
100
AcDbEntity
  8
0
100
AcDbLine
 10
1658.419882
 20
1092.85031
 30
0.0
 11
1658.478882
 21
1092.70331
 31
0.0
  0
LINE
  5
1EE09
100
AcDbEntity
  8
0
100
AcDbLine
 10
1658.386882
 20
1092.99931
 30
0.0
 11
1658.419882
 21
1092.85031
 31
0.0
  0
LINE
  5
1EE0A
100
AcDbEntity
  8
0
100
AcDbLine
 10
1658.375882
 20
1093.14431
 30
0.0
 11
1658.386882
 21
1092.99931
 31
0.0
  0
LINE
  5
1EE0B
100
AcDbEntity
  8
0
100
AcDbLine
 10
1658.375882
 20
1093.14431
 30
0.0
 11
1658.375882
 21
1093.14431
 31
0.0
  0
LINE
  5
1EE0C
100
AcDbEntity
  8
0
100
AcDbLine
 10
1658.375882
 20
1093.23331
 30
0.0
 11
1658.375882
 21
1093.14431
 31
0.0
  0
LINE
  5
1EE0D
100
AcDbEntity
  8
0
100
AcDbLine
 10
1658.354882
 20
1093.37831
 30
0.0
 11
1658.375882
 21
1093.23331
 31
0.0
  0
LINE
  5
1EE0E
100
AcDbEntity
  8
0
100
AcDbLine
 10
1658.325882
 20
1093.45031
 30
0.0
 11
1658.354882
 21
1093.37831
 31
0.0
  0
LINE
  5
1EE0F
100
AcDbEntity
  8
0
100
AcDbLine
 10
1658.285882
 20
1093.51931
 30
0.0
 11
1658.325882
 21
1093.45031
 31
0.0
  0
LINE
  5
1EE10
100
AcDbEntity
  8
0
100
AcDbLine
 10
1658.233882
 20
1093.58231
 30
0.0
 11
1658.285882
 21
1093.51931
 31
0.0
  0
LINE
  5
1EE11
100
AcDbEntity
  8
0
100
AcDbLine
 10
1658.172882
 20
1093.63531
 30
0.0
 11
1658.233882
 21
1093.58231
 31
0.0
  0
LINE
  5
1EE12
100
AcDbEntity
  8
0
100
AcDbLine
 10
1658.104882
 20
1093.67731
 30
0.0
 11
1658.172882
 21
1093.63531
 31
0.0
  0
LINE
  5
1EE13
100
AcDbEntity
  8
0
100
AcDbLine
 10
1658.032882
 20
1093.70831
 30
0.0
 11
1658.104882
 21
1093.67731
 31
0.0
  0
LINE
  5
1EE14
100
AcDbEntity
  8
0
100
AcDbLine
 10
1657.959882
 20
1093.72631
 30
0.0
 11
1658.032882
 21
1093.70831
 31
0.0
  0
LINE
  5
1EE15
100
AcDbEntity
  8
0
100
AcDbLine
 10
1657.888882
 20
1093.73331
 30
0.0
 11
1657.959882
 21
1093.72631
 31
0.0
  0
LINE
  5
1EE16
100
AcDbEntity
  8
0
100
AcDbLine
 10
1657.888882
 20
1093.73331
 30
0.0
 11
1657.888882
 21
1093.73331
 31
0.0
  0
LINE
  5
1EE17
100
AcDbEntity
  8
0
100
AcDbLine
 10
1658.934882
 20
1092.24731
 30
0.0
 11
1659.081882
 21
1092.18831
 31
0.0
  0
LINE
  5
1EE18
100
AcDbEntity
  8
0
100
AcDbLine
 10
1635.575882
 20
1113.88331
 30
0.0
 11
1631.926882
 21
1117.02831
 31
0.0
  0
LINE
  5
1EE19
100
AcDbEntity
  8
0
100
AcDbLine
 10
1615.352882
 20
1124.92931
 30
0.0
 11
1608.472882
 21
1126.83431
 31
0.0
  0
LINE
  5
1EE1A
100
AcDbEntity
  8
0
100
AcDbLine
 10
1621.679882
 20
1122.62531
 30
0.0
 11
1615.352882
 21
1124.92931
 31
0.0
  0
LINE
  5
1EE1B
100
AcDbEntity
  8
0
100
AcDbLine
 10
1627.257882
 20
1119.96931
 30
0.0
 11
1621.679882
 21
1122.62531
 31
0.0
  0
LINE
  5
1EE1C
100
AcDbEntity
  8
0
100
AcDbLine
 10
1631.926882
 20
1117.02831
 30
0.0
 11
1627.257882
 21
1119.96931
 31
0.0
  0
ARC
  5
1EE1D
100
AcDbEntity
  8
0
100
AcDbCircle
 10
1639.172187
 20
1134.14431
 30
0.0
 40
3.0
100
AcDbArc
 50
229.225128
 51
270.0
  0
LINE
  5
1EE1E
100
AcDbEntity
  8
0
100
AcDbLine
 10
1656.905882
 20
1116.14431
 30
0.0
 11
1655.808775
 21
1116.14431
 31
0.0
  0
ARC
  5
1EE1F
100
AcDbEntity
  8
0
100
AcDbCircle
 10
1655.808775
 20
1114.14431
 30
0.0
 40
2.0
100
AcDbArc
 50
90.0
 51
214.654569
  0
LINE
  5
1EE20
100
AcDbEntity
  8
0
100
AcDbLine
 10
1656.905882
 20
1131.14431
 30
0.0
 11
1656.905882
 21
1116.14431
 31
0.0
  0
LINE
  5
1EE21
100
AcDbEntity
  8
0
100
AcDbLine
 10
1638.146882
 20
1110.62531
 30
0.0
 11
1635.575882
 21
1113.88331
 31
0.0
  0
LINE
  5
1EE22
100
AcDbEntity
  8
0
100
AcDbLine
 10
1639.645882
 20
1107.34331
 30
0.0
 11
1638.146882
 21
1110.62531
 31
0.0
  0
LINE
  5
1EE23
100
AcDbEntity
  8
0
100
AcDbLine
 10
1640.125882
 20
1104.12031
 30
0.0
 11
1639.645882
 21
1107.34331
 31
0.0
  0
LINE
  5
1EE24
100
AcDbEntity
  8
0
100
AcDbLine
 10
1640.125882
 20
1104.12031
 30
0.0
 11
1640.125882
 21
1104.12031
 31
0.0
  0
LINE
  5
1EE25
100
AcDbEntity
  8
0
100
AcDbLine
 10
1637.761882
 20
1102.06431
 30
0.0
 11
1640.125882
 21
1104.12031
 31
0.0
  0
LINE
  5
1EE26
100
AcDbEntity
  8
0
100
AcDbLine
 10
1639.167882
 20
1131.14431
 30
0.0
 11
1656.905882
 21
1131.14431
 31
0.0
  0
LINE
  5
1EE27
100
AcDbEntity
  8
0
100
AcDbLine
 10
1671.597882
 20
1098.78831
 30
0.0
 11
1671.773882
 21
1098.34531
 31
0.0
  0
LINE
  5
1EE28
100
AcDbEntity
  8
0
100
AcDbLine
 10
1671.347882
 20
1099.20731
 30
0.0
 11
1671.597882
 21
1098.78831
 31
0.0
  0
LINE
  5
1EE29
100
AcDbEntity
  8
0
100
AcDbLine
 10
1671.027882
 20
1099.58531
 30
0.0
 11
1671.347882
 21
1099.20731
 31
0.0
  0
LINE
  5
1EE2A
100
AcDbEntity
  8
0
100
AcDbLine
 10
1670.649882
 20
1099.90531
 30
0.0
 11
1671.027882
 21
1099.58531
 31
0.0
  0
LINE
  5
1EE2B
100
AcDbEntity
  8
0
100
AcDbLine
 10
1670.229882
 20
1100.15631
 30
0.0
 11
1670.649882
 21
1099.90531
 31
0.0
  0
LINE
  5
1EE2C
100
AcDbEntity
  8
0
100
AcDbLine
 10
1669.787882
 20
1100.33231
 30
0.0
 11
1670.229882
 21
1100.15631
 31
0.0
  0
LINE
  5
1EE2D
100
AcDbEntity
  8
0
100
AcDbLine
 10
1669.340882
 20
1100.43231
 30
0.0
 11
1669.787882
 21
1100.33231
 31
0.0
  0
LINE
  5
1EE2E
100
AcDbEntity
  8
0
100
AcDbLine
 10
1668.905882
 20
1100.46431
 30
0.0
 11
1669.340882
 21
1100.43231
 31
0.0
  0
LINE
  5
1EE2F
100
AcDbEntity
  8
0
100
AcDbLine
 10
1668.905882
 20
1100.46431
 30
0.0
 11
1668.905882
 21
1100.46431
 31
0.0
  0
LINE
  5
1EE30
100
AcDbEntity
  8
0
100
AcDbLine
 10
1679.905882
 20
1086.14431
 30
0.0
 11
1681.905882
 21
1084.14431
 31
0.0
  0
LINE
  5
1EE31
100
AcDbEntity
  8
0
100
AcDbLine
 10
1675.063882
 20
1086.14431
 30
0.0
 11
1679.905882
 21
1086.14431
 31
0.0
  0
LINE
  5
1EE32
100
AcDbEntity
  8
0
100
AcDbLine
 10
1674.135882
 20
1086.28431
 30
0.0
 11
1675.063882
 21
1086.14431
 31
0.0
  0
LINE
  5
1EE33
100
AcDbEntity
  8
0
100
AcDbLine
 10
1673.669882
 20
1086.46831
 30
0.0
 11
1674.135882
 21
1086.28431
 31
0.0
  0
LINE
  5
1EE34
100
AcDbEntity
  8
0
100
AcDbLine
 10
1673.228882
 20
1086.73231
 30
0.0
 11
1673.669882
 21
1086.46831
 31
0.0
  0
LINE
  5
1EE35
100
AcDbEntity
  8
0
100
AcDbLine
 10
1672.830882
 20
1087.06931
 30
0.0
 11
1673.228882
 21
1086.73231
 31
0.0
  0
LINE
  5
1EE36
100
AcDbEntity
  8
0
100
AcDbLine
 10
1672.493882
 20
1087.46731
 30
0.0
 11
1672.830882
 21
1087.06931
 31
0.0
  0
LINE
  5
1EE37
100
AcDbEntity
  8
0
100
AcDbLine
 10
1672.229882
 20
1087.90931
 30
0.0
 11
1672.493882
 21
1087.46731
 31
0.0
  0
LINE
  5
1EE38
100
AcDbEntity
  8
0
100
AcDbLine
 10
1672.044882
 20
1088.37431
 30
0.0
 11
1672.229882
 21
1087.90931
 31
0.0
  0
LINE
  5
1EE39
100
AcDbEntity
  8
0
100
AcDbLine
 10
1671.938882
 20
1088.84531
 30
0.0
 11
1672.044882
 21
1088.37431
 31
0.0
  0
LINE
  5
1EE3A
100
AcDbEntity
  8
0
100
AcDbLine
 10
1671.905882
 20
1089.30231
 30
0.0
 11
1671.938882
 21
1088.84531
 31
0.0
  0
LINE
  5
1EE3B
100
AcDbEntity
  8
0
100
AcDbLine
 10
1671.905882
 20
1089.30231
 30
0.0
 11
1671.905882
 21
1089.30231
 31
0.0
  0
LINE
  5
1EE3C
100
AcDbEntity
  8
0
100
AcDbLine
 10
1671.905882
 20
1097.46431
 30
0.0
 11
1671.905882
 21
1089.30231
 31
0.0
  0
LINE
  5
1EE3D
100
AcDbEntity
  8
0
100
AcDbLine
 10
1671.773882
 20
1098.34531
 30
0.0
 11
1671.905882
 21
1097.46431
 31
0.0
  0
LINE
  5
1EE46
100
AcDbEntity
  8
0
100
AcDbLine
 10
2057.180602
 20
729.601623
 30
0.0
 11
2076.979602
 21
729.601623
 31
0.0
  0
LINE
  5
1EE47
100
AcDbEntity
  8
0
100
AcDbLine
 10
2076.979602
 20
719.602623
 30
0.0
 11
2057.180602
 21
719.602623
 31
0.0
  0
LINE
  5
1EE48
100
AcDbEntity
  8
0
100
AcDbLine
 10
2077.213602
 20
719.602623
 30
0.0
 11
2056.946602
 21
719.602623
 31
0.0
  0
LINE
  5
1EE49
100
AcDbEntity
  8
0
100
AcDbLine
 10
2077.697602
 20
719.102623
 30
0.0
 11
2056.462602
 21
719.102623
 31
0.0
  0
CIRCLE
  5
1EE4A
100
AcDbEntity
  8
0
100
AcDbCircle
 10
2067.080602
 20
691.601623
 30
0.0
 40
9.31549
  0
CIRCLE
  5
1EE4B
100
AcDbEntity
  8
0
100
AcDbCircle
 10
2067.080602
 20
691.601623
 30
0.0
 40
10.4775
  0
LINE
  5
1EE4C
100
AcDbEntity
  8
0
100
AcDbLine
 10
2013.080602
 20
714.601623
 30
0.0
 11
2089.080602
 21
714.601623
 31
0.0
  0
LINE
  5
1EE4D
100
AcDbEntity
  8
0
100
AcDbLine
 10
2013.079602
 20
714.602623
 30
0.0
 11
2089.079602
 21
714.602623
 31
0.0
  0
LINE
  5
1EE4E
100
AcDbEntity
  8
0
100
AcDbLine
 10
2051.080602
 20
666.602623
 30
0.0
 11
2075.580602
 21
666.602623
 31
0.0
  0
LINE
  5
1EE4F
100
AcDbEntity
  8
0
100
AcDbLine
 10
2016.080602
 20
671.601623
 30
0.0
 11
2086.080602
 21
671.601623
 31
0.0
  0
LINE
  5
1EE50
100
AcDbEntity
  8
0
100
AcDbLine
 10
2016.080602
 20
666.602623
 30
0.0
 11
2086.080602
 21
666.602623
 31
0.0
  0
LINE
  5
1EE51
100
AcDbEntity
  8
0
100
AcDbLine
 10
2075.580602
 20
631.602623
 30
0.0
 11
2026.580602
 21
631.602623
 31
0.0
  0
CIRCLE
  5
1EE52
100
AcDbEntity
  8
0
100
AcDbCircle
 10
2067.080602
 20
691.601623
 30
0.0
 40
20.0
  0
LINE
  5
1EE55
100
AcDbEntity
  8
0
100
AcDbLine
 10
2060.025602
 20
546.437623
 30
0.0
 11
2072.285602
 21
534.179623
 31
0.0
  0
LINE
  5
1EE56
100
AcDbEntity
  8
0
100
AcDbLine
 10
2016.080602
 20
526.601623
 30
0.0
 11
2086.080602
 21
526.601623
 31
0.0
  0
LINE
  5
1EE58
100
AcDbEntity
  8
0
100
AcDbLine
 10
2060.025602
 20
476.765623
 30
0.0
 11
2072.285602
 21
489.023623
 31
0.0
  0
LINE
  5
1EE59
100
AcDbEntity
  8
0
100
AcDbLine
 10
2086.080602
 20
496.601623
 30
0.0
 11
2016.080602
 21
496.601623
 31
0.0
  0
LINE
  5
1EE5D
100
AcDbEntity
  8
0
100
AcDbLine
 10
2060.025602
 20
416.437623
 30
0.0
 11
2072.285602
 21
404.179623
 31
0.0
  0
LINE
  5
1EE5F
100
AcDbEntity
  8
0
100
AcDbLine
 10
2073.080602
 20
339.602623
 30
0.0
 11
2029.080602
 21
339.602623
 31
0.0
  0
ARC
  5
1EE61
100
AcDbEntity
  8
0
100
AcDbCircle
 10
2051.080186
 20
467.102039
 30
0.0
 40
112.499416
100
AcDbArc
 50
270.000212
 51
0.000297
  0
LINE
  5
1EE62
100
AcDbEntity
  8
0
100
AcDbLine
 10
1964.080602
 20
339.602623
 30
0.0
 11
2138.080602
 21
339.602623
 31
0.0
  0
CIRCLE
  5
1EE63
100
AcDbEntity
  8
0
100
AcDbCircle
 10
2051.075602
 20
576.601623
 30
0.0
 40
30.0
  0
ARC
  5
1EE64
100
AcDbEntity
  8
0
100
AcDbCircle
 10
2054.214906
 20
586.598631
 30
0.0
 40
128.171316
100
AcDbArc
 50
108.719782
 51
178.623034
  0
LINE
  5
1EE67
100
AcDbEntity
  8
0
100
AcDbLine
 10
1938.580602
 20
467.102731
 30
0.0
 11
1938.580602
 21
602.101623
 31
0.0
  0
LINE
  5
1EE6B
100
AcDbEntity
  8
0
100
AcDbLine
 10
2007.73685
 20
424.472947
 30
0.0
 11
2020.915602
 21
437.650623
 31
0.0
  0
ARC
  5
1EE6C
100
AcDbEntity
  8
0
100
AcDbCircle
 10
2051.080102
 20
491.618359
 30
0.0
 40
125.015736
100
AcDbArc
 50
180.923411
 51
215.664089
  0
ARC
  5
1EE6E
100
AcDbEntity
  8
0
100
AcDbCircle
 10
2051.08071
 20
467.102731
 30
0.0
 40
112.500108
100
AcDbArc
 50
180.000055
 51
269.999945
  0
LINE
  5
1EE6F
100
AcDbEntity
  8
0
100
AcDbLine
 10
1929.090602
 20
399.546623
 30
0.0
 11
1939.090602
 21
399.546623
 31
0.0
  0
LINE
  5
1EE70
100
AcDbEntity
  8
0
100
AcDbLine
 10
1939.090602
 20
379.748623
 30
0.0
 11
1929.090602
 21
379.748623
 31
0.0
  0
LINE
  5
1EE71
100
AcDbEntity
  8
0
100
AcDbLine
 10
1929.090602
 20
389.647623
 30
0.0
 11
1939.090602
 21
389.647623
 31
0.0
  0
LINE
  5
1EE72
100
AcDbEntity
  8
0
100
AcDbLine
 10
1929.090602
 20
379.748623
 30
0.0
 11
1929.090602
 21
399.546623
 31
0.0
  0
LINE
  5
1EE73
100
AcDbEntity
  8
0
100
AcDbLine
 10
2026.080602
 20
342.602623
 30
0.0
 11
2026.080602
 21
355.047623
 31
0.0
  0
LINE
  5
1EE74
100
AcDbEntity
  8
0
100
AcDbLine
 10
1961.080602
 20
399.602623
 30
0.0
 11
1961.080602
 21
342.602623
 31
0.0
  0
CIRCLE
  5
1EE75
100
AcDbEntity
  8
0
100
AcDbCircle
 10
1976.080602
 20
354.602623
 30
0.0
 40
7.5
  0
ARC
  5
1EE8B
100
AcDbEntity
  8
0
100
AcDbCircle
 10
2019.243942
 20
414.806425
 30
0.0
 40
15.028467
100
AcDbArc
 50
139.968094
 51
314.999617
  0
LINE
  5
1EE8C
100
AcDbEntity
  8
0
100
AcDbLine
 10
1999.411602
 20
371.746623
 30
0.0
 11
2011.411602
 21
378.674623
 31
0.0
  0
CIRCLE
  5
1EE8D
100
AcDbEntity
  8
0
100
AcDbCircle
 10
1999.416602
 20
385.602623
 30
0.0
 40
11.9952
  0
LINE
  5
1EE8E
100
AcDbEntity
  8
0
100
AcDbLine
 10
2011.411602
 20
392.530623
 30
0.0
 11
1999.411602
 21
399.459623
 31
0.0
  0
LINE
  5
1EE8F
100
AcDbEntity
  8
0
100
AcDbLine
 10
1999.411602
 20
399.459623
 30
0.0
 11
1987.411602
 21
392.530623
 31
0.0
  0
LINE
  5
1EE90
100
AcDbEntity
  8
0
100
AcDbLine
 10
1939.090602
 20
399.546623
 30
0.0
 11
1939.090602
 21
379.748623
 31
0.0
  0
LINE
  5
1EE91
100
AcDbEntity
  8
0
100
AcDbLine
 10
1939.090602
 20
399.781623
 30
0.0
 11
1939.090602
 21
379.514623
 31
0.0
  0
LINE
  5
1EE92
100
AcDbEntity
  8
0
100
AcDbLine
 10
1939.589602
 20
400.265623
 30
0.0
 11
1939.589602
 21
379.029623
 31
0.0
  0
LINE
  5
1EE93
100
AcDbEntity
  8
0
100
AcDbLine
 10
1944.089602
 20
408.102623
 30
0.0
 11
1944.089602
 21
371.102623
 31
0.0
  0
LINE
  5
1EE94
100
AcDbEntity
  8
0
100
AcDbLine
 10
1949.089602
 20
411.602623
 30
0.0
 11
1949.089602
 21
367.602623
 31
0.0
  0
LINE
  5
1EE95
100
AcDbEntity
  8
0
100
AcDbLine
 10
1951.089602
 20
364.603623
 30
0.0
 11
1961.090602
 21
364.603623
 31
0.0
  0
LINE
  5
1EE96
100
AcDbEntity
  8
0
100
AcDbLine
 10
1949.089602
 20
367.602623
 30
0.0
 11
1949.089602
 21
366.603623
 31
0.0
  0
LINE
  5
1EE97
100
AcDbEntity
  8
0
100
AcDbLine
 10
1950.501602
 20
364.691623
 30
0.0
 11
1951.089602
 21
364.603623
 31
0.0
  0
LINE
  5
1EE98
100
AcDbEntity
  8
0
100
AcDbLine
 10
1950.206602
 20
364.808623
 30
0.0
 11
1950.501602
 21
364.691623
 31
0.0
  0
LINE
  5
1EE99
100
AcDbEntity
  8
0
100
AcDbLine
 10
1949.927602
 20
364.975623
 30
0.0
 11
1950.206602
 21
364.808623
 31
0.0
  0
LINE
  5
1EE9A
100
AcDbEntity
  8
0
100
AcDbLine
 10
1949.675602
 20
365.188623
 30
0.0
 11
1949.927602
 21
364.975623
 31
0.0
  0
LINE
  5
1EE9B
100
AcDbEntity
  8
0
100
AcDbLine
 10
1949.461602
 20
365.440623
 30
0.0
 11
1949.675602
 21
365.188623
 31
0.0
  0
LINE
  5
1EE9C
100
AcDbEntity
  8
0
100
AcDbLine
 10
1949.294602
 20
365.720623
 30
0.0
 11
1949.461602
 21
365.440623
 31
0.0
  0
LINE
  5
1EE9D
100
AcDbEntity
  8
0
100
AcDbLine
 10
1949.177602
 20
366.015623
 30
0.0
 11
1949.294602
 21
365.720623
 31
0.0
  0
LINE
  5
1EE9E
100
AcDbEntity
  8
0
100
AcDbLine
 10
1949.110602
 20
366.313623
 30
0.0
 11
1949.177602
 21
366.015623
 31
0.0
  0
LINE
  5
1EE9F
100
AcDbEntity
  8
0
100
AcDbLine
 10
1949.089602
 20
366.603623
 30
0.0
 11
1949.110602
 21
366.313623
 31
0.0
  0
LINE
  5
1EEA0
100
AcDbEntity
  8
0
100
AcDbLine
 10
1949.089602
 20
366.603623
 30
0.0
 11
1949.089602
 21
366.603623
 31
0.0
  0
LINE
  5
1EEA1
100
AcDbEntity
  8
0
100
AcDbLine
 10
1947.379602
 20
369.581623
 30
0.0
 11
1947.677602
 21
369.514623
 31
0.0
  0
LINE
  5
1EEA2
100
AcDbEntity
  8
0
100
AcDbLine
 10
1947.089602
 20
369.602623
 30
0.0
 11
1947.379602
 21
369.581623
 31
0.0
  0
LINE
  5
1EEA3
100
AcDbEntity
  8
0
100
AcDbLine
 10
1947.089602
 20
369.602623
 30
0.0
 11
1947.089602
 21
369.602623
 31
0.0
  0
LINE
  5
1EEA4
100
AcDbEntity
  8
0
100
AcDbLine
 10
1945.589602
 20
369.602623
 30
0.0
 11
1947.089602
 21
369.602623
 31
0.0
  0
LINE
  5
1EEA5
100
AcDbEntity
  8
0
100
AcDbLine
 10
1949.001602
 20
368.190623
 30
0.0
 11
1949.089602
 21
367.602623
 31
0.0
  0
LINE
  5
1EEA6
100
AcDbEntity
  8
0
100
AcDbLine
 10
1948.884602
 20
368.485623
 30
0.0
 11
1949.001602
 21
368.190623
 31
0.0
  0
LINE
  5
1EEA7
100
AcDbEntity
  8
0
100
AcDbLine
 10
1948.717602
 20
368.764623
 30
0.0
 11
1948.884602
 21
368.485623
 31
0.0
  0
LINE
  5
1EEA8
100
AcDbEntity
  8
0
100
AcDbLine
 10
1948.503602
 20
369.016623
 30
0.0
 11
1948.717602
 21
368.764623
 31
0.0
  0
LINE
  5
1EEA9
100
AcDbEntity
  8
0
100
AcDbLine
 10
1948.251602
 20
369.230623
 30
0.0
 11
1948.503602
 21
369.016623
 31
0.0
  0
LINE
  5
1EEAA
100
AcDbEntity
  8
0
100
AcDbLine
 10
1947.972602
 20
369.397623
 30
0.0
 11
1948.251602
 21
369.230623
 31
0.0
  0
LINE
  5
1EEAB
100
AcDbEntity
  8
0
100
AcDbLine
 10
1947.677602
 20
369.514623
 30
0.0
 11
1947.972602
 21
369.397623
 31
0.0
  0
LINE
  5
1EEAC
100
AcDbEntity
  8
0
100
AcDbLine
 10
1961.090602
 20
364.603623
 30
0.0
 11
1961.080602
 21
364.603623
 31
0.0
  0
LINE
  5
1EEAD
100
AcDbEntity
  8
0
100
AcDbLine
 10
1939.090602
 20
379.514623
 30
0.0
 11
1939.589602
 21
379.029623
 31
0.0
  0
LINE
  5
1EEAE
100
AcDbEntity
  8
0
100
AcDbLine
 10
1939.589602
 20
379.029623
 30
0.0
 11
1944.089602
 21
379.170623
 31
0.0
  0
LINE
  5
1EEAF
100
AcDbEntity
  8
0
100
AcDbLine
 10
1944.927602
 20
369.756623
 30
0.0
 11
1945.148602
 21
369.668623
 31
0.0
  0
LINE
  5
1EEB0
100
AcDbEntity
  8
0
100
AcDbLine
 10
1944.717602
 20
369.881623
 30
0.0
 11
1944.927602
 21
369.756623
 31
0.0
  0
LINE
  5
1EEB1
100
AcDbEntity
  8
0
100
AcDbLine
 10
1944.528602
 20
370.042623
 30
0.0
 11
1944.717602
 21
369.881623
 31
0.0
  0
LINE
  5
1EEB2
100
AcDbEntity
  8
0
100
AcDbLine
 10
1944.368602
 20
370.231623
 30
0.0
 11
1944.528602
 21
370.042623
 31
0.0
  0
LINE
  5
1EEB3
100
AcDbEntity
  8
0
100
AcDbLine
 10
1944.243602
 20
370.440623
 30
0.0
 11
1944.368602
 21
370.231623
 31
0.0
  0
LINE
  5
1EEB4
100
AcDbEntity
  8
0
100
AcDbLine
 10
1944.155602
 20
370.662623
 30
0.0
 11
1944.243602
 21
370.440623
 31
0.0
  0
LINE
  5
1EEB5
100
AcDbEntity
  8
0
100
AcDbLine
 10
1944.105602
 20
370.885623
 30
0.0
 11
1944.155602
 21
370.662623
 31
0.0
  0
LINE
  5
1EEB6
100
AcDbEntity
  8
0
100
AcDbLine
 10
1944.089602
 20
371.102623
 30
0.0
 11
1944.105602
 21
370.885623
 31
0.0
  0
LINE
  5
1EEB7
100
AcDbEntity
  8
0
100
AcDbLine
 10
1944.089602
 20
371.102623
 30
0.0
 11
1944.089602
 21
371.102623
 31
0.0
  0
LINE
  5
1EEB8
100
AcDbEntity
  8
0
100
AcDbLine
 10
1945.148602
 20
369.668623
 30
0.0
 11
1945.589602
 21
369.602623
 31
0.0
  0
LINE
  5
1EEB9
100
AcDbEntity
  8
0
100
AcDbLine
 10
1987.411602
 20
392.530623
 30
0.0
 11
1987.411602
 21
378.674623
 31
0.0
  0
LINE
  5
1EEBA
100
AcDbEntity
  8
0
100
AcDbLine
 10
1987.411602
 20
378.674623
 30
0.0
 11
1999.411602
 21
371.746623
 31
0.0
  0
LINE
  5
1EEBF
100
AcDbEntity
  8
0
100
AcDbLine
 10
1947.677602
 20
409.691623
 30
0.0
 11
1947.089602
 21
409.602623
 31
0.0
  0
LINE
  5
1EEC0
100
AcDbEntity
  8
0
100
AcDbLine
 10
1945.589602
 20
409.602623
 30
0.0
 11
1945.589602
 21
409.602623
 31
0.0
  0
LINE
  5
1EEC1
100
AcDbEntity
  8
0
100
AcDbLine
 10
1947.089602
 20
409.602623
 30
0.0
 11
1945.589602
 21
409.602623
 31
0.0
  0
LINE
  5
1EEC2
100
AcDbEntity
  8
0
100
AcDbLine
 10
1947.972602
 20
409.807623
 30
0.0
 11
1947.677602
 21
409.691623
 31
0.0
  0
LINE
  5
1EEC3
100
AcDbEntity
  8
0
100
AcDbLine
 10
1948.251602
 20
409.975623
 30
0.0
 11
1947.972602
 21
409.807623
 31
0.0
  0
LINE
  5
1EEC4
100
AcDbEntity
  8
0
100
AcDbLine
 10
1948.503602
 20
410.188623
 30
0.0
 11
1948.251602
 21
409.975623
 31
0.0
  0
LINE
  5
1EEC5
100
AcDbEntity
  8
0
100
AcDbLine
 10
1948.717602
 20
410.440623
 30
0.0
 11
1948.503602
 21
410.188623
 31
0.0
  0
LINE
  5
1EEC6
100
AcDbEntity
  8
0
100
AcDbLine
 10
1948.884602
 20
410.720623
 30
0.0
 11
1948.717602
 21
410.440623
 31
0.0
  0
LINE
  5
1EEC7
100
AcDbEntity
  8
0
100
AcDbLine
 10
1949.001602
 20
411.015623
 30
0.0
 11
1948.884602
 21
410.720623
 31
0.0
  0
LINE
  5
1EEC8
100
AcDbEntity
  8
0
100
AcDbLine
 10
1949.068602
 20
411.312623
 30
0.0
 11
1949.001602
 21
411.015623
 31
0.0
  0
LINE
  5
1EEC9
100
AcDbEntity
  8
0
100
AcDbLine
 10
1949.089602
 20
411.602623
 30
0.0
 11
1949.068602
 21
411.312623
 31
0.0
  0
LINE
  5
1EECA
100
AcDbEntity
  8
0
100
AcDbLine
 10
1949.089602
 20
411.602623
 30
0.0
 11
1949.089602
 21
411.602623
 31
0.0
  0
LINE
  5
1EECB
100
AcDbEntity
  8
0
100
AcDbLine
 10
1949.089602
 20
416.898623
 30
0.0
 11
1949.089602
 21
411.602623
 31
0.0
  0
LINE
  5
1EECD
100
AcDbEntity
  8
0
100
AcDbLine
 10
1944.155602
 20
408.543623
 30
0.0
 11
1944.089602
 21
408.102623
 31
0.0
  0
LINE
  5
1EECE
100
AcDbEntity
  8
0
100
AcDbLine
 10
1944.243602
 20
408.764623
 30
0.0
 11
1944.155602
 21
408.543623
 31
0.0
  0
LINE
  5
1EECF
100
AcDbEntity
  8
0
100
AcDbLine
 10
1944.368602
 20
408.974623
 30
0.0
 11
1944.243602
 21
408.764623
 31
0.0
  0
LINE
  5
1EED0
100
AcDbEntity
  8
0
100
AcDbLine
 10
1944.528602
 20
409.163623
 30
0.0
 11
1944.368602
 21
408.974623
 31
0.0
  0
LINE
  5
1EED1
100
AcDbEntity
  8
0
100
AcDbLine
 10
1944.717602
 20
409.323623
 30
0.0
 11
1944.528602
 21
409.163623
 31
0.0
  0
LINE
  5
1EED2
100
AcDbEntity
  8
0
100
AcDbLine
 10
1944.927602
 20
409.448623
 30
0.0
 11
1944.717602
 21
409.323623
 31
0.0
  0
LINE
  5
1EED3
100
AcDbEntity
  8
0
100
AcDbLine
 10
1945.148602
 20
409.536623
 30
0.0
 11
1944.927602
 21
409.448623
 31
0.0
  0
LINE
  5
1EED4
100
AcDbEntity
  8
0
100
AcDbLine
 10
1945.372602
 20
409.586623
 30
0.0
 11
1945.148602
 21
409.536623
 31
0.0
  0
LINE
  5
1EED5
100
AcDbEntity
  8
0
100
AcDbLine
 10
1939.589602
 20
400.265623
 30
0.0
 11
1939.090602
 21
399.781623
 31
0.0
  0
LINE
  5
1EED6
100
AcDbEntity
  8
0
100
AcDbLine
 10
1944.089602
 20
400.124623
 30
0.0
 11
1939.589602
 21
400.265623
 31
0.0
  0
LINE
  5
1EED7
100
AcDbEntity
  8
0
100
AcDbLine
 10
1945.589602
 20
409.602623
 30
0.0
 11
1945.372602
 21
409.586623
 31
0.0
  0
LINE
  5
1EEE0
100
AcDbEntity
  8
0
100
AcDbLine
 10
1981.092542
 20
398.026592
 30
0.0
 11
1990.363602
 21
402.878623
 31
0.0
  0
LINE
  5
1EEE4
100
AcDbEntity
  8
0
100
AcDbLine
 10
2011.411602
 20
378.674623
 30
0.0
 11
2011.411602
 21
392.530623
 31
0.0
  0
LINE
  5
1EEE6
100
AcDbEntity
  8
0
100
AcDbLine
 10
2018.890602
 20
384.794623
 30
0.0
 11
2018.456602
 21
374.336623
 31
0.0
  0
ARC
  5
1EEE9
100
AcDbEntity
  8
0
100
AcDbCircle
 10
2023.080126
 20
355.047672
 30
0.0
 40
3.000476
100
AcDbArc
 50
359.999059
 51
75.968608
  0
LINE
  5
1EEF9
100
AcDbEntity
  8
0
100
AcDbLine
 10
2042.125602
 20
416.437623
 30
0.0
 11
2029.865602
 21
404.179623
 31
0.0
  0
CIRCLE
  5
1EF04
100
AcDbEntity
  8
0
100
AcDbCircle
 10
2019.264602
 20
414.786623
 30
0.0
 40
7.99997
  0
CIRCLE
  5
1EF05
100
AcDbEntity
  8
0
100
AcDbCircle
 10
2019.264602
 20
414.786623
 30
0.0
 40
6.91751
  0
ARC
  5
1EF07
100
AcDbEntity
  8
0
100
AcDbCircle
 10
2044.346826
 20
413.985758
 30
0.0
 40
3.308395
100
AcDbArc
 50
80.803058
 51
132.17445
  0
ARC
  5
1EF1C
100
AcDbEntity
  8
0
100
AcDbCircle
 10
2057.809378
 20
413.996154
 30
0.0
 40
3.297336
100
AcDbArc
 50
47.768657
 51
99.140049
  0
LINE
  5
1EF1D
100
AcDbEntity
  8
0
100
AcDbLine
 10
1926.080602
 20
589.678623
 30
0.0
 11
1926.080602
 21
489.603623
 31
0.0
  0
LINE
  5
1EF1E
100
AcDbEntity
  8
0
100
AcDbLine
 10
1926.080602
 20
489.603623
 30
0.0
 11
1926.080602
 21
489.603623
 31
0.0
  0
LINE
  5
1EF26
100
AcDbEntity
  8
0
100
AcDbLine
 10
2016.080602
 20
496.601623
 30
0.0
 11
2016.080602
 21
526.601623
 31
0.0
  0
LINE
  5
1EF27
100
AcDbEntity
  8
0
100
AcDbLine
 10
1991.080602
 20
564.074623
 30
0.0
 11
1991.080602
 21
494.074623
 31
0.0
  0
LINE
  5
1EF28
100
AcDbEntity
  8
0
100
AcDbLine
 10
1976.080602
 20
494.074623
 30
0.0
 11
1976.080602
 21
529.074623
 31
0.0
  0
LINE
  5
1EF29
100
AcDbEntity
  8
0
100
AcDbLine
 10
1950.580602
 20
555.043623
 30
0.0
 11
1950.580602
 21
503.105623
 31
0.0
  0
ARC
  5
1EF2B
100
AcDbEntity
  8
0
100
AcDbCircle
 10
2019.243942
 20
478.396821
 30
0.0
 40
15.028467
100
AcDbArc
 50
45.000383
 51
220.031906
  0
LINE
  5
1EF2D
100
AcDbEntity
  8
0
100
AcDbLine
 10
1966.584602
 20
469.719623
 30
0.0
 11
1966.584602
 21
483.575623
 31
0.0
  0
LINE
  5
1EF2E
100
AcDbEntity
  8
0
100
AcDbLine
 10
1942.584602
 20
483.575623
 30
0.0
 11
1942.584602
 21
469.719623
 31
0.0
  0
CIRCLE
  5
1EF2F
100
AcDbEntity
  8
0
100
AcDbCircle
 10
1954.589602
 20
476.647623
 30
0.0
 40
11.9952
  0
LINE
  5
1EF31
100
AcDbEntity
  8
0
100
AcDbLine
 10
1954.584602
 20
462.791623
 30
0.0
 11
1966.584602
 21
469.719623
 31
0.0
  0
ARC
  5
1EF34
100
AcDbEntity
  8
0
100
AcDbCircle
 10
1954.955313
 20
450.78341
 30
0.0
 40
2.999974
100
AcDbArc
 50
119.993915
 51
189.628763
  0
LINE
  5
1EF36
100
AcDbEntity
  8
0
100
AcDbLine
 10
1964.330602
 20
459.660623
 30
0.0
 11
1953.455602
 21
453.381623
 31
0.0
  0
LINE
  5
1EF37
100
AcDbEntity
  8
0
100
AcDbLine
 10
1942.584602
 20
469.719623
 30
0.0
 11
1954.584602
 21
462.791623
 31
0.0
  0
LINE
  5
1EF40
100
AcDbEntity
  8
0
100
AcDbLine
 10
1951.157602
 20
501.336623
 30
0.0
 11
1951.358602
 21
501.089623
 31
0.0
  0
LINE
  5
1EF41
100
AcDbEntity
  8
0
100
AcDbLine
 10
1950.982602
 20
501.605623
 30
0.0
 11
1951.157602
 21
501.336623
 31
0.0
  0
LINE
  5
1EF42
100
AcDbEntity
  8
0
100
AcDbLine
 10
1950.836602
 20
501.892623
 30
0.0
 11
1950.982602
 21
501.605623
 31
0.0
  0
LINE
  5
1EF43
100
AcDbEntity
  8
0
100
AcDbLine
 10
1950.723602
 20
502.190623
 30
0.0
 11
1950.836602
 21
501.892623
 31
0.0
  0
LINE
  5
1EF44
100
AcDbEntity
  8
0
100
AcDbLine
 10
1950.642602
 20
502.495623
 30
0.0
 11
1950.723602
 21
502.190623
 31
0.0
  0
LINE
  5
1EF45
100
AcDbEntity
  8
0
100
AcDbLine
 10
1950.595602
 20
502.802623
 30
0.0
 11
1950.642602
 21
502.495623
 31
0.0
  0
LINE
  5
1EF46
100
AcDbEntity
  8
0
100
AcDbLine
 10
1950.580602
 20
503.105623
 30
0.0
 11
1950.595602
 21
502.802623
 31
0.0
  0
LINE
  5
1EF47
100
AcDbEntity
  8
0
100
AcDbLine
 10
1950.580602
 20
503.105623
 30
0.0
 11
1950.580602
 21
503.105623
 31
0.0
  0
LINE
  5
1EF48
100
AcDbEntity
  8
0
100
AcDbLine
 10
1951.583602
 20
500.867623
 30
0.0
 11
1952.080602
 21
500.507623
 31
0.0
  0
LINE
  5
1EF49
100
AcDbEntity
  8
0
100
AcDbLine
 10
1951.358602
 20
501.089623
 30
0.0
 11
1951.583602
 21
500.867623
 31
0.0
  0
LINE
  5
1EF4A
100
AcDbEntity
  8
0
100
AcDbLine
 10
1966.584602
 20
483.575623
 30
0.0
 11
1954.584602
 21
490.504623
 31
0.0
  0
LINE
  5
1EF4D
100
AcDbEntity
  8
0
100
AcDbLine
 10
1952.080602
 20
500.507623
 30
0.0
 11
1964.327602
 21
493.436623
 31
0.0
  0
LINE
  5
1EF4E
100
AcDbEntity
  8
0
100
AcDbLine
 10
1954.584602
 20
490.504623
 30
0.0
 11
1942.584602
 21
483.575623
 31
0.0
  0
LINE
  5
1EF4F
100
AcDbEntity
  8
0
100
AcDbLine
 10
1991.080602
 20
494.074623
 30
0.0
 11
1976.080602
 21
494.074623
 31
0.0
  0
CIRCLE
  5
1EF58
100
AcDbEntity
  8
0
100
AcDbCircle
 10
2019.264602
 20
478.416623
 30
0.0
 40
7.99997
  0
CIRCLE
  5
1EF59
100
AcDbEntity
  8
0
100
AcDbCircle
 10
2019.264602
 20
478.416623
 30
0.0
 40
6.91751
  0
LINE
  5
1EF5D
100
AcDbEntity
  8
0
100
AcDbLine
 10
2007.73685
 20
468.730299
 30
0.0
 11
2020.915602
 21
455.552623
 31
0.0
  0
ARC
  5
1EF65
100
AcDbEntity
  8
0
100
AcDbCircle
 10
2018.469042
 20
439.86418
 30
0.0
 40
3.299317
100
AcDbArc
 50
317.862367
 51
9.234195
  0
ARC
  5
1EF73
100
AcDbEntity
  8
0
100
AcDbCircle
 10
2018.469042
 20
453.339065
 30
0.0
 40
3.299317
100
AcDbArc
 50
350.765805
 51
42.137633
  0
LINE
  5
1EF76
100
AcDbEntity
  8
0
100
AcDbLine
 10
2042.125602
 20
476.765623
 30
0.0
 11
2029.865602
 21
489.023623
 31
0.0
  0
ARC
  5
1EF9E
100
AcDbEntity
  8
0
100
AcDbCircle
 10
2044.346826
 20
479.217488
 30
0.0
 40
3.308395
100
AcDbArc
 50
227.82555
 51
279.196942
  0
ARC
  5
1EFAF
100
AcDbEntity
  8
0
100
AcDbCircle
 10
2057.809378
 20
479.207092
 30
0.0
 40
3.297336
100
AcDbArc
 50
260.859951
 51
312.231343
  0
ARC
  5
1EFB1
100
AcDbEntity
  8
0
100
AcDbCircle
 10
2019.244275
 20
544.806097
 30
0.0
 40
15.028
100
AcDbArc
 50
139.926878
 51
314.999603
  0
LINE
  5
1EFB2
100
AcDbEntity
  8
0
100
AcDbLine
 10
1976.080602
 20
529.074623
 30
0.0
 11
1976.080602
 21
564.074623
 31
0.0
  0
LINE
  5
1EFB3
100
AcDbEntity
  8
0
100
AcDbLine
 10
1951.358602
 20
557.060623
 30
0.0
 11
1951.157602
 21
556.812623
 31
0.0
  0
LINE
  5
1EFB4
100
AcDbEntity
  8
0
100
AcDbLine
 10
1950.642602
 20
555.653623
 30
0.0
 11
1950.580602
 21
555.043623
 31
0.0
  0
LINE
  5
1EFB5
100
AcDbEntity
  8
0
100
AcDbLine
 10
1950.723602
 20
555.959623
 30
0.0
 11
1950.642602
 21
555.653623
 31
0.0
  0
LINE
  5
1EFB6
100
AcDbEntity
  8
0
100
AcDbLine
 10
1950.836602
 20
556.257623
 30
0.0
 11
1950.723602
 21
555.959623
 31
0.0
  0
LINE
  5
1EFB7
100
AcDbEntity
  8
0
100
AcDbLine
 10
1950.982602
 20
556.543623
 30
0.0
 11
1950.836602
 21
556.257623
 31
0.0
  0
LINE
  5
1EFB8
100
AcDbEntity
  8
0
100
AcDbLine
 10
1951.157602
 20
556.812623
 30
0.0
 11
1950.982602
 21
556.543623
 31
0.0
  0
LINE
  5
1EFBB
100
AcDbEntity
  8
0
100
AcDbLine
 10
1966.580602
 20
588.529623
 30
0.0
 11
1954.580602
 21
595.458623
 31
0.0
  0
LINE
  5
1EFBC
100
AcDbEntity
  8
0
100
AcDbLine
 10
1964.330602
 20
564.714623
 30
0.0
 11
1952.080602
 21
557.641623
 31
0.0
  0
LINE
  5
1EFBD
100
AcDbEntity
  8
0
100
AcDbLine
 10
1951.583602
 20
557.282623
 30
0.0
 11
1951.358602
 21
557.060623
 31
0.0
  0
LINE
  5
1EFBE
100
AcDbEntity
  8
0
100
AcDbLine
 10
1951.825602
 20
557.476623
 30
0.0
 11
1951.583602
 21
557.282623
 31
0.0
  0
LINE
  5
1EFBF
100
AcDbEntity
  8
0
100
AcDbLine
 10
1952.080602
 20
557.641623
 30
0.0
 11
1951.825602
 21
557.476623
 31
0.0
  0
LINE
  5
1EFC0
100
AcDbEntity
  8
0
100
AcDbLine
 10
1952.080602
 20
557.641623
 30
0.0
 11
1952.080602
 21
557.641623
 31
0.0
  0
LINE
  5
1EFC1
100
AcDbEntity
  8
0
100
AcDbLine
 10
1954.580602
 20
567.745623
 30
0.0
 11
1966.580602
 21
574.673623
 31
0.0
  0
LINE
  5
1EFC2
100
AcDbEntity
  8
0
100
AcDbLine
 10
1966.580602
 20
574.673623
 30
0.0
 11
1966.580602
 21
588.529623
 31
0.0
  0
LINE
  5
1EFC3
100
AcDbEntity
  8
0
100
AcDbLine
 10
1942.580602
 20
588.529623
 30
0.0
 11
1942.580602
 21
574.673623
 31
0.0
  0
LINE
  5
1EFC4
100
AcDbEntity
  8
0
100
AcDbLine
 10
1954.580602
 20
595.458623
 30
0.0
 11
1942.580602
 21
588.529623
 31
0.0
  0
LINE
  5
1EFC5
100
AcDbEntity
  8
0
100
AcDbLine
 10
1942.580602
 20
574.673623
 30
0.0
 11
1954.580602
 21
567.745623
 31
0.0
  0
CIRCLE
  5
1EFC6
100
AcDbEntity
  8
0
100
AcDbCircle
 10
1954.584602
 20
581.601623
 30
0.0
 40
11.9952
  0
LINE
  5
1EFC7
100
AcDbEntity
  8
0
100
AcDbLine
 10
1976.080602
 20
564.074623
 30
0.0
 11
1991.080602
 21
564.074623
 31
0.0
  0
LINE
  5
1EFD9
100
AcDbEntity
  8
0
100
AcDbLine
 10
2007.744497
 20
554.480593
 30
0.0
 11
2020.915602
 21
567.650623
 31
0.0
  0
LINE
  5
1EFDD
100
AcDbEntity
  8
0
100
AcDbLine
 10
2042.125602
 20
546.437623
 30
0.0
 11
2029.865602
 21
534.179623
 31
0.0
  0
CIRCLE
  5
1EFDE
100
AcDbEntity
  8
0
100
AcDbCircle
 10
2019.264602
 20
544.786623
 30
0.0
 40
6.91748
  0
CIRCLE
  5
1EFE0
100
AcDbEntity
  8
0
100
AcDbCircle
 10
2019.264602
 20
544.786623
 30
0.0
 40
7.99997
  0
ARC
  5
1EFE5
100
AcDbEntity
  8
0
100
AcDbCircle
 10
2044.346826
 20
543.985758
 30
0.0
 40
3.308395
100
AcDbArc
 50
80.803058
 51
132.17445
  0
ARC
  5
1EFF6
100
AcDbEntity
  8
0
100
AcDbCircle
 10
2057.809378
 20
543.996154
 30
0.0
 40
3.297336
100
AcDbArc
 50
47.768657
 51
99.140049
  0
CIRCLE
  5
1EFFC
100
AcDbEntity
  8
0
100
AcDbCircle
 10
2051.075602
 20
576.601623
 30
0.0
 40
16.6244
  0
LINE
  5
1EFFE
100
AcDbEntity
  8
0
100
AcDbLine
 10
2008.665602
 20
597.802623
 30
0.0
 11
2020.915602
 21
585.552623
 31
0.0
  0
ARC
  5
1F005
100
AcDbEntity
  8
0
100
AcDbCircle
 10
2018.470081
 20
583.339565
 30
0.0
 40
3.298211
100
AcDbArc
 50
350.77148
 51
42.143308
  0
ARC
  5
1F009
100
AcDbEntity
  8
0
100
AcDbCircle
 10
2018.469042
 20
569.86418
 30
0.0
 40
3.299317
100
AcDbArc
 50
317.862367
 51
9.234195
  0
CIRCLE
  5
1F015
100
AcDbEntity
  8
0
100
AcDbCircle
 10
2051.075602
 20
576.601623
 30
0.0
 40
15.1479
  0
ARC
  5
1F016
100
AcDbEntity
  8
0
100
AcDbCircle
 10
2051.08071
 20
602.102515
 30
0.0
 40
112.500108
100
AcDbArc
 50
109.742083
 51
179.999945
  0
LINE
  5
1F018
100
AcDbEntity
  8
0
100
AcDbLine
 10
2003.084602
 20
670.753623
 30
0.0
 11
2003.084602
 21
684.610623
 31
0.0
  0
LINE
  5
1F019
100
AcDbEntity
  8
0
100
AcDbLine
 10
1979.084602
 20
684.610623
 30
0.0
 11
1979.084602
 21
670.753623
 31
0.0
  0
CIRCLE
  5
1F01A
100
AcDbEntity
  8
0
100
AcDbCircle
 10
1991.089602
 20
677.682623
 30
0.0
 40
11.9952
  0
LINE
  5
1F01B
100
AcDbEntity
  8
0
100
AcDbLine
 10
2013.080602
 20
622.083623
 30
0.0
 11
2013.079602
 21
714.602623
 31
0.0
  0
LINE
  5
1F01C
100
AcDbEntity
  8
0
100
AcDbLine
 10
1991.084602
 20
663.825623
 30
0.0
 11
2003.084602
 21
670.753623
 31
0.0
  0
LINE
  5
1F025
100
AcDbEntity
  8
0
100
AcDbLine
 10
1952.441008
 20
605.353616
 30
0.0
 11
1964.327602
 21
598.490623
 31
0.0
  0
LINE
  5
1F02A
100
AcDbEntity
  8
0
100
AcDbLine
 10
1979.084602
 20
670.753623
 30
0.0
 11
1991.084602
 21
663.825623
 31
0.0
  0
LINE
  5
1F035
100
AcDbEntity
  8
0
100
AcDbLine
 10
1983.915602
 20
659.545623
 30
0.0
 11
1974.181602
 21
663.391623
 31
0.0
  0
LINE
  5
1F036
100
AcDbEntity
  8
0
100
AcDbLine
 10
2024.580602
 20
633.602623
 30
0.0
 11
2024.580602
 21
664.602623
 31
0.0
  0
LINE
  5
1F03F
100
AcDbEntity
  8
0
100
AcDbLine
 10
2025.165602
 20
632.188623
 30
0.0
 11
2024.952602
 21
632.440623
 31
0.0
  0
LINE
  5
1F040
100
AcDbEntity
  8
0
100
AcDbLine
 10
2024.668602
 20
633.015623
 30
0.0
 11
2024.580602
 21
633.602623
 31
0.0
  0
LINE
  5
1F041
100
AcDbEntity
  8
0
100
AcDbLine
 10
2024.785602
 20
632.720623
 30
0.0
 11
2024.668602
 21
633.015623
 31
0.0
  0
LINE
  5
1F042
100
AcDbEntity
  8
0
100
AcDbLine
 10
2024.952602
 20
632.440623
 30
0.0
 11
2024.785602
 21
632.720623
 31
0.0
  0
LINE
  5
1F043
100
AcDbEntity
  8
0
100
AcDbLine
 10
2026.580602
 20
631.602623
 30
0.0
 11
2026.290602
 21
631.623623
 31
0.0
  0
LINE
  5
1F044
100
AcDbEntity
  8
0
100
AcDbLine
 10
2026.580602
 20
631.602623
 30
0.0
 11
2026.580602
 21
631.602623
 31
0.0
  0
LINE
  5
1F045
100
AcDbEntity
  8
0
100
AcDbLine
 10
2025.417602
 20
631.975623
 30
0.0
 11
2025.165602
 21
632.188623
 31
0.0
  0
LINE
  5
1F046
100
AcDbEntity
  8
0
100
AcDbLine
 10
2025.697602
 20
631.807623
 30
0.0
 11
2025.417602
 21
631.975623
 31
0.0
  0
LINE
  5
1F047
100
AcDbEntity
  8
0
100
AcDbLine
 10
2025.992602
 20
631.691623
 30
0.0
 11
2025.697602
 21
631.807623
 31
0.0
  0
LINE
  5
1F048
100
AcDbEntity
  8
0
100
AcDbLine
 10
2026.290602
 20
631.623623
 30
0.0
 11
2025.992602
 21
631.691623
 31
0.0
  0
CIRCLE
  5
1F049
100
AcDbEntity
  8
0
100
AcDbCircle
 10
2019.264602
 20
608.417623
 30
0.0
 40
7.99997
  0
CIRCLE
  5
1F04A
100
AcDbEntity
  8
0
100
AcDbCircle
 10
2019.264602
 20
608.417623
 30
0.0
 40
6.91748
  0
LINE
  5
1F065
100
AcDbEntity
  8
0
100
AcDbLine
 10
2054.075602
 20
606.601623
 30
0.0
 11
2054.075602
 21
606.601623
 31
0.0
  0
LINE
  5
1F06E
100
AcDbEntity
  8
0
100
AcDbLine
 10
2026.580602
 20
666.602623
 30
0.0
 11
2051.080602
 21
666.602623
 31
0.0
  0
LINE
  5
1F06F
100
AcDbEntity
  8
0
100
AcDbLine
 10
2013.080602
 20
663.602623
 30
0.0
 11
2013.111602
 21
664.037623
 31
0.0
  0
LINE
  5
1F070
100
AcDbEntity
  8
0
100
AcDbLine
 10
2013.080602
 20
663.602623
 30
0.0
 11
2013.080602
 21
663.602623
 31
0.0
  0
LINE
  5
1F071
100
AcDbEntity
  8
0
100
AcDbLine
 10
2013.090602
 20
663.602623
 30
0.0
 11
2013.080602
 21
663.602623
 31
0.0
  0
LINE
  5
1F072
100
AcDbEntity
  8
0
100
AcDbLine
 10
2024.952602
 20
665.764623
 30
0.0
 11
2025.165602
 21
666.016623
 31
0.0
  0
LINE
  5
1F073
100
AcDbEntity
  8
0
100
AcDbLine
 10
2013.387602
 20
673.278623
 30
0.0
 11
2013.638602
 21
672.858623
 31
0.0
  0
LINE
  5
1F075
100
AcDbEntity
  8
0
100
AcDbLine
 10
2013.212602
 20
664.484623
 30
0.0
 11
2013.387602
 21
664.926623
 31
0.0
  0
LINE
  5
1F076
100
AcDbEntity
  8
0
100
AcDbLine
 10
2013.111602
 20
664.037623
 30
0.0
 11
2013.212602
 21
664.484623
 31
0.0
  0
LINE
  5
1F077
100
AcDbEntity
  8
0
100
AcDbLine
 10
2024.785602
 20
665.485623
 30
0.0
 11
2024.952602
 21
665.764623
 31
0.0
  0
LINE
  5
1F078
100
AcDbEntity
  8
0
100
AcDbLine
 10
2024.668602
 20
665.190623
 30
0.0
 11
2024.785602
 21
665.485623
 31
0.0
  0
LINE
  5
1F079
100
AcDbEntity
  8
0
100
AcDbLine
 10
2024.601602
 20
664.892623
 30
0.0
 11
2024.668602
 21
665.190623
 31
0.0
  0
LINE
  5
1F07A
100
AcDbEntity
  8
0
100
AcDbLine
 10
2024.580602
 20
664.602623
 30
0.0
 11
2024.601602
 21
664.892623
 31
0.0
  0
LINE
  5
1F07B
100
AcDbEntity
  8
0
100
AcDbLine
 10
2024.580602
 20
664.602623
 30
0.0
 11
2024.580602
 21
664.602623
 31
0.0
  0
LINE
  5
1F07C
100
AcDbEntity
  8
0
100
AcDbLine
 10
2015.198602
 20
666.470623
 30
0.0
 11
2016.080602
 21
666.602623
 31
0.0
  0
LINE
  5
1F07D
100
AcDbEntity
  8
0
100
AcDbLine
 10
2014.756602
 20
666.294623
 30
0.0
 11
2015.198602
 21
666.470623
 31
0.0
  0
LINE
  5
1F07E
100
AcDbEntity
  8
0
100
AcDbLine
 10
2014.336602
 20
666.044623
 30
0.0
 11
2014.756602
 21
666.294623
 31
0.0
  0
LINE
  5
1F07F
100
AcDbEntity
  8
0
100
AcDbLine
 10
2013.958602
 20
665.724623
 30
0.0
 11
2014.336602
 21
666.044623
 31
0.0
  0
LINE
  5
1F080
100
AcDbEntity
  8
0
100
AcDbLine
 10
2013.638602
 20
665.346623
 30
0.0
 11
2013.958602
 21
665.724623
 31
0.0
  0
LINE
  5
1F081
100
AcDbEntity
  8
0
100
AcDbLine
 10
2013.387602
 20
664.926623
 30
0.0
 11
2013.638602
 21
665.346623
 31
0.0
  0
LINE
  5
1F082
100
AcDbEntity
  8
0
100
AcDbLine
 10
2015.198602
 20
671.734623
 30
0.0
 11
2016.080602
 21
671.601623
 31
0.0
  0
LINE
  5
1F083
100
AcDbEntity
  8
0
100
AcDbLine
 10
2014.756602
 20
671.909623
 30
0.0
 11
2015.198602
 21
671.734623
 31
0.0
  0
LINE
  5
1F084
100
AcDbEntity
  8
0
100
AcDbLine
 10
2014.336602
 20
672.160623
 30
0.0
 11
2014.756602
 21
671.909623
 31
0.0
  0
LINE
  5
1F085
100
AcDbEntity
  8
0
100
AcDbLine
 10
2013.958602
 20
672.480623
 30
0.0
 11
2014.336602
 21
672.160623
 31
0.0
  0
LINE
  5
1F086
100
AcDbEntity
  8
0
100
AcDbLine
 10
2013.638602
 20
672.858623
 30
0.0
 11
2013.958602
 21
672.480623
 31
0.0
  0
LINE
  5
1F08B
100
AcDbEntity
  8
0
100
AcDbLine
 10
2013.212602
 20
673.720623
 30
0.0
 11
2013.387602
 21
673.278623
 31
0.0
  0
LINE
  5
1F08C
100
AcDbEntity
  8
0
100
AcDbLine
 10
2013.111602
 20
674.167623
 30
0.0
 11
2013.212602
 21
673.720623
 31
0.0
  0
LINE
  5
1F08D
100
AcDbEntity
  8
0
100
AcDbLine
 10
2013.080602
 20
674.601623
 30
0.0
 11
2013.111602
 21
674.167623
 31
0.0
  0
LINE
  5
1F090
100
AcDbEntity
  8
0
100
AcDbLine
 10
2025.697602
 20
666.397623
 30
0.0
 11
2025.992602
 21
666.514623
 31
0.0
  0
LINE
  5
1F091
100
AcDbEntity
  8
0
100
AcDbLine
 10
2025.417602
 20
666.230623
 30
0.0
 11
2025.697602
 21
666.397623
 31
0.0
  0
LINE
  5
1F092
100
AcDbEntity
  8
0
100
AcDbLine
 10
2025.165602
 20
666.016623
 30
0.0
 11
2025.417602
 21
666.230623
 31
0.0
  0
LINE
  5
1F093
100
AcDbEntity
  8
0
100
AcDbLine
 10
2025.992602
 20
666.514623
 30
0.0
 11
2026.580602
 21
666.602623
 31
0.0
  0
CIRCLE
  5
1F094
100
AcDbEntity
  8
0
100
AcDbCircle
 10
2028.080602
 20
649.102623
 30
0.0
 40
0.799988
  0
LINE
  5
1F098
100
AcDbEntity
  8
0
100
AcDbLine
 10
2003.084602
 20
684.610623
 30
0.0
 11
1991.084602
 21
691.538623
 31
0.0
  0
LINE
  5
1F099
100
AcDbEntity
  8
0
100
AcDbLine
 10
1991.084602
 20
691.538623
 30
0.0
 11
1979.084602
 21
684.610623
 31
0.0
  0
LINE
  5
1F09A
100
AcDbEntity
  8
0
100
AcDbLine
 10
2067.080602
 20
729.601623
 30
0.0
 11
2067.080602
 21
719.602623
 31
0.0
  0
LINE
  5
1F09B
100
AcDbEntity
  8
0
100
AcDbLine
 10
2041.180602
 20
729.600623
 30
0.0
 11
2041.180602
 21
719.601623
 31
0.0
  0
LINE
  5
1F09C
100
AcDbEntity
  8
0
100
AcDbLine
 10
2057.180602
 20
719.602623
 30
0.0
 11
2057.180602
 21
729.601623
 31
0.0
  0
LINE
  5
1F09D
100
AcDbEntity
  8
0
100
AcDbLine
 10
2051.080602
 20
729.600623
 30
0.0
 11
2051.080602
 21
719.601623
 31
0.0
  0
LINE
  5
1F0A1
100
AcDbEntity
  8
0
100
AcDbLine
 10
2013.079602
 20
707.989623
 30
0.0
 11
2013.080602
 21
714.601623
 31
0.0
  0
LINE
  5
1F0BD
100
AcDbEntity
  8
0
100
AcDbLine
 10
2008.82265
 20
690.960589
 30
0.0
 11
2010.368602
 21
680.548623
 31
0.0
  0
LINE
  5
1F0C5
100
AcDbEntity
  8
0
100
AcDbLine
 10
2040.946602
 20
719.601623
 30
0.0
 11
2056.946602
 21
719.602623
 31
0.0
  0
LINE
  5
1F0C6
100
AcDbEntity
  8
0
100
AcDbLine
 10
2040.462602
 20
719.101623
 30
0.0
 11
2056.462602
 21
719.102623
 31
0.0
  0
LINE
  5
1F0C7
100
AcDbEntity
  8
0
100
AcDbLine
 10
2040.602602
 20
714.601623
 30
0.0
 11
2040.462602
 21
719.101623
 31
0.0
  0
LINE
  5
1F0C8
100
AcDbEntity
  8
0
100
AcDbLine
 10
2040.462602
 20
719.101623
 30
0.0
 11
2040.946602
 21
719.601623
 31
0.0
  0
LINE
  5
1F0C9
100
AcDbEntity
  8
0
100
AcDbLine
 10
2056.462602
 20
719.102623
 30
0.0
 11
2056.602602
 21
714.602623
 31
0.0
  0
LINE
  5
1F0CA
100
AcDbEntity
  8
0
100
AcDbLine
 10
2056.946602
 20
719.602623
 30
0.0
 11
2056.462602
 21
719.102623
 31
0.0
  0
LINE
  5
1F0E1
100
AcDbEntity
  8
0
100
AcDbLine
 10
2061.698602
 20
719.101623
 30
0.0
 11
2040.462602
 21
719.101623
 31
0.0
  0
LINE
  5
1F0E6
100
AcDbEntity
  8
0
100
AcDbLine
 10
2045.080602
 20
749.602623
 30
0.0
 11
2057.080602
 21
749.602623
 31
0.0
  0
LINE
  5
1F0F7
100
AcDbEntity
  8
0
100
AcDbLine
 10
2057.180602
 20
729.600623
 30
0.0
 11
2041.180602
 21
729.600623
 31
0.0
  0
LINE
  5
1F0F8
100
AcDbEntity
  8
0
100
AcDbLine
 10
2060.080602
 20
746.602623
 30
0.0
 11
2060.080602
 21
729.600623
 31
0.0
  0
LINE
  5
1F0F9
100
AcDbEntity
  8
0
100
AcDbLine
 10
2042.080602
 20
729.600623
 30
0.0
 11
2042.080602
 21
746.602623
 31
0.0
  0
ARC
  5
1F10C
100
AcDbEntity
  8
0
100
AcDbCircle
 10
2047.945283
 20
586.59862
 30
0.0
 40
128.171331
100
AcDbArc
 50
1.376971
 51
71.280213
  0
LINE
  5
1F110
100
AcDbEntity
  8
0
100
AcDbLine
 10
2163.579602
 20
602.101623
 30
0.0
 11
2163.579602
 21
467.102623
 31
0.0
  0
ARC
  5
1F126
100
AcDbEntity
  8
0
100
AcDbCircle
 10
2051.080102
 20
491.618359
 30
0.0
 40
125.015736
100
AcDbArc
 50
324.336507
 51
359.076589
  0
LINE
  5
1F128
100
AcDbEntity
  8
0
100
AcDbLine
 10
2094.414195
 20
424.483105
 30
0.0
 11
2081.245602
 21
437.650623
 31
0.0
  0
CIRCLE
  5
1F12A
100
AcDbEntity
  8
0
100
AcDbCircle
 10
2126.080602
 20
356.602623
 30
0.0
 40
7.5
  0
LINE
  5
1F12B
100
AcDbEntity
  8
0
100
AcDbLine
 10
2141.080602
 20
342.602623
 30
0.0
 11
2141.080602
 21
399.602623
 31
0.0
  0
LINE
  5
1F12C
100
AcDbEntity
  8
0
100
AcDbLine
 10
2076.080602
 20
355.047623
 30
0.0
 11
2076.080602
 21
342.602623
 31
0.0
  0
LINE
  5
1F12F
100
AcDbEntity
  8
0
100
AcDbLine
 10
2075.772602
 20
341.278623
 30
0.0
 11
2075.521602
 21
340.859623
 31
0.0
  0
LINE
  5
1F142
100
AcDbEntity
  8
0
100
AcDbLine
 10
2102.752602
 20
399.459623
 30
0.0
 11
2090.752602
 21
392.531623
 31
0.0
  0
CIRCLE
  5
1F143
100
AcDbEntity
  8
0
100
AcDbCircle
 10
2102.757602
 20
385.602623
 30
0.0
 40
11.9952
  0
LINE
  5
1F144
100
AcDbEntity
  8
0
100
AcDbLine
 10
2114.752602
 20
392.531623
 30
0.0
 11
2102.752602
 21
399.459623
 31
0.0
  0
LINE
  5
1F146
100
AcDbEntity
  8
0
100
AcDbLine
 10
2090.752602
 20
378.674623
 30
0.0
 11
2102.752602
 21
371.746623
 31
0.0
  0
LINE
  5
1F147
100
AcDbEntity
  8
0
100
AcDbLine
 10
2090.752602
 20
392.531623
 30
0.0
 11
2090.752602
 21
378.674623
 31
0.0
  0
LINE
  5
1F149
100
AcDbEntity
  8
0
100
AcDbLine
 10
2083.269602
 20
384.794623
 30
0.0
 11
2083.703602
 21
374.336623
 31
0.0
  0
ARC
  5
1F14E
100
AcDbEntity
  8
0
100
AcDbCircle
 10
2079.080564
 20
355.048323
 30
0.0
 40
2.999962
100
AcDbArc
 50
104.043417
 51
180.013376
  0
LINE
  5
1F153
100
AcDbEntity
  8
0
100
AcDbLine
 10
2114.752602
 20
378.674623
 30
0.0
 11
2114.752602
 21
392.531623
 31
0.0
  0
LINE
  5
1F154
100
AcDbEntity
  8
0
100
AcDbLine
 10
2102.752602
 20
371.746623
 30
0.0
 11
2114.752602
 21
378.674623
 31
0.0
  0
ARC
  5
1F156
100
AcDbEntity
  8
0
100
AcDbCircle
 10
2082.916161
 20
414.806185
 30
0.0
 40
15.028226
100
AcDbArc
 50
225.000009
 51
40.084472
  0
CIRCLE
  5
1F162
100
AcDbEntity
  8
0
100
AcDbCircle
 10
2082.895602
 20
414.786623
 30
0.0
 40
6.91748
  0
CIRCLE
  5
1F164
100
AcDbEntity
  8
0
100
AcDbCircle
 10
2082.895602
 20
414.786623
 30
0.0
 40
7.99994
  0
LINE
  5
1F16E
100
AcDbEntity
  8
0
100
AcDbLine
 10
2121.068602
 20
398.026623
 30
0.0
 11
2112.229141
 21
402.652776
 31
0.0
  0
LINE
  5
1F216
100
AcDbEntity
  8
0
100
AcDbLine
 10
2151.579602
 20
555.043623
 30
0.0
 11
2151.579602
 21
503.105623
 31
0.0
  0
LINE
  5
1F218
100
AcDbEntity
  8
0
100
AcDbLine
 10
2111.080602
 20
564.074623
 30
0.0
 11
2111.080602
 21
494.074623
 31
0.0
  0
LINE
  5
1F219
100
AcDbEntity
  8
0
100
AcDbLine
 10
2126.080602
 20
494.074623
 30
0.0
 11
2126.080602
 21
529.074623
 31
0.0
  0
LINE
  5
1F21A
100
AcDbEntity
  8
0
100
AcDbLine
 10
2176.079602
 20
489.603623
 30
0.0
 11
2176.079602
 21
589.602623
 31
0.0
  0
LINE
  5
1F21B
100
AcDbEntity
  8
0
100
AcDbLine
 10
2086.080602
 20
526.601623
 30
0.0
 11
2086.080602
 21
496.601623
 31
0.0
  0
LINE
  5
1F21D
100
AcDbEntity
  8
0
100
AcDbLine
 10
2147.584602
 20
490.504623
 30
0.0
 11
2135.584602
 21
483.575623
 31
0.0
  0
LINE
  5
1F21F
100
AcDbEntity
  8
0
100
AcDbLine
 10
2135.584602
 20
469.719623
 30
0.0
 11
2147.584602
 21
462.791623
 31
0.0
  0
CIRCLE
  5
1F220
100
AcDbEntity
  8
0
100
AcDbCircle
 10
2147.589602
 20
476.647623
 30
0.0
 40
11.9952
  0
LINE
  5
1F221
100
AcDbEntity
  8
0
100
AcDbLine
 10
2135.584602
 20
483.575623
 30
0.0
 11
2135.584602
 21
469.719623
 31
0.0
  0
CIRCLE
  5
1F223
100
AcDbEntity
  8
0
100
AcDbCircle
 10
2082.895602
 20
478.416623
 30
0.0
 40
6.91748
  0
CIRCLE
  5
1F224
100
AcDbEntity
  8
0
100
AcDbCircle
 10
2082.895602
 20
478.416623
 30
0.0
 40
7.99994
  0
ARC
  5
1F225
100
AcDbEntity
  8
0
100
AcDbCircle
 10
2082.916161
 20
478.397061
 30
0.0
 40
15.028226
100
AcDbArc
 50
319.915528
 51
134.999991
  0
ARC
  5
1F238
100
AcDbEntity
  8
0
100
AcDbCircle
 10
2083.687162
 20
439.874576
 30
0.0
 40
3.302603
100
AcDbArc
 50
170.957741
 51
222.329568
  0
ARC
  5
1F23C
100
AcDbEntity
  8
0
100
AcDbCircle
 10
2083.687162
 20
453.32867
 30
0.0
 40
3.302603
100
AcDbArc
 50
137.670432
 51
189.042259
  0
LINE
  5
1F23E
100
AcDbEntity
  8
0
100
AcDbLine
 10
2094.414195
 20
468.720141
 30
0.0
 11
2081.245602
 21
455.552623
 31
0.0
  0
LINE
  5
1F24F
100
AcDbEntity
  8
0
100
AcDbLine
 10
2111.080602
 20
494.074623
 30
0.0
 11
2126.080602
 21
494.074623
 31
0.0
  0
LINE
  5
1F250
100
AcDbEntity
  8
0
100
AcDbLine
 10
2159.584602
 20
469.719623
 30
0.0
 11
2159.584602
 21
483.575623
 31
0.0
  0
ARC
  5
1F253
100
AcDbEntity
  8
0
100
AcDbCircle
 10
2147.204899
 20
450.783414
 30
0.0
 40
2.999966
100
AcDbArc
 50
350.371133
 51
60.00619
  0
LINE
  5
1F254
100
AcDbEntity
  8
0
100
AcDbLine
 10
2147.584602
 20
462.791623
 30
0.0
 11
2159.584602
 21
469.719623
 31
0.0
  0
LINE
  5
1F256
100
AcDbEntity
  8
0
100
AcDbLine
 10
2137.830602
 20
459.660623
 30
0.0
 11
2148.704602
 21
453.381623
 31
0.0
  0
LINE
  5
1F257
100
AcDbEntity
  8
0
100
AcDbLine
 10
2150.577602
 20
500.867623
 30
0.0
 11
2150.079602
 21
500.507623
 31
0.0
  0
LINE
  5
1F258
100
AcDbEntity
  8
0
100
AcDbLine
 10
2150.801602
 20
501.089623
 30
0.0
 11
2150.577602
 21
500.867623
 31
0.0
  0
LINE
  5
1F259
100
AcDbEntity
  8
0
100
AcDbLine
 10
2151.002602
 20
501.336623
 30
0.0
 11
2150.801602
 21
501.089623
 31
0.0
  0
LINE
  5
1F25A
100
AcDbEntity
  8
0
100
AcDbLine
 10
2151.178602
 20
501.605623
 30
0.0
 11
2151.002602
 21
501.336623
 31
0.0
  0
LINE
  5
1F25B
100
AcDbEntity
  8
0
100
AcDbLine
 10
2151.323602
 20
501.892623
 30
0.0
 11
2151.178602
 21
501.605623
 31
0.0
  0
LINE
  5
1F25C
100
AcDbEntity
  8
0
100
AcDbLine
 10
2151.436602
 20
502.190623
 30
0.0
 11
2151.323602
 21
501.892623
 31
0.0
  0
LINE
  5
1F25D
100
AcDbEntity
  8
0
100
AcDbLine
 10
2151.517602
 20
502.495623
 30
0.0
 11
2151.436602
 21
502.190623
 31
0.0
  0
LINE
  5
1F25E
100
AcDbEntity
  8
0
100
AcDbLine
 10
2151.564602
 20
502.802623
 30
0.0
 11
2151.517602
 21
502.495623
 31
0.0
  0
LINE
  5
1F25F
100
AcDbEntity
  8
0
100
AcDbLine
 10
2151.579602
 20
503.105623
 30
0.0
 11
2151.564602
 21
502.802623
 31
0.0
  0
LINE
  5
1F260
100
AcDbEntity
  8
0
100
AcDbLine
 10
2151.579602
 20
503.105623
 30
0.0
 11
2151.579602
 21
503.105623
 31
0.0
  0
LINE
  5
1F262
100
AcDbEntity
  8
0
100
AcDbLine
 10
2159.584602
 20
483.575623
 30
0.0
 11
2147.584602
 21
490.504623
 31
0.0
  0
LINE
  5
1F263
100
AcDbEntity
  8
0
100
AcDbLine
 10
2150.079602
 20
500.507623
 30
0.0
 11
2137.832602
 21
493.436623
 31
0.0
  0
LINE
  5
1F264
100
AcDbEntity
  8
0
100
AcDbLine
 10
2147.584602
 20
595.458623
 30
0.0
 11
2135.584602
 21
588.529623
 31
0.0
  0
LINE
  5
1F266
100
AcDbEntity
  8
0
100
AcDbLine
 10
2135.584602
 20
574.673623
 30
0.0
 11
2147.584602
 21
567.745623
 31
0.0
  0
CIRCLE
  5
1F267
100
AcDbEntity
  8
0
100
AcDbCircle
 10
2147.589602
 20
581.601623
 30
0.0
 40
11.9952
  0
LINE
  5
1F268
100
AcDbEntity
  8
0
100
AcDbLine
 10
2126.080602
 20
529.074623
 30
0.0
 11
2126.080602
 21
564.074623
 31
0.0
  0
LINE
  5
1F26A
100
AcDbEntity
  8
0
100
AcDbLine
 10
2094.414195
 20
554.483105
 30
0.0
 11
2081.245602
 21
567.650623
 31
0.0
  0
ARC
  5
1F26B
100
AcDbEntity
  8
0
100
AcDbCircle
 10
2082.916161
 20
544.806185
 30
0.0
 40
15.028226
100
AcDbArc
 50
225.000009
 51
40.084472
  0
CIRCLE
  5
1F26E
100
AcDbEntity
  8
0
100
AcDbCircle
 10
2082.895602
 20
544.786623
 30
0.0
 40
6.91754
  0
CIRCLE
  5
1F26F
100
AcDbEntity
  8
0
100
AcDbCircle
 10
2082.895602
 20
544.786623
 30
0.0
 40
8.0
  0
ARC
  5
1F277
100
AcDbEntity
  8
0
100
AcDbCircle
 10
2083.686123
 20
583.32917
 30
0.0
 40
3.301498
100
AcDbArc
 50
137.664698
 51
189.036525
  0
ARC
  5
1F287
100
AcDbEntity
  8
0
100
AcDbCircle
 10
2083.687162
 20
569.874576
 30
0.0
 40
3.302603
100
AcDbArc
 50
170.957741
 51
222.329568
  0
LINE
  5
1F28A
100
AcDbEntity
  8
0
100
AcDbLine
 10
2093.495602
 20
597.802623
 30
0.0
 11
2081.245602
 21
585.552623
 31
0.0
  0
LINE
  5
1F29B
100
AcDbEntity
  8
0
100
AcDbLine
 10
2135.584602
 20
588.529623
 30
0.0
 11
2135.584602
 21
574.673623
 31
0.0
  0
LINE
  5
1F29D
100
AcDbEntity
  8
0
100
AcDbLine
 10
2126.080602
 20
564.074623
 30
0.0
 11
2111.080602
 21
564.074623
 31
0.0
  0
LINE
  5
1F29E
100
AcDbEntity
  8
0
100
AcDbLine
 10
2150.801602
 20
557.060623
 30
0.0
 11
2151.002602
 21
556.812623
 31
0.0
  0
LINE
  5
1F29F
100
AcDbEntity
  8
0
100
AcDbLine
 10
2151.517602
 20
555.653623
 30
0.0
 11
2151.579602
 21
555.043623
 31
0.0
  0
LINE
  5
1F2A0
100
AcDbEntity
  8
0
100
AcDbLine
 10
2151.437602
 20
555.959623
 30
0.0
 11
2151.517602
 21
555.653623
 31
0.0
  0
LINE
  5
1F2A1
100
AcDbEntity
  8
0
100
AcDbLine
 10
2151.323602
 20
556.257623
 30
0.0
 11
2151.437602
 21
555.959623
 31
0.0
  0
LINE
  5
1F2A2
100
AcDbEntity
  8
0
100
AcDbLine
 10
2151.178602
 20
556.543623
 30
0.0
 11
2151.323602
 21
556.257623
 31
0.0
  0
LINE
  5
1F2A3
100
AcDbEntity
  8
0
100
AcDbLine
 10
2151.002602
 20
556.812623
 30
0.0
 11
2151.178602
 21
556.543623
 31
0.0
  0
LINE
  5
1F2A4
100
AcDbEntity
  8
0
100
AcDbLine
 10
2150.577602
 20
557.282623
 30
0.0
 11
2150.801602
 21
557.060623
 31
0.0
  0
LINE
  5
1F2A5
100
AcDbEntity
  8
0
100
AcDbLine
 10
2150.335602
 20
557.476623
 30
0.0
 11
2150.577602
 21
557.282623
 31
0.0
  0
LINE
  5
1F2A6
100
AcDbEntity
  8
0
100
AcDbLine
 10
2150.080602
 20
557.641623
 30
0.0
 11
2150.335602
 21
557.476623
 31
0.0
  0
LINE
  5
1F2A7
100
AcDbEntity
  8
0
100
AcDbLine
 10
2150.080602
 20
557.641623
 30
0.0
 11
2150.080602
 21
557.641623
 31
0.0
  0
LINE
  5
1F2A8
100
AcDbEntity
  8
0
100
AcDbLine
 10
2159.584602
 20
574.673623
 30
0.0
 11
2159.584602
 21
588.529623
 31
0.0
  0
LINE
  5
1F2A9
100
AcDbEntity
  8
0
100
AcDbLine
 10
2159.584602
 20
588.529623
 30
0.0
 11
2147.584602
 21
595.458623
 31
0.0
  0
LINE
  5
1F2AA
100
AcDbEntity
  8
0
100
AcDbLine
 10
2147.584602
 20
567.745623
 30
0.0
 11
2159.584602
 21
574.673623
 31
0.0
  0
LINE
  5
1F2AB
100
AcDbEntity
  8
0
100
AcDbLine
 10
2137.830602
 20
564.714623
 30
0.0
 11
2150.080602
 21
557.641623
 31
0.0
  0
LINE
  5
1F2AC
100
AcDbEntity
  8
0
100
AcDbLine
 10
2176.079602
 20
589.602623
 30
0.0
 11
2176.079602
 21
589.602623
 31
0.0
  0
LINE
  5
1F664
100
AcDbEntity
  8
0
100
AcDbLine
 10
2123.080602
 20
670.753623
 30
0.0
 11
2123.080602
 21
684.610623
 31
0.0
  0
LINE
  5
1F666
100
AcDbEntity
  8
0
100
AcDbLine
 10
2099.080602
 20
684.610623
 30
0.0
 11
2099.080602
 21
670.753623
 31
0.0
  0
CIRCLE
  5
1F667
100
AcDbEntity
  8
0
100
AcDbCircle
 10
2111.084602
 20
677.682623
 30
0.0
 40
11.9952
  0
LINE
  5
1F668
100
AcDbEntity
  8
0
100
AcDbLine
 10
2089.079602
 20
714.602623
 30
0.0
 11
2089.080602
 21
622.083623
 31
0.0
  0
ARC
  5
1F669
100
AcDbEntity
  8
0
100
AcDbCircle
 10
2051.080186
 20
602.103207
 30
0.0
 40
112.499416
100
AcDbArc
 50
359.999703
 51
70.258629
  0
LINE
  5
1F66B
100
AcDbEntity
  8
0
100
AcDbLine
 10
2077.580602
 20
664.602623
 30
0.0
 11
2077.580602
 21
633.602623
 31
0.0
  0
LINE
  5
1F687
100
AcDbEntity
  8
0
100
AcDbLine
 10
2076.167602
 20
631.691623
 30
0.0
 11
2075.580602
 21
631.602623
 31
0.0
  0
LINE
  5
1F688
100
AcDbEntity
  8
0
100
AcDbLine
 10
2076.462602
 20
631.807623
 30
0.0
 11
2076.167602
 21
631.691623
 31
0.0
  0
LINE
  5
1F689
100
AcDbEntity
  8
0
100
AcDbLine
 10
2076.742602
 20
631.975623
 30
0.0
 11
2076.462602
 21
631.807623
 31
0.0
  0
LINE
  5
1F68A
100
AcDbEntity
  8
0
100
AcDbLine
 10
2076.994602
 20
632.188623
 30
0.0
 11
2076.742602
 21
631.975623
 31
0.0
  0
LINE
  5
1F68B
100
AcDbEntity
  8
0
100
AcDbLine
 10
2077.207602
 20
632.440623
 30
0.0
 11
2076.994602
 21
632.188623
 31
0.0
  0
LINE
  5
1F68C
100
AcDbEntity
  8
0
100
AcDbLine
 10
2077.374602
 20
632.720623
 30
0.0
 11
2077.207602
 21
632.440623
 31
0.0
  0
LINE
  5
1F68D
100
AcDbEntity
  8
0
100
AcDbLine
 10
2077.491602
 20
633.015623
 30
0.0
 11
2077.374602
 21
632.720623
 31
0.0
  0
LINE
  5
1F68E
100
AcDbEntity
  8
0
100
AcDbLine
 10
2077.558602
 20
633.312623
 30
0.0
 11
2077.491602
 21
633.015623
 31
0.0
  0
LINE
  5
1F68F
100
AcDbEntity
  8
0
100
AcDbLine
 10
2077.580602
 20
633.602623
 30
0.0
 11
2077.558602
 21
633.312623
 31
0.0
  0
LINE
  5
1F690
100
AcDbEntity
  8
0
100
AcDbLine
 10
2077.580602
 20
633.602623
 30
0.0
 11
2077.580602
 21
633.602623
 31
0.0
  0
CIRCLE
  5
1F691
100
AcDbEntity
  8
0
100
AcDbCircle
 10
2082.895602
 20
608.417623
 30
0.0
 40
6.91748
  0
CIRCLE
  5
1F693
100
AcDbEntity
  8
0
100
AcDbCircle
 10
2082.895602
 20
608.417623
 30
0.0
 40
7.99994
  0
LINE
  5
1F694
100
AcDbEntity
  8
0
100
AcDbLine
 10
2099.080602
 20
670.753623
 30
0.0
 11
2111.080602
 21
663.825623
 31
0.0
  0
LINE
  5
1F6A1
100
AcDbEntity
  8
0
100
AcDbLine
 10
2088.954602
 20
664.484623
 30
0.0
 11
2089.090602
 21
663.602623
 31
0.0
  0
LINE
  5
1F6A2
100
AcDbEntity
  8
0
100
AcDbLine
 10
2089.090602
 20
663.602623
 30
0.0
 11
2089.080602
 21
663.602623
 31
0.0
  0
LINE
  5
1F6A3
100
AcDbEntity
  8
0
100
AcDbLine
 10
2088.521602
 20
672.858623
 30
0.0
 11
2088.772602
 21
673.278623
 31
0.0
  0
LINE
  5
1F6A4
100
AcDbEntity
  8
0
100
AcDbLine
 10
2088.777602
 20
664.926623
 30
0.0
 11
2088.954602
 21
664.484623
 31
0.0
  0
LINE
  5
1F6A5
100
AcDbEntity
  8
0
100
AcDbLine
 10
2088.525602
 20
665.346623
 30
0.0
 11
2088.777602
 21
664.926623
 31
0.0
  0
LINE
  5
1F6A6
100
AcDbEntity
  8
0
100
AcDbLine
 10
2088.204602
 20
665.724623
 30
0.0
 11
2088.525602
 21
665.346623
 31
0.0
  0
LINE
  5
1F6A7
100
AcDbEntity
  8
0
100
AcDbLine
 10
2088.201602
 20
672.480623
 30
0.0
 11
2088.521602
 21
672.858623
 31
0.0
  0
LINE
  5
1F6A8
100
AcDbEntity
  8
0
100
AcDbLine
 10
2088.772602
 20
673.278623
 30
0.0
 11
2088.947602
 21
673.720623
 31
0.0
  0
LINE
  5
1F6A9
100
AcDbEntity
  8
0
100
AcDbLine
 10
2088.947602
 20
673.720623
 30
0.0
 11
2089.080602
 21
674.601623
 31
0.0
  0
LINE
  5
1F6AA
100
AcDbEntity
  8
0
100
AcDbLine
 10
2087.404602
 20
666.294623
 30
0.0
 11
2087.825602
 21
666.044623
 31
0.0
  0
LINE
  5
1F6AB
100
AcDbEntity
  8
0
100
AcDbLine
 10
2086.961602
 20
666.470623
 30
0.0
 11
2087.404602
 21
666.294623
 31
0.0
  0
LINE
  5
1F6AC
100
AcDbEntity
  8
0
100
AcDbLine
 10
2086.514602
 20
666.571623
 30
0.0
 11
2086.961602
 21
666.470623
 31
0.0
  0
LINE
  5
1F6AD
100
AcDbEntity
  8
0
100
AcDbLine
 10
2086.080602
 20
666.602623
 30
0.0
 11
2086.514602
 21
666.571623
 31
0.0
  0
LINE
  5
1F6AE
100
AcDbEntity
  8
0
100
AcDbLine
 10
2086.080602
 20
666.602623
 30
0.0
 11
2086.080602
 21
666.602623
 31
0.0
  0
LINE
  5
1F6AF
100
AcDbEntity
  8
0
100
AcDbLine
 10
2087.403602
 20
671.909623
 30
0.0
 11
2087.823602
 21
672.160623
 31
0.0
  0
LINE
  5
1F6B0
100
AcDbEntity
  8
0
100
AcDbLine
 10
2086.961602
 20
671.734623
 30
0.0
 11
2087.403602
 21
671.909623
 31
0.0
  0
LINE
  5
1F6B1
100
AcDbEntity
  8
0
100
AcDbLine
 10
2086.514602
 20
671.633623
 30
0.0
 11
2086.961602
 21
671.734623
 31
0.0
  0
LINE
  5
1F6B2
100
AcDbEntity
  8
0
100
AcDbLine
 10
2086.080602
 20
671.601623
 30
0.0
 11
2086.514602
 21
671.633623
 31
0.0
  0
LINE
  5
1F6B3
100
AcDbEntity
  8
0
100
AcDbLine
 10
2086.080602
 20
671.601623
 30
0.0
 11
2086.080602
 21
671.601623
 31
0.0
  0
LINE
  5
1F6B4
100
AcDbEntity
  8
0
100
AcDbLine
 10
2077.491602
 20
665.190623
 30
0.0
 11
2077.580602
 21
664.602623
 31
0.0
  0
LINE
  5
1F6B5
100
AcDbEntity
  8
0
100
AcDbLine
 10
2077.374602
 20
665.485623
 30
0.0
 11
2077.491602
 21
665.190623
 31
0.0
  0
LINE
  5
1F6B6
100
AcDbEntity
  8
0
100
AcDbLine
 10
2077.207602
 20
665.764623
 30
0.0
 11
2077.374602
 21
665.485623
 31
0.0
  0
LINE
  5
1F6B7
100
AcDbEntity
  8
0
100
AcDbLine
 10
2076.994602
 20
666.016623
 30
0.0
 11
2077.207602
 21
665.764623
 31
0.0
  0
LINE
  5
1F6B8
100
AcDbEntity
  8
0
100
AcDbLine
 10
2076.742602
 20
666.230623
 30
0.0
 11
2076.994602
 21
666.016623
 31
0.0
  0
LINE
  5
1F6B9
100
AcDbEntity
  8
0
100
AcDbLine
 10
2076.462602
 20
666.397623
 30
0.0
 11
2076.742602
 21
666.230623
 31
0.0
  0
LINE
  5
1F6BA
100
AcDbEntity
  8
0
100
AcDbLine
 10
2076.167602
 20
666.514623
 30
0.0
 11
2076.462602
 21
666.397623
 31
0.0
  0
LINE
  5
1F6BB
100
AcDbEntity
  8
0
100
AcDbLine
 10
2075.869602
 20
666.581623
 30
0.0
 11
2076.167602
 21
666.514623
 31
0.0
  0
LINE
  5
1F6BC
100
AcDbEntity
  8
0
100
AcDbLine
 10
2075.580602
 20
666.602623
 30
0.0
 11
2075.869602
 21
666.581623
 31
0.0
  0
LINE
  5
1F6BD
100
AcDbEntity
  8
0
100
AcDbLine
 10
2075.580602
 20
666.602623
 30
0.0
 11
2075.580602
 21
666.602623
 31
0.0
  0
CIRCLE
  5
1F6BE
100
AcDbEntity
  8
0
100
AcDbCircle
 10
2074.080602
 20
649.102623
 30
0.0
 40
0.799927
  0
LINE
  5
1F6BF
100
AcDbEntity
  8
0
100
AcDbLine
 10
2087.825602
 20
666.044623
 30
0.0
 11
2088.204602
 21
665.724623
 31
0.0
  0
LINE
  5
1F6C0
100
AcDbEntity
  8
0
100
AcDbLine
 10
2087.823602
 20
672.160623
 30
0.0
 11
2088.201602
 21
672.480623
 31
0.0
  0
LINE
  5
1F6CA
100
AcDbEntity
  8
0
100
AcDbLine
 10
2111.080602
 20
663.825623
 30
0.0
 11
2123.080602
 21
670.753623
 31
0.0
  0
LINE
  5
1F6CB
100
AcDbEntity
  8
0
100
AcDbLine
 10
2118.244602
 20
659.545623
 30
0.0
 11
2127.978602
 21
663.391623
 31
0.0
  0
LINE
  5
1F6D4
100
AcDbEntity
  8
0
100
AcDbLine
 10
2149.719134
 20
605.353011
 30
0.0
 11
2137.832602
 21
598.490623
 31
0.0
  0
LINE
  5
1F6D8
100
AcDbEntity
  8
0
100
AcDbLine
 10
2076.979602
 20
729.601623
 30
0.0
 11
2076.979602
 21
719.602623
 31
0.0
  0
LINE
  5
1F6D9
100
AcDbEntity
  8
0
100
AcDbLine
 10
2111.080602
 20
691.538623
 30
0.0
 11
2099.080602
 21
684.610623
 31
0.0
  0
LINE
  5
1F6DC
100
AcDbEntity
  8
0
100
AcDbLine
 10
2093.337554
 20
690.960589
 30
0.0
 11
2091.791602
 21
680.548623
 31
0.0
  0
LINE
  5
1F6E6
100
AcDbEntity
  8
0
100
AcDbLine
 10
2089.080602
 20
714.601623
 30
0.0
 11
2089.080602
 21
707.989623
 31
0.0
  0
LINE
  5
1F6E7
100
AcDbEntity
  8
0
100
AcDbLine
 10
2077.557602
 20
714.602623
 30
0.0
 11
2077.697602
 21
719.102623
 31
0.0
  0
LINE
  5
1F6E8
100
AcDbEntity
  8
0
100
AcDbLine
 10
2077.697602
 20
719.102623
 30
0.0
 11
2077.213602
 21
719.602623
 31
0.0
  0
LINE
  5
1F6EA
100
AcDbEntity
  8
0
100
AcDbLine
 10
2123.080602
 20
684.610623
 30
0.0
 11
2111.080602
 21
691.538623
 31
0.0
  0
ARC
  5
1FA68
100
AcDbEntity
  8
0
100
AcDbCircle
 10
2102.784997
 20
385.557715
 30
0.0
 40
19.530309
100
AcDbArc
 50
61.081602
 51
182.239241
  0
ARC
  5
1FA69
100
AcDbEntity
  8
0
100
AcDbCircle
 10
2147.630752
 20
476.548043
 30
0.0
 40
19.525058
100
AcDbArc
 50
120.120773
 51
239.872442
  0
ARC
  5
1FA6A
100
AcDbEntity
  8
0
100
AcDbCircle
 10
2147.630752
 20
581.602043
 30
0.0
 40
19.525058
100
AcDbArc
 50
120.120773
 51
239.872442
  0
ARC
  5
1FA6B
100
AcDbEntity
  8
0
100
AcDbCircle
 10
2111.210111
 20
677.845876
 30
0.0
 40
19.605696
100
AcDbArc
 50
172.076246
 51
291.026415
  0
ARC
  5
1FA6C
100
AcDbEntity
  8
0
100
AcDbCircle
 10
1991.048353
 20
677.722119
 30
0.0
 40
19.52591
100
AcDbArc
 50
248.574156
 51
8.323182
  0
ARC
  5
1FA6D
100
AcDbEntity
  8
0
100
AcDbCircle
 10
1954.530928
 20
581.601753
 30
0.0
 40
19.524568
100
AcDbArc
 50
300.126779
 51
59.883399
  0
ARC
  5
1FA6E
100
AcDbEntity
  8
0
100
AcDbCircle
 10
1954.52693
 20
476.547752
 30
0.0
 40
19.526575
100
AcDbArc
 50
300.136924
 51
59.873254
  0
ARC
  5
1FA6F
100
AcDbEntity
  8
0
100
AcDbCircle
 10
1999.380563
 20
385.560355
 30
0.0
 40
19.52506
100
AcDbArc
 50
357.752402
 51
117.504272
  0
ARC
  5
1FA73
100
AcDbEntity
  8
0
100
AcDbCircle
 10
2082.860786
 20
608.410789
 30
0.0
 40
15.021069
100
AcDbArc
 50
315.07188
 51
65.539059
  0
ARC
  5
1FA74
100
AcDbEntity
  8
0
100
AcDbCircle
 10
2019.294665
 20
608.411835
 30
0.0
 40
15.017735
100
AcDbArc
 50
114.442615
 51
224.946446
  0
CIRCLE
  5
1FA76
100
AcDbEntity
  8
0
100
AcDbCircle
 10
2051.075602
 20
446.601623
 30
0.0
 40
15.1479
  0
CIRCLE
  5
1FA77
100
AcDbEntity
  8
0
100
AcDbCircle
 10
2051.075602
 20
446.601623
 30
0.0
 40
16.6244
  0
CIRCLE
  5
1FA78
100
AcDbEntity
  8
0
100
AcDbCircle
 10
2051.075602
 20
446.601623
 30
0.0
 40
30.0
  0
ARC
  5
1FA79
100
AcDbEntity
  8
0
100
AcDbCircle
 10
2051.080102
 20
467.102849
 30
0.0
 40
100.500226
100
AcDbArc
 50
189.635231
 51
222.938377
  0
ARC
  5
1FA7A
100
AcDbEntity
  8
0
100
AcDbCircle
 10
2122.459056
 20
400.684938
 30
0.0
 40
3.0
100
AcDbArc
 50
242.374581
 51
317.061905
  0
ARC
  5
1FA7B
100
AcDbEntity
  8
0
100
AcDbCircle
 10
2080.706165
 20
374.212642
 30
0.0
 40
3.0
100
AcDbArc
 50
287.689372
 51
2.376373
  0
ARC
  5
1FA7C
100
AcDbEntity
  8
0
100
AcDbCircle
 10
2051.080102
 20
467.102849
 30
0.0
 40
100.500226
100
AcDbArc
 50
317.061905
 51
350.364769
  0
ARC
  5
1FA7D
100
AcDbEntity
  8
0
100
AcDbCircle
 10
2021.454039
 20
374.212642
 30
0.0
 40
3.0
100
AcDbArc
 50
177.623627
 51
252.310628
  0
ARC
  5
1FA7F
100
AcDbEntity
  8
0
100
AcDbCircle
 10
1979.701475
 20
400.684586
 30
0.0
 40
3.0
100
AcDbArc
 50
222.938377
 51
297.625419
  0
ARC
  5
1FA80
100
AcDbEntity
  8
0
100
AcDbCircle
 10
2051.080102
 20
467.102849
 30
0.0
 40
100.500226
100
AcDbArc
 50
252.310628
 51
287.689372
  0
ARC
  5
1FA81
100
AcDbEntity
  8
0
100
AcDbCircle
 10
2051.080102
 20
602.388612
 30
0.0
 40
100.298215
100
AcDbArc
 50
3.277367
 51
36.739246
  0
ARC
  5
1FA82
100
AcDbEntity
  8
0
100
AcDbCircle
 10
1973.108611
 20
660.589893
 30
0.0
 40
3.0
100
AcDbArc
 50
68.440532
 51
143.260754
  0
ARC
  5
1FA84
100
AcDbEntity
  8
0
100
AcDbCircle
 10
2011.790118
 20
691.401194
 30
0.0
 40
3.0
100
AcDbArc
 50
113.816572
 51
188.445483
  0
ARC
  5
1FA85
100
AcDbEntity
  8
0
100
AcDbCircle
 10
2051.080102
 20
602.388612
 30
0.0
 40
100.298215
100
AcDbArc
 50
143.260754
 51
176.722309
  0
ARC
  5
1FA86
100
AcDbEntity
  8
0
100
AcDbCircle
 10
2129.051593
 20
660.589893
 30
0.0
 40
3.0
100
AcDbArc
 50
36.739246
 51
111.559468
  0
ARC
  5
1FA87
100
AcDbEntity
  8
0
100
AcDbCircle
 10
2090.370086
 20
691.401194
 30
0.0
 40
3.0
100
AcDbArc
 50
351.554517
 51
66.183428
  0
ARC
  5
1FA88
100
AcDbEntity
  8
0
100
AcDbCircle
 10
2051.080102
 20
602.388612
 30
0.0
 40
100.298215
100
AcDbArc
 50
66.183428
 51
67.736464
  0
ARC
  5
1FA89
100
AcDbEntity
  8
0
100
AcDbCircle
 10
2051.080102
 20
602.388612
 30
0.0
 40
100.298215
100
AcDbArc
 50
112.263894
 51
113.816572
  0
LINE
  5
202CB
100
AcDbEntity
  8
0
100
AcDbLine
 10
1320.417665
 20
1455.010016
 30
0.0
 11
1320.417665
 21
1423.145016
 31
0.0
  0
LINE
  5
202CC
100
AcDbEntity
  8
0
100
AcDbLine
 10
1310.416665
 20
1438.961016
 30
0.0
 11
1310.416665
 21
1494.961016
 31
0.0
  0
LINE
  5
202CF
100
AcDbEntity
  8
0
100
AcDbLine
 10
1448.917665
 20
1719.442016
 30
0.0
 11
1448.917665
 21
1383.461016
 31
0.0
  0
LINE
  5
202D0
100
AcDbEntity
  8
0
100
AcDbLine
 10
1407.416665
 20
1734.960016
 30
0.0
 11
1407.416665
 21
1385.221016
 31
0.0
  0
LINE
  5
202D1
100
AcDbEntity
  8
0
100
AcDbLine
 10
1427.417665
 20
1734.960016
 30
0.0
 11
1427.416665
 21
1374.961016
 31
0.0
  0
LINE
  5
202D2
100
AcDbEntity
  8
0
100
AcDbLine
 10
1428.917665
 20
1374.962016
 30
0.0
 11
1428.917665
 21
1734.960016
 31
0.0
  0
LINE
  5
202D3
100
AcDbEntity
  8
0
100
AcDbLine
 10
1463.484665
 20
1459.444016
 30
0.0
 11
1506.444665
 21
1404.186016
 31
0.0
  0
CIRCLE
  5
202D5
100
AcDbEntity
  8
0
100
AcDbCircle
 10
1546.917665
 20
1409.960016
 30
0.0
 40
9.31549
  0
LINE
  5
202D6
100
AcDbEntity
  8
0
100
AcDbLine
 10
1546.917665
 20
1400.645016
 30
0.0
 11
1556.233665
 21
1409.960016
 31
0.0
  0
LINE
  5
202D8
100
AcDbEntity
  8
0
100
AcDbLine
 10
1556.233665
 20
1409.960016
 30
0.0
 11
1546.917665
 21
1419.276016
 31
0.0
  0
LINE
  5
202D9
100
AcDbEntity
  8
0
100
AcDbLine
 10
1563.508665
 20
1384.961016
 30
0.0
 11
1450.417665
 21
1384.961016
 31
0.0
  0
CIRCLE
  5
202DA
100
AcDbEntity
  8
0
100
AcDbCircle
 10
1546.917665
 20
1409.960016
 30
0.0
 40
10.4775
  0
LINE
  5
202DB
100
AcDbEntity
  8
0
100
AcDbLine
 10
1432.417665
 20
1374.962016
 30
0.0
 11
1428.917665
 21
1374.962016
 31
0.0
  0
LINE
  5
202E1
100
AcDbEntity
  8
0
100
AcDbLine
 10
1323.417665
 20
1420.145016
 30
0.0
 11
1345.261665
 21
1420.145016
 31
0.0
  0
LINE
  5
202E2
100
AcDbEntity
  8
0
100
AcDbLine
 10
1345.261665
 20
1420.145016
 30
0.0
 11
1323.417665
 21
1420.145016
 31
0.0
  0
LINE
  5
202E3
100
AcDbEntity
  8
0
100
AcDbLine
 10
1320.417665
 20
1423.145016
 30
0.0
 11
1320.417665
 21
1436.961016
 31
0.0
  0
LINE
  5
202F8
100
AcDbEntity
  8
0
100
AcDbLine
 10
1320.417665
 20
1436.961016
 30
0.0
 11
1312.416665
 21
1436.961016
 31
0.0
  0
LINE
  5
202F9
100
AcDbEntity
  8
0
100
AcDbLine
 10
1312.416665
 20
1436.961016
 30
0.0
 11
1310.416665
 21
1438.961016
 31
0.0
  0
ARC
  5
2030E
100
AcDbEntity
  8
0
100
AcDbCircle
 10
1422.350782
 20
1405.960016
 30
0.0
 40
24.651365
100
AcDbArc
 50
163.680185
 51
196.319815
  0
LINE
  5
2030F
100
AcDbEntity
  8
0
100
AcDbLine
 10
1397.416665
 20
1394.313016
 30
0.0
 11
1397.416665
 21
1417.607016
 31
0.0
  0
LINE
  5
20311
100
AcDbEntity
  8
0
100
AcDbLine
 10
1398.692665
 20
1399.033016
 30
0.0
 11
1407.416665
 21
1399.033016
 31
0.0
  0
LINE
  5
20312
100
AcDbEntity
  8
0
100
AcDbLine
 10
1407.416665
 20
1392.104016
 30
0.0
 11
1398.692665
 21
1392.104016
 31
0.0
  0
ARC
  5
20317
100
AcDbEntity
  8
0
100
AcDbCircle
 10
1404.237719
 20
1395.568016
 30
0.0
 40
6.538643
100
AcDbArc
 50
147.999511
 51
212.000489
  0
LINE
  5
20318
100
AcDbEntity
  8
0
100
AcDbLine
 10
1398.692665
 20
1392.104016
 30
0.0
 11
1397.416665
 21
1394.313016
 31
0.0
  0
LINE
  5
2031C
100
AcDbEntity
  8
0
100
AcDbLine
 10
1407.416665
 20
1376.961016
 30
0.0
 11
1407.416665
 21
1385.221016
 31
0.0
  0
ARC
  5
20321
100
AcDbEntity
  8
0
100
AcDbCircle
 10
1405.416187
 20
1385.22133
 30
0.0
 40
2.000478
100
AcDbArc
 50
359.990987
 51
81.535078
  0
LINE
  5
20323
100
AcDbEntity
  8
0
100
AcDbLine
 10
1427.416665
 20
1374.961016
 30
0.0
 11
1409.416665
 21
1374.961016
 31
0.0
  0
LINE
  5
20327
100
AcDbEntity
  8
0
100
AcDbLine
 10
1410.706665
 20
1374.940016
 30
0.0
 11
1411.003665
 21
1374.873016
 31
0.0
  0
LINE
  5
20328
100
AcDbEntity
  8
0
100
AcDbLine
 10
1411.003665
 20
1374.873016
 30
0.0
 11
1411.298665
 21
1374.756016
 31
0.0
  0
LINE
  5
20329
100
AcDbEntity
  8
0
100
AcDbLine
 10
1411.298665
 20
1374.756016
 30
0.0
 11
1411.578665
 21
1374.589016
 31
0.0
  0
LINE
  5
2032A
100
AcDbEntity
  8
0
100
AcDbLine
 10
1411.578665
 20
1374.589016
 30
0.0
 11
1411.830665
 21
1374.375016
 31
0.0
  0
LINE
  5
2032B
100
AcDbEntity
  8
0
100
AcDbLine
 10
1411.830665
 20
1374.375016
 30
0.0
 11
1412.043665
 21
1374.123016
 31
0.0
  0
LINE
  5
2032C
100
AcDbEntity
  8
0
100
AcDbLine
 10
1412.043665
 20
1374.123016
 30
0.0
 11
1412.211665
 21
1373.843016
 31
0.0
  0
LINE
  5
2032D
100
AcDbEntity
  8
0
100
AcDbLine
 10
1412.211665
 20
1373.843016
 30
0.0
 11
1412.328665
 21
1373.548016
 31
0.0
  0
LINE
  5
2032E
100
AcDbEntity
  8
0
100
AcDbLine
 10
1412.328665
 20
1373.548016
 30
0.0
 11
1412.416665
 21
1372.961016
 31
0.0
  0
LINE
  5
2032F
100
AcDbEntity
  8
0
100
AcDbLine
 10
1412.416665
 20
1372.961016
 30
0.0
 11
1412.416665
 21
1361.961016
 31
0.0
  0
LINE
  5
20337
100
AcDbEntity
  8
0
100
AcDbLine
 10
1415.416665
 20
1359.961016
 30
0.0
 11
1427.416665
 21
1359.961016
 31
0.0
  0
LINE
  5
20340
100
AcDbEntity
  8
0
100
AcDbLine
 10
1414.416665
 20
1359.961016
 30
0.0
 11
1415.416665
 21
1359.961016
 31
0.0
  0
LINE
  5
20341
100
AcDbEntity
  8
0
100
AcDbLine
 10
1427.416665
 20
1359.961016
 30
0.0
 11
1427.416665
 21
1374.961016
 31
0.0
  0
LINE
  5
20343
100
AcDbEntity
  8
0
100
AcDbLine
 10
1398.692665
 20
1412.887016
 30
0.0
 11
1407.416665
 21
1412.887016
 31
0.0
  0
ARC
  5
20347
100
AcDbEntity
  8
0
100
AcDbCircle
 10
1404.237813
 20
1416.352144
 30
0.0
 40
6.538791
100
AcDbArc
 50
161.342085
 51
212.001009
  0
LINE
  5
20348
100
AcDbEntity
  8
0
100
AcDbLine
 10
1397.416665
 20
1417.607016
 30
0.0
 11
1397.900665
 21
1418.445016
 31
0.0
  0
LINE
  5
2034A
100
AcDbEntity
  8
0
100
AcDbLine
 10
1433.917665
 20
1373.462016
 30
0.0
 11
1433.917665
 21
1419.960016
 31
0.0
  0
LINE
  5
2034B
100
AcDbEntity
  8
0
100
AcDbLine
 10
1448.917665
 20
1390.129016
 30
0.0
 11
1465.591665
 21
1390.129016
 31
0.0
  0
LINE
  5
20356
100
AcDbEntity
  8
0
100
AcDbLine
 10
1449.071665
 20
1384.122016
 30
0.0
 11
1448.983665
 21
1383.901016
 31
0.0
  0
LINE
  5
20357
100
AcDbEntity
  8
0
100
AcDbLine
 10
1448.983665
 20
1383.901016
 30
0.0
 11
1448.917665
 21
1383.461016
 31
0.0
  0
LINE
  5
20358
100
AcDbEntity
  8
0
100
AcDbLine
 10
1450.417665
 20
1384.961016
 30
0.0
 11
1450.417665
 21
1384.961016
 31
0.0
  0
LINE
  5
20359
100
AcDbEntity
  8
0
100
AcDbLine
 10
1450.417665
 20
1384.961016
 30
0.0
 11
1450.200665
 21
1384.945016
 31
0.0
  0
LINE
  5
2035A
100
AcDbEntity
  8
0
100
AcDbLine
 10
1450.200665
 20
1384.945016
 30
0.0
 11
1449.976665
 21
1384.894016
 31
0.0
  0
LINE
  5
2035B
100
AcDbEntity
  8
0
100
AcDbLine
 10
1449.976665
 20
1384.894016
 30
0.0
 11
1449.755665
 21
1384.807016
 31
0.0
  0
LINE
  5
2035C
100
AcDbEntity
  8
0
100
AcDbLine
 10
1449.755665
 20
1384.807016
 30
0.0
 11
1449.545665
 21
1384.681016
 31
0.0
  0
LINE
  5
2035D
100
AcDbEntity
  8
0
100
AcDbLine
 10
1449.545665
 20
1384.681016
 30
0.0
 11
1449.356665
 21
1384.521016
 31
0.0
  0
LINE
  5
2035E
100
AcDbEntity
  8
0
100
AcDbLine
 10
1449.356665
 20
1384.521016
 30
0.0
 11
1449.196665
 21
1384.332016
 31
0.0
  0
LINE
  5
2035F
100
AcDbEntity
  8
0
100
AcDbLine
 10
1449.196665
 20
1384.332016
 30
0.0
 11
1449.071665
 21
1384.122016
 31
0.0
  0
LINE
  5
20360
100
AcDbEntity
  8
0
100
AcDbLine
 10
1447.417665
 20
1359.960016
 30
0.0
 11
1435.417665
 21
1359.960016
 31
0.0
  0
LINE
  5
20375
100
AcDbEntity
  8
0
100
AcDbLine
 10
1448.917665
 20
1383.461016
 30
0.0
 11
1448.917665
 21
1361.460016
 31
0.0
  0
LINE
  5
20376
100
AcDbEntity
  8
0
100
AcDbLine
 10
1433.917665
 20
1361.460016
 30
0.0
 11
1433.917665
 21
1373.462016
 31
0.0
  0
LINE
  5
20377
100
AcDbEntity
  8
0
100
AcDbLine
 10
1448.917665
 20
1411.965016
 30
0.0
 11
1465.591665
 21
1411.965016
 31
0.0
  0
LINE
  5
20379
100
AcDbEntity
  8
0
100
AcDbLine
 10
1537.602665
 20
1409.960016
 30
0.0
 11
1546.917665
 21
1400.645016
 31
0.0
  0
LINE
  5
2038F
100
AcDbEntity
  8
0
100
AcDbLine
 10
1521.918665
 20
1410.002016
 30
0.0
 11
1521.918665
 21
1437.705016
 31
0.0
  0
LINE
  5
20390
100
AcDbEntity
  8
0
100
AcDbLine
 10
1546.917665
 20
1419.276016
 30
0.0
 11
1537.602665
 21
1409.960016
 31
0.0
  0
LINE
  5
20392
100
AcDbEntity
  8
0
100
AcDbLine
 10
1617.417665
 20
1384.961016
 30
0.0
 11
1563.508665
 21
1384.961016
 31
0.0
  0
LINE
  5
203FA
100
AcDbEntity
  8
0
100
AcDbLine
 10
1571.917665
 20
1437.705016
 30
0.0
 11
1571.917665
 21
1409.960016
 31
0.0
  0
LINE
  5
20409
100
AcDbEntity
  8
0
100
AcDbLine
 10
1648.917665
 20
1431.960016
 30
0.0
 11
1648.917665
 21
1386.961016
 31
0.0
  0
LINE
  5
2040A
100
AcDbEntity
  8
0
100
AcDbLine
 10
1653.917665
 20
1428.460016
 30
0.0
 11
1653.917665
 21
1391.460016
 31
0.0
  0
LINE
  5
2040B
100
AcDbEntity
  8
0
100
AcDbLine
 10
1658.417665
 20
1420.578016
 30
0.0
 11
1658.417665
 21
1399.342016
 31
0.0
  0
LINE
  5
2040C
100
AcDbEntity
  8
0
100
AcDbLine
 10
1658.917665
 20
1420.094016
 30
0.0
 11
1658.917665
 21
1399.827016
 31
0.0
  0
LINE
  5
2040D
100
AcDbEntity
  8
0
100
AcDbLine
 10
1668.916665
 20
1400.061016
 30
0.0
 11
1668.916665
 21
1419.860016
 31
0.0
  0
LINE
  5
2040E
100
AcDbEntity
  8
0
100
AcDbLine
 10
1658.917665
 20
1419.860016
 30
0.0
 11
1658.917665
 21
1400.061016
 31
0.0
  0
LINE
  5
2040F
100
AcDbEntity
  8
0
100
AcDbLine
 10
1628.917665
 20
1419.960016
 30
0.0
 11
1628.917665
 21
1383.461016
 31
0.0
  0
LINE
  5
20410
100
AcDbEntity
  8
0
100
AcDbLine
 10
1618.917665
 20
1419.960016
 30
0.0
 11
1618.917665
 21
1383.461016
 31
0.0
  0
LINE
  5
20411
100
AcDbEntity
  8
0
100
AcDbLine
 10
1646.917665
 20
1384.961016
 30
0.0
 11
1630.417665
 21
1384.961016
 31
0.0
  0
LINE
  5
20426
100
AcDbEntity
  8
0
100
AcDbLine
 10
1627.417665
 20
1359.960016
 30
0.0
 11
1620.417665
 21
1359.960016
 31
0.0
  0
LINE
  5
2043B
100
AcDbEntity
  8
0
100
AcDbLine
 10
1628.917665
 20
1383.461016
 30
0.0
 11
1628.917665
 21
1361.460016
 31
0.0
  0
LINE
  5
2043C
100
AcDbEntity
  8
0
100
AcDbLine
 10
1618.917665
 20
1361.460016
 30
0.0
 11
1618.917665
 21
1383.461016
 31
0.0
  0
LINE
  5
20440
100
AcDbEntity
  8
0
100
AcDbLine
 10
1658.917665
 20
1399.827016
 30
0.0
 11
1658.417665
 21
1399.342016
 31
0.0
  0
LINE
  5
20441
100
AcDbEntity
  8
0
100
AcDbLine
 10
1658.917665
 20
1400.061016
 30
0.0
 11
1668.916665
 21
1400.061016
 31
0.0
  0
LINE
  5
20443
100
AcDbEntity
  8
0
100
AcDbLine
 10
1658.417665
 20
1399.342016
 30
0.0
 11
1653.917665
 21
1399.483016
 31
0.0
  0
ARC
  5
204A7
100
AcDbEntity
  8
0
100
AcDbCircle
 10
1651.918041
 20
1436.75624
 30
0.0
 40
3.000376
100
AcDbArc
 50
145.120432
 51
180.004292
  0
LINE
  5
204A8
100
AcDbEntity
  8
0
100
AcDbLine
 10
1648.917665
 20
1436.756016
 30
0.0
 11
1648.917665
 21
1431.960016
 31
0.0
  0
LINE
  5
204B3
100
AcDbEntity
  8
0
100
AcDbLine
 10
1650.917665
 20
1429.960016
 30
0.0
 11
1652.417665
 21
1429.960016
 31
0.0
  0
LINE
  5
204BE
100
AcDbEntity
  8
0
100
AcDbLine
 10
1658.417665
 20
1420.578016
 30
0.0
 11
1658.917665
 21
1420.094016
 31
0.0
  0
LINE
  5
204BF
100
AcDbEntity
  8
0
100
AcDbLine
 10
1668.916665
 20
1419.860016
 30
0.0
 11
1658.917665
 21
1419.860016
 31
0.0
  0
LINE
  5
204C0
100
AcDbEntity
  8
0
100
AcDbLine
 10
1653.917665
 20
1420.438016
 30
0.0
 11
1658.417665
 21
1420.578016
 31
0.0
  0
LINE
  5
204C1
100
AcDbEntity
  8
0
100
AcDbLine
 10
1668.916665
 20
1409.960016
 30
0.0
 11
1658.917665
 21
1409.960016
 31
0.0
  0
LINE
  5
204C9
100
AcDbEntity
  8
0
100
AcDbLine
 10
1531.321282
 20
1734.960016
 30
0.0
 11
1647.417678
 21
1734.959016
 31
0.0
  0
LINE
  5
204CA
100
AcDbEntity
  8
0
100
AcDbLine
 10
1310.416665
 20
1568.961016
 30
0.0
 11
1310.416665
 21
1624.961016
 31
0.0
  0
ARC
  5
204CD
100
AcDbEntity
  8
0
100
AcDbCircle
 10
1422.350782
 20
1601.959016
 30
0.0
 40
24.651365
100
AcDbArc
 50
163.680185
 51
196.319815
  0
LINE
  5
204CE
100
AcDbEntity
  8
0
100
AcDbLine
 10
1397.416665
 20
1590.312016
 30
0.0
 11
1397.416665
 21
1613.606016
 31
0.0
  0
LINE
  5
204CF
100
AcDbEntity
  8
0
100
AcDbLine
 10
1335.419665
 20
1581.434016
 30
0.0
 11
1335.419665
 21
1517.434016
 31
0.0
  0
LINE
  5
204D1
100
AcDbEntity
  8
0
100
AcDbLine
 10
1320.417665
 20
1510.777016
 30
0.0
 11
1320.416665
 21
1553.145016
 31
0.0
  0
LINE
  5
204D4
100
AcDbEntity
  8
0
100
AcDbLine
 10
1320.417665
 20
1510.777016
 30
0.0
 11
1320.417665
 21
1478.912016
 31
0.0
  0
LINE
  5
204D9
100
AcDbEntity
  8
0
100
AcDbLine
 10
1323.417665
 20
1475.912016
 30
0.0
 11
1323.417665
 21
1458.010016
 31
0.0
  0
LINE
  5
204EA
100
AcDbEntity
  8
0
100
AcDbLine
 10
1330.777665
 20
1458.010016
 30
0.0
 11
1323.417665
 21
1458.010016
 31
0.0
  0
LINE
  5
204EB
100
AcDbEntity
  8
0
100
AcDbLine
 10
1323.417665
 20
1475.912016
 30
0.0
 11
1330.777665
 21
1475.912016
 31
0.0
  0
LINE
  5
204ED
100
AcDbEntity
  8
0
100
AcDbLine
 10
1338.419665
 20
1514.434016
 30
0.0
 11
1355.233665
 21
1514.434016
 31
0.0
  0
LINE
  5
20529
100
AcDbEntity
  8
0
100
AcDbLine
 10
1398.692665
 20
1510.862016
 30
0.0
 11
1407.416665
 21
1510.862016
 31
0.0
  0
LINE
  5
2052A
100
AcDbEntity
  8
0
100
AcDbLine
 10
1398.692665
 20
1490.078016
 30
0.0
 11
1407.416665
 21
1490.078016
 31
0.0
  0
LINE
  5
2052B
100
AcDbEntity
  8
0
100
AcDbLine
 10
1407.416665
 20
1483.149016
 30
0.0
 11
1398.692665
 21
1483.149016
 31
0.0
  0
LINE
  5
2052C
100
AcDbEntity
  8
0
100
AcDbLine
 10
1398.692665
 20
1503.932016
 30
0.0
 11
1407.416665
 21
1503.932016
 31
0.0
  0
LINE
  5
2052E
100
AcDbEntity
  8
0
100
AcDbLine
 10
1397.416665
 20
1508.652016
 30
0.0
 11
1398.692665
 21
1510.862016
 31
0.0
  0
ARC
  5
2052F
100
AcDbEntity
  8
0
100
AcDbCircle
 10
1422.35061
 20
1497.005016
 30
0.0
 40
24.6512
100
AcDbArc
 50
163.680072
 51
196.319928
  0
ARC
  5
20530
100
AcDbEntity
  8
0
100
AcDbCircle
 10
1404.237696
 20
1486.613016
 30
0.0
 40
6.538623
100
AcDbArc
 50
147.999406
 51
212.000594
  0
LINE
  5
20531
100
AcDbEntity
  8
0
100
AcDbLine
 10
1398.692665
 20
1483.149016
 30
0.0
 11
1397.416665
 21
1485.358016
 31
0.0
  0
LINE
  5
20532
100
AcDbEntity
  8
0
100
AcDbLine
 10
1397.416665
 20
1485.358016
 30
0.0
 11
1397.416665
 21
1508.652016
 31
0.0
  0
ARC
  5
20533
100
AcDbEntity
  8
0
100
AcDbCircle
 10
1404.237696
 20
1507.397016
 30
0.0
 40
6.538623
100
AcDbArc
 50
147.999406
 51
212.000594
  0
LINE
  5
20536
100
AcDbEntity
  8
0
100
AcDbLine
 10
1320.417665
 20
1585.010016
 30
0.0
 11
1320.416665
 21
1553.145016
 31
0.0
  0
LINE
  5
20553
100
AcDbEntity
  8
0
100
AcDbLine
 10
1355.233665
 20
1584.434016
 30
0.0
 11
1338.419665
 21
1584.434016
 31
0.0
  0
LINE
  5
20577
100
AcDbEntity
  8
0
100
AcDbLine
 10
1398.692665
 20
1595.032016
 30
0.0
 11
1407.416665
 21
1595.032016
 31
0.0
  0
LINE
  5
20578
100
AcDbEntity
  8
0
100
AcDbLine
 10
1407.416665
 20
1588.103016
 30
0.0
 11
1398.692665
 21
1588.103016
 31
0.0
  0
LINE
  5
2057C
100
AcDbEntity
  8
0
100
AcDbLine
 10
1398.692665
 20
1588.103016
 30
0.0
 11
1397.416665
 21
1590.312016
 31
0.0
  0
ARC
  5
2057E
100
AcDbEntity
  8
0
100
AcDbCircle
 10
1404.237719
 20
1591.567016
 30
0.0
 40
6.538643
100
AcDbArc
 50
147.999511
 51
212.000489
  0
LINE
  5
2057F
100
AcDbEntity
  8
0
100
AcDbLine
 10
1448.917665
 20
1480.905016
 30
0.0
 11
1488.021665
 21
1480.905016
 31
0.0
  0
LINE
  5
20580
100
AcDbEntity
  8
0
100
AcDbLine
 10
1448.917665
 20
1512.905016
 30
0.0
 11
1488.021665
 21
1512.905016
 31
0.0
  0
LINE
  5
20581
100
AcDbEntity
  8
0
100
AcDbLine
 10
1448.917665
 20
1585.959016
 30
0.0
 11
1488.021665
 21
1585.959016
 31
0.0
  0
LINE
  5
20582
100
AcDbEntity
  8
0
100
AcDbLine
 10
1428.917665
 20
1734.960016
 30
0.0
 11
1466.513961
 21
1734.960016
 31
0.0
  0
LINE
  5
20586
100
AcDbEntity
  8
0
100
AcDbLine
 10
1397.416665
 20
1686.393016
 30
0.0
 11
1397.416665
 21
1709.687016
 31
0.0
  0
ARC
  5
20587
100
AcDbEntity
  8
0
100
AcDbCircle
 10
1404.236896
 20
1687.647516
 30
0.0
 40
6.53768
100
AcDbArc
 50
147.999406
 51
212.000594
  0
LINE
  5
2058A
100
AcDbEntity
  8
0
100
AcDbLine
 10
1320.417665
 20
1630.119016
 30
0.0
 11
1320.417665
 21
1647.960016
 31
0.0
  0
LINE
  5
205A1
100
AcDbEntity
  8
0
100
AcDbLine
 10
1330.777665
 20
1642.442016
 30
0.0
 11
1323.417665
 21
1642.442016
 31
0.0
  0
LINE
  5
205AC
100
AcDbEntity
  8
0
100
AcDbLine
 10
1323.417665
 20
1605.912016
 30
0.0
 11
1330.777665
 21
1605.912016
 31
0.0
  0
LINE
  5
205AD
100
AcDbEntity
  8
0
100
AcDbLine
 10
1320.417665
 20
1639.442016
 30
0.0
 11
1320.417665
 21
1608.912016
 31
0.0
  0
LINE
  5
205C4
100
AcDbEntity
  8
0
100
AcDbLine
 10
1320.258665
 20
1685.111016
 30
0.0
 11
1334.208665
 21
1685.850016
 31
0.0
  0
LINE
  5
205E0
100
AcDbEntity
  8
0
100
AcDbLine
 10
1320.417665
 20
1647.960016
 30
0.0
 11
1320.417665
 21
1685.119016
 31
0.0
  0
LINE
  5
205E1
100
AcDbEntity
  8
0
100
AcDbLine
 10
1317.417665
 20
1650.959016
 30
0.0
 11
1317.417665
 21
1682.115016
 31
0.0
  0
LINE
  5
205E9
100
AcDbEntity
  8
0
100
AcDbLine
 10
1398.692665
 20
1608.886016
 30
0.0
 11
1407.416665
 21
1608.886016
 31
0.0
  0
LINE
  5
205EA
100
AcDbEntity
  8
0
100
AcDbLine
 10
1398.692665
 20
1615.816016
 30
0.0
 11
1407.416665
 21
1615.816016
 31
0.0
  0
ARC
  5
205EC
100
AcDbEntity
  8
0
100
AcDbCircle
 10
1404.237719
 20
1612.351016
 30
0.0
 40
6.538643
100
AcDbArc
 50
147.999511
 51
212.000489
  0
LINE
  5
205ED
100
AcDbEntity
  8
0
100
AcDbLine
 10
1397.416665
 20
1613.606016
 30
0.0
 11
1398.692665
 21
1615.816016
 31
0.0
  0
LINE
  5
205EF
100
AcDbEntity
  8
0
100
AcDbLine
 10
1407.416665
 20
1684.183016
 30
0.0
 11
1398.692665
 21
1684.183016
 31
0.0
  0
LINE
  5
205F3
100
AcDbEntity
  8
0
100
AcDbLine
 10
1398.692665
 20
1684.183016
 30
0.0
 11
1397.416665
 21
1686.393016
 31
0.0
  0
LINE
  5
205F7
100
AcDbEntity
  8
0
100
AcDbLine
 10
1334.946665
 20
1734.960016
 30
0.0
 11
1427.417665
 21
1734.960016
 31
0.0
  0
LINE
  5
205F8
100
AcDbEntity
  8
0
100
AcDbLine
 10
1333.946665
 20
1732.961016
 30
0.0
 11
1333.946665
 21
1691.961016
 31
0.0
  0
LINE
  5
205F9
100
AcDbEntity
  8
0
100
AcDbLine
 10
1331.946665
 20
1694.961016
 30
0.0
 11
1331.946665
 21
1731.961016
 31
0.0
  0
LINE
  5
20626
100
AcDbEntity
  8
0
100
AcDbLine
 10
1407.416665
 20
1734.960016
 30
0.0
 11
1407.416665
 21
1725.558016
 31
0.0
  0
LINE
  5
20628
100
AcDbEntity
  8
0
100
AcDbLine
 10
1398.692665
 20
1711.896016
 30
0.0
 11
1407.416665
 21
1711.896016
 31
0.0
  0
LINE
  5
2062A
100
AcDbEntity
  8
0
100
AcDbLine
 10
1398.692665
 20
1691.112016
 30
0.0
 11
1407.416665
 21
1691.112016
 31
0.0
  0
LINE
  5
2062B
100
AcDbEntity
  8
0
100
AcDbLine
 10
1398.692665
 20
1704.967016
 30
0.0
 11
1407.416665
 21
1704.967016
 31
0.0
  0
ARC
  5
20631
100
AcDbEntity
  8
0
100
AcDbCircle
 10
1422.352317
 20
1698.039516
 30
0.0
 40
24.65298
100
AcDbArc
 50
163.680072
 51
196.319928
  0
ARC
  5
20632
100
AcDbEntity
  8
0
100
AcDbCircle
 10
1404.236896
 20
1708.431516
 30
0.0
 40
6.53768
100
AcDbArc
 50
147.999406
 51
212.000594
  0
LINE
  5
20634
100
AcDbEntity
  8
0
100
AcDbLine
 10
1397.416665
 20
1709.687016
 30
0.0
 11
1398.692665
 21
1711.896016
 31
0.0
  0
ARC
  5
20635
100
AcDbEntity
  8
0
100
AcDbCircle
 10
1404.416964
 20
1725.558346
 30
0.0
 40
2.999701
100
AcDbArc
 50
278.931248
 51
359.993681
  0
LINE
  5
20639
100
AcDbEntity
  8
0
100
AcDbLine
 10
1391.828665
 20
1739.461016
 30
0.0
 11
1413.064665
 21
1739.461016
 31
0.0
  0
LINE
  5
2063A
100
AcDbEntity
  8
0
100
AcDbLine
 10
1392.313665
 20
1739.961016
 30
0.0
 11
1412.580665
 21
1739.961016
 31
0.0
  0
LINE
  5
2063B
100
AcDbEntity
  8
0
100
AcDbLine
 10
1412.346665
 20
1749.960016
 30
0.0
 11
1392.547665
 21
1749.960016
 31
0.0
  0
LINE
  5
2063C
100
AcDbEntity
  8
0
100
AcDbLine
 10
1392.547665
 20
1739.961016
 30
0.0
 11
1412.346665
 21
1739.961016
 31
0.0
  0
LINE
  5
2063D
100
AcDbEntity
  8
0
100
AcDbLine
 10
1391.828665
 20
1739.461016
 30
0.0
 11
1392.313665
 21
1739.961016
 31
0.0
  0
LINE
  5
2063E
100
AcDbEntity
  8
0
100
AcDbLine
 10
1392.547665
 20
1749.960016
 30
0.0
 11
1392.547665
 21
1739.961016
 31
0.0
  0
LINE
  5
20640
100
AcDbEntity
  8
0
100
AcDbLine
 10
1391.969665
 20
1734.961016
 30
0.0
 11
1391.828665
 21
1739.461016
 31
0.0
  0
LINE
  5
20641
100
AcDbEntity
  8
0
100
AcDbLine
 10
1402.446665
 20
1749.960016
 30
0.0
 11
1402.446665
 21
1739.961016
 31
0.0
  0
LINE
  5
20642
100
AcDbEntity
  8
0
100
AcDbLine
 10
1412.580665
 20
1739.961016
 30
0.0
 11
1413.064665
 21
1739.461016
 31
0.0
  0
LINE
  5
20643
100
AcDbEntity
  8
0
100
AcDbLine
 10
1412.346665
 20
1739.961016
 30
0.0
 11
1412.346665
 21
1749.960016
 31
0.0
  0
LINE
  5
20647
100
AcDbEntity
  8
0
100
AcDbLine
 10
1413.064665
 20
1739.461016
 30
0.0
 11
1412.924665
 21
1734.961016
 31
0.0
  0
LINE
  5
20648
100
AcDbEntity
  8
0
100
AcDbLine
 10
1515.351665
 20
1720.863016
 30
0.0
 11
1463.484665
 21
1635.395016
 31
0.0
  0
LINE
  5
20649
100
AcDbEntity
  8
0
100
AcDbLine
 10
1448.917665
 20
1617.959016
 30
0.0
 11
1488.021665
 21
1617.959016
 31
0.0
  0
CIRCLE
  5
2064A
100
AcDbEntity
  8
0
100
AcDbCircle
 10
1498.917665
 20
1747.460016
 30
0.0
 40
12.5
  0
LINE
  5
2064B
100
AcDbEntity
  8
0
100
AcDbLine
 10
1448.917665
 20
1714.040016
 30
0.0
 11
1463.500665
 21
1714.040016
 31
0.0
  0
LINE
  5
2064C
100
AcDbEntity
  8
0
100
AcDbLine
 10
1448.917665
 20
1696.532016
 30
0.0
 11
1463.500665
 21
1696.532016
 31
0.0
  0
LINE
  5
2067E
100
AcDbEntity
  8
0
100
AcDbLine
 10
1671.917665
 20
1609.960016
 30
0.0
 11
1671.907665
 21
1549.960016
 31
0.0
  0
LINE
  5
2067F
100
AcDbEntity
  8
0
100
AcDbLine
 10
1671.917665
 20
1549.960016
 30
0.0
 11
1671.917665
 21
1509.961016
 31
0.0
  0
LINE
  5
2068A
100
AcDbEntity
  8
0
100
AcDbLine
 10
1648.917665
 20
1687.960016
 30
0.0
 11
1648.917665
 21
1683.166016
 31
0.0
  0
ARC
  5
20690
100
AcDbEntity
  8
0
100
AcDbCircle
 10
1651.916356
 20
1683.166261
 30
0.0
 40
2.998692
100
AcDbArc
 50
180.004699
 51
214.889678
  0
LINE
  5
2069C
100
AcDbEntity
  8
0
100
AcDbLine
 10
1648.917665
 20
1731.960016
 30
0.0
 11
1648.917665
 21
1687.960016
 31
0.0
  0
LINE
  5
206A2
100
AcDbEntity
  8
0
100
AcDbLine
 10
1668.916665
 20
1709.960016
 30
0.0
 11
1658.917665
 21
1709.960016
 31
0.0
  0
LINE
  5
206A5
100
AcDbEntity
  8
0
100
AcDbLine
 10
1658.417665
 20
1720.578016
 30
0.0
 11
1658.917665
 21
1720.094016
 31
0.0
  0
LINE
  5
206A6
100
AcDbEntity
  8
0
100
AcDbLine
 10
1668.916665
 20
1719.860016
 30
0.0
 11
1658.917665
 21
1719.860016
 31
0.0
  0
LINE
  5
206A8
100
AcDbEntity
  8
0
100
AcDbLine
 10
1653.917665
 20
1720.438016
 30
0.0
 11
1658.417665
 21
1720.578016
 31
0.0
  0
LINE
  5
206BE
100
AcDbEntity
  8
0
100
AcDbLine
 10
1658.917665
 20
1699.827016
 30
0.0
 11
1658.417665
 21
1699.342016
 31
0.0
  0
LINE
  5
206BF
100
AcDbEntity
  8
0
100
AcDbLine
 10
1658.917665
 20
1700.061016
 30
0.0
 11
1668.916665
 21
1700.061016
 31
0.0
  0
LINE
  5
206C1
100
AcDbEntity
  8
0
100
AcDbLine
 10
1658.417665
 20
1699.342016
 30
0.0
 11
1653.917665
 21
1699.483016
 31
0.0
  0
LINE
  5
206C2
100
AcDbEntity
  8
0
100
AcDbLine
 10
1658.417665
 20
1720.578016
 30
0.0
 11
1658.417665
 21
1699.342016
 31
0.0
  0
LINE
  5
206C5
100
AcDbEntity
  8
0
100
AcDbLine
 10
1658.917665
 20
1720.094016
 30
0.0
 11
1658.917665
 21
1699.827016
 31
0.0
  0
LINE
  5
206C6
100
AcDbEntity
  8
0
100
AcDbLine
 10
1668.916665
 20
1700.061016
 30
0.0
 11
1668.916665
 21
1719.860016
 31
0.0
  0
LINE
  5
206C7
100
AcDbEntity
  8
0
100
AcDbLine
 10
1658.917665
 20
1719.860016
 30
0.0
 11
1658.917665
 21
1700.061016
 31
0.0
  0
LINE
  5
206C8
100
AcDbEntity
  8
0
100
AcDbLine
 10
1653.917665
 20
1727.960016
 30
0.0
 11
1653.917665
 21
1691.960016
 31
0.0
  0
LINE
  5
206D6
100
AcDbEntity
  8
0
100
AcDbLine
 10
1648.917665
 20
1733.459016
 30
0.0
 11
1648.917665
 21
1731.960016
 31
0.0
  0
LINE
  5
206E1
100
AcDbEntity
  8
0
100
AcDbLine
 10
1650.917665
 20
1729.960016
 30
0.0
 11
1651.917665
 21
1729.960016
 31
0.0
  0
ELLIPSE
  5
206EB
100
AcDbEntity
  8
0
100
AcDbEllipse
 10
1407.416665
 20
1601.475016
 30
0.0
 11
-55.53012677817309
 21
0.0
 31
0.0
210
0.0
220
0.0
230
1.0
 40
0.438339
 41
4.712388980384689
 42
7.853981633974482
  0
ELLIPSE
  5
206EC
100
AcDbEntity
  8
0
100
AcDbEllipse
 10
1407.416665
 20
1497.303516
 30
0.0
 11
-55.52942274371287
 21
0.0
 31
0.0
210
0.0
220
0.0
230
1.0
 40
0.424325
 41
4.712388980384689
 42
7.853981633974482
  0
ELLIPSE
  5
206F2
100
AcDbEntity
  8
0
100
AcDbEllipse
 10
1407.416665
 20
1682.768016
 30
0.0
 11
55.52800000000002
 21
0.0
 31
0.0
210
0.0
220
0.0
230
-1.0
 40
0.553342
 41
3.141592653589793
 42
4.712388980384689
  0
ELLIPSE
  5
206F3
100
AcDbEntity
  8
0
100
AcDbEllipse
 10
1407.416665
 20
1682.768016
 30
0.0
 11
55.52800000000002
 21
0.0
 31
0.0
210
0.0
220
0.0
230
-1.0
 40
0.017685
 41
3.141592653589793
 42
4.712388980384689
  0
ELLIPSE
  5
206F6
100
AcDbEntity
  8
0
100
AcDbEllipse
 10
1407.416665
 20
1422.430016
 30
0.0
 11
55.52800000000002
 21
0.0
 31
0.0
210
0.0
220
0.0
230
1.0
 40
0.553342
 41
3.141592653589793
 42
4.712388980384689
  0
ARC
  5
206FC
100
AcDbEntity
  8
0
100
AcDbCircle
 10
1546.907665
 20
1609.960016
 30
0.0
 40
125.0
100
AcDbArc
 50
0.0
 51
90.0
  0
ARC
  5
206FE
100
AcDbEntity
  8
0
100
AcDbCircle
 10
1546.907665
 20
1509.960227
 30
0.0
 40
125.0
100
AcDbArc
 50
270.20357
 51
305.1753
  0
ARC
  5
20700
100
AcDbEntity
  8
0
100
AcDbCircle
 10
1420.66038
 20
1623.531124
 30
0.0
 40
100.312466
100
AcDbArc
 50
99.049382
 51
162.866543
  0
ARC
  5
20701
100
AcDbEntity
  8
0
100
AcDbCircle
 10
1418.65184
 20
1483.667467
 30
0.0
 40
97.331614
100
AcDbArc
 50
205.98106
 51
262.359349
  0
ARC
  5
20702
100
AcDbEntity
  8
0
100
AcDbCircle
 10
1546.918165
 20
1409.981016
 30
0.0
 40
24.999509
100
AcDbArc
 50
179.951871
 51
0.048129
  0
ARC
  5
20703
100
AcDbEntity
  8
0
100
AcDbCircle
 10
1546.907665
 20
1509.960227
 30
0.0
 40
125.0
100
AcDbArc
 50
311.001592
 51
0.000362
  0
ARC
  5
20704
100
AcDbEntity
  8
0
100
AcDbCircle
 10
1498.917665
 20
1747.460016
 30
0.0
 40
22.5
100
AcDbArc
 50
355.588276
 51
184.411726
  0
ARC
  5
20707
100
AcDbEntity
  8
0
100
AcDbCircle
 10
1466.513961
 20
1744.960016
 30
0.0
 40
10.0
100
AcDbArc
 50
270.0
 51
4.411726
  0
ARC
  5
20708
100
AcDbEntity
  8
0
100
AcDbCircle
 10
1531.321368
 20
1744.960016
 30
0.0
 40
10.0
100
AcDbArc
 50
175.588276
 51
269.999506
  0
ARC
  5
2071F
100
AcDbEntity
  8
0
100
AcDbCircle
 10
2029.080602
 20
342.602623
 30
0.0
 40
3.0
100
AcDbArc
 50
180.0
 51
270.0
  0
ARC
  5
20720
100
AcDbEntity
  8
0
100
AcDbCircle
 10
2073.080602
 20
342.602623
 30
0.0
 40
3.0
100
AcDbArc
 50
270.0
 51
0.0
  0
ARC
  5
20721
100
AcDbEntity
  8
0
100
AcDbCircle
 10
2138.080602
 20
342.602623
 30
0.0
 40
3.0
100
AcDbArc
 50
270.0
 51
0.0
  0
ARC
  5
20722
100
AcDbEntity
  8
0
100
AcDbCircle
 10
1964.080602
 20
342.602623
 30
0.0
 40
3.0
100
AcDbArc
 50
180.0
 51
270.0
  0
ARC
  5
20724
100
AcDbEntity
  8
0
100
AcDbCircle
 10
2045.080602
 20
746.602623
 30
0.0
 40
3.0
100
AcDbArc
 50
90.0
 51
180.0
  0
ARC
  5
20725
100
AcDbEntity
  8
0
100
AcDbCircle
 10
2057.080602
 20
746.602623
 30
0.0
 40
3.0
100
AcDbArc
 50
0.0
 51
90.0
  0
ARC
  5
20726
100
AcDbEntity
  8
0
100
AcDbCircle
 10
2148.219184
 20
607.951116
 30
0.0
 40
3.0
100
AcDbArc
 50
299.998902
 51
3.277367
  0
ARC
  5
20727
100
AcDbEntity
  8
0
100
AcDbCircle
 10
1953.941052
 20
607.951667
 30
0.0
 40
3.0
100
AcDbArc
 50
176.722309
 51
239.999042
  0
ARC
  5
20728
100
AcDbEntity
  8
0
100
AcDbCircle
 10
1668.906882
 20
564.562623
 30
0.0
 40
3.0
100
AcDbArc
 50
0.001798
 51
90.0
  0
ARC
  5
20729
100
AcDbEntity
  8
0
100
AcDbCircle
 10
1668.906882
 20
588.464623
 30
0.0
 40
3.0
100
AcDbArc
 50
270.0
 51
0.0
  0
ARC
  5
2072A
100
AcDbEntity
  8
0
100
AcDbCircle
 10
1668.934023
 20
618.994746
 30
0.0
 40
3.0
100
AcDbArc
 50
352.287199
 51
90.518348
  0
ARC
  5
2072B
100
AcDbEntity
  8
0
100
AcDbCircle
 10
1673.906882
 20
627.513012
 30
0.0
 40
2.0
100
AcDbArc
 50
107.097582
 51
180.011148
  0
ARC
  5
2072C
100
AcDbEntity
  8
0
100
AcDbCircle
 10
1673.906883
 20
630.512622
 30
0.0
 40
1.0
100
AcDbArc
 50
270.057267
 51
359.942733
  0
ARC
  5
2072D
100
AcDbEntity
  8
0
100
AcDbCircle
 10
1671.906882
 20
661.667839
 30
0.0
 40
3.0
100
AcDbArc
 50
359.995866
 51
86.9619
  0
ARC
  5
2072F
100
AcDbEntity
  8
0
100
AcDbCircle
 10
1658.377882
 20
668.39116
 30
0.0
 40
3.0
100
AcDbArc
 50
179.991166
 51
264.989787
  0
ARC
  5
20730
100
AcDbEntity
  8
0
100
AcDbCircle
 10
1657.377882
 20
669.513623
 30
0.0
 40
2.0
100
AcDbArc
 50
90.0
 51
180.0
  0
ARC
  5
20732
100
AcDbEntity
  8
0
100
AcDbCircle
 10
1674.904391
 20
609.509327
 30
0.0
 40
3.0
100
AcDbArc
 50
182.335041
 51
273.066616
  0
ARC
  5
20733
100
AcDbEntity
  8
0
100
AcDbCircle
 10
1674.923609
 20
543.515998
 30
0.0
 40
3.0
100
AcDbArc
 50
87.281755
 51
178.698807
  0
ARC
  5
20734
100
AcDbEntity
  8
0
100
AcDbCircle
 10
1670.907882
 20
528.513623
 30
0.0
 40
2.0
100
AcDbArc
 50
180.0
 51
270.0
  0
ARC
  5
20735
100
AcDbEntity
  8
0
100
AcDbCircle
 10
1668.907716
 20
532.697623
 30
0.0
 40
3.0
100
AcDbArc
 50
270.00318
 51
359.956542
  0
ARC
  5
20737
100
AcDbEntity
  8
0
100
AcDbCircle
 10
1653.904882
 20
560.986623
 30
0.0
 40
3.0
100
AcDbArc
 50
0.0
 51
90.0
  0
ARC
  5
20738
100
AcDbEntity
  8
0
100
AcDbCircle
 10
1653.904882
 20
496.986623
 30
0.0
 40
3.0
100
AcDbArc
 50
270.0
 51
0.0
  0
ARC
  5
20739
100
AcDbEntity
  8
0
100
AcDbCircle
 10
1670.907882
 20
494.513623
 30
0.0
 40
2.0
100
AcDbArc
 50
90.0
 51
180.0
  0
ARC
  5
2073B
100
AcDbEntity
  8
0
100
AcDbCircle
 10
1668.906882
 20
490.329623
 30
0.0
 40
3.0
100
AcDbArc
 50
359.999997
 51
89.980901
  0
ARC
  5
2073C
100
AcDbEntity
  8
0
100
AcDbCircle
 10
1668.906882
 20
458.464623
 30
0.0
 40
3.0
100
AcDbArc
 50
270.0
 51
0.0
  0
ARC
  5
2073D
100
AcDbEntity
  8
0
100
AcDbCircle
 10
1674.902538
 20
479.509227
 30
0.0
 40
3.0
100
AcDbArc
 50
176.916078
 51
273.102068
  0
ARC
  5
2073E
100
AcDbEntity
  8
0
100
AcDbCircle
 10
1668.906882
 20
434.562623
 30
0.0
 40
3.0
100
AcDbArc
 50
0.0
 51
90.0
  0
ARC
  5
2073F
100
AcDbEntity
  8
0
100
AcDbCircle
 10
1668.906882
 20
402.697623
 30
0.0
 40
3.0
100
AcDbArc
 50
270.0
 51
0.0
  0
ARC
  5
20741
100
AcDbEntity
  8
0
100
AcDbCircle
 10
1582.907882
 20
356.513623
 30
0.0
 40
2.0
100
AcDbArc
 50
270.0
 51
0.0
  0
ARC
  5
20742
100
AcDbEntity
  8
0
100
AcDbCircle
 10
1577.907882
 20
341.513623
 30
0.0
 40
2.0
100
AcDbArc
 50
270.0
 51
0.0
  0
ARC
  5
20743
100
AcDbEntity
  8
0
100
AcDbCircle
 10
1581.907882
 20
352.513623
 30
0.0
 40
2.0
100
AcDbArc
 50
90.0
 51
180.0
  0
ARC
  5
20745
100
AcDbEntity
  8
0
100
AcDbCircle
 10
1544.906882
 20
341.012623
 30
0.0
 40
1.5
100
AcDbArc
 50
180.0
 51
270.0
  0
ARC
  5
20746
100
AcDbEntity
  8
0
100
AcDbCircle
 10
1556.906882
 20
341.012623
 30
0.0
 40
1.5
100
AcDbArc
 50
270.0
 51
0.0
  0
ARC
  5
20747
100
AcDbEntity
  8
0
100
AcDbCircle
 10
1559.906882
 20
353.014623
 30
0.0
 40
1.5
100
AcDbArc
 50
90.0
 51
180.0
  0
ARC
  5
20748
100
AcDbEntity
  8
0
100
AcDbCircle
 10
1339.906882
 20
371.012623
 30
0.0
 40
1.5
100
AcDbArc
 50
180.0
 51
270.0
  0
ARC
  5
2074B
100
AcDbEntity
  8
0
100
AcDbCircle
 10
1341.406882
 20
367.512623
 30
0.0
 40
2.0
100
AcDbArc
 50
0.0
 51
90.0
  0
ARC
  5
2074C
100
AcDbEntity
  8
0
100
AcDbCircle
 10
1339.906882
 20
408.012623
 30
0.0
 40
1.5
100
AcDbArc
 50
90.0
 51
180.0
  0
ARC
  5
2074D
100
AcDbEntity
  8
0
100
AcDbCircle
 10
1341.406882
 20
411.512623
 30
0.0
 40
2.0
100
AcDbArc
 50
270.0
 51
360.0
  0
LINE
  5
2074E
100
AcDbEntity
  8
0
100
AcDbLine
 10
1116.764833
 20
409.602623
 30
0.0
 11
1118.264833
 21
409.602623
 31
0.0
  0
ARC
  5
2074F
100
AcDbEntity
  8
0
100
AcDbCircle
 10
1118.264833
 20
408.102623
 30
0.0
 40
1.5
100
AcDbArc
 50
0.0
 51
90.0
  0
ARC
  5
20750
100
AcDbEntity
  8
0
100
AcDbCircle
 10
1116.764833
 20
411.602623
 30
0.0
 40
2.0
100
AcDbArc
 50
180.0
 51
270.0
  0
LINE
  5
20751
100
AcDbEntity
  8
0
100
AcDbLine
 10
1118.264833
 20
369.602623
 30
0.0
 11
1116.764833
 21
369.602623
 31
0.0
  0
ARC
  5
20752
100
AcDbEntity
  8
0
100
AcDbCircle
 10
1118.264833
 20
371.102623
 30
0.0
 40
1.5
100
AcDbArc
 50
270.0
 51
0.0
  0
ARC
  5
20753
100
AcDbEntity
  8
0
100
AcDbCircle
 10
1116.764833
 20
367.602623
 30
0.0
 40
2.0
100
AcDbArc
 50
90.0
 51
180.0
  0
LINE
  5
20754
100
AcDbEntity
  8
0
100
AcDbLine
 10
1114.764833
 20
367.602623
 30
0.0
 11
1114.764833
 21
366.603623
 31
0.0
  0
LINE
  5
20755
100
AcDbEntity
  8
0
100
AcDbLine
 10
1114.764833
 20
366.603623
 30
0.0
 11
1114.764833
 21
366.603623
 31
0.0
  0
LINE
  5
20756
100
AcDbEntity
  8
0
100
AcDbLine
 10
1114.764833
 20
366.603623
 30
0.0
 11
1114.743833
 21
366.313623
 31
0.0
  0
ARC
  5
20757
100
AcDbEntity
  8
0
100
AcDbCircle
 10
1099.773833
 20
342.602623
 30
0.0
 40
3.0
100
AcDbArc
 50
270.0
 51
0.0
  0
ARC
  5
20758
100
AcDbEntity
  8
0
100
AcDbCircle
 10
925.773833
 20
342.602623
 30
0.0
 40
3.0
100
AcDbArc
 50
180.0
 51
270.0
  0
ARC
  5
20759
100
AcDbEntity
  8
0
100
AcDbCircle
 10
1018.773833
 20
746.602623
 30
0.0
 40
3.0
100
AcDbArc
 50
0.0
 51
90.0
  0
ARC
  5
2075A
100
AcDbEntity
  8
0
100
AcDbCircle
 10
1006.773833
 20
746.602623
 30
0.0
 40
3.0
100
AcDbArc
 50
90.0
 51
180.0
  0
ARC
  5
2075C
100
AcDbEntity
  8
0
100
AcDbCircle
 10
1364.906882
 20
341.012623
 30
0.0
 40
1.5
100
AcDbArc
 50
180.0
 51
270.0
  0
ARC
  5
2075D
100
AcDbEntity
  8
0
100
AcDbCircle
 10
1371.906882
 20
341.012623
 30
0.0
 40
1.5
100
AcDbArc
 50
270.0
 51
0.0
  0
ARC
  5
2075E
100
AcDbEntity
  8
0
100
AcDbCircle
 10
1620.417665
 20
1361.460016
 30
0.0
 40
1.5
100
AcDbArc
 50
180.0
 51
270.0
  0
ARC
  5
2075F
100
AcDbEntity
  8
0
100
AcDbCircle
 10
1627.417665
 20
1361.460016
 30
0.0
 40
1.5
100
AcDbArc
 50
270.0
 51
0.0
  0
ARC
  5
20761
100
AcDbEntity
  8
0
100
AcDbCircle
 10
1447.417665
 20
1361.460016
 30
0.0
 40
1.5
100
AcDbArc
 50
270.0
 51
0.0
  0
ARC
  5
20762
100
AcDbEntity
  8
0
100
AcDbCircle
 10
1435.417665
 20
1361.460016
 30
0.0
 40
1.5
100
AcDbArc
 50
180.0
 51
270.0
  0
ARC
  5
20763
100
AcDbEntity
  8
0
100
AcDbCircle
 10
1414.416665
 20
1361.961016
 30
0.0
 40
2.0
100
AcDbArc
 50
180.0
 51
270.0
  0
ARC
  5
20765
100
AcDbEntity
  8
0
100
AcDbCircle
 10
1432.417665
 20
1373.462016
 30
0.0
 40
1.5
100
AcDbArc
 50
0.0
 51
90.0
  0
ARC
  5
20766
100
AcDbEntity
  8
0
100
AcDbCircle
 10
1409.416665
 20
1376.961016
 30
0.0
 40
2.0
100
AcDbArc
 50
180.0
 51
270.0
  0
ARC
  5
20767
100
AcDbEntity
  8
0
100
AcDbCircle
 10
1652.41767
 20
1428.456152
 30
0.0
 40
1.5
100
AcDbArc
 50
0.147579
 51
77.310739
  0
ARC
  5
20768
100
AcDbEntity
  8
0
100
AcDbCircle
 10
1650.917665
 20
1431.960016
 30
0.0
 40
2.0
100
AcDbArc
 50
180.0
 51
270.0
  0
ARC
  5
2076A
100
AcDbEntity
  8
0
100
AcDbCircle
 10
1652.417665
 20
1428.460016
 30
0.0
 40
1.5
100
AcDbArc
 50
0.0
 51
90.0
  0
ARC
  5
2076B
100
AcDbEntity
  8
0
100
AcDbCircle
 10
1652.417665
 20
1391.460016
 30
0.0
 40
1.5
100
AcDbArc
 50
270.0
 51
0.0
  0
LINE
  5
2076C
100
AcDbEntity
  8
0
100
AcDbLine
 10
1650.917665
 20
1389.960016
 30
0.0
 11
1652.417665
 21
1389.960016
 31
0.0
  0
ARC
  5
2076D
100
AcDbEntity
  8
0
100
AcDbCircle
 10
1652.41767
 20
1391.463879
 30
0.0
 40
1.5
100
AcDbArc
 50
282.689261
 51
359.852421
  0
ARC
  5
2076E
100
AcDbEntity
  8
0
100
AcDbCircle
 10
1650.917665
 20
1387.960016
 30
0.0
 40
2.0
100
AcDbArc
 50
90.0
 51
180.0
  0
ARC
  5
20770
100
AcDbEntity
  8
0
100
AcDbCircle
 10
1646.917665
 20
1386.961016
 30
0.0
 40
2.0
100
AcDbArc
 50
270.0
 51
0.0
  0
ARC
  5
20771
100
AcDbEntity
  8
0
100
AcDbCircle
 10
1630.417665
 20
1383.461016
 30
0.0
 40
1.5
100
AcDbArc
 50
90.0
 51
180.0
  0
ARC
  5
20772
100
AcDbEntity
  8
0
100
AcDbCircle
 10
1617.417665
 20
1383.461016
 30
0.0
 40
1.5
100
AcDbArc
 50
0.0
 51
90.0
  0
ARC
  5
20789
100
AcDbEntity
  8
0
100
AcDbCircle
 10
1647.417665
 20
1733.459016
 30
0.0
 40
1.5
100
AcDbArc
 50
0.0
 51
89.999506
  0
ARC
  5
2078A
100
AcDbEntity
  8
0
100
AcDbCircle
 10
1651.917665
 20
1727.960016
 30
0.0
 40
2.0
100
AcDbArc
 50
0.0
 51
90.0
  0
ARC
  5
2078B
100
AcDbEntity
  8
0
100
AcDbCircle
 10
1650.922902
 20
1731.960009
 30
0.0
 40
2.0
100
AcDbArc
 50
184.157395
 51
269.849962
  0
ARC
  5
2078C
100
AcDbEntity
  8
0
100
AcDbCircle
 10
1650.922902
 20
1687.960022
 30
0.0
 40
2.0
100
AcDbArc
 50
90.150038
 51
175.842605
  0
ARC
  5
2078D
100
AcDbEntity
  8
0
100
AcDbCircle
 10
1651.917665
 20
1691.960016
 30
0.0
 40
2.0
100
AcDbArc
 50
270.0
 51
0.0
  0
LINE
  5
2078E
100
AcDbEntity
  8
0
100
AcDbLine
 10
1650.917665
 20
1689.960016
 30
0.0
 11
1651.917665
 21
1689.960016
 31
0.0
  0
ARC
  5
2078F
100
AcDbEntity
  8
0
100
AcDbCircle
 10
1344.906882
 20
713.011623
 30
0.0
 40
1.5
100
AcDbArc
 50
90.000494
 51
180.0
  0
ARC
  5
20791
100
AcDbEntity
  8
0
100
AcDbCircle
 10
1340.406882
 20
707.512623
 30
0.0
 40
2.0
100
AcDbArc
 50
90.0
 51
180.0
  0
ARC
  5
20792
100
AcDbEntity
  8
0
100
AcDbCircle
 10
1341.407019
 20
711.512623
 30
0.0
 40
2.0
100
AcDbArc
 50
269.996084
 51
351.662721
  0
ARC
  5
20793
100
AcDbEntity
  8
0
100
AcDbCircle
 10
1340.406882
 20
671.512623
 30
0.0
 40
2.0
100
AcDbArc
 50
180.0
 51
270.0
  0
LINE
  5
20795
100
AcDbEntity
  8
0
100
AcDbLine
 10
1341.406882
 20
669.512623
 30
0.0
 11
1340.406882
 21
669.512623
 31
0.0
  0
ARC
  5
20796
100
AcDbEntity
  8
0
100
AcDbCircle
 10
1341.407019
 20
667.512623
 30
0.0
 40
2.0
100
AcDbArc
 50
8.337279
 51
90.003916
  0
ARC
  5
20798
100
AcDbEntity
  8
0
100
AcDbCircle
 10
1340.406882
 20
662.717814
 30
0.0
 40
3.0
100
AcDbArc
 50
325.116088
 51
0.0
  0
ARC
  5
20799
100
AcDbEntity
  8
0
100
AcDbCircle
 10
1340.406882
 20
416.307643
 30
0.0
 40
3.0
100
AcDbArc
 50
360.0
 51
34.883912
  0
LINE
  5
207F1
100
AcDbEntity
  8
0
100
AcDbLine
 10
1333.240665
 20
1732.005016
 30
0.0
 11
1333.388665
 21
1732.063016
 31
0.0
  0
LINE
  5
207F2
100
AcDbEntity
  8
0
100
AcDbLine
 10
1333.388665
 20
1732.063016
 30
0.0
 11
1333.527665
 21
1732.147016
 31
0.0
  0
LINE
  5
207F3
100
AcDbEntity
  8
0
100
AcDbLine
 10
1333.527665
 20
1732.147016
 30
0.0
 11
1333.653665
 21
1732.253016
 31
0.0
  0
LINE
  5
207F4
100
AcDbEntity
  8
0
100
AcDbLine
 10
1333.653665
 20
1732.253016
 30
0.0
 11
1333.760665
 21
1732.379016
 31
0.0
  0
LINE
  5
207F5
100
AcDbEntity
  8
0
100
AcDbLine
 10
1333.760665
 20
1732.379016
 30
0.0
 11
1333.844665
 21
1732.519016
 31
0.0
  0
LINE
  5
207F6
100
AcDbEntity
  8
0
100
AcDbLine
 10
1333.844665
 20
1732.519016
 30
0.0
 11
1333.902665
 21
1732.667016
 31
0.0
  0
LINE
  5
207F7
100
AcDbEntity
  8
0
100
AcDbLine
 10
1333.902665
 20
1732.667016
 30
0.0
 11
1333.946665
 21
1732.961016
 31
0.0
  0
LINE
  5
207F8
100
AcDbEntity
  8
0
100
AcDbLine
 10
1333.946665
 20
1732.961016
 30
0.0
 11
1333.946665
 21
1733.960016
 31
0.0
  0
LINE
  5
207F9
100
AcDbEntity
  8
0
100
AcDbLine
 10
1333.946665
 20
1733.960016
 30
0.0
 11
1333.946665
 21
1733.960016
 31
0.0
  0
LINE
  5
207FA
100
AcDbEntity
  8
0
100
AcDbLine
 10
1333.946665
 20
1733.960016
 30
0.0
 11
1333.957665
 21
1734.105016
 31
0.0
  0
LINE
  5
207FB
100
AcDbEntity
  8
0
100
AcDbLine
 10
1333.957665
 20
1734.105016
 30
0.0
 11
1333.990665
 21
1734.254016
 31
0.0
  0
LINE
  5
207FC
100
AcDbEntity
  8
0
100
AcDbLine
 10
1333.990665
 20
1734.254016
 30
0.0
 11
1334.049665
 21
1734.402016
 31
0.0
  0
LINE
  5
207FD
100
AcDbEntity
  8
0
100
AcDbLine
 10
1334.049665
 20
1734.402016
 30
0.0
 11
1334.132665
 21
1734.541016
 31
0.0
  0
LINE
  5
207FE
100
AcDbEntity
  8
0
100
AcDbLine
 10
1334.132665
 20
1734.541016
 30
0.0
 11
1334.239665
 21
1734.667016
 31
0.0
  0
LINE
  5
207FF
100
AcDbEntity
  8
0
100
AcDbLine
 10
1334.239665
 20
1734.667016
 30
0.0
 11
1334.365665
 21
1734.774016
 31
0.0
  0
LINE
  5
20800
100
AcDbEntity
  8
0
100
AcDbLine
 10
1334.365665
 20
1734.774016
 30
0.0
 11
1334.505665
 21
1734.858016
 31
0.0
  0
LINE
  5
20801
100
AcDbEntity
  8
0
100
AcDbLine
 10
1334.505665
 20
1734.858016
 30
0.0
 11
1334.652665
 21
1734.916016
 31
0.0
  0
LINE
  5
20802
100
AcDbEntity
  8
0
100
AcDbLine
 10
1334.652665
 20
1734.916016
 30
0.0
 11
1334.946665
 21
1734.960016
 31
0.0
  0
LINE
  5
20803
100
AcDbEntity
  8
0
100
AcDbLine
 10
1331.946665
 20
1731.961016
 30
0.0
 11
1332.946665
 21
1731.961016
 31
0.0
  0
LINE
  5
20804
100
AcDbEntity
  8
0
100
AcDbLine
 10
1332.946665
 20
1731.961016
 30
0.0
 11
1332.946665
 21
1731.961016
 31
0.0
  0
LINE
  5
20805
100
AcDbEntity
  8
0
100
AcDbLine
 10
1332.946665
 20
1731.961016
 30
0.0
 11
1333.091665
 21
1731.971016
 31
0.0
  0
LINE
  5
20806
100
AcDbEntity
  8
0
100
AcDbLine
 10
1333.091665
 20
1731.971016
 30
0.0
 11
1333.240665
 21
1732.005016
 31
0.0
  0
LINE
  5
20807
100
AcDbEntity
  8
0
100
AcDbLine
 10
1334.946665
 20
1691.961016
 30
0.0
 11
1331.946665
 21
1691.961016
 31
0.0
  0
ARC
  5
20808
100
AcDbEntity
  8
0
100
AcDbCircle
 10
1334.946665
 20
1689.961016
 30
0.0
 40
2.0
100
AcDbArc
 50
0.0
 51
90.0
  0
LINE
  5
20809
100
AcDbEntity
  8
0
100
AcDbLine
 10
1336.946665
 20
1688.839016
 30
0.0
 11
1336.946665
 21
1689.961016
 31
0.0
  0
ARC
  5
2080A
100
AcDbEntity
  8
0
100
AcDbCircle
 10
1333.946665
 20
1688.838553
 30
0.0
 40
3.0
100
AcDbArc
 50
275.010213
 51
0.008834
  0
LINE
  5
2080B
100
AcDbEntity
  8
0
100
AcDbLine
 10
1331.946665
 20
1691.961016
 30
0.0
 11
1331.946665
 21
1694.961016
 31
0.0
  0
ARC
  5
2080C
100
AcDbEntity
  8
0
100
AcDbCircle
 10
1320.417665
 20
1682.115232
 30
0.0
 40
3.0
100
AcDbArc
 50
93.0381
 51
180.004134
  0
ARC
  5
2080D
100
AcDbEntity
  8
0
100
AcDbCircle
 10
1318.417665
 20
1647.960405
 30
0.0
 40
2.0
100
AcDbArc
 50
359.988852
 51
72.902418
  0
ARC
  5
2080E
100
AcDbEntity
  8
0
100
AcDbCircle
 10
1318.417664
 20
1650.960015
 30
0.0
 40
1.0
100
AcDbArc
 50
180.057267
 51
269.942733
  0
LINE
  5
2080F
100
AcDbEntity
  8
0
100
AcDbLine
 10
1319.005665
 20
1649.872016
 30
0.0
 11
1318.417665
 21
1649.960016
 31
0.0
  0
ARC
  5
20810
100
AcDbEntity
  8
0
100
AcDbCircle
 10
1323.390525
 20
1639.442138
 30
0.0
 40
3.0
100
AcDbArc
 50
89.481652
 51
187.712801
  0
ARC
  5
20811
100
AcDbEntity
  8
0
100
AcDbCircle
 10
1317.420156
 20
1629.95672
 30
0.0
 40
3.0
100
AcDbArc
 50
266.933384
 51
357.664959
  0
LINE
  5
20812
100
AcDbEntity
  8
0
100
AcDbLine
 10
1310.416665
 20
1624.961016
 30
0.0
 11
1312.416665
 21
1626.961016
 31
0.0
  0
LINE
  5
20813
100
AcDbEntity
  8
0
100
AcDbLine
 10
1312.416665
 20
1626.961016
 30
0.0
 11
1317.259665
 21
1626.961016
 31
0.0
  0
ARC
  5
20814
100
AcDbEntity
  8
0
100
AcDbCircle
 10
1323.417665
 20
1608.912016
 30
0.0
 40
3.0
100
AcDbArc
 50
180.0
 51
270.0
  0
ARC
  5
20815
100
AcDbEntity
  8
0
100
AcDbCircle
 10
1323.417665
 20
1585.010016
 30
0.0
 40
3.0
100
AcDbArc
 50
90.0
 51
179.998202
  0
LINE
  5
20816
100
AcDbEntity
  8
0
100
AcDbLine
 10
1330.777665
 20
1588.010016
 30
0.0
 11
1323.417665
 21
1588.010016
 31
0.0
  0
ARC
  5
20817
100
AcDbEntity
  8
0
100
AcDbCircle
 10
1338.419665
 20
1581.434016
 30
0.0
 40
3.0
100
AcDbArc
 50
90.0
 51
180.0
  0
ARC
  5
20818
100
AcDbEntity
  8
0
100
AcDbCircle
 10
1317.400938
 20
1563.963391
 30
0.0
 40
3.0
100
AcDbArc
 50
1.301193
 51
92.718245
  0
LINE
  5
20819
100
AcDbEntity
  8
0
100
AcDbLine
 10
1312.416665
 20
1566.961016
 30
0.0
 11
1310.416665
 21
1568.961016
 31
0.0
  0
LINE
  5
2081A
100
AcDbEntity
  8
0
100
AcDbLine
 10
1317.258665
 20
1566.960016
 30
0.0
 11
1312.416665
 21
1566.961016
 31
0.0
  0
ARC
  5
2081B
100
AcDbEntity
  8
0
100
AcDbCircle
 10
1338.419665
 20
1517.434016
 30
0.0
 40
3.0
100
AcDbArc
 50
180.0
 51
270.0
  0
ARC
  5
2081C
100
AcDbEntity
  8
0
100
AcDbCircle
 10
1323.417665
 20
1510.777016
 30
0.0
 40
3.0
100
AcDbArc
 50
90.019099
 51
180.000003
  0
ARC
  5
2081D
100
AcDbEntity
  8
0
100
AcDbCircle
 10
1321.416665
 20
1514.961016
 30
0.0
 40
2.0
100
AcDbArc
 50
0.0
 51
90.0
  0
LINE
  5
2081E
100
AcDbEntity
  8
0
100
AcDbLine
 10
1323.416665
 20
1514.961016
 30
0.0
 11
1323.416665
 21
1513.777016
 31
0.0
  0
LINE
  5
2081F
100
AcDbEntity
  8
0
100
AcDbLine
 10
1320.417665
 20
1516.961016
 30
0.0
 11
1321.416665
 21
1516.961016
 31
0.0
  0
LINE
  5
20820
100
AcDbEntity
  8
0
100
AcDbLine
 10
1330.777665
 20
1513.777016
 30
0.0
 11
1323.417665
 21
1513.777016
 31
0.0
  0
ARC
  5
20821
100
AcDbEntity
  8
0
100
AcDbCircle
 10
1317.422009
 20
1499.95662
 30
0.0
 40
3.0
100
AcDbArc
 50
266.897932
 51
3.083922
  0
LINE
  5
20822
100
AcDbEntity
  8
0
100
AcDbLine
 10
1310.416665
 20
1494.961016
 30
0.0
 11
1312.416665
 21
1496.961016
 31
0.0
  0
LINE
  5
20823
100
AcDbEntity
  8
0
100
AcDbLine
 10
1312.416665
 20
1496.961016
 30
0.0
 11
1317.259665
 21
1496.961016
 31
0.0
  0
ARC
  5
20824
100
AcDbEntity
  8
0
100
AcDbCircle
 10
1323.417665
 20
1478.912016
 30
0.0
 40
3.0
100
AcDbArc
 50
180.0
 51
270.0
  0
ARC
  5
20825
100
AcDbEntity
  8
0
100
AcDbCircle
 10
1323.417665
 20
1455.010016
 30
0.0
 40
3.0
100
AcDbArc
 50
90.0
 51
180.0
  0
ARC
  5
20826
100
AcDbEntity
  8
0
100
AcDbCircle
 10
1323.417665
 20
1423.145016
 30
0.0
 40
3.0
100
AcDbArc
 50
180.0
 51
270.0
  0
ELLIPSE
  5
2082B
100
AcDbEntity
  8
0
100
AcDbEllipse
 10
1407.416665
 20
1422.430016
 30
0.0
 11
-55.52799999999979
 21
0.0
 31
0.0
210
0.0
220
0.0
230
1.0
 40
0.072828
 41
6.283185307179586
 42
7.853981633974482
  0
VIEWPORT
  5
41
100
AcDbEntity
 67
     1
  8
0
100
AcDbViewport
 10
117.358407
 20
73.5
 30
0.0
 40
234.716814
 41
147.0
 68
    -1
 69
     1
1001
ACAD
1000
MVIEW
1002
{
1070
    16
1010
0.0
1020
0.0
1030
0.0
1010
0.0
1020
0.0
1030
1.0
1040
0.0
1040
147.0
1040
117.358407
1040
73.5
1040
50.0
1040
0.0
1040
0.0
1070
     0
1070
   100
1070
     1
1070
     1
1070
     0
1070
     0
1070
     0
1070
     0
1040
0.0
1040
0.0
1040
0.0
1040
1.0
1040
1.0
1040
0.0
1040
0.0
1070
     0
1002
{
1002
}
1002
}
  0
ENDSEC
  0
SECTION
  2
OBJECTS
  0
DICTIONARY
  5
C
100
AcDbDictionary
  3
ACAD_GROUP
350
D
  3
ACAD_MLINESTYLE
350
E
  0
DICTIONARY
  5
D
102
{ACAD_REACTORS
330
C
102
}
100
AcDbDictionary
  0
DICTIONARY
  5
E
102
{ACAD_REACTORS
330
C
102
}
100
AcDbDictionary
  3
STANDARD
350
1B
  0
MLINESTYLE
  5
1B
102
{ACAD_REACTORS
330
E
102
}
100
AcDbMlineStyle
  2
STANDARD
 70
     0
  3

 62
     0
 51
90.0
 52
90.0
 71
     2
 49
0.5
 62
   256
  6
BYLAYER
 49
-0.5
 62
   256
  6
BYLAYER
  0
ENDSEC
  0
EOF
