  0
SECTION
  2
HEADER
  9
$ACADVER
  1
AC1012
  9
$DWGCODEPAGE
  3
dos932
  9
$INSBASE
 10
0.0
 20
0.0
 30
0.0
  9
$EXTMIN
 10
132.0
 20
60.0
 30
0.0
  9
$EXTMAX
 10
3432.0
 20
2292.0
 30
0.0
  9
$LIMMIN
 10
0.0
 20
0.0
  9
$LIMMAX
 10
3564.0
 20
2520.0
  9
$ORTHOMODE
 70
     1
  9
$REGENMODE
 70
     1
  9
$FILLMODE
 70
     1
  9
$QTEXTMODE
 70
     0
  9
$MIRRTEXT
 70
     1
  9
$DRAGMODE
 70
     2
  9
$LTSCALE
 40
48.0
  9
$OSMODE
 70
   163
  9
$ATTMODE
 70
     1
  9
$TEXTSIZE
 40
48.0
  9
$TRACEWID
 40
0.05
  9
$TEXTSTYLE
  7
STANDARD
  9
$CLAYER
  8
0
  9
$CELTYPE
  6
BYLAYER
  9
$CECOLOR
 62
   256
  9
$CELTSCALE
 40
1.0
  9
$DELOBJ
 70
     1
  9
$DISPSILH
 70
     0
  9
$DIMSCALE
 40
12.0
  9
$DIMASZ
 40
2.8
  9
$DIMEXO
 40
1.0
  9
$DIMDLI
 40
5.0
  9
$DIMRND
 40
0.1
  9
$DIMDLE
 40
0.0
  9
$DIMEXE
 40
1.0
  9
$DIMTP
 40
0.0
  9
$DIMTM
 40
0.0
  9
$DIMTXT
 40
2.5
  9
$DIMCEN
 40
0.0
  9
$DIMTSZ
 40
0.0
  9
$DIMTOL
 70
     0
  9
$DIMLIM
 70
     0
  9
$DIMTIH
 70
     0
  9
$DIMTOH
 70
     0
  9
$DIMSE1
 70
     0
  9
$DIMSE2
 70
     0
  9
$DIMTAD
 70
     3
  9
$DIMZIN
 70
     8
  9
$DIMBLK
  1

  9
$DIMASO
 70
     1
  9
$DIMSHO
 70
     1
  9
$DIMPOST
  1

  9
$DIMAPOST
  1

  9
$DIMALT
 70
     0
  9
$DIMALTD
 70
     2
  9
$DIMALTF
 40
1.0
  9
$DIMLFAC
 40
1.0
  9
$DIMTOFL
 70
     1
  9
$DIMTVP
 40
0.0
  9
$DIMTIX
 70
     0
  9
$DIMSOXD
 70
     0
  9
$DIMSAH
 70
     1
  9
$DIMBLK1
  1
_OPEN
  9
$DIMBLK2
  1
_OPEN
  9
$DIMSTYLE
  2
DIM1
  9
$DIMCLRD
 70
     2
  9
$DIMCLRE
 70
     2
  9
$DIMCLRT
 70
     2
  9
$DIMTFAC
 40
0.7
  9
$DIMGAP
 40
0.85
  9
$DIMJUST
 70
     0
  9
$DIMSD1
 70
     0
  9
$DIMSD2
 70
     0
  9
$DIMTOLJ
 70
     1
  9
$DIMTZIN
 70
     8
  9
$DIMALTZ
 70
     8
  9
$DIMALTTZ
 70
     8
  9
$DIMFIT
 70
     3
  9
$DIMUPT
 70
     0
  9
$DIMUNIT
 70
     2
  9
$DIMDEC
 70
     2
  9
$DIMTDEC
 70
     3
  9
$DIMALTU
 70
     2
  9
$DIMALTTD
 70
     3
  9
$DIMTXSTY
  7
DIM
  9
$DIMAUNIT
 70
     0
  9
$LUNITS
 70
     2
  9
$LUPREC
 70
     4
  9
$SKETCHINC
 40
0.1
  9
$FILLETRAD
 40
0.0
  9
$AUNITS
 70
     0
  9
$AUPREC
 70
     0
  9
$MENU
  1
C:\ACADR13\WIN\SUPPORT\ACAD.mnc
  9
$ELEVATION
 40
0.0
  9
$PELEVATION
 40
0.0
  9
$THICKNESS
 40
0.0
  9
$LIMCHECK
 70
     0
  9
$BLIPMODE
 70
     1
  9
$CHAMFERA
 40
0.0
  9
$CHAMFERB
 40
0.0
  9
$CHAMFERC
 40
0.0
  9
$CHAMFERD
 40
0.0
  9
$SKPOLY
 70
     0
  9
$TDCREATE
 40
2451592.409667916
  9
$TDUPDATE
 40
2451981.561810613
  9
$TDINDWG
 40
0.0345827778
  9
$TDUSRTIMER
 40
0.0345827778
  9
$USRTIMER
 70
     1
  9
$ANGBASE
 50
0.0
  9
$ANGDIR
 70
     0
  9
$PDMODE
 70
     0
  9
$PDSIZE
 40
0.0
  9
$PLINEWID
 40
0.0
  9
$COORDS
 70
     1
  9
$SPLFRAME
 70
     0
  9
$SPLINETYPE
 70
     6
  9
$SPLINESEGS
 70
     8
  9
$ATTDIA
 70
     0
  9
$ATTREQ
 70
     1
  9
$HANDLING
 70
     1
  9
$HANDSEED
  5
C285
  9
$SURFTAB1
 70
     6
  9
$SURFTAB2
 70
     6
  9
$SURFTYPE
 70
     6
  9
$SURFU
 70
     6
  9
$SURFV
 70
     6
  9
$UCSNAME
  2

  9
$UCSORG
 10
0.0
 20
0.0
 30
0.0
  9
$UCSXDIR
 10
1.0
 20
0.0
 30
0.0
  9
$UCSYDIR
 10
0.0
 20
1.0
 30
0.0
  9
$PUCSNAME
  2

  9
$PUCSORG
 10
0.0
 20
0.0
 30
0.0
  9
$PUCSXDIR
 10
1.0
 20
0.0
 30
0.0
  9
$PUCSYDIR
 10
0.0
 20
1.0
 30
0.0
  9
$USERI1
 70
     0
  9
$USERI2
 70
     0
  9
$USERI3
 70
     0
  9
$USERI4
 70
     0
  9
$USERI5
 70
     0
  9
$USERR1
 40
0.0
  9
$USERR2
 40
0.0
  9
$USERR3
 40
0.0
  9
$USERR4
 40
0.0
  9
$USERR5
 40
0.0
  9
$WORLDVIEW
 70
     1
  9
$SHADEDGE
 70
     3
  9
$SHADEDIF
 70
    70
  9
$TILEMODE
 70
     1
  9
$MAXACTVP
 70
    16
  9
$PINSBASE
 10
0.0
 20
0.0
 30
0.0
  9
$PLIMCHECK
 70
     0
  9
$PEXTMIN
 10
1.000000E+20
 20
1.000000E+20
 30
1.000000E+20
  9
$PEXTMAX
 10
-1.000000E+20
 20
-1.000000E+20
 30
-1.000000E+20
  9
$PLIMMIN
 10
0.0
 20
0.0
  9
$PLIMMAX
 10
20.0
 20
147.0
  9
$UNITMODE
 70
     0
  9
$VISRETAIN
 70
     0
  9
$PLINEGEN
 70
     0
  9
$PSLTSCALE
 70
     1
  9
$TREEDEPTH
 70
  3020
  9
$PICKSTYLE
 70
     1
  9
$CMLSTYLE
  2
STANDARD
  9
$CMLJUST
 70
     0
  9
$CMLSCALE
 40
1.0
  9
$SAVEIMAGES
 70
     1
  0
ENDSEC
  0
SECTION
  2
CLASSES
  0
CLASS
  1
LWPOLYLINE
  2
AcDbPolyline
  3
"AutoCAD"
 90
    32768
280
     0
281
     1
  0
ENDSEC
  0
SECTION
  2
TABLES
  0
TABLE
  2
VPORT
  5
8
100
AcDbSymbolTable
 70
     2
  0
VPORT
  5
C284
100
AcDbSymbolTableRecord
100
AcDbViewportTableRecord
  2
*ACTIVE
 70
     0
 10
0.0
 20
0.0
 11
1.0
 21
1.0
 12
2279.493243
 22
1293.650084
 13
0.0
 23
0.0
 14
1.0
 24
1.0
 15
0.0
 25
0.0
 16
0.0
 26
0.0
 36
1.0
 17
0.0
 27
0.0
 37
0.0
 40
2587.300168
 41
1.762063
 42
50.0
 43
0.0
 44
0.0
 50
0.0
 51
0.0
 71
     0
 72
   100
 73
     1
 74
     1
 75
     0
 76
     0
 77
     0
 78
     0
  0
ENDTAB
  0
TABLE
  2
LTYPE
  5
5
100
AcDbSymbolTable
 70
     1
  0
LTYPE
  5
12
100
AcDbSymbolTableRecord
100
AcDbLinetypeTableRecord
  2
BYBLOCK
 70
     0
  3

 72
    65
 73
     0
 40
0.0
  0
LTYPE
  5
13
100
AcDbSymbolTableRecord
100
AcDbLinetypeTableRecord
  2
BYLAYER
 70
     0
  3

 72
    65
 73
     0
 40
0.0
  0
LTYPE
  5
14
100
AcDbSymbolTableRecord
100
AcDbLinetypeTableRecord
  2
CONTINUOUS
 70
     0
  3
Solid line
 72
    65
 73
     0
 40
0.0
  0
ENDTAB
  0
TABLE
  2
LAYER
  5
2
100
AcDbSymbolTable
 70
     1
  0
LAYER
  5
F
100
AcDbSymbolTableRecord
100
AcDbLayerTableRecord
  2
0
 70
     0
 62
     7
  6
CONTINUOUS
  0
ENDTAB
  0
TABLE
  2
STYLE
  5
3
100
AcDbSymbolTable
 70
     3
  0
STYLE
  5
10
100
AcDbSymbolTableRecord
100
AcDbTextStyleTableRecord
  2
STANDARD
 70
     0
 40
0.0
 41
0.8
 50
0.0
 71
     0
 42
48.0
  3
simplex
  4
extfont
  0
STYLE
  5
237C
100
AcDbSymbolTableRecord
100
AcDbTextStyleTableRecord
  2
PTSH
 70
     0
 40
0.0
 41
0.9
 50
0.0
 71
     0
 42
4.0
  3
SIMPLEX
  4
EXTFONT
  0
STYLE
  5
2592
100
AcDbSymbolTableRecord
100
AcDbTextStyleTableRecord
  2
DIM
 70
     0
 40
0.0
 41
0.8
 50
0.0
 71
     0
 42
4.0
  3
simplex
  4
extfont
  0
ENDTAB
  0
TABLE
  2
VIEW
  5
6
100
AcDbSymbolTable
 70
     0
  0
ENDTAB
  0
TABLE
  2
UCS
  5
7
100
AcDbSymbolTable
 70
     0
  0
ENDTAB
  0
TABLE
  2
APPID
  5
9
100
AcDbSymbolTable
 70
     1
  0
APPID
  5
11
100
AcDbSymbolTableRecord
100
AcDbRegAppTableRecord
  2
ACAD
 70
     0
  0
ENDTAB
  0
TABLE
  2
DIMSTYLE
  5
A
100
AcDbSymbolTable
 70
     1
  0
DIMSTYLE
105
2237
100
AcDbSymbolTableRecord
100
AcDbDimStyleTableRecord
  2
DIM1
 70
     0
  3

  4

  5

  6
_OPEN
  7
_OPEN
 40
12.0
 41
2.8
 42
1.0
 43
5.0
 44
1.0
 45
0.1
 46
0.0
 47
0.0
 48
0.0
140
2.5
141
0.0
142
0.0
143
1.0
144
1.0
145
0.0
146
0.7
147
0.85
 71
     0
 72
     0
 73
     0
 74
     0
 75
     0
 76
     0
 77
     3
 78
     8
170
     0
171
     2
172
     1
173
     1
174
     0
175
     0
176
     2
177
     2
178
     2
270
     2
271
     2
272
     3
273
     2
274
     3
340
2592
275
     0
280
     0
281
     0
282
     0
283
     1
284
     8
285
     8
286
     8
287
     3
288
     0
  0
ENDTAB
  0
TABLE
  2
BLOCK_RECORD
  5
1
100
AcDbSymbolTable
 70
     2
  0
BLOCK_RECORD
  5
18
100
AcDbSymbolTableRecord
100
AcDbBlockTableRecord
  2
*MODEL_SPACE
  0
BLOCK_RECORD
  5
15
100
AcDbSymbolTableRecord
100
AcDbBlockTableRecord
  2
*PAPER_SPACE
  0
BLOCK_RECORD
  5
2448
100
AcDbSymbolTableRecord
100
AcDbBlockTableRecord
  2
_OPEN
  0
BLOCK_RECORD
  5
9BAD
100
AcDbSymbolTableRecord
100
AcDbBlockTableRecord
  2
YA
  0
ENDTAB
  0
ENDSEC
  0
SECTION
  2
BLOCKS
  0
BLOCK
  5
3C
100
AcDbEntity
  8
0
100
AcDbBlockBegin
  2
*MODEL_SPACE
 70
     0
 10
0.0
 20
0.0
 30
0.0
  3
*MODEL_SPACE
  1

  0
ENDBLK
  5
3D
100
AcDbEntity
  8
0
100
AcDbBlockEnd
  0
BLOCK
  5
3A
100
AcDbEntity
 67
     1
  8
0
100
AcDbBlockBegin
  2
*PAPER_SPACE
 70
     0
 10
0.0
 20
0.0
 30
0.0
  3
*PAPER_SPACE
  1

  0
ENDBLK
  5
3B
100
AcDbEntity
 67
     1
  8
0
100
AcDbBlockEnd
  0
BLOCK
  5
2449
100
AcDbEntity
  8
0
 48
4.0
100
AcDbBlockBegin
  2
_OPEN
 70
     0
 10
0.0
 20
0.0
 30
0.0
  3
_OPEN
  1
H1111.DWG
  0
LINE
  5
244A
100
AcDbEntity
  8
0
  6
BYBLOCK
 62
     0
 48
4.0
100
AcDbLine
 10
-1.0
 20
0.166667
 30
0.0
 11
0.0
 21
0.0
 31
0.0
  0
LINE
  5
244B
100
AcDbEntity
  8
0
  6
BYBLOCK
 62
     0
 48
4.0
100
AcDbLine
 10
0.0
 20
0.0
 30
0.0
 11
-1.0
 21
-0.166667
 31
0.0
  0
LINE
  5
244C
100
AcDbEntity
  8
0
  6
BYBLOCK
 62
     0
 48
4.0
100
AcDbLine
 10
0.0
 20
0.0
 30
0.0
 11
-1.0
 21
0.0
 31
0.0
  0
ENDBLK
  5
244D
100
AcDbEntity
  8
0
 48
4.0
100
AcDbBlockEnd
  0
BLOCK
  5
9BB5
100
AcDbEntity
  8
0
100
AcDbBlockBegin
  2
YA
 70
     0
 10
0.0
 20
0.0
 30
0.0
  3
YA
  1

  0
LINE
  5
9BAE
100
AcDbEntity
  8
0
100
AcDbLine
 10
-16.8065
 20
2.801
 30
0.0
 11
-8.4035
 21
2.801
 31
0.0
  0
LINE
  5
9BAF
100
AcDbEntity
  8
0
100
AcDbLine
 10
-8.4035
 20
2.801
 30
0.0
 11
-7.0025
 21
1.4005
 31
0.0
  0
LINE
  5
9BB0
100
AcDbEntity
  8
0
100
AcDbLine
 10
-7.0025
 20
1.4005
 30
0.0
 11
-2.862
 21
1.4005
 31
0.0
  0
LINE
  5
9BB1
100
AcDbEntity
  8
0
100
AcDbLine
 10
-2.862
 20
1.4005
 30
0.0
 11
-2.862
 21
2.801
 31
0.0
  0
LINE
  5
9BB2
100
AcDbEntity
  8
0
100
AcDbLine
 10
-2.862
 20
2.801
 30
0.0
 11
0.0
 21
0.0
 31
0.0
  0
LINE
  5
9BB3
100
AcDbEntity
  8
0
100
AcDbLine
 10
0.0
 20
0.0
 30
0.0
 11
-14.0055
 21
0.0
 31
0.0
  0
LINE
  5
9BB4
100
AcDbEntity
  8
0
100
AcDbLine
 10
-14.0055
 20
0.0
 30
0.0
 11
-16.8065
 21
2.801
 31
0.0
  0
ENDBLK
  5
9BB6
100
AcDbEntity
  8
0
100
AcDbBlockEnd
  0
ENDSEC
  0
SECTION
  2
ENTITIES
  0
MTEXT
  5
ADA
100
AcDbEntity
  8
0
100
AcDbMText
 10
4561.671357
 20
598.155734
 30
0.0
 40
2.4
 41
566.717578
 71
     1
 72
     1
  1

  0
MTEXT
  5
ADB
100
AcDbEntity
  8
0
100
AcDbMText
 10
4668.599198
 20
694.209525
 30
0.0
 40
2.4
 41
545.33201
 71
     1
 72
     1
  1

  0
MTEXT
  5
ADC
100
AcDbEntity
  8
0
100
AcDbMText
 10
4604.442494
 20
-575.834957
 30
0.0
 40
2.4
 41
620.181499
 71
     1
 72
     1
  1

  0
TEXT
  5
2529
100
AcDbEntity
  8
0
  6
CONTINUOUS
100
AcDbText
 10
3304.408163
 20
84.857143
 30
0.0
 40
34.285714
  1
J10
 41
0.9
  7
PTSH
 72
     2
 11
3372.0
 21
102.0
 31
0.0
100
AcDbText
 73
     2
  0
POLYLINE
  5
2563
100
AcDbEntity
  8
0
100
AcDb2dPolyline
 66
     1
 10
0.0
 20
0.0
 30
0.0
 70
     1
  0
VERTEX
  5
C266
100
AcDbEntity
  8
0
100
AcDbVertex
100
AcDb2dVertex
 10
132.0
 20
60.0
 30
0.0
  0
VERTEX
  5
C267
100
AcDbEntity
  8
0
100
AcDbVertex
100
AcDb2dVertex
 10
3432.0
 20
60.0
 30
0.0
  0
VERTEX
  5
C268
100
AcDbEntity
  8
0
100
AcDbVertex
100
AcDb2dVertex
 10
3432.0
 20
2292.0
 30
0.0
  0
VERTEX
  5
C269
100
AcDbEntity
  8
0
100
AcDbVertex
100
AcDb2dVertex
 10
132.0
 20
2292.0
 30
0.0
  0
SEQEND
  5
C26A
100
AcDbEntity
  8
0
  0
TEXT
  5
B4A8
100
AcDbEntity
  8
0
100
AcDbText
 10
671.039753
 20
810.241049
 30
0.0
 40
50.0
  1
正面
100
AcDbText
  0
TEXT
  5
B5D3
100
AcDbEntity
  8
0
100
AcDbText
 10
1527.8
 20
126.0
 30
0.0
 40
42.0
  1
TLV J10 (JIS10K)
 72
     4
 11
1782.0
 21
144.0
 31
0.0
100
AcDbText
  0
TEXT
  5
B5D4
100
AcDbEntity
  8
0
100
AcDbText
 10
1710.909733
 20
291.810323
 30
0.0
 40
30.0
  1
100A
 72
     4
 11
1762.338304
 21
306.810323
 31
0.0
100
AcDbText
  0
INSERT
  5
B622
100
AcDbEntity
  8
0
100
AcDbBlockReference
  2
YA
 10
1435.428292
 20
810.241049
 30
0.0
 41
5.0
 42
5.0
 43
5.0
  0
TEXT
  5
B6EF
100
AcDbEntity
  8
0
100
AcDbText
 10
667.362417
 20
1259.438164
 30
0.0
 40
50.0
  1
平面
100
AcDbText
  0
TEXT
  5
B6F0
100
AcDbEntity
  8
0
100
AcDbText
 10
690.922698
 20
2015.555961
 30
0.0
 40
50.0
  1
背面
100
AcDbText
  0
INSERT
  5
B930
100
AcDbEntity
  8
0
100
AcDbBlockReference
  2
YA
 10
2117.135963
 20
2015.555961
 30
0.0
 41
-5.0
 42
5.0
 43
5.0
  0
INSERT
  5
BAE5
100
AcDbEntity
  8
0
100
AcDbBlockReference
  2
YA
 10
1435.428292
 20
1259.430498
 30
0.0
 41
5.0
 42
5.0
 43
5.0
  0
LINE
  5
BE77
100
AcDbEntity
  8
0
100
AcDbLine
 10
1607.255259
 20
871.241049
 30
0.0
 11
1523.755259
 21
871.241049
 31
0.0
  0
LINE
  5
BE78
100
AcDbEntity
  8
0
100
AcDbLine
 10
1542.255259
 20
749.241049
 30
0.0
 11
1523.755259
 21
749.241049
 31
0.0
  0
LINE
  5
BE79
100
AcDbEntity
  8
0
100
AcDbLine
 10
1620.196051
 20
1320.430498
 30
0.0
 11
1523.755259
 21
1320.430498
 31
0.0
  0
LINE
  5
BE7A
100
AcDbEntity
  8
0
100
AcDbLine
 10
1617.764692
 20
1198.430498
 30
0.0
 11
1523.755259
 21
1198.430498
 31
0.0
  0
LINE
  5
BE7B
100
AcDbEntity
  8
0
100
AcDbLine
 10
1563.936743
 20
1866.67124
 30
0.0
 11
1536.097508
 21
1859.211739
 31
0.0
  0
LINE
  5
BE7C
100
AcDbEntity
  8
0
100
AcDbLine
 10
1539.906799
 20
1690.447142
 30
0.0
 11
1559.225315
 21
1695.623523
 31
0.0
  0
LINE
  5
BE7D
100
AcDbEntity
  8
0
100
AcDbLine
 10
1559.225315
 20
1695.623523
 30
0.0
 11
1510.049697
 21
1879.14943
 31
0.0
  0
LINE
  5
BE7E
100
AcDbEntity
  8
0
100
AcDbLine
 10
1578.543832
 20
1700.799904
 30
0.0
 11
1529.368213
 21
1884.325811
 31
0.0
  0
LINE
  5
BE7F
100
AcDbEntity
  8
0
100
AcDbLine
 10
1524.232226
 20
1954.555961
 30
0.0
 11
1551.885702
 21
1954.555961
 31
0.0
  0
LINE
  5
BE80
100
AcDbEntity
  8
0
100
AcDbLine
 10
1523.755259
 20
2076.555961
 30
0.0
 11
1607.255259
 21
2076.555961
 31
0.0
  0
ARC
  5
BE81
100
AcDbEntity
  8
0
100
AcDbCircle
 10
1190.415726
 20
898.799758
 30
0.0
 40
18.441291
100
AcDbArc
 50
66.002547
 51
113.997453
  0
LINE
  5
BE82
100
AcDbEntity
  8
0
100
AcDbLine
 10
1212.915726
 20
917.241049
 30
0.0
 11
1182.915726
 21
917.241049
 31
0.0
  0
LINE
  5
BE83
100
AcDbEntity
  8
0
100
AcDbLine
 10
1180.935216
 20
841.241049
 30
0.0
 11
1240.615726
 21
841.241049
 31
0.0
  0
LINE
  5
BE84
100
AcDbEntity
  8
0
100
AcDbLine
 10
1243.615726
 20
905.241049
 30
0.0
 11
1125.337086
 21
905.241049
 31
0.0
  0
LINE
  5
BE85
100
AcDbEntity
  8
0
100
AcDbLine
 10
1245.615726
 20
881.241049
 30
0.0
 11
1157.972045
 21
881.241049
 31
0.0
  0
LINE
  5
BE86
100
AcDbEntity
  8
0
100
AcDbLine
 10
1158.878105
 20
880.241049
 30
0.0
 11
1245.615726
 21
880.241049
 31
0.0
  0
ARC
  5
BE87
100
AcDbEntity
  8
0
100
AcDbCircle
 10
1080.615726
 20
657.741049
 30
0.0
 40
127.0
100
AcDbArc
 50
298.705975
 51
0.0
  0
CIRCLE
  5
BE88
100
AcDbEntity
  8
0
100
AcDbCircle
 10
1047.130926
 20
729.40159
 30
0.0
 40
9.5
  0
CIRCLE
  5
BE89
100
AcDbEntity
  8
0
100
AcDbCircle
 10
1114.100526
 20
729.40159
 30
0.0
 40
9.5
  0
CIRCLE
  5
BE8A
100
AcDbEntity
  8
0
100
AcDbCircle
 10
1080.615726
 20
810.241049
 30
0.0
 40
105.0
  0
LINE
  5
BE8B
100
AcDbEntity
  8
0
100
AcDbLine
 10
953.615726
 20
657.741049
 30
0.0
 11
953.615726
 21
836.241049
 31
0.0
  0
LINE
  5
BE8C
100
AcDbEntity
  8
0
100
AcDbLine
 10
1011.186409
 20
421.763984
 30
0.0
 11
1019.615726
 21
518.11152
 31
0.0
  0
LINE
  5
BE8D
100
AcDbEntity
  8
0
100
AcDbLine
 10
1144.067875
 20
415.241049
 30
0.0
 11
1017.163577
 21
415.241049
 31
0.0
  0
ARC
  5
BE8E
100
AcDbEntity
  8
0
100
AcDbCircle
 10
1080.615726
 20
657.741049
 30
0.0
 40
127.0
100
AcDbArc
 50
180.0
 51
241.294025
  0
ARC
  5
BE8F
100
AcDbEntity
  8
0
100
AcDbCircle
 10
1017.163577
 20
421.241049
 30
0.0
 40
6.0
100
AcDbArc
 50
175.0
 51
270.0
  0
LINE
  5
BE90
100
AcDbEntity
  8
0
100
AcDbLine
 10
1019.615726
 20
518.11152
 30
0.0
 11
1019.615726
 21
724.777607
 31
0.0
  0
LINE
  5
BE91
100
AcDbEntity
  8
0
100
AcDbLine
 10
1141.615726
 20
518.11152
 30
0.0
 11
1141.615726
 21
724.777607
 31
0.0
  0
LINE
  5
BE92
100
AcDbEntity
  8
0
100
AcDbLine
 10
1133.746605
 20
522.760441
 30
0.0
 11
1027.484848
 21
522.760441
 31
0.0
  0
LINE
  5
BE93
100
AcDbEntity
  8
0
100
AcDbLine
 10
1146.735948
 20
484.747924
 30
0.0
 11
1151.735948
 21
484.591674
 31
0.0
  0
LINE
  5
BE94
100
AcDbEntity
  8
0
100
AcDbLine
 10
1150.045043
 20
421.763984
 30
0.0
 11
1141.615726
 21
518.11152
 31
0.0
  0
LINE
  5
BE95
100
AcDbEntity
  8
0
100
AcDbLine
 10
1151.735948
 20
505.841049
 30
0.0
 11
1151.735948
 21
484.641049
 31
0.0
  0
LINE
  5
BE96
100
AcDbEntity
  8
0
100
AcDbLine
 10
1146.615726
 20
475.241049
 30
0.0
 11
1146.615726
 21
515.241049
 31
0.0
  0
ARC
  5
BE97
100
AcDbEntity
  8
0
100
AcDbCircle
 10
1144.067875
 20
421.241049
 30
0.0
 40
6.0
100
AcDbArc
 50
270.0
 51
5.0
  0
LINE
  5
BE98
100
AcDbEntity
  8
0
100
AcDbLine
 10
1146.615726
 20
475.241049
 30
0.0
 11
1145.366406
 21
475.241049
 31
0.0
  0
LINE
  5
BE99
100
AcDbEntity
  8
0
100
AcDbLine
 10
1146.735948
 20
505.734174
 30
0.0
 11
1151.735948
 21
505.890424
 31
0.0
  0
LINE
  5
BE9A
100
AcDbEntity
  8
0
100
AcDbLine
 10
1146.615726
 20
515.241049
 30
0.0
 11
1141.86686
 21
515.241049
 31
0.0
  0
LINE
  5
BE9B
100
AcDbEntity
  8
0
100
AcDbLine
 10
1161.735948
 20
495.241049
 30
0.0
 11
1151.735948
 21
495.241049
 31
0.0
  0
LINE
  5
BE9C
100
AcDbEntity
  8
0
100
AcDbLine
 10
1161.735948
 20
504.891049
 30
0.0
 11
1151.735948
 21
504.891049
 31
0.0
  0
LINE
  5
BE9D
100
AcDbEntity
  8
0
100
AcDbLine
 10
1161.735948
 20
485.591049
 30
0.0
 11
1151.735948
 21
485.591049
 31
0.0
  0
LINE
  5
BE9E
100
AcDbEntity
  8
0
100
AcDbLine
 10
1151.735948
 20
504.891049
 30
0.0
 11
1151.735948
 21
485.591049
 31
0.0
  0
LINE
  5
BE9F
100
AcDbEntity
  8
0
100
AcDbLine
 10
1161.735948
 20
504.891049
 30
0.0
 11
1161.735948
 21
485.591049
 31
0.0
  0
LINE
  5
BEA0
100
AcDbEntity
  8
0
100
AcDbLine
 10
985.219688
 20
921.241049
 30
0.0
 11
1176.011764
 21
921.241049
 31
0.0
  0
LINE
  5
BEA1
100
AcDbEntity
  8
0
100
AcDbLine
 10
1035.894367
 20
905.241049
 30
0.0
 11
917.615726
 21
905.241049
 31
0.0
  0
LINE
  5
BEA2
100
AcDbEntity
  8
0
100
AcDbLine
 10
915.615726
 20
903.241049
 30
0.0
 11
915.615726
 21
881.241049
 31
0.0
  0
LINE
  5
BEA3
100
AcDbEntity
  8
0
100
AcDbLine
 10
920.615726
 20
841.241049
 30
0.0
 11
980.296236
 21
841.241049
 31
0.0
  0
LINE
  5
BEA4
100
AcDbEntity
  8
0
100
AcDbLine
 10
915.615726
 20
880.241049
 30
0.0
 11
1002.353347
 21
880.241049
 31
0.0
  0
LINE
  5
BEA5
100
AcDbEntity
  8
0
100
AcDbLine
 10
1003.259408
 20
881.241049
 30
0.0
 11
915.615726
 21
881.241049
 31
0.0
  0
LINE
  5
BEA6
100
AcDbEntity
  8
0
100
AcDbLine
 10
915.615726
 20
880.241049
 30
0.0
 11
915.615726
 21
846.241049
 31
0.0
  0
ARC
  5
BEA7
100
AcDbEntity
  8
0
100
AcDbCircle
 10
920.615726
 20
846.241049
 30
0.0
 40
5.0
100
AcDbArc
 50
180.0
 51
270.0
  0
CIRCLE
  5
BEA8
100
AcDbEntity
  8
0
100
AcDbCircle
 10
999.776267
 20
776.756249
 30
0.0
 40
9.5
  0
ARC
  5
BEA9
100
AcDbEntity
  8
0
100
AcDbCircle
 10
948.615726
 20
836.241049
 30
0.0
 40
5.0
100
AcDbArc
 50
360.0
 51
90.0
  0
LINE
  5
BEAA
100
AcDbEntity
  8
0
100
AcDbLine
 10
951.615726
 20
880.241049
 30
0.0
 11
951.615726
 21
881.241049
 31
0.0
  0
CIRCLE
  5
BEAB
100
AcDbEntity
  8
0
100
AcDbCircle
 10
999.776267
 20
843.72585
 30
0.0
 40
9.5
  0
LINE
  5
BEAC
100
AcDbEntity
  8
0
100
AcDbLine
 10
920.615726
 20
917.241049
 30
0.0
 11
948.315726
 21
917.241049
 31
0.0
  0
ARC
  5
BEAD
100
AcDbEntity
  8
0
100
AcDbCircle
 10
928.115726
 20
898.799758
 30
0.0
 40
18.441291
100
AcDbArc
 50
66.002547
 51
113.997453
  0
LINE
  5
BEAE
100
AcDbEntity
  8
0
100
AcDbLine
 10
917.615726
 20
905.241049
 30
0.0
 11
915.615726
 21
903.241049
 31
0.0
  0
LINE
  5
BEAF
100
AcDbEntity
  8
0
100
AcDbLine
 10
920.615726
 20
905.241049
 30
0.0
 11
920.615726
 21
917.241049
 31
0.0
  0
ARC
  5
BEB0
100
AcDbEntity
  8
0
100
AcDbCircle
 10
970.815726
 20
898.799758
 30
0.0
 40
18.441291
100
AcDbArc
 50
66.002547
 51
113.997453
  0
LINE
  5
BEB1
100
AcDbEntity
  8
0
100
AcDbLine
 10
948.315726
 20
917.241049
 30
0.0
 11
978.315726
 21
917.241049
 31
0.0
  0
ARC
  5
BEB2
100
AcDbEntity
  8
0
100
AcDbCircle
 10
955.815726
 20
898.799758
 30
0.0
 40
18.441291
100
AcDbArc
 50
66.002547
 51
113.997453
  0
ARC
  5
BEB3
100
AcDbEntity
  8
0
100
AcDbCircle
 10
943.115726
 20
898.799758
 30
0.0
 40
18.441291
100
AcDbArc
 50
73.621831
 51
113.997453
  0
LINE
  5
BEB4
100
AcDbEntity
  8
0
100
AcDbLine
 10
948.315726
 20
905.241049
 30
0.0
 11
948.315726
 21
917.241049
 31
0.0
  0
LINE
  5
BEB5
100
AcDbEntity
  8
0
100
AcDbLine
 10
935.615726
 20
905.241049
 30
0.0
 11
935.615726
 21
915.647049
 31
0.0
  0
LINE
  5
BEB6
100
AcDbEntity
  8
0
100
AcDbLine
 10
963.315726
 20
905.241049
 30
0.0
 11
963.315726
 21
915.647049
 31
0.0
  0
LINE
  5
BEB7
100
AcDbEntity
  8
0
100
AcDbLine
 10
978.315726
 20
912.657332
 30
0.0
 11
979.424133
 21
916.793963
 31
0.0
  0
ARC
  5
BEB8
100
AcDbEntity
  8
0
100
AcDbCircle
 10
985.219688
 20
915.241049
 30
0.0
 40
6.0
100
AcDbArc
 50
90.0
 51
165.0
  0
LINE
  5
BEB9
100
AcDbEntity
  8
0
100
AcDbLine
 10
978.315726
 20
905.241049
 30
0.0
 11
978.315726
 21
917.241049
 31
0.0
  0
CIRCLE
  5
BEBA
100
AcDbEntity
  8
0
100
AcDbCircle
 10
1047.130926
 20
891.080508
 30
0.0
 40
9.5
  0
CIRCLE
  5
BEBB
100
AcDbEntity
  8
0
100
AcDbCircle
 10
1114.100526
 20
891.080508
 30
0.0
 40
9.5
  0
CIRCLE
  5
BEBC
100
AcDbEntity
  8
0
100
AcDbCircle
 10
1161.455185
 20
776.756249
 30
0.0
 40
9.5
  0
CIRCLE
  5
BEBD
100
AcDbEntity
  8
0
100
AcDbCircle
 10
1161.455185
 20
843.72585
 30
0.0
 40
9.5
  0
LINE
  5
BEBE
100
AcDbEntity
  8
0
100
AcDbLine
 10
1123.615726
 20
925.241049
 30
0.0
 11
1037.615726
 21
925.241049
 31
0.0
  0
LINE
  5
BEBF
100
AcDbEntity
  8
0
100
AcDbLine
 10
1020.815726
 20
917.241049
 30
0.0
 11
1050.815726
 21
917.241049
 31
0.0
  0
ARC
  5
BEC0
100
AcDbEntity
  8
0
100
AcDbCircle
 10
1043.315726
 20
898.799758
 30
0.0
 40
18.441291
100
AcDbArc
 50
66.002547
 51
113.997453
  0
LINE
  5
BEC1
100
AcDbEntity
  8
0
100
AcDbLine
 10
1035.615726
 20
921.241049
 30
0.0
 11
1035.615726
 21
923.241049
 31
0.0
  0
ARC
  5
BEC2
100
AcDbEntity
  8
0
100
AcDbCircle
 10
1037.615726
 20
923.241049
 30
0.0
 40
2.0
100
AcDbArc
 50
90.0
 51
180.0
  0
ARC
  5
BEC3
100
AcDbEntity
  8
0
100
AcDbCircle
 10
1028.315726
 20
898.799758
 30
0.0
 40
18.441291
100
AcDbArc
 50
66.002547
 51
113.997453
  0
LINE
  5
BEC4
100
AcDbEntity
  8
0
100
AcDbLine
 10
1035.815726
 20
905.241049
 30
0.0
 11
1035.815726
 21
915.647049
 31
0.0
  0
LINE
  5
BEC5
100
AcDbEntity
  8
0
100
AcDbLine
 10
1020.815726
 20
905.241049
 30
0.0
 11
1020.815726
 21
917.241049
 31
0.0
  0
LINE
  5
BEC6
100
AcDbEntity
  8
0
100
AcDbLine
 10
1050.815726
 20
910.92352
 30
0.0
 11
1050.815726
 21
917.241049
 31
0.0
  0
ARC
  5
BEC7
100
AcDbEntity
  8
0
100
AcDbCircle
 10
1080.615726
 20
900.168575
 30
0.0
 40
21.072474
100
AcDbArc
 50
68.291953
 51
111.708047
  0
LINE
  5
BEC8
100
AcDbEntity
  8
0
100
AcDbLine
 10
1067.615726
 20
921.241049
 30
0.0
 11
1093.615726
 21
921.241049
 31
0.0
  0
LINE
  5
BEC9
100
AcDbEntity
  8
0
100
AcDbLine
 10
1072.821497
 20
919.746603
 30
0.0
 11
1072.821497
 21
914.951364
 31
0.0
  0
LINE
  5
BECA
100
AcDbEntity
  8
0
100
AcDbLine
 10
1065.027269
 20
914.077459
 30
0.0
 11
1065.027269
 21
919.746603
 31
0.0
  0
ARC
  5
BECB
100
AcDbEntity
  8
0
100
AcDbCircle
 10
1068.924383
 20
915.412513
 30
0.0
 40
5.828536
100
AcDbArc
 50
48.038845
 51
108.038845
  0
LINE
  5
BECC
100
AcDbEntity
  8
0
100
AcDbLine
 10
1067.615726
 20
921.241049
 30
0.0
 11
1065.027269
 21
919.746603
 31
0.0
  0
LINE
  5
BECD
100
AcDbEntity
  8
0
100
AcDbLine
 10
1096.204183
 20
919.746603
 30
0.0
 11
1096.204183
 21
914.077459
 31
0.0
  0
LINE
  5
BECE
100
AcDbEntity
  8
0
100
AcDbLine
 10
1088.409955
 20
919.746603
 30
0.0
 11
1088.409955
 21
914.951364
 31
0.0
  0
LINE
  5
BECF
100
AcDbEntity
  8
0
100
AcDbLine
 10
1093.615726
 20
921.241049
 30
0.0
 11
1096.204183
 21
919.746603
 31
0.0
  0
ARC
  5
BED0
100
AcDbEntity
  8
0
100
AcDbCircle
 10
1092.307069
 20
915.412513
 30
0.0
 40
5.828536
100
AcDbArc
 50
71.961155
 51
131.961155
  0
LINE
  5
BED1
100
AcDbEntity
  8
0
100
AcDbLine
 10
1140.415726
 20
917.241049
 30
0.0
 11
1110.415726
 21
917.241049
 31
0.0
  0
ARC
  5
BED2
100
AcDbEntity
  8
0
100
AcDbCircle
 10
1132.915726
 20
898.799758
 30
0.0
 40
18.441291
100
AcDbArc
 50
66.002547
 51
113.997453
  0
LINE
  5
BED3
100
AcDbEntity
  8
0
100
AcDbLine
 10
1110.415726
 20
910.92352
 30
0.0
 11
1110.415726
 21
917.241049
 31
0.0
  0
ARC
  5
BED4
100
AcDbEntity
  8
0
100
AcDbCircle
 10
1117.915726
 20
898.799758
 30
0.0
 40
18.441291
100
AcDbArc
 50
66.002547
 51
113.997453
  0
ARC
  5
BED5
100
AcDbEntity
  8
0
100
AcDbCircle
 10
1123.615726
 20
923.241049
 30
0.0
 40
2.0
100
AcDbArc
 50
0.0
 51
90.0
  0
LINE
  5
BED6
100
AcDbEntity
  8
0
100
AcDbLine
 10
1125.615726
 20
921.241049
 30
0.0
 11
1125.615726
 21
923.241049
 31
0.0
  0
LINE
  5
BED7
100
AcDbEntity
  8
0
100
AcDbLine
 10
1125.415726
 20
905.241049
 30
0.0
 11
1125.415726
 21
915.647049
 31
0.0
  0
LINE
  5
BED8
100
AcDbEntity
  8
0
100
AcDbLine
 10
1140.415726
 20
905.241049
 30
0.0
 11
1140.415726
 21
917.241049
 31
0.0
  0
LINE
  5
BED9
100
AcDbEntity
  8
0
100
AcDbLine
 10
1182.915726
 20
912.657332
 30
0.0
 11
1181.807319
 21
916.793963
 31
0.0
  0
ARC
  5
BEDA
100
AcDbEntity
  8
0
100
AcDbCircle
 10
1176.011764
 20
915.241049
 30
0.0
 40
6.0
100
AcDbArc
 50
15.0
 51
90.0
  0
LINE
  5
BEDB
100
AcDbEntity
  8
0
100
AcDbLine
 10
1182.915726
 20
905.241049
 30
0.0
 11
1182.915726
 21
917.241049
 31
0.0
  0
LINE
  5
BEDC
100
AcDbEntity
  8
0
100
AcDbLine
 10
1207.615726
 20
657.741049
 30
0.0
 11
1207.615726
 21
836.241049
 31
0.0
  0
LINE
  5
BEDD
100
AcDbEntity
  8
0
100
AcDbLine
 10
1498.755259
 20
705.241049
 30
0.0
 11
1498.755259
 21
915.241049
 31
0.0
  0
LINE
  5
BEDE
100
AcDbEntity
  8
0
100
AcDbLine
 10
1474.755259
 20
705.241049
 30
0.0
 11
1474.755259
 21
810.241049
 31
0.0
  0
LINE
  5
BEDF
100
AcDbEntity
  8
0
100
AcDbLine
 10
1498.755259
 20
705.241049
 30
0.0
 11
1474.755259
 21
705.241049
 31
0.0
  0
LINE
  5
BEE0
100
AcDbEntity
  8
0
100
AcDbLine
 10
1245.615726
 20
903.241049
 30
0.0
 11
1245.615726
 21
881.241049
 31
0.0
  0
ARC
  5
BEE1
100
AcDbEntity
  8
0
100
AcDbCircle
 10
1212.615726
 20
836.241049
 30
0.0
 40
5.0
100
AcDbArc
 50
90.0
 51
180.0
  0
LINE
  5
BEE2
100
AcDbEntity
  8
0
100
AcDbLine
 10
1209.615726
 20
880.241049
 30
0.0
 11
1209.615726
 21
881.241049
 31
0.0
  0
LINE
  5
BEE3
100
AcDbEntity
  8
0
100
AcDbLine
 10
1245.615726
 20
846.241049
 30
0.0
 11
1245.615726
 21
880.241049
 31
0.0
  0
ARC
  5
BEE4
100
AcDbEntity
  8
0
100
AcDbCircle
 10
1240.615726
 20
846.241049
 30
0.0
 40
5.0
100
AcDbArc
 50
270.0
 51
0.0
  0
LINE
  5
BEE5
100
AcDbEntity
  8
0
100
AcDbLine
 10
1240.615726
 20
917.241049
 30
0.0
 11
1212.915726
 21
917.241049
 31
0.0
  0
ARC
  5
BEE6
100
AcDbEntity
  8
0
100
AcDbCircle
 10
1233.115726
 20
898.799758
 30
0.0
 40
18.441291
100
AcDbArc
 50
66.002547
 51
113.997453
  0
ARC
  5
BEE7
100
AcDbEntity
  8
0
100
AcDbCircle
 10
1218.115726
 20
898.799758
 30
0.0
 40
18.441291
100
AcDbArc
 50
66.002547
 51
106.378169
  0
ARC
  5
BEE8
100
AcDbEntity
  8
0
100
AcDbCircle
 10
1205.415726
 20
898.799758
 30
0.0
 40
18.441291
100
AcDbArc
 50
66.002547
 51
113.997453
  0
LINE
  5
BEE9
100
AcDbEntity
  8
0
100
AcDbLine
 10
1212.915726
 20
905.241049
 30
0.0
 11
1212.915726
 21
917.241049
 31
0.0
  0
LINE
  5
BEEA
100
AcDbEntity
  8
0
100
AcDbLine
 10
1197.915726
 20
905.241049
 30
0.0
 11
1197.915726
 21
915.647049
 31
0.0
  0
LINE
  5
BEEB
100
AcDbEntity
  8
0
100
AcDbLine
 10
1225.615726
 20
905.241049
 30
0.0
 11
1225.615726
 21
915.647049
 31
0.0
  0
LINE
  5
BEEC
100
AcDbEntity
  8
0
100
AcDbLine
 10
1243.615726
 20
905.241049
 30
0.0
 11
1245.615726
 21
903.241049
 31
0.0
  0
LINE
  5
BEED
100
AcDbEntity
  8
0
100
AcDbLine
 10
1240.615726
 20
905.241049
 30
0.0
 11
1240.615726
 21
917.241049
 31
0.0
  0
LINE
  5
BEEE
100
AcDbEntity
  8
0
100
AcDbLine
 10
1474.755259
 20
810.241049
 30
0.0
 11
1474.755259
 21
915.241049
 31
0.0
  0
LINE
  5
BEEF
100
AcDbEntity
  8
0
100
AcDbLine
 10
1498.755259
 20
745.241049
 30
0.0
 11
1523.755259
 21
749.241049
 31
0.0
  0
LINE
  5
BEF0
100
AcDbEntity
  8
0
100
AcDbLine
 10
1523.755259
 20
871.241049
 30
0.0
 11
1498.755259
 21
875.241049
 31
0.0
  0
LINE
  5
BEF1
100
AcDbEntity
  8
0
100
AcDbLine
 10
1498.755259
 20
915.241049
 30
0.0
 11
1474.755259
 21
915.241049
 31
0.0
  0
LINE
  5
BEF2
100
AcDbEntity
  8
0
100
AcDbLine
 10
1490.73118
 20
1873.973049
 30
0.0
 11
1539.906799
 21
1690.447142
 31
0.0
  0
LINE
  5
BEF3
100
AcDbEntity
  8
0
100
AcDbLine
 10
1498.755259
 20
1154.430498
 30
0.0
 11
1498.755259
 21
1364.430498
 31
0.0
  0
LINE
  5
BEF4
100
AcDbEntity
  8
0
100
AcDbLine
 10
1474.755259
 20
1154.430498
 30
0.0
 11
1474.755259
 21
1259.430498
 31
0.0
  0
LINE
  5
BEF5
100
AcDbEntity
  8
0
100
AcDbLine
 10
1523.755259
 20
1308.230498
 30
0.0
 11
1523.755259
 21
1210.630498
 31
0.0
  0
LINE
  5
BEF6
100
AcDbEntity
  8
0
100
AcDbLine
 10
1498.755259
 20
1154.430498
 30
0.0
 11
1474.755259
 21
1154.430498
 31
0.0
  0
LINE
  5
BEF7
100
AcDbEntity
  8
0
100
AcDbLine
 10
1501.668285
 20
1185.178313
 30
0.0
 11
1523.755259
 21
1198.430498
 31
0.0
  0
ARC
  5
BEF8
100
AcDbEntity
  8
0
100
AcDbCircle
 10
1504.755259
 20
1180.033355
 30
0.0
 40
6.0
100
AcDbArc
 50
120.963757
 51
180.0
  0
LINE
  5
BEF9
100
AcDbEntity
  8
0
100
AcDbLine
 10
1474.755259
 20
1259.430498
 30
0.0
 11
1474.755259
 21
1364.430498
 31
0.0
  0
LINE
  5
BEFA
100
AcDbEntity
  8
0
100
AcDbLine
 10
1498.755259
 20
1364.430498
 30
0.0
 11
1474.755259
 21
1364.430498
 31
0.0
  0
LINE
  5
BEFB
100
AcDbEntity
  8
0
100
AcDbLine
 10
1523.755259
 20
1320.430498
 30
0.0
 11
1501.668285
 21
1333.682682
 31
0.0
  0
ARC
  5
BEFC
100
AcDbEntity
  8
0
100
AcDbCircle
 10
1504.755259
 20
1338.82764
 30
0.0
 40
6.0
100
AcDbArc
 50
180.0
 51
239.036243
  0
LINE
  5
BEFD
100
AcDbEntity
  8
0
100
AcDbLine
 10
1521.535557
 20
1720.372514
 30
0.0
 11
1522.195961
 21
1722.836394
 31
0.0
  0
ARC
  5
BEFE
100
AcDbEntity
  8
0
100
AcDbCircle
 10
1533.827295
 20
1700.849106
 30
0.0
 40
6.537718
100
AcDbArc
 50
162.999617
 51
227.000383
  0
LINE
  5
BEFF
100
AcDbEntity
  8
0
100
AcDbLine
 10
1529.368355
 20
1696.068657
 30
0.0
 11
1527.564488
 21
1697.872238
 31
0.0
  0
ARC
  5
BF00
100
AcDbEntity
  8
0
100
AcDbCircle
 10
1548.635923
 20
1715.575656
 30
0.0
 40
24.653145
100
AcDbArc
 50
178.680185
 51
211.319815
  0
ARC
  5
BF01
100
AcDbEntity
  8
0
100
AcDbCircle
 10
1528.447978
 20
1720.924902
 30
0.0
 40
6.537699
100
AcDbArc
 50
162.999511
 51
227.000489
  0
LINE
  5
BF02
100
AcDbEntity
  8
0
100
AcDbLine
 10
1527.564488
 20
1697.872238
 30
0.0
 11
1521.535557
 21
1720.372514
 31
0.0
  0
LINE
  5
BF03
100
AcDbEntity
  8
0
100
AcDbLine
 10
1527.575256
 20
1702.760591
 30
0.0
 11
1536.00238
 21
1705.018632
 31
0.0
  0
LINE
  5
BF04
100
AcDbEntity
  8
0
100
AcDbLine
 10
1537.795478
 20
1698.326698
 30
0.0
 11
1529.368355
 21
1696.068657
 31
0.0
  0
LINE
  5
BF05
100
AcDbEntity
  8
0
100
AcDbLine
 10
1523.989318
 20
1716.143494
 30
0.0
 11
1532.416442
 21
1718.401535
 31
0.0
  0
LINE
  5
BF06
100
AcDbEntity
  8
0
100
AcDbLine
 10
1522.195961
 20
1722.836394
 30
0.0
 11
1530.623084
 21
1725.094435
 31
0.0
  0
LINE
  5
BF07
100
AcDbEntity
  8
0
100
AcDbLine
 10
1474.755259
 20
2015.555961
 30
0.0
 11
1474.755259
 21
2120.555961
 31
0.0
  0
LINE
  5
BF08
100
AcDbEntity
  8
0
100
AcDbLine
 10
1498.755259
 20
1910.555961
 30
0.0
 11
1498.755259
 21
2120.555961
 31
0.0
  0
LINE
  5
BF09
100
AcDbEntity
  8
0
100
AcDbLine
 10
1500.849581
 20
1797.573628
 30
0.0
 11
1494.820651
 21
1820.073904
 31
0.0
  0
ARC
  5
BF0A
100
AcDbEntity
  8
0
100
AcDbCircle
 10
1521.921016
 20
1815.277046
 30
0.0
 40
24.653145
100
AcDbArc
 50
178.680185
 51
211.319815
  0
LINE
  5
BF0B
100
AcDbEntity
  8
0
100
AcDbLine
 10
1500.48335
 20
1798.940422
 30
0.0
 11
1487.926314
 21
1795.575774
 31
0.0
  0
ARC
  5
BF0C
100
AcDbEntity
  8
0
100
AcDbCircle
 10
1496.984981
 20
1761.76837
 30
0.0
 40
5.0
100
AcDbArc
 50
195.0
 51
285.0
  0
LINE
  5
BF0D
100
AcDbEntity
  8
0
100
AcDbLine
 10
1484.390781
 20
1789.45205
 30
0.0
 11
1492.155352
 21
1760.474275
 31
0.0
  0
ARC
  5
BF0E
100
AcDbEntity
  8
0
100
AcDbCircle
 10
1489.22041
 20
1790.746145
 30
0.0
 40
5.0
100
AcDbArc
 50
105.0
 51
195.0
  0
LINE
  5
BF0F
100
AcDbEntity
  8
0
100
AcDbLine
 10
1511.130284
 20
1764.134062
 30
0.0
 11
1519.557408
 21
1766.392103
 31
0.0
  0
LINE
  5
BF10
100
AcDbEntity
  8
0
100
AcDbLine
 10
1512.923642
 20
1757.441162
 30
0.0
 11
1521.350765
 21
1759.699203
 31
0.0
  0
LINE
  5
BF11
100
AcDbEntity
  8
0
100
AcDbLine
 10
1516.509579
 20
1744.058259
 30
0.0
 11
1524.936703
 21
1746.3163
 31
0.0
  0
LINE
  5
BF12
100
AcDbEntity
  8
0
100
AcDbLine
 10
1526.729801
 20
1739.624366
 30
0.0
 11
1518.302678
 21
1737.366325
 31
0.0
  0
ARC
  5
BF13
100
AcDbEntity
  8
0
100
AcDbCircle
 10
1517.382301
 20
1762.22257
 30
0.0
 40
6.537699
100
AcDbArc
 50
162.999511
 51
227.000489
  0
LINE
  5
BF14
100
AcDbEntity
  8
0
100
AcDbLine
 10
1510.469881
 20
1761.670182
 30
0.0
 11
1511.130284
 21
1764.134062
 31
0.0
  0
LINE
  5
BF15
100
AcDbEntity
  8
0
100
AcDbLine
 10
1510.836112
 20
1760.303388
 30
0.0
 11
1498.279076
 21
1756.938741
 31
0.0
  0
ARC
  5
BF16
100
AcDbEntity
  8
0
100
AcDbCircle
 10
1522.761618
 20
1742.146774
 30
0.0
 40
6.537718
100
AcDbArc
 50
162.999617
 51
227.000383
  0
LINE
  5
BF17
100
AcDbEntity
  8
0
100
AcDbLine
 10
1518.302678
 20
1737.366325
 30
0.0
 11
1516.498812
 21
1739.169906
 31
0.0
  0
LINE
  5
BF18
100
AcDbEntity
  8
0
100
AcDbLine
 10
1516.498812
 20
1739.169906
 30
0.0
 11
1510.469881
 21
1761.670182
 31
0.0
  0
ARC
  5
BF19
100
AcDbEntity
  8
0
100
AcDbCircle
 10
1537.570246
 20
1756.873324
 30
0.0
 40
24.653145
100
AcDbArc
 50
178.680185
 51
211.319815
  0
LINE
  5
BF1A
100
AcDbEntity
  8
0
100
AcDbLine
 10
1511.080571
 20
1798.028088
 30
0.0
 11
1502.653448
 21
1795.770047
 31
0.0
  0
ARC
  5
BF1B
100
AcDbEntity
  8
0
100
AcDbCircle
 10
1507.112388
 20
1800.550496
 30
0.0
 40
6.537718
100
AcDbArc
 50
162.999617
 51
227.000383
  0
LINE
  5
BF1C
100
AcDbEntity
  8
0
100
AcDbLine
 10
1502.653448
 20
1795.770047
 30
0.0
 11
1500.849581
 21
1797.573628
 31
0.0
  0
LINE
  5
BF1D
100
AcDbEntity
  8
0
100
AcDbLine
 10
1500.860349
 20
1802.461981
 30
0.0
 11
1509.287473
 21
1804.720022
 31
0.0
  0
LINE
  5
BF1E
100
AcDbEntity
  8
0
100
AcDbLine
 10
1490.73118
 20
1873.973049
 30
0.0
 11
1510.049697
 21
1879.14943
 31
0.0
  0
LINE
  5
BF1F
100
AcDbEntity
  8
0
100
AcDbLine
 10
1489.794673
 20
1843.759649
 30
0.0
 11
1498.221796
 21
1846.01769
 31
0.0
  0
LINE
  5
BF20
100
AcDbEntity
  8
0
100
AcDbLine
 10
1500.014894
 20
1839.325756
 30
0.0
 11
1491.587771
 21
1837.067715
 31
0.0
  0
LINE
  5
BF21
100
AcDbEntity
  8
0
100
AcDbLine
 10
1495.481054
 20
1822.537784
 30
0.0
 11
1503.908178
 21
1824.795825
 31
0.0
  0
LINE
  5
BF22
100
AcDbEntity
  8
0
100
AcDbLine
 10
1497.274411
 20
1815.844884
 30
0.0
 11
1505.701535
 21
1818.102925
 31
0.0
  0
LINE
  5
BF23
100
AcDbEntity
  8
0
100
AcDbLine
 10
1489.783905
 20
1838.871296
 30
0.0
 11
1483.754974
 21
1861.371572
 31
0.0
  0
ARC
  5
BF24
100
AcDbEntity
  8
0
100
AcDbCircle
 10
1510.855339
 20
1856.574714
 30
0.0
 40
24.653145
100
AcDbArc
 50
178.680185
 51
211.319815
  0
ARC
  5
BF25
100
AcDbEntity
  8
0
100
AcDbCircle
 10
1501.733071
 20
1820.626292
 30
0.0
 40
6.537699
100
AcDbArc
 50
162.999511
 51
227.000489
  0
LINE
  5
BF26
100
AcDbEntity
  8
0
100
AcDbLine
 10
1494.820651
 20
1820.073904
 30
0.0
 11
1495.481054
 21
1822.537784
 31
0.0
  0
ARC
  5
BF27
100
AcDbEntity
  8
0
100
AcDbCircle
 10
1496.046711
 20
1841.848164
 30
0.0
 40
6.537718
100
AcDbArc
 50
162.999617
 51
227.000383
  0
LINE
  5
BF28
100
AcDbEntity
  8
0
100
AcDbLine
 10
1491.587771
 20
1837.067715
 30
0.0
 11
1489.783905
 21
1838.871296
 31
0.0
  0
LINE
  5
BF29
100
AcDbEntity
  8
0
100
AcDbLine
 10
1484.415377
 20
1863.835452
 30
0.0
 11
1492.842501
 21
1866.093493
 31
0.0
  0
LINE
  5
BF2A
100
AcDbEntity
  8
0
100
AcDbLine
 10
1486.208735
 20
1857.142552
 30
0.0
 11
1494.635858
 21
1859.400593
 31
0.0
  0
ARC
  5
BF2B
100
AcDbEntity
  8
0
100
AcDbCircle
 10
1490.667394
 20
1861.92396
 30
0.0
 40
6.537699
100
AcDbArc
 50
162.999511
 51
227.000489
  0
LINE
  5
BF2C
100
AcDbEntity
  8
0
100
AcDbLine
 10
1483.754974
 20
1861.371572
 30
0.0
 11
1484.415377
 21
1863.835452
 31
0.0
  0
LINE
  5
BF2D
100
AcDbEntity
  8
0
100
AcDbLine
 10
1510.049697
 20
1879.14943
 30
0.0
 11
1529.368213
 21
1884.325811
 31
0.0
  0
LINE
  5
BF2E
100
AcDbEntity
  8
0
100
AcDbLine
 10
1474.755259
 20
1910.555961
 30
0.0
 11
1474.755259
 21
2015.555961
 31
0.0
  0
LINE
  5
BF2F
100
AcDbEntity
  8
0
100
AcDbLine
 10
1498.755259
 20
1910.555961
 30
0.0
 11
1474.755259
 21
1910.555961
 31
0.0
  0
LINE
  5
BF30
100
AcDbEntity
  8
0
100
AcDbLine
 10
1498.755259
 20
1950.555961
 30
0.0
 11
1523.284283
 21
1954.480605
 31
0.0
  0
ARC
  5
BF31
100
AcDbEntity
  8
0
100
AcDbCircle
 10
1524.232226
 20
1948.555961
 30
0.0
 40
6.0
100
AcDbArc
 50
90.0
 51
99.090277
  0
LINE
  5
BF32
100
AcDbEntity
  8
0
100
AcDbLine
 10
1498.755259
 20
2120.555961
 30
0.0
 11
1474.755259
 21
2120.555961
 31
0.0
  0
LINE
  5
BF33
100
AcDbEntity
  8
0
100
AcDbLine
 10
1523.755259
 20
2076.555961
 30
0.0
 11
1498.755259
 21
2080.555961
 31
0.0
  0
LINE
  5
BF36
100
AcDbEntity
  8
0
100
AcDbLine
 10
1885.361088
 20
544.000377
 30
0.0
 11
1972.695982
 21
520.599063
 31
0.0
  0
LINE
  5
BF37
100
AcDbEntity
  8
0
100
AcDbLine
 10
1937.255259
 20
880.241049
 30
0.0
 11
1607.255259
 21
880.241049
 31
0.0
  0
LINE
  5
BF38
100
AcDbEntity
  8
0
100
AcDbLine
 10
1609.255259
 20
905.241049
 30
0.0
 11
1935.255259
 21
905.241049
 31
0.0
  0
LINE
  5
BF39
100
AcDbEntity
  8
0
100
AcDbLine
 10
1607.255259
 20
881.241049
 30
0.0
 11
1937.255259
 21
881.241049
 31
0.0
  0
ARC
  5
BF3A
100
AcDbEntity
  8
0
100
AcDbCircle
 10
1772.255259
 20
657.741049
 30
0.0
 40
127.0
100
AcDbArc
 50
180.0
 51
0.0
  0
LINE
  5
BF3B
100
AcDbEntity
  8
0
100
AcDbLine
 10
1932.255259
 20
841.241049
 30
0.0
 11
1612.255259
 21
841.241049
 31
0.0
  0
LINE
  5
BF3C
100
AcDbEntity
  8
0
100
AcDbLine
 10
1552.255259
 20
565.241049
 30
0.0
 11
1552.255259
 21
785.741049
 31
0.0
  0
LINE
  5
BF3D
100
AcDbEntity
  8
0
100
AcDbLine
 10
1645.255259
 20
657.741049
 30
0.0
 11
1645.255259
 21
836.241049
 31
0.0
  0
LINE
  5
BF3E
100
AcDbEntity
  8
0
100
AcDbLine
 10
1652.255259
 20
465.241049
 30
0.0
 11
1825.255259
 21
465.241049
 31
0.0
  0
ARC
  5
BF3F
100
AcDbEntity
  8
0
100
AcDbCircle
 10
1652.255259
 20
565.241049
 30
0.0
 40
100.0
100
AcDbArc
 50
240.010184
 51
270.0
  0
LINE
  5
BF40
100
AcDbEntity
  8
0
100
AcDbLine
 10
1592.220236
 20
489.751358
 30
0.0
 11
1572.255259
 21
415.241049
 31
0.0
  0
LINE
  5
BF41
100
AcDbEntity
  8
0
100
AcDbLine
 10
1561.444088
 20
520.269846
 30
0.0
 11
1552.255259
 21
415.241049
 31
0.0
  0
LINE
  5
BF42
100
AcDbEntity
  8
0
100
AcDbLine
 10
1572.255259
 20
415.241049
 30
0.0
 11
1552.255259
 21
415.241049
 31
0.0
  0
ARC
  5
BF43
100
AcDbEntity
  8
0
100
AcDbCircle
 10
1597.272192
 20
469.968481
 30
0.0
 40
10.0
100
AcDbArc
 50
60.010184
 51
165.0
  0
ARC
  5
BF44
100
AcDbEntity
  8
0
100
AcDbCircle
 10
1652.255259
 20
565.241049
 30
0.0
 40
100.0
100
AcDbArc
 50
180.0
 51
203.634821
  0
ARC
  5
BF45
100
AcDbEntity
  8
0
100
AcDbCircle
 10
1551.482141
 20
521.141404
 30
0.0
 40
10.0
100
AcDbArc
 50
355.0
 51
23.634821
  0
LINE
  5
BF46
100
AcDbEntity
  8
0
100
AcDbLine
 10
1808.255259
 20
456.241049
 30
0.0
 11
1736.255259
 21
456.241049
 31
0.0
  0
CIRCLE
  5
BF47
100
AcDbEntity
  8
0
100
AcDbCircle
 10
1772.255259
 20
495.241049
 30
0.0
 40
20.0
  0
LINE
  5
BF48
100
AcDbEntity
  8
0
100
AcDbLine
 10
1802.062259
 20
449.241049
 30
0.0
 11
1742.448259
 21
449.241049
 31
0.0
  0
LINE
  5
BF49
100
AcDbEntity
  8
0
100
AcDbLine
 10
1794.882676
 20
434.241049
 30
0.0
 11
1749.627842
 21
434.241049
 31
0.0
  0
LINE
  5
BF4A
100
AcDbEntity
  8
0
100
AcDbLine
 10
1749.627842
 20
434.241049
 30
0.0
 11
1749.627842
 21
449.241049
 31
0.0
  0
ARC
  5
BF4B
100
AcDbEntity
  8
0
100
AcDbCircle
 10
1724.636309
 20
459.241049
 30
0.0
 40
6.0
100
AcDbArc
 50
14.477512
 51
90.0
  0
ARC
  5
BF4C
100
AcDbEntity
  8
0
100
AcDbCircle
 10
1736.255259
 20
462.241049
 30
0.0
 40
6.0
100
AcDbArc
 50
194.477512
 51
270.0
  0
LINE
  5
BF4D
100
AcDbEntity
  8
0
100
AcDbLine
 10
1742.448259
 20
449.241049
 30
0.0
 11
1742.667126
 21
456.241049
 31
0.0
  0
LINE
  5
BF4E
100
AcDbEntity
  8
0
100
AcDbLine
 10
1794.882676
 20
434.241049
 30
0.0
 11
1794.882676
 21
449.241049
 31
0.0
  0
LINE
  5
BF4F
100
AcDbEntity
  8
0
100
AcDbLine
 10
1772.255259
 20
434.241049
 30
0.0
 11
1772.255259
 21
449.241049
 31
0.0
  0
LINE
  5
BF50
100
AcDbEntity
  8
0
100
AcDbLine
 10
1802.062259
 20
449.241049
 30
0.0
 11
1801.843392
 21
456.241049
 31
0.0
  0
LINE
  5
BF51
100
AcDbEntity
  8
0
100
AcDbLine
 10
1772.255259
 20
485.341554
 30
0.0
 11
1782.154754
 21
495.241049
 31
0.0
  0
LINE
  5
BF52
100
AcDbEntity
  8
0
100
AcDbLine
 10
1772.255259
 20
505.140544
 30
0.0
 11
1782.154754
 21
495.241049
 31
0.0
  0
CIRCLE
  5
BF53
100
AcDbEntity
  8
0
100
AcDbCircle
 10
1772.255259
 20
495.241049
 30
0.0
 40
10.4775
  0
LINE
  5
BF54
100
AcDbEntity
  8
0
100
AcDbLine
 10
1762.355764
 20
495.241049
 30
0.0
 11
1772.255259
 21
505.140544
 31
0.0
  0
LINE
  5
BF55
100
AcDbEntity
  8
0
100
AcDbLine
 10
1762.355764
 20
495.241049
 30
0.0
 11
1772.255259
 21
485.341554
 31
0.0
  0
ARC
  5
BF56
100
AcDbEntity
  8
0
100
AcDbCircle
 10
1825.255259
 20
510.241049
 30
0.0
 40
45.0
100
AcDbArc
 50
270.0
 51
0.0
  0
LINE
  5
BF57
100
AcDbEntity
  8
0
100
AcDbLine
 10
1870.255259
 20
415.241049
 30
0.0
 11
1863.953167
 21
487.274292
 31
0.0
  0
LINE
  5
BF58
100
AcDbEntity
  8
0
100
AcDbLine
 10
1850.255259
 20
415.241049
 30
0.0
 11
1836.476878
 21
466.662668
 31
0.0
  0
ARC
  5
BF59
100
AcDbEntity
  8
0
100
AcDbCircle
 10
1808.255259
 20
462.241049
 30
0.0
 40
6.0
100
AcDbArc
 50
270.0
 51
345.522488
  0
ARC
  5
BF5A
100
AcDbEntity
  8
0
100
AcDbCircle
 10
1819.874209
 20
459.241049
 30
0.0
 40
6.0
100
AcDbArc
 50
90.0
 51
165.522488
  0
LINE
  5
BF5B
100
AcDbEntity
  8
0
100
AcDbLine
 10
1870.255259
 20
415.241049
 30
0.0
 11
1850.255259
 21
415.241049
 31
0.0
  0
LINE
  5
BF5C
100
AcDbEntity
  8
0
100
AcDbLine
 10
1870.255259
 20
510.241049
 30
0.0
 11
1870.255259
 21
532.409267
 31
0.0
  0
ARC
  5
BF5D
100
AcDbEntity
  8
0
100
AcDbCircle
 10
1882.255259
 20
532.409267
 30
0.0
 40
12.0
100
AcDbArc
 50
75.0
 51
180.0
  0
LINE
  5
BF5E
100
AcDbEntity
  8
0
100
AcDbLine
 10
1867.651297
 20
921.241049
 30
0.0
 11
1676.859221
 21
921.241049
 31
0.0
  0
LINE
  5
BF5F
100
AcDbEntity
  8
0
100
AcDbLine
 10
1607.255259
 20
903.241049
 30
0.0
 11
1607.255259
 21
881.241049
 31
0.0
  0
LINE
  5
BF60
100
AcDbEntity
  8
0
100
AcDbLine
 10
1552.255259
 20
810.241049
 30
0.0
 11
1645.255259
 21
810.241049
 31
0.0
  0
ARC
  5
BF61
100
AcDbEntity
  8
0
100
AcDbCircle
 10
1542.255259
 20
739.241049
 30
0.0
 40
10.0
100
AcDbArc
 50
0.0
 51
90.0
  0
LINE
  5
BF62
100
AcDbEntity
  8
0
100
AcDbLine
 10
1607.255259
 20
846.241049
 30
0.0
 11
1607.255259
 21
880.241049
 31
0.0
  0
ARC
  5
BF63
100
AcDbEntity
  8
0
100
AcDbCircle
 10
1612.255259
 20
846.241049
 30
0.0
 40
5.0
100
AcDbArc
 50
180.0
 51
270.0
  0
ARC
  5
BF64
100
AcDbEntity
  8
0
100
AcDbCircle
 10
1640.255259
 20
836.241049
 30
0.0
 40
5.0
100
AcDbArc
 50
360.0
 51
90.0
  0
LINE
  5
BF65
100
AcDbEntity
  8
0
100
AcDbLine
 10
1643.255259
 20
880.241049
 30
0.0
 11
1643.255259
 21
881.241049
 31
0.0
  0
ARC
  5
BF66
100
AcDbEntity
  8
0
100
AcDbCircle
 10
1634.352064
 20
886.071842
 30
0.0
 40
30.816876
100
AcDbArc
 50
73.680185
 51
106.319815
  0
LINE
  5
BF67
100
AcDbEntity
  8
0
100
AcDbLine
 10
1648.910564
 20
917.241049
 30
0.0
 11
1619.792564
 21
917.241049
 31
0.0
  0
LINE
  5
BF68
100
AcDbEntity
  8
0
100
AcDbLine
 10
1625.692564
 20
915.647049
 30
0.0
 11
1625.692564
 21
905.241049
 31
0.0
  0
LINE
  5
BF69
100
AcDbEntity
  8
0
100
AcDbLine
 10
1609.255259
 20
905.241049
 30
0.0
 11
1607.255259
 21
903.241049
 31
0.0
  0
LINE
  5
BF6A
100
AcDbEntity
  8
0
100
AcDbLine
 10
1617.031564
 20
915.647049
 30
0.0
 11
1617.031564
 21
905.241049
 31
0.0
  0
LINE
  5
BF6B
100
AcDbEntity
  8
0
100
AcDbLine
 10
1619.792564
 20
917.241049
 30
0.0
 11
1617.031564
 21
915.647049
 31
0.0
  0
ARC
  5
BF6C
100
AcDbEntity
  8
0
100
AcDbCircle
 10
1621.362064
 20
908.716761
 30
0.0
 40
8.172033
100
AcDbArc
 50
58.000147
 51
121.999853
  0
ARC
  5
BF6D
100
AcDbEntity
  8
0
100
AcDbCircle
 10
1676.859221
 20
915.241049
 30
0.0
 40
6.0
100
AcDbArc
 50
90.0
 51
165.0
  0
ARC
  5
BF6E
100
AcDbEntity
  8
0
100
AcDbCircle
 10
1674.036398
 20
908.716761
 30
0.0
 40
8.172033
100
AcDbArc
 50
58.000147
 51
121.999853
  0
LINE
  5
BF6F
100
AcDbEntity
  8
0
100
AcDbLine
 10
1672.466898
 20
917.241049
 30
0.0
 11
1669.705898
 21
915.647049
 31
0.0
  0
ARC
  5
BF70
100
AcDbEntity
  8
0
100
AcDbCircle
 10
1647.342064
 20
908.71679
 30
0.0
 40
8.172009
100
AcDbArc
 50
58.000041
 51
121.999959
  0
LINE
  5
BF71
100
AcDbEntity
  8
0
100
AcDbLine
 10
1651.672564
 20
915.647049
 30
0.0
 11
1648.910564
 21
917.241049
 31
0.0
  0
LINE
  5
BF72
100
AcDbEntity
  8
0
100
AcDbLine
 10
1643.011564
 20
915.647049
 30
0.0
 11
1643.011564
 21
905.241049
 31
0.0
  0
ARC
  5
BF73
100
AcDbEntity
  8
0
100
AcDbCircle
 10
1663.36411
 20
911.241049
 30
0.0
 40
6.0
100
AcDbArc
 50
270.0
 51
345.0
  0
LINE
  5
BF74
100
AcDbEntity
  8
0
100
AcDbLine
 10
1669.159665
 20
909.688135
 30
0.0
 11
1669.705898
 21
911.726702
 31
0.0
  0
LINE
  5
BF75
100
AcDbEntity
  8
0
100
AcDbLine
 10
1651.672564
 20
905.241049
 30
0.0
 11
1651.672564
 21
915.647049
 31
0.0
  0
LINE
  5
BF76
100
AcDbEntity
  8
0
100
AcDbLine
 10
1669.705898
 20
915.647049
 30
0.0
 11
1669.705898
 21
905.241049
 31
0.0
  0
LINE
  5
BF77
100
AcDbEntity
  8
0
100
AcDbLine
 10
1670.948589
 20
916.364488
 30
0.0
 11
1671.063666
 21
916.793963
 31
0.0
  0
LINE
  5
BF78
100
AcDbEntity
  8
0
100
AcDbLine
 10
1701.584898
 20
917.241049
 30
0.0
 11
1672.466898
 21
917.241049
 31
0.0
  0
ARC
  5
BF79
100
AcDbEntity
  8
0
100
AcDbCircle
 10
1687.026398
 20
886.071842
 30
0.0
 40
30.816876
100
AcDbArc
 50
73.680185
 51
106.319815
  0
LINE
  5
BF7A
100
AcDbEntity
  8
0
100
AcDbLine
 10
1678.366898
 20
915.647049
 30
0.0
 11
1678.366898
 21
905.241049
 31
0.0
  0
ARC
  5
BF7B
100
AcDbEntity
  8
0
100
AcDbCircle
 10
1700.016398
 20
908.71679
 30
0.0
 40
8.172009
100
AcDbArc
 50
58.000041
 51
121.999959
  0
LINE
  5
BF7C
100
AcDbEntity
  8
0
100
AcDbLine
 10
1695.685898
 20
915.647049
 30
0.0
 11
1695.685898
 21
905.241049
 31
0.0
  0
LINE
  5
BF7D
100
AcDbEntity
  8
0
100
AcDbLine
 10
1704.346898
 20
905.241049
 30
0.0
 11
1704.346898
 21
915.647049
 31
0.0
  0
LINE
  5
BF7E
100
AcDbEntity
  8
0
100
AcDbLine
 10
1704.346898
 20
915.647049
 30
0.0
 11
1701.584898
 21
917.241049
 31
0.0
  0
LINE
  5
BF7F
100
AcDbEntity
  8
0
100
AcDbLine
 10
1729.255259
 20
925.241049
 30
0.0
 11
1815.255259
 21
925.241049
 31
0.0
  0
ARC
  5
BF80
100
AcDbEntity
  8
0
100
AcDbCircle
 10
1759.265259
 20
908.716761
 30
0.0
 40
8.172033
100
AcDbArc
 50
58.000147
 51
121.999853
  0
LINE
  5
BF81
100
AcDbEntity
  8
0
100
AcDbLine
 10
1786.813759
 20
917.241049
 30
0.0
 11
1757.695759
 21
917.241049
 31
0.0
  0
ARC
  5
BF82
100
AcDbEntity
  8
0
100
AcDbCircle
 10
1729.255259
 20
923.241049
 30
0.0
 40
2.0
100
AcDbArc
 50
90.0
 51
180.0
  0
ARC
  5
BF83
100
AcDbEntity
  8
0
100
AcDbCircle
 10
1725.255259
 20
923.241049
 30
0.0
 40
2.0
100
AcDbArc
 50
270.0
 51
0.0
  0
LINE
  5
BF84
100
AcDbEntity
  8
0
100
AcDbLine
 10
1754.934759
 20
915.647049
 30
0.0
 11
1754.934759
 21
905.241049
 31
0.0
  0
LINE
  5
BF85
100
AcDbEntity
  8
0
100
AcDbLine
 10
1757.695759
 20
917.241049
 30
0.0
 11
1754.934759
 21
915.647049
 31
0.0
  0
ARC
  5
BF86
100
AcDbEntity
  8
0
100
AcDbCircle
 10
1772.255259
 20
886.071842
 30
0.0
 40
30.816876
100
AcDbArc
 50
73.680185
 51
106.319815
  0
LINE
  5
BF87
100
AcDbEntity
  8
0
100
AcDbLine
 10
1763.595759
 20
915.647049
 30
0.0
 11
1763.595759
 21
905.241049
 31
0.0
  0
ARC
  5
BF88
100
AcDbEntity
  8
0
100
AcDbCircle
 10
1785.245259
 20
908.71679
 30
0.0
 40
8.172009
100
AcDbArc
 50
58.000041
 51
121.999959
  0
LINE
  5
BF89
100
AcDbEntity
  8
0
100
AcDbLine
 10
1780.914759
 20
915.647049
 30
0.0
 11
1780.914759
 21
905.241049
 31
0.0
  0
LINE
  5
BF8A
100
AcDbEntity
  8
0
100
AcDbLine
 10
1789.575759
 20
905.241049
 30
0.0
 11
1789.575759
 21
915.647049
 31
0.0
  0
LINE
  5
BF8B
100
AcDbEntity
  8
0
100
AcDbLine
 10
1789.575759
 20
915.647049
 30
0.0
 11
1786.813759
 21
917.241049
 31
0.0
  0
ARC
  5
BF8C
100
AcDbEntity
  8
0
100
AcDbCircle
 10
1844.494121
 20
908.716761
 30
0.0
 40
8.172033
100
AcDbArc
 50
58.000147
 51
121.999853
  0
LINE
  5
BF8D
100
AcDbEntity
  8
0
100
AcDbLine
 10
1872.042621
 20
917.241049
 30
0.0
 11
1842.924621
 21
917.241049
 31
0.0
  0
ARC
  5
BF8E
100
AcDbEntity
  8
0
100
AcDbCircle
 10
1819.255259
 20
923.241049
 30
0.0
 40
2.0
100
AcDbArc
 50
180.0
 51
270.0
  0
ARC
  5
BF8F
100
AcDbEntity
  8
0
100
AcDbCircle
 10
1815.255259
 20
923.241049
 30
0.0
 40
2.0
100
AcDbArc
 50
0.0
 51
90.0
  0
LINE
  5
BF90
100
AcDbEntity
  8
0
100
AcDbLine
 10
1840.163621
 20
915.647049
 30
0.0
 11
1840.163621
 21
905.241049
 31
0.0
  0
LINE
  5
BF91
100
AcDbEntity
  8
0
100
AcDbLine
 10
1842.924621
 20
917.241049
 30
0.0
 11
1840.163621
 21
915.647049
 31
0.0
  0
ARC
  5
BF92
100
AcDbEntity
  8
0
100
AcDbCircle
 10
1870.474121
 20
908.71679
 30
0.0
 40
8.172009
100
AcDbArc
 50
58.000041
 51
121.999959
  0
LINE
  5
BF93
100
AcDbEntity
  8
0
100
AcDbLine
 10
1866.143621
 20
915.647049
 30
0.0
 11
1866.143621
 21
905.241049
 31
0.0
  0
LINE
  5
BF94
100
AcDbEntity
  8
0
100
AcDbLine
 10
1848.824621
 20
915.647049
 30
0.0
 11
1848.824621
 21
905.241049
 31
0.0
  0
ARC
  5
BF95
100
AcDbEntity
  8
0
100
AcDbCircle
 10
1857.484121
 20
886.071842
 30
0.0
 40
30.816876
100
AcDbArc
 50
73.680185
 51
106.319815
  0
ARC
  5
BF96
100
AcDbEntity
  8
0
100
AcDbCircle
 10
1867.651297
 20
915.241049
 30
0.0
 40
6.0
100
AcDbArc
 50
15.0
 51
90.0
  0
LINE
  5
BF97
100
AcDbEntity
  8
0
100
AcDbLine
 10
1875.350853
 20
909.688135
 30
0.0
 11
1874.804621
 21
911.726702
 31
0.0
  0
LINE
  5
BF98
100
AcDbEntity
  8
0
100
AcDbLine
 10
1874.804621
 20
905.241049
 30
0.0
 11
1874.804621
 21
915.647049
 31
0.0
  0
LINE
  5
BF99
100
AcDbEntity
  8
0
100
AcDbLine
 10
1874.804621
 20
915.647049
 30
0.0
 11
1872.042621
 21
917.241049
 31
0.0
  0
LINE
  5
BF9A
100
AcDbEntity
  8
0
100
AcDbLine
 10
1873.562012
 20
916.364181
 30
0.0
 11
1873.446852
 21
916.793963
 31
0.0
  0
ARC
  5
BF9B
100
AcDbEntity
  8
0
100
AcDbCircle
 10
1881.146408
 20
911.241049
 30
0.0
 40
6.0
100
AcDbArc
 50
195.0
 51
270.0
  0
LINE
  5
BF9C
100
AcDbEntity
  8
0
100
AcDbLine
 10
2045.755259
 20
705.241049
 30
0.0
 11
2045.755259
 21
915.241049
 31
0.0
  0
LINE
  5
BF9D
100
AcDbEntity
  8
0
100
AcDbLine
 10
2069.755259
 20
705.241049
 30
0.0
 11
2069.755259
 21
810.241049
 31
0.0
  0
LINE
  5
BF9E
100
AcDbEntity
  8
0
100
AcDbLine
 10
1949.03325
 20
620.919549
 30
0.0
 11
1994.125288
 21
789.205327
 31
0.0
  0
LINE
  5
BF9F
100
AcDbEntity
  8
0
100
AcDbLine
 10
1899.255259
 20
657.741049
 30
0.0
 11
1899.255259
 21
836.241049
 31
0.0
  0
LINE
  5
BFA0
100
AcDbEntity
  8
0
100
AcDbLine
 10
2069.755259
 20
705.241049
 30
0.0
 11
2045.755259
 21
705.241049
 31
0.0
  0
LINE
  5
BFA1
100
AcDbEntity
  8
0
100
AcDbLine
 10
2060.119738
 20
584.137137
 30
0.0
 11
2052.355166
 21
555.159363
 31
0.0
  0
LINE
  5
BFA2
100
AcDbEntity
  8
0
100
AcDbLine
 10
1965.966687
 20
495.484992
 30
0.0
 11
2015.142305
 21
679.010899
 31
0.0
  0
LINE
  5
BFA3
100
AcDbEntity
  8
0
100
AcDbLine
 10
1985.285203
 20
490.308611
 30
0.0
 11
2034.460822
 21
673.834518
 31
0.0
  0
LINE
  5
BFA4
100
AcDbEntity
  8
0
100
AcDbLine
 10
2053.779338
 20
668.658137
 30
0.0
 11
2004.60372
 21
485.13223
 31
0.0
  0
LINE
  5
BFA5
100
AcDbEntity
  8
0
100
AcDbLine
 10
1985.285203
 20
490.308611
 30
0.0
 11
1965.966687
 21
495.484992
 31
0.0
  0
LINE
  5
BFA6
100
AcDbEntity
  8
0
100
AcDbLine
 10
2027.583961
 20
538.021638
 30
0.0
 11
2019.156838
 21
540.279679
 31
0.0
  0
LINE
  5
BFA7
100
AcDbEntity
  8
0
100
AcDbLine
 10
2025.790604
 20
531.328738
 30
0.0
 11
2017.363481
 21
533.586779
 31
0.0
  0
LINE
  5
BFA8
100
AcDbEntity
  8
0
100
AcDbLine
 10
2013.221056
 20
517.292568
 30
0.0
 11
2021.64818
 21
515.034528
 31
0.0
  0
LINE
  5
BFA9
100
AcDbEntity
  8
0
100
AcDbLine
 10
2019.855081
 20
508.342593
 30
0.0
 11
2011.427958
 21
510.600634
 31
0.0
  0
ARC
  5
BFAA
100
AcDbEntity
  8
0
100
AcDbCircle
 10
1995.208477
 20
507.774755
 30
0.0
 40
24.653145
100
AcDbArc
 50
328.680185
 51
1.319815
  0
LINE
  5
BFAB
100
AcDbEntity
  8
0
100
AcDbLine
 10
2022.308583
 20
512.570648
 30
0.0
 11
2016.279653
 21
490.070372
 31
0.0
  0
LINE
  5
BFAC
100
AcDbEntity
  8
0
100
AcDbLine
 10
2004.60372
 20
485.13223
 30
0.0
 11
1985.285203
 21
490.308611
 31
0.0
  0
LINE
  5
BFAD
100
AcDbEntity
  8
0
100
AcDbLine
 10
2016.279653
 20
490.070372
 30
0.0
 11
2014.475786
 21
488.266791
 31
0.0
  0
LINE
  5
BFAE
100
AcDbEntity
  8
0
100
AcDbLine
 10
2014.475786
 20
488.266791
 30
0.0
 11
2006.048663
 21
490.524832
 31
0.0
  0
ARC
  5
BFAF
100
AcDbEntity
  8
0
100
AcDbCircle
 10
2010.017127
 20
493.0482
 30
0.0
 40
6.537699
100
AcDbArc
 50
312.999511
 51
17.000489
  0
LINE
  5
BFB0
100
AcDbEntity
  8
0
100
AcDbLine
 10
2016.269143
 20
494.959691
 30
0.0
 11
2007.84202
 21
497.217732
 31
0.0
  0
LINE
  5
BFB1
100
AcDbEntity
  8
0
100
AcDbLine
 10
2021.64818
 20
515.034528
 30
0.0
 11
2022.308583
 21
512.570648
 31
0.0
  0
ARC
  5
BFB2
100
AcDbEntity
  8
0
100
AcDbCircle
 10
2015.3964
 20
513.124008
 30
0.0
 40
6.537718
100
AcDbArc
 50
312.999617
 51
17.000383
  0
LINE
  5
BFB3
100
AcDbEntity
  8
0
100
AcDbLine
 10
2033.674406
 20
554.988476
 30
0.0
 11
2046.231442
 21
551.623829
 31
0.0
  0
LINE
  5
BFB4
100
AcDbEntity
  8
0
100
AcDbLine
 10
2027.59447
 20
533.132319
 30
0.0
 11
2025.790604
 21
531.328738
 31
0.0
  0
ARC
  5
BFB5
100
AcDbEntity
  8
0
100
AcDbCircle
 10
2021.331945
 20
536.110147
 30
0.0
 40
6.537699
100
AcDbArc
 50
312.999511
 51
17.000489
  0
LINE
  5
BFB6
100
AcDbEntity
  8
0
100
AcDbLine
 10
2031.169899
 20
551.404541
 30
0.0
 11
2022.742776
 21
553.662582
 31
0.0
  0
ARC
  5
BFB7
100
AcDbEntity
  8
0
100
AcDbCircle
 10
2006.523295
 20
550.836703
 30
0.0
 40
24.653145
100
AcDbArc
 50
328.680185
 51
1.319815
  0
LINE
  5
BFB8
100
AcDbEntity
  8
0
100
AcDbLine
 10
2033.623401
 20
555.632595
 30
0.0
 11
2027.59447
 21
533.132319
 31
0.0
  0
LINE
  5
BFB9
100
AcDbEntity
  8
0
100
AcDbLine
 10
2024.535874
 20
560.354516
 30
0.0
 11
2032.962997
 21
558.096475
 31
0.0
  0
LINE
  5
BFBA
100
AcDbEntity
  8
0
100
AcDbLine
 10
2032.962997
 20
558.096475
 30
0.0
 11
2033.623401
 21
555.632595
 31
0.0
  0
ARC
  5
BFBB
100
AcDbEntity
  8
0
100
AcDbCircle
 10
2026.711218
 20
556.185955
 30
0.0
 40
6.537718
100
AcDbArc
 50
312.999617
 51
17.000383
  0
ARC
  5
BFBC
100
AcDbEntity
  8
0
100
AcDbCircle
 10
2047.525537
 20
556.453458
 30
0.0
 40
5.0
100
AcDbArc
 50
255.0
 51
345.0
  0
ARC
  5
BFBD
100
AcDbEntity
  8
0
100
AcDbCircle
 10
1985.750157
 20
680.674844
 30
0.0
 40
20.0
100
AcDbArc
 50
165.0
 51
255.0
  0
ARC
  5
BFBE
100
AcDbEntity
  8
0
100
AcDbCircle
 10
2034.321557
 20
653.746756
 30
0.0
 40
24.653145
100
AcDbArc
 50
328.680185
 51
1.319815
  0
LINE
  5
BFBF
100
AcDbEntity
  8
0
100
AcDbLine
 10
2055.392991
 20
636.043338
 30
0.0
 11
2061.421922
 21
658.543614
 31
0.0
  0
ARC
  5
BFC0
100
AcDbEntity
  8
0
100
AcDbCircle
 10
2022.589503
 20
610.796606
 30
0.0
 40
24.653145
100
AcDbArc
 50
328.680185
 51
1.319815
  0
LINE
  5
BFC1
100
AcDbEntity
  8
0
100
AcDbLine
 10
2043.660937
 20
593.093188
 30
0.0
 11
2049.689868
 21
615.593465
 31
0.0
  0
LINE
  5
BFC2
100
AcDbEntity
  8
0
100
AcDbLine
 10
2033.429947
 20
593.547649
 30
0.0
 11
2041.857071
 21
591.289608
 31
0.0
  0
LINE
  5
BFC3
100
AcDbEntity
  8
0
100
AcDbLine
 10
2043.650169
 20
597.981542
 30
0.0
 11
2035.223046
 21
600.239583
 31
0.0
  0
ARC
  5
BFC4
100
AcDbEntity
  8
0
100
AcDbCircle
 10
2055.290109
 20
585.431233
 30
0.0
 40
5.0
100
AcDbArc
 50
345.0
 51
75.0
  0
LINE
  5
BFC5
100
AcDbEntity
  8
0
100
AcDbLine
 10
2041.857071
 20
591.289608
 30
0.0
 11
2043.660937
 21
593.093188
 31
0.0
  0
ARC
  5
BFC6
100
AcDbEntity
  8
0
100
AcDbCircle
 10
2037.39813
 20
596.070056
 30
0.0
 40
6.537718
100
AcDbArc
 50
312.999617
 51
17.000383
  0
LINE
  5
BFC7
100
AcDbEntity
  8
0
100
AcDbLine
 10
2044.027168
 20
593.625509
 30
0.0
 11
2056.584204
 21
590.260862
 31
0.0
  0
LINE
  5
BFC8
100
AcDbEntity
  8
0
100
AcDbLine
 10
2047.236107
 20
611.364444
 30
0.0
 11
2038.808984
 21
613.622485
 31
0.0
  0
LINE
  5
BFC9
100
AcDbEntity
  8
0
100
AcDbLine
 10
2049.029464
 20
618.057344
 30
0.0
 11
2040.602341
 21
620.315385
 31
0.0
  0
LINE
  5
BFCA
100
AcDbEntity
  8
0
100
AcDbLine
 10
2053.589125
 20
634.239757
 30
0.0
 11
2055.392991
 21
636.043338
 31
0.0
  0
ARC
  5
BFCB
100
AcDbEntity
  8
0
100
AcDbCircle
 10
2049.130185
 20
639.020206
 30
0.0
 40
6.537718
100
AcDbArc
 50
312.999617
 51
17.000383
  0
LINE
  5
BFCC
100
AcDbEntity
  8
0
100
AcDbLine
 10
2049.689868
 20
615.593465
 30
0.0
 11
2049.029464
 21
618.057344
 31
0.0
  0
ARC
  5
BFCD
100
AcDbEntity
  8
0
100
AcDbCircle
 10
2042.777447
 20
616.145853
 30
0.0
 40
6.537699
100
AcDbArc
 50
312.999511
 51
17.000489
  0
LINE
  5
BFCE
100
AcDbEntity
  8
0
100
AcDbLine
 10
2045.162001
 20
636.497798
 30
0.0
 11
2053.589125
 21
634.239757
 31
0.0
  0
LINE
  5
BFCF
100
AcDbEntity
  8
0
100
AcDbLine
 10
2055.382223
 20
640.931691
 30
0.0
 11
2046.9551
 21
643.189732
 31
0.0
  0
LINE
  5
BFD0
100
AcDbEntity
  8
0
100
AcDbLine
 10
2034.460822
 20
673.834518
 30
0.0
 11
2015.142305
 21
679.010899
 31
0.0
  0
LINE
  5
BFD1
100
AcDbEntity
  8
0
100
AcDbLine
 10
1980.573776
 20
661.356327
 30
0.0
 11
2008.41301
 21
653.896827
 31
0.0
  0
LINE
  5
BFD2
100
AcDbEntity
  8
0
100
AcDbLine
 10
2053.779338
 20
668.658137
 30
0.0
 11
2034.460822
 21
673.834518
 31
0.0
  0
LINE
  5
BFD3
100
AcDbEntity
  8
0
100
AcDbLine
 10
2061.421922
 20
658.543614
 30
0.0
 11
2060.761518
 21
661.007494
 31
0.0
  0
LINE
  5
BFD4
100
AcDbEntity
  8
0
100
AcDbLine
 10
2060.761518
 20
661.007494
 30
0.0
 11
2052.334395
 21
663.265535
 31
0.0
  0
ARC
  5
BFD5
100
AcDbEntity
  8
0
100
AcDbCircle
 10
2054.509502
 20
659.096002
 30
0.0
 40
6.537699
100
AcDbArc
 50
312.999511
 51
17.000489
  0
LINE
  5
BFD6
100
AcDbEntity
  8
0
100
AcDbLine
 10
2058.968161
 20
654.314594
 30
0.0
 11
2050.541038
 21
656.572634
 31
0.0
  0
LINE
  5
BFD7
100
AcDbEntity
  8
0
100
AcDbLine
 10
2069.755259
 20
915.241049
 30
0.0
 11
2045.755259
 21
915.241049
 31
0.0
  0
LINE
  5
BFD8
100
AcDbEntity
  8
0
100
AcDbLine
 10
1985.255259
 20
899.241049
 30
0.0
 11
1987.843716
 21
900.735496
 31
0.0
  0
LINE
  5
BFD9
100
AcDbEntity
  8
0
100
AcDbLine
 10
1959.255259
 20
899.241049
 30
0.0
 11
1956.666802
 21
900.735496
 31
0.0
  0
ARC
  5
BFDA
100
AcDbEntity
  8
0
100
AcDbCircle
 10
1972.255259
 20
920.313523
 30
0.0
 40
21.072474
100
AcDbArc
 50
248.291953
 51
291.708047
  0
LINE
  5
BFDB
100
AcDbEntity
  8
0
100
AcDbLine
 10
1937.255259
 20
903.241049
 30
0.0
 11
1937.255259
 21
881.241049
 31
0.0
  0
ARC
  5
BFDC
100
AcDbEntity
  8
0
100
AcDbCircle
 10
1960.563916
 20
905.069585
 30
0.0
 40
5.828536
100
AcDbArc
 50
251.961155
 51
311.961155
  0
ARC
  5
BFDD
100
AcDbEntity
  8
0
100
AcDbCircle
 10
1983.946602
 20
905.069585
 30
0.0
 40
5.828536
100
AcDbArc
 50
228.038845
 51
288.038845
  0
LINE
  5
BFDE
100
AcDbEntity
  8
0
100
AcDbLine
 10
1952.255259
 20
899.241049
 30
0.0
 11
1992.255259
 21
899.241049
 31
0.0
  0
LINE
  5
BFDF
100
AcDbEntity
  8
0
100
AcDbLine
 10
2020.755259
 20
871.241049
 30
0.0
 11
1937.255259
 21
871.241049
 31
0.0
  0
LINE
  5
BFE0
100
AcDbEntity
  8
0
100
AcDbLine
 10
1950.255259
 20
880.241049
 30
0.0
 11
1994.255259
 21
880.241049
 31
0.0
  0
ARC
  5
BFE1
100
AcDbEntity
  8
0
100
AcDbCircle
 10
1972.255259
 20
913.422959
 30
0.0
 40
28.18191
100
AcDbArc
 50
253.541842
 51
286.458158
  0
LINE
  5
BFE2
100
AcDbEntity
  8
0
100
AcDbLine
 10
1992.255259
 20
885.241049
 30
0.0
 11
1952.255259
 21
885.241049
 31
0.0
  0
LINE
  5
BFE3
100
AcDbEntity
  8
0
100
AcDbLine
 10
1957.255259
 20
882.241049
 30
0.0
 11
1987.255259
 21
882.241049
 31
0.0
  0
LINE
  5
BFE4
100
AcDbEntity
  8
0
100
AcDbLine
 10
1994.255259
 20
873.241049
 30
0.0
 11
1950.255259
 21
873.241049
 31
0.0
  0
LINE
  5
BFE5
100
AcDbEntity
  8
0
100
AcDbLine
 10
1899.255259
 20
810.241049
 30
0.0
 11
1999.761793
 21
810.241049
 31
0.0
  0
ARC
  5
BFE6
100
AcDbEntity
  8
0
100
AcDbCircle
 10
1972.255259
 20
871.059139
 30
0.0
 40
28.18191
100
AcDbArc
 50
73.541842
 51
106.458158
  0
ARC
  5
BFE7
100
AcDbEntity
  8
0
100
AcDbCircle
 10
1932.255259
 20
846.241049
 30
0.0
 40
5.0
100
AcDbArc
 50
270.0
 51
0.0
  0
ARC
  5
BFE8
100
AcDbEntity
  8
0
100
AcDbCircle
 10
1904.255259
 20
836.241049
 30
0.0
 40
5.0
100
AcDbArc
 50
90.0
 51
180.0
  0
LINE
  5
BFE9
100
AcDbEntity
  8
0
100
AcDbLine
 10
1901.255259
 20
880.241049
 30
0.0
 11
1901.255259
 21
881.241049
 31
0.0
  0
LINE
  5
BFEA
100
AcDbEntity
  8
0
100
AcDbLine
 10
1937.255259
 20
880.241049
 30
0.0
 11
1937.255259
 21
846.241049
 31
0.0
  0
ARC
  5
BFEB
100
AcDbEntity
  8
0
100
AcDbCircle
 10
1954.374589
 20
893.159138
 30
0.0
 40
7.919109
100
AcDbArc
 50
238.655951
 51
301.344049
  0
ARC
  5
BFEC
100
AcDbEntity
  8
0
100
AcDbCircle
 10
1954.374589
 20
891.322961
 30
0.0
 40
7.919109
100
AcDbArc
 50
58.655951
 51
121.344049
  0
LINE
  5
BFED
100
AcDbEntity
  8
0
100
AcDbLine
 10
1950.255259
 20
871.241049
 30
0.0
 11
1950.255259
 21
873.241049
 31
0.0
  0
LINE
  5
BFEE
100
AcDbEntity
  8
0
100
AcDbLine
 10
1950.255259
 20
886.39575
 30
0.0
 11
1950.255259
 21
898.086349
 31
0.0
  0
LINE
  5
BFEF
100
AcDbEntity
  8
0
100
AcDbLine
 10
1950.255259
 20
873.241049
 30
0.0
 11
1950.255259
 21
880.241049
 31
0.0
  0
LINE
  5
BFF0
100
AcDbEntity
  8
0
100
AcDbLine
 10
1952.255259
 20
885.241049
 30
0.0
 11
1950.255259
 21
886.39575
 31
0.0
  0
LINE
  5
BFF1
100
AcDbEntity
  8
0
100
AcDbLine
 10
1952.255259
 20
899.241049
 30
0.0
 11
1950.255259
 21
898.086349
 31
0.0
  0
LINE
  5
BFF2
100
AcDbEntity
  8
0
100
AcDbLine
 10
1964.270899
 20
886.39575
 30
0.0
 11
1964.270899
 21
898.086349
 31
0.0
  0
LINE
  5
BFF3
100
AcDbEntity
  8
0
100
AcDbLine
 10
1958.493918
 20
886.39575
 30
0.0
 11
1958.493918
 21
898.086349
 31
0.0
  0
LINE
  5
BFF4
100
AcDbEntity
  8
0
100
AcDbLine
 10
1964.270899
 20
873.241049
 30
0.0
 11
1958.493918
 21
873.241049
 31
0.0
  0
LINE
  5
BFF5
100
AcDbEntity
  8
0
100
AcDbLine
 10
1958.493918
 20
873.241049
 30
0.0
 11
1958.493918
 21
880.241049
 31
0.0
  0
LINE
  5
BFF6
100
AcDbEntity
  8
0
100
AcDbLine
 10
1964.270899
 20
873.241049
 30
0.0
 11
1964.270899
 21
880.241049
 31
0.0
  0
LINE
  5
BFF7
100
AcDbEntity
  8
0
100
AcDbLine
 10
1964.270899
 20
886.39575
 30
0.0
 11
1958.493918
 21
886.39575
 31
0.0
  0
LINE
  5
BFF8
100
AcDbEntity
  8
0
100
AcDbLine
 10
1964.270899
 20
898.086349
 30
0.0
 11
1958.493918
 21
898.086349
 31
0.0
  0
LINE
  5
BFF9
100
AcDbEntity
  8
0
100
AcDbLine
 10
1957.255259
 20
885.241049
 30
0.0
 11
1957.255259
 21
882.241049
 31
0.0
  0
ARC
  5
BFFA
100
AcDbEntity
  8
0
100
AcDbCircle
 10
1957.255259
 20
881.241049
 30
0.0
 40
1.0
100
AcDbArc
 50
270.0
 51
90.0
  0
LINE
  5
BFFB
100
AcDbEntity
  8
0
100
AcDbLine
 10
2020.278292
 20
749.241049
 30
0.0
 11
1992.624816
 21
749.241049
 31
0.0
  0
ARC
  5
BFFC
100
AcDbEntity
  8
0
100
AcDbCircle
 10
1992.624816
 20
737.241049
 30
0.0
 40
12.0
100
AcDbArc
 50
90.0
 51
165.0
  0
LINE
  5
BFFD
100
AcDbEntity
  8
0
100
AcDbLine
 10
2045.755259
 20
745.241049
 30
0.0
 11
2021.226235
 21
749.165693
 31
0.0
  0
ARC
  5
BFFE
100
AcDbEntity
  8
0
100
AcDbCircle
 10
2020.278292
 20
743.241049
 30
0.0
 40
6.0
100
AcDbArc
 50
80.909723
 51
90.0
  0
LINE
  5
BFFF
100
AcDbEntity
  8
0
100
AcDbLine
 10
1994.255259
 20
871.241049
 30
0.0
 11
1994.255259
 21
873.241049
 31
0.0
  0
LINE
  5
C000
100
AcDbEntity
  8
0
100
AcDbLine
 10
1994.255259
 20
886.39575
 30
0.0
 11
1994.255259
 21
898.086349
 31
0.0
  0
LINE
  5
C001
100
AcDbEntity
  8
0
100
AcDbLine
 10
1994.255259
 20
873.241049
 30
0.0
 11
1994.255259
 21
880.241049
 31
0.0
  0
LINE
  5
C002
100
AcDbEntity
  8
0
100
AcDbLine
 10
1986.0166
 20
886.39575
 30
0.0
 11
1986.0166
 21
898.086349
 31
0.0
  0
LINE
  5
C003
100
AcDbEntity
  8
0
100
AcDbLine
 10
1980.239619
 20
886.39575
 30
0.0
 11
1980.239619
 21
898.086349
 31
0.0
  0
LINE
  5
C004
100
AcDbEntity
  8
0
100
AcDbLine
 10
1986.0166
 20
873.241049
 30
0.0
 11
1980.239619
 21
873.241049
 31
0.0
  0
LINE
  5
C005
100
AcDbEntity
  8
0
100
AcDbLine
 10
1986.0166
 20
886.39575
 30
0.0
 11
1980.239619
 21
886.39575
 31
0.0
  0
LINE
  5
C006
100
AcDbEntity
  8
0
100
AcDbLine
 10
1980.239619
 20
873.241049
 30
0.0
 11
1980.239619
 21
880.241049
 31
0.0
  0
LINE
  5
C007
100
AcDbEntity
  8
0
100
AcDbLine
 10
1986.0166
 20
873.241049
 30
0.0
 11
1986.0166
 21
880.241049
 31
0.0
  0
LINE
  5
C008
100
AcDbEntity
  8
0
100
AcDbLine
 10
1986.0166
 20
898.086349
 30
0.0
 11
1980.239619
 21
898.086349
 31
0.0
  0
LINE
  5
C009
100
AcDbEntity
  8
0
100
AcDbLine
 10
1987.255259
 20
885.241049
 30
0.0
 11
1987.255259
 21
882.241049
 31
0.0
  0
ARC
  5
C00A
100
AcDbEntity
  8
0
100
AcDbCircle
 10
1987.255259
 20
881.241049
 30
0.0
 40
1.0
100
AcDbArc
 50
90.0
 51
270.0
  0
LINE
  5
C00B
100
AcDbEntity
  8
0
100
AcDbLine
 10
1992.255259
 20
885.241049
 30
0.0
 11
1994.255259
 21
886.39575
 31
0.0
  0
ARC
  5
C00C
100
AcDbEntity
  8
0
100
AcDbCircle
 10
1990.13593
 20
893.159138
 30
0.0
 40
7.919109
100
AcDbArc
 50
238.655951
 51
301.344049
  0
LINE
  5
C00D
100
AcDbEntity
  8
0
100
AcDbLine
 10
1992.255259
 20
899.241049
 30
0.0
 11
1994.255259
 21
898.086349
 31
0.0
  0
ARC
  5
C00E
100
AcDbEntity
  8
0
100
AcDbCircle
 10
1990.13593
 20
891.322961
 30
0.0
 40
7.919109
100
AcDbArc
 50
58.655951
 51
121.344049
  0
LINE
  5
C00F
100
AcDbEntity
  8
0
100
AcDbLine
 10
2020.755259
 20
871.241049
 30
0.0
 11
2045.755259
 21
875.241049
 31
0.0
  0
ARC
  5
C010
100
AcDbEntity
  8
0
100
AcDbCircle
 10
1972.255259
 20
900.168575
 30
0.0
 40
21.072474
100
AcDbArc
 50
68.291953
 51
111.708047
  0
LINE
  5
C011
100
AcDbEntity
  8
0
100
AcDbLine
 10
1985.255259
 20
921.241049
 30
0.0
 11
1959.255259
 21
921.241049
 31
0.0
  0
LINE
  5
C012
100
AcDbEntity
  8
0
100
AcDbLine
 10
1924.716954
 20
917.241049
 30
0.0
 11
1895.598954
 21
917.241049
 31
0.0
  0
ARC
  5
C013
100
AcDbEntity
  8
0
100
AcDbCircle
 10
1910.158454
 20
886.071842
 30
0.0
 40
30.816876
100
AcDbArc
 50
73.680185
 51
106.319815
  0
LINE
  5
C014
100
AcDbEntity
  8
0
100
AcDbLine
 10
1901.498954
 20
915.647049
 30
0.0
 11
1901.498954
 21
905.241049
 31
0.0
  0
LINE
  5
C015
100
AcDbEntity
  8
0
100
AcDbLine
 10
1892.837954
 20
915.647049
 30
0.0
 11
1892.837954
 21
905.241049
 31
0.0
  0
ARC
  5
C016
100
AcDbEntity
  8
0
100
AcDbCircle
 10
1897.168454
 20
908.716761
 30
0.0
 40
8.172033
100
AcDbArc
 50
58.000147
 51
121.999853
  0
LINE
  5
C017
100
AcDbEntity
  8
0
100
AcDbLine
 10
1895.598954
 20
917.241049
 30
0.0
 11
1892.837954
 21
915.647049
 31
0.0
  0
ARC
  5
C018
100
AcDbEntity
  8
0
100
AcDbCircle
 10
1923.148454
 20
908.71679
 30
0.0
 40
8.172009
100
AcDbArc
 50
58.000041
 51
121.999959
  0
LINE
  5
C019
100
AcDbEntity
  8
0
100
AcDbLine
 10
1918.817954
 20
915.647049
 30
0.0
 11
1918.817954
 21
905.241049
 31
0.0
  0
LINE
  5
C01A
100
AcDbEntity
  8
0
100
AcDbLine
 10
1927.478954
 20
905.241049
 30
0.0
 11
1927.478954
 21
915.647049
 31
0.0
  0
LINE
  5
C01B
100
AcDbEntity
  8
0
100
AcDbLine
 10
1927.478954
 20
915.647049
 30
0.0
 11
1924.716954
 21
917.241049
 31
0.0
  0
LINE
  5
C01C
100
AcDbEntity
  8
0
100
AcDbLine
 10
1935.255259
 20
905.241049
 30
0.0
 11
1937.255259
 21
903.241049
 31
0.0
  0
LINE
  5
C01D
100
AcDbEntity
  8
0
100
AcDbLine
 10
1959.255259
 20
921.241049
 30
0.0
 11
1956.666802
 21
919.746603
 31
0.0
  0
LINE
  5
C01E
100
AcDbEntity
  8
0
100
AcDbLine
 10
1956.666802
 20
919.746603
 30
0.0
 11
1956.666802
 21
900.735496
 31
0.0
  0
LINE
  5
C01F
100
AcDbEntity
  8
0
100
AcDbLine
 10
1964.46103
 20
919.746603
 30
0.0
 11
1964.46103
 21
900.735496
 31
0.0
  0
ARC
  5
C020
100
AcDbEntity
  8
0
100
AcDbCircle
 10
1960.563916
 20
915.412513
 30
0.0
 40
5.828536
100
AcDbArc
 50
48.038845
 51
108.038845
  0
ARC
  5
C021
100
AcDbEntity
  8
0
100
AcDbCircle
 10
1983.946602
 20
915.412513
 30
0.0
 40
5.828536
100
AcDbArc
 50
71.961155
 51
131.961155
  0
LINE
  5
C022
100
AcDbEntity
  8
0
100
AcDbLine
 10
1980.049488
 20
919.746603
 30
0.0
 11
1980.049488
 21
900.735496
 31
0.0
  0
LINE
  5
C023
100
AcDbEntity
  8
0
100
AcDbLine
 10
1985.255259
 20
921.241049
 30
0.0
 11
1987.843716
 21
919.746603
 31
0.0
  0
LINE
  5
C024
100
AcDbEntity
  8
0
100
AcDbLine
 10
1987.843716
 20
900.735496
 30
0.0
 11
1987.843716
 21
919.746603
 31
0.0
  0
LINE
  5
C025
100
AcDbEntity
  8
0
100
AcDbLine
 10
2069.755259
 20
810.241049
 30
0.0
 11
2069.755259
 21
915.241049
 31
0.0
  0
ARC
  5
C026
100
AcDbEntity
  8
0
100
AcDbCircle
 10
2463.894792
 20
657.741049
 30
0.0
 40
127.0
100
AcDbArc
 50
318.372691
 51
0.0
  0
LINE
  5
C027
100
AcDbEntity
  8
0
100
AcDbLine
 10
2541.251111
 20
881.241049
 30
0.0
 11
2628.894792
 21
881.241049
 31
0.0
  0
LINE
  5
C028
100
AcDbEntity
  8
0
100
AcDbLine
 10
2508.616152
 20
905.241049
 30
0.0
 11
2626.894792
 21
905.241049
 31
0.0
  0
LINE
  5
C029
100
AcDbEntity
  8
0
100
AcDbLine
 10
2596.194792
 20
917.241049
 30
0.0
 11
2566.194792
 21
917.241049
 31
0.0
  0
ARC
  5
C02A
100
AcDbEntity
  8
0
100
AcDbCircle
 10
2588.694792
 20
898.799758
 30
0.0
 40
18.441291
100
AcDbArc
 50
66.002547
 51
113.997453
  0
LINE
  5
C02B
100
AcDbEntity
  8
0
100
AcDbLine
 10
2628.894792
 20
880.241049
 30
0.0
 11
2542.157171
 21
880.241049
 31
0.0
  0
LINE
  5
C02C
100
AcDbEntity
  8
0
100
AcDbLine
 10
2623.894792
 20
841.241049
 30
0.0
 11
2564.214282
 21
841.241049
 31
0.0
  0
LINE
  5
C02D
100
AcDbEntity
  8
0
100
AcDbLine
 10
2336.894792
 20
657.741049
 30
0.0
 11
2336.894792
 21
836.241049
 31
0.0
  0
CIRCLE
  5
C02E
100
AcDbEntity
  8
0
100
AcDbCircle
 10
2497.379592
 20
729.40159
 30
0.0
 40
9.5
  0
CIRCLE
  5
C02F
100
AcDbEntity
  8
0
100
AcDbCircle
 10
2430.409992
 20
729.40159
 30
0.0
 40
9.5
  0
CIRCLE
  5
C030
100
AcDbEntity
  8
0
100
AcDbCircle
 10
2463.894792
 20
810.241049
 30
0.0
 40
105.0
  0
ELLIPSE
  5
C031
100
AcDbEntity
  8
0
100
AcDbEllipse
 10
2463.894792
 20
576.895183
 30
0.0
 11
-95.0
 21
0.0
 31
0.0
210
0.0
220
0.0
230
1.0
 40
0.965926
 41
0.0
 42
6.283185307179586
  0
ELLIPSE
  5
C032
100
AcDbEntity
  8
0
100
AcDbEllipse
 10
2463.894792
 20
587.247945
 30
0.0
 11
-95.0
 21
0.0
 31
0.0
210
0.0
220
0.0
230
1.0
 40
0.965926
 41
3.11338373441246
 42
6.339625623901304
  0
ELLIPSE
  5
C033
100
AcDbEntity
  8
0
100
AcDbEllipse
 10
2463.894792
 20
582.071564
 30
0.0
 11
-95.0
 21
0.0
 31
0.0
210
0.0
220
0.0
230
1.0
 40
0.965926
 41
3.113383734412431
 42
6.311394226356948
  0
LINE
  5
C034
100
AcDbEntity
  8
0
100
AcDbLine
 10
2400.442643
 20
415.241049
 30
0.0
 11
2527.346941
 21
415.241049
 31
0.0
  0
LINE
  5
C035
100
AcDbEntity
  8
0
100
AcDbLine
 10
2397.894792
 20
475.241049
 30
0.0
 11
2397.894792
 21
510.893393
 31
0.0
  0
LINE
  5
C036
100
AcDbEntity
  8
0
100
AcDbLine
 10
2392.774571
 20
505.841049
 30
0.0
 11
2392.774571
 21
484.641049
 31
0.0
  0
LINE
  5
C037
100
AcDbEntity
  8
0
100
AcDbLine
 10
2397.774571
 20
484.747924
 30
0.0
 11
2392.774571
 21
484.591674
 31
0.0
  0
LINE
  5
C038
100
AcDbEntity
  8
0
100
AcDbLine
 10
2394.465475
 20
421.763984
 30
0.0
 11
2401.950836
 21
507.322057
 31
0.0
  0
ARC
  5
C039
100
AcDbEntity
  8
0
100
AcDbCircle
 10
2400.442643
 20
421.241049
 30
0.0
 40
6.0
100
AcDbArc
 50
175.0
 51
270.0
  0
LINE
  5
C03A
100
AcDbEntity
  8
0
100
AcDbLine
 10
2397.894792
 20
475.241049
 30
0.0
 11
2399.144112
 21
475.241049
 31
0.0
  0
LINE
  5
C03B
100
AcDbEntity
  8
0
100
AcDbLine
 10
2382.774571
 20
485.591049
 30
0.0
 11
2392.774571
 21
485.591049
 31
0.0
  0
LINE
  5
C03C
100
AcDbEntity
  8
0
100
AcDbLine
 10
2382.774571
 20
495.241049
 30
0.0
 11
2392.774571
 21
495.241049
 31
0.0
  0
LINE
  5
C03D
100
AcDbEntity
  8
0
100
AcDbLine
 10
2382.774571
 20
504.891049
 30
0.0
 11
2392.774571
 21
504.891049
 31
0.0
  0
LINE
  5
C03E
100
AcDbEntity
  8
0
100
AcDbLine
 10
2382.774571
 20
504.891049
 30
0.0
 11
2382.774571
 21
485.591049
 31
0.0
  0
LINE
  5
C03F
100
AcDbEntity
  8
0
100
AcDbLine
 10
2392.774571
 20
504.891049
 30
0.0
 11
2392.774571
 21
485.591049
 31
0.0
  0
LINE
  5
C040
100
AcDbEntity
  8
0
100
AcDbLine
 10
2397.774571
 20
505.734174
 30
0.0
 11
2392.774571
 21
505.890424
 31
0.0
  0
ELLIPSE
  5
C041
100
AcDbEntity
  8
0
100
AcDbEllipse
 10
2390.995377
 20
544.455999
 30
0.0
 11
12.0
 21
0.0
 31
0.0
210
0.0
220
0.0
230
-1.0
 40
0.965926
 41
0.0
 42
6.283185307179586
  0
LINE
  5
C042
100
AcDbEntity
  8
0
100
AcDbLine
 10
2390.995377
 20
531.072131
 30
0.0
 11
2378.995377
 21
537.765031
 31
0.0
  0
LINE
  5
C043
100
AcDbEntity
  8
0
100
AcDbLine
 10
2390.995377
 20
557.839868
 30
0.0
 11
2378.995377
 21
551.146968
 31
0.0
  0
LINE
  5
C044
100
AcDbEntity
  8
0
100
AcDbLine
 10
2390.995377
 20
560.428058
 30
0.0
 11
2378.995377
 21
553.735158
 31
0.0
  0
LINE
  5
C045
100
AcDbEntity
  8
0
100
AcDbLine
 10
2378.995377
 20
537.765031
 30
0.0
 11
2378.995377
 21
553.735158
 31
0.0
  0
LINE
  5
C046
100
AcDbEntity
  8
0
100
AcDbLine
 10
2390.995377
 20
560.428058
 30
0.0
 11
2390.995377
 21
557.839868
 31
0.0
  0
LINE
  5
C047
100
AcDbEntity
  8
0
100
AcDbLine
 10
2402.995377
 20
537.765031
 30
0.0
 11
2402.995377
 21
553.735158
 31
0.0
  0
LINE
  5
C048
100
AcDbEntity
  8
0
100
AcDbLine
 10
2390.995377
 20
531.072131
 30
0.0
 11
2402.995377
 21
537.765031
 31
0.0
  0
LINE
  5
C049
100
AcDbEntity
  8
0
100
AcDbLine
 10
2390.995377
 20
557.839868
 30
0.0
 11
2402.995377
 21
551.146968
 31
0.0
  0
LINE
  5
C04A
100
AcDbEntity
  8
0
100
AcDbLine
 10
2390.995377
 20
560.428058
 30
0.0
 11
2402.995377
 21
553.735158
 31
0.0
  0
ARC
  5
C04B
100
AcDbEntity
  8
0
100
AcDbCircle
 10
2463.894792
 20
657.741049
 30
0.0
 40
127.0
100
AcDbArc
 50
180.0
 51
221.627309
  0
LINE
  5
C04C
100
AcDbEntity
  8
0
100
AcDbLine
 10
2378.995377
 20
597.652358
 30
0.0
 11
2378.995377
 21
613.622485
 31
0.0
  0
LINE
  5
C04D
100
AcDbEntity
  8
0
100
AcDbLine
 10
2402.995377
 20
597.652358
 30
0.0
 11
2402.995377
 21
613.622485
 31
0.0
  0
ELLIPSE
  5
C04E
100
AcDbEntity
  8
0
100
AcDbEllipse
 10
2390.995377
 20
604.343327
 30
0.0
 11
12.0
 21
0.0
 31
0.0
210
0.0
220
0.0
230
-1.0
 40
0.965926
 41
0.0
 42
6.283185307179586
  0
LINE
  5
C04F
100
AcDbEntity
  8
0
100
AcDbLine
 10
2390.995377
 20
590.959458
 30
0.0
 11
2378.995377
 21
597.652358
 31
0.0
  0
LINE
  5
C050
100
AcDbEntity
  8
0
100
AcDbLine
 10
2390.995377
 20
590.959458
 30
0.0
 11
2402.995377
 21
597.652358
 31
0.0
  0
LINE
  5
C051
100
AcDbEntity
  8
0
100
AcDbLine
 10
2390.995377
 20
620.315385
 30
0.0
 11
2378.995377
 21
613.622485
 31
0.0
  0
LINE
  5
C052
100
AcDbEntity
  8
0
100
AcDbLine
 10
2390.995377
 20
617.727195
 30
0.0
 11
2378.995377
 21
611.034295
 31
0.0
  0
LINE
  5
C053
100
AcDbEntity
  8
0
100
AcDbLine
 10
2390.995377
 20
620.315385
 30
0.0
 11
2390.995377
 21
617.727195
 31
0.0
  0
LINE
  5
C054
100
AcDbEntity
  8
0
100
AcDbLine
 10
2390.995377
 20
620.315385
 30
0.0
 11
2402.995377
 21
613.622485
 31
0.0
  0
LINE
  5
C055
100
AcDbEntity
  8
0
100
AcDbLine
 10
2390.995377
 20
617.727195
 30
0.0
 11
2402.995377
 21
611.034295
 31
0.0
  0
LINE
  5
C056
100
AcDbEntity
  8
0
100
AcDbLine
 10
2402.894792
 20
657.594938
 30
0.0
 11
2402.894792
 21
724.777607
 31
0.0
  0
ELLIPSE
  5
C057
100
AcDbEntity
  8
0
100
AcDbEllipse
 10
2463.894792
 20
569.64825
 30
0.0
 11
-20.0
 21
0.0
 31
0.0
210
0.0
220
0.0
230
1.0
 40
0.965926
 41
0.0
 42
6.283185307179586
  0
LINE
  5
C058
100
AcDbEntity
  8
0
100
AcDbLine
 10
2494.126783
 20
517.292568
 30
0.0
 11
2506.126783
 21
510.599668
 31
0.0
  0
LINE
  5
C059
100
AcDbEntity
  8
0
100
AcDbLine
 10
2494.126783
 20
514.704378
 30
0.0
 11
2506.126783
 21
508.011478
 31
0.0
  0
LINE
  5
C05A
100
AcDbEntity
  8
0
100
AcDbLine
 10
2494.126783
 20
487.936641
 30
0.0
 11
2506.126783
 21
494.629541
 31
0.0
  0
ELLIPSE
  5
C05B
100
AcDbEntity
  8
0
100
AcDbEllipse
 10
2494.126783
 20
501.32051
 30
0.0
 11
-12.0
 21
0.0
 31
0.0
210
0.0
220
0.0
230
1.0
 40
0.965926
 41
0.0
 42
6.283185307179586
  0
LINE
  5
C05C
100
AcDbEntity
  8
0
100
AcDbLine
 10
2433.662801
 20
487.936641
 30
0.0
 11
2421.662801
 21
494.629541
 31
0.0
  0
LINE
  5
C05D
100
AcDbEntity
  8
0
100
AcDbLine
 10
2433.662801
 20
514.704378
 30
0.0
 11
2421.662801
 21
508.011478
 31
0.0
  0
LINE
  5
C05E
100
AcDbEntity
  8
0
100
AcDbLine
 10
2433.662801
 20
517.292568
 30
0.0
 11
2421.662801
 21
510.599668
 31
0.0
  0
ELLIPSE
  5
C05F
100
AcDbEntity
  8
0
100
AcDbEllipse
 10
2433.662801
 20
501.32051
 30
0.0
 11
12.0
 21
0.0
 31
0.0
210
0.0
220
0.0
230
-1.0
 40
0.965926
 41
0.0
 42
6.283185307179586
  0
LINE
  5
C060
100
AcDbEntity
  8
0
100
AcDbLine
 10
2421.662801
 20
494.629541
 30
0.0
 11
2421.662801
 21
510.599668
 31
0.0
  0
LINE
  5
C061
100
AcDbEntity
  8
0
100
AcDbLine
 10
2433.662801
 20
517.292568
 30
0.0
 11
2433.662801
 21
514.704378
 31
0.0
  0
LINE
  5
C062
100
AcDbEntity
  8
0
100
AcDbLine
 10
2445.662801
 20
494.629541
 30
0.0
 11
2445.662801
 21
510.599668
 31
0.0
  0
LINE
  5
C063
100
AcDbEntity
  8
0
100
AcDbLine
 10
2433.662801
 20
487.936641
 30
0.0
 11
2445.662801
 21
494.629541
 31
0.0
  0
LINE
  5
C064
100
AcDbEntity
  8
0
100
AcDbLine
 10
2433.662801
 20
514.704378
 30
0.0
 11
2445.662801
 21
508.011478
 31
0.0
  0
LINE
  5
C065
100
AcDbEntity
  8
0
100
AcDbLine
 10
2433.662801
 20
517.292568
 30
0.0
 11
2445.662801
 21
510.599668
 31
0.0
  0
LINE
  5
C066
100
AcDbEntity
  8
0
100
AcDbLine
 10
2494.126783
 20
517.292568
 30
0.0
 11
2494.126783
 21
514.704378
 31
0.0
  0
LINE
  5
C067
100
AcDbEntity
  8
0
100
AcDbLine
 10
2482.126783
 20
494.629541
 30
0.0
 11
2482.126783
 21
510.599668
 31
0.0
  0
LINE
  5
C068
100
AcDbEntity
  8
0
100
AcDbLine
 10
2494.126783
 20
517.292568
 30
0.0
 11
2482.126783
 21
510.599668
 31
0.0
  0
LINE
  5
C069
100
AcDbEntity
  8
0
100
AcDbLine
 10
2494.126783
 20
514.704378
 30
0.0
 11
2482.126783
 21
508.011478
 31
0.0
  0
LINE
  5
C06A
100
AcDbEntity
  8
0
100
AcDbLine
 10
2494.126783
 20
487.936641
 30
0.0
 11
2482.126783
 21
494.629541
 31
0.0
  0
LINE
  5
C06B
100
AcDbEntity
  8
0
100
AcDbLine
 10
2533.324109
 20
421.763984
 30
0.0
 11
2525.838748
 21
507.322057
 31
0.0
  0
ARC
  5
C06C
100
AcDbEntity
  8
0
100
AcDbCircle
 10
2527.346941
 20
421.241049
 30
0.0
 40
6.0
100
AcDbArc
 50
270.0
 51
5.0
  0
LINE
  5
C06D
100
AcDbEntity
  8
0
100
AcDbLine
 10
2536.794208
 20
560.428058
 30
0.0
 11
2548.794208
 21
553.735158
 31
0.0
  0
LINE
  5
C06E
100
AcDbEntity
  8
0
100
AcDbLine
 10
2536.794208
 20
557.839868
 30
0.0
 11
2548.794208
 21
551.146968
 31
0.0
  0
LINE
  5
C06F
100
AcDbEntity
  8
0
100
AcDbLine
 10
2536.794208
 20
531.072131
 30
0.0
 11
2548.794208
 21
537.765031
 31
0.0
  0
ELLIPSE
  5
C070
100
AcDbEntity
  8
0
100
AcDbEllipse
 10
2536.794208
 20
544.455999
 30
0.0
 11
-12.0
 21
0.0
 31
0.0
210
0.0
220
0.0
230
1.0
 40
0.965926
 41
0.0
 42
6.283185307179586
  0
LINE
  5
C071
100
AcDbEntity
  8
0
100
AcDbLine
 10
2506.126783
 20
494.629541
 30
0.0
 11
2506.126783
 21
510.599668
 31
0.0
  0
LINE
  5
C072
100
AcDbEntity
  8
0
100
AcDbLine
 10
2536.794208
 20
560.428058
 30
0.0
 11
2536.794208
 21
557.839868
 31
0.0
  0
LINE
  5
C073
100
AcDbEntity
  8
0
100
AcDbLine
 10
2536.794208
 20
560.428058
 30
0.0
 11
2524.794208
 21
553.735158
 31
0.0
  0
LINE
  5
C074
100
AcDbEntity
  8
0
100
AcDbLine
 10
2536.794208
 20
557.839868
 30
0.0
 11
2524.794208
 21
551.146968
 31
0.0
  0
LINE
  5
C075
100
AcDbEntity
  8
0
100
AcDbLine
 10
2536.794208
 20
531.072131
 30
0.0
 11
2524.794208
 21
537.765031
 31
0.0
  0
LINE
  5
C076
100
AcDbEntity
  8
0
100
AcDbLine
 10
2524.794208
 20
537.765031
 30
0.0
 11
2524.794208
 21
553.735158
 31
0.0
  0
LINE
  5
C077
100
AcDbEntity
  8
0
100
AcDbLine
 10
2548.794208
 20
537.765031
 30
0.0
 11
2548.794208
 21
553.735158
 31
0.0
  0
ELLIPSE
  5
C078
100
AcDbEntity
  8
0
100
AcDbEllipse
 10
2494.126783
 20
647.293476
 30
0.0
 11
-12.0
 21
0.0
 31
0.0
210
0.0
220
0.0
230
1.0
 40
0.965926
 41
0.0
 42
6.283185307179586
  0
LINE
  5
C079
100
AcDbEntity
  8
0
100
AcDbLine
 10
2494.126783
 20
633.909608
 30
0.0
 11
2506.126783
 21
640.602508
 31
0.0
  0
LINE
  5
C07A
100
AcDbEntity
  8
0
100
AcDbLine
 10
2494.126783
 20
660.677344
 30
0.0
 11
2506.126783
 21
653.984444
 31
0.0
  0
LINE
  5
C07B
100
AcDbEntity
  8
0
100
AcDbLine
 10
2494.126783
 20
663.265535
 30
0.0
 11
2506.126783
 21
656.572634
 31
0.0
  0
LINE
  5
C07C
100
AcDbEntity
  8
0
100
AcDbLine
 10
2421.662801
 20
640.602508
 30
0.0
 11
2421.662801
 21
656.572634
 31
0.0
  0
LINE
  5
C07D
100
AcDbEntity
  8
0
100
AcDbLine
 10
2445.662801
 20
640.602508
 30
0.0
 11
2445.662801
 21
656.572634
 31
0.0
  0
ELLIPSE
  5
C07E
100
AcDbEntity
  8
0
100
AcDbEllipse
 10
2433.662801
 20
647.293476
 30
0.0
 11
12.0
 21
0.0
 31
0.0
210
0.0
220
0.0
230
-1.0
 40
0.965926
 41
0.0
 42
6.283185307179586
  0
LINE
  5
C07F
100
AcDbEntity
  8
0
100
AcDbLine
 10
2482.126783
 20
640.602508
 30
0.0
 11
2482.126783
 21
656.572634
 31
0.0
  0
LINE
  5
C080
100
AcDbEntity
  8
0
100
AcDbLine
 10
2433.662801
 20
633.909608
 30
0.0
 11
2421.662801
 21
640.602508
 31
0.0
  0
LINE
  5
C081
100
AcDbEntity
  8
0
100
AcDbLine
 10
2433.662801
 20
633.909608
 30
0.0
 11
2445.662801
 21
640.602508
 31
0.0
  0
LINE
  5
C082
100
AcDbEntity
  8
0
100
AcDbLine
 10
2494.126783
 20
633.909608
 30
0.0
 11
2482.126783
 21
640.602508
 31
0.0
  0
LINE
  5
C083
100
AcDbEntity
  8
0
100
AcDbLine
 10
2433.662801
 20
663.265535
 30
0.0
 11
2421.662801
 21
656.572634
 31
0.0
  0
LINE
  5
C084
100
AcDbEntity
  8
0
100
AcDbLine
 10
2433.662801
 20
660.677344
 30
0.0
 11
2421.662801
 21
653.984444
 31
0.0
  0
LINE
  5
C085
100
AcDbEntity
  8
0
100
AcDbLine
 10
2433.662801
 20
663.265535
 30
0.0
 11
2433.662801
 21
660.677344
 31
0.0
  0
LINE
  5
C086
100
AcDbEntity
  8
0
100
AcDbLine
 10
2433.662801
 20
663.265535
 30
0.0
 11
2445.662801
 21
656.572634
 31
0.0
  0
LINE
  5
C087
100
AcDbEntity
  8
0
100
AcDbLine
 10
2433.662801
 20
660.677344
 30
0.0
 11
2445.662801
 21
653.984444
 31
0.0
  0
LINE
  5
C088
100
AcDbEntity
  8
0
100
AcDbLine
 10
2494.126783
 20
663.265535
 30
0.0
 11
2494.126783
 21
660.677344
 31
0.0
  0
LINE
  5
C089
100
AcDbEntity
  8
0
100
AcDbLine
 10
2494.126783
 20
660.677344
 30
0.0
 11
2482.126783
 21
653.984444
 31
0.0
  0
LINE
  5
C08A
100
AcDbEntity
  8
0
100
AcDbLine
 10
2494.126783
 20
663.265535
 30
0.0
 11
2482.126783
 21
656.572634
 31
0.0
  0
LINE
  5
C08B
100
AcDbEntity
  8
0
100
AcDbLine
 10
2506.126783
 20
640.602508
 30
0.0
 11
2506.126783
 21
656.572634
 31
0.0
  0
ELLIPSE
  5
C08C
100
AcDbEntity
  8
0
100
AcDbEllipse
 10
2536.794208
 20
604.343327
 30
0.0
 11
-12.0
 21
0.0
 31
0.0
210
0.0
220
0.0
230
1.0
 40
0.965926
 41
0.0
 42
6.283185307179586
  0
LINE
  5
C08D
100
AcDbEntity
  8
0
100
AcDbLine
 10
2536.794208
 20
590.959458
 30
0.0
 11
2548.794208
 21
597.652358
 31
0.0
  0
LINE
  5
C08E
100
AcDbEntity
  8
0
100
AcDbLine
 10
2536.794208
 20
617.727195
 30
0.0
 11
2548.794208
 21
611.034295
 31
0.0
  0
LINE
  5
C08F
100
AcDbEntity
  8
0
100
AcDbLine
 10
2536.794208
 20
620.315385
 30
0.0
 11
2548.794208
 21
613.622485
 31
0.0
  0
LINE
  5
C090
100
AcDbEntity
  8
0
100
AcDbLine
 10
2524.794208
 20
597.652358
 30
0.0
 11
2524.794208
 21
613.622485
 31
0.0
  0
LINE
  5
C091
100
AcDbEntity
  8
0
100
AcDbLine
 10
2536.794208
 20
590.959458
 30
0.0
 11
2524.794208
 21
597.652358
 31
0.0
  0
LINE
  5
C092
100
AcDbEntity
  8
0
100
AcDbLine
 10
2536.794208
 20
620.315385
 30
0.0
 11
2536.794208
 21
617.727195
 31
0.0
  0
LINE
  5
C093
100
AcDbEntity
  8
0
100
AcDbLine
 10
2536.794208
 20
617.727195
 30
0.0
 11
2524.794208
 21
611.034295
 31
0.0
  0
LINE
  5
C094
100
AcDbEntity
  8
0
100
AcDbLine
 10
2536.794208
 20
620.315385
 30
0.0
 11
2524.794208
 21
613.622485
 31
0.0
  0
LINE
  5
C095
100
AcDbEntity
  8
0
100
AcDbLine
 10
2548.794208
 20
597.652358
 30
0.0
 11
2548.794208
 21
613.622485
 31
0.0
  0
LINE
  5
C096
100
AcDbEntity
  8
0
100
AcDbLine
 10
2524.894792
 20
657.594938
 30
0.0
 11
2524.894792
 21
724.777607
 31
0.0
  0
LINE
  5
C097
100
AcDbEntity
  8
0
100
AcDbLine
 10
2559.29083
 20
921.241049
 30
0.0
 11
2368.498754
 21
921.241049
 31
0.0
  0
ARC
  5
C098
100
AcDbEntity
  8
0
100
AcDbCircle
 10
2411.594792
 20
898.799758
 30
0.0
 40
18.441291
100
AcDbArc
 50
66.002547
 51
113.997453
  0
LINE
  5
C099
100
AcDbEntity
  8
0
100
AcDbLine
 10
2404.094792
 20
917.241049
 30
0.0
 11
2434.094792
 21
917.241049
 31
0.0
  0
LINE
  5
C09A
100
AcDbEntity
  8
0
100
AcDbLine
 10
2300.894792
 20
905.241049
 30
0.0
 11
2419.173433
 21
905.241049
 31
0.0
  0
LINE
  5
C09B
100
AcDbEntity
  8
0
100
AcDbLine
 10
2298.894792
 20
903.241049
 30
0.0
 11
2298.894792
 21
881.241049
 31
0.0
  0
LINE
  5
C09C
100
AcDbEntity
  8
0
100
AcDbLine
 10
2363.575302
 20
841.241049
 30
0.0
 11
2303.894792
 21
841.241049
 31
0.0
  0
LINE
  5
C09D
100
AcDbEntity
  8
0
100
AcDbLine
 10
2385.632413
 20
880.241049
 30
0.0
 11
2298.894792
 21
880.241049
 31
0.0
  0
LINE
  5
C09E
100
AcDbEntity
  8
0
100
AcDbLine
 10
2298.894792
 20
881.241049
 30
0.0
 11
2386.538474
 21
881.241049
 31
0.0
  0
LINE
  5
C09F
100
AcDbEntity
  8
0
100
AcDbLine
 10
2298.894792
 20
846.241049
 30
0.0
 11
2298.894792
 21
880.241049
 31
0.0
  0
ARC
  5
C0A0
100
AcDbEntity
  8
0
100
AcDbCircle
 10
2303.894792
 20
846.241049
 30
0.0
 40
5.0
100
AcDbArc
 50
180.0
 51
270.0
  0
CIRCLE
  5
C0A1
100
AcDbEntity
  8
0
100
AcDbCircle
 10
2383.055333
 20
776.756249
 30
0.0
 40
9.5
  0
ARC
  5
C0A2
100
AcDbEntity
  8
0
100
AcDbCircle
 10
2331.894792
 20
836.241049
 30
0.0
 40
5.0
100
AcDbArc
 50
360.0
 51
90.0
  0
LINE
  5
C0A3
100
AcDbEntity
  8
0
100
AcDbLine
 10
2334.894792
 20
880.241049
 30
0.0
 11
2334.894792
 21
881.241049
 31
0.0
  0
CIRCLE
  5
C0A4
100
AcDbEntity
  8
0
100
AcDbCircle
 10
2383.055333
 20
843.72585
 30
0.0
 40
9.5
  0
ARC
  5
C0A5
100
AcDbEntity
  8
0
100
AcDbCircle
 10
2326.394792
 20
898.799758
 30
0.0
 40
18.441291
100
AcDbArc
 50
73.621831
 51
113.997453
  0
LINE
  5
C0A6
100
AcDbEntity
  8
0
100
AcDbLine
 10
2303.894792
 20
917.241049
 30
0.0
 11
2331.594792
 21
917.241049
 31
0.0
  0
LINE
  5
C0A7
100
AcDbEntity
  8
0
100
AcDbLine
 10
2300.894792
 20
905.241049
 30
0.0
 11
2298.894792
 21
903.241049
 31
0.0
  0
ARC
  5
C0A8
100
AcDbEntity
  8
0
100
AcDbCircle
 10
2311.394792
 20
898.799758
 30
0.0
 40
18.441291
100
AcDbArc
 50
66.002547
 51
113.997453
  0
LINE
  5
C0A9
100
AcDbEntity
  8
0
100
AcDbLine
 10
2303.894792
 20
905.241049
 30
0.0
 11
2303.894792
 21
917.241049
 31
0.0
  0
LINE
  5
C0AA
100
AcDbEntity
  8
0
100
AcDbLine
 10
2318.894792
 20
905.241049
 30
0.0
 11
2318.894792
 21
915.647049
 31
0.0
  0
ARC
  5
C0AB
100
AcDbEntity
  8
0
100
AcDbCircle
 10
2368.498754
 20
915.241049
 30
0.0
 40
6.0
100
AcDbArc
 50
90.0
 51
165.0
  0
ARC
  5
C0AC
100
AcDbEntity
  8
0
100
AcDbCircle
 10
2339.094792
 20
898.799758
 30
0.0
 40
18.441291
100
AcDbArc
 50
66.002547
 51
113.997453
  0
LINE
  5
C0AD
100
AcDbEntity
  8
0
100
AcDbLine
 10
2331.594792
 20
917.241049
 30
0.0
 11
2361.594792
 21
917.241049
 31
0.0
  0
LINE
  5
C0AE
100
AcDbEntity
  8
0
100
AcDbLine
 10
2331.594792
 20
905.241049
 30
0.0
 11
2331.594792
 21
917.241049
 31
0.0
  0
LINE
  5
C0AF
100
AcDbEntity
  8
0
100
AcDbLine
 10
2361.594792
 20
912.657332
 30
0.0
 11
2362.703199
 21
916.793963
 31
0.0
  0
ARC
  5
C0B0
100
AcDbEntity
  8
0
100
AcDbCircle
 10
2354.094792
 20
898.799758
 30
0.0
 40
18.441291
100
AcDbArc
 50
66.002547
 51
113.997453
  0
LINE
  5
C0B1
100
AcDbEntity
  8
0
100
AcDbLine
 10
2361.594792
 20
905.241049
 30
0.0
 11
2361.594792
 21
917.241049
 31
0.0
  0
LINE
  5
C0B2
100
AcDbEntity
  8
0
100
AcDbLine
 10
2346.594792
 20
905.241049
 30
0.0
 11
2346.594792
 21
915.647049
 31
0.0
  0
LINE
  5
C0B3
100
AcDbEntity
  8
0
100
AcDbLine
 10
2404.094792
 20
905.241049
 30
0.0
 11
2404.094792
 21
917.241049
 31
0.0
  0
CIRCLE
  5
C0B4
100
AcDbEntity
  8
0
100
AcDbCircle
 10
2430.409992
 20
891.080508
 30
0.0
 40
9.5
  0
CIRCLE
  5
C0B5
100
AcDbEntity
  8
0
100
AcDbCircle
 10
2497.379592
 20
891.080508
 30
0.0
 40
9.5
  0
CIRCLE
  5
C0B6
100
AcDbEntity
  8
0
100
AcDbCircle
 10
2544.734251
 20
776.756249
 30
0.0
 40
9.5
  0
CIRCLE
  5
C0B7
100
AcDbEntity
  8
0
100
AcDbCircle
 10
2544.734251
 20
843.72585
 30
0.0
 40
9.5
  0
ARC
  5
C0B8
100
AcDbEntity
  8
0
100
AcDbCircle
 10
2501.194792
 20
898.799758
 30
0.0
 40
18.441291
100
AcDbArc
 50
66.002547
 51
113.997453
  0
LINE
  5
C0B9
100
AcDbEntity
  8
0
100
AcDbLine
 10
2523.694792
 20
917.241049
 30
0.0
 11
2493.694792
 21
917.241049
 31
0.0
  0
LINE
  5
C0BA
100
AcDbEntity
  8
0
100
AcDbLine
 10
2420.894792
 20
925.241049
 30
0.0
 11
2506.894792
 21
925.241049
 31
0.0
  0
ARC
  5
C0BB
100
AcDbEntity
  8
0
100
AcDbCircle
 10
2452.203449
 20
915.412513
 30
0.0
 40
5.828536
100
AcDbArc
 50
48.038845
 51
108.038845
  0
LINE
  5
C0BC
100
AcDbEntity
  8
0
100
AcDbLine
 10
2476.894792
 20
921.241049
 30
0.0
 11
2450.894792
 21
921.241049
 31
0.0
  0
ARC
  5
C0BD
100
AcDbEntity
  8
0
100
AcDbCircle
 10
2426.594792
 20
898.799758
 30
0.0
 40
18.441291
100
AcDbArc
 50
66.002547
 51
113.997453
  0
LINE
  5
C0BE
100
AcDbEntity
  8
0
100
AcDbLine
 10
2418.894792
 20
921.241049
 30
0.0
 11
2418.894792
 21
923.241049
 31
0.0
  0
ARC
  5
C0BF
100
AcDbEntity
  8
0
100
AcDbCircle
 10
2420.894792
 20
923.241049
 30
0.0
 40
2.0
100
AcDbArc
 50
90.0
 51
180.0
  0
LINE
  5
C0C0
100
AcDbEntity
  8
0
100
AcDbLine
 10
2419.094792
 20
905.241049
 30
0.0
 11
2419.094792
 21
915.647049
 31
0.0
  0
LINE
  5
C0C1
100
AcDbEntity
  8
0
100
AcDbLine
 10
2450.894792
 20
921.241049
 30
0.0
 11
2448.306335
 21
919.746603
 31
0.0
  0
LINE
  5
C0C2
100
AcDbEntity
  8
0
100
AcDbLine
 10
2448.306335
 20
919.746603
 30
0.0
 11
2448.306335
 21
914.077459
 31
0.0
  0
LINE
  5
C0C3
100
AcDbEntity
  8
0
100
AcDbLine
 10
2434.094792
 20
910.92352
 30
0.0
 11
2434.094792
 21
917.241049
 31
0.0
  0
ARC
  5
C0C4
100
AcDbEntity
  8
0
100
AcDbCircle
 10
2475.586135
 20
915.412513
 30
0.0
 40
5.828536
100
AcDbArc
 50
71.961155
 51
131.961155
  0
ARC
  5
C0C5
100
AcDbEntity
  8
0
100
AcDbCircle
 10
2463.894792
 20
900.168575
 30
0.0
 40
21.072474
100
AcDbArc
 50
68.291953
 51
111.708047
  0
LINE
  5
C0C6
100
AcDbEntity
  8
0
100
AcDbLine
 10
2456.100563
 20
919.746603
 30
0.0
 11
2456.100563
 21
914.951364
 31
0.0
  0
LINE
  5
C0C7
100
AcDbEntity
  8
0
100
AcDbLine
 10
2471.689021
 20
919.746603
 30
0.0
 11
2471.689021
 21
914.951364
 31
0.0
  0
LINE
  5
C0C8
100
AcDbEntity
  8
0
100
AcDbLine
 10
2493.694792
 20
910.92352
 30
0.0
 11
2493.694792
 21
917.241049
 31
0.0
  0
LINE
  5
C0C9
100
AcDbEntity
  8
0
100
AcDbLine
 10
2476.894792
 20
921.241049
 30
0.0
 11
2479.483249
 21
919.746603
 31
0.0
  0
LINE
  5
C0CA
100
AcDbEntity
  8
0
100
AcDbLine
 10
2479.483249
 20
914.077459
 30
0.0
 11
2479.483249
 21
919.746603
 31
0.0
  0
ARC
  5
C0CB
100
AcDbEntity
  8
0
100
AcDbCircle
 10
2516.194792
 20
898.799758
 30
0.0
 40
18.441291
100
AcDbArc
 50
66.002547
 51
113.997453
  0
LINE
  5
C0CC
100
AcDbEntity
  8
0
100
AcDbLine
 10
2508.694792
 20
905.241049
 30
0.0
 11
2508.694792
 21
915.647049
 31
0.0
  0
ARC
  5
C0CD
100
AcDbEntity
  8
0
100
AcDbCircle
 10
2506.894792
 20
923.241049
 30
0.0
 40
2.0
100
AcDbArc
 50
0.0
 51
90.0
  0
LINE
  5
C0CE
100
AcDbEntity
  8
0
100
AcDbLine
 10
2508.894792
 20
921.241049
 30
0.0
 11
2508.894792
 21
923.241049
 31
0.0
  0
LINE
  5
C0CF
100
AcDbEntity
  8
0
100
AcDbLine
 10
2523.694792
 20
905.241049
 30
0.0
 11
2523.694792
 21
917.241049
 31
0.0
  0
ARC
  5
C0D0
100
AcDbEntity
  8
0
100
AcDbCircle
 10
2559.29083
 20
915.241049
 30
0.0
 40
6.0
100
AcDbArc
 50
15.0
 51
90.0
  0
ARC
  5
C0D1
100
AcDbEntity
  8
0
100
AcDbCircle
 10
2573.694792
 20
898.799758
 30
0.0
 40
18.441291
100
AcDbArc
 50
66.002547
 51
113.997453
  0
LINE
  5
C0D2
100
AcDbEntity
  8
0
100
AcDbLine
 10
2566.194792
 20
912.657332
 30
0.0
 11
2565.086385
 21
916.793963
 31
0.0
  0
LINE
  5
C0D3
100
AcDbEntity
  8
0
100
AcDbLine
 10
2581.194792
 20
905.241049
 30
0.0
 11
2581.194792
 21
915.647049
 31
0.0
  0
LINE
  5
C0D4
100
AcDbEntity
  8
0
100
AcDbLine
 10
2566.194792
 20
905.241049
 30
0.0
 11
2566.194792
 21
917.241049
 31
0.0
  0
LINE
  5
C0D5
100
AcDbEntity
  8
0
100
AcDbLine
 10
2590.894792
 20
657.741049
 30
0.0
 11
2590.894792
 21
836.241049
 31
0.0
  0
LINE
  5
C0D6
100
AcDbEntity
  8
0
100
AcDbLine
 10
2628.894792
 20
903.241049
 30
0.0
 11
2628.894792
 21
881.241049
 31
0.0
  0
ARC
  5
C0D7
100
AcDbEntity
  8
0
100
AcDbCircle
 10
2623.894792
 20
846.241049
 30
0.0
 40
5.0
100
AcDbArc
 50
270.0
 51
0.0
  0
ARC
  5
C0D8
100
AcDbEntity
  8
0
100
AcDbCircle
 10
2595.894792
 20
836.241049
 30
0.0
 40
5.0
100
AcDbArc
 50
90.0
 51
180.0
  0
LINE
  5
C0D9
100
AcDbEntity
  8
0
100
AcDbLine
 10
2592.894792
 20
880.241049
 30
0.0
 11
2592.894792
 21
881.241049
 31
0.0
  0
LINE
  5
C0DA
100
AcDbEntity
  8
0
100
AcDbLine
 10
2628.894792
 20
880.241049
 30
0.0
 11
2628.894792
 21
846.241049
 31
0.0
  0
LINE
  5
C0DB
100
AcDbEntity
  8
0
100
AcDbLine
 10
2626.894792
 20
905.241049
 30
0.0
 11
2628.894792
 21
903.241049
 31
0.0
  0
ARC
  5
C0DC
100
AcDbEntity
  8
0
100
AcDbCircle
 10
2601.394792
 20
898.799758
 30
0.0
 40
18.441291
100
AcDbArc
 50
66.002547
 51
106.378169
  0
LINE
  5
C0DD
100
AcDbEntity
  8
0
100
AcDbLine
 10
2623.894792
 20
917.241049
 30
0.0
 11
2596.194792
 21
917.241049
 31
0.0
  0
LINE
  5
C0DE
100
AcDbEntity
  8
0
100
AcDbLine
 10
2596.194792
 20
905.241049
 30
0.0
 11
2596.194792
 21
917.241049
 31
0.0
  0
ARC
  5
C0DF
100
AcDbEntity
  8
0
100
AcDbCircle
 10
2616.394792
 20
898.799758
 30
0.0
 40
18.441291
100
AcDbArc
 50
66.002547
 51
113.997453
  0
LINE
  5
C0E0
100
AcDbEntity
  8
0
100
AcDbLine
 10
2623.894792
 20
905.241049
 30
0.0
 11
2623.894792
 21
917.241049
 31
0.0
  0
LINE
  5
C0E1
100
AcDbEntity
  8
0
100
AcDbLine
 10
2608.894792
 20
905.241049
 30
0.0
 11
2608.894792
 21
915.647049
 31
0.0
  0
LINE
  5
C0E2
100
AcDbEntity
  8
0
100
AcDbLine
 10
1659.149431
 20
1749.31529
 30
0.0
 11
1571.814536
 21
1725.913975
 31
0.0
  0
ARC
  5
C0E3
100
AcDbEntity
  8
0
100
AcDbCircle
 10
1892.255259
 20
1770.555961
 30
0.0
 40
100.0
100
AcDbArc
 50
336.365179
 51
0.0
  0
LINE
  5
C0E4
100
AcDbEntity
  8
0
100
AcDbLine
 10
1674.255259
 20
1715.555961
 30
0.0
 11
1674.255259
 21
1737.72418
 31
0.0
  0
CIRCLE
  5
C0E5
100
AcDbEntity
  8
0
100
AcDbCircle
 10
1772.255259
 20
1259.430498
 30
0.0
 40
165.0
  0
LINE
  5
C0E6
100
AcDbEntity
  8
0
100
AcDbLine
 10
1892.255259
 20
1670.555961
 30
0.0
 11
1719.255259
 21
1670.555961
 31
0.0
  0
LINE
  5
C0E7
100
AcDbEntity
  8
0
100
AcDbLine
 10
1789.576259
 20
1404.430498
 30
0.0
 11
1780.915259
 21
1389.430498
 31
0.0
  0
LINE
  5
C0E8
100
AcDbEntity
  8
0
100
AcDbLine
 10
1763.595259
 20
1389.430498
 30
0.0
 11
1754.935259
 21
1404.430498
 31
0.0
  0
CIRCLE
  5
C0E9
100
AcDbEntity
  8
0
100
AcDbCircle
 10
1772.255259
 20
1404.430498
 30
0.0
 40
15.0
  0
CIRCLE
  5
C0EA
100
AcDbEntity
  8
0
100
AcDbCircle
 10
1772.255259
 20
1259.430498
 30
0.0
 40
100.0
  0
LINE
  5
C0EB
100
AcDbEntity
  8
0
100
AcDbLine
 10
1625.692064
 20
1229.623033
 30
0.0
 11
1643.012064
 21
1229.623033
 31
0.0
  0
LINE
  5
C0EC
100
AcDbEntity
  8
0
100
AcDbLine
 10
1643.012064
 20
1199.623033
 30
0.0
 11
1625.692064
 21
1199.623033
 31
0.0
  0
CIRCLE
  5
C0ED
100
AcDbEntity
  8
0
100
AcDbCircle
 10
1634.352064
 20
1214.623033
 30
0.0
 40
15.0
  0
LINE
  5
C0EE
100
AcDbEntity
  8
0
100
AcDbLine
 10
1625.692064
 20
1199.623033
 30
0.0
 11
1617.032064
 21
1214.623033
 31
0.0
  0
LINE
  5
C0EF
100
AcDbEntity
  8
0
100
AcDbLine
 10
1617.032064
 20
1214.623033
 30
0.0
 11
1625.692064
 21
1229.623033
 31
0.0
  0
LINE
  5
C0F0
100
AcDbEntity
  8
0
100
AcDbLine
 10
1669.706398
 20
1142.123033
 30
0.0
 11
1678.366398
 21
1157.123033
 31
0.0
  0
LINE
  5
C0F1
100
AcDbEntity
  8
0
100
AcDbLine
 10
1695.686398
 20
1157.123033
 30
0.0
 11
1704.347398
 21
1142.123033
 31
0.0
  0
CIRCLE
  5
C0F2
100
AcDbEntity
  8
0
100
AcDbCircle
 10
1687.026398
 20
1142.123033
 30
0.0
 40
15.0
  0
LINE
  5
C0F3
100
AcDbEntity
  8
0
100
AcDbLine
 10
1678.366398
 20
1127.123033
 30
0.0
 11
1669.706398
 21
1142.123033
 31
0.0
  0
LINE
  5
C0F4
100
AcDbEntity
  8
0
100
AcDbLine
 10
1695.686398
 20
1127.123033
 30
0.0
 11
1678.366398
 21
1127.123033
 31
0.0
  0
LINE
  5
C0F5
100
AcDbEntity
  8
0
100
AcDbLine
 10
1704.347398
 20
1142.123033
 30
0.0
 11
1695.686398
 21
1127.123033
 31
0.0
  0
LINE
  5
C0F6
100
AcDbEntity
  8
0
100
AcDbLine
 10
1643.012064
 20
1229.623033
 30
0.0
 11
1651.673064
 21
1214.623033
 31
0.0
  0
LINE
  5
C0F7
100
AcDbEntity
  8
0
100
AcDbLine
 10
1651.673064
 20
1214.623033
 30
0.0
 11
1643.012064
 21
1199.623033
 31
0.0
  0
LINE
  5
C0F8
100
AcDbEntity
  8
0
100
AcDbLine
 10
1678.366398
 20
1157.123033
 30
0.0
 11
1695.686398
 21
1157.123033
 31
0.0
  0
LINE
  5
C0F9
100
AcDbEntity
  8
0
100
AcDbLine
 10
1625.692064
 20
1319.237962
 30
0.0
 11
1643.012064
 21
1319.237962
 31
0.0
  0
LINE
  5
C0FA
100
AcDbEntity
  8
0
100
AcDbLine
 10
1643.012064
 20
1289.237962
 30
0.0
 11
1625.692064
 21
1289.237962
 31
0.0
  0
CIRCLE
  5
C0FB
100
AcDbEntity
  8
0
100
AcDbCircle
 10
1634.352064
 20
1304.237962
 30
0.0
 40
15.0
  0
LINE
  5
C0FC
100
AcDbEntity
  8
0
100
AcDbLine
 10
1617.032064
 20
1304.237962
 30
0.0
 11
1625.692064
 21
1319.237962
 31
0.0
  0
LINE
  5
C0FD
100
AcDbEntity
  8
0
100
AcDbLine
 10
1625.692064
 20
1289.237962
 30
0.0
 11
1617.032064
 21
1304.237962
 31
0.0
  0
LINE
  5
C0FE
100
AcDbEntity
  8
0
100
AcDbLine
 10
1643.012064
 20
1319.237962
 30
0.0
 11
1651.673064
 21
1304.237962
 31
0.0
  0
LINE
  5
C0FF
100
AcDbEntity
  8
0
100
AcDbLine
 10
1651.673064
 20
1304.237962
 30
0.0
 11
1643.012064
 21
1289.237962
 31
0.0
  0
LINE
  5
C100
100
AcDbEntity
  8
0
100
AcDbLine
 10
1669.706398
 20
1376.737962
 30
0.0
 11
1678.366398
 21
1391.737962
 31
0.0
  0
LINE
  5
C101
100
AcDbEntity
  8
0
100
AcDbLine
 10
1678.366398
 20
1361.737962
 30
0.0
 11
1669.706398
 21
1376.737962
 31
0.0
  0
LINE
  5
C102
100
AcDbEntity
  8
0
100
AcDbLine
 10
1678.366398
 20
1391.737962
 30
0.0
 11
1695.686398
 21
1391.737962
 31
0.0
  0
LINE
  5
C103
100
AcDbEntity
  8
0
100
AcDbLine
 10
1695.686398
 20
1361.737962
 30
0.0
 11
1678.366398
 21
1361.737962
 31
0.0
  0
CIRCLE
  5
C104
100
AcDbEntity
  8
0
100
AcDbCircle
 10
1687.026398
 20
1376.737962
 30
0.0
 40
15.0
  0
LINE
  5
C105
100
AcDbEntity
  8
0
100
AcDbLine
 10
1695.686398
 20
1391.737962
 30
0.0
 11
1704.347398
 21
1376.737962
 31
0.0
  0
LINE
  5
C106
100
AcDbEntity
  8
0
100
AcDbLine
 10
1704.347398
 20
1376.737962
 30
0.0
 11
1695.686398
 21
1361.737962
 31
0.0
  0
CIRCLE
  5
C107
100
AcDbEntity
  8
0
100
AcDbCircle
 10
1772.255259
 20
1259.430498
 30
0.0
 40
45.0
  0
LINE
  5
C108
100
AcDbEntity
  8
0
100
AcDbLine
 10
1754.935259
 20
1114.430498
 30
0.0
 11
1763.595259
 21
1129.430498
 31
0.0
  0
LINE
  5
C109
100
AcDbEntity
  8
0
100
AcDbLine
 10
1763.595259
 20
1099.430498
 30
0.0
 11
1754.935259
 21
1114.430498
 31
0.0
  0
CIRCLE
  5
C10A
100
AcDbEntity
  8
0
100
AcDbCircle
 10
1772.255259
 20
1114.430498
 30
0.0
 40
15.0
  0
LINE
  5
C10B
100
AcDbEntity
  8
0
100
AcDbLine
 10
1789.576259
 20
1114.430498
 30
0.0
 11
1780.915259
 21
1099.430498
 31
0.0
  0
LINE
  5
C10C
100
AcDbEntity
  8
0
100
AcDbLine
 10
1780.915259
 20
1099.430498
 30
0.0
 11
1763.595259
 21
1099.430498
 31
0.0
  0
LINE
  5
C10D
100
AcDbEntity
  8
0
100
AcDbLine
 10
1763.595259
 20
1129.430498
 30
0.0
 11
1780.915259
 21
1129.430498
 31
0.0
  0
LINE
  5
C10E
100
AcDbEntity
  8
0
100
AcDbLine
 10
1780.915259
 20
1129.430498
 30
0.0
 11
1789.576259
 21
1114.430498
 31
0.0
  0
LINE
  5
C10F
100
AcDbEntity
  8
0
100
AcDbLine
 10
1866.144121
 20
1157.123033
 30
0.0
 11
1874.805121
 21
1142.123033
 31
0.0
  0
CIRCLE
  5
C110
100
AcDbEntity
  8
0
100
AcDbCircle
 10
1857.484121
 20
1142.123033
 30
0.0
 40
15.0
  0
LINE
  5
C111
100
AcDbEntity
  8
0
100
AcDbLine
 10
1840.164121
 20
1142.123033
 30
0.0
 11
1848.824121
 21
1157.123033
 31
0.0
  0
LINE
  5
C112
100
AcDbEntity
  8
0
100
AcDbLine
 10
1848.824121
 20
1127.123033
 30
0.0
 11
1840.164121
 21
1142.123033
 31
0.0
  0
LINE
  5
C113
100
AcDbEntity
  8
0
100
AcDbLine
 10
1874.805121
 20
1142.123033
 30
0.0
 11
1866.144121
 21
1127.123033
 31
0.0
  0
LINE
  5
C114
100
AcDbEntity
  8
0
100
AcDbLine
 10
1866.144121
 20
1127.123033
 30
0.0
 11
1848.824121
 21
1127.123033
 31
0.0
  0
LINE
  5
C115
100
AcDbEntity
  8
0
100
AcDbLine
 10
1848.824121
 20
1157.123033
 30
0.0
 11
1866.144121
 21
1157.123033
 31
0.0
  0
CIRCLE
  5
C116
100
AcDbEntity
  8
0
100
AcDbCircle
 10
1772.255259
 20
1259.430498
 30
0.0
 40
25.25
  0
LINE
  5
C117
100
AcDbEntity
  8
0
100
AcDbLine
 10
1780.915259
 20
1389.430498
 30
0.0
 11
1763.595259
 21
1389.430498
 31
0.0
  0
LINE
  5
C118
100
AcDbEntity
  8
0
100
AcDbLine
 10
1840.164121
 20
1376.737962
 30
0.0
 11
1848.824121
 21
1391.737962
 31
0.0
  0
CIRCLE
  5
C119
100
AcDbEntity
  8
0
100
AcDbCircle
 10
1857.484121
 20
1376.737962
 30
0.0
 40
15.0
  0
LINE
  5
C11A
100
AcDbEntity
  8
0
100
AcDbLine
 10
1848.824121
 20
1361.737962
 30
0.0
 11
1840.164121
 21
1376.737962
 31
0.0
  0
LINE
  5
C11B
100
AcDbEntity
  8
0
100
AcDbLine
 10
1866.144121
 20
1391.737962
 30
0.0
 11
1874.805121
 21
1376.737962
 31
0.0
  0
LINE
  5
C11C
100
AcDbEntity
  8
0
100
AcDbLine
 10
1874.805121
 20
1376.737962
 30
0.0
 11
1866.144121
 21
1361.737962
 31
0.0
  0
LINE
  5
C11D
100
AcDbEntity
  8
0
100
AcDbLine
 10
1848.824121
 20
1391.737962
 30
0.0
 11
1866.144121
 21
1391.737962
 31
0.0
  0
LINE
  5
C11E
100
AcDbEntity
  8
0
100
AcDbLine
 10
1866.144121
 20
1361.737962
 30
0.0
 11
1848.824121
 21
1361.737962
 31
0.0
  0
ARC
  5
C11F
100
AcDbEntity
  8
0
100
AcDbCircle
 10
1719.255259
 20
1715.555961
 30
0.0
 40
45.0
100
AcDbArc
 50
180.0
 51
270.0
  0
LINE
  5
C120
100
AcDbEntity
  8
0
100
AcDbLine
 10
1559.225315
 20
1695.623523
 30
0.0
 11
1578.543832
 21
1700.799904
 31
0.0
  0
LINE
  5
C121
100
AcDbEntity
  8
0
100
AcDbLine
 10
1694.255259
 20
1620.555961
 30
0.0
 11
1708.03364
 21
1671.977581
 31
0.0
  0
LINE
  5
C122
100
AcDbEntity
  8
0
100
AcDbLine
 10
1674.255259
 20
1620.555961
 30
0.0
 11
1680.557351
 21
1692.589204
 31
0.0
  0
LINE
  5
C123
100
AcDbEntity
  8
0
100
AcDbLine
 10
1674.255259
 20
1620.555961
 30
0.0
 11
1694.255259
 21
1620.555961
 31
0.0
  0
LINE
  5
C124
100
AcDbEntity
  8
0
100
AcDbLine
 10
1754.935259
 20
1404.430498
 30
0.0
 11
1763.595259
 21
1419.430498
 31
0.0
  0
LINE
  5
C125
100
AcDbEntity
  8
0
100
AcDbLine
 10
1763.595259
 20
1416.375856
 30
0.0
 11
1780.915259
 21
1416.375856
 31
0.0
  0
LINE
  5
C126
100
AcDbEntity
  8
0
100
AcDbLine
 10
1780.915259
 20
1419.430498
 30
0.0
 11
1789.576259
 21
1404.430498
 31
0.0
  0
LINE
  5
C127
100
AcDbEntity
  8
0
100
AcDbLine
 10
1736.255259
 20
1661.555961
 30
0.0
 11
1808.255259
 21
1661.555961
 31
0.0
  0
LINE
  5
C128
100
AcDbEntity
  8
0
100
AcDbLine
 10
1794.882676
 20
1639.555961
 30
0.0
 11
1794.882676
 21
1654.555961
 31
0.0
  0
LINE
  5
C129
100
AcDbEntity
  8
0
100
AcDbLine
 10
1772.255259
 20
1639.555961
 30
0.0
 11
1772.255259
 21
1654.555961
 31
0.0
  0
LINE
  5
C12A
100
AcDbEntity
  8
0
100
AcDbLine
 10
1749.627842
 20
1639.555961
 30
0.0
 11
1749.627842
 21
1654.555961
 31
0.0
  0
LINE
  5
C12B
100
AcDbEntity
  8
0
100
AcDbLine
 10
1749.627842
 20
1639.555961
 30
0.0
 11
1794.882676
 21
1639.555961
 31
0.0
  0
LINE
  5
C12C
100
AcDbEntity
  8
0
100
AcDbLine
 10
1742.448259
 20
1654.555961
 30
0.0
 11
1802.062259
 21
1654.555961
 31
0.0
  0
ARC
  5
C12D
100
AcDbEntity
  8
0
100
AcDbCircle
 10
1736.255259
 20
1667.555961
 30
0.0
 40
6.0
100
AcDbArc
 50
194.477512
 51
270.0
  0
ARC
  5
C12E
100
AcDbEntity
  8
0
100
AcDbCircle
 10
1724.636309
 20
1664.555961
 30
0.0
 40
6.0
100
AcDbArc
 50
14.477512
 51
90.0
  0
LINE
  5
C12F
100
AcDbEntity
  8
0
100
AcDbLine
 10
1742.448259
 20
1654.555961
 30
0.0
 11
1742.667126
 21
1661.555961
 31
0.0
  0
LINE
  5
C130
100
AcDbEntity
  8
0
100
AcDbLine
 10
1802.062259
 20
1654.555961
 30
0.0
 11
1801.843392
 21
1661.555961
 31
0.0
  0
ARC
  5
C131
100
AcDbEntity
  8
0
100
AcDbCircle
 10
1808.255259
 20
1667.555961
 30
0.0
 40
6.0
100
AcDbArc
 50
270.0
 51
345.522488
  0
ARC
  5
C132
100
AcDbEntity
  8
0
100
AcDbCircle
 10
1819.874209
 20
1664.555961
 30
0.0
 40
6.0
100
AcDbArc
 50
90.0
 51
165.522488
  0
LINE
  5
C133
100
AcDbEntity
  8
0
100
AcDbLine
 10
2069.755259
 20
1364.430498
 30
0.0
 11
2045.755259
 21
1364.430498
 31
0.0
  0
LINE
  5
C134
100
AcDbEntity
  8
0
100
AcDbLine
 10
2069.755259
 20
1154.430498
 30
0.0
 11
2045.755259
 21
1154.430498
 31
0.0
  0
LINE
  5
C135
100
AcDbEntity
  8
0
100
AcDbLine
 10
2045.755259
 20
1154.430498
 30
0.0
 11
2045.755259
 21
1364.430498
 31
0.0
  0
LINE
  5
C136
100
AcDbEntity
  8
0
100
AcDbLine
 10
2020.755259
 20
1308.230498
 30
0.0
 11
2020.755259
 21
1210.630498
 31
0.0
  0
LINE
  5
C137
100
AcDbEntity
  8
0
100
AcDbLine
 10
2020.755259
 20
1198.430498
 30
0.0
 11
1925.565402
 21
1198.430498
 31
0.0
  0
LINE
  5
C138
100
AcDbEntity
  8
0
100
AcDbLine
 10
1918.818454
 20
1199.623033
 30
0.0
 11
1901.498454
 21
1199.623033
 31
0.0
  0
LINE
  5
C139
100
AcDbEntity
  8
0
100
AcDbLine
 10
1901.498454
 20
1229.623033
 30
0.0
 11
1918.818454
 21
1229.623033
 31
0.0
  0
CIRCLE
  5
C13A
100
AcDbEntity
  8
0
100
AcDbCircle
 10
1910.158454
 20
1214.623033
 30
0.0
 40
15.0
  0
LINE
  5
C13B
100
AcDbEntity
  8
0
100
AcDbLine
 10
1892.838454
 20
1214.623033
 30
0.0
 11
1901.498454
 21
1229.623033
 31
0.0
  0
LINE
  5
C13C
100
AcDbEntity
  8
0
100
AcDbLine
 10
1901.498454
 20
1199.623033
 30
0.0
 11
1892.838454
 21
1214.623033
 31
0.0
  0
LINE
  5
C13D
100
AcDbEntity
  8
0
100
AcDbLine
 10
1918.818454
 20
1229.623033
 30
0.0
 11
1927.479454
 21
1214.623033
 31
0.0
  0
LINE
  5
C13E
100
AcDbEntity
  8
0
100
AcDbLine
 10
1927.479454
 20
1214.623033
 30
0.0
 11
1918.818454
 21
1199.623033
 31
0.0
  0
LINE
  5
C13F
100
AcDbEntity
  8
0
100
AcDbLine
 10
2020.755259
 20
1198.430498
 30
0.0
 11
2042.842234
 21
1185.178313
 31
0.0
  0
ARC
  5
C140
100
AcDbEntity
  8
0
100
AcDbCircle
 10
2039.755259
 20
1180.033355
 30
0.0
 40
6.0
100
AcDbArc
 50
0.0
 51
59.036243
  0
POLYLINE
  5
C141
100
AcDbEntity
  8
0
100
AcDb2dPolyline
 66
     1
 10
0.0
 20
0.0
 30
0.0
  0
VERTEX
  5
C26B
100
AcDbEntity
  8
0
100
AcDbVertex
100
AcDb2dVertex
 10
1989.419917
 20
1273.191839
 30
0.0
  0
VERTEX
  5
C26C
100
AcDbEntity
  8
0
100
AcDbVertex
100
AcDb2dVertex
 10
1975.590601
 20
1281.176198
 30
0.0
  0
SEQEND
  5
C26D
100
AcDbEntity
  8
0
  0
LINE
  5
C142
100
AcDbEntity
  8
0
100
AcDbLine
 10
2020.755259
 20
1320.430498
 30
0.0
 11
1924.314468
 21
1320.430498
 31
0.0
  0
POLYLINE
  5
C143
100
AcDbEntity
  8
0
100
AcDb2dPolyline
 66
     1
 10
0.0
 20
0.0
 30
0.0
  0
VERTEX
  5
C26E
100
AcDbEntity
  8
0
100
AcDbVertex
100
AcDb2dVertex
 10
1975.590601
 20
1237.684797
 30
0.0
  0
VERTEX
  5
C26F
100
AcDbEntity
  8
0
100
AcDbVertex
100
AcDb2dVertex
 10
1989.419917
 20
1245.669157
 30
0.0
  0
SEQEND
  5
C270
100
AcDbEntity
  8
0
  0
CIRCLE
  5
C144
100
AcDbEntity
  8
0
100
AcDbCircle
 10
1972.255259
 20
1259.430498
 30
0.0
 40
20.0
  0
POLYLINE
  5
C145
100
AcDbEntity
  8
0
100
AcDb2dPolyline
 66
     1
 10
0.0
 20
0.0
 30
0.0
 70
     1
  0
VERTEX
  5
C271
100
AcDbEntity
  8
0
100
AcDbVertex
100
AcDb2dVertex
 10
1985.755259
 20
1267.224726
 30
0.0
  0
VERTEX
  5
C272
100
AcDbEntity
  8
0
100
AcDbVertex
100
AcDb2dVertex
 10
1972.255259
 20
1275.018955
 30
0.0
  0
VERTEX
  5
C273
100
AcDbEntity
  8
0
100
AcDbVertex
100
AcDb2dVertex
 10
1958.755259
 20
1267.224726
 30
0.0
  0
VERTEX
  5
C274
100
AcDbEntity
  8
0
100
AcDbVertex
100
AcDb2dVertex
 10
1958.755259
 20
1251.636269
 30
0.0
  0
VERTEX
  5
C275
100
AcDbEntity
  8
0
100
AcDbVertex
100
AcDb2dVertex
 10
1972.255259
 20
1243.84204
 30
0.0
  0
VERTEX
  5
C276
100
AcDbEntity
  8
0
100
AcDbVertex
100
AcDb2dVertex
 10
1985.755259
 20
1251.636269
 30
0.0
  0
SEQEND
  5
C277
100
AcDbEntity
  8
0
  0
CIRCLE
  5
C146
100
AcDbEntity
  8
0
100
AcDbCircle
 10
1972.255259
 20
1259.430498
 30
0.0
 40
13.0
  0
LINE
  5
C147
100
AcDbEntity
  8
0
100
AcDbLine
 10
1892.838454
 20
1304.237962
 30
0.0
 11
1901.498454
 21
1319.237962
 31
0.0
  0
LINE
  5
C148
100
AcDbEntity
  8
0
100
AcDbLine
 10
1918.818454
 20
1319.237962
 30
0.0
 11
1927.479454
 21
1304.237962
 31
0.0
  0
CIRCLE
  5
C149
100
AcDbEntity
  8
0
100
AcDbCircle
 10
1910.158454
 20
1304.237962
 30
0.0
 40
15.0
  0
LINE
  5
C14A
100
AcDbEntity
  8
0
100
AcDbLine
 10
1918.818454
 20
1289.237962
 30
0.0
 11
1901.498454
 21
1289.237962
 31
0.0
  0
LINE
  5
C14B
100
AcDbEntity
  8
0
100
AcDbLine
 10
1901.498454
 20
1289.237962
 30
0.0
 11
1892.838454
 21
1304.237962
 31
0.0
  0
LINE
  5
C14C
100
AcDbEntity
  8
0
100
AcDbLine
 10
1927.479454
 20
1304.237962
 30
0.0
 11
1918.818454
 21
1289.237962
 31
0.0
  0
POLYLINE
  5
C14D
100
AcDbEntity
  8
0
100
AcDb2dPolyline
 66
     1
 10
0.0
 20
0.0
 30
0.0
  0
VERTEX
  5
C278
100
AcDbEntity
  8
0
100
AcDbVertex
100
AcDb2dVertex
 10
1968.919917
 20
1281.176198
 30
0.0
  0
VERTEX
  5
C279
100
AcDbEntity
  8
0
100
AcDbVertex
100
AcDb2dVertex
 10
1955.090601
 20
1273.191839
 30
0.0
  0
SEQEND
  5
C27A
100
AcDbEntity
  8
0
  0
ARC
  5
C14E
100
AcDbEntity
  8
0
100
AcDbCircle
 10
1972.255259
 20
1259.430498
 30
0.0
 40
22.0
100
AcDbArc
 50
141.279966
 51
158.720034
  0
ARC
  5
C14F
100
AcDbEntity
  8
0
100
AcDbCircle
 10
1972.255259
 20
1259.430498
 30
0.0
 40
22.0
100
AcDbArc
 50
201.279966
 51
218.720034
  0
POLYLINE
  5
C150
100
AcDbEntity
  8
0
100
AcDb2dPolyline
 66
     1
 10
0.0
 20
0.0
 30
0.0
  0
VERTEX
  5
C27B
100
AcDbEntity
  8
0
100
AcDbVertex
100
AcDb2dVertex
 10
1951.755259
 20
1267.414857
 30
0.0
  0
VERTEX
  5
C27C
100
AcDbEntity
  8
0
100
AcDbVertex
100
AcDb2dVertex
 10
1951.755259
 20
1251.446138
 30
0.0
  0
SEQEND
  5
C27D
100
AcDbEntity
  8
0
  0
POLYLINE
  5
C151
100
AcDbEntity
  8
0
100
AcDb2dPolyline
 66
     1
 10
0.0
 20
0.0
 30
0.0
  0
VERTEX
  5
C27E
100
AcDbEntity
  8
0
100
AcDbVertex
100
AcDb2dVertex
 10
1955.090601
 20
1245.669157
 30
0.0
  0
VERTEX
  5
C27F
100
AcDbEntity
  8
0
100
AcDbVertex
100
AcDb2dVertex
 10
1968.919917
 20
1237.684797
 30
0.0
  0
SEQEND
  5
C280
100
AcDbEntity
  8
0
  0
ARC
  5
C152
100
AcDbEntity
  8
0
100
AcDbCircle
 10
1972.255259
 20
1259.430498
 30
0.0
 40
22.0
100
AcDbArc
 50
261.279966
 51
278.720034
  0
ARC
  5
C153
100
AcDbEntity
  8
0
100
AcDbCircle
 10
1972.255259
 20
1259.430498
 30
0.0
 40
22.0
100
AcDbArc
 50
81.279966
 51
98.720034
  0
LINE
  5
C154
100
AcDbEntity
  8
0
100
AcDbLine
 10
1901.498454
 20
1319.237962
 30
0.0
 11
1918.818454
 21
1319.237962
 31
0.0
  0
ARC
  5
C155
100
AcDbEntity
  8
0
100
AcDbCircle
 10
1972.255259
 20
1259.430498
 30
0.0
 40
22.0
100
AcDbArc
 50
21.279966
 51
38.720034
  0
ARC
  5
C156
100
AcDbEntity
  8
0
100
AcDbCircle
 10
1972.255259
 20
1259.430498
 30
0.0
 40
22.0
100
AcDbArc
 50
321.279966
 51
338.720034
  0
POLYLINE
  5
C157
100
AcDbEntity
  8
0
100
AcDb2dPolyline
 66
     1
 10
0.0
 20
0.0
 30
0.0
  0
VERTEX
  5
C281
100
AcDbEntity
  8
0
100
AcDbVertex
100
AcDb2dVertex
 10
1992.755259
 20
1251.446138
 30
0.0
  0
VERTEX
  5
C282
100
AcDbEntity
  8
0
100
AcDbVertex
100
AcDb2dVertex
 10
1992.755259
 20
1267.414857
 30
0.0
  0
SEQEND
  5
C283
100
AcDbEntity
  8
0
  0
LINE
  5
C158
100
AcDbEntity
  8
0
100
AcDbLine
 10
2020.755259
 20
1320.430498
 30
0.0
 11
2042.842234
 21
1333.682682
 31
0.0
  0
ARC
  5
C159
100
AcDbEntity
  8
0
100
AcDbCircle
 10
2039.755259
 20
1338.82764
 30
0.0
 40
6.0
100
AcDbArc
 50
300.963757
 51
0.0
  0
LINE
  5
C15A
100
AcDbEntity
  8
0
100
AcDbLine
 10
2069.755259
 20
1154.430498
 30
0.0
 11
2069.755259
 21
1259.430498
 31
0.0
  0
LINE
  5
C15B
100
AcDbEntity
  8
0
100
AcDbLine
 10
2069.755259
 20
1259.430498
 30
0.0
 11
2069.755259
 21
1364.430498
 31
0.0
  0
LINE
  5
C15C
100
AcDbEntity
  8
0
100
AcDbLine
 10
1972.255259
 20
1620.555961
 30
0.0
 11
1992.255259
 21
1620.555961
 31
0.0
  0
LINE
  5
C15D
100
AcDbEntity
  8
0
100
AcDbLine
 10
1952.290282
 20
1695.06627
 30
0.0
 11
1972.255259
 21
1620.555961
 31
0.0
  0
ARC
  5
C15E
100
AcDbEntity
  8
0
100
AcDbCircle
 10
1892.255259
 20
1770.555961
 30
0.0
 40
100.0
100
AcDbArc
 50
270.0
 51
299.989816
  0
ARC
  5
C15F
100
AcDbEntity
  8
0
100
AcDbCircle
 10
1947.238326
 20
1675.283393
 30
0.0
 40
10.0
100
AcDbArc
 50
15.0
 51
119.989816
  0
LINE
  5
C160
100
AcDbEntity
  8
0
100
AcDbLine
 10
1983.06643
 20
1725.584759
 30
0.0
 11
1992.255259
 21
1620.555961
 31
0.0
  0
ARC
  5
C161
100
AcDbEntity
  8
0
100
AcDbCircle
 10
1993.028377
 20
1726.456316
 30
0.0
 40
10.0
100
AcDbArc
 50
156.365179
 51
185.0
  0
LINE
  5
C162
100
AcDbEntity
  8
0
100
AcDbLine
 10
1612.255259
 20
2046.555961
 30
0.0
 11
1932.255259
 21
2046.555961
 31
0.0
  0
LINE
  5
C163
100
AcDbEntity
  8
0
100
AcDbLine
 10
1937.255259
 20
2086.555961
 30
0.0
 11
1607.255259
 21
2086.555961
 31
0.0
  0
LINE
  5
C164
100
AcDbEntity
  8
0
100
AcDbLine
 10
1935.255259
 20
2110.555961
 30
0.0
 11
1609.255259
 21
2110.555961
 31
0.0
  0
LINE
  5
C165
100
AcDbEntity
  8
0
100
AcDbLine
 10
1607.255259
 20
2085.555961
 30
0.0
 11
1937.255259
 21
2085.555961
 31
0.0
  0
ARC
  5
C166
100
AcDbEntity
  8
0
100
AcDbCircle
 10
1772.255259
 20
1863.055961
 30
0.0
 40
127.0
100
AcDbArc
 50
180.0
 51
0.0
  0
LINE
  5
C167
100
AcDbEntity
  8
0
100
AcDbLine
 10
1607.255259
 20
2085.555961
 30
0.0
 11
1607.255259
 21
2051.555961
 31
0.0
  0
LINE
  5
C168
100
AcDbEntity
  8
0
100
AcDbLine
 10
1595.477268
 20
1826.234461
 30
0.0
 11
1550.38523
 21
1994.520239
 31
0.0
  0
LINE
  5
C169
100
AcDbEntity
  8
0
100
AcDbLine
 10
1645.255259
 20
1863.055961
 30
0.0
 11
1645.255259
 21
2041.555961
 31
0.0
  0
ARC
  5
C16A
100
AcDbEntity
  8
0
100
AcDbCircle
 10
1558.760362
 20
1885.989756
 30
0.0
 40
20.0
100
AcDbArc
 50
285.0
 51
15.0
  0
ARC
  5
C16B
100
AcDbEntity
  8
0
100
AcDbCircle
 10
1662.255259
 20
1737.72418
 30
0.0
 40
12.0
100
AcDbArc
 50
0.0
 51
105.0
  0
LINE
  5
C16C
100
AcDbEntity
  8
0
100
AcDbLine
 10
1645.255259
 20
2015.555961
 30
0.0
 11
1544.748725
 21
2015.555961
 31
0.0
  0
ARC
  5
C16D
100
AcDbEntity
  8
0
100
AcDbCircle
 10
1551.885702
 20
1942.555961
 30
0.0
 40
12.0
100
AcDbArc
 50
15.0
 51
90.0
  0
ARC
  5
C16E
100
AcDbEntity
  8
0
100
AcDbCircle
 10
1612.255259
 20
2051.555961
 30
0.0
 40
5.0
100
AcDbArc
 50
180.0
 51
270.0
  0
ARC
  5
C16F
100
AcDbEntity
  8
0
100
AcDbCircle
 10
1640.255259
 20
2041.555961
 30
0.0
 40
5.0
100
AcDbArc
 50
360.0
 51
90.0
  0
LINE
  5
C170
100
AcDbEntity
  8
0
100
AcDbLine
 10
1867.651297
 20
2126.555961
 30
0.0
 11
1676.859221
 21
2126.555961
 31
0.0
  0
ARC
  5
C171
100
AcDbEntity
  8
0
100
AcDbCircle
 10
1634.352064
 20
2091.386754
 30
0.0
 40
30.816876
100
AcDbArc
 50
73.680185
 51
106.319815
  0
LINE
  5
C172
100
AcDbEntity
  8
0
100
AcDbLine
 10
1619.793564
 20
2122.555961
 30
0.0
 11
1648.911564
 21
2122.555961
 31
0.0
  0
LINE
  5
C173
100
AcDbEntity
  8
0
100
AcDbLine
 10
1559.255259
 20
2126.555961
 30
0.0
 11
1585.255259
 21
2126.555961
 31
0.0
  0
ARC
  5
C174
100
AcDbEntity
  8
0
100
AcDbCircle
 10
1583.946602
 20
2120.727425
 30
0.0
 40
5.828536
100
AcDbArc
 50
71.961155
 51
131.961155
  0
LINE
  5
C175
100
AcDbEntity
  8
0
100
AcDbLine
 10
1592.255259
 20
2104.555961
 30
0.0
 11
1552.255259
 21
2104.555961
 31
0.0
  0
LINE
  5
C176
100
AcDbEntity
  8
0
100
AcDbLine
 10
1580.239619
 20
2103.401261
 30
0.0
 11
1586.0166
 21
2103.401261
 31
0.0
  0
LINE
  5
C177
100
AcDbEntity
  8
0
100
AcDbLine
 10
1580.239619
 20
2091.710662
 30
0.0
 11
1586.0166
 21
2091.710662
 31
0.0
  0
LINE
  5
C178
100
AcDbEntity
  8
0
100
AcDbLine
 10
1580.239619
 20
2078.555961
 30
0.0
 11
1586.0166
 21
2078.555961
 31
0.0
  0
LINE
  5
C179
100
AcDbEntity
  8
0
100
AcDbLine
 10
1550.255259
 20
2078.555961
 30
0.0
 11
1594.255259
 21
2078.555961
 31
0.0
  0
LINE
  5
C17A
100
AcDbEntity
  8
0
100
AcDbLine
 10
1587.255259
 20
2087.555961
 30
0.0
 11
1557.255259
 21
2087.555961
 31
0.0
  0
LINE
  5
C17B
100
AcDbEntity
  8
0
100
AcDbLine
 10
1552.255259
 20
2090.555961
 30
0.0
 11
1592.255259
 21
2090.555961
 31
0.0
  0
LINE
  5
C17C
100
AcDbEntity
  8
0
100
AcDbLine
 10
1594.255259
 20
2085.555961
 30
0.0
 11
1550.255259
 21
2085.555961
 31
0.0
  0
ARC
  5
C17D
100
AcDbEntity
  8
0
100
AcDbCircle
 10
1583.946602
 20
2110.384497
 30
0.0
 40
5.828536
100
AcDbArc
 50
228.038845
 51
288.038845
  0
LINE
  5
C17E
100
AcDbEntity
  8
0
100
AcDbLine
 10
1580.049488
 20
2125.061515
 30
0.0
 11
1580.049488
 21
2106.050408
 31
0.0
  0
LINE
  5
C17F
100
AcDbEntity
  8
0
100
AcDbLine
 10
1564.46103
 20
2125.061515
 30
0.0
 11
1564.46103
 21
2106.050408
 31
0.0
  0
LINE
  5
C180
100
AcDbEntity
  8
0
100
AcDbLine
 10
1556.666802
 20
2106.050408
 30
0.0
 11
1556.666802
 21
2125.061515
 31
0.0
  0
LINE
  5
C181
100
AcDbEntity
  8
0
100
AcDbLine
 10
1558.493918
 20
2103.401261
 30
0.0
 11
1564.270899
 21
2103.401261
 31
0.0
  0
LINE
  5
C182
100
AcDbEntity
  8
0
100
AcDbLine
 10
1558.493918
 20
2091.710662
 30
0.0
 11
1564.270899
 21
2091.710662
 31
0.0
  0
LINE
  5
C183
100
AcDbEntity
  8
0
100
AcDbLine
 10
1558.493918
 20
2078.555961
 30
0.0
 11
1564.270899
 21
2078.555961
 31
0.0
  0
ARC
  5
C184
100
AcDbEntity
  8
0
100
AcDbCircle
 10
1560.563916
 20
2110.384497
 30
0.0
 40
5.828536
100
AcDbArc
 50
251.961155
 51
311.961155
  0
LINE
  5
C185
100
AcDbEntity
  8
0
100
AcDbLine
 10
1559.255259
 20
2104.555961
 30
0.0
 11
1556.666802
 21
2106.050408
 31
0.0
  0
LINE
  5
C186
100
AcDbEntity
  8
0
100
AcDbLine
 10
1558.493918
 20
2078.555961
 30
0.0
 11
1558.493918
 21
2085.555961
 31
0.0
  0
LINE
  5
C187
100
AcDbEntity
  8
0
100
AcDbLine
 10
1558.493918
 20
2091.710662
 30
0.0
 11
1558.493918
 21
2103.401261
 31
0.0
  0
LINE
  5
C188
100
AcDbEntity
  8
0
100
AcDbLine
 10
1557.255259
 20
2090.555961
 30
0.0
 11
1557.255259
 21
2087.555961
 31
0.0
  0
LINE
  5
C189
100
AcDbEntity
  8
0
100
AcDbLine
 10
1552.255259
 20
2090.555961
 30
0.0
 11
1550.255259
 21
2091.710662
 31
0.0
  0
LINE
  5
C18A
100
AcDbEntity
  8
0
100
AcDbLine
 10
1550.255259
 20
2078.555961
 30
0.0
 11
1550.255259
 21
2085.555961
 31
0.0
  0
LINE
  5
C18B
100
AcDbEntity
  8
0
100
AcDbLine
 10
1550.255259
 20
2091.710662
 30
0.0
 11
1550.255259
 21
2103.401261
 31
0.0
  0
LINE
  5
C18C
100
AcDbEntity
  8
0
100
AcDbLine
 10
1550.255259
 20
2076.555961
 30
0.0
 11
1550.255259
 21
2078.555961
 31
0.0
  0
ARC
  5
C18D
100
AcDbEntity
  8
0
100
AcDbCircle
 10
1554.374589
 20
2098.47405
 30
0.0
 40
7.919109
100
AcDbArc
 50
238.655951
 51
301.344049
  0
ARC
  5
C18E
100
AcDbEntity
  8
0
100
AcDbCircle
 10
1557.255259
 20
2086.555961
 30
0.0
 40
1.0
100
AcDbArc
 50
270.0
 51
90.0
  0
ARC
  5
C18F
100
AcDbEntity
  8
0
100
AcDbCircle
 10
1554.374589
 20
2096.637873
 30
0.0
 40
7.919109
100
AcDbArc
 50
58.655951
 51
121.344049
  0
LINE
  5
C190
100
AcDbEntity
  8
0
100
AcDbLine
 10
1552.255259
 20
2104.555961
 30
0.0
 11
1550.255259
 21
2103.401261
 31
0.0
  0
ARC
  5
C191
100
AcDbEntity
  8
0
100
AcDbCircle
 10
1572.255259
 20
2125.628436
 30
0.0
 40
21.072474
100
AcDbArc
 50
248.291953
 51
291.708047
  0
ARC
  5
C192
100
AcDbEntity
  8
0
100
AcDbCircle
 10
1572.255259
 20
2118.737871
 30
0.0
 40
28.18191
100
AcDbArc
 50
253.541842
 51
286.458158
  0
LINE
  5
C193
100
AcDbEntity
  8
0
100
AcDbLine
 10
1580.239619
 20
2078.555961
 30
0.0
 11
1580.239619
 21
2085.555961
 31
0.0
  0
LINE
  5
C194
100
AcDbEntity
  8
0
100
AcDbLine
 10
1580.239619
 20
2091.710662
 30
0.0
 11
1580.239619
 21
2103.401261
 31
0.0
  0
LINE
  5
C195
100
AcDbEntity
  8
0
100
AcDbLine
 10
1564.270899
 20
2078.555961
 30
0.0
 11
1564.270899
 21
2085.555961
 31
0.0
  0
LINE
  5
C196
100
AcDbEntity
  8
0
100
AcDbLine
 10
1564.270899
 20
2091.710662
 30
0.0
 11
1564.270899
 21
2103.401261
 31
0.0
  0
ARC
  5
C197
100
AcDbEntity
  8
0
100
AcDbCircle
 10
1572.255259
 20
2076.374051
 30
0.0
 40
28.18191
100
AcDbArc
 50
73.541842
 51
106.458158
  0
ARC
  5
C198
100
AcDbEntity
  8
0
100
AcDbCircle
 10
1560.563916
 20
2120.727425
 30
0.0
 40
5.828536
100
AcDbArc
 50
48.038845
 51
108.038845
  0
LINE
  5
C199
100
AcDbEntity
  8
0
100
AcDbLine
 10
1559.255259
 20
2126.555961
 30
0.0
 11
1556.666802
 21
2125.061515
 31
0.0
  0
ARC
  5
C19A
100
AcDbEntity
  8
0
100
AcDbCircle
 10
1572.255259
 20
2105.483487
 30
0.0
 40
21.072474
100
AcDbArc
 50
68.291953
 51
111.708047
  0
LINE
  5
C19B
100
AcDbEntity
  8
0
100
AcDbLine
 10
1587.843716
 20
2125.061515
 30
0.0
 11
1587.843716
 21
2106.050408
 31
0.0
  0
LINE
  5
C19C
100
AcDbEntity
  8
0
100
AcDbLine
 10
1607.255259
 20
2108.555961
 30
0.0
 11
1607.255259
 21
2086.555961
 31
0.0
  0
LINE
  5
C19D
100
AcDbEntity
  8
0
100
AcDbLine
 10
1585.255259
 20
2104.555961
 30
0.0
 11
1587.843716
 21
2106.050408
 31
0.0
  0
LINE
  5
C19E
100
AcDbEntity
  8
0
100
AcDbLine
 10
1587.255259
 20
2090.555961
 30
0.0
 11
1587.255259
 21
2087.555961
 31
0.0
  0
LINE
  5
C19F
100
AcDbEntity
  8
0
100
AcDbLine
 10
1592.255259
 20
2090.555961
 30
0.0
 11
1594.255259
 21
2091.710662
 31
0.0
  0
LINE
  5
C1A0
100
AcDbEntity
  8
0
100
AcDbLine
 10
1594.255259
 20
2078.555961
 30
0.0
 11
1594.255259
 21
2085.555961
 31
0.0
  0
LINE
  5
C1A1
100
AcDbEntity
  8
0
100
AcDbLine
 10
1594.255259
 20
2091.710662
 30
0.0
 11
1594.255259
 21
2103.401261
 31
0.0
  0
LINE
  5
C1A2
100
AcDbEntity
  8
0
100
AcDbLine
 10
1594.255259
 20
2076.555961
 30
0.0
 11
1594.255259
 21
2078.555961
 31
0.0
  0
LINE
  5
C1A3
100
AcDbEntity
  8
0
100
AcDbLine
 10
1586.0166
 20
2078.555961
 30
0.0
 11
1586.0166
 21
2085.555961
 31
0.0
  0
LINE
  5
C1A4
100
AcDbEntity
  8
0
100
AcDbLine
 10
1586.0166
 20
2091.710662
 30
0.0
 11
1586.0166
 21
2103.401261
 31
0.0
  0
ARC
  5
C1A5
100
AcDbEntity
  8
0
100
AcDbCircle
 10
1587.255259
 20
2086.555961
 30
0.0
 40
1.0
100
AcDbArc
 50
90.0
 51
270.0
  0
ARC
  5
C1A6
100
AcDbEntity
  8
0
100
AcDbCircle
 10
1590.13593
 20
2098.47405
 30
0.0
 40
7.919109
100
AcDbArc
 50
238.655951
 51
301.344049
  0
LINE
  5
C1A7
100
AcDbEntity
  8
0
100
AcDbLine
 10
1592.255259
 20
2104.555961
 30
0.0
 11
1594.255259
 21
2103.401261
 31
0.0
  0
ARC
  5
C1A8
100
AcDbEntity
  8
0
100
AcDbCircle
 10
1590.13593
 20
2096.637873
 30
0.0
 40
7.919109
100
AcDbArc
 50
58.655951
 51
121.344049
  0
LINE
  5
C1A9
100
AcDbEntity
  8
0
100
AcDbLine
 10
1585.255259
 20
2126.555961
 30
0.0
 11
1587.843716
 21
2125.061515
 31
0.0
  0
ARC
  5
C1AA
100
AcDbEntity
  8
0
100
AcDbCircle
 10
1621.362064
 20
2114.031702
 30
0.0
 40
8.172009
100
AcDbArc
 50
58.000041
 51
121.999959
  0
LINE
  5
C1AB
100
AcDbEntity
  8
0
100
AcDbLine
 10
1625.692564
 20
2120.961961
 30
0.0
 11
1625.692564
 21
2110.555961
 31
0.0
  0
LINE
  5
C1AC
100
AcDbEntity
  8
0
100
AcDbLine
 10
1617.031564
 20
2120.961961
 30
0.0
 11
1619.793564
 21
2122.555961
 31
0.0
  0
LINE
  5
C1AD
100
AcDbEntity
  8
0
100
AcDbLine
 10
1617.031564
 20
2110.555961
 30
0.0
 11
1617.031564
 21
2120.961961
 31
0.0
  0
LINE
  5
C1AE
100
AcDbEntity
  8
0
100
AcDbLine
 10
1609.255259
 20
2110.555961
 30
0.0
 11
1607.255259
 21
2108.555961
 31
0.0
  0
LINE
  5
C1AF
100
AcDbEntity
  8
0
100
AcDbLine
 10
1669.705898
 20
2120.961961
 30
0.0
 11
1672.467898
 21
2122.555961
 31
0.0
  0
ARC
  5
C1B0
100
AcDbEntity
  8
0
100
AcDbCircle
 10
1674.036398
 20
2114.031702
 30
0.0
 40
8.172009
100
AcDbArc
 50
58.000041
 51
121.999959
  0
ARC
  5
C1B1
100
AcDbEntity
  8
0
100
AcDbCircle
 10
1676.859221
 20
2120.555961
 30
0.0
 40
6.0
100
AcDbArc
 50
90.0
 51
165.0
  0
LINE
  5
C1B2
100
AcDbEntity
  8
0
100
AcDbLine
 10
1643.255259
 20
2085.555961
 30
0.0
 11
1643.255259
 21
2086.555961
 31
0.0
  0
LINE
  5
C1B3
100
AcDbEntity
  8
0
100
AcDbLine
 10
1648.911564
 20
2122.555961
 30
0.0
 11
1651.672564
 21
2120.961961
 31
0.0
  0
ARC
  5
C1B4
100
AcDbEntity
  8
0
100
AcDbCircle
 10
1647.342064
 20
2114.031673
 30
0.0
 40
8.172033
100
AcDbArc
 50
58.000147
 51
121.999853
  0
LINE
  5
C1B5
100
AcDbEntity
  8
0
100
AcDbLine
 10
1643.011564
 20
2120.961961
 30
0.0
 11
1643.011564
 21
2110.555961
 31
0.0
  0
ARC
  5
C1B6
100
AcDbEntity
  8
0
100
AcDbCircle
 10
1663.36411
 20
2116.555961
 30
0.0
 40
6.0
100
AcDbArc
 50
270.0
 51
345.0
  0
LINE
  5
C1B7
100
AcDbEntity
  8
0
100
AcDbLine
 10
1670.948506
 20
2121.679093
 30
0.0
 11
1671.063666
 21
2122.108876
 31
0.0
  0
LINE
  5
C1B8
100
AcDbEntity
  8
0
100
AcDbLine
 10
1669.705898
 20
2110.555961
 30
0.0
 11
1669.705898
 21
2120.961961
 31
0.0
  0
LINE
  5
C1B9
100
AcDbEntity
  8
0
100
AcDbLine
 10
1669.159665
 20
2115.003047
 30
0.0
 11
1669.705898
 21
2117.041614
 31
0.0
  0
LINE
  5
C1BA
100
AcDbEntity
  8
0
100
AcDbLine
 10
1651.672564
 20
2120.961961
 30
0.0
 11
1651.672564
 21
2110.555961
 31
0.0
  0
ARC
  5
C1BB
100
AcDbEntity
  8
0
100
AcDbCircle
 10
1687.026398
 20
2091.386754
 30
0.0
 40
30.816876
100
AcDbArc
 50
73.680185
 51
106.319815
  0
LINE
  5
C1BC
100
AcDbEntity
  8
0
100
AcDbLine
 10
1672.467898
 20
2122.555961
 30
0.0
 11
1701.585898
 21
2122.555961
 31
0.0
  0
LINE
  5
C1BD
100
AcDbEntity
  8
0
100
AcDbLine
 10
1678.366898
 20
2120.961961
 30
0.0
 11
1678.366898
 21
2110.555961
 31
0.0
  0
LINE
  5
C1BE
100
AcDbEntity
  8
0
100
AcDbLine
 10
1701.585898
 20
2122.555961
 30
0.0
 11
1704.346898
 21
2120.961961
 31
0.0
  0
LINE
  5
C1BF
100
AcDbEntity
  8
0
100
AcDbLine
 10
1704.346898
 20
2120.961961
 30
0.0
 11
1704.346898
 21
2110.555961
 31
0.0
  0
LINE
  5
C1C0
100
AcDbEntity
  8
0
100
AcDbLine
 10
1695.685898
 20
2120.961961
 30
0.0
 11
1695.685898
 21
2110.555961
 31
0.0
  0
ARC
  5
C1C1
100
AcDbEntity
  8
0
100
AcDbCircle
 10
1700.016398
 20
2114.031673
 30
0.0
 40
8.172033
100
AcDbArc
 50
58.000147
 51
121.999853
  0
LINE
  5
C1C2
100
AcDbEntity
  8
0
100
AcDbLine
 10
1815.255259
 20
2130.555961
 30
0.0
 11
1729.255259
 21
2130.555961
 31
0.0
  0
LINE
  5
C1C3
100
AcDbEntity
  8
0
100
AcDbLine
 10
1757.696759
 20
2122.555961
 30
0.0
 11
1786.814759
 21
2122.555961
 31
0.0
  0
ARC
  5
C1C4
100
AcDbEntity
  8
0
100
AcDbCircle
 10
1759.265259
 20
2114.031702
 30
0.0
 40
8.172009
100
AcDbArc
 50
58.000041
 51
121.999959
  0
ARC
  5
C1C5
100
AcDbEntity
  8
0
100
AcDbCircle
 10
1729.255259
 20
2128.555961
 30
0.0
 40
2.0
100
AcDbArc
 50
90.0
 51
180.0
  0
ARC
  5
C1C6
100
AcDbEntity
  8
0
100
AcDbCircle
 10
1725.255259
 20
2128.555961
 30
0.0
 40
2.0
100
AcDbArc
 50
270.0
 51
0.0
  0
LINE
  5
C1C7
100
AcDbEntity
  8
0
100
AcDbLine
 10
1754.934759
 20
2120.961961
 30
0.0
 11
1757.696759
 21
2122.555961
 31
0.0
  0
LINE
  5
C1C8
100
AcDbEntity
  8
0
100
AcDbLine
 10
1754.934759
 20
2110.555961
 30
0.0
 11
1754.934759
 21
2120.961961
 31
0.0
  0
ARC
  5
C1C9
100
AcDbEntity
  8
0
100
AcDbCircle
 10
1772.255259
 20
2091.386754
 30
0.0
 40
30.816876
100
AcDbArc
 50
73.680185
 51
106.319815
  0
LINE
  5
C1CA
100
AcDbEntity
  8
0
100
AcDbLine
 10
1763.595759
 20
2120.961961
 30
0.0
 11
1763.595759
 21
2110.555961
 31
0.0
  0
LINE
  5
C1CB
100
AcDbEntity
  8
0
100
AcDbLine
 10
1786.814759
 20
2122.555961
 30
0.0
 11
1789.575759
 21
2120.961961
 31
0.0
  0
LINE
  5
C1CC
100
AcDbEntity
  8
0
100
AcDbLine
 10
1789.575759
 20
2120.961961
 30
0.0
 11
1789.575759
 21
2110.555961
 31
0.0
  0
LINE
  5
C1CD
100
AcDbEntity
  8
0
100
AcDbLine
 10
1780.914759
 20
2120.961961
 30
0.0
 11
1780.914759
 21
2110.555961
 31
0.0
  0
ARC
  5
C1CE
100
AcDbEntity
  8
0
100
AcDbCircle
 10
1785.245259
 20
2114.031673
 30
0.0
 40
8.172033
100
AcDbArc
 50
58.000147
 51
121.999853
  0
LINE
  5
C1CF
100
AcDbEntity
  8
0
100
AcDbLine
 10
1842.925621
 20
2122.555961
 30
0.0
 11
1872.043621
 21
2122.555961
 31
0.0
  0
ARC
  5
C1D0
100
AcDbEntity
  8
0
100
AcDbCircle
 10
1844.494121
 20
2114.031702
 30
0.0
 40
8.172009
100
AcDbArc
 50
58.000041
 51
121.999959
  0
ARC
  5
C1D1
100
AcDbEntity
  8
0
100
AcDbCircle
 10
1815.255259
 20
2128.555961
 30
0.0
 40
2.0
100
AcDbArc
 50
0.0
 51
90.0
  0
ARC
  5
C1D2
100
AcDbEntity
  8
0
100
AcDbCircle
 10
1819.255259
 20
2128.555961
 30
0.0
 40
2.0
100
AcDbArc
 50
180.0
 51
270.0
  0
LINE
  5
C1D3
100
AcDbEntity
  8
0
100
AcDbLine
 10
1840.163621
 20
2120.961961
 30
0.0
 11
1842.925621
 21
2122.555961
 31
0.0
  0
LINE
  5
C1D4
100
AcDbEntity
  8
0
100
AcDbLine
 10
1840.163621
 20
2110.555961
 30
0.0
 11
1840.163621
 21
2120.961961
 31
0.0
  0
ARC
  5
C1D5
100
AcDbEntity
  8
0
100
AcDbCircle
 10
1870.474121
 20
2114.031673
 30
0.0
 40
8.172033
100
AcDbArc
 50
58.000147
 51
121.999853
  0
ARC
  5
C1D6
100
AcDbEntity
  8
0
100
AcDbCircle
 10
1857.484121
 20
2091.386754
 30
0.0
 40
30.816876
100
AcDbArc
 50
73.680185
 51
106.319815
  0
LINE
  5
C1D7
100
AcDbEntity
  8
0
100
AcDbLine
 10
1866.143621
 20
2120.961961
 30
0.0
 11
1866.143621
 21
2110.555961
 31
0.0
  0
LINE
  5
C1D8
100
AcDbEntity
  8
0
100
AcDbLine
 10
1848.824621
 20
2120.961961
 30
0.0
 11
1848.824621
 21
2110.555961
 31
0.0
  0
ARC
  5
C1D9
100
AcDbEntity
  8
0
100
AcDbCircle
 10
1881.146408
 20
2116.555961
 30
0.0
 40
6.0
100
AcDbArc
 50
195.0
 51
270.0
  0
LINE
  5
C1DA
100
AcDbEntity
  8
0
100
AcDbLine
 10
1873.56193
 20
2121.679401
 30
0.0
 11
1873.446852
 21
2122.108876
 31
0.0
  0
LINE
  5
C1DB
100
AcDbEntity
  8
0
100
AcDbLine
 10
1874.804621
 20
2120.961961
 30
0.0
 11
1874.804621
 21
2110.555961
 31
0.0
  0
LINE
  5
C1DC
100
AcDbEntity
  8
0
100
AcDbLine
 10
1875.350853
 20
2115.003047
 30
0.0
 11
1874.804621
 21
2117.041614
 31
0.0
  0
LINE
  5
C1DD
100
AcDbEntity
  8
0
100
AcDbLine
 10
1872.043621
 20
2122.555961
 30
0.0
 11
1874.804621
 21
2120.961961
 31
0.0
  0
ARC
  5
C1DE
100
AcDbEntity
  8
0
100
AcDbCircle
 10
1867.651297
 20
2120.555961
 30
0.0
 40
6.0
100
AcDbArc
 50
15.0
 51
90.0
  0
LINE
  5
C1DF
100
AcDbEntity
  8
0
100
AcDbLine
 10
2069.755259
 20
2015.555961
 30
0.0
 11
2069.755259
 21
2120.555961
 31
0.0
  0
LINE
  5
C1E0
100
AcDbEntity
  8
0
100
AcDbLine
 10
2045.755259
 20
1910.555961
 30
0.0
 11
2045.755259
 21
2120.555961
 31
0.0
  0
LINE
  5
C1E1
100
AcDbEntity
  8
0
100
AcDbLine
 10
1937.255259
 20
2051.555961
 30
0.0
 11
1937.255259
 21
2085.555961
 31
0.0
  0
LINE
  5
C1E2
100
AcDbEntity
  8
0
100
AcDbLine
 10
2069.755259
 20
1910.555961
 30
0.0
 11
2045.755259
 21
1910.555961
 31
0.0
  0
LINE
  5
C1E3
100
AcDbEntity
  8
0
100
AcDbLine
 10
1992.255259
 20
1770.555961
 30
0.0
 11
1992.255259
 21
1991.055961
 31
0.0
  0
LINE
  5
C1E4
100
AcDbEntity
  8
0
100
AcDbLine
 10
1899.255259
 20
1863.055961
 30
0.0
 11
1899.255259
 21
2041.555961
 31
0.0
  0
LINE
  5
C1E5
100
AcDbEntity
  8
0
100
AcDbLine
 10
1992.255259
 20
2015.555961
 30
0.0
 11
1899.255259
 21
2015.555961
 31
0.0
  0
ARC
  5
C1E6
100
AcDbEntity
  8
0
100
AcDbCircle
 10
1932.255259
 20
2051.555961
 30
0.0
 40
5.0
100
AcDbArc
 50
270.0
 51
0.0
  0
ARC
  5
C1E7
100
AcDbEntity
  8
0
100
AcDbCircle
 10
1904.255259
 20
2041.555961
 30
0.0
 40
5.0
100
AcDbArc
 50
90.0
 51
180.0
  0
LINE
  5
C1E8
100
AcDbEntity
  8
0
100
AcDbLine
 10
2002.255259
 20
1954.555961
 30
0.0
 11
2020.755259
 21
1954.555961
 31
0.0
  0
ARC
  5
C1E9
100
AcDbEntity
  8
0
100
AcDbCircle
 10
2002.255259
 20
1944.555961
 30
0.0
 40
10.0
100
AcDbArc
 50
90.0
 51
180.0
  0
LINE
  5
C1EA
100
AcDbEntity
  8
0
100
AcDbLine
 10
2045.755259
 20
1950.555961
 30
0.0
 11
2020.755259
 21
1954.555961
 31
0.0
  0
LINE
  5
C1EB
100
AcDbEntity
  8
0
100
AcDbLine
 10
2069.755259
 20
1910.555961
 30
0.0
 11
2069.755259
 21
2015.555961
 31
0.0
  0
LINE
  5
C1EC
100
AcDbEntity
  8
0
100
AcDbLine
 10
2069.755259
 20
2120.555961
 30
0.0
 11
2045.755259
 21
2120.555961
 31
0.0
  0
LINE
  5
C1ED
100
AcDbEntity
  8
0
100
AcDbLine
 10
1937.255259
 20
2076.555961
 30
0.0
 11
2020.755259
 21
2076.555961
 31
0.0
  0
LINE
  5
C1EE
100
AcDbEntity
  8
0
100
AcDbLine
 10
1901.255259
 20
2085.555961
 30
0.0
 11
1901.255259
 21
2086.555961
 31
0.0
  0
ARC
  5
C1EF
100
AcDbEntity
  8
0
100
AcDbCircle
 10
1910.158454
 20
2091.386754
 30
0.0
 40
30.816876
100
AcDbArc
 50
73.680185
 51
106.319815
  0
LINE
  5
C1F0
100
AcDbEntity
  8
0
100
AcDbLine
 10
1895.599954
 20
2122.555961
 30
0.0
 11
1924.717954
 21
2122.555961
 31
0.0
  0
LINE
  5
C1F1
100
AcDbEntity
  8
0
100
AcDbLine
 10
1901.498954
 20
2120.961961
 30
0.0
 11
1901.498954
 21
2110.555961
 31
0.0
  0
LINE
  5
C1F2
100
AcDbEntity
  8
0
100
AcDbLine
 10
1892.837954
 20
2120.961961
 30
0.0
 11
1895.599954
 21
2122.555961
 31
0.0
  0
LINE
  5
C1F3
100
AcDbEntity
  8
0
100
AcDbLine
 10
1892.837954
 20
2110.555961
 30
0.0
 11
1892.837954
 21
2120.961961
 31
0.0
  0
ARC
  5
C1F4
100
AcDbEntity
  8
0
100
AcDbCircle
 10
1897.168454
 20
2114.031702
 30
0.0
 40
8.172009
100
AcDbArc
 50
58.000041
 51
121.999959
  0
ARC
  5
C1F5
100
AcDbEntity
  8
0
100
AcDbCircle
 10
1923.148454
 20
2114.031673
 30
0.0
 40
8.172033
100
AcDbArc
 50
58.000147
 51
121.999853
  0
LINE
  5
C1F6
100
AcDbEntity
  8
0
100
AcDbLine
 10
1924.717954
 20
2122.555961
 30
0.0
 11
1927.478954
 21
2120.961961
 31
0.0
  0
LINE
  5
C1F7
100
AcDbEntity
  8
0
100
AcDbLine
 10
1927.478954
 20
2120.961961
 30
0.0
 11
1927.478954
 21
2110.555961
 31
0.0
  0
LINE
  5
C1F8
100
AcDbEntity
  8
0
100
AcDbLine
 10
1918.817954
 20
2120.961961
 30
0.0
 11
1918.817954
 21
2110.555961
 31
0.0
  0
LINE
  5
C1F9
100
AcDbEntity
  8
0
100
AcDbLine
 10
1937.255259
 20
2108.555961
 30
0.0
 11
1937.255259
 21
2086.555961
 31
0.0
  0
LINE
  5
C1FA
100
AcDbEntity
  8
0
100
AcDbLine
 10
1935.255259
 20
2110.555961
 30
0.0
 11
1937.255259
 21
2108.555961
 31
0.0
  0
LINE
  5
C1FB
100
AcDbEntity
  8
0
100
AcDbLine
 10
2020.755259
 20
2076.555961
 30
0.0
 11
2045.755259
 21
2080.555961
 31
0.0
  0
VIEWPORT
  5
41
100
AcDbEntity
 67
     1
  8
0
100
AcDbViewport
 10
117.358407
 20
73.5
 30
0.0
 40
234.716814
 41
147.0
 68
    -1
 69
     1
1001
ACAD
1000
MVIEW
1002
{
1070
    16
1010
0.0
1020
0.0
1030
0.0
1010
0.0
1020
0.0
1030
1.0
1040
0.0
1040
147.0
1040
117.358407
1040
73.5
1040
50.0
1040
0.0
1040
0.0
1070
     0
1070
   100
1070
     1
1070
     1
1070
     0
1070
     0
1070
     0
1070
     0
1040
0.0
1040
0.0
1040
0.0
1040
1.0
1040
1.0
1040
0.0
1040
0.0
1070
     0
1002
{
1002
}
1002
}
  0
ENDSEC
  0
SECTION
  2
OBJECTS
  0
DICTIONARY
  5
C
100
AcDbDictionary
  3
ACAD_GROUP
350
D
  3
ACAD_MLINESTYLE
350
E
  0
DICTIONARY
  5
D
102
{ACAD_REACTORS
330
C
102
}
100
AcDbDictionary
  0
DICTIONARY
  5
E
102
{ACAD_REACTORS
330
C
102
}
100
AcDbDictionary
  3
STANDARD
350
1B
  0
MLINESTYLE
  5
1B
102
{ACAD_REACTORS
330
E
102
}
100
AcDbMlineStyle
  2
STANDARD
 70
     0
  3

 62
     0
 51
90.0
 52
90.0
 71
     2
 49
0.5
 62
   256
  6
BYLAYER
 49
-0.5
 62
   256
  6
BYLAYER
  0
ENDSEC
  0
EOF
