  0
SECTION
  2
HEADER
  9
$ACADVER
  1
AC1012
  9
$DWGCODEPAGE
  3
dos932
  9
$INSBASE
 10
0.0
 20
0.0
 30
0.0
  9
$EXTMIN
 10
110.0
 20
50.0
 30
0.0
  9
$EXTMAX
 10
2860.0
 20
1910.0
 30
0.0
  9
$LIMMIN
 10
0.0
 20
0.0
  9
$LIMMAX
 10
2970.0
 20
2100.0
  9
$ORTHOMODE
 70
     1
  9
$REGENMODE
 70
     1
  9
$FILLMODE
 70
     1
  9
$QTEXTMODE
 70
     0
  9
$MIRRTEXT
 70
     1
  9
$DRAGMODE
 70
     2
  9
$LTSCALE
 40
40.0
  9
$OSMODE
 70
   163
  9
$ATTMODE
 70
     1
  9
$TEXTSIZE
 40
40.0
  9
$TRACEWID
 40
0.05
  9
$TEXTSTYLE
  7
STANDARD
  9
$CLAYER
  8
0
  9
$CELTYPE
  6
BYLAYER
  9
$CECOLOR
 62
   256
  9
$CELTSCALE
 40
1.0
  9
$DELOBJ
 70
     1
  9
$DISPSILH
 70
     0
  9
$DIMSCALE
 40
10.0
  9
$DIMASZ
 40
2.8
  9
$DIMEXO
 40
1.0
  9
$DIMDLI
 40
5.0
  9
$DIMRND
 40
0.1
  9
$DIMDLE
 40
0.0
  9
$DIMEXE
 40
1.0
  9
$DIMTP
 40
0.0
  9
$DIMTM
 40
0.0
  9
$DIMTXT
 40
2.5
  9
$DIMCEN
 40
0.0
  9
$DIMTSZ
 40
0.0
  9
$DIMTOL
 70
     0
  9
$DIMLIM
 70
     0
  9
$DIMTIH
 70
     0
  9
$DIMTOH
 70
     0
  9
$DIMSE1
 70
     0
  9
$DIMSE2
 70
     0
  9
$DIMTAD
 70
     3
  9
$DIMZIN
 70
     8
  9
$DIMBLK
  1

  9
$DIMASO
 70
     1
  9
$DIMSHO
 70
     1
  9
$DIMPOST
  1
 
  9
$DIMAPOST
  1

  9
$DIMALT
 70
     0
  9
$DIMALTD
 70
     2
  9
$DIMALTF
 40
1.0
  9
$DIMLFAC
 40
1.0
  9
$DIMTOFL
 70
     1
  9
$DIMTVP
 40
0.0
  9
$DIMTIX
 70
     0
  9
$DIMSOXD
 70
     0
  9
$DIMSAH
 70
     1
  9
$DIMBLK1
  1
_OPEN
  9
$DIMBLK2
  1
_OPEN
  9
$DIMSTYLE
  2
DIM1
  9
$DIMCLRD
 70
     2
  9
$DIMCLRE
 70
     2
  9
$DIMCLRT
 70
     2
  9
$DIMTFAC
 40
0.7
  9
$DIMGAP
 40
0.85
  9
$DIMJUST
 70
     0
  9
$DIMSD1
 70
     0
  9
$DIMSD2
 70
     0
  9
$DIMTOLJ
 70
     1
  9
$DIMTZIN
 70
     8
  9
$DIMALTZ
 70
     8
  9
$DIMALTTZ
 70
     8
  9
$DIMFIT
 70
     0
  9
$DIMUPT
 70
     0
  9
$DIMUNIT
 70
     2
  9
$DIMDEC
 70
     2
  9
$DIMTDEC
 70
     3
  9
$DIMALTU
 70
     2
  9
$DIMALTTD
 70
     3
  9
$DIMTXSTY
  7
DIM
  9
$DIMAUNIT
 70
     0
  9
$LUNITS
 70
     2
  9
$LUPREC
 70
     4
  9
$SKETCHINC
 40
0.1
  9
$FILLETRAD
 40
0.0
  9
$AUNITS
 70
     0
  9
$AUPREC
 70
     0
  9
$MENU
  1
C:\ACADR13\WIN\SUPPORT\ACAD.mnc
  9
$ELEVATION
 40
0.0
  9
$PELEVATION
 40
0.0
  9
$THICKNESS
 40
0.0
  9
$LIMCHECK
 70
     0
  9
$BLIPMODE
 70
     1
  9
$CHAMFERA
 40
0.0
  9
$CHAMFERB
 40
0.0
  9
$CHAMFERC
 40
0.0
  9
$CHAMFERD
 40
0.0
  9
$SKPOLY
 70
     0
  9
$TDCREATE
 40
2451592.409667916
  9
$TDUPDATE
 40
2451981.561170787
  9
$TDINDWG
 40
0.0466397454
  9
$TDUSRTIMER
 40
0.0466397454
  9
$USRTIMER
 70
     1
  9
$ANGBASE
 50
0.0
  9
$ANGDIR
 70
     0
  9
$PDMODE
 70
     0
  9
$PDSIZE
 40
0.0
  9
$PLINEWID
 40
0.0
  9
$COORDS
 70
     1
  9
$SPLFRAME
 70
     0
  9
$SPLINETYPE
 70
     6
  9
$SPLINESEGS
 70
     8
  9
$ATTDIA
 70
     0
  9
$ATTREQ
 70
     1
  9
$HANDLING
 70
     1
  9
$HANDSEED
  5
8694
  9
$SURFTAB1
 70
     6
  9
$SURFTAB2
 70
     6
  9
$SURFTYPE
 70
     6
  9
$SURFU
 70
     6
  9
$SURFV
 70
     6
  9
$UCSNAME
  2

  9
$UCSORG
 10
0.0
 20
0.0
 30
0.0
  9
$UCSXDIR
 10
1.0
 20
0.0
 30
0.0
  9
$UCSYDIR
 10
0.0
 20
1.0
 30
0.0
  9
$PUCSNAME
  2

  9
$PUCSORG
 10
0.0
 20
0.0
 30
0.0
  9
$PUCSXDIR
 10
1.0
 20
0.0
 30
0.0
  9
$PUCSYDIR
 10
0.0
 20
1.0
 30
0.0
  9
$USERI1
 70
     0
  9
$USERI2
 70
     0
  9
$USERI3
 70
     0
  9
$USERI4
 70
     0
  9
$USERI5
 70
     0
  9
$USERR1
 40
0.0
  9
$USERR2
 40
0.0
  9
$USERR3
 40
0.0
  9
$USERR4
 40
0.0
  9
$USERR5
 40
0.0
  9
$WORLDVIEW
 70
     1
  9
$SHADEDGE
 70
     3
  9
$SHADEDIF
 70
    70
  9
$TILEMODE
 70
     1
  9
$MAXACTVP
 70
    16
  9
$PINSBASE
 10
0.0
 20
0.0
 30
0.0
  9
$PLIMCHECK
 70
     0
  9
$PEXTMIN
 10
1.000000E+20
 20
1.000000E+20
 30
1.000000E+20
  9
$PEXTMAX
 10
-1.000000E+20
 20
-1.000000E+20
 30
-1.000000E+20
  9
$PLIMMIN
 10
0.0
 20
0.0
  9
$PLIMMAX
 10
20.0
 20
147.0
  9
$UNITMODE
 70
     0
  9
$VISRETAIN
 70
     0
  9
$PLINEGEN
 70
     0
  9
$PSLTSCALE
 70
     1
  9
$TREEDEPTH
 70
  3020
  9
$PICKSTYLE
 70
     1
  9
$CMLSTYLE
  2
STANDARD
  9
$CMLJUST
 70
     0
  9
$CMLSCALE
 40
1.0
  9
$SAVEIMAGES
 70
     1
  0
ENDSEC
  0
SECTION
  2
CLASSES
  0
CLASS
  1
LWPOLYLINE
  2
AcDbPolyline
  3
"AutoCAD"
 90
    32768
280
     0
281
     1
  0
ENDSEC
  0
SECTION
  2
TABLES
  0
TABLE
  2
VPORT
  5
8
100
AcDbSymbolTable
 70
     2
  0
VPORT
  5
8693
100
AcDbSymbolTableRecord
100
AcDbViewportTableRecord
  2
*ACTIVE
 70
     0
 10
0.0
 20
0.0
 11
1.0
 21
1.0
 12
1977.992958
 22
1122.54369
 13
0.0
 23
0.0
 14
1.0
 24
1.0
 15
0.0
 25
0.0
 16
0.0
 26
0.0
 36
1.0
 17
0.0
 27
0.0
 37
0.0
 40
2245.08738
 41
1.762063
 42
50.0
 43
0.0
 44
0.0
 50
0.0
 51
0.0
 71
     0
 72
   100
 73
     1
 74
     1
 75
     0
 76
     0
 77
     0
 78
     0
  0
ENDTAB
  0
TABLE
  2
LTYPE
  5
5
100
AcDbSymbolTable
 70
     1
  0
LTYPE
  5
12
100
AcDbSymbolTableRecord
100
AcDbLinetypeTableRecord
  2
BYBLOCK
 70
     0
  3

 72
    65
 73
     0
 40
0.0
  0
LTYPE
  5
13
100
AcDbSymbolTableRecord
100
AcDbLinetypeTableRecord
  2
BYLAYER
 70
     0
  3

 72
    65
 73
     0
 40
0.0
  0
LTYPE
  5
14
100
AcDbSymbolTableRecord
100
AcDbLinetypeTableRecord
  2
CONTINUOUS
 70
     0
  3
Solid line
 72
    65
 73
     0
 40
0.0
  0
ENDTAB
  0
TABLE
  2
LAYER
  5
2
100
AcDbSymbolTable
 70
     1
  0
LAYER
  5
F
100
AcDbSymbolTableRecord
100
AcDbLayerTableRecord
  2
0
 70
     0
 62
     7
  6
CONTINUOUS
  0
ENDTAB
  0
TABLE
  2
STYLE
  5
3
100
AcDbSymbolTable
 70
     3
  0
STYLE
  5
10
100
AcDbSymbolTableRecord
100
AcDbTextStyleTableRecord
  2
STANDARD
 70
     0
 40
0.0
 41
0.8
 50
0.0
 71
     0
 42
40.0
  3
simplex
  4
extfont
  0
STYLE
  5
237C
100
AcDbSymbolTableRecord
100
AcDbTextStyleTableRecord
  2
PTSH
 70
     0
 40
0.0
 41
0.9
 50
0.0
 71
     0
 42
4.0
  3
SIMPLEX
  4
EXTFONT
  0
STYLE
  5
2592
100
AcDbSymbolTableRecord
100
AcDbTextStyleTableRecord
  2
DIM
 70
     0
 40
0.0
 41
0.8
 50
0.0
 71
     0
 42
4.0
  3
simplex
  4
extfont
  0
ENDTAB
  0
TABLE
  2
VIEW
  5
6
100
AcDbSymbolTable
 70
     0
  0
ENDTAB
  0
TABLE
  2
UCS
  5
7
100
AcDbSymbolTable
 70
     0
  0
ENDTAB
  0
TABLE
  2
APPID
  5
9
100
AcDbSymbolTable
 70
     1
  0
APPID
  5
11
100
AcDbSymbolTableRecord
100
AcDbRegAppTableRecord
  2
ACAD
 70
     0
  0
ENDTAB
  0
TABLE
  2
DIMSTYLE
  5
A
100
AcDbSymbolTable
 70
     1
  0
DIMSTYLE
105
2237
100
AcDbSymbolTableRecord
100
AcDbDimStyleTableRecord
  2
DIM1
 70
     0
  3
 
  4

  5

  6
_OPEN
  7
_OPEN
 40
10.0
 41
2.8
 42
1.0
 43
5.0
 44
1.0
 45
0.1
 46
0.0
 47
0.0
 48
0.0
140
2.5
141
0.0
142
0.0
143
1.0
144
1.0
145
0.0
146
0.7
147
0.85
 71
     0
 72
     0
 73
     0
 74
     0
 75
     0
 76
     0
 77
     3
 78
     8
170
     0
171
     2
172
     1
173
     1
174
     0
175
     0
176
     2
177
     2
178
     2
270
     2
271
     2
272
     3
273
     2
274
     3
340
2592
275
     0
280
     0
281
     0
282
     0
283
     1
284
     8
285
     8
286
     8
287
     0
288
     0
  0
ENDTAB
  0
TABLE
  2
BLOCK_RECORD
  5
1
100
AcDbSymbolTable
 70
     2
  0
BLOCK_RECORD
  5
18
100
AcDbSymbolTableRecord
100
AcDbBlockTableRecord
  2
*MODEL_SPACE
  0
BLOCK_RECORD
  5
15
100
AcDbSymbolTableRecord
100
AcDbBlockTableRecord
  2
*PAPER_SPACE
  0
BLOCK_RECORD
  5
2448
100
AcDbSymbolTableRecord
100
AcDbBlockTableRecord
  2
_OPEN
  0
BLOCK_RECORD
  5
822F
100
AcDbSymbolTableRecord
100
AcDbBlockTableRecord
  2
YA
  0
ENDTAB
  0
ENDSEC
  0
SECTION
  2
BLOCKS
  0
BLOCK
  5
3C
100
AcDbEntity
  8
0
100
AcDbBlockBegin
  2
*MODEL_SPACE
 70
     0
 10
0.0
 20
0.0
 30
0.0
  3
*MODEL_SPACE
  1

  0
ENDBLK
  5
3D
100
AcDbEntity
  8
0
100
AcDbBlockEnd
  0
BLOCK
  5
3A
100
AcDbEntity
 67
     1
  8
0
100
AcDbBlockBegin
  2
*PAPER_SPACE
 70
     0
 10
0.0
 20
0.0
 30
0.0
  3
*PAPER_SPACE
  1

  0
ENDBLK
  5
3B
100
AcDbEntity
 67
     1
  8
0
100
AcDbBlockEnd
  0
BLOCK
  5
2449
100
AcDbEntity
  8
0
 48
4.0
100
AcDbBlockBegin
  2
_OPEN
 70
     0
 10
0.0
 20
0.0
 30
0.0
  3
_OPEN
  1
H1111.DWG
  0
LINE
  5
244A
100
AcDbEntity
  8
0
  6
BYBLOCK
 62
     0
 48
4.0
100
AcDbLine
 10
-1.0
 20
0.166667
 30
0.0
 11
0.0
 21
0.0
 31
0.0
  0
LINE
  5
244B
100
AcDbEntity
  8
0
  6
BYBLOCK
 62
     0
 48
4.0
100
AcDbLine
 10
0.0
 20
0.0
 30
0.0
 11
-1.0
 21
-0.166667
 31
0.0
  0
LINE
  5
244C
100
AcDbEntity
  8
0
  6
BYBLOCK
 62
     0
 48
4.0
100
AcDbLine
 10
0.0
 20
0.0
 30
0.0
 11
-1.0
 21
0.0
 31
0.0
  0
ENDBLK
  5
244D
100
AcDbEntity
  8
0
 48
4.0
100
AcDbBlockEnd
  0
BLOCK
  5
8237
100
AcDbEntity
  8
0
100
AcDbBlockBegin
  2
YA
 70
     0
 10
0.0
 20
0.0
 30
0.0
  3
YA
  1

  0
LINE
  5
8230
100
AcDbEntity
  8
0
100
AcDbLine
 10
-16.8065
 20
2.801
 30
0.0
 11
-8.4035
 21
2.801
 31
0.0
  0
LINE
  5
8231
100
AcDbEntity
  8
0
100
AcDbLine
 10
-8.4035
 20
2.801
 30
0.0
 11
-7.0025
 21
1.4005
 31
0.0
  0
LINE
  5
8232
100
AcDbEntity
  8
0
100
AcDbLine
 10
-7.0025
 20
1.4005
 30
0.0
 11
-2.862
 21
1.4005
 31
0.0
  0
LINE
  5
8233
100
AcDbEntity
  8
0
100
AcDbLine
 10
-2.862
 20
1.4005
 30
0.0
 11
-2.862
 21
2.801
 31
0.0
  0
LINE
  5
8234
100
AcDbEntity
  8
0
100
AcDbLine
 10
-2.862
 20
2.801
 30
0.0
 11
0.0
 21
0.0
 31
0.0
  0
LINE
  5
8235
100
AcDbEntity
  8
0
100
AcDbLine
 10
0.0
 20
0.0
 30
0.0
 11
-14.0055
 21
0.0
 31
0.0
  0
LINE
  5
8236
100
AcDbEntity
  8
0
100
AcDbLine
 10
-14.0055
 20
0.0
 30
0.0
 11
-16.8065
 21
2.801
 31
0.0
  0
ENDBLK
  5
8238
100
AcDbEntity
  8
0
100
AcDbBlockEnd
  0
ENDSEC
  0
SECTION
  2
ENTITIES
  0
MTEXT
  5
ADA
100
AcDbEntity
  8
0
100
AcDbMText
 10
3801.392798
 20
498.463111
 30
0.0
 40
2.0
 41
472.264648
 71
     1
 72
     1
  1

  0
MTEXT
  5
ADB
100
AcDbEntity
  8
0
100
AcDbMText
 10
3890.499332
 20
578.507937
 30
0.0
 40
2.0
 41
454.443342
 71
     1
 72
     1
  1

  0
MTEXT
  5
ADC
100
AcDbEntity
  8
0
100
AcDbMText
 10
3837.035411
 20
-479.862464
 30
0.0
 40
2.0
 41
516.817915
 71
     1
 72
     1
  1

  0
TEXT
  5
2529
100
AcDbEntity
  8
0
  6
CONTINUOUS
100
AcDbText
 10
2748.77551
 20
70.714286
 30
0.0
 40
28.571429
  1
J3B
 41
0.9
  7
PTSH
 72
     2
 11
2810.0
 21
85.0
 31
0.0
100
AcDbText
 73
     2
  0
POLYLINE
  5
2563
100
AcDbEntity
  8
0
100
AcDb2dPolyline
 66
     1
 10
0.0
 20
0.0
 30
0.0
 70
     1
  0
VERTEX
  5
8679
100
AcDbEntity
  8
0
100
AcDbVertex
100
AcDb2dVertex
 10
110.0
 20
50.0
 30
0.0
  0
VERTEX
  5
867A
100
AcDbEntity
  8
0
100
AcDbVertex
100
AcDb2dVertex
 10
2860.0
 20
50.0
 30
0.0
  0
VERTEX
  5
867B
100
AcDbEntity
  8
0
100
AcDbVertex
100
AcDb2dVertex
 10
2860.0
 20
1910.0
 30
0.0
  0
VERTEX
  5
867C
100
AcDbEntity
  8
0
100
AcDbVertex
100
AcDb2dVertex
 10
110.0
 20
1910.0
 30
0.0
  0
SEQEND
  5
867D
100
AcDbEntity
  8
0
  0
TEXT
  5
3FCE
100
AcDbEntity
  8
0
100
AcDbText
 10
1243.5
 20
135.0
 30
0.0
 40
35.0
  1
TLV  JF3B (JIS10K)
 72
     4
 11
1485.0
 21
150.0
 31
0.0
100
AcDbText
  0
LINE
  5
7492
100
AcDbEntity
  8
0
100
AcDbLine
 10
2277.142438
 20
1367.341581
 30
0.0
 11
2277.142438
 21
1361.276699
 31
0.0
  0
LINE
  5
7493
100
AcDbEntity
  8
0
100
AcDbLine
 10
2267.327483
 20
1367.341581
 30
0.0
 11
2267.327483
 21
1361.276699
 31
0.0
  0
LINE
  5
7494
100
AcDbEntity
  8
0
100
AcDbLine
 10
2282.049915
 20
1361.273834
 30
0.0
 11
2282.049915
 21
1367.341581
 31
0.0
  0
LINE
  5
7495
100
AcDbEntity
  8
0
100
AcDbLine
 10
2207.223407
 20
1367.341581
 30
0.0
 11
2207.223407
 21
1361.276699
 31
0.0
  0
LINE
  5
7496
100
AcDbEntity
  8
0
100
AcDbLine
 10
2202.315929
 20
1361.273834
 30
0.0
 11
2202.315929
 21
1367.341581
 31
0.0
  0
LINE
  5
7497
100
AcDbEntity
  8
0
100
AcDbLine
 10
2217.038361
 20
1367.341581
 30
0.0
 11
2217.038361
 21
1361.276699
 31
0.0
  0
LINE
  5
7498
100
AcDbEntity
  8
0
100
AcDbLine
 10
2221.945838
 20
1367.341581
 30
0.0
 11
2221.945838
 21
1361.276699
 31
0.0
  0
LINE
  5
7499
100
AcDbEntity
  8
0
100
AcDbLine
 10
2262.420006
 20
1367.341581
 30
0.0
 11
2262.420006
 21
1361.276699
 31
0.0
  0
LINE
  5
749A
100
AcDbEntity
  8
0
100
AcDbLine
 10
1994.707956
 20
1361.315424
 30
0.0
 11
1994.707956
 21
1367.35297
 31
0.0
  0
LINE
  5
749B
100
AcDbEntity
  8
0
100
AcDbLine
 10
2003.207996
 20
1368.315424
 30
0.0
 11
2003.207996
 21
1361.315424
 31
0.0
  0
LINE
  5
749C
100
AcDbEntity
  8
0
100
AcDbLine
 10
1986.20837
 20
1368.315424
 30
0.0
 11
1986.20837
 21
1361.315424
 31
0.0
  0
LINE
  5
749D
100
AcDbEntity
  8
0
100
AcDbLine
 10
2054.82209
 20
1361.315424
 30
0.0
 11
2054.82209
 21
1367.35297
 31
0.0
  0
LINE
  5
749E
100
AcDbEntity
  8
0
100
AcDbLine
 10
2046.322051
 20
1368.315424
 30
0.0
 11
2046.322051
 21
1361.315424
 31
0.0
  0
LINE
  5
749F
100
AcDbEntity
  8
0
100
AcDbLine
 10
2063.321677
 20
1368.315424
 30
0.0
 11
2063.321677
 21
1361.315424
 31
0.0
  0
LINE
  5
74A0
100
AcDbEntity
  8
0
100
AcDbLine
 10
2426.584909
 20
1368.315424
 30
0.0
 11
2426.584909
 21
1361.315424
 31
0.0
  0
LINE
  5
74A1
100
AcDbEntity
  8
0
100
AcDbLine
 10
2435.084948
 20
1361.315424
 30
0.0
 11
2435.084948
 21
1367.35297
 31
0.0
  0
LINE
  5
74A2
100
AcDbEntity
  8
0
100
AcDbLine
 10
2443.584535
 20
1368.315424
 30
0.0
 11
2443.584535
 21
1361.315424
 31
0.0
  0
LINE
  5
74A3
100
AcDbEntity
  8
0
100
AcDbLine
 10
2383.470853
 20
1368.315424
 30
0.0
 11
2383.470853
 21
1361.315424
 31
0.0
  0
LINE
  5
74A4
100
AcDbEntity
  8
0
100
AcDbLine
 10
2366.471227
 20
1368.315424
 30
0.0
 11
2366.471227
 21
1361.315424
 31
0.0
  0
LINE
  5
74A5
100
AcDbEntity
  8
0
100
AcDbLine
 10
2374.970814
 20
1361.315424
 30
0.0
 11
2374.970814
 21
1367.35297
 31
0.0
  0
LINE
  5
74A6
100
AcDbEntity
  8
0
100
AcDbLine
 10
1304.435055
 20
1361.315424
 30
0.0
 11
1304.435055
 21
1383.315424
 31
0.0
  0
LINE
  5
74A7
100
AcDbEntity
  8
0
100
AcDbLine
 10
1284.435055
 20
1361.315424
 30
0.0
 11
1284.435055
 21
1383.315424
 31
0.0
  0
LINE
  5
74A8
100
AcDbEntity
  8
0
100
AcDbLine
 10
1661.04117
 20
1361.315424
 30
0.0
 11
1661.04117
 21
1383.315424
 31
0.0
  0
LINE
  5
74A9
100
AcDbEntity
  8
0
100
AcDbLine
 10
1641.04117
 20
1361.315424
 30
0.0
 11
1641.04117
 21
1383.315424
 31
0.0
  0
LINE
  5
74AA
100
AcDbEntity
  8
0
100
AcDbLine
 10
1500.268098
 20
1361.315424
 30
0.0
 11
1500.268098
 21
1370.315424
 31
0.0
  0
LINE
  5
74AB
100
AcDbEntity
  8
0
100
AcDbLine
 10
1480.268098
 20
1361.315424
 30
0.0
 11
1480.268098
 21
1370.315424
 31
0.0
  0
LINE
  5
74AC
100
AcDbEntity
  8
0
100
AcDbLine
 10
654.38724
 20
1358.815424
 30
0.0
 11
654.38724
 21
1380.815424
 31
0.0
  0
LINE
  5
74AD
100
AcDbEntity
  8
0
100
AcDbLine
 10
674.38724
 20
1358.815424
 30
0.0
 11
674.38724
 21
1380.815424
 31
0.0
  0
LINE
  5
74AE
100
AcDbEntity
  8
0
100
AcDbLine
 10
1074.447782
 20
1358.815424
 30
0.0
 11
1074.447782
 21
1380.815424
 31
0.0
  0
LINE
  5
74AF
100
AcDbEntity
  8
0
100
AcDbLine
 10
1054.447782
 20
1358.815424
 30
0.0
 11
1054.447782
 21
1380.815424
 31
0.0
  0
LINE
  5
74B0
100
AcDbEntity
  8
0
100
AcDbLine
 10
891.942468
 20
1358.815424
 30
0.0
 11
891.942468
 21
1367.815424
 31
0.0
  0
LINE
  5
74B1
100
AcDbEntity
  8
0
100
AcDbLine
 10
871.942468
 20
1358.815424
 30
0.0
 11
871.942468
 21
1367.815424
 31
0.0
  0
LINE
  5
74B2
100
AcDbEntity
  8
0
100
AcDbLine
 10
1104.452811
 20
1329.815424
 30
0.0
 11
1082.452811
 21
1329.815424
 31
0.0
  0
LINE
  5
74B3
100
AcDbEntity
  8
0
100
AcDbLine
 10
1082.870081
 20
1304.815424
 30
0.0
 11
1100.18746
 21
1304.815424
 31
0.0
  0
ARC
  5
74B4
100
AcDbEntity
  8
0
100
AcDbCircle
 10
1100.452811
 20
1300.810127
 30
0.0
 40
4.0
100
AcDbArc
 50
97.180756
 51
180.0
  0
ARC
  5
74B5
100
AcDbEntity
  8
0
100
AcDbCircle
 10
1098.759672
 20
1351.451538
 30
0.0
 40
9.863886
100
AcDbArc
 50
64.478882
 51
115.521118
  0
LINE
  5
74B6
100
AcDbEntity
  8
0
100
AcDbLine
 10
1103.009465
 20
1361.315424
 30
0.0
 11
1086.009839
 21
1361.315424
 31
0.0
  0
LINE
  5
74B7
100
AcDbEntity
  8
0
100
AcDbLine
 10
1024.447782
 20
1354.315424
 30
0.0
 11
1104.452811
 21
1354.315424
 31
0.0
  0
LINE
  5
74B8
100
AcDbEntity
  8
0
100
AcDbLine
 10
1024.447782
 20
1341.815424
 30
0.0
 11
1104.452811
 21
1341.815424
 31
0.0
  0
TEXT
  5
74B9
100
AcDbEntity
  8
0
100
AcDbText
 10
342.995022
 20
1297.777159
 30
0.0
 40
35.0
  1
正面
100
AcDbText
  0
TEXT
  5
74BB
100
AcDbEntity
  8
0
100
AcDbText
 10
845.973128
 20
1179.693258
 30
0.0
 40
25.0
  1
15A
 72
     4
 11
876.925509
 21
1192.193258
 31
0.0
100
AcDbText
  0
LINE
  5
74BC
100
AcDbEntity
  8
0
100
AcDbLine
 10
632.382211
 20
1279.854149
 30
0.0
 11
632.382211
 21
1300.810127
 31
0.0
  0
LINE
  5
74BD
100
AcDbEntity
  8
0
100
AcDbLine
 10
696.382211
 20
1279.854149
 30
0.0
 11
696.382211
 21
1300.815424
 31
0.0
  0
ARC
  5
74BE
100
AcDbEntity
  8
0
100
AcDbCircle
 10
664.38724
 20
1279.815424
 30
0.0
 40
32.0
100
AcDbArc
 50
179.930663
 51
0.069337
  0
CIRCLE
  5
74C1
100
AcDbEntity
  8
0
100
AcDbCircle
 10
664.382211
 20
1322.815424
 30
0.0
 40
15.0
  0
ARC
  5
74C2
100
AcDbEntity
  8
0
100
AcDbCircle
 10
682.382211
 20
1326.815424
 30
0.0
 40
3.0
100
AcDbArc
 50
90.0
 51
180.0
  0
ARC
  5
74C3
100
AcDbEntity
  8
0
100
AcDbCircle
 10
646.382211
 20
1326.815424
 30
0.0
 40
3.0
100
AcDbArc
 50
0.0
 51
90.0
  0
LINE
  5
74C4
100
AcDbEntity
  8
0
100
AcDbLine
 10
624.382211
 20
1329.815424
 30
0.0
 11
624.382211
 21
1354.315424
 31
0.0
  0
ARC
  5
74C5
100
AcDbEntity
  8
0
100
AcDbCircle
 10
707.38724
 20
1330.815424
 30
0.0
 40
3.0
100
AcDbArc
 50
180.0
 51
270.0
  0
ARC
  5
74C6
100
AcDbEntity
  8
0
100
AcDbCircle
 10
702.882211
 20
1331.315424
 30
0.0
 40
1.5
100
AcDbArc
 50
270.0
 51
0.0
  0
LINE
  5
74C7
100
AcDbEntity
  8
0
100
AcDbLine
 10
702.918109
 20
1304.815424
 30
0.0
 11
628.647562
 21
1304.815424
 31
0.0
  0
ARC
  5
74C8
100
AcDbEntity
  8
0
100
AcDbCircle
 10
678.382211
 20
1328.815424
 30
0.0
 40
1.0
100
AcDbArc
 50
0.0
 51
90.0
  0
ARC
  5
74C9
100
AcDbEntity
  8
0
100
AcDbCircle
 10
678.382211
 20
1316.815424
 30
0.0
 40
1.0
100
AcDbArc
 50
270.0
 51
0.0
  0
LINE
  5
74CA
100
AcDbEntity
  8
0
100
AcDbLine
 10
625.382211
 20
1329.815424
 30
0.0
 11
625.382211
 21
1308.747381
 31
0.0
  0
ARC
  5
74CB
100
AcDbEntity
  8
0
100
AcDbCircle
 10
628.382211
 20
1300.810127
 30
0.0
 40
4.0
100
AcDbArc
 50
0.0
 51
82.819244
  0
ARC
  5
74CC
100
AcDbEntity
  8
0
100
AcDbCircle
 10
629.382211
 20
1308.747381
 30
0.0
 40
4.0
100
AcDbArc
 50
180.0
 51
262.819244
  0
LINE
  5
74CD
100
AcDbEntity
  8
0
100
AcDbLine
 10
624.382211
 20
1329.815424
 30
0.0
 11
646.382211
 21
1329.815424
 31
0.0
  0
LINE
  5
74CE
100
AcDbEntity
  8
0
100
AcDbLine
 10
678.382211
 20
1329.815424
 30
0.0
 11
678.238617
 21
1329.815424
 31
0.0
  0
ARC
  5
74CF
100
AcDbEntity
  8
0
100
AcDbCircle
 10
678.238617
 20
1330.815424
 30
0.0
 40
1.0
100
AcDbArc
 50
210.0
 51
270.0
  0
ARC
  5
74D0
100
AcDbEntity
  8
0
100
AcDbCircle
 10
650.382211
 20
1328.815424
 30
0.0
 40
1.0
100
AcDbArc
 50
90.0
 51
180.0
  0
LINE
  5
74D1
100
AcDbEntity
  8
0
100
AcDbLine
 10
650.382211
 20
1329.815424
 30
0.0
 11
650.525804
 21
1329.815424
 31
0.0
  0
ARC
  5
74D2
100
AcDbEntity
  8
0
100
AcDbCircle
 10
650.525804
 20
1330.815424
 30
0.0
 40
1.0
100
AcDbArc
 50
270.0
 51
330.0
  0
LINE
  5
74D3
100
AcDbEntity
  8
0
100
AcDbLine
 10
678.382211
 20
1315.815424
 30
0.0
 11
678.238617
 21
1315.815424
 31
0.0
  0
ARC
  5
74D4
100
AcDbEntity
  8
0
100
AcDbCircle
 10
678.238617
 20
1314.815424
 30
0.0
 40
1.0
100
AcDbArc
 50
90.0
 51
150.0
  0
ARC
  5
74D5
100
AcDbEntity
  8
0
100
AcDbCircle
 10
650.382211
 20
1316.815424
 30
0.0
 40
1.0
100
AcDbArc
 50
180.0
 51
270.0
  0
LINE
  5
74D6
100
AcDbEntity
  8
0
100
AcDbLine
 10
650.525804
 20
1315.815424
 30
0.0
 11
650.382211
 21
1315.815424
 31
0.0
  0
ARC
  5
74D7
100
AcDbEntity
  8
0
100
AcDbCircle
 10
650.525804
 20
1314.815424
 30
0.0
 40
1.0
100
AcDbArc
 50
30.0
 51
90.0
  0
LINE
  5
74D8
100
AcDbEntity
  8
0
100
AcDbLine
 10
649.382211
 20
1328.815424
 30
0.0
 11
649.382211
 21
1316.815424
 31
0.0
  0
ARC
  5
74D9
100
AcDbEntity
  8
0
100
AcDbCircle
 10
719.188169
 20
1317.315424
 30
0.0
 40
15.799704
100
AcDbArc
 50
148.149276
 51
211.850724
  0
LINE
  5
74DA
100
AcDbEntity
  8
0
100
AcDbLine
 10
710.382211
 20
1326.815424
 30
0.0
 11
710.382211
 21
1307.815424
 31
0.0
  0
ARC
  5
74DB
100
AcDbEntity
  8
0
100
AcDbCircle
 10
700.382211
 20
1300.815424
 30
0.0
 40
4.0
100
AcDbArc
 50
90.0
 51
180.0
  0
ARC
  5
74DC
100
AcDbEntity
  8
0
100
AcDbCircle
 10
702.918109
 20
1306.815424
 30
0.0
 40
2.0
100
AcDbArc
 50
270.0
 51
330.0
  0
ARC
  5
74DD
100
AcDbEntity
  8
0
100
AcDbCircle
 10
706.382211
 20
1304.815424
 30
0.0
 40
2.0
100
AcDbArc
 50
90.0
 51
150.0
  0
ARC
  5
74DE
100
AcDbEntity
  8
0
100
AcDbCircle
 10
709.382211
 20
1307.815424
 30
0.0
 40
1.0
100
AcDbArc
 50
270.0
 51
0.0
  0
LINE
  5
74DF
100
AcDbEntity
  8
0
100
AcDbLine
 10
709.382211
 20
1306.815424
 30
0.0
 11
706.382211
 21
1306.815424
 31
0.0
  0
LINE
  5
74E0
100
AcDbEntity
  8
0
100
AcDbLine
 10
679.382211
 20
1328.815424
 30
0.0
 11
679.382211
 21
1316.815424
 31
0.0
  0
LINE
  5
74E1
100
AcDbEntity
  8
0
100
AcDbLine
 10
702.882211
 20
1329.815424
 30
0.0
 11
682.382211
 21
1329.815424
 31
0.0
  0
LINE
  5
74E2
100
AcDbEntity
  8
0
100
AcDbLine
 10
709.382211
 20
1327.815424
 30
0.0
 11
707.38724
 21
1327.815424
 31
0.0
  0
ARC
  5
74E3
100
AcDbEntity
  8
0
100
AcDbCircle
 10
709.382211
 20
1326.815424
 30
0.0
 40
1.0
100
AcDbArc
 50
0.0
 51
90.0
  0
LINE
  5
74E4
100
AcDbEntity
  8
0
100
AcDbLine
 10
704.38724
 20
1341.815424
 30
0.0
 11
624.382211
 21
1341.815424
 31
0.0
  0
LINE
  5
74E5
100
AcDbEntity
  8
0
100
AcDbLine
 10
704.38724
 20
1354.315424
 30
0.0
 11
624.382211
 21
1354.315424
 31
0.0
  0
LINE
  5
74E6
100
AcDbEntity
  8
0
100
AcDbLine
 10
685.939238
 20
1358.815424
 30
0.0
 11
642.825183
 21
1358.815424
 31
0.0
  0
LINE
  5
74E7
100
AcDbEntity
  8
0
100
AcDbLine
 10
670.382211
 20
1336.563151
 30
0.0
 11
670.382211
 21
1341.815424
 31
0.0
  0
LINE
  5
74E8
100
AcDbEntity
  8
0
100
AcDbLine
 10
658.382211
 20
1336.563151
 30
0.0
 11
658.382211
 21
1341.815424
 31
0.0
  0
LINE
  5
74E9
100
AcDbEntity
  8
0
100
AcDbLine
 10
625.825557
 20
1361.315424
 30
0.0
 11
642.825183
 21
1361.315424
 31
0.0
  0
ARC
  5
74EA
100
AcDbEntity
  8
0
100
AcDbCircle
 10
638.575001
 20
1351.451963
 30
0.0
 40
9.863886
100
AcDbArc
 50
64.476381
 51
115.526852
  0
ARC
  5
74EB
100
AcDbEntity
  8
0
100
AcDbCircle
 10
630.07535
 20
1351.451538
 30
0.0
 40
9.863886
100
AcDbArc
 50
64.478882
 51
115.521118
  0
LINE
  5
74EC
100
AcDbEntity
  8
0
100
AcDbLine
 10
634.325144
 20
1354.315424
 30
0.0
 11
634.325144
 21
1360.35297
 31
0.0
  0
LINE
  5
74ED
100
AcDbEntity
  8
0
100
AcDbLine
 10
625.825557
 20
1361.315424
 30
0.0
 11
625.825557
 21
1354.315424
 31
0.0
  0
LINE
  5
74EE
100
AcDbEntity
  8
0
100
AcDbLine
 10
642.825183
 20
1361.315424
 30
0.0
 11
642.825183
 21
1354.315424
 31
0.0
  0
LINE
  5
74EF
100
AcDbEntity
  8
0
100
AcDbLine
 10
704.38724
 20
1330.815424
 30
0.0
 11
704.38724
 21
1354.315424
 31
0.0
  0
ARC
  5
74F0
100
AcDbEntity
  8
0
100
AcDbCircle
 10
698.689071
 20
1351.451538
 30
0.0
 40
9.863886
100
AcDbArc
 50
64.478882
 51
115.521118
  0
LINE
  5
74F1
100
AcDbEntity
  8
0
100
AcDbLine
 10
702.938864
 20
1361.315424
 30
0.0
 11
685.939238
 21
1361.315424
 31
0.0
  0
LINE
  5
74F2
100
AcDbEntity
  8
0
100
AcDbLine
 10
702.938864
 20
1361.315424
 30
0.0
 11
702.938864
 21
1354.315424
 31
0.0
  0
LINE
  5
74F3
100
AcDbEntity
  8
0
100
AcDbLine
 10
685.939238
 20
1361.315424
 30
0.0
 11
685.939238
 21
1354.315424
 31
0.0
  0
LINE
  5
74F4
100
AcDbEntity
  8
0
100
AcDbLine
 10
694.439278
 20
1354.315424
 30
0.0
 11
694.439278
 21
1360.35297
 31
0.0
  0
ARC
  5
74F5
100
AcDbEntity
  8
0
100
AcDbCircle
 10
690.18942
 20
1351.451963
 30
0.0
 40
9.863886
100
AcDbArc
 50
64.473148
 51
115.523619
  0
LINE
  5
74F6
100
AcDbEntity
  8
0
100
AcDbLine
 10
1049.6271
 20
1316.251331
 30
0.0
 11
1050.952811
 21
1266.322158
 31
0.0
  0
LINE
  5
74F7
100
AcDbEntity
  8
0
100
AcDbLine
 10
1079.278523
 20
1316.251331
 30
0.0
 11
1077.952811
 21
1266.322158
 31
0.0
  0
LINE
  5
74F8
100
AcDbEntity
  8
0
100
AcDbLine
 10
1096.452811
 20
1279.854149
 30
0.0
 11
1096.452811
 21
1300.810127
 31
0.0
  0
LINE
  5
74F9
100
AcDbEntity
  8
0
100
AcDbLine
 10
1032.452811
 20
1279.854149
 30
0.0
 11
1032.452811
 21
1300.815424
 31
0.0
  0
ARC
  5
74FA
100
AcDbEntity
  8
0
100
AcDbCircle
 10
1064.447782
 20
1279.815424
 30
0.0
 40
32.0
100
AcDbArc
 50
179.930663
 51
0.069337
  0
LINE
  5
74FB
100
AcDbEntity
  8
0
100
AcDbLine
 10
913.947497
 20
1279.854149
 30
0.0
 11
913.947497
 21
1329.815424
 31
0.0
  0
LINE
  5
74FC
100
AcDbEntity
  8
0
100
AcDbLine
 10
932.802934
 20
1283.038841
 30
0.0
 11
936.588881
 21
1304.510016
 31
0.0
  0
LINE
  5
74FD
100
AcDbEntity
  8
0
100
AcDbLine
 10
849.947497
 20
1279.854149
 30
0.0
 11
849.947497
 21
1301.602109
 31
0.0
  0
ARC
  5
74FE
100
AcDbEntity
  8
0
100
AcDbCircle
 10
881.947497
 20
1279.854149
 30
0.0
 40
32.0
100
AcDbArc
 50
199.901179
 51
0.0
  0
LINE
  5
74FF
100
AcDbEntity
  8
0
100
AcDbLine
 10
939.06653
 20
1264.54915
 30
0.0
 11
936.238103
 21
1258.134421
 31
0.0
  0
LINE
  5
7500
100
AcDbEntity
  8
0
100
AcDbLine
 10
942.172358
 20
1276.14026
 30
0.0
 11
935.960701
 21
1252.95804
 31
0.0
  0
LINE
  5
7501
100
AcDbEntity
  8
0
100
AcDbLine
 10
928.810992
 20
1253.320884
 30
0.0
 11
935.799106
 21
1279.400882
 31
0.0
  0
LINE
  5
7502
100
AcDbEntity
  8
0
100
AcDbLine
 10
932.305049
 20
1266.360883
 30
0.0
 11
931.547174
 21
1259.391351
 31
0.0
  0
LINE
  5
7504
100
AcDbEntity
  8
0
100
AcDbLine
 10
848.947497
 20
1271.245694
 30
0.0
 11
848.947497
 21
1248.854149
 31
0.0
  0
LINE
  5
7507
100
AcDbEntity
  8
0
100
AcDbLine
 10
848.947497
 20
1248.854149
 30
0.0
 11
874.010243
 21
1248.854149
 31
0.0
  0
ARC
  5
7511
100
AcDbEntity
  8
0
100
AcDbCircle
 10
908.110448
 20
1253.691198
 30
0.0
 40
5.0
100
AcDbArc
 50
75.0
 51
135.0
  0
LINE
  5
7512
100
AcDbEntity
  8
0
100
AcDbLine
 10
936.238103
 20
1258.134421
 30
0.0
 11
936.363252
 21
1254.460381
 31
0.0
  0
LINE
  5
7513
100
AcDbEntity
  8
0
100
AcDbLine
 10
934.444952
 20
1251.44229
 30
0.0
 11
929.754023
 21
1252.699221
 31
0.0
  0
LINE
  5
7514
100
AcDbEntity
  8
0
100
AcDbLine
 10
929.199221
 20
1254.769773
 30
0.0
 11
929.754023
 21
1252.699221
 31
0.0
  0
LINE
  5
7515
100
AcDbEntity
  8
0
100
AcDbLine
 10
935.960701
 20
1252.95804
 30
0.0
 11
934.444952
 21
1251.44229
 31
0.0
  0
LINE
  5
7516
100
AcDbEntity
  8
0
100
AcDbLine
 10
931.547174
 20
1259.391351
 30
0.0
 11
929.628874
 21
1256.37326
 31
0.0
  0
LINE
  5
7517
100
AcDbEntity
  8
0
100
AcDbLine
 10
936.238103
 20
1258.134421
 30
0.0
 11
931.547174
 21
1259.391351
 31
0.0
  0
LINE
  5
7518
100
AcDbEntity
  8
0
100
AcDbLine
 10
909.404543
 20
1258.520827
 30
0.0
 11
928.810992
 21
1253.320884
 31
0.0
  0
ARC
  5
7519
100
AcDbEntity
  8
0
100
AcDbCircle
 10
881.947497
 20
1279.854149
 30
0.0
 40
32.0
100
AcDbArc
 50
180.0
 51
189.87089
  0
ARC
  5
751A
100
AcDbEntity
  8
0
100
AcDbCircle
 10
847.465617
 20
1273.854149
 30
0.0
 40
3.0
100
AcDbArc
 50
299.60118
 51
9.87089
  0
LINE
  5
7522
100
AcDbEntity
  8
0
100
AcDbLine
 10
941.617556
 20
1278.210812
 30
0.0
 11
936.926627
 21
1279.467742
 31
0.0
  0
LINE
  5
7523
100
AcDbEntity
  8
0
100
AcDbLine
 10
935.410878
 20
1277.951993
 30
0.0
 11
936.926627
 21
1279.467742
 31
0.0
  0
LINE
  5
7524
100
AcDbEntity
  8
0
100
AcDbLine
 10
941.742705
 20
1274.536772
 30
0.0
 11
939.824405
 21
1271.518682
 31
0.0
  0
LINE
  5
7525
100
AcDbEntity
  8
0
100
AcDbLine
 10
934.981225
 20
1276.348506
 30
0.0
 11
935.133476
 21
1272.775612
 31
0.0
  0
LINE
  5
7526
100
AcDbEntity
  8
0
100
AcDbLine
 10
939.824405
 20
1271.518682
 30
0.0
 11
935.133476
 21
1272.775612
 31
0.0
  0
LINE
  5
7527
100
AcDbEntity
  8
0
100
AcDbLine
 10
935.133476
 20
1272.775612
 30
0.0
 11
932.305049
 21
1266.360883
 31
0.0
  0
LINE
  5
7528
100
AcDbEntity
  8
0
100
AcDbLine
 10
942.172358
 20
1276.14026
 30
0.0
 11
941.617556
 21
1278.210812
 31
0.0
  0
LINE
  5
7529
100
AcDbEntity
  8
0
100
AcDbLine
 10
939.824405
 20
1271.518682
 30
0.0
 11
939.06653
 21
1264.54915
 31
0.0
  0
ARC
  5
752A
100
AcDbEntity
  8
0
100
AcDbCircle
 10
935.915226
 20
1282.549299
 30
0.0
 40
3.150558
100
AcDbArc
 50
171.061004
 51
267.887775
  0
LINE
  5
752B
100
AcDbEntity
  8
0
100
AcDbLine
 10
1076.452811
 20
1271.479957
 30
0.0
 11
1076.452811
 21
1258.095696
 31
0.0
  0
LINE
  5
752C
100
AcDbEntity
  8
0
100
AcDbLine
 10
1052.452811
 20
1271.479957
 30
0.0
 11
1052.452811
 21
1258.095696
 31
0.0
  0
ELLIPSE
  5
752D
100
AcDbEntity
  8
0
100
AcDbEllipse
 10
1064.452811
 20
1266.322158
 30
0.0
 11
0.0
 21
13.93038875380669
 31
0.0
210
0.0
220
0.0
230
1.0
 40
0.969104
 41
4.236506730724272
 42
8.329863883634899
  0
ELLIPSE
  5
752E
100
AcDbEntity
  8
0
100
AcDbEllipse
 10
1064.452811
 20
1264.821092
 30
0.0
 11
-12.0
 21
0.0
 31
0.0
210
0.0
220
0.0
230
1.0
 40
0.965926
 41
0.0
 42
6.283185307179586
  0
ELLIPSE
  5
752F
100
AcDbEntity
  8
0
100
AcDbEllipse
 10
1064.452811
 20
1266.322158
 30
0.0
 11
0.0
 21
13.93038875380669
 31
0.0
210
0.0
220
0.0
230
1.0
 40
0.969104
 41
8.587484679343077
 42
9.271111577278432
  0
LINE
  5
7530
100
AcDbEntity
  8
0
100
AcDbLine
 10
1064.452811
 20
1251.403565
 30
0.0
 11
1052.452811
 21
1258.095696
 31
0.0
  0
LINE
  5
7531
100
AcDbEntity
  8
0
100
AcDbLine
 10
1064.452811
 20
1253.198733
 30
0.0
 11
1064.452811
 21
1253.198733
 31
0.0
  0
ELLIPSE
  5
7532
100
AcDbEntity
  8
0
100
AcDbEllipse
 10
1064.452811
 20
1266.322158
 30
0.0
 11
0.0
 21
13.93038875380669
 31
0.0
210
0.0
220
0.0
230
1.0
 40
0.969104
 41
3.295259037080921
 42
3.978885935016277
  0
LINE
  5
7533
100
AcDbEntity
  8
0
100
AcDbLine
 10
1064.452811
 20
1251.403565
 30
0.0
 11
1076.452811
 21
1258.095696
 31
0.0
  0
LINE
  5
7534
100
AcDbEntity
  8
0
100
AcDbLine
 10
1064.452811
 20
1279.429018
 30
0.0
 11
1064.452811
 21
1278.172087
 31
0.0
  0
ELLIPSE
  5
7535
100
AcDbEntity
  8
0
100
AcDbEllipse
 10
1064.452811
 20
1267.277991
 30
0.0
 11
-15.93
 21
0.0
 31
0.0
210
0.0
220
0.0
230
1.0
 40
0.965963
 41
3.672995121611296
 42
5.751782839158082
  0
LINE
  5
7536
100
AcDbEntity
  8
0
100
AcDbLine
 10
1064.452811
 20
1279.429018
 30
0.0
 11
1076.452811
 21
1272.736887
 31
0.0
  0
LINE
  5
7537
100
AcDbEntity
  8
0
100
AcDbLine
 10
1064.452811
 20
1279.429018
 30
0.0
 11
1052.452811
 21
1272.736887
 31
0.0
  0
LINE
  5
7538
100
AcDbEntity
  8
0
100
AcDbLine
 10
1064.452811
 20
1278.172087
 30
0.0
 11
1052.452811
 21
1271.479957
 31
0.0
  0
LINE
  5
7539
100
AcDbEntity
  8
0
100
AcDbLine
 10
1052.452811
 20
1272.736887
 30
0.0
 11
1052.452811
 21
1271.479957
 31
0.0
  0
LINE
  5
753A
100
AcDbEntity
  8
0
100
AcDbLine
 10
1076.452811
 20
1272.736887
 30
0.0
 11
1076.452811
 21
1271.479957
 31
0.0
  0
LINE
  5
753B
100
AcDbEntity
  8
0
100
AcDbLine
 10
1064.452811
 20
1278.172087
 30
0.0
 11
1076.452811
 21
1271.479957
 31
0.0
  0
LINE
  5
753C
100
AcDbEntity
  8
0
100
AcDbLine
 10
946.942468
 20
1337.815424
 30
0.0
 11
924.947497
 21
1337.815424
 31
0.0
  0
LINE
  5
753D
100
AcDbEntity
  8
0
100
AcDbLine
 10
946.942468
 20
1307.815424
 30
0.0
 11
940.528112
 21
1307.815424
 31
0.0
  0
LINE
  5
753E
100
AcDbEntity
  8
0
100
AcDbLine
 10
924.947497
 20
1329.815424
 30
0.0
 11
924.947497
 21
1354.315424
 31
0.0
  0
LINE
  5
753F
100
AcDbEntity
  8
0
100
AcDbLine
 10
826.942468
 20
1322.815424
 30
0.0
 11
826.942468
 21
1337.815424
 31
0.0
  0
LINE
  5
7540
100
AcDbEntity
  8
0
100
AcDbLine
 10
841.942468
 20
1329.815424
 30
0.0
 11
841.942468
 21
1341.815424
 31
0.0
  0
LINE
  5
7541
100
AcDbEntity
  8
0
100
AcDbLine
 10
913.947497
 20
1304.815424
 30
0.0
 11
853.947497
 21
1304.815424
 31
0.0
  0
LINE
  5
7542
100
AcDbEntity
  8
0
100
AcDbLine
 10
924.947497
 20
1329.815424
 30
0.0
 11
841.942468
 21
1329.815424
 31
0.0
  0
LINE
  5
7543
100
AcDbEntity
  8
0
100
AcDbLine
 10
826.942468
 20
1307.815424
 30
0.0
 11
826.942468
 21
1322.815424
 31
0.0
  0
LINE
  5
7544
100
AcDbEntity
  8
0
100
AcDbLine
 10
849.947497
 20
1308.815424
 30
0.0
 11
849.947497
 21
1329.815424
 31
0.0
  0
LINE
  5
7545
100
AcDbEntity
  8
0
100
AcDbLine
 10
826.942468
 20
1307.815424
 30
0.0
 11
841.460348
 21
1307.815424
 31
0.0
  0
ARC
  5
7546
100
AcDbEntity
  8
0
100
AcDbCircle
 10
853.947497
 20
1308.815424
 30
0.0
 40
4.0
100
AcDbArc
 50
180.0
 51
270.0
  0
ARC
  5
7547
100
AcDbEntity
  8
0
100
AcDbCircle
 10
841.460348
 20
1303.815424
 30
0.0
 40
4.0
100
AcDbArc
 50
50.599431
 51
90.0
  0
ARC
  5
7548
100
AcDbEntity
  8
0
100
AcDbCircle
 10
848.442468
 20
1312.315424
 30
0.0
 40
7.0
100
AcDbArc
 50
230.599431
 51
256.890337
  0
ARC
  5
7549
100
AcDbEntity
  8
0
100
AcDbCircle
 10
845.947497
 20
1301.602109
 30
0.0
 40
4.0
100
AcDbArc
 50
0.0
 51
76.890337
  0
ARC
  5
754A
100
AcDbEntity
  8
0
100
AcDbCircle
 10
831.442468
 20
1328.315424
 30
0.0
 40
1.5
100
AcDbArc
 50
90.0
 51
180.0
  0
ARC
  5
754B
100
AcDbEntity
  8
0
100
AcDbCircle
 10
831.442468
 20
1317.315424
 30
0.0
 40
1.5
100
AcDbArc
 50
180.0
 51
270.0
  0
LINE
  5
754C
100
AcDbEntity
  8
0
100
AcDbLine
 10
840.442468
 20
1329.815424
 30
0.0
 11
831.442468
 21
1329.815424
 31
0.0
  0
ARC
  5
754D
100
AcDbEntity
  8
0
100
AcDbCircle
 10
840.442468
 20
1328.315424
 30
0.0
 40
1.5
100
AcDbArc
 50
0.0
 51
90.0
  0
LINE
  5
754E
100
AcDbEntity
  8
0
100
AcDbLine
 10
840.442468
 20
1315.815424
 30
0.0
 11
831.442468
 21
1315.815424
 31
0.0
  0
ARC
  5
754F
100
AcDbEntity
  8
0
100
AcDbCircle
 10
840.442468
 20
1317.315424
 30
0.0
 40
1.5
100
AcDbArc
 50
270.0
 51
0.0
  0
LINE
  5
7550
100
AcDbEntity
  8
0
100
AcDbLine
 10
829.942468
 20
1317.315424
 30
0.0
 11
829.942468
 21
1328.315424
 31
0.0
  0
LINE
  5
7551
100
AcDbEntity
  8
0
100
AcDbLine
 10
841.942468
 20
1317.315424
 30
0.0
 11
841.942468
 21
1328.315424
 31
0.0
  0
CIRCLE
  5
7552
100
AcDbEntity
  8
0
100
AcDbCircle
 10
881.947497
 20
1317.354149
 30
0.0
 40
10.5
  0
ARC
  5
7553
100
AcDbEntity
  8
0
100
AcDbCircle
 10
940.528112
 20
1303.815424
 30
0.0
 40
4.0
100
AcDbArc
 50
90.0
 51
170.0
  0
LINE
  5
7554
100
AcDbEntity
  8
0
100
AcDbLine
 10
942.442468
 20
1329.815424
 30
0.0
 11
933.442468
 21
1329.815424
 31
0.0
  0
ARC
  5
7555
100
AcDbEntity
  8
0
100
AcDbCircle
 10
933.442468
 20
1328.315424
 30
0.0
 40
1.5
100
AcDbArc
 50
90.0
 51
180.0
  0
ARC
  5
7556
100
AcDbEntity
  8
0
100
AcDbCircle
 10
942.442468
 20
1328.315424
 30
0.0
 40
1.5
100
AcDbArc
 50
0.0
 51
90.0
  0
LINE
  5
7557
100
AcDbEntity
  8
0
100
AcDbLine
 10
942.442468
 20
1315.815424
 30
0.0
 11
933.442468
 21
1315.815424
 31
0.0
  0
ARC
  5
7558
100
AcDbEntity
  8
0
100
AcDbCircle
 10
933.442468
 20
1317.315424
 30
0.0
 40
1.5
100
AcDbArc
 50
180.0
 51
270.0
  0
ARC
  5
7559
100
AcDbEntity
  8
0
100
AcDbCircle
 10
942.442468
 20
1317.315424
 30
0.0
 40
1.5
100
AcDbArc
 50
270.0
 51
0.0
  0
LINE
  5
755A
100
AcDbEntity
  8
0
100
AcDbLine
 10
931.942468
 20
1317.315424
 30
0.0
 11
931.942468
 21
1328.315424
 31
0.0
  0
LINE
  5
755B
100
AcDbEntity
  8
0
100
AcDbLine
 10
943.942468
 20
1317.315424
 30
0.0
 11
943.942468
 21
1328.315424
 31
0.0
  0
LINE
  5
755C
100
AcDbEntity
  8
0
100
AcDbLine
 10
924.947497
 20
1341.815424
 30
0.0
 11
829.947497
 21
1341.815424
 31
0.0
  0
LINE
  5
755D
100
AcDbEntity
  8
0
100
AcDbLine
 10
841.192468
 20
1341.815424
 30
0.0
 11
922.442468
 21
1341.815424
 31
0.0
  0
LINE
  5
755E
100
AcDbEntity
  8
0
100
AcDbLine
 10
861.710413
 20
1358.815424
 30
0.0
 11
902.18458
 21
1358.815424
 31
0.0
  0
LINE
  5
755F
100
AcDbEntity
  8
0
100
AcDbLine
 10
841.197497
 20
1354.315424
 30
0.0
 11
924.947497
 21
1354.315424
 31
0.0
  0
LINE
  5
7560
100
AcDbEntity
  8
0
100
AcDbLine
 10
841.197497
 20
1341.815424
 30
0.0
 11
841.197497
 21
1354.315424
 31
0.0
  0
LINE
  5
7561
100
AcDbEntity
  8
0
100
AcDbLine
 10
841.942468
 20
1337.815424
 30
0.0
 11
826.942468
 21
1337.815424
 31
0.0
  0
LINE
  5
7562
100
AcDbEntity
  8
0
100
AcDbLine
 10
829.947497
 20
1337.815424
 30
0.0
 11
829.947497
 21
1341.815424
 31
0.0
  0
LINE
  5
7563
100
AcDbEntity
  8
0
100
AcDbLine
 10
843.645458
 20
1361.315424
 30
0.0
 11
860.145458
 21
1361.315424
 31
0.0
  0
LINE
  5
7564
100
AcDbEntity
  8
0
100
AcDbLine
 10
846.987981
 20
1360.380306
 30
0.0
 11
851.895458
 21
1361.315424
 31
0.0
  0
LINE
  5
7565
100
AcDbEntity
  8
0
100
AcDbLine
 10
851.895458
 20
1361.315424
 30
0.0
 11
856.844707
 21
1360.363706
 31
0.0
  0
LINE
  5
7566
100
AcDbEntity
  8
0
100
AcDbLine
 10
859.256674
 20
1361.315424
 30
0.0
 11
856.802936
 21
1360.380306
 31
0.0
  0
LINE
  5
7567
100
AcDbEntity
  8
0
100
AcDbLine
 10
860.145458
 20
1361.315424
 30
0.0
 11
861.710413
 21
1360.380306
 31
0.0
  0
LINE
  5
7568
100
AcDbEntity
  8
0
100
AcDbLine
 10
861.710413
 20
1360.380306
 30
0.0
 11
859.256674
 21
1361.315424
 31
0.0
  0
LINE
  5
7569
100
AcDbEntity
  8
0
100
AcDbLine
 10
844.534242
 20
1361.315424
 30
0.0
 11
846.987981
 21
1360.380306
 31
0.0
  0
LINE
  5
756A
100
AcDbEntity
  8
0
100
AcDbLine
 10
842.080504
 20
1360.380306
 30
0.0
 11
843.645458
 21
1361.315424
 31
0.0
  0
LINE
  5
756B
100
AcDbEntity
  8
0
100
AcDbLine
 10
842.080504
 20
1360.380306
 30
0.0
 11
844.534242
 21
1361.315424
 31
0.0
  0
LINE
  5
756C
100
AcDbEntity
  8
0
100
AcDbLine
 10
861.710413
 20
1360.380306
 30
0.0
 11
861.710413
 21
1354.315424
 31
0.0
  0
LINE
  5
756D
100
AcDbEntity
  8
0
100
AcDbLine
 10
856.802936
 20
1360.380306
 30
0.0
 11
856.802936
 21
1354.315424
 31
0.0
  0
LINE
  5
756E
100
AcDbEntity
  8
0
100
AcDbLine
 10
842.080504
 20
1354.312559
 30
0.0
 11
842.080504
 21
1360.380306
 31
0.0
  0
LINE
  5
756F
100
AcDbEntity
  8
0
100
AcDbLine
 10
846.987981
 20
1360.380306
 30
0.0
 11
846.987981
 21
1354.315424
 31
0.0
  0
LINE
  5
7570
100
AcDbEntity
  8
0
100
AcDbLine
 10
920.249535
 20
1361.315424
 30
0.0
 11
903.749535
 21
1361.315424
 31
0.0
  0
LINE
  5
7571
100
AcDbEntity
  8
0
100
AcDbLine
 10
904.638319
 20
1361.315424
 30
0.0
 11
907.092058
 21
1360.380306
 31
0.0
  0
LINE
  5
7572
100
AcDbEntity
  8
0
100
AcDbLine
 10
903.749535
 20
1361.315424
 30
0.0
 11
902.18458
 21
1360.380306
 31
0.0
  0
LINE
  5
7573
100
AcDbEntity
  8
0
100
AcDbLine
 10
902.18458
 20
1360.380306
 30
0.0
 11
904.638319
 21
1361.315424
 31
0.0
  0
LINE
  5
7574
100
AcDbEntity
  8
0
100
AcDbLine
 10
902.18458
 20
1360.380306
 30
0.0
 11
902.18458
 21
1354.315424
 31
0.0
  0
LINE
  5
7575
100
AcDbEntity
  8
0
100
AcDbLine
 10
916.907012
 20
1360.380306
 30
0.0
 11
911.999535
 21
1361.315424
 31
0.0
  0
LINE
  5
7576
100
AcDbEntity
  8
0
100
AcDbLine
 10
911.999535
 20
1361.315424
 30
0.0
 11
907.050287
 21
1360.363706
 31
0.0
  0
LINE
  5
7577
100
AcDbEntity
  8
0
100
AcDbLine
 10
919.360751
 20
1361.315424
 30
0.0
 11
916.907012
 21
1360.380306
 31
0.0
  0
LINE
  5
7578
100
AcDbEntity
  8
0
100
AcDbLine
 10
921.814489
 20
1360.380306
 30
0.0
 11
920.249535
 21
1361.315424
 31
0.0
  0
LINE
  5
7579
100
AcDbEntity
  8
0
100
AcDbLine
 10
921.814489
 20
1360.380306
 30
0.0
 11
919.360751
 21
1361.315424
 31
0.0
  0
LINE
  5
757A
100
AcDbEntity
  8
0
100
AcDbLine
 10
907.092058
 20
1360.380306
 30
0.0
 11
907.092058
 21
1354.315424
 31
0.0
  0
LINE
  5
757B
100
AcDbEntity
  8
0
100
AcDbLine
 10
921.814489
 20
1354.312559
 30
0.0
 11
921.814489
 21
1360.380306
 31
0.0
  0
LINE
  5
757C
100
AcDbEntity
  8
0
100
AcDbLine
 10
916.907012
 20
1360.380306
 30
0.0
 11
916.907012
 21
1354.315424
 31
0.0
  0
ARC
  5
757D
100
AcDbEntity
  8
0
100
AcDbCircle
 10
1021.447782
 20
1330.815424
 30
0.0
 40
3.0
100
AcDbArc
 50
270.0
 51
0.0
  0
CIRCLE
  5
757E
100
AcDbEntity
  8
0
100
AcDbCircle
 10
1064.452811
 20
1322.815424
 30
0.0
 40
15.0
  0
ARC
  5
757F
100
AcDbEntity
  8
0
100
AcDbCircle
 10
1082.452811
 20
1326.815424
 30
0.0
 40
3.0
100
AcDbArc
 50
90.0
 51
180.0
  0
ARC
  5
7580
100
AcDbEntity
  8
0
100
AcDbCircle
 10
1046.452811
 20
1326.815424
 30
0.0
 40
3.0
100
AcDbArc
 50
0.0
 51
90.0
  0
ARC
  5
7581
100
AcDbEntity
  8
0
100
AcDbCircle
 10
1025.952811
 20
1331.315424
 30
0.0
 40
1.5
100
AcDbArc
 50
180.0
 51
270.0
  0
LINE
  5
7582
100
AcDbEntity
  8
0
100
AcDbLine
 10
946.942468
 20
1322.815424
 30
0.0
 11
946.942468
 21
1337.815424
 31
0.0
  0
LINE
  5
7583
100
AcDbEntity
  8
0
100
AcDbLine
 10
1019.452811
 20
1306.815424
 30
0.0
 11
1022.452811
 21
1306.815424
 31
0.0
  0
LINE
  5
7584
100
AcDbEntity
  8
0
100
AcDbLine
 10
1018.452811
 20
1326.815424
 30
0.0
 11
1018.452811
 21
1307.815424
 31
0.0
  0
LINE
  5
7585
100
AcDbEntity
  8
0
100
AcDbLine
 10
946.942468
 20
1307.815424
 30
0.0
 11
946.942468
 21
1322.815424
 31
0.0
  0
ARC
  5
7586
100
AcDbEntity
  8
0
100
AcDbCircle
 10
1019.452811
 20
1307.815424
 30
0.0
 40
1.0
100
AcDbArc
 50
180.0
 51
270.0
  0
ARC
  5
7587
100
AcDbEntity
  8
0
100
AcDbCircle
 10
1019.452811
 20
1326.815424
 30
0.0
 40
1.0
100
AcDbArc
 50
90.0
 51
180.0
  0
LINE
  5
7588
100
AcDbEntity
  8
0
100
AcDbLine
 10
1019.452811
 20
1327.815424
 30
0.0
 11
1021.447782
 21
1327.815424
 31
0.0
  0
ARC
  5
7589
100
AcDbEntity
  8
0
100
AcDbCircle
 10
1009.646853
 20
1317.315424
 30
0.0
 40
15.799704
100
AcDbArc
 50
328.149276
 51
31.850724
  0
ARC
  5
758A
100
AcDbEntity
  8
0
100
AcDbCircle
 10
1046.035542
 20
1300.815424
 30
0.0
 40
4.0
100
AcDbArc
 50
1.520951
 51
90.0
  0
ARC
  5
758B
100
AcDbEntity
  8
0
100
AcDbCircle
 10
1028.452811
 20
1300.815424
 30
0.0
 40
4.0
100
AcDbArc
 50
0.0
 51
90.0
  0
ARC
  5
758C
100
AcDbEntity
  8
0
100
AcDbCircle
 10
1025.916913
 20
1306.815424
 30
0.0
 40
2.0
100
AcDbArc
 50
210.0
 51
270.0
  0
ARC
  5
758D
100
AcDbEntity
  8
0
100
AcDbCircle
 10
1022.452811
 20
1304.815424
 30
0.0
 40
2.0
100
AcDbArc
 50
30.0
 51
90.0
  0
LINE
  5
758E
100
AcDbEntity
  8
0
100
AcDbLine
 10
1025.916913
 20
1304.815424
 30
0.0
 11
1046.035542
 21
1304.815424
 31
0.0
  0
ARC
  5
758F
100
AcDbEntity
  8
0
100
AcDbCircle
 10
1082.870081
 20
1300.815424
 30
0.0
 40
4.0
100
AcDbArc
 50
90.0
 51
178.479049
  0
ARC
  5
7590
100
AcDbEntity
  8
0
100
AcDbCircle
 10
1050.596405
 20
1330.815424
 30
0.0
 40
1.0
100
AcDbArc
 50
270.0
 51
330.0
  0
ARC
  5
7591
100
AcDbEntity
  8
0
100
AcDbCircle
 10
1050.452811
 20
1328.815424
 30
0.0
 40
1.0
100
AcDbArc
 50
90.0
 51
180.0
  0
LINE
  5
7592
100
AcDbEntity
  8
0
100
AcDbLine
 10
1050.452811
 20
1329.815424
 30
0.0
 11
1050.596405
 21
1329.815424
 31
0.0
  0
LINE
  5
7593
100
AcDbEntity
  8
0
100
AcDbLine
 10
1025.952811
 20
1329.815424
 30
0.0
 11
1046.452811
 21
1329.815424
 31
0.0
  0
ARC
  5
7594
100
AcDbEntity
  8
0
100
AcDbCircle
 10
1050.596405
 20
1314.815424
 30
0.0
 40
1.0
100
AcDbArc
 50
30.0
 51
90.0
  0
ARC
  5
7595
100
AcDbEntity
  8
0
100
AcDbCircle
 10
1050.452811
 20
1316.815424
 30
0.0
 40
1.0
100
AcDbArc
 50
180.0
 51
270.0
  0
LINE
  5
7596
100
AcDbEntity
  8
0
100
AcDbLine
 10
1050.452811
 20
1315.815424
 30
0.0
 11
1050.596405
 21
1315.815424
 31
0.0
  0
LINE
  5
7597
100
AcDbEntity
  8
0
100
AcDbLine
 10
1049.452811
 20
1328.815424
 30
0.0
 11
1049.452811
 21
1316.815424
 31
0.0
  0
ARC
  5
7598
100
AcDbEntity
  8
0
100
AcDbCircle
 10
1078.309218
 20
1330.815424
 30
0.0
 40
1.0
100
AcDbArc
 50
210.0
 51
270.0
  0
ARC
  5
7599
100
AcDbEntity
  8
0
100
AcDbCircle
 10
1078.452811
 20
1328.815424
 30
0.0
 40
1.0
100
AcDbArc
 50
360.0
 51
90.0
  0
LINE
  5
759A
100
AcDbEntity
  8
0
100
AcDbLine
 10
1078.452811
 20
1329.815424
 30
0.0
 11
1078.309218
 21
1329.815424
 31
0.0
  0
ARC
  5
759B
100
AcDbEntity
  8
0
100
AcDbCircle
 10
1078.309218
 20
1314.815424
 30
0.0
 40
1.0
100
AcDbArc
 50
90.0
 51
150.0
  0
ARC
  5
759C
100
AcDbEntity
  8
0
100
AcDbCircle
 10
1078.452811
 20
1316.815424
 30
0.0
 40
1.0
100
AcDbArc
 50
270.0
 51
0.0
  0
LINE
  5
759D
100
AcDbEntity
  8
0
100
AcDbLine
 10
1078.309218
 20
1315.815424
 30
0.0
 11
1078.452811
 21
1315.815424
 31
0.0
  0
LINE
  5
759E
100
AcDbEntity
  8
0
100
AcDbLine
 10
1079.452811
 20
1328.815424
 30
0.0
 11
1079.452811
 21
1316.815424
 31
0.0
  0
LINE
  5
759F
100
AcDbEntity
  8
0
100
AcDbLine
 10
1024.447782
 20
1330.815424
 30
0.0
 11
1024.447782
 21
1354.315424
 31
0.0
  0
LINE
  5
75A0
100
AcDbEntity
  8
0
100
AcDbLine
 10
1042.895784
 20
1358.815424
 30
0.0
 11
1086.009839
 21
1358.815424
 31
0.0
  0
LINE
  5
75A1
100
AcDbEntity
  8
0
100
AcDbLine
 10
1042.895784
 20
1361.315424
 30
0.0
 11
1042.895784
 21
1354.315424
 31
0.0
  0
ARC
  5
75A2
100
AcDbEntity
  8
0
100
AcDbCircle
 10
1030.145951
 20
1351.451538
 30
0.0
 40
9.863886
100
AcDbArc
 50
64.478882
 51
115.521118
  0
LINE
  5
75A3
100
AcDbEntity
  8
0
100
AcDbLine
 10
1025.896158
 20
1361.315424
 30
0.0
 11
1025.896158
 21
1354.315424
 31
0.0
  0
LINE
  5
75A4
100
AcDbEntity
  8
0
100
AcDbLine
 10
1034.395744
 20
1354.315424
 30
0.0
 11
1034.395744
 21
1360.35297
 31
0.0
  0
LINE
  5
75A5
100
AcDbEntity
  8
0
100
AcDbLine
 10
1025.896158
 20
1361.315424
 30
0.0
 11
1042.895784
 21
1361.315424
 31
0.0
  0
ARC
  5
75A6
100
AcDbEntity
  8
0
100
AcDbCircle
 10
1038.645602
 20
1351.451963
 30
0.0
 40
9.863886
100
AcDbArc
 50
64.476381
 51
115.526852
  0
LINE
  5
75A7
100
AcDbEntity
  8
0
100
AcDbLine
 10
1086.009839
 20
1361.315424
 30
0.0
 11
1086.009839
 21
1354.315424
 31
0.0
  0
LINE
  5
75A8
100
AcDbEntity
  8
0
100
AcDbLine
 10
1094.509878
 20
1354.315424
 30
0.0
 11
1094.509878
 21
1360.35297
 31
0.0
  0
ARC
  5
75A9
100
AcDbEntity
  8
0
100
AcDbCircle
 10
1090.260021
 20
1351.451963
 30
0.0
 40
9.863886
100
AcDbArc
 50
64.473148
 51
115.523619
  0
TEXT
  5
75AB
100
AcDbEntity
  8
0
100
AcDbText
 10
1454.477147
 20
1179.693258
 30
0.0
 40
25.0
  1
20A
 72
     4
 11
1487.81048
 21
1192.193258
 31
0.0
100
AcDbText
  0
LINE
  5
75AC
100
AcDbEntity
  8
0
100
AcDbLine
 10
1262.430026
 20
1303.348852
 30
0.0
 11
1262.430026
 21
1282.315443
 31
0.0
  0
LINE
  5
75AD
100
AcDbEntity
  8
0
100
AcDbLine
 10
1326.430026
 20
1303.354149
 30
0.0
 11
1326.430026
 21
1282.315443
 31
0.0
  0
ARC
  5
75B0
100
AcDbEntity
  8
0
100
AcDbCircle
 10
1294.430026
 20
1282.315443
 30
0.0
 40
32.0
100
AcDbArc
 50
180.0
 51
0.0
  0
LINE
  5
75B1
100
AcDbEntity
  8
0
100
AcDbLine
 10
1104.452811
 20
1329.815424
 30
0.0
 11
1104.452811
 21
1354.315424
 31
0.0
  0
LINE
  5
75B2
100
AcDbEntity
  8
0
100
AcDbLine
 10
1103.452811
 20
1329.815424
 30
0.0
 11
1103.452811
 21
1308.747381
 31
0.0
  0
ARC
  5
75B3
100
AcDbEntity
  8
0
100
AcDbCircle
 10
1099.452811
 20
1308.747381
 30
0.0
 40
4.0
100
AcDbArc
 50
277.180756
 51
0.0
  0
LINE
  5
75B4
100
AcDbEntity
  8
0
100
AcDbLine
 10
1103.009465
 20
1361.315424
 30
0.0
 11
1103.009465
 21
1354.315424
 31
0.0
  0
ARC
  5
75B5
100
AcDbEntity
  8
0
100
AcDbCircle
 10
1273.476739
 20
1329.354149
 30
0.0
 40
3.0
100
AcDbArc
 50
0.0
 51
90.0
  0
LINE
  5
75B6
100
AcDbEntity
  8
0
100
AcDbLine
 10
1255.430026
 20
1331.854149
 30
0.0
 11
1255.430026
 21
1311.286106
 31
0.0
  0
ARC
  5
75B7
100
AcDbEntity
  8
0
100
AcDbCircle
 10
1339.430026
 20
1329.354149
 30
0.0
 40
1.0
100
AcDbArc
 50
0.0
 51
90.0
  0
ARC
  5
75B8
100
AcDbEntity
  8
0
100
AcDbCircle
 10
1337.430026
 20
1333.354149
 30
0.0
 40
3.0
100
AcDbArc
 50
180.0
 51
270.0
  0
ARC
  5
75B9
100
AcDbEntity
  8
0
100
AcDbCircle
 10
1315.383314
 20
1329.354149
 30
0.0
 40
3.0
100
AcDbArc
 50
90.0
 51
180.0
  0
CIRCLE
  5
75BA
100
AcDbEntity
  8
0
100
AcDbCircle
 10
1294.430026
 20
1322.815424
 30
0.0
 40
18.0
  0
LINE
  5
75BB
100
AcDbEntity
  8
0
100
AcDbLine
 10
1332.965925
 20
1307.354149
 30
0.0
 11
1303.646803
 21
1307.354149
 31
0.0
  0
LINE
  5
75BC
100
AcDbEntity
  8
0
100
AcDbLine
 10
1285.21325
 20
1307.354149
 30
0.0
 11
1258.695377
 21
1307.354149
 31
0.0
  0
ARC
  5
75BD
100
AcDbEntity
  8
0
100
AcDbCircle
 10
1258.430026
 20
1303.348852
 30
0.0
 40
4.0
100
AcDbArc
 50
0.0
 51
82.819244
  0
ARC
  5
75BE
100
AcDbEntity
  8
0
100
AcDbCircle
 10
1259.430026
 20
1311.286106
 30
0.0
 40
4.0
100
AcDbArc
 50
180.0
 51
262.819244
  0
ARC
  5
75BF
100
AcDbEntity
  8
0
100
AcDbCircle
 10
1277.189614
 20
1330.800921
 30
0.0
 40
1.0
100
AcDbArc
 50
276.904006
 51
335.147143
  0
ARC
  5
75C0
100
AcDbEntity
  8
0
100
AcDbCircle
 10
1277.430026
 20
1328.815424
 30
0.0
 40
1.0
100
AcDbArc
 50
96.904006
 51
180.0
  0
ARC
  5
75C1
100
AcDbEntity
  8
0
100
AcDbCircle
 10
1277.189614
 20
1314.829926
 30
0.0
 40
1.0
100
AcDbArc
 50
24.852857
 51
83.095994
  0
ARC
  5
75C2
100
AcDbEntity
  8
0
100
AcDbCircle
 10
1277.430026
 20
1316.815424
 30
0.0
 40
1.0
100
AcDbArc
 50
180.0
 51
263.095994
  0
LINE
  5
75C3
100
AcDbEntity
  8
0
100
AcDbLine
 10
1276.430026
 20
1329.354149
 30
0.0
 11
1276.430026
 21
1316.815424
 31
0.0
  0
ARC
  5
75C4
100
AcDbEntity
  8
0
100
AcDbCircle
 10
1311.670439
 20
1330.800921
 30
0.0
 40
1.0
100
AcDbArc
 50
204.852857
 51
263.095994
  0
ARC
  5
75C5
100
AcDbEntity
  8
0
100
AcDbCircle
 10
1311.430026
 20
1328.815424
 30
0.0
 40
1.0
100
AcDbArc
 50
0.0
 51
83.095994
  0
ARC
  5
75C6
100
AcDbEntity
  8
0
100
AcDbCircle
 10
1311.670439
 20
1314.829926
 30
0.0
 40
1.0
100
AcDbArc
 50
96.904006
 51
155.147143
  0
ARC
  5
75C7
100
AcDbEntity
  8
0
100
AcDbCircle
 10
1311.430026
 20
1316.815424
 30
0.0
 40
1.0
100
AcDbArc
 50
276.904006
 51
0.0
  0
LINE
  5
75C8
100
AcDbEntity
  8
0
100
AcDbLine
 10
1312.430026
 20
1329.354149
 30
0.0
 11
1312.430026
 21
1316.815424
 31
0.0
  0
LINE
  5
75C9
100
AcDbEntity
  8
0
100
AcDbLine
 10
1340.430026
 20
1329.354149
 30
0.0
 11
1340.430026
 21
1310.354149
 31
0.0
  0
ARC
  5
75CA
100
AcDbEntity
  8
0
100
AcDbCircle
 10
1349.235985
 20
1319.854149
 30
0.0
 40
15.799704
100
AcDbArc
 50
148.149276
 51
211.850724
  0
ARC
  5
75CB
100
AcDbEntity
  8
0
100
AcDbCircle
 10
1339.430026
 20
1310.354149
 30
0.0
 40
1.0
100
AcDbArc
 50
270.0
 51
0.0
  0
ARC
  5
75CC
100
AcDbEntity
  8
0
100
AcDbCircle
 10
1336.430026
 20
1307.354149
 30
0.0
 40
2.0
100
AcDbArc
 50
90.0
 51
150.0
  0
LINE
  5
75CD
100
AcDbEntity
  8
0
100
AcDbLine
 10
1339.430026
 20
1309.354149
 30
0.0
 11
1336.430026
 21
1309.354149
 31
0.0
  0
ARC
  5
75CE
100
AcDbEntity
  8
0
100
AcDbCircle
 10
1330.430026
 20
1303.354149
 30
0.0
 40
4.0
100
AcDbArc
 50
90.0
 51
180.0
  0
ARC
  5
75CF
100
AcDbEntity
  8
0
100
AcDbCircle
 10
1332.965925
 20
1309.354149
 30
0.0
 40
2.0
100
AcDbArc
 50
270.0
 51
330.0
  0
LINE
  5
75D0
100
AcDbEntity
  8
0
100
AcDbLine
 10
1339.430026
 20
1330.354149
 30
0.0
 11
1337.430026
 21
1330.354149
 31
0.0
  0
LINE
  5
75D1
100
AcDbEntity
  8
0
100
AcDbLine
 10
1332.98668
 20
1363.815424
 30
0.0
 11
1315.987054
 21
1363.815424
 31
0.0
  0
ARC
  5
75D2
100
AcDbEntity
  8
0
100
AcDbCircle
 10
1320.237236
 20
1353.951963
 30
0.0
 40
9.863886
100
AcDbArc
 50
64.473148
 51
115.523619
  0
LINE
  5
75D3
100
AcDbEntity
  8
0
100
AcDbLine
 10
1334.430026
 20
1356.815424
 30
0.0
 11
1254.430026
 21
1356.815424
 31
0.0
  0
LINE
  5
75D4
100
AcDbEntity
  8
0
100
AcDbLine
 10
1332.930026
 20
1332.354149
 30
0.0
 11
1315.383314
 21
1332.354149
 31
0.0
  0
LINE
  5
75D5
100
AcDbEntity
  8
0
100
AcDbLine
 10
1334.430026
 20
1344.354149
 30
0.0
 11
1254.430026
 21
1344.354149
 31
0.0
  0
LINE
  5
75D6
100
AcDbEntity
  8
0
100
AcDbLine
 10
1254.430026
 20
1333.854149
 30
0.0
 11
1254.430026
 21
1356.815424
 31
0.0
  0
LINE
  5
75D7
100
AcDbEntity
  8
0
100
AcDbLine
 10
1255.296052
 20
1332.354149
 30
0.0
 11
1273.476739
 21
1332.354149
 31
0.0
  0
ARC
  5
75D8
100
AcDbEntity
  8
0
100
AcDbCircle
 10
1254.430026
 20
1331.854149
 30
0.0
 40
1.0
100
AcDbArc
 50
0.0
 51
53.130102
  0
ARC
  5
75D9
100
AcDbEntity
  8
0
100
AcDbCircle
 10
1255.930026
 20
1333.854149
 30
0.0
 40
1.5
100
AcDbArc
 50
180.0
 51
233.130102
  0
LINE
  5
75DA
100
AcDbEntity
  8
0
100
AcDbLine
 10
1288.430026
 20
1344.354149
 30
0.0
 11
1288.430026
 21
1339.785986
 31
0.0
  0
LINE
  5
75DB
100
AcDbEntity
  8
0
100
AcDbLine
 10
1300.430026
 20
1344.354149
 30
0.0
 11
1300.430026
 21
1339.785986
 31
0.0
  0
LINE
  5
75DC
100
AcDbEntity
  8
0
100
AcDbLine
 10
1315.987054
 20
1361.315424
 30
0.0
 11
1272.872999
 21
1361.315424
 31
0.0
  0
LINE
  5
75DD
100
AcDbEntity
  8
0
100
AcDbLine
 10
1272.872999
 20
1363.815424
 30
0.0
 11
1272.872999
 21
1356.815424
 31
0.0
  0
LINE
  5
75DE
100
AcDbEntity
  8
0
100
AcDbLine
 10
1264.372959
 20
1356.815424
 30
0.0
 11
1264.372959
 21
1362.85297
 31
0.0
  0
ARC
  5
75DF
100
AcDbEntity
  8
0
100
AcDbCircle
 10
1268.622817
 20
1353.951963
 30
0.0
 40
9.863886
100
AcDbArc
 50
64.476381
 51
115.526852
  0
LINE
  5
75E0
100
AcDbEntity
  8
0
100
AcDbLine
 10
1255.873373
 20
1363.815424
 30
0.0
 11
1255.873373
 21
1356.815424
 31
0.0
  0
ARC
  5
75E1
100
AcDbEntity
  8
0
100
AcDbCircle
 10
1260.123166
 20
1353.951538
 30
0.0
 40
9.863886
100
AcDbArc
 50
64.478882
 51
115.521118
  0
LINE
  5
75E2
100
AcDbEntity
  8
0
100
AcDbLine
 10
1255.873373
 20
1363.815424
 30
0.0
 11
1272.872999
 21
1363.815424
 31
0.0
  0
LINE
  5
75E3
100
AcDbEntity
  8
0
100
AcDbLine
 10
1315.987054
 20
1363.815424
 30
0.0
 11
1315.987054
 21
1356.815424
 31
0.0
  0
LINE
  5
75E4
100
AcDbEntity
  8
0
100
AcDbLine
 10
1334.430026
 20
1333.354149
 30
0.0
 11
1334.430026
 21
1356.815424
 31
0.0
  0
ARC
  5
75E5
100
AcDbEntity
  8
0
100
AcDbCircle
 10
1332.930026
 20
1333.854149
 30
0.0
 40
1.5
100
AcDbArc
 50
270.0
 51
0.0
  0
ARC
  5
75E6
100
AcDbEntity
  8
0
100
AcDbCircle
 10
1328.736887
 20
1353.951538
 30
0.0
 40
9.863886
100
AcDbArc
 50
64.478882
 51
115.521118
  0
LINE
  5
75E7
100
AcDbEntity
  8
0
100
AcDbLine
 10
1332.98668
 20
1363.815424
 30
0.0
 11
1332.98668
 21
1356.815424
 31
0.0
  0
LINE
  5
75E8
100
AcDbEntity
  8
0
100
AcDbLine
 10
1324.487093
 20
1356.815424
 30
0.0
 11
1324.487093
 21
1362.85297
 31
0.0
  0
LINE
  5
75E9
100
AcDbEntity
  8
0
100
AcDbLine
 10
1683.046199
 20
1303.348852
 30
0.0
 11
1683.046199
 21
1282.315443
 31
0.0
  0
LINE
  5
75EA
100
AcDbEntity
  8
0
100
AcDbLine
 10
1619.046199
 20
1303.354149
 30
0.0
 11
1619.046199
 21
1282.315443
 31
0.0
  0
LINE
  5
75EB
100
AcDbEntity
  8
0
100
AcDbLine
 10
1633.615651
 20
1315.912856
 30
0.0
 11
1637.594851
 21
1267.679281
 31
0.0
  0
LINE
  5
75EC
100
AcDbEntity
  8
0
100
AcDbLine
 10
1668.476747
 20
1315.912856
 30
0.0
 11
1664.497547
 21
1267.679281
 31
0.0
  0
LINE
  5
75ED
100
AcDbEntity
  8
0
100
AcDbLine
 10
1541.128564
 20
1285.538841
 30
0.0
 11
1543.687051
 21
1301.548741
 31
0.0
  0
LINE
  5
75EE
100
AcDbEntity
  8
0
100
AcDbLine
 10
1522.273127
 20
1282.354149
 30
0.0
 11
1522.273127
 21
1332.354149
 31
0.0
  0
LINE
  5
75EF
100
AcDbEntity
  8
0
100
AcDbLine
 10
1458.273127
 20
1282.354149
 30
0.0
 11
1458.273127
 21
1300.854149
 31
0.0
  0
ARC
  5
75F0
100
AcDbEntity
  8
0
100
AcDbCircle
 10
1490.273127
 20
1282.354149
 30
0.0
 40
32.0
100
AcDbArc
 50
199.901179
 51
0.0
  0
LINE
  5
75F1
100
AcDbEntity
  8
0
100
AcDbLine
 10
1544.563733
 20
1260.634421
 30
0.0
 11
1539.872805
 21
1261.891351
 31
0.0
  0
LINE
  5
75F2
100
AcDbEntity
  8
0
100
AcDbLine
 10
1539.872805
 20
1261.891351
 30
0.0
 11
1537.954504
 21
1258.87326
 31
0.0
  0
ARC
  5
75F3
100
AcDbEntity
  8
0
100
AcDbCircle
 10
1516.436078
 20
1256.191198
 30
0.0
 40
5.0
100
AcDbArc
 50
75.0
 51
135.0
  0
LINE
  5
75F4
100
AcDbEntity
  8
0
100
AcDbLine
 10
1547.39216
 20
1267.04915
 30
0.0
 11
1544.563733
 21
1260.634421
 31
0.0
  0
LINE
  5
75F5
100
AcDbEntity
  8
0
100
AcDbLine
 10
1537.524851
 20
1257.269773
 30
0.0
 11
1543.736508
 21
1280.451993
 31
0.0
  0
LINE
  5
75F6
100
AcDbEntity
  8
0
100
AcDbLine
 10
1537.136623
 20
1255.820884
 30
0.0
 11
1544.124737
 21
1281.900882
 31
0.0
  0
LINE
  5
75F7
100
AcDbEntity
  8
0
100
AcDbLine
 10
1537.524851
 20
1257.269773
 30
0.0
 11
1543.736508
 21
1280.451993
 31
0.0
  0
LINE
  5
75F8
100
AcDbEntity
  8
0
100
AcDbLine
 10
1550.497989
 20
1278.64026
 30
0.0
 11
1544.286332
 21
1255.45804
 31
0.0
  0
LINE
  5
75FA
100
AcDbEntity
  8
0
100
AcDbLine
 10
1457.273127
 20
1272.604149
 30
0.0
 11
1457.273127
 21
1252.104149
 31
0.0
  0
LINE
  5
75FB
100
AcDbEntity
  8
0
100
AcDbLine
 10
1457.273127
 20
1273.745694
 30
0.0
 11
1457.273127
 21
1251.354149
 31
0.0
  0
LINE
  5
75FE
100
AcDbEntity
  8
0
100
AcDbLine
 10
1457.273127
 20
1251.354149
 30
0.0
 11
1482.335873
 21
1251.354149
 31
0.0
  0
LINE
  5
7606
100
AcDbEntity
  8
0
100
AcDbLine
 10
1544.286332
 20
1255.45804
 30
0.0
 11
1542.770582
 21
1253.94229
 31
0.0
  0
LINE
  5
7607
100
AcDbEntity
  8
0
100
AcDbLine
 10
1537.524851
 20
1257.269773
 30
0.0
 11
1538.079654
 21
1255.199221
 31
0.0
  0
LINE
  5
7608
100
AcDbEntity
  8
0
100
AcDbLine
 10
1542.770582
 20
1253.94229
 30
0.0
 11
1538.079654
 21
1255.199221
 31
0.0
  0
LINE
  5
7609
100
AcDbEntity
  8
0
100
AcDbLine
 10
1517.730173
 20
1261.020827
 30
0.0
 11
1537.136623
 21
1255.820884
 31
0.0
  0
LINE
  5
760A
100
AcDbEntity
  8
0
100
AcDbLine
 10
1544.563733
 20
1260.634421
 30
0.0
 11
1544.688883
 21
1256.960381
 31
0.0
  0
ARC
  5
760B
100
AcDbEntity
  8
0
100
AcDbCircle
 10
1490.273127
 20
1282.354149
 30
0.0
 40
32.0
100
AcDbArc
 50
180.0
 51
189.87089
  0
ARC
  5
760C
100
AcDbEntity
  8
0
100
AcDbCircle
 10
1455.791248
 20
1276.354149
 30
0.0
 40
3.0
100
AcDbArc
 50
299.60118
 51
9.87089
  0
LINE
  5
7614
100
AcDbEntity
  8
0
100
AcDbLine
 10
1543.333957
 20
1278.949652
 30
0.0
 11
1543.459107
 21
1275.275612
 31
0.0
  0
LINE
  5
7615
100
AcDbEntity
  8
0
100
AcDbLine
 10
1548.150035
 20
1274.018682
 30
0.0
 11
1543.459107
 21
1275.275612
 31
0.0
  0
LINE
  5
7616
100
AcDbEntity
  8
0
100
AcDbLine
 10
1543.459107
 20
1275.275612
 30
0.0
 11
1540.63068
 21
1268.860883
 31
0.0
  0
LINE
  5
7617
100
AcDbEntity
  8
0
100
AcDbLine
 10
1540.63068
 20
1268.860883
 30
0.0
 11
1539.872805
 21
1261.891351
 31
0.0
  0
LINE
  5
7618
100
AcDbEntity
  8
0
100
AcDbLine
 10
1550.068336
 20
1277.036772
 30
0.0
 11
1548.150035
 21
1274.018682
 31
0.0
  0
LINE
  5
7619
100
AcDbEntity
  8
0
100
AcDbLine
 10
1548.150035
 20
1274.018682
 30
0.0
 11
1547.39216
 21
1267.04915
 31
0.0
  0
LINE
  5
761A
100
AcDbEntity
  8
0
100
AcDbLine
 10
1543.736508
 20
1280.451993
 30
0.0
 11
1545.252258
 21
1281.967742
 31
0.0
  0
LINE
  5
761B
100
AcDbEntity
  8
0
100
AcDbLine
 10
1543.30653
 20
1282.120119
 30
0.0
 11
1544.124737
 21
1281.900882
 31
0.0
  0
ARC
  5
761C
100
AcDbEntity
  8
0
100
AcDbCircle
 10
1544.082988
 20
1285.017897
 30
0.0
 40
3.0
100
AcDbArc
 50
170.0
 51
255.0
  0
LINE
  5
761D
100
AcDbEntity
  8
0
100
AcDbLine
 10
1550.497989
 20
1278.64026
 30
0.0
 11
1549.943186
 21
1280.710812
 31
0.0
  0
LINE
  5
761E
100
AcDbEntity
  8
0
100
AcDbLine
 10
1549.943186
 20
1280.710812
 30
0.0
 11
1545.252258
 21
1281.967742
 31
0.0
  0
LINE
  5
761F
100
AcDbEntity
  8
0
100
AcDbLine
 10
1663.046199
 20
1274.018682
 30
0.0
 11
1663.046199
 21
1260.634421
 31
0.0
  0
LINE
  5
7620
100
AcDbEntity
  8
0
100
AcDbLine
 10
1639.046199
 20
1274.018682
 30
0.0
 11
1639.046199
 21
1260.634421
 31
0.0
  0
ELLIPSE
  5
7621
100
AcDbEntity
  8
0
100
AcDbEllipse
 10
1651.046199
 20
1267.359817
 30
0.0
 11
-12.0
 21
0.0
 31
0.0
210
0.0
220
0.0
230
1.0
 40
0.965926
 41
0.0
 42
6.283185307179586
  0
ARC
  5
7622
100
AcDbEntity
  8
0
100
AcDbCircle
 10
1651.046199
 20
1282.315443
 30
0.0
 40
32.0
100
AcDbArc
 50
180.0
 51
0.0
  0
LINE
  5
7623
100
AcDbEntity
  8
0
100
AcDbLine
 10
1651.046199
 20
1253.94229
 30
0.0
 11
1663.046199
 21
1260.634421
 31
0.0
  0
ELLIPSE
  5
7624
100
AcDbEntity
  8
0
100
AcDbEllipse
 10
1651.046199
 20
1268.860883
 30
0.0
 11
0.0
 21
13.93038875380669
 31
0.0
210
0.0
220
0.0
230
1.0
 40
0.969104
 41
3.295259037080921
 42
3.978885935016277
  0
LINE
  5
7625
100
AcDbEntity
  8
0
100
AcDbLine
 10
1651.046199
 20
1253.94229
 30
0.0
 11
1639.046199
 21
1260.634421
 31
0.0
  0
ELLIPSE
  5
7626
100
AcDbEntity
  8
0
100
AcDbEllipse
 10
1651.046199
 20
1268.860883
 30
0.0
 11
0.0
 21
13.93038875380669
 31
0.0
210
0.0
220
0.0
230
1.0
 40
0.969104
 41
8.587484679343077
 42
9.271111577278432
  0
LINE
  5
7627
100
AcDbEntity
  8
0
100
AcDbLine
 10
1651.046199
 20
1255.737458
 30
0.0
 11
1651.046199
 21
1255.737458
 31
0.0
  0
ELLIPSE
  5
7628
100
AcDbEntity
  8
0
100
AcDbEllipse
 10
1651.046199
 20
1269.816716
 30
0.0
 11
-15.93
 21
0.0
 31
0.0
210
0.0
220
0.0
230
1.0
 40
0.965963
 41
3.611601511675273
 42
5.813176449094401
  0
LINE
  5
7629
100
AcDbEntity
  8
0
100
AcDbLine
 10
1651.046199
 20
1281.967742
 30
0.0
 11
1663.046199
 21
1275.275612
 31
0.0
  0
LINE
  5
762A
100
AcDbEntity
  8
0
100
AcDbLine
 10
1651.046199
 20
1280.710812
 30
0.0
 11
1663.046199
 21
1274.018682
 31
0.0
  0
ELLIPSE
  5
762B
100
AcDbEntity
  8
0
100
AcDbEllipse
 10
1651.046199
 20
1268.860883
 30
0.0
 11
0.0
 21
13.93038875380669
 31
0.0
210
0.0
220
0.0
230
1.0
 40
0.969104
 41
4.236506730724272
 42
8.329863883634899
  0
LINE
  5
762C
100
AcDbEntity
  8
0
100
AcDbLine
 10
1651.046199
 20
1281.967742
 30
0.0
 11
1639.046199
 21
1275.275612
 31
0.0
  0
LINE
  5
762D
100
AcDbEntity
  8
0
100
AcDbLine
 10
1651.046199
 20
1280.710812
 30
0.0
 11
1639.046199
 21
1274.018682
 31
0.0
  0
LINE
  5
762E
100
AcDbEntity
  8
0
100
AcDbLine
 10
1639.046199
 20
1275.275612
 30
0.0
 11
1639.046199
 21
1274.018682
 31
0.0
  0
LINE
  5
762F
100
AcDbEntity
  8
0
100
AcDbLine
 10
1651.046199
 20
1281.967742
 30
0.0
 11
1651.046199
 21
1280.710812
 31
0.0
  0
LINE
  5
7630
100
AcDbEntity
  8
0
100
AcDbLine
 10
1663.046199
 20
1275.275612
 30
0.0
 11
1663.046199
 21
1274.018682
 31
0.0
  0
LINE
  5
7631
100
AcDbEntity
  8
0
100
AcDbLine
 10
1458.070643
 20
1332.354149
 30
0.0
 11
1458.070643
 21
1311.354149
 31
0.0
  0
LINE
  5
7632
100
AcDbEntity
  8
0
100
AcDbLine
 10
1555.268098
 20
1340.815424
 30
0.0
 11
1555.268098
 21
1322.815424
 31
0.0
  0
LINE
  5
7633
100
AcDbEntity
  8
0
100
AcDbLine
 10
1435.268098
 20
1340.815424
 30
0.0
 11
1435.268098
 21
1322.815424
 31
0.0
  0
LINE
  5
7634
100
AcDbEntity
  8
0
100
AcDbLine
 10
1462.070643
 20
1307.354149
 30
0.0
 11
1522.273127
 21
1307.354149
 31
0.0
  0
LINE
  5
7635
100
AcDbEntity
  8
0
100
AcDbLine
 10
1435.268098
 20
1322.815424
 30
0.0
 11
1435.268098
 21
1304.815424
 31
0.0
  0
CIRCLE
  5
7636
100
AcDbEntity
  8
0
100
AcDbCircle
 10
1490.268098
 20
1319.854149
 30
0.0
 40
10.5
  0
ARC
  5
7637
100
AcDbEntity
  8
0
100
AcDbCircle
 10
1462.070643
 20
1311.354149
 30
0.0
 40
4.0
100
AcDbArc
 50
180.0
 51
270.0
  0
LINE
  5
7638
100
AcDbEntity
  8
0
100
AcDbLine
 10
1435.268098
 20
1304.815424
 30
0.0
 11
1454.273127
 21
1304.815424
 31
0.0
  0
ARC
  5
7639
100
AcDbEntity
  8
0
100
AcDbCircle
 10
1454.273127
 20
1300.815424
 30
0.0
 40
4.0
100
AcDbArc
 50
0.0
 51
90.0
  0
ARC
  5
763A
100
AcDbEntity
  8
0
100
AcDbCircle
 10
1448.773127
 20
1328.315424
 30
0.0
 40
1.5
100
AcDbArc
 50
0.0
 51
90.0
  0
ARC
  5
763B
100
AcDbEntity
  8
0
100
AcDbCircle
 10
1448.773127
 20
1317.315424
 30
0.0
 40
1.5
100
AcDbArc
 50
270.0
 51
0.0
  0
LINE
  5
763C
100
AcDbEntity
  8
0
100
AcDbLine
 10
1450.273127
 20
1328.315424
 30
0.0
 11
1450.273127
 21
1317.315424
 31
0.0
  0
ARC
  5
763D
100
AcDbEntity
  8
0
100
AcDbCircle
 10
1439.773127
 20
1328.315424
 30
0.0
 40
1.5
100
AcDbArc
 50
90.0
 51
180.0
  0
ARC
  5
763E
100
AcDbEntity
  8
0
100
AcDbCircle
 10
1439.773127
 20
1317.315424
 30
0.0
 40
1.5
100
AcDbArc
 50
180.0
 51
270.0
  0
LINE
  5
763F
100
AcDbEntity
  8
0
100
AcDbLine
 10
1438.273127
 20
1328.315424
 30
0.0
 11
1438.273127
 21
1317.315424
 31
0.0
  0
LINE
  5
7640
100
AcDbEntity
  8
0
100
AcDbLine
 10
1439.773127
 20
1315.815424
 30
0.0
 11
1448.773127
 21
1315.815424
 31
0.0
  0
LINE
  5
7641
100
AcDbEntity
  8
0
100
AcDbLine
 10
1439.773127
 20
1329.815424
 30
0.0
 11
1448.773127
 21
1329.815424
 31
0.0
  0
LINE
  5
7642
100
AcDbEntity
  8
0
100
AcDbLine
 10
1555.268098
 20
1322.815424
 30
0.0
 11
1555.268098
 21
1304.815424
 31
0.0
  0
ARC
  5
7643
100
AcDbEntity
  8
0
100
AcDbCircle
 10
1547.620616
 20
1300.815424
 30
0.0
 40
4.0
100
AcDbArc
 50
90.0
 51
170.920531
  0
LINE
  5
7644
100
AcDbEntity
  8
0
100
AcDbLine
 10
1547.620616
 20
1304.815424
 30
0.0
 11
1555.268098
 21
1304.815424
 31
0.0
  0
LINE
  5
7645
100
AcDbEntity
  8
0
100
AcDbLine
 10
1541.773127
 20
1315.815424
 30
0.0
 11
1550.773127
 21
1315.815424
 31
0.0
  0
LINE
  5
7646
100
AcDbEntity
  8
0
100
AcDbLine
 10
1541.773127
 20
1329.815424
 30
0.0
 11
1550.773127
 21
1329.815424
 31
0.0
  0
ARC
  5
7647
100
AcDbEntity
  8
0
100
AcDbCircle
 10
1541.773127
 20
1328.315424
 30
0.0
 40
1.5
100
AcDbArc
 50
90.0
 51
180.0
  0
ARC
  5
7648
100
AcDbEntity
  8
0
100
AcDbCircle
 10
1541.773127
 20
1317.315424
 30
0.0
 40
1.5
100
AcDbArc
 50
180.0
 51
270.0
  0
LINE
  5
7649
100
AcDbEntity
  8
0
100
AcDbLine
 10
1540.273127
 20
1328.315424
 30
0.0
 11
1540.273127
 21
1317.315424
 31
0.0
  0
ARC
  5
764A
100
AcDbEntity
  8
0
100
AcDbCircle
 10
1550.773127
 20
1328.315424
 30
0.0
 40
1.5
100
AcDbArc
 50
0.0
 51
90.0
  0
ARC
  5
764B
100
AcDbEntity
  8
0
100
AcDbCircle
 10
1550.773127
 20
1317.315424
 30
0.0
 40
1.5
100
AcDbArc
 50
270.0
 51
0.0
  0
LINE
  5
764C
100
AcDbEntity
  8
0
100
AcDbLine
 10
1552.273127
 20
1328.315424
 30
0.0
 11
1552.273127
 21
1317.315424
 31
0.0
  0
LINE
  5
764D
100
AcDbEntity
  8
0
100
AcDbLine
 10
1470.031015
 20
1361.315424
 30
0.0
 11
1510.505182
 21
1361.315424
 31
0.0
  0
LINE
  5
764E
100
AcDbEntity
  8
0
100
AcDbLine
 10
1449.518098
 20
1356.815424
 30
0.0
 11
1533.268098
 21
1356.815424
 31
0.0
  0
LINE
  5
764F
100
AcDbEntity
  8
0
100
AcDbLine
 10
1438.273127
 20
1344.354149
 30
0.0
 11
1533.273127
 21
1344.354149
 31
0.0
  0
LINE
  5
7650
100
AcDbEntity
  8
0
100
AcDbLine
 10
1450.523127
 20
1332.354149
 30
0.0
 11
1532.273127
 21
1332.354149
 31
0.0
  0
LINE
  5
7651
100
AcDbEntity
  8
0
100
AcDbLine
 10
1449.518098
 20
1344.315424
 30
0.0
 11
1449.518098
 21
1356.815424
 31
0.0
  0
LINE
  5
7652
100
AcDbEntity
  8
0
100
AcDbLine
 10
1449.523127
 20
1344.354149
 30
0.0
 11
1449.523127
 21
1343.354149
 31
0.0
  0
LINE
  5
7653
100
AcDbEntity
  8
0
100
AcDbLine
 10
1438.273127
 20
1343.561255
 30
0.0
 11
1438.273127
 21
1344.354149
 31
0.0
  0
ARC
  5
7654
100
AcDbEntity
  8
0
100
AcDbCircle
 10
1435.273127
 20
1343.561255
 30
0.0
 40
3.0
100
AcDbArc
 50
293.75487
 51
0.0
  0
LINE
  5
7655
100
AcDbEntity
  8
0
100
AcDbLine
 10
1435.268098
 20
1340.815424
 30
0.0
 11
1446.523127
 21
1340.815424
 31
0.0
  0
ARC
  5
7656
100
AcDbEntity
  8
0
100
AcDbCircle
 10
1450.523127
 20
1333.354149
 30
0.0
 40
1.0
100
AcDbArc
 50
180.0
 51
270.0
  0
LINE
  5
7657
100
AcDbEntity
  8
0
100
AcDbLine
 10
1449.523127
 20
1333.354149
 30
0.0
 11
1449.523127
 21
1343.354149
 31
0.0
  0
ARC
  5
7658
100
AcDbEntity
  8
0
100
AcDbCircle
 10
1446.523127
 20
1343.815424
 30
0.0
 40
3.0
100
AcDbArc
 50
270.0
 51
0.0
  0
LINE
  5
7659
100
AcDbEntity
  8
0
100
AcDbLine
 10
1470.031015
 20
1362.880306
 30
0.0
 11
1467.577276
 21
1363.815424
 31
0.0
  0
LINE
  5
765A
100
AcDbEntity
  8
0
100
AcDbLine
 10
1451.96606
 20
1363.815424
 30
0.0
 11
1468.46606
 21
1363.815424
 31
0.0
  0
LINE
  5
765B
100
AcDbEntity
  8
0
100
AcDbLine
 10
1455.308583
 20
1362.880306
 30
0.0
 11
1455.308583
 21
1356.815424
 31
0.0
  0
LINE
  5
765C
100
AcDbEntity
  8
0
100
AcDbLine
 10
1450.401106
 20
1356.812559
 30
0.0
 11
1450.401106
 21
1362.880306
 31
0.0
  0
LINE
  5
765D
100
AcDbEntity
  8
0
100
AcDbLine
 10
1465.123537
 20
1362.880306
 30
0.0
 11
1465.123537
 21
1356.815424
 31
0.0
  0
LINE
  5
765E
100
AcDbEntity
  8
0
100
AcDbLine
 10
1450.401106
 20
1362.880306
 30
0.0
 11
1452.854844
 21
1363.815424
 31
0.0
  0
LINE
  5
765F
100
AcDbEntity
  8
0
100
AcDbLine
 10
1450.401106
 20
1362.880306
 30
0.0
 11
1451.96606
 21
1363.815424
 31
0.0
  0
LINE
  5
7660
100
AcDbEntity
  8
0
100
AcDbLine
 10
1452.854844
 20
1363.815424
 30
0.0
 11
1455.308583
 21
1362.880306
 31
0.0
  0
LINE
  5
7661
100
AcDbEntity
  8
0
100
AcDbLine
 10
1467.577276
 20
1363.815424
 30
0.0
 11
1465.123537
 21
1362.880306
 31
0.0
  0
LINE
  5
7662
100
AcDbEntity
  8
0
100
AcDbLine
 10
1460.21606
 20
1363.815424
 30
0.0
 11
1465.165308
 21
1362.863706
 31
0.0
  0
LINE
  5
7663
100
AcDbEntity
  8
0
100
AcDbLine
 10
1455.308583
 20
1362.880306
 30
0.0
 11
1460.21606
 21
1363.815424
 31
0.0
  0
LINE
  5
7664
100
AcDbEntity
  8
0
100
AcDbLine
 10
1470.031015
 20
1362.880306
 30
0.0
 11
1470.031015
 21
1356.815424
 31
0.0
  0
LINE
  5
7665
100
AcDbEntity
  8
0
100
AcDbLine
 10
1468.46606
 20
1363.815424
 30
0.0
 11
1470.031015
 21
1362.880306
 31
0.0
  0
LINE
  5
7666
100
AcDbEntity
  8
0
100
AcDbLine
 10
1533.268098
 20
1333.253987
 30
0.0
 11
1533.268098
 21
1356.815424
 31
0.0
  0
LINE
  5
7667
100
AcDbEntity
  8
0
100
AcDbLine
 10
1536.273127
 20
1340.815424
 30
0.0
 11
1555.268098
 21
1340.815424
 31
0.0
  0
LINE
  5
7668
100
AcDbEntity
  8
0
100
AcDbLine
 10
1533.273127
 20
1343.354149
 30
0.0
 11
1533.273127
 21
1344.354149
 31
0.0
  0
ARC
  5
7669
100
AcDbEntity
  8
0
100
AcDbCircle
 10
1532.273127
 20
1333.354149
 30
0.0
 40
1.0
100
AcDbArc
 50
270.0
 51
0.0
  0
ARC
  5
766A
100
AcDbEntity
  8
0
100
AcDbCircle
 10
1535.908676
 20
1343.426659
 30
0.0
 40
2.636546
100
AcDbArc
 50
181.575955
 51
277.945465
  0
LINE
  5
766B
100
AcDbEntity
  8
0
100
AcDbLine
 10
1525.227614
 20
1362.880306
 30
0.0
 11
1525.227614
 21
1356.815424
 31
0.0
  0
LINE
  5
766C
100
AcDbEntity
  8
0
100
AcDbLine
 10
1530.135091
 20
1356.812559
 30
0.0
 11
1530.135091
 21
1362.880306
 31
0.0
  0
LINE
  5
766D
100
AcDbEntity
  8
0
100
AcDbLine
 10
1515.412659
 20
1362.880306
 30
0.0
 11
1515.412659
 21
1356.815424
 31
0.0
  0
LINE
  5
766E
100
AcDbEntity
  8
0
100
AcDbLine
 10
1510.505182
 20
1362.880306
 30
0.0
 11
1510.505182
 21
1356.815424
 31
0.0
  0
LINE
  5
766F
100
AcDbEntity
  8
0
100
AcDbLine
 10
1530.135091
 20
1362.880306
 30
0.0
 11
1527.681352
 21
1363.815424
 31
0.0
  0
LINE
  5
7670
100
AcDbEntity
  8
0
100
AcDbLine
 10
1530.135091
 20
1362.880306
 30
0.0
 11
1528.570137
 21
1363.815424
 31
0.0
  0
LINE
  5
7671
100
AcDbEntity
  8
0
100
AcDbLine
 10
1527.681352
 20
1363.815424
 30
0.0
 11
1525.227614
 21
1362.880306
 31
0.0
  0
LINE
  5
7672
100
AcDbEntity
  8
0
100
AcDbLine
 10
1510.505182
 20
1362.880306
 30
0.0
 11
1512.958921
 21
1363.815424
 31
0.0
  0
LINE
  5
7673
100
AcDbEntity
  8
0
100
AcDbLine
 10
1512.070137
 20
1363.815424
 30
0.0
 11
1510.505182
 21
1362.880306
 31
0.0
  0
LINE
  5
7674
100
AcDbEntity
  8
0
100
AcDbLine
 10
1512.958921
 20
1363.815424
 30
0.0
 11
1515.412659
 21
1362.880306
 31
0.0
  0
LINE
  5
7675
100
AcDbEntity
  8
0
100
AcDbLine
 10
1520.320137
 20
1363.815424
 30
0.0
 11
1515.370888
 21
1362.863706
 31
0.0
  0
LINE
  5
7676
100
AcDbEntity
  8
0
100
AcDbLine
 10
1525.227614
 20
1362.880306
 30
0.0
 11
1520.320137
 21
1363.815424
 31
0.0
  0
LINE
  5
7677
100
AcDbEntity
  8
0
100
AcDbLine
 10
1528.570137
 20
1363.815424
 30
0.0
 11
1512.070137
 21
1363.815424
 31
0.0
  0
CIRCLE
  5
7678
100
AcDbEntity
  8
0
100
AcDbCircle
 10
1651.046199
 20
1322.815424
 30
0.0
 40
18.0
  0
LINE
  5
7679
100
AcDbEntity
  8
0
100
AcDbLine
 10
1690.046199
 20
1331.854149
 30
0.0
 11
1690.046199
 21
1311.286106
 31
0.0
  0
ARC
  5
767A
100
AcDbEntity
  8
0
100
AcDbCircle
 10
1630.092912
 20
1329.354149
 30
0.0
 40
3.0
100
AcDbArc
 50
0.0
 51
90.0
  0
ARC
  5
767B
100
AcDbEntity
  8
0
100
AcDbCircle
 10
1671.999487
 20
1329.354149
 30
0.0
 40
3.0
100
AcDbArc
 50
90.0
 51
180.0
  0
ARC
  5
767C
100
AcDbEntity
  8
0
100
AcDbCircle
 10
1608.046199
 20
1333.354149
 30
0.0
 40
3.0
100
AcDbArc
 50
270.0
 51
0.0
  0
ARC
  5
767D
100
AcDbEntity
  8
0
100
AcDbCircle
 10
1606.046199
 20
1329.354149
 30
0.0
 40
1.0
100
AcDbArc
 50
90.0
 51
180.0
  0
LINE
  5
767E
100
AcDbEntity
  8
0
100
AcDbLine
 10
1605.046199
 20
1329.354149
 30
0.0
 11
1605.046199
 21
1310.354149
 31
0.0
  0
ARC
  5
767F
100
AcDbEntity
  8
0
100
AcDbCircle
 10
1596.24024
 20
1319.854149
 30
0.0
 40
15.799704
100
AcDbArc
 50
328.149276
 51
31.850724
  0
LINE
  5
7680
100
AcDbEntity
  8
0
100
AcDbLine
 10
1612.510301
 20
1307.354149
 30
0.0
 11
1630.638137
 21
1307.354149
 31
0.0
  0
LINE
  5
7681
100
AcDbEntity
  8
0
100
AcDbLine
 10
1606.046199
 20
1309.354149
 30
0.0
 11
1609.046199
 21
1309.354149
 31
0.0
  0
ARC
  5
7682
100
AcDbEntity
  8
0
100
AcDbCircle
 10
1609.046199
 20
1307.354149
 30
0.0
 40
2.0
100
AcDbArc
 50
30.0
 51
90.0
  0
ARC
  5
7683
100
AcDbEntity
  8
0
100
AcDbCircle
 10
1606.046199
 20
1310.354149
 30
0.0
 40
1.0
100
AcDbArc
 50
180.0
 51
270.0
  0
ARC
  5
7684
100
AcDbEntity
  8
0
100
AcDbCircle
 10
1615.046199
 20
1303.354149
 30
0.0
 40
4.0
100
AcDbArc
 50
0.0
 51
90.0
  0
ARC
  5
7685
100
AcDbEntity
  8
0
100
AcDbCircle
 10
1612.510301
 20
1309.354149
 30
0.0
 40
2.0
100
AcDbArc
 50
210.0
 51
270.0
  0
ARC
  5
7686
100
AcDbEntity
  8
0
100
AcDbCircle
 10
1630.638137
 20
1303.354149
 30
0.0
 40
4.0
100
AcDbArc
 50
4.716139
 51
90.0
  0
LINE
  5
7687
100
AcDbEntity
  8
0
100
AcDbLine
 10
1606.046199
 20
1330.354149
 30
0.0
 11
1608.046199
 21
1330.354149
 31
0.0
  0
ARC
  5
7688
100
AcDbEntity
  8
0
100
AcDbCircle
 10
1634.046199
 20
1328.815424
 30
0.0
 40
1.0
100
AcDbArc
 50
96.904006
 51
180.0
  0
ARC
  5
7689
100
AcDbEntity
  8
0
100
AcDbCircle
 10
1633.805787
 20
1330.800921
 30
0.0
 40
1.0
100
AcDbArc
 50
276.904006
 51
335.147143
  0
ARC
  5
768A
100
AcDbEntity
  8
0
100
AcDbCircle
 10
1634.046199
 20
1316.815424
 30
0.0
 40
1.0
100
AcDbArc
 50
180.0
 51
263.095994
  0
ARC
  5
768B
100
AcDbEntity
  8
0
100
AcDbCircle
 10
1633.805787
 20
1314.829926
 30
0.0
 40
1.0
100
AcDbArc
 50
24.852857
 51
83.095994
  0
LINE
  5
768C
100
AcDbEntity
  8
0
100
AcDbLine
 10
1633.046199
 20
1329.354149
 30
0.0
 11
1633.046199
 21
1316.815424
 31
0.0
  0
ARC
  5
768D
100
AcDbEntity
  8
0
100
AcDbCircle
 10
1687.046199
 20
1303.348852
 30
0.0
 40
4.0
100
AcDbArc
 50
97.180756
 51
180.0
  0
ARC
  5
768E
100
AcDbEntity
  8
0
100
AcDbCircle
 10
1686.046199
 20
1311.286106
 30
0.0
 40
4.0
100
AcDbArc
 50
277.180756
 51
0.0
  0
ARC
  5
768F
100
AcDbEntity
  8
0
100
AcDbCircle
 10
1671.454261
 20
1303.354149
 30
0.0
 40
4.0
100
AcDbArc
 50
90.0
 51
175.283861
  0
LINE
  5
7690
100
AcDbEntity
  8
0
100
AcDbLine
 10
1671.454261
 20
1307.354149
 30
0.0
 11
1686.780848
 21
1307.354149
 31
0.0
  0
ARC
  5
7691
100
AcDbEntity
  8
0
100
AcDbCircle
 10
1668.046199
 20
1328.815424
 30
0.0
 40
1.0
100
AcDbArc
 50
0.0
 51
83.095994
  0
ARC
  5
7692
100
AcDbEntity
  8
0
100
AcDbCircle
 10
1668.286612
 20
1330.800921
 30
0.0
 40
1.0
100
AcDbArc
 50
204.852857
 51
263.095994
  0
ARC
  5
7693
100
AcDbEntity
  8
0
100
AcDbCircle
 10
1668.046199
 20
1316.815424
 30
0.0
 40
1.0
100
AcDbArc
 50
276.904006
 51
0.0
  0
ARC
  5
7694
100
AcDbEntity
  8
0
100
AcDbCircle
 10
1668.286612
 20
1314.829926
 30
0.0
 40
1.0
100
AcDbArc
 50
96.904006
 51
155.147143
  0
LINE
  5
7695
100
AcDbEntity
  8
0
100
AcDbLine
 10
1669.046199
 20
1329.354149
 30
0.0
 11
1669.046199
 21
1316.815424
 31
0.0
  0
LINE
  5
7696
100
AcDbEntity
  8
0
100
AcDbLine
 10
1629.489171
 20
1361.315424
 30
0.0
 11
1672.603227
 21
1361.315424
 31
0.0
  0
LINE
  5
7697
100
AcDbEntity
  8
0
100
AcDbLine
 10
1611.046199
 20
1356.815424
 30
0.0
 11
1691.046199
 21
1356.815424
 31
0.0
  0
LINE
  5
7698
100
AcDbEntity
  8
0
100
AcDbLine
 10
1611.046199
 20
1344.354149
 30
0.0
 11
1691.046199
 21
1344.354149
 31
0.0
  0
LINE
  5
7699
100
AcDbEntity
  8
0
100
AcDbLine
 10
1611.046199
 20
1333.354149
 30
0.0
 11
1611.046199
 21
1356.815424
 31
0.0
  0
LINE
  5
769A
100
AcDbEntity
  8
0
100
AcDbLine
 10
1612.546199
 20
1332.354149
 30
0.0
 11
1630.092912
 21
1332.354149
 31
0.0
  0
ARC
  5
769B
100
AcDbEntity
  8
0
100
AcDbCircle
 10
1612.546199
 20
1333.854149
 30
0.0
 40
1.5
100
AcDbArc
 50
180.0
 51
270.0
  0
ARC
  5
769C
100
AcDbEntity
  8
0
100
AcDbCircle
 10
1625.238989
 20
1353.951963
 30
0.0
 40
9.863886
100
AcDbArc
 50
64.476381
 51
115.526852
  0
LINE
  5
769D
100
AcDbEntity
  8
0
100
AcDbLine
 10
1612.489545
 20
1363.815424
 30
0.0
 11
1629.489171
 21
1363.815424
 31
0.0
  0
LINE
  5
769E
100
AcDbEntity
  8
0
100
AcDbLine
 10
1620.989132
 20
1356.815424
 30
0.0
 11
1620.989132
 21
1362.85297
 31
0.0
  0
LINE
  5
769F
100
AcDbEntity
  8
0
100
AcDbLine
 10
1612.489545
 20
1363.815424
 30
0.0
 11
1612.489545
 21
1356.815424
 31
0.0
  0
ARC
  5
76A0
100
AcDbEntity
  8
0
100
AcDbCircle
 10
1616.739339
 20
1353.951538
 30
0.0
 40
9.863886
100
AcDbArc
 50
64.478882
 51
115.521118
  0
LINE
  5
76A1
100
AcDbEntity
  8
0
100
AcDbLine
 10
1629.489171
 20
1363.815424
 30
0.0
 11
1629.489171
 21
1356.815424
 31
0.0
  0
LINE
  5
76A2
100
AcDbEntity
  8
0
100
AcDbLine
 10
1691.046199
 20
1333.854149
 30
0.0
 11
1691.046199
 21
1356.815424
 31
0.0
  0
ARC
  5
76A3
100
AcDbEntity
  8
0
100
AcDbCircle
 10
1689.546199
 20
1333.854149
 30
0.0
 40
1.5
100
AcDbArc
 50
306.869898
 51
360.0
  0
ARC
  5
76A4
100
AcDbEntity
  8
0
100
AcDbCircle
 10
1691.046199
 20
1331.854149
 30
0.0
 40
1.0
100
AcDbArc
 50
126.869898
 51
180.0
  0
LINE
  5
76A5
100
AcDbEntity
  8
0
100
AcDbLine
 10
1690.180174
 20
1332.354149
 30
0.0
 11
1671.999487
 21
1332.354149
 31
0.0
  0
LINE
  5
76A6
100
AcDbEntity
  8
0
100
AcDbLine
 10
1689.602853
 20
1363.815424
 30
0.0
 11
1672.603227
 21
1363.815424
 31
0.0
  0
ARC
  5
76A7
100
AcDbEntity
  8
0
100
AcDbCircle
 10
1685.353059
 20
1353.951538
 30
0.0
 40
9.863886
100
AcDbArc
 50
64.478882
 51
115.521118
  0
LINE
  5
76A8
100
AcDbEntity
  8
0
100
AcDbLine
 10
1689.602853
 20
1363.815424
 30
0.0
 11
1689.602853
 21
1356.815424
 31
0.0
  0
ARC
  5
76A9
100
AcDbEntity
  8
0
100
AcDbCircle
 10
1676.853409
 20
1353.951963
 30
0.0
 40
9.863886
100
AcDbArc
 50
64.473148
 51
115.523619
  0
LINE
  5
76AA
100
AcDbEntity
  8
0
100
AcDbLine
 10
1681.103266
 20
1356.815424
 30
0.0
 11
1681.103266
 21
1362.85297
 31
0.0
  0
LINE
  5
76AB
100
AcDbEntity
  8
0
100
AcDbLine
 10
1672.603227
 20
1363.815424
 30
0.0
 11
1672.603227
 21
1356.815424
 31
0.0
  0
TEXT
  5
76AD
100
AcDbEntity
  8
0
100
AcDbText
 10
2210.953051
 20
1179.693258
 30
0.0
 40
25.0
  1
25A
 72
     4
 11
2244.286385
 21
1192.193258
 31
0.0
100
AcDbText
  0
ARC
  5
76AE
100
AcDbEntity
  8
0
100
AcDbCircle
 10
2242.187951
 20
1279.815424
 30
0.0
 40
32.0
100
AcDbArc
 50
199.901179
 51
0.0
  0
LINE
  5
76AF
100
AcDbEntity
  8
0
100
AcDbLine
 10
2209.187951
 20
1248.815424
 30
0.0
 11
2234.250697
 21
1248.815424
 31
0.0
  0
LINE
  5
76B0
100
AcDbEntity
  8
0
100
AcDbLine
 10
2213.985467
 20
1304.815424
 30
0.0
 11
2274.187951
 21
1304.815424
 31
0.0
  0
LINE
  5
76B1
100
AcDbEntity
  8
0
100
AcDbLine
 10
2201.437951
 20
1336.815424
 30
0.0
 11
2285.182922
 21
1336.815424
 31
0.0
  0
LINE
  5
76B2
100
AcDbEntity
  8
0
100
AcDbLine
 10
2201.432922
 20
1361.315424
 30
0.0
 11
2285.182922
 21
1361.315424
 31
0.0
  0
LINE
  5
76B3
100
AcDbEntity
  8
0
100
AcDbLine
 10
2190.187951
 20
1348.815424
 30
0.0
 11
2285.182922
 21
1348.815424
 31
0.0
  0
LINE
  5
76B4
100
AcDbEntity
  8
0
100
AcDbLine
 10
2056.770052
 20
1279.815424
 30
0.0
 11
2056.770052
 21
1301.01064
 31
0.0
  0
LINE
  5
76B5
100
AcDbEntity
  8
0
100
AcDbLine
 10
1992.759994
 20
1279.815424
 30
0.0
 11
1992.759994
 21
1301.01064
 31
0.0
  0
ARC
  5
76B6
100
AcDbEntity
  8
0
100
AcDbCircle
 10
2024.765023
 20
1279.776699
 30
0.0
 40
32.0
100
AcDbArc
 50
179.930663
 51
0.069337
  0
LINE
  5
76B7
100
AcDbEntity
  8
0
100
AcDbLine
 10
2210.187951
 20
1279.815424
 30
0.0
 11
2210.187951
 21
1296.815424
 31
0.0
  0
LINE
  5
76BA
100
AcDbEntity
  8
0
100
AcDbLine
 10
2209.187951
 20
1271.206969
 30
0.0
 11
2209.187951
 21
1248.815424
 31
0.0
  0
ARC
  5
76C7
100
AcDbEntity
  8
0
100
AcDbCircle
 10
2242.187951
 20
1279.815424
 30
0.0
 40
32.0
100
AcDbArc
 50
180.0
 51
189.87089
  0
ARC
  5
76C8
100
AcDbEntity
  8
0
100
AcDbCircle
 10
2207.706072
 20
1273.815424
 30
0.0
 40
3.0
100
AcDbArc
 50
299.60118
 51
9.87089
  0
LINE
  5
76D0
100
AcDbEntity
  8
0
100
AcDbLine
 10
2064.765023
 20
1361.315424
 30
0.0
 11
1984.765023
 21
1361.315424
 31
0.0
  0
LINE
  5
76D1
100
AcDbEntity
  8
0
100
AcDbLine
 10
2064.765023
 20
1348.815424
 30
0.0
 11
1984.765023
 21
1348.815424
 31
0.0
  0
CIRCLE
  5
76D2
100
AcDbEntity
  8
0
100
AcDbCircle
 10
2024.765023
 20
1322.815424
 30
0.0
 40
22.0
  0
LINE
  5
76D3
100
AcDbEntity
  8
0
100
AcDbLine
 10
2002.765023
 20
1314.815424
 30
0.0
 11
2002.765023
 21
1333.815424
 31
0.0
  0
LINE
  5
76D4
100
AcDbEntity
  8
0
100
AcDbLine
 10
1985.765023
 20
1336.315424
 30
0.0
 11
1985.765023
 21
1308.747381
 31
0.0
  0
LINE
  5
76D5
100
AcDbEntity
  8
0
100
AcDbLine
 10
1989.030374
 20
1304.815424
 30
0.0
 11
2012.115913
 21
1304.815424
 31
0.0
  0
ARC
  5
76D6
100
AcDbEntity
  8
0
100
AcDbCircle
 10
1988.765023
 20
1300.810127
 30
0.0
 40
4.0
100
AcDbArc
 50
0.0
 51
82.819244
  0
ARC
  5
76D7
100
AcDbEntity
  8
0
100
AcDbCircle
 10
1989.765023
 20
1308.747381
 30
0.0
 40
4.0
100
AcDbArc
 50
180.0
 51
262.819244
  0
ARC
  5
76D8
100
AcDbEntity
  8
0
100
AcDbCircle
 10
2003.765023
 20
1314.815424
 30
0.0
 40
1.0
100
AcDbArc
 50
180.0
 51
270.0
  0
LINE
  5
76D9
100
AcDbEntity
  8
0
100
AcDbLine
 10
2003.765023
 20
1313.815424
 30
0.0
 11
2004.052708
 21
1313.815424
 31
0.0
  0
ARC
  5
76DA
100
AcDbEntity
  8
0
100
AcDbCircle
 10
2004.052708
 20
1312.815424
 30
0.0
 40
1.0
100
AcDbArc
 50
25.771462
 51
90.0
  0
LINE
  5
76DB
100
AcDbEntity
  8
0
100
AcDbLine
 10
2030.765023
 20
1343.981434
 30
0.0
 11
2030.765023
 21
1348.815424
 31
0.0
  0
LINE
  5
76DC
100
AcDbEntity
  8
0
100
AcDbLine
 10
2018.765023
 20
1343.981434
 30
0.0
 11
2018.765023
 21
1348.815424
 31
0.0
  0
LINE
  5
76DD
100
AcDbEntity
  8
0
100
AcDbLine
 10
1984.765023
 20
1348.815424
 30
0.0
 11
1984.765023
 21
1338.315424
 31
0.0
  0
LINE
  5
76DE
100
AcDbEntity
  8
0
100
AcDbLine
 10
1984.765023
 20
1338.315424
 30
0.0
 11
1984.765023
 21
1361.315424
 31
0.0
  0
LINE
  5
76DF
100
AcDbEntity
  8
0
100
AcDbLine
 10
1985.631049
 20
1336.815424
 30
0.0
 11
1999.765023
 21
1336.815424
 31
0.0
  0
ARC
  5
76E0
100
AcDbEntity
  8
0
100
AcDbCircle
 10
1986.265023
 20
1338.315424
 30
0.0
 40
1.5
100
AcDbArc
 50
180.0
 51
233.130102
  0
ARC
  5
76E1
100
AcDbEntity
  8
0
100
AcDbCircle
 10
1984.765023
 20
1336.315424
 30
0.0
 40
1.0
100
AcDbArc
 50
0.0
 51
53.130102
  0
ARC
  5
76E2
100
AcDbEntity
  8
0
100
AcDbCircle
 10
2003.765023
 20
1330.815424
 30
0.0
 40
1.0
100
AcDbArc
 50
90.0
 51
180.0
  0
LINE
  5
76E3
100
AcDbEntity
  8
0
100
AcDbLine
 10
2003.765023
 20
1331.815424
 30
0.0
 11
2004.052708
 21
1331.815424
 31
0.0
  0
ARC
  5
76E4
100
AcDbEntity
  8
0
100
AcDbCircle
 10
2004.052708
 20
1332.815424
 30
0.0
 40
1.0
100
AcDbArc
 50
270.0
 51
334.228538
  0
ARC
  5
76E5
100
AcDbEntity
  8
0
100
AcDbCircle
 10
1999.765023
 20
1333.815424
 30
0.0
 40
3.0
100
AcDbArc
 50
0.0
 51
90.0
  0
ARC
  5
76E6
100
AcDbEntity
  8
0
100
AcDbCircle
 10
2066.765023
 20
1330.815424
 30
0.0
 40
3.0
100
AcDbArc
 50
180.0
 51
270.0
  0
LINE
  5
76E7
100
AcDbEntity
  8
0
100
AcDbLine
 10
2046.765023
 20
1314.815424
 30
0.0
 11
2046.765023
 21
1333.815424
 31
0.0
  0
ARC
  5
76E8
100
AcDbEntity
  8
0
100
AcDbCircle
 10
2203.687951
 20
1330.315424
 30
0.0
 40
1.5
100
AcDbArc
 50
360.0
 51
90.0
  0
ARC
  5
76E9
100
AcDbEntity
  8
0
100
AcDbCircle
 10
2191.687951
 20
1330.315424
 30
0.0
 40
1.5
100
AcDbArc
 50
90.0
 51
180.0
  0
LINE
  5
76EA
100
AcDbEntity
  8
0
100
AcDbLine
 10
2209.985467
 20
1336.815424
 30
0.0
 11
2209.985467
 21
1308.815424
 31
0.0
  0
LINE
  5
76EB
100
AcDbEntity
  8
0
100
AcDbLine
 10
2187.187951
 20
1344.815424
 30
0.0
 11
2187.187951
 21
1322.815424
 31
0.0
  0
ARC
  5
76EC
100
AcDbEntity
  8
0
100
AcDbCircle
 10
2079.570982
 20
1317.315424
 30
0.0
 40
15.799704
100
AcDbArc
 50
148.149276
 51
211.850724
  0
LINE
  5
76ED
100
AcDbEntity
  8
0
100
AcDbLine
 10
2070.765023
 20
1326.815424
 30
0.0
 11
2070.765023
 21
1307.815424
 31
0.0
  0
ARC
  5
76EE
100
AcDbEntity
  8
0
100
AcDbCircle
 10
2069.765023
 20
1307.815424
 30
0.0
 40
1.0
100
AcDbArc
 50
270.0
 51
0.0
  0
ARC
  5
76EF
100
AcDbEntity
  8
0
100
AcDbCircle
 10
2060.765023
 20
1300.810127
 30
0.0
 40
4.0
100
AcDbArc
 50
97.180756
 51
180.0
  0
ARC
  5
76F0
100
AcDbEntity
  8
0
100
AcDbCircle
 10
2066.765023
 20
1304.815424
 30
0.0
 40
2.0
100
AcDbArc
 50
90.0
 51
150.0
  0
LINE
  5
76F1
100
AcDbEntity
  8
0
100
AcDbLine
 10
2069.765023
 20
1306.815424
 30
0.0
 11
2066.765023
 21
1306.815424
 31
0.0
  0
ARC
  5
76F2
100
AcDbEntity
  8
0
100
AcDbCircle
 10
2063.300922
 20
1306.815424
 30
0.0
 40
2.0
100
AcDbArc
 50
270.0
 51
330.0
  0
LINE
  5
76F3
100
AcDbEntity
  8
0
100
AcDbLine
 10
2063.300922
 20
1304.815424
 30
0.0
 11
2037.414134
 21
1304.815424
 31
0.0
  0
ARC
  5
76F4
100
AcDbEntity
  8
0
100
AcDbCircle
 10
2069.765023
 20
1326.815424
 30
0.0
 40
1.0
100
AcDbArc
 50
0.0
 51
90.0
  0
LINE
  5
76F5
100
AcDbEntity
  8
0
100
AcDbLine
 10
2069.765023
 20
1327.815424
 30
0.0
 11
2066.765023
 21
1327.815424
 31
0.0
  0
ARC
  5
76F6
100
AcDbEntity
  8
0
100
AcDbCircle
 10
2045.477338
 20
1312.815424
 30
0.0
 40
1.0
100
AcDbArc
 50
90.0
 51
154.228538
  0
ARC
  5
76F7
100
AcDbEntity
  8
0
100
AcDbCircle
 10
2045.765023
 20
1314.815424
 30
0.0
 40
1.0
100
AcDbArc
 50
270.0
 51
360.0
  0
LINE
  5
76F8
100
AcDbEntity
  8
0
100
AcDbLine
 10
2045.765023
 20
1313.815424
 30
0.0
 11
2045.477338
 21
1313.815424
 31
0.0
  0
LINE
  5
76F9
100
AcDbEntity
  8
0
100
AcDbLine
 10
2187.187951
 20
1322.815424
 30
0.0
 11
2187.187951
 21
1300.815424
 31
0.0
  0
LINE
  5
76FA
100
AcDbEntity
  8
0
100
AcDbLine
 10
2187.187951
 20
1300.815424
 30
0.0
 11
2206.187951
 21
1300.815424
 31
0.0
  0
ARC
  5
76FB
100
AcDbEntity
  8
0
100
AcDbCircle
 10
2213.985467
 20
1308.815424
 30
0.0
 40
4.0
100
AcDbArc
 50
180.0
 51
270.0
  0
ARC
  5
76FC
100
AcDbEntity
  8
0
100
AcDbCircle
 10
2206.187951
 20
1296.815424
 30
0.0
 40
4.0
100
AcDbArc
 50
0.0
 51
90.0
  0
LINE
  5
76FD
100
AcDbEntity
  8
0
100
AcDbLine
 10
2191.687951
 20
1313.815424
 30
0.0
 11
2203.687951
 21
1313.815424
 31
0.0
  0
ARC
  5
76FE
100
AcDbEntity
  8
0
100
AcDbCircle
 10
2191.687951
 20
1315.315424
 30
0.0
 40
1.5
100
AcDbArc
 50
180.0
 51
270.0
  0
LINE
  5
76FF
100
AcDbEntity
  8
0
100
AcDbLine
 10
2190.187951
 20
1330.315424
 30
0.0
 11
2190.187951
 21
1315.315424
 31
0.0
  0
LINE
  5
7700
100
AcDbEntity
  8
0
100
AcDbLine
 10
2205.187951
 20
1330.315424
 30
0.0
 11
2205.187951
 21
1315.315424
 31
0.0
  0
ARC
  5
7701
100
AcDbEntity
  8
0
100
AcDbCircle
 10
2203.687951
 20
1315.315424
 30
0.0
 40
1.5
100
AcDbArc
 50
270.0
 51
360.0
  0
LINE
  5
7702
100
AcDbEntity
  8
0
100
AcDbLine
 10
2064.765023
 20
1348.815424
 30
0.0
 11
2064.765023
 21
1338.315424
 31
0.0
  0
LINE
  5
7703
100
AcDbEntity
  8
0
100
AcDbLine
 10
2064.765023
 20
1338.315424
 30
0.0
 11
2064.765023
 21
1361.315424
 31
0.0
  0
ARC
  5
7704
100
AcDbEntity
  8
0
100
AcDbCircle
 10
2064.765023
 20
1336.315424
 30
0.0
 40
1.0
100
AcDbArc
 50
126.869898
 51
180.0
  0
ARC
  5
7705
100
AcDbEntity
  8
0
100
AcDbCircle
 10
2063.265023
 20
1338.315424
 30
0.0
 40
1.5
100
AcDbArc
 50
270.0
 51
0.0
  0
LINE
  5
7706
100
AcDbEntity
  8
0
100
AcDbLine
 10
2063.265023
 20
1336.815424
 30
0.0
 11
2049.765023
 21
1336.815424
 31
0.0
  0
ARC
  5
7707
100
AcDbEntity
  8
0
100
AcDbCircle
 10
2045.477338
 20
1332.815424
 30
0.0
 40
1.0
100
AcDbArc
 50
205.771462
 51
270.0
  0
ARC
  5
7708
100
AcDbEntity
  8
0
100
AcDbCircle
 10
2045.765023
 20
1330.815424
 30
0.0
 40
1.0
100
AcDbArc
 50
0.0
 51
90.0
  0
LINE
  5
7709
100
AcDbEntity
  8
0
100
AcDbLine
 10
2045.765023
 20
1331.815424
 30
0.0
 11
2045.477338
 21
1331.815424
 31
0.0
  0
ARC
  5
770A
100
AcDbEntity
  8
0
100
AcDbCircle
 10
2049.765023
 20
1333.815424
 30
0.0
 40
3.0
100
AcDbArc
 50
90.0
 51
180.0
  0
LINE
  5
770B
100
AcDbEntity
  8
0
100
AcDbLine
 10
2063.765023
 20
1336.315424
 30
0.0
 11
2063.765023
 21
1330.815424
 31
0.0
  0
LINE
  5
770C
100
AcDbEntity
  8
0
100
AcDbLine
 10
2190.187951
 20
1347.815424
 30
0.0
 11
2188.480844
 21
1344.815424
 31
0.0
  0
LINE
  5
770D
100
AcDbEntity
  8
0
100
AcDbLine
 10
2201.437951
 20
1336.815424
 30
0.0
 11
2201.437951
 21
1347.815424
 31
0.0
  0
LINE
  5
770E
100
AcDbEntity
  8
0
100
AcDbLine
 10
2198.437951
 20
1344.815424
 30
0.0
 11
2201.437951
 21
1347.815424
 31
0.0
  0
LINE
  5
770F
100
AcDbEntity
  8
0
100
AcDbLine
 10
2198.437951
 20
1344.815424
 30
0.0
 11
2187.187951
 21
1344.815424
 31
0.0
  0
LINE
  5
7710
100
AcDbEntity
  8
0
100
AcDbLine
 10
2191.687951
 20
1331.815424
 30
0.0
 11
2203.687951
 21
1331.815424
 31
0.0
  0
LINE
  5
7711
100
AcDbEntity
  8
0
100
AcDbLine
 10
2190.187951
 20
1347.815424
 30
0.0
 11
2190.187951
 21
1348.815424
 31
0.0
  0
LINE
  5
7712
100
AcDbEntity
  8
0
100
AcDbLine
 10
2201.437951
 20
1348.815424
 30
0.0
 11
2201.437951
 21
1347.815424
 31
0.0
  0
LINE
  5
7713
100
AcDbEntity
  8
0
100
AcDbLine
 10
2201.432922
 20
1348.815424
 30
0.0
 11
2201.432922
 21
1361.315424
 31
0.0
  0
LINE
  5
7714
100
AcDbEntity
  8
0
100
AcDbLine
 10
2373.022852
 20
1279.815424
 30
0.0
 11
2373.022852
 21
1301.01064
 31
0.0
  0
LINE
  5
7715
100
AcDbEntity
  8
0
100
AcDbLine
 10
2425.698444
 20
1313.814552
 30
0.0
 11
2418.373767
 21
1264.223269
 31
0.0
  0
LINE
  5
7716
100
AcDbEntity
  8
0
100
AcDbLine
 10
2384.357318
 20
1313.814552
 30
0.0
 11
2391.681995
 21
1264.223269
 31
0.0
  0
LINE
  5
7717
100
AcDbEntity
  8
0
100
AcDbLine
 10
2437.03291
 20
1279.815424
 30
0.0
 11
2437.03291
 21
1301.01064
 31
0.0
  0
ARC
  5
7718
100
AcDbEntity
  8
0
100
AcDbCircle
 10
2405.027881
 20
1279.776699
 30
0.0
 40
32.0
100
AcDbArc
 50
179.930663
 51
0.069337
  0
LINE
  5
7719
100
AcDbEntity
  8
0
100
AcDbLine
 10
2293.043388
 20
1283.000116
 30
0.0
 11
2295.601875
 21
1297.510016
 31
0.0
  0
LINE
  5
771A
100
AcDbEntity
  8
0
100
AcDbLine
 10
2274.187951
 20
1279.815424
 30
0.0
 11
2274.187951
 21
1336.815424
 31
0.0
  0
LINE
  5
771B
100
AcDbEntity
  8
0
100
AcDbLine
 10
2299.306984
 20
1264.510425
 30
0.0
 11
2296.478557
 21
1258.095696
 31
0.0
  0
LINE
  5
771C
100
AcDbEntity
  8
0
100
AcDbLine
 10
2302.412813
 20
1276.101535
 30
0.0
 11
2296.201156
 21
1252.919315
 31
0.0
  0
LINE
  5
771D
100
AcDbEntity
  8
0
100
AcDbLine
 10
2289.051446
 20
1253.282159
 30
0.0
 11
2296.039561
 21
1279.362157
 31
0.0
  0
LINE
  5
771E
100
AcDbEntity
  8
0
100
AcDbLine
 10
2292.545503
 20
1266.322158
 30
0.0
 11
2291.787629
 21
1259.352626
 31
0.0
  0
LINE
  5
771F
100
AcDbEntity
  8
0
100
AcDbLine
 10
2269.644997
 20
1258.482102
 30
0.0
 11
2289.051446
 21
1253.282159
 31
0.0
  0
ARC
  5
7720
100
AcDbEntity
  8
0
100
AcDbCircle
 10
2268.350902
 20
1253.652473
 30
0.0
 40
5.0
100
AcDbArc
 50
75.0
 51
135.0
  0
LINE
  5
7721
100
AcDbEntity
  8
0
100
AcDbLine
 10
2289.439675
 20
1254.731048
 30
0.0
 11
2289.994478
 21
1252.660496
 31
0.0
  0
LINE
  5
7722
100
AcDbEntity
  8
0
100
AcDbLine
 10
2294.685406
 20
1251.403565
 30
0.0
 11
2289.994478
 21
1252.660496
 31
0.0
  0
LINE
  5
7723
100
AcDbEntity
  8
0
100
AcDbLine
 10
2296.201156
 20
1252.919315
 30
0.0
 11
2294.685406
 21
1251.403565
 31
0.0
  0
LINE
  5
7724
100
AcDbEntity
  8
0
100
AcDbLine
 10
2296.478557
 20
1258.095696
 30
0.0
 11
2291.787629
 21
1259.352626
 31
0.0
  0
LINE
  5
7725
100
AcDbEntity
  8
0
100
AcDbLine
 10
2291.787629
 20
1259.352626
 30
0.0
 11
2289.869328
 21
1256.334535
 31
0.0
  0
LINE
  5
7726
100
AcDbEntity
  8
0
100
AcDbLine
 10
2296.478557
 20
1258.095696
 30
0.0
 11
2296.603707
 21
1254.421656
 31
0.0
  0
LINE
  5
7727
100
AcDbEntity
  8
0
100
AcDbLine
 10
2301.85801
 20
1278.172087
 30
0.0
 11
2297.167081
 21
1279.429018
 31
0.0
  0
LINE
  5
7728
100
AcDbEntity
  8
0
100
AcDbLine
 10
2295.651332
 20
1277.913268
 30
0.0
 11
2297.167081
 21
1279.429018
 31
0.0
  0
LINE
  5
7729
100
AcDbEntity
  8
0
100
AcDbLine
 10
2302.412813
 20
1276.101535
 30
0.0
 11
2301.85801
 21
1278.172087
 31
0.0
  0
LINE
  5
772A
100
AcDbEntity
  8
0
100
AcDbLine
 10
2301.98316
 20
1274.498047
 30
0.0
 11
2300.064859
 21
1271.479957
 31
0.0
  0
LINE
  5
772B
100
AcDbEntity
  8
0
100
AcDbLine
 10
2295.221679
 20
1276.309781
 30
0.0
 11
2295.373931
 21
1272.736887
 31
0.0
  0
LINE
  5
772C
100
AcDbEntity
  8
0
100
AcDbLine
 10
2295.373931
 20
1272.736887
 30
0.0
 11
2292.545503
 21
1266.322158
 31
0.0
  0
LINE
  5
772D
100
AcDbEntity
  8
0
100
AcDbLine
 10
2300.064859
 20
1271.479957
 30
0.0
 11
2295.373931
 21
1272.736887
 31
0.0
  0
LINE
  5
772E
100
AcDbEntity
  8
0
100
AcDbLine
 10
2300.064859
 20
1271.479957
 30
0.0
 11
2299.306984
 21
1264.510425
 31
0.0
  0
ARC
  5
772F
100
AcDbEntity
  8
0
100
AcDbCircle
 10
2296.15568
 20
1282.510574
 30
0.0
 40
3.150558
100
AcDbArc
 50
171.061004
 51
267.887775
  0
LINE
  5
7730
100
AcDbEntity
  8
0
100
AcDbLine
 10
2417.027881
 20
1271.479957
 30
0.0
 11
2417.027881
 21
1258.095696
 31
0.0
  0
LINE
  5
7731
100
AcDbEntity
  8
0
100
AcDbLine
 10
2393.027881
 20
1271.479957
 30
0.0
 11
2393.027881
 21
1258.095696
 31
0.0
  0
ELLIPSE
  5
7732
100
AcDbEntity
  8
0
100
AcDbEllipse
 10
2405.027881
 20
1266.322158
 30
0.0
 11
0.0
 21
13.93038875380669
 31
0.0
210
0.0
220
0.0
230
1.0
 40
0.969104
 41
4.236506730724272
 42
8.329863883634899
  0
ELLIPSE
  5
7733
100
AcDbEntity
  8
0
100
AcDbEllipse
 10
2405.027881
 20
1264.821092
 30
0.0
 11
-12.0
 21
0.0
 31
0.0
210
0.0
220
0.0
230
1.0
 40
0.965926
 41
0.0
 42
6.283185307179586
  0
LINE
  5
7734
100
AcDbEntity
  8
0
100
AcDbLine
 10
2405.027881
 20
1253.198733
 30
0.0
 11
2405.027881
 21
1253.198733
 31
0.0
  0
ELLIPSE
  5
7735
100
AcDbEntity
  8
0
100
AcDbEllipse
 10
2405.027881
 20
1266.322158
 30
0.0
 11
0.0
 21
13.93038875380669
 31
0.0
210
0.0
220
0.0
230
1.0
 40
0.969104
 41
3.295259037080921
 42
3.978885935016277
  0
ELLIPSE
  5
7736
100
AcDbEntity
  8
0
100
AcDbEllipse
 10
2405.027881
 20
1266.322158
 30
0.0
 11
0.0
 21
13.93038875380669
 31
0.0
210
0.0
220
0.0
230
1.0
 40
0.969104
 41
8.587484679343077
 42
9.271111577278432
  0
LINE
  5
7737
100
AcDbEntity
  8
0
100
AcDbLine
 10
2405.027881
 20
1251.403565
 30
0.0
 11
2393.027881
 21
1258.095696
 31
0.0
  0
LINE
  5
7738
100
AcDbEntity
  8
0
100
AcDbLine
 10
2405.027881
 20
1251.403565
 30
0.0
 11
2417.027881
 21
1258.095696
 31
0.0
  0
LINE
  5
7739
100
AcDbEntity
  8
0
100
AcDbLine
 10
2405.027881
 20
1279.429018
 30
0.0
 11
2405.027881
 21
1278.172087
 31
0.0
  0
ELLIPSE
  5
773A
100
AcDbEntity
  8
0
100
AcDbEllipse
 10
2405.027881
 20
1267.277991
 30
0.0
 11
-15.93
 21
0.0
 31
0.0
210
0.0
220
0.0
230
1.0
 40
0.965963
 41
3.54043013074234
 42
5.884347830027337
  0
LINE
  5
773B
100
AcDbEntity
  8
0
100
AcDbLine
 10
2405.027881
 20
1279.429018
 30
0.0
 11
2417.027881
 21
1272.736887
 31
0.0
  0
LINE
  5
773C
100
AcDbEntity
  8
0
100
AcDbLine
 10
2405.027881
 20
1279.429018
 30
0.0
 11
2393.027881
 21
1272.736887
 31
0.0
  0
LINE
  5
773D
100
AcDbEntity
  8
0
100
AcDbLine
 10
2417.027881
 20
1272.736887
 30
0.0
 11
2417.027881
 21
1271.479957
 31
0.0
  0
LINE
  5
773E
100
AcDbEntity
  8
0
100
AcDbLine
 10
2393.027881
 20
1272.736887
 30
0.0
 11
2393.027881
 21
1271.479957
 31
0.0
  0
LINE
  5
773F
100
AcDbEntity
  8
0
100
AcDbLine
 10
2405.027881
 20
1278.172087
 30
0.0
 11
2393.027881
 21
1271.479957
 31
0.0
  0
LINE
  5
7740
100
AcDbEntity
  8
0
100
AcDbLine
 10
2405.027881
 20
1278.172087
 30
0.0
 11
2417.027881
 21
1271.479957
 31
0.0
  0
ARC
  5
7741
100
AcDbEntity
  8
0
100
AcDbCircle
 10
2384.315566
 20
1332.815424
 30
0.0
 40
1.0
100
AcDbArc
 50
270.0
 51
334.228538
  0
ARC
  5
7742
100
AcDbEntity
  8
0
100
AcDbCircle
 10
2384.315566
 20
1312.815424
 30
0.0
 40
1.0
100
AcDbArc
 50
25.771462
 51
90.0
  0
ARC
  5
7743
100
AcDbEntity
  8
0
100
AcDbCircle
 10
2382.233905
 20
1300.815424
 30
0.0
 40
4.0
100
AcDbArc
 50
8.401892
 51
90.0
  0
CIRCLE
  5
7744
100
AcDbEntity
  8
0
100
AcDbCircle
 10
2405.027881
 20
1322.815424
 30
0.0
 40
22.0
  0
LINE
  5
7745
100
AcDbEntity
  8
0
100
AcDbLine
 10
2365.027881
 20
1361.315424
 30
0.0
 11
2445.027881
 21
1361.315424
 31
0.0
  0
LINE
  5
7746
100
AcDbEntity
  8
0
100
AcDbLine
 10
2365.027881
 20
1348.815424
 30
0.0
 11
2445.027881
 21
1348.815424
 31
0.0
  0
ARC
  5
7747
100
AcDbEntity
  8
0
100
AcDbCircle
 10
2363.027881
 20
1330.815424
 30
0.0
 40
3.0
100
AcDbArc
 50
270.0
 51
360.0
  0
LINE
  5
7748
100
AcDbEntity
  8
0
100
AcDbLine
 10
2383.027881
 20
1314.815424
 30
0.0
 11
2383.027881
 21
1333.815424
 31
0.0
  0
ARC
  5
7749
100
AcDbEntity
  8
0
100
AcDbCircle
 10
2290.687951
 20
1330.315424
 30
0.0
 40
1.5
100
AcDbArc
 50
90.0
 51
180.0
  0
ARC
  5
774A
100
AcDbEntity
  8
0
100
AcDbCircle
 10
2302.687951
 20
1330.315424
 30
0.0
 40
1.5
100
AcDbArc
 50
360.0
 51
90.0
  0
LINE
  5
774B
100
AcDbEntity
  8
0
100
AcDbLine
 10
2307.187951
 20
1344.815424
 30
0.0
 11
2307.187951
 21
1322.815424
 31
0.0
  0
LINE
  5
774C
100
AcDbEntity
  8
0
100
AcDbLine
 10
2307.187951
 20
1322.815424
 30
0.0
 11
2307.187951
 21
1300.815424
 31
0.0
  0
CIRCLE
  5
774D
100
AcDbEntity
  8
0
100
AcDbCircle
 10
2242.187951
 20
1317.315424
 30
0.0
 40
10.5
  0
LINE
  5
774E
100
AcDbEntity
  8
0
100
AcDbLine
 10
2299.541106
 20
1300.815424
 30
0.0
 11
2307.187951
 21
1300.815424
 31
0.0
  0
ARC
  5
774F
100
AcDbEntity
  8
0
100
AcDbCircle
 10
2299.541106
 20
1296.815424
 30
0.0
 40
4.0
100
AcDbArc
 50
90.0
 51
170.0
  0
LINE
  5
7750
100
AcDbEntity
  8
0
100
AcDbLine
 10
2289.187951
 20
1330.315424
 30
0.0
 11
2289.187951
 21
1315.315424
 31
0.0
  0
ARC
  5
7751
100
AcDbEntity
  8
0
100
AcDbCircle
 10
2290.687951
 20
1315.315424
 30
0.0
 40
1.5
100
AcDbArc
 50
180.0
 51
270.0
  0
LINE
  5
7752
100
AcDbEntity
  8
0
100
AcDbLine
 10
2290.687951
 20
1313.815424
 30
0.0
 11
2302.687951
 21
1313.815424
 31
0.0
  0
ARC
  5
7753
100
AcDbEntity
  8
0
100
AcDbCircle
 10
2302.687951
 20
1315.315424
 30
0.0
 40
1.5
100
AcDbArc
 50
270.0
 51
360.0
  0
LINE
  5
7754
100
AcDbEntity
  8
0
100
AcDbLine
 10
2304.187951
 20
1330.315424
 30
0.0
 11
2304.187951
 21
1315.315424
 31
0.0
  0
ARC
  5
7755
100
AcDbEntity
  8
0
100
AcDbCircle
 10
2350.221922
 20
1317.315424
 30
0.0
 40
15.799704
100
AcDbArc
 50
328.149276
 51
31.850724
  0
LINE
  5
7756
100
AcDbEntity
  8
0
100
AcDbLine
 10
2359.027881
 20
1326.815424
 30
0.0
 11
2359.027881
 21
1307.815424
 31
0.0
  0
ARC
  5
7757
100
AcDbEntity
  8
0
100
AcDbCircle
 10
2369.027881
 20
1300.810127
 30
0.0
 40
4.0
100
AcDbArc
 50
0.0
 51
82.819244
  0
ARC
  5
7758
100
AcDbEntity
  8
0
100
AcDbCircle
 10
2363.027881
 20
1304.815424
 30
0.0
 40
2.0
100
AcDbArc
 50
30.0
 51
90.0
  0
ARC
  5
7759
100
AcDbEntity
  8
0
100
AcDbCircle
 10
2360.027881
 20
1307.815424
 30
0.0
 40
1.0
100
AcDbArc
 50
180.0
 51
270.0
  0
LINE
  5
775A
100
AcDbEntity
  8
0
100
AcDbLine
 10
2360.027881
 20
1306.815424
 30
0.0
 11
2363.027881
 21
1306.815424
 31
0.0
  0
ARC
  5
775B
100
AcDbEntity
  8
0
100
AcDbCircle
 10
2366.491983
 20
1306.815424
 30
0.0
 40
2.0
100
AcDbArc
 50
210.0
 51
270.0
  0
LINE
  5
775C
100
AcDbEntity
  8
0
100
AcDbLine
 10
2366.491983
 20
1304.815424
 30
0.0
 11
2382.233905
 21
1304.815424
 31
0.0
  0
ARC
  5
775D
100
AcDbEntity
  8
0
100
AcDbCircle
 10
2360.027881
 20
1326.815424
 30
0.0
 40
1.0
100
AcDbArc
 50
90.0
 51
180.0
  0
LINE
  5
775E
100
AcDbEntity
  8
0
100
AcDbLine
 10
2360.027881
 20
1327.815424
 30
0.0
 11
2363.027881
 21
1327.815424
 31
0.0
  0
ARC
  5
775F
100
AcDbEntity
  8
0
100
AcDbCircle
 10
2384.027881
 20
1314.815424
 30
0.0
 40
1.0
100
AcDbArc
 50
180.0
 51
270.0
  0
LINE
  5
7760
100
AcDbEntity
  8
0
100
AcDbLine
 10
2384.027881
 20
1313.815424
 30
0.0
 11
2384.315566
 21
1313.815424
 31
0.0
  0
LINE
  5
7761
100
AcDbEntity
  8
0
100
AcDbLine
 10
2285.182922
 20
1336.815424
 30
0.0
 11
2285.182922
 21
1348.815424
 31
0.0
  0
ARC
  5
7762
100
AcDbEntity
  8
0
100
AcDbCircle
 10
2288.182922
 20
1347.815424
 30
0.0
 40
3.0
100
AcDbArc
 50
180.0
 51
270.0
  0
LINE
  5
7763
100
AcDbEntity
  8
0
100
AcDbLine
 10
2288.182922
 20
1344.815424
 30
0.0
 11
2307.187951
 21
1344.815424
 31
0.0
  0
LINE
  5
7764
100
AcDbEntity
  8
0
100
AcDbLine
 10
2290.687951
 20
1331.815424
 30
0.0
 11
2302.687951
 21
1331.815424
 31
0.0
  0
LINE
  5
7765
100
AcDbEntity
  8
0
100
AcDbLine
 10
2285.182922
 20
1348.815424
 30
0.0
 11
2285.182922
 21
1361.315424
 31
0.0
  0
LINE
  5
7766
100
AcDbEntity
  8
0
100
AcDbLine
 10
2365.027881
 20
1348.815424
 30
0.0
 11
2365.027881
 21
1338.315424
 31
0.0
  0
LINE
  5
7767
100
AcDbEntity
  8
0
100
AcDbLine
 10
2365.027881
 20
1338.315424
 30
0.0
 11
2365.027881
 21
1361.315424
 31
0.0
  0
ARC
  5
7768
100
AcDbEntity
  8
0
100
AcDbCircle
 10
2380.027881
 20
1333.815424
 30
0.0
 40
3.0
100
AcDbArc
 50
0.0
 51
90.0
  0
ARC
  5
7769
100
AcDbEntity
  8
0
100
AcDbCircle
 10
2384.027881
 20
1330.815424
 30
0.0
 40
1.0
100
AcDbArc
 50
90.0
 51
180.0
  0
LINE
  5
776A
100
AcDbEntity
  8
0
100
AcDbLine
 10
2384.027881
 20
1331.815424
 30
0.0
 11
2384.315566
 21
1331.815424
 31
0.0
  0
ARC
  5
776B
100
AcDbEntity
  8
0
100
AcDbCircle
 10
2365.027881
 20
1336.315424
 30
0.0
 40
1.0
100
AcDbArc
 50
360.0
 51
53.130102
  0
LINE
  5
776C
100
AcDbEntity
  8
0
100
AcDbLine
 10
2366.027881
 20
1336.315424
 30
0.0
 11
2366.027881
 21
1330.815424
 31
0.0
  0
ARC
  5
776D
100
AcDbEntity
  8
0
100
AcDbCircle
 10
2366.527881
 20
1338.315424
 30
0.0
 40
1.5
100
AcDbArc
 50
180.0
 51
270.0
  0
LINE
  5
776E
100
AcDbEntity
  8
0
100
AcDbLine
 10
2366.527881
 20
1336.815424
 30
0.0
 11
2380.027881
 21
1336.815424
 31
0.0
  0
LINE
  5
776F
100
AcDbEntity
  8
0
100
AcDbLine
 10
2427.027881
 20
1314.815424
 30
0.0
 11
2427.027881
 21
1333.815424
 31
0.0
  0
LINE
  5
7770
100
AcDbEntity
  8
0
100
AcDbLine
 10
2444.027881
 20
1336.315424
 30
0.0
 11
2444.027881
 21
1308.747381
 31
0.0
  0
ARC
  5
7771
100
AcDbEntity
  8
0
100
AcDbCircle
 10
2427.821857
 20
1300.815424
 30
0.0
 40
4.0
100
AcDbArc
 50
90.0
 51
171.598108
  0
LINE
  5
7772
100
AcDbEntity
  8
0
100
AcDbLine
 10
2440.76253
 20
1304.815424
 30
0.0
 11
2427.821857
 21
1304.815424
 31
0.0
  0
ARC
  5
7773
100
AcDbEntity
  8
0
100
AcDbCircle
 10
2441.027881
 20
1300.810127
 30
0.0
 40
4.0
100
AcDbArc
 50
97.180756
 51
180.0
  0
ARC
  5
7774
100
AcDbEntity
  8
0
100
AcDbCircle
 10
2440.027881
 20
1308.747381
 30
0.0
 40
4.0
100
AcDbArc
 50
277.180756
 51
0.0
  0
ARC
  5
7775
100
AcDbEntity
  8
0
100
AcDbCircle
 10
2426.027881
 20
1314.815424
 30
0.0
 40
1.0
100
AcDbArc
 50
270.0
 51
360.0
  0
LINE
  5
7776
100
AcDbEntity
  8
0
100
AcDbLine
 10
2426.027881
 20
1313.815424
 30
0.0
 11
2425.740196
 21
1313.815424
 31
0.0
  0
ARC
  5
7777
100
AcDbEntity
  8
0
100
AcDbCircle
 10
2425.740196
 20
1312.815424
 30
0.0
 40
1.0
100
AcDbArc
 50
90.0
 51
154.228538
  0
LINE
  5
7778
100
AcDbEntity
  8
0
100
AcDbLine
 10
2445.027881
 20
1348.815424
 30
0.0
 11
2445.027881
 21
1338.315424
 31
0.0
  0
LINE
  5
7779
100
AcDbEntity
  8
0
100
AcDbLine
 10
2445.027881
 20
1338.315424
 30
0.0
 11
2445.027881
 21
1361.315424
 31
0.0
  0
ARC
  5
777A
100
AcDbEntity
  8
0
100
AcDbCircle
 10
2443.527881
 20
1338.315424
 30
0.0
 40
1.5
100
AcDbArc
 50
306.869898
 51
0.0
  0
ARC
  5
777B
100
AcDbEntity
  8
0
100
AcDbCircle
 10
2430.027881
 20
1333.815424
 30
0.0
 40
3.0
100
AcDbArc
 50
90.0
 51
180.0
  0
ARC
  5
777C
100
AcDbEntity
  8
0
100
AcDbCircle
 10
2426.027881
 20
1330.815424
 30
0.0
 40
1.0
100
AcDbArc
 50
0.0
 51
90.0
  0
LINE
  5
777D
100
AcDbEntity
  8
0
100
AcDbLine
 10
2426.027881
 20
1331.815424
 30
0.0
 11
2425.740196
 21
1331.815424
 31
0.0
  0
ARC
  5
777E
100
AcDbEntity
  8
0
100
AcDbCircle
 10
2425.740196
 20
1332.815424
 30
0.0
 40
1.0
100
AcDbArc
 50
205.771462
 51
270.0
  0
ARC
  5
777F
100
AcDbEntity
  8
0
100
AcDbCircle
 10
2445.027881
 20
1336.315424
 30
0.0
 40
1.0
100
AcDbArc
 50
126.869898
 51
180.0
  0
LINE
  5
7780
100
AcDbEntity
  8
0
100
AcDbLine
 10
2444.161855
 20
1336.815424
 30
0.0
 11
2430.027881
 21
1336.815424
 31
0.0
  0
TEXT
  5
7781
100
AcDbEntity
  8
0
100
AcDbText
 10
342.995022
 20
1508.094594
 30
0.0
 40
35.0
  1
平面
100
AcDbText
  0
ARC
  5
7782
100
AcDbEntity
  8
0
100
AcDbCircle
 10
582.697497
 20
1533.672554
 30
0.0
 40
340.0
100
AcDbArc
 50
354.626054
 51
357.534056
  0
LINE
  5
7783
100
AcDbEntity
  8
0
100
AcDbLine
 10
905.059282
 20
1496.680263
 30
0.0
 11
902.519354
 21
1506.161151
 31
0.0
  0
LINE
  5
7784
100
AcDbEntity
  8
0
100
AcDbLine
 10
861.375639
 20
1506.161151
 30
0.0
 11
858.835711
 21
1496.680263
 31
0.0
  0
ARC
  5
7785
100
AcDbEntity
  8
0
100
AcDbCircle
 10
1181.197497
 20
1533.672554
 30
0.0
 40
340.0
100
AcDbArc
 50
174.626054
 51
185.373946
  0
LINE
  5
7786
100
AcDbEntity
  8
0
100
AcDbLine
 10
842.415278
 20
1501.079881
 30
0.0
 11
844.955205
 21
1510.560769
 31
0.0
  0
CIRCLE
  5
7787
100
AcDbEntity
  8
0
100
AcDbCircle
 10
851.895458
 20
1503.620516
 30
0.0
 40
8.24991
  0
LINE
  5
7788
100
AcDbEntity
  8
0
100
AcDbLine
 10
918.939788
 20
1510.560769
 30
0.0
 11
921.479715
 21
1501.079881
 31
0.0
  0
CIRCLE
  5
7789
100
AcDbEntity
  8
0
100
AcDbCircle
 10
911.999535
 20
1503.620516
 30
0.0
 40
8.24991
  0
LINE
  5
778A
100
AcDbEntity
  8
0
100
AcDbLine
 10
669.650011
 20
1367.815424
 30
0.0
 11
669.650011
 21
1380.815424
 31
0.0
  0
LINE
  5
778B
100
AcDbEntity
  8
0
100
AcDbLine
 10
659.114411
 20
1367.815424
 30
0.0
 11
659.114411
 21
1380.815424
 31
0.0
  0
LINE
  5
778C
100
AcDbEntity
  8
0
100
AcDbLine
 10
674.38724
 20
1367.815424
 30
0.0
 11
654.38724
 21
1367.815424
 31
0.0
  0
LINE
  5
778D
100
AcDbEntity
  8
0
100
AcDbLine
 10
674.38724
 20
1380.815424
 30
0.0
 11
654.38724
 21
1380.815424
 31
0.0
  0
LINE
  5
778E
100
AcDbEntity
  8
0
100
AcDbLine
 10
890.442468
 20
1367.815424
 30
0.0
 11
890.442468
 21
1380.815424
 31
0.0
  0
LINE
  5
778F
100
AcDbEntity
  8
0
100
AcDbLine
 10
873.442468
 20
1367.815424
 30
0.0
 11
873.442468
 21
1380.815424
 31
0.0
  0
LINE
  5
7790
100
AcDbEntity
  8
0
100
AcDbLine
 10
871.942468
 20
1367.815424
 30
0.0
 11
891.942468
 21
1367.815424
 31
0.0
  0
LINE
  5
7791
100
AcDbEntity
  8
0
100
AcDbLine
 10
873.442468
 20
1380.815424
 30
0.0
 11
890.442468
 21
1380.815424
 31
0.0
  0
LINE
  5
7792
100
AcDbEntity
  8
0
100
AcDbLine
 10
1054.447782
 20
1380.815424
 30
0.0
 11
1074.447782
 21
1380.815424
 31
0.0
  0
LINE
  5
7793
100
AcDbEntity
  8
0
100
AcDbLine
 10
1054.447782
 20
1367.815424
 30
0.0
 11
1074.447782
 21
1367.815424
 31
0.0
  0
LINE
  5
7794
100
AcDbEntity
  8
0
100
AcDbLine
 10
1059.185011
 20
1367.815424
 30
0.0
 11
1059.185011
 21
1380.815424
 31
0.0
  0
LINE
  5
7795
100
AcDbEntity
  8
0
100
AcDbLine
 10
1069.720611
 20
1367.815424
 30
0.0
 11
1069.720611
 21
1380.815424
 31
0.0
  0
LINE
  5
7796
100
AcDbEntity
  8
0
100
AcDbLine
 10
851.652356
 20
1493.672554
 30
0.0
 11
912.242638
 21
1493.672554
 31
0.0
  0
LINE
  5
7797
100
AcDbEntity
  8
0
100
AcDbLine
 10
858.835711
 20
1496.680263
 30
0.0
 11
849.354824
 21
1494.140335
 31
0.0
  0
ARC
  5
7798
100
AcDbEntity
  8
0
100
AcDbCircle
 10
851.652356
 20
1502.672554
 30
0.0
 40
9.0
100
AcDbArc
 50
193.305938
 51
270.0
  0
LINE
  5
7799
100
AcDbEntity
  8
0
100
AcDbLine
 10
849.354824
 20
1494.140335
 30
0.0
 11
842.415278
 21
1501.079881
 31
0.0
  0
LINE
  5
779A
100
AcDbEntity
  8
0
100
AcDbLine
 10
914.540169
 20
1494.140335
 30
0.0
 11
905.059282
 21
1496.680263
 31
0.0
  0
LINE
  5
779B
100
AcDbEntity
  8
0
100
AcDbLine
 10
871.452163
 20
1488.690554
 30
0.0
 11
892.44283
 21
1488.690554
 31
0.0
  0
LINE
  5
779C
100
AcDbEntity
  8
0
100
AcDbLine
 10
871.452163
 20
1493.672688
 30
0.0
 11
871.452163
 21
1488.690554
 31
0.0
  0
LINE
  5
779D
100
AcDbEntity
  8
0
100
AcDbLine
 10
892.44283
 20
1488.690554
 30
0.0
 11
892.44283
 21
1493.672688
 31
0.0
  0
ARC
  5
779E
100
AcDbEntity
  8
0
100
AcDbCircle
 10
912.242638
 20
1502.672554
 30
0.0
 40
9.0
100
AcDbArc
 50
270.0
 51
346.694062
  0
LINE
  5
779F
100
AcDbEntity
  8
0
100
AcDbLine
 10
921.479715
 20
1501.079881
 30
0.0
 11
914.540169
 21
1494.140335
 31
0.0
  0
LINE
  5
77A0
100
AcDbEntity
  8
0
100
AcDbLine
 10
905.059282
 20
1570.664845
 30
0.0
 11
914.540169
 21
1573.204773
 31
0.0
  0
ARC
  5
77A1
100
AcDbEntity
  8
0
100
AcDbCircle
 10
912.242638
 20
1564.672554
 30
0.0
 40
9.0
100
AcDbArc
 50
13.305938
 51
90.0
  0
LINE
  5
77A2
100
AcDbEntity
  8
0
100
AcDbLine
 10
914.540169
 20
1573.204773
 30
0.0
 11
921.479715
 21
1566.265227
 31
0.0
  0
LINE
  5
77A3
100
AcDbEntity
  8
0
100
AcDbLine
 10
849.354824
 20
1573.204773
 30
0.0
 11
858.835711
 21
1570.664845
 31
0.0
  0
ARC
  5
77A4
100
AcDbEntity
  8
0
100
AcDbCircle
 10
851.652356
 20
1564.672554
 30
0.0
 40
9.0
100
AcDbArc
 50
90.0
 51
166.694062
  0
LINE
  5
77A5
100
AcDbEntity
  8
0
100
AcDbLine
 10
842.415278
 20
1566.265227
 30
0.0
 11
849.354824
 21
1573.204773
 31
0.0
  0
LINE
  5
77A6
100
AcDbEntity
  8
0
100
AcDbLine
 10
946.942468
 20
1548.672554
 30
0.0
 11
922.366453
 21
1548.672554
 31
0.0
  0
LINE
  5
77A7
100
AcDbEntity
  8
0
100
AcDbLine
 10
946.942468
 20
1518.672554
 30
0.0
 11
922.366453
 21
1518.672554
 31
0.0
  0
ARC
  5
77A8
100
AcDbEntity
  8
0
100
AcDbCircle
 10
881.947497
 20
1533.672554
 30
0.0
 40
43.0
100
AcDbArc
 50
340.110811
 51
19.889189
  0
CIRCLE
  5
77A9
100
AcDbEntity
  8
0
100
AcDbCircle
 10
881.947497
 20
1533.672554
 30
0.0
 40
7.5
  0
LINE
  5
77AA
100
AcDbEntity
  8
0
100
AcDbLine
 10
873.447497
 20
1538.940381
 30
0.0
 11
873.447497
 21
1528.404727
 31
0.0
  0
LINE
  5
77AB
100
AcDbEntity
  8
0
100
AcDbLine
 10
890.447497
 20
1538.940381
 30
0.0
 11
890.447497
 21
1528.404727
 31
0.0
  0
CIRCLE
  5
77AC
100
AcDbEntity
  8
0
100
AcDbCircle
 10
881.947497
 20
1533.672554
 30
0.0
 40
10.0
  0
ARC
  5
77AD
100
AcDbEntity
  8
0
100
AcDbCircle
 10
835.948163
 20
1533.672554
 30
0.0
 40
5.999933
100
AcDbArc
 50
90.0
 51
270.0
  0
LINE
  5
77AE
100
AcDbEntity
  8
0
100
AcDbLine
 10
826.942468
 20
1533.672554
 30
0.0
 11
826.942468
 21
1548.672554
 31
0.0
  0
CIRCLE
  5
77AF
100
AcDbEntity
  8
0
100
AcDbCircle
 10
881.947497
 20
1533.672554
 30
0.0
 40
28.0
  0
LINE
  5
77B0
100
AcDbEntity
  8
0
100
AcDbLine
 10
826.942468
 20
1518.672554
 30
0.0
 11
826.942468
 21
1533.672554
 31
0.0
  0
LINE
  5
77B1
100
AcDbEntity
  8
0
100
AcDbLine
 10
826.942468
 20
1518.672554
 30
0.0
 11
841.52854
 21
1518.672554
 31
0.0
  0
LINE
  5
77B2
100
AcDbEntity
  8
0
100
AcDbLine
 10
844.955205
 20
1510.560769
 30
0.0
 11
854.436093
 21
1513.100697
 31
0.0
  0
LINE
  5
77B3
100
AcDbEntity
  8
0
100
AcDbLine
 10
840.567011
 20
1520.406055
 30
0.0
 11
830.932642
 21
1520.406055
 31
0.0
  0
LINE
  5
77B4
100
AcDbEntity
  8
0
100
AcDbLine
 10
829.969497
 20
1518.672554
 30
0.0
 11
829.969497
 21
1520.406055
 31
0.0
  0
LINE
  5
77B5
100
AcDbEntity
  8
0
100
AcDbLine
 10
841.530157
 20
1518.672554
 30
0.0
 11
841.530157
 21
1520.406055
 31
0.0
  0
LINE
  5
77B6
100
AcDbEntity
  8
0
100
AcDbLine
 10
854.436093
 20
1513.100697
 30
0.0
 11
861.375639
 21
1506.161151
 31
0.0
  0
LINE
  5
77B7
100
AcDbEntity
  8
0
100
AcDbLine
 10
835.948163
 20
1527.672621
 30
0.0
 11
841.250441
 21
1527.672621
 31
0.0
  0
LINE
  5
77B8
100
AcDbEntity
  8
0
100
AcDbLine
 10
902.519354
 20
1506.161151
 30
0.0
 11
909.4589
 21
1513.100697
 31
0.0
  0
LINE
  5
77B9
100
AcDbEntity
  8
0
100
AcDbLine
 10
942.539982
 20
1520.406055
 30
0.0
 11
932.905614
 21
1520.406055
 31
0.0
  0
LINE
  5
77BA
100
AcDbEntity
  8
0
100
AcDbLine
 10
931.942468
 20
1518.672554
 30
0.0
 11
931.942468
 21
1520.406055
 31
0.0
  0
LINE
  5
77BB
100
AcDbEntity
  8
0
100
AcDbLine
 10
943.503128
 20
1518.672554
 30
0.0
 11
943.503128
 21
1520.406055
 31
0.0
  0
LINE
  5
77BC
100
AcDbEntity
  8
0
100
AcDbLine
 10
909.4589
 20
1513.100697
 30
0.0
 11
918.939788
 21
1510.560769
 31
0.0
  0
ARC
  5
77BD
100
AcDbEntity
  8
0
100
AcDbCircle
 10
913.060195
 20
1522.672554
 30
0.0
 40
5.0
100
AcDbArc
 50
90.0
 51
160.528779
  0
LINE
  5
77BE
100
AcDbEntity
  8
0
100
AcDbLine
 10
913.060195
 20
1527.672554
 30
0.0
 11
924.526834
 21
1527.672554
 31
0.0
  0
LINE
  5
77BF
100
AcDbEntity
  8
0
100
AcDbLine
 10
861.375639
 20
1561.183958
 30
0.0
 11
854.436093
 21
1554.244412
 31
0.0
  0
LINE
  5
77C0
100
AcDbEntity
  8
0
100
AcDbLine
 10
854.436093
 20
1554.244412
 30
0.0
 11
844.955205
 21
1556.784339
 31
0.0
  0
CIRCLE
  5
77C1
100
AcDbEntity
  8
0
100
AcDbCircle
 10
851.895458
 20
1563.724592
 30
0.0
 40
8.24991
  0
LINE
  5
77C2
100
AcDbEntity
  8
0
100
AcDbLine
 10
826.942468
 20
1548.672554
 30
0.0
 11
841.452525
 21
1548.672554
 31
0.0
  0
LINE
  5
77C3
100
AcDbEntity
  8
0
100
AcDbLine
 10
840.567011
 20
1546.939053
 30
0.0
 11
830.932642
 21
1546.939053
 31
0.0
  0
LINE
  5
77C4
100
AcDbEntity
  8
0
100
AcDbLine
 10
829.969497
 20
1548.672554
 30
0.0
 11
829.969497
 21
1546.939053
 31
0.0
  0
LINE
  5
77C5
100
AcDbEntity
  8
0
100
AcDbLine
 10
841.530157
 20
1548.672554
 30
0.0
 11
841.530157
 21
1546.939053
 31
0.0
  0
LINE
  5
77C6
100
AcDbEntity
  8
0
100
AcDbLine
 10
841.250441
 20
1539.672488
 30
0.0
 11
835.948163
 21
1539.672488
 31
0.0
  0
LINE
  5
77C7
100
AcDbEntity
  8
0
100
AcDbLine
 10
844.955205
 20
1556.784339
 30
0.0
 11
842.415278
 21
1566.265227
 31
0.0
  0
LINE
  5
77C8
100
AcDbEntity
  8
0
100
AcDbLine
 10
858.835711
 20
1570.664845
 30
0.0
 11
861.375639
 21
1561.183958
 31
0.0
  0
ARC
  5
77C9
100
AcDbEntity
  8
0
100
AcDbCircle
 10
582.697497
 20
1533.672554
 30
0.0
 40
340.0
100
AcDbArc
 50
2.465944
 51
5.373946
  0
LINE
  5
77CA
100
AcDbEntity
  8
0
100
AcDbLine
 10
909.4589
 20
1554.244412
 30
0.0
 11
902.519354
 21
1561.183958
 31
0.0
  0
CIRCLE
  5
77CB
100
AcDbEntity
  8
0
100
AcDbCircle
 10
911.999535
 20
1563.724592
 30
0.0
 40
8.24991
  0
LINE
  5
77CC
100
AcDbEntity
  8
0
100
AcDbLine
 10
918.939788
 20
1556.784339
 30
0.0
 11
909.4589
 21
1554.244412
 31
0.0
  0
LINE
  5
77CD
100
AcDbEntity
  8
0
100
AcDbLine
 10
942.539982
 20
1546.939053
 30
0.0
 11
932.905614
 21
1546.939053
 31
0.0
  0
LINE
  5
77CE
100
AcDbEntity
  8
0
100
AcDbLine
 10
931.942468
 20
1548.672554
 30
0.0
 11
931.942468
 21
1546.939053
 31
0.0
  0
LINE
  5
77CF
100
AcDbEntity
  8
0
100
AcDbLine
 10
943.503128
 20
1548.672554
 30
0.0
 11
943.503128
 21
1546.939053
 31
0.0
  0
ARC
  5
77D0
100
AcDbEntity
  8
0
100
AcDbCircle
 10
913.060195
 20
1544.672554
 30
0.0
 40
5.0
100
AcDbArc
 50
199.471221
 51
270.0
  0
LINE
  5
77D1
100
AcDbEntity
  8
0
100
AcDbLine
 10
913.060195
 20
1539.672554
 30
0.0
 11
924.526834
 21
1539.672554
 31
0.0
  0
LINE
  5
77D2
100
AcDbEntity
  8
0
100
AcDbLine
 10
902.519354
 20
1561.183958
 30
0.0
 11
905.059282
 21
1570.664845
 31
0.0
  0
LINE
  5
77D3
100
AcDbEntity
  8
0
100
AcDbLine
 10
921.479715
 20
1566.265227
 30
0.0
 11
918.939788
 21
1556.784339
 31
0.0
  0
LINE
  5
77D4
100
AcDbEntity
  8
0
100
AcDbLine
 10
946.942468
 20
1533.672554
 30
0.0
 11
946.942468
 21
1548.672554
 31
0.0
  0
LINE
  5
77D5
100
AcDbEntity
  8
0
100
AcDbLine
 10
946.942468
 20
1518.672554
 30
0.0
 11
946.942468
 21
1533.672554
 31
0.0
  0
LINE
  5
77D6
100
AcDbEntity
  8
0
100
AcDbLine
 10
851.652356
 20
1573.672554
 30
0.0
 11
912.242638
 21
1573.672554
 31
0.0
  0
TEXT
  5
77D7
100
AcDbEntity
  8
0
100
AcDbText
 10
342.995022
 20
1729.875385
 30
0.0
 40
35.0
  1
背面
100
AcDbText
  0
LINE
  5
77D8
100
AcDbEntity
  8
0
100
AcDbLine
 10
856.977923
 20
1780.951191
 30
0.0
 11
856.977923
 21
1774.886309
 31
0.0
  0
LINE
  5
77D9
100
AcDbEntity
  8
0
100
AcDbLine
 10
852.070446
 20
1774.883444
 30
0.0
 11
852.070446
 21
1780.951191
 31
0.0
  0
LINE
  5
77DA
100
AcDbEntity
  8
0
100
AcDbLine
 10
866.792878
 20
1780.951191
 30
0.0
 11
866.792878
 21
1774.886309
 31
0.0
  0
LINE
  5
77DB
100
AcDbEntity
  8
0
100
AcDbLine
 10
871.700355
 20
1780.951191
 30
0.0
 11
871.700355
 21
1774.886309
 31
0.0
  0
LINE
  5
77DC
100
AcDbEntity
  8
0
100
AcDbLine
 10
881.942468
 20
1779.386309
 30
0.0
 11
881.942468
 21
1788.386309
 31
0.0
  0
LINE
  5
77DD
100
AcDbEntity
  8
0
100
AcDbLine
 10
912.174523
 20
1780.951191
 30
0.0
 11
912.174523
 21
1774.886309
 31
0.0
  0
LINE
  5
77DE
100
AcDbEntity
  8
0
100
AcDbLine
 10
917.082
 20
1780.951191
 30
0.0
 11
917.082
 21
1774.886309
 31
0.0
  0
LINE
  5
77DF
100
AcDbEntity
  8
0
100
AcDbLine
 10
931.804432
 20
1774.883444
 30
0.0
 11
931.804432
 21
1780.951191
 31
0.0
  0
LINE
  5
77E0
100
AcDbEntity
  8
0
100
AcDbLine
 10
926.896954
 20
1780.951191
 30
0.0
 11
926.896954
 21
1774.886309
 31
0.0
  0
LINE
  5
77E1
100
AcDbEntity
  8
0
100
AcDbLine
 10
901.942468
 20
1779.386309
 30
0.0
 11
901.942468
 21
1788.386309
 31
0.0
  0
LINE
  5
77E2
100
AcDbEntity
  8
0
100
AcDbLine
 10
841.082002
 20
1703.609727
 30
0.0
 11
837.296054
 21
1725.080902
 31
0.0
  0
LINE
  5
77E3
100
AcDbEntity
  8
0
100
AcDbLine
 10
923.937439
 20
1700.425034
 30
0.0
 11
923.937439
 21
1722.172994
 31
0.0
  0
LINE
  5
77E4
100
AcDbEntity
  8
0
100
AcDbLine
 10
859.937439
 20
1700.425034
 30
0.0
 11
859.937439
 21
1750.386309
 31
0.0
  0
ARC
  5
77E5
100
AcDbEntity
  8
0
100
AcDbCircle
 10
891.937439
 20
1700.425034
 30
0.0
 40
32.0
100
AcDbArc
 50
180.0
 51
340.098821
  0
LINE
  5
77E6
100
AcDbEntity
  8
0
100
AcDbLine
 10
837.646833
 20
1678.705306
 30
0.0
 11
837.521683
 21
1675.031266
 31
0.0
  0
LINE
  5
77E7
100
AcDbEntity
  8
0
100
AcDbLine
 10
864.480393
 20
1679.091712
 30
0.0
 11
845.073944
 21
1673.89177
 31
0.0
  0
LINE
  5
77EB
100
AcDbEntity
  8
0
100
AcDbLine
 10
924.937439
 20
1691.81658
 30
0.0
 11
924.937439
 21
1669.425034
 31
0.0
  0
LINE
  5
77EC
100
AcDbEntity
  8
0
100
AcDbLine
 10
831.712577
 20
1696.711145
 30
0.0
 11
837.924234
 21
1673.528925
 31
0.0
  0
LINE
  5
77ED
100
AcDbEntity
  8
0
100
AcDbLine
 10
845.073944
 20
1673.89177
 30
0.0
 11
838.085829
 21
1699.971767
 31
0.0
  0
LINE
  5
77EE
100
AcDbEntity
  8
0
100
AcDbLine
 10
839.439984
 20
1672.013176
 30
0.0
 11
844.130912
 21
1673.270106
 31
0.0
  0
LINE
  5
77EF
100
AcDbEntity
  8
0
100
AcDbLine
 10
844.685715
 20
1675.340658
 30
0.0
 11
844.130912
 21
1673.270106
 31
0.0
  0
LINE
  5
77F0
100
AcDbEntity
  8
0
100
AcDbLine
 10
837.924234
 20
1673.528925
 30
0.0
 11
839.439984
 21
1672.013176
 31
0.0
  0
LINE
  5
77F1
100
AcDbEntity
  8
0
100
AcDbLine
 10
924.937439
 20
1669.425034
 30
0.0
 11
899.874693
 21
1669.425034
 31
0.0
  0
ARC
  5
77F9
100
AcDbEntity
  8
0
100
AcDbCircle
 10
865.774488
 20
1674.262083
 30
0.0
 40
5.0
100
AcDbArc
 50
45.0
 51
105.0
  0
LINE
  5
77FA
100
AcDbEntity
  8
0
100
AcDbLine
 10
838.903711
 20
1696.919391
 30
0.0
 11
838.751459
 21
1693.346497
 31
0.0
  0
LINE
  5
77FB
100
AcDbEntity
  8
0
100
AcDbLine
 10
832.14223
 20
1695.107658
 30
0.0
 11
834.060531
 21
1692.089567
 31
0.0
  0
LINE
  5
77FC
100
AcDbEntity
  8
0
100
AcDbLine
 10
834.060531
 20
1692.089567
 30
0.0
 11
838.751459
 21
1693.346497
 31
0.0
  0
LINE
  5
77FD
100
AcDbEntity
  8
0
100
AcDbLine
 10
838.751459
 20
1693.346497
 30
0.0
 11
841.579886
 21
1686.931768
 31
0.0
  0
LINE
  5
77FE
100
AcDbEntity
  8
0
100
AcDbLine
 10
834.818406
 20
1685.120035
 30
0.0
 11
837.646833
 21
1678.705306
 31
0.0
  0
LINE
  5
77FF
100
AcDbEntity
  8
0
100
AcDbLine
 10
842.337761
 20
1679.962237
 30
0.0
 11
844.256062
 21
1676.944146
 31
0.0
  0
LINE
  5
7800
100
AcDbEntity
  8
0
100
AcDbLine
 10
837.646833
 20
1678.705306
 30
0.0
 11
842.337761
 21
1679.962237
 31
0.0
  0
LINE
  5
7801
100
AcDbEntity
  8
0
100
AcDbLine
 10
841.579886
 20
1686.931768
 30
0.0
 11
842.337761
 21
1679.962237
 31
0.0
  0
LINE
  5
7802
100
AcDbEntity
  8
0
100
AcDbLine
 10
834.060531
 20
1692.089567
 30
0.0
 11
834.818406
 21
1685.120035
 31
0.0
  0
LINE
  5
7803
100
AcDbEntity
  8
0
100
AcDbLine
 10
832.26738
 20
1698.781697
 30
0.0
 11
836.958308
 21
1700.038628
 31
0.0
  0
LINE
  5
7804
100
AcDbEntity
  8
0
100
AcDbLine
 10
838.474058
 20
1698.522878
 30
0.0
 11
836.958308
 21
1700.038628
 31
0.0
  0
LINE
  5
7805
100
AcDbEntity
  8
0
100
AcDbLine
 10
831.712577
 20
1696.711145
 30
0.0
 11
832.26738
 21
1698.781697
 31
0.0
  0
ARC
  5
7806
100
AcDbEntity
  8
0
100
AcDbCircle
 10
837.969709
 20
1703.120184
 30
0.0
 40
3.150558
100
AcDbArc
 50
272.112225
 51
8.938996
  0
ARC
  5
7807
100
AcDbEntity
  8
0
100
AcDbCircle
 10
926.419318
 20
1694.425034
 30
0.0
 40
3.0
100
AcDbArc
 50
170.12911
 51
240.39882
  0
ARC
  5
7811
100
AcDbEntity
  8
0
100
AcDbCircle
 10
891.937439
 20
1700.425034
 30
0.0
 40
32.0
100
AcDbArc
 50
350.12911
 51
0.0
  0
LINE
  5
7812
100
AcDbEntity
  8
0
100
AcDbLine
 10
931.942468
 20
1758.386309
 30
0.0
 11
946.942468
 21
1758.386309
 31
0.0
  0
LINE
  5
7813
100
AcDbEntity
  8
0
100
AcDbLine
 10
946.942468
 20
1728.386309
 30
0.0
 11
932.424588
 21
1728.386309
 31
0.0
  0
LINE
  5
7814
100
AcDbEntity
  8
0
100
AcDbLine
 10
826.942468
 20
1743.386309
 30
0.0
 11
826.942468
 21
1758.386309
 31
0.0
  0
LINE
  5
7815
100
AcDbEntity
  8
0
100
AcDbLine
 10
841.942468
 20
1737.886309
 30
0.0
 11
841.942468
 21
1748.886309
 31
0.0
  0
LINE
  5
7816
100
AcDbEntity
  8
0
100
AcDbLine
 10
829.942468
 20
1737.886309
 30
0.0
 11
829.942468
 21
1748.886309
 31
0.0
  0
LINE
  5
7817
100
AcDbEntity
  8
0
100
AcDbLine
 10
923.937439
 20
1729.386309
 30
0.0
 11
923.937439
 21
1750.386309
 31
0.0
  0
LINE
  5
7818
100
AcDbEntity
  8
0
100
AcDbLine
 10
943.942468
 20
1737.886309
 30
0.0
 11
943.942468
 21
1748.886309
 31
0.0
  0
LINE
  5
7819
100
AcDbEntity
  8
0
100
AcDbLine
 10
931.942468
 20
1737.886309
 30
0.0
 11
931.942468
 21
1748.886309
 31
0.0
  0
LINE
  5
781A
100
AcDbEntity
  8
0
100
AcDbLine
 10
859.937439
 20
1725.386309
 30
0.0
 11
919.937439
 21
1725.386309
 31
0.0
  0
LINE
  5
781B
100
AcDbEntity
  8
0
100
AcDbLine
 10
826.942468
 20
1728.386309
 30
0.0
 11
826.942468
 21
1743.386309
 31
0.0
  0
ARC
  5
781C
100
AcDbEntity
  8
0
100
AcDbCircle
 10
833.356823
 20
1724.386309
 30
0.0
 40
4.0
100
AcDbArc
 50
10.0
 51
90.0
  0
LINE
  5
781D
100
AcDbEntity
  8
0
100
AcDbLine
 10
826.942468
 20
1728.386309
 30
0.0
 11
833.356823
 21
1728.386309
 31
0.0
  0
ARC
  5
781E
100
AcDbEntity
  8
0
100
AcDbCircle
 10
831.442468
 20
1737.886309
 30
0.0
 40
1.5
100
AcDbArc
 50
180.0
 51
270.0
  0
LINE
  5
781F
100
AcDbEntity
  8
0
100
AcDbLine
 10
831.442468
 20
1736.386309
 30
0.0
 11
840.442468
 21
1736.386309
 31
0.0
  0
ARC
  5
7820
100
AcDbEntity
  8
0
100
AcDbCircle
 10
840.442468
 20
1737.886309
 30
0.0
 40
1.5
100
AcDbArc
 50
270.0
 51
0.0
  0
ARC
  5
7821
100
AcDbEntity
  8
0
100
AcDbCircle
 10
919.937439
 20
1729.386309
 30
0.0
 40
4.0
100
AcDbArc
 50
270.0
 51
0.0
  0
ARC
  5
7822
100
AcDbEntity
  8
0
100
AcDbCircle
 10
932.424588
 20
1724.386309
 30
0.0
 40
4.0
100
AcDbArc
 50
90.0
 51
129.400569
  0
ARC
  5
7823
100
AcDbEntity
  8
0
100
AcDbCircle
 10
925.442468
 20
1732.886309
 30
0.0
 40
7.0
100
AcDbArc
 50
283.109663
 51
309.400569
  0
ARC
  5
7824
100
AcDbEntity
  8
0
100
AcDbCircle
 10
927.937439
 20
1722.172994
 30
0.0
 40
4.0
100
AcDbArc
 50
103.109663
 51
180.0
  0
LINE
  5
7825
100
AcDbEntity
  8
0
100
AcDbLine
 10
933.442468
 20
1736.386309
 30
0.0
 11
942.442468
 21
1736.386309
 31
0.0
  0
ARC
  5
7826
100
AcDbEntity
  8
0
100
AcDbCircle
 10
942.442468
 20
1737.886309
 30
0.0
 40
1.5
100
AcDbArc
 50
270.0
 51
0.0
  0
ARC
  5
7827
100
AcDbEntity
  8
0
100
AcDbCircle
 10
933.442468
 20
1737.886309
 30
0.0
 40
1.5
100
AcDbArc
 50
180.0
 51
270.0
  0
LINE
  5
7828
100
AcDbEntity
  8
0
100
AcDbLine
 10
932.692468
 20
1774.886309
 30
0.0
 11
848.937439
 21
1774.886309
 31
0.0
  0
LINE
  5
7829
100
AcDbEntity
  8
0
100
AcDbLine
 10
848.937439
 20
1762.386309
 30
0.0
 11
943.937439
 21
1762.386309
 31
0.0
  0
LINE
  5
782A
100
AcDbEntity
  8
0
100
AcDbLine
 10
932.692468
 20
1762.386309
 30
0.0
 11
851.442468
 21
1762.386309
 31
0.0
  0
LINE
  5
782B
100
AcDbEntity
  8
0
100
AcDbLine
 10
848.937439
 20
1750.386309
 30
0.0
 11
931.942468
 21
1750.386309
 31
0.0
  0
LINE
  5
782C
100
AcDbEntity
  8
0
100
AcDbLine
 10
848.937439
 20
1750.386309
 30
0.0
 11
848.937439
 21
1774.886309
 31
0.0
  0
ARC
  5
782D
100
AcDbEntity
  8
0
100
AcDbCircle
 10
831.442468
 20
1748.886309
 30
0.0
 40
1.5
100
AcDbArc
 50
90.0
 51
180.0
  0
LINE
  5
782E
100
AcDbEntity
  8
0
100
AcDbLine
 10
826.942468
 20
1758.386309
 30
0.0
 11
848.937439
 21
1758.386309
 31
0.0
  0
LINE
  5
782F
100
AcDbEntity
  8
0
100
AcDbLine
 10
831.442468
 20
1750.386309
 30
0.0
 11
840.442468
 21
1750.386309
 31
0.0
  0
ARC
  5
7830
100
AcDbEntity
  8
0
100
AcDbCircle
 10
840.442468
 20
1748.886309
 30
0.0
 40
1.5
100
AcDbArc
 50
0.0
 51
90.0
  0
LINE
  5
7831
100
AcDbEntity
  8
0
100
AcDbLine
 10
932.692468
 20
1774.886309
 30
0.0
 11
932.692468
 21
1762.386309
 31
0.0
  0
LINE
  5
7832
100
AcDbEntity
  8
0
100
AcDbLine
 10
943.937439
 20
1758.386309
 30
0.0
 11
943.937439
 21
1762.386309
 31
0.0
  0
LINE
  5
7833
100
AcDbEntity
  8
0
100
AcDbLine
 10
933.442468
 20
1750.386309
 30
0.0
 11
942.442468
 21
1750.386309
 31
0.0
  0
ARC
  5
7834
100
AcDbEntity
  8
0
100
AcDbCircle
 10
942.442468
 20
1748.886309
 30
0.0
 40
1.5
100
AcDbArc
 50
0.0
 51
90.0
  0
ARC
  5
7835
100
AcDbEntity
  8
0
100
AcDbCircle
 10
933.442468
 20
1748.886309
 30
0.0
 40
1.5
100
AcDbArc
 50
90.0
 51
180.0
  0
LINE
  5
7836
100
AcDbEntity
  8
0
100
AcDbLine
 10
931.942468
 20
1750.386309
 30
0.0
 11
931.942468
 21
1762.386309
 31
0.0
  0
LINE
  5
7837
100
AcDbEntity
  8
0
100
AcDbLine
 10
912.174523
 20
1779.386309
 30
0.0
 11
871.700355
 21
1779.386309
 31
0.0
  0
LINE
  5
7838
100
AcDbEntity
  8
0
100
AcDbLine
 10
946.942468
 20
1743.386309
 30
0.0
 11
946.942468
 21
1758.386309
 31
0.0
  0
LINE
  5
7839
100
AcDbEntity
  8
0
100
AcDbLine
 10
946.942468
 20
1728.386309
 30
0.0
 11
946.942468
 21
1743.386309
 31
0.0
  0
LINE
  5
783A
100
AcDbEntity
  8
0
100
AcDbLine
 10
869.246617
 20
1781.886309
 30
0.0
 11
866.792878
 21
1780.951191
 31
0.0
  0
LINE
  5
783B
100
AcDbEntity
  8
0
100
AcDbLine
 10
853.635401
 20
1781.886309
 30
0.0
 11
870.135401
 21
1781.886309
 31
0.0
  0
LINE
  5
783C
100
AcDbEntity
  8
0
100
AcDbLine
 10
852.070446
 20
1780.951191
 30
0.0
 11
854.524185
 21
1781.886309
 31
0.0
  0
LINE
  5
783D
100
AcDbEntity
  8
0
100
AcDbLine
 10
852.070446
 20
1780.951191
 30
0.0
 11
853.635401
 21
1781.886309
 31
0.0
  0
LINE
  5
783E
100
AcDbEntity
  8
0
100
AcDbLine
 10
854.524185
 20
1781.886309
 30
0.0
 11
856.977923
 21
1780.951191
 31
0.0
  0
LINE
  5
783F
100
AcDbEntity
  8
0
100
AcDbLine
 10
861.885401
 20
1781.886309
 30
0.0
 11
866.834649
 21
1780.934591
 31
0.0
  0
LINE
  5
7840
100
AcDbEntity
  8
0
100
AcDbLine
 10
856.977923
 20
1780.951191
 30
0.0
 11
861.885401
 21
1781.886309
 31
0.0
  0
LINE
  5
7841
100
AcDbEntity
  8
0
100
AcDbLine
 10
883.442468
 20
1788.386309
 30
0.0
 11
883.442468
 21
1801.386309
 31
0.0
  0
LINE
  5
7842
100
AcDbEntity
  8
0
100
AcDbLine
 10
900.442468
 20
1788.386309
 30
0.0
 11
900.442468
 21
1801.386309
 31
0.0
  0
LINE
  5
7843
100
AcDbEntity
  8
0
100
AcDbLine
 10
871.700355
 20
1780.951191
 30
0.0
 11
869.246617
 21
1781.886309
 31
0.0
  0
LINE
  5
7844
100
AcDbEntity
  8
0
100
AcDbLine
 10
870.135401
 20
1781.886309
 30
0.0
 11
871.700355
 21
1780.951191
 31
0.0
  0
LINE
  5
7845
100
AcDbEntity
  8
0
100
AcDbLine
 10
901.942468
 20
1788.386309
 30
0.0
 11
881.942468
 21
1788.386309
 31
0.0
  0
LINE
  5
7846
100
AcDbEntity
  8
0
100
AcDbLine
 10
930.239477
 20
1781.886309
 30
0.0
 11
913.739477
 21
1781.886309
 31
0.0
  0
LINE
  5
7847
100
AcDbEntity
  8
0
100
AcDbLine
 10
926.896954
 20
1780.951191
 30
0.0
 11
921.989477
 21
1781.886309
 31
0.0
  0
LINE
  5
7848
100
AcDbEntity
  8
0
100
AcDbLine
 10
921.989477
 20
1781.886309
 30
0.0
 11
917.040229
 21
1780.934591
 31
0.0
  0
LINE
  5
7849
100
AcDbEntity
  8
0
100
AcDbLine
 10
914.628261
 20
1781.886309
 30
0.0
 11
917.082
 21
1780.951191
 31
0.0
  0
LINE
  5
784A
100
AcDbEntity
  8
0
100
AcDbLine
 10
913.739477
 20
1781.886309
 30
0.0
 11
912.174523
 21
1780.951191
 31
0.0
  0
LINE
  5
784B
100
AcDbEntity
  8
0
100
AcDbLine
 10
912.174523
 20
1780.951191
 30
0.0
 11
914.628261
 21
1781.886309
 31
0.0
  0
LINE
  5
784C
100
AcDbEntity
  8
0
100
AcDbLine
 10
929.350693
 20
1781.886309
 30
0.0
 11
926.896954
 21
1780.951191
 31
0.0
  0
LINE
  5
784D
100
AcDbEntity
  8
0
100
AcDbLine
 10
931.804432
 20
1780.951191
 30
0.0
 11
930.239477
 21
1781.886309
 31
0.0
  0
LINE
  5
784E
100
AcDbEntity
  8
0
100
AcDbLine
 10
931.804432
 20
1780.951191
 30
0.0
 11
929.350693
 21
1781.886309
 31
0.0
  0
LINE
  5
784F
100
AcDbEntity
  8
0
100
AcDbLine
 10
900.442468
 20
1801.386309
 30
0.0
 11
883.442468
 21
1801.386309
 31
0.0
  0
ARC
  5
7850
100
AcDbEntity
  8
0
100
AcDbCircle
 10
1191.018098
 20
1533.672554
 30
0.0
 40
340.0
100
AcDbArc
 50
354.626054
 51
357.534056
  0
LINE
  5
7851
100
AcDbEntity
  8
0
100
AcDbLine
 10
1513.379883
 20
1496.680263
 30
0.0
 11
1510.839956
 21
1506.161151
 31
0.0
  0
LINE
  5
7852
100
AcDbEntity
  8
0
100
AcDbLine
 10
1527.26039
 20
1510.560769
 30
0.0
 11
1529.800317
 21
1501.079881
 31
0.0
  0
CIRCLE
  5
7853
100
AcDbEntity
  8
0
100
AcDbCircle
 10
1520.320137
 20
1503.620516
 30
0.0
 40
8.24991
  0
LINE
  5
7854
100
AcDbEntity
  8
0
100
AcDbLine
 10
1469.696241
 20
1506.161151
 30
0.0
 11
1467.156313
 21
1496.680263
 31
0.0
  0
CIRCLE
  5
7855
100
AcDbEntity
  8
0
100
AcDbCircle
 10
1460.21606
 20
1503.620516
 30
0.0
 40
8.24991
  0
LINE
  5
7856
100
AcDbEntity
  8
0
100
AcDbLine
 10
1450.735879
 20
1501.079881
 30
0.0
 11
1453.275807
 21
1510.560769
 31
0.0
  0
ARC
  5
7857
100
AcDbEntity
  8
0
100
AcDbCircle
 10
1789.518098
 20
1533.672554
 30
0.0
 40
340.0
100
AcDbArc
 50
174.626054
 51
185.373946
  0
LINE
  5
7858
100
AcDbEntity
  8
0
100
AcDbLine
 10
1289.162226
 20
1370.315424
 30
0.0
 11
1289.162226
 21
1383.315424
 31
0.0
  0
LINE
  5
7859
100
AcDbEntity
  8
0
100
AcDbLine
 10
1299.697826
 20
1370.315424
 30
0.0
 11
1299.697826
 21
1383.315424
 31
0.0
  0
LINE
  5
785A
100
AcDbEntity
  8
0
100
AcDbLine
 10
1304.435055
 20
1370.315424
 30
0.0
 11
1284.435055
 21
1370.315424
 31
0.0
  0
LINE
  5
785B
100
AcDbEntity
  8
0
100
AcDbLine
 10
1304.435055
 20
1383.315424
 30
0.0
 11
1284.435055
 21
1383.315424
 31
0.0
  0
LINE
  5
785C
100
AcDbEntity
  8
0
100
AcDbLine
 10
1498.768098
 20
1370.315424
 30
0.0
 11
1498.768098
 21
1383.315424
 31
0.0
  0
LINE
  5
785D
100
AcDbEntity
  8
0
100
AcDbLine
 10
1481.768098
 20
1370.315424
 30
0.0
 11
1481.768098
 21
1383.315424
 31
0.0
  0
LINE
  5
785E
100
AcDbEntity
  8
0
100
AcDbLine
 10
1480.268098
 20
1370.315424
 30
0.0
 11
1500.268098
 21
1370.315424
 31
0.0
  0
LINE
  5
785F
100
AcDbEntity
  8
0
100
AcDbLine
 10
1481.768098
 20
1383.315424
 30
0.0
 11
1498.768098
 21
1383.315424
 31
0.0
  0
LINE
  5
7860
100
AcDbEntity
  8
0
100
AcDbLine
 10
1641.04117
 20
1370.315424
 30
0.0
 11
1661.04117
 21
1370.315424
 31
0.0
  0
LINE
  5
7861
100
AcDbEntity
  8
0
100
AcDbLine
 10
1641.04117
 20
1383.315424
 30
0.0
 11
1661.04117
 21
1383.315424
 31
0.0
  0
LINE
  5
7862
100
AcDbEntity
  8
0
100
AcDbLine
 10
1645.778399
 20
1370.315424
 30
0.0
 11
1645.778399
 21
1383.315424
 31
0.0
  0
LINE
  5
7863
100
AcDbEntity
  8
0
100
AcDbLine
 10
1656.313999
 20
1370.315424
 30
0.0
 11
1656.313999
 21
1383.315424
 31
0.0
  0
LINE
  5
7864
100
AcDbEntity
  8
0
100
AcDbLine
 10
1459.972957
 20
1493.672554
 30
0.0
 11
1520.563239
 21
1493.672554
 31
0.0
  0
LINE
  5
7865
100
AcDbEntity
  8
0
100
AcDbLine
 10
1467.156313
 20
1496.680263
 30
0.0
 11
1457.675425
 21
1494.140335
 31
0.0
  0
LINE
  5
7866
100
AcDbEntity
  8
0
100
AcDbLine
 10
1457.675425
 20
1494.140335
 30
0.0
 11
1450.735879
 21
1501.079881
 31
0.0
  0
ARC
  5
7867
100
AcDbEntity
  8
0
100
AcDbCircle
 10
1459.972957
 20
1502.672554
 30
0.0
 40
9.0
100
AcDbArc
 50
193.305938
 51
270.0
  0
LINE
  5
7868
100
AcDbEntity
  8
0
100
AcDbLine
 10
1500.763432
 20
1488.690554
 30
0.0
 11
1500.763432
 21
1493.672688
 31
0.0
  0
LINE
  5
7869
100
AcDbEntity
  8
0
100
AcDbLine
 10
1479.772765
 20
1493.672688
 30
0.0
 11
1479.772765
 21
1488.690554
 31
0.0
  0
LINE
  5
786A
100
AcDbEntity
  8
0
100
AcDbLine
 10
1479.772765
 20
1488.690554
 30
0.0
 11
1500.763432
 21
1488.690554
 31
0.0
  0
LINE
  5
786B
100
AcDbEntity
  8
0
100
AcDbLine
 10
1529.800317
 20
1501.079881
 30
0.0
 11
1522.860771
 21
1494.140335
 31
0.0
  0
ARC
  5
786C
100
AcDbEntity
  8
0
100
AcDbCircle
 10
1520.563239
 20
1502.672554
 30
0.0
 40
9.0
100
AcDbArc
 50
270.0
 51
346.694062
  0
LINE
  5
786D
100
AcDbEntity
  8
0
100
AcDbLine
 10
1522.860771
 20
1494.140335
 30
0.0
 11
1513.379883
 21
1496.680263
 31
0.0
  0
LINE
  5
786E
100
AcDbEntity
  8
0
100
AcDbLine
 10
1522.860771
 20
1573.204773
 30
0.0
 11
1529.800317
 21
1566.265227
 31
0.0
  0
ARC
  5
786F
100
AcDbEntity
  8
0
100
AcDbCircle
 10
1520.563239
 20
1564.672554
 30
0.0
 40
9.0
100
AcDbArc
 50
13.305938
 51
90.0
  0
LINE
  5
7870
100
AcDbEntity
  8
0
100
AcDbLine
 10
1513.379883
 20
1570.664845
 30
0.0
 11
1522.860771
 21
1573.204773
 31
0.0
  0
LINE
  5
7871
100
AcDbEntity
  8
0
100
AcDbLine
 10
1457.675425
 20
1573.204773
 30
0.0
 11
1467.156313
 21
1570.664845
 31
0.0
  0
LINE
  5
7872
100
AcDbEntity
  8
0
100
AcDbLine
 10
1450.735879
 20
1566.265227
 30
0.0
 11
1457.675425
 21
1573.204773
 31
0.0
  0
ARC
  5
7873
100
AcDbEntity
  8
0
100
AcDbCircle
 10
1459.972957
 20
1564.672554
 30
0.0
 40
9.0
100
AcDbArc
 50
90.0
 51
166.694062
  0
ARC
  5
7874
100
AcDbEntity
  8
0
100
AcDbCircle
 10
1490.268098
 20
1533.672554
 30
0.0
 40
43.0
100
AcDbArc
 50
340.110811
 51
19.889189
  0
LINE
  5
7875
100
AcDbEntity
  8
0
100
AcDbLine
 10
1498.768098
 20
1538.940381
 30
0.0
 11
1498.768098
 21
1528.404727
 31
0.0
  0
LINE
  5
7876
100
AcDbEntity
  8
0
100
AcDbLine
 10
1555.263069
 20
1533.672554
 30
0.0
 11
1555.263069
 21
1548.672554
 31
0.0
  0
LINE
  5
7877
100
AcDbEntity
  8
0
100
AcDbLine
 10
1555.268098
 20
1551.672554
 30
0.0
 11
1555.268098
 21
1533.672554
 31
0.0
  0
LINE
  5
7878
100
AcDbEntity
  8
0
100
AcDbLine
 10
1481.768098
 20
1538.940381
 30
0.0
 11
1481.768098
 21
1528.404727
 31
0.0
  0
ARC
  5
7879
100
AcDbEntity
  8
0
100
AcDbCircle
 10
1444.268765
 20
1533.672554
 30
0.0
 40
5.999933
100
AcDbArc
 50
90.0
 51
270.0
  0
LINE
  5
787A
100
AcDbEntity
  8
0
100
AcDbLine
 10
1435.268098
 20
1551.672554
 30
0.0
 11
1435.268098
 21
1533.672554
 31
0.0
  0
CIRCLE
  5
787B
100
AcDbEntity
  8
0
100
AcDbCircle
 10
1490.268098
 20
1533.672554
 30
0.0
 40
28.0
  0
CIRCLE
  5
787C
100
AcDbEntity
  8
0
100
AcDbCircle
 10
1490.268098
 20
1533.672554
 30
0.0
 40
10.0
  0
CIRCLE
  5
787D
100
AcDbEntity
  8
0
100
AcDbCircle
 10
1490.268098
 20
1533.672554
 30
0.0
 40
7.5
  0
LINE
  5
787E
100
AcDbEntity
  8
0
100
AcDbLine
 10
1435.268098
 20
1533.672554
 30
0.0
 11
1435.268098
 21
1515.672554
 31
0.0
  0
LINE
  5
787F
100
AcDbEntity
  8
0
100
AcDbLine
 10
1462.756695
 20
1513.100697
 30
0.0
 11
1469.696241
 21
1506.161151
 31
0.0
  0
LINE
  5
7880
100
AcDbEntity
  8
0
100
AcDbLine
 10
1453.275807
 20
1510.560769
 30
0.0
 11
1462.756695
 21
1513.100697
 31
0.0
  0
LINE
  5
7881
100
AcDbEntity
  8
0
100
AcDbLine
 10
1449.850758
 20
1515.672554
 30
0.0
 11
1449.850758
 21
1517.406055
 31
0.0
  0
LINE
  5
7882
100
AcDbEntity
  8
0
100
AcDbLine
 10
1438.290098
 20
1515.672554
 30
0.0
 11
1438.290098
 21
1517.406055
 31
0.0
  0
LINE
  5
7883
100
AcDbEntity
  8
0
100
AcDbLine
 10
1435.268098
 20
1515.672554
 30
0.0
 11
1449.994903
 21
1515.672554
 31
0.0
  0
LINE
  5
7884
100
AcDbEntity
  8
0
100
AcDbLine
 10
1448.887613
 20
1517.406055
 30
0.0
 11
1439.253244
 21
1517.406055
 31
0.0
  0
LINE
  5
7885
100
AcDbEntity
  8
0
100
AcDbLine
 10
1444.268765
 20
1527.672621
 30
0.0
 11
1449.571042
 21
1527.672621
 31
0.0
  0
LINE
  5
7886
100
AcDbEntity
  8
0
100
AcDbLine
 10
1555.263069
 20
1518.672554
 30
0.0
 11
1555.263069
 21
1533.672554
 31
0.0
  0
LINE
  5
7887
100
AcDbEntity
  8
0
100
AcDbLine
 10
1555.268098
 20
1533.672554
 30
0.0
 11
1555.268098
 21
1515.672554
 31
0.0
  0
LINE
  5
7888
100
AcDbEntity
  8
0
100
AcDbLine
 10
1530.541293
 20
1515.672554
 30
0.0
 11
1555.268098
 21
1515.672554
 31
0.0
  0
LINE
  5
7889
100
AcDbEntity
  8
0
100
AcDbLine
 10
1550.860584
 20
1517.406055
 30
0.0
 11
1541.226215
 21
1517.406055
 31
0.0
  0
LINE
  5
788A
100
AcDbEntity
  8
0
100
AcDbLine
 10
1540.263069
 20
1515.672554
 30
0.0
 11
1540.263069
 21
1517.406055
 31
0.0
  0
LINE
  5
788B
100
AcDbEntity
  8
0
100
AcDbLine
 10
1517.779502
 20
1513.100697
 30
0.0
 11
1527.26039
 21
1510.560769
 31
0.0
  0
LINE
  5
788C
100
AcDbEntity
  8
0
100
AcDbLine
 10
1510.839956
 20
1506.161151
 30
0.0
 11
1517.779502
 21
1513.100697
 31
0.0
  0
LINE
  5
788D
100
AcDbEntity
  8
0
100
AcDbLine
 10
1551.82373
 20
1515.672554
 30
0.0
 11
1551.82373
 21
1517.406055
 31
0.0
  0
LINE
  5
788E
100
AcDbEntity
  8
0
100
AcDbLine
 10
1521.380797
 20
1527.672554
 30
0.0
 11
1532.847436
 21
1527.672554
 31
0.0
  0
ARC
  5
788F
100
AcDbEntity
  8
0
100
AcDbCircle
 10
1521.380797
 20
1522.672554
 30
0.0
 40
5.0
100
AcDbArc
 50
90.0
 51
160.528779
  0
LINE
  5
7890
100
AcDbEntity
  8
0
100
AcDbLine
 10
1469.696241
 20
1561.183958
 30
0.0
 11
1462.756695
 21
1554.244412
 31
0.0
  0
LINE
  5
7891
100
AcDbEntity
  8
0
100
AcDbLine
 10
1462.756695
 20
1554.244412
 30
0.0
 11
1453.275807
 21
1556.784339
 31
0.0
  0
CIRCLE
  5
7892
100
AcDbEntity
  8
0
100
AcDbCircle
 10
1460.21606
 20
1563.724592
 30
0.0
 40
8.24991
  0
LINE
  5
7893
100
AcDbEntity
  8
0
100
AcDbLine
 10
1449.850758
 20
1551.672554
 30
0.0
 11
1449.850758
 21
1549.939053
 31
0.0
  0
LINE
  5
7894
100
AcDbEntity
  8
0
100
AcDbLine
 10
1438.290098
 20
1551.672554
 30
0.0
 11
1438.290098
 21
1549.939053
 31
0.0
  0
LINE
  5
7895
100
AcDbEntity
  8
0
100
AcDbLine
 10
1435.268098
 20
1551.672554
 30
0.0
 11
1449.994903
 21
1551.672554
 31
0.0
  0
LINE
  5
7896
100
AcDbEntity
  8
0
100
AcDbLine
 10
1448.887613
 20
1549.939053
 30
0.0
 11
1439.253244
 21
1549.939053
 31
0.0
  0
LINE
  5
7897
100
AcDbEntity
  8
0
100
AcDbLine
 10
1449.571042
 20
1539.672488
 30
0.0
 11
1444.268765
 21
1539.672488
 31
0.0
  0
LINE
  5
7898
100
AcDbEntity
  8
0
100
AcDbLine
 10
1467.156313
 20
1570.664845
 30
0.0
 11
1469.696241
 21
1561.183958
 31
0.0
  0
LINE
  5
7899
100
AcDbEntity
  8
0
100
AcDbLine
 10
1453.275807
 20
1556.784339
 30
0.0
 11
1450.735879
 21
1566.265227
 31
0.0
  0
ARC
  5
789A
100
AcDbEntity
  8
0
100
AcDbCircle
 10
1191.018098
 20
1533.672554
 30
0.0
 40
340.0
100
AcDbArc
 50
2.465944
 51
5.373946
  0
LINE
  5
789B
100
AcDbEntity
  8
0
100
AcDbLine
 10
1517.779502
 20
1554.244412
 30
0.0
 11
1510.839956
 21
1561.183958
 31
0.0
  0
LINE
  5
789C
100
AcDbEntity
  8
0
100
AcDbLine
 10
1527.26039
 20
1556.784339
 30
0.0
 11
1517.779502
 21
1554.244412
 31
0.0
  0
CIRCLE
  5
789D
100
AcDbEntity
  8
0
100
AcDbCircle
 10
1520.320137
 20
1563.724592
 30
0.0
 40
8.24991
  0
LINE
  5
789E
100
AcDbEntity
  8
0
100
AcDbLine
 10
1530.541293
 20
1551.672554
 30
0.0
 11
1555.268098
 21
1551.672554
 31
0.0
  0
LINE
  5
789F
100
AcDbEntity
  8
0
100
AcDbLine
 10
1550.860584
 20
1549.939053
 30
0.0
 11
1541.226215
 21
1549.939053
 31
0.0
  0
LINE
  5
78A0
100
AcDbEntity
  8
0
100
AcDbLine
 10
1521.380797
 20
1539.672554
 30
0.0
 11
1532.847436
 21
1539.672554
 31
0.0
  0
LINE
  5
78A1
100
AcDbEntity
  8
0
100
AcDbLine
 10
1540.263069
 20
1551.672554
 30
0.0
 11
1540.263069
 21
1549.939053
 31
0.0
  0
ARC
  5
78A2
100
AcDbEntity
  8
0
100
AcDbCircle
 10
1521.380797
 20
1544.672554
 30
0.0
 40
5.0
100
AcDbArc
 50
199.471221
 51
270.0
  0
LINE
  5
78A3
100
AcDbEntity
  8
0
100
AcDbLine
 10
1551.82373
 20
1551.672554
 30
0.0
 11
1551.82373
 21
1549.939053
 31
0.0
  0
LINE
  5
78A4
100
AcDbEntity
  8
0
100
AcDbLine
 10
1510.839956
 20
1561.183958
 30
0.0
 11
1513.379883
 21
1570.664845
 31
0.0
  0
LINE
  5
78A5
100
AcDbEntity
  8
0
100
AcDbLine
 10
1529.800317
 20
1566.265227
 30
0.0
 11
1527.26039
 21
1556.784339
 31
0.0
  0
LINE
  5
78A6
100
AcDbEntity
  8
0
100
AcDbLine
 10
1459.972957
 20
1573.672554
 30
0.0
 11
1520.563239
 21
1573.672554
 31
0.0
  0
ARC
  5
78A7
100
AcDbEntity
  8
0
100
AcDbCircle
 10
1942.915951
 20
1533.672554
 30
0.0
 40
340.0
100
AcDbArc
 50
354.626054
 51
357.534056
  0
LINE
  5
78A8
100
AcDbEntity
  8
0
100
AcDbLine
 10
2279.158242
 20
1510.560769
 30
0.0
 11
2281.69817
 21
1501.079881
 31
0.0
  0
LINE
  5
78A9
100
AcDbEntity
  8
0
100
AcDbLine
 10
2265.277736
 20
1496.680263
 30
0.0
 11
2262.737809
 21
1506.161151
 31
0.0
  0
CIRCLE
  5
78AA
100
AcDbEntity
  8
0
100
AcDbCircle
 10
2272.217989
 20
1503.620516
 30
0.0
 40
8.24991
  0
LINE
  5
78AB
100
AcDbEntity
  8
0
100
AcDbLine
 10
2221.594093
 20
1506.161151
 30
0.0
 11
2219.054166
 21
1496.680263
 31
0.0
  0
CIRCLE
  5
78AC
100
AcDbEntity
  8
0
100
AcDbCircle
 10
2212.113913
 20
1503.620516
 30
0.0
 40
8.24991
  0
LINE
  5
78AD
100
AcDbEntity
  8
0
100
AcDbLine
 10
2202.633732
 20
1501.079881
 30
0.0
 11
2205.17366
 21
1510.560769
 31
0.0
  0
ARC
  5
78AE
100
AcDbEntity
  8
0
100
AcDbCircle
 10
2541.415951
 20
1533.672554
 30
0.0
 40
340.0
100
AcDbArc
 50
174.626054
 51
185.373946
  0
LINE
  5
78AF
100
AcDbEntity
  8
0
100
AcDbLine
 10
2221.945838
 20
1365.776699
 30
0.0
 11
2262.420006
 21
1365.776699
 31
0.0
  0
LINE
  5
78B0
100
AcDbEntity
  8
0
100
AcDbLine
 10
2211.87081
 20
1493.672554
 30
0.0
 11
2272.461092
 21
1493.672554
 31
0.0
  0
LINE
  5
78B1
100
AcDbEntity
  8
0
100
AcDbLine
 10
2034.770052
 20
1387.815424
 30
0.0
 11
2014.770052
 21
1387.815424
 31
0.0
  0
LINE
  5
78B2
100
AcDbEntity
  8
0
100
AcDbLine
 10
2034.770052
 20
1374.815424
 30
0.0
 11
2014.770052
 21
1374.815424
 31
0.0
  0
LINE
  5
78B3
100
AcDbEntity
  8
0
100
AcDbLine
 10
2046.322051
 20
1365.815424
 30
0.0
 11
2003.207996
 21
1365.815424
 31
0.0
  0
LINE
  5
78B4
100
AcDbEntity
  8
0
100
AcDbLine
 10
2019.497223
 20
1374.815424
 30
0.0
 11
2019.497223
 21
1387.815424
 31
0.0
  0
LINE
  5
78B5
100
AcDbEntity
  8
0
100
AcDbLine
 10
2030.032823
 20
1374.815424
 30
0.0
 11
2030.032823
 21
1387.815424
 31
0.0
  0
LINE
  5
78B6
100
AcDbEntity
  8
0
100
AcDbLine
 10
2014.770052
 20
1365.815424
 30
0.0
 11
2014.770052
 21
1387.815424
 31
0.0
  0
LINE
  5
78B7
100
AcDbEntity
  8
0
100
AcDbLine
 10
1986.20837
 20
1368.315424
 30
0.0
 11
2003.207996
 21
1368.315424
 31
0.0
  0
ARC
  5
78B8
100
AcDbEntity
  8
0
100
AcDbCircle
 10
1990.458163
 20
1358.451538
 30
0.0
 40
9.863886
100
AcDbArc
 50
64.478882
 51
115.521118
  0
ARC
  5
78B9
100
AcDbEntity
  8
0
100
AcDbCircle
 10
1998.957814
 20
1358.451963
 30
0.0
 40
9.863886
100
AcDbArc
 50
64.476381
 51
115.526852
  0
LINE
  5
78BA
100
AcDbEntity
  8
0
100
AcDbLine
 10
2034.770052
 20
1365.815424
 30
0.0
 11
2034.770052
 21
1387.815424
 31
0.0
  0
LINE
  5
78BB
100
AcDbEntity
  8
0
100
AcDbLine
 10
2063.321677
 20
1368.315424
 30
0.0
 11
2046.322051
 21
1368.315424
 31
0.0
  0
ARC
  5
78BC
100
AcDbEntity
  8
0
100
AcDbCircle
 10
2059.071884
 20
1358.451538
 30
0.0
 40
9.863886
100
AcDbArc
 50
64.478882
 51
115.521118
  0
ARC
  5
78BD
100
AcDbEntity
  8
0
100
AcDbCircle
 10
2050.572233
 20
1358.451963
 30
0.0
 40
9.863886
100
AcDbArc
 50
64.473148
 51
115.523619
  0
LINE
  5
78BE
100
AcDbEntity
  8
0
100
AcDbLine
 10
2202.315929
 20
1367.341581
 30
0.0
 11
2204.769668
 21
1368.276699
 31
0.0
  0
LINE
  5
78BF
100
AcDbEntity
  8
0
100
AcDbLine
 10
2202.315929
 20
1367.341581
 30
0.0
 11
2203.880884
 21
1368.276699
 31
0.0
  0
LINE
  5
78C0
100
AcDbEntity
  8
0
100
AcDbLine
 10
2204.769668
 20
1368.276699
 30
0.0
 11
2207.223407
 21
1367.341581
 31
0.0
  0
LINE
  5
78C1
100
AcDbEntity
  8
0
100
AcDbLine
 10
2221.945838
 20
1367.341581
 30
0.0
 11
2219.4921
 21
1368.276699
 31
0.0
  0
LINE
  5
78C2
100
AcDbEntity
  8
0
100
AcDbLine
 10
2220.380884
 20
1368.276699
 30
0.0
 11
2221.945838
 21
1367.341581
 31
0.0
  0
LINE
  5
78C3
100
AcDbEntity
  8
0
100
AcDbLine
 10
2219.4921
 20
1368.276699
 30
0.0
 11
2217.038361
 21
1367.341581
 31
0.0
  0
LINE
  5
78C4
100
AcDbEntity
  8
0
100
AcDbLine
 10
2212.130884
 20
1368.276699
 30
0.0
 11
2217.080132
 21
1367.324981
 31
0.0
  0
LINE
  5
78C5
100
AcDbEntity
  8
0
100
AcDbLine
 10
2207.223407
 20
1367.341581
 30
0.0
 11
2212.130884
 21
1368.276699
 31
0.0
  0
LINE
  5
78C6
100
AcDbEntity
  8
0
100
AcDbLine
 10
2203.880884
 20
1368.276699
 30
0.0
 11
2220.380884
 21
1368.276699
 31
0.0
  0
LINE
  5
78C7
100
AcDbEntity
  8
0
100
AcDbLine
 10
2219.054166
 20
1496.680263
 30
0.0
 11
2209.573278
 21
1494.140335
 31
0.0
  0
LINE
  5
78C8
100
AcDbEntity
  8
0
100
AcDbLine
 10
2209.573278
 20
1494.140335
 30
0.0
 11
2202.633732
 21
1501.079881
 31
0.0
  0
ARC
  5
78C9
100
AcDbEntity
  8
0
100
AcDbCircle
 10
2211.87081
 20
1502.672554
 30
0.0
 40
9.0
100
AcDbArc
 50
185.373946
 51
270.0
  0
LINE
  5
78CA
100
AcDbEntity
  8
0
100
AcDbLine
 10
2383.470853
 20
1365.815424
 30
0.0
 11
2426.584909
 21
1365.815424
 31
0.0
  0
LINE
  5
78CB
100
AcDbEntity
  8
0
100
AcDbLine
 10
2233.682922
 20
1374.776699
 30
0.0
 11
2233.682922
 21
1387.776699
 31
0.0
  0
LINE
  5
78CC
100
AcDbEntity
  8
0
100
AcDbLine
 10
2250.682922
 20
1374.776699
 30
0.0
 11
2250.682922
 21
1387.776699
 31
0.0
  0
LINE
  5
78CD
100
AcDbEntity
  8
0
100
AcDbLine
 10
2272.23496
 20
1368.276699
 30
0.0
 11
2267.285712
 21
1367.324981
 31
0.0
  0
LINE
  5
78CE
100
AcDbEntity
  8
0
100
AcDbLine
 10
2280.48496
 20
1368.276699
 30
0.0
 11
2263.98496
 21
1368.276699
 31
0.0
  0
LINE
  5
78CF
100
AcDbEntity
  8
0
100
AcDbLine
 10
2264.873744
 20
1368.276699
 30
0.0
 11
2267.327483
 21
1367.341581
 31
0.0
  0
LINE
  5
78D0
100
AcDbEntity
  8
0
100
AcDbLine
 10
2263.98496
 20
1368.276699
 30
0.0
 11
2262.420006
 21
1367.341581
 31
0.0
  0
LINE
  5
78D1
100
AcDbEntity
  8
0
100
AcDbLine
 10
2262.420006
 20
1367.341581
 30
0.0
 11
2264.873744
 21
1368.276699
 31
0.0
  0
LINE
  5
78D2
100
AcDbEntity
  8
0
100
AcDbLine
 10
2252.182922
 20
1365.815424
 30
0.0
 11
2252.182922
 21
1374.776699
 31
0.0
  0
LINE
  5
78D3
100
AcDbEntity
  8
0
100
AcDbLine
 10
2232.182922
 20
1365.815424
 30
0.0
 11
2232.182922
 21
1374.776699
 31
0.0
  0
LINE
  5
78D4
100
AcDbEntity
  8
0
100
AcDbLine
 10
2232.182922
 20
1374.776699
 30
0.0
 11
2252.182922
 21
1374.776699
 31
0.0
  0
LINE
  5
78D5
100
AcDbEntity
  8
0
100
AcDbLine
 10
2282.049915
 20
1367.341581
 30
0.0
 11
2279.596176
 21
1368.276699
 31
0.0
  0
LINE
  5
78D6
100
AcDbEntity
  8
0
100
AcDbLine
 10
2282.049915
 20
1367.341581
 30
0.0
 11
2280.48496
 21
1368.276699
 31
0.0
  0
LINE
  5
78D7
100
AcDbEntity
  8
0
100
AcDbLine
 10
2279.596176
 20
1368.276699
 30
0.0
 11
2277.142438
 21
1367.341581
 31
0.0
  0
LINE
  5
78D8
100
AcDbEntity
  8
0
100
AcDbLine
 10
2277.142438
 20
1367.341581
 30
0.0
 11
2272.23496
 21
1368.276699
 31
0.0
  0
LINE
  5
78D9
100
AcDbEntity
  8
0
100
AcDbLine
 10
2233.682922
 20
1387.776699
 30
0.0
 11
2250.682922
 21
1387.776699
 31
0.0
  0
ARC
  5
78DA
100
AcDbEntity
  8
0
100
AcDbCircle
 10
2370.721021
 20
1358.451538
 30
0.0
 40
9.863886
100
AcDbArc
 50
64.478882
 51
115.521118
  0
LINE
  5
78DB
100
AcDbEntity
  8
0
100
AcDbLine
 10
2366.471227
 20
1368.315424
 30
0.0
 11
2383.470853
 21
1368.315424
 31
0.0
  0
ARC
  5
78DC
100
AcDbEntity
  8
0
100
AcDbCircle
 10
2379.220671
 20
1358.451963
 30
0.0
 40
9.863886
100
AcDbArc
 50
64.476381
 51
115.526852
  0
LINE
  5
78DD
100
AcDbEntity
  8
0
100
AcDbLine
 10
2410.295681
 20
1374.815424
 30
0.0
 11
2410.295681
 21
1387.815424
 31
0.0
  0
LINE
  5
78DE
100
AcDbEntity
  8
0
100
AcDbLine
 10
2399.760081
 20
1374.815424
 30
0.0
 11
2399.760081
 21
1387.815424
 31
0.0
  0
LINE
  5
78DF
100
AcDbEntity
  8
0
100
AcDbLine
 10
2395.022852
 20
1365.815424
 30
0.0
 11
2395.022852
 21
1387.815424
 31
0.0
  0
LINE
  5
78E0
100
AcDbEntity
  8
0
100
AcDbLine
 10
2415.022852
 20
1365.815424
 30
0.0
 11
2415.022852
 21
1387.815424
 31
0.0
  0
LINE
  5
78E1
100
AcDbEntity
  8
0
100
AcDbLine
 10
2395.022852
 20
1374.815424
 30
0.0
 11
2415.022852
 21
1374.815424
 31
0.0
  0
ARC
  5
78E2
100
AcDbEntity
  8
0
100
AcDbCircle
 10
2430.83509
 20
1358.451963
 30
0.0
 40
9.863886
100
AcDbArc
 50
64.473148
 51
115.523619
  0
ARC
  5
78E3
100
AcDbEntity
  8
0
100
AcDbCircle
 10
2439.334741
 20
1358.451538
 30
0.0
 40
9.863886
100
AcDbArc
 50
64.478882
 51
115.521118
  0
LINE
  5
78E4
100
AcDbEntity
  8
0
100
AcDbLine
 10
2443.584535
 20
1368.315424
 30
0.0
 11
2426.584909
 21
1368.315424
 31
0.0
  0
LINE
  5
78E5
100
AcDbEntity
  8
0
100
AcDbLine
 10
2395.022852
 20
1387.815424
 30
0.0
 11
2415.022852
 21
1387.815424
 31
0.0
  0
LINE
  5
78E6
100
AcDbEntity
  8
0
100
AcDbLine
 10
2274.758624
 20
1494.140335
 30
0.0
 11
2265.277736
 21
1496.680263
 31
0.0
  0
ARC
  5
78E7
100
AcDbEntity
  8
0
100
AcDbCircle
 10
2272.461092
 20
1502.672554
 30
0.0
 40
9.0
100
AcDbArc
 50
270.0
 51
354.626054
  0
LINE
  5
78E8
100
AcDbEntity
  8
0
100
AcDbLine
 10
2281.69817
 20
1501.079881
 30
0.0
 11
2274.758624
 21
1494.140335
 31
0.0
  0
LINE
  5
78E9
100
AcDbEntity
  8
0
100
AcDbLine
 10
2211.87081
 20
1573.672554
 30
0.0
 11
2272.461092
 21
1573.672554
 31
0.0
  0
CIRCLE
  5
78EA
100
AcDbEntity
  8
0
100
AcDbCircle
 10
2242.165951
 20
1533.672554
 30
0.0
 40
25.5
  0
CIRCLE
  5
78EB
100
AcDbEntity
  8
0
100
AcDbCircle
 10
2242.165951
 20
1533.672554
 30
0.0
 40
28.0
  0
LINE
  5
78EC
100
AcDbEntity
  8
0
100
AcDbLine
 10
2209.573278
 20
1573.204773
 30
0.0
 11
2219.054166
 21
1570.664845
 31
0.0
  0
ARC
  5
78ED
100
AcDbEntity
  8
0
100
AcDbCircle
 10
2211.87081
 20
1564.672554
 30
0.0
 40
9.0
100
AcDbArc
 50
90.0
 51
174.626054
  0
LINE
  5
78EE
100
AcDbEntity
  8
0
100
AcDbLine
 10
2202.633732
 20
1566.265227
 30
0.0
 11
2209.573278
 21
1573.204773
 31
0.0
  0
ARC
  5
78EF
100
AcDbEntity
  8
0
100
AcDbCircle
 10
2196.166618
 20
1533.672554
 30
0.0
 40
5.999933
100
AcDbArc
 50
90.0
 51
270.0
  0
LINE
  5
78F0
100
AcDbEntity
  8
0
100
AcDbLine
 10
2187.187951
 20
1533.672554
 30
0.0
 11
2187.187951
 21
1555.672621
 31
0.0
  0
LINE
  5
78F1
100
AcDbEntity
  8
0
100
AcDbLine
 10
2187.187951
 20
1533.672554
 30
0.0
 11
2187.187951
 21
1511.672488
 31
0.0
  0
LINE
  5
78F2
100
AcDbEntity
  8
0
100
AcDbLine
 10
2187.187951
 20
1511.672488
 30
0.0
 11
2201.892618
 21
1511.672488
 31
0.0
  0
LINE
  5
78F3
100
AcDbEntity
  8
0
100
AcDbLine
 10
2190.187951
 20
1513.172354
 30
0.0
 11
2201.920618
 21
1513.172354
 31
0.0
  0
LINE
  5
78F4
100
AcDbEntity
  8
0
100
AcDbLine
 10
2190.187951
 20
1513.172354
 30
0.0
 11
2190.187951
 21
1511.672488
 31
0.0
  0
LINE
  5
78F5
100
AcDbEntity
  8
0
100
AcDbLine
 10
2205.17366
 20
1510.560769
 30
0.0
 11
2214.654547
 21
1513.100697
 31
0.0
  0
LINE
  5
78F6
100
AcDbEntity
  8
0
100
AcDbLine
 10
2214.654547
 20
1513.100697
 30
0.0
 11
2221.594093
 21
1506.161151
 31
0.0
  0
LINE
  5
78F7
100
AcDbEntity
  8
0
100
AcDbLine
 10
2196.166618
 20
1527.672621
 30
0.0
 11
2200.165951
 21
1527.672621
 31
0.0
  0
LINE
  5
78F8
100
AcDbEntity
  8
0
100
AcDbLine
 10
2190.187951
 20
1554.172754
 30
0.0
 11
2190.187951
 21
1555.672621
 31
0.0
  0
LINE
  5
78F9
100
AcDbEntity
  8
0
100
AcDbLine
 10
2214.654547
 20
1554.244412
 30
0.0
 11
2205.17366
 21
1556.784339
 31
0.0
  0
LINE
  5
78FA
100
AcDbEntity
  8
0
100
AcDbLine
 10
2221.594093
 20
1561.183958
 30
0.0
 11
2214.654547
 21
1554.244412
 31
0.0
  0
CIRCLE
  5
78FB
100
AcDbEntity
  8
0
100
AcDbCircle
 10
2212.113913
 20
1563.724592
 30
0.0
 40
8.24991
  0
LINE
  5
78FC
100
AcDbEntity
  8
0
100
AcDbLine
 10
2190.187951
 20
1554.172754
 30
0.0
 11
2201.920618
 21
1554.172754
 31
0.0
  0
LINE
  5
78FD
100
AcDbEntity
  8
0
100
AcDbLine
 10
2200.165951
 20
1539.672488
 30
0.0
 11
2196.166618
 21
1539.672488
 31
0.0
  0
LINE
  5
78FE
100
AcDbEntity
  8
0
100
AcDbLine
 10
2187.187951
 20
1555.672621
 30
0.0
 11
2201.892618
 21
1555.672621
 31
0.0
  0
LINE
  5
78FF
100
AcDbEntity
  8
0
100
AcDbLine
 10
2219.054166
 20
1570.664845
 30
0.0
 11
2221.594093
 21
1561.183958
 31
0.0
  0
LINE
  5
7900
100
AcDbEntity
  8
0
100
AcDbLine
 10
2205.17366
 20
1556.784339
 30
0.0
 11
2202.633732
 21
1566.265227
 31
0.0
  0
ARC
  5
7901
100
AcDbEntity
  8
0
100
AcDbCircle
 10
2272.461092
 20
1564.672554
 30
0.0
 40
9.0
100
AcDbArc
 50
5.373946
 51
90.0
  0
LINE
  5
7902
100
AcDbEntity
  8
0
100
AcDbLine
 10
2265.277736
 20
1570.664845
 30
0.0
 11
2274.758624
 21
1573.204773
 31
0.0
  0
LINE
  5
7903
100
AcDbEntity
  8
0
100
AcDbLine
 10
2274.758624
 20
1573.204773
 30
0.0
 11
2281.69817
 21
1566.265227
 31
0.0
  0
ARC
  5
7904
100
AcDbEntity
  8
0
100
AcDbCircle
 10
2242.165951
 20
1533.672554
 30
0.0
 40
43.0
100
AcDbArc
 50
340.110811
 51
19.889189
  0
LINE
  5
7905
100
AcDbEntity
  8
0
100
AcDbLine
 10
2307.139951
 20
1533.672554
 30
0.0
 11
2307.139951
 21
1555.672621
 31
0.0
  0
CIRCLE
  5
7906
100
AcDbEntity
  8
0
100
AcDbCircle
 10
2242.165951
 20
1533.672554
 30
0.0
 40
7.5
  0
CIRCLE
  5
7907
100
AcDbEntity
  8
0
100
AcDbCircle
 10
2242.165951
 20
1533.672554
 30
0.0
 40
10.0
  0
LINE
  5
7908
100
AcDbEntity
  8
0
100
AcDbLine
 10
2233.665951
 20
1538.940381
 30
0.0
 11
2233.665951
 21
1528.404727
 31
0.0
  0
LINE
  5
7909
100
AcDbEntity
  8
0
100
AcDbLine
 10
2250.665951
 20
1538.940381
 30
0.0
 11
2250.665951
 21
1528.404727
 31
0.0
  0
LINE
  5
790A
100
AcDbEntity
  8
0
100
AcDbLine
 10
2307.139951
 20
1533.672554
 30
0.0
 11
2307.139951
 21
1511.672488
 31
0.0
  0
LINE
  5
790B
100
AcDbEntity
  8
0
100
AcDbLine
 10
2269.677354
 20
1513.100697
 30
0.0
 11
2279.158242
 21
1510.560769
 31
0.0
  0
LINE
  5
790C
100
AcDbEntity
  8
0
100
AcDbLine
 10
2262.737809
 20
1506.161151
 30
0.0
 11
2269.677354
 21
1513.100697
 31
0.0
  0
LINE
  5
790D
100
AcDbEntity
  8
0
100
AcDbLine
 10
2304.139951
 20
1513.172354
 30
0.0
 11
2304.139951
 21
1511.672488
 31
0.0
  0
LINE
  5
790E
100
AcDbEntity
  8
0
100
AcDbLine
 10
2289.139951
 20
1513.172354
 30
0.0
 11
2289.139951
 21
1511.672488
 31
0.0
  0
LINE
  5
790F
100
AcDbEntity
  8
0
100
AcDbLine
 10
2289.139951
 20
1513.172354
 30
0.0
 11
2304.139951
 21
1513.172354
 31
0.0
  0
LINE
  5
7910
100
AcDbEntity
  8
0
100
AcDbLine
 10
2307.139951
 20
1511.672488
 30
0.0
 11
2282.205951
 21
1511.672488
 31
0.0
  0
ARC
  5
7911
100
AcDbEntity
  8
0
100
AcDbCircle
 10
1942.915951
 20
1533.672554
 30
0.0
 40
340.0
100
AcDbArc
 50
2.465944
 51
5.373946
  0
LINE
  5
7912
100
AcDbEntity
  8
0
100
AcDbLine
 10
2289.139951
 20
1554.172754
 30
0.0
 11
2289.139951
 21
1555.672621
 31
0.0
  0
LINE
  5
7913
100
AcDbEntity
  8
0
100
AcDbLine
 10
2304.139951
 20
1554.172754
 30
0.0
 11
2304.139951
 21
1555.672621
 31
0.0
  0
LINE
  5
7914
100
AcDbEntity
  8
0
100
AcDbLine
 10
2269.677354
 20
1554.244412
 30
0.0
 11
2262.737809
 21
1561.183958
 31
0.0
  0
LINE
  5
7915
100
AcDbEntity
  8
0
100
AcDbLine
 10
2279.158242
 20
1556.784339
 30
0.0
 11
2269.677354
 21
1554.244412
 31
0.0
  0
CIRCLE
  5
7916
100
AcDbEntity
  8
0
100
AcDbCircle
 10
2272.217989
 20
1563.724592
 30
0.0
 40
8.24991
  0
LINE
  5
7917
100
AcDbEntity
  8
0
100
AcDbLine
 10
2289.139951
 20
1554.172754
 30
0.0
 11
2304.139951
 21
1554.172754
 31
0.0
  0
LINE
  5
7918
100
AcDbEntity
  8
0
100
AcDbLine
 10
2262.737809
 20
1561.183958
 30
0.0
 11
2265.277736
 21
1570.664845
 31
0.0
  0
LINE
  5
7919
100
AcDbEntity
  8
0
100
AcDbLine
 10
2281.69817
 20
1566.265227
 30
0.0
 11
2279.158242
 21
1556.784339
 31
0.0
  0
LINE
  5
791A
100
AcDbEntity
  8
0
100
AcDbLine
 10
2307.139951
 20
1555.672621
 30
0.0
 11
2282.205951
 21
1555.672621
 31
0.0
  0
LINE
  5
791B
100
AcDbEntity
  8
0
100
AcDbLine
 10
1535.225099
 20
1783.451191
 30
0.0
 11
1535.225099
 21
1777.386309
 31
0.0
  0
LINE
  5
791C
100
AcDbEntity
  8
0
100
AcDbLine
 10
1540.132577
 20
1777.383444
 30
0.0
 11
1540.132577
 21
1783.451191
 31
0.0
  0
LINE
  5
791D
100
AcDbEntity
  8
0
100
AcDbLine
 10
1525.410145
 20
1783.451191
 30
0.0
 11
1525.410145
 21
1777.386309
 31
0.0
  0
LINE
  5
791E
100
AcDbEntity
  8
0
100
AcDbLine
 10
1520.502668
 20
1783.451191
 30
0.0
 11
1520.502668
 21
1777.386309
 31
0.0
  0
LINE
  5
791F
100
AcDbEntity
  8
0
100
AcDbLine
 10
1480.0285
 20
1783.451191
 30
0.0
 11
1480.0285
 21
1777.386309
 31
0.0
  0
LINE
  5
7920
100
AcDbEntity
  8
0
100
AcDbLine
 10
1475.121023
 20
1783.451191
 30
0.0
 11
1475.121023
 21
1777.386309
 31
0.0
  0
LINE
  5
7921
100
AcDbEntity
  8
0
100
AcDbLine
 10
1460.398591
 20
1777.383444
 30
0.0
 11
1460.398591
 21
1783.451191
 31
0.0
  0
LINE
  5
7922
100
AcDbEntity
  8
0
100
AcDbLine
 10
1465.306068
 20
1783.451191
 30
0.0
 11
1465.306068
 21
1777.386309
 31
0.0
  0
LINE
  5
7923
100
AcDbEntity
  8
0
100
AcDbLine
 10
1532.263069
 20
1702.925034
 30
0.0
 11
1532.263069
 21
1721.425034
 31
0.0
  0
LINE
  5
7924
100
AcDbEntity
  8
0
100
AcDbLine
 10
1449.407632
 20
1706.109727
 30
0.0
 11
1446.849146
 21
1722.119627
 31
0.0
  0
LINE
  5
7925
100
AcDbEntity
  8
0
100
AcDbLine
 10
1468.263069
 20
1702.925034
 30
0.0
 11
1468.263069
 21
1752.925034
 31
0.0
  0
ARC
  5
7926
100
AcDbEntity
  8
0
100
AcDbCircle
 10
1500.263069
 20
1702.925034
 30
0.0
 40
32.0
100
AcDbArc
 50
180.0
 51
340.098821
  0
LINE
  5
792A
100
AcDbEntity
  8
0
100
AcDbLine
 10
1533.263069
 20
1693.175034
 30
0.0
 11
1533.263069
 21
1672.675034
 31
0.0
  0
LINE
  5
792B
100
AcDbEntity
  8
0
100
AcDbLine
 10
1533.263069
 20
1694.31658
 30
0.0
 11
1533.263069
 21
1671.925034
 31
0.0
  0
LINE
  5
792C
100
AcDbEntity
  8
0
100
AcDbLine
 10
1453.011346
 20
1677.840658
 30
0.0
 11
1452.456543
 21
1675.770106
 31
0.0
  0
LINE
  5
792D
100
AcDbEntity
  8
0
100
AcDbLine
 10
1440.038208
 20
1699.211145
 30
0.0
 11
1446.249865
 21
1676.028925
 31
0.0
  0
LINE
  5
792E
100
AcDbEntity
  8
0
100
AcDbLine
 10
1453.399574
 20
1676.39177
 30
0.0
 11
1446.41146
 21
1702.471767
 31
0.0
  0
LINE
  5
792F
100
AcDbEntity
  8
0
100
AcDbLine
 10
1472.806023
 20
1681.591712
 30
0.0
 11
1453.399574
 21
1676.39177
 31
0.0
  0
LINE
  5
7930
100
AcDbEntity
  8
0
100
AcDbLine
 10
1446.249865
 20
1676.028925
 30
0.0
 11
1447.765614
 21
1674.513176
 31
0.0
  0
LINE
  5
7931
100
AcDbEntity
  8
0
100
AcDbLine
 10
1447.765614
 20
1674.513176
 30
0.0
 11
1452.456543
 21
1675.770106
 31
0.0
  0
LINE
  5
7936
100
AcDbEntity
  8
0
100
AcDbLine
 10
1533.263069
 20
1671.925034
 30
0.0
 11
1508.200323
 21
1671.925034
 31
0.0
  0
LINE
  5
7937
100
AcDbEntity
  8
0
100
AcDbLine
 10
1447.07709
 20
1695.846497
 30
0.0
 11
1449.905517
 21
1689.431768
 31
0.0
  0
LINE
  5
7938
100
AcDbEntity
  8
0
100
AcDbLine
 10
1453.011346
 20
1677.840658
 30
0.0
 11
1446.799688
 21
1701.022878
 31
0.0
  0
LINE
  5
7939
100
AcDbEntity
  8
0
100
AcDbLine
 10
1453.011346
 20
1677.840658
 30
0.0
 11
1446.799688
 21
1701.022878
 31
0.0
  0
LINE
  5
793A
100
AcDbEntity
  8
0
100
AcDbLine
 10
1442.386161
 20
1694.589567
 30
0.0
 11
1443.144036
 21
1687.620035
 31
0.0
  0
LINE
  5
793B
100
AcDbEntity
  8
0
100
AcDbLine
 10
1443.144036
 20
1687.620035
 30
0.0
 11
1445.972463
 21
1681.205306
 31
0.0
  0
LINE
  5
793C
100
AcDbEntity
  8
0
100
AcDbLine
 10
1445.972463
 20
1681.205306
 30
0.0
 11
1450.663392
 21
1682.462237
 31
0.0
  0
LINE
  5
793D
100
AcDbEntity
  8
0
100
AcDbLine
 10
1445.972463
 20
1681.205306
 30
0.0
 11
1445.847314
 21
1677.531266
 31
0.0
  0
LINE
  5
793E
100
AcDbEntity
  8
0
100
AcDbLine
 10
1450.663392
 20
1682.462237
 30
0.0
 11
1452.581692
 21
1679.444146
 31
0.0
  0
LINE
  5
793F
100
AcDbEntity
  8
0
100
AcDbLine
 10
1449.905517
 20
1689.431768
 30
0.0
 11
1450.663392
 21
1682.462237
 31
0.0
  0
ARC
  5
7940
100
AcDbEntity
  8
0
100
AcDbCircle
 10
1474.100119
 20
1676.762083
 30
0.0
 40
5.0
100
AcDbArc
 50
45.0
 51
105.0
  0
LINE
  5
7941
100
AcDbEntity
  8
0
100
AcDbLine
 10
1440.59301
 20
1701.281697
 30
0.0
 11
1445.283939
 21
1702.538628
 31
0.0
  0
LINE
  5
7942
100
AcDbEntity
  8
0
100
AcDbLine
 10
1442.386161
 20
1694.589567
 30
0.0
 11
1447.07709
 21
1695.846497
 31
0.0
  0
LINE
  5
7943
100
AcDbEntity
  8
0
100
AcDbLine
 10
1446.799688
 20
1701.022878
 30
0.0
 11
1445.283939
 21
1702.538628
 31
0.0
  0
LINE
  5
7944
100
AcDbEntity
  8
0
100
AcDbLine
 10
1447.229666
 20
1702.691005
 30
0.0
 11
1446.41146
 21
1702.471767
 31
0.0
  0
ARC
  5
7945
100
AcDbEntity
  8
0
100
AcDbCircle
 10
1446.453209
 20
1705.588782
 30
0.0
 40
3.0
100
AcDbArc
 50
285.0
 51
10.0
  0
LINE
  5
7946
100
AcDbEntity
  8
0
100
AcDbLine
 10
1447.20224
 20
1699.520537
 30
0.0
 11
1447.07709
 21
1695.846497
 31
0.0
  0
LINE
  5
7947
100
AcDbEntity
  8
0
100
AcDbLine
 10
1440.467861
 20
1697.607658
 30
0.0
 11
1442.386161
 21
1694.589567
 31
0.0
  0
LINE
  5
7948
100
AcDbEntity
  8
0
100
AcDbLine
 10
1440.038208
 20
1699.211145
 30
0.0
 11
1440.59301
 21
1701.281697
 31
0.0
  0
ARC
  5
7953
100
AcDbEntity
  8
0
100
AcDbCircle
 10
1500.263069
 20
1702.925034
 30
0.0
 40
32.0
100
AcDbArc
 50
350.12911
 51
0.0
  0
ARC
  5
7954
100
AcDbEntity
  8
0
100
AcDbCircle
 10
1534.744949
 20
1696.925034
 30
0.0
 40
3.0
100
AcDbArc
 50
170.12911
 51
240.39882
  0
LINE
  5
7955
100
AcDbEntity
  8
0
100
AcDbLine
 10
1540.263069
 20
1748.886309
 30
0.0
 11
1540.263069
 21
1737.886309
 31
0.0
  0
LINE
  5
7956
100
AcDbEntity
  8
0
100
AcDbLine
 10
1532.465554
 20
1752.925034
 30
0.0
 11
1532.465554
 21
1731.925034
 31
0.0
  0
LINE
  5
7957
100
AcDbEntity
  8
0
100
AcDbLine
 10
1552.263069
 20
1748.886309
 30
0.0
 11
1552.263069
 21
1737.886309
 31
0.0
  0
LINE
  5
7958
100
AcDbEntity
  8
0
100
AcDbLine
 10
1555.268098
 20
1761.386309
 30
0.0
 11
1555.268098
 21
1743.386309
 31
0.0
  0
LINE
  5
7959
100
AcDbEntity
  8
0
100
AcDbLine
 10
1438.263069
 20
1748.886309
 30
0.0
 11
1438.263069
 21
1737.886309
 31
0.0
  0
LINE
  5
795A
100
AcDbEntity
  8
0
100
AcDbLine
 10
1450.263069
 20
1748.886309
 30
0.0
 11
1450.263069
 21
1737.886309
 31
0.0
  0
LINE
  5
795B
100
AcDbEntity
  8
0
100
AcDbLine
 10
1435.268098
 20
1761.386309
 30
0.0
 11
1435.268098
 21
1743.386309
 31
0.0
  0
LINE
  5
795C
100
AcDbEntity
  8
0
100
AcDbLine
 10
1528.465554
 20
1727.925034
 30
0.0
 11
1468.263069
 21
1727.925034
 31
0.0
  0
LINE
  5
795D
100
AcDbEntity
  8
0
100
AcDbLine
 10
1435.268098
 20
1743.386309
 30
0.0
 11
1435.268098
 21
1725.386309
 31
0.0
  0
ARC
  5
795E
100
AcDbEntity
  8
0
100
AcDbCircle
 10
1442.91558
 20
1721.386309
 30
0.0
 40
4.0
100
AcDbArc
 50
9.079469
 51
90.0
  0
LINE
  5
795F
100
AcDbEntity
  8
0
100
AcDbLine
 10
1442.91558
 20
1725.386309
 30
0.0
 11
1435.268098
 21
1725.386309
 31
0.0
  0
LINE
  5
7960
100
AcDbEntity
  8
0
100
AcDbLine
 10
1448.763069
 20
1736.386309
 30
0.0
 11
1439.763069
 21
1736.386309
 31
0.0
  0
ARC
  5
7961
100
AcDbEntity
  8
0
100
AcDbCircle
 10
1448.763069
 20
1737.886309
 30
0.0
 40
1.5
100
AcDbArc
 50
270.0
 51
0.0
  0
ARC
  5
7962
100
AcDbEntity
  8
0
100
AcDbCircle
 10
1439.763069
 20
1737.886309
 30
0.0
 40
1.5
100
AcDbArc
 50
180.0
 51
270.0
  0
LINE
  5
7963
100
AcDbEntity
  8
0
100
AcDbLine
 10
1555.268098
 20
1743.386309
 30
0.0
 11
1555.268098
 21
1725.386309
 31
0.0
  0
ARC
  5
7964
100
AcDbEntity
  8
0
100
AcDbCircle
 10
1528.465554
 20
1731.925034
 30
0.0
 40
4.0
100
AcDbArc
 50
270.0
 51
0.0
  0
LINE
  5
7965
100
AcDbEntity
  8
0
100
AcDbLine
 10
1555.268098
 20
1725.386309
 30
0.0
 11
1536.263069
 21
1725.386309
 31
0.0
  0
ARC
  5
7966
100
AcDbEntity
  8
0
100
AcDbCircle
 10
1536.263069
 20
1721.386309
 30
0.0
 40
4.0
100
AcDbArc
 50
90.0
 51
180.0
  0
LINE
  5
7967
100
AcDbEntity
  8
0
100
AcDbLine
 10
1550.763069
 20
1736.386309
 30
0.0
 11
1541.763069
 21
1736.386309
 31
0.0
  0
ARC
  5
7968
100
AcDbEntity
  8
0
100
AcDbCircle
 10
1541.763069
 20
1737.886309
 30
0.0
 40
1.5
100
AcDbArc
 50
180.0
 51
270.0
  0
ARC
  5
7969
100
AcDbEntity
  8
0
100
AcDbCircle
 10
1550.763069
 20
1737.886309
 30
0.0
 40
1.5
100
AcDbArc
 50
270.0
 51
0.0
  0
LINE
  5
796A
100
AcDbEntity
  8
0
100
AcDbLine
 10
1541.018098
 20
1777.386309
 30
0.0
 11
1457.268098
 21
1777.386309
 31
0.0
  0
LINE
  5
796B
100
AcDbEntity
  8
0
100
AcDbLine
 10
1552.263069
 20
1764.925034
 30
0.0
 11
1457.263069
 21
1764.925034
 31
0.0
  0
LINE
  5
796C
100
AcDbEntity
  8
0
100
AcDbLine
 10
1540.013069
 20
1752.925034
 30
0.0
 11
1458.263069
 21
1752.925034
 31
0.0
  0
LINE
  5
796D
100
AcDbEntity
  8
0
100
AcDbLine
 10
1457.268098
 20
1753.824872
 30
0.0
 11
1457.268098
 21
1777.386309
 31
0.0
  0
ARC
  5
796E
100
AcDbEntity
  8
0
100
AcDbCircle
 10
1454.627521
 20
1763.997545
 30
0.0
 40
2.636546
100
AcDbArc
 50
262.054535
 51
358.424045
  0
ARC
  5
796F
100
AcDbEntity
  8
0
100
AcDbCircle
 10
1458.263069
 20
1753.925034
 30
0.0
 40
1.0
100
AcDbArc
 50
180.0
 51
270.0
  0
LINE
  5
7970
100
AcDbEntity
  8
0
100
AcDbLine
 10
1454.263069
 20
1761.386309
 30
0.0
 11
1435.268098
 21
1761.386309
 31
0.0
  0
LINE
  5
7971
100
AcDbEntity
  8
0
100
AcDbLine
 10
1448.763069
 20
1750.386309
 30
0.0
 11
1439.763069
 21
1750.386309
 31
0.0
  0
ARC
  5
7972
100
AcDbEntity
  8
0
100
AcDbCircle
 10
1448.763069
 20
1748.886309
 30
0.0
 40
1.5
100
AcDbArc
 50
0.0
 51
90.0
  0
ARC
  5
7973
100
AcDbEntity
  8
0
100
AcDbCircle
 10
1439.763069
 20
1748.886309
 30
0.0
 40
1.5
100
AcDbArc
 50
90.0
 51
180.0
  0
LINE
  5
7974
100
AcDbEntity
  8
0
100
AcDbLine
 10
1457.263069
 20
1763.925034
 30
0.0
 11
1457.263069
 21
1764.925034
 31
0.0
  0
ARC
  5
7975
100
AcDbEntity
  8
0
100
AcDbCircle
 10
1555.263069
 20
1764.132141
 30
0.0
 40
3.0
100
AcDbArc
 50
180.0
 51
246.24513
  0
LINE
  5
7976
100
AcDbEntity
  8
0
100
AcDbLine
 10
1541.013069
 20
1753.925034
 30
0.0
 11
1541.013069
 21
1763.925034
 31
0.0
  0
ARC
  5
7977
100
AcDbEntity
  8
0
100
AcDbCircle
 10
1544.013069
 20
1764.386309
 30
0.0
 40
3.0
100
AcDbArc
 50
180.0
 51
270.0
  0
LINE
  5
7978
100
AcDbEntity
  8
0
100
AcDbLine
 10
1555.268098
 20
1761.386309
 30
0.0
 11
1544.013069
 21
1761.386309
 31
0.0
  0
LINE
  5
7979
100
AcDbEntity
  8
0
100
AcDbLine
 10
1550.763069
 20
1750.386309
 30
0.0
 11
1541.763069
 21
1750.386309
 31
0.0
  0
ARC
  5
797A
100
AcDbEntity
  8
0
100
AcDbCircle
 10
1541.763069
 20
1748.886309
 30
0.0
 40
1.5
100
AcDbArc
 50
90.0
 51
180.0
  0
ARC
  5
797B
100
AcDbEntity
  8
0
100
AcDbCircle
 10
1540.013069
 20
1753.925034
 30
0.0
 40
1.0
100
AcDbArc
 50
270.0
 51
0.0
  0
ARC
  5
797C
100
AcDbEntity
  8
0
100
AcDbCircle
 10
1550.763069
 20
1748.886309
 30
0.0
 40
1.5
100
AcDbArc
 50
0.0
 51
90.0
  0
LINE
  5
797D
100
AcDbEntity
  8
0
100
AcDbLine
 10
1541.013069
 20
1764.925034
 30
0.0
 11
1541.013069
 21
1763.925034
 31
0.0
  0
LINE
  5
797E
100
AcDbEntity
  8
0
100
AcDbLine
 10
1541.018098
 20
1764.886309
 30
0.0
 11
1541.018098
 21
1777.386309
 31
0.0
  0
LINE
  5
797F
100
AcDbEntity
  8
0
100
AcDbLine
 10
1552.263069
 20
1764.132141
 30
0.0
 11
1552.263069
 21
1764.925034
 31
0.0
  0
LINE
  5
7980
100
AcDbEntity
  8
0
100
AcDbLine
 10
1520.502668
 20
1781.886309
 30
0.0
 11
1480.0285
 21
1781.886309
 31
0.0
  0
LINE
  5
7981
100
AcDbEntity
  8
0
100
AcDbLine
 10
1510.268098
 20
1790.886309
 30
0.0
 11
1490.268098
 21
1790.886309
 31
0.0
  0
LINE
  5
7982
100
AcDbEntity
  8
0
100
AcDbLine
 10
1508.768098
 20
1803.886309
 30
0.0
 11
1491.768098
 21
1803.886309
 31
0.0
  0
LINE
  5
7983
100
AcDbEntity
  8
0
100
AcDbLine
 10
1491.768098
 20
1790.886309
 30
0.0
 11
1491.768098
 21
1803.886309
 31
0.0
  0
LINE
  5
7984
100
AcDbEntity
  8
0
100
AcDbLine
 10
1461.963546
 20
1784.386309
 30
0.0
 11
1478.463546
 21
1784.386309
 31
0.0
  0
LINE
  5
7985
100
AcDbEntity
  8
0
100
AcDbLine
 10
1465.306068
 20
1783.451191
 30
0.0
 11
1470.213546
 21
1784.386309
 31
0.0
  0
LINE
  5
7986
100
AcDbEntity
  8
0
100
AcDbLine
 10
1462.85233
 20
1784.386309
 30
0.0
 11
1465.306068
 21
1783.451191
 31
0.0
  0
LINE
  5
7987
100
AcDbEntity
  8
0
100
AcDbLine
 10
1460.398591
 20
1783.451191
 30
0.0
 11
1461.963546
 21
1784.386309
 31
0.0
  0
LINE
  5
7988
100
AcDbEntity
  8
0
100
AcDbLine
 10
1460.398591
 20
1783.451191
 30
0.0
 11
1462.85233
 21
1784.386309
 31
0.0
  0
LINE
  5
7989
100
AcDbEntity
  8
0
100
AcDbLine
 10
1470.213546
 20
1784.386309
 30
0.0
 11
1475.162794
 21
1783.434591
 31
0.0
  0
LINE
  5
798A
100
AcDbEntity
  8
0
100
AcDbLine
 10
1477.574762
 20
1784.386309
 30
0.0
 11
1475.121023
 21
1783.451191
 31
0.0
  0
LINE
  5
798B
100
AcDbEntity
  8
0
100
AcDbLine
 10
1478.463546
 20
1784.386309
 30
0.0
 11
1480.0285
 21
1783.451191
 31
0.0
  0
LINE
  5
798C
100
AcDbEntity
  8
0
100
AcDbLine
 10
1480.0285
 20
1783.451191
 30
0.0
 11
1477.574762
 21
1784.386309
 31
0.0
  0
LINE
  5
798D
100
AcDbEntity
  8
0
100
AcDbLine
 10
1490.268098
 20
1781.886309
 30
0.0
 11
1490.268098
 21
1790.886309
 31
0.0
  0
LINE
  5
798E
100
AcDbEntity
  8
0
100
AcDbLine
 10
1508.768098
 20
1790.886309
 30
0.0
 11
1508.768098
 21
1803.886309
 31
0.0
  0
LINE
  5
798F
100
AcDbEntity
  8
0
100
AcDbLine
 10
1538.567622
 20
1784.386309
 30
0.0
 11
1522.067622
 21
1784.386309
 31
0.0
  0
LINE
  5
7990
100
AcDbEntity
  8
0
100
AcDbLine
 10
1540.132577
 20
1783.451191
 30
0.0
 11
1537.678838
 21
1784.386309
 31
0.0
  0
LINE
  5
7991
100
AcDbEntity
  8
0
100
AcDbLine
 10
1540.132577
 20
1783.451191
 30
0.0
 11
1538.567622
 21
1784.386309
 31
0.0
  0
LINE
  5
7992
100
AcDbEntity
  8
0
100
AcDbLine
 10
1537.678838
 20
1784.386309
 30
0.0
 11
1535.225099
 21
1783.451191
 31
0.0
  0
LINE
  5
7993
100
AcDbEntity
  8
0
100
AcDbLine
 10
1520.502668
 20
1783.451191
 30
0.0
 11
1522.956406
 21
1784.386309
 31
0.0
  0
LINE
  5
7994
100
AcDbEntity
  8
0
100
AcDbLine
 10
1522.067622
 20
1784.386309
 30
0.0
 11
1520.502668
 21
1783.451191
 31
0.0
  0
LINE
  5
7995
100
AcDbEntity
  8
0
100
AcDbLine
 10
1522.956406
 20
1784.386309
 30
0.0
 11
1525.410145
 21
1783.451191
 31
0.0
  0
LINE
  5
7996
100
AcDbEntity
  8
0
100
AcDbLine
 10
1530.317622
 20
1784.386309
 30
0.0
 11
1525.368374
 21
1783.434591
 31
0.0
  0
LINE
  5
7997
100
AcDbEntity
  8
0
100
AcDbLine
 10
1535.225099
 20
1783.451191
 30
0.0
 11
1530.317622
 21
1784.386309
 31
0.0
  0
LINE
  5
7998
100
AcDbEntity
  8
0
100
AcDbLine
 10
1510.268098
 20
1781.886309
 30
0.0
 11
1510.268098
 21
1790.886309
 31
0.0
  0
LINE
  5
7999
100
AcDbEntity
  8
0
100
AcDbLine
 10
2292.94298
 20
1769.386309
 30
0.0
 11
2292.94298
 21
1781.886309
 31
0.0
  0
LINE
  5
799A
100
AcDbEntity
  8
0
100
AcDbLine
 10
2207.19298
 20
1769.386309
 30
0.0
 11
2207.19298
 21
1781.886309
 31
0.0
  0
ARC
  5
799B
100
AcDbEntity
  8
0
100
AcDbCircle
 10
2252.187951
 20
1700.386309
 30
0.0
 40
32.0
100
AcDbArc
 50
180.0
 51
340.098821
  0
LINE
  5
799C
100
AcDbEntity
  8
0
100
AcDbLine
 10
2280.390435
 20
1725.386309
 30
0.0
 11
2220.187951
 21
1725.386309
 31
0.0
  0
LINE
  5
799D
100
AcDbEntity
  8
0
100
AcDbLine
 10
2304.187951
 20
1769.386309
 30
0.0
 11
2209.187951
 21
1769.386309
 31
0.0
  0
LINE
  5
799E
100
AcDbEntity
  8
0
100
AcDbLine
 10
2292.94298
 20
1769.386309
 30
0.0
 11
2207.19298
 21
1769.386309
 31
0.0
  0
LINE
  5
799F
100
AcDbEntity
  8
0
100
AcDbLine
 10
2292.937951
 20
1757.386309
 30
0.0
 11
2207.19298
 21
1757.386309
 31
0.0
  0
LINE
  5
79A0
100
AcDbEntity
  8
0
100
AcDbLine
 10
2220.187951
 20
1700.386309
 30
0.0
 11
2220.187951
 21
1757.386309
 31
0.0
  0
LINE
  5
79A1
100
AcDbEntity
  8
0
100
AcDbLine
 10
2201.332514
 20
1703.571002
 30
0.0
 11
2198.774027
 21
1718.080902
 31
0.0
  0
LINE
  5
79A2
100
AcDbEntity
  8
0
100
AcDbLine
 10
2191.963089
 20
1696.67242
 30
0.0
 11
2198.174746
 21
1673.4902
 31
0.0
  0
LINE
  5
79A3
100
AcDbEntity
  8
0
100
AcDbLine
 10
2205.324456
 20
1673.853045
 30
0.0
 11
2198.336341
 21
1699.933042
 31
0.0
  0
LINE
  5
79A4
100
AcDbEntity
  8
0
100
AcDbLine
 10
2197.897345
 20
1678.666581
 30
0.0
 11
2197.772195
 21
1674.992542
 31
0.0
  0
LINE
  5
79A5
100
AcDbEntity
  8
0
100
AcDbLine
 10
2224.730905
 20
1679.052987
 30
0.0
 11
2205.324456
 21
1673.853045
 31
0.0
  0
LINE
  5
79A6
100
AcDbEntity
  8
0
100
AcDbLine
 10
2199.690496
 20
1671.974451
 30
0.0
 11
2204.381424
 21
1673.231381
 31
0.0
  0
LINE
  5
79A7
100
AcDbEntity
  8
0
100
AcDbLine
 10
2198.174746
 20
1673.4902
 30
0.0
 11
2199.690496
 21
1671.974451
 31
0.0
  0
LINE
  5
79A8
100
AcDbEntity
  8
0
100
AcDbLine
 10
2204.936227
 20
1675.301933
 30
0.0
 11
2204.381424
 21
1673.231381
 31
0.0
  0
LINE
  5
79A9
100
AcDbEntity
  8
0
100
AcDbLine
 10
2199.154223
 20
1696.880666
 30
0.0
 11
2199.001971
 21
1693.307772
 31
0.0
  0
LINE
  5
79AA
100
AcDbEntity
  8
0
100
AcDbLine
 10
2192.392742
 20
1695.068933
 30
0.0
 11
2194.311043
 21
1692.050842
 31
0.0
  0
ARC
  5
79AB
100
AcDbEntity
  8
0
100
AcDbCircle
 10
2226.025
 20
1674.223358
 30
0.0
 40
5.0
100
AcDbArc
 50
45.0
 51
105.0
  0
LINE
  5
79AC
100
AcDbEntity
  8
0
100
AcDbLine
 10
2195.068918
 20
1685.08131
 30
0.0
 11
2197.897345
 21
1678.666581
 31
0.0
  0
LINE
  5
79AD
100
AcDbEntity
  8
0
100
AcDbLine
 10
2201.830398
 20
1686.893043
 30
0.0
 11
2202.588273
 21
1679.923512
 31
0.0
  0
LINE
  5
79AE
100
AcDbEntity
  8
0
100
AcDbLine
 10
2202.588273
 20
1679.923512
 30
0.0
 11
2204.506574
 21
1676.905421
 31
0.0
  0
LINE
  5
79AF
100
AcDbEntity
  8
0
100
AcDbLine
 10
2197.897345
 20
1678.666581
 30
0.0
 11
2202.588273
 21
1679.923512
 31
0.0
  0
LINE
  5
79B0
100
AcDbEntity
  8
0
100
AcDbLine
 10
2194.311043
 20
1692.050842
 30
0.0
 11
2199.001971
 21
1693.307772
 31
0.0
  0
LINE
  5
79B1
100
AcDbEntity
  8
0
100
AcDbLine
 10
2194.311043
 20
1692.050842
 30
0.0
 11
2195.068918
 21
1685.08131
 31
0.0
  0
LINE
  5
79B2
100
AcDbEntity
  8
0
100
AcDbLine
 10
2199.001971
 20
1693.307772
 30
0.0
 11
2201.830398
 21
1686.893043
 31
0.0
  0
LINE
  5
79B3
100
AcDbEntity
  8
0
100
AcDbLine
 10
2192.517892
 20
1698.742972
 30
0.0
 11
2197.20882
 21
1699.999903
 31
0.0
  0
LINE
  5
79B4
100
AcDbEntity
  8
0
100
AcDbLine
 10
2191.963089
 20
1696.67242
 30
0.0
 11
2192.517892
 21
1698.742972
 31
0.0
  0
ARC
  5
79B5
100
AcDbEntity
  8
0
100
AcDbCircle
 10
2198.220221
 20
1703.081459
 30
0.0
 40
3.150558
100
AcDbArc
 50
272.112225
 51
8.938996
  0
LINE
  5
79B6
100
AcDbEntity
  8
0
100
AcDbLine
 10
2198.72457
 20
1698.484153
 30
0.0
 11
2197.20882
 21
1699.999903
 31
0.0
  0
LINE
  5
79B7
100
AcDbEntity
  8
0
100
AcDbLine
 10
2205.187951
 20
1750.886309
 30
0.0
 11
2205.187951
 21
1735.886309
 31
0.0
  0
LINE
  5
79B8
100
AcDbEntity
  8
0
100
AcDbLine
 10
2187.187951
 20
1765.386309
 30
0.0
 11
2187.187951
 21
1743.386309
 31
0.0
  0
LINE
  5
79B9
100
AcDbEntity
  8
0
100
AcDbLine
 10
2190.187951
 20
1750.886309
 30
0.0
 11
2190.187951
 21
1735.886309
 31
0.0
  0
LINE
  5
79BA
100
AcDbEntity
  8
0
100
AcDbLine
 10
2187.187951
 20
1743.386309
 30
0.0
 11
2187.187951
 21
1721.386309
 31
0.0
  0
LINE
  5
79BB
100
AcDbEntity
  8
0
100
AcDbLine
 10
2194.834796
 20
1721.386309
 30
0.0
 11
2187.187951
 21
1721.386309
 31
0.0
  0
ARC
  5
79BC
100
AcDbEntity
  8
0
100
AcDbCircle
 10
2194.834796
 20
1717.386309
 30
0.0
 40
4.0
100
AcDbArc
 50
10.0
 51
90.0
  0
LINE
  5
79BD
100
AcDbEntity
  8
0
100
AcDbLine
 10
2191.687951
 20
1734.386309
 30
0.0
 11
2203.687951
 21
1734.386309
 31
0.0
  0
ARC
  5
79BE
100
AcDbEntity
  8
0
100
AcDbCircle
 10
2191.687951
 20
1735.886309
 30
0.0
 40
1.5
100
AcDbArc
 50
180.0
 51
270.0
  0
ARC
  5
79BF
100
AcDbEntity
  8
0
100
AcDbCircle
 10
2203.687951
 20
1735.886309
 30
0.0
 40
1.5
100
AcDbArc
 50
270.0
 51
360.0
  0
LINE
  5
79C0
100
AcDbEntity
  8
0
100
AcDbLine
 10
2207.19298
 20
1757.386309
 30
0.0
 11
2207.19298
 21
1769.386309
 31
0.0
  0
LINE
  5
79C1
100
AcDbEntity
  8
0
100
AcDbLine
 10
2191.687951
 20
1752.386309
 30
0.0
 11
2203.687951
 21
1752.386309
 31
0.0
  0
ARC
  5
79C2
100
AcDbEntity
  8
0
100
AcDbCircle
 10
2191.687951
 20
1750.886309
 30
0.0
 40
1.5
100
AcDbArc
 50
90.0
 51
180.0
  0
ARC
  5
79C3
100
AcDbEntity
  8
0
100
AcDbCircle
 10
2203.687951
 20
1750.886309
 30
0.0
 40
1.5
100
AcDbArc
 50
360.0
 51
90.0
  0
LINE
  5
79C4
100
AcDbEntity
  8
0
100
AcDbLine
 10
2204.19298
 20
1765.386309
 30
0.0
 11
2187.187951
 21
1765.386309
 31
0.0
  0
ARC
  5
79C5
100
AcDbEntity
  8
0
100
AcDbCircle
 10
2204.19298
 20
1768.386309
 30
0.0
 40
3.0
100
AcDbArc
 50
270.0
 51
360.0
  0
LINE
  5
79C6
100
AcDbEntity
  8
0
100
AcDbLine
 10
2284.187951
 20
1700.386309
 30
0.0
 11
2284.187951
 21
1717.386309
 31
0.0
  0
LINE
  5
79C9
100
AcDbEntity
  8
0
100
AcDbLine
 10
2285.187951
 20
1691.777855
 30
0.0
 11
2285.187951
 21
1669.386309
 31
0.0
  0
LINE
  5
79CB
100
AcDbEntity
  8
0
100
AcDbLine
 10
2285.187951
 20
1669.386309
 30
0.0
 11
2260.125205
 21
1669.386309
 31
0.0
  0
ARC
  5
79D3
100
AcDbEntity
  8
0
100
AcDbCircle
 10
2286.66983
 20
1694.386309
 30
0.0
 40
3.0
100
AcDbArc
 50
170.12911
 51
240.39882
  0
ARC
  5
79DD
100
AcDbEntity
  8
0
100
AcDbCircle
 10
2252.187951
 20
1700.386309
 30
0.0
 40
32.0
100
AcDbArc
 50
350.12911
 51
0.0
  0
LINE
  5
79DE
100
AcDbEntity
  8
0
100
AcDbLine
 10
2307.187951
 20
1765.386309
 30
0.0
 11
2307.187951
 21
1743.386309
 31
0.0
  0
LINE
  5
79DF
100
AcDbEntity
  8
0
100
AcDbLine
 10
2304.187951
 20
1750.886309
 30
0.0
 11
2304.187951
 21
1735.886309
 31
0.0
  0
LINE
  5
79E0
100
AcDbEntity
  8
0
100
AcDbLine
 10
2284.390435
 20
1757.386309
 30
0.0
 11
2284.390435
 21
1729.386309
 31
0.0
  0
LINE
  5
79E1
100
AcDbEntity
  8
0
100
AcDbLine
 10
2289.187951
 20
1750.886309
 30
0.0
 11
2289.187951
 21
1735.886309
 31
0.0
  0
LINE
  5
79E2
100
AcDbEntity
  8
0
100
AcDbLine
 10
2307.187951
 20
1743.386309
 30
0.0
 11
2307.187951
 21
1721.386309
 31
0.0
  0
ARC
  5
79E3
100
AcDbEntity
  8
0
100
AcDbCircle
 10
2280.390435
 20
1729.386309
 30
0.0
 40
4.0
100
AcDbArc
 50
270.0
 51
360.0
  0
ARC
  5
79E4
100
AcDbEntity
  8
0
100
AcDbCircle
 10
2288.187951
 20
1717.386309
 30
0.0
 40
4.0
100
AcDbArc
 50
90.0
 51
180.0
  0
LINE
  5
79E5
100
AcDbEntity
  8
0
100
AcDbLine
 10
2307.187951
 20
1721.386309
 30
0.0
 11
2288.187951
 21
1721.386309
 31
0.0
  0
ARC
  5
79E6
100
AcDbEntity
  8
0
100
AcDbCircle
 10
2302.687951
 20
1735.886309
 30
0.0
 40
1.5
100
AcDbArc
 50
270.0
 51
360.0
  0
LINE
  5
79E7
100
AcDbEntity
  8
0
100
AcDbLine
 10
2290.687951
 20
1734.386309
 30
0.0
 11
2302.687951
 21
1734.386309
 31
0.0
  0
ARC
  5
79E8
100
AcDbEntity
  8
0
100
AcDbCircle
 10
2290.687951
 20
1735.886309
 30
0.0
 40
1.5
100
AcDbArc
 50
180.0
 51
270.0
  0
LINE
  5
79E9
100
AcDbEntity
  8
0
100
AcDbLine
 10
2292.937951
 20
1757.386309
 30
0.0
 11
2292.937951
 21
1768.386309
 31
0.0
  0
ARC
  5
79EA
100
AcDbEntity
  8
0
100
AcDbCircle
 10
2302.687951
 20
1750.886309
 30
0.0
 40
1.5
100
AcDbArc
 50
360.0
 51
90.0
  0
LINE
  5
79EB
100
AcDbEntity
  8
0
100
AcDbLine
 10
2290.687951
 20
1752.386309
 30
0.0
 11
2302.687951
 21
1752.386309
 31
0.0
  0
ARC
  5
79EC
100
AcDbEntity
  8
0
100
AcDbCircle
 10
2290.687951
 20
1750.886309
 30
0.0
 40
1.5
100
AcDbArc
 50
90.0
 51
180.0
  0
LINE
  5
79ED
100
AcDbEntity
  8
0
100
AcDbLine
 10
2295.937951
 20
1765.386309
 30
0.0
 11
2292.937951
 21
1768.386309
 31
0.0
  0
LINE
  5
79EE
100
AcDbEntity
  8
0
100
AcDbLine
 10
2304.187951
 20
1768.386309
 30
0.0
 11
2305.895058
 21
1765.386309
 31
0.0
  0
LINE
  5
79EF
100
AcDbEntity
  8
0
100
AcDbLine
 10
2295.937951
 20
1765.386309
 30
0.0
 11
2307.187951
 21
1765.386309
 31
0.0
  0
LINE
  5
79F0
100
AcDbEntity
  8
0
100
AcDbLine
 10
2292.937951
 20
1769.386309
 30
0.0
 11
2292.937951
 21
1768.386309
 31
0.0
  0
LINE
  5
79F1
100
AcDbEntity
  8
0
100
AcDbLine
 10
2304.187951
 20
1768.386309
 30
0.0
 11
2304.187951
 21
1769.386309
 31
0.0
  0
LINE
  5
79F2
100
AcDbEntity
  8
0
100
AcDbLine
 10
2231.953382
 20
1787.912466
 30
0.0
 11
2229.499643
 21
1788.847584
 31
0.0
  0
LINE
  5
79F3
100
AcDbEntity
  8
0
100
AcDbLine
 10
2230.388427
 20
1788.847584
 30
0.0
 11
2231.953382
 21
1787.912466
 31
0.0
  0
LINE
  5
79F4
100
AcDbEntity
  8
0
100
AcDbLine
 10
2292.94298
 20
1781.886309
 30
0.0
 11
2207.19298
 21
1781.886309
 31
0.0
  0
LINE
  5
79F5
100
AcDbEntity
  8
0
100
AcDbLine
 10
2212.323473
 20
1787.912466
 30
0.0
 11
2214.777211
 21
1788.847584
 31
0.0
  0
LINE
  5
79F6
100
AcDbEntity
  8
0
100
AcDbLine
 10
2212.323473
 20
1787.912466
 30
0.0
 11
2213.888427
 21
1788.847584
 31
0.0
  0
LINE
  5
79F7
100
AcDbEntity
  8
0
100
AcDbLine
 10
2214.777211
 20
1788.847584
 30
0.0
 11
2217.23095
 21
1787.912466
 31
0.0
  0
LINE
  5
79F8
100
AcDbEntity
  8
0
100
AcDbLine
 10
2229.499643
 20
1788.847584
 30
0.0
 11
2227.045904
 21
1787.912466
 31
0.0
  0
LINE
  5
79F9
100
AcDbEntity
  8
0
100
AcDbLine
 10
2222.138427
 20
1788.847584
 30
0.0
 11
2227.087675
 21
1787.895866
 31
0.0
  0
LINE
  5
79FA
100
AcDbEntity
  8
0
100
AcDbLine
 10
2217.23095
 20
1787.912466
 30
0.0
 11
2222.138427
 21
1788.847584
 31
0.0
  0
LINE
  5
79FB
100
AcDbEntity
  8
0
100
AcDbLine
 10
2213.888427
 20
1788.847584
 30
0.0
 11
2230.388427
 21
1788.847584
 31
0.0
  0
LINE
  5
79FC
100
AcDbEntity
  8
0
100
AcDbLine
 10
2217.23095
 20
1787.912466
 30
0.0
 11
2217.23095
 21
1781.847584
 31
0.0
  0
LINE
  5
79FD
100
AcDbEntity
  8
0
100
AcDbLine
 10
2212.323473
 20
1781.844719
 30
0.0
 11
2212.323473
 21
1787.912466
 31
0.0
  0
LINE
  5
79FE
100
AcDbEntity
  8
0
100
AcDbLine
 10
2227.045904
 20
1787.912466
 30
0.0
 11
2227.045904
 21
1781.847584
 31
0.0
  0
LINE
  5
79FF
100
AcDbEntity
  8
0
100
AcDbLine
 10
2243.69298
 20
1795.347584
 30
0.0
 11
2243.69298
 21
1808.347584
 31
0.0
  0
LINE
  5
7A00
100
AcDbEntity
  8
0
100
AcDbLine
 10
2260.69298
 20
1795.347584
 30
0.0
 11
2260.69298
 21
1808.347584
 31
0.0
  0
LINE
  5
7A01
100
AcDbEntity
  8
0
100
AcDbLine
 10
2272.427549
 20
1786.347584
 30
0.0
 11
2231.953382
 21
1786.347584
 31
0.0
  0
LINE
  5
7A02
100
AcDbEntity
  8
0
100
AcDbLine
 10
2231.953382
 20
1787.912466
 30
0.0
 11
2231.953382
 21
1781.847584
 31
0.0
  0
LINE
  5
7A03
100
AcDbEntity
  8
0
100
AcDbLine
 10
2262.19298
 20
1795.347584
 30
0.0
 11
2242.19298
 21
1795.347584
 31
0.0
  0
LINE
  5
7A04
100
AcDbEntity
  8
0
100
AcDbLine
 10
2242.19298
 20
1786.386309
 30
0.0
 11
2242.19298
 21
1795.347584
 31
0.0
  0
LINE
  5
7A05
100
AcDbEntity
  8
0
100
AcDbLine
 10
2262.19298
 20
1786.386309
 30
0.0
 11
2262.19298
 21
1795.347584
 31
0.0
  0
LINE
  5
7A06
100
AcDbEntity
  8
0
100
AcDbLine
 10
2287.149981
 20
1787.912466
 30
0.0
 11
2282.242504
 21
1788.847584
 31
0.0
  0
LINE
  5
7A07
100
AcDbEntity
  8
0
100
AcDbLine
 10
2282.242504
 20
1788.847584
 30
0.0
 11
2277.293255
 21
1787.895866
 31
0.0
  0
LINE
  5
7A08
100
AcDbEntity
  8
0
100
AcDbLine
 10
2274.881288
 20
1788.847584
 30
0.0
 11
2277.335026
 21
1787.912466
 31
0.0
  0
LINE
  5
7A09
100
AcDbEntity
  8
0
100
AcDbLine
 10
2273.992504
 20
1788.847584
 30
0.0
 11
2272.427549
 21
1787.912466
 31
0.0
  0
LINE
  5
7A0A
100
AcDbEntity
  8
0
100
AcDbLine
 10
2272.427549
 20
1787.912466
 30
0.0
 11
2274.881288
 21
1788.847584
 31
0.0
  0
LINE
  5
7A0B
100
AcDbEntity
  8
0
100
AcDbLine
 10
2289.603719
 20
1788.847584
 30
0.0
 11
2287.149981
 21
1787.912466
 31
0.0
  0
LINE
  5
7A0C
100
AcDbEntity
  8
0
100
AcDbLine
 10
2292.057458
 20
1787.912466
 30
0.0
 11
2290.492504
 21
1788.847584
 31
0.0
  0
LINE
  5
7A0D
100
AcDbEntity
  8
0
100
AcDbLine
 10
2292.057458
 20
1787.912466
 30
0.0
 11
2289.603719
 21
1788.847584
 31
0.0
  0
LINE
  5
7A0E
100
AcDbEntity
  8
0
100
AcDbLine
 10
2290.492504
 20
1788.847584
 30
0.0
 11
2273.992504
 21
1788.847584
 31
0.0
  0
LINE
  5
7A0F
100
AcDbEntity
  8
0
100
AcDbLine
 10
2272.427549
 20
1787.912466
 30
0.0
 11
2272.427549
 21
1781.847584
 31
0.0
  0
LINE
  5
7A10
100
AcDbEntity
  8
0
100
AcDbLine
 10
2277.335026
 20
1787.912466
 30
0.0
 11
2277.335026
 21
1781.847584
 31
0.0
  0
LINE
  5
7A11
100
AcDbEntity
  8
0
100
AcDbLine
 10
2292.057458
 20
1781.844719
 30
0.0
 11
2292.057458
 21
1787.912466
 31
0.0
  0
LINE
  5
7A12
100
AcDbEntity
  8
0
100
AcDbLine
 10
2287.149981
 20
1787.912466
 30
0.0
 11
2287.149981
 21
1781.847584
 31
0.0
  0
LINE
  5
7A13
100
AcDbEntity
  8
0
100
AcDbLine
 10
2260.69298
 20
1808.347584
 30
0.0
 11
2243.69298
 21
1808.347584
 31
0.0
  0
TEXT
  5
7E1B
100
AcDbEntity
  8
0
100
AcDbText
 10
342.995022
 20
396.549326
 30
0.0
 40
35.0
  1
正面
100
AcDbText
  0
TEXT
  5
7E1C
100
AcDbEntity
  8
0
100
AcDbText
 10
342.995022
 20
606.86676
 30
0.0
 40
35.0
  1
平面
100
AcDbText
  0
TEXT
  5
7E1D
100
AcDbEntity
  8
0
100
AcDbText
 10
342.995022
 20
828.647551
 30
0.0
 40
35.0
  1
背面
100
AcDbText
  0
LINE
  5
7E1E
100
AcDbEntity
  8
0
100
AcDbLine
 10
1569.592678
 20
821.158475
 30
0.0
 11
1533.077625
 21
804.131226
 31
0.0
  0
LINE
  5
7E1F
100
AcDbEntity
  8
0
100
AcDbLine
 10
1593.768098
 20
842.158475
 30
0.0
 11
1593.768098
 21
792.158475
 31
0.0
  0
LINE
  5
7E20
100
AcDbEntity
  8
0
100
AcDbLine
 10
1466.768098
 20
785.158475
 30
0.0
 11
1466.768098
 21
838.158475
 31
0.0
  0
LINE
  5
7E21
100
AcDbEntity
  8
0
100
AcDbLine
 10
1422.943518
 20
821.158475
 30
0.0
 11
1447.458571
 21
809.726918
 31
0.0
  0
LINE
  5
7E22
100
AcDbEntity
  8
0
100
AcDbLine
 10
1398.768098
 20
842.158475
 30
0.0
 11
1398.768098
 21
792.158475
 31
0.0
  0
LINE
  5
7E23
100
AcDbEntity
  8
0
100
AcDbLine
 10
1416.768098
 20
792.158475
 30
0.0
 11
1416.768098
 21
892.158475
 31
0.0
  0
LINE
  5
7E24
100
AcDbEntity
  8
0
100
AcDbLine
 10
1575.768098
 20
792.158475
 30
0.0
 11
1575.768098
 21
892.158475
 31
0.0
  0
ARC
  5
7E25
100
AcDbEntity
  8
0
100
AcDbCircle
 10
919.942468
 20
814.195607
 30
0.0
 40
6.0
100
AcDbArc
 50
105.0
 51
180.0
  0
LINE
  5
7E26
100
AcDbEntity
  8
0
100
AcDbLine
 10
849.942468
 20
795.658475
 30
0.0
 11
849.942468
 21
843.158475
 31
0.0
  0
LINE
  5
7E27
100
AcDbEntity
  8
0
100
AcDbLine
 10
832.942468
 20
798.289536
 30
0.0
 11
832.942468
 21
818.945651
 31
0.0
  0
LINE
  5
7E28
100
AcDbEntity
  8
0
100
AcDbLine
 10
966.942468
 20
794.658475
 30
0.0
 11
966.942468
 21
842.158475
 31
0.0
  0
LINE
  5
7E29
100
AcDbEntity
  8
0
100
AcDbLine
 10
791.942468
 20
794.658475
 30
0.0
 11
791.942468
 21
842.158475
 31
0.0
  0
LINE
  5
7E2A
100
AcDbEntity
  8
0
100
AcDbLine
 10
807.942468
 20
889.658475
 30
0.0
 11
807.942468
 21
794.658475
 31
0.0
  0
LINE
  5
7E2B
100
AcDbEntity
  8
0
100
AcDbLine
 10
950.942468
 20
794.658475
 30
0.0
 11
950.942468
 21
889.658475
 31
0.0
  0
ELLIPSE
  5
7E2C
100
AcDbEntity
  8
0
100
AcDbEllipse
 10
1070.260771
 20
361.594324
 30
0.0
 11
0.0
 21
13.93038875380669
 31
0.0
210
0.0
220
0.0
230
1.0
 40
0.969104
 41
4.236506730724272
 42
5.876531357288302
  0
ELLIPSE
  5
7E2D
100
AcDbEntity
  8
0
100
AcDbEllipse
 10
1070.260771
 20
360.093259
 30
0.0
 11
-12.0
 21
0.0
 31
0.0
210
0.0
220
0.0
230
1.0
 40
0.965926
 41
0.0
 42
6.283185307179586
  0
ELLIPSE
  5
7E2E
100
AcDbEntity
  8
0
100
AcDbEllipse
 10
1070.260771
 20
361.594324
 30
0.0
 11
0.0
 21
13.93038875380669
 31
0.0
210
0.0
220
0.0
230
1.0
 40
0.969104
 41
6.689839257070869
 42
8.329863883634899
  0
ARC
  5
7E2F
100
AcDbEntity
  8
0
100
AcDbCircle
 10
1070.260771
 20
375.08759
 30
0.0
 40
32.0
100
AcDbArc
 50
199.901179
 51
0.0
  0
LINE
  5
7E30
100
AcDbEntity
  8
0
100
AcDbLine
 10
1037.260771
 20
366.08759
 30
0.0
 11
1037.260771
 21
344.08759
 31
0.0
  0
LINE
  5
7E31
100
AcDbEntity
  8
0
100
AcDbLine
 10
1058.260771
 20
366.752123
 30
0.0
 11
1058.260771
 21
353.367862
 31
0.0
  0
LINE
  5
7E32
100
AcDbEntity
  8
0
100
AcDbLine
 10
1082.260771
 20
366.752123
 30
0.0
 11
1082.260771
 21
353.367862
 31
0.0
  0
LINE
  5
7E33
100
AcDbEntity
  8
0
100
AcDbLine
 10
934.898017
 20
359.558447
 30
0.0
 11
932.06959
 21
353.143718
 31
0.0
  0
LINE
  5
7E34
100
AcDbEntity
  8
0
100
AcDbLine
 10
938.003846
 20
371.149557
 30
0.0
 11
931.792189
 21
347.967337
 31
0.0
  0
ARC
  5
7E36
100
AcDbEntity
  8
0
100
AcDbCircle
 10
876.942468
 20
375.08759
 30
0.0
 40
32.0
100
AcDbArc
 50
180.0
 51
315.890091
  0
LINE
  5
7E37
100
AcDbEntity
  8
0
100
AcDbLine
 10
931.242365
 20
372.96129
 30
0.0
 11
925.030708
 21
349.779071
 31
0.0
  0
LINE
  5
7E38
100
AcDbEntity
  8
0
100
AcDbLine
 10
928.136537
 20
361.370181
 30
0.0
 11
927.378662
 21
354.400649
 31
0.0
  0
LINE
  5
7E39
100
AcDbEntity
  8
0
100
AcDbLine
 10
681.564193
 20
366.08759
 30
0.0
 11
681.564193
 21
344.08759
 31
0.0
  0
ARC
  5
7E3A
100
AcDbEntity
  8
0
100
AcDbCircle
 10
648.564193
 20
375.08759
 30
0.0
 40
32.0
100
AcDbArc
 50
180.0
 51
340.098821
  0
LINE
  5
7E3C
100
AcDbEntity
  8
0
100
AcDbLine
 10
681.564193
 20
344.08759
 30
0.0
 11
656.501447
 21
344.08759
 31
0.0
  0
TEXT
  5
7E3D
100
AcDbEntity
  8
0
100
AcDbText
 10
850.213693
 20
257.217526
 30
0.0
 40
25.0
  1
15A
 72
     4
 11
881.166074
 21
269.717526
 31
0.0
100
AcDbText
  0
LINE
  5
7E3E
100
AcDbEntity
  8
0
100
AcDbLine
 10
930.276439
 20
346.451588
 30
0.0
 11
925.585511
 21
347.708518
 31
0.0
  0
LINE
  5
7E3F
100
AcDbEntity
  8
0
100
AcDbLine
 10
932.06959
 20
353.143718
 30
0.0
 11
927.378662
 21
354.400649
 31
0.0
  0
LINE
  5
7E40
100
AcDbEntity
  8
0
100
AcDbLine
 10
924.214211
 20
348.962574
 30
0.0
 11
904.802783
 21
354.163851
 31
0.0
  0
ARC
  5
7E41
100
AcDbEntity
  8
0
100
AcDbCircle
 10
903.508687
 20
349.334222
 30
0.0
 40
5.0
100
AcDbArc
 50
75.0
 51
135.890091
  0
ARC
  5
7E42
100
AcDbEntity
  8
0
100
AcDbCircle
 10
876.942468
 20
375.08759
 30
0.0
 40
32.0
100
AcDbArc
 50
315.890091
 51
315.890091
  0
LINE
  5
7E43
100
AcDbEntity
  8
0
100
AcDbLine
 10
925.030708
 20
349.779071
 30
0.0
 11
925.585511
 21
347.708518
 31
0.0
  0
LINE
  5
7E44
100
AcDbEntity
  8
0
100
AcDbLine
 10
925.030708
 20
349.779071
 30
0.0
 11
924.214211
 21
348.962574
 31
0.0
  0
LINE
  5
7E45
100
AcDbEntity
  8
0
100
AcDbLine
 10
927.378662
 20
354.400649
 30
0.0
 11
925.460361
 21
351.382558
 31
0.0
  0
LINE
  5
7E46
100
AcDbEntity
  8
0
100
AcDbLine
 10
932.06959
 20
353.143718
 30
0.0
 11
932.19474
 21
349.469679
 31
0.0
  0
LINE
  5
7E47
100
AcDbEntity
  8
0
100
AcDbLine
 10
931.792189
 20
347.967337
 30
0.0
 11
930.276439
 21
346.451588
 31
0.0
  0
LINE
  5
7E48
100
AcDbEntity
  8
0
100
AcDbLine
 10
1037.260771
 20
344.08759
 30
0.0
 11
1062.323517
 21
344.08759
 31
0.0
  0
LINE
  5
7E49
100
AcDbEntity
  8
0
100
AcDbLine
 10
1070.260771
 20
346.675732
 30
0.0
 11
1082.260771
 21
353.367862
 31
0.0
  0
ELLIPSE
  5
7E4A
100
AcDbEntity
  8
0
100
AcDbEllipse
 10
1070.260771
 20
361.594324
 30
0.0
 11
0.0
 21
13.93038875380669
 31
0.0
210
0.0
220
0.0
230
1.0
 40
0.969104
 41
3.295259037080921
 42
3.978885935016277
  0
ELLIPSE
  5
7E4B
100
AcDbEntity
  8
0
100
AcDbEllipse
 10
1070.260771
 20
361.594324
 30
0.0
 11
0.0
 21
13.93038875380669
 31
0.0
210
0.0
220
0.0
230
1.0
 40
0.969104
 41
8.587484679343077
 42
9.271111577278432
  0
LINE
  5
7E4C
100
AcDbEntity
  8
0
100
AcDbLine
 10
1070.260771
 20
346.675732
 30
0.0
 11
1058.260771
 21
353.367862
 31
0.0
  0
LINE
  5
7E4D
100
AcDbEntity
  8
0
100
AcDbLine
 10
1070.260771
 20
348.470899
 30
0.0
 11
1070.260771
 21
348.470899
 31
0.0
  0
ARC
  5
7E4E
100
AcDbEntity
  8
0
100
AcDbCircle
 10
811.942468
 20
651.389174
 30
0.0
 40
4.0
100
AcDbArc
 50
180.0
 51
248.198591
  0
ARC
  5
7E4F
100
AcDbEntity
  8
0
100
AcDbCircle
 10
811.942468
 20
613.500267
 30
0.0
 40
4.0
100
AcDbArc
 50
111.801409
 51
180.0
  0
ARC
  5
7E50
100
AcDbEntity
  8
0
100
AcDbCircle
 10
811.942468
 20
440.532044
 30
0.0
 40
4.0
100
AcDbArc
 50
180.0
 51
248.198591
  0
ARC
  5
7E51
100
AcDbEntity
  8
0
100
AcDbCircle
 10
811.942468
 20
401.33759
 30
0.0
 40
4.0
100
AcDbArc
 50
90.0
 51
180.0
  0
LINE
  5
7E52
100
AcDbEntity
  8
0
100
AcDbLine
 10
807.942468
 20
584.944721
 30
0.0
 11
807.942468
 21
679.944721
 31
0.0
  0
LINE
  5
7E53
100
AcDbEntity
  8
0
100
AcDbLine
 10
791.942468
 20
584.944721
 30
0.0
 11
791.942468
 21
632.444721
 31
0.0
  0
CIRCLE
  5
7E54
100
AcDbEntity
  8
0
100
AcDbCircle
 10
648.564193
 20
421.58759
 30
0.0
 40
47.5
  0
LINE
  5
7E55
100
AcDbEntity
  8
0
100
AcDbLine
 10
638.564193
 20
468.023029
 30
0.0
 11
638.564193
 21
473.58759
 31
0.0
  0
LINE
  5
7E56
100
AcDbEntity
  8
0
100
AcDbLine
 10
643.301422
 20
468.795145
 30
0.0
 11
643.301422
 21
473.58759
 31
0.0
  0
LINE
  5
7E57
100
AcDbEntity
  8
0
100
AcDbLine
 10
653.837022
 20
468.794023
 30
0.0
 11
653.837022
 21
473.58759
 31
0.0
  0
LINE
  5
7E58
100
AcDbEntity
  8
0
100
AcDbLine
 10
658.564193
 20
468.023029
 30
0.0
 11
658.564193
 21
473.58759
 31
0.0
  0
LINE
  5
7E59
100
AcDbEntity
  8
0
100
AcDbLine
 10
616.564193
 20
375.08759
 30
0.0
 11
616.564193
 21
386.484171
 31
0.0
  0
CIRCLE
  5
7E5A
100
AcDbEntity
  8
0
100
AcDbCircle
 10
623.864193
 20
396.790211
 30
0.0
 40
7.5
  0
LINE
  5
7E5B
100
AcDbEntity
  8
0
100
AcDbLine
 10
680.564193
 20
375.08759
 30
0.0
 11
680.564193
 21
386.484171
 31
0.0
  0
ARC
  5
7E5C
100
AcDbEntity
  8
0
100
AcDbCircle
 10
682.934009
 20
368.756598
 30
0.0
 40
3.0
100
AcDbArc
 50
179.776184
 51
242.831729
  0
ARC
  5
7E5D
100
AcDbEntity
  8
0
100
AcDbCircle
 10
648.564193
 20
375.08759
 30
0.0
 40
32.0
100
AcDbArc
 50
348.610524
 51
0.0
  0
CIRCLE
  5
7E5E
100
AcDbEntity
  8
0
100
AcDbCircle
 10
679.934032
 20
368.768317
 30
0.0
 40
0.0
  0
CIRCLE
  5
7E5F
100
AcDbEntity
  8
0
100
AcDbCircle
 10
673.264193
 20
396.790211
 30
0.0
 40
7.5
  0
CIRCLE
  5
7E60
100
AcDbEntity
  8
0
100
AcDbCircle
 10
623.864193
 20
446.384969
 30
0.0
 40
7.5
  0
CIRCLE
  5
7E61
100
AcDbEntity
  8
0
100
AcDbCircle
 10
673.264193
 20
446.384969
 30
0.0
 40
7.5
  0
LINE
  5
7E62
100
AcDbEntity
  8
0
100
AcDbLine
 10
791.942468
 20
374.08759
 30
0.0
 11
791.942468
 21
421.58759
 31
0.0
  0
LINE
  5
7E63
100
AcDbEntity
  8
0
100
AcDbLine
 10
807.942468
 20
469.08759
 30
0.0
 11
807.942468
 21
374.08759
 31
0.0
  0
LINE
  5
7E64
100
AcDbEntity
  8
0
100
AcDbLine
 10
791.942468
 20
374.08759
 30
0.0
 11
807.942468
 21
374.08759
 31
0.0
  0
LINE
  5
7E65
100
AcDbEntity
  8
0
100
AcDbLine
 10
791.942468
 20
421.58759
 30
0.0
 11
791.942468
 21
469.08759
 31
0.0
  0
LINE
  5
7E66
100
AcDbEntity
  8
0
100
AcDbLine
 10
791.942468
 20
469.08759
 30
0.0
 11
807.942468
 21
469.08759
 31
0.0
  0
LINE
  5
7E67
100
AcDbEntity
  8
0
100
AcDbLine
 10
638.564193
 20
473.58759
 30
0.0
 11
658.564193
 21
473.58759
 31
0.0
  0
LINE
  5
7E68
100
AcDbEntity
  8
0
100
AcDbLine
 10
807.942468
 20
584.944721
 30
0.0
 11
791.942468
 21
584.944721
 31
0.0
  0
LINE
  5
7E69
100
AcDbEntity
  8
0
100
AcDbLine
 10
791.942468
 20
632.444721
 30
0.0
 11
791.942468
 21
679.944721
 31
0.0
  0
LINE
  5
7E6A
100
AcDbEntity
  8
0
100
AcDbLine
 10
807.942468
 20
679.944721
 30
0.0
 11
791.942468
 21
679.944721
 31
0.0
  0
LINE
  5
7E6B
100
AcDbEntity
  8
0
100
AcDbLine
 10
791.942468
 20
794.658475
 30
0.0
 11
807.942468
 21
794.658475
 31
0.0
  0
LINE
  5
7E6C
100
AcDbEntity
  8
0
100
AcDbLine
 10
864.307106
 20
584.444721
 30
0.0
 11
864.307106
 21
592.444721
 31
0.0
  0
LINE
  5
7E6D
100
AcDbEntity
  8
0
100
AcDbLine
 10
886.307106
 20
584.444721
 30
0.0
 11
886.307106
 21
592.444721
 31
0.0
  0
LINE
  5
7E6E
100
AcDbEntity
  8
0
100
AcDbLine
 10
950.942468
 20
679.944721
 30
0.0
 11
950.942468
 21
584.944721
 31
0.0
  0
LINE
  5
7E6F
100
AcDbEntity
  8
0
100
AcDbLine
 10
966.942468
 20
584.944721
 30
0.0
 11
966.942468
 21
632.444721
 31
0.0
  0
LINE
  5
7E70
100
AcDbEntity
  8
0
100
AcDbLine
 10
868.442468
 20
460.58759
 30
0.0
 11
868.442468
 21
473.58759
 31
0.0
  0
LINE
  5
7E71
100
AcDbEntity
  8
0
100
AcDbLine
 10
885.442468
 20
460.58759
 30
0.0
 11
885.442468
 21
473.58759
 31
0.0
  0
LINE
  5
7E72
100
AcDbEntity
  8
0
100
AcDbLine
 10
856.705384
 20
451.58759
 30
0.0
 11
897.179551
 21
451.58759
 31
0.0
  0
LINE
  5
7E73
100
AcDbEntity
  8
0
100
AcDbLine
 10
917.442468
 20
434.58759
 30
0.0
 11
824.942468
 21
434.58759
 31
0.0
  0
LINE
  5
7E74
100
AcDbEntity
  8
0
100
AcDbLine
 10
836.192468
 20
434.58759
 30
0.0
 11
919.953085
 21
434.58759
 31
0.0
  0
LINE
  5
7E75
100
AcDbEntity
  8
0
100
AcDbLine
 10
836.192468
 20
447.08759
 30
0.0
 11
919.953085
 21
447.08759
 31
0.0
  0
LINE
  5
7E76
100
AcDbEntity
  8
0
100
AcDbLine
 10
905.942468
 20
403.58759
 30
0.0
 11
847.942468
 21
403.58759
 31
0.0
  0
LINE
  5
7E77
100
AcDbEntity
  8
0
100
AcDbLine
 10
919.953085
 20
422.58759
 30
0.0
 11
885.816587
 21
422.58759
 31
0.0
  0
LINE
  5
7E78
100
AcDbEntity
  8
0
100
AcDbLine
 10
844.942468
 20
406.58759
 30
0.0
 11
844.942468
 21
422.58759
 31
0.0
  0
CIRCLE
  5
7E79
100
AcDbEntity
  8
0
100
AcDbCircle
 10
876.942468
 20
416.08759
 30
0.0
 40
11.0
  0
LINE
  5
7E7A
100
AcDbEntity
  8
0
100
AcDbLine
 10
844.942468
 20
375.08759
 30
0.0
 11
844.942468
 21
393.624721
 31
0.0
  0
LINE
  5
7E7B
100
AcDbEntity
  8
0
100
AcDbLine
 10
818.411667
 20
405.33759
 30
0.0
 11
840.495382
 21
399.420276
 31
0.0
  0
LINE
  5
7E7C
100
AcDbEntity
  8
0
100
AcDbLine
 10
811.942468
 20
405.33759
 30
0.0
 11
818.411667
 21
405.33759
 31
0.0
  0
ARC
  5
7E7D
100
AcDbEntity
  8
0
100
AcDbCircle
 10
847.942468
 20
406.58759
 30
0.0
 40
3.0
100
AcDbArc
 50
180.0
 51
270.0
  0
ARC
  5
7E7E
100
AcDbEntity
  8
0
100
AcDbCircle
 10
838.942468
 20
393.624721
 30
0.0
 40
6.0
100
AcDbArc
 50
0.0
 51
75.0
  0
LINE
  5
7E7F
100
AcDbEntity
  8
0
100
AcDbLine
 10
846.89043
 20
454.08759
 30
0.0
 11
851.839678
 21
453.135872
 31
0.0
  0
LINE
  5
7E80
100
AcDbEntity
  8
0
100
AcDbLine
 10
838.64043
 20
454.08759
 30
0.0
 11
855.14043
 21
454.08759
 31
0.0
  0
LINE
  5
7E81
100
AcDbEntity
  8
0
100
AcDbLine
 10
868.068348
 20
422.58759
 30
0.0
 11
836.942468
 21
422.58759
 31
0.0
  0
LINE
  5
7E82
100
AcDbEntity
  8
0
100
AcDbLine
 10
836.192468
 20
434.58759
 30
0.0
 11
836.192468
 21
447.08759
 31
0.0
  0
LINE
  5
7E83
100
AcDbEntity
  8
0
100
AcDbLine
 10
836.942468
 20
432.58759
 30
0.0
 11
821.033272
 21
432.58759
 31
0.0
  0
LINE
  5
7E84
100
AcDbEntity
  8
0
100
AcDbLine
 10
824.942468
 20
432.58759
 30
0.0
 11
824.942468
 21
434.58759
 31
0.0
  0
LINE
  5
7E85
100
AcDbEntity
  8
0
100
AcDbLine
 10
821.033272
 20
432.58759
 30
0.0
 11
810.456905
 21
436.818137
 31
0.0
  0
LINE
  5
7E86
100
AcDbEntity
  8
0
100
AcDbLine
 10
836.942468
 20
422.58759
 30
0.0
 11
836.942468
 21
434.58759
 31
0.0
  0
LINE
  5
7E87
100
AcDbEntity
  8
0
100
AcDbLine
 10
841.982952
 20
453.152472
 30
0.0
 11
841.982952
 21
447.08759
 31
0.0
  0
LINE
  5
7E88
100
AcDbEntity
  8
0
100
AcDbLine
 10
837.075475
 20
447.084725
 30
0.0
 11
837.075475
 21
453.152472
 31
0.0
  0
LINE
  5
7E89
100
AcDbEntity
  8
0
100
AcDbLine
 10
837.075475
 20
453.152472
 30
0.0
 11
839.529214
 21
454.08759
 31
0.0
  0
LINE
  5
7E8A
100
AcDbEntity
  8
0
100
AcDbLine
 10
837.075475
 20
453.152472
 30
0.0
 11
838.64043
 21
454.08759
 31
0.0
  0
LINE
  5
7E8B
100
AcDbEntity
  8
0
100
AcDbLine
 10
839.529214
 20
454.08759
 30
0.0
 11
841.982952
 21
453.152472
 31
0.0
  0
LINE
  5
7E8C
100
AcDbEntity
  8
0
100
AcDbLine
 10
841.982952
 20
453.152472
 30
0.0
 11
846.89043
 21
454.08759
 31
0.0
  0
LINE
  5
7E8D
100
AcDbEntity
  8
0
100
AcDbLine
 10
866.942468
 20
460.58759
 30
0.0
 11
886.942468
 21
460.58759
 31
0.0
  0
LINE
  5
7E8E
100
AcDbEntity
  8
0
100
AcDbLine
 10
866.942468
 20
451.58759
 30
0.0
 11
866.942468
 21
460.58759
 31
0.0
  0
LINE
  5
7E8F
100
AcDbEntity
  8
0
100
AcDbLine
 10
851.797907
 20
453.152472
 30
0.0
 11
851.797907
 21
447.08759
 31
0.0
  0
LINE
  5
7E90
100
AcDbEntity
  8
0
100
AcDbLine
 10
856.705384
 20
453.152472
 30
0.0
 11
856.705384
 21
447.08759
 31
0.0
  0
LINE
  5
7E91
100
AcDbEntity
  8
0
100
AcDbLine
 10
856.705384
 20
453.152472
 30
0.0
 11
854.251646
 21
454.08759
 31
0.0
  0
LINE
  5
7E92
100
AcDbEntity
  8
0
100
AcDbLine
 10
855.14043
 20
454.08759
 30
0.0
 11
856.705384
 21
453.152472
 31
0.0
  0
LINE
  5
7E93
100
AcDbEntity
  8
0
100
AcDbLine
 10
854.251646
 20
454.08759
 30
0.0
 11
851.797907
 21
453.152472
 31
0.0
  0
LINE
  5
7E94
100
AcDbEntity
  8
0
100
AcDbLine
 10
886.942468
 20
451.58759
 30
0.0
 11
886.942468
 21
460.58759
 31
0.0
  0
LINE
  5
7E95
100
AcDbEntity
  8
0
100
AcDbLine
 10
908.942468
 20
375.08759
 30
0.0
 11
908.942468
 21
422.58759
 31
0.0
  0
LINE
  5
7E96
100
AcDbEntity
  8
0
100
AcDbLine
 10
966.942468
 20
374.08759
 30
0.0
 11
966.942468
 21
421.58759
 31
0.0
  0
LINE
  5
7E97
100
AcDbEntity
  8
0
100
AcDbLine
 10
950.942468
 20
469.08759
 30
0.0
 11
950.942468
 21
374.08759
 31
0.0
  0
LINE
  5
7E98
100
AcDbEntity
  8
0
100
AcDbLine
 10
940.473268
 20
405.33759
 30
0.0
 11
928.907192
 21
402.238469
 31
0.0
  0
LINE
  5
7E99
100
AcDbEntity
  8
0
100
AcDbLine
 10
930.964964
 20
367.78491
 30
0.0
 11
928.136537
 21
361.370181
 31
0.0
  0
LINE
  5
7E9A
100
AcDbEntity
  8
0
100
AcDbLine
 10
930.943507
 20
374.076646
 30
0.0
 11
928.166011
 21
374.820873
 31
0.0
  0
LINE
  5
7E9B
100
AcDbEntity
  8
0
100
AcDbLine
 10
925.942468
 20
377.718651
 30
0.0
 11
925.942468
 21
398.374766
 31
0.0
  0
ARC
  5
7E9C
100
AcDbEntity
  8
0
100
AcDbCircle
 10
876.942468
 20
375.08759
 30
0.0
 40
32.0
100
AcDbArc
 50
325.776127
 51
0.0
  0
ARC
  5
7E9D
100
AcDbEntity
  8
0
100
AcDbCircle
 10
928.942468
 20
377.718651
 30
0.0
 40
3.0
100
AcDbArc
 50
180.0
 51
255.0
  0
ARC
  5
7E9E
100
AcDbEntity
  8
0
100
AcDbCircle
 10
905.942468
 20
406.58759
 30
0.0
 40
3.0
100
AcDbArc
 50
270.0
 51
0.0
  0
ARC
  5
7E9F
100
AcDbEntity
  8
0
100
AcDbCircle
 10
929.942468
 20
398.374766
 30
0.0
 40
4.0
100
AcDbArc
 50
105.0
 51
180.0
  0
LINE
  5
7EA0
100
AcDbEntity
  8
0
100
AcDbLine
 10
938.003846
 20
371.149557
 30
0.0
 11
937.449043
 21
373.22011
 31
0.0
  0
LINE
  5
7EA1
100
AcDbEntity
  8
0
100
AcDbLine
 10
935.655892
 20
366.527979
 30
0.0
 11
930.964964
 21
367.78491
 31
0.0
  0
LINE
  5
7EA2
100
AcDbEntity
  8
0
100
AcDbLine
 10
931.242365
 20
372.96129
 30
0.0
 11
932.758115
 21
374.47704
 31
0.0
  0
LINE
  5
7EA3
100
AcDbEntity
  8
0
100
AcDbLine
 10
930.812712
 20
371.357803
 30
0.0
 11
930.964964
 21
367.78491
 31
0.0
  0
LINE
  5
7EA4
100
AcDbEntity
  8
0
100
AcDbLine
 10
931.242365
 20
372.96129
 30
0.0
 11
930.943507
 21
374.076646
 31
0.0
  0
LINE
  5
7EA5
100
AcDbEntity
  8
0
100
AcDbLine
 10
937.449043
 20
373.22011
 30
0.0
 11
932.758115
 21
374.47704
 31
0.0
  0
LINE
  5
7EA6
100
AcDbEntity
  8
0
100
AcDbLine
 10
937.574193
 20
369.54607
 30
0.0
 11
935.655892
 21
366.527979
 31
0.0
  0
LINE
  5
7EA7
100
AcDbEntity
  8
0
100
AcDbLine
 10
935.655892
 20
366.527979
 30
0.0
 11
934.898017
 21
359.558447
 31
0.0
  0
LINE
  5
7EA8
100
AcDbEntity
  8
0
100
AcDbLine
 10
966.942468
 20
374.08759
 30
0.0
 11
950.942468
 21
374.08759
 31
0.0
  0
ARC
  5
7EA9
100
AcDbEntity
  8
0
100
AcDbCircle
 10
946.942468
 20
401.33759
 30
0.0
 40
4.0
100
AcDbArc
 50
0.0
 51
90.0
  0
ARC
  5
7EAA
100
AcDbEntity
  8
0
100
AcDbCircle
 10
946.942468
 20
401.33759
 30
0.0
 40
4.0
100
AcDbArc
 50
0.0
 51
90.0
  0
LINE
  5
7EAB
100
AcDbEntity
  8
0
100
AcDbLine
 10
946.942468
 20
405.33759
 30
0.0
 11
940.473268
 21
405.33759
 31
0.0
  0
LINE
  5
7EAC
100
AcDbEntity
  8
0
100
AcDbLine
 10
937.851663
 20
432.58759
 30
0.0
 11
919.953085
 21
432.58759
 31
0.0
  0
LINE
  5
7EAD
100
AcDbEntity
  8
0
100
AcDbLine
 10
919.953085
 20
447.08759
 30
0.0
 11
919.953085
 21
422.58759
 31
0.0
  0
LINE
  5
7EAE
100
AcDbEntity
  8
0
100
AcDbLine
 10
911.901983
 20
453.152472
 30
0.0
 11
906.994506
 21
454.08759
 31
0.0
  0
LINE
  5
7EAF
100
AcDbEntity
  8
0
100
AcDbLine
 10
915.244506
 20
454.08759
 30
0.0
 11
898.744506
 21
454.08759
 31
0.0
  0
LINE
  5
7EB0
100
AcDbEntity
  8
0
100
AcDbLine
 10
899.63329
 20
454.08759
 30
0.0
 11
902.087029
 21
453.152472
 31
0.0
  0
LINE
  5
7EB1
100
AcDbEntity
  8
0
100
AcDbLine
 10
902.087029
 20
453.152472
 30
0.0
 11
902.087029
 21
447.08759
 31
0.0
  0
LINE
  5
7EB2
100
AcDbEntity
  8
0
100
AcDbLine
 10
906.994506
 20
454.08759
 30
0.0
 11
902.045258
 21
453.135872
 31
0.0
  0
LINE
  5
7EB3
100
AcDbEntity
  8
0
100
AcDbLine
 10
897.179551
 20
453.152472
 30
0.0
 11
897.179551
 21
447.08759
 31
0.0
  0
LINE
  5
7EB4
100
AcDbEntity
  8
0
100
AcDbLine
 10
898.744506
 20
454.08759
 30
0.0
 11
897.179551
 21
453.152472
 31
0.0
  0
LINE
  5
7EB5
100
AcDbEntity
  8
0
100
AcDbLine
 10
897.179551
 20
453.152472
 30
0.0
 11
899.63329
 21
454.08759
 31
0.0
  0
LINE
  5
7EB6
100
AcDbEntity
  8
0
100
AcDbLine
 10
911.901983
 20
453.152472
 30
0.0
 11
911.901983
 21
447.08759
 31
0.0
  0
LINE
  5
7EB7
100
AcDbEntity
  8
0
100
AcDbLine
 10
916.809461
 20
453.152472
 30
0.0
 11
914.355722
 21
454.08759
 31
0.0
  0
LINE
  5
7EB8
100
AcDbEntity
  8
0
100
AcDbLine
 10
916.809461
 20
453.152472
 30
0.0
 11
915.244506
 21
454.08759
 31
0.0
  0
LINE
  5
7EB9
100
AcDbEntity
  8
0
100
AcDbLine
 10
914.355722
 20
454.08759
 30
0.0
 11
911.901983
 21
453.152472
 31
0.0
  0
LINE
  5
7EBA
100
AcDbEntity
  8
0
100
AcDbLine
 10
916.809461
 20
447.084725
 30
0.0
 11
916.809461
 21
453.152472
 31
0.0
  0
LINE
  5
7EBB
100
AcDbEntity
  8
0
100
AcDbLine
 10
966.942468
 20
421.58759
 30
0.0
 11
966.942468
 21
469.08759
 31
0.0
  0
ARC
  5
7EBC
100
AcDbEntity
  8
0
100
AcDbCircle
 10
946.942468
 20
440.532044
 30
0.0
 40
4.0
100
AcDbArc
 50
291.801409
 51
0.0
  0
ARC
  5
7EBD
100
AcDbEntity
  8
0
100
AcDbCircle
 10
946.942468
 20
440.532044
 30
0.0
 40
4.0
100
AcDbArc
 50
291.801409
 51
0.0
  0
LINE
  5
7EBE
100
AcDbEntity
  8
0
100
AcDbLine
 10
937.851663
 20
432.58759
 30
0.0
 11
948.42803
 21
436.818137
 31
0.0
  0
LINE
  5
7EBF
100
AcDbEntity
  8
0
100
AcDbLine
 10
966.942468
 20
469.08759
 30
0.0
 11
950.942468
 21
469.08759
 31
0.0
  0
LINE
  5
7EC0
100
AcDbEntity
  8
0
100
AcDbLine
 10
868.442468
 20
473.58759
 30
0.0
 11
885.442468
 21
473.58759
 31
0.0
  0
LINE
  5
7EC1
100
AcDbEntity
  8
0
100
AcDbLine
 10
864.307106
 20
584.444721
 30
0.0
 11
886.307106
 21
584.444721
 31
0.0
  0
LINE
  5
7EC2
100
AcDbEntity
  8
0
100
AcDbLine
 10
966.942468
 20
584.944721
 30
0.0
 11
950.942468
 21
584.944721
 31
0.0
  0
LINE
  5
7EC3
100
AcDbEntity
  8
0
100
AcDbLine
 10
1064.998
 20
468.795145
 30
0.0
 11
1064.998
 21
473.58759
 31
0.0
  0
LINE
  5
7EC4
100
AcDbEntity
  8
0
100
AcDbLine
 10
1075.5336
 20
468.794023
 30
0.0
 11
1075.5336
 21
473.58759
 31
0.0
  0
LINE
  5
7EC5
100
AcDbEntity
  8
0
100
AcDbLine
 10
1080.260771
 20
468.023029
 30
0.0
 11
1080.260771
 21
473.58759
 31
0.0
  0
LINE
  5
7EC6
100
AcDbEntity
  8
0
100
AcDbLine
 10
1060.260771
 20
468.023029
 30
0.0
 11
1060.260771
 21
473.58759
 31
0.0
  0
CIRCLE
  5
7EC7
100
AcDbEntity
  8
0
100
AcDbCircle
 10
1045.560771
 20
446.384969
 30
0.0
 40
7.5
  0
CIRCLE
  5
7EC8
100
AcDbEntity
  8
0
100
AcDbCircle
 10
1045.560771
 20
396.790211
 30
0.0
 40
7.5
  0
CIRCLE
  5
7EC9
100
AcDbEntity
  8
0
100
AcDbCircle
 10
1070.260771
 20
421.58759
 30
0.0
 40
47.5
  0
LINE
  5
7ECA
100
AcDbEntity
  8
0
100
AcDbLine
 10
1038.260771
 20
375.08759
 30
0.0
 11
1038.260771
 21
386.484171
 31
0.0
  0
ARC
  5
7ECB
100
AcDbEntity
  8
0
100
AcDbCircle
 10
1035.890955
 20
368.756598
 30
0.0
 40
3.0
100
AcDbArc
 50
297.168271
 51
0.223816
  0
ARC
  5
7ECC
100
AcDbEntity
  8
0
100
AcDbCircle
 10
1070.260771
 20
375.08759
 30
0.0
 40
32.0
100
AcDbArc
 50
180.0
 51
191.389476
  0
CIRCLE
  5
7ECD
100
AcDbEntity
  8
0
100
AcDbCircle
 10
1038.890932
 20
368.768317
 30
0.0
 40
0.0
  0
CIRCLE
  5
7ECE
100
AcDbEntity
  8
0
100
AcDbCircle
 10
1094.960771
 20
396.790211
 30
0.0
 40
7.5
  0
LINE
  5
7ECF
100
AcDbEntity
  8
0
100
AcDbLine
 10
1070.260771
 20
373.444253
 30
0.0
 11
1082.260771
 21
366.752123
 31
0.0
  0
LINE
  5
7ED0
100
AcDbEntity
  8
0
100
AcDbLine
 10
1071.339087
 20
374.099831
 30
0.0
 11
1082.260771
 21
368.009053
 31
0.0
  0
LINE
  5
7ED1
100
AcDbEntity
  8
0
100
AcDbLine
 10
1058.260771
 20
368.009053
 30
0.0
 11
1058.260771
 21
366.752123
 31
0.0
  0
LINE
  5
7ED2
100
AcDbEntity
  8
0
100
AcDbLine
 10
1070.260771
 20
373.444253
 30
0.0
 11
1058.260771
 21
366.752123
 31
0.0
  0
LINE
  5
7ED3
100
AcDbEntity
  8
0
100
AcDbLine
 10
1055.29495
 20
376.506838
 30
0.0
 11
1056.823889
 21
360.248834
 31
0.0
  0
LINE
  5
7ED4
100
AcDbEntity
  8
0
100
AcDbLine
 10
1069.182455
 20
374.099831
 30
0.0
 11
1058.260771
 21
368.009053
 31
0.0
  0
ELLIPSE
  5
7ED5
100
AcDbEntity
  8
0
100
AcDbEllipse
 10
1070.260771
 20
362.550158
 30
0.0
 11
-15.93
 21
0.0
 31
0.0
210
0.0
220
0.0
230
1.0
 40
0.965963
 41
-0.94423901001371
 42
-0.4574104487996645
  0
LINE
  5
7ED6
100
AcDbEntity
  8
0
100
AcDbLine
 10
1070.260771
 20
374.08759
 30
0.0
 11
1070.260771
 21
373.444253
 31
0.0
  0
LINE
  5
7ED7
100
AcDbEntity
  8
0
100
AcDbLine
 10
1082.260771
 20
368.009053
 30
0.0
 11
1082.260771
 21
366.752123
 31
0.0
  0
LINE
  5
7ED8
100
AcDbEntity
  8
0
100
AcDbLine
 10
1085.226592
 20
376.506838
 30
0.0
 11
1083.697653
 21
360.248834
 31
0.0
  0
ELLIPSE
  5
7ED9
100
AcDbEntity
  8
0
100
AcDbEllipse
 10
1070.260771
 20
362.550158
 30
0.0
 11
-15.93
 21
0.0
 31
0.0
210
0.0
220
0.0
230
1.0
 40
0.965963
 41
-2.684182204789842
 42
-2.197353643576083
  0
LINE
  5
7EDA
100
AcDbEntity
  8
0
100
AcDbLine
 10
1102.260771
 20
375.08759
 30
0.0
 11
1102.260771
 21
386.484171
 31
0.0
  0
CIRCLE
  5
7EDB
100
AcDbEntity
  8
0
100
AcDbCircle
 10
1094.960771
 20
446.384969
 30
0.0
 40
7.5
  0
LINE
  5
7EDC
100
AcDbEntity
  8
0
100
AcDbLine
 10
1060.260771
 20
473.58759
 30
0.0
 11
1080.260771
 21
473.58759
 31
0.0
  0
LINE
  5
7EDD
100
AcDbEntity
  8
0
100
AcDbLine
 10
845.011965
 20
672.444721
 30
0.0
 11
905.602247
 21
672.444721
 31
0.0
  0
CIRCLE
  5
7EDE
100
AcDbEntity
  8
0
100
AcDbCircle
 10
875.307106
 20
632.444721
 30
0.0
 40
28.0
  0
LINE
  5
7EDF
100
AcDbEntity
  8
0
100
AcDbLine
 10
845.011965
 20
592.444721
 30
0.0
 11
905.602247
 21
592.444721
 31
0.0
  0
LINE
  5
7EE0
100
AcDbEntity
  8
0
100
AcDbLine
 10
814.783272
 20
644.655822
 30
0.0
 11
814.783272
 21
620.233619
 31
0.0
  0
ARC
  5
7EE1
100
AcDbEntity
  8
0
100
AcDbCircle
 10
1174.557106
 20
632.444721
 30
0.0
 40
340.0
100
AcDbArc
 50
174.626054
 51
185.373946
  0
LINE
  5
7EE2
100
AcDbEntity
  8
0
100
AcDbLine
 10
847.795703
 20
611.872863
 30
0.0
 11
854.735249
 21
604.933317
 31
0.0
  0
LINE
  5
7EE3
100
AcDbEntity
  8
0
100
AcDbLine
 10
852.195321
 20
595.452429
 30
0.0
 11
842.714433
 21
592.912502
 31
0.0
  0
CIRCLE
  5
7EE4
100
AcDbEntity
  8
0
100
AcDbCircle
 10
845.255068
 20
602.392682
 30
0.0
 40
8.24991
  0
LINE
  5
7EE5
100
AcDbEntity
  8
0
100
AcDbLine
 10
838.314815
 20
609.332935
 30
0.0
 11
847.795703
 21
611.872863
 31
0.0
  0
LINE
  5
7EE6
100
AcDbEntity
  8
0
100
AcDbLine
 10
842.714433
 20
592.912502
 30
0.0
 11
835.774887
 21
599.852048
 31
0.0
  0
ARC
  5
7EE7
100
AcDbEntity
  8
0
100
AcDbCircle
 10
845.011965
 20
601.444721
 30
0.0
 40
9.0
100
AcDbArc
 50
193.305938
 51
270.0
  0
LINE
  5
7EE8
100
AcDbEntity
  8
0
100
AcDbLine
 10
835.774887
 20
599.852048
 30
0.0
 11
838.314815
 21
609.332935
 31
0.0
  0
ARC
  5
7EE9
100
AcDbEntity
  8
0
100
AcDbCircle
 10
830.943134
 20
632.444721
 30
0.0
 40
5.999933
100
AcDbArc
 50
90.0
 51
270.0
  0
LINE
  5
7EEA
100
AcDbEntity
  8
0
100
AcDbLine
 10
834.825227
 20
618.944721
 30
0.0
 11
814.783272
 21
618.944721
 31
0.0
  0
LINE
  5
7EEB
100
AcDbEntity
  8
0
100
AcDbLine
 10
814.783272
 20
618.944721
 30
0.0
 11
810.456905
 21
617.214174
 31
0.0
  0
LINE
  5
7EEC
100
AcDbEntity
  8
0
100
AcDbLine
 10
833.322779
 20
638.444654
 30
0.0
 11
830.943134
 21
638.444654
 31
0.0
  0
ARC
  5
7EED
100
AcDbEntity
  8
0
100
AcDbCircle
 10
833.317551
 20
640.455436
 30
0.0
 40
2.010789
100
AcDbArc
 50
270.148946
 51
310.349065
  0
LINE
  5
7EEE
100
AcDbEntity
  8
0
100
AcDbLine
 10
830.943134
 20
626.444787
 30
0.0
 11
833.322779
 21
626.444787
 31
0.0
  0
ARC
  5
7EEF
100
AcDbEntity
  8
0
100
AcDbCircle
 10
833.317551
 20
624.434005
 30
0.0
 40
2.010789
100
AcDbArc
 50
49.650935
 51
89.851054
  0
LINE
  5
7EF0
100
AcDbEntity
  8
0
100
AcDbLine
 10
854.735249
 20
604.933317
 30
0.0
 11
852.195321
 21
595.452429
 31
0.0
  0
CIRCLE
  5
7EF1
100
AcDbEntity
  8
0
100
AcDbCircle
 10
875.307106
 20
632.444721
 30
0.0
 40
10.0
  0
CIRCLE
  5
7EF2
100
AcDbEntity
  8
0
100
AcDbCircle
 10
875.307106
 20
632.444721
 30
0.0
 40
7.5
  0
LINE
  5
7EF3
100
AcDbEntity
  8
0
100
AcDbLine
 10
866.807106
 20
637.712547
 30
0.0
 11
866.807106
 21
627.176894
 31
0.0
  0
LINE
  5
7EF4
100
AcDbEntity
  8
0
100
AcDbLine
 10
883.807106
 20
637.712547
 30
0.0
 11
883.807106
 21
627.176894
 31
0.0
  0
CIRCLE
  5
7EF5
100
AcDbEntity
  8
0
100
AcDbCircle
 10
845.255068
 20
662.496759
 30
0.0
 40
8.24991
  0
LINE
  5
7EF6
100
AcDbEntity
  8
0
100
AcDbLine
 10
854.735249
 20
659.956124
 30
0.0
 11
847.795703
 21
653.016578
 31
0.0
  0
LINE
  5
7EF7
100
AcDbEntity
  8
0
100
AcDbLine
 10
842.714433
 20
671.976939
 30
0.0
 11
852.195321
 21
669.437012
 31
0.0
  0
ARC
  5
7EF8
100
AcDbEntity
  8
0
100
AcDbCircle
 10
845.011965
 20
663.444721
 30
0.0
 40
9.0
100
AcDbArc
 50
90.0
 51
166.694062
  0
LINE
  5
7EF9
100
AcDbEntity
  8
0
100
AcDbLine
 10
835.774887
 20
665.037393
 30
0.0
 11
842.714433
 21
671.976939
 31
0.0
  0
LINE
  5
7EFA
100
AcDbEntity
  8
0
100
AcDbLine
 10
834.825227
 20
645.944721
 30
0.0
 11
814.783272
 21
645.944721
 31
0.0
  0
LINE
  5
7EFB
100
AcDbEntity
  8
0
100
AcDbLine
 10
814.783272
 20
645.944721
 30
0.0
 11
810.456905
 21
647.675267
 31
0.0
  0
LINE
  5
7EFC
100
AcDbEntity
  8
0
100
AcDbLine
 10
838.314815
 20
655.556506
 30
0.0
 11
835.774887
 21
665.037393
 31
0.0
  0
LINE
  5
7EFD
100
AcDbEntity
  8
0
100
AcDbLine
 10
847.795703
 20
653.016578
 30
0.0
 11
838.314815
 21
655.556506
 31
0.0
  0
LINE
  5
7EFE
100
AcDbEntity
  8
0
100
AcDbLine
 10
852.195321
 20
669.437012
 30
0.0
 11
854.735249
 21
659.956124
 31
0.0
  0
ARC
  5
7EFF
100
AcDbEntity
  8
0
100
AcDbCircle
 10
875.307106
 20
632.444721
 30
0.0
 40
43.0
100
AcDbArc
 50
340.110811
 51
19.889189
  0
LINE
  5
7F00
100
AcDbEntity
  8
0
100
AcDbLine
 10
944.101663
 20
644.655822
 30
0.0
 11
944.101663
 21
620.233619
 31
0.0
  0
LINE
  5
7F01
100
AcDbEntity
  8
0
100
AcDbLine
 10
966.942468
 20
632.444721
 30
0.0
 11
966.942468
 21
679.944721
 31
0.0
  0
LINE
  5
7F02
100
AcDbEntity
  8
0
100
AcDbLine
 10
944.101663
 20
618.944721
 30
0.0
 11
916.132956
 21
618.944721
 31
0.0
  0
ARC
  5
7F03
100
AcDbEntity
  8
0
100
AcDbCircle
 10
576.057106
 20
632.444721
 30
0.0
 40
340.0
100
AcDbArc
 50
354.626054
 51
357.534056
  0
LINE
  5
7F04
100
AcDbEntity
  8
0
100
AcDbLine
 10
902.81851
 20
611.872863
 30
0.0
 11
912.299397
 21
609.332935
 31
0.0
  0
ARC
  5
7F05
100
AcDbEntity
  8
0
100
AcDbCircle
 10
905.602247
 20
601.444721
 30
0.0
 40
9.0
100
AcDbArc
 50
270.0
 51
346.694062
  0
LINE
  5
7F06
100
AcDbEntity
  8
0
100
AcDbLine
 10
914.839325
 20
599.852048
 30
0.0
 11
907.899779
 21
592.912502
 31
0.0
  0
CIRCLE
  5
7F07
100
AcDbEntity
  8
0
100
AcDbCircle
 10
905.359144
 20
602.392682
 30
0.0
 40
8.24991
  0
LINE
  5
7F08
100
AcDbEntity
  8
0
100
AcDbLine
 10
895.878964
 20
604.933317
 30
0.0
 11
902.81851
 21
611.872863
 31
0.0
  0
LINE
  5
7F09
100
AcDbEntity
  8
0
100
AcDbLine
 10
907.899779
 20
592.912502
 30
0.0
 11
898.418891
 21
595.452429
 31
0.0
  0
LINE
  5
7F0A
100
AcDbEntity
  8
0
100
AcDbLine
 10
898.418891
 20
595.452429
 30
0.0
 11
895.878964
 21
604.933317
 31
0.0
  0
LINE
  5
7F0B
100
AcDbEntity
  8
0
100
AcDbLine
 10
912.299397
 20
609.332935
 30
0.0
 11
914.839325
 21
599.852048
 31
0.0
  0
LINE
  5
7F0C
100
AcDbEntity
  8
0
100
AcDbLine
 10
906.419805
 20
638.444721
 30
0.0
 11
917.886444
 21
638.444721
 31
0.0
  0
LINE
  5
7F0D
100
AcDbEntity
  8
0
100
AcDbLine
 10
906.419805
 20
626.444721
 30
0.0
 11
917.886444
 21
626.444721
 31
0.0
  0
ARC
  5
7F0E
100
AcDbEntity
  8
0
100
AcDbCircle
 10
906.419805
 20
643.444721
 30
0.0
 40
5.0
100
AcDbArc
 50
199.471221
 51
270.0
  0
ARC
  5
7F0F
100
AcDbEntity
  8
0
100
AcDbCircle
 10
906.419805
 20
621.444721
 30
0.0
 40
5.0
100
AcDbArc
 50
90.0
 51
160.528779
  0
ARC
  5
7F10
100
AcDbEntity
  8
0
100
AcDbCircle
 10
946.942468
 20
613.500267
 30
0.0
 40
4.0
100
AcDbArc
 50
0.0
 51
68.198591
  0
LINE
  5
7F11
100
AcDbEntity
  8
0
100
AcDbLine
 10
944.101663
 20
618.944721
 30
0.0
 11
948.42803
 21
617.214174
 31
0.0
  0
LINE
  5
7F12
100
AcDbEntity
  8
0
100
AcDbLine
 10
944.101663
 20
645.944721
 30
0.0
 11
916.132956
 21
645.944721
 31
0.0
  0
ARC
  5
7F13
100
AcDbEntity
  8
0
100
AcDbCircle
 10
905.602247
 20
663.444721
 30
0.0
 40
9.0
100
AcDbArc
 50
13.305938
 51
90.0
  0
LINE
  5
7F14
100
AcDbEntity
  8
0
100
AcDbLine
 10
898.418891
 20
669.437012
 30
0.0
 11
907.899779
 21
671.976939
 31
0.0
  0
LINE
  5
7F15
100
AcDbEntity
  8
0
100
AcDbLine
 10
907.899779
 20
671.976939
 30
0.0
 11
914.839325
 21
665.037393
 31
0.0
  0
LINE
  5
7F16
100
AcDbEntity
  8
0
100
AcDbLine
 10
912.299397
 20
655.556506
 30
0.0
 11
902.81851
 21
653.016578
 31
0.0
  0
CIRCLE
  5
7F17
100
AcDbEntity
  8
0
100
AcDbCircle
 10
905.359144
 20
662.496759
 30
0.0
 40
8.24991
  0
LINE
  5
7F18
100
AcDbEntity
  8
0
100
AcDbLine
 10
895.878964
 20
659.956124
 30
0.0
 11
898.418891
 21
669.437012
 31
0.0
  0
LINE
  5
7F19
100
AcDbEntity
  8
0
100
AcDbLine
 10
902.81851
 20
653.016578
 30
0.0
 11
895.878964
 21
659.956124
 31
0.0
  0
LINE
  5
7F1A
100
AcDbEntity
  8
0
100
AcDbLine
 10
914.839325
 20
665.037393
 30
0.0
 11
912.299397
 21
655.556506
 31
0.0
  0
ARC
  5
7F1B
100
AcDbEntity
  8
0
100
AcDbCircle
 10
576.057106
 20
632.444721
 30
0.0
 40
340.0
100
AcDbArc
 50
2.465944
 51
5.373946
  0
ARC
  5
7F1C
100
AcDbEntity
  8
0
100
AcDbCircle
 10
946.942468
 20
651.389174
 30
0.0
 40
4.0
100
AcDbArc
 50
291.801409
 51
0.0
  0
LINE
  5
7F1D
100
AcDbEntity
  8
0
100
AcDbLine
 10
944.101663
 20
645.944721
 30
0.0
 11
948.42803
 21
647.675267
 31
0.0
  0
LINE
  5
7F1E
100
AcDbEntity
  8
0
100
AcDbLine
 10
966.942468
 20
679.944721
 30
0.0
 11
950.942468
 21
679.944721
 31
0.0
  0
ARC
  5
7F1F
100
AcDbEntity
  8
0
100
AcDbCircle
 10
881.942468
 20
795.658475
 30
0.0
 40
32.0
100
AcDbArc
 50
224.109909
 51
0.0
  0
ARC
  5
7F20
100
AcDbEntity
  8
0
100
AcDbCircle
 10
881.942468
 20
795.658475
 30
0.0
 40
32.0
100
AcDbArc
 50
180.0
 51
214.223873
  0
LINE
  5
7F21
100
AcDbEntity
  8
0
100
AcDbLine
 10
834.670724
 20
769.533459
 30
0.0
 11
854.082153
 21
774.734736
 31
0.0
  0
LINE
  5
7F22
100
AcDbEntity
  8
0
100
AcDbLine
 10
823.229043
 20
787.098864
 30
0.0
 11
823.986918
 21
780.129333
 31
0.0
  0
LINE
  5
7F23
100
AcDbEntity
  8
0
100
AcDbLine
 10
827.919972
 20
788.355795
 30
0.0
 11
830.748399
 21
781.941066
 31
0.0
  0
LINE
  5
7F24
100
AcDbEntity
  8
0
100
AcDbLine
 10
827.64257
 20
793.532176
 30
0.0
 11
833.854228
 21
770.349956
 31
0.0
  0
LINE
  5
7F25
100
AcDbEntity
  8
0
100
AcDbLine
 10
820.88109
 20
791.720443
 30
0.0
 11
827.092747
 21
768.538223
 31
0.0
  0
LINE
  5
7F26
100
AcDbEntity
  8
0
100
AcDbLine
 10
828.608496
 20
767.022473
 30
0.0
 11
833.299425
 21
768.279404
 31
0.0
  0
LINE
  5
7F27
100
AcDbEntity
  8
0
100
AcDbLine
 10
826.815345
 20
773.714604
 30
0.0
 11
831.506274
 21
774.971534
 31
0.0
  0
LINE
  5
7F28
100
AcDbEntity
  8
0
100
AcDbLine
 10
826.815345
 20
773.714604
 30
0.0
 11
826.690196
 21
770.040564
 31
0.0
  0
LINE
  5
7F29
100
AcDbEntity
  8
0
100
AcDbLine
 10
827.092747
 20
768.538223
 30
0.0
 11
828.608496
 21
767.022473
 31
0.0
  0
LINE
  5
7F2A
100
AcDbEntity
  8
0
100
AcDbLine
 10
823.986918
 20
780.129333
 30
0.0
 11
826.815345
 21
773.714604
 31
0.0
  0
LINE
  5
7F2B
100
AcDbEntity
  8
0
100
AcDbLine
 10
833.854228
 20
770.349956
 30
0.0
 11
833.299425
 21
768.279404
 31
0.0
  0
LINE
  5
7F2C
100
AcDbEntity
  8
0
100
AcDbLine
 10
833.854228
 20
770.349956
 30
0.0
 11
834.670724
 21
769.533459
 31
0.0
  0
LINE
  5
7F2D
100
AcDbEntity
  8
0
100
AcDbLine
 10
831.506274
 20
774.971534
 30
0.0
 11
833.424574
 21
771.953443
 31
0.0
  0
LINE
  5
7F2E
100
AcDbEntity
  8
0
100
AcDbLine
 10
830.748399
 20
781.941066
 30
0.0
 11
831.506274
 21
774.971534
 31
0.0
  0
LINE
  5
7F2F
100
AcDbEntity
  8
0
100
AcDbLine
 10
827.941429
 20
794.647531
 30
0.0
 11
830.718925
 21
795.391759
 31
0.0
  0
LINE
  5
7F30
100
AcDbEntity
  8
0
100
AcDbLine
 10
827.64257
 20
793.532176
 30
0.0
 11
826.126821
 21
795.047925
 31
0.0
  0
LINE
  5
7F31
100
AcDbEntity
  8
0
100
AcDbLine
 10
827.64257
 20
793.532176
 30
0.0
 11
827.941429
 21
794.647531
 31
0.0
  0
LINE
  5
7F32
100
AcDbEntity
  8
0
100
AcDbLine
 10
828.072224
 20
791.928689
 30
0.0
 11
827.919972
 21
788.355795
 31
0.0
  0
LINE
  5
7F33
100
AcDbEntity
  8
0
100
AcDbLine
 10
823.229043
 20
787.098864
 30
0.0
 11
827.919972
 21
788.355795
 31
0.0
  0
LINE
  5
7F34
100
AcDbEntity
  8
0
100
AcDbLine
 10
820.88109
 20
791.720443
 30
0.0
 11
821.435892
 21
793.790995
 31
0.0
  0
LINE
  5
7F35
100
AcDbEntity
  8
0
100
AcDbLine
 10
821.310743
 20
790.116955
 30
0.0
 11
823.229043
 21
787.098864
 31
0.0
  0
LINE
  5
7F36
100
AcDbEntity
  8
0
100
AcDbLine
 10
821.435892
 20
793.790995
 30
0.0
 11
826.126821
 21
795.047925
 31
0.0
  0
ARC
  5
7F37
100
AcDbEntity
  8
0
100
AcDbCircle
 10
829.942468
 20
798.289536
 30
0.0
 40
3.0
100
AcDbArc
 50
285.0
 51
0.0
  0
ARC
  5
7F38
100
AcDbEntity
  8
0
100
AcDbCircle
 10
855.376248
 20
769.905107
 30
0.0
 40
5.0
100
AcDbArc
 50
44.109909
 51
105.0
  0
ARC
  5
7F39
100
AcDbEntity
  8
0
100
AcDbCircle
 10
881.942468
 20
795.658475
 30
0.0
 40
32.0
100
AcDbArc
 50
224.109909
 51
224.109909
  0
LINE
  5
7F3A
100
AcDbEntity
  8
0
100
AcDbLine
 10
913.942468
 20
795.658475
 30
0.0
 11
913.942468
 21
814.195607
 31
0.0
  0
LINE
  5
7F3B
100
AcDbEntity
  8
0
100
AcDbLine
 10
950.942468
 20
794.658475
 30
0.0
 11
966.942468
 21
794.658475
 31
0.0
  0
LINE
  5
7F3C
100
AcDbEntity
  8
0
100
AcDbLine
 10
1718.08728
 20
356.290828
 30
0.0
 11
1718.08728
 21
342.906567
 31
0.0
  0
LINE
  5
7F3D
100
AcDbEntity
  8
0
100
AcDbLine
 10
1694.08728
 20
356.290828
 30
0.0
 11
1694.08728
 21
342.906567
 31
0.0
  0
ARC
  5
7F3E
100
AcDbEntity
  8
0
100
AcDbCircle
 10
1671.717464
 20
358.295303
 30
0.0
 40
3.0
100
AcDbArc
 50
297.168271
 51
0.223816
  0
LINE
  5
7F3F
100
AcDbEntity
  8
0
100
AcDbLine
 10
1673.08728
 20
355.626295
 30
0.0
 11
1673.08728
 21
333.626295
 31
0.0
  0
LINE
  5
7F40
100
AcDbEntity
  8
0
100
AcDbLine
 10
1690.578204
 20
374.053722
 30
0.0
 11
1692.639361
 21
349.910579
 31
0.0
  0
LINE
  5
7F41
100
AcDbEntity
  8
0
100
AcDbLine
 10
1721.596357
 20
374.053722
 30
0.0
 11
1719.535199
 21
349.910579
 31
0.0
  0
ARC
  5
7F42
100
AcDbEntity
  8
0
100
AcDbCircle
 10
1706.08728
 20
364.626295
 30
0.0
 40
32.0
100
AcDbArc
 50
199.901179
 51
0.0
  0
ELLIPSE
  5
7F43
100
AcDbEntity
  8
0
100
AcDbEllipse
 10
1706.08728
 20
349.631964
 30
0.0
 11
-12.0
 21
0.0
 31
0.0
210
0.0
220
0.0
230
1.0
 40
0.965926
 41
0.0
 42
6.283185307179586
  0
ELLIPSE
  5
7F44
100
AcDbEntity
  8
0
100
AcDbEllipse
 10
1706.08728
 20
351.13303
 30
0.0
 11
0.0
 21
13.93038875380669
 31
0.0
210
0.0
220
0.0
230
1.0
 40
0.969104
 41
4.236506730724272
 42
8.329863883634899
  0
LINE
  5
7F45
100
AcDbEntity
  8
0
100
AcDbLine
 10
1552.481523
 20
356.027979
 30
0.0
 11
1551.723648
 21
349.058447
 31
0.0
  0
LINE
  5
7F46
100
AcDbEntity
  8
0
100
AcDbLine
 10
1547.790594
 20
357.28491
 30
0.0
 11
1544.962167
 21
350.870181
 31
0.0
  0
ARC
  5
7F48
100
AcDbEntity
  8
0
100
AcDbCircle
 10
1493.768098
 20
364.58759
 30
0.0
 40
32.0
100
AcDbArc
 50
325.776127
 51
0.0
  0
LINE
  5
7F49
100
AcDbEntity
  8
0
100
AcDbLine
 10
1548.067996
 20
362.46129
 30
0.0
 11
1541.856339
 21
339.279071
 31
0.0
  0
LINE
  5
7F4A
100
AcDbEntity
  8
0
100
AcDbLine
 10
1554.829476
 20
360.649557
 30
0.0
 11
1548.617819
 21
337.467337
 31
0.0
  0
ARC
  5
7F4B
100
AcDbEntity
  8
0
100
AcDbCircle
 10
1280.758761
 20
358.295303
 30
0.0
 40
3.0
100
AcDbArc
 50
179.776184
 51
242.831729
  0
LINE
  5
7F4C
100
AcDbEntity
  8
0
100
AcDbLine
 10
1279.388945
 20
355.626295
 30
0.0
 11
1279.388945
 21
333.626295
 31
0.0
  0
ARC
  5
7F4D
100
AcDbEntity
  8
0
100
AcDbCircle
 10
1246.388945
 20
364.626295
 30
0.0
 40
32.0
100
AcDbArc
 50
180.0
 51
340.098821
  0
ARC
  5
7F4E
100
AcDbEntity
  8
0
100
AcDbCircle
 10
1493.768098
 20
364.58759
 30
0.0
 40
32.0
100
AcDbArc
 50
180.0
 51
314.101852
  0
TEXT
  5
7F4F
100
AcDbEntity
  8
0
100
AcDbText
 10
1463.484675
 20
257.217526
 30
0.0
 40
25.0
  1
20A
 72
     4
 11
1496.818009
 21
269.717526
 31
0.0
100
AcDbText
  0
LINE
  5
7F51
100
AcDbEntity
  8
0
100
AcDbLine
 10
1279.388945
 20
333.626295
 30
0.0
 11
1254.326199
 21
333.626295
 31
0.0
  0
LINE
  5
7F52
100
AcDbEntity
  8
0
100
AcDbLine
 10
1540.223345
 20
337.646077
 30
0.0
 11
1520.811826
 21
342.847378
 31
0.0
  0
ARC
  5
7F53
100
AcDbEntity
  8
0
100
AcDbCircle
 10
1493.768098
 20
364.58759
 30
0.0
 40
32.0
100
AcDbArc
 50
315.890091
 51
315.890091
  0
ARC
  5
7F54
100
AcDbEntity
  8
0
100
AcDbCircle
 10
1519.517731
 20
338.017749
 30
0.0
 40
5.0
100
AcDbArc
 50
75.0
 51
134.101852
  0
LINE
  5
7F55
100
AcDbEntity
  8
0
100
AcDbLine
 10
1544.962167
 20
350.870181
 30
0.0
 11
1544.204292
 21
343.900649
 31
0.0
  0
LINE
  5
7F56
100
AcDbEntity
  8
0
100
AcDbLine
 10
1548.895221
 20
342.643718
 30
0.0
 11
1544.204292
 21
343.900649
 31
0.0
  0
LINE
  5
7F57
100
AcDbEntity
  8
0
100
AcDbLine
 10
1541.856339
 20
339.279071
 30
0.0
 11
1542.411141
 21
337.208518
 31
0.0
  0
LINE
  5
7F58
100
AcDbEntity
  8
0
100
AcDbLine
 10
1541.856339
 20
339.279071
 30
0.0
 11
1540.223345
 21
337.646077
 31
0.0
  0
LINE
  5
7F59
100
AcDbEntity
  8
0
100
AcDbLine
 10
1548.617819
 20
337.467337
 30
0.0
 11
1547.10207
 21
335.951588
 31
0.0
  0
LINE
  5
7F5A
100
AcDbEntity
  8
0
100
AcDbLine
 10
1547.10207
 20
335.951588
 30
0.0
 11
1542.411141
 21
337.208518
 31
0.0
  0
LINE
  5
7F5B
100
AcDbEntity
  8
0
100
AcDbLine
 10
1544.204292
 20
343.900649
 30
0.0
 11
1542.285992
 21
340.882558
 31
0.0
  0
LINE
  5
7F5C
100
AcDbEntity
  8
0
100
AcDbLine
 10
1548.895221
 20
342.643718
 30
0.0
 11
1549.02037
 21
338.969679
 31
0.0
  0
LINE
  5
7F5D
100
AcDbEntity
  8
0
100
AcDbLine
 10
1551.723648
 20
349.058447
 30
0.0
 11
1548.895221
 21
342.643718
 31
0.0
  0
LINE
  5
7F5E
100
AcDbEntity
  8
0
100
AcDbLine
 10
1673.08728
 20
333.626295
 30
0.0
 11
1698.150026
 21
333.626295
 31
0.0
  0
LINE
  5
7F5F
100
AcDbEntity
  8
0
100
AcDbLine
 10
1706.08728
 20
336.214437
 30
0.0
 11
1694.08728
 21
342.906567
 31
0.0
  0
ELLIPSE
  5
7F60
100
AcDbEntity
  8
0
100
AcDbEllipse
 10
1706.08728
 20
351.13303
 30
0.0
 11
0.0
 21
13.93038875380669
 31
0.0
210
0.0
220
0.0
230
1.0
 40
0.969104
 41
8.587484679343077
 42
9.271111577278432
  0
LINE
  5
7F61
100
AcDbEntity
  8
0
100
AcDbLine
 10
1706.08728
 20
336.214437
 30
0.0
 11
1718.08728
 21
342.906567
 31
0.0
  0
ELLIPSE
  5
7F62
100
AcDbEntity
  8
0
100
AcDbEllipse
 10
1706.08728
 20
351.13303
 30
0.0
 11
0.0
 21
13.93038875380669
 31
0.0
210
0.0
220
0.0
230
1.0
 40
0.969104
 41
3.295259037080921
 42
3.978885935016277
  0
LINE
  5
7F63
100
AcDbEntity
  8
0
100
AcDbLine
 10
1706.08728
 20
338.009604
 30
0.0
 11
1706.08728
 21
338.009604
 31
0.0
  0
ARC
  5
7F64
100
AcDbEntity
  8
0
100
AcDbCircle
 10
1498.768098
 20
785.158475
 30
0.0
 40
32.0
100
AcDbArc
 50
225.898148
 51
0.0
  0
CIRCLE
  5
7F65
100
AcDbEntity
  8
0
100
AcDbCircle
 10
1493.768098
 20
632.444721
 30
0.0
 40
7.5
  0
CIRCLE
  5
7F66
100
AcDbEntity
  8
0
100
AcDbCircle
 10
1493.768098
 20
632.444721
 30
0.0
 40
10.0
  0
CIRCLE
  5
7F67
100
AcDbEntity
  8
0
100
AcDbCircle
 10
1493.768098
 20
632.444721
 30
0.0
 40
28.0
  0
LINE
  5
7F68
100
AcDbEntity
  8
0
100
AcDbLine
 10
1463.472957
 20
672.444721
 30
0.0
 11
1524.063239
 21
672.444721
 31
0.0
  0
LINE
  5
7F69
100
AcDbEntity
  8
0
100
AcDbLine
 10
1482.768098
 20
584.444721
 30
0.0
 11
1504.768098
 21
584.444721
 31
0.0
  0
LINE
  5
7F6A
100
AcDbEntity
  8
0
100
AcDbLine
 10
1485.268098
 20
468.58759
 30
0.0
 11
1502.268098
 21
468.58759
 31
0.0
  0
LINE
  5
7F6B
100
AcDbEntity
  8
0
100
AcDbLine
 10
1463.472957
 20
592.444721
 30
0.0
 11
1524.063239
 21
592.444721
 31
0.0
  0
LINE
  5
7F6C
100
AcDbEntity
  8
0
100
AcDbLine
 10
1483.768098
 20
455.58759
 30
0.0
 11
1503.768098
 21
455.58759
 31
0.0
  0
LINE
  5
7F6D
100
AcDbEntity
  8
0
100
AcDbLine
 10
1473.531015
 20
446.58759
 30
0.0
 11
1514.005182
 21
446.58759
 31
0.0
  0
CIRCLE
  5
7F6E
100
AcDbEntity
  8
0
100
AcDbCircle
 10
1493.768098
 20
411.08759
 30
0.0
 40
10.5
  0
LINE
  5
7F6F
100
AcDbEntity
  8
0
100
AcDbLine
 10
1536.778715
 20
429.58759
 30
0.0
 11
1441.768098
 21
429.58759
 31
0.0
  0
LINE
  5
7F70
100
AcDbEntity
  8
0
100
AcDbLine
 10
1522.768098
 20
398.58759
 30
0.0
 11
1464.768098
 21
398.58759
 31
0.0
  0
LINE
  5
7F71
100
AcDbEntity
  8
0
100
AcDbLine
 10
1453.018098
 20
442.08759
 30
0.0
 11
1536.778715
 21
442.08759
 31
0.0
  0
LINE
  5
7F72
100
AcDbEntity
  8
0
100
AcDbLine
 10
1482.768098
 20
584.444721
 30
0.0
 11
1482.768098
 21
592.444721
 31
0.0
  0
LINE
  5
7F73
100
AcDbEntity
  8
0
100
AcDbLine
 10
1416.768098
 20
582.444721
 30
0.0
 11
1416.768098
 21
682.444721
 31
0.0
  0
LINE
  5
7F74
100
AcDbEntity
  8
0
100
AcDbLine
 10
1398.768098
 20
632.444721
 30
0.0
 11
1398.768098
 21
582.444721
 31
0.0
  0
LINE
  5
7F75
100
AcDbEntity
  8
0
100
AcDbLine
 10
1416.768098
 20
582.444721
 30
0.0
 11
1416.768098
 21
682.444721
 31
0.0
  0
CIRCLE
  5
7F76
100
AcDbEntity
  8
0
100
AcDbCircle
 10
1246.388945
 20
421.58759
 30
0.0
 40
50.0
  0
CIRCLE
  5
7F77
100
AcDbEntity
  8
0
100
AcDbCircle
 10
1219.888945
 20
448.120588
 30
0.0
 40
7.5
  0
CIRCLE
  5
7F78
100
AcDbEntity
  8
0
100
AcDbCircle
 10
1219.888945
 20
395.054592
 30
0.0
 40
7.5
  0
LINE
  5
7F79
100
AcDbEntity
  8
0
100
AcDbLine
 10
1214.388945
 20
364.58759
 30
0.0
 11
1214.388945
 21
383.168845
 31
0.0
  0
LINE
  5
7F7A
100
AcDbEntity
  8
0
100
AcDbLine
 10
1278.388945
 20
364.58759
 30
0.0
 11
1278.388945
 21
383.168845
 31
0.0
  0
CIRCLE
  5
7F7B
100
AcDbEntity
  8
0
100
AcDbCircle
 10
1277.758784
 20
358.307022
 30
0.0
 40
0.0
  0
ARC
  5
7F7C
100
AcDbEntity
  8
0
100
AcDbCircle
 10
1246.388945
 20
364.626295
 30
0.0
 40
32.0
100
AcDbArc
 50
348.610524
 51
0.0
  0
CIRCLE
  5
7F7D
100
AcDbEntity
  8
0
100
AcDbCircle
 10
1272.888945
 20
395.054592
 30
0.0
 40
7.5
  0
CIRCLE
  5
7F7E
100
AcDbEntity
  8
0
100
AcDbCircle
 10
1272.888945
 20
448.120588
 30
0.0
 40
7.5
  0
LINE
  5
7F7F
100
AcDbEntity
  8
0
100
AcDbLine
 10
1416.768098
 20
371.58759
 30
0.0
 11
1416.768098
 21
471.58759
 31
0.0
  0
LINE
  5
7F80
100
AcDbEntity
  8
0
100
AcDbLine
 10
1398.768098
 20
421.58759
 30
0.0
 11
1398.768098
 21
471.58759
 31
0.0
  0
LINE
  5
7F81
100
AcDbEntity
  8
0
100
AcDbLine
 10
1398.768098
 20
371.58759
 30
0.0
 11
1416.768098
 21
371.58759
 31
0.0
  0
LINE
  5
7F82
100
AcDbEntity
  8
0
100
AcDbLine
 10
1398.768098
 20
421.58759
 30
0.0
 11
1398.768098
 21
371.58759
 31
0.0
  0
LINE
  5
7F83
100
AcDbEntity
  8
0
100
AcDbLine
 10
1461.768098
 20
401.58759
 30
0.0
 11
1461.768098
 21
417.58759
 31
0.0
  0
LINE
  5
7F84
100
AcDbEntity
  8
0
100
AcDbLine
 10
1422.943518
 20
400.58759
 30
0.0
 11
1459.458571
 21
383.560341
 31
0.0
  0
LINE
  5
7F85
100
AcDbEntity
  8
0
100
AcDbLine
 10
1420.768098
 20
400.58759
 30
0.0
 11
1422.943518
 21
400.58759
 31
0.0
  0
ARC
  5
7F86
100
AcDbEntity
  8
0
100
AcDbCircle
 10
1420.768098
 20
396.58759
 30
0.0
 40
4.0
100
AcDbArc
 50
90.0
 51
180.0
  0
LINE
  5
7F87
100
AcDbEntity
  8
0
100
AcDbLine
 10
1420.768098
 20
400.58759
 30
0.0
 11
1422.943518
 21
400.58759
 31
0.0
  0
ARC
  5
7F88
100
AcDbEntity
  8
0
100
AcDbCircle
 10
1457.768098
 20
379.93511
 30
0.0
 40
4.0
100
AcDbArc
 50
0.0
 51
65.0
  0
LINE
  5
7F89
100
AcDbEntity
  8
0
100
AcDbLine
 10
1461.768098
 20
364.58759
 30
0.0
 11
1461.768098
 21
379.93511
 31
0.0
  0
ARC
  5
7F8A
100
AcDbEntity
  8
0
100
AcDbCircle
 10
1464.768098
 20
401.58759
 30
0.0
 40
3.0
100
AcDbArc
 50
180.0
 51
270.0
  0
LINE
  5
7F8B
100
AcDbEntity
  8
0
100
AcDbLine
 10
1453.768098
 20
427.58759
 30
0.0
 11
1440.760282
 21
427.58759
 31
0.0
  0
LINE
  5
7F8C
100
AcDbEntity
  8
0
100
AcDbLine
 10
1417.852156
 20
445.759104
 30
0.0
 11
1430.362715
 21
432.436055
 31
0.0
  0
LINE
  5
7F8D
100
AcDbEntity
  8
0
100
AcDbLine
 10
1430.362715
 20
432.436055
 30
0.0
 11
1440.760282
 21
427.58759
 31
0.0
  0
LINE
  5
7F8E
100
AcDbEntity
  8
0
100
AcDbLine
 10
1441.768098
 20
427.58759
 30
0.0
 11
1441.768098
 21
429.58759
 31
0.0
  0
ARC
  5
7F8F
100
AcDbEntity
  8
0
100
AcDbCircle
 10
1420.768098
 20
448.49722
 30
0.0
 40
4.0
100
AcDbArc
 50
180.0
 51
223.198591
  0
LINE
  5
7F90
100
AcDbEntity
  8
0
100
AcDbLine
 10
1453.018098
 20
429.58759
 30
0.0
 11
1453.018098
 21
442.08759
 31
0.0
  0
LINE
  5
7F91
100
AcDbEntity
  8
0
100
AcDbLine
 10
1485.521887
 20
417.58759
 30
0.0
 11
1453.768098
 21
417.58759
 31
0.0
  0
LINE
  5
7F92
100
AcDbEntity
  8
0
100
AcDbLine
 10
1453.768098
 20
417.58759
 30
0.0
 11
1453.768098
 21
429.58759
 31
0.0
  0
LINE
  5
7F93
100
AcDbEntity
  8
0
100
AcDbLine
 10
1473.531015
 20
448.152472
 30
0.0
 11
1471.077276
 21
449.08759
 31
0.0
  0
LINE
  5
7F94
100
AcDbEntity
  8
0
100
AcDbLine
 10
1471.96606
 20
449.08759
 30
0.0
 11
1473.531015
 21
448.152472
 31
0.0
  0
LINE
  5
7F95
100
AcDbEntity
  8
0
100
AcDbLine
 10
1453.901106
 20
448.152472
 30
0.0
 11
1456.354844
 21
449.08759
 31
0.0
  0
LINE
  5
7F96
100
AcDbEntity
  8
0
100
AcDbLine
 10
1453.901106
 20
448.152472
 30
0.0
 11
1455.46606
 21
449.08759
 31
0.0
  0
LINE
  5
7F97
100
AcDbEntity
  8
0
100
AcDbLine
 10
1456.354844
 20
449.08759
 30
0.0
 11
1458.808583
 21
448.152472
 31
0.0
  0
LINE
  5
7F98
100
AcDbEntity
  8
0
100
AcDbLine
 10
1471.077276
 20
449.08759
 30
0.0
 11
1468.623537
 21
448.152472
 31
0.0
  0
LINE
  5
7F99
100
AcDbEntity
  8
0
100
AcDbLine
 10
1463.71606
 20
449.08759
 30
0.0
 11
1468.665308
 21
448.135872
 31
0.0
  0
LINE
  5
7F9A
100
AcDbEntity
  8
0
100
AcDbLine
 10
1458.808583
 20
448.152472
 30
0.0
 11
1463.71606
 21
449.08759
 31
0.0
  0
LINE
  5
7F9B
100
AcDbEntity
  8
0
100
AcDbLine
 10
1455.46606
 20
449.08759
 30
0.0
 11
1471.96606
 21
449.08759
 31
0.0
  0
LINE
  5
7F9C
100
AcDbEntity
  8
0
100
AcDbLine
 10
1458.808583
 20
448.152472
 30
0.0
 11
1458.808583
 21
442.08759
 31
0.0
  0
LINE
  5
7F9D
100
AcDbEntity
  8
0
100
AcDbLine
 10
1453.901106
 20
442.084725
 30
0.0
 11
1453.901106
 21
448.152472
 31
0.0
  0
LINE
  5
7F9E
100
AcDbEntity
  8
0
100
AcDbLine
 10
1468.623537
 20
448.152472
 30
0.0
 11
1468.623537
 21
442.08759
 31
0.0
  0
LINE
  5
7F9F
100
AcDbEntity
  8
0
100
AcDbLine
 10
1483.768098
 20
446.58759
 30
0.0
 11
1483.768098
 21
455.58759
 31
0.0
  0
LINE
  5
7FA0
100
AcDbEntity
  8
0
100
AcDbLine
 10
1473.531015
 20
448.152472
 30
0.0
 11
1473.531015
 21
442.08759
 31
0.0
  0
LINE
  5
7FA1
100
AcDbEntity
  8
0
100
AcDbLine
 10
1485.268098
 20
455.58759
 30
0.0
 11
1485.268098
 21
468.58759
 31
0.0
  0
LINE
  5
7FA2
100
AcDbEntity
  8
0
100
AcDbLine
 10
1398.768098
 20
582.444721
 30
0.0
 11
1416.768098
 21
582.444721
 31
0.0
  0
LINE
  5
7FA3
100
AcDbEntity
  8
0
100
AcDbLine
 10
1398.768098
 20
471.58759
 30
0.0
 11
1416.768098
 21
471.58759
 31
0.0
  0
LINE
  5
7FA4
100
AcDbEntity
  8
0
100
AcDbLine
 10
1398.768098
 20
682.444721
 30
0.0
 11
1416.768098
 21
682.444721
 31
0.0
  0
LINE
  5
7FA5
100
AcDbEntity
  8
0
100
AcDbLine
 10
1398.768098
 20
632.444721
 30
0.0
 11
1398.768098
 21
682.444721
 31
0.0
  0
LINE
  5
7FA6
100
AcDbEntity
  8
0
100
AcDbLine
 10
1425.52534
 20
644.919415
 30
0.0
 11
1425.52534
 21
619.970026
 31
0.0
  0
LINE
  5
7FA7
100
AcDbEntity
  8
0
100
AcDbLine
 10
1425.52534
 20
644.919415
 30
0.0
 11
1425.52534
 21
619.970026
 31
0.0
  0
ARC
  5
7FA8
100
AcDbEntity
  8
0
100
AcDbCircle
 10
1793.018098
 20
632.444721
 30
0.0
 40
340.0
100
AcDbArc
 50
174.626054
 51
185.373946
  0
ARC
  5
7FA9
100
AcDbEntity
  8
0
100
AcDbCircle
 10
1451.111677
 20
640.444654
 30
0.0
 40
2.0
100
AcDbArc
 50
270.0
 51
358.659637
  0
ARC
  5
7FAA
100
AcDbEntity
  8
0
100
AcDbCircle
 10
1451.111677
 20
624.444787
 30
0.0
 40
2.0
100
AcDbArc
 50
1.340363
 51
90.0
  0
LINE
  5
7FAB
100
AcDbEntity
  8
0
100
AcDbLine
 10
1425.52534
 20
616.444721
 30
0.0
 11
1453.394778
 21
616.444721
 31
0.0
  0
LINE
  5
7FAC
100
AcDbEntity
  8
0
100
AcDbLine
 10
1417.852156
 20
608.273207
 30
0.0
 11
1425.52534
 21
616.444721
 31
0.0
  0
LINE
  5
7FAD
100
AcDbEntity
  8
0
100
AcDbLine
 10
1417.852156
 20
608.273207
 30
0.0
 11
1425.52534
 21
616.444721
 31
0.0
  0
ARC
  5
7FAE
100
AcDbEntity
  8
0
100
AcDbCircle
 10
1420.768098
 20
605.53509
 30
0.0
 40
4.0
100
AcDbArc
 50
136.801409
 51
180.0
  0
LINE
  5
7FAF
100
AcDbEntity
  8
0
100
AcDbLine
 10
1451.111677
 20
638.444654
 30
0.0
 11
1447.768032
 21
638.444654
 31
0.0
  0
LINE
  5
7FB0
100
AcDbEntity
  8
0
100
AcDbLine
 10
1447.768032
 20
626.444787
 30
0.0
 11
1451.111677
 21
626.444787
 31
0.0
  0
ARC
  5
7FB1
100
AcDbEntity
  8
0
100
AcDbCircle
 10
1447.768032
 20
632.444721
 30
0.0
 40
5.999933
100
AcDbArc
 50
90.0
 51
270.0
  0
LINE
  5
7FB2
100
AcDbEntity
  8
0
100
AcDbLine
 10
1466.256695
 20
611.872863
 30
0.0
 11
1473.196241
 21
604.933317
 31
0.0
  0
LINE
  5
7FB3
100
AcDbEntity
  8
0
100
AcDbLine
 10
1473.196241
 20
604.933317
 30
0.0
 11
1470.656313
 21
595.452429
 31
0.0
  0
LINE
  5
7FB4
100
AcDbEntity
  8
0
100
AcDbLine
 10
1456.775807
 20
609.332935
 30
0.0
 11
1466.256695
 21
611.872863
 31
0.0
  0
LINE
  5
7FB5
100
AcDbEntity
  8
0
100
AcDbLine
 10
1470.656313
 20
595.452429
 30
0.0
 11
1461.175425
 21
592.912502
 31
0.0
  0
ARC
  5
7FB6
100
AcDbEntity
  8
0
100
AcDbCircle
 10
1463.472957
 20
601.444721
 30
0.0
 40
9.0
100
AcDbArc
 50
193.305938
 51
270.0
  0
LINE
  5
7FB7
100
AcDbEntity
  8
0
100
AcDbLine
 10
1461.175425
 20
592.912502
 30
0.0
 11
1454.235879
 21
599.852048
 31
0.0
  0
CIRCLE
  5
7FB8
100
AcDbEntity
  8
0
100
AcDbCircle
 10
1463.71606
 20
602.392682
 30
0.0
 40
8.24991
  0
LINE
  5
7FB9
100
AcDbEntity
  8
0
100
AcDbLine
 10
1454.235879
 20
599.852048
 30
0.0
 11
1456.775807
 21
609.332935
 31
0.0
  0
LINE
  5
7FBA
100
AcDbEntity
  8
0
100
AcDbLine
 10
1485.268098
 20
637.712547
 30
0.0
 11
1485.268098
 21
627.176894
 31
0.0
  0
LINE
  5
7FBB
100
AcDbEntity
  8
0
100
AcDbLine
 10
1425.52534
 20
648.444721
 30
0.0
 11
1453.394778
 21
648.444721
 31
0.0
  0
ARC
  5
7FBC
100
AcDbEntity
  8
0
100
AcDbCircle
 10
1420.768098
 20
659.354351
 30
0.0
 40
4.0
100
AcDbArc
 50
180.0
 51
223.198591
  0
ARC
  5
7FBD
100
AcDbEntity
  8
0
100
AcDbCircle
 10
1420.768098
 20
659.354351
 30
0.0
 40
4.0
100
AcDbArc
 50
180.0
 51
223.198591
  0
LINE
  5
7FBE
100
AcDbEntity
  8
0
100
AcDbLine
 10
1417.852156
 20
656.616234
 30
0.0
 11
1425.52534
 21
648.444721
 31
0.0
  0
LINE
  5
7FBF
100
AcDbEntity
  8
0
100
AcDbLine
 10
1417.852156
 20
656.616234
 30
0.0
 11
1425.52534
 21
648.444721
 31
0.0
  0
LINE
  5
7FC0
100
AcDbEntity
  8
0
100
AcDbLine
 10
1461.175425
 20
671.976939
 30
0.0
 11
1470.656313
 21
669.437012
 31
0.0
  0
LINE
  5
7FC1
100
AcDbEntity
  8
0
100
AcDbLine
 10
1454.235879
 20
665.037393
 30
0.0
 11
1461.175425
 21
671.976939
 31
0.0
  0
ARC
  5
7FC2
100
AcDbEntity
  8
0
100
AcDbCircle
 10
1463.472957
 20
663.444721
 30
0.0
 40
9.0
100
AcDbArc
 50
90.0
 51
166.694062
  0
LINE
  5
7FC3
100
AcDbEntity
  8
0
100
AcDbLine
 10
1470.656313
 20
669.437012
 30
0.0
 11
1473.196241
 21
659.956124
 31
0.0
  0
LINE
  5
7FC4
100
AcDbEntity
  8
0
100
AcDbLine
 10
1473.196241
 20
659.956124
 30
0.0
 11
1466.256695
 21
653.016578
 31
0.0
  0
LINE
  5
7FC5
100
AcDbEntity
  8
0
100
AcDbLine
 10
1456.775807
 20
655.556506
 30
0.0
 11
1454.235879
 21
665.037393
 31
0.0
  0
LINE
  5
7FC6
100
AcDbEntity
  8
0
100
AcDbLine
 10
1466.256695
 20
653.016578
 30
0.0
 11
1456.775807
 21
655.556506
 31
0.0
  0
CIRCLE
  5
7FC7
100
AcDbEntity
  8
0
100
AcDbCircle
 10
1463.71606
 20
662.496759
 30
0.0
 40
8.24991
  0
LINE
  5
7FC8
100
AcDbEntity
  8
0
100
AcDbLine
 10
1398.768098
 20
792.158475
 30
0.0
 11
1416.768098
 21
792.158475
 31
0.0
  0
LINE
  5
7FC9
100
AcDbEntity
  8
0
100
AcDbLine
 10
1443.918377
 20
758.038223
 30
0.0
 11
1445.434127
 21
756.522473
 31
0.0
  0
LINE
  5
7FCA
100
AcDbEntity
  8
0
100
AcDbLine
 10
1445.434127
 20
756.522473
 30
0.0
 11
1450.125055
 21
757.779404
 31
0.0
  0
LINE
  5
7FCB
100
AcDbEntity
  8
0
100
AcDbLine
 10
1452.312851
 20
758.216963
 30
0.0
 11
1471.724371
 21
763.418264
 31
0.0
  0
ARC
  5
7FCC
100
AcDbEntity
  8
0
100
AcDbCircle
 10
1446.768098
 20
788.824812
 30
0.0
 40
3.0
100
AcDbArc
 50
285.0
 51
0.0
  0
LINE
  5
7FCD
100
AcDbEntity
  8
0
100
AcDbLine
 10
1444.468201
 20
783.032176
 30
0.0
 11
1445.065918
 21
785.262886
 31
0.0
  0
LINE
  5
7FCE
100
AcDbEntity
  8
0
100
AcDbLine
 10
1444.897854
 20
781.428689
 30
0.0
 11
1444.745602
 21
777.855795
 31
0.0
  0
LINE
  5
7FCF
100
AcDbEntity
  8
0
100
AcDbLine
 10
1437.70672
 20
781.220443
 30
0.0
 11
1438.261523
 21
783.290995
 31
0.0
  0
LINE
  5
7FD0
100
AcDbEntity
  8
0
100
AcDbLine
 10
1444.468201
 20
783.032176
 30
0.0
 11
1442.952451
 21
784.547925
 31
0.0
  0
LINE
  5
7FD1
100
AcDbEntity
  8
0
100
AcDbLine
 10
1438.136373
 20
779.616955
 30
0.0
 11
1440.054674
 21
776.598864
 31
0.0
  0
LINE
  5
7FD2
100
AcDbEntity
  8
0
100
AcDbLine
 10
1440.054674
 20
776.598864
 30
0.0
 11
1444.745602
 21
777.855795
 31
0.0
  0
LINE
  5
7FD3
100
AcDbEntity
  8
0
100
AcDbLine
 10
1438.261523
 20
783.290995
 30
0.0
 11
1442.952451
 21
784.547925
 31
0.0
  0
LINE
  5
7FD4
100
AcDbEntity
  8
0
100
AcDbLine
 10
1445.065918
 20
785.262886
 30
0.0
 11
1447.544555
 21
785.927035
 31
0.0
  0
LINE
  5
7FD5
100
AcDbEntity
  8
0
100
AcDbLine
 10
1443.640976
 20
763.214604
 30
0.0
 11
1448.331904
 21
764.471534
 31
0.0
  0
LINE
  5
7FD6
100
AcDbEntity
  8
0
100
AcDbLine
 10
1440.812549
 20
769.629333
 30
0.0
 11
1443.640976
 21
763.214604
 31
0.0
  0
LINE
  5
7FD7
100
AcDbEntity
  8
0
100
AcDbLine
 10
1443.640976
 20
763.214604
 30
0.0
 11
1443.515826
 21
759.540564
 31
0.0
  0
LINE
  5
7FD8
100
AcDbEntity
  8
0
100
AcDbLine
 10
1447.57403
 20
771.441066
 30
0.0
 11
1448.331904
 21
764.471534
 31
0.0
  0
LINE
  5
7FD9
100
AcDbEntity
  8
0
100
AcDbLine
 10
1448.331904
 20
764.471534
 30
0.0
 11
1450.250205
 21
761.453443
 31
0.0
  0
LINE
  5
7FDA
100
AcDbEntity
  8
0
100
AcDbLine
 10
1450.679858
 20
759.849956
 30
0.0
 11
1452.312851
 21
758.216963
 31
0.0
  0
LINE
  5
7FDB
100
AcDbEntity
  8
0
100
AcDbLine
 10
1450.679858
 20
759.849956
 30
0.0
 11
1450.125055
 21
757.779404
 31
0.0
  0
LINE
  5
7FDC
100
AcDbEntity
  8
0
100
AcDbLine
 10
1444.468201
 20
783.032176
 30
0.0
 11
1450.679858
 21
759.849956
 31
0.0
  0
LINE
  5
7FDD
100
AcDbEntity
  8
0
100
AcDbLine
 10
1437.70672
 20
781.220443
 30
0.0
 11
1443.918377
 21
758.038223
 31
0.0
  0
LINE
  5
7FDE
100
AcDbEntity
  8
0
100
AcDbLine
 10
1440.054674
 20
776.598864
 30
0.0
 11
1440.812549
 21
769.629333
 31
0.0
  0
LINE
  5
7FDF
100
AcDbEntity
  8
0
100
AcDbLine
 10
1444.745602
 20
777.855795
 30
0.0
 11
1447.57403
 21
771.441066
 31
0.0
  0
ARC
  5
7FE0
100
AcDbEntity
  8
0
100
AcDbCircle
 10
1445.768098
 20
806.101687
 30
0.0
 40
4.0
100
AcDbArc
 50
0.0
 51
65.0
  0
LINE
  5
7FE1
100
AcDbEntity
  8
0
100
AcDbLine
 10
1449.768098
 20
788.824812
 30
0.0
 11
1449.768098
 21
806.101687
 31
0.0
  0
ARC
  5
7FE2
100
AcDbEntity
  8
0
100
AcDbCircle
 10
1473.018466
 20
758.588635
 30
0.0
 40
5.0
100
AcDbArc
 50
45.898148
 51
105.0
  0
ARC
  5
7FE3
100
AcDbEntity
  8
0
100
AcDbCircle
 10
1498.768098
 20
785.158475
 30
0.0
 40
32.0
100
AcDbArc
 50
180.0
 51
214.223873
  0
ARC
  5
7FE4
100
AcDbEntity
  8
0
100
AcDbCircle
 10
1498.768098
 20
785.158475
 30
0.0
 40
32.0
100
AcDbArc
 50
224.109909
 51
224.109909
  0
LINE
  5
7FE5
100
AcDbEntity
  8
0
100
AcDbLine
 10
1504.768098
 20
584.444721
 30
0.0
 11
1504.768098
 21
592.444721
 31
0.0
  0
LINE
  5
7FE6
100
AcDbEntity
  8
0
100
AcDbLine
 10
1593.768098
 20
632.444721
 30
0.0
 11
1593.768098
 21
582.444721
 31
0.0
  0
LINE
  5
7FE7
100
AcDbEntity
  8
0
100
AcDbLine
 10
1575.768098
 20
582.444721
 30
0.0
 11
1575.768098
 21
682.444721
 31
0.0
  0
LINE
  5
7FE8
100
AcDbEntity
  8
0
100
AcDbLine
 10
1575.768098
 20
582.444721
 30
0.0
 11
1575.768098
 21
682.444721
 31
0.0
  0
LINE
  5
7FE9
100
AcDbEntity
  8
0
100
AcDbLine
 10
1593.768098
 20
421.58759
 30
0.0
 11
1593.768098
 21
471.58759
 31
0.0
  0
LINE
  5
7FEA
100
AcDbEntity
  8
0
100
AcDbLine
 10
1575.768098
 20
371.58759
 30
0.0
 11
1575.768098
 21
471.58759
 31
0.0
  0
LINE
  5
7FEB
100
AcDbEntity
  8
0
100
AcDbLine
 10
1574.68404
 20
445.759104
 30
0.0
 11
1562.173482
 21
432.436055
 31
0.0
  0
ARC
  5
7FEC
100
AcDbEntity
  8
0
100
AcDbCircle
 10
1571.768098
 20
396.58759
 30
0.0
 40
4.0
100
AcDbArc
 50
0.0
 51
90.0
  0
ARC
  5
7FED
100
AcDbEntity
  8
0
100
AcDbCircle
 10
1571.768098
 20
396.58759
 30
0.0
 40
4.0
100
AcDbArc
 50
0.0
 51
90.0
  0
LINE
  5
7FEE
100
AcDbEntity
  8
0
100
AcDbLine
 10
1525.768098
 20
364.58759
 30
0.0
 11
1525.768098
 21
417.58759
 31
0.0
  0
ARC
  5
7FEF
100
AcDbEntity
  8
0
100
AcDbCircle
 10
1522.768098
 20
401.58759
 30
0.0
 40
3.0
100
AcDbArc
 50
270.0
 51
0.0
  0
LINE
  5
7FF0
100
AcDbEntity
  8
0
100
AcDbLine
 10
1542.768098
 20
368.253927
 30
0.0
 11
1542.768098
 21
385.530802
 31
0.0
  0
LINE
  5
7FF1
100
AcDbEntity
  8
0
100
AcDbLine
 10
1554.274674
 20
362.72011
 30
0.0
 11
1549.583745
 21
363.97704
 31
0.0
  0
LINE
  5
7FF2
100
AcDbEntity
  8
0
100
AcDbLine
 10
1554.399823
 20
359.04607
 30
0.0
 11
1552.481523
 21
356.027979
 31
0.0
  0
LINE
  5
7FF3
100
AcDbEntity
  8
0
100
AcDbLine
 10
1548.067996
 20
362.46129
 30
0.0
 11
1547.470279
 21
364.692001
 31
0.0
  0
ARC
  5
7FF4
100
AcDbEntity
  8
0
100
AcDbCircle
 10
1545.768098
 20
368.253927
 30
0.0
 40
3.0
100
AcDbArc
 50
180.0
 51
255.0
  0
LINE
  5
7FF5
100
AcDbEntity
  8
0
100
AcDbLine
 10
1547.470279
 20
364.692001
 30
0.0
 11
1544.991641
 21
365.35615
 31
0.0
  0
LINE
  5
7FF6
100
AcDbEntity
  8
0
100
AcDbLine
 10
1548.067996
 20
362.46129
 30
0.0
 11
1549.583745
 21
363.97704
 31
0.0
  0
LINE
  5
7FF7
100
AcDbEntity
  8
0
100
AcDbLine
 10
1552.481523
 20
356.027979
 30
0.0
 11
1547.790594
 21
357.28491
 31
0.0
  0
LINE
  5
7FF8
100
AcDbEntity
  8
0
100
AcDbLine
 10
1547.638343
 20
360.857803
 30
0.0
 11
1547.790594
 21
357.28491
 31
0.0
  0
LINE
  5
7FF9
100
AcDbEntity
  8
0
100
AcDbLine
 10
1554.829476
 20
360.649557
 30
0.0
 11
1554.274674
 21
362.72011
 31
0.0
  0
LINE
  5
7FFA
100
AcDbEntity
  8
0
100
AcDbLine
 10
1569.592678
 20
400.58759
 30
0.0
 11
1545.077625
 21
389.156033
 31
0.0
  0
ARC
  5
7FFB
100
AcDbEntity
  8
0
100
AcDbCircle
 10
1546.768098
 20
385.530802
 30
0.0
 40
4.0
100
AcDbArc
 50
115.0
 51
180.0
  0
LINE
  5
7FFC
100
AcDbEntity
  8
0
100
AcDbLine
 10
1571.768098
 20
400.58759
 30
0.0
 11
1569.592678
 21
400.58759
 31
0.0
  0
LINE
  5
7FFD
100
AcDbEntity
  8
0
100
AcDbLine
 10
1536.778715
 20
417.58759
 30
0.0
 11
1502.01431
 21
417.58759
 31
0.0
  0
LINE
  5
7FFE
100
AcDbEntity
  8
0
100
AcDbLine
 10
1503.768098
 20
446.58759
 30
0.0
 11
1503.768098
 21
455.58759
 31
0.0
  0
LINE
  5
7FFF
100
AcDbEntity
  8
0
100
AcDbLine
 10
1502.268098
 20
455.58759
 30
0.0
 11
1502.268098
 21
468.58759
 31
0.0
  0
LINE
  5
8000
100
AcDbEntity
  8
0
100
AcDbLine
 10
1516.458921
 20
449.08759
 30
0.0
 11
1518.912659
 21
448.152472
 31
0.0
  0
LINE
  5
8001
100
AcDbEntity
  8
0
100
AcDbLine
 10
1533.635091
 20
448.152472
 30
0.0
 11
1531.181352
 21
449.08759
 31
0.0
  0
LINE
  5
8002
100
AcDbEntity
  8
0
100
AcDbLine
 10
1533.635091
 20
448.152472
 30
0.0
 11
1532.070137
 21
449.08759
 31
0.0
  0
LINE
  5
8003
100
AcDbEntity
  8
0
100
AcDbLine
 10
1531.181352
 20
449.08759
 30
0.0
 11
1528.727614
 21
448.152472
 31
0.0
  0
LINE
  5
8004
100
AcDbEntity
  8
0
100
AcDbLine
 10
1523.820137
 20
449.08759
 30
0.0
 11
1518.870888
 21
448.135872
 31
0.0
  0
LINE
  5
8005
100
AcDbEntity
  8
0
100
AcDbLine
 10
1528.727614
 20
448.152472
 30
0.0
 11
1523.820137
 21
449.08759
 31
0.0
  0
LINE
  5
8006
100
AcDbEntity
  8
0
100
AcDbLine
 10
1515.570137
 20
449.08759
 30
0.0
 11
1514.005182
 21
448.152472
 31
0.0
  0
LINE
  5
8007
100
AcDbEntity
  8
0
100
AcDbLine
 10
1532.070137
 20
449.08759
 30
0.0
 11
1515.570137
 21
449.08759
 31
0.0
  0
LINE
  5
8008
100
AcDbEntity
  8
0
100
AcDbLine
 10
1514.005182
 20
448.152472
 30
0.0
 11
1516.458921
 21
449.08759
 31
0.0
  0
LINE
  5
8009
100
AcDbEntity
  8
0
100
AcDbLine
 10
1528.727614
 20
448.152472
 30
0.0
 11
1528.727614
 21
442.08759
 31
0.0
  0
LINE
  5
800A
100
AcDbEntity
  8
0
100
AcDbLine
 10
1518.912659
 20
448.152472
 30
0.0
 11
1518.912659
 21
442.08759
 31
0.0
  0
LINE
  5
800B
100
AcDbEntity
  8
0
100
AcDbLine
 10
1533.635091
 20
442.084725
 30
0.0
 11
1533.635091
 21
448.152472
 31
0.0
  0
LINE
  5
800C
100
AcDbEntity
  8
0
100
AcDbLine
 10
1514.005182
 20
448.152472
 30
0.0
 11
1514.005182
 21
442.08759
 31
0.0
  0
LINE
  5
800D
100
AcDbEntity
  8
0
100
AcDbLine
 10
1536.778715
 20
442.08759
 30
0.0
 11
1536.778715
 21
417.58759
 31
0.0
  0
LINE
  5
800E
100
AcDbEntity
  8
0
100
AcDbLine
 10
1562.173482
 20
432.436055
 30
0.0
 11
1551.775915
 21
427.58759
 31
0.0
  0
LINE
  5
800F
100
AcDbEntity
  8
0
100
AcDbLine
 10
1551.775915
 20
427.58759
 30
0.0
 11
1536.778715
 21
427.58759
 31
0.0
  0
LINE
  5
8010
100
AcDbEntity
  8
0
100
AcDbLine
 10
1593.768098
 20
421.58759
 30
0.0
 11
1593.768098
 21
371.58759
 31
0.0
  0
LINE
  5
8011
100
AcDbEntity
  8
0
100
AcDbLine
 10
1575.768098
 20
371.58759
 30
0.0
 11
1593.768098
 21
371.58759
 31
0.0
  0
ARC
  5
8012
100
AcDbEntity
  8
0
100
AcDbCircle
 10
1571.768098
 20
448.49722
 30
0.0
 40
4.0
100
AcDbArc
 50
316.801409
 51
0.0
  0
LINE
  5
8013
100
AcDbEntity
  8
0
100
AcDbLine
 10
1575.768098
 20
471.58759
 30
0.0
 11
1593.768098
 21
471.58759
 31
0.0
  0
LINE
  5
8014
100
AcDbEntity
  8
0
100
AcDbLine
 10
1575.768098
 20
582.444721
 30
0.0
 11
1593.768098
 21
582.444721
 31
0.0
  0
CIRCLE
  5
8015
100
AcDbEntity
  8
0
100
AcDbCircle
 10
1706.08728
 20
421.58759
 30
0.0
 40
50.0
  0
CIRCLE
  5
8016
100
AcDbEntity
  8
0
100
AcDbCircle
 10
1732.58728
 20
448.120588
 30
0.0
 40
7.5
  0
CIRCLE
  5
8017
100
AcDbEntity
  8
0
100
AcDbCircle
 10
1732.58728
 20
395.054592
 30
0.0
 40
7.5
  0
ELLIPSE
  5
8018
100
AcDbEntity
  8
0
100
AcDbEllipse
 10
1706.08728
 20
352.088863
 30
0.0
 11
-15.93
 21
0.0
 31
0.0
210
0.0
220
0.0
230
1.0
 40
0.965963
 41
3.611601511675273
 42
5.813176449094401
  0
LINE
  5
8019
100
AcDbEntity
  8
0
100
AcDbLine
 10
1706.08728
 20
362.982959
 30
0.0
 11
1694.08728
 21
356.290828
 31
0.0
  0
LINE
  5
801A
100
AcDbEntity
  8
0
100
AcDbLine
 10
1706.08728
 20
364.239889
 30
0.0
 11
1694.08728
 21
357.547759
 31
0.0
  0
LINE
  5
801B
100
AcDbEntity
  8
0
100
AcDbLine
 10
1674.08728
 20
364.58759
 30
0.0
 11
1674.08728
 21
383.168845
 31
0.0
  0
CIRCLE
  5
801C
100
AcDbEntity
  8
0
100
AcDbCircle
 10
1674.717442
 20
358.307022
 30
0.0
 40
0.0
  0
ARC
  5
801D
100
AcDbEntity
  8
0
100
AcDbCircle
 10
1706.08728
 20
364.626295
 30
0.0
 40
32.0
100
AcDbArc
 50
180.0
 51
191.389476
  0
LINE
  5
801E
100
AcDbEntity
  8
0
100
AcDbLine
 10
1694.08728
 20
357.547759
 30
0.0
 11
1694.08728
 21
356.290828
 31
0.0
  0
CIRCLE
  5
801F
100
AcDbEntity
  8
0
100
AcDbCircle
 10
1679.58728
 20
395.054592
 30
0.0
 40
7.5
  0
LINE
  5
8020
100
AcDbEntity
  8
0
100
AcDbLine
 10
1706.08728
 20
362.982959
 30
0.0
 11
1718.08728
 21
356.290828
 31
0.0
  0
LINE
  5
8021
100
AcDbEntity
  8
0
100
AcDbLine
 10
1706.08728
 20
364.239889
 30
0.0
 11
1718.08728
 21
357.547759
 31
0.0
  0
LINE
  5
8022
100
AcDbEntity
  8
0
100
AcDbLine
 10
1706.08728
 20
364.239889
 30
0.0
 11
1706.08728
 21
362.982959
 31
0.0
  0
LINE
  5
8023
100
AcDbEntity
  8
0
100
AcDbLine
 10
1718.08728
 20
357.547759
 30
0.0
 11
1718.08728
 21
356.290828
 31
0.0
  0
CIRCLE
  5
8024
100
AcDbEntity
  8
0
100
AcDbCircle
 10
1679.58728
 20
448.120588
 30
0.0
 40
7.5
  0
LINE
  5
8025
100
AcDbEntity
  8
0
100
AcDbLine
 10
1738.08728
 20
364.58759
 30
0.0
 11
1738.08728
 21
383.168845
 31
0.0
  0
LINE
  5
8026
100
AcDbEntity
  8
0
100
AcDbLine
 10
1574.68404
 20
656.616234
 30
0.0
 11
1567.010856
 21
648.444721
 31
0.0
  0
LINE
  5
8027
100
AcDbEntity
  8
0
100
AcDbLine
 10
1574.68404
 20
656.616234
 30
0.0
 11
1567.010856
 21
648.444721
 31
0.0
  0
LINE
  5
8028
100
AcDbEntity
  8
0
100
AcDbLine
 10
1574.68404
 20
608.273207
 30
0.0
 11
1567.010856
 21
616.444721
 31
0.0
  0
LINE
  5
8029
100
AcDbEntity
  8
0
100
AcDbLine
 10
1574.68404
 20
608.273207
 30
0.0
 11
1567.010856
 21
616.444721
 31
0.0
  0
ARC
  5
802A
100
AcDbEntity
  8
0
100
AcDbCircle
 10
1493.768098
 20
632.444721
 30
0.0
 40
43.0
100
AcDbArc
 50
340.110811
 51
19.889189
  0
LINE
  5
802B
100
AcDbEntity
  8
0
100
AcDbLine
 10
1567.010856
 20
644.919415
 30
0.0
 11
1567.010856
 21
619.970026
 31
0.0
  0
LINE
  5
802C
100
AcDbEntity
  8
0
100
AcDbLine
 10
1567.010856
 20
644.919415
 30
0.0
 11
1567.010856
 21
619.970026
 31
0.0
  0
LINE
  5
802D
100
AcDbEntity
  8
0
100
AcDbLine
 10
1524.880797
 20
638.444721
 30
0.0
 11
1536.347436
 21
638.444721
 31
0.0
  0
LINE
  5
802E
100
AcDbEntity
  8
0
100
AcDbLine
 10
1524.880797
 20
626.444721
 30
0.0
 11
1536.347436
 21
626.444721
 31
0.0
  0
ARC
  5
802F
100
AcDbEntity
  8
0
100
AcDbCircle
 10
1524.063239
 20
601.444721
 30
0.0
 40
9.0
100
AcDbArc
 50
270.0
 51
346.694062
  0
ARC
  5
8030
100
AcDbEntity
  8
0
100
AcDbCircle
 10
1194.518098
 20
632.444721
 30
0.0
 40
340.0
100
AcDbArc
 50
354.626054
 51
357.534056
  0
LINE
  5
8031
100
AcDbEntity
  8
0
100
AcDbLine
 10
1514.339956
 20
604.933317
 30
0.0
 11
1521.279502
 21
611.872863
 31
0.0
  0
LINE
  5
8032
100
AcDbEntity
  8
0
100
AcDbLine
 10
1521.279502
 20
611.872863
 30
0.0
 11
1530.76039
 21
609.332935
 31
0.0
  0
LINE
  5
8033
100
AcDbEntity
  8
0
100
AcDbLine
 10
1533.300317
 20
599.852048
 30
0.0
 11
1526.360771
 21
592.912502
 31
0.0
  0
LINE
  5
8034
100
AcDbEntity
  8
0
100
AcDbLine
 10
1526.360771
 20
592.912502
 30
0.0
 11
1516.879883
 21
595.452429
 31
0.0
  0
CIRCLE
  5
8035
100
AcDbEntity
  8
0
100
AcDbCircle
 10
1523.820137
 20
602.392682
 30
0.0
 40
8.24991
  0
LINE
  5
8036
100
AcDbEntity
  8
0
100
AcDbLine
 10
1516.879883
 20
595.452429
 30
0.0
 11
1514.339956
 21
604.933317
 31
0.0
  0
LINE
  5
8037
100
AcDbEntity
  8
0
100
AcDbLine
 10
1530.76039
 20
609.332935
 30
0.0
 11
1533.300317
 21
599.852048
 31
0.0
  0
LINE
  5
8038
100
AcDbEntity
  8
0
100
AcDbLine
 10
1502.268098
 20
637.712547
 30
0.0
 11
1502.268098
 21
627.176894
 31
0.0
  0
ARC
  5
8039
100
AcDbEntity
  8
0
100
AcDbCircle
 10
1524.880797
 20
643.444721
 30
0.0
 40
5.0
100
AcDbArc
 50
199.471221
 51
270.0
  0
ARC
  5
803A
100
AcDbEntity
  8
0
100
AcDbCircle
 10
1524.880797
 20
621.444721
 30
0.0
 40
5.0
100
AcDbArc
 50
90.0
 51
160.528779
  0
LINE
  5
803B
100
AcDbEntity
  8
0
100
AcDbLine
 10
1567.010856
 20
616.444721
 30
0.0
 11
1534.141419
 21
616.444721
 31
0.0
  0
ARC
  5
803C
100
AcDbEntity
  8
0
100
AcDbCircle
 10
1194.518098
 20
632.444721
 30
0.0
 40
340.0
100
AcDbArc
 50
2.465944
 51
5.373946
  0
ARC
  5
803D
100
AcDbEntity
  8
0
100
AcDbCircle
 10
1524.063239
 20
663.444721
 30
0.0
 40
9.0
100
AcDbArc
 50
13.305938
 51
90.0
  0
LINE
  5
803E
100
AcDbEntity
  8
0
100
AcDbLine
 10
1526.360771
 20
671.976939
 30
0.0
 11
1533.300317
 21
665.037393
 31
0.0
  0
LINE
  5
803F
100
AcDbEntity
  8
0
100
AcDbLine
 10
1516.879883
 20
669.437012
 30
0.0
 11
1526.360771
 21
671.976939
 31
0.0
  0
LINE
  5
8040
100
AcDbEntity
  8
0
100
AcDbLine
 10
1514.339956
 20
659.956124
 30
0.0
 11
1516.879883
 21
669.437012
 31
0.0
  0
LINE
  5
8041
100
AcDbEntity
  8
0
100
AcDbLine
 10
1533.300317
 20
665.037393
 30
0.0
 11
1530.76039
 21
655.556506
 31
0.0
  0
LINE
  5
8042
100
AcDbEntity
  8
0
100
AcDbLine
 10
1521.279502
 20
653.016578
 30
0.0
 11
1514.339956
 21
659.956124
 31
0.0
  0
CIRCLE
  5
8043
100
AcDbEntity
  8
0
100
AcDbCircle
 10
1523.820137
 20
662.496759
 30
0.0
 40
8.24991
  0
LINE
  5
8044
100
AcDbEntity
  8
0
100
AcDbLine
 10
1530.76039
 20
655.556506
 30
0.0
 11
1521.279502
 21
653.016578
 31
0.0
  0
LINE
  5
8045
100
AcDbEntity
  8
0
100
AcDbLine
 10
1567.010856
 20
648.444721
 30
0.0
 11
1534.141419
 21
648.444721
 31
0.0
  0
LINE
  5
8046
100
AcDbEntity
  8
0
100
AcDbLine
 10
1593.768098
 20
632.444721
 30
0.0
 11
1593.768098
 21
682.444721
 31
0.0
  0
ARC
  5
8047
100
AcDbEntity
  8
0
100
AcDbCircle
 10
1571.768098
 20
605.53509
 30
0.0
 40
4.0
100
AcDbArc
 50
0.0
 51
43.198591
  0
ARC
  5
8048
100
AcDbEntity
  8
0
100
AcDbCircle
 10
1571.768098
 20
605.53509
 30
0.0
 40
4.0
100
AcDbArc
 50
0.0
 51
43.198591
  0
ARC
  5
8049
100
AcDbEntity
  8
0
100
AcDbCircle
 10
1571.768098
 20
659.354351
 30
0.0
 40
4.0
100
AcDbArc
 50
316.801409
 51
0.0
  0
ARC
  5
804A
100
AcDbEntity
  8
0
100
AcDbCircle
 10
1571.768098
 20
659.354351
 30
0.0
 40
4.0
100
AcDbArc
 50
316.801409
 51
0.0
  0
LINE
  5
804B
100
AcDbEntity
  8
0
100
AcDbLine
 10
1575.768098
 20
682.444721
 30
0.0
 11
1593.768098
 21
682.444721
 31
0.0
  0
LINE
  5
804C
100
AcDbEntity
  8
0
100
AcDbLine
 10
1530.768098
 20
785.158475
 30
0.0
 11
1530.768098
 21
800.505995
 31
0.0
  0
ARC
  5
804D
100
AcDbEntity
  8
0
100
AcDbCircle
 10
1534.768098
 20
800.505995
 30
0.0
 40
4.0
100
AcDbArc
 50
115.0
 51
180.0
  0
LINE
  5
804E
100
AcDbEntity
  8
0
100
AcDbLine
 10
1575.768098
 20
792.158475
 30
0.0
 11
1593.768098
 21
792.158475
 31
0.0
  0
ARC
  5
804F
100
AcDbEntity
  8
0
100
AcDbCircle
 10
811.942468
 20
861.102929
 30
0.0
 40
4.0
100
AcDbArc
 50
180.0
 51
248.198591
  0
ARC
  5
8050
100
AcDbEntity
  8
0
100
AcDbCircle
 10
811.942468
 20
821.908475
 30
0.0
 40
4.0
100
AcDbArc
 50
90.0
 51
180.0
  0
LINE
  5
8051
100
AcDbEntity
  8
0
100
AcDbLine
 10
791.942468
 20
842.158475
 30
0.0
 11
791.942468
 21
889.658475
 31
0.0
  0
LINE
  5
8052
100
AcDbEntity
  8
0
100
AcDbLine
 10
791.942468
 20
889.658475
 30
0.0
 11
807.942468
 21
889.658475
 31
0.0
  0
LINE
  5
8053
100
AcDbEntity
  8
0
100
AcDbLine
 10
891.942468
 20
881.158475
 30
0.0
 11
871.942468
 21
881.158475
 31
0.0
  0
LINE
  5
8054
100
AcDbEntity
  8
0
100
AcDbLine
 10
890.442468
 20
894.158475
 30
0.0
 11
873.442468
 21
894.158475
 31
0.0
  0
LINE
  5
8055
100
AcDbEntity
  8
0
100
AcDbLine
 10
922.692468
 20
855.158475
 30
0.0
 11
838.931851
 21
855.158475
 31
0.0
  0
LINE
  5
8056
100
AcDbEntity
  8
0
100
AcDbLine
 10
922.692468
 20
867.658475
 30
0.0
 11
838.931851
 21
867.658475
 31
0.0
  0
LINE
  5
8057
100
AcDbEntity
  8
0
100
AcDbLine
 10
841.442468
 20
855.158475
 30
0.0
 11
933.942468
 21
855.158475
 31
0.0
  0
LINE
  5
8058
100
AcDbEntity
  8
0
100
AcDbLine
 10
902.177037
 20
872.158475
 30
0.0
 11
861.70287
 21
872.158475
 31
0.0
  0
LINE
  5
8059
100
AcDbEntity
  8
0
100
AcDbLine
 10
852.942468
 20
824.158475
 30
0.0
 11
910.942468
 21
824.158475
 31
0.0
  0
LINE
  5
805A
100
AcDbEntity
  8
0
100
AcDbLine
 10
838.931851
 20
843.158475
 30
0.0
 11
921.942468
 21
843.158475
 31
0.0
  0
LINE
  5
805B
100
AcDbEntity
  8
0
100
AcDbLine
 10
861.70287
 20
873.723357
 30
0.0
 11
861.70287
 21
867.658475
 31
0.0
  0
LINE
  5
805C
100
AcDbEntity
  8
0
100
AcDbLine
 10
846.980438
 20
873.723357
 30
0.0
 11
846.980438
 21
867.658475
 31
0.0
  0
LINE
  5
805D
100
AcDbEntity
  8
0
100
AcDbLine
 10
842.072961
 20
867.65561
 30
0.0
 11
842.072961
 21
873.723357
 31
0.0
  0
LINE
  5
805E
100
AcDbEntity
  8
0
100
AcDbLine
 10
856.795392
 20
873.723357
 30
0.0
 11
856.795392
 21
867.658475
 31
0.0
  0
LINE
  5
805F
100
AcDbEntity
  8
0
100
AcDbLine
 10
871.942468
 20
872.158475
 30
0.0
 11
871.942468
 21
881.158475
 31
0.0
  0
LINE
  5
8060
100
AcDbEntity
  8
0
100
AcDbLine
 10
838.931851
 20
867.658475
 30
0.0
 11
838.931851
 21
843.158475
 31
0.0
  0
LINE
  5
8061
100
AcDbEntity
  8
0
100
AcDbLine
 10
818.411667
 20
825.908475
 30
0.0
 11
829.977744
 21
822.809354
 31
0.0
  0
LINE
  5
8062
100
AcDbEntity
  8
0
100
AcDbLine
 10
811.942468
 20
825.908475
 30
0.0
 11
818.411667
 21
825.908475
 31
0.0
  0
ARC
  5
8063
100
AcDbEntity
  8
0
100
AcDbCircle
 10
828.942468
 20
818.945651
 30
0.0
 40
4.0
100
AcDbArc
 50
0.0
 51
75.0
  0
LINE
  5
8064
100
AcDbEntity
  8
0
100
AcDbLine
 10
821.033272
 20
853.158475
 30
0.0
 11
838.931851
 21
853.158475
 31
0.0
  0
LINE
  5
8065
100
AcDbEntity
  8
0
100
AcDbLine
 10
821.033272
 20
853.158475
 30
0.0
 11
810.456905
 21
857.389022
 31
0.0
  0
ARC
  5
8066
100
AcDbEntity
  8
0
100
AcDbCircle
 10
852.942468
 20
827.158475
 30
0.0
 40
3.0
100
AcDbArc
 50
180.0
 51
270.0
  0
LINE
  5
8067
100
AcDbEntity
  8
0
100
AcDbLine
 10
843.637915
 20
874.658475
 30
0.0
 11
860.137915
 21
874.658475
 31
0.0
  0
LINE
  5
8068
100
AcDbEntity
  8
0
100
AcDbLine
 10
846.980438
 20
873.723357
 30
0.0
 11
851.887915
 21
874.658475
 31
0.0
  0
LINE
  5
8069
100
AcDbEntity
  8
0
100
AcDbLine
 10
842.072961
 20
873.723357
 30
0.0
 11
844.526699
 21
874.658475
 31
0.0
  0
LINE
  5
806A
100
AcDbEntity
  8
0
100
AcDbLine
 10
842.072961
 20
873.723357
 30
0.0
 11
843.637915
 21
874.658475
 31
0.0
  0
LINE
  5
806B
100
AcDbEntity
  8
0
100
AcDbLine
 10
844.526699
 20
874.658475
 30
0.0
 11
846.980438
 21
873.723357
 31
0.0
  0
LINE
  5
806C
100
AcDbEntity
  8
0
100
AcDbLine
 10
851.887915
 20
874.658475
 30
0.0
 11
856.837163
 21
873.706757
 31
0.0
  0
LINE
  5
806D
100
AcDbEntity
  8
0
100
AcDbLine
 10
859.249131
 20
874.658475
 30
0.0
 11
856.795392
 21
873.723357
 31
0.0
  0
LINE
  5
806E
100
AcDbEntity
  8
0
100
AcDbLine
 10
861.70287
 20
873.723357
 30
0.0
 11
859.249131
 21
874.658475
 31
0.0
  0
LINE
  5
806F
100
AcDbEntity
  8
0
100
AcDbLine
 10
860.137915
 20
874.658475
 30
0.0
 11
861.70287
 21
873.723357
 31
0.0
  0
LINE
  5
8070
100
AcDbEntity
  8
0
100
AcDbLine
 10
873.442468
 20
881.158475
 30
0.0
 11
873.442468
 21
894.158475
 31
0.0
  0
LINE
  5
8071
100
AcDbEntity
  8
0
100
AcDbLine
 10
902.177037
 20
873.723357
 30
0.0
 11
902.177037
 21
867.658475
 31
0.0
  0
LINE
  5
8072
100
AcDbEntity
  8
0
100
AcDbLine
 10
907.084514
 20
873.723357
 30
0.0
 11
907.084514
 21
867.658475
 31
0.0
  0
LINE
  5
8073
100
AcDbEntity
  8
0
100
AcDbLine
 10
921.806946
 20
867.65561
 30
0.0
 11
921.806946
 21
873.723357
 31
0.0
  0
LINE
  5
8074
100
AcDbEntity
  8
0
100
AcDbLine
 10
916.899469
 20
873.723357
 30
0.0
 11
916.899469
 21
867.658475
 31
0.0
  0
LINE
  5
8075
100
AcDbEntity
  8
0
100
AcDbLine
 10
891.942468
 20
872.158475
 30
0.0
 11
891.942468
 21
881.158475
 31
0.0
  0
LINE
  5
8076
100
AcDbEntity
  8
0
100
AcDbLine
 10
966.942468
 20
842.158475
 30
0.0
 11
966.942468
 21
889.658475
 31
0.0
  0
LINE
  5
8077
100
AcDbEntity
  8
0
100
AcDbLine
 10
921.942468
 20
853.158475
 30
0.0
 11
937.851663
 21
853.158475
 31
0.0
  0
LINE
  5
8078
100
AcDbEntity
  8
0
100
AcDbLine
 10
940.473268
 20
825.908475
 30
0.0
 11
918.389554
 21
819.991162
 31
0.0
  0
LINE
  5
8079
100
AcDbEntity
  8
0
100
AcDbLine
 10
921.942468
 20
843.158475
 30
0.0
 11
921.942468
 21
855.158475
 31
0.0
  0
ARC
  5
807A
100
AcDbEntity
  8
0
100
AcDbCircle
 10
910.942468
 20
827.158475
 30
0.0
 40
3.0
100
AcDbArc
 50
270.0
 51
0.0
  0
LINE
  5
807B
100
AcDbEntity
  8
0
100
AcDbLine
 10
913.942468
 20
827.158475
 30
0.0
 11
913.942468
 21
843.158475
 31
0.0
  0
LINE
  5
807C
100
AcDbEntity
  8
0
100
AcDbLine
 10
922.692468
 20
855.158475
 30
0.0
 11
922.692468
 21
867.658475
 31
0.0
  0
ARC
  5
807D
100
AcDbEntity
  8
0
100
AcDbCircle
 10
946.942468
 20
821.908475
 30
0.0
 40
4.0
100
AcDbArc
 50
0.0
 51
90.0
  0
LINE
  5
807E
100
AcDbEntity
  8
0
100
AcDbLine
 10
946.942468
 20
825.908475
 30
0.0
 11
940.473268
 21
825.908475
 31
0.0
  0
ARC
  5
807F
100
AcDbEntity
  8
0
100
AcDbCircle
 10
946.942468
 20
861.102929
 30
0.0
 40
4.0
100
AcDbArc
 50
291.801409
 51
0.0
  0
LINE
  5
8080
100
AcDbEntity
  8
0
100
AcDbLine
 10
937.851663
 20
853.158475
 30
0.0
 11
948.42803
 21
857.389022
 31
0.0
  0
LINE
  5
8081
100
AcDbEntity
  8
0
100
AcDbLine
 10
933.942468
 20
853.158475
 30
0.0
 11
933.942468
 21
855.158475
 31
0.0
  0
LINE
  5
8082
100
AcDbEntity
  8
0
100
AcDbLine
 10
920.241992
 20
874.658475
 30
0.0
 11
903.741992
 21
874.658475
 31
0.0
  0
LINE
  5
8083
100
AcDbEntity
  8
0
100
AcDbLine
 10
911.991992
 20
874.658475
 30
0.0
 11
907.042743
 21
873.706757
 31
0.0
  0
LINE
  5
8084
100
AcDbEntity
  8
0
100
AcDbLine
 10
890.442468
 20
881.158475
 30
0.0
 11
890.442468
 21
894.158475
 31
0.0
  0
LINE
  5
8085
100
AcDbEntity
  8
0
100
AcDbLine
 10
904.630776
 20
874.658475
 30
0.0
 11
907.084514
 21
873.723357
 31
0.0
  0
LINE
  5
8086
100
AcDbEntity
  8
0
100
AcDbLine
 10
903.741992
 20
874.658475
 30
0.0
 11
902.177037
 21
873.723357
 31
0.0
  0
LINE
  5
8087
100
AcDbEntity
  8
0
100
AcDbLine
 10
902.177037
 20
873.723357
 30
0.0
 11
904.630776
 21
874.658475
 31
0.0
  0
LINE
  5
8088
100
AcDbEntity
  8
0
100
AcDbLine
 10
916.899469
 20
873.723357
 30
0.0
 11
911.991992
 21
874.658475
 31
0.0
  0
LINE
  5
8089
100
AcDbEntity
  8
0
100
AcDbLine
 10
919.353207
 20
874.658475
 30
0.0
 11
916.899469
 21
873.723357
 31
0.0
  0
LINE
  5
808A
100
AcDbEntity
  8
0
100
AcDbLine
 10
921.806946
 20
873.723357
 30
0.0
 11
920.241992
 21
874.658475
 31
0.0
  0
LINE
  5
808B
100
AcDbEntity
  8
0
100
AcDbLine
 10
921.806946
 20
873.723357
 30
0.0
 11
919.353207
 21
874.658475
 31
0.0
  0
LINE
  5
808C
100
AcDbEntity
  8
0
100
AcDbLine
 10
950.942468
 20
889.658475
 30
0.0
 11
966.942468
 21
889.658475
 31
0.0
  0
LINE
  5
808D
100
AcDbEntity
  8
0
100
AcDbLine
 10
1507.268098
 20
889.158475
 30
0.0
 11
1490.268098
 21
889.158475
 31
0.0
  0
LINE
  5
808E
100
AcDbEntity
  8
0
100
AcDbLine
 10
1508.768098
 20
876.158475
 30
0.0
 11
1488.768098
 21
876.158475
 31
0.0
  0
LINE
  5
808F
100
AcDbEntity
  8
0
100
AcDbLine
 10
1519.002668
 20
867.158475
 30
0.0
 11
1478.5285
 21
867.158475
 31
0.0
  0
LINE
  5
8090
100
AcDbEntity
  8
0
100
AcDbLine
 10
1455.757481
 20
838.158475
 30
0.0
 11
1538.768098
 21
838.158475
 31
0.0
  0
LINE
  5
8091
100
AcDbEntity
  8
0
100
AcDbLine
 10
1469.768098
 20
819.158475
 30
0.0
 11
1527.768098
 21
819.158475
 31
0.0
  0
LINE
  5
8092
100
AcDbEntity
  8
0
100
AcDbLine
 10
1455.757481
 20
850.158475
 30
0.0
 11
1550.768098
 21
850.158475
 31
0.0
  0
LINE
  5
8093
100
AcDbEntity
  8
0
100
AcDbLine
 10
1539.518098
 20
862.658475
 30
0.0
 11
1455.757481
 21
862.658475
 31
0.0
  0
LINE
  5
8094
100
AcDbEntity
  8
0
100
AcDbLine
 10
1398.768098
 20
892.158475
 30
0.0
 11
1416.768098
 21
892.158475
 31
0.0
  0
LINE
  5
8095
100
AcDbEntity
  8
0
100
AcDbLine
 10
1398.768098
 20
842.158475
 30
0.0
 11
1398.768098
 21
892.158475
 31
0.0
  0
LINE
  5
8096
100
AcDbEntity
  8
0
100
AcDbLine
 10
1488.768098
 20
867.158475
 30
0.0
 11
1488.768098
 21
876.158475
 31
0.0
  0
LINE
  5
8097
100
AcDbEntity
  8
0
100
AcDbLine
 10
1440.760282
 20
848.158475
 30
0.0
 11
1455.757481
 21
848.158475
 31
0.0
  0
LINE
  5
8098
100
AcDbEntity
  8
0
100
AcDbLine
 10
1420.768098
 20
821.158475
 30
0.0
 11
1422.943518
 21
821.158475
 31
0.0
  0
ARC
  5
8099
100
AcDbEntity
  8
0
100
AcDbCircle
 10
1420.768098
 20
817.158475
 30
0.0
 40
4.0
100
AcDbArc
 50
90.0
 51
180.0
  0
LINE
  5
809A
100
AcDbEntity
  8
0
100
AcDbLine
 10
1420.768098
 20
821.158475
 30
0.0
 11
1422.943518
 21
821.158475
 31
0.0
  0
LINE
  5
809B
100
AcDbEntity
  8
0
100
AcDbLine
 10
1430.362715
 20
853.00694
 30
0.0
 11
1440.760282
 21
848.158475
 31
0.0
  0
ARC
  5
809C
100
AcDbEntity
  8
0
100
AcDbCircle
 10
1420.768098
 20
869.068106
 30
0.0
 40
4.0
100
AcDbArc
 50
180.0
 51
223.198591
  0
LINE
  5
809D
100
AcDbEntity
  8
0
100
AcDbLine
 10
1417.852156
 20
866.329989
 30
0.0
 11
1430.362715
 21
853.00694
 31
0.0
  0
LINE
  5
809E
100
AcDbEntity
  8
0
100
AcDbLine
 10
1455.757481
 20
862.658475
 30
0.0
 11
1455.757481
 21
838.158475
 31
0.0
  0
ARC
  5
809F
100
AcDbEntity
  8
0
100
AcDbCircle
 10
1469.768098
 20
822.158475
 30
0.0
 40
3.0
100
AcDbArc
 50
180.0
 51
270.0
  0
LINE
  5
80A0
100
AcDbEntity
  8
0
100
AcDbLine
 10
1468.713546
 20
869.658475
 30
0.0
 11
1473.662794
 21
868.706757
 31
0.0
  0
LINE
  5
80A1
100
AcDbEntity
  8
0
100
AcDbLine
 10
1460.463546
 20
869.658475
 30
0.0
 11
1476.963546
 21
869.658475
 31
0.0
  0
LINE
  5
80A2
100
AcDbEntity
  8
0
100
AcDbLine
 10
1458.898591
 20
868.723357
 30
0.0
 11
1461.35233
 21
869.658475
 31
0.0
  0
LINE
  5
80A3
100
AcDbEntity
  8
0
100
AcDbLine
 10
1458.898591
 20
868.723357
 30
0.0
 11
1460.463546
 21
869.658475
 31
0.0
  0
LINE
  5
80A4
100
AcDbEntity
  8
0
100
AcDbLine
 10
1461.35233
 20
869.658475
 30
0.0
 11
1463.806068
 21
868.723357
 31
0.0
  0
LINE
  5
80A5
100
AcDbEntity
  8
0
100
AcDbLine
 10
1463.806068
 20
868.723357
 30
0.0
 11
1468.713546
 21
869.658475
 31
0.0
  0
LINE
  5
80A6
100
AcDbEntity
  8
0
100
AcDbLine
 10
1463.806068
 20
868.723357
 30
0.0
 11
1463.806068
 21
862.658475
 31
0.0
  0
LINE
  5
80A7
100
AcDbEntity
  8
0
100
AcDbLine
 10
1458.898591
 20
862.65561
 30
0.0
 11
1458.898591
 21
868.723357
 31
0.0
  0
LINE
  5
80A8
100
AcDbEntity
  8
0
100
AcDbLine
 10
1478.5285
 20
868.723357
 30
0.0
 11
1476.074762
 21
869.658475
 31
0.0
  0
LINE
  5
80A9
100
AcDbEntity
  8
0
100
AcDbLine
 10
1476.963546
 20
869.658475
 30
0.0
 11
1478.5285
 21
868.723357
 31
0.0
  0
LINE
  5
80AA
100
AcDbEntity
  8
0
100
AcDbLine
 10
1476.074762
 20
869.658475
 30
0.0
 11
1473.621023
 21
868.723357
 31
0.0
  0
LINE
  5
80AB
100
AcDbEntity
  8
0
100
AcDbLine
 10
1473.621023
 20
868.723357
 30
0.0
 11
1473.621023
 21
862.658475
 31
0.0
  0
LINE
  5
80AC
100
AcDbEntity
  8
0
100
AcDbLine
 10
1478.5285
 20
868.723357
 30
0.0
 11
1478.5285
 21
862.658475
 31
0.0
  0
LINE
  5
80AD
100
AcDbEntity
  8
0
100
AcDbLine
 10
1490.268098
 20
876.158475
 30
0.0
 11
1490.268098
 21
889.158475
 31
0.0
  0
LINE
  5
80AE
100
AcDbEntity
  8
0
100
AcDbLine
 10
1574.68404
 20
866.329989
 30
0.0
 11
1562.173482
 21
853.00694
 31
0.0
  0
ARC
  5
80AF
100
AcDbEntity
  8
0
100
AcDbCircle
 10
1571.768098
 20
817.158475
 30
0.0
 40
4.0
100
AcDbArc
 50
0.0
 51
90.0
  0
ARC
  5
80B0
100
AcDbEntity
  8
0
100
AcDbCircle
 10
1571.768098
 20
817.158475
 30
0.0
 40
4.0
100
AcDbArc
 50
0.0
 51
90.0
  0
LINE
  5
80B1
100
AcDbEntity
  8
0
100
AcDbLine
 10
1508.768098
 20
867.158475
 30
0.0
 11
1508.768098
 21
876.158475
 31
0.0
  0
LINE
  5
80B2
100
AcDbEntity
  8
0
100
AcDbLine
 10
1537.067622
 20
869.658475
 30
0.0
 11
1520.567622
 21
869.658475
 31
0.0
  0
LINE
  5
80B3
100
AcDbEntity
  8
0
100
AcDbLine
 10
1536.178838
 20
869.658475
 30
0.0
 11
1533.725099
 21
868.723357
 31
0.0
  0
ARC
  5
80B4
100
AcDbEntity
  8
0
100
AcDbCircle
 10
1527.768098
 20
822.158475
 30
0.0
 40
3.0
100
AcDbArc
 50
270.0
 51
0.0
  0
LINE
  5
80B5
100
AcDbEntity
  8
0
100
AcDbLine
 10
1530.768098
 20
822.158475
 30
0.0
 11
1530.768098
 21
838.158475
 31
0.0
  0
LINE
  5
80B6
100
AcDbEntity
  8
0
100
AcDbLine
 10
1533.725099
 20
868.723357
 30
0.0
 11
1528.817622
 21
869.658475
 31
0.0
  0
LINE
  5
80B7
100
AcDbEntity
  8
0
100
AcDbLine
 10
1528.817622
 20
869.658475
 30
0.0
 11
1523.868374
 21
868.706757
 31
0.0
  0
LINE
  5
80B8
100
AcDbEntity
  8
0
100
AcDbLine
 10
1521.456406
 20
869.658475
 30
0.0
 11
1523.910145
 21
868.723357
 31
0.0
  0
LINE
  5
80B9
100
AcDbEntity
  8
0
100
AcDbLine
 10
1520.567622
 20
869.658475
 30
0.0
 11
1519.002668
 21
868.723357
 31
0.0
  0
LINE
  5
80BA
100
AcDbEntity
  8
0
100
AcDbLine
 10
1519.002668
 20
868.723357
 30
0.0
 11
1521.456406
 21
869.658475
 31
0.0
  0
LINE
  5
80BB
100
AcDbEntity
  8
0
100
AcDbLine
 10
1519.002668
 20
868.723357
 30
0.0
 11
1519.002668
 21
862.658475
 31
0.0
  0
LINE
  5
80BC
100
AcDbEntity
  8
0
100
AcDbLine
 10
1523.910145
 20
868.723357
 30
0.0
 11
1523.910145
 21
862.658475
 31
0.0
  0
LINE
  5
80BD
100
AcDbEntity
  8
0
100
AcDbLine
 10
1533.725099
 20
868.723357
 30
0.0
 11
1533.725099
 21
862.658475
 31
0.0
  0
LINE
  5
80BE
100
AcDbEntity
  8
0
100
AcDbLine
 10
1538.768098
 20
838.158475
 30
0.0
 11
1538.768098
 21
850.158475
 31
0.0
  0
LINE
  5
80BF
100
AcDbEntity
  8
0
100
AcDbLine
 10
1571.768098
 20
821.158475
 30
0.0
 11
1569.592678
 21
821.158475
 31
0.0
  0
LINE
  5
80C0
100
AcDbEntity
  8
0
100
AcDbLine
 10
1562.173482
 20
853.00694
 30
0.0
 11
1551.775915
 21
848.158475
 31
0.0
  0
LINE
  5
80C1
100
AcDbEntity
  8
0
100
AcDbLine
 10
1550.768098
 20
848.158475
 30
0.0
 11
1550.768098
 21
850.158475
 31
0.0
  0
LINE
  5
80C2
100
AcDbEntity
  8
0
100
AcDbLine
 10
1538.632577
 20
868.723357
 30
0.0
 11
1537.067622
 21
869.658475
 31
0.0
  0
LINE
  5
80C3
100
AcDbEntity
  8
0
100
AcDbLine
 10
1538.632577
 20
868.723357
 30
0.0
 11
1536.178838
 21
869.658475
 31
0.0
  0
LINE
  5
80C4
100
AcDbEntity
  8
0
100
AcDbLine
 10
1538.632577
 20
862.65561
 30
0.0
 11
1538.632577
 21
868.723357
 31
0.0
  0
LINE
  5
80C5
100
AcDbEntity
  8
0
100
AcDbLine
 10
1539.518098
 20
850.158475
 30
0.0
 11
1539.518098
 21
862.658475
 31
0.0
  0
LINE
  5
80C6
100
AcDbEntity
  8
0
100
AcDbLine
 10
1538.768098
 20
848.158475
 30
0.0
 11
1551.775915
 21
848.158475
 31
0.0
  0
LINE
  5
80C7
100
AcDbEntity
  8
0
100
AcDbLine
 10
1507.268098
 20
876.158475
 30
0.0
 11
1507.268098
 21
889.158475
 31
0.0
  0
LINE
  5
80C8
100
AcDbEntity
  8
0
100
AcDbLine
 10
1593.768098
 20
842.158475
 30
0.0
 11
1593.768098
 21
892.158475
 31
0.0
  0
ARC
  5
80C9
100
AcDbEntity
  8
0
100
AcDbCircle
 10
1571.768098
 20
869.068106
 30
0.0
 40
4.0
100
AcDbArc
 50
316.801409
 51
0.0
  0
LINE
  5
80CA
100
AcDbEntity
  8
0
100
AcDbLine
 10
1575.768098
 20
892.158475
 30
0.0
 11
1593.768098
 21
892.158475
 31
0.0
  0
ARC
  5
80CB
100
AcDbEntity
  8
0
100
AcDbCircle
 10
2270.182922
 20
815.158475
 30
0.0
 40
4.0
100
AcDbArc
 50
270.0
 51
0.0
  0
LINE
  5
80CC
100
AcDbEntity
  8
0
100
AcDbLine
 10
2190.218198
 20
813.350243
 30
0.0
 11
2169.671809
 21
818.855631
 31
0.0
  0
ARC
  5
80CD
100
AcDbEntity
  8
0
100
AcDbCircle
 10
2214.182922
 20
815.158475
 30
0.0
 40
4.0
100
AcDbArc
 50
180.0
 51
270.0
  0
LINE
  5
80CE
100
AcDbEntity
  8
0
100
AcDbLine
 10
2278.630008
 20
809.192304
 30
0.0
 11
2314.694035
 21
818.855631
 31
0.0
  0
LINE
  5
80CF
100
AcDbEntity
  8
0
100
AcDbLine
 10
2347.182922
 20
842.158475
 30
0.0
 11
2347.182922
 21
779.658475
 31
0.0
  0
LINE
  5
80D0
100
AcDbEntity
  8
0
100
AcDbLine
 10
2132.182922
 20
842.158475
 30
0.0
 11
2132.182922
 21
779.658475
 31
0.0
  0
LINE
  5
80D1
100
AcDbEntity
  8
0
100
AcDbLine
 10
2150.182922
 20
904.658475
 30
0.0
 11
2150.182922
 21
779.658475
 31
0.0
  0
LINE
  5
80D2
100
AcDbEntity
  8
0
100
AcDbLine
 10
2329.182922
 20
904.658475
 30
0.0
 11
2329.182922
 21
779.658475
 31
0.0
  0
ELLIPSE
  5
80D3
100
AcDbEntity
  8
0
100
AcDbEllipse
 10
2501.860109
 20
349.094324
 30
0.0
 11
0.0
 21
13.93038875380669
 31
0.0
210
0.0
220
0.0
230
1.0
 40
0.969104
 41
4.236506730724272
 42
5.578093082937858
  0
LINE
  5
80D4
100
AcDbEntity
  8
0
100
AcDbLine
 10
2505.043883
 20
359.168734
 30
0.0
 11
2513.860109
 21
354.252123
 31
0.0
  0
LINE
  5
80D5
100
AcDbEntity
  8
0
100
AcDbLine
 10
2507.05539
 20
359.303892
 30
0.0
 11
2513.860109
 21
355.509053
 31
0.0
  0
LINE
  5
80D6
100
AcDbEntity
  8
0
100
AcDbLine
 10
2501.860109
 20
334.175732
 30
0.0
 11
2513.860109
 21
340.867862
 31
0.0
  0
ELLIPSE
  5
80D7
100
AcDbEntity
  8
0
100
AcDbEllipse
 10
2501.860109
 20
347.593259
 30
0.0
 11
-12.0
 21
0.0
 31
0.0
210
0.0
220
0.0
230
1.0
 40
0.965926
 41
0.0
 42
6.283185307179586
  0
ARC
  5
80D8
100
AcDbEntity
  8
0
100
AcDbCircle
 10
2501.860109
 20
362.58759
 30
0.0
 40
32.0
100
AcDbArc
 50
199.901179
 51
0.0
  0
CIRCLE
  5
80D9
100
AcDbEntity
  8
0
100
AcDbCircle
 10
2501.860109
 20
421.58759
 30
0.0
 40
62.5
  0
ELLIPSE
  5
80DA
100
AcDbEntity
  8
0
100
AcDbEllipse
 10
2501.860109
 20
349.094324
 30
0.0
 11
0.0
 21
13.93038875380669
 31
0.0
210
0.0
220
0.0
230
1.0
 40
0.969104
 41
6.988277531421314
 42
8.329863883634899
  0
LINE
  5
80DB
100
AcDbEntity
  8
0
100
AcDbLine
 10
2498.676334
 20
359.168734
 30
0.0
 11
2489.860109
 21
354.252123
 31
0.0
  0
LINE
  5
80DC
100
AcDbEntity
  8
0
100
AcDbLine
 10
2489.860109
 20
355.509053
 30
0.0
 11
2489.860109
 21
354.252123
 31
0.0
  0
ARC
  5
80DD
100
AcDbEntity
  8
0
100
AcDbCircle
 10
2467.490293
 20
356.256598
 30
0.0
 40
3.0
100
AcDbArc
 50
297.168271
 51
0.223816
  0
LINE
  5
80DE
100
AcDbEntity
  8
0
100
AcDbLine
 10
2487.427097
 20
360.776915
 30
0.0
 11
2488.401744
 21
348.001098
 31
0.0
  0
LINE
  5
80DF
100
AcDbEntity
  8
0
100
AcDbLine
 10
2297.814647
 20
357.04607
 30
0.0
 11
2295.896346
 21
354.027979
 31
0.0
  0
LINE
  5
80E0
100
AcDbEntity
  8
0
100
AcDbLine
 10
2291.053166
 20
358.857803
 30
0.0
 11
2291.205418
 21
355.28491
 31
0.0
  0
LINE
  5
80E1
100
AcDbEntity
  8
0
100
AcDbLine
 10
2298.2443
 20
358.649557
 30
0.0
 11
2292.032643
 21
335.467337
 31
0.0
  0
ARC
  5
80E2
100
AcDbEntity
  8
0
100
AcDbCircle
 10
2237.182922
 20
362.58759
 30
0.0
 40
32.0
100
AcDbArc
 50
323.115237
 51
0.0
  0
LINE
  5
80E3
100
AcDbEntity
  8
0
100
AcDbLine
 10
2285.271162
 20
337.279071
 30
0.0
 11
2291.482819
 21
360.46129
 31
0.0
  0
ARC
  5
80E4
100
AcDbEntity
  8
0
100
AcDbCircle
 10
1966.297583
 20
356.256598
 30
0.0
 40
3.0
100
AcDbArc
 50
179.776184
 51
242.831729
  0
ARC
  5
80E5
100
AcDbEntity
  8
0
100
AcDbCircle
 10
1931.927767
 20
362.58759
 30
0.0
 40
32.0
100
AcDbArc
 50
180.0
 51
340.098821
  0
ARC
  5
80E6
100
AcDbEntity
  8
0
100
AcDbCircle
 10
2237.182922
 20
362.58759
 30
0.0
 40
32.0
100
AcDbArc
 50
180.0
 51
314.101852
  0
TEXT
  5
80E8
100
AcDbEntity
  8
0
100
AcDbText
 10
2213.181871
 20
257.217526
 30
0.0
 40
25.0
  1
25A
 72
     4
 11
2246.515204
 21
269.717526
 31
0.0
100
AcDbText
  0
LINE
  5
80E9
100
AcDbEntity
  8
0
100
AcDbLine
 10
1964.927767
 20
331.58759
 30
0.0
 11
1939.865021
 21
331.58759
 31
0.0
  0
LINE
  5
80EA
100
AcDbEntity
  8
0
100
AcDbLine
 10
1964.927767
 20
353.58759
 30
0.0
 11
1964.927767
 21
331.58759
 31
0.0
  0
LINE
  5
80EB
100
AcDbEntity
  8
0
100
AcDbLine
 10
2264.22665
 20
340.847378
 30
0.0
 11
2283.638169
 21
335.646077
 31
0.0
  0
ARC
  5
80ED
100
AcDbEntity
  8
0
100
AcDbCircle
 10
2262.932554
 20
336.017749
 30
0.0
 40
5.0
100
AcDbArc
 50
75.0
 51
134.101852
  0
LINE
  5
80EE
100
AcDbEntity
  8
0
100
AcDbLine
 10
2291.205418
 20
355.28491
 30
0.0
 11
2288.376991
 21
348.870181
 31
0.0
  0
LINE
  5
80EF
100
AcDbEntity
  8
0
100
AcDbLine
 10
2292.310045
 20
340.643718
 30
0.0
 11
2287.619116
 21
341.900649
 31
0.0
  0
LINE
  5
80F0
100
AcDbEntity
  8
0
100
AcDbLine
 10
2290.516894
 20
333.951588
 30
0.0
 11
2285.825965
 21
335.208518
 31
0.0
  0
LINE
  5
80F1
100
AcDbEntity
  8
0
100
AcDbLine
 10
2288.376991
 20
348.870181
 30
0.0
 11
2287.619116
 21
341.900649
 31
0.0
  0
LINE
  5
80F2
100
AcDbEntity
  8
0
100
AcDbLine
 10
2285.271162
 20
337.279071
 30
0.0
 11
2285.825965
 21
335.208518
 31
0.0
  0
LINE
  5
80F3
100
AcDbEntity
  8
0
100
AcDbLine
 10
2283.638169
 20
335.646077
 30
0.0
 11
2285.271162
 21
337.279071
 31
0.0
  0
LINE
  5
80F4
100
AcDbEntity
  8
0
100
AcDbLine
 10
2287.619116
 20
341.900649
 30
0.0
 11
2285.700815
 21
338.882558
 31
0.0
  0
LINE
  5
80F5
100
AcDbEntity
  8
0
100
AcDbLine
 10
2295.896346
 20
354.027979
 30
0.0
 11
2291.205418
 21
355.28491
 31
0.0
  0
LINE
  5
80F6
100
AcDbEntity
  8
0
100
AcDbLine
 10
2295.896346
 20
354.027979
 30
0.0
 11
2295.138472
 21
347.058447
 31
0.0
  0
LINE
  5
80F7
100
AcDbEntity
  8
0
100
AcDbLine
 10
2292.310045
 20
340.643718
 30
0.0
 11
2292.435194
 21
336.969679
 31
0.0
  0
LINE
  5
80F8
100
AcDbEntity
  8
0
100
AcDbLine
 10
2292.032643
 20
335.467337
 30
0.0
 11
2290.516894
 21
333.951588
 31
0.0
  0
LINE
  5
80F9
100
AcDbEntity
  8
0
100
AcDbLine
 10
2295.138472
 20
347.058447
 30
0.0
 11
2292.310045
 21
340.643718
 31
0.0
  0
LINE
  5
80FA
100
AcDbEntity
  8
0
100
AcDbLine
 10
2468.860109
 20
331.58759
 30
0.0
 11
2493.922855
 21
331.58759
 31
0.0
  0
LINE
  5
80FB
100
AcDbEntity
  8
0
100
AcDbLine
 10
2468.860109
 20
353.58759
 30
0.0
 11
2468.860109
 21
331.58759
 31
0.0
  0
LINE
  5
80FC
100
AcDbEntity
  8
0
100
AcDbLine
 10
2501.860109
 20
334.175732
 30
0.0
 11
2489.860109
 21
340.867862
 31
0.0
  0
ELLIPSE
  5
80FD
100
AcDbEntity
  8
0
100
AcDbEllipse
 10
2501.860109
 20
349.094324
 30
0.0
 11
0.0
 21
13.93038875380669
 31
0.0
210
0.0
220
0.0
230
1.0
 40
0.969104
 41
8.587484679343077
 42
9.271111577278432
  0
LINE
  5
80FE
100
AcDbEntity
  8
0
100
AcDbLine
 10
2489.860109
 20
354.252123
 30
0.0
 11
2489.860109
 21
340.867862
 31
0.0
  0
LINE
  5
80FF
100
AcDbEntity
  8
0
100
AcDbLine
 10
2501.860109
 20
335.970899
 30
0.0
 11
2501.860109
 21
335.970899
 31
0.0
  0
ELLIPSE
  5
8100
100
AcDbEntity
  8
0
100
AcDbEllipse
 10
2501.860109
 20
349.094324
 30
0.0
 11
0.0
 21
13.93038875380669
 31
0.0
210
0.0
220
0.0
230
1.0
 40
0.969104
 41
3.295259037080921
 42
3.978885935016277
  0
LINE
  5
8101
100
AcDbEntity
  8
0
100
AcDbLine
 10
2188.480742
 20
783.262886
 30
0.0
 11
2187.883025
 21
781.032176
 31
0.0
  0
LINE
  5
8102
100
AcDbEntity
  8
0
100
AcDbLine
 10
2187.0558
 20
761.214604
 30
0.0
 11
2191.746728
 21
762.471534
 31
0.0
  0
LINE
  5
8103
100
AcDbEntity
  8
0
100
AcDbLine
 10
2187.333201
 20
756.038223
 30
0.0
 11
2188.848951
 21
754.522473
 31
0.0
  0
LINE
  5
8104
100
AcDbEntity
  8
0
100
AcDbLine
 10
2188.160426
 20
775.855795
 30
0.0
 11
2190.988853
 21
769.441066
 31
0.0
  0
LINE
  5
8105
100
AcDbEntity
  8
0
100
AcDbLine
 10
2194.094682
 20
757.849956
 30
0.0
 11
2187.883025
 21
781.032176
 31
0.0
  0
LINE
  5
8106
100
AcDbEntity
  8
0
100
AcDbLine
 10
2162.658032
 20
650.944721
 30
0.0
 11
2196.926031
 21
650.944721
 31
0.0
  0
LINE
  5
8107
100
AcDbEntity
  8
0
100
AcDbLine
 10
2162.658032
 20
613.944721
 30
0.0
 11
2196.926031
 21
613.944721
 31
0.0
  0
ARC
  5
8108
100
AcDbEntity
  8
0
100
AcDbCircle
 10
2191.183589
 20
632.444721
 30
0.0
 40
5.999933
100
AcDbArc
 50
90.0
 51
270.0
  0
LINE
  5
8109
100
AcDbEntity
  8
0
100
AcDbLine
 10
2197.182922
 20
432.58759
 30
0.0
 11
2180.662094
 21
432.58759
 31
0.0
  0
LINE
  5
810A
100
AcDbEntity
  8
0
100
AcDbLine
 10
2185.182922
 20
434.58759
 30
0.0
 11
2280.182922
 21
434.58759
 31
0.0
  0
LINE
  5
810B
100
AcDbEntity
  8
0
100
AcDbLine
 10
2200.735836
 20
388.621419
 30
0.0
 11
2164.671809
 21
398.284746
 31
0.0
  0
LINE
  5
810C
100
AcDbEntity
  8
0
100
AcDbLine
 10
2150.182922
 20
694.944721
 30
0.0
 11
2150.182922
 21
569.944721
 31
0.0
  0
LINE
  5
810D
100
AcDbEntity
  8
0
100
AcDbLine
 10
2132.182922
 20
632.444721
 30
0.0
 11
2132.182922
 21
569.944721
 31
0.0
  0
CIRCLE
  5
810E
100
AcDbEntity
  8
0
100
AcDbCircle
 10
1931.927767
 20
421.58759
 30
0.0
 40
62.5
  0
CIRCLE
  5
810F
100
AcDbEntity
  8
0
100
AcDbCircle
 10
1900.127767
 20
453.427188
 30
0.0
 40
9.5
  0
CIRCLE
  5
8110
100
AcDbEntity
  8
0
100
AcDbCircle
 10
1900.127767
 20
389.747992
 30
0.0
 40
9.5
  0
LINE
  5
8111
100
AcDbEntity
  8
0
100
AcDbLine
 10
1899.927767
 20
362.548885
 30
0.0
 11
1899.927767
 21
367.900999
 31
0.0
  0
CIRCLE
  5
8112
100
AcDbEntity
  8
0
100
AcDbCircle
 10
1963.727767
 20
389.747992
 30
0.0
 40
9.5
  0
LINE
  5
8113
100
AcDbEntity
  8
0
100
AcDbLine
 10
1963.927767
 20
362.548885
 30
0.0
 11
1963.927767
 21
367.900999
 31
0.0
  0
CIRCLE
  5
8114
100
AcDbEntity
  8
0
100
AcDbCircle
 10
1963.297606
 20
356.268317
 30
0.0
 40
0.0
  0
ARC
  5
8115
100
AcDbEntity
  8
0
100
AcDbCircle
 10
1931.927767
 20
362.58759
 30
0.0
 40
32.0
100
AcDbArc
 50
348.610524
 51
0.0
  0
CIRCLE
  5
8116
100
AcDbEntity
  8
0
100
AcDbCircle
 10
1963.727767
 20
453.427188
 30
0.0
 40
9.5
  0
LINE
  5
8117
100
AcDbEntity
  8
0
100
AcDbLine
 10
2150.182922
 20
484.08759
 30
0.0
 11
2150.182922
 21
359.08759
 31
0.0
  0
LINE
  5
8118
100
AcDbEntity
  8
0
100
AcDbLine
 10
2132.182922
 20
484.08759
 30
0.0
 11
2132.182922
 21
421.58759
 31
0.0
  0
LINE
  5
8119
100
AcDbEntity
  8
0
100
AcDbLine
 10
2132.182922
 20
421.58759
 30
0.0
 11
2132.182922
 21
359.08759
 31
0.0
  0
LINE
  5
811A
100
AcDbEntity
  8
0
100
AcDbLine
 10
2150.182922
 20
359.08759
 30
0.0
 11
2132.182922
 21
359.08759
 31
0.0
  0
ARC
  5
811B
100
AcDbEntity
  8
0
100
AcDbCircle
 10
2153.182922
 20
395.284746
 30
0.0
 40
3.0
100
AcDbArc
 50
90.0
 51
180.0
  0
LINE
  5
811C
100
AcDbEntity
  8
0
100
AcDbLine
 10
2164.671809
 20
398.284746
 30
0.0
 11
2153.182922
 21
398.284746
 31
0.0
  0
ARC
  5
811D
100
AcDbEntity
  8
0
100
AcDbCircle
 10
2153.182922
 20
395.284746
 30
0.0
 40
3.0
100
AcDbArc
 50
90.0
 51
180.0
  0
LINE
  5
811E
100
AcDbEntity
  8
0
100
AcDbLine
 10
2151.786749
 20
446.229716
 30
0.0
 11
2164.671809
 21
436.589964
 31
0.0
  0
LINE
  5
811F
100
AcDbEntity
  8
0
100
AcDbLine
 10
2178.591542
 20
432.860183
 30
0.0
 11
2164.671809
 21
436.589964
 31
0.0
  0
LINE
  5
8120
100
AcDbEntity
  8
0
100
AcDbLine
 10
2185.182922
 20
434.58759
 30
0.0
 11
2185.182922
 21
432.58759
 31
0.0
  0
ARC
  5
8121
100
AcDbEntity
  8
0
100
AcDbCircle
 10
2180.662094
 20
440.58759
 30
0.0
 40
8.0
100
AcDbArc
 50
255.0
 51
270.0
  0
ARC
  5
8122
100
AcDbEntity
  8
0
100
AcDbCircle
 10
2154.182922
 20
449.432582
 30
0.0
 40
4.0
100
AcDbArc
 50
180.0
 51
233.198591
  0
ARC
  5
8123
100
AcDbEntity
  8
0
100
AcDbCircle
 10
2154.182922
 20
449.432582
 30
0.0
 40
4.0
100
AcDbArc
 50
180.0
 51
233.198591
  0
LINE
  5
8124
100
AcDbEntity
  8
0
100
AcDbLine
 10
2150.182922
 20
484.08759
 30
0.0
 11
2132.182922
 21
484.08759
 31
0.0
  0
LINE
  5
8125
100
AcDbEntity
  8
0
100
AcDbLine
 10
2150.182922
 20
569.944721
 30
0.0
 11
2132.182922
 21
569.944721
 31
0.0
  0
LINE
  5
8126
100
AcDbEntity
  8
0
100
AcDbLine
 10
2162.658032
 20
648.140226
 30
0.0
 11
2162.658032
 21
616.749215
 31
0.0
  0
LINE
  5
8127
100
AcDbEntity
  8
0
100
AcDbLine
 10
2132.182922
 20
694.944721
 30
0.0
 11
2132.182922
 21
632.444721
 31
0.0
  0
ARC
  5
8128
100
AcDbEntity
  8
0
100
AcDbCircle
 10
2162.658032
 20
605.944721
 30
0.0
 40
8.0
100
AcDbArc
 50
90.0
 51
126.801409
  0
LINE
  5
8129
100
AcDbEntity
  8
0
100
AcDbLine
 10
2151.786749
 20
607.802595
 30
0.0
 11
2157.865685
 21
612.350454
 31
0.0
  0
ARC
  5
812A
100
AcDbEntity
  8
0
100
AcDbCircle
 10
2154.182922
 20
604.599728
 30
0.0
 40
4.0
100
AcDbArc
 50
126.801409
 51
180.0
  0
LINE
  5
812B
100
AcDbEntity
  8
0
100
AcDbLine
 10
2150.182922
 20
694.944721
 30
0.0
 11
2132.182922
 21
694.944721
 31
0.0
  0
ARC
  5
812C
100
AcDbEntity
  8
0
100
AcDbCircle
 10
2154.182922
 20
660.289713
 30
0.0
 40
4.0
100
AcDbArc
 50
180.0
 51
233.198591
  0
ARC
  5
812D
100
AcDbEntity
  8
0
100
AcDbCircle
 10
2162.658032
 20
658.944721
 30
0.0
 40
8.0
100
AcDbArc
 50
233.198591
 51
270.0
  0
LINE
  5
812E
100
AcDbEntity
  8
0
100
AcDbLine
 10
2151.786749
 20
657.086846
 30
0.0
 11
2157.865685
 21
652.538987
 31
0.0
  0
LINE
  5
812F
100
AcDbEntity
  8
0
100
AcDbLine
 10
2181.121544
 20
779.220443
 30
0.0
 11
2187.333201
 21
756.038223
 31
0.0
  0
LINE
  5
8130
100
AcDbEntity
  8
0
100
AcDbLine
 10
2150.182922
 20
779.658475
 30
0.0
 11
2132.182922
 21
779.658475
 31
0.0
  0
LINE
  5
8131
100
AcDbEntity
  8
0
100
AcDbLine
 10
2187.883025
 20
781.032176
 30
0.0
 11
2186.367275
 21
782.547925
 31
0.0
  0
LINE
  5
8132
100
AcDbEntity
  8
0
100
AcDbLine
 10
2181.676347
 20
781.290995
 30
0.0
 11
2186.367275
 21
782.547925
 31
0.0
  0
LINE
  5
8133
100
AcDbEntity
  8
0
100
AcDbLine
 10
2181.121544
 20
779.220443
 30
0.0
 11
2181.676347
 21
781.290995
 31
0.0
  0
LINE
  5
8134
100
AcDbEntity
  8
0
100
AcDbLine
 10
2188.312678
 20
779.428689
 30
0.0
 11
2188.160426
 21
775.855795
 31
0.0
  0
LINE
  5
8135
100
AcDbEntity
  8
0
100
AcDbLine
 10
2183.469498
 20
774.598864
 30
0.0
 11
2184.227373
 21
767.629333
 31
0.0
  0
LINE
  5
8136
100
AcDbEntity
  8
0
100
AcDbLine
 10
2184.227373
 20
767.629333
 30
0.0
 11
2187.0558
 21
761.214604
 31
0.0
  0
LINE
  5
8137
100
AcDbEntity
  8
0
100
AcDbLine
 10
2187.0558
 20
761.214604
 30
0.0
 11
2186.93065
 21
757.540564
 31
0.0
  0
LINE
  5
8138
100
AcDbEntity
  8
0
100
AcDbLine
 10
2183.469498
 20
774.598864
 30
0.0
 11
2188.160426
 21
775.855795
 31
0.0
  0
LINE
  5
8139
100
AcDbEntity
  8
0
100
AcDbLine
 10
2181.551197
 20
777.616955
 30
0.0
 11
2183.469498
 21
774.598864
 31
0.0
  0
LINE
  5
813A
100
AcDbEntity
  8
0
100
AcDbLine
 10
2329.182922
 20
694.944721
 30
0.0
 11
2329.182922
 21
569.944721
 31
0.0
  0
LINE
  5
813B
100
AcDbEntity
  8
0
100
AcDbLine
 10
2347.182922
 20
632.444721
 30
0.0
 11
2347.182922
 21
569.944721
 31
0.0
  0
LINE
  5
813C
100
AcDbEntity
  8
0
100
AcDbLine
 10
2228.682922
 20
460.58759
 30
0.0
 11
2228.682922
 21
473.58759
 31
0.0
  0
LINE
  5
813D
100
AcDbEntity
  8
0
100
AcDbLine
 10
2245.682922
 20
460.58759
 30
0.0
 11
2245.682922
 21
473.58759
 31
0.0
  0
LINE
  5
813E
100
AcDbEntity
  8
0
100
AcDbLine
 10
2329.182922
 20
484.08759
 30
0.0
 11
2329.182922
 21
359.08759
 31
0.0
  0
LINE
  5
813F
100
AcDbEntity
  8
0
100
AcDbLine
 10
2347.182922
 20
484.08759
 30
0.0
 11
2347.182922
 21
421.58759
 31
0.0
  0
LINE
  5
8140
100
AcDbEntity
  8
0
100
AcDbLine
 10
2272.142438
 20
453.152472
 30
0.0
 11
2267.23496
 21
454.08759
 31
0.0
  0
LINE
  5
8141
100
AcDbEntity
  8
0
100
AcDbLine
 10
2275.48496
 20
454.08759
 30
0.0
 11
2258.98496
 21
454.08759
 31
0.0
  0
LINE
  5
8142
100
AcDbEntity
  8
0
100
AcDbLine
 10
2196.432922
 20
447.08759
 30
0.0
 11
2280.182922
 21
447.08759
 31
0.0
  0
LINE
  5
8143
100
AcDbEntity
  8
0
100
AcDbLine
 10
2197.182922
 20
422.58759
 30
0.0
 11
2280.182922
 21
422.58759
 31
0.0
  0
ARC
  5
8144
100
AcDbEntity
  8
0
100
AcDbCircle
 10
2265.182922
 20
394.58759
 30
0.0
 40
4.0
100
AcDbArc
 50
270.0
 51
0.0
  0
LINE
  5
8145
100
AcDbEntity
  8
0
100
AcDbLine
 10
2269.182922
 20
394.58759
 30
0.0
 11
2269.182922
 21
422.58759
 31
0.0
  0
LINE
  5
8146
100
AcDbEntity
  8
0
100
AcDbLine
 10
2205.182922
 20
394.58759
 30
0.0
 11
2205.182922
 21
422.58759
 31
0.0
  0
CIRCLE
  5
8147
100
AcDbEntity
  8
0
100
AcDbCircle
 10
2237.182922
 20
402.58759
 30
0.0
 40
11.0
  0
LINE
  5
8148
100
AcDbEntity
  8
0
100
AcDbLine
 10
2209.182922
 20
390.58759
 30
0.0
 11
2265.182922
 21
390.58759
 31
0.0
  0
ARC
  5
8149
100
AcDbEntity
  8
0
100
AcDbCircle
 10
2199.182922
 20
382.825864
 30
0.0
 40
6.0
100
AcDbArc
 50
0.0
 51
75.0
  0
LINE
  5
814A
100
AcDbEntity
  8
0
100
AcDbLine
 10
2205.182922
 20
382.825864
 30
0.0
 11
2205.182922
 21
362.58759
 31
0.0
  0
ARC
  5
814B
100
AcDbEntity
  8
0
100
AcDbCircle
 10
2209.182922
 20
394.58759
 30
0.0
 40
4.0
100
AcDbArc
 50
180.0
 51
270.0
  0
LINE
  5
814C
100
AcDbEntity
  8
0
100
AcDbLine
 10
2269.182922
 20
382.825864
 30
0.0
 11
2269.182922
 21
362.58759
 31
0.0
  0
LINE
  5
814D
100
AcDbEntity
  8
0
100
AcDbLine
 10
2227.182922
 20
460.58759
 30
0.0
 11
2247.182922
 21
460.58759
 31
0.0
  0
LINE
  5
814E
100
AcDbEntity
  8
0
100
AcDbLine
 10
2216.945838
 20
451.58759
 30
0.0
 11
2257.420006
 21
451.58759
 31
0.0
  0
LINE
  5
814F
100
AcDbEntity
  8
0
100
AcDbLine
 10
2196.432922
 20
434.58759
 30
0.0
 11
2196.432922
 21
447.08759
 31
0.0
  0
LINE
  5
8150
100
AcDbEntity
  8
0
100
AcDbLine
 10
2197.182922
 20
422.58759
 30
0.0
 11
2197.182922
 21
434.58759
 31
0.0
  0
LINE
  5
8151
100
AcDbEntity
  8
0
100
AcDbLine
 10
2207.130884
 20
454.08759
 30
0.0
 11
2212.080132
 21
453.135872
 31
0.0
  0
LINE
  5
8152
100
AcDbEntity
  8
0
100
AcDbLine
 10
2198.880884
 20
454.08759
 30
0.0
 11
2215.380884
 21
454.08759
 31
0.0
  0
LINE
  5
8153
100
AcDbEntity
  8
0
100
AcDbLine
 10
2202.223407
 20
453.152472
 30
0.0
 11
2202.223407
 21
447.08759
 31
0.0
  0
LINE
  5
8154
100
AcDbEntity
  8
0
100
AcDbLine
 10
2197.315929
 20
447.084725
 30
0.0
 11
2197.315929
 21
453.152472
 31
0.0
  0
LINE
  5
8155
100
AcDbEntity
  8
0
100
AcDbLine
 10
2197.315929
 20
453.152472
 30
0.0
 11
2199.769668
 21
454.08759
 31
0.0
  0
LINE
  5
8156
100
AcDbEntity
  8
0
100
AcDbLine
 10
2197.315929
 20
453.152472
 30
0.0
 11
2198.880884
 21
454.08759
 31
0.0
  0
LINE
  5
8157
100
AcDbEntity
  8
0
100
AcDbLine
 10
2199.769668
 20
454.08759
 30
0.0
 11
2202.223407
 21
453.152472
 31
0.0
  0
LINE
  5
8158
100
AcDbEntity
  8
0
100
AcDbLine
 10
2202.223407
 20
453.152472
 30
0.0
 11
2207.130884
 21
454.08759
 31
0.0
  0
LINE
  5
8159
100
AcDbEntity
  8
0
100
AcDbLine
 10
2227.182922
 20
451.58759
 30
0.0
 11
2227.182922
 21
460.58759
 31
0.0
  0
LINE
  5
815A
100
AcDbEntity
  8
0
100
AcDbLine
 10
2212.038361
 20
453.152472
 30
0.0
 11
2212.038361
 21
447.08759
 31
0.0
  0
LINE
  5
815B
100
AcDbEntity
  8
0
100
AcDbLine
 10
2216.945838
 20
453.152472
 30
0.0
 11
2216.945838
 21
447.08759
 31
0.0
  0
LINE
  5
815C
100
AcDbEntity
  8
0
100
AcDbLine
 10
2216.945838
 20
453.152472
 30
0.0
 11
2214.4921
 21
454.08759
 31
0.0
  0
LINE
  5
815D
100
AcDbEntity
  8
0
100
AcDbLine
 10
2215.380884
 20
454.08759
 30
0.0
 11
2216.945838
 21
453.152472
 31
0.0
  0
LINE
  5
815E
100
AcDbEntity
  8
0
100
AcDbLine
 10
2214.4921
 20
454.08759
 30
0.0
 11
2212.038361
 21
453.152472
 31
0.0
  0
LINE
  5
815F
100
AcDbEntity
  8
0
100
AcDbLine
 10
2247.182922
 20
451.58759
 30
0.0
 11
2247.182922
 21
460.58759
 31
0.0
  0
LINE
  5
8160
100
AcDbEntity
  8
0
100
AcDbLine
 10
2259.873744
 20
454.08759
 30
0.0
 11
2262.327483
 21
453.152472
 31
0.0
  0
LINE
  5
8161
100
AcDbEntity
  8
0
100
AcDbLine
 10
2262.327483
 20
453.152472
 30
0.0
 11
2262.327483
 21
447.08759
 31
0.0
  0
LINE
  5
8162
100
AcDbEntity
  8
0
100
AcDbLine
 10
2267.23496
 20
454.08759
 30
0.0
 11
2262.285712
 21
453.135872
 31
0.0
  0
LINE
  5
8163
100
AcDbEntity
  8
0
100
AcDbLine
 10
2257.420006
 20
453.152472
 30
0.0
 11
2257.420006
 21
447.08759
 31
0.0
  0
LINE
  5
8164
100
AcDbEntity
  8
0
100
AcDbLine
 10
2258.98496
 20
454.08759
 30
0.0
 11
2257.420006
 21
453.152472
 31
0.0
  0
LINE
  5
8165
100
AcDbEntity
  8
0
100
AcDbLine
 10
2257.420006
 20
453.152472
 30
0.0
 11
2259.873744
 21
454.08759
 31
0.0
  0
LINE
  5
8166
100
AcDbEntity
  8
0
100
AcDbLine
 10
2347.182922
 20
421.58759
 30
0.0
 11
2347.182922
 21
359.08759
 31
0.0
  0
LINE
  5
8167
100
AcDbEntity
  8
0
100
AcDbLine
 10
2309.694035
 20
398.284746
 30
0.0
 11
2326.182922
 21
398.284746
 31
0.0
  0
LINE
  5
8168
100
AcDbEntity
  8
0
100
AcDbLine
 10
2286.182922
 20
388.915654
 30
0.0
 11
2286.182922
 21
366.253927
 31
0.0
  0
LINE
  5
8169
100
AcDbEntity
  8
0
100
AcDbLine
 10
2288.406465
 20
363.35615
 30
0.0
 11
2290.885102
 21
362.692001
 31
0.0
  0
ARC
  5
816A
100
AcDbEntity
  8
0
100
AcDbCircle
 10
2289.182922
 20
366.253927
 30
0.0
 40
3.0
100
AcDbArc
 50
180.0
 51
255.0
  0
LINE
  5
816B
100
AcDbEntity
  8
0
100
AcDbLine
 10
2297.689497
 20
360.72011
 30
0.0
 11
2292.998569
 21
361.97704
 31
0.0
  0
LINE
  5
816C
100
AcDbEntity
  8
0
100
AcDbLine
 10
2290.885102
 20
362.692001
 30
0.0
 11
2291.482819
 21
360.46129
 31
0.0
  0
LINE
  5
816D
100
AcDbEntity
  8
0
100
AcDbLine
 10
2291.482819
 20
360.46129
 30
0.0
 11
2292.998569
 21
361.97704
 31
0.0
  0
LINE
  5
816E
100
AcDbEntity
  8
0
100
AcDbLine
 10
2298.2443
 20
358.649557
 30
0.0
 11
2297.689497
 21
360.72011
 31
0.0
  0
LINE
  5
816F
100
AcDbEntity
  8
0
100
AcDbLine
 10
2289.147646
 20
392.779357
 30
0.0
 11
2309.694035
 21
398.284746
 31
0.0
  0
ARC
  5
8170
100
AcDbEntity
  8
0
100
AcDbCircle
 10
2290.182922
 20
388.915654
 30
0.0
 40
4.0
100
AcDbArc
 50
105.0
 51
180.0
  0
LINE
  5
8171
100
AcDbEntity
  8
0
100
AcDbLine
 10
2329.182922
 20
359.08759
 30
0.0
 11
2347.182922
 21
359.08759
 31
0.0
  0
LINE
  5
8172
100
AcDbEntity
  8
0
100
AcDbLine
 10
2300.774302
 20
432.860183
 30
0.0
 11
2314.694035
 21
436.589964
 31
0.0
  0
LINE
  5
8173
100
AcDbEntity
  8
0
100
AcDbLine
 10
2280.182922
 20
447.08759
 30
0.0
 11
2280.182922
 21
422.58759
 31
0.0
  0
LINE
  5
8174
100
AcDbEntity
  8
0
100
AcDbLine
 10
2280.182922
 20
432.58759
 30
0.0
 11
2298.70375
 21
432.58759
 31
0.0
  0
ARC
  5
8175
100
AcDbEntity
  8
0
100
AcDbCircle
 10
2298.70375
 20
440.58759
 30
0.0
 40
8.0
100
AcDbArc
 50
270.0
 51
285.0
  0
LINE
  5
8176
100
AcDbEntity
  8
0
100
AcDbLine
 10
2272.142438
 20
453.152472
 30
0.0
 11
2272.142438
 21
447.08759
 31
0.0
  0
LINE
  5
8177
100
AcDbEntity
  8
0
100
AcDbLine
 10
2277.049915
 20
453.152472
 30
0.0
 11
2274.596176
 21
454.08759
 31
0.0
  0
LINE
  5
8178
100
AcDbEntity
  8
0
100
AcDbLine
 10
2277.049915
 20
453.152472
 30
0.0
 11
2275.48496
 21
454.08759
 31
0.0
  0
LINE
  5
8179
100
AcDbEntity
  8
0
100
AcDbLine
 10
2274.596176
 20
454.08759
 30
0.0
 11
2272.142438
 21
453.152472
 31
0.0
  0
LINE
  5
817A
100
AcDbEntity
  8
0
100
AcDbLine
 10
2277.049915
 20
447.084725
 30
0.0
 11
2277.049915
 21
453.152472
 31
0.0
  0
LINE
  5
817B
100
AcDbEntity
  8
0
100
AcDbLine
 10
2327.579095
 20
446.229716
 30
0.0
 11
2314.694035
 21
436.589964
 31
0.0
  0
ARC
  5
817C
100
AcDbEntity
  8
0
100
AcDbCircle
 10
2325.182922
 20
449.432582
 30
0.0
 40
4.0
100
AcDbArc
 50
306.801409
 51
0.0
  0
LINE
  5
817D
100
AcDbEntity
  8
0
100
AcDbLine
 10
2228.682922
 20
473.58759
 30
0.0
 11
2245.682922
 21
473.58759
 31
0.0
  0
LINE
  5
817E
100
AcDbEntity
  8
0
100
AcDbLine
 10
2329.182922
 20
484.08759
 30
0.0
 11
2347.182922
 21
484.08759
 31
0.0
  0
LINE
  5
817F
100
AcDbEntity
  8
0
100
AcDbLine
 10
2329.182922
 20
569.944721
 30
0.0
 11
2347.182922
 21
569.944721
 31
0.0
  0
CIRCLE
  5
8180
100
AcDbEntity
  8
0
100
AcDbCircle
 10
2470.060109
 20
389.747992
 30
0.0
 40
9.5
  0
LINE
  5
8181
100
AcDbEntity
  8
0
100
AcDbLine
 10
2469.860109
 20
362.548885
 30
0.0
 11
2469.860109
 21
367.900999
 31
0.0
  0
CIRCLE
  5
8182
100
AcDbEntity
  8
0
100
AcDbCircle
 10
2470.49027
 20
356.268317
 30
0.0
 40
0.0
  0
ARC
  5
8183
100
AcDbEntity
  8
0
100
AcDbCircle
 10
2501.860109
 20
362.58759
 30
0.0
 40
32.0
100
AcDbArc
 50
180.0
 51
191.389476
  0
LINE
  5
8184
100
AcDbEntity
  8
0
100
AcDbLine
 10
2496.664827
 20
359.303892
 30
0.0
 11
2489.860109
 21
355.509053
 31
0.0
  0
ELLIPSE
  5
8185
100
AcDbEntity
  8
0
100
AcDbEllipse
 10
2501.860109
 20
350.050158
 30
0.0
 11
-15.93
 21
0.0
 31
0.0
210
0.0
220
0.0
230
1.0
 40
0.965963
 41
5.559572809754611
 42
5.80640207328336
  0
CIRCLE
  5
8186
100
AcDbEntity
  8
0
100
AcDbCircle
 10
2470.060109
 20
453.427188
 30
0.0
 40
9.5
  0
LINE
  5
8187
100
AcDbEntity
  8
0
100
AcDbLine
 10
2278.473589
 20
644.444587
 30
0.0
 11
2262.481207
 21
644.444587
 31
0.0
  0
CIRCLE
  5
8188
100
AcDbEntity
  8
0
100
AcDbCircle
 10
2267.23496
 20
662.496759
 30
0.0
 40
8.24991
  0
LINE
  5
8189
100
AcDbEntity
  8
0
100
AcDbLine
 10
2274.175213
 20
655.556506
 30
0.0
 11
2264.694326
 21
653.016578
 31
0.0
  0
LINE
  5
818A
100
AcDbEntity
  8
0
100
AcDbLine
 10
2278.473589
 20
620.444854
 30
0.0
 11
2262.481207
 21
620.444854
 31
0.0
  0
LINE
  5
818B
100
AcDbEntity
  8
0
100
AcDbLine
 10
2264.694326
 20
611.872863
 30
0.0
 11
2274.175213
 21
609.332935
 31
0.0
  0
ARC
  5
818C
100
AcDbEntity
  8
0
100
AcDbCircle
 10
2267.479302
 20
663.444436
 30
0.0
 40
8.999218
100
AcDbArc
 50
5.376869
 51
90.00242
  0
LINE
  5
818D
100
AcDbEntity
  8
0
100
AcDbLine
 10
2260.294707
 20
669.437012
 30
0.0
 11
2269.775595
 21
671.976939
 31
0.0
  0
ARC
  5
818E
100
AcDbEntity
  8
0
100
AcDbCircle
 10
2267.478821
 20
601.444504
 30
0.0
 40
8.99965
100
AcDbArc
 50
270.000644
 51
354.626594
  0
LINE
  5
818F
100
AcDbEntity
  8
0
100
AcDbLine
 10
2269.775595
 20
592.912502
 30
0.0
 11
2260.294707
 21
595.452429
 31
0.0
  0
CIRCLE
  5
8190
100
AcDbEntity
  8
0
100
AcDbCircle
 10
2267.23496
 20
602.392682
 30
0.0
 40
8.24991
  0
CIRCLE
  5
8191
100
AcDbEntity
  8
0
100
AcDbCircle
 10
2237.182922
 20
632.444721
 30
0.0
 40
28.0
  0
ARC
  5
8192
100
AcDbEntity
  8
0
100
AcDbCircle
 10
2532.990785
 20
632.444721
 30
0.0
 40
336.573572
100
AcDbArc
 50
174.571165
 51
185.428835
  0
CIRCLE
  5
8193
100
AcDbEntity
  8
0
100
AcDbCircle
 10
2237.182922
 20
632.444721
 30
0.0
 40
10.0
  0
LINE
  5
8194
100
AcDbEntity
  8
0
100
AcDbLine
 10
2226.687589
 20
587.462721
 30
0.0
 11
2247.678255
 21
587.462721
 31
0.0
  0
LINE
  5
8195
100
AcDbEntity
  8
0
100
AcDbLine
 10
2206.886922
 20
592.444854
 30
0.0
 11
2267.478922
 21
592.444854
 31
0.0
  0
LINE
  5
8196
100
AcDbEntity
  8
0
100
AcDbLine
 10
2200.190631
 20
609.332935
 30
0.0
 11
2209.671519
 21
611.872863
 31
0.0
  0
LINE
  5
8197
100
AcDbEntity
  8
0
100
AcDbLine
 10
2214.071137
 20
595.452429
 30
0.0
 11
2204.590249
 21
592.912502
 31
0.0
  0
CIRCLE
  5
8198
100
AcDbEntity
  8
0
100
AcDbCircle
 10
2207.130884
 20
602.392682
 30
0.0
 40
8.24991
  0
ARC
  5
8199
100
AcDbEntity
  8
0
100
AcDbCircle
 10
2206.887039
 20
601.444521
 30
0.0
 40
8.999667
100
AcDbArc
 50
185.373506
 51
269.999256
  0
LINE
  5
819A
100
AcDbEntity
  8
0
100
AcDbLine
 10
2204.590249
 20
592.912502
 30
0.0
 11
2197.650703
 21
599.852048
 31
0.0
  0
LINE
  5
819B
100
AcDbEntity
  8
0
100
AcDbLine
 10
2197.926922
 20
600.601721
 30
0.0
 11
2197.926922
 21
600.601721
 31
0.0
  0
LINE
  5
819C
100
AcDbEntity
  8
0
100
AcDbLine
 10
2197.650703
 20
599.852048
 30
0.0
 11
2200.190631
 21
609.332935
 31
0.0
  0
LINE
  5
819D
100
AcDbEntity
  8
0
100
AcDbLine
 10
2209.671519
 20
611.872863
 30
0.0
 11
2216.611065
 21
604.933317
 31
0.0
  0
LINE
  5
819E
100
AcDbEntity
  8
0
100
AcDbLine
 10
2226.687589
 20
592.444854
 30
0.0
 11
2226.687589
 21
587.462721
 31
0.0
  0
LINE
  5
819F
100
AcDbEntity
  8
0
100
AcDbLine
 10
2216.611065
 20
604.933317
 30
0.0
 11
2214.071137
 21
595.452429
 31
0.0
  0
ARC
  5
81A0
100
AcDbEntity
  8
0
100
AcDbCircle
 10
2195.177695
 20
640.455436
 30
0.0
 40
2.010789
100
AcDbArc
 50
270.148946
 51
310.349065
  0
LINE
  5
81A1
100
AcDbEntity
  8
0
100
AcDbLine
 10
2195.182922
 20
638.444654
 30
0.0
 11
2191.183589
 21
638.444654
 31
0.0
  0
LINE
  5
81A2
100
AcDbEntity
  8
0
100
AcDbLine
 10
2191.183589
 20
626.444787
 30
0.0
 11
2195.182922
 21
626.444787
 31
0.0
  0
ARC
  5
81A3
100
AcDbEntity
  8
0
100
AcDbCircle
 10
2195.177695
 20
624.434005
 30
0.0
 40
2.010789
100
AcDbArc
 50
49.650935
 51
89.851054
  0
LINE
  5
81A4
100
AcDbEntity
  8
0
100
AcDbLine
 10
2228.682922
 20
637.712547
 30
0.0
 11
2228.682922
 21
627.176894
 31
0.0
  0
LINE
  5
81A5
100
AcDbEntity
  8
0
100
AcDbLine
 10
2247.678255
 20
587.462721
 30
0.0
 11
2247.678255
 21
592.444854
 31
0.0
  0
LINE
  5
81A6
100
AcDbEntity
  8
0
100
AcDbLine
 10
2257.75478
 20
604.933317
 30
0.0
 11
2264.694326
 21
611.872863
 31
0.0
  0
LINE
  5
81A7
100
AcDbEntity
  8
0
100
AcDbLine
 10
2260.294707
 20
595.452429
 30
0.0
 11
2257.75478
 21
604.933317
 31
0.0
  0
CIRCLE
  5
81A8
100
AcDbEntity
  8
0
100
AcDbCircle
 10
2237.182922
 20
632.444721
 30
0.0
 40
7.5
  0
LINE
  5
81A9
100
AcDbEntity
  8
0
100
AcDbLine
 10
2245.682922
 20
637.712547
 30
0.0
 11
2245.682922
 21
627.176894
 31
0.0
  0
LINE
  5
81AA
100
AcDbEntity
  8
0
100
AcDbLine
 10
2206.886922
 20
672.443654
 30
0.0
 11
2267.478922
 21
672.443654
 31
0.0
  0
ARC
  5
81AB
100
AcDbEntity
  8
0
100
AcDbCircle
 10
2206.886511
 20
663.444471
 30
0.0
 40
8.999183
100
AcDbArc
 50
89.997381
 51
174.62333
  0
LINE
  5
81AC
100
AcDbEntity
  8
0
100
AcDbLine
 10
2197.650703
 20
665.037393
 30
0.0
 11
2204.590249
 21
671.976939
 31
0.0
  0
LINE
  5
81AD
100
AcDbEntity
  8
0
100
AcDbLine
 10
2204.590249
 20
671.976939
 30
0.0
 11
2214.071137
 21
669.437012
 31
0.0
  0
LINE
  5
81AE
100
AcDbEntity
  8
0
100
AcDbLine
 10
2209.671519
 20
653.016578
 30
0.0
 11
2200.190631
 21
655.556506
 31
0.0
  0
CIRCLE
  5
81AF
100
AcDbEntity
  8
0
100
AcDbCircle
 10
2207.130884
 20
662.496759
 30
0.0
 40
8.24991
  0
LINE
  5
81B0
100
AcDbEntity
  8
0
100
AcDbLine
 10
2197.926922
 20
664.287721
 30
0.0
 11
2197.926922
 21
664.287721
 31
0.0
  0
LINE
  5
81B1
100
AcDbEntity
  8
0
100
AcDbLine
 10
2200.190631
 20
655.556506
 30
0.0
 11
2197.650703
 21
665.037393
 31
0.0
  0
LINE
  5
81B2
100
AcDbEntity
  8
0
100
AcDbLine
 10
2214.071137
 20
669.437012
 30
0.0
 11
2216.611065
 21
659.956124
 31
0.0
  0
LINE
  5
81B3
100
AcDbEntity
  8
0
100
AcDbLine
 10
2216.611065
 20
659.956124
 30
0.0
 11
2209.671519
 21
653.016578
 31
0.0
  0
LINE
  5
81B4
100
AcDbEntity
  8
0
100
AcDbLine
 10
2257.75478
 20
659.956124
 30
0.0
 11
2260.294707
 21
669.437012
 31
0.0
  0
LINE
  5
81B5
100
AcDbEntity
  8
0
100
AcDbLine
 10
2264.694326
 20
653.016578
 30
0.0
 11
2257.75478
 21
659.956124
 31
0.0
  0
LINE
  5
81B6
100
AcDbEntity
  8
0
100
AcDbLine
 10
2316.707812
 20
648.140226
 30
0.0
 11
2316.707812
 21
616.749215
 31
0.0
  0
ARC
  5
81B7
100
AcDbEntity
  8
0
100
AcDbCircle
 10
2237.137135
 20
632.444721
 30
0.0
 40
43.044454
100
AcDbArc
 50
340.132346
 51
19.867654
  0
LINE
  5
81B8
100
AcDbEntity
  8
0
100
AcDbLine
 10
2347.182922
 20
694.944721
 30
0.0
 11
2347.182922
 21
632.444721
 31
0.0
  0
LINE
  5
81B9
100
AcDbEntity
  8
0
100
AcDbLine
 10
2316.707812
 20
613.944721
 30
0.0
 11
2277.439813
 21
613.944721
 31
0.0
  0
ARC
  5
81BA
100
AcDbEntity
  8
0
100
AcDbCircle
 10
1941.375059
 20
632.444721
 30
0.0
 40
336.573572
100
AcDbArc
 50
354.571165
 51
357.51485
  0
LINE
  5
81BB
100
AcDbEntity
  8
0
100
AcDbLine
 10
2276.715141
 20
599.852048
 30
0.0
 11
2269.775595
 21
592.912502
 31
0.0
  0
LINE
  5
81BC
100
AcDbEntity
  8
0
100
AcDbLine
 10
2276.438922
 20
600.601721
 30
0.0
 11
2276.438922
 21
600.601721
 31
0.0
  0
LINE
  5
81BD
100
AcDbEntity
  8
0
100
AcDbLine
 10
2274.175213
 20
609.332935
 30
0.0
 11
2276.715141
 21
599.852048
 31
0.0
  0
ARC
  5
81BE
100
AcDbEntity
  8
0
100
AcDbCircle
 10
2316.707812
 20
605.944721
 30
0.0
 40
8.0
100
AcDbArc
 50
53.198591
 51
90.0
  0
ARC
  5
81BF
100
AcDbEntity
  8
0
100
AcDbCircle
 10
2325.182922
 20
604.599728
 30
0.0
 40
4.0
100
AcDbArc
 50
0.0
 51
53.198591
  0
ARC
  5
81C0
100
AcDbEntity
  8
0
100
AcDbCircle
 10
2325.182922
 20
604.599728
 30
0.0
 40
4.0
100
AcDbArc
 50
0.0
 51
53.198591
  0
LINE
  5
81C1
100
AcDbEntity
  8
0
100
AcDbLine
 10
2327.579095
 20
607.802595
 30
0.0
 11
2321.500159
 21
612.350454
 31
0.0
  0
LINE
  5
81C2
100
AcDbEntity
  8
0
100
AcDbLine
 10
2316.707812
 20
650.944721
 30
0.0
 11
2277.439813
 21
650.944721
 31
0.0
  0
LINE
  5
81C3
100
AcDbEntity
  8
0
100
AcDbLine
 10
2269.775595
 20
671.976939
 30
0.0
 11
2276.715141
 21
665.037393
 31
0.0
  0
LINE
  5
81C4
100
AcDbEntity
  8
0
100
AcDbLine
 10
2276.715141
 20
665.037393
 30
0.0
 11
2274.175213
 21
655.556506
 31
0.0
  0
LINE
  5
81C5
100
AcDbEntity
  8
0
100
AcDbLine
 10
2276.438922
 20
664.287721
 30
0.0
 11
2276.438922
 21
664.287721
 31
0.0
  0
ARC
  5
81C6
100
AcDbEntity
  8
0
100
AcDbCircle
 10
1941.375059
 20
632.444721
 30
0.0
 40
336.573572
100
AcDbArc
 50
2.48515
 51
5.428835
  0
ARC
  5
81C7
100
AcDbEntity
  8
0
100
AcDbCircle
 10
2325.182922
 20
660.289713
 30
0.0
 40
4.0
100
AcDbArc
 50
306.801409
 51
0.0
  0
ARC
  5
81C8
100
AcDbEntity
  8
0
100
AcDbCircle
 10
2325.182922
 20
660.289713
 30
0.0
 40
4.0
100
AcDbArc
 50
306.801409
 51
0.0
  0
ARC
  5
81C9
100
AcDbEntity
  8
0
100
AcDbCircle
 10
2316.707812
 20
658.944721
 30
0.0
 40
8.0
100
AcDbArc
 50
270.0
 51
306.801409
  0
LINE
  5
81CA
100
AcDbEntity
  8
0
100
AcDbLine
 10
2327.579095
 20
657.086846
 30
0.0
 11
2321.500159
 21
652.538987
 31
0.0
  0
LINE
  5
81CB
100
AcDbEntity
  8
0
100
AcDbLine
 10
2329.182922
 20
694.944721
 30
0.0
 11
2347.182922
 21
694.944721
 31
0.0
  0
LINE
  5
81CC
100
AcDbEntity
  8
0
100
AcDbLine
 10
2270.182922
 20
811.158475
 30
0.0
 11
2214.182922
 21
811.158475
 31
0.0
  0
ARC
  5
81CD
100
AcDbEntity
  8
0
100
AcDbCircle
 10
2242.182922
 20
783.158475
 30
0.0
 40
32.0
100
AcDbArc
 50
225.898148
 51
0.0
  0
LINE
  5
81CE
100
AcDbEntity
  8
0
100
AcDbLine
 10
2194.094682
 20
757.849956
 30
0.0
 11
2193.539879
 21
755.779404
 31
0.0
  0
LINE
  5
81CF
100
AcDbEntity
  8
0
100
AcDbLine
 10
2195.727675
 20
756.216963
 30
0.0
 11
2194.094682
 21
757.849956
 31
0.0
  0
LINE
  5
81D0
100
AcDbEntity
  8
0
100
AcDbLine
 10
2215.139194
 20
761.418264
 30
0.0
 11
2195.727675
 21
756.216963
 31
0.0
  0
LINE
  5
81D1
100
AcDbEntity
  8
0
100
AcDbLine
 10
2188.848951
 20
754.522473
 30
0.0
 11
2193.539879
 21
755.779404
 31
0.0
  0
ARC
  5
81D2
100
AcDbEntity
  8
0
100
AcDbCircle
 10
2190.182922
 20
786.824812
 30
0.0
 40
3.0
100
AcDbArc
 50
285.0
 51
0.0
  0
LINE
  5
81D3
100
AcDbEntity
  8
0
100
AcDbLine
 10
2210.182922
 20
803.396749
 30
0.0
 11
2210.182922
 21
783.158475
 31
0.0
  0
ARC
  5
81D4
100
AcDbEntity
  8
0
100
AcDbCircle
 10
2242.182922
 20
783.158475
 30
0.0
 40
32.0
100
AcDbArc
 50
180.0
 51
216.884763
  0
LINE
  5
81D5
100
AcDbEntity
  8
0
100
AcDbLine
 10
2190.959379
 20
783.927035
 30
0.0
 11
2188.480742
 21
783.262886
 31
0.0
  0
LINE
  5
81D6
100
AcDbEntity
  8
0
100
AcDbLine
 10
2191.746728
 20
762.471534
 30
0.0
 11
2193.665029
 21
759.453443
 31
0.0
  0
LINE
  5
81D7
100
AcDbEntity
  8
0
100
AcDbLine
 10
2190.988853
 20
769.441066
 30
0.0
 11
2191.746728
 21
762.471534
 31
0.0
  0
ARC
  5
81D8
100
AcDbEntity
  8
0
100
AcDbCircle
 10
2216.43329
 20
756.588635
 30
0.0
 40
5.0
100
AcDbArc
 50
45.898148
 51
105.0
  0
LINE
  5
81D9
100
AcDbEntity
  8
0
100
AcDbLine
 10
2193.182922
 20
809.48654
 30
0.0
 11
2193.182922
 21
786.824812
 31
0.0
  0
ARC
  5
81DA
100
AcDbEntity
  8
0
100
AcDbCircle
 10
2189.182922
 20
809.48654
 30
0.0
 40
4.0
100
AcDbArc
 50
0.0
 51
75.0
  0
LINE
  5
81DB
100
AcDbEntity
  8
0
100
AcDbLine
 10
2274.182922
 20
803.396749
 30
0.0
 11
2274.182922
 21
783.158475
 31
0.0
  0
ARC
  5
81DC
100
AcDbEntity
  8
0
100
AcDbCircle
 10
2280.182922
 20
803.396749
 30
0.0
 40
6.0
100
AcDbArc
 50
105.0
 51
180.0
  0
LINE
  5
81DD
100
AcDbEntity
  8
0
100
AcDbLine
 10
2329.182922
 20
779.658475
 30
0.0
 11
2347.182922
 21
779.658475
 31
0.0
  0
LINE
  5
81DE
100
AcDbEntity
  8
0
100
AcDbLine
 10
2513.860109
 20
355.509053
 30
0.0
 11
2513.860109
 21
354.252123
 31
0.0
  0
LINE
  5
81DF
100
AcDbEntity
  8
0
100
AcDbLine
 10
2516.29312
 20
360.776915
 30
0.0
 11
2515.318473
 21
348.001098
 31
0.0
  0
LINE
  5
81E0
100
AcDbEntity
  8
0
100
AcDbLine
 10
2513.860109
 20
354.252123
 30
0.0
 11
2513.860109
 21
340.867862
 31
0.0
  0
CIRCLE
  5
81E1
100
AcDbEntity
  8
0
100
AcDbCircle
 10
2533.660109
 20
389.747992
 30
0.0
 40
9.5
  0
ELLIPSE
  5
81E2
100
AcDbEntity
  8
0
100
AcDbEllipse
 10
2501.860109
 20
350.050158
 30
0.0
 11
-15.93
 21
0.0
 31
0.0
210
0.0
220
0.0
230
1.0
 40
0.965963
 41
3.618375887486327
 42
3.865205151014786
  0
LINE
  5
81E3
100
AcDbEntity
  8
0
100
AcDbLine
 10
2533.860109
 20
362.548885
 30
0.0
 11
2533.860109
 21
367.900999
 31
0.0
  0
CIRCLE
  5
81E4
100
AcDbEntity
  8
0
100
AcDbCircle
 10
2533.660109
 20
453.427188
 30
0.0
 40
9.5
  0
LINE
  5
81E5
100
AcDbEntity
  8
0
100
AcDbLine
 10
2199.182922
 20
853.158475
 30
0.0
 11
2180.662094
 21
853.158475
 31
0.0
  0
LINE
  5
81E6
100
AcDbEntity
  8
0
100
AcDbLine
 10
2132.182922
 20
904.658475
 30
0.0
 11
2132.182922
 21
842.158475
 31
0.0
  0
LINE
  5
81E7
100
AcDbEntity
  8
0
100
AcDbLine
 10
2169.671809
 20
818.855631
 30
0.0
 11
2153.182922
 21
818.855631
 31
0.0
  0
ARC
  5
81E8
100
AcDbEntity
  8
0
100
AcDbCircle
 10
2153.182922
 20
815.855631
 30
0.0
 40
3.0
100
AcDbArc
 50
90.0
 51
180.0
  0
ARC
  5
81E9
100
AcDbEntity
  8
0
100
AcDbCircle
 10
2153.182922
 20
815.855631
 30
0.0
 40
3.0
100
AcDbArc
 50
90.0
 51
180.0
  0
LINE
  5
81EA
100
AcDbEntity
  8
0
100
AcDbLine
 10
2178.591542
 20
853.431069
 30
0.0
 11
2164.671809
 21
857.16085
 31
0.0
  0
ARC
  5
81EB
100
AcDbEntity
  8
0
100
AcDbCircle
 10
2154.182922
 20
870.003468
 30
0.0
 40
4.0
100
AcDbArc
 50
180.0
 51
233.198591
  0
ARC
  5
81EC
100
AcDbEntity
  8
0
100
AcDbCircle
 10
2154.182922
 20
870.003468
 30
0.0
 40
4.0
100
AcDbArc
 50
180.0
 51
233.198591
  0
LINE
  5
81ED
100
AcDbEntity
  8
0
100
AcDbLine
 10
2151.786749
 20
866.800601
 30
0.0
 11
2164.671809
 21
857.16085
 31
0.0
  0
ARC
  5
81EE
100
AcDbEntity
  8
0
100
AcDbCircle
 10
2180.662094
 20
861.158475
 30
0.0
 40
8.0
100
AcDbArc
 50
255.0
 51
270.0
  0
LINE
  5
81EF
100
AcDbEntity
  8
0
100
AcDbLine
 10
2150.182922
 20
904.658475
 30
0.0
 11
2132.182922
 21
904.658475
 31
0.0
  0
LINE
  5
81F0
100
AcDbEntity
  8
0
100
AcDbLine
 10
2272.23496
 20
874.658475
 30
0.0
 11
2267.285712
 21
873.706757
 31
0.0
  0
LINE
  5
81F1
100
AcDbEntity
  8
0
100
AcDbLine
 10
2280.48496
 20
874.658475
 30
0.0
 11
2263.98496
 21
874.658475
 31
0.0
  0
LINE
  5
81F2
100
AcDbEntity
  8
0
100
AcDbLine
 10
2282.932922
 20
867.658475
 30
0.0
 11
2199.182922
 21
867.658475
 31
0.0
  0
LINE
  5
81F3
100
AcDbEntity
  8
0
100
AcDbLine
 10
2282.182922
 20
843.158475
 30
0.0
 11
2199.182922
 21
843.158475
 31
0.0
  0
LINE
  5
81F4
100
AcDbEntity
  8
0
100
AcDbLine
 10
2294.182922
 20
855.158475
 30
0.0
 11
2199.182922
 21
855.158475
 31
0.0
  0
LINE
  5
81F5
100
AcDbEntity
  8
0
100
AcDbLine
 10
2267.327483
 20
873.723357
 30
0.0
 11
2267.327483
 21
867.658475
 31
0.0
  0
LINE
  5
81F6
100
AcDbEntity
  8
0
100
AcDbLine
 10
2262.420006
 20
873.723357
 30
0.0
 11
2262.420006
 21
867.658475
 31
0.0
  0
LINE
  5
81F7
100
AcDbEntity
  8
0
100
AcDbLine
 10
2217.038361
 20
873.723357
 30
0.0
 11
2217.038361
 21
867.658475
 31
0.0
  0
LINE
  5
81F8
100
AcDbEntity
  8
0
100
AcDbLine
 10
2221.945838
 20
873.723357
 30
0.0
 11
2221.945838
 21
867.658475
 31
0.0
  0
LINE
  5
81F9
100
AcDbEntity
  8
0
100
AcDbLine
 10
2207.223407
 20
873.723357
 30
0.0
 11
2207.223407
 21
867.658475
 31
0.0
  0
LINE
  5
81FA
100
AcDbEntity
  8
0
100
AcDbLine
 10
2202.315929
 20
867.65561
 30
0.0
 11
2202.315929
 21
873.723357
 31
0.0
  0
LINE
  5
81FB
100
AcDbEntity
  8
0
100
AcDbLine
 10
2232.182922
 20
872.158475
 30
0.0
 11
2232.182922
 21
881.158475
 31
0.0
  0
LINE
  5
81FC
100
AcDbEntity
  8
0
100
AcDbLine
 10
2252.182922
 20
872.158475
 30
0.0
 11
2252.182922
 21
881.158475
 31
0.0
  0
LINE
  5
81FD
100
AcDbEntity
  8
0
100
AcDbLine
 10
2221.945838
 20
872.158475
 30
0.0
 11
2262.420006
 21
872.158475
 31
0.0
  0
LINE
  5
81FE
100
AcDbEntity
  8
0
100
AcDbLine
 10
2199.182922
 20
867.658475
 30
0.0
 11
2199.182922
 21
843.158475
 31
0.0
  0
LINE
  5
81FF
100
AcDbEntity
  8
0
100
AcDbLine
 10
2210.182922
 20
815.158475
 30
0.0
 11
2210.182922
 21
843.158475
 31
0.0
  0
LINE
  5
8200
100
AcDbEntity
  8
0
100
AcDbLine
 10
2207.223407
 20
873.723357
 30
0.0
 11
2212.130884
 21
874.658475
 31
0.0
  0
LINE
  5
8201
100
AcDbEntity
  8
0
100
AcDbLine
 10
2203.880884
 20
874.658475
 30
0.0
 11
2220.380884
 21
874.658475
 31
0.0
  0
LINE
  5
8202
100
AcDbEntity
  8
0
100
AcDbLine
 10
2202.315929
 20
873.723357
 30
0.0
 11
2204.769668
 21
874.658475
 31
0.0
  0
LINE
  5
8203
100
AcDbEntity
  8
0
100
AcDbLine
 10
2202.315929
 20
873.723357
 30
0.0
 11
2203.880884
 21
874.658475
 31
0.0
  0
LINE
  5
8204
100
AcDbEntity
  8
0
100
AcDbLine
 10
2204.769668
 20
874.658475
 30
0.0
 11
2207.223407
 21
873.723357
 31
0.0
  0
LINE
  5
8205
100
AcDbEntity
  8
0
100
AcDbLine
 10
2221.945838
 20
873.723357
 30
0.0
 11
2219.4921
 21
874.658475
 31
0.0
  0
LINE
  5
8206
100
AcDbEntity
  8
0
100
AcDbLine
 10
2220.380884
 20
874.658475
 30
0.0
 11
2221.945838
 21
873.723357
 31
0.0
  0
LINE
  5
8207
100
AcDbEntity
  8
0
100
AcDbLine
 10
2219.4921
 20
874.658475
 30
0.0
 11
2217.038361
 21
873.723357
 31
0.0
  0
LINE
  5
8208
100
AcDbEntity
  8
0
100
AcDbLine
 10
2212.130884
 20
874.658475
 30
0.0
 11
2217.080132
 21
873.706757
 31
0.0
  0
LINE
  5
8209
100
AcDbEntity
  8
0
100
AcDbLine
 10
2250.682922
 20
894.158475
 30
0.0
 11
2233.682922
 21
894.158475
 31
0.0
  0
LINE
  5
820A
100
AcDbEntity
  8
0
100
AcDbLine
 10
2252.182922
 20
881.158475
 30
0.0
 11
2232.182922
 21
881.158475
 31
0.0
  0
LINE
  5
820B
100
AcDbEntity
  8
0
100
AcDbLine
 10
2233.682922
 20
881.158475
 30
0.0
 11
2233.682922
 21
894.158475
 31
0.0
  0
LINE
  5
820C
100
AcDbEntity
  8
0
100
AcDbLine
 10
2250.682922
 20
881.158475
 30
0.0
 11
2250.682922
 21
894.158475
 31
0.0
  0
LINE
  5
820D
100
AcDbEntity
  8
0
100
AcDbLine
 10
2264.873744
 20
874.658475
 30
0.0
 11
2267.327483
 21
873.723357
 31
0.0
  0
LINE
  5
820E
100
AcDbEntity
  8
0
100
AcDbLine
 10
2263.98496
 20
874.658475
 30
0.0
 11
2262.420006
 21
873.723357
 31
0.0
  0
LINE
  5
820F
100
AcDbEntity
  8
0
100
AcDbLine
 10
2262.420006
 20
873.723357
 30
0.0
 11
2264.873744
 21
874.658475
 31
0.0
  0
LINE
  5
8210
100
AcDbEntity
  8
0
100
AcDbLine
 10
2277.142438
 20
873.723357
 30
0.0
 11
2277.142438
 21
867.658475
 31
0.0
  0
LINE
  5
8211
100
AcDbEntity
  8
0
100
AcDbLine
 10
2282.049915
 20
867.65561
 30
0.0
 11
2282.049915
 21
873.723357
 31
0.0
  0
LINE
  5
8212
100
AcDbEntity
  8
0
100
AcDbLine
 10
2347.182922
 20
904.658475
 30
0.0
 11
2347.182922
 21
842.158475
 31
0.0
  0
LINE
  5
8213
100
AcDbEntity
  8
0
100
AcDbLine
 10
2300.774302
 20
853.431069
 30
0.0
 11
2314.694035
 21
857.16085
 31
0.0
  0
LINE
  5
8214
100
AcDbEntity
  8
0
100
AcDbLine
 10
2282.182922
 20
843.158475
 30
0.0
 11
2282.182922
 21
855.158475
 31
0.0
  0
LINE
  5
8215
100
AcDbEntity
  8
0
100
AcDbLine
 10
2274.182922
 20
815.158475
 30
0.0
 11
2274.182922
 21
843.158475
 31
0.0
  0
LINE
  5
8216
100
AcDbEntity
  8
0
100
AcDbLine
 10
2282.182922
 20
853.158475
 30
0.0
 11
2298.70375
 21
853.158475
 31
0.0
  0
LINE
  5
8217
100
AcDbEntity
  8
0
100
AcDbLine
 10
2282.932922
 20
855.158475
 30
0.0
 11
2282.932922
 21
867.658475
 31
0.0
  0
LINE
  5
8218
100
AcDbEntity
  8
0
100
AcDbLine
 10
2294.182922
 20
855.158475
 30
0.0
 11
2294.182922
 21
853.158475
 31
0.0
  0
ARC
  5
8219
100
AcDbEntity
  8
0
100
AcDbCircle
 10
2298.70375
 20
861.158475
 30
0.0
 40
8.0
100
AcDbArc
 50
270.0
 51
285.0
  0
ARC
  5
821A
100
AcDbEntity
  8
0
100
AcDbCircle
 10
2326.182922
 20
815.855631
 30
0.0
 40
3.0
100
AcDbArc
 50
0.0
 51
90.0
  0
LINE
  5
821B
100
AcDbEntity
  8
0
100
AcDbLine
 10
2314.694035
 20
818.855631
 30
0.0
 11
2326.182922
 21
818.855631
 31
0.0
  0
ARC
  5
821C
100
AcDbEntity
  8
0
100
AcDbCircle
 10
2325.182922
 20
870.003468
 30
0.0
 40
4.0
100
AcDbArc
 50
306.801409
 51
0.0
  0
ARC
  5
821D
100
AcDbEntity
  8
0
100
AcDbCircle
 10
2325.182922
 20
870.003468
 30
0.0
 40
4.0
100
AcDbArc
 50
306.801409
 51
0.0
  0
LINE
  5
821E
100
AcDbEntity
  8
0
100
AcDbLine
 10
2327.579095
 20
866.800601
 30
0.0
 11
2314.694035
 21
857.16085
 31
0.0
  0
LINE
  5
821F
100
AcDbEntity
  8
0
100
AcDbLine
 10
2282.049915
 20
873.723357
 30
0.0
 11
2279.596176
 21
874.658475
 31
0.0
  0
LINE
  5
8220
100
AcDbEntity
  8
0
100
AcDbLine
 10
2282.049915
 20
873.723357
 30
0.0
 11
2280.48496
 21
874.658475
 31
0.0
  0
LINE
  5
8221
100
AcDbEntity
  8
0
100
AcDbLine
 10
2279.596176
 20
874.658475
 30
0.0
 11
2277.142438
 21
873.723357
 31
0.0
  0
LINE
  5
8222
100
AcDbEntity
  8
0
100
AcDbLine
 10
2277.142438
 20
873.723357
 30
0.0
 11
2272.23496
 21
874.658475
 31
0.0
  0
LINE
  5
8223
100
AcDbEntity
  8
0
100
AcDbLine
 10
2329.182922
 20
904.658475
 30
0.0
 11
2347.182922
 21
904.658475
 31
0.0
  0
INSERT
  5
823E
100
AcDbEntity
  8
0
100
AcDbBlockReference
  2
YA
 10
1383.768098
 20
421.58759
 30
0.0
 41
2.856021
 42
2.856021
 43
2.856021
  0
INSERT
  5
823F
100
AcDbEntity
  8
0
100
AcDbBlockReference
  2
YA
 10
1383.768098
 20
629.880695
 30
0.0
 41
2.856021
 42
2.856021
 43
2.856021
  0
INSERT
  5
8240
100
AcDbEntity
  8
0
100
AcDbBlockReference
  2
YA
 10
1608.768098
 20
839.59445
 30
0.0
 41
-2.856021
 42
2.856021
 43
2.856021
  0
INSERT
  5
824F
100
AcDbEntity
  8
0
100
AcDbBlockReference
  2
YA
 10
776.942468
 20
629.880695
 30
0.0
 41
2.856021
 42
2.856021
 43
2.856021
  0
INSERT
  5
8250
100
AcDbEntity
  8
0
100
AcDbBlockReference
  2
YA
 10
776.942468
 20
421.58759
 30
0.0
 41
2.856021
 42
2.856021
 43
2.856021
  0
INSERT
  5
8251
100
AcDbEntity
  8
0
100
AcDbBlockReference
  2
YA
 10
2117.182922
 20
629.880695
 30
0.0
 41
2.856021
 42
2.856021
 43
2.856021
  0
INSERT
  5
8252
100
AcDbEntity
  8
0
100
AcDbBlockReference
  2
YA
 10
2117.182922
 20
421.58759
 30
0.0
 41
2.856021
 42
2.856021
 43
2.856021
  0
INSERT
  5
8253
100
AcDbEntity
  8
0
100
AcDbBlockReference
  2
YA
 10
2362.182922
 20
839.59445
 30
0.0
 41
-2.856021
 42
2.856021
 43
2.856021
  0
INSERT
  5
8254
100
AcDbEntity
  8
0
100
AcDbBlockReference
  2
YA
 10
981.942468
 20
839.59445
 30
0.0
 41
-2.856021
 42
2.856021
 43
2.856021
  0
INSERT
  5
8255
100
AcDbEntity
  8
0
100
AcDbBlockReference
  2
YA
 10
811.942468
 20
1531.108529
 30
0.0
 41
2.856021
 42
2.856021
 43
2.856021
  0
INSERT
  5
8256
100
AcDbEntity
  8
0
100
AcDbBlockReference
  2
YA
 10
811.942468
 20
1322.815424
 30
0.0
 41
2.856021
 42
2.856021
 43
2.856021
  0
INSERT
  5
8257
100
AcDbEntity
  8
0
100
AcDbBlockReference
  2
YA
 10
961.942468
 20
1740.822284
 30
0.0
 41
-2.856021
 42
2.856021
 43
2.856021
  0
INSERT
  5
8258
100
AcDbEntity
  8
0
100
AcDbBlockReference
  2
YA
 10
1567.263069
 20
1740.822284
 30
0.0
 41
-2.856021
 42
2.856021
 43
2.856021
  0
INSERT
  5
8259
100
AcDbEntity
  8
0
100
AcDbBlockReference
  2
YA
 10
2322.187951
 20
1740.822284
 30
0.0
 41
-2.856021
 42
2.856021
 43
2.856021
  0
INSERT
  5
825A
100
AcDbEntity
  8
0
100
AcDbBlockReference
  2
YA
 10
1420.268098
 20
1531.108529
 30
0.0
 41
2.856021
 42
2.856021
 43
2.856021
  0
INSERT
  5
825B
100
AcDbEntity
  8
0
100
AcDbBlockReference
  2
YA
 10
1420.268098
 20
1322.815424
 30
0.0
 41
2.856021
 42
2.856021
 43
2.856021
  0
INSERT
  5
825C
100
AcDbEntity
  8
0
100
AcDbBlockReference
  2
YA
 10
2172.187951
 20
1531.108529
 30
0.0
 41
2.856021
 42
2.856021
 43
2.856021
  0
INSERT
  5
825D
100
AcDbEntity
  8
0
100
AcDbBlockReference
  2
YA
 10
2172.187951
 20
1322.815424
 30
0.0
 41
2.856021
 42
2.856021
 43
2.856021
  0
TEXT
  5
8263
100
AcDbEntity
  8
0
100
AcDbText
 10
1301.159138
 20
1057.475732
 30
0.0
 40
35.0
  1
TLV  J3B (PT)
 72
     4
 11
1475.992472
 21
1072.475732
 31
0.0
100
AcDbText
  0
CIRCLE
  5
849B
100
AcDbEntity
  8
0
100
AcDbCircle
 10
2024.765023
 20
1259.901074
 30
0.0
 40
11.0
  0
CIRCLE
  5
84D2
100
AcDbEntity
  8
0
100
AcDbCircle
 10
1294.430026
 20
1262.439799
 30
0.0
 40
11.0
  0
CIRCLE
  5
84D3
100
AcDbEntity
  8
0
100
AcDbCircle
 10
664.382211
 20
1259.815424
 30
0.0
 40
11.0
  0
POLYLINE
  5
84E0
100
AcDbEntity
  8
0
100
AcDb2dPolyline
 66
     1
 10
0.0
 20
0.0
 30
0.0
 70
     1
  0
VERTEX
  5
867E
100
AcDbEntity
  8
0
100
AcDbVertex
100
AcDb2dVertex
 10
866.442468
 20
349.025412
 30
0.0
  0
VERTEX
  5
867F
100
AcDbEntity
  8
0
100
AcDbVertex
100
AcDb2dVertex
 10
876.942468
 20
342.963234
 30
0.0
  0
VERTEX
  5
8680
100
AcDbEntity
  8
0
100
AcDbVertex
100
AcDb2dVertex
 10
887.442468
 20
349.025412
 30
0.0
  0
VERTEX
  5
8681
100
AcDbEntity
  8
0
100
AcDbVertex
100
AcDb2dVertex
 10
887.442468
 20
361.149768
 30
0.0
  0
VERTEX
  5
8682
100
AcDbEntity
  8
0
100
AcDbVertex
100
AcDb2dVertex
 10
876.942468
 20
367.211946
 30
0.0
  0
VERTEX
  5
8683
100
AcDbEntity
  8
0
100
AcDbVertex
100
AcDb2dVertex
 10
866.442468
 20
361.149768
 30
0.0
  0
SEQEND
  5
8684
100
AcDbEntity
  8
0
  0
CIRCLE
  5
84E1
100
AcDbEntity
  8
0
100
AcDbCircle
 10
876.942468
 20
355.08759
 30
0.0
 40
10.25
  0
ARC
  5
84F9
100
AcDbEntity
  8
0
100
AcDbCircle
 10
681.715723
 20
364.179854
 30
0.0
 40
5.64847
100
AcDbArc
 50
327.546074
 51
32.453926
  0
ARC
  5
84FA
100
AcDbEntity
  8
0
100
AcDbCircle
 10
688.412663
 20
364.179854
 30
0.0
 40
5.64847
100
AcDbArc
 50
147.546074
 51
212.453926
  0
LINE
  5
84FB
100
AcDbEntity
  8
0
100
AcDbLine
 10
687.564193
 20
365.336587
 30
0.0
 11
687.564193
 21
344.836587
 31
0.0
  0
LINE
  5
84FC
100
AcDbEntity
  8
0
100
AcDbLine
 10
682.564193
 20
365.336587
 30
0.0
 11
682.564193
 21
344.836587
 31
0.0
  0
ARC
  5
84FD
100
AcDbEntity
  8
0
100
AcDbCircle
 10
688.412663
 20
345.993321
 30
0.0
 40
5.64847
100
AcDbArc
 50
147.546074
 51
212.453926
  0
ARC
  5
84FE
100
AcDbEntity
  8
0
100
AcDbCircle
 10
681.715723
 20
345.993321
 30
0.0
 40
5.64847
100
AcDbArc
 50
327.546074
 51
32.453926
  0
LINE
  5
84FF
100
AcDbEntity
  8
0
100
AcDbLine
 10
683.646353
 20
342.962232
 30
0.0
 11
686.482033
 21
342.962232
 31
0.0
  0
LINE
  5
8500
100
AcDbEntity
  8
0
100
AcDbLine
 10
683.646353
 20
342.962232
 30
0.0
 11
686.482033
 21
342.962232
 31
0.0
  0
LINE
  5
8501
100
AcDbEntity
  8
0
100
AcDbLine
 10
683.646353
 20
342.962232
 30
0.0
 11
682.564193
 21
344.836587
 31
0.0
  0
LINE
  5
8502
100
AcDbEntity
  8
0
100
AcDbLine
 10
681.564193
 20
346.086587
 30
0.0
 11
682.564193
 21
346.086587
 31
0.0
  0
LINE
  5
8503
100
AcDbEntity
  8
0
100
AcDbLine
 10
686.482033
 20
342.962232
 30
0.0
 11
687.564193
 21
344.836587
 31
0.0
  0
LINE
  5
8504
100
AcDbEntity
  8
0
100
AcDbLine
 10
683.646353
 20
361.148765
 30
0.0
 11
686.482033
 21
361.148765
 31
0.0
  0
LINE
  5
8505
100
AcDbEntity
  8
0
100
AcDbLine
 10
683.646353
 20
349.02441
 30
0.0
 11
686.482033
 21
349.02441
 31
0.0
  0
ARC
  5
8506
100
AcDbEntity
  8
0
100
AcDbCircle
 10
704.034834
 20
355.086587
 30
0.0
 40
21.270641
100
AcDbArc
 50
163.441024
 51
196.558976
  0
ARC
  5
8507
100
AcDbEntity
  8
0
100
AcDbCircle
 10
666.093552
 20
355.086587
 30
0.0
 40
21.270641
100
AcDbArc
 50
343.441024
 51
16.558976
  0
LINE
  5
8508
100
AcDbEntity
  8
0
100
AcDbLine
 10
683.646353
 20
367.210943
 30
0.0
 11
686.482033
 21
367.210943
 31
0.0
  0
LINE
  5
8509
100
AcDbEntity
  8
0
100
AcDbLine
 10
683.646353
 20
367.210943
 30
0.0
 11
682.564193
 21
365.336587
 31
0.0
  0
LINE
  5
850A
100
AcDbEntity
  8
0
100
AcDbLine
 10
681.564193
 20
364.086587
 30
0.0
 11
682.564193
 21
364.086587
 31
0.0
  0
LINE
  5
850B
100
AcDbEntity
  8
0
100
AcDbLine
 10
686.482033
 20
367.210943
 30
0.0
 11
687.564193
 21
365.336587
 31
0.0
  0
ARC
  5
8523
100
AcDbEntity
  8
0
100
AcDbCircle
 10
1037.109241
 20
345.995326
 30
0.0
 40
5.64847
100
AcDbArc
 50
147.546074
 51
212.453926
  0
ARC
  5
8524
100
AcDbEntity
  8
0
100
AcDbCircle
 10
1030.412301
 20
345.995326
 30
0.0
 40
5.64847
100
AcDbArc
 50
327.546074
 51
32.453926
  0
LINE
  5
8525
100
AcDbEntity
  8
0
100
AcDbLine
 10
1031.260771
 20
344.838593
 30
0.0
 11
1031.260771
 21
365.338593
 31
0.0
  0
LINE
  5
8526
100
AcDbEntity
  8
0
100
AcDbLine
 10
1036.260771
 20
344.838593
 30
0.0
 11
1036.260771
 21
365.338593
 31
0.0
  0
ARC
  5
8527
100
AcDbEntity
  8
0
100
AcDbCircle
 10
1030.412301
 20
364.181859
 30
0.0
 40
5.64847
100
AcDbArc
 50
327.546074
 51
32.453926
  0
ARC
  5
8528
100
AcDbEntity
  8
0
100
AcDbCircle
 10
1037.109241
 20
364.181859
 30
0.0
 40
5.64847
100
AcDbArc
 50
147.546074
 51
212.453926
  0
LINE
  5
8529
100
AcDbEntity
  8
0
100
AcDbLine
 10
1035.178611
 20
367.212948
 30
0.0
 11
1032.342931
 21
367.212948
 31
0.0
  0
LINE
  5
852A
100
AcDbEntity
  8
0
100
AcDbLine
 10
1035.178611
 20
367.212948
 30
0.0
 11
1032.342931
 21
367.212948
 31
0.0
  0
LINE
  5
852B
100
AcDbEntity
  8
0
100
AcDbLine
 10
1035.178611
 20
367.212948
 30
0.0
 11
1036.260771
 21
365.338593
 31
0.0
  0
LINE
  5
852C
100
AcDbEntity
  8
0
100
AcDbLine
 10
1037.260771
 20
364.088593
 30
0.0
 11
1036.260771
 21
364.088593
 31
0.0
  0
LINE
  5
852D
100
AcDbEntity
  8
0
100
AcDbLine
 10
1032.342931
 20
367.212948
 30
0.0
 11
1031.260771
 21
365.338593
 31
0.0
  0
LINE
  5
852E
100
AcDbEntity
  8
0
100
AcDbLine
 10
1035.178611
 20
349.026415
 30
0.0
 11
1032.342931
 21
349.026415
 31
0.0
  0
LINE
  5
852F
100
AcDbEntity
  8
0
100
AcDbLine
 10
1035.178611
 20
361.15077
 30
0.0
 11
1032.342931
 21
361.15077
 31
0.0
  0
ARC
  5
8530
100
AcDbEntity
  8
0
100
AcDbCircle
 10
1014.79013
 20
355.088593
 30
0.0
 40
21.270641
100
AcDbArc
 50
343.441024
 51
16.558976
  0
ARC
  5
8531
100
AcDbEntity
  8
0
100
AcDbCircle
 10
1052.731412
 20
355.088593
 30
0.0
 40
21.270641
100
AcDbArc
 50
163.441024
 51
196.558976
  0
LINE
  5
8532
100
AcDbEntity
  8
0
100
AcDbLine
 10
1035.178611
 20
342.964237
 30
0.0
 11
1032.342931
 21
342.964237
 31
0.0
  0
LINE
  5
8533
100
AcDbEntity
  8
0
100
AcDbLine
 10
1035.178611
 20
342.964237
 30
0.0
 11
1036.260771
 21
344.838593
 31
0.0
  0
LINE
  5
8534
100
AcDbEntity
  8
0
100
AcDbLine
 10
1037.260771
 20
346.088593
 30
0.0
 11
1036.260771
 21
346.088593
 31
0.0
  0
LINE
  5
8535
100
AcDbEntity
  8
0
100
AcDbLine
 10
1032.342931
 20
342.964237
 30
0.0
 11
1031.260771
 21
344.838593
 31
0.0
  0
ARC
  5
854D
100
AcDbEntity
  8
0
100
AcDbCircle
 10
1279.540475
 20
353.718559
 30
0.0
 40
5.64847
100
AcDbArc
 50
327.546074
 51
32.453926
  0
ARC
  5
854E
100
AcDbEntity
  8
0
100
AcDbCircle
 10
1286.237415
 20
353.718559
 30
0.0
 40
5.64847
100
AcDbArc
 50
147.546074
 51
212.453926
  0
LINE
  5
854F
100
AcDbEntity
  8
0
100
AcDbLine
 10
1285.388945
 20
354.875293
 30
0.0
 11
1285.388945
 21
334.375293
 31
0.0
  0
LINE
  5
8550
100
AcDbEntity
  8
0
100
AcDbLine
 10
1280.388945
 20
354.875293
 30
0.0
 11
1280.388945
 21
334.375293
 31
0.0
  0
ARC
  5
8551
100
AcDbEntity
  8
0
100
AcDbCircle
 10
1286.237415
 20
335.532026
 30
0.0
 40
5.64847
100
AcDbArc
 50
147.546074
 51
212.453926
  0
ARC
  5
8552
100
AcDbEntity
  8
0
100
AcDbCircle
 10
1279.540475
 20
335.532026
 30
0.0
 40
5.64847
100
AcDbArc
 50
327.546074
 51
32.453926
  0
LINE
  5
8553
100
AcDbEntity
  8
0
100
AcDbLine
 10
1281.471105
 20
332.500937
 30
0.0
 11
1284.306785
 21
332.500937
 31
0.0
  0
LINE
  5
8554
100
AcDbEntity
  8
0
100
AcDbLine
 10
1281.471105
 20
332.500937
 30
0.0
 11
1284.306785
 21
332.500937
 31
0.0
  0
LINE
  5
8555
100
AcDbEntity
  8
0
100
AcDbLine
 10
1281.471105
 20
332.500937
 30
0.0
 11
1280.388945
 21
334.375293
 31
0.0
  0
LINE
  5
8556
100
AcDbEntity
  8
0
100
AcDbLine
 10
1279.388945
 20
335.625293
 30
0.0
 11
1280.388945
 21
335.625293
 31
0.0
  0
LINE
  5
8557
100
AcDbEntity
  8
0
100
AcDbLine
 10
1284.306785
 20
332.500937
 30
0.0
 11
1285.388945
 21
334.375293
 31
0.0
  0
LINE
  5
8558
100
AcDbEntity
  8
0
100
AcDbLine
 10
1281.471105
 20
350.68747
 30
0.0
 11
1284.306785
 21
350.68747
 31
0.0
  0
LINE
  5
8559
100
AcDbEntity
  8
0
100
AcDbLine
 10
1281.471105
 20
338.563115
 30
0.0
 11
1284.306785
 21
338.563115
 31
0.0
  0
ARC
  5
855A
100
AcDbEntity
  8
0
100
AcDbCircle
 10
1301.859586
 20
344.625293
 30
0.0
 40
21.270641
100
AcDbArc
 50
163.441024
 51
196.558976
  0
ARC
  5
855B
100
AcDbEntity
  8
0
100
AcDbCircle
 10
1263.918304
 20
344.625293
 30
0.0
 40
21.270641
100
AcDbArc
 50
343.441024
 51
16.558976
  0
LINE
  5
855C
100
AcDbEntity
  8
0
100
AcDbLine
 10
1281.471105
 20
356.749648
 30
0.0
 11
1284.306785
 21
356.749648
 31
0.0
  0
LINE
  5
855D
100
AcDbEntity
  8
0
100
AcDbLine
 10
1281.471105
 20
356.749648
 30
0.0
 11
1280.388945
 21
354.875293
 31
0.0
  0
LINE
  5
855E
100
AcDbEntity
  8
0
100
AcDbLine
 10
1279.388945
 20
353.625293
 30
0.0
 11
1280.388945
 21
353.625293
 31
0.0
  0
LINE
  5
855F
100
AcDbEntity
  8
0
100
AcDbLine
 10
1284.306785
 20
356.749648
 30
0.0
 11
1285.388945
 21
354.875293
 31
0.0
  0
POLYLINE
  5
8567
100
AcDbEntity
  8
0
100
AcDb2dPolyline
 66
     1
 10
0.0
 20
0.0
 30
0.0
 70
     1
  0
VERTEX
  5
8685
100
AcDbEntity
  8
0
100
AcDbVertex
100
AcDb2dVertex
 10
1483.268098
 20
338.525412
 30
0.0
  0
VERTEX
  5
8686
100
AcDbEntity
  8
0
100
AcDbVertex
100
AcDb2dVertex
 10
1493.768098
 20
332.463234
 30
0.0
  0
VERTEX
  5
8687
100
AcDbEntity
  8
0
100
AcDbVertex
100
AcDb2dVertex
 10
1504.268098
 20
338.525412
 30
0.0
  0
VERTEX
  5
8688
100
AcDbEntity
  8
0
100
AcDbVertex
100
AcDb2dVertex
 10
1504.268098
 20
350.649768
 30
0.0
  0
VERTEX
  5
8689
100
AcDbEntity
  8
0
100
AcDbVertex
100
AcDb2dVertex
 10
1493.768098
 20
356.711946
 30
0.0
  0
VERTEX
  5
868A
100
AcDbEntity
  8
0
100
AcDbVertex
100
AcDb2dVertex
 10
1483.268098
 20
350.649768
 30
0.0
  0
SEQEND
  5
868B
100
AcDbEntity
  8
0
  0
CIRCLE
  5
8568
100
AcDbEntity
  8
0
100
AcDbCircle
 10
1493.768098
 20
344.58759
 30
0.0
 40
10.25
  0
ARC
  5
85AA
100
AcDbEntity
  8
0
100
AcDbCircle
 10
1672.93575
 20
335.534031
 30
0.0
 40
5.64847
100
AcDbArc
 50
147.546074
 51
212.453926
  0
ARC
  5
85AB
100
AcDbEntity
  8
0
100
AcDbCircle
 10
1666.23881
 20
335.534031
 30
0.0
 40
5.64847
100
AcDbArc
 50
327.546074
 51
32.453926
  0
LINE
  5
85AC
100
AcDbEntity
  8
0
100
AcDbLine
 10
1667.08728
 20
334.377298
 30
0.0
 11
1667.08728
 21
354.877298
 31
0.0
  0
LINE
  5
85AD
100
AcDbEntity
  8
0
100
AcDbLine
 10
1672.08728
 20
334.377298
 30
0.0
 11
1672.08728
 21
354.877298
 31
0.0
  0
ARC
  5
85AE
100
AcDbEntity
  8
0
100
AcDbCircle
 10
1666.23881
 20
353.720564
 30
0.0
 40
5.64847
100
AcDbArc
 50
327.546074
 51
32.453926
  0
ARC
  5
85AF
100
AcDbEntity
  8
0
100
AcDbCircle
 10
1672.93575
 20
353.720564
 30
0.0
 40
5.64847
100
AcDbArc
 50
147.546074
 51
212.453926
  0
LINE
  5
85B0
100
AcDbEntity
  8
0
100
AcDbLine
 10
1671.005121
 20
356.751653
 30
0.0
 11
1668.16944
 21
356.751653
 31
0.0
  0
LINE
  5
85B1
100
AcDbEntity
  8
0
100
AcDbLine
 10
1671.005121
 20
356.751653
 30
0.0
 11
1668.16944
 21
356.751653
 31
0.0
  0
LINE
  5
85B2
100
AcDbEntity
  8
0
100
AcDbLine
 10
1671.005121
 20
356.751653
 30
0.0
 11
1672.08728
 21
354.877298
 31
0.0
  0
LINE
  5
85B3
100
AcDbEntity
  8
0
100
AcDbLine
 10
1673.08728
 20
353.627298
 30
0.0
 11
1672.08728
 21
353.627298
 31
0.0
  0
LINE
  5
85B4
100
AcDbEntity
  8
0
100
AcDbLine
 10
1668.16944
 20
356.751653
 30
0.0
 11
1667.08728
 21
354.877298
 31
0.0
  0
LINE
  5
85B5
100
AcDbEntity
  8
0
100
AcDbLine
 10
1671.005121
 20
338.56512
 30
0.0
 11
1668.16944
 21
338.56512
 31
0.0
  0
LINE
  5
85B6
100
AcDbEntity
  8
0
100
AcDbLine
 10
1671.005121
 20
350.689476
 30
0.0
 11
1668.16944
 21
350.689476
 31
0.0
  0
ARC
  5
85B7
100
AcDbEntity
  8
0
100
AcDbCircle
 10
1650.61664
 20
344.627298
 30
0.0
 40
21.270641
100
AcDbArc
 50
343.441024
 51
16.558976
  0
ARC
  5
85B8
100
AcDbEntity
  8
0
100
AcDbCircle
 10
1688.557921
 20
344.627298
 30
0.0
 40
21.270641
100
AcDbArc
 50
163.441024
 51
196.558976
  0
LINE
  5
85B9
100
AcDbEntity
  8
0
100
AcDbLine
 10
1671.005121
 20
332.502942
 30
0.0
 11
1668.16944
 21
332.502942
 31
0.0
  0
LINE
  5
85BA
100
AcDbEntity
  8
0
100
AcDbLine
 10
1671.005121
 20
332.502942
 30
0.0
 11
1672.08728
 21
334.377298
 31
0.0
  0
LINE
  5
85BB
100
AcDbEntity
  8
0
100
AcDbLine
 10
1673.08728
 20
335.627298
 30
0.0
 11
1672.08728
 21
335.627298
 31
0.0
  0
LINE
  5
85BC
100
AcDbEntity
  8
0
100
AcDbLine
 10
1668.16944
 20
332.502942
 30
0.0
 11
1667.08728
 21
334.377298
 31
0.0
  0
ARC
  5
85D4
100
AcDbEntity
  8
0
100
AcDbCircle
 10
1965.079297
 20
351.679854
 30
0.0
 40
5.64847
100
AcDbArc
 50
327.546074
 51
32.453926
  0
ARC
  5
85D5
100
AcDbEntity
  8
0
100
AcDbCircle
 10
1971.776237
 20
351.679854
 30
0.0
 40
5.64847
100
AcDbArc
 50
147.546074
 51
212.453926
  0
LINE
  5
85D6
100
AcDbEntity
  8
0
100
AcDbLine
 10
1970.927767
 20
352.836587
 30
0.0
 11
1970.927767
 21
332.336587
 31
0.0
  0
LINE
  5
85D7
100
AcDbEntity
  8
0
100
AcDbLine
 10
1965.927767
 20
352.836587
 30
0.0
 11
1965.927767
 21
332.336587
 31
0.0
  0
ARC
  5
85D8
100
AcDbEntity
  8
0
100
AcDbCircle
 10
1971.776237
 20
333.493321
 30
0.0
 40
5.64847
100
AcDbArc
 50
147.546074
 51
212.453926
  0
ARC
  5
85D9
100
AcDbEntity
  8
0
100
AcDbCircle
 10
1965.079297
 20
333.493321
 30
0.0
 40
5.64847
100
AcDbArc
 50
327.546074
 51
32.453926
  0
LINE
  5
85DA
100
AcDbEntity
  8
0
100
AcDbLine
 10
1967.009926
 20
330.462232
 30
0.0
 11
1969.845607
 21
330.462232
 31
0.0
  0
LINE
  5
85DB
100
AcDbEntity
  8
0
100
AcDbLine
 10
1967.009926
 20
330.462232
 30
0.0
 11
1969.845607
 21
330.462232
 31
0.0
  0
LINE
  5
85DC
100
AcDbEntity
  8
0
100
AcDbLine
 10
1967.009926
 20
330.462232
 30
0.0
 11
1965.927767
 21
332.336587
 31
0.0
  0
LINE
  5
85DD
100
AcDbEntity
  8
0
100
AcDbLine
 10
1964.927767
 20
333.586587
 30
0.0
 11
1965.927767
 21
333.586587
 31
0.0
  0
LINE
  5
85DE
100
AcDbEntity
  8
0
100
AcDbLine
 10
1969.845607
 20
330.462232
 30
0.0
 11
1970.927767
 21
332.336587
 31
0.0
  0
LINE
  5
85DF
100
AcDbEntity
  8
0
100
AcDbLine
 10
1967.009926
 20
348.648765
 30
0.0
 11
1969.845607
 21
348.648765
 31
0.0
  0
LINE
  5
85E0
100
AcDbEntity
  8
0
100
AcDbLine
 10
1967.009926
 20
336.52441
 30
0.0
 11
1969.845607
 21
336.52441
 31
0.0
  0
ARC
  5
85E1
100
AcDbEntity
  8
0
100
AcDbCircle
 10
1987.398407
 20
342.586587
 30
0.0
 40
21.270641
100
AcDbArc
 50
163.441024
 51
196.558976
  0
ARC
  5
85E2
100
AcDbEntity
  8
0
100
AcDbCircle
 10
1949.457126
 20
342.586587
 30
0.0
 40
21.270641
100
AcDbArc
 50
343.441024
 51
16.558976
  0
LINE
  5
85E3
100
AcDbEntity
  8
0
100
AcDbLine
 10
1967.009926
 20
354.710943
 30
0.0
 11
1969.845607
 21
354.710943
 31
0.0
  0
LINE
  5
85E4
100
AcDbEntity
  8
0
100
AcDbLine
 10
1967.009926
 20
354.710943
 30
0.0
 11
1965.927767
 21
352.836587
 31
0.0
  0
LINE
  5
85E5
100
AcDbEntity
  8
0
100
AcDbLine
 10
1964.927767
 20
351.586587
 30
0.0
 11
1965.927767
 21
351.586587
 31
0.0
  0
LINE
  5
85E6
100
AcDbEntity
  8
0
100
AcDbLine
 10
1969.845607
 20
354.710943
 30
0.0
 11
1970.927767
 21
352.836587
 31
0.0
  0
POLYLINE
  5
85EE
100
AcDbEntity
  8
0
100
AcDb2dPolyline
 66
     1
 10
0.0
 20
0.0
 30
0.0
 70
     1
  0
VERTEX
  5
868C
100
AcDbEntity
  8
0
100
AcDbVertex
100
AcDb2dVertex
 10
2226.682922
 20
336.525412
 30
0.0
  0
VERTEX
  5
868D
100
AcDbEntity
  8
0
100
AcDbVertex
100
AcDb2dVertex
 10
2237.182922
 20
330.463234
 30
0.0
  0
VERTEX
  5
868E
100
AcDbEntity
  8
0
100
AcDbVertex
100
AcDb2dVertex
 10
2247.682922
 20
336.525412
 30
0.0
  0
VERTEX
  5
868F
100
AcDbEntity
  8
0
100
AcDbVertex
100
AcDb2dVertex
 10
2247.682922
 20
348.649768
 30
0.0
  0
VERTEX
  5
8690
100
AcDbEntity
  8
0
100
AcDbVertex
100
AcDb2dVertex
 10
2237.182922
 20
354.711946
 30
0.0
  0
VERTEX
  5
8691
100
AcDbEntity
  8
0
100
AcDbVertex
100
AcDb2dVertex
 10
2226.682922
 20
348.649768
 30
0.0
  0
SEQEND
  5
8692
100
AcDbEntity
  8
0
  0
CIRCLE
  5
85EF
100
AcDbEntity
  8
0
100
AcDbCircle
 10
2237.182922
 20
342.58759
 30
0.0
 40
10.25
  0
ARC
  5
8607
100
AcDbEntity
  8
0
100
AcDbCircle
 10
2468.708579
 20
333.495326
 30
0.0
 40
5.64847
100
AcDbArc
 50
147.546074
 51
212.453926
  0
ARC
  5
8608
100
AcDbEntity
  8
0
100
AcDbCircle
 10
2462.011639
 20
333.495326
 30
0.0
 40
5.64847
100
AcDbArc
 50
327.546074
 51
32.453926
  0
LINE
  5
8609
100
AcDbEntity
  8
0
100
AcDbLine
 10
2462.860109
 20
332.338593
 30
0.0
 11
2462.860109
 21
352.838593
 31
0.0
  0
LINE
  5
860A
100
AcDbEntity
  8
0
100
AcDbLine
 10
2467.860109
 20
332.338593
 30
0.0
 11
2467.860109
 21
352.838593
 31
0.0
  0
ARC
  5
860B
100
AcDbEntity
  8
0
100
AcDbCircle
 10
2462.011639
 20
351.681859
 30
0.0
 40
5.64847
100
AcDbArc
 50
327.546074
 51
32.453926
  0
ARC
  5
860C
100
AcDbEntity
  8
0
100
AcDbCircle
 10
2468.708579
 20
351.681859
 30
0.0
 40
5.64847
100
AcDbArc
 50
147.546074
 51
212.453926
  0
LINE
  5
860D
100
AcDbEntity
  8
0
100
AcDbLine
 10
2466.777949
 20
354.712948
 30
0.0
 11
2463.942268
 21
354.712948
 31
0.0
  0
LINE
  5
860E
100
AcDbEntity
  8
0
100
AcDbLine
 10
2466.777949
 20
354.712948
 30
0.0
 11
2463.942268
 21
354.712948
 31
0.0
  0
LINE
  5
860F
100
AcDbEntity
  8
0
100
AcDbLine
 10
2466.777949
 20
354.712948
 30
0.0
 11
2467.860109
 21
352.838593
 31
0.0
  0
LINE
  5
8610
100
AcDbEntity
  8
0
100
AcDbLine
 10
2468.860109
 20
351.588593
 30
0.0
 11
2467.860109
 21
351.588593
 31
0.0
  0
LINE
  5
8611
100
AcDbEntity
  8
0
100
AcDbLine
 10
2463.942268
 20
354.712948
 30
0.0
 11
2462.860109
 21
352.838593
 31
0.0
  0
LINE
  5
8612
100
AcDbEntity
  8
0
100
AcDbLine
 10
2466.777949
 20
336.526415
 30
0.0
 11
2463.942268
 21
336.526415
 31
0.0
  0
LINE
  5
8613
100
AcDbEntity
  8
0
100
AcDbLine
 10
2466.777949
 20
348.65077
 30
0.0
 11
2463.942268
 21
348.65077
 31
0.0
  0
ARC
  5
8614
100
AcDbEntity
  8
0
100
AcDbCircle
 10
2446.389468
 20
342.588593
 30
0.0
 40
21.270641
100
AcDbArc
 50
343.441024
 51
16.558976
  0
ARC
  5
8615
100
AcDbEntity
  8
0
100
AcDbCircle
 10
2484.330749
 20
342.588593
 30
0.0
 40
21.270641
100
AcDbArc
 50
163.441024
 51
196.558976
  0
LINE
  5
8616
100
AcDbEntity
  8
0
100
AcDbLine
 10
2466.777949
 20
330.464237
 30
0.0
 11
2463.942268
 21
330.464237
 31
0.0
  0
LINE
  5
8617
100
AcDbEntity
  8
0
100
AcDbLine
 10
2466.777949
 20
330.464237
 30
0.0
 11
2467.860109
 21
332.338593
 31
0.0
  0
LINE
  5
8618
100
AcDbEntity
  8
0
100
AcDbLine
 10
2468.860109
 20
333.588593
 30
0.0
 11
2467.860109
 21
333.588593
 31
0.0
  0
LINE
  5
8619
100
AcDbEntity
  8
0
100
AcDbLine
 10
2463.942268
 20
330.464237
 30
0.0
 11
2462.860109
 21
332.338593
 31
0.0
  0
VIEWPORT
  5
41
100
AcDbEntity
 67
     1
  8
0
100
AcDbViewport
 10
117.358407
 20
73.5
 30
0.0
 40
234.716814
 41
147.0
 68
    -1
 69
     1
1001
ACAD
1000
MVIEW
1002
{
1070
    16
1010
0.0
1020
0.0
1030
0.0
1010
0.0
1020
0.0
1030
1.0
1040
0.0
1040
147.0
1040
117.358407
1040
73.5
1040
50.0
1040
0.0
1040
0.0
1070
     0
1070
   100
1070
     1
1070
     1
1070
     0
1070
     0
1070
     0
1070
     0
1040
0.0
1040
0.0
1040
0.0
1040
1.0
1040
1.0
1040
0.0
1040
0.0
1070
     0
1002
{
1002
}
1002
}
  0
ENDSEC
  0
SECTION
  2
OBJECTS
  0
DICTIONARY
  5
C
100
AcDbDictionary
  3
ACAD_GROUP
350
D
  3
ACAD_MLINESTYLE
350
E
  0
DICTIONARY
  5
D
102
{ACAD_REACTORS
330
C
102
}
100
AcDbDictionary
  0
DICTIONARY
  5
E
102
{ACAD_REACTORS
330
C
102
}
100
AcDbDictionary
  3
STANDARD
350
1B
  0
MLINESTYLE
  5
1B
102
{ACAD_REACTORS
330
E
102
}
100
AcDbMlineStyle
  2
STANDARD
 70
     0
  3

 62
     0
 51
90.0
 52
90.0
 71
     2
 49
0.5
 62
   256
  6
BYLAYER
 49
-0.5
 62
   256
  6
BYLAYER
  0
ENDSEC
  0
EOF
