  0
SECTION
  2
HEADER
  9
$ACADVER
  1
AC1009
  9
$INSBASE
 10
0.0
 20
0.0
 30
0.0
  9
$EXTMIN
 10
90.000000000000028
 20
35.000000000000021
 30
0.0
  9
$EXTMAX
 10
2045.0000000000009
 20
1410.0
 30
0.0
  9
$LIMMIN
 10
0.0
 20
0.0
  9
$LIMMAX
 10
2100.0
 20
1485.0
  9
$ORTHOMODE
 70
     1
  9
$REGENMODE
 70
     1
  9
$FILLMODE
 70
     1
  9
$QTEXTMODE
 70
     0
  9
$MIRRTEXT
 70
     1
  9
$DRAGMODE
 70
     2
  9
$LTSCALE
 40
20.0
  9
$OSMODE
 70
   163
  9
$ATTMODE
 70
     1
  9
$TEXTSIZE
 40
20.0
  9
$TRACEWID
 40
0.05
  9
$TEXTSTYLE
  7
STANDARD
  9
$CLAYER
  8
0
  9
$CELTYPE
  6
BYLAYER
  9
$CECOLOR
 62
   256
  9
$DIMSCALE
 40
5.0
  9
$DIMASZ
 40
2.7999999999999989
  9
$DIMEXO
 40
1.0
  9
$DIMDLI
 40
5.0
  9
$DIMRND
 40
0.1
  9
$DIMDLE
 40
0.0
  9
$DIMEXE
 40
1.0
  9
$DIMTP
 40
0.0
  9
$DIMTM
 40
0.0
  9
$DIMTXT
 40
2.5
  9
$DIMCEN
 40
0.0
  9
$DIMTSZ
 40
0.0
  9
$DIMTOL
 70
     0
  9
$DIMLIM
 70
     0
  9
$DIMTIH
 70
     0
  9
$DIMTOH
 70
     0
  9
$DIMSE1
 70
     0
  9
$DIMSE2
 70
     0
  9
$DIMTAD
 70
     3
  9
$DIMZIN
 70
     8
  9
$DIMBLK
  1

  9
$DIMASO
 70
     1
  9
$DIMSHO
 70
     1
  9
$DIMPOST
  1

  9
$DIMAPOST
  1

  9
$DIMALT
 70
     0
  9
$DIMALTD
 70
     2
  9
$DIMALTF
 40
1.0
  9
$DIMLFAC
 40
1.0
  9
$DIMTOFL
 70
     1
  9
$DIMTVP
 40
0.0
  9
$DIMTIX
 70
     0
  9
$DIMSOXD
 70
     0
  9
$DIMSAH
 70
     1
  9
$DIMBLK1
  1
OPEN
  9
$DIMBLK2
  1
OPEN
  9
$DIMSTYLE
  2
DIM1
  9
$DIMCLRD
 70
     2
  9
$DIMCLRE
 70
     2
  9
$DIMCLRT
 70
     2
  9
$DIMTFAC
 40
0.7
  9
$DIMGAP
 40
0.85
  9
$LUNITS
 70
     2
  9
$LUPREC
 70
     4
  9
$SKETCHINC
 40
0.1
  9
$FILLETRAD
 40
2.0
  9
$AUNITS
 70
     0
  9
$AUPREC
 70
     0
  9
$MENU
  1
C:\ACADR13\WIN\SUPPORT\ACAD.mnc
  9
$ELEVATION
 40
0.0
  9
$PELEVATION
 40
0.0
  9
$THICKNESS
 40
0.0
  9
$LIMCHECK
 70
     0
  9
$BLIPMODE
 70
     0
  9
$CHAMFERA
 40
0.0
  9
$CHAMFERB
 40
0.0
  9
$SKPOLY
 70
     0
  9
$TDCREATE
 40
2453683.562213901
  9
$TDUPDATE
 40
2454813.6742401738
  9
$TDINDWG
 40
0.3733431134
  9
$TDUSRTIMER
 40
0.3733431134
  9
$USRTIMER
 70
     1
  9
$ANGBASE
 50
0.0
  9
$ANGDIR
 70
     0
  9
$PDMODE
 70
     0
  9
$PDSIZE
 40
0.0
  9
$PLINEWID
 40
0.0
  9
$COORDS
 70
     0
  9
$SPLFRAME
 70
     0
  9
$SPLINETYPE
 70
     6
  9
$SPLINESEGS
 70
     8
  9
$ATTDIA
 70
     0
  9
$ATTREQ
 70
     1
  9
$HANDLING
 70
     1
  9
$HANDSEED
  5
10515
  9
$SURFTAB1
 70
     6
  9
$SURFTAB2
 70
     6
  9
$SURFTYPE
 70
     6
  9
$SURFU
 70
     6
  9
$SURFV
 70
     6
  9
$UCSNAME
  2

  9
$UCSORG
 10
0.0
 20
0.0
 30
0.0
  9
$UCSXDIR
 10
1.0
 20
0.0
 30
0.0
  9
$UCSYDIR
 10
0.0
 20
1.0
 30
0.0
  9
$PUCSNAME
  2

  9
$PUCSORG
 10
0.0
 20
0.0
 30
0.0
  9
$PUCSXDIR
 10
1.0
 20
0.0
 30
0.0
  9
$PUCSYDIR
 10
0.0
 20
1.0
 30
0.0
  9
$USERI1
 70
     0
  9
$USERI2
 70
     0
  9
$USERI3
 70
     0
  9
$USERI4
 70
     0
  9
$USERI5
 70
     0
  9
$USERR1
 40
0.0
  9
$USERR2
 40
0.0
  9
$USERR3
 40
0.0
  9
$USERR4
 40
0.0
  9
$USERR5
 40
0.0
  9
$WORLDVIEW
 70
     1
  9
$SHADEDGE
 70
     3
  9
$SHADEDIF
 70
    70
  9
$TILEMODE
 70
     1
  9
$MAXACTVP
 70
    16
  9
$PLIMCHECK
 70
     0
  9
$PEXTMIN
 10
1.0000000000000000E+020
 20
1.0000000000000000E+020
 30
1.0000000000000000E+020
  9
$PEXTMAX
 10
-1.0000000000000000E+020
 20
-1.0000000000000000E+020
 30
-1.0000000000000000E+020
  9
$PLIMMIN
 10
0.0
 20
0.0
  9
$PLIMMAX
 10
20.0
 20
147.0
  9
$UNITMODE
 70
     0
  9
$VISRETAIN
 70
     0
  9
$PLINEGEN
 70
     0
  9
$PSLTSCALE
 70
     1
  0
ENDSEC
  0
SECTION
  2
TABLES
  0
TABLE
  2
VPORT
 70
     1
  0
VPORT
  2
*ACTIVE
 70
     0
 10
0.0
 20
0.0
 11
1.0
 21
1.0
 12
1211.030877060399
 22
742.50000000000011
 13
0.0
 23
0.0
 14
1.0
 24
1.0
 15
0.0
 25
0.0
 16
0.0
 26
0.0
 36
1.0
 17
0.0
 27
0.0
 37
0.0
 40
1546.624003961994
 41
1.5742574257425741
 42
50.0
 43
0.0
 44
0.0
 50
0.0
 51
0.0
 71
     0
 72
   100
 73
     1
 74
     1
 75
     0
 76
     0
 77
     0
 78
     0
  0
ENDTAB
  0
TABLE
  2
LTYPE
 70
     2
  0
LTYPE
  2
CONTINUOUS
 70
     0
  3
Solid line
 72
    65
 73
     0
 40
0.0
  0
ENDTAB
  0
TABLE
  2
LAYER
 70
     6
  0
LAYER
  2
0
 70
     0
 62
     7
  6
CONTINUOUS
  0
ENDTAB
  0
TABLE
  2
STYLE
 70
     3
  0
STYLE
  2
STANDARD
 70
     0
 40
0.0
 41
0.8
 50
0.0
 71
     0
 42
20.0
  3
simplex
  4
extfont
  0
STYLE
  2
PTSH
 70
     0
 40
0.0
 41
0.9
 50
0.0
 71
     0
 42
4.0
  3
SIMPLEX
  4
EXTFONT
  0
STYLE
  2
DIM
 70
     0
 40
0.0
 41
0.8
 50
0.0
 71
     0
 42
4.0
  3
simplex
  4
extfont
  0
ENDTAB
  0
TABLE
  2
VIEW
 70
     0
  0
ENDTAB
  0
TABLE
  2
UCS
 70
     0
  0
ENDTAB
  0
TABLE
  2
APPID
 70
     4
  0
APPID
  2
ACAD
 70
     0
  0
APPID
  2
ACAD_PSEXT
 70
     0
  0
APPID
  2
ACAD_MLEADERVER
 70
     0
  0
APPID
  2
ACAD_EXEMPT_FROM_CAD_STANDARDS
 70
     0
  0
ENDTAB
  0
TABLE
  2
DIMSTYLE
 70
     1
  0
DIMSTYLE
  2
DIM1
 70
     0
  3

  4

  5

  6
OPEN
  7
OPEN
 40
5.0
 41
2.7999999999999989
 42
1.0
 43
5.0
 44
1.0
 45
0.1
 46
0.0
 47
0.0
 48
0.0
140
2.5
141
0.0
142
0.0
143
1.0
144
1.0
145
0.0
146
0.7
147
0.85
 71
     0
 72
     0
 73
     0
 74
     0
 75
     0
 76
     0
 77
     3
 78
     8
170
     0
171
     2
172
     1
173
     1
174
     0
175
     0
176
     2
177
     2
178
     2
  0
ENDTAB
  0
ENDSEC
  0
SECTION
  2
BLOCKS
  0
BLOCK
  8
0
  2
$MODEL_SPACE
 70
     0
 10
0.0
 20
0.0
 30
0.0
  3
$MODEL_SPACE
  1

  0
ENDBLK
  5
3D
  8
0
  0
BLOCK
 67
     1
  8
0
  2
$PAPER_SPACE
 70
     0
 10
0.0
 20
0.0
 30
0.0
  3
$PAPER_SPACE
  1

  0
ENDBLK
  5
3B
 67
     1
  8
0
  0
BLOCK
  8
0
  2
_OPEN
 70
     0
 10
0.0
 20
0.0
 30
0.0
  3
_OPEN
  1
H1111.DWG
  0
LINE
  5
244A
  8
0
  6
BYBLOCK
 62
     0
 10
-1.0
 20
0.1666666666666666
 30
0.0
 11
0.0
 21
0.0
 31
0.0
  0
LINE
  5
244B
  8
0
  6
BYBLOCK
 62
     0
 10
0.0
 20
0.0
 30
0.0
 11
-1.0
 21
-0.1666666666666666
 31
0.0
  0
LINE
  5
244C
  8
0
  6
BYBLOCK
 62
     0
 10
0.0
 20
0.0
 30
0.0
 11
-1.0
 21
0.0
 31
0.0
  0
ENDBLK
  5
244D
  8
0
  0
ENDSEC
  0
SECTION
  2
ENTITIES
  0
TEXT
  5
2529
  8
0
  6
CONTINUOUS
 10
1867.1250000000009
 20
76.250000000000028
 30
0.0
 40
17.500000000000011
  1
J3S-X-F
 41
0.9
  7
PTSH
 72
     1
 11
1920.0000000000009
 21
85.000000000000028
 31
0.0
 73
     2
  0
POLYLINE
  5
2563
  8
0
 66
     1
 10
0.0
 20
0.0
 30
0.0
 70
     1
  0
VERTEX
  5
FFF4
  8
0
 10
90.000000000000028
 20
35.000000000000021
 30
0.0
  0
VERTEX
  5
FFF5
  8
0
 10
2045.0000000000009
 20
35.000000000000021
 30
0.0
  0
VERTEX
  5
FFF6
  8
0
 10
2045.0000000000009
 20
1410.0
 30
0.0
  0
VERTEX
  5
FFF7
  8
0
 10
90.000000000000028
 20
1410.0
 30
0.0
  0
SEQEND
  5
FFF8
  8
0
  0
TEXT
  5
AD05
  8
0
 10
826.66546859913296
 20
59.697225754208887
 30
0.0
 40
31.25
  1
TLV J3S-X (JIS10K)
 41
0.8
 72
     4
 11
1007.736897170562
 21
73.090082897066054
 31
0.0
  0
TEXT
  5
E8F8
  8
0
 10
461.30008662936791
 20
424.54650525902082
 30
0.0
 40
25.000000000000011
  1
15
 41
0.8
 72
     4
 11
475.58580091508219
 21
437.04650525902082
 31
0.0
  0
TEXT
  5
EAC6
  8
0
 10
1020.906836803347
 20
424.54650525902082
 30
0.0
 40
25.000000000000011
  1
20
 41
0.8
 72
     4
 11
1037.0973129938229
 21
437.04650525902082
 31
0.0
  0
TEXT
  5
EF07
  8
0
 10
1675.2300064884289
 20
424.54650525902082
 30
0.0
 40
25.000000000000011
  1
25
 41
0.8
 72
     4
 11
1691.420482678905
 21
437.04650525902082
 31
0.0
  0
TEXT
  5
EF08
  8
0
 10
450.82389615317737
 20
389.41496692609672
 30
0.0
 40
25.000000000000011
  1
1/2
 41
0.8
 72
     4
 11
475.58580091508219
 21
400.12925264038239
 31
0.0
  0
TEXT
  5
EF09
  8
0
 10
1009.954455850966
 20
389.41496692609672
 30
0.0
 40
25.000000000000011
  1
3/4
 41
0.8
 72
     4
 11
1037.0973129938229
 21
400.12925264038239
 31
0.0
  0
TEXT
  5
EF0A
  8
0
 10
1689.039530297953
 20
387.62925264038239
 30
0.0
 40
25.000000000000011
  1
1
 41
0.8
 72
     4
 11
1691.420482678905
 21
400.12925264038239
 31
0.0
  0
LINE
  5
EF18
  8
0
 10
344.84430267017768
 20
586.7709625787295
 30
0.0
 11
294.84430267017768
 21
586.7709625787295
 31
0.0
  0
LINE
  5
EF19
  8
0
 10
319.9643026701778
 20
591.7709625787295
 30
0.0
 11
334.84430267017791
 21
591.7709625787295
 31
0.0
  0
LINE
  5
EF1A
  8
0
 10
284.84430267017768
 20
596.7709625787295
 30
0.0
 11
294.84430267017768
 21
586.7709625787295
 31
0.0
  0
LINE
  5
EF1B
  8
0
 10
334.84430267017791
 20
591.7709625787295
 30
0.0
 11
334.84430267017768
 21
596.77096257872972
 31
0.0
  0
LINE
  5
EF1C
  8
0
 10
334.84430267017768
 20
596.7709625787295
 30
0.0
 11
344.84430267017768
 21
586.7709625787295
 31
0.0
  0
LINE
  5
EF1D
  8
0
 10
319.9643026701778
 20
591.7709625787295
 30
0.0
 11
314.8443026701778
 21
596.7709625787295
 31
0.0
  0
LINE
  5
EF1E
  8
0
 10
314.8443026701778
 20
596.7709625787295
 30
0.0
 11
284.84430267017768
 21
596.7709625787295
 31
0.0
  0
LINE
  5
FA1E
  8
0
 10
413.64870070128421
 20
577.11441847124524
 30
0.0
 11
413.64870070128421
 21
555.32656111405947
 31
0.0
  0
LINE
  5
FA1F
  8
0
 10
412.64870070128421
 20
524.32656111405947
 30
0.0
 11
437.7117007012842
 21
524.32656111405947
 31
0.0
  0
ARC
  5
FA20
  8
0
 10
445.64870070128421
 20
555.32656111405947
 30
0.0
 40
32.0
 50
180.0
 51
191.8811560210136
  0
ARC
  5
FA21
  8
0
 10
412.37709118205589
 20
548.32656111405959
 30
0.0
 40
2.0
 50
277.80515780130878
 51
11.881156021013661
  0
ARC
  5
FA22
  8
0
 10
470.53057257571419
 20
527.94239685760567
 30
0.0
 40
5.0
 50
74.999823903773645
 51
132.2589962300876
  0
LINE
  5
FA23
  8
0
 10
488.8574128538063
 20
616.32656111405947
 30
0.0
 11
488.8574128538063
 21
616.32656111405947
 31
0.0
  0
LINE
  5
FA24
  8
0
 10
393.64870070128433
 20
616.32656111405947
 30
0.0
 11
393.64870070128433
 21
615.32656111405959
 31
0.0
  0
ARC
  5
FA25
  8
0
 10
396.14870070128433
 20
616.32656111405947
 30
0.0
 40
2.5
 50
156.42182152179279
 51
180.0
  0
ARC
  5
FA26
  8
0
 10
392.64870070128433
 20
615.32656111405959
 30
0.0
 40
1.0
 50
270.0
 51
0.0
  0
LINE
  5
FA27
  8
0
 10
495.64870070128421
 20
604.32656111405947
 30
0.0
 11
495.64870070128433
 21
592.32656111405947
 31
0.0
  0
ARC
  5
FA28
  8
0
 10
496.64870070128433
 20
592.32656111405947
 30
0.0
 40
1.0
 50
180.0
 51
270.0
  0
ARC
  5
FA29
  8
0
 10
496.64870070128421
 20
604.32656111405947
 30
0.0
 40
1.0
 50
90.0
 51
180.0
  0
LINE
  5
FA2A
  8
0
 10
405.64870070128421
 20
614.32656111405959
 30
0.0
 11
391.64870070128433
 21
614.32656111405959
 31
0.0
  0
LINE
  5
FA2B
  8
0
 10
488.64870070128421
 20
617.32656111405947
 30
0.0
 11
393.85741285380641
 21
617.32656111405947
 31
0.0
  0
ARC
  5
FA2C
  8
0
 10
412.14870070128421
 20
587.82656111405947
 30
0.0
 40
7.0
 50
239.72735868109459
 51
256.86344121306058
  0
ARC
  5
FA2D
  8
0
 10
409.64870070128421
 20
577.11441847124524
 30
0.0
 40
4.0
 50
0.0
 51
76.863441213060625
  0
ARC
  5
FA2E
  8
0
 10
406.60343244807967
 20
578.32656111405959
 30
0.0
 40
4.0
 50
59.72735868109465
 51
90.0
  0
LINE
  5
FA2F
  8
0
 10
406.60343244807967
 20
582.32656111405959
 30
0.0
 11
391.64870070128433
 21
582.32656111405959
 31
0.0
  0
LINE
  5
FA30
  8
0
 10
509.64870070128421
 20
614.32656111405959
 30
0.0
 11
491.7657397670024
 21
614.32656111405959
 31
0.0
  0
LINE
  5
FA31
  8
0
 10
471.82468264488779
 20
532.77202201167961
 30
0.0
 11
500.68925584682017
 21
525.03768784880754
 31
0.0
  0
LINE
  5
FA32
  8
0
 10
499.63070070128418
 20
558.68161496145956
 30
0.0
 11
499.63070070128418
 21
579.3268111140593
 31
0.0
  0
ARC
  5
FA33
  8
0
 10
502.63070070128418
 20
579.3268111140593
 30
0.0
 40
3.0
 50
90.0
 51
180.0
  0
LINE
  5
FA34
  8
0
 10
501.85423465977999
 20
555.78383986901497
 30
0.0
 11
508.4548749828985
 21
554.01518188156547
 31
0.0
  0
ARC
  5
FA35
  8
0
 10
502.63070070128418
 20
558.68161496145945
 30
0.0
 40
3.0
 50
180.0
 51
254.99982390377369
  0
ARC
  5
FA36
  8
0
 10
501.20689987448981
 20
526.96953791043711
 30
0.0
 40
2.0
 50
254.99982390377369
 51
269.48691222174517
  0
LINE
  5
FA37
  8
0
 10
501.18898997170322
 20
524.96961810319931
 30
0.0
 11
508.9214418327399
 21
553.82440302714986
 31
0.0
  0
LINE
  5
FA38
  8
0
 10
503.04441561160593
 20
528.03009884321955
 30
0.0
 11
508.99785385974008
 21
550.24623200449469
 31
0.0
  0
ARC
  5
FA39
  8
0
 10
507.93723095522898
 20
552.08333181993578
 30
0.0
 40
2.0
 50
60.520939860417059
 51
74.999823903773645
  0
LINE
  5
FA3A
  8
0
 10
502.63070070128418
 20
582.32681111405941
 30
0.0
 11
509.64870070128421
 21
582.32631111405954
 31
0.0
  0
ARC
  5
FA3B
  8
0
 10
491.7657397670024
 20
617.32656111405947
 30
0.0
 40
3.0
 50
190.475681696393
 51
270.0
  0
ARC
  5
FA3C
  8
0
 10
486.35741285380641
 20
616.32656111405947
 30
0.0
 40
2.5
 50
10.47568169639305
 51
23.578178478207171
  0
LINE
  5
FA3D
  8
0
 10
412.64870070128421
 20
546.34508987554398
 30
0.0
 11
412.64870070128421
 21
524.32656111405947
 31
0.0
  0
ARC
  5
FA3E
  8
0
 10
445.64870070128421
 20
555.32656111405947
 30
0.0
 40
32.0
 50
180.0
 51
0.0
  0
LINE
  5
FA3F
  8
0
 10
592.66588275178356
 20
563.22314247712325
 30
0.0
 11
592.66588275178356
 21
555.32656111405947
 31
0.0
  0
LINE
  5
FA40
  8
0
 10
656.66588275178356
 20
555.32656111405947
 30
0.0
 11
656.66588275178356
 21
563.22314247712325
 31
0.0
  0
LINE
  5
FA41
  8
0
 10
488.64870070128421
 20
617.32656111405981
 30
0.0
 11
488.64870070128421
 21
609.32656111405947
 31
0.0
  0
ARC
  5
FA42
  8
0
 10
486.64870070128421
 20
609.32656111405947
 30
0.0
 40
2.0
 50
270.0
 51
0.0
  0
LINE
  5
FA43
  8
0
 10
480.77202145532192
 20
580.35793414746286
 30
0.0
 11
414.68983644342433
 21
580.35793414746286
 31
0.0
  0
ARC
  5
FA44
  8
0
 10
480.77202145532192
 20
585.35793414746286
 30
0.0
 40
5.0
 50
270.0
 51
0.0
  0
LINE
  5
FA45
  8
0
 10
405.64870070128421
 20
617.32656111405947
 30
0.0
 11
405.64870070128421
 21
609.32656111405947
 31
0.0
  0
LINE
  5
FA46
  8
0
 10
485.77202145532192
 20
607.32656111405959
 30
0.0
 11
485.77202145532192
 21
585.35793414746286
 31
0.0
  0
LINE
  5
FA47
  8
0
 10
486.64870070128421
 20
607.32656111405959
 30
0.0
 11
407.64870070128421
 21
607.32656111405959
 31
0.0
  0
ARC
  5
FA48
  8
0
 10
407.64870070128421
 20
609.32656111405947
 30
0.0
 40
2.0
 50
180.0
 51
270.0
  0
LINE
  5
FA49
  8
0
 10
409.68983644342438
 20
607.32656111405981
 30
0.0
 11
409.68983644342438
 21
585.35793414746286
 31
0.0
  0
ARC
  5
FA4A
  8
0
 10
414.68983644342433
 20
585.35793414746286
 30
0.0
 40
5.0
 50
180.0
 51
270.0
  0
LINE
  5
FA4B
  8
0
 10
477.64870070128433
 20
555.32656111405947
 30
0.0
 11
477.64870070128433
 21
580.35793414746286
 31
0.0
  0
LINE
  5
FA4C
  8
0
 10
488.64870070128421
 20
627.3265611140597
 30
0.0
 11
406.6487007012841
 21
627.3265611140597
 31
0.0
  0
LINE
  5
FA4D
  8
0
 10
449.64870070128433
 20
642.32656111405981
 30
0.0
 11
441.6487007012841
 21
642.32656111405981
 31
0.0
  0
ARC
  5
FA4E
  8
0
 10
431.6487007012841
 20
629.32656111405981
 30
0.0
 40
2.0
 50
270.0
 51
0.0
  0
LINE
  5
FA4F
  8
0
 10
433.6487007012841
 20
634.32656111405981
 30
0.0
 11
433.6487007012841
 21
629.32656111405981
 31
0.0
  0
ARC
  5
FA50
  8
0
 10
441.6487007012841
 20
634.32656111405981
 30
0.0
 40
8.0
 50
90.0
 51
180.0
  0
LINE
  5
FA51
  8
0
 10
488.64870070128421
 20
617.32656111405981
 30
0.0
 11
488.64870070128421
 21
638.30245178615985
 31
0.0
  0
ARC
  5
FA52
  8
0
 10
486.64870070128421
 20
638.30245178615985
 30
0.0
 40
2.0
 50
0.0
 51
90.0
  0
LINE
  5
FA53
  8
0
 10
455.68071263651001
 20
640.30245178615996
 30
0.0
 11
486.64870070128421
 21
640.30245178615996
 31
0.0
  0
LINE
  5
FA54
  8
0
 10
405.64870070128421
 20
816.45583193626396
 30
0.0
 11
405.64870070128421
 21
754.45583193626396
 31
0.0
  0
LINE
  5
FA55
  8
0
 10
487.89796104983952
 20
777.45583193626408
 30
0.0
 11
457.2676507399064
 21
777.45583193626408
 31
0.0
  0
LINE
  5
FA56
  8
0
 10
487.89796104983952
 20
793.45583193626408
 30
0.0
 11
457.2676507399064
 21
793.45583193626408
 31
0.0
  0
LINE
  5
FA57
  8
0
 10
475.71002313422701
 20
745.45583193626396
 30
0.0
 11
414.64870070128421
 21
745.45583193626396
 31
0.0
  0
ARC
  5
FA58
  8
0
 10
414.64870070128421
 20
754.45583193626396
 30
0.0
 40
9.0
 50
180.0
 51
270.0
  0
LINE
  5
FA59
  8
0
 10
475.67756930576633
 20
825.45583193626396
 30
0.0
 11
414.64870070128421
 21
825.45583193626396
 31
0.0
  0
LINE
  5
FA5A
  8
0
 10
460.16313500352533
 20
823.45583193626408
 30
0.0
 11
430.16313500352533
 21
823.45583193626408
 31
0.0
  0
ARC
  5
FA5B
  8
0
 10
460.16313500352533
 20
821.45583193626408
 30
0.0
 40
2.0
 50
0.0
 51
90.0
  0
LINE
  5
FA5C
  8
0
 10
460.16313500352521
 20
801.45583193626396
 30
0.0
 11
430.1631350035251
 21
801.45583193626396
 31
0.0
  0
ARC
  5
FA5D
  8
0
 10
430.1631350035251
 20
803.45583193626385
 30
0.0
 40
2.0
 50
180.0
 51
270.0
  0
ARC
  5
FA5E
  8
0
 10
414.64870070128421
 20
816.45583193626396
 30
0.0
 40
9.0
 50
90.0
 51
180.0
  0
ARC
  5
FA5F
  8
0
 10
146.14870070128421
 20
785.28333193626406
 30
0.0
 40
340.0
 50
2.6274139286710918
 51
5.4039378865571379
  0
ARC
  5
FA60
  8
0
 10
445.64870070128421
 20
785.45583193626408
 30
0.0
 40
43.0
 50
339.06085846259748
 51
21.00514167678725
  0
ARC
  5
FA61
  8
0
 10
146.14870070128421
 20
785.28333193626406
 30
0.0
 40
340.0
 50
354.65604492731069
 51
357.4385862107253
  0
ARC
  5
FA62
  8
0
 10
475.67756930576633
 20
816.45583193626396
 30
0.0
 40
9.0
 50
5.4039378865571379
 51
90.0
  0
ARC
  5
FA63
  8
0
 10
475.71002313422701
 20
754.45583193626396
 30
0.0
 40
9.0
 50
270.0
 51
354.65604492731069
  0
LINE
  5
FA64
  8
0
 10
405.6487007012841
 20
617.32656111405981
 30
0.0
 11
405.6487007012841
 21
626.32656111405981
 31
0.0
  0
ARC
  5
FA65
  8
0
 10
406.6487007012841
 20
626.32656111405981
 30
0.0
 40
1.0
 50
90.0
 51
180.0
  0
CIRCLE
  5
FA66
  8
0
 10
445.64870070128421
 20
785.45583193626408
 30
0.0
 40
13.0
  0
ARC
  5
FA67
  8
0
 10
457.2676507399064
 20
774.45583193626396
 30
0.0
 40
3.0
 50
90.0
 51
136.56746344221111
  0
ARC
  5
FA68
  8
0
 10
457.2676507399064
 20
796.45583193626396
 30
0.0
 40
3.0
 50
223.43253655778881
 51
270.0
  0
ARC
  5
FA69
  8
0
 10
455.68071263651001
 20
642.30245178615985
 30
0.0
 40
2.0
 50
232.9004880728092
 51
270.0
  0
LINE
  5
FA6A
  8
0
 10
457.64870070128433
 20
634.32656111405981
 30
0.0
 11
457.64870070128433
 21
629.32656111405981
 31
0.0
  0
ARC
  5
FA6B
  8
0
 10
449.64870070128433
 20
634.32656111405981
 30
0.0
 40
8.0
 50
0.0
 51
90.0
  0
ARC
  5
FA6C
  8
0
 10
459.64870070128438
 20
629.32656111405981
 30
0.0
 40
2.0
 50
180.0
 51
270.0
  0
LINE
  5
FA6D
  8
0
 10
423.84666250085593
 20
634.32756111405968
 30
0.0
 11
407.34666250085593
 21
634.32756111405968
 31
0.0
  0
ARC
  5
FA6E
  8
0
 10
408.23566250085588
 20
629.49623704864302
 30
0.0
 40
4.6309815714167701
 50
58.000676159490858
 51
121.99932384050911
  0
LINE
  5
FA6F
  8
0
 10
420.93966250085577
 20
633.66456111405967
 30
0.0
 11
421.40966250085592
 21
633.86056111405969
 31
0.0
  0
LINE
  5
FA70
  8
0
 10
425.41166250085598
 20
627.3265611140597
 30
0.0
 11
425.41166250085598
 21
633.42356111405979
 31
0.0
  0
LINE
  5
FA71
  8
0
 10
425.41166250085598
 20
633.42356111405979
 30
0.0
 11
423.84666250085593
 21
634.32756111405968
 31
0.0
  0
LINE
  5
FA72
  8
0
 10
424.50566250085592
 20
633.8615611140599
 30
0.0
 11
425.41166250085598
 21
633.42356111405979
 31
0.0
  0
LINE
  5
FA73
  8
0
 10
424.0066625008559
 20
634.00656111405976
 30
0.0
 11
424.50566250085592
 21
633.8615611140599
 31
0.0
  0
LINE
  5
FA74
  8
0
 10
423.4866625008558
 20
634.0965611140598
 30
0.0
 11
424.0066625008559
 21
634.00656111405976
 31
0.0
  0
LINE
  5
FA75
  8
0
 10
422.95766250085592
 20
634.12756111405974
 30
0.0
 11
423.4866625008558
 21
634.0965611140598
 31
0.0
  0
LINE
  5
FA76
  8
0
 10
422.42866250085581
 20
634.0965611140598
 30
0.0
 11
422.95766250085592
 21
634.12756111405974
 31
0.0
  0
LINE
  5
FA77
  8
0
 10
421.90966250085592
 20
634.00656111405976
 30
0.0
 11
422.42866250085581
 21
634.0965611140598
 31
0.0
  0
LINE
  5
FA78
  8
0
 10
421.40966250085592
 20
633.86056111405969
 30
0.0
 11
421.90966250085592
 21
634.00656111405976
 31
0.0
  0
LINE
  5
FA79
  8
0
 10
410.68966250085577
 20
633.42356111405979
 30
0.0
 11
410.68966250085577
 21
627.3265611140597
 31
0.0
  0
LINE
  5
FA7A
  8
0
 10
420.50366250085591
 20
633.42356111405979
 30
0.0
 11
420.50366250085591
 21
627.3265611140597
 31
0.0
  0
ARC
  5
FA7B
  8
0
 10
415.59666250085581
 20
616.66456952094632
 30
0.0
 40
17.462601416113358
 50
73.680072331667475
 51
106.3199276683321
  0
LINE
  5
FA7C
  8
0
 10
420.50366250085591
 20
633.42356111405979
 30
0.0
 11
420.93966250085577
 21
633.66456111405967
 31
0.0
  0
LINE
  5
FA7D
  8
0
 10
405.78166250085582
 20
633.42356111405979
 30
0.0
 11
405.78166250085582
 21
627.3265611140597
 31
0.0
  0
LINE
  5
FA7E
  8
0
 10
407.34666250085593
 20
634.32756111405968
 30
0.0
 11
405.78166250085582
 21
633.42356111405979
 31
0.0
  0
LINE
  5
FA7F
  8
0
 10
405.78166250085582
 20
627.3265611140597
 30
0.0
 11
406.6487007012841
 21
627.3265611140597
 31
0.0
  0
LINE
  5
FA80
  8
0
 10
483.96002313422679
 20
634.32756111406002
 30
0.0
 11
467.46002313422679
 21
634.32756111406002
 31
0.0
  0
ARC
  5
FA81
  8
0
 10
468.3490231342268
 20
629.49623704864325
 30
0.0
 40
4.6309815714167701
 50
58.000676159490858
 51
121.99932384050911
  0
LINE
  5
FA82
  8
0
 10
481.05302313422669
 20
633.66456111406001
 30
0.0
 11
481.52302313422678
 21
633.86056111405992
 31
0.0
  0
LINE
  5
FA83
  8
0
 10
485.52502313422673
 20
627.32656111406004
 30
0.0
 11
485.52502313422673
 21
633.42356111405991
 31
0.0
  0
LINE
  5
FA84
  8
0
 10
485.52502313422673
 20
633.42356111405991
 30
0.0
 11
483.96002313422679
 21
634.32756111406002
 31
0.0
  0
LINE
  5
FA85
  8
0
 10
484.61902313422678
 20
633.86156111406012
 30
0.0
 11
485.52502313422673
 21
633.42356111405991
 31
0.0
  0
LINE
  5
FA86
  8
0
 10
484.12002313422681
 20
634.0065611140601
 30
0.0
 11
484.61902313422678
 21
633.86156111406012
 31
0.0
  0
LINE
  5
FA87
  8
0
 10
483.60002313422677
 20
634.09656111406002
 30
0.0
 11
484.12002313422681
 21
634.0065611140601
 31
0.0
  0
LINE
  5
FA88
  8
0
 10
483.07102313422678
 20
634.12756111405986
 30
0.0
 11
483.60002313422677
 21
634.09656111406002
 31
0.0
  0
LINE
  5
FA89
  8
0
 10
482.54202313422678
 20
634.09656111406002
 30
0.0
 11
483.07102313422678
 21
634.12756111405986
 31
0.0
  0
LINE
  5
FA8A
  8
0
 10
482.02302313422678
 20
634.0065611140601
 30
0.0
 11
482.54202313422678
 21
634.09656111406002
 31
0.0
  0
LINE
  5
FA8B
  8
0
 10
481.52302313422678
 20
633.86056111405992
 30
0.0
 11
482.02302313422678
 21
634.0065611140601
 31
0.0
  0
LINE
  5
FA8C
  8
0
 10
470.80302313422669
 20
633.42356111405991
 30
0.0
 11
470.80302313422669
 21
627.32656111406004
 31
0.0
  0
LINE
  5
FA8D
  8
0
 10
480.61702313422683
 20
633.42356111405991
 30
0.0
 11
480.61702313422683
 21
627.32656111406004
 31
0.0
  0
ARC
  5
FA8E
  8
0
 10
475.71002313422679
 20
616.66456952094654
 30
0.0
 40
17.462601416113358
 50
73.680072331667475
 51
106.3199276683321
  0
LINE
  5
FA8F
  8
0
 10
480.61702313422683
 20
633.42356111405991
 30
0.0
 11
481.05302313422669
 21
633.66456111406001
 31
0.0
  0
LINE
  5
FA90
  8
0
 10
465.89502313422679
 20
633.42356111405991
 30
0.0
 11
465.89502313422679
 21
627.32656111406004
 31
0.0
  0
LINE
  5
FA91
  8
0
 10
467.46002313422679
 20
634.32756111406002
 30
0.0
 11
465.89502313422679
 21
633.42356111405991
 31
0.0
  0
LINE
  5
FA92
  8
0
 10
405.78166250085582
 20
755.40379373583585
 30
0.0
 11
410.689662500856
 21
763.90379373583585
 31
0.0
  0
LINE
  5
FA93
  8
0
 10
420.5036625008558
 20
763.90379373583585
 30
0.0
 11
425.41166250085598
 21
755.40379373583585
 31
0.0
  0
CIRCLE
  5
FA94
  8
0
 10
415.59666250085581
 20
755.40379373583585
 30
0.0
 40
8.2499099999999999
  0
LINE
  5
FA95
  8
0
 10
410.689662500856
 20
746.90379373583585
 30
0.0
 11
405.78166250085582
 21
755.40379373583585
 31
0.0
  0
LINE
  5
FA96
  8
0
 10
425.41166250085598
 20
755.40379373583585
 30
0.0
 11
420.5036625008558
 21
746.90379373583585
 31
0.0
  0
LINE
  5
FA97
  8
0
 10
420.5036625008558
 20
746.90379373583585
 30
0.0
 11
410.689662500856
 21
746.90379373583585
 31
0.0
  0
LINE
  5
FA98
  8
0
 10
410.689662500856
 20
763.90379373583585
 30
0.0
 11
420.5036625008558
 21
763.90379373583585
 31
0.0
  0
LINE
  5
FA99
  8
0
 10
465.8857389017125
 20
755.40379373583573
 30
0.0
 11
470.7937389017124
 21
763.90379373583573
 31
0.0
  0
LINE
  5
FA9A
  8
0
 10
480.60773890171248
 20
763.90379373583573
 30
0.0
 11
485.51573890171238
 21
755.40379373583573
 31
0.0
  0
CIRCLE
  5
FA9B
  8
0
 10
475.70073890171238
 20
755.40379373583573
 30
0.0
 40
8.2499099999999999
  0
LINE
  5
FA9C
  8
0
 10
470.7937389017124
 20
746.90379373583573
 30
0.0
 11
465.8857389017125
 21
755.40379373583573
 31
0.0
  0
LINE
  5
FA9D
  8
0
 10
485.51573890171238
 20
755.40379373583573
 30
0.0
 11
480.60773890171248
 21
746.90379373583573
 31
0.0
  0
LINE
  5
FA9E
  8
0
 10
480.60773890171248
 20
746.90379373583573
 30
0.0
 11
470.7937389017124
 21
746.90379373583573
 31
0.0
  0
LINE
  5
FA9F
  8
0
 10
470.7937389017124
 20
763.90379373583573
 30
0.0
 11
480.60773890171248
 21
763.90379373583573
 31
0.0
  0
LINE
  5
FAA0
  8
0
 10
465.8857389017125
 20
815.50787013669253
 30
0.0
 11
470.79373890171252
 21
824.00787013669242
 31
0.0
  0
LINE
  5
FAA1
  8
0
 10
480.60773890171248
 20
824.00787013669242
 30
0.0
 11
485.5157389017125
 21
815.50787013669253
 31
0.0
  0
CIRCLE
  5
FAA2
  8
0
 10
475.7007389017125
 20
815.50787013669253
 30
0.0
 40
8.2499099999999999
  0
LINE
  5
FAA3
  8
0
 10
470.79373890171252
 20
807.00787013669242
 30
0.0
 11
465.8857389017125
 21
815.50787013669253
 31
0.0
  0
LINE
  5
FAA4
  8
0
 10
485.5157389017125
 20
815.50787013669253
 30
0.0
 11
480.60773890171248
 21
807.00787013669242
 31
0.0
  0
LINE
  5
FAA5
  8
0
 10
480.60773890171248
 20
807.00787013669242
 30
0.0
 11
470.79373890171252
 21
807.00787013669242
 31
0.0
  0
LINE
  5
FAA6
  8
0
 10
470.79373890171252
 20
824.00787013669242
 30
0.0
 11
480.60773890171248
 21
824.00787013669242
 31
0.0
  0
LINE
  5
FAA7
  8
0
 10
405.7816625008561
 20
815.50787013669253
 30
0.0
 11
410.689662500856
 21
824.00787013669242
 31
0.0
  0
LINE
  5
FAA8
  8
0
 10
420.50366250085608
 20
824.00787013669242
 30
0.0
 11
425.41166250085598
 21
815.50787013669253
 31
0.0
  0
CIRCLE
  5
FAA9
  8
0
 10
415.59666250085598
 20
815.50787013669253
 30
0.0
 40
8.2499099999999999
  0
LINE
  5
FAAA
  8
0
 10
410.689662500856
 20
807.00787013669242
 30
0.0
 11
405.7816625008561
 21
815.50787013669253
 31
0.0
  0
LINE
  5
FAAB
  8
0
 10
425.41166250085598
 20
815.50787013669253
 30
0.0
 11
420.50366250085608
 21
807.00787013669242
 31
0.0
  0
LINE
  5
FAAC
  8
0
 10
420.50366250085608
 20
807.00787013669242
 30
0.0
 11
410.689662500856
 21
807.00787013669242
 31
0.0
  0
LINE
  5
FAAD
  8
0
 10
410.689662500856
 20
824.00787013669242
 30
0.0
 11
420.50366250085608
 21
824.00787013669242
 31
0.0
  0
LINE
  5
FAAE
  8
0
 10
405.64870070128421
 20
801.45595693626399
 30
0.0
 11
391.64870070128433
 21
801.45595693626399
 31
0.0
  0
LINE
  5
FAAF
  8
0
 10
405.64870070128421
 20
769.45595693626433
 30
0.0
 11
391.64870070128433
 21
769.4559569362641
 31
0.0
  0
LINE
  5
FAB0
  8
0
 10
509.64870070128421
 20
801.45595693626399
 30
0.0
 11
485.76384494636852
 21
801.45595693626399
 31
0.0
  0
LINE
  5
FAB1
  8
0
 10
485.78017762061842
 20
769.45740745799935
 30
0.0
 11
509.64870070128421
 21
769.45570693626405
 31
0.0
  0
LINE
  5
FAB2
  8
0
 10
399.64870070128433
 20
779.45583193626396
 30
0.0
 11
403.64870070128421
 21
779.45583193626396
 31
0.0
  0
ARC
  5
FAB3
  8
0
 10
403.64870070128421
 20
777.45583193626408
 30
0.0
 40
2.0
 50
0.0
 51
90.0
  0
ARC
  5
FAB4
  8
0
 10
399.65870070128432
 20
785.45583193626408
 30
0.0
 40
6.0
 50
90.0
 51
270.0
  0
LINE
  5
FAB5
  8
0
 10
399.64870070128433
 20
791.45583193626396
 30
0.0
 11
403.64870070128421
 21
791.45583193626396
 31
0.0
  0
ARC
  5
FAB6
  8
0
 10
403.64870070128421
 20
793.45583193626408
 30
0.0
 40
2.0
 50
270.0
 51
0.0
  0
LINE
  5
FAB7
  8
0
 10
496.64870070128433
 20
591.32656111405947
 30
0.0
 11
506.64870070128433
 21
591.32656111405947
 31
0.0
  0
LINE
  5
FAB8
  8
0
 10
496.64870070128421
 20
605.32656111405947
 30
0.0
 11
506.64870070128433
 21
605.32656111405925
 31
0.0
  0
LINE
  5
FAB9
  8
0
 10
639.66588275178356
 20
553.25717017075965
 30
0.0
 11
639.66588275178356
 21
539.3970105651747
 31
0.0
  0
LINE
  5
FABA
  8
0
 10
609.66588275178356
 20
553.25717017075965
 30
0.0
 11
609.66588275178356
 21
539.3970105651747
 31
0.0
  0
ARC
  5
FABB
  8
0
 10
624.66588275178356
 20
555.32656111405947
 30
0.0
 40
32.0
 50
180.0
 51
0.0
  0
LINE
  5
FABC
  8
0
 10
503.69176332975042
 20
530.44483298725538
 30
0.0
 11
508.99755375435211
 21
550.24631242618125
 31
0.0
  0
LINE
  5
FABD
  8
0
 10
504.81476777824508
 20
531.28997558389835
 30
0.0
 11
509.90326503113602
 21
529.92651685429837
 31
0.0
  0
LINE
  5
FABE
  8
0
 10
509.90326503113602
 20
529.92651685429837
 30
0.0
 11
510.65202852861762
 21
532.7209402697531
 31
0.0
  0
LINE
  5
FABF
  8
0
 10
510.65202852861762
 20
532.7209402697531
 30
0.0
 11
505.56353127572669
 21
534.0843989993532
 31
0.0
  0
LINE
  5
FAC0
  8
0
 10
505.56353127572669
 20
534.0843989993532
 30
0.0
 11
504.81476777824508
 21
531.28997558389835
 31
0.0
  0
LINE
  5
FAC1
  8
0
 10
508.99755375435211
 20
550.24631242618125
 30
0.0
 11
510.2222740875722
 21
551.47106387255644
 31
0.0
  0
LINE
  5
FAC2
  8
0
 10
510.2222740875722
 20
551.47106387255644
 30
0.0
 11
515.31077134046313
 21
550.10760514295634
 31
0.0
  0
LINE
  5
FAC3
  8
0
 10
515.31077134046313
 20
550.10760514295634
 30
0.0
 11
515.75903453837554
 21
548.4345791104638
 31
0.0
  0
LINE
  5
FAC4
  8
0
 10
515.75903453837554
 20
548.4345791104638
 30
0.0
 11
509.80619650101772
 21
526.21828510581508
 31
0.0
  0
LINE
  5
FAC5
  8
0
 10
509.80619650101772
 20
526.21828510581508
 30
0.0
 11
508.5814761677974
 21
524.99353365944035
 31
0.0
  0
LINE
  5
FAC6
  8
0
 10
508.5814761677974
 20
524.99353365944035
 30
0.0
 11
503.49297891490659
 21
526.35699238904044
 31
0.0
  0
LINE
  5
FAC7
  8
0
 10
503.49297891490659
 20
526.35699238904044
 30
0.0
 11
503.04471571699389
 21
528.03001842153265
 31
0.0
  0
LINE
  5
FAC8
  8
0
 10
503.04471571699389
 20
528.03001842153265
 30
0.0
 11
503.69176332975042
 21
530.44483298725538
 31
0.0
  0
LINE
  5
FAC9
  8
0
 10
508.90048522423348
 20
546.53808067769796
 30
0.0
 11
513.98898247712441
 21
545.17462194809787
 31
0.0
  0
LINE
  5
FACA
  8
0
 10
513.98898247712441
 20
545.17462194809787
 30
0.0
 11
513.2402189796428
 21
542.38019853264348
 31
0.0
  0
LINE
  5
FACB
  8
0
 10
513.2402189796428
 20
542.38019853264348
 30
0.0
 11
508.15172172675221
 21
543.74365726224369
 31
0.0
  0
LINE
  5
FACC
  8
0
 10
508.15172172675221
 20
543.74365726224369
 30
0.0
 11
508.90048522423348
 21
546.53808067769796
 31
0.0
  0
ARC
  5
FACD
  8
0
 10
511.43175657100238
 20
548.50340629118455
 30
0.0
 40
4.1976433314087407
 50
307.53205179663468
 51
22.467948203353039
  0
ARC
  5
FACE
  8
0
 10
498.4220222597616
 20
541.17434147497067
 30
0.0
 40
14.867180138568379
 50
325.34770562304863
 51
4.6522943769503664
  0
ARC
  5
FACF
  8
0
 10
506.02425026167492
 20
528.32231800252634
 30
0.0
 40
4.1976433314087407
 50
307.53205179663468
 51
22.467948203353039
  0
ARC
  5
FAD0
  8
0
 10
512.77949999369434
 20
548.14227952946965
 30
0.0
 40
4.1976433314087407
 50
127.532051796649
 51
202.46794820335299
  0
ARC
  5
FAD1
  8
0
 10
520.38172799560812
 20
535.29025605702554
 30
0.0
 40
14.867180138568379
 50
145.34770562304851
 51
184.65229437695029
  0
ARC
  5
FAD2
  8
0
 10
507.3719936843674
 20
527.96119124081133
 30
0.0
 40
4.1976433314087407
 50
127.5320517966439
 51
202.46794820335299
  0
LINE
  5
FAD3
  8
0
 10
612.66588275178356
 20
542.38019853264291
 30
0.0
 11
614.33578275178365
 21
545.17462194809673
 31
0.0
  0
LINE
  5
FAD4
  8
0
 10
614.33578275178365
 20
545.17462194809673
 30
0.0
 11
622.99598275178369
 21
550.10760514295555
 31
0.0
  0
LINE
  5
FAD5
  8
0
 10
622.99598275178369
 20
550.10760514295555
 30
0.0
 11
626.33578275178365
 21
550.10760514295555
 31
0.0
  0
LINE
  5
FAD6
  8
0
 10
614.33578275178365
 20
529.9265168542961
 30
0.0
 11
612.66588275178356
 21
532.72094026975185
 31
0.0
  0
LINE
  5
FAD7
  8
0
 10
614.33578275178365
 20
529.9265168542961
 30
0.0
 11
622.99598275178369
 21
524.99353365943944
 31
0.0
  0
LINE
  5
FAD8
  8
0
 10
612.66588275178356
 20
542.38019853264291
 30
0.0
 11
612.66588275178356
 21
532.72094026975185
 31
0.0
  0
LINE
  5
FAD9
  8
0
 10
636.66588275178356
 20
542.38019853264291
 30
0.0
 11
634.99598275178357
 21
545.17462194809673
 31
0.0
  0
LINE
  5
FADA
  8
0
 10
634.99598275178357
 20
545.17462194809673
 30
0.0
 11
626.33578275178365
 21
550.10760514295555
 31
0.0
  0
LINE
  5
FADB
  8
0
 10
634.99598275178357
 20
529.9265168542961
 30
0.0
 11
636.66588275178356
 21
532.72094026975185
 31
0.0
  0
LINE
  5
FADC
  8
0
 10
634.99598275178357
 20
529.9265168542961
 30
0.0
 11
626.33578275178365
 21
524.99353365943944
 31
0.0
  0
LINE
  5
FADD
  8
0
 10
636.66588275178356
 20
542.38019853264291
 30
0.0
 11
636.66588275178356
 21
532.72094026975185
 31
0.0
  0
LINE
  5
FADE
  8
0
 10
622.99598275178369
 20
524.99353365943944
 30
0.0
 11
626.33578275178365
 21
524.99353365943944
 31
0.0
  0
LINE
  5
FADF
  8
0
 10
614.33578275178365
 20
546.53808067769648
 30
0.0
 11
621.99631414617124
 21
550.90163725054731
 31
0.0
  0
LINE
  5
FAE0
  8
0
 10
634.99598275178357
 20
546.53808067769648
 30
0.0
 11
627.33545135739575
 21
550.90163725054731
 31
0.0
  0
LINE
  5
FAE1
  8
0
 10
612.66588275178356
 20
543.74365726224266
 30
0.0
 11
614.33578275178365
 21
546.53808067769648
 31
0.0
  0
LINE
  5
FAE2
  8
0
 10
636.66588275178356
 20
543.74365726224266
 30
0.0
 11
634.99598275178357
 21
546.53808067769648
 31
0.0
  0
LINE
  5
FAE3
  8
0
 10
612.66588275178356
 20
543.74365726224266
 30
0.0
 11
612.66588275178356
 21
542.38019853264291
 31
0.0
  0
LINE
  5
FAE4
  8
0
 10
614.33578275178365
 20
546.53808067769648
 30
0.0
 11
614.33578275178365
 21
545.17462194809673
 31
0.0
  0
LINE
  5
FAE5
  8
0
 10
634.99598275178357
 20
546.53808067769648
 30
0.0
 11
634.99598275178357
 21
545.17462194809673
 31
0.0
  0
LINE
  5
FAE6
  8
0
 10
636.66588275178356
 20
543.74365726224266
 30
0.0
 11
636.66588275178356
 21
542.38019853264291
 31
0.0
  0
LINE
  5
FAE7
  8
0
 10
626.33578275178388
 20
550.85592351575042
 30
0.0
 11
626.33578275178365
 21
550.10760514295555
 31
0.0
  0
LINE
  5
FAE8
  8
0
 10
622.99598275178369
 20
550.85592351575042
 30
0.0
 11
622.99598275178369
 21
550.10760514295555
 31
0.0
  0
POLYLINE
  5
FAE9
  8
0
 10
613.16588275178344
 20
537.32643210813831
 30
0.0
 66
     1
 70
     8
  0
VERTEX
  8
0
  5
10001
 10
613.166
 20
537.326
 30
0.000000
  70
    32
  0
VERTEX
  8
0
  5
10002
 10
613.180
 20
536.781
 30
0.000000
  70
    32
  0
VERTEX
  8
0
  5
10003
 10
613.221
 20
536.238
 30
0.000000
  70
    32
  0
VERTEX
  8
0
  5
10004
 10
613.290
 20
535.697
 30
0.000000
  70
    32
  0
VERTEX
  8
0
  5
10005
 10
613.387
 20
535.159
 30
0.000000
  70
    32
  0
VERTEX
  8
0
  5
10006
 10
613.511
 20
534.627
 30
0.000000
  70
    32
  0
VERTEX
  8
0
  5
10007
 10
613.661
 20
534.102
 30
0.000000
  70
    32
  0
VERTEX
  8
0
  5
10008
 10
613.838
 20
533.584
 30
0.000000
  70
    32
  0
VERTEX
  8
0
  5
10009
 10
614.041
 20
533.076
 30
0.000000
  70
    32
  0
VERTEX
  8
0
  5
1000A
 10
614.270
 20
532.577
 30
0.000000
  70
    32
  0
VERTEX
  8
0
  5
1000B
 10
614.524
 20
532.090
 30
0.000000
  70
    32
  0
VERTEX
  8
0
  5
1000C
 10
614.802
 20
531.616
 30
0.000000
  70
    32
  0
VERTEX
  8
0
  5
1000D
 10
615.104
 20
531.155
 30
0.000000
  70
    32
  0
VERTEX
  8
0
  5
1000E
 10
615.429
 20
530.709
 30
0.000000
  70
    32
  0
VERTEX
  8
0
  5
1000F
 10
615.776
 20
530.279
 30
0.000000
  70
    32
  0
VERTEX
  8
0
  5
10010
 10
616.145
 20
529.867
 30
0.000000
  70
    32
  0
VERTEX
  8
0
  5
10011
 10
616.534
 20
529.472
 30
0.000000
  70
    32
  0
VERTEX
  8
0
  5
10012
 10
616.943
 20
529.096
 30
0.000000
  70
    32
  0
VERTEX
  8
0
  5
10013
 10
617.370
 20
528.740
 30
0.000000
  70
    32
  0
VERTEX
  8
0
  5
10014
 10
617.815
 20
528.404
 30
0.000000
  70
    32
  0
VERTEX
  8
0
  5
10015
 10
618.277
 20
528.090
 30
0.000000
  70
    32
  0
VERTEX
  8
0
  5
10016
 10
618.754
 20
527.799
 30
0.000000
  70
    32
  0
VERTEX
  8
0
  5
10017
 10
619.245
 20
527.530
 30
0.000000
  70
    32
  0
VERTEX
  8
0
  5
10018
 10
619.749
 20
527.285
 30
0.000000
  70
    32
  0
VERTEX
  8
0
  5
10019
 10
620.265
 20
527.064
 30
0.000000
  70
    32
  0
VERTEX
  8
0
  5
1001A
 10
620.792
 20
526.868
 30
0.000000
  70
    32
  0
VERTEX
  8
0
  5
1001B
 10
621.328
 20
526.697
 30
0.000000
  70
    32
  0
VERTEX
  8
0
  5
1001C
 10
621.872
 20
526.551
 30
0.000000
  70
    32
  0
VERTEX
  8
0
  5
1001D
 10
622.422
 20
526.432
 30
0.000000
  70
    32
  0
VERTEX
  8
0
  5
1001E
 10
622.978
 20
526.339
 30
0.000000
  70
    32
  0
VERTEX
  8
0
  5
1001F
 10
623.539
 20
526.272
 30
0.000000
  70
    32
  0
VERTEX
  8
0
  5
10020
 10
624.102
 20
526.232
 30
0.000000
  70
    32
  0
VERTEX
  8
0
  5
10021
 10
624.666
 20
526.218
 30
0.000000
  70
    32
  0
VERTEX
  8
0
  5
10022
 10
625.230
 20
526.232
 30
0.000000
  70
    32
  0
VERTEX
  8
0
  5
10023
 10
625.793
 20
526.272
 30
0.000000
  70
    32
  0
VERTEX
  8
0
  5
10024
 10
626.353
 20
526.339
 30
0.000000
  70
    32
  0
VERTEX
  8
0
  5
10025
 10
626.909
 20
526.432
 30
0.000000
  70
    32
  0
VERTEX
  8
0
  5
10026
 10
627.460
 20
526.551
 30
0.000000
  70
    32
  0
VERTEX
  8
0
  5
10027
 10
628.004
 20
526.697
 30
0.000000
  70
    32
  0
VERTEX
  8
0
  5
10028
 10
628.540
 20
526.868
 30
0.000000
  70
    32
  0
VERTEX
  8
0
  5
10029
 10
629.067
 20
527.064
 30
0.000000
  70
    32
  0
VERTEX
  8
0
  5
1002A
 10
629.583
 20
527.285
 30
0.000000
  70
    32
  0
VERTEX
  8
0
  5
1002B
 10
630.087
 20
527.530
 30
0.000000
  70
    32
  0
VERTEX
  8
0
  5
1002C
 10
630.578
 20
527.799
 30
0.000000
  70
    32
  0
VERTEX
  8
0
  5
1002D
 10
631.055
 20
528.090
 30
0.000000
  70
    32
  0
VERTEX
  8
0
  5
1002E
 10
631.516
 20
528.404
 30
0.000000
  70
    32
  0
VERTEX
  8
0
  5
1002F
 10
631.961
 20
528.740
 30
0.000000
  70
    32
  0
VERTEX
  8
0
  5
10030
 10
632.389
 20
529.096
 30
0.000000
  70
    32
  0
VERTEX
  8
0
  5
10031
 10
632.798
 20
529.472
 30
0.000000
  70
    32
  0
VERTEX
  8
0
  5
10032
 10
633.187
 20
529.867
 30
0.000000
  70
    32
  0
VERTEX
  8
0
  5
10033
 10
633.556
 20
530.279
 30
0.000000
  70
    32
  0
VERTEX
  8
0
  5
10034
 10
633.903
 20
530.709
 30
0.000000
  70
    32
  0
VERTEX
  8
0
  5
10035
 10
634.228
 20
531.155
 30
0.000000
  70
    32
  0
VERTEX
  8
0
  5
10036
 10
634.530
 20
531.616
 30
0.000000
  70
    32
  0
VERTEX
  8
0
  5
10037
 10
634.808
 20
532.090
 30
0.000000
  70
    32
  0
VERTEX
  8
0
  5
10038
 10
635.062
 20
532.577
 30
0.000000
  70
    32
  0
VERTEX
  8
0
  5
10039
 10
635.290
 20
533.076
 30
0.000000
  70
    32
  0
VERTEX
  8
0
  5
1003A
 10
635.494
 20
533.584
 30
0.000000
  70
    32
  0
VERTEX
  8
0
  5
1003B
 10
635.671
 20
534.102
 30
0.000000
  70
    32
  0
VERTEX
  8
0
  5
1003C
 10
635.821
 20
534.627
 30
0.000000
  70
    32
  0
VERTEX
  8
0
  5
1003D
 10
635.945
 20
535.159
 30
0.000000
  70
    32
  0
VERTEX
  8
0
  5
1003E
 10
636.041
 20
535.697
 30
0.000000
  70
    32
  0
VERTEX
  8
0
  5
1003F
 10
636.111
 20
536.238
 30
0.000000
  70
    32
  0
VERTEX
  8
0
  5
10040
 10
636.152
 20
536.781
 30
0.000000
  70
    32
  0
VERTEX
  8
0
  5
10041
 10
636.166
 20
537.326
 30
0.000000
  70
    32
  0
VERTEX
  8
0
  5
10042
 10
636.152
 20
537.871
 30
0.000000
  70
    32
  0
VERTEX
  8
0
  5
10043
 10
636.111
 20
538.415
 30
0.000000
  70
    32
  0
VERTEX
  8
0
  5
10044
 10
636.041
 20
538.956
 30
0.000000
  70
    32
  0
VERTEX
  8
0
  5
10045
 10
635.945
 20
539.494
 30
0.000000
  70
    32
  0
VERTEX
  8
0
  5
10046
 10
635.821
 20
540.025
 30
0.000000
  70
    32
  0
VERTEX
  8
0
  5
10047
 10
635.671
 20
540.551
 30
0.000000
  70
    32
  0
VERTEX
  8
0
  5
10048
 10
635.494
 20
541.069
 30
0.000000
  70
    32
  0
VERTEX
  8
0
  5
10049
 10
635.290
 20
541.577
 30
0.000000
  70
    32
  0
VERTEX
  8
0
  5
1004A
 10
635.062
 20
542.076
 30
0.000000
  70
    32
  0
VERTEX
  8
0
  5
1004B
 10
634.808
 20
542.563
 30
0.000000
  70
    32
  0
VERTEX
  8
0
  5
1004C
 10
634.530
 20
543.037
 30
0.000000
  70
    32
  0
VERTEX
  8
0
  5
1004D
 10
634.228
 20
543.498
 30
0.000000
  70
    32
  0
VERTEX
  8
0
  5
1004E
 10
633.903
 20
543.944
 30
0.000000
  70
    32
  0
VERTEX
  8
0
  5
1004F
 10
633.556
 20
544.373
 30
0.000000
  70
    32
  0
VERTEX
  8
0
  5
10050
 10
633.187
 20
544.786
 30
0.000000
  70
    32
  0
VERTEX
  8
0
  5
10051
 10
632.798
 20
545.181
 30
0.000000
  70
    32
  0
VERTEX
  8
0
  5
10052
 10
632.389
 20
545.557
 30
0.000000
  70
    32
  0
VERTEX
  8
0
  5
10053
 10
631.961
 20
545.913
 30
0.000000
  70
    32
  0
VERTEX
  8
0
  5
10054
 10
631.516
 20
546.249
 30
0.000000
  70
    32
  0
VERTEX
  8
0
  5
10055
 10
631.055
 20
546.563
 30
0.000000
  70
    32
  0
VERTEX
  8
0
  5
10056
 10
630.578
 20
546.854
 30
0.000000
  70
    32
  0
VERTEX
  8
0
  5
10057
 10
630.087
 20
547.123
 30
0.000000
  70
    32
  0
VERTEX
  8
0
  5
10058
 10
629.583
 20
547.368
 30
0.000000
  70
    32
  0
VERTEX
  8
0
  5
10059
 10
629.067
 20
547.589
 30
0.000000
  70
    32
  0
VERTEX
  8
0
  5
1005A
 10
628.540
 20
547.785
 30
0.000000
  70
    32
  0
VERTEX
  8
0
  5
1005B
 10
628.004
 20
547.956
 30
0.000000
  70
    32
  0
VERTEX
  8
0
  5
1005C
 10
627.460
 20
548.102
 30
0.000000
  70
    32
  0
VERTEX
  8
0
  5
1005D
 10
626.909
 20
548.221
 30
0.000000
  70
    32
  0
VERTEX
  8
0
  5
1005E
 10
626.353
 20
548.314
 30
0.000000
  70
    32
  0
VERTEX
  8
0
  5
1005F
 10
625.793
 20
548.381
 30
0.000000
  70
    32
  0
VERTEX
  8
0
  5
10060
 10
625.230
 20
548.421
 30
0.000000
  70
    32
  0
VERTEX
  8
0
  5
10061
 10
624.666
 20
548.435
 30
0.000000
  70
    32
  0
VERTEX
  8
0
  5
10062
 10
624.102
 20
548.421
 30
0.000000
  70
    32
  0
VERTEX
  8
0
  5
10063
 10
623.539
 20
548.381
 30
0.000000
  70
    32
  0
VERTEX
  8
0
  5
10064
 10
622.978
 20
548.314
 30
0.000000
  70
    32
  0
VERTEX
  8
0
  5
10065
 10
622.422
 20
548.221
 30
0.000000
  70
    32
  0
VERTEX
  8
0
  5
10066
 10
621.872
 20
548.102
 30
0.000000
  70
    32
  0
VERTEX
  8
0
  5
10067
 10
621.328
 20
547.956
 30
0.000000
  70
    32
  0
VERTEX
  8
0
  5
10068
 10
620.792
 20
547.785
 30
0.000000
  70
    32
  0
VERTEX
  8
0
  5
10069
 10
620.265
 20
547.589
 30
0.000000
  70
    32
  0
VERTEX
  8
0
  5
1006A
 10
619.749
 20
547.368
 30
0.000000
  70
    32
  0
VERTEX
  8
0
  5
1006B
 10
619.245
 20
547.123
 30
0.000000
  70
    32
  0
VERTEX
  8
0
  5
1006C
 10
618.754
 20
546.854
 30
0.000000
  70
    32
  0
VERTEX
  8
0
  5
1006D
 10
618.277
 20
546.563
 30
0.000000
  70
    32
  0
VERTEX
  8
0
  5
1006E
 10
617.815
 20
546.249
 30
0.000000
  70
    32
  0
VERTEX
  8
0
  5
1006F
 10
617.370
 20
545.913
 30
0.000000
  70
    32
  0
VERTEX
  8
0
  5
10070
 10
616.943
 20
545.557
 30
0.000000
  70
    32
  0
VERTEX
  8
0
  5
10071
 10
616.534
 20
545.181
 30
0.000000
  70
    32
  0
VERTEX
  8
0
  5
10072
 10
616.145
 20
544.786
 30
0.000000
  70
    32
  0
VERTEX
  8
0
  5
10073
 10
615.776
 20
544.373
 30
0.000000
  70
    32
  0
VERTEX
  8
0
  5
10074
 10
615.429
 20
543.944
 30
0.000000
  70
    32
  0
VERTEX
  8
0
  5
10075
 10
615.104
 20
543.498
 30
0.000000
  70
    32
  0
VERTEX
  8
0
  5
10076
 10
614.802
 20
543.037
 30
0.000000
  70
    32
  0
VERTEX
  8
0
  5
10077
 10
614.524
 20
542.563
 30
0.000000
  70
    32
  0
VERTEX
  8
0
  5
10078
 10
614.270
 20
542.076
 30
0.000000
  70
    32
  0
VERTEX
  8
0
  5
10079
 10
614.041
 20
541.577
 30
0.000000
  70
    32
  0
VERTEX
  8
0
  5
1007A
 10
613.838
 20
541.069
 30
0.000000
  70
    32
  0
VERTEX
  8
0
  5
1007B
 10
613.661
 20
540.551
 30
0.000000
  70
    32
  0
VERTEX
  8
0
  5
1007C
 10
613.511
 20
540.025
 30
0.000000
  70
    32
  0
VERTEX
  8
0
  5
1007D
 10
613.387
 20
539.494
 30
0.000000
  70
    32
  0
VERTEX
  8
0
  5
1007E
 10
613.290
 20
538.956
 30
0.000000
  70
    32
  0
VERTEX
  8
0
  5
1007F
 10
613.221
 20
538.415
 30
0.000000
  70
    32
  0
VERTEX
  8
0
  5
10080
 10
613.180
 20
537.871
 30
0.000000
  70
    32
  0
VERTEX
  8
0
  5
10081
 10
613.166
 20
537.326
 30
0.000000
  70
    32
  0
SEQEND
  8
0
  5
10082
  0
LINE
  5
FAEA
  8
0
 10
405.6487007012841
 20
604.32656111405936
 30
0.0
 11
405.6487007012841
 21
592.32656111405947
 31
0.0
  0
ARC
  5
FAEB
  8
0
 10
404.6487007012841
 20
604.32656111405936
 30
0.0
 40
1.0
 50
0.0
 51
90.0
  0
LINE
  5
FAEC
  8
0
 10
393.64870070128433
 20
604.32656111405947
 30
0.0
 11
393.64870070128433
 21
592.32656111405947
 31
0.0
  0
ARC
  5
FAED
  8
0
 10
394.64870070128433
 20
592.32656111405947
 30
0.0
 40
1.0
 50
180.0
 51
270.0
  0
ARC
  5
FAEE
  8
0
 10
394.64870070128433
 20
604.32656111405947
 30
0.0
 40
1.0
 50
90.0
 51
180.0
  0
LINE
  5
FAEF
  8
0
 10
394.64870070128433
 20
591.32656111405947
 30
0.0
 11
404.6487007012841
 21
591.32656111405947
 31
0.0
  0
ARC
  5
FAF0
  8
0
 10
404.6487007012841
 20
592.32656111405947
 30
0.0
 40
1.0
 50
270.0
 51
0.0
  0
LINE
  5
FAF1
  8
0
 10
394.64870070128433
 20
605.32656111405947
 30
0.0
 11
404.6487007012841
 21
605.32656111405925
 31
0.0
  0
POLYLINE
  5
FAF2
  8
0
 10
639.66588275178356
 20
541.7614700057477
 30
0.0
 66
     1
 70
     8
  0
VERTEX
  8
0
  5
10083
 10
639.666
 20
541.761
 30
0.000000
  70
    32
  0
VERTEX
  8
0
  5
10084
 10
639.666
 20
541.851
 30
0.000000
  70
    32
  0
VERTEX
  8
0
  5
10085
 10
639.665
 20
541.940
 30
0.000000
  70
    32
  0
VERTEX
  8
0
  5
10086
 10
639.663
 20
542.029
 30
0.000000
  70
    32
  0
VERTEX
  8
0
  5
10087
 10
639.661
 20
542.118
 30
0.000000
  70
    32
  0
VERTEX
  8
0
  5
10088
 10
639.659
 20
542.207
 30
0.000000
  70
    32
  0
VERTEX
  8
0
  5
10089
 10
639.656
 20
542.296
 30
0.000000
  70
    32
  0
VERTEX
  8
0
  5
1008A
 10
639.652
 20
542.385
 30
0.000000
  70
    32
  0
VERTEX
  8
0
  5
1008B
 10
639.648
 20
542.474
 30
0.000000
  70
    32
  0
VERTEX
  8
0
  5
1008C
 10
639.643
 20
542.563
 30
0.000000
  70
    32
  0
VERTEX
  8
0
  5
1008D
 10
639.638
 20
542.651
 30
0.000000
  70
    32
  0
VERTEX
  8
0
  5
1008E
 10
639.632
 20
542.740
 30
0.000000
  70
    32
  0
VERTEX
  8
0
  5
1008F
 10
639.626
 20
542.829
 30
0.000000
  70
    32
  0
VERTEX
  8
0
  5
10090
 10
639.619
 20
542.918
 30
0.000000
  70
    32
  0
VERTEX
  8
0
  5
10091
 10
639.611
 20
543.007
 30
0.000000
  70
    32
  0
VERTEX
  8
0
  5
10092
 10
639.603
 20
543.095
 30
0.000000
  70
    32
  0
VERTEX
  8
0
  5
10093
 10
639.595
 20
543.184
 30
0.000000
  70
    32
  0
VERTEX
  8
0
  5
10094
 10
639.586
 20
543.273
 30
0.000000
  70
    32
  0
VERTEX
  8
0
  5
10095
 10
639.576
 20
543.361
 30
0.000000
  70
    32
  0
VERTEX
  8
0
  5
10096
 10
639.566
 20
543.450
 30
0.000000
  70
    32
  0
VERTEX
  8
0
  5
10097
 10
639.555
 20
543.538
 30
0.000000
  70
    32
  0
VERTEX
  8
0
  5
10098
 10
639.543
 20
543.626
 30
0.000000
  70
    32
  0
VERTEX
  8
0
  5
10099
 10
639.531
 20
543.715
 30
0.000000
  70
    32
  0
VERTEX
  8
0
  5
1009A
 10
639.519
 20
543.803
 30
0.000000
  70
    32
  0
VERTEX
  8
0
  5
1009B
 10
639.506
 20
543.891
 30
0.000000
  70
    32
  0
VERTEX
  8
0
  5
1009C
 10
639.492
 20
543.979
 30
0.000000
  70
    32
  0
VERTEX
  8
0
  5
1009D
 10
639.478
 20
544.067
 30
0.000000
  70
    32
  0
VERTEX
  8
0
  5
1009E
 10
639.463
 20
544.155
 30
0.000000
  70
    32
  0
VERTEX
  8
0
  5
1009F
 10
639.448
 20
544.243
 30
0.000000
  70
    32
  0
VERTEX
  8
0
  5
100A0
 10
639.432
 20
544.331
 30
0.000000
  70
    32
  0
VERTEX
  8
0
  5
100A1
 10
639.416
 20
544.418
 30
0.000000
  70
    32
  0
VERTEX
  8
0
  5
100A2
 10
639.399
 20
544.506
 30
0.000000
  70
    32
  0
VERTEX
  8
0
  5
100A3
 10
639.382
 20
544.593
 30
0.000000
  70
    32
  0
VERTEX
  8
0
  5
100A4
 10
639.364
 20
544.680
 30
0.000000
  70
    32
  0
VERTEX
  8
0
  5
100A5
 10
639.345
 20
544.768
 30
0.000000
  70
    32
  0
VERTEX
  8
0
  5
100A6
 10
639.326
 20
544.855
 30
0.000000
  70
    32
  0
VERTEX
  8
0
  5
100A7
 10
639.307
 20
544.942
 30
0.000000
  70
    32
  0
VERTEX
  8
0
  5
100A8
 10
639.286
 20
545.029
 30
0.000000
  70
    32
  0
VERTEX
  8
0
  5
100A9
 10
639.266
 20
545.115
 30
0.000000
  70
    32
  0
VERTEX
  8
0
  5
100AA
 10
639.245
 20
545.202
 30
0.000000
  70
    32
  0
VERTEX
  8
0
  5
100AB
 10
639.223
 20
545.288
 30
0.000000
  70
    32
  0
VERTEX
  8
0
  5
100AC
 10
639.200
 20
545.375
 30
0.000000
  70
    32
  0
VERTEX
  8
0
  5
100AD
 10
639.178
 20
545.461
 30
0.000000
  70
    32
  0
VERTEX
  8
0
  5
100AE
 10
639.154
 20
545.547
 30
0.000000
  70
    32
  0
VERTEX
  8
0
  5
100AF
 10
639.130
 20
545.633
 30
0.000000
  70
    32
  0
VERTEX
  8
0
  5
100B0
 10
639.106
 20
545.719
 30
0.000000
  70
    32
  0
VERTEX
  8
0
  5
100B1
 10
639.081
 20
545.804
 30
0.000000
  70
    32
  0
VERTEX
  8
0
  5
100B2
 10
639.055
 20
545.890
 30
0.000000
  70
    32
  0
VERTEX
  8
0
  5
100B3
 10
639.029
 20
545.975
 30
0.000000
  70
    32
  0
VERTEX
  8
0
  5
100B4
 10
639.003
 20
546.061
 30
0.000000
  70
    32
  0
VERTEX
  8
0
  5
100B5
 10
638.975
 20
546.146
 30
0.000000
  70
    32
  0
VERTEX
  8
0
  5
100B6
 10
638.948
 20
546.230
 30
0.000000
  70
    32
  0
VERTEX
  8
0
  5
100B7
 10
638.920
 20
546.315
 30
0.000000
  70
    32
  0
VERTEX
  8
0
  5
100B8
 10
638.891
 20
546.400
 30
0.000000
  70
    32
  0
VERTEX
  8
0
  5
100B9
 10
638.862
 20
546.484
 30
0.000000
  70
    32
  0
VERTEX
  8
0
  5
100BA
 10
638.832
 20
546.568
 30
0.000000
  70
    32
  0
VERTEX
  8
0
  5
100BB
 10
638.801
 20
546.652
 30
0.000000
  70
    32
  0
VERTEX
  8
0
  5
100BC
 10
638.771
 20
546.736
 30
0.000000
  70
    32
  0
VERTEX
  8
0
  5
100BD
 10
638.739
 20
546.820
 30
0.000000
  70
    32
  0
VERTEX
  8
0
  5
100BE
 10
638.707
 20
546.903
 30
0.000000
  70
    32
  0
VERTEX
  8
0
  5
100BF
 10
638.675
 20
546.986
 30
0.000000
  70
    32
  0
VERTEX
  8
0
  5
100C0
 10
638.642
 20
547.069
 30
0.000000
  70
    32
  0
VERTEX
  8
0
  5
100C1
 10
638.609
 20
547.152
 30
0.000000
  70
    32
  0
VERTEX
  8
0
  5
100C2
 10
638.575
 20
547.235
 30
0.000000
  70
    32
  0
VERTEX
  8
0
  5
100C3
 10
638.540
 20
547.317
 30
0.000000
  70
    32
  0
VERTEX
  8
0
  5
100C4
 10
638.505
 20
547.400
 30
0.000000
  70
    32
  0
VERTEX
  8
0
  5
100C5
 10
638.470
 20
547.482
 30
0.000000
  70
    32
  0
VERTEX
  8
0
  5
100C6
 10
638.434
 20
547.564
 30
0.000000
  70
    32
  0
VERTEX
  8
0
  5
100C7
 10
638.397
 20
547.645
 30
0.000000
  70
    32
  0
VERTEX
  8
0
  5
100C8
 10
638.360
 20
547.727
 30
0.000000
  70
    32
  0
VERTEX
  8
0
  5
100C9
 10
638.323
 20
547.808
 30
0.000000
  70
    32
  0
VERTEX
  8
0
  5
100CA
 10
638.285
 20
547.889
 30
0.000000
  70
    32
  0
VERTEX
  8
0
  5
100CB
 10
638.246
 20
547.970
 30
0.000000
  70
    32
  0
VERTEX
  8
0
  5
100CC
 10
638.207
 20
548.050
 30
0.000000
  70
    32
  0
VERTEX
  8
0
  5
100CD
 10
638.167
 20
548.130
 30
0.000000
  70
    32
  0
VERTEX
  8
0
  5
100CE
 10
638.127
 20
548.210
 30
0.000000
  70
    32
  0
VERTEX
  8
0
  5
100CF
 10
638.087
 20
548.290
 30
0.000000
  70
    32
  0
VERTEX
  8
0
  5
100D0
 10
638.046
 20
548.370
 30
0.000000
  70
    32
  0
VERTEX
  8
0
  5
100D1
 10
638.004
 20
548.449
 30
0.000000
  70
    32
  0
VERTEX
  8
0
  5
100D2
 10
637.962
 20
548.528
 30
0.000000
  70
    32
  0
VERTEX
  8
0
  5
100D3
 10
637.920
 20
548.607
 30
0.000000
  70
    32
  0
VERTEX
  8
0
  5
100D4
 10
637.877
 20
548.685
 30
0.000000
  70
    32
  0
VERTEX
  8
0
  5
100D5
 10
637.833
 20
548.764
 30
0.000000
  70
    32
  0
VERTEX
  8
0
  5
100D6
 10
637.789
 20
548.842
 30
0.000000
  70
    32
  0
VERTEX
  8
0
  5
100D7
 10
637.744
 20
548.920
 30
0.000000
  70
    32
  0
VERTEX
  8
0
  5
100D8
 10
637.699
 20
548.997
 30
0.000000
  70
    32
  0
VERTEX
  8
0
  5
100D9
 10
637.654
 20
549.074
 30
0.000000
  70
    32
  0
VERTEX
  8
0
  5
100DA
 10
637.608
 20
549.151
 30
0.000000
  70
    32
  0
VERTEX
  8
0
  5
100DB
 10
637.562
 20
549.228
 30
0.000000
  70
    32
  0
VERTEX
  8
0
  5
100DC
 10
637.515
 20
549.304
 30
0.000000
  70
    32
  0
VERTEX
  8
0
  5
100DD
 10
637.467
 20
549.381
 30
0.000000
  70
    32
  0
VERTEX
  8
0
  5
100DE
 10
637.419
 20
549.456
 30
0.000000
  70
    32
  0
VERTEX
  8
0
  5
100DF
 10
637.371
 20
549.532
 30
0.000000
  70
    32
  0
VERTEX
  8
0
  5
100E0
 10
637.322
 20
549.607
 30
0.000000
  70
    32
  0
VERTEX
  8
0
  5
100E1
 10
637.273
 20
549.682
 30
0.000000
  70
    32
  0
VERTEX
  8
0
  5
100E2
 10
637.223
 20
549.757
 30
0.000000
  70
    32
  0
VERTEX
  8
0
  5
100E3
 10
637.173
 20
549.831
 30
0.000000
  70
    32
  0
VERTEX
  8
0
  5
100E4
 10
637.122
 20
549.906
 30
0.000000
  70
    32
  0
VERTEX
  8
0
  5
100E5
 10
637.071
 20
549.979
 30
0.000000
  70
    32
  0
VERTEX
  8
0
  5
100E6
 10
637.020
 20
550.053
 30
0.000000
  70
    32
  0
VERTEX
  8
0
  5
100E7
 10
636.968
 20
550.126
 30
0.000000
  70
    32
  0
VERTEX
  8
0
  5
100E8
 10
636.915
 20
550.199
 30
0.000000
  70
    32
  0
VERTEX
  8
0
  5
100E9
 10
636.862
 20
550.271
 30
0.000000
  70
    32
  0
VERTEX
  8
0
  5
100EA
 10
636.809
 20
550.344
 30
0.000000
  70
    32
  0
VERTEX
  8
0
  5
100EB
 10
636.755
 20
550.416
 30
0.000000
  70
    32
  0
VERTEX
  8
0
  5
100EC
 10
636.700
 20
550.487
 30
0.000000
  70
    32
  0
VERTEX
  8
0
  5
100ED
 10
636.646
 20
550.559
 30
0.000000
  70
    32
  0
VERTEX
  8
0
  5
100EE
 10
636.591
 20
550.629
 30
0.000000
  70
    32
  0
VERTEX
  8
0
  5
100EF
 10
636.535
 20
550.700
 30
0.000000
  70
    32
  0
VERTEX
  8
0
  5
100F0
 10
636.479
 20
550.770
 30
0.000000
  70
    32
  0
VERTEX
  8
0
  5
100F1
 10
636.422
 20
550.840
 30
0.000000
  70
    32
  0
VERTEX
  8
0
  5
100F2
 10
636.365
 20
550.910
 30
0.000000
  70
    32
  0
VERTEX
  8
0
  5
100F3
 10
636.308
 20
550.979
 30
0.000000
  70
    32
  0
VERTEX
  8
0
  5
100F4
 10
636.250
 20
551.048
 30
0.000000
  70
    32
  0
VERTEX
  8
0
  5
100F5
 10
636.192
 20
551.117
 30
0.000000
  70
    32
  0
VERTEX
  8
0
  5
100F6
 10
636.133
 20
551.185
 30
0.000000
  70
    32
  0
VERTEX
  8
0
  5
100F7
 10
636.074
 20
551.253
 30
0.000000
  70
    32
  0
VERTEX
  8
0
  5
100F8
 10
636.014
 20
551.321
 30
0.000000
  70
    32
  0
VERTEX
  8
0
  5
100F9
 10
635.954
 20
551.388
 30
0.000000
  70
    32
  0
VERTEX
  8
0
  5
100FA
 10
635.894
 20
551.455
 30
0.000000
  70
    32
  0
VERTEX
  8
0
  5
100FB
 10
635.833
 20
551.521
 30
0.000000
  70
    32
  0
VERTEX
  8
0
  5
100FC
 10
635.772
 20
551.587
 30
0.000000
  70
    32
  0
VERTEX
  8
0
  5
100FD
 10
635.710
 20
551.653
 30
0.000000
  70
    32
  0
VERTEX
  8
0
  5
100FE
 10
635.648
 20
551.718
 30
0.000000
  70
    32
  0
VERTEX
  8
0
  5
100FF
 10
635.586
 20
551.783
 30
0.000000
  70
    32
  0
VERTEX
  8
0
  5
10100
 10
635.523
 20
551.848
 30
0.000000
  70
    32
  0
VERTEX
  8
0
  5
10101
 10
635.460
 20
551.912
 30
0.000000
  70
    32
  0
VERTEX
  8
0
  5
10102
 10
635.396
 20
551.976
 30
0.000000
  70
    32
  0
VERTEX
  8
0
  5
10103
 10
635.332
 20
552.040
 30
0.000000
  70
    32
  0
SEQEND
  8
0
  5
10104
  0
POLYLINE
  5
FAF3
  8
0
 10
613.99963153465353
 20
552.03961819302936
 30
0.0
 66
     1
 70
     8
  0
VERTEX
  8
0
  5
10105
 10
614.000
 20
552.040
 30
0.000000
  70
    32
  0
VERTEX
  8
0
  5
10106
 10
613.936
 20
551.976
 30
0.000000
  70
    32
  0
VERTEX
  8
0
  5
10107
 10
613.872
 20
551.912
 30
0.000000
  70
    32
  0
VERTEX
  8
0
  5
10108
 10
613.809
 20
551.848
 30
0.000000
  70
    32
  0
VERTEX
  8
0
  5
10109
 10
613.746
 20
551.783
 30
0.000000
  70
    32
  0
VERTEX
  8
0
  5
1010A
 10
613.683
 20
551.718
 30
0.000000
  70
    32
  0
VERTEX
  8
0
  5
1010B
 10
613.621
 20
551.653
 30
0.000000
  70
    32
  0
VERTEX
  8
0
  5
1010C
 10
613.560
 20
551.587
 30
0.000000
  70
    32
  0
VERTEX
  8
0
  5
1010D
 10
613.499
 20
551.521
 30
0.000000
  70
    32
  0
VERTEX
  8
0
  5
1010E
 10
613.438
 20
551.455
 30
0.000000
  70
    32
  0
VERTEX
  8
0
  5
1010F
 10
613.377
 20
551.388
 30
0.000000
  70
    32
  0
VERTEX
  8
0
  5
10110
 10
613.317
 20
551.321
 30
0.000000
  70
    32
  0
VERTEX
  8
0
  5
10111
 10
613.258
 20
551.253
 30
0.000000
  70
    32
  0
VERTEX
  8
0
  5
10112
 10
613.199
 20
551.185
 30
0.000000
  70
    32
  0
VERTEX
  8
0
  5
10113
 10
613.140
 20
551.117
 30
0.000000
  70
    32
  0
VERTEX
  8
0
  5
10114
 10
613.082
 20
551.048
 30
0.000000
  70
    32
  0
VERTEX
  8
0
  5
10115
 10
613.024
 20
550.979
 30
0.000000
  70
    32
  0
VERTEX
  8
0
  5
10116
 10
612.967
 20
550.910
 30
0.000000
  70
    32
  0
VERTEX
  8
0
  5
10117
 10
612.910
 20
550.840
 30
0.000000
  70
    32
  0
VERTEX
  8
0
  5
10118
 10
612.853
 20
550.770
 30
0.000000
  70
    32
  0
VERTEX
  8
0
  5
10119
 10
612.797
 20
550.700
 30
0.000000
  70
    32
  0
VERTEX
  8
0
  5
1011A
 10
612.741
 20
550.629
 30
0.000000
  70
    32
  0
VERTEX
  8
0
  5
1011B
 10
612.686
 20
550.559
 30
0.000000
  70
    32
  0
VERTEX
  8
0
  5
1011C
 10
612.631
 20
550.487
 30
0.000000
  70
    32
  0
VERTEX
  8
0
  5
1011D
 10
612.577
 20
550.416
 30
0.000000
  70
    32
  0
VERTEX
  8
0
  5
1011E
 10
612.523
 20
550.344
 30
0.000000
  70
    32
  0
VERTEX
  8
0
  5
1011F
 10
612.470
 20
550.271
 30
0.000000
  70
    32
  0
VERTEX
  8
0
  5
10120
 10
612.417
 20
550.199
 30
0.000000
  70
    32
  0
VERTEX
  8
0
  5
10121
 10
612.364
 20
550.126
 30
0.000000
  70
    32
  0
VERTEX
  8
0
  5
10122
 10
612.312
 20
550.053
 30
0.000000
  70
    32
  0
VERTEX
  8
0
  5
10123
 10
612.261
 20
549.979
 30
0.000000
  70
    32
  0
VERTEX
  8
0
  5
10124
 10
612.209
 20
549.906
 30
0.000000
  70
    32
  0
VERTEX
  8
0
  5
10125
 10
612.159
 20
549.831
 30
0.000000
  70
    32
  0
VERTEX
  8
0
  5
10126
 10
612.108
 20
549.757
 30
0.000000
  70
    32
  0
VERTEX
  8
0
  5
10127
 10
612.059
 20
549.682
 30
0.000000
  70
    32
  0
VERTEX
  8
0
  5
10128
 10
612.009
 20
549.607
 30
0.000000
  70
    32
  0
VERTEX
  8
0
  5
10129
 10
611.961
 20
549.532
 30
0.000000
  70
    32
  0
VERTEX
  8
0
  5
1012A
 10
611.912
 20
549.456
 30
0.000000
  70
    32
  0
VERTEX
  8
0
  5
1012B
 10
611.864
 20
549.381
 30
0.000000
  70
    32
  0
VERTEX
  8
0
  5
1012C
 10
611.817
 20
549.304
 30
0.000000
  70
    32
  0
VERTEX
  8
0
  5
1012D
 10
611.770
 20
549.228
 30
0.000000
  70
    32
  0
VERTEX
  8
0
  5
1012E
 10
611.724
 20
549.151
 30
0.000000
  70
    32
  0
VERTEX
  8
0
  5
1012F
 10
611.678
 20
549.074
 30
0.000000
  70
    32
  0
VERTEX
  8
0
  5
10130
 10
611.632
 20
548.997
 30
0.000000
  70
    32
  0
VERTEX
  8
0
  5
10131
 10
611.587
 20
548.920
 30
0.000000
  70
    32
  0
VERTEX
  8
0
  5
10132
 10
611.543
 20
548.842
 30
0.000000
  70
    32
  0
VERTEX
  8
0
  5
10133
 10
611.499
 20
548.764
 30
0.000000
  70
    32
  0
VERTEX
  8
0
  5
10134
 10
611.455
 20
548.685
 30
0.000000
  70
    32
  0
VERTEX
  8
0
  5
10135
 10
611.412
 20
548.607
 30
0.000000
  70
    32
  0
VERTEX
  8
0
  5
10136
 10
611.370
 20
548.528
 30
0.000000
  70
    32
  0
VERTEX
  8
0
  5
10137
 10
611.328
 20
548.449
 30
0.000000
  70
    32
  0
VERTEX
  8
0
  5
10138
 10
611.286
 20
548.370
 30
0.000000
  70
    32
  0
VERTEX
  8
0
  5
10139
 10
611.245
 20
548.290
 30
0.000000
  70
    32
  0
VERTEX
  8
0
  5
1013A
 10
611.204
 20
548.210
 30
0.000000
  70
    32
  0
VERTEX
  8
0
  5
1013B
 10
611.164
 20
548.130
 30
0.000000
  70
    32
  0
VERTEX
  8
0
  5
1013C
 10
611.125
 20
548.050
 30
0.000000
  70
    32
  0
VERTEX
  8
0
  5
1013D
 10
611.086
 20
547.970
 30
0.000000
  70
    32
  0
VERTEX
  8
0
  5
1013E
 10
611.047
 20
547.889
 30
0.000000
  70
    32
  0
VERTEX
  8
0
  5
1013F
 10
611.009
 20
547.808
 30
0.000000
  70
    32
  0
VERTEX
  8
0
  5
10140
 10
610.972
 20
547.727
 30
0.000000
  70
    32
  0
VERTEX
  8
0
  5
10141
 10
610.935
 20
547.645
 30
0.000000
  70
    32
  0
VERTEX
  8
0
  5
10142
 10
610.898
 20
547.564
 30
0.000000
  70
    32
  0
VERTEX
  8
0
  5
10143
 10
610.862
 20
547.482
 30
0.000000
  70
    32
  0
VERTEX
  8
0
  5
10144
 10
610.827
 20
547.400
 30
0.000000
  70
    32
  0
VERTEX
  8
0
  5
10145
 10
610.792
 20
547.317
 30
0.000000
  70
    32
  0
VERTEX
  8
0
  5
10146
 10
610.757
 20
547.235
 30
0.000000
  70
    32
  0
VERTEX
  8
0
  5
10147
 10
610.723
 20
547.152
 30
0.000000
  70
    32
  0
VERTEX
  8
0
  5
10148
 10
610.690
 20
547.069
 30
0.000000
  70
    32
  0
VERTEX
  8
0
  5
10149
 10
610.657
 20
546.986
 30
0.000000
  70
    32
  0
VERTEX
  8
0
  5
1014A
 10
610.624
 20
546.903
 30
0.000000
  70
    32
  0
VERTEX
  8
0
  5
1014B
 10
610.592
 20
546.820
 30
0.000000
  70
    32
  0
VERTEX
  8
0
  5
1014C
 10
610.561
 20
546.736
 30
0.000000
  70
    32
  0
VERTEX
  8
0
  5
1014D
 10
610.530
 20
546.652
 30
0.000000
  70
    32
  0
VERTEX
  8
0
  5
1014E
 10
610.500
 20
546.568
 30
0.000000
  70
    32
  0
VERTEX
  8
0
  5
1014F
 10
610.470
 20
546.484
 30
0.000000
  70
    32
  0
VERTEX
  8
0
  5
10150
 10
610.441
 20
546.400
 30
0.000000
  70
    32
  0
VERTEX
  8
0
  5
10151
 10
610.412
 20
546.315
 30
0.000000
  70
    32
  0
VERTEX
  8
0
  5
10152
 10
610.384
 20
546.230
 30
0.000000
  70
    32
  0
VERTEX
  8
0
  5
10153
 10
610.356
 20
546.146
 30
0.000000
  70
    32
  0
VERTEX
  8
0
  5
10154
 10
610.329
 20
546.061
 30
0.000000
  70
    32
  0
VERTEX
  8
0
  5
10155
 10
610.303
 20
545.975
 30
0.000000
  70
    32
  0
VERTEX
  8
0
  5
10156
 10
610.277
 20
545.890
 30
0.000000
  70
    32
  0
VERTEX
  8
0
  5
10157
 10
610.251
 20
545.804
 30
0.000000
  70
    32
  0
VERTEX
  8
0
  5
10158
 10
610.226
 20
545.719
 30
0.000000
  70
    32
  0
VERTEX
  8
0
  5
10159
 10
610.202
 20
545.633
 30
0.000000
  70
    32
  0
VERTEX
  8
0
  5
1015A
 10
610.178
 20
545.547
 30
0.000000
  70
    32
  0
VERTEX
  8
0
  5
1015B
 10
610.154
 20
545.461
 30
0.000000
  70
    32
  0
VERTEX
  8
0
  5
1015C
 10
610.131
 20
545.375
 30
0.000000
  70
    32
  0
VERTEX
  8
0
  5
1015D
 10
610.109
 20
545.288
 30
0.000000
  70
    32
  0
VERTEX
  8
0
  5
1015E
 10
610.087
 20
545.202
 30
0.000000
  70
    32
  0
VERTEX
  8
0
  5
1015F
 10
610.066
 20
545.115
 30
0.000000
  70
    32
  0
VERTEX
  8
0
  5
10160
 10
610.045
 20
545.029
 30
0.000000
  70
    32
  0
VERTEX
  8
0
  5
10161
 10
610.025
 20
544.942
 30
0.000000
  70
    32
  0
VERTEX
  8
0
  5
10162
 10
610.006
 20
544.855
 30
0.000000
  70
    32
  0
VERTEX
  8
0
  5
10163
 10
609.986
 20
544.768
 30
0.000000
  70
    32
  0
VERTEX
  8
0
  5
10164
 10
609.968
 20
544.680
 30
0.000000
  70
    32
  0
VERTEX
  8
0
  5
10165
 10
609.950
 20
544.593
 30
0.000000
  70
    32
  0
VERTEX
  8
0
  5
10166
 10
609.933
 20
544.506
 30
0.000000
  70
    32
  0
VERTEX
  8
0
  5
10167
 10
609.916
 20
544.418
 30
0.000000
  70
    32
  0
VERTEX
  8
0
  5
10168
 10
609.899
 20
544.331
 30
0.000000
  70
    32
  0
VERTEX
  8
0
  5
10169
 10
609.884
 20
544.243
 30
0.000000
  70
    32
  0
VERTEX
  8
0
  5
1016A
 10
609.868
 20
544.155
 30
0.000000
  70
    32
  0
VERTEX
  8
0
  5
1016B
 10
609.854
 20
544.067
 30
0.000000
  70
    32
  0
VERTEX
  8
0
  5
1016C
 10
609.840
 20
543.979
 30
0.000000
  70
    32
  0
VERTEX
  8
0
  5
1016D
 10
609.826
 20
543.891
 30
0.000000
  70
    32
  0
VERTEX
  8
0
  5
1016E
 10
609.813
 20
543.803
 30
0.000000
  70
    32
  0
VERTEX
  8
0
  5
1016F
 10
609.800
 20
543.715
 30
0.000000
  70
    32
  0
VERTEX
  8
0
  5
10170
 10
609.788
 20
543.626
 30
0.000000
  70
    32
  0
VERTEX
  8
0
  5
10171
 10
609.777
 20
543.538
 30
0.000000
  70
    32
  0
VERTEX
  8
0
  5
10172
 10
609.766
 20
543.450
 30
0.000000
  70
    32
  0
VERTEX
  8
0
  5
10173
 10
609.756
 20
543.361
 30
0.000000
  70
    32
  0
VERTEX
  8
0
  5
10174
 10
609.746
 20
543.273
 30
0.000000
  70
    32
  0
VERTEX
  8
0
  5
10175
 10
609.737
 20
543.184
 30
0.000000
  70
    32
  0
VERTEX
  8
0
  5
10176
 10
609.728
 20
543.095
 30
0.000000
  70
    32
  0
VERTEX
  8
0
  5
10177
 10
609.720
 20
543.007
 30
0.000000
  70
    32
  0
VERTEX
  8
0
  5
10178
 10
609.713
 20
542.918
 30
0.000000
  70
    32
  0
VERTEX
  8
0
  5
10179
 10
609.706
 20
542.829
 30
0.000000
  70
    32
  0
VERTEX
  8
0
  5
1017A
 10
609.700
 20
542.740
 30
0.000000
  70
    32
  0
VERTEX
  8
0
  5
1017B
 10
609.694
 20
542.651
 30
0.000000
  70
    32
  0
VERTEX
  8
0
  5
1017C
 10
609.688
 20
542.563
 30
0.000000
  70
    32
  0
VERTEX
  8
0
  5
1017D
 10
609.684
 20
542.474
 30
0.000000
  70
    32
  0
VERTEX
  8
0
  5
1017E
 10
609.680
 20
542.385
 30
0.000000
  70
    32
  0
VERTEX
  8
0
  5
1017F
 10
609.676
 20
542.296
 30
0.000000
  70
    32
  0
VERTEX
  8
0
  5
10180
 10
609.673
 20
542.207
 30
0.000000
  70
    32
  0
VERTEX
  8
0
  5
10181
 10
609.670
 20
542.118
 30
0.000000
  70
    32
  0
VERTEX
  8
0
  5
10182
 10
609.668
 20
542.029
 30
0.000000
  70
    32
  0
VERTEX
  8
0
  5
10183
 10
609.667
 20
541.940
 30
0.000000
  70
    32
  0
VERTEX
  8
0
  5
10184
 10
609.666
 20
541.851
 30
0.000000
  70
    32
  0
VERTEX
  8
0
  5
10185
 10
609.666
 20
541.761
 30
0.000000
  70
    32
  0
SEQEND
  8
0
  5
10186
  0
LINE
  5
FAF4
  8
0
 10
584.66588275178367
 20
626.35067044195944
 30
0.0
 11
584.66588275178367
 21
623.94393802895888
 31
0.0
  0
ARC
  5
FAF5
  8
0
 10
585.66588275178367
 20
626.35067044195944
 30
0.0
 40
1.0
 50
90.0
 51
180.0
  0
LINE
  5
FAF6
  8
0
 10
664.66588275178367
 20
626.35067044195944
 30
0.0
 11
664.66588275178367
 21
623.9439380289582
 31
0.0
  0
ARC
  5
FAF7
  8
0
 10
663.66588275178367
 20
626.35067044195944
 30
0.0
 40
1.0
 50
0.0
 51
90.0
  0
LINE
  5
FAF8
  8
0
 10
585.66588275178367
 20
627.35067044195944
 30
0.0
 11
587.06467163136722
 21
627.35067044195944
 31
0.0
  0
LINE
  5
FAF9
  8
0
 10
662.26709387219989
 20
627.35067044195944
 30
0.0
 11
663.66588275178367
 21
627.35067044195944
 31
0.0
  0
LINE
  5
FAFA
  8
0
 10
508.99785385974008
 20
550.24623200449469
 30
0.0
 11
508.03193502628892
 21
550.50507714581238
 31
0.0
  0
LINE
  5
FAFB
  8
0
 10
503.04471571699389
 20
528.03001842153265
 30
0.0
 11
502.07849677815437
 21
528.28894398453713
 31
0.0
  0
POLYLINE
  5
FAFC
  8
0
 10
616.34649079799215
 20
551.56078604810546
 30
0.0
 66
     1
 70
     8
  0
VERTEX
  8
0
  5
10187
 10
616.346
 20
551.561
 30
0.000000
  70
    32
  0
VERTEX
  8
0
  5
10188
 10
615.855
 20
551.228
 30
0.000000
  70
    32
  0
VERTEX
  8
0
  5
10189
 10
615.378
 20
550.876
 30
0.000000
  70
    32
  0
VERTEX
  8
0
  5
1018A
 10
614.916
 20
550.506
 30
0.000000
  70
    32
  0
VERTEX
  8
0
  5
1018B
 10
614.469
 20
550.118
 30
0.000000
  70
    32
  0
VERTEX
  8
0
  5
1018C
 10
614.038
 20
549.713
 30
0.000000
  70
    32
  0
VERTEX
  8
0
  5
1018D
 10
613.624
 20
549.291
 30
0.000000
  70
    32
  0
VERTEX
  8
0
  5
1018E
 10
613.228
 20
548.854
 30
0.000000
  70
    32
  0
VERTEX
  8
0
  5
1018F
 10
612.850
 20
548.402
 30
0.000000
  70
    32
  0
VERTEX
  8
0
  5
10190
 10
612.491
 20
547.935
 30
0.000000
  70
    32
  0
VERTEX
  8
0
  5
10191
 10
612.151
 20
547.455
 30
0.000000
  70
    32
  0
VERTEX
  8
0
  5
10192
 10
611.831
 20
546.962
 30
0.000000
  70
    32
  0
VERTEX
  8
0
  5
10193
 10
611.532
 20
546.457
 30
0.000000
  70
    32
  0
VERTEX
  8
0
  5
10194
 10
611.253
 20
545.941
 30
0.000000
  70
    32
  0
VERTEX
  8
0
  5
10195
 10
610.996
 20
545.415
 30
0.000000
  70
    32
  0
VERTEX
  8
0
  5
10196
 10
610.760
 20
544.878
 30
0.000000
  70
    32
  0
VERTEX
  8
0
  5
10197
 10
610.547
 20
544.333
 30
0.000000
  70
    32
  0
VERTEX
  8
0
  5
10198
 10
610.356
 20
543.781
 30
0.000000
  70
    32
  0
VERTEX
  8
0
  5
10199
 10
610.188
 20
543.221
 30
0.000000
  70
    32
  0
VERTEX
  8
0
  5
1019A
 10
610.043
 20
542.655
 30
0.000000
  70
    32
  0
VERTEX
  8
0
  5
1019B
 10
609.921
 20
542.084
 30
0.000000
  70
    32
  0
VERTEX
  8
0
  5
1019C
 10
609.823
 20
541.509
 30
0.000000
  70
    32
  0
VERTEX
  8
0
  5
1019D
 10
609.749
 20
540.930
 30
0.000000
  70
    32
  0
VERTEX
  8
0
  5
1019E
 10
609.698
 20
540.349
 30
0.000000
  70
    32
  0
VERTEX
  8
0
  5
1019F
 10
609.671
 20
539.766
 30
0.000000
  70
    32
  0
VERTEX
  8
0
  5
101A0
 10
609.667
 20
539.183
 30
0.000000
  70
    32
  0
VERTEX
  8
0
  5
101A1
 10
609.688
 20
538.600
 30
0.000000
  70
    32
  0
VERTEX
  8
0
  5
101A2
 10
609.733
 20
538.018
 30
0.000000
  70
    32
  0
VERTEX
  8
0
  5
101A3
 10
609.801
 20
537.439
 30
0.000000
  70
    32
  0
VERTEX
  8
0
  5
101A4
 10
609.893
 20
536.863
 30
0.000000
  70
    32
  0
VERTEX
  8
0
  5
101A5
 10
610.009
 20
536.290
 30
0.000000
  70
    32
  0
VERTEX
  8
0
  5
101A6
 10
610.147
 20
535.723
 30
0.000000
  70
    32
  0
VERTEX
  8
0
  5
101A7
 10
610.309
 20
535.162
 30
0.000000
  70
    32
  0
VERTEX
  8
0
  5
101A8
 10
610.494
 20
534.607
 30
0.000000
  70
    32
  0
VERTEX
  8
0
  5
101A9
 10
610.701
 20
534.060
 30
0.000000
  70
    32
  0
VERTEX
  8
0
  5
101AA
 10
610.931
 20
533.521
 30
0.000000
  70
    32
  0
VERTEX
  8
0
  5
101AB
 10
611.183
 20
532.992
 30
0.000000
  70
    32
  0
VERTEX
  8
0
  5
101AC
 10
611.455
 20
532.473
 30
0.000000
  70
    32
  0
VERTEX
  8
0
  5
101AD
 10
611.749
 20
531.965
 30
0.000000
  70
    32
  0
VERTEX
  8
0
  5
101AE
 10
612.064
 20
531.468
 30
0.000000
  70
    32
  0
VERTEX
  8
0
  5
101AF
 10
612.398
 20
530.985
 30
0.000000
  70
    32
  0
VERTEX
  8
0
  5
101B0
 10
612.753
 20
530.515
 30
0.000000
  70
    32
  0
VERTEX
  8
0
  5
101B1
 10
613.126
 20
530.059
 30
0.000000
  70
    32
  0
VERTEX
  8
0
  5
101B2
 10
613.517
 20
529.617
 30
0.000000
  70
    32
  0
VERTEX
  8
0
  5
101B3
 10
613.926
 20
529.192
 30
0.000000
  70
    32
  0
VERTEX
  8
0
  5
101B4
 10
614.352
 20
528.782
 30
0.000000
  70
    32
  0
VERTEX
  8
0
  5
101B5
 10
614.795
 20
528.390
 30
0.000000
  70
    32
  0
VERTEX
  8
0
  5
101B6
 10
615.254
 20
528.015
 30
0.000000
  70
    32
  0
VERTEX
  8
0
  5
101B7
 10
615.727
 20
527.658
 30
0.000000
  70
    32
  0
VERTEX
  8
0
  5
101B8
 10
616.215
 20
527.320
 30
0.000000
  70
    32
  0
VERTEX
  8
0
  5
101B9
 10
616.716
 20
527.001
 30
0.000000
  70
    32
  0
VERTEX
  8
0
  5
101BA
 10
617.229
 20
526.702
 30
0.000000
  70
    32
  0
VERTEX
  8
0
  5
101BB
 10
617.755
 20
526.423
 30
0.000000
  70
    32
  0
VERTEX
  8
0
  5
101BC
 10
618.292
 20
526.164
 30
0.000000
  70
    32
  0
VERTEX
  8
0
  5
101BD
 10
618.838
 20
525.927
 30
0.000000
  70
    32
  0
VERTEX
  8
0
  5
101BE
 10
619.394
 20
525.711
 30
0.000000
  70
    32
  0
VERTEX
  8
0
  5
101BF
 10
619.959
 20
525.517
 30
0.000000
  70
    32
  0
VERTEX
  8
0
  5
101C0
 10
620.531
 20
525.345
 30
0.000000
  70
    32
  0
VERTEX
  8
0
  5
101C1
 10
621.109
 20
525.196
 30
0.000000
  70
    32
  0
VERTEX
  8
0
  5
101C2
 10
621.693
 20
525.069
 30
0.000000
  70
    32
  0
VERTEX
  8
0
  5
101C3
 10
622.282
 20
524.965
 30
0.000000
  70
    32
  0
VERTEX
  8
0
  5
101C4
 10
622.875
 20
524.883
 30
0.000000
  70
    32
  0
VERTEX
  8
0
  5
101C5
 10
623.470
 20
524.825
 30
0.000000
  70
    32
  0
VERTEX
  8
0
  5
101C6
 10
624.068
 20
524.790
 30
0.000000
  70
    32
  0
VERTEX
  8
0
  5
101C7
 10
624.666
 20
524.779
 30
0.000000
  70
    32
  0
VERTEX
  8
0
  5
101C8
 10
625.264
 20
524.790
 30
0.000000
  70
    32
  0
VERTEX
  8
0
  5
101C9
 10
625.862
 20
524.825
 30
0.000000
  70
    32
  0
VERTEX
  8
0
  5
101CA
 10
626.457
 20
524.883
 30
0.000000
  70
    32
  0
VERTEX
  8
0
  5
101CB
 10
627.050
 20
524.965
 30
0.000000
  70
    32
  0
VERTEX
  8
0
  5
101CC
 10
627.639
 20
525.069
 30
0.000000
  70
    32
  0
VERTEX
  8
0
  5
101CD
 10
628.223
 20
525.196
 30
0.000000
  70
    32
  0
VERTEX
  8
0
  5
101CE
 10
628.801
 20
525.345
 30
0.000000
  70
    32
  0
VERTEX
  8
0
  5
101CF
 10
629.373
 20
525.517
 30
0.000000
  70
    32
  0
VERTEX
  8
0
  5
101D0
 10
629.938
 20
525.711
 30
0.000000
  70
    32
  0
VERTEX
  8
0
  5
101D1
 10
630.494
 20
525.927
 30
0.000000
  70
    32
  0
VERTEX
  8
0
  5
101D2
 10
631.040
 20
526.164
 30
0.000000
  70
    32
  0
VERTEX
  8
0
  5
101D3
 10
631.577
 20
526.423
 30
0.000000
  70
    32
  0
VERTEX
  8
0
  5
101D4
 10
632.102
 20
526.702
 30
0.000000
  70
    32
  0
VERTEX
  8
0
  5
101D5
 10
632.616
 20
527.001
 30
0.000000
  70
    32
  0
VERTEX
  8
0
  5
101D6
 10
633.117
 20
527.320
 30
0.000000
  70
    32
  0
VERTEX
  8
0
  5
101D7
 10
633.605
 20
527.658
 30
0.000000
  70
    32
  0
VERTEX
  8
0
  5
101D8
 10
634.078
 20
528.015
 30
0.000000
  70
    32
  0
VERTEX
  8
0
  5
101D9
 10
634.537
 20
528.390
 30
0.000000
  70
    32
  0
VERTEX
  8
0
  5
101DA
 10
634.979
 20
528.782
 30
0.000000
  70
    32
  0
VERTEX
  8
0
  5
101DB
 10
635.406
 20
529.192
 30
0.000000
  70
    32
  0
VERTEX
  8
0
  5
101DC
 10
635.815
 20
529.617
 30
0.000000
  70
    32
  0
VERTEX
  8
0
  5
101DD
 10
636.206
 20
530.059
 30
0.000000
  70
    32
  0
VERTEX
  8
0
  5
101DE
 10
636.579
 20
530.515
 30
0.000000
  70
    32
  0
VERTEX
  8
0
  5
101DF
 10
636.933
 20
530.985
 30
0.000000
  70
    32
  0
VERTEX
  8
0
  5
101E0
 10
637.268
 20
531.468
 30
0.000000
  70
    32
  0
VERTEX
  8
0
  5
101E1
 10
637.582
 20
531.965
 30
0.000000
  70
    32
  0
VERTEX
  8
0
  5
101E2
 10
637.876
 20
532.473
 30
0.000000
  70
    32
  0
VERTEX
  8
0
  5
101E3
 10
638.149
 20
532.992
 30
0.000000
  70
    32
  0
VERTEX
  8
0
  5
101E4
 10
638.401
 20
533.521
 30
0.000000
  70
    32
  0
VERTEX
  8
0
  5
101E5
 10
638.630
 20
534.060
 30
0.000000
  70
    32
  0
VERTEX
  8
0
  5
101E6
 10
638.838
 20
534.607
 30
0.000000
  70
    32
  0
VERTEX
  8
0
  5
101E7
 10
639.022
 20
535.162
 30
0.000000
  70
    32
  0
VERTEX
  8
0
  5
101E8
 10
639.184
 20
535.723
 30
0.000000
  70
    32
  0
VERTEX
  8
0
  5
101E9
 10
639.323
 20
536.290
 30
0.000000
  70
    32
  0
VERTEX
  8
0
  5
101EA
 10
639.439
 20
536.863
 30
0.000000
  70
    32
  0
VERTEX
  8
0
  5
101EB
 10
639.531
 20
537.439
 30
0.000000
  70
    32
  0
VERTEX
  8
0
  5
101EC
 10
639.599
 20
538.018
 30
0.000000
  70
    32
  0
VERTEX
  8
0
  5
101ED
 10
639.644
 20
538.600
 30
0.000000
  70
    32
  0
VERTEX
  8
0
  5
101EE
 10
639.664
 20
539.183
 30
0.000000
  70
    32
  0
VERTEX
  8
0
  5
101EF
 10
639.661
 20
539.766
 30
0.000000
  70
    32
  0
VERTEX
  8
0
  5
101F0
 10
639.634
 20
540.349
 30
0.000000
  70
    32
  0
VERTEX
  8
0
  5
101F1
 10
639.583
 20
540.930
 30
0.000000
  70
    32
  0
VERTEX
  8
0
  5
101F2
 10
639.509
 20
541.509
 30
0.000000
  70
    32
  0
VERTEX
  8
0
  5
101F3
 10
639.410
 20
542.084
 30
0.000000
  70
    32
  0
VERTEX
  8
0
  5
101F4
 10
639.289
 20
542.655
 30
0.000000
  70
    32
  0
VERTEX
  8
0
  5
101F5
 10
639.144
 20
543.221
 30
0.000000
  70
    32
  0
VERTEX
  8
0
  5
101F6
 10
638.976
 20
543.781
 30
0.000000
  70
    32
  0
VERTEX
  8
0
  5
101F7
 10
638.785
 20
544.333
 30
0.000000
  70
    32
  0
VERTEX
  8
0
  5
101F8
 10
638.571
 20
544.878
 30
0.000000
  70
    32
  0
VERTEX
  8
0
  5
101F9
 10
638.336
 20
545.415
 30
0.000000
  70
    32
  0
VERTEX
  8
0
  5
101FA
 10
638.079
 20
545.941
 30
0.000000
  70
    32
  0
VERTEX
  8
0
  5
101FB
 10
637.800
 20
546.457
 30
0.000000
  70
    32
  0
VERTEX
  8
0
  5
101FC
 10
637.501
 20
546.962
 30
0.000000
  70
    32
  0
VERTEX
  8
0
  5
101FD
 10
637.181
 20
547.455
 30
0.000000
  70
    32
  0
VERTEX
  8
0
  5
101FE
 10
636.841
 20
547.935
 30
0.000000
  70
    32
  0
VERTEX
  8
0
  5
101FF
 10
636.482
 20
548.402
 30
0.000000
  70
    32
  0
VERTEX
  8
0
  5
10200
 10
636.104
 20
548.854
 30
0.000000
  70
    32
  0
VERTEX
  8
0
  5
10201
 10
635.708
 20
549.291
 30
0.000000
  70
    32
  0
VERTEX
  8
0
  5
10202
 10
635.294
 20
549.713
 30
0.000000
  70
    32
  0
VERTEX
  8
0
  5
10203
 10
634.863
 20
550.118
 30
0.000000
  70
    32
  0
VERTEX
  8
0
  5
10204
 10
634.416
 20
550.506
 30
0.000000
  70
    32
  0
VERTEX
  8
0
  5
10205
 10
633.954
 20
550.876
 30
0.000000
  70
    32
  0
VERTEX
  8
0
  5
10206
 10
633.477
 20
551.228
 30
0.000000
  70
    32
  0
VERTEX
  8
0
  5
10207
 10
632.985
 20
551.561
 30
0.000000
  70
    32
  0
SEQEND
  8
0
  5
10208
  0
LINE
  5
FAFD
  8
0
 10
655.62458908639746
 20
634.3516704419593
 30
0.0
 11
663.2179209522119
 21
634.3516704419593
 31
0.0
  0
LINE
  5
FAFE
  8
0
 10
663.2179209522119
 20
634.3516704419593
 30
0.0
 11
663.2179209522119
 21
627.35067044195944
 31
0.0
  0
ARC
  5
FAFF
  8
0
 10
658.9679209522119
 20
623.90934964549911
 30
0.0
 40
10.44232079646028
 50
65.983629264472185
 51
106.0019370138189
  0
LINE
  5
FB00
  8
0
 10
593.70717641716965
 20
634.3516704419593
 30
0.0
 11
586.11384455135567
 21
634.3516704419593
 31
0.0
  0
LINE
  5
FB01
  8
0
 10
586.11384455135567
 20
634.3516704419593
 30
0.0
 11
586.11384455135567
 21
627.35067044195944
 31
0.0
  0
ARC
  5
FB02
  8
0
 10
590.36384455135556
 20
623.90934964549911
 30
0.0
 40
10.44232079646028
 50
73.998062986181026
 51
114.0163707355278
  0
LINE
  5
FB03
  8
0
 10
242.97730938058959
 20
563.22314247712325
 30
0.0
 11
242.97730938058959
 21
555.32656111405947
 31
0.0
  0
LINE
  5
FB04
  8
0
 10
178.97730938058959
 20
555.32656111405947
 30
0.0
 11
178.97730938058959
 21
563.22314247712325
 31
0.0
  0
ARC
  5
FB05
  8
0
 10
210.97730938058959
 20
555.32656111405947
 30
0.0
 40
32.0
 50
180.0
 51
0.0
  0
LINE
  5
FB06
  8
0
 10
250.9773093805895
 20
626.35067044195944
 30
0.0
 11
250.97730938058939
 21
623.94393802895888
 31
0.0
  0
ARC
  5
FB07
  8
0
 10
249.9773093805895
 20
626.35067044195944
 30
0.0
 40
1.0
 50
0.0
 51
90.0
  0
LINE
  5
FB08
  8
0
 10
170.9773093805895
 20
626.35067044195944
 30
0.0
 11
170.97730938058959
 21
623.94393802895854
 31
0.0
  0
ARC
  5
FB09
  8
0
 10
171.9773093805895
 20
626.35067044195944
 30
0.0
 40
1.0
 50
90.0
 51
180.0
  0
LINE
  5
FB0A
  8
0
 10
249.9773093805895
 20
627.35067044195944
 30
0.0
 11
248.57852050100601
 21
627.35067044195944
 31
0.0
  0
LINE
  5
FB0B
  8
0
 10
173.37609826017331
 20
627.35067044195944
 30
0.0
 11
171.9773093805895
 21
627.35067044195944
 31
0.0
  0
LINE
  5
FB0C
  8
0
 10
180.0186030459756
 20
634.3516704419593
 30
0.0
 11
172.4252711801613
 21
634.3516704419593
 31
0.0
  0
LINE
  5
FB0D
  8
0
 10
172.4252711801613
 20
634.3516704419593
 30
0.0
 11
172.4252711801613
 21
627.35067044195944
 31
0.0
  0
ARC
  5
FB0E
  8
0
 10
176.6752711801613
 20
623.90934964549911
 30
0.0
 40
10.44232079646028
 50
73.998062986181012
 51
114.0163707355278
  0
LINE
  5
FB0F
  8
0
 10
241.93601571520369
 20
634.3516704419593
 30
0.0
 11
249.52934758101779
 21
634.3516704419593
 31
0.0
  0
LINE
  5
FB10
  8
0
 10
249.52934758101779
 20
634.3516704419593
 30
0.0
 11
249.52934758101779
 21
627.35067044195944
 31
0.0
  0
ARC
  5
FB11
  8
0
 10
245.27934758101779
 20
623.90934964549911
 30
0.0
 40
10.44232079646028
 50
65.983629264472199
 51
106.0019370138189
  0
CIRCLE
  5
FB12
  8
0
 10
210.97730938058959
 20
535.33582549480184
 30
0.0
 40
11.00926438074225
  0
LINE
  5
FB13
  8
0
 10
477.64870070128433
 20
983.15492371224445
 30
0.0
 11
477.64870070128433
 21
961.36706635505868
 31
0.0
  0
LINE
  5
FB14
  8
0
 10
478.64870070128421
 20
930.36706635505891
 30
0.0
 11
453.58570070128422
 21
930.36706635505891
 31
0.0
  0
ARC
  5
FB15
  8
0
 10
445.64870070128421
 20
961.36706635505868
 30
0.0
 40
32.0
 50
348.11884397898632
 51
0.0
  0
ARC
  5
FB16
  8
0
 10
478.92031022051248
 20
954.36706635505868
 30
0.0
 40
2.0
 50
168.11884397898629
 51
262.19484219869122
  0
ARC
  5
FB17
  8
0
 10
420.76682882685429
 20
933.98290209860477
 30
0.0
 40
5.0
 50
47.741003769912339
 51
105.0001760962263
  0
LINE
  5
FB18
  8
0
 10
402.43998854876207
 20
1022.367066355059
 30
0.0
 11
402.43998854876207
 21
1022.367066355059
 31
0.0
  0
LINE
  5
FB19
  8
0
 10
497.64870070128421
 20
1022.367066355059
 30
0.0
 11
497.64870070128421
 21
1021.367066355058
 31
0.0
  0
ARC
  5
FB1A
  8
0
 10
495.14870070128421
 20
1022.367066355059
 30
0.0
 40
2.5
 50
0.0
 51
23.578178478207171
  0
ARC
  5
FB1B
  8
0
 10
498.64870070128433
 20
1021.367066355058
 30
0.0
 40
1.0
 50
180.0
 51
270.0
  0
LINE
  5
FB1C
  8
0
 10
383.64870070128433
 20
1010.367066355058
 30
0.0
 11
383.64870070128433
 21
998.3670663550588
 31
0.0
  0
ARC
  5
FB1D
  8
0
 10
384.64870070128433
 20
1010.367066355058
 30
0.0
 40
1.0
 50
90.0
 51
180.0
  0
LINE
  5
FB1E
  8
0
 10
395.64870070128433
 20
1010.367066355059
 30
0.0
 11
395.6487007012841
 21
998.3670663550588
 31
0.0
  0
ARC
  5
FB1F
  8
0
 10
394.64870070128421
 20
998.3670663550588
 30
0.0
 40
1.0
 50
270.0
 51
0.0
  0
ARC
  5
FB20
  8
0
 10
394.64870070128433
 20
1010.367066355059
 30
0.0
 40
1.0
 50
0.0
 51
90.0
  0
LINE
  5
FB21
  8
0
 10
485.64870070128433
 20
1020.367066355059
 30
0.0
 11
499.64870070128421
 21
1020.367066355059
 31
0.0
  0
LINE
  5
FB22
  8
0
 10
402.64870070128433
 20
1023.367066355059
 30
0.0
 11
497.43998854876207
 21
1023.367066355059
 31
0.0
  0
ARC
  5
FB23
  8
0
 10
479.14870070128421
 20
993.8670663550588
 30
0.0
 40
7.0
 50
283.1365587869393
 51
300.27264131890541
  0
ARC
  5
FB24
  8
0
 10
481.64870070128433
 20
983.15492371224445
 30
0.0
 40
4.0
 50
103.1365587869394
 51
180.0
  0
ARC
  5
FB25
  8
0
 10
484.69396895448881
 20
984.3670663550588
 30
0.0
 40
4.0
 50
90.0
 51
120.2726413189053
  0
LINE
  5
FB26
  8
0
 10
484.69396895448881
 20
988.36706635505868
 30
0.0
 11
499.64870070128421
 21
988.36706635505868
 31
0.0
  0
LINE
  5
FB27
  8
0
 10
381.64870070128433
 20
1020.367066355059
 30
0.0
 11
399.53166163556619
 21
1020.367066355059
 31
0.0
  0
LINE
  5
FB28
  8
0
 10
419.47271875768058
 20
938.81252725267893
 30
0.0
 11
390.60814555574831
 21
931.07819308980675
 31
0.0
  0
LINE
  5
FB29
  8
0
 10
391.6667007012843
 20
964.72212020245888
 30
0.0
 11
391.6667007012843
 21
985.36731635505862
 31
0.0
  0
ARC
  5
FB2A
  8
0
 10
388.6667007012843
 20
985.36731635505862
 30
0.0
 40
3.0
 50
0.0
 51
90.0
  0
LINE
  5
FB2B
  8
0
 10
389.44316674278849
 20
961.82434511001429
 30
0.0
 11
382.84252641966998
 21
960.05568712256468
 31
0.0
  0
ARC
  5
FB2C
  8
0
 10
388.6667007012843
 20
964.72212020245865
 30
0.0
 40
3.0
 50
285.00017609622643
 51
0.0
  0
ARC
  5
FB2D
  8
0
 10
390.09050152807868
 20
933.01004315143632
 30
0.0
 40
2.0
 50
270.51308777825483
 51
285.00017609622643
  0
LINE
  5
FB2E
  8
0
 10
390.10841143086532
 20
931.01012334419852
 30
0.0
 11
382.37595956982869
 21
959.86490826814895
 31
0.0
  0
LINE
  5
FB2F
  8
0
 10
388.25298579096261
 20
934.07060408421864
 30
0.0
 11
382.29954754282829
 21
956.28673724549378
 31
0.0
  0
ARC
  5
FB30
  8
0
 10
383.36017044733939
 20
958.12383706093522
 30
0.0
 40
2.0
 50
105.0001760962263
 51
119.4790601395829
  0
LINE
  5
FB31
  8
0
 10
388.6667007012843
 20
988.36731635505862
 30
0.0
 11
381.64870070128433
 21
988.36681635505875
 31
0.0
  0
ARC
  5
FB32
  8
0
 10
399.53166163556619
 20
1023.367066355059
 30
0.0
 40
3.0
 50
270.0
 51
349.524318303607
  0
ARC
  5
FB33
  8
0
 10
404.93998854876207
 20
1022.367066355059
 30
0.0
 40
2.5
 50
156.42182152179279
 51
169.52431830360689
  0
LINE
  5
FB34
  8
0
 10
478.64870070128421
 20
952.3855951165433
 30
0.0
 11
478.64870070128421
 21
930.36706635505891
 31
0.0
  0
ARC
  5
FB35
  8
0
 10
445.64870070128421
 20
961.36706635505868
 30
0.0
 40
32.0
 50
180.0
 51
0.0
  0
LINE
  5
FB36
  8
0
 10
402.64870070128433
 20
1023.367066355059
 30
0.0
 11
402.64870070128433
 21
1015.367066355059
 31
0.0
  0
ARC
  5
FB37
  8
0
 10
404.64870070128421
 20
1015.367066355059
 30
0.0
 40
2.0
 50
180.0
 51
270.0
  0
LINE
  5
FB38
  8
0
 10
410.52537994724662
 20
986.39843938846207
 30
0.0
 11
476.6075649591441
 21
986.39843938846207
 31
0.0
  0
ARC
  5
FB39
  8
0
 10
410.52537994724662
 20
991.39843938846195
 30
0.0
 40
5.0
 50
180.0
 51
270.0
  0
LINE
  5
FB3A
  8
0
 10
485.64870070128433
 20
1023.367066355059
 30
0.0
 11
485.64870070128433
 21
1015.367066355059
 31
0.0
  0
LINE
  5
FB3B
  8
0
 10
405.52537994724662
 20
1013.367066355058
 30
0.0
 11
405.52537994724662
 21
991.39843938846195
 31
0.0
  0
LINE
  5
FB3C
  8
0
 10
404.64870070128421
 20
1013.367066355058
 30
0.0
 11
483.64870070128421
 21
1013.367066355058
 31
0.0
  0
ARC
  5
FB3D
  8
0
 10
483.64870070128421
 20
1015.367066355059
 30
0.0
 40
2.0
 50
270.0
 51
0.0
  0
LINE
  5
FB3E
  8
0
 10
481.6075649591441
 20
1013.367066355059
 30
0.0
 11
481.6075649591441
 21
991.39843938846195
 31
0.0
  0
ARC
  5
FB3F
  8
0
 10
476.6075649591441
 20
991.39843938846195
 30
0.0
 40
5.0
 50
270.0
 51
0.0
  0
LINE
  5
FB40
  8
0
 10
413.64870070128421
 20
961.36706635505868
 30
0.0
 11
413.64870070128421
 21
986.39843938846207
 31
0.0
  0
LINE
  5
FB41
  8
0
 10
402.64870070128433
 20
1033.367066355059
 30
0.0
 11
484.64870070128438
 21
1033.367066355059
 31
0.0
  0
LINE
  5
FB42
  8
0
 10
441.6487007012841
 20
1048.367066355059
 30
0.0
 11
449.64870070128433
 21
1048.367066355059
 31
0.0
  0
ARC
  5
FB43
  8
0
 10
459.64870070128438
 20
1035.367066355059
 30
0.0
 40
2.0
 50
180.0
 51
270.0
  0
LINE
  5
FB44
  8
0
 10
457.64870070128433
 20
1040.367066355059
 30
0.0
 11
457.64870070128433
 21
1035.367066355059
 31
0.0
  0
ARC
  5
FB45
  8
0
 10
449.64870070128433
 20
1040.367066355059
 30
0.0
 40
8.0
 50
0.0
 51
90.0
  0
LINE
  5
FB46
  8
0
 10
402.64870070128433
 20
1023.367066355059
 30
0.0
 11
402.64870070128433
 21
1044.3429570271589
 31
0.0
  0
ARC
  5
FB47
  8
0
 10
404.64870070128421
 20
1044.3429570271589
 30
0.0
 40
2.0
 50
90.0
 51
180.0
  0
LINE
  5
FB48
  8
0
 10
435.61668876605847
 20
1046.3429570271589
 30
0.0
 11
404.64870070128421
 21
1046.3429570271589
 31
0.0
  0
LINE
  5
FB49
  8
0
 10
485.64870070128438
 20
1023.367066355059
 30
0.0
 11
485.64870070128438
 21
1032.367066355059
 31
0.0
  0
ARC
  5
FB4A
  8
0
 10
484.64870070128438
 20
1032.367066355059
 30
0.0
 40
1.0
 50
0.0
 51
90.0
  0
ARC
  5
FB4B
  8
0
 10
435.61668876605847
 20
1048.3429570271589
 30
0.0
 40
2.0
 50
270.0
 51
307.0995119271908
  0
LINE
  5
FB4C
  8
0
 10
433.6487007012841
 20
1040.367066355059
 30
0.0
 11
433.6487007012841
 21
1035.367066355059
 31
0.0
  0
ARC
  5
FB4D
  8
0
 10
441.6487007012841
 20
1040.367066355059
 30
0.0
 40
8.0
 50
90.0
 51
180.0
  0
ARC
  5
FB4E
  8
0
 10
431.6487007012841
 20
1035.367066355059
 30
0.0
 40
2.0
 50
270.0
 51
0.0
  0
LINE
  5
FB4F
  8
0
 10
467.45073890171261
 20
1040.368066355059
 30
0.0
 11
483.95073890171261
 21
1040.368066355059
 31
0.0
  0
ARC
  5
FB50
  8
0
 10
483.0617389017126
 20
1035.536742289642
 30
0.0
 40
4.6309815714167701
 50
58.000676159490858
 51
121.99932384050911
  0
LINE
  5
FB51
  8
0
 10
470.35773890171259
 20
1039.705066355059
 30
0.0
 11
469.88773890171262
 21
1039.9010663550589
 31
0.0
  0
LINE
  5
FB52
  8
0
 10
465.8857389017125
 20
1033.367066355059
 30
0.0
 11
465.8857389017125
 21
1039.464066355059
 31
0.0
  0
LINE
  5
FB53
  8
0
 10
465.8857389017125
 20
1039.464066355059
 30
0.0
 11
467.45073890171261
 21
1040.368066355059
 31
0.0
  0
LINE
  5
FB54
  8
0
 10
466.79173890171262
 20
1039.9020663550591
 30
0.0
 11
465.8857389017125
 21
1039.464066355059
 31
0.0
  0
LINE
  5
FB55
  8
0
 10
467.29073890171259
 20
1040.0470663550591
 30
0.0
 11
466.79173890171262
 21
1039.9020663550591
 31
0.0
  0
LINE
  5
FB56
  8
0
 10
467.81073890171263
 20
1040.137066355059
 30
0.0
 11
467.29073890171259
 21
1040.0470663550591
 31
0.0
  0
LINE
  5
FB57
  8
0
 10
468.33973890171262
 20
1040.168066355059
 30
0.0
 11
467.81073890171263
 21
1040.137066355059
 31
0.0
  0
LINE
  5
FB58
  8
0
 10
468.8687389017125
 20
1040.137066355059
 30
0.0
 11
468.33973890171262
 21
1040.168066355059
 31
0.0
  0
LINE
  5
FB59
  8
0
 10
469.38773890171262
 20
1040.0470663550591
 30
0.0
 11
468.8687389017125
 21
1040.137066355059
 31
0.0
  0
LINE
  5
FB5A
  8
0
 10
469.88773890171262
 20
1039.9010663550589
 30
0.0
 11
469.38773890171262
 21
1040.0470663550591
 31
0.0
  0
LINE
  5
FB5B
  8
0
 10
480.60773890171259
 20
1039.464066355059
 30
0.0
 11
480.60773890171259
 21
1033.367066355059
 31
0.0
  0
LINE
  5
FB5C
  8
0
 10
470.79373890171252
 20
1039.464066355059
 30
0.0
 11
470.79373890171252
 21
1033.367066355059
 31
0.0
  0
ARC
  5
FB5D
  8
0
 10
475.7007389017125
 20
1022.705074761945
 30
0.0
 40
17.462601416113358
 50
73.680072331667475
 51
106.3199276683321
  0
LINE
  5
FB5E
  8
0
 10
470.79373890171252
 20
1039.464066355059
 30
0.0
 11
470.35773890171259
 21
1039.705066355059
 31
0.0
  0
LINE
  5
FB5F
  8
0
 10
485.51573890171272
 20
1039.464066355059
 30
0.0
 11
485.51573890171272
 21
1033.367066355059
 31
0.0
  0
LINE
  5
FB60
  8
0
 10
483.95073890171261
 20
1040.368066355059
 30
0.0
 11
485.51573890171272
 21
1039.464066355059
 31
0.0
  0
LINE
  5
FB61
  8
0
 10
485.51573890171272
 20
1033.367066355059
 30
0.0
 11
484.64870070128438
 21
1033.367066355059
 31
0.0
  0
LINE
  5
FB62
  8
0
 10
407.33737826834158
 20
1040.368066355059
 30
0.0
 11
423.83737826834158
 21
1040.368066355059
 31
0.0
  0
ARC
  5
FB63
  8
0
 10
422.94837826834163
 20
1035.536742289642
 30
0.0
 40
4.6309815714167701
 50
58.000676159490858
 51
121.99932384050911
  0
LINE
  5
FB64
  8
0
 10
410.24437826834168
 20
1039.705066355059
 30
0.0
 11
409.77437826834171
 21
1039.9010663550589
 31
0.0
  0
LINE
  5
FB65
  8
0
 10
405.7723782683417
 20
1033.367066355059
 30
0.0
 11
405.7723782683417
 21
1039.464066355059
 31
0.0
  0
LINE
  5
FB66
  8
0
 10
405.7723782683417
 20
1039.464066355059
 30
0.0
 11
407.33737826834158
 21
1040.368066355059
 31
0.0
  0
LINE
  5
FB67
  8
0
 10
406.67837826834159
 20
1039.9020663550591
 30
0.0
 11
405.7723782683417
 21
1039.464066355059
 31
0.0
  0
LINE
  5
FB68
  8
0
 10
407.17737826834173
 20
1040.0470663550591
 30
0.0
 11
406.67837826834159
 21
1039.9020663550591
 31
0.0
  0
LINE
  5
FB69
  8
0
 10
407.69737826834171
 20
1040.137066355059
 30
0.0
 11
407.17737826834173
 21
1040.0470663550591
 31
0.0
  0
LINE
  5
FB6A
  8
0
 10
408.22637826834159
 20
1040.168066355059
 30
0.0
 11
407.69737826834171
 21
1040.137066355059
 31
0.0
  0
LINE
  5
FB6B
  8
0
 10
408.7553782683417
 20
1040.137066355059
 30
0.0
 11
408.22637826834159
 21
1040.168066355059
 31
0.0
  0
LINE
  5
FB6C
  8
0
 10
409.27437826834171
 20
1040.0470663550591
 30
0.0
 11
408.7553782683417
 21
1040.137066355059
 31
0.0
  0
LINE
  5
FB6D
  8
0
 10
409.77437826834171
 20
1039.9010663550589
 30
0.0
 11
409.27437826834171
 21
1040.0470663550591
 31
0.0
  0
LINE
  5
FB6E
  8
0
 10
420.49437826834168
 20
1039.464066355059
 30
0.0
 11
420.49437826834168
 21
1033.367066355059
 31
0.0
  0
LINE
  5
FB6F
  8
0
 10
410.6803782683416
 20
1039.464066355059
 30
0.0
 11
410.6803782683416
 21
1033.367066355059
 31
0.0
  0
ARC
  5
FB70
  8
0
 10
415.58737826834169
 20
1022.705074761946
 30
0.0
 40
17.462601416113358
 50
73.680072331667475
 51
106.3199276683321
  0
LINE
  5
FB71
  8
0
 10
410.6803782683416
 20
1039.464066355059
 30
0.0
 11
410.24437826834168
 21
1039.705066355059
 31
0.0
  0
LINE
  5
FB72
  8
0
 10
425.40237826834158
 20
1039.464066355059
 30
0.0
 11
425.40237826834158
 21
1033.367066355059
 31
0.0
  0
LINE
  5
FB73
  8
0
 10
423.83737826834158
 20
1040.368066355059
 30
0.0
 11
425.40237826834158
 21
1039.464066355059
 31
0.0
  0
LINE
  5
FB74
  8
0
 10
394.64870070128421
 20
997.3670663550588
 30
0.0
 11
384.64870070128433
 21
997.3670663550588
 31
0.0
  0
ARC
  5
FB75
  8
0
 10
384.64870070128433
 20
998.3670663550588
 30
0.0
 40
1.0
 50
180.0
 51
270.0
  0
LINE
  5
FB76
  8
0
 10
394.64870070128433
 20
1011.367066355059
 30
0.0
 11
384.64870070128433
 21
1011.367066355058
 31
0.0
  0
LINE
  5
FB77
  8
0
 10
387.60563807281801
 20
936.4853382282547
 30
0.0
 11
382.29984764821643
 21
956.28681766718034
 31
0.0
  0
LINE
  5
FB78
  8
0
 10
386.4826336243234
 20
937.33048082489756
 30
0.0
 11
381.39413637143252
 21
935.96702209529758
 31
0.0
  0
LINE
  5
FB79
  8
0
 10
381.39413637143252
 20
935.96702209529758
 30
0.0
 11
380.64537287395092
 21
938.7614455107522
 31
0.0
  0
LINE
  5
FB7A
  8
0
 10
380.64537287395092
 20
938.7614455107522
 30
0.0
 11
385.73387012684179
 21
940.12490424035241
 31
0.0
  0
LINE
  5
FB7B
  8
0
 10
385.73387012684179
 20
940.12490424035241
 30
0.0
 11
386.4826336243234
 21
937.33048082489756
 31
0.0
  0
LINE
  5
FB7C
  8
0
 10
382.29984764821643
 20
956.28681766718034
 30
0.0
 11
381.07512731499628
 21
957.51156911355565
 31
0.0
  0
LINE
  5
FB7D
  8
0
 10
381.07512731499628
 20
957.51156911355565
 30
0.0
 11
375.98663006210541
 21
956.14811038395555
 31
0.0
  0
LINE
  5
FB7E
  8
0
 10
375.98663006210541
 20
956.14811038395555
 30
0.0
 11
375.53836686419299
 21
954.47508435146312
 31
0.0
  0
LINE
  5
FB7F
  8
0
 10
375.53836686419299
 20
954.47508435146312
 30
0.0
 11
381.49120490155087
 21
932.25879034681429
 31
0.0
  0
LINE
  5
FB80
  8
0
 10
381.49120490155087
 20
932.25879034681429
 30
0.0
 11
382.71592523477102
 21
931.03403890043944
 31
0.0
  0
LINE
  5
FB81
  8
0
 10
382.71592523477102
 20
931.03403890043944
 30
0.0
 11
387.8044224876619
 21
932.39749763003965
 31
0.0
  0
LINE
  5
FB82
  8
0
 10
387.8044224876619
 20
932.39749763003965
 30
0.0
 11
388.25268568557448
 21
934.07052366253197
 31
0.0
  0
LINE
  5
FB83
  8
0
 10
388.25268568557448
 20
934.07052366253197
 30
0.0
 11
387.60563807281801
 21
936.4853382282547
 31
0.0
  0
LINE
  5
FB84
  8
0
 10
382.396916178335
 20
952.57858591869706
 30
0.0
 11
377.30841892544407
 21
951.21512718909707
 31
0.0
  0
LINE
  5
FB85
  8
0
 10
377.30841892544407
 20
951.21512718909707
 30
0.0
 11
378.05718242292568
 21
948.4207037736428
 31
0.0
  0
LINE
  5
FB86
  8
0
 10
378.05718242292568
 20
948.4207037736428
 30
0.0
 11
383.14567967581638
 21
949.78416250324278
 31
0.0
  0
LINE
  5
FB87
  8
0
 10
383.14567967581638
 20
949.78416250324278
 30
0.0
 11
382.396916178335
 21
952.57858591869706
 31
0.0
  0
ARC
  5
FB88
  8
0
 10
379.8656448315661
 20
954.54391153218376
 30
0.0
 40
4.1976433314087407
 50
157.5320517966469
 51
232.46794820336521
  0
ARC
  5
FB89
  8
0
 10
392.87537914280688
 20
947.21484671597
 30
0.0
 40
14.867180138568379
 50
175.34770562304959
 51
214.65229437695149
  0
ARC
  5
FB8A
  8
0
 10
385.2731511408935
 20
934.36282324352555
 30
0.0
 40
4.1976433314087407
 50
157.5320517966469
 51
232.46794820336521
  0
ARC
  5
FB8B
  8
0
 10
378.5179014088742
 20
954.18278477046897
 30
0.0
 40
4.1976433314087407
 50
337.53205179664701
 51
52.467948203350929
  0
ARC
  5
FB8C
  8
0
 10
370.91567340696042
 20
941.33076129802475
 30
0.0
 40
14.867180138568379
 50
355.34770562304971
 51
34.652294376951453
  0
ARC
  5
FB8D
  8
0
 10
383.92540771820109
 20
934.00169648181043
 30
0.0
 40
4.1976433314087407
 50
337.53205179664701
 51
52.46794820335608
  0
LINE
  5
FB8E
  8
0
 10
485.64870070128438
 20
1010.367066355058
 30
0.0
 11
485.64870070128438
 21
998.3670663550588
 31
0.0
  0
ARC
  5
FB8F
  8
0
 10
486.64870070128433
 20
1010.367066355058
 30
0.0
 40
1.0
 50
90.0
 51
180.0
  0
LINE
  5
FB90
  8
0
 10
497.64870070128421
 20
1010.367066355059
 30
0.0
 11
497.64870070128421
 21
998.3670663550588
 31
0.0
  0
ARC
  5
FB91
  8
0
 10
496.64870070128421
 20
998.3670663550588
 30
0.0
 40
1.0
 50
270.0
 51
0.0
  0
ARC
  5
FB92
  8
0
 10
496.64870070128421
 20
1010.367066355059
 30
0.0
 40
1.0
 50
0.0
 51
90.0
  0
LINE
  5
FB93
  8
0
 10
496.64870070128421
 20
997.3670663550588
 30
0.0
 11
486.64870070128433
 21
997.3670663550588
 31
0.0
  0
ARC
  5
FB94
  8
0
 10
486.64870070128433
 20
998.3670663550588
 30
0.0
 40
1.0
 50
180.0
 51
270.0
  0
LINE
  5
FB95
  8
0
 10
496.64870070128421
 20
1011.367066355059
 30
0.0
 11
486.64870070128433
 21
1011.367066355058
 31
0.0
  0
LINE
  5
FB96
  8
0
 10
382.29954754282829
 20
956.28673724549378
 30
0.0
 11
383.26546637627962
 21
956.54558238681159
 31
0.0
  0
LINE
  5
FB97
  8
0
 10
388.25268568557448
 20
934.07052366253197
 30
0.0
 11
389.21890462441411
 21
934.32944922553634
 31
0.0
  0
LINE
  5
FB98
  8
0
 10
462.16313500352533
 20
821.45583193626408
 30
0.0
 11
462.16313500352521
 21
803.45583193626385
 31
0.0
  0
ARC
  5
FB99
  8
0
 10
460.16313500352521
 20
803.45583193626385
 30
0.0
 40
2.0
 50
270.0
 51
0.0
  0
LINE
  5
FB9A
  8
0
 10
428.16313500352533
 20
821.45583193626408
 30
0.0
 11
428.16313500352521
 21
803.45583193626385
 31
0.0
  0
ARC
  5
FB9B
  8
0
 10
430.16313500352533
 20
821.45583193626408
 30
0.0
 40
2.0
 50
90.0
 51
180.0
  0
LINE
  5
FB9C
  8
0
 10
548.14870070128427
 20
645.82656111405947
 30
0.0
 11
548.14870070128427
 21
550.82656111405947
 31
0.0
  0
LINE
  5
FB9D
  8
0
 10
538.14870070128416
 20
645.82656111405947
 30
0.0
 11
548.14870070128427
 21
645.82656111405947
 31
0.0
  0
LINE
  5
FB9E
  8
0
 10
538.14870070128416
 20
550.82656111405947
 30
0.0
 11
548.14870070128427
 21
550.82656111405947
 31
0.0
  0
LINE
  5
FB9F
  8
0
 10
536.14870070128427
 20
643.82656111405959
 30
0.0
 11
536.14870070128427
 21
552.8265611140597
 31
0.0
  0
LINE
  5
FBA0
  8
0
 10
513.31376421074526
 20
614.32656111405959
 30
0.0
 11
532.14870070128427
 21
614.32656111405959
 31
0.0
  0
LINE
  5
FBA1
  8
0
 10
513.31376421074526
 20
582.32656111405959
 30
0.0
 11
532.14870070128427
 21
582.32656111405959
 31
0.0
  0
ARC
  5
FBA2
  8
0
 10
532.14870070128427
 20
618.32656111405959
 30
0.0
 40
4.0
 50
270.0
 51
0.0
  0
ARC
  5
FBA3
  8
0
 10
532.14870070128427
 20
578.32656111405959
 30
0.0
 40
4.0
 50
0.0
 51
90.0
  0
LINE
  5
FBA4
  8
0
 10
536.14870070128427
 20
643.82656111405959
 30
0.0
 11
538.14870070128416
 21
645.82656111405947
 31
0.0
  0
LINE
  5
FBA5
  8
0
 10
536.14870070128427
 20
552.82656111405959
 30
0.0
 11
538.14870070128416
 21
550.82656111405947
 31
0.0
  0
LINE
  5
FBA6
  8
0
 10
513.31376421074526
 20
614.32656111405959
 30
0.0
 11
513.31376421074526
 21
582.32656111405959
 31
0.0
  0
ARC
  5
FBA7
  8
0
 10
511.48123245601488
 20
610.42581844028496
 30
0.0
 40
4.3097524336210657
 50
64.836309081296235
 51
115.16369091871231
  0
ARC
  5
FBA8
  8
0
 10
511.48123245601488
 20
586.22730378783422
 30
0.0
 40
4.3097524336210657
 50
244.83630908129621
 51
295.16369091870382
  0
LINE
  5
FBA9
  8
0
 10
509.6487007012841
 20
614.32656111405959
 30
0.0
 11
509.64870070128421
 21
582.32631111405954
 31
0.0
  0
LINE
  5
FBAA
  8
0
 10
353.14870070128433
 20
645.82656111405947
 30
0.0
 11
353.14870070128433
 21
550.82656111405947
 31
0.0
  0
LINE
  5
FBAB
  8
0
 10
363.14870070128433
 20
645.82656111405947
 30
0.0
 11
353.14870070128433
 21
645.82656111405947
 31
0.0
  0
LINE
  5
FBAC
  8
0
 10
363.14870070128433
 20
550.82656111405947
 30
0.0
 11
353.14870070128433
 21
550.82656111405947
 31
0.0
  0
LINE
  5
FBAD
  8
0
 10
365.14870070128433
 20
643.82656111405959
 30
0.0
 11
365.14870070128433
 21
552.8265611140597
 31
0.0
  0
LINE
  5
FBAE
  8
0
 10
387.98363719182322
 20
614.32656111405959
 30
0.0
 11
369.14870070128433
 21
614.32656111405959
 31
0.0
  0
LINE
  5
FBAF
  8
0
 10
387.98363719182322
 20
582.32656111405959
 30
0.0
 11
369.14870070128433
 21
582.32656111405959
 31
0.0
  0
ARC
  5
FBB0
  8
0
 10
369.14870070128433
 20
618.32656111405959
 30
0.0
 40
4.0
 50
180.0
 51
270.0
  0
ARC
  5
FBB1
  8
0
 10
369.14870070128433
 20
578.32656111405959
 30
0.0
 40
4.0
 50
90.0
 51
180.0
  0
LINE
  5
FBB2
  8
0
 10
365.14870070128433
 20
643.82656111405959
 30
0.0
 11
363.14870070128433
 21
645.82656111405947
 31
0.0
  0
LINE
  5
FBB3
  8
0
 10
365.14870070128433
 20
552.82656111405959
 30
0.0
 11
363.14870070128433
 21
550.82656111405947
 31
0.0
  0
LINE
  5
FBB4
  8
0
 10
387.98363719182322
 20
614.32656111405959
 30
0.0
 11
387.98363719182322
 21
582.32656111405959
 31
0.0
  0
ARC
  5
FBB5
  8
0
 10
389.8161689465536
 20
610.42581844028496
 30
0.0
 40
4.3097524336210657
 50
64.836309081296235
 51
115.16369091870369
  0
ARC
  5
FBB6
  8
0
 10
389.8161689465536
 20
586.22730378783422
 30
0.0
 40
4.3097524336210657
 50
244.83630908129621
 51
295.16369091870382
  0
LINE
  5
FBB7
  8
0
 10
363.14870070128433
 20
645.82656111405947
 30
0.0
 11
363.14870070128433
 21
550.82656111405947
 31
0.0
  0
LINE
  5
FBB8
  8
0
 10
538.14870070128416
 20
645.82656111405947
 30
0.0
 11
538.14870070128416
 21
550.82656111405947
 31
0.0
  0
LINE
  5
FBB9
  8
0
 10
507.64870070128421
 20
604.32656111405947
 30
0.0
 11
507.64870070128421
 21
592.32656111405947
 31
0.0
  0
ARC
  5
FBBA
  8
0
 10
506.6487007012841
 20
592.32656111405947
 30
0.0
 40
1.0
 50
270.0
 51
0.0
  0
ARC
  5
FBBB
  8
0
 10
506.64870070128433
 20
604.32656111405947
 30
0.0
 40
1.0
 50
0.0
 51
90.0
  0
CIRCLE
  5
FBBC
  8
0
 10
649.41462009331281
 20
623.07529845558872
 30
0.0
 40
7.5
  0
CIRCLE
  5
FBBD
  8
0
 10
649.41462009331281
 20
573.57782377253045
 30
0.0
 40
7.5
  0
CIRCLE
  5
FBBE
  8
0
 10
624.66588275178356
 20
598.32656111405959
 30
0.0
 40
47.5
  0
CIRCLE
  5
FBBF
  8
0
 10
599.91714541025431
 20
623.07529845558872
 30
0.0
 40
7.5
  0
CIRCLE
  5
FBC0
  8
0
 10
599.91714541025431
 20
573.57782377253045
 30
0.0
 40
7.5
  0
CIRCLE
  5
FBC1
  8
0
 10
235.72604672211889
 20
623.07529845558872
 30
0.0
 40
7.5
  0
CIRCLE
  5
FBC2
  8
0
 10
235.72604672211889
 20
573.57782377253045
 30
0.0
 40
7.5
  0
CIRCLE
  5
FBC3
  8
0
 10
210.97730938058959
 20
598.32656111405959
 30
0.0
 40
47.5
  0
CIRCLE
  5
FBC4
  8
0
 10
186.2285720390604
 20
623.07529845558872
 30
0.0
 40
7.5
  0
CIRCLE
  5
FBC5
  8
0
 10
186.2285720390604
 20
573.57782377253045
 30
0.0
 40
7.5
  0
LINE
  5
FBC6
  8
0
 10
391.64870070128433
 20
614.32656111405959
 30
0.0
 11
391.64870070128438
 21
582.32656111405959
 31
0.0
  0
LINE
  5
FBC7
  8
0
 10
548.14870070128427
 20
832.95595693626399
 30
0.0
 11
548.14870070128427
 21
737.9559569362641
 31
0.0
  0
LINE
  5
FBC8
  8
0
 10
538.14870070128416
 20
832.95595693626399
 30
0.0
 11
548.14870070128427
 21
832.95595693626399
 31
0.0
  0
LINE
  5
FBC9
  8
0
 10
538.14870070128416
 20
737.9559569362641
 30
0.0
 11
548.14870070128427
 21
737.9559569362641
 31
0.0
  0
LINE
  5
FBCA
  8
0
 10
536.14870070128427
 20
830.95595693626399
 30
0.0
 11
536.14870070128427
 21
739.95595693626422
 31
0.0
  0
LINE
  5
FBCB
  8
0
 10
513.31376421074526
 20
801.45595693626399
 30
0.0
 11
532.14870070128427
 21
801.45595693626399
 31
0.0
  0
LINE
  5
FBCC
  8
0
 10
513.31376421074526
 20
769.4559569362641
 30
0.0
 11
532.14870070128427
 21
769.4559569362641
 31
0.0
  0
ARC
  5
FBCD
  8
0
 10
532.14870070128427
 20
805.4559569362641
 30
0.0
 40
4.0
 50
270.0
 51
0.0
  0
ARC
  5
FBCE
  8
0
 10
532.14870070128427
 20
765.4559569362641
 30
0.0
 40
4.0
 50
0.0
 51
90.0
  0
LINE
  5
FBCF
  8
0
 10
536.14870070128427
 20
830.95595693626399
 30
0.0
 11
538.14870070128416
 21
832.95595693626399
 31
0.0
  0
LINE
  5
FBD0
  8
0
 10
536.14870070128427
 20
739.9559569362641
 30
0.0
 11
538.14870070128416
 21
737.9559569362641
 31
0.0
  0
LINE
  5
FBD1
  8
0
 10
513.31376421074526
 20
801.45595693626399
 30
0.0
 11
513.31376421074526
 21
769.4559569362641
 31
0.0
  0
ARC
  5
FBD2
  8
0
 10
511.48123245601488
 20
797.55521426248936
 30
0.0
 40
4.3097524336210657
 50
64.836309081296235
 51
115.16369091871231
  0
ARC
  5
FBD3
  8
0
 10
511.48123245601488
 20
773.35669961003873
 30
0.0
 40
4.3097524336210657
 50
244.83630908129621
 51
295.16369091870382
  0
LINE
  5
FBD4
  8
0
 10
353.14870070128433
 20
832.95595693626399
 30
0.0
 11
353.14870070128433
 21
737.9559569362641
 31
0.0
  0
LINE
  5
FBD5
  8
0
 10
363.14870070128433
 20
832.95595693626399
 30
0.0
 11
353.14870070128433
 21
832.95595693626399
 31
0.0
  0
LINE
  5
FBD6
  8
0
 10
363.14870070128433
 20
737.9559569362641
 30
0.0
 11
353.14870070128433
 21
737.9559569362641
 31
0.0
  0
LINE
  5
FBD7
  8
0
 10
365.14870070128433
 20
830.95595693626399
 30
0.0
 11
365.14870070128433
 21
739.95595693626422
 31
0.0
  0
LINE
  5
FBD8
  8
0
 10
387.98363719182322
 20
801.45595693626399
 30
0.0
 11
369.14870070128433
 21
801.45595693626399
 31
0.0
  0
LINE
  5
FBD9
  8
0
 10
387.98363719182322
 20
769.4559569362641
 30
0.0
 11
369.14870070128433
 21
769.4559569362641
 31
0.0
  0
ARC
  5
FBDA
  8
0
 10
369.14870070128433
 20
805.4559569362641
 30
0.0
 40
4.0
 50
180.0
 51
270.0
  0
ARC
  5
FBDB
  8
0
 10
369.14870070128433
 20
765.4559569362641
 30
0.0
 40
4.0
 50
90.0
 51
180.0
  0
LINE
  5
FBDC
  8
0
 10
365.14870070128433
 20
830.95595693626399
 30
0.0
 11
363.14870070128433
 21
832.95595693626399
 31
0.0
  0
LINE
  5
FBDD
  8
0
 10
365.14870070128433
 20
739.9559569362641
 30
0.0
 11
363.14870070128433
 21
737.9559569362641
 31
0.0
  0
LINE
  5
FBDE
  8
0
 10
387.98363719182322
 20
801.45595693626399
 30
0.0
 11
387.98363719182322
 21
769.4559569362641
 31
0.0
  0
ARC
  5
FBDF
  8
0
 10
389.8161689465536
 20
797.55521426248936
 30
0.0
 40
4.3097524336210657
 50
64.836309081296235
 51
115.16369091870369
  0
ARC
  5
FBE0
  8
0
 10
389.8161689465536
 20
773.35669961003873
 30
0.0
 40
4.3097524336210657
 50
244.83630908129621
 51
295.16369091870382
  0
LINE
  5
FBE1
  8
0
 10
363.14870070128433
 20
832.95595693626399
 30
0.0
 11
363.14870070128433
 21
737.9559569362641
 31
0.0
  0
LINE
  5
FBE2
  8
0
 10
538.14870070128416
 20
832.95595693626399
 30
0.0
 11
538.14870070128416
 21
737.9559569362641
 31
0.0
  0
LINE
  5
FBE3
  8
0
 10
391.64870070128433
 20
801.45595693626399
 30
0.0
 11
391.64870070128433
 21
769.4559569362641
 31
0.0
  0
LINE
  5
FBE4
  8
0
 10
509.6487007012841
 20
801.45595693626399
 30
0.0
 11
509.64870070128421
 21
769.45570693626405
 31
0.0
  0
LINE
  5
FBE5
  8
0
 10
975.27546246619602
 20
577.11441847124524
 30
0.0
 11
975.27546246619602
 21
555.32656111405947
 31
0.0
  0
LINE
  5
FBE6
  8
0
 10
974.27546246619602
 20
524.32656111405947
 30
0.0
 11
999.33846246619612
 21
524.32656111405947
 31
0.0
  0
ARC
  5
FBE7
  8
0
 10
1007.275462466196
 20
555.32656111405947
 30
0.0
 40
32.0
 50
180.0
 51
191.8811560210136
  0
ARC
  5
FBE8
  8
0
 10
974.00385294696775
 20
548.32656111405959
 30
0.0
 40
2.0
 50
277.80515780130878
 51
11.88115602101362
  0
ARC
  5
FBE9
  8
0
 10
1032.157334340626
 20
527.94239685760567
 30
0.0
 40
5.0
 50
74.999823903773546
 51
132.25899623008769
  0
LINE
  5
FBEA
  8
0
 10
1050.484174618718
 20
616.32656111405947
 30
0.0
 11
1050.484174618718
 21
616.32656111405947
 31
0.0
  0
LINE
  5
FBEB
  8
0
 10
955.27546246619613
 20
616.32656111405947
 30
0.0
 11
955.27546246619613
 21
615.32656111405959
 31
0.0
  0
ARC
  5
FBEC
  8
0
 10
957.77546246619613
 20
616.32656111405947
 30
0.0
 40
2.5
 50
156.42182152179279
 51
180.0
  0
ARC
  5
FBED
  8
0
 10
954.27546246619613
 20
615.32656111405959
 30
0.0
 40
1.0
 50
270.0
 51
0.0
  0
LINE
  5
FBEE
  8
0
 10
1057.2754624661959
 20
604.32656111405947
 30
0.0
 11
1057.2754624661959
 21
592.32656111405947
 31
0.0
  0
ARC
  5
FBEF
  8
0
 10
1058.2754624661959
 20
592.32656111405947
 30
0.0
 40
1.0
 50
180.0
 51
270.0
  0
ARC
  5
FBF0
  8
0
 10
1058.2754624661959
 20
604.32656111405947
 30
0.0
 40
1.0
 50
90.0
 51
180.0
  0
LINE
  5
FBF1
  8
0
 10
967.27546246619602
 20
614.32656111405959
 30
0.0
 11
954.44052597565155
 21
614.32656111405959
 31
0.0
  0
LINE
  5
FBF2
  8
0
 10
1050.2754624661959
 20
617.32656111405947
 30
0.0
 11
955.48417461871816
 21
617.32656111405947
 31
0.0
  0
ARC
  5
FBF3
  8
0
 10
973.77546246619613
 20
587.82656111405947
 30
0.0
 40
7.0
 50
239.72735868109459
 51
256.8634412130607
  0
ARC
  5
FBF4
  8
0
 10
971.27546246619613
 20
577.11441847124524
 30
0.0
 40
4.0
 50
0.0
 51
76.863441213060682
  0
ARC
  5
FBF5
  8
0
 10
968.23019421299159
 20
578.32656111405959
 30
0.0
 40
4.0
 50
59.727358681094607
 51
90.0
  0
LINE
  5
FBF6
  8
0
 10
968.23019421299159
 20
582.32656111405959
 30
0.0
 11
954.44021310964945
 21
582.32656111405959
 31
0.0
  0
LINE
  5
FBF7
  8
0
 10
1070.1103989567409
 20
614.3265611140597
 30
0.0
 11
1053.3925015319139
 21
614.32656111405959
 31
0.0
  0
LINE
  5
FBF8
  8
0
 10
1033.451444409799
 20
532.77202201167961
 30
0.0
 11
1062.3160176117319
 21
525.03768784880754
 31
0.0
  0
LINE
  5
FBF9
  8
0
 10
1061.2574624661961
 20
558.68161496145956
 30
0.0
 11
1061.2574624661961
 21
579.3268111140593
 31
0.0
  0
ARC
  5
FBFA
  8
0
 10
1064.2574624661961
 20
579.3268111140593
 30
0.0
 40
3.0
 50
90.0
 51
180.0
  0
LINE
  5
FBFB
  8
0
 10
1063.480996424692
 20
555.78383986901497
 30
0.0
 11
1070.0816367478101
 21
554.01518188156547
 31
0.0
  0
ARC
  5
FBFC
  8
0
 10
1064.2574624661961
 20
558.68161496145945
 30
0.0
 40
3.0
 50
180.0
 51
254.99982390377349
  0
ARC
  5
FBFD
  8
0
 10
1062.833661639402
 20
526.96953791043711
 30
0.0
 40
2.0
 50
254.99982390377349
 51
269.48691222174517
  0
LINE
  5
FBFE
  8
0
 10
1062.8157517366151
 20
524.96961810319931
 30
0.0
 11
1070.548203597652
 21
553.82440302714986
 31
0.0
  0
LINE
  5
FBFF
  8
0
 10
1064.671177376518
 20
528.03009884321955
 30
0.0
 11
1070.6246156246521
 21
550.24623200449469
 31
0.0
  0
ARC
  5
FC00
  8
0
 10
1069.563992720141
 20
552.08333181993578
 30
0.0
 40
2.0
 50
60.520939860416938
 51
74.999823903773546
  0
ARC
  5
FC01
  8
0
 10
1053.3925015319139
 20
617.32656111405947
 30
0.0
 40
3.0
 50
190.475681696393
 51
270.0
  0
ARC
  5
FC02
  8
0
 10
1047.984174618718
 20
616.32656111405947
 30
0.0
 40
2.5
 50
10.47568169639305
 51
23.57817847820715
  0
LINE
  5
FC03
  8
0
 10
974.27546246619602
 20
546.34508987554398
 30
0.0
 11
974.27546246619602
 21
524.32656111405947
 31
0.0
  0
ARC
  5
FC04
  8
0
 10
1007.275462466196
 20
555.32656111405947
 30
0.0
 40
32.0
 50
180.0
 51
0.0
  0
LINE
  5
FC05
  8
0
 10
1181.9641845092519
 20
559.90781568946238
 30
0.0
 11
1181.9641845092519
 21
555.32656111405947
 31
0.0
  0
LINE
  5
FC06
  8
0
 10
1245.9641845092519
 20
555.32656111405947
 30
0.0
 11
1245.9641845092519
 21
559.90781568946238
 31
0.0
  0
LINE
  5
FC07
  8
0
 10
1050.2754624661959
 20
617.32656111405981
 30
0.0
 11
1050.2754624661959
 21
609.32656111405947
 31
0.0
  0
ARC
  5
FC08
  8
0
 10
1048.2754624661959
 20
609.32656111405947
 30
0.0
 40
2.0
 50
270.0
 51
0.0
  0
LINE
  5
FC09
  8
0
 10
1042.3987832202331
 20
580.35793414746286
 30
0.0
 11
976.31659820833625
 21
580.35793414746286
 31
0.0
  0
ARC
  5
FC0A
  8
0
 10
1042.3987832202331
 20
585.35793414746286
 30
0.0
 40
5.0
 50
270.0
 51
0.0
  0
LINE
  5
FC0B
  8
0
 10
967.27546246619602
 20
617.32656111405947
 30
0.0
 11
967.27546246619602
 21
609.32656111405947
 31
0.0
  0
LINE
  5
FC0C
  8
0
 10
1047.398783220234
 20
607.32656111405959
 30
0.0
 11
1047.398783220234
 21
585.35793414746286
 31
0.0
  0
LINE
  5
FC0D
  8
0
 10
1048.2754624661959
 20
607.32656111405959
 30
0.0
 11
969.27546246619625
 21
607.32656111405959
 31
0.0
  0
ARC
  5
FC0E
  8
0
 10
969.27546246619625
 20
609.32656111405947
 30
0.0
 40
2.0
 50
180.0
 51
270.0
  0
LINE
  5
FC0F
  8
0
 10
971.31659820833625
 20
607.32656111405981
 30
0.0
 11
971.31659820833625
 21
585.35793414746286
 31
0.0
  0
ARC
  5
FC10
  8
0
 10
976.31659820833625
 20
585.35793414746286
 30
0.0
 40
5.0
 50
180.0
 51
270.0
  0
LINE
  5
FC11
  8
0
 10
1039.2754624661959
 20
555.32656111405947
 30
0.0
 11
1039.2754624661959
 21
580.35793414746286
 31
0.0
  0
LINE
  5
FC12
  8
0
 10
1050.2754624661959
 20
627.3265611140597
 30
0.0
 11
968.27546246619602
 21
627.3265611140597
 31
0.0
  0
LINE
  5
FC13
  8
0
 10
1011.275462466196
 20
642.32656111405981
 30
0.0
 11
1003.275462466196
 21
642.32656111405981
 31
0.0
  0
ARC
  5
FC14
  8
0
 10
993.27546246619602
 20
629.32656111405981
 30
0.0
 40
2.0
 50
270.0
 51
0.0
  0
LINE
  5
FC15
  8
0
 10
995.27546246619602
 20
634.32656111405981
 30
0.0
 11
995.27546246619602
 21
629.32656111405981
 31
0.0
  0
ARC
  5
FC16
  8
0
 10
1003.275462466196
 20
634.32656111405981
 30
0.0
 40
8.0
 50
90.0
 51
180.0
  0
LINE
  5
FC17
  8
0
 10
1050.2754624661959
 20
617.32656111405981
 30
0.0
 11
1050.2754624661959
 21
638.30245178615985
 31
0.0
  0
ARC
  5
FC18
  8
0
 10
1048.2754624661959
 20
638.30245178615985
 30
0.0
 40
2.0
 50
0.0
 51
90.0
  0
LINE
  5
FC19
  8
0
 10
1017.307474401422
 20
640.30245178615996
 30
0.0
 11
1048.2754624661959
 21
640.30245178615996
 31
0.0
  0
LINE
  5
FC1A
  8
0
 10
967.27546246619602
 20
816.45583193626396
 30
0.0
 11
967.27546246619602
 21
754.45583193626396
 31
0.0
  0
LINE
  5
FC1B
  8
0
 10
1049.5247228147509
 20
777.45583193626408
 30
0.0
 11
1018.894412504818
 21
777.45583193626408
 31
0.0
  0
LINE
  5
FC1C
  8
0
 10
1049.5247228147509
 20
793.45583193626408
 30
0.0
 11
1018.894412504818
 21
793.45583193626408
 31
0.0
  0
LINE
  5
FC1D
  8
0
 10
1037.336784899139
 20
745.45583193626396
 30
0.0
 11
976.27546246619625
 21
745.45583193626396
 31
0.0
  0
ARC
  5
FC1E
  8
0
 10
976.27546246619625
 20
754.45583193626396
 30
0.0
 40
9.0
 50
180.0
 51
270.0
  0
LINE
  5
FC1F
  8
0
 10
1037.304331070678
 20
825.45583193626396
 30
0.0
 11
976.27546246619625
 21
825.45583193626396
 31
0.0
  0
LINE
  5
FC20
  8
0
 10
1021.789896768437
 20
823.45583193626408
 30
0.0
 11
991.78989676843719
 21
823.45583193626408
 31
0.0
  0
ARC
  5
FC21
  8
0
 10
1021.789896768437
 20
821.45583193626408
 30
0.0
 40
2.0
 50
0.0
 51
90.0
  0
LINE
  5
FC22
  8
0
 10
1021.789896768437
 20
801.45583193626396
 30
0.0
 11
991.78989676843696
 21
801.45583193626396
 31
0.0
  0
ARC
  5
FC23
  8
0
 10
991.78989676843696
 20
803.45583193626385
 30
0.0
 40
2.0
 50
180.0
 51
270.0
  0
ARC
  5
FC24
  8
0
 10
976.27546246619625
 20
816.45583193626396
 30
0.0
 40
9.0
 50
90.0
 51
180.0
  0
ARC
  5
FC25
  8
0
 10
707.77546246619613
 20
785.28333193626406
 30
0.0
 40
340.0
 50
2.6274139286710931
 51
5.4039378865571202
  0
ARC
  5
FC26
  8
0
 10
1007.275462466196
 20
785.45583193626408
 30
0.0
 40
43.0
 50
339.06085846259759
 51
21.005141676787229
  0
ARC
  5
FC27
  8
0
 10
707.77546246619613
 20
785.28333193626406
 30
0.0
 40
340.0
 50
354.65604492731069
 51
357.4385862107253
  0
ARC
  5
FC28
  8
0
 10
1037.304331070678
 20
816.45583193626396
 30
0.0
 40
9.0
 50
5.4039378865571202
 51
90.0
  0
ARC
  5
FC29
  8
0
 10
1037.336784899139
 20
754.45583193626396
 30
0.0
 40
9.0
 50
270.0
 51
354.65604492731069
  0
LINE
  5
FC2A
  8
0
 10
967.27546246619602
 20
617.32656111405981
 30
0.0
 11
967.27546246619602
 21
626.32656111405981
 31
0.0
  0
ARC
  5
FC2B
  8
0
 10
968.27546246619602
 20
626.32656111405981
 30
0.0
 40
1.0
 50
90.0
 51
180.0
  0
CIRCLE
  5
FC2C
  8
0
 10
1007.275462466196
 20
785.45583193626408
 30
0.0
 40
13.0
  0
ARC
  5
FC2D
  8
0
 10
1018.894412504818
 20
774.45583193626396
 30
0.0
 40
3.0
 50
90.0
 51
136.56746344221119
  0
ARC
  5
FC2E
  8
0
 10
1018.894412504818
 20
796.45583193626396
 30
0.0
 40
3.0
 50
223.43253655778881
 51
270.0
  0
ARC
  5
FC2F
  8
0
 10
1017.307474401422
 20
642.30245178615985
 30
0.0
 40
2.0
 50
232.90048807280931
 51
270.0
  0
LINE
  5
FC30
  8
0
 10
1019.275462466196
 20
634.32656111405981
 30
0.0
 11
1019.275462466196
 21
629.32656111405981
 31
0.0
  0
ARC
  5
FC31
  8
0
 10
1011.275462466196
 20
634.32656111405981
 30
0.0
 40
8.0
 50
0.0
 51
90.0
  0
ARC
  5
FC32
  8
0
 10
1021.275462466196
 20
629.32656111405981
 30
0.0
 40
2.0
 50
180.0
 51
270.0
  0
LINE
  5
FC33
  8
0
 10
985.47342426576768
 20
634.32756111405968
 30
0.0
 11
968.97342426576779
 21
634.32756111405968
 31
0.0
  0
ARC
  5
FC34
  8
0
 10
969.86242426576769
 20
629.49623704864302
 30
0.0
 40
4.6309815714167701
 50
58.000676159490958
 51
121.99932384050901
  0
LINE
  5
FC35
  8
0
 10
982.56642426576775
 20
633.66456111405967
 30
0.0
 11
983.03642426576778
 21
633.86056111405969
 31
0.0
  0
LINE
  5
FC36
  8
0
 10
987.03842426576784
 20
627.3265611140597
 30
0.0
 11
987.03842426576784
 21
633.42356111405979
 31
0.0
  0
LINE
  5
FC37
  8
0
 10
987.03842426576784
 20
633.42356111405979
 30
0.0
 11
985.47342426576768
 21
634.32756111405968
 31
0.0
  0
LINE
  5
FC38
  8
0
 10
986.13242426576778
 20
633.8615611140599
 30
0.0
 11
987.03842426576784
 21
633.42356111405979
 31
0.0
  0
LINE
  5
FC39
  8
0
 10
985.63342426576764
 20
634.00656111405976
 30
0.0
 11
986.13242426576778
 21
633.8615611140599
 31
0.0
  0
LINE
  5
FC3A
  8
0
 10
985.11342426576766
 20
634.0965611140598
 30
0.0
 11
985.63342426576764
 21
634.00656111405976
 31
0.0
  0
LINE
  5
FC3B
  8
0
 10
984.58442426576778
 20
634.12756111405974
 30
0.0
 11
985.11342426576766
 21
634.0965611140598
 31
0.0
  0
LINE
  5
FC3C
  8
0
 10
984.05542426576767
 20
634.0965611140598
 30
0.0
 11
984.58442426576778
 21
634.12756111405974
 31
0.0
  0
LINE
  5
FC3D
  8
0
 10
983.53642426576766
 20
634.00656111405976
 30
0.0
 11
984.05542426576767
 21
634.0965611140598
 31
0.0
  0
LINE
  5
FC3E
  8
0
 10
983.03642426576778
 20
633.86056111405969
 30
0.0
 11
983.53642426576766
 21
634.00656111405976
 31
0.0
  0
LINE
  5
FC3F
  8
0
 10
972.31642426576775
 20
633.42356111405979
 30
0.0
 11
972.31642426576775
 21
627.3265611140597
 31
0.0
  0
LINE
  5
FC40
  8
0
 10
982.13042426576783
 20
633.42356111405979
 30
0.0
 11
982.13042426576783
 21
627.3265611140597
 31
0.0
  0
ARC
  5
FC41
  8
0
 10
977.22342426576779
 20
616.66456952094632
 30
0.0
 40
17.462601416113358
 50
73.680072331667674
 51
106.3199276683323
  0
LINE
  5
FC42
  8
0
 10
982.13042426576783
 20
633.42356111405979
 30
0.0
 11
982.56642426576775
 21
633.66456111405967
 31
0.0
  0
LINE
  5
FC43
  8
0
 10
967.40842426576774
 20
633.42356111405979
 30
0.0
 11
967.40842426576774
 21
627.3265611140597
 31
0.0
  0
LINE
  5
FC44
  8
0
 10
968.97342426576779
 20
634.32756111405968
 30
0.0
 11
967.40842426576774
 21
633.42356111405979
 31
0.0
  0
LINE
  5
FC45
  8
0
 10
967.40842426576774
 20
627.3265611140597
 30
0.0
 11
968.27546246619602
 21
627.3265611140597
 31
0.0
  0
LINE
  5
FC46
  8
0
 10
1045.586784899139
 20
634.32756111406002
 30
0.0
 11
1029.0867848991379
 21
634.32756111406002
 31
0.0
  0
ARC
  5
FC47
  8
0
 10
1029.975784899138
 20
629.49623704864325
 30
0.0
 40
4.6309815714167701
 50
58.000676159490958
 51
121.99932384050901
  0
LINE
  5
FC48
  8
0
 10
1042.679784899138
 20
633.66456111406001
 30
0.0
 11
1043.1497848991389
 21
633.86056111405992
 31
0.0
  0
LINE
  5
FC49
  8
0
 10
1047.151784899138
 20
627.32656111406004
 30
0.0
 11
1047.151784899138
 21
633.42356111405991
 31
0.0
  0
LINE
  5
FC4A
  8
0
 10
1047.151784899138
 20
633.42356111405991
 30
0.0
 11
1045.586784899139
 21
634.32756111406002
 31
0.0
  0
LINE
  5
FC4B
  8
0
 10
1046.2457848991389
 20
633.86156111406012
 30
0.0
 11
1047.151784899138
 21
633.42356111405991
 31
0.0
  0
LINE
  5
FC4C
  8
0
 10
1045.746784899138
 20
634.0065611140601
 30
0.0
 11
1046.2457848991389
 21
633.86156111406012
 31
0.0
  0
LINE
  5
FC4D
  8
0
 10
1045.2267848991389
 20
634.09656111406002
 30
0.0
 11
1045.746784899138
 21
634.0065611140601
 31
0.0
  0
LINE
  5
FC4E
  8
0
 10
1044.6977848991389
 20
634.12756111405986
 30
0.0
 11
1045.2267848991389
 21
634.09656111406002
 31
0.0
  0
LINE
  5
FC4F
  8
0
 10
1044.1687848991389
 20
634.09656111406002
 30
0.0
 11
1044.6977848991389
 21
634.12756111405986
 31
0.0
  0
LINE
  5
FC50
  8
0
 10
1043.649784899138
 20
634.0065611140601
 30
0.0
 11
1044.1687848991389
 21
634.09656111406002
 31
0.0
  0
LINE
  5
FC51
  8
0
 10
1043.1497848991389
 20
633.86056111405992
 30
0.0
 11
1043.649784899138
 21
634.0065611140601
 31
0.0
  0
LINE
  5
FC52
  8
0
 10
1032.4297848991389
 20
633.42356111405991
 30
0.0
 11
1032.4297848991389
 21
627.32656111406004
 31
0.0
  0
LINE
  5
FC53
  8
0
 10
1042.243784899139
 20
633.42356111405991
 30
0.0
 11
1042.243784899139
 21
627.32656111406004
 31
0.0
  0
ARC
  5
FC54
  8
0
 10
1037.336784899139
 20
616.66456952094654
 30
0.0
 40
17.462601416113358
 50
73.680072331667674
 51
106.3199276683323
  0
LINE
  5
FC55
  8
0
 10
1042.243784899139
 20
633.42356111405991
 30
0.0
 11
1042.679784899138
 21
633.66456111406001
 31
0.0
  0
LINE
  5
FC56
  8
0
 10
1027.5217848991381
 20
633.42356111405991
 30
0.0
 11
1027.5217848991381
 21
627.32656111406004
 31
0.0
  0
LINE
  5
FC57
  8
0
 10
1029.0867848991379
 20
634.32756111406002
 30
0.0
 11
1027.5217848991381
 21
633.42356111405991
 31
0.0
  0
LINE
  5
FC58
  8
0
 10
967.40842426576774
 20
755.40379373583585
 30
0.0
 11
972.31642426576786
 21
763.90379373583585
 31
0.0
  0
LINE
  5
FC59
  8
0
 10
982.1304242657676
 20
763.90379373583585
 30
0.0
 11
987.03842426576784
 21
755.40379373583585
 31
0.0
  0
CIRCLE
  5
FC5A
  8
0
 10
977.22342426576779
 20
755.40379373583585
 30
0.0
 40
8.2499099999999999
  0
LINE
  5
FC5B
  8
0
 10
972.31642426576786
 20
746.90379373583585
 30
0.0
 11
967.40842426576774
 21
755.40379373583585
 31
0.0
  0
LINE
  5
FC5C
  8
0
 10
987.03842426576784
 20
755.40379373583585
 30
0.0
 11
982.1304242657676
 21
746.90379373583585
 31
0.0
  0
LINE
  5
FC5D
  8
0
 10
982.1304242657676
 20
746.90379373583585
 30
0.0
 11
972.31642426576786
 21
746.90379373583585
 31
0.0
  0
LINE
  5
FC5E
  8
0
 10
972.31642426576786
 20
763.90379373583585
 30
0.0
 11
982.1304242657676
 21
763.90379373583585
 31
0.0
  0
LINE
  5
FC5F
  8
0
 10
1027.512500666624
 20
755.40379373583573
 30
0.0
 11
1032.4205006666241
 21
763.90379373583573
 31
0.0
  0
LINE
  5
FC60
  8
0
 10
1042.2345006666239
 20
763.90379373583573
 30
0.0
 11
1047.1425006666241
 21
755.40379373583573
 31
0.0
  0
CIRCLE
  5
FC61
  8
0
 10
1037.327500666624
 20
755.40379373583573
 30
0.0
 40
8.2499099999999999
  0
LINE
  5
FC62
  8
0
 10
1032.4205006666241
 20
746.90379373583573
 30
0.0
 11
1027.512500666624
 21
755.40379373583573
 31
0.0
  0
LINE
  5
FC63
  8
0
 10
1047.1425006666241
 20
755.40379373583573
 30
0.0
 11
1042.2345006666239
 21
746.90379373583573
 31
0.0
  0
LINE
  5
FC64
  8
0
 10
1042.2345006666239
 20
746.90379373583573
 30
0.0
 11
1032.4205006666241
 21
746.90379373583573
 31
0.0
  0
LINE
  5
FC65
  8
0
 10
1032.4205006666241
 20
763.90379373583573
 30
0.0
 11
1042.2345006666239
 21
763.90379373583573
 31
0.0
  0
LINE
  5
FC66
  8
0
 10
1027.512500666624
 20
815.50787013669253
 30
0.0
 11
1032.4205006666241
 21
824.00787013669242
 31
0.0
  0
LINE
  5
FC67
  8
0
 10
1042.2345006666239
 20
824.00787013669242
 30
0.0
 11
1047.1425006666241
 21
815.50787013669253
 31
0.0
  0
CIRCLE
  5
FC68
  8
0
 10
1037.327500666624
 20
815.50787013669253
 30
0.0
 40
8.2499099999999999
  0
LINE
  5
FC69
  8
0
 10
1032.4205006666241
 20
807.00787013669242
 30
0.0
 11
1027.512500666624
 21
815.50787013669253
 31
0.0
  0
LINE
  5
FC6A
  8
0
 10
1047.1425006666241
 20
815.50787013669253
 30
0.0
 11
1042.2345006666239
 21
807.00787013669242
 31
0.0
  0
LINE
  5
FC6B
  8
0
 10
1042.2345006666239
 20
807.00787013669242
 30
0.0
 11
1032.4205006666241
 21
807.00787013669242
 31
0.0
  0
LINE
  5
FC6C
  8
0
 10
1032.4205006666241
 20
824.00787013669242
 30
0.0
 11
1042.2345006666239
 21
824.00787013669242
 31
0.0
  0
LINE
  5
FC6D
  8
0
 10
967.40842426576785
 20
815.50787013669253
 30
0.0
 11
972.31642426576786
 21
824.00787013669242
 31
0.0
  0
LINE
  5
FC6E
  8
0
 10
982.13042426576806
 20
824.00787013669242
 30
0.0
 11
987.03842426576784
 21
815.50787013669253
 31
0.0
  0
CIRCLE
  5
FC6F
  8
0
 10
977.2234242657679
 20
815.50787013669253
 30
0.0
 40
8.2499099999999999
  0
LINE
  5
FC70
  8
0
 10
972.31642426576786
 20
807.00787013669242
 30
0.0
 11
967.40842426576785
 21
815.50787013669253
 31
0.0
  0
LINE
  5
FC71
  8
0
 10
987.03842426576784
 20
815.50787013669253
 30
0.0
 11
982.13042426576806
 21
807.00787013669242
 31
0.0
  0
LINE
  5
FC72
  8
0
 10
982.13042426576806
 20
807.00787013669242
 30
0.0
 11
972.31642426576786
 21
807.00787013669242
 31
0.0
  0
LINE
  5
FC73
  8
0
 10
972.31642426576786
 20
824.00787013669242
 30
0.0
 11
982.13042426576806
 21
824.00787013669242
 31
0.0
  0
LINE
  5
FC74
  8
0
 10
967.27546246619602
 20
801.45595693626399
 30
0.0
 11
954.44052597566395
 21
801.45595693626399
 31
0.0
  0
LINE
  5
FC75
  8
0
 10
967.27546246619602
 20
769.45595693626433
 30
0.0
 11
954.44052597566429
 21
769.45595693626422
 31
0.0
  0
LINE
  5
FC76
  8
0
 10
1070.110398956728
 20
801.45595693626399
 30
0.0
 11
1047.39060671128
 21
801.45595693626399
 31
0.0
  0
LINE
  5
FC77
  8
0
 10
1047.40693938553
 20
769.45740745799935
 30
0.0
 11
1070.1081190930331
 21
769.45579010407346
 31
0.0
  0
LINE
  5
FC78
  8
0
 10
961.27546246619613
 20
779.45583193626396
 30
0.0
 11
965.27546246619613
 21
779.45583193626396
 31
0.0
  0
ARC
  5
FC79
  8
0
 10
965.27546246619613
 20
777.45583193626408
 30
0.0
 40
2.0
 50
0.0
 51
90.0
  0
ARC
  5
FC7A
  8
0
 10
961.28546246619612
 20
785.45583193626408
 30
0.0
 40
6.0
 50
90.0
 51
270.0
  0
LINE
  5
FC7B
  8
0
 10
961.27546246619613
 20
791.45583193626396
 30
0.0
 11
965.27546246619613
 21
791.45583193626396
 31
0.0
  0
ARC
  5
FC7C
  8
0
 10
965.27546246619613
 20
793.45583193626408
 30
0.0
 40
2.0
 50
270.0
 51
0.0
  0
LINE
  5
FC7D
  8
0
 10
1058.2754624661959
 20
591.32656111405947
 30
0.0
 11
1068.2754624661959
 21
591.32656111405947
 31
0.0
  0
LINE
  5
FC7E
  8
0
 10
1058.2754624661959
 20
605.32656111405947
 30
0.0
 11
1068.2754624661959
 21
605.32656111405925
 31
0.0
  0
LINE
  5
FC7F
  8
0
 10
1228.9641845092519
 20
550.62960104321235
 30
0.0
 11
1228.9641845092519
 21
539.3970105651747
 31
0.0
  0
LINE
  5
FC80
  8
0
 10
1198.9641845092519
 20
550.62960104321223
 30
0.0
 11
1198.9641845092519
 21
539.3970105651747
 31
0.0
  0
ARC
  5
FC81
  8
0
 10
1213.9641845092519
 20
555.32656111405947
 30
0.0
 40
32.0
 50
180.0
 51
0.0
  0
LINE
  5
FC82
  8
0
 10
1065.3185250946619
 20
530.44483298725538
 30
0.0
 11
1070.624315519264
 21
550.24631242618125
 31
0.0
  0
LINE
  5
FC83
  8
0
 10
1066.441529543157
 20
531.28997558389835
 30
0.0
 11
1071.5300267960481
 21
529.92651685429837
 31
0.0
  0
LINE
  5
FC84
  8
0
 10
1071.5300267960481
 20
529.92651685429837
 30
0.0
 11
1072.278790293529
 21
532.7209402697531
 31
0.0
  0
LINE
  5
FC85
  8
0
 10
1072.278790293529
 20
532.7209402697531
 30
0.0
 11
1067.1902930406379
 21
534.0843989993532
 31
0.0
  0
LINE
  5
FC86
  8
0
 10
1067.1902930406379
 20
534.0843989993532
 30
0.0
 11
1066.441529543157
 21
531.28997558389835
 31
0.0
  0
LINE
  5
FC87
  8
0
 10
1070.624315519264
 20
550.24631242618125
 30
0.0
 11
1071.8490358524839
 21
551.47106387255644
 31
0.0
  0
LINE
  5
FC88
  8
0
 10
1071.8490358524839
 20
551.47106387255644
 30
0.0
 11
1076.937533105375
 21
550.10760514295634
 31
0.0
  0
LINE
  5
FC89
  8
0
 10
1076.937533105375
 20
550.10760514295634
 30
0.0
 11
1077.385796303287
 21
548.4345791104638
 31
0.0
  0
LINE
  5
FC8A
  8
0
 10
1077.385796303287
 20
548.4345791104638
 30
0.0
 11
1071.4329582659291
 21
526.21828510581508
 31
0.0
  0
LINE
  5
FC8B
  8
0
 10
1071.4329582659291
 20
526.21828510581508
 30
0.0
 11
1070.2082379327089
 21
524.99353365944035
 31
0.0
  0
LINE
  5
FC8C
  8
0
 10
1070.2082379327089
 20
524.99353365944035
 30
0.0
 11
1065.1197406798181
 21
526.35699238904044
 31
0.0
  0
LINE
  5
FC8D
  8
0
 10
1065.1197406798181
 20
526.35699238904044
 30
0.0
 11
1064.6714774819061
 21
528.03001842153265
 31
0.0
  0
LINE
  5
FC8E
  8
0
 10
1064.6714774819061
 20
528.03001842153265
 30
0.0
 11
1065.3185250946619
 21
530.44483298725538
 31
0.0
  0
LINE
  5
FC8F
  8
0
 10
1070.5272469891449
 20
546.53808067769796
 30
0.0
 11
1075.615744242036
 21
545.17462194809787
 31
0.0
  0
LINE
  5
FC90
  8
0
 10
1075.615744242036
 20
545.17462194809787
 30
0.0
 11
1074.8669807445549
 21
542.38019853264348
 31
0.0
  0
LINE
  5
FC91
  8
0
 10
1074.8669807445549
 20
542.38019853264348
 30
0.0
 11
1069.778483491664
 21
543.74365726224369
 31
0.0
  0
LINE
  5
FC92
  8
0
 10
1069.778483491664
 20
543.74365726224369
 30
0.0
 11
1070.5272469891449
 21
546.53808067769796
 31
0.0
  0
ARC
  5
FC93
  8
0
 10
1073.058518335914
 20
548.50340629118455
 30
0.0
 40
4.1976433314087407
 50
307.53205179663479
 51
22.4679482033531
  0
ARC
  5
FC94
  8
0
 10
1060.0487840246731
 20
541.17434147497067
 30
0.0
 40
14.867180138568379
 50
325.3477056230484
 51
4.6522943769503566
  0
ARC
  5
FC95
  8
0
 10
1067.6510120265871
 20
528.32231800252634
 30
0.0
 40
4.1976433314087407
 50
307.53205179663479
 51
22.4679482033531
  0
ARC
  5
FC96
  8
0
 10
1074.406261758606
 20
548.14227952946965
 30
0.0
 40
4.1976433314087407
 50
127.5320517966491
 51
202.4679482033531
  0
ARC
  5
FC97
  8
0
 10
1082.00848976052
 20
535.29025605702554
 30
0.0
 40
14.867180138568379
 50
145.3477056230484
 51
184.65229437695029
  0
ARC
  5
FC98
  8
0
 10
1068.9987554492791
 20
527.96119124081133
 30
0.0
 40
4.1976433314087407
 50
127.532051796644
 51
202.4679482033531
  0
LINE
  5
FC99
  8
0
 10
1201.9641845092519
 20
542.38019853264291
 30
0.0
 11
1203.634084509252
 21
545.17462194809673
 31
0.0
  0
LINE
  5
FC9A
  8
0
 10
1203.634084509252
 20
545.17462194809673
 30
0.0
 11
1209.515645025599
 21
548.52484933160804
 31
0.0
  0
LINE
  5
FC9B
  8
0
 10
1203.634084509252
 20
529.9265168542961
 30
0.0
 11
1201.9641845092519
 21
532.72094026975185
 31
0.0
  0
LINE
  5
FC9C
  8
0
 10
1203.634084509252
 20
529.9265168542961
 30
0.0
 11
1212.2942845092521
 21
524.99353365943944
 31
0.0
  0
LINE
  5
FC9D
  8
0
 10
1201.9641845092519
 20
542.38019853264291
 30
0.0
 11
1201.9641845092519
 21
532.72094026975185
 31
0.0
  0
LINE
  5
FC9E
  8
0
 10
1225.9641845092519
 20
542.38019853264291
 30
0.0
 11
1224.2942845092521
 21
545.17462194809673
 31
0.0
  0
LINE
  5
FC9F
  8
0
 10
1224.2942845092521
 20
545.17462194809673
 30
0.0
 11
1218.412723992906
 21
548.52484933160804
 31
0.0
  0
LINE
  5
FCA0
  8
0
 10
1224.2942845092521
 20
529.9265168542961
 30
0.0
 11
1225.9641845092519
 21
532.72094026975185
 31
0.0
  0
LINE
  5
FCA1
  8
0
 10
1224.2942845092521
 20
529.9265168542961
 30
0.0
 11
1215.634084509252
 21
524.99353365943944
 31
0.0
  0
LINE
  5
FCA2
  8
0
 10
1225.9641845092519
 20
542.38019853264291
 30
0.0
 11
1225.9641845092519
 21
532.72094026975185
 31
0.0
  0
LINE
  5
FCA3
  8
0
 10
1212.2942845092521
 20
524.99353365943944
 30
0.0
 11
1215.634084509252
 21
524.99353365943944
 31
0.0
  0
LINE
  5
FCA4
  8
0
 10
1203.634084509252
 20
546.53808067769648
 30
0.0
 11
1207.5085912812081
 21
548.74505936114736
 31
0.0
  0
LINE
  5
FCA5
  8
0
 10
1224.2942845092521
 20
546.53808067769648
 30
0.0
 11
1220.419777737297
 21
548.74505936114736
 31
0.0
  0
LINE
  5
FCA6
  8
0
 10
1201.9641845092519
 20
543.74365726224266
 30
0.0
 11
1203.634084509252
 21
546.53808067769648
 31
0.0
  0
LINE
  5
FCA7
  8
0
 10
1225.9641845092519
 20
543.74365726224266
 30
0.0
 11
1224.2942845092521
 21
546.53808067769648
 31
0.0
  0
LINE
  5
FCA8
  8
0
 10
1201.9641845092519
 20
543.74365726224266
 30
0.0
 11
1201.9641845092519
 21
542.38019853264291
 31
0.0
  0
LINE
  5
FCA9
  8
0
 10
1203.634084509252
 20
546.53808067769648
 30
0.0
 11
1203.634084509252
 21
545.17462194809673
 31
0.0
  0
LINE
  5
FCAA
  8
0
 10
1224.2942845092521
 20
546.53808067769648
 30
0.0
 11
1224.2942845092521
 21
545.17462194809673
 31
0.0
  0
LINE
  5
FCAB
  8
0
 10
1225.9641845092519
 20
543.74365726224266
 30
0.0
 11
1225.9641845092519
 21
542.38019853264291
 31
0.0
  0
POLYLINE
  5
FCAC
  8
0
 10
1202.4641845092519
 20
537.32643210813831
 30
0.0
 66
     1
 70
     8
  0
VERTEX
  8
0
  5
10209
 10
1202.46
 20
537.326
 30
0.000000
  70
    32
  0
VERTEX
  8
0
  5
1020A
 10
1202.48
 20
536.781
 30
0.000000
  70
    32
  0
VERTEX
  8
0
  5
1020B
 10
1202.52
 20
536.238
 30
0.000000
  70
    32
  0
VERTEX
  8
0
  5
1020C
 10
1202.59
 20
535.697
 30
0.000000
  70
    32
  0
VERTEX
  8
0
  5
1020D
 10
1202.69
 20
535.159
 30
0.000000
  70
    32
  0
VERTEX
  8
0
  5
1020E
 10
1202.81
 20
534.627
 30
0.000000
  70
    32
  0
VERTEX
  8
0
  5
1020F
 10
1202.96
 20
534.102
 30
0.000000
  70
    32
  0
VERTEX
  8
0
  5
10210
 10
1203.14
 20
533.584
 30
0.000000
  70
    32
  0
VERTEX
  8
0
  5
10211
 10
1203.34
 20
533.076
 30
0.000000
  70
    32
  0
VERTEX
  8
0
  5
10212
 10
1203.57
 20
532.577
 30
0.000000
  70
    32
  0
VERTEX
  8
0
  5
10213
 10
1203.82
 20
532.090
 30
0.000000
  70
    32
  0
VERTEX
  8
0
  5
10214
 10
1204.10
 20
531.616
 30
0.000000
  70
    32
  0
VERTEX
  8
0
  5
10215
 10
1204.40
 20
531.155
 30
0.000000
  70
    32
  0
VERTEX
  8
0
  5
10216
 10
1204.73
 20
530.709
 30
0.000000
  70
    32
  0
VERTEX
  8
0
  5
10217
 10
1205.07
 20
530.279
 30
0.000000
  70
    32
  0
VERTEX
  8
0
  5
10218
 10
1205.44
 20
529.867
 30
0.000000
  70
    32
  0
VERTEX
  8
0
  5
10219
 10
1205.83
 20
529.472
 30
0.000000
  70
    32
  0
VERTEX
  8
0
  5
1021A
 10
1206.24
 20
529.096
 30
0.000000
  70
    32
  0
VERTEX
  8
0
  5
1021B
 10
1206.67
 20
528.740
 30
0.000000
  70
    32
  0
VERTEX
  8
0
  5
1021C
 10
1207.11
 20
528.404
 30
0.000000
  70
    32
  0
VERTEX
  8
0
  5
1021D
 10
1207.58
 20
528.090
 30
0.000000
  70
    32
  0
VERTEX
  8
0
  5
1021E
 10
1208.05
 20
527.799
 30
0.000000
  70
    32
  0
VERTEX
  8
0
  5
1021F
 10
1208.54
 20
527.530
 30
0.000000
  70
    32
  0
VERTEX
  8
0
  5
10220
 10
1209.05
 20
527.285
 30
0.000000
  70
    32
  0
VERTEX
  8
0
  5
10221
 10
1209.56
 20
527.064
 30
0.000000
  70
    32
  0
VERTEX
  8
0
  5
10222
 10
1210.09
 20
526.868
 30
0.000000
  70
    32
  0
VERTEX
  8
0
  5
10223
 10
1210.63
 20
526.697
 30
0.000000
  70
    32
  0
VERTEX
  8
0
  5
10224
 10
1211.17
 20
526.551
 30
0.000000
  70
    32
  0
VERTEX
  8
0
  5
10225
 10
1211.72
 20
526.432
 30
0.000000
  70
    32
  0
VERTEX
  8
0
  5
10226
 10
1212.28
 20
526.339
 30
0.000000
  70
    32
  0
VERTEX
  8
0
  5
10227
 10
1212.84
 20
526.272
 30
0.000000
  70
    32
  0
VERTEX
  8
0
  5
10228
 10
1213.40
 20
526.232
 30
0.000000
  70
    32
  0
VERTEX
  8
0
  5
10229
 10
1213.96
 20
526.218
 30
0.000000
  70
    32
  0
VERTEX
  8
0
  5
1022A
 10
1214.53
 20
526.232
 30
0.000000
  70
    32
  0
VERTEX
  8
0
  5
1022B
 10
1215.09
 20
526.272
 30
0.000000
  70
    32
  0
VERTEX
  8
0
  5
1022C
 10
1215.65
 20
526.339
 30
0.000000
  70
    32
  0
VERTEX
  8
0
  5
1022D
 10
1216.21
 20
526.432
 30
0.000000
  70
    32
  0
VERTEX
  8
0
  5
1022E
 10
1216.76
 20
526.551
 30
0.000000
  70
    32
  0
VERTEX
  8
0
  5
1022F
 10
1217.30
 20
526.697
 30
0.000000
  70
    32
  0
VERTEX
  8
0
  5
10230
 10
1217.84
 20
526.868
 30
0.000000
  70
    32
  0
VERTEX
  8
0
  5
10231
 10
1218.37
 20
527.064
 30
0.000000
  70
    32
  0
VERTEX
  8
0
  5
10232
 10
1218.88
 20
527.285
 30
0.000000
  70
    32
  0
VERTEX
  8
0
  5
10233
 10
1219.39
 20
527.530
 30
0.000000
  70
    32
  0
VERTEX
  8
0
  5
10234
 10
1219.88
 20
527.799
 30
0.000000
  70
    32
  0
VERTEX
  8
0
  5
10235
 10
1220.35
 20
528.090
 30
0.000000
  70
    32
  0
VERTEX
  8
0
  5
10236
 10
1220.81
 20
528.404
 30
0.000000
  70
    32
  0
VERTEX
  8
0
  5
10237
 10
1221.26
 20
528.740
 30
0.000000
  70
    32
  0
VERTEX
  8
0
  5
10238
 10
1221.69
 20
529.096
 30
0.000000
  70
    32
  0
VERTEX
  8
0
  5
10239
 10
1222.10
 20
529.472
 30
0.000000
  70
    32
  0
VERTEX
  8
0
  5
1023A
 10
1222.49
 20
529.867
 30
0.000000
  70
    32
  0
VERTEX
  8
0
  5
1023B
 10
1222.85
 20
530.279
 30
0.000000
  70
    32
  0
VERTEX
  8
0
  5
1023C
 10
1223.20
 20
530.709
 30
0.000000
  70
    32
  0
VERTEX
  8
0
  5
1023D
 10
1223.53
 20
531.155
 30
0.000000
  70
    32
  0
VERTEX
  8
0
  5
1023E
 10
1223.83
 20
531.616
 30
0.000000
  70
    32
  0
VERTEX
  8
0
  5
1023F
 10
1224.11
 20
532.090
 30
0.000000
  70
    32
  0
VERTEX
  8
0
  5
10240
 10
1224.36
 20
532.577
 30
0.000000
  70
    32
  0
VERTEX
  8
0
  5
10241
 10
1224.59
 20
533.076
 30
0.000000
  70
    32
  0
VERTEX
  8
0
  5
10242
 10
1224.79
 20
533.584
 30
0.000000
  70
    32
  0
VERTEX
  8
0
  5
10243
 10
1224.97
 20
534.102
 30
0.000000
  70
    32
  0
VERTEX
  8
0
  5
10244
 10
1225.12
 20
534.627
 30
0.000000
  70
    32
  0
VERTEX
  8
0
  5
10245
 10
1225.24
 20
535.159
 30
0.000000
  70
    32
  0
VERTEX
  8
0
  5
10246
 10
1225.34
 20
535.697
 30
0.000000
  70
    32
  0
VERTEX
  8
0
  5
10247
 10
1225.41
 20
536.238
 30
0.000000
  70
    32
  0
VERTEX
  8
0
  5
10248
 10
1225.45
 20
536.781
 30
0.000000
  70
    32
  0
VERTEX
  8
0
  5
10249
 10
1225.46
 20
537.326
 30
0.000000
  70
    32
  0
VERTEX
  8
0
  5
1024A
 10
1225.45
 20
537.871
 30
0.000000
  70
    32
  0
VERTEX
  8
0
  5
1024B
 10
1225.41
 20
538.415
 30
0.000000
  70
    32
  0
VERTEX
  8
0
  5
1024C
 10
1225.34
 20
538.956
 30
0.000000
  70
    32
  0
VERTEX
  8
0
  5
1024D
 10
1225.24
 20
539.494
 30
0.000000
  70
    32
  0
VERTEX
  8
0
  5
1024E
 10
1225.12
 20
540.025
 30
0.000000
  70
    32
  0
VERTEX
  8
0
  5
1024F
 10
1224.97
 20
540.551
 30
0.000000
  70
    32
  0
VERTEX
  8
0
  5
10250
 10
1224.79
 20
541.069
 30
0.000000
  70
    32
  0
VERTEX
  8
0
  5
10251
 10
1224.59
 20
541.577
 30
0.000000
  70
    32
  0
VERTEX
  8
0
  5
10252
 10
1224.36
 20
542.076
 30
0.000000
  70
    32
  0
VERTEX
  8
0
  5
10253
 10
1224.11
 20
542.563
 30
0.000000
  70
    32
  0
VERTEX
  8
0
  5
10254
 10
1223.83
 20
543.037
 30
0.000000
  70
    32
  0
VERTEX
  8
0
  5
10255
 10
1223.53
 20
543.498
 30
0.000000
  70
    32
  0
VERTEX
  8
0
  5
10256
 10
1223.20
 20
543.944
 30
0.000000
  70
    32
  0
VERTEX
  8
0
  5
10257
 10
1222.85
 20
544.373
 30
0.000000
  70
    32
  0
VERTEX
  8
0
  5
10258
 10
1222.49
 20
544.786
 30
0.000000
  70
    32
  0
VERTEX
  8
0
  5
10259
 10
1222.10
 20
545.181
 30
0.000000
  70
    32
  0
VERTEX
  8
0
  5
1025A
 10
1221.69
 20
545.557
 30
0.000000
  70
    32
  0
VERTEX
  8
0
  5
1025B
 10
1221.26
 20
545.913
 30
0.000000
  70
    32
  0
VERTEX
  8
0
  5
1025C
 10
1220.81
 20
546.249
 30
0.000000
  70
    32
  0
VERTEX
  8
0
  5
1025D
 10
1220.35
 20
546.563
 30
0.000000
  70
    32
  0
VERTEX
  8
0
  5
1025E
 10
1219.88
 20
546.854
 30
0.000000
  70
    32
  0
VERTEX
  8
0
  5
1025F
 10
1219.39
 20
547.123
 30
0.000000
  70
    32
  0
VERTEX
  8
0
  5
10260
 10
1218.88
 20
547.368
 30
0.000000
  70
    32
  0
VERTEX
  8
0
  5
10261
 10
1218.37
 20
547.589
 30
0.000000
  70
    32
  0
VERTEX
  8
0
  5
10262
 10
1217.84
 20
547.785
 30
0.000000
  70
    32
  0
VERTEX
  8
0
  5
10263
 10
1217.30
 20
547.956
 30
0.000000
  70
    32
  0
VERTEX
  8
0
  5
10264
 10
1216.76
 20
548.102
 30
0.000000
  70
    32
  0
VERTEX
  8
0
  5
10265
 10
1216.21
 20
548.221
 30
0.000000
  70
    32
  0
VERTEX
  8
0
  5
10266
 10
1215.65
 20
548.314
 30
0.000000
  70
    32
  0
VERTEX
  8
0
  5
10267
 10
1215.09
 20
548.381
 30
0.000000
  70
    32
  0
VERTEX
  8
0
  5
10268
 10
1214.53
 20
548.421
 30
0.000000
  70
    32
  0
VERTEX
  8
0
  5
10269
 10
1213.96
 20
548.435
 30
0.000000
  70
    32
  0
VERTEX
  8
0
  5
1026A
 10
1213.40
 20
548.421
 30
0.000000
  70
    32
  0
VERTEX
  8
0
  5
1026B
 10
1212.84
 20
548.381
 30
0.000000
  70
    32
  0
VERTEX
  8
0
  5
1026C
 10
1212.28
 20
548.314
 30
0.000000
  70
    32
  0
VERTEX
  8
0
  5
1026D
 10
1211.72
 20
548.221
 30
0.000000
  70
    32
  0
VERTEX
  8
0
  5
1026E
 10
1211.17
 20
548.102
 30
0.000000
  70
    32
  0
VERTEX
  8
0
  5
1026F
 10
1210.63
 20
547.956
 30
0.000000
  70
    32
  0
VERTEX
  8
0
  5
10270
 10
1210.09
 20
547.785
 30
0.000000
  70
    32
  0
VERTEX
  8
0
  5
10271
 10
1209.56
 20
547.589
 30
0.000000
  70
    32
  0
VERTEX
  8
0
  5
10272
 10
1209.05
 20
547.368
 30
0.000000
  70
    32
  0
VERTEX
  8
0
  5
10273
 10
1208.54
 20
547.123
 30
0.000000
  70
    32
  0
VERTEX
  8
0
  5
10274
 10
1208.05
 20
546.854
 30
0.000000
  70
    32
  0
VERTEX
  8
0
  5
10275
 10
1207.58
 20
546.563
 30
0.000000
  70
    32
  0
VERTEX
  8
0
  5
10276
 10
1207.11
 20
546.249
 30
0.000000
  70
    32
  0
VERTEX
  8
0
  5
10277
 10
1206.67
 20
545.913
 30
0.000000
  70
    32
  0
VERTEX
  8
0
  5
10278
 10
1206.24
 20
545.557
 30
0.000000
  70
    32
  0
VERTEX
  8
0
  5
10279
 10
1205.83
 20
545.181
 30
0.000000
  70
    32
  0
VERTEX
  8
0
  5
1027A
 10
1205.44
 20
544.786
 30
0.000000
  70
    32
  0
VERTEX
  8
0
  5
1027B
 10
1205.07
 20
544.373
 30
0.000000
  70
    32
  0
VERTEX
  8
0
  5
1027C
 10
1204.73
 20
543.944
 30
0.000000
  70
    32
  0
VERTEX
  8
0
  5
1027D
 10
1204.40
 20
543.498
 30
0.000000
  70
    32
  0
VERTEX
  8
0
  5
1027E
 10
1204.10
 20
543.037
 30
0.000000
  70
    32
  0
VERTEX
  8
0
  5
1027F
 10
1203.82
 20
542.563
 30
0.000000
  70
    32
  0
VERTEX
  8
0
  5
10280
 10
1203.57
 20
542.076
 30
0.000000
  70
    32
  0
VERTEX
  8
0
  5
10281
 10
1203.34
 20
541.577
 30
0.000000
  70
    32
  0
VERTEX
  8
0
  5
10282
 10
1203.14
 20
541.069
 30
0.000000
  70
    32
  0
VERTEX
  8
0
  5
10283
 10
1202.96
 20
540.551
 30
0.000000
  70
    32
  0
VERTEX
  8
0
  5
10284
 10
1202.81
 20
540.025
 30
0.000000
  70
    32
  0
VERTEX
  8
0
  5
10285
 10
1202.69
 20
539.494
 30
0.000000
  70
    32
  0
VERTEX
  8
0
  5
10286
 10
1202.59
 20
538.956
 30
0.000000
  70
    32
  0
VERTEX
  8
0
  5
10287
 10
1202.52
 20
538.415
 30
0.000000
  70
    32
  0
VERTEX
  8
0
  5
10288
 10
1202.48
 20
537.871
 30
0.000000
  70
    32
  0
VERTEX
  8
0
  5
10289
 10
1202.46
 20
537.326
 30
0.000000
  70
    32
  0
SEQEND
  8
0
  5
1028A
  0
LINE
  5
FCAD
  8
0
 10
967.27546246619602
 20
604.32656111405936
 30
0.0
 11
967.27546246619602
 21
592.32656111405947
 31
0.0
  0
ARC
  5
FCAE
  8
0
 10
966.27546246619602
 20
604.32656111405936
 30
0.0
 40
1.0
 50
0.0
 51
90.0
  0
LINE
  5
FCAF
  8
0
 10
955.27546246619613
 20
604.32656111405947
 30
0.0
 11
955.27546246619613
 21
592.32656111405947
 31
0.0
  0
ARC
  5
FCB0
  8
0
 10
956.27546246619613
 20
592.32656111405947
 30
0.0
 40
1.0
 50
180.0
 51
270.0
  0
ARC
  5
FCB1
  8
0
 10
956.27546246619613
 20
604.32656111405947
 30
0.0
 40
1.0
 50
90.0
 51
180.0
  0
LINE
  5
FCB2
  8
0
 10
956.27546246619613
 20
591.32656111405947
 30
0.0
 11
966.27546246619602
 21
591.32656111405947
 31
0.0
  0
ARC
  5
FCB3
  8
0
 10
966.27546246619602
 20
592.32656111405947
 30
0.0
 40
1.0
 50
270.0
 51
0.0
  0
LINE
  5
FCB4
  8
0
 10
956.27546246619613
 20
605.32656111405947
 30
0.0
 11
966.27546246619602
 21
605.32656111405925
 31
0.0
  0
POLYLINE
  5
FCB5
  8
0
 10
1228.9641845092519
 20
541.7614700057477
 30
0.0
 66
     1
 70
     8
  0
VERTEX
  8
0
  5
1028B
 10
1228.96
 20
541.761
 30
0.000000
  70
    32
  0
VERTEX
  8
0
  5
1028C
 10
1228.96
 20
541.829
 30
0.000000
  70
    32
  0
VERTEX
  8
0
  5
1028D
 10
1228.96
 20
541.896
 30
0.000000
  70
    32
  0
VERTEX
  8
0
  5
1028E
 10
1228.96
 20
541.964
 30
0.000000
  70
    32
  0
VERTEX
  8
0
  5
1028F
 10
1228.96
 20
542.031
 30
0.000000
  70
    32
  0
VERTEX
  8
0
  5
10290
 10
1228.96
 20
542.099
 30
0.000000
  70
    32
  0
VERTEX
  8
0
  5
10291
 10
1228.96
 20
542.166
 30
0.000000
  70
    32
  0
VERTEX
  8
0
  5
10292
 10
1228.96
 20
542.234
 30
0.000000
  70
    32
  0
VERTEX
  8
0
  5
10293
 10
1228.95
 20
542.301
 30
0.000000
  70
    32
  0
VERTEX
  8
0
  5
10294
 10
1228.95
 20
542.368
 30
0.000000
  70
    32
  0
VERTEX
  8
0
  5
10295
 10
1228.95
 20
542.436
 30
0.000000
  70
    32
  0
VERTEX
  8
0
  5
10296
 10
1228.94
 20
542.503
 30
0.000000
  70
    32
  0
VERTEX
  8
0
  5
10297
 10
1228.94
 20
542.571
 30
0.000000
  70
    32
  0
VERTEX
  8
0
  5
10298
 10
1228.94
 20
542.638
 30
0.000000
  70
    32
  0
VERTEX
  8
0
  5
10299
 10
1228.93
 20
542.705
 30
0.000000
  70
    32
  0
VERTEX
  8
0
  5
1029A
 10
1228.93
 20
542.773
 30
0.000000
  70
    32
  0
VERTEX
  8
0
  5
1029B
 10
1228.92
 20
542.840
 30
0.000000
  70
    32
  0
VERTEX
  8
0
  5
1029C
 10
1228.92
 20
542.907
 30
0.000000
  70
    32
  0
VERTEX
  8
0
  5
1029D
 10
1228.91
 20
542.974
 30
0.000000
  70
    32
  0
VERTEX
  8
0
  5
1029E
 10
1228.91
 20
543.042
 30
0.000000
  70
    32
  0
VERTEX
  8
0
  5
1029F
 10
1228.90
 20
543.109
 30
0.000000
  70
    32
  0
VERTEX
  8
0
  5
102A0
 10
1228.89
 20
543.176
 30
0.000000
  70
    32
  0
VERTEX
  8
0
  5
102A1
 10
1228.89
 20
543.243
 30
0.000000
  70
    32
  0
VERTEX
  8
0
  5
102A2
 10
1228.88
 20
543.310
 30
0.000000
  70
    32
  0
VERTEX
  8
0
  5
102A3
 10
1228.87
 20
543.377
 30
0.000000
  70
    32
  0
VERTEX
  8
0
  5
102A4
 10
1228.86
 20
543.444
 30
0.000000
  70
    32
  0
VERTEX
  8
0
  5
102A5
 10
1228.86
 20
543.511
 30
0.000000
  70
    32
  0
VERTEX
  8
0
  5
102A6
 10
1228.85
 20
543.578
 30
0.000000
  70
    32
  0
VERTEX
  8
0
  5
102A7
 10
1228.84
 20
543.645
 30
0.000000
  70
    32
  0
VERTEX
  8
0
  5
102A8
 10
1228.83
 20
543.712
 30
0.000000
  70
    32
  0
VERTEX
  8
0
  5
102A9
 10
1228.82
 20
543.779
 30
0.000000
  70
    32
  0
VERTEX
  8
0
  5
102AA
 10
1228.81
 20
543.846
 30
0.000000
  70
    32
  0
VERTEX
  8
0
  5
102AB
 10
1228.80
 20
543.913
 30
0.000000
  70
    32
  0
VERTEX
  8
0
  5
102AC
 10
1228.79
 20
543.979
 30
0.000000
  70
    32
  0
VERTEX
  8
0
  5
102AD
 10
1228.78
 20
544.046
 30
0.000000
  70
    32
  0
VERTEX
  8
0
  5
102AE
 10
1228.77
 20
544.112
 30
0.000000
  70
    32
  0
VERTEX
  8
0
  5
102AF
 10
1228.76
 20
544.179
 30
0.000000
  70
    32
  0
VERTEX
  8
0
  5
102B0
 10
1228.75
 20
544.246
 30
0.000000
  70
    32
  0
VERTEX
  8
0
  5
102B1
 10
1228.73
 20
544.312
 30
0.000000
  70
    32
  0
VERTEX
  8
0
  5
102B2
 10
1228.72
 20
544.378
 30
0.000000
  70
    32
  0
VERTEX
  8
0
  5
102B3
 10
1228.71
 20
544.445
 30
0.000000
  70
    32
  0
VERTEX
  8
0
  5
102B4
 10
1228.70
 20
544.511
 30
0.000000
  70
    32
  0
VERTEX
  8
0
  5
102B5
 10
1228.68
 20
544.577
 30
0.000000
  70
    32
  0
VERTEX
  8
0
  5
102B6
 10
1228.67
 20
544.643
 30
0.000000
  70
    32
  0
VERTEX
  8
0
  5
102B7
 10
1228.66
 20
544.710
 30
0.000000
  70
    32
  0
VERTEX
  8
0
  5
102B8
 10
1228.64
 20
544.776
 30
0.000000
  70
    32
  0
VERTEX
  8
0
  5
102B9
 10
1228.63
 20
544.842
 30
0.000000
  70
    32
  0
VERTEX
  8
0
  5
102BA
 10
1228.61
 20
544.908
 30
0.000000
  70
    32
  0
VERTEX
  8
0
  5
102BB
 10
1228.60
 20
544.973
 30
0.000000
  70
    32
  0
VERTEX
  8
0
  5
102BC
 10
1228.58
 20
545.039
 30
0.000000
  70
    32
  0
VERTEX
  8
0
  5
102BD
 10
1228.57
 20
545.105
 30
0.000000
  70
    32
  0
VERTEX
  8
0
  5
102BE
 10
1228.55
 20
545.171
 30
0.000000
  70
    32
  0
VERTEX
  8
0
  5
102BF
 10
1228.53
 20
545.236
 30
0.000000
  70
    32
  0
VERTEX
  8
0
  5
102C0
 10
1228.52
 20
545.302
 30
0.000000
  70
    32
  0
VERTEX
  8
0
  5
102C1
 10
1228.50
 20
545.367
 30
0.000000
  70
    32
  0
VERTEX
  8
0
  5
102C2
 10
1228.48
 20
545.432
 30
0.000000
  70
    32
  0
VERTEX
  8
0
  5
102C3
 10
1228.47
 20
545.498
 30
0.000000
  70
    32
  0
VERTEX
  8
0
  5
102C4
 10
1228.45
 20
545.563
 30
0.000000
  70
    32
  0
VERTEX
  8
0
  5
102C5
 10
1228.43
 20
545.628
 30
0.000000
  70
    32
  0
VERTEX
  8
0
  5
102C6
 10
1228.41
 20
545.693
 30
0.000000
  70
    32
  0
VERTEX
  8
0
  5
102C7
 10
1228.39
 20
545.758
 30
0.000000
  70
    32
  0
VERTEX
  8
0
  5
102C8
 10
1228.37
 20
545.823
 30
0.000000
  70
    32
  0
VERTEX
  8
0
  5
102C9
 10
1228.35
 20
545.887
 30
0.000000
  70
    32
  0
VERTEX
  8
0
  5
102CA
 10
1228.33
 20
545.952
 30
0.000000
  70
    32
  0
VERTEX
  8
0
  5
102CB
 10
1228.31
 20
546.017
 30
0.000000
  70
    32
  0
VERTEX
  8
0
  5
102CC
 10
1228.29
 20
546.081
 30
0.000000
  70
    32
  0
VERTEX
  8
0
  5
102CD
 10
1228.27
 20
546.146
 30
0.000000
  70
    32
  0
VERTEX
  8
0
  5
102CE
 10
1228.25
 20
546.210
 30
0.000000
  70
    32
  0
VERTEX
  8
0
  5
102CF
 10
1228.23
 20
546.274
 30
0.000000
  70
    32
  0
VERTEX
  8
0
  5
102D0
 10
1228.21
 20
546.338
 30
0.000000
  70
    32
  0
VERTEX
  8
0
  5
102D1
 10
1228.19
 20
546.402
 30
0.000000
  70
    32
  0
VERTEX
  8
0
  5
102D2
 10
1228.17
 20
546.466
 30
0.000000
  70
    32
  0
VERTEX
  8
0
  5
102D3
 10
1228.14
 20
546.530
 30
0.000000
  70
    32
  0
VERTEX
  8
0
  5
102D4
 10
1228.12
 20
546.594
 30
0.000000
  70
    32
  0
VERTEX
  8
0
  5
102D5
 10
1228.10
 20
546.657
 30
0.000000
  70
    32
  0
VERTEX
  8
0
  5
102D6
 10
1228.07
 20
546.721
 30
0.000000
  70
    32
  0
VERTEX
  8
0
  5
102D7
 10
1228.05
 20
546.784
 30
0.000000
  70
    32
  0
VERTEX
  8
0
  5
102D8
 10
1228.03
 20
546.848
 30
0.000000
  70
    32
  0
VERTEX
  8
0
  5
102D9
 10
1228.00
 20
546.911
 30
0.000000
  70
    32
  0
VERTEX
  8
0
  5
102DA
 10
1227.98
 20
546.974
 30
0.000000
  70
    32
  0
VERTEX
  8
0
  5
102DB
 10
1227.95
 20
547.037
 30
0.000000
  70
    32
  0
VERTEX
  8
0
  5
102DC
 10
1227.93
 20
547.100
 30
0.000000
  70
    32
  0
VERTEX
  8
0
  5
102DD
 10
1227.90
 20
547.162
 30
0.000000
  70
    32
  0
VERTEX
  8
0
  5
102DE
 10
1227.88
 20
547.225
 30
0.000000
  70
    32
  0
VERTEX
  8
0
  5
102DF
 10
1227.85
 20
547.288
 30
0.000000
  70
    32
  0
VERTEX
  8
0
  5
102E0
 10
1227.82
 20
547.350
 30
0.000000
  70
    32
  0
VERTEX
  8
0
  5
102E1
 10
1227.80
 20
547.412
 30
0.000000
  70
    32
  0
VERTEX
  8
0
  5
102E2
 10
1227.77
 20
547.474
 30
0.000000
  70
    32
  0
VERTEX
  8
0
  5
102E3
 10
1227.74
 20
547.537
 30
0.000000
  70
    32
  0
VERTEX
  8
0
  5
102E4
 10
1227.72
 20
547.598
 30
0.000000
  70
    32
  0
VERTEX
  8
0
  5
102E5
 10
1227.69
 20
547.660
 30
0.000000
  70
    32
  0
VERTEX
  8
0
  5
102E6
 10
1227.66
 20
547.722
 30
0.000000
  70
    32
  0
VERTEX
  8
0
  5
102E7
 10
1227.63
 20
547.783
 30
0.000000
  70
    32
  0
VERTEX
  8
0
  5
102E8
 10
1227.60
 20
547.845
 30
0.000000
  70
    32
  0
VERTEX
  8
0
  5
102E9
 10
1227.57
 20
547.906
 30
0.000000
  70
    32
  0
VERTEX
  8
0
  5
102EA
 10
1227.55
 20
547.967
 30
0.000000
  70
    32
  0
VERTEX
  8
0
  5
102EB
 10
1227.52
 20
548.028
 30
0.000000
  70
    32
  0
VERTEX
  8
0
  5
102EC
 10
1227.49
 20
548.089
 30
0.000000
  70
    32
  0
VERTEX
  8
0
  5
102ED
 10
1227.46
 20
548.150
 30
0.000000
  70
    32
  0
VERTEX
  8
0
  5
102EE
 10
1227.43
 20
548.211
 30
0.000000
  70
    32
  0
VERTEX
  8
0
  5
102EF
 10
1227.39
 20
548.271
 30
0.000000
  70
    32
  0
VERTEX
  8
0
  5
102F0
 10
1227.36
 20
548.331
 30
0.000000
  70
    32
  0
VERTEX
  8
0
  5
102F1
 10
1227.33
 20
548.392
 30
0.000000
  70
    32
  0
VERTEX
  8
0
  5
102F2
 10
1227.30
 20
548.452
 30
0.000000
  70
    32
  0
VERTEX
  8
0
  5
102F3
 10
1227.27
 20
548.512
 30
0.000000
  70
    32
  0
VERTEX
  8
0
  5
102F4
 10
1227.24
 20
548.571
 30
0.000000
  70
    32
  0
VERTEX
  8
0
  5
102F5
 10
1227.20
 20
548.631
 30
0.000000
  70
    32
  0
VERTEX
  8
0
  5
102F6
 10
1227.17
 20
548.690
 30
0.000000
  70
    32
  0
VERTEX
  8
0
  5
102F7
 10
1227.14
 20
548.750
 30
0.000000
  70
    32
  0
VERTEX
  8
0
  5
102F8
 10
1227.11
 20
548.809
 30
0.000000
  70
    32
  0
VERTEX
  8
0
  5
102F9
 10
1227.07
 20
548.868
 30
0.000000
  70
    32
  0
VERTEX
  8
0
  5
102FA
 10
1227.04
 20
548.927
 30
0.000000
  70
    32
  0
VERTEX
  8
0
  5
102FB
 10
1227.00
 20
548.986
 30
0.000000
  70
    32
  0
VERTEX
  8
0
  5
102FC
 10
1226.97
 20
549.044
 30
0.000000
  70
    32
  0
VERTEX
  8
0
  5
102FD
 10
1226.94
 20
549.103
 30
0.000000
  70
    32
  0
VERTEX
  8
0
  5
102FE
 10
1226.90
 20
549.161
 30
0.000000
  70
    32
  0
VERTEX
  8
0
  5
102FF
 10
1226.87
 20
549.219
 30
0.000000
  70
    32
  0
VERTEX
  8
0
  5
10300
 10
1226.83
 20
549.277
 30
0.000000
  70
    32
  0
VERTEX
  8
0
  5
10301
 10
1226.79
 20
549.335
 30
0.000000
  70
    32
  0
VERTEX
  8
0
  5
10302
 10
1226.76
 20
549.392
 30
0.000000
  70
    32
  0
VERTEX
  8
0
  5
10303
 10
1226.72
 20
549.450
 30
0.000000
  70
    32
  0
VERTEX
  8
0
  5
10304
 10
1226.69
 20
549.507
 30
0.000000
  70
    32
  0
VERTEX
  8
0
  5
10305
 10
1226.65
 20
549.564
 30
0.000000
  70
    32
  0
VERTEX
  8
0
  5
10306
 10
1226.61
 20
549.621
 30
0.000000
  70
    32
  0
VERTEX
  8
0
  5
10307
 10
1226.57
 20
549.678
 30
0.000000
  70
    32
  0
VERTEX
  8
0
  5
10308
 10
1226.54
 20
549.735
 30
0.000000
  70
    32
  0
VERTEX
  8
0
  5
10309
 10
1226.50
 20
549.791
 30
0.000000
  70
    32
  0
VERTEX
  8
0
  5
1030A
 10
1226.46
 20
549.847
 30
0.000000
  70
    32
  0
VERTEX
  8
0
  5
1030B
 10
1226.42
 20
549.903
 30
0.000000
  70
    32
  0
SEQEND
  8
0
  5
1030C
  0
POLYLINE
  5
FCB6
  8
0
 10
1201.5062471868821
 20
549.90342823656079
 30
0.0
 66
     1
 70
     8
  0
VERTEX
  8
0
  5
1030D
 10
1201.51
 20
549.903
 30
0.000000
  70
    32
  0
VERTEX
  8
0
  5
1030E
 10
1201.47
 20
549.847
 30
0.000000
  70
    32
  0
VERTEX
  8
0
  5
1030F
 10
1201.43
 20
549.791
 30
0.000000
  70
    32
  0
VERTEX
  8
0
  5
10310
 10
1201.39
 20
549.735
 30
0.000000
  70
    32
  0
VERTEX
  8
0
  5
10311
 10
1201.35
 20
549.678
 30
0.000000
  70
    32
  0
VERTEX
  8
0
  5
10312
 10
1201.32
 20
549.621
 30
0.000000
  70
    32
  0
VERTEX
  8
0
  5
10313
 10
1201.28
 20
549.564
 30
0.000000
  70
    32
  0
VERTEX
  8
0
  5
10314
 10
1201.24
 20
549.507
 30
0.000000
  70
    32
  0
VERTEX
  8
0
  5
10315
 10
1201.21
 20
549.450
 30
0.000000
  70
    32
  0
VERTEX
  8
0
  5
10316
 10
1201.17
 20
549.392
 30
0.000000
  70
    32
  0
VERTEX
  8
0
  5
10317
 10
1201.13
 20
549.335
 30
0.000000
  70
    32
  0
VERTEX
  8
0
  5
10318
 10
1201.10
 20
549.277
 30
0.000000
  70
    32
  0
VERTEX
  8
0
  5
10319
 10
1201.06
 20
549.219
 30
0.000000
  70
    32
  0
VERTEX
  8
0
  5
1031A
 10
1201.03
 20
549.161
 30
0.000000
  70
    32
  0
VERTEX
  8
0
  5
1031B
 10
1200.99
 20
549.103
 30
0.000000
  70
    32
  0
VERTEX
  8
0
  5
1031C
 10
1200.96
 20
549.044
 30
0.000000
  70
    32
  0
VERTEX
  8
0
  5
1031D
 10
1200.92
 20
548.986
 30
0.000000
  70
    32
  0
VERTEX
  8
0
  5
1031E
 10
1200.89
 20
548.927
 30
0.000000
  70
    32
  0
VERTEX
  8
0
  5
1031F
 10
1200.86
 20
548.868
 30
0.000000
  70
    32
  0
VERTEX
  8
0
  5
10320
 10
1200.82
 20
548.809
 30
0.000000
  70
    32
  0
VERTEX
  8
0
  5
10321
 10
1200.79
 20
548.750
 30
0.000000
  70
    32
  0
VERTEX
  8
0
  5
10322
 10
1200.76
 20
548.690
 30
0.000000
  70
    32
  0
VERTEX
  8
0
  5
10323
 10
1200.72
 20
548.631
 30
0.000000
  70
    32
  0
VERTEX
  8
0
  5
10324
 10
1200.69
 20
548.571
 30
0.000000
  70
    32
  0
VERTEX
  8
0
  5
10325
 10
1200.66
 20
548.512
 30
0.000000
  70
    32
  0
VERTEX
  8
0
  5
10326
 10
1200.63
 20
548.452
 30
0.000000
  70
    32
  0
VERTEX
  8
0
  5
10327
 10
1200.60
 20
548.392
 30
0.000000
  70
    32
  0
VERTEX
  8
0
  5
10328
 10
1200.56
 20
548.331
 30
0.000000
  70
    32
  0
VERTEX
  8
0
  5
10329
 10
1200.53
 20
548.271
 30
0.000000
  70
    32
  0
VERTEX
  8
0
  5
1032A
 10
1200.50
 20
548.211
 30
0.000000
  70
    32
  0
VERTEX
  8
0
  5
1032B
 10
1200.47
 20
548.150
 30
0.000000
  70
    32
  0
VERTEX
  8
0
  5
1032C
 10
1200.44
 20
548.089
 30
0.000000
  70
    32
  0
VERTEX
  8
0
  5
1032D
 10
1200.41
 20
548.028
 30
0.000000
  70
    32
  0
VERTEX
  8
0
  5
1032E
 10
1200.38
 20
547.967
 30
0.000000
  70
    32
  0
VERTEX
  8
0
  5
1032F
 10
1200.35
 20
547.906
 30
0.000000
  70
    32
  0
VERTEX
  8
0
  5
10330
 10
1200.32
 20
547.845
 30
0.000000
  70
    32
  0
VERTEX
  8
0
  5
10331
 10
1200.30
 20
547.783
 30
0.000000
  70
    32
  0
VERTEX
  8
0
  5
10332
 10
1200.27
 20
547.722
 30
0.000000
  70
    32
  0
VERTEX
  8
0
  5
10333
 10
1200.24
 20
547.660
 30
0.000000
  70
    32
  0
VERTEX
  8
0
  5
10334
 10
1200.21
 20
547.598
 30
0.000000
  70
    32
  0
VERTEX
  8
0
  5
10335
 10
1200.18
 20
547.537
 30
0.000000
  70
    32
  0
VERTEX
  8
0
  5
10336
 10
1200.16
 20
547.474
 30
0.000000
  70
    32
  0
VERTEX
  8
0
  5
10337
 10
1200.13
 20
547.412
 30
0.000000
  70
    32
  0
VERTEX
  8
0
  5
10338
 10
1200.10
 20
547.350
 30
0.000000
  70
    32
  0
VERTEX
  8
0
  5
10339
 10
1200.08
 20
547.288
 30
0.000000
  70
    32
  0
VERTEX
  8
0
  5
1033A
 10
1200.05
 20
547.225
 30
0.000000
  70
    32
  0
VERTEX
  8
0
  5
1033B
 10
1200.03
 20
547.162
 30
0.000000
  70
    32
  0
VERTEX
  8
0
  5
1033C
 10
1200.00
 20
547.100
 30
0.000000
  70
    32
  0
VERTEX
  8
0
  5
1033D
 10
1199.98
 20
547.037
 30
0.000000
  70
    32
  0
VERTEX
  8
0
  5
1033E
 10
1199.95
 20
546.974
 30
0.000000
  70
    32
  0
VERTEX
  8
0
  5
1033F
 10
1199.93
 20
546.911
 30
0.000000
  70
    32
  0
VERTEX
  8
0
  5
10340
 10
1199.90
 20
546.848
 30
0.000000
  70
    32
  0
VERTEX
  8
0
  5
10341
 10
1199.88
 20
546.784
 30
0.000000
  70
    32
  0
VERTEX
  8
0
  5
10342
 10
1199.85
 20
546.721
 30
0.000000
  70
    32
  0
VERTEX
  8
0
  5
10343
 10
1199.83
 20
546.657
 30
0.000000
  70
    32
  0
VERTEX
  8
0
  5
10344
 10
1199.81
 20
546.594
 30
0.000000
  70
    32
  0
VERTEX
  8
0
  5
10345
 10
1199.78
 20
546.530
 30
0.000000
  70
    32
  0
VERTEX
  8
0
  5
10346
 10
1199.76
 20
546.466
 30
0.000000
  70
    32
  0
VERTEX
  8
0
  5
10347
 10
1199.74
 20
546.402
 30
0.000000
  70
    32
  0
VERTEX
  8
0
  5
10348
 10
1199.72
 20
546.338
 30
0.000000
  70
    32
  0
VERTEX
  8
0
  5
10349
 10
1199.70
 20
546.274
 30
0.000000
  70
    32
  0
VERTEX
  8
0
  5
1034A
 10
1199.68
 20
546.210
 30
0.000000
  70
    32
  0
VERTEX
  8
0
  5
1034B
 10
1199.65
 20
546.146
 30
0.000000
  70
    32
  0
VERTEX
  8
0
  5
1034C
 10
1199.63
 20
546.081
 30
0.000000
  70
    32
  0
VERTEX
  8
0
  5
1034D
 10
1199.61
 20
546.017
 30
0.000000
  70
    32
  0
VERTEX
  8
0
  5
1034E
 10
1199.59
 20
545.952
 30
0.000000
  70
    32
  0
VERTEX
  8
0
  5
1034F
 10
1199.57
 20
545.887
 30
0.000000
  70
    32
  0
VERTEX
  8
0
  5
10350
 10
1199.55
 20
545.823
 30
0.000000
  70
    32
  0
VERTEX
  8
0
  5
10351
 10
1199.54
 20
545.758
 30
0.000000
  70
    32
  0
VERTEX
  8
0
  5
10352
 10
1199.52
 20
545.693
 30
0.000000
  70
    32
  0
VERTEX
  8
0
  5
10353
 10
1199.50
 20
545.628
 30
0.000000
  70
    32
  0
VERTEX
  8
0
  5
10354
 10
1199.48
 20
545.563
 30
0.000000
  70
    32
  0
VERTEX
  8
0
  5
10355
 10
1199.46
 20
545.498
 30
0.000000
  70
    32
  0
VERTEX
  8
0
  5
10356
 10
1199.44
 20
545.432
 30
0.000000
  70
    32
  0
VERTEX
  8
0
  5
10357
 10
1199.43
 20
545.367
 30
0.000000
  70
    32
  0
VERTEX
  8
0
  5
10358
 10
1199.41
 20
545.302
 30
0.000000
  70
    32
  0
VERTEX
  8
0
  5
10359
 10
1199.39
 20
545.236
 30
0.000000
  70
    32
  0
VERTEX
  8
0
  5
1035A
 10
1199.38
 20
545.171
 30
0.000000
  70
    32
  0
VERTEX
  8
0
  5
1035B
 10
1199.36
 20
545.105
 30
0.000000
  70
    32
  0
VERTEX
  8
0
  5
1035C
 10
1199.35
 20
545.039
 30
0.000000
  70
    32
  0
VERTEX
  8
0
  5
1035D
 10
1199.33
 20
544.973
 30
0.000000
  70
    32
  0
VERTEX
  8
0
  5
1035E
 10
1199.32
 20
544.908
 30
0.000000
  70
    32
  0
VERTEX
  8
0
  5
1035F
 10
1199.30
 20
544.842
 30
0.000000
  70
    32
  0
VERTEX
  8
0
  5
10360
 10
1199.29
 20
544.776
 30
0.000000
  70
    32
  0
VERTEX
  8
0
  5
10361
 10
1199.27
 20
544.710
 30
0.000000
  70
    32
  0
VERTEX
  8
0
  5
10362
 10
1199.26
 20
544.643
 30
0.000000
  70
    32
  0
VERTEX
  8
0
  5
10363
 10
1199.25
 20
544.577
 30
0.000000
  70
    32
  0
VERTEX
  8
0
  5
10364
 10
1199.23
 20
544.511
 30
0.000000
  70
    32
  0
VERTEX
  8
0
  5
10365
 10
1199.22
 20
544.445
 30
0.000000
  70
    32
  0
VERTEX
  8
0
  5
10366
 10
1199.21
 20
544.378
 30
0.000000
  70
    32
  0
VERTEX
  8
0
  5
10367
 10
1199.19
 20
544.312
 30
0.000000
  70
    32
  0
VERTEX
  8
0
  5
10368
 10
1199.18
 20
544.246
 30
0.000000
  70
    32
  0
VERTEX
  8
0
  5
10369
 10
1199.17
 20
544.179
 30
0.000000
  70
    32
  0
VERTEX
  8
0
  5
1036A
 10
1199.16
 20
544.112
 30
0.000000
  70
    32
  0
VERTEX
  8
0
  5
1036B
 10
1199.15
 20
544.046
 30
0.000000
  70
    32
  0
VERTEX
  8
0
  5
1036C
 10
1199.14
 20
543.979
 30
0.000000
  70
    32
  0
VERTEX
  8
0
  5
1036D
 10
1199.13
 20
543.913
 30
0.000000
  70
    32
  0
VERTEX
  8
0
  5
1036E
 10
1199.12
 20
543.846
 30
0.000000
  70
    32
  0
VERTEX
  8
0
  5
1036F
 10
1199.11
 20
543.779
 30
0.000000
  70
    32
  0
VERTEX
  8
0
  5
10370
 10
1199.10
 20
543.712
 30
0.000000
  70
    32
  0
VERTEX
  8
0
  5
10371
 10
1199.09
 20
543.645
 30
0.000000
  70
    32
  0
VERTEX
  8
0
  5
10372
 10
1199.08
 20
543.578
 30
0.000000
  70
    32
  0
VERTEX
  8
0
  5
10373
 10
1199.07
 20
543.511
 30
0.000000
  70
    32
  0
VERTEX
  8
0
  5
10374
 10
1199.06
 20
543.444
 30
0.000000
  70
    32
  0
VERTEX
  8
0
  5
10375
 10
1199.06
 20
543.377
 30
0.000000
  70
    32
  0
VERTEX
  8
0
  5
10376
 10
1199.05
 20
543.310
 30
0.000000
  70
    32
  0
VERTEX
  8
0
  5
10377
 10
1199.04
 20
543.243
 30
0.000000
  70
    32
  0
VERTEX
  8
0
  5
10378
 10
1199.03
 20
543.176
 30
0.000000
  70
    32
  0
VERTEX
  8
0
  5
10379
 10
1199.03
 20
543.109
 30
0.000000
  70
    32
  0
VERTEX
  8
0
  5
1037A
 10
1199.02
 20
543.042
 30
0.000000
  70
    32
  0
VERTEX
  8
0
  5
1037B
 10
1199.02
 20
542.974
 30
0.000000
  70
    32
  0
VERTEX
  8
0
  5
1037C
 10
1199.01
 20
542.907
 30
0.000000
  70
    32
  0
VERTEX
  8
0
  5
1037D
 10
1199.01
 20
542.840
 30
0.000000
  70
    32
  0
VERTEX
  8
0
  5
1037E
 10
1199.00
 20
542.773
 30
0.000000
  70
    32
  0
VERTEX
  8
0
  5
1037F
 10
1199.00
 20
542.705
 30
0.000000
  70
    32
  0
VERTEX
  8
0
  5
10380
 10
1198.99
 20
542.638
 30
0.000000
  70
    32
  0
VERTEX
  8
0
  5
10381
 10
1198.99
 20
542.571
 30
0.000000
  70
    32
  0
VERTEX
  8
0
  5
10382
 10
1198.98
 20
542.503
 30
0.000000
  70
    32
  0
VERTEX
  8
0
  5
10383
 10
1198.98
 20
542.436
 30
0.000000
  70
    32
  0
VERTEX
  8
0
  5
10384
 10
1198.98
 20
542.368
 30
0.000000
  70
    32
  0
VERTEX
  8
0
  5
10385
 10
1198.97
 20
542.301
 30
0.000000
  70
    32
  0
VERTEX
  8
0
  5
10386
 10
1198.97
 20
542.234
 30
0.000000
  70
    32
  0
VERTEX
  8
0
  5
10387
 10
1198.97
 20
542.166
 30
0.000000
  70
    32
  0
VERTEX
  8
0
  5
10388
 10
1198.97
 20
542.099
 30
0.000000
  70
    32
  0
VERTEX
  8
0
  5
10389
 10
1198.97
 20
542.031
 30
0.000000
  70
    32
  0
VERTEX
  8
0
  5
1038A
 10
1198.97
 20
541.964
 30
0.000000
  70
    32
  0
VERTEX
  8
0
  5
1038B
 10
1198.96
 20
541.896
 30
0.000000
  70
    32
  0
VERTEX
  8
0
  5
1038C
 10
1198.96
 20
541.829
 30
0.000000
  70
    32
  0
VERTEX
  8
0
  5
1038D
 10
1198.96
 20
541.761
 30
0.000000
  70
    32
  0
SEQEND
  8
0
  5
1038E
  0
LINE
  5
FCB7
  8
0
 10
1070.6246156246521
 20
550.24623200449469
 30
0.0
 11
1069.658696791201
 21
550.50507714581238
 31
0.0
  0
LINE
  5
FCB8
  8
0
 10
1064.6714774819061
 20
528.03001842153265
 30
0.0
 11
1063.7052585430661
 21
528.28894398453713
 31
0.0
  0
POLYLINE
  5
FCB9
  8
0
 10
1203.1360555559122
 20
549.51312419989415
 30
0.0
 66
     1
 70
     8
  0
VERTEX
  8
0
  5
1038F
 10
1203.14
 20
549.513
 30
0.000000
  70
    32
  0
VERTEX
  8
0
  5
10390
 10
1202.76
 20
549.121
 30
0.000000
  70
    32
  0
VERTEX
  8
0
  5
10391
 10
1202.41
 20
548.717
 30
0.000000
  70
    32
  0
VERTEX
  8
0
  5
10392
 10
1202.07
 20
548.300
 30
0.000000
  70
    32
  0
VERTEX
  8
0
  5
10393
 10
1201.74
 20
547.871
 30
0.000000
  70
    32
  0
VERTEX
  8
0
  5
10394
 10
1201.43
 20
547.431
 30
0.000000
  70
    32
  0
VERTEX
  8
0
  5
10395
 10
1201.14
 20
546.980
 30
0.000000
  70
    32
  0
VERTEX
  8
0
  5
10396
 10
1200.86
 20
546.519
 30
0.000000
  70
    32
  0
VERTEX
  8
0
  5
10397
 10
1200.61
 20
546.049
 30
0.000000
  70
    32
  0
VERTEX
  8
0
  5
10398
 10
1200.37
 20
545.569
 30
0.000000
  70
    32
  0
VERTEX
  8
0
  5
10399
 10
1200.14
 20
545.082
 30
0.000000
  70
    32
  0
VERTEX
  8
0
  5
1039A
 10
1199.94
 20
544.587
 30
0.000000
  70
    32
  0
VERTEX
  8
0
  5
1039B
 10
1199.76
 20
544.085
 30
0.000000
  70
    32
  0
VERTEX
  8
0
  5
1039C
 10
1199.59
 20
543.577
 30
0.000000
  70
    32
  0
VERTEX
  8
0
  5
1039D
 10
1199.44
 20
543.063
 30
0.000000
  70
    32
  0
VERTEX
  8
0
  5
1039E
 10
1199.32
 20
542.544
 30
0.000000
  70
    32
  0
VERTEX
  8
0
  5
1039F
 10
1199.21
 20
542.022
 30
0.000000
  70
    32
  0
VERTEX
  8
0
  5
103A0
 10
1199.12
 20
541.495
 30
0.000000
  70
    32
  0
VERTEX
  8
0
  5
103A1
 10
1199.05
 20
540.966
 30
0.000000
  70
    32
  0
VERTEX
  8
0
  5
103A2
 10
1199.00
 20
540.435
 30
0.000000
  70
    32
  0
VERTEX
  8
0
  5
103A3
 10
1198.97
 20
539.902
 30
0.000000
  70
    32
  0
VERTEX
  8
0
  5
103A4
 10
1198.96
 20
539.369
 30
0.000000
  70
    32
  0
VERTEX
  8
0
  5
103A5
 10
1198.98
 20
538.836
 30
0.000000
  70
    32
  0
VERTEX
  8
0
  5
103A6
 10
1199.01
 20
538.303
 30
0.000000
  70
    32
  0
VERTEX
  8
0
  5
103A7
 10
1199.06
 20
537.772
 30
0.000000
  70
    32
  0
VERTEX
  8
0
  5
103A8
 10
1199.13
 20
537.244
 30
0.000000
  70
    32
  0
VERTEX
  8
0
  5
103A9
 10
1199.22
 20
536.718
 30
0.000000
  70
    32
  0
VERTEX
  8
0
  5
103AA
 10
1199.33
 20
536.195
 30
0.000000
  70
    32
  0
VERTEX
  8
0
  5
103AB
 10
1199.46
 20
535.677
 30
0.000000
  70
    32
  0
VERTEX
  8
0
  5
103AC
 10
1199.61
 20
535.164
 30
0.000000
  70
    32
  0
VERTEX
  8
0
  5
103AD
 10
1199.77
 20
534.656
 30
0.000000
  70
    32
  0
VERTEX
  8
0
  5
103AE
 10
1199.96
 20
534.155
 30
0.000000
  70
    32
  0
VERTEX
  8
0
  5
103AF
 10
1200.17
 20
533.661
 30
0.000000
  70
    32
  0
VERTEX
  8
0
  5
103B0
 10
1200.39
 20
533.174
 30
0.000000
  70
    32
  0
VERTEX
  8
0
  5
103B1
 10
1200.63
 20
532.696
 30
0.000000
  70
    32
  0
VERTEX
  8
0
  5
103B2
 10
1200.89
 20
532.226
 30
0.000000
  70
    32
  0
VERTEX
  8
0
  5
103B3
 10
1201.17
 20
531.766
 30
0.000000
  70
    32
  0
VERTEX
  8
0
  5
103B4
 10
1201.46
 20
531.317
 30
0.000000
  70
    32
  0
VERTEX
  8
0
  5
103B5
 10
1201.77
 20
530.878
 30
0.000000
  70
    32
  0
VERTEX
  8
0
  5
103B6
 10
1202.10
 20
530.450
 30
0.000000
  70
    32
  0
VERTEX
  8
0
  5
103B7
 10
1202.44
 20
530.034
 30
0.000000
  70
    32
  0
VERTEX
  8
0
  5
103B8
 10
1202.80
 20
529.631
 30
0.000000
  70
    32
  0
VERTEX
  8
0
  5
103B9
 10
1203.18
 20
529.241
 30
0.000000
  70
    32
  0
VERTEX
  8
0
  5
103BA
 10
1203.56
 20
528.864
 30
0.000000
  70
    32
  0
VERTEX
  8
0
  5
103BB
 10
1203.96
 20
528.501
 30
0.000000
  70
    32
  0
VERTEX
  8
0
  5
103BC
 10
1204.38
 20
528.153
 30
0.000000
  70
    32
  0
VERTEX
  8
0
  5
103BD
 10
1204.81
 20
527.820
 30
0.000000
  70
    32
  0
VERTEX
  8
0
  5
103BE
 10
1205.25
 20
527.502
 30
0.000000
  70
    32
  0
VERTEX
  8
0
  5
103BF
 10
1205.70
 20
527.200
 30
0.000000
  70
    32
  0
VERTEX
  8
0
  5
103C0
 10
1206.16
 20
526.914
 30
0.000000
  70
    32
  0
VERTEX
  8
0
  5
103C1
 10
1206.63
 20
526.645
 30
0.000000
  70
    32
  0
VERTEX
  8
0
  5
103C2
 10
1207.11
 20
526.393
 30
0.000000
  70
    32
  0
VERTEX
  8
0
  5
103C3
 10
1207.60
 20
526.158
 30
0.000000
  70
    32
  0
VERTEX
  8
0
  5
103C4
 10
1208.10
 20
525.940
 30
0.000000
  70
    32
  0
VERTEX
  8
0
  5
103C5
 10
1208.61
 20
525.741
 30
0.000000
  70
    32
  0
VERTEX
  8
0
  5
103C6
 10
1209.13
 20
525.560
 30
0.000000
  70
    32
  0
VERTEX
  8
0
  5
103C7
 10
1209.65
 20
525.397
 30
0.000000
  70
    32
  0
VERTEX
  8
0
  5
103C8
 10
1210.17
 20
525.253
 30
0.000000
  70
    32
  0
VERTEX
  8
0
  5
103C9
 10
1210.71
 20
525.128
 30
0.000000
  70
    32
  0
VERTEX
  8
0
  5
103CA
 10
1211.24
 20
525.021
 30
0.000000
  70
    32
  0
VERTEX
  8
0
  5
103CB
 10
1211.78
 20
524.934
 30
0.000000
  70
    32
  0
VERTEX
  8
0
  5
103CC
 10
1212.33
 20
524.866
 30
0.000000
  70
    32
  0
VERTEX
  8
0
  5
103CD
 10
1212.87
 20
524.818
 30
0.000000
  70
    32
  0
VERTEX
  8
0
  5
103CE
 10
1213.42
 20
524.789
 30
0.000000
  70
    32
  0
VERTEX
  8
0
  5
103CF
 10
1213.96
 20
524.779
 30
0.000000
  70
    32
  0
VERTEX
  8
0
  5
103D0
 10
1214.51
 20
524.789
 30
0.000000
  70
    32
  0
VERTEX
  8
0
  5
103D1
 10
1215.06
 20
524.818
 30
0.000000
  70
    32
  0
VERTEX
  8
0
  5
103D2
 10
1215.60
 20
524.866
 30
0.000000
  70
    32
  0
VERTEX
  8
0
  5
103D3
 10
1216.15
 20
524.934
 30
0.000000
  70
    32
  0
VERTEX
  8
0
  5
103D4
 10
1216.69
 20
525.021
 30
0.000000
  70
    32
  0
VERTEX
  8
0
  5
103D5
 10
1217.22
 20
525.128
 30
0.000000
  70
    32
  0
VERTEX
  8
0
  5
103D6
 10
1217.75
 20
525.253
 30
0.000000
  70
    32
  0
VERTEX
  8
0
  5
103D7
 10
1218.28
 20
525.397
 30
0.000000
  70
    32
  0
VERTEX
  8
0
  5
103D8
 10
1218.80
 20
525.560
 30
0.000000
  70
    32
  0
VERTEX
  8
0
  5
103D9
 10
1219.32
 20
525.741
 30
0.000000
  70
    32
  0
VERTEX
  8
0
  5
103DA
 10
1219.82
 20
525.940
 30
0.000000
  70
    32
  0
VERTEX
  8
0
  5
103DB
 10
1220.32
 20
526.158
 30
0.000000
  70
    32
  0
VERTEX
  8
0
  5
103DC
 10
1220.82
 20
526.393
 30
0.000000
  70
    32
  0
VERTEX
  8
0
  5
103DD
 10
1221.30
 20
526.645
 30
0.000000
  70
    32
  0
VERTEX
  8
0
  5
103DE
 10
1221.77
 20
526.914
 30
0.000000
  70
    32
  0
VERTEX
  8
0
  5
103DF
 10
1222.23
 20
527.200
 30
0.000000
  70
    32
  0
VERTEX
  8
0
  5
103E0
 10
1222.68
 20
527.502
 30
0.000000
  70
    32
  0
VERTEX
  8
0
  5
103E1
 10
1223.12
 20
527.820
 30
0.000000
  70
    32
  0
VERTEX
  8
0
  5
103E2
 10
1223.55
 20
528.153
 30
0.000000
  70
    32
  0
VERTEX
  8
0
  5
103E3
 10
1223.96
 20
528.501
 30
0.000000
  70
    32
  0
VERTEX
  8
0
  5
103E4
 10
1224.37
 20
528.864
 30
0.000000
  70
    32
  0
VERTEX
  8
0
  5
103E5
 10
1224.75
 20
529.241
 30
0.000000
  70
    32
  0
VERTEX
  8
0
  5
103E6
 10
1225.13
 20
529.631
 30
0.000000
  70
    32
  0
VERTEX
  8
0
  5
103E7
 10
1225.48
 20
530.034
 30
0.000000
  70
    32
  0
VERTEX
  8
0
  5
103E8
 10
1225.83
 20
530.450
 30
0.000000
  70
    32
  0
VERTEX
  8
0
  5
103E9
 10
1226.15
 20
530.878
 30
0.000000
  70
    32
  0
VERTEX
  8
0
  5
103EA
 10
1226.46
 20
531.317
 30
0.000000
  70
    32
  0
VERTEX
  8
0
  5
103EB
 10
1226.76
 20
531.766
 30
0.000000
  70
    32
  0
VERTEX
  8
0
  5
103EC
 10
1227.04
 20
532.226
 30
0.000000
  70
    32
  0
VERTEX
  8
0
  5
103ED
 10
1227.30
 20
532.696
 30
0.000000
  70
    32
  0
VERTEX
  8
0
  5
103EE
 10
1227.54
 20
533.174
 30
0.000000
  70
    32
  0
VERTEX
  8
0
  5
103EF
 10
1227.76
 20
533.661
 30
0.000000
  70
    32
  0
VERTEX
  8
0
  5
103F0
 10
1227.97
 20
534.155
 30
0.000000
  70
    32
  0
VERTEX
  8
0
  5
103F1
 10
1228.15
 20
534.656
 30
0.000000
  70
    32
  0
VERTEX
  8
0
  5
103F2
 10
1228.32
 20
535.164
 30
0.000000
  70
    32
  0
VERTEX
  8
0
  5
103F3
 10
1228.47
 20
535.677
 30
0.000000
  70
    32
  0
VERTEX
  8
0
  5
103F4
 10
1228.60
 20
536.195
 30
0.000000
  70
    32
  0
VERTEX
  8
0
  5
103F5
 10
1228.71
 20
536.718
 30
0.000000
  70
    32
  0
VERTEX
  8
0
  5
103F6
 10
1228.80
 20
537.244
 30
0.000000
  70
    32
  0
VERTEX
  8
0
  5
103F7
 10
1228.87
 20
537.772
 30
0.000000
  70
    32
  0
VERTEX
  8
0
  5
103F8
 10
1228.92
 20
538.303
 30
0.000000
  70
    32
  0
VERTEX
  8
0
  5
103F9
 10
1228.95
 20
538.836
 30
0.000000
  70
    32
  0
VERTEX
  8
0
  5
103FA
 10
1228.96
 20
539.369
 30
0.000000
  70
    32
  0
VERTEX
  8
0
  5
103FB
 10
1228.96
 20
539.902
 30
0.000000
  70
    32
  0
VERTEX
  8
0
  5
103FC
 10
1228.93
 20
540.435
 30
0.000000
  70
    32
  0
VERTEX
  8
0
  5
103FD
 10
1228.88
 20
540.966
 30
0.000000
  70
    32
  0
VERTEX
  8
0
  5
103FE
 10
1228.81
 20
541.495
 30
0.000000
  70
    32
  0
VERTEX
  8
0
  5
103FF
 10
1228.72
 20
542.022
 30
0.000000
  70
    32
  0
VERTEX
  8
0
  5
10400
 10
1228.61
 20
542.544
 30
0.000000
  70
    32
  0
VERTEX
  8
0
  5
10401
 10
1228.48
 20
543.063
 30
0.000000
  70
    32
  0
VERTEX
  8
0
  5
10402
 10
1228.34
 20
543.577
 30
0.000000
  70
    32
  0
VERTEX
  8
0
  5
10403
 10
1228.17
 20
544.085
 30
0.000000
  70
    32
  0
VERTEX
  8
0
  5
10404
 10
1227.99
 20
544.587
 30
0.000000
  70
    32
  0
VERTEX
  8
0
  5
10405
 10
1227.78
 20
545.082
 30
0.000000
  70
    32
  0
VERTEX
  8
0
  5
10406
 10
1227.56
 20
545.569
 30
0.000000
  70
    32
  0
VERTEX
  8
0
  5
10407
 10
1227.32
 20
546.049
 30
0.000000
  70
    32
  0
VERTEX
  8
0
  5
10408
 10
1227.06
 20
546.519
 30
0.000000
  70
    32
  0
VERTEX
  8
0
  5
10409
 10
1226.79
 20
546.980
 30
0.000000
  70
    32
  0
VERTEX
  8
0
  5
1040A
 10
1226.50
 20
547.431
 30
0.000000
  70
    32
  0
VERTEX
  8
0
  5
1040B
 10
1226.19
 20
547.871
 30
0.000000
  70
    32
  0
VERTEX
  8
0
  5
1040C
 10
1225.86
 20
548.300
 30
0.000000
  70
    32
  0
VERTEX
  8
0
  5
1040D
 10
1225.52
 20
548.717
 30
0.000000
  70
    32
  0
VERTEX
  8
0
  5
1040E
 10
1225.16
 20
549.121
 30
0.000000
  70
    32
  0
VERTEX
  8
0
  5
1040F
 10
1224.79
 20
549.513
 30
0.000000
  70
    32
  0
SEQEND
  8
0
  5
10410
  0
LINE
  5
FCBA
  8
0
 10
1248.6368177797849
 20
634.3516704419593
 30
0.0
 11
1252.516222709681
 21
634.3516704419593
 31
0.0
  0
LINE
  5
FCBB
  8
0
 10
1252.516222709681
 20
634.3516704419593
 30
0.0
 11
1252.5162227096801
 21
630.16585053126755
 31
0.0
  0
ARC
  5
FCBC
  8
0
 10
1248.266222709681
 20
623.90934964549911
 30
0.0
 40
10.44232079646028
 50
65.983629264472185
 51
87.927191598969088
  0
LINE
  5
FCBD
  8
0
 10
1179.291551238719
 20
634.3516704419593
 30
0.0
 11
1175.412146308824
 21
634.3516704419593
 31
0.0
  0
LINE
  5
FCBE
  8
0
 10
1175.412146308824
 20
634.3516704419593
 30
0.0
 11
1175.412146308824
 21
630.16585053126755
 31
0.0
  0
ARC
  5
FCBF
  8
0
 10
1179.662146308824
 20
623.90934964549911
 30
0.0
 40
10.44232079646028
 50
92.072808401030912
 51
114.0163707355278
  0
LINE
  5
FCC0
  8
0
 10
804.79378200315421
 20
559.90781568946238
 30
0.0
 11
804.79378200315421
 21
555.32656111405947
 31
0.0
  0
LINE
  5
FCC1
  8
0
 10
740.79378200315409
 20
555.32656111405947
 30
0.0
 11
740.79378200315409
 21
559.90781568946238
 31
0.0
  0
ARC
  5
FCC2
  8
0
 10
772.79378200315421
 20
555.32656111405947
 30
0.0
 40
32.0
 50
180.0
 51
0.0
  0
LINE
  5
FCC3
  8
0
 10
738.12114873262124
 20
634.3516704419593
 30
0.0
 11
734.24174380272586
 21
634.3516704419593
 31
0.0
  0
LINE
  5
FCC4
  8
0
 10
734.24174380272586
 20
634.3516704419593
 30
0.0
 11
734.24174380272586
 21
630.16585053126732
 31
0.0
  0
ARC
  5
FCC5
  8
0
 10
738.49174380272575
 20
623.90934964549911
 30
0.0
 40
10.44232079646028
 50
92.072808401030912
 51
114.0163707355278
  0
LINE
  5
FCC6
  8
0
 10
807.46641527368695
 20
634.3516704419593
 30
0.0
 11
811.34582020358243
 21
634.3516704419593
 31
0.0
  0
LINE
  5
FCC7
  8
0
 10
811.34582020358243
 20
634.3516704419593
 30
0.0
 11
811.34582020358243
 21
630.16585053126755
 31
0.0
  0
ARC
  5
FCC8
  8
0
 10
807.09582020358232
 20
623.90934964549911
 30
0.0
 40
10.44232079646028
 50
65.983629264472185
 51
87.927191598969088
  0
CIRCLE
  5
FCC9
  8
0
 10
772.79378200315421
 20
535.33582549480184
 30
0.0
 40
11.00926438074225
  0
LINE
  5
FCCA
  8
0
 10
1039.2754624661959
 20
983.15492371224445
 30
0.0
 11
1039.2754624661959
 21
961.36706635505868
 31
0.0
  0
LINE
  5
FCCB
  8
0
 10
1040.2754624661959
 20
930.36706635505891
 30
0.0
 11
1015.212462466196
 21
930.36706635505891
 31
0.0
  0
ARC
  5
FCCC
  8
0
 10
1007.275462466196
 20
961.36706635505868
 30
0.0
 40
32.0
 50
348.11884397898638
 51
0.0
  0
ARC
  5
FCCD
  8
0
 10
1040.5470719854241
 20
954.36706635505868
 30
0.0
 40
2.0
 50
168.11884397898629
 51
262.19484219869122
  0
ARC
  5
FCCE
  8
0
 10
982.39359059176616
 20
933.98290209860477
 30
0.0
 40
5.0
 50
47.741003769912311
 51
105.0001760962264
  0
LINE
  5
FCCF
  8
0
 10
964.06675031367388
 20
1022.367066355059
 30
0.0
 11
964.06675031367388
 21
1022.367066355059
 31
0.0
  0
LINE
  5
FCD0
  8
0
 10
1059.2754624661959
 20
1022.367066355059
 30
0.0
 11
1059.2754624661959
 21
1021.367066355058
 31
0.0
  0
ARC
  5
FCD1
  8
0
 10
1056.7754624661959
 20
1022.367066355059
 30
0.0
 40
2.5
 50
0.0
 51
23.57817847820715
  0
ARC
  5
FCD2
  8
0
 10
1060.2754624661959
 20
1021.367066355058
 30
0.0
 40
1.0
 50
180.0
 51
261.07430777597222
  0
LINE
  5
FCD3
  8
0
 10
945.27546246619613
 20
1010.367066355058
 30
0.0
 11
945.27546246619613
 21
998.3670663550588
 31
0.0
  0
ARC
  5
FCD4
  8
0
 10
946.27546246619613
 20
1010.367066355058
 30
0.0
 40
1.0
 50
90.0
 51
180.0
  0
LINE
  5
FCD5
  8
0
 10
957.27546246619613
 20
1010.367066355059
 30
0.0
 11
957.27546246619613
 21
998.3670663550588
 31
0.0
  0
ARC
  5
FCD6
  8
0
 10
956.27546246619613
 20
998.3670663550588
 30
0.0
 40
1.0
 50
270.0
 51
0.0
  0
ARC
  5
FCD7
  8
0
 10
956.27546246619613
 20
1010.367066355059
 30
0.0
 40
1.0
 50
0.0
 51
90.0
  0
LINE
  5
FCD8
  8
0
 10
1047.2754624661959
 20
1020.367066355059
 30
0.0
 11
1060.1104996886361
 21
1020.367066355059
 31
0.0
  0
LINE
  5
FCD9
  8
0
 10
964.27546246619613
 20
1023.367066355059
 30
0.0
 11
1059.066750313674
 21
1023.367066355059
 31
0.0
  0
ARC
  5
FCDA
  8
0
 10
1040.7754624661959
 20
993.8670663550588
 30
0.0
 40
7.0
 50
283.1365587869393
 51
300.27264131890541
  0
ARC
  5
FCDB
  8
0
 10
1043.2754624661959
 20
983.15492371224445
 30
0.0
 40
4.0
 50
103.1365587869393
 51
180.0
  0
ARC
  5
FCDC
  8
0
 10
1046.3207307194009
 20
984.3670663550588
 30
0.0
 40
4.0
 50
90.0
 51
120.2726413189054
  0
LINE
  5
FCDD
  8
0
 10
1046.3207307194009
 20
988.36706635505868
 30
0.0
 11
1060.110611108154
 21
988.36706635505868
 31
0.0
  0
LINE
  5
FCDE
  8
0
 10
944.44042524375595
 20
1020.367066355059
 30
0.0
 11
961.158423400478
 21
1020.367066355059
 31
0.0
  0
LINE
  5
FCDF
  8
0
 10
981.09948052259244
 20
938.81252725267893
 30
0.0
 11
952.23490732066011
 21
931.07819308980675
 31
0.0
  0
LINE
  5
FCE0
  8
0
 10
953.29346246619616
 20
964.72212020245888
 30
0.0
 11
953.29346246619616
 21
985.36731635505862
 31
0.0
  0
ARC
  5
FCE1
  8
0
 10
950.29346246619605
 20
985.36731635505862
 30
0.0
 40
3.0
 50
0.0
 51
90.0
  0
LINE
  5
FCE2
  8
0
 10
951.06992850770041
 20
961.82434511001429
 30
0.0
 11
944.46928818458196
 21
960.05568712256468
 31
0.0
  0
ARC
  5
FCE3
  8
0
 10
950.29346246619605
 20
964.72212020245865
 30
0.0
 40
3.0
 50
285.00017609622643
 51
0.0
  0
ARC
  5
FCE4
  8
0
 10
951.71726329299065
 20
933.01004315143632
 30
0.0
 40
2.0
 50
270.51308777825483
 51
285.00017609622643
  0
LINE
  5
FCE5
  8
0
 10
951.73517319577718
 20
931.01012334419852
 30
0.0
 11
944.00272133474039
 21
959.86490826814895
 31
0.0
  0
LINE
  5
FCE6
  8
0
 10
949.87974755587436
 20
934.07060408421864
 30
0.0
 11
943.92630930774021
 21
956.28673724549378
 31
0.0
  0
ARC
  5
FCE7
  8
0
 10
944.9869322122513
 20
958.12383706093522
 30
0.0
 40
2.0
 50
105.0001760962264
 51
119.479060139583
  0
LINE
  5
FCE8
  8
0
 10
950.29346246619605
 20
988.36731635505862
 30
0.0
 11
944.44017925158255
 21
988.36689933573587
 31
0.0
  0
ARC
  5
FCE9
  8
0
 10
961.158423400478
 20
1023.367066355059
 30
0.0
 40
3.0
 50
270.0
 51
349.524318303607
  0
ARC
  5
FCEA
  8
0
 10
966.56675031367399
 20
1022.367066355059
 30
0.0
 40
2.5
 50
156.42182152179279
 51
169.52431830360689
  0
LINE
  5
FCEB
  8
0
 10
1040.2754624661959
 20
952.3855951165433
 30
0.0
 11
1040.2754624661959
 21
930.36706635505891
 31
0.0
  0
ARC
  5
FCEC
  8
0
 10
1007.275462466196
 20
961.36706635505868
 30
0.0
 40
32.0
 50
180.0
 51
0.0
  0
LINE
  5
FCED
  8
0
 10
964.27546246619613
 20
1023.367066355059
 30
0.0
 11
964.27546246619613
 21
1015.367066355059
 31
0.0
  0
ARC
  5
FCEE
  8
0
 10
966.27546246619602
 20
1015.367066355059
 30
0.0
 40
2.0
 50
180.0
 51
270.0
  0
LINE
  5
FCEF
  8
0
 10
972.15214171215837
 20
986.39843938846207
 30
0.0
 11
1038.234326724056
 21
986.39843938846207
 31
0.0
  0
ARC
  5
FCF0
  8
0
 10
972.15214171215837
 20
991.39843938846195
 30
0.0
 40
5.0
 50
180.0
 51
270.0
  0
LINE
  5
FCF1
  8
0
 10
1047.2754624661959
 20
1023.367066355059
 30
0.0
 11
1047.2754624661959
 21
1015.367066355059
 31
0.0
  0
LINE
  5
FCF2
  8
0
 10
967.15214171215848
 20
1013.367066355058
 30
0.0
 11
967.15214171215848
 21
991.39843938846195
 31
0.0
  0
LINE
  5
FCF3
  8
0
 10
966.27546246619602
 20
1013.367066355058
 30
0.0
 11
1045.2754624661959
 21
1013.367066355058
 31
0.0
  0
ARC
  5
FCF4
  8
0
 10
1045.2754624661959
 20
1015.367066355059
 30
0.0
 40
2.0
 50
270.0
 51
0.0
  0
LINE
  5
FCF5
  8
0
 10
1043.234326724056
 20
1013.367066355059
 30
0.0
 11
1043.234326724056
 21
991.39843938846195
 31
0.0
  0
ARC
  5
FCF6
  8
0
 10
1038.234326724056
 20
991.39843938846195
 30
0.0
 40
5.0
 50
270.0
 51
0.0
  0
LINE
  5
FCF7
  8
0
 10
975.27546246619602
 20
961.36706635505868
 30
0.0
 11
975.27546246619602
 21
986.39843938846207
 31
0.0
  0
LINE
  5
FCF8
  8
0
 10
964.27546246619613
 20
1033.367066355059
 30
0.0
 11
1046.2754624661959
 21
1033.367066355059
 31
0.0
  0
LINE
  5
FCF9
  8
0
 10
1003.275462466196
 20
1048.367066355059
 30
0.0
 11
1011.275462466196
 21
1048.367066355059
 31
0.0
  0
ARC
  5
FCFA
  8
0
 10
1021.275462466196
 20
1035.367066355059
 30
0.0
 40
2.0
 50
180.0
 51
270.0
  0
LINE
  5
FCFB
  8
0
 10
1019.275462466196
 20
1040.367066355059
 30
0.0
 11
1019.275462466196
 21
1035.367066355059
 31
0.0
  0
ARC
  5
FCFC
  8
0
 10
1011.275462466196
 20
1040.367066355059
 30
0.0
 40
8.0
 50
0.0
 51
90.0
  0
LINE
  5
FCFD
  8
0
 10
964.27546246619613
 20
1023.367066355059
 30
0.0
 11
964.27546246619613
 21
1044.3429570271589
 31
0.0
  0
ARC
  5
FCFE
  8
0
 10
966.27546246619602
 20
1044.3429570271589
 30
0.0
 40
2.0
 50
90.0
 51
180.0
  0
LINE
  5
FCFF
  8
0
 10
997.24345053097034
 20
1046.3429570271589
 30
0.0
 11
966.27546246619602
 21
1046.3429570271589
 31
0.0
  0
LINE
  5
FD00
  8
0
 10
1047.2754624661959
 20
1023.367066355059
 30
0.0
 11
1047.2754624661959
 21
1032.367066355059
 31
0.0
  0
ARC
  5
FD01
  8
0
 10
1046.2754624661959
 20
1032.367066355059
 30
0.0
 40
1.0
 50
0.0
 51
90.0
  0
ARC
  5
FD02
  8
0
 10
997.24345053097034
 20
1048.3429570271589
 30
0.0
 40
2.0
 50
270.0
 51
307.09951192719069
  0
LINE
  5
FD03
  8
0
 10
995.27546246619602
 20
1040.367066355059
 30
0.0
 11
995.27546246619602
 21
1035.367066355059
 31
0.0
  0
ARC
  5
FD04
  8
0
 10
1003.275462466196
 20
1040.367066355059
 30
0.0
 40
8.0
 50
90.0
 51
180.0
  0
ARC
  5
FD05
  8
0
 10
993.27546246619602
 20
1035.367066355059
 30
0.0
 40
2.0
 50
270.0
 51
0.0
  0
LINE
  5
FD06
  8
0
 10
1029.077500666624
 20
1040.368066355059
 30
0.0
 11
1045.577500666624
 21
1040.368066355059
 31
0.0
  0
ARC
  5
FD07
  8
0
 10
1044.6885006666239
 20
1035.536742289642
 30
0.0
 40
4.6309815714167701
 50
58.000676159490958
 51
121.99932384050901
  0
LINE
  5
FD08
  8
0
 10
1031.9845006666251
 20
1039.705066355059
 30
0.0
 11
1031.5145006666239
 21
1039.9010663550589
 31
0.0
  0
LINE
  5
FD09
  8
0
 10
1027.512500666624
 20
1033.367066355059
 30
0.0
 11
1027.512500666624
 21
1039.464066355059
 31
0.0
  0
LINE
  5
FD0A
  8
0
 10
1027.512500666624
 20
1039.464066355059
 30
0.0
 11
1029.077500666624
 21
1040.368066355059
 31
0.0
  0
LINE
  5
FD0B
  8
0
 10
1028.4185006666239
 20
1039.9020663550591
 30
0.0
 11
1027.512500666624
 21
1039.464066355059
 31
0.0
  0
LINE
  5
FD0C
  8
0
 10
1028.9175006666239
 20
1040.0470663550591
 30
0.0
 11
1028.4185006666239
 21
1039.9020663550591
 31
0.0
  0
LINE
  5
FD0D
  8
0
 10
1029.4375006666239
 20
1040.137066355059
 30
0.0
 11
1028.9175006666239
 21
1040.0470663550591
 31
0.0
  0
LINE
  5
FD0E
  8
0
 10
1029.9665006666239
 20
1040.168066355059
 30
0.0
 11
1029.4375006666239
 21
1040.137066355059
 31
0.0
  0
LINE
  5
FD0F
  8
0
 10
1030.4955006666239
 20
1040.137066355059
 30
0.0
 11
1029.9665006666239
 21
1040.168066355059
 31
0.0
  0
LINE
  5
FD10
  8
0
 10
1031.0145006666239
 20
1040.0470663550591
 30
0.0
 11
1030.4955006666239
 21
1040.137066355059
 31
0.0
  0
LINE
  5
FD11
  8
0
 10
1031.5145006666239
 20
1039.9010663550589
 30
0.0
 11
1031.0145006666239
 21
1040.0470663550591
 31
0.0
  0
LINE
  5
FD12
  8
0
 10
1042.2345006666239
 20
1039.464066355059
 30
0.0
 11
1042.2345006666239
 21
1033.367066355059
 31
0.0
  0
LINE
  5
FD13
  8
0
 10
1032.4205006666241
 20
1039.464066355059
 30
0.0
 11
1032.4205006666241
 21
1033.367066355059
 31
0.0
  0
ARC
  5
FD14
  8
0
 10
1037.327500666624
 20
1022.705074761945
 30
0.0
 40
17.462601416113358
 50
73.680072331667674
 51
106.3199276683323
  0
LINE
  5
FD15
  8
0
 10
1032.4205006666241
 20
1039.464066355059
 30
0.0
 11
1031.9845006666251
 21
1039.705066355059
 31
0.0
  0
LINE
  5
FD16
  8
0
 10
1047.1425006666241
 20
1039.464066355059
 30
0.0
 11
1047.1425006666241
 21
1033.367066355059
 31
0.0
  0
LINE
  5
FD17
  8
0
 10
1045.577500666624
 20
1040.368066355059
 30
0.0
 11
1047.1425006666241
 21
1039.464066355059
 31
0.0
  0
LINE
  5
FD18
  8
0
 10
1047.1425006666241
 20
1033.367066355059
 30
0.0
 11
1046.2754624661959
 21
1033.367066355059
 31
0.0
  0
LINE
  5
FD19
  8
0
 10
968.96414003325356
 20
1040.368066355059
 30
0.0
 11
985.46414003325356
 21
1040.368066355059
 31
0.0
  0
ARC
  5
FD1A
  8
0
 10
984.57514003325355
 20
1035.536742289642
 30
0.0
 40
4.6309815714167701
 50
58.000676159490958
 51
121.99932384050901
  0
LINE
  5
FD1B
  8
0
 10
971.87114003325348
 20
1039.705066355059
 30
0.0
 11
971.40114003325357
 21
1039.9010663550589
 31
0.0
  0
LINE
  5
FD1C
  8
0
 10
967.39914003325362
 20
1033.367066355059
 30
0.0
 11
967.39914003325362
 21
1039.464066355059
 31
0.0
  0
LINE
  5
FD1D
  8
0
 10
967.39914003325362
 20
1039.464066355059
 30
0.0
 11
968.96414003325356
 21
1040.368066355059
 31
0.0
  0
LINE
  5
FD1E
  8
0
 10
968.30514003325345
 20
1039.9020663550591
 30
0.0
 11
967.39914003325362
 21
1039.464066355059
 31
0.0
  0
LINE
  5
FD1F
  8
0
 10
968.80414003325347
 20
1040.0470663550591
 30
0.0
 11
968.30514003325345
 21
1039.9020663550591
 31
0.0
  0
LINE
  5
FD20
  8
0
 10
969.32414003325346
 20
1040.137066355059
 30
0.0
 11
968.80414003325347
 21
1040.0470663550591
 31
0.0
  0
LINE
  5
FD21
  8
0
 10
969.85314003325357
 20
1040.168066355059
 30
0.0
 11
969.32414003325346
 21
1040.137066355059
 31
0.0
  0
LINE
  5
FD22
  8
0
 10
970.38214003325356
 20
1040.137066355059
 30
0.0
 11
969.85314003325357
 21
1040.168066355059
 31
0.0
  0
LINE
  5
FD23
  8
0
 10
970.90114003325345
 20
1040.0470663550591
 30
0.0
 11
970.38214003325356
 21
1040.137066355059
 31
0.0
  0
LINE
  5
FD24
  8
0
 10
971.40114003325357
 20
1039.9010663550589
 30
0.0
 11
970.90114003325345
 21
1040.0470663550591
 31
0.0
  0
LINE
  5
FD25
  8
0
 10
982.1211400332536
 20
1039.464066355059
 30
0.0
 11
982.1211400332536
 21
1033.367066355059
 31
0.0
  0
LINE
  5
FD26
  8
0
 10
972.30714003325363
 20
1039.464066355059
 30
0.0
 11
972.30714003325363
 21
1033.367066355059
 31
0.0
  0
ARC
  5
FD27
  8
0
 10
977.21414003325356
 20
1022.705074761946
 30
0.0
 40
17.462601416113358
 50
73.680072331667674
 51
106.3199276683323
  0
LINE
  5
FD28
  8
0
 10
972.30714003325363
 20
1039.464066355059
 30
0.0
 11
971.87114003325348
 21
1039.705066355059
 31
0.0
  0
LINE
  5
FD29
  8
0
 10
987.0291400332535
 20
1039.464066355059
 30
0.0
 11
987.0291400332535
 21
1033.367066355059
 31
0.0
  0
LINE
  5
FD2A
  8
0
 10
985.46414003325356
 20
1040.368066355059
 30
0.0
 11
987.0291400332535
 21
1039.464066355059
 31
0.0
  0
LINE
  5
FD2B
  8
0
 10
956.27546246619613
 20
997.3670663550588
 30
0.0
 11
946.27546246619613
 21
997.3670663550588
 31
0.0
  0
ARC
  5
FD2C
  8
0
 10
946.27546246619613
 20
998.3670663550588
 30
0.0
 40
1.0
 50
180.0
 51
270.0
  0
LINE
  5
FD2D
  8
0
 10
956.27546246619613
 20
1011.367066355059
 30
0.0
 11
946.27546246619613
 21
1011.367066355058
 31
0.0
  0
LINE
  5
FD2E
  8
0
 10
949.23239983772987
 20
936.4853382282547
 30
0.0
 11
943.92660941312818
 21
956.28681766718034
 31
0.0
  0
LINE
  5
FD2F
  8
0
 10
948.10939538923526
 20
937.33048082489756
 30
0.0
 11
943.02089813634439
 21
935.96702209529758
 31
0.0
  0
LINE
  5
FD30
  8
0
 10
943.02089813634439
 20
935.96702209529758
 30
0.0
 11
942.27213463886267
 21
938.7614455107522
 31
0.0
  0
LINE
  5
FD31
  8
0
 10
942.27213463886267
 20
938.7614455107522
 30
0.0
 11
947.36063189175366
 21
940.12490424035241
 31
0.0
  0
LINE
  5
FD32
  8
0
 10
947.36063189175366
 20
940.12490424035241
 30
0.0
 11
948.10939538923526
 21
937.33048082489756
 31
0.0
  0
LINE
  5
FD33
  8
0
 10
943.92660941312818
 20
956.28681766718034
 30
0.0
 11
942.70188907990814
 21
957.51156911355565
 31
0.0
  0
LINE
  5
FD34
  8
0
 10
942.70188907990814
 20
957.51156911355565
 30
0.0
 11
937.61339182701715
 21
956.14811038395555
 31
0.0
  0
LINE
  5
FD35
  8
0
 10
937.61339182701715
 20
956.14811038395555
 30
0.0
 11
937.16512862910486
 21
954.47508435146312
 31
0.0
  0
LINE
  5
FD36
  8
0
 10
937.16512862910486
 20
954.47508435146312
 30
0.0
 11
943.11796666646273
 21
932.25879034681429
 31
0.0
  0
LINE
  5
FD37
  8
0
 10
943.11796666646273
 20
932.25879034681429
 30
0.0
 11
944.34268699968277
 21
931.03403890043944
 31
0.0
  0
LINE
  5
FD38
  8
0
 10
944.34268699968277
 20
931.03403890043944
 30
0.0
 11
949.43118425257364
 21
932.39749763003965
 31
0.0
  0
LINE
  5
FD39
  8
0
 10
949.43118425257364
 20
932.39749763003965
 30
0.0
 11
949.8794474504864
 21
934.07052366253197
 31
0.0
  0
LINE
  5
FD3A
  8
0
 10
949.8794474504864
 20
934.07052366253197
 30
0.0
 11
949.23239983772987
 21
936.4853382282547
 31
0.0
  0
LINE
  5
FD3B
  8
0
 10
944.02367794324687
 20
952.57858591869706
 30
0.0
 11
938.93518069035599
 21
951.21512718909707
 31
0.0
  0
LINE
  5
FD3C
  8
0
 10
938.93518069035599
 20
951.21512718909707
 30
0.0
 11
939.68394418783748
 21
948.4207037736428
 31
0.0
  0
LINE
  5
FD3D
  8
0
 10
939.68394418783748
 20
948.4207037736428
 30
0.0
 11
944.77244144072824
 21
949.78416250324278
 31
0.0
  0
LINE
  5
FD3E
  8
0
 10
944.77244144072824
 20
949.78416250324278
 30
0.0
 11
944.02367794324687
 21
952.57858591869706
 31
0.0
  0
ARC
  5
FD3F
  8
0
 10
941.49240659647785
 20
954.54391153218376
 30
0.0
 40
4.1976433314087407
 50
157.5320517966469
 51
232.4679482033651
  0
ARC
  5
FD40
  8
0
 10
954.50214090771885
 20
947.21484671597
 30
0.0
 40
14.867180138568379
 50
175.34770562304959
 51
214.65229437695149
  0
ARC
  5
FD41
  8
0
 10
946.89991290580554
 20
934.36282324352555
 30
0.0
 40
4.1976433314087407
 50
157.5320517966469
 51
232.4679482033651
  0
ARC
  5
FD42
  8
0
 10
940.14466317378594
 20
954.18278477046897
 30
0.0
 40
4.1976433314087407
 50
337.5320517966469
 51
52.467948203350844
  0
ARC
  5
FD43
  8
0
 10
932.54243517187228
 20
941.33076129802475
 30
0.0
 40
14.867180138568379
 50
355.34770562304971
 51
34.652294376951559
  0
ARC
  5
FD44
  8
0
 10
945.55216948311295
 20
934.00169648181043
 30
0.0
 40
4.1976433314087407
 50
337.5320517966469
 51
52.467948203356009
  0
LINE
  5
FD45
  8
0
 10
1047.2754624661959
 20
1010.367066355058
 30
0.0
 11
1047.2754624661959
 21
998.3670663550588
 31
0.0
  0
ARC
  5
FD46
  8
0
 10
1048.2754624661959
 20
1010.367066355058
 30
0.0
 40
1.0
 50
90.0
 51
180.0
  0
LINE
  5
FD47
  8
0
 10
1059.2754624661959
 20
1010.367066355059
 30
0.0
 11
1059.2754624661959
 21
998.3670663550588
 31
0.0
  0
ARC
  5
FD48
  8
0
 10
1058.2754624661959
 20
998.3670663550588
 30
0.0
 40
1.0
 50
270.0
 51
0.0
  0
ARC
  5
FD49
  8
0
 10
1058.2754624661959
 20
1010.367066355059
 30
0.0
 40
1.0
 50
0.0
 51
90.0
  0
LINE
  5
FD4A
  8
0
 10
1058.2754624661959
 20
997.3670663550588
 30
0.0
 11
1048.2754624661959
 21
997.3670663550588
 31
0.0
  0
ARC
  5
FD4B
  8
0
 10
1048.2754624661959
 20
998.3670663550588
 30
0.0
 40
1.0
 50
180.0
 51
270.0
  0
LINE
  5
FD4C
  8
0
 10
1058.2754624661959
 20
1011.367066355059
 30
0.0
 11
1048.2754624661959
 21
1011.367066355058
 31
0.0
  0
LINE
  5
FD4D
  8
0
 10
943.92630930774021
 20
956.28673724549378
 30
0.0
 11
944.89222814119148
 21
956.54558238681159
 31
0.0
  0
LINE
  5
FD4E
  8
0
 10
949.8794474504864
 20
934.07052366253197
 30
0.0
 11
950.84566638932586
 21
934.32944922553634
 31
0.0
  0
LINE
  5
FD4F
  8
0
 10
1023.789896768437
 20
821.45583193626408
 30
0.0
 11
1023.789896768437
 21
803.45583193626385
 31
0.0
  0
ARC
  5
FD50
  8
0
 10
1021.789896768437
 20
803.45583193626385
 30
0.0
 40
2.0
 50
270.0
 51
0.0
  0
LINE
  5
FD51
  8
0
 10
989.78989676843707
 20
821.45583193626408
 30
0.0
 11
989.78989676843707
 21
803.45583193626385
 31
0.0
  0
ARC
  5
FD52
  8
0
 10
991.78989676843719
 20
821.45583193626408
 30
0.0
 40
2.0
 50
90.0
 51
180.0
  0
LINE
  5
FD53
  8
0
 10
1069.2754624661959
 20
604.32656111405947
 30
0.0
 11
1069.2754624661959
 21
592.32656111405947
 31
0.0
  0
ARC
  5
FD54
  8
0
 10
1068.2754624661959
 20
592.32656111405947
 30
0.0
 40
1.0
 50
270.0
 51
0.0
  0
ARC
  5
FD55
  8
0
 10
1068.2754624661959
 20
604.32656111405947
 30
0.0
 40
1.0
 50
0.0
 51
90.0
  0
LINE
  5
FD56
  8
0
 10
380.64870070128433
 20
1004.366941355058
 30
0.0
 11
500.64870070128421
 21
1004.366941355058
 31
0.0
  0
LINE
  5
FD57
  8
0
 10
343.14870070128433
 20
1051.866941355059
 30
0.0
 11
343.14870070128433
 21
956.86694135505866
 31
0.0
  0
LINE
  5
FD58
  8
0
 10
353.14870070128433
 20
1051.866941355059
 30
0.0
 11
343.14870070128433
 21
1051.866941355059
 31
0.0
  0
LINE
  5
FD59
  8
0
 10
353.14870070128433
 20
956.86694135505866
 30
0.0
 11
343.14870070128433
 21
956.86694135505866
 31
0.0
  0
LINE
  5
FD5A
  8
0
 10
355.14870070128433
 20
1049.8669413550581
 30
0.0
 11
355.14870070128433
 21
958.86694135505877
 31
0.0
  0
LINE
  5
FD5B
  8
0
 10
377.98363719182322
 20
1020.366941355058
 30
0.0
 11
359.14870070128433
 21
1020.366941355058
 31
0.0
  0
LINE
  5
FD5C
  8
0
 10
377.98363719182322
 20
988.36694135505877
 30
0.0
 11
359.14870070128433
 21
988.36694135505877
 31
0.0
  0
ARC
  5
FD5D
  8
0
 10
359.14870070128433
 20
1024.366941355059
 30
0.0
 40
4.0
 50
180.0
 51
270.0
  0
ARC
  5
FD5E
  8
0
 10
359.14870070128433
 20
984.36694135505866
 30
0.0
 40
4.0
 50
90.0
 51
180.0
  0
LINE
  5
FD5F
  8
0
 10
355.14870070128433
 20
1049.8669413550581
 30
0.0
 11
353.14870070128433
 21
1051.866941355059
 31
0.0
  0
LINE
  5
FD60
  8
0
 10
355.14870070128433
 20
958.86694135505877
 30
0.0
 11
353.14870070128433
 21
956.86694135505866
 31
0.0
  0
LINE
  5
FD61
  8
0
 10
377.98363719182322
 20
1020.366941355058
 30
0.0
 11
377.98363719182322
 21
988.36694135505877
 31
0.0
  0
ARC
  5
FD62
  8
0
 10
379.8161689465536
 20
1016.466198681284
 30
0.0
 40
4.3097524336210657
 50
64.836309081296235
 51
115.16369091870369
  0
ARC
  5
FD63
  8
0
 10
379.8161689465536
 20
992.2676840288334
 30
0.0
 40
4.3097524336210657
 50
244.83630908129621
 51
295.16369091870382
  0
LINE
  5
FD64
  8
0
 10
353.14870070128433
 20
1051.866941355059
 30
0.0
 11
353.14870070128433
 21
956.86694135505866
 31
0.0
  0
LINE
  5
FD65
  8
0
 10
538.14870070128416
 20
1051.866941355059
 30
0.0
 11
538.14870070128416
 21
956.86694135505866
 31
0.0
  0
LINE
  5
FD66
  8
0
 10
528.14870070128427
 20
1051.866941355059
 30
0.0
 11
538.14870070128416
 21
1051.866941355059
 31
0.0
  0
LINE
  5
FD67
  8
0
 10
528.14870070128427
 20
956.86694135505866
 30
0.0
 11
538.14870070128416
 21
956.86694135505866
 31
0.0
  0
LINE
  5
FD68
  8
0
 10
526.14870070128416
 20
1049.8669413550581
 30
0.0
 11
526.14870070128416
 21
958.86694135505877
 31
0.0
  0
LINE
  5
FD69
  8
0
 10
503.31376421074538
 20
1020.366941355058
 30
0.0
 11
522.14870070128416
 21
1020.366941355058
 31
0.0
  0
LINE
  5
FD6A
  8
0
 10
503.31376421074538
 20
988.36694135505877
 30
0.0
 11
522.14870070128416
 21
988.36694135505877
 31
0.0
  0
ARC
  5
FD6B
  8
0
 10
522.14870070128416
 20
1024.366941355059
 30
0.0
 40
4.0
 50
270.0
 51
0.0
  0
ARC
  5
FD6C
  8
0
 10
522.14870070128416
 20
984.36694135505866
 30
0.0
 40
4.0
 50
0.0
 51
90.0
  0
LINE
  5
FD6D
  8
0
 10
526.14870070128416
 20
1049.8669413550581
 30
0.0
 11
528.14870070128427
 21
1051.866941355059
 31
0.0
  0
LINE
  5
FD6E
  8
0
 10
526.14870070128416
 20
958.86694135505877
 30
0.0
 11
528.14870070128427
 21
956.86694135505866
 31
0.0
  0
LINE
  5
FD6F
  8
0
 10
503.31376421074538
 20
1020.366941355058
 30
0.0
 11
503.31376421074538
 21
988.36694135505877
 31
0.0
  0
ARC
  5
FD70
  8
0
 10
501.48123245601488
 20
1016.466198681284
 30
0.0
 40
4.3097524336210657
 50
64.836309081296235
 51
115.16369091871231
  0
ARC
  5
FD71
  8
0
 10
501.48123245601488
 20
992.2676840288334
 30
0.0
 40
4.3097524336210657
 50
244.83630908129621
 51
295.16369091870382
  0
LINE
  5
FD72
  8
0
 10
528.14870070128427
 20
1051.866941355059
 30
0.0
 11
528.14870070128427
 21
956.86694135505866
 31
0.0
  0
LINE
  5
FD73
  8
0
 10
499.6487007012841
 20
1020.366941355058
 30
0.0
 11
499.64870070128421
 21
988.36669135505872
 31
0.0
  0
LINE
  5
FD74
  8
0
 10
381.64870070128433
 20
1020.367066355059
 30
0.0
 11
381.65098057089318
 21
988.36681651748904
 31
0.0
  0
LINE
  5
FD75
  8
0
 10
1119.7754624661959
 20
648.32656111405959
 30
0.0
 11
1119.7754624661959
 21
548.32656111405959
 31
0.0
  0
ARC
  5
FD76
  8
0
 10
1101.7754624661959
 20
578.32656111405959
 30
0.0
 40
4.0
 50
0.0
 51
90.0
  0
LINE
  5
FD77
  8
0
 10
1074.940525975657
 20
582.32656111405959
 30
0.0
 11
1101.7754624661959
 21
582.32656111405959
 31
0.0
  0
LINE
  5
FD78
  8
0
 10
1107.7754624661959
 20
548.32656111405959
 30
0.0
 11
1119.7754624661959
 21
548.32656111405959
 31
0.0
  0
LINE
  5
FD79
  8
0
 10
1105.7754624661959
 20
550.32656111405947
 30
0.0
 11
1107.7754624661959
 21
548.32656111405959
 31
0.0
  0
ARC
  5
FD7A
  8
0
 10
1101.7754624661959
 20
618.32656111405959
 30
0.0
 40
4.0
 50
270.0
 51
0.0
  0
LINE
  5
FD7B
  8
0
 10
1074.940525975657
 20
614.32656111405959
 30
0.0
 11
1101.7754624661959
 21
614.32656111405959
 31
0.0
  0
LINE
  5
FD7C
  8
0
 10
1105.7754624661959
 20
646.32656111405947
 30
0.0
 11
1105.7754624661959
 21
550.32656111405947
 31
0.0
  0
LINE
  5
FD7D
  8
0
 10
1107.7754624661959
 20
648.32656111405959
 30
0.0
 11
1119.7754624661959
 21
648.32656111405959
 31
0.0
  0
LINE
  5
FD7E
  8
0
 10
1105.7754624661959
 20
646.32656111405947
 30
0.0
 11
1107.7754624661959
 21
648.32656111405959
 31
0.0
  0
LINE
  5
FD7F
  8
0
 10
1107.7754624661959
 20
648.32656111405959
 30
0.0
 11
1107.7754624661959
 21
548.32656111405959
 31
0.0
  0
LINE
  5
FD80
  8
0
 10
1074.940525975657
 20
614.32656111405959
 30
0.0
 11
1074.940525975657
 21
582.32656111405959
 31
0.0
  0
LINE
  5
FD81
  8
0
 10
1070.1103989567409
 20
614.32656111407505
 30
0.0
 11
1070.110510404234
 21
582.32681111405907
 31
0.0
  0
ARC
  5
FD82
  8
0
 10
1072.5254638694209
 20
612.38047142466337
 30
0.0
 40
3.101580824627014
 50
38.862386810506649
 51
141.13769581567621
  0
ARC
  5
FD83
  8
0
 10
1072.5257731344061
 20
584.27251944622572
 30
0.0
 40
3.101495602063423
 50
218.85452556412139
 51
321.13946103662369
  0
LINE
  5
FD84
  8
0
 10
1064.2574624661961
 20
582.32681111405941
 30
0.0
 11
1070.110510404234
 21
582.32681111405941
 31
0.0
  0
LINE
  5
FD85
  8
0
 10
904.77546246619602
 20
648.32656111405959
 30
0.0
 11
904.77546246619602
 21
548.32656111405959
 31
0.0
  0
ARC
  5
FD86
  8
0
 10
922.77546246619625
 20
578.32656111405959
 30
0.0
 40
4.0
 50
90.0
 51
180.0
  0
LINE
  5
FD87
  8
0
 10
949.61039895673503
 20
582.32656111405959
 30
0.0
 11
922.77546246619625
 21
582.32656111405959
 31
0.0
  0
LINE
  5
FD88
  8
0
 10
916.77546246619613
 20
548.32656111405959
 30
0.0
 11
904.77546246619602
 21
548.32656111405959
 31
0.0
  0
LINE
  5
FD89
  8
0
 10
918.77546246619613
 20
550.32656111405947
 30
0.0
 11
916.77546246619613
 21
548.32656111405959
 31
0.0
  0
ARC
  5
FD8A
  8
0
 10
922.77546246619625
 20
618.32656111405959
 30
0.0
 40
4.0
 50
180.0
 51
270.0
  0
LINE
  5
FD8B
  8
0
 10
949.61039895673503
 20
614.32656111405959
 30
0.0
 11
922.77546246619625
 21
614.32656111405959
 31
0.0
  0
LINE
  5
FD8C
  8
0
 10
918.77546246619613
 20
646.32656111405947
 30
0.0
 11
918.77546246619613
 21
550.32656111405947
 31
0.0
  0
LINE
  5
FD8D
  8
0
 10
916.77546246619613
 20
648.32656111405959
 30
0.0
 11
904.77546246619602
 21
648.32656111405959
 31
0.0
  0
LINE
  5
FD8E
  8
0
 10
918.77546246619613
 20
646.32656111405947
 30
0.0
 11
916.77546246619613
 21
648.32656111405959
 31
0.0
  0
LINE
  5
FD8F
  8
0
 10
916.77546246619613
 20
648.32656111405959
 30
0.0
 11
916.77546246619613
 21
548.32656111405959
 31
0.0
  0
LINE
  5
FD90
  8
0
 10
949.61039895673503
 20
614.32656111405959
 30
0.0
 11
949.61039895673503
 21
582.32656111405959
 31
0.0
  0
LINE
  5
FD91
  8
0
 10
954.44052597565155
 20
614.32656111407505
 30
0.0
 11
954.44041452815804
 21
582.32681111405907
 31
0.0
  0
ARC
  5
FD92
  8
0
 10
952.02546106297132
 20
612.38047142466337
 30
0.0
 40
3.101580824627014
 50
38.862304184323833
 51
141.1376131895025
  0
ARC
  5
FD93
  8
0
 10
952.02515179798627
 20
584.27251944622572
 30
0.0
 40
3.101495602063423
 50
218.86053896337631
 51
321.1454744358785
  0
LINE
  5
FD94
  8
0
 10
1119.7754624661959
 20
835.45595693626399
 30
0.0
 11
1119.7754624661959
 21
735.4559569362641
 31
0.0
  0
ARC
  5
FD95
  8
0
 10
1101.7754624661959
 20
765.4559569362641
 30
0.0
 40
4.0
 50
0.0
 51
90.0
  0
LINE
  5
FD96
  8
0
 10
1074.940525975657
 20
769.4559569362641
 30
0.0
 11
1101.7754624661959
 21
769.4559569362641
 31
0.0
  0
LINE
  5
FD97
  8
0
 10
1107.7754624661959
 20
735.4559569362641
 30
0.0
 11
1119.7754624661959
 21
735.4559569362641
 31
0.0
  0
LINE
  5
FD98
  8
0
 10
1105.7754624661959
 20
737.4559569362641
 30
0.0
 11
1107.7754624661959
 21
735.4559569362641
 31
0.0
  0
ARC
  5
FD99
  8
0
 10
1101.7754624661959
 20
805.4559569362641
 30
0.0
 40
4.0
 50
270.0
 51
0.0
  0
LINE
  5
FD9A
  8
0
 10
1074.940525975657
 20
801.45595693626399
 30
0.0
 11
1101.7754624661959
 21
801.45595693626399
 31
0.0
  0
LINE
  5
FD9B
  8
0
 10
1105.7754624661959
 20
833.4559569362641
 30
0.0
 11
1105.7754624661959
 21
737.4559569362641
 31
0.0
  0
LINE
  5
FD9C
  8
0
 10
1107.7754624661959
 20
835.45595693626399
 30
0.0
 11
1119.7754624661959
 21
835.45595693626399
 31
0.0
  0
LINE
  5
FD9D
  8
0
 10
1105.7754624661959
 20
833.4559569362641
 30
0.0
 11
1107.7754624661959
 21
835.45595693626399
 31
0.0
  0
LINE
  5
FD9E
  8
0
 10
1107.7754624661959
 20
835.45595693626399
 30
0.0
 11
1107.7754624661959
 21
735.4559569362641
 31
0.0
  0
LINE
  5
FD9F
  8
0
 10
1074.940525975657
 20
801.45595693626399
 30
0.0
 11
1074.940525975657
 21
769.4559569362641
 31
0.0
  0
ARC
  5
FDA0
  8
0
 10
1072.5254638694209
 20
799.50986724686788
 30
0.0
 40
3.101580824627014
 50
38.862386810506649
 51
141.13769581567621
  0
ARC
  5
FDA1
  8
0
 10
1072.5257731344061
 20
771.40191526843023
 30
0.0
 40
3.101495602063423
 50
218.85452556412139
 51
321.13946103662369
  0
LINE
  5
FDA2
  8
0
 10
904.77546246619602
 20
835.45595693626399
 30
0.0
 11
904.77546246619602
 21
735.4559569362641
 31
0.0
  0
ARC
  5
FDA3
  8
0
 10
922.77546246619625
 20
765.4559569362641
 30
0.0
 40
4.0
 50
90.0
 51
180.0
  0
LINE
  5
FDA4
  8
0
 10
949.61039895673503
 20
769.4559569362641
 30
0.0
 11
922.77546246619625
 21
769.4559569362641
 31
0.0
  0
LINE
  5
FDA5
  8
0
 10
916.77546246619613
 20
735.4559569362641
 30
0.0
 11
904.77546246619602
 21
735.4559569362641
 31
0.0
  0
LINE
  5
FDA6
  8
0
 10
918.77546246619613
 20
737.4559569362641
 30
0.0
 11
916.77546246619613
 21
735.4559569362641
 31
0.0
  0
ARC
  5
FDA7
  8
0
 10
922.77546246619625
 20
805.4559569362641
 30
0.0
 40
4.0
 50
180.0
 51
270.0
  0
LINE
  5
FDA8
  8
0
 10
949.61039895673503
 20
801.45595693626399
 30
0.0
 11
922.77546246619625
 21
801.45595693626399
 31
0.0
  0
LINE
  5
FDA9
  8
0
 10
918.77546246619613
 20
833.4559569362641
 30
0.0
 11
918.77546246619613
 21
737.4559569362641
 31
0.0
  0
LINE
  5
FDAA
  8
0
 10
916.77546246619613
 20
835.45595693626399
 30
0.0
 11
904.77546246619602
 21
835.45595693626399
 31
0.0
  0
LINE
  5
FDAB
  8
0
 10
918.77546246619613
 20
833.4559569362641
 30
0.0
 11
916.77546246619613
 21
835.45595693626399
 31
0.0
  0
LINE
  5
FDAC
  8
0
 10
916.77546246619613
 20
835.45595693626399
 30
0.0
 11
916.77546246619613
 21
735.4559569362641
 31
0.0
  0
LINE
  5
FDAD
  8
0
 10
949.61039895673503
 20
801.45595693626399
 30
0.0
 11
949.61039895673503
 21
769.4559569362641
 31
0.0
  0
ARC
  5
FDAE
  8
0
 10
952.02546106297132
 20
799.50986724686788
 30
0.0
 40
3.101580824627014
 50
38.862304184323833
 51
141.1376131895025
  0
ARC
  5
FDAF
  8
0
 10
952.02515179798627
 20
771.40191526843023
 30
0.0
 40
3.101495602063423
 50
218.86053896337631
 51
321.1454744358785
  0
LINE
  5
FDB0
  8
0
 10
954.44052597566395
 20
801.45595693626399
 30
0.0
 11
954.44052597566451
 21
769.4559569362641
 31
0.0
  0
LINE
  5
FDB1
  8
0
 10
1070.110398956728
 20
801.45595693626399
 30
0.0
 11
1070.108119093032
 21
769.45579010407346
 31
0.0
  0
LINE
  5
FDB2
  8
0
 10
894.77546246619613
 20
1054.3669413550581
 30
0.0
 11
894.77546246619613
 21
954.36694135505866
 31
0.0
  0
ARC
  5
FDB3
  8
0
 10
912.77546246619602
 20
984.36694135505866
 30
0.0
 40
4.0
 50
90.0
 51
180.0
  0
LINE
  5
FDB4
  8
0
 10
939.61039895673503
 20
988.36694135505877
 30
0.0
 11
912.77546246619602
 21
988.36694135505877
 31
0.0
  0
LINE
  5
FDB5
  8
0
 10
906.77546246619625
 20
954.36694135505866
 30
0.0
 11
894.77546246619613
 21
954.36694135505866
 31
0.0
  0
LINE
  5
FDB6
  8
0
 10
908.77546246619613
 20
956.36694135505877
 30
0.0
 11
906.77546246619625
 21
954.36694135505866
 31
0.0
  0
ARC
  5
FDB7
  8
0
 10
912.77546246619602
 20
1024.366941355059
 30
0.0
 40
4.0
 50
180.0
 51
270.0
  0
LINE
  5
FDB8
  8
0
 10
939.61039895673503
 20
1020.366941355058
 30
0.0
 11
912.77546246619602
 21
1020.366941355058
 31
0.0
  0
LINE
  5
FDB9
  8
0
 10
908.77546246619613
 20
1052.3669413550581
 30
0.0
 11
908.77546246619613
 21
956.36694135505877
 31
0.0
  0
LINE
  5
FDBA
  8
0
 10
906.77546246619625
 20
1054.3669413550581
 30
0.0
 11
894.77546246619613
 21
1054.3669413550581
 31
0.0
  0
LINE
  5
FDBB
  8
0
 10
908.77546246619613
 20
1052.3669413550581
 30
0.0
 11
906.77546246619625
 21
1054.3669413550581
 31
0.0
  0
LINE
  5
FDBC
  8
0
 10
906.77546246619625
 20
1054.3669413550581
 30
0.0
 11
906.77546246619625
 21
954.36694135505866
 31
0.0
  0
LINE
  5
FDBD
  8
0
 10
939.61039895673503
 20
1020.366941355058
 30
0.0
 11
939.61039895673503
 21
988.36694135505877
 31
0.0
  0
ARC
  5
FDBE
  8
0
 10
942.02546106297132
 20
1018.420851665662
 30
0.0
 40
3.101580824627014
 50
38.862304184323833
 51
141.1376131895025
  0
ARC
  5
FDBF
  8
0
 10
942.02515179798627
 20
990.3128996872249
 30
0.0
 40
3.101495602063423
 50
218.86053896337219
 51
321.1454744358785
  0
LINE
  5
FDC0
  8
0
 10
1109.7754624661959
 20
1054.3669413550581
 30
0.0
 11
1109.7754624661959
 21
954.36694135505866
 31
0.0
  0
ARC
  5
FDC1
  8
0
 10
1091.7754624661959
 20
984.36694135505866
 30
0.0
 40
4.0
 50
0.0
 51
90.0
  0
LINE
  5
FDC2
  8
0
 10
1064.940525975657
 20
988.36694135505877
 30
0.0
 11
1091.7754624661959
 21
988.36694135505877
 31
0.0
  0
LINE
  5
FDC3
  8
0
 10
1097.7754624661959
 20
954.36694135505866
 30
0.0
 11
1109.7754624661959
 21
954.36694135505866
 31
0.0
  0
LINE
  5
FDC4
  8
0
 10
1095.7754624661959
 20
956.36694135505877
 30
0.0
 11
1097.7754624661959
 21
954.36694135505866
 31
0.0
  0
ARC
  5
FDC5
  8
0
 10
1091.7754624661959
 20
1024.366941355059
 30
0.0
 40
4.0
 50
270.0
 51
0.0
  0
LINE
  5
FDC6
  8
0
 10
1064.940525975657
 20
1020.366941355058
 30
0.0
 11
1091.7754624661959
 21
1020.366941355058
 31
0.0
  0
LINE
  5
FDC7
  8
0
 10
1095.7754624661959
 20
1052.3669413550581
 30
0.0
 11
1095.7754624661959
 21
956.36694135505877
 31
0.0
  0
LINE
  5
FDC8
  8
0
 10
1097.7754624661959
 20
1054.3669413550581
 30
0.0
 11
1109.7754624661959
 21
1054.3669413550581
 31
0.0
  0
LINE
  5
FDC9
  8
0
 10
1095.7754624661959
 20
1052.3669413550581
 30
0.0
 11
1097.7754624661959
 21
1054.3669413550581
 31
0.0
  0
LINE
  5
FDCA
  8
0
 10
1097.7754624661959
 20
1054.3669413550581
 30
0.0
 11
1097.7754624661959
 21
954.36694135505866
 31
0.0
  0
LINE
  5
FDCB
  8
0
 10
1064.940525975657
 20
1020.366941355058
 30
0.0
 11
1064.940525975657
 21
988.36694135505877
 31
0.0
  0
ARC
  5
FDCC
  8
0
 10
1062.5254638694209
 20
1018.420851665662
 30
0.0
 40
3.101580824627014
 50
38.862386810506649
 51
141.13769581568019
  0
ARC
  5
FDCD
  8
0
 10
1062.5257731344061
 20
990.3128996872249
 30
0.0
 40
3.101495602063423
 50
218.85452556412139
 51
321.13946103662369
  0
LINE
  5
FDCE
  8
0
 10
944.44042524375595
 20
1020.367066355059
 30
0.0
 11
944.44017925158278
 21
988.36689933573598
 31
0.0
  0
LINE
  5
FDCF
  8
0
 10
1060.110398956728
 20
1020.366941355059
 30
0.0
 11
1060.110510404234
 21
988.36719135505848
 31
0.0
  0
CIRCLE
  5
FDD0
  8
0
 10
799.31028629764967
 20
624.84306540855505
 30
0.0
 40
7.5
  0
CIRCLE
  5
FDD1
  8
0
 10
799.31028629764967
 20
571.81005681956412
 30
0.0
 40
7.5
  0
CIRCLE
  5
FDD2
  8
0
 10
772.79378200315421
 20
598.32656111405959
 30
0.0
 40
50.0
  0
CIRCLE
  5
FDD3
  8
0
 10
746.27727770865863
 20
624.84306540855505
 30
0.0
 40
7.5
  0
CIRCLE
  5
FDD4
  8
0
 10
746.27727770865863
 20
571.81005681956412
 30
0.0
 40
7.5
  0
CIRCLE
  5
FDD5
  8
0
 10
1240.4806888037481
 20
624.84306540855505
 30
0.0
 40
7.5
  0
CIRCLE
  5
FDD6
  8
0
 10
1240.4806888037481
 20
571.81005681956412
 30
0.0
 40
7.5
  0
CIRCLE
  5
FDD7
  8
0
 10
1213.9641845092519
 20
598.32656111405959
 30
0.0
 40
50.0
  0
CIRCLE
  5
FDD8
  8
0
 10
1187.4476802147569
 20
624.84306540855505
 30
0.0
 40
7.5
  0
CIRCLE
  5
FDD9
  8
0
 10
1187.4476802147569
 20
571.81005681956412
 30
0.0
 40
7.5
  0
LINE
  5
FDDA
  8
0
 10
1629.859809778025
 20
577.11441847124524
 30
0.0
 11
1629.859809778025
 21
555.32656111405947
 31
0.0
  0
LINE
  5
FDDB
  8
0
 10
1628.859809778025
 20
524.32656111405947
 30
0.0
 11
1653.9228097780251
 21
524.32656111405947
 31
0.0
  0
ARC
  5
FDDC
  8
0
 10
1661.859809778025
 20
555.32656111405947
 30
0.0
 40
32.0
 50
180.0
 51
191.8811560210136
  0
ARC
  5
FDDD
  8
0
 10
1628.5882002587971
 20
548.32656111405959
 30
0.0
 40
2.0
 50
277.80515780130179
 51
11.881156021013661
  0
ARC
  5
FDDE
  8
0
 10
1686.741681652456
 20
527.94239685760567
 30
0.0
 40
5.0
 50
74.999823903766924
 51
132.25899623008789
  0
LINE
  5
FDDF
  8
0
 10
1705.0685219305469
 20
616.32656111405947
 30
0.0
 11
1705.0685219305469
 21
616.32656111405947
 31
0.0
  0
LINE
  5
FDE0
  8
0
 10
1609.859809778025
 20
616.32656111405947
 30
0.0
 11
1609.859809778025
 21
615.32656111405959
 31
0.0
  0
ARC
  5
FDE1
  8
0
 10
1612.359809778025
 20
616.32656111405947
 30
0.0
 40
2.5
 50
156.42182152179279
 51
180.0
  0
ARC
  5
FDE2
  8
0
 10
1608.859809778025
 20
615.32656111405959
 30
0.0
 40
1.0
 50
270.0
 51
0.0
  0
LINE
  5
FDE3
  8
0
 10
1723.859809778025
 20
604.32656111405936
 30
0.0
 11
1723.859809778025
 21
592.32656111405947
 31
0.0
  0
ARC
  5
FDE4
  8
0
 10
1722.859809778025
 20
604.32656111405936
 30
0.0
 40
1.0
 50
0.0
 51
90.0
  0
LINE
  5
FDE5
  8
0
 10
1711.859809778025
 20
604.32656111405947
 30
0.0
 11
1711.859809778025
 21
592.32656111405947
 31
0.0
  0
ARC
  5
FDE6
  8
0
 10
1712.859809778025
 20
592.32656111405947
 30
0.0
 40
1.0
 50
180.0
 51
270.0
  0
ARC
  5
FDE7
  8
0
 10
1712.859809778025
 20
604.32656111405947
 30
0.0
 40
1.0
 50
90.0
 51
180.0
  0
LINE
  5
FDE8
  8
0
 10
1621.859809778025
 20
614.32656111405959
 30
0.0
 11
1609.0248732874859
 21
614.32656111405959
 31
0.0
  0
LINE
  5
FDE9
  8
0
 10
1704.859809778025
 20
617.32656111405947
 30
0.0
 11
1610.0685219305469
 21
617.32656111405947
 31
0.0
  0
ARC
  5
FDEA
  8
0
 10
1628.359809778025
 20
587.82656111405947
 30
0.0
 40
7.0
 50
239.72735868109459
 51
256.86344121305478
  0
ARC
  5
FDEB
  8
0
 10
1625.859809778025
 20
577.11441847124524
 30
0.0
 40
4.0
 50
0.0
 51
76.86344121305396
  0
ARC
  5
FDEC
  8
0
 10
1622.8145415248209
 20
578.32656111405959
 30
0.0
 40
4.0
 50
59.72735868109465
 51
90.0
  0
LINE
  5
FDED
  8
0
 10
1622.8145415248209
 20
582.32656111405959
 30
0.0
 11
1609.0271531392959
 21
582.32656111405959
 31
0.0
  0
LINE
  5
FDEE
  8
0
 10
1724.6947462685639
 20
614.3265611140597
 30
0.0
 11
1707.976848843743
 21
614.32656111405959
 31
0.0
  0
LINE
  5
FDEF
  8
0
 10
1688.035791721629
 20
532.77202201167961
 30
0.0
 11
1716.900364923561
 21
525.03768784880754
 31
0.0
  0
LINE
  5
FDF0
  8
0
 10
1715.841809778025
 20
558.68161496145956
 30
0.0
 11
1715.841809778025
 21
579.3268111140593
 31
0.0
  0
ARC
  5
FDF1
  8
0
 10
1718.841809778025
 20
579.3268111140593
 30
0.0
 40
3.0
 50
90.0
 51
180.0
  0
LINE
  5
FDF2
  8
0
 10
1718.0653437365211
 20
555.78383986901497
 30
0.0
 11
1724.6659840596401
 21
554.01518188156547
 31
0.0
  0
ARC
  5
FDF3
  8
0
 10
1718.841809778025
 20
558.68161496145945
 30
0.0
 40
3.0
 50
180.0
 51
254.9998239037669
  0
ARC
  5
FDF4
  8
0
 10
1717.4180089512311
 20
526.96953791043711
 30
0.0
 40
2.0
 50
254.9998239037669
 51
269.48691222173869
  0
LINE
  5
FDF5
  8
0
 10
1717.400099048444
 20
524.96961810319931
 30
0.0
 11
1725.1325509094811
 21
553.82440302714986
 31
0.0
  0
LINE
  5
FDF6
  8
0
 10
1719.2555246883469
 20
528.03009884321955
 30
0.0
 11
1725.2089629364809
 21
550.24623200449469
 31
0.0
  0
ARC
  5
FDF7
  8
0
 10
1724.1483400319701
 20
552.08333181993578
 30
0.0
 40
2.0
 50
60.520939860417059
 51
74.999823903766924
  0
LINE
  5
FDF8
  8
0
 10
1718.841809778025
 20
582.32681111405941
 30
0.0
 11
1724.692466404869
 21
582.32639428186894
 31
0.0
  0
ARC
  5
FDF9
  8
0
 10
1707.976848843743
 20
617.32656111405947
 30
0.0
 40
3.0
 50
190.475681696393
 51
270.0
  0
ARC
  5
FDFA
  8
0
 10
1702.5685219305469
 20
616.32656111405947
 30
0.0
 40
2.5
 50
10.47568169639305
 51
23.578178478207171
  0
LINE
  5
FDFB
  8
0
 10
1628.859809778025
 20
546.34508987554398
 30
0.0
 11
1628.859809778025
 21
524.32656111405947
 31
0.0
  0
ARC
  5
FDFC
  8
0
 10
1661.859809778025
 20
555.32656111405947
 30
0.0
 40
32.0
 50
180.0
 51
0.0
  0
LINE
  5
FDFD
  8
0
 10
1704.859809778025
 20
617.32656111405981
 30
0.0
 11
1704.859809778025
 21
609.32656111405947
 31
0.0
  0
ARC
  5
FDFE
  8
0
 10
1702.859809778025
 20
609.32656111405947
 30
0.0
 40
2.0
 50
270.0
 51
0.0
  0
LINE
  5
FDFF
  8
0
 10
1696.9831305320629
 20
580.35793414746286
 30
0.0
 11
1630.9009455201649
 21
580.35793414746286
 31
0.0
  0
ARC
  5
FE00
  8
0
 10
1696.9831305320629
 20
585.35793414746286
 30
0.0
 40
5.0
 50
270.0
 51
0.0
  0
LINE
  5
FE01
  8
0
 10
1621.859809778025
 20
617.32656111405947
 30
0.0
 11
1621.859809778025
 21
609.32656111405947
 31
0.0
  0
LINE
  5
FE02
  8
0
 10
1701.9831305320629
 20
607.32656111405959
 30
0.0
 11
1701.9831305320629
 21
585.35793414746286
 31
0.0
  0
LINE
  5
FE03
  8
0
 10
1702.859809778025
 20
607.32656111405959
 30
0.0
 11
1623.859809778025
 21
607.32656111405959
 31
0.0
  0
ARC
  5
FE04
  8
0
 10
1623.859809778025
 20
609.32656111405947
 30
0.0
 40
2.0
 50
180.0
 51
270.0
  0
LINE
  5
FE05
  8
0
 10
1625.900945520166
 20
607.32656111405981
 30
0.0
 11
1625.900945520166
 21
585.35793414746286
 31
0.0
  0
ARC
  5
FE06
  8
0
 10
1630.9009455201649
 20
585.35793414746286
 30
0.0
 40
5.0
 50
180.0
 51
270.0
  0
LINE
  5
FE07
  8
0
 10
1693.859809778025
 20
555.32656111405947
 30
0.0
 11
1693.859809778025
 21
580.35793414746286
 31
0.0
  0
LINE
  5
FE08
  8
0
 10
1704.859809778025
 20
627.3265611140597
 30
0.0
 11
1622.8598097780259
 21
627.3265611140597
 31
0.0
  0
LINE
  5
FE09
  8
0
 10
1665.859809778025
 20
642.32656111405981
 30
0.0
 11
1657.859809778025
 21
642.32656111405981
 31
0.0
  0
ARC
  5
FE0A
  8
0
 10
1647.859809778025
 20
629.32656111405981
 30
0.0
 40
2.0
 50
270.0
 51
0.0
  0
LINE
  5
FE0B
  8
0
 10
1649.859809778025
 20
634.32656111405981
 30
0.0
 11
1649.859809778025
 21
629.32656111405981
 31
0.0
  0
ARC
  5
FE0C
  8
0
 10
1657.859809778025
 20
634.32656111405981
 30
0.0
 40
8.0
 50
90.0
 51
180.0
  0
LINE
  5
FE0D
  8
0
 10
1704.859809778025
 20
617.32656111405981
 30
0.0
 11
1704.859809778025
 21
638.30245178615985
 31
0.0
  0
ARC
  5
FE0E
  8
0
 10
1702.859809778025
 20
638.30245178615985
 30
0.0
 40
2.0
 50
0.0
 51
90.0
  0
LINE
  5
FE0F
  8
0
 10
1671.8918217132509
 20
640.30245178615996
 30
0.0
 11
1702.859809778025
 21
640.30245178615996
 31
0.0
  0
LINE
  5
FE10
  8
0
 10
1621.859809778025
 20
863.38234084937039
 30
0.0
 11
1621.859809778025
 21
801.38234084937028
 31
0.0
  0
LINE
  5
FE11
  8
0
 10
1704.1090701265809
 20
824.38234084937028
 30
0.0
 11
1673.4787598166481
 21
824.38234084937028
 31
0.0
  0
LINE
  5
FE12
  8
0
 10
1704.1090701265809
 20
840.38234084937028
 30
0.0
 11
1673.4787598166481
 21
840.38234084937028
 31
0.0
  0
LINE
  5
FE13
  8
0
 10
1691.9211322109679
 20
792.38234084937039
 30
0.0
 11
1630.859809778025
 21
792.38234084937039
 31
0.0
  0
ARC
  5
FE14
  8
0
 10
1630.859809778025
 20
801.38234084937028
 30
0.0
 40
9.0
 50
180.0
 51
270.0
  0
LINE
  5
FE15
  8
0
 10
1691.888678382508
 20
872.38234084937039
 30
0.0
 11
1630.859809778025
 21
872.38234084937039
 31
0.0
  0
LINE
  5
FE16
  8
0
 10
1676.374244080266
 20
870.38234084937039
 30
0.0
 11
1646.374244080266
 21
870.38234084937039
 31
0.0
  0
ARC
  5
FE17
  8
0
 10
1676.374244080266
 20
868.38234084937039
 30
0.0
 40
2.0
 50
0.0
 51
90.0
  0
LINE
  5
FE18
  8
0
 10
1676.374244080266
 20
848.38234084937017
 30
0.0
 11
1646.374244080266
 21
848.38234084937017
 31
0.0
  0
ARC
  5
FE19
  8
0
 10
1646.374244080266
 20
850.38234084937028
 30
0.0
 40
2.0
 50
180.0
 51
270.0
  0
ARC
  5
FE1A
  8
0
 10
1630.859809778025
 20
863.38234084937039
 30
0.0
 40
9.0
 50
90.0
 51
180.0
  0
ARC
  5
FE1B
  8
0
 10
1362.359809778025
 20
832.20984084937049
 30
0.0
 40
340.0
 50
2.62741392867111
 51
5.4039378865571379
  0
ARC
  5
FE1C
  8
0
 10
1661.859809778025
 20
832.38234084937028
 30
0.0
 40
43.0
 50
339.06085846259771
 51
21.00514167678725
  0
ARC
  5
FE1D
  8
0
 10
1362.359809778025
 20
832.20984084937049
 30
0.0
 40
340.0
 50
354.65604492731069
 51
357.4385862107253
  0
ARC
  5
FE1E
  8
0
 10
1691.888678382508
 20
863.38234084937039
 30
0.0
 40
9.0
 50
5.4039378865571379
 51
90.0
  0
ARC
  5
FE1F
  8
0
 10
1691.9211322109679
 20
801.38234084937028
 30
0.0
 40
9.0
 50
270.0
 51
354.65604492731069
  0
LINE
  5
FE20
  8
0
 10
1621.859809778025
 20
617.32656111405981
 30
0.0
 11
1621.859809778025
 21
626.32656111405981
 31
0.0
  0
ARC
  5
FE21
  8
0
 10
1622.8598097780259
 20
626.32656111405981
 30
0.0
 40
1.0
 50
90.0
 51
180.0
  0
CIRCLE
  5
FE22
  8
0
 10
1661.859809778025
 20
832.38234084937028
 30
0.0
 40
13.0
  0
ARC
  5
FE23
  8
0
 10
1673.4787598166481
 20
821.38234084937039
 30
0.0
 40
3.0
 50
90.0
 51
136.56746344221111
  0
ARC
  5
FE24
  8
0
 10
1673.4787598166481
 20
843.38234084937039
 30
0.0
 40
3.0
 50
223.43253655778881
 51
270.0
  0
ARC
  5
FE25
  8
0
 10
1671.8918217132509
 20
642.30245178615985
 30
0.0
 40
2.0
 50
232.9004880728092
 51
270.0
  0
LINE
  5
FE26
  8
0
 10
1673.859809778025
 20
634.32656111405981
 30
0.0
 11
1673.859809778025
 21
629.32656111405981
 31
0.0
  0
ARC
  5
FE27
  8
0
 10
1665.859809778025
 20
634.32656111405981
 30
0.0
 40
8.0
 50
0.0
 51
90.0
  0
ARC
  5
FE28
  8
0
 10
1675.859809778025
 20
629.32656111405981
 30
0.0
 40
2.0
 50
180.0
 51
270.0
  0
LINE
  5
FE29
  8
0
 10
1640.0577715775969
 20
634.32756111405968
 30
0.0
 11
1623.5577715775969
 21
634.32756111405968
 31
0.0
  0
ARC
  5
FE2A
  8
0
 10
1624.446771577597
 20
629.49623704864302
 30
0.0
 40
4.6309815714167701
 50
58.000676159490858
 51
121.99932384050911
  0
LINE
  5
FE2B
  8
0
 10
1637.150771577597
 20
633.66456111405967
 30
0.0
 11
1637.620771577597
 21
633.86056111405969
 31
0.0
  0
LINE
  5
FE2C
  8
0
 10
1641.622771577597
 20
627.3265611140597
 30
0.0
 11
1641.622771577597
 21
633.42356111405979
 31
0.0
  0
LINE
  5
FE2D
  8
0
 10
1641.622771577597
 20
633.42356111405979
 30
0.0
 11
1640.0577715775969
 21
634.32756111405968
 31
0.0
  0
LINE
  5
FE2E
  8
0
 10
1640.716771577597
 20
633.8615611140599
 30
0.0
 11
1641.622771577597
 21
633.42356111405979
 31
0.0
  0
LINE
  5
FE2F
  8
0
 10
1640.217771577597
 20
634.00656111405976
 30
0.0
 11
1640.716771577597
 21
633.8615611140599
 31
0.0
  0
LINE
  5
FE30
  8
0
 10
1639.697771577597
 20
634.0965611140598
 30
0.0
 11
1640.217771577597
 21
634.00656111405976
 31
0.0
  0
LINE
  5
FE31
  8
0
 10
1639.168771577597
 20
634.12756111405974
 30
0.0
 11
1639.697771577597
 21
634.0965611140598
 31
0.0
  0
LINE
  5
FE32
  8
0
 10
1638.639771577597
 20
634.0965611140598
 30
0.0
 11
1639.168771577597
 21
634.12756111405974
 31
0.0
  0
LINE
  5
FE33
  8
0
 10
1638.120771577597
 20
634.00656111405976
 30
0.0
 11
1638.639771577597
 21
634.0965611140598
 31
0.0
  0
LINE
  5
FE34
  8
0
 10
1637.620771577597
 20
633.86056111405969
 30
0.0
 11
1638.120771577597
 21
634.00656111405976
 31
0.0
  0
LINE
  5
FE35
  8
0
 10
1626.900771577597
 20
633.42356111405979
 30
0.0
 11
1626.900771577597
 21
627.3265611140597
 31
0.0
  0
LINE
  5
FE36
  8
0
 10
1636.714771577597
 20
633.42356111405979
 30
0.0
 11
1636.714771577597
 21
627.3265611140597
 31
0.0
  0
ARC
  5
FE37
  8
0
 10
1631.8077715775969
 20
616.66456952094632
 30
0.0
 40
17.462601416113358
 50
73.680072331667475
 51
106.3199276683325
  0
LINE
  5
FE38
  8
0
 10
1636.714771577597
 20
633.42356111405979
 30
0.0
 11
1637.150771577597
 21
633.66456111405967
 31
0.0
  0
LINE
  5
FE39
  8
0
 10
1621.9927715775971
 20
633.42356111405979
 30
0.0
 11
1621.9927715775971
 21
627.3265611140597
 31
0.0
  0
LINE
  5
FE3A
  8
0
 10
1623.5577715775969
 20
634.32756111405968
 30
0.0
 11
1621.9927715775971
 21
633.42356111405979
 31
0.0
  0
LINE
  5
FE3B
  8
0
 10
1621.9927715775971
 20
627.3265611140597
 30
0.0
 11
1622.8598097780259
 21
627.3265611140597
 31
0.0
  0
LINE
  5
FE3C
  8
0
 10
1700.1711322109679
 20
634.32756111406002
 30
0.0
 11
1683.6711322109679
 21
634.32756111406002
 31
0.0
  0
ARC
  5
FE3D
  8
0
 10
1684.560132210968
 20
629.49623704864325
 30
0.0
 40
4.6309815714167701
 50
58.000676159490858
 51
121.99932384050911
  0
LINE
  5
FE3E
  8
0
 10
1697.264132210968
 20
633.66456111406001
 30
0.0
 11
1697.734132210968
 21
633.86056111405992
 31
0.0
  0
LINE
  5
FE3F
  8
0
 10
1701.736132210968
 20
627.32656111406004
 30
0.0
 11
1701.736132210968
 21
633.42356111405991
 31
0.0
  0
LINE
  5
FE40
  8
0
 10
1701.736132210968
 20
633.42356111405991
 30
0.0
 11
1700.1711322109679
 21
634.32756111406002
 31
0.0
  0
LINE
  5
FE41
  8
0
 10
1700.830132210968
 20
633.86156111406012
 30
0.0
 11
1701.736132210968
 21
633.42356111405991
 31
0.0
  0
LINE
  5
FE42
  8
0
 10
1700.331132210968
 20
634.0065611140601
 30
0.0
 11
1700.830132210968
 21
633.86156111406012
 31
0.0
  0
LINE
  5
FE43
  8
0
 10
1699.811132210968
 20
634.09656111406002
 30
0.0
 11
1700.331132210968
 21
634.0065611140601
 31
0.0
  0
LINE
  5
FE44
  8
0
 10
1699.282132210968
 20
634.12756111405986
 30
0.0
 11
1699.811132210968
 21
634.09656111406002
 31
0.0
  0
LINE
  5
FE45
  8
0
 10
1698.753132210968
 20
634.09656111406002
 30
0.0
 11
1699.282132210968
 21
634.12756111405986
 31
0.0
  0
LINE
  5
FE46
  8
0
 10
1698.234132210968
 20
634.0065611140601
 30
0.0
 11
1698.753132210968
 21
634.09656111406002
 31
0.0
  0
LINE
  5
FE47
  8
0
 10
1697.734132210968
 20
633.86056111405992
 30
0.0
 11
1698.234132210968
 21
634.0065611140601
 31
0.0
  0
LINE
  5
FE48
  8
0
 10
1687.014132210968
 20
633.42356111405991
 30
0.0
 11
1687.014132210968
 21
627.32656111406004
 31
0.0
  0
LINE
  5
FE49
  8
0
 10
1696.8281322109681
 20
633.42356111405991
 30
0.0
 11
1696.8281322109681
 21
627.32656111406004
 31
0.0
  0
ARC
  5
FE4A
  8
0
 10
1691.9211322109679
 20
616.66456952094654
 30
0.0
 40
17.462601416113358
 50
73.680072331667475
 51
106.3199276683325
  0
LINE
  5
FE4B
  8
0
 10
1696.8281322109681
 20
633.42356111405991
 30
0.0
 11
1697.264132210968
 21
633.66456111406001
 31
0.0
  0
LINE
  5
FE4C
  8
0
 10
1682.1061322109681
 20
633.42356111405991
 30
0.0
 11
1682.1061322109681
 21
627.32656111406004
 31
0.0
  0
LINE
  5
FE4D
  8
0
 10
1683.6711322109679
 20
634.32756111406002
 30
0.0
 11
1682.1061322109681
 21
633.42356111405991
 31
0.0
  0
LINE
  5
FE4E
  8
0
 10
1621.9927715775971
 20
802.33030264894217
 30
0.0
 11
1626.900771577597
 21
810.83030264894228
 31
0.0
  0
LINE
  5
FE4F
  8
0
 10
1636.714771577597
 20
810.83030264894228
 30
0.0
 11
1641.622771577597
 21
802.33030264894217
 31
0.0
  0
CIRCLE
  5
FE50
  8
0
 10
1631.8077715775969
 20
802.33030264894217
 30
0.0
 40
8.2499099999999999
  0
LINE
  5
FE51
  8
0
 10
1626.900771577597
 20
793.83030264894217
 30
0.0
 11
1621.9927715775971
 21
802.33030264894217
 31
0.0
  0
LINE
  5
FE52
  8
0
 10
1641.622771577597
 20
802.33030264894217
 30
0.0
 11
1636.714771577597
 21
793.83030264894217
 31
0.0
  0
LINE
  5
FE53
  8
0
 10
1636.714771577597
 20
793.83030264894217
 30
0.0
 11
1626.900771577597
 21
793.83030264894217
 31
0.0
  0
LINE
  5
FE54
  8
0
 10
1626.900771577597
 20
810.83030264894228
 30
0.0
 11
1636.714771577597
 21
810.83030264894228
 31
0.0
  0
LINE
  5
FE55
  8
0
 10
1682.0968479784531
 20
802.33030264894205
 30
0.0
 11
1687.004847978453
 21
810.83030264894194
 31
0.0
  0
LINE
  5
FE56
  8
0
 10
1696.818847978454
 20
810.83030264894194
 30
0.0
 11
1701.726847978453
 21
802.33030264894205
 31
0.0
  0
CIRCLE
  5
FE57
  8
0
 10
1691.911847978454
 20
802.33030264894205
 30
0.0
 40
8.2499099999999999
  0
LINE
  5
FE58
  8
0
 10
1687.004847978453
 20
793.83030264894205
 30
0.0
 11
1682.0968479784531
 21
802.33030264894205
 31
0.0
  0
LINE
  5
FE59
  8
0
 10
1701.726847978453
 20
802.33030264894205
 30
0.0
 11
1696.818847978454
 21
793.83030264894205
 31
0.0
  0
LINE
  5
FE5A
  8
0
 10
1696.818847978454
 20
793.83030264894205
 30
0.0
 11
1687.004847978453
 21
793.83030264894205
 31
0.0
  0
LINE
  5
FE5B
  8
0
 10
1687.004847978453
 20
810.83030264894194
 30
0.0
 11
1696.818847978454
 21
810.83030264894194
 31
0.0
  0
LINE
  5
FE5C
  8
0
 10
1682.0968479784531
 20
862.43437904979862
 30
0.0
 11
1687.004847978453
 21
870.93437904979874
 31
0.0
  0
LINE
  5
FE5D
  8
0
 10
1696.818847978454
 20
870.93437904979874
 30
0.0
 11
1701.7268479784541
 21
862.43437904979862
 31
0.0
  0
CIRCLE
  5
FE5E
  8
0
 10
1691.911847978454
 20
862.43437904979862
 30
0.0
 40
8.2499099999999999
  0
LINE
  5
FE5F
  8
0
 10
1687.004847978453
 20
853.93437904979874
 30
0.0
 11
1682.0968479784531
 21
862.43437904979862
 31
0.0
  0
LINE
  5
FE60
  8
0
 10
1701.7268479784541
 20
862.43437904979862
 30
0.0
 11
1696.818847978454
 21
853.93437904979874
 31
0.0
  0
LINE
  5
FE61
  8
0
 10
1696.818847978454
 20
853.93437904979874
 30
0.0
 11
1687.004847978453
 21
853.93437904979874
 31
0.0
  0
LINE
  5
FE62
  8
0
 10
1687.004847978453
 20
870.93437904979874
 30
0.0
 11
1696.818847978454
 21
870.93437904979874
 31
0.0
  0
LINE
  5
FE63
  8
0
 10
1621.9927715775971
 20
862.43437904979862
 30
0.0
 11
1626.900771577597
 21
870.93437904979874
 31
0.0
  0
LINE
  5
FE64
  8
0
 10
1636.714771577597
 20
870.93437904979874
 30
0.0
 11
1641.622771577597
 21
862.43437904979862
 31
0.0
  0
CIRCLE
  5
FE65
  8
0
 10
1631.8077715775969
 20
862.43437904979862
 30
0.0
 40
8.2499099999999999
  0
LINE
  5
FE66
  8
0
 10
1626.900771577597
 20
853.93437904979874
 30
0.0
 11
1621.9927715775971
 21
862.43437904979862
 31
0.0
  0
LINE
  5
FE67
  8
0
 10
1641.622771577597
 20
862.43437904979862
 30
0.0
 11
1636.714771577597
 21
853.93437904979874
 31
0.0
  0
LINE
  5
FE68
  8
0
 10
1636.714771577597
 20
853.93437904979874
 30
0.0
 11
1626.900771577597
 21
853.93437904979874
 31
0.0
  0
LINE
  5
FE69
  8
0
 10
1626.900771577597
 20
870.93437904979874
 30
0.0
 11
1636.714771577597
 21
870.93437904979874
 31
0.0
  0
LINE
  5
FE6A
  8
0
 10
1621.859809778025
 20
848.38246584937042
 30
0.0
 11
1609.0248732874859
 21
848.38246584937042
 31
0.0
  0
LINE
  5
FE6B
  8
0
 10
1621.859809778025
 20
816.38246584937053
 30
0.0
 11
1609.0271531392959
 21
816.38246584937053
 31
0.0
  0
LINE
  5
FE6C
  8
0
 10
1724.6947462685639
 20
848.38246584937042
 30
0.0
 11
1701.9749540231089
 21
848.38246584937042
 31
0.0
  0
LINE
  5
FE6D
  8
0
 10
1701.9912866973591
 20
816.38391637110556
 30
0.0
 11
1724.692466404869
 21
816.38229901717978
 31
0.0
  0
LINE
  5
FE6E
  8
0
 10
1615.859809778025
 20
826.38234084937028
 30
0.0
 11
1619.859809778025
 21
826.38234084937028
 31
0.0
  0
ARC
  5
FE6F
  8
0
 10
1619.859809778025
 20
824.38234084937028
 30
0.0
 40
2.0
 50
0.0
 51
90.0
  0
ARC
  5
FE70
  8
0
 10
1615.869809778025
 20
832.38234084937028
 30
0.0
 40
6.0
 50
90.0
 51
270.0
  0
LINE
  5
FE71
  8
0
 10
1615.859809778025
 20
838.38234084937039
 30
0.0
 11
1619.859809778025
 21
838.38234084937039
 31
0.0
  0
ARC
  5
FE72
  8
0
 10
1619.859809778025
 20
840.38234084937028
 30
0.0
 40
2.0
 50
270.0
 51
0.0
  0
LINE
  5
FE73
  8
0
 10
1712.859809778025
 20
591.32656111405947
 30
0.0
 11
1722.859809778025
 21
591.32656111405947
 31
0.0
  0
ARC
  5
FE74
  8
0
 10
1722.859809778025
 20
592.32656111405947
 30
0.0
 40
1.0
 50
270.0
 51
0.0
  0
LINE
  5
FE75
  8
0
 10
1712.859809778025
 20
605.32656111405947
 30
0.0
 11
1722.859809778025
 21
605.32656111405925
 31
0.0
  0
LINE
  5
FE76
  8
0
 10
1719.902872406492
 20
530.44483298725538
 30
0.0
 11
1725.2086628310931
 21
550.24631242618125
 31
0.0
  0
LINE
  5
FE77
  8
0
 10
1721.0258768549861
 20
531.28997558389835
 30
0.0
 11
1726.114374107877
 21
529.92651685429837
 31
0.0
  0
LINE
  5
FE78
  8
0
 10
1726.114374107877
 20
529.92651685429837
 30
0.0
 11
1726.863137605359
 21
532.7209402697531
 31
0.0
  0
LINE
  5
FE79
  8
0
 10
1726.863137605359
 20
532.7209402697531
 30
0.0
 11
1721.7746403524679
 21
534.0843989993532
 31
0.0
  0
LINE
  5
FE7A
  8
0
 10
1721.7746403524679
 20
534.0843989993532
 30
0.0
 11
1721.0258768549861
 21
531.28997558389835
 31
0.0
  0
LINE
  5
FE7B
  8
0
 10
1725.2086628310931
 20
550.24631242618125
 30
0.0
 11
1726.433383164313
 21
551.47106387255644
 31
0.0
  0
LINE
  5
FE7C
  8
0
 10
1726.433383164313
 20
551.47106387255644
 30
0.0
 11
1731.5218804172041
 21
550.10760514295634
 31
0.0
  0
LINE
  5
FE7D
  8
0
 10
1731.5218804172041
 20
550.10760514295634
 30
0.0
 11
1731.9701436151161
 21
548.4345791104638
 31
0.0
  0
LINE
  5
FE7E
  8
0
 10
1731.9701436151161
 20
548.4345791104638
 30
0.0
 11
1726.0173055777591
 21
526.21828510581508
 31
0.0
  0
LINE
  5
FE7F
  8
0
 10
1726.0173055777591
 20
526.21828510581508
 30
0.0
 11
1724.7925852445389
 21
524.99353365944035
 31
0.0
  0
LINE
  5
FE80
  8
0
 10
1724.7925852445389
 20
524.99353365944035
 30
0.0
 11
1719.7040879916481
 21
526.35699238904044
 31
0.0
  0
LINE
  5
FE81
  8
0
 10
1719.7040879916481
 20
526.35699238904044
 30
0.0
 11
1719.255824793735
 21
528.03001842153265
 31
0.0
  0
LINE
  5
FE82
  8
0
 10
1719.255824793735
 20
528.03001842153265
 30
0.0
 11
1719.902872406492
 21
530.44483298725538
 31
0.0
  0
LINE
  5
FE83
  8
0
 10
1725.111594300974
 20
546.53808067769796
 30
0.0
 11
1730.2000915538649
 21
545.17462194809787
 31
0.0
  0
LINE
  5
FE84
  8
0
 10
1730.2000915538649
 20
545.17462194809787
 30
0.0
 11
1729.451328056384
 21
542.38019853264348
 31
0.0
  0
LINE
  5
FE85
  8
0
 10
1729.451328056384
 20
542.38019853264348
 30
0.0
 11
1724.3628308034929
 21
543.74365726224369
 31
0.0
  0
LINE
  5
FE86
  8
0
 10
1724.3628308034929
 20
543.74365726224369
 30
0.0
 11
1725.111594300974
 21
546.53808067769796
 31
0.0
  0
ARC
  5
FE87
  8
0
 10
1727.642865647744
 20
548.50340629118455
 30
0.0
 40
4.1976433314087407
 50
307.53205179663991
 51
22.467948203353199
  0
ARC
  5
FE88
  8
0
 10
1714.6331313365031
 20
541.17434147497067
 30
0.0
 40
14.867180138568379
 50
325.34770562304828
 51
4.6522943769503344
  0
ARC
  5
FE89
  8
0
 10
1722.2353593384159
 20
528.32231800252634
 30
0.0
 40
4.1976433314087407
 50
307.53205179663991
 51
22.467948203353199
  0
ARC
  5
FE8A
  8
0
 10
1728.9906090704351
 20
548.14227952946965
 30
0.0
 40
4.1976433314087407
 50
127.5320517966439
 51
202.46794820335319
  0
ARC
  5
FE8B
  8
0
 10
1736.5928370723491
 20
535.29025605702554
 30
0.0
 40
14.867180138568379
 50
145.34770562304831
 51
184.65229437695029
  0
ARC
  5
FE8C
  8
0
 10
1723.5831027611091
 20
527.96119124081133
 30
0.0
 40
4.1976433314087407
 50
127.5320517966439
 51
202.46794820335319
  0
LINE
  5
FE8D
  8
0
 10
1621.859809778025
 20
604.32656111405936
 30
0.0
 11
1621.859809778025
 21
592.32656111405947
 31
0.0
  0
ARC
  5
FE8E
  8
0
 10
1620.859809778025
 20
604.32656111405936
 30
0.0
 40
1.0
 50
0.0
 51
90.0
  0
LINE
  5
FE8F
  8
0
 10
1609.859809778025
 20
604.32656111405947
 30
0.0
 11
1609.859809778025
 21
592.32656111405947
 31
0.0
  0
ARC
  5
FE90
  8
0
 10
1610.859809778025
 20
592.32656111405947
 30
0.0
 40
1.0
 50
180.0
 51
270.0
  0
ARC
  5
FE91
  8
0
 10
1610.859809778025
 20
604.32656111405947
 30
0.0
 40
1.0
 50
90.0
 51
180.0
  0
LINE
  5
FE92
  8
0
 10
1610.859809778025
 20
591.32656111405947
 30
0.0
 11
1620.859809778025
 21
591.32656111405947
 31
0.0
  0
ARC
  5
FE93
  8
0
 10
1620.859809778025
 20
592.32656111405947
 30
0.0
 40
1.0
 50
270.0
 51
0.0
  0
LINE
  5
FE94
  8
0
 10
1610.859809778025
 20
605.32656111405947
 30
0.0
 11
1620.859809778025
 21
605.32656111405925
 31
0.0
  0
LINE
  5
FE95
  8
0
 10
1725.2089629364809
 20
550.24623200449469
 30
0.0
 11
1724.2430441030299
 21
550.50507714581238
 31
0.0
  0
LINE
  5
FE96
  8
0
 10
1719.255824793735
 20
528.03001842153265
 30
0.0
 11
1718.2896058548949
 21
528.28894398453713
 31
0.0
  0
LINE
  5
FE97
  8
0
 10
1693.859809778025
 20
1063.9982529172819
 30
0.0
 11
1693.859809778025
 21
1042.210395560096
 31
0.0
  0
LINE
  5
FE98
  8
0
 10
1694.859809778025
 20
1011.210395560096
 30
0.0
 11
1669.7968097780249
 21
1011.210395560096
 31
0.0
  0
ARC
  5
FE99
  8
0
 10
1661.859809778025
 20
1042.210395560096
 30
0.0
 40
32.0
 50
348.11884397898632
 51
0.0
  0
ARC
  5
FE9A
  8
0
 10
1695.1314192972529
 20
1035.210395560096
 30
0.0
 40
2.0
 50
168.11884397898629
 51
262.1948421986981
  0
ARC
  5
FE9B
  8
0
 10
1636.9779379035949
 20
1014.826231303642
 30
0.0
 40
5.0
 50
47.741003769912041
 51
105.00017609623301
  0
LINE
  5
FE9C
  8
0
 10
1618.6510976255031
 20
1103.210395560096
 30
0.0
 11
1618.6510976255031
 21
1103.210395560096
 31
0.0
  0
LINE
  5
FE9D
  8
0
 10
1713.8598097780259
 20
1103.210395560096
 30
0.0
 11
1713.8598097780259
 21
1102.210395560096
 31
0.0
  0
ARC
  5
FE9E
  8
0
 10
1711.359809778025
 20
1103.210395560096
 30
0.0
 40
2.5
 50
0.0
 51
23.578178478207171
  0
ARC
  5
FE9F
  8
0
 10
1714.859809778025
 20
1102.210395560096
 30
0.0
 40
1.0
 50
180.0
 51
270.0
  0
LINE
  5
FEA0
  8
0
 10
1599.859809778025
 20
1091.210395560096
 30
0.0
 11
1599.859809778025
 21
1079.210395560096
 31
0.0
  0
ARC
  5
FEA1
  8
0
 10
1600.859809778025
 20
1091.210395560096
 30
0.0
 40
1.0
 50
90.0
 51
180.0
  0
LINE
  5
FEA2
  8
0
 10
1611.859809778025
 20
1091.210395560096
 30
0.0
 11
1611.859809778025
 21
1079.210395560096
 31
0.0
  0
ARC
  5
FEA3
  8
0
 10
1610.859809778025
 20
1079.210395560096
 30
0.0
 40
1.0
 50
270.0
 51
0.0
  0
ARC
  5
FEA4
  8
0
 10
1610.859809778025
 20
1091.210395560096
 30
0.0
 40
1.0
 50
0.0
 51
90.0
  0
LINE
  5
FEA5
  8
0
 10
1701.859809778025
 20
1101.210395560096
 30
0.0
 11
1714.6948473695979
 21
1101.210395560096
 31
0.0
  0
LINE
  5
FEA6
  8
0
 10
1618.859809778025
 20
1104.210395560096
 30
0.0
 11
1713.6510976255031
 21
1104.210395560096
 31
0.0
  0
ARC
  5
FEA7
  8
0
 10
1695.359809778025
 20
1074.710395560096
 30
0.0
 40
7.0
 50
283.13655878694522
 51
300.27264131890541
  0
ARC
  5
FEA8
  8
0
 10
1697.8598097780259
 20
1063.9982529172819
 30
0.0
 40
4.0
 50
103.136558786946
 51
180.0
  0
ARC
  5
FEA9
  8
0
 10
1700.90507803123
 20
1065.210395560096
 30
0.0
 40
4.0
 50
90.0
 51
120.2726413189053
  0
LINE
  5
FEAA
  8
0
 10
1700.90507803123
 20
1069.210395560096
 30
0.0
 11
1714.6924664212081
 21
1069.210395560096
 31
0.0
  0
LINE
  5
FEAB
  8
0
 10
1599.024772186453
 20
1101.210395560096
 30
0.0
 11
1615.742770712307
 21
1101.210395560096
 31
0.0
  0
LINE
  5
FEAC
  8
0
 10
1635.6838278344219
 20
1019.655856457716
 30
0.0
 11
1606.819254632489
 21
1011.921522294844
 31
0.0
  0
LINE
  5
FEAD
  8
0
 10
1607.877809778025
 20
1045.5654494074961
 30
0.0
 11
1607.877809778025
 21
1066.2106455600961
 31
0.0
  0
ARC
  5
FEAE
  8
0
 10
1604.877809778025
 20
1066.2106455600961
 30
0.0
 40
3.0
 50
0.0
 51
90.0
  0
LINE
  5
FEAF
  8
0
 10
1605.6542758195289
 20
1042.667674315051
 30
0.0
 11
1599.0536354964111
 21
1040.8990163276021
 31
0.0
  0
ARC
  5
FEB0
  8
0
 10
1604.877809778025
 20
1045.5654494074961
 30
0.0
 40
3.0
 50
285.00017609623308
 51
0.0
  0
ARC
  5
FEB1
  8
0
 10
1606.3016106048201
 20
1013.853372356473
 30
0.0
 40
2.0
 50
270.51308777824818
 51
285.00017609623308
  0
LINE
  5
FEB2
  8
0
 10
1606.319520507607
 20
1011.853452549235
 30
0.0
 11
1598.5870686465701
 21
1040.708237473186
 31
0.0
  0
LINE
  5
FEB3
  8
0
 10
1604.464094867704
 20
1014.913933289256
 30
0.0
 11
1598.5106566195691
 21
1037.1300664505311
 31
0.0
  0
ARC
  5
FEB4
  8
0
 10
1599.5712795240811
 20
1038.9671662659721
 30
0.0
 40
2.0
 50
105.00017609623301
 51
119.4790601395829
  0
LINE
  5
FEB5
  8
0
 10
1604.877809778025
 20
1069.2106455600961
 30
0.0
 11
1599.027153146729
 21
1069.2102287279049
 31
0.0
  0
ARC
  5
FEB6
  8
0
 10
1615.742770712307
 20
1104.210395560096
 30
0.0
 40
3.0
 50
270.0
 51
349.524318303607
  0
ARC
  5
FEB7
  8
0
 10
1621.1510976255031
 20
1103.210395560096
 30
0.0
 40
2.5
 50
156.42182152179279
 51
169.52431830360689
  0
LINE
  5
FEB8
  8
0
 10
1694.859809778025
 20
1033.2289243215801
 30
0.0
 11
1694.859809778025
 21
1011.210395560096
 31
0.0
  0
ARC
  5
FEB9
  8
0
 10
1661.859809778025
 20
1042.210395560096
 30
0.0
 40
32.0
 50
180.0
 51
0.0
  0
LINE
  5
FEBA
  8
0
 10
1618.859809778025
 20
1104.210395560096
 30
0.0
 11
1618.859809778025
 21
1096.210395560096
 31
0.0
  0
ARC
  5
FEBB
  8
0
 10
1620.859809778025
 20
1096.210395560096
 30
0.0
 40
2.0
 50
180.0
 51
270.0
  0
LINE
  5
FEBC
  8
0
 10
1626.736489023988
 20
1067.241768593499
 30
0.0
 11
1692.8186740358849
 21
1067.241768593499
 31
0.0
  0
ARC
  5
FEBD
  8
0
 10
1626.736489023988
 20
1072.241768593499
 30
0.0
 40
5.0
 50
180.0
 51
270.0
  0
LINE
  5
FEBE
  8
0
 10
1701.859809778025
 20
1104.210395560096
 30
0.0
 11
1701.859809778025
 21
1096.210395560096
 31
0.0
  0
LINE
  5
FEBF
  8
0
 10
1621.7364890239869
 20
1094.210395560096
 30
0.0
 11
1621.7364890239869
 21
1072.241768593499
 31
0.0
  0
LINE
  5
FEC0
  8
0
 10
1620.859809778025
 20
1094.210395560096
 30
0.0
 11
1699.859809778025
 21
1094.210395560096
 31
0.0
  0
ARC
  5
FEC1
  8
0
 10
1699.859809778025
 20
1096.210395560096
 30
0.0
 40
2.0
 50
270.0
 51
0.0
  0
LINE
  5
FEC2
  8
0
 10
1697.8186740358849
 20
1094.210395560096
 30
0.0
 11
1697.8186740358849
 21
1072.241768593499
 31
0.0
  0
ARC
  5
FEC3
  8
0
 10
1692.8186740358849
 20
1072.241768593499
 30
0.0
 40
5.0
 50
270.0
 51
0.0
  0
LINE
  5
FEC4
  8
0
 10
1629.859809778025
 20
1042.210395560096
 30
0.0
 11
1629.859809778025
 21
1067.241768593499
 31
0.0
  0
LINE
  5
FEC5
  8
0
 10
1618.859809778025
 20
1114.210395560096
 30
0.0
 11
1700.859809778025
 21
1114.210395560096
 31
0.0
  0
LINE
  5
FEC6
  8
0
 10
1657.859809778025
 20
1129.210395560096
 30
0.0
 11
1665.859809778025
 21
1129.210395560096
 31
0.0
  0
ARC
  5
FEC7
  8
0
 10
1675.859809778025
 20
1116.210395560096
 30
0.0
 40
2.0
 50
180.0
 51
270.0
  0
LINE
  5
FEC8
  8
0
 10
1673.859809778025
 20
1121.210395560096
 30
0.0
 11
1673.859809778025
 21
1116.210395560096
 31
0.0
  0
ARC
  5
FEC9
  8
0
 10
1665.859809778025
 20
1121.210395560096
 30
0.0
 40
8.0
 50
0.0
 51
90.0
  0
LINE
  5
FECA
  8
0
 10
1618.859809778025
 20
1104.210395560096
 30
0.0
 11
1618.859809778025
 21
1125.1862862321959
 31
0.0
  0
ARC
  5
FECB
  8
0
 10
1620.859809778025
 20
1125.1862862321959
 30
0.0
 40
2.0
 50
90.0
 51
180.0
  0
LINE
  5
FECC
  8
0
 10
1651.8277978427991
 20
1127.1862862321959
 30
0.0
 11
1620.859809778025
 21
1127.1862862321959
 31
0.0
  0
LINE
  5
FECD
  8
0
 10
1701.859809778025
 20
1104.210395560096
 30
0.0
 11
1701.859809778025
 21
1113.210395560096
 31
0.0
  0
ARC
  5
FECE
  8
0
 10
1700.859809778025
 20
1113.210395560096
 30
0.0
 40
1.0
 50
0.0
 51
90.0
  0
ARC
  5
FECF
  8
0
 10
1651.8277978427991
 20
1129.1862862321959
 30
0.0
 40
2.0
 50
270.0
 51
307.0995119271908
  0
LINE
  5
FED0
  8
0
 10
1649.859809778025
 20
1121.210395560096
 30
0.0
 11
1649.859809778025
 21
1116.210395560096
 31
0.0
  0
ARC
  5
FED1
  8
0
 10
1657.859809778025
 20
1121.210395560096
 30
0.0
 40
8.0
 50
90.0
 51
180.0
  0
ARC
  5
FED2
  8
0
 10
1647.859809778025
 20
1116.210395560096
 30
0.0
 40
2.0
 50
270.0
 51
0.0
  0
LINE
  5
FED3
  8
0
 10
1683.6618479784529
 20
1121.211395560096
 30
0.0
 11
1700.161847978454
 21
1121.211395560096
 31
0.0
  0
ARC
  5
FED4
  8
0
 10
1699.2728479784539
 20
1116.380071494679
 30
0.0
 40
4.6309815714167701
 50
58.000676159490858
 51
121.99932384050911
  0
LINE
  5
FED5
  8
0
 10
1686.568847978454
 20
1120.548395560096
 30
0.0
 11
1686.0988479784539
 21
1120.7443955600961
 31
0.0
  0
LINE
  5
FED6
  8
0
 10
1682.0968479784531
 20
1114.210395560096
 30
0.0
 11
1682.0968479784531
 21
1120.307395560096
 31
0.0
  0
LINE
  5
FED7
  8
0
 10
1682.0968479784531
 20
1120.307395560096
 30
0.0
 11
1683.6618479784529
 21
1121.211395560096
 31
0.0
  0
LINE
  5
FED8
  8
0
 10
1683.002847978453
 20
1120.7453955600961
 30
0.0
 11
1682.0968479784531
 21
1120.307395560096
 31
0.0
  0
LINE
  5
FED9
  8
0
 10
1683.501847978454
 20
1120.8903955600961
 30
0.0
 11
1683.002847978453
 21
1120.7453955600961
 31
0.0
  0
LINE
  5
FEDA
  8
0
 10
1684.0218479784539
 20
1120.980395560096
 30
0.0
 11
1683.501847978454
 21
1120.8903955600961
 31
0.0
  0
LINE
  5
FEDB
  8
0
 10
1684.5508479784539
 20
1121.0113955600959
 30
0.0
 11
1684.0218479784539
 21
1120.980395560096
 31
0.0
  0
LINE
  5
FEDC
  8
0
 10
1685.0798479784539
 20
1120.980395560096
 30
0.0
 11
1684.5508479784539
 21
1121.0113955600959
 31
0.0
  0
LINE
  5
FEDD
  8
0
 10
1685.598847978453
 20
1120.8903955600961
 30
0.0
 11
1685.0798479784539
 21
1120.980395560096
 31
0.0
  0
LINE
  5
FEDE
  8
0
 10
1686.0988479784539
 20
1120.7443955600961
 30
0.0
 11
1685.598847978453
 21
1120.8903955600961
 31
0.0
  0
LINE
  5
FEDF
  8
0
 10
1696.818847978454
 20
1120.307395560096
 30
0.0
 11
1696.818847978454
 21
1114.210395560096
 31
0.0
  0
LINE
  5
FEE0
  8
0
 10
1687.004847978453
 20
1120.307395560096
 30
0.0
 11
1687.004847978453
 21
1114.210395560096
 31
0.0
  0
ARC
  5
FEE1
  8
0
 10
1691.911847978454
 20
1103.5484039669821
 30
0.0
 40
17.462601416113358
 50
73.680072331667475
 51
106.3199276683325
  0
LINE
  5
FEE2
  8
0
 10
1687.004847978453
 20
1120.307395560096
 30
0.0
 11
1686.568847978454
 21
1120.548395560096
 31
0.0
  0
LINE
  5
FEE3
  8
0
 10
1701.7268479784541
 20
1120.307395560096
 30
0.0
 11
1701.7268479784541
 21
1114.210395560096
 31
0.0
  0
LINE
  5
FEE4
  8
0
 10
1700.161847978454
 20
1121.211395560096
 30
0.0
 11
1701.7268479784541
 21
1120.307395560096
 31
0.0
  0
LINE
  5
FEE5
  8
0
 10
1701.7268479784541
 20
1114.210395560096
 30
0.0
 11
1700.859809778025
 21
1114.210395560096
 31
0.0
  0
LINE
  5
FEE6
  8
0
 10
1623.548487345083
 20
1121.211395560096
 30
0.0
 11
1640.048487345083
 21
1121.211395560096
 31
0.0
  0
ARC
  5
FEE7
  8
0
 10
1639.159487345082
 20
1116.380071494679
 30
0.0
 40
4.6309815714167701
 50
58.000676159490858
 51
121.99932384050911
  0
LINE
  5
FEE8
  8
0
 10
1626.4554873450829
 20
1120.548395560096
 30
0.0
 11
1625.9854873450829
 21
1120.7443955600961
 31
0.0
  0
LINE
  5
FEE9
  8
0
 10
1621.9834873450829
 20
1114.210395560096
 30
0.0
 11
1621.9834873450829
 21
1120.307395560096
 31
0.0
  0
LINE
  5
FEEA
  8
0
 10
1621.9834873450829
 20
1120.307395560096
 30
0.0
 11
1623.548487345083
 21
1121.211395560096
 31
0.0
  0
LINE
  5
FEEB
  8
0
 10
1622.8894873450829
 20
1120.745395560097
 30
0.0
 11
1621.9834873450829
 21
1120.307395560096
 31
0.0
  0
LINE
  5
FEEC
  8
0
 10
1623.3884873450829
 20
1120.8903955600961
 30
0.0
 11
1622.8894873450829
 21
1120.745395560097
 31
0.0
  0
LINE
  5
FEED
  8
0
 10
1623.9084873450829
 20
1120.980395560096
 30
0.0
 11
1623.3884873450829
 21
1120.8903955600961
 31
0.0
  0
LINE
  5
FEEE
  8
0
 10
1624.4374873450829
 20
1121.0113955600959
 30
0.0
 11
1623.9084873450829
 21
1120.980395560096
 31
0.0
  0
LINE
  5
FEEF
  8
0
 10
1624.9664873450829
 20
1120.980395560096
 30
0.0
 11
1624.4374873450829
 21
1121.0113955600959
 31
0.0
  0
LINE
  5
FEF0
  8
0
 10
1625.485487345082
 20
1120.8903955600961
 30
0.0
 11
1624.9664873450829
 21
1120.980395560096
 31
0.0
  0
LINE
  5
FEF1
  8
0
 10
1625.9854873450829
 20
1120.7443955600961
 30
0.0
 11
1625.485487345082
 21
1120.8903955600961
 31
0.0
  0
LINE
  5
FEF2
  8
0
 10
1636.7054873450829
 20
1120.307395560096
 30
0.0
 11
1636.7054873450829
 21
1114.210395560096
 31
0.0
  0
LINE
  5
FEF3
  8
0
 10
1626.8914873450831
 20
1120.307395560096
 30
0.0
 11
1626.8914873450831
 21
1114.210395560096
 31
0.0
  0
ARC
  5
FEF4
  8
0
 10
1631.798487345083
 20
1103.548403966983
 30
0.0
 40
17.462601416113358
 50
73.680072331667475
 51
106.3199276683325
  0
LINE
  5
FEF5
  8
0
 10
1626.8914873450831
 20
1120.307395560096
 30
0.0
 11
1626.4554873450829
 21
1120.548395560096
 31
0.0
  0
LINE
  5
FEF6
  8
0
 10
1641.6134873450831
 20
1120.307395560096
 30
0.0
 11
1641.6134873450831
 21
1114.210395560096
 31
0.0
  0
LINE
  5
FEF7
  8
0
 10
1640.048487345083
 20
1121.211395560096
 30
0.0
 11
1641.6134873450831
 21
1120.307395560096
 31
0.0
  0
LINE
  5
FEF8
  8
0
 10
1610.859809778025
 20
1078.210395560096
 30
0.0
 11
1600.859809778025
 21
1078.210395560096
 31
0.0
  0
ARC
  5
FEF9
  8
0
 10
1600.859809778025
 20
1079.210395560096
 30
0.0
 40
1.0
 50
180.0
 51
270.0
  0
LINE
  5
FEFA
  8
0
 10
1610.859809778025
 20
1092.210395560096
 30
0.0
 11
1600.859809778025
 21
1092.210395560096
 31
0.0
  0
LINE
  5
FEFB
  8
0
 10
1603.816747149559
 20
1017.328667433292
 30
0.0
 11
1598.5109567249581
 21
1037.130146872217
 31
0.0
  0
LINE
  5
FEFC
  8
0
 10
1602.693742701065
 20
1018.173810029935
 30
0.0
 11
1597.605245448173
 21
1016.810351300335
 31
0.0
  0
LINE
  5
FEFD
  8
0
 10
1597.605245448173
 20
1016.810351300335
 30
0.0
 11
1596.8564819506919
 21
1019.6047747157889
 31
0.0
  0
LINE
  5
FEFE
  8
0
 10
1596.8564819506919
 20
1019.6047747157889
 30
0.0
 11
1601.944979203583
 21
1020.96823344539
 31
0.0
  0
LINE
  5
FEFF
  8
0
 10
1601.944979203583
 20
1020.96823344539
 30
0.0
 11
1602.693742701065
 21
1018.173810029935
 31
0.0
  0
LINE
  5
FF00
  8
0
 10
1598.5109567249581
 20
1037.130146872217
 30
0.0
 11
1597.286236391737
 21
1038.3548983185931
 31
0.0
  0
LINE
  5
FF01
  8
0
 10
1597.286236391737
 20
1038.3548983185931
 30
0.0
 11
1592.1977391388459
 21
1036.991439588993
 31
0.0
  0
LINE
  5
FF02
  8
0
 10
1592.1977391388459
 20
1036.991439588993
 30
0.0
 11
1591.749475940934
 21
1035.3184135565
 31
0.0
  0
LINE
  5
FF03
  8
0
 10
1591.749475940934
 20
1035.3184135565
 30
0.0
 11
1597.7023139782921
 21
1013.102119551851
 31
0.0
  0
LINE
  5
FF04
  8
0
 10
1597.7023139782921
 20
1013.102119551851
 30
0.0
 11
1598.927034311512
 21
1011.877368105476
 31
0.0
  0
LINE
  5
FF05
  8
0
 10
1598.927034311512
 20
1011.877368105476
 30
0.0
 11
1604.0155315644031
 21
1013.240826835077
 31
0.0
  0
LINE
  5
FF06
  8
0
 10
1604.0155315644031
 20
1013.240826835077
 30
0.0
 11
1604.463794762316
 21
1014.9138528675689
 31
0.0
  0
LINE
  5
FF07
  8
0
 10
1604.463794762316
 20
1014.9138528675689
 30
0.0
 11
1603.816747149559
 21
1017.328667433292
 31
0.0
  0
LINE
  5
FF08
  8
0
 10
1598.608025255076
 20
1033.4219151237339
 30
0.0
 11
1593.5195280021851
 21
1032.0584563941341
 31
0.0
  0
LINE
  5
FF09
  8
0
 10
1593.5195280021851
 20
1032.0584563941341
 30
0.0
 11
1594.2682914996669
 21
1029.26403297868
 31
0.0
  0
LINE
  5
FF0A
  8
0
 10
1594.2682914996669
 20
1029.26403297868
 30
0.0
 11
1599.3567887525569
 21
1030.6274917082801
 31
0.0
  0
LINE
  5
FF0B
  8
0
 10
1599.3567887525569
 20
1030.6274917082801
 30
0.0
 11
1598.608025255076
 21
1033.4219151237339
 31
0.0
  0
ARC
  5
FF0C
  8
0
 10
1596.076753908307
 20
1035.387240737221
 30
0.0
 40
4.1976433314087407
 50
157.53205179664681
 51
232.46794820336009
  0
ARC
  5
FF0D
  8
0
 10
1609.0864882195481
 20
1028.058175921007
 30
0.0
 40
14.867180138568379
 50
175.34770562304959
 51
214.65229437695169
  0
ARC
  5
FF0E
  8
0
 10
1601.484260217635
 20
1015.206152448563
 30
0.0
 40
4.1976433314087407
 50
157.53205179664681
 51
232.46794820336009
  0
ARC
  5
FF0F
  8
0
 10
1594.7290104856149
 20
1035.026113975506
 30
0.0
 40
4.1976433314087407
 50
337.53205179664678
 51
52.46794820335608
  0
ARC
  5
FF10
  8
0
 10
1587.1267824837009
 20
1022.174090503062
 30
0.0
 40
14.867180138568379
 50
355.34770562304971
 51
34.65229437695168
  0
ARC
  5
FF11
  8
0
 10
1600.1365167949421
 20
1014.845025686847
 30
0.0
 40
4.1976433314087407
 50
337.53205179664678
 51
52.46794820335608
  0
LINE
  5
FF12
  8
0
 10
1701.859809778025
 20
1091.210395560096
 30
0.0
 11
1701.859809778025
 21
1079.210395560096
 31
0.0
  0
ARC
  5
FF13
  8
0
 10
1702.859809778025
 20
1091.210395560096
 30
0.0
 40
1.0
 50
90.0
 51
180.0
  0
LINE
  5
FF14
  8
0
 10
1713.8598097780259
 20
1091.210395560096
 30
0.0
 11
1713.8598097780259
 21
1079.210395560096
 31
0.0
  0
ARC
  5
FF15
  8
0
 10
1712.859809778025
 20
1079.210395560096
 30
0.0
 40
1.0
 50
270.0
 51
0.0
  0
ARC
  5
FF16
  8
0
 10
1712.859809778025
 20
1091.210395560096
 30
0.0
 40
1.0
 50
0.0
 51
90.0
  0
LINE
  5
FF17
  8
0
 10
1712.859809778025
 20
1078.210395560096
 30
0.0
 11
1702.859809778025
 21
1078.210395560096
 31
0.0
  0
ARC
  5
FF18
  8
0
 10
1702.859809778025
 20
1079.210395560096
 30
0.0
 40
1.0
 50
180.0
 51
270.0
  0
LINE
  5
FF19
  8
0
 10
1712.859809778025
 20
1092.210395560096
 30
0.0
 11
1702.859809778025
 21
1092.210395560096
 31
0.0
  0
LINE
  5
FF1A
  8
0
 10
1598.5106566195691
 20
1037.1300664505311
 30
0.0
 11
1599.476575453021
 21
1037.3889115918489
 31
0.0
  0
LINE
  5
FF1B
  8
0
 10
1604.463794762316
 20
1014.9138528675689
 30
0.0
 11
1605.4300137011551
 21
1015.172778430573
 31
0.0
  0
LINE
  5
FF1C
  8
0
 10
1678.374244080266
 20
868.38234084937039
 30
0.0
 11
1678.374244080266
 21
850.38234084937028
 31
0.0
  0
ARC
  5
FF1D
  8
0
 10
1676.374244080266
 20
850.38234084937028
 30
0.0
 40
2.0
 50
270.0
 51
0.0
  0
LINE
  5
FF1E
  8
0
 10
1644.374244080266
 20
868.38234084937039
 30
0.0
 11
1644.374244080266
 21
850.38234084937028
 31
0.0
  0
ARC
  5
FF1F
  8
0
 10
1646.374244080266
 20
868.38234084937039
 30
0.0
 40
2.0
 50
90.0
 51
180.0
  0
LINE
  5
FF20
  8
0
 10
1784.359809778025
 20
598.32656111405959
 30
0.0
 11
1784.359809778025
 21
657.99645858046051
 31
0.0
  0
LINE
  5
FF21
  8
0
 10
1549.359809778025
 20
598.32656111405959
 30
0.0
 11
1549.359809778025
 21
657.99645858046051
 31
0.0
  0
LINE
  5
FF22
  8
0
 10
1784.359809778025
 20
660.82656111405959
 30
0.0
 11
1784.359809778025
 21
535.82656111405959
 31
0.0
  0
ARC
  5
FF23
  8
0
 10
1766.359809778025
 20
578.32656111405959
 30
0.0
 40
4.0
 50
0.0
 51
90.0
  0
LINE
  5
FF24
  8
0
 10
1729.524873287487
 20
582.32656111405959
 30
0.0
 11
1766.359809778025
 21
582.32656111405959
 31
0.0
  0
LINE
  5
FF25
  8
0
 10
1772.359809778025
 20
535.82656111405959
 30
0.0
 11
1784.359809778025
 21
535.82656111405959
 31
0.0
  0
LINE
  5
FF26
  8
0
 10
1770.3598097780259
 20
537.82656111405947
 30
0.0
 11
1772.359809778025
 21
535.82656111405959
 31
0.0
  0
ARC
  5
FF27
  8
0
 10
1766.359809778025
 20
618.32656111405959
 30
0.0
 40
4.0
 50
270.0
 51
0.0
  0
LINE
  5
FF28
  8
0
 10
1729.524873287487
 20
614.32656111405959
 30
0.0
 11
1766.359809778025
 21
614.32656111405959
 31
0.0
  0
LINE
  5
FF29
  8
0
 10
1770.359809778025
 20
658.82656111405947
 30
0.0
 11
1770.359809778025
 21
537.8265611140597
 31
0.0
  0
LINE
  5
FF2A
  8
0
 10
1772.359809778025
 20
660.82656111405959
 30
0.0
 11
1784.359809778025
 21
660.82656111405959
 31
0.0
  0
LINE
  5
FF2B
  8
0
 10
1770.359809778025
 20
658.82656111405947
 30
0.0
 11
1772.359809778025
 21
660.82656111405959
 31
0.0
  0
LINE
  5
FF2C
  8
0
 10
1772.359809778025
 20
660.82656111405959
 30
0.0
 11
1772.359809778025
 21
535.82656111405959
 31
0.0
  0
LINE
  5
FF2D
  8
0
 10
1729.524873287487
 20
614.32656111405959
 30
0.0
 11
1729.524873287487
 21
582.32656111405959
 31
0.0
  0
ARC
  5
FF2E
  8
0
 10
1727.109809778025
 20
610.42002745979755
 30
0.0
 40
4.5927700733447496
 50
58.275172150280312
 51
121.7248278497196
  0
ARC
  5
FF2F
  8
0
 10
1727.109809778025
 20
586.23284476832146
 30
0.0
 40
4.5927700733447496
 50
238.2751721502803
 51
301.72482784971959
  0
LINE
  5
FF30
  8
0
 10
1724.6947462685639
 20
614.32656111405959
 30
0.0
 11
1724.692466404869
 21
582.32639428186894
 31
0.0
  0
LINE
  5
FF31
  8
0
 10
1549.359809778025
 20
598.32656111405959
 30
0.0
 11
1549.359809778025
 21
657.99645858046051
 31
0.0
  0
LINE
  5
FF32
  8
0
 10
1549.359809778025
 20
660.82656111405959
 30
0.0
 11
1549.359809778025
 21
535.82656111405959
 31
0.0
  0
ARC
  5
FF33
  8
0
 10
1567.359809778025
 20
578.32656111405959
 30
0.0
 40
4.0
 50
90.0
 51
180.0
  0
LINE
  5
FF34
  8
0
 10
1604.1947462685639
 20
582.32656111405959
 30
0.0
 11
1567.359809778025
 21
582.32656111405959
 31
0.0
  0
LINE
  5
FF35
  8
0
 10
1561.359809778025
 20
535.82656111405959
 30
0.0
 11
1549.359809778025
 21
535.82656111405959
 31
0.0
  0
LINE
  5
FF36
  8
0
 10
1563.359809778025
 20
537.82656111405947
 30
0.0
 11
1561.359809778025
 21
535.82656111405959
 31
0.0
  0
ARC
  5
FF37
  8
0
 10
1567.359809778025
 20
618.32656111405959
 30
0.0
 40
4.0
 50
180.0
 51
270.0
  0
LINE
  5
FF38
  8
0
 10
1604.1947462685639
 20
614.32656111405959
 30
0.0
 11
1567.359809778025
 21
614.32656111405959
 31
0.0
  0
LINE
  5
FF39
  8
0
 10
1563.359809778025
 20
658.82656111405947
 30
0.0
 11
1563.359809778025
 21
537.8265611140597
 31
0.0
  0
LINE
  5
FF3A
  8
0
 10
1561.359809778025
 20
660.82656111405959
 30
0.0
 11
1549.359809778025
 21
660.82656111405959
 31
0.0
  0
LINE
  5
FF3B
  8
0
 10
1563.359809778025
 20
658.82656111405947
 30
0.0
 11
1561.359809778025
 21
660.82656111405959
 31
0.0
  0
LINE
  5
FF3C
  8
0
 10
1561.359809778025
 20
660.82656111405959
 30
0.0
 11
1561.359809778025
 21
535.82656111405959
 31
0.0
  0
LINE
  5
FF3D
  8
0
 10
1604.1947462685639
 20
614.32656111405959
 30
0.0
 11
1604.1947462685639
 21
582.32656111405959
 31
0.0
  0
ARC
  5
FF3E
  8
0
 10
1606.609809778025
 20
610.42002745979755
 30
0.0
 40
4.5927700733447496
 50
58.275172150270912
 51
121.7248278497291
  0
ARC
  5
FF3F
  8
0
 10
1606.609809778025
 20
586.23284476832146
 30
0.0
 40
4.5927700733447496
 50
238.27517215027089
 51
301.72482784972908
  0
LINE
  5
FF40
  8
0
 10
1609.0248732874859
 20
614.32656111405959
 30
0.0
 11
1609.0271531511819
 21
582.32639428186894
 31
0.0
  0
LINE
  5
FF41
  8
0
 10
1784.359809778025
 20
832.38246584937042
 30
0.0
 11
1784.359809778025
 21
892.05236331577134
 31
0.0
  0
LINE
  5
FF42
  8
0
 10
1549.359809778025
 20
832.38246584937042
 30
0.0
 11
1549.359809778025
 21
892.05236331577134
 31
0.0
  0
LINE
  5
FF43
  8
0
 10
1784.359809778025
 20
894.88246584937042
 30
0.0
 11
1784.359809778025
 21
769.88246584937042
 31
0.0
  0
ARC
  5
FF44
  8
0
 10
1766.359809778025
 20
812.38246584937042
 30
0.0
 40
4.0
 50
0.0
 51
90.0
  0
LINE
  5
FF45
  8
0
 10
1729.524873287487
 20
816.38246584937031
 30
0.0
 11
1766.359809778025
 21
816.38246584937031
 31
0.0
  0
LINE
  5
FF46
  8
0
 10
1772.359809778025
 20
769.88246584937042
 30
0.0
 11
1784.359809778025
 21
769.88246584937042
 31
0.0
  0
LINE
  5
FF47
  8
0
 10
1770.3598097780259
 20
771.88246584937042
 30
0.0
 11
1772.359809778025
 21
769.88246584937042
 31
0.0
  0
ARC
  5
FF48
  8
0
 10
1766.359809778025
 20
852.38246584937053
 30
0.0
 40
4.0
 50
270.0
 51
0.0
  0
LINE
  5
FF49
  8
0
 10
1729.524873287487
 20
848.38246584937042
 30
0.0
 11
1766.359809778025
 21
848.38246584937042
 31
0.0
  0
LINE
  5
FF4A
  8
0
 10
1770.359809778025
 20
892.88246584937042
 30
0.0
 11
1770.359809778025
 21
771.88246584937053
 31
0.0
  0
LINE
  5
FF4B
  8
0
 10
1772.359809778025
 20
894.88246584937042
 30
0.0
 11
1784.359809778025
 21
894.88246584937042
 31
0.0
  0
LINE
  5
FF4C
  8
0
 10
1770.359809778025
 20
892.88246584937042
 30
0.0
 11
1772.359809778025
 21
894.88246584937042
 31
0.0
  0
LINE
  5
FF4D
  8
0
 10
1772.359809778025
 20
894.88246584937042
 30
0.0
 11
1772.359809778025
 21
769.88246584937042
 31
0.0
  0
LINE
  5
FF4E
  8
0
 10
1729.524873287487
 20
848.38246584937042
 30
0.0
 11
1729.524873287487
 21
816.38246584937031
 31
0.0
  0
ARC
  5
FF4F
  8
0
 10
1727.109809778025
 20
844.4759321951085
 30
0.0
 40
4.5927700733447496
 50
58.275172150280312
 51
121.7248278497196
  0
ARC
  5
FF50
  8
0
 10
1727.109809778025
 20
820.28874950363229
 30
0.0
 40
4.5927700733447496
 50
238.2751721502803
 51
301.72482784971959
  0
LINE
  5
FF51
  8
0
 10
1724.6947462685639
 20
848.38246584937042
 30
0.0
 11
1724.692466404869
 21
816.38229901717978
 31
0.0
  0
LINE
  5
FF52
  8
0
 10
1549.359809778025
 20
832.38246584937042
 30
0.0
 11
1549.359809778025
 21
892.05236331577134
 31
0.0
  0
LINE
  5
FF53
  8
0
 10
1549.359809778025
 20
894.88246584937042
 30
0.0
 11
1549.359809778025
 21
769.88246584937042
 31
0.0
  0
ARC
  5
FF54
  8
0
 10
1567.359809778025
 20
812.38246584937042
 30
0.0
 40
4.0
 50
90.0
 51
180.0
  0
LINE
  5
FF55
  8
0
 10
1604.1947462685639
 20
816.38246584937031
 30
0.0
 11
1567.359809778025
 21
816.38246584937031
 31
0.0
  0
LINE
  5
FF56
  8
0
 10
1561.359809778025
 20
769.88246584937042
 30
0.0
 11
1549.359809778025
 21
769.88246584937042
 31
0.0
  0
LINE
  5
FF57
  8
0
 10
1563.359809778025
 20
771.88246584937042
 30
0.0
 11
1561.359809778025
 21
769.88246584937042
 31
0.0
  0
ARC
  5
FF58
  8
0
 10
1567.359809778025
 20
852.38246584937053
 30
0.0
 40
4.0
 50
180.0
 51
270.0
  0
LINE
  5
FF59
  8
0
 10
1604.1947462685639
 20
848.38246584937042
 30
0.0
 11
1567.359809778025
 21
848.38246584937042
 31
0.0
  0
LINE
  5
FF5A
  8
0
 10
1563.359809778025
 20
892.88246584937042
 30
0.0
 11
1563.359809778025
 21
771.88246584937053
 31
0.0
  0
LINE
  5
FF5B
  8
0
 10
1561.359809778025
 20
894.88246584937042
 30
0.0
 11
1549.359809778025
 21
894.88246584937042
 31
0.0
  0
LINE
  5
FF5C
  8
0
 10
1563.359809778025
 20
892.88246584937042
 30
0.0
 11
1561.359809778025
 21
894.88246584937042
 31
0.0
  0
LINE
  5
FF5D
  8
0
 10
1561.359809778025
 20
894.88246584937042
 30
0.0
 11
1561.359809778025
 21
769.88246584937042
 31
0.0
  0
LINE
  5
FF5E
  8
0
 10
1604.1947462685639
 20
848.38246584937042
 30
0.0
 11
1604.1947462685639
 21
816.38246584937031
 31
0.0
  0
ARC
  5
FF5F
  8
0
 10
1606.609809778025
 20
844.4759321951085
 30
0.0
 40
4.5927700733447496
 50
58.275172150270912
 51
121.7248278497291
  0
ARC
  5
FF60
  8
0
 10
1606.609809778025
 20
820.28874950363229
 30
0.0
 40
4.5927700733447496
 50
238.27517215027089
 51
301.72482784972908
  0
LINE
  5
FF61
  8
0
 10
1609.0248732874859
 20
848.38246584937042
 30
0.0
 11
1609.0271531511819
 21
816.38229901717978
 31
0.0
  0
LINE
  5
FF62
  8
0
 10
1774.359809778025
 20
1085.210333060096
 30
0.0
 11
1774.359809778025
 21
1144.8802305264969
 31
0.0
  0
LINE
  5
FF63
  8
0
 10
1539.359809778025
 20
1085.210333060096
 30
0.0
 11
1539.359809778025
 21
1144.8802305264969
 31
0.0
  0
LINE
  5
FF64
  8
0
 10
1774.359809778025
 20
1147.710333060096
 30
0.0
 11
1774.359809778025
 21
1022.710333060096
 31
0.0
  0
ARC
  5
FF65
  8
0
 10
1756.359809778025
 20
1065.210333060096
 30
0.0
 40
4.0
 50
0.0
 51
90.0
  0
LINE
  5
FF66
  8
0
 10
1719.5248732874859
 20
1069.210333060096
 30
0.0
 11
1756.359809778025
 21
1069.210333060096
 31
0.0
  0
LINE
  5
FF67
  8
0
 10
1762.359809778025
 20
1022.710333060096
 30
0.0
 11
1774.359809778025
 21
1022.710333060096
 31
0.0
  0
LINE
  5
FF68
  8
0
 10
1760.3598097780259
 20
1024.710333060096
 30
0.0
 11
1762.359809778025
 21
1022.710333060096
 31
0.0
  0
ARC
  5
FF69
  8
0
 10
1756.359809778025
 20
1105.210333060096
 30
0.0
 40
4.0
 50
270.0
 51
0.0
  0
LINE
  5
FF6A
  8
0
 10
1719.5248732874859
 20
1101.210333060096
 30
0.0
 11
1756.359809778025
 21
1101.210333060096
 31
0.0
  0
LINE
  5
FF6B
  8
0
 10
1760.3598097780259
 20
1145.710333060096
 30
0.0
 11
1760.3598097780259
 21
1024.710333060096
 31
0.0
  0
LINE
  5
FF6C
  8
0
 10
1762.359809778025
 20
1147.710333060096
 30
0.0
 11
1774.359809778025
 21
1147.710333060096
 31
0.0
  0
LINE
  5
FF6D
  8
0
 10
1760.3598097780259
 20
1145.710333060096
 30
0.0
 11
1762.359809778025
 21
1147.710333060096
 31
0.0
  0
LINE
  5
FF6E
  8
0
 10
1762.359809778025
 20
1147.710333060096
 30
0.0
 11
1762.359809778025
 21
1022.710333060096
 31
0.0
  0
LINE
  5
FF6F
  8
0
 10
1719.5248732874859
 20
1101.210333060096
 30
0.0
 11
1719.5248732874859
 21
1069.210333060096
 31
0.0
  0
ARC
  5
FF70
  8
0
 10
1717.109809778025
 20
1097.3037994058341
 30
0.0
 40
4.5927700733447496
 50
58.275172150280312
 51
121.7248278497196
  0
ARC
  5
FF71
  8
0
 10
1717.109809778025
 20
1073.1166167143581
 30
0.0
 40
4.5927700733447496
 50
238.2751721502803
 51
301.72482784971959
  0
LINE
  5
FF72
  8
0
 10
1714.6947462685639
 20
1101.210333060096
 30
0.0
 11
1714.692466404869
 21
1069.2101662279049
 31
0.0
  0
LINE
  5
FF73
  8
0
 10
1539.359809778025
 20
1085.210333060096
 30
0.0
 11
1539.359809778025
 21
1144.8802305264969
 31
0.0
  0
LINE
  5
FF74
  8
0
 10
1539.359809778025
 20
1147.710333060096
 30
0.0
 11
1539.359809778025
 21
1022.710333060096
 31
0.0
  0
ARC
  5
FF75
  8
0
 10
1557.359809778025
 20
1065.210333060096
 30
0.0
 40
4.0
 50
90.0
 51
180.0
  0
LINE
  5
FF76
  8
0
 10
1594.1947462685639
 20
1069.210333060096
 30
0.0
 11
1557.359809778025
 21
1069.210333060096
 31
0.0
  0
LINE
  5
FF77
  8
0
 10
1551.359809778025
 20
1022.710333060096
 30
0.0
 11
1539.359809778025
 21
1022.710333060096
 31
0.0
  0
LINE
  5
FF78
  8
0
 10
1553.359809778025
 20
1024.710333060096
 30
0.0
 11
1551.359809778025
 21
1022.710333060096
 31
0.0
  0
ARC
  5
FF79
  8
0
 10
1557.359809778025
 20
1105.210333060096
 30
0.0
 40
4.0
 50
180.0
 51
270.0
  0
LINE
  5
FF7A
  8
0
 10
1594.1947462685639
 20
1101.210333060096
 30
0.0
 11
1557.359809778025
 21
1101.210333060096
 31
0.0
  0
LINE
  5
FF7B
  8
0
 10
1553.359809778025
 20
1145.710333060096
 30
0.0
 11
1553.359809778025
 21
1024.710333060096
 31
0.0
  0
LINE
  5
FF7C
  8
0
 10
1551.359809778025
 20
1147.710333060096
 30
0.0
 11
1539.359809778025
 21
1147.710333060096
 31
0.0
  0
LINE
  5
FF7D
  8
0
 10
1553.359809778025
 20
1145.710333060096
 30
0.0
 11
1551.359809778025
 21
1147.710333060096
 31
0.0
  0
LINE
  5
FF7E
  8
0
 10
1551.359809778025
 20
1147.710333060096
 30
0.0
 11
1551.359809778025
 21
1022.710333060096
 31
0.0
  0
LINE
  5
FF7F
  8
0
 10
1594.1947462685639
 20
1101.210333060096
 30
0.0
 11
1594.1947462685639
 21
1069.210333060096
 31
0.0
  0
ARC
  5
FF80
  8
0
 10
1596.609809778025
 20
1097.3037994058341
 30
0.0
 40
4.5927700733447496
 50
58.275172150270912
 51
121.7248278497291
  0
ARC
  5
FF81
  8
0
 10
1596.609809778025
 20
1073.1166167143581
 30
0.0
 40
4.5927700733447496
 50
238.27517215027089
 51
301.72482784972908
  0
LINE
  5
FF82
  8
0
 10
1599.0248732874859
 20
1101.210333060096
 30
0.0
 11
1599.0271531511819
 21
1069.2101662279049
 31
0.0
  0
ARC
  5
FF83
  8
0
 10
1897.169023589516
 20
555.32656111405947
 30
0.0
 40
32.0
 50
202.0523888814794
 51
337.94761111852063
  0
LINE
  5
FF84
  8
0
 10
1886.8389235895161
 20
529.9265168542961
 30
0.0
 11
1885.169023589516
 21
532.72094026975185
 31
0.0
  0
LINE
  5
FF85
  8
0
 10
1886.8389235895161
 20
529.9265168542961
 30
0.0
 11
1895.4991235895161
 21
524.99353365943944
 31
0.0
  0
LINE
  5
FF86
  8
0
 10
1885.169023589516
 20
536.98937826385031
 30
0.0
 11
1885.169023589516
 21
532.72094026975185
 31
0.0
  0
LINE
  5
FF87
  8
0
 10
1907.4991235895161
 20
529.9265168542961
 30
0.0
 11
1909.169023589516
 21
532.72094026975185
 31
0.0
  0
LINE
  5
FF88
  8
0
 10
1907.4991235895161
 20
529.9265168542961
 30
0.0
 11
1898.8389235895161
 21
524.99353365943944
 31
0.0
  0
LINE
  5
FF89
  8
0
 10
1909.169023589516
 20
536.98937826385031
 30
0.0
 11
1909.169023589516
 21
532.72094026975185
 31
0.0
  0
LINE
  5
FF8A
  8
0
 10
1895.4991235895161
 20
524.99353365943944
 30
0.0
 11
1898.8389235895161
 21
524.99353365943944
 31
0.0
  0
POLYLINE
  5
FF8B
  8
0
 10
1885.6778208023954
 20
536.89202474806041
 30
0.0
 66
     1
 70
     8
  0
VERTEX
  8
0
  5
10411
 10
1885.68
 20
536.892
 30
0.000000
  70
    32
  0
VERTEX
  8
0
  5
10412
 10
1885.69
 20
536.627
 30
0.000000
  70
    32
  0
VERTEX
  8
0
  5
10413
 10
1885.71
 20
536.361
 30
0.000000
  70
    32
  0
VERTEX
  8
0
  5
10414
 10
1885.74
 20
536.097
 30
0.000000
  70
    32
  0
VERTEX
  8
0
  5
10415
 10
1885.77
 20
535.833
 30
0.000000
  70
    32
  0
VERTEX
  8
0
  5
10416
 10
1885.81
 20
535.570
 30
0.000000
  70
    32
  0
VERTEX
  8
0
  5
10417
 10
1885.86
 20
535.308
 30
0.000000
  70
    32
  0
VERTEX
  8
0
  5
10418
 10
1885.91
 20
535.047
 30
0.000000
  70
    32
  0
VERTEX
  8
0
  5
10419
 10
1885.97
 20
534.788
 30
0.000000
  70
    32
  0
VERTEX
  8
0
  5
1041A
 10
1886.04
 20
534.530
 30
0.000000
  70
    32
  0
VERTEX
  8
0
  5
1041B
 10
1886.11
 20
534.273
 30
0.000000
  70
    32
  0
VERTEX
  8
0
  5
1041C
 10
1886.19
 20
534.019
 30
0.000000
  70
    32
  0
VERTEX
  8
0
  5
1041D
 10
1886.28
 20
533.766
 30
0.000000
  70
    32
  0
VERTEX
  8
0
  5
1041E
 10
1886.37
 20
533.515
 30
0.000000
  70
    32
  0
VERTEX
  8
0
  5
1041F
 10
1886.46
 20
533.266
 30
0.000000
  70
    32
  0
VERTEX
  8
0
  5
10420
 10
1886.57
 20
533.020
 30
0.000000
  70
    32
  0
VERTEX
  8
0
  5
10421
 10
1886.68
 20
532.776
 30
0.000000
  70
    32
  0
VERTEX
  8
0
  5
10422
 10
1886.79
 20
532.535
 30
0.000000
  70
    32
  0
VERTEX
  8
0
  5
10423
 10
1886.92
 20
532.297
 30
0.000000
  70
    32
  0
VERTEX
  8
0
  5
10424
 10
1887.04
 20
532.061
 30
0.000000
  70
    32
  0
VERTEX
  8
0
  5
10425
 10
1887.18
 20
531.829
 30
0.000000
  70
    32
  0
VERTEX
  8
0
  5
10426
 10
1887.32
 20
531.599
 30
0.000000
  70
    32
  0
VERTEX
  8
0
  5
10427
 10
1887.46
 20
531.373
 30
0.000000
  70
    32
  0
VERTEX
  8
0
  5
10428
 10
1887.61
 20
531.150
 30
0.000000
  70
    32
  0
VERTEX
  8
0
  5
10429
 10
1887.77
 20
530.931
 30
0.000000
  70
    32
  0
VERTEX
  8
0
  5
1042A
 10
1887.93
 20
530.716
 30
0.000000
  70
    32
  0
VERTEX
  8
0
  5
1042B
 10
1888.09
 20
530.504
 30
0.000000
  70
    32
  0
VERTEX
  8
0
  5
1042C
 10
1888.27
 20
530.296
 30
0.000000
  70
    32
  0
VERTEX
  8
0
  5
1042D
 10
1888.44
 20
530.092
 30
0.000000
  70
    32
  0
VERTEX
  8
0
  5
1042E
 10
1888.62
 20
529.893
 30
0.000000
  70
    32
  0
VERTEX
  8
0
  5
1042F
 10
1888.81
 20
529.697
 30
0.000000
  70
    32
  0
VERTEX
  8
0
  5
10430
 10
1889.00
 20
529.506
 30
0.000000
  70
    32
  0
VERTEX
  8
0
  5
10431
 10
1889.20
 20
529.320
 30
0.000000
  70
    32
  0
VERTEX
  8
0
  5
10432
 10
1889.40
 20
529.138
 30
0.000000
  70
    32
  0
VERTEX
  8
0
  5
10433
 10
1889.60
 20
528.960
 30
0.000000
  70
    32
  0
VERTEX
  8
0
  5
10434
 10
1889.81
 20
528.788
 30
0.000000
  70
    32
  0
VERTEX
  8
0
  5
10435
 10
1890.03
 20
528.620
 30
0.000000
  70
    32
  0
VERTEX
  8
0
  5
10436
 10
1890.24
 20
528.458
 30
0.000000
  70
    32
  0
VERTEX
  8
0
  5
10437
 10
1890.47
 20
528.300
 30
0.000000
  70
    32
  0
VERTEX
  8
0
  5
10438
 10
1890.69
 20
528.148
 30
0.000000
  70
    32
  0
VERTEX
  8
0
  5
10439
 10
1890.92
 20
528.001
 30
0.000000
  70
    32
  0
VERTEX
  8
0
  5
1043A
 10
1891.15
 20
527.859
 30
0.000000
  70
    32
  0
VERTEX
  8
0
  5
1043B
 10
1891.39
 20
527.723
 30
0.000000
  70
    32
  0
VERTEX
  8
0
  5
1043C
 10
1891.63
 20
527.592
 30
0.000000
  70
    32
  0
VERTEX
  8
0
  5
1043D
 10
1891.87
 20
527.467
 30
0.000000
  70
    32
  0
VERTEX
  8
0
  5
1043E
 10
1892.12
 20
527.347
 30
0.000000
  70
    32
  0
VERTEX
  8
0
  5
1043F
 10
1892.37
 20
527.233
 30
0.000000
  70
    32
  0
VERTEX
  8
0
  5
10440
 10
1892.62
 20
527.125
 30
0.000000
  70
    32
  0
VERTEX
  8
0
  5
10441
 10
1892.87
 20
527.023
 30
0.000000
  70
    32
  0
VERTEX
  8
0
  5
10442
 10
1893.13
 20
526.926
 30
0.000000
  70
    32
  0
VERTEX
  8
0
  5
10443
 10
1893.39
 20
526.836
 30
0.000000
  70
    32
  0
VERTEX
  8
0
  5
10444
 10
1893.65
 20
526.752
 30
0.000000
  70
    32
  0
VERTEX
  8
0
  5
10445
 10
1893.91
 20
526.673
 30
0.000000
  70
    32
  0
VERTEX
  8
0
  5
10446
 10
1894.18
 20
526.601
 30
0.000000
  70
    32
  0
VERTEX
  8
0
  5
10447
 10
1894.44
 20
526.535
 30
0.000000
  70
    32
  0
VERTEX
  8
0
  5
10448
 10
1894.71
 20
526.475
 30
0.000000
  70
    32
  0
VERTEX
  8
0
  5
10449
 10
1894.98
 20
526.421
 30
0.000000
  70
    32
  0
VERTEX
  8
0
  5
1044A
 10
1895.25
 20
526.374
 30
0.000000
  70
    32
  0
VERTEX
  8
0
  5
1044B
 10
1895.52
 20
526.333
 30
0.000000
  70
    32
  0
VERTEX
  8
0
  5
1044C
 10
1895.80
 20
526.298
 30
0.000000
  70
    32
  0
VERTEX
  8
0
  5
1044D
 10
1896.07
 20
526.269
 30
0.000000
  70
    32
  0
VERTEX
  8
0
  5
1044E
 10
1896.34
 20
526.247
 30
0.000000
  70
    32
  0
VERTEX
  8
0
  5
1044F
 10
1896.62
 20
526.231
 30
0.000000
  70
    32
  0
VERTEX
  8
0
  5
10450
 10
1896.89
 20
526.221
 30
0.000000
  70
    32
  0
VERTEX
  8
0
  5
10451
 10
1897.17
 20
526.218
 30
0.000000
  70
    32
  0
VERTEX
  8
0
  5
10452
 10
1897.44
 20
526.221
 30
0.000000
  70
    32
  0
VERTEX
  8
0
  5
10453
 10
1897.72
 20
526.231
 30
0.000000
  70
    32
  0
VERTEX
  8
0
  5
10454
 10
1897.99
 20
526.247
 30
0.000000
  70
    32
  0
VERTEX
  8
0
  5
10455
 10
1898.27
 20
526.269
 30
0.000000
  70
    32
  0
VERTEX
  8
0
  5
10456
 10
1898.54
 20
526.298
 30
0.000000
  70
    32
  0
VERTEX
  8
0
  5
10457
 10
1898.81
 20
526.333
 30
0.000000
  70
    32
  0
VERTEX
  8
0
  5
10458
 10
1899.09
 20
526.374
 30
0.000000
  70
    32
  0
VERTEX
  8
0
  5
10459
 10
1899.36
 20
526.421
 30
0.000000
  70
    32
  0
VERTEX
  8
0
  5
1045A
 10
1899.63
 20
526.475
 30
0.000000
  70
    32
  0
VERTEX
  8
0
  5
1045B
 10
1899.90
 20
526.535
 30
0.000000
  70
    32
  0
VERTEX
  8
0
  5
1045C
 10
1900.16
 20
526.601
 30
0.000000
  70
    32
  0
VERTEX
  8
0
  5
1045D
 10
1900.43
 20
526.673
 30
0.000000
  70
    32
  0
VERTEX
  8
0
  5
1045E
 10
1900.69
 20
526.752
 30
0.000000
  70
    32
  0
VERTEX
  8
0
  5
1045F
 10
1900.95
 20
526.836
 30
0.000000
  70
    32
  0
VERTEX
  8
0
  5
10460
 10
1901.21
 20
526.926
 30
0.000000
  70
    32
  0
VERTEX
  8
0
  5
10461
 10
1901.47
 20
527.023
 30
0.000000
  70
    32
  0
VERTEX
  8
0
  5
10462
 10
1901.72
 20
527.125
 30
0.000000
  70
    32
  0
VERTEX
  8
0
  5
10463
 10
1901.97
 20
527.233
 30
0.000000
  70
    32
  0
VERTEX
  8
0
  5
10464
 10
1902.22
 20
527.347
 30
0.000000
  70
    32
  0
VERTEX
  8
0
  5
10465
 10
1902.47
 20
527.467
 30
0.000000
  70
    32
  0
VERTEX
  8
0
  5
10466
 10
1902.71
 20
527.592
 30
0.000000
  70
    32
  0
VERTEX
  8
0
  5
10467
 10
1902.95
 20
527.723
 30
0.000000
  70
    32
  0
VERTEX
  8
0
  5
10468
 10
1903.18
 20
527.859
 30
0.000000
  70
    32
  0
VERTEX
  8
0
  5
10469
 10
1903.42
 20
528.001
 30
0.000000
  70
    32
  0
VERTEX
  8
0
  5
1046A
 10
1903.65
 20
528.148
 30
0.000000
  70
    32
  0
VERTEX
  8
0
  5
1046B
 10
1903.87
 20
528.300
 30
0.000000
  70
    32
  0
VERTEX
  8
0
  5
1046C
 10
1904.09
 20
528.458
 30
0.000000
  70
    32
  0
VERTEX
  8
0
  5
1046D
 10
1904.31
 20
528.620
 30
0.000000
  70
    32
  0
VERTEX
  8
0
  5
1046E
 10
1904.52
 20
528.788
 30
0.000000
  70
    32
  0
VERTEX
  8
0
  5
1046F
 10
1904.73
 20
528.960
 30
0.000000
  70
    32
  0
VERTEX
  8
0
  5
10470
 10
1904.94
 20
529.138
 30
0.000000
  70
    32
  0
VERTEX
  8
0
  5
10471
 10
1905.14
 20
529.320
 30
0.000000
  70
    32
  0
VERTEX
  8
0
  5
10472
 10
1905.34
 20
529.506
 30
0.000000
  70
    32
  0
VERTEX
  8
0
  5
10473
 10
1905.53
 20
529.697
 30
0.000000
  70
    32
  0
VERTEX
  8
0
  5
10474
 10
1905.71
 20
529.893
 30
0.000000
  70
    32
  0
VERTEX
  8
0
  5
10475
 10
1905.90
 20
530.092
 30
0.000000
  70
    32
  0
VERTEX
  8
0
  5
10476
 10
1906.07
 20
530.296
 30
0.000000
  70
    32
  0
VERTEX
  8
0
  5
10477
 10
1906.24
 20
530.504
 30
0.000000
  70
    32
  0
VERTEX
  8
0
  5
10478
 10
1906.41
 20
530.716
 30
0.000000
  70
    32
  0
VERTEX
  8
0
  5
10479
 10
1906.57
 20
530.931
 30
0.000000
  70
    32
  0
VERTEX
  8
0
  5
1047A
 10
1906.73
 20
531.150
 30
0.000000
  70
    32
  0
VERTEX
  8
0
  5
1047B
 10
1906.88
 20
531.373
 30
0.000000
  70
    32
  0
VERTEX
  8
0
  5
1047C
 10
1907.02
 20
531.599
 30
0.000000
  70
    32
  0
VERTEX
  8
0
  5
1047D
 10
1907.16
 20
531.829
 30
0.000000
  70
    32
  0
VERTEX
  8
0
  5
1047E
 10
1907.30
 20
532.061
 30
0.000000
  70
    32
  0
VERTEX
  8
0
  5
1047F
 10
1907.42
 20
532.297
 30
0.000000
  70
    32
  0
VERTEX
  8
0
  5
10480
 10
1907.54
 20
532.535
 30
0.000000
  70
    32
  0
VERTEX
  8
0
  5
10481
 10
1907.66
 20
532.776
 30
0.000000
  70
    32
  0
VERTEX
  8
0
  5
10482
 10
1907.77
 20
533.020
 30
0.000000
  70
    32
  0
VERTEX
  8
0
  5
10483
 10
1907.87
 20
533.266
 30
0.000000
  70
    32
  0
VERTEX
  8
0
  5
10484
 10
1907.97
 20
533.515
 30
0.000000
  70
    32
  0
VERTEX
  8
0
  5
10485
 10
1908.06
 20
533.766
 30
0.000000
  70
    32
  0
VERTEX
  8
0
  5
10486
 10
1908.15
 20
534.019
 30
0.000000
  70
    32
  0
VERTEX
  8
0
  5
10487
 10
1908.23
 20
534.273
 30
0.000000
  70
    32
  0
VERTEX
  8
0
  5
10488
 10
1908.30
 20
534.530
 30
0.000000
  70
    32
  0
VERTEX
  8
0
  5
10489
 10
1908.36
 20
534.788
 30
0.000000
  70
    32
  0
VERTEX
  8
0
  5
1048A
 10
1908.42
 20
535.047
 30
0.000000
  70
    32
  0
VERTEX
  8
0
  5
1048B
 10
1908.48
 20
535.308
 30
0.000000
  70
    32
  0
VERTEX
  8
0
  5
1048C
 10
1908.52
 20
535.570
 30
0.000000
  70
    32
  0
VERTEX
  8
0
  5
1048D
 10
1908.56
 20
535.833
 30
0.000000
  70
    32
  0
VERTEX
  8
0
  5
1048E
 10
1908.60
 20
536.097
 30
0.000000
  70
    32
  0
VERTEX
  8
0
  5
1048F
 10
1908.63
 20
536.361
 30
0.000000
  70
    32
  0
VERTEX
  8
0
  5
10490
 10
1908.65
 20
536.627
 30
0.000000
  70
    32
  0
VERTEX
  8
0
  5
10491
 10
1908.66
 20
536.892
 30
0.000000
  70
    32
  0
SEQEND
  8
0
  5
10492
  0
POLYLINE
  5
FF8C
  8
0
 10
1882.2795067988968
 20
537.62604802115516
 30
0.0
 66
     1
 70
     8
  0
VERTEX
  8
0
  5
10493
 10
1882.28
 20
537.626
 30
0.000000
  70
    32
  0
VERTEX
  8
0
  5
10494
 10
1882.32
 20
537.298
 30
0.000000
  70
    32
  0
VERTEX
  8
0
  5
10495
 10
1882.38
 20
536.971
 30
0.000000
  70
    32
  0
VERTEX
  8
0
  5
10496
 10
1882.44
 20
536.645
 30
0.000000
  70
    32
  0
VERTEX
  8
0
  5
10497
 10
1882.50
 20
536.321
 30
0.000000
  70
    32
  0
VERTEX
  8
0
  5
10498
 10
1882.58
 20
535.998
 30
0.000000
  70
    32
  0
VERTEX
  8
0
  5
10499
 10
1882.66
 20
535.677
 30
0.000000
  70
    32
  0
VERTEX
  8
0
  5
1049A
 10
1882.75
 20
535.358
 30
0.000000
  70
    32
  0
VERTEX
  8
0
  5
1049B
 10
1882.85
 20
535.041
 30
0.000000
  70
    32
  0
VERTEX
  8
0
  5
1049C
 10
1882.96
 20
534.726
 30
0.000000
  70
    32
  0
VERTEX
  8
0
  5
1049D
 10
1883.07
 20
534.413
 30
0.000000
  70
    32
  0
VERTEX
  8
0
  5
1049E
 10
1883.19
 20
534.103
 30
0.000000
  70
    32
  0
VERTEX
  8
0
  5
1049F
 10
1883.31
 20
533.796
 30
0.000000
  70
    32
  0
VERTEX
  8
0
  5
104A0
 10
1883.45
 20
533.492
 30
0.000000
  70
    32
  0
VERTEX
  8
0
  5
104A1
 10
1883.59
 20
533.191
 30
0.000000
  70
    32
  0
VERTEX
  8
0
  5
104A2
 10
1883.74
 20
532.892
 30
0.000000
  70
    32
  0
VERTEX
  8
0
  5
104A3
 10
1883.89
 20
532.598
 30
0.000000
  70
    32
  0
VERTEX
  8
0
  5
104A4
 10
1884.05
 20
532.306
 30
0.000000
  70
    32
  0
VERTEX
  8
0
  5
104A5
 10
1884.22
 20
532.019
 30
0.000000
  70
    32
  0
VERTEX
  8
0
  5
104A6
 10
1884.39
 20
531.735
 30
0.000000
  70
    32
  0
VERTEX
  8
0
  5
104A7
 10
1884.58
 20
531.455
 30
0.000000
  70
    32
  0
VERTEX
  8
0
  5
104A8
 10
1884.76
 20
531.179
 30
0.000000
  70
    32
  0
VERTEX
  8
0
  5
104A9
 10
1884.96
 20
530.907
 30
0.000000
  70
    32
  0
VERTEX
  8
0
  5
104AA
 10
1885.16
 20
530.640
 30
0.000000
  70
    32
  0
VERTEX
  8
0
  5
104AB
 10
1885.36
 20
530.377
 30
0.000000
  70
    32
  0
VERTEX
  8
0
  5
104AC
 10
1885.58
 20
530.119
 30
0.000000
  70
    32
  0
VERTEX
  8
0
  5
104AD
 10
1885.80
 20
529.866
 30
0.000000
  70
    32
  0
VERTEX
  8
0
  5
104AE
 10
1886.02
 20
529.617
 30
0.000000
  70
    32
  0
VERTEX
  8
0
  5
104AF
 10
1886.25
 20
529.374
 30
0.000000
  70
    32
  0
VERTEX
  8
0
  5
104B0
 10
1886.49
 20
529.135
 30
0.000000
  70
    32
  0
VERTEX
  8
0
  5
104B1
 10
1886.73
 20
528.902
 30
0.000000
  70
    32
  0
VERTEX
  8
0
  5
104B2
 10
1886.97
 20
528.674
 30
0.000000
  70
    32
  0
VERTEX
  8
0
  5
104B3
 10
1887.23
 20
528.452
 30
0.000000
  70
    32
  0
VERTEX
  8
0
  5
104B4
 10
1887.48
 20
528.236
 30
0.000000
  70
    32
  0
VERTEX
  8
0
  5
104B5
 10
1887.74
 20
528.025
 30
0.000000
  70
    32
  0
VERTEX
  8
0
  5
104B6
 10
1888.01
 20
527.820
 30
0.000000
  70
    32
  0
VERTEX
  8
0
  5
104B7
 10
1888.28
 20
527.620
 30
0.000000
  70
    32
  0
VERTEX
  8
0
  5
104B8
 10
1888.56
 20
527.427
 30
0.000000
  70
    32
  0
VERTEX
  8
0
  5
104B9
 10
1888.84
 20
527.240
 30
0.000000
  70
    32
  0
VERTEX
  8
0
  5
104BA
 10
1889.12
 20
527.060
 30
0.000000
  70
    32
  0
VERTEX
  8
0
  5
104BB
 10
1889.41
 20
526.885
 30
0.000000
  70
    32
  0
VERTEX
  8
0
  5
104BC
 10
1889.70
 20
526.717
 30
0.000000
  70
    32
  0
VERTEX
  8
0
  5
104BD
 10
1890.00
 20
526.556
 30
0.000000
  70
    32
  0
VERTEX
  8
0
  5
104BE
 10
1890.30
 20
526.401
 30
0.000000
  70
    32
  0
VERTEX
  8
0
  5
104BF
 10
1890.61
 20
526.253
 30
0.000000
  70
    32
  0
VERTEX
  8
0
  5
104C0
 10
1890.91
 20
526.111
 30
0.000000
  70
    32
  0
VERTEX
  8
0
  5
104C1
 10
1891.22
 20
525.977
 30
0.000000
  70
    32
  0
VERTEX
  8
0
  5
104C2
 10
1891.54
 20
525.849
 30
0.000000
  70
    32
  0
VERTEX
  8
0
  5
104C3
 10
1891.85
 20
525.728
 30
0.000000
  70
    32
  0
VERTEX
  8
0
  5
104C4
 10
1892.17
 20
525.614
 30
0.000000
  70
    32
  0
VERTEX
  8
0
  5
104C5
 10
1892.49
 20
525.507
 30
0.000000
  70
    32
  0
VERTEX
  8
0
  5
104C6
 10
1892.82
 20
525.408
 30
0.000000
  70
    32
  0
VERTEX
  8
0
  5
104C7
 10
1893.14
 20
525.315
 30
0.000000
  70
    32
  0
VERTEX
  8
0
  5
104C8
 10
1893.47
 20
525.230
 30
0.000000
  70
    32
  0
VERTEX
  8
0
  5
104C9
 10
1893.80
 20
525.152
 30
0.000000
  70
    32
  0
VERTEX
  8
0
  5
104CA
 10
1894.13
 20
525.081
 30
0.000000
  70
    32
  0
VERTEX
  8
0
  5
104CB
 10
1894.47
 20
525.018
 30
0.000000
  70
    32
  0
VERTEX
  8
0
  5
104CC
 10
1894.80
 20
524.962
 30
0.000000
  70
    32
  0
VERTEX
  8
0
  5
104CD
 10
1895.14
 20
524.914
 30
0.000000
  70
    32
  0
VERTEX
  8
0
  5
104CE
 10
1895.47
 20
524.872
 30
0.000000
  70
    32
  0
VERTEX
  8
0
  5
104CF
 10
1895.81
 20
524.839
 30
0.000000
  70
    32
  0
VERTEX
  8
0
  5
104D0
 10
1896.15
 20
524.813
 30
0.000000
  70
    32
  0
VERTEX
  8
0
  5
104D1
 10
1896.49
 20
524.794
 30
0.000000
  70
    32
  0
VERTEX
  8
0
  5
104D2
 10
1896.83
 20
524.783
 30
0.000000
  70
    32
  0
VERTEX
  8
0
  5
104D3
 10
1897.17
 20
524.779
 30
0.000000
  70
    32
  0
VERTEX
  8
0
  5
104D4
 10
1897.51
 20
524.783
 30
0.000000
  70
    32
  0
VERTEX
  8
0
  5
104D5
 10
1897.85
 20
524.794
 30
0.000000
  70
    32
  0
VERTEX
  8
0
  5
104D6
 10
1898.19
 20
524.813
 30
0.000000
  70
    32
  0
VERTEX
  8
0
  5
104D7
 10
1898.53
 20
524.839
 30
0.000000
  70
    32
  0
VERTEX
  8
0
  5
104D8
 10
1898.86
 20
524.872
 30
0.000000
  70
    32
  0
VERTEX
  8
0
  5
104D9
 10
1899.20
 20
524.914
 30
0.000000
  70
    32
  0
VERTEX
  8
0
  5
104DA
 10
1899.54
 20
524.962
 30
0.000000
  70
    32
  0
VERTEX
  8
0
  5
104DB
 10
1899.87
 20
525.018
 30
0.000000
  70
    32
  0
VERTEX
  8
0
  5
104DC
 10
1900.21
 20
525.081
 30
0.000000
  70
    32
  0
VERTEX
  8
0
  5
104DD
 10
1900.54
 20
525.152
 30
0.000000
  70
    32
  0
VERTEX
  8
0
  5
104DE
 10
1900.87
 20
525.230
 30
0.000000
  70
    32
  0
VERTEX
  8
0
  5
104DF
 10
1901.20
 20
525.315
 30
0.000000
  70
    32
  0
VERTEX
  8
0
  5
104E0
 10
1901.52
 20
525.408
 30
0.000000
  70
    32
  0
VERTEX
  8
0
  5
104E1
 10
1901.85
 20
525.507
 30
0.000000
  70
    32
  0
VERTEX
  8
0
  5
104E2
 10
1902.17
 20
525.614
 30
0.000000
  70
    32
  0
VERTEX
  8
0
  5
104E3
 10
1902.49
 20
525.728
 30
0.000000
  70
    32
  0
VERTEX
  8
0
  5
104E4
 10
1902.80
 20
525.849
 30
0.000000
  70
    32
  0
VERTEX
  8
0
  5
104E5
 10
1903.12
 20
525.977
 30
0.000000
  70
    32
  0
VERTEX
  8
0
  5
104E6
 10
1903.43
 20
526.111
 30
0.000000
  70
    32
  0
VERTEX
  8
0
  5
104E7
 10
1903.73
 20
526.253
 30
0.000000
  70
    32
  0
VERTEX
  8
0
  5
104E8
 10
1904.04
 20
526.401
 30
0.000000
  70
    32
  0
VERTEX
  8
0
  5
104E9
 10
1904.34
 20
526.556
 30
0.000000
  70
    32
  0
VERTEX
  8
0
  5
104EA
 10
1904.63
 20
526.717
 30
0.000000
  70
    32
  0
VERTEX
  8
0
  5
104EB
 10
1904.93
 20
526.885
 30
0.000000
  70
    32
  0
VERTEX
  8
0
  5
104EC
 10
1905.21
 20
527.060
 30
0.000000
  70
    32
  0
VERTEX
  8
0
  5
104ED
 10
1905.50
 20
527.240
 30
0.000000
  70
    32
  0
VERTEX
  8
0
  5
104EE
 10
1905.78
 20
527.427
 30
0.000000
  70
    32
  0
VERTEX
  8
0
  5
104EF
 10
1906.06
 20
527.620
 30
0.000000
  70
    32
  0
VERTEX
  8
0
  5
104F0
 10
1906.33
 20
527.820
 30
0.000000
  70
    32
  0
VERTEX
  8
0
  5
104F1
 10
1906.59
 20
528.025
 30
0.000000
  70
    32
  0
VERTEX
  8
0
  5
104F2
 10
1906.86
 20
528.236
 30
0.000000
  70
    32
  0
VERTEX
  8
0
  5
104F3
 10
1907.11
 20
528.452
 30
0.000000
  70
    32
  0
VERTEX
  8
0
  5
104F4
 10
1907.36
 20
528.674
 30
0.000000
  70
    32
  0
VERTEX
  8
0
  5
104F5
 10
1907.61
 20
528.902
 30
0.000000
  70
    32
  0
VERTEX
  8
0
  5
104F6
 10
1907.85
 20
529.135
 30
0.000000
  70
    32
  0
VERTEX
  8
0
  5
104F7
 10
1908.09
 20
529.374
 30
0.000000
  70
    32
  0
VERTEX
  8
0
  5
104F8
 10
1908.32
 20
529.617
 30
0.000000
  70
    32
  0
VERTEX
  8
0
  5
104F9
 10
1908.54
 20
529.866
 30
0.000000
  70
    32
  0
VERTEX
  8
0
  5
104FA
 10
1908.76
 20
530.119
 30
0.000000
  70
    32
  0
VERTEX
  8
0
  5
104FB
 10
1908.97
 20
530.377
 30
0.000000
  70
    32
  0
VERTEX
  8
0
  5
104FC
 10
1909.18
 20
530.640
 30
0.000000
  70
    32
  0
VERTEX
  8
0
  5
104FD
 10
1909.38
 20
530.907
 30
0.000000
  70
    32
  0
VERTEX
  8
0
  5
104FE
 10
1909.57
 20
531.179
 30
0.000000
  70
    32
  0
VERTEX
  8
0
  5
104FF
 10
1909.76
 20
531.455
 30
0.000000
  70
    32
  0
VERTEX
  8
0
  5
10500
 10
1909.94
 20
531.735
 30
0.000000
  70
    32
  0
VERTEX
  8
0
  5
10501
 10
1910.12
 20
532.019
 30
0.000000
  70
    32
  0
VERTEX
  8
0
  5
10502
 10
1910.29
 20
532.306
 30
0.000000
  70
    32
  0
VERTEX
  8
0
  5
10503
 10
1910.45
 20
532.598
 30
0.000000
  70
    32
  0
VERTEX
  8
0
  5
10504
 10
1910.60
 20
532.892
 30
0.000000
  70
    32
  0
VERTEX
  8
0
  5
10505
 10
1910.75
 20
533.191
 30
0.000000
  70
    32
  0
VERTEX
  8
0
  5
10506
 10
1910.89
 20
533.492
 30
0.000000
  70
    32
  0
VERTEX
  8
0
  5
10507
 10
1911.02
 20
533.796
 30
0.000000
  70
    32
  0
VERTEX
  8
0
  5
10508
 10
1911.15
 20
534.103
 30
0.000000
  70
    32
  0
VERTEX
  8
0
  5
10509
 10
1911.27
 20
534.413
 30
0.000000
  70
    32
  0
VERTEX
  8
0
  5
1050A
 10
1911.38
 20
534.726
 30
0.000000
  70
    32
  0
VERTEX
  8
0
  5
1050B
 10
1911.49
 20
535.041
 30
0.000000
  70
    32
  0
VERTEX
  8
0
  5
1050C
 10
1911.58
 20
535.358
 30
0.000000
  70
    32
  0
VERTEX
  8
0
  5
1050D
 10
1911.68
 20
535.677
 30
0.000000
  70
    32
  0
VERTEX
  8
0
  5
1050E
 10
1911.76
 20
535.998
 30
0.000000
  70
    32
  0
VERTEX
  8
0
  5
1050F
 10
1911.83
 20
536.321
 30
0.000000
  70
    32
  0
VERTEX
  8
0
  5
10510
 10
1911.90
 20
536.645
 30
0.000000
  70
    32
  0
VERTEX
  8
0
  5
10511
 10
1911.96
 20
536.971
 30
0.000000
  70
    32
  0
VERTEX
  8
0
  5
10512
 10
1912.01
 20
537.298
 30
0.000000
  70
    32
  0
VERTEX
  8
0
  5
10513
 10
1912.06
 20
537.626
 30
0.000000
  70
    32
  0
SEQEND
  8
0
  5
10514
  0
ARC
  5
FF8D
  8
0
 10
1408.1823928452709
 20
555.32656111405947
 30
0.0
 40
32.0
 50
202.0523888814794
 51
337.94761111852063
  0
ARC
  5
FF8E
  8
0
 10
1408.1823928452709
 20
535.33582549480184
 30
0.0
 40
11.00926438074225
 50
172.42700902718261
 51
7.5729909728174061
  0
CIRCLE
  5
FF8F
  8
0
 10
1440.002197998665
 20
630.14636626745425
 30
0.0
 40
9.5
  0
CIRCLE
  5
FF90
  8
0
 10
1440.002197998665
 20
566.50675596066503
 30
0.0
 40
9.5
  0
CIRCLE
  5
FF91
  8
0
 10
1408.1823928452709
 20
598.32656111405959
 30
0.0
 40
62.5
  0
CIRCLE
  5
FF92
  8
0
 10
1376.3625876918759
 20
630.14636626745425
 30
0.0
 40
9.5
  0
CIRCLE
  5
FF93
  8
0
 10
1376.3625876918759
 20
566.50675596066503
 30
0.0
 40
9.5
  0
CIRCLE
  5
FF94
  8
0
 10
1928.988828742911
 20
630.14636626745425
 30
0.0
 40
9.5
  0
CIRCLE
  5
FF95
  8
0
 10
1928.988828742911
 20
566.50675596066503
 30
0.0
 40
9.5
  0
CIRCLE
  5
FF96
  8
0
 10
1897.169023589516
 20
598.32656111405959
 30
0.0
 40
62.5
  0
CIRCLE
  5
FF97
  8
0
 10
1865.349218436121
 20
630.14636626745425
 30
0.0
 40
9.5
  0
CIRCLE
  5
FF98
  8
0
 10
1865.349218436121
 20
566.50675596066503
 30
0.0
 40
9.5
  0
LINE
  5
FF99
  8
0
 10
344.84430267017768
 20
780.89894233720383
 30
0.0
 11
294.84430267017768
 21
780.89894233720383
 31
0.0
  0
LINE
  5
FF9A
  8
0
 10
319.9643026701778
 20
785.89894233720383
 30
0.0
 11
334.84430267017791
 21
785.89894233720383
 31
0.0
  0
LINE
  5
FF9B
  8
0
 10
284.84430267017768
 20
790.89894233720383
 30
0.0
 11
294.84430267017768
 21
780.89894233720383
 31
0.0
  0
LINE
  5
FF9C
  8
0
 10
334.84430267017791
 20
785.89894233720383
 30
0.0
 11
334.84430267017768
 21
790.89894233720395
 31
0.0
  0
LINE
  5
FF9D
  8
0
 10
334.84430267017768
 20
790.89894233720383
 30
0.0
 11
344.84430267017768
 21
780.89894233720383
 31
0.0
  0
LINE
  5
FF9E
  8
0
 10
319.9643026701778
 20
785.89894233720383
 30
0.0
 11
314.8443026701778
 21
790.89894233720383
 31
0.0
  0
LINE
  5
FF9F
  8
0
 10
314.8443026701778
 20
790.89894233720383
 30
0.0
 11
284.84430267017768
 21
790.89894233720383
 31
0.0
  0
LINE
  5
FFA0
  8
0
 10
550.23343865849267
 20
993.99151606664623
 30
0.0
 11
600.23343865849267
 21
993.99151606664623
 31
0.0
  0
LINE
  5
FFA1
  8
0
 10
575.11343865849278
 20
998.99151606664634
 30
0.0
 11
560.23343865849256
 21
998.99151606664634
 31
0.0
  0
LINE
  5
FFA2
  8
0
 10
610.23343865849279
 20
1003.991516066646
 30
0.0
 11
600.23343865849267
 21
993.99151606664623
 31
0.0
  0
LINE
  5
FFA3
  8
0
 10
560.23343865849256
 20
998.99151606664634
 30
0.0
 11
560.23343865849267
 21
1003.991516066646
 31
0.0
  0
LINE
  5
FFA4
  8
0
 10
560.23343865849267
 20
1003.991516066646
 30
0.0
 11
550.23343865849267
 21
993.99151606664623
 31
0.0
  0
LINE
  5
FFA5
  8
0
 10
575.11343865849278
 20
998.99151606664634
 30
0.0
 11
580.23343865849267
 21
1003.991516066646
 31
0.0
  0
LINE
  5
FFA6
  8
0
 10
580.23343865849267
 20
1003.991516066646
 30
0.0
 11
610.23343865849279
 21
1003.991516066646
 31
0.0
  0
LINE
  5
FFAE
  8
0
 10
889.03042186582275
 20
780.89894233720383
 30
0.0
 11
839.03042186582275
 21
780.89894233720383
 31
0.0
  0
LINE
  5
FFAF
  8
0
 10
864.15042186582264
 20
785.89894233720383
 30
0.0
 11
879.03042186582275
 21
785.89894233720383
 31
0.0
  0
LINE
  5
FFB0
  8
0
 10
829.03042186582275
 20
790.89894233720383
 30
0.0
 11
839.03042186582275
 21
780.89894233720383
 31
0.0
  0
LINE
  5
FFB1
  8
0
 10
879.03042186582275
 20
785.89894233720383
 30
0.0
 11
879.03042186582275
 21
790.89894233720395
 31
0.0
  0
LINE
  5
FFB2
  8
0
 10
879.03042186582275
 20
790.89894233720383
 30
0.0
 11
889.03042186582275
 21
780.89894233720383
 31
0.0
  0
LINE
  5
FFB3
  8
0
 10
864.15042186582264
 20
785.89894233720383
 30
0.0
 11
859.03042186582275
 21
790.89894233720383
 31
0.0
  0
LINE
  5
FFB4
  8
0
 10
859.03042186582275
 20
790.89894233720383
 30
0.0
 11
829.03042186582275
 21
790.89894233720383
 31
0.0
  0
LINE
  5
FFB5
  8
0
 10
1125.7976457183099
 20
993.99151606664623
 30
0.0
 11
1175.7976457183099
 21
993.99151606664623
 31
0.0
  0
LINE
  5
FFB6
  8
0
 10
1150.6776457183089
 20
998.99151606664634
 30
0.0
 11
1135.797645718309
 21
998.99151606664634
 31
0.0
  0
LINE
  5
FFB7
  8
0
 10
1185.797645718309
 20
1003.991516066646
 30
0.0
 11
1175.7976457183099
 21
993.99151606664623
 31
0.0
  0
LINE
  5
FFB8
  8
0
 10
1135.797645718309
 20
998.99151606664634
 30
0.0
 11
1135.7976457183099
 21
1003.991516066646
 31
0.0
  0
LINE
  5
FFB9
  8
0
 10
1135.7976457183099
 20
1003.991516066646
 30
0.0
 11
1125.7976457183099
 21
993.99151606664623
 31
0.0
  0
LINE
  5
FFBA
  8
0
 10
1150.6776457183089
 20
998.99151606664634
 30
0.0
 11
1155.797645718309
 21
1003.991516066646
 31
0.0
  0
LINE
  5
FFBB
  8
0
 10
1155.797645718309
 20
1003.991516066646
 30
0.0
 11
1185.797645718309
 21
1003.991516066646
 31
0.0
  0
LINE
  5
FFBC
  8
0
 10
893.29854748068715
 20
586.7709625787295
 30
0.0
 11
843.29854748068715
 21
586.7709625787295
 31
0.0
  0
LINE
  5
FFBD
  8
0
 10
868.41854748068715
 20
591.7709625787295
 30
0.0
 11
883.29854748068726
 21
591.7709625787295
 31
0.0
  0
LINE
  5
FFBE
  8
0
 10
833.29854748068715
 20
596.7709625787295
 30
0.0
 11
843.29854748068715
 21
586.7709625787295
 31
0.0
  0
LINE
  5
FFBF
  8
0
 10
883.29854748068726
 20
591.7709625787295
 30
0.0
 11
883.29854748068715
 21
596.77096257872972
 31
0.0
  0
LINE
  5
FFC0
  8
0
 10
883.29854748068715
 20
596.7709625787295
 30
0.0
 11
893.29854748068715
 21
586.7709625787295
 31
0.0
  0
LINE
  5
FFC1
  8
0
 10
868.41854748068715
 20
591.7709625787295
 30
0.0
 11
863.29854748068703
 21
596.7709625787295
 31
0.0
  0
LINE
  5
FFC2
  8
0
 10
863.29854748068703
 20
596.7709625787295
 30
0.0
 11
833.29854748068715
 21
596.7709625787295
 31
0.0
  0
LINE
  5
FFC3
  8
0
 10
1788.325113608978
 20
1080.376206644637
 30
0.0
 11
1838.325113608978
 21
1080.376206644637
 31
0.0
  0
LINE
  5
FFC4
  8
0
 10
1813.2051136089781
 20
1085.376206644637
 30
0.0
 11
1798.3251136089771
 21
1085.376206644637
 31
0.0
  0
LINE
  5
FFC5
  8
0
 10
1848.325113608978
 20
1090.376206644637
 30
0.0
 11
1838.325113608978
 21
1080.376206644637
 31
0.0
  0
LINE
  5
FFC6
  8
0
 10
1798.3251136089771
 20
1085.376206644637
 30
0.0
 11
1798.3251136089771
 21
1090.376206644637
 31
0.0
  0
LINE
  5
FFC7
  8
0
 10
1798.3251136089771
 20
1090.376206644637
 30
0.0
 11
1788.325113608978
 21
1080.376206644637
 31
0.0
  0
LINE
  5
FFC8
  8
0
 10
1813.2051136089781
 20
1085.376206644637
 30
0.0
 11
1818.3251136089771
 21
1090.376206644637
 31
0.0
  0
LINE
  5
FFC9
  8
0
 10
1818.3251136089771
 20
1090.376206644637
 30
0.0
 11
1848.325113608978
 21
1090.376206644637
 31
0.0
  0
LINE
  5
FFCA
  8
0
 10
1544.179874737609
 20
827.22116646389384
 30
0.0
 11
1494.179874737609
 21
827.22116646389384
 31
0.0
  0
LINE
  5
FFCB
  8
0
 10
1519.2998747376089
 20
832.22116646389372
 30
0.0
 11
1534.1798747376099
 21
832.22116646389372
 31
0.0
  0
LINE
  5
FFCC
  8
0
 10
1484.179874737609
 20
837.22116646389372
 30
0.0
 11
1494.179874737609
 21
827.22116646389384
 31
0.0
  0
LINE
  5
FFCD
  8
0
 10
1534.1798747376099
 20
832.22116646389372
 30
0.0
 11
1534.179874737609
 21
837.22116646389395
 31
0.0
  0
LINE
  5
FFCE
  8
0
 10
1534.179874737609
 20
837.22116646389372
 30
0.0
 11
1544.179874737609
 21
827.22116646389384
 31
0.0
  0
LINE
  5
FFCF
  8
0
 10
1519.2998747376089
 20
832.22116646389372
 30
0.0
 11
1514.179874737609
 21
837.22116646389372
 31
0.0
  0
LINE
  5
FFD0
  8
0
 10
1514.179874737609
 20
837.22116646389372
 30
0.0
 11
1484.179874737609
 21
837.22116646389372
 31
0.0
  0
LINE
  5
FFD1
  8
0
 10
1544.179874737609
 20
588.09833128803552
 30
0.0
 11
1494.179874737609
 21
588.09833128803552
 31
0.0
  0
LINE
  5
FFD2
  8
0
 10
1519.2998747376089
 20
593.09833128803552
 30
0.0
 11
1534.1798747376099
 21
593.09833128803552
 31
0.0
  0
LINE
  5
FFD3
  8
0
 10
1484.179874737609
 20
598.09833128803552
 30
0.0
 11
1494.179874737609
 21
588.09833128803552
 31
0.0
  0
LINE
  5
FFD4
  8
0
 10
1534.1798747376099
 20
593.09833128803552
 30
0.0
 11
1534.179874737609
 21
598.09833128803575
 31
0.0
  0
LINE
  5
FFD5
  8
0
 10
1534.179874737609
 20
598.09833128803552
 30
0.0
 11
1544.179874737609
 21
588.09833128803552
 31
0.0
  0
LINE
  5
FFD6
  8
0
 10
1519.2998747376089
 20
593.09833128803552
 30
0.0
 11
1514.179874737609
 21
598.09833128803552
 31
0.0
  0
LINE
  5
FFD7
  8
0
 10
1514.179874737609
 20
598.09833128803552
 30
0.0
 11
1484.179874737609
 21
598.09833128803552
 31
0.0
  0
VIEWPORT
  5
41
 67
     1
  8
0
 10
117.358407079646
 20
73.5
 30
0.0
 40
234.716814159292
 41
147.0
 68
     1
 69
     1
1001
ACAD
1000
MVIEW
1002
{
1070
    16
1010
0.0
1020
0.0
1030
0.0
1010
0.0
1020
0.0
1030
1.0
1040
0.0
1040
147.0
1040
117.358407079646
1040
73.5
1040
50.0
1040
0.0
1040
0.0
1070
     0
1070
   100
1070
     1
1070
     1
1070
     0
1070
     0
1070
     0
1070
     0
1040
0.0
1040
0.0
1040
0.0
1040
1.0
1040
1.0
1040
0.0
1040
0.0
1070
     0
1002
{
1002
}
1002
}
  0
ENDSEC
  0
EOF
