  0
SECTION
  2
HEADER
  9
$ACADVER
  1
AC1012
  9
$DWGCODEPAGE
  3
dos932
  9
$INSBASE
 10
0.0
 20
0.0
 30
0.0
  9
$EXTMIN
 10
110.0
 20
50.0
 30
0.0
  9
$EXTMAX
 10
2860.0
 20
1910.0
 30
0.0
  9
$LIMMIN
 10
0.0
 20
0.0
  9
$LIMMAX
 10
2970.0
 20
2100.0
  9
$ORTHOMODE
 70
     1
  9
$REGENMODE
 70
     1
  9
$FILLMODE
 70
     1
  9
$QTEXTMODE
 70
     0
  9
$MIRRTEXT
 70
     1
  9
$DRAGMODE
 70
     2
  9
$LTSCALE
 40
40.0
  9
$OSMODE
 70
   163
  9
$ATTMODE
 70
     1
  9
$TEXTSIZE
 40
40.0
  9
$TRACEWID
 40
0.05
  9
$TEXTSTYLE
  7
STANDARD
  9
$CLAYER
  8
0
  9
$CELTYPE
  6
BYLAYER
  9
$CECOLOR
 62
   256
  9
$CELTSCALE
 40
1.0
  9
$DELOBJ
 70
     1
  9
$DISPSILH
 70
     0
  9
$DIMSCALE
 40
10.0
  9
$DIMASZ
 40
2.8
  9
$DIMEXO
 40
1.0
  9
$DIMDLI
 40
5.0
  9
$DIMRND
 40
0.1
  9
$DIMDLE
 40
0.0
  9
$DIMEXE
 40
1.0
  9
$DIMTP
 40
0.0
  9
$DIMTM
 40
0.0
  9
$DIMTXT
 40
2.5
  9
$DIMCEN
 40
0.0
  9
$DIMTSZ
 40
0.0
  9
$DIMTOL
 70
     0
  9
$DIMLIM
 70
     0
  9
$DIMTIH
 70
     0
  9
$DIMTOH
 70
     0
  9
$DIMSE1
 70
     0
  9
$DIMSE2
 70
     0
  9
$DIMTAD
 70
     3
  9
$DIMZIN
 70
     8
  9
$DIMBLK
  1

  9
$DIMASO
 70
     1
  9
$DIMSHO
 70
     1
  9
$DIMPOST
  1
 
  9
$DIMAPOST
  1

  9
$DIMALT
 70
     0
  9
$DIMALTD
 70
     2
  9
$DIMALTF
 40
1.0
  9
$DIMLFAC
 40
1.0
  9
$DIMTOFL
 70
     1
  9
$DIMTVP
 40
0.0
  9
$DIMTIX
 70
     0
  9
$DIMSOXD
 70
     0
  9
$DIMSAH
 70
     1
  9
$DIMBLK1
  1
_OPEN
  9
$DIMBLK2
  1
_OPEN
  9
$DIMSTYLE
  2
DIM1
  9
$DIMCLRD
 70
     2
  9
$DIMCLRE
 70
     2
  9
$DIMCLRT
 70
     2
  9
$DIMTFAC
 40
0.7
  9
$DIMGAP
 40
0.85
  9
$DIMJUST
 70
     0
  9
$DIMSD1
 70
     0
  9
$DIMSD2
 70
     0
  9
$DIMTOLJ
 70
     1
  9
$DIMTZIN
 70
     8
  9
$DIMALTZ
 70
     8
  9
$DIMALTTZ
 70
     8
  9
$DIMFIT
 70
     0
  9
$DIMUPT
 70
     0
  9
$DIMUNIT
 70
     2
  9
$DIMDEC
 70
     2
  9
$DIMTDEC
 70
     3
  9
$DIMALTU
 70
     2
  9
$DIMALTTD
 70
     3
  9
$DIMTXSTY
  7
DIM
  9
$DIMAUNIT
 70
     0
  9
$LUNITS
 70
     2
  9
$LUPREC
 70
     4
  9
$SKETCHINC
 40
0.1
  9
$FILLETRAD
 40
0.0
  9
$AUNITS
 70
     0
  9
$AUPREC
 70
     0
  9
$MENU
  1
C:\ACADR13\WIN\SUPPORT\ACAD.mnc
  9
$ELEVATION
 40
0.0
  9
$PELEVATION
 40
0.0
  9
$THICKNESS
 40
0.0
  9
$LIMCHECK
 70
     0
  9
$BLIPMODE
 70
     1
  9
$CHAMFERA
 40
0.0
  9
$CHAMFERB
 40
0.0
  9
$CHAMFERC
 40
0.0
  9
$CHAMFERD
 40
0.0
  9
$SKPOLY
 70
     0
  9
$TDCREATE
 40
2451592.409667916
  9
$TDUPDATE
 40
2451981.561210023
  9
$TDINDWG
 40
0.0516686574
  9
$TDUSRTIMER
 40
0.0516686574
  9
$USRTIMER
 70
     1
  9
$ANGBASE
 50
0.0
  9
$ANGDIR
 70
     0
  9
$PDMODE
 70
     0
  9
$PDSIZE
 40
0.0
  9
$PLINEWID
 40
0.0
  9
$COORDS
 70
     1
  9
$SPLFRAME
 70
     0
  9
$SPLINETYPE
 70
     6
  9
$SPLINESEGS
 70
     8
  9
$ATTDIA
 70
     0
  9
$ATTREQ
 70
     1
  9
$HANDLING
 70
     1
  9
$HANDSEED
  5
9BAB
  9
$SURFTAB1
 70
     6
  9
$SURFTAB2
 70
     6
  9
$SURFTYPE
 70
     6
  9
$SURFU
 70
     6
  9
$SURFV
 70
     6
  9
$UCSNAME
  2

  9
$UCSORG
 10
0.0
 20
0.0
 30
0.0
  9
$UCSXDIR
 10
1.0
 20
0.0
 30
0.0
  9
$UCSYDIR
 10
0.0
 20
1.0
 30
0.0
  9
$PUCSNAME
  2

  9
$PUCSORG
 10
0.0
 20
0.0
 30
0.0
  9
$PUCSXDIR
 10
1.0
 20
0.0
 30
0.0
  9
$PUCSYDIR
 10
0.0
 20
1.0
 30
0.0
  9
$USERI1
 70
     0
  9
$USERI2
 70
     0
  9
$USERI3
 70
     0
  9
$USERI4
 70
     0
  9
$USERI5
 70
     0
  9
$USERR1
 40
0.0
  9
$USERR2
 40
0.0
  9
$USERR3
 40
0.0
  9
$USERR4
 40
0.0
  9
$USERR5
 40
0.0
  9
$WORLDVIEW
 70
     1
  9
$SHADEDGE
 70
     3
  9
$SHADEDIF
 70
    70
  9
$TILEMODE
 70
     1
  9
$MAXACTVP
 70
    16
  9
$PINSBASE
 10
0.0
 20
0.0
 30
0.0
  9
$PLIMCHECK
 70
     0
  9
$PEXTMIN
 10
1.000000E+20
 20
1.000000E+20
 30
1.000000E+20
  9
$PEXTMAX
 10
-1.000000E+20
 20
-1.000000E+20
 30
-1.000000E+20
  9
$PLIMMIN
 10
0.0
 20
0.0
  9
$PLIMMAX
 10
20.0
 20
147.0
  9
$UNITMODE
 70
     0
  9
$VISRETAIN
 70
     0
  9
$PLINEGEN
 70
     0
  9
$PSLTSCALE
 70
     1
  9
$TREEDEPTH
 70
  3020
  9
$PICKSTYLE
 70
     1
  9
$CMLSTYLE
  2
STANDARD
  9
$CMLJUST
 70
     0
  9
$CMLSCALE
 40
1.0
  9
$SAVEIMAGES
 70
     1
  0
ENDSEC
  0
SECTION
  2
CLASSES
  0
CLASS
  1
LWPOLYLINE
  2
AcDbPolyline
  3
"AutoCAD"
 90
    32768
280
     0
281
     1
  0
ENDSEC
  0
SECTION
  2
TABLES
  0
TABLE
  2
VPORT
  5
8
100
AcDbSymbolTable
 70
     2
  0
VPORT
  5
9BAA
100
AcDbSymbolTableRecord
100
AcDbViewportTableRecord
  2
*ACTIVE
 70
     0
 10
0.0
 20
0.0
 11
1.0
 21
1.0
 12
1977.992958
 22
1122.54369
 13
0.0
 23
0.0
 14
1.0
 24
1.0
 15
0.0
 25
0.0
 16
0.0
 26
0.0
 36
1.0
 17
0.0
 27
0.0
 37
0.0
 40
2245.08738
 41
1.762063
 42
50.0
 43
0.0
 44
0.0
 50
0.0
 51
0.0
 71
     0
 72
   100
 73
     1
 74
     1
 75
     0
 76
     0
 77
     0
 78
     0
  0
ENDTAB
  0
TABLE
  2
LTYPE
  5
5
100
AcDbSymbolTable
 70
     1
  0
LTYPE
  5
12
100
AcDbSymbolTableRecord
100
AcDbLinetypeTableRecord
  2
BYBLOCK
 70
     0
  3

 72
    65
 73
     0
 40
0.0
  0
LTYPE
  5
13
100
AcDbSymbolTableRecord
100
AcDbLinetypeTableRecord
  2
BYLAYER
 70
     0
  3

 72
    65
 73
     0
 40
0.0
  0
LTYPE
  5
14
100
AcDbSymbolTableRecord
100
AcDbLinetypeTableRecord
  2
CONTINUOUS
 70
     0
  3
Solid line
 72
    65
 73
     0
 40
0.0
  0
ENDTAB
  0
TABLE
  2
LAYER
  5
2
100
AcDbSymbolTable
 70
     1
  0
LAYER
  5
F
100
AcDbSymbolTableRecord
100
AcDbLayerTableRecord
  2
0
 70
     0
 62
     7
  6
CONTINUOUS
  0
ENDTAB
  0
TABLE
  2
STYLE
  5
3
100
AcDbSymbolTable
 70
     3
  0
STYLE
  5
10
100
AcDbSymbolTableRecord
100
AcDbTextStyleTableRecord
  2
STANDARD
 70
     0
 40
0.0
 41
0.8
 50
0.0
 71
     0
 42
40.0
  3
simplex
  4
extfont
  0
STYLE
  5
237C
100
AcDbSymbolTableRecord
100
AcDbTextStyleTableRecord
  2
PTSH
 70
     0
 40
0.0
 41
0.9
 50
0.0
 71
     0
 42
4.0
  3
SIMPLEX
  4
EXTFONT
  0
STYLE
  5
2592
100
AcDbSymbolTableRecord
100
AcDbTextStyleTableRecord
  2
DIM
 70
     0
 40
0.0
 41
0.8
 50
0.0
 71
     0
 42
4.0
  3
simplex
  4
extfont
  0
ENDTAB
  0
TABLE
  2
VIEW
  5
6
100
AcDbSymbolTable
 70
     0
  0
ENDTAB
  0
TABLE
  2
UCS
  5
7
100
AcDbSymbolTable
 70
     0
  0
ENDTAB
  0
TABLE
  2
APPID
  5
9
100
AcDbSymbolTable
 70
     1
  0
APPID
  5
11
100
AcDbSymbolTableRecord
100
AcDbRegAppTableRecord
  2
ACAD
 70
     0
  0
ENDTAB
  0
TABLE
  2
DIMSTYLE
  5
A
100
AcDbSymbolTable
 70
     1
  0
DIMSTYLE
105
2237
100
AcDbSymbolTableRecord
100
AcDbDimStyleTableRecord
  2
DIM1
 70
     0
  3
 
  4

  5

  6
_OPEN
  7
_OPEN
 40
10.0
 41
2.8
 42
1.0
 43
5.0
 44
1.0
 45
0.1
 46
0.0
 47
0.0
 48
0.0
140
2.5
141
0.0
142
0.0
143
1.0
144
1.0
145
0.0
146
0.7
147
0.85
 71
     0
 72
     0
 73
     0
 74
     0
 75
     0
 76
     0
 77
     3
 78
     8
170
     0
171
     2
172
     1
173
     1
174
     0
175
     0
176
     2
177
     2
178
     2
270
     2
271
     2
272
     3
273
     2
274
     3
340
2592
275
     0
280
     0
281
     0
282
     0
283
     1
284
     8
285
     8
286
     8
287
     0
288
     0
  0
ENDTAB
  0
TABLE
  2
BLOCK_RECORD
  5
1
100
AcDbSymbolTable
 70
     2
  0
BLOCK_RECORD
  5
18
100
AcDbSymbolTableRecord
100
AcDbBlockTableRecord
  2
*MODEL_SPACE
  0
BLOCK_RECORD
  5
15
100
AcDbSymbolTableRecord
100
AcDbBlockTableRecord
  2
*PAPER_SPACE
  0
BLOCK_RECORD
  5
2448
100
AcDbSymbolTableRecord
100
AcDbBlockTableRecord
  2
_OPEN
  0
BLOCK_RECORD
  5
822F
100
AcDbSymbolTableRecord
100
AcDbBlockTableRecord
  2
YA
  0
ENDTAB
  0
ENDSEC
  0
SECTION
  2
BLOCKS
  0
BLOCK
  5
3C
100
AcDbEntity
  8
0
100
AcDbBlockBegin
  2
*MODEL_SPACE
 70
     0
 10
0.0
 20
0.0
 30
0.0
  3
*MODEL_SPACE
  1

  0
ENDBLK
  5
3D
100
AcDbEntity
  8
0
100
AcDbBlockEnd
  0
BLOCK
  5
3A
100
AcDbEntity
 67
     1
  8
0
100
AcDbBlockBegin
  2
*PAPER_SPACE
 70
     0
 10
0.0
 20
0.0
 30
0.0
  3
*PAPER_SPACE
  1

  0
ENDBLK
  5
3B
100
AcDbEntity
 67
     1
  8
0
100
AcDbBlockEnd
  0
BLOCK
  5
2449
100
AcDbEntity
  8
0
 48
4.0
100
AcDbBlockBegin
  2
_OPEN
 70
     0
 10
0.0
 20
0.0
 30
0.0
  3
_OPEN
  1
H1111.DWG
  0
LINE
  5
244A
100
AcDbEntity
  8
0
  6
BYBLOCK
 62
     0
 48
4.0
100
AcDbLine
 10
-1.0
 20
0.166667
 30
0.0
 11
0.0
 21
0.0
 31
0.0
  0
LINE
  5
244B
100
AcDbEntity
  8
0
  6
BYBLOCK
 62
     0
 48
4.0
100
AcDbLine
 10
0.0
 20
0.0
 30
0.0
 11
-1.0
 21
-0.166667
 31
0.0
  0
LINE
  5
244C
100
AcDbEntity
  8
0
  6
BYBLOCK
 62
     0
 48
4.0
100
AcDbLine
 10
0.0
 20
0.0
 30
0.0
 11
-1.0
 21
0.0
 31
0.0
  0
ENDBLK
  5
244D
100
AcDbEntity
  8
0
 48
4.0
100
AcDbBlockEnd
  0
BLOCK
  5
8237
100
AcDbEntity
  8
0
100
AcDbBlockBegin
  2
YA
 70
     0
 10
0.0
 20
0.0
 30
0.0
  3
YA
  1

  0
LINE
  5
8230
100
AcDbEntity
  8
0
100
AcDbLine
 10
-16.8065
 20
2.801
 30
0.0
 11
-8.4035
 21
2.801
 31
0.0
  0
LINE
  5
8231
100
AcDbEntity
  8
0
100
AcDbLine
 10
-8.4035
 20
2.801
 30
0.0
 11
-7.0025
 21
1.4005
 31
0.0
  0
LINE
  5
8232
100
AcDbEntity
  8
0
100
AcDbLine
 10
-7.0025
 20
1.4005
 30
0.0
 11
-2.862
 21
1.4005
 31
0.0
  0
LINE
  5
8233
100
AcDbEntity
  8
0
100
AcDbLine
 10
-2.862
 20
1.4005
 30
0.0
 11
-2.862
 21
2.801
 31
0.0
  0
LINE
  5
8234
100
AcDbEntity
  8
0
100
AcDbLine
 10
-2.862
 20
2.801
 30
0.0
 11
0.0
 21
0.0
 31
0.0
  0
LINE
  5
8235
100
AcDbEntity
  8
0
100
AcDbLine
 10
0.0
 20
0.0
 30
0.0
 11
-14.0055
 21
0.0
 31
0.0
  0
LINE
  5
8236
100
AcDbEntity
  8
0
100
AcDbLine
 10
-14.0055
 20
0.0
 30
0.0
 11
-16.8065
 21
2.801
 31
0.0
  0
ENDBLK
  5
8238
100
AcDbEntity
  8
0
100
AcDbBlockEnd
  0
ENDSEC
  0
SECTION
  2
ENTITIES
  0
MTEXT
  5
ADA
100
AcDbEntity
  8
0
100
AcDbMText
 10
3801.392798
 20
498.463111
 30
0.0
 40
2.0
 41
472.264648
 71
     1
 72
     1
  1

  0
MTEXT
  5
ADB
100
AcDbEntity
  8
0
100
AcDbMText
 10
3890.499332
 20
578.507937
 30
0.0
 40
2.0
 41
454.443342
 71
     1
 72
     1
  1

  0
MTEXT
  5
ADC
100
AcDbEntity
  8
0
100
AcDbMText
 10
3837.035411
 20
-479.862464
 30
0.0
 40
2.0
 41
516.817915
 71
     1
 72
     1
  1

  0
TEXT
  5
2529
100
AcDbEntity
  8
0
  6
CONTINUOUS
100
AcDbText
 10
2692.44898
 20
70.714286
 30
0.0
 40
28.571429
  1
J5B-F
 41
0.9
  7
PTSH
 72
     2
 11
2810.0
 21
85.0
 31
0.0
100
AcDbText
 73
     2
  0
POLYLINE
  5
2563
100
AcDbEntity
  8
0
100
AcDb2dPolyline
 66
     1
 10
0.0
 20
0.0
 30
0.0
 70
     1
  0
VERTEX
  5
9B12
100
AcDbEntity
  8
0
100
AcDbVertex
100
AcDb2dVertex
 10
110.0
 20
50.0
 30
0.0
  0
VERTEX
  5
9B13
100
AcDbEntity
  8
0
100
AcDbVertex
100
AcDb2dVertex
 10
2860.0
 20
50.0
 30
0.0
  0
VERTEX
  5
9B14
100
AcDbEntity
  8
0
100
AcDbVertex
100
AcDb2dVertex
 10
2860.0
 20
1910.0
 30
0.0
  0
VERTEX
  5
9B15
100
AcDbEntity
  8
0
100
AcDbVertex
100
AcDb2dVertex
 10
110.0
 20
1910.0
 30
0.0
  0
SEQEND
  5
9B16
100
AcDbEntity
  8
0
  0
TEXT
  5
3FCE
100
AcDbEntity
  8
0
100
AcDbText
 10
1243.5
 20
135.0
 30
0.0
 40
35.0
  1
TLV  JF5B (JIS10K)
 72
     4
 11
1485.0
 21
150.0
 31
0.0
100
AcDbText
  0
TEXT
  5
74B9
100
AcDbEntity
  8
0
100
AcDbText
 10
210.417456
 20
1297.777159
 30
0.0
 40
35.0
  1
正面
100
AcDbText
  0
TEXT
  5
7781
100
AcDbEntity
  8
0
100
AcDbText
 10
210.417456
 20
1508.094594
 30
0.0
 40
35.0
  1
平面
100
AcDbText
  0
TEXT
  5
77D7
100
AcDbEntity
  8
0
100
AcDbText
 10
210.417456
 20
1729.875385
 30
0.0
 40
35.0
  1
背面
100
AcDbText
  0
TEXT
  5
7E1B
100
AcDbEntity
  8
0
100
AcDbText
 10
311.099122
 20
450.445261
 30
0.0
 40
35.0
  1
正面
100
AcDbText
  0
TEXT
  5
7E1C
100
AcDbEntity
  8
0
100
AcDbText
 10
311.099122
 20
660.762695
 30
0.0
 40
35.0
  1
平面
100
AcDbText
  0
TEXT
  5
7E1D
100
AcDbEntity
  8
0
100
AcDbText
 10
311.099122
 20
882.543486
 30
0.0
 40
35.0
  1
背面
100
AcDbText
  0
INSERT
  5
824F
100
AcDbEntity
  8
0
100
AcDbBlockReference
  2
YA
 10
858.387389
 20
472.9195
 30
0.0
 41
2.856021
 42
2.856021
 43
2.856021
  0
CIRCLE
  5
8D88
100
AcDbEntity
  8
0
100
AcDbCircle
 10
1536.252718
 20
1492.660361
 30
0.0
 40
10.5
  0
POLYLINE
  5
8D89
100
AcDbEntity
  8
0
100
AcDb2dPolyline
 66
     1
 10
0.0
 20
0.0
 30
0.0
 70
     1
  0
VERTEX
  5
9B17
100
AcDbEntity
  8
0
100
AcDbVertex
100
AcDb2dVertex
 10
1530.190541
 20
1503.160361
 30
0.0
  0
VERTEX
  5
9B18
100
AcDbEntity
  8
0
100
AcDbVertex
100
AcDb2dVertex
 10
1524.128363
 20
1492.660361
 30
0.0
  0
VERTEX
  5
9B19
100
AcDbEntity
  8
0
100
AcDbVertex
100
AcDb2dVertex
 10
1530.190541
 20
1482.160361
 30
0.0
  0
VERTEX
  5
9B1A
100
AcDbEntity
  8
0
100
AcDbVertex
100
AcDb2dVertex
 10
1542.314896
 20
1482.160361
 30
0.0
  0
VERTEX
  5
9B1B
100
AcDbEntity
  8
0
100
AcDbVertex
100
AcDb2dVertex
 10
1548.377074
 20
1492.660361
 30
0.0
  0
VERTEX
  5
9B1C
100
AcDbEntity
  8
0
100
AcDbVertex
100
AcDb2dVertex
 10
1542.314896
 20
1503.160361
 30
0.0
  0
SEQEND
  5
9B1D
100
AcDbEntity
  8
0
  0
LINE
  5
8D8A
100
AcDbEntity
  8
0
100
AcDbLine
 10
1535.909438
 20
1479.672554
 30
0.0
 11
1617.751521
 21
1479.672554
 31
0.0
  0
POLYLINE
  5
8D8B
100
AcDbEntity
  8
0
100
AcDb2dPolyline
 66
     1
 10
0.0
 20
0.0
 30
0.0
 70
     1
  0
VERTEX
  5
9B1E
100
AcDbEntity
  8
0
100
AcDbVertex
100
AcDb2dVertex
 10
1530.190541
 20
1564.184748
 30
0.0
  0
VERTEX
  5
9B1F
100
AcDbEntity
  8
0
100
AcDbVertex
100
AcDb2dVertex
 10
1524.128363
 20
1574.684748
 30
0.0
  0
VERTEX
  5
9B20
100
AcDbEntity
  8
0
100
AcDbVertex
100
AcDb2dVertex
 10
1530.190541
 20
1585.184748
 30
0.0
  0
VERTEX
  5
9B21
100
AcDbEntity
  8
0
100
AcDbVertex
100
AcDb2dVertex
 10
1542.314896
 20
1585.184748
 30
0.0
  0
VERTEX
  5
9B22
100
AcDbEntity
  8
0
100
AcDbVertex
100
AcDb2dVertex
 10
1548.377074
 20
1574.684748
 30
0.0
  0
VERTEX
  5
9B23
100
AcDbEntity
  8
0
100
AcDbVertex
100
AcDb2dVertex
 10
1542.314896
 20
1564.184748
 30
0.0
  0
SEQEND
  5
9B24
100
AcDbEntity
  8
0
  0
CIRCLE
  5
8D8C
100
AcDbEntity
  8
0
100
AcDbCircle
 10
1536.252718
 20
1574.684748
 30
0.0
 40
10.5
  0
LINE
  5
8D8D
100
AcDbEntity
  8
0
100
AcDbLine
 10
1535.909438
 20
1587.672554
 30
0.0
 11
1618.458169
 21
1587.672554
 31
0.0
  0
ARC
  5
8D8E
100
AcDbEntity
  8
0
100
AcDbCircle
 10
1535.639481
 20
1345.744261
 30
0.0
 40
21.571502
100
AcDbArc
 50
73.680185
 51
106.319815
  0
LINE
  5
8D8F
100
AcDbEntity
  8
0
100
AcDbLine
 10
1545.830168
 20
1367.562757
 30
0.0
 11
1525.447918
 21
1367.562757
 31
0.0
  0
LINE
  5
8D90
100
AcDbEntity
  8
0
100
AcDbLine
 10
1534.833141
 20
1239.812757
 30
0.0
 11
1567.613597
 21
1239.812757
 31
0.0
  0
ARC
  5
8D91
100
AcDbEntity
  8
0
100
AcDbCircle
 10
1576.833141
 20
1281.812757
 30
0.0
 40
43.0
100
AcDbArc
 50
205.91298
 51
249.192388
  0
LINE
  5
8D93
100
AcDbEntity
  8
0
100
AcDbLine
 10
1506.833141
 20
1301.812757
 30
0.0
 11
1616.825447
 21
1301.812757
 31
0.0
  0
LINE
  5
8D94
100
AcDbEntity
  8
0
100
AcDbLine
 10
1520.833141
 20
1358.812757
 30
0.0
 11
1632.833141
 21
1358.812757
 31
0.0
  0
LINE
  5
8D95
100
AcDbEntity
  8
0
100
AcDbLine
 10
1511.833141
 20
1345.812757
 30
0.0
 11
1632.833141
 21
1345.812757
 31
0.0
  0
LINE
  5
8D96
100
AcDbEntity
  8
0
100
AcDbLine
 10
1520.833141
 20
1331.812757
 30
0.0
 11
1632.833141
 21
1331.812757
 31
0.0
  0
LINE
  5
8D97
100
AcDbEntity
  8
0
100
AcDbLine
 10
1538.793433
 20
1787.014606
 30
0.0
 11
1540.726308
 21
1788.130756
 31
0.0
  0
ARC
  5
8D98
100
AcDbEntity
  8
0
100
AcDbCircle
 10
1541.823996
 20
1782.163364
 30
0.0
 40
5.720504
100
AcDbArc
 50
57.999617
 51
122.000383
  0
LINE
  5
8D99
100
AcDbEntity
  8
0
100
AcDbLine
 10
1555.412667
 20
1674.503157
 30
0.0
 11
1530.684852
 21
1667.877359
 31
0.0
  0
LINE
  5
8D9A
100
AcDbEntity
  8
0
100
AcDbLine
 10
1647.838475
 20
1752.380756
 30
0.0
 11
1535.838475
 21
1752.380756
 31
0.0
  0
LINE
  5
8D9B
100
AcDbEntity
  8
0
100
AcDbLine
 10
1647.838475
 20
1779.380756
 30
0.0
 11
1535.838475
 21
1779.380756
 31
0.0
  0
LINE
  5
8D9C
100
AcDbEntity
  8
0
100
AcDbLine
 10
1656.838475
 20
1766.380756
 30
0.0
 11
1535.838475
 21
1766.380756
 31
0.0
  0
TEXT
  5
8D9D
100
AcDbEntity
  8
0
100
AcDbText
 10
1558.834986
 20
1194.4993
 30
0.0
 40
25.0
  1
25A
 72
     4
 11
1592.168319
 21
1206.9993
 31
0.0
100
AcDbText
  0
CIRCLE
  5
8D9E
100
AcDbEntity
  8
0
100
AcDbCircle
 10
1281.430842
 20
1322.815424
 30
0.0
 40
62.5
  0
LINE
  5
8D9F
100
AcDbEntity
  8
0
100
AcDbLine
 10
1492.118846
 20
1340.065424
 30
0.0
 11
1492.114358
 21
1305.562879
 31
0.0
  0
LINE
  5
8DA0
100
AcDbEntity
  8
0
100
AcDbLine
 10
1459.335808
 20
1322.815424
 30
0.0
 11
1459.335808
 21
1260.315424
 31
0.0
  0
LINE
  5
8DA1
100
AcDbEntity
  8
0
100
AcDbLine
 10
1482.335808
 20
1348.710363
 30
0.0
 11
1482.335808
 21
1296.920485
 31
0.0
  0
LINE
  5
8DA2
100
AcDbEntity
  8
0
100
AcDbLine
 10
1473.335808
 20
1260.315424
 30
0.0
 11
1473.335808
 21
1385.315424
 31
0.0
  0
LINE
  5
8DA3
100
AcDbEntity
  8
0
100
AcDbLine
 10
1506.833532
 20
1322.812757
 30
0.0
 11
1506.833923
 21
1301.812757
 31
0.0
  0
LINE
  5
8DA4
100
AcDbEntity
  8
0
100
AcDbLine
 10
1510.833141
 20
1331.812757
 30
0.0
 11
1510.833141
 21
1313.812757
 31
0.0
  0
LINE
  5
8DA5
100
AcDbEntity
  8
0
100
AcDbLine
 10
1525.833141
 20
1331.812757
 30
0.0
 11
1525.833141
 21
1313.812757
 31
0.0
  0
LINE
  5
8DA6
100
AcDbEntity
  8
0
100
AcDbLine
 10
544.039064
 20
1325.814262
 30
0.0
 11
544.039064
 21
1304.814262
 31
0.0
  0
ARC
  5
8DA7
100
AcDbEntity
  8
0
100
AcDbCircle
 10
490.039064
 20
1281.815424
 30
0.0
 40
43.0
100
AcDbArc
 50
180.0
 51
0.0
  0
CIRCLE
  5
8DA8
100
AcDbEntity
  8
0
100
AcDbCircle
 10
490.039064
 20
1322.815424
 30
0.0
 40
50.0
  0
ARC
  5
8DA9
100
AcDbEntity
  8
0
100
AcDbCircle
 10
1016.570176
 20
1281.815424
 30
0.0
 40
43.0
100
AcDbArc
 50
180.0
 51
0.0
  0
LINE
  5
8DAA
100
AcDbEntity
  8
0
100
AcDbLine
 10
962.570176
 20
1325.814262
 30
0.0
 11
962.570176
 21
1304.814262
 31
0.0
  0
CIRCLE
  5
8DAB
100
AcDbEntity
  8
0
100
AcDbCircle
 10
1016.570176
 20
1322.815424
 30
0.0
 40
50.0
  0
LINE
  5
8DAC
100
AcDbEntity
  8
0
100
AcDbLine
 10
873.045191
 20
1336.415424
 30
0.0
 11
873.045191
 21
1309.215424
 31
0.0
  0
LINE
  5
8DAD
100
AcDbEntity
  8
0
100
AcDbLine
 10
849.571858
 20
1309.215424
 30
0.0
 11
849.571858
 21
1336.415424
 31
0.0
  0
LINE
  5
8DAE
100
AcDbEntity
  8
0
100
AcDbLine
 10
877.045191
 20
1272.815424
 30
0.0
 11
877.045191
 21
1372.815424
 31
0.0
  0
LINE
  5
8DAF
100
AcDbEntity
  8
0
100
AcDbLine
 10
891.045191
 20
1322.815424
 30
0.0
 11
891.045191
 21
1272.815424
 31
0.0
  0
LINE
  5
8DB0
100
AcDbEntity
  8
0
100
AcDbLine
 10
659.045191
 20
1336.415424
 30
0.0
 11
659.045191
 21
1309.215424
 31
0.0
  0
LINE
  5
8DB1
100
AcDbEntity
  8
0
100
AcDbLine
 10
682.518525
 20
1309.215424
 30
0.0
 11
682.518525
 21
1336.415424
 31
0.0
  0
LINE
  5
8DB2
100
AcDbEntity
  8
0
100
AcDbLine
 10
641.045191
 20
1322.815424
 30
0.0
 11
641.045191
 21
1272.815424
 31
0.0
  0
LINE
  5
8DB3
100
AcDbEntity
  8
0
100
AcDbLine
 10
655.045191
 20
1272.815424
 30
0.0
 11
655.045191
 21
1372.815424
 31
0.0
  0
LINE
  5
8DB4
100
AcDbEntity
  8
0
100
AcDbLine
 10
839.542525
 20
1331.812757
 30
0.0
 11
839.542525
 21
1313.812757
 31
0.0
  0
LINE
  5
8DB5
100
AcDbEntity
  8
0
100
AcDbLine
 10
824.542525
 20
1331.812757
 30
0.0
 11
824.542525
 21
1313.812757
 31
0.0
  0
ARC
  5
8DB6
100
AcDbEntity
  8
0
100
AcDbCircle
 10
861.292401
 20
1318.748423
 30
0.0
 40
57.671059
100
AcDbArc
 50
174.05568
 51
191.508499
  0
LINE
  5
8DB7
100
AcDbEntity
  8
0
100
AcDbLine
 10
843.542525
 20
1322.812757
 30
0.0
 11
843.542525
 21
1301.812757
 31
0.0
  0
LINE
  5
8DB8
100
AcDbEntity
  8
0
100
AcDbLine
 10
707.542525
 20
1331.812757
 30
0.0
 11
707.542525
 21
1313.812757
 31
0.0
  0
LINE
  5
8DB9
100
AcDbEntity
  8
0
100
AcDbLine
 10
692.542525
 20
1331.812757
 30
0.0
 11
692.542525
 21
1313.812757
 31
0.0
  0
LINE
  5
8DBA
100
AcDbEntity
  8
0
100
AcDbLine
 10
688.542916
 20
1322.812757
 30
0.0
 11
688.543307
 21
1301.812757
 31
0.0
  0
CIRCLE
  5
8DBB
100
AcDbEntity
  8
0
100
AcDbCircle
 10
758.541812
 20
1315.311596
 30
0.0
 40
10.5
  0
CIRCLE
  5
8EEE
100
AcDbEntity
  8
0
100
AcDbCircle
 10
463.52256
 20
1296.298919
 30
0.0
 40
7.5
  0
LINE
  5
8EEF
100
AcDbEntity
  8
0
100
AcDbLine
 10
447.039064
 20
1281.815424
 30
0.0
 11
447.039064
 21
1296.815424
 31
0.0
  0
ARC
  5
8EF0
100
AcDbEntity
  8
0
100
AcDbCircle
 10
442.039064
 20
1296.815424
 30
0.0
 40
5.0
100
AcDbArc
 50
360.0
 51
6.124621
  0
LINE
  5
8EF1
100
AcDbEntity
  8
0
100
AcDbLine
 10
440.539064
 20
1315.762056
 30
0.0
 11
440.539064
 21
1308.073754
 31
0.0
  0
LINE
  5
8EF2
100
AcDbEntity
  8
0
100
AcDbLine
 10
444.662859
 20
1301.815424
 30
0.0
 11
443.555762
 21
1301.815424
 31
0.0
  0
ARC
  5
8EF3
100
AcDbEntity
  8
0
100
AcDbCircle
 10
442.039064
 20
1296.815424
 30
0.0
 40
5.0
100
AcDbArc
 50
50.761236
 51
60.0
  0
ARC
  5
8EF4
100
AcDbEntity
  8
0
100
AcDbCircle
 10
448.539064
 20
1308.073754
 30
0.0
 40
8.0
100
AcDbArc
 50
180.0
 51
240.0
  0
CIRCLE
  5
8EF5
100
AcDbEntity
  8
0
100
AcDbCircle
 10
516.555569
 20
1296.298919
 30
0.0
 40
7.5
  0
LINE
  5
8EF6
100
AcDbEntity
  8
0
100
AcDbLine
 10
533.039064
 20
1281.815424
 30
0.0
 11
533.039064
 21
1296.815424
 31
0.0
  0
ARC
  5
8EF7
100
AcDbEntity
  8
0
100
AcDbCircle
 10
538.039064
 20
1296.815424
 30
0.0
 40
5.0
100
AcDbArc
 50
173.875379
 51
180.0
  0
ARC
  5
8EF8
100
AcDbEntity
  8
0
100
AcDbCircle
 10
541.81396
 20
1301.814262
 30
0.0
 40
3.0
100
AcDbArc
 50
90.0
 51
151.53992
  0
LINE
  5
8EF9
100
AcDbEntity
  8
0
100
AcDbLine
 10
544.039064
 20
1304.814262
 30
0.0
 11
541.81396
 21
1304.814262
 31
0.0
  0
LINE
  5
8EFA
100
AcDbEntity
  8
0
100
AcDbLine
 10
537.450749
 20
1301.815424
 30
0.0
 11
535.41527
 21
1301.815424
 31
0.0
  0
ARC
  5
8EFB
100
AcDbEntity
  8
0
100
AcDbCircle
 10
536.539064
 20
1304.67354
 30
0.0
 40
3.0
100
AcDbArc
 50
280.806923
 51
331.53992
  0
ARC
  5
8EFC
100
AcDbEntity
  8
0
100
AcDbCircle
 10
538.039064
 20
1296.815424
 30
0.0
 40
5.0
100
AcDbArc
 50
100.806923
 51
129.238764
  0
TEXT
  5
8EFD
100
AcDbEntity
  8
0
100
AcDbText
 10
732.878884
 20
1194.4993
 30
0.0
 40
25.0
  1
20A
 72
     4
 11
766.212217
 21
1206.9993
 31
0.0
100
AcDbText
  0
CIRCLE
  5
8EFE
100
AcDbEntity
  8
0
100
AcDbCircle
 10
1043.08668
 20
1296.298919
 30
0.0
 40
7.5
  0
ARC
  5
8EFF
100
AcDbEntity
  8
0
100
AcDbCircle
 10
758.542525
 20
1281.812757
 30
0.0
 40
43.0
100
AcDbArc
 50
205.91298
 51
249.192388
  0
ARC
  5
8F00
100
AcDbEntity
  8
0
100
AcDbCircle
 10
758.542525
 20
1281.812757
 30
0.0
 40
43.0
100
AcDbArc
 50
257.619201
 51
317.046813
  0
LINE
  5
8F02
100
AcDbEntity
  8
0
100
AcDbLine
 10
794.968332
 20
1253.935158
 30
0.0
 11
819.696148
 21
1247.30936
 31
0.0
  0
ARC
  5
8F03
100
AcDbEntity
  8
0
100
AcDbCircle
 10
758.542525
 20
1281.812757
 30
0.0
 40
43.0
100
AcDbArc
 50
340.033601
 51
360.0
  0
ARC
  5
8F04
100
AcDbEntity
  8
0
100
AcDbCircle
 10
758.542525
 20
1281.812757
 30
0.0
 40
43.0
100
AcDbArc
 50
180.0
 51
199.966399
  0
LINE
  5
8F0B
100
AcDbEntity
  8
0
100
AcDbLine
 10
641.045191
 20
1272.815424
 30
0.0
 11
655.045191
 21
1272.815424
 31
0.0
  0
LINE
  5
8F0F
100
AcDbEntity
  8
0
100
AcDbLine
 10
716.542525
 20
1263.812757
 30
0.0
 11
716.542525
 21
1239.812757
 31
0.0
  0
LINE
  5
8F16
100
AcDbEntity
  8
0
100
AcDbLine
 10
716.542525
 20
1239.812757
 30
0.0
 11
749.32298
 21
1239.812757
 31
0.0
  0
ARC
  5
8F19
100
AcDbEntity
  8
0
100
AcDbCircle
 10
793.674237
 20
1249.105529
 30
0.0
 40
5.0
100
AcDbArc
 50
75.0
 51
137.046813
  0
ARC
  5
8F1A
100
AcDbEntity
  8
0
100
AcDbCircle
 10
715.195382
 20
1266.493281
 30
0.0
 40
3.0
100
AcDbArc
 50
296.682589
 51
12.245629
  0
ARC
  5
8F1E
100
AcDbEntity
  8
0
100
AcDbCircle
 10
710.542525
 20
1296.812757
 30
0.0
 40
5.0
100
AcDbArc
 50
0.0
 51
90.0
  0
LINE
  5
8F1F
100
AcDbEntity
  8
0
100
AcDbLine
 10
688.542525
 20
1301.812757
 30
0.0
 11
798.534831
 21
1301.812757
 31
0.0
  0
LINE
  5
8F20
100
AcDbEntity
  8
0
100
AcDbLine
 10
659.045191
 20
1309.215424
 30
0.0
 11
682.518525
 21
1309.215424
 31
0.0
  0
LINE
  5
8F21
100
AcDbEntity
  8
0
100
AcDbLine
 10
659.045191
 20
1309.215424
 30
0.0
 11
655.045191
 21
1305.215424
 31
0.0
  0
LINE
  5
8F22
100
AcDbEntity
  8
0
100
AcDbLine
 10
655.045191
 20
1305.215424
 30
0.0
 11
659.045191
 21
1309.215424
 31
0.0
  0
LINE
  5
8F23
100
AcDbEntity
  8
0
100
AcDbLine
 10
682.518525
 20
1309.215424
 30
0.0
 11
688.545191
 21
1309.635424
 31
0.0
  0
LINE
  5
8F24
100
AcDbEntity
  8
0
100
AcDbLine
 10
707.542525
 20
1313.812757
 30
0.0
 11
692.542525
 21
1313.812757
 31
0.0
  0
LINE
  5
8F25
100
AcDbEntity
  8
0
100
AcDbLine
 10
801.542525
 20
1299.74292
 30
0.0
 11
801.542525
 21
1281.812757
 31
0.0
  0
LINE
  5
8F26
100
AcDbEntity
  8
0
100
AcDbLine
 10
715.542525
 20
1296.812757
 30
0.0
 11
715.542525
 21
1281.812757
 31
0.0
  0
ARC
  5
8F27
100
AcDbEntity
  8
0
100
AcDbCircle
 10
804.542525
 20
1299.74292
 30
0.0
 40
3.0
100
AcDbArc
 50
125.637046
 51
180.0
  0
ARC
  5
8F28
100
AcDbEntity
  8
0
100
AcDbCircle
 10
799.881336
 20
1306.244714
 30
0.0
 40
5.0
100
AcDbArc
 50
305.637046
 51
11.508499
  0
LINE
  5
8F29
100
AcDbEntity
  8
0
100
AcDbLine
 10
835.97078
 20
1277.112699
 30
0.0
 11
835.081613
 21
1280.431113
 31
0.0
  0
LINE
  5
8F2A
100
AcDbEntity
  8
0
100
AcDbLine
 10
819.696148
 20
1247.30936
 30
0.0
 11
828.754814
 21
1281.116764
 31
0.0
  0
ARC
  5
8F2B
100
AcDbEntity
  8
0
100
AcDbCircle
 10
828.57396
 20
1277.794886
 30
0.0
 40
7.021342
100
AcDbArc
 50
307.947305
 51
22.052695
  0
ARC
  5
8F2C
100
AcDbEntity
  8
0
100
AcDbCircle
 10
834.9903
 20
1276.075633
 30
0.0
 40
7.021342
100
AcDbArc
 50
127.947305
 51
202.052695
  0
ARC
  5
8F2D
100
AcDbEntity
  8
0
100
AcDbCircle
 10
845.326254
 20
1258.559127
 30
0.0
 40
21.538712
100
AcDbArc
 50
144.095626
 51
185.904374
  0
ARC
  5
8F2E
100
AcDbEntity
  8
0
100
AcDbCircle
 10
810.864508
 20
1267.793124
 30
0.0
 40
21.538712
100
AcDbArc
 50
324.095626
 51
5.904374
  0
LINE
  5
8F2F
100
AcDbEntity
  8
0
100
AcDbLine
 10
835.97078
 20
1277.112699
 30
0.0
 11
827.947389
 21
1247.168999
 31
0.0
  0
LINE
  5
8F30
100
AcDbEntity
  8
0
100
AcDbLine
 10
828.310798
 20
1255.162086
 30
0.0
 11
823.901805
 21
1256.343472
 31
0.0
  0
LINE
  5
8F31
100
AcDbEntity
  8
0
100
AcDbLine
 10
827.947389
 20
1247.168999
 30
0.0
 11
825.518142
 21
1244.739751
 31
0.0
  0
ARC
  5
8F32
100
AcDbEntity
  8
0
100
AcDbCircle
 10
821.200462
 20
1250.276617
 30
0.0
 40
7.021342
100
AcDbArc
 50
307.947305
 51
22.052695
  0
LINE
  5
8F33
100
AcDbEntity
  8
0
100
AcDbLine
 10
827.708115
 20
1252.912844
 30
0.0
 11
823.299123
 21
1254.09423
 31
0.0
  0
LINE
  5
8F34
100
AcDbEntity
  8
0
100
AcDbLine
 10
823.299123
 20
1254.09423
 30
0.0
 11
823.901805
 21
1256.343472
 31
0.0
  0
LINE
  5
8F35
100
AcDbEntity
  8
0
100
AcDbLine
 10
825.518142
 20
1244.739751
 30
0.0
 11
821.109149
 21
1245.921137
 31
0.0
  0
LINE
  5
8F36
100
AcDbEntity
  8
0
100
AcDbLine
 10
820.219983
 20
1249.239551
 30
0.0
 11
821.109149
 21
1245.921137
 31
0.0
  0
ARC
  5
8F37
100
AcDbEntity
  8
0
100
AcDbCircle
 10
827.616802
 20
1248.557364
 30
0.0
 40
7.021342
100
AcDbArc
 50
127.947305
 51
202.052695
  0
LINE
  5
8F38
100
AcDbEntity
  8
0
100
AcDbLine
 10
827.708115
 20
1252.912844
 30
0.0
 11
828.310798
 21
1255.162086
 31
0.0
  0
LINE
  5
8F39
100
AcDbEntity
  8
0
100
AcDbLine
 10
832.288957
 20
1270.008778
 30
0.0
 11
832.89164
 21
1272.25802
 31
0.0
  0
LINE
  5
8F3A
100
AcDbEntity
  8
0
100
AcDbLine
 10
827.879964
 20
1271.190164
 30
0.0
 11
828.482647
 21
1273.439406
 31
0.0
  0
LINE
  5
8F3B
100
AcDbEntity
  8
0
100
AcDbLine
 10
832.89164
 20
1272.25802
 30
0.0
 11
828.482647
 21
1273.439406
 31
0.0
  0
LINE
  5
8F3C
100
AcDbEntity
  8
0
100
AcDbLine
 10
832.288957
 20
1270.008778
 30
0.0
 11
827.879964
 21
1271.190164
 31
0.0
  0
LINE
  5
8F3D
100
AcDbEntity
  8
0
100
AcDbLine
 10
891.045191
 20
1272.815424
 30
0.0
 11
877.045191
 21
1272.815424
 31
0.0
  0
ELLIPSE
  5
8F3E
100
AcDbEntity
  8
0
100
AcDbEllipse
 10
1016.570176
 20
1264.215729
 30
0.0
 11
-17.5
 21
0.0
 31
0.0
210
0.0
220
0.0
230
1.0
 40
0.965926
 41
2.724537359304187
 42
3.55864794787574
  0
ELLIPSE
  5
8F3F
100
AcDbEntity
  8
0
100
AcDbEllipse
 10
1016.570176
 20
1264.215729
 30
0.0
 11
-17.5
 21
0.0
 31
0.0
210
0.0
220
0.0
230
1.0
 40
0.965926
 41
5.86613001289398
 42
6.700240601465533
  0
LINE
  5
8F40
100
AcDbEntity
  8
0
100
AcDbLine
 10
1032.570176
 20
1271.639074
 30
0.0
 11
1032.570176
 21
1254.72017
 31
0.0
  0
LINE
  5
8F41
100
AcDbEntity
  8
0
100
AcDbLine
 10
1000.570176
 20
1271.639074
 30
0.0
 11
1000.570176
 21
1254.72017
 31
0.0
  0
ELLIPSE
  5
8F42
100
AcDbEntity
  8
0
100
AcDbEllipse
 10
1016.570176
 20
1262.143516
 30
0.0
 11
15.5
 21
-0.0000000000000028
 31
0.0
210
0.0
220
0.0
230
1.0
 40
0.965926
 41
2.251701398359904
 42
7.173076562409475
  0
LINE
  5
8F43
100
AcDbEntity
  8
0
100
AcDbLine
 10
1001.914581
 20
1252.470934
 30
0.0
 11
1015.225766
 21
1245.047582
 31
0.0
  0
LINE
  5
8F44
100
AcDbEntity
  8
0
100
AcDbLine
 10
1031.22577
 20
1252.470934
 30
0.0
 11
1017.914585
 21
1245.047582
 31
0.0
  0
ELLIPSE
  5
8F45
100
AcDbEntity
  8
0
100
AcDbEllipse
 10
1016.570176
 20
1262.143516
 30
0.0
 11
-17.75
 21
0.0
 31
0.0
210
0.0
220
0.0
230
1.0
 40
0.965926
 41
1.494982339354536
 42
1.646610314235256
  0
ELLIPSE
  5
8F46
100
AcDbEntity
  8
0
100
AcDbEllipse
 10
1016.570176
 20
1262.143516
 30
0.0
 11
17.75
 21
0.0
 31
0.0
210
0.0
220
0.0
230
-1.0
 40
0.965926
 41
0.4477847473764708
 42
0.5994123592542787
  0
ELLIPSE
  5
8F47
100
AcDbEntity
  8
0
100
AcDbEllipse
 10
1016.570176
 20
1262.143516
 30
0.0
 11
-17.75
 21
0.0
 31
0.0
210
0.0
220
0.0
230
1.0
 40
0.965926
 41
0.4477847473764708
 42
0.5994123592542787
  0
ELLIPSE
  5
8F48
100
AcDbEntity
  8
0
100
AcDbEllipse
 10
1016.570176
 20
1265.587579
 30
0.0
 11
-17.5
 21
0.0
 31
0.0
210
0.0
220
0.0
230
1.0
 40
0.965926
 41
5.694094555807678
 42
6.32377485697224
  0
ELLIPSE
  5
8F49
100
AcDbEntity
  8
0
100
AcDbEllipse
 10
1016.570176
 20
1262.143516
 30
0.0
 11
-17.75
 21
0.0
 31
0.0
210
0.0
220
0.0
230
1.0
 40
0.965926
 41
5.683772947925307
 42
5.835400559803447
  0
ELLIPSE
  5
8F4A
100
AcDbEntity
  8
0
100
AcDbEllipse
 10
1016.570176
 20
1262.143516
 30
0.0
 11
17.75
 21
0.0
 31
0.0
210
0.0
220
0.0
230
-1.0
 40
0.965926
 41
5.683772947925307
 42
5.835400559803447
  0
ELLIPSE
  5
8F4B
100
AcDbEntity
  8
0
100
AcDbEllipse
 10
1016.570176
 20
1264.215729
 30
0.0
 11
-17.75
 21
0.0
 31
0.0
210
0.0
220
0.0
230
1.0
 40
0.965926
 41
5.683772947925307
 42
5.835400559803447
  0
ELLIPSE
  5
8F4C
100
AcDbEntity
  8
0
100
AcDbEllipse
 10
1016.570176
 20
1264.215729
 30
0.0
 11
17.75
 21
0.0
 31
0.0
210
0.0
220
0.0
230
-1.0
 40
0.965926
 41
5.683772947925307
 42
5.835400559803447
  0
LINE
  5
8F4D
100
AcDbEntity
  8
0
100
AcDbLine
 10
1031.22577
 20
1271.816097
 30
0.0
 11
1031.22577
 21
1273.88831
 31
0.0
  0
LINE
  5
8F4E
100
AcDbEntity
  8
0
100
AcDbLine
 10
1001.914581
 20
1271.816097
 30
0.0
 11
1001.914581
 21
1273.88831
 31
0.0
  0
ELLIPSE
  5
8F4F
100
AcDbEntity
  8
0
100
AcDbEllipse
 10
1016.570176
 20
1265.587579
 30
0.0
 11
-17.5
 21
0.0
 31
0.0
210
0.0
220
0.0
230
1.0
 40
0.965926
 41
3.101003103797176
 42
3.730683404961694
  0
LINE
  5
8F50
100
AcDbEntity
  8
0
100
AcDbLine
 10
1001.914581
 20
1271.816097
 30
0.0
 11
1005.808042
 21
1273.987394
 31
0.0
  0
LINE
  5
8F51
100
AcDbEntity
  8
0
100
AcDbLine
 10
1001.914581
 20
1273.88831
 30
0.0
 11
1003.237174
 21
1274.625891
 31
0.0
  0
ELLIPSE
  5
8F52
100
AcDbEntity
  8
0
100
AcDbEllipse
 10
1016.570176
 20
1264.215729
 30
0.0
 11
-17.5
 21
0.0
 31
0.0
210
0.0
220
0.0
230
1.0
 40
0.965926
 41
5.611896708280928
 42
5.653043515254864
  0
LINE
  5
8F53
100
AcDbEntity
  8
0
100
AcDbLine
 10
1031.22577
 20
1271.816097
 30
0.0
 11
1027.332309
 21
1273.987394
 31
0.0
  0
LINE
  5
8F54
100
AcDbEntity
  8
0
100
AcDbLine
 10
1031.22577
 20
1273.88831
 30
0.0
 11
1029.903177
 21
1274.625891
 31
0.0
  0
ELLIPSE
  5
8F55
100
AcDbEntity
  8
0
100
AcDbEllipse
 10
1016.570176
 20
1264.215729
 30
0.0
 11
-17.5
 21
0.0
 31
0.0
210
0.0
220
0.0
230
1.0
 40
0.965926
 41
3.771734445514514
 42
3.812881252488443
  0
LINE
  5
8F56
100
AcDbEntity
  8
0
100
AcDbLine
 10
1034.812408
 20
1276.262003
 30
0.0
 11
1034.041597
 21
1263.250074
 31
0.0
  0
LINE
  5
8F57
100
AcDbEntity
  8
0
100
AcDbLine
 10
998.327944
 20
1276.262003
 30
0.0
 11
999.098754
 21
1263.250074
 31
0.0
  0
ARC
  5
8F58
100
AcDbEntity
  8
0
100
AcDbCircle
 10
829.907297
 20
1296.812757
 30
0.0
 40
5.0
100
AcDbArc
 50
90.0
 51
175.0
  0
ARC
  5
8F59
100
AcDbEntity
  8
0
100
AcDbCircle
 10
826.842979
 20
1284.734867
 30
0.0
 40
3.0
100
AcDbArc
 50
175.0
 51
255.0
  0
LINE
  5
8F5A
100
AcDbEntity
  8
0
100
AcDbLine
 10
823.854395
 20
1284.996334
 30
0.0
 11
824.926324
 21
1297.248536
 31
0.0
  0
LINE
  5
8F5B
100
AcDbEntity
  8
0
100
AcDbLine
 10
828.243373
 20
1279.183252
 30
0.0
 11
830.672621
 21
1281.612499
 31
0.0
  0
LINE
  5
8F5C
100
AcDbEntity
  8
0
100
AcDbLine
 10
827.792786
 20
1281.374538
 30
0.0
 11
827.02552
 21
1281.580127
 31
0.0
  0
LINE
  5
8F5D
100
AcDbEntity
  8
0
100
AcDbLine
 10
826.066522
 20
1281.837089
 30
0.0
 11
828.754814
 21
1281.116764
 31
0.0
  0
LINE
  5
8F5E
100
AcDbEntity
  8
0
100
AcDbLine
 10
835.081613
 20
1280.431113
 30
0.0
 11
830.672621
 21
1281.612499
 31
0.0
  0
LINE
  5
8F5F
100
AcDbEntity
  8
0
100
AcDbLine
 10
873.045191
 20
1309.215424
 30
0.0
 11
849.571858
 21
1309.215424
 31
0.0
  0
LINE
  5
8F60
100
AcDbEntity
  8
0
100
AcDbLine
 10
849.571858
 20
1309.215424
 30
0.0
 11
843.545191
 21
1309.635424
 31
0.0
  0
LINE
  5
8F61
100
AcDbEntity
  8
0
100
AcDbLine
 10
839.542525
 20
1313.812757
 30
0.0
 11
824.542525
 21
1313.812757
 31
0.0
  0
LINE
  5
8F62
100
AcDbEntity
  8
0
100
AcDbLine
 10
829.907297
 20
1301.812757
 30
0.0
 11
843.542525
 21
1301.812757
 31
0.0
  0
LINE
  5
8F63
100
AcDbEntity
  8
0
100
AcDbLine
 10
873.045191
 20
1309.215424
 30
0.0
 11
877.045191
 21
1305.215424
 31
0.0
  0
LINE
  5
8F64
100
AcDbEntity
  8
0
100
AcDbLine
 10
877.045191
 20
1305.215424
 30
0.0
 11
873.045191
 21
1309.215424
 31
0.0
  0
CIRCLE
  5
8F65
100
AcDbEntity
  8
0
100
AcDbCircle
 10
990.053671
 20
1296.298919
 30
0.0
 40
7.5
  0
LINE
  5
8F66
100
AcDbEntity
  8
0
100
AcDbLine
 10
973.570176
 20
1281.815424
 30
0.0
 11
973.570176
 21
1296.815424
 31
0.0
  0
ARC
  5
8F67
100
AcDbEntity
  8
0
100
AcDbCircle
 10
968.570176
 20
1296.815424
 30
0.0
 40
5.0
100
AcDbArc
 50
0.0
 51
6.124621
  0
ARC
  5
8F68
100
AcDbEntity
  8
0
100
AcDbCircle
 10
964.79528
 20
1301.814262
 30
0.0
 40
3.0
100
AcDbArc
 50
28.46008
 51
90.0
  0
LINE
  5
8F69
100
AcDbEntity
  8
0
100
AcDbLine
 10
962.570176
 20
1304.814262
 30
0.0
 11
964.79528
 21
1304.814262
 31
0.0
  0
LINE
  5
8F6A
100
AcDbEntity
  8
0
100
AcDbLine
 10
969.158491
 20
1301.815424
 30
0.0
 11
971.19397
 21
1301.815424
 31
0.0
  0
ARC
  5
8F6B
100
AcDbEntity
  8
0
100
AcDbCircle
 10
970.070176
 20
1304.67354
 30
0.0
 40
3.0
100
AcDbArc
 50
208.46008
 51
259.193077
  0
ARC
  5
8F6C
100
AcDbEntity
  8
0
100
AcDbCircle
 10
968.570176
 20
1296.815424
 30
0.0
 40
5.0
100
AcDbArc
 50
50.761236
 51
79.193077
  0
ARC
  5
8F6D
100
AcDbEntity
  8
0
100
AcDbCircle
 10
1281.430842
 20
1281.815424
 30
0.0
 40
43.0
100
AcDbArc
 50
186.125541
 51
353.874459
  0
LINE
  5
8F70
100
AcDbEntity
  8
0
100
AcDbLine
 10
1059.570176
 20
1281.815424
 30
0.0
 11
1059.570176
 21
1296.815424
 31
0.0
  0
ARC
  5
8F71
100
AcDbEntity
  8
0
100
AcDbCircle
 10
1064.570176
 20
1296.815424
 30
0.0
 40
5.0
100
AcDbArc
 50
173.875379
 51
180.0
  0
LINE
  5
8F72
100
AcDbEntity
  8
0
100
AcDbLine
 10
1066.070176
 20
1315.762056
 30
0.0
 11
1066.070176
 21
1308.073754
 31
0.0
  0
LINE
  5
8F73
100
AcDbEntity
  8
0
100
AcDbLine
 10
1061.946381
 20
1301.815424
 30
0.0
 11
1063.053478
 21
1301.815424
 31
0.0
  0
ARC
  5
8F74
100
AcDbEntity
  8
0
100
AcDbCircle
 10
1064.570176
 20
1296.815424
 30
0.0
 40
5.0
100
AcDbArc
 50
120.0
 51
129.238764
  0
ARC
  5
8F75
100
AcDbEntity
  8
0
100
AcDbCircle
 10
1058.070176
 20
1308.073754
 30
0.0
 40
8.0
100
AcDbArc
 50
300.0
 51
0.0
  0
CIRCLE
  5
8F76
100
AcDbEntity
  8
0
100
AcDbCircle
 10
1249.611037
 20
1290.995618
 30
0.0
 40
9.5
  0
ARC
  5
8F77
100
AcDbEntity
  8
0
100
AcDbCircle
 10
1576.833141
 20
1281.812757
 30
0.0
 40
43.0
100
AcDbArc
 50
180.0
 51
199.966399
  0
LINE
  5
8F7C
100
AcDbEntity
  8
0
100
AcDbLine
 10
1534.833141
 20
1263.812757
 30
0.0
 11
1534.833141
 21
1239.812757
 31
0.0
  0
LINE
  5
8F89
100
AcDbEntity
  8
0
100
AcDbLine
 10
1459.335808
 20
1260.315424
 30
0.0
 11
1473.335808
 21
1260.315424
 31
0.0
  0
ARC
  5
8F8D
100
AcDbEntity
  8
0
100
AcDbCircle
 10
1533.485999
 20
1266.493281
 30
0.0
 40
3.0
100
AcDbArc
 50
296.682589
 51
12.245629
  0
CIRCLE
  5
8F8F
100
AcDbEntity
  8
0
100
AcDbCircle
 10
1313.250648
 20
1290.995618
 30
0.0
 40
9.5
  0
LINE
  5
8F90
100
AcDbEntity
  8
0
100
AcDbLine
 10
1482.335808
 20
1296.920485
 30
0.0
 11
1482.335808
 21
1312.390832
 31
0.0
  0
LINE
  5
8F91
100
AcDbEntity
  8
0
100
AcDbLine
 10
1482.32907
 20
1296.920486
 30
0.0
 11
1492.114358
 21
1305.562879
 31
0.0
  0
ARC
  5
8F92
100
AcDbEntity
  8
0
100
AcDbCircle
 10
1528.833141
 20
1296.812757
 30
0.0
 40
5.0
100
AcDbArc
 50
0.0
 51
90.0
  0
LINE
  5
8F93
100
AcDbEntity
  8
0
100
AcDbLine
 10
1482.335808
 20
1296.920485
 30
0.0
 11
1477.726461
 21
1296.354528
 31
0.0
  0
ARC
  5
8F94
100
AcDbEntity
  8
0
100
AcDbCircle
 10
1478.335808
 20
1291.391797
 30
0.0
 40
5.0
100
AcDbArc
 50
97.0
 51
180.0
  0
LINE
  5
8F95
100
AcDbEntity
  8
0
100
AcDbLine
 10
1533.833141
 20
1296.812757
 30
0.0
 11
1533.833141
 21
1281.812757
 31
0.0
  0
LINE
  5
8F96
100
AcDbEntity
  8
0
100
AcDbLine
 10
1525.833141
 20
1313.812757
 30
0.0
 11
1510.833141
 21
1313.812757
 31
0.0
  0
LINE
  5
8F97
100
AcDbEntity
  8
0
100
AcDbLine
 10
1506.833854
 20
1305.565424
 30
0.0
 11
1492.114358
 21
1305.565424
 31
0.0
  0
LINE
  5
912A
100
AcDbEntity
  8
0
100
AcDbLine
 10
436.039064
 20
1331.812757
 30
0.0
 11
436.039064
 21
1358.812757
 31
0.0
  0
LINE
  5
912B
100
AcDbEntity
  8
0
100
AcDbLine
 10
544.039064
 20
1331.812757
 30
0.0
 11
544.039064
 21
1358.812757
 31
0.0
  0
CIRCLE
  5
912C
100
AcDbEntity
  8
0
100
AcDbCircle
 10
463.52256
 20
1349.331928
 30
0.0
 40
7.5
  0
LINE
  5
912D
100
AcDbEntity
  8
0
100
AcDbLine
 10
440.855246
 20
1331.812757
 30
0.0
 11
436.039064
 21
1331.812757
 31
0.0
  0
LINE
  5
912E
100
AcDbEntity
  8
0
100
AcDbLine
 10
445.641737
 20
1345.812757
 30
0.0
 11
436.039064
 21
1345.812757
 31
0.0
  0
LINE
  5
912F
100
AcDbEntity
  8
0
100
AcDbLine
 10
544.039064
 20
1331.812757
 30
0.0
 11
539.222883
 21
1331.812757
 31
0.0
  0
ARC
  5
9130
100
AcDbEntity
  8
0
100
AcDbCircle
 10
542.539064
 20
1328.814262
 30
0.0
 40
3.0
100
AcDbArc
 50
180.0
 51
270.0
  0
LINE
  5
9131
100
AcDbEntity
  8
0
100
AcDbLine
 10
544.039064
 20
1325.814262
 30
0.0
 11
542.539064
 21
1325.814262
 31
0.0
  0
LINE
  5
9132
100
AcDbEntity
  8
0
100
AcDbLine
 10
539.539064
 20
1328.815424
 30
0.0
 11
539.539064
 21
1328.814262
 31
0.0
  0
ARC
  5
9133
100
AcDbEntity
  8
0
100
AcDbCircle
 10
542.539064
 20
1328.815424
 30
0.0
 40
3.0
100
AcDbArc
 50
90.0
 51
180.0
  0
CIRCLE
  5
9134
100
AcDbEntity
  8
0
100
AcDbCircle
 10
516.555569
 20
1349.331928
 30
0.0
 40
7.5
  0
LINE
  5
9135
100
AcDbEntity
  8
0
100
AcDbLine
 10
544.039064
 20
1345.812757
 30
0.0
 11
534.436392
 21
1345.812757
 31
0.0
  0
ARC
  5
9136
100
AcDbEntity
  8
0
100
AcDbCircle
 10
454.302518
 20
1353.531087
 30
0.0
 40
14.28125
100
AcDbArc
 50
68.432087
 51
111.569278
  0
LINE
  5
9137
100
AcDbEntity
  8
0
100
AcDbLine
 10
459.552348
 20
1367.811782
 30
0.0
 11
438.552348
 21
1367.811532
 31
0.0
  0
LINE
  5
9138
100
AcDbEntity
  8
0
100
AcDbLine
 10
456.405787
 20
1358.812757
 30
0.0
 11
436.039064
 21
1358.812757
 31
0.0
  0
LINE
  5
9139
100
AcDbEntity
  8
0
100
AcDbLine
 10
438.552348
 20
1367.811532
 30
0.0
 11
438.552455
 21
1358.812149
 31
0.0
  0
LINE
  5
913A
100
AcDbEntity
  8
0
100
AcDbLine
 10
449.05236
 20
1366.812275
 30
0.0
 11
449.052455
 21
1358.812275
 31
0.0
  0
ARC
  5
913B
100
AcDbEntity
  8
0
100
AcDbCircle
 10
443.802518
 20
1353.530962
 30
0.0
 40
14.28125
100
AcDbArc
 50
68.432087
 51
111.569278
  0
LINE
  5
913C
100
AcDbEntity
  8
0
100
AcDbLine
 10
480.039064
 20
1384.812757
 30
0.0
 11
480.039064
 21
1370.805218
 31
0.0
  0
LINE
  5
913D
100
AcDbEntity
  8
0
100
AcDbLine
 10
500.039064
 20
1384.812757
 30
0.0
 11
500.039064
 21
1370.805218
 31
0.0
  0
LINE
  5
913E
100
AcDbEntity
  8
0
100
AcDbLine
 10
484.771264
 20
1372.812757
 30
0.0
 11
484.771264
 21
1384.812757
 31
0.0
  0
LINE
  5
913F
100
AcDbEntity
  8
0
100
AcDbLine
 10
495.306864
 20
1372.812757
 30
0.0
 11
495.306864
 21
1384.812757
 31
0.0
  0
LINE
  5
9140
100
AcDbEntity
  8
0
100
AcDbLine
 10
462.905617
 20
1363.812757
 30
0.0
 11
459.552396
 21
1363.812757
 31
0.0
  0
LINE
  5
9141
100
AcDbEntity
  8
0
100
AcDbLine
 10
462.905617
 20
1363.812757
 30
0.0
 11
461.242023
 21
1363.812757
 31
0.0
  0
LINE
  5
9142
100
AcDbEntity
  8
0
100
AcDbLine
 10
459.552348
 20
1367.811782
 30
0.0
 11
459.552424
 21
1361.445775
 31
0.0
  0
LINE
  5
9143
100
AcDbEntity
  8
0
100
AcDbLine
 10
500.039064
 20
1372.812757
 30
0.0
 11
480.039064
 21
1372.812757
 31
0.0
  0
LINE
  5
9144
100
AcDbEntity
  8
0
100
AcDbLine
 10
520.526378
 20
1367.809792
 30
0.0
 11
520.52588
 21
1361.44564
 31
0.0
  0
LINE
  5
9145
100
AcDbEntity
  8
0
100
AcDbLine
 10
520.526065
 20
1363.812757
 30
0.0
 11
517.172512
 21
1363.812757
 31
0.0
  0
LINE
  5
9146
100
AcDbEntity
  8
0
100
AcDbLine
 10
519.109162
 20
1363.812757
 30
0.0
 11
517.172512
 21
1363.812757
 31
0.0
  0
LINE
  5
9147
100
AcDbEntity
  8
0
100
AcDbLine
 10
531.0263
 20
1366.809587
 30
0.0
 11
531.025673
 21
1358.809587
 31
0.0
  0
LINE
  5
9148
100
AcDbEntity
  8
0
100
AcDbLine
 10
541.526378
 20
1367.808148
 30
0.0
 11
541.525673
 21
1358.808765
 31
0.0
  0
ARC
  5
9149
100
AcDbEntity
  8
0
100
AcDbCircle
 10
536.27526
 20
1353.527926
 30
0.0
 40
14.28125
100
AcDbArc
 50
68.426918
 51
111.56411
  0
LINE
  5
914A
100
AcDbEntity
  8
0
100
AcDbLine
 10
544.039064
 20
1358.812757
 30
0.0
 11
523.672341
 21
1358.812757
 31
0.0
  0
ARC
  5
914B
100
AcDbEntity
  8
0
100
AcDbCircle
 10
525.77526
 20
1353.528748
 30
0.0
 40
14.28125
100
AcDbArc
 50
68.426918
 51
111.56411
  0
LINE
  5
914C
100
AcDbEntity
  8
0
100
AcDbLine
 10
520.526378
 20
1367.809792
 30
0.0
 11
541.526378
 21
1367.808148
 31
0.0
  0
LINE
  5
914D
100
AcDbEntity
  8
0
100
AcDbLine
 10
500.039064
 20
1384.812757
 30
0.0
 11
480.039064
 21
1384.812757
 31
0.0
  0
LINE
  5
9178
100
AcDbEntity
  8
0
100
AcDbLine
 10
1459.335808
 20
1533.672554
 30
0.0
 11
1459.335808
 21
1471.172554
 31
0.0
  0
LINE
  5
9179
100
AcDbEntity
  8
0
100
AcDbLine
 10
1473.335808
 20
1471.172554
 30
0.0
 11
1473.335808
 21
1596.172554
 31
0.0
  0
CIRCLE
  5
917A
100
AcDbEntity
  8
0
100
AcDbCircle
 10
1043.08668
 20
1349.331928
 30
0.0
 40
7.5
  0
LINE
  5
917B
100
AcDbEntity
  8
0
100
AcDbLine
 10
814.542525
 20
1343.812757
 30
0.0
 11
843.542525
 21
1343.812757
 31
0.0
  0
LINE
  5
917C
100
AcDbEntity
  8
0
100
AcDbLine
 10
641.045191
 20
1372.815424
 30
0.0
 11
641.045191
 21
1322.815424
 31
0.0
  0
LINE
  5
917D
100
AcDbEntity
  8
0
100
AcDbLine
 10
814.542525
 20
1358.812757
 30
0.0
 11
814.542525
 21
1345.812757
 31
0.0
  0
LINE
  5
917E
100
AcDbEntity
  8
0
100
AcDbLine
 10
702.542525
 20
1358.812757
 30
0.0
 11
702.542525
 21
1345.812757
 31
0.0
  0
LINE
  5
917F
100
AcDbEntity
  8
0
100
AcDbLine
 10
702.542525
 20
1331.812757
 30
0.0
 11
814.542525
 21
1331.812757
 31
0.0
  0
LINE
  5
9180
100
AcDbEntity
  8
0
100
AcDbLine
 10
693.542525
 20
1345.812757
 30
0.0
 11
814.542525
 21
1345.812757
 31
0.0
  0
LINE
  5
9181
100
AcDbEntity
  8
0
100
AcDbLine
 10
659.045191
 20
1336.415424
 30
0.0
 11
655.045191
 21
1340.415424
 31
0.0
  0
LINE
  5
9182
100
AcDbEntity
  8
0
100
AcDbLine
 10
659.045191
 20
1336.415424
 30
0.0
 11
655.045191
 21
1340.415424
 31
0.0
  0
LINE
  5
9183
100
AcDbEntity
  8
0
100
AcDbLine
 10
688.542525
 20
1343.812757
 30
0.0
 11
688.542916
 21
1322.812757
 31
0.0
  0
LINE
  5
9184
100
AcDbEntity
  8
0
100
AcDbLine
 10
702.542525
 20
1345.812757
 30
0.0
 11
702.542525
 21
1331.812757
 31
0.0
  0
LINE
  5
9185
100
AcDbEntity
  8
0
100
AcDbLine
 10
682.518525
 20
1336.415424
 30
0.0
 11
659.045191
 21
1336.415424
 31
0.0
  0
LINE
  5
9186
100
AcDbEntity
  8
0
100
AcDbLine
 10
688.545191
 20
1335.995424
 30
0.0
 11
682.518525
 21
1336.415424
 31
0.0
  0
LINE
  5
9187
100
AcDbEntity
  8
0
100
AcDbLine
 10
707.542525
 20
1331.812757
 30
0.0
 11
692.542525
 21
1331.812757
 31
0.0
  0
LINE
  5
9188
100
AcDbEntity
  8
0
100
AcDbLine
 10
693.542525
 20
1343.812757
 30
0.0
 11
693.542525
 21
1345.812757
 31
0.0
  0
LINE
  5
9189
100
AcDbEntity
  8
0
100
AcDbLine
 10
688.542525
 20
1343.812757
 30
0.0
 11
702.542525
 21
1343.812757
 31
0.0
  0
LINE
  5
918A
100
AcDbEntity
  8
0
100
AcDbLine
 10
814.542525
 20
1345.812757
 30
0.0
 11
814.542525
 21
1331.812757
 31
0.0
  0
LINE
  5
918B
100
AcDbEntity
  8
0
100
AcDbLine
 10
727.539552
 20
1367.562757
 30
0.0
 11
707.157302
 21
1367.562757
 31
0.0
  0
ARC
  5
918C
100
AcDbEntity
  8
0
100
AcDbCircle
 10
708.255864
 20
1361.595385
 30
0.0
 40
5.720487
100
AcDbArc
 50
57.999511
 51
122.000489
  0
LINE
  5
918D
100
AcDbEntity
  8
0
100
AcDbLine
 10
702.542525
 20
1358.812757
 30
0.0
 11
814.542525
 21
1358.812757
 31
0.0
  0
LINE
  5
918E
100
AcDbEntity
  8
0
100
AcDbLine
 10
655.045191
 20
1372.815424
 30
0.0
 11
641.045191
 21
1372.815424
 31
0.0
  0
LINE
  5
918F
100
AcDbEntity
  8
0
100
AcDbLine
 10
705.224427
 20
1366.446607
 30
0.0
 11
705.224427
 21
1358.812757
 31
0.0
  0
LINE
  5
9190
100
AcDbEntity
  8
0
100
AcDbLine
 10
707.157302
 20
1367.562757
 30
0.0
 11
705.224427
 21
1366.446607
 31
0.0
  0
LINE
  5
9191
100
AcDbEntity
  8
0
100
AcDbLine
 10
767.042525
 20
1384.235407
 30
0.0
 11
767.042525
 21
1372.812757
 31
0.0
  0
LINE
  5
9192
100
AcDbEntity
  8
0
100
AcDbLine
 10
750.042525
 20
1384.235407
 30
0.0
 11
750.042525
 21
1372.812757
 31
0.0
  0
LINE
  5
9193
100
AcDbEntity
  8
0
100
AcDbLine
 10
729.472427
 20
1363.812757
 30
0.0
 11
787.339566
 21
1363.812757
 31
0.0
  0
LINE
  5
9194
100
AcDbEntity
  8
0
100
AcDbLine
 10
748.542525
 20
1372.812757
 30
0.0
 11
768.542525
 21
1372.812757
 31
0.0
  0
LINE
  5
9195
100
AcDbEntity
  8
0
100
AcDbLine
 10
748.542525
 20
1372.812757
 30
0.0
 11
748.542525
 21
1363.812757
 31
0.0
  0
ARC
  5
9196
100
AcDbEntity
  8
0
100
AcDbCircle
 10
726.441864
 20
1361.595365
 30
0.0
 40
5.720504
100
AcDbArc
 50
57.999617
 51
122.000383
  0
ARC
  5
9197
100
AcDbEntity
  8
0
100
AcDbCircle
 10
717.348864
 20
1345.744261
 30
0.0
 40
21.571502
100
AcDbArc
 50
73.680185
 51
106.319815
  0
LINE
  5
9198
100
AcDbEntity
  8
0
100
AcDbLine
 10
711.287302
 20
1366.446607
 30
0.0
 11
711.287302
 21
1358.812757
 31
0.0
  0
LINE
  5
9199
100
AcDbEntity
  8
0
100
AcDbLine
 10
723.410427
 20
1366.446607
 30
0.0
 11
723.410427
 21
1358.812757
 31
0.0
  0
LINE
  5
919A
100
AcDbEntity
  8
0
100
AcDbLine
 10
729.472427
 20
1366.446607
 30
0.0
 11
727.539552
 21
1367.562757
 31
0.0
  0
LINE
  5
919B
100
AcDbEntity
  8
0
100
AcDbLine
 10
729.472427
 20
1358.812757
 30
0.0
 11
729.472427
 21
1366.446607
 31
0.0
  0
LINE
  5
919C
100
AcDbEntity
  8
0
100
AcDbLine
 10
811.587566
 20
1366.446607
 30
0.0
 11
809.654691
 21
1367.562757
 31
0.0
  0
LINE
  5
919D
100
AcDbEntity
  8
0
100
AcDbLine
 10
811.587566
 20
1358.812757
 30
0.0
 11
811.587566
 21
1366.446607
 31
0.0
  0
ARC
  5
919E
100
AcDbEntity
  8
0
100
AcDbCircle
 10
799.464004
 20
1345.744261
 30
0.0
 40
21.571502
100
AcDbArc
 50
73.680185
 51
106.319815
  0
ARC
  5
919F
100
AcDbEntity
  8
0
100
AcDbCircle
 10
790.371004
 20
1361.595385
 30
0.0
 40
5.720487
100
AcDbArc
 50
57.999511
 51
122.000489
  0
LINE
  5
91A0
100
AcDbEntity
  8
0
100
AcDbLine
 10
789.272441
 20
1367.562757
 30
0.0
 11
787.339566
 21
1366.446607
 31
0.0
  0
LINE
  5
91A1
100
AcDbEntity
  8
0
100
AcDbLine
 10
787.339566
 20
1366.446607
 30
0.0
 11
787.339566
 21
1358.812757
 31
0.0
  0
LINE
  5
91A2
100
AcDbEntity
  8
0
100
AcDbLine
 10
793.402441
 20
1366.446607
 30
0.0
 11
793.402441
 21
1358.812757
 31
0.0
  0
LINE
  5
91A3
100
AcDbEntity
  8
0
100
AcDbLine
 10
805.525566
 20
1366.446607
 30
0.0
 11
805.525566
 21
1358.812757
 31
0.0
  0
LINE
  5
91A4
100
AcDbEntity
  8
0
100
AcDbLine
 10
768.542525
 20
1372.812757
 30
0.0
 11
768.542525
 21
1363.812757
 31
0.0
  0
LINE
  5
91A5
100
AcDbEntity
  8
0
100
AcDbLine
 10
809.654691
 20
1367.562757
 30
0.0
 11
789.272441
 21
1367.562757
 31
0.0
  0
ARC
  5
91A6
100
AcDbEntity
  8
0
100
AcDbCircle
 10
808.557004
 20
1361.595365
 30
0.0
 40
5.720504
100
AcDbArc
 50
57.999617
 51
122.000383
  0
LINE
  5
91A7
100
AcDbEntity
  8
0
100
AcDbLine
 10
751.042525
 20
1384.812757
 30
0.0
 11
766.042525
 21
1384.812757
 31
0.0
  0
LINE
  5
91A8
100
AcDbEntity
  8
0
100
AcDbLine
 10
750.042525
 20
1384.235407
 30
0.0
 11
751.042525
 21
1384.812757
 31
0.0
  0
LINE
  5
91A9
100
AcDbEntity
  8
0
100
AcDbLine
 10
767.042525
 20
1384.235407
 30
0.0
 11
766.042525
 21
1384.812757
 31
0.0
  0
LINE
  5
91AA
100
AcDbEntity
  8
0
100
AcDbLine
 10
962.570176
 20
1331.812757
 30
0.0
 11
962.570176
 21
1358.812757
 31
0.0
  0
LINE
  5
91AB
100
AcDbEntity
  8
0
100
AcDbLine
 10
891.045191
 20
1372.815424
 30
0.0
 11
891.045191
 21
1322.815424
 31
0.0
  0
LINE
  5
91AC
100
AcDbEntity
  8
0
100
AcDbLine
 10
873.045191
 20
1336.415424
 30
0.0
 11
877.045191
 21
1340.415424
 31
0.0
  0
LINE
  5
91AD
100
AcDbEntity
  8
0
100
AcDbLine
 10
873.045191
 20
1336.415424
 30
0.0
 11
877.045191
 21
1340.415424
 31
0.0
  0
LINE
  5
91AE
100
AcDbEntity
  8
0
100
AcDbLine
 10
843.542525
 20
1343.812757
 30
0.0
 11
843.542525
 21
1322.812757
 31
0.0
  0
LINE
  5
91AF
100
AcDbEntity
  8
0
100
AcDbLine
 10
849.571858
 20
1336.415424
 30
0.0
 11
873.045191
 21
1336.415424
 31
0.0
  0
LINE
  5
91B0
100
AcDbEntity
  8
0
100
AcDbLine
 10
843.545191
 20
1335.995424
 30
0.0
 11
849.571858
 21
1336.415424
 31
0.0
  0
LINE
  5
91B1
100
AcDbEntity
  8
0
100
AcDbLine
 10
839.542525
 20
1331.812757
 30
0.0
 11
824.542525
 21
1331.812757
 31
0.0
  0
LINE
  5
91B2
100
AcDbEntity
  8
0
100
AcDbLine
 10
962.570176
 20
1331.812757
 30
0.0
 11
967.386357
 21
1331.812757
 31
0.0
  0
ARC
  5
91B3
100
AcDbEntity
  8
0
100
AcDbCircle
 10
964.070176
 20
1328.814262
 30
0.0
 40
3.0
100
AcDbArc
 50
270.0
 51
0.0
  0
LINE
  5
91B4
100
AcDbEntity
  8
0
100
AcDbLine
 10
962.570176
 20
1325.814262
 30
0.0
 11
964.070176
 21
1325.814262
 31
0.0
  0
LINE
  5
91B5
100
AcDbEntity
  8
0
100
AcDbLine
 10
967.070176
 20
1328.815424
 30
0.0
 11
967.070176
 21
1328.814262
 31
0.0
  0
ARC
  5
91B6
100
AcDbEntity
  8
0
100
AcDbCircle
 10
964.070176
 20
1328.815424
 30
0.0
 40
3.0
100
AcDbArc
 50
0.0
 51
90.0
  0
CIRCLE
  5
91B7
100
AcDbEntity
  8
0
100
AcDbCircle
 10
990.053671
 20
1349.331928
 30
0.0
 40
7.5
  0
LINE
  5
91B8
100
AcDbEntity
  8
0
100
AcDbLine
 10
962.570176
 20
1345.812757
 30
0.0
 11
972.172848
 21
1345.812757
 31
0.0
  0
LINE
  5
91B9
100
AcDbEntity
  8
0
100
AcDbLine
 10
877.045191
 20
1372.815424
 30
0.0
 11
891.045191
 21
1372.815424
 31
0.0
  0
LINE
  5
91BA
100
AcDbEntity
  8
0
100
AcDbLine
 10
1021.837976
 20
1372.812757
 30
0.0
 11
1021.837976
 21
1384.812757
 31
0.0
  0
LINE
  5
91BB
100
AcDbEntity
  8
0
100
AcDbLine
 10
1011.302376
 20
1372.812757
 30
0.0
 11
1011.302376
 21
1384.812757
 31
0.0
  0
LINE
  5
91BC
100
AcDbEntity
  8
0
100
AcDbLine
 10
1026.570176
 20
1384.812757
 30
0.0
 11
1026.570176
 21
1370.805218
 31
0.0
  0
LINE
  5
91BD
100
AcDbEntity
  8
0
100
AcDbLine
 10
1006.570176
 20
1384.812757
 30
0.0
 11
1006.570176
 21
1370.805218
 31
0.0
  0
LINE
  5
91BE
100
AcDbEntity
  8
0
100
AcDbLine
 10
986.082862
 20
1367.809792
 30
0.0
 11
986.08336
 21
1361.44564
 31
0.0
  0
LINE
  5
91BF
100
AcDbEntity
  8
0
100
AcDbLine
 10
975.58294
 20
1366.809587
 30
0.0
 11
975.583567
 21
1358.809587
 31
0.0
  0
ARC
  5
91C0
100
AcDbEntity
  8
0
100
AcDbCircle
 10
980.83398
 20
1353.528748
 30
0.0
 40
14.28125
100
AcDbArc
 50
68.43589
 51
111.573082
  0
LINE
  5
91C1
100
AcDbEntity
  8
0
100
AcDbLine
 10
965.082862
 20
1367.808148
 30
0.0
 11
965.083567
 21
1358.808765
 31
0.0
  0
LINE
  5
91C2
100
AcDbEntity
  8
0
100
AcDbLine
 10
986.082862
 20
1367.809792
 30
0.0
 11
965.082862
 21
1367.808148
 31
0.0
  0
ARC
  5
91C3
100
AcDbEntity
  8
0
100
AcDbCircle
 10
970.33398
 20
1353.527926
 30
0.0
 40
14.28125
100
AcDbArc
 50
68.43589
 51
111.573082
  0
LINE
  5
91C4
100
AcDbEntity
  8
0
100
AcDbLine
 10
987.500078
 20
1363.812757
 30
0.0
 11
989.436728
 21
1363.812757
 31
0.0
  0
LINE
  5
91C5
100
AcDbEntity
  8
0
100
AcDbLine
 10
962.570176
 20
1358.812757
 30
0.0
 11
982.936899
 21
1358.812757
 31
0.0
  0
LINE
  5
91C6
100
AcDbEntity
  8
0
100
AcDbLine
 10
986.083175
 20
1363.812757
 30
0.0
 11
989.436728
 21
1363.812757
 31
0.0
  0
LINE
  5
91C7
100
AcDbEntity
  8
0
100
AcDbLine
 10
1006.570176
 20
1372.812757
 30
0.0
 11
1026.570176
 21
1372.812757
 31
0.0
  0
LINE
  5
91C8
100
AcDbEntity
  8
0
100
AcDbLine
 10
1006.570176
 20
1384.812757
 30
0.0
 11
1026.570176
 21
1384.812757
 31
0.0
  0
LINE
  5
91C9
100
AcDbEntity
  8
0
100
AcDbLine
 10
1227.430842
 20
1353.283662
 30
0.0
 11
1227.430842
 21
1358.812757
 31
0.0
  0
CIRCLE
  5
91CA
100
AcDbEntity
  8
0
100
AcDbCircle
 10
1249.611037
 20
1354.635229
 30
0.0
 40
9.5
  0
LINE
  5
91CB
100
AcDbEntity
  8
0
100
AcDbLine
 10
1070.570176
 20
1331.812757
 30
0.0
 11
1070.570176
 21
1358.812757
 31
0.0
  0
LINE
  5
91CC
100
AcDbEntity
  8
0
100
AcDbLine
 10
1065.753994
 20
1331.812757
 30
0.0
 11
1070.570176
 21
1331.812757
 31
0.0
  0
LINE
  5
91CD
100
AcDbEntity
  8
0
100
AcDbLine
 10
1060.967503
 20
1345.812757
 30
0.0
 11
1070.570176
 21
1345.812757
 31
0.0
  0
LINE
  5
91CE
100
AcDbEntity
  8
0
100
AcDbLine
 10
1050.203453
 20
1358.812757
 30
0.0
 11
1070.570176
 21
1358.812757
 31
0.0
  0
LINE
  5
91CF
100
AcDbEntity
  8
0
100
AcDbLine
 10
1043.703623
 20
1363.812757
 30
0.0
 11
1047.056844
 21
1363.812757
 31
0.0
  0
LINE
  5
91D0
100
AcDbEntity
  8
0
100
AcDbLine
 10
1043.703623
 20
1363.812757
 30
0.0
 11
1045.367217
 21
1363.812757
 31
0.0
  0
LINE
  5
91D1
100
AcDbEntity
  8
0
100
AcDbLine
 10
1068.056892
 20
1367.811532
 30
0.0
 11
1068.056785
 21
1358.812149
 31
0.0
  0
LINE
  5
91D2
100
AcDbEntity
  8
0
100
AcDbLine
 10
1047.056892
 20
1367.811782
 30
0.0
 11
1047.056816
 21
1361.445775
 31
0.0
  0
LINE
  5
91D3
100
AcDbEntity
  8
0
100
AcDbLine
 10
1057.55688
 20
1366.812275
 30
0.0
 11
1057.556785
 21
1358.812275
 31
0.0
  0
ARC
  5
91D4
100
AcDbEntity
  8
0
100
AcDbCircle
 10
1052.306722
 20
1353.531087
 30
0.0
 40
14.28125
100
AcDbArc
 50
68.430722
 51
111.567913
  0
ARC
  5
91D5
100
AcDbEntity
  8
0
100
AcDbCircle
 10
1062.806722
 20
1353.530962
 30
0.0
 40
14.28125
100
AcDbArc
 50
68.430722
 51
111.567913
  0
LINE
  5
91D6
100
AcDbEntity
  8
0
100
AcDbLine
 10
1047.056892
 20
1367.811782
 30
0.0
 11
1068.056892
 21
1367.811532
 31
0.0
  0
LINE
  5
91D7
100
AcDbEntity
  8
0
100
AcDbLine
 10
1229.944126
 20
1367.811532
 30
0.0
 11
1229.944233
 21
1358.812149
 31
0.0
  0
LINE
  5
91D8
100
AcDbEntity
  8
0
100
AcDbLine
 10
1231.057761
 20
1358.812757
 30
0.0
 11
1227.430842
 21
1358.812757
 31
0.0
  0
ARC
  5
91D9
100
AcDbEntity
  8
0
100
AcDbCircle
 10
1235.194296
 20
1353.530962
 30
0.0
 40
14.28125
100
AcDbArc
 50
75.966603
 51
111.569278
  0
LINE
  5
91DA
100
AcDbEntity
  8
0
100
AcDbLine
 10
1239.115385
 20
1367.811642
 30
0.0
 11
1229.944126
 21
1367.811532
 31
0.0
  0
LINE
  5
91DB
100
AcDbEntity
  8
0
100
AcDbLine
 10
1291.430842
 20
1384.812757
 30
0.0
 11
1271.430842
 21
1384.812757
 31
0.0
  0
LINE
  5
91DC
100
AcDbEntity
  8
0
100
AcDbLine
 10
1291.430842
 20
1384.812757
 30
0.0
 11
1291.430842
 21
1383.510237
 31
0.0
  0
LINE
  5
91DD
100
AcDbEntity
  8
0
100
AcDbLine
 10
1286.698642
 20
1384.09303
 30
0.0
 11
1286.698642
 21
1384.812757
 31
0.0
  0
LINE
  5
91DE
100
AcDbEntity
  8
0
100
AcDbLine
 10
1276.163042
 20
1384.09303
 30
0.0
 11
1276.163042
 21
1384.812757
 31
0.0
  0
LINE
  5
91DF
100
AcDbEntity
  8
0
100
AcDbLine
 10
1271.430842
 20
1384.812757
 30
0.0
 11
1271.430842
 21
1383.510237
 31
0.0
  0
LINE
  5
91E0
100
AcDbEntity
  8
0
100
AcDbLine
 10
1335.430842
 20
1353.283662
 30
0.0
 11
1335.430842
 21
1358.812757
 31
0.0
  0
CIRCLE
  5
91E1
100
AcDbEntity
  8
0
100
AcDbCircle
 10
1313.250648
 20
1354.635229
 30
0.0
 40
9.5
  0
LINE
  5
91E2
100
AcDbEntity
  8
0
100
AcDbLine
 10
1459.335808
 20
1385.315424
 30
0.0
 11
1459.335808
 21
1322.815424
 31
0.0
  0
LINE
  5
91E3
100
AcDbEntity
  8
0
100
AcDbLine
 10
1520.833141
 20
1358.812757
 30
0.0
 11
1520.833141
 21
1345.812757
 31
0.0
  0
LINE
  5
91E4
100
AcDbEntity
  8
0
100
AcDbLine
 10
1520.833141
 20
1345.812757
 30
0.0
 11
1520.833141
 21
1331.812757
 31
0.0
  0
LINE
  5
91E5
100
AcDbEntity
  8
0
100
AcDbLine
 10
1506.833141
 20
1343.812757
 30
0.0
 11
1506.833532
 21
1322.812757
 31
0.0
  0
LINE
  5
91E6
100
AcDbEntity
  8
0
100
AcDbLine
 10
1525.833141
 20
1331.812757
 30
0.0
 11
1510.833141
 21
1331.812757
 31
0.0
  0
LINE
  5
91E7
100
AcDbEntity
  8
0
100
AcDbLine
 10
1482.335808
 20
1348.710363
 30
0.0
 11
1492.118846
 21
1340.065424
 31
0.0
  0
ARC
  5
91E8
100
AcDbEntity
  8
0
100
AcDbCircle
 10
1477.444632
 20
1353.377814
 30
0.0
 40
4.111167
100
AcDbArc
 50
181.934276
 51
273.93083
  0
LINE
  5
91E9
100
AcDbEntity
  8
0
100
AcDbLine
 10
1482.335808
 20
1348.710363
 30
0.0
 11
1477.726461
 21
1349.276319
 31
0.0
  0
LINE
  5
91EA
100
AcDbEntity
  8
0
100
AcDbLine
 10
1511.833141
 20
1343.812757
 30
0.0
 11
1511.833141
 21
1345.812757
 31
0.0
  0
LINE
  5
91EB
100
AcDbEntity
  8
0
100
AcDbLine
 10
1506.833141
 20
1343.812757
 30
0.0
 11
1520.833141
 21
1343.812757
 31
0.0
  0
LINE
  5
91EC
100
AcDbEntity
  8
0
100
AcDbLine
 10
1506.833211
 20
1340.065424
 30
0.0
 11
1492.118846
 21
1340.065424
 31
0.0
  0
LINE
  5
91ED
100
AcDbEntity
  8
0
100
AcDbLine
 10
1331.803924
 20
1358.812757
 30
0.0
 11
1335.430842
 21
1358.812757
 31
0.0
  0
LINE
  5
91EE
100
AcDbEntity
  8
0
100
AcDbLine
 10
1332.917559
 20
1367.811532
 30
0.0
 11
1332.917452
 21
1358.812149
 31
0.0
  0
LINE
  5
91EF
100
AcDbEntity
  8
0
100
AcDbLine
 10
1323.749317
 20
1367.808866
 30
0.0
 11
1332.918156
 21
1367.808148
 31
0.0
  0
ARC
  5
91F0
100
AcDbEntity
  8
0
100
AcDbCircle
 10
1327.667038
 20
1353.527926
 30
0.0
 40
14.28125
100
AcDbArc
 50
68.426918
 51
104.021688
  0
LINE
  5
91F1
100
AcDbEntity
  8
0
100
AcDbLine
 10
1529.577918
 20
1366.446607
 30
0.0
 11
1529.577918
 21
1358.812757
 31
0.0
  0
LINE
  5
91F2
100
AcDbEntity
  8
0
100
AcDbLine
 10
1525.447918
 20
1367.562757
 30
0.0
 11
1523.515043
 21
1366.446607
 31
0.0
  0
LINE
  5
91F3
100
AcDbEntity
  8
0
100
AcDbLine
 10
1523.515043
 20
1366.446607
 30
0.0
 11
1523.515043
 21
1358.812757
 31
0.0
  0
ARC
  5
91F4
100
AcDbEntity
  8
0
100
AcDbCircle
 10
1526.546481
 20
1361.595385
 30
0.0
 40
5.720487
100
AcDbArc
 50
57.999511
 51
122.000489
  0
LINE
  5
91F5
100
AcDbEntity
  8
0
100
AcDbLine
 10
1459.335808
 20
1385.315424
 30
0.0
 11
1473.335808
 21
1385.315424
 31
0.0
  0
LINE
  5
91F6
100
AcDbEntity
  8
0
100
AcDbLine
 10
1459.335808
 20
1471.172554
 30
0.0
 11
1473.335808
 21
1471.172554
 31
0.0
  0
CIRCLE
  5
91F7
100
AcDbEntity
  8
0
100
AcDbCircle
 10
757.835876
 20
1533.672554
 30
0.0
 40
35.0
  0
ARC
  5
91F8
100
AcDbEntity
  8
0
100
AcDbCircle
 10
513.835876
 20
1533.672554
 30
0.0
 40
300.0
100
AcDbArc
 50
351.614461
 51
8.385539
  0
ARC
  5
91F9
100
AcDbEntity
  8
0
100
AcDbCircle
 10
1001.835876
 20
1533.672554
 30
0.0
 40
300.0
100
AcDbArc
 50
171.614461
 51
188.385539
  0
LINE
  5
91FA
100
AcDbEntity
  8
0
100
AcDbLine
 10
641.045191
 20
1583.672554
 30
0.0
 11
641.045191
 21
1533.672554
 31
0.0
  0
LINE
  5
91FB
100
AcDbEntity
  8
0
100
AcDbLine
 10
655.045191
 20
1483.672554
 30
0.0
 11
655.045191
 21
1583.672554
 31
0.0
  0
LINE
  5
91FC
100
AcDbEntity
  8
0
100
AcDbLine
 10
891.045191
 20
1583.672554
 30
0.0
 11
891.045191
 21
1533.672554
 31
0.0
  0
LINE
  5
91FD
100
AcDbEntity
  8
0
100
AcDbLine
 10
877.045191
 20
1483.672554
 30
0.0
 11
877.045191
 21
1583.672554
 31
0.0
  0
LINE
  5
91FE
100
AcDbEntity
  8
0
100
AcDbLine
 10
843.545578
 20
1533.672554
 30
0.0
 11
843.545578
 21
1554.669888
 31
0.0
  0
LINE
  5
91FF
100
AcDbEntity
  8
0
100
AcDbLine
 10
688.545578
 20
1554.672554
 30
0.0
 11
688.545578
 21
1512.672554
 31
0.0
  0
LINE
  5
9200
100
AcDbEntity
  8
0
100
AcDbLine
 10
813.806435
 20
1512.669888
 30
0.0
 11
843.545578
 21
1512.669888
 31
0.0
  0
LINE
  5
9201
100
AcDbEntity
  8
0
100
AcDbLine
 10
641.045191
 20
1533.672554
 30
0.0
 11
641.045191
 21
1483.672554
 31
0.0
  0
ARC
  5
9202
100
AcDbEntity
  8
0
100
AcDbCircle
 10
716.914835
 20
1491.672554
 30
0.0
 40
12.0
100
AcDbArc
 50
188.385539
 51
270.0
  0
CIRCLE
  5
9203
100
AcDbEntity
  8
0
100
AcDbCircle
 10
717.258115
 20
1492.660361
 30
0.0
 40
10.5
  0
POLYLINE
  5
9204
100
AcDbEntity
  8
0
100
AcDb2dPolyline
 66
     1
 10
0.0
 20
0.0
 30
0.0
 70
     1
  0
VERTEX
  5
9B25
100
AcDbEntity
  8
0
100
AcDbVertex
100
AcDb2dVertex
 10
711.195938
 20
1503.160361
 30
0.0
  0
VERTEX
  5
9B26
100
AcDbEntity
  8
0
100
AcDbVertex
100
AcDb2dVertex
 10
705.13376
 20
1492.660361
 30
0.0
  0
VERTEX
  5
9B27
100
AcDbEntity
  8
0
100
AcDbVertex
100
AcDb2dVertex
 10
711.195938
 20
1482.160361
 30
0.0
  0
VERTEX
  5
9B28
100
AcDbEntity
  8
0
100
AcDbVertex
100
AcDb2dVertex
 10
723.320293
 20
1482.160361
 30
0.0
  0
VERTEX
  5
9B29
100
AcDbEntity
  8
0
100
AcDbVertex
100
AcDb2dVertex
 10
729.382471
 20
1492.660361
 30
0.0
  0
VERTEX
  5
9B2A
100
AcDbEntity
  8
0
100
AcDbVertex
100
AcDb2dVertex
 10
723.320293
 20
1503.160361
 30
0.0
  0
SEQEND
  5
9B2B
100
AcDbEntity
  8
0
  0
LINE
  5
9205
100
AcDbEntity
  8
0
100
AcDbLine
 10
641.045191
 20
1483.672554
 30
0.0
 11
655.045191
 21
1483.672554
 31
0.0
  0
LINE
  5
9206
100
AcDbEntity
  8
0
100
AcDbLine
 10
688.542525
 20
1512.669888
 30
0.0
 11
702.571966
 21
1512.669888
 31
0.0
  0
LINE
  5
9207
100
AcDbEntity
  8
0
100
AcDbLine
 10
702.721074
 20
1510.643553
 30
0.0
 11
692.545578
 21
1510.643553
 31
0.0
  0
LINE
  5
9208
100
AcDbEntity
  8
0
100
AcDbLine
 10
688.545578
 20
1512.672554
 30
0.0
 11
702.571779
 21
1512.672554
 31
0.0
  0
LINE
  5
9209
100
AcDbEntity
  8
0
100
AcDbLine
 10
692.545578
 20
1510.643553
 30
0.0
 11
692.545578
 21
1512.669888
 31
0.0
  0
POLYLINE
  5
920A
100
AcDbEntity
  8
0
100
AcDb2dPolyline
 66
     1
 10
0.0
 20
0.0
 30
0.0
 70
     1
  0
VERTEX
  5
9B2C
100
AcDbEntity
  8
0
100
AcDbVertex
100
AcDb2dVertex
 10
805.34468
 20
1503.160361
 30
0.0
  0
VERTEX
  5
9B2D
100
AcDbEntity
  8
0
100
AcDbVertex
100
AcDb2dVertex
 10
811.406858
 20
1492.660361
 30
0.0
  0
VERTEX
  5
9B2E
100
AcDbEntity
  8
0
100
AcDbVertex
100
AcDb2dVertex
 10
805.34468
 20
1482.160361
 30
0.0
  0
VERTEX
  5
9B2F
100
AcDbEntity
  8
0
100
AcDbVertex
100
AcDb2dVertex
 10
793.220324
 20
1482.160361
 30
0.0
  0
VERTEX
  5
9B30
100
AcDbEntity
  8
0
100
AcDbVertex
100
AcDb2dVertex
 10
787.158146
 20
1492.660361
 30
0.0
  0
VERTEX
  5
9B31
100
AcDbEntity
  8
0
100
AcDbVertex
100
AcDb2dVertex
 10
793.220324
 20
1503.160361
 30
0.0
  0
SEQEND
  5
9B32
100
AcDbEntity
  8
0
  0
CIRCLE
  5
920B
100
AcDbEntity
  8
0
100
AcDbCircle
 10
799.282502
 20
1492.660361
 30
0.0
 40
10.5
  0
LINE
  5
920C
100
AcDbEntity
  8
0
100
AcDbLine
 10
716.914835
 20
1479.672554
 30
0.0
 11
798.756918
 21
1479.672554
 31
0.0
  0
ARC
  5
920D
100
AcDbEntity
  8
0
100
AcDbCircle
 10
798.756918
 20
1491.672554
 30
0.0
 40
12.0
100
AcDbArc
 50
270.0
 51
351.614461
  0
LINE
  5
920E
100
AcDbEntity
  8
0
100
AcDbLine
 10
682.518525
 20
1520.072554
 30
0.0
 11
682.518525
 21
1547.272554
 31
0.0
  0
LINE
  5
920F
100
AcDbEntity
  8
0
100
AcDbLine
 10
659.045191
 20
1547.272554
 30
0.0
 11
659.045191
 21
1520.072554
 31
0.0
  0
ARC
  5
9210
100
AcDbEntity
  8
0
100
AcDbCircle
 10
699.542525
 20
1533.672554
 30
0.0
 40
6.0
100
AcDbArc
 50
89.149041
 51
270.850959
  0
LINE
  5
9211
100
AcDbEntity
  8
0
100
AcDbLine
 10
659.045191
 20
1520.072554
 30
0.0
 11
682.518525
 21
1520.072554
 31
0.0
  0
LINE
  5
9212
100
AcDbEntity
  8
0
100
AcDbLine
 10
659.045191
 20
1520.072554
 30
0.0
 11
655.045191
 21
1516.072554
 31
0.0
  0
LINE
  5
9213
100
AcDbEntity
  8
0
100
AcDbLine
 10
655.045191
 20
1516.072554
 30
0.0
 11
659.045191
 21
1520.072554
 31
0.0
  0
ARC
  5
9214
100
AcDbEntity
  8
0
100
AcDbCircle
 10
698.96954
 20
1524.673547
 30
0.0
 40
3.0
100
AcDbArc
 50
1.701917
 51
90.850959
  0
LINE
  5
9215
100
AcDbEntity
  8
0
100
AcDbLine
 10
682.518525
 20
1520.072554
 30
0.0
 11
688.545191
 21
1520.492554
 31
0.0
  0
LINE
  5
9216
100
AcDbEntity
  8
0
100
AcDbLine
 10
682.518525
 20
1547.272554
 30
0.0
 11
659.045191
 21
1547.272554
 31
0.0
  0
LINE
  5
9217
100
AcDbEntity
  8
0
100
AcDbLine
 10
659.045191
 20
1547.272554
 30
0.0
 11
655.045191
 21
1551.272554
 31
0.0
  0
LINE
  5
9218
100
AcDbEntity
  8
0
100
AcDbLine
 10
659.045191
 20
1547.272554
 30
0.0
 11
655.045191
 21
1551.272554
 31
0.0
  0
ARC
  5
9219
100
AcDbEntity
  8
0
100
AcDbCircle
 10
698.96954
 20
1542.671562
 30
0.0
 40
3.0
100
AcDbArc
 50
269.149041
 51
358.298083
  0
LINE
  5
921A
100
AcDbEntity
  8
0
100
AcDbLine
 10
688.545191
 20
1546.852554
 30
0.0
 11
682.518525
 21
1547.272554
 31
0.0
  0
LINE
  5
921B
100
AcDbEntity
  8
0
100
AcDbLine
 10
749.335876
 20
1538.940381
 30
0.0
 11
749.335876
 21
1528.404727
 31
0.0
  0
LINE
  5
921C
100
AcDbEntity
  8
0
100
AcDbLine
 10
766.335876
 20
1538.940381
 30
0.0
 11
766.335876
 21
1528.404727
 31
0.0
  0
CIRCLE
  5
921D
100
AcDbEntity
  8
0
100
AcDbCircle
 10
757.835876
 20
1533.672554
 30
0.0
 40
10.0
  0
CIRCLE
  5
921E
100
AcDbEntity
  8
0
100
AcDbCircle
 10
757.835876
 20
1533.672554
 30
0.0
 40
8.5
  0
LINE
  5
921F
100
AcDbEntity
  8
0
100
AcDbLine
 10
766.335876
 20
1538.940381
 30
0.0
 11
766.335876
 21
1528.404727
 31
0.0
  0
LINE
  5
9220
100
AcDbEntity
  8
0
100
AcDbLine
 10
749.335876
 20
1538.940381
 30
0.0
 11
749.335876
 21
1528.404727
 31
0.0
  0
CIRCLE
  5
9221
100
AcDbEntity
  8
0
100
AcDbCircle
 10
757.835876
 20
1533.672554
 30
0.0
 40
8.5
  0
CIRCLE
  5
9222
100
AcDbEntity
  8
0
100
AcDbCircle
 10
757.835876
 20
1533.672554
 30
0.0
 40
10.0
  0
LINE
  5
9223
100
AcDbEntity
  8
0
100
AcDbLine
 10
891.045191
 20
1533.672554
 30
0.0
 11
891.045191
 21
1483.672554
 31
0.0
  0
LINE
  5
9224
100
AcDbEntity
  8
0
100
AcDbLine
 10
843.545578
 20
1512.669888
 30
0.0
 11
843.545578
 21
1533.672554
 31
0.0
  0
LINE
  5
9225
100
AcDbEntity
  8
0
100
AcDbLine
 10
891.045191
 20
1483.672554
 30
0.0
 11
877.045191
 21
1483.672554
 31
0.0
  0
LINE
  5
9226
100
AcDbEntity
  8
0
100
AcDbLine
 10
839.545578
 20
1510.643553
 30
0.0
 11
839.545578
 21
1512.669888
 31
0.0
  0
LINE
  5
9227
100
AcDbEntity
  8
0
100
AcDbLine
 10
824.545578
 20
1510.643553
 30
0.0
 11
824.545578
 21
1512.669888
 31
0.0
  0
LINE
  5
9228
100
AcDbEntity
  8
0
100
AcDbLine
 10
824.545578
 20
1510.643553
 30
0.0
 11
839.545578
 21
1510.643553
 31
0.0
  0
LINE
  5
9229
100
AcDbEntity
  8
0
100
AcDbLine
 10
873.045191
 20
1547.272554
 30
0.0
 11
873.045191
 21
1520.072554
 31
0.0
  0
LINE
  5
922A
100
AcDbEntity
  8
0
100
AcDbLine
 10
849.571858
 20
1520.072554
 30
0.0
 11
849.571858
 21
1547.272554
 31
0.0
  0
LINE
  5
922B
100
AcDbEntity
  8
0
100
AcDbLine
 10
873.045191
 20
1520.072554
 30
0.0
 11
849.571858
 21
1520.072554
 31
0.0
  0
LINE
  5
922C
100
AcDbEntity
  8
0
100
AcDbLine
 10
849.571858
 20
1520.072554
 30
0.0
 11
843.545191
 21
1520.492554
 31
0.0
  0
LINE
  5
922D
100
AcDbEntity
  8
0
100
AcDbLine
 10
873.045191
 20
1520.072554
 30
0.0
 11
877.045191
 21
1516.072554
 31
0.0
  0
LINE
  5
922E
100
AcDbEntity
  8
0
100
AcDbLine
 10
877.045191
 20
1516.072554
 30
0.0
 11
873.045191
 21
1520.072554
 31
0.0
  0
LINE
  5
922F
100
AcDbEntity
  8
0
100
AcDbLine
 10
849.571858
 20
1547.272554
 30
0.0
 11
873.045191
 21
1547.272554
 31
0.0
  0
LINE
  5
9230
100
AcDbEntity
  8
0
100
AcDbLine
 10
843.545191
 20
1546.852554
 30
0.0
 11
849.571858
 21
1547.272554
 31
0.0
  0
LINE
  5
9231
100
AcDbEntity
  8
0
100
AcDbLine
 10
873.045191
 20
1547.272554
 30
0.0
 11
877.045191
 21
1551.272554
 31
0.0
  0
LINE
  5
9232
100
AcDbEntity
  8
0
100
AcDbLine
 10
873.045191
 20
1547.272554
 30
0.0
 11
877.045191
 21
1551.272554
 31
0.0
  0
LINE
  5
9233
100
AcDbEntity
  8
0
100
AcDbLine
 10
813.806809
 20
1554.669888
 30
0.0
 11
843.545578
 21
1554.669888
 31
0.0
  0
ARC
  5
9234
100
AcDbEntity
  8
0
100
AcDbCircle
 10
716.914835
 20
1575.672554
 30
0.0
 40
12.0
100
AcDbArc
 50
90.0
 51
171.614461
  0
POLYLINE
  5
9235
100
AcDbEntity
  8
0
100
AcDb2dPolyline
 66
     1
 10
0.0
 20
0.0
 30
0.0
 70
     1
  0
VERTEX
  5
9B33
100
AcDbEntity
  8
0
100
AcDbVertex
100
AcDb2dVertex
 10
711.195938
 20
1564.184748
 30
0.0
  0
VERTEX
  5
9B34
100
AcDbEntity
  8
0
100
AcDbVertex
100
AcDb2dVertex
 10
705.13376
 20
1574.684748
 30
0.0
  0
VERTEX
  5
9B35
100
AcDbEntity
  8
0
100
AcDbVertex
100
AcDb2dVertex
 10
711.195938
 20
1585.184748
 30
0.0
  0
VERTEX
  5
9B36
100
AcDbEntity
  8
0
100
AcDbVertex
100
AcDb2dVertex
 10
723.320293
 20
1585.184748
 30
0.0
  0
VERTEX
  5
9B37
100
AcDbEntity
  8
0
100
AcDbVertex
100
AcDb2dVertex
 10
729.382471
 20
1574.684748
 30
0.0
  0
VERTEX
  5
9B38
100
AcDbEntity
  8
0
100
AcDbVertex
100
AcDb2dVertex
 10
723.320293
 20
1564.184748
 30
0.0
  0
SEQEND
  5
9B39
100
AcDbEntity
  8
0
  0
CIRCLE
  5
9236
100
AcDbEntity
  8
0
100
AcDbCircle
 10
717.258115
 20
1574.684748
 30
0.0
 40
10.5
  0
LINE
  5
9237
100
AcDbEntity
  8
0
100
AcDbLine
 10
702.721074
 20
1556.701555
 30
0.0
 11
692.545578
 21
1556.701555
 31
0.0
  0
LINE
  5
9238
100
AcDbEntity
  8
0
100
AcDbLine
 10
688.545578
 20
1554.672554
 30
0.0
 11
702.571779
 21
1554.672554
 31
0.0
  0
LINE
  5
9239
100
AcDbEntity
  8
0
100
AcDbLine
 10
692.545578
 20
1556.701555
 30
0.0
 11
692.545578
 21
1554.675221
 31
0.0
  0
LINE
  5
923A
100
AcDbEntity
  8
0
100
AcDbLine
 10
655.045191
 20
1583.672554
 30
0.0
 11
641.045191
 21
1583.672554
 31
0.0
  0
CIRCLE
  5
923B
100
AcDbEntity
  8
0
100
AcDbCircle
 10
799.282502
 20
1574.684748
 30
0.0
 40
10.5
  0
POLYLINE
  5
923C
100
AcDbEntity
  8
0
100
AcDb2dPolyline
 66
     1
 10
0.0
 20
0.0
 30
0.0
 70
     1
  0
VERTEX
  5
9B3A
100
AcDbEntity
  8
0
100
AcDbVertex
100
AcDb2dVertex
 10
805.34468
 20
1564.184748
 30
0.0
  0
VERTEX
  5
9B3B
100
AcDbEntity
  8
0
100
AcDbVertex
100
AcDb2dVertex
 10
811.406858
 20
1574.684748
 30
0.0
  0
VERTEX
  5
9B3C
100
AcDbEntity
  8
0
100
AcDbVertex
100
AcDb2dVertex
 10
805.34468
 20
1585.184748
 30
0.0
  0
VERTEX
  5
9B3D
100
AcDbEntity
  8
0
100
AcDbVertex
100
AcDb2dVertex
 10
793.220324
 20
1585.184748
 30
0.0
  0
VERTEX
  5
9B3E
100
AcDbEntity
  8
0
100
AcDbVertex
100
AcDb2dVertex
 10
787.158146
 20
1574.684748
 30
0.0
  0
VERTEX
  5
9B3F
100
AcDbEntity
  8
0
100
AcDbVertex
100
AcDb2dVertex
 10
793.220324
 20
1564.184748
 30
0.0
  0
SEQEND
  5
9B40
100
AcDbEntity
  8
0
  0
LINE
  5
923D
100
AcDbEntity
  8
0
100
AcDbLine
 10
716.914835
 20
1587.672554
 30
0.0
 11
799.463566
 21
1587.672554
 31
0.0
  0
ARC
  5
923E
100
AcDbEntity
  8
0
100
AcDbCircle
 10
798.756918
 20
1575.672554
 30
0.0
 40
12.0
100
AcDbArc
 50
8.385539
 51
90.0
  0
LINE
  5
923F
100
AcDbEntity
  8
0
100
AcDbLine
 10
839.545578
 20
1556.701555
 30
0.0
 11
839.545578
 21
1554.675221
 31
0.0
  0
LINE
  5
9240
100
AcDbEntity
  8
0
100
AcDbLine
 10
824.545578
 20
1556.701555
 30
0.0
 11
824.545578
 21
1554.675221
 31
0.0
  0
LINE
  5
9241
100
AcDbEntity
  8
0
100
AcDbLine
 10
824.545578
 20
1556.701555
 30
0.0
 11
839.545578
 21
1556.701555
 31
0.0
  0
LINE
  5
9242
100
AcDbEntity
  8
0
100
AcDbLine
 10
877.045191
 20
1583.672554
 30
0.0
 11
891.045191
 21
1583.672554
 31
0.0
  0
ARC
  5
9243
100
AcDbEntity
  8
0
100
AcDbCircle
 10
1820.830479
 20
1533.672554
 30
0.0
 40
300.0
100
AcDbArc
 50
171.614461
 51
188.385539
  0
LINE
  5
9244
100
AcDbEntity
  8
0
100
AcDbLine
 10
1482.335808
 20
1559.567493
 30
0.0
 11
1492.118846
 21
1550.922554
 31
0.0
  0
LINE
  5
9245
100
AcDbEntity
  8
0
100
AcDbLine
 10
1459.335808
 20
1596.172554
 30
0.0
 11
1459.335808
 21
1533.672554
 31
0.0
  0
LINE
  5
9246
100
AcDbEntity
  8
0
100
AcDbLine
 10
1482.335808
 20
1559.567493
 30
0.0
 11
1482.335808
 21
1507.777615
 31
0.0
  0
LINE
  5
9247
100
AcDbEntity
  8
0
100
AcDbLine
 10
1506.833532
 20
1554.672554
 30
0.0
 11
1506.833532
 21
1512.672554
 31
0.0
  0
LINE
  5
9248
100
AcDbEntity
  8
0
100
AcDbLine
 10
1482.335808
 20
1507.777615
 30
0.0
 11
1482.335808
 21
1523.247963
 31
0.0
  0
LINE
  5
9249
100
AcDbEntity
  8
0
100
AcDbLine
 10
1482.32907
 20
1507.777616
 30
0.0
 11
1492.114358
 21
1516.420009
 31
0.0
  0
ARC
  5
924A
100
AcDbEntity
  8
0
100
AcDbCircle
 10
1535.909438
 20
1491.672554
 30
0.0
 40
12.0
100
AcDbArc
 50
188.385539
 51
270.0
  0
LINE
  5
924B
100
AcDbEntity
  8
0
100
AcDbLine
 10
1482.335808
 20
1507.777615
 30
0.0
 11
1477.726461
 21
1507.211659
 31
0.0
  0
ARC
  5
924C
100
AcDbEntity
  8
0
100
AcDbCircle
 10
1478.335808
 20
1502.248928
 30
0.0
 40
5.0
100
AcDbArc
 50
97.0
 51
180.0
  0
LINE
  5
924D
100
AcDbEntity
  8
0
100
AcDbLine
 10
1506.833532
 20
1512.672554
 30
0.0
 11
1521.566382
 21
1512.672554
 31
0.0
  0
LINE
  5
924E
100
AcDbEntity
  8
0
100
AcDbLine
 10
1510.833532
 20
1510.643553
 30
0.0
 11
1510.833532
 21
1512.669888
 31
0.0
  0
LINE
  5
924F
100
AcDbEntity
  8
0
100
AcDbLine
 10
1521.715677
 20
1510.643553
 30
0.0
 11
1510.833532
 21
1510.643553
 31
0.0
  0
LINE
  5
9250
100
AcDbEntity
  8
0
100
AcDbLine
 10
1492.118846
 20
1550.922554
 30
0.0
 11
1492.114358
 21
1516.420009
 31
0.0
  0
ARC
  5
9251
100
AcDbEntity
  8
0
100
AcDbCircle
 10
1517.830479
 20
1533.672554
 30
0.0
 40
6.0
100
AcDbArc
 50
89.149041
 51
270.850959
  0
ARC
  5
9252
100
AcDbEntity
  8
0
100
AcDbCircle
 10
1517.964143
 20
1524.673547
 30
0.0
 40
3.0
100
AcDbArc
 50
1.701917
 51
90.850959
  0
LINE
  5
9253
100
AcDbEntity
  8
0
100
AcDbLine
 10
1506.833854
 20
1516.422554
 30
0.0
 11
1492.114358
 21
1516.422554
 31
0.0
  0
LINE
  5
9254
100
AcDbEntity
  8
0
100
AcDbLine
 10
1506.833211
 20
1550.922554
 30
0.0
 11
1492.118846
 21
1550.922554
 31
0.0
  0
ARC
  5
9255
100
AcDbEntity
  8
0
100
AcDbCircle
 10
1517.964143
 20
1542.671562
 30
0.0
 40
3.0
100
AcDbArc
 50
269.149041
 51
358.298083
  0
ARC
  5
9256
100
AcDbEntity
  8
0
100
AcDbCircle
 10
1478.335808
 20
1565.096181
 30
0.0
 40
5.0
100
AcDbArc
 50
180.0
 51
263.0
  0
LINE
  5
9257
100
AcDbEntity
  8
0
100
AcDbLine
 10
1482.335808
 20
1559.567493
 30
0.0
 11
1477.726461
 21
1560.13345
 31
0.0
  0
LINE
  5
9258
100
AcDbEntity
  8
0
100
AcDbLine
 10
1506.833532
 20
1554.672554
 30
0.0
 11
1521.566382
 21
1554.672554
 31
0.0
  0
LINE
  5
9259
100
AcDbEntity
  8
0
100
AcDbLine
 10
1510.833532
 20
1556.701555
 30
0.0
 11
1510.833532
 21
1554.675221
 31
0.0
  0
LINE
  5
925A
100
AcDbEntity
  8
0
100
AcDbLine
 10
1521.715677
 20
1556.701555
 30
0.0
 11
1510.833532
 21
1556.701555
 31
0.0
  0
ARC
  5
925B
100
AcDbEntity
  8
0
100
AcDbCircle
 10
1535.909438
 20
1575.672554
 30
0.0
 40
12.0
100
AcDbArc
 50
90.0
 51
171.614461
  0
LINE
  5
925C
100
AcDbEntity
  8
0
100
AcDbLine
 10
1459.335808
 20
1596.172554
 30
0.0
 11
1473.335808
 21
1596.172554
 31
0.0
  0
LINE
  5
92D2
100
AcDbEntity
  8
0
100
AcDbLine
 10
1473.335808
 20
1680.883423
 30
0.0
 11
1473.335808
 21
1805.883423
 31
0.0
  0
LINE
  5
92D3
100
AcDbEntity
  8
0
100
AcDbLine
 10
1459.335808
 20
1805.883423
 30
0.0
 11
1459.335808
 21
1743.383423
 31
0.0
  0
LINE
  5
92D4
100
AcDbEntity
  8
0
100
AcDbLine
 10
891.045191
 20
1793.383423
 30
0.0
 11
891.045191
 21
1743.383423
 31
0.0
  0
LINE
  5
92D5
100
AcDbEntity
  8
0
100
AcDbLine
 10
877.045191
 20
1693.383423
 30
0.0
 11
877.045191
 21
1793.383423
 31
0.0
  0
LINE
  5
92D6
100
AcDbEntity
  8
0
100
AcDbLine
 10
641.045191
 20
1793.383423
 30
0.0
 11
641.045191
 21
1743.383423
 31
0.0
  0
LINE
  5
92D7
100
AcDbEntity
  8
0
100
AcDbLine
 10
655.045191
 20
1693.383423
 30
0.0
 11
655.045191
 21
1793.383423
 31
0.0
  0
LINE
  5
92D8
100
AcDbEntity
  8
0
100
AcDbLine
 10
783.547858
 20
1793.380756
 30
0.0
 11
783.547858
 21
1784.380756
 31
0.0
  0
LINE
  5
92D9
100
AcDbEntity
  8
0
100
AcDbLine
 10
763.547858
 20
1793.380756
 30
0.0
 11
763.547858
 21
1784.380756
 31
0.0
  0
LINE
  5
92DA
100
AcDbEntity
  8
0
100
AcDbLine
 10
891.045191
 20
1743.383423
 30
0.0
 11
891.045191
 21
1693.383423
 31
0.0
  0
LINE
  5
92DB
100
AcDbEntity
  8
0
100
AcDbLine
 10
641.045191
 20
1743.383423
 30
0.0
 11
641.045191
 21
1693.383423
 31
0.0
  0
LINE
  5
92DC
100
AcDbEntity
  8
0
100
AcDbLine
 10
816.547858
 20
1717.380756
 30
0.0
 11
816.547858
 21
1702.380756
 31
0.0
  0
LINE
  5
92DD
100
AcDbEntity
  8
0
100
AcDbLine
 10
730.547858
 20
1720.310919
 30
0.0
 11
730.547858
 21
1702.380756
 31
0.0
  0
LINE
  5
92DE
100
AcDbEntity
  8
0
100
AcDbLine
 10
708.235987
 20
1705.564333
 30
0.0
 11
707.164059
 21
1717.816535
 31
0.0
  0
ARC
  5
92DF
100
AcDbEntity
  8
0
100
AcDbCircle
 10
816.895
 20
1687.06128
 30
0.0
 40
3.0
100
AcDbArc
 50
167.754371
 51
243.317411
  0
ARC
  5
92E0
100
AcDbEntity
  8
0
100
AcDbCircle
 10
773.547858
 20
1702.380756
 30
0.0
 40
43.0
100
AcDbArc
 50
340.033601
 51
360.0
  0
LINE
  5
92E1
100
AcDbEntity
  8
0
100
AcDbLine
 10
815.547858
 20
1660.380756
 30
0.0
 11
782.767402
 21
1660.380756
 31
0.0
  0
ARC
  5
92E2
100
AcDbEntity
  8
0
100
AcDbCircle
 10
773.547858
 20
1702.380756
 30
0.0
 40
43.0
100
AcDbArc
 50
290.807612
 51
334.08702
  0
ARC
  5
92E3
100
AcDbEntity
  8
0
100
AcDbCircle
 10
710.88992
 20
1670.844616
 30
0.0
 40
7.021342
100
AcDbArc
 50
157.947305
 51
232.052695
  0
ARC
  5
92E4
100
AcDbEntity
  8
0
100
AcDbCircle
 10
704.473581
 20
1669.125363
 30
0.0
 40
7.021342
100
AcDbArc
 50
337.947305
 51
52.052695
  0
LINE
  5
92E5
100
AcDbEntity
  8
0
100
AcDbLine
 10
737.12205
 20
1674.503157
 30
0.0
 11
712.394235
 21
1667.877359
 31
0.0
  0
LINE
  5
92E6
100
AcDbEntity
  8
0
100
AcDbLine
 10
712.394235
 20
1667.877359
 30
0.0
 11
703.335569
 21
1701.684763
 31
0.0
  0
LINE
  5
92E7
100
AcDbEntity
  8
0
100
AcDbLine
 10
696.119603
 20
1697.680699
 30
0.0
 11
704.142993
 21
1667.736998
 31
0.0
  0
ARC
  5
92E8
100
AcDbEntity
  8
0
100
AcDbCircle
 10
773.547858
 20
1702.380756
 30
0.0
 40
43.0
100
AcDbArc
 50
222.953187
 51
282.380799
  0
LINE
  5
92E9
100
AcDbEntity
  8
0
100
AcDbLine
 10
711.8704
 20
1669.80755
 30
0.0
 11
710.981234
 21
1666.489136
 31
0.0
  0
LINE
  5
92EA
100
AcDbEntity
  8
0
100
AcDbLine
 10
704.142993
 20
1667.736998
 30
0.0
 11
706.572241
 21
1665.30775
 31
0.0
  0
LINE
  5
92EB
100
AcDbEntity
  8
0
100
AcDbLine
 10
706.572241
 20
1665.30775
 30
0.0
 11
710.981234
 21
1666.489136
 31
0.0
  0
ARC
  5
92EC
100
AcDbEntity
  8
0
100
AcDbCircle
 10
686.764129
 20
1679.127126
 30
0.0
 40
21.538712
100
AcDbArc
 50
354.095626
 51
35.904374
  0
LINE
  5
92ED
100
AcDbEntity
  8
0
100
AcDbLine
 10
699.801426
 20
1690.576777
 30
0.0
 11
699.198743
 21
1692.826019
 31
0.0
  0
LINE
  5
92EE
100
AcDbEntity
  8
0
100
AcDbLine
 10
699.801426
 20
1690.576777
 30
0.0
 11
704.210418
 21
1691.758163
 31
0.0
  0
LINE
  5
92EF
100
AcDbEntity
  8
0
100
AcDbLine
 10
708.79126
 20
1674.66223
 30
0.0
 11
708.188577
 21
1676.911472
 31
0.0
  0
LINE
  5
92F0
100
AcDbEntity
  8
0
100
AcDbLine
 10
704.382267
 20
1673.480844
 30
0.0
 11
703.779585
 21
1675.730086
 31
0.0
  0
LINE
  5
92F1
100
AcDbEntity
  8
0
100
AcDbLine
 10
704.382267
 20
1673.480844
 30
0.0
 11
708.79126
 21
1674.66223
 31
0.0
  0
LINE
  5
92F2
100
AcDbEntity
  8
0
100
AcDbLine
 10
703.779585
 20
1675.730086
 30
0.0
 11
708.188577
 21
1676.911472
 31
0.0
  0
ARC
  5
92F3
100
AcDbEntity
  8
0
100
AcDbCircle
 10
721.225874
 20
1688.361123
 30
0.0
 40
21.538712
100
AcDbArc
 50
174.095626
 51
215.904374
  0
LINE
  5
92F4
100
AcDbEntity
  8
0
100
AcDbLine
 10
641.045191
 20
1693.383423
 30
0.0
 11
655.045191
 21
1693.383423
 31
0.0
  0
LINE
  5
92F5
100
AcDbEntity
  8
0
100
AcDbLine
 10
706.02386
 20
1702.405089
 30
0.0
 11
703.335569
 21
1701.684763
 31
0.0
  0
ARC
  5
92F6
100
AcDbEntity
  8
0
100
AcDbCircle
 10
705.247403
 20
1705.302866
 30
0.0
 40
3.0
100
AcDbArc
 50
285.0
 51
5.0
  0
LINE
  5
92F7
100
AcDbEntity
  8
0
100
AcDbLine
 10
703.84701
 20
1699.751251
 30
0.0
 11
701.417762
 21
1702.180499
 31
0.0
  0
LINE
  5
92F8
100
AcDbEntity
  8
0
100
AcDbLine
 10
704.297596
 20
1701.942538
 30
0.0
 11
705.064863
 21
1702.148126
 31
0.0
  0
LINE
  5
92F9
100
AcDbEntity
  8
0
100
AcDbLine
 10
704.210418
 20
1691.758163
 30
0.0
 11
703.607736
 21
1694.007405
 31
0.0
  0
ARC
  5
92FA
100
AcDbEntity
  8
0
100
AcDbCircle
 10
697.100083
 20
1696.643633
 30
0.0
 40
7.021342
100
AcDbArc
 50
337.947305
 51
52.052695
  0
LINE
  5
92FB
100
AcDbEntity
  8
0
100
AcDbLine
 10
696.119603
 20
1697.680699
 30
0.0
 11
697.008769
 21
1700.999113
 31
0.0
  0
ARC
  5
92FC
100
AcDbEntity
  8
0
100
AcDbCircle
 10
703.516422
 20
1698.362886
 30
0.0
 40
7.021342
100
AcDbArc
 50
157.947305
 51
232.052695
  0
LINE
  5
92FD
100
AcDbEntity
  8
0
100
AcDbLine
 10
699.198743
 20
1692.826019
 30
0.0
 11
703.607736
 21
1694.007405
 31
0.0
  0
LINE
  5
92FE
100
AcDbEntity
  8
0
100
AcDbLine
 10
697.008769
 20
1700.999113
 30
0.0
 11
701.417762
 21
1702.180499
 31
0.0
  0
ARC
  5
92FF
100
AcDbEntity
  8
0
100
AcDbCircle
 10
773.547858
 20
1702.380756
 30
0.0
 40
43.0
100
AcDbArc
 50
180.0
 51
199.966399
  0
ARC
  5
9300
100
AcDbEntity
  8
0
100
AcDbCircle
 10
738.416145
 20
1669.673528
 30
0.0
 40
5.0
100
AcDbArc
 50
42.953187
 51
105.0
  0
LINE
  5
9304
100
AcDbEntity
  8
0
100
AcDbLine
 10
815.547858
 20
1684.380756
 30
0.0
 11
815.547858
 21
1660.380756
 31
0.0
  0
LINE
  5
9316
100
AcDbEntity
  8
0
100
AcDbLine
 10
891.045191
 20
1693.383423
 30
0.0
 11
877.045191
 21
1693.383423
 31
0.0
  0
ARC
  5
9317
100
AcDbEntity
  8
0
100
AcDbCircle
 10
814.741518
 20
1766.31226
 30
0.0
 40
21.571502
100
AcDbArc
 50
73.680185
 51
106.319815
  0
LINE
  5
9318
100
AcDbEntity
  8
0
100
AcDbLine
 10
804.550831
 20
1788.130756
 30
0.0
 11
824.933081
 21
1788.130756
 31
0.0
  0
LINE
  5
9319
100
AcDbEntity
  8
0
100
AcDbLine
 10
829.547858
 20
1752.380756
 30
0.0
 11
717.547858
 21
1752.380756
 31
0.0
  0
LINE
  5
931A
100
AcDbEntity
  8
0
100
AcDbLine
 10
838.547858
 20
1766.380756
 30
0.0
 11
717.547858
 21
1766.380756
 31
0.0
  0
LINE
  5
931B
100
AcDbEntity
  8
0
100
AcDbLine
 10
829.547858
 20
1779.380756
 30
0.0
 11
717.547858
 21
1779.380756
 31
0.0
  0
LINE
  5
931C
100
AcDbEntity
  8
0
100
AcDbLine
 10
843.547858
 20
1722.380756
 30
0.0
 11
733.555552
 21
1722.380756
 31
0.0
  0
LINE
  5
931D
100
AcDbEntity
  8
0
100
AcDbLine
 10
682.518525
 20
1729.783423
 30
0.0
 11
682.518525
 21
1756.983423
 31
0.0
  0
LINE
  5
931E
100
AcDbEntity
  8
0
100
AcDbLine
 10
659.045191
 20
1756.983423
 30
0.0
 11
659.045191
 21
1729.783423
 31
0.0
  0
LINE
  5
931F
100
AcDbEntity
  8
0
100
AcDbLine
 10
707.547858
 20
1752.380756
 30
0.0
 11
707.547858
 21
1734.380756
 31
0.0
  0
LINE
  5
9320
100
AcDbEntity
  8
0
100
AcDbLine
 10
688.547858
 20
1764.380756
 30
0.0
 11
688.547858
 21
1743.380756
 31
0.0
  0
LINE
  5
9321
100
AcDbEntity
  8
0
100
AcDbLine
 10
692.547858
 20
1752.380756
 30
0.0
 11
692.547858
 21
1734.380756
 31
0.0
  0
LINE
  5
9322
100
AcDbEntity
  8
0
100
AcDbLine
 10
688.547858
 20
1743.380756
 30
0.0
 11
688.547858
 21
1722.380756
 31
0.0
  0
LINE
  5
9323
100
AcDbEntity
  8
0
100
AcDbLine
 10
659.045191
 20
1729.783423
 30
0.0
 11
682.518525
 21
1729.783423
 31
0.0
  0
LINE
  5
9324
100
AcDbEntity
  8
0
100
AcDbLine
 10
655.045191
 20
1725.783423
 30
0.0
 11
659.045191
 21
1729.783423
 31
0.0
  0
LINE
  5
9325
100
AcDbEntity
  8
0
100
AcDbLine
 10
659.045191
 20
1729.783423
 30
0.0
 11
655.045191
 21
1725.783423
 31
0.0
  0
LINE
  5
9326
100
AcDbEntity
  8
0
100
AcDbLine
 10
682.518525
 20
1729.783423
 30
0.0
 11
688.545191
 21
1730.203423
 31
0.0
  0
ARC
  5
9327
100
AcDbEntity
  8
0
100
AcDbCircle
 10
702.183085
 20
1717.380756
 30
0.0
 40
5.0
100
AcDbArc
 50
5.0
 51
90.0
  0
LINE
  5
9328
100
AcDbEntity
  8
0
100
AcDbLine
 10
702.183085
 20
1722.380756
 30
0.0
 11
688.547858
 21
1722.380756
 31
0.0
  0
LINE
  5
9329
100
AcDbEntity
  8
0
100
AcDbLine
 10
692.547858
 20
1734.380756
 30
0.0
 11
707.547858
 21
1734.380756
 31
0.0
  0
ARC
  5
932A
100
AcDbEntity
  8
0
100
AcDbCircle
 10
670.797982
 20
1739.316422
 30
0.0
 40
57.671059
100
AcDbArc
 50
348.491501
 51
5.94432
  0
ARC
  5
932B
100
AcDbEntity
  8
0
100
AcDbCircle
 10
727.547858
 20
1720.310919
 30
0.0
 40
3.0
100
AcDbArc
 50
0.0
 51
54.362954
  0
ARC
  5
932C
100
AcDbEntity
  8
0
100
AcDbCircle
 10
732.209047
 20
1726.812713
 30
0.0
 40
5.0
100
AcDbArc
 50
168.491501
 51
234.362954
  0
LINE
  5
932D
100
AcDbEntity
  8
0
100
AcDbLine
 10
717.547858
 20
1764.380756
 30
0.0
 11
688.547858
 21
1764.380756
 31
0.0
  0
LINE
  5
932E
100
AcDbEntity
  8
0
100
AcDbLine
 10
682.518525
 20
1756.983423
 30
0.0
 11
659.045191
 21
1756.983423
 31
0.0
  0
LINE
  5
932F
100
AcDbEntity
  8
0
100
AcDbLine
 10
659.045191
 20
1756.983423
 30
0.0
 11
655.045191
 21
1760.983423
 31
0.0
  0
LINE
  5
9330
100
AcDbEntity
  8
0
100
AcDbLine
 10
659.045191
 20
1756.983423
 30
0.0
 11
655.045191
 21
1760.983423
 31
0.0
  0
LINE
  5
9331
100
AcDbEntity
  8
0
100
AcDbLine
 10
688.545191
 20
1756.563423
 30
0.0
 11
682.518525
 21
1756.983423
 31
0.0
  0
LINE
  5
9332
100
AcDbEntity
  8
0
100
AcDbLine
 10
692.547858
 20
1752.380756
 30
0.0
 11
707.547858
 21
1752.380756
 31
0.0
  0
LINE
  5
9333
100
AcDbEntity
  8
0
100
AcDbLine
 10
717.547858
 20
1779.380756
 30
0.0
 11
717.547858
 21
1766.380756
 31
0.0
  0
LINE
  5
9334
100
AcDbEntity
  8
0
100
AcDbLine
 10
717.547858
 20
1766.380756
 30
0.0
 11
717.547858
 21
1752.380756
 31
0.0
  0
LINE
  5
9335
100
AcDbEntity
  8
0
100
AcDbLine
 10
802.617956
 20
1784.380756
 30
0.0
 11
744.750816
 21
1784.380756
 31
0.0
  0
ARC
  5
9336
100
AcDbEntity
  8
0
100
AcDbCircle
 10
741.719379
 20
1782.163384
 30
0.0
 40
5.720487
100
AcDbArc
 50
57.999511
 51
122.000489
  0
ARC
  5
9337
100
AcDbEntity
  8
0
100
AcDbCircle
 10
732.626379
 20
1766.31226
 30
0.0
 40
21.571502
100
AcDbArc
 50
73.680185
 51
106.319815
  0
LINE
  5
9338
100
AcDbEntity
  8
0
100
AcDbLine
 10
738.687941
 20
1787.014606
 30
0.0
 11
738.687941
 21
1779.380756
 31
0.0
  0
LINE
  5
9339
100
AcDbEntity
  8
0
100
AcDbLine
 10
726.564816
 20
1787.014606
 30
0.0
 11
726.564816
 21
1779.380756
 31
0.0
  0
LINE
  5
933A
100
AcDbEntity
  8
0
100
AcDbLine
 10
742.817941
 20
1788.130756
 30
0.0
 11
744.750816
 21
1787.014606
 31
0.0
  0
LINE
  5
933B
100
AcDbEntity
  8
0
100
AcDbLine
 10
744.750816
 20
1787.014606
 30
0.0
 11
744.750816
 21
1779.380756
 31
0.0
  0
LINE
  5
933C
100
AcDbEntity
  8
0
100
AcDbLine
 10
720.502816
 20
1787.014606
 30
0.0
 11
722.435691
 21
1788.130756
 31
0.0
  0
LINE
  5
933D
100
AcDbEntity
  8
0
100
AcDbLine
 10
720.502816
 20
1779.380756
 30
0.0
 11
720.502816
 21
1787.014606
 31
0.0
  0
LINE
  5
933E
100
AcDbEntity
  8
0
100
AcDbLine
 10
722.435691
 20
1788.130756
 30
0.0
 11
742.817941
 21
1788.130756
 31
0.0
  0
ARC
  5
933F
100
AcDbEntity
  8
0
100
AcDbCircle
 10
723.533379
 20
1782.163364
 30
0.0
 40
5.720504
100
AcDbArc
 50
57.999617
 51
122.000383
  0
ARC
  5
9340
100
AcDbEntity
  8
0
100
AcDbCircle
 10
805.648518
 20
1782.163364
 30
0.0
 40
5.720504
100
AcDbArc
 50
57.999617
 51
122.000383
  0
LINE
  5
9341
100
AcDbEntity
  8
0
100
AcDbLine
 10
808.679956
 20
1787.014606
 30
0.0
 11
808.679956
 21
1779.380756
 31
0.0
  0
LINE
  5
9342
100
AcDbEntity
  8
0
100
AcDbLine
 10
802.617956
 20
1787.014606
 30
0.0
 11
804.550831
 21
1788.130756
 31
0.0
  0
LINE
  5
9343
100
AcDbEntity
  8
0
100
AcDbLine
 10
802.617956
 20
1779.380756
 30
0.0
 11
802.617956
 21
1787.014606
 31
0.0
  0
LINE
  5
9344
100
AcDbEntity
  8
0
100
AcDbLine
 10
873.045191
 20
1756.983423
 30
0.0
 11
873.045191
 21
1729.783423
 31
0.0
  0
LINE
  5
9345
100
AcDbEntity
  8
0
100
AcDbLine
 10
849.571858
 20
1729.783423
 30
0.0
 11
849.571858
 21
1756.983423
 31
0.0
  0
LINE
  5
9346
100
AcDbEntity
  8
0
100
AcDbLine
 10
839.547858
 20
1752.380756
 30
0.0
 11
839.547858
 21
1734.380756
 31
0.0
  0
LINE
  5
9347
100
AcDbEntity
  8
0
100
AcDbLine
 10
824.547858
 20
1752.380756
 30
0.0
 11
824.547858
 21
1734.380756
 31
0.0
  0
LINE
  5
9348
100
AcDbEntity
  8
0
100
AcDbLine
 10
843.547858
 20
1764.380756
 30
0.0
 11
843.547467
 21
1743.380756
 31
0.0
  0
LINE
  5
9349
100
AcDbEntity
  8
0
100
AcDbLine
 10
843.547467
 20
1743.380756
 30
0.0
 11
843.547076
 21
1722.380756
 31
0.0
  0
LINE
  5
934A
100
AcDbEntity
  8
0
100
AcDbLine
 10
873.045191
 20
1729.783423
 30
0.0
 11
849.571858
 21
1729.783423
 31
0.0
  0
LINE
  5
934B
100
AcDbEntity
  8
0
100
AcDbLine
 10
849.571858
 20
1729.783423
 30
0.0
 11
843.545191
 21
1730.203423
 31
0.0
  0
ARC
  5
934C
100
AcDbEntity
  8
0
100
AcDbCircle
 10
821.547858
 20
1717.380756
 30
0.0
 40
5.0
100
AcDbArc
 50
90.0
 51
180.0
  0
LINE
  5
934D
100
AcDbEntity
  8
0
100
AcDbLine
 10
873.045191
 20
1729.783423
 30
0.0
 11
877.045191
 21
1725.783423
 31
0.0
  0
LINE
  5
934E
100
AcDbEntity
  8
0
100
AcDbLine
 10
877.045191
 20
1725.783423
 30
0.0
 11
873.045191
 21
1729.783423
 31
0.0
  0
LINE
  5
934F
100
AcDbEntity
  8
0
100
AcDbLine
 10
824.547858
 20
1734.380756
 30
0.0
 11
839.547858
 21
1734.380756
 31
0.0
  0
LINE
  5
9350
100
AcDbEntity
  8
0
100
AcDbLine
 10
829.547858
 20
1779.380756
 30
0.0
 11
829.547858
 21
1766.380756
 31
0.0
  0
LINE
  5
9351
100
AcDbEntity
  8
0
100
AcDbLine
 10
849.571858
 20
1756.983423
 30
0.0
 11
873.045191
 21
1756.983423
 31
0.0
  0
LINE
  5
9352
100
AcDbEntity
  8
0
100
AcDbLine
 10
838.547858
 20
1766.380756
 30
0.0
 11
838.547858
 21
1764.380756
 31
0.0
  0
LINE
  5
9353
100
AcDbEntity
  8
0
100
AcDbLine
 10
843.545191
 20
1756.563423
 30
0.0
 11
849.571858
 21
1756.983423
 31
0.0
  0
LINE
  5
9354
100
AcDbEntity
  8
0
100
AcDbLine
 10
843.547858
 20
1764.380756
 30
0.0
 11
829.547858
 21
1764.380756
 31
0.0
  0
LINE
  5
9355
100
AcDbEntity
  8
0
100
AcDbLine
 10
824.547858
 20
1752.380756
 30
0.0
 11
839.547858
 21
1752.380756
 31
0.0
  0
LINE
  5
9356
100
AcDbEntity
  8
0
100
AcDbLine
 10
829.547858
 20
1766.380756
 30
0.0
 11
829.547858
 21
1752.380756
 31
0.0
  0
LINE
  5
9357
100
AcDbEntity
  8
0
100
AcDbLine
 10
873.045191
 20
1756.983423
 30
0.0
 11
877.045191
 21
1760.983423
 31
0.0
  0
LINE
  5
9358
100
AcDbEntity
  8
0
100
AcDbLine
 10
873.045191
 20
1756.983423
 30
0.0
 11
877.045191
 21
1760.983423
 31
0.0
  0
LINE
  5
9359
100
AcDbEntity
  8
0
100
AcDbLine
 10
824.933081
 20
1788.130756
 30
0.0
 11
826.865956
 21
1787.014606
 31
0.0
  0
LINE
  5
935A
100
AcDbEntity
  8
0
100
AcDbLine
 10
826.865956
 20
1787.014606
 30
0.0
 11
826.865956
 21
1779.380756
 31
0.0
  0
LINE
  5
935B
100
AcDbEntity
  8
0
100
AcDbLine
 10
820.803081
 20
1787.014606
 30
0.0
 11
820.803081
 21
1779.380756
 31
0.0
  0
ARC
  5
935C
100
AcDbEntity
  8
0
100
AcDbCircle
 10
823.834518
 20
1782.163384
 30
0.0
 40
5.720487
100
AcDbArc
 50
57.999511
 51
122.000489
  0
LINE
  5
935D
100
AcDbEntity
  8
0
100
AcDbLine
 10
1459.335808
 20
1743.383423
 30
0.0
 11
1459.335808
 21
1680.883423
 31
0.0
  0
LINE
  5
935E
100
AcDbEntity
  8
0
100
AcDbLine
 10
1526.526604
 20
1705.564333
 30
0.0
 11
1525.454675
 21
1717.816535
 31
0.0
  0
ARC
  5
935F
100
AcDbEntity
  8
0
100
AcDbCircle
 10
1529.180537
 20
1670.844616
 30
0.0
 40
7.021342
100
AcDbArc
 50
157.947305
 51
232.052695
  0
ARC
  5
9360
100
AcDbEntity
  8
0
100
AcDbCircle
 10
1522.764197
 20
1669.125363
 30
0.0
 40
7.021342
100
AcDbArc
 50
337.947305
 51
52.052695
  0
LINE
  5
9361
100
AcDbEntity
  8
0
100
AcDbLine
 10
1530.684852
 20
1667.877359
 30
0.0
 11
1521.626185
 21
1701.684763
 31
0.0
  0
LINE
  5
9362
100
AcDbEntity
  8
0
100
AcDbLine
 10
1514.41022
 20
1697.680699
 30
0.0
 11
1522.43361
 21
1667.736998
 31
0.0
  0
LINE
  5
9363
100
AcDbEntity
  8
0
100
AcDbLine
 10
1524.862858
 20
1665.30775
 30
0.0
 11
1529.27185
 21
1666.489136
 31
0.0
  0
LINE
  5
9364
100
AcDbEntity
  8
0
100
AcDbLine
 10
1522.43361
 20
1667.736998
 30
0.0
 11
1524.862858
 21
1665.30775
 31
0.0
  0
LINE
  5
9365
100
AcDbEntity
  8
0
100
AcDbLine
 10
1530.161017
 20
1669.80755
 30
0.0
 11
1529.27185
 21
1666.489136
 31
0.0
  0
ARC
  5
9366
100
AcDbEntity
  8
0
100
AcDbCircle
 10
1505.054745
 20
1679.127126
 30
0.0
 40
21.538712
100
AcDbArc
 50
354.095626
 51
35.904374
  0
LINE
  5
9367
100
AcDbEntity
  8
0
100
AcDbLine
 10
1518.092042
 20
1690.576777
 30
0.0
 11
1522.501035
 21
1691.758163
 31
0.0
  0
LINE
  5
9368
100
AcDbEntity
  8
0
100
AcDbLine
 10
1518.092042
 20
1690.576777
 30
0.0
 11
1517.48936
 21
1692.826019
 31
0.0
  0
LINE
  5
9369
100
AcDbEntity
  8
0
100
AcDbLine
 10
1459.335808
 20
1680.883423
 30
0.0
 11
1473.335808
 21
1680.883423
 31
0.0
  0
LINE
  5
936A
100
AcDbEntity
  8
0
100
AcDbLine
 10
1522.070201
 20
1675.730086
 30
0.0
 11
1526.479194
 21
1676.911472
 31
0.0
  0
LINE
  5
936B
100
AcDbEntity
  8
0
100
AcDbLine
 10
1522.672884
 20
1673.480844
 30
0.0
 11
1527.081877
 21
1674.66223
 31
0.0
  0
ARC
  5
936C
100
AcDbEntity
  8
0
100
AcDbCircle
 10
1539.516491
 20
1688.361123
 30
0.0
 40
21.538712
100
AcDbArc
 50
174.095626
 51
215.904374
  0
LINE
  5
936D
100
AcDbEntity
  8
0
100
AcDbLine
 10
1522.672884
 20
1673.480844
 30
0.0
 11
1522.070201
 21
1675.730086
 31
0.0
  0
LINE
  5
936E
100
AcDbEntity
  8
0
100
AcDbLine
 10
1527.081877
 20
1674.66223
 30
0.0
 11
1526.479194
 21
1676.911472
 31
0.0
  0
ARC
  5
936F
100
AcDbEntity
  8
0
100
AcDbCircle
 10
1523.53802
 20
1705.302866
 30
0.0
 40
3.0
100
AcDbArc
 50
285.0
 51
5.0
  0
LINE
  5
9370
100
AcDbEntity
  8
0
100
AcDbLine
 10
1524.314477
 20
1702.405089
 30
0.0
 11
1521.626185
 21
1701.684763
 31
0.0
  0
LINE
  5
9371
100
AcDbEntity
  8
0
100
AcDbLine
 10
1522.588213
 20
1701.942538
 30
0.0
 11
1523.35548
 21
1702.148126
 31
0.0
  0
LINE
  5
9372
100
AcDbEntity
  8
0
100
AcDbLine
 10
1515.299386
 20
1700.999113
 30
0.0
 11
1519.708379
 21
1702.180499
 31
0.0
  0
LINE
  5
9373
100
AcDbEntity
  8
0
100
AcDbLine
 10
1522.137626
 20
1699.751251
 30
0.0
 11
1519.708379
 21
1702.180499
 31
0.0
  0
LINE
  5
9374
100
AcDbEntity
  8
0
100
AcDbLine
 10
1514.41022
 20
1697.680699
 30
0.0
 11
1515.299386
 21
1700.999113
 31
0.0
  0
LINE
  5
9375
100
AcDbEntity
  8
0
100
AcDbLine
 10
1517.48936
 20
1692.826019
 30
0.0
 11
1521.898352
 21
1694.007405
 31
0.0
  0
LINE
  5
9376
100
AcDbEntity
  8
0
100
AcDbLine
 10
1522.501035
 20
1691.758163
 30
0.0
 11
1521.898352
 21
1694.007405
 31
0.0
  0
ARC
  5
9377
100
AcDbEntity
  8
0
100
AcDbCircle
 10
1515.3907
 20
1696.643633
 30
0.0
 40
7.021342
100
AcDbArc
 50
337.947305
 51
52.052695
  0
ARC
  5
9378
100
AcDbEntity
  8
0
100
AcDbCircle
 10
1521.807039
 20
1698.362886
 30
0.0
 40
7.021342
100
AcDbArc
 50
157.947305
 51
232.052695
  0
LINE
  5
9379
100
AcDbEntity
  8
0
100
AcDbLine
 10
1482.335808
 20
1769.278362
 30
0.0
 11
1482.335808
 21
1717.488484
 31
0.0
  0
LINE
  5
937A
100
AcDbEntity
  8
0
100
AcDbLine
 10
1492.118846
 20
1760.633423
 30
0.0
 11
1492.114358
 21
1726.130878
 31
0.0
  0
LINE
  5
937B
100
AcDbEntity
  8
0
100
AcDbLine
 10
1525.838475
 20
1752.380756
 30
0.0
 11
1525.838475
 21
1734.380756
 31
0.0
  0
LINE
  5
937C
100
AcDbEntity
  8
0
100
AcDbLine
 10
1510.838475
 20
1752.380756
 30
0.0
 11
1510.838475
 21
1734.380756
 31
0.0
  0
LINE
  5
937D
100
AcDbEntity
  8
0
100
AcDbLine
 10
1506.838475
 20
1764.380756
 30
0.0
 11
1506.838475
 21
1743.380756
 31
0.0
  0
LINE
  5
937E
100
AcDbEntity
  8
0
100
AcDbLine
 10
1482.335808
 20
1717.488484
 30
0.0
 11
1482.335808
 21
1732.958832
 31
0.0
  0
LINE
  5
937F
100
AcDbEntity
  8
0
100
AcDbLine
 10
1506.838475
 20
1743.380756
 30
0.0
 11
1506.838475
 21
1722.380756
 31
0.0
  0
LINE
  5
9380
100
AcDbEntity
  8
0
100
AcDbLine
 10
1482.32907
 20
1717.488485
 30
0.0
 11
1492.114358
 21
1726.130878
 31
0.0
  0
LINE
  5
9381
100
AcDbEntity
  8
0
100
AcDbLine
 10
1482.335808
 20
1717.488484
 30
0.0
 11
1477.726461
 21
1716.922527
 31
0.0
  0
ARC
  5
9382
100
AcDbEntity
  8
0
100
AcDbCircle
 10
1478.335808
 20
1711.959797
 30
0.0
 40
5.0
100
AcDbArc
 50
97.0
 51
180.0
  0
ARC
  5
9383
100
AcDbEntity
  8
0
100
AcDbCircle
 10
1520.473702
 20
1717.380756
 30
0.0
 40
5.0
100
AcDbArc
 50
5.0
 51
90.0
  0
LINE
  5
9384
100
AcDbEntity
  8
0
100
AcDbLine
 10
1506.838475
 20
1726.133423
 30
0.0
 11
1492.114358
 21
1726.133423
 31
0.0
  0
LINE
  5
9385
100
AcDbEntity
  8
0
100
AcDbLine
 10
1520.473702
 20
1722.380756
 30
0.0
 11
1506.838475
 21
1722.380756
 31
0.0
  0
LINE
  5
9386
100
AcDbEntity
  8
0
100
AcDbLine
 10
1510.838475
 20
1734.380756
 30
0.0
 11
1525.838475
 21
1734.380756
 31
0.0
  0
ARC
  5
9387
100
AcDbEntity
  8
0
100
AcDbCircle
 10
1478.335808
 20
1774.807049
 30
0.0
 40
5.0
100
AcDbArc
 50
180.0
 51
263.0
  0
LINE
  5
9388
100
AcDbEntity
  8
0
100
AcDbLine
 10
1535.838475
 20
1779.380756
 30
0.0
 11
1535.838475
 21
1766.380756
 31
0.0
  0
LINE
  5
9389
100
AcDbEntity
  8
0
100
AcDbLine
 10
1482.335808
 20
1769.278362
 30
0.0
 11
1492.118846
 21
1760.633423
 31
0.0
  0
LINE
  5
938A
100
AcDbEntity
  8
0
100
AcDbLine
 10
1482.335808
 20
1769.278362
 30
0.0
 11
1477.726461
 21
1769.844318
 31
0.0
  0
LINE
  5
938B
100
AcDbEntity
  8
0
100
AcDbLine
 10
1535.838475
 20
1766.380756
 30
0.0
 11
1535.838475
 21
1752.380756
 31
0.0
  0
LINE
  5
938C
100
AcDbEntity
  8
0
100
AcDbLine
 10
1510.838475
 20
1752.380756
 30
0.0
 11
1525.838475
 21
1752.380756
 31
0.0
  0
LINE
  5
938D
100
AcDbEntity
  8
0
100
AcDbLine
 10
1506.837832
 20
1760.633423
 30
0.0
 11
1492.118846
 21
1760.633423
 31
0.0
  0
LINE
  5
938E
100
AcDbEntity
  8
0
100
AcDbLine
 10
1535.838475
 20
1764.380756
 30
0.0
 11
1506.838475
 21
1764.380756
 31
0.0
  0
LINE
  5
938F
100
AcDbEntity
  8
0
100
AcDbLine
 10
1538.793433
 20
1779.380756
 30
0.0
 11
1538.793433
 21
1787.014606
 31
0.0
  0
LINE
  5
9390
100
AcDbEntity
  8
0
100
AcDbLine
 10
655.045191
 20
1793.383423
 30
0.0
 11
641.045191
 21
1793.383423
 31
0.0
  0
LINE
  5
9391
100
AcDbEntity
  8
0
100
AcDbLine
 10
782.047858
 20
1804.803406
 30
0.0
 11
781.047858
 21
1805.380756
 31
0.0
  0
LINE
  5
9392
100
AcDbEntity
  8
0
100
AcDbLine
 10
765.047858
 20
1804.803406
 30
0.0
 11
766.047858
 21
1805.380756
 31
0.0
  0
LINE
  5
9393
100
AcDbEntity
  8
0
100
AcDbLine
 10
781.047858
 20
1805.380756
 30
0.0
 11
766.047858
 21
1805.380756
 31
0.0
  0
LINE
  5
9394
100
AcDbEntity
  8
0
100
AcDbLine
 10
783.547858
 20
1793.380756
 30
0.0
 11
763.547858
 21
1793.380756
 31
0.0
  0
LINE
  5
9395
100
AcDbEntity
  8
0
100
AcDbLine
 10
765.047858
 20
1804.803406
 30
0.0
 11
765.047858
 21
1793.380756
 31
0.0
  0
LINE
  5
9396
100
AcDbEntity
  8
0
100
AcDbLine
 10
782.047858
 20
1804.803406
 30
0.0
 11
782.047858
 21
1793.380756
 31
0.0
  0
LINE
  5
9397
100
AcDbEntity
  8
0
100
AcDbLine
 10
877.045191
 20
1793.383423
 30
0.0
 11
891.045191
 21
1793.383423
 31
0.0
  0
LINE
  5
9398
100
AcDbEntity
  8
0
100
AcDbLine
 10
1459.335808
 20
1805.883423
 30
0.0
 11
1473.335808
 21
1805.883423
 31
0.0
  0
CIRCLE
  5
9399
100
AcDbEntity
  8
0
100
AcDbCircle
 10
1615.241075
 20
475.483525
 30
0.0
 40
77.5
  0
CIRCLE
  5
939A
100
AcDbEntity
  8
0
100
AcDbCircle
 10
2227.380245
 20
475.483525
 30
0.0
 40
77.5
  0
LINE
  5
939B
100
AcDbEntity
  8
0
100
AcDbLine
 10
2063.007242
 20
397.983525
 30
0.0
 11
2063.007242
 21
475.483525
 31
0.0
  0
LINE
  5
939C
100
AcDbEntity
  8
0
100
AcDbLine
 10
2043.007242
 20
397.983525
 30
0.0
 11
2043.007242
 21
552.983525
 31
0.0
  0
LINE
  5
939D
100
AcDbEntity
  8
0
100
AcDbLine
 10
1798.007242
 20
397.983525
 30
0.0
 11
1798.007242
 21
475.483525
 31
0.0
  0
LINE
  5
939E
100
AcDbEntity
  8
0
100
AcDbLine
 10
1818.007242
 20
397.983525
 30
0.0
 11
1818.007242
 21
552.983525
 31
0.0
  0
LINE
  5
939F
100
AcDbEntity
  8
0
100
AcDbLine
 10
1963.007242
 20
440.483525
 30
0.0
 11
1963.007242
 21
490.483525
 31
0.0
  0
LINE
  5
93A0
100
AcDbEntity
  8
0
100
AcDbLine
 10
1877.007242
 20
490.483525
 30
0.0
 11
1877.007242
 21
399.483525
 31
0.0
  0
CIRCLE
  5
93A1
100
AcDbEntity
  8
0
100
AcDbCircle
 10
702.834702
 20
475.483525
 30
0.0
 40
70.0
  0
LINE
  5
93A2
100
AcDbEntity
  8
0
100
AcDbLine
 10
1113.387389
 20
405.483525
 30
0.0
 11
1113.387389
 21
545.483525
 31
0.0
  0
LINE
  5
93A3
100
AcDbEntity
  8
0
100
AcDbLine
 10
1133.387389
 20
475.483525
 30
0.0
 11
1133.387389
 21
405.483525
 31
0.0
  0
LINE
  5
93A4
100
AcDbEntity
  8
0
100
AcDbLine
 10
873.387389
 20
475.483525
 30
0.0
 11
873.387389
 21
405.483525
 31
0.0
  0
LINE
  5
93A5
100
AcDbEntity
  8
0
100
AcDbLine
 10
893.387389
 20
405.483525
 30
0.0
 11
893.387389
 21
545.483525
 31
0.0
  0
CIRCLE
  5
93A6
100
AcDbEntity
  8
0
100
AcDbCircle
 10
1274.75959
 20
475.483525
 30
0.0
 40
70.0
  0
LINE
  5
93A7
100
AcDbEntity
  8
0
100
AcDbLine
 10
1036.500989
 20
443.483525
 30
0.0
 11
1036.500989
 21
481.483525
 31
0.0
  0
LINE
  5
93A8
100
AcDbEntity
  8
0
100
AcDbLine
 10
950.500989
 20
481.483525
 30
0.0
 11
950.500989
 21
402.483525
 31
0.0
  0
CIRCLE
  5
93A9
100
AcDbEntity
  8
0
100
AcDbCircle
 10
2143.936652
 20
1325.379449
 30
0.0
 40
67.5
  0
LINE
  5
93AA
100
AcDbEntity
  8
0
100
AcDbLine
 10
2559.201068
 20
1325.379449
 30
0.0
 11
2559.201068
 21
1257.879449
 31
0.0
  0
LINE
  5
93AB
100
AcDbEntity
  8
0
100
AcDbLine
 10
2539.201068
 20
1257.879449
 30
0.0
 11
2539.201068
 21
1392.879449
 31
0.0
  0
LINE
  5
93AC
100
AcDbEntity
  8
0
100
AcDbLine
 10
2314.201068
 20
1325.379449
 30
0.0
 11
2314.201068
 21
1257.879449
 31
0.0
  0
LINE
  5
93AD
100
AcDbEntity
  8
0
100
AcDbLine
 10
2334.201068
 20
1257.879449
 30
0.0
 11
2334.201068
 21
1392.879449
 31
0.0
  0
CIRCLE
  5
93AE
100
AcDbEntity
  8
0
100
AcDbCircle
 10
2689.497676
 20
1325.379449
 30
0.0
 40
67.5
  0
LINE
  5
93AF
100
AcDbEntity
  8
0
100
AcDbLine
 10
2472.201068
 20
1294.379449
 30
0.0
 11
2472.201068
 21
1334.379449
 31
0.0
  0
LINE
  5
93B0
100
AcDbEntity
  8
0
100
AcDbLine
 10
2386.201068
 20
1294.379449
 30
0.0
 11
2386.201068
 21
1334.379449
 31
0.0
  0
CIRCLE
  5
93B1
100
AcDbEntity
  8
0
100
AcDbCircle
 10
1851.283029
 20
1322.815424
 30
0.0
 40
62.5
  0
LINE
  5
93B2
100
AcDbEntity
  8
0
100
AcDbLine
 10
1676.55277
 20
1340.065424
 30
0.0
 11
1676.557258
 21
1305.562879
 31
0.0
  0
LINE
  5
93B3
100
AcDbEntity
  8
0
100
AcDbLine
 10
1709.335808
 20
1322.815424
 30
0.0
 11
1709.335808
 21
1260.315424
 31
0.0
  0
LINE
  5
93B4
100
AcDbEntity
  8
0
100
AcDbLine
 10
1695.335808
 20
1260.315424
 30
0.0
 11
1695.335808
 21
1385.315424
 31
0.0
  0
LINE
  5
93B5
100
AcDbEntity
  8
0
100
AcDbLine
 10
1686.335808
 20
1348.710363
 30
0.0
 11
1686.335808
 21
1296.920485
 31
0.0
  0
LINE
  5
93B6
100
AcDbEntity
  8
0
100
AcDbLine
 10
1661.833141
 20
1322.812757
 30
0.0
 11
1661.833141
 21
1301.812757
 31
0.0
  0
ARC
  5
93B7
100
AcDbEntity
  8
0
100
AcDbCircle
 10
1679.583018
 20
1318.748423
 30
0.0
 40
57.671059
100
AcDbArc
 50
174.05568
 51
191.508499
  0
LINE
  5
93B8
100
AcDbEntity
  8
0
100
AcDbLine
 10
1642.833141
 20
1331.812757
 30
0.0
 11
1642.833141
 21
1313.812757
 31
0.0
  0
LINE
  5
93B9
100
AcDbEntity
  8
0
100
AcDbLine
 10
1657.833141
 20
1331.812757
 30
0.0
 11
1657.833141
 21
1313.812757
 31
0.0
  0
CIRCLE
  5
93BA
100
AcDbEntity
  8
0
100
AcDbCircle
 10
1576.832429
 20
1315.311596
 30
0.0
 40
10.5
  0
ARC
  5
93BB
100
AcDbEntity
  8
0
100
AcDbCircle
 10
2464.201068
 20
1294.379449
 30
0.0
 40
8.0
100
AcDbArc
 50
270.0
 51
0.0
  0
ARC
  5
93BC
100
AcDbEntity
  8
0
100
AcDbCircle
 10
2464.332781
 20
1222.672221
 30
0.0
 40
5.0
100
AcDbArc
 50
75.0
 51
137.046813
  0
TEXT
  5
93BE
100
AcDbEntity
  8
0
100
AcDbText
 10
2403.785538
 20
1153.754374
 30
0.0
 40
25.0
  1
32A
 72
     4
 11
2437.118871
 21
1166.254374
 31
0.0
100
AcDbText
  0
ARC
  5
93BF
100
AcDbEntity
  8
0
100
AcDbCircle
 10
1851.283029
 20
1281.815424
 30
0.0
 40
43.0
100
AcDbArc
 50
186.125541
 51
353.874459
  0
ARC
  5
93C0
100
AcDbEntity
  8
0
100
AcDbCircle
 10
1576.833141
 20
1281.812757
 30
0.0
 40
43.0
100
AcDbArc
 50
257.619201
 51
317.046813
  0
LINE
  5
93C1
100
AcDbEntity
  8
0
100
AcDbLine
 10
1654.261396
 20
1277.112699
 30
0.0
 11
1653.37223
 21
1280.431113
 31
0.0
  0
ARC
  5
93C2
100
AcDbEntity
  8
0
100
AcDbCircle
 10
1653.280917
 20
1276.075633
 30
0.0
 40
7.021342
100
AcDbArc
 50
127.947305
 51
202.052695
  0
ARC
  5
93C3
100
AcDbEntity
  8
0
100
AcDbCircle
 10
1646.864577
 20
1277.794886
 30
0.0
 40
7.021342
100
AcDbArc
 50
307.947305
 51
22.052695
  0
ARC
  5
93C4
100
AcDbEntity
  8
0
100
AcDbCircle
 10
1576.833141
 20
1281.812757
 30
0.0
 40
43.0
100
AcDbArc
 50
340.033601
 51
360.0
  0
LINE
  5
93C5
100
AcDbEntity
  8
0
100
AcDbLine
 10
1637.986764
 20
1247.30936
 30
0.0
 11
1647.045431
 21
1281.116764
 31
0.0
  0
ARC
  5
93C6
100
AcDbEntity
  8
0
100
AcDbCircle
 10
1663.616871
 20
1258.559127
 30
0.0
 40
21.538712
100
AcDbArc
 50
144.095626
 51
185.904374
  0
LINE
  5
93C7
100
AcDbEntity
  8
0
100
AcDbLine
 10
1645.998732
 20
1252.912844
 30
0.0
 11
1641.589739
 21
1254.09423
 31
0.0
  0
LINE
  5
93C8
100
AcDbEntity
  8
0
100
AcDbLine
 10
1643.808758
 20
1244.739751
 30
0.0
 11
1639.399766
 21
1245.921137
 31
0.0
  0
LINE
  5
93C9
100
AcDbEntity
  8
0
100
AcDbLine
 10
1646.601415
 20
1255.162086
 30
0.0
 11
1642.192422
 21
1256.343472
 31
0.0
  0
LINE
  5
93CA
100
AcDbEntity
  8
0
100
AcDbLine
 10
1638.510599
 20
1249.239551
 30
0.0
 11
1639.399766
 21
1245.921137
 31
0.0
  0
ARC
  5
93CB
100
AcDbEntity
  8
0
100
AcDbCircle
 10
1645.907419
 20
1248.557364
 30
0.0
 40
7.021342
100
AcDbArc
 50
127.947305
 51
202.052695
  0
ARC
  5
93CC
100
AcDbEntity
  8
0
100
AcDbCircle
 10
1611.964854
 20
1249.105529
 30
0.0
 40
5.0
100
AcDbArc
 50
75.0
 51
137.046813
  0
LINE
  5
93CD
100
AcDbEntity
  8
0
100
AcDbLine
 10
1613.258949
 20
1253.935158
 30
0.0
 11
1637.986764
 21
1247.30936
 31
0.0
  0
LINE
  5
93CE
100
AcDbEntity
  8
0
100
AcDbLine
 10
1641.589739
 20
1254.09423
 30
0.0
 11
1642.192422
 21
1256.343472
 31
0.0
  0
LINE
  5
93CF
100
AcDbEntity
  8
0
100
AcDbLine
 10
1654.261396
 20
1277.112699
 30
0.0
 11
1646.238006
 21
1247.168999
 31
0.0
  0
ARC
  5
93D0
100
AcDbEntity
  8
0
100
AcDbCircle
 10
1629.155125
 20
1267.793124
 30
0.0
 40
21.538712
100
AcDbArc
 50
324.095626
 51
5.904374
  0
LINE
  5
93D1
100
AcDbEntity
  8
0
100
AcDbLine
 10
1645.998732
 20
1252.912844
 30
0.0
 11
1646.601415
 21
1255.162086
 31
0.0
  0
LINE
  5
93D2
100
AcDbEntity
  8
0
100
AcDbLine
 10
1646.238006
 20
1247.168999
 30
0.0
 11
1643.808758
 21
1244.739751
 31
0.0
  0
ARC
  5
93D3
100
AcDbEntity
  8
0
100
AcDbCircle
 10
1639.491079
 20
1250.276617
 30
0.0
 40
7.021342
100
AcDbArc
 50
307.947305
 51
22.052695
  0
LINE
  5
93D4
100
AcDbEntity
  8
0
100
AcDbLine
 10
1650.579574
 20
1270.008778
 30
0.0
 11
1646.170581
 21
1271.190164
 31
0.0
  0
LINE
  5
93D5
100
AcDbEntity
  8
0
100
AcDbLine
 10
1650.579574
 20
1270.008778
 30
0.0
 11
1651.182256
 21
1272.25802
 31
0.0
  0
LINE
  5
93D6
100
AcDbEntity
  8
0
100
AcDbLine
 10
1651.182256
 20
1272.25802
 30
0.0
 11
1646.773264
 21
1273.439406
 31
0.0
  0
LINE
  5
93D7
100
AcDbEntity
  8
0
100
AcDbLine
 10
1646.170581
 20
1271.190164
 30
0.0
 11
1646.773264
 21
1273.439406
 31
0.0
  0
LINE
  5
93D8
100
AcDbEntity
  8
0
100
AcDbLine
 10
1709.335808
 20
1260.315424
 30
0.0
 11
1695.335808
 21
1260.315424
 31
0.0
  0
ARC
  5
93D9
100
AcDbEntity
  8
0
100
AcDbCircle
 10
1645.133596
 20
1284.734867
 30
0.0
 40
3.0
100
AcDbArc
 50
175.0
 51
255.0
  0
LINE
  5
93DA
100
AcDbEntity
  8
0
100
AcDbLine
 10
1642.145012
 20
1284.996334
 30
0.0
 11
1643.216941
 21
1297.248536
 31
0.0
  0
LINE
  5
93DB
100
AcDbEntity
  8
0
100
AcDbLine
 10
1619.833141
 20
1299.74292
 30
0.0
 11
1619.833141
 21
1281.812757
 31
0.0
  0
ARC
  5
93DC
100
AcDbEntity
  8
0
100
AcDbCircle
 10
1618.171953
 20
1306.244714
 30
0.0
 40
5.0
100
AcDbArc
 50
305.637046
 51
11.508499
  0
ARC
  5
93DD
100
AcDbEntity
  8
0
100
AcDbCircle
 10
1622.833141
 20
1299.74292
 30
0.0
 40
3.0
100
AcDbArc
 50
125.637046
 51
180.0
  0
LINE
  5
93DE
100
AcDbEntity
  8
0
100
AcDbLine
 10
1686.335808
 20
1296.920485
 30
0.0
 11
1686.335808
 21
1312.390832
 31
0.0
  0
LINE
  5
93DF
100
AcDbEntity
  8
0
100
AcDbLine
 10
1686.342546
 20
1296.920486
 30
0.0
 11
1676.557258
 21
1305.562879
 31
0.0
  0
ARC
  5
93E0
100
AcDbEntity
  8
0
100
AcDbCircle
 10
1648.197914
 20
1296.812757
 30
0.0
 40
5.0
100
AcDbArc
 50
90.0
 51
175.0
  0
ARC
  5
93E1
100
AcDbEntity
  8
0
100
AcDbCircle
 10
1690.335808
 20
1291.391797
 30
0.0
 40
5.0
100
AcDbArc
 50
0.0
 51
83.0
  0
LINE
  5
93E2
100
AcDbEntity
  8
0
100
AcDbLine
 10
1686.335808
 20
1296.920485
 30
0.0
 11
1690.945155
 21
1296.354528
 31
0.0
  0
LINE
  5
93E3
100
AcDbEntity
  8
0
100
AcDbLine
 10
1644.357139
 20
1281.837089
 30
0.0
 11
1647.045431
 21
1281.116764
 31
0.0
  0
LINE
  5
93E4
100
AcDbEntity
  8
0
100
AcDbLine
 10
1646.083403
 20
1281.374538
 30
0.0
 11
1645.316136
 21
1281.580127
 31
0.0
  0
LINE
  5
93E5
100
AcDbEntity
  8
0
100
AcDbLine
 10
1646.53399
 20
1279.183252
 30
0.0
 11
1648.963237
 21
1281.612499
 31
0.0
  0
LINE
  5
93E6
100
AcDbEntity
  8
0
100
AcDbLine
 10
1653.37223
 20
1280.431113
 30
0.0
 11
1648.963237
 21
1281.612499
 31
0.0
  0
LINE
  5
93E7
100
AcDbEntity
  8
0
100
AcDbLine
 10
1661.833141
 20
1305.565424
 30
0.0
 11
1676.557258
 21
1305.565424
 31
0.0
  0
LINE
  5
93E8
100
AcDbEntity
  8
0
100
AcDbLine
 10
1648.197914
 20
1301.812757
 30
0.0
 11
1661.833141
 21
1301.812757
 31
0.0
  0
LINE
  5
93E9
100
AcDbEntity
  8
0
100
AcDbLine
 10
1657.833141
 20
1313.812757
 30
0.0
 11
1642.833141
 21
1313.812757
 31
0.0
  0
LINE
  5
93EA
100
AcDbEntity
  8
0
100
AcDbLine
 10
1836.627434
 20
1252.470934
 30
0.0
 11
1849.938619
 21
1245.047582
 31
0.0
  0
ELLIPSE
  5
93EB
100
AcDbEntity
  8
0
100
AcDbEllipse
 10
1851.283029
 20
1262.143516
 30
0.0
 11
15.5
 21
-0.0000000000000028
 31
0.0
210
0.0
220
0.0
230
1.0
 40
0.965926
 41
3.133292367344068
 42
6.291485593425309
  0
ELLIPSE
  5
93EC
100
AcDbEntity
  8
0
100
AcDbEllipse
 10
1851.283029
 20
1264.215729
 30
0.0
 11
17.5
 21
0.0
 31
0.0
210
0.0
220
0.0
230
-1.0
 40
0.965926
 41
2.724537359304187
 42
3.057591088667526
  0
LINE
  5
93ED
100
AcDbEntity
  8
0
100
AcDbLine
 10
1835.283029
 20
1262.398125
 30
0.0
 11
1835.283029
 21
1254.72017
 31
0.0
  0
ELLIPSE
  5
93EE
100
AcDbEntity
  8
0
100
AcDbEllipse
 10
1851.283029
 20
1262.143516
 30
0.0
 11
-17.75
 21
0.0
 31
0.0
210
0.0
220
0.0
230
1.0
 40
0.965926
 41
0.4477847473764708
 42
0.5994123592542787
  0
ELLIPSE
  5
93EF
100
AcDbEntity
  8
0
100
AcDbEllipse
 10
1851.283029
 20
1264.215729
 30
0.0
 11
-17.5
 21
0.0
 31
0.0
210
0.0
220
0.0
230
1.0
 40
0.965926
 41
2.724537359304187
 42
3.057591088667526
  0
LINE
  5
93F0
100
AcDbEntity
  8
0
100
AcDbLine
 10
1867.283029
 20
1262.398125
 30
0.0
 11
1867.283029
 21
1254.72017
 31
0.0
  0
LINE
  5
93F1
100
AcDbEntity
  8
0
100
AcDbLine
 10
1865.938623
 20
1252.470934
 30
0.0
 11
1852.627438
 21
1245.047582
 31
0.0
  0
ELLIPSE
  5
93F2
100
AcDbEntity
  8
0
100
AcDbEllipse
 10
1851.283029
 20
1262.143516
 30
0.0
 11
-17.75
 21
0.0
 31
0.0
210
0.0
220
0.0
230
1.0
 40
0.965926
 41
1.494982339354536
 42
1.646610314235256
  0
ELLIPSE
  5
93F3
100
AcDbEntity
  8
0
100
AcDbEllipse
 10
1851.283029
 20
1262.143516
 30
0.0
 11
17.75
 21
0.0
 31
0.0
210
0.0
220
0.0
230
-1.0
 40
0.965926
 41
0.4477847473764708
 42
0.5994123592542787
  0
CIRCLE
  5
93F4
100
AcDbEntity
  8
0
100
AcDbCircle
 10
1819.463224
 20
1290.995618
 30
0.0
 40
9.5
  0
CIRCLE
  5
93F5
100
AcDbEntity
  8
0
100
AcDbCircle
 10
1883.102834
 20
1290.995618
 30
0.0
 40
9.5
  0
ARC
  5
93F6
100
AcDbEntity
  8
0
100
AcDbCircle
 10
2143.936652
 20
1255.129584
 30
0.0
 40
43.0
100
AcDbArc
 50
340.366382
 51
0.0
  0
ARC
  5
93F7
100
AcDbEntity
  8
0
100
AcDbCircle
 10
2143.936652
 20
1255.129584
 30
0.0
 40
43.0
100
AcDbArc
 50
180.0
 51
282.380799
  0
ARC
  5
93F8
100
AcDbEntity
  8
0
100
AcDbCircle
 10
2429.201068
 20
1255.379449
 30
0.0
 40
43.0
100
AcDbArc
 50
180.0
 51
317.046813
  0
LINE
  5
93F9
100
AcDbEntity
  8
0
100
AcDbLine
 10
2188.018812
 20
1237.252937
 30
0.0
 11
2190.854492
 21
1237.252937
 31
0.0
  0
LINE
  5
93FA
100
AcDbEntity
  8
0
100
AcDbLine
 10
2188.018812
 20
1231.19076
 30
0.0
 11
2190.854492
 21
1231.19076
 31
0.0
  0
LINE
  5
93FB
100
AcDbEntity
  8
0
100
AcDbLine
 10
2188.018812
 20
1219.066404
 30
0.0
 11
2190.854492
 21
1219.066404
 31
0.0
  0
LINE
  5
93FC
100
AcDbEntity
  8
0
100
AcDbLine
 10
2188.018812
 20
1213.004226
 30
0.0
 11
2190.854492
 21
1213.004226
 31
0.0
  0
LINE
  5
93FD
100
AcDbEntity
  8
0
100
AcDbLine
 10
2188.018812
 20
1213.004226
 30
0.0
 11
2190.854492
 21
1213.004226
 31
0.0
  0
ARC
  5
93FE
100
AcDbEntity
  8
0
100
AcDbCircle
 10
2143.936652
 20
1255.129584
 30
0.0
 40
43.0
100
AcDbArc
 50
290.807612
 51
334.08702
  0
ARC
  5
93FF
100
AcDbEntity
  8
0
100
AcDbCircle
 10
2208.407293
 20
1225.128582
 30
0.0
 40
21.270641
100
AcDbArc
 50
163.441024
 51
196.558976
  0
LINE
  5
9400
100
AcDbEntity
  8
0
100
AcDbLine
 10
2186.936652
 20
1235.128582
 30
0.0
 11
2186.936652
 21
1215.128582
 31
0.0
  0
LINE
  5
9401
100
AcDbEntity
  8
0
100
AcDbLine
 10
2186.936652
 20
1235.378582
 30
0.0
 11
2186.936652
 21
1214.878582
 31
0.0
  0
LINE
  5
9402
100
AcDbEntity
  8
0
100
AcDbLine
 10
2185.936652
 20
1237.129584
 30
0.0
 11
2185.936652
 21
1213.129584
 31
0.0
  0
LINE
  5
9403
100
AcDbEntity
  8
0
100
AcDbLine
 10
2185.936652
 20
1213.129584
 30
0.0
 11
2153.156197
 21
1213.129584
 31
0.0
  0
LINE
  5
9404
100
AcDbEntity
  8
0
100
AcDbLine
 10
2188.018812
 20
1213.004226
 30
0.0
 11
2186.936652
 21
1214.878582
 31
0.0
  0
LINE
  5
9405
100
AcDbEntity
  8
0
100
AcDbLine
 10
2185.936652
 20
1216.128582
 30
0.0
 11
2186.936652
 21
1216.128582
 31
0.0
  0
ARC
  5
9406
100
AcDbEntity
  8
0
100
AcDbCircle
 10
2192.785122
 20
1216.035315
 30
0.0
 40
5.64847
100
AcDbArc
 50
147.546074
 51
212.453926
  0
LINE
  5
9407
100
AcDbEntity
  8
0
100
AcDbLine
 10
2184.436652
 20
1240.681401
 30
0.0
 11
2184.436652
 21
1239.727661
 31
0.0
  0
LINE
  5
9408
100
AcDbEntity
  8
0
100
AcDbLine
 10
2185.936652
 20
1234.128582
 30
0.0
 11
2186.936652
 21
1234.128582
 31
0.0
  0
ARC
  5
9409
100
AcDbEntity
  8
0
100
AcDbCircle
 10
2192.785122
 20
1234.221849
 30
0.0
 40
5.64847
100
AcDbArc
 50
147.546074
 51
212.453926
  0
LINE
  5
940A
100
AcDbEntity
  8
0
100
AcDbLine
 10
2188.018812
 20
1237.252937
 30
0.0
 11
2186.936652
 21
1235.378582
 31
0.0
  0
ARC
  5
940B
100
AcDbEntity
  8
0
100
AcDbCircle
 10
2187.436652
 20
1239.727661
 30
0.0
 40
3.0
100
AcDbArc
 50
180.0
 51
240.0
  0
ARC
  5
940C
100
AcDbEntity
  8
0
100
AcDbCircle
 10
2170.466011
 20
1225.128582
 30
0.0
 40
21.270641
100
AcDbArc
 50
343.441024
 51
16.558976
  0
LINE
  5
940D
100
AcDbEntity
  8
0
100
AcDbLine
 10
2191.936652
 20
1235.378582
 30
0.0
 11
2191.936652
 21
1214.878582
 31
0.0
  0
LINE
  5
940E
100
AcDbEntity
  8
0
100
AcDbLine
 10
2190.854492
 20
1213.004226
 30
0.0
 11
2191.936652
 21
1214.878582
 31
0.0
  0
ARC
  5
940F
100
AcDbEntity
  8
0
100
AcDbCircle
 10
2186.088182
 20
1216.035315
 30
0.0
 40
5.64847
100
AcDbArc
 50
327.546074
 51
32.453926
  0
ARC
  5
9410
100
AcDbEntity
  8
0
100
AcDbCircle
 10
2186.088182
 20
1234.221849
 30
0.0
 40
5.64847
100
AcDbArc
 50
327.546074
 51
32.453926
  0
LINE
  5
9411
100
AcDbEntity
  8
0
100
AcDbLine
 10
2190.854492
 20
1237.252937
 30
0.0
 11
2191.936652
 21
1235.378582
 31
0.0
  0
CIRCLE
  5
9419
100
AcDbEntity
  8
0
100
AcDbCircle
 10
2179.291991
 20
1290.02411
 30
0.0
 40
9.5
  0
CIRCLE
  5
941A
100
AcDbEntity
  8
0
100
AcDbCircle
 10
2108.581313
 20
1290.02411
 30
0.0
 40
9.5
  0
LINE
  5
941B
100
AcDbEntity
  8
0
100
AcDbLine
 10
2186.936652
 20
1255.129584
 30
0.0
 11
2186.936652
 21
1273.348208
 31
0.0
  0
LINE
  5
941C
100
AcDbEntity
  8
0
100
AcDbLine
 10
2100.936652
 20
1255.129584
 30
0.0
 11
2100.936652
 21
1273.348208
 31
0.0
  0
LINE
  5
941D
100
AcDbEntity
  8
0
100
AcDbLine
 10
2386.201068
 20
1288.879449
 30
0.0
 11
2386.201068
 21
1255.379449
 31
0.0
  0
LINE
  5
941E
100
AcDbEntity
  8
0
100
AcDbLine
 10
2314.201068
 20
1257.879449
 30
0.0
 11
2334.201068
 21
1257.879449
 31
0.0
  0
LINE
  5
941F
100
AcDbEntity
  8
0
100
AcDbLine
 10
2375.201068
 20
1299.879449
 30
0.0
 11
2359.201068
 21
1299.879449
 31
0.0
  0
ARC
  5
9420
100
AcDbEntity
  8
0
100
AcDbCircle
 10
2340.201068
 20
1289.960625
 30
0.0
 40
6.0
100
AcDbArc
 50
101.309932
 51
180.0
  0
LINE
  5
9421
100
AcDbEntity
  8
0
100
AcDbLine
 10
2339.024372
 20
1295.844109
 30
0.0
 11
2359.201068
 21
1299.879449
 31
0.0
  0
CIRCLE
  5
9422
100
AcDbEntity
  8
0
100
AcDbCircle
 10
2429.087468
 20
1301.129584
 30
0.0
 40
12.0
  0
LINE
  5
9423
100
AcDbEntity
  8
0
100
AcDbLine
 10
2464.201068
 20
1286.379449
 30
0.0
 11
2394.201068
 21
1286.379449
 31
0.0
  0
ARC
  5
9424
100
AcDbEntity
  8
0
100
AcDbCircle
 10
2375.201068
 20
1293.879449
 30
0.0
 40
6.0
100
AcDbArc
 50
45.0
 51
90.0
  0
LINE
  5
9425
100
AcDbEntity
  8
0
100
AcDbLine
 10
2384.443709
 20
1293.122089
 30
0.0
 11
2379.443709
 21
1298.122089
 31
0.0
  0
ARC
  5
9426
100
AcDbEntity
  8
0
100
AcDbCircle
 10
2380.201068
 20
1288.879449
 30
0.0
 40
6.0
100
AcDbArc
 50
0.0
 51
45.0
  0
CIRCLE
  5
9428
100
AcDbEntity
  8
0
100
AcDbCircle
 10
665.711596
 20
438.360419
 30
0.0
 40
9.5
  0
ARC
  5
9429
100
AcDbEntity
  8
0
100
AcDbCircle
 10
702.721101
 20
402.483525
 30
0.0
 40
43.0
100
AcDbArc
 50
180.0
 51
280.725007
  0
ARC
  5
942A
100
AcDbEntity
  8
0
100
AcDbCircle
 10
2689.497676
 20
1255.129584
 30
0.0
 40
43.0
100
AcDbArc
 50
257.619201
 51
0.0
  0
ELLIPSE
  5
942B
100
AcDbEntity
  8
0
100
AcDbEllipse
 10
2689.497676
 20
1237.529889
 30
0.0
 11
-17.5
 21
0.0
 31
0.0
210
0.0
220
0.0
230
1.0
 40
0.965926
 41
2.724537359304187
 42
3.55864794787574
  0
ELLIPSE
  5
942C
100
AcDbEntity
  8
0
100
AcDbEllipse
 10
2689.497676
 20
1237.529889
 30
0.0
 11
-17.5
 21
0.0
 31
0.0
210
0.0
220
0.0
230
1.0
 40
0.965926
 41
5.86613001289398
 42
6.700240601465533
  0
LINE
  5
942D
100
AcDbEntity
  8
0
100
AcDbLine
 10
2705.497676
 20
1244.953235
 30
0.0
 11
2705.497676
 21
1228.034331
 31
0.0
  0
LINE
  5
942E
100
AcDbEntity
  8
0
100
AcDbLine
 10
2673.497676
 20
1244.953235
 30
0.0
 11
2673.497676
 21
1228.034331
 31
0.0
  0
ELLIPSE
  5
942F
100
AcDbEntity
  8
0
100
AcDbEllipse
 10
2689.497676
 20
1238.90174
 30
0.0
 11
-17.5
 21
0.0
 31
0.0
210
0.0
220
0.0
230
1.0
 40
0.965926
 41
3.101003103797176
 42
6.32377485697224
  0
ELLIPSE
  5
9430
100
AcDbEntity
  8
0
100
AcDbEllipse
 10
2689.497676
 20
1235.457676
 30
0.0
 11
15.5
 21
-0.0000000000000028
 31
0.0
210
0.0
220
0.0
230
1.0
 40
0.965926
 41
0.0
 42
6.283185307179586
  0
LINE
  5
9431
100
AcDbEntity
  8
0
100
AcDbLine
 10
2669.694665
 20
1260.849682
 30
0.0
 11
2672.071764
 21
1235.9761
 31
0.0
  0
LINE
  5
9432
100
AcDbEntity
  8
0
100
AcDbLine
 10
2709.300687
 20
1260.849682
 30
0.0
 11
2706.923588
 21
1235.9761
 31
0.0
  0
ARC
  5
9433
100
AcDbEntity
  8
0
100
AcDbCircle
 10
2689.497676
 20
1255.129584
 30
0.0
 40
43.0
100
AcDbArc
 50
180.0
 51
199.633618
  0
ARC
  5
9434
100
AcDbEntity
  8
0
100
AcDbCircle
 10
2515.984798
 20
1232.131701
 30
0.0
 40
21.538712
100
AcDbArc
 50
144.095626
 51
185.904374
  0
ARC
  5
9435
100
AcDbEntity
  8
0
100
AcDbCircle
 10
2481.523052
 20
1241.365697
 30
0.0
 40
21.538712
100
AcDbArc
 50
324.095626
 51
5.904374
  0
ARC
  5
9436
100
AcDbEntity
  8
0
100
AcDbCircle
 10
2429.201068
 20
1255.379449
 30
0.0
 40
43.0
100
AcDbArc
 50
340.366382
 51
0.0
  0
LINE
  5
9437
100
AcDbEntity
  8
0
100
AcDbLine
 10
2490.354691
 20
1220.876052
 30
0.0
 11
2499.413358
 21
1254.683456
 31
0.0
  0
LINE
  5
9438
100
AcDbEntity
  8
0
100
AcDbLine
 10
2506.629323
 20
1250.685273
 30
0.0
 11
2498.605933
 21
1220.741573
 31
0.0
  0
LINE
  5
9439
100
AcDbEntity
  8
0
100
AcDbLine
 10
2704.15327
 20
1225.785095
 30
0.0
 11
2690.842086
 21
1218.361743
 31
0.0
  0
LINE
  5
943A
100
AcDbEntity
  8
0
100
AcDbLine
 10
2490.878526
 20
1222.812125
 30
0.0
 11
2491.767693
 21
1219.493711
 31
0.0
  0
LINE
  5
943B
100
AcDbEntity
  8
0
100
AcDbLine
 10
2465.626876
 20
1227.50185
 30
0.0
 11
2490.354691
 21
1220.876052
 31
0.0
  0
ARC
  5
943C
100
AcDbEntity
  8
0
100
AcDbCircle
 10
2491.859006
 20
1223.849191
 30
0.0
 40
7.021342
100
AcDbArc
 50
307.947305
 51
22.052695
  0
ARC
  5
943D
100
AcDbEntity
  8
0
100
AcDbCircle
 10
2498.275346
 20
1222.129938
 30
0.0
 40
7.021342
100
AcDbArc
 50
127.947305
 51
202.052695
  0
LINE
  5
943E
100
AcDbEntity
  8
0
100
AcDbLine
 10
2498.605933
 20
1220.741573
 30
0.0
 11
2496.176685
 21
1218.312325
 31
0.0
  0
LINE
  5
943F
100
AcDbEntity
  8
0
100
AcDbLine
 10
2496.176685
 20
1218.312325
 30
0.0
 11
2491.767693
 21
1219.493711
 31
0.0
  0
LINE
  5
9440
100
AcDbEntity
  8
0
100
AcDbLine
 10
2498.969342
 20
1228.73466
 30
0.0
 11
2494.560349
 21
1229.916046
 31
0.0
  0
LINE
  5
9441
100
AcDbEntity
  8
0
100
AcDbLine
 10
2498.366659
 20
1226.485418
 30
0.0
 11
2493.957666
 21
1227.666804
 31
0.0
  0
LINE
  5
9442
100
AcDbEntity
  8
0
100
AcDbLine
 10
2493.957666
 20
1227.666804
 30
0.0
 11
2494.560349
 21
1229.916046
 31
0.0
  0
LINE
  5
9443
100
AcDbEntity
  8
0
100
AcDbLine
 10
2498.366659
 20
1226.485418
 30
0.0
 11
2498.969342
 21
1228.73466
 31
0.0
  0
ARC
  5
9444
100
AcDbEntity
  8
0
100
AcDbCircle
 10
2689.497676
 20
1255.129584
 30
0.0
 40
43.0
100
AcDbArc
 50
205.91298
 51
249.192388
  0
LINE
  5
9445
100
AcDbEntity
  8
0
100
AcDbLine
 10
2674.842082
 20
1225.785095
 30
0.0
 11
2688.153267
 21
1218.361743
 31
0.0
  0
ARC
  5
9446
100
AcDbEntity
  8
0
100
AcDbCircle
 10
2625.027035
 20
1225.128582
 30
0.0
 40
21.270641
100
AcDbArc
 50
343.441024
 51
16.558976
  0
ARC
  5
9447
100
AcDbEntity
  8
0
100
AcDbCircle
 10
2662.968317
 20
1225.128582
 30
0.0
 40
21.270641
100
AcDbArc
 50
163.441024
 51
196.558976
  0
LINE
  5
9448
100
AcDbEntity
  8
0
100
AcDbLine
 10
2647.497676
 20
1237.129584
 30
0.0
 11
2647.497676
 21
1213.129584
 31
0.0
  0
LINE
  5
9449
100
AcDbEntity
  8
0
100
AcDbLine
 10
2646.497676
 20
1235.378582
 30
0.0
 11
2646.497676
 21
1214.878582
 31
0.0
  0
LINE
  5
944A
100
AcDbEntity
  8
0
100
AcDbLine
 10
2646.497676
 20
1235.128582
 30
0.0
 11
2646.497676
 21
1215.128582
 31
0.0
  0
LINE
  5
944B
100
AcDbEntity
  8
0
100
AcDbLine
 10
2641.497676
 20
1235.378582
 30
0.0
 11
2641.497676
 21
1214.878582
 31
0.0
  0
LINE
  5
944C
100
AcDbEntity
  8
0
100
AcDbLine
 10
2647.497676
 20
1213.129584
 30
0.0
 11
2680.278132
 21
1213.129584
 31
0.0
  0
LINE
  5
944D
100
AcDbEntity
  8
0
100
AcDbLine
 10
2645.415516
 20
1219.066404
 30
0.0
 11
2642.579836
 21
1219.066404
 31
0.0
  0
LINE
  5
944E
100
AcDbEntity
  8
0
100
AcDbLine
 10
2645.415516
 20
1213.004226
 30
0.0
 11
2642.579836
 21
1213.004226
 31
0.0
  0
LINE
  5
944F
100
AcDbEntity
  8
0
100
AcDbLine
 10
2645.415516
 20
1213.004226
 30
0.0
 11
2642.579836
 21
1213.004226
 31
0.0
  0
LINE
  5
9450
100
AcDbEntity
  8
0
100
AcDbLine
 10
2642.579836
 20
1213.004226
 30
0.0
 11
2641.497676
 21
1214.878582
 31
0.0
  0
LINE
  5
9451
100
AcDbEntity
  8
0
100
AcDbLine
 10
2647.497676
 20
1216.128582
 30
0.0
 11
2646.497676
 21
1216.128582
 31
0.0
  0
LINE
  5
9452
100
AcDbEntity
  8
0
100
AcDbLine
 10
2645.415516
 20
1213.004226
 30
0.0
 11
2646.497676
 21
1214.878582
 31
0.0
  0
ARC
  5
9453
100
AcDbEntity
  8
0
100
AcDbCircle
 10
2647.346146
 20
1216.035315
 30
0.0
 40
5.64847
100
AcDbArc
 50
147.546074
 51
212.453926
  0
ARC
  5
9454
100
AcDbEntity
  8
0
100
AcDbCircle
 10
2640.649206
 20
1216.035315
 30
0.0
 40
5.64847
100
AcDbArc
 50
327.546074
 51
32.453926
  0
ELLIPSE
  5
9455
100
AcDbEntity
  8
0
100
AcDbEllipse
 10
2689.497676
 20
1235.457676
 30
0.0
 11
-17.75
 21
0.0
 31
0.0
210
0.0
220
0.0
230
1.0
 40
0.965926
 41
1.494982339354536
 42
1.646610314235256
  0
ARC
  5
9456
100
AcDbEntity
  8
0
100
AcDbCircle
 10
2645.997676
 20
1239.727661
 30
0.0
 40
3.0
100
AcDbArc
 50
300.0
 51
0.0
  0
LINE
  5
9457
100
AcDbEntity
  8
0
100
AcDbLine
 10
2645.415516
 20
1237.252937
 30
0.0
 11
2642.579836
 21
1237.252937
 31
0.0
  0
LINE
  5
9458
100
AcDbEntity
  8
0
100
AcDbLine
 10
2645.415516
 20
1231.19076
 30
0.0
 11
2642.579836
 21
1231.19076
 31
0.0
  0
LINE
  5
9459
100
AcDbEntity
  8
0
100
AcDbLine
 10
2647.497676
 20
1234.128582
 30
0.0
 11
2646.497676
 21
1234.128582
 31
0.0
  0
LINE
  5
945A
100
AcDbEntity
  8
0
100
AcDbLine
 10
2645.415516
 20
1237.252937
 30
0.0
 11
2646.497676
 21
1235.378582
 31
0.0
  0
ARC
  5
945B
100
AcDbEntity
  8
0
100
AcDbCircle
 10
2640.649206
 20
1234.221849
 30
0.0
 40
5.64847
100
AcDbArc
 50
327.546074
 51
32.453926
  0
LINE
  5
945C
100
AcDbEntity
  8
0
100
AcDbLine
 10
2642.579836
 20
1237.252937
 30
0.0
 11
2641.497676
 21
1235.378582
 31
0.0
  0
ARC
  5
945D
100
AcDbEntity
  8
0
100
AcDbCircle
 10
2647.346146
 20
1234.221849
 30
0.0
 40
5.64847
100
AcDbArc
 50
147.546074
 51
212.453926
  0
ELLIPSE
  5
945E
100
AcDbEntity
  8
0
100
AcDbEllipse
 10
2689.497676
 20
1235.457676
 30
0.0
 11
-17.75
 21
0.0
 31
0.0
210
0.0
220
0.0
230
1.0
 40
0.965926
 41
0.4477847473764708
 42
0.5994123592542787
  0
LINE
  5
945F
100
AcDbEntity
  8
0
100
AcDbLine
 10
2648.997676
 20
1240.681401
 30
0.0
 11
2648.997676
 21
1239.727661
 31
0.0
  0
ELLIPSE
  5
9460
100
AcDbEntity
  8
0
100
AcDbEllipse
 10
2689.497676
 20
1235.457676
 30
0.0
 11
17.75
 21
0.0
 31
0.0
210
0.0
220
0.0
230
-1.0
 40
0.965926
 41
0.4477847473764708
 42
0.5994123592542787
  0
LINE
  5
9461
100
AcDbEntity
  8
0
100
AcDbLine
 10
2704.15327
 20
1245.130258
 30
0.0
 11
2690.842086
 21
1252.55361
 31
0.0
  0
LINE
  5
9462
100
AcDbEntity
  8
0
100
AcDbLine
 10
2704.15327
 20
1247.202471
 30
0.0
 11
2690.842086
 21
1254.625823
 31
0.0
  0
ELLIPSE
  5
9463
100
AcDbEntity
  8
0
100
AcDbEllipse
 10
2689.497676
 20
1237.529889
 30
0.0
 11
-17.5
 21
0.0
 31
0.0
210
0.0
220
0.0
230
1.0
 40
0.965926
 41
3.771734445514514
 42
4.605845560273887
  0
CIRCLE
  5
9464
100
AcDbEntity
  8
0
100
AcDbCircle
 10
2654.142337
 20
1290.02411
 30
0.0
 40
9.5
  0
LINE
  5
9465
100
AcDbEntity
  8
0
100
AcDbLine
 10
2496.223889
 20
1257.840052
 30
0.0
 11
2496.223889
 21
1293.879449
 31
0.0
  0
LINE
  5
9466
100
AcDbEntity
  8
0
100
AcDbLine
 10
2472.201068
 20
1281.379449
 30
0.0
 11
2472.201068
 21
1255.379449
 31
0.0
  0
LINE
  5
9467
100
AcDbEntity
  8
0
100
AcDbLine
 10
2502.947501
 20
1243.581352
 30
0.0
 11
2498.538508
 21
1244.762738
 31
0.0
  0
LINE
  5
9468
100
AcDbEntity
  8
0
100
AcDbLine
 10
2502.947501
 20
1243.581352
 30
0.0
 11
2503.550183
 21
1245.830594
 31
0.0
  0
ARC
  5
9469
100
AcDbEntity
  8
0
100
AcDbCircle
 10
2499.223889
 20
1257.840052
 30
0.0
 40
3.0
100
AcDbArc
 50
180.0
 51
255.0
  0
ARC
  5
946A
100
AcDbEntity
  8
0
100
AcDbCircle
 10
2505.648844
 20
1249.648207
 30
0.0
 40
7.021342
100
AcDbArc
 50
127.947305
 51
202.052695
  0
LINE
  5
946B
100
AcDbEntity
  8
0
100
AcDbLine
 10
2506.629323
 20
1250.685273
 30
0.0
 11
2505.740157
 21
1254.003687
 31
0.0
  0
LINE
  5
946C
100
AcDbEntity
  8
0
100
AcDbLine
 10
2498.447432
 20
1254.942275
 30
0.0
 11
2499.413358
 21
1254.683456
 31
0.0
  0
LINE
  5
946D
100
AcDbEntity
  8
0
100
AcDbLine
 10
2503.550183
 20
1245.830594
 30
0.0
 11
2499.141191
 21
1247.01198
 31
0.0
  0
LINE
  5
946E
100
AcDbEntity
  8
0
100
AcDbLine
 10
2498.901917
 20
1252.755826
 30
0.0
 11
2501.331164
 21
1255.185073
 31
0.0
  0
LINE
  5
946F
100
AcDbEntity
  8
0
100
AcDbLine
 10
2498.538508
 20
1244.762738
 30
0.0
 11
2499.141191
 21
1247.01198
 31
0.0
  0
ARC
  5
9470
100
AcDbEntity
  8
0
100
AcDbCircle
 10
2499.232504
 20
1251.36746
 30
0.0
 40
7.021342
100
AcDbArc
 50
307.947305
 51
22.052695
  0
LINE
  5
9471
100
AcDbEntity
  8
0
100
AcDbLine
 10
2505.740157
 20
1254.003687
 30
0.0
 11
2501.331164
 21
1255.185073
 31
0.0
  0
LINE
  5
9472
100
AcDbEntity
  8
0
100
AcDbLine
 10
2559.201068
 20
1257.879449
 30
0.0
 11
2539.201068
 21
1257.879449
 31
0.0
  0
LINE
  5
9473
100
AcDbEntity
  8
0
100
AcDbLine
 10
2646.497676
 20
1255.129584
 30
0.0
 11
2646.497676
 21
1273.348208
 31
0.0
  0
LINE
  5
9474
100
AcDbEntity
  8
0
100
AcDbLine
 10
2688.153267
 20
1252.55361
 30
0.0
 11
2688.153267
 21
1254.550312
 31
0.0
  0
LINE
  5
9475
100
AcDbEntity
  8
0
100
AcDbLine
 10
2690.842086
 20
1252.55361
 30
0.0
 11
2690.842086
 21
1254.550312
 31
0.0
  0
ELLIPSE
  5
9476
100
AcDbEntity
  8
0
100
AcDbEllipse
 10
2689.497676
 20
1235.457676
 30
0.0
 11
-17.75
 21
0.0
 31
0.0
210
0.0
220
0.0
230
1.0
 40
0.965926
 41
4.636574992944329
 42
4.788202967825049
  0
ELLIPSE
  5
9477
100
AcDbEntity
  8
0
100
AcDbEllipse
 10
2689.497676
 20
1237.529889
 30
0.0
 11
-17.75
 21
0.0
 31
0.0
210
0.0
220
0.0
230
1.0
 40
0.965926
 41
4.636574992944329
 42
4.788202967825049
  0
ELLIPSE
  5
9478
100
AcDbEntity
  8
0
100
AcDbEllipse
 10
2689.497676
 20
1235.457676
 30
0.0
 11
-17.75
 21
0.0
 31
0.0
210
0.0
220
0.0
230
1.0
 40
0.965926
 41
5.683772947925307
 42
5.835400559803447
  0
ELLIPSE
  5
9479
100
AcDbEntity
  8
0
100
AcDbEllipse
 10
2689.497676
 20
1237.529889
 30
0.0
 11
-17.75
 21
0.0
 31
0.0
210
0.0
220
0.0
230
1.0
 40
0.965926
 41
5.683772947925307
 42
5.835400559803447
  0
LINE
  5
947A
100
AcDbEntity
  8
0
100
AcDbLine
 10
2674.842082
 20
1245.130258
 30
0.0
 11
2674.842082
 21
1247.202471
 31
0.0
  0
LINE
  5
947B
100
AcDbEntity
  8
0
100
AcDbLine
 10
2674.842082
 20
1245.130258
 30
0.0
 11
2688.153267
 21
1252.55361
 31
0.0
  0
LINE
  5
947C
100
AcDbEntity
  8
0
100
AcDbLine
 10
2674.842082
 20
1247.202471
 30
0.0
 11
2688.153267
 21
1254.625823
 31
0.0
  0
ELLIPSE
  5
947D
100
AcDbEntity
  8
0
100
AcDbEllipse
 10
2689.497676
 20
1237.529889
 30
0.0
 11
-17.5
 21
0.0
 31
0.0
210
0.0
220
0.0
230
1.0
 40
0.965926
 41
4.818932400495492
 42
5.653043515254864
  0
ARC
  5
947E
100
AcDbEntity
  8
0
100
AcDbCircle
 10
2502.223889
 20
1293.879449
 30
0.0
 40
6.0
100
AcDbArc
 50
90.0
 51
180.0
  0
LINE
  5
947F
100
AcDbEntity
  8
0
100
AcDbLine
 10
2534.377765
 20
1295.844109
 30
0.0
 11
2514.201068
 21
1299.879449
 31
0.0
  0
LINE
  5
9480
100
AcDbEntity
  8
0
100
AcDbLine
 10
2502.223889
 20
1299.879449
 30
0.0
 11
2514.201068
 21
1299.879449
 31
0.0
  0
ARC
  5
9481
100
AcDbEntity
  8
0
100
AcDbCircle
 10
2533.201068
 20
1289.960625
 30
0.0
 40
6.0
100
AcDbArc
 50
0.0
 51
78.690068
  0
CIRCLE
  5
9482
100
AcDbEntity
  8
0
100
AcDbCircle
 10
2724.853015
 20
1290.02411
 30
0.0
 40
9.5
  0
LINE
  5
9483
100
AcDbEntity
  8
0
100
AcDbLine
 10
2732.497676
 20
1255.129584
 30
0.0
 11
2732.497676
 21
1273.348208
 31
0.0
  0
ELLIPSE
  5
9484
100
AcDbEntity
  8
0
100
AcDbEllipse
 10
2689.497676
 20
1235.457676
 30
0.0
 11
17.75
 21
0.0
 31
0.0
210
0.0
220
0.0
230
-1.0
 40
0.965926
 41
5.683772947925307
 42
5.835400559803447
  0
ELLIPSE
  5
9485
100
AcDbEntity
  8
0
100
AcDbEllipse
 10
2689.497676
 20
1237.529889
 30
0.0
 11
17.75
 21
0.0
 31
0.0
210
0.0
220
0.0
230
-1.0
 40
0.965926
 41
5.683772947925307
 42
5.835400559803447
  0
LINE
  5
9486
100
AcDbEntity
  8
0
100
AcDbLine
 10
2704.15327
 20
1245.130258
 30
0.0
 11
2704.15327
 21
1247.202471
 31
0.0
  0
LINE
  5
9487
100
AcDbEntity
  8
0
100
AcDbLine
 10
659.721101
 20
420.336291
 30
0.0
 11
659.721101
 21
402.483525
 31
0.0
  0
ARC
  5
9488
100
AcDbEntity
  8
0
100
AcDbCircle
 10
702.721101
 20
402.483525
 30
0.0
 40
43.0
100
AcDbArc
 50
340.640338
 51
0.0
  0
LINE
  5
9489
100
AcDbEntity
  8
0
100
AcDbLine
 10
1070.929245
 20
397.789349
 30
0.0
 11
1062.905854
 21
367.845649
 31
0.0
  0
LINE
  5
948A
100
AcDbEntity
  8
0
100
AcDbLine
 10
1062.838429
 20
391.866814
 30
0.0
 11
1063.441112
 21
394.116056
 31
0.0
  0
LINE
  5
948B
100
AcDbEntity
  8
0
100
AcDbLine
 10
1067.247422
 20
390.685428
 30
0.0
 11
1067.850104
 21
392.93467
 31
0.0
  0
ARC
  5
948C
100
AcDbEntity
  8
0
100
AcDbCircle
 10
1080.284719
 20
379.235777
 30
0.0
 40
21.538712
100
AcDbArc
 50
144.095626
 51
185.904374
  0
LINE
  5
948D
100
AcDbEntity
  8
0
100
AcDbLine
 10
1054.654612
 20
367.980128
 30
0.0
 11
1063.713279
 21
401.787532
 31
0.0
  0
ARC
  5
948E
100
AcDbEntity
  8
0
100
AcDbCircle
 10
993.500989
 20
402.483525
 30
0.0
 40
43.0
100
AcDbArc
 50
340.366382
 51
0.0
  0
ARC
  5
948F
100
AcDbEntity
  8
0
100
AcDbCircle
 10
993.500989
 20
402.483525
 30
0.0
 40
43.0
100
AcDbArc
 50
180.0
 51
317.046813
  0
ARC
  5
9491
100
AcDbEntity
  8
0
100
AcDbCircle
 10
702.721101
 20
402.483525
 30
0.0
 40
43.0
100
AcDbArc
 50
290.831164
 51
333.856044
  0
ARC
  5
9492
100
AcDbEntity
  8
0
100
AcDbCircle
 10
767.305343
 20
372.233661
 30
0.0
 40
21.270641
100
AcDbArc
 50
163.441024
 51
196.558976
  0
ARC
  5
9493
100
AcDbEntity
  8
0
100
AcDbCircle
 10
729.364061
 20
372.233661
 30
0.0
 40
21.270641
100
AcDbArc
 50
343.441024
 51
16.558976
  0
LINE
  5
9494
100
AcDbEntity
  8
0
100
AcDbLine
 10
745.834702
 20
382.483661
 30
0.0
 11
745.834702
 21
361.983661
 31
0.0
  0
LINE
  5
9495
100
AcDbEntity
  8
0
100
AcDbLine
 10
745.834702
 20
382.233661
 30
0.0
 11
745.834702
 21
362.233661
 31
0.0
  0
LINE
  5
9496
100
AcDbEntity
  8
0
100
AcDbLine
 10
750.834702
 20
382.483661
 30
0.0
 11
750.834702
 21
361.983661
 31
0.0
  0
LINE
  5
9497
100
AcDbEntity
  8
0
100
AcDbLine
 10
744.834702
 20
384.234663
 30
0.0
 11
744.834702
 21
360.234663
 31
0.0
  0
LINE
  5
9498
100
AcDbEntity
  8
0
100
AcDbLine
 10
744.834702
 20
360.234663
 30
0.0
 11
710.723207
 21
360.234663
 31
0.0
  0
LINE
  5
9499
100
AcDbEntity
  8
0
100
AcDbLine
 10
746.916862
 20
366.171483
 30
0.0
 11
749.752542
 21
366.171483
 31
0.0
  0
LINE
  5
949A
100
AcDbEntity
  8
0
100
AcDbLine
 10
746.916862
 20
360.109305
 30
0.0
 11
749.752542
 21
360.109305
 31
0.0
  0
LINE
  5
949B
100
AcDbEntity
  8
0
100
AcDbLine
 10
746.916862
 20
360.109305
 30
0.0
 11
749.752542
 21
360.109305
 31
0.0
  0
LINE
  5
949C
100
AcDbEntity
  8
0
100
AcDbLine
 10
749.752542
 20
360.109305
 30
0.0
 11
750.834702
 21
361.983661
 31
0.0
  0
LINE
  5
949D
100
AcDbEntity
  8
0
100
AcDbLine
 10
746.916862
 20
360.109305
 30
0.0
 11
745.834702
 21
361.983661
 31
0.0
  0
LINE
  5
949E
100
AcDbEntity
  8
0
100
AcDbLine
 10
744.834702
 20
363.233661
 30
0.0
 11
745.834702
 21
363.233661
 31
0.0
  0
ARC
  5
949F
100
AcDbEntity
  8
0
100
AcDbCircle
 10
744.986232
 20
363.140394
 30
0.0
 40
5.64847
100
AcDbArc
 50
327.546074
 51
32.453926
  0
ARC
  5
94A0
100
AcDbEntity
  8
0
100
AcDbCircle
 10
751.683172
 20
363.140394
 30
0.0
 40
5.64847
100
AcDbArc
 50
147.546074
 51
212.453926
  0
LINE
  5
94A1
100
AcDbEntity
  8
0
100
AcDbLine
 10
746.916862
 20
384.358016
 30
0.0
 11
749.752542
 21
384.358016
 31
0.0
  0
LINE
  5
94A2
100
AcDbEntity
  8
0
100
AcDbLine
 10
746.916862
 20
378.295838
 30
0.0
 11
749.752542
 21
378.295838
 31
0.0
  0
LINE
  5
94A3
100
AcDbEntity
  8
0
100
AcDbLine
 10
744.834702
 20
381.233661
 30
0.0
 11
745.834702
 21
381.233661
 31
0.0
  0
LINE
  5
94A4
100
AcDbEntity
  8
0
100
AcDbLine
 10
746.916862
 20
384.358016
 30
0.0
 11
745.834702
 21
382.483661
 31
0.0
  0
ARC
  5
94A5
100
AcDbEntity
  8
0
100
AcDbCircle
 10
751.683172
 20
381.326927
 30
0.0
 40
5.64847
100
AcDbArc
 50
147.546074
 51
212.453926
  0
LINE
  5
94A6
100
AcDbEntity
  8
0
100
AcDbLine
 10
749.752542
 20
384.358016
 30
0.0
 11
750.834702
 21
382.483661
 31
0.0
  0
ARC
  5
94A7
100
AcDbEntity
  8
0
100
AcDbCircle
 10
744.986232
 20
381.326927
 30
0.0
 40
5.64847
100
AcDbArc
 50
327.546074
 51
32.453926
  0
ARC
  5
94A8
100
AcDbEntity
  8
0
100
AcDbCircle
 10
746.958786
 20
387.35224
 30
0.0
 40
3.772402
100
AcDbArc
 50
166.558333
 51
235.732396
  0
LINE
  5
94A9
100
AcDbEntity
  8
0
100
AcDbLine
 10
1029.926797
 20
374.605926
 30
0.0
 11
1054.654612
 21
367.980128
 31
0.0
  0
CIRCLE
  5
94AA
100
AcDbEntity
  8
0
100
AcDbCircle
 10
993.387389
 20
372.233661
 30
0.0
 40
10.24984
  0
LINE
  5
94AB
100
AcDbEntity
  8
0
100
AcDbLine
 10
982.891389
 20
378.297661
 30
0.0
 11
982.891389
 21
366.169661
 31
0.0
  0
LINE
  5
94AC
100
AcDbEntity
  8
0
100
AcDbLine
 10
1003.891389
 20
366.169661
 30
0.0
 11
1003.891389
 21
378.297661
 31
0.0
  0
LINE
  5
94AD
100
AcDbEntity
  8
0
100
AcDbLine
 10
982.891389
 20
366.169661
 30
0.0
 11
993.387389
 21
360.113661
 31
0.0
  0
LINE
  5
94AE
100
AcDbEntity
  8
0
100
AcDbLine
 10
993.387389
 20
360.113661
 30
0.0
 11
1003.891389
 21
366.169661
 31
0.0
  0
LINE
  5
94AF
100
AcDbEntity
  8
0
100
AcDbLine
 10
993.387389
 20
384.361661
 30
0.0
 11
982.891389
 21
378.297661
 31
0.0
  0
ARC
  5
94B0
100
AcDbEntity
  8
0
100
AcDbCircle
 10
1028.632702
 20
369.776297
 30
0.0
 40
5.0
100
AcDbArc
 50
75.0
 51
137.046813
  0
LINE
  5
94B1
100
AcDbEntity
  8
0
100
AcDbLine
 10
1003.891389
 20
378.297661
 30
0.0
 11
993.387389
 21
384.361661
 31
0.0
  0
ARC
  5
94B2
100
AcDbEntity
  8
0
100
AcDbCircle
 10
1062.575267
 20
369.234014
 30
0.0
 40
7.021342
100
AcDbArc
 50
127.947305
 51
202.052695
  0
ARC
  5
94B3
100
AcDbEntity
  8
0
100
AcDbCircle
 10
1056.158927
 20
370.953267
 30
0.0
 40
7.021342
100
AcDbArc
 50
307.947305
 51
22.052695
  0
LINE
  5
94B4
100
AcDbEntity
  8
0
100
AcDbLine
 10
1055.178447
 20
369.916201
 30
0.0
 11
1056.067614
 21
366.597787
 31
0.0
  0
LINE
  5
94B5
100
AcDbEntity
  8
0
100
AcDbLine
 10
1060.476606
 20
365.416401
 30
0.0
 11
1056.067614
 21
366.597787
 31
0.0
  0
LINE
  5
94B6
100
AcDbEntity
  8
0
100
AcDbLine
 10
1062.905854
 20
367.845649
 30
0.0
 11
1060.476606
 21
365.416401
 31
0.0
  0
LINE
  5
94B7
100
AcDbEntity
  8
0
100
AcDbLine
 10
1062.66658
 20
373.589494
 30
0.0
 11
1063.269263
 21
375.838737
 31
0.0
  0
LINE
  5
94B8
100
AcDbEntity
  8
0
100
AcDbLine
 10
1058.257588
 20
374.77088
 30
0.0
 11
1058.86027
 21
377.020123
 31
0.0
  0
LINE
  5
94B9
100
AcDbEntity
  8
0
100
AcDbLine
 10
1063.269263
 20
375.838737
 30
0.0
 11
1058.86027
 21
377.020123
 31
0.0
  0
LINE
  5
94BA
100
AcDbEntity
  8
0
100
AcDbLine
 10
1062.66658
 20
373.589494
 30
0.0
 11
1058.257588
 21
374.77088
 31
0.0
  0
ARC
  5
94BB
100
AcDbEntity
  8
0
100
AcDbCircle
 10
1045.822973
 20
388.469774
 30
0.0
 40
21.538712
100
AcDbArc
 50
324.095626
 51
5.904374
  0
LINE
  5
94BC
100
AcDbEntity
  8
0
100
AcDbLine
 10
1067.247422
 20
390.685428
 30
0.0
 11
1062.838429
 21
391.866814
 31
0.0
  0
LINE
  5
94BD
100
AcDbEntity
  8
0
100
AcDbLine
 10
918.387389
 20
441.118961
 30
0.0
 11
940.821671
 21
441.118961
 31
0.0
  0
LINE
  5
94BE
100
AcDbEntity
  8
0
100
AcDbLine
 10
918.500989
 20
441.118961
 30
0.0
 11
940.935271
 21
441.118961
 31
0.0
  0
CIRCLE
  5
94BF
100
AcDbEntity
  8
0
100
AcDbCircle
 10
739.957808
 20
438.360419
 30
0.0
 40
9.5
  0
LINE
  5
94C0
100
AcDbEntity
  8
0
100
AcDbLine
 10
745.721101
 20
402.483525
 30
0.0
 11
745.721101
 21
420.159419
 31
0.0
  0
LINE
  5
94C1
100
AcDbEntity
  8
0
100
AcDbLine
 10
873.387389
 20
405.483525
 30
0.0
 11
893.387389
 21
405.483525
 31
0.0
  0
LINE
  5
94C2
100
AcDbEntity
  8
0
100
AcDbLine
 10
893.387389
 20
441.321172
 30
0.0
 11
918.387389
 21
441.118961
 31
0.0
  0
ARC
  5
94C3
100
AcDbEntity
  8
0
100
AcDbCircle
 10
1075.52381
 20
426.118961
 30
0.0
 40
15.0
100
AcDbArc
 50
90.0
 51
180.0
  0
LINE
  5
94C4
100
AcDbEntity
  8
0
100
AcDbLine
 10
950.500989
 20
402.483525
 30
0.0
 11
950.500989
 21
431.818163
 31
0.0
  0
LINE
  5
94C5
100
AcDbEntity
  8
0
100
AcDbLine
 10
1036.500989
 20
428.483525
 30
0.0
 11
1036.500989
 21
402.483525
 31
0.0
  0
LINE
  5
94C6
100
AcDbEntity
  8
0
100
AcDbLine
 10
1060.52381
 20
404.944128
 30
0.0
 11
1060.52381
 21
426.118961
 31
0.0
  0
LINE
  5
94C7
100
AcDbEntity
  8
0
100
AcDbLine
 10
1062.747353
 20
402.046351
 30
0.0
 11
1063.713279
 21
401.787532
 31
0.0
  0
ARC
  5
94C8
100
AcDbEntity
  8
0
100
AcDbCircle
 10
1063.52381
 20
404.944128
 30
0.0
 40
3.0
100
AcDbArc
 50
180.0
 51
255.0
  0
LINE
  5
94C9
100
AcDbEntity
  8
0
100
AcDbLine
 10
1070.929245
 20
397.789349
 30
0.0
 11
1070.040078
 21
401.107763
 31
0.0
  0
LINE
  5
94CA
100
AcDbEntity
  8
0
100
AcDbLine
 10
1067.850104
 20
392.93467
 30
0.0
 11
1063.441112
 21
394.116056
 31
0.0
  0
ARC
  5
94CB
100
AcDbEntity
  8
0
100
AcDbCircle
 10
1063.532425
 20
398.471536
 30
0.0
 40
7.021342
100
AcDbArc
 50
307.947305
 51
22.052695
  0
LINE
  5
94CC
100
AcDbEntity
  8
0
100
AcDbLine
 10
1063.201838
 20
399.859902
 30
0.0
 11
1065.631086
 21
402.289149
 31
0.0
  0
ARC
  5
94CD
100
AcDbEntity
  8
0
100
AcDbCircle
 10
1069.948765
 20
396.752283
 30
0.0
 40
7.021342
100
AcDbArc
 50
127.947305
 51
202.052695
  0
LINE
  5
94CE
100
AcDbEntity
  8
0
100
AcDbLine
 10
1070.040078
 20
401.107763
 30
0.0
 11
1065.631086
 21
402.289149
 31
0.0
  0
LINE
  5
94CF
100
AcDbEntity
  8
0
100
AcDbLine
 10
1133.387389
 20
405.483525
 30
0.0
 11
1113.387389
 21
405.483525
 31
0.0
  0
CIRCLE
  5
94D0
100
AcDbEntity
  8
0
100
AcDbCircle
 10
993.387389
 20
451.482987
 30
0.0
 40
12.0
  0
LINE
  5
94D1
100
AcDbEntity
  8
0
100
AcDbLine
 10
1028.500989
 20
435.483525
 30
0.0
 11
958.500989
 21
435.483525
 31
0.0
  0
ARC
  5
94D2
100
AcDbEntity
  8
0
100
AcDbCircle
 10
940.935271
 20
435.118961
 30
0.0
 40
6.0
100
AcDbArc
 50
42.403854
 51
90.0
  0
ARC
  5
94D3
100
AcDbEntity
  8
0
100
AcDbCircle
 10
962.349161
 20
454.675171
 30
0.0
 40
23.0
100
AcDbArc
 50
222.403854
 51
232.015071
  0
ARC
  5
94D4
100
AcDbEntity
  8
0
100
AcDbCircle
 10
944.500989
 20
431.818163
 30
0.0
 40
6.0
100
AcDbArc
 50
0.0
 51
52.015071
  0
ARC
  5
94D5
100
AcDbEntity
  8
0
100
AcDbCircle
 10
1028.500989
 20
443.483525
 30
0.0
 40
8.0
100
AcDbArc
 50
270.0
 51
0.0
  0
LINE
  5
94D6
100
AcDbEntity
  8
0
100
AcDbLine
 10
1113.387389
 20
441.321172
 30
0.0
 11
1073.635601
 21
440.999642
 31
0.0
  0
LINE
  5
94D9
100
AcDbEntity
  8
0
100
AcDbLine
 10
1657.241075
 20
357.483675
 30
0.0
 11
1624.46062
 21
357.483675
 31
0.0
  0
CIRCLE
  5
94DB
100
AcDbEntity
  8
0
100
AcDbCircle
 10
1657.641075
 20
433.030728
 30
0.0
 40
9.5
  0
ARC
  5
94DC
100
AcDbEntity
  8
0
100
AcDbCircle
 10
1615.241075
 20
399.483675
 30
0.0
 40
43.0
100
AcDbArc
 50
180.0
 51
282.380799
  0
ARC
  5
94DD
100
AcDbEntity
  8
0
100
AcDbCircle
 10
1274.87319
 20
402.483525
 30
0.0
 40
43.0
100
AcDbArc
 50
259.274993
 51
0.0
  0
ARC
  5
94DE
100
AcDbEntity
  8
0
100
AcDbCircle
 10
1274.87319
 20
402.483525
 30
0.0
 40
43.0
100
AcDbArc
 50
180.0
 51
199.359662
  0
ELLIPSE
  5
94DF
100
AcDbEntity
  8
0
100
AcDbEllipse
 10
1274.75959
 20
382.817499
 30
0.0
 11
15.5
 21
-0.0000000000000028
 31
0.0
210
0.0
220
0.0
230
1.0
 40
0.965926
 41
0.0
 42
6.283185307179586
  0
ELLIPSE
  5
94E0
100
AcDbEntity
  8
0
100
AcDbEllipse
 10
1274.75959
 20
382.817499
 30
0.0
 11
-17.75
 21
0.0
 31
0.0
210
0.0
220
0.0
230
1.0
 40
0.965926
 41
5.683772947925307
 42
5.835400559803447
  0
ELLIPSE
  5
94E1
100
AcDbEntity
  8
0
100
AcDbEllipse
 10
1274.75959
 20
382.817499
 30
0.0
 11
17.75
 21
0.0
 31
0.0
210
0.0
220
0.0
230
-1.0
 40
0.965926
 41
5.683772947925307
 42
5.835400559803447
  0
LINE
  5
94E2
100
AcDbEntity
  8
0
100
AcDbLine
 10
1290.75959
 20
392.313058
 30
0.0
 11
1290.75959
 21
375.394153
 31
0.0
  0
LINE
  5
94E3
100
AcDbEntity
  8
0
100
AcDbLine
 10
1258.75959
 20
392.313058
 30
0.0
 11
1258.75959
 21
375.394153
 31
0.0
  0
ELLIPSE
  5
94E4
100
AcDbEntity
  8
0
100
AcDbEllipse
 10
1274.75959
 20
386.261563
 30
0.0
 11
-17.5
 21
0.0
 31
0.0
210
0.0
220
0.0
230
1.0
 40
0.965926
 41
3.101003103797176
 42
6.32377485697224
  0
LINE
  5
94E5
100
AcDbEntity
  8
0
100
AcDbLine
 10
1254.519199
 20
408.473626
 30
0.0
 11
1257.262857
 21
386.588173
 31
0.0
  0
LINE
  5
94E6
100
AcDbEntity
  8
0
100
AcDbLine
 10
1294.999981
 20
408.473626
 30
0.0
 11
1292.256323
 21
386.588173
 31
0.0
  0
ELLIPSE
  5
94E7
100
AcDbEntity
  8
0
100
AcDbEllipse
 10
1274.75959
 20
382.817499
 30
0.0
 11
-17.75
 21
0.0
 31
0.0
210
0.0
220
0.0
230
1.0
 40
0.965926
 41
1.494982339354536
 42
1.646610314235256
  0
ARC
  5
94E8
100
AcDbEntity
  8
0
100
AcDbCircle
 10
1274.87319
 20
402.483525
 30
0.0
 40
43.0
100
AcDbArc
 50
206.143956
 51
249.168836
  0
LINE
  5
94E9
100
AcDbEntity
  8
0
100
AcDbLine
 10
1260.103996
 20
373.144917
 30
0.0
 11
1273.41518
 21
365.721565
 31
0.0
  0
ARC
  5
94EA
100
AcDbEntity
  8
0
100
AcDbCircle
 10
1248.230231
 20
372.233661
 30
0.0
 40
21.270641
100
AcDbArc
 50
163.441024
 51
196.558976
  0
ARC
  5
94EB
100
AcDbEntity
  8
0
100
AcDbCircle
 10
1210.288949
 20
372.233661
 30
0.0
 40
21.270641
100
AcDbArc
 50
343.441024
 51
16.558976
  0
LINE
  5
94EC
100
AcDbEntity
  8
0
100
AcDbLine
 10
1232.75959
 20
384.234663
 30
0.0
 11
1232.75959
 21
360.234663
 31
0.0
  0
LINE
  5
94ED
100
AcDbEntity
  8
0
100
AcDbLine
 10
1226.75959
 20
382.483661
 30
0.0
 11
1226.75959
 21
361.983661
 31
0.0
  0
LINE
  5
94EE
100
AcDbEntity
  8
0
100
AcDbLine
 10
1231.75959
 20
382.233661
 30
0.0
 11
1231.75959
 21
362.233661
 31
0.0
  0
LINE
  5
94EF
100
AcDbEntity
  8
0
100
AcDbLine
 10
1231.75959
 20
382.483661
 30
0.0
 11
1231.75959
 21
361.983661
 31
0.0
  0
LINE
  5
94F0
100
AcDbEntity
  8
0
100
AcDbLine
 10
1230.67743
 20
366.171483
 30
0.0
 11
1227.84175
 21
366.171483
 31
0.0
  0
LINE
  5
94F1
100
AcDbEntity
  8
0
100
AcDbLine
 10
1232.75959
 20
363.233661
 30
0.0
 11
1231.75959
 21
363.233661
 31
0.0
  0
LINE
  5
94F2
100
AcDbEntity
  8
0
100
AcDbLine
 10
1230.67743
 20
360.109305
 30
0.0
 11
1231.75959
 21
361.983661
 31
0.0
  0
LINE
  5
94F3
100
AcDbEntity
  8
0
100
AcDbLine
 10
1227.84175
 20
360.109305
 30
0.0
 11
1226.75959
 21
361.983661
 31
0.0
  0
LINE
  5
94F4
100
AcDbEntity
  8
0
100
AcDbLine
 10
1230.67743
 20
360.109305
 30
0.0
 11
1227.84175
 21
360.109305
 31
0.0
  0
LINE
  5
94F5
100
AcDbEntity
  8
0
100
AcDbLine
 10
1230.67743
 20
360.109305
 30
0.0
 11
1227.84175
 21
360.109305
 31
0.0
  0
LINE
  5
94F6
100
AcDbEntity
  8
0
100
AcDbLine
 10
1232.75959
 20
360.234663
 30
0.0
 11
1266.871085
 21
360.234663
 31
0.0
  0
ARC
  5
94F7
100
AcDbEntity
  8
0
100
AcDbCircle
 10
1225.91112
 20
363.140394
 30
0.0
 40
5.64847
100
AcDbArc
 50
327.546074
 51
32.453926
  0
ARC
  5
94F8
100
AcDbEntity
  8
0
100
AcDbCircle
 10
1232.60806
 20
363.140394
 30
0.0
 40
5.64847
100
AcDbArc
 50
147.546074
 51
212.453926
  0
ARC
  5
94F9
100
AcDbEntity
  8
0
100
AcDbCircle
 10
1230.635505
 20
387.35224
 30
0.0
 40
3.772402
100
AcDbArc
 50
304.267604
 51
13.441667
  0
ELLIPSE
  5
94FA
100
AcDbEntity
  8
0
100
AcDbEllipse
 10
1274.75959
 20
384.889712
 30
0.0
 11
-17.5
 21
0.0
 31
0.0
210
0.0
220
0.0
230
1.0
 40
0.965926
 41
5.86613001289398
 42
6.700240601465533
  0
ELLIPSE
  5
94FB
100
AcDbEntity
  8
0
100
AcDbEllipse
 10
1274.75959
 20
382.817499
 30
0.0
 11
-17.75
 21
0.0
 31
0.0
210
0.0
220
0.0
230
1.0
 40
0.965926
 41
0.4477847473764708
 42
0.5994123592542787
  0
LINE
  5
94FC
100
AcDbEntity
  8
0
100
AcDbLine
 10
1230.67743
 20
384.358016
 30
0.0
 11
1227.84175
 21
384.358016
 31
0.0
  0
LINE
  5
94FD
100
AcDbEntity
  8
0
100
AcDbLine
 10
1232.75959
 20
381.233661
 30
0.0
 11
1231.75959
 21
381.233661
 31
0.0
  0
LINE
  5
94FE
100
AcDbEntity
  8
0
100
AcDbLine
 10
1230.67743
 20
378.295838
 30
0.0
 11
1227.84175
 21
378.295838
 31
0.0
  0
ARC
  5
94FF
100
AcDbEntity
  8
0
100
AcDbCircle
 10
1232.60806
 20
381.326927
 30
0.0
 40
5.64847
100
AcDbArc
 50
147.546074
 51
212.453926
  0
LINE
  5
9500
100
AcDbEntity
  8
0
100
AcDbLine
 10
1227.84175
 20
384.358016
 30
0.0
 11
1226.75959
 21
382.483661
 31
0.0
  0
ARC
  5
9501
100
AcDbEntity
  8
0
100
AcDbCircle
 10
1225.91112
 20
381.326927
 30
0.0
 40
5.64847
100
AcDbArc
 50
327.546074
 51
32.453926
  0
LINE
  5
9502
100
AcDbEntity
  8
0
100
AcDbLine
 10
1230.67743
 20
384.358016
 30
0.0
 11
1231.75959
 21
382.483661
 31
0.0
  0
LINE
  5
9503
100
AcDbEntity
  8
0
100
AcDbLine
 10
1289.415184
 20
373.144917
 30
0.0
 11
1276.103999
 21
365.721565
 31
0.0
  0
ELLIPSE
  5
9504
100
AcDbEntity
  8
0
100
AcDbEllipse
 10
1274.75959
 20
384.889712
 30
0.0
 11
-17.5
 21
0.0
 31
0.0
210
0.0
220
0.0
230
1.0
 40
0.965926
 41
2.724537359304187
 42
3.55864794787574
  0
ELLIPSE
  5
9505
100
AcDbEntity
  8
0
100
AcDbEllipse
 10
1274.75959
 20
382.817499
 30
0.0
 11
17.75
 21
0.0
 31
0.0
210
0.0
220
0.0
230
-1.0
 40
0.965926
 41
0.4477847473764708
 42
0.5994123592542787
  0
CIRCLE
  5
9506
100
AcDbEntity
  8
0
100
AcDbCircle
 10
1237.636484
 20
438.360419
 30
0.0
 40
9.5
  0
CIRCLE
  5
9507
100
AcDbEntity
  8
0
100
AcDbCircle
 10
1311.882696
 20
438.360419
 30
0.0
 40
9.5
  0
ELLIPSE
  5
9508
100
AcDbEntity
  8
0
100
AcDbEllipse
 10
1274.75959
 20
382.817499
 30
0.0
 11
-17.75
 21
0.0
 31
0.0
210
0.0
220
0.0
230
1.0
 40
0.965926
 41
4.636574992944329
 42
4.788202967825049
  0
ELLIPSE
  5
9509
100
AcDbEntity
  8
0
100
AcDbEllipse
 10
1274.75959
 20
384.889712
 30
0.0
 11
-17.75
 21
0.0
 31
0.0
210
0.0
220
0.0
230
1.0
 40
0.965926
 41
4.636574992944329
 42
4.788202967825049
  0
LINE
  5
950A
100
AcDbEntity
  8
0
100
AcDbLine
 10
1231.87319
 20
402.483525
 30
0.0
 11
1231.87319
 21
420.159419
 31
0.0
  0
LINE
  5
950B
100
AcDbEntity
  8
0
100
AcDbLine
 10
1273.41518
 20
399.913433
 30
0.0
 11
1273.41518
 21
401.910135
 31
0.0
  0
ELLIPSE
  5
950C
100
AcDbEntity
  8
0
100
AcDbEllipse
 10
1274.75959
 20
384.889712
 30
0.0
 11
-17.75
 21
0.0
 31
0.0
210
0.0
220
0.0
230
1.0
 40
0.965926
 41
5.683772947925307
 42
5.835400559803447
  0
LINE
  5
950D
100
AcDbEntity
  8
0
100
AcDbLine
 10
1260.103996
 20
392.490081
 30
0.0
 11
1260.103996
 21
394.562294
 31
0.0
  0
LINE
  5
950E
100
AcDbEntity
  8
0
100
AcDbLine
 10
1260.103996
 20
392.490081
 30
0.0
 11
1273.41518
 21
399.913433
 31
0.0
  0
LINE
  5
950F
100
AcDbEntity
  8
0
100
AcDbLine
 10
1260.103996
 20
394.562294
 30
0.0
 11
1273.41518
 21
401.985646
 31
0.0
  0
ELLIPSE
  5
9510
100
AcDbEntity
  8
0
100
AcDbEllipse
 10
1274.75959
 20
384.889712
 30
0.0
 11
-17.5
 21
0.0
 31
0.0
210
0.0
220
0.0
230
1.0
 40
0.965926
 41
4.818932400495492
 42
5.653043515254864
  0
LINE
  5
9511
100
AcDbEntity
  8
0
100
AcDbLine
 10
1317.87319
 20
420.336291
 30
0.0
 11
1317.87319
 21
402.483525
 31
0.0
  0
LINE
  5
9512
100
AcDbEntity
  8
0
100
AcDbLine
 10
1276.103999
 20
399.913433
 30
0.0
 11
1276.103999
 21
401.910135
 31
0.0
  0
ELLIPSE
  5
9513
100
AcDbEntity
  8
0
100
AcDbEllipse
 10
1274.75959
 20
384.889712
 30
0.0
 11
17.75
 21
0.0
 31
0.0
210
0.0
220
0.0
230
-1.0
 40
0.965926
 41
5.683772947925307
 42
5.835400559803447
  0
LINE
  5
9514
100
AcDbEntity
  8
0
100
AcDbLine
 10
1289.415184
 20
392.490081
 30
0.0
 11
1289.415184
 21
394.562294
 31
0.0
  0
LINE
  5
9515
100
AcDbEntity
  8
0
100
AcDbLine
 10
1289.415184
 20
392.490081
 30
0.0
 11
1276.103999
 21
399.913433
 31
0.0
  0
LINE
  5
9516
100
AcDbEntity
  8
0
100
AcDbLine
 10
1289.415184
 20
394.562294
 30
0.0
 11
1276.103999
 21
401.985646
 31
0.0
  0
ELLIPSE
  5
9517
100
AcDbEntity
  8
0
100
AcDbEllipse
 10
1274.75959
 20
384.889712
 30
0.0
 11
-17.5
 21
0.0
 31
0.0
210
0.0
220
0.0
230
1.0
 40
0.965926
 41
3.771734445514514
 42
4.605845560273887
  0
CIRCLE
  5
9518
100
AcDbEntity
  8
0
100
AcDbCircle
 10
1572.841075
 20
433.030728
 30
0.0
 40
9.5
  0
LINE
  5
9519
100
AcDbEntity
  8
0
100
AcDbLine
 10
1572.241075
 20
399.483675
 30
0.0
 11
1572.241075
 21
411.006785
 31
0.0
  0
ARC
  5
951A
100
AcDbEntity
  8
0
100
AcDbCircle
 10
1615.241075
 20
399.483675
 30
0.0
 40
43.0
100
AcDbArc
 50
340.366382
 51
0.0
  0
LINE
  5
951B
100
AcDbEntity
  8
0
100
AcDbLine
 10
1997.435497
 20
394.789349
 30
0.0
 11
1989.412107
 21
364.845649
 31
0.0
  0
ARC
  5
951C
100
AcDbEntity
  8
0
100
AcDbCircle
 10
1990.038678
 20
395.471536
 30
0.0
 40
7.021342
100
AcDbArc
 50
307.947305
 51
22.052695
  0
ARC
  5
951D
100
AcDbEntity
  8
0
100
AcDbCircle
 10
1996.455018
 20
393.752283
 30
0.0
 40
7.021342
100
AcDbArc
 50
127.947305
 51
202.052695
  0
ARC
  5
951E
100
AcDbEntity
  8
0
100
AcDbCircle
 10
1920.007242
 20
399.483525
 30
0.0
 40
43.0
100
AcDbArc
 50
340.366382
 51
0.0
  0
ARC
  5
951F
100
AcDbEntity
  8
0
100
AcDbCircle
 10
1920.007242
 20
399.483525
 30
0.0
 40
43.0
100
AcDbArc
 50
180.0
 51
317.046813
  0
LINE
  5
9520
100
AcDbEntity
  8
0
100
AcDbLine
 10
1981.160865
 20
364.980128
 30
0.0
 11
1990.219532
 21
398.787532
 31
0.0
  0
ARC
  5
9522
100
AcDbEntity
  8
0
100
AcDbCircle
 10
1641.770435
 20
369.482672
 30
0.0
 40
21.270641
100
AcDbArc
 50
343.441024
 51
16.558976
  0
ARC
  5
9523
100
AcDbEntity
  8
0
100
AcDbCircle
 10
1679.711716
 20
369.482672
 30
0.0
 40
21.270641
100
AcDbArc
 50
163.441024
 51
196.558976
  0
LINE
  5
9524
100
AcDbEntity
  8
0
100
AcDbLine
 10
1658.241075
 20
379.482672
 30
0.0
 11
1658.241075
 21
359.482672
 31
0.0
  0
LINE
  5
9525
100
AcDbEntity
  8
0
100
AcDbLine
 10
1663.241075
 20
379.732672
 30
0.0
 11
1663.241075
 21
359.232672
 31
0.0
  0
LINE
  5
9526
100
AcDbEntity
  8
0
100
AcDbLine
 10
1658.241075
 20
379.732672
 30
0.0
 11
1658.241075
 21
359.232672
 31
0.0
  0
LINE
  5
9527
100
AcDbEntity
  8
0
100
AcDbLine
 10
1657.241075
 20
381.483675
 30
0.0
 11
1657.241075
 21
357.483675
 31
0.0
  0
LINE
  5
9528
100
AcDbEntity
  8
0
100
AcDbLine
 10
1662.158916
 20
357.358317
 30
0.0
 11
1663.241075
 21
359.232672
 31
0.0
  0
ARC
  5
9529
100
AcDbEntity
  8
0
100
AcDbCircle
 10
1657.392605
 20
360.389406
 30
0.0
 40
5.64847
100
AcDbArc
 50
327.546074
 51
32.453926
  0
LINE
  5
952A
100
AcDbEntity
  8
0
100
AcDbLine
 10
1657.241075
 20
360.482672
 30
0.0
 11
1658.241075
 21
360.482672
 31
0.0
  0
LINE
  5
952B
100
AcDbEntity
  8
0
100
AcDbLine
 10
1659.323235
 20
363.420495
 30
0.0
 11
1662.158916
 21
363.420495
 31
0.0
  0
LINE
  5
952C
100
AcDbEntity
  8
0
100
AcDbLine
 10
1659.323235
 20
357.358317
 30
0.0
 11
1658.241075
 21
359.232672
 31
0.0
  0
LINE
  5
952D
100
AcDbEntity
  8
0
100
AcDbLine
 10
1659.323235
 20
357.358317
 30
0.0
 11
1662.158916
 21
357.358317
 31
0.0
  0
LINE
  5
952E
100
AcDbEntity
  8
0
100
AcDbLine
 10
1659.323235
 20
357.358317
 30
0.0
 11
1662.158916
 21
357.358317
 31
0.0
  0
ARC
  5
952F
100
AcDbEntity
  8
0
100
AcDbCircle
 10
1664.089545
 20
360.389406
 30
0.0
 40
5.64847
100
AcDbArc
 50
147.546074
 51
212.453926
  0
LINE
  5
9530
100
AcDbEntity
  8
0
100
AcDbLine
 10
1662.158916
 20
381.607028
 30
0.0
 11
1663.241075
 21
379.732672
 31
0.0
  0
LINE
  5
9531
100
AcDbEntity
  8
0
100
AcDbLine
 10
1659.323235
 20
381.607028
 30
0.0
 11
1662.158916
 21
381.607028
 31
0.0
  0
LINE
  5
9532
100
AcDbEntity
  8
0
100
AcDbLine
 10
1655.741075
 20
385.035492
 30
0.0
 11
1655.741075
 21
384.081751
 31
0.0
  0
LINE
  5
9533
100
AcDbEntity
  8
0
100
AcDbLine
 10
1659.323235
 20
381.607028
 30
0.0
 11
1658.241075
 21
379.732672
 31
0.0
  0
ARC
  5
9534
100
AcDbEntity
  8
0
100
AcDbCircle
 10
1658.741075
 20
384.081751
 30
0.0
 40
3.0
100
AcDbArc
 50
180.0
 51
240.0
  0
LINE
  5
9535
100
AcDbEntity
  8
0
100
AcDbLine
 10
1657.241075
 20
378.482672
 30
0.0
 11
1658.241075
 21
378.482672
 31
0.0
  0
LINE
  5
9536
100
AcDbEntity
  8
0
100
AcDbLine
 10
1659.323235
 20
375.54485
 30
0.0
 11
1662.158916
 21
375.54485
 31
0.0
  0
ARC
  5
9537
100
AcDbEntity
  8
0
100
AcDbCircle
 10
1657.392605
 20
378.575939
 30
0.0
 40
5.64847
100
AcDbArc
 50
327.546074
 51
32.453926
  0
ARC
  5
9538
100
AcDbEntity
  8
0
100
AcDbCircle
 10
1664.089545
 20
378.575939
 30
0.0
 40
5.64847
100
AcDbArc
 50
147.546074
 51
212.453926
  0
LINE
  5
9539
100
AcDbEntity
  8
0
100
AcDbLine
 10
1984.76384
 20
371.77088
 30
0.0
 11
1985.366523
 21
374.020123
 31
0.0
  0
LINE
  5
953A
100
AcDbEntity
  8
0
100
AcDbLine
 10
1989.172833
 20
370.589494
 30
0.0
 11
1989.775516
 21
372.838737
 31
0.0
  0
ARC
  5
953B
100
AcDbEntity
  8
0
100
AcDbCircle
 10
1972.329226
 20
385.469774
 30
0.0
 40
21.538712
100
AcDbArc
 50
324.095626
 51
5.904374
  0
LINE
  5
953C
100
AcDbEntity
  8
0
100
AcDbLine
 10
1930.397642
 20
369.169661
 30
0.0
 11
1930.397642
 21
381.297661
 31
0.0
  0
CIRCLE
  5
953D
100
AcDbEntity
  8
0
100
AcDbCircle
 10
1919.893642
 20
375.233661
 30
0.0
 40
10.24984
  0
ARC
  5
953E
100
AcDbEntity
  8
0
100
AcDbCircle
 10
1955.138955
 20
366.776297
 30
0.0
 40
5.0
100
AcDbArc
 50
75.0
 51
137.046813
  0
LINE
  5
953F
100
AcDbEntity
  8
0
100
AcDbLine
 10
1919.893642
 20
363.113661
 30
0.0
 11
1930.397642
 21
369.169661
 31
0.0
  0
LINE
  5
9540
100
AcDbEntity
  8
0
100
AcDbLine
 10
1909.397642
 20
369.169661
 30
0.0
 11
1919.893642
 21
363.113661
 31
0.0
  0
LINE
  5
9541
100
AcDbEntity
  8
0
100
AcDbLine
 10
1989.412107
 20
364.845649
 30
0.0
 11
1986.982859
 21
362.416401
 31
0.0
  0
LINE
  5
9542
100
AcDbEntity
  8
0
100
AcDbLine
 10
1989.172833
 20
370.589494
 30
0.0
 11
1984.76384
 21
371.77088
 31
0.0
  0
ARC
  5
9543
100
AcDbEntity
  8
0
100
AcDbCircle
 10
1982.66518
 20
367.953267
 30
0.0
 40
7.021342
100
AcDbArc
 50
307.947305
 51
22.052695
  0
LINE
  5
9544
100
AcDbEntity
  8
0
100
AcDbLine
 10
1956.43305
 20
371.605926
 30
0.0
 11
1981.160865
 21
364.980128
 31
0.0
  0
LINE
  5
9545
100
AcDbEntity
  8
0
100
AcDbLine
 10
1981.6847
 20
366.916201
 30
0.0
 11
1982.573867
 21
363.597787
 31
0.0
  0
ARC
  5
9546
100
AcDbEntity
  8
0
100
AcDbCircle
 10
1989.08152
 20
366.234014
 30
0.0
 40
7.021342
100
AcDbArc
 50
127.947305
 51
202.052695
  0
LINE
  5
9547
100
AcDbEntity
  8
0
100
AcDbLine
 10
1986.982859
 20
362.416401
 30
0.0
 11
1982.573867
 21
363.597787
 31
0.0
  0
LINE
  5
9548
100
AcDbEntity
  8
0
100
AcDbLine
 10
1930.397642
 20
381.297661
 30
0.0
 11
1919.893642
 21
387.361661
 31
0.0
  0
LINE
  5
9549
100
AcDbEntity
  8
0
100
AcDbLine
 10
1919.893642
 20
387.361661
 30
0.0
 11
1909.397642
 21
381.297661
 31
0.0
  0
LINE
  5
954A
100
AcDbEntity
  8
0
100
AcDbLine
 10
1993.753675
 20
387.685428
 30
0.0
 11
1994.356357
 21
389.93467
 31
0.0
  0
LINE
  5
954B
100
AcDbEntity
  8
0
100
AcDbLine
 10
1989.775516
 20
372.838737
 30
0.0
 11
1985.366523
 21
374.020123
 31
0.0
  0
LINE
  5
954C
100
AcDbEntity
  8
0
100
AcDbLine
 10
1989.344682
 20
388.866814
 30
0.0
 11
1989.947365
 21
391.116056
 31
0.0
  0
LINE
  5
954D
100
AcDbEntity
  8
0
100
AcDbLine
 10
1994.356357
 20
389.93467
 30
0.0
 11
1989.947365
 21
391.116056
 31
0.0
  0
LINE
  5
954E
100
AcDbEntity
  8
0
100
AcDbLine
 10
1993.753675
 20
387.685428
 30
0.0
 11
1989.344682
 21
388.866814
 31
0.0
  0
ARC
  5
954F
100
AcDbEntity
  8
0
100
AcDbCircle
 10
2006.790972
 20
376.235777
 30
0.0
 40
21.538712
100
AcDbArc
 50
144.095626
 51
185.904374
  0
LINE
  5
9550
100
AcDbEntity
  8
0
100
AcDbLine
 10
1955.007242
 20
432.483525
 30
0.0
 11
1885.007242
 21
432.483525
 31
0.0
  0
ARC
  5
9551
100
AcDbEntity
  8
0
100
AcDbCircle
 10
1871.007242
 20
426.995169
 30
0.0
 40
6.0
100
AcDbArc
 50
0.0
 51
80.667582
  0
LINE
  5
9552
100
AcDbEntity
  8
0
100
AcDbLine
 10
1798.007242
 20
397.983525
 30
0.0
 11
1818.007242
 21
397.983525
 31
0.0
  0
LINE
  5
9553
100
AcDbEntity
  8
0
100
AcDbLine
 10
1658.241075
 20
399.483675
 30
0.0
 11
1658.241075
 21
411.006785
 31
0.0
  0
ARC
  5
9554
100
AcDbEntity
  8
0
100
AcDbCircle
 10
1851.732432
 20
436.483525
 30
0.0
 40
6.0
100
AcDbArc
 50
46.913401
 51
90.0
  0
LINE
  5
9555
100
AcDbEntity
  8
0
100
AcDbLine
 10
1843.007242
 20
442.483525
 30
0.0
 11
1851.732432
 21
442.483525
 31
0.0
  0
LINE
  5
9556
100
AcDbEntity
  8
0
100
AcDbLine
 10
1818.007242
 20
437.483525
 30
0.0
 11
1843.007242
 21
442.483525
 31
0.0
  0
ARC
  5
9557
100
AcDbEntity
  8
0
100
AcDbCircle
 10
1877.007242
 20
463.505441
 30
0.0
 40
31.0
100
AcDbArc
 50
226.913401
 51
260.667582
  0
ARC
  5
9558
100
AcDbEntity
  8
0
100
AcDbCircle
 10
1955.007242
 20
440.483525
 30
0.0
 40
8.0
100
AcDbArc
 50
270.0
 51
0.0
  0
ARC
  5
9559
100
AcDbEntity
  8
0
100
AcDbCircle
 10
2002.030063
 20
427.483525
 30
0.0
 40
15.0
100
AcDbArc
 50
90.0
 51
180.0
  0
LINE
  5
955A
100
AcDbEntity
  8
0
100
AcDbLine
 10
1986.425179
 20
403.94533
 30
0.0
 11
1987.030063
 21
427.483525
 31
0.0
  0
LINE
  5
955B
100
AcDbEntity
  8
0
100
AcDbLine
 10
1963.007242
 20
425.483525
 30
0.0
 11
1963.007242
 21
399.483525
 31
0.0
  0
LINE
  5
955C
100
AcDbEntity
  8
0
100
AcDbLine
 10
1996.546331
 20
398.107763
 30
0.0
 11
1992.137338
 21
399.289149
 31
0.0
  0
LINE
  5
955D
100
AcDbEntity
  8
0
100
AcDbLine
 10
1989.253606
 20
399.046351
 30
0.0
 11
1990.219532
 21
398.787532
 31
0.0
  0
ARC
  5
955E
100
AcDbEntity
  8
0
100
AcDbCircle
 10
1990.288882
 20
402.910054
 30
0.0
 40
4.0
100
AcDbArc
 50
165.0
 51
255.0
  0
LINE
  5
955F
100
AcDbEntity
  8
0
100
AcDbLine
 10
1997.435497
 20
394.789349
 30
0.0
 11
1996.546331
 21
398.107763
 31
0.0
  0
LINE
  5
9560
100
AcDbEntity
  8
0
100
AcDbLine
 10
1989.708091
 20
396.859902
 30
0.0
 11
1992.137338
 21
399.289149
 31
0.0
  0
LINE
  5
9561
100
AcDbEntity
  8
0
100
AcDbLine
 10
2063.007242
 20
397.983525
 30
0.0
 11
2043.007242
 21
397.983525
 31
0.0
  0
LINE
  5
9562
100
AcDbEntity
  8
0
100
AcDbLine
 10
2002.030063
 20
442.483525
 30
0.0
 11
2018.007242
 21
442.483525
 31
0.0
  0
CIRCLE
  5
9563
100
AcDbEntity
  8
0
100
AcDbCircle
 10
1919.893642
 20
447.233661
 30
0.0
 40
12.0
  0
LINE
  5
9564
100
AcDbEntity
  8
0
100
AcDbLine
 10
2043.007242
 20
437.483525
 30
0.0
 11
2018.007242
 21
442.483525
 31
0.0
  0
ARC
  5
9565
100
AcDbEntity
  8
0
100
AcDbCircle
 10
2227.380245
 20
399.483675
 30
0.0
 40
43.0
100
AcDbArc
 50
257.619201
 51
0.0
  0
ELLIPSE
  5
9566
100
AcDbEntity
  8
0
100
AcDbEllipse
 10
2227.380245
 20
383.261563
 30
0.0
 11
-17.5
 21
0.0
 31
0.0
210
0.0
220
0.0
230
1.0
 40
0.965926
 41
5.176145267833787
 42
6.32377485697224
  0
ELLIPSE
  5
9567
100
AcDbEntity
  8
0
100
AcDbEllipse
 10
2227.380245
 20
383.261563
 30
0.0
 11
-17.5
 21
0.0
 31
0.0
210
0.0
220
0.0
230
1.0
 40
0.965926
 41
3.101003103797176
 42
4.248632692935592
  0
LINE
  5
9568
100
AcDbEntity
  8
0
100
AcDbLine
 10
2212.72465
 20
389.490081
 30
0.0
 11
2226.035835
 21
396.913433
 31
0.0
  0
LINE
  5
9569
100
AcDbEntity
  8
0
100
AcDbLine
 10
2212.72465
 20
391.562294
 30
0.0
 11
2224.345469
 21
398.042966
 31
0.0
  0
ELLIPSE
  5
956A
100
AcDbEntity
  8
0
100
AcDbEllipse
 10
2227.380245
 20
381.889712
 30
0.0
 11
-17.5
 21
0.0
 31
0.0
210
0.0
220
0.0
230
1.0
 40
0.965926
 41
4.992482859841715
 42
5.653043515254864
  0
LINE
  5
956B
100
AcDbEntity
  8
0
100
AcDbLine
 10
2242.035839
 20
389.490081
 30
0.0
 11
2228.724654
 21
396.913433
 31
0.0
  0
LINE
  5
956C
100
AcDbEntity
  8
0
100
AcDbLine
 10
2242.035839
 20
391.562294
 30
0.0
 11
2230.41502
 21
398.042966
 31
0.0
  0
ELLIPSE
  5
956D
100
AcDbEntity
  8
0
100
AcDbEllipse
 10
2227.380245
 20
381.889712
 30
0.0
 11
-17.5
 21
0.0
 31
0.0
210
0.0
220
0.0
230
1.0
 40
0.965926
 41
3.771734445514514
 42
4.432295100927664
  0
LINE
  5
956E
100
AcDbEntity
  8
0
100
AcDbLine
 10
2248.190176
 20
400.829679
 30
0.0
 11
2244.666552
 21
379.250422
 31
0.0
  0
LINE
  5
956F
100
AcDbEntity
  8
0
100
AcDbLine
 10
2206.570313
 20
400.829679
 30
0.0
 11
2210.093937
 21
379.250422
 31
0.0
  0
ELLIPSE
  5
9570
100
AcDbEntity
  8
0
100
AcDbEllipse
 10
2227.380245
 20
379.811767
 30
0.0
 11
15.5
 21
-0.0000000000000028
 31
0.0
210
0.0
220
0.0
230
1.0
 40
0.965926
 41
0.0
 42
6.283185307179586
  0
ARC
  5
9571
100
AcDbEntity
  8
0
100
AcDbCircle
 10
2227.380245
 20
399.483675
 30
0.0
 40
43.0
100
AcDbArc
 50
180.0
 51
199.633618
  0
ELLIPSE
  5
9572
100
AcDbEntity
  8
0
100
AcDbEllipse
 10
2227.380245
 20
379.817499
 30
0.0
 11
17.75
 21
0.0
 31
0.0
210
0.0
220
0.0
230
-1.0
 40
0.965926
 41
5.683772947925307
 42
5.835400559803447
  0
ELLIPSE
  5
9573
100
AcDbEntity
  8
0
100
AcDbEllipse
 10
2227.380245
 20
381.889712
 30
0.0
 11
17.75
 21
0.0
 31
0.0
210
0.0
220
0.0
230
-1.0
 40
0.965926
 41
5.683772947925307
 42
5.835400559803447
  0
ELLIPSE
  5
9574
100
AcDbEntity
  8
0
100
AcDbEllipse
 10
2227.380245
 20
379.817499
 30
0.0
 11
17.75
 21
0.0
 31
0.0
210
0.0
220
0.0
230
-1.0
 40
0.965926
 41
0.4477847473764708
 42
0.5994123592542787
  0
LINE
  5
9576
100
AcDbEntity
  8
0
100
AcDbLine
 10
2211.380245
 20
389.313058
 30
0.0
 11
2211.380245
 21
372.394153
 31
0.0
  0
LINE
  5
9577
100
AcDbEntity
  8
0
100
AcDbLine
 10
2184.380245
 20
379.482672
 30
0.0
 11
2184.380245
 21
359.482672
 31
0.0
  0
ARC
  5
9578
100
AcDbEntity
  8
0
100
AcDbCircle
 10
2162.909604
 20
369.482672
 30
0.0
 40
21.270641
100
AcDbArc
 50
343.441024
 51
16.558976
  0
ARC
  5
9579
100
AcDbEntity
  8
0
100
AcDbCircle
 10
2200.850885
 20
369.482672
 30
0.0
 40
21.270641
100
AcDbArc
 50
163.441024
 51
196.558976
  0
LINE
  5
957A
100
AcDbEntity
  8
0
100
AcDbLine
 10
2185.380245
 20
381.483675
 30
0.0
 11
2185.380245
 21
357.483675
 31
0.0
  0
LINE
  5
957B
100
AcDbEntity
  8
0
100
AcDbLine
 10
2184.380245
 20
379.732672
 30
0.0
 11
2184.380245
 21
359.232672
 31
0.0
  0
LINE
  5
957C
100
AcDbEntity
  8
0
100
AcDbLine
 10
2179.380245
 20
379.732672
 30
0.0
 11
2179.380245
 21
359.232672
 31
0.0
  0
LINE
  5
957D
100
AcDbEntity
  8
0
100
AcDbLine
 10
2185.380245
 20
357.483675
 30
0.0
 11
2218.1607
 21
357.483675
 31
0.0
  0
ARC
  5
957E
100
AcDbEntity
  8
0
100
AcDbCircle
 10
2185.228715
 20
360.389406
 30
0.0
 40
5.64847
100
AcDbArc
 50
147.546074
 51
212.453926
  0
ARC
  5
957F
100
AcDbEntity
  8
0
100
AcDbCircle
 10
2178.531774
 20
360.389406
 30
0.0
 40
5.64847
100
AcDbArc
 50
327.546074
 51
32.453926
  0
LINE
  5
9580
100
AcDbEntity
  8
0
100
AcDbLine
 10
2183.298085
 20
357.358317
 30
0.0
 11
2180.462404
 21
357.358317
 31
0.0
  0
LINE
  5
9581
100
AcDbEntity
  8
0
100
AcDbLine
 10
2183.298085
 20
357.358317
 30
0.0
 11
2180.462404
 21
357.358317
 31
0.0
  0
LINE
  5
9582
100
AcDbEntity
  8
0
100
AcDbLine
 10
2183.298085
 20
357.358317
 30
0.0
 11
2184.380245
 21
359.232672
 31
0.0
  0
LINE
  5
9583
100
AcDbEntity
  8
0
100
AcDbLine
 10
2183.298085
 20
363.420495
 30
0.0
 11
2180.462404
 21
363.420495
 31
0.0
  0
LINE
  5
9584
100
AcDbEntity
  8
0
100
AcDbLine
 10
2185.380245
 20
360.482672
 30
0.0
 11
2184.380245
 21
360.482672
 31
0.0
  0
LINE
  5
9585
100
AcDbEntity
  8
0
100
AcDbLine
 10
2180.462404
 20
357.358317
 30
0.0
 11
2179.380245
 21
359.232672
 31
0.0
  0
LINE
  5
9586
100
AcDbEntity
  8
0
100
AcDbLine
 10
2212.72465
 20
370.144917
 30
0.0
 11
2226.035835
 21
362.721565
 31
0.0
  0
LINE
  5
9587
100
AcDbEntity
  8
0
100
AcDbLine
 10
2242.035839
 20
370.144917
 30
0.0
 11
2228.724654
 21
362.721565
 31
0.0
  0
ELLIPSE
  5
9588
100
AcDbEntity
  8
0
100
AcDbEllipse
 10
2227.380245
 20
379.817499
 30
0.0
 11
-17.75
 21
0.0
 31
0.0
210
0.0
220
0.0
230
1.0
 40
0.965926
 41
1.494982339354536
 42
1.646610314235256
  0
ELLIPSE
  5
9589
100
AcDbEntity
  8
0
100
AcDbEllipse
 10
2227.380245
 20
379.817499
 30
0.0
 11
-17.75
 21
0.0
 31
0.0
210
0.0
220
0.0
230
1.0
 40
0.965926
 41
0.4477847473764708
 42
0.5994123592542787
  0
ARC
  5
958A
100
AcDbEntity
  8
0
100
AcDbCircle
 10
2183.880245
 20
384.081751
 30
0.0
 40
3.0
100
AcDbArc
 50
300.0
 51
0.0
  0
LINE
  5
958B
100
AcDbEntity
  8
0
100
AcDbLine
 10
2183.298085
 20
381.607028
 30
0.0
 11
2184.380245
 21
379.732672
 31
0.0
  0
LINE
  5
958C
100
AcDbEntity
  8
0
100
AcDbLine
 10
2180.462404
 20
381.607028
 30
0.0
 11
2179.380245
 21
379.732672
 31
0.0
  0
LINE
  5
958D
100
AcDbEntity
  8
0
100
AcDbLine
 10
2186.880245
 20
385.035492
 30
0.0
 11
2186.880245
 21
384.081751
 31
0.0
  0
LINE
  5
958E
100
AcDbEntity
  8
0
100
AcDbLine
 10
2183.298085
 20
381.607028
 30
0.0
 11
2180.462404
 21
381.607028
 31
0.0
  0
LINE
  5
958F
100
AcDbEntity
  8
0
100
AcDbLine
 10
2183.298085
 20
375.54485
 30
0.0
 11
2180.462404
 21
375.54485
 31
0.0
  0
LINE
  5
9590
100
AcDbEntity
  8
0
100
AcDbLine
 10
2185.380245
 20
378.482672
 30
0.0
 11
2184.380245
 21
378.482672
 31
0.0
  0
ARC
  5
9591
100
AcDbEntity
  8
0
100
AcDbCircle
 10
2178.531774
 20
378.575939
 30
0.0
 40
5.64847
100
AcDbArc
 50
327.546074
 51
32.453926
  0
ARC
  5
9592
100
AcDbEntity
  8
0
100
AcDbCircle
 10
2185.228715
 20
378.575939
 30
0.0
 40
5.64847
100
AcDbArc
 50
147.546074
 51
212.453926
  0
ELLIPSE
  5
9593
100
AcDbEntity
  8
0
100
AcDbEllipse
 10
2227.380245
 20
379.817499
 30
0.0
 11
-17.75
 21
0.0
 31
0.0
210
0.0
220
0.0
230
1.0
 40
0.965926
 41
5.683772947925307
 42
5.835400559803447
  0
ELLIPSE
  5
9594
100
AcDbEntity
  8
0
100
AcDbEllipse
 10
2227.380245
 20
381.889712
 30
0.0
 11
-17.75
 21
0.0
 31
0.0
210
0.0
220
0.0
230
1.0
 40
0.965926
 41
5.683772947925307
 42
5.835400559803447
  0
ELLIPSE
  5
9595
100
AcDbEntity
  8
0
100
AcDbEllipse
 10
2227.380245
 20
381.889712
 30
0.0
 11
-17.5
 21
0.0
 31
0.0
210
0.0
220
0.0
230
1.0
 40
0.965926
 41
5.86613001289398
 42
6.700240601465533
  0
LINE
  5
9596
100
AcDbEntity
  8
0
100
AcDbLine
 10
2242.035839
 20
389.490081
 30
0.0
 11
2242.035839
 21
391.562294
 31
0.0
  0
LINE
  5
9597
100
AcDbEntity
  8
0
100
AcDbLine
 10
2212.72465
 20
389.490081
 30
0.0
 11
2212.72465
 21
391.562294
 31
0.0
  0
LINE
  5
9598
100
AcDbEntity
  8
0
100
AcDbLine
 10
2243.380245
 20
389.313058
 30
0.0
 11
2243.380245
 21
372.394153
 31
0.0
  0
ELLIPSE
  5
9599
100
AcDbEntity
  8
0
100
AcDbEllipse
 10
2227.380245
 20
381.889712
 30
0.0
 11
-17.5
 21
0.0
 31
0.0
210
0.0
220
0.0
230
1.0
 40
0.965926
 41
2.724537359304187
 42
3.55864794787574
  0
CIRCLE
  5
959A
100
AcDbEntity
  8
0
100
AcDbCircle
 10
2269.780245
 20
433.030728
 30
0.0
 40
9.5
  0
CIRCLE
  5
959B
100
AcDbEntity
  8
0
100
AcDbCircle
 10
2184.980245
 20
433.030728
 30
0.0
 40
9.5
  0
LINE
  5
959C
100
AcDbEntity
  8
0
100
AcDbLine
 10
2184.380245
 20
399.483675
 30
0.0
 11
2184.380245
 21
411.006785
 31
0.0
  0
LINE
  5
959D
100
AcDbEntity
  8
0
100
AcDbLine
 10
2226.035835
 20
396.913433
 30
0.0
 11
2226.035835
 21
397.995187
 31
0.0
  0
LINE
  5
959E
100
AcDbEntity
  8
0
100
AcDbLine
 10
2228.724654
 20
396.913433
 30
0.0
 11
2228.724654
 21
397.995187
 31
0.0
  0
ELLIPSE
  5
959F
100
AcDbEntity
  8
0
100
AcDbEllipse
 10
2227.380245
 20
379.817499
 30
0.0
 11
-17.75
 21
0.0
 31
0.0
210
0.0
220
0.0
230
1.0
 40
0.965926
 41
4.636574992944329
 42
4.788202967825049
  0
LINE
  5
95A0
100
AcDbEntity
  8
0
100
AcDbLine
 10
2270.380245
 20
399.483675
 30
0.0
 11
2270.380245
 21
411.006785
 31
0.0
  0
ARC
  5
95A1
100
AcDbEntity
  8
0
100
AcDbCircle
 10
1013.500989
 20
823.051524
 30
0.0
 40
43.0
100
AcDbArc
 50
222.953187
 51
0.0
  0
ARC
  5
95A2
100
AcDbEntity
  8
0
100
AcDbCircle
 10
2444.201068
 20
1675.947448
 30
0.0
 40
43.0
100
AcDbArc
 50
222.953187
 51
0.0
  0
POLYLINE
  5
95A3
100
AcDbEntity
  8
0
100
AcDb2dPolyline
 66
     1
 10
0.0
 20
0.0
 30
0.0
 70
     1
  0
VERTEX
  5
9B41
100
AcDbEntity
  8
0
100
AcDbVertex
100
AcDb2dVertex
 10
2476.709872
 20
1566.748773
 30
0.0
  0
VERTEX
  5
9B42
100
AcDbEntity
  8
0
100
AcDbVertex
100
AcDb2dVertex
 10
2482.77205
 20
1577.248773
 30
0.0
  0
VERTEX
  5
9B43
100
AcDbEntity
  8
0
100
AcDbVertex
100
AcDb2dVertex
 10
2476.709872
 20
1587.748773
 30
0.0
  0
VERTEX
  5
9B44
100
AcDbEntity
  8
0
100
AcDbVertex
100
AcDb2dVertex
 10
2464.585516
 20
1587.748773
 30
0.0
  0
VERTEX
  5
9B45
100
AcDbEntity
  8
0
100
AcDbVertex
100
AcDb2dVertex
 10
2458.523338
 20
1577.248773
 30
0.0
  0
VERTEX
  5
9B46
100
AcDbEntity
  8
0
100
AcDbVertex
100
AcDb2dVertex
 10
2464.585516
 20
1566.748773
 30
0.0
  0
SEQEND
  5
9B47
100
AcDbEntity
  8
0
  0
CIRCLE
  5
95A4
100
AcDbEntity
  8
0
100
AcDbCircle
 10
2470.647694
 20
1577.248773
 30
0.0
 40
10.5
  0
LINE
  5
95A5
100
AcDbEntity
  8
0
100
AcDbLine
 10
2388.280027
 20
1590.236579
 30
0.0
 11
2470.828758
 21
1590.236579
 31
0.0
  0
CIRCLE
  5
95A6
100
AcDbEntity
  8
0
100
AcDbCircle
 10
2470.647694
 20
1495.224386
 30
0.0
 40
10.5
  0
POLYLINE
  5
95A7
100
AcDbEntity
  8
0
100
AcDb2dPolyline
 66
     1
 10
0.0
 20
0.0
 30
0.0
 70
     1
  0
VERTEX
  5
9B48
100
AcDbEntity
  8
0
100
AcDbVertex
100
AcDb2dVertex
 10
2476.709872
 20
1505.724386
 30
0.0
  0
VERTEX
  5
9B49
100
AcDbEntity
  8
0
100
AcDbVertex
100
AcDb2dVertex
 10
2482.77205
 20
1495.224386
 30
0.0
  0
VERTEX
  5
9B4A
100
AcDbEntity
  8
0
100
AcDbVertex
100
AcDb2dVertex
 10
2476.709872
 20
1484.724386
 30
0.0
  0
VERTEX
  5
9B4B
100
AcDbEntity
  8
0
100
AcDbVertex
100
AcDb2dVertex
 10
2464.585516
 20
1484.724386
 30
0.0
  0
VERTEX
  5
9B4C
100
AcDbEntity
  8
0
100
AcDbVertex
100
AcDb2dVertex
 10
2458.523338
 20
1495.224386
 30
0.0
  0
VERTEX
  5
9B4D
100
AcDbEntity
  8
0
100
AcDbVertex
100
AcDb2dVertex
 10
2464.585516
 20
1505.724386
 30
0.0
  0
SEQEND
  5
9B4E
100
AcDbEntity
  8
0
  0
LINE
  5
95A8
100
AcDbEntity
  8
0
100
AcDbLine
 10
2388.280027
 20
1482.236579
 30
0.0
 11
2470.12211
 21
1482.236579
 31
0.0
  0
ARC
  5
95A9
100
AcDbEntity
  8
0
100
AcDbCircle
 10
2470.122548
 20
1352.310952
 30
0.0
 40
21.571502
100
AcDbArc
 50
73.680185
 51
106.319815
  0
LINE
  5
95AA
100
AcDbEntity
  8
0
100
AcDbLine
 10
2480.313235
 20
1374.129449
 30
0.0
 11
2459.930985
 21
1374.129449
 31
0.0
  0
LINE
  5
95AB
100
AcDbEntity
  8
0
100
AcDbLine
 10
2373.201068
 20
1338.379449
 30
0.0
 11
2485.201068
 21
1338.379449
 31
0.0
  0
LINE
  5
95AC
100
AcDbEntity
  8
0
100
AcDbLine
 10
2364.201068
 20
1352.379449
 30
0.0
 11
2485.201068
 21
1352.379449
 31
0.0
  0
LINE
  5
95AD
100
AcDbEntity
  8
0
100
AcDbLine
 10
2373.201068
 20
1365.379449
 30
0.0
 11
2485.201068
 21
1365.379449
 31
0.0
  0
LINE
  5
95AE
100
AcDbEntity
  8
0
100
AcDbLine
 10
2314.201068
 20
1536.236579
 30
0.0
 11
2314.201068
 21
1468.736579
 31
0.0
  0
LINE
  5
95AF
100
AcDbEntity
  8
0
100
AcDbLine
 10
2334.201068
 20
1468.736579
 30
0.0
 11
2334.201068
 21
1603.736579
 31
0.0
  0
LINE
  5
95B0
100
AcDbEntity
  8
0
100
AcDbLine
 10
1709.335808
 20
1533.672554
 30
0.0
 11
1709.335808
 21
1471.172554
 31
0.0
  0
LINE
  5
95B1
100
AcDbEntity
  8
0
100
AcDbLine
 10
1695.335808
 20
1471.172554
 30
0.0
 11
1695.335808
 21
1596.172554
 31
0.0
  0
LINE
  5
95B2
100
AcDbEntity
  8
0
100
AcDbLine
 10
1709.335808
 20
1385.315424
 30
0.0
 11
1709.335808
 21
1322.815424
 31
0.0
  0
LINE
  5
95B3
100
AcDbEntity
  8
0
100
AcDbLine
 10
1632.833141
 20
1358.812757
 30
0.0
 11
1632.833141
 21
1345.812757
 31
0.0
  0
LINE
  5
95B4
100
AcDbEntity
  8
0
100
AcDbLine
 10
1632.833141
 20
1343.812757
 30
0.0
 11
1661.833141
 21
1343.812757
 31
0.0
  0
LINE
  5
95B5
100
AcDbEntity
  8
0
100
AcDbLine
 10
1632.833141
 20
1345.812757
 30
0.0
 11
1632.833141
 21
1331.812757
 31
0.0
  0
LINE
  5
95B6
100
AcDbEntity
  8
0
100
AcDbLine
 10
1661.833141
 20
1343.812757
 30
0.0
 11
1661.833141
 21
1322.812757
 31
0.0
  0
LINE
  5
95B7
100
AcDbEntity
  8
0
100
AcDbLine
 10
1657.833141
 20
1331.812757
 30
0.0
 11
1642.833141
 21
1331.812757
 31
0.0
  0
ARC
  5
95B8
100
AcDbEntity
  8
0
100
AcDbCircle
 10
1691.226984
 20
1353.377814
 30
0.0
 40
4.111167
100
AcDbArc
 50
266.06917
 51
358.065724
  0
LINE
  5
95B9
100
AcDbEntity
  8
0
100
AcDbLine
 10
1686.335808
 20
1348.710363
 30
0.0
 11
1676.55277
 21
1340.065424
 31
0.0
  0
LINE
  5
95BA
100
AcDbEntity
  8
0
100
AcDbLine
 10
1686.335808
 20
1348.710363
 30
0.0
 11
1690.945155
 21
1349.276319
 31
0.0
  0
LINE
  5
95BB
100
AcDbEntity
  8
0
100
AcDbLine
 10
1661.833784
 20
1340.065424
 30
0.0
 11
1676.55277
 21
1340.065424
 31
0.0
  0
LINE
  5
95BC
100
AcDbEntity
  8
0
100
AcDbLine
 10
1585.333141
 20
1384.235407
 30
0.0
 11
1585.333141
 21
1372.812757
 31
0.0
  0
LINE
  5
95BD
100
AcDbEntity
  8
0
100
AcDbLine
 10
1568.333141
 20
1384.235407
 30
0.0
 11
1568.333141
 21
1372.812757
 31
0.0
  0
LINE
  5
95BE
100
AcDbEntity
  8
0
100
AcDbLine
 10
1547.763043
 20
1363.812757
 30
0.0
 11
1605.630183
 21
1363.812757
 31
0.0
  0
LINE
  5
95BF
100
AcDbEntity
  8
0
100
AcDbLine
 10
1586.833141
 20
1372.812757
 30
0.0
 11
1586.833141
 21
1363.812757
 31
0.0
  0
LINE
  5
95C0
100
AcDbEntity
  8
0
100
AcDbLine
 10
1566.833141
 20
1372.812757
 30
0.0
 11
1566.833141
 21
1363.812757
 31
0.0
  0
ARC
  5
95C1
100
AcDbEntity
  8
0
100
AcDbCircle
 10
1544.732481
 20
1361.595365
 30
0.0
 40
5.720504
100
AcDbArc
 50
57.999617
 51
122.000383
  0
LINE
  5
95C2
100
AcDbEntity
  8
0
100
AcDbLine
 10
1547.763043
 20
1366.446607
 30
0.0
 11
1545.830168
 21
1367.562757
 31
0.0
  0
LINE
  5
95C3
100
AcDbEntity
  8
0
100
AcDbLine
 10
1541.701043
 20
1366.446607
 30
0.0
 11
1541.701043
 21
1358.812757
 31
0.0
  0
LINE
  5
95C4
100
AcDbEntity
  8
0
100
AcDbLine
 10
1547.763043
 20
1358.812757
 30
0.0
 11
1547.763043
 21
1366.446607
 31
0.0
  0
LINE
  5
95C5
100
AcDbEntity
  8
0
100
AcDbLine
 10
1566.833141
 20
1372.812757
 30
0.0
 11
1586.833141
 21
1372.812757
 31
0.0
  0
LINE
  5
95C6
100
AcDbEntity
  8
0
100
AcDbLine
 10
1629.878183
 20
1358.812757
 30
0.0
 11
1629.878183
 21
1366.446607
 31
0.0
  0
LINE
  5
95C7
100
AcDbEntity
  8
0
100
AcDbLine
 10
1627.945308
 20
1367.562757
 30
0.0
 11
1607.563058
 21
1367.562757
 31
0.0
  0
ARC
  5
95C8
100
AcDbEntity
  8
0
100
AcDbCircle
 10
1617.754621
 20
1345.744261
 30
0.0
 40
21.571502
100
AcDbArc
 50
73.680185
 51
106.319815
  0
LINE
  5
95C9
100
AcDbEntity
  8
0
100
AcDbLine
 10
1607.563058
 20
1367.562757
 30
0.0
 11
1605.630183
 21
1366.446607
 31
0.0
  0
ARC
  5
95CA
100
AcDbEntity
  8
0
100
AcDbCircle
 10
1608.661621
 20
1361.595385
 30
0.0
 40
5.720487
100
AcDbArc
 50
57.999511
 51
122.000489
  0
LINE
  5
95CB
100
AcDbEntity
  8
0
100
AcDbLine
 10
1611.693058
 20
1366.446607
 30
0.0
 11
1611.693058
 21
1358.812757
 31
0.0
  0
LINE
  5
95CC
100
AcDbEntity
  8
0
100
AcDbLine
 10
1605.630183
 20
1366.446607
 30
0.0
 11
1605.630183
 21
1358.812757
 31
0.0
  0
LINE
  5
95CD
100
AcDbEntity
  8
0
100
AcDbLine
 10
1623.816183
 20
1366.446607
 30
0.0
 11
1623.816183
 21
1358.812757
 31
0.0
  0
ARC
  5
95CE
100
AcDbEntity
  8
0
100
AcDbCircle
 10
1626.847621
 20
1361.595365
 30
0.0
 40
5.720504
100
AcDbArc
 50
57.999617
 51
122.000383
  0
LINE
  5
95CF
100
AcDbEntity
  8
0
100
AcDbLine
 10
1629.878183
 20
1366.446607
 30
0.0
 11
1627.945308
 21
1367.562757
 31
0.0
  0
LINE
  5
95D0
100
AcDbEntity
  8
0
100
AcDbLine
 10
1585.333141
 20
1384.235407
 30
0.0
 11
1584.333141
 21
1384.812757
 31
0.0
  0
LINE
  5
95D1
100
AcDbEntity
  8
0
100
AcDbLine
 10
1568.333141
 20
1384.235407
 30
0.0
 11
1569.333141
 21
1384.812757
 31
0.0
  0
LINE
  5
95D2
100
AcDbEntity
  8
0
100
AcDbLine
 10
1569.333141
 20
1384.812757
 30
0.0
 11
1584.333141
 21
1384.812757
 31
0.0
  0
LINE
  5
95D3
100
AcDbEntity
  8
0
100
AcDbLine
 10
1709.335808
 20
1385.315424
 30
0.0
 11
1695.335808
 21
1385.315424
 31
0.0
  0
LINE
  5
95D4
100
AcDbEntity
  8
0
100
AcDbLine
 10
1797.283029
 20
1353.283662
 30
0.0
 11
1797.283029
 21
1358.812757
 31
0.0
  0
LINE
  5
95D5
100
AcDbEntity
  8
0
100
AcDbLine
 10
1905.283029
 20
1353.283662
 30
0.0
 11
1905.283029
 21
1358.812757
 31
0.0
  0
CIRCLE
  5
95D6
100
AcDbEntity
  8
0
100
AcDbCircle
 10
1883.102834
 20
1354.635229
 30
0.0
 40
9.5
  0
CIRCLE
  5
95D7
100
AcDbEntity
  8
0
100
AcDbCircle
 10
1819.463224
 20
1354.635229
 30
0.0
 40
9.5
  0
LINE
  5
95D8
100
AcDbEntity
  8
0
100
AcDbLine
 10
1841.283029
 20
1384.812757
 30
0.0
 11
1861.283029
 21
1384.812757
 31
0.0
  0
LINE
  5
95D9
100
AcDbEntity
  8
0
100
AcDbLine
 10
1797.283029
 20
1358.812757
 30
0.0
 11
1800.909947
 21
1358.812757
 31
0.0
  0
ARC
  5
95DA
100
AcDbEntity
  8
0
100
AcDbCircle
 10
1805.046833
 20
1353.527926
 30
0.0
 40
14.28125
100
AcDbArc
 50
75.978312
 51
111.573082
  0
LINE
  5
95DB
100
AcDbEntity
  8
0
100
AcDbLine
 10
1799.795715
 20
1367.808148
 30
0.0
 11
1799.79642
 21
1358.808765
 31
0.0
  0
LINE
  5
95DC
100
AcDbEntity
  8
0
100
AcDbLine
 10
1808.964554
 20
1367.808866
 30
0.0
 11
1799.795715
 21
1367.808148
 31
0.0
  0
LINE
  5
95DD
100
AcDbEntity
  8
0
100
AcDbLine
 10
1841.283029
 20
1384.812757
 30
0.0
 11
1841.283029
 21
1383.510237
 31
0.0
  0
LINE
  5
95DE
100
AcDbEntity
  8
0
100
AcDbLine
 10
1846.015229
 20
1384.09303
 30
0.0
 11
1846.015229
 21
1384.812757
 31
0.0
  0
LINE
  5
95DF
100
AcDbEntity
  8
0
100
AcDbLine
 10
1893.598486
 20
1367.811642
 30
0.0
 11
1902.769745
 21
1367.811532
 31
0.0
  0
ARC
  5
95E0
100
AcDbEntity
  8
0
100
AcDbCircle
 10
1897.519575
 20
1353.530962
 30
0.0
 40
14.28125
100
AcDbArc
 50
68.430722
 51
104.033397
  0
LINE
  5
95E1
100
AcDbEntity
  8
0
100
AcDbLine
 10
1902.769745
 20
1367.811532
 30
0.0
 11
1902.769638
 21
1358.812149
 31
0.0
  0
LINE
  5
95E2
100
AcDbEntity
  8
0
100
AcDbLine
 10
1901.65611
 20
1358.812757
 30
0.0
 11
1905.283029
 21
1358.812757
 31
0.0
  0
LINE
  5
95E3
100
AcDbEntity
  8
0
100
AcDbLine
 10
1861.283029
 20
1384.812757
 30
0.0
 11
1861.283029
 21
1383.510237
 31
0.0
  0
LINE
  5
95E4
100
AcDbEntity
  8
0
100
AcDbLine
 10
1856.550829
 20
1384.09303
 30
0.0
 11
1856.550829
 21
1384.812757
 31
0.0
  0
LINE
  5
95E5
100
AcDbEntity
  8
0
100
AcDbLine
 10
1709.335808
 20
1471.172554
 30
0.0
 11
1695.335808
 21
1471.172554
 31
0.0
  0
CIRCLE
  5
95E6
100
AcDbEntity
  8
0
100
AcDbCircle
 10
2179.291991
 20
1360.734788
 30
0.0
 40
9.5
  0
CIRCLE
  5
95E7
100
AcDbEntity
  8
0
100
AcDbCircle
 10
2108.581313
 20
1360.734788
 30
0.0
 40
9.5
  0
ARC
  5
95E8
100
AcDbEntity
  8
0
100
AcDbCircle
 10
2097.700106
 20
1360.097654
 30
0.0
 40
14.28125
100
AcDbArc
 50
90.762429
 51
111.569278
  0
LINE
  5
95E9
100
AcDbEntity
  8
0
100
AcDbLine
 10
2097.510753
 20
1374.378284
 30
0.0
 11
2092.449936
 21
1374.378224
 31
0.0
  0
LINE
  5
95EA
100
AcDbEntity
  8
0
100
AcDbLine
 10
2092.449936
 20
1374.378224
 30
0.0
 11
2092.449999
 21
1369.030045
 31
0.0
  0
ARC
  5
95EB
100
AcDbEntity
  8
0
100
AcDbCircle
 10
2340.201068
 20
1360.798272
 30
0.0
 40
6.0
100
AcDbArc
 50
180.0
 51
258.690068
  0
LINE
  5
95EC
100
AcDbEntity
  8
0
100
AcDbLine
 10
2314.201068
 20
1392.879449
 30
0.0
 11
2314.201068
 21
1325.379449
 31
0.0
  0
LINE
  5
95ED
100
AcDbEntity
  8
0
100
AcDbLine
 10
2373.201068
 20
1365.379449
 30
0.0
 11
2373.201068
 21
1338.379449
 31
0.0
  0
LINE
  5
95EE
100
AcDbEntity
  8
0
100
AcDbLine
 10
2359.201068
 20
1350.879449
 30
0.0
 11
2373.201068
 21
1350.879449
 31
0.0
  0
LINE
  5
95EF
100
AcDbEntity
  8
0
100
AcDbLine
 10
2339.024372
 20
1354.914788
 30
0.0
 11
2359.201068
 21
1350.879449
 31
0.0
  0
ARC
  5
95F0
100
AcDbEntity
  8
0
100
AcDbCircle
 10
2382.201068
 20
1334.379449
 30
0.0
 40
4.0
100
AcDbArc
 50
360.0
 51
90.0
  0
LINE
  5
95F1
100
AcDbEntity
  8
0
100
AcDbLine
 10
2364.201068
 20
1352.379449
 30
0.0
 11
2364.201068
 21
1350.879449
 31
0.0
  0
LINE
  5
95F2
100
AcDbEntity
  8
0
100
AcDbLine
 10
2190.365769
 20
1374.375235
 30
0.0
 11
2195.423966
 21
1374.374839
 31
0.0
  0
ARC
  5
95F3
100
AcDbEntity
  8
0
100
AcDbCircle
 10
2190.172848
 20
1360.094618
 30
0.0
 40
14.28125
100
AcDbArc
 50
68.426918
 51
89.223103
  0
LINE
  5
95F4
100
AcDbEntity
  8
0
100
AcDbLine
 10
2195.423966
 20
1374.374839
 30
0.0
 11
2195.423547
 21
1369.029759
 31
0.0
  0
LINE
  5
95F5
100
AcDbEntity
  8
0
100
AcDbLine
 10
2314.201068
 20
1392.879449
 30
0.0
 11
2334.201068
 21
1392.879449
 31
0.0
  0
LINE
  5
95F6
100
AcDbEntity
  8
0
100
AcDbLine
 10
2437.701068
 20
1390.802098
 30
0.0
 11
2437.701068
 21
1379.379449
 31
0.0
  0
LINE
  5
95F7
100
AcDbEntity
  8
0
100
AcDbLine
 10
2420.701068
 20
1390.802098
 30
0.0
 11
2420.701068
 21
1379.379449
 31
0.0
  0
LINE
  5
95F8
100
AcDbEntity
  8
0
100
AcDbLine
 10
2400.13097
 20
1370.379449
 30
0.0
 11
2457.99811
 21
1370.379449
 31
0.0
  0
ARC
  5
95F9
100
AcDbEntity
  8
0
100
AcDbCircle
 10
2397.100408
 20
1368.162057
 30
0.0
 40
5.720504
100
AcDbArc
 50
57.999617
 51
122.000383
  0
LINE
  5
95FA
100
AcDbEntity
  8
0
100
AcDbLine
 10
2394.06897
 20
1373.013299
 30
0.0
 11
2394.06897
 21
1365.379449
 31
0.0
  0
LINE
  5
95FB
100
AcDbEntity
  8
0
100
AcDbLine
 10
2400.13097
 20
1373.013299
 30
0.0
 11
2398.198095
 21
1374.129449
 31
0.0
  0
LINE
  5
95FC
100
AcDbEntity
  8
0
100
AcDbLine
 10
2400.13097
 20
1365.379449
 30
0.0
 11
2400.13097
 21
1373.013299
 31
0.0
  0
LINE
  5
95FD
100
AcDbEntity
  8
0
100
AcDbLine
 10
2381.945845
 20
1373.013299
 30
0.0
 11
2381.945845
 21
1365.379449
 31
0.0
  0
LINE
  5
95FE
100
AcDbEntity
  8
0
100
AcDbLine
 10
2377.815845
 20
1374.129449
 30
0.0
 11
2375.88297
 21
1373.013299
 31
0.0
  0
LINE
  5
95FF
100
AcDbEntity
  8
0
100
AcDbLine
 10
2375.88297
 20
1373.013299
 30
0.0
 11
2375.88297
 21
1365.379449
 31
0.0
  0
ARC
  5
9600
100
AcDbEntity
  8
0
100
AcDbCircle
 10
2378.914408
 20
1368.162077
 30
0.0
 40
5.720487
100
AcDbArc
 50
57.999511
 51
122.000489
  0
LINE
  5
9601
100
AcDbEntity
  8
0
100
AcDbLine
 10
2398.198095
 20
1374.129449
 30
0.0
 11
2377.815845
 21
1374.129449
 31
0.0
  0
ARC
  5
9602
100
AcDbEntity
  8
0
100
AcDbCircle
 10
2388.007408
 20
1352.310952
 30
0.0
 40
21.571502
100
AcDbArc
 50
73.680185
 51
106.319815
  0
ARC
  5
9603
100
AcDbEntity
  8
0
100
AcDbCircle
 10
2461.029548
 20
1368.162077
 30
0.0
 40
5.720487
100
AcDbArc
 50
57.999511
 51
122.000489
  0
LINE
  5
9604
100
AcDbEntity
  8
0
100
AcDbLine
 10
2459.930985
 20
1374.129449
 30
0.0
 11
2457.99811
 21
1373.013299
 31
0.0
  0
LINE
  5
9605
100
AcDbEntity
  8
0
100
AcDbLine
 10
2457.99811
 20
1373.013299
 30
0.0
 11
2457.99811
 21
1365.379449
 31
0.0
  0
LINE
  5
9606
100
AcDbEntity
  8
0
100
AcDbLine
 10
2464.060985
 20
1373.013299
 30
0.0
 11
2464.060985
 21
1365.379449
 31
0.0
  0
LINE
  5
9607
100
AcDbEntity
  8
0
100
AcDbLine
 10
2439.201068
 20
1379.379449
 30
0.0
 11
2439.201068
 21
1370.379449
 31
0.0
  0
LINE
  5
9608
100
AcDbEntity
  8
0
100
AcDbLine
 10
2419.201068
 20
1379.379449
 30
0.0
 11
2419.201068
 21
1370.379449
 31
0.0
  0
LINE
  5
9609
100
AcDbEntity
  8
0
100
AcDbLine
 10
2419.201068
 20
1379.379449
 30
0.0
 11
2439.201068
 21
1379.379449
 31
0.0
  0
LINE
  5
960A
100
AcDbEntity
  8
0
100
AcDbLine
 10
2437.701068
 20
1390.802098
 30
0.0
 11
2436.701068
 21
1391.379449
 31
0.0
  0
LINE
  5
960B
100
AcDbEntity
  8
0
100
AcDbLine
 10
2420.701068
 20
1390.802098
 30
0.0
 11
2421.701068
 21
1391.379449
 31
0.0
  0
LINE
  5
960C
100
AcDbEntity
  8
0
100
AcDbLine
 10
2421.701068
 20
1391.379449
 30
0.0
 11
2436.701068
 21
1391.379449
 31
0.0
  0
LINE
  5
960D
100
AcDbEntity
  8
0
100
AcDbLine
 10
2314.201068
 20
1468.736579
 30
0.0
 11
2334.201068
 21
1468.736579
 31
0.0
  0
CIRCLE
  5
960E
100
AcDbEntity
  8
0
100
AcDbCircle
 10
1576.830479
 20
1533.672554
 30
0.0
 40
35.0
  0
ARC
  5
960F
100
AcDbEntity
  8
0
100
AcDbCircle
 10
1332.830479
 20
1533.672554
 30
0.0
 40
300.0
100
AcDbArc
 50
351.614461
 51
8.385539
  0
LINE
  5
9610
100
AcDbEntity
  8
0
100
AcDbLine
 10
1686.335808
 20
1559.567493
 30
0.0
 11
1676.55277
 21
1550.922554
 31
0.0
  0
LINE
  5
9611
100
AcDbEntity
  8
0
100
AcDbLine
 10
1686.335808
 20
1559.567493
 30
0.0
 11
1686.335808
 21
1507.777615
 31
0.0
  0
LINE
  5
9612
100
AcDbEntity
  8
0
100
AcDbLine
 10
1709.335808
 20
1596.172554
 30
0.0
 11
1709.335808
 21
1533.672554
 31
0.0
  0
LINE
  5
9613
100
AcDbEntity
  8
0
100
AcDbLine
 10
1661.833532
 20
1533.672554
 30
0.0
 11
1661.833532
 21
1554.669888
 31
0.0
  0
LINE
  5
9614
100
AcDbEntity
  8
0
100
AcDbLine
 10
1686.335808
 20
1507.777615
 30
0.0
 11
1686.335808
 21
1523.247963
 31
0.0
  0
LINE
  5
9615
100
AcDbEntity
  8
0
100
AcDbLine
 10
1686.342546
 20
1507.777616
 30
0.0
 11
1676.557258
 21
1516.420009
 31
0.0
  0
LINE
  5
9616
100
AcDbEntity
  8
0
100
AcDbLine
 10
1661.833532
 20
1512.669888
 30
0.0
 11
1661.833532
 21
1533.672554
 31
0.0
  0
LINE
  5
9617
100
AcDbEntity
  8
0
100
AcDbLine
 10
1632.09439
 20
1512.669888
 30
0.0
 11
1661.833532
 21
1512.669888
 31
0.0
  0
POLYLINE
  5
9618
100
AcDbEntity
  8
0
100
AcDb2dPolyline
 66
     1
 10
0.0
 20
0.0
 30
0.0
 70
     1
  0
VERTEX
  5
9B4F
100
AcDbEntity
  8
0
100
AcDbVertex
100
AcDb2dVertex
 10
1624.339283
 20
1503.160361
 30
0.0
  0
VERTEX
  5
9B50
100
AcDbEntity
  8
0
100
AcDbVertex
100
AcDb2dVertex
 10
1630.401461
 20
1492.660361
 30
0.0
  0
VERTEX
  5
9B51
100
AcDbEntity
  8
0
100
AcDbVertex
100
AcDb2dVertex
 10
1624.339283
 20
1482.160361
 30
0.0
  0
VERTEX
  5
9B52
100
AcDbEntity
  8
0
100
AcDbVertex
100
AcDb2dVertex
 10
1612.214927
 20
1482.160361
 30
0.0
  0
VERTEX
  5
9B53
100
AcDbEntity
  8
0
100
AcDbVertex
100
AcDb2dVertex
 10
1606.152749
 20
1492.660361
 30
0.0
  0
VERTEX
  5
9B54
100
AcDbEntity
  8
0
100
AcDbVertex
100
AcDb2dVertex
 10
1612.214927
 20
1503.160361
 30
0.0
  0
SEQEND
  5
9B55
100
AcDbEntity
  8
0
  0
CIRCLE
  5
9619
100
AcDbEntity
  8
0
100
AcDbCircle
 10
1618.277105
 20
1492.660361
 30
0.0
 40
10.5
  0
ARC
  5
961A
100
AcDbEntity
  8
0
100
AcDbCircle
 10
1617.751521
 20
1491.672554
 30
0.0
 40
12.0
100
AcDbArc
 50
270.0
 51
351.614461
  0
ARC
  5
961B
100
AcDbEntity
  8
0
100
AcDbCircle
 10
1690.335808
 20
1502.248928
 30
0.0
 40
5.0
100
AcDbArc
 50
0.0
 51
83.0
  0
LINE
  5
961C
100
AcDbEntity
  8
0
100
AcDbLine
 10
1686.335808
 20
1507.777615
 30
0.0
 11
1690.945155
 21
1507.211659
 31
0.0
  0
LINE
  5
961D
100
AcDbEntity
  8
0
100
AcDbLine
 10
1657.833532
 20
1510.643553
 30
0.0
 11
1657.833532
 21
1512.669888
 31
0.0
  0
LINE
  5
961E
100
AcDbEntity
  8
0
100
AcDbLine
 10
1642.833532
 20
1510.643553
 30
0.0
 11
1642.833532
 21
1512.669888
 31
0.0
  0
LINE
  5
961F
100
AcDbEntity
  8
0
100
AcDbLine
 10
1642.833532
 20
1510.643553
 30
0.0
 11
1657.833532
 21
1510.643553
 31
0.0
  0
LINE
  5
9620
100
AcDbEntity
  8
0
100
AcDbLine
 10
1585.330479
 20
1538.940381
 30
0.0
 11
1585.330479
 21
1528.404727
 31
0.0
  0
LINE
  5
9621
100
AcDbEntity
  8
0
100
AcDbLine
 10
1568.330479
 20
1538.940381
 30
0.0
 11
1568.330479
 21
1528.404727
 31
0.0
  0
CIRCLE
  5
9622
100
AcDbEntity
  8
0
100
AcDbCircle
 10
1576.830479
 20
1533.672554
 30
0.0
 40
10.0
  0
CIRCLE
  5
9623
100
AcDbEntity
  8
0
100
AcDbCircle
 10
1576.830479
 20
1533.672554
 30
0.0
 40
8.5
  0
LINE
  5
9624
100
AcDbEntity
  8
0
100
AcDbLine
 10
1676.55277
 20
1550.922554
 30
0.0
 11
1676.557258
 21
1516.420009
 31
0.0
  0
LINE
  5
9625
100
AcDbEntity
  8
0
100
AcDbLine
 10
1661.833141
 20
1516.422554
 30
0.0
 11
1676.557258
 21
1516.422554
 31
0.0
  0
LINE
  5
9626
100
AcDbEntity
  8
0
100
AcDbLine
 10
1661.833784
 20
1550.922554
 30
0.0
 11
1676.55277
 21
1550.922554
 31
0.0
  0
LINE
  5
9627
100
AcDbEntity
  8
0
100
AcDbLine
 10
1632.094764
 20
1554.669888
 30
0.0
 11
1661.833532
 21
1554.669888
 31
0.0
  0
CIRCLE
  5
9628
100
AcDbEntity
  8
0
100
AcDbCircle
 10
1618.277105
 20
1574.684748
 30
0.0
 40
10.5
  0
POLYLINE
  5
9629
100
AcDbEntity
  8
0
100
AcDb2dPolyline
 66
     1
 10
0.0
 20
0.0
 30
0.0
 70
     1
  0
VERTEX
  5
9B56
100
AcDbEntity
  8
0
100
AcDbVertex
100
AcDb2dVertex
 10
1624.339283
 20
1564.184748
 30
0.0
  0
VERTEX
  5
9B57
100
AcDbEntity
  8
0
100
AcDbVertex
100
AcDb2dVertex
 10
1630.401461
 20
1574.684748
 30
0.0
  0
VERTEX
  5
9B58
100
AcDbEntity
  8
0
100
AcDbVertex
100
AcDb2dVertex
 10
1624.339283
 20
1585.184748
 30
0.0
  0
VERTEX
  5
9B59
100
AcDbEntity
  8
0
100
AcDbVertex
100
AcDb2dVertex
 10
1612.214927
 20
1585.184748
 30
0.0
  0
VERTEX
  5
9B5A
100
AcDbEntity
  8
0
100
AcDbVertex
100
AcDb2dVertex
 10
1606.152749
 20
1574.684748
 30
0.0
  0
VERTEX
  5
9B5B
100
AcDbEntity
  8
0
100
AcDbVertex
100
AcDb2dVertex
 10
1612.214927
 20
1564.184748
 30
0.0
  0
SEQEND
  5
9B5C
100
AcDbEntity
  8
0
  0
ARC
  5
962A
100
AcDbEntity
  8
0
100
AcDbCircle
 10
1617.751521
 20
1575.672554
 30
0.0
 40
12.0
100
AcDbArc
 50
8.385539
 51
90.0
  0
ARC
  5
962B
100
AcDbEntity
  8
0
100
AcDbCircle
 10
1690.335808
 20
1565.096181
 30
0.0
 40
5.0
100
AcDbArc
 50
277.0
 51
0.0
  0
LINE
  5
962C
100
AcDbEntity
  8
0
100
AcDbLine
 10
1686.335808
 20
1559.567493
 30
0.0
 11
1690.945155
 21
1560.13345
 31
0.0
  0
LINE
  5
962D
100
AcDbEntity
  8
0
100
AcDbLine
 10
1657.833532
 20
1556.701555
 30
0.0
 11
1657.833532
 21
1554.675221
 31
0.0
  0
LINE
  5
962E
100
AcDbEntity
  8
0
100
AcDbLine
 10
1642.833532
 20
1556.701555
 30
0.0
 11
1642.833532
 21
1554.675221
 31
0.0
  0
LINE
  5
962F
100
AcDbEntity
  8
0
100
AcDbLine
 10
1642.833532
 20
1556.701555
 30
0.0
 11
1657.833532
 21
1556.701555
 31
0.0
  0
LINE
  5
9630
100
AcDbEntity
  8
0
100
AcDbLine
 10
1709.335808
 20
1596.172554
 30
0.0
 11
1695.335808
 21
1596.172554
 31
0.0
  0
LINE
  5
9631
100
AcDbEntity
  8
0
100
AcDbLine
 10
2314.201068
 20
1603.736579
 30
0.0
 11
2314.201068
 21
1536.236579
 31
0.0
  0
ARC
  5
9632
100
AcDbEntity
  8
0
100
AcDbCircle
 10
2673.201068
 20
1536.236579
 30
0.0
 40
300.0
100
AcDbArc
 50
171.614461
 51
188.385539
  0
CIRCLE
  5
9633
100
AcDbEntity
  8
0
100
AcDbCircle
 10
2429.201068
 20
1536.236579
 30
0.0
 40
35.0
  0
LINE
  5
9634
100
AcDbEntity
  8
0
100
AcDbLine
 10
2374.286783
 20
1510.736579
 30
0.0
 11
2359.201068
 21
1510.736579
 31
0.0
  0
ARC
  5
9635
100
AcDbEntity
  8
0
100
AcDbCircle
 10
2340.201068
 20
1500.817756
 30
0.0
 40
6.0
100
AcDbArc
 50
101.309932
 51
180.0
  0
LINE
  5
9636
100
AcDbEntity
  8
0
100
AcDbLine
 10
2339.024372
 20
1506.70124
 30
0.0
 11
2359.201068
 21
1510.736579
 31
0.0
  0
POLYLINE
  5
9637
100
AcDbEntity
  8
0
100
AcDb2dPolyline
 66
     1
 10
0.0
 20
0.0
 30
0.0
 70
     1
  0
VERTEX
  5
9B5D
100
AcDbEntity
  8
0
100
AcDbVertex
100
AcDb2dVertex
 10
2382.56113
 20
1505.724386
 30
0.0
  0
VERTEX
  5
9B5E
100
AcDbEntity
  8
0
100
AcDbVertex
100
AcDb2dVertex
 10
2376.498952
 20
1495.224386
 30
0.0
  0
VERTEX
  5
9B5F
100
AcDbEntity
  8
0
100
AcDbVertex
100
AcDb2dVertex
 10
2382.56113
 20
1484.724386
 30
0.0
  0
VERTEX
  5
9B60
100
AcDbEntity
  8
0
100
AcDbVertex
100
AcDb2dVertex
 10
2394.685485
 20
1484.724386
 30
0.0
  0
VERTEX
  5
9B61
100
AcDbEntity
  8
0
100
AcDbVertex
100
AcDb2dVertex
 10
2400.747663
 20
1495.224386
 30
0.0
  0
VERTEX
  5
9B62
100
AcDbEntity
  8
0
100
AcDbVertex
100
AcDb2dVertex
 10
2394.685485
 20
1505.724386
 30
0.0
  0
SEQEND
  5
9B63
100
AcDbEntity
  8
0
  0
CIRCLE
  5
9638
100
AcDbEntity
  8
0
100
AcDbCircle
 10
2388.623307
 20
1495.224386
 30
0.0
 40
10.5
  0
ARC
  5
9639
100
AcDbEntity
  8
0
100
AcDbCircle
 10
2388.280027
 20
1494.236579
 30
0.0
 40
12.0
100
AcDbArc
 50
188.385539
 51
270.0
  0
LINE
  5
963A
100
AcDbEntity
  8
0
100
AcDbLine
 10
2437.701068
 20
1541.504406
 30
0.0
 11
2437.701068
 21
1530.968752
 31
0.0
  0
LINE
  5
963B
100
AcDbEntity
  8
0
100
AcDbLine
 10
2420.701068
 20
1541.504406
 30
0.0
 11
2420.701068
 21
1530.968752
 31
0.0
  0
CIRCLE
  5
963C
100
AcDbEntity
  8
0
100
AcDbCircle
 10
2429.201068
 20
1536.236579
 30
0.0
 40
10.0
  0
CIRCLE
  5
963D
100
AcDbEntity
  8
0
100
AcDbCircle
 10
2429.201068
 20
1536.236579
 30
0.0
 40
8.5
  0
ARC
  5
963E
100
AcDbEntity
  8
0
100
AcDbCircle
 10
2370.201068
 20
1536.236579
 30
0.0
 40
6.0
100
AcDbArc
 50
89.149041
 51
270.850959
  0
ARC
  5
963F
100
AcDbEntity
  8
0
100
AcDbCircle
 10
2370.334732
 20
1527.237572
 30
0.0
 40
3.0
100
AcDbArc
 50
1.701917
 51
90.850959
  0
ARC
  5
9640
100
AcDbEntity
  8
0
100
AcDbCircle
 10
2370.334732
 20
1545.235587
 30
0.0
 40
3.0
100
AcDbArc
 50
269.149041
 51
358.298083
  0
LINE
  5
9641
100
AcDbEntity
  8
0
100
AcDbLine
 10
2374.286783
 20
1561.736579
 30
0.0
 11
2359.201068
 21
1561.736579
 31
0.0
  0
ARC
  5
9642
100
AcDbEntity
  8
0
100
AcDbCircle
 10
2340.201068
 20
1571.655403
 30
0.0
 40
6.0
100
AcDbArc
 50
180.0
 51
258.690068
  0
LINE
  5
9643
100
AcDbEntity
  8
0
100
AcDbLine
 10
2339.024372
 20
1565.771919
 30
0.0
 11
2359.201068
 21
1561.736579
 31
0.0
  0
CIRCLE
  5
9644
100
AcDbEntity
  8
0
100
AcDbCircle
 10
2388.623307
 20
1577.248773
 30
0.0
 40
10.5
  0
POLYLINE
  5
9645
100
AcDbEntity
  8
0
100
AcDb2dPolyline
 66
     1
 10
0.0
 20
0.0
 30
0.0
 70
     1
  0
VERTEX
  5
9B64
100
AcDbEntity
  8
0
100
AcDbVertex
100
AcDb2dVertex
 10
2382.56113
 20
1566.748773
 30
0.0
  0
VERTEX
  5
9B65
100
AcDbEntity
  8
0
100
AcDbVertex
100
AcDb2dVertex
 10
2376.498952
 20
1577.248773
 30
0.0
  0
VERTEX
  5
9B66
100
AcDbEntity
  8
0
100
AcDbVertex
100
AcDb2dVertex
 10
2382.56113
 20
1587.748773
 30
0.0
  0
VERTEX
  5
9B67
100
AcDbEntity
  8
0
100
AcDbVertex
100
AcDb2dVertex
 10
2394.685485
 20
1587.748773
 30
0.0
  0
VERTEX
  5
9B68
100
AcDbEntity
  8
0
100
AcDbVertex
100
AcDb2dVertex
 10
2400.747663
 20
1577.248773
 30
0.0
  0
VERTEX
  5
9B69
100
AcDbEntity
  8
0
100
AcDbVertex
100
AcDb2dVertex
 10
2394.685485
 20
1566.748773
 30
0.0
  0
SEQEND
  5
9B6A
100
AcDbEntity
  8
0
  0
ARC
  5
9646
100
AcDbEntity
  8
0
100
AcDbCircle
 10
2388.280027
 20
1578.236579
 30
0.0
 40
12.0
100
AcDbArc
 50
90.0
 51
171.614461
  0
LINE
  5
9647
100
AcDbEntity
  8
0
100
AcDbLine
 10
2314.201068
 20
1603.736579
 30
0.0
 11
2334.201068
 21
1603.736579
 31
0.0
  0
LINE
  5
9648
100
AcDbEntity
  8
0
100
AcDbLine
 10
1113.387389
 20
616.340656
 30
0.0
 11
1113.387389
 21
756.340656
 31
0.0
  0
LINE
  5
9649
100
AcDbEntity
  8
0
100
AcDbLine
 10
1133.387389
 20
686.340656
 30
0.0
 11
1133.387389
 21
616.340656
 31
0.0
  0
LINE
  5
964A
100
AcDbEntity
  8
0
100
AcDbLine
 10
893.387389
 20
616.340656
 30
0.0
 11
893.387389
 21
756.340656
 31
0.0
  0
LINE
  5
964B
100
AcDbEntity
  8
0
100
AcDbLine
 10
873.387389
 20
686.340656
 30
0.0
 11
873.387389
 21
616.340656
 31
0.0
  0
LINE
  5
964C
100
AcDbEntity
  8
0
100
AcDbLine
 10
2559.201068
 20
1536.236579
 30
0.0
 11
2559.201068
 21
1468.736579
 31
0.0
  0
LINE
  5
964D
100
AcDbEntity
  8
0
100
AcDbLine
 10
2539.201068
 20
1468.736579
 30
0.0
 11
2539.201068
 21
1603.736579
 31
0.0
  0
CIRCLE
  5
964E
100
AcDbEntity
  8
0
100
AcDbCircle
 10
665.711596
 20
512.606631
 30
0.0
 40
9.5
  0
LINE
  5
964F
100
AcDbEntity
  8
0
100
AcDbLine
 10
2559.201068
 20
1392.879449
 30
0.0
 11
2559.201068
 21
1325.379449
 31
0.0
  0
CIRCLE
  5
9650
100
AcDbEntity
  8
0
100
AcDbCircle
 10
2654.142337
 20
1360.734788
 30
0.0
 40
9.5
  0
ARC
  5
9651
100
AcDbEntity
  8
0
100
AcDbCircle
 10
2533.201068
 20
1360.798272
 30
0.0
 40
6.0
100
AcDbArc
 50
281.309932
 51
0.0
  0
LINE
  5
9652
100
AcDbEntity
  8
0
100
AcDbLine
 10
2485.201068
 20
1365.379449
 30
0.0
 11
2485.201068
 21
1338.379449
 31
0.0
  0
ARC
  5
9653
100
AcDbEntity
  8
0
100
AcDbCircle
 10
2476.201068
 20
1334.379449
 30
0.0
 40
4.0
100
AcDbArc
 50
90.0
 51
180.0
  0
LINE
  5
9654
100
AcDbEntity
  8
0
100
AcDbLine
 10
2534.377765
 20
1354.914788
 30
0.0
 11
2514.201068
 21
1350.879449
 31
0.0
  0
LINE
  5
9655
100
AcDbEntity
  8
0
100
AcDbLine
 10
2485.201068
 20
1350.879449
 30
0.0
 11
2514.201068
 21
1350.879449
 31
0.0
  0
LINE
  5
9656
100
AcDbEntity
  8
0
100
AcDbLine
 10
2482.24611
 20
1373.013299
 30
0.0
 11
2480.313235
 21
1374.129449
 31
0.0
  0
LINE
  5
9657
100
AcDbEntity
  8
0
100
AcDbLine
 10
2482.24611
 20
1365.379449
 30
0.0
 11
2482.24611
 21
1373.013299
 31
0.0
  0
LINE
  5
9658
100
AcDbEntity
  8
0
100
AcDbLine
 10
2476.18411
 20
1373.013299
 30
0.0
 11
2476.18411
 21
1365.379449
 31
0.0
  0
ARC
  5
9659
100
AcDbEntity
  8
0
100
AcDbCircle
 10
2479.215548
 20
1368.162057
 30
0.0
 40
5.720504
100
AcDbArc
 50
57.999617
 51
122.000383
  0
LINE
  5
965A
100
AcDbEntity
  8
0
100
AcDbLine
 10
2559.201068
 20
1392.879449
 30
0.0
 11
2539.201068
 21
1392.879449
 31
0.0
  0
LINE
  5
965B
100
AcDbEntity
  8
0
100
AcDbLine
 10
2638.010363
 20
1374.374839
 30
0.0
 11
2638.010781
 21
1369.029759
 31
0.0
  0
LINE
  5
965C
100
AcDbEntity
  8
0
100
AcDbLine
 10
2643.068559
 20
1374.375235
 30
0.0
 11
2638.010363
 21
1374.374839
 31
0.0
  0
ARC
  5
965D
100
AcDbEntity
  8
0
100
AcDbCircle
 10
2643.261481
 20
1360.094618
 30
0.0
 40
14.28125
100
AcDbArc
 50
90.776897
 51
111.573082
  0
CIRCLE
  5
965E
100
AcDbEntity
  8
0
100
AcDbCircle
 10
2724.853015
 20
1360.734788
 30
0.0
 40
9.5
  0
LINE
  5
965F
100
AcDbEntity
  8
0
100
AcDbLine
 10
2740.984393
 20
1374.378224
 30
0.0
 11
2740.984329
 21
1369.030045
 31
0.0
  0
ARC
  5
9660
100
AcDbEntity
  8
0
100
AcDbCircle
 10
2735.734223
 20
1360.097654
 30
0.0
 40
14.28125
100
AcDbArc
 50
68.430722
 51
89.237571
  0
LINE
  5
9661
100
AcDbEntity
  8
0
100
AcDbLine
 10
2735.923575
 20
1374.378284
 30
0.0
 11
2740.984393
 21
1374.378224
 31
0.0
  0
LINE
  5
9662
100
AcDbEntity
  8
0
100
AcDbLine
 10
2559.201068
 20
1468.736579
 30
0.0
 11
2539.201068
 21
1468.736579
 31
0.0
  0
LINE
  5
9663
100
AcDbEntity
  8
0
100
AcDbLine
 10
937.500989
 20
512.483525
 30
0.0
 11
1049.500989
 21
512.483525
 31
0.0
  0
LINE
  5
9664
100
AcDbEntity
  8
0
100
AcDbLine
 10
1049.500989
 20
499.483525
 30
0.0
 11
928.500989
 21
499.483525
 31
0.0
  0
LINE
  5
9665
100
AcDbEntity
  8
0
100
AcDbLine
 10
937.500989
 20
485.483525
 30
0.0
 11
1049.500989
 21
485.483525
 31
0.0
  0
CIRCLE
  5
9666
100
AcDbEntity
  8
0
100
AcDbCircle
 10
739.957808
 20
512.606631
 30
0.0
 40
9.5
  0
LINE
  5
9667
100
AcDbEntity
  8
0
100
AcDbLine
 10
873.387389
 20
475.483525
 30
0.0
 11
873.387389
 21
545.483525
 31
0.0
  0
LINE
  5
9668
100
AcDbEntity
  8
0
100
AcDbLine
 10
937.500989
 20
512.483525
 30
0.0
 11
937.500989
 21
485.483525
 31
0.0
  0
LINE
  5
9669
100
AcDbEntity
  8
0
100
AcDbLine
 10
918.387389
 20
498.370034
 30
0.0
 11
893.387389
 21
508.795651
 31
0.0
  0
LINE
  5
966A
100
AcDbEntity
  8
0
100
AcDbLine
 10
920.205773
 20
497.983525
 30
0.0
 11
937.387389
 21
497.983525
 31
0.0
  0
LINE
  5
966B
100
AcDbEntity
  8
0
100
AcDbLine
 10
918.387389
 20
498.370034
 30
0.0
 11
920.205773
 21
497.983525
 31
0.0
  0
LINE
  5
966C
100
AcDbEntity
  8
0
100
AcDbLine
 10
918.500989
 20
498.370034
 30
0.0
 11
920.319374
 21
497.983525
 31
0.0
  0
LINE
  5
966D
100
AcDbEntity
  8
0
100
AcDbLine
 10
928.500989
 20
499.483525
 30
0.0
 11
928.500989
 21
497.983525
 31
0.0
  0
LINE
  5
966E
100
AcDbEntity
  8
0
100
AcDbLine
 10
920.319374
 20
497.983525
 30
0.0
 11
937.500989
 21
497.983525
 31
0.0
  0
LINE
  5
966F
100
AcDbEntity
  8
0
100
AcDbLine
 10
873.387389
 20
545.483525
 30
0.0
 11
893.387389
 21
545.483525
 31
0.0
  0
LINE
  5
9670
100
AcDbEntity
  8
0
100
AcDbLine
 10
1133.387389
 20
475.483525
 30
0.0
 11
1133.387389
 21
545.483525
 31
0.0
  0
LINE
  5
9671
100
AcDbEntity
  8
0
100
AcDbLine
 10
1049.500989
 20
512.483525
 30
0.0
 11
1049.500989
 21
485.483525
 31
0.0
  0
ARC
  5
9672
100
AcDbEntity
  8
0
100
AcDbCircle
 10
946.500989
 20
481.483525
 30
0.0
 40
4.0
100
AcDbArc
 50
360.0
 51
90.0
  0
ARC
  5
9673
100
AcDbEntity
  8
0
100
AcDbCircle
 10
1040.500989
 20
481.483525
 30
0.0
 40
4.0
100
AcDbArc
 50
90.0
 51
180.0
  0
LINE
  5
9674
100
AcDbEntity
  8
0
100
AcDbLine
 10
1088.387389
 20
498.370034
 30
0.0
 11
1113.387389
 21
508.795651
 31
0.0
  0
LINE
  5
9675
100
AcDbEntity
  8
0
100
AcDbLine
 10
1088.387389
 20
498.370034
 30
0.0
 11
1086.569005
 21
497.983525
 31
0.0
  0
LINE
  5
9676
100
AcDbEntity
  8
0
100
AcDbLine
 10
1049.387389
 20
497.983525
 30
0.0
 11
1086.569005
 21
497.983525
 31
0.0
  0
ARC
  5
9677
100
AcDbEntity
  8
0
100
AcDbCircle
 10
1043.515469
 20
515.266133
 30
0.0
 40
5.720504
100
AcDbArc
 50
57.999617
 51
122.000383
  0
LINE
  5
9678
100
AcDbEntity
  8
0
100
AcDbLine
 10
1044.613156
 20
521.233525
 30
0.0
 11
1024.230906
 21
521.233525
 31
0.0
  0
LINE
  5
9679
100
AcDbEntity
  8
0
100
AcDbLine
 10
1002.000989
 20
538.906175
 30
0.0
 11
1002.000989
 21
526.483525
 31
0.0
  0
LINE
  5
967A
100
AcDbEntity
  8
0
100
AcDbLine
 10
985.000989
 20
538.906175
 30
0.0
 11
985.000989
 21
526.483525
 31
0.0
  0
LINE
  5
967B
100
AcDbEntity
  8
0
100
AcDbLine
 10
983.500989
 20
526.483525
 30
0.0
 11
1003.500989
 21
526.483525
 31
0.0
  0
LINE
  5
967C
100
AcDbEntity
  8
0
100
AcDbLine
 10
964.430892
 20
517.483525
 30
0.0
 11
1022.298031
 21
517.483525
 31
0.0
  0
LINE
  5
967D
100
AcDbEntity
  8
0
100
AcDbLine
 10
983.500989
 20
526.483525
 30
0.0
 11
983.500989
 21
517.483525
 31
0.0
  0
LINE
  5
967E
100
AcDbEntity
  8
0
100
AcDbLine
 10
964.430892
 20
520.117375
 30
0.0
 11
962.498017
 21
521.233525
 31
0.0
  0
ARC
  5
967F
100
AcDbEntity
  8
0
100
AcDbCircle
 10
961.400329
 20
515.266133
 30
0.0
 40
5.720504
100
AcDbArc
 50
57.999617
 51
122.000383
  0
LINE
  5
9680
100
AcDbEntity
  8
0
100
AcDbLine
 10
964.430892
 20
512.483525
 30
0.0
 11
964.430892
 21
520.117375
 31
0.0
  0
LINE
  5
9681
100
AcDbEntity
  8
0
100
AcDbLine
 10
958.368892
 20
520.117375
 30
0.0
 11
958.368892
 21
512.483525
 31
0.0
  0
LINE
  5
9682
100
AcDbEntity
  8
0
100
AcDbLine
 10
946.245767
 20
520.117375
 30
0.0
 11
946.245767
 21
512.483525
 31
0.0
  0
LINE
  5
9683
100
AcDbEntity
  8
0
100
AcDbLine
 10
942.115767
 20
521.233525
 30
0.0
 11
940.182892
 21
520.117375
 31
0.0
  0
LINE
  5
9684
100
AcDbEntity
  8
0
100
AcDbLine
 10
940.182892
 20
520.117375
 30
0.0
 11
940.182892
 21
512.483525
 31
0.0
  0
ARC
  5
9685
100
AcDbEntity
  8
0
100
AcDbCircle
 10
943.214329
 20
515.266153
 30
0.0
 40
5.720487
100
AcDbArc
 50
57.999511
 51
122.000489
  0
ARC
  5
9686
100
AcDbEntity
  8
0
100
AcDbCircle
 10
952.307329
 20
499.415029
 30
0.0
 40
21.571502
100
AcDbArc
 50
73.680185
 51
106.319815
  0
LINE
  5
9687
100
AcDbEntity
  8
0
100
AcDbLine
 10
962.498017
 20
521.233525
 30
0.0
 11
942.115767
 21
521.233525
 31
0.0
  0
LINE
  5
9688
100
AcDbEntity
  8
0
100
AcDbLine
 10
1040.484031
 20
520.117375
 30
0.0
 11
1040.484031
 21
512.483525
 31
0.0
  0
LINE
  5
9689
100
AcDbEntity
  8
0
100
AcDbLine
 10
1024.230906
 20
521.233525
 30
0.0
 11
1022.298031
 21
520.117375
 31
0.0
  0
ARC
  5
968A
100
AcDbEntity
  8
0
100
AcDbCircle
 10
1025.329469
 20
515.266153
 30
0.0
 40
5.720487
100
AcDbArc
 50
57.999511
 51
122.000489
  0
LINE
  5
968B
100
AcDbEntity
  8
0
100
AcDbLine
 10
1028.360906
 20
520.117375
 30
0.0
 11
1028.360906
 21
512.483525
 31
0.0
  0
LINE
  5
968C
100
AcDbEntity
  8
0
100
AcDbLine
 10
1022.298031
 20
520.117375
 30
0.0
 11
1022.298031
 21
512.483525
 31
0.0
  0
ARC
  5
968D
100
AcDbEntity
  8
0
100
AcDbCircle
 10
1034.422469
 20
499.415029
 30
0.0
 40
21.571502
100
AcDbArc
 50
73.680185
 51
106.319815
  0
LINE
  5
968E
100
AcDbEntity
  8
0
100
AcDbLine
 10
1003.500989
 20
526.483525
 30
0.0
 11
1003.500989
 21
517.483525
 31
0.0
  0
LINE
  5
968F
100
AcDbEntity
  8
0
100
AcDbLine
 10
986.000989
 20
539.483525
 30
0.0
 11
1001.000989
 21
539.483525
 31
0.0
  0
LINE
  5
9690
100
AcDbEntity
  8
0
100
AcDbLine
 10
985.000989
 20
538.906175
 30
0.0
 11
986.000989
 21
539.483525
 31
0.0
  0
LINE
  5
9691
100
AcDbEntity
  8
0
100
AcDbLine
 10
1002.000989
 20
538.906175
 30
0.0
 11
1001.000989
 21
539.483525
 31
0.0
  0
LINE
  5
9692
100
AcDbEntity
  8
0
100
AcDbLine
 10
1046.546031
 20
520.117375
 30
0.0
 11
1044.613156
 21
521.233525
 31
0.0
  0
LINE
  5
9693
100
AcDbEntity
  8
0
100
AcDbLine
 10
1046.546031
 20
512.483525
 30
0.0
 11
1046.546031
 21
520.117375
 31
0.0
  0
LINE
  5
9694
100
AcDbEntity
  8
0
100
AcDbLine
 10
1133.387389
 20
545.483525
 30
0.0
 11
1113.387389
 21
545.483525
 31
0.0
  0
LINE
  5
9695
100
AcDbEntity
  8
0
100
AcDbLine
 10
873.387389
 20
616.340656
 30
0.0
 11
893.387389
 21
616.340656
 31
0.0
  0
LINE
  5
9696
100
AcDbEntity
  8
0
100
AcDbLine
 10
1133.387389
 20
616.340656
 30
0.0
 11
1113.387389
 21
616.340656
 31
0.0
  0
LINE
  5
9697
100
AcDbEntity
  8
0
100
AcDbLine
 10
2559.201068
 20
1603.736579
 30
0.0
 11
2559.201068
 21
1536.236579
 31
0.0
  0
ARC
  5
9698
100
AcDbEntity
  8
0
100
AcDbCircle
 10
2185.201068
 20
1536.236579
 30
0.0
 40
300.0
100
AcDbArc
 50
351.614461
 51
8.385539
  0
ARC
  5
9699
100
AcDbEntity
  8
0
100
AcDbCircle
 10
2470.12211
 20
1494.236579
 30
0.0
 40
12.0
100
AcDbArc
 50
270.0
 51
351.614461
  0
LINE
  5
969A
100
AcDbEntity
  8
0
100
AcDbLine
 10
2534.377765
 20
1506.70124
 30
0.0
 11
2514.201068
 21
1510.736579
 31
0.0
  0
LINE
  5
969B
100
AcDbEntity
  8
0
100
AcDbLine
 10
2484.115354
 20
1510.736579
 30
0.0
 11
2514.201068
 21
1510.736579
 31
0.0
  0
ARC
  5
969C
100
AcDbEntity
  8
0
100
AcDbCircle
 10
2533.201068
 20
1500.817756
 30
0.0
 40
6.0
100
AcDbArc
 50
0.0
 51
78.690068
  0
LINE
  5
969D
100
AcDbEntity
  8
0
100
AcDbLine
 10
2534.377765
 20
1565.771919
 30
0.0
 11
2514.201068
 21
1561.736579
 31
0.0
  0
LINE
  5
969E
100
AcDbEntity
  8
0
100
AcDbLine
 10
2484.115354
 20
1561.736579
 30
0.0
 11
2514.201068
 21
1561.736579
 31
0.0
  0
ARC
  5
969F
100
AcDbEntity
  8
0
100
AcDbCircle
 10
2533.201068
 20
1571.655403
 30
0.0
 40
6.0
100
AcDbArc
 50
281.309932
 51
0.0
  0
ARC
  5
96A0
100
AcDbEntity
  8
0
100
AcDbCircle
 10
2470.12211
 20
1578.236579
 30
0.0
 40
12.0
100
AcDbArc
 50
8.385539
 51
90.0
  0
LINE
  5
96A1
100
AcDbEntity
  8
0
100
AcDbLine
 10
2559.201068
 20
1603.736579
 30
0.0
 11
2539.201068
 21
1603.736579
 31
0.0
  0
CIRCLE
  5
96A2
100
AcDbEntity
  8
0
100
AcDbCircle
 10
993.387389
 20
686.340656
 30
0.0
 40
35.0
  0
ARC
  5
96A3
100
AcDbEntity
  8
0
100
AcDbCircle
 10
749.387389
 20
686.340656
 30
0.0
 40
300.0
100
AcDbArc
 50
351.614461
 51
8.385539
  0
ARC
  5
96A4
100
AcDbEntity
  8
0
100
AcDbCircle
 10
1237.387389
 20
686.340656
 30
0.0
 40
300.0
100
AcDbArc
 50
171.614461
 51
188.385539
  0
LINE
  5
96A5
100
AcDbEntity
  8
0
100
AcDbLine
 10
1133.387389
 20
686.340656
 30
0.0
 11
1133.387389
 21
756.340656
 31
0.0
  0
LINE
  5
96A6
100
AcDbEntity
  8
0
100
AcDbLine
 10
873.387389
 20
686.340656
 30
0.0
 11
873.387389
 21
756.340656
 31
0.0
  0
LINE
  5
96A7
100
AcDbEntity
  8
0
100
AcDbLine
 10
920.205773
 20
663.840656
 30
0.0
 11
938.232329
 21
663.840656
 31
0.0
  0
ARC
  5
96A8
100
AcDbEntity
  8
0
100
AcDbCircle
 10
934.387389
 20
686.340656
 30
0.0
 40
6.0
100
AcDbArc
 50
89.149041
 51
270.850959
  0
ARC
  5
96A9
100
AcDbEntity
  8
0
100
AcDbCircle
 10
934.521053
 20
677.341648
 30
0.0
 40
3.0
100
AcDbArc
 50
1.701917
 51
90.850959
  0
ARC
  5
96AA
100
AcDbEntity
  8
0
100
AcDbCircle
 10
934.521053
 20
695.339663
 30
0.0
 40
3.0
100
AcDbArc
 50
269.149041
 51
358.298083
  0
LINE
  5
96AB
100
AcDbEntity
  8
0
100
AcDbLine
 10
918.387389
 20
663.454146
 30
0.0
 11
920.205773
 21
663.840656
 31
0.0
  0
LINE
  5
96AC
100
AcDbEntity
  8
0
100
AcDbLine
 10
918.387389
 20
663.454146
 30
0.0
 11
893.387389
 21
653.028529
 31
0.0
  0
ARC
  5
96AD
100
AcDbEntity
  8
0
100
AcDbCircle
 10
1034.308431
 20
644.340656
 30
0.0
 40
12.0
100
AcDbArc
 50
270.0
 51
351.614461
  0
POLYLINE
  5
96AE
100
AcDbEntity
  8
0
100
AcDb2dPolyline
 66
     1
 10
0.0
 20
0.0
 30
0.0
 70
     1
  0
VERTEX
  5
9B6B
100
AcDbEntity
  8
0
100
AcDbVertex
100
AcDb2dVertex
 10
1040.896193
 20
655.828462
 30
0.0
  0
VERTEX
  5
9B6C
100
AcDbEntity
  8
0
100
AcDbVertex
100
AcDb2dVertex
 10
1046.958371
 20
645.328462
 30
0.0
  0
VERTEX
  5
9B6D
100
AcDbEntity
  8
0
100
AcDbVertex
100
AcDb2dVertex
 10
1040.896193
 20
634.828462
 30
0.0
  0
VERTEX
  5
9B6E
100
AcDbEntity
  8
0
100
AcDbVertex
100
AcDb2dVertex
 10
1028.771837
 20
634.828462
 30
0.0
  0
VERTEX
  5
9B6F
100
AcDbEntity
  8
0
100
AcDbVertex
100
AcDb2dVertex
 10
1022.709659
 20
645.328462
 30
0.0
  0
VERTEX
  5
9B70
100
AcDbEntity
  8
0
100
AcDbVertex
100
AcDb2dVertex
 10
1028.771837
 20
655.828462
 30
0.0
  0
SEQEND
  5
9B71
100
AcDbEntity
  8
0
  0
CIRCLE
  5
96AF
100
AcDbEntity
  8
0
100
AcDbCircle
 10
1034.834015
 20
645.328462
 30
0.0
 40
10.5
  0
CIRCLE
  5
96B0
100
AcDbEntity
  8
0
100
AcDbCircle
 10
952.809628
 20
645.328462
 30
0.0
 40
10.5
  0
POLYLINE
  5
96B1
100
AcDbEntity
  8
0
100
AcDb2dPolyline
 66
     1
 10
0.0
 20
0.0
 30
0.0
 70
     1
  0
VERTEX
  5
9B72
100
AcDbEntity
  8
0
100
AcDbVertex
100
AcDb2dVertex
 10
946.74745
 20
655.828462
 30
0.0
  0
VERTEX
  5
9B73
100
AcDbEntity
  8
0
100
AcDbVertex
100
AcDb2dVertex
 10
940.685273
 20
645.328462
 30
0.0
  0
VERTEX
  5
9B74
100
AcDbEntity
  8
0
100
AcDbVertex
100
AcDb2dVertex
 10
946.74745
 20
634.828462
 30
0.0
  0
VERTEX
  5
9B75
100
AcDbEntity
  8
0
100
AcDbVertex
100
AcDb2dVertex
 10
958.871806
 20
634.828462
 30
0.0
  0
VERTEX
  5
9B76
100
AcDbEntity
  8
0
100
AcDbVertex
100
AcDb2dVertex
 10
964.933984
 20
645.328462
 30
0.0
  0
VERTEX
  5
9B77
100
AcDbEntity
  8
0
100
AcDbVertex
100
AcDb2dVertex
 10
958.871806
 20
655.828462
 30
0.0
  0
SEQEND
  5
9B78
100
AcDbEntity
  8
0
  0
LINE
  5
96B2
100
AcDbEntity
  8
0
100
AcDbLine
 10
952.466347
 20
632.340656
 30
0.0
 11
1034.308431
 21
632.340656
 31
0.0
  0
ARC
  5
96B3
100
AcDbEntity
  8
0
100
AcDbCircle
 10
952.466347
 20
644.340656
 30
0.0
 40
12.0
100
AcDbArc
 50
188.385539
 51
270.0
  0
LINE
  5
96B4
100
AcDbEntity
  8
0
100
AcDbLine
 10
1088.384254
 20
663.455453
 30
0.0
 11
1113.387389
 21
653.028529
 31
0.0
  0
ARC
  5
96B5
100
AcDbEntity
  8
0
100
AcDbCircle
 10
1086.45977
 20
658.840656
 30
0.0
 40
5.0
100
AcDbArc
 50
67.362659
 51
90.0
  0
LINE
  5
96B6
100
AcDbEntity
  8
0
100
AcDbLine
 10
1048.542449
 20
663.840656
 30
0.0
 11
1086.45977
 21
663.840656
 31
0.0
  0
LINE
  5
96B7
100
AcDbEntity
  8
0
100
AcDbLine
 10
984.887389
 20
691.608482
 30
0.0
 11
984.887389
 21
681.072829
 31
0.0
  0
LINE
  5
96B8
100
AcDbEntity
  8
0
100
AcDbLine
 10
1001.887389
 20
691.608482
 30
0.0
 11
1001.887389
 21
681.072829
 31
0.0
  0
CIRCLE
  5
96B9
100
AcDbEntity
  8
0
100
AcDbCircle
 10
993.387389
 20
686.340656
 30
0.0
 40
8.5
  0
CIRCLE
  5
96BA
100
AcDbEntity
  8
0
100
AcDbCircle
 10
993.387389
 20
686.340656
 30
0.0
 40
10.0
  0
LINE
  5
96BB
100
AcDbEntity
  8
0
100
AcDbLine
 10
920.205773
 20
708.840656
 30
0.0
 11
938.232329
 21
708.840656
 31
0.0
  0
LINE
  5
96BC
100
AcDbEntity
  8
0
100
AcDbLine
 10
918.387389
 20
709.227165
 30
0.0
 11
920.205773
 21
708.840656
 31
0.0
  0
LINE
  5
96BD
100
AcDbEntity
  8
0
100
AcDbLine
 10
918.387389
 20
709.227165
 30
0.0
 11
893.387389
 21
719.652782
 31
0.0
  0
LINE
  5
96BE
100
AcDbEntity
  8
0
100
AcDbLine
 10
873.387389
 20
756.340656
 30
0.0
 11
893.387389
 21
756.340656
 31
0.0
  0
ARC
  5
96BF
100
AcDbEntity
  8
0
100
AcDbCircle
 10
1034.308431
 20
728.340656
 30
0.0
 40
12.0
100
AcDbArc
 50
8.385539
 51
90.0
  0
CIRCLE
  5
96C0
100
AcDbEntity
  8
0
100
AcDbCircle
 10
1034.834015
 20
727.352849
 30
0.0
 40
10.5
  0
POLYLINE
  5
96C1
100
AcDbEntity
  8
0
100
AcDb2dPolyline
 66
     1
 10
0.0
 20
0.0
 30
0.0
 70
     1
  0
VERTEX
  5
9B79
100
AcDbEntity
  8
0
100
AcDbVertex
100
AcDb2dVertex
 10
1040.896193
 20
716.852849
 30
0.0
  0
VERTEX
  5
9B7A
100
AcDbEntity
  8
0
100
AcDbVertex
100
AcDb2dVertex
 10
1046.958371
 20
727.352849
 30
0.0
  0
VERTEX
  5
9B7B
100
AcDbEntity
  8
0
100
AcDbVertex
100
AcDb2dVertex
 10
1040.896193
 20
737.852849
 30
0.0
  0
VERTEX
  5
9B7C
100
AcDbEntity
  8
0
100
AcDbVertex
100
AcDb2dVertex
 10
1028.771837
 20
737.852849
 30
0.0
  0
VERTEX
  5
9B7D
100
AcDbEntity
  8
0
100
AcDbVertex
100
AcDb2dVertex
 10
1022.709659
 20
727.352849
 30
0.0
  0
VERTEX
  5
9B7E
100
AcDbEntity
  8
0
100
AcDbVertex
100
AcDb2dVertex
 10
1028.771837
 20
716.852849
 30
0.0
  0
SEQEND
  5
9B7F
100
AcDbEntity
  8
0
  0
POLYLINE
  5
96C2
100
AcDbEntity
  8
0
100
AcDb2dPolyline
 66
     1
 10
0.0
 20
0.0
 30
0.0
 70
     1
  0
VERTEX
  5
9B80
100
AcDbEntity
  8
0
100
AcDbVertex
100
AcDb2dVertex
 10
946.74745
 20
716.852849
 30
0.0
  0
VERTEX
  5
9B81
100
AcDbEntity
  8
0
100
AcDbVertex
100
AcDb2dVertex
 10
940.685273
 20
727.352849
 30
0.0
  0
VERTEX
  5
9B82
100
AcDbEntity
  8
0
100
AcDbVertex
100
AcDb2dVertex
 10
946.74745
 20
737.852849
 30
0.0
  0
VERTEX
  5
9B83
100
AcDbEntity
  8
0
100
AcDbVertex
100
AcDb2dVertex
 10
958.871806
 20
737.852849
 30
0.0
  0
VERTEX
  5
9B84
100
AcDbEntity
  8
0
100
AcDbVertex
100
AcDb2dVertex
 10
964.933984
 20
727.352849
 30
0.0
  0
VERTEX
  5
9B85
100
AcDbEntity
  8
0
100
AcDbVertex
100
AcDb2dVertex
 10
958.871806
 20
716.852849
 30
0.0
  0
SEQEND
  5
9B86
100
AcDbEntity
  8
0
  0
CIRCLE
  5
96C3
100
AcDbEntity
  8
0
100
AcDbCircle
 10
952.809628
 20
727.352849
 30
0.0
 40
10.5
  0
LINE
  5
96C4
100
AcDbEntity
  8
0
100
AcDbLine
 10
952.466347
 20
740.340656
 30
0.0
 11
1035.015079
 21
740.340656
 31
0.0
  0
ARC
  5
96C5
100
AcDbEntity
  8
0
100
AcDbCircle
 10
952.466347
 20
728.340656
 30
0.0
 40
12.0
100
AcDbArc
 50
90.0
 51
171.614461
  0
LINE
  5
96C6
100
AcDbEntity
  8
0
100
AcDbLine
 10
1088.384254
 20
709.225858
 30
0.0
 11
1113.387389
 21
719.652782
 31
0.0
  0
ARC
  5
96C7
100
AcDbEntity
  8
0
100
AcDbCircle
 10
1086.45977
 20
713.840656
 30
0.0
 40
5.0
100
AcDbArc
 50
270.0
 51
292.637341
  0
LINE
  5
96C8
100
AcDbEntity
  8
0
100
AcDbLine
 10
1048.542449
 20
708.840656
 30
0.0
 11
1086.45977
 21
708.840656
 31
0.0
  0
LINE
  5
96C9
100
AcDbEntity
  8
0
100
AcDbLine
 10
1133.387389
 20
756.340656
 30
0.0
 11
1113.387389
 21
756.340656
 31
0.0
  0
LINE
  5
96CA
100
AcDbEntity
  8
0
100
AcDbLine
 10
2473.271166
 20
1790.947448
 30
0.0
 11
2415.404027
 21
1790.947448
 31
0.0
  0
LINE
  5
96CB
100
AcDbEntity
  8
0
100
AcDbLine
 10
2409.201068
 20
1706.947448
 30
0.0
 11
2479.201068
 21
1706.947448
 31
0.0
  0
LINE
  5
96CC
100
AcDbEntity
  8
0
100
AcDbLine
 10
2500.201068
 20
1785.947448
 30
0.0
 11
2388.201068
 21
1785.947448
 31
0.0
  0
LINE
  5
96CD
100
AcDbEntity
  8
0
100
AcDbLine
 10
2509.201068
 20
1772.947448
 30
0.0
 11
2388.201068
 21
1772.947448
 31
0.0
  0
LINE
  5
96CE
100
AcDbEntity
  8
0
100
AcDbLine
 10
2500.201068
 20
1758.947448
 30
0.0
 11
2388.201068
 21
1758.947448
 31
0.0
  0
LINE
  5
96CF
100
AcDbEntity
  8
0
100
AcDbLine
 10
2314.201068
 20
1813.447448
 30
0.0
 11
2314.201068
 21
1745.947448
 31
0.0
  0
LINE
  5
96D0
100
AcDbEntity
  8
0
100
AcDbLine
 10
2334.201068
 20
1678.447448
 30
0.0
 11
2334.201068
 21
1813.447448
 31
0.0
  0
LINE
  5
96D1
100
AcDbEntity
  8
0
100
AcDbLine
 10
2454.201068
 20
1799.947448
 30
0.0
 11
2454.201068
 21
1790.947448
 31
0.0
  0
LINE
  5
96D2
100
AcDbEntity
  8
0
100
AcDbLine
 10
2409.341152
 20
1793.581298
 30
0.0
 11
2409.341152
 21
1785.947448
 31
0.0
  0
LINE
  5
96D3
100
AcDbEntity
  8
0
100
AcDbLine
 10
2415.404027
 20
1793.581298
 30
0.0
 11
2415.404027
 21
1785.947448
 31
0.0
  0
LINE
  5
96D4
100
AcDbEntity
  8
0
100
AcDbLine
 10
2434.201068
 20
1799.947448
 30
0.0
 11
2434.201068
 21
1790.947448
 31
0.0
  0
LINE
  5
96D5
100
AcDbEntity
  8
0
100
AcDbLine
 10
2397.218027
 20
1793.581298
 30
0.0
 11
2397.218027
 21
1785.947448
 31
0.0
  0
LINE
  5
96D6
100
AcDbEntity
  8
0
100
AcDbLine
 10
2391.156027
 20
1785.947448
 30
0.0
 11
2391.156027
 21
1793.581298
 31
0.0
  0
LINE
  5
96D7
100
AcDbEntity
  8
0
100
AcDbLine
 10
1695.335808
 20
1680.883423
 30
0.0
 11
1695.335808
 21
1805.883423
 31
0.0
  0
LINE
  5
96D8
100
AcDbEntity
  8
0
100
AcDbLine
 10
1709.335808
 20
1805.883423
 30
0.0
 11
1709.335808
 21
1743.383423
 31
0.0
  0
LINE
  5
96D9
100
AcDbEntity
  8
0
100
AcDbLine
 10
1601.838475
 20
1793.380756
 30
0.0
 11
1601.838475
 21
1784.380756
 31
0.0
  0
LINE
  5
96DA
100
AcDbEntity
  8
0
100
AcDbLine
 10
1581.838475
 20
1793.380756
 30
0.0
 11
1581.838475
 21
1784.380756
 31
0.0
  0
LINE
  5
96DB
100
AcDbEntity
  8
0
100
AcDbLine
 10
1709.335808
 20
1743.383423
 30
0.0
 11
1709.335808
 21
1680.883423
 31
0.0
  0
LINE
  5
96DC
100
AcDbEntity
  8
0
100
AcDbLine
 10
1634.838475
 20
1717.380756
 30
0.0
 11
1634.838475
 21
1702.380756
 31
0.0
  0
LINE
  5
96DD
100
AcDbEntity
  8
0
100
AcDbLine
 10
1548.838475
 20
1720.310919
 30
0.0
 11
1548.838475
 21
1702.380756
 31
0.0
  0
LINE
  5
96DE
100
AcDbEntity
  8
0
100
AcDbLine
 10
1634.838475
 20
1682.623872
 30
0.0
 11
1634.838475
 21
1662.123872
 31
0.0
  0
LINE
  5
96DF
100
AcDbEntity
  8
0
100
AcDbLine
 10
1639.838475
 20
1682.623872
 30
0.0
 11
1639.838475
 21
1662.123872
 31
0.0
  0
LINE
  5
96E0
100
AcDbEntity
  8
0
100
AcDbLine
 10
1634.838475
 20
1682.373872
 30
0.0
 11
1634.838475
 21
1662.373872
 31
0.0
  0
ARC
  5
96E1
100
AcDbEntity
  8
0
100
AcDbCircle
 10
1618.367834
 20
1672.373872
 30
0.0
 40
21.270641
100
AcDbArc
 50
343.441024
 51
16.558976
  0
ARC
  5
96E2
100
AcDbEntity
  8
0
100
AcDbCircle
 10
1656.309115
 20
1672.373872
 30
0.0
 40
21.270641
100
AcDbArc
 50
163.441024
 51
196.558976
  0
ARC
  5
96E3
100
AcDbEntity
  8
0
100
AcDbCircle
 10
1591.838475
 20
1702.380756
 30
0.0
 40
43.0
100
AcDbArc
 50
290.807612
 51
334.08702
  0
LINE
  5
96E4
100
AcDbEntity
  8
0
100
AcDbLine
 10
1633.838475
 20
1684.380756
 30
0.0
 11
1633.838475
 21
1660.380756
 31
0.0
  0
ARC
  5
96E5
100
AcDbEntity
  8
0
100
AcDbCircle
 10
1591.838475
 20
1702.380756
 30
0.0
 40
43.0
100
AcDbArc
 50
222.953187
 51
282.380799
  0
LINE
  5
96E6
100
AcDbEntity
  8
0
100
AcDbLine
 10
1633.838475
 20
1663.373872
 30
0.0
 11
1634.838475
 21
1663.373872
 31
0.0
  0
LINE
  5
96E7
100
AcDbEntity
  8
0
100
AcDbLine
 10
1635.920634
 20
1666.311694
 30
0.0
 11
1638.756315
 21
1666.311694
 31
0.0
  0
LINE
  5
96E8
100
AcDbEntity
  8
0
100
AcDbLine
 10
1635.920634
 20
1660.249516
 30
0.0
 11
1638.756315
 21
1660.249516
 31
0.0
  0
LINE
  5
96E9
100
AcDbEntity
  8
0
100
AcDbLine
 10
1635.920634
 20
1660.249516
 30
0.0
 11
1638.756315
 21
1660.249516
 31
0.0
  0
LINE
  5
96EA
100
AcDbEntity
  8
0
100
AcDbLine
 10
1633.838475
 20
1660.380756
 30
0.0
 11
1601.058019
 21
1660.380756
 31
0.0
  0
ARC
  5
96EB
100
AcDbEntity
  8
0
100
AcDbCircle
 10
1633.990005
 20
1663.280605
 30
0.0
 40
5.64847
100
AcDbArc
 50
327.546074
 51
32.453926
  0
ARC
  5
96EC
100
AcDbEntity
  8
0
100
AcDbCircle
 10
1640.686945
 20
1663.280605
 30
0.0
 40
5.64847
100
AcDbArc
 50
147.546074
 51
212.453926
  0
LINE
  5
96ED
100
AcDbEntity
  8
0
100
AcDbLine
 10
1638.756315
 20
1660.249516
 30
0.0
 11
1639.838475
 21
1662.123872
 31
0.0
  0
LINE
  5
96EE
100
AcDbEntity
  8
0
100
AcDbLine
 10
1635.920634
 20
1660.249516
 30
0.0
 11
1634.838475
 21
1662.123872
 31
0.0
  0
ARC
  5
96EF
100
AcDbEntity
  8
0
100
AcDbCircle
 10
1591.838475
 20
1702.380756
 30
0.0
 40
43.0
100
AcDbArc
 50
340.033601
 51
360.0
  0
ARC
  5
96F0
100
AcDbEntity
  8
0
100
AcDbCircle
 10
1591.838475
 20
1702.380756
 30
0.0
 40
43.0
100
AcDbArc
 50
180.0
 51
199.966399
  0
ARC
  5
96F1
100
AcDbEntity
  8
0
100
AcDbCircle
 10
1556.706762
 20
1669.673528
 30
0.0
 40
5.0
100
AcDbArc
 50
42.953187
 51
105.0
  0
ARC
  5
96F2
100
AcDbEntity
  8
0
100
AcDbCircle
 10
1633.990005
 20
1681.467138
 30
0.0
 40
5.64847
100
AcDbArc
 50
327.546074
 51
32.453926
  0
ARC
  5
96F3
100
AcDbEntity
  8
0
100
AcDbCircle
 10
1640.686945
 20
1681.467138
 30
0.0
 40
5.64847
100
AcDbArc
 50
147.546074
 51
212.453926
  0
LINE
  5
96F4
100
AcDbEntity
  8
0
100
AcDbLine
 10
1635.920634
 20
1678.436049
 30
0.0
 11
1638.756315
 21
1678.436049
 31
0.0
  0
LINE
  5
96F5
100
AcDbEntity
  8
0
100
AcDbLine
 10
1633.838475
 20
1681.373872
 30
0.0
 11
1634.838475
 21
1681.373872
 31
0.0
  0
LINE
  5
96F6
100
AcDbEntity
  8
0
100
AcDbLine
 10
1635.920634
 20
1684.498227
 30
0.0
 11
1638.756315
 21
1684.498227
 31
0.0
  0
LINE
  5
96F7
100
AcDbEntity
  8
0
100
AcDbLine
 10
1638.756315
 20
1684.498227
 30
0.0
 11
1639.838475
 21
1682.623872
 31
0.0
  0
LINE
  5
96F8
100
AcDbEntity
  8
0
100
AcDbLine
 10
1635.920634
 20
1684.498227
 30
0.0
 11
1634.838475
 21
1682.623872
 31
0.0
  0
ARC
  5
96F9
100
AcDbEntity
  8
0
100
AcDbCircle
 10
1635.185617
 20
1687.06128
 30
0.0
 40
3.0
100
AcDbArc
 50
167.754371
 51
243.317411
  0
LINE
  5
96FA
100
AcDbEntity
  8
0
100
AcDbLine
 10
1709.335808
 20
1680.883423
 30
0.0
 11
1695.335808
 21
1680.883423
 31
0.0
  0
LINE
  5
96FB
100
AcDbEntity
  8
0
100
AcDbLine
 10
1676.55277
 20
1760.633423
 30
0.0
 11
1676.557258
 21
1726.130878
 31
0.0
  0
LINE
  5
96FC
100
AcDbEntity
  8
0
100
AcDbLine
 10
1686.335808
 20
1769.278362
 30
0.0
 11
1686.335808
 21
1717.488484
 31
0.0
  0
LINE
  5
96FD
100
AcDbEntity
  8
0
100
AcDbLine
 10
1661.838475
 20
1764.380756
 30
0.0
 11
1661.838084
 21
1743.380756
 31
0.0
  0
LINE
  5
96FE
100
AcDbEntity
  8
0
100
AcDbLine
 10
1642.838475
 20
1752.380756
 30
0.0
 11
1642.838475
 21
1734.380756
 31
0.0
  0
LINE
  5
96FF
100
AcDbEntity
  8
0
100
AcDbLine
 10
1657.838475
 20
1752.380756
 30
0.0
 11
1657.838475
 21
1734.380756
 31
0.0
  0
LINE
  5
9700
100
AcDbEntity
  8
0
100
AcDbLine
 10
1661.838475
 20
1722.380756
 30
0.0
 11
1551.846169
 21
1722.380756
 31
0.0
  0
ARC
  5
9701
100
AcDbEntity
  8
0
100
AcDbCircle
 10
1489.088598
 20
1739.316422
 30
0.0
 40
57.671059
100
AcDbArc
 50
348.491501
 51
5.94432
  0
ARC
  5
9702
100
AcDbEntity
  8
0
100
AcDbCircle
 10
1550.499663
 20
1726.812713
 30
0.0
 40
5.0
100
AcDbArc
 50
168.491501
 51
234.362954
  0
ARC
  5
9703
100
AcDbEntity
  8
0
100
AcDbCircle
 10
1545.838475
 20
1720.310919
 30
0.0
 40
3.0
100
AcDbArc
 50
0.0
 51
54.362954
  0
ARC
  5
9704
100
AcDbEntity
  8
0
100
AcDbCircle
 10
1639.838475
 20
1717.380756
 30
0.0
 40
5.0
100
AcDbArc
 50
90.0
 51
180.0
  0
LINE
  5
9705
100
AcDbEntity
  8
0
100
AcDbLine
 10
1686.335808
 20
1717.488484
 30
0.0
 11
1686.335808
 21
1732.958832
 31
0.0
  0
LINE
  5
9706
100
AcDbEntity
  8
0
100
AcDbLine
 10
1661.838084
 20
1743.380756
 30
0.0
 11
1661.837693
 21
1722.380756
 31
0.0
  0
ARC
  5
9707
100
AcDbEntity
  8
0
100
AcDbCircle
 10
1690.335808
 20
1711.959797
 30
0.0
 40
5.0
100
AcDbArc
 50
0.0
 51
83.0
  0
LINE
  5
9708
100
AcDbEntity
  8
0
100
AcDbLine
 10
1686.342546
 20
1717.488485
 30
0.0
 11
1676.557258
 21
1726.130878
 31
0.0
  0
LINE
  5
9709
100
AcDbEntity
  8
0
100
AcDbLine
 10
1686.335808
 20
1717.488484
 30
0.0
 11
1690.945155
 21
1716.922527
 31
0.0
  0
LINE
  5
970A
100
AcDbEntity
  8
0
100
AcDbLine
 10
1661.837763
 20
1726.133423
 30
0.0
 11
1676.557258
 21
1726.133423
 31
0.0
  0
LINE
  5
970B
100
AcDbEntity
  8
0
100
AcDbLine
 10
1642.838475
 20
1734.380756
 30
0.0
 11
1657.838475
 21
1734.380756
 31
0.0
  0
ARC
  5
970C
100
AcDbEntity
  8
0
100
AcDbCircle
 10
1642.125135
 20
1782.163384
 30
0.0
 40
5.720487
100
AcDbArc
 50
57.999511
 51
122.000489
  0
LINE
  5
970D
100
AcDbEntity
  8
0
100
AcDbLine
 10
1622.841448
 20
1788.130756
 30
0.0
 11
1643.223698
 21
1788.130756
 31
0.0
  0
LINE
  5
970E
100
AcDbEntity
  8
0
100
AcDbLine
 10
1620.908573
 20
1784.380756
 30
0.0
 11
1563.041433
 21
1784.380756
 31
0.0
  0
LINE
  5
970F
100
AcDbEntity
  8
0
100
AcDbLine
 10
1561.108558
 20
1788.130756
 30
0.0
 11
1563.041433
 21
1787.014606
 31
0.0
  0
LINE
  5
9710
100
AcDbEntity
  8
0
100
AcDbLine
 10
1563.041433
 20
1787.014606
 30
0.0
 11
1563.041433
 21
1779.380756
 31
0.0
  0
ARC
  5
9711
100
AcDbEntity
  8
0
100
AcDbCircle
 10
1550.916996
 20
1766.31226
 30
0.0
 40
21.571502
100
AcDbArc
 50
73.680185
 51
106.319815
  0
LINE
  5
9712
100
AcDbEntity
  8
0
100
AcDbLine
 10
1544.855433
 20
1787.014606
 30
0.0
 11
1544.855433
 21
1779.380756
 31
0.0
  0
LINE
  5
9713
100
AcDbEntity
  8
0
100
AcDbLine
 10
1556.978558
 20
1787.014606
 30
0.0
 11
1556.978558
 21
1779.380756
 31
0.0
  0
ARC
  5
9714
100
AcDbEntity
  8
0
100
AcDbCircle
 10
1560.009996
 20
1782.163384
 30
0.0
 40
5.720487
100
AcDbArc
 50
57.999511
 51
122.000489
  0
LINE
  5
9715
100
AcDbEntity
  8
0
100
AcDbLine
 10
1540.726308
 20
1788.130756
 30
0.0
 11
1561.108558
 21
1788.130756
 31
0.0
  0
LINE
  5
9716
100
AcDbEntity
  8
0
100
AcDbLine
 10
1639.093698
 20
1787.014606
 30
0.0
 11
1639.093698
 21
1779.380756
 31
0.0
  0
ARC
  5
9717
100
AcDbEntity
  8
0
100
AcDbCircle
 10
1623.939135
 20
1782.163364
 30
0.0
 40
5.720504
100
AcDbArc
 50
57.999617
 51
122.000383
  0
LINE
  5
9718
100
AcDbEntity
  8
0
100
AcDbLine
 10
1620.908573
 20
1787.014606
 30
0.0
 11
1622.841448
 21
1788.130756
 31
0.0
  0
LINE
  5
9719
100
AcDbEntity
  8
0
100
AcDbLine
 10
1626.970573
 20
1787.014606
 30
0.0
 11
1626.970573
 21
1779.380756
 31
0.0
  0
LINE
  5
971A
100
AcDbEntity
  8
0
100
AcDbLine
 10
1620.908573
 20
1779.380756
 30
0.0
 11
1620.908573
 21
1787.014606
 31
0.0
  0
ARC
  5
971B
100
AcDbEntity
  8
0
100
AcDbCircle
 10
1633.032135
 20
1766.31226
 30
0.0
 40
21.571502
100
AcDbArc
 50
73.680185
 51
106.319815
  0
ARC
  5
971C
100
AcDbEntity
  8
0
100
AcDbCircle
 10
1690.335808
 20
1774.807049
 30
0.0
 40
5.0
100
AcDbArc
 50
277.0
 51
0.0
  0
LINE
  5
971D
100
AcDbEntity
  8
0
100
AcDbLine
 10
1647.838475
 20
1779.380756
 30
0.0
 11
1647.838475
 21
1766.380756
 31
0.0
  0
LINE
  5
971E
100
AcDbEntity
  8
0
100
AcDbLine
 10
1656.838475
 20
1764.380756
 30
0.0
 11
1656.838475
 21
1766.380756
 31
0.0
  0
LINE
  5
971F
100
AcDbEntity
  8
0
100
AcDbLine
 10
1686.335808
 20
1769.278362
 30
0.0
 11
1676.55277
 21
1760.633423
 31
0.0
  0
LINE
  5
9720
100
AcDbEntity
  8
0
100
AcDbLine
 10
1686.335808
 20
1769.278362
 30
0.0
 11
1690.945155
 21
1769.844318
 31
0.0
  0
LINE
  5
9721
100
AcDbEntity
  8
0
100
AcDbLine
 10
1661.838405
 20
1760.633423
 30
0.0
 11
1676.55277
 21
1760.633423
 31
0.0
  0
LINE
  5
9722
100
AcDbEntity
  8
0
100
AcDbLine
 10
1642.838475
 20
1752.380756
 30
0.0
 11
1657.838475
 21
1752.380756
 31
0.0
  0
LINE
  5
9723
100
AcDbEntity
  8
0
100
AcDbLine
 10
1661.838475
 20
1764.380756
 30
0.0
 11
1647.838475
 21
1764.380756
 31
0.0
  0
LINE
  5
9724
100
AcDbEntity
  8
0
100
AcDbLine
 10
1647.838475
 20
1766.380756
 30
0.0
 11
1647.838475
 21
1752.380756
 31
0.0
  0
LINE
  5
9725
100
AcDbEntity
  8
0
100
AcDbLine
 10
1643.223698
 20
1788.130756
 30
0.0
 11
1645.156573
 21
1787.014606
 31
0.0
  0
LINE
  5
9726
100
AcDbEntity
  8
0
100
AcDbLine
 10
1645.156573
 20
1787.014606
 30
0.0
 11
1645.156573
 21
1779.380756
 31
0.0
  0
ARC
  5
9727
100
AcDbEntity
  8
0
100
AcDbCircle
 10
2340.201068
 20
1710.528625
 30
0.0
 40
6.0
100
AcDbArc
 50
101.309932
 51
180.0
  0
LINE
  5
9728
100
AcDbEntity
  8
0
100
AcDbLine
 10
2314.201068
 20
1745.947448
 30
0.0
 11
2314.201068
 21
1678.447448
 31
0.0
  0
LINE
  5
9729
100
AcDbEntity
  8
0
100
AcDbLine
 10
2377.178248
 20
1678.408051
 30
0.0
 11
2377.178248
 21
1714.447448
 31
0.0
  0
ARC
  5
972A
100
AcDbEntity
  8
0
100
AcDbCircle
 10
2409.201068
 20
1714.947448
 30
0.0
 40
8.0
100
AcDbArc
 50
180.0
 51
270.0
  0
ARC
  5
972B
100
AcDbEntity
  8
0
100
AcDbCircle
 10
2444.201068
 20
1675.947448
 30
0.0
 40
43.0
100
AcDbArc
 50
180.0
 51
199.633618
  0
ARC
  5
972C
100
AcDbEntity
  8
0
100
AcDbCircle
 10
2367.753293
 20
1670.216206
 30
0.0
 40
7.021342
100
AcDbArc
 50
337.947305
 51
52.052695
  0
ARC
  5
972D
100
AcDbEntity
  8
0
100
AcDbCircle
 10
2374.169633
 20
1671.935459
 30
0.0
 40
7.021342
100
AcDbArc
 50
157.947305
 51
232.052695
  0
LINE
  5
972E
100
AcDbEntity
  8
0
100
AcDbLine
 10
2374.50022
 20
1673.323825
 30
0.0
 11
2372.070972
 21
1675.753073
 31
0.0
  0
LINE
  5
972F
100
AcDbEntity
  8
0
100
AcDbLine
 10
2366.772813
 20
1671.253272
 30
0.0
 11
2367.66198
 21
1674.571686
 31
0.0
  0
LINE
  5
9730
100
AcDbEntity
  8
0
100
AcDbLine
 10
2383.047445
 20
1641.444051
 30
0.0
 11
2373.988779
 21
1675.251455
 31
0.0
  0
ARC
  5
9731
100
AcDbEntity
  8
0
100
AcDbCircle
 10
2391.879085
 20
1661.933697
 30
0.0
 40
21.538712
100
AcDbArc
 50
174.095626
 51
215.904374
  0
ARC
  5
9732
100
AcDbEntity
  8
0
100
AcDbCircle
 10
2357.417339
 20
1652.6997
 30
0.0
 40
21.538712
100
AcDbArc
 50
354.095626
 51
35.904374
  0
LINE
  5
9733
100
AcDbEntity
  8
0
100
AcDbLine
 10
2366.772813
 20
1671.253272
 30
0.0
 11
2374.796204
 21
1641.309572
 31
0.0
  0
LINE
  5
9734
100
AcDbEntity
  8
0
100
AcDbLine
 10
2379.44447
 20
1648.234803
 30
0.0
 11
2378.841788
 21
1650.484046
 31
0.0
  0
LINE
  5
9735
100
AcDbEntity
  8
0
100
AcDbLine
 10
2375.035478
 20
1647.053417
 30
0.0
 11
2374.432795
 21
1649.30266
 31
0.0
  0
LINE
  5
9736
100
AcDbEntity
  8
0
100
AcDbLine
 10
2375.035478
 20
1647.053417
 30
0.0
 11
2379.44447
 21
1648.234803
 31
0.0
  0
LINE
  5
9737
100
AcDbEntity
  8
0
100
AcDbLine
 10
2374.432795
 20
1649.30266
 30
0.0
 11
2378.841788
 21
1650.484046
 31
0.0
  0
LINE
  5
9738
100
AcDbEntity
  8
0
100
AcDbLine
 10
2374.796204
 20
1641.309572
 30
0.0
 11
2377.225451
 21
1638.880324
 31
0.0
  0
LINE
  5
9739
100
AcDbEntity
  8
0
100
AcDbLine
 10
2377.225451
 20
1638.880324
 30
0.0
 11
2381.634444
 21
1640.06171
 31
0.0
  0
LINE
  5
973A
100
AcDbEntity
  8
0
100
AcDbLine
 10
2407.775261
 20
1648.069849
 30
0.0
 11
2383.047445
 21
1641.444051
 31
0.0
  0
ARC
  5
973B
100
AcDbEntity
  8
0
100
AcDbCircle
 10
2381.543131
 20
1644.41719
 30
0.0
 40
7.021342
100
AcDbArc
 50
157.947305
 51
232.052695
  0
LINE
  5
973C
100
AcDbEntity
  8
0
100
AcDbLine
 10
2382.52361
 20
1643.380124
 30
0.0
 11
2381.634444
 21
1640.06171
 31
0.0
  0
ARC
  5
973D
100
AcDbEntity
  8
0
100
AcDbCircle
 10
2375.126791
 20
1642.697937
 30
0.0
 40
7.021342
100
AcDbArc
 50
337.947305
 51
52.052695
  0
ARC
  5
973E
100
AcDbEntity
  8
0
100
AcDbCircle
 10
2409.069356
 20
1643.24022
 30
0.0
 40
5.0
100
AcDbArc
 50
42.953187
 51
105.0
  0
LINE
  5
973F
100
AcDbEntity
  8
0
100
AcDbLine
 10
2374.863629
 20
1665.330737
 30
0.0
 11
2374.260946
 21
1667.579979
 31
0.0
  0
LINE
  5
9740
100
AcDbEntity
  8
0
100
AcDbLine
 10
2369.851953
 20
1666.398593
 30
0.0
 11
2374.260946
 21
1667.579979
 31
0.0
  0
LINE
  5
9741
100
AcDbEntity
  8
0
100
AcDbLine
 10
2370.454636
 20
1664.149351
 30
0.0
 11
2369.851953
 21
1666.398593
 31
0.0
  0
LINE
  5
9742
100
AcDbEntity
  8
0
100
AcDbLine
 10
2370.454636
 20
1664.149351
 30
0.0
 11
2374.863629
 21
1665.330737
 31
0.0
  0
LINE
  5
9743
100
AcDbEntity
  8
0
100
AcDbLine
 10
2314.201068
 20
1678.447448
 30
0.0
 11
2334.201068
 21
1678.447448
 31
0.0
  0
LINE
  5
9744
100
AcDbEntity
  8
0
100
AcDbLine
 10
2401.201068
 20
1701.947448
 30
0.0
 11
2401.201068
 21
1675.947448
 31
0.0
  0
LINE
  5
9745
100
AcDbEntity
  8
0
100
AcDbLine
 10
2367.66198
 20
1674.571686
 30
0.0
 11
2372.070972
 21
1675.753073
 31
0.0
  0
LINE
  5
9746
100
AcDbEntity
  8
0
100
AcDbLine
 10
2374.954705
 20
1675.510274
 30
0.0
 11
2373.988779
 21
1675.251455
 31
0.0
  0
ARC
  5
9747
100
AcDbEntity
  8
0
100
AcDbCircle
 10
2374.178248
 20
1678.408051
 30
0.0
 40
3.0
100
AcDbArc
 50
285.0
 51
0.0
  0
LINE
  5
9748
100
AcDbEntity
  8
0
100
AcDbLine
 10
2401.201068
 20
1714.947448
 30
0.0
 11
2401.201068
 21
1754.947448
 31
0.0
  0
LINE
  5
9749
100
AcDbEntity
  8
0
100
AcDbLine
 10
2371.178248
 20
1720.447448
 30
0.0
 11
2359.201068
 21
1720.447448
 31
0.0
  0
LINE
  5
974A
100
AcDbEntity
  8
0
100
AcDbLine
 10
2339.024372
 20
1716.412109
 30
0.0
 11
2359.201068
 21
1720.447448
 31
0.0
  0
ARC
  5
974B
100
AcDbEntity
  8
0
100
AcDbCircle
 10
2371.178248
 20
1714.447448
 30
0.0
 40
6.0
100
AcDbArc
 50
0.0
 51
90.0
  0
LINE
  5
974C
100
AcDbEntity
  8
0
100
AcDbLine
 10
2388.201068
 20
1771.447448
 30
0.0
 11
2359.201068
 21
1771.447448
 31
0.0
  0
LINE
  5
974D
100
AcDbEntity
  8
0
100
AcDbLine
 10
2339.024372
 20
1775.482787
 30
0.0
 11
2359.201068
 21
1771.447448
 31
0.0
  0
ARC
  5
974E
100
AcDbEntity
  8
0
100
AcDbCircle
 10
2340.201068
 20
1781.366271
 30
0.0
 40
6.0
100
AcDbArc
 50
180.0
 51
258.690068
  0
LINE
  5
974F
100
AcDbEntity
  8
0
100
AcDbLine
 10
2388.201068
 20
1785.947448
 30
0.0
 11
2388.201068
 21
1758.947448
 31
0.0
  0
ARC
  5
9750
100
AcDbEntity
  8
0
100
AcDbCircle
 10
2397.201068
 20
1754.947448
 30
0.0
 40
4.0
100
AcDbArc
 50
0.0
 51
90.0
  0
LINE
  5
9751
100
AcDbEntity
  8
0
100
AcDbLine
 10
1599.338475
 20
1805.380756
 30
0.0
 11
1584.338475
 21
1805.380756
 31
0.0
  0
LINE
  5
9752
100
AcDbEntity
  8
0
100
AcDbLine
 10
1601.838475
 20
1793.380756
 30
0.0
 11
1581.838475
 21
1793.380756
 31
0.0
  0
LINE
  5
9753
100
AcDbEntity
  8
0
100
AcDbLine
 10
1583.338475
 20
1804.803406
 30
0.0
 11
1583.338475
 21
1793.380756
 31
0.0
  0
LINE
  5
9754
100
AcDbEntity
  8
0
100
AcDbLine
 10
1583.338475
 20
1804.803406
 30
0.0
 11
1584.338475
 21
1805.380756
 31
0.0
  0
LINE
  5
9755
100
AcDbEntity
  8
0
100
AcDbLine
 10
1600.338475
 20
1804.803406
 30
0.0
 11
1599.338475
 21
1805.380756
 31
0.0
  0
LINE
  5
9756
100
AcDbEntity
  8
0
100
AcDbLine
 10
1600.338475
 20
1804.803406
 30
0.0
 11
1600.338475
 21
1793.380756
 31
0.0
  0
LINE
  5
9757
100
AcDbEntity
  8
0
100
AcDbLine
 10
1709.335808
 20
1805.883423
 30
0.0
 11
1695.335808
 21
1805.883423
 31
0.0
  0
LINE
  5
9758
100
AcDbEntity
  8
0
100
AcDbLine
 10
2314.201068
 20
1813.447448
 30
0.0
 11
2334.201068
 21
1813.447448
 31
0.0
  0
LINE
  5
9759
100
AcDbEntity
  8
0
100
AcDbLine
 10
2452.701068
 20
1811.370098
 30
0.0
 11
2451.701068
 21
1811.947448
 31
0.0
  0
LINE
  5
975A
100
AcDbEntity
  8
0
100
AcDbLine
 10
2435.701068
 20
1811.370098
 30
0.0
 11
2436.701068
 21
1811.947448
 31
0.0
  0
ARC
  5
975B
100
AcDbEntity
  8
0
100
AcDbCircle
 10
2412.372589
 20
1788.730076
 30
0.0
 40
5.720487
100
AcDbArc
 50
57.999511
 51
122.000489
  0
LINE
  5
975C
100
AcDbEntity
  8
0
100
AcDbLine
 10
2393.088902
 20
1794.697448
 30
0.0
 11
2413.471152
 21
1794.697448
 31
0.0
  0
ARC
  5
975D
100
AcDbEntity
  8
0
100
AcDbCircle
 10
2394.186589
 20
1788.730056
 30
0.0
 40
5.720504
100
AcDbArc
 50
57.999617
 51
122.000383
  0
LINE
  5
975E
100
AcDbEntity
  8
0
100
AcDbLine
 10
2391.156027
 20
1793.581298
 30
0.0
 11
2393.088902
 21
1794.697448
 31
0.0
  0
ARC
  5
975F
100
AcDbEntity
  8
0
100
AcDbCircle
 10
2403.279589
 20
1772.878952
 30
0.0
 40
21.571502
100
AcDbArc
 50
73.680185
 51
106.319815
  0
LINE
  5
9760
100
AcDbEntity
  8
0
100
AcDbLine
 10
2452.701068
 20
1811.370098
 30
0.0
 11
2452.701068
 21
1799.947448
 31
0.0
  0
LINE
  5
9761
100
AcDbEntity
  8
0
100
AcDbLine
 10
2435.701068
 20
1811.370098
 30
0.0
 11
2435.701068
 21
1799.947448
 31
0.0
  0
LINE
  5
9762
100
AcDbEntity
  8
0
100
AcDbLine
 10
2413.471152
 20
1794.697448
 30
0.0
 11
2415.404027
 21
1793.581298
 31
0.0
  0
LINE
  5
9763
100
AcDbEntity
  8
0
100
AcDbLine
 10
2454.201068
 20
1799.947448
 30
0.0
 11
2434.201068
 21
1799.947448
 31
0.0
  0
LINE
  5
9764
100
AcDbEntity
  8
0
100
AcDbLine
 10
2451.701068
 20
1811.947448
 30
0.0
 11
2436.701068
 21
1811.947448
 31
0.0
  0
LINE
  5
9765
100
AcDbEntity
  8
0
100
AcDbLine
 10
1113.387389
 20
826.051524
 30
0.0
 11
1113.387389
 21
966.051524
 31
0.0
  0
LINE
  5
9766
100
AcDbEntity
  8
0
100
AcDbLine
 10
1133.387389
 20
896.051524
 30
0.0
 11
1133.387389
 21
966.051524
 31
0.0
  0
LINE
  5
9767
100
AcDbEntity
  8
0
100
AcDbLine
 10
893.387389
 20
826.051524
 30
0.0
 11
893.387389
 21
966.051524
 31
0.0
  0
LINE
  5
9768
100
AcDbEntity
  8
0
100
AcDbLine
 10
873.387389
 20
896.051524
 30
0.0
 11
873.387389
 21
966.051524
 31
0.0
  0
LINE
  5
9769
100
AcDbEntity
  8
0
100
AcDbLine
 10
1023.500989
 20
947.051524
 30
0.0
 11
1023.500989
 21
938.051524
 31
0.0
  0
LINE
  5
976A
100
AcDbEntity
  8
0
100
AcDbLine
 10
1003.500989
 20
947.051524
 30
0.0
 11
1003.500989
 21
938.051524
 31
0.0
  0
LINE
  5
976B
100
AcDbEntity
  8
0
100
AcDbLine
 10
2539.201068
 20
1678.447448
 30
0.0
 11
2539.201068
 21
1813.447448
 31
0.0
  0
LINE
  5
976C
100
AcDbEntity
  8
0
100
AcDbLine
 10
2559.201068
 20
1813.447448
 30
0.0
 11
2559.201068
 21
1745.947448
 31
0.0
  0
LINE
  5
976D
100
AcDbEntity
  8
0
100
AcDbLine
 10
2497.519166
 20
1793.581298
 30
0.0
 11
2497.519166
 21
1785.947448
 31
0.0
  0
LINE
  5
976E
100
AcDbEntity
  8
0
100
AcDbLine
 10
2473.271166
 20
1785.947448
 30
0.0
 11
2473.271166
 21
1793.581298
 31
0.0
  0
LINE
  5
976F
100
AcDbEntity
  8
0
100
AcDbLine
 10
2479.333166
 20
1793.581298
 30
0.0
 11
2479.333166
 21
1785.947448
 31
0.0
  0
LINE
  5
9770
100
AcDbEntity
  8
0
100
AcDbLine
 10
2491.456291
 20
1793.581298
 30
0.0
 11
2491.456291
 21
1785.947448
 31
0.0
  0
LINE
  5
9771
100
AcDbEntity
  8
0
100
AcDbLine
 10
2559.201068
 20
1745.947448
 30
0.0
 11
2559.201068
 21
1678.447448
 31
0.0
  0
ARC
  5
9772
100
AcDbEntity
  8
0
100
AcDbCircle
 10
2533.201068
 20
1710.528625
 30
0.0
 40
6.0
100
AcDbArc
 50
0.0
 51
78.690068
  0
ARC
  5
9773
100
AcDbEntity
  8
0
100
AcDbCircle
 10
2493.201068
 20
1709.447448
 30
0.0
 40
6.0
100
AcDbArc
 50
135.0
 51
180.0
  0
LINE
  5
9774
100
AcDbEntity
  8
0
100
AcDbLine
 10
2487.201068
 20
1709.447448
 30
0.0
 11
2487.201068
 21
1675.947448
 31
0.0
  0
LINE
  5
9775
100
AcDbEntity
  8
0
100
AcDbLine
 10
2559.201068
 20
1678.447448
 30
0.0
 11
2539.201068
 21
1678.447448
 31
0.0
  0
LINE
  5
9776
100
AcDbEntity
  8
0
100
AcDbLine
 10
2487.201068
 20
1714.947448
 30
0.0
 11
2487.201068
 21
1754.947448
 31
0.0
  0
LINE
  5
9777
100
AcDbEntity
  8
0
100
AcDbLine
 10
2534.377765
 20
1716.412109
 30
0.0
 11
2514.201068
 21
1720.447448
 31
0.0
  0
LINE
  5
9778
100
AcDbEntity
  8
0
100
AcDbLine
 10
2488.958428
 20
1713.690089
 30
0.0
 11
2493.958428
 21
1718.690089
 31
0.0
  0
ARC
  5
9779
100
AcDbEntity
  8
0
100
AcDbCircle
 10
2498.201068
 20
1714.447448
 30
0.0
 40
6.0
100
AcDbArc
 50
90.0
 51
135.0
  0
LINE
  5
977A
100
AcDbEntity
  8
0
100
AcDbLine
 10
2498.201068
 20
1720.447448
 30
0.0
 11
2514.201068
 21
1720.447448
 31
0.0
  0
LINE
  5
977B
100
AcDbEntity
  8
0
100
AcDbLine
 10
2509.201068
 20
1772.947448
 30
0.0
 11
2509.201068
 21
1771.447448
 31
0.0
  0
LINE
  5
977C
100
AcDbEntity
  8
0
100
AcDbLine
 10
2500.201068
 20
1785.947448
 30
0.0
 11
2500.201068
 21
1758.947448
 31
0.0
  0
LINE
  5
977D
100
AcDbEntity
  8
0
100
AcDbLine
 10
2534.377765
 20
1775.482787
 30
0.0
 11
2514.201068
 21
1771.447448
 31
0.0
  0
LINE
  5
977E
100
AcDbEntity
  8
0
100
AcDbLine
 10
2514.201068
 20
1771.447448
 30
0.0
 11
2500.201068
 21
1771.447448
 31
0.0
  0
ARC
  5
977F
100
AcDbEntity
  8
0
100
AcDbCircle
 10
2491.201068
 20
1754.947448
 30
0.0
 40
4.0
100
AcDbArc
 50
90.0
 51
180.0
  0
ARC
  5
9780
100
AcDbEntity
  8
0
100
AcDbCircle
 10
2533.201068
 20
1781.366271
 30
0.0
 40
6.0
100
AcDbArc
 50
281.309932
 51
0.0
  0
ARC
  5
9781
100
AcDbEntity
  8
0
100
AcDbCircle
 10
931.478169
 20
846.580586
 30
0.0
 40
15.0
100
AcDbArc
 50
0.0
 51
89.536576
  0
LINE
  5
9782
100
AcDbEntity
  8
0
100
AcDbLine
 10
1133.387389
 20
896.051524
 30
0.0
 11
1133.387389
 21
826.051524
 31
0.0
  0
LINE
  5
9783
100
AcDbEntity
  8
0
100
AcDbLine
 10
873.387389
 20
896.051524
 30
0.0
 11
873.387389
 21
826.051524
 31
0.0
  0
LINE
  5
9784
100
AcDbEntity
  8
0
100
AcDbLine
 10
1056.500989
 20
902.051524
 30
0.0
 11
1056.500989
 21
823.051524
 31
0.0
  0
ARC
  5
9785
100
AcDbEntity
  8
0
100
AcDbCircle
 10
978.500989
 20
864.051524
 30
0.0
 40
8.0
100
AcDbArc
 50
180.0
 51
270.0
  0
LINE
  5
9786
100
AcDbEntity
  8
0
100
AcDbLine
 10
936.961901
 20
821.675763
 30
0.0
 11
941.370893
 21
822.857149
 31
0.0
  0
LINE
  5
9787
100
AcDbEntity
  8
0
100
AcDbLine
 10
936.072734
 20
818.357349
 30
0.0
 11
944.096125
 21
788.413648
 31
0.0
  0
ARC
  5
9788
100
AcDbEntity
  8
0
100
AcDbCircle
 10
943.469554
 20
819.039536
 30
0.0
 40
7.021342
100
AcDbArc
 50
157.947305
 51
232.052695
  0
LINE
  5
9789
100
AcDbEntity
  8
0
100
AcDbLine
 10
936.072734
 20
818.357349
 30
0.0
 11
936.961901
 21
821.675763
 31
0.0
  0
LINE
  5
978A
100
AcDbEntity
  8
0
100
AcDbLine
 10
873.387389
 20
826.051524
 30
0.0
 11
893.387389
 21
826.051524
 31
0.0
  0
LINE
  5
978B
100
AcDbEntity
  8
0
100
AcDbLine
 10
893.387389
 20
861.889172
 30
0.0
 11
931.599491
 21
861.580095
 31
0.0
  0
LINE
  5
978C
100
AcDbEntity
  8
0
100
AcDbLine
 10
1056.500989
 20
823.051524
 30
0.0
 11
1056.500989
 21
852.386163
 31
0.0
  0
LINE
  5
978D
100
AcDbEntity
  8
0
100
AcDbLine
 10
970.500989
 20
849.051524
 30
0.0
 11
970.500989
 21
823.051524
 31
0.0
  0
ARC
  5
978E
100
AcDbEntity
  8
0
100
AcDbCircle
 10
943.478169
 20
825.512128
 30
0.0
 40
3.0
100
AcDbArc
 50
285.0
 51
0.0
  0
ARC
  5
978F
100
AcDbEntity
  8
0
100
AcDbCircle
 10
926.71726
 20
799.803776
 30
0.0
 40
21.538712
100
AcDbArc
 50
354.095626
 51
35.904374
  0
ARC
  5
9790
100
AcDbEntity
  8
0
100
AcDbCircle
 10
961.179006
 20
809.037773
 30
0.0
 40
21.538712
100
AcDbArc
 50
174.095626
 51
215.904374
  0
LINE
  5
9791
100
AcDbEntity
  8
0
100
AcDbLine
 10
952.347367
 20
788.548127
 30
0.0
 11
943.2887
 21
822.355531
 31
0.0
  0
ARC
  5
9792
100
AcDbEntity
  8
0
100
AcDbCircle
 10
978.369277
 20
790.344296
 30
0.0
 40
5.0
100
AcDbArc
 50
42.953187
 51
105.0
  0
ARC
  5
9793
100
AcDbEntity
  8
0
100
AcDbCircle
 10
944.426712
 20
789.802014
 30
0.0
 40
7.021342
100
AcDbArc
 50
337.947305
 51
52.052695
  0
LINE
  5
9794
100
AcDbEntity
  8
0
100
AcDbLine
 10
951.823531
 20
790.484201
 30
0.0
 11
950.934365
 21
787.165786
 31
0.0
  0
ARC
  5
9795
100
AcDbEntity
  8
0
100
AcDbCircle
 10
950.843052
 20
791.521267
 30
0.0
 40
7.021342
100
AcDbArc
 50
157.947305
 51
232.052695
  0
LINE
  5
9796
100
AcDbEntity
  8
0
100
AcDbLine
 10
946.525373
 20
785.9844
 30
0.0
 11
950.934365
 21
787.165786
 31
0.0
  0
LINE
  5
9797
100
AcDbEntity
  8
0
100
AcDbLine
 10
944.096125
 20
788.413648
 30
0.0
 11
946.525373
 21
785.9844
 31
0.0
  0
LINE
  5
9798
100
AcDbEntity
  8
0
100
AcDbLine
 10
944.335399
 20
794.157494
 30
0.0
 11
943.732716
 21
796.406736
 31
0.0
  0
LINE
  5
9799
100
AcDbEntity
  8
0
100
AcDbLine
 10
948.744391
 20
795.33888
 30
0.0
 11
948.141709
 21
797.588122
 31
0.0
  0
LINE
  5
979A
100
AcDbEntity
  8
0
100
AcDbLine
 10
943.732716
 20
796.406736
 30
0.0
 11
948.141709
 21
797.588122
 31
0.0
  0
LINE
  5
979B
100
AcDbEntity
  8
0
100
AcDbLine
 10
944.335399
 20
794.157494
 30
0.0
 11
948.744391
 21
795.33888
 31
0.0
  0
LINE
  5
979C
100
AcDbEntity
  8
0
100
AcDbLine
 10
977.075182
 20
795.173925
 30
0.0
 11
952.347367
 21
788.548127
 31
0.0
  0
LINE
  5
979D
100
AcDbEntity
  8
0
100
AcDbLine
 10
944.254626
 20
822.61435
 30
0.0
 11
943.2887
 21
822.355531
 31
0.0
  0
LINE
  5
979E
100
AcDbEntity
  8
0
100
AcDbLine
 10
943.800141
 20
820.427901
 30
0.0
 11
941.370893
 21
822.857149
 31
0.0
  0
LINE
  5
979F
100
AcDbEntity
  8
0
100
AcDbLine
 10
939.151875
 20
813.50267
 30
0.0
 11
943.560867
 21
814.684056
 31
0.0
  0
LINE
  5
97A0
100
AcDbEntity
  8
0
100
AcDbLine
 10
944.16355
 20
812.434813
 30
0.0
 11
943.560867
 21
814.684056
 31
0.0
  0
LINE
  5
97A1
100
AcDbEntity
  8
0
100
AcDbLine
 10
939.754557
 20
811.253427
 30
0.0
 11
944.16355
 21
812.434813
 31
0.0
  0
LINE
  5
97A2
100
AcDbEntity
  8
0
100
AcDbLine
 10
939.754557
 20
811.253427
 30
0.0
 11
939.151875
 21
813.50267
 31
0.0
  0
ARC
  5
97A3
100
AcDbEntity
  8
0
100
AcDbCircle
 10
1013.500989
 20
823.051524
 30
0.0
 40
43.0
100
AcDbArc
 50
180.0
 51
199.633618
  0
ARC
  5
97A4
100
AcDbEntity
  8
0
100
AcDbCircle
 10
937.053214
 20
817.320283
 30
0.0
 40
7.021342
100
AcDbArc
 50
337.947305
 51
52.052695
  0
LINE
  5
97A5
100
AcDbEntity
  8
0
100
AcDbLine
 10
978.500989
 20
856.051524
 30
0.0
 11
1048.500989
 21
856.051524
 31
0.0
  0
LINE
  5
97A6
100
AcDbEntity
  8
0
100
AcDbLine
 10
946.478169
 20
825.512128
 30
0.0
 11
946.478169
 21
846.580586
 31
0.0
  0
LINE
  5
97A7
100
AcDbEntity
  8
0
100
AcDbLine
 10
1133.387389
 20
826.051524
 30
0.0
 11
1113.387389
 21
826.051524
 31
0.0
  0
LINE
  5
97A8
100
AcDbEntity
  8
0
100
AcDbLine
 10
1113.387389
 20
861.889172
 30
0.0
 11
1088.387389
 21
861.68696
 31
0.0
  0
ARC
  5
97A9
100
AcDbEntity
  8
0
100
AcDbCircle
 10
1066.066708
 20
855.68696
 30
0.0
 40
6.0
100
AcDbArc
 50
90.0
 51
137.596146
  0
LINE
  5
97AA
100
AcDbEntity
  8
0
100
AcDbLine
 10
1086.500989
 20
861.68696
 30
0.0
 11
1066.066708
 21
861.68696
 31
0.0
  0
LINE
  5
97AB
100
AcDbEntity
  8
0
100
AcDbLine
 10
1088.500989
 20
861.68696
 30
0.0
 11
1066.066708
 21
861.68696
 31
0.0
  0
ARC
  5
97AC
100
AcDbEntity
  8
0
100
AcDbCircle
 10
1062.500989
 20
852.386163
 30
0.0
 40
6.0
100
AcDbArc
 50
127.984929
 51
180.0
  0
ARC
  5
97AD
100
AcDbEntity
  8
0
100
AcDbCircle
 10
1044.652818
 20
875.24317
 30
0.0
 40
23.0
100
AcDbArc
 50
307.984929
 51
317.596146
  0
LINE
  5
97AE
100
AcDbEntity
  8
0
100
AcDbLine
 10
957.500989
 20
918.551524
 30
0.0
 11
920.092173
 21
918.551524
 31
0.0
  0
LINE
  5
97AF
100
AcDbEntity
  8
0
100
AcDbLine
 10
918.387389
 20
918.938034
 30
0.0
 11
893.387389
 21
929.363651
 31
0.0
  0
LINE
  5
97B0
100
AcDbEntity
  8
0
100
AcDbLine
 10
918.273789
 20
918.938034
 30
0.0
 11
920.092173
 21
918.551524
 31
0.0
  0
ARC
  5
97B1
100
AcDbEntity
  8
0
100
AcDbCircle
 10
1060.500989
 20
902.051524
 30
0.0
 40
4.0
100
AcDbArc
 50
90.0
 51
180.0
  0
ARC
  5
97B2
100
AcDbEntity
  8
0
100
AcDbCircle
 10
966.500989
 20
902.051524
 30
0.0
 40
4.0
100
AcDbArc
 50
0.0
 51
90.0
  0
LINE
  5
97B3
100
AcDbEntity
  8
0
100
AcDbLine
 10
970.500989
 20
864.051524
 30
0.0
 11
970.500989
 21
902.051524
 31
0.0
  0
LINE
  5
97B4
100
AcDbEntity
  8
0
100
AcDbLine
 10
1042.571087
 20
938.051524
 30
0.0
 11
984.703948
 21
938.051524
 31
0.0
  0
LINE
  5
97B5
100
AcDbEntity
  8
0
100
AcDbLine
 10
1069.500989
 20
933.051524
 30
0.0
 11
957.500989
 21
933.051524
 31
0.0
  0
LINE
  5
97B6
100
AcDbEntity
  8
0
100
AcDbLine
 10
957.500989
 20
920.051524
 30
0.0
 11
1078.500989
 21
920.051524
 31
0.0
  0
LINE
  5
97B7
100
AcDbEntity
  8
0
100
AcDbLine
 10
1069.500989
 20
906.051524
 30
0.0
 11
957.500989
 21
906.051524
 31
0.0
  0
LINE
  5
97B8
100
AcDbEntity
  8
0
100
AcDbLine
 10
957.500989
 20
933.051524
 30
0.0
 11
957.500989
 21
906.051524
 31
0.0
  0
LINE
  5
97B9
100
AcDbEntity
  8
0
100
AcDbLine
 10
982.771073
 20
941.801524
 30
0.0
 11
984.703948
 21
940.685374
 31
0.0
  0
ARC
  5
97BA
100
AcDbEntity
  8
0
100
AcDbCircle
 10
981.67251
 20
935.834152
 30
0.0
 40
5.720487
100
AcDbArc
 50
57.999511
 51
122.000489
  0
LINE
  5
97BB
100
AcDbEntity
  8
0
100
AcDbLine
 10
978.641073
 20
940.685374
 30
0.0
 11
978.641073
 21
933.051524
 31
0.0
  0
LINE
  5
97BC
100
AcDbEntity
  8
0
100
AcDbLine
 10
984.703948
 20
940.685374
 30
0.0
 11
984.703948
 21
933.051524
 31
0.0
  0
ARC
  5
97BD
100
AcDbEntity
  8
0
100
AcDbCircle
 10
963.48651
 20
935.834132
 30
0.0
 40
5.720504
100
AcDbArc
 50
57.999617
 51
122.000383
  0
LINE
  5
97BE
100
AcDbEntity
  8
0
100
AcDbLine
 10
966.517948
 20
940.685374
 30
0.0
 11
966.517948
 21
933.051524
 31
0.0
  0
LINE
  5
97BF
100
AcDbEntity
  8
0
100
AcDbLine
 10
960.455948
 20
940.685374
 30
0.0
 11
962.388823
 21
941.801524
 31
0.0
  0
LINE
  5
97C0
100
AcDbEntity
  8
0
100
AcDbLine
 10
960.455948
 20
933.051524
 30
0.0
 11
960.455948
 21
940.685374
 31
0.0
  0
LINE
  5
97C1
100
AcDbEntity
  8
0
100
AcDbLine
 10
962.388823
 20
941.801524
 30
0.0
 11
982.771073
 21
941.801524
 31
0.0
  0
ARC
  5
97C2
100
AcDbEntity
  8
0
100
AcDbCircle
 10
972.57951
 20
919.983028
 30
0.0
 40
21.571502
100
AcDbArc
 50
73.680185
 51
106.319815
  0
LINE
  5
97C3
100
AcDbEntity
  8
0
100
AcDbLine
 10
1088.387389
 20
918.938034
 30
0.0
 11
1113.387389
 21
929.363651
 31
0.0
  0
LINE
  5
97C4
100
AcDbEntity
  8
0
100
AcDbLine
 10
1069.500989
 20
933.051524
 30
0.0
 11
1069.500989
 21
906.051524
 31
0.0
  0
LINE
  5
97C5
100
AcDbEntity
  8
0
100
AcDbLine
 10
1086.682605
 20
918.551524
 30
0.0
 11
1069.500989
 21
918.551524
 31
0.0
  0
LINE
  5
97C6
100
AcDbEntity
  8
0
100
AcDbLine
 10
1088.500989
 20
918.938034
 30
0.0
 11
1086.682605
 21
918.551524
 31
0.0
  0
LINE
  5
97C7
100
AcDbEntity
  8
0
100
AcDbLine
 10
1078.500989
 20
920.051524
 30
0.0
 11
1078.500989
 21
918.551524
 31
0.0
  0
LINE
  5
97C8
100
AcDbEntity
  8
0
100
AcDbLine
 10
1064.886212
 20
941.801524
 30
0.0
 11
1066.819087
 21
940.685374
 31
0.0
  0
LINE
  5
97C9
100
AcDbEntity
  8
0
100
AcDbLine
 10
1066.819087
 20
940.685374
 30
0.0
 11
1066.819087
 21
933.051524
 31
0.0
  0
ARC
  5
97CA
100
AcDbEntity
  8
0
100
AcDbCircle
 10
1054.69465
 20
919.983028
 30
0.0
 40
21.571502
100
AcDbArc
 50
73.680185
 51
106.319815
  0
LINE
  5
97CB
100
AcDbEntity
  8
0
100
AcDbLine
 10
1060.756212
 20
940.685374
 30
0.0
 11
1060.756212
 21
933.051524
 31
0.0
  0
LINE
  5
97CC
100
AcDbEntity
  8
0
100
AcDbLine
 10
1042.571087
 20
940.685374
 30
0.0
 11
1044.503962
 21
941.801524
 31
0.0
  0
ARC
  5
97CD
100
AcDbEntity
  8
0
100
AcDbCircle
 10
1045.60165
 20
935.834132
 30
0.0
 40
5.720504
100
AcDbArc
 50
57.999617
 51
122.000383
  0
LINE
  5
97CE
100
AcDbEntity
  8
0
100
AcDbLine
 10
1042.571087
 20
933.051524
 30
0.0
 11
1042.571087
 21
940.685374
 31
0.0
  0
LINE
  5
97CF
100
AcDbEntity
  8
0
100
AcDbLine
 10
1048.633087
 20
940.685374
 30
0.0
 11
1048.633087
 21
933.051524
 31
0.0
  0
LINE
  5
97D0
100
AcDbEntity
  8
0
100
AcDbLine
 10
1044.503962
 20
941.801524
 30
0.0
 11
1064.886212
 21
941.801524
 31
0.0
  0
ARC
  5
97D1
100
AcDbEntity
  8
0
100
AcDbCircle
 10
1063.78765
 20
935.834152
 30
0.0
 40
5.720487
100
AcDbArc
 50
57.999511
 51
122.000489
  0
ARC
  5
97D2
100
AcDbEntity
  8
0
100
AcDbCircle
 10
2494.487729
 20
1788.730076
 30
0.0
 40
5.720487
100
AcDbArc
 50
57.999511
 51
122.000489
  0
LINE
  5
97D3
100
AcDbEntity
  8
0
100
AcDbLine
 10
2475.204041
 20
1794.697448
 30
0.0
 11
2495.586291
 21
1794.697448
 31
0.0
  0
LINE
  5
97D4
100
AcDbEntity
  8
0
100
AcDbLine
 10
2495.586291
 20
1794.697448
 30
0.0
 11
2497.519166
 21
1793.581298
 31
0.0
  0
LINE
  5
97D5
100
AcDbEntity
  8
0
100
AcDbLine
 10
2473.271166
 20
1793.581298
 30
0.0
 11
2475.204041
 21
1794.697448
 31
0.0
  0
ARC
  5
97D6
100
AcDbEntity
  8
0
100
AcDbCircle
 10
2485.394729
 20
1772.878952
 30
0.0
 40
21.571502
100
AcDbArc
 50
73.680185
 51
106.319815
  0
ARC
  5
97D7
100
AcDbEntity
  8
0
100
AcDbCircle
 10
2476.301729
 20
1788.730056
 30
0.0
 40
5.720504
100
AcDbArc
 50
57.999617
 51
122.000383
  0
LINE
  5
97D8
100
AcDbEntity
  8
0
100
AcDbLine
 10
2559.201068
 20
1813.447448
 30
0.0
 11
2539.201068
 21
1813.447448
 31
0.0
  0
LINE
  5
97D9
100
AcDbEntity
  8
0
100
AcDbLine
 10
873.387389
 20
966.051524
 30
0.0
 11
893.387389
 21
966.051524
 31
0.0
  0
LINE
  5
97DA
100
AcDbEntity
  8
0
100
AcDbLine
 10
1005.000989
 20
958.474174
 30
0.0
 11
1006.000989
 21
959.051524
 31
0.0
  0
LINE
  5
97DB
100
AcDbEntity
  8
0
100
AcDbLine
 10
1022.000989
 20
958.474174
 30
0.0
 11
1021.000989
 21
959.051524
 31
0.0
  0
LINE
  5
97DC
100
AcDbEntity
  8
0
100
AcDbLine
 10
1021.000989
 20
959.051524
 30
0.0
 11
1006.000989
 21
959.051524
 31
0.0
  0
LINE
  5
97DD
100
AcDbEntity
  8
0
100
AcDbLine
 10
1023.500989
 20
947.051524
 30
0.0
 11
1003.500989
 21
947.051524
 31
0.0
  0
LINE
  5
97DE
100
AcDbEntity
  8
0
100
AcDbLine
 10
1005.000989
 20
958.474174
 30
0.0
 11
1005.000989
 21
947.051524
 31
0.0
  0
LINE
  5
97DF
100
AcDbEntity
  8
0
100
AcDbLine
 10
1022.000989
 20
958.474174
 30
0.0
 11
1022.000989
 21
947.051524
 31
0.0
  0
LINE
  5
97E0
100
AcDbEntity
  8
0
100
AcDbLine
 10
1133.387389
 20
966.051524
 30
0.0
 11
1113.387389
 21
966.051524
 31
0.0
  0
LINE
  5
97E1
100
AcDbEntity
  8
0
100
AcDbLine
 10
1871.602378
 20
785.413648
 30
0.0
 11
1874.031625
 21
782.9844
 31
0.0
  0
ARC
  5
97E2
100
AcDbEntity
  8
0
100
AcDbCircle
 10
1878.349305
 20
788.521267
 30
0.0
 40
7.021342
100
AcDbArc
 50
157.947305
 51
232.052695
  0
LINE
  5
97E3
100
AcDbEntity
  8
0
100
AcDbLine
 10
1879.329784
 20
787.484201
 30
0.0
 11
1878.440618
 21
784.165786
 31
0.0
  0
ARC
  5
97E4
100
AcDbEntity
  8
0
100
AcDbCircle
 10
1871.932965
 20
786.802014
 30
0.0
 40
7.021342
100
AcDbArc
 50
337.947305
 51
52.052695
  0
ARC
  5
97E5
100
AcDbEntity
  8
0
100
AcDbCircle
 10
1941.007242
 20
820.051524
 30
0.0
 40
43.0
100
AcDbArc
 50
222.953187
 51
0.0
  0
LINE
  5
97E6
100
AcDbEntity
  8
0
100
AcDbLine
 10
2043.007242
 20
608.840656
 30
0.0
 11
2043.007242
 21
763.840656
 31
0.0
  0
LINE
  5
97E7
100
AcDbEntity
  8
0
100
AcDbLine
 10
2063.007242
 20
608.840656
 30
0.0
 11
2063.007242
 21
686.340656
 31
0.0
  0
LINE
  5
97E8
100
AcDbEntity
  8
0
100
AcDbLine
 10
1818.007242
 20
608.840656
 30
0.0
 11
1818.007242
 21
763.840656
 31
0.0
  0
LINE
  5
97E9
100
AcDbEntity
  8
0
100
AcDbLine
 10
1798.007242
 20
608.840656
 30
0.0
 11
1798.007242
 21
686.340656
 31
0.0
  0
CIRCLE
  5
97EA
100
AcDbEntity
  8
0
100
AcDbCircle
 10
1657.641075
 20
517.936322
 30
0.0
 40
9.5
  0
CIRCLE
  5
97EB
100
AcDbEntity
  8
0
100
AcDbCircle
 10
1237.636484
 20
512.606631
 30
0.0
 40
9.5
  0
CIRCLE
  5
97EC
100
AcDbEntity
  8
0
100
AcDbCircle
 10
1311.882696
 20
512.606631
 30
0.0
 40
9.5
  0
CIRCLE
  5
97ED
100
AcDbEntity
  8
0
100
AcDbCircle
 10
1572.841075
 20
517.936322
 30
0.0
 40
9.5
  0
LINE
  5
97EE
100
AcDbEntity
  8
0
100
AcDbLine
 10
2063.007242
 20
475.483525
 30
0.0
 11
2063.007242
 21
552.983525
 31
0.0
  0
LINE
  5
97EF
100
AcDbEntity
  8
0
100
AcDbLine
 10
1798.007242
 20
475.483525
 30
0.0
 11
1798.007242
 21
552.983525
 31
0.0
  0
LINE
  5
97F0
100
AcDbEntity
  8
0
100
AcDbLine
 10
1928.507242
 20
548.906175
 30
0.0
 11
1927.507242
 21
549.483525
 31
0.0
  0
LINE
  5
97F1
100
AcDbEntity
  8
0
100
AcDbLine
 10
1911.507242
 20
548.906175
 30
0.0
 11
1912.507242
 21
549.483525
 31
0.0
  0
LINE
  5
97F2
100
AcDbEntity
  8
0
100
AcDbLine
 10
1890.937144
 20
528.483525
 30
0.0
 11
1948.804284
 21
528.483525
 31
0.0
  0
LINE
  5
97F3
100
AcDbEntity
  8
0
100
AcDbLine
 10
1864.007242
 20
523.483525
 30
0.0
 11
1976.007242
 21
523.483525
 31
0.0
  0
LINE
  5
97F4
100
AcDbEntity
  8
0
100
AcDbLine
 10
1855.007242
 20
510.483525
 30
0.0
 11
1976.007242
 21
510.483525
 31
0.0
  0
LINE
  5
97F5
100
AcDbEntity
  8
0
100
AcDbLine
 10
1864.007242
 20
494.483525
 30
0.0
 11
1976.007242
 21
494.483525
 31
0.0
  0
LINE
  5
97F6
100
AcDbEntity
  8
0
100
AcDbLine
 10
1864.007242
 20
494.483525
 30
0.0
 11
1864.007242
 21
523.483525
 31
0.0
  0
LINE
  5
97F7
100
AcDbEntity
  8
0
100
AcDbLine
 10
1855.007242
 20
510.483525
 30
0.0
 11
1855.007242
 21
508.483525
 31
0.0
  0
LINE
  5
97F8
100
AcDbEntity
  8
0
100
AcDbLine
 10
1818.007242
 20
513.483525
 30
0.0
 11
1843.007242
 21
508.483525
 31
0.0
  0
LINE
  5
97F9
100
AcDbEntity
  8
0
100
AcDbLine
 10
1843.007242
 20
508.483525
 30
0.0
 11
1864.007242
 21
508.483525
 31
0.0
  0
ARC
  5
97FA
100
AcDbEntity
  8
0
100
AcDbCircle
 10
1873.007242
 20
490.483525
 30
0.0
 40
4.0
100
AcDbArc
 50
360.0
 51
90.0
  0
LINE
  5
97FB
100
AcDbEntity
  8
0
100
AcDbLine
 10
1866.689144
 20
531.117375
 30
0.0
 11
1866.689144
 21
523.483525
 31
0.0
  0
LINE
  5
97FC
100
AcDbEntity
  8
0
100
AcDbLine
 10
1890.937144
 20
523.483525
 30
0.0
 11
1890.937144
 21
531.117375
 31
0.0
  0
LINE
  5
97FD
100
AcDbEntity
  8
0
100
AcDbLine
 10
1884.875144
 20
531.117375
 30
0.0
 11
1884.875144
 21
523.483525
 31
0.0
  0
LINE
  5
97FE
100
AcDbEntity
  8
0
100
AcDbLine
 10
1872.752019
 20
531.117375
 30
0.0
 11
1872.752019
 21
523.483525
 31
0.0
  0
LINE
  5
97FF
100
AcDbEntity
  8
0
100
AcDbLine
 10
1890.937144
 20
531.117375
 30
0.0
 11
1889.004269
 21
532.233525
 31
0.0
  0
ARC
  5
9800
100
AcDbEntity
  8
0
100
AcDbCircle
 10
1887.906582
 20
526.266133
 30
0.0
 40
5.720504
100
AcDbArc
 50
57.999617
 51
122.000383
  0
ARC
  5
9801
100
AcDbEntity
  8
0
100
AcDbCircle
 10
1869.720582
 20
526.266153
 30
0.0
 40
5.720487
100
AcDbArc
 50
57.999511
 51
122.000489
  0
LINE
  5
9802
100
AcDbEntity
  8
0
100
AcDbLine
 10
1868.622019
 20
532.233525
 30
0.0
 11
1866.689144
 21
531.117375
 31
0.0
  0
ARC
  5
9803
100
AcDbEntity
  8
0
100
AcDbCircle
 10
1878.813582
 20
510.415029
 30
0.0
 40
21.571502
100
AcDbArc
 50
73.680185
 51
106.319815
  0
LINE
  5
9804
100
AcDbEntity
  8
0
100
AcDbLine
 10
1889.004269
 20
532.233525
 30
0.0
 11
1868.622019
 21
532.233525
 31
0.0
  0
LINE
  5
9805
100
AcDbEntity
  8
0
100
AcDbLine
 10
2043.007242
 20
513.483525
 30
0.0
 11
2018.007242
 21
508.483525
 31
0.0
  0
LINE
  5
9806
100
AcDbEntity
  8
0
100
AcDbLine
 10
1976.007242
 20
494.483525
 30
0.0
 11
1976.007242
 21
523.483525
 31
0.0
  0
LINE
  5
9807
100
AcDbEntity
  8
0
100
AcDbLine
 10
1976.007242
 20
508.483525
 30
0.0
 11
2018.007242
 21
508.483525
 31
0.0
  0
ARC
  5
9808
100
AcDbEntity
  8
0
100
AcDbCircle
 10
1967.007242
 20
490.483525
 30
0.0
 40
4.0
100
AcDbArc
 50
90.0
 51
180.0
  0
LINE
  5
9809
100
AcDbEntity
  8
0
100
AcDbLine
 10
1930.007242
 20
537.483525
 30
0.0
 11
1930.007242
 21
528.483525
 31
0.0
  0
LINE
  5
980A
100
AcDbEntity
  8
0
100
AcDbLine
 10
1910.007242
 20
537.483525
 30
0.0
 11
1910.007242
 21
528.483525
 31
0.0
  0
LINE
  5
980B
100
AcDbEntity
  8
0
100
AcDbLine
 10
1954.867159
 20
531.117375
 30
0.0
 11
1954.867159
 21
523.483525
 31
0.0
  0
LINE
  5
980C
100
AcDbEntity
  8
0
100
AcDbLine
 10
1948.804284
 20
531.117375
 30
0.0
 11
1948.804284
 21
523.483525
 31
0.0
  0
LINE
  5
980D
100
AcDbEntity
  8
0
100
AcDbLine
 10
1966.990284
 20
531.117375
 30
0.0
 11
1966.990284
 21
523.483525
 31
0.0
  0
LINE
  5
980E
100
AcDbEntity
  8
0
100
AcDbLine
 10
1973.052284
 20
523.483525
 30
0.0
 11
1973.052284
 21
531.117375
 31
0.0
  0
LINE
  5
980F
100
AcDbEntity
  8
0
100
AcDbLine
 10
1971.119409
 20
532.233525
 30
0.0
 11
1950.737159
 21
532.233525
 31
0.0
  0
ARC
  5
9810
100
AcDbEntity
  8
0
100
AcDbCircle
 10
1960.928722
 20
510.415029
 30
0.0
 40
21.571502
100
AcDbArc
 50
73.680185
 51
106.319815
  0
LINE
  5
9811
100
AcDbEntity
  8
0
100
AcDbLine
 10
1928.507242
 20
548.906175
 30
0.0
 11
1928.507242
 21
537.483525
 31
0.0
  0
LINE
  5
9812
100
AcDbEntity
  8
0
100
AcDbLine
 10
1950.737159
 20
532.233525
 30
0.0
 11
1948.804284
 21
531.117375
 31
0.0
  0
ARC
  5
9813
100
AcDbEntity
  8
0
100
AcDbCircle
 10
1951.835722
 20
526.266153
 30
0.0
 40
5.720487
100
AcDbArc
 50
57.999511
 51
122.000489
  0
LINE
  5
9814
100
AcDbEntity
  8
0
100
AcDbLine
 10
1911.507242
 20
548.906175
 30
0.0
 11
1911.507242
 21
537.483525
 31
0.0
  0
LINE
  5
9815
100
AcDbEntity
  8
0
100
AcDbLine
 10
1910.007242
 20
537.483525
 30
0.0
 11
1930.007242
 21
537.483525
 31
0.0
  0
ARC
  5
9816
100
AcDbEntity
  8
0
100
AcDbCircle
 10
1970.021722
 20
526.266133
 30
0.0
 40
5.720504
100
AcDbArc
 50
57.999617
 51
122.000383
  0
LINE
  5
9817
100
AcDbEntity
  8
0
100
AcDbLine
 10
1973.052284
 20
531.117375
 30
0.0
 11
1971.119409
 21
532.233525
 31
0.0
  0
LINE
  5
9818
100
AcDbEntity
  8
0
100
AcDbLine
 10
1818.007242
 20
552.983525
 30
0.0
 11
1798.007242
 21
552.983525
 31
0.0
  0
LINE
  5
9819
100
AcDbEntity
  8
0
100
AcDbLine
 10
1798.007242
 20
608.840656
 30
0.0
 11
1818.007242
 21
608.840656
 31
0.0
  0
LINE
  5
981A
100
AcDbEntity
  8
0
100
AcDbLine
 10
1912.507242
 20
549.483525
 30
0.0
 11
1927.507242
 21
549.483525
 31
0.0
  0
LINE
  5
981B
100
AcDbEntity
  8
0
100
AcDbLine
 10
2043.007242
 20
552.983525
 30
0.0
 11
2063.007242
 21
552.983525
 31
0.0
  0
LINE
  5
981C
100
AcDbEntity
  8
0
100
AcDbLine
 10
2063.007242
 20
608.840656
 30
0.0
 11
2043.007242
 21
608.840656
 31
0.0
  0
LINE
  5
981D
100
AcDbEntity
  8
0
100
AcDbLine
 10
2063.007242
 20
686.340656
 30
0.0
 11
2063.007242
 21
763.840656
 31
0.0
  0
LINE
  5
981E
100
AcDbEntity
  8
0
100
AcDbLine
 10
1798.007242
 20
686.340656
 30
0.0
 11
1798.007242
 21
763.840656
 31
0.0
  0
ARC
  5
981F
100
AcDbEntity
  8
0
100
AcDbCircle
 10
2164.007242
 20
686.340656
 30
0.0
 40
300.0
100
AcDbArc
 50
171.614461
 51
188.385539
  0
ARC
  5
9820
100
AcDbEntity
  8
0
100
AcDbCircle
 10
1676.007242
 20
686.340656
 30
0.0
 40
300.0
100
AcDbArc
 50
351.614461
 51
8.385539
  0
CIRCLE
  5
9821
100
AcDbEntity
  8
0
100
AcDbCircle
 10
1920.007242
 20
686.340656
 30
0.0
 40
35.0
  0
LINE
  5
9822
100
AcDbEntity
  8
0
100
AcDbLine
 10
1879.086201
 20
632.340656
 30
0.0
 11
1960.928284
 21
632.340656
 31
0.0
  0
POLYLINE
  5
9823
100
AcDbEntity
  8
0
100
AcDb2dPolyline
 66
     1
 10
0.0
 20
0.0
 30
0.0
 70
     1
  0
VERTEX
  5
9B87
100
AcDbEntity
  8
0
100
AcDbVertex
100
AcDb2dVertex
 10
1873.367304
 20
655.828462
 30
0.0
  0
VERTEX
  5
9B88
100
AcDbEntity
  8
0
100
AcDbVertex
100
AcDb2dVertex
 10
1867.305126
 20
645.328462
 30
0.0
  0
VERTEX
  5
9B89
100
AcDbEntity
  8
0
100
AcDbVertex
100
AcDb2dVertex
 10
1873.367304
 20
634.828462
 30
0.0
  0
VERTEX
  5
9B8A
100
AcDbEntity
  8
0
100
AcDbVertex
100
AcDb2dVertex
 10
1885.491659
 20
634.828462
 30
0.0
  0
VERTEX
  5
9B8B
100
AcDbEntity
  8
0
100
AcDbVertex
100
AcDb2dVertex
 10
1891.553837
 20
645.328462
 30
0.0
  0
VERTEX
  5
9B8C
100
AcDbEntity
  8
0
100
AcDbVertex
100
AcDb2dVertex
 10
1885.491659
 20
655.828462
 30
0.0
  0
SEQEND
  5
9B8D
100
AcDbEntity
  8
0
  0
CIRCLE
  5
9824
100
AcDbEntity
  8
0
100
AcDbCircle
 10
1879.429482
 20
645.328462
 30
0.0
 40
10.5
  0
ARC
  5
9825
100
AcDbEntity
  8
0
100
AcDbCircle
 10
1879.086201
 20
644.340656
 30
0.0
 40
12.0
100
AcDbArc
 50
188.385539
 51
270.0
  0
LINE
  5
9826
100
AcDbEntity
  8
0
100
AcDbLine
 10
1843.007242
 20
653.340656
 30
0.0
 11
1865.827766
 21
653.340656
 31
0.0
  0
LINE
  5
9827
100
AcDbEntity
  8
0
100
AcDbLine
 10
1818.007242
 20
648.340656
 30
0.0
 11
1843.007242
 21
653.340656
 31
0.0
  0
ARC
  5
9828
100
AcDbEntity
  8
0
100
AcDbCircle
 10
1861.007242
 20
686.340656
 30
0.0
 40
6.0
100
AcDbArc
 50
89.149041
 51
270.850959
  0
ARC
  5
9829
100
AcDbEntity
  8
0
100
AcDbCircle
 10
1861.140906
 20
677.341648
 30
0.0
 40
3.0
100
AcDbArc
 50
1.701917
 51
90.850959
  0
ARC
  5
982A
100
AcDbEntity
  8
0
100
AcDbCircle
 10
1861.140906
 20
677.341648
 30
0.0
 40
3.0
100
AcDbArc
 50
1.701917
 51
90.850959
  0
ARC
  5
982B
100
AcDbEntity
  8
0
100
AcDbCircle
 10
1861.140906
 20
695.339663
 30
0.0
 40
3.0
100
AcDbArc
 50
269.149041
 51
358.298083
  0
ARC
  5
982C
100
AcDbEntity
  8
0
100
AcDbCircle
 10
1861.140906
 20
695.339663
 30
0.0
 40
3.0
100
AcDbArc
 50
269.149041
 51
358.298083
  0
LINE
  5
982D
100
AcDbEntity
  8
0
100
AcDbLine
 10
1974.186719
 20
653.340656
 30
0.0
 11
2018.007242
 21
653.340656
 31
0.0
  0
CIRCLE
  5
982E
100
AcDbEntity
  8
0
100
AcDbCircle
 10
1961.453868
 20
645.328462
 30
0.0
 40
10.5
  0
POLYLINE
  5
982F
100
AcDbEntity
  8
0
100
AcDb2dPolyline
 66
     1
 10
0.0
 20
0.0
 30
0.0
 70
     1
  0
VERTEX
  5
9B8E
100
AcDbEntity
  8
0
100
AcDbVertex
100
AcDb2dVertex
 10
1967.516046
 20
655.828462
 30
0.0
  0
VERTEX
  5
9B8F
100
AcDbEntity
  8
0
100
AcDbVertex
100
AcDb2dVertex
 10
1973.578224
 20
645.328462
 30
0.0
  0
VERTEX
  5
9B90
100
AcDbEntity
  8
0
100
AcDbVertex
100
AcDb2dVertex
 10
1967.516046
 20
634.828462
 30
0.0
  0
VERTEX
  5
9B91
100
AcDbEntity
  8
0
100
AcDbVertex
100
AcDb2dVertex
 10
1955.39169
 20
634.828462
 30
0.0
  0
VERTEX
  5
9B92
100
AcDbEntity
  8
0
100
AcDbVertex
100
AcDb2dVertex
 10
1949.329513
 20
645.328462
 30
0.0
  0
VERTEX
  5
9B93
100
AcDbEntity
  8
0
100
AcDbVertex
100
AcDb2dVertex
 10
1955.39169
 20
655.828462
 30
0.0
  0
SEQEND
  5
9B94
100
AcDbEntity
  8
0
  0
ARC
  5
9830
100
AcDbEntity
  8
0
100
AcDbCircle
 10
1960.928284
 20
644.340656
 30
0.0
 40
12.0
100
AcDbArc
 50
270.0
 51
351.614461
  0
LINE
  5
9831
100
AcDbEntity
  8
0
100
AcDbLine
 10
2043.007242
 20
648.340656
 30
0.0
 11
2018.007242
 21
653.340656
 31
0.0
  0
LINE
  5
9832
100
AcDbEntity
  8
0
100
AcDbLine
 10
1928.507242
 20
691.608482
 30
0.0
 11
1928.507242
 21
681.072829
 31
0.0
  0
LINE
  5
9833
100
AcDbEntity
  8
0
100
AcDbLine
 10
1911.507242
 20
691.608482
 30
0.0
 11
1911.507242
 21
681.072829
 31
0.0
  0
CIRCLE
  5
9834
100
AcDbEntity
  8
0
100
AcDbCircle
 10
1920.007242
 20
686.340656
 30
0.0
 40
10.0
  0
CIRCLE
  5
9835
100
AcDbEntity
  8
0
100
AcDbCircle
 10
1920.007242
 20
686.340656
 30
0.0
 40
8.5
  0
LINE
  5
9836
100
AcDbEntity
  8
0
100
AcDbLine
 10
1879.086201
 20
740.340656
 30
0.0
 11
1961.634933
 21
740.340656
 31
0.0
  0
CIRCLE
  5
9837
100
AcDbEntity
  8
0
100
AcDbCircle
 10
1879.429482
 20
727.352849
 30
0.0
 40
10.5
  0
POLYLINE
  5
9838
100
AcDbEntity
  8
0
100
AcDb2dPolyline
 66
     1
 10
0.0
 20
0.0
 30
0.0
 70
     1
  0
VERTEX
  5
9B95
100
AcDbEntity
  8
0
100
AcDbVertex
100
AcDb2dVertex
 10
1873.367304
 20
716.852849
 30
0.0
  0
VERTEX
  5
9B96
100
AcDbEntity
  8
0
100
AcDbVertex
100
AcDb2dVertex
 10
1867.305126
 20
727.352849
 30
0.0
  0
VERTEX
  5
9B97
100
AcDbEntity
  8
0
100
AcDbVertex
100
AcDb2dVertex
 10
1873.367304
 20
737.852849
 30
0.0
  0
VERTEX
  5
9B98
100
AcDbEntity
  8
0
100
AcDbVertex
100
AcDb2dVertex
 10
1885.491659
 20
737.852849
 30
0.0
  0
VERTEX
  5
9B99
100
AcDbEntity
  8
0
100
AcDbVertex
100
AcDb2dVertex
 10
1891.553837
 20
727.352849
 30
0.0
  0
VERTEX
  5
9B9A
100
AcDbEntity
  8
0
100
AcDbVertex
100
AcDb2dVertex
 10
1885.491659
 20
716.852849
 30
0.0
  0
SEQEND
  5
9B9B
100
AcDbEntity
  8
0
  0
LINE
  5
9839
100
AcDbEntity
  8
0
100
AcDbLine
 10
1843.007242
 20
719.340656
 30
0.0
 11
1865.827766
 21
719.340656
 31
0.0
  0
LINE
  5
983A
100
AcDbEntity
  8
0
100
AcDbLine
 10
1818.007242
 20
724.340656
 30
0.0
 11
1843.007242
 21
719.340656
 31
0.0
  0
ARC
  5
983B
100
AcDbEntity
  8
0
100
AcDbCircle
 10
1879.086201
 20
728.340656
 30
0.0
 40
12.0
100
AcDbArc
 50
90.0
 51
171.614461
  0
LINE
  5
983C
100
AcDbEntity
  8
0
100
AcDbLine
 10
1818.007242
 20
763.840656
 30
0.0
 11
1798.007242
 21
763.840656
 31
0.0
  0
LINE
  5
983D
100
AcDbEntity
  8
0
100
AcDbLine
 10
1874.031625
 20
782.9844
 30
0.0
 11
1878.440618
 21
784.165786
 31
0.0
  0
LINE
  5
983E
100
AcDbEntity
  8
0
100
AcDbLine
 10
1974.186719
 20
719.340656
 30
0.0
 11
2018.007242
 21
719.340656
 31
0.0
  0
POLYLINE
  5
983F
100
AcDbEntity
  8
0
100
AcDb2dPolyline
 66
     1
 10
0.0
 20
0.0
 30
0.0
 70
     1
  0
VERTEX
  5
9B9C
100
AcDbEntity
  8
0
100
AcDbVertex
100
AcDb2dVertex
 10
1967.516046
 20
716.852849
 30
0.0
  0
VERTEX
  5
9B9D
100
AcDbEntity
  8
0
100
AcDbVertex
100
AcDb2dVertex
 10
1973.578224
 20
727.352849
 30
0.0
  0
VERTEX
  5
9B9E
100
AcDbEntity
  8
0
100
AcDbVertex
100
AcDb2dVertex
 10
1967.516046
 20
737.852849
 30
0.0
  0
VERTEX
  5
9B9F
100
AcDbEntity
  8
0
100
AcDbVertex
100
AcDb2dVertex
 10
1955.39169
 20
737.852849
 30
0.0
  0
VERTEX
  5
9BA0
100
AcDbEntity
  8
0
100
AcDbVertex
100
AcDb2dVertex
 10
1949.329513
 20
727.352849
 30
0.0
  0
VERTEX
  5
9BA1
100
AcDbEntity
  8
0
100
AcDbVertex
100
AcDb2dVertex
 10
1955.39169
 20
716.852849
 30
0.0
  0
SEQEND
  5
9BA2
100
AcDbEntity
  8
0
  0
CIRCLE
  5
9840
100
AcDbEntity
  8
0
100
AcDbCircle
 10
1961.453868
 20
727.352849
 30
0.0
 40
10.5
  0
ARC
  5
9841
100
AcDbEntity
  8
0
100
AcDbCircle
 10
1960.928284
 20
728.340656
 30
0.0
 40
12.0
100
AcDbArc
 50
8.385539
 51
90.0
  0
LINE
  5
9842
100
AcDbEntity
  8
0
100
AcDbLine
 10
2043.007242
 20
724.340656
 30
0.0
 11
2018.007242
 21
719.340656
 31
0.0
  0
LINE
  5
9843
100
AcDbEntity
  8
0
100
AcDbLine
 10
2043.007242
 20
763.840656
 30
0.0
 11
2063.007242
 21
763.840656
 31
0.0
  0
CIRCLE
  5
9844
100
AcDbEntity
  8
0
100
AcDbCircle
 10
2269.780245
 20
517.936322
 30
0.0
 40
9.5
  0
CIRCLE
  5
9845
100
AcDbEntity
  8
0
100
AcDbCircle
 10
2184.980245
 20
517.936322
 30
0.0
 40
9.5
  0
LINE
  5
9846
100
AcDbEntity
  8
0
100
AcDbLine
 10
2063.007242
 20
896.051524
 30
0.0
 11
2063.007242
 21
973.551524
 31
0.0
  0
LINE
  5
9847
100
AcDbEntity
  8
0
100
AcDbLine
 10
2043.007242
 20
818.551524
 30
0.0
 11
2043.007242
 21
973.551524
 31
0.0
  0
LINE
  5
9848
100
AcDbEntity
  8
0
100
AcDbLine
 10
1798.007242
 20
896.051524
 30
0.0
 11
1798.007242
 21
973.551524
 31
0.0
  0
LINE
  5
9849
100
AcDbEntity
  8
0
100
AcDbLine
 10
1818.007242
 20
818.551524
 30
0.0
 11
1818.007242
 21
973.551524
 31
0.0
  0
LINE
  5
984A
100
AcDbEntity
  8
0
100
AcDbLine
 10
1997.007242
 20
915.051524
 30
0.0
 11
1997.007242
 21
944.051524
 31
0.0
  0
LINE
  5
984B
100
AcDbEntity
  8
0
100
AcDbLine
 10
1885.007242
 20
915.051524
 30
0.0
 11
1885.007242
 21
944.051524
 31
0.0
  0
LINE
  5
984C
100
AcDbEntity
  8
0
100
AcDbLine
 10
2063.007242
 20
818.551524
 30
0.0
 11
2063.007242
 21
896.051524
 31
0.0
  0
LINE
  5
984D
100
AcDbEntity
  8
0
100
AcDbLine
 10
1798.007242
 20
818.551524
 30
0.0
 11
1798.007242
 21
896.051524
 31
0.0
  0
LINE
  5
984E
100
AcDbEntity
  8
0
100
AcDbLine
 10
1984.007242
 20
911.051524
 30
0.0
 11
1984.007242
 21
820.051524
 31
0.0
  0
LINE
  5
984F
100
AcDbEntity
  8
0
100
AcDbLine
 10
1898.007242
 20
861.051524
 30
0.0
 11
1898.007242
 21
911.051524
 31
0.0
  0
ARC
  5
9850
100
AcDbEntity
  8
0
100
AcDbCircle
 10
1858.984422
 20
848.051524
 30
0.0
 40
15.0
100
AcDbArc
 50
0.0
 51
90.0
  0
ARC
  5
9851
100
AcDbEntity
  8
0
100
AcDbCircle
 10
1906.007242
 20
861.051524
 30
0.0
 40
8.0
100
AcDbArc
 50
180.0
 51
270.0
  0
ARC
  5
9852
100
AcDbEntity
  8
0
100
AcDbCircle
 10
1905.87553
 20
787.344296
 30
0.0
 40
5.0
100
AcDbArc
 50
42.953187
 51
105.0
  0
ARC
  5
9853
100
AcDbEntity
  8
0
100
AcDbCircle
 10
1870.725603
 20
823.478054
 30
0.0
 40
4.0
100
AcDbArc
 50
285.0
 51
15.0
  0
LINE
  5
9854
100
AcDbEntity
  8
0
100
AcDbLine
 10
1898.007242
 20
846.051524
 30
0.0
 11
1898.007242
 21
820.051524
 31
0.0
  0
LINE
  5
9855
100
AcDbEntity
  8
0
100
AcDbLine
 10
1798.007242
 20
818.551524
 30
0.0
 11
1818.007242
 21
818.551524
 31
0.0
  0
ARC
  5
9856
100
AcDbEntity
  8
0
100
AcDbCircle
 10
1888.685259
 20
806.037773
 30
0.0
 40
21.538712
100
AcDbArc
 50
174.095626
 51
215.904374
  0
LINE
  5
9857
100
AcDbEntity
  8
0
100
AcDbLine
 10
1863.578987
 20
815.357349
 30
0.0
 11
1871.602378
 21
785.413648
 31
0.0
  0
ARC
  5
9858
100
AcDbEntity
  8
0
100
AcDbCircle
 10
1854.223513
 20
796.803776
 30
0.0
 40
21.538712
100
AcDbArc
 50
354.095626
 51
35.904374
  0
LINE
  5
9859
100
AcDbEntity
  8
0
100
AcDbLine
 10
1879.85362
 20
785.548127
 30
0.0
 11
1870.794953
 21
819.355531
 31
0.0
  0
LINE
  5
985A
100
AcDbEntity
  8
0
100
AcDbLine
 10
1871.841652
 20
791.157494
 30
0.0
 11
1876.250644
 21
792.33888
 31
0.0
  0
LINE
  5
985B
100
AcDbEntity
  8
0
100
AcDbLine
 10
1871.238969
 20
793.406736
 30
0.0
 11
1875.647962
 21
794.588122
 31
0.0
  0
LINE
  5
985C
100
AcDbEntity
  8
0
100
AcDbLine
 10
1876.250644
 20
792.33888
 30
0.0
 11
1875.647962
 21
794.588122
 31
0.0
  0
LINE
  5
985D
100
AcDbEntity
  8
0
100
AcDbLine
 10
1871.841652
 20
791.157494
 30
0.0
 11
1871.238969
 21
793.406736
 31
0.0
  0
LINE
  5
985E
100
AcDbEntity
  8
0
100
AcDbLine
 10
1904.581435
 20
792.173925
 30
0.0
 11
1879.85362
 21
785.548127
 31
0.0
  0
LINE
  5
985F
100
AcDbEntity
  8
0
100
AcDbLine
 10
1871.669803
 20
809.434813
 30
0.0
 11
1871.06712
 21
811.684056
 31
0.0
  0
LINE
  5
9860
100
AcDbEntity
  8
0
100
AcDbLine
 10
1871.760879
 20
819.61435
 30
0.0
 11
1870.794953
 21
819.355531
 31
0.0
  0
ARC
  5
9861
100
AcDbEntity
  8
0
100
AcDbCircle
 10
1941.007242
 20
820.051524
 30
0.0
 40
43.0
100
AcDbArc
 50
180.0
 51
199.633618
  0
ARC
  5
9862
100
AcDbEntity
  8
0
100
AcDbCircle
 10
1870.975807
 20
816.039536
 30
0.0
 40
7.021342
100
AcDbArc
 50
157.947305
 51
232.052695
  0
LINE
  5
9863
100
AcDbEntity
  8
0
100
AcDbLine
 10
1863.578987
 20
815.357349
 30
0.0
 11
1864.468154
 21
818.675763
 31
0.0
  0
LINE
  5
9864
100
AcDbEntity
  8
0
100
AcDbLine
 10
1867.26081
 20
808.253427
 30
0.0
 11
1866.658127
 21
810.50267
 31
0.0
  0
LINE
  5
9865
100
AcDbEntity
  8
0
100
AcDbLine
 10
1864.468154
 20
818.675763
 30
0.0
 11
1868.877146
 21
819.857149
 31
0.0
  0
ARC
  5
9866
100
AcDbEntity
  8
0
100
AcDbCircle
 10
1864.559467
 20
814.320283
 30
0.0
 40
7.021342
100
AcDbArc
 50
337.947305
 51
52.052695
  0
LINE
  5
9867
100
AcDbEntity
  8
0
100
AcDbLine
 10
1871.306394
 20
817.427901
 30
0.0
 11
1868.877146
 21
819.857149
 31
0.0
  0
LINE
  5
9868
100
AcDbEntity
  8
0
100
AcDbLine
 10
1866.658127
 20
810.50267
 30
0.0
 11
1871.06712
 21
811.684056
 31
0.0
  0
LINE
  5
9869
100
AcDbEntity
  8
0
100
AcDbLine
 10
1867.26081
 20
808.253427
 30
0.0
 11
1871.669803
 21
809.434813
 31
0.0
  0
LINE
  5
986A
100
AcDbEntity
  8
0
100
AcDbLine
 10
1874.589306
 20
824.51333
 30
0.0
 11
1873.984422
 21
848.051524
 31
0.0
  0
LINE
  5
986B
100
AcDbEntity
  8
0
100
AcDbLine
 10
1858.984422
 20
863.051524
 30
0.0
 11
1843.007242
 21
863.051524
 31
0.0
  0
LINE
  5
986C
100
AcDbEntity
  8
0
100
AcDbLine
 10
1818.007242
 20
858.051524
 30
0.0
 11
1843.007242
 21
863.051524
 31
0.0
  0
LINE
  5
986D
100
AcDbEntity
  8
0
100
AcDbLine
 10
2063.007242
 20
818.551524
 30
0.0
 11
2043.007242
 21
818.551524
 31
0.0
  0
ARC
  5
986E
100
AcDbEntity
  8
0
100
AcDbCircle
 10
2009.282053
 20
857.051524
 30
0.0
 40
6.0
100
AcDbArc
 50
90.0
 51
133.086599
  0
LINE
  5
986F
100
AcDbEntity
  8
0
100
AcDbLine
 10
1906.007242
 20
853.051524
 30
0.0
 11
1976.007242
 21
853.051524
 31
0.0
  0
ARC
  5
9870
100
AcDbEntity
  8
0
100
AcDbCircle
 10
1990.007242
 20
847.563168
 30
0.0
 40
6.0
100
AcDbArc
 50
99.332418
 51
180.0
  0
ARC
  5
9871
100
AcDbEntity
  8
0
100
AcDbCircle
 10
1984.007242
 20
884.073441
 30
0.0
 40
31.0
100
AcDbArc
 50
279.332418
 51
313.086599
  0
LINE
  5
9872
100
AcDbEntity
  8
0
100
AcDbLine
 10
2018.007242
 20
863.051524
 30
0.0
 11
2009.282053
 21
863.051524
 31
0.0
  0
LINE
  5
9873
100
AcDbEntity
  8
0
100
AcDbLine
 10
2043.007242
 20
858.051524
 30
0.0
 11
2018.007242
 21
863.051524
 31
0.0
  0
LINE
  5
9874
100
AcDbEntity
  8
0
100
AcDbLine
 10
1997.007242
 20
915.051524
 30
0.0
 11
1885.007242
 21
915.051524
 31
0.0
  0
LINE
  5
9875
100
AcDbEntity
  8
0
100
AcDbLine
 10
2006.007242
 20
931.051524
 30
0.0
 11
1885.007242
 21
931.051524
 31
0.0
  0
ARC
  5
9876
100
AcDbEntity
  8
0
100
AcDbCircle
 10
1894.007242
 20
911.051524
 30
0.0
 40
4.0
100
AcDbArc
 50
0.0
 51
90.0
  0
LINE
  5
9877
100
AcDbEntity
  8
0
100
AcDbLine
 10
1885.007242
 20
929.051524
 30
0.0
 11
1843.007242
 21
929.051524
 31
0.0
  0
LINE
  5
9878
100
AcDbEntity
  8
0
100
AcDbLine
 10
1818.007242
 20
934.051524
 30
0.0
 11
1843.007242
 21
929.051524
 31
0.0
  0
LINE
  5
9879
100
AcDbEntity
  8
0
100
AcDbLine
 10
2018.007242
 20
929.051524
 30
0.0
 11
1997.007242
 21
929.051524
 31
0.0
  0
ARC
  5
987A
100
AcDbEntity
  8
0
100
AcDbCircle
 10
1988.007242
 20
911.051524
 30
0.0
 40
4.0
100
AcDbArc
 50
90.0
 51
180.0
  0
LINE
  5
987B
100
AcDbEntity
  8
0
100
AcDbLine
 10
2006.007242
 20
931.051524
 30
0.0
 11
2006.007242
 21
929.051524
 31
0.0
  0
LINE
  5
987C
100
AcDbEntity
  8
0
100
AcDbLine
 10
2043.007242
 20
934.051524
 30
0.0
 11
2018.007242
 21
929.051524
 31
0.0
  0
LINE
  5
987D
100
AcDbEntity
  8
0
100
AcDbLine
 10
1889.895076
 20
952.801524
 30
0.0
 11
1910.277326
 21
952.801524
 31
0.0
  0
ARC
  5
987E
100
AcDbEntity
  8
0
100
AcDbCircle
 10
1900.085763
 20
930.983028
 30
0.0
 40
21.571502
100
AcDbArc
 50
73.680185
 51
106.319815
  0
LINE
  5
987F
100
AcDbEntity
  8
0
100
AcDbLine
 10
1997.007242
 20
944.051524
 30
0.0
 11
1885.007242
 21
944.051524
 31
0.0
  0
LINE
  5
9880
100
AcDbEntity
  8
0
100
AcDbLine
 10
1818.007242
 20
973.551524
 30
0.0
 11
1798.007242
 21
973.551524
 31
0.0
  0
LINE
  5
9881
100
AcDbEntity
  8
0
100
AcDbLine
 10
1894.024201
 20
951.685374
 30
0.0
 11
1894.024201
 21
944.051524
 31
0.0
  0
LINE
  5
9882
100
AcDbEntity
  8
0
100
AcDbLine
 10
1887.962201
 20
944.051524
 30
0.0
 11
1887.962201
 21
951.685374
 31
0.0
  0
ARC
  5
9883
100
AcDbEntity
  8
0
100
AcDbCircle
 10
1890.992763
 20
946.834132
 30
0.0
 40
5.720504
100
AcDbArc
 50
57.999617
 51
122.000383
  0
LINE
  5
9884
100
AcDbEntity
  8
0
100
AcDbLine
 10
1887.962201
 20
951.685374
 30
0.0
 11
1889.895076
 21
952.801524
 31
0.0
  0
LINE
  5
9885
100
AcDbEntity
  8
0
100
AcDbLine
 10
1949.507242
 20
969.474174
 30
0.0
 11
1949.507242
 21
958.051524
 31
0.0
  0
LINE
  5
9886
100
AcDbEntity
  8
0
100
AcDbLine
 10
1932.507242
 20
969.474174
 30
0.0
 11
1932.507242
 21
958.051524
 31
0.0
  0
LINE
  5
9887
100
AcDbEntity
  8
0
100
AcDbLine
 10
1970.07734
 20
949.051524
 30
0.0
 11
1912.210201
 21
949.051524
 31
0.0
  0
LINE
  5
9888
100
AcDbEntity
  8
0
100
AcDbLine
 10
1951.007242
 20
958.051524
 30
0.0
 11
1951.007242
 21
949.051524
 31
0.0
  0
LINE
  5
9889
100
AcDbEntity
  8
0
100
AcDbLine
 10
1906.147326
 20
951.685374
 30
0.0
 11
1906.147326
 21
944.051524
 31
0.0
  0
LINE
  5
988A
100
AcDbEntity
  8
0
100
AcDbLine
 10
1912.210201
 20
951.685374
 30
0.0
 11
1912.210201
 21
944.051524
 31
0.0
  0
LINE
  5
988B
100
AcDbEntity
  8
0
100
AcDbLine
 10
1931.007242
 20
958.051524
 30
0.0
 11
1931.007242
 21
949.051524
 31
0.0
  0
LINE
  5
988C
100
AcDbEntity
  8
0
100
AcDbLine
 10
1910.277326
 20
952.801524
 30
0.0
 11
1912.210201
 21
951.685374
 31
0.0
  0
ARC
  5
988D
100
AcDbEntity
  8
0
100
AcDbCircle
 10
1909.178763
 20
946.834152
 30
0.0
 40
5.720487
100
AcDbArc
 50
57.999511
 51
122.000489
  0
LINE
  5
988E
100
AcDbEntity
  8
0
100
AcDbLine
 10
1951.007242
 20
958.051524
 30
0.0
 11
1931.007242
 21
958.051524
 31
0.0
  0
LINE
  5
988F
100
AcDbEntity
  8
0
100
AcDbLine
 10
1976.13934
 20
951.685374
 30
0.0
 11
1976.13934
 21
944.051524
 31
0.0
  0
LINE
  5
9890
100
AcDbEntity
  8
0
100
AcDbLine
 10
1994.32534
 20
951.685374
 30
0.0
 11
1994.32534
 21
944.051524
 31
0.0
  0
LINE
  5
9891
100
AcDbEntity
  8
0
100
AcDbLine
 10
1988.262465
 20
951.685374
 30
0.0
 11
1988.262465
 21
944.051524
 31
0.0
  0
ARC
  5
9892
100
AcDbEntity
  8
0
100
AcDbCircle
 10
1991.293903
 20
946.834152
 30
0.0
 40
5.720487
100
AcDbArc
 50
57.999511
 51
122.000489
  0
LINE
  5
9893
100
AcDbEntity
  8
0
100
AcDbLine
 10
1992.392465
 20
952.801524
 30
0.0
 11
1994.32534
 21
951.685374
 31
0.0
  0
ARC
  5
9894
100
AcDbEntity
  8
0
100
AcDbCircle
 10
1982.200903
 20
930.983028
 30
0.0
 40
21.571502
100
AcDbArc
 50
73.680185
 51
106.319815
  0
LINE
  5
9895
100
AcDbEntity
  8
0
100
AcDbLine
 10
1972.010215
 20
952.801524
 30
0.0
 11
1992.392465
 21
952.801524
 31
0.0
  0
LINE
  5
9896
100
AcDbEntity
  8
0
100
AcDbLine
 10
1970.07734
 20
944.051524
 30
0.0
 11
1970.07734
 21
951.685374
 31
0.0
  0
LINE
  5
9897
100
AcDbEntity
  8
0
100
AcDbLine
 10
1970.07734
 20
951.685374
 30
0.0
 11
1972.010215
 21
952.801524
 31
0.0
  0
ARC
  5
9898
100
AcDbEntity
  8
0
100
AcDbCircle
 10
1973.107903
 20
946.834132
 30
0.0
 40
5.720504
100
AcDbArc
 50
57.999617
 51
122.000383
  0
LINE
  5
9899
100
AcDbEntity
  8
0
100
AcDbLine
 10
1949.507242
 20
969.474174
 30
0.0
 11
1948.507242
 21
970.051524
 31
0.0
  0
LINE
  5
989A
100
AcDbEntity
  8
0
100
AcDbLine
 10
1932.507242
 20
969.474174
 30
0.0
 11
1933.507242
 21
970.051524
 31
0.0
  0
LINE
  5
989B
100
AcDbEntity
  8
0
100
AcDbLine
 10
1948.507242
 20
970.051524
 30
0.0
 11
1933.507242
 21
970.051524
 31
0.0
  0
LINE
  5
989C
100
AcDbEntity
  8
0
100
AcDbLine
 10
2043.007242
 20
973.551524
 30
0.0
 11
2063.007242
 21
973.551524
 31
0.0
  0
TEXT
  5
98A4
100
AcDbEntity
  8
0
100
AcDbText
 10
1886.091712
 20
313.85845
 30
0.0
 40
25.0
  1
50A
 72
     4
 11
1919.425045
 21
326.35845
 31
0.0
100
AcDbText
  0
TEXT
  5
98A5
100
AcDbEntity
  8
0
100
AcDbText
 10
960.585459
 20
301.85845
 30
0.0
 40
25.0
  1
40A
 72
     4
 11
993.918792
 21
314.35845
 31
0.0
100
AcDbText
  0
INSERT
  5
98A6
100
AcDbEntity
  8
0
100
AcDbBlockReference
  2
YA
 10
858.387389
 20
683.77663
 30
0.0
 41
2.856021
 42
2.856021
 43
2.856021
  0
INSERT
  5
98A7
100
AcDbEntity
  8
0
100
AcDbBlockReference
  2
YA
 10
1148.387389
 20
893.487499
 30
0.0
 41
-2.856021
 42
2.856021
 43
2.856021
  0
INSERT
  5
98B5
100
AcDbEntity
  8
0
100
AcDbBlockReference
  2
YA
 10
2299.201068
 20
1322.815424
 30
0.0
 41
2.856021
 42
2.856021
 43
2.856021
  0
INSERT
  5
98B6
100
AcDbEntity
  8
0
100
AcDbBlockReference
  2
YA
 10
2299.201068
 20
1533.672554
 30
0.0
 41
2.856021
 42
2.856021
 43
2.856021
  0
INSERT
  5
98B7
100
AcDbEntity
  8
0
100
AcDbBlockReference
  2
YA
 10
2574.201068
 20
1743.383423
 30
0.0
 41
-2.856021
 42
2.856021
 43
2.856021
  0
INSERT
  5
98B8
100
AcDbEntity
  8
0
100
AcDbBlockReference
  2
YA
 10
2078.007242
 20
893.487499
 30
0.0
 41
-2.856021
 42
2.856021
 43
2.856021
  0
INSERT
  5
98B9
100
AcDbEntity
  8
0
100
AcDbBlockReference
  2
YA
 10
1783.007242
 20
472.9195
 30
0.0
 41
2.856021
 42
2.856021
 43
2.856021
  0
INSERT
  5
98BA
100
AcDbEntity
  8
0
100
AcDbBlockReference
  2
YA
 10
1783.007242
 20
683.77663
 30
0.0
 41
2.856021
 42
2.856021
 43
2.856021
  0
INSERT
  5
98BB
100
AcDbEntity
  8
0
100
AcDbBlockReference
  2
YA
 10
626.045191
 20
1535.200603
 30
0.0
 41
2.856021
 42
2.856021
 43
2.856021
  0
INSERT
  5
98BC
100
AcDbEntity
  8
0
100
AcDbBlockReference
  2
YA
 10
626.045191
 20
1324.343473
 30
0.0
 41
2.856021
 42
2.856021
 43
2.856021
  0
INSERT
  5
98BD
100
AcDbEntity
  8
0
100
AcDbBlockReference
  2
YA
 10
1444.335808
 20
1529.8161
 30
0.0
 41
2.856021
 42
2.856021
 43
2.856021
  0
INSERT
  5
98BE
100
AcDbEntity
  8
0
100
AcDbBlockReference
  2
YA
 10
1444.335808
 20
1318.95897
 30
0.0
 41
2.856021
 42
2.856021
 43
2.856021
  0
INSERT
  5
98BF
100
AcDbEntity
  8
0
100
AcDbBlockReference
  2
YA
 10
906.045191
 20
1740.819398
 30
0.0
 41
-2.856021
 42
2.856021
 43
2.856021
  0
INSERT
  5
98C0
100
AcDbEntity
  8
0
100
AcDbBlockReference
  2
YA
 10
1738.335808
 20
1740.819398
 30
0.0
 41
-2.856021
 42
2.856021
 43
2.856021
  0
ARC
  5
98FD
100
AcDbEntity
  8
0
100
AcDbCircle
 10
1615.241075
 20
399.483675
 30
0.0
 40
43.0
100
AcDbArc
 50
290.807612
 51
334.08702
  0
ARC
  5
98FE
100
AcDbEntity
  8
0
100
AcDbCircle
 10
2227.380245
 20
399.483675
 30
0.0
 40
43.0
100
AcDbArc
 50
205.91298
 51
249.192388
  0
CIRCLE
  5
990A
100
AcDbEntity
  8
0
100
AcDbCircle
 10
2429.087468
 20
1225.129584
 30
0.0
 40
10.25
  0
POLYLINE
  5
990B
100
AcDbEntity
  8
0
100
AcDb2dPolyline
 66
     1
 10
0.0
 20
0.0
 30
0.0
 70
     1
  0
VERTEX
  5
9BA3
100
AcDbEntity
  8
0
100
AcDbVertex
100
AcDb2dVertex
 10
2418.587468
 20
1219.067407
 30
0.0
  0
VERTEX
  5
9BA4
100
AcDbEntity
  8
0
100
AcDbVertex
100
AcDb2dVertex
 10
2429.087468
 20
1213.005229
 30
0.0
  0
VERTEX
  5
9BA5
100
AcDbEntity
  8
0
100
AcDbVertex
100
AcDb2dVertex
 10
2439.587468
 20
1219.067407
 30
0.0
  0
VERTEX
  5
9BA6
100
AcDbEntity
  8
0
100
AcDbVertex
100
AcDb2dVertex
 10
2439.587468
 20
1231.191762
 30
0.0
  0
VERTEX
  5
9BA7
100
AcDbEntity
  8
0
100
AcDbVertex
100
AcDb2dVertex
 10
2429.087468
 20
1237.25394
 30
0.0
  0
VERTEX
  5
9BA8
100
AcDbEntity
  8
0
100
AcDbVertex
100
AcDb2dVertex
 10
2418.587468
 20
1231.191762
 30
0.0
  0
SEQEND
  5
9BA9
100
AcDbEntity
  8
0
  0
ARC
  5
9933
100
AcDbEntity
  8
0
100
AcDbCircle
 10
1281.430842
 20
1251.805872
 30
0.0
 40
12.0
100
AcDbArc
 50
131.311201
 51
48.688799
  0
CIRCLE
  5
9939
100
AcDbEntity
  8
0
100
AcDbCircle
 10
490.039064
 20
1251.815424
 30
0.0
 40
12.0
  0
VIEWPORT
  5
41
100
AcDbEntity
 67
     1
  8
0
100
AcDbViewport
 10
117.358407
 20
73.5
 30
0.0
 40
234.716814
 41
147.0
 68
    -1
 69
     1
1001
ACAD
1000
MVIEW
1002
{
1070
    16
1010
0.0
1020
0.0
1030
0.0
1010
0.0
1020
0.0
1030
1.0
1040
0.0
1040
147.0
1040
117.358407
1040
73.5
1040
50.0
1040
0.0
1040
0.0
1070
     0
1070
   100
1070
     1
1070
     1
1070
     0
1070
     0
1070
     0
1070
     0
1040
0.0
1040
0.0
1040
0.0
1040
1.0
1040
1.0
1040
0.0
1040
0.0
1070
     0
1002
{
1002
}
1002
}
  0
ENDSEC
  0
SECTION
  2
OBJECTS
  0
DICTIONARY
  5
C
100
AcDbDictionary
  3
ACAD_GROUP
350
D
  3
ACAD_MLINESTYLE
350
E
  0
DICTIONARY
  5
D
102
{ACAD_REACTORS
330
C
102
}
100
AcDbDictionary
  0
DICTIONARY
  5
E
102
{ACAD_REACTORS
330
C
102
}
100
AcDbDictionary
  3
STANDARD
350
1B
  0
MLINESTYLE
  5
1B
102
{ACAD_REACTORS
330
E
102
}
100
AcDbMlineStyle
  2
STANDARD
 70
     0
  3

 62
     0
 51
90.0
 52
90.0
 71
     2
 49
0.5
 62
   256
  6
BYLAYER
 49
-0.5
 62
   256
  6
BYLAYER
  0
ENDSEC
  0
EOF
