  0
SECTION
  2
HEADER
  9
$ACADVER
  1
AC1012
  9
$DWGCODEPAGE
  3
dos932
  9
$INSBASE
 10
0.0
 20
0.0
 30
0.0
  9
$EXTMIN
 10
77.0
 20
35.0
 30
0.0
  9
$EXTMAX
 10
2002.0
 20
1337.0
 30
0.0
  9
$LIMMIN
 10
0.0
 20
0.0
  9
$LIMMAX
 10
2079.0
 20
1470.0
  9
$ORTHOMODE
 70
     1
  9
$REGENMODE
 70
     1
  9
$FILLMODE
 70
     1
  9
$QTEXTMODE
 70
     0
  9
$MIRRTEXT
 70
     1
  9
$DRAGMODE
 70
     2
  9
$LTSCALE
 40
28.0
  9
$OSMODE
 70
   163
  9
$ATTMODE
 70
     1
  9
$TEXTSIZE
 40
28.0
  9
$TRACEWID
 40
0.05
  9
$TEXTSTYLE
  7
STANDARD
  9
$CLAYER
  8
0
  9
$CELTYPE
  6
BYLAYER
  9
$CECOLOR
 62
   256
  9
$CELTSCALE
 40
1.0
  9
$DELOBJ
 70
     1
  9
$DISPSILH
 70
     0
  9
$DIMSCALE
 40
7.0
  9
$DIMASZ
 40
2.8
  9
$DIMEXO
 40
1.0
  9
$DIMDLI
 40
5.0
  9
$DIMRND
 40
0.1
  9
$DIMDLE
 40
0.0
  9
$DIMEXE
 40
1.0
  9
$DIMTP
 40
0.0
  9
$DIMTM
 40
0.0
  9
$DIMTXT
 40
2.5
  9
$DIMCEN
 40
0.0
  9
$DIMTSZ
 40
0.0
  9
$DIMTOL
 70
     0
  9
$DIMLIM
 70
     0
  9
$DIMTIH
 70
     0
  9
$DIMTOH
 70
     0
  9
$DIMSE1
 70
     0
  9
$DIMSE2
 70
     0
  9
$DIMTAD
 70
     3
  9
$DIMZIN
 70
     8
  9
$DIMBLK
  1

  9
$DIMASO
 70
     1
  9
$DIMSHO
 70
     1
  9
$DIMPOST
  1
 
  9
$DIMAPOST
  1

  9
$DIMALT
 70
     0
  9
$DIMALTD
 70
     2
  9
$DIMALTF
 40
1.0
  9
$DIMLFAC
 40
1.0
  9
$DIMTOFL
 70
     1
  9
$DIMTVP
 40
0.0
  9
$DIMTIX
 70
     0
  9
$DIMSOXD
 70
     0
  9
$DIMSAH
 70
     1
  9
$DIMBLK1
  1
_OPEN
  9
$DIMBLK2
  1
_OPEN
  9
$DIMSTYLE
  2
DIM1
  9
$DIMCLRD
 70
     2
  9
$DIMCLRE
 70
     2
  9
$DIMCLRT
 70
     2
  9
$DIMTFAC
 40
0.7
  9
$DIMGAP
 40
0.85
  9
$DIMJUST
 70
     0
  9
$DIMSD1
 70
     0
  9
$DIMSD2
 70
     0
  9
$DIMTOLJ
 70
     1
  9
$DIMTZIN
 70
     8
  9
$DIMALTZ
 70
     8
  9
$DIMALTTZ
 70
     8
  9
$DIMFIT
 70
     0
  9
$DIMUPT
 70
     0
  9
$DIMUNIT
 70
     2
  9
$DIMDEC
 70
     2
  9
$DIMTDEC
 70
     3
  9
$DIMALTU
 70
     2
  9
$DIMALTTD
 70
     3
  9
$DIMTXSTY
  7
DIM
  9
$DIMAUNIT
 70
     0
  9
$LUNITS
 70
     2
  9
$LUPREC
 70
     4
  9
$SKETCHINC
 40
0.1
  9
$FILLETRAD
 40
0.0
  9
$AUNITS
 70
     0
  9
$AUPREC
 70
     0
  9
$MENU
  1
C:\ACADR13\WIN\SUPPORT\ACAD.mnc
  9
$ELEVATION
 40
0.0
  9
$PELEVATION
 40
0.0
  9
$THICKNESS
 40
0.0
  9
$LIMCHECK
 70
     0
  9
$BLIPMODE
 70
     1
  9
$CHAMFERA
 40
0.0
  9
$CHAMFERB
 40
0.0
  9
$CHAMFERC
 40
0.0
  9
$CHAMFERD
 40
0.0
  9
$SKPOLY
 70
     0
  9
$TDCREATE
 40
2451592.409667916
  9
$TDUPDATE
 40
2451981.561247824
  9
$TDINDWG
 40
0.0398700000
  9
$TDUSRTIMER
 40
0.0398700000
  9
$USRTIMER
 70
     1
  9
$ANGBASE
 50
0.0
  9
$ANGDIR
 70
     0
  9
$PDMODE
 70
     0
  9
$PDSIZE
 40
0.0
  9
$PLINEWID
 40
0.0
  9
$COORDS
 70
     1
  9
$SPLFRAME
 70
     0
  9
$SPLINETYPE
 70
     6
  9
$SPLINESEGS
 70
     8
  9
$ATTDIA
 70
     0
  9
$ATTREQ
 70
     1
  9
$HANDLING
 70
     1
  9
$HANDSEED
  5
B451
  9
$SURFTAB1
 70
     6
  9
$SURFTAB2
 70
     6
  9
$SURFTYPE
 70
     6
  9
$SURFU
 70
     6
  9
$SURFV
 70
     6
  9
$UCSNAME
  2

  9
$UCSORG
 10
0.0
 20
0.0
 30
0.0
  9
$UCSXDIR
 10
1.0
 20
0.0
 30
0.0
  9
$UCSYDIR
 10
0.0
 20
1.0
 30
0.0
  9
$PUCSNAME
  2

  9
$PUCSORG
 10
0.0
 20
0.0
 30
0.0
  9
$PUCSXDIR
 10
1.0
 20
0.0
 30
0.0
  9
$PUCSYDIR
 10
0.0
 20
1.0
 30
0.0
  9
$USERI1
 70
     0
  9
$USERI2
 70
     0
  9
$USERI3
 70
     0
  9
$USERI4
 70
     0
  9
$USERI5
 70
     0
  9
$USERR1
 40
0.0
  9
$USERR2
 40
0.0
  9
$USERR3
 40
0.0
  9
$USERR4
 40
0.0
  9
$USERR5
 40
0.0
  9
$WORLDVIEW
 70
     1
  9
$SHADEDGE
 70
     3
  9
$SHADEDIF
 70
    70
  9
$TILEMODE
 70
     1
  9
$MAXACTVP
 70
    16
  9
$PINSBASE
 10
0.0
 20
0.0
 30
0.0
  9
$PLIMCHECK
 70
     0
  9
$PEXTMIN
 10
1.000000E+20
 20
1.000000E+20
 30
1.000000E+20
  9
$PEXTMAX
 10
-1.000000E+20
 20
-1.000000E+20
 30
-1.000000E+20
  9
$PLIMMIN
 10
0.0
 20
0.0
  9
$PLIMMAX
 10
20.0
 20
147.0
  9
$UNITMODE
 70
     0
  9
$VISRETAIN
 70
     0
  9
$PLINEGEN
 70
     0
  9
$PSLTSCALE
 70
     1
  9
$TREEDEPTH
 70
  3020
  9
$PICKSTYLE
 70
     1
  9
$CMLSTYLE
  2
STANDARD
  9
$CMLJUST
 70
     0
  9
$CMLSCALE
 40
1.0
  9
$SAVEIMAGES
 70
     1
  0
ENDSEC
  0
SECTION
  2
CLASSES
  0
CLASS
  1
LWPOLYLINE
  2
AcDbPolyline
  3
"AutoCAD"
 90
    32768
280
     0
281
     1
  0
ENDSEC
  0
SECTION
  2
TABLES
  0
TABLE
  2
VPORT
  5
8
100
AcDbSymbolTable
 70
     2
  0
VPORT
  5
B450
100
AcDbSymbolTableRecord
100
AcDbViewportTableRecord
  2
*ACTIVE
 70
     0
 10
0.0
 20
0.0
 11
1.0
 21
1.0
 12
1384.59507
 22
785.780583
 13
0.0
 23
0.0
 14
1.0
 24
1.0
 15
0.0
 25
0.0
 16
0.0
 26
0.0
 36
1.0
 17
0.0
 27
0.0
 37
0.0
 40
1571.561166
 41
1.762063
 42
50.0
 43
0.0
 44
0.0
 50
0.0
 51
0.0
 71
     0
 72
   100
 73
     1
 74
     1
 75
     0
 76
     0
 77
     0
 78
     0
  0
ENDTAB
  0
TABLE
  2
LTYPE
  5
5
100
AcDbSymbolTable
 70
     1
  0
LTYPE
  5
12
100
AcDbSymbolTableRecord
100
AcDbLinetypeTableRecord
  2
BYBLOCK
 70
     0
  3

 72
    65
 73
     0
 40
0.0
  0
LTYPE
  5
13
100
AcDbSymbolTableRecord
100
AcDbLinetypeTableRecord
  2
BYLAYER
 70
     0
  3

 72
    65
 73
     0
 40
0.0
  0
LTYPE
  5
14
100
AcDbSymbolTableRecord
100
AcDbLinetypeTableRecord
  2
CONTINUOUS
 70
     0
  3
Solid line
 72
    65
 73
     0
 40
0.0
  0
ENDTAB
  0
TABLE
  2
LAYER
  5
2
100
AcDbSymbolTable
 70
     1
  0
LAYER
  5
F
100
AcDbSymbolTableRecord
100
AcDbLayerTableRecord
  2
0
 70
     0
 62
     7
  6
CONTINUOUS
  0
ENDTAB
  0
TABLE
  2
STYLE
  5
3
100
AcDbSymbolTable
 70
     3
  0
STYLE
  5
10
100
AcDbSymbolTableRecord
100
AcDbTextStyleTableRecord
  2
STANDARD
 70
     0
 40
0.0
 41
0.8
 50
0.0
 71
     0
 42
28.0
  3
simplex
  4
extfont
  0
STYLE
  5
237C
100
AcDbSymbolTableRecord
100
AcDbTextStyleTableRecord
  2
PTSH
 70
     0
 40
0.0
 41
0.9
 50
0.0
 71
     0
 42
4.0
  3
SIMPLEX
  4
EXTFONT
  0
STYLE
  5
2592
100
AcDbSymbolTableRecord
100
AcDbTextStyleTableRecord
  2
DIM
 70
     0
 40
0.0
 41
0.8
 50
0.0
 71
     0
 42
4.0
  3
simplex
  4
extfont
  0
ENDTAB
  0
TABLE
  2
VIEW
  5
6
100
AcDbSymbolTable
 70
     0
  0
ENDTAB
  0
TABLE
  2
UCS
  5
7
100
AcDbSymbolTable
 70
     0
  0
ENDTAB
  0
TABLE
  2
APPID
  5
9
100
AcDbSymbolTable
 70
     1
  0
APPID
  5
11
100
AcDbSymbolTableRecord
100
AcDbRegAppTableRecord
  2
ACAD
 70
     0
  0
ENDTAB
  0
TABLE
  2
DIMSTYLE
  5
A
100
AcDbSymbolTable
 70
     1
  0
DIMSTYLE
105
2237
100
AcDbSymbolTableRecord
100
AcDbDimStyleTableRecord
  2
DIM1
 70
     0
  3
 
  4

  5

  6
_OPEN
  7
_OPEN
 40
7.0
 41
2.8
 42
1.0
 43
5.0
 44
1.0
 45
0.1
 46
0.0
 47
0.0
 48
0.0
140
2.5
141
0.0
142
0.0
143
1.0
144
1.0
145
0.0
146
0.7
147
0.85
 71
     0
 72
     0
 73
     0
 74
     0
 75
     0
 76
     0
 77
     3
 78
     8
170
     0
171
     2
172
     1
173
     1
174
     0
175
     0
176
     2
177
     2
178
     2
270
     2
271
     2
272
     3
273
     2
274
     3
340
2592
275
     0
280
     0
281
     0
282
     0
283
     1
284
     8
285
     8
286
     8
287
     0
288
     0
  0
ENDTAB
  0
TABLE
  2
BLOCK_RECORD
  5
1
100
AcDbSymbolTable
 70
     2
  0
BLOCK_RECORD
  5
18
100
AcDbSymbolTableRecord
100
AcDbBlockTableRecord
  2
*MODEL_SPACE
  0
BLOCK_RECORD
  5
15
100
AcDbSymbolTableRecord
100
AcDbBlockTableRecord
  2
*PAPER_SPACE
  0
BLOCK_RECORD
  5
2448
100
AcDbSymbolTableRecord
100
AcDbBlockTableRecord
  2
_OPEN
  0
BLOCK_RECORD
  5
AECC
100
AcDbSymbolTableRecord
100
AcDbBlockTableRecord
  2
YA
  0
ENDTAB
  0
ENDSEC
  0
SECTION
  2
BLOCKS
  0
BLOCK
  5
3C
100
AcDbEntity
  8
0
100
AcDbBlockBegin
  2
*MODEL_SPACE
 70
     0
 10
0.0
 20
0.0
 30
0.0
  3
*MODEL_SPACE
  1

  0
ENDBLK
  5
3D
100
AcDbEntity
  8
0
100
AcDbBlockEnd
  0
BLOCK
  5
3A
100
AcDbEntity
 67
     1
  8
0
100
AcDbBlockBegin
  2
*PAPER_SPACE
 70
     0
 10
0.0
 20
0.0
 30
0.0
  3
*PAPER_SPACE
  1

  0
ENDBLK
  5
3B
100
AcDbEntity
 67
     1
  8
0
100
AcDbBlockEnd
  0
BLOCK
  5
2449
100
AcDbEntity
  8
0
 48
4.0
100
AcDbBlockBegin
  2
_OPEN
 70
     0
 10
0.0
 20
0.0
 30
0.0
  3
_OPEN
  1
H1111.DWG
  0
LINE
  5
244A
100
AcDbEntity
  8
0
  6
BYBLOCK
 62
     0
 48
4.0
100
AcDbLine
 10
-1.0
 20
0.166667
 30
0.0
 11
0.0
 21
0.0
 31
0.0
  0
LINE
  5
244B
100
AcDbEntity
  8
0
  6
BYBLOCK
 62
     0
 48
4.0
100
AcDbLine
 10
0.0
 20
0.0
 30
0.0
 11
-1.0
 21
-0.166667
 31
0.0
  0
LINE
  5
244C
100
AcDbEntity
  8
0
  6
BYBLOCK
 62
     0
 48
4.0
100
AcDbLine
 10
0.0
 20
0.0
 30
0.0
 11
-1.0
 21
0.0
 31
0.0
  0
ENDBLK
  5
244D
100
AcDbEntity
  8
0
 48
4.0
100
AcDbBlockEnd
  0
BLOCK
  5
AED4
100
AcDbEntity
  8
0
100
AcDbBlockBegin
  2
YA
 70
     0
 10
0.0
 20
0.0
 30
0.0
  3
YA
  1

  0
LINE
  5
AECD
100
AcDbEntity
  8
0
100
AcDbLine
 10
-16.8065
 20
2.801
 30
0.0
 11
-8.4035
 21
2.801
 31
0.0
  0
LINE
  5
AECE
100
AcDbEntity
  8
0
100
AcDbLine
 10
-8.4035
 20
2.801
 30
0.0
 11
-7.0025
 21
1.4005
 31
0.0
  0
LINE
  5
AECF
100
AcDbEntity
  8
0
100
AcDbLine
 10
-7.0025
 20
1.4005
 30
0.0
 11
-2.862
 21
1.4005
 31
0.0
  0
LINE
  5
AED0
100
AcDbEntity
  8
0
100
AcDbLine
 10
-2.862
 20
1.4005
 30
0.0
 11
-2.862
 21
2.801
 31
0.0
  0
LINE
  5
AED1
100
AcDbEntity
  8
0
100
AcDbLine
 10
-2.862
 20
2.801
 30
0.0
 11
0.0
 21
0.0
 31
0.0
  0
LINE
  5
AED2
100
AcDbEntity
  8
0
100
AcDbLine
 10
0.0
 20
0.0
 30
0.0
 11
-14.0055
 21
0.0
 31
0.0
  0
LINE
  5
AED3
100
AcDbEntity
  8
0
100
AcDbLine
 10
-14.0055
 20
0.0
 30
0.0
 11
-16.8065
 21
2.801
 31
0.0
  0
ENDBLK
  5
AED5
100
AcDbEntity
  8
0
100
AcDbBlockEnd
  0
ENDSEC
  0
SECTION
  2
ENTITIES
  0
MTEXT
  5
ADA
100
AcDbEntity
  8
0
100
AcDbMText
 10
2660.974958
 20
348.924178
 30
0.0
 40
1.4
 41
330.585254
 71
     1
 72
     1
  1

  0
MTEXT
  5
ADB
100
AcDbEntity
  8
0
100
AcDbMText
 10
2723.349532
 20
404.955556
 30
0.0
 40
1.4
 41
318.110339
 71
     1
 72
     1
  1

  0
MTEXT
  5
ADC
100
AcDbEntity
  8
0
100
AcDbMText
 10
2685.924788
 20
-335.903725
 30
0.0
 40
1.4
 41
361.772541
 71
     1
 72
     1
  1

  0
TEXT
  5
2529
100
AcDbEntity
  8
0
  6
CONTINUOUS
100
AcDbText
 10
1924.142857
 20
49.5
 30
0.0
 40
20.0
  1
J5B
 41
0.9
  7
PTSH
 72
     2
 11
1967.0
 21
59.5
 31
0.0
100
AcDbText
 73
     2
  0
POLYLINE
  5
2563
100
AcDbEntity
  8
0
100
AcDb2dPolyline
 66
     1
 10
0.0
 20
0.0
 30
0.0
 70
     1
  0
VERTEX
  5
B413
100
AcDbEntity
  8
0
100
AcDbVertex
100
AcDb2dVertex
 10
77.0
 20
35.0
 30
0.0
  0
VERTEX
  5
B414
100
AcDbEntity
  8
0
100
AcDbVertex
100
AcDb2dVertex
 10
2002.0
 20
35.0
 30
0.0
  0
VERTEX
  5
B415
100
AcDbEntity
  8
0
100
AcDbVertex
100
AcDb2dVertex
 10
2002.0
 20
1337.0
 30
0.0
  0
VERTEX
  5
B416
100
AcDbEntity
  8
0
100
AcDbVertex
100
AcDb2dVertex
 10
77.0
 20
1337.0
 30
0.0
  0
SEQEND
  5
B417
100
AcDbEntity
  8
0
  0
TEXT
  5
3FCE
100
AcDbEntity
  8
0
100
AcDbText
 10
917.116667
 20
94.5
 30
0.0
 40
24.5
  1
TLV  J5B (PT)
 72
     4
 11
1039.5
 21
105.0
 31
0.0
100
AcDbText
  0
LINE
  5
A3EA
100
AcDbEntity
  8
0
100
AcDbLine
 10
1224.96433
 20
557.767298
 30
0.0
 11
1224.96433
 21
537.767298
 31
0.0
  0
LINE
  5
A3EB
100
AcDbEntity
  8
0
100
AcDbLine
 10
1288.96433
 20
557.767298
 30
0.0
 11
1288.96433
 21
537.767298
 31
0.0
  0
LINE
  5
A3EC
100
AcDbEntity
  8
0
100
AcDbLine
 10
1313.46433
 20
543.767298
 30
0.0
 11
1313.46433
 21
522.767298
 31
0.0
  0
LINE
  5
A3ED
100
AcDbEntity
  8
0
100
AcDbLine
 10
1207.46433
 20
565.767298
 30
0.0
 11
1207.46433
 21
525.767298
 31
0.0
  0
CIRCLE
  5
A3EE
100
AcDbEntity
  8
0
100
AcDbCircle
 10
1256.96433
 20
547.767298
 30
0.0
 40
32.0
  0
CIRCLE
  5
A3EF
100
AcDbEntity
  8
0
100
AcDbCircle
 10
1509.979671
 20
533.267298
 30
0.0
 40
10.5
  0
LINE
  5
A3F0
100
AcDbEntity
  8
0
100
AcDbLine
 10
1775.283144
 20
565.767298
 30
0.0
 11
1775.283144
 21
525.767298
 31
0.0
  0
LINE
  5
A3F1
100
AcDbEntity
  8
0
100
AcDbLine
 10
1669.283144
 20
543.767298
 30
0.0
 11
1669.283144
 21
522.767298
 31
0.0
  0
CIRCLE
  5
A3F2
100
AcDbEntity
  8
0
100
AcDbCircle
 10
1725.783144
 20
547.767298
 30
0.0
 40
32.0
  0
LINE
  5
A3F3
100
AcDbEntity
  8
0
100
AcDbLine
 10
1757.783144
 20
557.767298
 30
0.0
 11
1757.783144
 21
537.767298
 31
0.0
  0
LINE
  5
A3F4
100
AcDbEntity
  8
0
100
AcDbLine
 10
1693.783144
 20
557.767298
 30
0.0
 11
1693.783144
 21
537.767298
 31
0.0
  0
LINE
  5
A3F5
100
AcDbEntity
  8
0
100
AcDbLine
 10
1597.979671
 20
547.767298
 30
0.0
 11
1597.979671
 21
515.767298
 31
0.0
  0
LINE
  5
A3F6
100
AcDbEntity
  8
0
100
AcDbLine
 10
1573.979671
 20
559.767298
 30
0.0
 11
1573.979671
 21
535.767298
 31
0.0
  0
LINE
  5
A3F7
100
AcDbEntity
  8
0
100
AcDbLine
 10
1591.979671
 20
559.767298
 30
0.0
 11
1591.979671
 21
535.767298
 31
0.0
  0
LINE
  5
A3F8
100
AcDbEntity
  8
0
100
AcDbLine
 10
1552.979671
 20
525.767298
 30
0.0
 11
1552.979671
 21
563.767298
 31
0.0
  0
LINE
  5
A3F9
100
AcDbEntity
  8
0
100
AcDbLine
 10
1437.979671
 20
547.767298
 30
0.0
 11
1437.979671
 21
515.767298
 31
0.0
  0
LINE
  5
A3FA
100
AcDbEntity
  8
0
100
AcDbLine
 10
1466.979671
 20
525.767298
 30
0.0
 11
1466.979671
 21
563.767298
 31
0.0
  0
LINE
  5
A3FB
100
AcDbEntity
  8
0
100
AcDbLine
 10
1461.979671
 20
559.767298
 30
0.0
 11
1461.979671
 21
535.767298
 31
0.0
  0
LINE
  5
A3FC
100
AcDbEntity
  8
0
100
AcDbLine
 10
1443.979671
 20
559.767298
 30
0.0
 11
1443.979671
 21
535.767298
 31
0.0
  0
LINE
  5
A3FD
100
AcDbEntity
  8
0
100
AcDbLine
 10
433.002655
 20
553.767298
 30
0.0
 11
433.002655
 21
533.025628
 31
0.0
  0
LINE
  5
A3FE
100
AcDbEntity
  8
0
100
AcDbLine
 10
536.502655
 20
550.766136
 30
0.0
 11
536.502655
 21
529.766136
 31
0.0
  0
ARC
  5
A3FF
100
AcDbEntity
  8
0
100
AcDbCircle
 10
547.543373
 20
540.047374
 30
0.0
 40
20.073875
100
AcDbArc
 50
148.270907
 51
209.160257
  0
LINE
  5
A400
100
AcDbEntity
  8
0
100
AcDbLine
 10
503.502655
 20
555.267298
 30
0.0
 11
503.502655
 21
540.267298
 31
0.0
  0
LINE
  5
A401
100
AcDbEntity
  8
0
100
AcDbLine
 10
461.502655
 20
555.267298
 30
0.0
 11
461.502655
 21
540.267298
 31
0.0
  0
ARC
  5
A402
100
AcDbEntity
  8
0
100
AcDbCircle
 10
482.502655
 20
506.767298
 30
0.0
 40
43.0
100
AcDbArc
 50
180.0
 51
0.0
  0
CIRCLE
  5
A403
100
AcDbEntity
  8
0
100
AcDbCircle
 10
482.502655
 20
547.767298
 30
0.0
 40
21.0
  0
CIRCLE
  5
A404
100
AcDbEntity
  8
0
100
AcDbCircle
 10
951.694607
 20
547.767298
 30
0.0
 40
21.0
  0
LINE
  5
A405
100
AcDbEntity
  8
0
100
AcDbLine
 10
972.694607
 20
555.267298
 30
0.0
 11
972.694607
 21
540.267298
 31
0.0
  0
LINE
  5
A406
100
AcDbEntity
  8
0
100
AcDbLine
 10
1001.194607
 20
553.767298
 30
0.0
 11
1001.194607
 21
533.025628
 31
0.0
  0
LINE
  5
A407
100
AcDbEntity
  8
0
100
AcDbLine
 10
930.694607
 20
555.267298
 30
0.0
 11
930.694607
 21
540.267298
 31
0.0
  0
ARC
  5
A408
100
AcDbEntity
  8
0
100
AcDbCircle
 10
886.653889
 20
540.047374
 30
0.0
 40
20.073875
100
AcDbArc
 50
330.839743
 51
31.729093
  0
LINE
  5
A409
100
AcDbEntity
  8
0
100
AcDbLine
 10
897.694607
 20
550.766136
 30
0.0
 11
897.694607
 21
529.766136
 31
0.0
  0
ARC
  5
A40A
100
AcDbEntity
  8
0
100
AcDbCircle
 10
951.694607
 20
506.767298
 30
0.0
 40
43.0
100
AcDbArc
 50
180.0
 51
0.0
  0
LINE
  5
A40B
100
AcDbEntity
  8
0
100
AcDbLine
 10
806.781388
 20
556.767298
 30
0.0
 11
806.781388
 21
538.767298
 31
0.0
  0
LINE
  5
A40C
100
AcDbEntity
  8
0
100
AcDbLine
 10
791.781388
 20
556.767298
 30
0.0
 11
791.781388
 21
538.767298
 31
0.0
  0
LINE
  5
A40D
100
AcDbEntity
  8
0
100
AcDbLine
 10
810.781388
 20
547.767298
 30
0.0
 11
810.781388
 21
526.767298
 31
0.0
  0
ARC
  5
A40E
100
AcDbEntity
  8
0
100
AcDbCircle
 10
828.531264
 20
543.702963
 30
0.0
 40
57.671059
100
AcDbArc
 50
174.05568
 51
191.508499
  0
CIRCLE
  5
A40F
100
AcDbEntity
  8
0
100
AcDbCircle
 10
725.780676
 20
540.266136
 30
0.0
 40
10.5
  0
LINE
  5
A410
100
AcDbEntity
  8
0
100
AcDbLine
 10
659.781388
 20
556.767298
 30
0.0
 11
659.781388
 21
538.767298
 31
0.0
  0
LINE
  5
A411
100
AcDbEntity
  8
0
100
AcDbLine
 10
674.781388
 20
556.767298
 30
0.0
 11
674.781388
 21
538.767298
 31
0.0
  0
LINE
  5
A412
100
AcDbEntity
  8
0
100
AcDbLine
 10
655.781779
 20
547.767298
 30
0.0
 11
655.78217
 21
526.767298
 31
0.0
  0
TEXT
  5
A413
100
AcDbEntity
  8
0
100
AcDbText
 10
239.606431
 20
522.729033
 30
0.0
 40
24.5
  1
正面
100
AcDbText
  0
LINE
  5
A415
100
AcDbEntity
  8
0
100
AcDbLine
 10
655.781388
 20
526.767298
 30
0.0
 11
765.773694
 21
526.767298
 31
0.0
  0
ARC
  5
A416
100
AcDbEntity
  8
0
100
AcDbCircle
 10
725.781388
 20
506.767298
 30
0.0
 40
43.0
100
AcDbArc
 50
257.619201
 51
317.046813
  0
ARC
  5
A418
100
AcDbEntity
  8
0
100
AcDbCircle
 10
725.781388
 20
506.767298
 30
0.0
 40
43.0
100
AcDbArc
 50
205.91298
 51
249.192388
  0
LINE
  5
A419
100
AcDbEntity
  8
0
100
AcDbLine
 10
529.914089
 20
526.766733
 30
0.0
 11
436.019103
 21
526.767851
 31
0.0
  0
ARC
  5
A41C
100
AcDbEntity
  8
0
100
AcDbCircle
 10
434.502655
 20
521.767298
 30
0.0
 40
5.0
100
AcDbArc
 50
360.0
 51
60.0
  0
LINE
  5
A41D
100
AcDbEntity
  8
0
100
AcDbLine
 10
439.501943
 20
521.851686
 30
0.0
 11
439.501943
 21
506.767298
 31
0.0
  0
LINE
  5
A41E
100
AcDbEntity
  8
0
100
AcDbLine
 10
439.502655
 20
506.767298
 30
0.0
 11
439.502655
 21
521.767298
 31
0.0
  0
ARC
  5
A41F
100
AcDbEntity
  8
0
100
AcDbCircle
 10
441.002655
 20
533.025628
 30
0.0
 40
8.0
100
AcDbArc
 50
180.0
 51
240.0
  0
ARC
  5
A420
100
AcDbEntity
  8
0
100
AcDbCircle
 10
463.002655
 20
540.267298
 30
0.0
 40
1.5
100
AcDbArc
 50
180.0
 51
270.0
  0
LINE
  5
A421
100
AcDbEntity
  8
0
100
AcDbLine
 10
463.528989
 20
538.767298
 30
0.0
 11
463.002655
 21
538.767298
 31
0.0
  0
LINE
  5
A422
100
AcDbEntity
  8
0
100
AcDbLine
 10
501.476321
 20
538.767298
 30
0.0
 11
502.002655
 21
538.767298
 31
0.0
  0
ARC
  5
A423
100
AcDbEntity
  8
0
100
AcDbCircle
 10
502.002655
 20
540.267298
 30
0.0
 40
1.5
100
AcDbArc
 50
270.0
 51
0.0
  0
ARC
  5
A424
100
AcDbEntity
  8
0
100
AcDbCircle
 10
725.781388
 20
506.767298
 30
0.0
 40
43.0
100
AcDbArc
 50
180.0
 51
198.961819
  0
LINE
  5
A427
100
AcDbEntity
  8
0
100
AcDbLine
 10
683.781388
 20
488.767298
 30
0.0
 11
683.781388
 21
464.767298
 31
0.0
  0
LINE
  5
A436
100
AcDbEntity
  8
0
100
AcDbLine
 10
683.781388
 20
464.767298
 30
0.0
 11
716.561843
 21
464.767298
 31
0.0
  0
ARC
  5
A437
100
AcDbEntity
  8
0
100
AcDbCircle
 10
682.434245
 20
491.447821
 30
0.0
 40
3.0
100
AcDbArc
 50
296.682589
 51
26.682589
  0
ARC
  5
A43C
100
AcDbEntity
  8
0
100
AcDbCircle
 10
530.501943
 20
521.767298
 30
0.0
 40
5.0
100
AcDbArc
 50
90.0
 51
180.0
  0
LINE
  5
A43D
100
AcDbEntity
  8
0
100
AcDbLine
 10
525.502655
 20
506.767298
 30
0.0
 11
525.502655
 21
521.767298
 31
0.0
  0
LINE
  5
A43E
100
AcDbEntity
  8
0
100
AcDbLine
 10
536.502655
 20
529.766136
 30
0.0
 11
534.277551
 21
529.766136
 31
0.0
  0
ARC
  5
A43F
100
AcDbEntity
  8
0
100
AcDbCircle
 10
529.002655
 20
529.625414
 30
0.0
 40
3.0
100
AcDbArc
 50
280.806923
 51
331.53992
  0
ARC
  5
A440
100
AcDbEntity
  8
0
100
AcDbCircle
 10
534.277551
 20
526.766136
 30
0.0
 40
3.0
100
AcDbArc
 50
90.0
 51
151.53992
  0
ARC
  5
A441
100
AcDbEntity
  8
0
100
AcDbCircle
 10
677.781388
 20
521.767298
 30
0.0
 40
5.0
100
AcDbArc
 50
0.0
 51
90.0
  0
LINE
  5
A442
100
AcDbEntity
  8
0
100
AcDbLine
 10
682.781388
 20
521.767298
 30
0.0
 11
682.781388
 21
506.767298
 31
0.0
  0
LINE
  5
A443
100
AcDbEntity
  8
0
100
AcDbLine
 10
674.781388
 20
538.767298
 30
0.0
 11
659.781388
 21
538.767298
 31
0.0
  0
LINE
  5
A444
100
AcDbEntity
  8
0
100
AcDbLine
 10
904.282923
 20
526.767298
 30
0.0
 11
929.111078
 21
526.767298
 31
0.0
  0
LINE
  5
A445
100
AcDbEntity
  8
0
100
AcDbLine
 10
786.935011
 20
472.263901
 30
0.0
 11
795.993677
 21
506.071304
 31
0.0
  0
ARC
  5
A446
100
AcDbEntity
  8
0
100
AcDbCircle
 10
802.229163
 20
501.030174
 30
0.0
 40
7.021342
100
AcDbArc
 50
127.947305
 51
202.052695
  0
LINE
  5
A447
100
AcDbEntity
  8
0
100
AcDbLine
 10
803.209643
 20
502.06724
 30
0.0
 11
802.320477
 21
505.385654
 31
0.0
  0
ARC
  5
A448
100
AcDbEntity
  8
0
100
AcDbCircle
 10
795.812824
 20
502.749427
 30
0.0
 40
7.021342
100
AcDbArc
 50
307.947305
 51
22.052695
  0
ARC
  5
A449
100
AcDbEntity
  8
0
100
AcDbCircle
 10
725.781388
 20
506.767298
 30
0.0
 40
43.0
100
AcDbArc
 50
340.033601
 51
360.0
  0
LINE
  5
A44A
100
AcDbEntity
  8
0
100
AcDbLine
 10
803.209643
 20
502.06724
 30
0.0
 11
795.186253
 21
472.123539
 31
0.0
  0
ARC
  5
A44B
100
AcDbEntity
  8
0
100
AcDbCircle
 10
812.565117
 20
483.513667
 30
0.0
 40
21.538712
100
AcDbArc
 50
144.095626
 51
185.904374
  0
ARC
  5
A44C
100
AcDbEntity
  8
0
100
AcDbCircle
 10
778.103372
 20
492.747664
 30
0.0
 40
21.538712
100
AcDbArc
 50
324.095626
 51
5.904374
  0
LINE
  5
A44D
100
AcDbEntity
  8
0
100
AcDbLine
 10
762.207196
 20
478.889699
 30
0.0
 11
786.935011
 21
472.263901
 31
0.0
  0
ARC
  5
A44E
100
AcDbEntity
  8
0
100
AcDbCircle
 10
760.913101
 20
474.06007
 30
0.0
 40
5.0
100
AcDbArc
 50
75.0
 51
137.046813
  0
ARC
  5
A44F
100
AcDbEntity
  8
0
100
AcDbCircle
 10
794.855665
 20
473.511905
 30
0.0
 40
7.021342
100
AcDbArc
 50
127.947305
 51
202.052695
  0
LINE
  5
A450
100
AcDbEntity
  8
0
100
AcDbLine
 10
787.458846
 20
474.194092
 30
0.0
 11
788.348012
 21
470.875678
 31
0.0
  0
LINE
  5
A451
100
AcDbEntity
  8
0
100
AcDbLine
 10
794.946979
 20
477.867385
 30
0.0
 11
790.537986
 21
479.048771
 31
0.0
  0
LINE
  5
A452
100
AcDbEntity
  8
0
100
AcDbLine
 10
795.549661
 20
480.116627
 30
0.0
 11
791.140669
 21
481.298013
 31
0.0
  0
LINE
  5
A453
100
AcDbEntity
  8
0
100
AcDbLine
 10
790.537986
 20
479.048771
 30
0.0
 11
791.140669
 21
481.298013
 31
0.0
  0
LINE
  5
A454
100
AcDbEntity
  8
0
100
AcDbLine
 10
794.946979
 20
477.867385
 30
0.0
 11
795.549661
 21
480.116627
 31
0.0
  0
ARC
  5
A455
100
AcDbEntity
  8
0
100
AcDbCircle
 10
788.439326
 20
475.231158
 30
0.0
 40
7.021342
100
AcDbArc
 50
307.947305
 51
22.052695
  0
LINE
  5
A456
100
AcDbEntity
  8
0
100
AcDbLine
 10
795.186253
 20
472.123539
 30
0.0
 11
792.757005
 21
469.694292
 31
0.0
  0
LINE
  5
A457
100
AcDbEntity
  8
0
100
AcDbLine
 10
792.757005
 20
469.694292
 30
0.0
 11
788.348012
 21
470.875678
 31
0.0
  0
LINE
  5
A458
100
AcDbEntity
  8
0
100
AcDbLine
 10
799.52782
 20
494.963319
 30
0.0
 11
800.130503
 21
497.212561
 31
0.0
  0
LINE
  5
A459
100
AcDbEntity
  8
0
100
AcDbLine
 10
795.118828
 20
496.144705
 30
0.0
 11
795.72151
 21
498.393947
 31
0.0
  0
LINE
  5
A45A
100
AcDbEntity
  8
0
100
AcDbLine
 10
800.130503
 20
497.212561
 30
0.0
 11
795.72151
 21
498.393947
 31
0.0
  0
LINE
  5
A45B
100
AcDbEntity
  8
0
100
AcDbLine
 10
799.52782
 20
494.963319
 30
0.0
 11
795.118828
 21
496.144705
 31
0.0
  0
ARC
  5
A45C
100
AcDbEntity
  8
0
100
AcDbCircle
 10
797.146161
 20
521.767298
 30
0.0
 40
5.0
100
AcDbArc
 50
90.0
 51
175.0
  0
LINE
  5
A45D
100
AcDbEntity
  8
0
100
AcDbLine
 10
768.781388
 20
524.697461
 30
0.0
 11
768.781388
 21
506.767298
 31
0.0
  0
LINE
  5
A45E
100
AcDbEntity
  8
0
100
AcDbLine
 10
802.320477
 20
505.385654
 30
0.0
 11
797.911484
 21
506.56704
 31
0.0
  0
LINE
  5
A45F
100
AcDbEntity
  8
0
100
AcDbLine
 10
793.305385
 20
506.79163
 30
0.0
 11
795.993677
 21
506.071304
 31
0.0
  0
ARC
  5
A460
100
AcDbEntity
  8
0
100
AcDbCircle
 10
794.081843
 20
509.689408
 30
0.0
 40
3.0
100
AcDbArc
 50
175.0
 51
255.0
  0
LINE
  5
A461
100
AcDbEntity
  8
0
100
AcDbLine
 10
795.031649
 20
506.329079
 30
0.0
 11
794.264383
 21
506.534668
 31
0.0
  0
LINE
  5
A462
100
AcDbEntity
  8
0
100
AcDbLine
 10
795.482236
 20
504.137792
 30
0.0
 11
797.911484
 21
506.56704
 31
0.0
  0
LINE
  5
A463
100
AcDbEntity
  8
0
100
AcDbLine
 10
791.093259
 20
509.950875
 30
0.0
 11
792.165187
 21
522.203076
 31
0.0
  0
ARC
  5
A464
100
AcDbEntity
  8
0
100
AcDbCircle
 10
767.120199
 20
531.199254
 30
0.0
 40
5.0
100
AcDbArc
 50
305.637046
 51
11.508499
  0
ARC
  5
A465
100
AcDbEntity
  8
0
100
AcDbCircle
 10
771.781388
 20
524.697461
 30
0.0
 40
3.0
100
AcDbArc
 50
125.637046
 51
180.0
  0
LINE
  5
A466
100
AcDbEntity
  8
0
100
AcDbLine
 10
797.146161
 20
526.767298
 30
0.0
 11
810.781388
 21
526.767298
 31
0.0
  0
LINE
  5
A467
100
AcDbEntity
  8
0
100
AcDbLine
 10
806.781388
 20
538.767298
 30
0.0
 11
791.781388
 21
538.767298
 31
0.0
  0
ARC
  5
A468
100
AcDbEntity
  8
0
100
AcDbCircle
 10
903.695319
 20
521.767298
 30
0.0
 40
5.0
100
AcDbArc
 50
0.0
 51
90.0
  0
LINE
  5
A469
100
AcDbEntity
  8
0
100
AcDbLine
 10
908.694607
 20
506.767298
 30
0.0
 11
908.694607
 21
521.767298
 31
0.0
  0
ARC
  5
A46A
100
AcDbEntity
  8
0
100
AcDbCircle
 10
899.919711
 20
526.766136
 30
0.0
 40
3.0
100
AcDbArc
 50
28.46008
 51
90.0
  0
ARC
  5
A46B
100
AcDbEntity
  8
0
100
AcDbCircle
 10
905.194607
 20
529.625414
 30
0.0
 40
3.0
100
AcDbArc
 50
208.46008
 51
259.193077
  0
LINE
  5
A46C
100
AcDbEntity
  8
0
100
AcDbLine
 10
897.694607
 20
529.766136
 30
0.0
 11
899.919711
 21
529.766136
 31
0.0
  0
ELLIPSE
  5
A46D
100
AcDbEntity
  8
0
100
AcDbEllipse
 10
951.694607
 20
490.539453
 30
0.0
 11
-17.5
 21
0.0
 31
0.0
210
0.0
220
0.0
230
1.0
 40
0.965926
 41
3.101003103797176
 42
6.32377485697224
  0
LINE
  5
A46E
100
AcDbEntity
  8
0
100
AcDbLine
 10
937.039013
 20
496.767971
 30
0.0
 11
950.350197
 21
504.191323
 31
0.0
  0
LINE
  5
A46F
100
AcDbEntity
  8
0
100
AcDbLine
 10
937.039013
 20
498.840184
 30
0.0
 11
950.350197
 21
506.263536
 31
0.0
  0
ELLIPSE
  5
A470
100
AcDbEntity
  8
0
100
AcDbEllipse
 10
951.694607
 20
489.167603
 30
0.0
 11
-17.5
 21
0.0
 31
0.0
210
0.0
220
0.0
230
1.0
 40
0.965926
 41
4.818932400495492
 42
5.653043515254864
  0
LINE
  5
A471
100
AcDbEntity
  8
0
100
AcDbLine
 10
966.350201
 20
496.767971
 30
0.0
 11
953.039016
 21
504.191323
 31
0.0
  0
LINE
  5
A472
100
AcDbEntity
  8
0
100
AcDbLine
 10
966.350201
 20
498.840184
 30
0.0
 11
953.039016
 21
506.263536
 31
0.0
  0
ELLIPSE
  5
A473
100
AcDbEntity
  8
0
100
AcDbEllipse
 10
951.694607
 20
489.167603
 30
0.0
 11
-17.5
 21
0.0
 31
0.0
210
0.0
220
0.0
230
1.0
 40
0.965926
 41
3.771734445514514
 42
4.605845560273887
  0
LINE
  5
A474
100
AcDbEntity
  8
0
100
AcDbLine
 10
931.205711
 20
539.13943
 30
0.0
 11
934.223186
 21
488.201948
 31
0.0
  0
LINE
  5
A475
100
AcDbEntity
  8
0
100
AcDbLine
 10
972.183502
 20
539.13943
 30
0.0
 11
969.166028
 21
488.201948
 31
0.0
  0
ELLIPSE
  5
A476
100
AcDbEntity
  8
0
100
AcDbEllipse
 10
951.694607
 20
489.167603
 30
0.0
 11
-17.5
 21
0.0
 31
0.0
210
0.0
220
0.0
230
1.0
 40
0.965926
 41
2.724537359304187
 42
3.55864794787574
  0
ELLIPSE
  5
A477
100
AcDbEntity
  8
0
100
AcDbEllipse
 10
951.694607
 20
489.167603
 30
0.0
 11
-17.5
 21
0.0
 31
0.0
210
0.0
220
0.0
230
1.0
 40
0.965926
 41
5.86613001289398
 42
6.700240601465533
  0
LINE
  5
A478
100
AcDbEntity
  8
0
100
AcDbLine
 10
967.694607
 20
496.590948
 30
0.0
 11
967.694607
 21
479.672044
 31
0.0
  0
LINE
  5
A479
100
AcDbEntity
  8
0
100
AcDbLine
 10
935.694607
 20
496.590948
 30
0.0
 11
935.694607
 21
479.672044
 31
0.0
  0
ELLIPSE
  5
A47A
100
AcDbEntity
  8
0
100
AcDbEllipse
 10
951.694607
 20
487.09539
 30
0.0
 11
15.5
 21
-0.0000000000000028
 31
0.0
210
0.0
220
0.0
230
1.0
 40
0.965926
 41
0.0
 42
6.283185307179586
  0
ELLIPSE
  5
A47B
100
AcDbEntity
  8
0
100
AcDbEllipse
 10
951.694607
 20
487.09539
 30
0.0
 11
17.75
 21
0.0
 31
0.0
210
0.0
220
0.0
230
-1.0
 40
0.965926
 41
0.4477847473764708
 42
0.5994123592542787
  0
LINE
  5
A47C
100
AcDbEntity
  8
0
100
AcDbLine
 10
937.039013
 20
477.422808
 30
0.0
 11
950.350197
 21
469.999456
 31
0.0
  0
LINE
  5
A47D
100
AcDbEntity
  8
0
100
AcDbLine
 10
966.350201
 20
477.422808
 30
0.0
 11
953.039016
 21
469.999456
 31
0.0
  0
ELLIPSE
  5
A47E
100
AcDbEntity
  8
0
100
AcDbEllipse
 10
951.694607
 20
487.09539
 30
0.0
 11
-17.75
 21
0.0
 31
0.0
210
0.0
220
0.0
230
1.0
 40
0.965926
 41
1.494982339354536
 42
1.646610314235256
  0
ELLIPSE
  5
A47F
100
AcDbEntity
  8
0
100
AcDbEllipse
 10
951.694607
 20
487.09539
 30
0.0
 11
-17.75
 21
0.0
 31
0.0
210
0.0
220
0.0
230
1.0
 40
0.965926
 41
0.4477847473764708
 42
0.5994123592542787
  0
ELLIPSE
  5
A480
100
AcDbEntity
  8
0
100
AcDbEllipse
 10
951.694607
 20
487.09539
 30
0.0
 11
17.75
 21
0.0
 31
0.0
210
0.0
220
0.0
230
-1.0
 40
0.965926
 41
5.683772947925307
 42
5.835400559803447
  0
ELLIPSE
  5
A481
100
AcDbEntity
  8
0
100
AcDbEllipse
 10
951.694607
 20
489.167603
 30
0.0
 11
17.75
 21
0.0
 31
0.0
210
0.0
220
0.0
230
-1.0
 40
0.965926
 41
5.683772947925307
 42
5.835400559803447
  0
ELLIPSE
  5
A482
100
AcDbEntity
  8
0
100
AcDbEllipse
 10
951.694607
 20
487.09539
 30
0.0
 11
-17.75
 21
0.0
 31
0.0
210
0.0
220
0.0
230
1.0
 40
0.965926
 41
5.683772947925307
 42
5.835400559803447
  0
ELLIPSE
  5
A483
100
AcDbEntity
  8
0
100
AcDbEllipse
 10
951.694607
 20
489.167603
 30
0.0
 11
-17.75
 21
0.0
 31
0.0
210
0.0
220
0.0
230
1.0
 40
0.965926
 41
5.683772947925307
 42
5.835400559803447
  0
LINE
  5
A484
100
AcDbEntity
  8
0
100
AcDbLine
 10
966.350201
 20
496.767971
 30
0.0
 11
966.350201
 21
498.840184
 31
0.0
  0
LINE
  5
A485
100
AcDbEntity
  8
0
100
AcDbLine
 10
937.039013
 20
496.767971
 30
0.0
 11
937.039013
 21
498.840184
 31
0.0
  0
ARC
  5
A486
100
AcDbEntity
  8
0
100
AcDbCircle
 10
999.694607
 20
521.767298
 30
0.0
 40
5.0
100
AcDbArc
 50
120.0
 51
180.0
  0
LINE
  5
A487
100
AcDbEntity
  8
0
100
AcDbLine
 10
950.350197
 20
504.191323
 30
0.0
 11
950.350197
 21
506.188025
 31
0.0
  0
LINE
  5
A488
100
AcDbEntity
  8
0
100
AcDbLine
 10
953.039016
 20
504.191323
 30
0.0
 11
953.039016
 21
506.188025
 31
0.0
  0
ELLIPSE
  5
A489
100
AcDbEntity
  8
0
100
AcDbEllipse
 10
951.694607
 20
487.09539
 30
0.0
 11
-17.75
 21
0.0
 31
0.0
210
0.0
220
0.0
230
1.0
 40
0.965926
 41
4.636574992944329
 42
4.788202967825049
  0
ELLIPSE
  5
A48A
100
AcDbEntity
  8
0
100
AcDbEllipse
 10
951.694607
 20
489.167603
 30
0.0
 11
-17.75
 21
0.0
 31
0.0
210
0.0
220
0.0
230
1.0
 40
0.965926
 41
4.636574992944329
 42
4.788202967825049
  0
LINE
  5
A48B
100
AcDbEntity
  8
0
100
AcDbLine
 10
994.694607
 20
506.767298
 30
0.0
 11
994.694607
 21
521.767298
 31
0.0
  0
LINE
  5
A48C
100
AcDbEntity
  8
0
100
AcDbLine
 10
994.695319
 20
521.851686
 30
0.0
 11
994.695319
 21
506.767298
 31
0.0
  0
ARC
  5
A48D
100
AcDbEntity
  8
0
100
AcDbCircle
 10
932.194607
 20
540.267298
 30
0.0
 40
1.5
100
AcDbArc
 50
180.0
 51
270.0
  0
LINE
  5
A48E
100
AcDbEntity
  8
0
100
AcDbLine
 10
932.720941
 20
538.767298
 30
0.0
 11
932.194607
 21
538.767298
 31
0.0
  0
ARC
  5
A48F
100
AcDbEntity
  8
0
100
AcDbCircle
 10
929.111078
 20
523.767298
 30
0.0
 40
3.0
100
AcDbArc
 50
3.39017
 51
90.0
  0
LINE
  5
A490
100
AcDbEntity
  8
0
100
AcDbLine
 10
970.668273
 20
538.767298
 30
0.0
 11
971.194607
 21
538.767298
 31
0.0
  0
ARC
  5
A491
100
AcDbEntity
  8
0
100
AcDbCircle
 10
971.194607
 20
540.267298
 30
0.0
 40
1.5
100
AcDbArc
 50
270.0
 51
0.0
  0
LINE
  5
A492
100
AcDbEntity
  8
0
100
AcDbLine
 10
974.278135
 20
526.767298
 30
0.0
 11
998.177909
 21
526.767298
 31
0.0
  0
ARC
  5
A493
100
AcDbEntity
  8
0
100
AcDbCircle
 10
993.194607
 20
533.025628
 30
0.0
 40
8.0
100
AcDbArc
 50
300.0
 51
0.0
  0
ARC
  5
A494
100
AcDbEntity
  8
0
100
AcDbCircle
 10
974.278135
 20
523.767298
 30
0.0
 40
3.0
100
AcDbArc
 50
90.0
 51
176.60983
  0
TEXT
  5
A496
100
AcDbEntity
  8
0
100
AcDbText
 10
1465.785958
 20
332.73379
 30
0.0
 40
17.5
  1
32A,40A
 72
     4
 11
1519.119292
 21
339.817124
 31
0.0
100
AcDbText
  0
ARC
  5
A499
100
AcDbEntity
  8
0
100
AcDbCircle
 10
1256.96433
 20
484.767298
 30
0.0
 40
43.0
100
AcDbArc
 50
180.0
 51
0.0
  0
ARC
  5
A49A
100
AcDbEntity
  8
0
100
AcDbCircle
 10
1596.763401
 20
461.51955
 30
0.0
 40
21.538712
100
AcDbArc
 50
144.095626
 51
185.904374
  0
ARC
  5
A49B
100
AcDbEntity
  8
0
100
AcDbCircle
 10
1562.301655
 20
470.753546
 30
0.0
 40
21.538712
100
AcDbArc
 50
324.095626
 51
5.904374
  0
LINE
  5
A49C
100
AcDbEntity
  8
0
100
AcDbLine
 10
1587.407926
 20
480.073122
 30
0.0
 11
1579.384536
 21
450.129421
 31
0.0
  0
LINE
  5
A49D
100
AcDbEntity
  8
0
100
AcDbLine
 10
1571.133294
 20
450.263901
 30
0.0
 11
1580.191961
 21
484.071304
 31
0.0
  0
ARC
  5
A49E
100
AcDbEntity
  8
0
100
AcDbCircle
 10
1509.979671
 20
484.767298
 30
0.0
 40
43.0
100
AcDbArc
 50
207.076227
 51
244.435282
  0
LINE
  5
A4A1
100
AcDbEntity
  8
0
100
AcDbLine
 10
1467.979671
 20
466.767298
 30
0.0
 11
1467.979671
 21
442.767298
 31
0.0
  0
ARC
  5
A4A5
100
AcDbEntity
  8
0
100
AcDbCircle
 10
1545.111384
 20
452.06007
 30
0.0
 40
5.0
100
AcDbArc
 50
75.0
 51
137.046813
  0
ARC
  5
A4A6
100
AcDbEntity
  8
0
100
AcDbCircle
 10
1509.979671
 20
484.767298
 30
0.0
 40
43.0
100
AcDbArc
 50
257.619201
 51
317.046813
  0
LINE
  5
A4A9
100
AcDbEntity
  8
0
100
AcDbLine
 10
1467.979671
 20
442.767298
 30
0.0
 11
1500.760127
 21
442.767298
 31
0.0
  0
LINE
  5
A4B4
100
AcDbEntity
  8
0
100
AcDbLine
 10
1574.73627
 20
457.054653
 30
0.0
 11
1575.338952
 21
459.303895
 31
0.0
  0
LINE
  5
A4B5
100
AcDbEntity
  8
0
100
AcDbLine
 10
1579.747945
 20
458.122509
 30
0.0
 11
1575.338952
 21
459.303895
 31
0.0
  0
LINE
  5
A4B6
100
AcDbEntity
  8
0
100
AcDbLine
 10
1576.955288
 20
447.700174
 30
0.0
 11
1572.546296
 21
448.88156
 31
0.0
  0
LINE
  5
A4B7
100
AcDbEntity
  8
0
100
AcDbLine
 10
1579.384536
 20
450.129421
 30
0.0
 11
1576.955288
 21
447.700174
 31
0.0
  0
ARC
  5
A4B8
100
AcDbEntity
  8
0
100
AcDbCircle
 10
1572.637609
 20
453.23704
 30
0.0
 40
7.021342
100
AcDbArc
 50
307.947305
 51
22.052695
  0
LINE
  5
A4B9
100
AcDbEntity
  8
0
100
AcDbLine
 10
1579.145262
 20
455.873267
 30
0.0
 11
1574.73627
 21
457.054653
 31
0.0
  0
LINE
  5
A4BA
100
AcDbEntity
  8
0
100
AcDbLine
 10
1579.145262
 20
455.873267
 30
0.0
 11
1579.747945
 21
458.122509
 31
0.0
  0
LINE
  5
A4BB
100
AcDbEntity
  8
0
100
AcDbLine
 10
1546.405479
 20
456.889699
 30
0.0
 11
1571.133294
 21
450.263901
 31
0.0
  0
LINE
  5
A4BC
100
AcDbEntity
  8
0
100
AcDbLine
 10
1571.657129
 20
452.199974
 30
0.0
 11
1572.546296
 21
448.88156
 31
0.0
  0
ARC
  5
A4BD
100
AcDbEntity
  8
0
100
AcDbCircle
 10
1579.053949
 20
451.517787
 30
0.0
 40
7.021342
100
AcDbArc
 50
127.947305
 51
202.052695
  0
LINE
  5
A4BE
100
AcDbEntity
  8
0
100
AcDbLine
 10
1437.979671
 20
515.767298
 30
0.0
 11
1461.979671
 21
515.767298
 31
0.0
  0
LINE
  5
A4BF
100
AcDbEntity
  8
0
100
AcDbLine
 10
1213.96433
 20
484.767298
 30
0.0
 11
1213.96433
 21
515.101933
 31
0.0
  0
LINE
  5
A4C0
100
AcDbEntity
  8
0
100
AcDbLine
 10
1299.96433
 20
484.767298
 30
0.0
 11
1299.96433
 21
515.101933
 31
0.0
  0
LINE
  5
A4C1
100
AcDbEntity
  8
0
100
AcDbLine
 10
1300.981742
 20
517.767298
 30
0.0
 11
1268.099859
 21
517.767298
 31
0.0
  0
ARC
  5
A4C2
100
AcDbEntity
  8
0
100
AcDbCircle
 10
1215.46433
 20
525.767298
 30
0.0
 40
8.0
100
AcDbArc
 50
180.0
 51
242.720387
  0
LINE
  5
A4C3
100
AcDbEntity
  8
0
100
AcDbLine
 10
1245.828801
 20
517.767298
 30
0.0
 11
1212.946918
 21
517.767298
 31
0.0
  0
ARC
  5
A4C4
100
AcDbEntity
  8
0
100
AcDbCircle
 10
1209.96433
 20
515.101933
 30
0.0
 40
4.0
100
AcDbArc
 50
0.0
 51
62.720387
  0
ARC
  5
A4C5
100
AcDbEntity
  8
0
100
AcDbCircle
 10
1226.96433
 20
537.767298
 30
0.0
 40
2.0
100
AcDbArc
 50
180.0
 51
270.0
  0
LINE
  5
A4C6
100
AcDbEntity
  8
0
100
AcDbLine
 10
1226.96433
 20
535.767298
 30
0.0
 11
1227.299536
 21
535.767298
 31
0.0
  0
ARC
  5
A4C7
100
AcDbEntity
  8
0
100
AcDbCircle
 10
1307.683874
 20
519.767298
 30
0.0
 40
3.0
100
AcDbArc
 50
90.0
 51
146.944269
  0
LINE
  5
A4C8
100
AcDbEntity
  8
0
100
AcDbLine
 10
1313.46433
 20
522.767298
 30
0.0
 11
1307.683874
 21
522.767298
 31
0.0
  0
ARC
  5
A4C9
100
AcDbEntity
  8
0
100
AcDbCircle
 10
1303.96433
 20
515.101933
 30
0.0
 40
4.0
100
AcDbArc
 50
117.279613
 51
180.0
  0
ARC
  5
A4CA
100
AcDbEntity
  8
0
100
AcDbCircle
 10
1298.46433
 20
525.767298
 30
0.0
 40
8.0
100
AcDbArc
 50
297.279613
 51
326.944269
  0
ARC
  5
A4CB
100
AcDbEntity
  8
0
100
AcDbCircle
 10
1286.96433
 20
537.767298
 30
0.0
 40
2.0
100
AcDbArc
 50
270.0
 51
0.0
  0
LINE
  5
A4CC
100
AcDbEntity
  8
0
100
AcDbLine
 10
1286.96433
 20
535.767298
 30
0.0
 11
1286.629124
 21
535.767298
 31
0.0
  0
ARC
  5
A4CD
100
AcDbEntity
  8
0
100
AcDbCircle
 10
1354.837876
 20
533.267298
 30
0.0
 40
49.5
100
AcDbArc
 50
171.348542
 51
188.651458
  0
LINE
  5
A4CE
100
AcDbEntity
  8
0
100
AcDbLine
 10
1577.104715
 20
488.004358
 30
0.0
 11
1583.550778
 21
512.061393
 31
0.0
  0
LINE
  5
A4CF
100
AcDbEntity
  8
0
100
AcDbLine
 10
1552.979671
 20
510.767298
 30
0.0
 11
1552.979671
 21
484.767298
 31
0.0
  0
LINE
  5
A4D0
100
AcDbEntity
  8
0
100
AcDbLine
 10
1466.979671
 20
510.767298
 30
0.0
 11
1466.979671
 21
484.767298
 31
0.0
  0
ARC
  5
A4D1
100
AcDbEntity
  8
0
100
AcDbCircle
 10
1509.979671
 20
484.767298
 30
0.0
 40
43.0
100
AcDbArc
 50
180.0
 51
199.633618
  0
LINE
  5
A4D2
100
AcDbEntity
  8
0
100
AcDbLine
 10
1469.479671
 20
470.319114
 30
0.0
 11
1469.479671
 21
469.365374
 31
0.0
  0
ARC
  5
A4D6
100
AcDbEntity
  8
0
100
AcDbCircle
 10
1466.479671
 20
469.365374
 30
0.0
 40
3.0
100
AcDbArc
 50
300.0
 51
0.0
  0
LINE
  5
A4D7
100
AcDbEntity
  8
0
100
AcDbLine
 10
1586.51876
 20
483.391536
 30
0.0
 11
1582.109767
 21
484.572922
 31
0.0
  0
ARC
  5
A4D8
100
AcDbEntity
  8
0
100
AcDbCircle
 10
1586.427447
 20
479.036056
 30
0.0
 40
7.021342
100
AcDbArc
 50
127.947305
 51
202.052695
  0
LINE
  5
A4D9
100
AcDbEntity
  8
0
100
AcDbLine
 10
1579.68052
 20
482.143674
 30
0.0
 11
1582.109767
 21
484.572922
 31
0.0
  0
ARC
  5
A4DA
100
AcDbEntity
  8
0
100
AcDbCircle
 10
1580.002492
 20
487.227901
 30
0.0
 40
3.0
100
AcDbArc
 50
165.0
 51
255.0
  0
ARC
  5
A4DB
100
AcDbEntity
  8
0
100
AcDbCircle
 10
1509.979671
 20
484.767298
 30
0.0
 40
43.0
100
AcDbArc
 50
340.366382
 51
0.0
  0
ARC
  5
A4DC
100
AcDbEntity
  8
0
100
AcDbCircle
 10
1580.011107
 20
480.755309
 30
0.0
 40
7.021342
100
AcDbArc
 50
307.947305
 51
22.052695
  0
LINE
  5
A4DD
100
AcDbEntity
  8
0
100
AcDbLine
 10
1579.317111
 20
474.150587
 30
0.0
 11
1579.919794
 21
476.399829
 31
0.0
  0
LINE
  5
A4DE
100
AcDbEntity
  8
0
100
AcDbLine
 10
1583.726104
 20
472.969201
 30
0.0
 11
1584.328786
 21
475.218443
 31
0.0
  0
LINE
  5
A4DF
100
AcDbEntity
  8
0
100
AcDbLine
 10
1583.726104
 20
472.969201
 30
0.0
 11
1579.317111
 21
474.150587
 31
0.0
  0
LINE
  5
A4E0
100
AcDbEntity
  8
0
100
AcDbLine
 10
1584.328786
 20
475.218443
 30
0.0
 11
1579.919794
 21
476.399829
 31
0.0
  0
LINE
  5
A4E1
100
AcDbEntity
  8
0
100
AcDbLine
 10
1587.407926
 20
480.073122
 30
0.0
 11
1586.51876
 21
483.391536
 31
0.0
  0
LINE
  5
A4E2
100
AcDbEntity
  8
0
100
AcDbLine
 10
1579.226035
 20
484.330124
 30
0.0
 11
1580.191961
 21
484.071304
 31
0.0
  0
LINE
  5
A4E3
100
AcDbEntity
  8
0
100
AcDbLine
 10
1474.979671
 20
517.767298
 30
0.0
 11
1544.979671
 21
517.767298
 31
0.0
  0
ARC
  5
A4E4
100
AcDbEntity
  8
0
100
AcDbCircle
 10
1474.979671
 20
525.767298
 30
0.0
 40
8.0
100
AcDbArc
 50
180.0
 51
270.0
  0
ARC
  5
A4E5
100
AcDbEntity
  8
0
100
AcDbCircle
 10
1461.979671
 20
510.767298
 30
0.0
 40
5.0
100
AcDbArc
 50
0.0
 51
90.0
  0
LINE
  5
A4E6
100
AcDbEntity
  8
0
100
AcDbLine
 10
1443.979671
 20
535.767298
 30
0.0
 11
1461.979671
 21
535.767298
 31
0.0
  0
ARC
  5
A4E7
100
AcDbEntity
  8
0
100
AcDbCircle
 10
1544.979671
 20
525.767298
 30
0.0
 40
8.0
100
AcDbArc
 50
270.0
 51
0.0
  0
LINE
  5
A4E8
100
AcDbEntity
  8
0
100
AcDbLine
 10
1588.380407
 20
515.767298
 30
0.0
 11
1597.979671
 21
515.767298
 31
0.0
  0
ARC
  5
A4E9
100
AcDbEntity
  8
0
100
AcDbCircle
 10
1588.380407
 20
510.767298
 30
0.0
 40
5.0
100
AcDbArc
 50
90.0
 51
165.0
  0
LINE
  5
A4EA
100
AcDbEntity
  8
0
100
AcDbLine
 10
1573.979671
 20
535.767298
 30
0.0
 11
1591.979671
 21
535.767298
 31
0.0
  0
ELLIPSE
  5
A4EB
100
AcDbEntity
  8
0
100
AcDbEllipse
 10
1725.783144
 20
467.167603
 30
0.0
 11
-17.5
 21
0.0
 31
0.0
210
0.0
220
0.0
230
1.0
 40
0.965926
 41
2.724537359304187
 42
3.55864794787574
  0
ELLIPSE
  5
A4EC
100
AcDbEntity
  8
0
100
AcDbEllipse
 10
1725.783144
 20
467.167603
 30
0.0
 11
-17.5
 21
0.0
 31
0.0
210
0.0
220
0.0
230
1.0
 40
0.965926
 41
5.86613001289398
 42
6.700240601465533
  0
LINE
  5
A4ED
100
AcDbEntity
  8
0
100
AcDbLine
 10
1741.783144
 20
474.590948
 30
0.0
 11
1741.783144
 21
457.672044
 31
0.0
  0
LINE
  5
A4EE
100
AcDbEntity
  8
0
100
AcDbLine
 10
1709.783144
 20
474.590948
 30
0.0
 11
1709.783144
 21
457.672044
 31
0.0
  0
ELLIPSE
  5
A4EF
100
AcDbEntity
  8
0
100
AcDbEllipse
 10
1725.783144
 20
465.09539
 30
0.0
 11
15.5
 21
-0.0000000000000028
 31
0.0
210
0.0
220
0.0
230
1.0
 40
0.965926
 41
0.0
 42
6.283185307179586
  0
ARC
  5
A4F0
100
AcDbEntity
  8
0
100
AcDbCircle
 10
1725.783144
 20
484.767298
 30
0.0
 40
43.0
100
AcDbArc
 50
180.0
 51
0.0
  0
LINE
  5
A4F1
100
AcDbEntity
  8
0
100
AcDbLine
 10
1695.904258
 20
535.767298
 30
0.0
 11
1708.532771
 21
464.322691
 31
0.0
  0
LINE
  5
A4F2
100
AcDbEntity
  8
0
100
AcDbLine
 10
1755.662031
 20
535.767298
 30
0.0
 11
1743.033518
 21
464.322691
 31
0.0
  0
LINE
  5
A4F3
100
AcDbEntity
  8
0
100
AcDbLine
 10
1711.12755
 20
455.422808
 30
0.0
 11
1724.438735
 21
447.999456
 31
0.0
  0
ELLIPSE
  5
A4F4
100
AcDbEntity
  8
0
100
AcDbEllipse
 10
1725.783144
 20
465.09539
 30
0.0
 11
-17.75
 21
0.0
 31
0.0
210
0.0
220
0.0
230
1.0
 40
0.965926
 41
0.4477847473764708
 42
0.5994123592542787
  0
LINE
  5
A4F5
100
AcDbEntity
  8
0
100
AcDbLine
 10
1740.438739
 20
455.422808
 30
0.0
 11
1727.127554
 21
447.999456
 31
0.0
  0
ELLIPSE
  5
A4F6
100
AcDbEntity
  8
0
100
AcDbEllipse
 10
1725.783144
 20
465.09539
 30
0.0
 11
-17.75
 21
0.0
 31
0.0
210
0.0
220
0.0
230
1.0
 40
0.965926
 41
1.494982339354536
 42
1.646610314235256
  0
ELLIPSE
  5
A4F7
100
AcDbEntity
  8
0
100
AcDbEllipse
 10
1725.783144
 20
465.09539
 30
0.0
 11
17.75
 21
0.0
 31
0.0
210
0.0
220
0.0
230
-1.0
 40
0.965926
 41
0.4477847473764708
 42
0.5994123592542787
  0
LINE
  5
A4F8
100
AcDbEntity
  8
0
100
AcDbLine
 10
1768.783144
 20
484.767298
 30
0.0
 11
1768.783144
 21
515.101933
 31
0.0
  0
LINE
  5
A4F9
100
AcDbEntity
  8
0
100
AcDbLine
 10
1682.783144
 20
484.767298
 30
0.0
 11
1682.783144
 21
515.101933
 31
0.0
  0
LINE
  5
A4FA
100
AcDbEntity
  8
0
100
AcDbLine
 10
1724.438735
 20
482.191323
 30
0.0
 11
1724.438735
 21
484.188025
 31
0.0
  0
LINE
  5
A4FB
100
AcDbEntity
  8
0
100
AcDbLine
 10
1727.127554
 20
482.191323
 30
0.0
 11
1727.127554
 21
484.188025
 31
0.0
  0
ELLIPSE
  5
A4FC
100
AcDbEntity
  8
0
100
AcDbEllipse
 10
1725.783144
 20
468.539453
 30
0.0
 11
-17.5
 21
0.0
 31
0.0
210
0.0
220
0.0
230
1.0
 40
0.965926
 41
3.101003103797176
 42
6.32377485697224
  0
LINE
  5
A4FD
100
AcDbEntity
  8
0
100
AcDbLine
 10
1711.12755
 20
476.840184
 30
0.0
 11
1724.438735
 21
484.263536
 31
0.0
  0
LINE
  5
A4FE
100
AcDbEntity
  8
0
100
AcDbLine
 10
1740.438739
 20
476.840184
 30
0.0
 11
1727.127554
 21
484.263536
 31
0.0
  0
LINE
  5
A4FF
100
AcDbEntity
  8
0
100
AcDbLine
 10
1711.12755
 20
474.767971
 30
0.0
 11
1724.438735
 21
482.191323
 31
0.0
  0
ELLIPSE
  5
A500
100
AcDbEntity
  8
0
100
AcDbEllipse
 10
1725.783144
 20
467.167603
 30
0.0
 11
-17.5
 21
0.0
 31
0.0
210
0.0
220
0.0
230
1.0
 40
0.965926
 41
4.818932400495492
 42
5.653043515254864
  0
ELLIPSE
  5
A501
100
AcDbEntity
  8
0
100
AcDbEllipse
 10
1725.783144
 20
465.09539
 30
0.0
 11
-17.75
 21
0.0
 31
0.0
210
0.0
220
0.0
230
1.0
 40
0.965926
 41
5.683772947925307
 42
5.835400559803447
  0
ELLIPSE
  5
A502
100
AcDbEntity
  8
0
100
AcDbEllipse
 10
1725.783144
 20
467.167603
 30
0.0
 11
-17.75
 21
0.0
 31
0.0
210
0.0
220
0.0
230
1.0
 40
0.965926
 41
5.683772947925307
 42
5.835400559803447
  0
LINE
  5
A503
100
AcDbEntity
  8
0
100
AcDbLine
 10
1711.12755
 20
474.767971
 30
0.0
 11
1711.12755
 21
476.840184
 31
0.0
  0
ELLIPSE
  5
A504
100
AcDbEntity
  8
0
100
AcDbEllipse
 10
1725.783144
 20
465.09539
 30
0.0
 11
-17.75
 21
0.0
 31
0.0
210
0.0
220
0.0
230
1.0
 40
0.965926
 41
4.636574992944329
 42
4.788202967825049
  0
ELLIPSE
  5
A505
100
AcDbEntity
  8
0
100
AcDbEllipse
 10
1725.783144
 20
465.09539
 30
0.0
 11
17.75
 21
0.0
 31
0.0
210
0.0
220
0.0
230
-1.0
 40
0.965926
 41
5.683772947925307
 42
5.835400559803447
  0
ELLIPSE
  5
A506
100
AcDbEntity
  8
0
100
AcDbEllipse
 10
1725.783144
 20
467.167603
 30
0.0
 11
17.75
 21
0.0
 31
0.0
210
0.0
220
0.0
230
-1.0
 40
0.965926
 41
5.683772947925307
 42
5.835400559803447
  0
LINE
  5
A507
100
AcDbEntity
  8
0
100
AcDbLine
 10
1740.438739
 20
474.767971
 30
0.0
 11
1740.438739
 21
476.840184
 31
0.0
  0
LINE
  5
A508
100
AcDbEntity
  8
0
100
AcDbLine
 10
1740.438739
 20
474.767971
 30
0.0
 11
1727.127554
 21
482.191323
 31
0.0
  0
ELLIPSE
  5
A509
100
AcDbEntity
  8
0
100
AcDbEllipse
 10
1725.783144
 20
467.167603
 30
0.0
 11
-17.5
 21
0.0
 31
0.0
210
0.0
220
0.0
230
1.0
 40
0.965926
 41
3.771734445514514
 42
4.605845560273887
  0
ELLIPSE
  5
A50A
100
AcDbEntity
  8
0
100
AcDbEllipse
 10
1725.783144
 20
467.167603
 30
0.0
 11
-17.75
 21
0.0
 31
0.0
210
0.0
220
0.0
230
1.0
 40
0.965926
 41
4.636574992944329
 42
4.788202967825049
  0
LINE
  5
A50B
100
AcDbEntity
  8
0
100
AcDbLine
 10
1769.800556
 20
517.767298
 30
0.0
 11
1754.996587
 21
517.767298
 31
0.0
  0
LINE
  5
A50C
100
AcDbEntity
  8
0
100
AcDbLine
 10
1669.283144
 20
522.767298
 30
0.0
 11
1675.0636
 21
522.767298
 31
0.0
  0
ARC
  5
A50D
100
AcDbEntity
  8
0
100
AcDbCircle
 10
1675.0636
 20
519.767298
 30
0.0
 40
3.0
100
AcDbArc
 50
33.055731
 51
90.0
  0
ARC
  5
A50E
100
AcDbEntity
  8
0
100
AcDbCircle
 10
1678.783144
 20
515.101933
 30
0.0
 40
4.0
100
AcDbArc
 50
0.0
 51
62.720387
  0
ARC
  5
A50F
100
AcDbEntity
  8
0
100
AcDbCircle
 10
1684.283144
 20
525.767298
 30
0.0
 40
8.0
100
AcDbArc
 50
213.055731
 51
242.720387
  0
LINE
  5
A510
100
AcDbEntity
  8
0
100
AcDbLine
 10
1681.765733
 20
517.767298
 30
0.0
 11
1696.569702
 21
517.767298
 31
0.0
  0
ARC
  5
A511
100
AcDbEntity
  8
0
100
AcDbCircle
 10
1696.569702
 20
514.767298
 30
0.0
 40
3.0
100
AcDbArc
 50
10.024032
 51
90.0
  0
ARC
  5
A512
100
AcDbEntity
  8
0
100
AcDbCircle
 10
1754.996587
 20
514.767298
 30
0.0
 40
3.0
100
AcDbArc
 50
90.0
 51
169.975968
  0
ARC
  5
A513
100
AcDbEntity
  8
0
100
AcDbCircle
 10
1627.909598
 20
533.267298
 30
0.0
 40
49.5
100
AcDbArc
 50
351.348542
 51
8.651458
  0
LINE
  5
A514
100
AcDbEntity
  8
0
100
AcDbLine
 10
1695.783144
 20
535.767298
 30
0.0
 11
1696.118351
 21
535.767298
 31
0.0
  0
ARC
  5
A515
100
AcDbEntity
  8
0
100
AcDbCircle
 10
1695.783144
 20
537.767298
 30
0.0
 40
2.0
100
AcDbArc
 50
180.0
 51
270.0
  0
LINE
  5
A516
100
AcDbEntity
  8
0
100
AcDbLine
 10
1755.783144
 20
535.767298
 30
0.0
 11
1755.447938
 21
535.767298
 31
0.0
  0
ARC
  5
A517
100
AcDbEntity
  8
0
100
AcDbCircle
 10
1755.783144
 20
537.767298
 30
0.0
 40
2.0
100
AcDbArc
 50
270.0
 51
0.0
  0
ARC
  5
A518
100
AcDbEntity
  8
0
100
AcDbCircle
 10
1767.283144
 20
525.767298
 30
0.0
 40
8.0
100
AcDbArc
 50
297.279613
 51
0.0
  0
ARC
  5
A519
100
AcDbEntity
  8
0
100
AcDbCircle
 10
1772.783144
 20
515.101933
 30
0.0
 40
4.0
100
AcDbArc
 50
117.279613
 51
180.0
  0
TEXT
  5
A5C6
100
AcDbEntity
  8
0
100
AcDbText
 10
239.606431
 20
733.046468
 30
0.0
 40
24.5
  1
平面
100
AcDbText
  0
LINE
  5
A5C7
100
AcDbEntity
  8
0
100
AcDbLine
 10
718.281388
 20
609.767298
 30
0.0
 11
733.281388
 21
609.767298
 31
0.0
  0
LINE
  5
A5C8
100
AcDbEntity
  8
0
100
AcDbLine
 10
715.781388
 20
597.767298
 30
0.0
 11
735.781388
 21
597.767298
 31
0.0
  0
LINE
  5
A5C9
100
AcDbEntity
  8
0
100
AcDbLine
 10
669.781388
 20
556.767298
 30
0.0
 11
781.781388
 21
556.767298
 31
0.0
  0
LINE
  5
A5CA
100
AcDbEntity
  8
0
100
AcDbLine
 10
660.781388
 20
570.767298
 30
0.0
 11
781.781388
 21
570.767298
 31
0.0
  0
LINE
  5
A5CB
100
AcDbEntity
  8
0
100
AcDbLine
 10
697.418779
 20
588.767298
 30
0.0
 11
754.143997
 21
588.767298
 31
0.0
  0
LINE
  5
A5CC
100
AcDbEntity
  8
0
100
AcDbLine
 10
669.781388
 20
583.767298
 30
0.0
 11
781.781388
 21
583.767298
 31
0.0
  0
LINE
  5
A5CD
100
AcDbEntity
  8
0
100
AcDbLine
 10
512.989969
 20
592.764333
 30
0.0
 11
533.989969
 21
592.762688
 31
0.0
  0
ARC
  5
A5CE
100
AcDbEntity
  8
0
100
AcDbCircle
 10
518.238851
 20
578.483289
 30
0.0
 40
14.28125
100
AcDbArc
 50
68.426918
 51
111.56411
  0
LINE
  5
A5CF
100
AcDbEntity
  8
0
100
AcDbLine
 10
536.502655
 20
570.767298
 30
0.0
 11
428.502655
 21
570.767298
 31
0.0
  0
LINE
  5
A5D0
100
AcDbEntity
  8
0
100
AcDbLine
 10
536.502655
 20
583.767298
 30
0.0
 11
428.502655
 21
583.767298
 31
0.0
  0
LINE
  5
A5D1
100
AcDbEntity
  8
0
100
AcDbLine
 10
536.502655
 20
556.767298
 30
0.0
 11
508.502655
 21
556.767298
 31
0.0
  0
LINE
  5
A5D2
100
AcDbEntity
  8
0
100
AcDbLine
 10
428.502655
 20
556.767298
 30
0.0
 11
428.502655
 21
583.767298
 31
0.0
  0
ARC
  5
A5D3
100
AcDbEntity
  8
0
100
AcDbCircle
 10
430.002655
 20
553.767298
 30
0.0
 40
3.0
100
AcDbArc
 50
0.0
 51
90.0
  0
ARC
  5
A5D4
100
AcDbEntity
  8
0
100
AcDbCircle
 10
463.002655
 20
555.267298
 30
0.0
 40
1.5
100
AcDbArc
 50
90.0
 51
180.0
  0
LINE
  5
A5D5
100
AcDbEntity
  8
0
100
AcDbLine
 10
463.528989
 20
556.767298
 30
0.0
 11
463.002655
 21
556.767298
 31
0.0
  0
ARC
  5
A5D6
100
AcDbEntity
  8
0
100
AcDbCircle
 10
456.502655
 20
551.767298
 30
0.0
 40
5.0
100
AcDbArc
 50
360.0
 51
90.0
  0
LINE
  5
A5D7
100
AcDbEntity
  8
0
100
AcDbLine
 10
428.502655
 20
556.767298
 30
0.0
 11
456.502655
 21
556.767298
 31
0.0
  0
LINE
  5
A5D8
100
AcDbEntity
  8
0
100
AcDbLine
 10
501.476321
 20
556.767298
 30
0.0
 11
502.002655
 21
556.767298
 31
0.0
  0
ARC
  5
A5D9
100
AcDbEntity
  8
0
100
AcDbCircle
 10
502.002655
 20
555.267298
 30
0.0
 40
1.5
100
AcDbArc
 50
0.0
 51
90.0
  0
ARC
  5
A5DA
100
AcDbEntity
  8
0
100
AcDbCircle
 10
508.502655
 20
551.767298
 30
0.0
 40
5.0
100
AcDbArc
 50
90.0
 51
180.0
  0
LINE
  5
A5DB
100
AcDbEntity
  8
0
100
AcDbLine
 10
488.502655
 20
570.767298
 30
0.0
 11
488.502655
 21
567.891909
 31
0.0
  0
LINE
  5
A5DC
100
AcDbEntity
  8
0
100
AcDbLine
 10
476.502655
 20
570.767298
 30
0.0
 11
476.502655
 21
567.891909
 31
0.0
  0
LINE
  5
A5DD
100
AcDbEntity
  8
0
100
AcDbLine
 10
492.502655
 20
609.767298
 30
0.0
 11
492.502655
 21
588.767298
 31
0.0
  0
LINE
  5
A5DE
100
AcDbEntity
  8
0
100
AcDbLine
 10
472.502655
 20
609.767298
 30
0.0
 11
472.502655
 21
588.767298
 31
0.0
  0
LINE
  5
A5DF
100
AcDbEntity
  8
0
100
AcDbLine
 10
487.770455
 20
597.767298
 30
0.0
 11
487.770455
 21
609.767298
 31
0.0
  0
LINE
  5
A5E0
100
AcDbEntity
  8
0
100
AcDbLine
 10
477.234855
 20
597.767298
 30
0.0
 11
477.234855
 21
609.767298
 31
0.0
  0
LINE
  5
A5E1
100
AcDbEntity
  8
0
100
AcDbLine
 10
512.989656
 20
588.767298
 30
0.0
 11
452.015986
 21
588.767298
 31
0.0
  0
LINE
  5
A5E2
100
AcDbEntity
  8
0
100
AcDbLine
 10
452.015939
 20
592.766323
 30
0.0
 11
431.015939
 21
592.766073
 31
0.0
  0
ARC
  5
A5E3
100
AcDbEntity
  8
0
100
AcDbCircle
 10
436.266109
 20
578.485503
 30
0.0
 40
14.28125
100
AcDbArc
 50
68.432087
 51
111.569278
  0
ARC
  5
A5E4
100
AcDbEntity
  8
0
100
AcDbCircle
 10
446.766109
 20
578.485628
 30
0.0
 40
14.28125
100
AcDbArc
 50
68.432087
 51
111.569278
  0
LINE
  5
A5E5
100
AcDbEntity
  8
0
100
AcDbLine
 10
441.515951
 20
591.766815
 30
0.0
 11
441.516046
 21
583.766815
 31
0.0
  0
LINE
  5
A5E6
100
AcDbEntity
  8
0
100
AcDbLine
 10
452.015939
 20
592.766323
 30
0.0
 11
452.016046
 21
583.76694
 31
0.0
  0
LINE
  5
A5E7
100
AcDbEntity
  8
0
100
AcDbLine
 10
431.015939
 20
592.766073
 30
0.0
 11
431.016046
 21
583.76669
 31
0.0
  0
LINE
  5
A5E8
100
AcDbEntity
  8
0
100
AcDbLine
 10
492.502655
 20
597.767298
 30
0.0
 11
472.502655
 21
597.767298
 31
0.0
  0
LINE
  5
A5E9
100
AcDbEntity
  8
0
100
AcDbLine
 10
512.989969
 20
592.764333
 30
0.0
 11
512.989264
 21
583.76495
 31
0.0
  0
LINE
  5
A5EA
100
AcDbEntity
  8
0
100
AcDbLine
 10
492.502655
 20
609.767298
 30
0.0
 11
472.502655
 21
609.767298
 31
0.0
  0
LINE
  5
A5EB
100
AcDbEntity
  8
0
100
AcDbLine
 10
536.502655
 20
556.767298
 30
0.0
 11
536.502655
 21
583.767298
 31
0.0
  0
LINE
  5
A5EC
100
AcDbEntity
  8
0
100
AcDbLine
 10
669.781388
 20
583.767298
 30
0.0
 11
669.781388
 21
570.767298
 31
0.0
  0
LINE
  5
A5ED
100
AcDbEntity
  8
0
100
AcDbLine
 10
536.502655
 20
550.766136
 30
0.0
 11
535.002655
 21
550.766136
 31
0.0
  0
LINE
  5
A5EE
100
AcDbEntity
  8
0
100
AcDbLine
 10
532.002655
 20
553.767298
 30
0.0
 11
532.002655
 21
553.766136
 31
0.0
  0
ARC
  5
A5EF
100
AcDbEntity
  8
0
100
AcDbCircle
 10
535.002655
 20
553.767298
 30
0.0
 40
3.0
100
AcDbArc
 50
90.0
 51
180.0
  0
ARC
  5
A5F0
100
AcDbEntity
  8
0
100
AcDbCircle
 10
535.002655
 20
553.766136
 30
0.0
 40
3.0
100
AcDbArc
 50
180.0
 51
270.0
  0
LINE
  5
A5F1
100
AcDbEntity
  8
0
100
AcDbLine
 10
655.781388
 20
568.767298
 30
0.0
 11
655.781779
 21
547.767298
 31
0.0
  0
LINE
  5
A5F2
100
AcDbEntity
  8
0
100
AcDbLine
 10
669.781388
 20
570.767298
 30
0.0
 11
669.781388
 21
556.767298
 31
0.0
  0
LINE
  5
A5F3
100
AcDbEntity
  8
0
100
AcDbLine
 10
674.781388
 20
556.767298
 30
0.0
 11
659.781388
 21
556.767298
 31
0.0
  0
LINE
  5
A5F4
100
AcDbEntity
  8
0
100
AcDbLine
 10
660.781388
 20
570.767298
 30
0.0
 11
660.781388
 21
568.767298
 31
0.0
  0
LINE
  5
A5F5
100
AcDbEntity
  8
0
100
AcDbLine
 10
655.781388
 20
568.767298
 30
0.0
 11
669.781388
 21
568.767298
 31
0.0
  0
ARC
  5
A5F6
100
AcDbEntity
  8
0
100
AcDbCircle
 10
528.738851
 20
578.482467
 30
0.0
 40
14.28125
100
AcDbArc
 50
68.426918
 51
111.56411
  0
LINE
  5
A5F7
100
AcDbEntity
  8
0
100
AcDbLine
 10
533.989969
 20
592.762688
 30
0.0
 11
533.989264
 21
583.763306
 31
0.0
  0
LINE
  5
A5F8
100
AcDbEntity
  8
0
100
AcDbLine
 10
523.489891
 20
591.764128
 30
0.0
 11
523.489264
 21
583.764128
 31
0.0
  0
LINE
  5
A5F9
100
AcDbEntity
  8
0
100
AcDbLine
 10
717.281388
 20
609.189947
 30
0.0
 11
717.281388
 21
597.767298
 31
0.0
  0
LINE
  5
A5FA
100
AcDbEntity
  8
0
100
AcDbLine
 10
674.603654
 20
592.517298
 30
0.0
 11
694.985904
 21
592.517298
 31
0.0
  0
ARC
  5
A5FB
100
AcDbEntity
  8
0
100
AcDbCircle
 10
675.701341
 20
586.549906
 30
0.0
 40
5.720504
100
AcDbArc
 50
57.999617
 51
122.000383
  0
LINE
  5
A5FC
100
AcDbEntity
  8
0
100
AcDbLine
 10
672.670779
 20
591.401148
 30
0.0
 11
674.603654
 21
592.517298
 31
0.0
  0
LINE
  5
A5FD
100
AcDbEntity
  8
0
100
AcDbLine
 10
672.670779
 20
583.767298
 30
0.0
 11
672.670779
 21
591.401148
 31
0.0
  0
ARC
  5
A5FE
100
AcDbEntity
  8
0
100
AcDbCircle
 10
693.887341
 20
586.549926
 30
0.0
 40
5.720487
100
AcDbArc
 50
57.999511
 51
122.000489
  0
LINE
  5
A5FF
100
AcDbEntity
  8
0
100
AcDbLine
 10
694.985904
 20
592.517298
 30
0.0
 11
696.918779
 21
591.401148
 31
0.0
  0
ARC
  5
A600
100
AcDbEntity
  8
0
100
AcDbCircle
 10
684.794341
 20
570.698801
 30
0.0
 40
21.571502
100
AcDbArc
 50
73.680185
 51
106.319815
  0
LINE
  5
A601
100
AcDbEntity
  8
0
100
AcDbLine
 10
696.918779
 20
591.401148
 30
0.0
 11
696.918779
 21
583.767298
 31
0.0
  0
LINE
  5
A602
100
AcDbEntity
  8
0
100
AcDbLine
 10
690.855904
 20
591.401148
 30
0.0
 11
690.855904
 21
583.767298
 31
0.0
  0
LINE
  5
A603
100
AcDbEntity
  8
0
100
AcDbLine
 10
678.732779
 20
591.401148
 30
0.0
 11
678.732779
 21
583.767298
 31
0.0
  0
LINE
  5
A604
100
AcDbEntity
  8
0
100
AcDbLine
 10
715.781388
 20
597.767298
 30
0.0
 11
715.781388
 21
588.767298
 31
0.0
  0
LINE
  5
A605
100
AcDbEntity
  8
0
100
AcDbLine
 10
717.281388
 20
609.189947
 30
0.0
 11
718.281388
 21
609.767298
 31
0.0
  0
ARC
  5
A606
100
AcDbEntity
  8
0
100
AcDbCircle
 10
915.958411
 20
578.483289
 30
0.0
 40
14.28125
100
AcDbArc
 50
68.43589
 51
111.573082
  0
LINE
  5
A607
100
AcDbEntity
  8
0
100
AcDbLine
 10
921.207293
 20
592.764333
 30
0.0
 11
900.207293
 21
592.762688
 31
0.0
  0
LINE
  5
A608
100
AcDbEntity
  8
0
100
AcDbLine
 10
897.694607
 20
556.767298
 30
0.0
 11
925.694607
 21
556.767298
 31
0.0
  0
LINE
  5
A609
100
AcDbEntity
  8
0
100
AcDbLine
 10
897.694607
 20
583.767298
 30
0.0
 11
1005.694607
 21
583.767298
 31
0.0
  0
LINE
  5
A60A
100
AcDbEntity
  8
0
100
AcDbLine
 10
897.694607
 20
570.767298
 30
0.0
 11
1005.694607
 21
570.767298
 31
0.0
  0
LINE
  5
A60B
100
AcDbEntity
  8
0
100
AcDbLine
 10
897.694607
 20
556.767298
 30
0.0
 11
897.694607
 21
583.767298
 31
0.0
  0
LINE
  5
A60C
100
AcDbEntity
  8
0
100
AcDbLine
 10
781.781388
 20
583.767298
 30
0.0
 11
781.781388
 21
570.767298
 31
0.0
  0
LINE
  5
A60D
100
AcDbEntity
  8
0
100
AcDbLine
 10
810.781388
 20
568.767298
 30
0.0
 11
810.781388
 21
547.767298
 31
0.0
  0
LINE
  5
A60E
100
AcDbEntity
  8
0
100
AcDbLine
 10
781.781388
 20
570.767298
 30
0.0
 11
781.781388
 21
556.767298
 31
0.0
  0
LINE
  5
A60F
100
AcDbEntity
  8
0
100
AcDbLine
 10
806.781388
 20
556.767298
 30
0.0
 11
791.781388
 21
556.767298
 31
0.0
  0
LINE
  5
A610
100
AcDbEntity
  8
0
100
AcDbLine
 10
781.781388
 20
568.767298
 30
0.0
 11
810.781388
 21
568.767298
 31
0.0
  0
ARC
  5
A611
100
AcDbEntity
  8
0
100
AcDbCircle
 10
899.194607
 20
553.766136
 30
0.0
 40
3.0
100
AcDbArc
 50
270.0
 51
0.0
  0
ARC
  5
A612
100
AcDbEntity
  8
0
100
AcDbCircle
 10
899.194607
 20
553.767298
 30
0.0
 40
3.0
100
AcDbArc
 50
0.0
 51
90.0
  0
LINE
  5
A613
100
AcDbEntity
  8
0
100
AcDbLine
 10
902.194607
 20
553.767298
 30
0.0
 11
902.194607
 21
553.766136
 31
0.0
  0
LINE
  5
A614
100
AcDbEntity
  8
0
100
AcDbLine
 10
897.694607
 20
550.766136
 30
0.0
 11
899.194607
 21
550.766136
 31
0.0
  0
LINE
  5
A615
100
AcDbEntity
  8
0
100
AcDbLine
 10
734.281388
 20
609.189947
 30
0.0
 11
734.281388
 21
597.767298
 31
0.0
  0
ARC
  5
A616
100
AcDbEntity
  8
0
100
AcDbCircle
 10
775.861435
 20
586.549906
 30
0.0
 40
5.720504
100
AcDbArc
 50
57.999617
 51
122.000383
  0
LINE
  5
A617
100
AcDbEntity
  8
0
100
AcDbLine
 10
778.891997
 20
591.401148
 30
0.0
 11
776.959122
 21
592.517298
 31
0.0
  0
LINE
  5
A618
100
AcDbEntity
  8
0
100
AcDbLine
 10
776.959122
 20
592.517298
 30
0.0
 11
756.576872
 21
592.517298
 31
0.0
  0
ARC
  5
A619
100
AcDbEntity
  8
0
100
AcDbCircle
 10
757.675435
 20
586.549926
 30
0.0
 40
5.720487
100
AcDbArc
 50
57.999511
 51
122.000489
  0
LINE
  5
A61A
100
AcDbEntity
  8
0
100
AcDbLine
 10
756.576872
 20
592.517298
 30
0.0
 11
754.643997
 21
591.401148
 31
0.0
  0
ARC
  5
A61B
100
AcDbEntity
  8
0
100
AcDbCircle
 10
766.768435
 20
570.698801
 30
0.0
 40
21.571502
100
AcDbArc
 50
73.680185
 51
106.319815
  0
LINE
  5
A61C
100
AcDbEntity
  8
0
100
AcDbLine
 10
754.643997
 20
591.401148
 30
0.0
 11
754.643997
 21
583.767298
 31
0.0
  0
LINE
  5
A61D
100
AcDbEntity
  8
0
100
AcDbLine
 10
760.706872
 20
591.401148
 30
0.0
 11
760.706872
 21
583.767298
 31
0.0
  0
LINE
  5
A61E
100
AcDbEntity
  8
0
100
AcDbLine
 10
772.829997
 20
591.401148
 30
0.0
 11
772.829997
 21
583.767298
 31
0.0
  0
LINE
  5
A61F
100
AcDbEntity
  8
0
100
AcDbLine
 10
735.781388
 20
597.767298
 30
0.0
 11
735.781388
 21
588.767298
 31
0.0
  0
LINE
  5
A620
100
AcDbEntity
  8
0
100
AcDbLine
 10
778.891997
 20
583.767298
 30
0.0
 11
778.891997
 21
591.401148
 31
0.0
  0
LINE
  5
A621
100
AcDbEntity
  8
0
100
AcDbLine
 10
734.281388
 20
609.189947
 30
0.0
 11
733.281388
 21
609.767298
 31
0.0
  0
ARC
  5
A622
100
AcDbEntity
  8
0
100
AcDbCircle
 10
905.458411
 20
578.482467
 30
0.0
 40
14.28125
100
AcDbArc
 50
68.43589
 51
111.573082
  0
LINE
  5
A623
100
AcDbEntity
  8
0
100
AcDbLine
 10
910.707371
 20
591.764128
 30
0.0
 11
910.707998
 21
583.764128
 31
0.0
  0
LINE
  5
A624
100
AcDbEntity
  8
0
100
AcDbLine
 10
900.207293
 20
592.762688
 30
0.0
 11
900.207998
 21
583.763306
 31
0.0
  0
LINE
  5
A625
100
AcDbEntity
  8
0
100
AcDbLine
 10
1005.694607
 20
556.767298
 30
0.0
 11
1005.694607
 21
583.767298
 31
0.0
  0
ARC
  5
A626
100
AcDbEntity
  8
0
100
AcDbCircle
 10
925.694607
 20
551.767298
 30
0.0
 40
5.0
100
AcDbArc
 50
360.0
 51
90.0
  0
ARC
  5
A627
100
AcDbEntity
  8
0
100
AcDbCircle
 10
932.194607
 20
555.267298
 30
0.0
 40
1.5
100
AcDbArc
 50
90.0
 51
180.0
  0
LINE
  5
A628
100
AcDbEntity
  8
0
100
AcDbLine
 10
932.720941
 20
556.767298
 30
0.0
 11
932.194607
 21
556.767298
 31
0.0
  0
ARC
  5
A629
100
AcDbEntity
  8
0
100
AcDbCircle
 10
977.694607
 20
551.767298
 30
0.0
 40
5.0
100
AcDbArc
 50
90.0
 51
180.0
  0
LINE
  5
A62A
100
AcDbEntity
  8
0
100
AcDbLine
 10
1005.694607
 20
556.767298
 30
0.0
 11
977.694607
 21
556.767298
 31
0.0
  0
LINE
  5
A62B
100
AcDbEntity
  8
0
100
AcDbLine
 10
970.668273
 20
556.767298
 30
0.0
 11
971.194607
 21
556.767298
 31
0.0
  0
ARC
  5
A62C
100
AcDbEntity
  8
0
100
AcDbCircle
 10
971.194607
 20
555.267298
 30
0.0
 40
1.5
100
AcDbArc
 50
0.0
 51
90.0
  0
ARC
  5
A62D
100
AcDbEntity
  8
0
100
AcDbCircle
 10
1004.194607
 20
553.767298
 30
0.0
 40
3.0
100
AcDbArc
 50
90.0
 51
180.0
  0
CIRCLE
  5
A62E
100
AcDbEntity
  8
0
100
AcDbCircle
 10
951.694607
 20
578.267298
 30
0.0
 40
2.25
  0
LINE
  5
A62F
100
AcDbEntity
  8
0
100
AcDbLine
 10
956.962407
 20
597.767298
 30
0.0
 11
956.962407
 21
609.767298
 31
0.0
  0
LINE
  5
A630
100
AcDbEntity
  8
0
100
AcDbLine
 10
946.426807
 20
597.767298
 30
0.0
 11
946.426807
 21
609.767298
 31
0.0
  0
LINE
  5
A631
100
AcDbEntity
  8
0
100
AcDbLine
 10
961.694607
 20
609.767298
 30
0.0
 11
961.694607
 21
588.767298
 31
0.0
  0
LINE
  5
A632
100
AcDbEntity
  8
0
100
AcDbLine
 10
941.694607
 20
609.767298
 30
0.0
 11
941.694607
 21
588.767298
 31
0.0
  0
LINE
  5
A633
100
AcDbEntity
  8
0
100
AcDbLine
 10
921.207606
 20
588.767298
 30
0.0
 11
982.181276
 21
588.767298
 31
0.0
  0
LINE
  5
A634
100
AcDbEntity
  8
0
100
AcDbLine
 10
941.694607
 20
597.767298
 30
0.0
 11
961.694607
 21
597.767298
 31
0.0
  0
LINE
  5
A635
100
AcDbEntity
  8
0
100
AcDbLine
 10
921.207293
 20
592.764333
 30
0.0
 11
921.207998
 21
583.76495
 31
0.0
  0
LINE
  5
A636
100
AcDbEntity
  8
0
100
AcDbLine
 10
1003.181323
 20
592.766073
 30
0.0
 11
1003.181216
 21
583.76669
 31
0.0
  0
ARC
  5
A637
100
AcDbEntity
  8
0
100
AcDbCircle
 10
987.431153
 20
578.485628
 30
0.0
 40
14.28125
100
AcDbArc
 50
68.430722
 51
111.567913
  0
LINE
  5
A638
100
AcDbEntity
  8
0
100
AcDbLine
 10
982.181323
 20
592.766323
 30
0.0
 11
982.181216
 21
583.76694
 31
0.0
  0
LINE
  5
A639
100
AcDbEntity
  8
0
100
AcDbLine
 10
992.681311
 20
591.766815
 30
0.0
 11
992.681216
 21
583.766815
 31
0.0
  0
ARC
  5
A63A
100
AcDbEntity
  8
0
100
AcDbCircle
 10
997.931153
 20
578.485503
 30
0.0
 40
14.28125
100
AcDbArc
 50
68.430722
 51
111.567913
  0
LINE
  5
A63B
100
AcDbEntity
  8
0
100
AcDbLine
 10
982.181323
 20
592.766323
 30
0.0
 11
1003.181323
 21
592.766073
 31
0.0
  0
LINE
  5
A63C
100
AcDbEntity
  8
0
100
AcDbLine
 10
941.694607
 20
609.767298
 30
0.0
 11
961.694607
 21
609.767298
 31
0.0
  0
CIRCLE
  5
A63D
100
AcDbEntity
  8
0
100
AcDbCircle
 10
725.781388
 20
758.624428
 30
0.0
 40
35.0
  0
LINE
  5
A63E
100
AcDbEntity
  8
0
100
AcDbLine
 10
684.860346
 20
704.624428
 30
0.0
 11
766.70243
 21
704.624428
 31
0.0
  0
LINE
  5
A63F
100
AcDbEntity
  8
0
100
AcDbLine
 10
684.860346
 20
812.624428
 30
0.0
 11
766.70243
 21
812.624428
 31
0.0
  0
CIRCLE
  5
A640
100
AcDbEntity
  8
0
100
AcDbCircle
 10
725.781388
 20
758.624428
 30
0.0
 40
10.0
  0
CIRCLE
  5
A641
100
AcDbEntity
  8
0
100
AcDbCircle
 10
725.781388
 20
758.624428
 30
0.0
 40
8.5
  0
LINE
  5
A642
100
AcDbEntity
  8
0
100
AcDbLine
 10
655.781388
 20
779.624428
 30
0.0
 11
655.781779
 21
758.624428
 31
0.0
  0
ARC
  5
A643
100
AcDbEntity
  8
0
100
AcDbCircle
 10
969.781388
 20
758.624428
 30
0.0
 40
300.0
100
AcDbArc
 50
171.614461
 51
188.385539
  0
LINE
  5
A644
100
AcDbEntity
  8
0
100
AcDbLine
 10
655.781779
 20
758.624428
 30
0.0
 11
655.78217
 21
737.624428
 31
0.0
  0
CIRCLE
  5
A645
100
AcDbEntity
  8
0
100
AcDbCircle
 10
684.769195
 20
717.612235
 30
0.0
 40
10.5
  0
POLYLINE
  5
A646
100
AcDbEntity
  8
0
100
AcDb2dPolyline
 66
     1
 10
0.0
 20
0.0
 30
0.0
 70
     1
  0
VERTEX
  5
B418
100
AcDbEntity
  8
0
100
AcDbVertex
100
AcDb2dVertex
 10
678.707017
 20
728.112235
 30
0.0
  0
VERTEX
  5
B419
100
AcDbEntity
  8
0
100
AcDbVertex
100
AcDb2dVertex
 10
672.644839
 20
717.612235
 30
0.0
  0
VERTEX
  5
B41A
100
AcDbEntity
  8
0
100
AcDbVertex
100
AcDb2dVertex
 10
678.707017
 20
707.112235
 30
0.0
  0
VERTEX
  5
B41B
100
AcDbEntity
  8
0
100
AcDbVertex
100
AcDb2dVertex
 10
690.831372
 20
707.112235
 30
0.0
  0
VERTEX
  5
B41C
100
AcDbEntity
  8
0
100
AcDbVertex
100
AcDb2dVertex
 10
696.89355
 20
717.612235
 30
0.0
  0
VERTEX
  5
B41D
100
AcDbEntity
  8
0
100
AcDbVertex
100
AcDb2dVertex
 10
690.831372
 20
728.112235
 30
0.0
  0
SEQEND
  5
B41E
100
AcDbEntity
  8
0
  0
ARC
  5
A647
100
AcDbEntity
  8
0
100
AcDbCircle
 10
684.860346
 20
716.624428
 30
0.0
 40
12.0
100
AcDbArc
 50
188.385539
 51
270.0
  0
LINE
  5
A648
100
AcDbEntity
  8
0
100
AcDbLine
 10
659.78217
 20
737.624428
 30
0.0
 11
659.782207
 21
735.624428
 31
0.0
  0
LINE
  5
A649
100
AcDbEntity
  8
0
100
AcDbLine
 10
659.782207
 20
735.624428
 30
0.0
 11
670.664354
 21
735.624428
 31
0.0
  0
LINE
  5
A64A
100
AcDbEntity
  8
0
100
AcDbLine
 10
670.517291
 20
737.624428
 30
0.0
 11
655.78217
 21
737.624428
 31
0.0
  0
LINE
  5
A64B
100
AcDbEntity
  8
0
100
AcDbLine
 10
717.281388
 20
763.892255
 30
0.0
 11
717.281388
 21
753.356601
 31
0.0
  0
ARC
  5
A64C
100
AcDbEntity
  8
0
100
AcDbCircle
 10
666.781388
 20
758.624428
 30
0.0
 40
6.0
100
AcDbArc
 50
89.149041
 51
270.850959
  0
ARC
  5
A64D
100
AcDbEntity
  8
0
100
AcDbCircle
 10
666.915051
 20
749.625421
 30
0.0
 40
3.0
100
AcDbArc
 50
1.701917
 51
90.850959
  0
ARC
  5
A64E
100
AcDbEntity
  8
0
100
AcDbCircle
 10
666.915051
 20
767.623436
 30
0.0
 40
3.0
100
AcDbArc
 50
269.149041
 51
358.298083
  0
POLYLINE
  5
A64F
100
AcDbEntity
  8
0
100
AcDb2dPolyline
 66
     1
 10
0.0
 20
0.0
 30
0.0
 70
     1
  0
VERTEX
  5
B41F
100
AcDbEntity
  8
0
100
AcDbVertex
100
AcDb2dVertex
 10
678.707017
 20
789.136622
 30
0.0
  0
VERTEX
  5
B420
100
AcDbEntity
  8
0
100
AcDbVertex
100
AcDb2dVertex
 10
672.644839
 20
799.636622
 30
0.0
  0
VERTEX
  5
B421
100
AcDbEntity
  8
0
100
AcDbVertex
100
AcDb2dVertex
 10
678.707017
 20
810.136622
 30
0.0
  0
VERTEX
  5
B422
100
AcDbEntity
  8
0
100
AcDbVertex
100
AcDb2dVertex
 10
690.831372
 20
810.136622
 30
0.0
  0
VERTEX
  5
B423
100
AcDbEntity
  8
0
100
AcDbVertex
100
AcDb2dVertex
 10
696.89355
 20
799.636622
 30
0.0
  0
VERTEX
  5
B424
100
AcDbEntity
  8
0
100
AcDbVertex
100
AcDb2dVertex
 10
690.831372
 20
789.136622
 30
0.0
  0
SEQEND
  5
B425
100
AcDbEntity
  8
0
  0
CIRCLE
  5
A650
100
AcDbEntity
  8
0
100
AcDbCircle
 10
684.769195
 20
799.636622
 30
0.0
 40
10.5
  0
LINE
  5
A651
100
AcDbEntity
  8
0
100
AcDbLine
 10
659.781351
 20
781.624428
 30
0.0
 11
659.781388
 21
779.624428
 31
0.0
  0
LINE
  5
A652
100
AcDbEntity
  8
0
100
AcDbLine
 10
659.781351
 20
781.624428
 30
0.0
 11
670.664354
 21
781.624428
 31
0.0
  0
LINE
  5
A653
100
AcDbEntity
  8
0
100
AcDbLine
 10
670.951723
 20
779.624428
 30
0.0
 11
655.78217
 21
779.624428
 31
0.0
  0
ARC
  5
A654
100
AcDbEntity
  8
0
100
AcDbCircle
 10
684.860346
 20
800.624428
 30
0.0
 40
12.0
100
AcDbArc
 50
90.0
 51
171.614461
  0
LINE
  5
A655
100
AcDbEntity
  8
0
100
AcDbLine
 10
810.78217
 20
779.624428
 30
0.0
 11
810.78217
 21
758.624428
 31
0.0
  0
ARC
  5
A656
100
AcDbEntity
  8
0
100
AcDbCircle
 10
481.781388
 20
758.624428
 30
0.0
 40
300.0
100
AcDbArc
 50
351.614461
 51
8.385539
  0
LINE
  5
A657
100
AcDbEntity
  8
0
100
AcDbLine
 10
810.78217
 20
758.624428
 30
0.0
 11
810.78217
 21
737.624428
 31
0.0
  0
POLYLINE
  5
A658
100
AcDbEntity
  8
0
100
AcDb2dPolyline
 66
     1
 10
0.0
 20
0.0
 30
0.0
 70
     1
  0
VERTEX
  5
B426
100
AcDbEntity
  8
0
100
AcDbVertex
100
AcDb2dVertex
 10
772.855759
 20
728.112235
 30
0.0
  0
VERTEX
  5
B427
100
AcDbEntity
  8
0
100
AcDbVertex
100
AcDb2dVertex
 10
778.917937
 20
717.612235
 30
0.0
  0
VERTEX
  5
B428
100
AcDbEntity
  8
0
100
AcDbVertex
100
AcDb2dVertex
 10
772.855759
 20
707.112235
 30
0.0
  0
VERTEX
  5
B429
100
AcDbEntity
  8
0
100
AcDbVertex
100
AcDb2dVertex
 10
760.731403
 20
707.112235
 30
0.0
  0
VERTEX
  5
B42A
100
AcDbEntity
  8
0
100
AcDbVertex
100
AcDb2dVertex
 10
754.669226
 20
717.612235
 30
0.0
  0
VERTEX
  5
B42B
100
AcDbEntity
  8
0
100
AcDbVertex
100
AcDb2dVertex
 10
760.731403
 20
728.112235
 30
0.0
  0
SEQEND
  5
B42C
100
AcDbEntity
  8
0
  0
CIRCLE
  5
A659
100
AcDbEntity
  8
0
100
AcDbCircle
 10
766.793581
 20
717.612235
 30
0.0
 40
10.5
  0
ARC
  5
A65A
100
AcDbEntity
  8
0
100
AcDbCircle
 10
766.70243
 20
716.624428
 30
0.0
 40
12.0
100
AcDbArc
 50
270.0
 51
351.614461
  0
LINE
  5
A65B
100
AcDbEntity
  8
0
100
AcDbLine
 10
791.78217
 20
737.624428
 30
0.0
 11
791.78217
 21
735.624428
 31
0.0
  0
LINE
  5
A65C
100
AcDbEntity
  8
0
100
AcDbLine
 10
806.78217
 20
737.624428
 30
0.0
 11
806.78217
 21
735.624428
 31
0.0
  0
LINE
  5
A65D
100
AcDbEntity
  8
0
100
AcDbLine
 10
791.78217
 20
735.624428
 30
0.0
 11
806.78217
 21
735.624428
 31
0.0
  0
LINE
  5
A65E
100
AcDbEntity
  8
0
100
AcDbLine
 10
781.045485
 20
737.624428
 30
0.0
 11
810.78217
 21
737.624428
 31
0.0
  0
LINE
  5
A65F
100
AcDbEntity
  8
0
100
AcDbLine
 10
734.281388
 20
763.892255
 30
0.0
 11
734.281388
 21
753.356601
 31
0.0
  0
CIRCLE
  5
A660
100
AcDbEntity
  8
0
100
AcDbCircle
 10
766.793581
 20
799.636622
 30
0.0
 40
10.5
  0
POLYLINE
  5
A661
100
AcDbEntity
  8
0
100
AcDb2dPolyline
 66
     1
 10
0.0
 20
0.0
 30
0.0
 70
     1
  0
VERTEX
  5
B42D
100
AcDbEntity
  8
0
100
AcDbVertex
100
AcDb2dVertex
 10
772.855759
 20
789.136622
 30
0.0
  0
VERTEX
  5
B42E
100
AcDbEntity
  8
0
100
AcDbVertex
100
AcDb2dVertex
 10
778.917937
 20
799.636622
 30
0.0
  0
VERTEX
  5
B42F
100
AcDbEntity
  8
0
100
AcDbVertex
100
AcDb2dVertex
 10
772.855759
 20
810.136622
 30
0.0
  0
VERTEX
  5
B430
100
AcDbEntity
  8
0
100
AcDbVertex
100
AcDb2dVertex
 10
760.731403
 20
810.136622
 30
0.0
  0
VERTEX
  5
B431
100
AcDbEntity
  8
0
100
AcDbVertex
100
AcDb2dVertex
 10
754.669226
 20
799.636622
 30
0.0
  0
VERTEX
  5
B432
100
AcDbEntity
  8
0
100
AcDbVertex
100
AcDb2dVertex
 10
760.731403
 20
789.136622
 30
0.0
  0
SEQEND
  5
B433
100
AcDbEntity
  8
0
  0
LINE
  5
A662
100
AcDbEntity
  8
0
100
AcDbLine
 10
791.78217
 20
781.624428
 30
0.0
 11
791.78217
 21
779.624428
 31
0.0
  0
LINE
  5
A663
100
AcDbEntity
  8
0
100
AcDbLine
 10
806.78217
 20
781.624428
 30
0.0
 11
806.78217
 21
779.624428
 31
0.0
  0
LINE
  5
A664
100
AcDbEntity
  8
0
100
AcDbLine
 10
791.78217
 20
781.624428
 30
0.0
 11
806.78217
 21
781.624428
 31
0.0
  0
LINE
  5
A665
100
AcDbEntity
  8
0
100
AcDbLine
 10
781.045485
 20
779.624428
 30
0.0
 11
810.78217
 21
779.624428
 31
0.0
  0
ARC
  5
A666
100
AcDbEntity
  8
0
100
AcDbCircle
 10
766.70243
 20
800.624428
 30
0.0
 40
12.0
100
AcDbArc
 50
8.385539
 51
90.0
  0
TEXT
  5
A667
100
AcDbEntity
  8
0
100
AcDbText
 10
239.606431
 20
954.827259
 30
0.0
 40
24.5
  1
背面
100
AcDbText
  0
LINE
  5
A668
100
AcDbEntity
  8
0
100
AcDbLine
 10
750.781779
 20
1018.335297
 30
0.0
 11
750.781779
 21
1009.335297
 31
0.0
  0
LINE
  5
A669
100
AcDbEntity
  8
0
100
AcDbLine
 10
730.781779
 20
1018.335297
 30
0.0
 11
730.781779
 21
1009.335297
 31
0.0
  0
LINE
  5
A66A
100
AcDbEntity
  8
0
100
AcDbLine
 10
712.41917
 20
1009.335297
 30
0.0
 11
769.144388
 21
1009.335297
 31
0.0
  0
LINE
  5
A66B
100
AcDbEntity
  8
0
100
AcDbLine
 10
805.781779
 20
991.335297
 30
0.0
 11
684.781779
 21
991.335297
 31
0.0
  0
LINE
  5
A66C
100
AcDbEntity
  8
0
100
AcDbLine
 10
796.781779
 20
977.335297
 30
0.0
 11
684.781779
 21
977.335297
 31
0.0
  0
LINE
  5
A66D
100
AcDbEntity
  8
0
100
AcDbLine
 10
684.781779
 20
1004.335297
 30
0.0
 11
796.781779
 21
1004.335297
 31
0.0
  0
ARC
  5
A66E
100
AcDbEntity
  8
0
100
AcDbCircle
 10
740.781779
 20
927.335297
 30
0.0
 40
43.0
100
AcDbArc
 50
222.953187
 51
282.380799
  0
LINE
  5
A66F
100
AcDbEntity
  8
0
100
AcDbLine
 10
810.781779
 20
947.335297
 30
0.0
 11
700.789473
 21
947.335297
 31
0.0
  0
LINE
  5
A670
100
AcDbEntity
  8
0
100
AcDbLine
 10
675.469908
 20
930.518874
 30
0.0
 11
674.39798
 21
942.771076
 31
0.0
  0
LINE
  5
A671
100
AcDbEntity
  8
0
100
AcDbLine
 10
697.781779
 20
945.26546
 30
0.0
 11
697.781779
 21
927.335297
 31
0.0
  0
LINE
  5
A672
100
AcDbEntity
  8
0
100
AcDbLine
 10
704.355971
 20
899.457698
 30
0.0
 11
679.628156
 21
892.8319
 31
0.0
  0
LINE
  5
A673
100
AcDbEntity
  8
0
100
AcDbLine
 10
679.628156
 20
892.8319
 30
0.0
 11
670.569489
 21
926.639304
 31
0.0
  0
LINE
  5
A674
100
AcDbEntity
  8
0
100
AcDbLine
 10
663.353524
 20
922.635239
 30
0.0
 11
671.376914
 21
892.691539
 31
0.0
  0
ARC
  5
A675
100
AcDbEntity
  8
0
100
AcDbCircle
 10
671.707502
 20
894.079904
 30
0.0
 40
7.021342
100
AcDbArc
 50
337.947305
 51
52.052695
  0
ARC
  5
A676
100
AcDbEntity
  8
0
100
AcDbCircle
 10
678.123841
 20
895.799157
 30
0.0
 40
7.021342
100
AcDbArc
 50
157.947305
 51
232.052695
  0
LINE
  5
A677
100
AcDbEntity
  8
0
100
AcDbLine
 10
673.806162
 20
890.262291
 30
0.0
 11
678.215155
 21
891.443677
 31
0.0
  0
LINE
  5
A678
100
AcDbEntity
  8
0
100
AcDbLine
 10
671.376914
 20
892.691539
 30
0.0
 11
673.806162
 21
890.262291
 31
0.0
  0
LINE
  5
A679
100
AcDbEntity
  8
0
100
AcDbLine
 10
679.104321
 20
894.762091
 30
0.0
 11
678.215155
 21
891.443677
 31
0.0
  0
ARC
  5
A67A
100
AcDbEntity
  8
0
100
AcDbCircle
 10
653.99805
 20
904.081667
 30
0.0
 40
21.538712
100
AcDbArc
 50
354.095626
 51
35.904374
  0
LINE
  5
A67B
100
AcDbEntity
  8
0
100
AcDbLine
 10
667.035347
 20
915.531318
 30
0.0
 11
671.444339
 21
916.712704
 31
0.0
  0
LINE
  5
A67C
100
AcDbEntity
  8
0
100
AcDbLine
 10
667.035347
 20
915.531318
 30
0.0
 11
666.432664
 21
917.78056
 31
0.0
  0
ARC
  5
A67D
100
AcDbEntity
  8
0
100
AcDbCircle
 10
740.781779
 20
927.335297
 30
0.0
 40
43.0
100
AcDbArc
 50
180.0
 51
199.966399
  0
LINE
  5
A67E
100
AcDbEntity
  8
0
100
AcDbLine
 10
671.616188
 20
898.435384
 30
0.0
 11
676.025181
 21
899.61677
 31
0.0
  0
LINE
  5
A67F
100
AcDbEntity
  8
0
100
AcDbLine
 10
671.013506
 20
900.684626
 30
0.0
 11
675.422498
 21
901.866012
 31
0.0
  0
ARC
  5
A680
100
AcDbEntity
  8
0
100
AcDbCircle
 10
688.459795
 20
913.315664
 30
0.0
 40
21.538712
100
AcDbArc
 50
174.095626
 51
215.904374
  0
LINE
  5
A681
100
AcDbEntity
  8
0
100
AcDbLine
 10
671.616188
 20
898.435384
 30
0.0
 11
671.013506
 21
900.684626
 31
0.0
  0
LINE
  5
A682
100
AcDbEntity
  8
0
100
AcDbLine
 10
676.025181
 20
899.61677
 30
0.0
 11
675.422498
 21
901.866012
 31
0.0
  0
ARC
  5
A683
100
AcDbEntity
  8
0
100
AcDbCircle
 10
705.650066
 20
894.628069
 30
0.0
 40
5.0
100
AcDbArc
 50
42.953187
 51
105.0
  0
ARC
  5
A684
100
AcDbEntity
  8
0
100
AcDbCircle
 10
672.481324
 20
930.257407
 30
0.0
 40
3.0
100
AcDbArc
 50
285.0
 51
5.0
  0
LINE
  5
A685
100
AcDbEntity
  8
0
100
AcDbLine
 10
663.353524
 20
922.635239
 30
0.0
 11
664.24269
 21
925.953653
 31
0.0
  0
ARC
  5
A686
100
AcDbEntity
  8
0
100
AcDbCircle
 10
664.334004
 20
921.598173
 30
0.0
 40
7.021342
100
AcDbArc
 50
337.947305
 51
52.052695
  0
LINE
  5
A687
100
AcDbEntity
  8
0
100
AcDbLine
 10
666.432664
 20
917.78056
 30
0.0
 11
670.841657
 21
918.961946
 31
0.0
  0
LINE
  5
A688
100
AcDbEntity
  8
0
100
AcDbLine
 10
671.444339
 20
916.712704
 30
0.0
 11
670.841657
 21
918.961946
 31
0.0
  0
LINE
  5
A689
100
AcDbEntity
  8
0
100
AcDbLine
 10
671.080931
 20
924.705792
 30
0.0
 11
668.651683
 21
927.135039
 31
0.0
  0
LINE
  5
A68A
100
AcDbEntity
  8
0
100
AcDbLine
 10
671.531517
 20
926.897078
 30
0.0
 11
672.298784
 21
927.102667
 31
0.0
  0
LINE
  5
A68B
100
AcDbEntity
  8
0
100
AcDbLine
 10
673.257781
 20
927.359629
 30
0.0
 11
670.569489
 21
926.639304
 31
0.0
  0
ARC
  5
A68C
100
AcDbEntity
  8
0
100
AcDbCircle
 10
670.750343
 20
923.317426
 30
0.0
 40
7.021342
100
AcDbArc
 50
157.947305
 51
232.052695
  0
LINE
  5
A68D
100
AcDbEntity
  8
0
100
AcDbLine
 10
664.24269
 20
925.953653
 30
0.0
 11
668.651683
 21
927.135039
 31
0.0
  0
LINE
  5
A68E
100
AcDbEntity
  8
0
100
AcDbLine
 10
659.781779
 20
977.335297
 30
0.0
 11
659.781779
 21
959.335297
 31
0.0
  0
LINE
  5
A68F
100
AcDbEntity
  8
0
100
AcDbLine
 10
674.781779
 20
977.335297
 30
0.0
 11
674.781779
 21
959.335297
 31
0.0
  0
LINE
  5
A690
100
AcDbEntity
  8
0
100
AcDbLine
 10
655.781779
 20
989.335297
 30
0.0
 11
655.781779
 21
968.335297
 31
0.0
  0
ARC
  5
A691
100
AcDbEntity
  8
0
100
AcDbCircle
 10
638.031903
 20
964.270963
 30
0.0
 40
57.671059
100
AcDbArc
 50
348.491501
 51
5.94432
  0
LINE
  5
A692
100
AcDbEntity
  8
0
100
AcDbLine
 10
655.781779
 20
968.335297
 30
0.0
 11
655.781779
 21
947.335297
 31
0.0
  0
ARC
  5
A693
100
AcDbEntity
  8
0
100
AcDbCircle
 10
669.417006
 20
942.335297
 30
0.0
 40
5.0
100
AcDbArc
 50
5.0
 51
90.0
  0
LINE
  5
A694
100
AcDbEntity
  8
0
100
AcDbLine
 10
669.417006
 20
947.335297
 30
0.0
 11
655.781779
 21
947.335297
 31
0.0
  0
ARC
  5
A695
100
AcDbEntity
  8
0
100
AcDbCircle
 10
699.442968
 20
951.767254
 30
0.0
 40
5.0
100
AcDbArc
 50
168.491501
 51
234.362954
  0
ARC
  5
A696
100
AcDbEntity
  8
0
100
AcDbCircle
 10
694.781779
 20
945.26546
 30
0.0
 40
3.0
100
AcDbArc
 50
0.0
 51
54.362954
  0
LINE
  5
A697
100
AcDbEntity
  8
0
100
AcDbLine
 10
659.781779
 20
959.335297
 30
0.0
 11
674.781779
 21
959.335297
 31
0.0
  0
LINE
  5
A698
100
AcDbEntity
  8
0
100
AcDbLine
 10
684.781779
 20
1004.335297
 30
0.0
 11
684.781779
 21
991.335297
 31
0.0
  0
LINE
  5
A699
100
AcDbEntity
  8
0
100
AcDbLine
 10
684.781779
 20
989.335297
 30
0.0
 11
655.781779
 21
989.335297
 31
0.0
  0
LINE
  5
A69A
100
AcDbEntity
  8
0
100
AcDbLine
 10
659.781779
 20
977.335297
 30
0.0
 11
674.781779
 21
977.335297
 31
0.0
  0
LINE
  5
A69B
100
AcDbEntity
  8
0
100
AcDbLine
 10
684.781779
 20
991.335297
 30
0.0
 11
684.781779
 21
977.335297
 31
0.0
  0
ARC
  5
A69C
100
AcDbEntity
  8
0
100
AcDbCircle
 10
699.794732
 20
991.266801
 30
0.0
 40
21.571502
100
AcDbArc
 50
73.680185
 51
106.319815
  0
LINE
  5
A69D
100
AcDbEntity
  8
0
100
AcDbLine
 10
709.986295
 20
1013.085297
 30
0.0
 11
711.91917
 21
1011.969147
 31
0.0
  0
ARC
  5
A69E
100
AcDbEntity
  8
0
100
AcDbCircle
 10
708.887732
 20
1007.117925
 30
0.0
 40
5.720487
100
AcDbArc
 50
57.999511
 51
122.000489
  0
LINE
  5
A69F
100
AcDbEntity
  8
0
100
AcDbLine
 10
687.67117
 20
1011.969147
 30
0.0
 11
689.604045
 21
1013.085297
 31
0.0
  0
ARC
  5
A6A0
100
AcDbEntity
  8
0
100
AcDbCircle
 10
690.701732
 20
1007.117905
 30
0.0
 40
5.720504
100
AcDbArc
 50
57.999617
 51
122.000383
  0
LINE
  5
A6A1
100
AcDbEntity
  8
0
100
AcDbLine
 10
689.604045
 20
1013.085297
 30
0.0
 11
709.986295
 21
1013.085297
 31
0.0
  0
LINE
  5
A6A2
100
AcDbEntity
  8
0
100
AcDbLine
 10
687.67117
 20
1004.335297
 30
0.0
 11
687.67117
 21
1011.969147
 31
0.0
  0
LINE
  5
A6A3
100
AcDbEntity
  8
0
100
AcDbLine
 10
693.73317
 20
1011.969147
 30
0.0
 11
693.73317
 21
1004.335297
 31
0.0
  0
LINE
  5
A6A4
100
AcDbEntity
  8
0
100
AcDbLine
 10
705.856295
 20
1011.969147
 30
0.0
 11
705.856295
 21
1004.335297
 31
0.0
  0
LINE
  5
A6A5
100
AcDbEntity
  8
0
100
AcDbLine
 10
711.91917
 20
1011.969147
 30
0.0
 11
711.91917
 21
1004.335297
 31
0.0
  0
LINE
  5
A6A6
100
AcDbEntity
  8
0
100
AcDbLine
 10
783.781779
 20
942.335297
 30
0.0
 11
783.781779
 21
927.335297
 31
0.0
  0
ARC
  5
A6A7
100
AcDbEntity
  8
0
100
AcDbCircle
 10
740.781779
 20
927.335297
 30
0.0
 40
43.0
100
AcDbArc
 50
290.807612
 51
334.08702
  0
LINE
  5
A6AB
100
AcDbEntity
  8
0
100
AcDbLine
 10
782.781779
 20
909.335297
 30
0.0
 11
782.781779
 21
885.335297
 31
0.0
  0
LINE
  5
A6AE
100
AcDbEntity
  8
0
100
AcDbLine
 10
782.781779
 20
885.335297
 30
0.0
 11
750.001323
 21
885.335297
 31
0.0
  0
ARC
  5
A6B7
100
AcDbEntity
  8
0
100
AcDbCircle
 10
740.781779
 20
927.335297
 30
0.0
 40
43.0
100
AcDbArc
 50
341.038181
 51
360.0
  0
ARC
  5
A6B8
100
AcDbEntity
  8
0
100
AcDbCircle
 10
784.128921
 20
912.015821
 30
0.0
 40
3.0
100
AcDbArc
 50
153.317411
 51
243.317411
  0
LINE
  5
A6C0
100
AcDbEntity
  8
0
100
AcDbLine
 10
810.781779
 20
989.335297
 30
0.0
 11
810.781388
 21
968.335297
 31
0.0
  0
LINE
  5
A6C1
100
AcDbEntity
  8
0
100
AcDbLine
 10
791.781779
 20
977.335297
 30
0.0
 11
791.781779
 21
959.335297
 31
0.0
  0
LINE
  5
A6C2
100
AcDbEntity
  8
0
100
AcDbLine
 10
806.781779
 20
977.335297
 30
0.0
 11
806.781779
 21
959.335297
 31
0.0
  0
LINE
  5
A6C3
100
AcDbEntity
  8
0
100
AcDbLine
 10
810.781388
 20
968.335297
 30
0.0
 11
810.780997
 21
947.335297
 31
0.0
  0
ARC
  5
A6C4
100
AcDbEntity
  8
0
100
AcDbCircle
 10
788.781779
 20
942.335297
 30
0.0
 40
5.0
100
AcDbArc
 50
90.0
 51
180.0
  0
LINE
  5
A6C5
100
AcDbEntity
  8
0
100
AcDbLine
 10
791.781779
 20
959.335297
 30
0.0
 11
806.781779
 21
959.335297
 31
0.0
  0
LINE
  5
A6C6
100
AcDbEntity
  8
0
100
AcDbLine
 10
796.781779
 20
1004.335297
 30
0.0
 11
796.781779
 21
991.335297
 31
0.0
  0
LINE
  5
A6C7
100
AcDbEntity
  8
0
100
AcDbLine
 10
805.781779
 20
989.335297
 30
0.0
 11
805.781779
 21
991.335297
 31
0.0
  0
LINE
  5
A6C8
100
AcDbEntity
  8
0
100
AcDbLine
 10
791.781779
 20
977.335297
 30
0.0
 11
806.781779
 21
977.335297
 31
0.0
  0
LINE
  5
A6C9
100
AcDbEntity
  8
0
100
AcDbLine
 10
796.781779
 20
991.335297
 30
0.0
 11
796.781779
 21
977.335297
 31
0.0
  0
LINE
  5
A6CA
100
AcDbEntity
  8
0
100
AcDbLine
 10
810.781779
 20
989.335297
 30
0.0
 11
796.781779
 21
989.335297
 31
0.0
  0
ARC
  5
A6CB
100
AcDbEntity
  8
0
100
AcDbCircle
 10
781.768826
 20
991.266801
 30
0.0
 40
21.571502
100
AcDbArc
 50
73.680185
 51
106.319815
  0
LINE
  5
A6CC
100
AcDbEntity
  8
0
100
AcDbLine
 10
791.959513
 20
1013.085297
 30
0.0
 11
771.577263
 21
1013.085297
 31
0.0
  0
LINE
  5
A6CD
100
AcDbEntity
  8
0
100
AcDbLine
 10
771.577263
 20
1013.085297
 30
0.0
 11
769.644388
 21
1011.969147
 31
0.0
  0
ARC
  5
A6CE
100
AcDbEntity
  8
0
100
AcDbCircle
 10
772.675826
 20
1007.117925
 30
0.0
 40
5.720487
100
AcDbArc
 50
57.999511
 51
122.000489
  0
LINE
  5
A6CF
100
AcDbEntity
  8
0
100
AcDbLine
 10
775.707263
 20
1011.969147
 30
0.0
 11
775.707263
 21
1004.335297
 31
0.0
  0
LINE
  5
A6D0
100
AcDbEntity
  8
0
100
AcDbLine
 10
769.644388
 20
1011.969147
 30
0.0
 11
769.644388
 21
1004.335297
 31
0.0
  0
LINE
  5
A6D1
100
AcDbEntity
  8
0
100
AcDbLine
 10
793.892388
 20
1011.969147
 30
0.0
 11
791.959513
 21
1013.085297
 31
0.0
  0
ARC
  5
A6D2
100
AcDbEntity
  8
0
100
AcDbCircle
 10
790.861826
 20
1007.117905
 30
0.0
 40
5.720504
100
AcDbArc
 50
57.999617
 51
122.000383
  0
LINE
  5
A6D3
100
AcDbEntity
  8
0
100
AcDbLine
 10
787.830388
 20
1011.969147
 30
0.0
 11
787.830388
 21
1004.335297
 31
0.0
  0
LINE
  5
A6D4
100
AcDbEntity
  8
0
100
AcDbLine
 10
793.892388
 20
1004.335297
 30
0.0
 11
793.892388
 21
1011.969147
 31
0.0
  0
LINE
  5
A6D5
100
AcDbEntity
  8
0
100
AcDbLine
 10
748.281779
 20
1030.335297
 30
0.0
 11
733.281779
 21
1030.335297
 31
0.0
  0
LINE
  5
A6D6
100
AcDbEntity
  8
0
100
AcDbLine
 10
749.281779
 20
1029.757947
 30
0.0
 11
748.281779
 21
1030.335297
 31
0.0
  0
LINE
  5
A6D7
100
AcDbEntity
  8
0
100
AcDbLine
 10
732.281779
 20
1029.757947
 30
0.0
 11
733.281779
 21
1030.335297
 31
0.0
  0
LINE
  5
A6D8
100
AcDbEntity
  8
0
100
AcDbLine
 10
749.281779
 20
1029.757947
 30
0.0
 11
749.281779
 21
1018.335297
 31
0.0
  0
LINE
  5
A6D9
100
AcDbEntity
  8
0
100
AcDbLine
 10
732.281779
 20
1029.757947
 30
0.0
 11
732.281779
 21
1018.335297
 31
0.0
  0
LINE
  5
A6DA
100
AcDbEntity
  8
0
100
AcDbLine
 10
730.781779
 20
1018.335297
 30
0.0
 11
750.781779
 21
1018.335297
 31
0.0
  0
LINE
  5
A6DB
100
AcDbEntity
  8
0
100
AcDbLine
 10
1437.979671
 20
579.767298
 30
0.0
 11
1453.979671
 21
579.767298
 31
0.0
  0
LINE
  5
A6DC
100
AcDbEntity
  8
0
100
AcDbLine
 10
1202.96433
 20
567.767298
 30
0.0
 11
1202.96433
 21
594.767298
 31
0.0
  0
LINE
  5
A6DD
100
AcDbEntity
  8
0
100
AcDbLine
 10
1310.96433
 20
567.767298
 30
0.0
 11
1310.96433
 21
594.767298
 31
0.0
  0
LINE
  5
A6DE
100
AcDbEntity
  8
0
100
AcDbLine
 10
1310.96433
 20
581.767298
 30
0.0
 11
1202.96433
 21
581.767298
 31
0.0
  0
LINE
  5
A6DF
100
AcDbEntity
  8
0
100
AcDbLine
 10
1226.96433
 20
564.767298
 30
0.0
 11
1226.96433
 21
558.902826
 31
0.0
  0
ARC
  5
A6E0
100
AcDbEntity
  8
0
100
AcDbCircle
 10
1226.96433
 20
557.767298
 30
0.0
 40
2.0
100
AcDbArc
 50
90.0
 51
180.0
  0
LINE
  5
A6E1
100
AcDbEntity
  8
0
100
AcDbLine
 10
1226.96433
 20
559.767298
 30
0.0
 11
1227.299536
 21
559.767298
 31
0.0
  0
ARC
  5
A6E2
100
AcDbEntity
  8
0
100
AcDbCircle
 10
1205.46433
 20
565.767298
 30
0.0
 40
2.0
100
AcDbArc
 50
0.0
 51
90.0
  0
LINE
  5
A6E3
100
AcDbEntity
  8
0
100
AcDbLine
 10
1202.96433
 20
567.767298
 30
0.0
 11
1223.96433
 21
567.767298
 31
0.0
  0
ARC
  5
A6E4
100
AcDbEntity
  8
0
100
AcDbCircle
 10
1223.96433
 20
564.767298
 30
0.0
 40
3.0
100
AcDbArc
 50
0.0
 51
90.0
  0
LINE
  5
A6E5
100
AcDbEntity
  8
0
100
AcDbLine
 10
1250.96433
 20
581.767298
 30
0.0
 11
1250.96433
 21
579.199765
 31
0.0
  0
LINE
  5
A6E6
100
AcDbEntity
  8
0
100
AcDbLine
 10
1262.96433
 20
581.767298
 30
0.0
 11
1262.96433
 21
579.199765
 31
0.0
  0
LINE
  5
A6E7
100
AcDbEntity
  8
0
100
AcDbLine
 10
1286.96433
 20
564.767298
 30
0.0
 11
1286.96433
 21
558.902826
 31
0.0
  0
LINE
  5
A6E8
100
AcDbEntity
  8
0
100
AcDbLine
 10
1306.46433
 20
565.767298
 30
0.0
 11
1306.46433
 21
546.767298
 31
0.0
  0
LINE
  5
A6E9
100
AcDbEntity
  8
0
100
AcDbLine
 10
1437.979671
 20
579.767298
 30
0.0
 11
1437.979671
 21
547.767298
 31
0.0
  0
ARC
  5
A6EA
100
AcDbEntity
  8
0
100
AcDbCircle
 10
1286.96433
 20
557.767298
 30
0.0
 40
2.0
100
AcDbArc
 50
0.0
 51
90.0
  0
LINE
  5
A6EB
100
AcDbEntity
  8
0
100
AcDbLine
 10
1286.96433
 20
559.767298
 30
0.0
 11
1286.629124
 21
559.767298
 31
0.0
  0
ARC
  5
A6EC
100
AcDbEntity
  8
0
100
AcDbCircle
 10
1309.46433
 20
546.767298
 30
0.0
 40
3.0
100
AcDbArc
 50
180.0
 51
270.0
  0
LINE
  5
A6ED
100
AcDbEntity
  8
0
100
AcDbLine
 10
1313.46433
 20
543.767298
 30
0.0
 11
1309.46433
 21
543.767298
 31
0.0
  0
ARC
  5
A6EE
100
AcDbEntity
  8
0
100
AcDbCircle
 10
1308.46433
 20
565.767298
 30
0.0
 40
2.0
100
AcDbArc
 50
90.0
 51
180.0
  0
LINE
  5
A6EF
100
AcDbEntity
  8
0
100
AcDbLine
 10
1310.96433
 20
567.767298
 30
0.0
 11
1289.96433
 21
567.767298
 31
0.0
  0
ARC
  5
A6F0
100
AcDbEntity
  8
0
100
AcDbCircle
 10
1289.96433
 20
564.767298
 30
0.0
 40
3.0
100
AcDbArc
 50
90.0
 51
180.0
  0
LINE
  5
A6F1
100
AcDbEntity
  8
0
100
AcDbLine
 10
1286.034428
 20
599.767298
 30
0.0
 11
1228.167288
 21
599.767298
 31
0.0
  0
LINE
  5
A6F2
100
AcDbEntity
  8
0
100
AcDbLine
 10
1310.96433
 20
594.767298
 30
0.0
 11
1202.96433
 21
594.767298
 31
0.0
  0
LINE
  5
A6F3
100
AcDbEntity
  8
0
100
AcDbLine
 10
1287.451331
 20
599.767298
 30
0.0
 11
1226.477661
 21
599.767298
 31
0.0
  0
LINE
  5
A6F4
100
AcDbEntity
  8
0
100
AcDbLine
 10
1205.477614
 20
603.766073
 30
0.0
 11
1205.477721
 21
594.76669
 31
0.0
  0
LINE
  5
A6F5
100
AcDbEntity
  8
0
100
AcDbLine
 10
1226.477614
 20
603.766323
 30
0.0
 11
1226.477721
 21
594.76694
 31
0.0
  0
LINE
  5
A6F6
100
AcDbEntity
  8
0
100
AcDbLine
 10
1215.977625
 20
602.766815
 30
0.0
 11
1215.977721
 21
594.766815
 31
0.0
  0
LINE
  5
A6F7
100
AcDbEntity
  8
0
100
AcDbLine
 10
1246.96433
 20
620.767298
 30
0.0
 11
1246.96433
 21
599.767298
 31
0.0
  0
LINE
  5
A6F8
100
AcDbEntity
  8
0
100
AcDbLine
 10
1266.96433
 20
620.767298
 30
0.0
 11
1266.96433
 21
599.767298
 31
0.0
  0
ARC
  5
A6F9
100
AcDbEntity
  8
0
100
AcDbCircle
 10
1221.227784
 20
589.485628
 30
0.0
 40
14.28125
100
AcDbArc
 50
68.432087
 51
111.569278
  0
ARC
  5
A6FA
100
AcDbEntity
  8
0
100
AcDbCircle
 10
1210.727784
 20
589.485503
 30
0.0
 40
14.28125
100
AcDbArc
 50
68.432087
 51
111.569278
  0
LINE
  5
A6FB
100
AcDbEntity
  8
0
100
AcDbLine
 10
1226.477614
 20
603.766323
 30
0.0
 11
1205.477614
 21
603.766073
 31
0.0
  0
LINE
  5
A6FC
100
AcDbEntity
  8
0
100
AcDbLine
 10
1266.96433
 20
620.767298
 30
0.0
 11
1246.96433
 21
620.767298
 31
0.0
  0
LINE
  5
A6FD
100
AcDbEntity
  8
0
100
AcDbLine
 10
1266.96433
 20
608.767298
 30
0.0
 11
1246.96433
 21
608.767298
 31
0.0
  0
LINE
  5
A6FE
100
AcDbEntity
  8
0
100
AcDbLine
 10
1251.69653
 20
608.767298
 30
0.0
 11
1251.69653
 21
620.767298
 31
0.0
  0
LINE
  5
A6FF
100
AcDbEntity
  8
0
100
AcDbLine
 10
1262.23213
 20
608.767298
 30
0.0
 11
1262.23213
 21
620.767298
 31
0.0
  0
LINE
  5
A700
100
AcDbEntity
  8
0
100
AcDbLine
 10
1287.451644
 20
603.764333
 30
0.0
 11
1287.450939
 21
594.76495
 31
0.0
  0
LINE
  5
A701
100
AcDbEntity
  8
0
100
AcDbLine
 10
1297.951565
 20
602.764128
 30
0.0
 11
1297.950939
 21
594.764128
 31
0.0
  0
LINE
  5
A702
100
AcDbEntity
  8
0
100
AcDbLine
 10
1308.451644
 20
603.762688
 30
0.0
 11
1308.450939
 21
594.763306
 31
0.0
  0
ARC
  5
A703
100
AcDbEntity
  8
0
100
AcDbCircle
 10
1292.700526
 20
589.483289
 30
0.0
 40
14.28125
100
AcDbArc
 50
68.426918
 51
111.56411
  0
LINE
  5
A704
100
AcDbEntity
  8
0
100
AcDbLine
 10
1287.451644
 20
603.764333
 30
0.0
 11
1308.451644
 21
603.762688
 31
0.0
  0
ARC
  5
A705
100
AcDbEntity
  8
0
100
AcDbCircle
 10
1303.200526
 20
589.482467
 30
0.0
 40
14.28125
100
AcDbArc
 50
68.426918
 51
111.56411
  0
LINE
  5
A706
100
AcDbEntity
  8
0
100
AcDbLine
 10
1565.979671
 20
594.767298
 30
0.0
 11
1565.979671
 21
567.767298
 31
0.0
  0
LINE
  5
A707
100
AcDbEntity
  8
0
100
AcDbLine
 10
1453.979671
 20
594.767298
 30
0.0
 11
1453.979671
 21
567.767298
 31
0.0
  0
LINE
  5
A708
100
AcDbEntity
  8
0
100
AcDbLine
 10
1444.979671
 20
581.767298
 30
0.0
 11
1565.979671
 21
581.767298
 31
0.0
  0
LINE
  5
A709
100
AcDbEntity
  8
0
100
AcDbLine
 10
1453.979671
 20
567.767298
 30
0.0
 11
1565.979671
 21
567.767298
 31
0.0
  0
LINE
  5
A70A
100
AcDbEntity
  8
0
100
AcDbLine
 10
1443.979671
 20
559.767298
 30
0.0
 11
1461.979671
 21
559.767298
 31
0.0
  0
LINE
  5
A70B
100
AcDbEntity
  8
0
100
AcDbLine
 10
1444.979671
 20
580.767298
 30
0.0
 11
1444.979671
 21
581.767298
 31
0.0
  0
ARC
  5
A70C
100
AcDbEntity
  8
0
100
AcDbCircle
 10
1462.979671
 20
563.767298
 30
0.0
 40
4.0
100
AcDbArc
 50
360.0
 51
90.0
  0
LINE
  5
A70D
100
AcDbEntity
  8
0
100
AcDbLine
 10
1444.979671
 20
581.767298
 30
0.0
 11
1444.979671
 21
579.767298
 31
0.0
  0
LINE
  5
A70E
100
AcDbEntity
  8
0
100
AcDbLine
 10
1597.979671
 20
579.767298
 30
0.0
 11
1597.979671
 21
547.767298
 31
0.0
  0
LINE
  5
A70F
100
AcDbEntity
  8
0
100
AcDbLine
 10
1573.979671
 20
559.767298
 30
0.0
 11
1591.979671
 21
559.767298
 31
0.0
  0
LINE
  5
A710
100
AcDbEntity
  8
0
100
AcDbLine
 10
1565.979671
 20
579.767298
 30
0.0
 11
1597.979671
 21
579.767298
 31
0.0
  0
ARC
  5
A711
100
AcDbEntity
  8
0
100
AcDbCircle
 10
1556.979671
 20
563.767298
 30
0.0
 40
4.0
100
AcDbArc
 50
90.0
 51
180.0
  0
LINE
  5
A712
100
AcDbEntity
  8
0
100
AcDbLine
 10
1561.091838
 20
603.517298
 30
0.0
 11
1540.709588
 21
603.517298
 31
0.0
  0
ARC
  5
A713
100
AcDbEntity
  8
0
100
AcDbCircle
 10
1541.808151
 20
597.549926
 30
0.0
 40
5.720487
100
AcDbArc
 50
57.999511
 51
122.000489
  0
LINE
  5
A714
100
AcDbEntity
  8
0
100
AcDbLine
 10
1453.979671
 20
594.767298
 30
0.0
 11
1565.979671
 21
594.767298
 31
0.0
  0
LINE
  5
A715
100
AcDbEntity
  8
0
100
AcDbLine
 10
1538.776713
 20
602.401148
 30
0.0
 11
1538.776713
 21
594.767298
 31
0.0
  0
LINE
  5
A716
100
AcDbEntity
  8
0
100
AcDbLine
 10
1480.909573
 20
594.767298
 30
0.0
 11
1480.909573
 21
602.401148
 31
0.0
  0
LINE
  5
A717
100
AcDbEntity
  8
0
100
AcDbLine
 10
1474.847573
 20
602.401148
 30
0.0
 11
1474.847573
 21
594.767298
 31
0.0
  0
LINE
  5
A718
100
AcDbEntity
  8
0
100
AcDbLine
 10
1456.661573
 20
602.401148
 30
0.0
 11
1456.661573
 21
594.767298
 31
0.0
  0
LINE
  5
A719
100
AcDbEntity
  8
0
100
AcDbLine
 10
1462.724448
 20
602.401148
 30
0.0
 11
1462.724448
 21
594.767298
 31
0.0
  0
LINE
  5
A71A
100
AcDbEntity
  8
0
100
AcDbLine
 10
1519.979671
 20
608.767298
 30
0.0
 11
1519.979671
 21
599.767298
 31
0.0
  0
LINE
  5
A71B
100
AcDbEntity
  8
0
100
AcDbLine
 10
1499.979671
 20
608.767298
 30
0.0
 11
1499.979671
 21
599.767298
 31
0.0
  0
LINE
  5
A71C
100
AcDbEntity
  8
0
100
AcDbLine
 10
1480.909573
 20
599.767298
 30
0.0
 11
1538.776713
 21
599.767298
 31
0.0
  0
LINE
  5
A71D
100
AcDbEntity
  8
0
100
AcDbLine
 10
1478.976698
 20
603.517298
 30
0.0
 11
1458.594448
 21
603.517298
 31
0.0
  0
LINE
  5
A71E
100
AcDbEntity
  8
0
100
AcDbLine
 10
1480.909573
 20
602.401148
 30
0.0
 11
1478.976698
 21
603.517298
 31
0.0
  0
ARC
  5
A71F
100
AcDbEntity
  8
0
100
AcDbCircle
 10
1468.786011
 20
581.698801
 30
0.0
 40
21.571502
100
AcDbArc
 50
73.680185
 51
106.319815
  0
ARC
  5
A720
100
AcDbEntity
  8
0
100
AcDbCircle
 10
1459.693011
 20
597.549926
 30
0.0
 40
5.720487
100
AcDbArc
 50
57.999511
 51
122.000489
  0
LINE
  5
A721
100
AcDbEntity
  8
0
100
AcDbLine
 10
1458.594448
 20
603.517298
 30
0.0
 11
1456.661573
 21
602.401148
 31
0.0
  0
ARC
  5
A722
100
AcDbEntity
  8
0
100
AcDbCircle
 10
1477.879011
 20
597.549906
 30
0.0
 40
5.720504
100
AcDbArc
 50
57.999617
 51
122.000383
  0
LINE
  5
A723
100
AcDbEntity
  8
0
100
AcDbLine
 10
1540.709588
 20
603.517298
 30
0.0
 11
1538.776713
 21
602.401148
 31
0.0
  0
LINE
  5
A724
100
AcDbEntity
  8
0
100
AcDbLine
 10
1518.479671
 20
620.189947
 30
0.0
 11
1517.479671
 21
620.767298
 31
0.0
  0
LINE
  5
A725
100
AcDbEntity
  8
0
100
AcDbLine
 10
1501.479671
 20
620.189947
 30
0.0
 11
1502.479671
 21
620.767298
 31
0.0
  0
LINE
  5
A726
100
AcDbEntity
  8
0
100
AcDbLine
 10
1502.479671
 20
620.767298
 30
0.0
 11
1517.479671
 21
620.767298
 31
0.0
  0
LINE
  5
A727
100
AcDbEntity
  8
0
100
AcDbLine
 10
1499.979671
 20
608.767298
 30
0.0
 11
1519.979671
 21
608.767298
 31
0.0
  0
LINE
  5
A728
100
AcDbEntity
  8
0
100
AcDbLine
 10
1518.479671
 20
620.189947
 30
0.0
 11
1518.479671
 21
608.767298
 31
0.0
  0
LINE
  5
A729
100
AcDbEntity
  8
0
100
AcDbLine
 10
1501.479671
 20
620.189947
 30
0.0
 11
1501.479671
 21
608.767298
 31
0.0
  0
LINE
  5
A72A
100
AcDbEntity
  8
0
100
AcDbLine
 10
1556.962713
 20
602.401148
 30
0.0
 11
1556.962713
 21
594.767298
 31
0.0
  0
LINE
  5
A72B
100
AcDbEntity
  8
0
100
AcDbLine
 10
1544.839588
 20
602.401148
 30
0.0
 11
1544.839588
 21
594.767298
 31
0.0
  0
LINE
  5
A72C
100
AcDbEntity
  8
0
100
AcDbLine
 10
1563.024713
 20
594.767298
 30
0.0
 11
1563.024713
 21
602.401148
 31
0.0
  0
ARC
  5
A72D
100
AcDbEntity
  8
0
100
AcDbCircle
 10
1559.994151
 20
597.549906
 30
0.0
 40
5.720504
100
AcDbArc
 50
57.999617
 51
122.000383
  0
ARC
  5
A72E
100
AcDbEntity
  8
0
100
AcDbCircle
 10
1550.901151
 20
581.698801
 30
0.0
 40
21.571502
100
AcDbArc
 50
73.680185
 51
106.319815
  0
LINE
  5
A72F
100
AcDbEntity
  8
0
100
AcDbLine
 10
1563.024713
 20
602.401148
 30
0.0
 11
1561.091838
 21
603.517298
 31
0.0
  0
LINE
  5
A730
100
AcDbEntity
  8
0
100
AcDbLine
 10
1779.783144
 20
567.767298
 30
0.0
 11
1779.783144
 21
594.767298
 31
0.0
  0
LINE
  5
A731
100
AcDbEntity
  8
0
100
AcDbLine
 10
1671.783144
 20
567.767298
 30
0.0
 11
1671.783144
 21
594.767298
 31
0.0
  0
LINE
  5
A732
100
AcDbEntity
  8
0
100
AcDbLine
 10
1779.783144
 20
567.767298
 30
0.0
 11
1758.783144
 21
567.767298
 31
0.0
  0
LINE
  5
A733
100
AcDbEntity
  8
0
100
AcDbLine
 10
1671.783144
 20
581.767298
 30
0.0
 11
1779.783144
 21
581.767298
 31
0.0
  0
LINE
  5
A734
100
AcDbEntity
  8
0
100
AcDbLine
 10
1676.283144
 20
565.767298
 30
0.0
 11
1676.283144
 21
546.767298
 31
0.0
  0
LINE
  5
A735
100
AcDbEntity
  8
0
100
AcDbLine
 10
1755.783144
 20
564.767298
 30
0.0
 11
1755.783144
 21
559.767298
 31
0.0
  0
LINE
  5
A736
100
AcDbEntity
  8
0
100
AcDbLine
 10
1695.783144
 20
564.767298
 30
0.0
 11
1695.783144
 21
559.767298
 31
0.0
  0
LINE
  5
A737
100
AcDbEntity
  8
0
100
AcDbLine
 10
1669.283144
 20
543.767298
 30
0.0
 11
1673.283144
 21
543.767298
 31
0.0
  0
ARC
  5
A738
100
AcDbEntity
  8
0
100
AcDbCircle
 10
1673.283144
 20
546.767298
 30
0.0
 40
3.0
100
AcDbArc
 50
270.0
 51
0.0
  0
LINE
  5
A739
100
AcDbEntity
  8
0
100
AcDbLine
 10
1695.783144
 20
559.767298
 30
0.0
 11
1696.118351
 21
559.767298
 31
0.0
  0
ARC
  5
A73A
100
AcDbEntity
  8
0
100
AcDbCircle
 10
1695.783144
 20
557.767298
 30
0.0
 40
2.0
100
AcDbArc
 50
90.0
 51
180.0
  0
LINE
  5
A73B
100
AcDbEntity
  8
0
100
AcDbLine
 10
1755.783144
 20
559.767298
 30
0.0
 11
1755.447938
 21
559.767298
 31
0.0
  0
ARC
  5
A73C
100
AcDbEntity
  8
0
100
AcDbCircle
 10
1755.783144
 20
557.767298
 30
0.0
 40
2.0
100
AcDbArc
 50
0.0
 51
90.0
  0
ARC
  5
A73D
100
AcDbEntity
  8
0
100
AcDbCircle
 10
1674.283144
 20
565.767298
 30
0.0
 40
2.0
100
AcDbArc
 50
0.0
 51
90.0
  0
LINE
  5
A73E
100
AcDbEntity
  8
0
100
AcDbLine
 10
1671.783144
 20
567.767298
 30
0.0
 11
1692.783144
 21
567.767298
 31
0.0
  0
ARC
  5
A73F
100
AcDbEntity
  8
0
100
AcDbCircle
 10
1692.783144
 20
564.767298
 30
0.0
 40
3.0
100
AcDbArc
 50
0.0
 51
90.0
  0
ARC
  5
A740
100
AcDbEntity
  8
0
100
AcDbCircle
 10
1758.783144
 20
564.767298
 30
0.0
 40
3.0
100
AcDbArc
 50
90.0
 51
180.0
  0
ARC
  5
A741
100
AcDbEntity
  8
0
100
AcDbCircle
 10
1777.283144
 20
565.767298
 30
0.0
 40
2.0
100
AcDbArc
 50
90.0
 51
180.0
  0
LINE
  5
A742
100
AcDbEntity
  8
0
100
AcDbLine
 10
1756.269861
 20
603.766323
 30
0.0
 11
1777.269861
 21
603.766073
 31
0.0
  0
ARC
  5
A743
100
AcDbEntity
  8
0
100
AcDbCircle
 10
1761.519691
 20
589.485628
 30
0.0
 40
14.28125
100
AcDbArc
 50
68.430722
 51
111.567913
  0
LINE
  5
A744
100
AcDbEntity
  8
0
100
AcDbLine
 10
1671.783144
 20
594.767298
 30
0.0
 11
1779.783144
 21
594.767298
 31
0.0
  0
LINE
  5
A745
100
AcDbEntity
  8
0
100
AcDbLine
 10
1756.269861
 20
603.766323
 30
0.0
 11
1756.269754
 21
594.76694
 31
0.0
  0
LINE
  5
A746
100
AcDbEntity
  8
0
100
AcDbLine
 10
1674.295831
 20
603.762688
 30
0.0
 11
1674.296535
 21
594.763306
 31
0.0
  0
LINE
  5
A747
100
AcDbEntity
  8
0
100
AcDbLine
 10
1684.795909
 20
602.764128
 30
0.0
 11
1684.796535
 21
594.764128
 31
0.0
  0
LINE
  5
A748
100
AcDbEntity
  8
0
100
AcDbLine
 10
1695.295831
 20
603.764333
 30
0.0
 11
1695.296535
 21
594.76495
 31
0.0
  0
LINE
  5
A749
100
AcDbEntity
  8
0
100
AcDbLine
 10
1715.783144
 20
620.767298
 30
0.0
 11
1715.783144
 21
599.767298
 31
0.0
  0
LINE
  5
A74A
100
AcDbEntity
  8
0
100
AcDbLine
 10
1735.783144
 20
620.767298
 30
0.0
 11
1735.783144
 21
599.767298
 31
0.0
  0
LINE
  5
A74B
100
AcDbEntity
  8
0
100
AcDbLine
 10
1695.296144
 20
599.767298
 30
0.0
 11
1756.269813
 21
599.767298
 31
0.0
  0
LINE
  5
A74C
100
AcDbEntity
  8
0
100
AcDbLine
 10
1696.713047
 20
599.767298
 30
0.0
 11
1754.580186
 21
599.767298
 31
0.0
  0
CIRCLE
  5
A74D
100
AcDbEntity
  8
0
100
AcDbCircle
 10
1725.783144
 20
589.267298
 30
0.0
 40
2.25
  0
ARC
  5
A74E
100
AcDbEntity
  8
0
100
AcDbCircle
 10
1679.546949
 20
589.482467
 30
0.0
 40
14.28125
100
AcDbArc
 50
68.43589
 51
111.573082
  0
LINE
  5
A74F
100
AcDbEntity
  8
0
100
AcDbLine
 10
1695.295831
 20
603.764333
 30
0.0
 11
1674.295831
 21
603.762688
 31
0.0
  0
ARC
  5
A750
100
AcDbEntity
  8
0
100
AcDbCircle
 10
1690.046949
 20
589.483289
 30
0.0
 40
14.28125
100
AcDbArc
 50
68.43589
 51
111.573082
  0
LINE
  5
A751
100
AcDbEntity
  8
0
100
AcDbLine
 10
1715.783144
 20
620.767298
 30
0.0
 11
1735.783144
 21
620.767298
 31
0.0
  0
LINE
  5
A752
100
AcDbEntity
  8
0
100
AcDbLine
 10
1715.783144
 20
608.767298
 30
0.0
 11
1735.783144
 21
608.767298
 31
0.0
  0
LINE
  5
A753
100
AcDbEntity
  8
0
100
AcDbLine
 10
1720.515344
 20
608.767298
 30
0.0
 11
1720.515344
 21
620.767298
 31
0.0
  0
LINE
  5
A754
100
AcDbEntity
  8
0
100
AcDbLine
 10
1731.050944
 20
608.767298
 30
0.0
 11
1731.050944
 21
620.767298
 31
0.0
  0
LINE
  5
A755
100
AcDbEntity
  8
0
100
AcDbLine
 10
1766.769849
 20
602.766815
 30
0.0
 11
1766.769754
 21
594.766815
 31
0.0
  0
LINE
  5
A756
100
AcDbEntity
  8
0
100
AcDbLine
 10
1777.269861
 20
603.766073
 30
0.0
 11
1777.269754
 21
594.76669
 31
0.0
  0
ARC
  5
A757
100
AcDbEntity
  8
0
100
AcDbCircle
 10
1772.019691
 20
589.485503
 30
0.0
 40
14.28125
100
AcDbArc
 50
68.430722
 51
111.567913
  0
ARC
  5
A77C
100
AcDbEntity
  8
0
100
AcDbCircle
 10
1265.979671
 20
758.624428
 30
0.0
 40
300.0
100
AcDbArc
 50
351.614461
 51
8.385539
  0
CIRCLE
  5
A77D
100
AcDbEntity
  8
0
100
AcDbCircle
 10
1509.979671
 20
758.624428
 30
0.0
 40
35.0
  0
LINE
  5
A77E
100
AcDbEntity
  8
0
100
AcDbLine
 10
1597.979671
 20
758.624428
 30
0.0
 11
1597.979671
 21
790.624428
 31
0.0
  0
LINE
  5
A77F
100
AcDbEntity
  8
0
100
AcDbLine
 10
1437.979671
 20
758.624428
 30
0.0
 11
1437.979671
 21
790.624428
 31
0.0
  0
ARC
  5
A780
100
AcDbEntity
  8
0
100
AcDbCircle
 10
1753.979671
 20
758.624428
 30
0.0
 40
300.0
100
AcDbArc
 50
171.614461
 51
188.385539
  0
LINE
  5
A781
100
AcDbEntity
  8
0
100
AcDbLine
 10
1437.979671
 20
726.624428
 30
0.0
 11
1455.69122
 21
726.624428
 31
0.0
  0
LINE
  5
A782
100
AcDbEntity
  8
0
100
AcDbLine
 10
1437.979671
 20
726.624428
 30
0.0
 11
1437.979671
 21
758.624428
 31
0.0
  0
LINE
  5
A783
100
AcDbEntity
  8
0
100
AcDbLine
 10
1597.979671
 20
726.624428
 30
0.0
 11
1597.979671
 21
758.624428
 31
0.0
  0
CIRCLE
  5
A784
100
AcDbEntity
  8
0
100
AcDbCircle
 10
1551.426297
 20
717.612235
 30
0.0
 40
10.5
  0
POLYLINE
  5
A785
100
AcDbEntity
  8
0
100
AcDb2dPolyline
 66
     1
 10
0.0
 20
0.0
 30
0.0
 70
     1
  0
VERTEX
  5
B434
100
AcDbEntity
  8
0
100
AcDbVertex
100
AcDb2dVertex
 10
1557.488475
 20
728.112235
 30
0.0
  0
VERTEX
  5
B435
100
AcDbEntity
  8
0
100
AcDbVertex
100
AcDb2dVertex
 10
1563.550653
 20
717.612235
 30
0.0
  0
VERTEX
  5
B436
100
AcDbEntity
  8
0
100
AcDbVertex
100
AcDb2dVertex
 10
1557.488475
 20
707.112235
 30
0.0
  0
VERTEX
  5
B437
100
AcDbEntity
  8
0
100
AcDbVertex
100
AcDb2dVertex
 10
1545.364119
 20
707.112235
 30
0.0
  0
VERTEX
  5
B438
100
AcDbEntity
  8
0
100
AcDbVertex
100
AcDb2dVertex
 10
1539.301942
 20
717.612235
 30
0.0
  0
VERTEX
  5
B439
100
AcDbEntity
  8
0
100
AcDbVertex
100
AcDb2dVertex
 10
1545.364119
 20
728.112235
 30
0.0
  0
SEQEND
  5
B43A
100
AcDbEntity
  8
0
  0
LINE
  5
A786
100
AcDbEntity
  8
0
100
AcDbLine
 10
1469.05863
 20
704.624428
 30
0.0
 11
1550.900713
 21
704.624428
 31
0.0
  0
POLYLINE
  5
A787
100
AcDbEntity
  8
0
100
AcDb2dPolyline
 66
     1
 10
0.0
 20
0.0
 30
0.0
 70
     1
  0
VERTEX
  5
B43B
100
AcDbEntity
  8
0
100
AcDbVertex
100
AcDb2dVertex
 10
1463.339733
 20
728.112235
 30
0.0
  0
VERTEX
  5
B43C
100
AcDbEntity
  8
0
100
AcDbVertex
100
AcDb2dVertex
 10
1457.277555
 20
717.612235
 30
0.0
  0
VERTEX
  5
B43D
100
AcDbEntity
  8
0
100
AcDbVertex
100
AcDb2dVertex
 10
1463.339733
 20
707.112235
 30
0.0
  0
VERTEX
  5
B43E
100
AcDbEntity
  8
0
100
AcDbVertex
100
AcDb2dVertex
 10
1475.464088
 20
707.112235
 30
0.0
  0
VERTEX
  5
B43F
100
AcDbEntity
  8
0
100
AcDbVertex
100
AcDb2dVertex
 10
1481.526266
 20
717.612235
 30
0.0
  0
VERTEX
  5
B440
100
AcDbEntity
  8
0
100
AcDbVertex
100
AcDb2dVertex
 10
1475.464088
 20
728.112235
 30
0.0
  0
SEQEND
  5
B441
100
AcDbEntity
  8
0
  0
CIRCLE
  5
A788
100
AcDbEntity
  8
0
100
AcDbCircle
 10
1469.401911
 20
717.612235
 30
0.0
 40
10.5
  0
ARC
  5
A789
100
AcDbEntity
  8
0
100
AcDbCircle
 10
1469.05863
 20
716.624428
 30
0.0
 40
12.0
100
AcDbArc
 50
188.385539
 51
270.0
  0
LINE
  5
A78A
100
AcDbEntity
  8
0
100
AcDbLine
 10
1443.979671
 20
724.624428
 30
0.0
 11
1455.69122
 21
724.624428
 31
0.0
  0
LINE
  5
A78B
100
AcDbEntity
  8
0
100
AcDbLine
 10
1443.979671
 20
724.624428
 30
0.0
 11
1443.979671
 21
726.624428
 31
0.0
  0
ARC
  5
A78C
100
AcDbEntity
  8
0
100
AcDbCircle
 10
1550.900713
 20
716.624428
 30
0.0
 40
12.0
100
AcDbArc
 50
270.0
 51
351.614461
  0
LINE
  5
A78D
100
AcDbEntity
  8
0
100
AcDbLine
 10
1564.268122
 20
726.624428
 30
0.0
 11
1597.979671
 21
726.624428
 31
0.0
  0
LINE
  5
A78E
100
AcDbEntity
  8
0
100
AcDbLine
 10
1591.979671
 20
724.624428
 30
0.0
 11
1591.979671
 21
726.624428
 31
0.0
  0
LINE
  5
A78F
100
AcDbEntity
  8
0
100
AcDbLine
 10
1573.979671
 20
724.624428
 30
0.0
 11
1573.979671
 21
726.624428
 31
0.0
  0
LINE
  5
A790
100
AcDbEntity
  8
0
100
AcDbLine
 10
1573.979671
 20
724.624428
 30
0.0
 11
1591.979671
 21
724.624428
 31
0.0
  0
LINE
  5
A791
100
AcDbEntity
  8
0
100
AcDbLine
 10
1518.479671
 20
763.892255
 30
0.0
 11
1518.479671
 21
753.356601
 31
0.0
  0
LINE
  5
A792
100
AcDbEntity
  8
0
100
AcDbLine
 10
1501.479671
 20
763.892255
 30
0.0
 11
1501.479671
 21
753.356601
 31
0.0
  0
CIRCLE
  5
A793
100
AcDbEntity
  8
0
100
AcDbCircle
 10
1509.979671
 20
758.624428
 30
0.0
 40
8.5
  0
CIRCLE
  5
A794
100
AcDbEntity
  8
0
100
AcDbCircle
 10
1509.979671
 20
758.624428
 30
0.0
 40
10.0
  0
ARC
  5
A795
100
AcDbEntity
  8
0
100
AcDbCircle
 10
1450.979671
 20
758.624428
 30
0.0
 40
6.0
100
AcDbArc
 50
89.149041
 51
270.850959
  0
ARC
  5
A796
100
AcDbEntity
  8
0
100
AcDbCircle
 10
1451.113335
 20
749.625421
 30
0.0
 40
3.0
100
AcDbArc
 50
1.701917
 51
90.850959
  0
ARC
  5
A797
100
AcDbEntity
  8
0
100
AcDbCircle
 10
1451.113335
 20
767.623436
 30
0.0
 40
3.0
100
AcDbArc
 50
269.149041
 51
358.298083
  0
LINE
  5
A798
100
AcDbEntity
  8
0
100
AcDbLine
 10
1437.979671
 20
790.624428
 30
0.0
 11
1455.69122
 21
790.624428
 31
0.0
  0
POLYLINE
  5
A799
100
AcDbEntity
  8
0
100
AcDb2dPolyline
 66
     1
 10
0.0
 20
0.0
 30
0.0
 70
     1
  0
VERTEX
  5
B442
100
AcDbEntity
  8
0
100
AcDbVertex
100
AcDb2dVertex
 10
1557.488475
 20
789.136622
 30
0.0
  0
VERTEX
  5
B443
100
AcDbEntity
  8
0
100
AcDbVertex
100
AcDb2dVertex
 10
1563.550653
 20
799.636622
 30
0.0
  0
VERTEX
  5
B444
100
AcDbEntity
  8
0
100
AcDbVertex
100
AcDb2dVertex
 10
1557.488475
 20
810.136622
 30
0.0
  0
VERTEX
  5
B445
100
AcDbEntity
  8
0
100
AcDbVertex
100
AcDb2dVertex
 10
1545.364119
 20
810.136622
 30
0.0
  0
VERTEX
  5
B446
100
AcDbEntity
  8
0
100
AcDbVertex
100
AcDb2dVertex
 10
1539.301942
 20
799.636622
 30
0.0
  0
VERTEX
  5
B447
100
AcDbEntity
  8
0
100
AcDbVertex
100
AcDb2dVertex
 10
1545.364119
 20
789.136622
 30
0.0
  0
SEQEND
  5
B448
100
AcDbEntity
  8
0
  0
CIRCLE
  5
A79A
100
AcDbEntity
  8
0
100
AcDbCircle
 10
1551.426297
 20
799.636622
 30
0.0
 40
10.5
  0
LINE
  5
A79B
100
AcDbEntity
  8
0
100
AcDbLine
 10
1469.05863
 20
812.624428
 30
0.0
 11
1550.900713
 21
812.624428
 31
0.0
  0
CIRCLE
  5
A79C
100
AcDbEntity
  8
0
100
AcDbCircle
 10
1469.401911
 20
799.636622
 30
0.0
 40
10.5
  0
POLYLINE
  5
A79D
100
AcDbEntity
  8
0
100
AcDb2dPolyline
 66
     1
 10
0.0
 20
0.0
 30
0.0
 70
     1
  0
VERTEX
  5
B449
100
AcDbEntity
  8
0
100
AcDbVertex
100
AcDb2dVertex
 10
1463.339733
 20
789.136622
 30
0.0
  0
VERTEX
  5
B44A
100
AcDbEntity
  8
0
100
AcDbVertex
100
AcDb2dVertex
 10
1457.277555
 20
799.636622
 30
0.0
  0
VERTEX
  5
B44B
100
AcDbEntity
  8
0
100
AcDbVertex
100
AcDb2dVertex
 10
1463.339733
 20
810.136622
 30
0.0
  0
VERTEX
  5
B44C
100
AcDbEntity
  8
0
100
AcDbVertex
100
AcDb2dVertex
 10
1475.464088
 20
810.136622
 30
0.0
  0
VERTEX
  5
B44D
100
AcDbEntity
  8
0
100
AcDbVertex
100
AcDb2dVertex
 10
1481.526266
 20
799.636622
 30
0.0
  0
VERTEX
  5
B44E
100
AcDbEntity
  8
0
100
AcDbVertex
100
AcDb2dVertex
 10
1475.464088
 20
789.136622
 30
0.0
  0
SEQEND
  5
B44F
100
AcDbEntity
  8
0
  0
LINE
  5
A79E
100
AcDbEntity
  8
0
100
AcDbLine
 10
1443.979671
 20
792.624428
 30
0.0
 11
1455.69122
 21
792.624428
 31
0.0
  0
LINE
  5
A79F
100
AcDbEntity
  8
0
100
AcDbLine
 10
1443.979671
 20
792.624428
 30
0.0
 11
1443.979671
 21
790.624428
 31
0.0
  0
ARC
  5
A7A0
100
AcDbEntity
  8
0
100
AcDbCircle
 10
1469.05863
 20
800.624428
 30
0.0
 40
12.0
100
AcDbArc
 50
90.0
 51
171.614461
  0
LINE
  5
A7A1
100
AcDbEntity
  8
0
100
AcDbLine
 10
1564.268122
 20
790.624428
 30
0.0
 11
1597.979671
 21
790.624428
 31
0.0
  0
LINE
  5
A7A2
100
AcDbEntity
  8
0
100
AcDbLine
 10
1591.979671
 20
792.624428
 30
0.0
 11
1591.979671
 21
790.624428
 31
0.0
  0
LINE
  5
A7A3
100
AcDbEntity
  8
0
100
AcDbLine
 10
1573.979671
 20
792.624428
 30
0.0
 11
1573.979671
 21
790.624428
 31
0.0
  0
LINE
  5
A7A4
100
AcDbEntity
  8
0
100
AcDbLine
 10
1573.979671
 20
792.624428
 30
0.0
 11
1591.979671
 21
792.624428
 31
0.0
  0
ARC
  5
A7A5
100
AcDbEntity
  8
0
100
AcDbCircle
 10
1550.900713
 20
800.624428
 30
0.0
 40
12.0
100
AcDbArc
 50
8.385539
 51
90.0
  0
LINE
  5
A88B
100
AcDbEntity
  8
0
100
AcDbLine
 10
1581.979671
 20
1015.335297
 30
0.0
 11
1581.979671
 21
988.335297
 31
0.0
  0
LINE
  5
A88C
100
AcDbEntity
  8
0
100
AcDbLine
 10
1469.979671
 20
1015.335297
 30
0.0
 11
1469.979671
 21
988.335297
 31
0.0
  0
ARC
  5
A88D
100
AcDbEntity
  8
0
100
AcDbCircle
 10
1560.979671
 20
944.335297
 30
0.0
 40
8.0
100
AcDbArc
 50
270.0
 51
0.0
  0
ARC
  5
A88E
100
AcDbEntity
  8
0
100
AcDbCircle
 10
1573.979671
 20
931.335297
 30
0.0
 40
5.0
100
AcDbArc
 50
90.0
 51
180.0
  0
ARC
  5
A88F
100
AcDbEntity
  8
0
100
AcDbCircle
 10
1447.578936
 20
931.335297
 30
0.0
 40
5.0
100
AcDbArc
 50
15.0
 51
90.0
  0
ARC
  5
A890
100
AcDbEntity
  8
0
100
AcDbCircle
 10
1490.979671
 20
944.335297
 30
0.0
 40
8.0
100
AcDbArc
 50
180.0
 51
270.0
  0
ARC
  5
A891
100
AcDbEntity
  8
0
100
AcDbCircle
 10
1525.979671
 20
905.335297
 30
0.0
 40
43.0
100
AcDbArc
 50
340.366382
 51
0.0
  0
LINE
  5
A892
100
AcDbEntity
  8
0
100
AcDbLine
 10
1451.630556
 20
895.786442
 30
0.0
 11
1456.039549
 21
896.967828
 31
0.0
  0
LINE
  5
A893
100
AcDbEntity
  8
0
100
AcDbLine
 10
1456.642232
 20
894.718586
 30
0.0
 11
1456.039549
 21
896.967828
 31
0.0
  0
ARC
  5
A894
100
AcDbEntity
  8
0
100
AcDbCircle
 10
1455.948236
 20
901.323308
 30
0.0
 40
7.021342
100
AcDbArc
 50
157.947305
 51
232.052695
  0
ARC
  5
A895
100
AcDbEntity
  8
0
100
AcDbCircle
 10
1525.979671
 20
905.335297
 30
0.0
 40
43.0
100
AcDbArc
 50
180.0
 51
199.633618
  0
LINE
  5
A896
100
AcDbEntity
  8
0
100
AcDbLine
 10
1448.551416
 20
900.641121
 30
0.0
 11
1456.574807
 21
870.697421
 31
0.0
  0
LINE
  5
A897
100
AcDbEntity
  8
0
100
AcDbLine
 10
1464.826049
 20
870.8319
 30
0.0
 11
1455.767382
 21
904.639304
 31
0.0
  0
LINE
  5
A898
100
AcDbEntity
  8
0
100
AcDbLine
 10
1567.979671
 20
863.335297
 30
0.0
 11
1535.199216
 21
863.335297
 31
0.0
  0
ARC
  5
A899
100
AcDbEntity
  8
0
100
AcDbCircle
 10
1490.847959
 20
872.628069
 30
0.0
 40
5.0
100
AcDbArc
 50
42.953187
 51
105.0
  0
LINE
  5
A89A
100
AcDbEntity
  8
0
100
AcDbLine
 10
1456.814081
 20
876.441266
 30
0.0
 11
1456.211398
 21
878.690508
 31
0.0
  0
LINE
  5
A89B
100
AcDbEntity
  8
0
100
AcDbLine
 10
1456.814081
 20
876.441266
 30
0.0
 11
1461.223073
 21
877.622652
 31
0.0
  0
ARC
  5
A89C
100
AcDbEntity
  8
0
100
AcDbCircle
 10
1456.905394
 20
872.085786
 30
0.0
 40
7.021342
100
AcDbArc
 50
337.947305
 51
52.052695
  0
LINE
  5
A89D
100
AcDbEntity
  8
0
100
AcDbLine
 10
1489.553864
 20
877.457698
 30
0.0
 11
1464.826049
 21
870.8319
 31
0.0
  0
ARC
  5
A89E
100
AcDbEntity
  8
0
100
AcDbCircle
 10
1463.321734
 20
873.805039
 30
0.0
 40
7.021342
100
AcDbArc
 50
157.947305
 51
232.052695
  0
LINE
  5
A89F
100
AcDbEntity
  8
0
100
AcDbLine
 10
1456.574807
 20
870.697421
 30
0.0
 11
1459.004054
 21
868.268173
 31
0.0
  0
LINE
  5
A8A0
100
AcDbEntity
  8
0
100
AcDbLine
 10
1464.302213
 20
872.767973
 30
0.0
 11
1463.413047
 21
869.449559
 31
0.0
  0
LINE
  5
A8A1
100
AcDbEntity
  8
0
100
AcDbLine
 10
1459.004054
 20
868.268173
 30
0.0
 11
1463.413047
 21
869.449559
 31
0.0
  0
ARC
  5
A8A2
100
AcDbEntity
  8
0
100
AcDbCircle
 10
1525.979671
 20
905.335297
 30
0.0
 40
43.0
100
AcDbArc
 50
222.953187
 51
282.380799
  0
LINE
  5
A8A3
100
AcDbEntity
  8
0
100
AcDbLine
 10
1452.233239
 20
893.5372
 30
0.0
 11
1456.642232
 21
894.718586
 31
0.0
  0
LINE
  5
A8A4
100
AcDbEntity
  8
0
100
AcDbLine
 10
1452.233239
 20
893.5372
 30
0.0
 11
1451.630556
 21
895.786442
 31
0.0
  0
LINE
  5
A8A5
100
AcDbEntity
  8
0
100
AcDbLine
 10
1456.211398
 20
878.690508
 30
0.0
 11
1460.620391
 21
879.871894
 31
0.0
  0
LINE
  5
A8A6
100
AcDbEntity
  8
0
100
AcDbLine
 10
1461.223073
 20
877.622652
 30
0.0
 11
1460.620391
 21
879.871894
 31
0.0
  0
ARC
  5
A8A7
100
AcDbEntity
  8
0
100
AcDbCircle
 10
1439.195942
 20
882.087549
 30
0.0
 40
21.538712
100
AcDbArc
 50
354.095626
 51
35.904374
  0
ARC
  5
A8A8
100
AcDbEntity
  8
0
100
AcDbCircle
 10
1473.657688
 20
891.321546
 30
0.0
 40
21.538712
100
AcDbArc
 50
174.095626
 51
215.904374
  0
ARC
  5
A8AE
100
AcDbEntity
  8
0
100
AcDbCircle
 10
1525.979671
 20
905.335297
 30
0.0
 40
43.0
100
AcDbArc
 50
295.564718
 51
332.923773
  0
LINE
  5
A8AF
100
AcDbEntity
  8
0
100
AcDbLine
 10
1567.979671
 20
887.335297
 30
0.0
 11
1567.979671
 21
863.335297
 31
0.0
  0
LINE
  5
A8B8
100
AcDbEntity
  8
0
100
AcDbLine
 10
1566.479671
 20
890.887114
 30
0.0
 11
1566.479671
 21
889.933373
 31
0.0
  0
ARC
  5
A8BA
100
AcDbEntity
  8
0
100
AcDbCircle
 10
1569.479671
 20
889.933373
 30
0.0
 40
3.0
100
AcDbArc
 50
180.0
 51
240.0
  0
LINE
  5
A8C1
100
AcDbEntity
  8
0
100
AcDbLine
 10
1482.979671
 20
931.335297
 30
0.0
 11
1482.979671
 21
905.335297
 31
0.0
  0
LINE
  5
A8C2
100
AcDbEntity
  8
0
100
AcDbLine
 10
1458.854628
 20
908.572357
 30
0.0
 11
1452.408565
 21
932.629392
 31
0.0
  0
LINE
  5
A8C3
100
AcDbEntity
  8
0
100
AcDbLine
 10
1448.551416
 20
900.641121
 30
0.0
 11
1449.440583
 21
903.959535
 31
0.0
  0
ARC
  5
A8C4
100
AcDbEntity
  8
0
100
AcDbCircle
 10
1455.956851
 20
907.7959
 30
0.0
 40
3.0
100
AcDbArc
 50
285.0
 51
15.0
  0
LINE
  5
A8C5
100
AcDbEntity
  8
0
100
AcDbLine
 10
1456.733308
 20
904.898123
 30
0.0
 11
1455.767382
 21
904.639304
 31
0.0
  0
LINE
  5
A8C6
100
AcDbEntity
  8
0
100
AcDbLine
 10
1456.278823
 20
902.711674
 30
0.0
 11
1453.849575
 21
905.140921
 31
0.0
  0
ARC
  5
A8C7
100
AcDbEntity
  8
0
100
AcDbCircle
 10
1449.531896
 20
899.604055
 30
0.0
 40
7.021342
100
AcDbArc
 50
337.947305
 51
52.052695
  0
LINE
  5
A8C8
100
AcDbEntity
  8
0
100
AcDbLine
 10
1449.440583
 20
903.959535
 30
0.0
 11
1453.849575
 21
905.140921
 31
0.0
  0
LINE
  5
A8C9
100
AcDbEntity
  8
0
100
AcDbLine
 10
1568.979671
 20
931.335297
 30
0.0
 11
1568.979671
 21
905.335297
 31
0.0
  0
LINE
  5
A8CA
100
AcDbEntity
  8
0
100
AcDbLine
 10
1469.979671
 20
1000.335297
 30
0.0
 11
1437.979671
 21
1000.335297
 31
0.0
  0
LINE
  5
A8CB
100
AcDbEntity
  8
0
100
AcDbLine
 10
1447.578936
 20
936.335297
 30
0.0
 11
1437.979671
 21
936.335297
 31
0.0
  0
LINE
  5
A8CC
100
AcDbEntity
  8
0
100
AcDbLine
 10
1437.979671
 20
1000.335297
 30
0.0
 11
1437.979671
 21
968.335297
 31
0.0
  0
LINE
  5
A8CD
100
AcDbEntity
  8
0
100
AcDbLine
 10
1437.979671
 20
968.335297
 30
0.0
 11
1437.979671
 21
936.335297
 31
0.0
  0
LINE
  5
A8CE
100
AcDbEntity
  8
0
100
AcDbLine
 10
1573.979671
 20
980.335297
 30
0.0
 11
1573.979671
 21
956.335297
 31
0.0
  0
LINE
  5
A8CF
100
AcDbEntity
  8
0
100
AcDbLine
 10
1568.979671
 20
944.335297
 30
0.0
 11
1568.979671
 21
984.335297
 31
0.0
  0
LINE
  5
A8D0
100
AcDbEntity
  8
0
100
AcDbLine
 10
1597.979671
 20
1000.335297
 30
0.0
 11
1597.979671
 21
968.335297
 31
0.0
  0
LINE
  5
A8D1
100
AcDbEntity
  8
0
100
AcDbLine
 10
1591.979671
 20
980.335297
 30
0.0
 11
1591.979671
 21
956.335297
 31
0.0
  0
LINE
  5
A8D2
100
AcDbEntity
  8
0
100
AcDbLine
 10
1443.979671
 20
980.335297
 30
0.0
 11
1443.979671
 21
956.335297
 31
0.0
  0
LINE
  5
A8D3
100
AcDbEntity
  8
0
100
AcDbLine
 10
1461.979671
 20
980.335297
 30
0.0
 11
1461.979671
 21
956.335297
 31
0.0
  0
LINE
  5
A8D4
100
AcDbEntity
  8
0
100
AcDbLine
 10
1482.979671
 20
944.335297
 30
0.0
 11
1482.979671
 21
984.335297
 31
0.0
  0
LINE
  5
A8D5
100
AcDbEntity
  8
0
100
AcDbLine
 10
1490.979671
 20
936.335297
 30
0.0
 11
1560.979671
 21
936.335297
 31
0.0
  0
LINE
  5
A8D6
100
AcDbEntity
  8
0
100
AcDbLine
 10
1461.979671
 20
956.335297
 30
0.0
 11
1443.979671
 21
956.335297
 31
0.0
  0
LINE
  5
A8D7
100
AcDbEntity
  8
0
100
AcDbLine
 10
1597.979671
 20
968.335297
 30
0.0
 11
1597.979671
 21
936.335297
 31
0.0
  0
LINE
  5
A8D8
100
AcDbEntity
  8
0
100
AcDbLine
 10
1597.979671
 20
936.335297
 30
0.0
 11
1573.979671
 21
936.335297
 31
0.0
  0
LINE
  5
A8D9
100
AcDbEntity
  8
0
100
AcDbLine
 10
1591.979671
 20
956.335297
 30
0.0
 11
1573.979671
 21
956.335297
 31
0.0
  0
LINE
  5
A8DA
100
AcDbEntity
  8
0
100
AcDbLine
 10
1581.979671
 20
988.335297
 30
0.0
 11
1469.979671
 21
988.335297
 31
0.0
  0
LINE
  5
A8DB
100
AcDbEntity
  8
0
100
AcDbLine
 10
1590.979671
 20
1002.335297
 30
0.0
 11
1469.979671
 21
1002.335297
 31
0.0
  0
LINE
  5
A8DC
100
AcDbEntity
  8
0
100
AcDbLine
 10
1461.979671
 20
980.335297
 30
0.0
 11
1443.979671
 21
980.335297
 31
0.0
  0
ARC
  5
A8DD
100
AcDbEntity
  8
0
100
AcDbCircle
 10
1478.979671
 20
984.335297
 30
0.0
 40
4.0
100
AcDbArc
 50
0.0
 51
90.0
  0
ARC
  5
A8DE
100
AcDbEntity
  8
0
100
AcDbCircle
 10
1572.979671
 20
984.335297
 30
0.0
 40
4.0
100
AcDbArc
 50
90.0
 51
180.0
  0
LINE
  5
A8DF
100
AcDbEntity
  8
0
100
AcDbLine
 10
1591.979671
 20
980.335297
 30
0.0
 11
1573.979671
 21
980.335297
 31
0.0
  0
LINE
  5
A8E0
100
AcDbEntity
  8
0
100
AcDbLine
 10
1597.979671
 20
1000.335297
 30
0.0
 11
1581.979671
 21
1000.335297
 31
0.0
  0
LINE
  5
A8E1
100
AcDbEntity
  8
0
100
AcDbLine
 10
1590.979671
 20
1002.335297
 30
0.0
 11
1590.979671
 21
1000.335297
 31
0.0
  0
LINE
  5
A8E2
100
AcDbEntity
  8
0
100
AcDbLine
 10
1581.979671
 20
1015.335297
 30
0.0
 11
1469.979671
 21
1015.335297
 31
0.0
  0
LINE
  5
A8E3
100
AcDbEntity
  8
0
100
AcDbLine
 10
1555.049769
 20
1020.335297
 30
0.0
 11
1497.18263
 21
1020.335297
 31
0.0
  0
LINE
  5
A8E4
100
AcDbEntity
  8
0
100
AcDbLine
 10
1517.479671
 20
1040.757947
 30
0.0
 11
1517.479671
 21
1029.335297
 31
0.0
  0
LINE
  5
A8E5
100
AcDbEntity
  8
0
100
AcDbLine
 10
1534.479671
 20
1040.757947
 30
0.0
 11
1534.479671
 21
1029.335297
 31
0.0
  0
ARC
  5
A8E6
100
AcDbEntity
  8
0
100
AcDbCircle
 10
1485.058192
 20
1002.266801
 30
0.0
 40
21.571502
100
AcDbArc
 50
73.680185
 51
106.319815
  0
LINE
  5
A8E7
100
AcDbEntity
  8
0
100
AcDbLine
 10
1474.867505
 20
1024.085297
 30
0.0
 11
1495.249755
 21
1024.085297
 31
0.0
  0
LINE
  5
A8E8
100
AcDbEntity
  8
0
100
AcDbLine
 10
1472.93463
 20
1022.969147
 30
0.0
 11
1474.867505
 21
1024.085297
 31
0.0
  0
ARC
  5
A8E9
100
AcDbEntity
  8
0
100
AcDbCircle
 10
1475.965192
 20
1018.117905
 30
0.0
 40
5.720504
100
AcDbArc
 50
57.999617
 51
122.000383
  0
LINE
  5
A8EA
100
AcDbEntity
  8
0
100
AcDbLine
 10
1472.93463
 20
1015.335297
 30
0.0
 11
1472.93463
 21
1022.969147
 31
0.0
  0
LINE
  5
A8EB
100
AcDbEntity
  8
0
100
AcDbLine
 10
1478.99663
 20
1022.969147
 30
0.0
 11
1478.99663
 21
1015.335297
 31
0.0
  0
LINE
  5
A8EC
100
AcDbEntity
  8
0
100
AcDbLine
 10
1495.249755
 20
1024.085297
 30
0.0
 11
1497.18263
 21
1022.969147
 31
0.0
  0
ARC
  5
A8ED
100
AcDbEntity
  8
0
100
AcDbCircle
 10
1494.151192
 20
1018.117925
 30
0.0
 40
5.720487
100
AcDbArc
 50
57.999511
 51
122.000489
  0
LINE
  5
A8EE
100
AcDbEntity
  8
0
100
AcDbLine
 10
1535.979671
 20
1029.335297
 30
0.0
 11
1515.979671
 21
1029.335297
 31
0.0
  0
LINE
  5
A8EF
100
AcDbEntity
  8
0
100
AcDbLine
 10
1491.119755
 20
1022.969147
 30
0.0
 11
1491.119755
 21
1015.335297
 31
0.0
  0
LINE
  5
A8F0
100
AcDbEntity
  8
0
100
AcDbLine
 10
1515.979671
 20
1029.335297
 30
0.0
 11
1515.979671
 21
1020.335297
 31
0.0
  0
LINE
  5
A8F1
100
AcDbEntity
  8
0
100
AcDbLine
 10
1497.18263
 20
1022.969147
 30
0.0
 11
1497.18263
 21
1015.335297
 31
0.0
  0
LINE
  5
A8F2
100
AcDbEntity
  8
0
100
AcDbLine
 10
1535.979671
 20
1029.335297
 30
0.0
 11
1535.979671
 21
1020.335297
 31
0.0
  0
LINE
  5
A8F3
100
AcDbEntity
  8
0
100
AcDbLine
 10
1517.479671
 20
1040.757947
 30
0.0
 11
1518.479671
 21
1041.335297
 31
0.0
  0
LINE
  5
A8F4
100
AcDbEntity
  8
0
100
AcDbLine
 10
1534.479671
 20
1040.757947
 30
0.0
 11
1533.479671
 21
1041.335297
 31
0.0
  0
LINE
  5
A8F5
100
AcDbEntity
  8
0
100
AcDbLine
 10
1533.479671
 20
1041.335297
 30
0.0
 11
1518.479671
 21
1041.335297
 31
0.0
  0
ARC
  5
A8F6
100
AcDbEntity
  8
0
100
AcDbCircle
 10
1558.080332
 20
1018.117905
 30
0.0
 40
5.720504
100
AcDbArc
 50
57.999617
 51
122.000383
  0
LINE
  5
A8F7
100
AcDbEntity
  8
0
100
AcDbLine
 10
1556.982644
 20
1024.085297
 30
0.0
 11
1577.364894
 21
1024.085297
 31
0.0
  0
LINE
  5
A8F8
100
AcDbEntity
  8
0
100
AcDbLine
 10
1577.364894
 20
1024.085297
 30
0.0
 11
1579.297769
 21
1022.969147
 31
0.0
  0
ARC
  5
A8F9
100
AcDbEntity
  8
0
100
AcDbCircle
 10
1576.266332
 20
1018.117925
 30
0.0
 40
5.720487
100
AcDbArc
 50
57.999511
 51
122.000489
  0
ARC
  5
A8FA
100
AcDbEntity
  8
0
100
AcDbCircle
 10
1567.173332
 20
1002.266801
 30
0.0
 40
21.571502
100
AcDbArc
 50
73.680185
 51
106.319815
  0
LINE
  5
A8FB
100
AcDbEntity
  8
0
100
AcDbLine
 10
1555.049769
 20
1022.969147
 30
0.0
 11
1556.982644
 21
1024.085297
 31
0.0
  0
LINE
  5
A8FC
100
AcDbEntity
  8
0
100
AcDbLine
 10
1561.111769
 20
1022.969147
 30
0.0
 11
1561.111769
 21
1015.335297
 31
0.0
  0
LINE
  5
A8FD
100
AcDbEntity
  8
0
100
AcDbLine
 10
1573.234894
 20
1022.969147
 30
0.0
 11
1573.234894
 21
1015.335297
 31
0.0
  0
LINE
  5
A8FE
100
AcDbEntity
  8
0
100
AcDbLine
 10
1579.297769
 20
1022.969147
 30
0.0
 11
1579.297769
 21
1015.335297
 31
0.0
  0
LINE
  5
A8FF
100
AcDbEntity
  8
0
100
AcDbLine
 10
1555.049769
 20
1015.335297
 30
0.0
 11
1555.049769
 21
1022.969147
 31
0.0
  0
TEXT
  5
AECB
100
AcDbEntity
  8
0
100
AcDbText
 10
683.588066
 20
332.720935
 30
0.0
 40
17.5
  1
20A,25A
 72
     4
 11
736.921399
 21
339.804269
 31
0.0
100
AcDbText
  0
INSERT
  5
B328
100
AcDbEntity
  8
0
100
AcDbBlockReference
  2
YA
 10
629.521466
 20
547.767298
 30
0.0
 41
1.999215
 42
1.999215
 43
1.999215
  0
INSERT
  5
B329
100
AcDbEntity
  8
0
100
AcDbBlockReference
  2
YA
 10
634.521075
 20
758.624428
 30
0.0
 41
1.999215
 42
1.999215
 43
1.999215
  0
INSERT
  5
B32A
100
AcDbEntity
  8
0
100
AcDbBlockReference
  2
YA
 10
837.042482
 20
968.335297
 30
0.0
 41
-1.999215
 42
1.999215
 43
1.999215
  0
INSERT
  5
B338
100
AcDbEntity
  8
0
100
AcDbBlockReference
  2
YA
 10
1411.719359
 20
547.767298
 30
0.0
 41
1.999215
 42
1.999215
 43
1.999215
  0
INSERT
  5
B339
100
AcDbEntity
  8
0
100
AcDbBlockReference
  2
YA
 10
1416.718968
 20
758.624428
 30
0.0
 41
1.999215
 42
1.999215
 43
1.999215
  0
INSERT
  5
B33A
100
AcDbEntity
  8
0
100
AcDbBlockReference
  2
YA
 10
1624.240766
 20
968.335297
 30
0.0
 41
-1.999215
 42
1.999215
 43
1.999215
  0
CIRCLE
  5
B340
100
AcDbEntity
  8
0
100
AcDbCircle
 10
482.501809
 20
476.767298
 30
0.0
 40
12.0
  0
CIRCLE
  5
B341
100
AcDbEntity
  8
0
100
AcDbCircle
 10
1256.964485
 20
454.767298
 30
0.0
 40
12.0
  0
VIEWPORT
  5
41
100
AcDbEntity
 67
     1
  8
0
100
AcDbViewport
 10
117.358407
 20
73.5
 30
0.0
 40
234.716814
 41
147.0
 68
    -1
 69
     1
1001
ACAD
1000
MVIEW
1002
{
1070
    16
1010
0.0
1020
0.0
1030
0.0
1010
0.0
1020
0.0
1030
1.0
1040
0.0
1040
147.0
1040
117.358407
1040
73.5
1040
50.0
1040
0.0
1040
0.0
1070
     0
1070
   100
1070
     1
1070
     1
1070
     0
1070
     0
1070
     0
1070
     0
1040
0.0
1040
0.0
1040
0.0
1040
1.0
1040
1.0
1040
0.0
1040
0.0
1070
     0
1002
{
1002
}
1002
}
  0
ENDSEC
  0
SECTION
  2
OBJECTS
  0
DICTIONARY
  5
C
100
AcDbDictionary
  3
ACAD_GROUP
350
D
  3
ACAD_MLINESTYLE
350
E
  0
DICTIONARY
  5
D
102
{ACAD_REACTORS
330
C
102
}
100
AcDbDictionary
  0
DICTIONARY
  5
E
102
{ACAD_REACTORS
330
C
102
}
100
AcDbDictionary
  3
STANDARD
350
1B
  0
MLINESTYLE
  5
1B
102
{ACAD_REACTORS
330
E
102
}
100
AcDbMlineStyle
  2
STANDARD
 70
     0
  3

 62
     0
 51
90.0
 52
90.0
 71
     2
 49
0.5
 62
   256
  6
BYLAYER
 49
-0.5
 62
   256
  6
BYLAYER
  0
ENDSEC
  0
EOF
