  0
SECTION
  2
HEADER
  9
$ACADVER
  1
AC1009
  9
$INSBASE
 10
0.0
 20
0.0
 30
0.0
  9
$EXTMIN
 10
71.982425870353381
 20
27.970644888433981
 30
-0.0000000000247366
  9
$EXTMAX
 10
1636.0876503448089
 20
1128.0344265243441
 30
0.0000000000021507
  9
$LIMMIN
 10
0.0
 20
0.0
  9
$LIMMAX
 10
1680.0
 20
1188.0
  9
$ORTHOMODE
 70
     1
  9
$REGENMODE
 70
     1
  9
$FILLMODE
 70
     1
  9
$QTEXTMODE
 70
     0
  9
$MIRRTEXT
 70
     1
  9
$DRAGMODE
 70
     2
  9
$LTSCALE
 40
16.0
  9
$OSMODE
 70
   163
  9
$ATTMODE
 70
     1
  9
$TEXTSIZE
 40
16.0
  9
$TRACEWID
 40
0.05
  9
$TEXTSTYLE
  7
STANDARD
  9
$CLAYER
  8
0
  9
$CELTYPE
  6
BYLAYER
  9
$CECOLOR
 62
   256
  9
$DIMSCALE
 40
4.0
  9
$DIMASZ
 40
2.7999999999999989
  9
$DIMEXO
 40
1.0
  9
$DIMDLI
 40
5.0
  9
$DIMRND
 40
0.1
  9
$DIMDLE
 40
0.0
  9
$DIMEXE
 40
1.0
  9
$DIMTP
 40
0.0
  9
$DIMTM
 40
0.0
  9
$DIMTXT
 40
2.5
  9
$DIMCEN
 40
0.0
  9
$DIMTSZ
 40
0.0
  9
$DIMTOL
 70
     0
  9
$DIMLIM
 70
     0
  9
$DIMTIH
 70
     0
  9
$DIMTOH
 70
     0
  9
$DIMSE1
 70
     0
  9
$DIMSE2
 70
     0
  9
$DIMTAD
 70
     3
  9
$DIMZIN
 70
     8
  9
$DIMBLK
  1

  9
$DIMASO
 70
     1
  9
$DIMSHO
 70
     1
  9
$DIMPOST
  1

  9
$DIMAPOST
  1

  9
$DIMALT
 70
     0
  9
$DIMALTD
 70
     2
  9
$DIMALTF
 40
1.0
  9
$DIMLFAC
 40
1.0
  9
$DIMTOFL
 70
     1
  9
$DIMTVP
 40
0.0
  9
$DIMTIX
 70
     0
  9
$DIMSOXD
 70
     0
  9
$DIMSAH
 70
     1
  9
$DIMBLK1
  1
OPEN
  9
$DIMBLK2
  1
OPEN
  9
$DIMSTYLE
  2
DIM1
  9
$DIMCLRD
 70
     2
  9
$DIMCLRE
 70
     2
  9
$DIMCLRT
 70
     2
  9
$DIMTFAC
 40
0.7
  9
$DIMGAP
 40
0.85
  9
$LUNITS
 70
     2
  9
$LUPREC
 70
     4
  9
$SKETCHINC
 40
0.1
  9
$FILLETRAD
 40
2.0
  9
$AUNITS
 70
     0
  9
$AUPREC
 70
     0
  9
$MENU
  1
C:\ACADR13\WIN\SUPPORT\ACAD.mnc
  9
$ELEVATION
 40
0.0
  9
$PELEVATION
 40
0.0
  9
$THICKNESS
 40
0.0
  9
$LIMCHECK
 70
     0
  9
$BLIPMODE
 70
     0
  9
$CHAMFERA
 40
0.0
  9
$CHAMFERB
 40
0.0
  9
$SKPOLY
 70
     0
  9
$TDCREATE
 40
2453683.562213901
  9
$TDUPDATE
 40
2453693.3802186348
  9
$TDINDWG
 40
0.353566088
  9
$TDUSRTIMER
 40
0.353566088
  9
$USRTIMER
 70
     1
  9
$ANGBASE
 50
0.0
  9
$ANGDIR
 70
     0
  9
$PDMODE
 70
     0
  9
$PDSIZE
 40
0.0
  9
$PLINEWID
 40
0.0
  9
$COORDS
 70
     2
  9
$SPLFRAME
 70
     0
  9
$SPLINETYPE
 70
     6
  9
$SPLINESEGS
 70
     8
  9
$ATTDIA
 70
     0
  9
$ATTREQ
 70
     1
  9
$HANDLING
 70
     1
  9
$HANDSEED
  5
F63D
  9
$SURFTAB1
 70
     6
  9
$SURFTAB2
 70
     6
  9
$SURFTYPE
 70
     6
  9
$SURFU
 70
     6
  9
$SURFV
 70
     6
  9
$UCSNAME
  2

  9
$UCSORG
 10
0.0
 20
0.0
 30
0.0
  9
$UCSXDIR
 10
1.0
 20
0.0
 30
0.0
  9
$UCSYDIR
 10
0.0
 20
1.0
 30
0.0
  9
$PUCSNAME
  2

  9
$PUCSORG
 10
0.0
 20
0.0
 30
0.0
  9
$PUCSXDIR
 10
1.0
 20
0.0
 30
0.0
  9
$PUCSYDIR
 10
0.0
 20
1.0
 30
0.0
  9
$USERI1
 70
     0
  9
$USERI2
 70
     0
  9
$USERI3
 70
     0
  9
$USERI4
 70
     0
  9
$USERI5
 70
     0
  9
$USERR1
 40
0.0
  9
$USERR2
 40
0.0
  9
$USERR3
 40
0.0
  9
$USERR4
 40
0.0
  9
$USERR5
 40
0.0
  9
$WORLDVIEW
 70
     1
  9
$SHADEDGE
 70
     3
  9
$SHADEDIF
 70
    70
  9
$TILEMODE
 70
     1
  9
$MAXACTVP
 70
    16
  9
$PLIMCHECK
 70
     0
  9
$PEXTMIN
 10
1.0000000000000000E+020
 20
1.0000000000000000E+020
 30
1.0000000000000000E+020
  9
$PEXTMAX
 10
-1.0000000000000000E+020
 20
-1.0000000000000000E+020
 30
-1.0000000000000000E+020
  9
$PLIMMIN
 10
0.0
 20
0.0
  9
$PLIMMAX
 10
20.0
 20
147.0
  9
$UNITMODE
 70
     0
  9
$VISRETAIN
 70
     0
  9
$PLINEGEN
 70
     0
  9
$PSLTSCALE
 70
     1
  0
ENDSEC
  0
SECTION
  2
TABLES
  0
TABLE
  2
VPORT
 70
     4
  0
VPORT
  2
*ACTIVE
 70
     0
 10
0.0
 20
0.0
 11
1.0
 21
1.0
 12
840.0
 22
594.0
 13
0.0
 23
0.0
 14
1.0
 24
1.0
 15
0.0
 25
0.0
 16
0.0
 26
0.0
 36
1.0
 17
0.0
 27
0.0
 37
0.0
 40
1392.7174719470479
 41
1.2144808743169391
 42
50.0
 43
0.0
 44
0.0
 50
0.0
 51
0.0
 71
     0
 72
   100
 73
     1
 74
     1
 75
     0
 76
     0
 77
     0
 78
     0
  0
ENDTAB
  0
TABLE
  2
LTYPE
 70
     5
  0
LTYPE
  2
CONTINUOUS
 70
     0
  3
Solid line
 72
    65
 73
     0
 40
0.0
  0
ENDTAB
  0
TABLE
  2
LAYER
 70
    15
  0
LAYER
  2
0
 70
     0
 62
     7
  6
CONTINUOUS
  0
ENDTAB
  0
TABLE
  2
STYLE
 70
     3
  0
STYLE
  2
STANDARD
 70
     0
 40
0.0
 41
0.8
 50
0.0
 71
     0
 42
16.0
  3
simplex
  4
extfont
  0
STYLE
  2
PTSH
 70
     0
 40
0.0
 41
0.9
 50
0.0
 71
     0
 42
4.0
  3
SIMPLEX
  4
EXTFONT
  0
STYLE
  2
DIM
 70
     0
 40
0.0
 41
0.8
 50
0.0
 71
     0
 42
4.0
  3
simplex
  4
extfont
  0
ENDTAB
  0
TABLE
  2
VIEW
 70
     0
  0
ENDTAB
  0
TABLE
  2
UCS
 70
     0
  0
ENDTAB
  0
TABLE
  2
APPID
 70
     2
  0
APPID
  2
ACAD
 70
     0
  0
APPID
  2
ACAD_PSEXT
 70
     0
  0
ENDTAB
  0
TABLE
  2
DIMSTYLE
 70
     8
  0
DIMSTYLE
  2
DIM1
 70
     0
  3

  4

  5

  6
OPEN
  7
OPEN
 40
4.0
 41
2.7999999999999989
 42
1.0
 43
5.0
 44
1.0
 45
0.1
 46
0.0
 47
0.0
 48
0.0
140
2.5
141
0.0
142
0.0
143
1.0
144
1.0
145
0.0
146
0.7
147
0.85
 71
     0
 72
     0
 73
     0
 74
     0
 75
     0
 76
     0
 77
     3
 78
     8
170
     0
171
     2
172
     1
173
     1
174
     0
175
     0
176
     2
177
     2
178
     2
  0
ENDTAB
  0
ENDSEC
  0
SECTION
  2
BLOCKS
  0
BLOCK
  8
0
  2
$MODEL_SPACE
 70
     0
 10
0.0
 20
0.0
 30
0.0
  3
$MODEL_SPACE
  1

  0
ENDBLK
  5
3D
  8
0
  0
BLOCK
 67
     1
  8
0
  2
$PAPER_SPACE
 70
     0
 10
0.0
 20
0.0
 30
0.0
  3
$PAPER_SPACE
  1

  0
ENDBLK
  5
3B
 67
     1
  8
0
  0
BLOCK
  8
0
  2
_OPEN
 70
     0
 10
0.0
 20
0.0
 30
0.0
  3
_OPEN
  1
H1111.DWG
  0
LINE
  5
244A
  8
0
  6
BYBLOCK
 62
     0
 10
-1.0
 20
0.1666666666666666
 30
0.0
 11
0.0
 21
0.0
 31
0.0
  0
LINE
  5
244B
  8
0
  6
BYBLOCK
 62
     0
 10
0.0
 20
0.0
 30
0.0
 11
-1.0
 21
-0.1666666666666666
 31
0.0
  0
LINE
  5
244C
  8
0
  6
BYBLOCK
 62
     0
 10
0.0
 20
0.0
 30
0.0
 11
-1.0
 21
0.0
 31
0.0
  0
ENDBLK
  5
244D
  8
0
  0
BLOCK
  8
0
  2
DT-ARROW
 70
     0
 10
0.0
 20
0.0
 30
0.0
  3
DT-ARROW
  1

  0
LINE
  5
E6B8
  8
0
 10
-21.65100000000001
 20
-5.0
 30
0.0
 11
-50.0
 21
-5.0
 31
0.0
  0
LINE
  5
E6B9
  8
0
 10
-50.0
 20
5.0
 30
0.0
 11
-21.65100000000001
 21
5.0
 31
0.0
  0
LINE
  5
E6BA
  8
0
 10
-54.330100000000002
 20
-12.5
 30
0.0
 11
-100.0
 21
-12.5
 31
0.0
  0
LINE
  5
E6BB
  8
0
 10
-100.0
 20
12.5
 30
0.0
 11
-54.330100000000002
 21
12.5
 31
0.0
  0
LINE
  5
E6BC
  8
0
 10
-92.783199999999994
 20
0.0
 30
0.0
 11
-100.0
 21
12.5
 31
0.0
  0
LINE
  5
E6BD
  8
0
 10
-100.0
 20
-12.5
 30
0.0
 11
-92.783199999999994
 21
0.0
 31
0.0
  0
LINE
  5
E6BE
  8
0
 10
-54.330100000000002
 20
12.5
 30
0.0
 11
-50.0
 21
5.0
 31
0.0
  0
LINE
  5
E6BF
  8
0
 10
-50.0
 20
-5.0
 30
0.0
 11
-54.330100000000002
 21
-12.5
 31
0.0
  0
LINE
  5
E6C0
  8
0
 10
0.0
 20
0.0
 30
0.0
 11
-21.65100000000001
 21
-12.5
 31
0.0
  0
LINE
  5
E6C1
  8
0
 10
-21.65100000000001
 20
12.5
 30
0.0
 11
0.0
 21
0.0
 31
0.0
  0
LINE
  5
E6C2
  8
0
 10
-21.65100000000001
 20
5.0
 30
0.0
 11
-21.65100000000001
 21
12.5
 31
0.0
  0
LINE
  5
E6C3
  8
0
 10
-21.65100000000001
 20
-12.5
 30
0.0
 11
-21.65100000000001
 21
-5.0
 31
0.0
  0
ENDBLK
  5
E6C4
  8
0
  0
ENDSEC
  0
SECTION
  2
ENTITIES
  0
TEXT
  5
2529
  8
0
  6
CONTINUOUS
 10
1507.200000000001
 20
61.000000000000028
 30
0.0
 40
14.000000000000011
  1
J5S-X
 41
0.9
  7
PTSH
 72
     1
 11
1536.0
 21
68.000000000000028
 31
0.0
 73
     2
  0
POLYLINE
  5
2563
  8
0
 66
     1
 10
0.0
 20
0.0
 30
0.0
 70
     1
  0
VERTEX
  5
F2F0
  8
0
 10
72.000000000000014
 20
28.000000000000021
 30
0.0
  0
VERTEX
  5
F2F1
  8
0
 10
1636.0000000000009
 20
28.000000000000021
 30
0.0
  0
VERTEX
  5
F2F2
  8
0
 10
1636.0000000000009
 20
1128.0
 30
0.0
  0
VERTEX
  5
F2F3
  8
0
 10
72.000000000000014
 20
1128.0
 30
0.0
  0
SEQEND
  5
F2F4
  8
0
  0
TEXT
  5
AD05
  8
0
 10
761.00689621120671
 20
73.595728369523158
 30
0.0
 40
25.0
  1
TLV J5S-X (PT)
 41
0.8
 72
     4
 11
876.34022954453997
 21
84.310014083808881
 31
0.0
  0
TEXT
  5
AD06
  8
0
 10
383.60509656367958
 20
341.54196611197858
 30
0.0
 40
20.000000000000011
  1
20mm,25mm
 41
0.8
 72
     4
 11
460.55747751606049
 21
349.63720420721671
 31
0.0
  0
LINE
  5
E76A
  8
0
 10
400.69544593587591
 20
510.45930933705148
 30
0.0
 11
547.03859168638337
 21
510.45930933705171
 31
0.0
  0
LINE
  5
E76B
  8
0
 10
401.36701881112958
 20
478.45930933705148
 30
0.0
 11
413.36701881112958
 21
478.45930933705148
 31
0.0
  0
ARC
  5
E76C
  8
0
 10
401.36701881112958
 20
479.95930933705148
 30
0.0
 40
1.4999999999999989
 50
180.0
 51
270.0
  0
LINE
  5
E76D
  8
0
 10
401.36701881112958
 20
496.45930933705148
 30
0.0
 11
413.36701881112958
 21
496.45930933705148
 31
0.0
  0
ARC
  5
E76E
  8
0
 10
401.36701881112958
 20
494.95930933705148
 30
0.0
 40
1.4999999999999989
 50
90.0
 51
180.0
  0
LINE
  5
E76F
  8
0
 10
411.8670188111297
 20
498.45930933705148
 30
0.0
 11
465.86701881112958
 21
498.45930933705131
 31
0.0
  0
ARC
  5
E770
  8
0
 10
415.3670188111297
 20
496.45930933705148
 30
0.0
 40
1.9999999999999989
 50
0.0
 51
90.0
  0
LINE
  5
E771
  8
0
 10
465.8670188111297
 20
498.45930933705148
 30
0.0
 11
519.8670188111297
 21
498.45930933705148
 31
0.0
  0
ARC
  5
E772
  8
0
 10
516.36701881112958
 20
496.45930933705148
 30
0.0
 40
1.9999999999999989
 50
90.0
 51
180.0
  0
LINE
  5
E774
  8
0
 10
423.8670188111297
 20
429.89580101015503
 30
0.0
 11
423.8670188111297
 21
406.02281766394799
 31
0.0
  0
LINE
  5
E775
  8
0
 10
550.86701881112958
 20
507.45930933705171
 30
0.0
 11
550.86701881112958
 21
467.45930933705148
 31
0.0
  0
LINE
  5
E776
  8
0
 10
395.8670188111297
 20
507.45930933705148
 30
0.0
 11
395.86701881112958
 21
467.45930933705171
 31
0.0
  0
LINE
  5
E777
  8
0
 10
417.36701881112958
 20
496.45930933705148
 30
0.0
 11
417.36701881112958
 21
474.80207547710251
 31
0.0
  0
LINE
  5
E778
  8
0
 10
521.86701881112992
 20
510.45930933705171
 30
0.0
 11
521.86701881112958
 21
500.45930933705148
 31
0.0
  0
ARC
  5
E779
  8
0
 10
519.8670188111297
 20
500.45930933705148
 30
0.0
 40
1.9999999999999989
 50
270.0
 51
0.0
  0
ARC
  5
E77A
  8
0
 10
397.8670188111297
 20
511.45930933705148
 30
0.0
 40
2.9999999999999991
 50
270.0
 51
340.52877936550698
  0
LINE
  5
E77C
  8
0
 10
536.09054690140704
 20
449.3834174420121
 30
0.0
 11
547.12729253359225
 21
446.42607005136892
 31
0.0
  0
ARC
  5
E77D
  8
0
 10
536.8670188111297
 20
452.28119096204642
 30
0.0
 40
2.9999999999999991
 50
180.0
 51
254.99970787535861
  0
LINE
  5
E77E
  8
0
 10
498.25108302024898
 20
416.04101902842899
 30
0.0
 11
536.25689263914535
 21
405.85718534670099
 31
0.0
  0
LINE
  5
E77F
  8
0
 10
536.86926441501214
 20
406.21073627487812
 30
0.0
 11
536.25689263914535
 21
405.85718534670099
 31
0.0
  0
LINE
  5
E780
  8
0
 10
533.86701881112958
 20
452.28119096204642
 30
0.0
 11
533.86701881112958
 21
461.45930933705171
 31
0.0
  0
LINE
  5
E781
  8
0
 10
423.8670188111297
 20
461.45930933705148
 30
0.0
 11
423.8670188111297
 21
446.45930933705148
 31
0.0
  0
ARC
  5
E782
  8
0
 10
418.8670188111297
 20
461.45930933705148
 30
0.0
 40
4.9999999999999982
 50
0.0
 51
90.0
  0
LINE
  5
E783
  8
0
 10
549.86701881112958
 20
508.45930933705148
 30
0.0
 11
550.86701881112958
 21
507.45930933705171
 31
0.0
  0
LINE
  5
E784
  8
0
 10
549.86701881112958
 20
466.45930933705148
 30
0.0
 11
550.86701881112958
 21
467.45930933705148
 31
0.0
  0
LINE
  5
E785
  8
0
 10
549.86701881112958
 20
508.45930933705148
 30
0.0
 11
549.8670188111297
 21
508.45930933705131
 31
0.0
  0
ARC
  5
E786
  8
0
 10
549.8670188111297
 20
511.45930933705131
 30
0.0
 40
2.9999999999999991
 50
199.47122063448569
 51
270.0
  0
ARC
  5
E787
  8
0
 10
524.86701881112958
 20
511.45930933705148
 30
0.0
 40
2.9999999999999991
 50
199.47122063449291
 51
270.0
  0
LINE
  5
E788
  8
0
 10
409.8670188111297
 20
508.45930933705148
 30
0.0
 11
396.8670188111297
 21
508.45930933705148
 31
0.0
  0
LINE
  5
E789
  8
0
 10
395.8670188111297
 20
507.45930933705148
 30
0.0
 11
396.8670188111297
 21
508.45930933705148
 31
0.0
  0
LINE
  5
E78A
  8
0
 10
399.8670188111297
 20
494.95930933705148
 30
0.0
 11
399.8670188111297
 21
479.95930933705148
 31
0.0
  0
LINE
  5
E78B
  8
0
 10
414.8670188111297
 20
494.95930933705148
 30
0.0
 11
414.8670188111297
 21
479.95930933705148
 31
0.0
  0
ARC
  5
E78C
  8
0
 10
413.36701881112958
 20
479.95930933705148
 30
0.0
 40
1.4999999999999989
 50
270.0
 51
0.0
  0
ARC
  5
E78D
  8
0
 10
413.36701881112958
 20
494.95930933705148
 30
0.0
 40
1.4999999999999989
 50
0.0
 51
90.0
  0
LINE
  5
E78E
  8
0
 10
396.8670188111297
 20
466.45930933705148
 30
0.0
 11
418.8670188111297
 21
466.45930933705148
 31
0.0
  0
LINE
  5
E78F
  8
0
 10
395.86701881112958
 20
467.45930933705171
 30
0.0
 11
396.8670188111297
 21
466.45930933705148
 31
0.0
  0
LINE
  5
E790
  8
0
 10
538.8670188111297
 20
466.45930933705171
 30
0.0
 11
549.86701881112958
 21
466.45930933705148
 31
0.0
  0
ARC
  5
E791
  8
0
 10
538.8670188111297
 20
461.45930933705171
 30
0.0
 40
4.9999999999999982
 50
90.0
 51
180.0
  0
ARC
  5
E792
  8
0
 10
465.8670188111297
 20
446.45930933705148
 30
0.0
 40
41.999999999999979
 50
254.64111441918089
 51
0.0
  0
ARC
  5
E793
  8
0
 10
496.95696317071088
 20
411.21139649503863
 30
0.0
 40
4.9999999999999982
 50
74.999707875358581
 51
131.41346868724699
  0
ARC
  5
E794
  8
0
 10
465.8670188111297
 20
446.45930933705148
 30
0.0
 40
41.999999999999979
 50
180.0
 51
254.64111441918089
  0
ARC
  5
E795
  8
0
 10
424.32487153875098
 20
431.95930933705148
 30
0.0
 40
1.9999999999999989
 50
270.0
 51
19.241188763128861
  0
LINE
  5
E796
  8
0
 10
454.74272108048609
 20
405.95930933705148
 30
0.0
 11
424.3670188111297
 21
405.95930933705148
 31
0.0
  0
ARC
  5
E797
  8
0
 10
424.3670188111297
 20
407.95930933705148
 30
0.0
 40
1.9999999999999989
 50
255.5224878140705
 51
270.0
  0
LINE
  5
E799
  8
0
 10
424.32487153875093
 20
429.95930933705148
 30
0.0
 11
424.3670188111297
 21
429.95930933705148
 31
0.0
  0
ARC
  5
E79A
  8
0
 10
424.3670188111297
 20
427.95930933705148
 30
0.0
 40
1.9999999999999989
 50
90.0
 51
104.4775121859294
  0
LINE
  5
E79B
  8
0
 10
547.48084526436639
 20
445.8136951532947
 30
0.0
 11
536.86926441501203
 21
406.21073627487789
 31
0.0
  0
LINE
  5
E79C
  8
0
 10
547.12729253359225
 20
446.42607005136892
 30
0.0
 11
547.48084526436639
 21
445.8136951532947
 31
0.0
  0
LINE
  5
E79D
  8
0
 10
396.8670188111297
 20
508.45930933705148
 30
0.0
 11
396.8670188111297
 21
466.45930933705148
 31
0.0
  0
LINE
  5
E79E
  8
0
 10
549.86701881112958
 20
508.45930933705148
 30
0.0
 11
549.86701881112958
 21
466.45930933705148
 31
0.0
  0
LINE
  5
E79F
  8
0
 10
533.3670188111297
 20
478.45930933705148
 30
0.0
 11
545.3670188111297
 21
478.45930933705148
 31
0.0
  0
ARC
  5
E7A0
  8
0
 10
533.3670188111297
 20
479.95930933705148
 30
0.0
 40
1.4999999999999989
 50
180.0
 51
270.0
  0
LINE
  5
E7A1
  8
0
 10
533.3670188111297
 20
496.45930933705148
 30
0.0
 11
545.3670188111297
 21
496.45930933705148
 31
0.0
  0
ARC
  5
E7A2
  8
0
 10
533.3670188111297
 20
494.95930933705148
 30
0.0
 40
1.4999999999999989
 50
90.0
 51
180.0
  0
LINE
  5
E7A3
  8
0
 10
531.86701881112981
 20
494.95930933705148
 30
0.0
 11
531.86701881112981
 21
479.95930933705148
 31
0.0
  0
LINE
  5
E7A4
  8
0
 10
546.86701881112958
 20
494.95930933705148
 30
0.0
 11
546.86701881112958
 21
479.95930933705148
 31
0.0
  0
ARC
  5
E7A5
  8
0
 10
545.3670188111297
 20
479.95930933705148
 30
0.0
 40
1.4999999999999989
 50
270.0
 51
0.0
  0
ARC
  5
E7A6
  8
0
 10
545.3670188111297
 20
494.95930933705148
 30
0.0
 40
1.4999999999999989
 50
0.0
 51
90.0
  0
LINE
  5
E7A7
  8
0
 10
424.3670188111297
 20
467.80207547710251
 30
0.0
 11
507.36701881112958
 21
467.80207547710251
 31
0.0
  0
ARC
  5
E7A8
  8
0
 10
424.3670188111297
 20
474.80207547710251
 30
0.0
 40
6.9999999999999973
 50
180.0
 51
270.0
  0
LINE
  5
E7A9
  8
0
 10
514.36701881112947
 20
496.45930933705148
 30
0.0
 11
514.36701881112947
 21
474.80207547710251
 31
0.0
  0
ARC
  5
E7AA
  8
0
 10
507.36701881112958
 20
474.80207547710251
 30
0.0
 40
6.9999999999999973
 50
270.0
 51
0.0
  0
LINE
  5
E7AB
  8
0
 10
507.8670188111297
 20
467.81995545521818
 30
0.0
 11
507.8670188111297
 21
446.45930933705148
 31
0.0
  0
INSERT
  5
E7BD
  8
0
  2
DT-ARROW
 10
478.3670188111297
 20
460.45930933705148
 30
0.0
 41
0.2499999999999999
 42
0.2499999999999999
 43
0.2499999999999999
  0
LINE
  5
E7BE
  8
0
 10
409.8670188111297
 20
510.45930933705131
 30
0.0
 11
409.8670188111297
 21
500.45930933705148
 31
0.0
  0
ARC
  5
E7BF
  8
0
 10
411.8670188111297
 20
500.45930933705148
 30
0.0
 40
1.9999999999999989
 50
180.0
 51
270.0
  0
LINE
  5
E7C1
  8
0
 10
547.12729253359225
 20
446.42607005136892
 30
0.0
 11
536.25668579747366
 21
405.8572407708902
 31
0.0
  0
LINE
  5
E804
  8
0
 10
524.86701881112958
 20
508.45930933705148
 30
0.0
 11
549.86701881112958
 21
508.45930933705131
 31
0.0
  0
LINE
  5
E8F4
  8
0
 10
521.76033317475458
 20
659.27214240581031
 30
0.0
 11
476.06505783831523
 21
659.27214240581031
 31
0.0
  0
LINE
  5
E8F5
  8
0
 10
521.76033317475469
 20
675.27214240581031
 30
0.0
 11
476.06505783831523
 21
675.27214240581031
 31
0.0
  0
LINE
  5
E8F6
  8
0
 10
506.78806050513981
 20
613.27214240581031
 30
0.0
 11
424.94597711711918
 21
613.27214240581031
 31
0.0
  0
LINE
  5
E8F7
  8
0
 10
506.78806050513998
 20
721.27214240581031
 30
0.0
 11
424.9459771171193
 21
721.27214240581031
 31
0.0
  0
ARC
  5
E904
  8
0
 10
221.8670188111297
 20
667.27214240581031
 30
0.0
 40
300.0
 50
351.61446135291698
 51
351.90869271399202
  0
ARC
  5
E905
  8
0
 10
506.78806050513998
 20
625.27214240581031
 30
0.0
 40
12.0
 50
270.0
 51
351.61446135291698
  0
ARC
  5
E906
  8
0
 10
506.78806050513998
 20
709.27214240581031
 30
0.0
 40
12.0
 50
8.3855386470797821
 51
89.999999999999986
  0
ARC
  5
E907
  8
0
 10
709.86701881112981
 20
667.27214240581031
 30
0.0
 40
300.0
 50
171.61446135291689
 51
171.90869271399191
  0
ARC
  5
E908
  8
0
 10
424.9459771171193
 20
625.27214240581031
 30
0.0
 40
12.0
 50
188.38553864707981
 51
270.0
  0
ARC
  5
E909
  8
0
 10
424.9459771171193
 20
709.27214240581031
 30
0.0
 40
12.0
 50
89.999999999999986
 51
171.61446135292019
  0
INSERT
  5
E91C
  8
0
  2
DT-ARROW
 10
475.86701881112958
 20
624.27214240581031
 30
0.0
 41
0.2000000000000455
 42
0.2000000000000455
 43
0.2
  0
CIRCLE
  5
E963
  8
0
 10
465.8670188111297
 20
667.27214240581031
 30
0.0
 40
12.0
  0
ARC
  5
E965
  8
0
 10
476.06505783831523
 20
656.27214240581031
 30
0.0
 40
3.0
 50
89.999999999999986
 51
132.83342806606601
  0
ARC
  5
E966
  8
0
 10
476.06505783831523
 20
678.2721424058102
 30
0.0
 40
3.0
 50
227.16657193393391
 51
270.0
  0
LINE
  5
E9CA
  8
0
 10
521.86701881112981
 20
534.45930933705165
 30
0.0
 11
521.86701881112947
 21
511.45930933705159
 31
0.0
  0
ARC
  5
E9CB
  8
0
 10
519.8670188111297
 20
534.45930933705165
 30
0.0
 40
2.0
 50
0.0
 51
89.999999999999986
  0
ARC
  5
E9CC
  8
0
 10
519.8670188111297
 20
511.45930933705159
 30
0.0
 40
2.0
 50
329.99999999999937
 51
0.0
  0
LINE
  5
E9CD
  8
0
 10
475.86701881112958
 20
545.45930933705165
 30
0.0
 11
455.86701881112958
 21
545.45930933705165
 31
0.0
  0
LINE
  5
E9CE
  8
0
 10
519.8670188111297
 20
536.45930933705165
 30
0.0
 11
479.86701881112958
 21
536.45930933705142
 31
0.0
  0
ARC
  5
E9CF
  8
0
 10
479.86701881112958
 20
538.45930933705142
 30
0.0
 40
2.0
 50
180.0
 51
270.0
  0
ARC
  5
E9D0
  8
0
 10
448.8670188111297
 20
527.45930933705154
 30
0.0
 40
5.0
 50
270.0
 51
0.0
  0
LINE
  5
E9D1
  8
0
 10
409.86701881112958
 20
520.45930933705165
 30
0.0
 11
409.86701881112958
 21
511.45930933705159
 31
0.0
  0
ARC
  5
E9D2
  8
0
 10
411.8670188111297
 20
520.45930933705154
 30
0.0
 40
2.0
 50
89.999999999999986
 51
180.0
  0
ARC
  5
E9D3
  8
0
 10
411.8670188111297
 20
511.45930933705148
 30
0.0
 40
2.0
 50
180.0
 51
210.00000000000051
  0
LINE
  5
E9D4
  8
0
 10
453.86701881112958
 20
543.45930933705165
 30
0.0
 11
453.86701881112958
 21
527.45930933705165
 31
0.0
  0
LINE
  5
E9D5
  8
0
 10
455.86701881112958
 20
545.45930933705165
 30
0.0
 11
453.86701881112958
 21
543.45930933705165
 31
0.0
  0
LINE
  5
E9D6
  8
0
 10
477.86701881112958
 20
543.45930933705165
 30
0.0
 11
477.86701881112958
 21
527.45930933705154
 31
0.0
  0
LINE
  5
E9D7
  8
0
 10
475.86701881112958
 20
545.45930933705165
 30
0.0
 11
477.86701881112958
 21
543.45930933705165
 31
0.0
  0
LINE
  5
E9D8
  8
0
 10
521.86701881112958
 20
522.45930933705176
 30
0.0
 11
411.86701881112958
 21
522.45930933705165
 31
0.0
  0
LINE
  5
E9D9
  8
0
 10
410.13496800356091
 20
510.45930933705148
 30
0.0
 11
521.59906961869854
 21
510.45930933705171
 31
0.0
  0
ARC
  5
E9DA
  8
0
 10
482.86701881112958
 20
527.45930933705154
 30
0.0
 40
5.0
 50
180.0
 51
270.0
  0
LINE
  5
EBF0
  8
0
 10
542.23710145381278
 20
417.36112293187813
 30
0.0
 11
549.38688442000444
 21
415.44534436002931
 31
0.0
  0
LINE
  5
EBF1
  8
0
 10
549.38688442000444
 20
415.44534436002931
 30
0.0
 11
548.36610210612002
 21
411.63573290114522
 31
0.0
  0
LINE
  5
EBF2
  8
0
 10
548.36610210612002
 20
411.63573290114522
 30
0.0
 11
541.21631913992826
 21
413.55151147299398
 31
0.0
  0
LINE
  5
EBF3
  8
0
 10
557.58832523890555
 20
441.03458759803971
 30
0.0
 11
556.91593044203671
 21
443.5441266467783
 31
0.0
  0
LINE
  5
EBF4
  8
0
 10
556.91593044203671
 20
443.5441266467783
 30
0.0
 11
549.76614747584495
 21
445.45990521862723
 31
0.0
  0
LINE
  5
EBF5
  8
0
 10
549.76614747584495
 20
445.45990521862723
 30
0.0
 11
547.92906697601484
 21
443.62277804906478
 31
0.0
  0
LINE
  5
EBF6
  8
0
 10
547.92906697601688
 20
443.62277804906711
 30
0.0
 11
538.35289171674413
 21
407.88400543928259
 31
0.0
  0
LINE
  5
EBF7
  8
0
 10
538.35289171674413
 20
407.88400543928259
 30
0.0
 11
539.02528651361285
 21
405.374466390544
 31
0.0
  0
LINE
  5
EBF8
  8
0
 10
539.02528651361285
 20
405.374466390544
 30
0.0
 11
546.17506947980473
 21
403.45868781869518
 31
0.0
  0
LINE
  5
EBF9
  8
0
 10
546.17506947980473
 20
403.45868781869518
 30
0.0
 11
548.01214997963484
 21
405.29581498825752
 31
0.0
  0
LINE
  5
EBFA
  8
0
 10
548.01214997963484
 20
405.29581498825752
 30
0.0
 11
557.58832523890555
 21
441.03458759803971
 31
0.0
  0
ARC
  5
EBFC
  8
0
 10
538.66126229345923
 20
409.85407163899021
 30
0.0
 40
9.8670275484803067
 50
319.59720228553488
 51
10.40279771446655
  0
LINE
  5
EBFD
  8
0
 10
546.55420312612273
 20
433.47276571437988
 30
0.0
 11
553.70398609231427
 21
431.55698714253111
 31
0.0
  0
LINE
  5
EBFE
  8
0
 10
553.70398609231427
 20
431.55698714253111
 30
0.0
 11
554.72476840619868
 21
435.36659860141521
 31
0.0
  0
LINE
  5
EBFF
  8
0
 10
554.72476840619868
 20
435.36659860141521
 30
0.0
 11
547.57498544000714
 21
437.28237717326402
 31
0.0
  0
ARC
  5
EC00
  8
0
 10
547.2109612198534
 20
441.76198242171051
 30
0.0
 40
9.8670275484803067
 50
319.59720228553351
 51
10.4027977144651
  0
ARC
  5
EC01
  8
0
 10
516.79362925316263
 20
432.81288410530618
 30
0.0
 40
36.931716981134642
 50
331.9487713334932
 51
358.05122866650697
  0
LINE
  5
EC02
  8
0
 10
542.23710145381278
 20
417.36112293187813
 30
0.0
 11
541.21631913992826
 21
413.55151147299398
 31
0.0
  0
ARC
  5
EC03
  8
0
 10
548.73012632627365
 20
407.15612765269879
 30
0.0
 40
9.8670275484803067
 50
139.5972022855334
 51
190.40279771446501
  0
LINE
  5
EC04
  8
0
 10
546.55420312612273
 20
433.47276571437988
 30
0.0
 11
547.57498544000714
 21
437.28237717326402
 31
0.0
  0
ARC
  5
EC05
  8
0
 10
557.27982525266793
 20
439.06403843541909
 30
0.0
 40
9.8670275484803067
 50
139.59720228553491
 51
190.40279771446649
  0
ARC
  5
EC06
  8
0
 10
579.14745829296453
 20
416.105225969103
 30
0.0
 40
36.931716981134642
 50
151.948771333493
 51
178.0512286665068
  0
LINE
  5
EC08
  8
0
 10
538.35289171674413
 20
407.88400543928259
 30
0.0
 11
537.38696589045514
 21
408.14282448438502
 31
0.0
  0
LINE
  5
EC09
  8
0
 10
547.92906697601484
 20
443.62277804906478
 30
0.0
 11
546.96314114972552
 21
443.88159709416738
 31
0.0
  0
LINE
  5
EC96
  8
0
 10
613.87345746584435
 20
495.45930933705148
 30
0.0
 11
613.87345746584435
 21
479.45930933705148
 31
0.0
  0
ARC
  5
EC97
  8
0
 10
608.87345746584435
 20
493.45930933705148
 30
0.0
 40
5.0
 50
0.0
 51
90.0
  0
LINE
  5
EC9B
  8
0
 10
586.37345746584435
 20
495.45930933705142
 30
0.0
 11
586.37345746584435
 21
475.45930933705148
 31
0.0
  0
ARC
  5
EC9D
  8
0
 10
584.20024504116429
 20
496.17716772059788
 30
0.0
 40
2.288705507838829
 50
341.7205096693375
 51
85.659625382623332
  0
ARC
  5
ECA0
  8
0
 10
593.37345746584435
 20
475.45930933705148
 30
0.0
 40
7.0
 50
180.0
 51
242.7203872640242
  0
ARC
  5
ECA1
  8
0
 10
587.87345746584435
 20
464.79394483320073
 30
0.0
 40
5.0
 50
0.0
 51
62.720387264024211
  0
LINE
  5
ECA3
  8
0
 10
592.87345746584435
 20
446.45930933705148
 30
0.0
 11
592.87345746584435
 21
464.79394483320061
 31
0.0
  0
LINE
  5
ECA8
  8
0
 10
580.87345746584435
 20
509.4593093370512
 30
0.0
 11
580.87345746584435
 21
500.4593093370512
 31
0.0
  0
ARC
  5
ECA9
  8
0
 10
583.37345746584435
 20
509.4593093370512
 30
0.0
 40
2.5
 50
156.42182152179279
 51
180.0
  0
LINE
  5
ECAE
  8
0
 10
582.87345746584447
 20
498.45930933705131
 30
0.0
 11
608.87345746584435
 21
498.45930933705148
 31
0.0
  0
ARC
  5
ECAF
  8
0
 10
582.87345746584447
 20
500.4593093370512
 30
0.0
 40
2.0
 50
180.0
 51
270.0
  0
LINE
  5
ECBC
  8
0
 10
614.87345746584435
 20
478.45930933705148
 30
0.0
 11
615.89979150483418
 21
478.45930933705148
 31
0.0
  0
ARC
  5
ECBD
  8
0
 10
614.87345746584435
 20
479.45930933705148
 30
0.0
 40
1.0
 50
180.0
 51
269.99999999999682
  0
LINE
  5
ECBE
  8
0
 10
614.87345746584435
 20
496.45930933705148
 30
0.0
 11
615.89979150483418
 21
496.45930933705148
 31
0.0
  0
ARC
  5
ECBF
  8
0
 10
614.87345746584435
 20
495.45930933705148
 30
0.0
 40
1.0
 50
90.0
 51
180.0
  0
LINE
  5
ECC6
  8
0
 10
683.37345746584447
 20
495.45930933705148
 30
0.0
 11
683.37345746584447
 21
475.45930933705148
 31
0.0
  0
ARC
  5
ECC7
  8
0
 10
686.37345746584435
 20
495.45930933705148
 30
0.0
 40
3.0
 50
90.0
 51
180.0
  0
ARC
  5
ECCA
  8
0
 10
676.37345746584435
 20
475.45930933705148
 30
0.0
 40
7.0
 50
290.48731511472141
 51
0.0
  0
ARC
  5
ECCB
  8
0
 10
679.87345746584435
 20
466.09181233945378
 30
0.0
 40
3.0
 50
110.4873151147245
 51
180.0
  0
LINE
  5
ECCD
  8
0
 10
676.87345746584435
 20
446.45930933705148
 30
0.0
 11
676.87345746584435
 21
466.09181233945372
 31
0.0
  0
LINE
  5
ECD2
  8
0
 10
688.87345746584435
 20
509.4593093370512
 30
0.0
 11
688.87345746584424
 21
500.45930933705142
 31
0.0
  0
ARC
  5
ECD3
  8
0
 10
686.37345746584435
 20
509.45930933705142
 30
0.0
 40
2.5
 50
0.0
 51
23.57817847820715
  0
ARC
  5
ECD4
  8
0
 10
686.87345746584424
 20
500.45930933705142
 30
0.0
 40
2.0
 50
270.0
 51
0.0
  0
LINE
  5
ECD9
  8
0
 10
686.87345746584424
 20
498.45930933705142
 30
0.0
 11
686.37345746584435
 21
498.45930933705148
 31
0.0
  0
LINE
  5
ECED
  8
0
 10
581.08216961836649
 20
510.45930933705142
 30
0.0
 11
688.66474531332233
 21
510.45930933705142
 31
0.0
  0
CIRCLE
  5
ED22
  8
0
 10
634.87345746584435
 20
487.45930933705148
 30
0.0
 40
21.0
  0
LINE
  5
ED23
  8
0
 10
591.86734655158762
 20
467.80207547710251
 30
0.0
 11
613.87345746584435
 21
467.80207547710268
 31
0.0
  0
LINE
  5
ED2B
  8
0
 10
655.87345746584435
 20
495.45930933705148
 30
0.0
 11
655.87345746584435
 21
479.45930933705148
 31
0.0
  0
ARC
  5
ED2C
  8
0
 10
660.87345746584435
 20
493.45930933705148
 30
0.0
 40
5.0
 50
90.0
 51
180.0
  0
LINE
  5
ED2D
  8
0
 10
686.87345746584447
 20
498.45930933705131
 30
0.0
 11
660.87345746584435
 21
498.45930933705148
 31
0.0
  0
LINE
  5
ED2E
  8
0
 10
654.87345746584435
 20
478.45930933705148
 30
0.0
 11
653.84712342685475
 21
478.45930933705148
 31
0.0
  0
ARC
  5
ED2F
  8
0
 10
654.87345746584435
 20
479.45930933705148
 30
0.0
 40
1.0
 50
270.0000000000033
 51
0.000000000000007
  0
LINE
  5
ED30
  8
0
 10
654.87345746584435
 20
496.45930933705148
 30
0.0
 11
653.84712342685475
 21
496.45930933705148
 31
0.0
  0
ARC
  5
ED31
  8
0
 10
654.87345746584435
 20
495.45930933705148
 30
0.0
 40
1.0
 50
0.000000000000007
 51
90.0
  0
LINE
  5
ED32
  8
0
 10
655.87345746584435
 20
467.80207547710268
 30
0.0
 11
677.40870595707099
 21
467.80207547710251
 31
0.0
  0
LINE
  5
ED37
  8
0
 10
556.91593044203671
 20
443.5441266467783
 30
0.0
 11
546.17506947980473
 21
403.45868781869518
 31
0.0
  0
LINE
  5
ED3C
  8
0
 10
632.59645746584442
 20
443.5441266467783
 30
0.0
 11
618.15045746584417
 21
435.36659860141521
 31
0.0
  0
LINE
  5
ED3D
  8
0
 10
618.15045746584417
 20
435.36659860141521
 30
0.0
 11
615.87345746584435
 21
431.55698714253077
 31
0.0
  0
LINE
  5
ED40
  8
0
 10
615.87345746584435
 20
415.44534436002931
 30
0.0
 11
618.15045746584417
 21
411.63573290114499
 31
0.0
  0
LINE
  5
ED41
  8
0
 10
618.15045746584417
 20
411.63573290114499
 30
0.0
 11
623.78814353310895
 21
408.85917244309348
 31
0.0
  0
LINE
  5
ED42
  8
0
 10
637.15045746584451
 20
443.5441266467783
 30
0.0
 11
651.59645746584442
 21
435.36659860141521
 31
0.0
  0
LINE
  5
ED43
  8
0
 10
651.59645746584442
 20
435.36659860141521
 30
0.0
 11
653.87345746584447
 21
431.55698714253077
 31
0.0
  0
LINE
  5
ED44
  8
0
 10
653.87345746584447
 20
415.44534436002931
 30
0.0
 11
651.59645746584442
 21
411.63573290114499
 31
0.0
  0
LINE
  5
ED45
  8
0
 10
651.59645746584442
 20
411.63573290114499
 30
0.0
 11
645.95877139857998
 21
408.85917244309348
 31
0.0
  0
LINE
  5
ED46
  8
0
 10
653.87345746584447
 20
433.47276571437931
 30
0.0
 11
653.87345746584447
 21
415.44534436002942
 31
0.0
  0
LINE
  5
ED47
  8
0
 10
615.87345746584435
 20
433.47276571437959
 30
0.0
 11
615.87345746584435
 21
415.44534436002942
 31
0.0
  0
LINE
  5
ED49
  8
0
 10
632.59645746584431
 20
445.45990521862723
 30
0.0
 11
618.15045746584417
 21
437.28237717326402
 31
0.0
  0
LINE
  5
ED4A
  8
0
 10
618.15045746584417
 20
437.28237717326402
 30
0.0
 11
615.87345746584424
 21
433.47276571437959
 31
0.0
  0
LINE
  5
ED4B
  8
0
 10
637.1504574658444
 20
445.45990521862723
 30
0.0
 11
651.59645746584442
 21
437.28237717326402
 31
0.0
  0
LINE
  5
ED4C
  8
0
 10
651.59645746584442
 20
437.28237717326402
 30
0.0
 11
653.87345746584447
 21
433.47276571437959
 31
0.0
  0
LINE
  5
ED4D
  8
0
 10
618.15045746584417
 20
437.28237717326402
 30
0.0
 11
618.15045746584417
 21
435.36659860141521
 31
0.0
  0
LINE
  5
ED4E
  8
0
 10
651.59645746584442
 20
437.28237717326402
 30
0.0
 11
651.59645746584442
 21
435.36659860141521
 31
0.0
  0
LINE
  5
ED4F
  8
0
 10
637.1504574658444
 20
445.45990521862723
 30
0.0
 11
637.15045746584451
 21
443.5441266467783
 31
0.0
  0
LINE
  5
ED50
  8
0
 10
632.59645746584431
 20
445.45990521862723
 30
0.0
 11
632.59645746584442
 21
443.5441266467783
 31
0.0
  0
LINE
  5
ED51
  8
0
 10
632.59645746584431
 20
445.45990521862723
 30
0.0
 11
637.1504574658444
 21
445.45990521862723
 31
0.0
  0
LINE
  5
ED52
  8
0
 10
637.15045746584451
 20
443.5441266467783
 30
0.0
 11
632.59645746584442
 21
443.54412664677818
 31
0.0
  0
POLYLINE
  5
ED58
  8
0
 10
616.3737074658444
 20
423.16520129314853
 30
0.0
 66
     1
 70
     8
  0
VERTEX
  8
0
  5
F331
 10
616.374
 20
423.165
 30
0.000000
  70
    32
  0
VERTEX
  8
0
  5
F332
 10
616.396
 20
422.288
 30
0.000000
  70
    32
  0
VERTEX
  8
0
  5
F333
 10
616.463
 20
421.414
 30
0.000000
  70
    32
  0
VERTEX
  8
0
  5
F334
 10
616.574
 20
420.543
 30
0.000000
  70
    32
  0
VERTEX
  8
0
  5
F335
 10
616.729
 20
419.679
 30
0.000000
  70
    32
  0
VERTEX
  8
0
  5
F336
 10
616.928
 20
418.823
 30
0.000000
  70
    32
  0
VERTEX
  8
0
  5
F337
 10
617.170
 20
417.978
 30
0.000000
  70
    32
  0
VERTEX
  8
0
  5
F338
 10
617.455
 20
417.145
 30
0.000000
  70
    32
  0
VERTEX
  8
0
  5
F339
 10
617.782
 20
416.327
 30
0.000000
  70
    32
  0
VERTEX
  8
0
  5
F33A
 10
618.150
 20
415.525
 30
0.000000
  70
    32
  0
VERTEX
  8
0
  5
F33B
 10
618.558
 20
414.742
 30
0.000000
  70
    32
  0
VERTEX
  8
0
  5
F33C
 10
619.006
 20
413.979
 30
0.000000
  70
    32
  0
VERTEX
  8
0
  5
F33D
 10
619.491
 20
413.238
 30
0.000000
  70
    32
  0
VERTEX
  8
0
  5
F33E
 10
620.014
 20
412.520
 30
0.000000
  70
    32
  0
VERTEX
  8
0
  5
F33F
 10
620.573
 20
411.829
 30
0.000000
  70
    32
  0
VERTEX
  8
0
  5
F340
 10
621.166
 20
411.165
 30
0.000000
  70
    32
  0
VERTEX
  8
0
  5
F341
 10
621.792
 20
410.530
 30
0.000000
  70
    32
  0
VERTEX
  8
0
  5
F342
 10
622.450
 20
409.925
 30
0.000000
  70
    32
  0
VERTEX
  8
0
  5
F343
 10
623.137
 20
409.352
 30
0.000000
  70
    32
  0
VERTEX
  8
0
  5
F344
 10
623.853
 20
408.812
 30
0.000000
  70
    32
  0
VERTEX
  8
0
  5
F345
 10
624.596
 20
408.307
 30
0.000000
  70
    32
  0
VERTEX
  8
0
  5
F346
 10
625.363
 20
407.838
 30
0.000000
  70
    32
  0
VERTEX
  8
0
  5
F347
 10
626.153
 20
407.406
 30
0.000000
  70
    32
  0
VERTEX
  8
0
  5
F348
 10
626.964
 20
407.011
 30
0.000000
  70
    32
  0
VERTEX
  8
0
  5
F349
 10
627.794
 20
406.656
 30
0.000000
  70
    32
  0
VERTEX
  8
0
  5
F34A
 10
628.641
 20
406.340
 30
0.000000
  70
    32
  0
VERTEX
  8
0
  5
F34B
 10
629.503
 20
406.065
 30
0.000000
  70
    32
  0
VERTEX
  8
0
  5
F34C
 10
630.378
 20
405.831
 30
0.000000
  70
    32
  0
VERTEX
  8
0
  5
F34D
 10
631.264
 20
405.639
 30
0.000000
  70
    32
  0
VERTEX
  8
0
  5
F34E
 10
632.159
 20
405.489
 30
0.000000
  70
    32
  0
VERTEX
  8
0
  5
F34F
 10
633.060
 20
405.382
 30
0.000000
  70
    32
  0
VERTEX
  8
0
  5
F350
 10
633.966
 20
405.317
 30
0.000000
  70
    32
  0
VERTEX
  8
0
  5
F351
 10
634.873
 20
405.296
 30
0.000000
  70
    32
  0
VERTEX
  8
0
  5
F352
 10
635.781
 20
405.317
 30
0.000000
  70
    32
  0
VERTEX
  8
0
  5
F353
 10
636.687
 20
405.382
 30
0.000000
  70
    32
  0
VERTEX
  8
0
  5
F354
 10
637.588
 20
405.489
 30
0.000000
  70
    32
  0
VERTEX
  8
0
  5
F355
 10
638.483
 20
405.639
 30
0.000000
  70
    32
  0
VERTEX
  8
0
  5
F356
 10
639.369
 20
405.831
 30
0.000000
  70
    32
  0
VERTEX
  8
0
  5
F357
 10
640.244
 20
406.065
 30
0.000000
  70
    32
  0
VERTEX
  8
0
  5
F358
 10
641.106
 20
406.340
 30
0.000000
  70
    32
  0
VERTEX
  8
0
  5
F359
 10
641.953
 20
406.656
 30
0.000000
  70
    32
  0
VERTEX
  8
0
  5
F35A
 10
642.783
 20
407.011
 30
0.000000
  70
    32
  0
VERTEX
  8
0
  5
F35B
 10
643.594
 20
407.406
 30
0.000000
  70
    32
  0
VERTEX
  8
0
  5
F35C
 10
644.384
 20
407.838
 30
0.000000
  70
    32
  0
VERTEX
  8
0
  5
F35D
 10
645.151
 20
408.307
 30
0.000000
  70
    32
  0
VERTEX
  8
0
  5
F35E
 10
645.894
 20
408.812
 30
0.000000
  70
    32
  0
VERTEX
  8
0
  5
F35F
 10
646.610
 20
409.352
 30
0.000000
  70
    32
  0
VERTEX
  8
0
  5
F360
 10
647.297
 20
409.925
 30
0.000000
  70
    32
  0
VERTEX
  8
0
  5
F361
 10
647.955
 20
410.530
 30
0.000000
  70
    32
  0
VERTEX
  8
0
  5
F362
 10
648.581
 20
411.165
 30
0.000000
  70
    32
  0
VERTEX
  8
0
  5
F363
 10
649.174
 20
411.829
 30
0.000000
  70
    32
  0
VERTEX
  8
0
  5
F364
 10
649.733
 20
412.520
 30
0.000000
  70
    32
  0
VERTEX
  8
0
  5
F365
 10
650.255
 20
413.238
 30
0.000000
  70
    32
  0
VERTEX
  8
0
  5
F366
 10
650.741
 20
413.979
 30
0.000000
  70
    32
  0
VERTEX
  8
0
  5
F367
 10
651.189
 20
414.742
 30
0.000000
  70
    32
  0
VERTEX
  8
0
  5
F368
 10
651.597
 20
415.525
 30
0.000000
  70
    32
  0
VERTEX
  8
0
  5
F369
 10
651.965
 20
416.327
 30
0.000000
  70
    32
  0
VERTEX
  8
0
  5
F36A
 10
652.292
 20
417.145
 30
0.000000
  70
    32
  0
VERTEX
  8
0
  5
F36B
 10
652.577
 20
417.978
 30
0.000000
  70
    32
  0
VERTEX
  8
0
  5
F36C
 10
652.819
 20
418.823
 30
0.000000
  70
    32
  0
VERTEX
  8
0
  5
F36D
 10
653.018
 20
419.679
 30
0.000000
  70
    32
  0
VERTEX
  8
0
  5
F36E
 10
653.173
 20
420.543
 30
0.000000
  70
    32
  0
VERTEX
  8
0
  5
F36F
 10
653.284
 20
421.414
 30
0.000000
  70
    32
  0
VERTEX
  8
0
  5
F370
 10
653.351
 20
422.288
 30
0.000000
  70
    32
  0
VERTEX
  8
0
  5
F371
 10
653.373
 20
423.165
 30
0.000000
  70
    32
  0
VERTEX
  8
0
  5
F372
 10
653.351
 20
424.042
 30
0.000000
  70
    32
  0
VERTEX
  8
0
  5
F373
 10
653.284
 20
424.917
 30
0.000000
  70
    32
  0
VERTEX
  8
0
  5
F374
 10
653.173
 20
425.787
 30
0.000000
  70
    32
  0
VERTEX
  8
0
  5
F375
 10
653.018
 20
426.651
 30
0.000000
  70
    32
  0
VERTEX
  8
0
  5
F376
 10
652.819
 20
427.507
 30
0.000000
  70
    32
  0
VERTEX
  8
0
  5
F377
 10
652.577
 20
428.352
 30
0.000000
  70
    32
  0
VERTEX
  8
0
  5
F378
 10
652.292
 20
429.185
 30
0.000000
  70
    32
  0
VERTEX
  8
0
  5
F379
 10
651.965
 20
430.004
 30
0.000000
  70
    32
  0
VERTEX
  8
0
  5
F37A
 10
651.597
 20
430.805
 30
0.000000
  70
    32
  0
VERTEX
  8
0
  5
F37B
 10
651.189
 20
431.589
 30
0.000000
  70
    32
  0
VERTEX
  8
0
  5
F37C
 10
650.741
 20
432.352
 30
0.000000
  70
    32
  0
VERTEX
  8
0
  5
F37D
 10
650.255
 20
433.093
 30
0.000000
  70
    32
  0
VERTEX
  8
0
  5
F37E
 10
649.733
 20
433.810
 30
0.000000
  70
    32
  0
VERTEX
  8
0
  5
F37F
 10
649.174
 20
434.501
 30
0.000000
  70
    32
  0
VERTEX
  8
0
  5
F380
 10
648.581
 20
435.166
 30
0.000000
  70
    32
  0
VERTEX
  8
0
  5
F381
 10
647.955
 20
435.801
 30
0.000000
  70
    32
  0
VERTEX
  8
0
  5
F382
 10
647.297
 20
436.406
 30
0.000000
  70
    32
  0
VERTEX
  8
0
  5
F383
 10
646.610
 20
436.978
 30
0.000000
  70
    32
  0
VERTEX
  8
0
  5
F384
 10
645.894
 20
437.518
 30
0.000000
  70
    32
  0
VERTEX
  8
0
  5
F385
 10
645.151
 20
438.023
 30
0.000000
  70
    32
  0
VERTEX
  8
0
  5
F386
 10
644.384
 20
438.492
 30
0.000000
  70
    32
  0
VERTEX
  8
0
  5
F387
 10
643.594
 20
438.925
 30
0.000000
  70
    32
  0
VERTEX
  8
0
  5
F388
 10
642.783
 20
439.319
 30
0.000000
  70
    32
  0
VERTEX
  8
0
  5
F389
 10
641.953
 20
439.674
 30
0.000000
  70
    32
  0
VERTEX
  8
0
  5
F38A
 10
641.106
 20
439.990
 30
0.000000
  70
    32
  0
VERTEX
  8
0
  5
F38B
 10
640.244
 20
440.265
 30
0.000000
  70
    32
  0
VERTEX
  8
0
  5
F38C
 10
639.369
 20
440.499
 30
0.000000
  70
    32
  0
VERTEX
  8
0
  5
F38D
 10
638.483
 20
440.691
 30
0.000000
  70
    32
  0
VERTEX
  8
0
  5
F38E
 10
637.588
 20
440.841
 30
0.000000
  70
    32
  0
VERTEX
  8
0
  5
F38F
 10
636.687
 20
440.949
 30
0.000000
  70
    32
  0
VERTEX
  8
0
  5
F390
 10
635.781
 20
441.013
 30
0.000000
  70
    32
  0
VERTEX
  8
0
  5
F391
 10
634.873
 20
441.035
 30
0.000000
  70
    32
  0
VERTEX
  8
0
  5
F392
 10
633.966
 20
441.013
 30
0.000000
  70
    32
  0
VERTEX
  8
0
  5
F393
 10
633.060
 20
440.949
 30
0.000000
  70
    32
  0
VERTEX
  8
0
  5
F394
 10
632.159
 20
440.841
 30
0.000000
  70
    32
  0
VERTEX
  8
0
  5
F395
 10
631.264
 20
440.691
 30
0.000000
  70
    32
  0
VERTEX
  8
0
  5
F396
 10
630.378
 20
440.499
 30
0.000000
  70
    32
  0
VERTEX
  8
0
  5
F397
 10
629.503
 20
440.265
 30
0.000000
  70
    32
  0
VERTEX
  8
0
  5
F398
 10
628.641
 20
439.990
 30
0.000000
  70
    32
  0
VERTEX
  8
0
  5
F399
 10
627.794
 20
439.674
 30
0.000000
  70
    32
  0
VERTEX
  8
0
  5
F39A
 10
626.964
 20
439.319
 30
0.000000
  70
    32
  0
VERTEX
  8
0
  5
F39B
 10
626.153
 20
438.925
 30
0.000000
  70
    32
  0
VERTEX
  8
0
  5
F39C
 10
625.363
 20
438.492
 30
0.000000
  70
    32
  0
VERTEX
  8
0
  5
F39D
 10
624.596
 20
438.023
 30
0.000000
  70
    32
  0
VERTEX
  8
0
  5
F39E
 10
623.853
 20
437.518
 30
0.000000
  70
    32
  0
VERTEX
  8
0
  5
F39F
 10
623.137
 20
436.978
 30
0.000000
  70
    32
  0
VERTEX
  8
0
  5
F3A0
 10
622.450
 20
436.406
 30
0.000000
  70
    32
  0
VERTEX
  8
0
  5
F3A1
 10
621.792
 20
435.801
 30
0.000000
  70
    32
  0
VERTEX
  8
0
  5
F3A2
 10
621.166
 20
435.166
 30
0.000000
  70
    32
  0
VERTEX
  8
0
  5
F3A3
 10
620.573
 20
434.501
 30
0.000000
  70
    32
  0
VERTEX
  8
0
  5
F3A4
 10
620.014
 20
433.810
 30
0.000000
  70
    32
  0
VERTEX
  8
0
  5
F3A5
 10
619.491
 20
433.093
 30
0.000000
  70
    32
  0
VERTEX
  8
0
  5
F3A6
 10
619.006
 20
432.352
 30
0.000000
  70
    32
  0
VERTEX
  8
0
  5
F3A7
 10
618.558
 20
431.589
 30
0.000000
  70
    32
  0
VERTEX
  8
0
  5
F3A8
 10
618.150
 20
430.805
 30
0.000000
  70
    32
  0
VERTEX
  8
0
  5
F3A9
 10
617.782
 20
430.004
 30
0.000000
  70
    32
  0
VERTEX
  8
0
  5
F3AA
 10
617.455
 20
429.185
 30
0.000000
  70
    32
  0
VERTEX
  8
0
  5
F3AB
 10
617.170
 20
428.352
 30
0.000000
  70
    32
  0
VERTEX
  8
0
  5
F3AC
 10
616.928
 20
427.507
 30
0.000000
  70
    32
  0
VERTEX
  8
0
  5
F3AD
 10
616.729
 20
426.651
 30
0.000000
  70
    32
  0
VERTEX
  8
0
  5
F3AE
 10
616.574
 20
425.787
 30
0.000000
  70
    32
  0
VERTEX
  8
0
  5
F3AF
 10
616.463
 20
424.917
 30
0.000000
  70
    32
  0
VERTEX
  8
0
  5
F3B0
 10
616.396
 20
424.042
 30
0.000000
  70
    32
  0
VERTEX
  8
0
  5
F3B1
 10
616.374
 20
423.165
 30
0.000000
  70
    32
  0
SEQEND
  8
0
  5
F3B2
  0
LINE
  5
ED59
  8
0
 10
640.34953975283747
 20
406.0966257879947
 30
0.0
 11
637.15045746584451
 21
404.52107772197257
 31
0.0
  0
LINE
  5
ED5A
  8
0
 10
629.39737517885123
 20
406.0966257879947
 30
0.0
 11
632.59645746584431
 21
404.52107772197257
 31
0.0
  0
LINE
  5
ED5D
  8
0
 10
613.87345746584435
 20
487.45930933705148
 30
0.0
 11
613.87345746584435
 21
426.14165541112948
 31
0.0
  0
LINE
  5
ED5E
  8
0
 10
655.87345746584435
 20
487.45930933705148
 30
0.0
 11
655.87345746584435
 21
426.14165541112948
 31
0.0
  0
POLYLINE
  5
ED61
  8
0
 10
653.87345746584447
 20
417.50216397886959
 30
0.0
 66
     1
 70
     8
  0
VERTEX
  8
0
  5
F3B3
 10
653.873
 20
417.502
 30
0.000000
  70
    32
  0
VERTEX
  8
0
  5
F3B4
 10
654.145
 20
418.083
 30
0.000000
  70
    32
  0
VERTEX
  8
0
  5
F3B5
 10
654.398
 20
418.672
 30
0.000000
  70
    32
  0
VERTEX
  8
0
  5
F3B6
 10
654.631
 20
419.268
 30
0.000000
  70
    32
  0
VERTEX
  8
0
  5
F3B7
 10
654.845
 20
419.871
 30
0.000000
  70
    32
  0
VERTEX
  8
0
  5
F3B8
 10
655.039
 20
420.480
 30
0.000000
  70
    32
  0
VERTEX
  8
0
  5
F3B9
 10
655.213
 20
421.094
 30
0.000000
  70
    32
  0
VERTEX
  8
0
  5
F3BA
 10
655.367
 20
421.714
 30
0.000000
  70
    32
  0
VERTEX
  8
0
  5
F3BB
 10
655.501
 20
422.338
 30
0.000000
  70
    32
  0
VERTEX
  8
0
  5
F3BC
 10
655.614
 20
422.966
 30
0.000000
  70
    32
  0
VERTEX
  8
0
  5
F3BD
 10
655.708
 20
423.597
 30
0.000000
  70
    32
  0
VERTEX
  8
0
  5
F3BE
 10
655.780
 20
424.230
 30
0.000000
  70
    32
  0
VERTEX
  8
0
  5
F3BF
 10
655.832
 20
424.865
 30
0.000000
  70
    32
  0
VERTEX
  8
0
  5
F3C0
 10
655.863
 20
425.502
 30
0.000000
  70
    32
  0
VERTEX
  8
0
  5
F3C1
 10
655.873
 20
426.139
 30
0.000000
  70
    32
  0
VERTEX
  8
0
  5
F3C2
 10
655.863
 20
426.776
 30
0.000000
  70
    32
  0
VERTEX
  8
0
  5
F3C3
 10
655.832
 20
427.413
 30
0.000000
  70
    32
  0
VERTEX
  8
0
  5
F3C4
 10
655.780
 20
428.048
 30
0.000000
  70
    32
  0
VERTEX
  8
0
  5
F3C5
 10
655.708
 20
428.682
 30
0.000000
  70
    32
  0
VERTEX
  8
0
  5
F3C6
 10
655.615
 20
429.313
 30
0.000000
  70
    32
  0
VERTEX
  8
0
  5
F3C7
 10
655.502
 20
429.940
 30
0.000000
  70
    32
  0
VERTEX
  8
0
  5
F3C8
 10
655.368
 20
430.565
 30
0.000000
  70
    32
  0
VERTEX
  8
0
  5
F3C9
 10
655.214
 20
431.184
 30
0.000000
  70
    32
  0
VERTEX
  8
0
  5
F3CA
 10
655.040
 20
431.799
 30
0.000000
  70
    32
  0
VERTEX
  8
0
  5
F3CB
 10
654.846
 20
432.408
 30
0.000000
  70
    32
  0
VERTEX
  8
0
  5
F3CC
 10
654.633
 20
433.011
 30
0.000000
  70
    32
  0
VERTEX
  8
0
  5
F3CD
 10
654.399
 20
433.607
 30
0.000000
  70
    32
  0
VERTEX
  8
0
  5
F3CE
 10
654.147
 20
434.196
 30
0.000000
  70
    32
  0
VERTEX
  8
0
  5
F3CF
 10
653.876
 20
434.777
 30
0.000000
  70
    32
  0
VERTEX
  8
0
  5
F3D0
 10
653.585
 20
435.349
 30
0.000000
  70
    32
  0
VERTEX
  8
0
  5
F3D1
 10
653.277
 20
435.912
 30
0.000000
  70
    32
  0
VERTEX
  8
0
  5
F3D2
 10
652.950
 20
436.466
 30
0.000000
  70
    32
  0
VERTEX
  8
0
  5
F3D3
 10
652.605
 20
437.009
 30
0.000000
  70
    32
  0
VERTEX
  8
0
  5
F3D4
 10
652.243
 20
437.542
 30
0.000000
  70
    32
  0
VERTEX
  8
0
  5
F3D5
 10
651.864
 20
438.063
 30
0.000000
  70
    32
  0
VERTEX
  8
0
  5
F3D6
 10
651.468
 20
438.573
 30
0.000000
  70
    32
  0
VERTEX
  8
0
  5
F3D7
 10
651.055
 20
439.070
 30
0.000000
  70
    32
  0
VERTEX
  8
0
  5
F3D8
 10
650.627
 20
439.555
 30
0.000000
  70
    32
  0
VERTEX
  8
0
  5
F3D9
 10
650.183
 20
440.026
 30
0.000000
  70
    32
  0
VERTEX
  8
0
  5
F3DA
 10
649.724
 20
440.484
 30
0.000000
  70
    32
  0
VERTEX
  8
0
  5
F3DB
 10
649.250
 20
440.928
 30
0.000000
  70
    32
  0
VERTEX
  8
0
  5
F3DC
 10
648.762
 20
441.356
 30
0.000000
  70
    32
  0
VERTEX
  8
0
  5
F3DD
 10
648.260
 20
441.770
 30
0.000000
  70
    32
  0
VERTEX
  8
0
  5
F3DE
 10
647.745
 20
442.169
 30
0.000000
  70
    32
  0
VERTEX
  8
0
  5
F3DF
 10
647.218
 20
442.552
 30
0.000000
  70
    32
  0
VERTEX
  8
0
  5
F3E0
 10
646.678
 20
442.918
 30
0.000000
  70
    32
  0
VERTEX
  8
0
  5
F3E1
 10
646.127
 20
443.268
 30
0.000000
  70
    32
  0
VERTEX
  8
0
  5
F3E2
 10
645.564
 20
443.601
 30
0.000000
  70
    32
  0
VERTEX
  8
0
  5
F3E3
 10
644.991
 20
443.917
 30
0.000000
  70
    32
  0
VERTEX
  8
0
  5
F3E4
 10
644.408
 20
444.215
 30
0.000000
  70
    32
  0
VERTEX
  8
0
  5
F3E5
 10
643.815
 20
444.495
 30
0.000000
  70
    32
  0
VERTEX
  8
0
  5
F3E6
 10
643.214
 20
444.758
 30
0.000000
  70
    32
  0
VERTEX
  8
0
  5
F3E7
 10
642.605
 20
445.001
 30
0.000000
  70
    32
  0
VERTEX
  8
0
  5
F3E8
 10
641.987
 20
445.227
 30
0.000000
  70
    32
  0
VERTEX
  8
0
  5
F3E9
 10
641.363
 20
445.433
 30
0.000000
  70
    32
  0
VERTEX
  8
0
  5
F3EA
 10
640.733
 20
445.621
 30
0.000000
  70
    32
  0
VERTEX
  8
0
  5
F3EB
 10
640.096
 20
445.789
 30
0.000000
  70
    32
  0
VERTEX
  8
0
  5
F3EC
 10
639.455
 20
445.937
 30
0.000000
  70
    32
  0
VERTEX
  8
0
  5
F3ED
 10
638.809
 20
446.067
 30
0.000000
  70
    32
  0
VERTEX
  8
0
  5
F3EE
 10
638.159
 20
446.176
 30
0.000000
  70
    32
  0
VERTEX
  8
0
  5
F3EF
 10
637.506
 20
446.266
 30
0.000000
  70
    32
  0
VERTEX
  8
0
  5
F3F0
 10
636.850
 20
446.336
 30
0.000000
  70
    32
  0
VERTEX
  8
0
  5
F3F1
 10
636.192
 20
446.386
 30
0.000000
  70
    32
  0
VERTEX
  8
0
  5
F3F2
 10
635.533
 20
446.416
 30
0.000000
  70
    32
  0
VERTEX
  8
0
  5
F3F3
 10
634.873
 20
446.426
 30
0.000000
  70
    32
  0
VERTEX
  8
0
  5
F3F4
 10
634.214
 20
446.416
 30
0.000000
  70
    32
  0
VERTEX
  8
0
  5
F3F5
 10
633.555
 20
446.386
 30
0.000000
  70
    32
  0
VERTEX
  8
0
  5
F3F6
 10
632.897
 20
446.336
 30
0.000000
  70
    32
  0
VERTEX
  8
0
  5
F3F7
 10
632.241
 20
446.266
 30
0.000000
  70
    32
  0
VERTEX
  8
0
  5
F3F8
 10
631.588
 20
446.176
 30
0.000000
  70
    32
  0
VERTEX
  8
0
  5
F3F9
 10
630.938
 20
446.067
 30
0.000000
  70
    32
  0
VERTEX
  8
0
  5
F3FA
 10
630.292
 20
445.937
 30
0.000000
  70
    32
  0
VERTEX
  8
0
  5
F3FB
 10
629.651
 20
445.789
 30
0.000000
  70
    32
  0
VERTEX
  8
0
  5
F3FC
 10
629.014
 20
445.621
 30
0.000000
  70
    32
  0
VERTEX
  8
0
  5
F3FD
 10
628.384
 20
445.433
 30
0.000000
  70
    32
  0
VERTEX
  8
0
  5
F3FE
 10
627.759
 20
445.227
 30
0.000000
  70
    32
  0
VERTEX
  8
0
  5
F3FF
 10
627.142
 20
445.001
 30
0.000000
  70
    32
  0
VERTEX
  8
0
  5
F400
 10
626.533
 20
444.758
 30
0.000000
  70
    32
  0
VERTEX
  8
0
  5
F401
 10
625.931
 20
444.495
 30
0.000000
  70
    32
  0
VERTEX
  8
0
  5
F402
 10
625.339
 20
444.215
 30
0.000000
  70
    32
  0
VERTEX
  8
0
  5
F403
 10
624.756
 20
443.917
 30
0.000000
  70
    32
  0
VERTEX
  8
0
  5
F404
 10
624.183
 20
443.601
 30
0.000000
  70
    32
  0
VERTEX
  8
0
  5
F405
 10
623.620
 20
443.268
 30
0.000000
  70
    32
  0
VERTEX
  8
0
  5
F406
 10
623.069
 20
442.918
 30
0.000000
  70
    32
  0
VERTEX
  8
0
  5
F407
 10
622.529
 20
442.552
 30
0.000000
  70
    32
  0
VERTEX
  8
0
  5
F408
 10
622.002
 20
442.169
 30
0.000000
  70
    32
  0
VERTEX
  8
0
  5
F409
 10
621.487
 20
441.770
 30
0.000000
  70
    32
  0
VERTEX
  8
0
  5
F40A
 10
620.985
 20
441.356
 30
0.000000
  70
    32
  0
VERTEX
  8
0
  5
F40B
 10
620.497
 20
440.928
 30
0.000000
  70
    32
  0
VERTEX
  8
0
  5
F40C
 10
620.023
 20
440.484
 30
0.000000
  70
    32
  0
VERTEX
  8
0
  5
F40D
 10
619.564
 20
440.026
 30
0.000000
  70
    32
  0
VERTEX
  8
0
  5
F40E
 10
619.120
 20
439.555
 30
0.000000
  70
    32
  0
VERTEX
  8
0
  5
F40F
 10
618.692
 20
439.070
 30
0.000000
  70
    32
  0
VERTEX
  8
0
  5
F410
 10
618.279
 20
438.573
 30
0.000000
  70
    32
  0
VERTEX
  8
0
  5
F411
 10
617.883
 20
438.063
 30
0.000000
  70
    32
  0
VERTEX
  8
0
  5
F412
 10
617.504
 20
437.542
 30
0.000000
  70
    32
  0
VERTEX
  8
0
  5
F413
 10
617.142
 20
437.009
 30
0.000000
  70
    32
  0
VERTEX
  8
0
  5
F414
 10
616.797
 20
436.466
 30
0.000000
  70
    32
  0
VERTEX
  8
0
  5
F415
 10
616.470
 20
435.912
 30
0.000000
  70
    32
  0
VERTEX
  8
0
  5
F416
 10
616.162
 20
435.349
 30
0.000000
  70
    32
  0
VERTEX
  8
0
  5
F417
 10
615.871
 20
434.777
 30
0.000000
  70
    32
  0
VERTEX
  8
0
  5
F418
 10
615.600
 20
434.196
 30
0.000000
  70
    32
  0
VERTEX
  8
0
  5
F419
 10
615.347
 20
433.607
 30
0.000000
  70
    32
  0
VERTEX
  8
0
  5
F41A
 10
615.114
 20
433.011
 30
0.000000
  70
    32
  0
VERTEX
  8
0
  5
F41B
 10
614.901
 20
432.408
 30
0.000000
  70
    32
  0
VERTEX
  8
0
  5
F41C
 10
614.707
 20
431.799
 30
0.000000
  70
    32
  0
VERTEX
  8
0
  5
F41D
 10
614.533
 20
431.184
 30
0.000000
  70
    32
  0
VERTEX
  8
0
  5
F41E
 10
614.379
 20
430.565
 30
0.000000
  70
    32
  0
VERTEX
  8
0
  5
F41F
 10
614.245
 20
429.940
 30
0.000000
  70
    32
  0
VERTEX
  8
0
  5
F420
 10
614.132
 20
429.313
 30
0.000000
  70
    32
  0
VERTEX
  8
0
  5
F421
 10
614.039
 20
428.682
 30
0.000000
  70
    32
  0
VERTEX
  8
0
  5
F422
 10
613.966
 20
428.048
 30
0.000000
  70
    32
  0
VERTEX
  8
0
  5
F423
 10
613.915
 20
427.413
 30
0.000000
  70
    32
  0
VERTEX
  8
0
  5
F424
 10
613.884
 20
426.776
 30
0.000000
  70
    32
  0
VERTEX
  8
0
  5
F425
 10
613.873
 20
426.139
 30
0.000000
  70
    32
  0
VERTEX
  8
0
  5
F426
 10
613.884
 20
425.502
 30
0.000000
  70
    32
  0
VERTEX
  8
0
  5
F427
 10
613.915
 20
424.865
 30
0.000000
  70
    32
  0
VERTEX
  8
0
  5
F428
 10
613.967
 20
424.230
 30
0.000000
  70
    32
  0
VERTEX
  8
0
  5
F429
 10
614.039
 20
423.597
 30
0.000000
  70
    32
  0
VERTEX
  8
0
  5
F42A
 10
614.132
 20
422.966
 30
0.000000
  70
    32
  0
VERTEX
  8
0
  5
F42B
 10
614.246
 20
422.338
 30
0.000000
  70
    32
  0
VERTEX
  8
0
  5
F42C
 10
614.380
 20
421.714
 30
0.000000
  70
    32
  0
VERTEX
  8
0
  5
F42D
 10
614.534
 20
421.094
 30
0.000000
  70
    32
  0
VERTEX
  8
0
  5
F42E
 10
614.708
 20
420.480
 30
0.000000
  70
    32
  0
VERTEX
  8
0
  5
F42F
 10
614.902
 20
419.871
 30
0.000000
  70
    32
  0
VERTEX
  8
0
  5
F430
 10
615.116
 20
419.268
 30
0.000000
  70
    32
  0
VERTEX
  8
0
  5
F431
 10
615.349
 20
418.672
 30
0.000000
  70
    32
  0
VERTEX
  8
0
  5
F432
 10
615.602
 20
418.083
 30
0.000000
  70
    32
  0
VERTEX
  8
0
  5
F433
 10
615.873
 20
417.502
 30
0.000000
  70
    32
  0
SEQEND
  8
0
  5
F434
  0
POLYLINE
  5
ED64
  8
0
 10
655.87345746584424
 20
429.69480750860839
 30
0.0
 66
     1
 70
     8
  0
VERTEX
  8
0
  5
F435
 10
655.873
 20
429.695
 30
0.000000
  70
    32
  0
VERTEX
  8
0
  5
F436
 10
655.867
 20
430.193
 30
0.000000
  70
    32
  0
VERTEX
  8
0
  5
F437
 10
655.848
 20
430.690
 30
0.000000
  70
    32
  0
VERTEX
  8
0
  5
F438
 10
655.817
 20
431.187
 30
0.000000
  70
    32
  0
VERTEX
  8
0
  5
F439
 10
655.772
 20
431.683
 30
0.000000
  70
    32
  0
VERTEX
  8
0
  5
F43A
 10
655.716
 20
432.178
 30
0.000000
  70
    32
  0
VERTEX
  8
0
  5
F43B
 10
655.646
 20
432.671
 30
0.000000
  70
    32
  0
VERTEX
  8
0
  5
F43C
 10
655.564
 20
433.163
 30
0.000000
  70
    32
  0
VERTEX
  8
0
  5
F43D
 10
655.470
 20
433.652
 30
0.000000
  70
    32
  0
VERTEX
  8
0
  5
F43E
 10
655.363
 20
434.139
 30
0.000000
  70
    32
  0
VERTEX
  8
0
  5
F43F
 10
655.244
 20
434.624
 30
0.000000
  70
    32
  0
VERTEX
  8
0
  5
F440
 10
655.113
 20
435.105
 30
0.000000
  70
    32
  0
VERTEX
  8
0
  5
F441
 10
654.969
 20
435.583
 30
0.000000
  70
    32
  0
VERTEX
  8
0
  5
F442
 10
654.814
 20
436.058
 30
0.000000
  70
    32
  0
VERTEX
  8
0
  5
F443
 10
654.646
 20
436.528
 30
0.000000
  70
    32
  0
VERTEX
  8
0
  5
F444
 10
654.466
 20
436.995
 30
0.000000
  70
    32
  0
VERTEX
  8
0
  5
F445
 10
654.275
 20
437.457
 30
0.000000
  70
    32
  0
VERTEX
  8
0
  5
F446
 10
654.072
 20
437.915
 30
0.000000
  70
    32
  0
VERTEX
  8
0
  5
F447
 10
653.857
 20
438.368
 30
0.000000
  70
    32
  0
VERTEX
  8
0
  5
F448
 10
653.631
 20
438.815
 30
0.000000
  70
    32
  0
VERTEX
  8
0
  5
F449
 10
653.394
 20
439.257
 30
0.000000
  70
    32
  0
VERTEX
  8
0
  5
F44A
 10
653.145
 20
439.693
 30
0.000000
  70
    32
  0
VERTEX
  8
0
  5
F44B
 10
652.886
 20
440.123
 30
0.000000
  70
    32
  0
VERTEX
  8
0
  5
F44C
 10
652.615
 20
440.547
 30
0.000000
  70
    32
  0
VERTEX
  8
0
  5
F44D
 10
652.334
 20
440.964
 30
0.000000
  70
    32
  0
VERTEX
  8
0
  5
F44E
 10
652.043
 20
441.375
 30
0.000000
  70
    32
  0
VERTEX
  8
0
  5
F44F
 10
651.741
 20
441.778
 30
0.000000
  70
    32
  0
VERTEX
  8
0
  5
F450
 10
651.429
 20
442.174
 30
0.000000
  70
    32
  0
VERTEX
  8
0
  5
F451
 10
651.107
 20
442.563
 30
0.000000
  70
    32
  0
VERTEX
  8
0
  5
F452
 10
650.775
 20
442.944
 30
0.000000
  70
    32
  0
VERTEX
  8
0
  5
F453
 10
650.433
 20
443.317
 30
0.000000
  70
    32
  0
VERTEX
  8
0
  5
F454
 10
650.083
 20
443.682
 30
0.000000
  70
    32
  0
VERTEX
  8
0
  5
F455
 10
649.723
 20
444.038
 30
0.000000
  70
    32
  0
VERTEX
  8
0
  5
F456
 10
649.354
 20
444.386
 30
0.000000
  70
    32
  0
VERTEX
  8
0
  5
F457
 10
648.976
 20
444.725
 30
0.000000
  70
    32
  0
VERTEX
  8
0
  5
F458
 10
648.590
 20
445.054
 30
0.000000
  70
    32
  0
VERTEX
  8
0
  5
F459
 10
648.196
 20
445.375
 30
0.000000
  70
    32
  0
VERTEX
  8
0
  5
F45A
 10
647.793
 20
445.686
 30
0.000000
  70
    32
  0
VERTEX
  8
0
  5
F45B
 10
647.383
 20
445.987
 30
0.000000
  70
    32
  0
VERTEX
  8
0
  5
F45C
 10
646.965
 20
446.279
 30
0.000000
  70
    32
  0
VERTEX
  8
0
  5
F45D
 10
646.540
 20
446.561
 30
0.000000
  70
    32
  0
VERTEX
  8
0
  5
F45E
 10
646.108
 20
446.832
 30
0.000000
  70
    32
  0
VERTEX
  8
0
  5
F45F
 10
645.670
 20
447.093
 30
0.000000
  70
    32
  0
VERTEX
  8
0
  5
F460
 10
645.224
 20
447.344
 30
0.000000
  70
    32
  0
VERTEX
  8
0
  5
F461
 10
644.773
 20
447.584
 30
0.000000
  70
    32
  0
VERTEX
  8
0
  5
F462
 10
644.315
 20
447.813
 30
0.000000
  70
    32
  0
VERTEX
  8
0
  5
F463
 10
643.852
 20
448.032
 30
0.000000
  70
    32
  0
VERTEX
  8
0
  5
F464
 10
643.384
 20
448.239
 30
0.000000
  70
    32
  0
VERTEX
  8
0
  5
F465
 10
642.910
 20
448.435
 30
0.000000
  70
    32
  0
VERTEX
  8
0
  5
F466
 10
642.431
 20
448.620
 30
0.000000
  70
    32
  0
VERTEX
  8
0
  5
F467
 10
641.948
 20
448.793
 30
0.000000
  70
    32
  0
VERTEX
  8
0
  5
F468
 10
641.461
 20
448.955
 30
0.000000
  70
    32
  0
VERTEX
  8
0
  5
F469
 10
640.969
 20
449.106
 30
0.000000
  70
    32
  0
VERTEX
  8
0
  5
F46A
 10
640.474
 20
449.244
 30
0.000000
  70
    32
  0
VERTEX
  8
0
  5
F46B
 10
639.976
 20
449.371
 30
0.000000
  70
    32
  0
VERTEX
  8
0
  5
F46C
 10
639.475
 20
449.486
 30
0.000000
  70
    32
  0
VERTEX
  8
0
  5
F46D
 10
638.970
 20
449.589
 30
0.000000
  70
    32
  0
VERTEX
  8
0
  5
F46E
 10
638.464
 20
449.681
 30
0.000000
  70
    32
  0
VERTEX
  8
0
  5
F46F
 10
637.955
 20
449.760
 30
0.000000
  70
    32
  0
VERTEX
  8
0
  5
F470
 10
637.444
 20
449.827
 30
0.000000
  70
    32
  0
VERTEX
  8
0
  5
F471
 10
636.932
 20
449.882
 30
0.000000
  70
    32
  0
VERTEX
  8
0
  5
F472
 10
636.418
 20
449.924
 30
0.000000
  70
    32
  0
VERTEX
  8
0
  5
F473
 10
635.904
 20
449.955
 30
0.000000
  70
    32
  0
VERTEX
  8
0
  5
F474
 10
635.389
 20
449.973
 30
0.000000
  70
    32
  0
VERTEX
  8
0
  5
F475
 10
634.873
 20
449.979
 30
0.000000
  70
    32
  0
VERTEX
  8
0
  5
F476
 10
634.358
 20
449.973
 30
0.000000
  70
    32
  0
VERTEX
  8
0
  5
F477
 10
633.843
 20
449.955
 30
0.000000
  70
    32
  0
VERTEX
  8
0
  5
F478
 10
633.329
 20
449.924
 30
0.000000
  70
    32
  0
VERTEX
  8
0
  5
F479
 10
632.815
 20
449.882
 30
0.000000
  70
    32
  0
VERTEX
  8
0
  5
F47A
 10
632.303
 20
449.827
 30
0.000000
  70
    32
  0
VERTEX
  8
0
  5
F47B
 10
631.792
 20
449.760
 30
0.000000
  70
    32
  0
VERTEX
  8
0
  5
F47C
 10
631.283
 20
449.681
 30
0.000000
  70
    32
  0
VERTEX
  8
0
  5
F47D
 10
630.777
 20
449.589
 30
0.000000
  70
    32
  0
VERTEX
  8
0
  5
F47E
 10
630.272
 20
449.486
 30
0.000000
  70
    32
  0
VERTEX
  8
0
  5
F47F
 10
629.771
 20
449.371
 30
0.000000
  70
    32
  0
VERTEX
  8
0
  5
F480
 10
629.272
 20
449.244
 30
0.000000
  70
    32
  0
VERTEX
  8
0
  5
F481
 10
628.777
 20
449.106
 30
0.000000
  70
    32
  0
VERTEX
  8
0
  5
F482
 10
628.286
 20
448.955
 30
0.000000
  70
    32
  0
VERTEX
  8
0
  5
F483
 10
627.799
 20
448.793
 30
0.000000
  70
    32
  0
VERTEX
  8
0
  5
F484
 10
627.316
 20
448.620
 30
0.000000
  70
    32
  0
VERTEX
  8
0
  5
F485
 10
626.837
 20
448.435
 30
0.000000
  70
    32
  0
VERTEX
  8
0
  5
F486
 10
626.363
 20
448.239
 30
0.000000
  70
    32
  0
VERTEX
  8
0
  5
F487
 10
625.895
 20
448.032
 30
0.000000
  70
    32
  0
VERTEX
  8
0
  5
F488
 10
625.432
 20
447.813
 30
0.000000
  70
    32
  0
VERTEX
  8
0
  5
F489
 10
624.974
 20
447.584
 30
0.000000
  70
    32
  0
VERTEX
  8
0
  5
F48A
 10
624.523
 20
447.344
 30
0.000000
  70
    32
  0
VERTEX
  8
0
  5
F48B
 10
624.077
 20
447.093
 30
0.000000
  70
    32
  0
VERTEX
  8
0
  5
F48C
 10
623.639
 20
446.832
 30
0.000000
  70
    32
  0
VERTEX
  8
0
  5
F48D
 10
623.206
 20
446.561
 30
0.000000
  70
    32
  0
VERTEX
  8
0
  5
F48E
 10
622.781
 20
446.279
 30
0.000000
  70
    32
  0
VERTEX
  8
0
  5
F48F
 10
622.364
 20
445.987
 30
0.000000
  70
    32
  0
VERTEX
  8
0
  5
F490
 10
621.954
 20
445.686
 30
0.000000
  70
    32
  0
VERTEX
  8
0
  5
F491
 10
621.551
 20
445.375
 30
0.000000
  70
    32
  0
VERTEX
  8
0
  5
F492
 10
621.157
 20
445.054
 30
0.000000
  70
    32
  0
VERTEX
  8
0
  5
F493
 10
620.771
 20
444.725
 30
0.000000
  70
    32
  0
VERTEX
  8
0
  5
F494
 10
620.393
 20
444.386
 30
0.000000
  70
    32
  0
VERTEX
  8
0
  5
F495
 10
620.024
 20
444.038
 30
0.000000
  70
    32
  0
VERTEX
  8
0
  5
F496
 10
619.664
 20
443.682
 30
0.000000
  70
    32
  0
VERTEX
  8
0
  5
F497
 10
619.313
 20
443.317
 30
0.000000
  70
    32
  0
VERTEX
  8
0
  5
F498
 10
618.972
 20
442.944
 30
0.000000
  70
    32
  0
VERTEX
  8
0
  5
F499
 10
618.640
 20
442.563
 30
0.000000
  70
    32
  0
VERTEX
  8
0
  5
F49A
 10
618.318
 20
442.174
 30
0.000000
  70
    32
  0
VERTEX
  8
0
  5
F49B
 10
618.006
 20
441.778
 30
0.000000
  70
    32
  0
VERTEX
  8
0
  5
F49C
 10
617.704
 20
441.375
 30
0.000000
  70
    32
  0
VERTEX
  8
0
  5
F49D
 10
617.413
 20
440.964
 30
0.000000
  70
    32
  0
VERTEX
  8
0
  5
F49E
 10
617.132
 20
440.547
 30
0.000000
  70
    32
  0
VERTEX
  8
0
  5
F49F
 10
616.861
 20
440.123
 30
0.000000
  70
    32
  0
VERTEX
  8
0
  5
F4A0
 10
616.602
 20
439.693
 30
0.000000
  70
    32
  0
VERTEX
  8
0
  5
F4A1
 10
616.353
 20
439.257
 30
0.000000
  70
    32
  0
VERTEX
  8
0
  5
F4A2
 10
616.116
 20
438.815
 30
0.000000
  70
    32
  0
VERTEX
  8
0
  5
F4A3
 10
615.890
 20
438.368
 30
0.000000
  70
    32
  0
VERTEX
  8
0
  5
F4A4
 10
615.675
 20
437.915
 30
0.000000
  70
    32
  0
VERTEX
  8
0
  5
F4A5
 10
615.472
 20
437.457
 30
0.000000
  70
    32
  0
VERTEX
  8
0
  5
F4A6
 10
615.281
 20
436.995
 30
0.000000
  70
    32
  0
VERTEX
  8
0
  5
F4A7
 10
615.101
 20
436.528
 30
0.000000
  70
    32
  0
VERTEX
  8
0
  5
F4A8
 10
614.933
 20
436.058
 30
0.000000
  70
    32
  0
VERTEX
  8
0
  5
F4A9
 10
614.778
 20
435.583
 30
0.000000
  70
    32
  0
VERTEX
  8
0
  5
F4AA
 10
614.634
 20
435.105
 30
0.000000
  70
    32
  0
VERTEX
  8
0
  5
F4AB
 10
614.503
 20
434.624
 30
0.000000
  70
    32
  0
VERTEX
  8
0
  5
F4AC
 10
614.384
 20
434.139
 30
0.000000
  70
    32
  0
VERTEX
  8
0
  5
F4AD
 10
614.277
 20
433.652
 30
0.000000
  70
    32
  0
VERTEX
  8
0
  5
F4AE
 10
614.183
 20
433.163
 30
0.000000
  70
    32
  0
VERTEX
  8
0
  5
F4AF
 10
614.101
 20
432.671
 30
0.000000
  70
    32
  0
VERTEX
  8
0
  5
F4B0
 10
614.031
 20
432.178
 30
0.000000
  70
    32
  0
VERTEX
  8
0
  5
F4B1
 10
613.975
 20
431.683
 30
0.000000
  70
    32
  0
VERTEX
  8
0
  5
F4B2
 10
613.930
 20
431.187
 30
0.000000
  70
    32
  0
VERTEX
  8
0
  5
F4B3
 10
613.899
 20
430.690
 30
0.000000
  70
    32
  0
VERTEX
  8
0
  5
F4B4
 10
613.880
 20
430.193
 30
0.000000
  70
    32
  0
VERTEX
  8
0
  5
F4B5
 10
613.873
 20
429.695
 30
0.000000
  70
    32
  0
SEQEND
  8
0
  5
F4B6
  0
LINE
  5
ED65
  8
0
 10
632.59645746584431
 20
404.52107772197257
 30
0.0
 11
637.15045746584451
 21
404.52107772197257
 31
0.0
  0
ARC
  5
ED66
  8
0
 10
634.87345746584435
 20
446.45930933705148
 30
0.0
 40
42.000000000000007
 50
180.00000000000011
 51
0.0
  0
LINE
  5
EDAD
  8
0
 10
622.87345746584435
 20
543.45930933705154
 30
0.0
 11
622.87345746584435
 21
527.45930933705142
 31
0.0
  0
LINE
  5
EDAE
  8
0
 10
624.87345746584447
 20
545.45930933705154
 30
0.0
 11
622.87345746584435
 21
543.45930933705154
 31
0.0
  0
LINE
  5
EDAF
  8
0
 10
646.87345746584424
 20
543.45930933705142
 30
0.0
 11
646.87345746584435
 21
527.45930933705131
 31
0.0
  0
LINE
  5
EDB0
  8
0
 10
644.87345746584424
 20
545.45930933705154
 30
0.0
 11
646.87345746584424
 21
543.45930933705142
 31
0.0
  0
LINE
  5
EDB1
  8
0
 10
580.87345746584435
 20
520.45930933705154
 30
0.0
 11
580.87345746584435
 21
511.45930933705142
 31
0.0
  0
ARC
  5
EDB2
  8
0
 10
582.87345746584447
 20
520.45930933705131
 30
0.0
 40
2.0
 50
89.999999999999986
 51
180.0
  0
LINE
  5
EDB3
  8
0
 10
688.87345746584435
 20
520.45930933705131
 30
0.0
 11
688.87345746584435
 21
511.45930933705131
 31
0.0
  0
ARC
  5
EDB6
  8
0
 10
686.87345746584447
 20
520.4593093370512
 30
0.0
 40
2.0
 50
0.0
 51
89.999999999999986
  0
ARC
  5
EDB7
  8
0
 10
686.87345746584447
 20
511.4593093370512
 30
0.0
 40
2.0
 50
329.99999999999659
 51
0.0
  0
ARC
  5
EDB8
  8
0
 10
582.87345746584447
 20
511.4593093370512
 30
0.0
 40
2.0
 50
180.0
 51
209.9999999999977
  0
LINE
  5
EDB9
  8
0
 10
582.87345746584435
 20
522.45930933705154
 30
0.0
 11
621.84786723183674
 21
522.45930933705131
 31
0.0
  0
LINE
  5
EDBA
  8
0
 10
581.14140665827551
 20
510.45930933705148
 30
0.0
 11
688.60550827341331
 21
510.45930933705131
 31
0.0
  0
ARC
  5
EDBD
  8
0
 10
617.87345746584435
 20
527.45930933705108
 30
0.0
 40
5.0
 50
270.0
 51
0.0
  0
LINE
  5
EDBE
  8
0
 10
647.77083002546829
 20
522.45930933705108
 30
0.0
 11
686.87345746584447
 21
522.45930933705131
 31
0.0
  0
ARC
  5
EDC0
  8
0
 10
651.87345746584435
 20
527.45930933705108
 30
0.0
 40
5.0
 50
180.0
 51
270.0
  0
CIRCLE
  5
EDC2
  8
0
 10
634.87345746584435
 20
528.45930933705131
 30
0.0
 40
5.0
  0
ARC
  5
EDC3
  8
0
 10
634.80934862865251
 20
528.45930933705131
 30
0.0
 40
8.0
 50
355.58827421422899
 51
184.41172578577101
  0
ARC
  5
EDC4
  8
0
 10
647.77083002546829
 20
527.45930933705108
 30
0.0
 40
5.0
 50
175.58827421422899
 51
270.0
  0
ARC
  5
EDC5
  8
0
 10
621.84786723183674
 20
527.45930933705108
 30
0.0
 40
5.0
 50
270.0
 51
4.4117257857709902
  0
LINE
  5
EDCA
  8
0
 10
624.87345746584447
 20
545.45930933705154
 30
0.0
 11
644.87345746584424
 21
545.45930933705154
 31
0.0
  0
CIRCLE
  5
EE39
  8
0
 10
506.87921211994939
 20
626.25994909699045
 30
0.0
 40
11.0
  0
POLYLINE
  5
EE3A
  8
0
 66
     1
 10
0.0
 20
0.0
 30
0.0
 70
     1
  0
VERTEX
  5
F2F9
  8
0
 10
500.52835915886351
 20
637.25994909699045
 30
0.0
  0
VERTEX
  5
F2FA
  8
0
 10
494.17750619777757
 20
626.25994909699045
 30
0.0
  0
VERTEX
  5
F2FB
  8
0
 10
500.5283591588634
 20
615.25994909699045
 30
0.0
  0
VERTEX
  5
F2FC
  8
0
 10
513.23006508103526
 20
615.25994909699045
 30
0.0
  0
VERTEX
  5
F2FD
  8
0
 10
519.58091804212097
 20
626.25994909699045
 30
0.0
  0
VERTEX
  5
F2FE
  8
0
 10
513.23006508103526
 20
637.25994909699045
 30
0.0
  0
SEQEND
  5
F2FF
  8
0
  0
CIRCLE
  5
EE3B
  8
0
 10
506.87921211994939
 20
708.28433571462995
 30
0.0
 40
11.0
  0
POLYLINE
  5
EE3C
  8
0
 66
     1
 10
0.0
 20
0.0
 30
0.0
 70
     1
  0
VERTEX
  5
F300
  8
0
 10
500.52835915886351
 20
719.28433571462983
 30
0.0
  0
VERTEX
  5
F301
  8
0
 10
494.17750619777757
 20
708.28433571462983
 30
0.0
  0
VERTEX
  5
F302
  8
0
 10
500.5283591588634
 20
697.28433571462983
 30
0.0
  0
VERTEX
  5
F303
  8
0
 10
513.23006508103526
 20
697.28433571462983
 30
0.0
  0
VERTEX
  5
F304
  8
0
 10
519.58091804212097
 20
708.28433571462983
 30
0.0
  0
VERTEX
  5
F305
  8
0
 10
513.23006508103526
 20
719.28433571462983
 30
0.0
  0
SEQEND
  5
F306
  8
0
  0
CIRCLE
  5
EE3D
  8
0
 10
424.85482550230989
 20
708.28433571462995
 30
0.0
 40
11.0
  0
POLYLINE
  5
EE3E
  8
0
 66
     1
 10
0.0
 20
0.0
 30
0.0
 70
     1
  0
VERTEX
  5
F307
  8
0
 10
418.50397254122407
 20
719.28433571462983
 30
0.0
  0
VERTEX
  5
F308
  8
0
 10
412.15311958013808
 20
708.28433571462983
 30
0.0
  0
VERTEX
  5
F309
  8
0
 10
418.5039725412239
 20
697.28433571462983
 30
0.0
  0
VERTEX
  5
F30A
  8
0
 10
431.20567846339571
 20
697.28433571462983
 30
0.0
  0
VERTEX
  5
F30B
  8
0
 10
437.55653142448159
 20
708.28433571462983
 30
0.0
  0
VERTEX
  5
F30C
  8
0
 10
431.20567846339583
 20
719.28433571462983
 30
0.0
  0
SEQEND
  5
F30D
  8
0
  0
CIRCLE
  5
EE3F
  8
0
 10
424.85482550230989
 20
626.25994909699045
 30
0.0
 40
11.0
  0
POLYLINE
  5
EE40
  8
0
 66
     1
 10
0.0
 20
0.0
 30
0.0
 70
     1
  0
VERTEX
  5
F30E
  8
0
 10
418.50397254122407
 20
637.25994909699045
 30
0.0
  0
VERTEX
  5
F30F
  8
0
 10
412.15311958013808
 20
626.25994909699045
 30
0.0
  0
VERTEX
  5
F310
  8
0
 10
418.5039725412239
 20
615.25994909699045
 30
0.0
  0
VERTEX
  5
F311
  8
0
 10
431.20567846339571
 20
615.25994909699045
 30
0.0
  0
VERTEX
  5
F312
  8
0
 10
437.55653142448159
 20
626.25994909699045
 30
0.0
  0
VERTEX
  5
F313
  8
0
 10
431.20567846339583
 20
637.25994909699045
 30
0.0
  0
SEQEND
  5
F314
  8
0
  0
ARC
  5
EE41
  8
0
 10
709.86701881112981
 20
667.27214240581031
 30
0.0
 40
300.0
 50
172.28583690367481
 51
187.71416309632519
  0
ARC
  5
EE42
  8
0
 10
221.8670188111297
 20
667.27214240581031
 30
0.0
 40
300.0
 50
8.0913072860079858
 51
8.3855386470797821
  0
ARC
  5
EE43
  8
0
 10
709.86701881112981
 20
667.27214240581031
 30
0.0
 40
300.0
 50
188.09130728600809
 51
188.38553864707981
  0
ARC
  5
EE44
  8
0
 10
221.8670188111297
 20
667.27214240581031
 30
0.0
 40
300.0
 50
352.28583690367469
 51
7.7141630963251986
  0
LINE
  5
EE47
  8
0
 10
412.24427119494749
 20
530.45930933705165
 30
0.0
 11
412.24427119494749
 21
522.45930933705165
 31
0.0
  0
LINE
  5
EE48
  8
0
 10
437.64768303929122
 20
530.45930933705165
 30
0.0
 11
437.64768303929111
 21
522.45930933705165
 31
0.0
  0
LINE
  5
EE49
  8
0
 10
413.97632200251638
 20
531.45930933705165
 30
0.0
 11
435.91563223172233
 21
531.45930933705165
 31
0.0
  0
LINE
  5
EE4A
  8
0
 10
418.59512415603342
 20
530.45930933705165
 30
0.0
 11
418.59512415603342
 21
522.45930933705176
 31
0.0
  0
LINE
  5
EE4B
  8
0
 10
431.29683007820518
 20
530.45930933705165
 30
0.0
 11
431.29683007820518
 21
522.45930933705176
 31
0.0
  0
ARC
  5
EE4C
  8
0
 10
415.41969767549062
 20
525.91764267038525
 30
0.0
 40
5.5416666666664627
 50
55.039659594478827
 51
124.96034040552109
  0
ARC
  5
EE4D
  8
0
 10
424.9459771171193
 20
510.79264267038531
 30
0.0
 40
20.66666666666627
 50
72.103448870745382
 51
107.8965511292546
  0
ARC
  5
EE4E
  8
0
 10
434.47225655874809
 20
525.91764267038525
 30
0.0
 40
5.5416666666664627
 50
55.039659594478827
 51
124.96034040552109
  0
LINE
  5
EE4F
  8
0
 10
412.24427119494749
 20
530.45930933705165
 30
0.0
 11
413.97632200251638
 21
531.45930933705165
 31
0.0
  0
LINE
  5
EE50
  8
0
 10
437.64768303929111
 20
530.45930933705165
 30
0.0
 11
435.91563223172221
 21
531.45930933705165
 31
0.0
  0
LINE
  5
EE52
  8
0
 10
494.08635458296828
 20
530.45930933705176
 30
0.0
 11
494.08635458296828
 21
522.45930933705176
 31
0.0
  0
LINE
  5
EE53
  8
0
 10
519.48976642731191
 20
530.45930933705176
 30
0.0
 11
519.48976642731179
 21
522.45930933705176
 31
0.0
  0
LINE
  5
EE54
  8
0
 10
495.81840539053712
 20
531.45930933705176
 30
0.0
 11
517.75771561974295
 21
531.45930933705165
 31
0.0
  0
LINE
  5
EE55
  8
0
 10
500.43720754405399
 20
530.45930933705176
 30
0.0
 11
500.43720754405399
 21
522.45930933705176
 31
0.0
  0
LINE
  5
EE56
  8
0
 10
513.13891346622574
 20
530.45930933705176
 30
0.0
 11
513.13891346622574
 21
522.45930933705176
 31
0.0
  0
ARC
  5
EE57
  8
0
 10
497.26178106351119
 20
525.91764267038525
 30
0.0
 40
5.5416666666664627
 50
55.039659594478827
 51
124.96034040552109
  0
ARC
  5
EE58
  8
0
 10
506.78806050513992
 20
510.79264267038542
 30
0.0
 40
20.66666666666627
 50
72.103448870745382
 51
107.8965511292546
  0
ARC
  5
EE59
  8
0
 10
516.31433994676877
 20
525.91764267038536
 30
0.0
 40
5.5416666666664627
 50
55.039659594478827
 51
124.96034040552109
  0
LINE
  5
EE5A
  8
0
 10
494.08635458296828
 20
530.45930933705176
 30
0.0
 11
495.81840539053712
 21
531.45930933705176
 31
0.0
  0
LINE
  5
EE5B
  8
0
 10
519.48976642731179
 20
530.45930933705176
 30
0.0
 11
517.75771561974284
 21
531.45930933705176
 31
0.0
  0
LINE
  5
EE6B
  8
0
 10
582.86126415702461
 20
531.45930933705142
 30
0.0
 11
582.86126415702461
 21
522.45930933705142
 31
0.0
  0
LINE
  5
EE6C
  8
0
 10
604.86126415702472
 20
531.45930933705154
 30
0.0
 11
604.86126415702461
 21
522.45930933705131
 31
0.0
  0
LINE
  5
EE6D
  8
0
 10
593.86126415702449
 20
530.45930933705142
 30
0.0
 11
593.86126415702449
 21
522.45930933705131
 31
0.0
  0
LINE
  5
EE6E
  8
0
 10
582.86126415702461
 20
531.45930933705142
 30
0.0
 11
604.86126415702472
 21
531.45930933705154
 31
0.0
  0
ARC
  5
EE6F
  8
0
 10
588.36126415702461
 20
515.83430933705142
 30
0.0
 40
15.625
 50
69.390307062469944
 51
110.60969293753
  0
ARC
  5
EE70
  8
0
 10
599.36126415702461
 20
515.83430933705142
 30
0.0
 40
15.625
 50
69.390307062469944
 51
110.60969293753
  0
LINE
  5
EE71
  8
0
 10
664.8856507746641
 20
531.45930933705131
 30
0.0
 11
664.8856507746641
 21
522.45930933705131
 31
0.0
  0
LINE
  5
EE72
  8
0
 10
686.8856507746641
 20
531.45930933705142
 30
0.0
 11
686.8856507746641
 21
522.45930933705108
 31
0.0
  0
LINE
  5
EE73
  8
0
 10
675.88565077466399
 20
530.4593093370512
 30
0.0
 11
675.88565077466399
 21
522.45930933705108
 31
0.0
  0
LINE
  5
EE74
  8
0
 10
664.8856507746641
 20
531.45930933705131
 30
0.0
 11
686.8856507746641
 21
531.45930933705142
 31
0.0
  0
ARC
  5
EE75
  8
0
 10
670.3856507746641
 20
515.83430933705131
 30
0.0
 40
15.625
 50
69.390307062469944
 51
110.60969293753
  0
ARC
  5
EE76
  8
0
 10
681.3856507746641
 20
515.83430933705131
 30
0.0
 40
15.625
 50
69.390307062469944
 51
110.60969293753
  0
LINE
  5
EE78
  8
0
 10
550.86701881112958
 20
687.27214240581054
 30
0.0
 11
550.86701881112958
 21
647.27214240581031
 31
0.0
  0
LINE
  5
EE79
  8
0
 10
549.86701881112958
 20
688.27214240581031
 30
0.0
 11
550.86701881112958
 21
687.27214240581054
 31
0.0
  0
LINE
  5
EE7A
  8
0
 10
549.86701881112958
 20
646.27214240581031
 30
0.0
 11
550.86701881112958
 21
647.27214240581031
 31
0.0
  0
LINE
  5
EE7B
  8
0
 10
549.86701881112958
 20
688.27214240581031
 30
0.0
 11
549.8670188111297
 21
688.27214240580997
 31
0.0
  0
LINE
  5
EE7C
  8
0
 10
521.13111622343195
 20
646.27214240581065
 30
0.0
 11
549.86701881112958
 21
646.27214240581031
 31
0.0
  0
LINE
  5
EE7D
  8
0
 10
549.86701881112958
 20
688.27214240581031
 30
0.0
 11
549.86701881112958
 21
646.27214240581031
 31
0.0
  0
LINE
  5
EE7E
  8
0
 10
521.13111622343195
 20
688.27214240581031
 30
0.0
 11
549.86701881112958
 21
688.27214240580997
 31
0.0
  0
LINE
  5
EE7F
  8
0
 10
395.8670188111297
 20
687.27214240581031
 30
0.0
 11
395.86701881112958
 21
647.27214240581054
 31
0.0
  0
LINE
  5
EE81
  8
0
 10
409.8670188111297
 20
688.27214240581031
 30
0.0
 11
396.8670188111297
 21
688.27214240581031
 31
0.0
  0
LINE
  5
EE82
  8
0
 10
395.8670188111297
 20
687.27214240581031
 30
0.0
 11
396.8670188111297
 21
688.27214240581031
 31
0.0
  0
LINE
  5
EE83
  8
0
 10
396.8670188111297
 20
646.27214240581031
 30
0.0
 11
410.60292139882739
 21
646.27214240581031
 31
0.0
  0
LINE
  5
EE84
  8
0
 10
395.86701881112958
 20
647.27214240581054
 30
0.0
 11
396.8670188111297
 21
646.27214240581031
 31
0.0
  0
LINE
  5
EE85
  8
0
 10
396.8670188111297
 20
688.27214240581031
 30
0.0
 11
396.8670188111297
 21
646.27214240581031
 31
0.0
  0
ARC
  5
EE87
  8
0
 10
406.8670188111297
 20
667.27214240581031
 30
0.0
 40
6.0
 50
90.0
 51
270.0
  0
LINE
  5
EE88
  8
0
 10
406.8670188111297
 20
673.27214240581031
 30
0.0
 11
409.9270248123301
 21
673.27214240581031
 31
0.0
  0
LINE
  5
EE89
  8
0
 10
406.8670188111297
 20
661.2721424058102
 30
0.0
 11
409.9270248123301
 21
661.2721424058102
 31
0.0
  0
LINE
  5
EE95
  8
0
 10
527.49915062975901
 20
658.27214240581009
 30
0.0
 11
539.8670188111297
 21
658.27214240581009
 31
0.0
  0
LINE
  5
EE96
  8
0
 10
546.86701881112981
 20
667.2721424058102
 30
0.0
 11
546.86701881112958
 21
665.27214240581009
 31
0.0
  0
ARC
  5
EE97
  8
0
 10
539.8670188111297
 20
665.2721424058102
 30
0.0
 40
7.0
 50
270.0
 51
0.0
  0
ARC
  5
EE9A
  8
0
 10
527.49915062975901
 20
652.2721424058102
 30
0.0
 40
6.0
 50
90.0
 51
177.19025732474969
  0
LINE
  5
EE9B
  8
0
 10
527.49915062975901
 20
676.27214240581043
 30
0.0
 11
539.86701881112981
 21
676.27214240581031
 31
0.0
  0
LINE
  5
EE9C
  8
0
 10
546.86701881112981
 20
667.27214240581031
 30
0.0
 11
546.86701881112958
 21
669.27214240581043
 31
0.0
  0
ARC
  5
EE9D
  8
0
 10
539.8670188111297
 20
669.2721424058102
 30
0.0
 40
7.0
 50
359.99999999999949
 51
89.999999999999474
  0
ARC
  5
EE9E
  8
0
 10
527.49915062975913
 20
682.27214240581043
 30
0.0
 40
6.0
 50
182.80974267524979
 51
269.99999999999949
  0
LINE
  5
EFE1
  8
0
 10
1323.050312780362
 20
515.94609035437065
 30
0.0
 11
1323.050312780362
 21
481.8795268693143
 31
0.0
  0
ARC
  5
EFE2
  8
0
 10
1320.8771003556819
 20
516.66394873791717
 30
0.0
 40
2.288705507838829
 50
341.72050966933989
 51
85.659625382622508
  0
ARC
  5
EFE3
  8
0
 10
1330.050312780362
 20
481.8795268693143
 30
0.0
 40
7.0
 50
180.0
 51
242.7203872640271
  0
ARC
  5
EFE4
  8
0
 10
1324.550312780362
 20
471.21416236546361
 30
0.0
 40
5.0
 50
0.0
 51
62.720387264027103
  0
LINE
  5
EFE5
  8
0
 10
1329.550312780362
 20
433.94609035437082
 30
0.0
 11
1329.550312780362
 21
471.21416236546361
 31
0.0
  0
LINE
  5
EFE6
  8
0
 10
1317.550312780362
 20
529.94609035437065
 30
0.0
 11
1317.550312780362
 21
520.94609035437065
 31
0.0
  0
ARC
  5
EFE7
  8
0
 10
1320.050312780362
 20
529.94609035437065
 30
0.0
 40
2.5
 50
156.42182152179279
 51
180.0
  0
LINE
  5
EFE8
  8
0
 10
1319.550312780362
 20
518.94609035437065
 30
0.0
 11
1340.373398244122
 21
518.94609035437077
 31
0.0
  0
ARC
  5
EFE9
  8
0
 10
1319.550312780362
 20
520.94609035437065
 30
0.0
 40
2.0
 50
180.0
 51
270.0
  0
LINE
  5
EFEA
  8
0
 10
1420.050312780362
 20
515.94609035437088
 30
0.0
 11
1420.050312780362
 21
481.8795268693143
 31
0.0
  0
ARC
  5
EFEB
  8
0
 10
1423.050312780362
 20
515.94609035437088
 30
0.0
 40
3.0
 50
90.0
 51
180.0
  0
ARC
  5
EFEC
  8
0
 10
1413.050312780362
 20
481.8795268693143
 30
0.0
 40
7.0
 50
290.4873151147184
 51
0.0
  0
ARC
  5
EFED
  8
0
 10
1416.550312780362
 20
472.51202987171672
 30
0.0
 40
3.0
 50
110.48731511473051
 51
180.0
  0
LINE
  5
EFEE
  8
0
 10
1413.550312780362
 20
433.94609035437082
 30
0.0
 11
1413.550312780362
 21
472.51202987171672
 31
0.0
  0
LINE
  5
EFEF
  8
0
 10
1425.550312780362
 20
529.94609035437065
 30
0.0
 11
1425.550312780362
 21
520.94609035437065
 31
0.0
  0
ARC
  5
EFF0
  8
0
 10
1423.050312780362
 20
529.94609035437077
 30
0.0
 40
2.5
 50
0.0
 51
23.57817847820715
  0
ARC
  5
EFF1
  8
0
 10
1423.550312780362
 20
520.94609035437065
 30
0.0
 40
2.0
 50
270.0
 51
0.0
  0
LINE
  5
EFF2
  8
0
 10
1423.550312780362
 20
518.94609035437065
 30
0.0
 11
1423.050312780362
 21
518.94609035437077
 31
0.0
  0
LINE
  5
EFF3
  8
0
 10
1317.7590249328839
 20
530.94609035437065
 30
0.0
 11
1425.3416006278401
 21
530.94609035437065
 31
0.0
  0
LINE
  5
EFF4
  8
0
 10
1328.5442018661049
 20
474.22229300936539
 30
0.0
 11
1349.0196884165509
 21
474.2222930093655
 31
0.0
  0
LINE
  5
EFF5
  8
0
 10
1394.080937144173
 20
474.22229300936573
 30
0.0
 11
1414.0855612715891
 21
474.22229300936539
 31
0.0
  0
LINE
  5
EFF6
  8
0
 10
1392.550312780362
 20
471.90612230327281
 30
0.0
 11
1392.550312780362
 21
413.62843642844859
 31
0.0
  0
LINE
  5
EFF7
  8
0
 10
1350.550312780362
 20
471.90612230327281
 30
0.0
 11
1350.550312780362
 21
413.62843642844859
 31
0.0
  0
LINE
  5
EFF8
  8
0
 10
1369.2733127803619
 20
431.03090766409758
 30
0.0
 11
1354.827312780362
 21
422.85337961873449
 31
0.0
  0
LINE
  5
EFF9
  8
0
 10
1354.827312780362
 20
422.85337961873449
 30
0.0
 11
1352.550312780362
 21
419.04376815985
 31
0.0
  0
LINE
  5
EFFA
  8
0
 10
1352.550312780362
 20
402.9321253773486
 30
0.0
 11
1354.827312780362
 21
399.12251391846428
 31
0.0
  0
LINE
  5
EFFB
  8
0
 10
1354.827312780362
 20
399.12251391846428
 30
0.0
 11
1360.4649988476269
 21
396.34595346041277
 31
0.0
  0
LINE
  5
EFFC
  8
0
 10
1366.074230493369
 20
393.58340680531398
 30
0.0
 11
1369.2733127803619
 21
392.00785873929192
 31
0.0
  0
LINE
  5
EFFD
  8
0
 10
1373.827312780362
 20
431.03090766409758
 30
0.0
 11
1388.2733127803619
 21
422.85337961873449
 31
0.0
  0
LINE
  5
EFFE
  8
0
 10
1388.2733127803619
 20
422.85337961873449
 30
0.0
 11
1390.550312780362
 21
419.04376815985
 31
0.0
  0
LINE
  5
EFFF
  8
0
 10
1390.550312780362
 20
402.9321253773486
 30
0.0
 11
1388.2733127803619
 21
399.12251391846428
 31
0.0
  0
LINE
  5
F000
  8
0
 10
1388.2733127803619
 20
399.12251391846428
 30
0.0
 11
1382.635626713098
 21
396.34595346041277
 31
0.0
  0
LINE
  5
F001
  8
0
 10
1377.026395067355
 20
393.58340680531398
 30
0.0
 11
1373.827312780362
 21
392.00785873929192
 31
0.0
  0
LINE
  5
F002
  8
0
 10
1390.550312780362
 20
420.95954673169848
 30
0.0
 11
1390.550312780362
 21
402.93212537734871
 31
0.0
  0
LINE
  5
F003
  8
0
 10
1352.550312780362
 20
420.95954673169882
 30
0.0
 11
1352.550312780362
 21
402.93212537734871
 31
0.0
  0
LINE
  5
F004
  8
0
 10
1369.2733127803619
 20
432.9466862359464
 30
0.0
 11
1354.827312780362
 21
424.76915819058331
 31
0.0
  0
LINE
  5
F005
  8
0
 10
1354.827312780362
 20
424.76915819058331
 30
0.0
 11
1352.550312780362
 21
420.95954673169882
 31
0.0
  0
LINE
  5
F006
  8
0
 10
1373.827312780362
 20
432.9466862359464
 30
0.0
 11
1388.2733127803619
 21
424.76915819058331
 31
0.0
  0
LINE
  5
F007
  8
0
 10
1388.2733127803619
 20
424.76915819058331
 30
0.0
 11
1390.550312780362
 21
420.95954673169882
 31
0.0
  0
LINE
  5
F008
  8
0
 10
1354.827312780362
 20
424.76915819058331
 30
0.0
 11
1354.827312780362
 21
422.85337961873449
 31
0.0
  0
LINE
  5
F009
  8
0
 10
1388.2733127803619
 20
424.76915819058331
 30
0.0
 11
1388.2733127803619
 21
422.85337961873449
 31
0.0
  0
LINE
  5
F00A
  8
0
 10
1373.827312780362
 20
432.9466862359464
 30
0.0
 11
1373.827312780362
 21
431.03090766409758
 31
0.0
  0
LINE
  5
F00B
  8
0
 10
1369.2733127803619
 20
432.9466862359464
 30
0.0
 11
1369.2733127803619
 21
431.03090766409758
 31
0.0
  0
LINE
  5
F00C
  8
0
 10
1369.2733127803619
 20
432.9466862359464
 30
0.0
 11
1373.827312780362
 21
432.9466862359464
 31
0.0
  0
LINE
  5
F00D
  8
0
 10
1373.827312780362
 20
431.03090766409758
 30
0.0
 11
1369.2733127803619
 21
431.03090766409753
 31
0.0
  0
POLYLINE
  5
F00E
  8
0
 10
1353.050562780362
 20
410.65198231046782
 30
0.0
 66
     1
 70
     8
  0
VERTEX
  8
0
  5
F4B7
 10
1353.05
 20
410.652
 30
0.000000
  70
    32
  0
VERTEX
  8
0
  5
F4B8
 10
1353.07
 20
409.775
 30
0.000000
  70
    32
  0
VERTEX
  8
0
  5
F4B9
 10
1353.14
 20
408.900
 30
0.000000
  70
    32
  0
VERTEX
  8
0
  5
F4BA
 10
1353.25
 20
408.030
 30
0.000000
  70
    32
  0
VERTEX
  8
0
  5
F4BB
 10
1353.41
 20
407.166
 30
0.000000
  70
    32
  0
VERTEX
  8
0
  5
F4BC
 10
1353.60
 20
406.310
 30
0.000000
  70
    32
  0
VERTEX
  8
0
  5
F4BD
 10
1353.85
 20
405.465
 30
0.000000
  70
    32
  0
VERTEX
  8
0
  5
F4BE
 10
1354.13
 20
404.632
 30
0.000000
  70
    32
  0
VERTEX
  8
0
  5
F4BF
 10
1354.46
 20
403.814
 30
0.000000
  70
    32
  0
VERTEX
  8
0
  5
F4C0
 10
1354.83
 20
403.012
 30
0.000000
  70
    32
  0
VERTEX
  8
0
  5
F4C1
 10
1355.23
 20
402.228
 30
0.000000
  70
    32
  0
VERTEX
  8
0
  5
F4C2
 10
1355.68
 20
401.465
 30
0.000000
  70
    32
  0
VERTEX
  8
0
  5
F4C3
 10
1356.17
 20
400.724
 30
0.000000
  70
    32
  0
VERTEX
  8
0
  5
F4C4
 10
1356.69
 20
400.007
 30
0.000000
  70
    32
  0
VERTEX
  8
0
  5
F4C5
 10
1357.25
 20
399.316
 30
0.000000
  70
    32
  0
VERTEX
  8
0
  5
F4C6
 10
1357.84
 20
398.652
 30
0.000000
  70
    32
  0
VERTEX
  8
0
  5
F4C7
 10
1358.47
 20
398.016
 30
0.000000
  70
    32
  0
VERTEX
  8
0
  5
F4C8
 10
1359.13
 20
397.412
 30
0.000000
  70
    32
  0
VERTEX
  8
0
  5
F4C9
 10
1359.81
 20
396.839
 30
0.000000
  70
    32
  0
VERTEX
  8
0
  5
F4CA
 10
1360.53
 20
396.299
 30
0.000000
  70
    32
  0
VERTEX
  8
0
  5
F4CB
 10
1361.27
 20
395.794
 30
0.000000
  70
    32
  0
VERTEX
  8
0
  5
F4CC
 10
1362.04
 20
395.325
 30
0.000000
  70
    32
  0
VERTEX
  8
0
  5
F4CD
 10
1362.83
 20
394.893
 30
0.000000
  70
    32
  0
VERTEX
  8
0
  5
F4CE
 10
1363.64
 20
394.498
 30
0.000000
  70
    32
  0
VERTEX
  8
0
  5
F4CF
 10
1364.47
 20
394.143
 30
0.000000
  70
    32
  0
VERTEX
  8
0
  5
F4D0
 10
1365.32
 20
393.827
 30
0.000000
  70
    32
  0
VERTEX
  8
0
  5
F4D1
 10
1366.18
 20
393.552
 30
0.000000
  70
    32
  0
VERTEX
  8
0
  5
F4D2
 10
1367.06
 20
393.318
 30
0.000000
  70
    32
  0
VERTEX
  8
0
  5
F4D3
 10
1367.94
 20
393.126
 30
0.000000
  70
    32
  0
VERTEX
  8
0
  5
F4D4
 10
1368.84
 20
392.976
 30
0.000000
  70
    32
  0
VERTEX
  8
0
  5
F4D5
 10
1369.74
 20
392.869
 30
0.000000
  70
    32
  0
VERTEX
  8
0
  5
F4D6
 10
1370.64
 20
392.804
 30
0.000000
  70
    32
  0
VERTEX
  8
0
  5
F4D7
 10
1371.55
 20
392.783
 30
0.000000
  70
    32
  0
VERTEX
  8
0
  5
F4D8
 10
1372.46
 20
392.804
 30
0.000000
  70
    32
  0
VERTEX
  8
0
  5
F4D9
 10
1373.36
 20
392.869
 30
0.000000
  70
    32
  0
VERTEX
  8
0
  5
F4DA
 10
1374.26
 20
392.976
 30
0.000000
  70
    32
  0
VERTEX
  8
0
  5
F4DB
 10
1375.16
 20
393.126
 30
0.000000
  70
    32
  0
VERTEX
  8
0
  5
F4DC
 10
1376.05
 20
393.318
 30
0.000000
  70
    32
  0
VERTEX
  8
0
  5
F4DD
 10
1376.92
 20
393.552
 30
0.000000
  70
    32
  0
VERTEX
  8
0
  5
F4DE
 10
1377.78
 20
393.827
 30
0.000000
  70
    32
  0
VERTEX
  8
0
  5
F4DF
 10
1378.63
 20
394.143
 30
0.000000
  70
    32
  0
VERTEX
  8
0
  5
F4E0
 10
1379.46
 20
394.498
 30
0.000000
  70
    32
  0
VERTEX
  8
0
  5
F4E1
 10
1380.27
 20
394.893
 30
0.000000
  70
    32
  0
VERTEX
  8
0
  5
F4E2
 10
1381.06
 20
395.325
 30
0.000000
  70
    32
  0
VERTEX
  8
0
  5
F4E3
 10
1381.83
 20
395.794
 30
0.000000
  70
    32
  0
VERTEX
  8
0
  5
F4E4
 10
1382.57
 20
396.299
 30
0.000000
  70
    32
  0
VERTEX
  8
0
  5
F4E5
 10
1383.29
 20
396.839
 30
0.000000
  70
    32
  0
VERTEX
  8
0
  5
F4E6
 10
1383.97
 20
397.412
 30
0.000000
  70
    32
  0
VERTEX
  8
0
  5
F4E7
 10
1384.63
 20
398.016
 30
0.000000
  70
    32
  0
VERTEX
  8
0
  5
F4E8
 10
1385.26
 20
398.652
 30
0.000000
  70
    32
  0
VERTEX
  8
0
  5
F4E9
 10
1385.85
 20
399.316
 30
0.000000
  70
    32
  0
VERTEX
  8
0
  5
F4EA
 10
1386.41
 20
400.007
 30
0.000000
  70
    32
  0
VERTEX
  8
0
  5
F4EB
 10
1386.93
 20
400.724
 30
0.000000
  70
    32
  0
VERTEX
  8
0
  5
F4EC
 10
1387.42
 20
401.465
 30
0.000000
  70
    32
  0
VERTEX
  8
0
  5
F4ED
 10
1387.87
 20
402.228
 30
0.000000
  70
    32
  0
VERTEX
  8
0
  5
F4EE
 10
1388.27
 20
403.012
 30
0.000000
  70
    32
  0
VERTEX
  8
0
  5
F4EF
 10
1388.64
 20
403.814
 30
0.000000
  70
    32
  0
VERTEX
  8
0
  5
F4F0
 10
1388.97
 20
404.632
 30
0.000000
  70
    32
  0
VERTEX
  8
0
  5
F4F1
 10
1389.25
 20
405.465
 30
0.000000
  70
    32
  0
VERTEX
  8
0
  5
F4F2
 10
1389.50
 20
406.310
 30
0.000000
  70
    32
  0
VERTEX
  8
0
  5
F4F3
 10
1389.69
 20
407.166
 30
0.000000
  70
    32
  0
VERTEX
  8
0
  5
F4F4
 10
1389.85
 20
408.030
 30
0.000000
  70
    32
  0
VERTEX
  8
0
  5
F4F5
 10
1389.96
 20
408.900
 30
0.000000
  70
    32
  0
VERTEX
  8
0
  5
F4F6
 10
1390.03
 20
409.775
 30
0.000000
  70
    32
  0
VERTEX
  8
0
  5
F4F7
 10
1390.05
 20
410.652
 30
0.000000
  70
    32
  0
VERTEX
  8
0
  5
F4F8
 10
1390.03
 20
411.529
 30
0.000000
  70
    32
  0
VERTEX
  8
0
  5
F4F9
 10
1389.96
 20
412.403
 30
0.000000
  70
    32
  0
VERTEX
  8
0
  5
F4FA
 10
1389.85
 20
413.274
 30
0.000000
  70
    32
  0
VERTEX
  8
0
  5
F4FB
 10
1389.69
 20
414.138
 30
0.000000
  70
    32
  0
VERTEX
  8
0
  5
F4FC
 10
1389.50
 20
414.994
 30
0.000000
  70
    32
  0
VERTEX
  8
0
  5
F4FD
 10
1389.25
 20
415.839
 30
0.000000
  70
    32
  0
VERTEX
  8
0
  5
F4FE
 10
1388.97
 20
416.672
 30
0.000000
  70
    32
  0
VERTEX
  8
0
  5
F4FF
 10
1388.64
 20
417.490
 30
0.000000
  70
    32
  0
VERTEX
  8
0
  5
F500
 10
1388.27
 20
418.292
 30
0.000000
  70
    32
  0
VERTEX
  8
0
  5
F501
 10
1387.87
 20
419.076
 30
0.000000
  70
    32
  0
VERTEX
  8
0
  5
F502
 10
1387.42
 20
419.839
 30
0.000000
  70
    32
  0
VERTEX
  8
0
  5
F503
 10
1386.93
 20
420.580
 30
0.000000
  70
    32
  0
VERTEX
  8
0
  5
F504
 10
1386.41
 20
421.297
 30
0.000000
  70
    32
  0
VERTEX
  8
0
  5
F505
 10
1385.85
 20
421.988
 30
0.000000
  70
    32
  0
VERTEX
  8
0
  5
F506
 10
1385.26
 20
422.652
 30
0.000000
  70
    32
  0
VERTEX
  8
0
  5
F507
 10
1384.63
 20
423.288
 30
0.000000
  70
    32
  0
VERTEX
  8
0
  5
F508
 10
1383.97
 20
423.892
 30
0.000000
  70
    32
  0
VERTEX
  8
0
  5
F509
 10
1383.29
 20
424.465
 30
0.000000
  70
    32
  0
VERTEX
  8
0
  5
F50A
 10
1382.57
 20
425.005
 30
0.000000
  70
    32
  0
VERTEX
  8
0
  5
F50B
 10
1381.83
 20
425.510
 30
0.000000
  70
    32
  0
VERTEX
  8
0
  5
F50C
 10
1381.06
 20
425.979
 30
0.000000
  70
    32
  0
VERTEX
  8
0
  5
F50D
 10
1380.27
 20
426.411
 30
0.000000
  70
    32
  0
VERTEX
  8
0
  5
F50E
 10
1379.46
 20
426.806
 30
0.000000
  70
    32
  0
VERTEX
  8
0
  5
F50F
 10
1378.63
 20
427.161
 30
0.000000
  70
    32
  0
VERTEX
  8
0
  5
F510
 10
1377.78
 20
427.477
 30
0.000000
  70
    32
  0
VERTEX
  8
0
  5
F511
 10
1376.92
 20
427.752
 30
0.000000
  70
    32
  0
VERTEX
  8
0
  5
F512
 10
1376.05
 20
427.986
 30
0.000000
  70
    32
  0
VERTEX
  8
0
  5
F513
 10
1375.16
 20
428.178
 30
0.000000
  70
    32
  0
VERTEX
  8
0
  5
F514
 10
1374.26
 20
428.328
 30
0.000000
  70
    32
  0
VERTEX
  8
0
  5
F515
 10
1373.36
 20
428.435
 30
0.000000
  70
    32
  0
VERTEX
  8
0
  5
F516
 10
1372.46
 20
428.500
 30
0.000000
  70
    32
  0
VERTEX
  8
0
  5
F517
 10
1371.55
 20
428.521
 30
0.000000
  70
    32
  0
VERTEX
  8
0
  5
F518
 10
1370.64
 20
428.500
 30
0.000000
  70
    32
  0
VERTEX
  8
0
  5
F519
 10
1369.74
 20
428.435
 30
0.000000
  70
    32
  0
VERTEX
  8
0
  5
F51A
 10
1368.84
 20
428.328
 30
0.000000
  70
    32
  0
VERTEX
  8
0
  5
F51B
 10
1367.94
 20
428.178
 30
0.000000
  70
    32
  0
VERTEX
  8
0
  5
F51C
 10
1367.06
 20
427.986
 30
0.000000
  70
    32
  0
VERTEX
  8
0
  5
F51D
 10
1366.18
 20
427.752
 30
0.000000
  70
    32
  0
VERTEX
  8
0
  5
F51E
 10
1365.32
 20
427.477
 30
0.000000
  70
    32
  0
VERTEX
  8
0
  5
F51F
 10
1364.47
 20
427.161
 30
0.000000
  70
    32
  0
VERTEX
  8
0
  5
F520
 10
1363.64
 20
426.806
 30
0.000000
  70
    32
  0
VERTEX
  8
0
  5
F521
 10
1362.83
 20
426.411
 30
0.000000
  70
    32
  0
VERTEX
  8
0
  5
F522
 10
1362.04
 20
425.979
 30
0.000000
  70
    32
  0
VERTEX
  8
0
  5
F523
 10
1361.27
 20
425.510
 30
0.000000
  70
    32
  0
VERTEX
  8
0
  5
F524
 10
1360.53
 20
425.005
 30
0.000000
  70
    32
  0
VERTEX
  8
0
  5
F525
 10
1359.81
 20
424.465
 30
0.000000
  70
    32
  0
VERTEX
  8
0
  5
F526
 10
1359.13
 20
423.892
 30
0.000000
  70
    32
  0
VERTEX
  8
0
  5
F527
 10
1358.47
 20
423.288
 30
0.000000
  70
    32
  0
VERTEX
  8
0
  5
F528
 10
1357.84
 20
422.652
 30
0.000000
  70
    32
  0
VERTEX
  8
0
  5
F529
 10
1357.25
 20
421.988
 30
0.000000
  70
    32
  0
VERTEX
  8
0
  5
F52A
 10
1356.69
 20
421.297
 30
0.000000
  70
    32
  0
VERTEX
  8
0
  5
F52B
 10
1356.17
 20
420.580
 30
0.000000
  70
    32
  0
VERTEX
  8
0
  5
F52C
 10
1355.68
 20
419.839
 30
0.000000
  70
    32
  0
VERTEX
  8
0
  5
F52D
 10
1355.23
 20
419.076
 30
0.000000
  70
    32
  0
VERTEX
  8
0
  5
F52E
 10
1354.83
 20
418.292
 30
0.000000
  70
    32
  0
VERTEX
  8
0
  5
F52F
 10
1354.46
 20
417.490
 30
0.000000
  70
    32
  0
VERTEX
  8
0
  5
F530
 10
1354.13
 20
416.672
 30
0.000000
  70
    32
  0
VERTEX
  8
0
  5
F531
 10
1353.85
 20
415.839
 30
0.000000
  70
    32
  0
VERTEX
  8
0
  5
F532
 10
1353.60
 20
414.994
 30
0.000000
  70
    32
  0
VERTEX
  8
0
  5
F533
 10
1353.41
 20
414.138
 30
0.000000
  70
    32
  0
VERTEX
  8
0
  5
F534
 10
1353.25
 20
413.274
 30
0.000000
  70
    32
  0
VERTEX
  8
0
  5
F535
 10
1353.14
 20
412.403
 30
0.000000
  70
    32
  0
VERTEX
  8
0
  5
F536
 10
1353.07
 20
411.529
 30
0.000000
  70
    32
  0
VERTEX
  8
0
  5
F537
 10
1353.05
 20
410.652
 30
0.000000
  70
    32
  0
SEQEND
  8
0
  5
F538
  0
POLYLINE
  5
F00F
  8
0
 10
1390.5503127803622
 20
404.98894499618865
 30
0.0
 66
     1
 70
     8
  0
VERTEX
  8
0
  5
F539
 10
1390.55
 20
404.989
 30
0.000000
  70
    32
  0
VERTEX
  8
0
  5
F53A
 10
1390.82
 20
405.570
 30
0.000000
  70
    32
  0
VERTEX
  8
0
  5
F53B
 10
1391.07
 20
406.158
 30
0.000000
  70
    32
  0
VERTEX
  8
0
  5
F53C
 10
1391.31
 20
406.755
 30
0.000000
  70
    32
  0
VERTEX
  8
0
  5
F53D
 10
1391.52
 20
407.357
 30
0.000000
  70
    32
  0
VERTEX
  8
0
  5
F53E
 10
1391.72
 20
407.967
 30
0.000000
  70
    32
  0
VERTEX
  8
0
  5
F53F
 10
1391.89
 20
408.581
 30
0.000000
  70
    32
  0
VERTEX
  8
0
  5
F540
 10
1392.04
 20
409.201
 30
0.000000
  70
    32
  0
VERTEX
  8
0
  5
F541
 10
1392.18
 20
409.825
 30
0.000000
  70
    32
  0
VERTEX
  8
0
  5
F542
 10
1392.29
 20
410.453
 30
0.000000
  70
    32
  0
VERTEX
  8
0
  5
F543
 10
1392.38
 20
411.084
 30
0.000000
  70
    32
  0
VERTEX
  8
0
  5
F544
 10
1392.46
 20
411.717
 30
0.000000
  70
    32
  0
VERTEX
  8
0
  5
F545
 10
1392.51
 20
412.352
 30
0.000000
  70
    32
  0
VERTEX
  8
0
  5
F546
 10
1392.54
 20
412.989
 30
0.000000
  70
    32
  0
VERTEX
  8
0
  5
F547
 10
1392.55
 20
413.626
 30
0.000000
  70
    32
  0
VERTEX
  8
0
  5
F548
 10
1392.54
 20
414.263
 30
0.000000
  70
    32
  0
VERTEX
  8
0
  5
F549
 10
1392.51
 20
414.900
 30
0.000000
  70
    32
  0
VERTEX
  8
0
  5
F54A
 10
1392.46
 20
415.535
 30
0.000000
  70
    32
  0
VERTEX
  8
0
  5
F54B
 10
1392.39
 20
416.169
 30
0.000000
  70
    32
  0
VERTEX
  8
0
  5
F54C
 10
1392.29
 20
416.799
 30
0.000000
  70
    32
  0
VERTEX
  8
0
  5
F54D
 10
1392.18
 20
417.427
 30
0.000000
  70
    32
  0
VERTEX
  8
0
  5
F54E
 10
1392.05
 20
418.051
 30
0.000000
  70
    32
  0
VERTEX
  8
0
  5
F54F
 10
1391.89
 20
418.671
 30
0.000000
  70
    32
  0
VERTEX
  8
0
  5
F550
 10
1391.72
 20
419.286
 30
0.000000
  70
    32
  0
VERTEX
  8
0
  5
F551
 10
1391.52
 20
419.895
 30
0.000000
  70
    32
  0
VERTEX
  8
0
  5
F552
 10
1391.31
 20
420.498
 30
0.000000
  70
    32
  0
VERTEX
  8
0
  5
F553
 10
1391.08
 20
421.094
 30
0.000000
  70
    32
  0
VERTEX
  8
0
  5
F554
 10
1390.82
 20
421.683
 30
0.000000
  70
    32
  0
VERTEX
  8
0
  5
F555
 10
1390.55
 20
422.264
 30
0.000000
  70
    32
  0
VERTEX
  8
0
  5
F556
 10
1390.26
 20
422.836
 30
0.000000
  70
    32
  0
VERTEX
  8
0
  5
F557
 10
1389.95
 20
423.399
 30
0.000000
  70
    32
  0
VERTEX
  8
0
  5
F558
 10
1389.63
 20
423.953
 30
0.000000
  70
    32
  0
VERTEX
  8
0
  5
F559
 10
1389.28
 20
424.496
 30
0.000000
  70
    32
  0
VERTEX
  8
0
  5
F55A
 10
1388.92
 20
425.029
 30
0.000000
  70
    32
  0
VERTEX
  8
0
  5
F55B
 10
1388.54
 20
425.550
 30
0.000000
  70
    32
  0
VERTEX
  8
0
  5
F55C
 10
1388.14
 20
426.060
 30
0.000000
  70
    32
  0
VERTEX
  8
0
  5
F55D
 10
1387.73
 20
426.557
 30
0.000000
  70
    32
  0
VERTEX
  8
0
  5
F55E
 10
1387.30
 20
427.042
 30
0.000000
  70
    32
  0
VERTEX
  8
0
  5
F55F
 10
1386.86
 20
427.513
 30
0.000000
  70
    32
  0
VERTEX
  8
0
  5
F560
 10
1386.40
 20
427.971
 30
0.000000
  70
    32
  0
VERTEX
  8
0
  5
F561
 10
1385.93
 20
428.414
 30
0.000000
  70
    32
  0
VERTEX
  8
0
  5
F562
 10
1385.44
 20
428.843
 30
0.000000
  70
    32
  0
VERTEX
  8
0
  5
F563
 10
1384.94
 20
429.257
 30
0.000000
  70
    32
  0
VERTEX
  8
0
  5
F564
 10
1384.42
 20
429.656
 30
0.000000
  70
    32
  0
VERTEX
  8
0
  5
F565
 10
1383.89
 20
430.038
 30
0.000000
  70
    32
  0
VERTEX
  8
0
  5
F566
 10
1383.35
 20
430.405
 30
0.000000
  70
    32
  0
VERTEX
  8
0
  5
F567
 10
1382.80
 20
430.755
 30
0.000000
  70
    32
  0
VERTEX
  8
0
  5
F568
 10
1382.24
 20
431.088
 30
0.000000
  70
    32
  0
VERTEX
  8
0
  5
F569
 10
1381.67
 20
431.403
 30
0.000000
  70
    32
  0
VERTEX
  8
0
  5
F56A
 10
1381.08
 20
431.702
 30
0.000000
  70
    32
  0
VERTEX
  8
0
  5
F56B
 10
1380.49
 20
431.982
 30
0.000000
  70
    32
  0
VERTEX
  8
0
  5
F56C
 10
1379.89
 20
432.244
 30
0.000000
  70
    32
  0
VERTEX
  8
0
  5
F56D
 10
1379.28
 20
432.488
 30
0.000000
  70
    32
  0
VERTEX
  8
0
  5
F56E
 10
1378.66
 20
432.713
 30
0.000000
  70
    32
  0
VERTEX
  8
0
  5
F56F
 10
1378.04
 20
432.920
 30
0.000000
  70
    32
  0
VERTEX
  8
0
  5
F570
 10
1377.41
 20
433.107
 30
0.000000
  70
    32
  0
VERTEX
  8
0
  5
F571
 10
1376.77
 20
433.275
 30
0.000000
  70
    32
  0
VERTEX
  8
0
  5
F572
 10
1376.13
 20
433.424
 30
0.000000
  70
    32
  0
VERTEX
  8
0
  5
F573
 10
1375.49
 20
433.554
 30
0.000000
  70
    32
  0
VERTEX
  8
0
  5
F574
 10
1374.84
 20
433.663
 30
0.000000
  70
    32
  0
VERTEX
  8
0
  5
F575
 10
1374.18
 20
433.753
 30
0.000000
  70
    32
  0
VERTEX
  8
0
  5
F576
 10
1373.53
 20
433.823
 30
0.000000
  70
    32
  0
VERTEX
  8
0
  5
F577
 10
1372.87
 20
433.873
 30
0.000000
  70
    32
  0
VERTEX
  8
0
  5
F578
 10
1372.21
 20
433.903
 30
0.000000
  70
    32
  0
VERTEX
  8
0
  5
F579
 10
1371.55
 20
433.913
 30
0.000000
  70
    32
  0
VERTEX
  8
0
  5
F57A
 10
1370.89
 20
433.903
 30
0.000000
  70
    32
  0
VERTEX
  8
0
  5
F57B
 10
1370.23
 20
433.873
 30
0.000000
  70
    32
  0
VERTEX
  8
0
  5
F57C
 10
1369.57
 20
433.823
 30
0.000000
  70
    32
  0
VERTEX
  8
0
  5
F57D
 10
1368.92
 20
433.753
 30
0.000000
  70
    32
  0
VERTEX
  8
0
  5
F57E
 10
1368.26
 20
433.663
 30
0.000000
  70
    32
  0
VERTEX
  8
0
  5
F57F
 10
1367.62
 20
433.554
 30
0.000000
  70
    32
  0
VERTEX
  8
0
  5
F580
 10
1366.97
 20
433.424
 30
0.000000
  70
    32
  0
VERTEX
  8
0
  5
F581
 10
1366.33
 20
433.275
 30
0.000000
  70
    32
  0
VERTEX
  8
0
  5
F582
 10
1365.69
 20
433.107
 30
0.000000
  70
    32
  0
VERTEX
  8
0
  5
F583
 10
1365.06
 20
432.920
 30
0.000000
  70
    32
  0
VERTEX
  8
0
  5
F584
 10
1364.44
 20
432.713
 30
0.000000
  70
    32
  0
VERTEX
  8
0
  5
F585
 10
1363.82
 20
432.488
 30
0.000000
  70
    32
  0
VERTEX
  8
0
  5
F586
 10
1363.21
 20
432.244
 30
0.000000
  70
    32
  0
VERTEX
  8
0
  5
F587
 10
1362.61
 20
431.982
 30
0.000000
  70
    32
  0
VERTEX
  8
0
  5
F588
 10
1362.02
 20
431.702
 30
0.000000
  70
    32
  0
VERTEX
  8
0
  5
F589
 10
1361.43
 20
431.403
 30
0.000000
  70
    32
  0
VERTEX
  8
0
  5
F58A
 10
1360.86
 20
431.088
 30
0.000000
  70
    32
  0
VERTEX
  8
0
  5
F58B
 10
1360.30
 20
430.755
 30
0.000000
  70
    32
  0
VERTEX
  8
0
  5
F58C
 10
1359.75
 20
430.405
 30
0.000000
  70
    32
  0
VERTEX
  8
0
  5
F58D
 10
1359.21
 20
430.038
 30
0.000000
  70
    32
  0
VERTEX
  8
0
  5
F58E
 10
1358.68
 20
429.656
 30
0.000000
  70
    32
  0
VERTEX
  8
0
  5
F58F
 10
1358.16
 20
429.257
 30
0.000000
  70
    32
  0
VERTEX
  8
0
  5
F590
 10
1357.66
 20
428.843
 30
0.000000
  70
    32
  0
VERTEX
  8
0
  5
F591
 10
1357.17
 20
428.414
 30
0.000000
  70
    32
  0
VERTEX
  8
0
  5
F592
 10
1356.70
 20
427.971
 30
0.000000
  70
    32
  0
VERTEX
  8
0
  5
F593
 10
1356.24
 20
427.513
 30
0.000000
  70
    32
  0
VERTEX
  8
0
  5
F594
 10
1355.80
 20
427.042
 30
0.000000
  70
    32
  0
VERTEX
  8
0
  5
F595
 10
1355.37
 20
426.557
 30
0.000000
  70
    32
  0
VERTEX
  8
0
  5
F596
 10
1354.96
 20
426.060
 30
0.000000
  70
    32
  0
VERTEX
  8
0
  5
F597
 10
1354.56
 20
425.550
 30
0.000000
  70
    32
  0
VERTEX
  8
0
  5
F598
 10
1354.18
 20
425.029
 30
0.000000
  70
    32
  0
VERTEX
  8
0
  5
F599
 10
1353.82
 20
424.496
 30
0.000000
  70
    32
  0
VERTEX
  8
0
  5
F59A
 10
1353.47
 20
423.953
 30
0.000000
  70
    32
  0
VERTEX
  8
0
  5
F59B
 10
1353.15
 20
423.399
 30
0.000000
  70
    32
  0
VERTEX
  8
0
  5
F59C
 10
1352.84
 20
422.836
 30
0.000000
  70
    32
  0
VERTEX
  8
0
  5
F59D
 10
1352.55
 20
422.264
 30
0.000000
  70
    32
  0
VERTEX
  8
0
  5
F59E
 10
1352.28
 20
421.683
 30
0.000000
  70
    32
  0
VERTEX
  8
0
  5
F59F
 10
1352.02
 20
421.094
 30
0.000000
  70
    32
  0
VERTEX
  8
0
  5
F5A0
 10
1351.79
 20
420.498
 30
0.000000
  70
    32
  0
VERTEX
  8
0
  5
F5A1
 10
1351.58
 20
419.895
 30
0.000000
  70
    32
  0
VERTEX
  8
0
  5
F5A2
 10
1351.38
 20
419.286
 30
0.000000
  70
    32
  0
VERTEX
  8
0
  5
F5A3
 10
1351.21
 20
418.671
 30
0.000000
  70
    32
  0
VERTEX
  8
0
  5
F5A4
 10
1351.06
 20
418.051
 30
0.000000
  70
    32
  0
VERTEX
  8
0
  5
F5A5
 10
1350.92
 20
417.427
 30
0.000000
  70
    32
  0
VERTEX
  8
0
  5
F5A6
 10
1350.81
 20
416.799
 30
0.000000
  70
    32
  0
VERTEX
  8
0
  5
F5A7
 10
1350.72
 20
416.169
 30
0.000000
  70
    32
  0
VERTEX
  8
0
  5
F5A8
 10
1350.64
 20
415.535
 30
0.000000
  70
    32
  0
VERTEX
  8
0
  5
F5A9
 10
1350.59
 20
414.900
 30
0.000000
  70
    32
  0
VERTEX
  8
0
  5
F5AA
 10
1350.56
 20
414.263
 30
0.000000
  70
    32
  0
VERTEX
  8
0
  5
F5AB
 10
1350.55
 20
413.626
 30
0.000000
  70
    32
  0
VERTEX
  8
0
  5
F5AC
 10
1350.56
 20
412.989
 30
0.000000
  70
    32
  0
VERTEX
  8
0
  5
F5AD
 10
1350.59
 20
412.352
 30
0.000000
  70
    32
  0
VERTEX
  8
0
  5
F5AE
 10
1350.64
 20
411.717
 30
0.000000
  70
    32
  0
VERTEX
  8
0
  5
F5AF
 10
1350.72
 20
411.084
 30
0.000000
  70
    32
  0
VERTEX
  8
0
  5
F5B0
 10
1350.81
 20
410.453
 30
0.000000
  70
    32
  0
VERTEX
  8
0
  5
F5B1
 10
1350.92
 20
409.825
 30
0.000000
  70
    32
  0
VERTEX
  8
0
  5
F5B2
 10
1351.06
 20
409.201
 30
0.000000
  70
    32
  0
VERTEX
  8
0
  5
F5B3
 10
1351.21
 20
408.581
 30
0.000000
  70
    32
  0
VERTEX
  8
0
  5
F5B4
 10
1351.38
 20
407.967
 30
0.000000
  70
    32
  0
VERTEX
  8
0
  5
F5B5
 10
1351.58
 20
407.357
 30
0.000000
  70
    32
  0
VERTEX
  8
0
  5
F5B6
 10
1351.79
 20
406.755
 30
0.000000
  70
    32
  0
VERTEX
  8
0
  5
F5B7
 10
1352.03
 20
406.158
 30
0.000000
  70
    32
  0
VERTEX
  8
0
  5
F5B8
 10
1352.28
 20
405.570
 30
0.000000
  70
    32
  0
VERTEX
  8
0
  5
F5B9
 10
1352.55
 20
404.989
 30
0.000000
  70
    32
  0
SEQEND
  8
0
  5
F5BA
  0
POLYLINE
  5
F010
  8
0
 10
1392.550312780362
 20
417.18158852592762
 30
0.0
 66
     1
 70
     8
  0
VERTEX
  8
0
  5
F5BB
 10
1392.55
 20
417.182
 30
0.000000
  70
    32
  0
VERTEX
  8
0
  5
F5BC
 10
1392.54
 20
417.679
 30
0.000000
  70
    32
  0
VERTEX
  8
0
  5
F5BD
 10
1392.53
 20
418.177
 30
0.000000
  70
    32
  0
VERTEX
  8
0
  5
F5BE
 10
1392.49
 20
418.674
 30
0.000000
  70
    32
  0
VERTEX
  8
0
  5
F5BF
 10
1392.45
 20
419.170
 30
0.000000
  70
    32
  0
VERTEX
  8
0
  5
F5C0
 10
1392.39
 20
419.665
 30
0.000000
  70
    32
  0
VERTEX
  8
0
  5
F5C1
 10
1392.32
 20
420.158
 30
0.000000
  70
    32
  0
VERTEX
  8
0
  5
F5C2
 10
1392.24
 20
420.649
 30
0.000000
  70
    32
  0
VERTEX
  8
0
  5
F5C3
 10
1392.15
 20
421.139
 30
0.000000
  70
    32
  0
VERTEX
  8
0
  5
F5C4
 10
1392.04
 20
421.626
 30
0.000000
  70
    32
  0
VERTEX
  8
0
  5
F5C5
 10
1391.92
 20
422.110
 30
0.000000
  70
    32
  0
VERTEX
  8
0
  5
F5C6
 10
1391.79
 20
422.592
 30
0.000000
  70
    32
  0
VERTEX
  8
0
  5
F5C7
 10
1391.65
 20
423.070
 30
0.000000
  70
    32
  0
VERTEX
  8
0
  5
F5C8
 10
1391.49
 20
423.544
 30
0.000000
  70
    32
  0
VERTEX
  8
0
  5
F5C9
 10
1391.32
 20
424.015
 30
0.000000
  70
    32
  0
VERTEX
  8
0
  5
F5CA
 10
1391.14
 20
424.482
 30
0.000000
  70
    32
  0
VERTEX
  8
0
  5
F5CB
 10
1390.95
 20
424.944
 30
0.000000
  70
    32
  0
VERTEX
  8
0
  5
F5CC
 10
1390.75
 20
425.402
 30
0.000000
  70
    32
  0
VERTEX
  8
0
  5
F5CD
 10
1390.53
 20
425.854
 30
0.000000
  70
    32
  0
VERTEX
  8
0
  5
F5CE
 10
1390.31
 20
426.302
 30
0.000000
  70
    32
  0
VERTEX
  8
0
  5
F5CF
 10
1390.07
 20
426.744
 30
0.000000
  70
    32
  0
VERTEX
  8
0
  5
F5D0
 10
1389.82
 20
427.180
 30
0.000000
  70
    32
  0
VERTEX
  8
0
  5
F5D1
 10
1389.56
 20
427.610
 30
0.000000
  70
    32
  0
VERTEX
  8
0
  5
F5D2
 10
1389.29
 20
428.034
 30
0.000000
  70
    32
  0
VERTEX
  8
0
  5
F5D3
 10
1389.01
 20
428.451
 30
0.000000
  70
    32
  0
VERTEX
  8
0
  5
F5D4
 10
1388.72
 20
428.862
 30
0.000000
  70
    32
  0
VERTEX
  8
0
  5
F5D5
 10
1388.42
 20
429.265
 30
0.000000
  70
    32
  0
VERTEX
  8
0
  5
F5D6
 10
1388.11
 20
429.661
 30
0.000000
  70
    32
  0
VERTEX
  8
0
  5
F5D7
 10
1387.78
 20
430.050
 30
0.000000
  70
    32
  0
VERTEX
  8
0
  5
F5D8
 10
1387.45
 20
430.431
 30
0.000000
  70
    32
  0
VERTEX
  8
0
  5
F5D9
 10
1387.11
 20
430.804
 30
0.000000
  70
    32
  0
VERTEX
  8
0
  5
F5DA
 10
1386.76
 20
431.169
 30
0.000000
  70
    32
  0
VERTEX
  8
0
  5
F5DB
 10
1386.40
 20
431.525
 30
0.000000
  70
    32
  0
VERTEX
  8
0
  5
F5DC
 10
1386.03
 20
431.873
 30
0.000000
  70
    32
  0
VERTEX
  8
0
  5
F5DD
 10
1385.65
 20
432.211
 30
0.000000
  70
    32
  0
VERTEX
  8
0
  5
F5DE
 10
1385.27
 20
432.541
 30
0.000000
  70
    32
  0
VERTEX
  8
0
  5
F5DF
 10
1384.87
 20
432.862
 30
0.000000
  70
    32
  0
VERTEX
  8
0
  5
F5E0
 10
1384.47
 20
433.173
 30
0.000000
  70
    32
  0
VERTEX
  8
0
  5
F5E1
 10
1384.06
 20
433.474
 30
0.000000
  70
    32
  0
VERTEX
  8
0
  5
F5E2
 10
1383.64
 20
433.766
 30
0.000000
  70
    32
  0
VERTEX
  8
0
  5
F5E3
 10
1383.22
 20
434.047
 30
0.000000
  70
    32
  0
VERTEX
  8
0
  5
F5E4
 10
1382.79
 20
434.319
 30
0.000000
  70
    32
  0
VERTEX
  8
0
  5
F5E5
 10
1382.35
 20
434.580
 30
0.000000
  70
    32
  0
VERTEX
  8
0
  5
F5E6
 10
1381.90
 20
434.831
 30
0.000000
  70
    32
  0
VERTEX
  8
0
  5
F5E7
 10
1381.45
 20
435.071
 30
0.000000
  70
    32
  0
VERTEX
  8
0
  5
F5E8
 10
1380.99
 20
435.300
 30
0.000000
  70
    32
  0
VERTEX
  8
0
  5
F5E9
 10
1380.53
 20
435.518
 30
0.000000
  70
    32
  0
VERTEX
  8
0
  5
F5EA
 10
1380.06
 20
435.726
 30
0.000000
  70
    32
  0
VERTEX
  8
0
  5
F5EB
 10
1379.59
 20
435.922
 30
0.000000
  70
    32
  0
VERTEX
  8
0
  5
F5EC
 10
1379.11
 20
436.107
 30
0.000000
  70
    32
  0
VERTEX
  8
0
  5
F5ED
 10
1378.62
 20
436.280
 30
0.000000
  70
    32
  0
VERTEX
  8
0
  5
F5EE
 10
1378.14
 20
436.442
 30
0.000000
  70
    32
  0
VERTEX
  8
0
  5
F5EF
 10
1377.65
 20
436.593
 30
0.000000
  70
    32
  0
VERTEX
  8
0
  5
F5F0
 10
1377.15
 20
436.731
 30
0.000000
  70
    32
  0
VERTEX
  8
0
  5
F5F1
 10
1376.65
 20
436.858
 30
0.000000
  70
    32
  0
VERTEX
  8
0
  5
F5F2
 10
1376.15
 20
436.973
 30
0.000000
  70
    32
  0
VERTEX
  8
0
  5
F5F3
 10
1375.65
 20
437.076
 30
0.000000
  70
    32
  0
VERTEX
  8
0
  5
F5F4
 10
1375.14
 20
437.167
 30
0.000000
  70
    32
  0
VERTEX
  8
0
  5
F5F5
 10
1374.63
 20
437.246
 30
0.000000
  70
    32
  0
VERTEX
  8
0
  5
F5F6
 10
1374.12
 20
437.313
 30
0.000000
  70
    32
  0
VERTEX
  8
0
  5
F5F7
 10
1373.61
 20
437.368
 30
0.000000
  70
    32
  0
VERTEX
  8
0
  5
F5F8
 10
1373.10
 20
437.411
 30
0.000000
  70
    32
  0
VERTEX
  8
0
  5
F5F9
 10
1372.58
 20
437.442
 30
0.000000
  70
    32
  0
VERTEX
  8
0
  5
F5FA
 10
1372.07
 20
437.460
 30
0.000000
  70
    32
  0
VERTEX
  8
0
  5
F5FB
 10
1371.55
 20
437.466
 30
0.000000
  70
    32
  0
VERTEX
  8
0
  5
F5FC
 10
1371.03
 20
437.460
 30
0.000000
  70
    32
  0
VERTEX
  8
0
  5
F5FD
 10
1370.52
 20
437.442
 30
0.000000
  70
    32
  0
VERTEX
  8
0
  5
F5FE
 10
1370.01
 20
437.411
 30
0.000000
  70
    32
  0
VERTEX
  8
0
  5
F5FF
 10
1369.49
 20
437.368
 30
0.000000
  70
    32
  0
VERTEX
  8
0
  5
F600
 10
1368.98
 20
437.313
 30
0.000000
  70
    32
  0
VERTEX
  8
0
  5
F601
 10
1368.47
 20
437.246
 30
0.000000
  70
    32
  0
VERTEX
  8
0
  5
F602
 10
1367.96
 20
437.167
 30
0.000000
  70
    32
  0
VERTEX
  8
0
  5
F603
 10
1367.45
 20
437.076
 30
0.000000
  70
    32
  0
VERTEX
  8
0
  5
F604
 10
1366.95
 20
436.973
 30
0.000000
  70
    32
  0
VERTEX
  8
0
  5
F605
 10
1366.45
 20
436.858
 30
0.000000
  70
    32
  0
VERTEX
  8
0
  5
F606
 10
1365.95
 20
436.731
 30
0.000000
  70
    32
  0
VERTEX
  8
0
  5
F607
 10
1365.45
 20
436.593
 30
0.000000
  70
    32
  0
VERTEX
  8
0
  5
F608
 10
1364.96
 20
436.442
 30
0.000000
  70
    32
  0
VERTEX
  8
0
  5
F609
 10
1364.48
 20
436.280
 30
0.000000
  70
    32
  0
VERTEX
  8
0
  5
F60A
 10
1363.99
 20
436.107
 30
0.000000
  70
    32
  0
VERTEX
  8
0
  5
F60B
 10
1363.51
 20
435.922
 30
0.000000
  70
    32
  0
VERTEX
  8
0
  5
F60C
 10
1363.04
 20
435.726
 30
0.000000
  70
    32
  0
VERTEX
  8
0
  5
F60D
 10
1362.57
 20
435.518
 30
0.000000
  70
    32
  0
VERTEX
  8
0
  5
F60E
 10
1362.11
 20
435.300
 30
0.000000
  70
    32
  0
VERTEX
  8
0
  5
F60F
 10
1361.65
 20
435.071
 30
0.000000
  70
    32
  0
VERTEX
  8
0
  5
F610
 10
1361.20
 20
434.831
 30
0.000000
  70
    32
  0
VERTEX
  8
0
  5
F611
 10
1360.75
 20
434.580
 30
0.000000
  70
    32
  0
VERTEX
  8
0
  5
F612
 10
1360.32
 20
434.319
 30
0.000000
  70
    32
  0
VERTEX
  8
0
  5
F613
 10
1359.88
 20
434.047
 30
0.000000
  70
    32
  0
VERTEX
  8
0
  5
F614
 10
1359.46
 20
433.766
 30
0.000000
  70
    32
  0
VERTEX
  8
0
  5
F615
 10
1359.04
 20
433.474
 30
0.000000
  70
    32
  0
VERTEX
  8
0
  5
F616
 10
1358.63
 20
433.173
 30
0.000000
  70
    32
  0
VERTEX
  8
0
  5
F617
 10
1358.23
 20
432.862
 30
0.000000
  70
    32
  0
VERTEX
  8
0
  5
F618
 10
1357.83
 20
432.541
 30
0.000000
  70
    32
  0
VERTEX
  8
0
  5
F619
 10
1357.45
 20
432.211
 30
0.000000
  70
    32
  0
VERTEX
  8
0
  5
F61A
 10
1357.07
 20
431.873
 30
0.000000
  70
    32
  0
VERTEX
  8
0
  5
F61B
 10
1356.70
 20
431.525
 30
0.000000
  70
    32
  0
VERTEX
  8
0
  5
F61C
 10
1356.34
 20
431.169
 30
0.000000
  70
    32
  0
VERTEX
  8
0
  5
F61D
 10
1355.99
 20
430.804
 30
0.000000
  70
    32
  0
VERTEX
  8
0
  5
F61E
 10
1355.65
 20
430.431
 30
0.000000
  70
    32
  0
VERTEX
  8
0
  5
F61F
 10
1355.32
 20
430.050
 30
0.000000
  70
    32
  0
VERTEX
  8
0
  5
F620
 10
1355.00
 20
429.661
 30
0.000000
  70
    32
  0
VERTEX
  8
0
  5
F621
 10
1354.68
 20
429.265
 30
0.000000
  70
    32
  0
VERTEX
  8
0
  5
F622
 10
1354.38
 20
428.862
 30
0.000000
  70
    32
  0
VERTEX
  8
0
  5
F623
 10
1354.09
 20
428.451
 30
0.000000
  70
    32
  0
VERTEX
  8
0
  5
F624
 10
1353.81
 20
428.034
 30
0.000000
  70
    32
  0
VERTEX
  8
0
  5
F625
 10
1353.54
 20
427.610
 30
0.000000
  70
    32
  0
VERTEX
  8
0
  5
F626
 10
1353.28
 20
427.180
 30
0.000000
  70
    32
  0
VERTEX
  8
0
  5
F627
 10
1353.03
 20
426.744
 30
0.000000
  70
    32
  0
VERTEX
  8
0
  5
F628
 10
1352.79
 20
426.302
 30
0.000000
  70
    32
  0
VERTEX
  8
0
  5
F629
 10
1352.57
 20
425.854
 30
0.000000
  70
    32
  0
VERTEX
  8
0
  5
F62A
 10
1352.35
 20
425.402
 30
0.000000
  70
    32
  0
VERTEX
  8
0
  5
F62B
 10
1352.15
 20
424.944
 30
0.000000
  70
    32
  0
VERTEX
  8
0
  5
F62C
 10
1351.96
 20
424.482
 30
0.000000
  70
    32
  0
VERTEX
  8
0
  5
F62D
 10
1351.78
 20
424.015
 30
0.000000
  70
    32
  0
VERTEX
  8
0
  5
F62E
 10
1351.61
 20
423.544
 30
0.000000
  70
    32
  0
VERTEX
  8
0
  5
F62F
 10
1351.45
 20
423.070
 30
0.000000
  70
    32
  0
VERTEX
  8
0
  5
F630
 10
1351.31
 20
422.592
 30
0.000000
  70
    32
  0
VERTEX
  8
0
  5
F631
 10
1351.18
 20
422.110
 30
0.000000
  70
    32
  0
VERTEX
  8
0
  5
F632
 10
1351.06
 20
421.626
 30
0.000000
  70
    32
  0
VERTEX
  8
0
  5
F633
 10
1350.95
 20
421.139
 30
0.000000
  70
    32
  0
VERTEX
  8
0
  5
F634
 10
1350.86
 20
420.649
 30
0.000000
  70
    32
  0
VERTEX
  8
0
  5
F635
 10
1350.78
 20
420.158
 30
0.000000
  70
    32
  0
VERTEX
  8
0
  5
F636
 10
1350.71
 20
419.665
 30
0.000000
  70
    32
  0
VERTEX
  8
0
  5
F637
 10
1350.65
 20
419.170
 30
0.000000
  70
    32
  0
VERTEX
  8
0
  5
F638
 10
1350.61
 20
418.674
 30
0.000000
  70
    32
  0
VERTEX
  8
0
  5
F639
 10
1350.58
 20
418.177
 30
0.000000
  70
    32
  0
VERTEX
  8
0
  5
F63A
 10
1350.56
 20
417.679
 30
0.000000
  70
    32
  0
VERTEX
  8
0
  5
F63B
 10
1350.55
 20
417.182
 30
0.000000
  70
    32
  0
SEQEND
  8
0
  5
F63C
  0
LINE
  5
F011
  8
0
 10
1369.2733127803619
 20
392.00785873929192
 30
0.0
 11
1373.827312780362
 21
392.00785873929192
 31
0.0
  0
ARC
  5
F012
  8
0
 10
1371.550312780362
 20
433.94609035437082
 30
0.0
 40
42.000000000000007
 50
180.0
 51
0.0
  0
LINE
  5
F013
  8
0
 10
1359.550312780362
 20
563.94609035437077
 30
0.0
 11
1359.550312780362
 21
547.94609035437065
 31
0.0
  0
LINE
  5
F014
  8
0
 10
1361.550312780362
 20
565.94609035437088
 30
0.0
 11
1359.550312780362
 21
563.94609035437077
 31
0.0
  0
LINE
  5
F015
  8
0
 10
1383.550312780362
 20
563.94609035437065
 30
0.0
 11
1383.550312780362
 21
547.94609035437065
 31
0.0
  0
LINE
  5
F016
  8
0
 10
1381.550312780362
 20
565.94609035437088
 30
0.0
 11
1383.550312780362
 21
563.94609035437065
 31
0.0
  0
LINE
  5
F017
  8
0
 10
1317.550312780362
 20
540.94609035437088
 30
0.0
 11
1317.550312780362
 21
531.94609035437065
 31
0.0
  0
ARC
  5
F018
  8
0
 10
1319.550312780362
 20
540.94609035437065
 30
0.0
 40
2.0
 50
90.0
 51
180.0
  0
LINE
  5
F019
  8
0
 10
1425.550312780362
 20
540.94609035437065
 30
0.0
 11
1425.550312780362
 21
531.94609035437065
 31
0.0
  0
ARC
  5
F01A
  8
0
 10
1423.550312780362
 20
540.94609035437054
 30
0.0
 40
2.0
 50
0.0
 51
90.0
  0
ARC
  5
F01B
  8
0
 10
1423.550312780362
 20
531.94609035437054
 30
0.0
 40
2.0
 50
329.99999999999062
 51
0.0
  0
ARC
  5
F01C
  8
0
 10
1319.550312780362
 20
531.94609035437054
 30
0.0
 40
2.0
 50
180.0
 51
209.9999999999973
  0
LINE
  5
F01D
  8
0
 10
1319.550312780362
 20
542.94609035437077
 30
0.0
 11
1358.524722546355
 21
542.94609035437065
 31
0.0
  0
LINE
  5
F01E
  8
0
 10
1317.8182619727929
 20
530.94609035437077
 30
0.0
 11
1425.2823635879311
 21
530.94609035437065
 31
0.0
  0
ARC
  5
F01F
  8
0
 10
1354.550312780362
 20
547.94609035437054
 30
0.0
 40
5.0
 50
270.0
 51
0.0
  0
LINE
  5
F020
  8
0
 10
1384.447685339986
 20
542.94609035437054
 30
0.0
 11
1423.550312780362
 21
542.94609035437065
 31
0.0
  0
ARC
  5
F021
  8
0
 10
1388.550312780362
 20
547.94609035437054
 30
0.0
 40
5.0
 50
180.0
 51
270.0
  0
CIRCLE
  5
F022
  8
0
 10
1371.550312780362
 20
548.94609035437065
 30
0.0
 40
5.0
  0
ARC
  5
F023
  8
0
 10
1371.48620394317
 20
548.94609035437065
 30
0.0
 40
8.0
 50
355.58827421422899
 51
184.41172578577101
  0
ARC
  5
F024
  8
0
 10
1384.447685339986
 20
547.94609035437054
 30
0.0
 40
5.0
 50
175.58827421422899
 51
270.0
  0
ARC
  5
F025
  8
0
 10
1358.524722546355
 20
547.94609035437054
 30
0.0
 40
5.0
 50
270.0
 51
4.4117257857710044
  0
LINE
  5
F026
  8
0
 10
1361.550312780362
 20
565.94609035437088
 30
0.0
 11
1381.550312780362
 21
565.94609035437088
 31
0.0
  0
LINE
  5
F028
  8
0
 10
1319.5381194715419
 20
551.94609035437065
 30
0.0
 11
1319.5381194715419
 21
542.94609035437077
 31
0.0
  0
LINE
  5
F029
  8
0
 10
1341.538119471543
 20
551.94609035437077
 30
0.0
 11
1341.538119471543
 21
542.94609035437065
 31
0.0
  0
LINE
  5
F02A
  8
0
 10
1330.5381194715419
 20
550.94609035437077
 30
0.0
 11
1330.5381194715419
 21
542.94609035437065
 31
0.0
  0
LINE
  5
F02B
  8
0
 10
1319.5381194715419
 20
551.94609035437065
 30
0.0
 11
1341.538119471543
 21
551.94609035437077
 31
0.0
  0
ARC
  5
F02C
  8
0
 10
1325.038119471543
 20
536.32109035437065
 30
0.0
 40
15.625
 50
69.390307062476055
 51
110.6096929375239
  0
ARC
  5
F02D
  8
0
 10
1336.0381194715419
 20
536.32109035437065
 30
0.0
 40
15.625
 50
69.390307062476055
 51
110.6096929375239
  0
LINE
  5
F02E
  8
0
 10
1401.5625060891821
 20
551.94609035437065
 30
0.0
 11
1401.5625060891821
 21
542.94609035437065
 31
0.0
  0
LINE
  5
F02F
  8
0
 10
1423.5625060891821
 20
551.94609035437065
 30
0.0
 11
1423.5625060891821
 21
542.94609035437054
 31
0.0
  0
LINE
  5
F030
  8
0
 10
1412.5625060891821
 20
550.94609035437065
 30
0.0
 11
1412.5625060891821
 21
542.94609035437054
 31
0.0
  0
LINE
  5
F031
  8
0
 10
1401.5625060891821
 20
551.94609035437065
 30
0.0
 11
1423.5625060891821
 21
551.94609035437065
 31
0.0
  0
ARC
  5
F032
  8
0
 10
1407.0625060891821
 20
536.32109035437065
 30
0.0
 40
15.625
 50
69.390307062476055
 51
110.6096929375239
  0
ARC
  5
F033
  8
0
 10
1418.0625060891821
 20
536.32109035437065
 30
0.0
 40
15.625
 50
69.390307062476055
 51
110.6096929375239
  0
LINE
  5
F034
  8
0
 10
1380.550312780362
 20
528.39446074140369
 30
0.0
 11
1380.550312780362
 21
530.94609035437077
 31
0.0
  0
LINE
  5
F035
  8
0
 10
1252.8173500480341
 20
554.94609035437088
 30
0.0
 11
1252.8173500480341
 21
531.94609035437077
 31
0.0
  0
ARC
  5
F036
  8
0
 10
1250.8173500480341
 20
554.94609035437088
 30
0.0
 40
2.0
 50
0.0
 51
90.0
  0
ARC
  5
F037
  8
0
 10
1250.8173500480341
 20
531.94609035437077
 30
0.0
 40
2.0
 50
330.00000000000267
 51
0.0
  0
LINE
  5
F038
  8
0
 10
1206.8173500480341
 20
565.94609035437088
 30
0.0
 11
1186.8173500480341
 21
565.94609035437088
 31
0.0
  0
LINE
  5
F039
  8
0
 10
1250.8173500480341
 20
556.94609035437077
 30
0.0
 11
1210.8173500480341
 21
556.94609035437065
 31
0.0
  0
ARC
  5
F03A
  8
0
 10
1210.8173500480341
 20
558.94609035437065
 30
0.0
 40
2.0
 50
180.0
 51
270.0
  0
ARC
  5
F03B
  8
0
 10
1179.8173500480341
 20
547.94609035437065
 30
0.0
 40
5.0
 50
270.0
 51
0.0
  0
LINE
  5
F03C
  8
0
 10
1140.8173500480341
 20
540.94609035437088
 30
0.0
 11
1140.8173500480341
 21
531.94609035437077
 31
0.0
  0
ARC
  5
F03D
  8
0
 10
1142.8173500480341
 20
540.94609035437065
 30
0.0
 40
2.0
 50
90.0
 51
180.0
  0
ARC
  5
F03E
  8
0
 10
1142.8173500480341
 20
531.94609035437065
 30
0.0
 40
2.0
 50
180.0
 51
209.9999999999973
  0
LINE
  5
F03F
  8
0
 10
1184.8173500480341
 20
563.94609035437077
 30
0.0
 11
1184.8173500480341
 21
547.94609035437077
 31
0.0
  0
LINE
  5
F040
  8
0
 10
1186.8173500480341
 20
565.94609035437088
 30
0.0
 11
1184.8173500480341
 21
563.94609035437077
 31
0.0
  0
LINE
  5
F041
  8
0
 10
1208.8173500480341
 20
563.94609035437077
 30
0.0
 11
1208.8173500480341
 21
547.94609035437065
 31
0.0
  0
LINE
  5
F042
  8
0
 10
1206.8173500480341
 20
565.94609035437088
 30
0.0
 11
1208.8173500480341
 21
563.94609035437077
 31
0.0
  0
LINE
  5
F043
  8
0
 10
1252.8173500480341
 20
542.94609035437088
 30
0.0
 11
1142.8173500480341
 21
542.94609035437077
 31
0.0
  0
LINE
  5
F044
  8
0
 10
1141.085299240465
 20
530.94609035437065
 30
0.0
 11
1252.5494008556029
 21
530.94609035437077
 31
0.0
  0
ARC
  5
F045
  8
0
 10
1213.8173500480341
 20
547.94609035437065
 30
0.0
 40
5.0
 50
180.0
 51
270.0
  0
LINE
  5
F046
  8
0
 10
1143.194602431852
 20
550.94609035437077
 30
0.0
 11
1143.194602431852
 21
542.94609035437077
 31
0.0
  0
LINE
  5
F047
  8
0
 10
1168.598014276196
 20
550.94609035437077
 30
0.0
 11
1168.598014276196
 21
542.94609035437077
 31
0.0
  0
LINE
  5
F048
  8
0
 10
1144.9266532394211
 20
551.94609035437088
 30
0.0
 11
1166.865963468626
 21
551.94609035437077
 31
0.0
  0
LINE
  5
F049
  8
0
 10
1149.545455392938
 20
550.94609035437077
 30
0.0
 11
1149.545455392938
 21
542.94609035437088
 31
0.0
  0
LINE
  5
F04A
  8
0
 10
1162.247161315109
 20
550.94609035437077
 30
0.0
 11
1162.247161315109
 21
542.94609035437088
 31
0.0
  0
ARC
  5
F04B
  8
0
 10
1146.3700289123949
 20
546.40442368770437
 30
0.0
 40
5.5416666666664627
 50
55.039659594481499
 51
124.96034040551849
  0
ARC
  5
F04C
  8
0
 10
1155.8963083540241
 20
531.27942368770459
 30
0.0
 40
20.66666666666627
 50
72.103448870751578
 51
107.89655112924839
  0
ARC
  5
F04D
  8
0
 10
1165.4225877956519
 20
546.40442368770459
 30
0.0
 40
5.5416666666664627
 50
55.039659594481499
 51
124.96034040551849
  0
LINE
  5
F04E
  8
0
 10
1143.194602431852
 20
550.94609035437077
 30
0.0
 11
1144.9266532394211
 21
551.94609035437088
 31
0.0
  0
LINE
  5
F04F
  8
0
 10
1168.598014276196
 20
550.94609035437077
 30
0.0
 11
1166.865963468626
 21
551.94609035437088
 31
0.0
  0
LINE
  5
F050
  8
0
 10
1225.0366858198729
 20
550.94609035437088
 30
0.0
 11
1225.0366858198729
 21
542.94609035437088
 31
0.0
  0
LINE
  5
F051
  8
0
 10
1250.440097664216
 20
550.94609035437088
 30
0.0
 11
1250.440097664216
 21
542.94609035437088
 31
0.0
  0
LINE
  5
F052
  8
0
 10
1226.768736627442
 20
551.94609035437111
 30
0.0
 11
1248.7080468566469
 21
551.94609035437088
 31
0.0
  0
LINE
  5
F053
  8
0
 10
1231.3875387809589
 20
550.94609035437088
 30
0.0
 11
1231.3875387809589
 21
542.94609035437111
 31
0.0
  0
LINE
  5
F054
  8
0
 10
1244.0892447031299
 20
550.94609035437088
 30
0.0
 11
1244.0892447031299
 21
542.94609035437111
 31
0.0
  0
ARC
  5
F055
  8
0
 10
1228.212112300416
 20
546.40442368770459
 30
0.0
 40
5.5416666666664627
 50
55.039659594481499
 51
124.96034040551849
  0
ARC
  5
F056
  8
0
 10
1237.7383917420441
 20
531.27942368770471
 30
0.0
 40
20.66666666666627
 50
72.103448870751578
 51
107.89655112924839
  0
ARC
  5
F057
  8
0
 10
1247.264671183673
 20
546.40442368770471
 30
0.0
 40
5.5416666666664627
 50
55.039659594481499
 51
124.96034040551849
  0
LINE
  5
F058
  8
0
 10
1225.0366858198729
 20
550.94609035437088
 30
0.0
 11
1226.768736627442
 21
551.94609035437111
 31
0.0
  0
LINE
  5
F059
  8
0
 10
1250.440097664216
 20
550.94609035437088
 30
0.0
 11
1248.7080468566469
 21
551.94609035437111
 31
0.0
  0
LINE
  5
F05A
  8
0
 10
1131.6836298939979
 20
530.94609035437065
 30
0.0
 11
1280.985162512532
 21
530.94609035437065
 31
0.0
  0
LINE
  5
F05B
  8
0
 10
1262.8173500480341
 20
484.94609035437071
 30
0.0
 11
1276.8173500480341
 21
484.94609035437071
 31
0.0
  0
ARC
  5
F05C
  8
0
 10
1262.8173500480341
 20
486.94609035437071
 30
0.0
 40
2.0
 50
180.0
 51
270.0
  0
LINE
  5
F05D
  8
0
 10
1262.8173500480341
 20
508.94609035437082
 30
0.0
 11
1276.8173500480341
 21
508.94609035437082
 31
0.0
  0
ARC
  5
F05E
  8
0
 10
1262.8173500480341
 20
506.94609035437071
 30
0.0
 40
2.0
 50
90.0
 51
180.0
  0
LINE
  5
F05F
  8
0
 10
1154.8173500480341
 20
417.38258202747448
 30
0.0
 11
1154.8173500480341
 21
393.50959868126699
 31
0.0
  0
LINE
  5
F060
  8
0
 10
1284.8173500480341
 20
527.94609035437054
 30
0.0
 11
1284.8173500480341
 21
465.94609035437071
 31
0.0
  0
LINE
  5
F061
  8
0
 10
1124.8173500480341
 20
527.94609035437065
 30
0.0
 11
1124.8173500480341
 21
465.94609035437099
 31
0.0
  0
LINE
  5
F062
  8
0
 10
1252.8173500480341
 20
530.94609035437065
 30
0.0
 11
1252.8173500480341
 21
520.94609035437065
 31
0.0
  0
ARC
  5
F063
  8
0
 10
1250.8173500480341
 20
520.94609035437065
 30
0.0
 40
2.0
 50
270.0
 51
0.0
  0
LINE
  5
F064
  8
0
 10
1140.8173500480341
 20
530.94609035437065
 30
0.0
 11
1140.8173500480341
 21
520.94609035437099
 31
0.0
  0
LINE
  5
F065
  8
0
 10
1268.8173500480341
 20
438.69615335122973
 30
0.0
 11
1268.8173500480341
 21
459.94609035437071
 31
0.0
  0
ARC
  5
F066
  8
0
 10
1273.8173500480341
 20
459.94609035437071
 30
0.0
 40
5.0
 50
90.0
 51
180.0
  0
LINE
  5
F067
  8
0
 10
1154.8173500480341
 20
459.94609035437071
 30
0.0
 11
1154.8173500480341
 21
433.94609035437082
 31
0.0
  0
ARC
  5
F068
  8
0
 10
1149.8173500480341
 20
459.94609035437071
 30
0.0
 40
5.0
 50
0.0
 51
90.0
  0
LINE
  5
F069
  8
0
 10
1278.8173500480341
 20
486.94609035437071
 30
0.0
 11
1278.8173500480341
 21
506.94609035437071
 31
0.0
  0
ARC
  5
F06A
  8
0
 10
1276.8173500480341
 20
506.94609035437071
 30
0.0
 40
2.0
 50
0.0
 51
90.0
  0
ARC
  5
F06B
  8
0
 10
1276.8173500480341
 20
486.94609035437071
 30
0.0
 40
2.0
 50
270.0
 51
0.0
  0
LINE
  5
F06C
  8
0
 10
1260.8173500480341
 20
486.94609035437071
 30
0.0
 11
1260.8173500480341
 21
506.94609035437071
 31
0.0
  0
LINE
  5
F06D
  8
0
 10
1283.8173500480341
 20
528.94609035437065
 30
0.0
 11
1255.8173500480341
 21
528.94609035437065
 31
0.0
  0
LINE
  5
F06E
  8
0
 10
1284.8173500480341
 20
527.94609035437065
 30
0.0
 11
1283.8173500480341
 21
528.94609035437065
 31
0.0
  0
ARC
  5
F06F
  8
0
 10
1255.8173500480341
 20
531.94609035437065
 30
0.0
 40
3.0
 50
199.47122063449399
 51
270.0
  0
LINE
  5
F070
  8
0
 10
1250.8173500480341
 20
518.94609035437065
 30
0.0
 11
1196.8173500480341
 21
518.94609035437099
 31
0.0
  0
ARC
  5
F071
  8
0
 10
1239.8173500480341
 20
514.94609035437065
 30
0.0
 40
4.0
 50
90.0
 51
180.0
  0
LINE
  5
F072
  8
0
 10
1196.8173500480341
 20
518.94609035437099
 30
0.0
 11
1142.8173500480341
 21
518.94609035437099
 31
0.0
  0
ARC
  5
F073
  8
0
 10
1142.8173500480341
 20
520.94609035437099
 30
0.0
 40
2.0
 50
180.0
 51
270.0
  0
LINE
  5
F074
  8
0
 10
1140.8173500480341
 20
528.94609035437031
 30
0.0
 11
1125.8173500480341
 21
528.94609035437065
 31
0.0
  0
LINE
  5
F075
  8
0
 10
1124.8173500480341
 20
527.94609035437065
 30
0.0
 11
1125.8173500480341
 21
528.94609035437065
 31
0.0
  0
LINE
  5
F076
  8
0
 10
1125.8173500480341
 20
464.94609035437071
 30
0.0
 11
1149.8173500480341
 21
464.94609035437071
 31
0.0
  0
LINE
  5
F077
  8
0
 10
1124.8173500480341
 20
465.94609035437099
 30
0.0
 11
1125.8173500480341
 21
464.94609035437071
 31
0.0
  0
LINE
  5
F078
  8
0
 10
1273.8173500480341
 20
464.94609035437071
 30
0.0
 11
1283.8173500480341
 21
464.94609035437071
 31
0.0
  0
LINE
  5
F079
  8
0
 10
1284.8173500480341
 20
465.94609035437071
 30
0.0
 11
1283.8173500480341
 21
464.94609035437071
 31
0.0
  0
ARC
  5
F07A
  8
0
 10
1128.8273500480341
 20
531.94609035437065
 30
0.0
 40
3.0
 50
270.0
 51
335.37568164783988
  0
ARC
  5
F07B
  8
0
 10
1134.281706105352
 20
529.44609035437065
 30
0.0
 40
3.0
 50
150.0000000000027
 51
155.37568164782849
  0
LINE
  5
F07C
  8
0
 10
1271.040878138311
 20
435.79837983119558
 30
0.0
 11
1278.077623770497
 21
433.9128510686881
 31
0.0
  0
ARC
  5
F07D
  8
0
 10
1271.8173500480341
 20
438.69615335122973
 30
0.0
 40
3.0
 50
180.0
 51
254.99970787535861
  0
LINE
  5
F07E
  8
0
 10
1229.2014142571529
 20
403.52780004574811
 30
0.0
 11
1267.2072238760491
 21
393.34396636401999
 31
0.0
  0
LINE
  5
F07F
  8
0
 10
1268.431967427814
 20
394.05106822039232
 30
0.0
 11
1267.2072238760491
 21
393.34396636401999
 31
0.0
  0
ARC
  5
F080
  8
0
 10
1196.8173500480341
 20
433.94609035437082
 30
0.0
 40
42.0
 50
180.0
 51
270.0
  0
ARC
  5
F081
  8
0
 10
1196.8173500480341
 20
433.94609035437082
 30
0.0
 40
42.0
 50
254.64111441918089
 51
0.0
  0
ARC
  5
F082
  8
0
 10
1227.9072944076149
 20
398.6981775123578
 30
0.0
 40
5.0
 50
74.999707875358581
 51
131.41346868724699
  0
ARC
  5
F083
  8
0
 10
1155.2752027756551
 20
419.44609035437071
 30
0.0
 40
2.0
 50
270.0
 51
19.241188763126711
  0
LINE
  5
F084
  8
0
 10
1185.6930523173901
 20
393.44609035437082
 30
0.0
 11
1155.3173500480341
 21
393.44609035437082
 31
0.0
  0
ARC
  5
F085
  8
0
 10
1155.3173500480341
 20
395.44609035437082
 30
0.0
 40
2.0
 50
255.5224878140705
 51
270.0
  0
LINE
  5
F086
  8
0
 10
1155.2752027756551
 20
417.44609035437082
 30
0.0
 11
1155.3173500480341
 21
417.44609035437082
 31
0.0
  0
ARC
  5
F087
  8
0
 10
1155.3173500480341
 20
415.44609035437071
 30
0.0
 40
2.0
 50
90.0
 51
104.4775121859294
  0
LINE
  5
F088
  8
0
 10
1278.784729232063
 20
432.68810127250759
 30
0.0
 11
1268.431967427814
 21
394.05106822039232
 31
0.0
  0
LINE
  5
F089
  8
0
 10
1278.077623770497
 20
433.9128510686881
 30
0.0
 11
1278.784729232063
 21
432.68810127250742
 31
0.0
  0
LINE
  5
F08A
  8
0
 10
1165.8173500480341
 20
474.22229300936573
 30
0.0
 11
1227.8173500480341
 21
474.22229300936573
 31
0.0
  0
ARC
  5
F08B
  8
0
 10
1165.8173500480341
 20
482.22229300936573
 30
0.0
 40
8.0
 50
180.0
 51
270.0
  0
LINE
  5
F08C
  8
0
 10
1238.8173500480341
 20
463.97776617531309
 30
0.0
 11
1238.8173500480341
 21
433.94609035437082
 31
0.0
  0
LINE
  5
F08D
  8
0
 10
1125.8173500480341
 20
528.94609035437065
 30
0.0
 11
1125.8173500480341
 21
464.94609035437071
 31
0.0
  0
LINE
  5
F08E
  8
0
 10
1283.8173500480341
 20
528.94609035437065
 30
0.0
 11
1283.8173500480341
 21
464.94609035437071
 31
0.0
  0
LINE
  5
F08F
  8
0
 10
1132.8173500480341
 20
484.94609035437071
 30
0.0
 11
1146.8173500480341
 21
484.94609035437071
 31
0.0
  0
ARC
  5
F090
  8
0
 10
1132.8173500480341
 20
486.94609035437071
 30
0.0
 40
2.0
 50
180.0
 51
270.0
  0
LINE
  5
F091
  8
0
 10
1132.8173500480341
 20
508.94609035437082
 30
0.0
 11
1146.8173500480341
 21
508.94609035437082
 31
0.0
  0
ARC
  5
F092
  8
0
 10
1132.8173500480341
 20
506.94609035437071
 30
0.0
 40
2.0
 50
90.0
 51
180.0
  0
LINE
  5
F093
  8
0
 10
1148.8173500480341
 20
486.94609035437071
 30
0.0
 11
1148.8173500480341
 21
506.94609035437071
 31
0.0
  0
ARC
  5
F094
  8
0
 10
1146.8173500480341
 20
506.94609035437071
 30
0.0
 40
2.0
 50
0.0
 51
90.0
  0
ARC
  5
F095
  8
0
 10
1146.8173500480341
 20
486.94609035437071
 30
0.0
 40
2.0
 50
270.0
 51
0.0
  0
LINE
  5
F096
  8
0
 10
1130.8173500480341
 20
486.94609035437071
 30
0.0
 11
1130.8173500480341
 21
506.94609035437071
 31
0.0
  0
LINE
  5
F097
  8
0
 10
1157.8173500480341
 20
514.94609035437099
 30
0.0
 11
1157.8173500480341
 21
482.22229300936573
 31
0.0
  0
ARC
  5
F098
  8
0
 10
1153.8173500480341
 20
514.94609035437099
 30
0.0
 40
4.0
 50
0.0
 51
90.0
  0
ARC
  5
F099
  8
0
 10
1227.8173500480341
 20
482.22229300936573
 30
0.0
 40
8.0
 50
270.0
 51
0.0
  0
LINE
  5
F09A
  8
0
 10
1235.8173500480341
 20
514.94609035437065
 30
0.0
 11
1235.8173500480341
 21
482.22229300936573
 31
0.0
  0
INSERT
  5
F09C
  8
0
  2
DT-ARROW
 10
1212.8173500480341
 20
458.44609035437071
 30
0.0
 41
0.3200000000001637
 42
0.3199999999999363
 43
0.32
  0
ARC
  5
F09D
  8
0
 10
1242.8173500480341
 20
463.97776617531309
 30
0.0
 40
4.0
 50
90.0
 51
180.0
  0
ARC
  5
F09E
  8
0
 10
1257.9441030359219
 20
407.68209383079272
 30
0.0
 40
32.160671645328392
 50
87.914640079566141
 51
110.1577239301354
  0
LINE
  5
F09F
  8
0
 10
1278.077623770497
 20
433.9128510686881
 30
0.0
 11
1267.2070170343779
 21
393.34402178820932
 31
0.0
  0
LINE
  5
F0A0
  8
0
 10
1283.8173500480341
 20
528.94609035437065
 30
0.0
 11
1283.8173500480341
 21
528.94609035437065
 31
0.0
  0
ARC
  5
F0A1
  8
0
 10
1283.8173500480341
 20
531.94609035437065
 30
0.0
 40
3.0
 50
201.32368626349719
 51
270.0
  0
ARC
  5
F0A2
  8
0
 10
1278.693874665054
 20
529.94609035437077
 30
0.0
 40
2.5
 50
21.323686263497208
 51
23.57817847820715
  0
LINE
  5
F0A3
  8
0
 10
1273.6703949440621
 20
404.71849196424171
 30
0.0
 11
1280.820177910254
 21
402.802713392393
 31
0.0
  0
LINE
  5
F0A4
  8
0
 10
1280.820177910254
 20
402.802713392393
 30
0.0
 11
1279.7993955963691
 21
398.99310193350891
 31
0.0
  0
LINE
  5
F0A5
  8
0
 10
1279.7993955963691
 20
398.99310193350891
 30
0.0
 11
1272.6496126301779
 21
400.90888050535767
 31
0.0
  0
LINE
  5
F0A6
  8
0
 10
1289.0216187291551
 20
428.39195663040329
 30
0.0
 11
1288.3492239322859
 21
430.90149567914199
 31
0.0
  0
LINE
  5
F0A7
  8
0
 10
1288.3492239322859
 20
430.90149567914199
 30
0.0
 11
1281.199440966094
 21
432.81727425099092
 31
0.0
  0
LINE
  5
F0A8
  8
0
 10
1281.199440966094
 20
432.81727425099092
 30
0.0
 11
1279.3623604662639
 21
430.98014708142853
 31
0.0
  0
LINE
  5
F0A9
  8
0
 10
1279.362360466266
 20
430.98014708143069
 30
0.0
 11
1269.786185206993
 21
395.24137447164628
 31
0.0
  0
LINE
  5
F0AA
  8
0
 10
1269.786185206993
 20
395.24137447164628
 30
0.0
 11
1270.4585800038619
 21
392.73183542290769
 31
0.0
  0
LINE
  5
F0AB
  8
0
 10
1270.4585800038619
 20
392.73183542290769
 30
0.0
 11
1277.608362970054
 21
390.81605685105887
 31
0.0
  0
LINE
  5
F0AC
  8
0
 10
1277.608362970054
 20
390.81605685105887
 30
0.0
 11
1279.4454434698839
 21
392.6531840206211
 31
0.0
  0
LINE
  5
F0AD
  8
0
 10
1279.4454434698839
 20
392.6531840206211
 30
0.0
 11
1289.0216187291551
 21
428.39195663040329
 31
0.0
  0
ARC
  5
F0AE
  8
0
 10
1270.094555783709
 20
397.2114406713539
 30
0.0
 40
9.8670275484803067
 50
319.59720228552783
 51
10.402797714469591
  0
LINE
  5
F0AF
  8
0
 10
1277.987496616372
 20
420.83013474674362
 30
0.0
 11
1285.1372795825639
 21
418.91435617489481
 31
0.0
  0
LINE
  5
F0B0
  8
0
 10
1285.1372795825639
 20
418.91435617489481
 30
0.0
 11
1286.1580618964481
 21
422.7239676337789
 31
0.0
  0
LINE
  5
F0B1
  8
0
 10
1286.1580618964481
 20
422.7239676337789
 30
0.0
 11
1279.0082789302569
 21
424.63974620562772
 31
0.0
  0
ARC
  5
F0B2
  8
0
 10
1278.644254710103
 20
429.11935145407409
 30
0.0
 40
9.8670275484803067
 50
319.59720228552783
 51
10.40279771446319
  0
ARC
  5
F0B3
  8
0
 10
1248.2269227434119
 20
420.17025313766987
 30
0.0
 40
36.931716981134642
 50
331.94877133349581
 51
358.05122866650879
  0
LINE
  5
F0B4
  8
0
 10
1273.6703949440621
 20
404.71849196424171
 30
0.0
 11
1272.6496126301779
 21
400.90888050535767
 31
0.0
  0
ARC
  5
F0B5
  8
0
 10
1280.1634198165229
 20
394.51349668506248
 30
0.0
 40
9.8670275484803067
 50
139.59720228552769
 51
190.40279771446319
  0
LINE
  5
F0B6
  8
0
 10
1277.987496616372
 20
420.83013474674362
 30
0.0
 11
1279.0082789302569
 21
424.63974620562772
 31
0.0
  0
ARC
  5
F0B7
  8
0
 10
1288.713118742917
 20
426.42140746778273
 30
0.0
 40
9.8670275484803067
 50
139.59720228552769
 51
190.40279771446961
  0
ARC
  5
F0B8
  8
0
 10
1310.5807517832141
 20
403.46259500146658
 30
0.0
 40
36.931716981134642
 50
151.94877133349581
 51
178.05122866650879
  0
LINE
  5
F0B9
  8
0
 10
1269.786185206993
 20
395.24137447164628
 30
0.0
 11
1268.8202593807041
 21
395.50019351674871
 31
0.0
  0
LINE
  5
F0BA
  8
0
 10
1279.3623604662639
 20
430.98014708142853
 30
0.0
 11
1278.396434639975
 21
431.23896612653101
 31
0.0
  0
LINE
  5
F0BB
  8
0
 10
1288.3492239322859
 20
430.90149567914199
 30
0.0
 11
1277.608362970054
 21
390.81605685105887
 31
0.0
  0
CIRCLE
  5
F0BC
  8
0
 10
1371.550312780362
 20
496.94609035437082
 30
0.0
 40
32.000000000000121
  0
ARC
  5
F0BD
  8
0
 10
1340.373398244122
 20
514.94609035437077
 30
0.0
 40
4.0
 50
330.00000000000267
 51
90.0
  0
LINE
  5
F0BE
  8
0
 10
1423.550312780362
 20
518.94609035437065
 30
0.0
 11
1402.727227316602
 21
518.94609035437077
 31
0.0
  0
ARC
  5
F0BF
  8
0
 10
1402.727227316602
 20
514.94609035437077
 30
0.0
 40
4.0
 50
90.0
 51
209.9999999999973
  0
ARC
  5
F0C0
  8
0
 10
1381.550312780362
 20
528.39446074140369
 30
0.0
 40
1.0
 50
180.0
 51
252.36029860576679
  0
LINE
  5
F0C1
  8
0
 10
1362.550312780362
 20
528.39446074140369
 30
0.0
 11
1362.550312780362
 21
530.94609035437077
 31
0.0
  0
ARC
  5
F0C2
  8
0
 10
1361.550312780362
 20
528.39446074140369
 30
0.0
 40
1.0
 50
287.63970139423321
 51
0.0
  0
ARC
  5
F0C3
  8
0
 10
1348.550312780362
 20
471.90612230327281
 30
0.0
 40
2.0
 50
0.0
 51
47.431545796701229
  0
ARC
  5
F0C4
  8
0
 10
1394.550312780362
 20
471.90612230327281
 30
0.0
 40
2.0
 50
132.56845420329881
 51
180.0
  0
LINE
  5
F0C5
  8
0
 10
1402.550312780362
 20
508.94609035437082
 30
0.0
 11
1401.215106728745
 21
508.94609035437082
 31
0.0
  0
LINE
  5
F0C6
  8
0
 10
1402.5503127803629
 20
484.94609035437082
 30
0.0
 11
1401.215106728745
 21
484.94609035437082
 31
0.0
  0
ARC
  5
F0C7
  8
0
 10
1402.5503127803629
 20
485.94609035437082
 30
0.0
 40
1.0
 50
270.0
 51
0.0
  0
LINE
  5
F0C8
  8
0
 10
1403.5503127803629
 20
485.94609035437082
 30
0.0
 11
1403.550312780362
 21
507.94609035437071
 31
0.0
  0
ARC
  5
F0C9
  8
0
 10
1402.550312780362
 20
507.94609035437071
 30
0.0
 40
1.0
 50
0.0
 51
90.0
  0
LINE
  5
F0CA
  8
0
 10
1340.550312780362
 20
508.94609035437082
 30
0.0
 11
1341.885518831979
 21
508.94609035437082
 31
0.0
  0
LINE
  5
F0CB
  8
0
 10
1340.550312780362
 20
484.94609035437082
 30
0.0
 11
1341.885518831979
 21
484.94609035437082
 31
0.0
  0
ARC
  5
F0CC
  8
0
 10
1340.550312780362
 20
485.94609035437082
 30
0.0
 40
1.0
 50
180.0
 51
270.0
  0
LINE
  5
F0CD
  8
0
 10
1339.550312780362
 20
485.94609035437082
 30
0.0
 11
1339.550312780362
 21
507.94609035437071
 31
0.0
  0
ARC
  5
F0CE
  8
0
 10
1340.550312780362
 20
507.94609035437071
 30
0.0
 40
1.0
 50
90.0
 51
180.0
  0
LINE
  5
F0CF
  8
0
 10
954.94851331584232
 20
515.94609035437065
 30
0.0
 11
954.94851331584232
 21
481.8795268693143
 31
0.0
  0
ARC
  5
F0D0
  8
0
 10
952.77530089116215
 20
516.66394873791717
 30
0.0
 40
2.288705507838829
 50
341.72050966933989
 51
85.659625382622508
  0
ARC
  5
F0D1
  8
0
 10
961.94851331584232
 20
481.8795268693143
 30
0.0
 40
7.0
 50
180.0
 51
242.7203872640271
  0
ARC
  5
F0D2
  8
0
 10
956.44851331584255
 20
471.21416236546361
 30
0.0
 40
5.0
 50
0.0
 51
62.720387264027103
  0
LINE
  5
F0D3
  8
0
 10
961.44851331584243
 20
433.94609035437082
 30
0.0
 11
961.44851331584232
 21
471.21416236546361
 31
0.0
  0
LINE
  5
F0D4
  8
0
 10
949.44851331584232
 20
529.94609035437065
 30
0.0
 11
949.44851331584255
 21
520.94609035437065
 31
0.0
  0
ARC
  5
F0D5
  8
0
 10
951.94851331584243
 20
529.94609035437065
 30
0.0
 40
2.5
 50
156.42182152179279
 51
180.0
  0
LINE
  5
F0D6
  8
0
 10
951.44851331584255
 20
518.94609035437065
 30
0.0
 11
972.27159877960253
 21
518.94609035437077
 31
0.0
  0
ARC
  5
F0D7
  8
0
 10
951.44851331584255
 20
520.94609035437065
 30
0.0
 40
2.0
 50
180.0
 51
270.0
  0
LINE
  5
F0D8
  8
0
 10
1051.9485133158421
 20
515.94609035437088
 30
0.0
 11
1051.9485133158421
 21
481.8795268693143
 31
0.0
  0
ARC
  5
F0D9
  8
0
 10
1054.9485133158421
 20
515.94609035437088
 30
0.0
 40
3.0
 50
90.0
 51
180.0
  0
ARC
  5
F0DA
  8
0
 10
1044.9485133158421
 20
481.8795268693143
 30
0.0
 40
7.0
 50
290.4873151147184
 51
0.0
  0
ARC
  5
F0DB
  8
0
 10
1048.4485133158421
 20
472.51202987171672
 30
0.0
 40
3.0
 50
110.48731511473051
 51
180.0
  0
LINE
  5
F0DC
  8
0
 10
1045.4485133158421
 20
433.94609035437082
 30
0.0
 11
1045.4485133158421
 21
472.51202987171672
 31
0.0
  0
LINE
  5
F0DD
  8
0
 10
1057.4485133158421
 20
529.94609035437065
 30
0.0
 11
1057.4485133158421
 21
520.94609035437065
 31
0.0
  0
ARC
  5
F0DE
  8
0
 10
1054.9485133158421
 20
529.94609035437077
 30
0.0
 40
2.5
 50
0.0
 51
23.57817847820715
  0
ARC
  5
F0DF
  8
0
 10
1055.4485133158421
 20
520.94609035437065
 30
0.0
 40
2.0
 50
270.0
 51
0.0
  0
LINE
  5
F0E0
  8
0
 10
1055.4485133158421
 20
518.94609035437065
 30
0.0
 11
1054.9485133158421
 21
518.94609035437077
 31
0.0
  0
LINE
  5
F0E1
  8
0
 10
949.65722546836446
 20
530.94609035437065
 30
0.0
 11
1057.23980116332
 21
530.94609035437065
 31
0.0
  0
LINE
  5
F0E2
  8
0
 10
960.44240240158535
 20
474.22229300936539
 30
0.0
 11
980.91788895203183
 21
474.2222930093655
 31
0.0
  0
LINE
  5
F0E3
  8
0
 10
1025.9791376796529
 20
474.22229300936573
 30
0.0
 11
1045.983761807069
 21
474.22229300936539
 31
0.0
  0
ARC
  5
F0E4
  8
0
 10
1003.448513315842
 20
433.94609035437082
 30
0.0
 40
42.000000000000007
 50
180.0
 51
0.0
  0
LINE
  5
F0E5
  8
0
 10
991.44851331584255
 20
563.94609035437077
 30
0.0
 11
991.44851331584255
 21
547.94609035437065
 31
0.0
  0
LINE
  5
F0E6
  8
0
 10
993.44851331584255
 20
565.94609035437088
 30
0.0
 11
991.44851331584255
 21
563.94609035437077
 31
0.0
  0
LINE
  5
F0E7
  8
0
 10
1015.448513315842
 20
563.94609035437065
 30
0.0
 11
1015.448513315842
 21
547.94609035437065
 31
0.0
  0
LINE
  5
F0E8
  8
0
 10
1013.448513315842
 20
565.94609035437088
 30
0.0
 11
1015.448513315842
 21
563.94609035437065
 31
0.0
  0
LINE
  5
F0E9
  8
0
 10
949.44851331584232
 20
540.94609035437088
 30
0.0
 11
949.44851331584232
 21
531.94609035437065
 31
0.0
  0
ARC
  5
F0EA
  8
0
 10
951.44851331584255
 20
540.94609035437065
 30
0.0
 40
2.0
 50
90.0
 51
180.0
  0
LINE
  5
F0EB
  8
0
 10
1057.4485133158421
 20
540.94609035437065
 30
0.0
 11
1057.4485133158421
 21
531.94609035437065
 31
0.0
  0
ARC
  5
F0EC
  8
0
 10
1055.4485133158421
 20
540.94609035437054
 30
0.0
 40
2.0
 50
0.0
 51
90.0
  0
ARC
  5
F0ED
  8
0
 10
1055.4485133158421
 20
531.94609035437054
 30
0.0
 40
2.0
 50
329.99999999999062
 51
0.0
  0
ARC
  5
F0EE
  8
0
 10
951.44851331584255
 20
531.94609035437054
 30
0.0
 40
2.0
 50
180.0
 51
209.9999999999973
  0
LINE
  5
F0EF
  8
0
 10
949.71646250827348
 20
530.94609035437077
 30
0.0
 11
1057.1805641234109
 21
530.94609035437065
 31
0.0
  0
ARC
  5
F0F0
  8
0
 10
986.44851331584243
 20
547.94609035437054
 30
0.0
 40
5.0
 50
270.0
 51
0.0
  0
ARC
  5
F0F1
  8
0
 10
1020.448513315842
 20
547.94609035437054
 30
0.0
 40
5.0
 50
180.0
 51
270.0
  0
LINE
  5
F0F2
  8
0
 10
993.44851331584255
 20
565.94609035437088
 30
0.0
 11
1013.448513315842
 21
565.94609035437088
 31
0.0
  0
LINE
  5
F0F4
  8
0
 10
951.43632000702257
 20
551.94609035437065
 30
0.0
 11
951.43632000702257
 21
542.94609035437077
 31
0.0
  0
LINE
  5
F0F5
  8
0
 10
973.43632000702269
 20
551.94609035437077
 30
0.0
 11
973.43632000702269
 21
542.94609035437065
 31
0.0
  0
LINE
  5
F0F6
  8
0
 10
962.43632000702269
 20
550.94609035437077
 30
0.0
 11
962.43632000702269
 21
542.94609035437065
 31
0.0
  0
LINE
  5
F0F7
  8
0
 10
951.43632000702257
 20
551.94609035437065
 30
0.0
 11
973.43632000702269
 21
551.94609035437077
 31
0.0
  0
ARC
  5
F0F8
  8
0
 10
956.93632000702257
 20
536.32109035437065
 30
0.0
 40
15.625
 50
69.390307062476055
 51
110.6096929375239
  0
ARC
  5
F0F9
  8
0
 10
967.93632000702269
 20
536.32109035437065
 30
0.0
 40
15.625
 50
69.390307062476055
 51
110.6096929375239
  0
LINE
  5
F0FA
  8
0
 10
1033.460706624662
 20
551.94609035437065
 30
0.0
 11
1033.460706624662
 21
542.94609035437065
 31
0.0
  0
LINE
  5
F0FB
  8
0
 10
1055.460706624662
 20
551.94609035437065
 30
0.0
 11
1055.460706624662
 21
542.94609035437054
 31
0.0
  0
LINE
  5
F0FC
  8
0
 10
1044.460706624662
 20
550.94609035437065
 30
0.0
 11
1044.460706624662
 21
542.94609035437054
 31
0.0
  0
LINE
  5
F0FD
  8
0
 10
1033.460706624662
 20
551.94609035437065
 30
0.0
 11
1055.460706624662
 21
551.94609035437065
 31
0.0
  0
ARC
  5
F0FE
  8
0
 10
1038.960706624662
 20
536.32109035437065
 30
0.0
 40
15.625
 50
69.390307062476055
 51
110.6096929375239
  0
ARC
  5
F0FF
  8
0
 10
1049.960706624662
 20
536.32109035437065
 30
0.0
 40
15.625
 50
69.390307062476055
 51
110.6096929375239
  0
LINE
  5
F100
  8
0
 10
1012.448513315842
 20
528.39446074140369
 30
0.0
 11
1012.448513315842
 21
530.94609035437077
 31
0.0
  0
CIRCLE
  5
F101
  8
0
 10
1003.448513315842
 20
496.94609035437082
 30
0.0
 40
32.000000000000121
  0
ARC
  5
F102
  8
0
 10
972.27159877960253
 20
514.94609035437077
 30
0.0
 40
4.0
 50
330.00000000000267
 51
90.0
  0
LINE
  5
F103
  8
0
 10
1055.4485133158421
 20
518.94609035437065
 30
0.0
 11
1034.6254278520821
 21
518.94609035437077
 31
0.0
  0
ARC
  5
F104
  8
0
 10
1034.6254278520821
 20
514.94609035437077
 30
0.0
 40
4.0
 50
90.0
 51
209.9999999999973
  0
ARC
  5
F105
  8
0
 10
1013.448513315842
 20
528.39446074140369
 30
0.0
 40
1.0
 50
180.0
 51
252.36029860576679
  0
LINE
  5
F106
  8
0
 10
994.44851331584232
 20
528.39446074140369
 30
0.0
 11
994.44851331584209
 21
530.94609035437077
 31
0.0
  0
ARC
  5
F107
  8
0
 10
993.44851331584209
 20
528.39446074140369
 30
0.0
 40
1.0
 50
287.63970139423321
 51
0.0
  0
LINE
  5
F108
  8
0
 10
1034.4485133158421
 20
508.94609035437082
 30
0.0
 11
1033.1133072642251
 21
508.94609035437082
 31
0.0
  0
LINE
  5
F109
  8
0
 10
1034.448513315843
 20
484.94609035437082
 30
0.0
 11
1033.1133072642251
 21
484.94609035437082
 31
0.0
  0
ARC
  5
F10A
  8
0
 10
1034.448513315843
 20
485.94609035437082
 30
0.0
 40
1.0
 50
270.0
 51
0.0
  0
LINE
  5
F10B
  8
0
 10
1035.448513315843
 20
485.94609035437082
 30
0.0
 11
1035.4485133158421
 21
507.94609035437071
 31
0.0
  0
ARC
  5
F10C
  8
0
 10
1034.4485133158421
 20
507.94609035437071
 30
0.0
 40
1.0
 50
0.0
 51
90.0
  0
LINE
  5
F10D
  8
0
 10
972.44851331584255
 20
508.94609035437082
 30
0.0
 11
973.78371936745975
 21
508.94609035437082
 31
0.0
  0
LINE
  5
F10E
  8
0
 10
972.44851331584198
 20
484.94609035437082
 30
0.0
 11
973.78371936745975
 21
484.94609035437082
 31
0.0
  0
ARC
  5
F10F
  8
0
 10
972.44851331584198
 20
485.94609035437082
 30
0.0
 40
1.0
 50
180.0
 51
270.0
  0
LINE
  5
F110
  8
0
 10
971.44851331584198
 20
485.94609035437082
 30
0.0
 11
971.44851331584255
 21
507.94609035437071
 31
0.0
  0
ARC
  5
F111
  8
0
 10
972.44851331584255
 20
507.94609035437071
 30
0.0
 40
1.0
 50
90.0
 51
180.0
  0
CIRCLE
  5
F112
  8
0
 10
1003.448513315842
 20
405.44609035437082
 30
0.0
 40
11.93649167310366
  0
LINE
  5
F113
  8
0
 10
951.44851331584255
 20
542.94609035437065
 30
0.0
 11
1055.4485133158421
 21
542.94609035437054
 31
0.0
  0
LINE
  5
F115
  8
0
 10
338.16736544099803
 20
495.45930933705148
 30
0.0
 11
338.16736544099791
 21
479.45930933705148
 31
0.0
  0
ARC
  5
F116
  8
0
 10
343.16736544099803
 20
493.45930933705148
 30
0.0
 40
5.0
 50
90.0
 51
180.0
  0
LINE
  5
F117
  8
0
 10
365.66736544099803
 20
495.45930933705142
 30
0.0
 11
365.66736544099803
 21
475.45930933705148
 31
0.0
  0
ARC
  5
F118
  8
0
 10
367.84057786567797
 20
496.17716772059788
 30
0.0
 40
2.288705507838829
 50
94.340374617376682
 51
198.2794903306625
  0
ARC
  5
F119
  8
0
 10
358.66736544099803
 20
475.45930933705148
 30
0.0
 40
7.0
 50
297.27961273597577
 51
0.000000000000007
  0
ARC
  5
F11A
  8
0
 10
364.16736544099791
 20
464.79394483320073
 30
0.0
 40
5.0
 50
117.2796127359758
 51
180.0
  0
LINE
  5
F11B
  8
0
 10
359.16736544099791
 20
446.45930933705148
 30
0.0
 11
359.16736544099803
 21
464.79394483320061
 31
0.0
  0
LINE
  5
F11C
  8
0
 10
371.16736544099803
 20
509.4593093370512
 30
0.0
 11
371.1673654409978
 21
500.4593093370512
 31
0.0
  0
ARC
  5
F11D
  8
0
 10
368.66736544099803
 20
509.4593093370512
 30
0.0
 40
2.5
 50
0.000000000000007
 51
23.57817847820715
  0
LINE
  5
F11E
  8
0
 10
369.1673654409978
 20
498.45930933705131
 30
0.0
 11
343.16736544099803
 21
498.45930933705148
 31
0.0
  0
ARC
  5
F11F
  8
0
 10
369.1673654409978
 20
500.4593093370512
 30
0.0
 40
2.0
 50
270.0
 51
0.000000000000007
  0
LINE
  5
F120
  8
0
 10
337.16736544099791
 20
478.45930933705148
 30
0.0
 11
336.1410314020082
 21
478.45930933705148
 31
0.0
  0
ARC
  5
F121
  8
0
 10
337.16736544099791
 20
479.45930933705148
 30
0.0
 40
1.0
 50
270.0000000000033
 51
0.000000000000007
  0
LINE
  5
F122
  8
0
 10
337.16736544099803
 20
496.45930933705148
 30
0.0
 11
336.1410314020082
 21
496.45930933705148
 31
0.0
  0
ARC
  5
F123
  8
0
 10
337.16736544099803
 20
495.45930933705148
 30
0.0
 40
1.0
 50
0.000000000000007
 51
90.0
  0
LINE
  5
F124
  8
0
 10
268.6673654409978
 20
495.45930933705148
 30
0.0
 11
268.6673654409978
 21
475.45930933705148
 31
0.0
  0
ARC
  5
F125
  8
0
 10
265.66736544099791
 20
495.45930933705148
 30
0.0
 40
3.0
 50
0.000000000000007
 51
90.0
  0
ARC
  5
F126
  8
0
 10
275.66736544099791
 20
475.45930933705148
 30
0.0
 40
7.0
 50
180.0
 51
249.51268488527859
  0
ARC
  5
F127
  8
0
 10
272.16736544099791
 20
466.09181233945378
 30
0.0
 40
3.0
 50
0.000000000000007
 51
69.512684885275519
  0
LINE
  5
F128
  8
0
 10
275.16736544099791
 20
446.45930933705148
 30
0.0
 11
275.16736544099791
 21
466.09181233945372
 31
0.0
  0
LINE
  5
F129
  8
0
 10
263.16736544099791
 20
509.4593093370512
 30
0.0
 11
263.16736544099808
 21
500.45930933705142
 31
0.0
  0
ARC
  5
F12A
  8
0
 10
265.66736544099791
 20
509.45930933705142
 30
0.0
 40
2.5
 50
156.42182152179279
 51
180.0
  0
ARC
  5
F12B
  8
0
 10
265.16736544099808
 20
500.45930933705142
 30
0.0
 40
2.0
 50
180.0
 51
270.0
  0
LINE
  5
F12C
  8
0
 10
265.16736544099808
 20
498.45930933705142
 30
0.0
 11
265.66736544099791
 21
498.45930933705148
 31
0.0
  0
LINE
  5
F12D
  8
0
 10
370.95865328847577
 20
510.45930933705142
 30
0.0
 11
263.37607759351999
 21
510.45930933705142
 31
0.0
  0
CIRCLE
  5
F12E
  8
0
 10
317.16736544099791
 20
487.45930933705148
 30
0.0
 40
21.0
  0
LINE
  5
F12F
  8
0
 10
360.17347635525471
 20
467.80207547710251
 30
0.0
 11
324.55608366375361
 21
467.80207547710268
 31
0.0
  0
LINE
  5
F130
  8
0
 10
309.77864721824182
 20
467.80207547710279
 30
0.0
 11
274.63211694977122
 21
467.80207547710251
 31
0.0
  0
LINE
  5
F131
  8
0
 10
296.1673654409978
 20
495.45930933705148
 30
0.0
 11
296.16736544099803
 21
479.45930933705148
 31
0.0
  0
ARC
  5
F132
  8
0
 10
291.16736544099791
 20
493.45930933705148
 30
0.0
 40
5.0
 50
0.000000000000007
 51
90.0
  0
LINE
  5
F133
  8
0
 10
265.16736544099791
 20
498.45930933705131
 30
0.0
 11
291.16736544099791
 21
498.45930933705148
 31
0.0
  0
LINE
  5
F134
  8
0
 10
297.16736544099791
 20
478.45930933705148
 30
0.0
 11
298.19369947998757
 21
478.45930933705148
 31
0.0
  0
ARC
  5
F135
  8
0
 10
297.16736544099791
 20
479.45930933705148
 30
0.0
 40
1.0
 50
180.0
 51
269.99999999999682
  0
LINE
  5
F136
  8
0
 10
297.16736544099791
 20
496.45930933705148
 30
0.0
 11
298.19369947998757
 21
496.45930933705148
 31
0.0
  0
ARC
  5
F137
  8
0
 10
297.16736544099791
 20
495.45930933705148
 30
0.0
 40
1.0
 50
90.0
 51
180.0
  0
ARC
  5
F154
  8
0
 10
317.16736544099791
 20
446.45930933705148
 30
0.0
 40
42.000000000000007
 50
180.0
 51
359.99999999999977
  0
LINE
  5
F155
  8
0
 10
329.1673654409978
 20
543.45930933705154
 30
0.0
 11
329.1673654409978
 21
527.45930933705142
 31
0.0
  0
LINE
  5
F156
  8
0
 10
327.1673654409978
 20
545.45930933705154
 30
0.0
 11
329.1673654409978
 21
543.45930933705154
 31
0.0
  0
LINE
  5
F157
  8
0
 10
305.16736544099808
 20
543.45930933705142
 30
0.0
 11
305.16736544099791
 21
527.45930933705131
 31
0.0
  0
LINE
  5
F158
  8
0
 10
307.16736544099808
 20
545.45930933705154
 30
0.0
 11
305.16736544099808
 21
543.45930933705142
 31
0.0
  0
LINE
  5
F159
  8
0
 10
371.16736544099803
 20
520.45930933705154
 30
0.0
 11
371.16736544099803
 21
511.45930933705142
 31
0.0
  0
ARC
  5
F15A
  8
0
 10
369.1673654409978
 20
520.45930933705131
 30
0.0
 40
2.0
 50
0.000000000000007
 51
90.000000000000028
  0
LINE
  5
F15B
  8
0
 10
263.16736544099791
 20
520.45930933705131
 30
0.0
 11
263.16736544099791
 21
511.45930933705131
 31
0.0
  0
ARC
  5
F15C
  8
0
 10
265.16736544099791
 20
520.4593093370512
 30
0.0
 40
2.0
 50
90.000000000000028
 51
180.0
  0
ARC
  5
F15D
  8
0
 10
265.16736544099791
 20
511.4593093370512
 30
0.0
 40
2.0
 50
180.0
 51
210.00000000000341
  0
ARC
  5
F15E
  8
0
 10
369.1673654409978
 20
511.4593093370512
 30
0.0
 40
2.0
 50
330.00000000000227
 51
0.000000000000007
  0
LINE
  5
F15F
  8
0
 10
369.16736544099803
 20
522.45930933705154
 30
0.0
 11
265.16736544099791
 21
522.45930933705097
 31
0.0
  0
LINE
  5
F160
  8
0
 10
370.89941624856681
 20
510.45930933705148
 30
0.0
 11
263.43531463342902
 21
510.45930933705131
 31
0.0
  0
ARC
  5
F161
  8
0
 10
334.16736544099791
 20
527.45930933705108
 30
0.0
 40
5.0
 50
180.0
 51
270.0
  0
ARC
  5
F163
  8
0
 10
300.16736544099791
 20
527.45930933705108
 30
0.0
 40
5.0
 50
270.0
 51
0.000000000000007
  0
LINE
  5
F168
  8
0
 10
327.1673654409978
 20
545.45930933705154
 30
0.0
 11
307.16736544099808
 21
545.45930933705154
 31
0.0
  0
LINE
  5
F16A
  8
0
 10
369.17955874981772
 20
531.45930933705142
 30
0.0
 11
369.17955874981772
 21
522.45930933705142
 31
0.0
  0
LINE
  5
F16B
  8
0
 10
347.1795587498176
 20
531.45930933705154
 30
0.0
 11
347.1795587498176
 21
522.45930933705131
 31
0.0
  0
LINE
  5
F16C
  8
0
 10
358.17955874981772
 20
530.45930933705142
 30
0.0
 11
358.17955874981772
 21
522.45930933705131
 31
0.0
  0
LINE
  5
F16D
  8
0
 10
369.17955874981772
 20
531.45930933705142
 30
0.0
 11
347.1795587498176
 21
531.45930933705154
 31
0.0
  0
ARC
  5
F16E
  8
0
 10
363.6795587498176
 20
515.83430933705142
 30
0.0
 40
15.625
 50
69.390307062469972
 51
110.60969293753
  0
ARC
  5
F16F
  8
0
 10
352.67955874981772
 20
515.83430933705142
 30
0.0
 40
15.625
 50
69.390307062469972
 51
110.60969293753
  0
LINE
  5
F170
  8
0
 10
287.15517213217828
 20
531.45930933705131
 30
0.0
 11
287.15517213217822
 21
522.45930933705131
 31
0.0
  0
LINE
  5
F171
  8
0
 10
265.15517213217822
 20
531.45930933705142
 30
0.0
 11
265.15517213217822
 21
522.45930933705108
 31
0.0
  0
LINE
  5
F172
  8
0
 10
276.15517213217822
 20
530.4593093370512
 30
0.0
 11
276.15517213217822
 21
522.45930933705108
 31
0.0
  0
LINE
  5
F173
  8
0
 10
287.15517213217828
 20
531.45930933705131
 30
0.0
 11
265.15517213217822
 21
531.45930933705142
 31
0.0
  0
ARC
  5
F174
  8
0
 10
281.65517213217822
 20
515.83430933705131
 30
0.0
 40
15.625
 50
69.390307062469972
 51
110.60969293753
  0
ARC
  5
F175
  8
0
 10
270.65517213217822
 20
515.83430933705131
 30
0.0
 40
15.625
 50
69.390307062469972
 51
110.60969293753
  0
CIRCLE
  5
F176
  8
0
 10
317.16736544099791
 20
417.95930933705148
 30
0.0
 40
12.01041214946431
  0
LINE
  5
F178
  8
0
 10
531.03859168638326
 20
880.86232314792107
 30
0.0
 11
384.6954459358758
 21
880.86232314792153
 31
0.0
  0
LINE
  5
F179
  8
0
 10
530.36701881112947
 20
848.86232314792107
 30
0.0
 11
518.36701881112947
 21
848.86232314792107
 31
0.0
  0
ARC
  5
F17A
  8
0
 10
530.36701881112947
 20
850.36232314792107
 30
0.0
 40
1.4999999999999989
 50
270.0
 51
0.000000000000007
  0
LINE
  5
F17B
  8
0
 10
530.36701881112947
 20
866.86232314792119
 30
0.0
 11
518.36701881112947
 21
866.86232314792119
 31
0.0
  0
ARC
  5
F17C
  8
0
 10
530.36701881112947
 20
865.36232314792119
 30
0.0
 40
1.4999999999999989
 50
0.000000000000007
 51
90.0
  0
LINE
  5
F17D
  8
0
 10
519.86701881112958
 20
868.86232314792119
 30
0.0
 11
465.8670188111297
 21
868.86232314792096
 31
0.0
  0
ARC
  5
F17E
  8
0
 10
516.36701881112958
 20
866.86232314792119
 30
0.0
 40
1.9999999999999989
 50
90.0
 51
180.0
  0
LINE
  5
F17F
  8
0
 10
465.86701881112958
 20
868.86232314792119
 30
0.0
 11
411.86701881112958
 21
868.86232314792119
 31
0.0
  0
ARC
  5
F180
  8
0
 10
415.3670188111297
 20
866.86232314792119
 30
0.0
 40
1.9999999999999989
 50
0.000000000000007
 51
90.0
  0
LINE
  5
F181
  8
0
 10
507.86701881112958
 20
800.29881482102473
 30
0.0
 11
507.86701881112958
 21
776.42583147481764
 31
0.0
  0
LINE
  5
F182
  8
0
 10
380.86701881112958
 20
877.86232314792142
 30
0.0
 11
380.86701881112958
 21
837.86232314792107
 31
0.0
  0
LINE
  5
F183
  8
0
 10
535.86701881112958
 20
877.86232314792119
 30
0.0
 11
535.8670188111297
 21
837.8623231479213
 31
0.0
  0
LINE
  5
F184
  8
0
 10
514.36701881112947
 20
866.86232314792119
 30
0.0
 11
514.36701881112947
 21
845.2050892879721
 31
0.0
  0
LINE
  5
F185
  8
0
 10
409.8670188111293
 20
880.86232314792153
 30
0.0
 11
409.86701881112953
 21
870.86232314792119
 31
0.0
  0
ARC
  5
F186
  8
0
 10
411.86701881112958
 20
870.86232314792119
 30
0.0
 40
1.9999999999999989
 50
180.0
 51
270.0
  0
ARC
  5
F187
  8
0
 10
533.86701881112947
 20
881.86232314792107
 30
0.0
 40
2.9999999999999991
 50
199.47122063449299
 51
270.0
  0
LINE
  5
F188
  8
0
 10
395.64349072085218
 20
819.7864312528817
 30
0.0
 11
384.60674508866691
 21
816.82908386223858
 31
0.0
  0
ARC
  5
F189
  8
0
 10
394.86701881112958
 20
822.68420477291602
 30
0.0
 40
2.9999999999999991
 50
285.00029212464142
 51
0.000000000000007
  0
LINE
  5
F18A
  8
0
 10
433.48295460201018
 20
786.44403283929864
 30
0.0
 11
395.47714498311399
 21
776.26019915757058
 31
0.0
  0
LINE
  5
F18B
  8
0
 10
394.86477320724708
 20
776.61375008574782
 30
0.0
 11
395.47714498311399
 21
776.26019915757058
 31
0.0
  0
LINE
  5
F18C
  8
0
 10
397.86701881112958
 20
822.68420477291602
 30
0.0
 11
397.86701881112958
 21
831.86232314792153
 31
0.0
  0
LINE
  5
F18D
  8
0
 10
507.86701881112958
 20
831.86232314792107
 30
0.0
 11
507.86701881112958
 21
816.86232314792119
 31
0.0
  0
ARC
  5
F18E
  8
0
 10
512.86701881112947
 20
831.86232314792107
 30
0.0
 40
4.9999999999999982
 50
90.0
 51
180.0
  0
LINE
  5
F18F
  8
0
 10
381.86701881112958
 20
878.86232314792119
 30
0.0
 11
380.86701881112958
 21
877.86232314792142
 31
0.0
  0
LINE
  5
F190
  8
0
 10
381.86701881112958
 20
836.86232314792119
 30
0.0
 11
380.86701881112958
 21
837.86232314792107
 31
0.0
  0
LINE
  5
F191
  8
0
 10
381.86701881112958
 20
878.86232314792119
 30
0.0
 11
381.86701881112941
 21
878.86232314792096
 31
0.0
  0
ARC
  5
F192
  8
0
 10
381.86701881112941
 20
881.86232314792085
 30
0.0
 40
2.9999999999999991
 50
270.0
 51
340.5287793655142
  0
ARC
  5
F193
  8
0
 10
406.86701881112958
 20
881.86232314792107
 30
0.0
 40
2.9999999999999991
 50
270.0
 51
340.52877936550709
  0
LINE
  5
F194
  8
0
 10
521.86701881112947
 20
878.86232314792119
 30
0.0
 11
534.86701881112947
 21
878.86232314792119
 31
0.0
  0
LINE
  5
F195
  8
0
 10
535.86701881112958
 20
877.86232314792119
 30
0.0
 11
534.86701881112947
 21
878.86232314792119
 31
0.0
  0
LINE
  5
F196
  8
0
 10
531.86701881112958
 20
865.36232314792119
 30
0.0
 11
531.86701881112958
 21
850.36232314792107
 31
0.0
  0
LINE
  5
F197
  8
0
 10
516.86701881112947
 20
865.36232314792119
 30
0.0
 11
516.86701881112947
 21
850.36232314792107
 31
0.0
  0
ARC
  5
F198
  8
0
 10
518.36701881112947
 20
850.36232314792107
 30
0.0
 40
1.4999999999999989
 50
180.0
 51
270.0
  0
ARC
  5
F199
  8
0
 10
518.36701881112947
 20
865.36232314792119
 30
0.0
 40
1.4999999999999989
 50
90.0
 51
180.0
  0
LINE
  5
F19A
  8
0
 10
534.86701881112947
 20
836.86232314792119
 30
0.0
 11
512.86701881112947
 21
836.86232314792119
 31
0.0
  0
LINE
  5
F19B
  8
0
 10
535.8670188111297
 20
837.8623231479213
 30
0.0
 11
534.86701881112947
 21
836.86232314792119
 31
0.0
  0
LINE
  5
F19C
  8
0
 10
392.86701881112958
 20
836.8623231479213
 30
0.0
 11
381.86701881112958
 21
836.86232314792119
 31
0.0
  0
ARC
  5
F19D
  8
0
 10
392.86701881112958
 20
831.86232314792153
 30
0.0
 40
4.9999999999999982
 50
0.000000000000007
 51
90.0
  0
ARC
  5
F19E
  8
0
 10
465.86701881112958
 20
816.86232314792119
 30
0.0
 40
41.999999999999979
 50
180.0
 51
285.35888558081911
  0
ARC
  5
F19F
  8
0
 10
434.77707445154817
 20
781.61441030590822
 30
0.0
 40
4.9999999999999982
 50
48.586531312752982
 51
105.0002921246414
  0
ARC
  5
F1A0
  8
0
 10
465.86701881112958
 20
816.86232314792119
 30
0.0
 40
41.999999999999979
 50
285.35888558081911
 51
0.000000000000007
  0
ARC
  5
F1A1
  8
0
 10
507.40916608350818
 20
802.36232314792107
 30
0.0
 40
1.9999999999999989
 50
160.75881123687111
 51
270.0
  0
LINE
  5
F1A2
  8
0
 10
476.99131654177307
 20
776.36232314792107
 30
0.0
 11
507.36701881112958
 21
776.36232314792107
 31
0.0
  0
ARC
  5
F1A3
  8
0
 10
507.36701881112958
 20
778.36232314792119
 30
0.0
 40
1.9999999999999989
 50
270.0
 51
284.47751218592953
  0
LINE
  5
F1A4
  8
0
 10
507.4091660835083
 20
800.36232314792107
 30
0.0
 11
507.36701881112958
 21
800.36232314792107
 31
0.0
  0
ARC
  5
F1A5
  8
0
 10
507.36701881112958
 20
798.36232314792119
 30
0.0
 40
1.9999999999999989
 50
75.522487814070558
 51
90.0
  0
LINE
  5
F1A6
  8
0
 10
384.25319235789289
 20
816.21670896416435
 30
0.0
 11
394.86477320724731
 21
776.6137500857476
 31
0.0
  0
LINE
  5
F1A7
  8
0
 10
384.60674508866691
 20
816.82908386223858
 30
0.0
 11
384.25319235789289
 21
816.21670896416435
 31
0.0
  0
LINE
  5
F1A8
  8
0
 10
534.86701881112947
 20
878.86232314792119
 30
0.0
 11
534.86701881112947
 21
836.86232314792119
 31
0.0
  0
LINE
  5
F1A9
  8
0
 10
381.86701881112958
 20
878.86232314792119
 30
0.0
 11
381.86701881112958
 21
836.86232314792119
 31
0.0
  0
LINE
  5
F1AA
  8
0
 10
398.36701881112953
 20
848.86232314792107
 30
0.0
 11
386.36701881112958
 21
848.86232314792107
 31
0.0
  0
ARC
  5
F1AB
  8
0
 10
398.36701881112953
 20
850.36232314792107
 30
0.0
 40
1.4999999999999989
 50
270.0
 51
0.000000000000007
  0
LINE
  5
F1AC
  8
0
 10
398.36701881112953
 20
866.86232314792119
 30
0.0
 11
386.36701881112958
 21
866.86232314792119
 31
0.0
  0
ARC
  5
F1AD
  8
0
 10
398.36701881112953
 20
865.36232314792119
 30
0.0
 40
1.4999999999999989
 50
0.000000000000007
 51
90.0
  0
LINE
  5
F1AE
  8
0
 10
399.86701881112953
 20
865.36232314792119
 30
0.0
 11
399.86701881112953
 21
850.36232314792107
 31
0.0
  0
LINE
  5
F1AF
  8
0
 10
384.86701881112958
 20
865.36232314792119
 30
0.0
 11
384.86701881112958
 21
850.36232314792107
 31
0.0
  0
ARC
  5
F1B0
  8
0
 10
386.36701881112958
 20
850.36232314792107
 30
0.0
 40
1.4999999999999989
 50
180.0
 51
270.0
  0
ARC
  5
F1B1
  8
0
 10
386.36701881112958
 20
865.36232314792119
 30
0.0
 40
1.4999999999999989
 50
90.0
 51
180.0
  0
LINE
  5
F1B2
  8
0
 10
507.36701881112958
 20
838.2050892879721
 30
0.0
 11
424.3670188111297
 21
838.2050892879721
 31
0.0
  0
ARC
  5
F1B3
  8
0
 10
507.36701881112958
 20
845.2050892879721
 30
0.0
 40
6.9999999999999973
 50
270.0
 51
0.000000000000007
  0
LINE
  5
F1B4
  8
0
 10
417.36701881112958
 20
866.86232314792119
 30
0.0
 11
417.36701881112958
 21
845.2050892879721
 31
0.0
  0
ARC
  5
F1B5
  8
0
 10
424.3670188111297
 20
845.2050892879721
 30
0.0
 40
6.9999999999999973
 50
180.0
 51
270.0
  0
LINE
  5
F1B6
  8
0
 10
423.86701881112958
 20
838.22296926608783
 30
0.0
 11
423.86701881112958
 21
816.86232314792119
 31
0.0
  0
LINE
  5
F1B9
  8
0
 10
521.86701881112947
 20
880.86232314792085
 30
0.0
 11
521.86701881112947
 21
870.86232314792119
 31
0.0
  0
ARC
  5
F1BA
  8
0
 10
519.86701881112958
 20
870.86232314792119
 30
0.0
 40
1.9999999999999989
 50
270.0
 51
0.000000000000007
  0
LINE
  5
F1BB
  8
0
 10
384.60674508866691
 20
816.82908386223858
 30
0.0
 11
395.4773518247855
 21
776.26025458175991
 31
0.0
  0
LINE
  5
F1BC
  8
0
 10
406.86701881112958
 20
878.86232314792119
 30
0.0
 11
381.8670188111297
 21
878.86232314792096
 31
0.0
  0
LINE
  5
F1BD
  8
0
 10
409.86701881112953
 20
904.8623231479213
 30
0.0
 11
409.86701881112958
 21
881.86232314792153
 31
0.0
  0
ARC
  5
F1BE
  8
0
 10
411.86701881112941
 20
904.8623231479213
 30
0.0
 40
2.0
 50
90.000000000000028
 51
180.0
  0
ARC
  5
F1BF
  8
0
 10
411.86701881112958
 20
881.86232314792153
 30
0.0
 40
2.0
 50
180.0
 51
210.0000000000006
  0
LINE
  5
F1C0
  8
0
 10
455.86701881112958
 20
915.86232314792142
 30
0.0
 11
475.86701881112958
 21
915.86232314792142
 31
0.0
  0
LINE
  5
F1C1
  8
0
 10
411.86701881112953
 20
906.86232314792153
 30
0.0
 11
451.86701881112958
 21
906.86232314792085
 31
0.0
  0
ARC
  5
F1C2
  8
0
 10
451.86701881112953
 20
908.86232314792085
 30
0.0
 40
2.0
 50
270.0
 51
0.000000000000007
  0
ARC
  5
F1C3
  8
0
 10
482.86701881112958
 20
897.86232314792107
 30
0.0
 40
5.0
 50
180.0
 51
270.0
  0
LINE
  5
F1C4
  8
0
 10
521.86701881112947
 20
890.86232314792142
 30
0.0
 11
521.86701881112947
 21
881.86232314792153
 31
0.0
  0
ARC
  5
F1C5
  8
0
 10
519.86701881112958
 20
890.86232314792107
 30
0.0
 40
2.0
 50
0.000000000000007
 51
90.000000000000028
  0
ARC
  5
F1C6
  8
0
 10
519.86701881112958
 20
881.86232314792107
 30
0.0
 40
2.0
 50
329.99999999999949
 51
0.000000000000007
  0
LINE
  5
F1C7
  8
0
 10
477.86701881112958
 20
913.8623231479213
 30
0.0
 11
477.86701881112958
 21
897.86232314792153
 31
0.0
  0
LINE
  5
F1C8
  8
0
 10
475.86701881112958
 20
915.86232314792142
 30
0.0
 11
477.86701881112958
 21
913.8623231479213
 31
0.0
  0
LINE
  5
F1C9
  8
0
 10
453.86701881112958
 20
913.8623231479213
 30
0.0
 11
453.86701881112958
 21
897.86232314792107
 31
0.0
  0
LINE
  5
F1CA
  8
0
 10
455.86701881112958
 20
915.86232314792142
 30
0.0
 11
453.86701881112958
 21
913.8623231479213
 31
0.0
  0
LINE
  5
F1CB
  8
0
 10
409.86701881112953
 20
892.86232314792142
 30
0.0
 11
519.86701881112958
 21
892.86232314792142
 31
0.0
  0
LINE
  5
F1CC
  8
0
 10
521.59906961869842
 20
880.86232314792107
 30
0.0
 11
410.13496800356069
 21
880.86232314792153
 31
0.0
  0
ARC
  5
F1CD
  8
0
 10
448.8670188111297
 20
897.86232314792107
 30
0.0
 40
5.0
 50
270.0
 51
0.000000000000007
  0
LINE
  5
F1CE
  8
0
 10
389.49693616844661
 20
787.76413674274784
 30
0.0
 11
382.3471532022549
 21
785.8483581708989
 31
0.0
  0
LINE
  5
F1CF
  8
0
 10
382.3471532022549
 20
785.8483581708989
 30
0.0
 11
383.36793551613931
 21
782.03874671201493
 31
0.0
  0
LINE
  5
F1D0
  8
0
 10
383.36793551613931
 20
782.03874671201493
 30
0.0
 11
390.51771848233102
 21
783.95452528386375
 31
0.0
  0
LINE
  5
F1D1
  8
0
 10
374.14571238335378
 20
811.43760140890936
 30
0.0
 11
374.81810718022251
 21
813.94714045764806
 31
0.0
  0
LINE
  5
F1D2
  8
0
 10
374.81810718022251
 20
813.94714045764806
 30
0.0
 11
381.96789014641428
 21
815.86291902949677
 31
0.0
  0
LINE
  5
F1D3
  8
0
 10
381.96789014641428
 20
815.86291902949677
 30
0.0
 11
383.8049706462445
 21
814.02579185993454
 31
0.0
  0
LINE
  5
F1D4
  8
0
 10
383.80497064624228
 20
814.02579185993693
 30
0.0
 11
393.38114590551521
 21
778.2870192501523
 31
0.0
  0
LINE
  5
F1D5
  8
0
 10
393.38114590551521
 20
778.2870192501523
 30
0.0
 11
392.70875110864642
 21
775.77748020141371
 31
0.0
  0
LINE
  5
F1D6
  8
0
 10
392.70875110864642
 20
775.77748020141371
 30
0.0
 11
385.5589681424546
 21
773.86170162956478
 31
0.0
  0
LINE
  5
F1D7
  8
0
 10
385.5589681424546
 20
773.86170162956478
 30
0.0
 11
383.72188764262449
 21
775.69882879912711
 31
0.0
  0
LINE
  5
F1D8
  8
0
 10
383.72188764262449
 20
775.69882879912711
 30
0.0
 11
374.14571238335378
 21
811.43760140890936
 31
0.0
  0
ARC
  5
F1D9
  8
0
 10
393.07277532879999
 20
780.25708544985991
 30
0.0
 40
9.8670275484803067
 50
169.5972022855334
 51
220.40279771446509
  0
LINE
  5
F1DA
  8
0
 10
385.17983449613649
 20
803.87577952524975
 30
0.0
 11
378.03005152994479
 21
801.96000095340071
 31
0.0
  0
LINE
  5
F1DB
  8
0
 10
378.03005152994479
 20
801.96000095340071
 30
0.0
 11
377.0092692160606
 21
805.7696124122848
 31
0.0
  0
LINE
  5
F1DC
  8
0
 10
377.0092692160606
 20
805.7696124122848
 30
0.0
 11
384.1590521822522
 21
807.68539098413385
 31
0.0
  0
ARC
  5
F1DD
  8
0
 10
384.52307640240588
 20
812.16499623258005
 30
0.0
 40
9.8670275484803067
 50
169.59720228553491
 51
220.4027977144666
  0
ARC
  5
F1DE
  8
0
 10
414.94040836909659
 20
803.21589791617578
 30
0.0
 40
36.931716981134642
 50
181.948771333493
 51
208.0512286665068
  0
LINE
  5
F1DF
  8
0
 10
389.49693616844661
 20
787.76413674274784
 30
0.0
 11
390.51771848233102
 21
783.95452528386375
 31
0.0
  0
ARC
  5
F1E0
  8
0
 10
383.00391129598552
 20
777.55914146356849
 30
0.0
 40
9.8670275484803067
 50
349.59720228553488
 51
40.402797714466537
  0
LINE
  5
F1E1
  8
0
 10
385.17983449613649
 20
803.87577952524975
 30
0.0
 11
384.1590521822522
 21
807.68539098413385
 31
0.0
  0
ARC
  5
F1E2
  8
0
 10
374.45421236959129
 20
809.46705224628874
 30
0.0
 40
9.8670275484803067
 50
349.59720228553351
 51
40.402797714465073
  0
ARC
  5
F1E3
  8
0
 10
352.58657932929469
 20
786.50823977997266
 30
0.0
 40
36.931716981134642
 50
1.9487713334931549
 51
28.051228666506969
  0
LINE
  5
F1E4
  8
0
 10
393.38114590551521
 20
778.2870192501523
 30
0.0
 11
394.34707173180408
 21
778.54583829525473
 31
0.0
  0
LINE
  5
F1E5
  8
0
 10
383.8049706462445
 20
814.02579185993454
 30
0.0
 11
384.77089647253382
 21
814.28461090503697
 31
0.0
  0
LINE
  5
F1E6
  8
0
 10
374.81810718022251
 20
813.94714045764806
 30
0.0
 11
385.5589681424546
 21
773.86170162956478
 31
0.0
  0
LINE
  5
F1E7
  8
0
 10
519.48976642731157
 20
900.86232314792142
 30
0.0
 11
519.48976642731157
 21
892.86232314792142
 31
0.0
  0
LINE
  5
F1E8
  8
0
 10
494.08635458296811
 20
900.86232314792142
 30
0.0
 11
494.08635458296823
 21
892.86232314792142
 31
0.0
  0
LINE
  5
F1E9
  8
0
 10
517.75771561974284
 20
901.86232314792142
 30
0.0
 11
495.81840539053701
 21
901.86232314792142
 31
0.0
  0
LINE
  5
F1EA
  8
0
 10
513.13891346622574
 20
900.86232314792142
 30
0.0
 11
513.13891346622574
 21
892.86232314792142
 31
0.0
  0
LINE
  5
F1EB
  8
0
 10
500.43720754405399
 20
900.86232314792142
 30
0.0
 11
500.43720754405399
 21
892.86232314792142
 31
0.0
  0
ARC
  5
F1EC
  8
0
 10
516.31433994676877
 20
896.32065648125501
 30
0.0
 40
5.5416666666664627
 50
55.039659594478849
 51
124.96034040552109
  0
ARC
  5
F1ED
  8
0
 10
506.78806050513992
 20
881.1956564812549
 30
0.0
 40
20.66666666666627
 50
72.103448870745368
 51
107.8965511292546
  0
ARC
  5
F1EE
  8
0
 10
497.26178106351108
 20
896.32065648125501
 30
0.0
 40
5.5416666666664627
 50
55.039659594478849
 51
124.96034040552109
  0
LINE
  5
F1EF
  8
0
 10
519.48976642731157
 20
900.86232314792142
 30
0.0
 11
517.75771561974284
 21
901.86232314792142
 31
0.0
  0
LINE
  5
F1F0
  8
0
 10
494.08635458296823
 20
900.86232314792142
 30
0.0
 11
495.81840539053701
 21
901.86232314792142
 31
0.0
  0
LINE
  5
F1F1
  8
0
 10
437.647683039291
 20
900.86232314792142
 30
0.0
 11
437.647683039291
 21
892.86232314792142
 31
0.0
  0
LINE
  5
F1F2
  8
0
 10
412.24427119494732
 20
900.86232314792142
 30
0.0
 11
412.24427119494737
 21
892.86232314792142
 31
0.0
  0
LINE
  5
F1F3
  8
0
 10
435.9156322317221
 20
901.86232314792142
 30
0.0
 11
413.97632200251633
 21
901.86232314792142
 31
0.0
  0
LINE
  5
F1F4
  8
0
 10
431.29683007820518
 20
900.86232314792142
 30
0.0
 11
431.29683007820518
 21
892.86232314792142
 31
0.0
  0
LINE
  5
F1F5
  8
0
 10
418.59512415603342
 20
900.86232314792142
 30
0.0
 11
418.59512415603342
 21
892.86232314792142
 31
0.0
  0
ARC
  5
F1F6
  8
0
 10
434.47225655874797
 20
896.32065648125501
 30
0.0
 40
5.5416666666664627
 50
55.039659594478849
 51
124.96034040552109
  0
ARC
  5
F1F7
  8
0
 10
424.9459771171193
 20
881.19565648125501
 30
0.0
 40
20.66666666666627
 50
72.103448870745368
 51
107.8965511292546
  0
ARC
  5
F1F8
  8
0
 10
415.4196976754904
 20
896.32065648125513
 30
0.0
 40
5.5416666666664627
 50
55.039659594478849
 51
124.96034040552109
  0
LINE
  5
F1F9
  8
0
 10
437.647683039291
 20
900.86232314792142
 30
0.0
 11
435.9156322317221
 21
901.86232314792142
 31
0.0
  0
LINE
  5
F1FA
  8
0
 10
412.24427119494737
 20
900.86232314792142
 30
0.0
 11
413.97632200251633
 21
901.86232314792142
 31
0.0
  0
TEXT
  5
F1FB
  8
0
 10
1136.80221090228
 20
341.54196611197852
 30
0.0
 40
20.000000000000011
  1
32mm,40mm
 41
0.8
 72
     4
 11
1213.7545918546609
 21
349.63720420721671
 31
0.0
  0
LINE
  5
F1FD
  8
0
 10
1252.7106644116591
 20
644.5076020737381
 30
0.0
 11
1207.015389075219
 21
644.5076020737381
 31
0.0
  0
LINE
  5
F1FE
  8
0
 10
1252.7106644116591
 20
660.5076020737381
 30
0.0
 11
1207.015389075219
 21
660.5076020737381
 31
0.0
  0
LINE
  5
F1FF
  8
0
 10
1237.7383917420441
 20
598.5076020737381
 30
0.0
 11
1155.8963083540229
 21
598.5076020737381
 31
0.0
  0
LINE
  5
F200
  8
0
 10
1237.7383917420441
 20
706.5076020737381
 30
0.0
 11
1155.8963083540241
 21
706.5076020737381
 31
0.0
  0
ARC
  5
F201
  8
0
 10
952.81735004803397
 20
652.5076020737381
 30
0.0
 40
300.0
 50
351.61446135291698
 51
351.90869271399202
  0
ARC
  5
F202
  8
0
 10
952.81735004803397
 20
652.5076020737381
 30
0.0
 40
300.0
 50
352.28583690367469
 51
7.7141630963251986
  0
ARC
  5
F203
  8
0
 10
952.81735004803397
 20
652.5076020737381
 30
0.0
 40
300.0
 50
8.0913072860079858
 51
8.3855386470797821
  0
ARC
  5
F204
  8
0
 10
1237.7383917420441
 20
610.5076020737381
 30
0.0
 40
12.0
 50
270.0
 51
351.61446135291698
  0
ARC
  5
F205
  8
0
 10
1237.7383917420441
 20
694.5076020737381
 30
0.0
 40
12.0
 50
8.3855386470797821
 51
89.999999999999986
  0
ARC
  5
F206
  8
0
 10
1440.8173500480341
 20
652.5076020737381
 30
0.0
 40
300.0
 50
171.61446135291689
 51
171.90869271399191
  0
ARC
  5
F207
  8
0
 10
1440.8173500480341
 20
652.5076020737381
 30
0.0
 40
300.0
 50
172.28583690367481
 51
187.71416309632519
  0
ARC
  5
F208
  8
0
 10
1440.8173500480341
 20
652.5076020737381
 30
0.0
 40
300.0
 50
188.09130728600809
 51
188.38553864707981
  0
ARC
  5
F209
  8
0
 10
1155.8963083540241
 20
610.5076020737381
 30
0.0
 40
12.0
 50
188.38553864707981
 51
270.0
  0
ARC
  5
F20A
  8
0
 10
1155.8963083540241
 20
694.5076020737381
 30
0.0
 40
12.0
 50
89.999999999999986
 51
171.61446135292019
  0
INSERT
  5
F20C
  8
0
  2
DT-ARROW
 10
1206.8173500480341
 20
609.50760207373821
 30
0.0
 41
0.2000000000000455
 42
0.2000000000000455
 43
0.2
  0
CIRCLE
  5
F20D
  8
0
 10
1196.8173500480341
 20
652.5076020737381
 30
0.0
 40
12.0
  0
ARC
  5
F20F
  8
0
 10
1207.015389075219
 20
641.50760207373821
 30
0.0
 40
3.0
 50
89.999999999999986
 51
132.83342806606601
  0
ARC
  5
F210
  8
0
 10
1207.015389075219
 20
663.50760207373821
 30
0.0
 40
3.0
 50
227.16657193393391
 51
270.0
  0
CIRCLE
  5
F211
  8
0
 10
1237.8295433568539
 20
611.49540876491835
 30
0.0
 40
11.0
  0
POLYLINE
  5
F212
  8
0
 66
     1
 10
0.0
 20
0.0
 30
0.0
 70
     1
  0
VERTEX
  5
F315
  8
0
 10
1231.4786903957679
 20
622.49540876491835
 30
0.0
  0
VERTEX
  5
F316
  8
0
 10
1225.1278374346821
 20
611.49540876491835
 30
0.0
  0
VERTEX
  5
F317
  8
0
 10
1231.4786903957679
 20
600.49540876491835
 30
0.0
  0
VERTEX
  5
F318
  8
0
 10
1244.1803963179391
 20
600.49540876491835
 30
0.0
  0
VERTEX
  5
F319
  8
0
 10
1250.5312492790249
 20
611.49540876491835
 30
0.0
  0
VERTEX
  5
F31A
  8
0
 10
1244.18039631794
 20
622.49540876491835
 30
0.0
  0
SEQEND
  5
F31B
  8
0
  0
CIRCLE
  5
F213
  8
0
 10
1237.8295433568539
 20
693.51979538255785
 30
0.0
 40
11.0
  0
POLYLINE
  5
F214
  8
0
 66
     1
 10
0.0
 20
0.0
 30
0.0
 70
     1
  0
VERTEX
  5
F31C
  8
0
 10
1231.4786903957679
 20
704.51979538255773
 30
0.0
  0
VERTEX
  5
F31D
  8
0
 10
1225.1278374346821
 20
693.51979538255773
 30
0.0
  0
VERTEX
  5
F31E
  8
0
 10
1231.4786903957679
 20
682.51979538255773
 30
0.0
  0
VERTEX
  5
F31F
  8
0
 10
1244.1803963179391
 20
682.51979538255773
 30
0.0
  0
VERTEX
  5
F320
  8
0
 10
1250.5312492790249
 20
693.51979538255773
 30
0.0
  0
VERTEX
  5
F321
  8
0
 10
1244.18039631794
 20
704.51979538255773
 30
0.0
  0
SEQEND
  5
F322
  8
0
  0
CIRCLE
  5
F215
  8
0
 10
1155.805156739214
 20
693.51979538255785
 30
0.0
 40
11.0
  0
POLYLINE
  5
F216
  8
0
 66
     1
 10
0.0
 20
0.0
 30
0.0
 70
     1
  0
VERTEX
  5
F323
  8
0
 10
1149.454303778128
 20
704.51979538255773
 30
0.0
  0
VERTEX
  5
F324
  8
0
 10
1143.1034508170419
 20
693.51979538255773
 30
0.0
  0
VERTEX
  5
F325
  8
0
 10
1149.454303778128
 20
682.51979538255773
 30
0.0
  0
VERTEX
  5
F326
  8
0
 10
1162.1560097003
 20
682.51979538255773
 30
0.0
  0
VERTEX
  5
F327
  8
0
 10
1168.5068626613861
 20
693.51979538255773
 30
0.0
  0
VERTEX
  5
F328
  8
0
 10
1162.1560097003
 20
704.51979538255773
 30
0.0
  0
SEQEND
  5
F329
  8
0
  0
CIRCLE
  5
F217
  8
0
 10
1155.805156739214
 20
611.49540876491835
 30
0.0
 40
11.0
  0
POLYLINE
  5
F218
  8
0
 66
     1
 10
0.0
 20
0.0
 30
0.0
 70
     1
  0
VERTEX
  5
F32A
  8
0
 10
1149.454303778128
 20
622.49540876491835
 30
0.0
  0
VERTEX
  5
F32B
  8
0
 10
1143.1034508170419
 20
611.49540876491835
 30
0.0
  0
VERTEX
  5
F32C
  8
0
 10
1149.454303778128
 20
600.49540876491835
 30
0.0
  0
VERTEX
  5
F32D
  8
0
 10
1162.1560097003
 20
600.49540876491835
 30
0.0
  0
VERTEX
  5
F32E
  8
0
 10
1168.5068626613861
 20
611.49540876491835
 30
0.0
  0
VERTEX
  5
F32F
  8
0
 10
1162.1560097003
 20
622.49540876491835
 30
0.0
  0
SEQEND
  5
F330
  8
0
  0
ARC
  5
F226
  8
0
 10
1137.8173500480341
 20
652.5076020737381
 30
0.0
 40
6.0
 50
90.0
 51
270.0
  0
LINE
  5
F227
  8
0
 10
1137.8173500480341
 20
658.50760207373821
 30
0.0
 11
1140.8773560492341
 21
658.50760207373821
 31
0.0
  0
LINE
  5
F228
  8
0
 10
1137.8173500480341
 20
646.50760207373821
 30
0.0
 11
1140.8773560492341
 21
646.5076020737381
 31
0.0
  0
LINE
  5
F229
  8
0
 10
1258.4494818666631
 20
643.5076020737381
 30
0.0
 11
1270.8173500480341
 21
643.5076020737381
 31
0.0
  0
LINE
  5
F22A
  8
0
 10
1277.8173500480341
 20
652.5076020737381
 30
0.0
 11
1277.8173500480341
 21
650.50760207373787
 31
0.0
  0
ARC
  5
F22B
  8
0
 10
1270.8173500480341
 20
650.5076020737381
 30
0.0
 40
7.0
 50
270.0
 51
0.0
  0
ARC
  5
F22C
  8
0
 10
1258.4494818666631
 20
637.5076020737381
 30
0.0
 40
6.0
 50
90.0
 51
177.19025732474969
  0
LINE
  5
F22D
  8
0
 10
1258.4494818666631
 20
661.50760207373833
 30
0.0
 11
1270.8173500480341
 21
661.50760207373821
 31
0.0
  0
LINE
  5
F22E
  8
0
 10
1277.8173500480341
 20
652.5076020737381
 30
0.0
 11
1277.8173500480341
 21
654.50760207373833
 31
0.0
  0
ARC
  5
F22F
  8
0
 10
1270.8173500480341
 20
654.50760207373821
 30
0.0
 40
7.0
 50
359.99999999999949
 51
89.999999999999474
  0
ARC
  5
F230
  8
0
 10
1258.4494818666631
 20
667.50760207373833
 30
0.0
 40
6.0
 50
182.80974267524979
 51
269.99999999999949
  0
LINE
  5
F232
  8
0
 10
1284.8173500480341
 20
683.5076020737381
 30
0.0
 11
1284.8173500480341
 21
621.50760207373833
 31
0.0
  0
LINE
  5
F233
  8
0
 10
1124.8173500480341
 20
683.50760207373833
 30
0.0
 11
1124.8173500480341
 21
621.50760207373855
 31
0.0
  0
LINE
  5
F234
  8
0
 10
1283.8173500480341
 20
684.50760207373833
 30
0.0
 11
1251.1058010480681
 21
684.50760207373833
 31
0.0
  0
LINE
  5
F235
  8
0
 10
1284.8173500480341
 20
683.50760207373833
 30
0.0
 11
1283.8173500480341
 21
684.50760207373833
 31
0.0
  0
LINE
  5
F236
  8
0
 10
1142.5288990480001
 20
684.50760207373764
 30
0.0
 11
1125.8173500480341
 21
684.50760207373833
 31
0.0
  0
LINE
  5
F237
  8
0
 10
1124.8173500480341
 20
683.50760207373833
 30
0.0
 11
1125.8173500480341
 21
684.50760207373833
 31
0.0
  0
LINE
  5
F238
  8
0
 10
1125.8173500480341
 20
620.50760207373833
 30
0.0
 11
1142.5288990480001
 21
620.50760207373833
 31
0.0
  0
LINE
  5
F239
  8
0
 10
1124.8173500480341
 20
621.50760207373855
 30
0.0
 11
1125.8173500480341
 21
620.50760207373833
 31
0.0
  0
LINE
  5
F23A
  8
0
 10
1251.105801048069
 20
620.50760207373833
 30
0.0
 11
1283.8173500480341
 21
620.50760207373833
 31
0.0
  0
LINE
  5
F23B
  8
0
 10
1284.8173500480341
 20
621.50760207373833
 30
0.0
 11
1283.8173500480341
 21
620.50760207373833
 31
0.0
  0
LINE
  5
F23C
  8
0
 10
1125.8173500480341
 20
684.50760207373833
 30
0.0
 11
1125.8173500480341
 21
620.50760207373833
 31
0.0
  0
LINE
  5
F23D
  8
0
 10
1283.8173500480341
 20
684.50760207373833
 30
0.0
 11
1283.8173500480341
 21
620.50760207373833
 31
0.0
  0
LINE
  5
F23E
  8
0
 10
1283.8173500480341
 20
684.50760207373833
 30
0.0
 11
1283.8173500480341
 21
684.50760207373833
 31
0.0
  0
LINE
  5
F240
  8
0
 10
1140.8173500480341
 20
912.98621744244883
 30
0.0
 11
1140.8173500480341
 21
889.98621744244872
 31
0.0
  0
ARC
  5
F241
  8
0
 10
1142.8173500480341
 20
912.98621744244883
 30
0.0
 40
2.0
 50
90.0
 51
180.0
  0
ARC
  5
F242
  8
0
 10
1142.8173500480341
 20
889.98621744244872
 30
0.0
 40
2.0
 50
180.0
 51
209.9999999999973
  0
LINE
  5
F243
  8
0
 10
1186.8173500480341
 20
923.98621744244872
 30
0.0
 11
1206.8173500480341
 21
923.98621744244872
 31
0.0
  0
LINE
  5
F244
  8
0
 10
1142.8173500480341
 20
914.98621744244872
 30
0.0
 11
1182.8173500480341
 21
914.98621744244861
 31
0.0
  0
ARC
  5
F245
  8
0
 10
1182.8173500480341
 20
916.98621744244849
 30
0.0
 40
2.0
 50
270.0
 51
0.000000000000007
  0
ARC
  5
F246
  8
0
 10
1213.8173500480341
 20
905.98621744244883
 30
0.0
 40
5.0
 50
180.0
 51
270.0
  0
LINE
  5
F247
  8
0
 10
1252.8173500480341
 20
898.98621744244872
 30
0.0
 11
1252.8173500480341
 21
889.98621744244872
 31
0.0
  0
ARC
  5
F248
  8
0
 10
1250.8173500480341
 20
898.98621744244872
 30
0.0
 40
2.0
 50
0.000000000000007
 51
90.0
  0
ARC
  5
F249
  8
0
 10
1250.8173500480341
 20
889.98621744244872
 30
0.0
 40
2.0
 50
330.00000000000267
 51
0.000000000000007
  0
LINE
  5
F24A
  8
0
 10
1208.8173500480341
 20
921.98621744244883
 30
0.0
 11
1208.8173500480341
 21
905.98621744244883
 31
0.0
  0
LINE
  5
F24B
  8
0
 10
1206.8173500480341
 20
923.98621744244872
 30
0.0
 11
1208.8173500480341
 21
921.98621744244883
 31
0.0
  0
LINE
  5
F24C
  8
0
 10
1184.8173500480341
 20
921.98621744244883
 30
0.0
 11
1184.8173500480341
 21
905.98621744244883
 31
0.0
  0
LINE
  5
F24D
  8
0
 10
1186.8173500480341
 20
923.98621744244872
 30
0.0
 11
1184.8173500480341
 21
921.98621744244883
 31
0.0
  0
LINE
  5
F24E
  8
0
 10
1140.8173500480341
 20
900.98621744244895
 30
0.0
 11
1250.8173500480341
 21
900.98621744244895
 31
0.0
  0
LINE
  5
F24F
  8
0
 10
1252.5494008556029
 20
888.98621744244883
 30
0.0
 11
1141.085299240465
 21
888.98621744244883
 31
0.0
  0
ARC
  5
F250
  8
0
 10
1179.8173500480341
 20
905.98621744244883
 30
0.0
 40
5.0
 50
270.0
 51
0.000000000000007
  0
LINE
  5
F251
  8
0
 10
1250.440097664216
 20
908.98621744244895
 30
0.0
 11
1250.440097664216
 21
900.98621744244895
 31
0.0
  0
LINE
  5
F252
  8
0
 10
1225.036685819872
 20
908.98621744244895
 30
0.0
 11
1225.036685819872
 21
900.98621744244895
 31
0.0
  0
LINE
  5
F253
  8
0
 10
1248.7080468566469
 20
909.98621744244883
 30
0.0
 11
1226.7687366274411
 21
909.98621744244883
 31
0.0
  0
LINE
  5
F254
  8
0
 10
1244.0892447031299
 20
908.98621744244895
 30
0.0
 11
1244.0892447031299
 21
900.98621744244895
 31
0.0
  0
LINE
  5
F255
  8
0
 10
1231.387538780958
 20
908.98621744244895
 30
0.0
 11
1231.387538780958
 21
900.98621744244895
 31
0.0
  0
ARC
  5
F256
  8
0
 10
1247.264671183673
 20
904.44455077578243
 30
0.0
 40
5.5416666666664627
 50
55.039659594481499
 51
124.96034040551849
  0
ARC
  5
F257
  8
0
 10
1237.7383917420441
 20
889.31955077578255
 30
0.0
 40
20.66666666666627
 50
72.103448870751578
 51
107.89655112924839
  0
ARC
  5
F258
  8
0
 10
1228.2121123004149
 20
904.44455077578255
 30
0.0
 40
5.5416666666664627
 50
55.039659594481499
 51
124.96034040551849
  0
LINE
  5
F259
  8
0
 10
1250.440097664216
 20
908.98621744244895
 30
0.0
 11
1248.7080468566469
 21
909.98621744244883
 31
0.0
  0
LINE
  5
F25A
  8
0
 10
1225.036685819872
 20
908.98621744244895
 30
0.0
 11
1226.7687366274411
 21
909.98621744244883
 31
0.0
  0
LINE
  5
F25B
  8
0
 10
1168.598014276195
 20
908.98621744244895
 30
0.0
 11
1168.598014276195
 21
900.98621744244895
 31
0.0
  0
LINE
  5
F25C
  8
0
 10
1143.194602431852
 20
908.98621744244895
 30
0.0
 11
1143.194602431852
 21
900.98621744244895
 31
0.0
  0
LINE
  5
F25D
  8
0
 10
1166.865963468626
 20
909.98621744244895
 30
0.0
 11
1144.9266532394199
 21
909.98621744244883
 31
0.0
  0
LINE
  5
F25E
  8
0
 10
1162.247161315109
 20
908.98621744244895
 30
0.0
 11
1162.247161315109
 21
900.98621744244895
 31
0.0
  0
LINE
  5
F25F
  8
0
 10
1149.545455392938
 20
908.98621744244895
 30
0.0
 11
1149.545455392938
 21
900.98621744244895
 31
0.0
  0
ARC
  5
F260
  8
0
 10
1165.4225877956519
 20
904.44455077578255
 30
0.0
 40
5.5416666666664627
 50
55.039659594481499
 51
124.96034040551849
  0
ARC
  5
F261
  8
0
 10
1155.8963083540229
 20
889.31955077578266
 30
0.0
 40
20.66666666666627
 50
72.103448870751578
 51
107.89655112924839
  0
ARC
  5
F262
  8
0
 10
1146.3700289123949
 20
904.44455077578255
 30
0.0
 40
5.5416666666664627
 50
55.039659594481499
 51
124.96034040551849
  0
LINE
  5
F263
  8
0
 10
1168.598014276195
 20
908.98621744244895
 30
0.0
 11
1166.865963468626
 21
909.98621744244895
 31
0.0
  0
LINE
  5
F264
  8
0
 10
1143.194602431852
 20
908.98621744244895
 30
0.0
 11
1144.9266532394211
 21
909.98621744244895
 31
0.0
  0
LINE
  5
F265
  8
0
 10
1261.9510702020691
 20
888.98621744244883
 30
0.0
 11
1112.6495375835359
 21
888.98621744244883
 31
0.0
  0
LINE
  5
F266
  8
0
 10
1130.8173500480341
 20
842.98621744244872
 30
0.0
 11
1116.8173500480341
 21
842.98621744244872
 31
0.0
  0
ARC
  5
F267
  8
0
 10
1130.8173500480341
 20
844.98621744244861
 30
0.0
 40
2.0
 50
270.0
 51
0.000000000000007
  0
LINE
  5
F268
  8
0
 10
1130.8173500480341
 20
866.98621744244872
 30
0.0
 11
1116.8173500480341
 21
866.98621744244872
 31
0.0
  0
ARC
  5
F269
  8
0
 10
1130.8173500480341
 20
864.98621744244872
 30
0.0
 40
2.0
 50
0.000000000000007
 51
90.0
  0
LINE
  5
F26A
  8
0
 10
1238.8173500480341
 20
775.42270911555249
 30
0.0
 11
1238.8173500480341
 21
751.54972576934495
 31
0.0
  0
LINE
  5
F26B
  8
0
 10
1108.8173500480341
 20
885.98621744244849
 30
0.0
 11
1108.8173500480341
 21
823.98621744244872
 31
0.0
  0
LINE
  5
F26C
  8
0
 10
1268.8173500480341
 20
885.98621744244861
 30
0.0
 11
1268.8173500480341
 21
823.98621744244895
 31
0.0
  0
LINE
  5
F26D
  8
0
 10
1140.8173500480341
 20
888.98621744244883
 30
0.0
 11
1140.8173500480341
 21
878.98621744244861
 31
0.0
  0
ARC
  5
F26E
  8
0
 10
1142.8173500480341
 20
878.98621744244861
 30
0.0
 40
2.0
 50
180.0
 51
270.0
  0
LINE
  5
F26F
  8
0
 10
1252.8173500480341
 20
888.98621744244883
 30
0.0
 11
1252.8173500480341
 21
878.98621744244895
 31
0.0
  0
LINE
  5
F270
  8
0
 10
1124.8173500480341
 20
796.73628043930773
 30
0.0
 11
1124.8173500480341
 21
817.98621744244872
 31
0.0
  0
ARC
  5
F271
  8
0
 10
1119.8173500480341
 20
817.98621744244872
 30
0.0
 40
5.0
 50
0.000000000000007
 51
90.0
  0
LINE
  5
F272
  8
0
 10
1238.8173500480341
 20
817.98621744244872
 30
0.0
 11
1238.8173500480341
 21
791.98621744244872
 31
0.0
  0
ARC
  5
F273
  8
0
 10
1243.8173500480341
 20
817.98621744244872
 30
0.0
 40
5.0
 50
90.0
 51
180.0
  0
LINE
  5
F274
  8
0
 10
1114.8173500480341
 20
844.98621744244861
 30
0.0
 11
1114.8173500480341
 21
864.98621744244872
 31
0.0
  0
ARC
  5
F275
  8
0
 10
1116.8173500480341
 20
864.98621744244872
 30
0.0
 40
2.0
 50
90.0
 51
180.0
  0
ARC
  5
F276
  8
0
 10
1116.8173500480341
 20
844.98621744244861
 30
0.0
 40
2.0
 50
180.0
 51
270.0
  0
LINE
  5
F277
  8
0
 10
1132.8173500480341
 20
844.98621744244861
 30
0.0
 11
1132.8173500480341
 21
864.98621744244872
 31
0.0
  0
LINE
  5
F278
  8
0
 10
1109.8173500480341
 20
886.98621744244861
 30
0.0
 11
1137.8173500480341
 21
886.98621744244861
 31
0.0
  0
LINE
  5
F279
  8
0
 10
1108.8173500480341
 20
885.98621744244861
 30
0.0
 11
1109.8173500480341
 21
886.98621744244861
 31
0.0
  0
ARC
  5
F27A
  8
0
 10
1137.8173500480341
 20
889.98621744244872
 30
0.0
 40
3.0
 50
270.0
 51
340.5287793655059
  0
LINE
  5
F27B
  8
0
 10
1142.8173500480341
 20
876.98621744244872
 30
0.0
 11
1196.8173500480341
 21
876.98621744244883
 31
0.0
  0
ARC
  5
F27C
  8
0
 10
1153.8173500480341
 20
872.98621744244872
 30
0.0
 40
4.0
 50
0.000000000000007
 51
90.0
  0
LINE
  5
F27D
  8
0
 10
1196.8173500480341
 20
876.98621744244883
 30
0.0
 11
1250.8173500480341
 21
876.98621744244883
 31
0.0
  0
ARC
  5
F27E
  8
0
 10
1250.8173500480341
 20
878.98621744244895
 30
0.0
 40
2.0
 50
270.0
 51
0.000000000000007
  0
LINE
  5
F27F
  8
0
 10
1252.8173500480341
 20
886.98621744244826
 30
0.0
 11
1267.8173500480341
 21
886.98621744244861
 31
0.0
  0
LINE
  5
F280
  8
0
 10
1268.8173500480341
 20
885.98621744244861
 30
0.0
 11
1267.8173500480341
 21
886.98621744244861
 31
0.0
  0
LINE
  5
F281
  8
0
 10
1267.8173500480341
 20
822.98621744244872
 30
0.0
 11
1243.8173500480341
 21
822.98621744244872
 31
0.0
  0
LINE
  5
F282
  8
0
 10
1268.8173500480341
 20
823.98621744244895
 30
0.0
 11
1267.8173500480341
 21
822.98621744244872
 31
0.0
  0
LINE
  5
F283
  8
0
 10
1119.8173500480341
 20
822.98621744244872
 30
0.0
 11
1109.8173500480341
 21
822.98621744244872
 31
0.0
  0
LINE
  5
F284
  8
0
 10
1108.8173500480341
 20
823.98621744244872
 30
0.0
 11
1109.8173500480341
 21
822.98621744244872
 31
0.0
  0
ARC
  5
F285
  8
0
 10
1264.8073500480341
 20
889.98621744244872
 30
0.0
 40
3.0
 50
204.62431835216009
 51
270.0
  0
ARC
  5
F286
  8
0
 10
1259.352993990716
 20
887.48621744244872
 30
0.0
 40
3.0
 50
24.62431835217145
 51
29.9999999999973
  0
LINE
  5
F287
  8
0
 10
1122.593821957757
 20
793.83850691927353
 30
0.0
 11
1115.557076325571
 21
791.95297815676611
 31
0.0
  0
ARC
  5
F288
  8
0
 10
1121.8173500480341
 20
796.73628043930773
 30
0.0
 40
3.0
 50
285.00029212464142
 51
0.000000000000007
  0
LINE
  5
F289
  8
0
 10
1164.433285838915
 20
761.56792713382617
 30
0.0
 11
1126.427476220018
 21
751.38409345209789
 31
0.0
  0
LINE
  5
F28A
  8
0
 10
1125.2027326682539
 20
752.09119530847022
 30
0.0
 11
1126.427476220018
 21
751.38409345209789
 31
0.0
  0
ARC
  5
F28B
  8
0
 10
1196.8173500480341
 20
791.98621744244872
 30
0.0
 40
42.0
 50
270.0
 51
0.000000000000007
  0
ARC
  5
F28C
  8
0
 10
1196.8173500480341
 20
791.98621744244872
 30
0.0
 40
42.0
 50
180.0
 51
285.35888558081911
  0
ARC
  5
F28D
  8
0
 10
1165.727405688453
 20
756.73830460043575
 30
0.0
 40
5.0
 50
48.586531312752982
 51
105.0002921246414
  0
ARC
  5
F28E
  8
0
 10
1238.3594973204131
 20
777.48621744244872
 30
0.0
 40
2.0
 50
160.7588112368733
 51
270.0
  0
LINE
  5
F28F
  8
0
 10
1207.941647778677
 20
751.48621744244872
 30
0.0
 11
1238.3173500480341
 21
751.48621744244872
 31
0.0
  0
ARC
  5
F290
  8
0
 10
1238.3173500480341
 20
753.48621744244872
 30
0.0
 40
2.0
 50
270.0
 51
284.47751218592953
  0
LINE
  5
F291
  8
0
 10
1238.3594973204131
 20
775.48621744244872
 30
0.0
 11
1238.3173500480341
 21
775.48621744244872
 31
0.0
  0
ARC
  5
F292
  8
0
 10
1238.3173500480341
 20
773.48621744244861
 30
0.0
 40
2.0
 50
75.522487814070558
 51
90.0
  0
LINE
  5
F293
  8
0
 10
1114.8499708640049
 20
790.7282283605856
 30
0.0
 11
1125.2027326682539
 21
752.09119530847022
 31
0.0
  0
LINE
  5
F294
  8
0
 10
1115.557076325571
 20
791.95297815676611
 30
0.0
 11
1114.849970864004
 21
790.72822836058526
 31
0.0
  0
LINE
  5
F295
  8
0
 10
1227.8173500480341
 20
832.26242009744362
 30
0.0
 11
1165.8173500480341
 21
832.26242009744362
 31
0.0
  0
ARC
  5
F296
  8
0
 10
1227.8173500480341
 20
840.26242009744362
 30
0.0
 40
8.0
 50
270.0
 51
0.000000000000007
  0
LINE
  5
F297
  8
0
 10
1154.8173500480341
 20
822.01789326339099
 30
0.0
 11
1154.8173500480341
 21
791.98621744244872
 31
0.0
  0
LINE
  5
F298
  8
0
 10
1267.8173500480341
 20
886.98621744244861
 30
0.0
 11
1267.8173500480341
 21
822.98621744244872
 31
0.0
  0
LINE
  5
F299
  8
0
 10
1109.8173500480341
 20
886.98621744244861
 30
0.0
 11
1109.8173500480341
 21
822.98621744244872
 31
0.0
  0
LINE
  5
F29A
  8
0
 10
1260.8173500480341
 20
842.98621744244872
 30
0.0
 11
1246.8173500480341
 21
842.98621744244872
 31
0.0
  0
ARC
  5
F29B
  8
0
 10
1260.8173500480341
 20
844.98621744244861
 30
0.0
 40
2.0
 50
270.0
 51
0.000000000000007
  0
LINE
  5
F29C
  8
0
 10
1260.8173500480341
 20
866.98621744244872
 30
0.0
 11
1246.8173500480341
 21
866.98621744244872
 31
0.0
  0
ARC
  5
F29D
  8
0
 10
1260.8173500480341
 20
864.98621744244872
 30
0.0
 40
2.0
 50
0.000000000000007
 51
90.0
  0
LINE
  5
F29E
  8
0
 10
1244.8173500480341
 20
844.98621744244861
 30
0.0
 11
1244.8173500480341
 21
864.98621744244872
 31
0.0
  0
ARC
  5
F29F
  8
0
 10
1246.8173500480341
 20
864.98621744244872
 30
0.0
 40
2.0
 50
90.0
 51
180.0
  0
ARC
  5
F2A0
  8
0
 10
1246.8173500480341
 20
844.98621744244861
 30
0.0
 40
2.0
 50
180.0
 51
270.0
  0
LINE
  5
F2A1
  8
0
 10
1262.8173500480341
 20
844.98621744244861
 30
0.0
 11
1262.8173500480341
 21
864.98621744244872
 31
0.0
  0
LINE
  5
F2A2
  8
0
 10
1235.8173500480341
 20
872.98621744244895
 30
0.0
 11
1235.8173500480341
 21
840.26242009744362
 31
0.0
  0
ARC
  5
F2A3
  8
0
 10
1239.8173500480341
 20
872.98621744244895
 30
0.0
 40
4.0
 50
90.0
 51
180.0
  0
ARC
  5
F2A4
  8
0
 10
1165.8173500480341
 20
840.26242009744362
 30
0.0
 40
8.0
 50
180.0
 51
270.0
  0
LINE
  5
F2A5
  8
0
 10
1157.8173500480341
 20
872.98621744244872
 30
0.0
 11
1157.8173500480341
 21
840.26242009744362
 31
0.0
  0
ARC
  5
F2A8
  8
0
 10
1150.8173500480341
 20
822.01789326339099
 30
0.0
 40
4.0
 50
0.000000000000007
 51
90.0
  0
ARC
  5
F2A9
  8
0
 10
1135.690597060146
 20
765.72222091887068
 30
0.0
 40
32.160671645328392
 50
69.842276069864639
 51
92.085359920433845
  0
LINE
  5
F2AA
  8
0
 10
1115.557076325571
 20
791.95297815676611
 30
0.0
 11
1126.42768306169
 21
751.38414887628721
 31
0.0
  0
LINE
  5
F2AB
  8
0
 10
1109.8173500480341
 20
886.98621744244861
 30
0.0
 11
1109.8173500480341
 21
886.98621744244861
 31
0.0
  0
ARC
  5
F2AC
  8
0
 10
1109.8173500480341
 20
889.98621744244872
 30
0.0
 40
3.0
 50
270.0
 51
338.67631373650278
  0
ARC
  5
F2AD
  8
0
 10
1114.9408254310131
 20
887.98621744244861
 30
0.0
 40
2.5
 50
156.42182152179279
 51
158.67631373650269
  0
LINE
  5
F2AE
  8
0
 10
1119.9643051520061
 20
762.75861905231977
 30
0.0
 11
1112.814522185814
 21
760.84284048047095
 31
0.0
  0
LINE
  5
F2AF
  8
0
 10
1112.814522185814
 20
760.84284048047095
 30
0.0
 11
1113.8353044996979
 21
757.03322902158675
 31
0.0
  0
LINE
  5
F2B0
  8
0
 10
1113.8353044996979
 20
757.03322902158675
 30
0.0
 11
1120.98508746589
 21
758.94900759343568
 31
0.0
  0
LINE
  5
F2B1
  8
0
 10
1104.6130813669131
 20
786.43208371848129
 30
0.0
 11
1105.2854761637821
 21
788.94162276721988
 31
0.0
  0
LINE
  5
F2B2
  8
0
 10
1105.2854761637821
 20
788.94162276721988
 30
0.0
 11
1112.435259129973
 21
790.85740133906882
 31
0.0
  0
LINE
  5
F2B3
  8
0
 10
1112.435259129973
 20
790.85740133906882
 30
0.0
 11
1114.2723396298029
 21
789.02027416950637
 31
0.0
  0
LINE
  5
F2B4
  8
0
 10
1114.2723396298011
 20
789.02027416950875
 30
0.0
 11
1123.8485148890741
 21
753.28150155972423
 31
0.0
  0
LINE
  5
F2B5
  8
0
 10
1123.8485148890741
 20
753.28150155972423
 30
0.0
 11
1123.176120092206
 21
750.77196251098565
 31
0.0
  0
LINE
  5
F2B6
  8
0
 10
1123.176120092206
 20
750.77196251098565
 30
0.0
 11
1116.0263371260139
 21
748.85618393913683
 31
0.0
  0
LINE
  5
F2B7
  8
0
 10
1116.0263371260139
 20
748.85618393913683
 30
0.0
 11
1114.1892566261829
 21
750.69331110869905
 31
0.0
  0
LINE
  5
F2B8
  8
0
 10
1114.1892566261829
 20
750.69331110869905
 30
0.0
 11
1104.6130813669131
 21
786.43208371848129
 31
0.0
  0
ARC
  5
F2B9
  8
0
 10
1123.540144312359
 20
755.25156775943185
 30
0.0
 40
9.8670275484803067
 50
169.59720228553039
 51
220.4027977144722
  0
LINE
  5
F2BA
  8
0
 10
1115.6472034796959
 20
778.87026183482146
 30
0.0
 11
1108.497420513504
 21
776.95448326297264
 31
0.0
  0
LINE
  5
F2BB
  8
0
 10
1108.497420513504
 20
776.95448326297264
 30
0.0
 11
1107.4766381996201
 21
780.76409472185685
 31
0.0
  0
LINE
  5
F2BC
  8
0
 10
1107.4766381996201
 20
780.76409472185685
 30
0.0
 11
1114.6264211658111
 21
782.67987329370555
 31
0.0
  0
ARC
  5
F2BD
  8
0
 10
1114.9904453859649
 20
787.1594785421521
 30
0.0
 40
9.8670275484803067
 50
169.59720228553681
 51
220.4027977144722
  0
ARC
  5
F2BE
  8
0
 10
1145.407777352656
 20
778.21038022574783
 30
0.0
 40
36.931716981134642
 50
181.94877133349121
 51
208.05122866650419
  0
LINE
  5
F2BF
  8
0
 10
1119.9643051520061
 20
762.75861905231977
 30
0.0
 11
1120.98508746589
 21
758.94900759343568
 31
0.0
  0
ARC
  5
F2C0
  8
0
 10
1113.471280279545
 20
752.55362377314043
 30
0.0
 40
9.8670275484803067
 50
349.59720228553681
 51
40.40279771447225
  0
LINE
  5
F2C1
  8
0
 10
1115.6472034796959
 20
778.87026183482146
 30
0.0
 11
1114.6264211658111
 21
782.67987329370555
 31
0.0
  0
ARC
  5
F2C2
  8
0
 10
1104.92158135315
 20
784.46153455586057
 30
0.0
 40
9.8670275484803067
 50
349.59720228553039
 51
40.40279771447225
  0
ARC
  5
F2C3
  8
0
 10
1083.0539483128539
 20
761.50272208954459
 30
0.0
 40
36.931716981134642
 50
1.948771333491222
 51
28.05122866650418
  0
LINE
  5
F2C4
  8
0
 10
1123.8485148890741
 20
753.28150155972423
 30
0.0
 11
1124.8144407153629
 21
753.54032060482655
 31
0.0
  0
LINE
  5
F2C5
  8
0
 10
1114.2723396298029
 20
789.02027416950637
 30
0.0
 11
1115.2382654560929
 21
789.27909321460902
 31
0.0
  0
LINE
  5
F2C6
  8
0
 10
1105.2854761637821
 20
788.94162276721988
 30
0.0
 11
1116.0263371260139
 21
748.85618393913683
 31
0.0
  0
LINE
  5
F2D5
  8
0
 10
480.86701881112958
 20
714.27214240581009
 30
0.0
 11
450.86701881112958
 21
714.2721424058102
 31
0.0
  0
LINE
  5
F2D7
  8
0
 10
480.86701881112958
 20
692.2721424058102
 30
0.0
 11
450.86701881112958
 21
692.2721424058102
 31
0.0
  0
LINE
  5
F2D8
  8
0
 10
448.8670188111297
 20
694.2721424058102
 30
0.0
 11
448.8670188111297
 21
712.27214240581009
 31
0.0
  0
LINE
  5
F2D9
  8
0
 10
482.86701881112958
 20
694.2721424058102
 30
0.0
 11
482.86701881112958
 21
712.27214240580997
 31
0.0
  0
ARC
  5
F2DA
  8
0
 10
450.86701881112958
 20
712.27214240581009
 30
0.0
 40
2.0
 50
90.0
 51
180.0
  0
ARC
  5
F2DB
  8
0
 10
450.86701881112958
 20
694.2721424058102
 30
0.0
 40
2.0
 50
180.0
 51
270.0
  0
ARC
  5
F2DC
  8
0
 10
480.86701881112958
 20
694.2721424058102
 30
0.0
 40
2.0
 50
270.00000000000011
 51
0.0
  0
ARC
  5
F2DD
  8
0
 10
480.86701881112958
 20
712.27214240580997
 30
0.0
 40
2.0
 50
360.0
 51
90.000000000000099
  0
LINE
  5
F2DE
  8
0
 10
1211.8173500480341
 20
699.50760207373787
 30
0.0
 11
1181.8173500480341
 21
699.50760207373798
 31
0.0
  0
ARC
  5
F2DF
  8
0
 10
1211.8173500480341
 20
697.50760207373798
 30
0.0
 40
2.0
 50
360.0
 51
90.000000000000099
  0
LINE
  5
F2E0
  8
0
 10
1211.8173500480341
 20
677.5076020737381
 30
0.0
 11
1181.8173500480341
 21
677.5076020737381
 31
0.0
  0
ARC
  5
F2E1
  8
0
 10
1181.8173500480341
 20
679.5076020737381
 30
0.0
 40
2.0
 50
180.0
 51
270.0
  0
LINE
  5
F2E2
  8
0
 10
1213.8173500480341
 20
679.5076020737381
 30
0.0
 11
1213.8173500480341
 21
697.50760207373798
 31
0.0
  0
ARC
  5
F2E3
  8
0
 10
1211.8173500480341
 20
679.5076020737381
 30
0.0
 40
2.0
 50
270.00000000000011
 51
0.0
  0
LINE
  5
F2E4
  8
0
 10
1179.8173500480341
 20
679.5076020737381
 30
0.0
 11
1179.8173500480341
 21
697.5076020737381
 31
0.0
  0
ARC
  5
F2E5
  8
0
 10
1181.8173500480341
 20
697.5076020737381
 30
0.0
 40
2.0
 50
90.0
 51
180.0
  0
VIEWPORT
  5
41
 67
     1
  8
0
 10
117.358407079646
 20
73.5
 30
0.0
 40
234.716814159292
 41
147.0
 68
     1
 69
     1
1001
ACAD
1000
MVIEW
1002
{
1070
    16
1010
0.0
1020
0.0
1030
0.0
1010
0.0
1020
0.0
1030
1.0
1040
0.0
1040
147.0
1040
117.358407079646
1040
73.5
1040
50.0
1040
0.0
1040
0.0
1070
     0
1070
   100
1070
     1
1070
     1
1070
     0
1070
     0
1070
     0
1070
     0
1040
0.0
1040
0.0
1040
0.0
1040
1.0
1040
1.0
1040
0.0
1040
0.0
1070
     0
1002
{
1002
}
1002
}
  0
ENDSEC
  0
EOF
