  0
SECTION
  2
HEADER
  9
$ACADVER
  1
AC1012
  9
$DWGCODEPAGE
  3
dos932
  9
$INSBASE
 10
0.0
 20
0.0
 30
0.0
  9
$EXTMIN
 10
165.0
 20
75.0
 30
0.0
  9
$EXTMAX
 10
4290.0
 20
2865.0
 30
0.0
  9
$LIMMIN
 10
0.0
 20
0.0
  9
$LIMMAX
 10
4455.0
 20
3150.0
  9
$ORTHOMODE
 70
     1
  9
$REGENMODE
 70
     1
  9
$FILLMODE
 70
     1
  9
$QTEXTMODE
 70
     0
  9
$MIRRTEXT
 70
     1
  9
$DRAGMODE
 70
     2
  9
$LTSCALE
 40
60.0
  9
$OSMODE
 70
    39
  9
$ATTMODE
 70
     1
  9
$TEXTSIZE
 40
60.0
  9
$TRACEWID
 40
0.05
  9
$TEXTSTYLE
  7
STANDARD
  9
$CLAYER
  8
0
  9
$CELTYPE
  6
BYLAYER
  9
$CECOLOR
 62
   256
  9
$CELTSCALE
 40
1.0
  9
$DELOBJ
 70
     1
  9
$DISPSILH
 70
     0
  9
$DIMSCALE
 40
15.0
  9
$DIMASZ
 40
2.8
  9
$DIMEXO
 40
1.0
  9
$DIMDLI
 40
5.0
  9
$DIMRND
 40
0.1
  9
$DIMDLE
 40
0.0
  9
$DIMEXE
 40
1.0
  9
$DIMTP
 40
0.0
  9
$DIMTM
 40
0.0
  9
$DIMTXT
 40
2.5
  9
$DIMCEN
 40
0.0
  9
$DIMTSZ
 40
0.0
  9
$DIMTOL
 70
     0
  9
$DIMLIM
 70
     0
  9
$DIMTIH
 70
     0
  9
$DIMTOH
 70
     0
  9
$DIMSE1
 70
     0
  9
$DIMSE2
 70
     0
  9
$DIMTAD
 70
     3
  9
$DIMZIN
 70
     8
  9
$DIMBLK
  1

  9
$DIMASO
 70
     1
  9
$DIMSHO
 70
     1
  9
$DIMPOST
  1
 
  9
$DIMAPOST
  1

  9
$DIMALT
 70
     0
  9
$DIMALTD
 70
     2
  9
$DIMALTF
 40
1.0
  9
$DIMLFAC
 40
1.0
  9
$DIMTOFL
 70
     1
  9
$DIMTVP
 40
0.0
  9
$DIMTIX
 70
     0
  9
$DIMSOXD
 70
     0
  9
$DIMSAH
 70
     1
  9
$DIMBLK1
  1
_OPEN
  9
$DIMBLK2
  1
_OPEN
  9
$DIMSTYLE
  2
DIM1
  9
$DIMCLRD
 70
     2
  9
$DIMCLRE
 70
     2
  9
$DIMCLRT
 70
     2
  9
$DIMTFAC
 40
0.7
  9
$DIMGAP
 40
0.85
  9
$DIMJUST
 70
     0
  9
$DIMSD1
 70
     0
  9
$DIMSD2
 70
     0
  9
$DIMTOLJ
 70
     1
  9
$DIMTZIN
 70
     8
  9
$DIMALTZ
 70
     8
  9
$DIMALTTZ
 70
     8
  9
$DIMFIT
 70
     3
  9
$DIMUPT
 70
     0
  9
$DIMUNIT
 70
     2
  9
$DIMDEC
 70
     2
  9
$DIMTDEC
 70
     3
  9
$DIMALTU
 70
     2
  9
$DIMALTTD
 70
     3
  9
$DIMTXSTY
  7
DIM
  9
$DIMAUNIT
 70
     0
  9
$LUNITS
 70
     2
  9
$LUPREC
 70
     4
  9
$SKETCHINC
 40
0.1
  9
$FILLETRAD
 40
0.0
  9
$AUNITS
 70
     0
  9
$AUPREC
 70
     0
  9
$MENU
  1
C:\ACADR13\WIN\SUPPORT\ACAD.mnc
  9
$ELEVATION
 40
0.0
  9
$PELEVATION
 40
0.0
  9
$THICKNESS
 40
0.0
  9
$LIMCHECK
 70
     0
  9
$BLIPMODE
 70
     1
  9
$CHAMFERA
 40
0.0
  9
$CHAMFERB
 40
0.0
  9
$CHAMFERC
 40
0.0
  9
$CHAMFERD
 40
0.0
  9
$SKPOLY
 70
     0
  9
$TDCREATE
 40
2451589.540470243
  9
$TDUPDATE
 40
2451981.559489826
  9
$TDINDWG
 40
0.1329728009
  9
$TDUSRTIMER
 40
0.1329728009
  9
$USRTIMER
 70
     1
  9
$ANGBASE
 50
0.0
  9
$ANGDIR
 70
     0
  9
$PDMODE
 70
     0
  9
$PDSIZE
 40
0.0
  9
$PLINEWID
 40
0.0
  9
$COORDS
 70
     1
  9
$SPLFRAME
 70
     0
  9
$SPLINETYPE
 70
     6
  9
$SPLINESEGS
 70
     8
  9
$ATTDIA
 70
     0
  9
$ATTREQ
 70
     1
  9
$HANDLING
 70
     1
  9
$HANDSEED
  5
1B57D
  9
$SURFTAB1
 70
     6
  9
$SURFTAB2
 70
     6
  9
$SURFTYPE
 70
     6
  9
$SURFU
 70
     6
  9
$SURFV
 70
     6
  9
$UCSNAME
  2

  9
$UCSORG
 10
0.0
 20
0.0
 30
0.0
  9
$UCSXDIR
 10
1.0
 20
0.0
 30
0.0
  9
$UCSYDIR
 10
0.0
 20
1.0
 30
0.0
  9
$PUCSNAME
  2

  9
$PUCSORG
 10
0.0
 20
0.0
 30
0.0
  9
$PUCSXDIR
 10
1.0
 20
0.0
 30
0.0
  9
$PUCSYDIR
 10
0.0
 20
1.0
 30
0.0
  9
$USERI1
 70
     0
  9
$USERI2
 70
     0
  9
$USERI3
 70
     0
  9
$USERI4
 70
     0
  9
$USERI5
 70
     0
  9
$USERR1
 40
0.0
  9
$USERR2
 40
0.0
  9
$USERR3
 40
0.0
  9
$USERR4
 40
0.0
  9
$USERR5
 40
0.0
  9
$WORLDVIEW
 70
     1
  9
$SHADEDGE
 70
     3
  9
$SHADEDIF
 70
    70
  9
$TILEMODE
 70
     1
  9
$MAXACTVP
 70
    16
  9
$PINSBASE
 10
0.0
 20
0.0
 30
0.0
  9
$PLIMCHECK
 70
     0
  9
$PEXTMIN
 10
1.000000E+20
 20
1.000000E+20
 30
1.000000E+20
  9
$PEXTMAX
 10
-1.000000E+20
 20
-1.000000E+20
 30
-1.000000E+20
  9
$PLIMMIN
 10
0.0
 20
0.0
  9
$PLIMMAX
 10
20.0
 20
147.0
  9
$UNITMODE
 70
     0
  9
$VISRETAIN
 70
     0
  9
$PLINEGEN
 70
     0
  9
$PSLTSCALE
 70
     1
  9
$TREEDEPTH
 70
  3020
  9
$PICKSTYLE
 70
     1
  9
$CMLSTYLE
  2
STANDARD
  9
$CMLJUST
 70
     0
  9
$CMLSCALE
 40
1.0
  9
$SAVEIMAGES
 70
     1
  0
ENDSEC
  0
SECTION
  2
CLASSES
  0
CLASS
  1
LWPOLYLINE
  2
AcDbPolyline
  3
"AutoCAD"
 90
    32768
280
     0
281
     1
  0
ENDSEC
  0
SECTION
  2
TABLES
  0
TABLE
  2
VPORT
  5
8
100
AcDbSymbolTable
 70
     2
  0
VPORT
  5
1B57C
100
AcDbSymbolTableRecord
100
AcDbViewportTableRecord
  2
*ACTIVE
 70
     0
 10
0.0
 20
0.0
 11
1.0
 21
1.0
 12
2966.989437
 22
1683.815535
 13
0.0
 23
0.0
 14
1.0
 24
1.0
 15
0.0
 25
0.0
 16
0.0
 26
0.0
 36
1.0
 17
0.0
 27
0.0
 37
0.0
 40
3367.63107
 41
1.762063
 42
50.0
 43
0.0
 44
0.0
 50
0.0
 51
0.0
 71
     0
 72
   100
 73
     1
 74
     1
 75
     0
 76
     0
 77
     0
 78
     0
  0
ENDTAB
  0
TABLE
  2
LTYPE
  5
5
100
AcDbSymbolTable
 70
     1
  0
LTYPE
  5
12
100
AcDbSymbolTableRecord
100
AcDbLinetypeTableRecord
  2
BYBLOCK
 70
     0
  3

 72
    65
 73
     0
 40
0.0
  0
LTYPE
  5
13
100
AcDbSymbolTableRecord
100
AcDbLinetypeTableRecord
  2
BYLAYER
 70
     0
  3

 72
    65
 73
     0
 40
0.0
  0
LTYPE
  5
14
100
AcDbSymbolTableRecord
100
AcDbLinetypeTableRecord
  2
CONTINUOUS
 70
     0
  3
Solid line
 72
    65
 73
     0
 40
0.0
  0
ENDTAB
  0
TABLE
  2
LAYER
  5
2
100
AcDbSymbolTable
 70
     1
  0
LAYER
  5
F
100
AcDbSymbolTableRecord
100
AcDbLayerTableRecord
  2
0
 70
     0
 62
     7
  6
CONTINUOUS
  0
ENDTAB
  0
TABLE
  2
STYLE
  5
3
100
AcDbSymbolTable
 70
     3
  0
STYLE
  5
10
100
AcDbSymbolTableRecord
100
AcDbTextStyleTableRecord
  2
STANDARD
 70
     0
 40
0.0
 41
0.8
 50
0.0
 71
     0
 42
60.0
  3
simplex
  4
extfont
  0
STYLE
  5
237C
100
AcDbSymbolTableRecord
100
AcDbTextStyleTableRecord
  2
PTSH
 70
     0
 40
0.0
 41
0.9
 50
0.0
 71
     0
 42
4.0
  3
SIMPLEX
  4
EXTFONT
  0
STYLE
  5
2592
100
AcDbSymbolTableRecord
100
AcDbTextStyleTableRecord
  2
DIM
 70
     0
 40
0.0
 41
0.8
 50
0.0
 71
     0
 42
4.0
  3
simplex
  4
extfont
  0
ENDTAB
  0
TABLE
  2
VIEW
  5
6
100
AcDbSymbolTable
 70
     0
  0
ENDTAB
  0
TABLE
  2
UCS
  5
7
100
AcDbSymbolTable
 70
     0
  0
ENDTAB
  0
TABLE
  2
APPID
  5
9
100
AcDbSymbolTable
 70
     1
  0
APPID
  5
11
100
AcDbSymbolTableRecord
100
AcDbRegAppTableRecord
  2
ACAD
 70
     0
  0
ENDTAB
  0
TABLE
  2
DIMSTYLE
  5
A
100
AcDbSymbolTable
 70
     1
  0
DIMSTYLE
105
2237
100
AcDbSymbolTableRecord
100
AcDbDimStyleTableRecord
  2
DIM1
 70
     0
  3
 
  4

  5

  6
_OPEN
  7
_OPEN
 40
15.0
 41
2.8
 42
1.0
 43
5.0
 44
1.0
 45
0.1
 46
0.0
 47
0.0
 48
0.0
140
2.5
141
0.0
142
0.0
143
1.0
144
1.0
145
0.0
146
0.7
147
0.85
 71
     0
 72
     0
 73
     0
 74
     0
 75
     0
 76
     0
 77
     3
 78
     8
170
     0
171
     2
172
     1
173
     1
174
     0
175
     0
176
     2
177
     2
178
     2
270
     2
271
     2
272
     3
273
     2
274
     3
340
2592
275
     0
280
     0
281
     0
282
     0
283
     1
284
     8
285
     8
286
     8
287
     3
288
     0
  0
ENDTAB
  0
TABLE
  2
BLOCK_RECORD
  5
1
100
AcDbSymbolTable
 70
     2
  0
BLOCK_RECORD
  5
18
100
AcDbSymbolTableRecord
100
AcDbBlockTableRecord
  2
*MODEL_SPACE
  0
BLOCK_RECORD
  5
15
100
AcDbSymbolTableRecord
100
AcDbBlockTableRecord
  2
*PAPER_SPACE
  0
BLOCK_RECORD
  5
2448
100
AcDbSymbolTableRecord
100
AcDbBlockTableRecord
  2
_OPEN
  0
BLOCK_RECORD
  5
1B21A
100
AcDbSymbolTableRecord
100
AcDbBlockTableRecord
  2
YA
  0
ENDTAB
  0
ENDSEC
  0
SECTION
  2
BLOCKS
  0
BLOCK
  5
3C
100
AcDbEntity
  8
0
100
AcDbBlockBegin
  2
*MODEL_SPACE
 70
     0
 10
0.0
 20
0.0
 30
0.0
  3
*MODEL_SPACE
  1

  0
ENDBLK
  5
3D
100
AcDbEntity
  8
0
100
AcDbBlockEnd
  0
BLOCK
  5
3A
100
AcDbEntity
 67
     1
  8
0
100
AcDbBlockBegin
  2
*PAPER_SPACE
 70
     0
 10
0.0
 20
0.0
 30
0.0
  3
*PAPER_SPACE
  1

  0
ENDBLK
  5
3B
100
AcDbEntity
 67
     1
  8
0
100
AcDbBlockEnd
  0
BLOCK
  5
2449
100
AcDbEntity
  8
0
 48
4.0
100
AcDbBlockBegin
  2
_OPEN
 70
     0
 10
0.0
 20
0.0
 30
0.0
  3
_OPEN
  1
H1111.DWG
  0
LINE
  5
244A
100
AcDbEntity
  8
0
  6
BYBLOCK
 62
     0
 48
4.0
100
AcDbLine
 10
-1.0
 20
0.166667
 30
0.0
 11
0.0
 21
0.0
 31
0.0
  0
LINE
  5
244B
100
AcDbEntity
  8
0
  6
BYBLOCK
 62
     0
 48
4.0
100
AcDbLine
 10
0.0
 20
0.0
 30
0.0
 11
-1.0
 21
-0.166667
 31
0.0
  0
LINE
  5
244C
100
AcDbEntity
  8
0
  6
BYBLOCK
 62
     0
 48
4.0
100
AcDbLine
 10
0.0
 20
0.0
 30
0.0
 11
-1.0
 21
0.0
 31
0.0
  0
ENDBLK
  5
244D
100
AcDbEntity
  8
0
 48
4.0
100
AcDbBlockEnd
  0
BLOCK
  5
1B222
100
AcDbEntity
  8
0
100
AcDbBlockBegin
  2
YA
 70
     0
 10
0.0
 20
0.0
 30
0.0
  3
YA
  1

  0
LINE
  5
1B21B
100
AcDbEntity
  8
0
100
AcDbLine
 10
-16.8065
 20
2.801
 30
0.0
 11
-8.4035
 21
2.801
 31
0.0
  0
LINE
  5
1B21C
100
AcDbEntity
  8
0
100
AcDbLine
 10
-8.4035
 20
2.801
 30
0.0
 11
-7.0025
 21
1.4005
 31
0.0
  0
LINE
  5
1B21D
100
AcDbEntity
  8
0
100
AcDbLine
 10
-7.0025
 20
1.4005
 30
0.0
 11
-2.862
 21
1.4005
 31
0.0
  0
LINE
  5
1B21E
100
AcDbEntity
  8
0
100
AcDbLine
 10
-2.862
 20
1.4005
 30
0.0
 11
-2.862
 21
2.801
 31
0.0
  0
LINE
  5
1B21F
100
AcDbEntity
  8
0
100
AcDbLine
 10
-2.862
 20
2.801
 30
0.0
 11
0.0
 21
0.0
 31
0.0
  0
LINE
  5
1B220
100
AcDbEntity
  8
0
100
AcDbLine
 10
0.0
 20
0.0
 30
0.0
 11
-14.0055
 21
0.0
 31
0.0
  0
LINE
  5
1B221
100
AcDbEntity
  8
0
100
AcDbLine
 10
-14.0055
 20
0.0
 30
0.0
 11
-16.8065
 21
2.801
 31
0.0
  0
ENDBLK
  5
1B223
100
AcDbEntity
  8
0
100
AcDbBlockEnd
  0
ENDSEC
  0
SECTION
  2
ENTITIES
  0
MTEXT
  5
ADA
100
AcDbEntity
  8
0
100
AcDbMText
 10
5702.089197
 20
747.694667
 30
0.0
 40
3.0
 41
708.396973
 71
     1
 72
     1
  1

  0
MTEXT
  5
ADB
100
AcDbEntity
  8
0
100
AcDbMText
 10
5835.748998
 20
867.761906
 30
0.0
 40
3.0
 41
681.665013
 71
     1
 72
     1
  1

  0
MTEXT
  5
ADC
100
AcDbEntity
  8
0
100
AcDbMText
 10
5755.553117
 20
-719.793696
 30
0.0
 40
3.0
 41
775.226873
 71
     1
 72
     1
  1

  0
TEXT
  5
2529
100
AcDbEntity
  8
0
  6
CONTINUOUS
100
AcDbText
 10
4120.98388
 20
113.548386
 30
0.0
 40
40.0
  1
J7.2X
 41
0.9
  7
PTSH
 72
     1
 11
4189.555309
 21
133.548386
 31
0.0
100
AcDbText
 73
     2
  0
POLYLINE
  5
2563
100
AcDbEntity
  8
0
100
AcDb2dPolyline
 66
     1
 10
0.0
 20
0.0
 30
0.0
 70
     1
  0
VERTEX
  5
1B568
100
AcDbEntity
  8
0
100
AcDbVertex
100
AcDb2dVertex
 10
165.0
 20
75.0
 30
0.0
  0
VERTEX
  5
1B569
100
AcDbEntity
  8
0
100
AcDbVertex
100
AcDb2dVertex
 10
4290.0
 20
75.0
 30
0.0
  0
VERTEX
  5
1B56A
100
AcDbEntity
  8
0
100
AcDbVertex
100
AcDb2dVertex
 10
4290.0
 20
2865.0
 30
0.0
  0
VERTEX
  5
1B56B
100
AcDbEntity
  8
0
100
AcDbVertex
100
AcDb2dVertex
 10
165.0
 20
2865.0
 30
0.0
  0
SEQEND
  5
1B56C
100
AcDbEntity
  8
0
  0
TEXT
  5
396C
100
AcDbEntity
  8
0
100
AcDbText
 10
1851.5
 20
228.991931
 30
0.0
 40
52.5
  1
TLV  J7.2X (JIS10K)
 72
     4
 11
2227.5
 21
251.491931
 31
0.0
100
AcDbText
  0
ARC
  5
1A990
100
AcDbEntity
  8
0
100
AcDbCircle
 10
2319.230908
 20
1131.018765
 30
0.0
 40
88.795071
100
AcDbArc
 50
179.916382
 51
309.342248
  0
LINE
  5
1A992
100
AcDbEntity
  8
0
100
AcDbLine
 10
2239.689264
 20
1231.788354
 30
0.0
 11
2399.169264
 21
1231.788354
 31
0.0
  0
LINE
  5
1A993
100
AcDbEntity
  8
0
100
AcDbLine
 10
2239.075931
 20
1263.148354
 30
0.0
 11
2399.782597
 21
1263.148354
 31
0.0
  0
LINE
  5
1A994
100
AcDbEntity
  8
0
100
AcDbLine
 10
2249.902597
 20
1219.028354
 30
0.0
 11
2388.955931
 21
1219.028354
 31
0.0
  0
LINE
  5
1A995
100
AcDbEntity
  8
0
100
AcDbLine
 10
2223.182597
 20
1310.161687
 30
0.0
 11
2415.675931
 21
1310.161687
 31
0.0
  0
LINE
  5
1A996
100
AcDbEntity
  8
0
100
AcDbLine
 10
2197.929264
 20
1308.148354
 30
0.0
 11
2440.929264
 21
1308.148354
 31
0.0
  0
LINE
  5
1A997
100
AcDbEntity
  8
0
100
AcDbLine
 10
2197.929264
 20
1330.161687
 30
0.0
 11
2440.929264
 21
1330.161687
 31
0.0
  0
LINE
  5
1A998
100
AcDbEntity
  8
0
100
AcDbLine
 10
2197.929264
 20
1288.148354
 30
0.0
 11
2440.929264
 21
1288.148354
 31
0.0
  0
LINE
  5
1A999
100
AcDbEntity
  8
0
100
AcDbLine
 10
2331.553264
 20
1337.795537
 30
0.0
 11
2329.620389
 21
1338.911687
 31
0.0
  0
ARC
  5
1A99A
100
AcDbEntity
  8
0
100
AcDbCircle
 10
2328.522702
 20
1332.944295
 30
0.0
 40
5.720504
100
AcDbArc
 50
57.999617
 51
122.000383
  0
LINE
  5
1A99B
100
AcDbEntity
  8
0
100
AcDbLine
 10
2303.435931
 20
1346.161687
 30
0.0
 11
2335.435931
 21
1346.161687
 31
0.0
  0
CIRCLE
  5
1A99C
100
AcDbEntity
  8
0
100
AcDbCircle
 10
2319.435931
 20
1657.889266
 30
0.0
 40
121.500133
  0
ARC
  5
1A99D
100
AcDbEntity
  8
0
100
AcDbCircle
 10
2319.432511
 20
1657.891091
 30
0.0
 40
55.727962
100
AcDbArc
 50
204.017132
 51
337.386082
  0
CIRCLE
  5
1A99E
100
AcDbEntity
  8
0
100
AcDbCircle
 10
2319.435931
 20
1551.609132
 30
0.0
 40
12.0
  0
LINE
  5
1A99F
100
AcDbEntity
  8
0
100
AcDbLine
 10
2326.364131
 20
1563.609132
 30
0.0
 11
2333.292331
 21
1551.609132
 31
0.0
  0
LINE
  5
1A9A0
100
AcDbEntity
  8
0
100
AcDbLine
 10
2333.292331
 20
1551.609132
 30
0.0
 11
2326.364131
 21
1539.609132
 31
0.0
  0
LINE
  5
1A9A1
100
AcDbEntity
  8
0
100
AcDbLine
 10
2340.435931
 20
1713.889266
 30
0.0
 11
2298.435931
 21
1713.889266
 31
0.0
  0
ARC
  5
1A9A2
100
AcDbEntity
  8
0
100
AcDbCircle
 10
2319.432512
 20
1657.887524
 30
0.0
 40
55.727928
100
AcDbArc
 50
22.613838
 51
155.982948
  0
LINE
  5
1A9A3
100
AcDbEntity
  8
0
100
AcDbLine
 10
2328.409264
 20
1674.395932
 30
0.0
 11
2438.049264
 21
1674.395932
 31
0.0
  0
LINE
  5
1A9A4
100
AcDbEntity
  8
0
100
AcDbLine
 10
2328.409264
 20
1641.395932
 30
0.0
 11
2438.049264
 21
1641.395932
 31
0.0
  0
CIRCLE
  5
1A9A5
100
AcDbEntity
  8
0
100
AcDbCircle
 10
2319.435931
 20
1657.889266
 30
0.0
 40
18.0
  0
LINE
  5
1A9A6
100
AcDbEntity
  8
0
100
AcDbLine
 10
2298.435931
 20
1740.889266
 30
0.0
 11
2340.435931
 21
1740.889266
 31
0.0
  0
CIRCLE
  5
1A9A7
100
AcDbEntity
  8
0
100
AcDbCircle
 10
2319.435931
 20
1764.169399
 30
0.0
 40
12.0
  0
LINE
  5
1A9A8
100
AcDbEntity
  8
0
100
AcDbLine
 10
2326.364131
 20
1776.169399
 30
0.0
 11
2333.292331
 21
1764.169399
 31
0.0
  0
LINE
  5
1A9A9
100
AcDbEntity
  8
0
100
AcDbLine
 10
2333.292331
 20
1764.169399
 30
0.0
 11
2326.364131
 21
1752.169399
 31
0.0
  0
ARC
  5
1A9AA
100
AcDbEntity
  8
0
100
AcDbCircle
 10
2339.640954
 20
1990.954628
 30
0.0
 40
88.795071
100
AcDbArc
 50
230.657752
 51
0.083618
  0
LINE
  5
1A9AB
100
AcDbEntity
  8
0
100
AcDbLine
 10
2408.969264
 20
2078.964217
 30
0.0
 11
2269.915931
 21
2078.964217
 31
0.0
  0
LINE
  5
1A9AC
100
AcDbEntity
  8
0
100
AcDbLine
 10
2419.182597
 20
2091.724217
 30
0.0
 11
2259.702597
 21
2091.724217
 31
0.0
  0
LINE
  5
1A9AD
100
AcDbEntity
  8
0
100
AcDbLine
 10
2419.795931
 20
2123.084217
 30
0.0
 11
2259.089264
 21
2123.084217
 31
0.0
  0
LINE
  5
1A9AE
100
AcDbEntity
  8
0
100
AcDbLine
 10
2460.942597
 20
2148.084217
 30
0.0
 11
2217.942597
 21
2148.084217
 31
0.0
  0
LINE
  5
1A9AF
100
AcDbEntity
  8
0
100
AcDbLine
 10
2460.942597
 20
2190.09755
 30
0.0
 11
2219.942597
 21
2190.09755
 31
0.0
  0
LINE
  5
1A9B0
100
AcDbEntity
  8
0
100
AcDbLine
 10
2460.942597
 20
2168.084217
 30
0.0
 11
2217.942597
 21
2168.084217
 31
0.0
  0
LINE
  5
1A9B1
100
AcDbEntity
  8
0
100
AcDbLine
 10
2435.689264
 20
2170.09755
 30
0.0
 11
2243.195931
 21
2170.09755
 31
0.0
  0
LINE
  5
1A9B2
100
AcDbEntity
  8
0
100
AcDbLine
 10
2355.435931
 20
2206.09755
 30
0.0
 11
2323.435931
 21
2206.09755
 31
0.0
  0
LINE
  5
1A9B3
100
AcDbEntity
  8
0
100
AcDbLine
 10
2329.942597
 20
2214.590884
 30
0.0
 11
2348.942597
 21
2214.590884
 31
0.0
  0
LINE
  5
1A9B4
100
AcDbEntity
  8
0
100
AcDbLine
 10
2349.435931
 20
2206.09755
 30
0.0
 11
2329.435931
 21
2206.09755
 31
0.0
  0
LINE
  5
1A9B5
100
AcDbEntity
  8
0
100
AcDbLine
 10
2333.449264
 20
2207.590884
 30
0.0
 11
2328.942597
 21
2207.590884
 31
0.0
  0
LINE
  5
1A9B6
100
AcDbEntity
  8
0
100
AcDbLine
 10
2329.251472
 20
2198.84755
 30
0.0
 11
2349.633722
 21
2198.84755
 31
0.0
  0
ARC
  5
1A9B7
100
AcDbEntity
  8
0
100
AcDbCircle
 10
2330.34916
 20
2192.880158
 30
0.0
 40
5.720504
100
AcDbArc
 50
57.999617
 51
122.000383
  0
TEXT
  5
1A9B8
100
AcDbEntity
  8
0
100
AcDbText
 10
2269.474911
 20
916.663598
 30
0.0
 40
37.5
  1
50A
 72
     4
 11
2319.474911
 21
935.413598
 31
0.0
100
AcDbText
  0
TEXT
  5
1A9B9
100
AcDbEntity
  8
0
100
AcDbText
 10
935.622083
 20
922.334246
 30
0.0
 40
37.5
  1
40A
 72
     4
 11
985.622083
 21
941.084246
 31
0.0
100
AcDbText
  0
ARC
  5
1A9BA
100
AcDbEntity
  8
0
100
AcDbCircle
 10
985.622083
 20
1141.689413
 30
0.0
 40
88.795071
100
AcDbArc
 50
179.916382
 51
309.342248
  0
LINE
  5
1A9BC
100
AcDbEntity
  8
0
100
AcDbLine
 10
889.375416
 20
1310.832335
 30
0.0
 11
1081.86875
 21
1310.832335
 31
0.0
  0
LINE
  5
1A9BD
100
AcDbEntity
  8
0
100
AcDbLine
 10
864.122083
 20
1308.819002
 30
0.0
 11
1107.122083
 21
1308.819002
 31
0.0
  0
LINE
  5
1A9BE
100
AcDbEntity
  8
0
100
AcDbLine
 10
864.122083
 20
1288.819002
 30
0.0
 11
1107.122083
 21
1288.819002
 31
0.0
  0
LINE
  5
1A9BF
100
AcDbEntity
  8
0
100
AcDbLine
 10
916.293773
 20
1229.699002
 30
0.0
 11
1055.347106
 21
1229.699002
 31
0.0
  0
LINE
  5
1A9C0
100
AcDbEntity
  8
0
100
AcDbLine
 10
905.467106
 20
1263.819002
 30
0.0
 11
1066.173773
 21
1263.819002
 31
0.0
  0
LINE
  5
1A9C1
100
AcDbEntity
  8
0
100
AcDbLine
 10
906.08044
 20
1242.459002
 30
0.0
 11
1065.56044
 21
1242.459002
 31
0.0
  0
LINE
  5
1A9C2
100
AcDbEntity
  8
0
100
AcDbLine
 10
864.122083
 20
1330.832335
 30
0.0
 11
1107.122083
 21
1330.832335
 31
0.0
  0
LINE
  5
1A9C3
100
AcDbEntity
  8
0
100
AcDbLine
 10
1005.62875
 20
1342.832335
 30
0.0
 11
1107.122083
 21
1342.832335
 31
0.0
  0
ARC
  5
1A9C4
100
AcDbEntity
  8
0
100
AcDbCircle
 10
985.294323
 20
1161.250854
 30
0.0
 40
178.610279
100
AcDbArc
 50
73.572799
 51
83.535997
  0
TEXT
  5
1A9C5
100
AcDbEntity
  8
0
100
AcDbText
 10
217.848882
 20
1276.819002
 30
0.0
 40
52.5
  1
正面
100
AcDbText
  0
LINE
  5
1A9C6
100
AcDbEntity
  8
0
100
AcDbLine
 10
830.423727
 20
1206.819002
 30
0.0
 11
830.423727
 21
1346.819002
 31
0.0
  0
ARC
  5
1A9C7
100
AcDbEntity
  8
0
100
AcDbCircle
 10
886.696722
 20
1226.971903
 30
0.0
 40
10.130494
100
AcDbArc
 50
0.266383
 51
29.881552
  0
LINE
  5
1A9C8
100
AcDbEntity
  8
0
100
AcDbLine
 10
810.423727
 20
1276.819002
 30
0.0
 11
810.423727
 21
1206.819002
 31
0.0
  0
CIRCLE
  5
1A9C9
100
AcDbEntity
  8
0
100
AcDbCircle
 10
526.087016
 20
1276.819002
 30
0.0
 40
70.0
  0
ARC
  5
1A9CA
100
AcDbEntity
  8
0
100
AcDbCircle
 10
625.087016
 20
1226.675111
 30
0.0
 40
10.0
100
AcDbArc
 50
149.991843
 51
180.0
  0
ARC
  5
1A9CB
100
AcDbEntity
  8
0
100
AcDbCircle
 10
427.087016
 20
1226.675111
 30
0.0
 40
10.0
100
AcDbArc
 50
0.0
 51
30.008157
  0
ARC
  5
1A9CC
100
AcDbEntity
  8
0
100
AcDbCircle
 10
526.087016
 20
1141.894341
 30
0.0
 40
89.0
100
AcDbArc
 50
180.0
 51
243.292355
  0
ARC
  5
1A9CD
100
AcDbEntity
  8
0
100
AcDbCircle
 10
526.087016
 20
1141.894341
 30
0.0
 40
89.0
100
AcDbArc
 50
296.707645
 51
0.0
  0
LINE
  5
1A9CE
100
AcDbEntity
  8
0
100
AcDbLine
 10
562.087016
 20
1032.819002
 30
0.0
 11
490.087016
 21
1032.819002
 31
0.0
  0
ARC
  5
1A9CF
100
AcDbEntity
  8
0
100
AcDbCircle
 10
526.087016
 20
1176.773775
 30
0.0
 40
93.801458
100
AcDbArc
 50
249.263463
 51
266.556177
  0
ARC
  5
1A9D0
100
AcDbEntity
  8
0
100
AcDbCircle
 10
490.087016
 20
1036.819002
 30
0.0
 40
4.0
100
AcDbArc
 50
180.0
 51
270.0
  0
LINE
  5
1A9D1
100
AcDbEntity
  8
0
100
AcDbLine
 10
486.087016
 20
1036.819002
 30
0.0
 11
486.087016
 21
1089.099002
 31
0.0
  0
ARC
  5
1A9D2
100
AcDbEntity
  8
0
100
AcDbCircle
 10
481.087016
 20
1089.099002
 30
0.0
 40
5.0
100
AcDbArc
 50
0.0
 51
45.0
  0
ARC
  5
1A9D3
100
AcDbEntity
  8
0
100
AcDbCircle
 10
562.087016
 20
1036.819002
 30
0.0
 40
4.0
100
AcDbArc
 50
270.0
 51
0.0
  0
LINE
  5
1A9D4
100
AcDbEntity
  8
0
100
AcDbLine
 10
566.087016
 20
1036.819002
 30
0.0
 11
566.087016
 21
1089.099002
 31
0.0
  0
CIRCLE
  5
1A9D5
100
AcDbEntity
  8
0
100
AcDbCircle
 10
526.087016
 20
1070.325668
 30
0.0
 40
14.0
  0
ARC
  5
1A9D7
100
AcDbEntity
  8
0
100
AcDbCircle
 10
526.087016
 20
1176.773775
 30
0.0
 40
93.801458
100
AcDbArc
 50
273.443823
 51
290.736537
  0
ARC
  5
1A9D8
100
AcDbEntity
  8
0
100
AcDbCircle
 10
571.087016
 20
1089.099002
 30
0.0
 40
5.0
100
AcDbArc
 50
135.0
 51
180.0
  0
LINE
  5
1A9D9
100
AcDbEntity
  8
0
100
AcDbLine
 10
437.087016
 20
1141.894341
 30
0.0
 11
437.087016
 21
1226.675111
 31
0.0
  0
LINE
  5
1A9DA
100
AcDbEntity
  8
0
100
AcDbLine
 10
615.087016
 20
1141.894341
 30
0.0
 11
615.087016
 21
1226.675111
 31
0.0
  0
LINE
  5
1A9DB
100
AcDbEntity
  8
0
100
AcDbLine
 10
914.825271
 20
1032.819002
 30
0.0
 11
917.173773
 21
1077.659002
 31
0.0
  0
LINE
  5
1A9DC
100
AcDbEntity
  8
0
100
AcDbLine
 10
923.827334
 20
1032.819002
 30
0.0
 11
931.547106
 21
1061.672335
 31
0.0
  0
LINE
  5
1A9DD
100
AcDbEntity
  8
0
100
AcDbLine
 10
923.827334
 20
1032.819002
 30
0.0
 11
914.825271
 21
1032.819002
 31
0.0
  0
LINE
  5
1A9DE
100
AcDbEntity
  8
0
100
AcDbLine
 10
985.827106
 20
1052.819002
 30
0.0
 11
929.178378
 21
1052.819002
 31
0.0
  0
ARC
  5
1A9DF
100
AcDbEntity
  8
0
100
AcDbCircle
 10
937.349758
 20
1060.118867
 30
0.0
 40
6.006998
100
AcDbArc
 50
59.331219
 51
165.01242
  0
LINE
  5
1A9E2
100
AcDbEntity
  8
0
100
AcDbLine
 10
910.827106
 20
1058.245668
 30
0.0
 11
910.827106
 21
1082.459002
 31
0.0
  0
LINE
  5
1A9E6
100
AcDbEntity
  8
0
100
AcDbLine
 10
915.84044
 20
1052.325668
 30
0.0
 11
910.827106
 21
1058.245668
 31
0.0
  0
ARC
  5
1A9E8
100
AcDbEntity
  8
0
100
AcDbCircle
 10
911.705188
 20
1087.326174
 30
0.0
 40
2.996057
100
AcDbArc
 50
282.894401
 51
36.279184
  0
ARC
  5
1A9E9
100
AcDbEntity
  8
0
100
AcDbCircle
 10
897.208409
 20
1078.692183
 30
0.0
 40
19.992079
100
AcDbArc
 50
357.037661
 51
27.686803
  0
ARC
  5
1A9EC
100
AcDbEntity
  8
0
100
AcDbCircle
 10
912.822784
 20
1082.461158
 30
0.0
 40
1.995679
100
AcDbArc
 50
103.00238
 51
180.061893
  0
LINE
  5
1A9ED
100
AcDbEntity
  8
0
100
AcDbLine
 10
810.423727
 20
1206.819002
 30
0.0
 11
830.423727
 21
1206.819002
 31
0.0
  0
LINE
  5
1A9EE
100
AcDbEntity
  8
0
100
AcDbLine
 10
896.827106
 20
1141.819002
 30
0.0
 11
896.827106
 21
1227.019002
 31
0.0
  0
LINE
  5
1A9EF
100
AcDbEntity
  8
0
100
AcDbLine
 10
404.587016
 20
1308.819002
 30
0.0
 11
404.587016
 21
1288.819002
 31
0.0
  0
LINE
  5
1A9F0
100
AcDbEntity
  8
0
100
AcDbLine
 10
457.123257
 20
1288.819002
 30
0.0
 11
404.587016
 21
1288.819002
 31
0.0
  0
LINE
  5
1A9F1
100
AcDbEntity
  8
0
100
AcDbLine
 10
430.087016
 20
1244.155991
 30
0.0
 11
430.087016
 21
1263.819002
 31
0.0
  0
LINE
  5
1A9F2
100
AcDbEntity
  8
0
100
AcDbLine
 10
474.321143
 20
1229.699002
 30
0.0
 11
456.361993
 21
1229.699002
 31
0.0
  0
LINE
  5
1A9F3
100
AcDbEntity
  8
0
100
AcDbLine
 10
465.100211
 20
1242.459002
 30
0.0
 11
446.148659
 21
1242.459002
 31
0.0
  0
LINE
  5
1A9F4
100
AcDbEntity
  8
0
100
AcDbLine
 10
431.427474
 20
1239.154758
 30
0.0
 11
435.746558
 21
1231.676344
 31
0.0
  0
ARC
  5
1A9F5
100
AcDbEntity
  8
0
100
AcDbCircle
 10
440.087016
 20
1244.155991
 30
0.0
 40
10.0
100
AcDbArc
 50
180.0
 51
210.008157
  0
CIRCLE
  5
1A9F6
100
AcDbEntity
  8
0
100
AcDbCircle
 10
488.96391
 20
1239.695896
 30
0.0
 40
9.5
  0
LINE
  5
1A9F7
100
AcDbEntity
  8
0
100
AcDbLine
 10
426.760623
 20
1284.608954
 30
0.0
 11
430.087016
 21
1263.819002
 31
0.0
  0
LINE
  5
1A9F8
100
AcDbEntity
  8
0
100
AcDbLine
 10
457.304751
 20
1263.819002
 30
0.0
 11
445.535326
 21
1263.819002
 31
0.0
  0
LINE
  5
1A9F9
100
AcDbEntity
  8
0
100
AcDbLine
 10
457.304751
 20
1263.819002
 30
0.0
 11
438.661901
 21
1263.819002
 31
0.0
  0
ARC
  5
1A9FA
100
AcDbEntity
  8
0
100
AcDbCircle
 10
421.82342
 20
1283.819002
 30
0.0
 40
5.0
100
AcDbArc
 50
9.090277
 51
90.0
  0
LINE
  5
1A9FB
100
AcDbEntity
  8
0
100
AcDbLine
 10
481.56107
 20
1330.832335
 30
0.0
 11
404.587016
 21
1330.832335
 31
0.0
  0
LINE
  5
1A9FC
100
AcDbEntity
  8
0
100
AcDbLine
 10
463.829486
 20
1308.819002
 30
0.0
 11
404.587016
 21
1308.819002
 31
0.0
  0
LINE
  5
1A9FD
100
AcDbEntity
  8
0
100
AcDbLine
 10
404.587016
 20
1310.832335
 30
0.0
 11
429.840349
 21
1310.832335
 31
0.0
  0
LINE
  5
1A9FE
100
AcDbEntity
  8
0
100
AcDbLine
 10
430.287016
 20
1339.582335
 30
0.0
 11
409.287016
 21
1339.582335
 31
0.0
  0
ARC
  5
1A9FF
100
AcDbEntity
  8
0
100
AcDbCircle
 10
425.037016
 20
1325.301702
 30
0.0
 40
14.28125
100
AcDbArc
 50
68.431404
 51
111.568596
  0
LINE
  5
1AA00
100
AcDbEntity
  8
0
100
AcDbLine
 10
404.587016
 20
1330.832335
 30
0.0
 11
404.587016
 21
1310.832335
 31
0.0
  0
LINE
  5
1AA01
100
AcDbEntity
  8
0
100
AcDbLine
 10
419.787016
 20
1338.582952
 30
0.0
 11
419.787016
 21
1330.832335
 31
0.0
  0
LINE
  5
1AA02
100
AcDbEntity
  8
0
100
AcDbLine
 10
409.287016
 20
1339.582335
 30
0.0
 11
409.287016
 21
1330.832335
 31
0.0
  0
ARC
  5
1AA03
100
AcDbEntity
  8
0
100
AcDbCircle
 10
414.537016
 20
1325.301702
 30
0.0
 40
14.28125
100
AcDbArc
 50
68.431404
 51
111.568596
  0
LINE
  5
1AA04
100
AcDbEntity
  8
0
100
AcDbLine
 10
464.906192
 20
1310.832335
 30
0.0
 11
429.840349
 21
1310.832335
 31
0.0
  0
LINE
  5
1AA05
100
AcDbEntity
  8
0
100
AcDbLine
 10
429.840349
 20
1310.832335
 30
0.0
 11
429.840349
 21
1308.819002
 31
0.0
  0
CIRCLE
  5
1AA06
100
AcDbEntity
  8
0
100
AcDbCircle
 10
488.96391
 20
1313.942108
 30
0.0
 40
9.5
  0
LINE
  5
1AA07
100
AcDbEntity
  8
0
100
AcDbLine
 10
430.287016
 20
1339.582335
 30
0.0
 11
430.287016
 21
1330.832335
 31
0.0
  0
LINE
  5
1AA08
100
AcDbEntity
  8
0
100
AcDbLine
 10
451.587016
 20
1339.582335
 30
0.0
 11
451.587016
 21
1330.832335
 31
0.0
  0
LINE
  5
1AA09
100
AcDbEntity
  8
0
100
AcDbLine
 10
430.587016
 20
1339.582335
 30
0.0
 11
430.587016
 21
1330.832335
 31
0.0
  0
LINE
  5
1AA0A
100
AcDbEntity
  8
0
100
AcDbLine
 10
441.087016
 20
1338.582952
 30
0.0
 11
441.087016
 21
1330.832335
 31
0.0
  0
ARC
  5
1AA0B
100
AcDbEntity
  8
0
100
AcDbCircle
 10
446.337016
 20
1325.301702
 30
0.0
 40
14.28125
100
AcDbArc
 50
68.431404
 51
111.568596
  0
ARC
  5
1AA0C
100
AcDbEntity
  8
0
100
AcDbCircle
 10
435.837016
 20
1325.301702
 30
0.0
 40
14.28125
100
AcDbArc
 50
68.431404
 51
111.568596
  0
LINE
  5
1AA0D
100
AcDbEntity
  8
0
100
AcDbLine
 10
451.587016
 20
1339.582335
 30
0.0
 11
430.587016
 21
1339.582335
 31
0.0
  0
LINE
  5
1AA0E
100
AcDbEntity
  8
0
100
AcDbLine
 10
482.787016
 20
1339.582335
 30
0.0
 11
482.787016
 21
1330.832335
 31
0.0
  0
ARC
  5
1AA0F
100
AcDbEntity
  8
0
100
AcDbCircle
 10
526.064745
 20
1162.994769
 30
0.0
 40
176.838109
100
AcDbArc
 50
104.165925
 51
107.393473
  0
ARC
  5
1AA10
100
AcDbEntity
  8
0
100
AcDbCircle
 10
467.223518
 20
1350.832335
 30
0.0
 40
20.0
100
AcDbArc
 50
270.0
 51
287.393473
  0
LINE
  5
1AA11
100
AcDbEntity
  8
0
100
AcDbLine
 10
482.787016
 20
1339.582335
 30
0.0
 11
495.090823
 21
1339.582335
 31
0.0
  0
ARC
  5
1AA12
100
AcDbEntity
  8
0
100
AcDbCircle
 10
488.037016
 20
1325.301702
 30
0.0
 40
14.28125
100
AcDbArc
 50
68.431404
 51
111.568596
  0
LINE
  5
1AA13
100
AcDbEntity
  8
0
100
AcDbLine
 10
647.587016
 20
1308.819002
 30
0.0
 11
647.587016
 21
1288.819002
 31
0.0
  0
LINE
  5
1AA14
100
AcDbEntity
  8
0
100
AcDbLine
 10
595.415326
 20
1229.699002
 30
0.0
 11
577.852889
 21
1229.699002
 31
0.0
  0
CIRCLE
  5
1AA15
100
AcDbEntity
  8
0
100
AcDbCircle
 10
563.210122
 20
1239.695896
 30
0.0
 40
9.5
  0
LINE
  5
1AA16
100
AcDbEntity
  8
0
100
AcDbLine
 10
622.087016
 20
1244.155991
 30
0.0
 11
622.087016
 21
1263.819002
 31
0.0
  0
LINE
  5
1AA17
100
AcDbEntity
  8
0
100
AcDbLine
 10
620.746558
 20
1239.154758
 30
0.0
 11
616.427474
 21
1231.676344
 31
0.0
  0
LINE
  5
1AA18
100
AcDbEntity
  8
0
100
AcDbLine
 10
605.628659
 20
1242.459002
 30
0.0
 11
587.073821
 21
1242.459002
 31
0.0
  0
ARC
  5
1AA19
100
AcDbEntity
  8
0
100
AcDbCircle
 10
612.087016
 20
1244.155991
 30
0.0
 40
10.0
100
AcDbArc
 50
329.991843
 51
0.0
  0
LINE
  5
1AA1A
100
AcDbEntity
  8
0
100
AcDbLine
 10
647.587016
 20
1288.819002
 30
0.0
 11
595.050774
 21
1288.819002
 31
0.0
  0
LINE
  5
1AA1B
100
AcDbEntity
  8
0
100
AcDbLine
 10
606.241993
 20
1263.819002
 30
0.0
 11
594.869281
 21
1263.819002
 31
0.0
  0
LINE
  5
1AA1C
100
AcDbEntity
  8
0
100
AcDbLine
 10
613.115417
 20
1263.819002
 30
0.0
 11
594.869281
 21
1263.819002
 31
0.0
  0
LINE
  5
1AA1D
100
AcDbEntity
  8
0
100
AcDbLine
 10
625.413408
 20
1284.608954
 30
0.0
 11
622.087016
 21
1263.819002
 31
0.0
  0
ARC
  5
1AA1E
100
AcDbEntity
  8
0
100
AcDbCircle
 10
630.350611
 20
1283.819002
 30
0.0
 40
5.0
100
AcDbArc
 50
90.0
 51
170.909723
  0
LINE
  5
1AA1F
100
AcDbEntity
  8
0
100
AcDbLine
 10
647.587016
 20
1330.832335
 30
0.0
 11
570.612961
 21
1330.832335
 31
0.0
  0
ARC
  5
1AA20
100
AcDbEntity
  8
0
100
AcDbCircle
 10
526.109286
 20
1162.994769
 30
0.0
 40
176.838109
100
AcDbArc
 50
72.606527
 51
75.834075
  0
CIRCLE
  5
1AA21
100
AcDbEntity
  8
0
100
AcDbCircle
 10
563.210122
 20
1313.942108
 30
0.0
 40
9.5
  0
LINE
  5
1AA22
100
AcDbEntity
  8
0
100
AcDbLine
 10
542.080349
 20
1346.832335
 30
0.0
 11
510.080349
 21
1346.832335
 31
0.0
  0
LINE
  5
1AA23
100
AcDbEntity
  8
0
100
AcDbLine
 10
516.587016
 20
1355.325668
 30
0.0
 11
535.587016
 21
1355.325668
 31
0.0
  0
LINE
  5
1AA24
100
AcDbEntity
  8
0
100
AcDbLine
 10
510.080349
 20
1346.832335
 30
0.0
 11
508.080349
 21
1344.832335
 31
0.0
  0
LINE
  5
1AA25
100
AcDbEntity
  8
0
100
AcDbLine
 10
517.463656
 20
1348.320447
 30
0.0
 11
525.209622
 21
1348.319149
 31
0.0
  0
LINE
  5
1AA26
100
AcDbEntity
  8
0
100
AcDbLine
 10
525.210795
 20
1355.319149
 30
0.0
 11
525.209622
 21
1348.319149
 31
0.0
  0
LINE
  5
1AA27
100
AcDbEntity
  8
0
100
AcDbLine
 10
526.964829
 20
1355.319002
 30
0.0
 11
526.964829
 21
1348.319002
 31
0.0
  0
LINE
  5
1AA28
100
AcDbEntity
  8
0
100
AcDbLine
 10
536.587812
 20
1348.319002
 30
0.0
 11
535.587812
 21
1348.319002
 31
0.0
  0
LINE
  5
1AA29
100
AcDbEntity
  8
0
100
AcDbLine
 10
535.587812
 20
1355.319002
 30
0.0
 11
536.587812
 21
1354.319002
 31
0.0
  0
LINE
  5
1AA2A
100
AcDbEntity
  8
0
100
AcDbLine
 10
534.710795
 20
1355.319002
 30
0.0
 11
534.710795
 21
1348.319002
 31
0.0
  0
LINE
  5
1AA2B
100
AcDbEntity
  8
0
100
AcDbLine
 10
535.587812
 20
1355.319002
 30
0.0
 11
535.587812
 21
1348.319002
 31
0.0
  0
LINE
  5
1AA2C
100
AcDbEntity
  8
0
100
AcDbLine
 10
534.710795
 20
1348.319002
 30
0.0
 11
526.964829
 21
1348.319002
 31
0.0
  0
LINE
  5
1AA2D
100
AcDbEntity
  8
0
100
AcDbLine
 10
536.587812
 20
1354.319002
 30
0.0
 11
536.587812
 21
1346.819127
 31
0.0
  0
LINE
  5
1AA2E
100
AcDbEntity
  8
0
100
AcDbLine
 10
517.464829
 20
1355.320447
 30
0.0
 11
517.463656
 21
1348.320447
 31
0.0
  0
LINE
  5
1AA2F
100
AcDbEntity
  8
0
100
AcDbLine
 10
515.586639
 20
1348.320761
 30
0.0
 11
516.586639
 21
1348.320594
 31
0.0
  0
LINE
  5
1AA30
100
AcDbEntity
  8
0
100
AcDbLine
 10
516.587812
 20
1355.320594
 30
0.0
 11
515.587644
 21
1354.320761
 31
0.0
  0
LINE
  5
1AA31
100
AcDbEntity
  8
0
100
AcDbLine
 10
516.587812
 20
1355.320594
 30
0.0
 11
516.586639
 21
1348.320594
 31
0.0
  0
LINE
  5
1AA32
100
AcDbEntity
  8
0
100
AcDbLine
 10
515.58622
 20
1354.319002
 30
0.0
 11
515.58622
 21
1346.819127
 31
0.0
  0
LINE
  5
1AA33
100
AcDbEntity
  8
0
100
AcDbLine
 10
508.080349
 20
1344.463366
 30
0.0
 11
508.080349
 21
1344.659002
 31
0.0
  0
LINE
  5
1AA34
100
AcDbEntity
  8
0
100
AcDbLine
 10
569.387016
 20
1339.582335
 30
0.0
 11
569.387016
 21
1330.832335
 31
0.0
  0
LINE
  5
1AA35
100
AcDbEntity
  8
0
100
AcDbLine
 10
544.080349
 20
1344.832335
 30
0.0
 11
542.080349
 21
1346.832335
 31
0.0
  0
ARC
  5
1AA36
100
AcDbEntity
  8
0
100
AcDbCircle
 10
564.137016
 20
1325.301702
 30
0.0
 40
14.28125
100
AcDbArc
 50
68.431404
 51
111.568596
  0
LINE
  5
1AA37
100
AcDbEntity
  8
0
100
AcDbLine
 10
569.387016
 20
1339.582335
 30
0.0
 11
557.083209
 21
1339.582335
 31
0.0
  0
LINE
  5
1AA38
100
AcDbEntity
  8
0
100
AcDbLine
 10
544.080349
 20
1344.466913
 30
0.0
 11
544.080349
 21
1344.832335
 31
0.0
  0
LINE
  5
1AA39
100
AcDbEntity
  8
0
100
AcDbLine
 10
647.587016
 20
1310.832335
 30
0.0
 11
647.587016
 21
1330.832335
 31
0.0
  0
LINE
  5
1AA3A
100
AcDbEntity
  8
0
100
AcDbLine
 10
622.333682
 20
1310.832335
 30
0.0
 11
587.267839
 21
1310.832335
 31
0.0
  0
LINE
  5
1AA3B
100
AcDbEntity
  8
0
100
AcDbLine
 10
647.587016
 20
1308.819002
 30
0.0
 11
588.344545
 21
1308.819002
 31
0.0
  0
LINE
  5
1AA3C
100
AcDbEntity
  8
0
100
AcDbLine
 10
622.333682
 20
1308.819002
 30
0.0
 11
622.333682
 21
1310.832335
 31
0.0
  0
LINE
  5
1AA3D
100
AcDbEntity
  8
0
100
AcDbLine
 10
622.333682
 20
1310.832335
 30
0.0
 11
647.587016
 21
1310.832335
 31
0.0
  0
LINE
  5
1AA3E
100
AcDbEntity
  8
0
100
AcDbLine
 10
600.587016
 20
1339.582335
 30
0.0
 11
621.587016
 21
1339.582335
 31
0.0
  0
ARC
  5
1AA3F
100
AcDbEntity
  8
0
100
AcDbCircle
 10
616.337016
 20
1325.301702
 30
0.0
 40
14.28125
100
AcDbArc
 50
68.431404
 51
111.568596
  0
LINE
  5
1AA40
100
AcDbEntity
  8
0
100
AcDbLine
 10
611.087016
 20
1338.582952
 30
0.0
 11
611.087016
 21
1330.832335
 31
0.0
  0
LINE
  5
1AA41
100
AcDbEntity
  8
0
100
AcDbLine
 10
600.587016
 20
1339.582335
 30
0.0
 11
600.587016
 21
1330.832335
 31
0.0
  0
ARC
  5
1AA42
100
AcDbEntity
  8
0
100
AcDbCircle
 10
584.950514
 20
1350.832335
 30
0.0
 40
20.0
100
AcDbArc
 50
252.606527
 51
270.0
  0
ARC
  5
1AA43
100
AcDbEntity
  8
0
100
AcDbCircle
 10
605.837016
 20
1325.301702
 30
0.0
 40
14.28125
100
AcDbArc
 50
68.431404
 51
111.568596
  0
LINE
  5
1AA44
100
AcDbEntity
  8
0
100
AcDbLine
 10
621.587016
 20
1339.582335
 30
0.0
 11
621.587016
 21
1330.832335
 31
0.0
  0
LINE
  5
1AA45
100
AcDbEntity
  8
0
100
AcDbLine
 10
642.887016
 20
1339.582335
 30
0.0
 11
642.887016
 21
1330.832335
 31
0.0
  0
LINE
  5
1AA46
100
AcDbEntity
  8
0
100
AcDbLine
 10
632.387016
 20
1338.582952
 30
0.0
 11
632.387016
 21
1330.832335
 31
0.0
  0
LINE
  5
1AA47
100
AcDbEntity
  8
0
100
AcDbLine
 10
621.887016
 20
1339.582335
 30
0.0
 11
621.887016
 21
1330.832335
 31
0.0
  0
ARC
  5
1AA48
100
AcDbEntity
  8
0
100
AcDbCircle
 10
637.637016
 20
1325.301702
 30
0.0
 40
14.28125
100
AcDbArc
 50
68.431404
 51
111.568596
  0
ARC
  5
1AA49
100
AcDbEntity
  8
0
100
AcDbCircle
 10
627.137016
 20
1325.301702
 30
0.0
 40
14.28125
100
AcDbArc
 50
68.431404
 51
111.568596
  0
LINE
  5
1AA4A
100
AcDbEntity
  8
0
100
AcDbLine
 10
621.887016
 20
1339.582335
 30
0.0
 11
642.887016
 21
1339.582335
 31
0.0
  0
LINE
  5
1AA4B
100
AcDbEntity
  8
0
100
AcDbLine
 10
846.423727
 20
1248.819002
 30
0.0
 11
882.20044
 21
1248.819002
 31
0.0
  0
ARC
  5
1AA4C
100
AcDbEntity
  8
0
100
AcDbCircle
 10
860.116062
 20
1308.825023
 30
0.0
 40
4.006026
100
AcDbArc
 50
270.086122
 51
359.913878
  0
LINE
  5
1AA4D
100
AcDbEntity
  8
0
100
AcDbLine
 10
810.423727
 20
1346.819002
 30
0.0
 11
810.423727
 21
1276.819002
 31
0.0
  0
LINE
  5
1AA4E
100
AcDbEntity
  8
0
100
AcDbLine
 10
830.423727
 20
1244.819002
 30
0.0
 11
846.423727
 21
1248.819002
 31
0.0
  0
LINE
  5
1AA4F
100
AcDbEntity
  8
0
100
AcDbLine
 10
830.423727
 20
1308.819002
 30
0.0
 11
846.218703
 21
1304.819002
 31
0.0
  0
LINE
  5
1AA50
100
AcDbEntity
  8
0
100
AcDbLine
 10
846.218703
 20
1304.819002
 30
0.0
 11
860.122083
 21
1304.819002
 31
0.0
  0
LINE
  5
1AA51
100
AcDbEntity
  8
0
100
AcDbLine
 10
810.423727
 20
1346.819002
 30
0.0
 11
830.423727
 21
1346.819002
 31
0.0
  0
LINE
  5
1AA52
100
AcDbEntity
  8
0
100
AcDbLine
 10
864.122083
 20
1308.819002
 30
0.0
 11
864.122083
 21
1288.819002
 31
0.0
  0
LINE
  5
1AA53
100
AcDbEntity
  8
0
100
AcDbLine
 10
889.827106
 20
1263.819002
 30
0.0
 11
889.827106
 21
1244.499002
 31
0.0
  0
ARC
  5
1AA54
100
AcDbEntity
  8
0
100
AcDbCircle
 10
882.201182
 20
1240.824136
 30
0.0
 40
7.994866
100
AcDbArc
 50
11.799615
 51
90.005319
  0
LINE
  5
1AA55
100
AcDbEntity
  8
0
100
AcDbLine
 10
895.48044
 20
1232.019002
 30
0.0
 11
891.16044
 21
1239.499002
 31
0.0
  0
ARC
  5
1AA56
100
AcDbEntity
  8
0
100
AcDbCircle
 10
899.316571
 20
1244.399538
 30
0.0
 40
9.489986
100
AcDbArc
 50
179.399474
 51
191.799205
  0
ARC
  5
1AA57
100
AcDbEntity
  8
0
100
AcDbCircle
 10
899.831351
 20
1244.515912
 30
0.0
 40
10.01769
100
AcDbArc
 50
191.848692
 51
210.053284
  0
LINE
  5
1AA58
100
AcDbEntity
  8
0
100
AcDbLine
 10
885.820696
 20
1288.819002
 30
0.0
 11
889.827106
 21
1263.819002
 31
0.0
  0
ARC
  5
1AA59
100
AcDbEntity
  8
0
100
AcDbCircle
 10
985.599812
 20
1162.994769
 30
0.0
 40
176.838109
100
AcDbArc
 50
96.414924
 51
106.478259
  0
LINE
  5
1AA5A
100
AcDbEntity
  8
0
100
AcDbLine
 10
934.805342
 20
1338.832335
 30
0.0
 11
940.62875
 21
1338.832335
 31
0.0
  0
LINE
  5
1AA5B
100
AcDbEntity
  8
0
100
AcDbLine
 10
864.122083
 20
1310.832335
 30
0.0
 11
864.122083
 21
1330.832335
 31
0.0
  0
LINE
  5
1AA5C
100
AcDbEntity
  8
0
100
AcDbLine
 10
889.375416
 20
1310.832335
 30
0.0
 11
864.122083
 21
1310.832335
 31
0.0
  0
LINE
  5
1AA5D
100
AcDbEntity
  8
0
100
AcDbLine
 10
889.375416
 20
1308.819002
 30
0.0
 11
889.375416
 21
1310.832335
 31
0.0
  0
ARC
  5
1AA5E
100
AcDbEntity
  8
0
100
AcDbCircle
 10
893.902187
 20
1333.614943
 30
0.0
 40
5.720504
100
AcDbArc
 50
57.999617
 51
122.000383
  0
LINE
  5
1AA5F
100
AcDbEntity
  8
0
100
AcDbLine
 10
896.93275
 20
1338.466185
 30
0.0
 11
894.999875
 21
1339.582335
 31
0.0
  0
LINE
  5
1AA60
100
AcDbEntity
  8
0
100
AcDbLine
 10
890.87075
 20
1338.466185
 30
0.0
 11
890.87075
 21
1330.832335
 31
0.0
  0
LINE
  5
1AA61
100
AcDbEntity
  8
0
100
AcDbLine
 10
872.68475
 20
1338.466185
 30
0.0
 11
872.68475
 21
1330.832335
 31
0.0
  0
LINE
  5
1AA62
100
AcDbEntity
  8
0
100
AcDbLine
 10
878.747625
 20
1338.466185
 30
0.0
 11
878.747625
 21
1330.832335
 31
0.0
  0
LINE
  5
1AA63
100
AcDbEntity
  8
0
100
AcDbLine
 10
874.617625
 20
1339.582335
 30
0.0
 11
872.68475
 21
1338.466185
 31
0.0
  0
ARC
  5
1AA64
100
AcDbEntity
  8
0
100
AcDbCircle
 10
875.716187
 20
1333.614963
 30
0.0
 40
5.720487
100
AcDbArc
 50
57.999511
 51
122.000489
  0
ARC
  5
1AA65
100
AcDbEntity
  8
0
100
AcDbCircle
 10
884.809187
 20
1317.763839
 30
0.0
 40
21.571502
100
AcDbArc
 50
73.680185
 51
106.319815
  0
LINE
  5
1AA66
100
AcDbEntity
  8
0
100
AcDbLine
 10
894.999875
 20
1339.582335
 30
0.0
 11
874.617625
 21
1339.582335
 31
0.0
  0
LINE
  5
1AA67
100
AcDbEntity
  8
0
100
AcDbLine
 10
896.93275
 20
1330.832335
 30
0.0
 11
896.93275
 21
1338.466185
 31
0.0
  0
ARC
  5
1AA68
100
AcDbEntity
  8
0
100
AcDbCircle
 10
923.315854
 20
1317.763839
 30
0.0
 40
21.571502
100
AcDbArc
 50
73.680185
 51
106.319815
  0
LINE
  5
1AA69
100
AcDbEntity
  8
0
100
AcDbLine
 10
933.506541
 20
1339.582335
 30
0.0
 11
913.124291
 21
1339.582335
 31
0.0
  0
LINE
  5
1AA6A
100
AcDbEntity
  8
0
100
AcDbLine
 10
911.191416
 20
1338.466185
 30
0.0
 11
911.191416
 21
1330.832335
 31
0.0
  0
LINE
  5
1AA6B
100
AcDbEntity
  8
0
100
AcDbLine
 10
917.254291
 20
1338.466185
 30
0.0
 11
917.254291
 21
1330.832335
 31
0.0
  0
LINE
  5
1AA6C
100
AcDbEntity
  8
0
100
AcDbLine
 10
913.124291
 20
1339.582335
 30
0.0
 11
911.191416
 21
1338.466185
 31
0.0
  0
ARC
  5
1AA6D
100
AcDbEntity
  8
0
100
AcDbCircle
 10
914.222854
 20
1333.614963
 30
0.0
 40
5.720487
100
AcDbArc
 50
57.999511
 51
122.000489
  0
ARC
  5
1AA6E
100
AcDbEntity
  8
0
100
AcDbCircle
 10
901.680554
 20
1336.83086
 30
0.0
 40
5.998525
100
AcDbArc
 50
270.014603
 51
353.63323
  0
ARC
  5
1AA6F
100
AcDbEntity
  8
0
100
AcDbCircle
 10
910.626217
 20
1335.829305
 30
0.0
 40
3.003032
100
AcDbArc
 50
71.785212
 51
173.568913
  0
LINE
  5
1AA70
100
AcDbEntity
  8
0
100
AcDbLine
 10
929.377416
 20
1338.466185
 30
0.0
 11
929.377416
 21
1330.832335
 31
0.0
  0
LINE
  5
1AA71
100
AcDbEntity
  8
0
100
AcDbLine
 10
935.439416
 20
1330.832335
 30
0.0
 11
935.439416
 21
1338.466185
 31
0.0
  0
ARC
  5
1AA72
100
AcDbEntity
  8
0
100
AcDbCircle
 10
932.408854
 20
1333.614943
 30
0.0
 40
5.720504
100
AcDbArc
 50
57.999617
 51
122.000383
  0
LINE
  5
1AA73
100
AcDbEntity
  8
0
100
AcDbLine
 10
935.439416
 20
1338.466185
 30
0.0
 11
933.506541
 21
1339.582335
 31
0.0
  0
LINE
  5
1AA74
100
AcDbEntity
  8
0
100
AcDbLine
 10
975.62875
 20
1346.832335
 30
0.0
 11
995.62875
 21
1346.832335
 31
0.0
  0
LINE
  5
1AA75
100
AcDbEntity
  8
0
100
AcDbLine
 10
995.122083
 20
1355.325668
 30
0.0
 11
976.122083
 21
1355.325668
 31
0.0
  0
LINE
  5
1AA76
100
AcDbEntity
  8
0
100
AcDbLine
 10
995.813208
 20
1339.582335
 30
0.0
 11
975.430958
 21
1339.582335
 31
0.0
  0
LINE
  5
1AA77
100
AcDbEntity
  8
0
100
AcDbLine
 10
969.62875
 20
1346.832335
 30
0.0
 11
1001.62875
 21
1346.832335
 31
0.0
  0
ARC
  5
1AA78
100
AcDbEntity
  8
0
100
AcDbCircle
 10
976.529521
 20
1333.614963
 30
0.0
 40
5.720487
100
AcDbArc
 50
57.999511
 51
122.000489
  0
LINE
  5
1AA79
100
AcDbEntity
  8
0
100
AcDbLine
 10
975.122083
 20
1348.325668
 30
0.0
 11
979.62875
 21
1348.325668
 31
0.0
  0
LINE
  5
1AA7A
100
AcDbEntity
  8
0
100
AcDbLine
 10
967.62875
 20
1340.712335
 30
0.0
 11
967.62875
 21
1344.832335
 31
0.0
  0
LINE
  5
1AA7B
100
AcDbEntity
  8
0
100
AcDbLine
 10
940.62875
 20
1338.832335
 30
0.0
 11
948.62875
 21
1335.925668
 31
0.0
  0
LINE
  5
1AA7C
100
AcDbEntity
  8
0
100
AcDbLine
 10
973.498083
 20
1338.466185
 30
0.0
 11
973.498083
 21
1330.832335
 31
0.0
  0
LINE
  5
1AA7D
100
AcDbEntity
  8
0
100
AcDbLine
 10
975.430958
 20
1339.582335
 30
0.0
 11
973.498083
 21
1338.466185
 31
0.0
  0
ARC
  5
1AA7E
100
AcDbEntity
  8
0
100
AcDbCircle
 10
965.62411
 20
1340.718432
 30
0.0
 40
2.004649
100
AcDbArc
 50
276.242327
 51
359.825752
  0
LINE
  5
1AA7F
100
AcDbEntity
  8
0
100
AcDbLine
 10
976.122083
 20
1355.325668
 30
0.0
 11
975.122083
 21
1354.325668
 31
0.0
  0
LINE
  5
1AA80
100
AcDbEntity
  8
0
100
AcDbLine
 10
975.122083
 20
1354.325668
 30
0.0
 11
975.122083
 21
1346.832335
 31
0.0
  0
LINE
  5
1AA81
100
AcDbEntity
  8
0
100
AcDbLine
 10
967.62875
 20
1344.832335
 30
0.0
 11
969.62875
 21
1346.832335
 31
0.0
  0
LINE
  5
1AA82
100
AcDbEntity
  8
0
100
AcDbLine
 10
981.162083
 20
1348.325668
 30
0.0
 11
990.095416
 21
1348.325668
 31
0.0
  0
ARC
  5
1AA83
100
AcDbEntity
  8
0
100
AcDbCircle
 10
985.622521
 20
1317.763839
 30
0.0
 40
21.571502
100
AcDbArc
 50
73.680185
 51
106.319815
  0
LINE
  5
1AA84
100
AcDbEntity
  8
0
100
AcDbLine
 10
979.560958
 20
1338.466185
 30
0.0
 11
979.560958
 21
1330.832335
 31
0.0
  0
LINE
  5
1AA85
100
AcDbEntity
  8
0
100
AcDbLine
 10
979.62875
 20
1348.325668
 30
0.0
 11
979.62875
 21
1355.325668
 31
0.0
  0
LINE
  5
1AA86
100
AcDbEntity
  8
0
100
AcDbLine
 10
981.162083
 20
1355.325668
 30
0.0
 11
981.162083
 21
1348.325668
 31
0.0
  0
LINE
  5
1AA87
100
AcDbEntity
  8
0
100
AcDbLine
 10
1003.62875
 20
1340.712335
 30
0.0
 11
1003.62875
 21
1344.659002
 31
0.0
  0
ARC
  5
1AA88
100
AcDbEntity
  8
0
100
AcDbCircle
 10
1005.626656
 20
1340.710914
 30
0.0
 40
1.997907
100
AcDbArc
 50
179.959245
 51
263.54607
  0
LINE
  5
1AA89
100
AcDbEntity
  8
0
100
AcDbLine
 10
997.746083
 20
1330.832335
 30
0.0
 11
997.746083
 21
1338.466185
 31
0.0
  0
LINE
  5
1AA8A
100
AcDbEntity
  8
0
100
AcDbLine
 10
991.684083
 20
1338.466185
 30
0.0
 11
991.684083
 21
1330.832335
 31
0.0
  0
LINE
  5
1AA8B
100
AcDbEntity
  8
0
100
AcDbLine
 10
997.746083
 20
1338.466185
 30
0.0
 11
995.813208
 21
1339.582335
 31
0.0
  0
ARC
  5
1AA8C
100
AcDbEntity
  8
0
100
AcDbCircle
 10
994.715521
 20
1333.614943
 30
0.0
 40
5.720504
100
AcDbArc
 50
57.999617
 51
122.000383
  0
ARC
  5
1AA8D
100
AcDbEntity
  8
0
100
AcDbCircle
 10
1005.631761
 20
1344.835346
 30
0.0
 40
2.003013
100
AcDbArc
 50
180.086122
 51
269.913878
  0
LINE
  5
1AA8E
100
AcDbEntity
  8
0
100
AcDbLine
 10
1001.62875
 20
1346.832335
 30
0.0
 11
1003.62875
 21
1344.832335
 31
0.0
  0
LINE
  5
1AA8F
100
AcDbEntity
  8
0
100
AcDbLine
 10
990.095416
 20
1348.325668
 30
0.0
 11
990.095416
 21
1355.325668
 31
0.0
  0
LINE
  5
1AA90
100
AcDbEntity
  8
0
100
AcDbLine
 10
991.615416
 20
1355.325668
 30
0.0
 11
991.615416
 21
1348.325668
 31
0.0
  0
LINE
  5
1AA91
100
AcDbEntity
  8
0
100
AcDbLine
 10
991.615416
 20
1348.325668
 30
0.0
 11
996.122083
 21
1348.325668
 31
0.0
  0
LINE
  5
1AA92
100
AcDbEntity
  8
0
100
AcDbLine
 10
996.122083
 20
1346.832335
 30
0.0
 11
996.122083
 21
1354.325668
 31
0.0
  0
LINE
  5
1AA93
100
AcDbEntity
  8
0
100
AcDbLine
 10
996.122083
 20
1354.325668
 30
0.0
 11
995.122083
 21
1355.325668
 31
0.0
  0
LINE
  5
1AA94
100
AcDbEntity
  8
0
100
AcDbLine
 10
1160.423727
 20
1206.819002
 30
0.0
 11
1160.423727
 21
1346.819002
 31
0.0
  0
LINE
  5
1AA95
100
AcDbEntity
  8
0
100
AcDbLine
 10
1180.423727
 20
1206.819002
 30
0.0
 11
1180.423727
 21
1276.819002
 31
0.0
  0
LINE
  5
1AA96
100
AcDbEntity
  8
0
100
AcDbLine
 10
1132.637891
 20
1241.191898
 30
0.0
 11
1127.96044
 21
1140.952335
 31
0.0
  0
ARC
  5
1AA97
100
AcDbEntity
  8
0
100
AcDbCircle
 10
1084.638103
 20
1227.080514
 30
0.0
 40
9.811189
100
AcDbArc
 50
149.777943
 51
180.359223
  0
CIRCLE
  5
1AA98
100
AcDbEntity
  8
0
100
AcDbCircle
 10
1397.723358
 20
1276.819002
 30
0.0
 40
70.0
  0
ARC
  5
1AA99
100
AcDbEntity
  8
0
100
AcDbCircle
 10
1496.723358
 20
1226.675111
 30
0.0
 40
10.0
100
AcDbArc
 50
149.991843
 51
180.0
  0
ARC
  5
1AA9A
100
AcDbEntity
  8
0
100
AcDbCircle
 10
1298.723358
 20
1226.675111
 30
0.0
 40
10.0
100
AcDbArc
 50
0.0
 51
30.008157
  0
ARC
  5
1AA9B
100
AcDbEntity
  8
0
100
AcDbCircle
 10
1397.723358
 20
1141.894341
 30
0.0
 40
89.0
100
AcDbArc
 50
180.0
 51
243.292355
  0
LINE
  5
1AA9C
100
AcDbEntity
  8
0
100
AcDbLine
 10
1143.575282
 20
1124.593299
 30
0.0
 11
1120.317912
 21
1060.694201
 31
0.0
  0
LINE
  5
1AA9D
100
AcDbEntity
  8
0
100
AcDbLine
 10
1132.173773
 20
1129.805668
 30
0.0
 11
1108.227106
 21
1064.032335
 31
0.0
  0
ARC
  5
1AA9E
100
AcDbEntity
  8
0
100
AcDbCircle
 10
1079.454468
 20
1111.749322
 30
0.0
 40
55.660957
100
AcDbArc
 50
322.615887
 51
357.384113
  0
ARC
  5
1AA9F
100
AcDbEntity
  8
0
100
AcDbCircle
 10
1172.692569
 20
1077.813429
 30
0.0
 40
55.660957
100
AcDbArc
 50
142.615887
 51
177.384113
  0
LINE
  5
1AAA0
100
AcDbEntity
  8
0
100
AcDbLine
 10
1083.467106
 20
1077.659002
 30
0.0
 11
1085.815608
 21
1032.819002
 31
0.0
  0
LINE
  5
1AAA1
100
AcDbEntity
  8
0
100
AcDbLine
 10
1076.827174
 20
1032.819002
 30
0.0
 11
1067.52044
 21
1067.552335
 31
0.0
  0
LINE
  5
1AAA2
100
AcDbEntity
  8
0
100
AcDbLine
 10
1085.815608
 20
1032.819002
 30
0.0
 11
1076.827174
 21
1032.819002
 31
0.0
  0
LINE
  5
1AAA3
100
AcDbEntity
  8
0
100
AcDbLine
 10
1089.573773
 20
1063.752335
 30
0.0
 11
1102.373773
 21
1063.499002
 31
0.0
  0
ARC
  5
1AAA4
100
AcDbEntity
  8
0
100
AcDbCircle
 10
1061.648148
 20
1065.928329
 30
0.0
 40
6.092718
100
AcDbArc
 50
15.458995
 51
72.49826
  0
ARC
  5
1AAA5
100
AcDbEntity
  8
0
100
AcDbCircle
 10
1088.426377
 20
1059.903182
 30
0.0
 40
4.016528
100
AcDbArc
 50
73.401179
 51
182.533052
  0
LINE
  5
1AAA6
100
AcDbEntity
  8
0
100
AcDbLine
 10
1063.48044
 20
1071.739002
 30
0.0
 11
1052.773773
 21
1075.005668
 31
0.0
  0
ARC
  5
1AAA7
100
AcDbEntity
  8
0
100
AcDbCircle
 10
1049.263591
 20
1063.524186
 30
0.0
 40
12.006074
100
AcDbArc
 50
73.00027
 51
129.168971
  0
ARC
  5
1AAA8
100
AcDbEntity
  8
0
100
AcDbCircle
 10
1103.432583
 20
1078.69215
 30
0.0
 40
19.99219
100
AcDbArc
 50
144.415488
 51
182.962227
  0
ARC
  5
1AAA9
100
AcDbEntity
  8
0
100
AcDbCircle
 10
1124.163486
 20
1063.154403
 30
0.0
 40
15.072218
100
AcDbArc
 50
126.234355
 51
193.765645
  0
ARC
  5
1AAAA
100
AcDbEntity
  8
0
100
AcDbCircle
 10
1107.207262
 20
1069.325964
 30
0.0
 40
15.072218
100
AcDbArc
 50
306.234355
 51
13.765645
  0
LINE
  5
1AAAB
100
AcDbEntity
  8
0
100
AcDbLine
 10
1120.317912
 20
1060.694201
 30
0.0
 11
1116.116291
 21
1057.168622
 31
0.0
  0
LINE
  5
1AAAC
100
AcDbEntity
  8
0
100
AcDbLine
 10
1106.013773
 20
1062.165668
 30
0.0
 11
1102.373773
 21
1063.499002
 31
0.0
  0
LINE
  5
1AAAD
100
AcDbEntity
  8
0
100
AcDbLine
 10
1108.227106
 20
1064.032335
 30
0.0
 11
1106.013773
 21
1062.165668
 31
0.0
  0
LINE
  5
1AAAE
100
AcDbEntity
  8
0
100
AcDbLine
 10
1108.571755
 20
1064.969453
 30
0.0
 11
1109.524185
 21
1059.567952
 31
0.0
  0
LINE
  5
1AAAF
100
AcDbEntity
  8
0
100
AcDbLine
 10
1109.524185
 20
1059.567952
 30
0.0
 11
1116.116291
 21
1057.168622
 31
0.0
  0
LINE
  5
1AAB0
100
AcDbEntity
  8
0
100
AcDbLine
 10
1123.681719
 20
1077.954464
 30
0.0
 11
1121.846563
 21
1072.912415
 31
0.0
  0
LINE
  5
1AAB1
100
AcDbEntity
  8
0
100
AcDbLine
 10
1115.254457
 20
1075.311745
 30
0.0
 11
1117.089613
 21
1080.353794
 31
0.0
  0
LINE
  5
1AAB2
100
AcDbEntity
  8
0
100
AcDbLine
 10
1115.254457
 20
1075.311745
 30
0.0
 11
1121.846563
 21
1072.912415
 31
0.0
  0
LINE
  5
1AAB3
100
AcDbEntity
  8
0
100
AcDbLine
 10
1117.089613
 20
1080.353794
 30
0.0
 11
1123.681719
 21
1077.954464
 31
0.0
  0
LINE
  5
1AAB4
100
AcDbEntity
  8
0
100
AcDbLine
 10
1160.423727
 20
1206.819002
 30
0.0
 11
1180.423727
 21
1206.819002
 31
0.0
  0
LINE
  5
1AAB5
100
AcDbEntity
  8
0
100
AcDbLine
 10
1074.827106
 20
1227.019002
 30
0.0
 11
1074.827106
 21
1141.819002
 31
0.0
  0
ARC
  5
1AAB6
100
AcDbEntity
  8
0
100
AcDbCircle
 10
1144.939775
 20
1120.236788
 30
0.0
 40
15.072218
100
AcDbArc
 50
126.234355
 51
193.765645
  0
LINE
  5
1AAB7
100
AcDbEntity
  8
0
100
AcDbLine
 10
1131.667106
 20
1132.645668
 30
0.0
 11
1132.173773
 21
1129.805668
 31
0.0
  0
LINE
  5
1AAB8
100
AcDbEntity
  8
0
100
AcDbLine
 10
1136.030746
 20
1132.39413
 30
0.0
 11
1142.622852
 21
1129.9948
 31
0.0
  0
LINE
  5
1AAB9
100
AcDbEntity
  8
0
100
AcDbLine
 10
1131.829124
 20
1128.868551
 30
0.0
 11
1136.030746
 21
1132.39413
 31
0.0
  0
LINE
  5
1AABA
100
AcDbEntity
  8
0
100
AcDbLine
 10
1130.300474
 20
1116.650337
 30
0.0
 11
1136.89258
 21
1114.251006
 31
0.0
  0
LINE
  5
1AABB
100
AcDbEntity
  8
0
100
AcDbLine
 10
1136.89258
 20
1114.251006
 30
0.0
 11
1135.057424
 21
1109.208957
 31
0.0
  0
LINE
  5
1AABC
100
AcDbEntity
  8
0
100
AcDbLine
 10
1128.465318
 20
1111.608287
 30
0.0
 11
1135.057424
 21
1109.208957
 31
0.0
  0
LINE
  5
1AABD
100
AcDbEntity
  8
0
100
AcDbLine
 10
1128.465318
 20
1111.608287
 30
0.0
 11
1130.300474
 21
1116.650337
 31
0.0
  0
ARC
  5
1AABE
100
AcDbEntity
  8
0
100
AcDbCircle
 10
1127.983551
 20
1126.408349
 30
0.0
 40
15.072218
100
AcDbArc
 50
306.234355
 51
13.765645
  0
LINE
  5
1AABF
100
AcDbEntity
  8
0
100
AcDbLine
 10
1143.575282
 20
1124.593299
 30
0.0
 11
1142.622852
 21
1129.9948
 31
0.0
  0
ARC
  5
1AAC0
100
AcDbEntity
  8
0
100
AcDbCircle
 10
1137.950719
 20
1140.429934
 30
0.0
 40
10.003928
100
AcDbArc
 50
177.006677
 51
231.088849
  0
LINE
  5
1AAC1
100
AcDbEntity
  8
0
100
AcDbLine
 10
1308.723358
 20
1141.894341
 30
0.0
 11
1308.723358
 21
1226.675111
 31
0.0
  0
LINE
  5
1AAC2
100
AcDbEntity
  8
0
100
AcDbLine
 10
1363.057489
 20
1108.915364
 30
0.0
 11
1363.057489
 21
1076.372136
 31
0.0
  0
LINE
  5
1AAC3
100
AcDbEntity
  8
0
100
AcDbLine
 10
1432.389227
 20
1108.915364
 30
0.0
 11
1432.389227
 21
1076.372136
 31
0.0
  0
ELLIPSE
  5
1AAC4
100
AcDbEntity
  8
0
100
AcDbEllipse
 10
1397.723358
 20
1092.64375
 30
0.0
 11
-34.0
 21
0.0
 31
0.0
210
0.0
220
0.0
230
1.0
 40
0.939693
 41
0.0
 42
6.283185307179586
  0
ELLIPSE
  5
1AAC5
100
AcDbEntity
  8
0
100
AcDbEllipse
 10
1397.723358
 20
1102.049304
 30
0.0
 11
-41.5
 21
0.0
 31
0.0
210
0.0
220
0.0
230
1.0
 40
0.939693
 41
5.827554656574058
 42
6.865263145569461
  0
ELLIPSE
  5
1AAC6
100
AcDbEntity
  8
0
100
AcDbEllipse
 10
1397.723358
 20
1102.049304
 30
0.0
 11
-41.5
 21
0.0
 31
0.0
210
0.0
220
0.0
230
1.0
 40
0.939693
 41
8.842700122379781
 42
9.880408611374907
  0
ARC
  5
1AAC7
100
AcDbEntity
  8
0
100
AcDbCircle
 10
1397.723358
 20
1141.894341
 30
0.0
 40
89.0
100
AcDbArc
 50
296.707645
 51
0.0
  0
ARC
  5
1AAC8
100
AcDbEntity
  8
0
100
AcDbCircle
 10
1361.723358
 20
1036.819002
 30
0.0
 40
4.0
100
AcDbArc
 50
180.0
 51
270.0
  0
ARC
  5
1AAC9
100
AcDbEntity
  8
0
100
AcDbCircle
 10
1433.723358
 20
1036.819002
 30
0.0
 40
4.0
100
AcDbArc
 50
270.0
 51
0.0
  0
LINE
  5
1AACA
100
AcDbEntity
  8
0
100
AcDbLine
 10
1361.723358
 20
1032.819002
 30
0.0
 11
1433.723358
 21
1032.819002
 31
0.0
  0
LINE
  5
1AACB
100
AcDbEntity
  8
0
100
AcDbLine
 10
1429.810607
 20
1072.22903
 30
0.0
 11
1401.300669
 21
1056.386159
 31
0.0
  0
LINE
  5
1AACC
100
AcDbEntity
  8
0
100
AcDbLine
 10
1365.636108
 20
1072.22903
 30
0.0
 11
1394.146047
 21
1056.386159
 31
0.0
  0
LINE
  5
1AACD
100
AcDbEntity
  8
0
100
AcDbLine
 10
1357.723358
 20
1036.819002
 30
0.0
 11
1357.723358
 21
1091.659431
 31
0.0
  0
ELLIPSE
  5
1AACE
100
AcDbEntity
  8
0
100
AcDbEllipse
 10
1397.723358
 20
1092.64375
 30
0.0
 11
-38.75
 21
0.0
 31
0.0
210
0.0
220
0.0
230
-1.0
 40
0.939693
 41
10.90312494282362
 42
11.08802363230492
  0
ELLIPSE
  5
1AACF
100
AcDbEntity
  8
0
100
AcDbEllipse
 10
1397.723358
 20
1092.64375
 30
0.0
 11
-38.75
 21
0.0
 31
0.0
210
0.0
220
0.0
230
1.0
 40
0.939693
 41
6.746439493067044
 42
6.878346654289215
  0
LINE
  5
1AAD0
100
AcDbEntity
  8
0
100
AcDbLine
 10
1437.723358
 20
1036.819002
 30
0.0
 11
1437.723358
 21
1091.659431
 31
0.0
  0
ELLIPSE
  5
1AAD1
100
AcDbEntity
  8
0
100
AcDbEllipse
 10
1397.723358
 20
1092.64375
 30
0.0
 11
38.75
 21
0.0
 31
0.0
210
0.0
220
0.0
230
-1.0
 40
0.939693
 41
6.746439493067044
 42
6.878346654289215
  0
LINE
  5
1AAD2
100
AcDbEntity
  8
0
100
AcDbLine
 10
1486.723358
 20
1141.894341
 30
0.0
 11
1486.723358
 21
1226.675111
 31
0.0
  0
LINE
  5
1AAD3
100
AcDbEntity
  8
0
100
AcDbLine
 10
1432.723358
 20
1216.197223
 30
0.0
 11
1432.723358
 21
1128.456736
 31
0.0
  0
LINE
  5
1AAD4
100
AcDbEntity
  8
0
100
AcDbLine
 10
1362.723358
 20
1216.197223
 30
0.0
 11
1362.723358
 21
1128.456736
 31
0.0
  0
LINE
  5
1AAD5
100
AcDbEntity
  8
0
100
AcDbLine
 10
1429.810607
 20
1117.333722
 30
0.0
 11
1401.300669
 21
1133.176592
 31
0.0
  0
LINE
  5
1AAD6
100
AcDbEntity
  8
0
100
AcDbLine
 10
1429.810607
 20
1113.05847
 30
0.0
 11
1401.300669
 21
1128.901341
 31
0.0
  0
LINE
  5
1AAD7
100
AcDbEntity
  8
0
100
AcDbLine
 10
1365.636108
 20
1117.333722
 30
0.0
 11
1394.146047
 21
1133.176592
 31
0.0
  0
LINE
  5
1AAD8
100
AcDbEntity
  8
0
100
AcDbLine
 10
1394.146047
 20
1128.901341
 30
0.0
 11
1394.146047
 21
1133.176592
 31
0.0
  0
LINE
  5
1AAD9
100
AcDbEntity
  8
0
100
AcDbLine
 10
1401.300669
 20
1128.901341
 30
0.0
 11
1401.300669
 21
1133.176592
 31
0.0
  0
LINE
  5
1AADA
100
AcDbEntity
  8
0
100
AcDbLine
 10
1365.636108
 20
1113.05847
 30
0.0
 11
1394.146047
 21
1128.901341
 31
0.0
  0
ELLIPSE
  5
1AADB
100
AcDbEntity
  8
0
100
AcDbEllipse
 10
1397.723358
 20
1092.64375
 30
0.0
 11
-38.75
 21
0.0
 31
0.0
210
0.0
220
0.0
230
1.0
 40
0.939693
 41
5.688023960069957
 42
5.819931121292446
  0
LINE
  5
1AADC
100
AcDbEntity
  8
0
100
AcDbLine
 10
1363.057489
 20
1113.190616
 30
0.0
 11
1363.057489
 21
1108.915364
 31
0.0
  0
LINE
  5
1AADD
100
AcDbEntity
  8
0
100
AcDbLine
 10
1365.636108
 20
1113.05847
 30
0.0
 11
1365.636108
 21
1117.333722
 31
0.0
  0
ELLIPSE
  5
1AADE
100
AcDbEntity
  8
0
100
AcDbEllipse
 10
1397.723358
 20
1096.919002
 30
0.0
 11
-38.75
 21
-0.0000000003692906
 31
0.0
210
0.0
220
0.0
230
1.0
 40
0.939693
 41
5.688023960069957
 42
5.819931121292446
  0
ARC
  5
1AADF
100
AcDbEntity
  8
0
100
AcDbCircle
 10
1342.723358
 20
1128.456736
 30
0.0
 40
20.0
100
AcDbArc
 50
332.45945
 51
0.0
  0
ELLIPSE
  5
1AAE0
100
AcDbEntity
  8
0
100
AcDbEllipse
 10
1397.723358
 20
1092.64375
 30
0.0
 11
-38.75
 21
0.0
 31
0.0
210
0.0
220
0.0
230
1.0
 40
0.939693
 41
10.90312494282362
 42
11.08802363230492
  0
ELLIPSE
  5
1AAE1
100
AcDbEntity
  8
0
100
AcDbEllipse
 10
1397.723358
 20
1096.919002
 30
0.0
 11
-38.75
 21
0.0
 31
0.0
210
0.0
220
0.0
230
1.0
 40
0.939693
 41
10.90312494282362
 42
11.08802363230492
  0
ELLIPSE
  5
1AAE2
100
AcDbEntity
  8
0
100
AcDbEllipse
 10
1397.723358
 20
1092.64375
 30
0.0
 11
38.75
 21
0.0
 31
0.0
210
0.0
220
0.0
230
-1.0
 40
0.939693
 41
5.688023960069957
 42
5.819931121292446
  0
LINE
  5
1AAE3
100
AcDbEntity
  8
0
100
AcDbLine
 10
1429.810607
 20
1113.05847
 30
0.0
 11
1429.810607
 21
1117.333722
 31
0.0
  0
ELLIPSE
  5
1AAE4
100
AcDbEntity
  8
0
100
AcDbEllipse
 10
1397.723358
 20
1096.919002
 30
0.0
 11
38.75
 21
0.0
 31
0.0
210
0.0
220
0.0
230
-1.0
 40
0.939693
 41
5.688023960069957
 42
5.819931121292446
  0
LINE
  5
1AAE5
100
AcDbEntity
  8
0
100
AcDbLine
 10
1432.389227
 20
1113.190616
 30
0.0
 11
1432.389227
 21
1108.915364
 31
0.0
  0
ARC
  5
1AAE6
100
AcDbEntity
  8
0
100
AcDbCircle
 10
1452.723358
 20
1128.456736
 30
0.0
 40
20.0
100
AcDbArc
 50
180.0
 51
207.54055
  0
LINE
  5
1AAE7
100
AcDbEntity
  8
0
100
AcDbLine
 10
1276.223358
 20
1330.832335
 30
0.0
 11
1353.197412
 21
1330.832335
 31
0.0
  0
LINE
  5
1AAE8
100
AcDbEntity
  8
0
100
AcDbLine
 10
1276.223358
 20
1308.819002
 30
0.0
 11
1335.465828
 21
1308.819002
 31
0.0
  0
LINE
  5
1AAE9
100
AcDbEntity
  8
0
100
AcDbLine
 10
1301.476691
 20
1310.832335
 30
0.0
 11
1336.542534
 21
1310.832335
 31
0.0
  0
LINE
  5
1AAEA
100
AcDbEntity
  8
0
100
AcDbLine
 10
1328.395048
 20
1229.699002
 30
0.0
 11
1345.957485
 21
1229.699002
 31
0.0
  0
LINE
  5
1AAEB
100
AcDbEntity
  8
0
100
AcDbLine
 10
1318.181714
 20
1242.459002
 30
0.0
 11
1336.736553
 21
1242.459002
 31
0.0
  0
LINE
  5
1AAEC
100
AcDbEntity
  8
0
100
AcDbLine
 10
1160.423727
 20
1346.819002
 30
0.0
 11
1180.423727
 21
1346.819002
 31
0.0
  0
LINE
  5
1AAED
100
AcDbEntity
  8
0
100
AcDbLine
 10
1107.122083
 20
1308.819002
 30
0.0
 11
1107.122083
 21
1288.819002
 31
0.0
  0
LINE
  5
1AAEE
100
AcDbEntity
  8
0
100
AcDbLine
 10
1081.827106
 20
1263.819002
 30
0.0
 11
1081.827106
 21
1244.499002
 31
0.0
  0
ARC
  5
1AAEF
100
AcDbEntity
  8
0
100
AcDbCircle
 10
1071.783362
 20
1244.522766
 30
0.0
 40
10.043772
100
AcDbArc
 50
329.987629
 51
359.864436
  0
LINE
  5
1AAF0
100
AcDbEntity
  8
0
100
AcDbLine
 10
1080.48044
 20
1239.499002
 30
0.0
 11
1076.16044
 21
1232.019002
 31
0.0
  0
LINE
  5
1AAF1
100
AcDbEntity
  8
0
100
AcDbLine
 10
1085.817491
 20
1288.819002
 30
0.0
 11
1081.827106
 21
1263.819002
 31
0.0
  0
ARC
  5
1AAF2
100
AcDbEntity
  8
0
100
AcDbCircle
 10
1140.633753
 20
1240.816924
 30
0.0
 40
8.00465
100
AcDbArc
 50
91.452576
 51
177.315028
  0
LINE
  5
1AAF3
100
AcDbEntity
  8
0
100
AcDbLine
 10
1160.423727
 20
1244.819002
 30
0.0
 11
1144.423727
 21
1248.819002
 31
0.0
  0
LINE
  5
1AAF4
100
AcDbEntity
  8
0
100
AcDbLine
 10
1140.430839
 20
1248.819002
 30
0.0
 11
1144.423727
 21
1248.819002
 31
0.0
  0
LINE
  5
1AAF5
100
AcDbEntity
  8
0
100
AcDbLine
 10
1144.423727
 20
1248.819002
 30
0.0
 11
1140.430839
 21
1248.819002
 31
0.0
  0
LINE
  5
1AAF6
100
AcDbEntity
  8
0
100
AcDbLine
 10
1107.122083
 20
1310.832335
 30
0.0
 11
1081.86875
 21
1310.832335
 31
0.0
  0
ARC
  5
1AAF7
100
AcDbEntity
  8
0
100
AcDbCircle
 10
1095.528854
 20
1333.614943
 30
0.0
 40
5.720504
100
AcDbArc
 50
57.999617
 51
122.000383
  0
LINE
  5
1AAF8
100
AcDbEntity
  8
0
100
AcDbLine
 10
1098.559416
 20
1338.466185
 30
0.0
 11
1096.626541
 21
1339.582335
 31
0.0
  0
LINE
  5
1AAF9
100
AcDbEntity
  8
0
100
AcDbLine
 10
1081.86875
 20
1310.832335
 30
0.0
 11
1081.86875
 21
1308.819002
 31
0.0
  0
LINE
  5
1AAFA
100
AcDbEntity
  8
0
100
AcDbLine
 10
1058.119875
 20
1339.582335
 30
0.0
 11
1037.737625
 21
1339.582335
 31
0.0
  0
ARC
  5
1AAFB
100
AcDbEntity
  8
0
100
AcDbCircle
 10
1057.022187
 20
1333.614943
 30
0.0
 40
5.720504
100
AcDbArc
 50
57.999617
 51
122.000383
  0
ARC
  5
1AAFC
100
AcDbEntity
  8
0
100
AcDbCircle
 10
1047.929187
 20
1317.763839
 30
0.0
 40
21.571502
100
AcDbArc
 50
73.680185
 51
106.319815
  0
LINE
  5
1AAFD
100
AcDbEntity
  8
0
100
AcDbLine
 10
1035.80475
 20
1338.466185
 30
0.0
 11
1035.80475
 21
1330.832335
 31
0.0
  0
LINE
  5
1AAFE
100
AcDbEntity
  8
0
100
AcDbLine
 10
1041.867625
 20
1338.466185
 30
0.0
 11
1041.867625
 21
1330.832335
 31
0.0
  0
LINE
  5
1AAFF
100
AcDbEntity
  8
0
100
AcDbLine
 10
1037.737625
 20
1339.582335
 30
0.0
 11
1035.80475
 21
1338.466185
 31
0.0
  0
ARC
  5
1AB00
100
AcDbEntity
  8
0
100
AcDbCircle
 10
1038.836187
 20
1333.614963
 30
0.0
 40
5.720487
100
AcDbArc
 50
57.999511
 51
122.000489
  0
LINE
  5
1AB01
100
AcDbEntity
  8
0
100
AcDbLine
 10
1053.99075
 20
1338.466185
 30
0.0
 11
1053.99075
 21
1330.832335
 31
0.0
  0
LINE
  5
1AB02
100
AcDbEntity
  8
0
100
AcDbLine
 10
1060.05275
 20
1330.832335
 30
0.0
 11
1060.05275
 21
1338.466185
 31
0.0
  0
LINE
  5
1AB03
100
AcDbEntity
  8
0
100
AcDbLine
 10
1060.05275
 20
1338.466185
 30
0.0
 11
1058.119875
 21
1339.582335
 31
0.0
  0
LINE
  5
1AB04
100
AcDbEntity
  8
0
100
AcDbLine
 10
1092.497416
 20
1338.466185
 30
0.0
 11
1092.497416
 21
1330.832335
 31
0.0
  0
LINE
  5
1AB05
100
AcDbEntity
  8
0
100
AcDbLine
 10
1074.311416
 20
1338.466185
 30
0.0
 11
1074.311416
 21
1330.832335
 31
0.0
  0
LINE
  5
1AB06
100
AcDbEntity
  8
0
100
AcDbLine
 10
1080.374291
 20
1338.466185
 30
0.0
 11
1080.374291
 21
1330.832335
 31
0.0
  0
ARC
  5
1AB07
100
AcDbEntity
  8
0
100
AcDbCircle
 10
1077.342854
 20
1333.614963
 30
0.0
 40
5.720487
100
AcDbArc
 50
57.999511
 51
122.000489
  0
LINE
  5
1AB08
100
AcDbEntity
  8
0
100
AcDbLine
 10
1076.244291
 20
1339.582335
 30
0.0
 11
1074.311416
 21
1338.466185
 31
0.0
  0
LINE
  5
1AB09
100
AcDbEntity
  8
0
100
AcDbLine
 10
1096.626541
 20
1339.582335
 30
0.0
 11
1076.244291
 21
1339.582335
 31
0.0
  0
ARC
  5
1AB0A
100
AcDbEntity
  8
0
100
AcDbCircle
 10
1086.435854
 20
1317.763839
 30
0.0
 40
21.571502
100
AcDbArc
 50
73.680185
 51
106.319815
  0
LINE
  5
1AB0B
100
AcDbEntity
  8
0
100
AcDbLine
 10
1107.122083
 20
1342.832335
 30
0.0
 11
1107.122083
 21
1310.832335
 31
0.0
  0
LINE
  5
1AB0C
100
AcDbEntity
  8
0
100
AcDbLine
 10
1107.122083
 20
1304.819002
 30
0.0
 11
1144.62875
 21
1304.819002
 31
0.0
  0
LINE
  5
1AB0D
100
AcDbEntity
  8
0
100
AcDbLine
 10
1107.122083
 20
1304.819002
 30
0.0
 11
1144.62875
 21
1304.819002
 31
0.0
  0
LINE
  5
1AB0E
100
AcDbEntity
  8
0
100
AcDbLine
 10
1144.62875
 20
1304.819002
 30
0.0
 11
1107.122083
 21
1304.819002
 31
0.0
  0
LINE
  5
1AB0F
100
AcDbEntity
  8
0
100
AcDbLine
 10
1160.423727
 20
1308.819002
 30
0.0
 11
1144.62875
 21
1304.819002
 31
0.0
  0
LINE
  5
1AB10
100
AcDbEntity
  8
0
100
AcDbLine
 10
1098.559416
 20
1330.832335
 30
0.0
 11
1098.559416
 21
1338.466185
 31
0.0
  0
LINE
  5
1AB11
100
AcDbEntity
  8
0
100
AcDbLine
 10
1180.423727
 20
1276.819002
 30
0.0
 11
1180.423727
 21
1346.819002
 31
0.0
  0
LINE
  5
1AB12
100
AcDbEntity
  8
0
100
AcDbLine
 10
1276.223358
 20
1308.819002
 30
0.0
 11
1276.223358
 21
1288.819002
 31
0.0
  0
LINE
  5
1AB13
100
AcDbEntity
  8
0
100
AcDbLine
 10
1301.723358
 20
1244.155991
 30
0.0
 11
1301.723358
 21
1263.819002
 31
0.0
  0
LINE
  5
1AB14
100
AcDbEntity
  8
0
100
AcDbLine
 10
1303.063816
 20
1239.154758
 30
0.0
 11
1307.3829
 21
1231.676344
 31
0.0
  0
ARC
  5
1AB15
100
AcDbEntity
  8
0
100
AcDbCircle
 10
1311.723358
 20
1244.155991
 30
0.0
 40
10.0
100
AcDbArc
 50
180.0
 51
210.008157
  0
LINE
  5
1AB16
100
AcDbEntity
  8
0
100
AcDbLine
 10
1276.223358
 20
1288.819002
 30
0.0
 11
1328.759599
 21
1288.819002
 31
0.0
  0
LINE
  5
1AB17
100
AcDbEntity
  8
0
100
AcDbLine
 10
1317.568381
 20
1263.819002
 30
0.0
 11
1328.941093
 21
1263.819002
 31
0.0
  0
LINE
  5
1AB18
100
AcDbEntity
  8
0
100
AcDbLine
 10
1310.694956
 20
1263.819002
 30
0.0
 11
1328.941093
 21
1263.819002
 31
0.0
  0
LINE
  5
1AB19
100
AcDbEntity
  8
0
100
AcDbLine
 10
1298.396965
 20
1284.608954
 30
0.0
 11
1301.723358
 21
1263.819002
 31
0.0
  0
ARC
  5
1AB1A
100
AcDbEntity
  8
0
100
AcDbCircle
 10
1293.459762
 20
1283.819002
 30
0.0
 40
5.0
100
AcDbArc
 50
9.090277
 51
90.0
  0
LINE
  5
1AB1B
100
AcDbEntity
  8
0
100
AcDbLine
 10
1276.223358
 20
1310.832335
 30
0.0
 11
1276.223358
 21
1330.832335
 31
0.0
  0
LINE
  5
1AB1C
100
AcDbEntity
  8
0
100
AcDbLine
 10
1301.476691
 20
1310.832335
 30
0.0
 11
1276.223358
 21
1310.832335
 31
0.0
  0
LINE
  5
1AB1D
100
AcDbEntity
  8
0
100
AcDbLine
 10
1301.476691
 20
1308.819002
 30
0.0
 11
1301.476691
 21
1310.832335
 31
0.0
  0
ARC
  5
1AB1E
100
AcDbEntity
  8
0
100
AcDbCircle
 10
1296.673358
 20
1325.301702
 30
0.0
 40
14.28125
100
AcDbArc
 50
68.431404
 51
111.568596
  0
LINE
  5
1AB1F
100
AcDbEntity
  8
0
100
AcDbLine
 10
1301.923358
 20
1339.582335
 30
0.0
 11
1280.923358
 21
1339.582335
 31
0.0
  0
LINE
  5
1AB20
100
AcDbEntity
  8
0
100
AcDbLine
 10
1280.923358
 20
1339.582335
 30
0.0
 11
1280.923358
 21
1330.832335
 31
0.0
  0
LINE
  5
1AB21
100
AcDbEntity
  8
0
100
AcDbLine
 10
1291.423358
 20
1338.582952
 30
0.0
 11
1291.423358
 21
1330.832335
 31
0.0
  0
ARC
  5
1AB22
100
AcDbEntity
  8
0
100
AcDbCircle
 10
1286.173358
 20
1325.301702
 30
0.0
 40
14.28125
100
AcDbArc
 50
68.431404
 51
111.568596
  0
LINE
  5
1AB23
100
AcDbEntity
  8
0
100
AcDbLine
 10
1323.223358
 20
1339.582335
 30
0.0
 11
1323.223358
 21
1330.832335
 31
0.0
  0
ARC
  5
1AB24
100
AcDbEntity
  8
0
100
AcDbCircle
 10
1317.973358
 20
1325.301702
 30
0.0
 40
14.28125
100
AcDbArc
 50
68.431404
 51
111.568596
  0
ARC
  5
1AB25
100
AcDbEntity
  8
0
100
AcDbCircle
 10
1307.473358
 20
1325.301702
 30
0.0
 40
14.28125
100
AcDbArc
 50
68.431404
 51
111.568596
  0
LINE
  5
1AB26
100
AcDbEntity
  8
0
100
AcDbLine
 10
1302.223358
 20
1339.582335
 30
0.0
 11
1302.223358
 21
1330.832335
 31
0.0
  0
LINE
  5
1AB27
100
AcDbEntity
  8
0
100
AcDbLine
 10
1312.723358
 20
1338.582952
 30
0.0
 11
1312.723358
 21
1330.832335
 31
0.0
  0
LINE
  5
1AB28
100
AcDbEntity
  8
0
100
AcDbLine
 10
1323.223358
 20
1339.582335
 30
0.0
 11
1302.223358
 21
1339.582335
 31
0.0
  0
LINE
  5
1AB29
100
AcDbEntity
  8
0
100
AcDbLine
 10
1301.923358
 20
1339.582335
 30
0.0
 11
1301.923358
 21
1330.832335
 31
0.0
  0
LINE
  5
1AB2A
100
AcDbEntity
  8
0
100
AcDbLine
 10
1492.3829
 20
1239.154758
 30
0.0
 11
1488.063816
 21
1231.676344
 31
0.0
  0
ARC
  5
1AB2B
100
AcDbEntity
  8
0
100
AcDbCircle
 10
1487.973358
 20
1325.301702
 30
0.0
 40
14.28125
100
AcDbArc
 50
68.431404
 51
111.568596
  0
LINE
  5
1AB2C
100
AcDbEntity
  8
0
100
AcDbLine
 10
1472.223358
 20
1339.582335
 30
0.0
 11
1493.223358
 21
1339.582335
 31
0.0
  0
LINE
  5
1AB2D
100
AcDbEntity
  8
0
100
AcDbLine
 10
1459.980887
 20
1308.819002
 30
0.0
 11
1519.223358
 21
1308.819002
 31
0.0
  0
LINE
  5
1AB2E
100
AcDbEntity
  8
0
100
AcDbLine
 10
1458.904181
 20
1310.832335
 30
0.0
 11
1493.970024
 21
1310.832335
 31
0.0
  0
LINE
  5
1AB2F
100
AcDbEntity
  8
0
100
AcDbLine
 10
1466.687116
 20
1288.819002
 30
0.0
 11
1519.223358
 21
1288.819002
 31
0.0
  0
LINE
  5
1AB30
100
AcDbEntity
  8
0
100
AcDbLine
 10
1442.249303
 20
1330.832335
 30
0.0
 11
1519.223358
 21
1330.832335
 31
0.0
  0
CIRCLE
  5
1AB31
100
AcDbEntity
  8
0
100
AcDbCircle
 10
1360.600252
 20
1239.695896
 30
0.0
 40
9.5
  0
CIRCLE
  5
1AB32
100
AcDbEntity
  8
0
100
AcDbCircle
 10
1434.846464
 20
1239.695896
 30
0.0
 40
9.5
  0
LINE
  5
1AB33
100
AcDbEntity
  8
0
100
AcDbLine
 10
1458.710163
 20
1242.459002
 30
0.0
 11
1477.661714
 21
1242.459002
 31
0.0
  0
LINE
  5
1AB34
100
AcDbEntity
  8
0
100
AcDbLine
 10
1449.489231
 20
1229.699002
 30
0.0
 11
1467.448381
 21
1229.699002
 31
0.0
  0
LINE
  5
1AB35
100
AcDbEntity
  8
0
100
AcDbLine
 10
1466.505623
 20
1263.819002
 30
0.0
 11
1485.148472
 21
1263.819002
 31
0.0
  0
LINE
  5
1AB36
100
AcDbEntity
  8
0
100
AcDbLine
 10
1466.505623
 20
1263.819002
 30
0.0
 11
1478.275048
 21
1263.819002
 31
0.0
  0
LINE
  5
1AB37
100
AcDbEntity
  8
0
100
AcDbLine
 10
1381.730024
 20
1346.832335
 30
0.0
 11
1413.730024
 21
1346.832335
 31
0.0
  0
CIRCLE
  5
1AB38
100
AcDbEntity
  8
0
100
AcDbCircle
 10
1360.600252
 20
1313.942108
 30
0.0
 40
9.5
  0
ARC
  5
1AB39
100
AcDbEntity
  8
0
100
AcDbCircle
 10
1397.701087
 20
1162.994769
 30
0.0
 40
176.838109
100
AcDbArc
 50
104.165925
 51
107.393473
  0
LINE
  5
1AB3A
100
AcDbEntity
  8
0
100
AcDbLine
 10
1354.423358
 20
1339.582335
 30
0.0
 11
1354.423358
 21
1331.820002
 31
0.0
  0
ARC
  5
1AB3B
100
AcDbEntity
  8
0
100
AcDbCircle
 10
1359.673358
 20
1325.301702
 30
0.0
 40
14.28125
100
AcDbArc
 50
68.431404
 51
111.568596
  0
LINE
  5
1AB3C
100
AcDbEntity
  8
0
100
AcDbLine
 10
1354.423358
 20
1339.582335
 30
0.0
 11
1366.727165
 21
1339.582335
 31
0.0
  0
ARC
  5
1AB3D
100
AcDbEntity
  8
0
100
AcDbCircle
 10
1338.85986
 20
1350.832335
 30
0.0
 40
20.0
100
AcDbArc
 50
270.0
 51
287.393473
  0
LINE
  5
1AB3E
100
AcDbEntity
  8
0
100
AcDbLine
 10
1407.223358
 20
1355.325668
 30
0.0
 11
1388.223358
 21
1355.325668
 31
0.0
  0
LINE
  5
1AB3F
100
AcDbEntity
  8
0
100
AcDbLine
 10
1379.730024
 20
1344.832335
 30
0.0
 11
1381.730024
 21
1346.832335
 31
0.0
  0
LINE
  5
1AB40
100
AcDbEntity
  8
0
100
AcDbLine
 10
1379.730024
 20
1344.466913
 30
0.0
 11
1379.730024
 21
1344.832335
 31
0.0
  0
LINE
  5
1AB41
100
AcDbEntity
  8
0
100
AcDbLine
 10
1406.346718
 20
1348.320447
 30
0.0
 11
1398.600751
 21
1348.319149
 31
0.0
  0
LINE
  5
1AB42
100
AcDbEntity
  8
0
100
AcDbLine
 10
1398.599578
 20
1355.319149
 30
0.0
 11
1398.600751
 21
1348.319149
 31
0.0
  0
LINE
  5
1AB43
100
AcDbEntity
  8
0
100
AcDbLine
 10
1396.845545
 20
1355.319002
 30
0.0
 11
1396.845545
 21
1348.319002
 31
0.0
  0
LINE
  5
1AB44
100
AcDbEntity
  8
0
100
AcDbLine
 10
1387.222562
 20
1348.319002
 30
0.0
 11
1388.222562
 21
1348.319002
 31
0.0
  0
LINE
  5
1AB45
100
AcDbEntity
  8
0
100
AcDbLine
 10
1388.222562
 20
1355.319002
 30
0.0
 11
1387.222562
 21
1354.319002
 31
0.0
  0
LINE
  5
1AB46
100
AcDbEntity
  8
0
100
AcDbLine
 10
1389.099578
 20
1355.319002
 30
0.0
 11
1389.099578
 21
1348.319002
 31
0.0
  0
LINE
  5
1AB47
100
AcDbEntity
  8
0
100
AcDbLine
 10
1388.222562
 20
1355.319002
 30
0.0
 11
1388.222562
 21
1348.319002
 31
0.0
  0
LINE
  5
1AB48
100
AcDbEntity
  8
0
100
AcDbLine
 10
1389.099578
 20
1348.319002
 30
0.0
 11
1396.845545
 21
1348.319002
 31
0.0
  0
LINE
  5
1AB49
100
AcDbEntity
  8
0
100
AcDbLine
 10
1387.222562
 20
1354.319002
 30
0.0
 11
1387.222562
 21
1346.819127
 31
0.0
  0
LINE
  5
1AB4A
100
AcDbEntity
  8
0
100
AcDbLine
 10
1406.345545
 20
1355.320447
 30
0.0
 11
1406.346718
 21
1348.320447
 31
0.0
  0
LINE
  5
1AB4B
100
AcDbEntity
  8
0
100
AcDbLine
 10
1408.223734
 20
1348.320761
 30
0.0
 11
1407.223734
 21
1348.320594
 31
0.0
  0
LINE
  5
1AB4C
100
AcDbEntity
  8
0
100
AcDbLine
 10
1407.222561
 20
1355.320594
 30
0.0
 11
1408.222729
 21
1354.320761
 31
0.0
  0
LINE
  5
1AB4D
100
AcDbEntity
  8
0
100
AcDbLine
 10
1407.222561
 20
1355.320594
 30
0.0
 11
1407.223734
 21
1348.320594
 31
0.0
  0
LINE
  5
1AB4E
100
AcDbEntity
  8
0
100
AcDbLine
 10
1408.224154
 20
1354.319002
 30
0.0
 11
1408.224154
 21
1346.819127
 31
0.0
  0
CIRCLE
  5
1AB4F
100
AcDbEntity
  8
0
100
AcDbCircle
 10
1434.846464
 20
1313.942108
 30
0.0
 40
9.5
  0
ARC
  5
1AB50
100
AcDbEntity
  8
0
100
AcDbCircle
 10
1397.745628
 20
1162.994769
 30
0.0
 40
176.838109
100
AcDbArc
 50
72.606527
 51
75.834075
  0
LINE
  5
1AB51
100
AcDbEntity
  8
0
100
AcDbLine
 10
1413.730024
 20
1346.832335
 30
0.0
 11
1415.730024
 21
1344.832335
 31
0.0
  0
LINE
  5
1AB52
100
AcDbEntity
  8
0
100
AcDbLine
 10
1415.730024
 20
1344.463366
 30
0.0
 11
1415.730024
 21
1344.659002
 31
0.0
  0
LINE
  5
1AB53
100
AcDbEntity
  8
0
100
AcDbLine
 10
1441.023358
 20
1339.582335
 30
0.0
 11
1441.023358
 21
1331.820002
 31
0.0
  0
LINE
  5
1AB54
100
AcDbEntity
  8
0
100
AcDbLine
 10
1441.023358
 20
1339.582335
 30
0.0
 11
1428.719551
 21
1339.582335
 31
0.0
  0
ARC
  5
1AB55
100
AcDbEntity
  8
0
100
AcDbCircle
 10
1435.773358
 20
1325.301702
 30
0.0
 40
14.28125
100
AcDbArc
 50
68.431404
 51
111.568596
  0
LINE
  5
1AB56
100
AcDbEntity
  8
0
100
AcDbLine
 10
1472.223358
 20
1339.582335
 30
0.0
 11
1472.223358
 21
1330.832335
 31
0.0
  0
LINE
  5
1AB57
100
AcDbEntity
  8
0
100
AcDbLine
 10
1482.723358
 20
1338.582952
 30
0.0
 11
1482.723358
 21
1330.832335
 31
0.0
  0
ARC
  5
1AB58
100
AcDbEntity
  8
0
100
AcDbCircle
 10
1456.586856
 20
1350.832335
 30
0.0
 40
20.0
100
AcDbArc
 50
252.606527
 51
270.0
  0
ARC
  5
1AB59
100
AcDbEntity
  8
0
100
AcDbCircle
 10
1477.473358
 20
1325.301702
 30
0.0
 40
14.28125
100
AcDbArc
 50
68.431404
 51
111.568596
  0
LINE
  5
1AB5A
100
AcDbEntity
  8
0
100
AcDbLine
 10
1519.223358
 20
1308.819002
 30
0.0
 11
1519.223358
 21
1288.819002
 31
0.0
  0
LINE
  5
1AB5B
100
AcDbEntity
  8
0
100
AcDbLine
 10
1493.723358
 20
1244.155991
 30
0.0
 11
1493.723358
 21
1263.819002
 31
0.0
  0
ARC
  5
1AB5C
100
AcDbEntity
  8
0
100
AcDbCircle
 10
1483.723358
 20
1244.155991
 30
0.0
 40
10.0
100
AcDbArc
 50
329.991843
 51
0.0
  0
LINE
  5
1AB5D
100
AcDbEntity
  8
0
100
AcDbLine
 10
1497.04975
 20
1284.608954
 30
0.0
 11
1493.723358
 21
1263.819002
 31
0.0
  0
ARC
  5
1AB5E
100
AcDbEntity
  8
0
100
AcDbCircle
 10
1501.986953
 20
1283.819002
 30
0.0
 40
5.0
100
AcDbArc
 50
90.0
 51
170.909723
  0
LINE
  5
1AB5F
100
AcDbEntity
  8
0
100
AcDbLine
 10
1519.223358
 20
1330.832335
 30
0.0
 11
1519.223358
 21
1310.832335
 31
0.0
  0
LINE
  5
1AB60
100
AcDbEntity
  8
0
100
AcDbLine
 10
1493.970024
 20
1310.832335
 30
0.0
 11
1493.970024
 21
1308.819002
 31
0.0
  0
LINE
  5
1AB61
100
AcDbEntity
  8
0
100
AcDbLine
 10
1519.223358
 20
1310.832335
 30
0.0
 11
1493.970024
 21
1310.832335
 31
0.0
  0
LINE
  5
1AB62
100
AcDbEntity
  8
0
100
AcDbLine
 10
1493.523358
 20
1339.582335
 30
0.0
 11
1493.523358
 21
1330.832335
 31
0.0
  0
LINE
  5
1AB63
100
AcDbEntity
  8
0
100
AcDbLine
 10
1504.023358
 20
1338.582952
 30
0.0
 11
1504.023358
 21
1330.832335
 31
0.0
  0
LINE
  5
1AB64
100
AcDbEntity
  8
0
100
AcDbLine
 10
1514.523358
 20
1339.582335
 30
0.0
 11
1514.523358
 21
1330.832335
 31
0.0
  0
LINE
  5
1AB65
100
AcDbEntity
  8
0
100
AcDbLine
 10
1493.223358
 20
1339.582335
 30
0.0
 11
1493.223358
 21
1330.832335
 31
0.0
  0
LINE
  5
1AB66
100
AcDbEntity
  8
0
100
AcDbLine
 10
1493.523358
 20
1339.582335
 30
0.0
 11
1514.523358
 21
1339.582335
 31
0.0
  0
ARC
  5
1AB67
100
AcDbEntity
  8
0
100
AcDbCircle
 10
1498.773358
 20
1325.301702
 30
0.0
 40
14.28125
100
AcDbArc
 50
68.431404
 51
111.568596
  0
ARC
  5
1AB68
100
AcDbEntity
  8
0
100
AcDbCircle
 10
1509.273358
 20
1325.301702
 30
0.0
 40
14.28125
100
AcDbArc
 50
68.431404
 51
111.568596
  0
LINE
  5
1AB69
100
AcDbEntity
  8
0
100
AcDbLine
 10
2164.435931
 20
1348.655021
 30
0.0
 11
2164.435931
 21
1193.655021
 31
0.0
  0
LINE
  5
1AB6A
100
AcDbEntity
  8
0
100
AcDbLine
 10
2229.089264
 20
1221.348354
 30
0.0
 11
2224.769264
 21
1228.828354
 31
0.0
  0
LINE
  5
1AB6B
100
AcDbEntity
  8
0
100
AcDbLine
 10
2144.435931
 20
1271.155021
 30
0.0
 11
2144.435931
 21
1193.655021
 31
0.0
  0
CIRCLE
  5
1AB6C
100
AcDbEntity
  8
0
100
AcDbCircle
 10
1869.615867
 20
1271.148354
 30
0.0
 40
77.5
  0
CIRCLE
  5
1AB6D
100
AcDbEntity
  8
0
100
AcDbCircle
 10
1827.18946
 20
1228.721947
 30
0.0
 40
9.5
  0
CIRCLE
  5
1AB6E
100
AcDbEntity
  8
0
100
AcDbCircle
 10
1912.042274
 20
1228.721947
 30
0.0
 40
9.5
  0
LINE
  5
1AB6F
100
AcDbEntity
  8
0
100
AcDbLine
 10
1964.275867
 20
1228.828354
 30
0.0
 11
1959.955867
 21
1221.348354
 31
0.0
  0
LINE
  5
1AB70
100
AcDbEntity
  8
0
100
AcDbLine
 10
1774.955867
 20
1228.828354
 30
0.0
 11
1779.275867
 21
1221.348354
 31
0.0
  0
ARC
  5
1AB71
100
AcDbEntity
  8
0
100
AcDbCircle
 10
1869.615867
 20
1131.223694
 30
0.0
 40
89.0
100
AcDbArc
 50
296.707645
 51
0.0
  0
ARC
  5
1AB72
100
AcDbEntity
  8
0
100
AcDbCircle
 10
1968.43353
 20
1216.409866
 30
0.0
 40
9.811189
100
AcDbArc
 50
149.777943
 51
180.359223
  0
ARC
  5
1AB73
100
AcDbEntity
  8
0
100
AcDbCircle
 10
1869.615867
 20
1131.223694
 30
0.0
 40
89.0
100
AcDbArc
 50
180.0
 51
243.292355
  0
LINE
  5
1AB74
100
AcDbEntity
  8
0
100
AcDbLine
 10
1829.615867
 20
1026.148354
 30
0.0
 11
1829.615867
 21
1078.428354
 31
0.0
  0
LINE
  5
1AB75
100
AcDbEntity
  8
0
100
AcDbLine
 10
1909.615867
 20
1026.148354
 30
0.0
 11
1909.615867
 21
1078.428354
 31
0.0
  0
LINE
  5
1AB76
100
AcDbEntity
  8
0
100
AcDbLine
 10
1905.615867
 20
1022.148354
 30
0.0
 11
1833.615867
 21
1022.148354
 31
0.0
  0
ARC
  5
1AB77
100
AcDbEntity
  8
0
100
AcDbCircle
 10
1833.615867
 20
1026.148354
 30
0.0
 40
4.0
100
AcDbArc
 50
180.0
 51
270.0
  0
ARC
  5
1AB78
100
AcDbEntity
  8
0
100
AcDbCircle
 10
1905.615867
 20
1026.148354
 30
0.0
 40
4.0
100
AcDbArc
 50
270.0
 51
0.0
  0
CIRCLE
  5
1AB79
100
AcDbEntity
  8
0
100
AcDbCircle
 10
1869.615867
 20
1059.655021
 30
0.0
 40
14.0
  0
ARC
  5
1AB7A
100
AcDbEntity
  8
0
100
AcDbCircle
 10
1869.615867
 20
1166.103127
 30
0.0
 40
93.801458
100
AcDbArc
 50
273.443823
 51
290.736537
  0
ARC
  5
1AB7C
100
AcDbEntity
  8
0
100
AcDbCircle
 10
1869.615867
 20
1166.103127
 30
0.0
 40
93.801458
100
AcDbArc
 50
249.263463
 51
266.556177
  0
ARC
  5
1AB7D
100
AcDbEntity
  8
0
100
AcDbCircle
 10
1824.615867
 20
1078.428354
 30
0.0
 40
5.0
100
AcDbArc
 50
0.0
 51
45.0
  0
ARC
  5
1AB7E
100
AcDbEntity
  8
0
100
AcDbCircle
 10
1914.615867
 20
1078.428354
 30
0.0
 40
5.0
100
AcDbArc
 50
135.0
 51
180.0
  0
LINE
  5
1AB7F
100
AcDbEntity
  8
0
100
AcDbLine
 10
1812.259476
 20
1219.028354
 30
0.0
 11
1791.151257
 21
1219.028354
 31
0.0
  0
LINE
  5
1AB80
100
AcDbEntity
  8
0
100
AcDbLine
 10
1780.615867
 20
1131.223694
 30
0.0
 11
1780.615867
 21
1216.004463
 31
0.0
  0
ARC
  5
1AB81
100
AcDbEntity
  8
0
100
AcDbCircle
 10
1770.798204
 20
1216.409866
 30
0.0
 40
9.811189
100
AcDbArc
 50
359.640777
 51
30.222057
  0
LINE
  5
1AB82
100
AcDbEntity
  8
0
100
AcDbLine
 10
1958.615867
 20
1131.223694
 30
0.0
 11
1958.615867
 21
1216.004463
 31
0.0
  0
LINE
  5
1AB83
100
AcDbEntity
  8
0
100
AcDbLine
 10
1948.080477
 20
1219.028354
 30
0.0
 11
1926.972258
 21
1219.028354
 31
0.0
  0
LINE
  5
1AB84
100
AcDbEntity
  8
0
100
AcDbLine
 10
2248.434096
 20
1022.148354
 30
0.0
 11
2250.782597
 21
1066.988354
 31
0.0
  0
LINE
  5
1AB85
100
AcDbEntity
  8
0
100
AcDbLine
 10
2257.436158
 20
1022.148354
 30
0.0
 11
2265.155931
 21
1051.001687
 31
0.0
  0
LINE
  5
1AB86
100
AcDbEntity
  8
0
100
AcDbLine
 10
2257.436158
 20
1022.148354
 30
0.0
 11
2248.434096
 21
1022.148354
 31
0.0
  0
ARC
  5
1AB87
100
AcDbEntity
  8
0
100
AcDbCircle
 10
2230.817234
 20
1068.021535
 30
0.0
 40
19.992079
100
AcDbArc
 50
357.037661
 51
27.686803
  0
LINE
  5
1AB88
100
AcDbEntity
  8
0
100
AcDbLine
 10
2244.435931
 20
1047.575021
 30
0.0
 11
2244.435931
 21
1071.788354
 31
0.0
  0
LINE
  5
1AB8B
100
AcDbEntity
  8
0
100
AcDbLine
 10
2249.449264
 20
1041.655021
 30
0.0
 11
2244.435931
 21
1047.575021
 31
0.0
  0
ARC
  5
1AB91
100
AcDbEntity
  8
0
100
AcDbCircle
 10
2245.314013
 20
1076.655526
 30
0.0
 40
2.996057
100
AcDbArc
 50
282.894401
 51
36.279184
  0
ARC
  5
1AB92
100
AcDbEntity
  8
0
100
AcDbCircle
 10
2246.431608
 20
1071.79051
 30
0.0
 40
1.995679
100
AcDbArc
 50
103.00238
 51
180.061893
  0
LINE
  5
1AB94
100
AcDbEntity
  8
0
100
AcDbLine
 10
2319.435931
 20
1042.148354
 30
0.0
 11
2262.787202
 21
1042.148354
 31
0.0
  0
ARC
  5
1AB95
100
AcDbEntity
  8
0
100
AcDbCircle
 10
2270.958582
 20
1049.44822
 30
0.0
 40
6.006998
100
AcDbArc
 50
59.331219
 51
165.01242
  0
LINE
  5
1AB96
100
AcDbEntity
  8
0
100
AcDbLine
 10
2164.435931
 20
1193.655021
 30
0.0
 11
2144.435931
 21
1193.655021
 31
0.0
  0
LINE
  5
1AB97
100
AcDbEntity
  8
0
100
AcDbLine
 10
2230.435931
 20
1131.148354
 30
0.0
 11
2230.435931
 21
1216.348354
 31
0.0
  0
ARC
  5
1AB98
100
AcDbEntity
  8
0
100
AcDbCircle
 10
2220.305546
 20
1216.301255
 30
0.0
 40
10.130494
100
AcDbArc
 50
0.266383
 51
29.881552
  0
LINE
  5
1AB99
100
AcDbEntity
  8
0
100
AcDbLine
 10
1959.634029
 20
1263.148354
 30
0.0
 11
1946.701858
 21
1263.148354
 31
0.0
  0
LINE
  5
1AB9A
100
AcDbEntity
  8
0
100
AcDbLine
 10
1991.115867
 20
1288.148354
 30
0.0
 11
1945.228366
 21
1288.148354
 31
0.0
  0
LINE
  5
1AB9B
100
AcDbEntity
  8
0
100
AcDbLine
 10
1965.862534
 20
1310.161687
 30
0.0
 11
1936.58011
 21
1310.161687
 31
0.0
  0
LINE
  5
1AB9C
100
AcDbEntity
  8
0
100
AcDbLine
 10
1991.115867
 20
1308.148354
 30
0.0
 11
1937.713224
 21
1308.148354
 31
0.0
  0
LINE
  5
1AB9D
100
AcDbEntity
  8
0
100
AcDbLine
 10
1991.115867
 20
1330.161687
 30
0.0
 11
1919.852074
 21
1330.161687
 31
0.0
  0
ARC
  5
1AB9E
100
AcDbEntity
  8
0
100
AcDbCircle
 10
1959.865867
 20
1324.631055
 30
0.0
 40
14.28125
100
AcDbArc
 50
68.431404
 51
111.568596
  0
LINE
  5
1AB9F
100
AcDbEntity
  8
0
100
AcDbLine
 10
1944.115867
 20
1338.911687
 30
0.0
 11
1965.115867
 21
1338.911687
 31
0.0
  0
LINE
  5
1ABA0
100
AcDbEntity
  8
0
100
AcDbLine
 10
1802.854798
 20
1231.788354
 30
0.0
 11
1785.236842
 21
1231.788354
 31
0.0
  0
LINE
  5
1ABA1
100
AcDbEntity
  8
0
100
AcDbLine
 10
1819.37966
 20
1330.161687
 30
0.0
 11
1748.115867
 21
1330.161687
 31
0.0
  0
LINE
  5
1ABA2
100
AcDbEntity
  8
0
100
AcDbLine
 10
1802.651624
 20
1310.161687
 30
0.0
 11
1773.3692
 21
1310.161687
 31
0.0
  0
LINE
  5
1ABA3
100
AcDbEntity
  8
0
100
AcDbLine
 10
1748.115867
 20
1308.148354
 30
0.0
 11
1748.115867
 21
1288.148354
 31
0.0
  0
LINE
  5
1ABA4
100
AcDbEntity
  8
0
100
AcDbLine
 10
1773.6092
 20
1263.148354
 30
0.0
 11
1773.6092
 21
1233.828354
 31
0.0
  0
ARC
  5
1ABA5
100
AcDbEntity
  8
0
100
AcDbCircle
 10
1783.652944
 20
1233.852118
 30
0.0
 40
10.043772
100
AcDbArc
 50
180.135564
 51
210.012371
  0
LINE
  5
1ABA6
100
AcDbEntity
  8
0
100
AcDbLine
 10
1794.003368
 20
1288.148354
 30
0.0
 11
1748.115867
 21
1288.148354
 31
0.0
  0
LINE
  5
1ABA7
100
AcDbEntity
  8
0
100
AcDbLine
 10
1792.529876
 20
1263.148354
 30
0.0
 11
1779.597706
 21
1263.148354
 31
0.0
  0
LINE
  5
1ABA8
100
AcDbEntity
  8
0
100
AcDbLine
 10
1769.618816
 20
1288.148354
 30
0.0
 11
1773.6092
 21
1263.148354
 31
0.0
  0
LINE
  5
1ABA9
100
AcDbEntity
  8
0
100
AcDbLine
 10
1748.115867
 20
1330.161687
 30
0.0
 11
1748.115867
 21
1310.161687
 31
0.0
  0
LINE
  5
1ABAA
100
AcDbEntity
  8
0
100
AcDbLine
 10
1801.51851
 20
1308.148354
 30
0.0
 11
1748.115867
 21
1308.148354
 31
0.0
  0
LINE
  5
1ABAB
100
AcDbEntity
  8
0
100
AcDbLine
 10
1748.115867
 20
1310.161687
 30
0.0
 11
1773.3692
 21
1310.161687
 31
0.0
  0
LINE
  5
1ABAC
100
AcDbEntity
  8
0
100
AcDbLine
 10
1773.3692
 20
1310.161687
 30
0.0
 11
1773.3692
 21
1308.148354
 31
0.0
  0
LINE
  5
1ABAD
100
AcDbEntity
  8
0
100
AcDbLine
 10
1773.815867
 20
1338.911687
 30
0.0
 11
1752.815867
 21
1338.911687
 31
0.0
  0
ARC
  5
1ABAE
100
AcDbEntity
  8
0
100
AcDbCircle
 10
1758.065867
 20
1324.631055
 30
0.0
 40
14.28125
100
AcDbArc
 50
68.431404
 51
111.568596
  0
LINE
  5
1ABAF
100
AcDbEntity
  8
0
100
AcDbLine
 10
1752.815867
 20
1338.911687
 30
0.0
 11
1752.815867
 21
1330.161687
 31
0.0
  0
ARC
  5
1ABB0
100
AcDbEntity
  8
0
100
AcDbCircle
 10
1768.565867
 20
1324.631055
 30
0.0
 40
14.28125
100
AcDbArc
 50
68.431404
 51
111.568596
  0
LINE
  5
1ABB1
100
AcDbEntity
  8
0
100
AcDbLine
 10
1773.815867
 20
1338.911687
 30
0.0
 11
1773.815867
 21
1330.161687
 31
0.0
  0
LINE
  5
1ABB2
100
AcDbEntity
  8
0
100
AcDbLine
 10
1795.115867
 20
1338.911687
 30
0.0
 11
1795.115867
 21
1330.161687
 31
0.0
  0
LINE
  5
1ABB3
100
AcDbEntity
  8
0
100
AcDbLine
 10
1774.115867
 20
1338.911687
 30
0.0
 11
1774.115867
 21
1330.161687
 31
0.0
  0
LINE
  5
1ABB4
100
AcDbEntity
  8
0
100
AcDbLine
 10
1784.615867
 20
1337.912305
 30
0.0
 11
1784.615867
 21
1330.161687
 31
0.0
  0
ARC
  5
1ABB5
100
AcDbEntity
  8
0
100
AcDbCircle
 10
1789.865867
 20
1324.631055
 30
0.0
 40
14.28125
100
AcDbArc
 50
68.431404
 51
111.568596
  0
ARC
  5
1ABB6
100
AcDbEntity
  8
0
100
AcDbCircle
 10
1779.365867
 20
1324.631055
 30
0.0
 40
14.28125
100
AcDbArc
 50
68.431404
 51
111.568596
  0
LINE
  5
1ABB7
100
AcDbEntity
  8
0
100
AcDbLine
 10
1795.115867
 20
1338.911687
 30
0.0
 11
1774.115867
 21
1338.911687
 31
0.0
  0
LINE
  5
1ABB8
100
AcDbEntity
  8
0
100
AcDbLine
 10
1763.315867
 20
1337.912305
 30
0.0
 11
1763.315867
 21
1330.161687
 31
0.0
  0
LINE
  5
1ABB9
100
AcDbEntity
  8
0
100
AcDbLine
 10
1953.994892
 20
1231.788354
 30
0.0
 11
1936.376937
 21
1231.788354
 31
0.0
  0
CIRCLE
  5
1ABBA
100
AcDbEntity
  8
0
100
AcDbCircle
 10
1827.18946
 20
1313.574761
 30
0.0
 40
9.5
  0
ARC
  5
1ABBB
100
AcDbEntity
  8
0
100
AcDbCircle
 10
1810.752369
 20
1350.161687
 30
0.0
 40
20.0
100
AcDbArc
 50
270.0
 51
287.393473
  0
ARC
  5
1ABBC
100
AcDbEntity
  8
0
100
AcDbCircle
 10
1831.565867
 20
1324.631055
 30
0.0
 40
14.28125
100
AcDbArc
 50
88.270049
 51
111.568596
  0
ARC
  5
1ABBD
100
AcDbEntity
  8
0
100
AcDbCircle
 10
1869.593596
 20
1162.324122
 30
0.0
 40
176.838109
100
AcDbArc
 50
105.379568
 51
107.393473
  0
LINE
  5
1ABBE
100
AcDbEntity
  8
0
100
AcDbLine
 10
1826.315867
 20
1338.911687
 30
0.0
 11
1826.315867
 21
1335.42401
 31
0.0
  0
LINE
  5
1ABBF
100
AcDbEntity
  8
0
100
AcDbLine
 10
1826.315867
 20
1338.911687
 30
0.0
 11
1832.007615
 21
1338.911687
 31
0.0
  0
LINE
  5
1ABC0
100
AcDbEntity
  8
0
100
AcDbLine
 10
1860.99368
 20
1354.649799
 30
0.0
 11
1860.992594
 21
1348.167113
 31
0.0
  0
LINE
  5
1ABC1
100
AcDbEntity
  8
0
100
AcDbLine
 10
1860.116663
 20
1354.649946
 30
0.0
 11
1860.11556
 21
1348.063854
 31
0.0
  0
LINE
  5
1ABC2
100
AcDbEntity
  8
0
100
AcDbLine
 10
1879.116663
 20
1354.648354
 30
0.0
 11
1879.116663
 21
1348.063794
 31
0.0
  0
LINE
  5
1ABC3
100
AcDbEntity
  8
0
100
AcDbLine
 10
1878.239647
 20
1354.648354
 30
0.0
 11
1878.239647
 21
1348.167056
 31
0.0
  0
LINE
  5
1ABC4
100
AcDbEntity
  8
0
100
AcDbLine
 10
1870.49368
 20
1354.648354
 30
0.0
 11
1870.49368
 21
1348.643383
 31
0.0
  0
LINE
  5
1ABC5
100
AcDbEntity
  8
0
100
AcDbLine
 10
1868.739647
 20
1354.648501
 30
0.0
 11
1868.73864
 21
1348.643389
 31
0.0
  0
LINE
  5
1ABC6
100
AcDbEntity
  8
0
100
AcDbLine
 10
1859.115071
 20
1353.648354
 30
0.0
 11
1859.115071
 21
1347.933661
 31
0.0
  0
LINE
  5
1ABC7
100
AcDbEntity
  8
0
100
AcDbLine
 10
1880.116663
 20
1353.648354
 30
0.0
 11
1880.116663
 21
1347.933661
 31
0.0
  0
LINE
  5
1ABC8
100
AcDbEntity
  8
0
100
AcDbLine
 10
1860.115867
 20
1354.655021
 30
0.0
 11
1879.115867
 21
1354.655021
 31
0.0
  0
LINE
  5
1ABC9
100
AcDbEntity
  8
0
100
AcDbLine
 10
1879.116663
 20
1354.648354
 30
0.0
 11
1880.116663
 21
1353.648354
 31
0.0
  0
LINE
  5
1ABCA
100
AcDbEntity
  8
0
100
AcDbLine
 10
1860.116663
 20
1354.649946
 30
0.0
 11
1859.116496
 21
1353.650114
 31
0.0
  0
CIRCLE
  5
1ABCB
100
AcDbEntity
  8
0
100
AcDbCircle
 10
1912.042274
 20
1313.574761
 30
0.0
 40
9.5
  0
ARC
  5
1ABCC
100
AcDbEntity
  8
0
100
AcDbCircle
 10
1869.638138
 20
1162.324122
 30
0.0
 40
176.838109
100
AcDbArc
 50
72.606527
 51
74.620432
  0
ARC
  5
1ABCD
100
AcDbEntity
  8
0
100
AcDbCircle
 10
1907.665867
 20
1324.631055
 30
0.0
 40
14.28125
100
AcDbArc
 50
68.431404
 51
91.729951
  0
LINE
  5
1ABCE
100
AcDbEntity
  8
0
100
AcDbLine
 10
1912.915867
 20
1338.911687
 30
0.0
 11
1912.915867
 21
1335.42401
 31
0.0
  0
LINE
  5
1ABCF
100
AcDbEntity
  8
0
100
AcDbLine
 10
1912.915867
 20
1338.911687
 30
0.0
 11
1907.22412
 21
1338.911687
 31
0.0
  0
ARC
  5
1ABD0
100
AcDbEntity
  8
0
100
AcDbCircle
 10
1928.479365
 20
1350.161687
 30
0.0
 40
20.0
100
AcDbArc
 50
252.606527
 51
270.0
  0
LINE
  5
1ABD1
100
AcDbEntity
  8
0
100
AcDbLine
 10
1944.115867
 20
1338.911687
 30
0.0
 11
1944.115867
 21
1330.161687
 31
0.0
  0
LINE
  5
1ABD2
100
AcDbEntity
  8
0
100
AcDbLine
 10
1954.615867
 20
1337.912305
 30
0.0
 11
1954.615867
 21
1330.161687
 31
0.0
  0
ARC
  5
1ABD3
100
AcDbEntity
  8
0
100
AcDbCircle
 10
1949.365867
 20
1324.631055
 30
0.0
 40
14.28125
100
AcDbArc
 50
68.431404
 51
111.568596
  0
LINE
  5
1ABD4
100
AcDbEntity
  8
0
100
AcDbLine
 10
2182.435931
 20
1238.148354
 30
0.0
 11
2168.969264
 21
1235.295021
 31
0.0
  0
LINE
  5
1ABD5
100
AcDbEntity
  8
0
100
AcDbLine
 10
2168.969264
 20
1307.015021
 30
0.0
 11
2182.435931
 21
1304.148354
 31
0.0
  0
LINE
  5
1ABD6
100
AcDbEntity
  8
0
100
AcDbLine
 10
2144.435931
 20
1348.655021
 30
0.0
 11
2144.435931
 21
1271.155021
 31
0.0
  0
LINE
  5
1ABD7
100
AcDbEntity
  8
0
100
AcDbLine
 10
2144.435931
 20
1307.648354
 30
0.0
 11
2144.435931
 21
1271.148354
 31
0.0
  0
LINE
  5
1ABD8
100
AcDbEntity
  8
0
100
AcDbLine
 10
1991.115867
 20
1308.148354
 30
0.0
 11
1991.115867
 21
1288.148354
 31
0.0
  0
LINE
  5
1ABD9
100
AcDbEntity
  8
0
100
AcDbLine
 10
1965.6092
 20
1263.148354
 30
0.0
 11
1965.6092
 21
1233.828354
 31
0.0
  0
ARC
  5
1ABDA
100
AcDbEntity
  8
0
100
AcDbCircle
 10
1955.57879
 20
1233.852118
 30
0.0
 40
10.043772
100
AcDbArc
 50
329.987629
 51
359.864436
  0
LINE
  5
1ABDB
100
AcDbEntity
  8
0
100
AcDbLine
 10
1969.615611
 20
1288.148354
 30
0.0
 11
1965.6092
 21
1263.148354
 31
0.0
  0
LINE
  5
1ABDC
100
AcDbEntity
  8
0
100
AcDbLine
 10
2144.435931
 20
1271.148354
 30
0.0
 11
2144.435931
 21
1234.648354
 31
0.0
  0
ARC
  5
1ABDD
100
AcDbEntity
  8
0
100
AcDbCircle
 10
2170.441832
 20
1229.472443
 30
0.0
 40
6.005902
100
AcDbArc
 50
104.192869
 51
180.039012
  0
LINE
  5
1ABDE
100
AcDbEntity
  8
0
100
AcDbLine
 10
1991.115867
 20
1310.161687
 30
0.0
 11
1991.115867
 21
1330.161687
 31
0.0
  0
LINE
  5
1ABDF
100
AcDbEntity
  8
0
100
AcDbLine
 10
1965.862534
 20
1308.148354
 30
0.0
 11
1965.862534
 21
1310.161687
 31
0.0
  0
LINE
  5
1ABE0
100
AcDbEntity
  8
0
100
AcDbLine
 10
1965.862534
 20
1310.161687
 30
0.0
 11
1991.115867
 21
1310.161687
 31
0.0
  0
LINE
  5
1ABE1
100
AcDbEntity
  8
0
100
AcDbLine
 10
1965.115867
 20
1338.911687
 30
0.0
 11
1965.115867
 21
1330.161687
 31
0.0
  0
LINE
  5
1ABE2
100
AcDbEntity
  8
0
100
AcDbLine
 10
1975.915867
 20
1337.912305
 30
0.0
 11
1975.915867
 21
1330.161687
 31
0.0
  0
LINE
  5
1ABE3
100
AcDbEntity
  8
0
100
AcDbLine
 10
1965.415867
 20
1338.911687
 30
0.0
 11
1965.415867
 21
1330.161687
 31
0.0
  0
LINE
  5
1ABE4
100
AcDbEntity
  8
0
100
AcDbLine
 10
1986.415867
 20
1338.911687
 30
0.0
 11
1986.415867
 21
1330.161687
 31
0.0
  0
ARC
  5
1ABE5
100
AcDbEntity
  8
0
100
AcDbCircle
 10
1970.665867
 20
1324.631055
 30
0.0
 40
14.28125
100
AcDbArc
 50
68.431404
 51
111.568596
  0
ARC
  5
1ABE6
100
AcDbEntity
  8
0
100
AcDbCircle
 10
1981.165867
 20
1324.631055
 30
0.0
 40
14.28125
100
AcDbArc
 50
68.431404
 51
111.568596
  0
LINE
  5
1ABE7
100
AcDbEntity
  8
0
100
AcDbLine
 10
1965.415867
 20
1338.911687
 30
0.0
 11
1986.415867
 21
1338.911687
 31
0.0
  0
ARC
  5
1ABE8
100
AcDbEntity
  8
0
100
AcDbCircle
 10
2170.441832
 20
1312.837598
 30
0.0
 40
6.005902
100
AcDbArc
 50
179.960988
 51
255.807131
  0
LINE
  5
1ABE9
100
AcDbEntity
  8
0
100
AcDbLine
 10
2144.435931
 20
1348.655021
 30
0.0
 11
2164.435931
 21
1348.655021
 31
0.0
  0
LINE
  5
1ABEA
100
AcDbEntity
  8
0
100
AcDbLine
 10
2182.435931
 20
1248.335021
 30
0.0
 11
2182.435931
 21
1293.975021
 31
0.0
  0
LINE
  5
1ABEB
100
AcDbEntity
  8
0
100
AcDbLine
 10
2197.929264
 20
1308.148354
 30
0.0
 11
2197.929264
 21
1288.148354
 31
0.0
  0
LINE
  5
1ABEC
100
AcDbEntity
  8
0
100
AcDbLine
 10
2223.435931
 20
1263.148354
 30
0.0
 11
2223.435931
 21
1233.828354
 31
0.0
  0
LINE
  5
1ABED
100
AcDbEntity
  8
0
100
AcDbLine
 10
2215.809264
 20
1238.148354
 30
0.0
 11
2182.435931
 21
1238.148354
 31
0.0
  0
ARC
  5
1ABEE
100
AcDbEntity
  8
0
100
AcDbCircle
 10
2233.440176
 20
1233.845265
 30
0.0
 40
10.01769
100
AcDbArc
 50
191.848692
 51
210.053284
  0
ARC
  5
1ABEF
100
AcDbEntity
  8
0
100
AcDbCircle
 10
2215.810006
 20
1230.153488
 30
0.0
 40
7.994866
100
AcDbArc
 50
11.799615
 51
90.005319
  0
ARC
  5
1ABF0
100
AcDbEntity
  8
0
100
AcDbCircle
 10
2232.925396
 20
1233.72889
 30
0.0
 40
9.489986
100
AcDbArc
 50
179.399474
 51
191.799205
  0
LINE
  5
1ABF1
100
AcDbEntity
  8
0
100
AcDbLine
 10
2219.42952
 20
1288.148354
 30
0.0
 11
2223.435931
 21
1263.148354
 31
0.0
  0
ARC
  5
1ABF2
100
AcDbEntity
  8
0
100
AcDbCircle
 10
2257.123035
 20
1317.093191
 30
0.0
 40
21.571502
100
AcDbArc
 50
73.680185
 51
106.319815
  0
LINE
  5
1ABF3
100
AcDbEntity
  8
0
100
AcDbLine
 10
2267.313722
 20
1338.911687
 30
0.0
 11
2246.931472
 21
1338.911687
 31
0.0
  0
LINE
  5
1ABF4
100
AcDbEntity
  8
0
100
AcDbLine
 10
2197.929264
 20
1310.161687
 30
0.0
 11
2197.929264
 21
1330.161687
 31
0.0
  0
LINE
  5
1ABF5
100
AcDbEntity
  8
0
100
AcDbLine
 10
2223.182597
 20
1310.161687
 30
0.0
 11
2197.929264
 21
1310.161687
 31
0.0
  0
ARC
  5
1ABF6
100
AcDbEntity
  8
0
100
AcDbCircle
 10
2193.923243
 20
1308.154376
 30
0.0
 40
4.006026
100
AcDbArc
 50
270.086122
 51
359.913878
  0
LINE
  5
1ABF7
100
AcDbEntity
  8
0
100
AcDbLine
 10
2182.435931
 20
1304.148354
 30
0.0
 11
2193.929264
 21
1304.148354
 31
0.0
  0
LINE
  5
1ABF8
100
AcDbEntity
  8
0
100
AcDbLine
 10
2223.182597
 20
1308.148354
 30
0.0
 11
2223.182597
 21
1310.161687
 31
0.0
  0
ARC
  5
1ABF9
100
AcDbEntity
  8
0
100
AcDbCircle
 10
2218.616368
 20
1317.093191
 30
0.0
 40
21.571502
100
AcDbArc
 50
73.680185
 51
106.319815
  0
LINE
  5
1ABFA
100
AcDbEntity
  8
0
100
AcDbLine
 10
2228.807056
 20
1338.911687
 30
0.0
 11
2208.424806
 21
1338.911687
 31
0.0
  0
LINE
  5
1ABFB
100
AcDbEntity
  8
0
100
AcDbLine
 10
2206.491931
 20
1337.795537
 30
0.0
 11
2206.491931
 21
1330.161687
 31
0.0
  0
LINE
  5
1ABFC
100
AcDbEntity
  8
0
100
AcDbLine
 10
2212.554806
 20
1337.795537
 30
0.0
 11
2212.554806
 21
1330.161687
 31
0.0
  0
LINE
  5
1ABFD
100
AcDbEntity
  8
0
100
AcDbLine
 10
2208.424806
 20
1338.911687
 30
0.0
 11
2206.491931
 21
1337.795537
 31
0.0
  0
ARC
  5
1ABFE
100
AcDbEntity
  8
0
100
AcDbCircle
 10
2209.523368
 20
1332.944315
 30
0.0
 40
5.720487
100
AcDbArc
 50
57.999511
 51
122.000489
  0
LINE
  5
1ABFF
100
AcDbEntity
  8
0
100
AcDbLine
 10
2244.998597
 20
1337.795537
 30
0.0
 11
2244.998597
 21
1330.161687
 31
0.0
  0
LINE
  5
1AC00
100
AcDbEntity
  8
0
100
AcDbLine
 10
2251.061472
 20
1337.795537
 30
0.0
 11
2251.061472
 21
1330.161687
 31
0.0
  0
LINE
  5
1AC01
100
AcDbEntity
  8
0
100
AcDbLine
 10
2224.677931
 20
1337.795537
 30
0.0
 11
2224.677931
 21
1330.161687
 31
0.0
  0
LINE
  5
1AC02
100
AcDbEntity
  8
0
100
AcDbLine
 10
2230.739931
 20
1330.161687
 30
0.0
 11
2230.739931
 21
1337.795537
 31
0.0
  0
ARC
  5
1AC03
100
AcDbEntity
  8
0
100
AcDbCircle
 10
2235.487735
 20
1336.160213
 30
0.0
 40
5.998525
100
AcDbArc
 50
270.014603
 51
353.63323
  0
ARC
  5
1AC04
100
AcDbEntity
  8
0
100
AcDbCircle
 10
2244.433398
 20
1335.158657
 30
0.0
 40
3.003032
100
AcDbArc
 50
71.785212
 51
173.568913
  0
LINE
  5
1AC05
100
AcDbEntity
  8
0
100
AcDbLine
 10
2246.931472
 20
1338.911687
 30
0.0
 11
2244.998597
 21
1337.795537
 31
0.0
  0
ARC
  5
1AC06
100
AcDbEntity
  8
0
100
AcDbCircle
 10
2248.030035
 20
1332.944315
 30
0.0
 40
5.720487
100
AcDbArc
 50
57.999511
 51
122.000489
  0
ARC
  5
1AC07
100
AcDbEntity
  8
0
100
AcDbCircle
 10
2227.709368
 20
1332.944295
 30
0.0
 40
5.720504
100
AcDbArc
 50
57.999617
 51
122.000383
  0
LINE
  5
1AC08
100
AcDbEntity
  8
0
100
AcDbLine
 10
2230.739931
 20
1337.795537
 30
0.0
 11
2228.807056
 21
1338.911687
 31
0.0
  0
ARC
  5
1AC09
100
AcDbEntity
  8
0
100
AcDbCircle
 10
2319.406993
 20
1162.324122
 30
0.0
 40
176.838109
100
AcDbArc
 50
96.414924
 51
106.283739
  0
LINE
  5
1AC0A
100
AcDbEntity
  8
0
100
AcDbLine
 10
2263.184597
 20
1337.795537
 30
0.0
 11
2263.184597
 21
1330.161687
 31
0.0
  0
LINE
  5
1AC0B
100
AcDbEntity
  8
0
100
AcDbLine
 10
2269.246597
 20
1330.161687
 30
0.0
 11
2269.246597
 21
1337.795537
 31
0.0
  0
LINE
  5
1AC0C
100
AcDbEntity
  8
0
100
AcDbLine
 10
2268.612523
 20
1338.161687
 30
0.0
 11
2274.435931
 21
1338.161687
 31
0.0
  0
ARC
  5
1AC0D
100
AcDbEntity
  8
0
100
AcDbCircle
 10
2266.216035
 20
1332.944295
 30
0.0
 40
5.720504
100
AcDbArc
 50
57.999617
 51
122.000383
  0
LINE
  5
1AC0E
100
AcDbEntity
  8
0
100
AcDbLine
 10
2269.246597
 20
1337.795537
 30
0.0
 11
2267.313722
 21
1338.911687
 31
0.0
  0
LINE
  5
1AC0F
100
AcDbEntity
  8
0
100
AcDbLine
 10
2274.435931
 20
1338.161687
 30
0.0
 11
2282.435931
 21
1335.255021
 31
0.0
  0
ARC
  5
1AC10
100
AcDbEntity
  8
0
100
AcDbCircle
 10
2299.431291
 20
1340.047784
 30
0.0
 40
2.004649
100
AcDbArc
 50
276.242327
 51
359.825752
  0
LINE
  5
1AC11
100
AcDbEntity
  8
0
100
AcDbLine
 10
2325.491264
 20
1337.795537
 30
0.0
 11
2325.491264
 21
1330.161687
 31
0.0
  0
LINE
  5
1AC12
100
AcDbEntity
  8
0
100
AcDbLine
 10
2313.368139
 20
1337.795537
 30
0.0
 11
2313.368139
 21
1330.161687
 31
0.0
  0
LINE
  5
1AC13
100
AcDbEntity
  8
0
100
AcDbLine
 10
2307.305264
 20
1337.795537
 30
0.0
 11
2307.305264
 21
1330.161687
 31
0.0
  0
LINE
  5
1AC14
100
AcDbEntity
  8
0
100
AcDbLine
 10
2301.435931
 20
1344.161687
 30
0.0
 11
2303.435931
 21
1346.161687
 31
0.0
  0
ARC
  5
1AC15
100
AcDbEntity
  8
0
100
AcDbCircle
 10
2310.336702
 20
1332.944315
 30
0.0
 40
5.720487
100
AcDbArc
 50
57.999511
 51
122.000489
  0
LINE
  5
1AC16
100
AcDbEntity
  8
0
100
AcDbLine
 10
2309.238139
 20
1338.911687
 30
0.0
 11
2307.305264
 21
1337.795537
 31
0.0
  0
LINE
  5
1AC17
100
AcDbEntity
  8
0
100
AcDbLine
 10
2329.620389
 20
1338.911687
 30
0.0
 11
2309.238139
 21
1338.911687
 31
0.0
  0
ARC
  5
1AC18
100
AcDbEntity
  8
0
100
AcDbCircle
 10
2319.429702
 20
1317.093191
 30
0.0
 40
21.571502
100
AcDbArc
 50
73.680185
 51
106.319815
  0
LINE
  5
1AC19
100
AcDbEntity
  8
0
100
AcDbLine
 10
2301.435931
 20
1340.041687
 30
0.0
 11
2301.435931
 21
1344.161687
 31
0.0
  0
LINE
  5
1AC1A
100
AcDbEntity
  8
0
100
AcDbLine
 10
2308.929264
 20
1347.655021
 30
0.0
 11
2313.435931
 21
1347.655021
 31
0.0
  0
LINE
  5
1AC1B
100
AcDbEntity
  8
0
100
AcDbLine
 10
2313.435931
 20
1347.655021
 30
0.0
 11
2313.435931
 21
1354.655021
 31
0.0
  0
LINE
  5
1AC1C
100
AcDbEntity
  8
0
100
AcDbLine
 10
2314.969264
 20
1354.655021
 30
0.0
 11
2314.969264
 21
1347.655021
 31
0.0
  0
LINE
  5
1AC1D
100
AcDbEntity
  8
0
100
AcDbLine
 10
2314.969264
 20
1347.655021
 30
0.0
 11
2323.902597
 21
1347.655021
 31
0.0
  0
LINE
  5
1AC1E
100
AcDbEntity
  8
0
100
AcDbLine
 10
2323.902597
 20
1347.655021
 30
0.0
 11
2323.902597
 21
1354.655021
 31
0.0
  0
LINE
  5
1AC1F
100
AcDbEntity
  8
0
100
AcDbLine
 10
2325.422597
 20
1354.655021
 30
0.0
 11
2325.422597
 21
1347.655021
 31
0.0
  0
LINE
  5
1AC20
100
AcDbEntity
  8
0
100
AcDbLine
 10
2325.422597
 20
1347.655021
 30
0.0
 11
2329.929264
 21
1347.655021
 31
0.0
  0
LINE
  5
1AC21
100
AcDbEntity
  8
0
100
AcDbLine
 10
2309.929264
 20
1354.655021
 30
0.0
 11
2308.929264
 21
1353.655021
 31
0.0
  0
LINE
  5
1AC22
100
AcDbEntity
  8
0
100
AcDbLine
 10
2308.929264
 20
1353.655021
 30
0.0
 11
2308.929264
 21
1346.161687
 31
0.0
  0
LINE
  5
1AC23
100
AcDbEntity
  8
0
100
AcDbLine
 10
2309.435931
 20
1346.161687
 30
0.0
 11
2329.435931
 21
1346.161687
 31
0.0
  0
LINE
  5
1AC24
100
AcDbEntity
  8
0
100
AcDbLine
 10
2329.929264
 20
1346.161687
 30
0.0
 11
2329.929264
 21
1353.655021
 31
0.0
  0
LINE
  5
1AC25
100
AcDbEntity
  8
0
100
AcDbLine
 10
2329.929264
 20
1353.655021
 30
0.0
 11
2328.929264
 21
1354.655021
 31
0.0
  0
LINE
  5
1AC26
100
AcDbEntity
  8
0
100
AcDbLine
 10
2328.929264
 20
1354.655021
 30
0.0
 11
2309.929264
 21
1354.655021
 31
0.0
  0
ARC
  5
1AC27
100
AcDbEntity
  8
0
100
AcDbCircle
 10
1005.22537
 20
2001.625276
 30
0.0
 40
88.795071
100
AcDbArc
 50
230.657752
 51
0.083618
  0
LINE
  5
1AC28
100
AcDbEntity
  8
0
100
AcDbLine
 10
1005.020347
 20
1912.754865
 30
0.0
 11
1061.669076
 21
1912.754865
 31
0.0
  0
LINE
  5
1AC29
100
AcDbEntity
  8
0
100
AcDbLine
 10
1021.218703
 20
2206.768198
 30
0.0
 11
989.218703
 21
2206.768198
 31
0.0
  0
LINE
  5
1AC2A
100
AcDbEntity
  8
0
100
AcDbLine
 10
1101.472037
 20
2170.768198
 30
0.0
 11
908.978703
 21
2170.768198
 31
0.0
  0
LINE
  5
1AC2B
100
AcDbEntity
  8
0
100
AcDbLine
 10
1126.72537
 20
2168.754865
 30
0.0
 11
883.72537
 21
2168.754865
 31
0.0
  0
LINE
  5
1AC2C
100
AcDbEntity
  8
0
100
AcDbLine
 10
1126.72537
 20
2190.768198
 30
0.0
 11
885.72537
 21
2190.768198
 31
0.0
  0
LINE
  5
1AC2D
100
AcDbEntity
  8
0
100
AcDbLine
 10
1126.72537
 20
2148.754865
 30
0.0
 11
883.72537
 21
2148.754865
 31
0.0
  0
LINE
  5
1AC2E
100
AcDbEntity
  8
0
100
AcDbLine
 10
1074.55368
 20
2089.634865
 30
0.0
 11
935.500347
 21
2089.634865
 31
0.0
  0
LINE
  5
1AC2F
100
AcDbEntity
  8
0
100
AcDbLine
 10
1085.380347
 20
2123.754865
 30
0.0
 11
924.67368
 21
2123.754865
 31
0.0
  0
LINE
  5
1AC30
100
AcDbEntity
  8
0
100
AcDbLine
 10
1084.767014
 20
2102.394865
 30
0.0
 11
925.287014
 21
2102.394865
 31
0.0
  0
CIRCLE
  5
1AC31
100
AcDbEntity
  8
0
100
AcDbCircle
 10
985.622083
 20
1663.559913
 30
0.0
 40
121.500133
  0
ARC
  5
1AC32
100
AcDbEntity
  8
0
100
AcDbCircle
 10
985.618663
 20
1663.561739
 30
0.0
 40
55.727962
100
AcDbArc
 50
204.017132
 51
337.386082
  0
ARC
  5
1AC33
100
AcDbEntity
  8
0
100
AcDbCircle
 10
985.618664
 20
1663.558172
 30
0.0
 40
55.727928
100
AcDbArc
 50
22.613838
 51
155.982948
  0
LINE
  5
1AC34
100
AcDbEntity
  8
0
100
AcDbLine
 10
994.595416
 20
1647.06658
 30
0.0
 11
1104.235416
 21
1647.06658
 31
0.0
  0
LINE
  5
1AC35
100
AcDbEntity
  8
0
100
AcDbLine
 10
994.595416
 20
1680.06658
 30
0.0
 11
1104.235416
 21
1680.06658
 31
0.0
  0
ARC
  5
1AC36
100
AcDbEntity
  8
0
100
AcDbCircle
 10
852.896735
 20
2000.365797
 30
0.0
 40
10.003928
100
AcDbArc
 50
308.911151
 51
2.993323
  0
TEXT
  5
1AC37
100
AcDbEntity
  8
0
100
AcDbText
 10
217.848882
 20
1663.559913
 30
0.0
 40
52.5
  1
平面
100
AcDbText
  0
LINE
  5
1AC38
100
AcDbEntity
  8
0
100
AcDbLine
 10
1006.622083
 20
1746.559913
 30
0.0
 11
1006.622083
 21
1719.559913
 31
0.0
  0
LINE
  5
1AC39
100
AcDbEntity
  8
0
100
AcDbLine
 10
964.622083
 20
1719.559913
 30
0.0
 11
964.622083
 21
1746.559913
 31
0.0
  0
CIRCLE
  5
1AC3A
100
AcDbEntity
  8
0
100
AcDbCircle
 10
923.152188
 20
1749.542348
 30
0.0
 40
12.0
  0
LINE
  5
1AC3B
100
AcDbEntity
  8
0
100
AcDbLine
 10
911.942125
 20
1741.39776
 30
0.0
 11
910.493733
 21
1755.178258
 31
0.0
  0
LINE
  5
1AC3C
100
AcDbEntity
  8
0
100
AcDbLine
 10
935.810642
 20
1743.906437
 30
0.0
 11
924.600579
 21
1735.76185
 31
0.0
  0
LINE
  5
1AC3D
100
AcDbEntity
  8
0
100
AcDbLine
 10
830.423727
 20
1593.559913
 30
0.0
 11
830.423727
 21
1733.559913
 31
0.0
  0
LINE
  5
1AC3E
100
AcDbEntity
  8
0
100
AcDbLine
 10
810.423727
 20
1663.559913
 30
0.0
 11
810.423727
 21
1593.559913
 31
0.0
  0
LINE
  5
1AC3F
100
AcDbEntity
  8
0
100
AcDbLine
 10
810.423727
 20
1593.559913
 30
0.0
 11
830.423727
 21
1593.559913
 31
0.0
  0
LINE
  5
1AC40
100
AcDbEntity
  8
0
100
AcDbLine
 10
999.478483
 20
1557.279779
 30
0.0
 11
992.550283
 21
1545.279779
 31
0.0
  0
LINE
  5
1AC41
100
AcDbEntity
  8
0
100
AcDbLine
 10
978.693883
 20
1545.279779
 30
0.0
 11
971.765683
 21
1557.279779
 31
0.0
  0
CIRCLE
  5
1AC42
100
AcDbEntity
  8
0
100
AcDbCircle
 10
985.622083
 20
1557.279779
 30
0.0
 40
12.0
  0
LINE
  5
1AC43
100
AcDbEntity
  8
0
100
AcDbLine
 10
992.550283
 20
1545.279779
 30
0.0
 11
978.693883
 21
1545.279779
 31
0.0
  0
CIRCLE
  5
1AC44
100
AcDbEntity
  8
0
100
AcDbCircle
 10
923.152188
 20
1577.577479
 30
0.0
 40
12.0
  0
LINE
  5
1AC45
100
AcDbEntity
  8
0
100
AcDbLine
 10
910.493733
 20
1571.941569
 30
0.0
 11
911.942125
 21
1585.722066
 31
0.0
  0
LINE
  5
1AC46
100
AcDbEntity
  8
0
100
AcDbLine
 10
935.810642
 20
1583.213389
 30
0.0
 11
934.362251
 21
1569.432891
 31
0.0
  0
LINE
  5
1AC47
100
AcDbEntity
  8
0
100
AcDbLine
 10
934.362251
 20
1569.432891
 30
0.0
 11
921.703796
 21
1563.796981
 31
0.0
  0
LINE
  5
1AC48
100
AcDbEntity
  8
0
100
AcDbLine
 10
921.703796
 20
1563.796981
 30
0.0
 11
910.493733
 21
1571.941569
 31
0.0
  0
LINE
  5
1AC49
100
AcDbEntity
  8
0
100
AcDbLine
 10
924.600579
 20
1591.357976
 30
0.0
 11
935.810642
 21
1583.213389
 31
0.0
  0
LINE
  5
1AC4A
100
AcDbEntity
  8
0
100
AcDbLine
 10
911.942125
 20
1585.722066
 30
0.0
 11
924.600579
 21
1591.357976
 31
0.0
  0
LINE
  5
1AC4B
100
AcDbEntity
  8
0
100
AcDbLine
 10
978.693883
 20
1569.279779
 30
0.0
 11
992.550283
 21
1569.279779
 31
0.0
  0
LINE
  5
1AC4C
100
AcDbEntity
  8
0
100
AcDbLine
 10
971.765683
 20
1557.279779
 30
0.0
 11
978.693883
 21
1569.279779
 31
0.0
  0
LINE
  5
1AC4D
100
AcDbEntity
  8
0
100
AcDbLine
 10
992.550283
 20
1569.279779
 30
0.0
 11
999.478483
 21
1557.279779
 31
0.0
  0
LINE
  5
1AC4E
100
AcDbEntity
  8
0
100
AcDbLine
 10
846.423727
 20
1635.559913
 30
0.0
 11
867.392297
 21
1635.559913
 31
0.0
  0
LINE
  5
1AC4F
100
AcDbEntity
  8
0
100
AcDbLine
 10
846.218703
 20
1691.559913
 30
0.0
 11
867.392297
 21
1691.559913
 31
0.0
  0
LINE
  5
1AC50
100
AcDbEntity
  8
0
100
AcDbLine
 10
810.423727
 20
1733.559913
 30
0.0
 11
810.423727
 21
1663.559913
 31
0.0
  0
LINE
  5
1AC51
100
AcDbEntity
  8
0
100
AcDbLine
 10
830.423727
 20
1631.559913
 30
0.0
 11
846.423727
 21
1635.559913
 31
0.0
  0
LINE
  5
1AC52
100
AcDbEntity
  8
0
100
AcDbLine
 10
830.423727
 20
1695.559913
 30
0.0
 11
846.218703
 21
1691.559913
 31
0.0
  0
LINE
  5
1AC53
100
AcDbEntity
  8
0
100
AcDbLine
 10
810.423727
 20
1733.559913
 30
0.0
 11
830.423727
 21
1733.559913
 31
0.0
  0
CIRCLE
  5
1AC54
100
AcDbEntity
  8
0
100
AcDbCircle
 10
985.622083
 20
1663.559913
 30
0.0
 40
18.0
  0
CIRCLE
  5
1AC55
100
AcDbEntity
  8
0
100
AcDbCircle
 10
925.622083
 20
1663.559913
 30
0.0
 40
18.0
  0
ARC
  5
1AC56
100
AcDbEntity
  8
0
100
AcDbCircle
 10
927.41451
 20
1637.625711
 30
0.0
 40
7.993314
100
AcDbArc
 50
24.023762
 51
93.962931
  0
LINE
  5
1AC57
100
AcDbEntity
  8
0
100
AcDbLine
 10
898.097279
 20
1627.83664
 30
0.0
 11
888.825532
 21
1617.539326
 31
0.0
  0
LINE
  5
1AC58
100
AcDbEntity
  8
0
100
AcDbLine
 10
875.271923
 20
1620.420232
 30
0.0
 11
870.99006
 21
1633.598451
 31
0.0
  0
CIRCLE
  5
1AC59
100
AcDbEntity
  8
0
100
AcDbCircle
 10
884.543669
 20
1630.717546
 30
0.0
 40
12.0
  0
LINE
  5
1AC5A
100
AcDbEntity
  8
0
100
AcDbLine
 10
888.825532
 20
1617.539326
 30
0.0
 11
875.271923
 21
1620.420232
 31
0.0
  0
LINE
  5
1AC5B
100
AcDbEntity
  8
0
100
AcDbLine
 10
893.815416
 20
1641.014859
 30
0.0
 11
898.097279
 21
1627.83664
 31
0.0
  0
LINE
  5
1AC5C
100
AcDbEntity
  8
0
100
AcDbLine
 10
870.99006
 20
1633.598451
 30
0.0
 11
880.261806
 21
1643.895765
 31
0.0
  0
LINE
  5
1AC5D
100
AcDbEntity
  8
0
100
AcDbLine
 10
880.261806
 20
1643.895765
 30
0.0
 11
893.815416
 21
1641.014859
 31
0.0
  0
LINE
  5
1AC5E
100
AcDbEntity
  8
0
100
AcDbLine
 10
984.622083
 20
1653.10658
 30
0.0
 11
976.995416
 21
1657.559913
 31
0.0
  0
LINE
  5
1AC5F
100
AcDbEntity
  8
0
100
AcDbLine
 10
976.995416
 20
1669.559913
 30
0.0
 11
984.742083
 21
1674.02658
 31
0.0
  0
LINE
  5
1AC60
100
AcDbEntity
  8
0
100
AcDbLine
 10
976.115416
 20
1659.093246
 30
0.0
 11
976.115416
 21
1668.039913
 31
0.0
  0
LINE
  5
1AC61
100
AcDbEntity
  8
0
100
AcDbLine
 10
976.995416
 20
1657.559913
 30
0.0
 11
976.115416
 21
1659.093246
 31
0.0
  0
LINE
  5
1AC62
100
AcDbEntity
  8
0
100
AcDbLine
 10
976.115416
 20
1668.039913
 30
0.0
 11
976.995416
 21
1669.559913
 31
0.0
  0
ARC
  5
1AC63
100
AcDbEntity
  8
0
100
AcDbCircle
 10
994.496951
 20
1637.749903
 30
0.0
 40
9.303865
100
AcDbArc
 50
89.393612
 51
106.750243
  0
LINE
  5
1AC64
100
AcDbEntity
  8
0
100
AcDbLine
 10
986.635416
 20
1674.02658
 30
0.0
 11
994.195416
 21
1669.613246
 31
0.0
  0
LINE
  5
1AC65
100
AcDbEntity
  8
0
100
AcDbLine
 10
995.142083
 20
1667.98658
 30
0.0
 11
995.115416
 21
1659.093246
 31
0.0
  0
LINE
  5
1AC66
100
AcDbEntity
  8
0
100
AcDbLine
 10
994.235416
 20
1657.573246
 30
0.0
 11
986.48875
 21
1653.093246
 31
0.0
  0
LINE
  5
1AC67
100
AcDbEntity
  8
0
100
AcDbLine
 10
986.48875
 20
1653.093246
 30
0.0
 11
984.622083
 21
1653.10658
 31
0.0
  0
LINE
  5
1AC68
100
AcDbEntity
  8
0
100
AcDbLine
 10
995.115416
 20
1659.093246
 30
0.0
 11
994.235416
 21
1657.573246
 31
0.0
  0
LINE
  5
1AC69
100
AcDbEntity
  8
0
100
AcDbLine
 10
994.195416
 20
1669.613246
 30
0.0
 11
995.142083
 21
1667.98658
 31
0.0
  0
LINE
  5
1AC6A
100
AcDbEntity
  8
0
100
AcDbLine
 10
984.742083
 20
1674.02658
 30
0.0
 11
986.635416
 21
1674.02658
 31
0.0
  0
CIRCLE
  5
1AC6B
100
AcDbEntity
  8
0
100
AcDbCircle
 10
884.543669
 20
1696.402281
 30
0.0
 40
12.0
  0
LINE
  5
1AC6C
100
AcDbEntity
  8
0
100
AcDbLine
 10
870.99006
 20
1693.521375
 30
0.0
 11
875.271923
 21
1706.699594
 31
0.0
  0
LINE
  5
1AC6D
100
AcDbEntity
  8
0
100
AcDbLine
 10
898.097279
 20
1699.283186
 30
0.0
 11
893.815416
 21
1686.104967
 31
0.0
  0
LINE
  5
1AC6E
100
AcDbEntity
  8
0
100
AcDbLine
 10
880.261806
 20
1683.224061
 30
0.0
 11
870.99006
 21
1693.521375
 31
0.0
  0
LINE
  5
1AC6F
100
AcDbEntity
  8
0
100
AcDbLine
 10
893.815416
 20
1686.104967
 30
0.0
 11
880.261806
 21
1683.224061
 31
0.0
  0
LINE
  5
1AC70
100
AcDbEntity
  8
0
100
AcDbLine
 10
888.825532
 20
1709.5805
 30
0.0
 11
898.097279
 21
1699.283186
 31
0.0
  0
LINE
  5
1AC71
100
AcDbEntity
  8
0
100
AcDbLine
 10
875.271923
 20
1706.699594
 30
0.0
 11
888.825532
 21
1709.5805
 31
0.0
  0
ARC
  5
1AC72
100
AcDbEntity
  8
0
100
AcDbCircle
 10
927.414549
 20
1689.49405
 30
0.0
 40
7.993252
100
AcDbArc
 50
266.036756
 51
335.97655
  0
LINE
  5
1AC73
100
AcDbEntity
  8
0
100
AcDbLine
 10
924.600579
 20
1735.76185
 30
0.0
 11
911.942125
 21
1741.39776
 31
0.0
  0
ARC
  5
1AC74
100
AcDbEntity
  8
0
100
AcDbCircle
 10
994.496951
 20
1689.369923
 30
0.0
 40
9.303865
100
AcDbArc
 50
253.249757
 51
270.606388
  0
LINE
  5
1AC75
100
AcDbEntity
  8
0
100
AcDbLine
 10
1006.622083
 20
1719.559913
 30
0.0
 11
964.622083
 21
1719.559913
 31
0.0
  0
LINE
  5
1AC76
100
AcDbEntity
  8
0
100
AcDbLine
 10
934.362251
 20
1757.686935
 30
0.0
 11
935.810642
 21
1743.906437
 31
0.0
  0
LINE
  5
1AC77
100
AcDbEntity
  8
0
100
AcDbLine
 10
921.703796
 20
1763.322845
 30
0.0
 11
934.362251
 21
1757.686935
 31
0.0
  0
LINE
  5
1AC78
100
AcDbEntity
  8
0
100
AcDbLine
 10
910.493733
 20
1755.178258
 30
0.0
 11
921.703796
 21
1763.322845
 31
0.0
  0
CIRCLE
  5
1AC79
100
AcDbEntity
  8
0
100
AcDbCircle
 10
985.622083
 20
1769.840047
 30
0.0
 40
12.0
  0
LINE
  5
1AC7A
100
AcDbEntity
  8
0
100
AcDbLine
 10
971.765683
 20
1769.840047
 30
0.0
 11
978.693883
 21
1781.840047
 31
0.0
  0
LINE
  5
1AC7B
100
AcDbEntity
  8
0
100
AcDbLine
 10
992.550283
 20
1781.840047
 30
0.0
 11
999.478483
 21
1769.840047
 31
0.0
  0
LINE
  5
1AC7C
100
AcDbEntity
  8
0
100
AcDbLine
 10
992.550283
 20
1757.840047
 30
0.0
 11
978.693883
 21
1757.840047
 31
0.0
  0
LINE
  5
1AC7D
100
AcDbEntity
  8
0
100
AcDbLine
 10
964.622083
 20
1746.559913
 30
0.0
 11
1006.622083
 21
1746.559913
 31
0.0
  0
LINE
  5
1AC7E
100
AcDbEntity
  8
0
100
AcDbLine
 10
978.693883
 20
1757.840047
 30
0.0
 11
971.765683
 21
1769.840047
 31
0.0
  0
LINE
  5
1AC7F
100
AcDbEntity
  8
0
100
AcDbLine
 10
999.478483
 20
1769.840047
 30
0.0
 11
992.550283
 21
1757.840047
 31
0.0
  0
LINE
  5
1AC80
100
AcDbEntity
  8
0
100
AcDbLine
 10
978.693883
 20
1781.840047
 30
0.0
 11
992.550283
 21
1781.840047
 31
0.0
  0
LINE
  5
1AC81
100
AcDbEntity
  8
0
100
AcDbLine
 10
847.272171
 20
1984.529162
 30
0.0
 11
870.529541
 21
1920.630064
 31
0.0
  0
LINE
  5
1AC82
100
AcDbEntity
  8
0
100
AcDbLine
 10
858.67368
 20
1989.741531
 30
0.0
 11
882.620347
 21
1923.968198
 31
0.0
  0
LINE
  5
1AC83
100
AcDbEntity
  8
0
100
AcDbLine
 10
862.382135
 20
1971.54415
 30
0.0
 11
860.546979
 21
1976.5862
 31
0.0
  0
ARC
  5
1AC84
100
AcDbEntity
  8
0
100
AcDbCircle
 10
911.392985
 20
1971.685185
 30
0.0
 40
55.660957
100
AcDbArc
 50
182.615887
 51
217.384113
  0
LINE
  5
1AC85
100
AcDbEntity
  8
0
100
AcDbLine
 10
862.382135
 20
1971.54415
 30
0.0
 11
855.790029
 21
1969.14482
 31
0.0
  0
ARC
  5
1AC86
100
AcDbEntity
  8
0
100
AcDbCircle
 10
845.907678
 20
1980.172651
 30
0.0
 40
15.072218
100
AcDbArc
 50
346.234355
 51
53.765645
  0
LINE
  5
1AC87
100
AcDbEntity
  8
0
100
AcDbLine
 10
860.546979
 20
1976.5862
 30
0.0
 11
853.954873
 21
1974.186869
 31
0.0
  0
ARC
  5
1AC88
100
AcDbEntity
  8
0
100
AcDbCircle
 10
862.863902
 20
1986.344211
 30
0.0
 40
15.072218
100
AcDbArc
 50
166.234355
 51
233.765645
  0
LINE
  5
1AC89
100
AcDbEntity
  8
0
100
AcDbLine
 10
853.954873
 20
1974.186869
 30
0.0
 11
855.790029
 21
1969.14482
 31
0.0
  0
LINE
  5
1AC8A
100
AcDbEntity
  8
0
100
AcDbLine
 10
859.018329
 20
1988.804414
 30
0.0
 11
854.816707
 21
1992.329993
 31
0.0
  0
LINE
  5
1AC8B
100
AcDbEntity
  8
0
100
AcDbLine
 10
854.816707
 20
1992.329993
 30
0.0
 11
848.224601
 21
1989.930663
 31
0.0
  0
LINE
  5
1AC8C
100
AcDbEntity
  8
0
100
AcDbLine
 10
847.272171
 20
1984.529162
 30
0.0
 11
848.224601
 21
1989.930663
 31
0.0
  0
LINE
  5
1AC8D
100
AcDbEntity
  8
0
100
AcDbLine
 10
859.180347
 20
1992.581531
 30
0.0
 11
858.67368
 21
1989.741531
 31
0.0
  0
LINE
  5
1AC8E
100
AcDbEntity
  8
0
100
AcDbLine
 10
907.380347
 20
1937.594865
 30
0.0
 11
905.031845
 21
1892.754865
 31
0.0
  0
ARC
  5
1AC8F
100
AcDbEntity
  8
0
100
AcDbCircle
 10
866.683967
 20
1923.090266
 30
0.0
 40
15.072218
100
AcDbArc
 50
346.234355
 51
53.765645
  0
LINE
  5
1AC90
100
AcDbEntity
  8
0
100
AcDbLine
 10
867.165734
 20
1937.890327
 30
0.0
 11
869.00089
 21
1932.848278
 31
0.0
  0
LINE
  5
1AC91
100
AcDbEntity
  8
0
100
AcDbLine
 10
875.592996
 20
1935.247608
 30
0.0
 11
869.00089
 21
1932.848278
 31
0.0
  0
ARC
  5
1AC92
100
AcDbEntity
  8
0
100
AcDbCircle
 10
941.583863
 20
1923.460049
 30
0.0
 40
12.006074
100
AcDbArc
 50
50.831029
 51
106.99973
  0
LINE
  5
1AC93
100
AcDbEntity
  8
0
100
AcDbLine
 10
914.020279
 20
1892.754865
 30
0.0
 11
923.327014
 21
1927.488198
 31
0.0
  0
LINE
  5
1AC94
100
AcDbEntity
  8
0
100
AcDbLine
 10
905.031845
 20
1892.754865
 30
0.0
 11
914.020279
 21
1892.754865
 31
0.0
  0
LINE
  5
1AC95
100
AcDbEntity
  8
0
100
AcDbLine
 10
901.27368
 20
1923.688198
 30
0.0
 11
888.47368
 21
1923.434865
 31
0.0
  0
ARC
  5
1AC96
100
AcDbEntity
  8
0
100
AcDbCircle
 10
883.640191
 20
1929.261827
 30
0.0
 40
15.072218
100
AcDbArc
 50
166.234355
 51
233.765645
  0
LINE
  5
1AC97
100
AcDbEntity
  8
0
100
AcDbLine
 10
884.83368
 20
1922.101531
 30
0.0
 11
888.47368
 21
1923.434865
 31
0.0
  0
LINE
  5
1AC98
100
AcDbEntity
  8
0
100
AcDbLine
 10
881.323268
 20
1919.503815
 30
0.0
 11
874.731162
 21
1917.104485
 31
0.0
  0
LINE
  5
1AC99
100
AcDbEntity
  8
0
100
AcDbLine
 10
882.620347
 20
1923.968198
 30
0.0
 11
884.83368
 21
1922.101531
 31
0.0
  0
LINE
  5
1AC9A
100
AcDbEntity
  8
0
100
AcDbLine
 10
882.275698
 20
1924.905316
 30
0.0
 11
881.323268
 21
1919.503815
 31
0.0
  0
LINE
  5
1AC9B
100
AcDbEntity
  8
0
100
AcDbLine
 10
870.529541
 20
1920.630064
 30
0.0
 11
874.731162
 21
1917.104485
 31
0.0
  0
ARC
  5
1AC9C
100
AcDbEntity
  8
0
100
AcDbCircle
 10
902.421077
 20
1919.839045
 30
0.0
 40
4.016528
100
AcDbArc
 50
357.466948
 51
106.598821
  0
ARC
  5
1AC9D
100
AcDbEntity
  8
0
100
AcDbCircle
 10
929.199306
 20
1925.864192
 30
0.0
 40
6.092718
100
AcDbArc
 50
107.50174
 51
164.541005
  0
LINE
  5
1AC9E
100
AcDbEntity
  8
0
100
AcDbLine
 10
927.367014
 20
1931.674865
 30
0.0
 11
938.07368
 21
1934.941531
 31
0.0
  0
ARC
  5
1AC9F
100
AcDbEntity
  8
0
100
AcDbCircle
 10
818.154885
 20
1937.749292
 30
0.0
 40
55.660957
100
AcDbArc
 50
2.615887
 51
37.384113
  0
LINE
  5
1ACA0
100
AcDbEntity
  8
0
100
AcDbLine
 10
875.592996
 20
1935.247608
 30
0.0
 11
873.75784
 21
1940.289657
 31
0.0
  0
LINE
  5
1ACA1
100
AcDbEntity
  8
0
100
AcDbLine
 10
873.75784
 20
1940.289657
 30
0.0
 11
867.165734
 21
1937.890327
 31
0.0
  0
ARC
  5
1ACA2
100
AcDbEntity
  8
0
100
AcDbCircle
 10
887.41487
 20
1938.628013
 30
0.0
 40
19.99219
100
AcDbArc
 50
357.037773
 51
35.584512
  0
TEXT
  5
1ACA3
100
AcDbEntity
  8
0
100
AcDbText
 10
217.848882
 20
2136.754865
 30
0.0
 40
52.5
  1
背面
100
AcDbText
  0
LINE
  5
1ACA4
100
AcDbEntity
  8
0
100
AcDbLine
 10
905.029962
 20
2148.754865
 30
0.0
 11
909.020347
 21
2123.754865
 31
0.0
  0
LINE
  5
1ACA5
100
AcDbEntity
  8
0
100
AcDbLine
 10
830.423727
 20
2066.754865
 30
0.0
 11
830.423727
 21
2206.754865
 31
0.0
  0
LINE
  5
1ACA6
100
AcDbEntity
  8
0
100
AcDbLine
 10
810.423727
 20
2066.754865
 30
0.0
 11
810.423727
 21
2136.754865
 31
0.0
  0
LINE
  5
1ACA7
100
AcDbEntity
  8
0
100
AcDbLine
 10
858.209562
 20
2101.127761
 30
0.0
 11
862.887014
 21
2000.888198
 31
0.0
  0
LINE
  5
1ACA8
100
AcDbEntity
  8
0
100
AcDbLine
 10
830.423727
 20
2066.754865
 30
0.0
 11
810.423727
 21
2066.754865
 31
0.0
  0
ARC
  5
1ACA9
100
AcDbEntity
  8
0
100
AcDbCircle
 10
850.2137
 20
2100.752787
 30
0.0
 40
8.00465
100
AcDbArc
 50
2.684972
 51
88.547424
  0
LINE
  5
1ACAA
100
AcDbEntity
  8
0
100
AcDbLine
 10
850.416614
 20
2108.754865
 30
0.0
 11
846.423727
 21
2108.754865
 31
0.0
  0
LINE
  5
1ACAB
100
AcDbEntity
  8
0
100
AcDbLine
 10
846.423727
 20
2108.754865
 30
0.0
 11
850.416614
 21
2108.754865
 31
0.0
  0
LINE
  5
1ACAC
100
AcDbEntity
  8
0
100
AcDbLine
 10
830.423727
 20
2104.754865
 30
0.0
 11
846.423727
 21
2108.754865
 31
0.0
  0
LINE
  5
1ACAD
100
AcDbEntity
  8
0
100
AcDbLine
 10
916.020347
 20
2086.954865
 30
0.0
 11
916.020347
 21
2001.754865
 31
0.0
  0
LINE
  5
1ACAE
100
AcDbEntity
  8
0
100
AcDbLine
 10
910.367014
 20
2099.434865
 30
0.0
 11
914.687014
 21
2091.954865
 31
0.0
  0
ARC
  5
1ACAF
100
AcDbEntity
  8
0
100
AcDbCircle
 10
906.20935
 20
2087.016377
 30
0.0
 40
9.811189
100
AcDbArc
 50
359.640777
 51
30.222057
  0
LINE
  5
1ACB0
100
AcDbEntity
  8
0
100
AcDbLine
 10
909.020347
 20
2123.754865
 30
0.0
 11
909.020347
 21
2104.434865
 31
0.0
  0
ARC
  5
1ACB1
100
AcDbEntity
  8
0
100
AcDbCircle
 10
919.064091
 20
2104.458629
 30
0.0
 40
10.043772
100
AcDbArc
 50
180.135564
 51
210.012371
  0
LINE
  5
1ACB2
100
AcDbEntity
  8
0
100
AcDbLine
 10
883.72537
 20
2164.754865
 30
0.0
 11
846.218703
 21
2164.754865
 31
0.0
  0
LINE
  5
1ACB3
100
AcDbEntity
  8
0
100
AcDbLine
 10
883.72537
 20
2164.754865
 30
0.0
 11
846.218703
 21
2164.754865
 31
0.0
  0
LINE
  5
1ACB4
100
AcDbEntity
  8
0
100
AcDbLine
 10
846.218703
 20
2164.754865
 30
0.0
 11
883.72537
 21
2164.754865
 31
0.0
  0
LINE
  5
1ACB5
100
AcDbEntity
  8
0
100
AcDbLine
 10
810.423727
 20
2136.754865
 30
0.0
 11
810.423727
 21
2206.754865
 31
0.0
  0
LINE
  5
1ACB6
100
AcDbEntity
  8
0
100
AcDbLine
 10
830.423727
 20
2168.754865
 30
0.0
 11
846.218703
 21
2164.754865
 31
0.0
  0
LINE
  5
1ACB7
100
AcDbEntity
  8
0
100
AcDbLine
 10
830.423727
 20
2206.754865
 30
0.0
 11
810.423727
 21
2206.754865
 31
0.0
  0
LINE
  5
1ACB8
100
AcDbEntity
  8
0
100
AcDbLine
 10
883.72537
 20
2202.768198
 30
0.0
 11
883.72537
 21
2170.768198
 31
0.0
  0
LINE
  5
1ACB9
100
AcDbEntity
  8
0
100
AcDbLine
 10
936.856703
 20
2198.402048
 30
0.0
 11
936.856703
 21
2190.768198
 31
0.0
  0
LINE
  5
1ACBA
100
AcDbEntity
  8
0
100
AcDbLine
 10
916.536037
 20
2198.402048
 30
0.0
 11
916.536037
 21
2190.768198
 31
0.0
  0
LINE
  5
1ACBB
100
AcDbEntity
  8
0
100
AcDbLine
 10
910.473162
 20
2198.402048
 30
0.0
 11
910.473162
 21
2190.768198
 31
0.0
  0
LINE
  5
1ACBC
100
AcDbEntity
  8
0
100
AcDbLine
 10
930.794703
 20
2190.768198
 30
0.0
 11
930.794703
 21
2198.402048
 31
0.0
  0
LINE
  5
1ACBD
100
AcDbEntity
  8
0
100
AcDbLine
 10
898.350037
 20
2198.402048
 30
0.0
 11
898.350037
 21
2190.768198
 31
0.0
  0
LINE
  5
1ACBE
100
AcDbEntity
  8
0
100
AcDbLine
 10
892.288037
 20
2190.768198
 30
0.0
 11
892.288037
 21
2198.402048
 31
0.0
  0
LINE
  5
1ACBF
100
AcDbEntity
  8
0
100
AcDbLine
 10
993.10137
 20
2190.768198
 30
0.0
 11
993.10137
 21
2198.402048
 31
0.0
  0
LINE
  5
1ACC0
100
AcDbEntity
  8
0
100
AcDbLine
 10
999.16337
 20
2198.402048
 30
0.0
 11
999.16337
 21
2190.768198
 31
0.0
  0
LINE
  5
1ACC1
100
AcDbEntity
  8
0
100
AcDbLine
 10
955.042703
 20
2198.402048
 30
0.0
 11
955.042703
 21
2190.768198
 31
0.0
  0
LINE
  5
1ACC2
100
AcDbEntity
  8
0
100
AcDbLine
 10
948.979828
 20
2198.402048
 30
0.0
 11
948.979828
 21
2190.768198
 31
0.0
  0
LINE
  5
1ACC3
100
AcDbEntity
  8
0
100
AcDbLine
 10
1011.286495
 20
2198.402048
 30
0.0
 11
1011.286495
 21
2190.768198
 31
0.0
  0
LINE
  5
1ACC4
100
AcDbEntity
  8
0
100
AcDbLine
 10
1017.34937
 20
2198.402048
 30
0.0
 11
1017.34937
 21
2190.768198
 31
0.0
  0
LINE
  5
1ACC5
100
AcDbEntity
  8
0
100
AcDbLine
 10
883.72537
 20
2168.754865
 30
0.0
 11
883.72537
 21
2148.754865
 31
0.0
  0
LINE
  5
1ACC6
100
AcDbEntity
  8
0
100
AcDbLine
 10
883.72537
 20
2170.768198
 30
0.0
 11
908.978703
 21
2170.768198
 31
0.0
  0
LINE
  5
1ACC7
100
AcDbEntity
  8
0
100
AcDbLine
 10
908.978703
 20
2170.768198
 30
0.0
 11
908.978703
 21
2168.754865
 31
0.0
  0
LINE
  5
1ACC8
100
AcDbEntity
  8
0
100
AcDbLine
 10
985.218703
 20
2202.768198
 30
0.0
 11
883.72537
 21
2202.768198
 31
0.0
  0
LINE
  5
1ACC9
100
AcDbEntity
  8
0
100
AcDbLine
 10
932.727578
 20
2199.518198
 30
0.0
 11
953.109828
 21
2199.518198
 31
0.0
  0
ARC
  5
1ACCA
100
AcDbEntity
  8
0
100
AcDbCircle
 10
942.918266
 20
2177.699702
 30
0.0
 40
21.571502
100
AcDbArc
 50
73.680185
 51
106.319815
  0
LINE
  5
1ACCB
100
AcDbEntity
  8
0
100
AcDbLine
 10
894.220912
 20
2199.518198
 30
0.0
 11
914.603162
 21
2199.518198
 31
0.0
  0
ARC
  5
1ACCC
100
AcDbEntity
  8
0
100
AcDbCircle
 10
904.411599
 20
2177.699702
 30
0.0
 40
21.571502
100
AcDbArc
 50
73.680185
 51
106.319815
  0
ARC
  5
1ACCD
100
AcDbEntity
  8
0
100
AcDbCircle
 10
895.318599
 20
2193.550806
 30
0.0
 40
5.720504
100
AcDbArc
 50
57.999617
 51
122.000383
  0
LINE
  5
1ACCE
100
AcDbEntity
  8
0
100
AcDbLine
 10
892.288037
 20
2198.402048
 30
0.0
 11
894.220912
 21
2199.518198
 31
0.0
  0
ARC
  5
1ACCF
100
AcDbEntity
  8
0
100
AcDbCircle
 10
913.504599
 20
2193.550826
 30
0.0
 40
5.720487
100
AcDbArc
 50
57.999511
 51
122.000489
  0
LINE
  5
1ACD0
100
AcDbEntity
  8
0
100
AcDbLine
 10
914.603162
 20
2199.518198
 30
0.0
 11
916.536037
 21
2198.402048
 31
0.0
  0
ARC
  5
1ACD1
100
AcDbEntity
  8
0
100
AcDbCircle
 10
933.825266
 20
2193.550806
 30
0.0
 40
5.720504
100
AcDbArc
 50
57.999617
 51
122.000383
  0
LINE
  5
1ACD2
100
AcDbEntity
  8
0
100
AcDbLine
 10
930.794703
 20
2198.402048
 30
0.0
 11
932.727578
 21
2199.518198
 31
0.0
  0
ARC
  5
1ACD3
100
AcDbEntity
  8
0
100
AcDbCircle
 10
1005.55313
 20
2021.186717
 30
0.0
 40
178.610279
100
AcDbArc
 50
96.464003
 51
106.427201
  0
LINE
  5
1ACD4
100
AcDbEntity
  8
0
100
AcDbLine
 10
953.109828
 20
2199.518198
 30
0.0
 11
955.042703
 21
2198.402048
 31
0.0
  0
ARC
  5
1ACD5
100
AcDbEntity
  8
0
100
AcDbCircle
 10
952.011266
 20
2193.550826
 30
0.0
 40
5.720487
100
AcDbArc
 50
57.999511
 51
122.000489
  0
LINE
  5
1ACD6
100
AcDbEntity
  8
0
100
AcDbLine
 10
1009.68537
 20
2208.261531
 30
0.0
 11
1000.752037
 21
2208.261531
 31
0.0
  0
LINE
  5
1ACD7
100
AcDbEntity
  8
0
100
AcDbLine
 10
1015.218703
 20
2206.768198
 30
0.0
 11
995.218703
 21
2206.768198
 31
0.0
  0
LINE
  5
1ACD8
100
AcDbEntity
  8
0
100
AcDbLine
 10
995.72537
 20
2215.261531
 30
0.0
 11
1014.72537
 21
2215.261531
 31
0.0
  0
LINE
  5
1ACD9
100
AcDbEntity
  8
0
100
AcDbLine
 10
995.034245
 20
2199.518198
 30
0.0
 11
1015.416495
 21
2199.518198
 31
0.0
  0
ARC
  5
1ACDA
100
AcDbEntity
  8
0
100
AcDbCircle
 10
1005.224933
 20
2177.699702
 30
0.0
 40
21.571502
100
AcDbArc
 50
73.680185
 51
106.319815
  0
LINE
  5
1ACDB
100
AcDbEntity
  8
0
100
AcDbLine
 10
1000.752037
 20
2208.261531
 30
0.0
 11
1000.752037
 21
2215.261531
 31
0.0
  0
LINE
  5
1ACDC
100
AcDbEntity
  8
0
100
AcDbLine
 10
999.232037
 20
2215.261531
 30
0.0
 11
999.232037
 21
2208.261531
 31
0.0
  0
LINE
  5
1ACDD
100
AcDbEntity
  8
0
100
AcDbLine
 10
999.232037
 20
2208.261531
 30
0.0
 11
994.72537
 21
2208.261531
 31
0.0
  0
LINE
  5
1ACDE
100
AcDbEntity
  8
0
100
AcDbLine
 10
994.72537
 20
2206.768198
 30
0.0
 11
994.72537
 21
2214.261531
 31
0.0
  0
LINE
  5
1ACDF
100
AcDbEntity
  8
0
100
AcDbLine
 10
994.72537
 20
2214.261531
 30
0.0
 11
995.72537
 21
2215.261531
 31
0.0
  0
LINE
  5
1ACE0
100
AcDbEntity
  8
0
100
AcDbLine
 10
993.10137
 20
2198.402048
 30
0.0
 11
995.034245
 21
2199.518198
 31
0.0
  0
ARC
  5
1ACE1
100
AcDbEntity
  8
0
100
AcDbCircle
 10
996.131933
 20
2193.550806
 30
0.0
 40
5.720504
100
AcDbArc
 50
57.999617
 51
122.000383
  0
ARC
  5
1ACE2
100
AcDbEntity
  8
0
100
AcDbCircle
 10
985.215693
 20
2204.771209
 30
0.0
 40
2.003013
100
AcDbArc
 50
270.086122
 51
359.913878
  0
ARC
  5
1ACE3
100
AcDbEntity
  8
0
100
AcDbCircle
 10
985.220797
 20
2200.646777
 30
0.0
 40
1.997907
100
AcDbArc
 50
276.45393
 51
0.040755
  0
LINE
  5
1ACE4
100
AcDbEntity
  8
0
100
AcDbLine
 10
987.218703
 20
2200.648198
 30
0.0
 11
987.218703
 21
2204.594865
 31
0.0
  0
LINE
  5
1ACE5
100
AcDbEntity
  8
0
100
AcDbLine
 10
989.218703
 20
2206.768198
 30
0.0
 11
987.218703
 21
2204.768198
 31
0.0
  0
LINE
  5
1ACE6
100
AcDbEntity
  8
0
100
AcDbLine
 10
1015.72537
 20
2208.261531
 30
0.0
 11
1011.218703
 21
2208.261531
 31
0.0
  0
LINE
  5
1ACE7
100
AcDbEntity
  8
0
100
AcDbLine
 10
1011.218703
 20
2208.261531
 30
0.0
 11
1011.218703
 21
2215.261531
 31
0.0
  0
LINE
  5
1ACE8
100
AcDbEntity
  8
0
100
AcDbLine
 10
1009.68537
 20
2215.261531
 30
0.0
 11
1009.68537
 21
2208.261531
 31
0.0
  0
LINE
  5
1ACE9
100
AcDbEntity
  8
0
100
AcDbLine
 10
1014.72537
 20
2215.261531
 30
0.0
 11
1015.72537
 21
2214.261531
 31
0.0
  0
LINE
  5
1ACEA
100
AcDbEntity
  8
0
100
AcDbLine
 10
1015.72537
 20
2214.261531
 30
0.0
 11
1015.72537
 21
2206.768198
 31
0.0
  0
ARC
  5
1ACEB
100
AcDbEntity
  8
0
100
AcDbCircle
 10
1014.317933
 20
2193.550826
 30
0.0
 40
5.720487
100
AcDbArc
 50
57.999511
 51
122.000489
  0
LINE
  5
1ACEC
100
AcDbEntity
  8
0
100
AcDbLine
 10
1015.416495
 20
2199.518198
 30
0.0
 11
1017.34937
 21
2198.402048
 31
0.0
  0
LINE
  5
1ACED
100
AcDbEntity
  8
0
100
AcDbLine
 10
2193.089264
 20
2090.510884
 30
0.0
 11
2197.302597
 21
1990.21755
 31
0.0
  0
LINE
  5
1ACEE
100
AcDbEntity
  8
0
100
AcDbLine
 10
2250.435931
 20
2076.284217
 30
0.0
 11
2250.435931
 21
1991.084217
 31
0.0
  0
CIRCLE
  5
1ACEF
100
AcDbEntity
  8
0
100
AcDbCircle
 10
1048.091978
 20
1749.542348
 30
0.0
 40
12.0
  0
LINE
  5
1ACF0
100
AcDbEntity
  8
0
100
AcDbLine
 10
1060.750433
 20
1755.178258
 30
0.0
 11
1059.302041
 21
1741.39776
 31
0.0
  0
LINE
  5
1ACF1
100
AcDbEntity
  8
0
100
AcDbLine
 10
1046.643587
 20
1735.76185
 30
0.0
 11
1035.433524
 21
1743.906437
 31
0.0
  0
LINE
  5
1ACF2
100
AcDbEntity
  8
0
100
AcDbLine
 10
1160.423727
 20
1593.559913
 30
0.0
 11
1160.423727
 21
1733.559913
 31
0.0
  0
LINE
  5
1ACF3
100
AcDbEntity
  8
0
100
AcDbLine
 10
1180.423727
 20
1593.559913
 30
0.0
 11
1180.423727
 21
1663.559913
 31
0.0
  0
LINE
  5
1ACF4
100
AcDbEntity
  8
0
100
AcDbLine
 10
1160.423727
 20
1593.559913
 30
0.0
 11
1180.423727
 21
1593.559913
 31
0.0
  0
CIRCLE
  5
1ACF5
100
AcDbEntity
  8
0
100
AcDbCircle
 10
1048.091978
 20
1577.577479
 30
0.0
 40
12.0
  0
LINE
  5
1ACF6
100
AcDbEntity
  8
0
100
AcDbLine
 10
1036.881915
 20
1569.432891
 30
0.0
 11
1035.433524
 21
1583.213389
 31
0.0
  0
LINE
  5
1ACF7
100
AcDbEntity
  8
0
100
AcDbLine
 10
1059.302041
 20
1585.722066
 30
0.0
 11
1060.750433
 21
1571.941569
 31
0.0
  0
LINE
  5
1ACF8
100
AcDbEntity
  8
0
100
AcDbLine
 10
1060.750433
 20
1571.941569
 30
0.0
 11
1049.54037
 21
1563.796981
 31
0.0
  0
LINE
  5
1ACF9
100
AcDbEntity
  8
0
100
AcDbLine
 10
1049.54037
 20
1563.796981
 30
0.0
 11
1036.881915
 21
1569.432891
 31
0.0
  0
LINE
  5
1ACFA
100
AcDbEntity
  8
0
100
AcDbLine
 10
1046.643587
 20
1591.357976
 30
0.0
 11
1059.302041
 21
1585.722066
 31
0.0
  0
LINE
  5
1ACFB
100
AcDbEntity
  8
0
100
AcDbLine
 10
1035.433524
 20
1583.213389
 30
0.0
 11
1046.643587
 21
1591.357976
 31
0.0
  0
LINE
  5
1ACFC
100
AcDbEntity
  8
0
100
AcDbLine
 10
1160.423727
 20
1733.559913
 30
0.0
 11
1180.423727
 21
1733.559913
 31
0.0
  0
LINE
  5
1ACFD
100
AcDbEntity
  8
0
100
AcDbLine
 10
1100.254107
 20
1633.598451
 30
0.0
 11
1095.972244
 21
1620.420232
 31
0.0
  0
CIRCLE
  5
1ACFE
100
AcDbEntity
  8
0
100
AcDbCircle
 10
1086.700497
 20
1630.717546
 30
0.0
 40
12.0
  0
LINE
  5
1ACFF
100
AcDbEntity
  8
0
100
AcDbLine
 10
1090.98236
 20
1643.895765
 30
0.0
 11
1100.254107
 21
1633.598451
 31
0.0
  0
ARC
  5
1AD00
100
AcDbEntity
  8
0
100
AcDbCircle
 10
1044.448157
 20
1639.070799
 30
0.0
 40
7.995791
100
AcDbArc
 50
90.091296
 51
157.479904
  0
LINE
  5
1AD01
100
AcDbEntity
  8
0
100
AcDbLine
 10
1082.418634
 20
1617.539326
 30
0.0
 11
1073.146887
 21
1627.83664
 31
0.0
  0
LINE
  5
1AD02
100
AcDbEntity
  8
0
100
AcDbLine
 10
1095.972244
 20
1620.420232
 30
0.0
 11
1082.418634
 21
1617.539326
 31
0.0
  0
LINE
  5
1AD03
100
AcDbEntity
  8
0
100
AcDbLine
 10
1073.146887
 20
1627.83664
 30
0.0
 11
1077.42875
 21
1641.014859
 31
0.0
  0
LINE
  5
1AD04
100
AcDbEntity
  8
0
100
AcDbLine
 10
1077.42875
 20
1641.014859
 30
0.0
 11
1090.98236
 21
1643.895765
 31
0.0
  0
LINE
  5
1AD05
100
AcDbEntity
  8
0
100
AcDbLine
 10
1140.430839
 20
1635.559913
 30
0.0
 11
1103.85187
 21
1635.559913
 31
0.0
  0
LINE
  5
1AD06
100
AcDbEntity
  8
0
100
AcDbLine
 10
1160.423727
 20
1631.559913
 30
0.0
 11
1144.423727
 21
1635.559913
 31
0.0
  0
LINE
  5
1AD07
100
AcDbEntity
  8
0
100
AcDbLine
 10
1144.423727
 20
1635.559913
 30
0.0
 11
1140.430839
 21
1635.559913
 31
0.0
  0
LINE
  5
1AD08
100
AcDbEntity
  8
0
100
AcDbLine
 10
1140.430839
 20
1635.559913
 30
0.0
 11
1144.423727
 21
1635.559913
 31
0.0
  0
ARC
  5
1AD09
100
AcDbEntity
  8
0
100
AcDbCircle
 10
1104.242106
 20
1649.062127
 30
0.0
 40
1.995558
100
AcDbArc
 50
269.807944
 51
352.835578
  0
LINE
  5
1AD0A
100
AcDbEntity
  8
0
100
AcDbLine
 10
1095.972244
 20
1706.699594
 30
0.0
 11
1100.254107
 21
1693.521375
 31
0.0
  0
CIRCLE
  5
1AD0B
100
AcDbEntity
  8
0
100
AcDbCircle
 10
1086.700497
 20
1696.402281
 30
0.0
 40
12.0
  0
LINE
  5
1AD0C
100
AcDbEntity
  8
0
100
AcDbLine
 10
1100.254107
 20
1693.521375
 30
0.0
 11
1090.98236
 21
1683.224061
 31
0.0
  0
ARC
  5
1AD0D
100
AcDbEntity
  8
0
100
AcDbCircle
 10
1044.438159
 20
1688.055694
 30
0.0
 40
7.989115
100
AcDbArc
 50
202.591725
 51
269.980334
  0
LINE
  5
1AD0E
100
AcDbEntity
  8
0
100
AcDbLine
 10
1077.42875
 20
1686.104967
 30
0.0
 11
1073.146887
 21
1699.283186
 31
0.0
  0
LINE
  5
1AD0F
100
AcDbEntity
  8
0
100
AcDbLine
 10
1090.98236
 20
1683.224061
 30
0.0
 11
1077.42875
 21
1686.104967
 31
0.0
  0
LINE
  5
1AD10
100
AcDbEntity
  8
0
100
AcDbLine
 10
1073.146887
 20
1699.283186
 30
0.0
 11
1082.418634
 21
1709.5805
 31
0.0
  0
LINE
  5
1AD11
100
AcDbEntity
  8
0
100
AcDbLine
 10
1082.418634
 20
1709.5805
 30
0.0
 11
1095.972244
 21
1706.699594
 31
0.0
  0
LINE
  5
1AD12
100
AcDbEntity
  8
0
100
AcDbLine
 10
1059.302041
 20
1741.39776
 30
0.0
 11
1046.643587
 21
1735.76185
 31
0.0
  0
LINE
  5
1AD13
100
AcDbEntity
  8
0
100
AcDbLine
 10
1144.62875
 20
1691.559913
 30
0.0
 11
1103.85187
 21
1691.559913
 31
0.0
  0
ARC
  5
1AD16
100
AcDbEntity
  8
0
100
AcDbCircle
 10
1104.234574
 20
1678.064366
 30
0.0
 40
2.002214
100
AcDbArc
 50
6.948256
 51
89.97589
  0
LINE
  5
1AD17
100
AcDbEntity
  8
0
100
AcDbLine
 10
1160.423727
 20
1695.559913
 30
0.0
 11
1144.62875
 21
1691.559913
 31
0.0
  0
LINE
  5
1AD18
100
AcDbEntity
  8
0
100
AcDbLine
 10
1180.423727
 20
1663.559913
 30
0.0
 11
1180.423727
 21
1733.559913
 31
0.0
  0
LINE
  5
1AD19
100
AcDbEntity
  8
0
100
AcDbLine
 10
1049.54037
 20
1763.322845
 30
0.0
 11
1060.750433
 21
1755.178258
 31
0.0
  0
LINE
  5
1AD1A
100
AcDbEntity
  8
0
100
AcDbLine
 10
1035.433524
 20
1743.906437
 30
0.0
 11
1036.881915
 21
1757.686935
 31
0.0
  0
LINE
  5
1AD1B
100
AcDbEntity
  8
0
100
AcDbLine
 10
1036.881915
 20
1757.686935
 30
0.0
 11
1049.54037
 21
1763.322845
 31
0.0
  0
LINE
  5
1AD1E
100
AcDbEntity
  8
0
100
AcDbLine
 10
1080.020347
 20
1918.181531
 30
0.0
 11
1080.020347
 21
1942.394865
 31
0.0
  0
LINE
  5
1AD20
100
AcDbEntity
  8
0
100
AcDbLine
 10
1076.022182
 20
1892.754865
 30
0.0
 11
1073.67368
 21
1937.594865
 31
0.0
  0
LINE
  5
1AD21
100
AcDbEntity
  8
0
100
AcDbLine
 10
1067.020119
 20
1892.754865
 30
0.0
 11
1059.300347
 21
1921.608198
 31
0.0
  0
LINE
  5
1AD22
100
AcDbEntity
  8
0
100
AcDbLine
 10
1067.020119
 20
1892.754865
 30
0.0
 11
1076.022182
 21
1892.754865
 31
0.0
  0
ARC
  5
1AD23
100
AcDbEntity
  8
0
100
AcDbCircle
 10
1053.497696
 20
1920.05473
 30
0.0
 40
6.006998
100
AcDbArc
 50
14.98758
 51
120.668781
  0
LINE
  5
1AD26
100
AcDbEntity
  8
0
100
AcDbLine
 10
1075.007014
 20
1912.261531
 30
0.0
 11
1080.020347
 21
1918.181531
 31
0.0
  0
ARC
  5
1AD28
100
AcDbEntity
  8
0
100
AcDbCircle
 10
1078.024669
 20
1942.39702
 30
0.0
 40
1.995679
100
AcDbArc
 50
359.938107
 51
76.99762
  0
ARC
  5
1AD2B
100
AcDbEntity
  8
0
100
AcDbCircle
 10
1093.639044
 20
1938.628046
 30
0.0
 40
19.992079
100
AcDbArc
 50
152.313197
 51
182.962339
  0
ARC
  5
1AD2C
100
AcDbEntity
  8
0
100
AcDbCircle
 10
1079.142265
 20
1947.262037
 30
0.0
 40
2.996057
100
AcDbArc
 50
143.720816
 51
257.105599
  0
LINE
  5
1AD2D
100
AcDbEntity
  8
0
100
AcDbLine
 10
2268.176099
 20
1752.016287
 30
0.0
 11
2269.62449
 21
1738.23579
 31
0.0
  0
CIRCLE
  5
1AD2E
100
AcDbEntity
  8
0
100
AcDbCircle
 10
2256.966035
 20
1743.8717
 30
0.0
 40
12.0
  0
LINE
  5
1AD2F
100
AcDbEntity
  8
0
100
AcDbLine
 10
2245.755972
 20
1735.727112
 30
0.0
 11
2244.307581
 21
1749.50761
 31
0.0
  0
LINE
  5
1AD30
100
AcDbEntity
  8
0
100
AcDbLine
 10
2144.435931
 20
1657.889266
 30
0.0
 11
2144.435931
 21
1580.389266
 31
0.0
  0
LINE
  5
1AD31
100
AcDbEntity
  8
0
100
AcDbLine
 10
2164.435931
 20
1580.389266
 30
0.0
 11
2164.435931
 21
1735.389266
 31
0.0
  0
CIRCLE
  5
1AD32
100
AcDbEntity
  8
0
100
AcDbCircle
 10
2218.357517
 20
1625.046898
 30
0.0
 40
12.0
  0
LINE
  5
1AD33
100
AcDbEntity
  8
0
100
AcDbLine
 10
2231.911127
 20
1622.165992
 30
0.0
 11
2222.63938
 21
1611.868678
 31
0.0
  0
LINE
  5
1AD34
100
AcDbEntity
  8
0
100
AcDbLine
 10
2222.63938
 20
1611.868678
 30
0.0
 11
2209.08577
 21
1614.749584
 31
0.0
  0
LINE
  5
1AD35
100
AcDbEntity
  8
0
100
AcDbLine
 10
2144.435931
 20
1580.389266
 30
0.0
 11
2164.435931
 21
1580.389266
 31
0.0
  0
LINE
  5
1AD36
100
AcDbEntity
  8
0
100
AcDbLine
 10
2312.507731
 20
1539.609132
 30
0.0
 11
2305.579531
 21
1551.609132
 31
0.0
  0
LINE
  5
1AD37
100
AcDbEntity
  8
0
100
AcDbLine
 10
2326.364131
 20
1539.609132
 30
0.0
 11
2312.507731
 21
1539.609132
 31
0.0
  0
LINE
  5
1AD38
100
AcDbEntity
  8
0
100
AcDbLine
 10
2245.755972
 20
1580.051419
 30
0.0
 11
2258.414427
 21
1585.687329
 31
0.0
  0
LINE
  5
1AD39
100
AcDbEntity
  8
0
100
AcDbLine
 10
2255.517644
 20
1558.126333
 30
0.0
 11
2244.307581
 21
1566.270921
 31
0.0
  0
CIRCLE
  5
1AD3A
100
AcDbEntity
  8
0
100
AcDbCircle
 10
2256.966035
 20
1571.906831
 30
0.0
 40
12.0
  0
LINE
  5
1AD3B
100
AcDbEntity
  8
0
100
AcDbLine
 10
2244.307581
 20
1566.270921
 30
0.0
 11
2245.755972
 21
1580.051419
 31
0.0
  0
LINE
  5
1AD3C
100
AcDbEntity
  8
0
100
AcDbLine
 10
2258.414427
 20
1585.687329
 30
0.0
 11
2269.62449
 21
1577.542741
 31
0.0
  0
LINE
  5
1AD3D
100
AcDbEntity
  8
0
100
AcDbLine
 10
2268.176099
 20
1563.762244
 30
0.0
 11
2255.517644
 21
1558.126333
 31
0.0
  0
LINE
  5
1AD3E
100
AcDbEntity
  8
0
100
AcDbLine
 10
2269.62449
 20
1577.542741
 30
0.0
 11
2268.176099
 21
1563.762244
 31
0.0
  0
LINE
  5
1AD3F
100
AcDbEntity
  8
0
100
AcDbLine
 10
2305.579531
 20
1551.609132
 30
0.0
 11
2312.507731
 21
1563.609132
 31
0.0
  0
LINE
  5
1AD40
100
AcDbEntity
  8
0
100
AcDbLine
 10
2312.507731
 20
1563.609132
 30
0.0
 11
2326.364131
 21
1563.609132
 31
0.0
  0
LINE
  5
1AD41
100
AcDbEntity
  8
0
100
AcDbLine
 10
2168.969264
 20
1622.022599
 30
0.0
 11
2182.435931
 21
1624.889266
 31
0.0
  0
LINE
  5
1AD42
100
AcDbEntity
  8
0
100
AcDbLine
 10
2182.435931
 20
1690.889266
 30
0.0
 11
2168.969264
 21
1693.755932
 31
0.0
  0
LINE
  5
1AD43
100
AcDbEntity
  8
0
100
AcDbLine
 10
2144.435931
 20
1735.389266
 30
0.0
 11
2144.435931
 21
1657.889266
 31
0.0
  0
ARC
  5
1AD44
100
AcDbEntity
  8
0
100
AcDbCircle
 10
2170.523395
 20
1616.178437
 30
0.0
 40
6.056664
100
AcDbArc
 50
104.608508
 51
179.708256
  0
ARC
  5
1AD45
100
AcDbEntity
  8
0
100
AcDbCircle
 10
2170.492492
 20
1699.617925
 30
0.0
 40
6.056664
100
AcDbArc
 50
180.334185
 51
255.433934
  0
LINE
  5
1AD46
100
AcDbEntity
  8
0
100
AcDbLine
 10
2144.435931
 20
1735.389266
 30
0.0
 11
2164.435931
 21
1735.389266
 31
0.0
  0
LINE
  5
1AD47
100
AcDbEntity
  8
0
100
AcDbLine
 10
2227.629264
 20
1680.434319
 30
0.0
 11
2214.075654
 21
1677.553414
 31
0.0
  0
LINE
  5
1AD48
100
AcDbEntity
  8
0
100
AcDbLine
 10
2214.075654
 20
1677.553414
 30
0.0
 11
2204.803907
 21
1687.850727
 31
0.0
  0
ARC
  5
1AD49
100
AcDbEntity
  8
0
100
AcDbCircle
 10
2261.228396
 20
1683.823402
 30
0.0
 40
7.993252
100
AcDbArc
 50
266.036756
 51
335.97655
  0
CIRCLE
  5
1AD4A
100
AcDbEntity
  8
0
100
AcDbCircle
 10
2259.435931
 20
1657.889266
 30
0.0
 40
18.0
  0
LINE
  5
1AD4B
100
AcDbEntity
  8
0
100
AcDbLine
 10
2204.803907
 20
1627.927804
 30
0.0
 11
2214.075654
 21
1638.225118
 31
0.0
  0
LINE
  5
1AD4C
100
AcDbEntity
  8
0
100
AcDbLine
 10
2182.435931
 20
1624.889266
 30
0.0
 11
2202.503119
 21
1624.889266
 31
0.0
  0
LINE
  5
1AD4D
100
AcDbEntity
  8
0
100
AcDbLine
 10
2209.08577
 20
1614.749584
 30
0.0
 11
2204.803907
 21
1627.927804
 31
0.0
  0
LINE
  5
1AD4E
100
AcDbEntity
  8
0
100
AcDbLine
 10
2214.075654
 20
1638.225118
 30
0.0
 11
2227.629264
 21
1635.344212
 31
0.0
  0
LINE
  5
1AD4F
100
AcDbEntity
  8
0
100
AcDbLine
 10
2227.629264
 20
1635.344212
 30
0.0
 11
2231.911127
 21
1622.165992
 31
0.0
  0
ARC
  5
1AD50
100
AcDbEntity
  8
0
100
AcDbCircle
 10
2261.228357
 20
1631.955064
 30
0.0
 40
7.993314
100
AcDbArc
 50
24.023762
 51
93.962931
  0
ARC
  5
1AD51
100
AcDbEntity
  8
0
100
AcDbCircle
 10
2328.310799
 20
1632.079255
 30
0.0
 40
9.303865
100
AcDbArc
 50
89.393612
 51
106.750243
  0
LINE
  5
1AD52
100
AcDbEntity
  8
0
100
AcDbLine
 10
2309.929264
 20
1662.369266
 30
0.0
 11
2310.809264
 21
1663.889266
 31
0.0
  0
LINE
  5
1AD53
100
AcDbEntity
  8
0
100
AcDbLine
 10
2328.009264
 20
1663.942599
 30
0.0
 11
2328.955931
 21
1662.315932
 31
0.0
  0
LINE
  5
1AD54
100
AcDbEntity
  8
0
100
AcDbLine
 10
2328.955931
 20
1662.315932
 30
0.0
 11
2328.929264
 21
1653.422599
 31
0.0
  0
LINE
  5
1AD55
100
AcDbEntity
  8
0
100
AcDbLine
 10
2309.929264
 20
1653.422599
 30
0.0
 11
2309.929264
 21
1662.369266
 31
0.0
  0
LINE
  5
1AD56
100
AcDbEntity
  8
0
100
AcDbLine
 10
2318.435931
 20
1647.435932
 30
0.0
 11
2310.809264
 21
1651.889266
 31
0.0
  0
LINE
  5
1AD57
100
AcDbEntity
  8
0
100
AcDbLine
 10
2310.809264
 20
1651.889266
 30
0.0
 11
2309.929264
 21
1653.422599
 31
0.0
  0
LINE
  5
1AD58
100
AcDbEntity
  8
0
100
AcDbLine
 10
2328.049264
 20
1651.902599
 30
0.0
 11
2320.302597
 21
1647.422599
 31
0.0
  0
LINE
  5
1AD59
100
AcDbEntity
  8
0
100
AcDbLine
 10
2320.302597
 20
1647.422599
 30
0.0
 11
2318.435931
 21
1647.435932
 31
0.0
  0
LINE
  5
1AD5A
100
AcDbEntity
  8
0
100
AcDbLine
 10
2328.929264
 20
1653.422599
 30
0.0
 11
2328.049264
 21
1651.902599
 31
0.0
  0
LINE
  5
1AD5B
100
AcDbEntity
  8
0
100
AcDbLine
 10
2310.809264
 20
1663.889266
 30
0.0
 11
2318.555931
 21
1668.355932
 31
0.0
  0
LINE
  5
1AD5C
100
AcDbEntity
  8
0
100
AcDbLine
 10
2320.449264
 20
1668.355932
 30
0.0
 11
2328.009264
 21
1663.942599
 31
0.0
  0
LINE
  5
1AD5D
100
AcDbEntity
  8
0
100
AcDbLine
 10
2318.555931
 20
1668.355932
 30
0.0
 11
2320.449264
 21
1668.355932
 31
0.0
  0
ARC
  5
1AD5E
100
AcDbEntity
  8
0
100
AcDbCircle
 10
2328.310799
 20
1683.699276
 30
0.0
 40
9.303865
100
AcDbArc
 50
253.249757
 51
270.606388
  0
LINE
  5
1AD5F
100
AcDbEntity
  8
0
100
AcDbLine
 10
2258.414427
 20
1730.091202
 30
0.0
 11
2245.755972
 21
1735.727112
 31
0.0
  0
CIRCLE
  5
1AD60
100
AcDbEntity
  8
0
100
AcDbCircle
 10
2218.357517
 20
1690.731633
 30
0.0
 40
12.0
  0
LINE
  5
1AD61
100
AcDbEntity
  8
0
100
AcDbLine
 10
2209.08577
 20
1701.028947
 30
0.0
 11
2222.63938
 21
1703.909853
 31
0.0
  0
LINE
  5
1AD62
100
AcDbEntity
  8
0
100
AcDbLine
 10
2204.803907
 20
1687.850727
 30
0.0
 11
2209.08577
 21
1701.028947
 31
0.0
  0
LINE
  5
1AD63
100
AcDbEntity
  8
0
100
AcDbLine
 10
2202.503119
 20
1690.889266
 30
0.0
 11
2182.435931
 21
1690.889266
 31
0.0
  0
LINE
  5
1AD64
100
AcDbEntity
  8
0
100
AcDbLine
 10
2231.911127
 20
1693.612539
 30
0.0
 11
2227.629264
 21
1680.434319
 31
0.0
  0
LINE
  5
1AD65
100
AcDbEntity
  8
0
100
AcDbLine
 10
2222.63938
 20
1703.909853
 30
0.0
 11
2231.911127
 21
1693.612539
 31
0.0
  0
LINE
  5
1AD66
100
AcDbEntity
  8
0
100
AcDbLine
 10
2269.62449
 20
1738.23579
 30
0.0
 11
2258.414427
 21
1730.091202
 31
0.0
  0
LINE
  5
1AD67
100
AcDbEntity
  8
0
100
AcDbLine
 10
2298.435931
 20
1713.889266
 30
0.0
 11
2298.435931
 21
1740.889266
 31
0.0
  0
LINE
  5
1AD68
100
AcDbEntity
  8
0
100
AcDbLine
 10
2244.307581
 20
1749.50761
 30
0.0
 11
2255.517644
 21
1757.652198
 31
0.0
  0
LINE
  5
1AD69
100
AcDbEntity
  8
0
100
AcDbLine
 10
2305.579531
 20
1764.169399
 30
0.0
 11
2312.507731
 21
1776.169399
 31
0.0
  0
LINE
  5
1AD6A
100
AcDbEntity
  8
0
100
AcDbLine
 10
2255.517644
 20
1757.652198
 30
0.0
 11
2268.176099
 21
1752.016287
 31
0.0
  0
LINE
  5
1AD6B
100
AcDbEntity
  8
0
100
AcDbLine
 10
2312.507731
 20
1752.169399
 30
0.0
 11
2305.579531
 21
1764.169399
 31
0.0
  0
LINE
  5
1AD6C
100
AcDbEntity
  8
0
100
AcDbLine
 10
2326.364131
 20
1752.169399
 30
0.0
 11
2312.507731
 21
1752.169399
 31
0.0
  0
LINE
  5
1AD6D
100
AcDbEntity
  8
0
100
AcDbLine
 10
2312.507731
 20
1776.169399
 30
0.0
 11
2326.364131
 21
1776.169399
 31
0.0
  0
LINE
  5
1AD6E
100
AcDbEntity
  8
0
100
AcDbLine
 10
2181.687755
 20
1973.858514
 30
0.0
 11
2204.945124
 21
1909.959416
 31
0.0
  0
LINE
  5
1AD6F
100
AcDbEntity
  8
0
100
AcDbLine
 10
2193.089264
 20
1979.070884
 30
0.0
 11
2217.035931
 21
1913.29755
 31
0.0
  0
ARC
  5
1AD70
100
AcDbEntity
  8
0
100
AcDbCircle
 10
2245.808569
 20
1961.014538
 30
0.0
 40
55.660957
100
AcDbArc
 50
182.615887
 51
217.384113
  0
ARC
  5
1AD71
100
AcDbEntity
  8
0
100
AcDbCircle
 10
2221.830454
 20
1927.957365
 30
0.0
 40
19.99219
100
AcDbArc
 50
357.037773
 51
35.584512
  0
ARC
  5
1AD72
100
AcDbEntity
  8
0
100
AcDbCircle
 10
2152.570468
 20
1927.078645
 30
0.0
 40
55.660957
100
AcDbArc
 50
2.615887
 51
37.384113
  0
LINE
  5
1AD73
100
AcDbEntity
  8
0
100
AcDbLine
 10
2248.435863
 20
1882.084217
 30
0.0
 11
2257.742597
 21
1916.81755
 31
0.0
  0
LINE
  5
1AD74
100
AcDbEntity
  8
0
100
AcDbLine
 10
2241.795931
 20
1926.924217
 30
0.0
 11
2239.447429
 21
1882.084217
 31
0.0
  0
LINE
  5
1AD75
100
AcDbEntity
  8
0
100
AcDbLine
 10
2239.447429
 20
1882.084217
 30
0.0
 11
2248.435863
 21
1882.084217
 31
0.0
  0
ARC
  5
1AD76
100
AcDbEntity
  8
0
100
AcDbCircle
 10
2201.099551
 20
1912.419618
 30
0.0
 40
15.072218
100
AcDbArc
 50
346.234355
 51
53.765645
  0
LINE
  5
1AD77
100
AcDbEntity
  8
0
100
AcDbLine
 10
2215.738852
 20
1908.833167
 30
0.0
 11
2209.146746
 21
1906.433837
 31
0.0
  0
ARC
  5
1AD78
100
AcDbEntity
  8
0
100
AcDbCircle
 10
2218.055775
 20
1918.591179
 30
0.0
 40
15.072218
100
AcDbArc
 50
166.234355
 51
233.765645
  0
LINE
  5
1AD79
100
AcDbEntity
  8
0
100
AcDbLine
 10
2204.945124
 20
1909.959416
 30
0.0
 11
2209.146746
 21
1906.433837
 31
0.0
  0
LINE
  5
1AD7A
100
AcDbEntity
  8
0
100
AcDbLine
 10
2210.00858
 20
1924.576961
 30
0.0
 11
2203.416474
 21
1922.17763
 31
0.0
  0
LINE
  5
1AD7B
100
AcDbEntity
  8
0
100
AcDbLine
 10
2208.173424
 20
1929.61901
 30
0.0
 11
2201.581318
 21
1927.21968
 31
0.0
  0
LINE
  5
1AD7C
100
AcDbEntity
  8
0
100
AcDbLine
 10
2201.581318
 20
1927.21968
 30
0.0
 11
2203.416474
 21
1922.17763
 31
0.0
  0
LINE
  5
1AD7D
100
AcDbEntity
  8
0
100
AcDbLine
 10
2210.00858
 20
1924.576961
 30
0.0
 11
2208.173424
 21
1929.61901
 31
0.0
  0
ARC
  5
1AD7E
100
AcDbEntity
  8
0
100
AcDbCircle
 10
2236.83666
 20
1909.168397
 30
0.0
 40
4.016528
100
AcDbArc
 50
357.466948
 51
106.598821
  0
LINE
  5
1AD7F
100
AcDbEntity
  8
0
100
AcDbLine
 10
2216.691282
 20
1914.234668
 30
0.0
 11
2215.738852
 21
1908.833167
 31
0.0
  0
LINE
  5
1AD80
100
AcDbEntity
  8
0
100
AcDbLine
 10
2235.689264
 20
1913.01755
 30
0.0
 11
2222.889264
 21
1912.764217
 31
0.0
  0
LINE
  5
1AD81
100
AcDbEntity
  8
0
100
AcDbLine
 10
2219.249264
 20
1911.430884
 30
0.0
 11
2222.889264
 21
1912.764217
 31
0.0
  0
LINE
  5
1AD82
100
AcDbEntity
  8
0
100
AcDbLine
 10
2217.035931
 20
1913.29755
 30
0.0
 11
2219.249264
 21
1911.430884
 31
0.0
  0
ARC
  5
1AD83
100
AcDbEntity
  8
0
100
AcDbCircle
 10
2275.999446
 20
1912.789401
 30
0.0
 40
12.006074
100
AcDbArc
 50
50.831029
 51
106.99973
  0
LINE
  5
1AD84
100
AcDbEntity
  8
0
100
AcDbLine
 10
2261.782597
 20
1921.004217
 30
0.0
 11
2272.489264
 21
1924.270884
 31
0.0
  0
ARC
  5
1AD85
100
AcDbEntity
  8
0
100
AcDbCircle
 10
2263.614889
 20
1915.193545
 30
0.0
 40
6.092718
100
AcDbArc
 50
107.50174
 51
164.541005
  0
ARC
  5
1AD86
100
AcDbEntity
  8
0
100
AcDbCircle
 10
2197.279486
 20
1975.673564
 30
0.0
 40
15.072218
100
AcDbArc
 50
166.234355
 51
233.765645
  0
ARC
  5
1AD87
100
AcDbEntity
  8
0
100
AcDbCircle
 10
2180.323262
 20
1969.502003
 30
0.0
 40
15.072218
100
AcDbArc
 50
346.234355
 51
53.765645
  0
LINE
  5
1AD88
100
AcDbEntity
  8
0
100
AcDbLine
 10
2194.962563
 20
1965.915552
 30
0.0
 11
2188.370457
 21
1963.516222
 31
0.0
  0
LINE
  5
1AD89
100
AcDbEntity
  8
0
100
AcDbLine
 10
2196.797719
 20
1960.873503
 30
0.0
 11
2194.962563
 21
1965.915552
 31
0.0
  0
LINE
  5
1AD8A
100
AcDbEntity
  8
0
100
AcDbLine
 10
2196.797719
 20
1960.873503
 30
0.0
 11
2190.205613
 21
1958.474173
 31
0.0
  0
LINE
  5
1AD8B
100
AcDbEntity
  8
0
100
AcDbLine
 10
2188.370457
 20
1963.516222
 30
0.0
 11
2190.205613
 21
1958.474173
 31
0.0
  0
ARC
  5
1AD8C
100
AcDbEntity
  8
0
100
AcDbCircle
 10
2187.312318
 20
1989.695149
 30
0.0
 40
10.003928
100
AcDbArc
 50
308.911151
 51
2.993323
  0
LINE
  5
1AD8D
100
AcDbEntity
  8
0
100
AcDbLine
 10
2193.595931
 20
1981.910884
 30
0.0
 11
2193.089264
 21
1979.070884
 31
0.0
  0
LINE
  5
1AD8E
100
AcDbEntity
  8
0
100
AcDbLine
 10
2189.232291
 20
1981.659345
 30
0.0
 11
2182.640185
 21
1979.260015
 31
0.0
  0
LINE
  5
1AD8F
100
AcDbEntity
  8
0
100
AcDbLine
 10
2193.433912
 20
1978.133766
 30
0.0
 11
2189.232291
 21
1981.659345
 31
0.0
  0
LINE
  5
1AD90
100
AcDbEntity
  8
0
100
AcDbLine
 10
2181.687755
 20
1973.858514
 30
0.0
 11
2182.640185
 21
1979.260015
 31
0.0
  0
LINE
  5
1AD91
100
AcDbEntity
  8
0
100
AcDbLine
 10
1105.026757
 20
2148.754865
 30
0.0
 11
1101.020347
 21
2123.754865
 31
0.0
  0
LINE
  5
1AD92
100
AcDbEntity
  8
0
100
AcDbLine
 10
1160.423727
 20
2066.754865
 30
0.0
 11
1160.423727
 21
2206.754865
 31
0.0
  0
LINE
  5
1AD93
100
AcDbEntity
  8
0
100
AcDbLine
 10
1180.423727
 20
2136.754865
 30
0.0
 11
1180.423727
 21
2066.754865
 31
0.0
  0
LINE
  5
1AD94
100
AcDbEntity
  8
0
100
AcDbLine
 10
1180.423727
 20
2066.754865
 30
0.0
 11
1160.423727
 21
2066.754865
 31
0.0
  0
LINE
  5
1AD95
100
AcDbEntity
  8
0
100
AcDbLine
 10
1094.020347
 20
2001.754865
 30
0.0
 11
1094.020347
 21
2086.954865
 31
0.0
  0
LINE
  5
1AD96
100
AcDbEntity
  8
0
100
AcDbLine
 10
1095.367014
 20
2091.954865
 30
0.0
 11
1099.687014
 21
2099.434865
 31
0.0
  0
ARC
  5
1AD97
100
AcDbEntity
  8
0
100
AcDbCircle
 10
1104.150731
 20
2086.907766
 30
0.0
 40
10.130494
100
AcDbArc
 50
150.118448
 51
179.733617
  0
LINE
  5
1AD98
100
AcDbEntity
  8
0
100
AcDbLine
 10
1144.423727
 20
2108.754865
 30
0.0
 11
1108.647014
 21
2108.754865
 31
0.0
  0
LINE
  5
1AD99
100
AcDbEntity
  8
0
100
AcDbLine
 10
1101.020347
 20
2123.754865
 30
0.0
 11
1101.020347
 21
2104.434865
 31
0.0
  0
ARC
  5
1AD9A
100
AcDbEntity
  8
0
100
AcDbCircle
 10
1091.530882
 20
2104.3354
 30
0.0
 40
9.489986
100
AcDbArc
 50
348.200795
 51
0.600526
  0
ARC
  5
1AD9B
100
AcDbEntity
  8
0
100
AcDbCircle
 10
1091.016102
 20
2104.451775
 30
0.0
 40
10.01769
100
AcDbArc
 50
329.946716
 51
348.151308
  0
ARC
  5
1AD9C
100
AcDbEntity
  8
0
100
AcDbCircle
 10
1108.646271
 20
2100.759999
 30
0.0
 40
7.994866
100
AcDbArc
 50
89.994681
 51
168.200385
  0
LINE
  5
1AD9D
100
AcDbEntity
  8
0
100
AcDbLine
 10
1160.423727
 20
2104.754865
 30
0.0
 11
1144.423727
 21
2108.754865
 31
0.0
  0
LINE
  5
1AD9E
100
AcDbEntity
  8
0
100
AcDbLine
 10
1180.423727
 20
2206.754865
 30
0.0
 11
1160.423727
 21
2206.754865
 31
0.0
  0
LINE
  5
1AD9F
100
AcDbEntity
  8
0
100
AcDbLine
 10
1061.470037
 20
2198.402048
 30
0.0
 11
1061.470037
 21
2190.768198
 31
0.0
  0
LINE
  5
1ADA0
100
AcDbEntity
  8
0
100
AcDbLine
 10
1055.408037
 20
2190.768198
 30
0.0
 11
1055.408037
 21
2198.402048
 31
0.0
  0
LINE
  5
1ADA1
100
AcDbEntity
  8
0
100
AcDbLine
 10
1118.162703
 20
2198.402048
 30
0.0
 11
1118.162703
 21
2190.768198
 31
0.0
  0
LINE
  5
1ADA2
100
AcDbEntity
  8
0
100
AcDbLine
 10
1112.099828
 20
2198.402048
 30
0.0
 11
1112.099828
 21
2190.768198
 31
0.0
  0
LINE
  5
1ADA3
100
AcDbEntity
  8
0
100
AcDbLine
 10
1079.656037
 20
2198.402048
 30
0.0
 11
1079.656037
 21
2190.768198
 31
0.0
  0
LINE
  5
1ADA4
100
AcDbEntity
  8
0
100
AcDbLine
 10
1099.976703
 20
2198.402048
 30
0.0
 11
1099.976703
 21
2190.768198
 31
0.0
  0
LINE
  5
1ADA5
100
AcDbEntity
  8
0
100
AcDbLine
 10
1093.914703
 20
2190.768198
 30
0.0
 11
1093.914703
 21
2198.402048
 31
0.0
  0
ARC
  5
1ADA6
100
AcDbEntity
  8
0
100
AcDbCircle
 10
1089.166899
 20
2196.766723
 30
0.0
 40
5.998525
100
AcDbArc
 50
186.36677
 51
269.985397
  0
LINE
  5
1ADA7
100
AcDbEntity
  8
0
100
AcDbLine
 10
1073.593162
 20
2198.402048
 30
0.0
 11
1073.593162
 21
2190.768198
 31
0.0
  0
LINE
  5
1ADA8
100
AcDbEntity
  8
0
100
AcDbLine
 10
1126.72537
 20
2168.754865
 30
0.0
 11
1126.72537
 21
2148.754865
 31
0.0
  0
LINE
  5
1ADA9
100
AcDbEntity
  8
0
100
AcDbLine
 10
1144.62875
 20
2164.754865
 30
0.0
 11
1130.72537
 21
2164.754865
 31
0.0
  0
LINE
  5
1ADAA
100
AcDbEntity
  8
0
100
AcDbLine
 10
1101.472037
 20
2170.768198
 30
0.0
 11
1126.72537
 21
2170.768198
 31
0.0
  0
LINE
  5
1ADAB
100
AcDbEntity
  8
0
100
AcDbLine
 10
1101.472037
 20
2168.754865
 30
0.0
 11
1101.472037
 21
2170.768198
 31
0.0
  0
ARC
  5
1ADAC
100
AcDbEntity
  8
0
100
AcDbCircle
 10
1130.731392
 20
2168.760886
 30
0.0
 40
4.006026
100
AcDbArc
 50
180.086122
 51
269.913878
  0
LINE
  5
1ADAD
100
AcDbEntity
  8
0
100
AcDbLine
 10
1126.72537
 20
2170.768198
 30
0.0
 11
1126.72537
 21
2190.768198
 31
0.0
  0
LINE
  5
1ADAE
100
AcDbEntity
  8
0
100
AcDbLine
 10
1160.423727
 20
2168.754865
 30
0.0
 11
1144.62875
 21
2164.754865
 31
0.0
  0
ARC
  5
1ADAF
100
AcDbEntity
  8
0
100
AcDbCircle
 10
1096.945266
 20
2193.550806
 30
0.0
 40
5.720504
100
AcDbArc
 50
57.999617
 51
122.000383
  0
LINE
  5
1ADB0
100
AcDbEntity
  8
0
100
AcDbLine
 10
1095.847578
 20
2199.518198
 30
0.0
 11
1116.229828
 21
2199.518198
 31
0.0
  0
LINE
  5
1ADB1
100
AcDbEntity
  8
0
100
AcDbLine
 10
1057.340912
 20
2199.518198
 30
0.0
 11
1077.723162
 21
2199.518198
 31
0.0
  0
ARC
  5
1ADB2
100
AcDbEntity
  8
0
100
AcDbCircle
 10
1058.438599
 20
2193.550806
 30
0.0
 40
5.720504
100
AcDbArc
 50
57.999617
 51
122.000383
  0
ARC
  5
1ADB3
100
AcDbEntity
  8
0
100
AcDbCircle
 10
1005.247641
 20
2022.930632
 30
0.0
 40
176.838109
100
AcDbArc
 50
73.521741
 51
83.585076
  0
LINE
  5
1ADB4
100
AcDbEntity
  8
0
100
AcDbLine
 10
1023.218703
 20
2204.768198
 30
0.0
 11
1021.218703
 21
2206.768198
 31
0.0
  0
ARC
  5
1ADB5
100
AcDbEntity
  8
0
100
AcDbCircle
 10
1025.223343
 20
2200.654295
 30
0.0
 40
2.004649
100
AcDbArc
 50
180.174248
 51
263.757673
  0
LINE
  5
1ADB6
100
AcDbEntity
  8
0
100
AcDbLine
 10
1023.218703
 20
2200.648198
 30
0.0
 11
1023.218703
 21
2204.768198
 31
0.0
  0
LINE
  5
1ADB7
100
AcDbEntity
  8
0
100
AcDbLine
 10
1056.042111
 20
2198.768198
 30
0.0
 11
1050.218703
 21
2198.768198
 31
0.0
  0
LINE
  5
1ADB8
100
AcDbEntity
  8
0
100
AcDbLine
 10
1055.408037
 20
2198.402048
 30
0.0
 11
1057.340912
 21
2199.518198
 31
0.0
  0
LINE
  5
1ADB9
100
AcDbEntity
  8
0
100
AcDbLine
 10
1050.218703
 20
2198.768198
 30
0.0
 11
1042.218703
 21
2195.861531
 31
0.0
  0
ARC
  5
1ADBA
100
AcDbEntity
  8
0
100
AcDbCircle
 10
1067.531599
 20
2177.699702
 30
0.0
 40
21.571502
100
AcDbArc
 50
73.680185
 51
106.319815
  0
ARC
  5
1ADBB
100
AcDbEntity
  8
0
100
AcDbCircle
 10
1080.221236
 20
2195.765167
 30
0.0
 40
3.003032
100
AcDbArc
 50
6.431087
 51
108.214788
  0
LINE
  5
1ADBC
100
AcDbEntity
  8
0
100
AcDbLine
 10
1077.723162
 20
2199.518198
 30
0.0
 11
1079.656037
 21
2198.402048
 31
0.0
  0
ARC
  5
1ADBD
100
AcDbEntity
  8
0
100
AcDbCircle
 10
1076.624599
 20
2193.550826
 30
0.0
 40
5.720487
100
AcDbArc
 50
57.999511
 51
122.000489
  0
LINE
  5
1ADBE
100
AcDbEntity
  8
0
100
AcDbLine
 10
1093.914703
 20
2198.402048
 30
0.0
 11
1095.847578
 21
2199.518198
 31
0.0
  0
LINE
  5
1ADBF
100
AcDbEntity
  8
0
100
AcDbLine
 10
1116.229828
 20
2199.518198
 30
0.0
 11
1118.162703
 21
2198.402048
 31
0.0
  0
ARC
  5
1ADC0
100
AcDbEntity
  8
0
100
AcDbCircle
 10
1115.131266
 20
2193.550826
 30
0.0
 40
5.720487
100
AcDbArc
 50
57.999511
 51
122.000489
  0
ARC
  5
1ADC1
100
AcDbEntity
  8
0
100
AcDbCircle
 10
1106.038266
 20
2177.699702
 30
0.0
 40
21.571502
100
AcDbArc
 50
73.680185
 51
106.319815
  0
LINE
  5
1ADC2
100
AcDbEntity
  8
0
100
AcDbLine
 10
1180.423727
 20
2206.754865
 30
0.0
 11
1180.423727
 21
2136.754865
 31
0.0
  0
LINE
  5
1ADC3
100
AcDbEntity
  8
0
100
AcDbLine
 10
2144.435931
 20
2131.084217
 30
0.0
 11
2144.435931
 21
2053.584217
 31
0.0
  0
LINE
  5
1ADC4
100
AcDbEntity
  8
0
100
AcDbLine
 10
2180.435931
 20
2153.910884
 30
0.0
 11
2180.435931
 21
2108.270884
 31
0.0
  0
LINE
  5
1ADC5
100
AcDbEntity
  8
0
100
AcDbLine
 10
2164.435931
 20
2053.584217
 30
0.0
 11
2164.435931
 21
2208.584217
 31
0.0
  0
LINE
  5
1ADC6
100
AcDbEntity
  8
0
100
AcDbLine
 10
2239.445546
 20
2148.084217
 30
0.0
 11
2243.435931
 21
2123.084217
 31
0.0
  0
LINE
  5
1ADC7
100
AcDbEntity
  8
0
100
AcDbLine
 10
2168.982597
 20
2095.230884
 30
0.0
 11
2180.435931
 21
2098.084217
 31
0.0
  0
LINE
  5
1ADC8
100
AcDbEntity
  8
0
100
AcDbLine
 10
2144.435931
 20
2053.584217
 30
0.0
 11
2164.435931
 21
2053.584217
 31
0.0
  0
ARC
  5
1ADC9
100
AcDbEntity
  8
0
100
AcDbCircle
 10
2170.455165
 20
2089.408306
 30
0.0
 40
6.005902
100
AcDbArc
 50
104.192869
 51
180.039012
  0
LINE
  5
1ADCA
100
AcDbEntity
  8
0
100
AcDbLine
 10
2243.435931
 20
2123.084217
 30
0.0
 11
2243.435931
 21
2093.764217
 31
0.0
  0
ARC
  5
1ADCB
100
AcDbEntity
  8
0
100
AcDbCircle
 10
2185.059596
 20
2090.040923
 30
0.0
 40
8.043409
100
AcDbArc
 50
3.349588
 51
89.693688
  0
ARC
  5
1ADCC
100
AcDbEntity
  8
0
100
AcDbCircle
 10
2253.479675
 20
2093.787981
 30
0.0
 40
10.043772
100
AcDbArc
 50
180.135564
 51
210.012371
  0
ARC
  5
1ADCD
100
AcDbEntity
  8
0
100
AcDbCircle
 10
2240.624934
 20
2076.345729
 30
0.0
 40
9.811189
100
AcDbArc
 50
359.640777
 51
30.222057
  0
LINE
  5
1ADCE
100
AcDbEntity
  8
0
100
AcDbLine
 10
2244.782597
 20
2088.764217
 30
0.0
 11
2249.102597
 21
2081.284217
 31
0.0
  0
LINE
  5
1ADCF
100
AcDbEntity
  8
0
100
AcDbLine
 10
2180.435931
 20
2098.084217
 30
0.0
 11
2185.102597
 21
2098.084217
 31
0.0
  0
LINE
  5
1ADD0
100
AcDbEntity
  8
0
100
AcDbLine
 10
2180.435931
 20
2164.084217
 30
0.0
 11
2168.982597
 21
2166.950884
 31
0.0
  0
LINE
  5
1ADD1
100
AcDbEntity
  8
0
100
AcDbLine
 10
2144.435931
 20
2208.584217
 30
0.0
 11
2144.435931
 21
2131.084217
 31
0.0
  0
ARC
  5
1ADD2
100
AcDbEntity
  8
0
100
AcDbCircle
 10
2170.455165
 20
2172.773461
 30
0.0
 40
6.005902
100
AcDbArc
 50
179.960988
 51
255.807131
  0
LINE
  5
1ADD3
100
AcDbEntity
  8
0
100
AcDbLine
 10
2144.435931
 20
2208.584217
 30
0.0
 11
2164.435931
 21
2208.584217
 31
0.0
  0
LINE
  5
1ADD4
100
AcDbEntity
  8
0
100
AcDbLine
 10
2217.942597
 20
2202.09755
 30
0.0
 11
2217.942597
 21
2170.09755
 31
0.0
  0
LINE
  5
1ADD5
100
AcDbEntity
  8
0
100
AcDbLine
 10
2226.505264
 20
2190.09755
 30
0.0
 11
2226.505264
 21
2197.7314
 31
0.0
  0
LINE
  5
1ADD6
100
AcDbEntity
  8
0
100
AcDbLine
 10
2232.567264
 20
2197.7314
 30
0.0
 11
2232.567264
 21
2190.09755
 31
0.0
  0
LINE
  5
1ADD7
100
AcDbEntity
  8
0
100
AcDbLine
 10
2244.690389
 20
2197.7314
 30
0.0
 11
2244.690389
 21
2190.09755
 31
0.0
  0
LINE
  5
1ADD8
100
AcDbEntity
  8
0
100
AcDbLine
 10
2265.011931
 20
2190.09755
 30
0.0
 11
2265.011931
 21
2197.7314
 31
0.0
  0
LINE
  5
1ADD9
100
AcDbEntity
  8
0
100
AcDbLine
 10
2271.073931
 20
2197.7314
 30
0.0
 11
2271.073931
 21
2190.09755
 31
0.0
  0
LINE
  5
1ADDA
100
AcDbEntity
  8
0
100
AcDbLine
 10
2250.753264
 20
2197.7314
 30
0.0
 11
2250.753264
 21
2190.09755
 31
0.0
  0
LINE
  5
1ADDB
100
AcDbEntity
  8
0
100
AcDbLine
 10
2283.197056
 20
2197.7314
 30
0.0
 11
2283.197056
 21
2190.09755
 31
0.0
  0
LINE
  5
1ADDC
100
AcDbEntity
  8
0
100
AcDbLine
 10
2289.259931
 20
2197.7314
 30
0.0
 11
2289.259931
 21
2190.09755
 31
0.0
  0
ARC
  5
1ADDD
100
AcDbEntity
  8
0
100
AcDbCircle
 10
2339.770357
 20
2020.516069
 30
0.0
 40
178.610279
100
AcDbArc
 50
96.464003
 51
106.427201
  0
LINE
  5
1ADDE
100
AcDbEntity
  8
0
100
AcDbLine
 10
2327.318597
 20
2190.09755
 30
0.0
 11
2327.318597
 21
2197.7314
 31
0.0
  0
LINE
  5
1ADDF
100
AcDbEntity
  8
0
100
AcDbLine
 10
2217.942597
 20
2168.084217
 30
0.0
 11
2217.942597
 21
2148.084217
 31
0.0
  0
LINE
  5
1ADE0
100
AcDbEntity
  8
0
100
AcDbLine
 10
2217.942597
 20
2164.084217
 30
0.0
 11
2180.435931
 21
2164.084217
 31
0.0
  0
LINE
  5
1ADE1
100
AcDbEntity
  8
0
100
AcDbLine
 10
2243.195931
 20
2170.09755
 30
0.0
 11
2243.195931
 21
2168.084217
 31
0.0
  0
LINE
  5
1ADE2
100
AcDbEntity
  8
0
100
AcDbLine
 10
2217.942597
 20
2170.09755
 30
0.0
 11
2243.195931
 21
2170.09755
 31
0.0
  0
LINE
  5
1ADE3
100
AcDbEntity
  8
0
100
AcDbLine
 10
2319.435931
 20
2202.09755
 30
0.0
 11
2217.942597
 21
2202.09755
 31
0.0
  0
ARC
  5
1ADE4
100
AcDbEntity
  8
0
100
AcDbCircle
 10
2238.628827
 20
2177.029054
 30
0.0
 40
21.571502
100
AcDbArc
 50
73.680185
 51
106.319815
  0
LINE
  5
1ADE5
100
AcDbEntity
  8
0
100
AcDbLine
 10
2228.438139
 20
2198.84755
 30
0.0
 11
2248.820389
 21
2198.84755
 31
0.0
  0
LINE
  5
1ADE6
100
AcDbEntity
  8
0
100
AcDbLine
 10
2226.505264
 20
2197.7314
 30
0.0
 11
2228.438139
 21
2198.84755
 31
0.0
  0
ARC
  5
1ADE7
100
AcDbEntity
  8
0
100
AcDbCircle
 10
2229.535827
 20
2192.880158
 30
0.0
 40
5.720504
100
AcDbArc
 50
57.999617
 51
122.000383
  0
LINE
  5
1ADE8
100
AcDbEntity
  8
0
100
AcDbLine
 10
2248.820389
 20
2198.84755
 30
0.0
 11
2250.753264
 21
2197.7314
 31
0.0
  0
ARC
  5
1ADE9
100
AcDbEntity
  8
0
100
AcDbCircle
 10
2247.721827
 20
2192.880178
 30
0.0
 40
5.720487
100
AcDbArc
 50
57.999511
 51
122.000489
  0
LINE
  5
1ADEA
100
AcDbEntity
  8
0
100
AcDbLine
 10
2266.944806
 20
2198.84755
 30
0.0
 11
2287.327056
 21
2198.84755
 31
0.0
  0
ARC
  5
1ADEB
100
AcDbEntity
  8
0
100
AcDbCircle
 10
2277.135493
 20
2177.029054
 30
0.0
 40
21.571502
100
AcDbArc
 50
73.680185
 51
106.319815
  0
LINE
  5
1ADEC
100
AcDbEntity
  8
0
100
AcDbLine
 10
2265.011931
 20
2197.7314
 30
0.0
 11
2266.944806
 21
2198.84755
 31
0.0
  0
ARC
  5
1ADED
100
AcDbEntity
  8
0
100
AcDbCircle
 10
2268.042493
 20
2192.880158
 30
0.0
 40
5.720504
100
AcDbArc
 50
57.999617
 51
122.000383
  0
ARC
  5
1ADEE
100
AcDbEntity
  8
0
100
AcDbCircle
 10
2286.228493
 20
2192.880178
 30
0.0
 40
5.720487
100
AcDbArc
 50
57.999511
 51
122.000489
  0
LINE
  5
1ADEF
100
AcDbEntity
  8
0
100
AcDbLine
 10
2287.327056
 20
2198.84755
 30
0.0
 11
2289.259931
 21
2197.7314
 31
0.0
  0
ARC
  5
1ADF0
100
AcDbEntity
  8
0
100
AcDbCircle
 10
2319.43292
 20
2204.100561
 30
0.0
 40
2.003013
100
AcDbArc
 50
270.086122
 51
359.913878
  0
ARC
  5
1ADF1
100
AcDbEntity
  8
0
100
AcDbCircle
 10
2319.438024
 20
2199.976129
 30
0.0
 40
1.997907
100
AcDbArc
 50
276.45393
 51
0.040755
  0
LINE
  5
1ADF2
100
AcDbEntity
  8
0
100
AcDbLine
 10
2328.942597
 20
2213.590884
 30
0.0
 11
2329.942597
 21
2214.590884
 31
0.0
  0
LINE
  5
1ADF3
100
AcDbEntity
  8
0
100
AcDbLine
 10
2328.942597
 20
2206.09755
 30
0.0
 11
2328.942597
 21
2213.590884
 31
0.0
  0
LINE
  5
1ADF4
100
AcDbEntity
  8
0
100
AcDbLine
 10
2321.435931
 20
2199.97755
 30
0.0
 11
2321.435931
 21
2203.924217
 31
0.0
  0
LINE
  5
1ADF5
100
AcDbEntity
  8
0
100
AcDbLine
 10
2327.318597
 20
2197.7314
 30
0.0
 11
2329.251472
 21
2198.84755
 31
0.0
  0
LINE
  5
1ADF6
100
AcDbEntity
  8
0
100
AcDbLine
 10
2323.435931
 20
2206.09755
 30
0.0
 11
2321.435931
 21
2204.09755
 31
0.0
  0
LINE
  5
1ADF7
100
AcDbEntity
  8
0
100
AcDbLine
 10
3523.032517
 20
1209.807059
 30
0.0
 11
3562.52842
 21
1209.807059
 31
0.0
  0
LINE
  5
1ADF8
100
AcDbEntity
  8
0
100
AcDbLine
 10
3523.032517
 20
1309.807059
 30
0.0
 11
3541.730874
 21
1309.807059
 31
0.0
  0
LINE
  5
1ADF9
100
AcDbEntity
  8
0
100
AcDbLine
 10
2465.782597
 20
1230.575021
 30
0.0
 11
2461.569264
 21
1130.281687
 31
0.0
  0
LINE
  5
1ADFA
100
AcDbEntity
  8
0
100
AcDbLine
 10
2414.089264
 20
1228.828354
 30
0.0
 11
2409.769264
 21
1221.348354
 31
0.0
  0
LINE
  5
1ADFB
100
AcDbEntity
  8
0
100
AcDbLine
 10
2494.435931
 20
1193.655021
 30
0.0
 11
2494.435931
 21
1348.655021
 31
0.0
  0
LINE
  5
1ADFC
100
AcDbEntity
  8
0
100
AcDbLine
 10
2514.435931
 20
1271.148354
 30
0.0
 11
2514.435931
 21
1193.655021
 31
0.0
  0
LINE
  5
1ADFD
100
AcDbEntity
  8
0
100
AcDbLine
 10
2825.440185
 20
1228.828354
 30
0.0
 11
2821.120185
 21
1221.348354
 31
0.0
  0
LINE
  5
1ADFE
100
AcDbEntity
  8
0
100
AcDbLine
 10
2636.120185
 20
1228.828354
 30
0.0
 11
2640.440185
 21
1221.348354
 31
0.0
  0
CIRCLE
  5
1ADFF
100
AcDbEntity
  8
0
100
AcDbCircle
 10
2730.780185
 20
1271.148354
 30
0.0
 40
77.5
  0
CIRCLE
  5
1AE00
100
AcDbEntity
  8
0
100
AcDbCircle
 10
2688.353778
 20
1228.721947
 30
0.0
 40
9.5
  0
CIRCLE
  5
1AE01
100
AcDbEntity
  8
0
100
AcDbCircle
 10
2773.206592
 20
1228.721947
 30
0.0
 40
9.5
  0
ARC
  5
1AE02
100
AcDbEntity
  8
0
100
AcDbCircle
 10
2730.780185
 20
1131.223694
 30
0.0
 40
89.0
100
AcDbArc
 50
180.0
 51
243.292355
  0
ARC
  5
1AE03
100
AcDbEntity
  8
0
100
AcDbCircle
 10
2506.301393
 20
1067.142782
 30
0.0
 40
55.660957
100
AcDbArc
 50
142.615887
 51
177.384113
  0
LINE
  5
1AE04
100
AcDbEntity
  8
0
100
AcDbLine
 10
2465.782597
 20
1119.135021
 30
0.0
 11
2441.835931
 21
1053.361687
 31
0.0
  0
LINE
  5
1AE05
100
AcDbEntity
  8
0
100
AcDbLine
 10
2477.184107
 20
1113.922651
 30
0.0
 11
2453.926737
 21
1050.023553
 31
0.0
  0
LINE
  5
1AE06
100
AcDbEntity
  8
0
100
AcDbLine
 10
2470.501404
 20
1103.580359
 30
0.0
 11
2468.666248
 21
1098.53831
 31
0.0
  0
LINE
  5
1AE07
100
AcDbEntity
  8
0
100
AcDbLine
 10
2462.074143
 20
1100.93764
 30
0.0
 11
2468.666248
 21
1098.53831
 31
0.0
  0
LINE
  5
1AE08
100
AcDbEntity
  8
0
100
AcDbLine
 10
2417.075931
 20
1066.988354
 30
0.0
 11
2419.424433
 21
1022.148354
 31
0.0
  0
LINE
  5
1AE09
100
AcDbEntity
  8
0
100
AcDbLine
 10
2410.435999
 20
1022.148354
 30
0.0
 11
2401.129264
 21
1056.881687
 31
0.0
  0
LINE
  5
1AE0A
100
AcDbEntity
  8
0
100
AcDbLine
 10
2419.424433
 20
1022.148354
 30
0.0
 11
2410.435999
 21
1022.148354
 31
0.0
  0
ARC
  5
1AE0B
100
AcDbEntity
  8
0
100
AcDbCircle
 10
2382.872415
 20
1052.853538
 30
0.0
 40
12.006074
100
AcDbArc
 50
73.00027
 51
129.168971
  0
ARC
  5
1AE0C
100
AcDbEntity
  8
0
100
AcDbCircle
 10
2395.256972
 20
1055.257682
 30
0.0
 40
6.092718
100
AcDbArc
 50
15.458995
 51
72.49826
  0
LINE
  5
1AE0D
100
AcDbEntity
  8
0
100
AcDbLine
 10
2397.089264
 20
1061.068354
 30
0.0
 11
2386.382597
 21
1064.335021
 31
0.0
  0
LINE
  5
1AE0E
100
AcDbEntity
  8
0
100
AcDbLine
 10
2450.698437
 20
1069.683147
 30
0.0
 11
2457.290543
 21
1067.283817
 31
0.0
  0
ARC
  5
1AE0F
100
AcDbEntity
  8
0
100
AcDbCircle
 10
2437.041407
 20
1068.021502
 30
0.0
 40
19.99219
100
AcDbArc
 50
144.415488
 51
182.962227
  0
LINE
  5
1AE10
100
AcDbEntity
  8
0
100
AcDbLine
 10
2448.863282
 20
1064.641098
 30
0.0
 11
2450.698437
 21
1069.683147
 31
0.0
  0
ARC
  5
1AE11
100
AcDbEntity
  8
0
100
AcDbCircle
 10
2413.063293
 20
1101.078675
 30
0.0
 40
55.660957
100
AcDbArc
 50
322.615887
 51
357.384113
  0
LINE
  5
1AE12
100
AcDbEntity
  8
0
100
AcDbLine
 10
2443.133009
 20
1048.897304
 30
0.0
 11
2449.725115
 21
1046.497974
 31
0.0
  0
ARC
  5
1AE13
100
AcDbEntity
  8
0
100
AcDbCircle
 10
2457.77231
 20
1052.483756
 30
0.0
 40
15.072218
100
AcDbArc
 50
126.234355
 51
193.765645
  0
LINE
  5
1AE14
100
AcDbEntity
  8
0
100
AcDbLine
 10
2442.180579
 20
1054.298805
 30
0.0
 11
2443.133009
 21
1048.897304
 31
0.0
  0
LINE
  5
1AE15
100
AcDbEntity
  8
0
100
AcDbLine
 10
2441.835931
 20
1053.361687
 30
0.0
 11
2439.622597
 21
1051.495021
 31
0.0
  0
LINE
  5
1AE16
100
AcDbEntity
  8
0
100
AcDbLine
 10
2439.622597
 20
1051.495021
 30
0.0
 11
2435.982597
 21
1052.828354
 31
0.0
  0
ARC
  5
1AE17
100
AcDbEntity
  8
0
100
AcDbCircle
 10
2422.035201
 20
1049.232534
 30
0.0
 40
4.016528
100
AcDbArc
 50
73.401179
 51
182.533052
  0
LINE
  5
1AE18
100
AcDbEntity
  8
0
100
AcDbLine
 10
2423.182597
 20
1053.081687
 30
0.0
 11
2435.982597
 21
1052.828354
 31
0.0
  0
LINE
  5
1AE19
100
AcDbEntity
  8
0
100
AcDbLine
 10
2448.863282
 20
1064.641098
 30
0.0
 11
2455.455387
 21
1062.241767
 31
0.0
  0
LINE
  5
1AE1A
100
AcDbEntity
  8
0
100
AcDbLine
 10
2453.926737
 20
1050.023553
 30
0.0
 11
2449.725115
 21
1046.497974
 31
0.0
  0
ARC
  5
1AE1B
100
AcDbEntity
  8
0
100
AcDbCircle
 10
2440.816087
 20
1058.655316
 30
0.0
 40
15.072218
100
AcDbArc
 50
306.234355
 51
13.765645
  0
LINE
  5
1AE1C
100
AcDbEntity
  8
0
100
AcDbLine
 10
2457.290543
 20
1067.283817
 30
0.0
 11
2455.455387
 21
1062.241767
 31
0.0
  0
LINE
  5
1AE1D
100
AcDbEntity
  8
0
100
AcDbLine
 10
2408.435931
 20
1216.348354
 30
0.0
 11
2408.435931
 21
1131.148354
 31
0.0
  0
ARC
  5
1AE1E
100
AcDbEntity
  8
0
100
AcDbCircle
 10
2471.559543
 20
1129.759287
 30
0.0
 40
10.003928
100
AcDbArc
 50
177.006677
 51
231.088849
  0
ARC
  5
1AE1F
100
AcDbEntity
  8
0
100
AcDbCircle
 10
2478.548599
 20
1109.56614
 30
0.0
 40
15.072218
100
AcDbArc
 50
126.234355
 51
193.765645
  0
ARC
  5
1AE20
100
AcDbEntity
  8
0
100
AcDbCircle
 10
2461.592375
 20
1115.737701
 30
0.0
 40
15.072218
100
AcDbArc
 50
306.234355
 51
13.765645
  0
LINE
  5
1AE21
100
AcDbEntity
  8
0
100
AcDbLine
 10
2462.074143
 20
1100.93764
 30
0.0
 11
2463.909298
 21
1105.979689
 31
0.0
  0
LINE
  5
1AE22
100
AcDbEntity
  8
0
100
AcDbLine
 10
2463.909298
 20
1105.979689
 30
0.0
 11
2470.501404
 21
1103.580359
 31
0.0
  0
LINE
  5
1AE23
100
AcDbEntity
  8
0
100
AcDbLine
 10
2477.184107
 20
1113.922651
 30
0.0
 11
2476.231676
 21
1119.324152
 31
0.0
  0
LINE
  5
1AE24
100
AcDbEntity
  8
0
100
AcDbLine
 10
2465.437949
 20
1118.197903
 30
0.0
 11
2469.639571
 21
1121.723482
 31
0.0
  0
LINE
  5
1AE25
100
AcDbEntity
  8
0
100
AcDbLine
 10
2469.639571
 20
1121.723482
 30
0.0
 11
2476.231676
 21
1119.324152
 31
0.0
  0
LINE
  5
1AE26
100
AcDbEntity
  8
0
100
AcDbLine
 10
2465.275931
 20
1121.975021
 30
0.0
 11
2465.782597
 21
1119.135021
 31
0.0
  0
ARC
  5
1AE27
100
AcDbEntity
  8
0
100
AcDbCircle
 10
2418.246927
 20
1216.409866
 30
0.0
 40
9.811189
100
AcDbArc
 50
149.777943
 51
180.359223
  0
LINE
  5
1AE28
100
AcDbEntity
  8
0
100
AcDbLine
 10
2641.780185
 20
1131.223694
 30
0.0
 11
2641.780185
 21
1216.004463
 31
0.0
  0
LINE
  5
1AE29
100
AcDbEntity
  8
0
100
AcDbLine
 10
2514.435931
 20
1193.655021
 30
0.0
 11
2494.435931
 21
1193.655021
 31
0.0
  0
ARC
  5
1AE2A
100
AcDbEntity
  8
0
100
AcDbCircle
 10
2631.962522
 20
1216.409866
 30
0.0
 40
9.811189
100
AcDbArc
 50
359.640777
 51
30.222057
  0
ARC
  5
1AE2B
100
AcDbEntity
  8
0
100
AcDbCircle
 10
2730.780185
 20
1131.223694
 30
0.0
 40
89.0
100
AcDbArc
 50
296.707645
 51
0.0
  0
ELLIPSE
  5
1AE2C
100
AcDbEntity
  8
0
100
AcDbEllipse
 10
2730.780185
 20
1091.378656
 30
0.0
 11
-41.5
 21
0.0
 31
0.0
210
0.0
220
0.0
230
1.0
 40
0.939693
 41
8.842700122379781
 42
9.880408611374907
  0
ELLIPSE
  5
1AE2D
100
AcDbEntity
  8
0
100
AcDbEllipse
 10
2730.780185
 20
1081.973102
 30
0.0
 11
-34.0
 21
0.0
 31
0.0
210
0.0
220
0.0
230
1.0
 40
0.939693
 41
0.0
 42
6.283185307179586
  0
LINE
  5
1AE2E
100
AcDbEntity
  8
0
100
AcDbLine
 10
2696.114316
 20
1102.519968
 30
0.0
 11
2696.114316
 21
1098.244716
 31
0.0
  0
ELLIPSE
  5
1AE2F
100
AcDbEntity
  8
0
100
AcDbEllipse
 10
2730.780185
 20
1081.973102
 30
0.0
 11
-38.75
 21
0.0
 31
0.0
210
0.0
220
0.0
230
1.0
 40
0.939693
 41
5.688023960069957
 42
5.819931121292446
  0
LINE
  5
1AE30
100
AcDbEntity
  8
0
100
AcDbLine
 10
2765.446054
 20
1102.519968
 30
0.0
 11
2765.446054
 21
1098.244716
 31
0.0
  0
ELLIPSE
  5
1AE31
100
AcDbEntity
  8
0
100
AcDbEllipse
 10
2730.780185
 20
1081.973102
 30
0.0
 11
38.75
 21
0.0
 31
0.0
210
0.0
220
0.0
230
-1.0
 40
0.939693
 41
5.688023960069957
 42
5.819931121292446
  0
ELLIPSE
  5
1AE32
100
AcDbEntity
  8
0
100
AcDbEllipse
 10
2730.780185
 20
1091.378656
 30
0.0
 11
41.5
 21
0.0
 31
0.0
210
0.0
220
0.0
230
-1.0
 40
0.939693
 41
8.842700122379781
 42
9.880408611374907
  0
LINE
  5
1AE33
100
AcDbEntity
  8
0
100
AcDbLine
 10
2690.780185
 20
1026.148354
 30
0.0
 11
2690.780185
 21
1080.988783
 31
0.0
  0
LINE
  5
1AE34
100
AcDbEntity
  8
0
100
AcDbLine
 10
2770.780185
 20
1026.148354
 30
0.0
 11
2770.780185
 21
1080.988783
 31
0.0
  0
LINE
  5
1AE35
100
AcDbEntity
  8
0
100
AcDbLine
 10
2694.780185
 20
1022.148354
 30
0.0
 11
2766.780185
 21
1022.148354
 31
0.0
  0
ARC
  5
1AE36
100
AcDbEntity
  8
0
100
AcDbCircle
 10
2694.780185
 20
1026.148354
 30
0.0
 40
4.0
100
AcDbArc
 50
180.0
 51
270.0
  0
ARC
  5
1AE37
100
AcDbEntity
  8
0
100
AcDbCircle
 10
2766.780185
 20
1026.148354
 30
0.0
 40
4.0
100
AcDbArc
 50
270.0
 51
0.0
  0
LINE
  5
1AE38
100
AcDbEntity
  8
0
100
AcDbLine
 10
2698.692935
 20
1061.558382
 30
0.0
 11
2727.202874
 21
1045.715512
 31
0.0
  0
LINE
  5
1AE39
100
AcDbEntity
  8
0
100
AcDbLine
 10
2696.114316
 20
1098.244716
 30
0.0
 11
2696.114316
 21
1065.701488
 31
0.0
  0
ELLIPSE
  5
1AE3A
100
AcDbEntity
  8
0
100
AcDbEllipse
 10
2730.780185
 20
1081.973102
 30
0.0
 11
-38.75
 21
0.0
 31
0.0
210
0.0
220
0.0
230
1.0
 40
0.939693
 41
6.746439493067044
 42
6.878346654289215
  0
LINE
  5
1AE3B
100
AcDbEntity
  8
0
100
AcDbLine
 10
2765.446054
 20
1098.244716
 30
0.0
 11
2765.446054
 21
1065.701488
 31
0.0
  0
LINE
  5
1AE3C
100
AcDbEntity
  8
0
100
AcDbLine
 10
2762.867434
 20
1061.558382
 30
0.0
 11
2734.357496
 21
1045.715512
 31
0.0
  0
ELLIPSE
  5
1AE3D
100
AcDbEntity
  8
0
100
AcDbEllipse
 10
2730.780185
 20
1081.973102
 30
0.0
 11
-38.75
 21
0.0
 31
0.0
210
0.0
220
0.0
230
-1.0
 40
0.939693
 41
10.90312494282362
 42
11.08802363230492
  0
ELLIPSE
  5
1AE3E
100
AcDbEntity
  8
0
100
AcDbEllipse
 10
2730.780185
 20
1081.973102
 30
0.0
 11
38.75
 21
0.0
 31
0.0
210
0.0
220
0.0
230
-1.0
 40
0.939693
 41
6.746439493067044
 42
6.878346654289215
  0
LINE
  5
1AE3F
100
AcDbEntity
  8
0
100
AcDbLine
 10
2788.136576
 20
1219.028354
 30
0.0
 11
2809.244795
 21
1219.028354
 31
0.0
  0
LINE
  5
1AE40
100
AcDbEntity
  8
0
100
AcDbLine
 10
2765.780185
 20
1202.001771
 30
0.0
 11
2765.780185
 21
1117.786089
 31
0.0
  0
LINE
  5
1AE41
100
AcDbEntity
  8
0
100
AcDbLine
 10
2695.780185
 20
1202.001771
 30
0.0
 11
2695.780185
 21
1117.786089
 31
0.0
  0
LINE
  5
1AE42
100
AcDbEntity
  8
0
100
AcDbLine
 10
2698.692935
 20
1106.663075
 30
0.0
 11
2727.202874
 21
1122.505945
 31
0.0
  0
LINE
  5
1AE43
100
AcDbEntity
  8
0
100
AcDbLine
 10
2698.692935
 20
1102.387823
 30
0.0
 11
2727.202874
 21
1118.230693
 31
0.0
  0
ELLIPSE
  5
1AE44
100
AcDbEntity
  8
0
100
AcDbEllipse
 10
2730.780185
 20
1086.248354
 30
0.0
 11
-38.75
 21
-0.0000000003692906
 31
0.0
210
0.0
220
0.0
230
1.0
 40
0.939693
 41
5.688023960069957
 42
5.819931121292446
  0
LINE
  5
1AE45
100
AcDbEntity
  8
0
100
AcDbLine
 10
2698.692935
 20
1102.387823
 30
0.0
 11
2698.692935
 21
1106.663075
 31
0.0
  0
ARC
  5
1AE46
100
AcDbEntity
  8
0
100
AcDbCircle
 10
2675.780185
 20
1117.786089
 30
0.0
 40
20.0
100
AcDbArc
 50
332.45945
 51
360.0
  0
LINE
  5
1AE47
100
AcDbEntity
  8
0
100
AcDbLine
 10
2762.867434
 20
1106.663075
 30
0.0
 11
2734.357496
 21
1122.505945
 31
0.0
  0
LINE
  5
1AE48
100
AcDbEntity
  8
0
100
AcDbLine
 10
2762.867434
 20
1102.387823
 30
0.0
 11
2734.357496
 21
1118.230693
 31
0.0
  0
LINE
  5
1AE49
100
AcDbEntity
  8
0
100
AcDbLine
 10
2734.357496
 20
1118.230693
 30
0.0
 11
2734.357496
 21
1122.505945
 31
0.0
  0
LINE
  5
1AE4A
100
AcDbEntity
  8
0
100
AcDbLine
 10
2727.202874
 20
1118.230693
 30
0.0
 11
2727.202874
 21
1122.505945
 31
0.0
  0
ELLIPSE
  5
1AE4B
100
AcDbEntity
  8
0
100
AcDbEllipse
 10
2730.780185
 20
1081.973102
 30
0.0
 11
-38.75
 21
0.0
 31
0.0
210
0.0
220
0.0
230
1.0
 40
0.939693
 41
10.90312494282362
 42
11.08802363230492
  0
ELLIPSE
  5
1AE4C
100
AcDbEntity
  8
0
100
AcDbEllipse
 10
2730.780185
 20
1086.248354
 30
0.0
 11
-38.75
 21
0.0
 31
0.0
210
0.0
220
0.0
230
1.0
 40
0.939693
 41
10.90312494282362
 42
11.08802363230492
  0
ELLIPSE
  5
1AE4D
100
AcDbEntity
  8
0
100
AcDbEllipse
 10
2730.780185
 20
1086.248354
 30
0.0
 11
38.75
 21
0.0
 31
0.0
210
0.0
220
0.0
230
-1.0
 40
0.939693
 41
5.688023960069957
 42
5.819931121292446
  0
LINE
  5
1AE4E
100
AcDbEntity
  8
0
100
AcDbLine
 10
2762.867434
 20
1102.387823
 30
0.0
 11
2762.867434
 21
1106.663075
 31
0.0
  0
ARC
  5
1AE4F
100
AcDbEntity
  8
0
100
AcDbCircle
 10
2785.780185
 20
1117.786089
 30
0.0
 40
20.0
100
AcDbArc
 50
180.0
 51
207.54055
  0
LINE
  5
1AE50
100
AcDbEntity
  8
0
100
AcDbLine
 10
2652.315575
 20
1219.028354
 30
0.0
 11
2673.423794
 21
1219.028354
 31
0.0
  0
LINE
  5
1AE51
100
AcDbEntity
  8
0
100
AcDbLine
 10
2819.780185
 20
1131.223694
 30
0.0
 11
2819.780185
 21
1216.004463
 31
0.0
  0
ARC
  5
1AE52
100
AcDbEntity
  8
0
100
AcDbCircle
 10
2829.597848
 20
1216.409866
 30
0.0
 40
9.811189
100
AcDbArc
 50
149.777943
 51
180.359223
  0
LINE
  5
1AE53
100
AcDbEntity
  8
0
100
AcDbLine
 10
2609.280185
 20
1288.148354
 30
0.0
 11
2655.167686
 21
1288.148354
 31
0.0
  0
LINE
  5
1AE54
100
AcDbEntity
  8
0
100
AcDbLine
 10
2640.762023
 20
1263.148354
 30
0.0
 11
2653.694194
 21
1263.148354
 31
0.0
  0
LINE
  5
1AE55
100
AcDbEntity
  8
0
100
AcDbLine
 10
2609.280185
 20
1308.148354
 30
0.0
 11
2662.682828
 21
1308.148354
 31
0.0
  0
LINE
  5
1AE56
100
AcDbEntity
  8
0
100
AcDbLine
 10
2634.533518
 20
1310.161687
 30
0.0
 11
2663.815942
 21
1310.161687
 31
0.0
  0
LINE
  5
1AE57
100
AcDbEntity
  8
0
100
AcDbLine
 10
2609.280185
 20
1330.161687
 30
0.0
 11
2680.543978
 21
1330.161687
 31
0.0
  0
LINE
  5
1AE58
100
AcDbEntity
  8
0
100
AcDbLine
 10
2656.280185
 20
1338.911687
 30
0.0
 11
2635.280185
 21
1338.911687
 31
0.0
  0
ARC
  5
1AE59
100
AcDbEntity
  8
0
100
AcDbCircle
 10
2640.530185
 20
1324.631055
 30
0.0
 40
14.28125
100
AcDbArc
 50
68.431404
 51
111.568596
  0
LINE
  5
1AE5A
100
AcDbEntity
  8
0
100
AcDbLine
 10
2489.889264
 20
1235.295021
 30
0.0
 11
2478.435931
 21
1238.148354
 31
0.0
  0
LINE
  5
1AE5B
100
AcDbEntity
  8
0
100
AcDbLine
 10
2478.435931
 20
1304.148354
 30
0.0
 11
2489.889264
 21
1307.015021
 31
0.0
  0
LINE
  5
1AE5C
100
AcDbEntity
  8
0
100
AcDbLine
 10
2440.929264
 20
1308.148354
 30
0.0
 11
2440.929264
 21
1288.148354
 31
0.0
  0
LINE
  5
1AE5D
100
AcDbEntity
  8
0
100
AcDbLine
 10
2478.435931
 20
1293.975021
 30
0.0
 11
2478.435931
 21
1248.335021
 31
0.0
  0
LINE
  5
1AE5E
100
AcDbEntity
  8
0
100
AcDbLine
 10
2415.435931
 20
1263.148354
 30
0.0
 11
2415.435931
 21
1233.828354
 31
0.0
  0
ARC
  5
1AE5F
100
AcDbEntity
  8
0
100
AcDbCircle
 10
2405.392187
 20
1233.852118
 30
0.0
 40
10.043772
100
AcDbArc
 50
329.987629
 51
359.864436
  0
LINE
  5
1AE60
100
AcDbEntity
  8
0
100
AcDbLine
 10
2478.435931
 20
1238.148354
 30
0.0
 11
2473.769264
 21
1238.148354
 31
0.0
  0
ARC
  5
1AE61
100
AcDbEntity
  8
0
100
AcDbCircle
 10
2473.812265
 20
1230.10506
 30
0.0
 40
8.043409
100
AcDbArc
 50
90.306312
 51
176.650412
  0
LINE
  5
1AE62
100
AcDbEntity
  8
0
100
AcDbLine
 10
2419.426315
 20
1288.148354
 30
0.0
 11
2415.435931
 21
1263.148354
 31
0.0
  0
LINE
  5
1AE63
100
AcDbEntity
  8
0
100
AcDbLine
 10
2339.435931
 20
1342.161687
 30
0.0
 11
2440.929264
 21
1342.161687
 31
0.0
  0
ARC
  5
1AE64
100
AcDbEntity
  8
0
100
AcDbCircle
 10
2411.150035
 20
1332.944315
 30
0.0
 40
5.720487
100
AcDbArc
 50
57.999511
 51
122.000489
  0
LINE
  5
1AE65
100
AcDbEntity
  8
0
100
AcDbLine
 10
2410.051472
 20
1338.911687
 30
0.0
 11
2408.118597
 21
1337.795537
 31
0.0
  0
LINE
  5
1AE66
100
AcDbEntity
  8
0
100
AcDbLine
 10
2371.544806
 20
1338.911687
 30
0.0
 11
2369.611931
 21
1337.795537
 31
0.0
  0
ARC
  5
1AE67
100
AcDbEntity
  8
0
100
AcDbCircle
 10
2372.643368
 20
1332.944315
 30
0.0
 40
5.720487
100
AcDbArc
 50
57.999511
 51
122.000489
  0
LINE
  5
1AE68
100
AcDbEntity
  8
0
100
AcDbLine
 10
2331.553264
 20
1330.161687
 30
0.0
 11
2331.553264
 21
1337.795537
 31
0.0
  0
ARC
  5
1AE69
100
AcDbEntity
  8
0
100
AcDbCircle
 10
2319.101504
 20
1160.580206
 30
0.0
 40
178.610279
100
AcDbArc
 50
73.572799
 51
83.535997
  0
LINE
  5
1AE6A
100
AcDbEntity
  8
0
100
AcDbLine
 10
2369.611931
 20
1337.795537
 30
0.0
 11
2369.611931
 21
1330.161687
 31
0.0
  0
ARC
  5
1AE6B
100
AcDbEntity
  8
0
100
AcDbCircle
 10
2339.433837
 20
1340.040266
 30
0.0
 40
1.997907
100
AcDbArc
 50
179.959245
 51
263.54607
  0
ARC
  5
1AE6C
100
AcDbEntity
  8
0
100
AcDbCircle
 10
2339.438941
 20
1344.164698
 30
0.0
 40
2.003013
100
AcDbArc
 50
180.086122
 51
269.913878
  0
LINE
  5
1AE6D
100
AcDbEntity
  8
0
100
AcDbLine
 10
2335.435931
 20
1346.161687
 30
0.0
 11
2337.435931
 21
1344.161687
 31
0.0
  0
LINE
  5
1AE6E
100
AcDbEntity
  8
0
100
AcDbLine
 10
2337.435931
 20
1340.041687
 30
0.0
 11
2337.435931
 21
1343.988354
 31
0.0
  0
LINE
  5
1AE6F
100
AcDbEntity
  8
0
100
AcDbLine
 10
2375.674806
 20
1337.795537
 30
0.0
 11
2375.674806
 21
1330.161687
 31
0.0
  0
LINE
  5
1AE70
100
AcDbEntity
  8
0
100
AcDbLine
 10
2408.118597
 20
1337.795537
 30
0.0
 11
2408.118597
 21
1330.161687
 31
0.0
  0
LINE
  5
1AE71
100
AcDbEntity
  8
0
100
AcDbLine
 10
2387.797931
 20
1337.795537
 30
0.0
 11
2387.797931
 21
1330.161687
 31
0.0
  0
LINE
  5
1AE72
100
AcDbEntity
  8
0
100
AcDbLine
 10
2393.859931
 20
1330.161687
 30
0.0
 11
2393.859931
 21
1337.795537
 31
0.0
  0
ARC
  5
1AE73
100
AcDbEntity
  8
0
100
AcDbCircle
 10
2381.736368
 20
1317.093191
 30
0.0
 40
21.571502
100
AcDbArc
 50
73.680185
 51
106.319815
  0
LINE
  5
1AE74
100
AcDbEntity
  8
0
100
AcDbLine
 10
2391.927056
 20
1338.911687
 30
0.0
 11
2371.544806
 21
1338.911687
 31
0.0
  0
ARC
  5
1AE75
100
AcDbEntity
  8
0
100
AcDbCircle
 10
2390.829368
 20
1332.944295
 30
0.0
 40
5.720504
100
AcDbArc
 50
57.999617
 51
122.000383
  0
LINE
  5
1AE76
100
AcDbEntity
  8
0
100
AcDbLine
 10
2393.859931
 20
1337.795537
 30
0.0
 11
2391.927056
 21
1338.911687
 31
0.0
  0
LINE
  5
1AE77
100
AcDbEntity
  8
0
100
AcDbLine
 10
2440.929264
 20
1342.161687
 30
0.0
 11
2440.929264
 21
1310.161687
 31
0.0
  0
LINE
  5
1AE78
100
AcDbEntity
  8
0
100
AcDbLine
 10
2440.929264
 20
1304.148354
 30
0.0
 11
2478.435931
 21
1304.148354
 31
0.0
  0
LINE
  5
1AE79
100
AcDbEntity
  8
0
100
AcDbLine
 10
2440.929264
 20
1310.161687
 30
0.0
 11
2415.675931
 21
1310.161687
 31
0.0
  0
LINE
  5
1AE7A
100
AcDbEntity
  8
0
100
AcDbLine
 10
2415.675931
 20
1310.161687
 30
0.0
 11
2415.675931
 21
1308.148354
 31
0.0
  0
LINE
  5
1AE7B
100
AcDbEntity
  8
0
100
AcDbLine
 10
2414.181472
 20
1337.795537
 30
0.0
 11
2414.181472
 21
1330.161687
 31
0.0
  0
LINE
  5
1AE7C
100
AcDbEntity
  8
0
100
AcDbLine
 10
2426.304597
 20
1337.795537
 30
0.0
 11
2426.304597
 21
1330.161687
 31
0.0
  0
LINE
  5
1AE7D
100
AcDbEntity
  8
0
100
AcDbLine
 10
2432.366597
 20
1330.161687
 30
0.0
 11
2432.366597
 21
1337.795537
 31
0.0
  0
LINE
  5
1AE7E
100
AcDbEntity
  8
0
100
AcDbLine
 10
2430.433722
 20
1338.911687
 30
0.0
 11
2410.051472
 21
1338.911687
 31
0.0
  0
ARC
  5
1AE7F
100
AcDbEntity
  8
0
100
AcDbCircle
 10
2420.243035
 20
1317.093191
 30
0.0
 40
21.571502
100
AcDbArc
 50
73.680185
 51
106.319815
  0
ARC
  5
1AE80
100
AcDbEntity
  8
0
100
AcDbCircle
 10
2429.336035
 20
1332.944295
 30
0.0
 40
5.720504
100
AcDbArc
 50
57.999617
 51
122.000383
  0
LINE
  5
1AE81
100
AcDbEntity
  8
0
100
AcDbLine
 10
2432.366597
 20
1337.795537
 30
0.0
 11
2430.433722
 21
1338.911687
 31
0.0
  0
LINE
  5
1AE82
100
AcDbEntity
  8
0
100
AcDbLine
 10
2514.435931
 20
1348.655021
 30
0.0
 11
2514.435931
 21
1271.155021
 31
0.0
  0
LINE
  5
1AE83
100
AcDbEntity
  8
0
100
AcDbLine
 10
2609.280185
 20
1308.148354
 30
0.0
 11
2609.280185
 21
1288.148354
 31
0.0
  0
ARC
  5
1AE84
100
AcDbEntity
  8
0
100
AcDbCircle
 10
2488.416697
 20
1229.472443
 30
0.0
 40
6.005902
100
AcDbArc
 50
359.960988
 51
75.807131
  0
LINE
  5
1AE85
100
AcDbEntity
  8
0
100
AcDbLine
 10
2634.786852
 20
1263.148354
 30
0.0
 11
2634.786852
 21
1233.828354
 31
0.0
  0
ARC
  5
1AE86
100
AcDbEntity
  8
0
100
AcDbCircle
 10
2644.817262
 20
1233.852118
 30
0.0
 40
10.043772
100
AcDbArc
 50
180.135564
 51
210.012371
  0
LINE
  5
1AE87
100
AcDbEntity
  8
0
100
AcDbLine
 10
2630.780441
 20
1288.148354
 30
0.0
 11
2634.786852
 21
1263.148354
 31
0.0
  0
ARC
  5
1AE88
100
AcDbEntity
  8
0
100
AcDbCircle
 10
2488.416697
 20
1312.837598
 30
0.0
 40
6.005902
100
AcDbArc
 50
284.192869
 51
0.039012
  0
LINE
  5
1AE89
100
AcDbEntity
  8
0
100
AcDbLine
 10
2494.435931
 20
1348.655021
 30
0.0
 11
2514.435931
 21
1348.655021
 31
0.0
  0
LINE
  5
1AE8A
100
AcDbEntity
  8
0
100
AcDbLine
 10
2609.280185
 20
1310.161687
 30
0.0
 11
2609.280185
 21
1330.161687
 31
0.0
  0
LINE
  5
1AE8B
100
AcDbEntity
  8
0
100
AcDbLine
 10
2634.533518
 20
1310.161687
 30
0.0
 11
2609.280185
 21
1310.161687
 31
0.0
  0
LINE
  5
1AE8C
100
AcDbEntity
  8
0
100
AcDbLine
 10
2634.533518
 20
1308.148354
 30
0.0
 11
2634.533518
 21
1310.161687
 31
0.0
  0
LINE
  5
1AE8D
100
AcDbEntity
  8
0
100
AcDbLine
 10
2634.980185
 20
1338.911687
 30
0.0
 11
2634.980185
 21
1330.161687
 31
0.0
  0
LINE
  5
1AE8E
100
AcDbEntity
  8
0
100
AcDbLine
 10
2624.480185
 20
1337.912305
 30
0.0
 11
2624.480185
 21
1330.161687
 31
0.0
  0
LINE
  5
1AE8F
100
AcDbEntity
  8
0
100
AcDbLine
 10
2613.980185
 20
1338.911687
 30
0.0
 11
2613.980185
 21
1330.161687
 31
0.0
  0
LINE
  5
1AE90
100
AcDbEntity
  8
0
100
AcDbLine
 10
2635.280185
 20
1338.911687
 30
0.0
 11
2635.280185
 21
1330.161687
 31
0.0
  0
LINE
  5
1AE91
100
AcDbEntity
  8
0
100
AcDbLine
 10
2634.980185
 20
1338.911687
 30
0.0
 11
2613.980185
 21
1338.911687
 31
0.0
  0
ARC
  5
1AE92
100
AcDbEntity
  8
0
100
AcDbCircle
 10
2629.730185
 20
1324.631055
 30
0.0
 40
14.28125
100
AcDbArc
 50
68.431404
 51
111.568596
  0
ARC
  5
1AE93
100
AcDbEntity
  8
0
100
AcDbCircle
 10
2619.230185
 20
1324.631055
 30
0.0
 40
14.28125
100
AcDbArc
 50
68.431404
 51
111.568596
  0
LINE
  5
1AE94
100
AcDbEntity
  8
0
100
AcDbLine
 10
2797.541254
 20
1231.788354
 30
0.0
 11
2815.15921
 21
1231.788354
 31
0.0
  0
LINE
  5
1AE95
100
AcDbEntity
  8
0
100
AcDbLine
 10
2797.744428
 20
1310.161687
 30
0.0
 11
2827.026852
 21
1310.161687
 31
0.0
  0
LINE
  5
1AE96
100
AcDbEntity
  8
0
100
AcDbLine
 10
2781.016392
 20
1330.161687
 30
0.0
 11
2852.280185
 21
1330.161687
 31
0.0
  0
LINE
  5
1AE97
100
AcDbEntity
  8
0
100
AcDbLine
 10
2798.877542
 20
1308.148354
 30
0.0
 11
2852.280185
 21
1308.148354
 31
0.0
  0
LINE
  5
1AE98
100
AcDbEntity
  8
0
100
AcDbLine
 10
2646.40116
 20
1231.788354
 30
0.0
 11
2664.019115
 21
1231.788354
 31
0.0
  0
LINE
  5
1AE99
100
AcDbEntity
  8
0
100
AcDbLine
 10
2740.280185
 20
1354.655021
 30
0.0
 11
2721.280185
 21
1354.655021
 31
0.0
  0
CIRCLE
  5
1AE9A
100
AcDbEntity
  8
0
100
AcDbCircle
 10
2688.353778
 20
1313.574761
 30
0.0
 40
9.5
  0
LINE
  5
1AE9B
100
AcDbEntity
  8
0
100
AcDbLine
 10
2645.780185
 20
1337.912305
 30
0.0
 11
2645.780185
 21
1330.161687
 31
0.0
  0
LINE
  5
1AE9C
100
AcDbEntity
  8
0
100
AcDbLine
 10
2656.280185
 20
1338.911687
 30
0.0
 11
2656.280185
 21
1330.161687
 31
0.0
  0
ARC
  5
1AE9D
100
AcDbEntity
  8
0
100
AcDbCircle
 10
2651.030185
 20
1324.631055
 30
0.0
 40
14.28125
100
AcDbArc
 50
68.431404
 51
111.568596
  0
ARC
  5
1AE9E
100
AcDbEntity
  8
0
100
AcDbCircle
 10
2671.916687
 20
1350.161687
 30
0.0
 40
20.0
100
AcDbArc
 50
270.0
 51
287.393473
  0
ARC
  5
1AE9F
100
AcDbEntity
  8
0
100
AcDbCircle
 10
2730.757914
 20
1162.324122
 30
0.0
 40
176.838109
100
AcDbArc
 50
105.379568
 51
107.393473
  0
LINE
  5
1AEA0
100
AcDbEntity
  8
0
100
AcDbLine
 10
2687.480185
 20
1338.911687
 30
0.0
 11
2687.480185
 21
1335.42401
 31
0.0
  0
LINE
  5
1AEA1
100
AcDbEntity
  8
0
100
AcDbLine
 10
2687.480185
 20
1338.911687
 30
0.0
 11
2693.171932
 21
1338.911687
 31
0.0
  0
ARC
  5
1AEA2
100
AcDbEntity
  8
0
100
AcDbCircle
 10
2692.730185
 20
1324.631055
 30
0.0
 40
14.28125
100
AcDbArc
 50
88.270049
 51
111.568596
  0
LINE
  5
1AEA3
100
AcDbEntity
  8
0
100
AcDbLine
 10
2720.279389
 20
1353.648354
 30
0.0
 11
2720.279389
 21
1347.933661
 31
0.0
  0
LINE
  5
1AEA4
100
AcDbEntity
  8
0
100
AcDbLine
 10
2721.279389
 20
1354.648354
 30
0.0
 11
2721.279389
 21
1348.063794
 31
0.0
  0
LINE
  5
1AEA5
100
AcDbEntity
  8
0
100
AcDbLine
 10
2722.156405
 20
1354.648354
 30
0.0
 11
2722.156405
 21
1348.167056
 31
0.0
  0
LINE
  5
1AEA6
100
AcDbEntity
  8
0
100
AcDbLine
 10
2721.279389
 20
1354.648354
 30
0.0
 11
2720.279389
 21
1353.648354
 31
0.0
  0
CIRCLE
  5
1AEA7
100
AcDbEntity
  8
0
100
AcDbCircle
 10
2773.206592
 20
1313.574761
 30
0.0
 40
9.5
  0
LINE
  5
1AEA8
100
AcDbEntity
  8
0
100
AcDbLine
 10
2741.280981
 20
1353.648354
 30
0.0
 11
2741.280981
 21
1347.933661
 31
0.0
  0
LINE
  5
1AEA9
100
AcDbEntity
  8
0
100
AcDbLine
 10
2740.279389
 20
1354.649946
 30
0.0
 11
2740.280492
 21
1348.063854
 31
0.0
  0
LINE
  5
1AEAA
100
AcDbEntity
  8
0
100
AcDbLine
 10
2740.279389
 20
1354.649946
 30
0.0
 11
2741.279556
 21
1353.650114
 31
0.0
  0
LINE
  5
1AEAB
100
AcDbEntity
  8
0
100
AcDbLine
 10
2739.402372
 20
1354.649799
 30
0.0
 11
2739.403458
 21
1348.167113
 31
0.0
  0
LINE
  5
1AEAC
100
AcDbEntity
  8
0
100
AcDbLine
 10
2729.902372
 20
1354.648354
 30
0.0
 11
2729.902372
 21
1348.643383
 31
0.0
  0
LINE
  5
1AEAD
100
AcDbEntity
  8
0
100
AcDbLine
 10
2731.656405
 20
1354.648501
 30
0.0
 11
2731.657412
 21
1348.643389
 31
0.0
  0
LINE
  5
1AEAE
100
AcDbEntity
  8
0
100
AcDbLine
 10
2774.080185
 20
1338.911687
 30
0.0
 11
2774.080185
 21
1335.42401
 31
0.0
  0
ARC
  5
1AEAF
100
AcDbEntity
  8
0
100
AcDbCircle
 10
2789.643683
 20
1350.161687
 30
0.0
 40
20.0
100
AcDbArc
 50
252.606527
 51
270.0
  0
ARC
  5
1AEB0
100
AcDbEntity
  8
0
100
AcDbCircle
 10
2730.802456
 20
1162.324122
 30
0.0
 40
176.838109
100
AcDbArc
 50
72.606527
 51
74.620432
  0
ARC
  5
1AEB1
100
AcDbEntity
  8
0
100
AcDbCircle
 10
2768.830185
 20
1324.631055
 30
0.0
 40
14.28125
100
AcDbArc
 50
68.431404
 51
91.729951
  0
LINE
  5
1AEB2
100
AcDbEntity
  8
0
100
AcDbLine
 10
2774.080185
 20
1338.911687
 30
0.0
 11
2768.388437
 21
1338.911687
 31
0.0
  0
LINE
  5
1AEB3
100
AcDbEntity
  8
0
100
AcDbLine
 10
2852.280185
 20
1308.148354
 30
0.0
 11
2852.280185
 21
1288.148354
 31
0.0
  0
LINE
  5
1AEB4
100
AcDbEntity
  8
0
100
AcDbLine
 10
2826.786852
 20
1263.148354
 30
0.0
 11
2826.786852
 21
1233.828354
 31
0.0
  0
ARC
  5
1AEB5
100
AcDbEntity
  8
0
100
AcDbCircle
 10
2816.743108
 20
1233.852118
 30
0.0
 40
10.043772
100
AcDbArc
 50
329.987629
 51
359.864436
  0
LINE
  5
1AEB6
100
AcDbEntity
  8
0
100
AcDbLine
 10
2806.392684
 20
1288.148354
 30
0.0
 11
2852.280185
 21
1288.148354
 31
0.0
  0
LINE
  5
1AEB7
100
AcDbEntity
  8
0
100
AcDbLine
 10
2830.777236
 20
1288.148354
 30
0.0
 11
2826.786852
 21
1263.148354
 31
0.0
  0
LINE
  5
1AEB8
100
AcDbEntity
  8
0
100
AcDbLine
 10
2807.866176
 20
1263.148354
 30
0.0
 11
2820.798347
 21
1263.148354
 31
0.0
  0
LINE
  5
1AEB9
100
AcDbEntity
  8
0
100
AcDbLine
 10
2852.280185
 20
1330.161687
 30
0.0
 11
2852.280185
 21
1310.161687
 31
0.0
  0
LINE
  5
1AEBA
100
AcDbEntity
  8
0
100
AcDbLine
 10
2852.280185
 20
1310.161687
 30
0.0
 11
2827.026852
 21
1310.161687
 31
0.0
  0
LINE
  5
1AEBB
100
AcDbEntity
  8
0
100
AcDbLine
 10
2827.026852
 20
1310.161687
 30
0.0
 11
2827.026852
 21
1308.148354
 31
0.0
  0
ARC
  5
1AEBC
100
AcDbEntity
  8
0
100
AcDbCircle
 10
2842.330185
 20
1324.631055
 30
0.0
 40
14.28125
100
AcDbArc
 50
68.431404
 51
111.568596
  0
LINE
  5
1AEBD
100
AcDbEntity
  8
0
100
AcDbLine
 10
2826.580185
 20
1338.911687
 30
0.0
 11
2847.580185
 21
1338.911687
 31
0.0
  0
LINE
  5
1AEBE
100
AcDbEntity
  8
0
100
AcDbLine
 10
2815.780185
 20
1337.912305
 30
0.0
 11
2815.780185
 21
1330.161687
 31
0.0
  0
LINE
  5
1AEBF
100
AcDbEntity
  8
0
100
AcDbLine
 10
2826.280185
 20
1338.911687
 30
0.0
 11
2826.280185
 21
1330.161687
 31
0.0
  0
LINE
  5
1AEC0
100
AcDbEntity
  8
0
100
AcDbLine
 10
2805.280185
 20
1338.911687
 30
0.0
 11
2805.280185
 21
1330.161687
 31
0.0
  0
LINE
  5
1AEC1
100
AcDbEntity
  8
0
100
AcDbLine
 10
2837.080185
 20
1337.912305
 30
0.0
 11
2837.080185
 21
1330.161687
 31
0.0
  0
LINE
  5
1AEC2
100
AcDbEntity
  8
0
100
AcDbLine
 10
2826.580185
 20
1338.911687
 30
0.0
 11
2826.580185
 21
1330.161687
 31
0.0
  0
LINE
  5
1AEC3
100
AcDbEntity
  8
0
100
AcDbLine
 10
2805.280185
 20
1338.911687
 30
0.0
 11
2826.280185
 21
1338.911687
 31
0.0
  0
ARC
  5
1AEC4
100
AcDbEntity
  8
0
100
AcDbCircle
 10
2821.030185
 20
1324.631055
 30
0.0
 40
14.28125
100
AcDbArc
 50
68.431404
 51
111.568596
  0
ARC
  5
1AEC5
100
AcDbEntity
  8
0
100
AcDbCircle
 10
2810.530185
 20
1324.631055
 30
0.0
 40
14.28125
100
AcDbArc
 50
68.431404
 51
111.568596
  0
ARC
  5
1AEC6
100
AcDbEntity
  8
0
100
AcDbCircle
 10
2831.830185
 20
1324.631055
 30
0.0
 40
14.28125
100
AcDbArc
 50
68.431404
 51
111.568596
  0
LINE
  5
1AEC7
100
AcDbEntity
  8
0
100
AcDbLine
 10
2847.580185
 20
1338.911687
 30
0.0
 11
2847.580185
 21
1330.161687
 31
0.0
  0
LINE
  5
1AEC8
100
AcDbEntity
  8
0
100
AcDbLine
 10
3481.032517
 20
1167.307059
 30
0.0
 11
3481.032517
 21
1259.807059
 31
0.0
  0
LINE
  5
1AEC9
100
AcDbEntity
  8
0
100
AcDbLine
 10
3523.032517
 20
1303.138563
 30
0.0
 11
3523.032517
 21
1216.475555
 31
0.0
  0
LINE
  5
1AECA
100
AcDbEntity
  8
0
100
AcDbLine
 10
3503.032517
 20
1167.307059
 30
0.0
 11
3503.032517
 21
1352.307059
 31
0.0
  0
CIRCLE
  5
1AECB
100
AcDbEntity
  8
0
100
AcDbCircle
 10
3177.043387
 20
1259.807059
 30
0.0
 40
92.5
  0
LINE
  5
1AECC
100
AcDbEntity
  8
0
100
AcDbLine
 10
3272.838364
 20
1269.307059
 30
0.0
 11
3272.838364
 21
1211.986551
 31
0.0
  0
CIRCLE
  5
1AECD
100
AcDbEntity
  8
0
100
AcDbCircle
 10
3246.334352
 20
1231.105801
 30
0.0
 40
9.5
  0
LINE
  5
1AECE
100
AcDbEntity
  8
0
100
AcDbLine
 10
3080.838364
 20
1269.307059
 30
0.0
 11
3080.838364
 21
1212.475915
 31
0.0
  0
CIRCLE
  5
1AECF
100
AcDbEntity
  8
0
100
AcDbCircle
 10
3107.752422
 20
1231.105801
 30
0.0
 40
9.5
  0
ARC
  5
1AED0
100
AcDbEntity
  8
0
100
AcDbCircle
 10
3177.043387
 20
1104.807059
 30
0.0
 40
89.0
100
AcDbArc
 50
296.707645
 51
0.0
  0
ARC
  5
1AED1
100
AcDbEntity
  8
0
100
AcDbCircle
 10
3177.043387
 20
1104.807059
 30
0.0
 40
89.0
100
AcDbArc
 50
180.0
 51
243.292355
  0
CIRCLE
  5
1AED2
100
AcDbEntity
  8
0
100
AcDbCircle
 10
3177.043387
 20
1033.313726
 30
0.0
 40
14.0
  0
LINE
  5
1AED4
100
AcDbEntity
  8
0
100
AcDbLine
 10
3137.043387
 20
999.807059
 30
0.0
 11
3137.043387
 21
1052.087059
 31
0.0
  0
LINE
  5
1AED5
100
AcDbEntity
  8
0
100
AcDbLine
 10
3217.043387
 20
999.807059
 30
0.0
 11
3217.043387
 21
1052.087059
 31
0.0
  0
LINE
  5
1AED6
100
AcDbEntity
  8
0
100
AcDbLine
 10
3213.043387
 20
995.807059
 30
0.0
 11
3141.043387
 21
995.807059
 31
0.0
  0
ARC
  5
1AED7
100
AcDbEntity
  8
0
100
AcDbCircle
 10
3141.043387
 20
999.807059
 30
0.0
 40
4.0
100
AcDbArc
 50
180.0
 51
270.0
  0
ARC
  5
1AED8
100
AcDbEntity
  8
0
100
AcDbCircle
 10
3213.043387
 20
999.807059
 30
0.0
 40
4.0
100
AcDbArc
 50
270.0
 51
0.0
  0
ARC
  5
1AED9
100
AcDbEntity
  8
0
100
AcDbCircle
 10
3177.043387
 20
1139.761832
 30
0.0
 40
93.801458
100
AcDbArc
 50
249.263463
 51
266.556177
  0
ARC
  5
1AEDA
100
AcDbEntity
  8
0
100
AcDbCircle
 10
3132.043387
 20
1052.087059
 30
0.0
 40
5.0
100
AcDbArc
 50
0.0
 51
45.0
  0
ARC
  5
1AEDB
100
AcDbEntity
  8
0
100
AcDbCircle
 10
3177.043387
 20
1139.761832
 30
0.0
 40
93.801458
100
AcDbArc
 50
273.443823
 51
290.736537
  0
ARC
  5
1AEDC
100
AcDbEntity
  8
0
100
AcDbCircle
 10
3222.043387
 20
1052.087059
 30
0.0
 40
5.0
100
AcDbArc
 50
135.0
 51
180.0
  0
LINE
  5
1AEDD
100
AcDbEntity
  8
0
100
AcDbLine
 10
3088.043387
 20
1104.807059
 30
0.0
 11
3088.043387
 21
1194.858322
 31
0.0
  0
CIRCLE
  5
1AEDE
100
AcDbEntity
  8
0
100
AcDbCircle
 10
3148.34213
 20
1190.516094
 30
0.0
 40
9.5
  0
ARC
  5
1AEDF
100
AcDbEntity
  8
0
100
AcDbCircle
 10
3078.043387
 20
1194.858322
 30
0.0
 40
10.0
100
AcDbArc
 50
0.0
 51
30.0
  0
LINE
  5
1AEE0
100
AcDbEntity
  8
0
100
AcDbLine
 10
3086.703641
 20
1199.858322
 30
0.0
 11
3083.269136
 21
1205.807059
 31
0.0
  0
ARC
  5
1AEE1
100
AcDbEntity
  8
0
100
AcDbCircle
 10
3076.340933
 20
1201.807059
 30
0.0
 40
8.0
100
AcDbArc
 50
30.0
 51
36.349856
  0
ARC
  5
1AEE2
100
AcDbEntity
  8
0
100
AcDbCircle
 10
3090.838364
 20
1212.475915
 30
0.0
 40
10.0
100
AcDbArc
 50
180.0
 51
216.349856
  0
CIRCLE
  5
1AEE3
100
AcDbEntity
  8
0
100
AcDbCircle
 10
3205.744645
 20
1190.516094
 30
0.0
 40
9.5
  0
LINE
  5
1AEE4
100
AcDbEntity
  8
0
100
AcDbLine
 10
3266.043387
 20
1104.807059
 30
0.0
 11
3266.043387
 21
1194.858322
 31
0.0
  0
ARC
  5
1AEE5
100
AcDbEntity
  8
0
100
AcDbCircle
 10
3276.043387
 20
1194.858322
 30
0.0
 40
10.0
100
AcDbArc
 50
150.0
 51
180.0
  0
LINE
  5
1AEE6
100
AcDbEntity
  8
0
100
AcDbLine
 10
3267.383133
 20
1199.858322
 30
0.0
 11
3271.498618
 21
1206.986551
 31
0.0
  0
ARC
  5
1AEE7
100
AcDbEntity
  8
0
100
AcDbCircle
 10
3262.838364
 20
1211.986551
 30
0.0
 40
10.0
100
AcDbArc
 50
330.0
 51
360.0
  0
LINE
  5
1AEE8
100
AcDbEntity
  8
0
100
AcDbLine
 10
3481.032517
 20
1167.307059
 30
0.0
 11
3503.032517
 21
1167.307059
 31
0.0
  0
LINE
  5
1AEE9
100
AcDbEntity
  8
0
100
AcDbLine
 10
3523.032517
 20
1209.807059
 30
0.0
 11
3503.032517
 21
1205.807059
 31
0.0
  0
LINE
  5
1AEEA
100
AcDbEntity
  8
0
100
AcDbLine
 10
3187.544184
 20
1359.878569
 30
0.0
 11
3187.544184
 21
1352.391903
 31
0.0
  0
LINE
  5
1AEEB
100
AcDbEntity
  8
0
100
AcDbLine
 10
3186.544184
 20
1360.878569
 30
0.0
 11
3186.544184
 21
1353.878569
 31
0.0
  0
LINE
  5
1AEEC
100
AcDbEntity
  8
0
100
AcDbLine
 10
3185.667167
 20
1360.878569
 30
0.0
 11
3185.667167
 21
1353.878569
 31
0.0
  0
LINE
  5
1AEED
100
AcDbEntity
  8
0
100
AcDbLine
 10
3166.542591
 20
1359.878569
 30
0.0
 11
3166.542591
 21
1352.391903
 31
0.0
  0
LINE
  5
1AEEE
100
AcDbEntity
  8
0
100
AcDbLine
 10
3177.9212
 20
1360.878569
 30
0.0
 11
3177.9212
 21
1353.878569
 31
0.0
  0
LINE
  5
1AEEF
100
AcDbEntity
  8
0
100
AcDbLine
 10
3176.167167
 20
1360.878716
 30
0.0
 11
3176.165994
 21
1353.878716
 31
0.0
  0
LINE
  5
1AEF0
100
AcDbEntity
  8
0
100
AcDbLine
 10
3168.4212
 20
1360.880014
 30
0.0
 11
3168.420027
 21
1353.880014
 31
0.0
  0
LINE
  5
1AEF1
100
AcDbEntity
  8
0
100
AcDbLine
 10
3167.544184
 20
1360.880161
 30
0.0
 11
3167.543011
 21
1353.880161
 31
0.0
  0
LINE
  5
1AEF2
100
AcDbEntity
  8
0
100
AcDbLine
 10
3055.543387
 20
1316.320392
 30
0.0
 11
3080.796721
 21
1316.320392
 31
0.0
  0
LINE
  5
1AEF3
100
AcDbEntity
  8
0
100
AcDbLine
 10
3102.30384
 20
1314.307059
 30
0.0
 11
3055.543387
 21
1314.307059
 31
0.0
  0
LINE
  5
1AEF4
100
AcDbEntity
  8
0
100
AcDbLine
 10
3091.217983
 20
1294.307059
 30
0.0
 11
3055.543387
 21
1294.307059
 31
0.0
  0
LINE
  5
1AEF5
100
AcDbEntity
  8
0
100
AcDbLine
 10
3081.243387
 20
1345.141903
 30
0.0
 11
3060.243387
 21
1345.141903
 31
0.0
  0
ARC
  5
1AEF6
100
AcDbEntity
  8
0
100
AcDbCircle
 10
3065.493387
 20
1330.86127
 30
0.0
 40
14.28125
100
AcDbArc
 50
68.431404
 51
111.568596
  0
LINE
  5
1AEF7
100
AcDbEntity
  8
0
100
AcDbLine
 10
3125.063008
 20
1336.320392
 30
0.0
 11
3055.543387
 21
1336.320392
 31
0.0
  0
LINE
  5
1AEF8
100
AcDbEntity
  8
0
100
AcDbLine
 10
3055.543387
 20
1336.320392
 30
0.0
 11
3055.543387
 21
1316.320392
 31
0.0
  0
LINE
  5
1AEF9
100
AcDbEntity
  8
0
100
AcDbLine
 10
3055.543387
 20
1314.307059
 30
0.0
 11
3055.543387
 21
1294.307059
 31
0.0
  0
LINE
  5
1AEFA
100
AcDbEntity
  8
0
100
AcDbLine
 10
3060.243387
 20
1345.141903
 30
0.0
 11
3060.243387
 21
1336.391903
 31
0.0
  0
LINE
  5
1AEFB
100
AcDbEntity
  8
0
100
AcDbLine
 10
3076.84798
 20
1294.307059
 30
0.0
 11
3080.838364
 21
1269.307059
 31
0.0
  0
CIRCLE
  5
1AEFC
100
AcDbEntity
  8
0
100
AcDbCircle
 10
3107.752422
 20
1288.508316
 30
0.0
 40
9.5
  0
CIRCLE
  5
1AEFD
100
AcDbEntity
  8
0
100
AcDbCircle
 10
3148.34213
 20
1329.098024
 30
0.0
 40
9.5
  0
LINE
  5
1AEFE
100
AcDbEntity
  8
0
100
AcDbLine
 10
3080.796721
 20
1316.320392
 30
0.0
 11
3080.796721
 21
1314.307059
 31
0.0
  0
LINE
  5
1AEFF
100
AcDbEntity
  8
0
100
AcDbLine
 10
3103.814342
 20
1316.320392
 30
0.0
 11
3080.796721
 21
1316.320392
 31
0.0
  0
LINE
  5
1AF00
100
AcDbEntity
  8
0
100
AcDbLine
 10
3102.543387
 20
1345.141903
 30
0.0
 11
3102.543387
 21
1336.391903
 31
0.0
  0
ARC
  5
1AF01
100
AcDbEntity
  8
0
100
AcDbCircle
 10
3075.993387
 20
1330.86127
 30
0.0
 40
14.28125
100
AcDbArc
 50
68.431404
 51
111.568596
  0
LINE
  5
1AF02
100
AcDbEntity
  8
0
100
AcDbLine
 10
3081.243387
 20
1345.141903
 30
0.0
 11
3081.243387
 21
1336.391903
 31
0.0
  0
LINE
  5
1AF03
100
AcDbEntity
  8
0
100
AcDbLine
 10
3081.543387
 20
1345.141903
 30
0.0
 11
3081.543387
 21
1336.391903
 31
0.0
  0
LINE
  5
1AF04
100
AcDbEntity
  8
0
100
AcDbLine
 10
3092.043387
 20
1344.14252
 30
0.0
 11
3092.043387
 21
1336.391903
 31
0.0
  0
ARC
  5
1AF05
100
AcDbEntity
  8
0
100
AcDbCircle
 10
3097.293387
 20
1330.86127
 30
0.0
 40
14.28125
100
AcDbArc
 50
68.431404
 51
111.568596
  0
ARC
  5
1AF06
100
AcDbEntity
  8
0
100
AcDbCircle
 10
3086.793387
 20
1330.86127
 30
0.0
 40
14.28125
100
AcDbArc
 50
68.431404
 51
111.568596
  0
LINE
  5
1AF07
100
AcDbEntity
  8
0
100
AcDbLine
 10
3102.543387
 20
1345.141903
 30
0.0
 11
3081.543387
 21
1345.141903
 31
0.0
  0
LINE
  5
1AF08
100
AcDbEntity
  8
0
100
AcDbLine
 10
3070.743387
 20
1344.14252
 30
0.0
 11
3070.743387
 21
1336.391903
 31
0.0
  0
ARC
  5
1AF09
100
AcDbEntity
  8
0
100
AcDbCircle
 10
3118.17989
 20
1356.391903
 30
0.0
 40
20.0
100
AcDbArc
 50
270.0
 51
287.393473
  0
LINE
  5
1AF0A
100
AcDbEntity
  8
0
100
AcDbLine
 10
3133.743387
 20
1345.141903
 30
0.0
 11
3133.743387
 21
1341.654226
 31
0.0
  0
LINE
  5
1AF0B
100
AcDbEntity
  8
0
100
AcDbLine
 10
3133.743387
 20
1345.141903
 30
0.0
 11
3141.347247
 21
1345.141903
 31
0.0
  0
ARC
  5
1AF0C
100
AcDbEntity
  8
0
100
AcDbCircle
 10
3138.993387
 20
1330.86127
 30
0.0
 40
14.28125
100
AcDbArc
 50
88.270049
 51
111.568596
  0
ARC
  5
1AF0D
100
AcDbEntity
  8
0
100
AcDbCircle
 10
3177.021117
 20
1168.554337
 30
0.0
 40
176.838109
100
AcDbArc
 50
105.864191
 51
107.393473
  0
CIRCLE
  5
1AF0E
100
AcDbEntity
  8
0
100
AcDbCircle
 10
3205.744645
 20
1329.098024
 30
0.0
 40
9.5
  0
LINE
  5
1AF0F
100
AcDbEntity
  8
0
100
AcDbLine
 10
3185.667167
 20
1353.878569
 30
0.0
 11
3177.9212
 21
1353.878569
 31
0.0
  0
LINE
  5
1AF10
100
AcDbEntity
  8
0
100
AcDbLine
 10
3193.036721
 20
1352.391903
 30
0.0
 11
3161.036721
 21
1352.391903
 31
0.0
  0
LINE
  5
1AF11
100
AcDbEntity
  8
0
100
AcDbLine
 10
3161.036721
 20
1352.391903
 30
0.0
 11
3159.036721
 21
1350.391903
 31
0.0
  0
LINE
  5
1AF12
100
AcDbEntity
  8
0
100
AcDbLine
 10
3168.420027
 20
1353.880014
 30
0.0
 11
3176.165994
 21
1353.878716
 31
0.0
  0
LINE
  5
1AF13
100
AcDbEntity
  8
0
100
AcDbLine
 10
3166.543011
 20
1353.880329
 30
0.0
 11
3167.543011
 21
1353.880161
 31
0.0
  0
ARC
  5
1AF14
100
AcDbEntity
  8
0
100
AcDbCircle
 10
3215.093387
 20
1330.86127
 30
0.0
 40
14.28125
100
AcDbArc
 50
68.431404
 51
91.729951
  0
LINE
  5
1AF15
100
AcDbEntity
  8
0
100
AcDbLine
 10
3220.343387
 20
1345.141903
 30
0.0
 11
3220.343387
 21
1341.654226
 31
0.0
  0
LINE
  5
1AF16
100
AcDbEntity
  8
0
100
AcDbLine
 10
3195.036721
 20
1350.391903
 30
0.0
 11
3193.036721
 21
1352.391903
 31
0.0
  0
LINE
  5
1AF17
100
AcDbEntity
  8
0
100
AcDbLine
 10
3195.036721
 20
1350.026481
 30
0.0
 11
3195.036721
 21
1350.391903
 31
0.0
  0
LINE
  5
1AF18
100
AcDbEntity
  8
0
100
AcDbLine
 10
3220.343387
 20
1345.141903
 30
0.0
 11
3212.739528
 21
1345.141903
 31
0.0
  0
LINE
  5
1AF19
100
AcDbEntity
  8
0
100
AcDbLine
 10
3187.544184
 20
1353.878569
 30
0.0
 11
3186.544184
 21
1353.878569
 31
0.0
  0
LINE
  5
1AF1A
100
AcDbEntity
  8
0
100
AcDbLine
 10
3167.543387
 20
1360.885236
 30
0.0
 11
3186.543387
 21
1360.885236
 31
0.0
  0
LINE
  5
1AF1B
100
AcDbEntity
  8
0
100
AcDbLine
 10
3167.544184
 20
1360.880161
 30
0.0
 11
3166.544016
 21
1359.880329
 31
0.0
  0
LINE
  5
1AF1C
100
AcDbEntity
  8
0
100
AcDbLine
 10
3186.544184
 20
1360.878569
 30
0.0
 11
3187.544184
 21
1359.878569
 31
0.0
  0
LINE
  5
1AF1D
100
AcDbEntity
  8
0
100
AcDbLine
 10
3276.844774
 20
1294.307059
 30
0.0
 11
3272.838364
 21
1269.307059
 31
0.0
  0
CIRCLE
  5
1AF1E
100
AcDbEntity
  8
0
100
AcDbCircle
 10
3246.334352
 20
1288.508316
 30
0.0
 40
9.5
  0
LINE
  5
1AF1F
100
AcDbEntity
  8
0
100
AcDbLine
 10
3298.543387
 20
1316.320392
 30
0.0
 11
3298.543387
 21
1336.320392
 31
0.0
  0
LINE
  5
1AF20
100
AcDbEntity
  8
0
100
AcDbLine
 10
3273.290054
 20
1316.320392
 30
0.0
 11
3250.272433
 21
1316.320392
 31
0.0
  0
LINE
  5
1AF21
100
AcDbEntity
  8
0
100
AcDbLine
 10
3298.543387
 20
1314.307059
 30
0.0
 11
3251.782935
 21
1314.307059
 31
0.0
  0
LINE
  5
1AF22
100
AcDbEntity
  8
0
100
AcDbLine
 10
3298.543387
 20
1294.307059
 30
0.0
 11
3262.868792
 21
1294.307059
 31
0.0
  0
LINE
  5
1AF23
100
AcDbEntity
  8
0
100
AcDbLine
 10
3273.290054
 20
1314.307059
 30
0.0
 11
3273.290054
 21
1316.320392
 31
0.0
  0
LINE
  5
1AF24
100
AcDbEntity
  8
0
100
AcDbLine
 10
3298.543387
 20
1314.307059
 30
0.0
 11
3298.543387
 21
1294.307059
 31
0.0
  0
LINE
  5
1AF25
100
AcDbEntity
  8
0
100
AcDbLine
 10
3273.290054
 20
1316.320392
 30
0.0
 11
3298.543387
 21
1316.320392
 31
0.0
  0
ARC
  5
1AF26
100
AcDbEntity
  8
0
100
AcDbCircle
 10
3267.293387
 20
1330.86127
 30
0.0
 40
14.28125
100
AcDbArc
 50
68.431404
 51
111.568596
  0
LINE
  5
1AF27
100
AcDbEntity
  8
0
100
AcDbLine
 10
3251.543387
 20
1345.141903
 30
0.0
 11
3272.543387
 21
1345.141903
 31
0.0
  0
LINE
  5
1AF28
100
AcDbEntity
  8
0
100
AcDbLine
 10
3298.543387
 20
1336.320392
 30
0.0
 11
3229.023767
 21
1336.320392
 31
0.0
  0
LINE
  5
1AF29
100
AcDbEntity
  8
0
100
AcDbLine
 10
3251.543387
 20
1345.141903
 30
0.0
 11
3251.543387
 21
1336.391903
 31
0.0
  0
LINE
  5
1AF2A
100
AcDbEntity
  8
0
100
AcDbLine
 10
3262.043387
 20
1344.14252
 30
0.0
 11
3262.043387
 21
1336.391903
 31
0.0
  0
ARC
  5
1AF2B
100
AcDbEntity
  8
0
100
AcDbCircle
 10
3256.793387
 20
1330.86127
 30
0.0
 40
14.28125
100
AcDbArc
 50
68.431404
 51
111.568596
  0
ARC
  5
1AF2C
100
AcDbEntity
  8
0
100
AcDbCircle
 10
3235.906885
 20
1356.391903
 30
0.0
 40
20.0
100
AcDbArc
 50
252.606527
 51
270.0
  0
ARC
  5
1AF2D
100
AcDbEntity
  8
0
100
AcDbCircle
 10
3177.065658
 20
1168.554337
 30
0.0
 40
176.838109
100
AcDbArc
 50
72.606527
 51
74.135809
  0
LINE
  5
1AF2E
100
AcDbEntity
  8
0
100
AcDbLine
 10
3272.543387
 20
1345.141903
 30
0.0
 11
3272.543387
 21
1336.391903
 31
0.0
  0
LINE
  5
1AF2F
100
AcDbEntity
  8
0
100
AcDbLine
 10
3283.343387
 20
1344.14252
 30
0.0
 11
3283.343387
 21
1336.391903
 31
0.0
  0
LINE
  5
1AF30
100
AcDbEntity
  8
0
100
AcDbLine
 10
3272.843387
 20
1345.141903
 30
0.0
 11
3272.843387
 21
1336.391903
 31
0.0
  0
ARC
  5
1AF31
100
AcDbEntity
  8
0
100
AcDbCircle
 10
3278.093387
 20
1330.86127
 30
0.0
 40
14.28125
100
AcDbArc
 50
68.431404
 51
111.568596
  0
LINE
  5
1AF32
100
AcDbEntity
  8
0
100
AcDbLine
 10
3293.843387
 20
1345.141903
 30
0.0
 11
3293.843387
 21
1336.391903
 31
0.0
  0
ARC
  5
1AF33
100
AcDbEntity
  8
0
100
AcDbCircle
 10
3288.593387
 20
1330.86127
 30
0.0
 40
14.28125
100
AcDbArc
 50
68.431404
 51
111.568596
  0
LINE
  5
1AF34
100
AcDbEntity
  8
0
100
AcDbLine
 10
3272.843387
 20
1345.141903
 30
0.0
 11
3293.843387
 21
1345.141903
 31
0.0
  0
LINE
  5
1AF35
100
AcDbEntity
  8
0
100
AcDbLine
 10
3481.032517
 20
1259.807059
 30
0.0
 11
3481.032517
 21
1352.307059
 31
0.0
  0
LINE
  5
1AF36
100
AcDbEntity
  8
0
100
AcDbLine
 10
3503.032517
 20
1313.807059
 30
0.0
 11
3523.032517
 21
1309.807059
 31
0.0
  0
LINE
  5
1AF37
100
AcDbEntity
  8
0
100
AcDbLine
 10
3481.032517
 20
1352.307059
 30
0.0
 11
3503.032517
 21
1352.307059
 31
0.0
  0
TEXT
  5
1AF38
100
AcDbEntity
  8
0
100
AcDbText
 10
3639.596861
 20
905.322303
 30
0.0
 40
37.5
  1
80A
 72
     4
 11
3689.596861
 21
924.072303
 31
0.0
100
AcDbText
  0
LINE
  5
1AF39
100
AcDbEntity
  8
0
100
AcDbLine
 10
4074.545838
 20
995.807059
 30
0.0
 11
4146.545838
 21
995.807059
 31
0.0
  0
ELLIPSE
  5
1AF3A
100
AcDbEntity
  8
0
100
AcDbEllipse
 10
4110.545838
 20
1055.631807
 30
0.0
 11
-34.0
 21
0.0
 31
0.0
210
0.0
220
0.0
230
1.0
 40
0.939693
 41
0.0
 42
6.283185307179586
  0
LINE
  5
1AF3B
100
AcDbEntity
  8
0
100
AcDbLine
 10
4078.458588
 20
1035.217087
 30
0.0
 11
4106.968527
 21
1019.374216
 31
0.0
  0
LINE
  5
1AF3C
100
AcDbEntity
  8
0
100
AcDbLine
 10
4078.458588
 20
1076.046528
 30
0.0
 11
4106.968527
 21
1091.889398
 31
0.0
  0
LINE
  5
1AF3D
100
AcDbEntity
  8
0
100
AcDbLine
 10
4078.458588
 20
1080.321779
 30
0.0
 11
4106.968527
 21
1096.16465
 31
0.0
  0
LINE
  5
1AF3E
100
AcDbEntity
  8
0
100
AcDbLine
 10
4120.045838
 20
1360.885236
 30
0.0
 11
4101.045838
 21
1360.885236
 31
0.0
  0
CIRCLE
  5
1AF3F
100
AcDbEntity
  8
0
100
AcDbCircle
 10
4110.545838
 20
1259.807059
 30
0.0
 40
92.5
  0
LINE
  5
1AF40
100
AcDbEntity
  8
0
100
AcDbLine
 10
4094.552504
 20
1352.391903
 30
0.0
 11
4126.552504
 21
1352.391903
 31
0.0
  0
LINE
  5
1AF41
100
AcDbEntity
  8
0
100
AcDbLine
 10
4101.922058
 20
1353.878569
 30
0.0
 11
4109.668025
 21
1353.878569
 31
0.0
  0
LINE
  5
1AF42
100
AcDbEntity
  8
0
100
AcDbLine
 10
3567.435897
 20
1269.307059
 30
0.0
 11
3567.435897
 21
1211.986551
 31
0.0
  0
LINE
  5
1AF43
100
AcDbEntity
  8
0
100
AcDbLine
 10
3823.032517
 20
1303.138563
 30
0.0
 11
3823.032517
 21
1216.475555
 31
0.0
  0
LINE
  5
1AF44
100
AcDbEntity
  8
0
100
AcDbLine
 10
3759.435897
 20
1269.307059
 30
0.0
 11
3759.435897
 21
1212.475915
 31
0.0
  0
LINE
  5
1AF45
100
AcDbEntity
  8
0
100
AcDbLine
 10
4014.750861
 20
1269.307059
 30
0.0
 11
4014.750861
 21
1211.986551
 31
0.0
  0
CIRCLE
  5
1AF46
100
AcDbEntity
  8
0
100
AcDbCircle
 10
4041.254873
 20
1231.105801
 30
0.0
 40
9.5
  0
LINE
  5
1AF47
100
AcDbEntity
  8
0
100
AcDbLine
 10
3865.032517
 20
1167.307059
 30
0.0
 11
3865.032517
 21
1259.807059
 31
0.0
  0
LINE
  5
1AF48
100
AcDbEntity
  8
0
100
AcDbLine
 10
3843.032517
 20
1167.307059
 30
0.0
 11
3843.032517
 21
1352.307059
 31
0.0
  0
LINE
  5
1AF49
100
AcDbEntity
  8
0
100
AcDbLine
 10
3865.032517
 20
1167.307059
 30
0.0
 11
3843.032517
 21
1167.307059
 31
0.0
  0
ARC
  5
1AF4A
100
AcDbEntity
  8
0
100
AcDbCircle
 10
3815.559509
 20
1103.417991
 30
0.0
 40
10.003928
100
AcDbArc
 50
177.006677
 51
231.088849
  0
ARC
  5
1AF4B
100
AcDbEntity
  8
0
100
AcDbCircle
 10
3663.435897
 20
1104.807059
 30
0.0
 40
89.0
100
AcDbArc
 50
180.0
 51
5.502068
  0
LINE
  5
1AF4E
100
AcDbEntity
  8
0
100
AcDbLine
 10
3592.434062
 20
995.807059
 30
0.0
 11
3594.782564
 21
1040.647059
 31
0.0
  0
LINE
  5
1AF50
100
AcDbEntity
  8
0
100
AcDbLine
 10
3588.435897
 20
1021.233726
 30
0.0
 11
3588.435897
 21
1045.447059
 31
0.0
  0
LINE
  5
1AF52
100
AcDbEntity
  8
0
100
AcDbLine
 10
3663.435897
 20
1015.807059
 30
0.0
 11
3606.787168
 21
1015.807059
 31
0.0
  0
ARC
  5
1AF53
100
AcDbEntity
  8
0
100
AcDbCircle
 10
3614.958548
 20
1023.106925
 30
0.0
 40
6.006998
100
AcDbArc
 50
59.331219
 51
165.01242
  0
LINE
  5
1AF54
100
AcDbEntity
  8
0
100
AcDbLine
 10
3601.436125
 20
995.807059
 30
0.0
 11
3609.155897
 21
1024.660392
 31
0.0
  0
LINE
  5
1AF55
100
AcDbEntity
  8
0
100
AcDbLine
 10
3601.436125
 20
995.807059
 30
0.0
 11
3592.434062
 21
995.807059
 31
0.0
  0
LINE
  5
1AF59
100
AcDbEntity
  8
0
100
AcDbLine
 10
3593.44923
 20
1015.313726
 30
0.0
 11
3588.435897
 21
1021.233726
 31
0.0
  0
ARC
  5
1AF5B
100
AcDbEntity
  8
0
100
AcDbCircle
 10
3574.8172
 20
1041.68024
 30
0.0
 40
19.992079
100
AcDbArc
 50
357.037661
 51
27.686803
  0
ARC
  5
1AF5D
100
AcDbEntity
  8
0
100
AcDbCircle
 10
3590.431574
 20
1045.449215
 30
0.0
 40
1.995679
100
AcDbArc
 50
103.00238
 51
180.061893
  0
ARC
  5
1AF5E
100
AcDbEntity
  8
0
100
AcDbCircle
 10
3589.313979
 20
1050.314231
 30
0.0
 40
2.996057
100
AcDbArc
 50
282.894401
 51
36.279184
  0
LINE
  5
1AF5F
100
AcDbEntity
  8
0
100
AcDbLine
 10
3821.184073
 20
1087.581356
 30
0.0
 11
3797.926703
 21
1023.682258
 31
0.0
  0
LINE
  5
1AF60
100
AcDbEntity
  8
0
100
AcDbLine
 10
3809.782564
 20
1092.793726
 30
0.0
 11
3785.835897
 21
1027.020392
 31
0.0
  0
LINE
  5
1AF61
100
AcDbEntity
  8
0
100
AcDbLine
 10
3761.075897
 20
1040.647059
 30
0.0
 11
3763.424399
 21
995.807059
 31
0.0
  0
LINE
  5
1AF62
100
AcDbEntity
  8
0
100
AcDbLine
 10
3741.08923
 20
1034.727059
 30
0.0
 11
3730.382564
 21
1037.993726
 31
0.0
  0
ARC
  5
1AF63
100
AcDbEntity
  8
0
100
AcDbCircle
 10
3801.772277
 20
1026.14246
 30
0.0
 40
15.072218
100
AcDbArc
 50
126.234355
 51
193.765645
  0
ARC
  5
1AF64
100
AcDbEntity
  8
0
100
AcDbCircle
 10
3784.816053
 20
1032.314021
 30
0.0
 40
15.072218
100
AcDbArc
 50
306.234355
 51
13.765645
  0
LINE
  5
1AF65
100
AcDbEntity
  8
0
100
AcDbLine
 10
3767.182564
 20
1026.740392
 30
0.0
 11
3779.982564
 21
1026.487059
 31
0.0
  0
LINE
  5
1AF66
100
AcDbEntity
  8
0
100
AcDbLine
 10
3754.435965
 20
995.807059
 30
0.0
 11
3745.12923
 21
1030.540392
 31
0.0
  0
LINE
  5
1AF67
100
AcDbEntity
  8
0
100
AcDbLine
 10
3763.424399
 20
995.807059
 30
0.0
 11
3754.435965
 21
995.807059
 31
0.0
  0
ARC
  5
1AF68
100
AcDbEntity
  8
0
100
AcDbCircle
 10
3739.256938
 20
1028.916386
 30
0.0
 40
6.092718
100
AcDbArc
 50
15.458995
 51
72.49826
  0
ARC
  5
1AF69
100
AcDbEntity
  8
0
100
AcDbCircle
 10
3766.035167
 20
1022.891239
 30
0.0
 40
4.016528
100
AcDbArc
 50
73.401179
 51
182.533052
  0
LINE
  5
1AF6A
100
AcDbEntity
  8
0
100
AcDbLine
 10
3783.622564
 20
1025.153726
 30
0.0
 11
3779.982564
 21
1026.487059
 31
0.0
  0
LINE
  5
1AF6B
100
AcDbEntity
  8
0
100
AcDbLine
 10
3785.835897
 20
1027.020392
 30
0.0
 11
3783.622564
 21
1025.153726
 31
0.0
  0
LINE
  5
1AF6C
100
AcDbEntity
  8
0
100
AcDbLine
 10
3787.132976
 20
1022.556009
 30
0.0
 11
3793.725081
 21
1020.156679
 31
0.0
  0
LINE
  5
1AF6D
100
AcDbEntity
  8
0
100
AcDbLine
 10
3786.180545
 20
1027.95751
 30
0.0
 11
3787.132976
 21
1022.556009
 31
0.0
  0
LINE
  5
1AF6E
100
AcDbEntity
  8
0
100
AcDbLine
 10
3797.926703
 20
1023.682258
 30
0.0
 11
3793.725081
 21
1020.156679
 31
0.0
  0
ARC
  5
1AF6F
100
AcDbEntity
  8
0
100
AcDbCircle
 10
3726.872381
 20
1026.512243
 30
0.0
 40
12.006074
100
AcDbArc
 50
73.00027
 51
129.168971
  0
ARC
  5
1AF70
100
AcDbEntity
  8
0
100
AcDbCircle
 10
3781.041374
 20
1041.680207
 30
0.0
 40
19.99219
100
AcDbArc
 50
144.415488
 51
182.962227
  0
ARC
  5
1AF71
100
AcDbEntity
  8
0
100
AcDbCircle
 10
3757.063259
 20
1074.73738
 30
0.0
 40
55.660957
100
AcDbArc
 50
322.615887
 51
357.384113
  0
ARC
  5
1AF72
100
AcDbEntity
  8
0
100
AcDbCircle
 10
3850.301359
 20
1040.801486
 30
0.0
 40
55.660957
100
AcDbArc
 50
142.615887
 51
177.384113
  0
LINE
  5
1AF73
100
AcDbEntity
  8
0
100
AcDbLine
 10
3801.290509
 20
1040.942521
 30
0.0
 11
3799.455354
 21
1035.900472
 31
0.0
  0
LINE
  5
1AF74
100
AcDbEntity
  8
0
100
AcDbLine
 10
3792.863248
 20
1038.299803
 30
0.0
 11
3794.698404
 21
1043.341852
 31
0.0
  0
LINE
  5
1AF75
100
AcDbEntity
  8
0
100
AcDbLine
 10
3792.863248
 20
1038.299803
 30
0.0
 11
3799.455354
 21
1035.900472
 31
0.0
  0
LINE
  5
1AF76
100
AcDbEntity
  8
0
100
AcDbLine
 10
3794.698404
 20
1043.341852
 30
0.0
 11
3801.290509
 21
1040.942521
 31
0.0
  0
ARC
  5
1AF77
100
AcDbEntity
  8
0
100
AcDbCircle
 10
3822.548565
 20
1083.224845
 30
0.0
 40
15.072218
100
AcDbArc
 50
126.234355
 51
193.765645
  0
LINE
  5
1AF78
100
AcDbEntity
  8
0
100
AcDbLine
 10
3806.074109
 20
1074.596345
 30
0.0
 11
3812.666215
 21
1072.197014
 31
0.0
  0
LINE
  5
1AF79
100
AcDbEntity
  8
0
100
AcDbLine
 10
3807.909265
 20
1079.638394
 30
0.0
 11
3814.50137
 21
1077.239063
 31
0.0
  0
LINE
  5
1AF7A
100
AcDbEntity
  8
0
100
AcDbLine
 10
3809.437915
 20
1091.856608
 30
0.0
 11
3813.639537
 21
1095.382187
 31
0.0
  0
LINE
  5
1AF7B
100
AcDbEntity
  8
0
100
AcDbLine
 10
3806.074109
 20
1074.596345
 30
0.0
 11
3807.909265
 21
1079.638394
 31
0.0
  0
LINE
  5
1AF7C
100
AcDbEntity
  8
0
100
AcDbLine
 10
3809.275897
 20
1095.633726
 30
0.0
 11
3809.782564
 21
1092.793726
 31
0.0
  0
ARC
  5
1AF7D
100
AcDbEntity
  8
0
100
AcDbCircle
 10
3805.592342
 20
1089.396406
 30
0.0
 40
15.072218
100
AcDbArc
 50
306.234355
 51
13.765645
  0
LINE
  5
1AF7E
100
AcDbEntity
  8
0
100
AcDbLine
 10
3814.50137
 20
1077.239063
 30
0.0
 11
3812.666215
 21
1072.197014
 31
0.0
  0
LINE
  5
1AF7F
100
AcDbEntity
  8
0
100
AcDbLine
 10
3813.639537
 20
1095.382187
 30
0.0
 11
3820.231643
 21
1092.982857
 31
0.0
  0
LINE
  5
1AF80
100
AcDbEntity
  8
0
100
AcDbLine
 10
3821.184073
 20
1087.581356
 30
0.0
 11
3820.231643
 21
1092.982857
 31
0.0
  0
LINE
  5
1AF81
100
AcDbEntity
  8
0
100
AcDbLine
 10
3588.352273
 20
1209.307059
 30
0.0
 11
3738.109474
 21
1209.307059
 31
0.0
  0
LINE
  5
1AF82
100
AcDbEntity
  8
0
100
AcDbLine
 10
3599.141895
 20
1197.182703
 30
0.0
 11
3727.319853
 21
1197.182703
 31
0.0
  0
LINE
  5
1AF83
100
AcDbEntity
  8
0
100
AcDbLine
 10
3574.435897
 20
1104.807059
 30
0.0
 11
3574.435897
 21
1194.503211
 31
0.0
  0
ARC
  5
1AF84
100
AcDbEntity
  8
0
100
AcDbCircle
 10
3564.435897
 20
1194.503211
 30
0.0
 40
10.0
100
AcDbArc
 50
0.0
 51
30.0
  0
ARC
  5
1AF85
100
AcDbEntity
  8
0
100
AcDbCircle
 10
3562.52842
 20
1201.807059
 30
0.0
 40
8.0
100
AcDbArc
 50
30.0
 51
90.0
  0
LINE
  5
1AF86
100
AcDbEntity
  8
0
100
AcDbLine
 10
3573.096151
 20
1199.503211
 30
0.0
 11
3568.775643
 21
1206.986551
 31
0.0
  0
ARC
  5
1AF87
100
AcDbEntity
  8
0
100
AcDbCircle
 10
3577.435897
 20
1211.986551
 30
0.0
 40
10.0
100
AcDbArc
 50
180.0
 51
210.0
  0
LINE
  5
1AF88
100
AcDbEntity
  8
0
100
AcDbLine
 10
3809.694725
 20
1202.142844
 30
0.0
 11
3805.56923
 21
1103.940392
 31
0.0
  0
LINE
  5
1AF89
100
AcDbEntity
  8
0
100
AcDbLine
 10
3752.025851
 20
1194.503211
 30
0.0
 11
3752.025851
 21
1113.340529
 31
0.0
  0
ARC
  5
1AF8A
100
AcDbEntity
  8
0
100
AcDbCircle
 10
3762.025851
 20
1194.503211
 30
0.0
 40
10.0
100
AcDbArc
 50
150.0
 51
180.0
  0
ARC
  5
1AF8B
100
AcDbEntity
  8
0
100
AcDbCircle
 10
3749.435897
 20
1212.475915
 30
0.0
 40
10.0
100
AcDbArc
 50
323.650144
 51
0.0
  0
LINE
  5
1AF8C
100
AcDbEntity
  8
0
100
AcDbLine
 10
3753.365596
 20
1199.503211
 30
0.0
 11
3757.005125
 21
1205.807059
 31
0.0
  0
ARC
  5
1AF8D
100
AcDbEntity
  8
0
100
AcDbCircle
 10
3763.933328
 20
1201.807059
 30
0.0
 40
8.0
100
AcDbArc
 50
143.650144
 51
150.0
  0
ARC
  5
1AF8E
100
AcDbEntity
  8
0
100
AcDbCircle
 10
3817.687675
 20
1201.807059
 30
0.0
 40
8.0
100
AcDbArc
 50
90.0
 51
177.594413
  0
LINE
  5
1AF8F
100
AcDbEntity
  8
0
100
AcDbLine
 10
3823.032517
 20
1209.807059
 30
0.0
 11
3817.687675
 21
1209.807059
 31
0.0
  0
LINE
  5
1AF90
100
AcDbEntity
  8
0
100
AcDbLine
 10
3823.032517
 20
1209.807059
 30
0.0
 11
3843.032517
 21
1205.807059
 31
0.0
  0
ARC
  5
1AF91
100
AcDbEntity
  8
0
100
AcDbCircle
 10
4110.545838
 20
1104.807059
 30
0.0
 40
89.0
100
AcDbArc
 50
180.0
 51
243.292355
  0
LINE
  5
1AF92
100
AcDbEntity
  8
0
100
AcDbLine
 10
4064.0254
 20
1179.856456
 30
0.0
 11
4069.131444
 21
1062.533826
 31
0.0
  0
LINE
  5
1AF93
100
AcDbEntity
  8
0
100
AcDbLine
 10
4070.545838
 20
999.807059
 30
0.0
 11
4070.545838
 21
1054.647488
 31
0.0
  0
ELLIPSE
  5
1AF94
100
AcDbEntity
  8
0
100
AcDbEllipse
 10
4110.545838
 20
1055.631807
 30
0.0
 11
-38.75
 21
0.0
 31
0.0
210
0.0
220
0.0
230
1.0
 40
0.939693
 41
6.746439493067044
 42
6.878346654289215
  0
ARC
  5
1AF95
100
AcDbEntity
  8
0
100
AcDbCircle
 10
4074.545838
 20
999.807059
 30
0.0
 40
4.0
100
AcDbArc
 50
180.0
 51
270.0
  0
LINE
  5
1AF96
100
AcDbEntity
  8
0
100
AcDbLine
 10
4075.879969
 20
1071.903421
 30
0.0
 11
4075.879969
 21
1039.360193
 31
0.0
  0
ELLIPSE
  5
1AF97
100
AcDbEntity
  8
0
100
AcDbEllipse
 10
4110.545838
 20
1065.037361
 30
0.0
 11
41.5
 21
0.0
 31
0.0
210
0.0
220
0.0
230
-1.0
 40
0.939693
 41
8.842700122379781
 42
9.407271977543217
  0
ELLIPSE
  5
1AF98
100
AcDbEntity
  8
0
100
AcDbEllipse
 10
4110.545838
 20
1055.631807
 30
0.0
 11
-38.75
 21
0.0
 31
0.0
210
0.0
220
0.0
230
1.0
 40
0.939693
 41
5.688023960069957
 42
5.819931121292446
  0
LINE
  5
1AF99
100
AcDbEntity
  8
0
100
AcDbLine
 10
4075.879969
 20
1076.178673
 30
0.0
 11
4075.879969
 21
1071.903421
 31
0.0
  0
LINE
  5
1AF9A
100
AcDbEntity
  8
0
100
AcDbLine
 10
4078.458588
 20
1076.046528
 30
0.0
 11
4078.458588
 21
1080.321779
 31
0.0
  0
ELLIPSE
  5
1AF9B
100
AcDbEntity
  8
0
100
AcDbEllipse
 10
4110.545838
 20
1059.907059
 30
0.0
 11
-38.75
 21
-0.0000000003692906
 31
0.0
210
0.0
220
0.0
230
1.0
 40
0.939693
 41
5.688023960069957
 42
5.819931121292446
  0
LINE
  5
1AF9C
100
AcDbEntity
  8
0
100
AcDbLine
 10
4021.545838
 20
1104.807059
 30
0.0
 11
4021.545838
 21
1194.858322
 31
0.0
  0
ARC
  5
1AF9D
100
AcDbEntity
  8
0
100
AcDbCircle
 10
4011.545838
 20
1194.858322
 30
0.0
 40
10.0
100
AcDbArc
 50
0.0
 51
30.0
  0
ARC
  5
1AF9E
100
AcDbEntity
  8
0
100
AcDbCircle
 10
4024.750861
 20
1211.986551
 30
0.0
 40
10.0
100
AcDbArc
 50
180.0
 51
210.0
  0
LINE
  5
1AF9F
100
AcDbEntity
  8
0
100
AcDbLine
 10
4020.206092
 20
1199.858322
 30
0.0
 11
4016.090607
 21
1206.986551
 31
0.0
  0
CIRCLE
  5
1AFA0
100
AcDbEntity
  8
0
100
AcDbCircle
 10
4081.84458
 20
1190.516094
 30
0.0
 40
9.5
  0
LINE
  5
1AFA1
100
AcDbEntity
  8
0
100
AcDbLine
 10
3865.032517
 20
1352.307059
 30
0.0
 11
3843.032517
 21
1352.307059
 31
0.0
  0
LINE
  5
1AFA2
100
AcDbEntity
  8
0
100
AcDbLine
 10
3652.730874
 20
1359.813726
 30
0.0
 11
3652.730874
 21
1352.320392
 31
0.0
  0
LINE
  5
1AFA3
100
AcDbEntity
  8
0
100
AcDbLine
 10
3658.770874
 20
1360.813726
 30
0.0
 11
3658.770874
 21
1353.813726
 31
0.0
  0
LINE
  5
1AFA4
100
AcDbEntity
  8
0
100
AcDbLine
 10
3657.23754
 20
1353.813726
 30
0.0
 11
3657.23754
 21
1360.813726
 31
0.0
  0
LINE
  5
1AFA5
100
AcDbEntity
  8
0
100
AcDbLine
 10
3673.730874
 20
1352.320392
 30
0.0
 11
3673.730874
 21
1359.813726
 31
0.0
  0
LINE
  5
1AFA6
100
AcDbEntity
  8
0
100
AcDbLine
 10
3669.224207
 20
1360.813726
 30
0.0
 11
3669.224207
 21
1353.813726
 31
0.0
  0
LINE
  5
1AFA7
100
AcDbEntity
  8
0
100
AcDbLine
 10
3667.704207
 20
1353.813726
 30
0.0
 11
3667.704207
 21
1360.813726
 31
0.0
  0
ARC
  5
1AFA8
100
AcDbEntity
  8
0
100
AcDbCircle
 10
3662.903114
 20
1166.738911
 30
0.0
 40
178.610279
100
AcDbArc
 50
73.572799
 51
83.535997
  0
LINE
  5
1AFA9
100
AcDbEntity
  8
0
100
AcDbLine
 10
3566.984207
 20
1316.320392
 30
0.0
 11
3759.47754
 21
1316.320392
 31
0.0
  0
LINE
  5
1AFAA
100
AcDbEntity
  8
0
100
AcDbLine
 10
3583.075897
 20
1251.807059
 30
0.0
 11
3743.782564
 21
1251.807059
 31
0.0
  0
LINE
  5
1AFAB
100
AcDbEntity
  8
0
100
AcDbLine
 10
3541.730874
 20
1294.307059
 30
0.0
 11
3784.730874
 21
1294.307059
 31
0.0
  0
LINE
  5
1AFAC
100
AcDbEntity
  8
0
100
AcDbLine
 10
3683.23754
 20
1348.320392
 30
0.0
 11
3784.730874
 21
1348.320392
 31
0.0
  0
LINE
  5
1AFAD
100
AcDbEntity
  8
0
100
AcDbLine
 10
3541.730874
 20
1336.320392
 30
0.0
 11
3782.730874
 21
1336.320392
 31
0.0
  0
LINE
  5
1AFAE
100
AcDbEntity
  8
0
100
AcDbLine
 10
3541.730874
 20
1314.307059
 30
0.0
 11
3784.730874
 21
1314.307059
 31
0.0
  0
LINE
  5
1AFAF
100
AcDbEntity
  8
0
100
AcDbLine
 10
3563.429487
 20
1294.307059
 30
0.0
 11
3567.435897
 21
1269.307059
 31
0.0
  0
ARC
  5
1AFB0
100
AcDbEntity
  8
0
100
AcDbCircle
 10
3663.208603
 20
1168.482827
 30
0.0
 40
176.838109
100
AcDbArc
 50
96.414924
 51
106.283739
  0
LINE
  5
1AFB1
100
AcDbEntity
  8
0
100
AcDbLine
 10
3612.414133
 20
1344.320392
 30
0.0
 11
3618.23754
 21
1344.320392
 31
0.0
  0
LINE
  5
1AFB2
100
AcDbEntity
  8
0
100
AcDbLine
 10
3541.730874
 20
1316.320392
 30
0.0
 11
3541.730874
 21
1336.320392
 31
0.0
  0
LINE
  5
1AFB3
100
AcDbEntity
  8
0
100
AcDbLine
 10
3566.984207
 20
1314.307059
 30
0.0
 11
3566.984207
 21
1316.320392
 31
0.0
  0
LINE
  5
1AFB4
100
AcDbEntity
  8
0
100
AcDbLine
 10
3566.984207
 20
1316.320392
 30
0.0
 11
3541.730874
 21
1316.320392
 31
0.0
  0
LINE
  5
1AFB5
100
AcDbEntity
  8
0
100
AcDbLine
 10
3541.730874
 20
1314.307059
 30
0.0
 11
3541.730874
 21
1294.307059
 31
0.0
  0
LINE
  5
1AFB6
100
AcDbEntity
  8
0
100
AcDbLine
 10
3572.608665
 20
1345.070392
 30
0.0
 11
3552.226415
 21
1345.070392
 31
0.0
  0
LINE
  5
1AFB7
100
AcDbEntity
  8
0
100
AcDbLine
 10
3574.54154
 20
1336.320392
 30
0.0
 11
3574.54154
 21
1343.954242
 31
0.0
  0
LINE
  5
1AFB8
100
AcDbEntity
  8
0
100
AcDbLine
 10
3568.47954
 20
1343.954242
 30
0.0
 11
3568.47954
 21
1336.320392
 31
0.0
  0
LINE
  5
1AFB9
100
AcDbEntity
  8
0
100
AcDbLine
 10
3556.356415
 20
1343.954242
 30
0.0
 11
3556.356415
 21
1336.320392
 31
0.0
  0
LINE
  5
1AFBA
100
AcDbEntity
  8
0
100
AcDbLine
 10
3550.29354
 20
1343.954242
 30
0.0
 11
3550.29354
 21
1336.320392
 31
0.0
  0
LINE
  5
1AFBB
100
AcDbEntity
  8
0
100
AcDbLine
 10
3574.54154
 20
1343.954242
 30
0.0
 11
3572.608665
 21
1345.070392
 31
0.0
  0
ARC
  5
1AFBC
100
AcDbEntity
  8
0
100
AcDbCircle
 10
3571.510978
 20
1339.103
 30
0.0
 40
5.720504
100
AcDbArc
 50
57.999617
 51
122.000383
  0
ARC
  5
1AFBD
100
AcDbEntity
  8
0
100
AcDbCircle
 10
3553.324978
 20
1339.10302
 30
0.0
 40
5.720487
100
AcDbArc
 50
57.999511
 51
122.000489
  0
LINE
  5
1AFBE
100
AcDbEntity
  8
0
100
AcDbLine
 10
3552.226415
 20
1345.070392
 30
0.0
 11
3550.29354
 21
1343.954242
 31
0.0
  0
ARC
  5
1AFBF
100
AcDbEntity
  8
0
100
AcDbCircle
 10
3562.417978
 20
1323.251896
 30
0.0
 40
21.571502
100
AcDbArc
 50
73.680185
 51
106.319815
  0
ARC
  5
1AFC0
100
AcDbEntity
  8
0
100
AcDbCircle
 10
3579.289345
 20
1342.318917
 30
0.0
 40
5.998525
100
AcDbArc
 50
270.014603
 51
353.63323
  0
ARC
  5
1AFC1
100
AcDbEntity
  8
0
100
AcDbCircle
 10
3588.235008
 20
1341.317362
 30
0.0
 40
3.003032
100
AcDbArc
 50
71.785212
 51
173.568913
  0
LINE
  5
1AFC2
100
AcDbEntity
  8
0
100
AcDbLine
 10
3611.115332
 20
1345.070392
 30
0.0
 11
3590.733082
 21
1345.070392
 31
0.0
  0
LINE
  5
1AFC3
100
AcDbEntity
  8
0
100
AcDbLine
 10
3594.863082
 20
1343.954242
 30
0.0
 11
3594.863082
 21
1336.320392
 31
0.0
  0
LINE
  5
1AFC4
100
AcDbEntity
  8
0
100
AcDbLine
 10
3613.048207
 20
1336.320392
 30
0.0
 11
3613.048207
 21
1343.954242
 31
0.0
  0
LINE
  5
1AFC5
100
AcDbEntity
  8
0
100
AcDbLine
 10
3606.986207
 20
1343.954242
 30
0.0
 11
3606.986207
 21
1336.320392
 31
0.0
  0
LINE
  5
1AFC6
100
AcDbEntity
  8
0
100
AcDbLine
 10
3588.800207
 20
1343.954242
 30
0.0
 11
3588.800207
 21
1336.320392
 31
0.0
  0
ARC
  5
1AFC7
100
AcDbEntity
  8
0
100
AcDbCircle
 10
3600.924645
 20
1323.251896
 30
0.0
 40
21.571502
100
AcDbArc
 50
73.680185
 51
106.319815
  0
ARC
  5
1AFC8
100
AcDbEntity
  8
0
100
AcDbCircle
 10
3591.831645
 20
1339.10302
 30
0.0
 40
5.720487
100
AcDbArc
 50
57.999511
 51
122.000489
  0
LINE
  5
1AFC9
100
AcDbEntity
  8
0
100
AcDbLine
 10
3590.733082
 20
1345.070392
 30
0.0
 11
3588.800207
 21
1343.954242
 31
0.0
  0
LINE
  5
1AFCA
100
AcDbEntity
  8
0
100
AcDbLine
 10
3613.048207
 20
1343.954242
 30
0.0
 11
3611.115332
 21
1345.070392
 31
0.0
  0
ARC
  5
1AFCB
100
AcDbEntity
  8
0
100
AcDbCircle
 10
3610.017645
 20
1339.103
 30
0.0
 40
5.720504
100
AcDbArc
 50
57.999617
 51
122.000383
  0
LINE
  5
1AFCC
100
AcDbEntity
  8
0
100
AcDbLine
 10
3653.23754
 20
1352.320392
 30
0.0
 11
3673.23754
 21
1352.320392
 31
0.0
  0
LINE
  5
1AFCD
100
AcDbEntity
  8
0
100
AcDbLine
 10
3673.421999
 20
1345.070392
 30
0.0
 11
3653.039749
 21
1345.070392
 31
0.0
  0
LINE
  5
1AFCE
100
AcDbEntity
  8
0
100
AcDbLine
 10
3652.730874
 20
1353.813726
 30
0.0
 11
3657.23754
 21
1353.813726
 31
0.0
  0
ARC
  5
1AFCF
100
AcDbEntity
  8
0
100
AcDbCircle
 10
3654.138311
 20
1339.10302
 30
0.0
 40
5.720487
100
AcDbArc
 50
57.999511
 51
122.000489
  0
LINE
  5
1AFD0
100
AcDbEntity
  8
0
100
AcDbLine
 10
3647.23754
 20
1352.320392
 30
0.0
 11
3679.23754
 21
1352.320392
 31
0.0
  0
LINE
  5
1AFD1
100
AcDbEntity
  8
0
100
AcDbLine
 10
3618.23754
 20
1344.320392
 30
0.0
 11
3626.23754
 21
1341.413726
 31
0.0
  0
LINE
  5
1AFD2
100
AcDbEntity
  8
0
100
AcDbLine
 10
3651.106874
 20
1343.954242
 30
0.0
 11
3651.106874
 21
1336.320392
 31
0.0
  0
LINE
  5
1AFD3
100
AcDbEntity
  8
0
100
AcDbLine
 10
3653.039749
 20
1345.070392
 30
0.0
 11
3651.106874
 21
1343.954242
 31
0.0
  0
LINE
  5
1AFD4
100
AcDbEntity
  8
0
100
AcDbLine
 10
3645.23754
 20
1350.320392
 30
0.0
 11
3647.23754
 21
1352.320392
 31
0.0
  0
LINE
  5
1AFD5
100
AcDbEntity
  8
0
100
AcDbLine
 10
3645.23754
 20
1346.200392
 30
0.0
 11
3645.23754
 21
1350.320392
 31
0.0
  0
ARC
  5
1AFD6
100
AcDbEntity
  8
0
100
AcDbCircle
 10
3643.232901
 20
1346.206489
 30
0.0
 40
2.004649
100
AcDbArc
 50
276.242327
 51
359.825752
  0
LINE
  5
1AFD7
100
AcDbEntity
  8
0
100
AcDbLine
 10
3681.23754
 20
1346.200392
 30
0.0
 11
3681.23754
 21
1350.147059
 31
0.0
  0
ARC
  5
1AFD8
100
AcDbEntity
  8
0
100
AcDbCircle
 10
3683.240551
 20
1350.323403
 30
0.0
 40
2.003013
100
AcDbArc
 50
180.086122
 51
269.913878
  0
LINE
  5
1AFD9
100
AcDbEntity
  8
0
100
AcDbLine
 10
3658.770874
 20
1353.813726
 30
0.0
 11
3667.704207
 21
1353.813726
 31
0.0
  0
LINE
  5
1AFDA
100
AcDbEntity
  8
0
100
AcDbLine
 10
3669.224207
 20
1353.813726
 30
0.0
 11
3673.730874
 21
1353.813726
 31
0.0
  0
LINE
  5
1AFDB
100
AcDbEntity
  8
0
100
AcDbLine
 10
3679.23754
 20
1352.320392
 30
0.0
 11
3681.23754
 21
1350.320392
 31
0.0
  0
LINE
  5
1AFDC
100
AcDbEntity
  8
0
100
AcDbLine
 10
3657.169749
 20
1343.954242
 30
0.0
 11
3657.169749
 21
1336.320392
 31
0.0
  0
LINE
  5
1AFDD
100
AcDbEntity
  8
0
100
AcDbLine
 10
3669.292874
 20
1343.954242
 30
0.0
 11
3669.292874
 21
1336.320392
 31
0.0
  0
LINE
  5
1AFDE
100
AcDbEntity
  8
0
100
AcDbLine
 10
3675.354874
 20
1336.320392
 30
0.0
 11
3675.354874
 21
1343.954242
 31
0.0
  0
ARC
  5
1AFDF
100
AcDbEntity
  8
0
100
AcDbCircle
 10
3663.231311
 20
1323.251896
 30
0.0
 40
21.571502
100
AcDbArc
 50
73.680185
 51
106.319815
  0
ARC
  5
1AFE0
100
AcDbEntity
  8
0
100
AcDbCircle
 10
3672.324311
 20
1339.103
 30
0.0
 40
5.720504
100
AcDbArc
 50
57.999617
 51
122.000383
  0
LINE
  5
1AFE1
100
AcDbEntity
  8
0
100
AcDbLine
 10
3675.354874
 20
1343.954242
 30
0.0
 11
3673.421999
 21
1345.070392
 31
0.0
  0
ARC
  5
1AFE2
100
AcDbEntity
  8
0
100
AcDbCircle
 10
3683.235447
 20
1346.198971
 30
0.0
 40
1.997907
100
AcDbArc
 50
179.959245
 51
263.54607
  0
LINE
  5
1AFE3
100
AcDbEntity
  8
0
100
AcDbLine
 10
3763.426281
 20
1294.307059
 30
0.0
 11
3759.435897
 21
1269.307059
 31
0.0
  0
LINE
  5
1AFE4
100
AcDbEntity
  8
0
100
AcDbLine
 10
3784.730874
 20
1316.320392
 30
0.0
 11
3759.47754
 21
1316.320392
 31
0.0
  0
ARC
  5
1AFE5
100
AcDbEntity
  8
0
100
AcDbCircle
 10
3773.137645
 20
1339.103
 30
0.0
 40
5.720504
100
AcDbArc
 50
57.999617
 51
122.000383
  0
LINE
  5
1AFE6
100
AcDbEntity
  8
0
100
AcDbLine
 10
3774.235332
 20
1345.070392
 30
0.0
 11
3753.853082
 21
1345.070392
 31
0.0
  0
LINE
  5
1AFE7
100
AcDbEntity
  8
0
100
AcDbLine
 10
3759.47754
 20
1316.320392
 30
0.0
 11
3759.47754
 21
1314.307059
 31
0.0
  0
LINE
  5
1AFE8
100
AcDbEntity
  8
0
100
AcDbLine
 10
3735.728665
 20
1345.070392
 30
0.0
 11
3715.346415
 21
1345.070392
 31
0.0
  0
ARC
  5
1AFE9
100
AcDbEntity
  8
0
100
AcDbCircle
 10
3734.630978
 20
1339.103
 30
0.0
 40
5.720504
100
AcDbArc
 50
57.999617
 51
122.000383
  0
LINE
  5
1AFEA
100
AcDbEntity
  8
0
100
AcDbLine
 10
3719.476415
 20
1343.954242
 30
0.0
 11
3719.476415
 21
1336.320392
 31
0.0
  0
LINE
  5
1AFEB
100
AcDbEntity
  8
0
100
AcDbLine
 10
3713.41354
 20
1343.954242
 30
0.0
 11
3713.41354
 21
1336.320392
 31
0.0
  0
LINE
  5
1AFEC
100
AcDbEntity
  8
0
100
AcDbLine
 10
3731.59954
 20
1343.954242
 30
0.0
 11
3731.59954
 21
1336.320392
 31
0.0
  0
ARC
  5
1AFED
100
AcDbEntity
  8
0
100
AcDbCircle
 10
3725.537978
 20
1323.251896
 30
0.0
 40
21.571502
100
AcDbArc
 50
73.680185
 51
106.319815
  0
ARC
  5
1AFEE
100
AcDbEntity
  8
0
100
AcDbCircle
 10
3716.444978
 20
1339.10302
 30
0.0
 40
5.720487
100
AcDbArc
 50
57.999511
 51
122.000489
  0
LINE
  5
1AFEF
100
AcDbEntity
  8
0
100
AcDbLine
 10
3715.346415
 20
1345.070392
 30
0.0
 11
3713.41354
 21
1343.954242
 31
0.0
  0
LINE
  5
1AFF0
100
AcDbEntity
  8
0
100
AcDbLine
 10
3753.853082
 20
1345.070392
 30
0.0
 11
3751.920207
 21
1343.954242
 31
0.0
  0
ARC
  5
1AFF1
100
AcDbEntity
  8
0
100
AcDbCircle
 10
3754.951645
 20
1339.10302
 30
0.0
 40
5.720487
100
AcDbArc
 50
57.999511
 51
122.000489
  0
LINE
  5
1AFF2
100
AcDbEntity
  8
0
100
AcDbLine
 10
3751.920207
 20
1343.954242
 30
0.0
 11
3751.920207
 21
1336.320392
 31
0.0
  0
LINE
  5
1AFF3
100
AcDbEntity
  8
0
100
AcDbLine
 10
3737.66154
 20
1336.320392
 30
0.0
 11
3737.66154
 21
1343.954242
 31
0.0
  0
LINE
  5
1AFF4
100
AcDbEntity
  8
0
100
AcDbLine
 10
3737.66154
 20
1343.954242
 30
0.0
 11
3735.728665
 21
1345.070392
 31
0.0
  0
LINE
  5
1AFF5
100
AcDbEntity
  8
0
100
AcDbLine
 10
3770.106207
 20
1343.954242
 30
0.0
 11
3770.106207
 21
1336.320392
 31
0.0
  0
LINE
  5
1AFF6
100
AcDbEntity
  8
0
100
AcDbLine
 10
3757.983082
 20
1343.954242
 30
0.0
 11
3757.983082
 21
1336.320392
 31
0.0
  0
ARC
  5
1AFF7
100
AcDbEntity
  8
0
100
AcDbCircle
 10
3764.044645
 20
1323.251896
 30
0.0
 40
21.571502
100
AcDbArc
 50
73.680185
 51
106.319815
  0
LINE
  5
1AFF8
100
AcDbEntity
  8
0
100
AcDbLine
 10
3784.730874
 20
1348.320392
 30
0.0
 11
3784.730874
 21
1316.320392
 31
0.0
  0
LINE
  5
1AFF9
100
AcDbEntity
  8
0
100
AcDbLine
 10
3823.032517
 20
1309.807059
 30
0.0
 11
3784.730874
 21
1309.807059
 31
0.0
  0
LINE
  5
1AFFA
100
AcDbEntity
  8
0
100
AcDbLine
 10
3784.730874
 20
1314.307059
 30
0.0
 11
3784.730874
 21
1294.307059
 31
0.0
  0
LINE
  5
1AFFB
100
AcDbEntity
  8
0
100
AcDbLine
 10
3843.032517
 20
1313.807059
 30
0.0
 11
3823.032517
 21
1309.807059
 31
0.0
  0
LINE
  5
1AFFC
100
AcDbEntity
  8
0
100
AcDbLine
 10
3776.168207
 20
1336.320392
 30
0.0
 11
3776.168207
 21
1343.954242
 31
0.0
  0
LINE
  5
1AFFD
100
AcDbEntity
  8
0
100
AcDbLine
 10
3776.168207
 20
1343.954242
 30
0.0
 11
3774.235332
 21
1345.070392
 31
0.0
  0
LINE
  5
1AFFE
100
AcDbEntity
  8
0
100
AcDbLine
 10
3672.730874
 20
1360.813726
 30
0.0
 11
3653.730874
 21
1360.813726
 31
0.0
  0
LINE
  5
1AFFF
100
AcDbEntity
  8
0
100
AcDbLine
 10
3653.730874
 20
1360.813726
 30
0.0
 11
3652.730874
 21
1359.813726
 31
0.0
  0
LINE
  5
1B000
100
AcDbEntity
  8
0
100
AcDbLine
 10
3673.730874
 20
1359.813726
 30
0.0
 11
3672.730874
 21
1360.813726
 31
0.0
  0
LINE
  5
1B001
100
AcDbEntity
  8
0
100
AcDbLine
 10
4101.045042
 20
1360.878569
 30
0.0
 11
4101.045042
 21
1353.878569
 31
0.0
  0
LINE
  5
1B002
100
AcDbEntity
  8
0
100
AcDbLine
 10
4101.922058
 20
1360.878569
 30
0.0
 11
4101.922058
 21
1353.878569
 31
0.0
  0
LINE
  5
1B003
100
AcDbEntity
  8
0
100
AcDbLine
 10
4100.045042
 20
1359.878569
 30
0.0
 11
4100.045042
 21
1352.391903
 31
0.0
  0
LINE
  5
1B004
100
AcDbEntity
  8
0
100
AcDbLine
 10
3865.032517
 20
1259.807059
 30
0.0
 11
3865.032517
 21
1352.307059
 31
0.0
  0
LINE
  5
1B005
100
AcDbEntity
  8
0
100
AcDbLine
 10
4010.744451
 20
1294.307059
 30
0.0
 11
4014.750861
 21
1269.307059
 31
0.0
  0
CIRCLE
  5
1B006
100
AcDbEntity
  8
0
100
AcDbCircle
 10
4041.254873
 20
1288.508316
 30
0.0
 40
9.5
  0
LINE
  5
1B007
100
AcDbEntity
  8
0
100
AcDbLine
 10
3989.045838
 20
1314.307059
 30
0.0
 11
4035.80629
 21
1314.307059
 31
0.0
  0
LINE
  5
1B008
100
AcDbEntity
  8
0
100
AcDbLine
 10
3989.045838
 20
1336.320392
 30
0.0
 11
4058.565459
 21
1336.320392
 31
0.0
  0
LINE
  5
1B009
100
AcDbEntity
  8
0
100
AcDbLine
 10
4014.299171
 20
1316.320392
 30
0.0
 11
4037.316792
 21
1316.320392
 31
0.0
  0
ARC
  5
1B00A
100
AcDbEntity
  8
0
100
AcDbCircle
 10
4030.795838
 20
1330.86127
 30
0.0
 40
14.28125
100
AcDbArc
 50
68.431404
 51
111.568596
  0
LINE
  5
1B00B
100
AcDbEntity
  8
0
100
AcDbLine
 10
4036.045838
 20
1345.141903
 30
0.0
 11
4015.045838
 21
1345.141903
 31
0.0
  0
LINE
  5
1B00C
100
AcDbEntity
  8
0
100
AcDbLine
 10
3989.045838
 20
1316.320392
 30
0.0
 11
3989.045838
 21
1336.320392
 31
0.0
  0
LINE
  5
1B00D
100
AcDbEntity
  8
0
100
AcDbLine
 10
3989.045838
 20
1294.307059
 30
0.0
 11
4024.720434
 21
1294.307059
 31
0.0
  0
LINE
  5
1B00E
100
AcDbEntity
  8
0
100
AcDbLine
 10
4014.299171
 20
1316.320392
 30
0.0
 11
3989.045838
 21
1316.320392
 31
0.0
  0
LINE
  5
1B00F
100
AcDbEntity
  8
0
100
AcDbLine
 10
3989.045838
 20
1314.307059
 30
0.0
 11
3989.045838
 21
1294.307059
 31
0.0
  0
LINE
  5
1B010
100
AcDbEntity
  8
0
100
AcDbLine
 10
4014.299171
 20
1314.307059
 30
0.0
 11
4014.299171
 21
1316.320392
 31
0.0
  0
LINE
  5
1B011
100
AcDbEntity
  8
0
100
AcDbLine
 10
4015.045838
 20
1345.141903
 30
0.0
 11
4015.045838
 21
1336.391903
 31
0.0
  0
LINE
  5
1B012
100
AcDbEntity
  8
0
100
AcDbLine
 10
4025.545838
 20
1344.14252
 30
0.0
 11
4025.545838
 21
1336.391903
 31
0.0
  0
LINE
  5
1B013
100
AcDbEntity
  8
0
100
AcDbLine
 10
4004.245838
 20
1344.14252
 30
0.0
 11
4004.245838
 21
1336.391903
 31
0.0
  0
LINE
  5
1B014
100
AcDbEntity
  8
0
100
AcDbLine
 10
4014.745838
 20
1345.141903
 30
0.0
 11
4014.745838
 21
1336.391903
 31
0.0
  0
LINE
  5
1B015
100
AcDbEntity
  8
0
100
AcDbLine
 10
3993.745838
 20
1345.141903
 30
0.0
 11
3993.745838
 21
1336.391903
 31
0.0
  0
ARC
  5
1B016
100
AcDbEntity
  8
0
100
AcDbCircle
 10
4020.295838
 20
1330.86127
 30
0.0
 40
14.28125
100
AcDbArc
 50
68.431404
 51
111.568596
  0
ARC
  5
1B017
100
AcDbEntity
  8
0
100
AcDbCircle
 10
4009.495838
 20
1330.86127
 30
0.0
 40
14.28125
100
AcDbArc
 50
68.431404
 51
111.568596
  0
ARC
  5
1B018
100
AcDbEntity
  8
0
100
AcDbCircle
 10
3998.995838
 20
1330.86127
 30
0.0
 40
14.28125
100
AcDbArc
 50
68.431404
 51
111.568596
  0
LINE
  5
1B019
100
AcDbEntity
  8
0
100
AcDbLine
 10
4014.745838
 20
1345.141903
 30
0.0
 11
3993.745838
 21
1345.141903
 31
0.0
  0
CIRCLE
  5
1B01A
100
AcDbEntity
  8
0
100
AcDbCircle
 10
4081.84458
 20
1329.098024
 30
0.0
 40
9.5
  0
ARC
  5
1B01B
100
AcDbEntity
  8
0
100
AcDbCircle
 10
4072.495838
 20
1330.86127
 30
0.0
 40
14.28125
100
AcDbArc
 50
88.270049
 51
111.568596
  0
LINE
  5
1B01C
100
AcDbEntity
  8
0
100
AcDbLine
 10
4067.245838
 20
1345.141903
 30
0.0
 11
4074.849698
 21
1345.141903
 31
0.0
  0
LINE
  5
1B01D
100
AcDbEntity
  8
0
100
AcDbLine
 10
4036.045838
 20
1345.141903
 30
0.0
 11
4036.045838
 21
1336.391903
 31
0.0
  0
ARC
  5
1B01E
100
AcDbEntity
  8
0
100
AcDbCircle
 10
4051.68234
 20
1356.391903
 30
0.0
 40
20.0
100
AcDbArc
 50
270.0
 51
287.393473
  0
ARC
  5
1B01F
100
AcDbEntity
  8
0
100
AcDbCircle
 10
4110.523567
 20
1168.554337
 30
0.0
 40
176.838109
100
AcDbArc
 50
105.864191
 51
107.393473
  0
LINE
  5
1B020
100
AcDbEntity
  8
0
100
AcDbLine
 10
4067.245838
 20
1345.141903
 30
0.0
 11
4067.245838
 21
1341.654226
 31
0.0
  0
LINE
  5
1B021
100
AcDbEntity
  8
0
100
AcDbLine
 10
4092.552504
 20
1350.391903
 30
0.0
 11
4094.552504
 21
1352.391903
 31
0.0
  0
LINE
  5
1B022
100
AcDbEntity
  8
0
100
AcDbLine
 10
4092.552504
 20
1350.026481
 30
0.0
 11
4092.552504
 21
1350.391903
 31
0.0
  0
LINE
  5
1B023
100
AcDbEntity
  8
0
100
AcDbLine
 10
4100.045042
 20
1353.878569
 30
0.0
 11
4101.045042
 21
1353.878569
 31
0.0
  0
LINE
  5
1B024
100
AcDbEntity
  8
0
100
AcDbLine
 10
4101.045042
 20
1360.878569
 30
0.0
 11
4100.045042
 21
1359.878569
 31
0.0
  0
LINE
  5
1B025
100
AcDbEntity
  8
0
100
AcDbLine
 10
4206.750861
 20
1269.307059
 30
0.0
 11
4206.750861
 21
1212.475915
 31
0.0
  0
CIRCLE
  5
1B026
100
AcDbEntity
  8
0
100
AcDbCircle
 10
4179.836803
 20
1231.105801
 30
0.0
 40
9.5
  0
LINE
  5
1B027
100
AcDbEntity
  8
0
100
AcDbLine
 10
4157.066276
 20
1179.856456
 30
0.0
 11
4151.960231
 21
1062.533826
 31
0.0
  0
ARC
  5
1B028
100
AcDbEntity
  8
0
100
AcDbCircle
 10
4110.545838
 20
1104.807059
 30
0.0
 40
89.0
100
AcDbArc
 50
296.707645
 51
360.0
  0
LINE
  5
1B029
100
AcDbEntity
  8
0
100
AcDbLine
 10
4150.545838
 20
999.807059
 30
0.0
 11
4150.545838
 21
1054.647488
 31
0.0
  0
ELLIPSE
  5
1B02A
100
AcDbEntity
  8
0
100
AcDbEllipse
 10
4110.545838
 20
1055.631807
 30
0.0
 11
38.75
 21
0.0
 31
0.0
210
0.0
220
0.0
230
-1.0
 40
0.939693
 41
6.746439493067044
 42
6.878346654289215
  0
ARC
  5
1B02B
100
AcDbEntity
  8
0
100
AcDbCircle
 10
4146.545838
 20
999.807059
 30
0.0
 40
4.0
100
AcDbArc
 50
270.0
 51
0.0
  0
LINE
  5
1B02C
100
AcDbEntity
  8
0
100
AcDbLine
 10
4142.633087
 20
1035.217087
 30
0.0
 11
4114.123149
 21
1019.374216
 31
0.0
  0
ELLIPSE
  5
1B02D
100
AcDbEntity
  8
0
100
AcDbEllipse
 10
4110.545838
 20
1055.631807
 30
0.0
 11
-38.75
 21
0.0
 31
0.0
210
0.0
220
0.0
230
-1.0
 40
0.939693
 41
10.90312494282362
 42
11.08802363230492
  0
LINE
  5
1B02E
100
AcDbEntity
  8
0
100
AcDbLine
 10
4145.211707
 20
1071.903421
 30
0.0
 11
4145.211707
 21
1039.360193
 31
0.0
  0
ELLIPSE
  5
1B02F
100
AcDbEntity
  8
0
100
AcDbEllipse
 10
4110.545838
 20
1065.037361
 30
0.0
 11
-41.5
 21
0.0
 31
0.0
210
0.0
220
0.0
230
1.0
 40
0.939693
 41
8.842700122379781
 42
9.407271977543425
  0
ELLIPSE
  5
1B030
100
AcDbEntity
  8
0
100
AcDbEllipse
 10
4110.545838
 20
1055.631807
 30
0.0
 11
38.75
 21
0.0
 31
0.0
210
0.0
220
0.0
230
-1.0
 40
0.939693
 41
5.688023960069957
 42
5.819931121292446
  0
LINE
  5
1B031
100
AcDbEntity
  8
0
100
AcDbLine
 10
4142.633087
 20
1076.046528
 30
0.0
 11
4142.633087
 21
1080.321779
 31
0.0
  0
ELLIPSE
  5
1B032
100
AcDbEntity
  8
0
100
AcDbEllipse
 10
4110.545838
 20
1059.907059
 30
0.0
 11
38.75
 21
0.0
 31
0.0
210
0.0
220
0.0
230
-1.0
 40
0.939693
 41
5.688023960069957
 42
5.819931121292446
  0
LINE
  5
1B033
100
AcDbEntity
  8
0
100
AcDbLine
 10
4145.211707
 20
1076.178673
 30
0.0
 11
4145.211707
 21
1071.903421
 31
0.0
  0
ELLIPSE
  5
1B034
100
AcDbEntity
  8
0
100
AcDbEllipse
 10
4110.545838
 20
1059.907059
 30
0.0
 11
-38.75
 21
0.0
 31
0.0
210
0.0
220
0.0
230
1.0
 40
0.939693
 41
10.90312494282362
 42
11.08802363230492
  0
ELLIPSE
  5
1B035
100
AcDbEntity
  8
0
100
AcDbEllipse
 10
4110.545838
 20
1055.631807
 30
0.0
 11
-38.75
 21
0.0
 31
0.0
210
0.0
220
0.0
230
1.0
 40
0.939693
 41
10.90312494282362
 42
11.08802363230492
  0
LINE
  5
1B036
100
AcDbEntity
  8
0
100
AcDbLine
 10
4106.968527
 20
1091.889398
 30
0.0
 11
4106.968527
 21
1096.16465
 31
0.0
  0
LINE
  5
1B037
100
AcDbEntity
  8
0
100
AcDbLine
 10
4114.123149
 20
1091.889398
 30
0.0
 11
4114.123149
 21
1096.16465
 31
0.0
  0
LINE
  5
1B038
100
AcDbEntity
  8
0
100
AcDbLine
 10
4142.633087
 20
1076.046528
 30
0.0
 11
4114.123149
 21
1091.889398
 31
0.0
  0
LINE
  5
1B039
100
AcDbEntity
  8
0
100
AcDbLine
 10
4142.633087
 20
1080.321779
 30
0.0
 11
4114.123149
 21
1096.16465
 31
0.0
  0
LINE
  5
1B03A
100
AcDbEntity
  8
0
100
AcDbLine
 10
4199.545838
 20
1104.807059
 30
0.0
 11
4199.545838
 21
1194.858322
 31
0.0
  0
CIRCLE
  5
1B03B
100
AcDbEntity
  8
0
100
AcDbCircle
 10
4139.247095
 20
1190.516094
 30
0.0
 40
9.5
  0
ARC
  5
1B03C
100
AcDbEntity
  8
0
100
AcDbCircle
 10
4209.545838
 20
1194.858322
 30
0.0
 40
10.0
100
AcDbArc
 50
150.0
 51
180.0
  0
ARC
  5
1B03D
100
AcDbEntity
  8
0
100
AcDbCircle
 10
4211.248292
 20
1201.807059
 30
0.0
 40
8.0
100
AcDbArc
 50
143.650144
 51
150.0
  0
LINE
  5
1B03E
100
AcDbEntity
  8
0
100
AcDbLine
 10
4200.885584
 20
1199.858322
 30
0.0
 11
4204.320089
 21
1205.807059
 31
0.0
  0
ARC
  5
1B03F
100
AcDbEntity
  8
0
100
AcDbCircle
 10
4196.750861
 20
1212.475915
 30
0.0
 40
10.0
100
AcDbArc
 50
323.650144
 51
0.0
  0
LINE
  5
1B040
100
AcDbEntity
  8
0
100
AcDbLine
 10
4119.168025
 20
1360.880014
 30
0.0
 11
4119.169198
 21
1353.880014
 31
0.0
  0
LINE
  5
1B041
100
AcDbEntity
  8
0
100
AcDbLine
 10
4120.045041
 20
1360.880161
 30
0.0
 11
4120.046214
 21
1353.880161
 31
0.0
  0
LINE
  5
1B042
100
AcDbEntity
  8
0
100
AcDbLine
 10
4109.668025
 20
1360.878569
 30
0.0
 11
4109.668025
 21
1353.878569
 31
0.0
  0
LINE
  5
1B043
100
AcDbEntity
  8
0
100
AcDbLine
 10
4111.422058
 20
1360.878716
 30
0.0
 11
4111.423231
 21
1353.878716
 31
0.0
  0
LINE
  5
1B044
100
AcDbEntity
  8
0
100
AcDbLine
 10
4121.046634
 20
1359.878569
 30
0.0
 11
4121.046634
 21
1352.391903
 31
0.0
  0
LINE
  5
1B045
100
AcDbEntity
  8
0
100
AcDbLine
 10
4210.741246
 20
1294.307059
 30
0.0
 11
4206.750861
 21
1269.307059
 31
0.0
  0
CIRCLE
  5
1B046
100
AcDbEntity
  8
0
100
AcDbCircle
 10
4179.836803
 20
1288.508316
 30
0.0
 40
9.5
  0
LINE
  5
1B047
100
AcDbEntity
  8
0
100
AcDbLine
 10
4162.526217
 20
1336.320392
 30
0.0
 11
4232.045838
 21
1336.320392
 31
0.0
  0
LINE
  5
1B048
100
AcDbEntity
  8
0
100
AcDbLine
 10
4183.774884
 20
1316.320392
 30
0.0
 11
4206.792504
 21
1316.320392
 31
0.0
  0
CIRCLE
  5
1B049
100
AcDbEntity
  8
0
100
AcDbCircle
 10
4139.247095
 20
1329.098024
 30
0.0
 40
9.5
  0
LINE
  5
1B04A
100
AcDbEntity
  8
0
100
AcDbLine
 10
4126.552504
 20
1352.391903
 30
0.0
 11
4128.552504
 21
1350.391903
 31
0.0
  0
LINE
  5
1B04B
100
AcDbEntity
  8
0
100
AcDbLine
 10
4119.169198
 20
1353.880014
 30
0.0
 11
4111.423231
 21
1353.878716
 31
0.0
  0
LINE
  5
1B04C
100
AcDbEntity
  8
0
100
AcDbLine
 10
4121.046214
 20
1353.880329
 30
0.0
 11
4120.046214
 21
1353.880161
 31
0.0
  0
ARC
  5
1B04D
100
AcDbEntity
  8
0
100
AcDbCircle
 10
4169.409336
 20
1356.391903
 30
0.0
 40
20.0
100
AcDbArc
 50
252.606527
 51
270.0
  0
ARC
  5
1B04E
100
AcDbEntity
  8
0
100
AcDbCircle
 10
4148.595838
 20
1330.86127
 30
0.0
 40
14.28125
100
AcDbArc
 50
68.431404
 51
91.729951
  0
ARC
  5
1B04F
100
AcDbEntity
  8
0
100
AcDbCircle
 10
4110.568109
 20
1168.554337
 30
0.0
 40
176.838109
100
AcDbArc
 50
72.606527
 51
74.135809
  0
LINE
  5
1B050
100
AcDbEntity
  8
0
100
AcDbLine
 10
4153.845838
 20
1345.141903
 30
0.0
 11
4153.845838
 21
1341.654226
 31
0.0
  0
LINE
  5
1B051
100
AcDbEntity
  8
0
100
AcDbLine
 10
4153.845838
 20
1345.141903
 30
0.0
 11
4146.241978
 21
1345.141903
 31
0.0
  0
LINE
  5
1B052
100
AcDbEntity
  8
0
100
AcDbLine
 10
4232.045838
 20
1336.320392
 30
0.0
 11
4232.045838
 21
1316.320392
 31
0.0
  0
LINE
  5
1B053
100
AcDbEntity
  8
0
100
AcDbLine
 10
4232.045838
 20
1316.320392
 30
0.0
 11
4206.792504
 21
1316.320392
 31
0.0
  0
LINE
  5
1B054
100
AcDbEntity
  8
0
100
AcDbLine
 10
4185.285386
 20
1314.307059
 30
0.0
 11
4232.045838
 21
1314.307059
 31
0.0
  0
LINE
  5
1B055
100
AcDbEntity
  8
0
100
AcDbLine
 10
4196.371242
 20
1294.307059
 30
0.0
 11
4232.045838
 21
1294.307059
 31
0.0
  0
LINE
  5
1B056
100
AcDbEntity
  8
0
100
AcDbLine
 10
4206.792504
 20
1316.320392
 30
0.0
 11
4206.792504
 21
1314.307059
 31
0.0
  0
LINE
  5
1B057
100
AcDbEntity
  8
0
100
AcDbLine
 10
4232.045838
 20
1314.307059
 30
0.0
 11
4232.045838
 21
1294.307059
 31
0.0
  0
LINE
  5
1B058
100
AcDbEntity
  8
0
100
AcDbLine
 10
4206.345838
 20
1345.141903
 30
0.0
 11
4227.345838
 21
1345.141903
 31
0.0
  0
ARC
  5
1B059
100
AcDbEntity
  8
0
100
AcDbCircle
 10
4222.095838
 20
1330.86127
 30
0.0
 40
14.28125
100
AcDbArc
 50
68.431404
 51
111.568596
  0
LINE
  5
1B05A
100
AcDbEntity
  8
0
100
AcDbLine
 10
4185.045838
 20
1345.141903
 30
0.0
 11
4185.045838
 21
1336.391903
 31
0.0
  0
ARC
  5
1B05B
100
AcDbEntity
  8
0
100
AcDbCircle
 10
4211.595838
 20
1330.86127
 30
0.0
 40
14.28125
100
AcDbArc
 50
68.431404
 51
111.568596
  0
LINE
  5
1B05C
100
AcDbEntity
  8
0
100
AcDbLine
 10
4206.345838
 20
1345.141903
 30
0.0
 11
4206.345838
 21
1336.391903
 31
0.0
  0
LINE
  5
1B05D
100
AcDbEntity
  8
0
100
AcDbLine
 10
4206.045838
 20
1345.141903
 30
0.0
 11
4206.045838
 21
1336.391903
 31
0.0
  0
LINE
  5
1B05E
100
AcDbEntity
  8
0
100
AcDbLine
 10
4195.545838
 20
1344.14252
 30
0.0
 11
4195.545838
 21
1336.391903
 31
0.0
  0
ARC
  5
1B05F
100
AcDbEntity
  8
0
100
AcDbCircle
 10
4190.295838
 20
1330.86127
 30
0.0
 40
14.28125
100
AcDbArc
 50
68.431404
 51
111.568596
  0
ARC
  5
1B060
100
AcDbEntity
  8
0
100
AcDbCircle
 10
4200.795838
 20
1330.86127
 30
0.0
 40
14.28125
100
AcDbArc
 50
68.431404
 51
111.568596
  0
LINE
  5
1B061
100
AcDbEntity
  8
0
100
AcDbLine
 10
4185.045838
 20
1345.141903
 30
0.0
 11
4206.045838
 21
1345.141903
 31
0.0
  0
LINE
  5
1B062
100
AcDbEntity
  8
0
100
AcDbLine
 10
4216.845838
 20
1344.14252
 30
0.0
 11
4216.845838
 21
1336.391903
 31
0.0
  0
LINE
  5
1B063
100
AcDbEntity
  8
0
100
AcDbLine
 10
4227.345838
 20
1345.141903
 30
0.0
 11
4227.345838
 21
1336.391903
 31
0.0
  0
LINE
  5
1B064
100
AcDbEntity
  8
0
100
AcDbLine
 10
4120.045041
 20
1360.880161
 30
0.0
 11
4121.045209
 21
1359.880329
 31
0.0
  0
LINE
  5
1B065
100
AcDbEntity
  8
0
100
AcDbLine
 10
3524.880962
 20
1947.517219
 30
0.0
 11
3548.138331
 21
1883.618121
 31
0.0
  0
LINE
  5
1B066
100
AcDbEntity
  8
0
100
AcDbLine
 10
3536.282471
 20
1952.729589
 30
0.0
 11
3560.229138
 21
1886.956255
 31
0.0
  0
LINE
  5
1B067
100
AcDbEntity
  8
0
100
AcDbLine
 10
3539.990926
 20
1934.532208
 30
0.0
 11
3533.39882
 21
1932.132877
 31
0.0
  0
ARC
  5
1B068
100
AcDbEntity
  8
0
100
AcDbCircle
 10
3589.001776
 20
1934.673243
 30
0.0
 40
55.660957
100
AcDbArc
 50
182.615887
 51
217.384113
  0
LINE
  5
1B069
100
AcDbEntity
  8
0
100
AcDbLine
 10
3536.370309
 20
2062.078706
 30
0.0
 11
3540.495804
 21
1963.876255
 31
0.0
  0
ARC
  5
1B06A
100
AcDbEntity
  8
0
100
AcDbCircle
 10
3530.505525
 20
1963.353854
 30
0.0
 40
10.003928
100
AcDbArc
 50
308.911151
 51
2.993323
  0
LINE
  5
1B06B
100
AcDbEntity
  8
0
100
AcDbLine
 10
3538.15577
 20
1939.574257
 30
0.0
 11
3531.563664
 21
1937.174926
 31
0.0
  0
ARC
  5
1B06C
100
AcDbEntity
  8
0
100
AcDbCircle
 10
3523.516469
 20
1943.160708
 30
0.0
 40
15.072218
100
AcDbArc
 50
346.234355
 51
53.765645
  0
ARC
  5
1B06D
100
AcDbEntity
  8
0
100
AcDbCircle
 10
3528.377359
 20
2061.742922
 30
0.0
 40
8.0
100
AcDbArc
 50
2.405587
 51
90.0
  0
LINE
  5
1B06E
100
AcDbEntity
  8
0
100
AcDbLine
 10
3523.032517
 20
2169.742922
 30
0.0
 11
3561.334161
 21
2169.742922
 31
0.0
  0
LINE
  5
1B06F
100
AcDbEntity
  8
0
100
AcDbLine
 10
3523.032517
 20
1596.54797
 30
0.0
 11
3552.495683
 21
1596.54797
 31
0.0
  0
LINE
  5
1B070
100
AcDbEntity
  8
0
100
AcDbLine
 10
3523.032517
 20
1696.54797
 30
0.0
 11
3552.495683
 21
1696.54797
 31
0.0
  0
LINE
  5
1B071
100
AcDbEntity
  8
0
100
AcDbLine
 10
2428.435931
 20
1991.084217
 30
0.0
 11
2428.435931
 21
2076.284217
 31
0.0
  0
LINE
  5
1B072
100
AcDbEntity
  8
0
100
AcDbLine
 10
2369.247371
 20
1738.23579
 30
0.0
 11
2370.695763
 21
1752.016287
 31
0.0
  0
CIRCLE
  5
1B073
100
AcDbEntity
  8
0
100
AcDbCircle
 10
2381.905826
 20
1743.8717
 30
0.0
 40
12.0
  0
LINE
  5
1B074
100
AcDbEntity
  8
0
100
AcDbLine
 10
2394.564281
 20
1749.50761
 30
0.0
 11
2393.115889
 21
1735.727112
 31
0.0
  0
LINE
  5
1B075
100
AcDbEntity
  8
0
100
AcDbLine
 10
2514.435931
 20
1657.889266
 30
0.0
 11
2514.435931
 21
1580.395932
 31
0.0
  0
CIRCLE
  5
1B076
100
AcDbEntity
  8
0
100
AcDbCircle
 10
2420.514344
 20
1625.046898
 30
0.0
 40
12.0
  0
LINE
  5
1B077
100
AcDbEntity
  8
0
100
AcDbLine
 10
2416.232481
 20
1611.868678
 30
0.0
 11
2406.960735
 21
1622.165992
 31
0.0
  0
LINE
  5
1B078
100
AcDbEntity
  8
0
100
AcDbLine
 10
2429.786091
 20
1614.749584
 30
0.0
 11
2416.232481
 21
1611.868678
 31
0.0
  0
LINE
  5
1B079
100
AcDbEntity
  8
0
100
AcDbLine
 10
2494.435931
 20
1735.395932
 30
0.0
 11
2494.435931
 21
1580.389266
 31
0.0
  0
LINE
  5
1B07A
100
AcDbEntity
  8
0
100
AcDbLine
 10
2380.457434
 20
1585.687329
 30
0.0
 11
2393.115889
 21
1580.051419
 31
0.0
  0
LINE
  5
1B07B
100
AcDbEntity
  8
0
100
AcDbLine
 10
2369.247371
 20
1577.542741
 30
0.0
 11
2380.457434
 21
1585.687329
 31
0.0
  0
CIRCLE
  5
1B07C
100
AcDbEntity
  8
0
100
AcDbCircle
 10
2381.905826
 20
1571.906831
 30
0.0
 40
12.0
  0
LINE
  5
1B07D
100
AcDbEntity
  8
0
100
AcDbLine
 10
2370.695763
 20
1563.762244
 30
0.0
 11
2369.247371
 21
1577.542741
 31
0.0
  0
LINE
  5
1B07E
100
AcDbEntity
  8
0
100
AcDbLine
 10
2383.354217
 20
1558.126333
 30
0.0
 11
2370.695763
 21
1563.762244
 31
0.0
  0
LINE
  5
1B07F
100
AcDbEntity
  8
0
100
AcDbLine
 10
2394.564281
 20
1566.270921
 30
0.0
 11
2383.354217
 21
1558.126333
 31
0.0
  0
LINE
  5
1B080
100
AcDbEntity
  8
0
100
AcDbLine
 10
2393.115889
 20
1580.051419
 30
0.0
 11
2394.564281
 21
1566.270921
 31
0.0
  0
LINE
  5
1B081
100
AcDbEntity
  8
0
100
AcDbLine
 10
2494.435931
 20
1580.389266
 30
0.0
 11
2514.435931
 21
1580.389266
 31
0.0
  0
LINE
  5
1B082
100
AcDbEntity
  8
0
100
AcDbLine
 10
2489.889264
 20
1622.022599
 30
0.0
 11
2478.435931
 21
1624.889266
 31
0.0
  0
LINE
  5
1B083
100
AcDbEntity
  8
0
100
AcDbLine
 10
2478.435931
 20
1690.889266
 30
0.0
 11
2489.889264
 21
1693.755932
 31
0.0
  0
ARC
  5
1B084
100
AcDbEntity
  8
0
100
AcDbCircle
 10
2378.252006
 20
1682.385046
 30
0.0
 40
7.989115
100
AcDbArc
 50
202.591725
 51
269.980334
  0
LINE
  5
1B085
100
AcDbEntity
  8
0
100
AcDbLine
 10
2424.796208
 20
1677.553414
 30
0.0
 11
2411.242598
 21
1680.434319
 31
0.0
  0
LINE
  5
1B086
100
AcDbEntity
  8
0
100
AcDbLine
 10
2434.067954
 20
1687.850727
 30
0.0
 11
2424.796208
 21
1677.553414
 31
0.0
  0
LINE
  5
1B087
100
AcDbEntity
  8
0
100
AcDbLine
 10
2406.960735
 20
1622.165992
 30
0.0
 11
2411.242598
 21
1635.344212
 31
0.0
  0
ARC
  5
1B088
100
AcDbEntity
  8
0
100
AcDbCircle
 10
2378.262005
 20
1633.400151
 30
0.0
 40
7.995791
100
AcDbArc
 50
90.091296
 51
157.479904
  0
LINE
  5
1B089
100
AcDbEntity
  8
0
100
AcDbLine
 10
2478.435931
 20
1624.889266
 30
0.0
 11
2436.369264
 21
1624.889266
 31
0.0
  0
LINE
  5
1B08A
100
AcDbEntity
  8
0
100
AcDbLine
 10
2411.242598
 20
1635.344212
 30
0.0
 11
2424.796208
 21
1638.225118
 31
0.0
  0
LINE
  5
1B08B
100
AcDbEntity
  8
0
100
AcDbLine
 10
2424.796208
 20
1638.225118
 30
0.0
 11
2434.067954
 21
1627.927804
 31
0.0
  0
LINE
  5
1B08C
100
AcDbEntity
  8
0
100
AcDbLine
 10
2434.067954
 20
1627.927804
 30
0.0
 11
2429.786091
 21
1614.749584
 31
0.0
  0
ARC
  5
1B08D
100
AcDbEntity
  8
0
100
AcDbCircle
 10
2438.055953
 20
1643.391479
 30
0.0
 40
1.995558
100
AcDbArc
 50
269.807944
 51
352.835578
  0
ARC
  5
1B08E
100
AcDbEntity
  8
0
100
AcDbCircle
 10
2438.048422
 20
1672.393719
 30
0.0
 40
2.002214
100
AcDbArc
 50
6.948256
 51
89.97589
  0
CIRCLE
  5
1B08F
100
AcDbEntity
  8
0
100
AcDbCircle
 10
2420.514344
 20
1690.731633
 30
0.0
 40
12.0
  0
LINE
  5
1B090
100
AcDbEntity
  8
0
100
AcDbLine
 10
2411.242598
 20
1680.434319
 30
0.0
 11
2406.960735
 21
1693.612539
 31
0.0
  0
LINE
  5
1B091
100
AcDbEntity
  8
0
100
AcDbLine
 10
2406.960735
 20
1693.612539
 30
0.0
 11
2416.232481
 21
1703.909853
 31
0.0
  0
LINE
  5
1B092
100
AcDbEntity
  8
0
100
AcDbLine
 10
2380.457434
 20
1730.091202
 30
0.0
 11
2369.247371
 21
1738.23579
 31
0.0
  0
LINE
  5
1B093
100
AcDbEntity
  8
0
100
AcDbLine
 10
2340.435931
 20
1740.889266
 30
0.0
 11
2340.435931
 21
1713.889266
 31
0.0
  0
LINE
  5
1B094
100
AcDbEntity
  8
0
100
AcDbLine
 10
2393.115889
 20
1735.727112
 30
0.0
 11
2380.457434
 21
1730.091202
 31
0.0
  0
LINE
  5
1B095
100
AcDbEntity
  8
0
100
AcDbLine
 10
2436.369264
 20
1690.889266
 30
0.0
 11
2478.435931
 21
1690.889266
 31
0.0
  0
LINE
  5
1B096
100
AcDbEntity
  8
0
100
AcDbLine
 10
2429.786091
 20
1701.028947
 30
0.0
 11
2434.067954
 21
1687.850727
 31
0.0
  0
LINE
  5
1B097
100
AcDbEntity
  8
0
100
AcDbLine
 10
2416.232481
 20
1703.909853
 30
0.0
 11
2429.786091
 21
1701.028947
 31
0.0
  0
LINE
  5
1B098
100
AcDbEntity
  8
0
100
AcDbLine
 10
2514.435931
 20
1735.395932
 30
0.0
 11
2514.435931
 21
1657.889266
 31
0.0
  0
ARC
  5
1B099
100
AcDbEntity
  8
0
100
AcDbCircle
 10
2488.335133
 20
1616.178437
 30
0.0
 40
6.056664
100
AcDbArc
 50
0.291744
 51
75.391492
  0
ARC
  5
1B09A
100
AcDbEntity
  8
0
100
AcDbCircle
 10
2488.366036
 20
1699.617925
 30
0.0
 40
6.056664
100
AcDbArc
 50
284.566066
 51
359.665815
  0
LINE
  5
1B09B
100
AcDbEntity
  8
0
100
AcDbLine
 10
2494.435931
 20
1735.389266
 30
0.0
 11
2514.435931
 21
1735.389266
 31
0.0
  0
LINE
  5
1B09C
100
AcDbEntity
  8
0
100
AcDbLine
 10
2370.695763
 20
1752.016287
 30
0.0
 11
2383.354217
 21
1757.652198
 31
0.0
  0
LINE
  5
1B09D
100
AcDbEntity
  8
0
100
AcDbLine
 10
2383.354217
 20
1757.652198
 30
0.0
 11
2394.564281
 21
1749.50761
 31
0.0
  0
ARC
  5
1B09E
100
AcDbEntity
  8
0
100
AcDbCircle
 10
2413.557849
 20
1936.591389
 30
0.0
 40
2.996057
100
AcDbArc
 50
143.720816
 51
257.105599
  0
ARC
  5
1B09F
100
AcDbEntity
  8
0
100
AcDbCircle
 10
2428.054628
 20
1927.957398
 30
0.0
 40
19.992079
100
AcDbArc
 50
152.313197
 51
182.962339
  0
LINE
  5
1B0A0
100
AcDbEntity
  8
0
100
AcDbLine
 10
2410.437766
 20
1882.084217
 30
0.0
 11
2408.089264
 21
1926.924217
 31
0.0
  0
LINE
  5
1B0A1
100
AcDbEntity
  8
0
100
AcDbLine
 10
2401.435703
 20
1882.084217
 30
0.0
 11
2410.437766
 21
1882.084217
 31
0.0
  0
LINE
  5
1B0A2
100
AcDbEntity
  8
0
100
AcDbLine
 10
2409.422597
 20
1901.590884
 30
0.0
 11
2414.435931
 21
1907.510884
 31
0.0
  0
LINE
  5
1B0A3
100
AcDbEntity
  8
0
100
AcDbLine
 10
2401.435703
 20
1882.084217
 30
0.0
 11
2393.715931
 21
1910.93755
 31
0.0
  0
LINE
  5
1B0A4
100
AcDbEntity
  8
0
100
AcDbLine
 10
2339.435931
 20
1902.084217
 30
0.0
 11
2396.084659
 21
1902.084217
 31
0.0
  0
ARC
  5
1B0A5
100
AcDbEntity
  8
0
100
AcDbCircle
 10
2387.913279
 20
1909.384083
 30
0.0
 40
6.006998
100
AcDbArc
 50
14.98758
 51
120.668781
  0
LINE
  5
1B0A6
100
AcDbEntity
  8
0
100
AcDbLine
 10
2414.435931
 20
1907.510884
 30
0.0
 11
2414.435931
 21
1931.724217
 31
0.0
  0
ARC
  5
1B0AE
100
AcDbEntity
  8
0
100
AcDbCircle
 10
2412.440253
 20
1931.726373
 30
0.0
 40
1.995679
100
AcDbArc
 50
359.938107
 51
76.99762
  0
LINE
  5
1B0B0
100
AcDbEntity
  8
0
100
AcDbLine
 10
3481.032517
 20
1554.04797
 30
0.0
 11
3481.032517
 21
1646.54797
 31
0.0
  0
LINE
  5
1B0B1
100
AcDbEntity
  8
0
100
AcDbLine
 10
3503.032517
 20
1554.04797
 30
0.0
 11
3503.032517
 21
1739.04797
 31
0.0
  0
LINE
  5
1B0B2
100
AcDbEntity
  8
0
100
AcDbLine
 10
3481.032517
 20
1554.04797
 30
0.0
 11
3503.032517
 21
1554.04797
 31
0.0
  0
LINE
  5
1B0B3
100
AcDbEntity
  8
0
100
AcDbLine
 10
3523.032517
 20
1596.54797
 30
0.0
 11
3503.032517
 21
1592.54797
 31
0.0
  0
LINE
  5
1B0B4
100
AcDbEntity
  8
0
100
AcDbLine
 10
3481.032517
 20
1646.54797
 30
0.0
 11
3481.032517
 21
1739.04797
 31
0.0
  0
LINE
  5
1B0B5
100
AcDbEntity
  8
0
100
AcDbLine
 10
3503.032517
 20
1700.54797
 30
0.0
 11
3523.032517
 21
1696.54797
 31
0.0
  0
LINE
  5
1B0B6
100
AcDbEntity
  8
0
100
AcDbLine
 10
3481.032517
 20
1739.04797
 30
0.0
 11
3503.032517
 21
1739.04797
 31
0.0
  0
LINE
  5
1B0B7
100
AcDbEntity
  8
0
100
AcDbLine
 10
3531.563664
 20
1937.174926
 30
0.0
 11
3533.39882
 21
1932.132877
 31
0.0
  0
LINE
  5
1B0B8
100
AcDbEntity
  8
0
100
AcDbLine
 10
3524.880962
 20
1947.517219
 30
0.0
 11
3525.833392
 21
1952.91872
 31
0.0
  0
ARC
  5
1B0B9
100
AcDbEntity
  8
0
100
AcDbCircle
 10
3540.472693
 20
1949.332269
 30
0.0
 40
15.072218
100
AcDbArc
 50
166.234355
 51
233.765645
  0
LINE
  5
1B0BA
100
AcDbEntity
  8
0
100
AcDbLine
 10
3536.627119
 20
1951.792471
 30
0.0
 11
3532.425498
 21
1955.31805
 31
0.0
  0
LINE
  5
1B0BB
100
AcDbEntity
  8
0
100
AcDbLine
 10
3536.789138
 20
1955.569589
 30
0.0
 11
3536.282471
 21
1952.729589
 31
0.0
  0
LINE
  5
1B0BC
100
AcDbEntity
  8
0
100
AcDbLine
 10
3532.425498
 20
1955.31805
 30
0.0
 11
3525.833392
 21
1952.91872
 31
0.0
  0
LINE
  5
1B0BD
100
AcDbEntity
  8
0
100
AcDbLine
 10
2514.435931
 20
2131.084217
 30
0.0
 11
2514.435931
 21
2053.584217
 31
0.0
  0
LINE
  5
1B0BE
100
AcDbEntity
  8
0
100
AcDbLine
 10
2476.435931
 20
2108.270884
 30
0.0
 11
2476.435931
 21
2153.910884
 31
0.0
  0
LINE
  5
1B0BF
100
AcDbEntity
  8
0
100
AcDbLine
 10
2494.435931
 20
2208.584217
 30
0.0
 11
2494.435931
 21
2053.584217
 31
0.0
  0
LINE
  5
1B0C0
100
AcDbEntity
  8
0
100
AcDbLine
 10
2439.442341
 20
2148.084217
 30
0.0
 11
2435.435931
 21
2123.084217
 31
0.0
  0
LINE
  5
1B0C1
100
AcDbEntity
  8
0
100
AcDbLine
 10
2476.435931
 20
2098.084217
 30
0.0
 11
2489.902597
 21
2095.230884
 31
0.0
  0
LINE
  5
1B0C2
100
AcDbEntity
  8
0
100
AcDbLine
 10
2435.435931
 20
2123.084217
 30
0.0
 11
2435.435931
 21
2093.764217
 31
0.0
  0
ARC
  5
1B0C3
100
AcDbEntity
  8
0
100
AcDbCircle
 10
2443.061855
 20
2090.089351
 30
0.0
 40
7.994866
100
AcDbArc
 50
89.994681
 51
168.200385
  0
ARC
  5
1B0C4
100
AcDbEntity
  8
0
100
AcDbCircle
 10
2425.431686
 20
2093.781128
 30
0.0
 40
10.01769
100
AcDbArc
 50
329.946716
 51
348.151308
  0
ARC
  5
1B0C5
100
AcDbEntity
  8
0
100
AcDbCircle
 10
2438.566315
 20
2076.237118
 30
0.0
 40
10.130494
100
AcDbArc
 50
150.118448
 51
179.733617
  0
LINE
  5
1B0C6
100
AcDbEntity
  8
0
100
AcDbLine
 10
2429.782597
 20
2081.284217
 30
0.0
 11
2434.102597
 21
2088.764217
 31
0.0
  0
ARC
  5
1B0C7
100
AcDbEntity
  8
0
100
AcDbCircle
 10
2425.946466
 20
2093.664753
 30
0.0
 40
9.489986
100
AcDbArc
 50
348.200795
 51
0.600526
  0
LINE
  5
1B0C8
100
AcDbEntity
  8
0
100
AcDbLine
 10
2443.062597
 20
2098.084217
 30
0.0
 11
2476.435931
 21
2098.084217
 31
0.0
  0
LINE
  5
1B0C9
100
AcDbEntity
  8
0
100
AcDbLine
 10
2494.435931
 20
2053.584217
 30
0.0
 11
2514.435931
 21
2053.584217
 31
0.0
  0
ARC
  5
1B0CA
100
AcDbEntity
  8
0
100
AcDbCircle
 10
2488.43003
 20
2089.408306
 30
0.0
 40
6.005902
100
AcDbArc
 50
359.960988
 51
75.807131
  0
LINE
  5
1B0CB
100
AcDbEntity
  8
0
100
AcDbLine
 10
2489.902597
 20
2166.950884
 30
0.0
 11
2476.435931
 21
2164.084217
 31
0.0
  0
LINE
  5
1B0CC
100
AcDbEntity
  8
0
100
AcDbLine
 10
2351.566597
 20
2197.7314
 30
0.0
 11
2351.566597
 21
2190.09755
 31
0.0
  0
LINE
  5
1B0CD
100
AcDbEntity
  8
0
100
AcDbLine
 10
2345.503722
 20
2197.7314
 30
0.0
 11
2345.503722
 21
2190.09755
 31
0.0
  0
LINE
  5
1B0CE
100
AcDbEntity
  8
0
100
AcDbLine
 10
2333.380597
 20
2197.7314
 30
0.0
 11
2333.380597
 21
2190.09755
 31
0.0
  0
ARC
  5
1B0CF
100
AcDbEntity
  8
0
100
AcDbCircle
 10
2339.464868
 20
2022.259985
 30
0.0
 40
176.838109
100
AcDbArc
 50
73.716261
 51
83.585076
  0
LINE
  5
1B0D0
100
AcDbEntity
  8
0
100
AcDbLine
 10
2389.625264
 20
2190.09755
 30
0.0
 11
2389.625264
 21
2197.7314
 31
0.0
  0
LINE
  5
1B0D1
100
AcDbEntity
  8
0
100
AcDbLine
 10
2395.687264
 20
2197.7314
 30
0.0
 11
2395.687264
 21
2190.09755
 31
0.0
  0
LINE
  5
1B0D2
100
AcDbEntity
  8
0
100
AcDbLine
 10
2428.131931
 20
2190.09755
 30
0.0
 11
2428.131931
 21
2197.7314
 31
0.0
  0
LINE
  5
1B0D3
100
AcDbEntity
  8
0
100
AcDbLine
 10
2434.193931
 20
2197.7314
 30
0.0
 11
2434.193931
 21
2190.09755
 31
0.0
  0
LINE
  5
1B0D4
100
AcDbEntity
  8
0
100
AcDbLine
 10
2407.810389
 20
2197.7314
 30
0.0
 11
2407.810389
 21
2190.09755
 31
0.0
  0
LINE
  5
1B0D5
100
AcDbEntity
  8
0
100
AcDbLine
 10
2413.873264
 20
2197.7314
 30
0.0
 11
2413.873264
 21
2190.09755
 31
0.0
  0
LINE
  5
1B0D6
100
AcDbEntity
  8
0
100
AcDbLine
 10
2446.317056
 20
2197.7314
 30
0.0
 11
2446.317056
 21
2190.09755
 31
0.0
  0
LINE
  5
1B0D7
100
AcDbEntity
  8
0
100
AcDbLine
 10
2452.379931
 20
2197.7314
 30
0.0
 11
2452.379931
 21
2190.09755
 31
0.0
  0
ARC
  5
1B0D8
100
AcDbEntity
  8
0
100
AcDbCircle
 10
2423.384126
 20
2196.096076
 30
0.0
 40
5.998525
100
AcDbArc
 50
186.36677
 51
269.985397
  0
LINE
  5
1B0D9
100
AcDbEntity
  8
0
100
AcDbLine
 10
2460.942597
 20
2168.084217
 30
0.0
 11
2460.942597
 21
2148.084217
 31
0.0
  0
LINE
  5
1B0DA
100
AcDbEntity
  8
0
100
AcDbLine
 10
2435.689264
 20
2170.09755
 30
0.0
 11
2460.942597
 21
2170.09755
 31
0.0
  0
LINE
  5
1B0DB
100
AcDbEntity
  8
0
100
AcDbLine
 10
2435.689264
 20
2168.084217
 30
0.0
 11
2435.689264
 21
2170.09755
 31
0.0
  0
LINE
  5
1B0DC
100
AcDbEntity
  8
0
100
AcDbLine
 10
2476.435931
 20
2164.084217
 30
0.0
 11
2464.942597
 21
2164.084217
 31
0.0
  0
LINE
  5
1B0DD
100
AcDbEntity
  8
0
100
AcDbLine
 10
2460.942597
 20
2170.09755
 30
0.0
 11
2460.942597
 21
2190.09755
 31
0.0
  0
ARC
  5
1B0DE
100
AcDbEntity
  8
0
100
AcDbCircle
 10
2464.948619
 20
2168.090239
 30
0.0
 40
4.006026
100
AcDbArc
 50
180.086122
 51
269.913878
  0
LINE
  5
1B0DF
100
AcDbEntity
  8
0
100
AcDbLine
 10
2391.558139
 20
2198.84755
 30
0.0
 11
2411.940389
 21
2198.84755
 31
0.0
  0
ARC
  5
1B0E0
100
AcDbEntity
  8
0
100
AcDbCircle
 10
2410.841827
 20
2192.880178
 30
0.0
 40
5.720487
100
AcDbArc
 50
57.999511
 51
122.000489
  0
ARC
  5
1B0E1
100
AcDbEntity
  8
0
100
AcDbCircle
 10
2359.44057
 20
2199.983647
 30
0.0
 40
2.004649
100
AcDbArc
 50
180.174248
 51
263.757673
  0
LINE
  5
1B0E2
100
AcDbEntity
  8
0
100
AcDbLine
 10
2349.942597
 20
2213.590884
 30
0.0
 11
2349.942597
 21
2206.09755
 31
0.0
  0
LINE
  5
1B0E3
100
AcDbEntity
  8
0
100
AcDbLine
 10
2348.942597
 20
2214.590884
 30
0.0
 11
2349.942597
 21
2213.590884
 31
0.0
  0
LINE
  5
1B0E4
100
AcDbEntity
  8
0
100
AcDbLine
 10
2333.449264
 20
2214.590884
 30
0.0
 11
2333.449264
 21
2207.590884
 31
0.0
  0
LINE
  5
1B0E5
100
AcDbEntity
  8
0
100
AcDbLine
 10
2334.969264
 20
2207.590884
 30
0.0
 11
2334.969264
 21
2214.590884
 31
0.0
  0
LINE
  5
1B0E6
100
AcDbEntity
  8
0
100
AcDbLine
 10
2343.902597
 20
2207.590884
 30
0.0
 11
2334.969264
 21
2207.590884
 31
0.0
  0
LINE
  5
1B0E7
100
AcDbEntity
  8
0
100
AcDbLine
 10
2343.902597
 20
2214.590884
 30
0.0
 11
2343.902597
 21
2207.590884
 31
0.0
  0
LINE
  5
1B0E8
100
AcDbEntity
  8
0
100
AcDbLine
 10
2345.435931
 20
2207.590884
 30
0.0
 11
2345.435931
 21
2214.590884
 31
0.0
  0
LINE
  5
1B0E9
100
AcDbEntity
  8
0
100
AcDbLine
 10
2349.942597
 20
2207.590884
 30
0.0
 11
2345.435931
 21
2207.590884
 31
0.0
  0
LINE
  5
1B0EA
100
AcDbEntity
  8
0
100
AcDbLine
 10
2357.435931
 20
2199.97755
 30
0.0
 11
2357.435931
 21
2204.09755
 31
0.0
  0
ARC
  5
1B0EB
100
AcDbEntity
  8
0
100
AcDbCircle
 10
2339.44216
 20
2177.029054
 30
0.0
 40
21.571502
100
AcDbArc
 50
73.680185
 51
106.319815
  0
LINE
  5
1B0EC
100
AcDbEntity
  8
0
100
AcDbLine
 10
2349.633722
 20
2198.84755
 30
0.0
 11
2351.566597
 21
2197.7314
 31
0.0
  0
ARC
  5
1B0ED
100
AcDbEntity
  8
0
100
AcDbCircle
 10
2348.53516
 20
2192.880178
 30
0.0
 40
5.720487
100
AcDbArc
 50
57.999511
 51
122.000489
  0
LINE
  5
1B0EE
100
AcDbEntity
  8
0
100
AcDbLine
 10
2357.435931
 20
2204.09755
 30
0.0
 11
2355.435931
 21
2206.09755
 31
0.0
  0
ARC
  5
1B0EF
100
AcDbEntity
  8
0
100
AcDbCircle
 10
2401.748827
 20
2177.029054
 30
0.0
 40
21.571502
100
AcDbArc
 50
73.680185
 51
106.319815
  0
LINE
  5
1B0F0
100
AcDbEntity
  8
0
100
AcDbLine
 10
2384.435931
 20
2198.09755
 30
0.0
 11
2376.435931
 21
2195.190884
 31
0.0
  0
LINE
  5
1B0F1
100
AcDbEntity
  8
0
100
AcDbLine
 10
2389.625264
 20
2197.7314
 30
0.0
 11
2391.558139
 21
2198.84755
 31
0.0
  0
ARC
  5
1B0F2
100
AcDbEntity
  8
0
100
AcDbCircle
 10
2392.655827
 20
2192.880158
 30
0.0
 40
5.720504
100
AcDbArc
 50
57.999617
 51
122.000383
  0
LINE
  5
1B0F3
100
AcDbEntity
  8
0
100
AcDbLine
 10
2390.259338
 20
2198.09755
 30
0.0
 11
2384.435931
 21
2198.09755
 31
0.0
  0
LINE
  5
1B0F4
100
AcDbEntity
  8
0
100
AcDbLine
 10
2430.064806
 20
2198.84755
 30
0.0
 11
2450.447056
 21
2198.84755
 31
0.0
  0
ARC
  5
1B0F5
100
AcDbEntity
  8
0
100
AcDbCircle
 10
2449.348493
 20
2192.880178
 30
0.0
 40
5.720487
100
AcDbArc
 50
57.999511
 51
122.000489
  0
ARC
  5
1B0F6
100
AcDbEntity
  8
0
100
AcDbCircle
 10
2414.438463
 20
2195.09452
 30
0.0
 40
3.003032
100
AcDbArc
 50
6.431087
 51
108.214788
  0
ARC
  5
1B0F7
100
AcDbEntity
  8
0
100
AcDbCircle
 10
2431.162493
 20
2192.880158
 30
0.0
 40
5.720504
100
AcDbArc
 50
57.999617
 51
122.000383
  0
LINE
  5
1B0F8
100
AcDbEntity
  8
0
100
AcDbLine
 10
2428.131931
 20
2197.7314
 30
0.0
 11
2430.064806
 21
2198.84755
 31
0.0
  0
LINE
  5
1B0F9
100
AcDbEntity
  8
0
100
AcDbLine
 10
2411.940389
 20
2198.84755
 30
0.0
 11
2413.873264
 21
2197.7314
 31
0.0
  0
ARC
  5
1B0FA
100
AcDbEntity
  8
0
100
AcDbCircle
 10
2440.255493
 20
2177.029054
 30
0.0
 40
21.571502
100
AcDbArc
 50
73.680185
 51
106.319815
  0
LINE
  5
1B0FB
100
AcDbEntity
  8
0
100
AcDbLine
 10
2450.447056
 20
2198.84755
 30
0.0
 11
2452.379931
 21
2197.7314
 31
0.0
  0
LINE
  5
1B0FC
100
AcDbEntity
  8
0
100
AcDbLine
 10
2514.435931
 20
2208.584217
 30
0.0
 11
2514.435931
 21
2131.084217
 31
0.0
  0
ARC
  5
1B0FD
100
AcDbEntity
  8
0
100
AcDbCircle
 10
2488.43003
 20
2172.773461
 30
0.0
 40
6.005902
100
AcDbArc
 50
284.192869
 51
0.039012
  0
LINE
  5
1B0FE
100
AcDbEntity
  8
0
100
AcDbLine
 10
2494.435931
 20
2208.584217
 30
0.0
 11
2514.435931
 21
2208.584217
 31
0.0
  0
LINE
  5
1B0FF
100
AcDbEntity
  8
0
100
AcDbLine
 10
3523.032517
 20
2163.074426
 30
0.0
 11
3523.032517
 21
2076.411418
 31
0.0
  0
LINE
  5
1B100
100
AcDbEntity
  8
0
100
AcDbLine
 10
3503.032517
 20
2027.242922
 30
0.0
 11
3503.032517
 21
2212.242922
 31
0.0
  0
LINE
  5
1B101
100
AcDbEntity
  8
0
100
AcDbLine
 10
3481.032517
 20
2119.742922
 30
0.0
 11
3481.032517
 21
2212.242922
 31
0.0
  0
LINE
  5
1B102
100
AcDbEntity
  8
0
100
AcDbLine
 10
3481.032517
 20
2027.242922
 30
0.0
 11
3481.032517
 21
2119.742922
 31
0.0
  0
LINE
  5
1B103
100
AcDbEntity
  8
0
100
AcDbLine
 10
3481.032517
 20
2027.242922
 30
0.0
 11
3503.032517
 21
2027.242922
 31
0.0
  0
LINE
  5
1B104
100
AcDbEntity
  8
0
100
AcDbLine
 10
3523.032517
 20
2069.742922
 30
0.0
 11
3503.032517
 21
2065.742922
 31
0.0
  0
LINE
  5
1B105
100
AcDbEntity
  8
0
100
AcDbLine
 10
3523.032517
 20
2069.742922
 30
0.0
 11
3528.377359
 21
2069.742922
 31
0.0
  0
LINE
  5
1B106
100
AcDbEntity
  8
0
100
AcDbLine
 10
3503.032517
 20
2173.742922
 30
0.0
 11
3523.032517
 21
2169.742922
 31
0.0
  0
LINE
  5
1B107
100
AcDbEntity
  8
0
100
AcDbLine
 10
3481.032517
 20
2212.242922
 30
0.0
 11
3503.032517
 21
2212.242922
 31
0.0
  0
ARC
  5
1B108
100
AcDbEntity
  8
0
100
AcDbCircle
 10
3682.834161
 20
1964.613333
 30
0.0
 40
88.795071
100
AcDbArc
 50
180.083618
 51
0.083618
  0
LINE
  5
1B109
100
AcDbEntity
  8
0
100
AcDbLine
 10
3594.039184
 20
2054.439074
 30
0.0
 11
3594.039184
 21
1964.483744
 31
0.0
  0
LINE
  5
1B10A
100
AcDbEntity
  8
0
100
AcDbLine
 10
3771.629138
 20
1964.742922
 30
0.0
 11
3771.629138
 21
2054.439074
 31
0.0
  0
CIRCLE
  5
1B10B
100
AcDbEntity
  8
0
100
AcDbCircle
 10
3663.230874
 20
1752.828104
 30
0.0
 40
12.0
  0
LINE
  5
1B10C
100
AcDbEntity
  8
0
100
AcDbLine
 10
3656.302674
 20
1740.828104
 30
0.0
 11
3649.374474
 21
1752.828104
 31
0.0
  0
CIRCLE
  5
1B10D
100
AcDbEntity
  8
0
100
AcDbCircle
 10
3663.230874
 20
1646.54797
 30
0.0
 40
121.500133
  0
LINE
  5
1B10E
100
AcDbEntity
  8
0
100
AcDbLine
 10
3588.102524
 20
1738.166315
 30
0.0
 11
3599.312587
 21
1746.310902
 31
0.0
  0
CIRCLE
  5
1B10F
100
AcDbEntity
  8
0
100
AcDbCircle
 10
3600.760978
 20
1732.530405
 30
0.0
 40
12.0
  0
LINE
  5
1B110
100
AcDbEntity
  8
0
100
AcDbLine
 10
3599.312587
 20
1746.310902
 30
0.0
 11
3611.971042
 21
1740.674992
 31
0.0
  0
LINE
  5
1B111
100
AcDbEntity
  8
0
100
AcDbLine
 10
3677.087274
 20
1752.828104
 30
0.0
 11
3670.159074
 21
1740.828104
 31
0.0
  0
LINE
  5
1B112
100
AcDbEntity
  8
0
100
AcDbLine
 10
3714.490706
 20
1740.674992
 30
0.0
 11
3727.14916
 21
1746.310902
 31
0.0
  0
LINE
  5
1B113
100
AcDbEntity
  8
0
100
AcDbLine
 10
3727.14916
 20
1746.310902
 30
0.0
 11
3738.359224
 21
1738.166315
 31
0.0
  0
CIRCLE
  5
1B114
100
AcDbEntity
  8
0
100
AcDbCircle
 10
3725.700769
 20
1732.530405
 30
0.0
 40
12.0
  0
LINE
  5
1B115
100
AcDbEntity
  8
0
100
AcDbLine
 10
3865.032517
 20
1554.04797
 30
0.0
 11
3843.032517
 21
1554.04797
 31
0.0
  0
LINE
  5
1B116
100
AcDbEntity
  8
0
100
AcDbLine
 10
3865.032517
 20
1739.04797
 30
0.0
 11
3843.032517
 21
1739.04797
 31
0.0
  0
ARC
  5
1B117
100
AcDbEntity
  8
0
100
AcDbCircle
 10
3663.227454
 20
1646.549796
 30
0.0
 40
55.727962
100
AcDbArc
 50
204.017132
 51
337.386082
  0
LINE
  5
1B118
100
AcDbEntity
  8
0
100
AcDbLine
 10
3571.424207
 20
1624.002916
 30
0.0
 11
3575.70607
 21
1610.824697
 31
0.0
  0
LINE
  5
1B119
100
AcDbEntity
  8
0
100
AcDbLine
 10
3552.880713
 20
1603.408289
 30
0.0
 11
3548.59885
 21
1616.586509
 31
0.0
  0
CIRCLE
  5
1B11A
100
AcDbEntity
  8
0
100
AcDbCircle
 10
3562.15246
 20
1613.705603
 30
0.0
 40
12.0
  0
CIRCLE
  5
1B11B
100
AcDbEntity
  8
0
100
AcDbCircle
 10
3764.309287
 20
1613.705603
 30
0.0
 40
12.0
  0
LINE
  5
1B11C
100
AcDbEntity
  8
0
100
AcDbLine
 10
3750.755678
 20
1610.824697
 30
0.0
 11
3755.037541
 21
1624.002916
 31
0.0
  0
LINE
  5
1B11D
100
AcDbEntity
  8
0
100
AcDbLine
 10
3777.862897
 20
1616.586509
 30
0.0
 11
3773.581034
 21
1603.408289
 31
0.0
  0
LINE
  5
1B11E
100
AcDbEntity
  8
0
100
AcDbLine
 10
3843.032517
 20
1554.04797
 30
0.0
 11
3843.032517
 21
1739.04797
 31
0.0
  0
LINE
  5
1B11F
100
AcDbEntity
  8
0
100
AcDbLine
 10
3649.374474
 20
1540.267837
 30
0.0
 11
3656.302674
 21
1552.267837
 31
0.0
  0
CIRCLE
  5
1B120
100
AcDbEntity
  8
0
100
AcDbCircle
 10
3663.230874
 20
1540.267837
 30
0.0
 40
12.0
  0
CIRCLE
  5
1B121
100
AcDbEntity
  8
0
100
AcDbCircle
 10
3600.760978
 20
1560.565536
 30
0.0
 40
12.0
  0
LINE
  5
1B122
100
AcDbEntity
  8
0
100
AcDbLine
 10
3599.312587
 20
1546.785038
 30
0.0
 11
3588.102524
 21
1554.929626
 31
0.0
  0
LINE
  5
1B123
100
AcDbEntity
  8
0
100
AcDbLine
 10
3611.971042
 20
1552.420948
 30
0.0
 11
3599.312587
 21
1546.785038
 31
0.0
  0
LINE
  5
1B124
100
AcDbEntity
  8
0
100
AcDbLine
 10
3670.159074
 20
1552.267837
 30
0.0
 11
3677.087274
 21
1540.267837
 31
0.0
  0
LINE
  5
1B125
100
AcDbEntity
  8
0
100
AcDbLine
 10
3656.302674
 20
1528.267837
 30
0.0
 11
3649.374474
 21
1540.267837
 31
0.0
  0
LINE
  5
1B126
100
AcDbEntity
  8
0
100
AcDbLine
 10
3670.159074
 20
1528.267837
 30
0.0
 11
3656.302674
 21
1528.267837
 31
0.0
  0
LINE
  5
1B127
100
AcDbEntity
  8
0
100
AcDbLine
 10
3677.087274
 20
1540.267837
 30
0.0
 11
3670.159074
 21
1528.267837
 31
0.0
  0
LINE
  5
1B128
100
AcDbEntity
  8
0
100
AcDbLine
 10
3589.550915
 20
1568.710123
 30
0.0
 11
3602.20937
 21
1574.346034
 31
0.0
  0
LINE
  5
1B129
100
AcDbEntity
  8
0
100
AcDbLine
 10
3588.102524
 20
1554.929626
 30
0.0
 11
3589.550915
 21
1568.710123
 31
0.0
  0
LINE
  5
1B12A
100
AcDbEntity
  8
0
100
AcDbLine
 10
3602.20937
 20
1574.346034
 30
0.0
 11
3613.419433
 21
1566.201446
 31
0.0
  0
LINE
  5
1B12B
100
AcDbEntity
  8
0
100
AcDbLine
 10
3613.419433
 20
1566.201446
 30
0.0
 11
3611.971042
 21
1552.420948
 31
0.0
  0
LINE
  5
1B12C
100
AcDbEntity
  8
0
100
AcDbLine
 10
3566.434323
 20
1600.527383
 30
0.0
 11
3552.880713
 21
1603.408289
 31
0.0
  0
LINE
  5
1B12D
100
AcDbEntity
  8
0
100
AcDbLine
 10
3575.70607
 20
1610.824697
 30
0.0
 11
3566.434323
 21
1600.527383
 31
0.0
  0
LINE
  5
1B12E
100
AcDbEntity
  8
0
100
AcDbLine
 10
3656.302674
 20
1552.267837
 30
0.0
 11
3670.159074
 21
1552.267837
 31
0.0
  0
LINE
  5
1B12F
100
AcDbEntity
  8
0
100
AcDbLine
 10
3727.14916
 20
1546.785038
 30
0.0
 11
3714.490706
 21
1552.420948
 31
0.0
  0
LINE
  5
1B130
100
AcDbEntity
  8
0
100
AcDbLine
 10
3738.359224
 20
1554.929626
 30
0.0
 11
3727.14916
 21
1546.785038
 31
0.0
  0
CIRCLE
  5
1B131
100
AcDbEntity
  8
0
100
AcDbCircle
 10
3725.700769
 20
1560.565536
 30
0.0
 40
12.0
  0
LINE
  5
1B132
100
AcDbEntity
  8
0
100
AcDbLine
 10
3773.581034
 20
1603.408289
 30
0.0
 11
3760.027424
 21
1600.527383
 31
0.0
  0
LINE
  5
1B133
100
AcDbEntity
  8
0
100
AcDbLine
 10
3724.252377
 20
1574.346034
 30
0.0
 11
3736.910832
 21
1568.710123
 31
0.0
  0
LINE
  5
1B134
100
AcDbEntity
  8
0
100
AcDbLine
 10
3713.042314
 20
1566.201446
 30
0.0
 11
3724.252377
 21
1574.346034
 31
0.0
  0
LINE
  5
1B135
100
AcDbEntity
  8
0
100
AcDbLine
 10
3714.490706
 20
1552.420948
 30
0.0
 11
3713.042314
 21
1566.201446
 31
0.0
  0
LINE
  5
1B136
100
AcDbEntity
  8
0
100
AcDbLine
 10
3736.910832
 20
1568.710123
 30
0.0
 11
3738.359224
 21
1554.929626
 31
0.0
  0
LINE
  5
1B137
100
AcDbEntity
  8
0
100
AcDbLine
 10
3760.027424
 20
1600.527383
 30
0.0
 11
3750.755678
 21
1610.824697
 31
0.0
  0
LINE
  5
1B138
100
AcDbEntity
  8
0
100
AcDbLine
 10
3823.032517
 20
1596.54797
 30
0.0
 11
3773.966064
 21
1596.54797
 31
0.0
  0
LINE
  5
1B139
100
AcDbEntity
  8
0
100
AcDbLine
 10
3823.032517
 20
1596.54797
 30
0.0
 11
3817.687675
 21
1596.54797
 31
0.0
  0
LINE
  5
1B13A
100
AcDbEntity
  8
0
100
AcDbLine
 10
3823.032517
 20
1596.54797
 30
0.0
 11
3843.032517
 21
1592.54797
 31
0.0
  0
ARC
  5
1B13B
100
AcDbEntity
  8
0
100
AcDbCircle
 10
3663.227455
 20
1646.546229
 30
0.0
 40
55.727928
100
AcDbArc
 50
22.613838
 51
155.982948
  0
LINE
  5
1B13C
100
AcDbEntity
  8
0
100
AcDbLine
 10
3672.204207
 20
1630.054637
 30
0.0
 11
3781.844207
 21
1630.054637
 31
0.0
  0
LINE
  5
1B13D
100
AcDbEntity
  8
0
100
AcDbLine
 10
3672.204207
 20
1663.054637
 30
0.0
 11
3781.844207
 21
1663.054637
 31
0.0
  0
LINE
  5
1B13E
100
AcDbEntity
  8
0
100
AcDbLine
 10
3575.70607
 20
1682.271244
 30
0.0
 11
3571.424207
 21
1669.093024
 31
0.0
  0
CIRCLE
  5
1B13F
100
AcDbEntity
  8
0
100
AcDbCircle
 10
3562.15246
 20
1679.390338
 30
0.0
 40
12.0
  0
LINE
  5
1B140
100
AcDbEntity
  8
0
100
AcDbLine
 10
3548.59885
 20
1676.509432
 30
0.0
 11
3552.880713
 21
1689.687651
 31
0.0
  0
CIRCLE
  5
1B141
100
AcDbEntity
  8
0
100
AcDbCircle
 10
3603.230874
 20
1646.54797
 30
0.0
 40
18.0
  0
LINE
  5
1B142
100
AcDbEntity
  8
0
100
AcDbLine
 10
3548.59885
 20
1616.586509
 30
0.0
 11
3557.870597
 21
1626.883822
 31
0.0
  0
LINE
  5
1B143
100
AcDbEntity
  8
0
100
AcDbLine
 10
3557.870597
 20
1626.883822
 30
0.0
 11
3571.424207
 21
1624.002916
 31
0.0
  0
ARC
  5
1B144
100
AcDbEntity
  8
0
100
AcDbCircle
 10
3605.0233
 20
1620.613768
 30
0.0
 40
7.993314
100
AcDbArc
 50
24.023762
 51
93.962931
  0
LINE
  5
1B145
100
AcDbEntity
  8
0
100
AcDbLine
 10
3557.870597
 20
1666.212118
 30
0.0
 11
3548.59885
 21
1676.509432
 31
0.0
  0
LINE
  5
1B146
100
AcDbEntity
  8
0
100
AcDbLine
 10
3571.424207
 20
1669.093024
 30
0.0
 11
3557.870597
 21
1666.212118
 31
0.0
  0
ARC
  5
1B147
100
AcDbEntity
  8
0
100
AcDbCircle
 10
3605.023339
 20
1672.482107
 30
0.0
 40
7.993252
100
AcDbArc
 50
266.036756
 51
335.97655
  0
CIRCLE
  5
1B148
100
AcDbEntity
  8
0
100
AcDbCircle
 10
3663.230874
 20
1646.54797
 30
0.0
 40
18.0
  0
LINE
  5
1B149
100
AcDbEntity
  8
0
100
AcDbLine
 10
3653.724207
 20
1642.081304
 30
0.0
 11
3653.724207
 21
1651.02797
 31
0.0
  0
LINE
  5
1B14A
100
AcDbEntity
  8
0
100
AcDbLine
 10
3672.750874
 20
1650.974637
 30
0.0
 11
3672.724207
 21
1642.081304
 31
0.0
  0
LINE
  5
1B14B
100
AcDbEntity
  8
0
100
AcDbLine
 10
3662.230874
 20
1636.094637
 30
0.0
 11
3654.604207
 21
1640.54797
 31
0.0
  0
LINE
  5
1B14C
100
AcDbEntity
  8
0
100
AcDbLine
 10
3654.604207
 20
1640.54797
 30
0.0
 11
3653.724207
 21
1642.081304
 31
0.0
  0
LINE
  5
1B14D
100
AcDbEntity
  8
0
100
AcDbLine
 10
3671.844207
 20
1640.561304
 30
0.0
 11
3664.09754
 21
1636.081304
 31
0.0
  0
LINE
  5
1B14E
100
AcDbEntity
  8
0
100
AcDbLine
 10
3664.09754
 20
1636.081304
 30
0.0
 11
3662.230874
 21
1636.094637
 31
0.0
  0
LINE
  5
1B14F
100
AcDbEntity
  8
0
100
AcDbLine
 10
3672.724207
 20
1642.081304
 30
0.0
 11
3671.844207
 21
1640.561304
 31
0.0
  0
ARC
  5
1B150
100
AcDbEntity
  8
0
100
AcDbCircle
 10
3672.105742
 20
1620.73796
 30
0.0
 40
9.303865
100
AcDbArc
 50
89.393612
 51
106.750243
  0
LINE
  5
1B151
100
AcDbEntity
  8
0
100
AcDbLine
 10
3654.604207
 20
1652.54797
 30
0.0
 11
3662.350874
 21
1657.014637
 31
0.0
  0
LINE
  5
1B152
100
AcDbEntity
  8
0
100
AcDbLine
 10
3653.724207
 20
1651.02797
 30
0.0
 11
3654.604207
 21
1652.54797
 31
0.0
  0
LINE
  5
1B153
100
AcDbEntity
  8
0
100
AcDbLine
 10
3662.350874
 20
1657.014637
 30
0.0
 11
3664.244207
 21
1657.014637
 31
0.0
  0
ARC
  5
1B154
100
AcDbEntity
  8
0
100
AcDbCircle
 10
3672.105742
 20
1672.357981
 30
0.0
 40
9.303865
100
AcDbArc
 50
253.249757
 51
270.606388
  0
LINE
  5
1B155
100
AcDbEntity
  8
0
100
AcDbLine
 10
3671.804207
 20
1652.601304
 30
0.0
 11
3672.750874
 21
1650.974637
 31
0.0
  0
LINE
  5
1B156
100
AcDbEntity
  8
0
100
AcDbLine
 10
3664.244207
 20
1657.014637
 30
0.0
 11
3671.804207
 21
1652.601304
 31
0.0
  0
LINE
  5
1B157
100
AcDbEntity
  8
0
100
AcDbLine
 10
3566.434323
 20
1692.568557
 30
0.0
 11
3575.70607
 21
1682.271244
 31
0.0
  0
LINE
  5
1B158
100
AcDbEntity
  8
0
100
AcDbLine
 10
3552.880713
 20
1689.687651
 30
0.0
 11
3566.434323
 21
1692.568557
 31
0.0
  0
LINE
  5
1B159
100
AcDbEntity
  8
0
100
AcDbLine
 10
3602.20937
 20
1718.749907
 30
0.0
 11
3589.550915
 21
1724.385817
 31
0.0
  0
LINE
  5
1B15A
100
AcDbEntity
  8
0
100
AcDbLine
 10
3589.550915
 20
1724.385817
 30
0.0
 11
3588.102524
 21
1738.166315
 31
0.0
  0
LINE
  5
1B15B
100
AcDbEntity
  8
0
100
AcDbLine
 10
3613.419433
 20
1726.894495
 30
0.0
 11
3602.20937
 21
1718.749907
 31
0.0
  0
LINE
  5
1B15C
100
AcDbEntity
  8
0
100
AcDbLine
 10
3611.971042
 20
1740.674992
 30
0.0
 11
3613.419433
 21
1726.894495
 31
0.0
  0
LINE
  5
1B15D
100
AcDbEntity
  8
0
100
AcDbLine
 10
3642.230874
 20
1702.54797
 30
0.0
 11
3642.230874
 21
1729.54797
 31
0.0
  0
LINE
  5
1B15E
100
AcDbEntity
  8
0
100
AcDbLine
 10
3684.230874
 20
1729.54797
 30
0.0
 11
3684.230874
 21
1702.54797
 31
0.0
  0
LINE
  5
1B15F
100
AcDbEntity
  8
0
100
AcDbLine
 10
3684.230874
 20
1702.54797
 30
0.0
 11
3642.230874
 21
1702.54797
 31
0.0
  0
LINE
  5
1B160
100
AcDbEntity
  8
0
100
AcDbLine
 10
3642.230874
 20
1729.54797
 30
0.0
 11
3684.230874
 21
1729.54797
 31
0.0
  0
LINE
  5
1B161
100
AcDbEntity
  8
0
100
AcDbLine
 10
3670.159074
 20
1740.828104
 30
0.0
 11
3656.302674
 21
1740.828104
 31
0.0
  0
LINE
  5
1B162
100
AcDbEntity
  8
0
100
AcDbLine
 10
3755.037541
 20
1669.093024
 30
0.0
 11
3750.755678
 21
1682.271244
 31
0.0
  0
CIRCLE
  5
1B163
100
AcDbEntity
  8
0
100
AcDbCircle
 10
3764.309287
 20
1679.390338
 30
0.0
 40
12.0
  0
LINE
  5
1B164
100
AcDbEntity
  8
0
100
AcDbLine
 10
3773.581034
 20
1689.687651
 30
0.0
 11
3777.862897
 21
1676.509432
 31
0.0
  0
LINE
  5
1B165
100
AcDbEntity
  8
0
100
AcDbLine
 10
3777.862897
 20
1676.509432
 30
0.0
 11
3768.591151
 21
1666.212118
 31
0.0
  0
LINE
  5
1B166
100
AcDbEntity
  8
0
100
AcDbLine
 10
3768.591151
 20
1626.883822
 30
0.0
 11
3777.862897
 21
1616.586509
 31
0.0
  0
ARC
  5
1B167
100
AcDbEntity
  8
0
100
AcDbCircle
 10
3722.056948
 20
1622.058856
 30
0.0
 40
7.995791
100
AcDbArc
 50
90.091296
 51
157.479904
  0
LINE
  5
1B168
100
AcDbEntity
  8
0
100
AcDbLine
 10
3755.037541
 20
1624.002916
 30
0.0
 11
3768.591151
 21
1626.883822
 31
0.0
  0
ARC
  5
1B169
100
AcDbEntity
  8
0
100
AcDbCircle
 10
3722.046949
 20
1671.043751
 30
0.0
 40
7.989115
100
AcDbArc
 50
202.591725
 51
269.980334
  0
LINE
  5
1B16A
100
AcDbEntity
  8
0
100
AcDbLine
 10
3768.591151
 20
1666.212118
 30
0.0
 11
3755.037541
 21
1669.093024
 31
0.0
  0
ARC
  5
1B16B
100
AcDbEntity
  8
0
100
AcDbCircle
 10
3781.850896
 20
1632.050184
 30
0.0
 40
1.995558
100
AcDbArc
 50
269.807944
 51
352.835578
  0
ARC
  5
1B16C
100
AcDbEntity
  8
0
100
AcDbCircle
 10
3781.843365
 20
1661.052423
 30
0.0
 40
2.002214
100
AcDbArc
 50
6.948256
 51
89.97589
  0
LINE
  5
1B16D
100
AcDbEntity
  8
0
100
AcDbLine
 10
3760.027424
 20
1692.568557
 30
0.0
 11
3773.581034
 21
1689.687651
 31
0.0
  0
LINE
  5
1B16E
100
AcDbEntity
  8
0
100
AcDbLine
 10
3750.755678
 20
1682.271244
 30
0.0
 11
3760.027424
 21
1692.568557
 31
0.0
  0
LINE
  5
1B16F
100
AcDbEntity
  8
0
100
AcDbLine
 10
3736.910832
 20
1724.385817
 30
0.0
 11
3724.252377
 21
1718.749907
 31
0.0
  0
LINE
  5
1B170
100
AcDbEntity
  8
0
100
AcDbLine
 10
3724.252377
 20
1718.749907
 30
0.0
 11
3713.042314
 21
1726.894495
 31
0.0
  0
LINE
  5
1B171
100
AcDbEntity
  8
0
100
AcDbLine
 10
3713.042314
 20
1726.894495
 30
0.0
 11
3714.490706
 21
1740.674992
 31
0.0
  0
LINE
  5
1B172
100
AcDbEntity
  8
0
100
AcDbLine
 10
3738.359224
 20
1738.166315
 30
0.0
 11
3736.910832
 21
1724.385817
 31
0.0
  0
LINE
  5
1B173
100
AcDbEntity
  8
0
100
AcDbLine
 10
3823.032517
 20
1696.54797
 30
0.0
 11
3773.966064
 21
1696.54797
 31
0.0
  0
LINE
  5
1B174
100
AcDbEntity
  8
0
100
AcDbLine
 10
3843.032517
 20
1700.54797
 30
0.0
 11
3823.032517
 21
1696.54797
 31
0.0
  0
LINE
  5
1B175
100
AcDbEntity
  8
0
100
AcDbLine
 10
3865.032517
 20
1554.04797
 30
0.0
 11
3865.032517
 21
1646.54797
 31
0.0
  0
LINE
  5
1B176
100
AcDbEntity
  8
0
100
AcDbLine
 10
3865.032517
 20
1646.54797
 30
0.0
 11
3865.032517
 21
1739.04797
 31
0.0
  0
LINE
  5
1B177
100
AcDbEntity
  8
0
100
AcDbLine
 10
3584.989138
 20
1900.582922
 30
0.0
 11
3582.640636
 21
1855.742922
 31
0.0
  0
LINE
  5
1B178
100
AcDbEntity
  8
0
100
AcDbLine
 10
3591.62907
 20
1855.742922
 30
0.0
 11
3600.935804
 21
1890.476255
 31
0.0
  0
LINE
  5
1B179
100
AcDbEntity
  8
0
100
AcDbLine
 10
3744.62891
 20
1855.742922
 30
0.0
 11
3736.909138
 21
1884.596255
 31
0.0
  0
LINE
  5
1B17A
100
AcDbEntity
  8
0
100
AcDbLine
 10
3753.630973
 20
1855.742922
 30
0.0
 11
3751.282471
 21
1900.582922
 31
0.0
  0
LINE
  5
1B17B
100
AcDbEntity
  8
0
100
AcDbLine
 10
3649.374474
 20
1752.828104
 30
0.0
 11
3656.302674
 21
1764.828104
 31
0.0
  0
LINE
  5
1B17C
100
AcDbEntity
  8
0
100
AcDbLine
 10
3656.302674
 20
1764.828104
 30
0.0
 11
3670.159074
 21
1764.828104
 31
0.0
  0
LINE
  5
1B17D
100
AcDbEntity
  8
0
100
AcDbLine
 10
3670.159074
 20
1764.828104
 30
0.0
 11
3677.087274
 21
1752.828104
 31
0.0
  0
LINE
  5
1B17E
100
AcDbEntity
  8
0
100
AcDbLine
 10
3582.640636
 20
1855.742922
 30
0.0
 11
3591.62907
 21
1855.742922
 31
0.0
  0
LINE
  5
1B17F
100
AcDbEntity
  8
0
100
AcDbLine
 10
3744.62891
 20
1855.742922
 30
0.0
 11
3753.630973
 21
1855.742922
 31
0.0
  0
LINE
  5
1B180
100
AcDbEntity
  8
0
100
AcDbLine
 10
3682.629138
 20
1875.742922
 30
0.0
 11
3739.277866
 21
1875.742922
 31
0.0
  0
LINE
  5
1B181
100
AcDbEntity
  8
0
100
AcDbLine
 10
3539.990926
 20
1934.532208
 30
0.0
 11
3538.15577
 21
1939.574257
 31
0.0
  0
ARC
  5
1B182
100
AcDbEntity
  8
0
100
AcDbCircle
 10
3495.763675
 20
1900.737349
 30
0.0
 40
55.660957
100
AcDbArc
 50
2.615887
 51
37.384113
  0
ARC
  5
1B183
100
AcDbEntity
  8
0
100
AcDbCircle
 10
3619.192653
 20
1886.448106
 30
0.0
 40
12.006074
100
AcDbArc
 50
50.831029
 51
106.99973
  0
LINE
  5
1B184
100
AcDbEntity
  8
0
100
AcDbLine
 10
3551.366631
 20
1903.277715
 30
0.0
 11
3544.774525
 21
1900.878384
 31
0.0
  0
LINE
  5
1B185
100
AcDbEntity
  8
0
100
AcDbLine
 10
3553.201787
 20
1898.235665
 30
0.0
 11
3551.366631
 21
1903.277715
 31
0.0
  0
ARC
  5
1B186
100
AcDbEntity
  8
0
100
AcDbCircle
 10
3565.023661
 20
1901.61607
 30
0.0
 40
19.99219
100
AcDbArc
 50
357.037773
 51
35.584512
  0
LINE
  5
1B187
100
AcDbEntity
  8
0
100
AcDbLine
 10
3578.882471
 20
1886.676255
 30
0.0
 11
3566.082471
 21
1886.422922
 31
0.0
  0
ARC
  5
1B188
100
AcDbEntity
  8
0
100
AcDbCircle
 10
3544.292758
 20
1886.078323
 30
0.0
 40
15.072218
100
AcDbArc
 50
346.234355
 51
53.765645
  0
LINE
  5
1B189
100
AcDbEntity
  8
0
100
AcDbLine
 10
3558.932059
 20
1882.491872
 30
0.0
 11
3552.339953
 21
1880.092542
 31
0.0
  0
LINE
  5
1B18A
100
AcDbEntity
  8
0
100
AcDbLine
 10
3544.774525
 20
1900.878384
 30
0.0
 11
3546.609681
 21
1895.836335
 31
0.0
  0
ARC
  5
1B18B
100
AcDbEntity
  8
0
100
AcDbCircle
 10
3561.248982
 20
1892.249884
 30
0.0
 40
15.072218
100
AcDbArc
 50
166.234355
 51
233.765645
  0
LINE
  5
1B18C
100
AcDbEntity
  8
0
100
AcDbLine
 10
3548.138331
 20
1883.618121
 30
0.0
 11
3552.339953
 21
1880.092542
 31
0.0
  0
LINE
  5
1B18D
100
AcDbEntity
  8
0
100
AcDbLine
 10
3553.201787
 20
1898.235665
 30
0.0
 11
3546.609681
 21
1895.836335
 31
0.0
  0
LINE
  5
1B18E
100
AcDbEntity
  8
0
100
AcDbLine
 10
3560.229138
 20
1886.956255
 30
0.0
 11
3562.442471
 21
1885.089589
 31
0.0
  0
LINE
  5
1B18F
100
AcDbEntity
  8
0
100
AcDbLine
 10
3559.884489
 20
1887.893373
 30
0.0
 11
3558.932059
 21
1882.491872
 31
0.0
  0
LINE
  5
1B190
100
AcDbEntity
  8
0
100
AcDbLine
 10
3562.442471
 20
1885.089589
 30
0.0
 11
3566.082471
 21
1886.422922
 31
0.0
  0
LINE
  5
1B191
100
AcDbEntity
  8
0
100
AcDbLine
 10
3604.975804
 20
1894.662922
 30
0.0
 11
3615.682471
 21
1897.929589
 31
0.0
  0
ARC
  5
1B192
100
AcDbEntity
  8
0
100
AcDbCircle
 10
3606.808096
 20
1888.852249
 30
0.0
 40
6.092718
100
AcDbArc
 50
107.50174
 51
164.541005
  0
ARC
  5
1B193
100
AcDbEntity
  8
0
100
AcDbCircle
 10
3580.029867
 20
1882.827102
 30
0.0
 40
4.016528
100
AcDbArc
 50
357.466948
 51
106.598821
  0
LINE
  5
1B194
100
AcDbEntity
  8
0
100
AcDbLine
 10
3757.629138
 20
1881.169589
 30
0.0
 11
3757.629138
 21
1905.382922
 31
0.0
  0
ARC
  5
1B195
100
AcDbEntity
  8
0
100
AcDbCircle
 10
3771.247835
 20
1901.616103
 30
0.0
 40
19.992079
100
AcDbArc
 50
152.313197
 51
182.962339
  0
ARC
  5
1B196
100
AcDbEntity
  8
0
100
AcDbCircle
 10
3731.106486
 20
1883.042787
 30
0.0
 40
6.006998
100
AcDbArc
 50
14.98758
 51
120.668781
  0
LINE
  5
1B19F
100
AcDbEntity
  8
0
100
AcDbLine
 10
3752.615804
 20
1875.249589
 30
0.0
 11
3757.629138
 21
1881.169589
 31
0.0
  0
ARC
  5
1B1A0
100
AcDbEntity
  8
0
100
AcDbCircle
 10
3756.751056
 20
1910.250094
 30
0.0
 40
2.996057
100
AcDbArc
 50
143.720816
 51
257.105599
  0
ARC
  5
1B1A1
100
AcDbEntity
  8
0
100
AcDbCircle
 10
3755.63346
 20
1905.385078
 30
0.0
 40
1.995679
100
AcDbArc
 50
359.938107
 51
76.99762
  0
LINE
  5
1B1A2
100
AcDbEntity
  8
0
100
AcDbLine
 10
3865.032517
 20
2027.242922
 30
0.0
 11
3843.032517
 21
2027.242922
 31
0.0
  0
LINE
  5
1B1A3
100
AcDbEntity
  8
0
100
AcDbLine
 10
3865.032517
 20
2212.242922
 30
0.0
 11
3843.032517
 21
2212.242922
 31
0.0
  0
LINE
  5
1B1A4
100
AcDbEntity
  8
0
100
AcDbLine
 10
3586.629138
 20
2129.242922
 30
0.0
 11
3586.629138
 21
2072.411778
 31
0.0
  0
LINE
  5
1B1A5
100
AcDbEntity
  8
0
100
AcDbLine
 10
3823.032517
 20
2163.074426
 30
0.0
 11
3823.032517
 21
2076.411418
 31
0.0
  0
LINE
  5
1B1A6
100
AcDbEntity
  8
0
100
AcDbLine
 10
3778.629138
 20
2129.242922
 30
0.0
 11
3778.629138
 21
2071.922414
 31
0.0
  0
LINE
  5
1B1A7
100
AcDbEntity
  8
0
100
AcDbLine
 10
3843.032517
 20
2027.242922
 30
0.0
 11
3843.032517
 21
2212.242922
 31
0.0
  0
LINE
  5
1B1A8
100
AcDbEntity
  8
0
100
AcDbLine
 10
3762.989138
 20
2111.742922
 30
0.0
 11
3602.282471
 21
2111.742922
 31
0.0
  0
LINE
  5
1B1A9
100
AcDbEntity
  8
0
100
AcDbLine
 10
3757.712761
 20
2069.242922
 30
0.0
 11
3607.95556
 21
2069.242922
 31
0.0
  0
LINE
  5
1B1AA
100
AcDbEntity
  8
0
100
AcDbLine
 10
3746.92314
 20
2057.118566
 30
0.0
 11
3618.745182
 21
2057.118566
 31
0.0
  0
LINE
  5
1B1AB
100
AcDbEntity
  8
0
100
AcDbLine
 10
3592.699438
 20
2059.439074
 30
0.0
 11
3589.05991
 21
2065.742922
 31
0.0
  0
ARC
  5
1B1AC
100
AcDbEntity
  8
0
100
AcDbCircle
 10
3584.039184
 20
2054.439074
 30
0.0
 40
10.0
100
AcDbArc
 50
0.0
 51
30.0
  0
ARC
  5
1B1AD
100
AcDbEntity
  8
0
100
AcDbCircle
 10
3596.629138
 20
2072.411778
 30
0.0
 40
10.0
100
AcDbArc
 50
180.0
 51
216.349856
  0
ARC
  5
1B1AE
100
AcDbEntity
  8
0
100
AcDbCircle
 10
3582.131707
 20
2061.742922
 30
0.0
 40
8.0
100
AcDbArc
 50
30.0
 51
36.349856
  0
LINE
  5
1B1AF
100
AcDbEntity
  8
0
100
AcDbLine
 10
3772.968884
 20
2059.439074
 30
0.0
 11
3777.289392
 21
2066.922414
 31
0.0
  0
ARC
  5
1B1B0
100
AcDbEntity
  8
0
100
AcDbCircle
 10
3781.629138
 20
2054.439074
 30
0.0
 40
10.0
100
AcDbArc
 50
150.0
 51
180.0
  0
LINE
  5
1B1B1
100
AcDbEntity
  8
0
100
AcDbLine
 10
3823.032517
 20
2069.742922
 30
0.0
 11
3783.536615
 21
2069.742922
 31
0.0
  0
ARC
  5
1B1B2
100
AcDbEntity
  8
0
100
AcDbCircle
 10
3783.536615
 20
2061.742922
 30
0.0
 40
8.0
100
AcDbArc
 50
90.0
 51
150.0
  0
ARC
  5
1B1B3
100
AcDbEntity
  8
0
100
AcDbCircle
 10
3768.629138
 20
2071.922414
 30
0.0
 40
10.0
100
AcDbArc
 50
330.0
 51
360.0
  0
LINE
  5
1B1B4
100
AcDbEntity
  8
0
100
AcDbLine
 10
3823.032517
 20
2069.742922
 30
0.0
 11
3843.032517
 21
2065.742922
 31
0.0
  0
LINE
  5
1B1B5
100
AcDbEntity
  8
0
100
AcDbLine
 10
3779.080827
 20
2176.256255
 30
0.0
 11
3586.587494
 21
2176.256255
 31
0.0
  0
LINE
  5
1B1B6
100
AcDbEntity
  8
0
100
AcDbLine
 10
3804.334161
 20
2154.242922
 30
0.0
 11
3561.334161
 21
2154.242922
 31
0.0
  0
LINE
  5
1B1B7
100
AcDbEntity
  8
0
100
AcDbLine
 10
3804.334161
 20
2174.242922
 30
0.0
 11
3561.334161
 21
2174.242922
 31
0.0
  0
LINE
  5
1B1B8
100
AcDbEntity
  8
0
100
AcDbLine
 10
3804.334161
 20
2196.256255
 30
0.0
 11
3563.334161
 21
2196.256255
 31
0.0
  0
LINE
  5
1B1B9
100
AcDbEntity
  8
0
100
AcDbLine
 10
3693.025286
 20
2205.006255
 30
0.0
 11
3694.958161
 21
2203.890105
 31
0.0
  0
ARC
  5
1B1BA
100
AcDbEntity
  8
0
100
AcDbCircle
 10
3691.926723
 20
2199.038883
 30
0.0
 40
5.720487
100
AcDbArc
 50
57.999511
 51
122.000489
  0
LINE
  5
1B1BB
100
AcDbEntity
  8
0
100
AcDbLine
 10
3698.827494
 20
2212.256255
 30
0.0
 11
3666.827494
 21
2212.256255
 31
0.0
  0
LINE
  5
1B1BC
100
AcDbEntity
  8
0
100
AcDbLine
 10
3561.334161
 20
2208.256255
 30
0.0
 11
3561.334161
 21
2176.256255
 31
0.0
  0
LINE
  5
1B1BD
100
AcDbEntity
  8
0
100
AcDbLine
 10
3561.334161
 20
2174.242922
 30
0.0
 11
3561.334161
 21
2154.242922
 31
0.0
  0
LINE
  5
1B1BE
100
AcDbEntity
  8
0
100
AcDbLine
 10
3582.638753
 20
2154.242922
 30
0.0
 11
3586.629138
 21
2129.242922
 31
0.0
  0
LINE
  5
1B1BF
100
AcDbEntity
  8
0
100
AcDbLine
 10
3561.334161
 20
2176.256255
 30
0.0
 11
3586.587494
 21
2176.256255
 31
0.0
  0
LINE
  5
1B1C0
100
AcDbEntity
  8
0
100
AcDbLine
 10
3586.587494
 20
2176.256255
 30
0.0
 11
3586.587494
 21
2174.242922
 31
0.0
  0
LINE
  5
1B1C1
100
AcDbEntity
  8
0
100
AcDbLine
 10
3662.827494
 20
2208.256255
 30
0.0
 11
3561.334161
 21
2208.256255
 31
0.0
  0
ARC
  5
1B1C2
100
AcDbEntity
  8
0
100
AcDbCircle
 10
3620.527057
 20
2183.187759
 30
0.0
 40
21.571502
100
AcDbArc
 50
73.680185
 51
106.319815
  0
LINE
  5
1B1C3
100
AcDbEntity
  8
0
100
AcDbLine
 10
3610.336369
 20
2205.006255
 30
0.0
 11
3630.718619
 21
2205.006255
 31
0.0
  0
ARC
  5
1B1C4
100
AcDbEntity
  8
0
100
AcDbCircle
 10
3582.02039
 20
2183.187759
 30
0.0
 40
21.571502
100
AcDbArc
 50
73.680185
 51
106.319815
  0
LINE
  5
1B1C5
100
AcDbEntity
  8
0
100
AcDbLine
 10
3571.829702
 20
2205.006255
 30
0.0
 11
3592.211952
 21
2205.006255
 31
0.0
  0
LINE
  5
1B1C6
100
AcDbEntity
  8
0
100
AcDbLine
 10
3569.896827
 20
2203.890105
 30
0.0
 11
3571.829702
 21
2205.006255
 31
0.0
  0
ARC
  5
1B1C7
100
AcDbEntity
  8
0
100
AcDbCircle
 10
3572.92739
 20
2199.038863
 30
0.0
 40
5.720504
100
AcDbArc
 50
57.999617
 51
122.000383
  0
LINE
  5
1B1C8
100
AcDbEntity
  8
0
100
AcDbLine
 10
3569.896827
 20
2196.256255
 30
0.0
 11
3569.896827
 21
2203.890105
 31
0.0
  0
LINE
  5
1B1C9
100
AcDbEntity
  8
0
100
AcDbLine
 10
3575.958827
 20
2203.890105
 30
0.0
 11
3575.958827
 21
2196.256255
 31
0.0
  0
LINE
  5
1B1CA
100
AcDbEntity
  8
0
100
AcDbLine
 10
3608.403494
 20
2203.890105
 30
0.0
 11
3610.336369
 21
2205.006255
 31
0.0
  0
ARC
  5
1B1CB
100
AcDbEntity
  8
0
100
AcDbCircle
 10
3611.434057
 20
2199.038863
 30
0.0
 40
5.720504
100
AcDbArc
 50
57.999617
 51
122.000383
  0
LINE
  5
1B1CC
100
AcDbEntity
  8
0
100
AcDbLine
 10
3588.081952
 20
2203.890105
 30
0.0
 11
3588.081952
 21
2196.256255
 31
0.0
  0
LINE
  5
1B1CD
100
AcDbEntity
  8
0
100
AcDbLine
 10
3594.144827
 20
2203.890105
 30
0.0
 11
3594.144827
 21
2196.256255
 31
0.0
  0
LINE
  5
1B1CE
100
AcDbEntity
  8
0
100
AcDbLine
 10
3592.211952
 20
2205.006255
 30
0.0
 11
3594.144827
 21
2203.890105
 31
0.0
  0
ARC
  5
1B1CF
100
AcDbEntity
  8
0
100
AcDbCircle
 10
3591.11339
 20
2199.038883
 30
0.0
 40
5.720487
100
AcDbArc
 50
57.999511
 51
122.000489
  0
LINE
  5
1B1D0
100
AcDbEntity
  8
0
100
AcDbLine
 10
3608.403494
 20
2196.256255
 30
0.0
 11
3608.403494
 21
2203.890105
 31
0.0
  0
LINE
  5
1B1D1
100
AcDbEntity
  8
0
100
AcDbLine
 10
3614.465494
 20
2203.890105
 30
0.0
 11
3614.465494
 21
2196.256255
 31
0.0
  0
ARC
  5
1B1D2
100
AcDbEntity
  8
0
100
AcDbCircle
 10
3683.16192
 20
2026.674774
 30
0.0
 40
178.610279
100
AcDbArc
 50
96.464003
 51
106.427201
  0
ARC
  5
1B1D3
100
AcDbEntity
  8
0
100
AcDbCircle
 10
3629.620057
 20
2199.038883
 30
0.0
 40
5.720487
100
AcDbArc
 50
57.999511
 51
122.000489
  0
LINE
  5
1B1D4
100
AcDbEntity
  8
0
100
AcDbLine
 10
3630.718619
 20
2205.006255
 30
0.0
 11
3632.651494
 21
2203.890105
 31
0.0
  0
LINE
  5
1B1D5
100
AcDbEntity
  8
0
100
AcDbLine
 10
3626.588619
 20
2203.890105
 30
0.0
 11
3626.588619
 21
2196.256255
 31
0.0
  0
LINE
  5
1B1D6
100
AcDbEntity
  8
0
100
AcDbLine
 10
3632.651494
 20
2203.890105
 30
0.0
 11
3632.651494
 21
2196.256255
 31
0.0
  0
LINE
  5
1B1D7
100
AcDbEntity
  8
0
100
AcDbLine
 10
3666.827494
 20
2212.256255
 30
0.0
 11
3664.827494
 21
2210.256255
 31
0.0
  0
ARC
  5
1B1D8
100
AcDbEntity
  8
0
100
AcDbCircle
 10
3662.829587
 20
2206.134834
 30
0.0
 40
1.997907
100
AcDbArc
 50
276.45393
 51
0.040755
  0
LINE
  5
1B1D9
100
AcDbEntity
  8
0
100
AcDbLine
 10
3664.827494
 20
2206.136255
 30
0.0
 11
3664.827494
 21
2210.082922
 31
0.0
  0
ARC
  5
1B1DA
100
AcDbEntity
  8
0
100
AcDbCircle
 10
3662.824483
 20
2210.259266
 30
0.0
 40
2.003013
100
AcDbArc
 50
270.086122
 51
359.913878
  0
LINE
  5
1B1DB
100
AcDbEntity
  8
0
100
AcDbLine
 10
3673.334161
 20
2220.749589
 30
0.0
 11
3692.334161
 21
2220.749589
 31
0.0
  0
LINE
  5
1B1DC
100
AcDbEntity
  8
0
100
AcDbLine
 10
3672.334161
 20
2219.749589
 30
0.0
 11
3673.334161
 21
2220.749589
 31
0.0
  0
LINE
  5
1B1DD
100
AcDbEntity
  8
0
100
AcDbLine
 10
3692.334161
 20
2220.749589
 30
0.0
 11
3693.334161
 21
2219.749589
 31
0.0
  0
ARC
  5
1B1DE
100
AcDbEntity
  8
0
100
AcDbCircle
 10
3682.833723
 20
2183.187759
 30
0.0
 40
21.571502
100
AcDbArc
 50
73.680185
 51
106.319815
  0
LINE
  5
1B1DF
100
AcDbEntity
  8
0
100
AcDbLine
 10
3692.827494
 20
2212.256255
 30
0.0
 11
3672.827494
 21
2212.256255
 31
0.0
  0
LINE
  5
1B1E0
100
AcDbEntity
  8
0
100
AcDbLine
 10
3687.294161
 20
2213.749589
 30
0.0
 11
3678.360827
 21
2213.749589
 31
0.0
  0
LINE
  5
1B1E1
100
AcDbEntity
  8
0
100
AcDbLine
 10
3672.643036
 20
2205.006255
 30
0.0
 11
3693.025286
 21
2205.006255
 31
0.0
  0
ARC
  5
1B1E2
100
AcDbEntity
  8
0
100
AcDbCircle
 10
3673.740723
 20
2199.038863
 30
0.0
 40
5.720504
100
AcDbArc
 50
57.999617
 51
122.000383
  0
LINE
  5
1B1E3
100
AcDbEntity
  8
0
100
AcDbLine
 10
3670.710161
 20
2203.890105
 30
0.0
 11
3672.643036
 21
2205.006255
 31
0.0
  0
LINE
  5
1B1E4
100
AcDbEntity
  8
0
100
AcDbLine
 10
3676.772161
 20
2203.890105
 30
0.0
 11
3676.772161
 21
2196.256255
 31
0.0
  0
LINE
  5
1B1E5
100
AcDbEntity
  8
0
100
AcDbLine
 10
3670.710161
 20
2196.256255
 30
0.0
 11
3670.710161
 21
2203.890105
 31
0.0
  0
LINE
  5
1B1E6
100
AcDbEntity
  8
0
100
AcDbLine
 10
3676.840827
 20
2213.749589
 30
0.0
 11
3672.334161
 21
2213.749589
 31
0.0
  0
LINE
  5
1B1E7
100
AcDbEntity
  8
0
100
AcDbLine
 10
3688.895286
 20
2203.890105
 30
0.0
 11
3688.895286
 21
2196.256255
 31
0.0
  0
LINE
  5
1B1E8
100
AcDbEntity
  8
0
100
AcDbLine
 10
3693.334161
 20
2213.749589
 30
0.0
 11
3688.827494
 21
2213.749589
 31
0.0
  0
LINE
  5
1B1E9
100
AcDbEntity
  8
0
100
AcDbLine
 10
3672.334161
 20
2212.256255
 30
0.0
 11
3672.334161
 21
2219.749589
 31
0.0
  0
LINE
  5
1B1EA
100
AcDbEntity
  8
0
100
AcDbLine
 10
3676.840827
 20
2220.749589
 30
0.0
 11
3676.840827
 21
2213.749589
 31
0.0
  0
LINE
  5
1B1EB
100
AcDbEntity
  8
0
100
AcDbLine
 10
3678.360827
 20
2213.749589
 30
0.0
 11
3678.360827
 21
2220.749589
 31
0.0
  0
LINE
  5
1B1EC
100
AcDbEntity
  8
0
100
AcDbLine
 10
3693.334161
 20
2219.749589
 30
0.0
 11
3693.334161
 21
2212.256255
 31
0.0
  0
LINE
  5
1B1ED
100
AcDbEntity
  8
0
100
AcDbLine
 10
3687.294161
 20
2220.749589
 30
0.0
 11
3687.294161
 21
2213.749589
 31
0.0
  0
LINE
  5
1B1EE
100
AcDbEntity
  8
0
100
AcDbLine
 10
3688.827494
 20
2213.749589
 30
0.0
 11
3688.827494
 21
2220.749589
 31
0.0
  0
LINE
  5
1B1EF
100
AcDbEntity
  8
0
100
AcDbLine
 10
3804.334161
 20
2176.256255
 30
0.0
 11
3804.334161
 21
2196.256255
 31
0.0
  0
LINE
  5
1B1F0
100
AcDbEntity
  8
0
100
AcDbLine
 10
3804.334161
 20
2174.242922
 30
0.0
 11
3804.334161
 21
2154.242922
 31
0.0
  0
LINE
  5
1B1F1
100
AcDbEntity
  8
0
100
AcDbLine
 10
3782.635548
 20
2154.242922
 30
0.0
 11
3778.629138
 21
2129.242922
 31
0.0
  0
LINE
  5
1B1F2
100
AcDbEntity
  8
0
100
AcDbLine
 10
3823.032517
 20
2169.742922
 30
0.0
 11
3804.334161
 21
2169.742922
 31
0.0
  0
LINE
  5
1B1F3
100
AcDbEntity
  8
0
100
AcDbLine
 10
3779.080827
 20
2174.242922
 30
0.0
 11
3779.080827
 21
2176.256255
 31
0.0
  0
LINE
  5
1B1F4
100
AcDbEntity
  8
0
100
AcDbLine
 10
3779.080827
 20
2176.256255
 30
0.0
 11
3804.334161
 21
2176.256255
 31
0.0
  0
LINE
  5
1B1F5
100
AcDbEntity
  8
0
100
AcDbLine
 10
3843.032517
 20
2173.742922
 30
0.0
 11
3823.032517
 21
2169.742922
 31
0.0
  0
ARC
  5
1B1F6
100
AcDbEntity
  8
0
100
AcDbCircle
 10
3774.554057
 20
2199.038863
 30
0.0
 40
5.720504
100
AcDbArc
 50
57.999617
 51
122.000383
  0
LINE
  5
1B1F7
100
AcDbEntity
  8
0
100
AcDbLine
 10
3771.523494
 20
2203.890105
 30
0.0
 11
3773.456369
 21
2205.006255
 31
0.0
  0
LINE
  5
1B1F8
100
AcDbEntity
  8
0
100
AcDbLine
 10
3733.016827
 20
2203.890105
 30
0.0
 11
3734.949702
 21
2205.006255
 31
0.0
  0
ARC
  5
1B1F9
100
AcDbEntity
  8
0
100
AcDbCircle
 10
3736.04739
 20
2199.038863
 30
0.0
 40
5.720504
100
AcDbArc
 50
57.999617
 51
122.000383
  0
LINE
  5
1B1FA
100
AcDbEntity
  8
0
100
AcDbLine
 10
3727.827494
 20
2204.256255
 30
0.0
 11
3719.827494
 21
2201.349589
 31
0.0
  0
ARC
  5
1B1FB
100
AcDbEntity
  8
0
100
AcDbCircle
 10
3682.856431
 20
2028.418689
 30
0.0
 40
176.838109
100
AcDbArc
 50
73.716261
 51
83.585076
  0
ARC
  5
1B1FC
100
AcDbEntity
  8
0
100
AcDbCircle
 10
3702.832134
 20
2206.142352
 30
0.0
 40
2.004649
100
AcDbArc
 50
180.174248
 51
263.757673
  0
LINE
  5
1B1FD
100
AcDbEntity
  8
0
100
AcDbLine
 10
3700.827494
 20
2206.136255
 30
0.0
 11
3700.827494
 21
2210.256255
 31
0.0
  0
LINE
  5
1B1FE
100
AcDbEntity
  8
0
100
AcDbLine
 10
3694.958161
 20
2203.890105
 30
0.0
 11
3694.958161
 21
2196.256255
 31
0.0
  0
LINE
  5
1B1FF
100
AcDbEntity
  8
0
100
AcDbLine
 10
3700.827494
 20
2210.256255
 30
0.0
 11
3698.827494
 21
2212.256255
 31
0.0
  0
LINE
  5
1B200
100
AcDbEntity
  8
0
100
AcDbLine
 10
3733.016827
 20
2196.256255
 30
0.0
 11
3733.016827
 21
2203.890105
 31
0.0
  0
LINE
  5
1B201
100
AcDbEntity
  8
0
100
AcDbLine
 10
3733.650902
 20
2204.256255
 30
0.0
 11
3727.827494
 21
2204.256255
 31
0.0
  0
LINE
  5
1B202
100
AcDbEntity
  8
0
100
AcDbLine
 10
3771.523494
 20
2196.256255
 30
0.0
 11
3771.523494
 21
2203.890105
 31
0.0
  0
LINE
  5
1B203
100
AcDbEntity
  8
0
100
AcDbLine
 10
3734.949702
 20
2205.006255
 30
0.0
 11
3755.331952
 21
2205.006255
 31
0.0
  0
ARC
  5
1B204
100
AcDbEntity
  8
0
100
AcDbCircle
 10
3745.14039
 20
2183.187759
 30
0.0
 40
21.571502
100
AcDbArc
 50
73.680185
 51
106.319815
  0
LINE
  5
1B205
100
AcDbEntity
  8
0
100
AcDbLine
 10
3739.078827
 20
2203.890105
 30
0.0
 11
3739.078827
 21
2196.256255
 31
0.0
  0
ARC
  5
1B206
100
AcDbEntity
  8
0
100
AcDbCircle
 10
3754.23339
 20
2199.038883
 30
0.0
 40
5.720487
100
AcDbArc
 50
57.999511
 51
122.000489
  0
LINE
  5
1B207
100
AcDbEntity
  8
0
100
AcDbLine
 10
3755.331952
 20
2205.006255
 30
0.0
 11
3757.264827
 21
2203.890105
 31
0.0
  0
LINE
  5
1B208
100
AcDbEntity
  8
0
100
AcDbLine
 10
3751.201952
 20
2203.890105
 30
0.0
 11
3751.201952
 21
2196.256255
 31
0.0
  0
LINE
  5
1B209
100
AcDbEntity
  8
0
100
AcDbLine
 10
3757.264827
 20
2203.890105
 30
0.0
 11
3757.264827
 21
2196.256255
 31
0.0
  0
ARC
  5
1B20A
100
AcDbEntity
  8
0
100
AcDbCircle
 10
3757.830026
 20
2201.253225
 30
0.0
 40
3.003032
100
AcDbArc
 50
6.431087
 51
108.214788
  0
ARC
  5
1B20B
100
AcDbEntity
  8
0
100
AcDbCircle
 10
3766.77569
 20
2202.25478
 30
0.0
 40
5.998525
100
AcDbArc
 50
186.36677
 51
269.985397
  0
LINE
  5
1B20C
100
AcDbEntity
  8
0
100
AcDbLine
 10
3773.456369
 20
2205.006255
 30
0.0
 11
3793.838619
 21
2205.006255
 31
0.0
  0
ARC
  5
1B20D
100
AcDbEntity
  8
0
100
AcDbCircle
 10
3792.740057
 20
2199.038883
 30
0.0
 40
5.720487
100
AcDbArc
 50
57.999511
 51
122.000489
  0
LINE
  5
1B20E
100
AcDbEntity
  8
0
100
AcDbLine
 10
3793.838619
 20
2205.006255
 30
0.0
 11
3795.771494
 21
2203.890105
 31
0.0
  0
LINE
  5
1B20F
100
AcDbEntity
  8
0
100
AcDbLine
 10
3789.708619
 20
2203.890105
 30
0.0
 11
3789.708619
 21
2196.256255
 31
0.0
  0
LINE
  5
1B210
100
AcDbEntity
  8
0
100
AcDbLine
 10
3795.771494
 20
2203.890105
 30
0.0
 11
3795.771494
 21
2196.256255
 31
0.0
  0
LINE
  5
1B211
100
AcDbEntity
  8
0
100
AcDbLine
 10
3777.585494
 20
2203.890105
 30
0.0
 11
3777.585494
 21
2196.256255
 31
0.0
  0
ARC
  5
1B212
100
AcDbEntity
  8
0
100
AcDbCircle
 10
3783.647057
 20
2183.187759
 30
0.0
 40
21.571502
100
AcDbArc
 50
73.680185
 51
106.319815
  0
LINE
  5
1B213
100
AcDbEntity
  8
0
100
AcDbLine
 10
3865.032517
 20
2119.742922
 30
0.0
 11
3865.032517
 21
2212.242922
 31
0.0
  0
LINE
  5
1B214
100
AcDbEntity
  8
0
100
AcDbLine
 10
3865.032517
 20
2027.242922
 30
0.0
 11
3865.032517
 21
2119.742922
 31
0.0
  0
INSERT
  5
1B229
100
AcDbEntity
  8
0
100
AcDbBlockReference
  2
YA
 10
1197.930602
 20
2136.754865
 30
0.0
 41
-5.0
 42
5.0
 43
5.0
  0
INSERT
  5
1B22A
100
AcDbEntity
  8
0
100
AcDbBlockReference
  2
YA
 10
792.916852
 20
1663.559913
 30
0.0
 41
5.0
 42
5.0
 43
5.0
  0
INSERT
  5
1B22B
100
AcDbEntity
  8
0
100
AcDbBlockReference
  2
YA
 10
792.916852
 20
1276.819002
 30
0.0
 41
5.0
 42
5.0
 43
5.0
  0
INSERT
  5
1B22C
100
AcDbEntity
  8
0
100
AcDbBlockReference
  2
YA
 10
2531.942806
 20
2131.084217
 30
0.0
 41
-5.0
 42
5.0
 43
5.0
  0
INSERT
  5
1B230
100
AcDbEntity
  8
0
100
AcDbBlockReference
  2
YA
 10
3463.525642
 20
1646.54797
 30
0.0
 41
5.0
 42
5.0
 43
5.0
  0
INSERT
  5
1B231
100
AcDbEntity
  8
0
100
AcDbBlockReference
  2
YA
 10
3463.525642
 20
1259.807059
 30
0.0
 41
5.0
 42
5.0
 43
5.0
  0
INSERT
  5
1B239
100
AcDbEntity
  8
0
100
AcDbBlockReference
  2
YA
 10
3882.539392
 20
2119.742922
 30
0.0
 41
-5.0
 42
5.0
 43
5.0
  0
INSERT
  5
1B23F
100
AcDbEntity
  8
0
100
AcDbBlockReference
  2
YA
 10
2126.929056
 20
1657.889266
 30
0.0
 41
5.0
 42
5.0
 43
5.0
  0
INSERT
  5
1B240
100
AcDbEntity
  8
0
100
AcDbBlockReference
  2
YA
 10
2126.929056
 20
1271.148354
 30
0.0
 41
5.0
 42
5.0
 43
5.0
  0
POLYLINE
  5
1B44A
100
AcDbEntity
  8
0
100
AcDb2dPolyline
 66
     1
 10
0.0
 20
0.0
 30
0.0
 70
     1
  0
VERTEX
  5
1B56D
100
AcDbEntity
  8
0
100
AcDbVertex
100
AcDb2dVertex
 10
517.601734
 20
1070.325668
 30
0.0
  0
VERTEX
  5
1B56E
100
AcDbEntity
  8
0
100
AcDbVertex
100
AcDb2dVertex
 10
526.087016
 20
1061.840387
 30
0.0
  0
VERTEX
  5
1B56F
100
AcDbEntity
  8
0
100
AcDbVertex
100
AcDb2dVertex
 10
534.572297
 20
1070.325668
 30
0.0
  0
VERTEX
  5
1B570
100
AcDbEntity
  8
0
100
AcDbVertex
100
AcDb2dVertex
 10
526.087016
 20
1078.81095
 30
0.0
  0
SEQEND
  5
1B571
100
AcDbEntity
  8
0
  0
CIRCLE
  5
1B44B
100
AcDbEntity
  8
0
100
AcDbCircle
 10
526.087016
 20
1070.325668
 30
0.0
 40
8.497289
  0
POLYLINE
  5
1B452
100
AcDbEntity
  8
0
100
AcDb2dPolyline
 66
     1
 10
0.0
 20
0.0
 30
0.0
 70
     1
  0
VERTEX
  5
1B572
100
AcDbEntity
  8
0
100
AcDbVertex
100
AcDb2dVertex
 10
1861.130586
 20
1059.655021
 30
0.0
  0
VERTEX
  5
1B573
100
AcDbEntity
  8
0
100
AcDbVertex
100
AcDb2dVertex
 10
1869.615867
 20
1051.169739
 30
0.0
  0
VERTEX
  5
1B574
100
AcDbEntity
  8
0
100
AcDbVertex
100
AcDb2dVertex
 10
1878.101149
 20
1059.655021
 30
0.0
  0
VERTEX
  5
1B575
100
AcDbEntity
  8
0
100
AcDbVertex
100
AcDb2dVertex
 10
1869.615867
 20
1068.140302
 30
0.0
  0
SEQEND
  5
1B576
100
AcDbEntity
  8
0
  0
CIRCLE
  5
1B453
100
AcDbEntity
  8
0
100
AcDbCircle
 10
1869.615867
 20
1059.655021
 30
0.0
 40
8.497289
  0
POLYLINE
  5
1B493
100
AcDbEntity
  8
0
100
AcDb2dPolyline
 66
     1
 10
0.0
 20
0.0
 30
0.0
 70
     1
  0
VERTEX
  5
1B577
100
AcDbEntity
  8
0
100
AcDbVertex
100
AcDb2dVertex
 10
3168.558106
 20
1033.313726
 30
0.0
  0
VERTEX
  5
1B578
100
AcDbEntity
  8
0
100
AcDbVertex
100
AcDb2dVertex
 10
3177.043387
 20
1024.828444
 30
0.0
  0
VERTEX
  5
1B579
100
AcDbEntity
  8
0
100
AcDbVertex
100
AcDb2dVertex
 10
3185.528669
 20
1033.313726
 30
0.0
  0
VERTEX
  5
1B57A
100
AcDbEntity
  8
0
100
AcDbVertex
100
AcDb2dVertex
 10
3177.043387
 20
1041.799007
 30
0.0
  0
SEQEND
  5
1B57B
100
AcDbEntity
  8
0
  0
CIRCLE
  5
1B494
100
AcDbEntity
  8
0
100
AcDbCircle
 10
3177.043387
 20
1033.313726
 30
0.0
 40
8.497289
  0
LINE
  5
1B4A6
100
AcDbEntity
  8
0
100
AcDbLine
 10
1092.020347
 20
1938.761281
 30
0.0
 11
1092.020347
 21
1921.761281
 31
0.0
  0
LINE
  5
1B4A7
100
AcDbEntity
  8
0
100
AcDbLine
 10
1083.020347
 20
1938.965844
 30
0.0
 11
1083.020347
 21
1921.553844
 31
0.0
  0
LINE
  5
1B4A8
100
AcDbEntity
  8
0
100
AcDbLine
 10
1083.020347
 20
1938.761281
 30
0.0
 11
1092.020347
 21
1938.761281
 31
0.0
  0
LINE
  5
1B4A9
100
AcDbEntity
  8
0
100
AcDbLine
 10
1080.020347
 20
1938.872094
 30
0.0
 11
1083.020347
 21
1938.965844
 31
0.0
  0
LINE
  5
1B4AA
100
AcDbEntity
  8
0
100
AcDbLine
 10
1092.020347
 20
1930.261281
 30
0.0
 11
1083.020347
 21
1930.261281
 31
0.0
  0
LINE
  5
1B4AB
100
AcDbEntity
  8
0
100
AcDbLine
 10
1083.020347
 20
1921.761281
 30
0.0
 11
1092.020347
 21
1921.761281
 31
0.0
  0
LINE
  5
1B4AC
100
AcDbEntity
  8
0
100
AcDbLine
 10
1080.020347
 20
1921.647594
 30
0.0
 11
1083.020347
 21
1921.553844
 31
0.0
  0
LINE
  5
1B4B9
100
AcDbEntity
  8
0
100
AcDbLine
 10
898.827106
 20
1061.827636
 30
0.0
 11
898.827106
 21
1078.827636
 31
0.0
  0
LINE
  5
1B4BA
100
AcDbEntity
  8
0
100
AcDbLine
 10
907.827106
 20
1061.623074
 30
0.0
 11
907.827106
 21
1079.035074
 31
0.0
  0
LINE
  5
1B4BB
100
AcDbEntity
  8
0
100
AcDbLine
 10
907.827106
 20
1061.827636
 30
0.0
 11
898.827106
 21
1061.827636
 31
0.0
  0
LINE
  5
1B4BC
100
AcDbEntity
  8
0
100
AcDbLine
 10
910.827106
 20
1061.716824
 30
0.0
 11
907.827106
 21
1061.623074
 31
0.0
  0
LINE
  5
1B4BD
100
AcDbEntity
  8
0
100
AcDbLine
 10
898.827106
 20
1070.327636
 30
0.0
 11
907.827106
 21
1070.327636
 31
0.0
  0
LINE
  5
1B4BE
100
AcDbEntity
  8
0
100
AcDbLine
 10
907.827106
 20
1078.827636
 30
0.0
 11
898.827106
 21
1078.827636
 31
0.0
  0
LINE
  5
1B4BF
100
AcDbEntity
  8
0
100
AcDbLine
 10
910.827106
 20
1078.941324
 30
0.0
 11
907.827106
 21
1079.035074
 31
0.0
  0
LINE
  5
1B4DC
100
AcDbEntity
  8
0
100
AcDbLine
 10
2232.435931
 20
1051.156708
 30
0.0
 11
2232.435931
 21
1068.156708
 31
0.0
  0
LINE
  5
1B4DD
100
AcDbEntity
  8
0
100
AcDbLine
 10
2241.435931
 20
1050.952146
 30
0.0
 11
2241.435931
 21
1068.364146
 31
0.0
  0
LINE
  5
1B4DE
100
AcDbEntity
  8
0
100
AcDbLine
 10
2241.435931
 20
1051.156708
 30
0.0
 11
2232.435931
 21
1051.156708
 31
0.0
  0
LINE
  5
1B4DF
100
AcDbEntity
  8
0
100
AcDbLine
 10
2244.435931
 20
1051.045896
 30
0.0
 11
2241.435931
 21
1050.952146
 31
0.0
  0
LINE
  5
1B4E0
100
AcDbEntity
  8
0
100
AcDbLine
 10
2232.435931
 20
1059.656708
 30
0.0
 11
2241.435931
 21
1059.656708
 31
0.0
  0
LINE
  5
1B4E1
100
AcDbEntity
  8
0
100
AcDbLine
 10
2241.435931
 20
1068.156708
 30
0.0
 11
2232.435931
 21
1068.156708
 31
0.0
  0
LINE
  5
1B4E2
100
AcDbEntity
  8
0
100
AcDbLine
 10
2244.435931
 20
1068.270396
 30
0.0
 11
2241.435931
 21
1068.364146
 31
0.0
  0
LINE
  5
1B4EF
100
AcDbEntity
  8
0
100
AcDbLine
 10
2426.435931
 20
1928.090634
 30
0.0
 11
2426.435931
 21
1911.090634
 31
0.0
  0
LINE
  5
1B4F0
100
AcDbEntity
  8
0
100
AcDbLine
 10
2417.435931
 20
1928.295196
 30
0.0
 11
2417.435931
 21
1910.883196
 31
0.0
  0
LINE
  5
1B4F1
100
AcDbEntity
  8
0
100
AcDbLine
 10
2417.435931
 20
1928.090634
 30
0.0
 11
2426.435931
 21
1928.090634
 31
0.0
  0
LINE
  5
1B4F2
100
AcDbEntity
  8
0
100
AcDbLine
 10
2414.435931
 20
1928.201446
 30
0.0
 11
2417.435931
 21
1928.295196
 31
0.0
  0
LINE
  5
1B4F3
100
AcDbEntity
  8
0
100
AcDbLine
 10
2426.435931
 20
1919.590634
 30
0.0
 11
2417.435931
 21
1919.590634
 31
0.0
  0
LINE
  5
1B4F4
100
AcDbEntity
  8
0
100
AcDbLine
 10
2417.435931
 20
1911.090634
 30
0.0
 11
2426.435931
 21
1911.090634
 31
0.0
  0
LINE
  5
1B4F5
100
AcDbEntity
  8
0
100
AcDbLine
 10
2414.435931
 20
1910.976946
 30
0.0
 11
2417.435931
 21
1910.883196
 31
0.0
  0
LINE
  5
1B502
100
AcDbEntity
  8
0
100
AcDbLine
 10
3769.629138
 20
1901.747901
 30
0.0
 11
3769.629138
 21
1884.747901
 31
0.0
  0
LINE
  5
1B503
100
AcDbEntity
  8
0
100
AcDbLine
 10
3760.629138
 20
1901.952464
 30
0.0
 11
3760.629138
 21
1884.540464
 31
0.0
  0
LINE
  5
1B504
100
AcDbEntity
  8
0
100
AcDbLine
 10
3760.629138
 20
1901.747901
 30
0.0
 11
3769.629138
 21
1901.747901
 31
0.0
  0
LINE
  5
1B505
100
AcDbEntity
  8
0
100
AcDbLine
 10
3757.629138
 20
1901.858714
 30
0.0
 11
3760.629138
 21
1901.952464
 31
0.0
  0
LINE
  5
1B506
100
AcDbEntity
  8
0
100
AcDbLine
 10
3769.629138
 20
1893.247901
 30
0.0
 11
3760.629138
 21
1893.247901
 31
0.0
  0
LINE
  5
1B507
100
AcDbEntity
  8
0
100
AcDbLine
 10
3760.629138
 20
1884.747901
 30
0.0
 11
3769.629138
 21
1884.747901
 31
0.0
  0
LINE
  5
1B508
100
AcDbEntity
  8
0
100
AcDbLine
 10
3757.629138
 20
1884.634214
 30
0.0
 11
3760.629138
 21
1884.540464
 31
0.0
  0
LINE
  5
1B515
100
AcDbEntity
  8
0
100
AcDbLine
 10
3576.435897
 20
1024.840392
 30
0.0
 11
3576.435897
 21
1041.840392
 31
0.0
  0
LINE
  5
1B516
100
AcDbEntity
  8
0
100
AcDbLine
 10
3585.435897
 20
1024.63583
 30
0.0
 11
3585.435897
 21
1042.04783
 31
0.0
  0
LINE
  5
1B517
100
AcDbEntity
  8
0
100
AcDbLine
 10
3585.435897
 20
1024.840392
 30
0.0
 11
3576.435897
 21
1024.840392
 31
0.0
  0
LINE
  5
1B518
100
AcDbEntity
  8
0
100
AcDbLine
 10
3588.435897
 20
1024.72958
 30
0.0
 11
3585.435897
 21
1024.63583
 31
0.0
  0
LINE
  5
1B519
100
AcDbEntity
  8
0
100
AcDbLine
 10
3576.435897
 20
1033.340392
 30
0.0
 11
3585.435897
 21
1033.340392
 31
0.0
  0
LINE
  5
1B51A
100
AcDbEntity
  8
0
100
AcDbLine
 10
3585.435897
 20
1041.840392
 30
0.0
 11
3576.435897
 21
1041.840392
 31
0.0
  0
LINE
  5
1B51B
100
AcDbEntity
  8
0
100
AcDbLine
 10
3588.435897
 20
1041.95408
 30
0.0
 11
3585.435897
 21
1042.04783
 31
0.0
  0
VIEWPORT
  5
41
100
AcDbEntity
 67
     1
  8
0
100
AcDbViewport
 10
117.358407
 20
73.5
 30
0.0
 40
234.716814
 41
147.0
 68
    -1
 69
     1
1001
ACAD
1000
MVIEW
1002
{
1070
    16
1010
0.0
1020
0.0
1030
0.0
1010
0.0
1020
0.0
1030
1.0
1040
0.0
1040
147.0
1040
117.358407
1040
73.5
1040
50.0
1040
0.0
1040
0.0
1070
     0
1070
   100
1070
     1
1070
     1
1070
     0
1070
     0
1070
     0
1070
     0
1040
0.0
1040
0.0
1040
0.0
1040
1.0
1040
1.0
1040
0.0
1040
0.0
1070
     0
1002
{
1002
}
1002
}
  0
ENDSEC
  0
SECTION
  2
OBJECTS
  0
DICTIONARY
  5
C
100
AcDbDictionary
  3
ACAD_GROUP
350
D
  3
ACAD_MLINESTYLE
350
E
  0
DICTIONARY
  5
D
102
{ACAD_REACTORS
330
C
102
}
100
AcDbDictionary
  0
DICTIONARY
  5
E
102
{ACAD_REACTORS
330
C
102
}
100
AcDbDictionary
  3
STANDARD
350
1B
  0
MLINESTYLE
  5
1B
102
{ACAD_REACTORS
330
E
102
}
100
AcDbMlineStyle
  2
STANDARD
 70
     0
  3

 62
     0
 51
90.0
 52
90.0
 71
     2
 49
0.5
 62
   256
  6
BYLAYER
 49
-0.5
 62
   256
  6
BYLAYER
  0
ENDSEC
  0
EOF
