  0
SECTION
  2
HEADER
  9
$ACADVER
  1
AC1012
  9
$DWGCODEPAGE
  3
dos932
  9
$INSBASE
 10
0.0
 20
0.0
 30
0.0
  9
$EXTMIN
 10
110.0
 20
50.0
 30
0.0
  9
$EXTMAX
 10
2860.0
 20
1910.0
 30
0.0
  9
$LIMMIN
 10
0.0
 20
0.0
  9
$LIMMAX
 10
2970.0
 20
2100.0
  9
$ORTHOMODE
 70
     0
  9
$REGENMODE
 70
     1
  9
$FILLMODE
 70
     1
  9
$QTEXTMODE
 70
     0
  9
$MIRRTEXT
 70
     1
  9
$DRAGMODE
 70
     2
  9
$LTSCALE
 40
40.0
  9
$OSMODE
 70
   163
  9
$ATTMODE
 70
     1
  9
$TEXTSIZE
 40
40.0
  9
$TRACEWID
 40
0.05
  9
$TEXTSTYLE
  7
STANDARD
  9
$CLAYER
  8
0
  9
$CELTYPE
  6
BYLAYER
  9
$CECOLOR
 62
   256
  9
$CELTSCALE
 40
1.0
  9
$DELOBJ
 70
     1
  9
$DISPSILH
 70
     0
  9
$DIMSCALE
 40
10.0
  9
$DIMASZ
 40
2.8
  9
$DIMEXO
 40
1.0
  9
$DIMDLI
 40
5.0
  9
$DIMRND
 40
0.1
  9
$DIMDLE
 40
0.0
  9
$DIMEXE
 40
1.0
  9
$DIMTP
 40
0.0
  9
$DIMTM
 40
0.0
  9
$DIMTXT
 40
2.5
  9
$DIMCEN
 40
0.0
  9
$DIMTSZ
 40
0.0
  9
$DIMTOL
 70
     0
  9
$DIMLIM
 70
     0
  9
$DIMTIH
 70
     0
  9
$DIMTOH
 70
     0
  9
$DIMSE1
 70
     0
  9
$DIMSE2
 70
     0
  9
$DIMTAD
 70
     3
  9
$DIMZIN
 70
     8
  9
$DIMBLK
  1

  9
$DIMASO
 70
     1
  9
$DIMSHO
 70
     1
  9
$DIMPOST
  1
 
  9
$DIMAPOST
  1

  9
$DIMALT
 70
     0
  9
$DIMALTD
 70
     2
  9
$DIMALTF
 40
1.0
  9
$DIMLFAC
 40
1.0
  9
$DIMTOFL
 70
     1
  9
$DIMTVP
 40
0.0
  9
$DIMTIX
 70
     0
  9
$DIMSOXD
 70
     0
  9
$DIMSAH
 70
     1
  9
$DIMBLK1
  1
_OPEN
  9
$DIMBLK2
  1
_OPEN
  9
$DIMSTYLE
  2
DIM1
  9
$DIMCLRD
 70
     2
  9
$DIMCLRE
 70
     2
  9
$DIMCLRT
 70
     2
  9
$DIMTFAC
 40
0.7
  9
$DIMGAP
 40
0.85
  9
$DIMJUST
 70
     0
  9
$DIMSD1
 70
     0
  9
$DIMSD2
 70
     0
  9
$DIMTOLJ
 70
     1
  9
$DIMTZIN
 70
     8
  9
$DIMALTZ
 70
     8
  9
$DIMALTTZ
 70
     8
  9
$DIMFIT
 70
     3
  9
$DIMUPT
 70
     0
  9
$DIMUNIT
 70
     2
  9
$DIMDEC
 70
     2
  9
$DIMTDEC
 70
     3
  9
$DIMALTU
 70
     2
  9
$DIMALTTD
 70
     3
  9
$DIMTXSTY
  7
DIM
  9
$DIMAUNIT
 70
     0
  9
$LUNITS
 70
     2
  9
$LUPREC
 70
     4
  9
$SKETCHINC
 40
0.1
  9
$FILLETRAD
 40
3.0
  9
$AUNITS
 70
     0
  9
$AUPREC
 70
     0
  9
$MENU
  1
C:\ACADR13\WIN\SUPPORT\ACAD.mnc
  9
$ELEVATION
 40
0.0
  9
$PELEVATION
 40
0.0
  9
$THICKNESS
 40
0.0
  9
$LIMCHECK
 70
     0
  9
$BLIPMODE
 70
     1
  9
$CHAMFERA
 40
0.0
  9
$CHAMFERB
 40
0.0
  9
$CHAMFERC
 40
0.0
  9
$CHAMFERD
 40
0.0
  9
$SKPOLY
 70
     0
  9
$TDCREATE
 40
2451589.540470243
  9
$TDUPDATE
 40
2451981.561335891
  9
$TDINDWG
 40
0.2382439352
  9
$TDUSRTIMER
 40
0.2382439352
  9
$USRTIMER
 70
     1
  9
$ANGBASE
 50
0.0
  9
$ANGDIR
 70
     0
  9
$PDMODE
 70
     0
  9
$PDSIZE
 40
0.0
  9
$PLINEWID
 40
0.0
  9
$COORDS
 70
     1
  9
$SPLFRAME
 70
     0
  9
$SPLINETYPE
 70
     6
  9
$SPLINESEGS
 70
     8
  9
$ATTDIA
 70
     0
  9
$ATTREQ
 70
     1
  9
$HANDLING
 70
     1
  9
$HANDSEED
  5
2820C
  9
$SURFTAB1
 70
     6
  9
$SURFTAB2
 70
     6
  9
$SURFTYPE
 70
     6
  9
$SURFU
 70
     6
  9
$SURFV
 70
     6
  9
$UCSNAME
  2

  9
$UCSORG
 10
0.0
 20
0.0
 30
0.0
  9
$UCSXDIR
 10
1.0
 20
0.0
 30
0.0
  9
$UCSYDIR
 10
0.0
 20
1.0
 30
0.0
  9
$PUCSNAME
  2

  9
$PUCSORG
 10
0.0
 20
0.0
 30
0.0
  9
$PUCSXDIR
 10
1.0
 20
0.0
 30
0.0
  9
$PUCSYDIR
 10
0.0
 20
1.0
 30
0.0
  9
$USERI1
 70
     0
  9
$USERI2
 70
     0
  9
$USERI3
 70
     0
  9
$USERI4
 70
     0
  9
$USERI5
 70
     0
  9
$USERR1
 40
0.0
  9
$USERR2
 40
0.0
  9
$USERR3
 40
0.0
  9
$USERR4
 40
0.0
  9
$USERR5
 40
0.0
  9
$WORLDVIEW
 70
     1
  9
$SHADEDGE
 70
     3
  9
$SHADEDIF
 70
    70
  9
$TILEMODE
 70
     1
  9
$MAXACTVP
 70
    16
  9
$PINSBASE
 10
0.0
 20
0.0
 30
0.0
  9
$PLIMCHECK
 70
     0
  9
$PEXTMIN
 10
1.000000E+20
 20
1.000000E+20
 30
1.000000E+20
  9
$PEXTMAX
 10
-1.000000E+20
 20
-1.000000E+20
 30
-1.000000E+20
  9
$PLIMMIN
 10
0.0
 20
0.0
  9
$PLIMMAX
 10
20.0
 20
147.0
  9
$UNITMODE
 70
     0
  9
$VISRETAIN
 70
     0
  9
$PLINEGEN
 70
     0
  9
$PSLTSCALE
 70
     1
  9
$TREEDEPTH
 70
  3020
  9
$PICKSTYLE
 70
     1
  9
$CMLSTYLE
  2
STANDARD
  9
$CMLJUST
 70
     0
  9
$CMLSCALE
 40
1.0
  9
$SAVEIMAGES
 70
     1
  0
ENDSEC
  0
SECTION
  2
CLASSES
  0
CLASS
  1
LWPOLYLINE
  2
AcDbPolyline
  3
"AutoCAD"
 90
    32768
280
     0
281
     1
  0
ENDSEC
  0
SECTION
  2
TABLES
  0
TABLE
  2
VPORT
  5
8
100
AcDbSymbolTable
 70
     2
  0
VPORT
  5
2820B
100
AcDbSymbolTableRecord
100
AcDbViewportTableRecord
  2
*ACTIVE
 70
     0
 10
0.0
 20
0.0
 11
1.0
 21
1.0
 12
1957.317073
 22
1110.809784
 13
0.0
 23
0.0
 14
1.0
 24
1.0
 15
0.0
 25
0.0
 16
0.0
 26
0.0
 36
1.0
 17
0.0
 27
0.0
 37
0.0
 40
2221.619567
 41
1.762063
 42
50.0
 43
0.0
 44
0.0
 50
0.0
 51
0.0
 71
     0
 72
   100
 73
     1
 74
     1
 75
     0
 76
     0
 77
     0
 78
     0
  0
ENDTAB
  0
TABLE
  2
LTYPE
  5
5
100
AcDbSymbolTable
 70
     1
  0
LTYPE
  5
12
100
AcDbSymbolTableRecord
100
AcDbLinetypeTableRecord
  2
BYBLOCK
 70
     0
  3

 72
    65
 73
     0
 40
0.0
  0
LTYPE
  5
13
100
AcDbSymbolTableRecord
100
AcDbLinetypeTableRecord
  2
BYLAYER
 70
     0
  3

 72
    65
 73
     0
 40
0.0
  0
LTYPE
  5
14
100
AcDbSymbolTableRecord
100
AcDbLinetypeTableRecord
  2
CONTINUOUS
 70
     0
  3
Solid line
 72
    65
 73
     0
 40
0.0
  0
ENDTAB
  0
TABLE
  2
LAYER
  5
2
100
AcDbSymbolTable
 70
     1
  0
LAYER
  5
F
100
AcDbSymbolTableRecord
100
AcDbLayerTableRecord
  2
0
 70
     0
 62
     7
  6
CONTINUOUS
  0
ENDTAB
  0
TABLE
  2
STYLE
  5
3
100
AcDbSymbolTable
 70
     3
  0
STYLE
  5
10
100
AcDbSymbolTableRecord
100
AcDbTextStyleTableRecord
  2
STANDARD
 70
     0
 40
0.0
 41
0.8
 50
0.0
 71
     0
 42
40.0
  3
simplex
  4
extfont
  0
STYLE
  5
237C
100
AcDbSymbolTableRecord
100
AcDbTextStyleTableRecord
  2
PTSH
 70
     0
 40
0.0
 41
0.8
 50
0.0
 71
     0
 42
4.0
  3
SIMPLEX
  4
EXTFONT
  0
STYLE
  5
2592
100
AcDbSymbolTableRecord
100
AcDbTextStyleTableRecord
  2
DIM
 70
     0
 40
0.0
 41
0.8
 50
0.0
 71
     0
 42
4.0
  3
simplex
  4
extfont
  0
ENDTAB
  0
TABLE
  2
VIEW
  5
6
100
AcDbSymbolTable
 70
     0
  0
ENDTAB
  0
TABLE
  2
UCS
  5
7
100
AcDbSymbolTable
 70
     0
  0
ENDTAB
  0
TABLE
  2
APPID
  5
9
100
AcDbSymbolTable
 70
     1
  0
APPID
  5
11
100
AcDbSymbolTableRecord
100
AcDbRegAppTableRecord
  2
ACAD
 70
     0
  0
ENDTAB
  0
TABLE
  2
DIMSTYLE
  5
A
100
AcDbSymbolTable
 70
     1
  0
DIMSTYLE
105
2237
100
AcDbSymbolTableRecord
100
AcDbDimStyleTableRecord
  2
DIM1
 70
     0
  3
 
  4

  5

  6
_OPEN
  7
_OPEN
 40
10.0
 41
2.8
 42
1.0
 43
5.0
 44
1.0
 45
0.1
 46
0.0
 47
0.0
 48
0.0
140
2.5
141
0.0
142
0.0
143
1.0
144
1.0
145
0.0
146
0.7
147
0.85
 71
     0
 72
     0
 73
     0
 74
     0
 75
     0
 76
     0
 77
     3
 78
     8
170
     0
171
     2
172
     1
173
     1
174
     0
175
     0
176
     2
177
     2
178
     2
270
     2
271
     2
272
     3
273
     2
274
     3
340
2592
275
     0
280
     0
281
     0
282
     0
283
     1
284
     8
285
     8
286
     8
287
     3
288
     0
  0
ENDTAB
  0
TABLE
  2
BLOCK_RECORD
  5
1
100
AcDbSymbolTable
 70
     2
  0
BLOCK_RECORD
  5
18
100
AcDbSymbolTableRecord
100
AcDbBlockTableRecord
  2
*MODEL_SPACE
  0
BLOCK_RECORD
  5
15
100
AcDbSymbolTableRecord
100
AcDbBlockTableRecord
  2
*PAPER_SPACE
  0
BLOCK_RECORD
  5
2448
100
AcDbSymbolTableRecord
100
AcDbBlockTableRecord
  2
_OPEN
  0
BLOCK_RECORD
  5
25352
100
AcDbSymbolTableRecord
100
AcDbBlockTableRecord
  2
YA
  0
ENDTAB
  0
ENDSEC
  0
SECTION
  2
BLOCKS
  0
BLOCK
  5
3C
100
AcDbEntity
  8
0
100
AcDbBlockBegin
  2
*MODEL_SPACE
 70
     0
 10
0.0
 20
0.0
 30
0.0
  3
*MODEL_SPACE
  1

  0
ENDBLK
  5
3D
100
AcDbEntity
  8
0
100
AcDbBlockEnd
  0
BLOCK
  5
3A
100
AcDbEntity
 67
     1
  8
0
100
AcDbBlockBegin
  2
*PAPER_SPACE
 70
     0
 10
0.0
 20
0.0
 30
0.0
  3
*PAPER_SPACE
  1

  0
ENDBLK
  5
3B
100
AcDbEntity
 67
     1
  8
0
100
AcDbBlockEnd
  0
BLOCK
  5
2449
100
AcDbEntity
  8
0
 48
4.0
100
AcDbBlockBegin
  2
_OPEN
 70
     0
 10
0.0
 20
0.0
 30
0.0
  3
_OPEN
  1
H1111.DWG
  0
LINE
  5
244A
100
AcDbEntity
  8
0
  6
BYBLOCK
 62
     0
 48
4.0
100
AcDbLine
 10
-1.0
 20
0.166667
 30
0.0
 11
0.0
 21
0.0
 31
0.0
  0
LINE
  5
244B
100
AcDbEntity
  8
0
  6
BYBLOCK
 62
     0
 48
4.0
100
AcDbLine
 10
0.0
 20
0.0
 30
0.0
 11
-1.0
 21
-0.166667
 31
0.0
  0
LINE
  5
244C
100
AcDbEntity
  8
0
  6
BYBLOCK
 62
     0
 48
4.0
100
AcDbLine
 10
0.0
 20
0.0
 30
0.0
 11
-1.0
 21
0.0
 31
0.0
  0
ENDBLK
  5
244D
100
AcDbEntity
  8
0
 48
4.0
100
AcDbBlockEnd
  0
BLOCK
  5
2535A
100
AcDbEntity
  8
0
100
AcDbBlockBegin
  2
YA
 70
     0
 10
0.0
 20
0.0
 30
0.0
  3
YA
  1

  0
LINE
  5
25353
100
AcDbEntity
  8
0
100
AcDbLine
 10
-16.8065
 20
2.801
 30
0.0
 11
-8.4035
 21
2.801
 31
0.0
  0
LINE
  5
25354
100
AcDbEntity
  8
0
100
AcDbLine
 10
-8.4035
 20
2.801
 30
0.0
 11
-7.0025
 21
1.4005
 31
0.0
  0
LINE
  5
25355
100
AcDbEntity
  8
0
100
AcDbLine
 10
-7.0025
 20
1.4005
 30
0.0
 11
-2.862
 21
1.4005
 31
0.0
  0
LINE
  5
25356
100
AcDbEntity
  8
0
100
AcDbLine
 10
-2.862
 20
1.4005
 30
0.0
 11
-2.862
 21
2.801
 31
0.0
  0
LINE
  5
25357
100
AcDbEntity
  8
0
100
AcDbLine
 10
-2.862
 20
2.801
 30
0.0
 11
0.0
 21
0.0
 31
0.0
  0
LINE
  5
25358
100
AcDbEntity
  8
0
100
AcDbLine
 10
0.0
 20
0.0
 30
0.0
 11
-14.0055
 21
0.0
 31
0.0
  0
LINE
  5
25359
100
AcDbEntity
  8
0
100
AcDbLine
 10
-14.0055
 20
0.0
 30
0.0
 11
-16.8065
 21
2.801
 31
0.0
  0
ENDBLK
  5
2535B
100
AcDbEntity
  8
0
100
AcDbBlockEnd
  0
ENDSEC
  0
SECTION
  2
ENTITIES
  0
MTEXT
  5
ADA
100
AcDbEntity
  8
0
100
AcDbMText
 10
3801.392798
 20
498.463111
 30
0.0
 40
2.0
 41
472.264648
 71
     1
 72
     1
  1

  0
MTEXT
  5
ADB
100
AcDbEntity
  8
0
100
AcDbMText
 10
3890.499332
 20
578.507937
 30
0.0
 40
2.0
 41
454.443342
 71
     1
 72
     1
  1

  0
MTEXT
  5
ADC
100
AcDbEntity
  8
0
100
AcDbMText
 10
3837.035411
 20
-479.862464
 30
0.0
 40
2.0
 41
516.817915
 71
     1
 72
     1
  1

  0
TEXT
  5
2529
100
AcDbEntity
  8
0
  6
CONTINUOUS
100
AcDbText
 10
2754.589933
 20
81.266684
 30
0.0
 40
28.0
  1
J7B
 41
0.9
  7
PTSH
 72
     1
 11
2784.589933
 21
95.266684
 31
0.0
100
AcDbText
 73
     2
  0
POLYLINE
  5
2563
100
AcDbEntity
  8
0
100
AcDb2dPolyline
 66
     1
 10
0.0
 20
0.0
 30
0.0
 70
     1
  0
VERTEX
  5
281FC
100
AcDbEntity
  8
0
100
AcDbVertex
100
AcDb2dVertex
 10
110.0
 20
50.0
 30
0.0
  0
VERTEX
  5
281FD
100
AcDbEntity
  8
0
100
AcDbVertex
100
AcDb2dVertex
 10
2860.0
 20
50.0
 30
0.0
  0
VERTEX
  5
281FE
100
AcDbEntity
  8
0
100
AcDbVertex
100
AcDb2dVertex
 10
2860.0
 20
1910.0
 30
0.0
  0
VERTEX
  5
281FF
100
AcDbEntity
  8
0
100
AcDbVertex
100
AcDb2dVertex
 10
110.0
 20
1910.0
 30
0.0
  0
SEQEND
  5
28200
100
AcDbEntity
  8
0
  0
TEXT
  5
1B8BE
100
AcDbEntity
  8
0
100
AcDbText
 10
1328.413086
 20
165.483885
 30
0.0
 40
35.0
  1
TLV  J7B (PT)
 72
     4
 11
1503.246419
 21
180.483885
 31
0.0
100
AcDbText
  0
TEXT
  5
27C7F
100
AcDbEntity
  8
0
100
AcDbText
 10
957.709724
 20
583.419435
 30
0.0
 40
25.0
  1
25A
 72
     4
 11
991.043057
 21
595.919435
 31
0.0
100
AcDbText
  0
ARC
  5
27C80
100
AcDbEntity
  8
0
100
AcDbCircle
 10
986.578807
 20
784.462951
 30
0.0
 40
72.5
100
AcDbArc
 50
180.0
 51
319.601043
  0
LINE
  5
27C81
100
AcDbEntity
  8
0
100
AcDbLine
 10
943.578807
 20
711.962951
 30
0.0
 11
986.578807
 21
711.962951
 31
0.0
  0
LINE
  5
27C82
100
AcDbEntity
  8
0
100
AcDbLine
 10
966.578807
 20
768.962951
 30
0.0
 11
1006.578807
 21
768.962951
 31
0.0
  0
LINE
  5
27C83
100
AcDbEntity
  8
0
100
AcDbLine
 10
966.578807
 20
783.962951
 30
0.0
 11
1006.578807
 21
783.962951
 31
0.0
  0
LINE
  5
27C84
100
AcDbEntity
  8
0
100
AcDbLine
 10
1054.501871
 20
839.525129
 30
0.0
 11
918.655743
 21
839.525129
 31
0.0
  0
LINE
  5
27C85
100
AcDbEntity
  8
0
100
AcDbLine
 10
918.385753
 20
833.462951
 30
0.0
 11
1054.771861
 21
833.462951
 31
0.0
  0
LINE
  5
27C86
100
AcDbEntity
  8
0
100
AcDbLine
 10
896.578807
 20
893.462951
 30
0.0
 11
1079.078807
 21
893.462951
 31
0.0
  0
LINE
  5
27C87
100
AcDbEntity
  8
0
100
AcDbLine
 10
896.578807
 20
876.462951
 30
0.0
 11
1079.078807
 21
876.462951
 31
0.0
  0
LINE
  5
27C88
100
AcDbEntity
  8
0
100
AcDbLine
 10
896.578807
 20
909.462951
 30
0.0
 11
1079.078807
 21
909.462951
 31
0.0
  0
LINE
  5
27C89
100
AcDbEntity
  8
0
100
AcDbLine
 10
953.234615
 20
1115.203862
 30
0.0
 11
1019.922999
 21
1115.203862
 31
0.0
  0
LINE
  5
27C8A
100
AcDbEntity
  8
0
100
AcDbLine
 10
953.234615
 20
1300.203862
 30
0.0
 11
1019.922999
 21
1300.203862
 31
0.0
  0
LINE
  5
27C8B
100
AcDbEntity
  8
0
100
AcDbLine
 10
928.655743
 20
1549.460992
 30
0.0
 11
1064.501871
 21
1549.460992
 31
0.0
  0
LINE
  5
27C8C
100
AcDbEntity
  8
0
100
AcDbLine
 10
1064.771861
 20
1543.398814
 30
0.0
 11
928.385753
 21
1543.398814
 31
0.0
  0
LINE
  5
27C8D
100
AcDbEntity
  8
0
100
AcDbLine
 10
1086.578807
 20
1586.398814
 30
0.0
 11
904.078807
 21
1586.398814
 31
0.0
  0
ARC
  5
27C8E
100
AcDbEntity
  8
0
100
AcDbCircle
 10
996.578807
 20
1494.398814
 30
0.0
 40
72.5
100
AcDbArc
 50
220.398957
 51
0.0
  0
LINE
  5
27C8F
100
AcDbEntity
  8
0
100
AcDbLine
 10
1086.578807
 20
1603.398814
 30
0.0
 11
904.078807
 21
1603.398814
 31
0.0
  0
LINE
  5
27C90
100
AcDbEntity
  8
0
100
AcDbLine
 10
1086.578807
 20
1619.398814
 30
0.0
 11
904.078807
 21
1619.398814
 31
0.0
  0
ARC
  5
27C91
100
AcDbEntity
  8
0
100
AcDbCircle
 10
996.578807
 20
1935.492674
 30
0.0
 40
304.310778
100
AcDbArc
 50
264.701343
 51
275.298657
  0
LINE
  5
27C92
100
AcDbEntity
  8
0
100
AcDbLine
 10
1029.578807
 20
1640.398814
 30
0.0
 11
963.578807
 21
1640.398814
 31
0.0
  0
ARC
  5
27C93
100
AcDbEntity
  8
0
100
AcDbCircle
 10
986.578807
 20
1207.703862
 30
0.0
 40
70.649379
100
AcDbArc
 50
13.58193
 51
346.41807
  0
CIRCLE
  5
27C94
100
AcDbEntity
  8
0
100
AcDbCircle
 10
986.578807
 20
1207.703862
 30
0.0
 40
35.0
  0
CIRCLE
  5
27C95
100
AcDbEntity
  8
0
100
AcDbCircle
 10
986.578807
 20
1207.703862
 30
0.0
 40
8.5
  0
CIRCLE
  5
27C96
100
AcDbEntity
  8
0
100
AcDbCircle
 10
986.578807
 20
1207.703862
 30
0.0
 40
10.0
  0
LINE
  5
27C97
100
AcDbEntity
  8
0
100
AcDbLine
 10
953.578807
 20
930.462951
 30
0.0
 11
1019.578807
 21
930.462951
 31
0.0
  0
LINE
  5
27C98
100
AcDbEntity
  8
0
100
AcDbLine
 10
976.578807
 20
939.462951
 30
0.0
 11
996.578807
 21
939.462951
 31
0.0
  0
ARC
  5
27C99
100
AcDbEntity
  8
0
100
AcDbCircle
 10
986.578807
 20
1225.556811
 30
0.0
 40
304.310778
100
AcDbArc
 50
264.701343
 51
275.298657
  0
LINE
  5
27C9A
100
AcDbEntity
  8
0
100
AcDbLine
 10
979.078807
 20
951.462951
 30
0.0
 11
994.078807
 21
951.462951
 31
0.0
  0
TEXT
  5
27C9B
100
AcDbEntity
  8
0
100
AcDbText
 10
206.269783
 20
1560.398814
 30
0.0
 40
35.0
  1
背面
100
AcDbText
  0
LINE
  5
27C9C
100
AcDbEntity
  8
0
100
AcDbLine
 10
904.078807
 20
1586.398814
 30
0.0
 11
904.078807
 21
1637.398814
 31
0.0
  0
ARC
  5
27C9D
100
AcDbEntity
  8
0
100
AcDbCircle
 10
955.578807
 20
1636.940456
 30
0.0
 40
6.0
100
AcDbArc
 50
286.309265
 51
0.0
  0
TEXT
  5
27C9E
100
AcDbEntity
  8
0
100
AcDbText
 10
206.269783
 20
850.462951
 30
0.0
 40
35.0
  1
正面
100
AcDbText
  0
CIRCLE
  5
27C9F
100
AcDbEntity
  8
0
100
AcDbCircle
 10
605.848786
 20
870.962951
 30
0.0
 40
25.0
  0
LINE
  5
27CA0
100
AcDbEntity
  8
0
100
AcDbLine
 10
513.348786
 20
876.462951
 30
0.0
 11
513.348786
 21
909.462951
 31
0.0
  0
LINE
  5
27CA1
100
AcDbEntity
  8
0
100
AcDbLine
 10
568.784032
 20
907.462951
 30
0.0
 11
568.784032
 21
878.462951
 31
0.0
  0
LINE
  5
27CA2
100
AcDbEntity
  8
0
100
AcDbLine
 10
698.348786
 20
909.462951
 30
0.0
 11
698.348786
 21
876.462951
 31
0.0
  0
LINE
  5
27CA3
100
AcDbEntity
  8
0
100
AcDbLine
 10
645.413541
 20
907.462951
 30
0.0
 11
645.413541
 21
878.462951
 31
0.0
  0
LINE
  5
27CA5
100
AcDbEntity
  8
0
100
AcDbLine
 10
881.373036
 20
891.462951
 30
0.0
 11
881.373036
 21
850.462951
 31
0.0
  0
LINE
  5
27CA6
100
AcDbEntity
  8
0
100
AcDbLine
 10
873.578807
 20
895.962951
 30
0.0
 11
873.578807
 21
845.962951
 31
0.0
  0
LINE
  5
27CA7
100
AcDbEntity
  8
0
100
AcDbLine
 10
851.578807
 20
895.962951
 30
0.0
 11
851.578807
 21
870.962951
 31
0.0
  0
LINE
  5
27CA8
100
AcDbEntity
  8
0
100
AcDbLine
 10
896.578807
 20
909.462951
 30
0.0
 11
896.578807
 21
876.462951
 31
0.0
  0
LINE
  5
27CA9
100
AcDbEntity
  8
0
100
AcDbLine
 10
948.264052
 20
907.462951
 30
0.0
 11
948.264052
 21
878.462951
 31
0.0
  0
ARC
  5
27CAA
100
AcDbEntity
  8
0
100
AcDbCircle
 10
605.848786
 20
784.462951
 30
0.0
 40
72.5
100
AcDbArc
 50
180.0
 51
249.856604
  0
LINE
  5
27CAB
100
AcDbEntity
  8
0
100
AcDbLine
 10
581.461289
 20
876.462951
 30
0.0
 11
513.348786
 21
876.462951
 31
0.0
  0
LINE
  5
27CAC
100
AcDbEntity
  8
0
100
AcDbLine
 10
529.848786
 20
876.462951
 30
0.0
 11
529.848786
 21
839.525129
 31
0.0
  0
LINE
  5
27CAD
100
AcDbEntity
  8
0
100
AcDbLine
 10
529.848786
 20
839.525129
 30
0.0
 11
533.348786
 21
833.462951
 31
0.0
  0
LINE
  5
27CAE
100
AcDbEntity
  8
0
100
AcDbLine
 10
533.348786
 20
833.462951
 30
0.0
 11
533.348786
 21
784.462951
 31
0.0
  0
ARC
  5
27CAF
100
AcDbEntity
  8
0
100
AcDbCircle
 10
584.848786
 20
690.962951
 30
0.0
 40
2.0
100
AcDbArc
 50
180.0
 51
270.0
  0
ARC
  5
27CB0
100
AcDbEntity
  8
0
100
AcDbCircle
 10
626.848786
 20
690.962951
 30
0.0
 40
2.0
100
AcDbArc
 50
270.0
 51
0.0
  0
LINE
  5
27CB1
100
AcDbEntity
  8
0
100
AcDbLine
 10
626.848786
 20
688.962951
 30
0.0
 11
584.848786
 21
688.962951
 31
0.0
  0
LINE
  5
27CB2
100
AcDbEntity
  8
0
100
AcDbLine
 10
698.348786
 20
876.462951
 30
0.0
 11
630.236283
 21
876.462951
 31
0.0
  0
ARC
  5
27CB3
100
AcDbEntity
  8
0
100
AcDbCircle
 10
605.848786
 20
784.462951
 30
0.0
 40
72.5
100
AcDbArc
 50
290.143396
 51
0.0
  0
LINE
  5
27CB4
100
AcDbEntity
  8
0
100
AcDbLine
 10
674.04184
 20
833.462951
 30
0.0
 11
537.655732
 21
833.462951
 31
0.0
  0
LINE
  5
27CB5
100
AcDbEntity
  8
0
100
AcDbLine
 10
537.925722
 20
839.525129
 30
0.0
 11
673.77185
 21
839.525129
 31
0.0
  0
CIRCLE
  5
27CB6
100
AcDbEntity
  8
0
100
AcDbCircle
 10
605.848786
 20
727.962951
 30
0.0
 40
14.0
  0
ARC
  5
27CB7
100
AcDbEntity
  8
0
100
AcDbCircle
 10
605.848786
 20
727.962951
 30
0.0
 40
16.0
100
AcDbArc
 50
180.0
 51
0.0
  0
POLYLINE
  5
27CB8
100
AcDbEntity
  8
0
100
AcDb2dPolyline
 66
     1
 10
0.0
 20
0.0
 30
0.0
 70
     1
  0
VERTEX
  5
28201
100
AcDbEntity
  8
0
100
AcDbVertex
100
AcDb2dVertex
 10
605.848786
 20
736.293951
 30
0.0
  0
VERTEX
  5
28202
100
AcDbEntity
  8
0
100
AcDbVertex
100
AcDb2dVertex
 10
597.517786
 20
727.962951
 30
0.0
  0
VERTEX
  5
28203
100
AcDbEntity
  8
0
100
AcDbVertex
100
AcDb2dVertex
 10
605.848786
 20
719.631951
 30
0.0
  0
VERTEX
  5
28204
100
AcDbEntity
  8
0
100
AcDbVertex
100
AcDb2dVertex
 10
614.179786
 20
727.962951
 30
0.0
  0
SEQEND
  5
28205
100
AcDbEntity
  8
0
  0
LINE
  5
27CB9
100
AcDbEntity
  8
0
100
AcDbLine
 10
589.848786
 20
727.962951
 30
0.0
 11
589.848786
 21
750.75276
 31
0.0
  0
ARC
  5
27CBA
100
AcDbEntity
  8
0
100
AcDbCircle
 10
587.848786
 20
734.422424
 30
0.0
 40
2.0
100
AcDbArc
 50
0.0
 51
80.920725
  0
ARC
  5
27CBB
100
AcDbEntity
  8
0
100
AcDbCircle
 10
605.848786
 20
847.061061
 30
0.0
 40
112.067797
100
AcDbArc
 50
259.338405
 51
260.920725
  0
ARC
  5
27CBC
100
AcDbEntity
  8
0
100
AcDbCircle
 10
579.848786
 20
734.993263
 30
0.0
 40
3.0
100
AcDbArc
 50
0.0
 51
69.856604
  0
ARC
  5
27CBD
100
AcDbEntity
  8
0
100
AcDbCircle
 10
586.848786
 20
750.75276
 30
0.0
 40
3.0
100
AcDbArc
 50
0.0
 51
45.0
  0
ARC
  5
27CBE
100
AcDbEntity
  8
0
100
AcDbCircle
 10
579.848786
 20
713.581007
 30
0.0
 40
3.0
100
AcDbArc
 50
0.0
 51
69.856604
  0
LINE
  5
27CBF
100
AcDbEntity
  8
0
100
AcDbLine
 10
582.848786
 20
690.962951
 30
0.0
 11
582.848786
 21
734.993263
 31
0.0
  0
LINE
  5
27CC0
100
AcDbEntity
  8
0
100
AcDbLine
 10
621.848786
 20
727.962951
 30
0.0
 11
621.848786
 21
750.75276
 31
0.0
  0
ARC
  5
27CC1
100
AcDbEntity
  8
0
100
AcDbCircle
 10
623.848786
 20
734.422424
 30
0.0
 40
2.0
100
AcDbArc
 50
99.079275
 51
180.0
  0
ARC
  5
27CC2
100
AcDbEntity
  8
0
100
AcDbCircle
 10
605.848786
 20
847.061061
 30
0.0
 40
112.067797
100
AcDbArc
 50
279.079275
 51
280.661595
  0
ARC
  5
27CC3
100
AcDbEntity
  8
0
100
AcDbCircle
 10
631.848786
 20
734.993263
 30
0.0
 40
3.0
100
AcDbArc
 50
110.143396
 51
180.0
  0
ARC
  5
27CC4
100
AcDbEntity
  8
0
100
AcDbCircle
 10
624.848786
 20
750.75276
 30
0.0
 40
3.0
100
AcDbArc
 50
135.0
 51
180.0
  0
ARC
  5
27CC5
100
AcDbEntity
  8
0
100
AcDbCircle
 10
631.848786
 20
713.581007
 30
0.0
 40
3.0
100
AcDbArc
 50
110.143396
 51
180.0
  0
LINE
  5
27CC6
100
AcDbEntity
  8
0
100
AcDbLine
 10
628.848786
 20
690.962951
 30
0.0
 11
628.848786
 21
734.993263
 31
0.0
  0
LINE
  5
27CC7
100
AcDbEntity
  8
0
100
AcDbLine
 10
683.348786
 20
783.962951
 30
0.0
 11
683.348786
 21
768.962951
 31
0.0
  0
LINE
  5
27CC8
100
AcDbEntity
  8
0
100
AcDbLine
 10
676.672511
 20
768.962951
 30
0.0
 11
683.348786
 21
768.962951
 31
0.0
  0
LINE
  5
27CC9
100
AcDbEntity
  8
0
100
AcDbLine
 10
678.347062
 20
783.962951
 30
0.0
 11
683.348786
 21
783.962951
 31
0.0
  0
LINE
  5
27CCA
100
AcDbEntity
  8
0
100
AcDbLine
 10
681.848786
 20
876.462951
 30
0.0
 11
681.848786
 21
839.525129
 31
0.0
  0
LINE
  5
27CCB
100
AcDbEntity
  8
0
100
AcDbLine
 10
681.848786
 20
839.525129
 30
0.0
 11
678.348786
 21
833.462951
 31
0.0
  0
LINE
  5
27CCC
100
AcDbEntity
  8
0
100
AcDbLine
 10
678.348786
 20
833.462951
 30
0.0
 11
678.348786
 21
784.462951
 31
0.0
  0
ARC
  5
27CCD
100
AcDbEntity
  8
0
100
AcDbCircle
 10
935.578807
 20
690.962951
 30
0.0
 40
2.0
100
AcDbArc
 50
180.0
 51
270.0
  0
ARC
  5
27CCE
100
AcDbEntity
  8
0
100
AcDbCircle
 10
938.578807
 20
690.962951
 30
0.0
 40
2.0
100
AcDbArc
 50
270.0
 51
0.0
  0
LINE
  5
27CCF
100
AcDbEntity
  8
0
100
AcDbLine
 10
938.578807
 20
688.962951
 30
0.0
 11
935.578807
 21
688.962951
 31
0.0
  0
LINE
  5
27CD0
100
AcDbEntity
  8
0
100
AcDbLine
 10
909.578807
 20
719.631951
 30
0.0
 11
918.578807
 21
719.631951
 31
0.0
  0
LINE
  5
27CD1
100
AcDbEntity
  8
0
100
AcDbLine
 10
909.578807
 20
727.962951
 30
0.0
 11
918.578807
 21
727.962951
 31
0.0
  0
LINE
  5
27CD2
100
AcDbEntity
  8
0
100
AcDbLine
 10
909.578807
 20
736.293951
 30
0.0
 11
918.578807
 21
736.293951
 31
0.0
  0
LINE
  5
27CD3
100
AcDbEntity
  8
0
100
AcDbLine
 10
909.578807
 20
736.293951
 30
0.0
 11
909.578807
 21
719.631951
 31
0.0
  0
LINE
  5
27CD4
100
AcDbEntity
  8
0
100
AcDbLine
 10
966.578807
 20
783.962951
 30
0.0
 11
966.578807
 21
768.962951
 31
0.0
  0
ARC
  5
27CD5
100
AcDbEntity
  8
0
100
AcDbCircle
 10
930.578807
 20
708.962951
 30
0.0
 40
3.0
100
AcDbArc
 50
0.0
 51
90.0
  0
LINE
  5
27CD6
100
AcDbEntity
  8
0
100
AcDbLine
 10
929.219908
 20
711.962951
 30
0.0
 11
930.578807
 21
711.962951
 31
0.0
  0
ARC
  5
27CD7
100
AcDbEntity
  8
0
100
AcDbCircle
 10
933.578807
 20
720.962951
 30
0.0
 40
10.0
100
AcDbArc
 50
230.284863
 51
244.158067
  0
ARC
  5
27CD8
100
AcDbEntity
  8
0
100
AcDbCircle
 10
930.578807
 20
733.824527
 30
0.0
 40
3.0
100
AcDbArc
 50
0.0
 51
42.121702
  0
ARC
  5
27CD9
100
AcDbEntity
  8
0
100
AcDbCircle
 10
943.578807
 20
708.962951
 30
0.0
 40
3.0
100
AcDbArc
 50
90.0
 51
180.0
  0
ARC
  5
27CDA
100
AcDbEntity
  8
0
100
AcDbCircle
 10
943.578807
 20
722.404511
 30
0.0
 40
3.0
100
AcDbArc
 50
55.282094
 51
180.0
  0
LINE
  5
27CDB
100
AcDbEntity
  8
0
100
AcDbLine
 10
933.578807
 20
733.824527
 30
0.0
 11
933.578807
 21
690.962951
 31
0.0
  0
LINE
  5
27CDC
100
AcDbEntity
  8
0
100
AcDbLine
 10
940.578807
 20
722.404511
 30
0.0
 11
940.578807
 21
690.962951
 31
0.0
  0
LINE
  5
27CDD
100
AcDbEntity
  8
0
100
AcDbLine
 10
918.578807
 20
740.768329
 30
0.0
 11
918.578807
 21
715.962951
 31
0.0
  0
LINE
  5
27CDE
100
AcDbEntity
  8
0
100
AcDbLine
 10
920.578807
 20
713.962951
 30
0.0
 11
925.272183
 21
713.962951
 31
0.0
  0
ARC
  5
27CDF
100
AcDbEntity
  8
0
100
AcDbCircle
 10
920.578807
 20
715.962951
 30
0.0
 40
2.0
100
AcDbArc
 50
180.0
 51
270.0
  0
ARC
  5
27CE0
100
AcDbEntity
  8
0
100
AcDbCircle
 10
917.080606
 20
747.962951
 30
0.0
 40
6.0
100
AcDbArc
 50
295.930156
 51
27.708161
  0
ARC
  5
27CE1
100
AcDbEntity
  8
0
100
AcDbCircle
 10
920.578807
 20
740.768329
 30
0.0
 40
2.0
100
AcDbArc
 50
115.930156
 51
180.0
  0
ARC
  5
27CE2
100
AcDbEntity
  8
0
100
AcDbCircle
 10
925.272183
 20
710.962951
 30
0.0
 40
3.0
100
AcDbArc
 50
50.284863
 51
90.0
  0
LINE
  5
27CE3
100
AcDbEntity
  8
0
100
AcDbLine
 10
910.578807
 20
839.525129
 30
0.0
 11
914.078807
 21
833.462951
 31
0.0
  0
ARC
  5
27CE4
100
AcDbEntity
  8
0
100
AcDbCircle
 10
905.578807
 20
871.462951
 30
0.0
 40
5.0
100
AcDbArc
 50
0.0
 51
90.0
  0
ARC
  5
27CE5
100
AcDbEntity
  8
0
100
AcDbCircle
 10
904.578807
 20
844.462951
 30
0.0
 40
6.0
100
AcDbArc
 50
0.0
 51
90.0
  0
LINE
  5
27CE6
100
AcDbEntity
  8
0
100
AcDbLine
 10
881.373036
 20
850.462951
 30
0.0
 11
873.578807
 21
845.962951
 31
0.0
  0
LINE
  5
27CE7
100
AcDbEntity
  8
0
100
AcDbLine
 10
904.578807
 20
850.462951
 30
0.0
 11
881.373036
 21
850.462951
 31
0.0
  0
LINE
  5
27CE8
100
AcDbEntity
  8
0
100
AcDbLine
 10
851.578807
 20
870.962951
 30
0.0
 11
851.578807
 21
845.962951
 31
0.0
  0
LINE
  5
27CE9
100
AcDbEntity
  8
0
100
AcDbLine
 10
851.578807
 20
845.962951
 30
0.0
 11
873.578807
 21
845.962951
 31
0.0
  0
LINE
  5
27CEA
100
AcDbEntity
  8
0
100
AcDbLine
 10
910.578807
 20
851.621497
 30
0.0
 11
910.578807
 21
871.462951
 31
0.0
  0
LINE
  5
27CEB
100
AcDbEntity
  8
0
100
AcDbLine
 10
910.578807
 20
844.462951
 30
0.0
 11
910.578807
 21
839.525129
 31
0.0
  0
LINE
  5
27CEC
100
AcDbEntity
  8
0
100
AcDbLine
 10
914.078807
 20
833.462951
 30
0.0
 11
914.078807
 21
784.462951
 31
0.0
  0
LINE
  5
27CED
100
AcDbEntity
  8
0
100
AcDbLine
 10
594.951539
 20
893.462951
 30
0.0
 11
513.348786
 21
893.462951
 31
0.0
  0
LINE
  5
27CEE
100
AcDbEntity
  8
0
100
AcDbLine
 10
698.348786
 20
909.462951
 30
0.0
 11
513.348786
 21
909.462951
 31
0.0
  0
TEXT
  5
27CEF
100
AcDbEntity
  8
0
100
AcDbText
 10
206.269783
 20
1187.203862
 30
0.0
 40
35.0
  1
平面
100
AcDbText
  0
LINE
  5
27CF0
100
AcDbEntity
  8
0
100
AcDbLine
 10
533.721267
 20
915.862951
 30
0.0
 11
533.721267
 21
909.462951
 31
0.0
  0
LINE
  5
27CF1
100
AcDbEntity
  8
0
100
AcDbLine
 10
525.346267
 20
914.958951
 30
0.0
 11
525.346267
 21
909.462951
 31
0.0
  0
LINE
  5
27CF2
100
AcDbEntity
  8
0
100
AcDbLine
 10
516.971267
 20
915.862951
 30
0.0
 11
516.971267
 21
909.462951
 31
0.0
  0
ARC
  5
27CF3
100
AcDbEntity
  8
0
100
AcDbCircle
 10
521.158767
 20
905.712303
 30
0.0
 40
10.150648
100
AcDbArc
 50
65.635807
 51
114.364193
  0
ARC
  5
27CF4
100
AcDbEntity
  8
0
100
AcDbCircle
 10
529.533767
 20
905.712303
 30
0.0
 40
10.150648
100
AcDbArc
 50
65.635807
 51
114.364193
  0
LINE
  5
27CF5
100
AcDbEntity
  8
0
100
AcDbLine
 10
533.721267
 20
915.862951
 30
0.0
 11
516.971267
 21
915.862951
 31
0.0
  0
LINE
  5
27CF6
100
AcDbEntity
  8
0
100
AcDbLine
 10
944.749334
 20
1296.689144
 30
0.0
 11
900.093526
 21
1252.033336
 31
0.0
  0
INSERT
  5
27CF7
100
AcDbEntity
  8
0
100
AcDbBlockReference
  2
YA
 10
824.425291
 20
1207.703862
 30
0.0
 41
2.856021
 42
2.856021
 43
2.856021
  0
LINE
  5
27CF8
100
AcDbEntity
  8
0
100
AcDbLine
 10
698.348786
 20
893.462951
 30
0.0
 11
616.746033
 21
893.462951
 31
0.0
  0
ARC
  5
27CF9
100
AcDbEntity
  8
0
100
AcDbCircle
 10
605.848786
 20
786.879649
 30
0.0
 40
140.0
100
AcDbArc
 50
62.302815
 51
73.690735
  0
LINE
  5
27CFA
100
AcDbEntity
  8
0
100
AcDbLine
 10
619.848786
 20
928.462951
 30
0.0
 11
591.848786
 21
928.462951
 31
0.0
  0
LINE
  5
27CFB
100
AcDbEntity
  8
0
100
AcDbLine
 10
595.848952
 20
939.462951
 30
0.0
 11
615.848952
 21
939.462951
 31
0.0
  0
LINE
  5
27CFC
100
AcDbEntity
  8
0
100
AcDbLine
 10
595.848952
 20
951.462951
 30
0.0
 11
615.848952
 21
951.462951
 31
0.0
  0
LINE
  5
27CFD
100
AcDbEntity
  8
0
100
AcDbLine
 10
572.848786
 20
930.462951
 30
0.0
 11
638.848786
 21
930.462951
 31
0.0
  0
LINE
  5
27CFE
100
AcDbEntity
  8
0
100
AcDbLine
 10
580.930327
 20
915.862951
 30
0.0
 11
580.930327
 21
909.462951
 31
0.0
  0
LINE
  5
27CFF
100
AcDbEntity
  8
0
100
AcDbLine
 10
564.180327
 20
915.862951
 30
0.0
 11
564.180327
 21
909.462951
 31
0.0
  0
ARC
  5
27D00
100
AcDbEntity
  8
0
100
AcDbCircle
 10
568.367827
 20
905.712303
 30
0.0
 40
10.150648
100
AcDbArc
 50
65.635807
 51
114.364193
  0
LINE
  5
27D01
100
AcDbEntity
  8
0
100
AcDbLine
 10
572.555327
 20
914.958951
 30
0.0
 11
572.555327
 21
909.462951
 31
0.0
  0
LINE
  5
27D02
100
AcDbEntity
  8
0
100
AcDbLine
 10
580.930327
 20
915.862951
 30
0.0
 11
564.180327
 21
915.862951
 31
0.0
  0
ARC
  5
27D03
100
AcDbEntity
  8
0
100
AcDbCircle
 10
576.742827
 20
905.712303
 30
0.0
 40
10.150648
100
AcDbArc
 50
65.635807
 51
114.364193
  0
ARC
  5
27D04
100
AcDbEntity
  8
0
100
AcDbCircle
 10
591.848786
 20
926.462951
 30
0.0
 40
2.0
100
AcDbArc
 50
90.0
 51
180.0
  0
LINE
  5
27D05
100
AcDbEntity
  8
0
100
AcDbLine
 10
600.581152
 20
939.462951
 30
0.0
 11
600.581152
 21
951.462951
 31
0.0
  0
LINE
  5
27D06
100
AcDbEntity
  8
0
100
AcDbLine
 10
595.848952
 20
951.462951
 30
0.0
 11
595.848952
 21
930.462951
 31
0.0
  0
ARC
  5
27D07
100
AcDbEntity
  8
0
100
AcDbCircle
 10
572.848786
 20
928.462951
 30
0.0
 40
2.0
100
AcDbArc
 50
90.0
 51
180.0
  0
LINE
  5
27D08
100
AcDbEntity
  8
0
100
AcDbLine
 10
570.848786
 20
928.462951
 30
0.0
 11
570.848786
 21
927.004593
 31
0.0
  0
ARC
  5
27D09
100
AcDbEntity
  8
0
100
AcDbCircle
 10
564.848786
 20
927.004593
 30
0.0
 40
6.0
100
AcDbArc
 50
286.309265
 51
0.0
  0
ARC
  5
27D0A
100
AcDbEntity
  8
0
100
AcDbCircle
 10
535.199407
 20
921.462951
 30
0.0
 40
12.0
100
AcDbArc
 50
276.39631
 51
297.697185
  0
ARC
  5
27D0B
100
AcDbEntity
  8
0
100
AcDbCircle
 10
605.848786
 20
786.879649
 30
0.0
 40
140.0
100
AcDbArc
 50
106.309265
 51
117.697185
  0
ARC
  5
27D0C
100
AcDbEntity
  8
0
100
AcDbCircle
 10
605.848786
 20
1225.556811
 30
0.0
 40
304.310778
100
AcDbArc
 50
264.701343
 51
266.986123
  0
LINE
  5
27D0D
100
AcDbEntity
  8
0
100
AcDbLine
 10
589.848786
 20
912.462951
 30
0.0
 11
589.848786
 21
926.462951
 31
0.0
  0
ARC
  5
27D0E
100
AcDbEntity
  8
0
100
AcDbCircle
 10
586.848786
 20
912.462951
 30
0.0
 40
3.0
100
AcDbArc
 50
270.0
 51
360.0
  0
ARC
  5
27D0F
100
AcDbEntity
  8
0
100
AcDbCircle
 10
634.954745
 20
905.712303
 30
0.0
 40
10.150648
100
AcDbArc
 50
65.635807
 51
114.364193
  0
LINE
  5
27D10
100
AcDbEntity
  8
0
100
AcDbLine
 10
630.767245
 20
915.862951
 30
0.0
 11
647.517245
 21
915.862951
 31
0.0
  0
LINE
  5
27D11
100
AcDbEntity
  8
0
100
AcDbLine
 10
630.767245
 20
915.862951
 30
0.0
 11
630.767245
 21
909.462951
 31
0.0
  0
LINE
  5
27D12
100
AcDbEntity
  8
0
100
AcDbLine
 10
639.142245
 20
914.958951
 30
0.0
 11
639.142245
 21
909.462951
 31
0.0
  0
ARC
  5
27D13
100
AcDbEntity
  8
0
100
AcDbCircle
 10
643.329745
 20
905.712303
 30
0.0
 40
10.150648
100
AcDbArc
 50
65.635807
 51
114.364193
  0
LINE
  5
27D14
100
AcDbEntity
  8
0
100
AcDbLine
 10
647.517245
 20
915.862951
 30
0.0
 11
647.517245
 21
909.462951
 31
0.0
  0
LINE
  5
27D15
100
AcDbEntity
  8
0
100
AcDbLine
 10
611.116752
 20
939.462951
 30
0.0
 11
611.116752
 21
951.462951
 31
0.0
  0
ARC
  5
27D16
100
AcDbEntity
  8
0
100
AcDbCircle
 10
619.848786
 20
926.462951
 30
0.0
 40
2.0
100
AcDbArc
 50
0.0
 51
90.0
  0
LINE
  5
27D17
100
AcDbEntity
  8
0
100
AcDbLine
 10
615.848952
 20
951.462951
 30
0.0
 11
615.848952
 21
930.462951
 31
0.0
  0
ARC
  5
27D18
100
AcDbEntity
  8
0
100
AcDbCircle
 10
638.848786
 20
928.462951
 30
0.0
 40
2.0
100
AcDbArc
 50
0.0
 51
90.0
  0
LINE
  5
27D19
100
AcDbEntity
  8
0
100
AcDbLine
 10
640.848786
 20
928.462951
 30
0.0
 11
640.848786
 21
927.004593
 31
0.0
  0
ARC
  5
27D1A
100
AcDbEntity
  8
0
100
AcDbCircle
 10
646.848786
 20
927.004593
 30
0.0
 40
6.0
100
AcDbArc
 50
180.0
 51
253.690735
  0
ARC
  5
27D1B
100
AcDbEntity
  8
0
100
AcDbCircle
 10
605.848786
 20
1225.556811
 30
0.0
 40
304.310778
100
AcDbArc
 50
273.013877
 51
275.298657
  0
ARC
  5
27D1C
100
AcDbEntity
  8
0
100
AcDbCircle
 10
624.848786
 20
912.462951
 30
0.0
 40
3.0
100
AcDbArc
 50
180.0
 51
270.0
  0
LINE
  5
27D1D
100
AcDbEntity
  8
0
100
AcDbLine
 10
621.848786
 20
912.462951
 30
0.0
 11
621.848786
 21
926.462951
 31
0.0
  0
LINE
  5
27D1E
100
AcDbEntity
  8
0
100
AcDbLine
 10
677.976305
 20
915.862951
 30
0.0
 11
694.726305
 21
915.862951
 31
0.0
  0
ARC
  5
27D1F
100
AcDbEntity
  8
0
100
AcDbCircle
 10
682.163805
 20
905.712303
 30
0.0
 40
10.150648
100
AcDbArc
 50
65.635807
 51
114.364193
  0
LINE
  5
27D20
100
AcDbEntity
  8
0
100
AcDbLine
 10
677.976305
 20
915.862951
 30
0.0
 11
677.976305
 21
909.462951
 31
0.0
  0
LINE
  5
27D21
100
AcDbEntity
  8
0
100
AcDbLine
 10
694.726305
 20
915.862951
 30
0.0
 11
694.726305
 21
909.462951
 31
0.0
  0
ARC
  5
27D22
100
AcDbEntity
  8
0
100
AcDbCircle
 10
690.538805
 20
905.712303
 30
0.0
 40
10.150648
100
AcDbArc
 50
65.635807
 51
114.364193
  0
LINE
  5
27D23
100
AcDbEntity
  8
0
100
AcDbLine
 10
686.351305
 20
914.958951
 30
0.0
 11
686.351305
 21
909.462951
 31
0.0
  0
ARC
  5
27D24
100
AcDbEntity
  8
0
100
AcDbCircle
 10
676.498165
 20
921.462951
 30
0.0
 40
12.0
100
AcDbArc
 50
242.302815
 51
270.0
  0
LINE
  5
27D25
100
AcDbEntity
  8
0
100
AcDbLine
 10
915.701288
 20
915.862951
 30
0.0
 11
899.201288
 21
915.862951
 31
0.0
  0
ARC
  5
27D26
100
AcDbEntity
  8
0
100
AcDbCircle
 10
914.812288
 20
911.031627
 30
0.0
 40
4.630982
100
AcDbArc
 50
58.000676
 51
121.999324
  0
ARC
  5
27D27
100
AcDbEntity
  8
0
100
AcDbCircle
 10
907.451288
 20
898.199959
 30
0.0
 40
17.462601
100
AcDbArc
 50
73.680072
 51
106.319928
  0
LINE
  5
27D28
100
AcDbEntity
  8
0
100
AcDbLine
 10
881.373036
 20
891.462951
 30
0.0
 11
873.578807
 21
895.962951
 31
0.0
  0
LINE
  5
27D29
100
AcDbEntity
  8
0
100
AcDbLine
 10
894.078807
 20
891.462951
 30
0.0
 11
881.373036
 21
891.462951
 31
0.0
  0
LINE
  5
27D2A
100
AcDbEntity
  8
0
100
AcDbLine
 10
881.373036
 20
891.462951
 30
0.0
 11
896.578807
 21
891.462951
 31
0.0
  0
ARC
  5
27D2B
100
AcDbEntity
  8
0
100
AcDbCircle
 10
900.090288
 20
911.031627
 30
0.0
 40
4.630982
100
AcDbArc
 50
58.000676
 51
121.999324
  0
LINE
  5
27D2C
100
AcDbEntity
  8
0
100
AcDbLine
 10
899.201288
 20
915.862951
 30
0.0
 11
897.636288
 21
914.958951
 31
0.0
  0
LINE
  5
27D2D
100
AcDbEntity
  8
0
100
AcDbLine
 10
902.544288
 20
914.958951
 30
0.0
 11
902.544288
 21
909.462951
 31
0.0
  0
LINE
  5
27D2E
100
AcDbEntity
  8
0
100
AcDbLine
 10
897.636288
 20
914.958951
 30
0.0
 11
897.636288
 21
909.462951
 31
0.0
  0
LINE
  5
27D2F
100
AcDbEntity
  8
0
100
AcDbLine
 10
873.578807
 20
895.962951
 30
0.0
 11
851.578807
 21
895.962951
 31
0.0
  0
LINE
  5
27D30
100
AcDbEntity
  8
0
100
AcDbLine
 10
912.358288
 20
914.958951
 30
0.0
 11
912.358288
 21
909.462951
 31
0.0
  0
ARC
  5
27D31
100
AcDbEntity
  8
0
100
AcDbCircle
 10
954.535348
 20
898.199959
 30
0.0
 40
17.462601
100
AcDbArc
 50
73.680072
 51
106.319928
  0
LINE
  5
27D32
100
AcDbEntity
  8
0
100
AcDbLine
 10
962.785348
 20
915.862951
 30
0.0
 11
946.285348
 21
915.862951
 31
0.0
  0
LINE
  5
27D33
100
AcDbEntity
  8
0
100
AcDbLine
 10
946.285348
 20
915.862951
 30
0.0
 11
944.720348
 21
914.958951
 31
0.0
  0
ARC
  5
27D34
100
AcDbEntity
  8
0
100
AcDbCircle
 10
947.174348
 20
911.031627
 30
0.0
 40
4.630982
100
AcDbArc
 50
58.000676
 51
121.999324
  0
LINE
  5
27D35
100
AcDbEntity
  8
0
100
AcDbLine
 10
949.628348
 20
914.958951
 30
0.0
 11
949.628348
 21
909.462951
 31
0.0
  0
LINE
  5
27D36
100
AcDbEntity
  8
0
100
AcDbLine
 10
944.720348
 20
914.958951
 30
0.0
 11
944.720348
 21
909.462951
 31
0.0
  0
ARC
  5
27D37
100
AcDbEntity
  8
0
100
AcDbCircle
 10
961.896348
 20
911.031627
 30
0.0
 40
4.630982
100
AcDbArc
 50
58.000676
 51
121.999324
  0
LINE
  5
27D38
100
AcDbEntity
  8
0
100
AcDbLine
 10
964.350348
 20
914.958951
 30
0.0
 11
962.785348
 21
915.862951
 31
0.0
  0
LINE
  5
27D39
100
AcDbEntity
  8
0
100
AcDbLine
 10
959.442348
 20
914.958951
 30
0.0
 11
959.442348
 21
909.462951
 31
0.0
  0
LINE
  5
27D3A
100
AcDbEntity
  8
0
100
AcDbLine
 10
964.350348
 20
909.462951
 30
0.0
 11
964.350348
 21
914.958951
 31
0.0
  0
LINE
  5
27D3B
100
AcDbEntity
  8
0
100
AcDbLine
 10
917.266288
 20
914.958951
 30
0.0
 11
915.701288
 21
915.862951
 31
0.0
  0
LINE
  5
27D3C
100
AcDbEntity
  8
0
100
AcDbLine
 10
917.266288
 20
909.462951
 30
0.0
 11
917.266288
 21
914.958951
 31
0.0
  0
ARC
  5
27D3D
100
AcDbEntity
  8
0
100
AcDbCircle
 10
920.578807
 20
926.462951
 30
0.0
 40
2.0
100
AcDbArc
 50
90.0
 51
180.0
  0
LINE
  5
27D3E
100
AcDbEntity
  8
0
100
AcDbLine
 10
918.578807
 20
926.462951
 30
0.0
 11
918.578807
 21
912.462951
 31
0.0
  0
LINE
  5
27D3F
100
AcDbEntity
  8
0
100
AcDbLine
 10
920.578807
 20
928.462951
 30
0.0
 11
951.578807
 21
928.462951
 31
0.0
  0
ARC
  5
27D40
100
AcDbEntity
  8
0
100
AcDbCircle
 10
953.578807
 20
928.462951
 30
0.0
 40
2.0
100
AcDbArc
 50
90.0
 51
180.0
  0
LINE
  5
27D41
100
AcDbEntity
  8
0
100
AcDbLine
 10
951.578807
 20
928.462951
 30
0.0
 11
951.578807
 21
927.004593
 31
0.0
  0
ARC
  5
27D42
100
AcDbEntity
  8
0
100
AcDbCircle
 10
945.578807
 20
927.004593
 30
0.0
 40
6.0
100
AcDbArc
 50
286.309265
 51
0.0
  0
LINE
  5
27D43
100
AcDbEntity
  8
0
100
AcDbLine
 10
978.078807
 20
950.885601
 30
0.0
 11
978.078807
 21
939.462951
 31
0.0
  0
LINE
  5
27D44
100
AcDbEntity
  8
0
100
AcDbLine
 10
976.578807
 20
939.462951
 30
0.0
 11
976.578807
 21
930.462951
 31
0.0
  0
ARC
  5
27D45
100
AcDbEntity
  8
0
100
AcDbCircle
 10
915.929428
 20
921.462951
 30
0.0
 40
12.0
100
AcDbArc
 50
276.39631
 51
297.697185
  0
ARC
  5
27D46
100
AcDbEntity
  8
0
100
AcDbCircle
 10
915.578807
 20
912.462951
 30
0.0
 40
3.0
100
AcDbArc
 50
304.22842
 51
0.0
  0
ARC
  5
27D47
100
AcDbEntity
  8
0
100
AcDbCircle
 10
986.578807
 20
786.879649
 30
0.0
 40
140.0
100
AcDbArc
 50
106.309265
 51
117.697185
  0
LINE
  5
27D48
100
AcDbEntity
  8
0
100
AcDbLine
 10
978.078807
 20
950.885601
 30
0.0
 11
979.078807
 21
951.462951
 31
0.0
  0
LINE
  5
27D49
100
AcDbEntity
  8
0
100
AcDbLine
 10
900.093526
 20
1163.374389
 30
0.0
 11
944.749334
 21
1118.718581
 31
0.0
  0
LINE
  5
27D4A
100
AcDbEntity
  8
0
100
AcDbLine
 10
952.004681
 20
1137.057147
 30
0.0
 11
961.071634
 21
1133.301492
 31
0.0
  0
CIRCLE
  5
27D4B
100
AcDbEntity
  8
0
100
AcDbCircle
 10
953.285348
 20
1127.326343
 30
0.0
 40
8.24991
  0
LINE
  5
27D4C
100
AcDbEntity
  8
0
100
AcDbLine
 10
954.566016
 20
1117.59554
 30
0.0
 11
945.499062
 21
1121.351195
 31
0.0
  0
LINE
  5
27D4D
100
AcDbEntity
  8
0
100
AcDbLine
 10
944.217471
 20
1131.082381
 30
0.0
 11
952.004681
 21
1137.057147
 31
0.0
  0
ARC
  5
27D4E
100
AcDbEntity
  8
0
100
AcDbCircle
 10
953.234615
 20
1127.203862
 30
0.0
 40
12.0
100
AcDbArc
 50
225.0
 51
270.0
  0
LINE
  5
27D4F
100
AcDbEntity
  8
0
100
AcDbLine
 10
945.499062
 20
1121.351195
 30
0.0
 11
944.217471
 21
1131.082381
 31
0.0
  0
LINE
  5
27D50
100
AcDbEntity
  8
0
100
AcDbLine
 10
962.353226
 20
1123.570305
 30
0.0
 11
954.566016
 21
1117.59554
 31
0.0
  0
LINE
  5
27D51
100
AcDbEntity
  8
0
100
AcDbLine
 10
961.071634
 20
1133.301492
 30
0.0
 11
962.353226
 21
1123.570305
 31
0.0
  0
CIRCLE
  5
27D52
100
AcDbEntity
  8
0
100
AcDbCircle
 10
906.201288
 20
1174.410404
 30
0.0
 40
8.24991
  0
LINE
  5
27D53
100
AcDbEntity
  8
0
100
AcDbLine
 10
912.176436
 20
1182.19669
 30
0.0
 11
915.932091
 21
1173.129736
 31
0.0
  0
LINE
  5
27D54
100
AcDbEntity
  8
0
100
AcDbLine
 10
915.932091
 20
1173.129736
 30
0.0
 11
909.957325
 21
1165.342526
 31
0.0
  0
CIRCLE
  5
27D55
100
AcDbEntity
  8
0
100
AcDbCircle
 10
906.201288
 20
1240.997321
 30
0.0
 40
8.24991
  0
LINE
  5
27D56
100
AcDbEntity
  8
0
100
AcDbLine
 10
909.957325
 20
1250.065199
 30
0.0
 11
915.932091
 21
1242.277989
 31
0.0
  0
LINE
  5
27D57
100
AcDbEntity
  8
0
100
AcDbLine
 10
915.932091
 20
1242.277989
 30
0.0
 11
912.176436
 21
1233.211035
 31
0.0
  0
LINE
  5
27D58
100
AcDbEntity
  8
0
100
AcDbLine
 10
896.470484
 20
1175.691072
 30
0.0
 11
902.44525
 21
1183.478281
 31
0.0
  0
LINE
  5
27D59
100
AcDbEntity
  8
0
100
AcDbLine
 10
896.578807
 20
1243.548054
 30
0.0
 11
896.578807
 21
1171.859671
 31
0.0
  0
LINE
  5
27D5A
100
AcDbEntity
  8
0
100
AcDbLine
 10
909.957325
 20
1165.342526
 30
0.0
 11
900.226139
 21
1166.624118
 31
0.0
  0
ARC
  5
27D5B
100
AcDbEntity
  8
0
100
AcDbCircle
 10
908.578807
 20
1171.859671
 30
0.0
 40
12.0
100
AcDbArc
 50
180.0
 51
225.0
  0
LINE
  5
27D5C
100
AcDbEntity
  8
0
100
AcDbLine
 10
900.226139
 20
1166.624118
 30
0.0
 11
896.470484
 21
1175.691072
 31
0.0
  0
LINE
  5
27D5D
100
AcDbEntity
  8
0
100
AcDbLine
 10
912.176436
 20
1233.211035
 30
0.0
 11
902.44525
 21
1231.929443
 31
0.0
  0
LINE
  5
27D5E
100
AcDbEntity
  8
0
100
AcDbLine
 10
900.226139
 20
1248.783607
 30
0.0
 11
909.957325
 21
1250.065199
 31
0.0
  0
LINE
  5
27D5F
100
AcDbEntity
  8
0
100
AcDbLine
 10
902.44525
 20
1183.478281
 30
0.0
 11
912.176436
 21
1182.19669
 31
0.0
  0
LINE
  5
27D60
100
AcDbEntity
  8
0
100
AcDbLine
 10
881.373036
 20
1228.203862
 30
0.0
 11
873.578807
 21
1232.703862
 31
0.0
  0
LINE
  5
27D61
100
AcDbEntity
  8
0
100
AcDbLine
 10
881.373036
 20
1187.203862
 30
0.0
 11
873.578807
 21
1182.703862
 31
0.0
  0
LINE
  5
27D62
100
AcDbEntity
  8
0
100
AcDbLine
 10
873.578807
 20
1232.703862
 30
0.0
 11
873.578807
 21
1182.703862
 31
0.0
  0
LINE
  5
27D63
100
AcDbEntity
  8
0
100
AcDbLine
 10
881.373036
 20
1228.203862
 30
0.0
 11
896.578807
 21
1228.203862
 31
0.0
  0
LINE
  5
27D64
100
AcDbEntity
  8
0
100
AcDbLine
 10
894.078807
 20
1228.203862
 30
0.0
 11
881.373036
 21
1228.203862
 31
0.0
  0
LINE
  5
27D65
100
AcDbEntity
  8
0
100
AcDbLine
 10
902.44525
 20
1231.929443
 30
0.0
 11
896.470484
 21
1239.716653
 31
0.0
  0
ARC
  5
27D66
100
AcDbEntity
  8
0
100
AcDbCircle
 10
908.578807
 20
1243.548054
 30
0.0
 40
12.0
100
AcDbArc
 50
135.0
 51
180.0
  0
LINE
  5
27D67
100
AcDbEntity
  8
0
100
AcDbLine
 10
896.470484
 20
1239.716653
 30
0.0
 11
900.226139
 21
1248.783607
 31
0.0
  0
LINE
  5
27D68
100
AcDbEntity
  8
0
100
AcDbLine
 10
896.578807
 20
1187.203862
 30
0.0
 11
881.373036
 21
1187.203862
 31
0.0
  0
LINE
  5
27D69
100
AcDbEntity
  8
0
100
AcDbLine
 10
881.373036
 20
1228.203862
 30
0.0
 11
881.373036
 21
1187.203862
 31
0.0
  0
LINE
  5
27D6A
100
AcDbEntity
  8
0
100
AcDbLine
 10
851.578807
 20
1232.703862
 30
0.0
 11
851.578807
 21
1207.703862
 31
0.0
  0
LINE
  5
27D6B
100
AcDbEntity
  8
0
100
AcDbLine
 10
851.578807
 20
1207.703862
 30
0.0
 11
851.578807
 21
1182.703862
 31
0.0
  0
LINE
  5
27D6C
100
AcDbEntity
  8
0
100
AcDbLine
 10
873.578807
 20
1232.703862
 30
0.0
 11
851.578807
 21
1232.703862
 31
0.0
  0
LINE
  5
27D6D
100
AcDbEntity
  8
0
100
AcDbLine
 10
851.578807
 20
1182.703862
 30
0.0
 11
873.578807
 21
1182.703862
 31
0.0
  0
LINE
  5
27D6E
100
AcDbEntity
  8
0
100
AcDbLine
 10
978.078807
 20
1212.971689
 30
0.0
 11
978.078807
 21
1202.436036
 31
0.0
  0
LINE
  5
27D6F
100
AcDbEntity
  8
0
100
AcDbLine
 10
934.578807
 20
1223.703862
 30
0.0
 11
951.981119
 21
1223.703862
 31
0.0
  0
ARC
  5
27D70
100
AcDbEntity
  8
0
100
AcDbCircle
 10
951.981119
 20
1229.703862
 30
0.0
 40
6.0
100
AcDbArc
 50
270.0
 51
327.548509
  0
LINE
  5
27D71
100
AcDbEntity
  8
0
100
AcDbLine
 10
934.578807
 20
1191.703862
 30
0.0
 11
951.981119
 21
1191.703862
 31
0.0
  0
ARC
  5
27D72
100
AcDbEntity
  8
0
100
AcDbCircle
 10
951.981119
 20
1185.703862
 30
0.0
 40
6.0
100
AcDbArc
 50
32.451491
 51
90.0
  0
ARC
  5
27D73
100
AcDbEntity
  8
0
100
AcDbCircle
 10
934.578807
 20
1207.703862
 30
0.0
 40
16.0
100
AcDbArc
 50
90.0
 51
270.0
  0
LINE
  5
27D74
100
AcDbEntity
  8
0
100
AcDbLine
 10
932.5777
 20
1444.606375
 30
0.0
 11
928.738534
 21
1400.724503
 31
0.0
  0
ARC
  5
27D75
100
AcDbEntity
  8
0
100
AcDbCircle
 10
918.578807
 20
1444.306417
 30
0.0
 40
3.0
100
AcDbArc
 50
0.0
 51
102.0
  0
CIRCLE
  5
27D76
100
AcDbEntity
  8
0
100
AcDbCircle
 10
953.285348
 20
1288.081382
 30
0.0
 40
8.24991
  0
LINE
  5
27D77
100
AcDbEntity
  8
0
100
AcDbLine
 10
952.004681
 20
1278.350578
 30
0.0
 11
944.217471
 21
1284.325344
 31
0.0
  0
LINE
  5
27D78
100
AcDbEntity
  8
0
100
AcDbLine
 10
962.353226
 20
1291.83742
 30
0.0
 11
961.071634
 21
1282.106233
 31
0.0
  0
LINE
  5
27D79
100
AcDbEntity
  8
0
100
AcDbLine
 10
961.071634
 20
1282.106233
 30
0.0
 11
952.004681
 21
1278.350578
 31
0.0
  0
LINE
  5
27D7A
100
AcDbEntity
  8
0
100
AcDbLine
 10
945.499062
 20
1294.05653
 30
0.0
 11
954.566016
 21
1297.812185
 31
0.0
  0
ARC
  5
27D7B
100
AcDbEntity
  8
0
100
AcDbCircle
 10
953.234615
 20
1288.203862
 30
0.0
 40
12.0
100
AcDbArc
 50
90.0
 51
135.0
  0
LINE
  5
27D7C
100
AcDbEntity
  8
0
100
AcDbLine
 10
944.217471
 20
1284.325344
 30
0.0
 11
945.499062
 21
1294.05653
 31
0.0
  0
LINE
  5
27D7D
100
AcDbEntity
  8
0
100
AcDbLine
 10
954.566016
 20
1297.812185
 30
0.0
 11
962.353226
 21
1291.83742
 31
0.0
  0
ARC
  5
27D7E
100
AcDbEntity
  8
0
100
AcDbCircle
 10
926.746145
 20
1400.898814
 30
0.0
 40
2.0
100
AcDbArc
 50
270.0
 51
355.0
  0
LINE
  5
27D7F
100
AcDbEntity
  8
0
100
AcDbLine
 10
921.578807
 20
1444.306417
 30
0.0
 11
921.578807
 21
1400.898814
 31
0.0
  0
ARC
  5
27D80
100
AcDbEntity
  8
0
100
AcDbCircle
 10
923.578807
 20
1400.898814
 30
0.0
 40
2.0
100
AcDbArc
 50
180.0
 51
270.0
  0
ARC
  5
27D81
100
AcDbEntity
  8
0
100
AcDbCircle
 10
966.005914
 20
1386.155101
 30
0.0
 40
40.0
100
AcDbArc
 50
75.737603
 51
158.716145
  0
LINE
  5
27D82
100
AcDbEntity
  8
0
100
AcDbLine
 10
926.746145
 20
1398.898814
 30
0.0
 11
923.578807
 21
1398.898814
 31
0.0
  0
LINE
  5
27D83
100
AcDbEntity
  8
0
100
AcDbLine
 10
896.578807
 20
1554.398814
 30
0.0
 11
896.578807
 21
1490.611399
 31
0.0
  0
LINE
  5
27D84
100
AcDbEntity
  8
0
100
AcDbLine
 10
924.078807
 20
1543.398814
 30
0.0
 11
924.078807
 21
1494.398814
 31
0.0
  0
LINE
  5
27D85
100
AcDbEntity
  8
0
100
AcDbLine
 10
906.128531
 20
1449.457212
 30
0.0
 11
914.184107
 21
1446.439316
 31
0.0
  0
ARC
  5
27D86
100
AcDbEntity
  8
0
100
AcDbCircle
 10
893.578807
 20
1490.611399
 30
0.0
 40
3.0
100
AcDbArc
 50
285.0
 51
0.0
  0
LINE
  5
27D87
100
AcDbEntity
  8
0
100
AcDbLine
 10
894.355264
 20
1487.713622
 30
0.0
 11
891.782656
 21
1487.024294
 31
0.0
  0
ARC
  5
27D88
100
AcDbEntity
  8
0
100
AcDbCircle
 10
889.318247
 20
1481.847314
 30
0.0
 40
8.244725
100
AcDbArc
 50
165.077168
 51
224.922832
  0
LINE
  5
27D89
100
AcDbEntity
  8
0
100
AcDbLine
 10
881.351587
 20
1483.970478
 30
0.0
 11
880.679155
 21
1481.460929
 31
0.0
  0
LINE
  5
27D8A
100
AcDbEntity
  8
0
100
AcDbLine
 10
880.679155
 20
1481.460929
 30
0.0
 11
889.737822
 21
1447.653525
 31
0.0
  0
LINE
  5
27D8B
100
AcDbEntity
  8
0
100
AcDbLine
 10
889.75607
 20
1486.222453
 30
0.0
 11
891.593188
 21
1484.385335
 31
0.0
  0
LINE
  5
27D8C
100
AcDbEntity
  8
0
100
AcDbLine
 10
881.351587
 20
1483.970478
 30
0.0
 11
889.75607
 21
1486.222453
 31
0.0
  0
ARC
  5
27D8D
100
AcDbEntity
  8
0
100
AcDbCircle
 10
883.918323
 20
1480.400409
 30
0.0
 40
8.244725
100
AcDbArc
 50
345.077168
 51
44.922832
  0
LINE
  5
27D8E
100
AcDbEntity
  8
0
100
AcDbLine
 10
892.764095
 20
1474.996351
 30
0.0
 11
891.884983
 21
1478.277244
 31
0.0
  0
LINE
  5
27D8F
100
AcDbEntity
  8
0
100
AcDbLine
 10
883.480499
 20
1476.02527
 30
0.0
 11
891.884983
 21
1478.277244
 31
0.0
  0
LINE
  5
27D90
100
AcDbEntity
  8
0
100
AcDbLine
 10
883.480499
 20
1476.02527
 30
0.0
 11
884.359612
 21
1472.744376
 31
0.0
  0
LINE
  5
27D91
100
AcDbEntity
  8
0
100
AcDbLine
 10
884.359612
 20
1472.744376
 30
0.0
 11
892.764095
 21
1474.996351
 31
0.0
  0
LINE
  5
27D92
100
AcDbEntity
  8
0
100
AcDbLine
 10
891.782656
 20
1487.024294
 30
0.0
 11
891.334369
 21
1485.351261
 31
0.0
  0
LINE
  5
27D93
100
AcDbEntity
  8
0
100
AcDbLine
 10
891.574939
 20
1445.816408
 30
0.0
 11
899.979423
 21
1448.068382
 31
0.0
  0
ARC
  5
27D94
100
AcDbEntity
  8
0
100
AcDbCircle
 10
892.012763
 20
1450.191547
 30
0.0
 40
8.244725
100
AcDbArc
 50
345.077168
 51
44.922832
  0
LINE
  5
27D95
100
AcDbEntity
  8
0
100
AcDbLine
 10
897.850511
 20
1456.013591
 30
0.0
 11
896.971398
 21
1459.294484
 31
0.0
  0
LINE
  5
27D96
100
AcDbEntity
  8
0
100
AcDbLine
 10
888.566914
 20
1457.04251
 30
0.0
 11
889.446027
 21
1453.761616
 31
0.0
  0
LINE
  5
27D97
100
AcDbEntity
  8
0
100
AcDbLine
 10
888.566914
 20
1457.04251
 30
0.0
 11
896.971398
 21
1459.294484
 31
0.0
  0
LINE
  5
27D98
100
AcDbEntity
  8
0
100
AcDbLine
 10
889.446027
 20
1453.761616
 30
0.0
 11
897.850511
 21
1456.013591
 31
0.0
  0
LINE
  5
27D99
100
AcDbEntity
  8
0
100
AcDbLine
 10
891.574939
 20
1445.816408
 30
0.0
 11
889.737822
 21
1447.653525
 31
0.0
  0
ARC
  5
27D9A
100
AcDbEntity
  8
0
100
AcDbCircle
 10
897.412687
 20
1451.638452
 30
0.0
 40
8.244725
100
AcDbArc
 50
165.077168
 51
224.922832
  0
LINE
  5
27D9B
100
AcDbEntity
  8
0
100
AcDbLine
 10
902.135418
 20
1448.387261
 30
0.0
 11
900.910673
 21
1449.612006
 31
0.0
  0
LINE
  5
27D9C
100
AcDbEntity
  8
0
100
AcDbLine
 10
906.128531
 20
1449.457212
 30
0.0
 11
902.135418
 21
1448.387261
 31
0.0
  0
LINE
  5
27D9D
100
AcDbEntity
  8
0
100
AcDbLine
 10
899.979423
 20
1448.068382
 30
0.0
 11
900.651854
 21
1450.577931
 31
0.0
  0
ARC
  5
27D9E
100
AcDbEntity
  8
0
100
AcDbCircle
 10
914.96307
 20
1472.529943
 30
0.0
 40
30.604209
100
AcDbArc
 50
179.598545
 51
210.401455
  0
LINE
  5
27D9F
100
AcDbEntity
  8
0
100
AcDbLine
 10
900.910673
 20
1449.612006
 30
0.0
 11
891.334369
 21
1485.351261
 31
0.0
  0
ARC
  5
27DA0
100
AcDbEntity
  8
0
100
AcDbCircle
 10
866.36794
 20
1459.508917
 30
0.0
 40
30.604209
100
AcDbArc
 50
359.598545
 51
30.401455
  0
ARC
  5
27DA1
100
AcDbEntity
  8
0
100
AcDbCircle
 10
937.558674
 20
1444.170596
 30
0.0
 40
5.0
100
AcDbArc
 50
40.398957
 51
175.0
  0
ARC
  5
27DA2
100
AcDbEntity
  8
0
100
AcDbCircle
 10
935.6736
 20
1444.873005
 30
0.0
 40
6.0
100
AcDbArc
 50
39.116703
 51
102.0
  0
LINE
  5
27DA3
100
AcDbEntity
  8
0
100
AcDbLine
 10
934.42613
 20
1450.741891
 30
0.0
 11
914.184107
 21
1446.439316
 31
0.0
  0
LINE
  5
27DA4
100
AcDbEntity
  8
0
100
AcDbLine
 10
923.201288
 20
1625.798814
 30
0.0
 11
906.701288
 21
1625.798814
 31
0.0
  0
ARC
  5
27DA5
100
AcDbEntity
  8
0
100
AcDbCircle
 10
914.951288
 20
1608.135822
 30
0.0
 40
17.462601
100
AcDbArc
 50
73.680072
 51
106.319928
  0
LINE
  5
27DA6
100
AcDbEntity
  8
0
100
AcDbLine
 10
873.578807
 20
1605.898814
 30
0.0
 11
873.578807
 21
1555.898814
 31
0.0
  0
LINE
  5
27DA7
100
AcDbEntity
  8
0
100
AcDbLine
 10
851.578807
 20
1605.898814
 30
0.0
 11
851.578807
 21
1580.898814
 31
0.0
  0
LINE
  5
27DA8
100
AcDbEntity
  8
0
100
AcDbLine
 10
881.373036
 20
1601.398814
 30
0.0
 11
881.373036
 21
1560.398814
 31
0.0
  0
LINE
  5
27DA9
100
AcDbEntity
  8
0
100
AcDbLine
 10
881.373036
 20
1560.398814
 30
0.0
 11
873.578807
 21
1555.898814
 31
0.0
  0
ARC
  5
27DAA
100
AcDbEntity
  8
0
100
AcDbCircle
 10
890.578807
 20
1554.398814
 30
0.0
 40
6.0
100
AcDbArc
 50
0.0
 51
90.0
  0
LINE
  5
27DAB
100
AcDbEntity
  8
0
100
AcDbLine
 10
890.578807
 20
1560.398814
 30
0.0
 11
881.373036
 21
1560.398814
 31
0.0
  0
LINE
  5
27DAC
100
AcDbEntity
  8
0
100
AcDbLine
 10
851.578807
 20
1580.898814
 30
0.0
 11
851.578807
 21
1555.898814
 31
0.0
  0
LINE
  5
27DAD
100
AcDbEntity
  8
0
100
AcDbLine
 10
873.578807
 20
1555.898814
 30
0.0
 11
851.578807
 21
1555.898814
 31
0.0
  0
ARC
  5
27DAE
100
AcDbEntity
  8
0
100
AcDbCircle
 10
907.590288
 20
1620.96749
 30
0.0
 40
4.630982
100
AcDbArc
 50
58.000676
 51
121.999324
  0
LINE
  5
27DAF
100
AcDbEntity
  8
0
100
AcDbLine
 10
881.373036
 20
1601.398814
 30
0.0
 11
873.578807
 21
1605.898814
 31
0.0
  0
LINE
  5
27DB0
100
AcDbEntity
  8
0
100
AcDbLine
 10
904.078807
 20
1601.398814
 30
0.0
 11
881.373036
 21
1601.398814
 31
0.0
  0
LINE
  5
27DB1
100
AcDbEntity
  8
0
100
AcDbLine
 10
906.701288
 20
1625.798814
 30
0.0
 11
905.136288
 21
1624.894814
 31
0.0
  0
LINE
  5
27DB2
100
AcDbEntity
  8
0
100
AcDbLine
 10
905.136288
 20
1624.894814
 30
0.0
 11
905.136288
 21
1619.398814
 31
0.0
  0
LINE
  5
27DB3
100
AcDbEntity
  8
0
100
AcDbLine
 10
873.578807
 20
1605.898814
 30
0.0
 11
851.578807
 21
1605.898814
 31
0.0
  0
LINE
  5
27DB4
100
AcDbEntity
  8
0
100
AcDbLine
 10
910.044288
 20
1624.894814
 30
0.0
 11
910.044288
 21
1619.398814
 31
0.0
  0
LINE
  5
27DB5
100
AcDbEntity
  8
0
100
AcDbLine
 10
958.264052
 20
1617.398814
 30
0.0
 11
958.264052
 21
1588.398814
 31
0.0
  0
ARC
  5
27DB6
100
AcDbEntity
  8
0
100
AcDbCircle
 10
914.578807
 20
1554.398814
 30
0.0
 40
6.0
100
AcDbArc
 50
0.0
 51
90.0
  0
LINE
  5
27DB7
100
AcDbEntity
  8
0
100
AcDbLine
 10
920.578807
 20
1554.398814
 30
0.0
 11
920.578807
 21
1549.460992
 31
0.0
  0
LINE
  5
27DB8
100
AcDbEntity
  8
0
100
AcDbLine
 10
920.578807
 20
1549.460992
 30
0.0
 11
924.078807
 21
1543.398814
 31
0.0
  0
LINE
  5
27DB9
100
AcDbEntity
  8
0
100
AcDbLine
 10
914.578807
 20
1560.398814
 30
0.0
 11
914.578807
 21
1581.398814
 31
0.0
  0
LINE
  5
27DBA
100
AcDbEntity
  8
0
100
AcDbLine
 10
970.285348
 20
1625.798814
 30
0.0
 11
953.785348
 21
1625.798814
 31
0.0
  0
ARC
  5
27DBB
100
AcDbEntity
  8
0
100
AcDbCircle
 10
954.674348
 20
1620.96749
 30
0.0
 40
4.630982
100
AcDbArc
 50
58.000676
 51
121.999324
  0
LINE
  5
27DBC
100
AcDbEntity
  8
0
100
AcDbLine
 10
953.785348
 20
1625.798814
 30
0.0
 11
952.220348
 21
1624.894814
 31
0.0
  0
LINE
  5
27DBD
100
AcDbEntity
  8
0
100
AcDbLine
 10
952.220348
 20
1624.894814
 30
0.0
 11
952.220348
 21
1619.398814
 31
0.0
  0
ARC
  5
27DBE
100
AcDbEntity
  8
0
100
AcDbCircle
 10
962.035348
 20
1608.135822
 30
0.0
 40
17.462601
100
AcDbArc
 50
73.680072
 51
106.319928
  0
LINE
  5
27DBF
100
AcDbEntity
  8
0
100
AcDbLine
 10
957.128348
 20
1624.894814
 30
0.0
 11
957.128348
 21
1619.398814
 31
0.0
  0
ARC
  5
27DC0
100
AcDbEntity
  8
0
100
AcDbCircle
 10
969.396348
 20
1620.96749
 30
0.0
 40
4.630982
100
AcDbArc
 50
58.000676
 51
121.999324
  0
LINE
  5
27DC1
100
AcDbEntity
  8
0
100
AcDbLine
 10
971.850348
 20
1624.894814
 30
0.0
 11
970.285348
 21
1625.798814
 31
0.0
  0
LINE
  5
27DC2
100
AcDbEntity
  8
0
100
AcDbLine
 10
971.850348
 20
1619.398814
 30
0.0
 11
971.850348
 21
1624.894814
 31
0.0
  0
LINE
  5
27DC3
100
AcDbEntity
  8
0
100
AcDbLine
 10
966.942348
 20
1624.894814
 30
0.0
 11
966.942348
 21
1619.398814
 31
0.0
  0
LINE
  5
27DC4
100
AcDbEntity
  8
0
100
AcDbLine
 10
924.766288
 20
1624.894814
 30
0.0
 11
923.201288
 21
1625.798814
 31
0.0
  0
ARC
  5
27DC5
100
AcDbEntity
  8
0
100
AcDbCircle
 10
922.312288
 20
1620.96749
 30
0.0
 40
4.630982
100
AcDbArc
 50
58.000676
 51
121.999324
  0
LINE
  5
27DC6
100
AcDbEntity
  8
0
100
AcDbLine
 10
924.766288
 20
1619.398814
 30
0.0
 11
924.766288
 21
1624.894814
 31
0.0
  0
LINE
  5
27DC7
100
AcDbEntity
  8
0
100
AcDbLine
 10
919.858288
 20
1624.894814
 30
0.0
 11
919.858288
 21
1619.398814
 31
0.0
  0
ARC
  5
27DC8
100
AcDbEntity
  8
0
100
AcDbCircle
 10
996.578807
 20
1496.815512
 30
0.0
 40
140.0
100
AcDbArc
 50
106.309265
 51
117.697185
  0
ARC
  5
27DC9
100
AcDbEntity
  8
0
100
AcDbCircle
 10
925.929428
 20
1631.398814
 30
0.0
 40
12.0
100
AcDbArc
 50
270.0
 51
297.697185
  0
LINE
  5
27DCA
100
AcDbEntity
  8
0
100
AcDbLine
 10
961.846756
 20
1639.398814
 30
0.0
 11
906.078807
 21
1639.398814
 31
0.0
  0
ARC
  5
27DCB
100
AcDbEntity
  8
0
100
AcDbCircle
 10
906.078807
 20
1637.398814
 30
0.0
 40
2.0
100
AcDbArc
 50
90.0
 51
180.0
  0
LINE
  5
27DCC
100
AcDbEntity
  8
0
100
AcDbLine
 10
961.578807
 20
1638.398814
 30
0.0
 11
961.578807
 21
1636.940456
 31
0.0
  0
ARC
  5
27DCD
100
AcDbEntity
  8
0
100
AcDbCircle
 10
963.578807
 20
1638.398814
 30
0.0
 40
2.0
100
AcDbArc
 50
90.0
 51
180.0
  0
LINE
  5
27DCE
100
AcDbEntity
  8
0
100
AcDbLine
 10
2098.081468
 20
1633.298814
 30
0.0
 11
2096.516468
 21
1632.394814
 31
0.0
  0
LINE
  5
27DCF
100
AcDbEntity
  8
0
100
AcDbLine
 10
2145.165529
 20
1633.298814
 30
0.0
 11
2143.600529
 21
1632.394814
 31
0.0
  0
LINE
  5
27DD0
100
AcDbEntity
  8
0
100
AcDbLine
 10
2116.146468
 20
1632.394814
 30
0.0
 11
2114.581468
 21
1633.298814
 31
0.0
  0
LINE
  5
27DD1
100
AcDbEntity
  8
0
100
AcDbLine
 10
2210.187446
 20
1632.394814
 30
0.0
 11
2211.752446
 21
1633.298814
 31
0.0
  0
LINE
  5
27DD2
100
AcDbEntity
  8
0
100
AcDbLine
 10
2163.230529
 20
1632.394814
 30
0.0
 11
2161.665529
 21
1633.298814
 31
0.0
  0
LINE
  5
27DD3
100
AcDbEntity
  8
0
100
AcDbLine
 10
2275.336506
 20
1633.298814
 30
0.0
 11
2276.901506
 21
1632.394814
 31
0.0
  0
LINE
  5
27DD4
100
AcDbEntity
  8
0
100
AcDbLine
 10
2257.271506
 20
1632.394814
 30
0.0
 11
2258.836506
 21
1633.298814
 31
0.0
  0
LINE
  5
27DD5
100
AcDbEntity
  8
0
100
AcDbLine
 10
2228.252446
 20
1633.298814
 30
0.0
 11
2229.817446
 21
1632.394814
 31
0.0
  0
ARC
  5
27DD6
100
AcDbEntity
  8
0
100
AcDbCircle
 10
1037.578807
 20
1636.940456
 30
0.0
 40
6.0
100
AcDbArc
 50
180.0
 51
253.690735
  0
LINE
  5
27DD7
100
AcDbEntity
  8
0
100
AcDbLine
 10
1064.578807
 20
1636.398814
 30
0.0
 11
1064.578807
 21
1622.398814
 31
0.0
  0
LINE
  5
27DD8
100
AcDbEntity
  8
0
100
AcDbLine
 10
2095.458987
 20
1593.898814
 30
0.0
 11
2095.458987
 21
1644.898814
 31
0.0
  0
LINE
  5
27DD9
100
AcDbEntity
  8
0
100
AcDbLine
 10
2255.958987
 20
1643.898814
 30
0.0
 11
2255.958987
 21
1629.898814
 31
0.0
  0
ARC
  5
27DDA
100
AcDbEntity
  8
0
100
AcDbCircle
 10
2187.958987
 20
1504.315512
 30
0.0
 40
140.0
100
AcDbArc
 50
106.309265
 51
117.697185
  0
ARC
  5
27DDB
100
AcDbEntity
  8
0
100
AcDbCircle
 10
2187.958987
 20
1504.315512
 30
0.0
 40
140.0
100
AcDbArc
 50
62.302815
 51
73.690735
  0
LINE
  5
27DDC
100
AcDbEntity
  8
0
100
AcDbLine
 10
1873.947887
 20
833.462951
 30
0.0
 11
1737.561779
 21
833.462951
 31
0.0
  0
ARC
  5
27DDD
100
AcDbEntity
  8
0
100
AcDbCircle
 10
1805.754833
 20
776.962951
 30
0.0
 40
72.5
100
AcDbArc
 50
290.143396
 51
0.0
  0
LINE
  5
27DDE
100
AcDbEntity
  8
0
100
AcDbLine
 10
1821.138699
 20
839.525129
 30
0.0
 11
1873.677897
 21
839.525129
 31
0.0
  0
LINE
  5
27DDF
100
AcDbEntity
  8
0
100
AcDbLine
 10
1898.254833
 20
900.962951
 30
0.0
 11
1823.782589
 21
900.962951
 31
0.0
  0
LINE
  5
27DE0
100
AcDbEntity
  8
0
100
AcDbLine
 10
1898.254833
 20
883.962951
 30
0.0
 11
1843.702165
 21
883.962951
 31
0.0
  0
ARC
  5
27DE2
100
AcDbEntity
  8
0
100
AcDbCircle
 10
1805.754833
 20
794.379649
 30
0.0
 40
140.0
100
AcDbArc
 50
62.302815
 51
73.690735
  0
LINE
  5
27DE3
100
AcDbEntity
  8
0
100
AcDbLine
 10
1898.254833
 20
916.962951
 30
0.0
 11
1713.254833
 21
916.962951
 31
0.0
  0
CIRCLE
  5
27DE4
100
AcDbEntity
  8
0
100
AcDbCircle
 10
1805.754833
 20
870.962951
 30
0.0
 40
35.0
  0
LINE
  5
27DE5
100
AcDbEntity
  8
0
100
AcDbLine
 10
1101.784578
 20
891.462951
 30
0.0
 11
1101.784578
 21
850.462951
 31
0.0
  0
LINE
  5
27DE6
100
AcDbEntity
  8
0
100
AcDbLine
 10
1109.578807
 20
895.962951
 30
0.0
 11
1109.578807
 21
845.962951
 31
0.0
  0
LINE
  5
27DE7
100
AcDbEntity
  8
0
100
AcDbLine
 10
1024.893561
 20
907.462951
 30
0.0
 11
1024.893561
 21
878.462951
 31
0.0
  0
LINE
  5
27DE8
100
AcDbEntity
  8
0
100
AcDbLine
 10
1131.578807
 20
895.962951
 30
0.0
 11
1131.578807
 21
870.962951
 31
0.0
  0
LINE
  5
27DE9
100
AcDbEntity
  8
0
100
AcDbLine
 10
1239.924144
 20
909.462951
 30
0.0
 11
1239.924144
 21
876.462951
 31
0.0
  0
CIRCLE
  5
27DEA
100
AcDbEntity
  8
0
100
AcDbCircle
 10
1332.424144
 20
870.962951
 30
0.0
 40
25.0
  0
LINE
  5
27DEB
100
AcDbEntity
  8
0
100
AcDbLine
 10
1292.85939
 20
907.462951
 30
0.0
 11
1292.85939
 21
878.462951
 31
0.0
  0
LINE
  5
27DEC
100
AcDbEntity
  8
0
100
AcDbLine
 10
1369.488899
 20
907.462951
 30
0.0
 11
1369.488899
 21
878.462951
 31
0.0
  0
LINE
  5
27DED
100
AcDbEntity
  8
0
100
AcDbLine
 10
1424.924144
 20
876.462951
 30
0.0
 11
1424.924144
 21
909.462951
 31
0.0
  0
LINE
  5
27DEE
100
AcDbEntity
  8
0
100
AcDbLine
 10
1729.754833
 20
883.962951
 30
0.0
 11
1729.754833
 21
839.525129
 31
0.0
  0
LINE
  5
27DEF
100
AcDbEntity
  8
0
100
AcDbLine
 10
1079.078807
 20
876.462951
 30
0.0
 11
1079.078807
 21
927.462951
 31
0.0
  0
ARC
  5
27DF0
100
AcDbEntity
  8
0
100
AcDbCircle
 10
1056.411469
 20
690.962951
 30
0.0
 40
2.0
100
AcDbArc
 50
185.0
 51
270.0
  0
ARC
  5
27DF1
100
AcDbEntity
  8
0
100
AcDbCircle
 10
1059.578807
 20
690.962951
 30
0.0
 40
2.0
100
AcDbArc
 50
270.0
 51
0.0
  0
LINE
  5
27DF2
100
AcDbEntity
  8
0
100
AcDbLine
 10
1056.411469
 20
688.962951
 30
0.0
 11
1059.578807
 21
688.962951
 31
0.0
  0
LINE
  5
27DF3
100
AcDbEntity
  8
0
100
AcDbLine
 10
1109.578807
 20
845.962951
 30
0.0
 11
1131.578807
 21
845.962951
 31
0.0
  0
LINE
  5
27DF4
100
AcDbEntity
  8
0
100
AcDbLine
 10
1086.578807
 20
844.462951
 30
0.0
 11
1086.578807
 21
780.675536
 31
0.0
  0
ARC
  5
27DF5
100
AcDbEntity
  8
0
100
AcDbCircle
 10
1017.1517
 20
676.219238
 30
0.0
 40
40.0
100
AcDbArc
 50
21.283855
 51
104.262397
  0
ARC
  5
27DF6
100
AcDbEntity
  8
0
100
AcDbCircle
 10
1047.484014
 20
734.937142
 30
0.0
 40
6.0
100
AcDbArc
 50
78.0
 51
140.883297
  0
ARC
  5
27DF7
100
AcDbEntity
  8
0
100
AcDbCircle
 10
1045.59894
 20
734.234733
 30
0.0
 40
5.0
100
AcDbArc
 50
5.0
 51
139.601043
  0
LINE
  5
27DF8
100
AcDbEntity
  8
0
100
AcDbLine
 10
1006.578807
 20
783.962951
 30
0.0
 11
1006.578807
 21
768.962951
 31
0.0
  0
LINE
  5
27DF9
100
AcDbEntity
  8
0
100
AcDbLine
 10
1102.478459
 20
771.525066
 30
0.0
 11
1093.419792
 21
737.717662
 31
0.0
  0
ARC
  5
27DFA
100
AcDbEntity
  8
0
100
AcDbCircle
 10
1099.239291
 20
770.464546
 30
0.0
 40
8.244725
100
AcDbArc
 50
135.077168
 51
194.922832
  0
LINE
  5
27DFB
100
AcDbEntity
  8
0
100
AcDbLine
 10
1082.246941
 20
739.676143
 30
0.0
 11
1091.823245
 21
775.415398
 31
0.0
  0
ARC
  5
27DFC
100
AcDbEntity
  8
0
100
AcDbCircle
 10
1093.839367
 20
771.911451
 30
0.0
 40
8.244725
100
AcDbArc
 50
315.077168
 51
14.922832
  0
LINE
  5
27DFD
100
AcDbEntity
  8
0
100
AcDbLine
 10
1048.731484
 20
740.806028
 30
0.0
 11
1068.973507
 21
736.503453
 31
0.0
  0
LINE
  5
27DFE
100
AcDbEntity
  8
0
100
AcDbLine
 10
1050.579914
 20
734.670512
 30
0.0
 11
1054.41908
 21
690.78864
 31
0.0
  0
LINE
  5
27DFF
100
AcDbEntity
  8
0
100
AcDbLine
 10
1099.677115
 20
766.089407
 30
0.0
 11
1091.272631
 21
768.341381
 31
0.0
  0
ARC
  5
27E00
100
AcDbEntity
  8
0
100
AcDbCircle
 10
1068.194544
 20
762.59408
 30
0.0
 40
30.604209
100
AcDbArc
 50
329.598545
 51
0.401455
  0
LINE
  5
27E01
100
AcDbEntity
  8
0
100
AcDbLine
 10
1099.677115
 20
766.089407
 30
0.0
 11
1098.798002
 21
762.808513
 31
0.0
  0
LINE
  5
27E02
100
AcDbEntity
  8
0
100
AcDbLine
 10
1090.393519
 20
765.060488
 30
0.0
 11
1091.272631
 21
768.341381
 31
0.0
  0
LINE
  5
27E03
100
AcDbEntity
  8
0
100
AcDbLine
 10
1094.5907
 20
747.106647
 30
0.0
 11
1086.186216
 21
749.358621
 31
0.0
  0
LINE
  5
27E04
100
AcDbEntity
  8
0
100
AcDbLine
 10
1091.582675
 20
735.880545
 30
0.0
 11
1083.178191
 21
738.13252
 31
0.0
  0
LINE
  5
27E05
100
AcDbEntity
  8
0
100
AcDbLine
 10
1093.711587
 20
743.825753
 30
0.0
 11
1085.307103
 21
746.077728
 31
0.0
  0
LINE
  5
27E06
100
AcDbEntity
  8
0
100
AcDbLine
 10
1085.307103
 20
746.077728
 30
0.0
 11
1086.186216
 21
749.358621
 31
0.0
  0
LINE
  5
27E07
100
AcDbEntity
  8
0
100
AcDbLine
 10
1077.029083
 20
739.521349
 30
0.0
 11
1081.022196
 21
738.451398
 31
0.0
  0
LINE
  5
27E08
100
AcDbEntity
  8
0
100
AcDbLine
 10
1083.178191
 20
738.13252
 30
0.0
 11
1082.50576
 21
740.642068
 31
0.0
  0
LINE
  5
27E09
100
AcDbEntity
  8
0
100
AcDbLine
 10
1081.022196
 20
738.451398
 30
0.0
 11
1082.246941
 21
739.676143
 31
0.0
  0
ARC
  5
27E0A
100
AcDbEntity
  8
0
100
AcDbCircle
 10
1091.144851
 20
740.255684
 30
0.0
 40
8.244725
100
AcDbArc
 50
135.077168
 51
194.922832
  0
LINE
  5
27E0B
100
AcDbEntity
  8
0
100
AcDbLine
 10
1094.5907
 20
747.106647
 30
0.0
 11
1093.711587
 21
743.825753
 31
0.0
  0
LINE
  5
27E0C
100
AcDbEntity
  8
0
100
AcDbLine
 10
1091.582675
 20
735.880545
 30
0.0
 11
1093.419792
 21
737.717662
 31
0.0
  0
ARC
  5
27E0D
100
AcDbEntity
  8
0
100
AcDbCircle
 10
1085.744927
 20
741.702589
 30
0.0
 40
8.244725
100
AcDbArc
 50
315.077168
 51
14.922832
  0
ARC
  5
27E0E
100
AcDbEntity
  8
0
100
AcDbCircle
 10
1116.789674
 20
749.573054
 30
0.0
 40
30.604209
100
AcDbArc
 50
149.598545
 51
180.401455
  0
LINE
  5
27E0F
100
AcDbEntity
  8
0
100
AcDbLine
 10
1098.798002
 20
762.808513
 30
0.0
 11
1090.393519
 21
765.060488
 31
0.0
  0
ARC
  5
27E10
100
AcDbEntity
  8
0
100
AcDbCircle
 10
1064.578807
 20
734.370554
 30
0.0
 40
3.0
100
AcDbArc
 50
78.0
 51
180.0
  0
LINE
  5
27E11
100
AcDbEntity
  8
0
100
AcDbLine
 10
1061.578807
 20
734.370554
 30
0.0
 11
1061.578807
 21
690.962951
 31
0.0
  0
LINE
  5
27E12
100
AcDbEntity
  8
0
100
AcDbLine
 10
1077.029083
 20
739.521349
 30
0.0
 11
1068.973507
 21
736.503453
 31
0.0
  0
LINE
  5
27E13
100
AcDbEntity
  8
0
100
AcDbLine
 10
1101.806027
 20
774.034615
 30
0.0
 11
1093.401543
 21
776.28659
 31
0.0
  0
ARC
  5
27E14
100
AcDbEntity
  8
0
100
AcDbCircle
 10
1089.578807
 20
780.675536
 30
0.0
 40
3.0
100
AcDbArc
 50
180.0
 51
255.0
  0
LINE
  5
27E15
100
AcDbEntity
  8
0
100
AcDbLine
 10
1091.374957
 20
777.088431
 30
0.0
 11
1091.823245
 21
775.415398
 31
0.0
  0
LINE
  5
27E16
100
AcDbEntity
  8
0
100
AcDbLine
 10
1093.401543
 20
776.28659
 30
0.0
 11
1091.564426
 21
774.449472
 31
0.0
  0
LINE
  5
27E17
100
AcDbEntity
  8
0
100
AcDbLine
 10
1088.80235
 20
777.777759
 30
0.0
 11
1091.374957
 21
777.088431
 31
0.0
  0
LINE
  5
27E18
100
AcDbEntity
  8
0
100
AcDbLine
 10
1101.806027
 20
774.034615
 30
0.0
 11
1102.478459
 21
771.525066
 31
0.0
  0
ARC
  5
27E19
100
AcDbEntity
  8
0
100
AcDbCircle
 10
1073.578807
 20
871.462951
 30
0.0
 40
5.0
100
AcDbArc
 50
90.0
 51
180.0
  0
LINE
  5
27E1A
100
AcDbEntity
  8
0
100
AcDbLine
 10
1092.578807
 20
850.462951
 30
0.0
 11
1101.784578
 21
850.462951
 31
0.0
  0
ARC
  5
27E1B
100
AcDbEntity
  8
0
100
AcDbCircle
 10
1092.578807
 20
844.462951
 30
0.0
 40
6.0
100
AcDbArc
 50
90.0
 51
180.0
  0
LINE
  5
27E1C
100
AcDbEntity
  8
0
100
AcDbLine
 10
1101.784578
 20
850.462951
 30
0.0
 11
1109.578807
 21
845.962951
 31
0.0
  0
LINE
  5
27E1D
100
AcDbEntity
  8
0
100
AcDbLine
 10
1068.578807
 20
850.462951
 30
0.0
 11
1068.578807
 21
871.462951
 31
0.0
  0
ARC
  5
27E1E
100
AcDbEntity
  8
0
100
AcDbCircle
 10
1068.578807
 20
844.462951
 30
0.0
 40
6.0
100
AcDbArc
 50
90.0
 51
180.0
  0
LINE
  5
27E1F
100
AcDbEntity
  8
0
100
AcDbLine
 10
1062.578807
 20
839.525129
 30
0.0
 11
1059.078807
 21
833.462951
 31
0.0
  0
LINE
  5
27E20
100
AcDbEntity
  8
0
100
AcDbLine
 10
1062.578807
 20
844.462951
 30
0.0
 11
1062.578807
 21
839.525129
 31
0.0
  0
LINE
  5
27E21
100
AcDbEntity
  8
0
100
AcDbLine
 10
1059.078807
 20
833.462951
 30
0.0
 11
1059.078807
 21
784.462951
 31
0.0
  0
LINE
  5
27E22
100
AcDbEntity
  8
0
100
AcDbLine
 10
1131.578807
 20
870.962951
 30
0.0
 11
1131.578807
 21
845.962951
 31
0.0
  0
ARC
  5
27E23
100
AcDbEntity
  8
0
100
AcDbCircle
 10
1311.424144
 20
690.962951
 30
0.0
 40
2.0
100
AcDbArc
 50
180.0
 51
270.0
  0
ARC
  5
27E24
100
AcDbEntity
  8
0
100
AcDbCircle
 10
1353.424144
 20
690.962951
 30
0.0
 40
2.0
100
AcDbArc
 50
270.0
 51
0.0
  0
LINE
  5
27E25
100
AcDbEntity
  8
0
100
AcDbLine
 10
1311.424144
 20
688.962951
 30
0.0
 11
1353.424144
 21
688.962951
 31
0.0
  0
ELLIPSE
  5
27E26
100
AcDbEntity
  8
0
100
AcDbEllipse
 10
1332.424144
 20
763.151599
 30
0.0
 11
-25.0
 21
0.0
 31
0.0
210
0.0
220
0.0
230
1.0
 40
0.965926
 41
1.695069486104616
 42
3.122569620832766
  0
ARC
  5
27E27
100
AcDbEntity
  8
0
100
AcDbCircle
 10
1358.424144
 20
713.581007
 30
0.0
 40
3.0
100
AcDbArc
 50
110.143396
 51
180.0
  0
LINE
  5
27E28
100
AcDbEntity
  8
0
100
AcDbLine
 10
1305.424144
 20
864.462951
 30
0.0
 11
1307.428668
 21
762.692256
 31
0.0
  0
ARC
  5
27E29
100
AcDbEntity
  8
0
100
AcDbCircle
 10
1332.424144
 20
784.462951
 30
0.0
 40
72.5
100
AcDbArc
 50
180.0
 51
249.856604
  0
LINE
  5
27E2A
100
AcDbEntity
  8
0
100
AcDbLine
 10
1254.924144
 20
783.962951
 30
0.0
 11
1254.924144
 21
768.962951
 31
0.0
  0
LINE
  5
27E2B
100
AcDbEntity
  8
0
100
AcDbLine
 10
1261.60042
 20
768.962951
 30
0.0
 11
1254.924144
 21
768.962951
 31
0.0
  0
LINE
  5
27E2C
100
AcDbEntity
  8
0
100
AcDbLine
 10
1259.925869
 20
783.962951
 30
0.0
 11
1254.924144
 21
783.962951
 31
0.0
  0
LINE
  5
27E2D
100
AcDbEntity
  8
0
100
AcDbLine
 10
1350.424144
 20
766.901864
 30
0.0
 11
1348.615144
 21
770.082864
 31
0.0
  0
LINE
  5
27E2E
100
AcDbEntity
  8
0
100
AcDbLine
 10
1348.615144
 20
770.082864
 30
0.0
 11
1348.616144
 21
768.166864
 31
0.0
  0
LINE
  5
27E2F
100
AcDbEntity
  8
0
100
AcDbLine
 10
1314.424144
 20
766.901864
 30
0.0
 11
1316.233144
 21
770.082864
 31
0.0
  0
LINE
  5
27E30
100
AcDbEntity
  8
0
100
AcDbLine
 10
1316.233144
 20
770.082864
 30
0.0
 11
1316.233144
 21
768.166864
 31
0.0
  0
ARC
  5
27E31
100
AcDbEntity
  8
0
100
AcDbCircle
 10
1292.922825
 20
825.276687
 30
0.0
 40
61.683517
100
AcDbArc
 50
292.202779
 51
307.79654
  0
ARC
  5
27E32
100
AcDbEntity
  8
0
100
AcDbCircle
 10
1371.925463
 20
825.276687
 30
0.0
 40
61.683517
100
AcDbArc
 50
232.20346
 51
247.797221
  0
ELLIPSE
  5
27E33
100
AcDbEntity
  8
0
100
AcDbEllipse
 10
1332.424144
 20
759.994007
 30
0.0
 11
-20.0
 21
0.0
 31
0.0
210
0.0
220
0.0
230
1.0
 40
0.965926
 41
2.690565841793425
 42
6.734212118975908
  0
ELLIPSE
  5
27E34
100
AcDbEntity
  8
0
100
AcDbEllipse
 10
1332.424144
 20
757.121364
 30
0.0
 11
-17.50000000714217
 21
0.0000000000008239
 31
0.0
210
0.0
220
0.0
230
1.0
 40
0.965914
 41
0.0000000000000017
 42
6.283185307179588
  0
ELLIPSE
  5
27E35
100
AcDbEntity
  8
0
100
AcDbEllipse
 10
1332.424144
 20
761.555039
 30
0.0
 11
-20.0
 21
0.0
 31
0.0
210
0.0
220
0.0
230
1.0
 40
0.965926
 41
3.101179163664281
 42
6.383334779817353
  0
ELLIPSE
  5
27E36
100
AcDbEntity
  8
0
100
AcDbEllipse
 10
1332.424144
 20
763.151599
 30
0.0
 11
-25.0
 21
0.0
 31
0.0
210
0.0
220
0.0
230
1.0
 40
0.965926
 41
0.0190230327576488
 42
1.446518241716686
  0
LINE
  5
27E37
100
AcDbEntity
  8
0
100
AcDbLine
 10
1316.232144
 20
746.748864
 30
0.0
 11
1330.726144
 21
738.380864
 31
0.0
  0
LINE
  5
27E38
100
AcDbEntity
  8
0
100
AcDbLine
 10
1314.424144
 20
764.985864
 30
0.0
 11
1314.424144
 21
766.901864
 31
0.0
  0
LINE
  5
27E39
100
AcDbEntity
  8
0
100
AcDbLine
 10
1316.233144
 20
768.166864
 30
0.0
 11
1314.424144
 21
764.985864
 31
0.0
  0
LINE
  5
27E3A
100
AcDbEntity
  8
0
100
AcDbLine
 10
1314.424144
 20
749.929864
 30
0.0
 11
1316.232144
 21
746.748864
 31
0.0
  0
ARC
  5
27E3B
100
AcDbEntity
  8
0
100
AcDbCircle
 10
1306.424144
 20
713.581007
 30
0.0
 40
3.0
100
AcDbArc
 50
0.0
 51
69.856604
  0
LINE
  5
27E3C
100
AcDbEntity
  8
0
100
AcDbLine
 10
1314.424144
 20
766.901864
 30
0.0
 11
1314.424144
 21
749.929864
 31
0.0
  0
LINE
  5
27E3D
100
AcDbEntity
  8
0
100
AcDbLine
 10
1309.424144
 20
690.962951
 30
0.0
 11
1309.424144
 21
753.687497
 31
0.0
  0
LINE
  5
27E3E
100
AcDbEntity
  8
0
100
AcDbLine
 10
1348.616144
 20
768.166864
 30
0.0
 11
1350.424144
 21
764.985864
 31
0.0
  0
LINE
  5
27E3F
100
AcDbEntity
  8
0
100
AcDbLine
 10
1350.424144
 20
764.985864
 30
0.0
 11
1350.424144
 21
766.901864
 31
0.0
  0
LINE
  5
27E40
100
AcDbEntity
  8
0
100
AcDbLine
 10
1348.615144
 20
746.748864
 30
0.0
 11
1350.424144
 21
749.929864
 31
0.0
  0
LINE
  5
27E41
100
AcDbEntity
  8
0
100
AcDbLine
 10
1350.424144
 20
749.929864
 30
0.0
 11
1350.424144
 21
766.901864
 31
0.0
  0
LINE
  5
27E42
100
AcDbEntity
  8
0
100
AcDbLine
 10
1330.726144
 20
738.380864
 30
0.0
 11
1334.122144
 21
738.380864
 31
0.0
  0
LINE
  5
27E43
100
AcDbEntity
  8
0
100
AcDbLine
 10
1334.122144
 20
738.380864
 30
0.0
 11
1348.615144
 21
746.748864
 31
0.0
  0
LINE
  5
27E44
100
AcDbEntity
  8
0
100
AcDbLine
 10
1316.233144
 20
770.082864
 30
0.0
 11
1330.726144
 21
778.450864
 31
0.0
  0
LINE
  5
27E45
100
AcDbEntity
  8
0
100
AcDbLine
 10
1334.122144
 20
776.534864
 30
0.0
 11
1330.726144
 21
776.534864
 31
0.0
  0
LINE
  5
27E46
100
AcDbEntity
  8
0
100
AcDbLine
 10
1330.726144
 20
776.534864
 30
0.0
 11
1330.726144
 21
778.450864
 31
0.0
  0
LINE
  5
27E47
100
AcDbEntity
  8
0
100
AcDbLine
 10
1330.726144
 20
778.450864
 30
0.0
 11
1334.122144
 21
778.450864
 31
0.0
  0
LINE
  5
27E48
100
AcDbEntity
  8
0
100
AcDbLine
 10
1334.122144
 20
778.450864
 30
0.0
 11
1334.122144
 21
776.534864
 31
0.0
  0
LINE
  5
27E49
100
AcDbEntity
  8
0
100
AcDbLine
 10
1330.726144
 20
778.450864
 30
0.0
 11
1334.122144
 21
778.450864
 31
0.0
  0
LINE
  5
27E4A
100
AcDbEntity
  8
0
100
AcDbLine
 10
1334.122144
 20
778.450864
 30
0.0
 11
1348.615144
 21
770.082864
 31
0.0
  0
LINE
  5
27E4B
100
AcDbEntity
  8
0
100
AcDbLine
 10
1239.924144
 20
876.462951
 30
0.0
 11
1308.036648
 21
876.462951
 31
0.0
  0
LINE
  5
27E4C
100
AcDbEntity
  8
0
100
AcDbLine
 10
1264.231091
 20
833.462951
 30
0.0
 11
1306.034735
 21
833.462951
 31
0.0
  0
LINE
  5
27E4D
100
AcDbEntity
  8
0
100
AcDbLine
 10
1305.915331
 20
839.525129
 30
0.0
 11
1264.501081
 21
839.525129
 31
0.0
  0
LINE
  5
27E4E
100
AcDbEntity
  8
0
100
AcDbLine
 10
1256.424144
 20
876.462951
 30
0.0
 11
1256.424144
 21
839.525129
 31
0.0
  0
LINE
  5
27E4F
100
AcDbEntity
  8
0
100
AcDbLine
 10
1256.424144
 20
839.525129
 30
0.0
 11
1259.924144
 21
833.462951
 31
0.0
  0
LINE
  5
27E50
100
AcDbEntity
  8
0
100
AcDbLine
 10
1259.924144
 20
833.462951
 30
0.0
 11
1259.924144
 21
784.462951
 31
0.0
  0
ARC
  5
27E51
100
AcDbEntity
  8
0
100
AcDbCircle
 10
1332.424144
 20
864.462951
 30
0.0
 40
27.0
100
AcDbArc
 50
155.375682
 51
182.256757
  0
ARC
  5
27E52
100
AcDbEntity
  8
0
100
AcDbCircle
 10
1332.424144
 20
784.462951
 30
0.0
 40
72.5
100
AcDbArc
 50
290.143396
 51
0.0
  0
LINE
  5
27E53
100
AcDbEntity
  8
0
100
AcDbLine
 10
1359.424144
 20
864.462951
 30
0.0
 11
1357.419621
 21
762.692256
 31
0.0
  0
LINE
  5
27E54
100
AcDbEntity
  8
0
100
AcDbLine
 10
1355.424144
 20
690.962951
 30
0.0
 11
1355.424144
 21
753.687497
 31
0.0
  0
LINE
  5
27E55
100
AcDbEntity
  8
0
100
AcDbLine
 10
1356.811641
 20
876.462951
 30
0.0
 11
1424.924144
 21
876.462951
 31
0.0
  0
LINE
  5
27E56
100
AcDbEntity
  8
0
100
AcDbLine
 10
1400.347208
 20
839.525129
 30
0.0
 11
1358.932957
 21
839.525129
 31
0.0
  0
LINE
  5
27E57
100
AcDbEntity
  8
0
100
AcDbLine
 10
1358.813554
 20
833.462951
 30
0.0
 11
1400.617198
 21
833.462951
 31
0.0
  0
ARC
  5
27E58
100
AcDbEntity
  8
0
100
AcDbCircle
 10
1332.424144
 20
864.462951
 30
0.0
 40
27.0
100
AcDbArc
 50
357.743243
 51
24.624318
  0
LINE
  5
27E59
100
AcDbEntity
  8
0
100
AcDbLine
 10
1408.424144
 20
876.462951
 30
0.0
 11
1408.424144
 21
839.525129
 31
0.0
  0
LINE
  5
27E5A
100
AcDbEntity
  8
0
100
AcDbLine
 10
1404.924144
 20
833.462951
 30
0.0
 11
1404.924144
 21
784.462951
 31
0.0
  0
LINE
  5
27E5B
100
AcDbEntity
  8
0
100
AcDbLine
 10
1408.424144
 20
839.525129
 30
0.0
 11
1404.924144
 21
833.462951
 31
0.0
  0
LINE
  5
27E5C
100
AcDbEntity
  8
0
100
AcDbLine
 10
1782.754833
 20
683.462951
 30
0.0
 11
1782.754833
 21
727.493263
 31
0.0
  0
LINE
  5
27E5D
100
AcDbEntity
  8
0
100
AcDbLine
 10
1782.754833
 20
683.462951
 30
0.0
 11
1782.754833
 21
706.081007
 31
0.0
  0
LINE
  5
27E5E
100
AcDbEntity
  8
0
100
AcDbLine
 10
1828.754833
 20
683.462951
 30
0.0
 11
1828.754833
 21
727.493263
 31
0.0
  0
LINE
  5
27E5F
100
AcDbEntity
  8
0
100
AcDbLine
 10
1828.754833
 20
683.462951
 30
0.0
 11
1828.754833
 21
706.081007
 31
0.0
  0
LINE
  5
27E60
100
AcDbEntity
  8
0
100
AcDbLine
 10
1826.754833
 20
681.462951
 30
0.0
 11
1784.754833
 21
681.462951
 31
0.0
  0
ARC
  5
27E61
100
AcDbEntity
  8
0
100
AcDbCircle
 10
1784.754833
 20
683.462951
 30
0.0
 40
2.0
100
AcDbArc
 50
180.0
 51
270.0
  0
ARC
  5
27E62
100
AcDbEntity
  8
0
100
AcDbCircle
 10
1826.754833
 20
683.462951
 30
0.0
 40
2.0
100
AcDbArc
 50
270.0
 51
0.0
  0
LINE
  5
27E63
100
AcDbEntity
  8
0
100
AcDbLine
 10
1733.254833
 20
833.462951
 30
0.0
 11
1733.254833
 21
776.962951
 31
0.0
  0
ARC
  5
27E64
100
AcDbEntity
  8
0
100
AcDbCircle
 10
1805.754833
 20
839.561061
 30
0.0
 40
112.067797
100
AcDbArc
 50
259.338405
 51
260.920725
  0
ARC
  5
27E65
100
AcDbEntity
  8
0
100
AcDbCircle
 10
1805.754833
 20
776.962951
 30
0.0
 40
72.5
100
AcDbArc
 50
180.0
 51
249.856604
  0
ARC
  5
27E66
100
AcDbEntity
  8
0
100
AcDbCircle
 10
1779.754833
 20
727.493263
 30
0.0
 40
3.0
100
AcDbArc
 50
0.0
 51
69.856604
  0
ARC
  5
27E67
100
AcDbEntity
  8
0
100
AcDbCircle
 10
1779.754833
 20
706.081007
 30
0.0
 40
3.0
100
AcDbArc
 50
0.0
 51
69.856604
  0
POLYLINE
  5
27E68
100
AcDbEntity
  8
0
100
AcDb2dPolyline
 66
     1
 10
0.0
 20
0.0
 30
0.0
 70
     1
  0
VERTEX
  5
28206
100
AcDbEntity
  8
0
100
AcDbVertex
100
AcDb2dVertex
 10
1805.754833
 20
728.793951
 30
0.0
  0
VERTEX
  5
28207
100
AcDbEntity
  8
0
100
AcDbVertex
100
AcDb2dVertex
 10
1797.423833
 20
720.462951
 30
0.0
  0
VERTEX
  5
28208
100
AcDbEntity
  8
0
100
AcDbVertex
100
AcDb2dVertex
 10
1805.754833
 20
712.131951
 30
0.0
  0
VERTEX
  5
28209
100
AcDbEntity
  8
0
100
AcDbVertex
100
AcDb2dVertex
 10
1814.085833
 20
720.462951
 30
0.0
  0
SEQEND
  5
2820A
100
AcDbEntity
  8
0
  0
ARC
  5
27E69
100
AcDbEntity
  8
0
100
AcDbCircle
 10
1805.754833
 20
720.462951
 30
0.0
 40
16.0
100
AcDbArc
 50
180.0
 51
0.0
  0
CIRCLE
  5
27E6A
100
AcDbEntity
  8
0
100
AcDbCircle
 10
1805.754833
 20
720.462951
 30
0.0
 40
14.0
  0
ARC
  5
27E6B
100
AcDbEntity
  8
0
100
AcDbCircle
 10
1786.754833
 20
743.25276
 30
0.0
 40
3.0
100
AcDbArc
 50
0.0
 51
45.0
  0
LINE
  5
27E6C
100
AcDbEntity
  8
0
100
AcDbLine
 10
1789.754833
 20
720.462951
 30
0.0
 11
1789.754833
 21
743.25276
 31
0.0
  0
ARC
  5
27E6D
100
AcDbEntity
  8
0
100
AcDbCircle
 10
1787.754833
 20
726.922424
 30
0.0
 40
2.0
100
AcDbArc
 50
0.0
 51
80.920725
  0
ARC
  5
27E6E
100
AcDbEntity
  8
0
100
AcDbCircle
 10
1824.754833
 20
743.25276
 30
0.0
 40
3.0
100
AcDbArc
 50
135.0
 51
180.0
  0
ARC
  5
27E6F
100
AcDbEntity
  8
0
100
AcDbCircle
 10
1831.754833
 20
727.493263
 30
0.0
 40
3.0
100
AcDbArc
 50
110.143396
 51
180.0
  0
ARC
  5
27E70
100
AcDbEntity
  8
0
100
AcDbCircle
 10
1805.754833
 20
839.561061
 30
0.0
 40
112.067797
100
AcDbArc
 50
279.079275
 51
280.661595
  0
ARC
  5
27E71
100
AcDbEntity
  8
0
100
AcDbCircle
 10
1823.754833
 20
726.922424
 30
0.0
 40
2.0
100
AcDbArc
 50
99.079275
 51
180.0
  0
LINE
  5
27E72
100
AcDbEntity
  8
0
100
AcDbLine
 10
1821.754833
 20
720.462951
 30
0.0
 11
1821.754833
 21
743.25276
 31
0.0
  0
ARC
  5
27E73
100
AcDbEntity
  8
0
100
AcDbCircle
 10
1831.754833
 20
706.081007
 30
0.0
 40
3.0
100
AcDbArc
 50
110.143396
 51
180.0
  0
LINE
  5
27E74
100
AcDbEntity
  8
0
100
AcDbLine
 10
1737.831769
 20
839.525129
 30
0.0
 11
1790.370967
 21
839.525129
 31
0.0
  0
LINE
  5
27E75
100
AcDbEntity
  8
0
100
AcDbLine
 10
1729.754833
 20
839.525129
 30
0.0
 11
1733.254833
 21
833.462951
 31
0.0
  0
LINE
  5
27E76
100
AcDbEntity
  8
0
100
AcDbLine
 10
1028.40828
 20
1296.689144
 30
0.0
 11
1075.564088
 21
1249.533336
 31
0.0
  0
LINE
  5
27E77
100
AcDbEntity
  8
0
100
AcDbLine
 10
1109.578807
 20
895.962951
 30
0.0
 11
1131.578807
 21
895.962951
 31
0.0
  0
LINE
  5
27E78
100
AcDbEntity
  8
0
100
AcDbLine
 10
1021.310858
 20
929.462951
 30
0.0
 11
1077.078807
 21
929.462951
 31
0.0
  0
ARC
  5
27E79
100
AcDbEntity
  8
0
100
AcDbCircle
 10
986.578807
 20
786.879649
 30
0.0
 40
140.0
100
AcDbArc
 50
62.302815
 51
73.690735
  0
ARC
  5
27E7A
100
AcDbEntity
  8
0
100
AcDbCircle
 10
1028.483266
 20
911.031627
 30
0.0
 40
4.630982
100
AcDbArc
 50
58.000676
 51
121.999324
  0
LINE
  5
27E7B
100
AcDbEntity
  8
0
100
AcDbLine
 10
1012.872266
 20
915.862951
 30
0.0
 11
1029.372266
 21
915.862951
 31
0.0
  0
ARC
  5
27E7C
100
AcDbEntity
  8
0
100
AcDbCircle
 10
1013.761266
 20
911.031627
 30
0.0
 40
4.630982
100
AcDbArc
 50
58.000676
 51
121.999324
  0
LINE
  5
27E7D
100
AcDbEntity
  8
0
100
AcDbLine
 10
1011.307266
 20
914.958951
 30
0.0
 11
1012.872266
 21
915.862951
 31
0.0
  0
LINE
  5
27E7E
100
AcDbEntity
  8
0
100
AcDbLine
 10
1011.307266
 20
909.462951
 30
0.0
 11
1011.307266
 21
914.958951
 31
0.0
  0
ARC
  5
27E7F
100
AcDbEntity
  8
0
100
AcDbCircle
 10
1021.122266
 20
898.199959
 30
0.0
 40
17.462601
100
AcDbArc
 50
73.680072
 51
106.319928
  0
LINE
  5
27E80
100
AcDbEntity
  8
0
100
AcDbLine
 10
1016.215266
 20
914.958951
 30
0.0
 11
1016.215266
 21
909.462951
 31
0.0
  0
LINE
  5
27E81
100
AcDbEntity
  8
0
100
AcDbLine
 10
1026.029266
 20
914.958951
 30
0.0
 11
1026.029266
 21
909.462951
 31
0.0
  0
LINE
  5
27E82
100
AcDbEntity
  8
0
100
AcDbLine
 10
1029.372266
 20
915.862951
 30
0.0
 11
1030.937266
 21
914.958951
 31
0.0
  0
LINE
  5
27E83
100
AcDbEntity
  8
0
100
AcDbLine
 10
1030.937266
 20
914.958951
 30
0.0
 11
1030.937266
 21
909.462951
 31
0.0
  0
ARC
  5
27E84
100
AcDbEntity
  8
0
100
AcDbCircle
 10
1019.578807
 20
928.462951
 30
0.0
 40
2.0
100
AcDbArc
 50
0.0
 51
90.0
  0
LINE
  5
27E85
100
AcDbEntity
  8
0
100
AcDbLine
 10
1021.578807
 20
928.462951
 30
0.0
 11
1021.578807
 21
927.004593
 31
0.0
  0
ARC
  5
27E86
100
AcDbEntity
  8
0
100
AcDbCircle
 10
1027.578807
 20
927.004593
 30
0.0
 40
6.0
100
AcDbArc
 50
180.0
 51
253.690735
  0
LINE
  5
27E87
100
AcDbEntity
  8
0
100
AcDbLine
 10
995.078807
 20
950.885601
 30
0.0
 11
995.078807
 21
939.462951
 31
0.0
  0
LINE
  5
27E88
100
AcDbEntity
  8
0
100
AcDbLine
 10
996.578807
 20
939.462951
 30
0.0
 11
996.578807
 21
930.462951
 31
0.0
  0
LINE
  5
27E89
100
AcDbEntity
  8
0
100
AcDbLine
 10
995.078807
 20
950.885601
 30
0.0
 11
994.078807
 21
951.462951
 31
0.0
  0
LINE
  5
27E8A
100
AcDbEntity
  8
0
100
AcDbLine
 10
1079.078807
 20
891.462951
 30
0.0
 11
1101.784578
 21
891.462951
 31
0.0
  0
LINE
  5
27E8B
100
AcDbEntity
  8
0
100
AcDbLine
 10
1076.456326
 20
915.862951
 30
0.0
 11
1078.021326
 21
914.958951
 31
0.0
  0
LINE
  5
27E8C
100
AcDbEntity
  8
0
100
AcDbLine
 10
1078.021326
 20
914.958951
 30
0.0
 11
1078.021326
 21
909.462951
 31
0.0
  0
LINE
  5
27E8D
100
AcDbEntity
  8
0
100
AcDbLine
 10
1073.113326
 20
914.958951
 30
0.0
 11
1073.113326
 21
909.462951
 31
0.0
  0
ARC
  5
27E8E
100
AcDbEntity
  8
0
100
AcDbCircle
 10
1075.567326
 20
911.031627
 30
0.0
 40
4.630982
100
AcDbArc
 50
58.000676
 51
121.999324
  0
LINE
  5
27E8F
100
AcDbEntity
  8
0
100
AcDbLine
 10
1101.784578
 20
891.462951
 30
0.0
 11
1109.578807
 21
895.962951
 31
0.0
  0
ARC
  5
27E90
100
AcDbEntity
  8
0
100
AcDbCircle
 10
1060.845326
 20
911.031627
 30
0.0
 40
4.630982
100
AcDbArc
 50
58.000676
 51
121.999324
  0
LINE
  5
27E91
100
AcDbEntity
  8
0
100
AcDbLine
 10
1058.391326
 20
914.958951
 30
0.0
 11
1059.956326
 21
915.862951
 31
0.0
  0
LINE
  5
27E92
100
AcDbEntity
  8
0
100
AcDbLine
 10
1063.299326
 20
914.958951
 30
0.0
 11
1063.299326
 21
909.462951
 31
0.0
  0
LINE
  5
27E93
100
AcDbEntity
  8
0
100
AcDbLine
 10
1058.391326
 20
909.462951
 30
0.0
 11
1058.391326
 21
914.958951
 31
0.0
  0
ARC
  5
27E94
100
AcDbEntity
  8
0
100
AcDbCircle
 10
1068.206326
 20
898.199959
 30
0.0
 40
17.462601
100
AcDbArc
 50
73.680072
 51
106.319928
  0
LINE
  5
27E95
100
AcDbEntity
  8
0
100
AcDbLine
 10
1059.956326
 20
915.862951
 30
0.0
 11
1076.456326
 21
915.862951
 31
0.0
  0
ARC
  5
27E96
100
AcDbEntity
  8
0
100
AcDbCircle
 10
1077.078807
 20
927.462951
 30
0.0
 40
2.0
100
AcDbArc
 50
360.0
 51
90.0
  0
ARC
  5
27E97
100
AcDbEntity
  8
0
100
AcDbCircle
 10
1057.228185
 20
921.462951
 30
0.0
 40
12.0
100
AcDbArc
 50
242.302815
 51
270.0
  0
LINE
  5
27E98
100
AcDbEntity
  8
0
100
AcDbLine
 10
1109.578807
 20
1232.703862
 30
0.0
 11
1131.578807
 21
1232.703862
 31
0.0
  0
LINE
  5
27E99
100
AcDbEntity
  8
0
100
AcDbLine
 10
1109.578807
 20
1182.703862
 30
0.0
 11
1131.578807
 21
1182.703862
 31
0.0
  0
LINE
  5
27E9A
100
AcDbEntity
  8
0
100
AcDbLine
 10
1075.564088
 20
1165.874389
 30
0.0
 11
1028.40828
 21
1118.718581
 31
0.0
  0
ARC
  5
27E9B
100
AcDbEntity
  8
0
100
AcDbCircle
 10
1019.922999
 20
1127.203862
 30
0.0
 40
12.0
100
AcDbArc
 50
270.0
 51
315.0
  0
LINE
  5
27E9C
100
AcDbEntity
  8
0
100
AcDbLine
 10
1027.658552
 20
1121.351195
 30
0.0
 11
1018.591598
 21
1117.59554
 31
0.0
  0
CIRCLE
  5
27E9D
100
AcDbEntity
  8
0
100
AcDbCircle
 10
1019.872266
 20
1127.326343
 30
0.0
 40
8.24991
  0
LINE
  5
27E9E
100
AcDbEntity
  8
0
100
AcDbLine
 10
1021.152933
 20
1137.057147
 30
0.0
 11
1028.940143
 21
1131.082381
 31
0.0
  0
LINE
  5
27E9F
100
AcDbEntity
  8
0
100
AcDbLine
 10
1012.085979
 20
1133.301492
 30
0.0
 11
1021.152933
 21
1137.057147
 31
0.0
  0
LINE
  5
27EA0
100
AcDbEntity
  8
0
100
AcDbLine
 10
1018.591598
 20
1117.59554
 30
0.0
 11
1010.804388
 21
1123.570305
 31
0.0
  0
LINE
  5
27EA1
100
AcDbEntity
  8
0
100
AcDbLine
 10
1010.804388
 20
1123.570305
 30
0.0
 11
1012.085979
 21
1133.301492
 31
0.0
  0
LINE
  5
27EA2
100
AcDbEntity
  8
0
100
AcDbLine
 10
1028.940143
 20
1131.082381
 30
0.0
 11
1027.658552
 21
1121.351195
 31
0.0
  0
LINE
  5
27EA3
100
AcDbEntity
  8
0
100
AcDbLine
 10
1023.416288
 20
1195.703862
 30
0.0
 11
1079.078807
 21
1195.703862
 31
0.0
  0
LINE
  5
27EA4
100
AcDbEntity
  8
0
100
AcDbLine
 10
1023.416288
 20
1219.703862
 30
0.0
 11
1079.078807
 21
1219.703862
 31
0.0
  0
ARC
  5
27EA5
100
AcDbEntity
  8
0
100
AcDbCircle
 10
1023.416288
 20
1225.703862
 30
0.0
 40
6.0
100
AcDbArc
 50
206.04165
 51
270.0
  0
ARC
  5
27EA6
100
AcDbEntity
  8
0
100
AcDbCircle
 10
1023.416288
 20
1189.703862
 30
0.0
 40
6.0
100
AcDbArc
 50
90.0
 51
153.95835
  0
LINE
  5
27EA7
100
AcDbEntity
  8
0
100
AcDbLine
 10
995.078807
 20
1212.971689
 30
0.0
 11
995.078807
 21
1202.436036
 31
0.0
  0
LINE
  5
27EA8
100
AcDbEntity
  8
0
100
AcDbLine
 10
1079.078807
 20
1241.048054
 30
0.0
 11
1079.078807
 21
1174.359671
 31
0.0
  0
LINE
  5
27EA9
100
AcDbEntity
  8
0
100
AcDbLine
 10
1057.225523
 20
1173.129736
 30
0.0
 11
1060.981178
 21
1182.19669
 31
0.0
  0
CIRCLE
  5
27EAA
100
AcDbEntity
  8
0
100
AcDbCircle
 10
1066.956326
 20
1174.410404
 30
0.0
 40
8.24991
  0
LINE
  5
27EAB
100
AcDbEntity
  8
0
100
AcDbLine
 10
1070.712364
 20
1183.478281
 30
0.0
 11
1076.68713
 21
1175.691072
 31
0.0
  0
ARC
  5
27EAC
100
AcDbEntity
  8
0
100
AcDbCircle
 10
1067.078807
 20
1174.359671
 30
0.0
 40
12.0
100
AcDbArc
 50
315.0
 51
0.0
  0
LINE
  5
27EAD
100
AcDbEntity
  8
0
100
AcDbLine
 10
1076.68713
 20
1175.691072
 30
0.0
 11
1072.931475
 21
1166.624118
 31
0.0
  0
LINE
  5
27EAE
100
AcDbEntity
  8
0
100
AcDbLine
 10
1063.200288
 20
1165.342526
 30
0.0
 11
1057.225523
 21
1173.129736
 31
0.0
  0
LINE
  5
27EAF
100
AcDbEntity
  8
0
100
AcDbLine
 10
1072.931475
 20
1166.624118
 30
0.0
 11
1063.200288
 21
1165.342526
 31
0.0
  0
LINE
  5
27EB0
100
AcDbEntity
  8
0
100
AcDbLine
 10
1079.078807
 20
1228.203862
 30
0.0
 11
1101.784578
 21
1228.203862
 31
0.0
  0
LINE
  5
27EB1
100
AcDbEntity
  8
0
100
AcDbLine
 10
1079.078807
 20
1187.203862
 30
0.0
 11
1101.784578
 21
1187.203862
 31
0.0
  0
ARC
  5
27EB2
100
AcDbEntity
  8
0
100
AcDbCircle
 10
1067.078807
 20
1241.048054
 30
0.0
 40
12.0
100
AcDbArc
 50
0.0
 51
45.0
  0
LINE
  5
27EB3
100
AcDbEntity
  8
0
100
AcDbLine
 10
1072.931475
 20
1248.783607
 30
0.0
 11
1076.68713
 21
1239.716653
 31
0.0
  0
LINE
  5
27EB4
100
AcDbEntity
  8
0
100
AcDbLine
 10
1101.784578
 20
1228.203862
 30
0.0
 11
1109.578807
 21
1232.703862
 31
0.0
  0
LINE
  5
27EB5
100
AcDbEntity
  8
0
100
AcDbLine
 10
1101.784578
 20
1187.203862
 30
0.0
 11
1109.578807
 21
1182.703862
 31
0.0
  0
LINE
  5
27EB6
100
AcDbEntity
  8
0
100
AcDbLine
 10
1101.784578
 20
1228.203862
 30
0.0
 11
1101.784578
 21
1187.203862
 31
0.0
  0
LINE
  5
27EB7
100
AcDbEntity
  8
0
100
AcDbLine
 10
1109.578807
 20
1232.703862
 30
0.0
 11
1109.578807
 21
1182.703862
 31
0.0
  0
LINE
  5
27EB8
100
AcDbEntity
  8
0
100
AcDbLine
 10
1070.712364
 20
1231.929443
 30
0.0
 11
1060.981178
 21
1233.211035
 31
0.0
  0
LINE
  5
27EB9
100
AcDbEntity
  8
0
100
AcDbLine
 10
1060.981178
 20
1233.211035
 30
0.0
 11
1057.225523
 21
1242.277989
 31
0.0
  0
LINE
  5
27EBA
100
AcDbEntity
  8
0
100
AcDbLine
 10
1057.225523
 20
1242.277989
 30
0.0
 11
1063.200288
 21
1250.065199
 31
0.0
  0
LINE
  5
27EBB
100
AcDbEntity
  8
0
100
AcDbLine
 10
1060.981178
 20
1182.19669
 30
0.0
 11
1070.712364
 21
1183.478281
 31
0.0
  0
ARC
  5
27EBC
100
AcDbEntity
  8
0
100
AcDbCircle
 10
1064.166744
 20
1189.703862
 30
0.0
 40
6.0
100
AcDbArc
 50
90.0
 51
166.93873
  0
CIRCLE
  5
27EBD
100
AcDbEntity
  8
0
100
AcDbCircle
 10
1066.956326
 20
1240.997321
 30
0.0
 40
8.24991
  0
LINE
  5
27EBE
100
AcDbEntity
  8
0
100
AcDbLine
 10
1063.200288
 20
1250.065199
 30
0.0
 11
1072.931475
 21
1248.783607
 31
0.0
  0
LINE
  5
27EBF
100
AcDbEntity
  8
0
100
AcDbLine
 10
1076.68713
 20
1239.716653
 30
0.0
 11
1070.712364
 21
1231.929443
 31
0.0
  0
ARC
  5
27EC0
100
AcDbEntity
  8
0
100
AcDbCircle
 10
1061.084694
 20
1225.703862
 30
0.0
 40
6.0
100
AcDbArc
 50
193.58193
 51
270.0
  0
ARC
  5
27EC1
100
AcDbEntity
  8
0
100
AcDbCircle
 10
1061.084694
 20
1189.703862
 30
0.0
 40
6.0
100
AcDbArc
 50
90.0
 51
166.41807
  0
LINE
  5
27EC2
100
AcDbEntity
  8
0
100
AcDbLine
 10
1131.578807
 20
1232.703862
 30
0.0
 11
1131.578807
 21
1207.703862
 31
0.0
  0
LINE
  5
27EC3
100
AcDbEntity
  8
0
100
AcDbLine
 10
1131.578807
 20
1207.703862
 30
0.0
 11
1131.578807
 21
1182.703862
 31
0.0
  0
LINE
  5
27EC4
100
AcDbEntity
  8
0
100
AcDbLine
 10
1343.321392
 20
893.462951
 30
0.0
 11
1424.924144
 21
893.462951
 31
0.0
  0
ARC
  5
27EC5
100
AcDbEntity
  8
0
100
AcDbCircle
 10
1332.424144
 20
1225.556811
 30
0.0
 40
304.310778
100
AcDbArc
 50
272.259952
 51
275.298657
  0
LINE
  5
27EC6
100
AcDbEntity
  8
0
100
AcDbLine
 10
1299.424144
 20
930.462951
 30
0.0
 11
1365.424144
 21
930.462951
 31
0.0
  0
LINE
  5
27EC7
100
AcDbEntity
  8
0
100
AcDbLine
 10
1239.924144
 20
909.462951
 30
0.0
 11
1424.924144
 21
909.462951
 31
0.0
  0
LINE
  5
27EC8
100
AcDbEntity
  8
0
100
AcDbLine
 10
1239.924144
 20
893.462951
 30
0.0
 11
1321.526897
 21
893.462951
 31
0.0
  0
ARC
  5
27EC9
100
AcDbEntity
  8
0
100
AcDbCircle
 10
1332.424144
 20
786.879649
 30
0.0
 40
140.0
100
AcDbArc
 50
106.309265
 51
117.697185
  0
ARC
  5
27ECA
100
AcDbEntity
  8
0
100
AcDbCircle
 10
1247.734125
 20
905.712303
 30
0.0
 40
10.150648
100
AcDbArc
 50
65.635807
 51
114.364193
  0
LINE
  5
27ECB
100
AcDbEntity
  8
0
100
AcDbLine
 10
1260.296625
 20
915.862951
 30
0.0
 11
1243.546625
 21
915.862951
 31
0.0
  0
LINE
  5
27ECC
100
AcDbEntity
  8
0
100
AcDbLine
 10
1243.546625
 20
915.862951
 30
0.0
 11
1243.546625
 21
909.462951
 31
0.0
  0
LINE
  5
27ECD
100
AcDbEntity
  8
0
100
AcDbLine
 10
1251.921625
 20
914.958951
 30
0.0
 11
1251.921625
 21
909.462951
 31
0.0
  0
LINE
  5
27ECE
100
AcDbEntity
  8
0
100
AcDbLine
 10
1260.296625
 20
915.862951
 30
0.0
 11
1260.296625
 21
909.462951
 31
0.0
  0
ARC
  5
27ECF
100
AcDbEntity
  8
0
100
AcDbCircle
 10
1256.109125
 20
905.712303
 30
0.0
 40
10.150648
100
AcDbArc
 50
65.635807
 51
114.364193
  0
ARC
  5
27ED0
100
AcDbEntity
  8
0
100
AcDbCircle
 10
1261.774766
 20
921.462951
 30
0.0
 40
12.0
100
AcDbArc
 50
276.39631
 51
297.697185
  0
ARC
  5
27ED1
100
AcDbEntity
  8
0
100
AcDbCircle
 10
1294.943186
 20
905.712303
 30
0.0
 40
10.150648
100
AcDbArc
 50
65.635807
 51
114.364193
  0
LINE
  5
27ED2
100
AcDbEntity
  8
0
100
AcDbLine
 10
1307.505686
 20
915.862951
 30
0.0
 11
1290.755686
 21
915.862951
 31
0.0
  0
LINE
  5
27ED3
100
AcDbEntity
  8
0
100
AcDbLine
 10
1290.755686
 20
915.862951
 30
0.0
 11
1290.755686
 21
909.462951
 31
0.0
  0
LINE
  5
27ED4
100
AcDbEntity
  8
0
100
AcDbLine
 10
1307.505686
 20
915.862951
 30
0.0
 11
1307.505686
 21
909.462951
 31
0.0
  0
LINE
  5
27ED5
100
AcDbEntity
  8
0
100
AcDbLine
 10
1299.130686
 20
914.958951
 30
0.0
 11
1299.130686
 21
909.462951
 31
0.0
  0
ARC
  5
27ED6
100
AcDbEntity
  8
0
100
AcDbCircle
 10
1303.318186
 20
905.712303
 30
0.0
 40
10.150648
100
AcDbArc
 50
65.635807
 51
114.364193
  0
LINE
  5
27ED7
100
AcDbEntity
  8
0
100
AcDbLine
 10
1342.42431
 20
951.462951
 30
0.0
 11
1342.42431
 21
930.462951
 31
0.0
  0
LINE
  5
27ED8
100
AcDbEntity
  8
0
100
AcDbLine
 10
1327.15651
 20
939.462951
 30
0.0
 11
1327.15651
 21
951.462951
 31
0.0
  0
LINE
  5
27ED9
100
AcDbEntity
  8
0
100
AcDbLine
 10
1337.69211
 20
939.462951
 30
0.0
 11
1337.69211
 21
951.462951
 31
0.0
  0
LINE
  5
27EDA
100
AcDbEntity
  8
0
100
AcDbLine
 10
1322.42431
 20
951.462951
 30
0.0
 11
1322.42431
 21
930.462951
 31
0.0
  0
LINE
  5
27EDB
100
AcDbEntity
  8
0
100
AcDbLine
 10
1322.42431
 20
951.462951
 30
0.0
 11
1342.42431
 21
951.462951
 31
0.0
  0
LINE
  5
27EDC
100
AcDbEntity
  8
0
100
AcDbLine
 10
1322.42431
 20
939.462951
 30
0.0
 11
1342.42431
 21
939.462951
 31
0.0
  0
ARC
  5
27EDD
100
AcDbEntity
  8
0
100
AcDbCircle
 10
1342.424144
 20
927.462951
 30
0.0
 40
2.0
100
AcDbArc
 50
0.0
 51
90.0
  0
LINE
  5
27EDE
100
AcDbEntity
  8
0
100
AcDbLine
 10
1322.424144
 20
929.462951
 30
0.0
 11
1342.424144
 21
929.462951
 31
0.0
  0
ARC
  5
27EDF
100
AcDbEntity
  8
0
100
AcDbCircle
 10
1322.424144
 20
927.462951
 30
0.0
 40
2.0
100
AcDbArc
 50
90.0
 51
180.0
  0
ARC
  5
27EE0
100
AcDbEntity
  8
0
100
AcDbCircle
 10
1332.424144
 20
1225.556811
 30
0.0
 40
304.310778
100
AcDbArc
 50
264.701343
 51
267.740048
  0
ARC
  5
27EE1
100
AcDbEntity
  8
0
100
AcDbCircle
 10
1291.424144
 20
927.004593
 30
0.0
 40
6.0
100
AcDbArc
 50
286.309265
 51
0.0
  0
LINE
  5
27EE2
100
AcDbEntity
  8
0
100
AcDbLine
 10
1297.424144
 20
928.462951
 30
0.0
 11
1297.424144
 21
927.004593
 31
0.0
  0
ARC
  5
27EE3
100
AcDbEntity
  8
0
100
AcDbCircle
 10
1299.424144
 20
928.462951
 30
0.0
 40
2.0
100
AcDbArc
 50
90.0
 51
180.0
  0
LINE
  5
27EE4
100
AcDbEntity
  8
0
100
AcDbLine
 10
1320.424144
 20
912.462951
 30
0.0
 11
1320.424144
 21
927.462951
 31
0.0
  0
ARC
  5
27EE5
100
AcDbEntity
  8
0
100
AcDbCircle
 10
1317.424144
 20
912.462951
 30
0.0
 40
3.0
100
AcDbArc
 50
270.0
 51
0.0
  0
LINE
  5
27EE6
100
AcDbEntity
  8
0
100
AcDbLine
 10
1344.424144
 20
912.462951
 30
0.0
 11
1344.424144
 21
927.462951
 31
0.0
  0
ARC
  5
27EE7
100
AcDbEntity
  8
0
100
AcDbCircle
 10
1347.424144
 20
912.462951
 30
0.0
 40
3.0
100
AcDbArc
 50
180.0
 51
270.0
  0
CIRCLE
  5
27EE8
100
AcDbEntity
  8
0
100
AcDbCircle
 10
1332.424144
 20
919.462951
 30
0.0
 40
4.864
  0
ARC
  5
27EE9
100
AcDbEntity
  8
0
100
AcDbCircle
 10
1361.530103
 20
905.712303
 30
0.0
 40
10.150648
100
AcDbArc
 50
65.635807
 51
114.364193
  0
LINE
  5
27EEA
100
AcDbEntity
  8
0
100
AcDbLine
 10
1357.342603
 20
915.862951
 30
0.0
 11
1374.092603
 21
915.862951
 31
0.0
  0
LINE
  5
27EEB
100
AcDbEntity
  8
0
100
AcDbLine
 10
1357.342603
 20
915.862951
 30
0.0
 11
1357.342603
 21
909.462951
 31
0.0
  0
LINE
  5
27EEC
100
AcDbEntity
  8
0
100
AcDbLine
 10
1365.717603
 20
914.958951
 30
0.0
 11
1365.717603
 21
909.462951
 31
0.0
  0
ARC
  5
27EED
100
AcDbEntity
  8
0
100
AcDbCircle
 10
1369.905103
 20
905.712303
 30
0.0
 40
10.150648
100
AcDbArc
 50
65.635807
 51
114.364193
  0
LINE
  5
27EEE
100
AcDbEntity
  8
0
100
AcDbLine
 10
1374.092603
 20
915.862951
 30
0.0
 11
1374.092603
 21
909.462951
 31
0.0
  0
ARC
  5
27EEF
100
AcDbEntity
  8
0
100
AcDbCircle
 10
1417.114164
 20
905.712303
 30
0.0
 40
10.150648
100
AcDbArc
 50
65.635807
 51
114.364193
  0
LINE
  5
27EF0
100
AcDbEntity
  8
0
100
AcDbLine
 10
1412.926664
 20
914.958951
 30
0.0
 11
1412.926664
 21
909.462951
 31
0.0
  0
LINE
  5
27EF1
100
AcDbEntity
  8
0
100
AcDbLine
 10
1421.301664
 20
915.862951
 30
0.0
 11
1421.301664
 21
909.462951
 31
0.0
  0
LINE
  5
27EF2
100
AcDbEntity
  8
0
100
AcDbLine
 10
1404.551664
 20
915.862951
 30
0.0
 11
1404.551664
 21
909.462951
 31
0.0
  0
LINE
  5
27EF3
100
AcDbEntity
  8
0
100
AcDbLine
 10
1404.551664
 20
915.862951
 30
0.0
 11
1421.301664
 21
915.862951
 31
0.0
  0
ARC
  5
27EF4
100
AcDbEntity
  8
0
100
AcDbCircle
 10
1408.739164
 20
905.712303
 30
0.0
 40
10.150648
100
AcDbArc
 50
65.635807
 51
114.364193
  0
LINE
  5
27EF5
100
AcDbEntity
  8
0
100
AcDbLine
 10
1367.424144
 20
928.462951
 30
0.0
 11
1367.424144
 21
927.004593
 31
0.0
  0
ARC
  5
27EF6
100
AcDbEntity
  8
0
100
AcDbCircle
 10
1365.424144
 20
928.462951
 30
0.0
 40
2.0
100
AcDbArc
 50
0.0
 51
90.0
  0
ARC
  5
27EF7
100
AcDbEntity
  8
0
100
AcDbCircle
 10
1373.424144
 20
927.004593
 30
0.0
 40
6.0
100
AcDbArc
 50
180.0
 51
253.690735
  0
ARC
  5
27EF8
100
AcDbEntity
  8
0
100
AcDbCircle
 10
1332.424144
 20
786.879649
 30
0.0
 40
140.0
100
AcDbArc
 50
62.302815
 51
73.690735
  0
ARC
  5
27EF9
100
AcDbEntity
  8
0
100
AcDbCircle
 10
1403.073523
 20
921.462951
 30
0.0
 40
12.0
100
AcDbArc
 50
242.302815
 51
270.0
  0
INSERT
  5
27EFA
100
AcDbEntity
  8
0
100
AcDbBlockReference
  2
YA
 10
1158.841649
 20
1580.898814
 30
0.0
 41
-2.856021
 42
2.856021
 43
2.856021
  0
ARC
  5
27EFB
100
AcDbEntity
  8
0
100
AcDbCircle
 10
1052.578807
 20
1443.76039
 30
0.0
 40
3.0
100
AcDbArc
 50
137.878298
 51
180.0
  0
LINE
  5
27EFC
100
AcDbEntity
  8
0
100
AcDbLine
 10
1073.578807
 20
1446.229814
 30
0.0
 11
1073.578807
 21
1429.567814
 31
0.0
  0
LINE
  5
27EFD
100
AcDbEntity
  8
0
100
AcDbLine
 10
1064.578807
 20
1450.704192
 30
0.0
 11
1064.578807
 21
1425.898814
 31
0.0
  0
CIRCLE
  5
27EFE
100
AcDbEntity
  8
0
100
AcDbCircle
 10
1019.872266
 20
1288.081382
 30
0.0
 40
8.24991
  0
LINE
  5
27EFF
100
AcDbEntity
  8
0
100
AcDbLine
 10
1012.085979
 20
1282.106233
 30
0.0
 11
1010.804388
 21
1291.83742
 31
0.0
  0
LINE
  5
27F00
100
AcDbEntity
  8
0
100
AcDbLine
 10
1028.940143
 20
1284.325344
 30
0.0
 11
1021.152933
 21
1278.350578
 31
0.0
  0
LINE
  5
27F01
100
AcDbEntity
  8
0
100
AcDbLine
 10
1021.152933
 20
1278.350578
 30
0.0
 11
1012.085979
 21
1282.106233
 31
0.0
  0
ARC
  5
27F02
100
AcDbEntity
  8
0
100
AcDbCircle
 10
1019.922999
 20
1288.203862
 30
0.0
 40
12.0
100
AcDbArc
 50
45.0
 51
90.0
  0
LINE
  5
27F03
100
AcDbEntity
  8
0
100
AcDbLine
 10
1018.591598
 20
1297.812185
 30
0.0
 11
1027.658552
 21
1294.05653
 31
0.0
  0
LINE
  5
27F04
100
AcDbEntity
  8
0
100
AcDbLine
 10
1010.804388
 20
1291.83742
 30
0.0
 11
1018.591598
 21
1297.812185
 31
0.0
  0
LINE
  5
27F05
100
AcDbEntity
  8
0
100
AcDbLine
 10
1027.658552
 20
1294.05653
 30
0.0
 11
1028.940143
 21
1284.325344
 31
0.0
  0
LINE
  5
27F06
100
AcDbEntity
  8
0
100
AcDbLine
 10
1044.578807
 20
1398.898814
 30
0.0
 11
1047.578807
 21
1398.898814
 31
0.0
  0
LINE
  5
27F07
100
AcDbEntity
  8
0
100
AcDbLine
 10
1042.578807
 20
1432.340374
 30
0.0
 11
1042.578807
 21
1400.898814
 31
0.0
  0
ARC
  5
27F08
100
AcDbEntity
  8
0
100
AcDbCircle
 10
1044.578807
 20
1400.898814
 30
0.0
 40
2.0
100
AcDbArc
 50
180.0
 51
270.0
  0
ARC
  5
27F09
100
AcDbEntity
  8
0
100
AcDbCircle
 10
1039.578807
 20
1418.898814
 30
0.0
 40
3.0
100
AcDbArc
 50
0.0
 51
90.0
  0
ARC
  5
27F0A
100
AcDbEntity
  8
0
100
AcDbCircle
 10
1039.578807
 20
1432.340374
 30
0.0
 40
3.0
100
AcDbArc
 50
0.0
 51
124.717906
  0
LINE
  5
27F0B
100
AcDbEntity
  8
0
100
AcDbLine
 10
1039.578807
 20
1421.898814
 30
0.0
 11
996.578807
 21
1421.898814
 31
0.0
  0
ARC
  5
27F0C
100
AcDbEntity
  8
0
100
AcDbCircle
 10
1049.578807
 20
1430.898814
 30
0.0
 40
10.0
100
AcDbArc
 50
295.841933
 51
309.715137
  0
LINE
  5
27F0D
100
AcDbEntity
  8
0
100
AcDbLine
 10
1049.578807
 20
1443.76039
 30
0.0
 11
1049.578807
 21
1400.898814
 31
0.0
  0
ARC
  5
27F0E
100
AcDbEntity
  8
0
100
AcDbCircle
 10
1047.578807
 20
1400.898814
 30
0.0
 40
2.0
100
AcDbArc
 50
270.0
 51
0.0
  0
LINE
  5
27F0F
100
AcDbEntity
  8
0
100
AcDbLine
 10
1053.937706
 20
1421.898814
 30
0.0
 11
1052.578807
 21
1421.898814
 31
0.0
  0
ARC
  5
27F10
100
AcDbEntity
  8
0
100
AcDbCircle
 10
1052.578807
 20
1418.898814
 30
0.0
 40
3.0
100
AcDbArc
 50
90.0
 51
180.0
  0
ARC
  5
27F11
100
AcDbEntity
  8
0
100
AcDbCircle
 10
1062.578807
 20
1425.898814
 30
0.0
 40
2.0
100
AcDbArc
 50
270.0
 51
0.0
  0
LINE
  5
27F12
100
AcDbEntity
  8
0
100
AcDbLine
 10
1062.578807
 20
1423.898814
 30
0.0
 11
1057.885431
 21
1423.898814
 31
0.0
  0
ARC
  5
27F13
100
AcDbEntity
  8
0
100
AcDbCircle
 10
1057.885431
 20
1420.898814
 30
0.0
 40
3.0
100
AcDbArc
 50
90.0
 51
129.715137
  0
LINE
  5
27F14
100
AcDbEntity
  8
0
100
AcDbLine
 10
1073.578807
 20
1429.567814
 30
0.0
 11
1064.578807
 21
1429.567814
 31
0.0
  0
LINE
  5
27F15
100
AcDbEntity
  8
0
100
AcDbLine
 10
1073.578807
 20
1437.898814
 30
0.0
 11
1064.578807
 21
1437.898814
 31
0.0
  0
LINE
  5
27F16
100
AcDbEntity
  8
0
100
AcDbLine
 10
1109.578807
 20
1605.898814
 30
0.0
 11
1131.578807
 21
1605.898814
 31
0.0
  0
LINE
  5
27F17
100
AcDbEntity
  8
0
100
AcDbLine
 10
1131.578807
 20
1555.898814
 30
0.0
 11
1109.578807
 21
1555.898814
 31
0.0
  0
LINE
  5
27F18
100
AcDbEntity
  8
0
100
AcDbLine
 10
1069.078807
 20
1543.398814
 30
0.0
 11
1069.078807
 21
1494.398814
 31
0.0
  0
ARC
  5
27F19
100
AcDbEntity
  8
0
100
AcDbCircle
 10
1062.578807
 20
1450.704192
 30
0.0
 40
2.0
100
AcDbArc
 50
0.0
 51
64.069844
  0
ARC
  5
27F1A
100
AcDbEntity
  8
0
100
AcDbCircle
 10
1066.077008
 20
1457.898814
 30
0.0
 40
6.0
100
AcDbArc
 50
152.291839
 51
244.069844
  0
LINE
  5
27F1B
100
AcDbEntity
  8
0
100
AcDbLine
 10
1073.578807
 20
1446.229814
 30
0.0
 11
1064.578807
 21
1446.229814
 31
0.0
  0
ARC
  5
27F1C
100
AcDbEntity
  8
0
100
AcDbCircle
 10
996.578807
 20
1496.815512
 30
0.0
 40
140.0
100
AcDbArc
 50
62.302815
 51
73.690735
  0
LINE
  5
27F1D
100
AcDbEntity
  8
0
100
AcDbLine
 10
1034.893561
 20
1617.398814
 30
0.0
 11
1034.893561
 21
1588.398814
 31
0.0
  0
LINE
  5
27F1E
100
AcDbEntity
  8
0
100
AcDbLine
 10
1020.372266
 20
1625.798814
 30
0.0
 11
1036.872266
 21
1625.798814
 31
0.0
  0
ARC
  5
27F1F
100
AcDbEntity
  8
0
100
AcDbCircle
 10
1028.622266
 20
1608.135822
 30
0.0
 40
17.462601
100
AcDbArc
 50
73.680072
 51
106.319928
  0
ARC
  5
27F20
100
AcDbEntity
  8
0
100
AcDbCircle
 10
1021.261266
 20
1620.96749
 30
0.0
 40
4.630982
100
AcDbArc
 50
58.000676
 51
121.999324
  0
LINE
  5
27F21
100
AcDbEntity
  8
0
100
AcDbLine
 10
1018.807266
 20
1624.894814
 30
0.0
 11
1020.372266
 21
1625.798814
 31
0.0
  0
LINE
  5
27F22
100
AcDbEntity
  8
0
100
AcDbLine
 10
1018.807266
 20
1619.398814
 30
0.0
 11
1018.807266
 21
1624.894814
 31
0.0
  0
LINE
  5
27F23
100
AcDbEntity
  8
0
100
AcDbLine
 10
1023.715266
 20
1624.894814
 30
0.0
 11
1023.715266
 21
1619.398814
 31
0.0
  0
LINE
  5
27F24
100
AcDbEntity
  8
0
100
AcDbLine
 10
1036.872266
 20
1625.798814
 30
0.0
 11
1038.437266
 21
1624.894814
 31
0.0
  0
ARC
  5
27F25
100
AcDbEntity
  8
0
100
AcDbCircle
 10
1035.983266
 20
1620.96749
 30
0.0
 40
4.630982
100
AcDbArc
 50
58.000676
 51
121.999324
  0
LINE
  5
27F26
100
AcDbEntity
  8
0
100
AcDbLine
 10
1038.437266
 20
1624.894814
 30
0.0
 11
1038.437266
 21
1619.398814
 31
0.0
  0
LINE
  5
27F27
100
AcDbEntity
  8
0
100
AcDbLine
 10
1033.529266
 20
1624.894814
 30
0.0
 11
1033.529266
 21
1619.398814
 31
0.0
  0
LINE
  5
27F28
100
AcDbEntity
  8
0
100
AcDbLine
 10
1086.578807
 20
1619.398814
 30
0.0
 11
1086.578807
 21
1586.398814
 31
0.0
  0
LINE
  5
27F29
100
AcDbEntity
  8
0
100
AcDbLine
 10
1109.578807
 20
1605.898814
 30
0.0
 11
1109.578807
 21
1555.898814
 31
0.0
  0
LINE
  5
27F2A
100
AcDbEntity
  8
0
100
AcDbLine
 10
1101.784578
 20
1601.398814
 30
0.0
 11
1101.784578
 21
1560.398814
 31
0.0
  0
LINE
  5
27F2B
100
AcDbEntity
  8
0
100
AcDbLine
 10
1078.578807
 20
1560.398814
 30
0.0
 11
1101.784578
 21
1560.398814
 31
0.0
  0
LINE
  5
27F2C
100
AcDbEntity
  8
0
100
AcDbLine
 10
1072.578807
 20
1554.398814
 30
0.0
 11
1072.578807
 21
1549.460992
 31
0.0
  0
LINE
  5
27F2D
100
AcDbEntity
  8
0
100
AcDbLine
 10
1072.578807
 20
1561.55736
 30
0.0
 11
1072.578807
 21
1581.398814
 31
0.0
  0
ARC
  5
27F2E
100
AcDbEntity
  8
0
100
AcDbCircle
 10
1078.578807
 20
1554.398814
 30
0.0
 40
6.0
100
AcDbArc
 50
90.0
 51
180.0
  0
LINE
  5
27F2F
100
AcDbEntity
  8
0
100
AcDbLine
 10
1101.784578
 20
1560.398814
 30
0.0
 11
1109.578807
 21
1555.898814
 31
0.0
  0
LINE
  5
27F30
100
AcDbEntity
  8
0
100
AcDbLine
 10
1072.578807
 20
1549.460992
 30
0.0
 11
1069.078807
 21
1543.398814
 31
0.0
  0
LINE
  5
27F31
100
AcDbEntity
  8
0
100
AcDbLine
 10
1086.578807
 20
1601.398814
 30
0.0
 11
1101.784578
 21
1601.398814
 31
0.0
  0
LINE
  5
27F32
100
AcDbEntity
  8
0
100
AcDbLine
 10
1101.784578
 20
1601.398814
 30
0.0
 11
1087.828807
 21
1601.398814
 31
0.0
  0
LINE
  5
27F33
100
AcDbEntity
  8
0
100
AcDbLine
 10
1083.956326
 20
1625.798814
 30
0.0
 11
1085.521326
 21
1624.894814
 31
0.0
  0
ARC
  5
27F34
100
AcDbEntity
  8
0
100
AcDbCircle
 10
1083.067326
 20
1620.96749
 30
0.0
 40
4.630982
100
AcDbArc
 50
58.000676
 51
121.999324
  0
LINE
  5
27F35
100
AcDbEntity
  8
0
100
AcDbLine
 10
1085.521326
 20
1624.894814
 30
0.0
 11
1085.521326
 21
1619.398814
 31
0.0
  0
LINE
  5
27F36
100
AcDbEntity
  8
0
100
AcDbLine
 10
1080.613326
 20
1624.894814
 30
0.0
 11
1080.613326
 21
1619.398814
 31
0.0
  0
LINE
  5
27F37
100
AcDbEntity
  8
0
100
AcDbLine
 10
1101.784578
 20
1601.398814
 30
0.0
 11
1109.578807
 21
1605.898814
 31
0.0
  0
LINE
  5
27F38
100
AcDbEntity
  8
0
100
AcDbLine
 10
1065.891326
 20
1624.894814
 30
0.0
 11
1067.456326
 21
1625.798814
 31
0.0
  0
ARC
  5
27F39
100
AcDbEntity
  8
0
100
AcDbCircle
 10
1068.345326
 20
1620.96749
 30
0.0
 40
4.630982
100
AcDbArc
 50
58.000676
 51
121.999324
  0
LINE
  5
27F3A
100
AcDbEntity
  8
0
100
AcDbLine
 10
1070.799326
 20
1624.894814
 30
0.0
 11
1070.799326
 21
1619.398814
 31
0.0
  0
LINE
  5
27F3B
100
AcDbEntity
  8
0
100
AcDbLine
 10
1065.891326
 20
1619.398814
 30
0.0
 11
1065.891326
 21
1624.894814
 31
0.0
  0
LINE
  5
27F3C
100
AcDbEntity
  8
0
100
AcDbLine
 10
1067.456326
 20
1625.798814
 30
0.0
 11
1083.956326
 21
1625.798814
 31
0.0
  0
ARC
  5
27F3D
100
AcDbEntity
  8
0
100
AcDbCircle
 10
1075.706326
 20
1608.135822
 30
0.0
 40
17.462601
100
AcDbArc
 50
73.680072
 51
106.319928
  0
ARC
  5
27F3E
100
AcDbEntity
  8
0
100
AcDbCircle
 10
1067.228185
 20
1631.398814
 30
0.0
 40
12.0
100
AcDbArc
 50
242.302815
 51
263.60369
  0
ARC
  5
27F3F
100
AcDbEntity
  8
0
100
AcDbCircle
 10
1067.578807
 20
1622.398814
 30
0.0
 40
3.0
100
AcDbArc
 50
180.0
 51
235.77158
  0
LINE
  5
27F40
100
AcDbEntity
  8
0
100
AcDbLine
 10
1131.578807
 20
1605.898814
 30
0.0
 11
1131.578807
 21
1580.898814
 31
0.0
  0
LINE
  5
27F41
100
AcDbEntity
  8
0
100
AcDbLine
 10
1131.578807
 20
1580.898814
 30
0.0
 11
1131.578807
 21
1555.898814
 31
0.0
  0
LINE
  5
27F42
100
AcDbEntity
  8
0
100
AcDbLine
 10
1733.627314
 20
923.362951
 30
0.0
 11
1716.877314
 21
923.362951
 31
0.0
  0
LINE
  5
27F43
100
AcDbEntity
  8
0
100
AcDbLine
 10
1787.727077
 20
900.962951
 30
0.0
 11
1713.254833
 21
900.962951
 31
0.0
  0
LINE
  5
27F44
100
AcDbEntity
  8
0
100
AcDbLine
 10
1767.807501
 20
883.962951
 30
0.0
 11
1713.254833
 21
883.962951
 31
0.0
  0
ARC
  5
27F45
100
AcDbEntity
  8
0
100
AcDbCircle
 10
1721.064814
 20
913.212303
 30
0.0
 40
10.150648
100
AcDbArc
 50
65.635807
 51
114.364193
  0
LINE
  5
27F46
100
AcDbEntity
  8
0
100
AcDbLine
 10
1716.877314
 20
923.362951
 30
0.0
 11
1716.877314
 21
916.962951
 31
0.0
  0
LINE
  5
27F47
100
AcDbEntity
  8
0
100
AcDbLine
 10
1713.254833
 20
883.962951
 30
0.0
 11
1713.254833
 21
916.962951
 31
0.0
  0
LINE
  5
27F48
100
AcDbEntity
  8
0
100
AcDbLine
 10
1772.754833
 20
937.962951
 30
0.0
 11
1838.754833
 21
937.962951
 31
0.0
  0
ARC
  5
27F49
100
AcDbEntity
  8
0
100
AcDbCircle
 10
1805.754833
 20
1233.056811
 30
0.0
 40
304.310778
100
AcDbArc
 50
264.701343
 51
266.986123
  0
ARC
  5
27F4A
100
AcDbEntity
  8
0
100
AcDbCircle
 10
1729.439814
 20
913.212303
 30
0.0
 40
10.150648
100
AcDbArc
 50
65.635807
 51
114.364193
  0
LINE
  5
27F4B
100
AcDbEntity
  8
0
100
AcDbLine
 10
1725.252314
 20
922.458951
 30
0.0
 11
1725.252314
 21
916.962951
 31
0.0
  0
LINE
  5
27F4C
100
AcDbEntity
  8
0
100
AcDbLine
 10
1768.690078
 20
914.962951
 30
0.0
 11
1768.690078
 21
885.962951
 31
0.0
  0
ARC
  5
27F4D
100
AcDbEntity
  8
0
100
AcDbCircle
 10
1767.807501
 20
879.962951
 30
0.0
 40
4.0
100
AcDbArc
 50
346.657636
 51
90.0
  0
LINE
  5
27F4E
100
AcDbEntity
  8
0
100
AcDbLine
 10
1780.836374
 20
923.362951
 30
0.0
 11
1764.086374
 21
923.362951
 31
0.0
  0
ARC
  5
27F4F
100
AcDbEntity
  8
0
100
AcDbCircle
 10
1776.648874
 20
913.212303
 30
0.0
 40
10.150648
100
AcDbArc
 50
65.635807
 51
114.364193
  0
LINE
  5
27F50
100
AcDbEntity
  8
0
100
AcDbLine
 10
1764.086374
 20
923.362951
 30
0.0
 11
1764.086374
 21
916.962951
 31
0.0
  0
ARC
  5
27F51
100
AcDbEntity
  8
0
100
AcDbCircle
 10
1768.273874
 20
913.212303
 30
0.0
 40
10.150648
100
AcDbArc
 50
65.635807
 51
114.364193
  0
LINE
  5
27F52
100
AcDbEntity
  8
0
100
AcDbLine
 10
1772.461374
 20
922.458951
 30
0.0
 11
1772.461374
 21
916.962951
 31
0.0
  0
LINE
  5
27F53
100
AcDbEntity
  8
0
100
AcDbLine
 10
1780.836374
 20
923.362951
 30
0.0
 11
1780.836374
 21
916.962951
 31
0.0
  0
LINE
  5
27F54
100
AcDbEntity
  8
0
100
AcDbLine
 10
1733.627314
 20
923.362951
 30
0.0
 11
1733.627314
 21
916.962951
 31
0.0
  0
ARC
  5
27F55
100
AcDbEntity
  8
0
100
AcDbCircle
 10
1772.754833
 20
935.962951
 30
0.0
 40
2.0
100
AcDbArc
 50
90.0
 51
180.0
  0
LINE
  5
27F56
100
AcDbEntity
  8
0
100
AcDbLine
 10
1770.754833
 20
935.962951
 30
0.0
 11
1770.754833
 21
934.504593
 31
0.0
  0
ARC
  5
27F57
100
AcDbEntity
  8
0
100
AcDbCircle
 10
1764.754833
 20
934.504593
 30
0.0
 40
6.0
100
AcDbArc
 50
286.309265
 51
0.0
  0
ARC
  5
27F58
100
AcDbEntity
  8
0
100
AcDbCircle
 10
1735.105454
 20
928.962951
 30
0.0
 40
12.0
100
AcDbArc
 50
276.39631
 51
297.697185
  0
ARC
  5
27F59
100
AcDbEntity
  8
0
100
AcDbCircle
 10
1805.754833
 20
794.379649
 30
0.0
 40
140.0
100
AcDbArc
 50
106.309265
 51
117.697185
  0
ARC
  5
27F5A
100
AcDbEntity
  8
0
100
AcDbCircle
 10
1834.860792
 20
913.212303
 30
0.0
 40
10.150648
100
AcDbArc
 50
65.635807
 51
114.364193
  0
LINE
  5
27F5B
100
AcDbEntity
  8
0
100
AcDbLine
 10
1830.673292
 20
923.362951
 30
0.0
 11
1847.423292
 21
923.362951
 31
0.0
  0
LINE
  5
27F5C
100
AcDbEntity
  8
0
100
AcDbLine
 10
1830.673292
 20
923.362951
 30
0.0
 11
1830.673292
 21
916.962951
 31
0.0
  0
LINE
  5
27F5D
100
AcDbEntity
  8
0
100
AcDbLine
 10
1845.319587
 20
914.962951
 30
0.0
 11
1845.319587
 21
885.962951
 31
0.0
  0
ARC
  5
27F5E
100
AcDbEntity
  8
0
100
AcDbCircle
 10
1843.702165
 20
879.962951
 30
0.0
 40
4.0
100
AcDbArc
 50
90.0
 51
193.342364
  0
LINE
  5
27F5F
100
AcDbEntity
  8
0
100
AcDbLine
 10
1847.423292
 20
923.362951
 30
0.0
 11
1847.423292
 21
916.962951
 31
0.0
  0
LINE
  5
27F60
100
AcDbEntity
  8
0
100
AcDbLine
 10
1839.048292
 20
922.458951
 30
0.0
 11
1839.048292
 21
916.962951
 31
0.0
  0
ARC
  5
27F61
100
AcDbEntity
  8
0
100
AcDbCircle
 10
1843.235792
 20
913.212303
 30
0.0
 40
10.150648
100
AcDbArc
 50
65.635807
 51
114.364193
  0
LINE
  5
27F62
100
AcDbEntity
  8
0
100
AcDbLine
 10
1819.754833
 20
935.962951
 30
0.0
 11
1791.754833
 21
935.962951
 31
0.0
  0
LINE
  5
27F63
100
AcDbEntity
  8
0
100
AcDbLine
 10
1795.754999
 20
946.962951
 30
0.0
 11
1815.754999
 21
946.962951
 31
0.0
  0
LINE
  5
27F64
100
AcDbEntity
  8
0
100
AcDbLine
 10
1795.754999
 20
958.962951
 30
0.0
 11
1815.754999
 21
958.962951
 31
0.0
  0
ARC
  5
27F65
100
AcDbEntity
  8
0
100
AcDbCircle
 10
1791.754833
 20
933.962951
 30
0.0
 40
2.0
100
AcDbArc
 50
90.0
 51
180.0
  0
LINE
  5
27F66
100
AcDbEntity
  8
0
100
AcDbLine
 10
1800.487199
 20
946.962951
 30
0.0
 11
1800.487199
 21
958.962951
 31
0.0
  0
LINE
  5
27F67
100
AcDbEntity
  8
0
100
AcDbLine
 10
1811.022799
 20
946.962951
 30
0.0
 11
1811.022799
 21
958.962951
 31
0.0
  0
LINE
  5
27F68
100
AcDbEntity
  8
0
100
AcDbLine
 10
1795.754999
 20
958.962951
 30
0.0
 11
1795.754999
 21
937.962951
 31
0.0
  0
ARC
  5
27F69
100
AcDbEntity
  8
0
100
AcDbCircle
 10
1819.754833
 20
933.962951
 30
0.0
 40
2.0
100
AcDbArc
 50
0.0
 51
90.0
  0
LINE
  5
27F6A
100
AcDbEntity
  8
0
100
AcDbLine
 10
1815.754999
 20
958.962951
 30
0.0
 11
1815.754999
 21
937.962951
 31
0.0
  0
ARC
  5
27F6B
100
AcDbEntity
  8
0
100
AcDbCircle
 10
1838.754833
 20
935.962951
 30
0.0
 40
2.0
100
AcDbArc
 50
0.0
 51
90.0
  0
LINE
  5
27F6C
100
AcDbEntity
  8
0
100
AcDbLine
 10
1840.754833
 20
935.962951
 30
0.0
 11
1840.754833
 21
934.504593
 31
0.0
  0
ARC
  5
27F6D
100
AcDbEntity
  8
0
100
AcDbCircle
 10
1846.754833
 20
934.504593
 30
0.0
 40
6.0
100
AcDbArc
 50
180.0
 51
253.690735
  0
ARC
  5
27F6E
100
AcDbEntity
  8
0
100
AcDbCircle
 10
1805.754833
 20
1233.056811
 30
0.0
 40
304.310778
100
AcDbArc
 50
273.013877
 51
275.298657
  0
LINE
  5
27F6F
100
AcDbEntity
  8
0
100
AcDbLine
 10
1789.754833
 20
919.962951
 30
0.0
 11
1789.754833
 21
933.962951
 31
0.0
  0
ARC
  5
27F70
100
AcDbEntity
  8
0
100
AcDbCircle
 10
1786.754833
 20
919.962951
 30
0.0
 40
3.0
100
AcDbArc
 50
270.0
 51
360.0
  0
ARC
  5
27F71
100
AcDbEntity
  8
0
100
AcDbCircle
 10
1824.754833
 20
919.962951
 30
0.0
 40
3.0
100
AcDbArc
 50
180.0
 51
270.0
  0
LINE
  5
27F72
100
AcDbEntity
  8
0
100
AcDbLine
 10
1821.754833
 20
919.962951
 30
0.0
 11
1821.754833
 21
933.962951
 31
0.0
  0
LINE
  5
27F74
100
AcDbEntity
  8
0
100
AcDbLine
 10
1881.754833
 20
883.962951
 30
0.0
 11
1881.754833
 21
839.525129
 31
0.0
  0
LINE
  5
27F75
100
AcDbEntity
  8
0
100
AcDbLine
 10
2111.958987
 20
844.121497
 30
0.0
 11
2111.958987
 21
883.962951
 31
0.0
  0
LINE
  5
27F76
100
AcDbEntity
  8
0
100
AcDbLine
 10
2085.083343
 20
898.962951
 30
0.0
 11
2085.083343
 21
842.962951
 31
0.0
  0
LINE
  5
27F77
100
AcDbEntity
  8
0
100
AcDbLine
 10
2072.958987
 20
905.962951
 30
0.0
 11
2072.958987
 21
835.962951
 31
0.0
  0
LINE
  5
27F78
100
AcDbEntity
  8
0
100
AcDbLine
 10
2052.958987
 20
870.962951
 30
0.0
 11
2052.958987
 21
905.962951
 31
0.0
  0
LINE
  5
27F79
100
AcDbEntity
  8
0
100
AcDbLine
 10
2269.958987
 20
850.462951
 30
0.0
 11
2269.958987
 21
883.962951
 31
0.0
  0
CIRCLE
  5
27F7A
100
AcDbEntity
  8
0
100
AcDbCircle
 10
2535.278458
 20
870.962951
 30
0.0
 40
35.0
  0
LINE
  5
27F7B
100
AcDbEntity
  8
0
100
AcDbLine
 10
2300.834632
 20
898.962951
 30
0.0
 11
2300.834632
 21
842.962951
 31
0.0
  0
LINE
  5
27F7C
100
AcDbEntity
  8
0
100
AcDbLine
 10
2312.958987
 20
905.962951
 30
0.0
 11
2312.958987
 21
835.962951
 31
0.0
  0
LINE
  5
27F7D
100
AcDbEntity
  8
0
100
AcDbLine
 10
2332.958987
 20
870.962951
 30
0.0
 11
2332.958987
 21
905.962951
 31
0.0
  0
LINE
  5
27F7E
100
AcDbEntity
  8
0
100
AcDbLine
 10
2459.278458
 20
883.962951
 30
0.0
 11
2459.278458
 21
839.525129
 31
0.0
  0
LINE
  5
27F7F
100
AcDbEntity
  8
0
100
AcDbLine
 10
2611.278458
 20
883.962951
 30
0.0
 11
2611.278458
 21
839.525129
 31
0.0
  0
LINE
  5
27F80
100
AcDbEntity
  8
0
100
AcDbLine
 10
2300.178183
 20
755.308513
 30
0.0
 11
2291.773699
 21
757.560488
 31
0.0
  0
LINE
  5
27F81
100
AcDbEntity
  8
0
100
AcDbLine
 10
2301.057295
 20
758.589407
 30
0.0
 11
2292.652812
 21
760.841381
 31
0.0
  0
LINE
  5
27F82
100
AcDbEntity
  8
0
100
AcDbLine
 10
2303.858639
 20
764.025066
 30
0.0
 11
2294.799973
 21
730.217662
 31
0.0
  0
ARC
  5
27F83
100
AcDbEntity
  8
0
100
AcDbCircle
 10
2269.574724
 20
755.09408
 30
0.0
 40
30.604209
100
AcDbArc
 50
329.598545
 51
0.401455
  0
LINE
  5
27F84
100
AcDbEntity
  8
0
100
AcDbLine
 10
2303.186208
 20
766.534615
 30
0.0
 11
2294.781724
 21
768.78659
 31
0.0
  0
LINE
  5
27F85
100
AcDbEntity
  8
0
100
AcDbLine
 10
2293.958987
 20
842.962951
 30
0.0
 11
2300.834632
 21
842.962951
 31
0.0
  0
LINE
  5
27F86
100
AcDbEntity
  8
0
100
AcDbLine
 10
1878.254833
 20
833.462951
 30
0.0
 11
1878.254833
 21
776.962951
 31
0.0
  0
LINE
  5
27F87
100
AcDbEntity
  8
0
100
AcDbLine
 10
1883.254833
 20
771.462951
 30
0.0
 11
1883.254833
 21
756.462951
 31
0.0
  0
LINE
  5
27F88
100
AcDbEntity
  8
0
100
AcDbLine
 10
1883.254833
 20
756.462951
 30
0.0
 11
1875.296188
 21
756.462951
 31
0.0
  0
LINE
  5
27F89
100
AcDbEntity
  8
0
100
AcDbLine
 10
1883.254833
 20
771.462951
 30
0.0
 11
1878.045911
 21
771.462951
 31
0.0
  0
LINE
  5
27F8A
100
AcDbEntity
  8
0
100
AcDbLine
 10
1881.754833
 20
839.525129
 30
0.0
 11
1878.254833
 21
833.462951
 31
0.0
  0
ARC
  5
27F8B
100
AcDbEntity
  8
0
100
AcDbCircle
 10
2187.958987
 20
776.962951
 30
0.0
 40
72.5
100
AcDbArc
 50
180.0
 51
319.601043
  0
LINE
  5
27F8C
100
AcDbEntity
  8
0
100
AcDbLine
 10
2134.958987
 20
726.324527
 30
0.0
 11
2134.958987
 21
683.462951
 31
0.0
  0
LINE
  5
27F8D
100
AcDbEntity
  8
0
100
AcDbLine
 10
2141.958987
 20
714.904511
 30
0.0
 11
2141.958987
 21
683.462951
 31
0.0
  0
ARC
  5
27F8E
100
AcDbEntity
  8
0
100
AcDbCircle
 10
2218.53188
 20
668.719238
 30
0.0
 40
40.0
100
AcDbArc
 50
21.283855
 51
104.262397
  0
LINE
  5
27F8F
100
AcDbEntity
  8
0
100
AcDbLine
 10
2262.958987
 20
726.870554
 30
0.0
 11
2262.958987
 21
683.462951
 31
0.0
  0
LINE
  5
27F90
100
AcDbEntity
  8
0
100
AcDbLine
 10
2251.960094
 20
727.170512
 30
0.0
 11
2255.79926
 21
683.28864
 31
0.0
  0
TEXT
  5
27F91
100
AcDbEntity
  8
0
100
AcDbText
 10
2159.089904
 20
583.419435
 30
0.0
 40
25.0
  1
40A
 72
     4
 11
2192.423238
 21
595.919435
 31
0.0
100
AcDbText
  0
LINE
  5
27F92
100
AcDbEntity
  8
0
100
AcDbLine
 10
2139.958987
 20
681.462951
 30
0.0
 11
2136.958987
 21
681.462951
 31
0.0
  0
ARC
  5
27F93
100
AcDbEntity
  8
0
100
AcDbCircle
 10
2139.958987
 20
683.462951
 30
0.0
 40
2.0
100
AcDbArc
 50
270.0
 51
0.0
  0
ARC
  5
27F94
100
AcDbEntity
  8
0
100
AcDbCircle
 10
2136.958987
 20
683.462951
 30
0.0
 40
2.0
100
AcDbArc
 50
180.0
 51
270.0
  0
LINE
  5
27F95
100
AcDbEntity
  8
0
100
AcDbLine
 10
2257.79165
 20
681.462951
 30
0.0
 11
2260.958987
 21
681.462951
 31
0.0
  0
ARC
  5
27F96
100
AcDbEntity
  8
0
100
AcDbCircle
 10
2260.958987
 20
683.462951
 30
0.0
 40
2.0
100
AcDbArc
 50
270.0
 51
0.0
  0
ARC
  5
27F97
100
AcDbEntity
  8
0
100
AcDbCircle
 10
2257.79165
 20
683.462951
 30
0.0
 40
2.0
100
AcDbArc
 50
185.0
 51
270.0
  0
LINE
  5
27F98
100
AcDbEntity
  8
0
100
AcDbLine
 10
2144.958987
 20
704.462951
 30
0.0
 11
2187.958987
 21
704.462951
 31
0.0
  0
LINE
  5
27F99
100
AcDbEntity
  8
0
100
AcDbLine
 10
2255.882051
 20
839.525129
 30
0.0
 11
2120.035923
 21
839.525129
 31
0.0
  0
LINE
  5
27F9A
100
AcDbEntity
  8
0
100
AcDbLine
 10
2119.765933
 20
833.462951
 30
0.0
 11
2256.152041
 21
833.462951
 31
0.0
  0
LINE
  5
27F9B
100
AcDbEntity
  8
0
100
AcDbLine
 10
2115.458987
 20
825.962951
 30
0.0
 11
2115.458987
 21
776.962951
 31
0.0
  0
ARC
  5
27F9C
100
AcDbEntity
  8
0
100
AcDbCircle
 10
2144.958987
 20
714.904511
 30
0.0
 40
3.0
100
AcDbArc
 50
55.282094
 51
180.0
  0
ARC
  5
27F9D
100
AcDbEntity
  8
0
100
AcDbCircle
 10
2144.958987
 20
701.462951
 30
0.0
 40
3.0
100
AcDbArc
 50
90.0
 51
180.0
  0
LINE
  5
27F9E
100
AcDbEntity
  8
0
100
AcDbLine
 10
2130.600088
 20
704.462951
 30
0.0
 11
2131.958987
 21
704.462951
 31
0.0
  0
ARC
  5
27F9F
100
AcDbEntity
  8
0
100
AcDbCircle
 10
2126.652363
 20
703.462951
 30
0.0
 40
3.0
100
AcDbArc
 50
50.284863
 51
90.0
  0
ARC
  5
27FA0
100
AcDbEntity
  8
0
100
AcDbCircle
 10
2134.958987
 20
713.462951
 30
0.0
 40
10.0
100
AcDbArc
 50
230.284863
 51
244.158067
  0
LINE
  5
27FA1
100
AcDbEntity
  8
0
100
AcDbLine
 10
2110.958987
 20
720.462951
 30
0.0
 11
2119.958987
 21
720.462951
 31
0.0
  0
ARC
  5
27FA2
100
AcDbEntity
  8
0
100
AcDbCircle
 10
2118.460786
 20
740.462951
 30
0.0
 40
6.0
100
AcDbArc
 50
295.930156
 51
27.708161
  0
ARC
  5
27FA3
100
AcDbEntity
  8
0
100
AcDbCircle
 10
2121.958987
 20
733.268329
 30
0.0
 40
2.0
100
AcDbArc
 50
115.930156
 51
180.0
  0
LINE
  5
27FA4
100
AcDbEntity
  8
0
100
AcDbLine
 10
2110.958987
 20
728.793951
 30
0.0
 11
2119.958987
 21
728.793951
 31
0.0
  0
ARC
  5
27FA5
100
AcDbEntity
  8
0
100
AcDbCircle
 10
2121.958987
 20
708.462951
 30
0.0
 40
2.0
100
AcDbArc
 50
180.0
 51
270.0
  0
LINE
  5
27FA6
100
AcDbEntity
  8
0
100
AcDbLine
 10
2110.958987
 20
712.131951
 30
0.0
 11
2119.958987
 21
712.131951
 31
0.0
  0
LINE
  5
27FA7
100
AcDbEntity
  8
0
100
AcDbLine
 10
2121.958987
 20
706.462951
 30
0.0
 11
2126.652363
 21
706.462951
 31
0.0
  0
LINE
  5
27FA8
100
AcDbEntity
  8
0
100
AcDbLine
 10
2119.958987
 20
733.268329
 30
0.0
 11
2119.958987
 21
708.462951
 31
0.0
  0
LINE
  5
27FA9
100
AcDbEntity
  8
0
100
AcDbLine
 10
2110.958987
 20
728.793951
 30
0.0
 11
2110.958987
 21
712.131951
 31
0.0
  0
ARC
  5
27FAA
100
AcDbEntity
  8
0
100
AcDbCircle
 10
2131.958987
 20
701.462951
 30
0.0
 40
3.0
100
AcDbArc
 50
0.0
 51
90.0
  0
ARC
  5
27FAB
100
AcDbEntity
  8
0
100
AcDbCircle
 10
2131.958987
 20
726.324527
 30
0.0
 40
3.0
100
AcDbArc
 50
0.0
 51
42.121702
  0
LINE
  5
27FAC
100
AcDbEntity
  8
0
100
AcDbLine
 10
2105.958987
 20
842.962951
 30
0.0
 11
2085.083343
 21
842.962951
 31
0.0
  0
LINE
  5
27FAD
100
AcDbEntity
  8
0
100
AcDbLine
 10
2072.958987
 20
835.962951
 30
0.0
 11
2085.083343
 21
842.962951
 31
0.0
  0
LINE
  5
27FAE
100
AcDbEntity
  8
0
100
AcDbLine
 10
2052.958987
 20
835.962951
 30
0.0
 11
2052.958987
 21
870.962951
 31
0.0
  0
LINE
  5
27FAF
100
AcDbEntity
  8
0
100
AcDbLine
 10
2072.958987
 20
835.962951
 30
0.0
 11
2052.958987
 21
835.962951
 31
0.0
  0
ARC
  5
27FB0
100
AcDbEntity
  8
0
100
AcDbCircle
 10
2105.958987
 20
836.962951
 30
0.0
 40
6.0
100
AcDbArc
 50
0.0
 51
90.0
  0
LINE
  5
27FB1
100
AcDbEntity
  8
0
100
AcDbLine
 10
2111.958987
 20
832.025129
 30
0.0
 11
2115.458987
 21
825.962951
 31
0.0
  0
LINE
  5
27FB2
100
AcDbEntity
  8
0
100
AcDbLine
 10
2111.958987
 20
836.962951
 30
0.0
 11
2111.958987
 21
832.025129
 31
0.0
  0
LINE
  5
27FB3
100
AcDbEntity
  8
0
100
AcDbLine
 10
2287.958987
 20
836.962951
 30
0.0
 11
2287.958987
 21
773.175536
 31
0.0
  0
LINE
  5
27FB4
100
AcDbEntity
  8
0
100
AcDbLine
 10
2260.458987
 20
833.462951
 30
0.0
 11
2260.458987
 21
776.962951
 31
0.0
  0
LINE
  5
27FB5
100
AcDbEntity
  8
0
100
AcDbLine
 10
2207.958987
 20
771.462951
 30
0.0
 11
2207.958987
 21
756.462951
 31
0.0
  0
LINE
  5
27FB6
100
AcDbEntity
  8
0
100
AcDbLine
 10
2167.958987
 20
771.462951
 30
0.0
 11
2167.958987
 21
756.462951
 31
0.0
  0
LINE
  5
27FB7
100
AcDbEntity
  8
0
100
AcDbLine
 10
2167.958987
 20
756.462951
 30
0.0
 11
2207.958987
 21
756.462951
 31
0.0
  0
LINE
  5
27FB8
100
AcDbEntity
  8
0
100
AcDbLine
 10
2167.958987
 20
771.462951
 30
0.0
 11
2207.958987
 21
771.462951
 31
0.0
  0
ARC
  5
27FB9
100
AcDbEntity
  8
0
100
AcDbCircle
 10
2300.619472
 20
762.964546
 30
0.0
 40
8.244725
100
AcDbArc
 50
135.077168
 51
194.922832
  0
LINE
  5
27FBA
100
AcDbEntity
  8
0
100
AcDbLine
 10
2295.091767
 20
736.325753
 30
0.0
 11
2286.687284
 21
738.577728
 31
0.0
  0
LINE
  5
27FBB
100
AcDbEntity
  8
0
100
AcDbLine
 10
2295.97088
 20
739.606647
 30
0.0
 11
2287.566396
 21
741.858621
 31
0.0
  0
ARC
  5
27FBC
100
AcDbEntity
  8
0
100
AcDbCircle
 10
2287.125107
 20
734.202589
 30
0.0
 40
8.244725
100
AcDbArc
 50
315.077168
 51
14.922832
  0
LINE
  5
27FBD
100
AcDbEntity
  8
0
100
AcDbLine
 10
2292.962855
 20
728.380545
 30
0.0
 11
2294.799973
 21
730.217662
 31
0.0
  0
LINE
  5
27FBE
100
AcDbEntity
  8
0
100
AcDbLine
 10
2294.781724
 20
768.78659
 30
0.0
 11
2292.944606
 21
766.949472
 31
0.0
  0
ARC
  5
27FBF
100
AcDbEntity
  8
0
100
AcDbCircle
 10
2290.958987
 20
773.175536
 30
0.0
 40
3.0
100
AcDbArc
 50
180.0
 51
255.0
  0
LINE
  5
27FC0
100
AcDbEntity
  8
0
100
AcDbLine
 10
2290.18253
 20
770.277759
 30
0.0
 11
2292.755138
 21
769.588431
 31
0.0
  0
ARC
  5
27FC1
100
AcDbEntity
  8
0
100
AcDbCircle
 10
2246.97912
 20
726.734733
 30
0.0
 40
5.0
100
AcDbArc
 50
5.0
 51
139.601043
  0
LINE
  5
27FC2
100
AcDbEntity
  8
0
100
AcDbLine
 10
2250.111665
 20
733.306028
 30
0.0
 11
2270.353687
 21
729.003453
 31
0.0
  0
ARC
  5
27FC3
100
AcDbEntity
  8
0
100
AcDbCircle
 10
2248.864194
 20
727.437142
 30
0.0
 40
6.0
100
AcDbArc
 50
78.0
 51
140.883297
  0
LINE
  5
27FC4
100
AcDbEntity
  8
0
100
AcDbLine
 10
2292.962855
 20
728.380545
 30
0.0
 11
2284.558371
 21
730.63252
 31
0.0
  0
ARC
  5
27FC5
100
AcDbEntity
  8
0
100
AcDbCircle
 10
2292.525031
 20
732.755684
 30
0.0
 40
8.244725
100
AcDbArc
 50
135.077168
 51
194.922832
  0
LINE
  5
27FC6
100
AcDbEntity
  8
0
100
AcDbLine
 10
2283.627121
 20
732.176143
 30
0.0
 11
2293.203425
 21
767.915398
 31
0.0
  0
LINE
  5
27FC7
100
AcDbEntity
  8
0
100
AcDbLine
 10
2282.402376
 20
730.951398
 30
0.0
 11
2283.627121
 21
732.176143
 31
0.0
  0
LINE
  5
27FC8
100
AcDbEntity
  8
0
100
AcDbLine
 10
2284.558371
 20
730.63252
 30
0.0
 11
2283.88594
 21
733.142068
 31
0.0
  0
ARC
  5
27FC9
100
AcDbEntity
  8
0
100
AcDbCircle
 10
2318.169855
 20
742.073054
 30
0.0
 40
30.604209
100
AcDbArc
 50
149.598545
 51
180.401455
  0
LINE
  5
27FCA
100
AcDbEntity
  8
0
100
AcDbLine
 10
2286.687284
 20
738.577728
 30
0.0
 11
2287.566396
 21
741.858621
 31
0.0
  0
LINE
  5
27FCB
100
AcDbEntity
  8
0
100
AcDbLine
 10
2291.773699
 20
757.560488
 30
0.0
 11
2292.652812
 21
760.841381
 31
0.0
  0
LINE
  5
27FCC
100
AcDbEntity
  8
0
100
AcDbLine
 10
2292.755138
 20
769.588431
 30
0.0
 11
2293.203425
 21
767.915398
 31
0.0
  0
LINE
  5
27FCD
100
AcDbEntity
  8
0
100
AcDbLine
 10
2278.409263
 20
732.021349
 30
0.0
 11
2270.353687
 21
729.003453
 31
0.0
  0
ARC
  5
27FCE
100
AcDbEntity
  8
0
100
AcDbCircle
 10
2265.958987
 20
726.870554
 30
0.0
 40
3.0
100
AcDbArc
 50
78.0
 51
180.0
  0
LINE
  5
27FCF
100
AcDbEntity
  8
0
100
AcDbLine
 10
2278.409263
 20
732.021349
 30
0.0
 11
2282.402376
 21
730.951398
 31
0.0
  0
LINE
  5
27FD0
100
AcDbEntity
  8
0
100
AcDbLine
 10
2295.97088
 20
739.606647
 30
0.0
 11
2295.091767
 21
736.325753
 31
0.0
  0
ARC
  5
27FD1
100
AcDbEntity
  8
0
100
AcDbCircle
 10
2293.958987
 20
836.962951
 30
0.0
 40
6.0
100
AcDbArc
 50
90.0
 51
180.0
  0
LINE
  5
27FD2
100
AcDbEntity
  8
0
100
AcDbLine
 10
2263.958987
 20
839.525129
 30
0.0
 11
2260.458987
 21
833.462951
 31
0.0
  0
ARC
  5
27FD3
100
AcDbEntity
  8
0
100
AcDbCircle
 10
2269.958987
 20
844.462951
 30
0.0
 40
6.0
100
AcDbArc
 50
90.0
 51
180.0
  0
LINE
  5
27FD4
100
AcDbEntity
  8
0
100
AcDbLine
 10
2263.958987
 20
844.462951
 30
0.0
 11
2263.958987
 21
839.525129
 31
0.0
  0
ELLIPSE
  5
27FD5
100
AcDbEntity
  8
0
100
AcDbEllipse
 10
2535.278458
 20
753.151599
 30
0.0
 11
-25.0
 21
0.0
 31
0.0
210
0.0
220
0.0
230
1.0
 40
0.965926
 41
1.695069486104616
 42
3.082621037625552
  0
ELLIPSE
  5
27FD6
100
AcDbEntity
  8
0
100
AcDbEllipse
 10
2535.278458
 20
751.555039
 30
0.0
 11
-20.0
 21
0.0
 31
0.0
210
0.0
220
0.0
230
1.0
 40
0.965926
 41
3.101179163664281
 42
6.383334779817353
  0
LINE
  5
27FD7
100
AcDbEntity
  8
0
100
AcDbLine
 10
2514.278458
 20
681.462951
 30
0.0
 11
2556.278458
 21
681.462951
 31
0.0
  0
ELLIPSE
  5
27FD8
100
AcDbEntity
  8
0
100
AcDbEllipse
 10
2535.278458
 20
749.994007
 30
0.0
 11
-20.0
 21
0.0
 31
0.0
210
0.0
220
0.0
230
1.0
 40
0.965926
 41
2.690565841793425
 42
6.734212118975908
  0
ELLIPSE
  5
27FD9
100
AcDbEntity
  8
0
100
AcDbEllipse
 10
2535.278458
 20
747.121364
 30
0.0
 11
-17.50000000714217
 21
0.0000000000008239
 31
0.0
210
0.0
220
0.0
230
1.0
 40
0.965914
 41
0.0000000000000017
 42
6.283185307179588
  0
ARC
  5
27FDA
100
AcDbEntity
  8
0
100
AcDbCircle
 10
2574.779777
 20
815.276687
 30
0.0
 40
61.683517
100
AcDbArc
 50
232.20346
 51
247.797221
  0
LINE
  5
27FDB
100
AcDbEntity
  8
0
100
AcDbLine
 10
2536.976458
 20
768.450864
 30
0.0
 11
2551.469458
 21
760.082864
 31
0.0
  0
LINE
  5
27FDC
100
AcDbEntity
  8
0
100
AcDbLine
 10
2536.976458
 20
728.380864
 30
0.0
 11
2551.469458
 21
736.748864
 31
0.0
  0
LINE
  5
27FDD
100
AcDbEntity
  8
0
100
AcDbLine
 10
2512.278458
 20
683.462951
 30
0.0
 11
2512.278458
 21
743.687497
 31
0.0
  0
ARC
  5
27FDE
100
AcDbEntity
  8
0
100
AcDbCircle
 10
2514.278458
 20
683.462951
 30
0.0
 40
2.0
100
AcDbArc
 50
180.0
 51
270.0
  0
ARC
  5
27FDF
100
AcDbEntity
  8
0
100
AcDbCircle
 10
2295.219548
 20
764.411451
 30
0.0
 40
8.244725
100
AcDbArc
 50
315.077168
 51
14.922832
  0
LINE
  5
27FE0
100
AcDbEntity
  8
0
100
AcDbLine
 10
2301.057295
 20
758.589407
 30
0.0
 11
2300.178183
 21
755.308513
 31
0.0
  0
LINE
  5
27FE1
100
AcDbEntity
  8
0
100
AcDbLine
 10
2303.186208
 20
766.534615
 30
0.0
 11
2303.858639
 21
764.025066
 31
0.0
  0
LINE
  5
27FE2
100
AcDbEntity
  8
0
100
AcDbLine
 10
2312.958987
 20
835.962951
 30
0.0
 11
2332.958987
 21
835.962951
 31
0.0
  0
LINE
  5
27FE3
100
AcDbEntity
  8
0
100
AcDbLine
 10
2332.958987
 20
835.962951
 30
0.0
 11
2332.958987
 21
870.962951
 31
0.0
  0
LINE
  5
27FE4
100
AcDbEntity
  8
0
100
AcDbLine
 10
2312.958987
 20
835.962951
 30
0.0
 11
2300.834632
 21
842.962951
 31
0.0
  0
LINE
  5
27FE5
100
AcDbEntity
  8
0
100
AcDbLine
 10
2503.993079
 20
855.271392
 30
0.0
 11
2510.321916
 21
751.728369
 31
0.0
  0
LINE
  5
27FE6
100
AcDbEntity
  8
0
100
AcDbLine
 10
2462.778458
 20
833.462951
 30
0.0
 11
2462.778458
 21
776.962951
 31
0.0
  0
ARC
  5
27FE7
100
AcDbEntity
  8
0
100
AcDbCircle
 10
2535.278458
 20
776.962951
 30
0.0
 40
72.5
100
AcDbArc
 50
180.0
 51
249.856604
  0
LINE
  5
27FE8
100
AcDbEntity
  8
0
100
AcDbLine
 10
2457.778458
 20
771.462951
 30
0.0
 11
2457.778458
 21
756.462951
 31
0.0
  0
LINE
  5
27FE9
100
AcDbEntity
  8
0
100
AcDbLine
 10
2457.778458
 20
756.462951
 30
0.0
 11
2465.737103
 21
756.462951
 31
0.0
  0
LINE
  5
27FEA
100
AcDbEntity
  8
0
100
AcDbLine
 10
2457.778458
 20
771.462951
 30
0.0
 11
2462.98738
 21
771.462951
 31
0.0
  0
ELLIPSE
  5
27FEB
100
AcDbEntity
  8
0
100
AcDbEllipse
 10
2535.278458
 20
753.151599
 30
0.0
 11
-25.0
 21
0.0
 31
0.0
210
0.0
220
0.0
230
1.0
 40
0.965926
 41
0.058971615964861
 42
1.446518241716686
  0
ARC
  5
27FEC
100
AcDbEntity
  8
0
100
AcDbCircle
 10
2509.278458
 20
706.081007
 30
0.0
 40
3.0
100
AcDbArc
 50
0.0
 51
69.856604
  0
ARC
  5
27FED
100
AcDbEntity
  8
0
100
AcDbCircle
 10
2495.777139
 20
815.276687
 30
0.0
 40
61.683517
100
AcDbArc
 50
292.202779
 51
307.79654
  0
LINE
  5
27FEE
100
AcDbEntity
  8
0
100
AcDbLine
 10
2519.087458
 20
760.082864
 30
0.0
 11
2533.580458
 21
768.450864
 31
0.0
  0
LINE
  5
27FEF
100
AcDbEntity
  8
0
100
AcDbLine
 10
2519.086458
 20
736.748864
 30
0.0
 11
2533.580458
 21
728.380864
 31
0.0
  0
LINE
  5
27FF0
100
AcDbEntity
  8
0
100
AcDbLine
 10
2519.087458
 20
760.082864
 30
0.0
 11
2519.087458
 21
758.166864
 31
0.0
  0
LINE
  5
27FF1
100
AcDbEntity
  8
0
100
AcDbLine
 10
2517.278458
 20
756.901864
 30
0.0
 11
2519.087458
 21
760.082864
 31
0.0
  0
LINE
  5
27FF2
100
AcDbEntity
  8
0
100
AcDbLine
 10
2519.087458
 20
758.166864
 30
0.0
 11
2517.278458
 21
754.985864
 31
0.0
  0
LINE
  5
27FF3
100
AcDbEntity
  8
0
100
AcDbLine
 10
2517.278458
 20
754.985864
 30
0.0
 11
2517.278458
 21
756.901864
 31
0.0
  0
LINE
  5
27FF4
100
AcDbEntity
  8
0
100
AcDbLine
 10
2517.278458
 20
739.929864
 30
0.0
 11
2519.086458
 21
736.748864
 31
0.0
  0
LINE
  5
27FF5
100
AcDbEntity
  8
0
100
AcDbLine
 10
2517.278458
 20
756.901864
 30
0.0
 11
2517.278458
 21
739.929864
 31
0.0
  0
LINE
  5
27FF6
100
AcDbEntity
  8
0
100
AcDbLine
 10
2533.580458
 20
728.380864
 30
0.0
 11
2536.976458
 21
728.380864
 31
0.0
  0
LINE
  5
27FF7
100
AcDbEntity
  8
0
100
AcDbLine
 10
2533.580458
 20
768.450864
 30
0.0
 11
2536.976458
 21
768.450864
 31
0.0
  0
LINE
  5
27FF8
100
AcDbEntity
  8
0
100
AcDbLine
 10
2536.976458
 20
768.450864
 30
0.0
 11
2536.976458
 21
766.534864
 31
0.0
  0
LINE
  5
27FF9
100
AcDbEntity
  8
0
100
AcDbLine
 10
2533.580458
 20
768.450864
 30
0.0
 11
2536.976458
 21
768.450864
 31
0.0
  0
LINE
  5
27FFA
100
AcDbEntity
  8
0
100
AcDbLine
 10
2533.580458
 20
766.534864
 30
0.0
 11
2533.580458
 21
768.450864
 31
0.0
  0
LINE
  5
27FFB
100
AcDbEntity
  8
0
100
AcDbLine
 10
2536.976458
 20
766.534864
 30
0.0
 11
2533.580458
 21
766.534864
 31
0.0
  0
LINE
  5
27FFC
100
AcDbEntity
  8
0
100
AcDbLine
 10
2504.955534
 20
839.525129
 30
0.0
 11
2467.355394
 21
839.525129
 31
0.0
  0
LINE
  5
27FFD
100
AcDbEntity
  8
0
100
AcDbLine
 10
2467.085404
 20
833.462951
 30
0.0
 11
2505.326071
 21
833.462951
 31
0.0
  0
LINE
  5
27FFE
100
AcDbEntity
  8
0
100
AcDbLine
 10
2459.278458
 20
839.525129
 30
0.0
 11
2462.778458
 21
833.462951
 31
0.0
  0
LINE
  5
27FFF
100
AcDbEntity
  8
0
100
AcDbLine
 10
2558.278458
 20
683.462951
 30
0.0
 11
2558.278458
 21
743.687497
 31
0.0
  0
ARC
  5
28000
100
AcDbEntity
  8
0
100
AcDbCircle
 10
2556.278458
 20
683.462951
 30
0.0
 40
2.0
100
AcDbArc
 50
270.0
 51
0.0
  0
LINE
  5
28001
100
AcDbEntity
  8
0
100
AcDbLine
 10
2566.563837
 20
855.271392
 30
0.0
 11
2560.235
 21
751.728369
 31
0.0
  0
LINE
  5
28002
100
AcDbEntity
  8
0
100
AcDbLine
 10
2607.778458
 20
833.462951
 30
0.0
 11
2607.778458
 21
776.962951
 31
0.0
  0
ARC
  5
28003
100
AcDbEntity
  8
0
100
AcDbCircle
 10
2535.278458
 20
776.962951
 30
0.0
 40
72.5
100
AcDbArc
 50
290.143396
 51
0.0
  0
ARC
  5
28004
100
AcDbEntity
  8
0
100
AcDbCircle
 10
2561.278458
 20
706.081007
 30
0.0
 40
3.0
100
AcDbArc
 50
110.143396
 51
180.0
  0
LINE
  5
28005
100
AcDbEntity
  8
0
100
AcDbLine
 10
2551.469458
 20
760.082864
 30
0.0
 11
2551.470458
 21
758.166864
 31
0.0
  0
LINE
  5
28006
100
AcDbEntity
  8
0
100
AcDbLine
 10
2553.278458
 20
756.901864
 30
0.0
 11
2551.469458
 21
760.082864
 31
0.0
  0
LINE
  5
28007
100
AcDbEntity
  8
0
100
AcDbLine
 10
2553.278458
 20
754.985864
 30
0.0
 11
2553.278458
 21
756.901864
 31
0.0
  0
LINE
  5
28008
100
AcDbEntity
  8
0
100
AcDbLine
 10
2551.470458
 20
758.166864
 30
0.0
 11
2553.278458
 21
754.985864
 31
0.0
  0
LINE
  5
28009
100
AcDbEntity
  8
0
100
AcDbLine
 10
2551.469458
 20
736.748864
 30
0.0
 11
2553.278458
 21
739.929864
 31
0.0
  0
LINE
  5
2800A
100
AcDbEntity
  8
0
100
AcDbLine
 10
2553.278458
 20
739.929864
 30
0.0
 11
2553.278458
 21
756.901864
 31
0.0
  0
LINE
  5
2800B
100
AcDbEntity
  8
0
100
AcDbLine
 10
2565.230845
 20
833.462951
 30
0.0
 11
2603.471512
 21
833.462951
 31
0.0
  0
LINE
  5
2800C
100
AcDbEntity
  8
0
100
AcDbLine
 10
2603.201522
 20
839.525129
 30
0.0
 11
2565.601382
 21
839.525129
 31
0.0
  0
LINE
  5
2800D
100
AcDbEntity
  8
0
100
AcDbLine
 10
2611.278458
 20
839.525129
 30
0.0
 11
2607.778458
 21
833.462951
 31
0.0
  0
LINE
  5
2800E
100
AcDbEntity
  8
0
100
AcDbLine
 10
2280.458987
 20
898.962951
 30
0.0
 11
2300.834632
 21
898.962951
 31
0.0
  0
LINE
  5
2800F
100
AcDbEntity
  8
0
100
AcDbLine
 10
2302.958987
 20
1615.898814
 30
0.0
 11
2290.834632
 21
1608.898814
 31
0.0
  0
LINE
  5
28010
100
AcDbEntity
  8
0
100
AcDbLine
 10
2302.958987
 20
1545.898814
 30
0.0
 11
2290.834632
 21
1552.898814
 31
0.0
  0
LINE
  5
28011
100
AcDbEntity
  8
0
100
AcDbLine
 10
2280.458987
 20
1235.703862
 30
0.0
 11
2300.834632
 21
1235.703862
 31
0.0
  0
LINE
  5
28012
100
AcDbEntity
  8
0
100
AcDbLine
 10
2280.458987
 20
1179.703862
 30
0.0
 11
2300.834632
 21
1179.703862
 31
0.0
  0
LINE
  5
28013
100
AcDbEntity
  8
0
100
AcDbLine
 10
2146.129514
 20
1296.689144
 30
0.0
 11
2101.473706
 21
1252.033336
 31
0.0
  0
LINE
  5
28014
100
AcDbEntity
  8
0
100
AcDbLine
 10
2229.78846
 20
1296.689144
 30
0.0
 11
2276.944269
 21
1249.533336
 31
0.0
  0
ARC
  5
28015
100
AcDbEntity
  8
0
100
AcDbCircle
 10
2187.958987
 20
1207.703862
 30
0.0
 40
70.649379
100
AcDbArc
 50
13.58193
 51
346.41807
  0
LINE
  5
28016
100
AcDbEntity
  8
0
100
AcDbLine
 10
1898.254833
 20
883.962951
 30
0.0
 11
1898.254833
 21
916.962951
 31
0.0
  0
LINE
  5
28017
100
AcDbEntity
  8
0
100
AcDbLine
 10
1894.632352
 20
923.362951
 30
0.0
 11
1894.632352
 21
916.962951
 31
0.0
  0
ARC
  5
28018
100
AcDbEntity
  8
0
100
AcDbCircle
 10
1882.069852
 20
913.212303
 30
0.0
 40
10.150648
100
AcDbArc
 50
65.635807
 51
114.364193
  0
LINE
  5
28019
100
AcDbEntity
  8
0
100
AcDbLine
 10
1877.882352
 20
923.362951
 30
0.0
 11
1877.882352
 21
916.962951
 31
0.0
  0
LINE
  5
2801A
100
AcDbEntity
  8
0
100
AcDbLine
 10
1886.257352
 20
922.458951
 30
0.0
 11
1886.257352
 21
916.962951
 31
0.0
  0
LINE
  5
2801B
100
AcDbEntity
  8
0
100
AcDbLine
 10
1877.882352
 20
923.362951
 30
0.0
 11
1894.632352
 21
923.362951
 31
0.0
  0
ARC
  5
2801C
100
AcDbEntity
  8
0
100
AcDbCircle
 10
1890.444852
 20
913.212303
 30
0.0
 40
10.150648
100
AcDbArc
 50
65.635807
 51
114.364193
  0
ARC
  5
2801D
100
AcDbEntity
  8
0
100
AcDbCircle
 10
1876.404211
 20
928.962951
 30
0.0
 40
12.0
100
AcDbArc
 50
242.302815
 51
270.0
  0
LINE
  5
2801F
100
AcDbEntity
  8
0
100
AcDbLine
 10
2097.958987
 20
916.962951
 30
0.0
 11
2280.458987
 21
916.962951
 31
0.0
  0
LINE
  5
28020
100
AcDbEntity
  8
0
100
AcDbLine
 10
2097.958987
 20
900.962951
 30
0.0
 11
2280.458987
 21
900.962951
 31
0.0
  0
LINE
  5
28021
100
AcDbEntity
  8
0
100
AcDbLine
 10
2097.958987
 20
883.962951
 30
0.0
 11
2280.458987
 21
883.962951
 31
0.0
  0
LINE
  5
28022
100
AcDbEntity
  8
0
100
AcDbLine
 10
2165.730529
 20
922.458951
 30
0.0
 11
2164.165529
 21
923.362951
 31
0.0
  0
ARC
  5
28023
100
AcDbEntity
  8
0
100
AcDbCircle
 10
2163.276529
 20
918.531627
 30
0.0
 40
4.630982
100
AcDbArc
 50
58.000676
 51
121.999324
  0
LINE
  5
28024
100
AcDbEntity
  8
0
100
AcDbLine
 10
2154.958987
 20
937.962951
 30
0.0
 11
2220.958987
 21
937.962951
 31
0.0
  0
ARC
  5
28025
100
AcDbEntity
  8
0
100
AcDbCircle
 10
2187.958987
 20
1233.056811
 30
0.0
 40
304.310778
100
AcDbArc
 50
264.701343
 51
275.298657
  0
LINE
  5
28026
100
AcDbEntity
  8
0
100
AcDbLine
 10
2097.958987
 20
898.962951
 30
0.0
 11
2085.083343
 21
898.962951
 31
0.0
  0
LINE
  5
28027
100
AcDbEntity
  8
0
100
AcDbLine
 10
2072.958987
 20
905.962951
 30
0.0
 11
2085.083343
 21
898.962951
 31
0.0
  0
LINE
  5
28028
100
AcDbEntity
  8
0
100
AcDbLine
 10
2072.958987
 20
905.962951
 30
0.0
 11
2052.958987
 21
905.962951
 31
0.0
  0
ARC
  5
28029
100
AcDbEntity
  8
0
100
AcDbCircle
 10
2148.554529
 20
918.531627
 30
0.0
 40
4.630982
100
AcDbArc
 50
58.000676
 51
121.999324
  0
LINE
  5
2802A
100
AcDbEntity
  8
0
100
AcDbLine
 10
2164.165529
 20
923.362951
 30
0.0
 11
2147.665529
 21
923.362951
 31
0.0
  0
ARC
  5
2802B
100
AcDbEntity
  8
0
100
AcDbCircle
 10
2108.831468
 20
905.699959
 30
0.0
 40
17.462601
100
AcDbArc
 50
73.680072
 51
106.319928
  0
LINE
  5
2802C
100
AcDbEntity
  8
0
100
AcDbLine
 10
2117.081468
 20
923.362951
 30
0.0
 11
2100.581468
 21
923.362951
 31
0.0
  0
LINE
  5
2802D
100
AcDbEntity
  8
0
100
AcDbLine
 10
2097.958987
 20
916.962951
 30
0.0
 11
2097.958987
 21
883.962951
 31
0.0
  0
ARC
  5
2802E
100
AcDbEntity
  8
0
100
AcDbCircle
 10
2101.470468
 20
918.531627
 30
0.0
 40
4.630982
100
AcDbArc
 50
58.000676
 51
121.999324
  0
LINE
  5
2802F
100
AcDbEntity
  8
0
100
AcDbLine
 10
2100.581468
 20
923.362951
 30
0.0
 11
2099.016468
 21
922.458951
 31
0.0
  0
LINE
  5
28030
100
AcDbEntity
  8
0
100
AcDbLine
 10
2103.924468
 20
922.458951
 30
0.0
 11
2103.924468
 21
916.962951
 31
0.0
  0
LINE
  5
28031
100
AcDbEntity
  8
0
100
AcDbLine
 10
2099.016468
 20
922.458951
 30
0.0
 11
2099.016468
 21
916.962951
 31
0.0
  0
LINE
  5
28032
100
AcDbEntity
  8
0
100
AcDbLine
 10
2147.665529
 20
923.362951
 30
0.0
 11
2146.100529
 21
922.458951
 31
0.0
  0
LINE
  5
28033
100
AcDbEntity
  8
0
100
AcDbLine
 10
2146.100529
 20
922.458951
 30
0.0
 11
2146.100529
 21
916.962951
 31
0.0
  0
ARC
  5
28034
100
AcDbEntity
  8
0
100
AcDbCircle
 10
2116.192468
 20
918.531627
 30
0.0
 40
4.630982
100
AcDbArc
 50
58.000676
 51
121.999324
  0
LINE
  5
28035
100
AcDbEntity
  8
0
100
AcDbLine
 10
2118.646468
 20
922.458951
 30
0.0
 11
2117.081468
 21
923.362951
 31
0.0
  0
LINE
  5
28036
100
AcDbEntity
  8
0
100
AcDbLine
 10
2118.646468
 20
916.962951
 30
0.0
 11
2118.646468
 21
922.458951
 31
0.0
  0
LINE
  5
28037
100
AcDbEntity
  8
0
100
AcDbLine
 10
2113.738468
 20
922.458951
 30
0.0
 11
2113.738468
 21
916.962951
 31
0.0
  0
ARC
  5
28038
100
AcDbEntity
  8
0
100
AcDbCircle
 10
2155.915529
 20
905.699959
 30
0.0
 40
17.462601
100
AcDbArc
 50
73.680072
 51
106.319928
  0
LINE
  5
28039
100
AcDbEntity
  8
0
100
AcDbLine
 10
2149.644233
 20
914.962951
 30
0.0
 11
2149.644233
 21
885.962951
 31
0.0
  0
LINE
  5
2803A
100
AcDbEntity
  8
0
100
AcDbLine
 10
2151.008529
 20
922.458951
 30
0.0
 11
2151.008529
 21
916.962951
 31
0.0
  0
LINE
  5
2803B
100
AcDbEntity
  8
0
100
AcDbLine
 10
2160.822529
 20
922.458951
 30
0.0
 11
2160.822529
 21
916.962951
 31
0.0
  0
ARC
  5
2803C
100
AcDbEntity
  8
0
100
AcDbCircle
 10
2121.958987
 20
933.962951
 30
0.0
 40
2.0
100
AcDbArc
 50
90.0
 51
180.0
  0
LINE
  5
2803D
100
AcDbEntity
  8
0
100
AcDbLine
 10
2119.958987
 20
933.962951
 30
0.0
 11
2119.958987
 21
919.962951
 31
0.0
  0
LINE
  5
2803E
100
AcDbEntity
  8
0
100
AcDbLine
 10
2121.958987
 20
935.962951
 30
0.0
 11
2152.958987
 21
935.962951
 31
0.0
  0
ARC
  5
2803F
100
AcDbEntity
  8
0
100
AcDbCircle
 10
2154.958987
 20
935.962951
 30
0.0
 40
2.0
100
AcDbArc
 50
90.0
 51
180.0
  0
LINE
  5
28040
100
AcDbEntity
  8
0
100
AcDbLine
 10
2152.958987
 20
935.962951
 30
0.0
 11
2152.958987
 21
934.504593
 31
0.0
  0
ARC
  5
28041
100
AcDbEntity
  8
0
100
AcDbCircle
 10
2146.958987
 20
934.504593
 30
0.0
 40
6.0
100
AcDbArc
 50
286.309265
 51
0.0
  0
ARC
  5
28042
100
AcDbEntity
  8
0
100
AcDbCircle
 10
2117.309609
 20
928.962951
 30
0.0
 40
12.0
100
AcDbArc
 50
276.39631
 51
297.697185
  0
ARC
  5
28043
100
AcDbEntity
  8
0
100
AcDbCircle
 10
2116.958987
 20
919.962951
 30
0.0
 40
3.0
100
AcDbArc
 50
304.22842
 51
0.0
  0
ARC
  5
28044
100
AcDbEntity
  8
0
100
AcDbCircle
 10
2187.958987
 20
794.379649
 30
0.0
 40
140.0
100
AcDbArc
 50
106.309265
 51
117.697185
  0
ARC
  5
28045
100
AcDbEntity
  8
0
100
AcDbCircle
 10
2229.863446
 20
918.531627
 30
0.0
 40
4.630982
100
AcDbArc
 50
58.000676
 51
121.999324
  0
LINE
  5
28046
100
AcDbEntity
  8
0
100
AcDbLine
 10
2230.752446
 20
923.362951
 30
0.0
 11
2232.317446
 21
922.458951
 31
0.0
  0
LINE
  5
28047
100
AcDbEntity
  8
0
100
AcDbLine
 10
2222.691038
 20
936.962951
 30
0.0
 11
2278.458987
 21
936.962951
 31
0.0
  0
ARC
  5
28048
100
AcDbEntity
  8
0
100
AcDbCircle
 10
2187.958987
 20
794.379649
 30
0.0
 40
140.0
100
AcDbArc
 50
62.302815
 51
73.690735
  0
LINE
  5
28049
100
AcDbEntity
  8
0
100
AcDbLine
 10
2214.252446
 20
923.362951
 30
0.0
 11
2230.752446
 21
923.362951
 31
0.0
  0
ARC
  5
2804A
100
AcDbEntity
  8
0
100
AcDbCircle
 10
2222.502446
 20
905.699959
 30
0.0
 40
17.462601
100
AcDbArc
 50
73.680072
 51
106.319928
  0
LINE
  5
2804B
100
AcDbEntity
  8
0
100
AcDbLine
 10
2165.730529
 20
916.962951
 30
0.0
 11
2165.730529
 21
922.458951
 31
0.0
  0
ARC
  5
2804C
100
AcDbEntity
  8
0
100
AcDbCircle
 10
2215.141446
 20
918.531627
 30
0.0
 40
4.630982
100
AcDbArc
 50
58.000676
 51
121.999324
  0
LINE
  5
2804D
100
AcDbEntity
  8
0
100
AcDbLine
 10
2212.687446
 20
922.458951
 30
0.0
 11
2214.252446
 21
923.362951
 31
0.0
  0
LINE
  5
2804E
100
AcDbEntity
  8
0
100
AcDbLine
 10
2217.595446
 20
922.458951
 30
0.0
 11
2217.595446
 21
916.962951
 31
0.0
  0
LINE
  5
2804F
100
AcDbEntity
  8
0
100
AcDbLine
 10
2212.687446
 20
916.962951
 30
0.0
 11
2212.687446
 21
922.458951
 31
0.0
  0
LINE
  5
28050
100
AcDbEntity
  8
0
100
AcDbLine
 10
2226.273742
 20
914.962951
 30
0.0
 11
2226.273742
 21
885.962951
 31
0.0
  0
LINE
  5
28051
100
AcDbEntity
  8
0
100
AcDbLine
 10
2227.409446
 20
922.458951
 30
0.0
 11
2227.409446
 21
916.962951
 31
0.0
  0
ARC
  5
28052
100
AcDbEntity
  8
0
100
AcDbCircle
 10
2220.958987
 20
935.962951
 30
0.0
 40
2.0
100
AcDbArc
 50
0.0
 51
90.0
  0
LINE
  5
28053
100
AcDbEntity
  8
0
100
AcDbLine
 10
2222.958987
 20
935.962951
 30
0.0
 11
2222.958987
 21
934.504593
 31
0.0
  0
ARC
  5
28054
100
AcDbEntity
  8
0
100
AcDbCircle
 10
2228.958987
 20
934.504593
 30
0.0
 40
6.0
100
AcDbArc
 50
180.0
 51
253.690735
  0
LINE
  5
28055
100
AcDbEntity
  8
0
100
AcDbLine
 10
2177.958987
 20
946.962951
 30
0.0
 11
2197.958987
 21
946.962951
 31
0.0
  0
LINE
  5
28056
100
AcDbEntity
  8
0
100
AcDbLine
 10
2179.458987
 20
958.385601
 30
0.0
 11
2179.458987
 21
946.962951
 31
0.0
  0
LINE
  5
28057
100
AcDbEntity
  8
0
100
AcDbLine
 10
2196.458987
 20
958.385601
 30
0.0
 11
2196.458987
 21
946.962951
 31
0.0
  0
LINE
  5
28058
100
AcDbEntity
  8
0
100
AcDbLine
 10
2177.958987
 20
946.962951
 30
0.0
 11
2177.958987
 21
937.962951
 31
0.0
  0
LINE
  5
28059
100
AcDbEntity
  8
0
100
AcDbLine
 10
2197.958987
 20
946.962951
 30
0.0
 11
2197.958987
 21
937.962951
 31
0.0
  0
LINE
  5
2805A
100
AcDbEntity
  8
0
100
AcDbLine
 10
2180.458987
 20
958.962951
 30
0.0
 11
2195.458987
 21
958.962951
 31
0.0
  0
LINE
  5
2805B
100
AcDbEntity
  8
0
100
AcDbLine
 10
2179.458987
 20
958.385601
 30
0.0
 11
2180.458987
 21
958.962951
 31
0.0
  0
LINE
  5
2805C
100
AcDbEntity
  8
0
100
AcDbLine
 10
2196.458987
 20
958.385601
 30
0.0
 11
2195.458987
 21
958.962951
 31
0.0
  0
LINE
  5
2805D
100
AcDbEntity
  8
0
100
AcDbLine
 10
2261.336506
 20
923.362951
 30
0.0
 11
2277.836506
 21
923.362951
 31
0.0
  0
ARC
  5
2805E
100
AcDbEntity
  8
0
100
AcDbCircle
 10
2269.586506
 20
905.699959
 30
0.0
 40
17.462601
100
AcDbArc
 50
73.680072
 51
106.319928
  0
ARC
  5
2805F
100
AcDbEntity
  8
0
100
AcDbCircle
 10
2262.225506
 20
918.531627
 30
0.0
 40
4.630982
100
AcDbArc
 50
58.000676
 51
121.999324
  0
LINE
  5
28060
100
AcDbEntity
  8
0
100
AcDbLine
 10
2259.771506
 20
922.458951
 30
0.0
 11
2261.336506
 21
923.362951
 31
0.0
  0
ARC
  5
28061
100
AcDbEntity
  8
0
100
AcDbCircle
 10
2276.947506
 20
918.531627
 30
0.0
 40
4.630982
100
AcDbArc
 50
58.000676
 51
121.999324
  0
LINE
  5
28062
100
AcDbEntity
  8
0
100
AcDbLine
 10
2277.836506
 20
923.362951
 30
0.0
 11
2279.401506
 21
922.458951
 31
0.0
  0
LINE
  5
28063
100
AcDbEntity
  8
0
100
AcDbLine
 10
2264.679506
 20
922.458951
 30
0.0
 11
2264.679506
 21
916.962951
 31
0.0
  0
LINE
  5
28064
100
AcDbEntity
  8
0
100
AcDbLine
 10
2259.771506
 20
916.962951
 30
0.0
 11
2259.771506
 21
922.458951
 31
0.0
  0
LINE
  5
28065
100
AcDbEntity
  8
0
100
AcDbLine
 10
2274.493506
 20
922.458951
 30
0.0
 11
2274.493506
 21
916.962951
 31
0.0
  0
LINE
  5
28066
100
AcDbEntity
  8
0
100
AcDbLine
 10
2279.401506
 20
922.458951
 30
0.0
 11
2279.401506
 21
916.962951
 31
0.0
  0
LINE
  5
28067
100
AcDbEntity
  8
0
100
AcDbLine
 10
2232.317446
 20
922.458951
 30
0.0
 11
2232.317446
 21
916.962951
 31
0.0
  0
LINE
  5
28068
100
AcDbEntity
  8
0
100
AcDbLine
 10
2280.458987
 20
883.962951
 30
0.0
 11
2280.458987
 21
934.962951
 31
0.0
  0
ARC
  5
28069
100
AcDbEntity
  8
0
100
AcDbCircle
 10
2278.458987
 20
934.962951
 30
0.0
 40
2.0
100
AcDbArc
 50
360.0
 51
90.0
  0
ARC
  5
2806A
100
AcDbEntity
  8
0
100
AcDbCircle
 10
2258.608366
 20
928.962951
 30
0.0
 40
12.0
100
AcDbArc
 50
242.302815
 51
270.0
  0
LINE
  5
2806B
100
AcDbEntity
  8
0
100
AcDbLine
 10
2154.614795
 20
1115.203862
 30
0.0
 11
2221.303179
 21
1115.203862
 31
0.0
  0
CIRCLE
  5
2806C
100
AcDbEntity
  8
0
100
AcDbCircle
 10
2187.958987
 20
1207.703862
 30
0.0
 40
35.0
  0
LINE
  5
2806D
100
AcDbEntity
  8
0
100
AcDbLine
 10
2101.473706
 20
1163.374389
 30
0.0
 11
2146.129514
 21
1118.718581
 31
0.0
  0
LINE
  5
2806E
100
AcDbEntity
  8
0
100
AcDbLine
 10
2145.597651
 20
1131.082381
 30
0.0
 11
2153.384861
 21
1137.057147
 31
0.0
  0
ARC
  5
2806F
100
AcDbEntity
  8
0
100
AcDbCircle
 10
2154.614795
 20
1127.203862
 30
0.0
 40
12.0
100
AcDbArc
 50
225.0
 51
270.0
  0
LINE
  5
28070
100
AcDbEntity
  8
0
100
AcDbLine
 10
2155.946196
 20
1117.59554
 30
0.0
 11
2146.879243
 21
1121.351195
 31
0.0
  0
CIRCLE
  5
28071
100
AcDbEntity
  8
0
100
AcDbCircle
 10
2154.665529
 20
1127.326343
 30
0.0
 40
8.24991
  0
LINE
  5
28072
100
AcDbEntity
  8
0
100
AcDbLine
 10
2146.879243
 20
1121.351195
 30
0.0
 11
2145.597651
 21
1131.082381
 31
0.0
  0
LINE
  5
28073
100
AcDbEntity
  8
0
100
AcDbLine
 10
2153.384861
 20
1137.057147
 30
0.0
 11
2162.451815
 21
1133.301492
 31
0.0
  0
LINE
  5
28074
100
AcDbEntity
  8
0
100
AcDbLine
 10
2162.451815
 20
1133.301492
 30
0.0
 11
2163.733406
 21
1123.570305
 31
0.0
  0
LINE
  5
28075
100
AcDbEntity
  8
0
100
AcDbLine
 10
2163.733406
 20
1123.570305
 30
0.0
 11
2155.946196
 21
1117.59554
 31
0.0
  0
LINE
  5
28076
100
AcDbEntity
  8
0
100
AcDbLine
 10
2097.850664
 20
1175.691072
 30
0.0
 11
2103.82543
 21
1183.478281
 31
0.0
  0
LINE
  5
28077
100
AcDbEntity
  8
0
100
AcDbLine
 10
2101.606319
 20
1166.624118
 30
0.0
 11
2097.850664
 21
1175.691072
 31
0.0
  0
ARC
  5
28078
100
AcDbEntity
  8
0
100
AcDbCircle
 10
2109.958987
 20
1171.859671
 30
0.0
 40
12.0
100
AcDbArc
 50
180.0
 51
225.0
  0
LINE
  5
28079
100
AcDbEntity
  8
0
100
AcDbLine
 10
2097.958987
 20
1179.703862
 30
0.0
 11
2085.083343
 21
1179.703862
 31
0.0
  0
ARC
  5
2807A
100
AcDbEntity
  8
0
100
AcDbCircle
 10
2109.958987
 20
1243.548054
 30
0.0
 40
12.0
100
AcDbArc
 50
135.0
 51
180.0
  0
LINE
  5
2807B
100
AcDbEntity
  8
0
100
AcDbLine
 10
2103.82543
 20
1231.929443
 30
0.0
 11
2097.850664
 21
1239.716653
 31
0.0
  0
LINE
  5
2807C
100
AcDbEntity
  8
0
100
AcDbLine
 10
2097.850664
 20
1239.716653
 30
0.0
 11
2101.606319
 21
1248.783607
 31
0.0
  0
LINE
  5
2807D
100
AcDbEntity
  8
0
100
AcDbLine
 10
2097.958987
 20
1235.703862
 30
0.0
 11
2085.083343
 21
1235.703862
 31
0.0
  0
LINE
  5
2807E
100
AcDbEntity
  8
0
100
AcDbLine
 10
2085.083343
 20
1235.703862
 30
0.0
 11
2085.083343
 21
1179.703862
 31
0.0
  0
LINE
  5
2807F
100
AcDbEntity
  8
0
100
AcDbLine
 10
2072.958987
 20
1242.703862
 30
0.0
 11
2072.958987
 21
1172.703862
 31
0.0
  0
LINE
  5
28080
100
AcDbEntity
  8
0
100
AcDbLine
 10
2052.958987
 20
1172.703862
 30
0.0
 11
2052.958987
 21
1207.703862
 31
0.0
  0
LINE
  5
28081
100
AcDbEntity
  8
0
100
AcDbLine
 10
2072.958987
 20
1172.703862
 30
0.0
 11
2085.083343
 21
1179.703862
 31
0.0
  0
LINE
  5
28082
100
AcDbEntity
  8
0
100
AcDbLine
 10
2072.958987
 20
1172.703862
 30
0.0
 11
2052.958987
 21
1172.703862
 31
0.0
  0
LINE
  5
28083
100
AcDbEntity
  8
0
100
AcDbLine
 10
2072.958987
 20
1242.703862
 30
0.0
 11
2085.083343
 21
1235.703862
 31
0.0
  0
LINE
  5
28084
100
AcDbEntity
  8
0
100
AcDbLine
 10
2052.958987
 20
1207.703862
 30
0.0
 11
2052.958987
 21
1242.703862
 31
0.0
  0
LINE
  5
28085
100
AcDbEntity
  8
0
100
AcDbLine
 10
2072.958987
 20
1242.703862
 30
0.0
 11
2052.958987
 21
1242.703862
 31
0.0
  0
LINE
  5
28086
100
AcDbEntity
  8
0
100
AcDbLine
 10
2097.958987
 20
1243.548054
 30
0.0
 11
2097.958987
 21
1171.859671
 31
0.0
  0
LINE
  5
28087
100
AcDbEntity
  8
0
100
AcDbLine
 10
2113.556616
 20
1182.19669
 30
0.0
 11
2117.312271
 21
1173.129736
 31
0.0
  0
CIRCLE
  5
28088
100
AcDbEntity
  8
0
100
AcDbCircle
 10
2107.581468
 20
1174.410404
 30
0.0
 40
8.24991
  0
LINE
  5
28089
100
AcDbEntity
  8
0
100
AcDbLine
 10
2111.337506
 20
1165.342526
 30
0.0
 11
2101.606319
 21
1166.624118
 31
0.0
  0
LINE
  5
2808A
100
AcDbEntity
  8
0
100
AcDbLine
 10
2117.312271
 20
1173.129736
 30
0.0
 11
2111.337506
 21
1165.342526
 31
0.0
  0
LINE
  5
2808B
100
AcDbEntity
  8
0
100
AcDbLine
 10
2103.82543
 20
1183.478281
 30
0.0
 11
2113.556616
 21
1182.19669
 31
0.0
  0
LINE
  5
2808C
100
AcDbEntity
  8
0
100
AcDbLine
 10
2101.606319
 20
1248.783607
 30
0.0
 11
2111.337506
 21
1250.065199
 31
0.0
  0
CIRCLE
  5
2808D
100
AcDbEntity
  8
0
100
AcDbCircle
 10
2107.581468
 20
1240.997321
 30
0.0
 40
8.24991
  0
LINE
  5
2808E
100
AcDbEntity
  8
0
100
AcDbLine
 10
2113.556616
 20
1233.211035
 30
0.0
 11
2103.82543
 21
1231.929443
 31
0.0
  0
LINE
  5
2808F
100
AcDbEntity
  8
0
100
AcDbLine
 10
2117.312271
 20
1242.277989
 30
0.0
 11
2113.556616
 21
1233.211035
 31
0.0
  0
LINE
  5
28090
100
AcDbEntity
  8
0
100
AcDbLine
 10
2111.337506
 20
1250.065199
 30
0.0
 11
2117.312271
 21
1242.277989
 31
0.0
  0
LINE
  5
28091
100
AcDbEntity
  8
0
100
AcDbLine
 10
2135.958987
 20
1223.703862
 30
0.0
 11
2153.361299
 21
1223.703862
 31
0.0
  0
ARC
  5
28092
100
AcDbEntity
  8
0
100
AcDbCircle
 10
2153.361299
 20
1229.703862
 30
0.0
 40
6.0
100
AcDbArc
 50
270.0
 51
327.548509
  0
LINE
  5
28093
100
AcDbEntity
  8
0
100
AcDbLine
 10
2135.958987
 20
1191.703862
 30
0.0
 11
2153.361299
 21
1191.703862
 31
0.0
  0
ARC
  5
28094
100
AcDbEntity
  8
0
100
AcDbCircle
 10
2153.361299
 20
1185.703862
 30
0.0
 40
6.0
100
AcDbArc
 50
32.451491
 51
90.0
  0
ARC
  5
28095
100
AcDbEntity
  8
0
100
AcDbCircle
 10
2135.958987
 20
1207.703862
 30
0.0
 40
16.0
100
AcDbArc
 50
90.0
 51
270.0
  0
LINE
  5
28096
100
AcDbEntity
  8
0
100
AcDbLine
 10
2276.944269
 20
1165.874389
 30
0.0
 11
2229.78846
 21
1118.718581
 31
0.0
  0
LINE
  5
28097
100
AcDbEntity
  8
0
100
AcDbLine
 10
2213.46616
 20
1133.301492
 30
0.0
 11
2222.533113
 21
1137.057147
 31
0.0
  0
CIRCLE
  5
28098
100
AcDbEntity
  8
0
100
AcDbCircle
 10
2221.252446
 20
1127.326343
 30
0.0
 40
8.24991
  0
LINE
  5
28099
100
AcDbEntity
  8
0
100
AcDbLine
 10
2229.038732
 20
1121.351195
 30
0.0
 11
2219.971778
 21
1117.59554
 31
0.0
  0
LINE
  5
2809A
100
AcDbEntity
  8
0
100
AcDbLine
 10
2219.971778
 20
1117.59554
 30
0.0
 11
2212.184568
 21
1123.570305
 31
0.0
  0
LINE
  5
2809B
100
AcDbEntity
  8
0
100
AcDbLine
 10
2212.184568
 20
1123.570305
 30
0.0
 11
2213.46616
 21
1133.301492
 31
0.0
  0
LINE
  5
2809C
100
AcDbEntity
  8
0
100
AcDbLine
 10
2230.320323
 20
1131.082381
 30
0.0
 11
2229.038732
 21
1121.351195
 31
0.0
  0
LINE
  5
2809D
100
AcDbEntity
  8
0
100
AcDbLine
 10
2222.533113
 20
1137.057147
 30
0.0
 11
2230.320323
 21
1131.082381
 31
0.0
  0
ARC
  5
2809E
100
AcDbEntity
  8
0
100
AcDbCircle
 10
2221.303179
 20
1127.203862
 30
0.0
 40
12.0
100
AcDbArc
 50
270.0
 51
315.0
  0
LINE
  5
2809F
100
AcDbEntity
  8
0
100
AcDbLine
 10
2224.796468
 20
1195.703862
 30
0.0
 11
2280.458987
 21
1195.703862
 31
0.0
  0
LINE
  5
280A0
100
AcDbEntity
  8
0
100
AcDbLine
 10
2224.796468
 20
1219.703862
 30
0.0
 11
2280.458987
 21
1219.703862
 31
0.0
  0
ARC
  5
280A1
100
AcDbEntity
  8
0
100
AcDbCircle
 10
2224.796468
 20
1225.703862
 30
0.0
 40
6.0
100
AcDbArc
 50
206.04165
 51
270.0
  0
ARC
  5
280A2
100
AcDbEntity
  8
0
100
AcDbCircle
 10
2224.796468
 20
1189.703862
 30
0.0
 40
6.0
100
AcDbArc
 50
90.0
 51
153.95835
  0
LINE
  5
280A3
100
AcDbEntity
  8
0
100
AcDbLine
 10
2196.458987
 20
1212.971689
 30
0.0
 11
2196.458987
 21
1202.436036
 31
0.0
  0
LINE
  5
280A4
100
AcDbEntity
  8
0
100
AcDbLine
 10
2179.458987
 20
1212.971689
 30
0.0
 11
2179.458987
 21
1202.436036
 31
0.0
  0
CIRCLE
  5
280A5
100
AcDbEntity
  8
0
100
AcDbCircle
 10
2187.958987
 20
1207.703862
 30
0.0
 40
8.5
  0
CIRCLE
  5
280A6
100
AcDbEntity
  8
0
100
AcDbCircle
 10
2187.958987
 20
1207.703862
 30
0.0
 40
10.0
  0
LINE
  5
280A7
100
AcDbEntity
  8
0
100
AcDbLine
 10
2280.458987
 20
1241.048054
 30
0.0
 11
2280.458987
 21
1174.359671
 31
0.0
  0
LINE
  5
280A8
100
AcDbEntity
  8
0
100
AcDbLine
 10
2272.092544
 20
1183.478281
 30
0.0
 11
2278.06731
 21
1175.691072
 31
0.0
  0
LINE
  5
280A9
100
AcDbEntity
  8
0
100
AcDbLine
 10
2258.605703
 20
1173.129736
 30
0.0
 11
2262.361358
 21
1182.19669
 31
0.0
  0
CIRCLE
  5
280AA
100
AcDbEntity
  8
0
100
AcDbCircle
 10
2268.336506
 20
1174.410404
 30
0.0
 40
8.24991
  0
LINE
  5
280AB
100
AcDbEntity
  8
0
100
AcDbLine
 10
2274.311655
 20
1166.624118
 30
0.0
 11
2264.580469
 21
1165.342526
 31
0.0
  0
LINE
  5
280AC
100
AcDbEntity
  8
0
100
AcDbLine
 10
2264.580469
 20
1165.342526
 30
0.0
 11
2258.605703
 21
1173.129736
 31
0.0
  0
LINE
  5
280AD
100
AcDbEntity
  8
0
100
AcDbLine
 10
2278.06731
 20
1175.691072
 30
0.0
 11
2274.311655
 21
1166.624118
 31
0.0
  0
ARC
  5
280AE
100
AcDbEntity
  8
0
100
AcDbCircle
 10
2268.458987
 20
1174.359671
 30
0.0
 40
12.0
100
AcDbArc
 50
315.0
 51
0.0
  0
LINE
  5
280AF
100
AcDbEntity
  8
0
100
AcDbLine
 10
2262.361358
 20
1182.19669
 30
0.0
 11
2272.092544
 21
1183.478281
 31
0.0
  0
LINE
  5
280B0
100
AcDbEntity
  8
0
100
AcDbLine
 10
2278.06731
 20
1239.716653
 30
0.0
 11
2272.092544
 21
1231.929443
 31
0.0
  0
CIRCLE
  5
280B1
100
AcDbEntity
  8
0
100
AcDbCircle
 10
2268.336506
 20
1240.997321
 30
0.0
 40
8.24991
  0
LINE
  5
280B2
100
AcDbEntity
  8
0
100
AcDbLine
 10
2264.580469
 20
1250.065199
 30
0.0
 11
2274.311655
 21
1248.783607
 31
0.0
  0
LINE
  5
280B3
100
AcDbEntity
  8
0
100
AcDbLine
 10
2258.605703
 20
1242.277989
 30
0.0
 11
2264.580469
 21
1250.065199
 31
0.0
  0
LINE
  5
280B4
100
AcDbEntity
  8
0
100
AcDbLine
 10
2262.361358
 20
1233.211035
 30
0.0
 11
2258.605703
 21
1242.277989
 31
0.0
  0
LINE
  5
280B5
100
AcDbEntity
  8
0
100
AcDbLine
 10
2272.092544
 20
1231.929443
 30
0.0
 11
2262.361358
 21
1233.211035
 31
0.0
  0
LINE
  5
280B6
100
AcDbEntity
  8
0
100
AcDbLine
 10
2274.311655
 20
1248.783607
 30
0.0
 11
2278.06731
 21
1239.716653
 31
0.0
  0
ARC
  5
280B7
100
AcDbEntity
  8
0
100
AcDbCircle
 10
2268.458987
 20
1241.048054
 30
0.0
 40
12.0
100
AcDbArc
 50
0.0
 51
45.0
  0
ARC
  5
280B8
100
AcDbEntity
  8
0
100
AcDbCircle
 10
2262.464874
 20
1225.703862
 30
0.0
 40
6.0
100
AcDbArc
 50
193.58193
 51
270.0
  0
ARC
  5
280B9
100
AcDbEntity
  8
0
100
AcDbCircle
 10
2262.464874
 20
1189.703862
 30
0.0
 40
6.0
100
AcDbArc
 50
90.0
 51
166.41807
  0
ARC
  5
280BA
100
AcDbEntity
  8
0
100
AcDbCircle
 10
2187.958987
 20
1486.898814
 30
0.0
 40
72.5
100
AcDbArc
 50
220.398957
 51
0.0
  0
LINE
  5
280BB
100
AcDbEntity
  8
0
100
AcDbLine
 10
2072.059335
 20
1473.960929
 30
0.0
 11
2081.118002
 21
1440.153525
 31
0.0
  0
ARC
  5
280BC
100
AcDbEntity
  8
0
100
AcDbCircle
 10
2088.792867
 20
1444.138452
 30
0.0
 40
8.244725
100
AcDbArc
 50
165.077168
 51
224.922832
  0
LINE
  5
280BD
100
AcDbEntity
  8
0
100
AcDbLine
 10
2092.290854
 20
1442.112006
 30
0.0
 11
2082.714549
 21
1477.851261
 31
0.0
  0
ARC
  5
280BE
100
AcDbEntity
  8
0
100
AcDbCircle
 10
2083.392943
 20
1442.691547
 30
0.0
 40
8.244725
100
AcDbArc
 50
345.077168
 51
44.922832
  0
ARC
  5
280BF
100
AcDbEntity
  8
0
100
AcDbCircle
 10
2257.457189
 20
1450.398814
 30
0.0
 40
6.0
100
AcDbArc
 50
152.291839
 51
244.069844
  0
ARC
  5
280C0
100
AcDbEntity
  8
0
100
AcDbCircle
 10
2253.958987
 20
1443.204192
 30
0.0
 40
2.0
100
AcDbArc
 50
0.0
 51
64.069844
  0
LINE
  5
280C1
100
AcDbEntity
  8
0
100
AcDbLine
 10
2154.614795
 20
1300.203862
 30
0.0
 11
2221.303179
 21
1300.203862
 31
0.0
  0
ARC
  5
280C2
100
AcDbEntity
  8
0
100
AcDbCircle
 10
2157.386094
 20
1378.655101
 30
0.0
 40
40.0
100
AcDbArc
 50
75.737603
 51
158.716145
  0
ARC
  5
280C3
100
AcDbEntity
  8
0
100
AcDbCircle
 10
2154.614795
 20
1288.203862
 30
0.0
 40
12.0
100
AcDbArc
 50
90.0
 51
135.0
  0
LINE
  5
280C4
100
AcDbEntity
  8
0
100
AcDbLine
 10
2146.879243
 20
1294.05653
 30
0.0
 11
2155.946196
 21
1297.812185
 31
0.0
  0
CIRCLE
  5
280C5
100
AcDbEntity
  8
0
100
AcDbCircle
 10
2154.665529
 20
1288.081382
 30
0.0
 40
8.24991
  0
LINE
  5
280C6
100
AcDbEntity
  8
0
100
AcDbLine
 10
2153.384861
 20
1278.350578
 30
0.0
 11
2145.597651
 21
1284.325344
 31
0.0
  0
LINE
  5
280C7
100
AcDbEntity
  8
0
100
AcDbLine
 10
2145.597651
 20
1284.325344
 30
0.0
 11
2146.879243
 21
1294.05653
 31
0.0
  0
LINE
  5
280C8
100
AcDbEntity
  8
0
100
AcDbLine
 10
2163.733406
 20
1291.83742
 30
0.0
 11
2162.451815
 21
1282.106233
 31
0.0
  0
LINE
  5
280C9
100
AcDbEntity
  8
0
100
AcDbLine
 10
2162.451815
 20
1282.106233
 30
0.0
 11
2153.384861
 21
1278.350578
 31
0.0
  0
LINE
  5
280CA
100
AcDbEntity
  8
0
100
AcDbLine
 10
2155.946196
 20
1297.812185
 30
0.0
 11
2163.733406
 21
1291.83742
 31
0.0
  0
LINE
  5
280CB
100
AcDbEntity
  8
0
100
AcDbLine
 10
2097.508711
 20
1441.957212
 30
0.0
 11
2105.564287
 21
1438.939316
 31
0.0
  0
LINE
  5
280CC
100
AcDbEntity
  8
0
100
AcDbLine
 10
2091.359603
 20
1440.568382
 30
0.0
 11
2092.032035
 21
1443.077931
 31
0.0
  0
LINE
  5
280CD
100
AcDbEntity
  8
0
100
AcDbLine
 10
2093.515598
 20
1440.887261
 30
0.0
 11
2092.290854
 21
1442.112006
 31
0.0
  0
LINE
  5
280CE
100
AcDbEntity
  8
0
100
AcDbLine
 10
2097.508711
 20
1441.957212
 30
0.0
 11
2093.515598
 21
1440.887261
 31
0.0
  0
LINE
  5
280CF
100
AcDbEntity
  8
0
100
AcDbLine
 10
2082.955119
 20
1438.316408
 30
0.0
 11
2081.118002
 21
1440.153525
 31
0.0
  0
LINE
  5
280D0
100
AcDbEntity
  8
0
100
AcDbLine
 10
2082.955119
 20
1438.316408
 30
0.0
 11
2091.359603
 21
1440.568382
 31
0.0
  0
LINE
  5
280D1
100
AcDbEntity
  8
0
100
AcDbLine
 10
2125.80631
 20
1443.241891
 30
0.0
 11
2105.564287
 21
1438.939316
 31
0.0
  0
LINE
  5
280D2
100
AcDbEntity
  8
0
100
AcDbLine
 10
2123.957881
 20
1437.106375
 30
0.0
 11
2120.118714
 21
1393.224503
 31
0.0
  0
LINE
  5
280D3
100
AcDbEntity
  8
0
100
AcDbLine
 10
2112.958987
 20
1436.806417
 30
0.0
 11
2112.958987
 21
1393.398814
 31
0.0
  0
LINE
  5
280D4
100
AcDbEntity
  8
0
100
AcDbLine
 10
2118.126325
 20
1391.398814
 30
0.0
 11
2114.958987
 21
1391.398814
 31
0.0
  0
ARC
  5
280D5
100
AcDbEntity
  8
0
100
AcDbCircle
 10
2118.126325
 20
1393.398814
 30
0.0
 40
2.0
100
AcDbArc
 50
270.0
 51
355.0
  0
ARC
  5
280D6
100
AcDbEntity
  8
0
100
AcDbCircle
 10
2114.958987
 20
1393.398814
 30
0.0
 40
2.0
100
AcDbArc
 50
180.0
 51
270.0
  0
ARC
  5
280D7
100
AcDbEntity
  8
0
100
AcDbCircle
 10
2109.958987
 20
1436.806417
 30
0.0
 40
3.0
100
AcDbArc
 50
0.0
 51
102.0
  0
ARC
  5
280D8
100
AcDbEntity
  8
0
100
AcDbCircle
 10
2127.05378
 20
1437.373005
 30
0.0
 40
6.0
100
AcDbArc
 50
39.116703
 51
102.0
  0
ARC
  5
280D9
100
AcDbEntity
  8
0
100
AcDbCircle
 10
2128.938854
 20
1436.670596
 30
0.0
 40
5.0
100
AcDbArc
 50
40.398957
 51
175.0
  0
CIRCLE
  5
280DA
100
AcDbEntity
  8
0
100
AcDbCircle
 10
2221.252446
 20
1288.081382
 30
0.0
 40
8.24991
  0
LINE
  5
280DB
100
AcDbEntity
  8
0
100
AcDbLine
 10
2213.46616
 20
1282.106233
 30
0.0
 11
2212.184568
 21
1291.83742
 31
0.0
  0
LINE
  5
280DC
100
AcDbEntity
  8
0
100
AcDbLine
 10
2230.320323
 20
1284.325344
 30
0.0
 11
2222.533113
 21
1278.350578
 31
0.0
  0
LINE
  5
280DD
100
AcDbEntity
  8
0
100
AcDbLine
 10
2222.533113
 20
1278.350578
 30
0.0
 11
2213.46616
 21
1282.106233
 31
0.0
  0
LINE
  5
280DE
100
AcDbEntity
  8
0
100
AcDbLine
 10
2219.971778
 20
1297.812185
 30
0.0
 11
2229.038732
 21
1294.05653
 31
0.0
  0
LINE
  5
280DF
100
AcDbEntity
  8
0
100
AcDbLine
 10
2212.184568
 20
1291.83742
 30
0.0
 11
2219.971778
 21
1297.812185
 31
0.0
  0
LINE
  5
280E0
100
AcDbEntity
  8
0
100
AcDbLine
 10
2229.038732
 20
1294.05653
 30
0.0
 11
2230.320323
 21
1284.325344
 31
0.0
  0
ARC
  5
280E1
100
AcDbEntity
  8
0
100
AcDbCircle
 10
2221.303179
 20
1288.203862
 30
0.0
 40
12.0
100
AcDbArc
 50
45.0
 51
90.0
  0
ARC
  5
280E2
100
AcDbEntity
  8
0
100
AcDbCircle
 10
2230.958987
 20
1424.840374
 30
0.0
 40
3.0
100
AcDbArc
 50
0.0
 51
124.717906
  0
ARC
  5
280E3
100
AcDbEntity
  8
0
100
AcDbCircle
 10
2230.958987
 20
1411.398814
 30
0.0
 40
3.0
100
AcDbArc
 50
0.0
 51
90.0
  0
LINE
  5
280E4
100
AcDbEntity
  8
0
100
AcDbLine
 10
2230.958987
 20
1414.398814
 30
0.0
 11
2187.958987
 21
1414.398814
 31
0.0
  0
LINE
  5
280E5
100
AcDbEntity
  8
0
100
AcDbLine
 10
2253.958987
 20
1416.398814
 30
0.0
 11
2249.265611
 21
1416.398814
 31
0.0
  0
LINE
  5
280E6
100
AcDbEntity
  8
0
100
AcDbLine
 10
2240.958987
 20
1436.26039
 30
0.0
 11
2240.958987
 21
1393.398814
 31
0.0
  0
LINE
  5
280E7
100
AcDbEntity
  8
0
100
AcDbLine
 10
2235.958987
 20
1391.398814
 30
0.0
 11
2238.958987
 21
1391.398814
 31
0.0
  0
ARC
  5
280E8
100
AcDbEntity
  8
0
100
AcDbCircle
 10
2238.958987
 20
1393.398814
 30
0.0
 40
2.0
100
AcDbArc
 50
270.0
 51
0.0
  0
ARC
  5
280E9
100
AcDbEntity
  8
0
100
AcDbCircle
 10
2243.958987
 20
1436.26039
 30
0.0
 40
3.0
100
AcDbArc
 50
137.878298
 51
180.0
  0
ARC
  5
280EA
100
AcDbEntity
  8
0
100
AcDbCircle
 10
2240.958987
 20
1423.398814
 30
0.0
 40
10.0
100
AcDbArc
 50
295.841933
 51
309.715137
  0
ARC
  5
280EB
100
AcDbEntity
  8
0
100
AcDbCircle
 10
2249.265611
 20
1413.398814
 30
0.0
 40
3.0
100
AcDbArc
 50
90.0
 51
129.715137
  0
LINE
  5
280EC
100
AcDbEntity
  8
0
100
AcDbLine
 10
2245.317886
 20
1414.398814
 30
0.0
 11
2243.958987
 21
1414.398814
 31
0.0
  0
ARC
  5
280ED
100
AcDbEntity
  8
0
100
AcDbCircle
 10
2243.958987
 20
1411.398814
 30
0.0
 40
3.0
100
AcDbArc
 50
90.0
 51
180.0
  0
LINE
  5
280EE
100
AcDbEntity
  8
0
100
AcDbLine
 10
2264.958987
 20
1438.729814
 30
0.0
 11
2264.958987
 21
1422.067814
 31
0.0
  0
LINE
  5
280EF
100
AcDbEntity
  8
0
100
AcDbLine
 10
2264.958987
 20
1422.067814
 30
0.0
 11
2255.958987
 21
1422.067814
 31
0.0
  0
LINE
  5
280F0
100
AcDbEntity
  8
0
100
AcDbLine
 10
2264.958987
 20
1438.729814
 30
0.0
 11
2255.958987
 21
1438.729814
 31
0.0
  0
LINE
  5
280F1
100
AcDbEntity
  8
0
100
AcDbLine
 10
2264.958987
 20
1430.398814
 30
0.0
 11
2255.958987
 21
1430.398814
 31
0.0
  0
ARC
  5
280F2
100
AcDbEntity
  8
0
100
AcDbCircle
 10
2253.958987
 20
1418.398814
 30
0.0
 40
2.0
100
AcDbArc
 50
270.0
 51
0.0
  0
LINE
  5
280F3
100
AcDbEntity
  8
0
100
AcDbLine
 10
2255.958987
 20
1443.204192
 30
0.0
 11
2255.958987
 21
1418.398814
 31
0.0
  0
LINE
  5
280F4
100
AcDbEntity
  8
0
100
AcDbLine
 10
2233.958987
 20
1424.840374
 30
0.0
 11
2233.958987
 21
1393.398814
 31
0.0
  0
ARC
  5
280F5
100
AcDbEntity
  8
0
100
AcDbCircle
 10
2235.958987
 20
1393.398814
 30
0.0
 40
2.0
100
AcDbArc
 50
180.0
 51
270.0
  0
LINE
  5
280F6
100
AcDbEntity
  8
0
100
AcDbLine
 10
2256.152041
 20
1543.398814
 30
0.0
 11
2119.765933
 21
1543.398814
 31
0.0
  0
LINE
  5
280F7
100
AcDbEntity
  8
0
100
AcDbLine
 10
2120.035923
 20
1549.460992
 30
0.0
 11
2255.882051
 21
1549.460992
 31
0.0
  0
LINE
  5
280F8
100
AcDbEntity
  8
0
100
AcDbLine
 10
2277.958987
 20
1593.898814
 30
0.0
 11
2095.458987
 21
1593.898814
 31
0.0
  0
LINE
  5
280F9
100
AcDbEntity
  8
0
100
AcDbLine
 10
2277.958987
 20
1610.898814
 30
0.0
 11
2095.458987
 21
1610.898814
 31
0.0
  0
LINE
  5
280FA
100
AcDbEntity
  8
0
100
AcDbLine
 10
2277.958987
 20
1626.898814
 30
0.0
 11
2095.458987
 21
1626.898814
 31
0.0
  0
LINE
  5
280FB
100
AcDbEntity
  8
0
100
AcDbLine
 10
2115.458987
 20
1543.398814
 30
0.0
 11
2115.458987
 21
1486.898814
 31
0.0
  0
LINE
  5
280FC
100
AcDbEntity
  8
0
100
AcDbLine
 10
2087.958987
 20
1546.898814
 30
0.0
 11
2087.958987
 21
1483.111399
 31
0.0
  0
ARC
  5
280FD
100
AcDbEntity
  8
0
100
AcDbCircle
 10
2106.34325
 20
1465.029943
 30
0.0
 40
30.604209
100
AcDbArc
 50
179.598545
 51
210.401455
  0
LINE
  5
280FE
100
AcDbEntity
  8
0
100
AcDbLine
 10
2074.860679
 20
1468.52527
 30
0.0
 11
2083.265163
 21
1470.777244
 31
0.0
  0
LINE
  5
280FF
100
AcDbEntity
  8
0
100
AcDbLine
 10
2075.739792
 20
1465.244376
 30
0.0
 11
2084.144276
 21
1467.496351
 31
0.0
  0
LINE
  5
28100
100
AcDbEntity
  8
0
100
AcDbLine
 10
2072.731767
 20
1476.470478
 30
0.0
 11
2081.136251
 21
1478.722453
 31
0.0
  0
LINE
  5
28101
100
AcDbEntity
  8
0
100
AcDbLine
 10
2072.731767
 20
1476.470478
 30
0.0
 11
2072.059335
 21
1473.960929
 31
0.0
  0
ARC
  5
28102
100
AcDbEntity
  8
0
100
AcDbCircle
 10
2080.698427
 20
1474.347314
 30
0.0
 40
8.244725
100
AcDbArc
 50
165.077168
 51
224.922832
  0
LINE
  5
28103
100
AcDbEntity
  8
0
100
AcDbLine
 10
2074.860679
 20
1468.52527
 30
0.0
 11
2075.739792
 21
1465.244376
 31
0.0
  0
ARC
  5
28104
100
AcDbEntity
  8
0
100
AcDbCircle
 10
2057.74812
 20
1452.008917
 30
0.0
 40
30.604209
100
AcDbArc
 50
359.598545
 51
30.401455
  0
LINE
  5
28105
100
AcDbEntity
  8
0
100
AcDbLine
 10
2080.826207
 20
1446.261616
 30
0.0
 11
2089.230691
 21
1448.513591
 31
0.0
  0
LINE
  5
28106
100
AcDbEntity
  8
0
100
AcDbLine
 10
2079.947094
 20
1449.54251
 30
0.0
 11
2088.351578
 21
1451.794484
 31
0.0
  0
LINE
  5
28107
100
AcDbEntity
  8
0
100
AcDbLine
 10
2079.947094
 20
1449.54251
 30
0.0
 11
2080.826207
 21
1446.261616
 31
0.0
  0
LINE
  5
28108
100
AcDbEntity
  8
0
100
AcDbLine
 10
2089.230691
 20
1448.513591
 30
0.0
 11
2088.351578
 21
1451.794484
 31
0.0
  0
LINE
  5
28109
100
AcDbEntity
  8
0
100
AcDbLine
 10
2085.735444
 20
1480.213622
 30
0.0
 11
2083.162837
 21
1479.524294
 31
0.0
  0
LINE
  5
2810A
100
AcDbEntity
  8
0
100
AcDbLine
 10
2081.136251
 20
1478.722453
 30
0.0
 11
2082.973368
 21
1476.885335
 31
0.0
  0
ARC
  5
2810B
100
AcDbEntity
  8
0
100
AcDbCircle
 10
2075.298503
 20
1472.900409
 30
0.0
 40
8.244725
100
AcDbArc
 50
345.077168
 51
44.922832
  0
LINE
  5
2810C
100
AcDbEntity
  8
0
100
AcDbLine
 10
2084.144276
 20
1467.496351
 30
0.0
 11
2083.265163
 21
1470.777244
 31
0.0
  0
LINE
  5
2810D
100
AcDbEntity
  8
0
100
AcDbLine
 10
2083.162837
 20
1479.524294
 30
0.0
 11
2082.714549
 21
1477.851261
 31
0.0
  0
ARC
  5
2810E
100
AcDbEntity
  8
0
100
AcDbCircle
 10
2084.958987
 20
1483.111399
 30
0.0
 40
3.0
100
AcDbArc
 50
285.0
 51
0.0
  0
ARC
  5
2810F
100
AcDbEntity
  8
0
100
AcDbCircle
 10
2098.970468
 20
1628.46749
 30
0.0
 40
4.630982
100
AcDbArc
 50
58.000676
 51
121.999324
  0
LINE
  5
28110
100
AcDbEntity
  8
0
100
AcDbLine
 10
2062.958987
 20
1615.898814
 30
0.0
 11
2062.958987
 21
1545.898814
 31
0.0
  0
LINE
  5
28111
100
AcDbEntity
  8
0
100
AcDbLine
 10
2075.083343
 20
1608.898814
 30
0.0
 11
2075.083343
 21
1552.898814
 31
0.0
  0
LINE
  5
28112
100
AcDbEntity
  8
0
100
AcDbLine
 10
2042.958987
 20
1580.898814
 30
0.0
 11
2042.958987
 21
1615.898814
 31
0.0
  0
LINE
  5
28113
100
AcDbEntity
  8
0
100
AcDbLine
 10
2081.958987
 20
1552.898814
 30
0.0
 11
2075.083343
 21
1552.898814
 31
0.0
  0
LINE
  5
28114
100
AcDbEntity
  8
0
100
AcDbLine
 10
2062.958987
 20
1545.898814
 30
0.0
 11
2075.083343
 21
1552.898814
 31
0.0
  0
LINE
  5
28115
100
AcDbEntity
  8
0
100
AcDbLine
 10
2042.958987
 20
1545.898814
 30
0.0
 11
2042.958987
 21
1580.898814
 31
0.0
  0
LINE
  5
28116
100
AcDbEntity
  8
0
100
AcDbLine
 10
2062.958987
 20
1545.898814
 30
0.0
 11
2042.958987
 21
1545.898814
 31
0.0
  0
ARC
  5
28117
100
AcDbEntity
  8
0
100
AcDbCircle
 10
2081.958987
 20
1546.898814
 30
0.0
 40
6.0
100
AcDbArc
 50
360.0
 51
90.0
  0
LINE
  5
28118
100
AcDbEntity
  8
0
100
AcDbLine
 10
2095.458987
 20
1608.898814
 30
0.0
 11
2075.083343
 21
1608.898814
 31
0.0
  0
LINE
  5
28119
100
AcDbEntity
  8
0
100
AcDbLine
 10
2062.958987
 20
1615.898814
 30
0.0
 11
2075.083343
 21
1608.898814
 31
0.0
  0
LINE
  5
2811A
100
AcDbEntity
  8
0
100
AcDbLine
 10
2062.958987
 20
1615.898814
 30
0.0
 11
2042.958987
 21
1615.898814
 31
0.0
  0
LINE
  5
2811B
100
AcDbEntity
  8
0
100
AcDbLine
 10
2096.516468
 20
1632.394814
 30
0.0
 11
2096.516468
 21
1626.898814
 31
0.0
  0
LINE
  5
2811C
100
AcDbEntity
  8
0
100
AcDbLine
 10
2105.958987
 20
1560.398814
 30
0.0
 11
2105.958987
 21
1593.898814
 31
0.0
  0
ARC
  5
2811D
100
AcDbEntity
  8
0
100
AcDbCircle
 10
2105.958987
 20
1554.398814
 30
0.0
 40
6.0
100
AcDbArc
 50
0.0
 51
90.0
  0
LINE
  5
2811E
100
AcDbEntity
  8
0
100
AcDbLine
 10
2111.958987
 20
1554.398814
 30
0.0
 11
2111.958987
 21
1549.460992
 31
0.0
  0
LINE
  5
2811F
100
AcDbEntity
  8
0
100
AcDbLine
 10
2111.958987
 20
1549.460992
 30
0.0
 11
2115.458987
 21
1543.398814
 31
0.0
  0
ARC
  5
28120
100
AcDbEntity
  8
0
100
AcDbCircle
 10
2153.415529
 20
1615.635822
 30
0.0
 40
17.462601
100
AcDbArc
 50
73.680072
 51
106.319928
  0
ARC
  5
28121
100
AcDbEntity
  8
0
100
AcDbCircle
 10
2106.331468
 20
1615.635822
 30
0.0
 40
17.462601
100
AcDbArc
 50
73.680072
 51
106.319928
  0
LINE
  5
28122
100
AcDbEntity
  8
0
100
AcDbLine
 10
2101.424468
 20
1632.394814
 30
0.0
 11
2101.424468
 21
1626.898814
 31
0.0
  0
ARC
  5
28123
100
AcDbEntity
  8
0
100
AcDbCircle
 10
2146.054529
 20
1628.46749
 30
0.0
 40
4.630982
100
AcDbArc
 50
58.000676
 51
121.999324
  0
LINE
  5
28124
100
AcDbEntity
  8
0
100
AcDbLine
 10
2143.600529
 20
1632.394814
 30
0.0
 11
2143.600529
 21
1626.898814
 31
0.0
  0
LINE
  5
28125
100
AcDbEntity
  8
0
100
AcDbLine
 10
2148.508529
 20
1632.394814
 30
0.0
 11
2148.508529
 21
1626.898814
 31
0.0
  0
ARC
  5
28126
100
AcDbEntity
  8
0
100
AcDbCircle
 10
2113.692468
 20
1628.46749
 30
0.0
 40
4.630982
100
AcDbArc
 50
58.000676
 51
121.999324
  0
LINE
  5
28127
100
AcDbEntity
  8
0
100
AcDbLine
 10
2116.146468
 20
1626.898814
 30
0.0
 11
2116.146468
 21
1632.394814
 31
0.0
  0
LINE
  5
28128
100
AcDbEntity
  8
0
100
AcDbLine
 10
2111.238468
 20
1632.394814
 30
0.0
 11
2111.238468
 21
1626.898814
 31
0.0
  0
LINE
  5
28129
100
AcDbEntity
  8
0
100
AcDbLine
 10
2163.230529
 20
1626.898814
 30
0.0
 11
2163.230529
 21
1632.394814
 31
0.0
  0
LINE
  5
2812A
100
AcDbEntity
  8
0
100
AcDbLine
 10
2149.644233
 20
1624.898814
 30
0.0
 11
2149.644233
 21
1595.898814
 31
0.0
  0
LINE
  5
2812B
100
AcDbEntity
  8
0
100
AcDbLine
 10
2158.322529
 20
1632.394814
 30
0.0
 11
2158.322529
 21
1626.898814
 31
0.0
  0
ARC
  5
2812C
100
AcDbEntity
  8
0
100
AcDbCircle
 10
2160.776529
 20
1628.46749
 30
0.0
 40
4.630982
100
AcDbArc
 50
58.000676
 51
121.999324
  0
ARC
  5
2812D
100
AcDbEntity
  8
0
100
AcDbCircle
 10
2117.309609
 20
1638.898814
 30
0.0
 40
12.0
100
AcDbArc
 50
270.0
 51
297.697185
  0
LINE
  5
2812E
100
AcDbEntity
  8
0
100
AcDbLine
 10
2263.958987
 20
1541.960992
 30
0.0
 11
2260.458987
 21
1535.898814
 31
0.0
  0
LINE
  5
2812F
100
AcDbEntity
  8
0
100
AcDbLine
 10
2260.458987
 20
1535.898814
 30
0.0
 11
2260.458987
 21
1486.898814
 31
0.0
  0
ARC
  5
28130
100
AcDbEntity
  8
0
100
AcDbCircle
 10
2220.002446
 20
1615.635822
 30
0.0
 40
17.462601
100
AcDbArc
 50
73.680072
 51
106.319928
  0
ARC
  5
28131
100
AcDbEntity
  8
0
100
AcDbCircle
 10
2212.641446
 20
1628.46749
 30
0.0
 40
4.630982
100
AcDbArc
 50
58.000676
 51
121.999324
  0
LINE
  5
28132
100
AcDbEntity
  8
0
100
AcDbLine
 10
2210.187446
 20
1626.898814
 30
0.0
 11
2210.187446
 21
1632.394814
 31
0.0
  0
LINE
  5
28133
100
AcDbEntity
  8
0
100
AcDbLine
 10
2215.095446
 20
1632.394814
 30
0.0
 11
2215.095446
 21
1626.898814
 31
0.0
  0
ARC
  5
28134
100
AcDbEntity
  8
0
100
AcDbCircle
 10
2227.363446
 20
1628.46749
 30
0.0
 40
4.630982
100
AcDbArc
 50
58.000676
 51
121.999324
  0
LINE
  5
28135
100
AcDbEntity
  8
0
100
AcDbLine
 10
2226.273742
 20
1624.898814
 30
0.0
 11
2226.273742
 21
1595.898814
 31
0.0
  0
LINE
  5
28136
100
AcDbEntity
  8
0
100
AcDbLine
 10
2229.817446
 20
1632.394814
 30
0.0
 11
2229.817446
 21
1626.898814
 31
0.0
  0
LINE
  5
28137
100
AcDbEntity
  8
0
100
AcDbLine
 10
2224.909446
 20
1632.394814
 30
0.0
 11
2224.909446
 21
1626.898814
 31
0.0
  0
LINE
  5
28138
100
AcDbEntity
  8
0
100
AcDbLine
 10
2290.834632
 20
1608.898814
 30
0.0
 11
2290.834632
 21
1552.898814
 31
0.0
  0
LINE
  5
28139
100
AcDbEntity
  8
0
100
AcDbLine
 10
2263.958987
 20
1554.05736
 30
0.0
 11
2263.958987
 21
1593.898814
 31
0.0
  0
ARC
  5
2813A
100
AcDbEntity
  8
0
100
AcDbCircle
 10
2269.958987
 20
1546.898814
 30
0.0
 40
6.0
100
AcDbArc
 50
90.0
 51
180.0
  0
LINE
  5
2813B
100
AcDbEntity
  8
0
100
AcDbLine
 10
2263.958987
 20
1546.898814
 30
0.0
 11
2263.958987
 21
1541.960992
 31
0.0
  0
LINE
  5
2813C
100
AcDbEntity
  8
0
100
AcDbLine
 10
2269.958987
 20
1552.898814
 30
0.0
 11
2290.834632
 21
1552.898814
 31
0.0
  0
ARC
  5
2813D
100
AcDbEntity
  8
0
100
AcDbCircle
 10
2267.086506
 20
1615.635822
 30
0.0
 40
17.462601
100
AcDbArc
 50
73.680072
 51
106.319928
  0
ARC
  5
2813E
100
AcDbEntity
  8
0
100
AcDbCircle
 10
2274.447506
 20
1628.46749
 30
0.0
 40
4.630982
100
AcDbArc
 50
58.000676
 51
121.999324
  0
ARC
  5
2813F
100
AcDbEntity
  8
0
100
AcDbCircle
 10
2259.725506
 20
1628.46749
 30
0.0
 40
4.630982
100
AcDbArc
 50
58.000676
 51
121.999324
  0
LINE
  5
28140
100
AcDbEntity
  8
0
100
AcDbLine
 10
2277.958987
 20
1626.898814
 30
0.0
 11
2277.958987
 21
1593.898814
 31
0.0
  0
LINE
  5
28141
100
AcDbEntity
  8
0
100
AcDbLine
 10
2262.179506
 20
1632.394814
 30
0.0
 11
2262.179506
 21
1626.898814
 31
0.0
  0
LINE
  5
28142
100
AcDbEntity
  8
0
100
AcDbLine
 10
2257.271506
 20
1626.898814
 30
0.0
 11
2257.271506
 21
1632.394814
 31
0.0
  0
LINE
  5
28143
100
AcDbEntity
  8
0
100
AcDbLine
 10
2276.901506
 20
1632.394814
 30
0.0
 11
2276.901506
 21
1626.898814
 31
0.0
  0
LINE
  5
28144
100
AcDbEntity
  8
0
100
AcDbLine
 10
2271.993506
 20
1632.394814
 30
0.0
 11
2271.993506
 21
1626.898814
 31
0.0
  0
LINE
  5
28145
100
AcDbEntity
  8
0
100
AcDbLine
 10
2277.958987
 20
1608.898814
 30
0.0
 11
2290.834632
 21
1608.898814
 31
0.0
  0
ARC
  5
28146
100
AcDbEntity
  8
0
100
AcDbCircle
 10
2258.608366
 20
1638.898814
 30
0.0
 40
12.0
100
AcDbArc
 50
242.302815
 51
263.60369
  0
ARC
  5
28147
100
AcDbEntity
  8
0
100
AcDbCircle
 10
2258.958987
 20
1629.898814
 30
0.0
 40
3.0
100
AcDbArc
 50
180.0
 51
235.77158
  0
LINE
  5
28148
100
AcDbEntity
  8
0
100
AcDbLine
 10
2525.278624
 20
958.962951
 30
0.0
 11
2545.278624
 21
958.962951
 31
0.0
  0
LINE
  5
28149
100
AcDbEntity
  8
0
100
AcDbLine
 10
2525.278624
 20
946.962951
 30
0.0
 11
2545.278624
 21
946.962951
 31
0.0
  0
LINE
  5
2814A
100
AcDbEntity
  8
0
100
AcDbLine
 10
2525.278458
 20
936.962951
 30
0.0
 11
2545.278458
 21
936.962951
 31
0.0
  0
LINE
  5
2814B
100
AcDbEntity
  8
0
100
AcDbLine
 10
2502.278458
 20
937.962951
 30
0.0
 11
2568.278458
 21
937.962951
 31
0.0
  0
CIRCLE
  5
2814C
100
AcDbEntity
  8
0
100
AcDbCircle
 10
2535.278458
 20
926.962951
 30
0.0
 40
4.864
  0
LINE
  5
2814D
100
AcDbEntity
  8
0
100
AcDbLine
 10
2442.778458
 20
916.962951
 30
0.0
 11
2627.778458
 21
916.962951
 31
0.0
  0
LINE
  5
2814E
100
AcDbEntity
  8
0
100
AcDbLine
 10
2312.958987
 20
905.962951
 30
0.0
 11
2332.958987
 21
905.962951
 31
0.0
  0
LINE
  5
2814F
100
AcDbEntity
  8
0
100
AcDbLine
 10
2312.958987
 20
905.962951
 30
0.0
 11
2300.834632
 21
898.962951
 31
0.0
  0
LINE
  5
28150
100
AcDbEntity
  8
0
100
AcDbLine
 10
2442.778458
 20
883.962951
 30
0.0
 11
2497.331126
 21
883.962951
 31
0.0
  0
LINE
  5
28151
100
AcDbEntity
  8
0
100
AcDbLine
 10
2442.778458
 20
900.962951
 30
0.0
 11
2517.250702
 21
900.962951
 31
0.0
  0
ARC
  5
28152
100
AcDbEntity
  8
0
100
AcDbCircle
 10
2535.278458
 20
794.379649
 30
0.0
 40
140.0
100
AcDbArc
 50
106.309265
 51
117.697185
  0
LINE
  5
28153
100
AcDbEntity
  8
0
100
AcDbLine
 10
2442.778458
 20
883.962951
 30
0.0
 11
2442.778458
 21
916.962951
 31
0.0
  0
ARC
  5
28154
100
AcDbEntity
  8
0
100
AcDbCircle
 10
2458.963439
 20
913.212303
 30
0.0
 40
10.150648
100
AcDbArc
 50
65.635807
 51
114.364193
  0
LINE
  5
28155
100
AcDbEntity
  8
0
100
AcDbLine
 10
2463.150939
 20
923.362951
 30
0.0
 11
2446.400939
 21
923.362951
 31
0.0
  0
ARC
  5
28156
100
AcDbEntity
  8
0
100
AcDbCircle
 10
2450.588439
 20
913.212303
 30
0.0
 40
10.150648
100
AcDbArc
 50
65.635807
 51
114.364193
  0
LINE
  5
28157
100
AcDbEntity
  8
0
100
AcDbLine
 10
2454.775939
 20
922.458951
 30
0.0
 11
2454.775939
 21
916.962951
 31
0.0
  0
LINE
  5
28158
100
AcDbEntity
  8
0
100
AcDbLine
 10
2446.400939
 20
923.362951
 30
0.0
 11
2446.400939
 21
916.962951
 31
0.0
  0
LINE
  5
28159
100
AcDbEntity
  8
0
100
AcDbLine
 10
2463.150939
 20
923.362951
 30
0.0
 11
2463.150939
 21
916.962951
 31
0.0
  0
ARC
  5
2815A
100
AcDbEntity
  8
0
100
AcDbCircle
 10
2464.629079
 20
928.962951
 30
0.0
 40
12.0
100
AcDbArc
 50
276.39631
 51
297.697185
  0
ARC
  5
2815B
100
AcDbEntity
  8
0
100
AcDbCircle
 10
2506.172499
 20
913.212303
 30
0.0
 40
10.150648
100
AcDbArc
 50
65.635807
 51
114.364193
  0
LINE
  5
2815C
100
AcDbEntity
  8
0
100
AcDbLine
 10
2510.359999
 20
923.362951
 30
0.0
 11
2510.359999
 21
916.962951
 31
0.0
  0
LINE
  5
2815D
100
AcDbEntity
  8
0
100
AcDbLine
 10
2501.984999
 20
922.458951
 30
0.0
 11
2501.984999
 21
916.962951
 31
0.0
  0
LINE
  5
2815E
100
AcDbEntity
  8
0
100
AcDbLine
 10
2495.713703
 20
914.962951
 30
0.0
 11
2495.713703
 21
885.962951
 31
0.0
  0
LINE
  5
2815F
100
AcDbEntity
  8
0
100
AcDbLine
 10
2493.609999
 20
923.362951
 30
0.0
 11
2493.609999
 21
916.962951
 31
0.0
  0
ARC
  5
28160
100
AcDbEntity
  8
0
100
AcDbCircle
 10
2497.331126
 20
879.962951
 30
0.0
 40
4.0
100
AcDbArc
 50
346.657636
 51
90.0
  0
ARC
  5
28161
100
AcDbEntity
  8
0
100
AcDbCircle
 10
2497.797499
 20
913.212303
 30
0.0
 40
10.150648
100
AcDbArc
 50
65.635807
 51
114.364193
  0
LINE
  5
28162
100
AcDbEntity
  8
0
100
AcDbLine
 10
2510.359999
 20
923.362951
 30
0.0
 11
2493.609999
 21
923.362951
 31
0.0
  0
LINE
  5
28163
100
AcDbEntity
  8
0
100
AcDbLine
 10
2530.010824
 20
946.962951
 30
0.0
 11
2530.010824
 21
958.962951
 31
0.0
  0
LINE
  5
28164
100
AcDbEntity
  8
0
100
AcDbLine
 10
2525.278624
 20
958.962951
 30
0.0
 11
2525.278624
 21
937.962951
 31
0.0
  0
ARC
  5
28165
100
AcDbEntity
  8
0
100
AcDbCircle
 10
2525.278458
 20
934.962951
 30
0.0
 40
2.0
100
AcDbArc
 50
90.0
 51
180.0
  0
ARC
  5
28166
100
AcDbEntity
  8
0
100
AcDbCircle
 10
2535.278458
 20
1233.056811
 30
0.0
 40
304.310778
100
AcDbArc
 50
264.701343
 51
267.740048
  0
ARC
  5
28167
100
AcDbEntity
  8
0
100
AcDbCircle
 10
2494.278458
 20
934.504593
 30
0.0
 40
6.0
100
AcDbArc
 50
286.309265
 51
0.0
  0
LINE
  5
28168
100
AcDbEntity
  8
0
100
AcDbLine
 10
2500.278458
 20
935.962951
 30
0.0
 11
2500.278458
 21
934.504593
 31
0.0
  0
ARC
  5
28169
100
AcDbEntity
  8
0
100
AcDbCircle
 10
2502.278458
 20
935.962951
 30
0.0
 40
2.0
100
AcDbArc
 50
90.0
 51
180.0
  0
ARC
  5
2816A
100
AcDbEntity
  8
0
100
AcDbCircle
 10
2520.278458
 20
919.962951
 30
0.0
 40
3.0
100
AcDbArc
 50
270.0
 51
0.0
  0
LINE
  5
2816B
100
AcDbEntity
  8
0
100
AcDbLine
 10
2523.278458
 20
919.962951
 30
0.0
 11
2523.278458
 21
934.962951
 31
0.0
  0
LINE
  5
2816C
100
AcDbEntity
  8
0
100
AcDbLine
 10
2312.958987
 20
1242.703862
 30
0.0
 11
2312.958987
 21
1172.703862
 31
0.0
  0
LINE
  5
2816D
100
AcDbEntity
  8
0
100
AcDbLine
 10
2300.834632
 20
1235.703862
 30
0.0
 11
2300.834632
 21
1179.703862
 31
0.0
  0
LINE
  5
2816E
100
AcDbEntity
  8
0
100
AcDbLine
 10
2332.958987
 20
1172.703862
 30
0.0
 11
2332.958987
 21
1207.703862
 31
0.0
  0
LINE
  5
2816F
100
AcDbEntity
  8
0
100
AcDbLine
 10
2312.958987
 20
1172.703862
 30
0.0
 11
2332.958987
 21
1172.703862
 31
0.0
  0
LINE
  5
28170
100
AcDbEntity
  8
0
100
AcDbLine
 10
2312.958987
 20
1172.703862
 30
0.0
 11
2300.834632
 21
1179.703862
 31
0.0
  0
LINE
  5
28171
100
AcDbEntity
  8
0
100
AcDbLine
 10
2312.958987
 20
1242.703862
 30
0.0
 11
2332.958987
 21
1242.703862
 31
0.0
  0
LINE
  5
28172
100
AcDbEntity
  8
0
100
AcDbLine
 10
2332.958987
 20
1207.703862
 30
0.0
 11
2332.958987
 21
1242.703862
 31
0.0
  0
LINE
  5
28173
100
AcDbEntity
  8
0
100
AcDbLine
 10
2312.958987
 20
1242.703862
 30
0.0
 11
2300.834632
 21
1235.703862
 31
0.0
  0
LINE
  5
28174
100
AcDbEntity
  8
0
100
AcDbLine
 10
2553.306214
 20
900.962951
 30
0.0
 11
2627.778458
 21
900.962951
 31
0.0
  0
LINE
  5
28175
100
AcDbEntity
  8
0
100
AcDbLine
 10
2573.22579
 20
883.962951
 30
0.0
 11
2627.778458
 21
883.962951
 31
0.0
  0
LINE
  5
28176
100
AcDbEntity
  8
0
100
AcDbLine
 10
2572.343212
 20
914.962951
 30
0.0
 11
2572.343212
 21
885.962951
 31
0.0
  0
LINE
  5
28177
100
AcDbEntity
  8
0
100
AcDbLine
 10
2576.946917
 20
923.362951
 30
0.0
 11
2576.946917
 21
916.962951
 31
0.0
  0
ARC
  5
28178
100
AcDbEntity
  8
0
100
AcDbCircle
 10
2564.384417
 20
913.212303
 30
0.0
 40
10.150648
100
AcDbArc
 50
65.635807
 51
114.364193
  0
LINE
  5
28179
100
AcDbEntity
  8
0
100
AcDbLine
 10
2560.196917
 20
923.362951
 30
0.0
 11
2560.196917
 21
916.962951
 31
0.0
  0
LINE
  5
2817A
100
AcDbEntity
  8
0
100
AcDbLine
 10
2568.571917
 20
922.458951
 30
0.0
 11
2568.571917
 21
916.962951
 31
0.0
  0
ARC
  5
2817B
100
AcDbEntity
  8
0
100
AcDbCircle
 10
2573.22579
 20
879.962951
 30
0.0
 40
4.0
100
AcDbArc
 50
90.0
 51
193.342364
  0
ARC
  5
2817C
100
AcDbEntity
  8
0
100
AcDbCircle
 10
2572.759417
 20
913.212303
 30
0.0
 40
10.150648
100
AcDbArc
 50
65.635807
 51
114.364193
  0
LINE
  5
2817D
100
AcDbEntity
  8
0
100
AcDbLine
 10
2560.196917
 20
923.362951
 30
0.0
 11
2576.946917
 21
923.362951
 31
0.0
  0
LINE
  5
2817E
100
AcDbEntity
  8
0
100
AcDbLine
 10
2545.278624
 20
958.962951
 30
0.0
 11
2545.278624
 21
937.962951
 31
0.0
  0
LINE
  5
2817F
100
AcDbEntity
  8
0
100
AcDbLine
 10
2540.546424
 20
946.962951
 30
0.0
 11
2540.546424
 21
958.962951
 31
0.0
  0
ARC
  5
28180
100
AcDbEntity
  8
0
100
AcDbCircle
 10
2545.278458
 20
934.962951
 30
0.0
 40
2.0
100
AcDbArc
 50
0.0
 51
90.0
  0
ARC
  5
28181
100
AcDbEntity
  8
0
100
AcDbCircle
 10
2535.278458
 20
1233.056811
 30
0.0
 40
304.310778
100
AcDbArc
 50
272.259952
 51
275.298657
  0
LINE
  5
28182
100
AcDbEntity
  8
0
100
AcDbLine
 10
2570.278458
 20
935.962951
 30
0.0
 11
2570.278458
 21
934.504593
 31
0.0
  0
ARC
  5
28183
100
AcDbEntity
  8
0
100
AcDbCircle
 10
2568.278458
 20
935.962951
 30
0.0
 40
2.0
100
AcDbArc
 50
0.0
 51
90.0
  0
ARC
  5
28184
100
AcDbEntity
  8
0
100
AcDbCircle
 10
2576.278458
 20
934.504593
 30
0.0
 40
6.0
100
AcDbArc
 50
180.0
 51
253.690735
  0
ARC
  5
28185
100
AcDbEntity
  8
0
100
AcDbCircle
 10
2535.278458
 20
794.379649
 30
0.0
 40
140.0
100
AcDbArc
 50
62.302815
 51
73.690735
  0
ARC
  5
28186
100
AcDbEntity
  8
0
100
AcDbCircle
 10
2605.927837
 20
928.962951
 30
0.0
 40
12.0
100
AcDbArc
 50
242.302815
 51
270.0
  0
ARC
  5
28187
100
AcDbEntity
  8
0
100
AcDbCircle
 10
2550.278458
 20
919.962951
 30
0.0
 40
3.0
100
AcDbArc
 50
180.0
 51
270.0
  0
LINE
  5
28188
100
AcDbEntity
  8
0
100
AcDbLine
 10
2547.278458
 20
919.962951
 30
0.0
 11
2547.278458
 21
934.962951
 31
0.0
  0
LINE
  5
28189
100
AcDbEntity
  8
0
100
AcDbLine
 10
2627.778458
 20
883.962951
 30
0.0
 11
2627.778458
 21
916.962951
 31
0.0
  0
LINE
  5
2818A
100
AcDbEntity
  8
0
100
AcDbLine
 10
2624.155977
 20
923.362951
 30
0.0
 11
2624.155977
 21
916.962951
 31
0.0
  0
ARC
  5
2818B
100
AcDbEntity
  8
0
100
AcDbCircle
 10
2611.593477
 20
913.212303
 30
0.0
 40
10.150648
100
AcDbArc
 50
65.635807
 51
114.364193
  0
LINE
  5
2818C
100
AcDbEntity
  8
0
100
AcDbLine
 10
2607.405977
 20
923.362951
 30
0.0
 11
2607.405977
 21
916.962951
 31
0.0
  0
LINE
  5
2818D
100
AcDbEntity
  8
0
100
AcDbLine
 10
2615.780977
 20
922.458951
 30
0.0
 11
2615.780977
 21
916.962951
 31
0.0
  0
LINE
  5
2818E
100
AcDbEntity
  8
0
100
AcDbLine
 10
2607.405977
 20
923.362951
 30
0.0
 11
2624.155977
 21
923.362951
 31
0.0
  0
ARC
  5
2818F
100
AcDbEntity
  8
0
100
AcDbCircle
 10
2619.968477
 20
913.212303
 30
0.0
 40
10.150648
100
AcDbArc
 50
65.635807
 51
114.364193
  0
LINE
  5
28191
100
AcDbEntity
  8
0
100
AcDbLine
 10
2302.958987
 20
1615.898814
 30
0.0
 11
2302.958987
 21
1545.898814
 31
0.0
  0
LINE
  5
28192
100
AcDbEntity
  8
0
100
AcDbLine
 10
2322.958987
 20
1580.898814
 30
0.0
 11
2322.958987
 21
1615.898814
 31
0.0
  0
LINE
  5
28193
100
AcDbEntity
  8
0
100
AcDbLine
 10
2322.958987
 20
1545.898814
 30
0.0
 11
2322.958987
 21
1580.898814
 31
0.0
  0
LINE
  5
28194
100
AcDbEntity
  8
0
100
AcDbLine
 10
2302.958987
 20
1545.898814
 30
0.0
 11
2322.958987
 21
1545.898814
 31
0.0
  0
LINE
  5
28195
100
AcDbEntity
  8
0
100
AcDbLine
 10
2302.958987
 20
1615.898814
 30
0.0
 11
2322.958987
 21
1615.898814
 31
0.0
  0
LINE
  5
28196
100
AcDbEntity
  8
0
100
AcDbLine
 10
1062.578807
 20
1638.398814
 30
0.0
 11
1031.578807
 21
1638.398814
 31
0.0
  0
LINE
  5
28197
100
AcDbEntity
  8
0
100
AcDbLine
 10
1031.578807
 20
1638.398814
 30
0.0
 11
1031.578807
 21
1636.940456
 31
0.0
  0
ARC
  5
28198
100
AcDbEntity
  8
0
100
AcDbCircle
 10
1029.578807
 20
1638.398814
 30
0.0
 40
2.0
100
AcDbArc
 50
360.0
 51
90.0
  0
LINE
  5
28199
100
AcDbEntity
  8
0
100
AcDbLine
 10
1006.578807
 20
1649.398814
 30
0.0
 11
986.578807
 21
1649.398814
 31
0.0
  0
LINE
  5
2819A
100
AcDbEntity
  8
0
100
AcDbLine
 10
1005.078807
 20
1660.821464
 30
0.0
 11
1005.078807
 21
1649.398814
 31
0.0
  0
LINE
  5
2819B
100
AcDbEntity
  8
0
100
AcDbLine
 10
988.078807
 20
1660.821464
 30
0.0
 11
988.078807
 21
1649.398814
 31
0.0
  0
LINE
  5
2819C
100
AcDbEntity
  8
0
100
AcDbLine
 10
1006.578807
 20
1649.398814
 30
0.0
 11
1006.578807
 21
1640.398814
 31
0.0
  0
LINE
  5
2819D
100
AcDbEntity
  8
0
100
AcDbLine
 10
986.578807
 20
1649.398814
 30
0.0
 11
986.578807
 21
1640.398814
 31
0.0
  0
LINE
  5
2819E
100
AcDbEntity
  8
0
100
AcDbLine
 10
1004.078807
 20
1661.398814
 30
0.0
 11
989.078807
 21
1661.398814
 31
0.0
  0
LINE
  5
2819F
100
AcDbEntity
  8
0
100
AcDbLine
 10
1005.078807
 20
1660.821464
 30
0.0
 11
1004.078807
 21
1661.398814
 31
0.0
  0
LINE
  5
281A0
100
AcDbEntity
  8
0
100
AcDbLine
 10
988.078807
 20
1660.821464
 30
0.0
 11
989.078807
 21
1661.398814
 31
0.0
  0
ARC
  5
281A1
100
AcDbEntity
  8
0
100
AcDbCircle
 10
1062.578807
 20
1636.398814
 30
0.0
 40
2.0
100
AcDbArc
 50
0.0
 51
90.0
  0
ARC
  5
281A2
100
AcDbEntity
  8
0
100
AcDbCircle
 10
2187.958987
 20
1942.992674
 30
0.0
 40
304.310778
100
AcDbArc
 50
264.701343
 51
275.298657
  0
LINE
  5
281A3
100
AcDbEntity
  8
0
100
AcDbLine
 10
2220.958987
 20
1647.898814
 30
0.0
 11
2154.958987
 21
1647.898814
 31
0.0
  0
LINE
  5
281A4
100
AcDbEntity
  8
0
100
AcDbLine
 10
2153.226936
 20
1646.898814
 30
0.0
 11
2097.458987
 21
1646.898814
 31
0.0
  0
ARC
  5
281A5
100
AcDbEntity
  8
0
100
AcDbCircle
 10
2097.458987
 20
1644.898814
 30
0.0
 40
2.0
100
AcDbArc
 50
90.0
 51
180.0
  0
LINE
  5
281A6
100
AcDbEntity
  8
0
100
AcDbLine
 10
2161.665529
 20
1633.298814
 30
0.0
 11
2145.165529
 21
1633.298814
 31
0.0
  0
LINE
  5
281A7
100
AcDbEntity
  8
0
100
AcDbLine
 10
2114.581468
 20
1633.298814
 30
0.0
 11
2098.081468
 21
1633.298814
 31
0.0
  0
LINE
  5
281A8
100
AcDbEntity
  8
0
100
AcDbLine
 10
2152.958987
 20
1645.898814
 30
0.0
 11
2152.958987
 21
1644.440456
 31
0.0
  0
ARC
  5
281A9
100
AcDbEntity
  8
0
100
AcDbCircle
 10
2146.958987
 20
1644.440456
 30
0.0
 40
6.0
100
AcDbArc
 50
286.309265
 51
0.0
  0
ARC
  5
281AA
100
AcDbEntity
  8
0
100
AcDbCircle
 10
2154.958987
 20
1645.898814
 30
0.0
 40
2.0
100
AcDbArc
 50
90.0
 51
180.0
  0
LINE
  5
281AB
100
AcDbEntity
  8
0
100
AcDbLine
 10
2253.958987
 20
1645.898814
 30
0.0
 11
2222.958987
 21
1645.898814
 31
0.0
  0
LINE
  5
281AC
100
AcDbEntity
  8
0
100
AcDbLine
 10
2211.752446
 20
1633.298814
 30
0.0
 11
2228.252446
 21
1633.298814
 31
0.0
  0
LINE
  5
281AD
100
AcDbEntity
  8
0
100
AcDbLine
 10
2222.958987
 20
1645.898814
 30
0.0
 11
2222.958987
 21
1644.440456
 31
0.0
  0
ARC
  5
281AE
100
AcDbEntity
  8
0
100
AcDbCircle
 10
2228.958987
 20
1644.440456
 30
0.0
 40
6.0
100
AcDbArc
 50
180.0
 51
253.690735
  0
ARC
  5
281AF
100
AcDbEntity
  8
0
100
AcDbCircle
 10
2220.958987
 20
1645.898814
 30
0.0
 40
2.0
100
AcDbArc
 50
360.0
 51
90.0
  0
LINE
  5
281B0
100
AcDbEntity
  8
0
100
AcDbLine
 10
2197.958987
 20
1656.898814
 30
0.0
 11
2177.958987
 21
1656.898814
 31
0.0
  0
LINE
  5
281B1
100
AcDbEntity
  8
0
100
AcDbLine
 10
2196.458987
 20
1668.321464
 30
0.0
 11
2196.458987
 21
1656.898814
 31
0.0
  0
LINE
  5
281B2
100
AcDbEntity
  8
0
100
AcDbLine
 10
2179.458987
 20
1668.321464
 30
0.0
 11
2179.458987
 21
1656.898814
 31
0.0
  0
LINE
  5
281B3
100
AcDbEntity
  8
0
100
AcDbLine
 10
2197.958987
 20
1656.898814
 30
0.0
 11
2197.958987
 21
1647.898814
 31
0.0
  0
LINE
  5
281B4
100
AcDbEntity
  8
0
100
AcDbLine
 10
2177.958987
 20
1656.898814
 30
0.0
 11
2177.958987
 21
1647.898814
 31
0.0
  0
LINE
  5
281B5
100
AcDbEntity
  8
0
100
AcDbLine
 10
2195.458987
 20
1668.898814
 30
0.0
 11
2180.458987
 21
1668.898814
 31
0.0
  0
LINE
  5
281B6
100
AcDbEntity
  8
0
100
AcDbLine
 10
2196.458987
 20
1668.321464
 30
0.0
 11
2195.458987
 21
1668.898814
 31
0.0
  0
LINE
  5
281B7
100
AcDbEntity
  8
0
100
AcDbLine
 10
2179.458987
 20
1668.321464
 30
0.0
 11
2180.458987
 21
1668.898814
 31
0.0
  0
LINE
  5
281B8
100
AcDbEntity
  8
0
100
AcDbLine
 10
2258.836506
 20
1633.298814
 30
0.0
 11
2275.336506
 21
1633.298814
 31
0.0
  0
ARC
  5
281B9
100
AcDbEntity
  8
0
100
AcDbCircle
 10
2253.958987
 20
1643.898814
 30
0.0
 40
2.0
100
AcDbArc
 50
0.0
 51
90.0
  0
INSERT
  5
281BA
100
AcDbEntity
  8
0
100
AcDbBlockReference
  2
YA
 10
824.425291
 20
870.962951
 30
0.0
 41
2.856021
 42
2.856021
 43
2.856021
  0
INSERT
  5
281BB
100
AcDbEntity
  8
0
100
AcDbBlockReference
  2
YA
 10
2025.805471
 20
870.962951
 30
0.0
 41
2.856021
 42
2.856021
 43
2.856021
  0
INSERT
  5
281BC
100
AcDbEntity
  8
0
100
AcDbBlockReference
  2
YA
 10
2025.805471
 20
1207.703862
 30
0.0
 41
2.856021
 42
2.856021
 43
2.856021
  0
INSERT
  5
281BD
100
AcDbEntity
  8
0
100
AcDbBlockReference
  2
YA
 10
2350.22183
 20
1580.898814
 30
0.0
 41
-2.856021
 42
2.856021
 43
2.856021
  0
VIEWPORT
  5
41
100
AcDbEntity
 67
     1
  8
0
100
AcDbViewport
 10
117.358407
 20
73.5
 30
0.0
 40
234.716814
 41
147.0
 68
    -1
 69
     1
1001
ACAD
1000
MVIEW
1002
{
1070
    16
1010
0.0
1020
0.0
1030
0.0
1010
0.0
1020
0.0
1030
1.0
1040
0.0
1040
147.0
1040
117.358407
1040
73.5
1040
50.0
1040
0.0
1040
0.0
1070
     0
1070
   100
1070
     1
1070
     1
1070
     0
1070
     0
1070
     0
1070
     0
1040
0.0
1040
0.0
1040
0.0
1040
1.0
1040
1.0
1040
0.0
1040
0.0
1070
     0
1002
{
1002
}
1002
}
  0
ENDSEC
  0
SECTION
  2
OBJECTS
  0
DICTIONARY
  5
C
100
AcDbDictionary
  3
ACAD_GROUP
350
D
  3
ACAD_MLINESTYLE
350
E
  0
DICTIONARY
  5
D
102
{ACAD_REACTORS
330
C
102
}
100
AcDbDictionary
  0
DICTIONARY
  5
E
102
{ACAD_REACTORS
330
C
102
}
100
AcDbDictionary
  3
STANDARD
350
1B
  0
MLINESTYLE
  5
1B
102
{ACAD_REACTORS
330
E
102
}
100
AcDbMlineStyle
  2
STANDARD
 70
     0
  3

 62
     0
 51
90.0
 52
90.0
 71
     2
 49
0.5
 62
   256
  6
BYLAYER
 49
-0.5
 62
   256
  6
BYLAYER
  0
ENDSEC
  0
EOF
