  0
SECTION
  2
HEADER
  9
$ACADVER
  1
AC1012
  9
$DWGCODEPAGE
  3
dos932
  9
$INSBASE
 10
0.0
 20
0.0
 30
0.0
  9
$EXTMIN
 10
33.0
 20
15.0
 30
0.0
  9
$EXTMAX
 10
858.0
 20
573.0
 30
0.0
  9
$LIMMIN
 10
0.0
 20
0.0
  9
$LIMMAX
 10
891.0
 20
630.0
  9
$ORTHOMODE
 70
     1
  9
$REGENMODE
 70
     1
  9
$FILLMODE
 70
     1
  9
$QTEXTMODE
 70
     0
  9
$MIRRTEXT
 70
     1
  9
$DRAGMODE
 70
     2
  9
$LTSCALE
 40
12.0
  9
$OSMODE
 70
   163
  9
$ATTMODE
 70
     1
  9
$TEXTSIZE
 40
12.0
  9
$TRACEWID
 40
0.05
  9
$TEXTSTYLE
  7
STANDARD
  9
$CLAYER
  8
0
  9
$CELTYPE
  6
BYLAYER
  9
$CECOLOR
 62
   256
  9
$CELTSCALE
 40
1.0
  9
$DELOBJ
 70
     1
  9
$DISPSILH
 70
     0
  9
$DIMSCALE
 40
3.0
  9
$DIMASZ
 40
2.8
  9
$DIMEXO
 40
1.0
  9
$DIMDLI
 40
5.0
  9
$DIMRND
 40
0.1
  9
$DIMDLE
 40
0.0
  9
$DIMEXE
 40
1.0
  9
$DIMTP
 40
0.0
  9
$DIMTM
 40
0.0
  9
$DIMTXT
 40
2.5
  9
$DIMCEN
 40
0.0
  9
$DIMTSZ
 40
0.0
  9
$DIMTOL
 70
     0
  9
$DIMLIM
 70
     0
  9
$DIMTIH
 70
     0
  9
$DIMTOH
 70
     0
  9
$DIMSE1
 70
     0
  9
$DIMSE2
 70
     0
  9
$DIMTAD
 70
     3
  9
$DIMZIN
 70
     8
  9
$DIMBLK
  1

  9
$DIMASO
 70
     1
  9
$DIMSHO
 70
     1
  9
$DIMPOST
  1
 
  9
$DIMAPOST
  1

  9
$DIMALT
 70
     0
  9
$DIMALTD
 70
     2
  9
$DIMALTF
 40
1.0
  9
$DIMLFAC
 40
1.0
  9
$DIMTOFL
 70
     1
  9
$DIMTVP
 40
0.0
  9
$DIMTIX
 70
     0
  9
$DIMSOXD
 70
     0
  9
$DIMSAH
 70
     1
  9
$DIMBLK1
  1
_OPEN
  9
$DIMBLK2
  1
_OPEN
  9
$DIMSTYLE
  2
DIM1
  9
$DIMCLRD
 70
     2
  9
$DIMCLRE
 70
     2
  9
$DIMCLRT
 70
     2
  9
$DIMTFAC
 40
0.7
  9
$DIMGAP
 40
0.85
  9
$DIMJUST
 70
     0
  9
$DIMSD1
 70
     0
  9
$DIMSD2
 70
     0
  9
$DIMTOLJ
 70
     1
  9
$DIMTZIN
 70
     8
  9
$DIMALTZ
 70
     8
  9
$DIMALTTZ
 70
     8
  9
$DIMFIT
 70
     0
  9
$DIMUPT
 70
     0
  9
$DIMUNIT
 70
     2
  9
$DIMDEC
 70
     2
  9
$DIMTDEC
 70
     3
  9
$DIMALTU
 70
     2
  9
$DIMALTTD
 70
     3
  9
$DIMTXSTY
  7
DIM
  9
$DIMAUNIT
 70
     0
  9
$LUNITS
 70
     2
  9
$LUPREC
 70
     4
  9
$SKETCHINC
 40
0.1
  9
$FILLETRAD
 40
0.0
  9
$AUNITS
 70
     0
  9
$AUPREC
 70
     0
  9
$MENU
  1
C:\ACADR13\WIN\SUPPORT\ACAD.mnc
  9
$ELEVATION
 40
0.0
  9
$PELEVATION
 40
0.0
  9
$THICKNESS
 40
0.0
  9
$LIMCHECK
 70
     0
  9
$BLIPMODE
 70
     1
  9
$CHAMFERA
 40
0.0
  9
$CHAMFERB
 40
0.0
  9
$CHAMFERC
 40
0.0
  9
$CHAMFERD
 40
0.0
  9
$SKPOLY
 70
     0
  9
$TDCREATE
 40
2451564.587411898
  9
$TDUPDATE
 40
2451981.561695416
  9
$TDINDWG
 40
0.0672364120
  9
$TDUSRTIMER
 40
0.0672364120
  9
$USRTIMER
 70
     1
  9
$ANGBASE
 50
0.0
  9
$ANGDIR
 70
     0
  9
$PDMODE
 70
     0
  9
$PDSIZE
 40
0.0
  9
$PLINEWID
 40
0.0
  9
$COORDS
 70
     1
  9
$SPLFRAME
 70
     0
  9
$SPLINETYPE
 70
     6
  9
$SPLINESEGS
 70
     8
  9
$ATTDIA
 70
     0
  9
$ATTREQ
 70
     1
  9
$HANDLING
 70
     1
  9
$HANDSEED
  5
4817
  9
$SURFTAB1
 70
     6
  9
$SURFTAB2
 70
     6
  9
$SURFTYPE
 70
     6
  9
$SURFU
 70
     6
  9
$SURFV
 70
     6
  9
$UCSNAME
  2

  9
$UCSORG
 10
0.0
 20
0.0
 30
0.0
  9
$UCSXDIR
 10
1.0
 20
0.0
 30
0.0
  9
$UCSYDIR
 10
0.0
 20
1.0
 30
0.0
  9
$PUCSNAME
  2

  9
$PUCSORG
 10
0.0
 20
0.0
 30
0.0
  9
$PUCSXDIR
 10
1.0
 20
0.0
 30
0.0
  9
$PUCSYDIR
 10
0.0
 20
1.0
 30
0.0
  9
$USERI1
 70
     0
  9
$USERI2
 70
     0
  9
$USERI3
 70
     0
  9
$USERI4
 70
     0
  9
$USERI5
 70
     0
  9
$USERR1
 40
0.0
  9
$USERR2
 40
0.0
  9
$USERR3
 40
0.0
  9
$USERR4
 40
0.0
  9
$USERR5
 40
0.0
  9
$WORLDVIEW
 70
     1
  9
$SHADEDGE
 70
     3
  9
$SHADEDIF
 70
    70
  9
$TILEMODE
 70
     1
  9
$MAXACTVP
 70
    16
  9
$PINSBASE
 10
0.0
 20
0.0
 30
0.0
  9
$PLIMCHECK
 70
     0
  9
$PEXTMIN
 10
1.000000E+20
 20
1.000000E+20
 30
1.000000E+20
  9
$PEXTMAX
 10
-1.000000E+20
 20
-1.000000E+20
 30
-1.000000E+20
  9
$PLIMMIN
 10
0.0
 20
0.0
  9
$PLIMMAX
 10
20.0
 20
147.0
  9
$UNITMODE
 70
     0
  9
$VISRETAIN
 70
     0
  9
$PLINEGEN
 70
     0
  9
$PSLTSCALE
 70
     1
  9
$TREEDEPTH
 70
  3020
  9
$PICKSTYLE
 70
     1
  9
$CMLSTYLE
  2
STANDARD
  9
$CMLJUST
 70
     0
  9
$CMLSCALE
 40
1.0
  9
$SAVEIMAGES
 70
     1
  0
ENDSEC
  0
SECTION
  2
CLASSES
  0
CLASS
  1
LWPOLYLINE
  2
AcDbPolyline
  3
"AutoCAD"
 90
    32768
280
     0
281
     1
  0
ENDSEC
  0
SECTION
  2
TABLES
  0
TABLE
  2
VPORT
  5
8
100
AcDbSymbolTable
 70
     2
  0
VPORT
  5
4816
100
AcDbSymbolTableRecord
100
AcDbViewportTableRecord
  2
*ACTIVE
 70
     0
 10
0.0
 20
0.0
 11
1.0
 21
1.0
 12
569.873311
 22
323.412521
 13
0.0
 23
0.0
 14
1.0
 24
1.0
 15
0.0
 25
0.0
 16
0.0
 26
0.0
 36
1.0
 17
0.0
 27
0.0
 37
0.0
 40
646.825042
 41
1.762063
 42
50.0
 43
0.0
 44
0.0
 50
0.0
 51
0.0
 71
     0
 72
   100
 73
     1
 74
     1
 75
     0
 76
     0
 77
     0
 78
     0
  0
ENDTAB
  0
TABLE
  2
LTYPE
  5
5
100
AcDbSymbolTable
 70
     1
  0
LTYPE
  5
12
100
AcDbSymbolTableRecord
100
AcDbLinetypeTableRecord
  2
BYBLOCK
 70
     0
  3

 72
    65
 73
     0
 40
0.0
  0
LTYPE
  5
13
100
AcDbSymbolTableRecord
100
AcDbLinetypeTableRecord
  2
BYLAYER
 70
     0
  3

 72
    65
 73
     0
 40
0.0
  0
LTYPE
  5
14
100
AcDbSymbolTableRecord
100
AcDbLinetypeTableRecord
  2
CONTINUOUS
 70
     0
  3
Solid line
 72
    65
 73
     0
 40
0.0
  0
ENDTAB
  0
TABLE
  2
LAYER
  5
2
100
AcDbSymbolTable
 70
     1
  0
LAYER
  5
F
100
AcDbSymbolTableRecord
100
AcDbLayerTableRecord
  2
0
 70
     0
 62
     7
  6
CONTINUOUS
  0
ENDTAB
  0
TABLE
  2
STYLE
  5
3
100
AcDbSymbolTable
 70
     3
  0
STYLE
  5
10
100
AcDbSymbolTableRecord
100
AcDbTextStyleTableRecord
  2
STANDARD
 70
     0
 40
0.0
 41
0.8
 50
0.0
 71
     0
 42
12.0
  3
simplex
  4
extfont
  0
STYLE
  5
237C
100
AcDbSymbolTableRecord
100
AcDbTextStyleTableRecord
  2
PTSH
 70
     0
 40
0.0
 41
0.9
 50
0.0
 71
     0
 42
4.0
  3
SIMPLEX
  4
EXTFONT
  0
STYLE
  5
2592
100
AcDbSymbolTableRecord
100
AcDbTextStyleTableRecord
  2
DIM
 70
     0
 40
0.0
 41
0.8
 50
0.0
 71
     0
 42
4.0
  3
simplex
  4
extfont
  0
ENDTAB
  0
TABLE
  2
VIEW
  5
6
100
AcDbSymbolTable
 70
     0
  0
ENDTAB
  0
TABLE
  2
UCS
  5
7
100
AcDbSymbolTable
 70
     0
  0
ENDTAB
  0
TABLE
  2
APPID
  5
9
100
AcDbSymbolTable
 70
     1
  0
APPID
  5
11
100
AcDbSymbolTableRecord
100
AcDbRegAppTableRecord
  2
ACAD
 70
     0
  0
ENDTAB
  0
TABLE
  2
DIMSTYLE
  5
A
100
AcDbSymbolTable
 70
     1
  0
DIMSTYLE
105
2237
100
AcDbSymbolTableRecord
100
AcDbDimStyleTableRecord
  2
DIM1
 70
     0
  3
 
  4

  5

  6
_OPEN
  7
_OPEN
 40
3.0
 41
2.8
 42
1.0
 43
5.0
 44
1.0
 45
0.1
 46
0.0
 47
0.0
 48
0.0
140
2.5
141
0.0
142
0.0
143
1.0
144
1.0
145
0.0
146
0.7
147
0.85
 71
     0
 72
     0
 73
     0
 74
     0
 75
     0
 76
     0
 77
     3
 78
     8
170
     0
171
     2
172
     1
173
     1
174
     0
175
     0
176
     2
177
     2
178
     2
270
     2
271
     2
272
     3
273
     2
274
     3
340
2592
275
     0
280
     0
281
     0
282
     0
283
     1
284
     8
285
     8
286
     8
287
     0
288
     0
  0
ENDTAB
  0
TABLE
  2
BLOCK_RECORD
  5
1
100
AcDbSymbolTable
 70
     2
  0
BLOCK_RECORD
  5
18
100
AcDbSymbolTableRecord
100
AcDbBlockTableRecord
  2
*MODEL_SPACE
  0
BLOCK_RECORD
  5
15
100
AcDbSymbolTableRecord
100
AcDbBlockTableRecord
  2
*PAPER_SPACE
  0
BLOCK_RECORD
  5
2448
100
AcDbSymbolTableRecord
100
AcDbBlockTableRecord
  2
_OPEN
  0
BLOCK_RECORD
  5
463B
100
AcDbSymbolTableRecord
100
AcDbBlockTableRecord
  2
YA
  0
ENDTAB
  0
ENDSEC
  0
SECTION
  2
BLOCKS
  0
BLOCK
  5
3C
100
AcDbEntity
  8
0
100
AcDbBlockBegin
  2
*MODEL_SPACE
 70
     0
 10
0.0
 20
0.0
 30
0.0
  3
*MODEL_SPACE
  1

  0
ENDBLK
  5
3D
100
AcDbEntity
  8
0
100
AcDbBlockEnd
  0
BLOCK
  5
3A
100
AcDbEntity
 67
     1
  8
0
100
AcDbBlockBegin
  2
*PAPER_SPACE
 70
     0
 10
0.0
 20
0.0
 30
0.0
  3
*PAPER_SPACE
  1

  0
ENDBLK
  5
3B
100
AcDbEntity
 67
     1
  8
0
100
AcDbBlockEnd
  0
BLOCK
  5
2449
100
AcDbEntity
  8
0
 48
4.0
100
AcDbBlockBegin
  2
_OPEN
 70
     0
 10
0.0
 20
0.0
 30
0.0
  3
_OPEN
  1
H1111.DWG
  0
LINE
  5
244A
100
AcDbEntity
  8
0
  6
BYBLOCK
 62
     0
 48
4.0
100
AcDbLine
 10
-1.0
 20
0.166667
 30
0.0
 11
0.0
 21
0.0
 31
0.0
  0
LINE
  5
244B
100
AcDbEntity
  8
0
  6
BYBLOCK
 62
     0
 48
4.0
100
AcDbLine
 10
0.0
 20
0.0
 30
0.0
 11
-1.0
 21
-0.166667
 31
0.0
  0
LINE
  5
244C
100
AcDbEntity
  8
0
  6
BYBLOCK
 62
     0
 48
4.0
100
AcDbLine
 10
0.0
 20
0.0
 30
0.0
 11
-1.0
 21
0.0
 31
0.0
  0
ENDBLK
  5
244D
100
AcDbEntity
  8
0
 48
4.0
100
AcDbBlockEnd
  0
BLOCK
  5
4643
100
AcDbEntity
  8
0
100
AcDbBlockBegin
  2
YA
 70
     0
 10
0.0
 20
0.0
 30
0.0
  3
YA
  1

  0
LINE
  5
463C
100
AcDbEntity
  8
0
100
AcDbLine
 10
-16.8065
 20
2.801
 30
0.0
 11
-8.4035
 21
2.801
 31
0.0
  0
LINE
  5
463D
100
AcDbEntity
  8
0
100
AcDbLine
 10
-8.4035
 20
2.801
 30
0.0
 11
-7.0025
 21
1.4005
 31
0.0
  0
LINE
  5
463E
100
AcDbEntity
  8
0
100
AcDbLine
 10
-7.0025
 20
1.4005
 30
0.0
 11
-2.862
 21
1.4005
 31
0.0
  0
LINE
  5
463F
100
AcDbEntity
  8
0
100
AcDbLine
 10
-2.862
 20
1.4005
 30
0.0
 11
-2.862
 21
2.801
 31
0.0
  0
LINE
  5
4640
100
AcDbEntity
  8
0
100
AcDbLine
 10
-2.862
 20
2.801
 30
0.0
 11
0.0
 21
0.0
 31
0.0
  0
LINE
  5
4641
100
AcDbEntity
  8
0
100
AcDbLine
 10
0.0
 20
0.0
 30
0.0
 11
-14.0055
 21
0.0
 31
0.0
  0
LINE
  5
4642
100
AcDbEntity
  8
0
100
AcDbLine
 10
-14.0055
 20
0.0
 30
0.0
 11
-16.8065
 21
2.801
 31
0.0
  0
ENDBLK
  5
4644
100
AcDbEntity
  8
0
100
AcDbBlockEnd
  0
ENDSEC
  0
SECTION
  2
ENTITIES
  0
MTEXT
  5
ADA
100
AcDbEntity
  8
0
100
AcDbMText
 10
1140.417839
 20
149.538933
 30
0.0
 40
0.6
 41
141.679395
 71
     1
 72
     1
  1

  0
MTEXT
  5
ADB
100
AcDbEntity
  8
0
100
AcDbMText
 10
1167.1498
 20
173.552381
 30
0.0
 40
0.6
 41
136.333003
 71
     1
 72
     1
  1

  0
MTEXT
  5
ADC
100
AcDbEntity
  8
0
100
AcDbMText
 10
1151.110623
 20
-143.958739
 30
0.0
 40
0.6
 41
155.045375
 71
     1
 72
     1
  1

  0
TEXT
  5
2529
100
AcDbEntity
  8
0
  6
CONTINUOUS
100
AcDbText
 10
815.228571
 20
21.0
 30
0.0
 40
9.0
  1
JA3D
 41
0.9
  7
PTSH
 72
     2
 11
843.0
 21
25.5
 31
0.0
100
AcDbText
 73
     2
  0
POLYLINE
  5
2563
100
AcDbEntity
  8
0
100
AcDb2dPolyline
 66
     1
 10
0.0
 20
0.0
 30
0.0
 70
     1
  0
VERTEX
  5
47A9
100
AcDbEntity
  8
0
100
AcDbVertex
100
AcDb2dVertex
 10
33.0
 20
15.0
 30
0.0
  0
VERTEX
  5
47AA
100
AcDbEntity
  8
0
100
AcDbVertex
100
AcDb2dVertex
 10
858.0
 20
15.0
 30
0.0
  0
VERTEX
  5
47AB
100
AcDbEntity
  8
0
100
AcDbVertex
100
AcDb2dVertex
 10
858.0
 20
573.0
 30
0.0
  0
VERTEX
  5
47AC
100
AcDbEntity
  8
0
100
AcDbVertex
100
AcDb2dVertex
 10
33.0
 20
573.0
 30
0.0
  0
SEQEND
  5
47AD
100
AcDbEntity
  8
0
  0
TEXT
  5
28A0
100
AcDbEntity
  8
0
100
AcDbText
 10
387.55
 20
54.75
 30
0.0
 40
10.5
  1
TLV  JA3D (PT)
 72
     1
 11
445.5
 21
60.0
 31
0.0
100
AcDbText
 73
     2
  0
TEXT
  5
432E
100
AcDbEntity
  8
0
100
AcDbText
 10
141.857366
 20
203.907774
 30
0.0
 40
10.5
  1
正面
100
AcDbText
  0
TEXT
  5
432F
100
AcDbEntity
  8
0
100
AcDbText
 10
438.442026
 20
91.494614
 30
0.0
 40
7.5
  1
15A
100
AcDbText
  0
LINE
  5
4330
100
AcDbEntity
  8
0
100
AcDbLine
 10
490.571539
 20
153.687595
 30
0.0
 11
504.09435
 21
150.063779
 31
0.0
  0
LINE
  5
4331
100
AcDbEntity
  8
0
100
AcDbLine
 10
499.4355
 20
132.676739
 30
0.0
 11
485.913677
 21
136.30029
 31
0.0
  0
ARC
  5
4333
100
AcDbEntity
  8
0
100
AcDbCircle
 10
268.80918
 20
191.94712
 30
0.0
 40
2.0
100
AcDbArc
 50
269.996125
 51
359.996125
  0
ARC
  5
4334
100
AcDbEntity
  8
0
100
AcDbCircle
 10
300.809083
 20
191.946038
 30
0.0
 40
2.0
100
AcDbArc
 50
180.0
 51
270.0
  0
LINE
  5
4335
100
AcDbEntity
  8
0
100
AcDbLine
 10
245.809083
 20
189.946038
 30
0.0
 11
244.809083
 21
188.946038
 31
0.0
  0
LINE
  5
4336
100
AcDbEntity
  8
0
100
AcDbLine
 10
324.809083
 20
188.946038
 30
0.0
 11
323.809083
 21
189.946038
 31
0.0
  0
LINE
  5
4337
100
AcDbEntity
  8
0
100
AcDbLine
 10
302.745083
 20
186.946038
 30
0.0
 11
296.214083
 21
186.946038
 31
0.0
  0
ARC
  5
4338
100
AcDbEntity
  8
0
100
AcDbCircle
 10
284.809083
 20
156.446038
 30
0.0
 40
30.0
100
AcDbArc
 50
286.334823
 51
0.0
  0
LINE
  5
4339
100
AcDbEntity
  8
0
100
AcDbLine
 10
322.809064
 20
173.946038
 30
0.0
 11
246.809083
 21
173.946038
 31
0.0
  0
ARC
  5
433A
100
AcDbEntity
  8
0
100
AcDbCircle
 10
284.809083
 20
156.446038
 30
0.0
 40
30.0
100
AcDbArc
 50
180.0
 51
253.665177
  0
LINE
  5
433B
100
AcDbEntity
  8
0
100
AcDbLine
 10
277.809083
 20
124.946038
 30
0.0
 11
291.809083
 21
124.946038
 31
0.0
  0
LINE
  5
433C
100
AcDbEntity
  8
0
100
AcDbLine
 10
290.995046
 20
127.274134
 30
0.0
 11
278.62312
 21
127.274134
 31
0.0
  0
LINE
  5
433D
100
AcDbEntity
  8
0
100
AcDbLine
 10
276.371083
 20
127.657038
 30
0.0
 11
276.371083
 21
127.657038
 31
0.0
  0
LINE
  5
433E
100
AcDbEntity
  8
0
100
AcDbLine
 10
277.809083
 20
125.737733
 30
0.0
 11
277.809083
 21
124.946038
 31
0.0
  0
ARC
  5
433F
100
AcDbEntity
  8
0
100
AcDbCircle
 10
275.809083
 20
125.737733
 30
0.0
 40
2.0
100
AcDbArc
 50
0.0
 51
73.665177
  0
ARC
  5
4340
100
AcDbEntity
  8
0
100
AcDbCircle
 10
293.809083
 20
125.737733
 30
0.0
 40
2.0
100
AcDbArc
 50
106.334823
 51
180.0
  0
LINE
  5
4341
100
AcDbEntity
  8
0
100
AcDbLine
 10
293.246083
 20
127.657038
 30
0.0
 11
293.246083
 21
127.657038
 31
0.0
  0
LINE
  5
4342
100
AcDbEntity
  8
0
100
AcDbLine
 10
291.809083
 20
124.946038
 30
0.0
 11
291.809083
 21
125.737733
 31
0.0
  0
POLYLINE
  5
4343
100
AcDbEntity
  8
0
  6
CONTINUOUS
100
AcDb3dPolyline
 66
     1
 10
0.0
 20
0.0
 30
0.0
 70
     8
  0
VERTEX
  5
4344
100
AcDbEntity
  8
0
  6
CONTINUOUS
100
AcDbVertex
100
AcDb3dPolylineVertex
 10
266.873083
 20
175.446324
 30
0.0
 70
    32
1001
ACAD
1000
R13OBJECT
1002
{
1005
0
1002
}
  0
VERTEX
  5
4345
100
AcDbEntity
  8
0
  6
CONTINUOUS
100
AcDbVertex
100
AcDb3dPolylineVertex
 10
266.698673
 20
174.695039
 30
0.0
 70
    32
1001
ACAD
1000
R13OBJECT
1002
{
1005
0
1002
}
  0
VERTEX
  5
4346
100
AcDbEntity
  8
0
  6
CONTINUOUS
100
AcDbVertex
100
AcDb3dPolylineVertex
 10
266.221846
 20
174.145704
 30
0.0
 70
    32
1001
ACAD
1000
R13OBJECT
1002
{
1005
0
1002
}
  0
VERTEX
  5
4347
100
AcDbEntity
  8
0
  6
CONTINUOUS
100
AcDbVertex
100
AcDb3dPolylineVertex
 10
265.570827
 20
173.946043
 30
0.0
 70
    32
1001
ACAD
1000
R13OBJECT
1002
{
1005
0
1002
}
  0
VERTEX
  5
4348
100
AcDbEntity
  8
0
  6
CONTINUOUS
100
AcDbVertex
100
AcDb3dPolylineVertex
 10
264.920681
 20
174.149746
 30
0.0
 70
    32
1001
ACAD
1000
R13OBJECT
1002
{
1005
0
1002
}
  0
VERTEX
  5
4349
100
AcDbEntity
  8
0
  6
CONTINUOUS
100
AcDbVertex
100
AcDb3dPolylineVertex
 10
264.446239
 20
174.702034
 30
0.0
 70
    32
1001
ACAD
1000
R13OBJECT
1002
{
1005
0
1002
}
  0
VERTEX
  5
434A
100
AcDbEntity
  8
0
  6
CONTINUOUS
100
AcDbVertex
100
AcDb3dPolylineVertex
 10
264.275083
 20
175.454393
 30
0.0
 70
    32
1001
ACAD
1000
R13OBJECT
1002
{
1005
0
1002
}
  0
SEQEND
  5
434B
100
AcDbEntity
  8
0
  6
CONTINUOUS
1001
ACAD
1000
R13OBJECT
1002
{
1005
0
1002
}
  0
LINE
  5
434C
100
AcDbEntity
  8
0
100
AcDbLine
 10
254.809083
 20
173.946038
 30
0.0
 11
254.809083
 21
156.446038
 31
0.0
  0
LINE
  5
434D
100
AcDbEntity
  8
0
100
AcDbLine
 10
250.742083
 20
186.946038
 30
0.0
 11
248.037083
 21
186.946038
 31
0.0
  0
LINE
  5
434E
100
AcDbEntity
  8
0
100
AcDbLine
 10
244.809083
 20
188.946038
 30
0.0
 11
244.809083
 21
175.946038
 31
0.0
  0
LINE
  5
434F
100
AcDbEntity
  8
0
100
AcDbLine
 10
246.338083
 20
186.946038
 30
0.0
 11
246.338083
 21
175.446038
 31
0.0
  0
LINE
  5
4350
100
AcDbEntity
  8
0
100
AcDbLine
 10
247.261083
 20
175.446038
 30
0.0
 11
247.261083
 21
186.946038
 31
0.0
  0
LINE
  5
4351
100
AcDbEntity
  8
0
100
AcDbLine
 10
248.037083
 20
186.946038
 30
0.0
 11
248.037083
 21
175.447038
 31
0.0
  0
ARC
  5
4352
100
AcDbEntity
  8
0
100
AcDbCircle
 10
246.808105
 20
175.94506
 30
0.0
 40
1.999023
100
AcDbArc
 50
179.971978
 51
270.028022
  0
POLYLINE
  5
4353
100
AcDbEntity
  8
0
  6
CONTINUOUS
100
AcDb3dPolyline
 66
     1
 10
0.0
 20
0.0
 30
0.0
 70
     8
  0
VERTEX
  5
4354
100
AcDbEntity
  8
0
  6
CONTINUOUS
100
AcDbVertex
100
AcDb3dPolylineVertex
 10
246.993083
 20
173.946038
 30
0.0
 70
    32
1001
ACAD
1000
R13OBJECT
1002
{
1005
0
1002
}
  0
VERTEX
  5
4355
100
AcDbEntity
  8
0
  6
CONTINUOUS
100
AcDbVertex
100
AcDb3dPolylineVertex
 10
246.665583
 20
174.147
 30
0.0
 70
    32
1001
ACAD
1000
R13OBJECT
1002
{
1005
0
1002
}
  0
VERTEX
  5
4356
100
AcDbEntity
  8
0
  6
CONTINUOUS
100
AcDbVertex
100
AcDb3dPolylineVertex
 10
246.425836
 20
174.696038
 30
0.0
 70
    32
1001
ACAD
1000
R13OBJECT
1002
{
1005
0
1002
}
  0
VERTEX
  5
4357
100
AcDbEntity
  8
0
  6
CONTINUOUS
100
AcDbVertex
100
AcDb3dPolylineVertex
 10
246.338083
 20
175.446038
 30
0.0
 70
    32
1001
ACAD
1000
R13OBJECT
1002
{
1005
0
1002
}
  0
SEQEND
  5
4358
100
AcDbEntity
  8
0
  6
CONTINUOUS
1001
ACAD
1000
R13OBJECT
1002
{
1005
0
1002
}
  0
POLYLINE
  5
4359
100
AcDbEntity
  8
0
  6
CONTINUOUS
100
AcDb3dPolyline
 66
     1
 10
0.0
 20
0.0
 30
0.0
 70
     8
  0
VERTEX
  5
435A
100
AcDbEntity
  8
0
  6
CONTINUOUS
100
AcDbVertex
100
AcDb3dPolylineVertex
 10
248.037083
 20
175.447038
 30
0.0
 70
    32
1001
ACAD
1000
R13OBJECT
1002
{
1005
0
1002
}
  0
VERTEX
  5
435B
100
AcDbEntity
  8
0
  6
CONTINUOUS
100
AcDbVertex
100
AcDb3dPolylineVertex
 10
247.962982
 20
174.564772
 30
0.0
 70
    32
1001
ACAD
1000
R13OBJECT
1002
{
1005
0
1002
}
  0
VERTEX
  5
435C
100
AcDbEntity
  8
0
  6
CONTINUOUS
100
AcDbVertex
100
AcDb3dPolylineVertex
 10
247.768982
 20
174.019502
 30
0.0
 70
    32
1001
ACAD
1000
R13OBJECT
1002
{
1005
0
1002
}
  0
VERTEX
  5
435D
100
AcDbEntity
  8
0
  6
CONTINUOUS
100
AcDbVertex
100
AcDb3dPolylineVertex
 10
247.529184
 20
174.019502
 30
0.0
 70
    32
1001
ACAD
1000
R13OBJECT
1002
{
1005
0
1002
}
  0
VERTEX
  5
435E
100
AcDbEntity
  8
0
  6
CONTINUOUS
100
AcDbVertex
100
AcDb3dPolylineVertex
 10
247.335184
 20
174.564772
 30
0.0
 70
    32
1001
ACAD
1000
R13OBJECT
1002
{
1005
0
1002
}
  0
VERTEX
  5
435F
100
AcDbEntity
  8
0
  6
CONTINUOUS
100
AcDbVertex
100
AcDb3dPolylineVertex
 10
247.261083
 20
175.447038
 30
0.0
 70
    32
1001
ACAD
1000
R13OBJECT
1002
{
1005
0
1002
}
  0
SEQEND
  5
4360
100
AcDbEntity
  8
0
  6
CONTINUOUS
1001
ACAD
1000
R13OBJECT
1002
{
1005
0
1002
}
  0
LINE
  5
4361
100
AcDbEntity
  8
0
100
AcDbLine
 10
246.338083
 20
186.946038
 30
0.0
 11
244.809083
 21
186.946038
 31
0.0
  0
LINE
  5
4362
100
AcDbEntity
  8
0
100
AcDbLine
 10
247.261083
 20
186.946038
 30
0.0
 11
246.338083
 21
186.946038
 31
0.0
  0
LINE
  5
4363
100
AcDbEntity
  8
0
100
AcDbLine
 10
256.545083
 20
186.946038
 30
0.0
 11
252.242083
 21
186.946038
 31
0.0
  0
LINE
  5
4364
100
AcDbEntity
  8
0
100
AcDbLine
 10
256.545083
 20
175.446038
 30
0.0
 11
256.545083
 21
186.946038
 31
0.0
  0
LINE
  5
4365
100
AcDbEntity
  8
0
100
AcDbLine
 10
258.666083
 20
186.946038
 30
0.0
 11
258.666083
 21
175.446038
 31
0.0
  0
POLYLINE
  5
4366
100
AcDbEntity
  8
0
  6
CONTINUOUS
100
AcDb3dPolyline
 66
     1
 10
0.0
 20
0.0
 30
0.0
 70
     8
  0
VERTEX
  5
4367
100
AcDbEntity
  8
0
  6
CONTINUOUS
100
AcDbVertex
100
AcDb3dPolylineVertex
 10
258.66412
 20
175.446038
 30
0.0
 70
    32
1001
ACAD
1000
R13OBJECT
1002
{
1005
0
1002
}
  0
VERTEX
  5
4368
100
AcDbEntity
  8
0
  6
CONTINUOUS
100
AcDbVertex
100
AcDb3dPolylineVertex
 10
258.461623
 20
174.56436
 30
0.0
 70
    32
1001
ACAD
1000
R13OBJECT
1002
{
1005
0
1002
}
  0
VERTEX
  5
4369
100
AcDbEntity
  8
0
  6
CONTINUOUS
100
AcDbVertex
100
AcDb3dPolylineVertex
 10
257.931773
 20
174.019453
 30
0.0
 70
    32
1001
ACAD
1000
R13OBJECT
1002
{
1005
0
1002
}
  0
VERTEX
  5
436A
100
AcDbEntity
  8
0
  6
CONTINUOUS
100
AcDbVertex
100
AcDb3dPolylineVertex
 10
257.276954
 20
174.019453
 30
0.0
 70
    32
1001
ACAD
1000
R13OBJECT
1002
{
1005
0
1002
}
  0
VERTEX
  5
436B
100
AcDbEntity
  8
0
  6
CONTINUOUS
100
AcDbVertex
100
AcDb3dPolylineVertex
 10
256.747286
 20
174.56436
 30
0.0
 70
    32
1001
ACAD
1000
R13OBJECT
1002
{
1005
0
1002
}
  0
VERTEX
  5
436C
100
AcDbEntity
  8
0
  6
CONTINUOUS
100
AcDbVertex
100
AcDb3dPolylineVertex
 10
256.545083
 20
175.446038
 30
0.0
 70
    32
1001
ACAD
1000
R13OBJECT
1002
{
1005
0
1002
}
  0
SEQEND
  5
436D
100
AcDbEntity
  8
0
  6
CONTINUOUS
1001
ACAD
1000
R13OBJECT
1002
{
1005
0
1002
}
  0
LINE
  5
436E
100
AcDbEntity
  8
0
100
AcDbLine
 10
250.742083
 20
175.446038
 30
0.0
 11
250.742083
 21
186.946038
 31
0.0
  0
LINE
  5
436F
100
AcDbEntity
  8
0
100
AcDbLine
 10
252.242083
 20
186.946038
 30
0.0
 11
252.242083
 21
175.446038
 31
0.0
  0
POLYLINE
  5
4370
100
AcDbEntity
  8
0
  6
CONTINUOUS
100
AcDb3dPolyline
 66
     1
 10
0.0
 20
0.0
 30
0.0
 70
     8
  0
VERTEX
  5
4371
100
AcDbEntity
  8
0
  6
CONTINUOUS
100
AcDbVertex
100
AcDb3dPolylineVertex
 10
252.24012
 20
175.446038
 30
0.0
 70
    32
1001
ACAD
1000
R13OBJECT
1002
{
1005
0
1002
}
  0
VERTEX
  5
4372
100
AcDbEntity
  8
0
  6
CONTINUOUS
100
AcDbVertex
100
AcDb3dPolylineVertex
 10
252.097071
 20
174.56436
 30
0.0
 70
    32
1001
ACAD
1000
R13OBJECT
1002
{
1005
0
1002
}
  0
VERTEX
  5
4373
100
AcDbEntity
  8
0
  6
CONTINUOUS
100
AcDbVertex
100
AcDb3dPolylineVertex
 10
251.722561
 20
174.019453
 30
0.0
 70
    32
1001
ACAD
1000
R13OBJECT
1002
{
1005
0
1002
}
  0
VERTEX
  5
4374
100
AcDbEntity
  8
0
  6
CONTINUOUS
100
AcDbVertex
100
AcDb3dPolylineVertex
 10
251.259642
 20
174.019453
 30
0.0
 70
    32
1001
ACAD
1000
R13OBJECT
1002
{
1005
0
1002
}
  0
VERTEX
  5
4375
100
AcDbEntity
  8
0
  6
CONTINUOUS
100
AcDbVertex
100
AcDb3dPolylineVertex
 10
250.885133
 20
174.56436
 30
0.0
 70
    32
1001
ACAD
1000
R13OBJECT
1002
{
1005
0
1002
}
  0
VERTEX
  5
4376
100
AcDbEntity
  8
0
  6
CONTINUOUS
100
AcDbVertex
100
AcDb3dPolylineVertex
 10
250.742083
 20
175.446038
 30
0.0
 70
    32
1001
ACAD
1000
R13OBJECT
1002
{
1005
0
1002
}
  0
SEQEND
  5
4377
100
AcDbEntity
  8
0
  6
CONTINUOUS
1001
ACAD
1000
R13OBJECT
1002
{
1005
0
1002
}
  0
LINE
  5
4378
100
AcDbEntity
  8
0
100
AcDbLine
 10
264.275083
 20
175.446038
 30
0.0
 11
264.275083
 21
186.946038
 31
0.0
  0
LINE
  5
4379
100
AcDbEntity
  8
0
100
AcDbLine
 10
264.275083
 20
186.946038
 30
0.0
 11
258.666083
 21
186.946038
 31
0.0
  0
LINE
  5
437A
100
AcDbEntity
  8
0
100
AcDbLine
 10
283.309083
 20
186.946038
 30
0.0
 11
276.300083
 21
186.946038
 31
0.0
  0
ARC
  5
437B
100
AcDbEntity
  8
0
100
AcDbCircle
 10
274.851583
 20
175.395422
 30
0.0
 40
1.449384
100
AcDbArc
 50
177.998686
 51
2.001314
  0
LINE
  5
437C
100
AcDbEntity
  8
0
100
AcDbLine
 10
276.300083
 20
186.946038
 30
0.0
 11
276.300083
 21
175.446038
 31
0.0
  0
LINE
  5
437D
100
AcDbEntity
  8
0
100
AcDbLine
 10
266.872083
 20
186.946038
 30
0.0
 11
266.872083
 21
175.446038
 31
0.0
  0
LINE
  5
437E
100
AcDbEntity
  8
0
100
AcDbLine
 10
273.403083
 20
175.446038
 30
0.0
 11
273.403083
 21
186.946038
 31
0.0
  0
LINE
  5
437F
100
AcDbEntity
  8
0
100
AcDbLine
 10
273.403083
 20
186.946038
 30
0.0
 11
266.872083
 21
186.946038
 31
0.0
  0
LINE
  5
4380
100
AcDbEntity
  8
0
100
AcDbLine
 10
293.317083
 20
186.946038
 30
0.0
 11
286.308083
 21
186.946038
 31
0.0
  0
LINE
  5
4381
100
AcDbEntity
  8
0
100
AcDbLine
 10
293.317083
 20
175.446038
 30
0.0
 11
293.317083
 21
186.946038
 31
0.0
  0
LINE
  5
4382
100
AcDbEntity
  8
0
100
AcDbLine
 10
283.309083
 20
175.417038
 30
0.0
 11
283.309083
 21
186.946038
 31
0.0
  0
LINE
  5
4383
100
AcDbEntity
  8
0
100
AcDbLine
 10
286.308083
 20
186.946038
 30
0.0
 11
286.308083
 21
175.418038
 31
0.0
  0
ARC
  5
4384
100
AcDbEntity
  8
0
100
AcDbCircle
 10
284.808574
 20
175.445847
 30
0.0
 40
1.499767
100
AcDbArc
 50
181.100675
 51
358.937535
  0
LINE
  5
4385
100
AcDbEntity
  8
0
100
AcDbLine
 10
296.214083
 20
186.946038
 30
0.0
 11
296.214083
 21
175.446038
 31
0.0
  0
ARC
  5
4386
100
AcDbEntity
  8
0
100
AcDbCircle
 10
294.766564
 20
175.395422
 30
0.0
 40
1.449384
100
AcDbArc
 50
177.998686
 51
2.001314
  0
LINE
  5
4387
100
AcDbEntity
  8
0
100
AcDbLine
 10
314.809083
 20
156.446038
 30
0.0
 11
314.809083
 21
173.946038
 31
0.0
  0
LINE
  5
4388
100
AcDbEntity
  8
0
100
AcDbLine
 10
317.375083
 20
186.946038
 30
0.0
 11
313.072083
 21
186.946038
 31
0.0
  0
LINE
  5
4389
100
AcDbEntity
  8
0
100
AcDbLine
 10
302.745083
 20
175.446038
 30
0.0
 11
302.745083
 21
186.946038
 31
0.0
  0
LINE
  5
438A
100
AcDbEntity
  8
0
100
AcDbLine
 10
305.343083
 20
186.946038
 30
0.0
 11
305.343083
 21
175.446038
 31
0.0
  0
POLYLINE
  5
438B
100
AcDbEntity
  8
0
  6
CONTINUOUS
100
AcDb3dPolyline
 66
     1
 10
0.0
 20
0.0
 30
0.0
 70
     8
  0
VERTEX
  5
438C
100
AcDbEntity
  8
0
  6
CONTINUOUS
100
AcDbVertex
100
AcDb3dPolylineVertex
 10
305.343083
 20
175.446324
 30
0.0
 70
    32
1001
ACAD
1000
R13OBJECT
1002
{
1005
0
1002
}
  0
VERTEX
  5
438D
100
AcDbEntity
  8
0
  6
CONTINUOUS
100
AcDbVertex
100
AcDb3dPolylineVertex
 10
305.168673
 20
174.695039
 30
0.0
 70
    32
1001
ACAD
1000
R13OBJECT
1002
{
1005
0
1002
}
  0
VERTEX
  5
438E
100
AcDbEntity
  8
0
  6
CONTINUOUS
100
AcDbVertex
100
AcDb3dPolylineVertex
 10
304.691846
 20
174.145704
 30
0.0
 70
    32
1001
ACAD
1000
R13OBJECT
1002
{
1005
0
1002
}
  0
VERTEX
  5
438F
100
AcDbEntity
  8
0
  6
CONTINUOUS
100
AcDbVertex
100
AcDb3dPolylineVertex
 10
304.040827
 20
173.946043
 30
0.0
 70
    32
1001
ACAD
1000
R13OBJECT
1002
{
1005
0
1002
}
  0
VERTEX
  5
4390
100
AcDbEntity
  8
0
  6
CONTINUOUS
100
AcDbVertex
100
AcDb3dPolylineVertex
 10
303.390681
 20
174.149746
 30
0.0
 70
    32
1001
ACAD
1000
R13OBJECT
1002
{
1005
0
1002
}
  0
VERTEX
  5
4391
100
AcDbEntity
  8
0
  6
CONTINUOUS
100
AcDbVertex
100
AcDb3dPolylineVertex
 10
302.916239
 20
174.702034
 30
0.0
 70
    32
1001
ACAD
1000
R13OBJECT
1002
{
1005
0
1002
}
  0
VERTEX
  5
4392
100
AcDbEntity
  8
0
  6
CONTINUOUS
100
AcDbVertex
100
AcDb3dPolylineVertex
 10
302.745083
 20
175.454393
 30
0.0
 70
    32
1001
ACAD
1000
R13OBJECT
1002
{
1005
0
1002
}
  0
SEQEND
  5
4393
100
AcDbEntity
  8
0
  6
CONTINUOUS
1001
ACAD
1000
R13OBJECT
1002
{
1005
0
1002
}
  0
LINE
  5
4394
100
AcDbEntity
  8
0
100
AcDbLine
 10
310.951083
 20
175.446038
 30
0.0
 11
310.951083
 21
186.946038
 31
0.0
  0
LINE
  5
4395
100
AcDbEntity
  8
0
100
AcDbLine
 10
313.072083
 20
186.946038
 30
0.0
 11
313.072083
 21
175.446038
 31
0.0
  0
POLYLINE
  5
4396
100
AcDbEntity
  8
0
  6
CONTINUOUS
100
AcDb3dPolyline
 66
     1
 10
0.0
 20
0.0
 30
0.0
 70
     8
  0
VERTEX
  5
4397
100
AcDbEntity
  8
0
  6
CONTINUOUS
100
AcDbVertex
100
AcDb3dPolylineVertex
 10
313.072083
 20
175.446038
 30
0.0
 70
    32
1001
ACAD
1000
R13OBJECT
1002
{
1005
0
1002
}
  0
VERTEX
  5
4398
100
AcDbEntity
  8
0
  6
CONTINUOUS
100
AcDbVertex
100
AcDb3dPolylineVertex
 10
312.869586
 20
174.56436
 30
0.0
 70
    32
1001
ACAD
1000
R13OBJECT
1002
{
1005
0
1002
}
  0
VERTEX
  5
4399
100
AcDbEntity
  8
0
  6
CONTINUOUS
100
AcDbVertex
100
AcDb3dPolylineVertex
 10
312.339735
 20
174.019453
 30
0.0
 70
    32
1001
ACAD
1000
R13OBJECT
1002
{
1005
0
1002
}
  0
VERTEX
  5
439A
100
AcDbEntity
  8
0
  6
CONTINUOUS
100
AcDbVertex
100
AcDb3dPolylineVertex
 10
311.684917
 20
174.019453
 30
0.0
 70
    32
1001
ACAD
1000
R13OBJECT
1002
{
1005
0
1002
}
  0
VERTEX
  5
439B
100
AcDbEntity
  8
0
  6
CONTINUOUS
100
AcDbVertex
100
AcDb3dPolylineVertex
 10
311.155248
 20
174.56436
 30
0.0
 70
    32
1001
ACAD
1000
R13OBJECT
1002
{
1005
0
1002
}
  0
VERTEX
  5
439C
100
AcDbEntity
  8
0
  6
CONTINUOUS
100
AcDbVertex
100
AcDb3dPolylineVertex
 10
310.953046
 20
175.446038
 30
0.0
 70
    32
1001
ACAD
1000
R13OBJECT
1002
{
1005
0
1002
}
  0
SEQEND
  5
439D
100
AcDbEntity
  8
0
  6
CONTINUOUS
1001
ACAD
1000
R13OBJECT
1002
{
1005
0
1002
}
  0
LINE
  5
439E
100
AcDbEntity
  8
0
100
AcDbLine
 10
310.951083
 20
186.946038
 30
0.0
 11
305.343083
 21
186.946038
 31
0.0
  0
LINE
  5
439F
100
AcDbEntity
  8
0
100
AcDbLine
 10
324.809083
 20
175.946038
 30
0.0
 11
324.809083
 21
188.946038
 31
0.0
  0
LINE
  5
43A0
100
AcDbEntity
  8
0
100
AcDbLine
 10
321.580083
 20
175.447038
 30
0.0
 11
321.580083
 21
186.946038
 31
0.0
  0
LINE
  5
43A1
100
AcDbEntity
  8
0
100
AcDbLine
 10
322.357083
 20
186.946038
 30
0.0
 11
322.357083
 21
175.446038
 31
0.0
  0
LINE
  5
43A2
100
AcDbEntity
  8
0
100
AcDbLine
 10
323.279083
 20
186.946038
 30
0.0
 11
323.279083
 21
175.446038
 31
0.0
  0
LINE
  5
43A3
100
AcDbEntity
  8
0
100
AcDbLine
 10
317.375083
 20
175.446038
 30
0.0
 11
317.375083
 21
186.946038
 31
0.0
  0
LINE
  5
43A4
100
AcDbEntity
  8
0
100
AcDbLine
 10
318.875083
 20
186.946038
 30
0.0
 11
318.875083
 21
175.446038
 31
0.0
  0
ARC
  5
43A5
100
AcDbEntity
  8
0
100
AcDbCircle
 10
322.810042
 20
175.94506
 30
0.0
 40
1.999023
100
AcDbArc
 50
269.971978
 51
0.028022
  0
POLYLINE
  5
43A6
100
AcDbEntity
  8
0
  6
CONTINUOUS
100
AcDb3dPolyline
 66
     1
 10
0.0
 20
0.0
 30
0.0
 70
     8
  0
VERTEX
  5
43A7
100
AcDbEntity
  8
0
  6
CONTINUOUS
100
AcDbVertex
100
AcDb3dPolylineVertex
 10
322.357083
 20
175.447038
 30
0.0
 70
    32
1001
ACAD
1000
R13OBJECT
1002
{
1005
0
1002
}
  0
VERTEX
  5
43A8
100
AcDbEntity
  8
0
  6
CONTINUOUS
100
AcDbVertex
100
AcDb3dPolylineVertex
 10
322.282982
 20
174.564772
 30
0.0
 70
    32
1001
ACAD
1000
R13OBJECT
1002
{
1005
0
1002
}
  0
VERTEX
  5
43A9
100
AcDbEntity
  8
0
  6
CONTINUOUS
100
AcDbVertex
100
AcDb3dPolylineVertex
 10
322.088982
 20
174.019502
 30
0.0
 70
    32
1001
ACAD
1000
R13OBJECT
1002
{
1005
0
1002
}
  0
VERTEX
  5
43AA
100
AcDbEntity
  8
0
  6
CONTINUOUS
100
AcDbVertex
100
AcDb3dPolylineVertex
 10
321.849184
 20
174.019502
 30
0.0
 70
    32
1001
ACAD
1000
R13OBJECT
1002
{
1005
0
1002
}
  0
VERTEX
  5
43AB
100
AcDbEntity
  8
0
  6
CONTINUOUS
100
AcDbVertex
100
AcDb3dPolylineVertex
 10
321.655184
 20
174.564772
 30
0.0
 70
    32
1001
ACAD
1000
R13OBJECT
1002
{
1005
0
1002
}
  0
VERTEX
  5
43AC
100
AcDbEntity
  8
0
  6
CONTINUOUS
100
AcDbVertex
100
AcDb3dPolylineVertex
 10
321.581083
 20
175.447038
 30
0.0
 70
    32
1001
ACAD
1000
R13OBJECT
1002
{
1005
0
1002
}
  0
SEQEND
  5
43AD
100
AcDbEntity
  8
0
  6
CONTINUOUS
1001
ACAD
1000
R13OBJECT
1002
{
1005
0
1002
}
  0
POLYLINE
  5
43AE
100
AcDbEntity
  8
0
  6
CONTINUOUS
100
AcDb3dPolyline
 66
     1
 10
0.0
 20
0.0
 30
0.0
 70
     8
  0
VERTEX
  5
43AF
100
AcDbEntity
  8
0
  6
CONTINUOUS
100
AcDbVertex
100
AcDb3dPolylineVertex
 10
322.625064
 20
173.946038
 30
0.0
 70
    32
1001
ACAD
1000
R13OBJECT
1002
{
1005
0
1002
}
  0
VERTEX
  5
43B0
100
AcDbEntity
  8
0
  6
CONTINUOUS
100
AcDbVertex
100
AcDb3dPolylineVertex
 10
322.952564
 20
174.147
 30
0.0
 70
    32
1001
ACAD
1000
R13OBJECT
1002
{
1005
0
1002
}
  0
VERTEX
  5
43B1
100
AcDbEntity
  8
0
  6
CONTINUOUS
100
AcDbVertex
100
AcDb3dPolylineVertex
 10
323.192311
 20
174.696038
 30
0.0
 70
    32
1001
ACAD
1000
R13OBJECT
1002
{
1005
0
1002
}
  0
VERTEX
  5
43B2
100
AcDbEntity
  8
0
  6
CONTINUOUS
100
AcDbVertex
100
AcDb3dPolylineVertex
 10
323.280064
 20
175.446038
 30
0.0
 70
    32
1001
ACAD
1000
R13OBJECT
1002
{
1005
0
1002
}
  0
SEQEND
  5
43B3
100
AcDbEntity
  8
0
  6
CONTINUOUS
1001
ACAD
1000
R13OBJECT
1002
{
1005
0
1002
}
  0
POLYLINE
  5
43B4
100
AcDbEntity
  8
0
  6
CONTINUOUS
100
AcDb3dPolyline
 66
     1
 10
0.0
 20
0.0
 30
0.0
 70
     8
  0
VERTEX
  5
43B5
100
AcDbEntity
  8
0
  6
CONTINUOUS
100
AcDbVertex
100
AcDb3dPolylineVertex
 10
318.875083
 20
175.446038
 30
0.0
 70
    32
1001
ACAD
1000
R13OBJECT
1002
{
1005
0
1002
}
  0
VERTEX
  5
43B6
100
AcDbEntity
  8
0
  6
CONTINUOUS
100
AcDbVertex
100
AcDb3dPolylineVertex
 10
318.732033
 20
174.56436
 30
0.0
 70
    32
1001
ACAD
1000
R13OBJECT
1002
{
1005
0
1002
}
  0
VERTEX
  5
43B7
100
AcDbEntity
  8
0
  6
CONTINUOUS
100
AcDbVertex
100
AcDb3dPolylineVertex
 10
318.357524
 20
174.019453
 30
0.0
 70
    32
1001
ACAD
1000
R13OBJECT
1002
{
1005
0
1002
}
  0
VERTEX
  5
43B8
100
AcDbEntity
  8
0
  6
CONTINUOUS
100
AcDbVertex
100
AcDb3dPolylineVertex
 10
317.894605
 20
174.019453
 30
0.0
 70
    32
1001
ACAD
1000
R13OBJECT
1002
{
1005
0
1002
}
  0
VERTEX
  5
43B9
100
AcDbEntity
  8
0
  6
CONTINUOUS
100
AcDbVertex
100
AcDb3dPolylineVertex
 10
317.520095
 20
174.56436
 30
0.0
 70
    32
1001
ACAD
1000
R13OBJECT
1002
{
1005
0
1002
}
  0
VERTEX
  5
43BA
100
AcDbEntity
  8
0
  6
CONTINUOUS
100
AcDbVertex
100
AcDb3dPolylineVertex
 10
317.377046
 20
175.446038
 30
0.0
 70
    32
1001
ACAD
1000
R13OBJECT
1002
{
1005
0
1002
}
  0
SEQEND
  5
43BB
100
AcDbEntity
  8
0
  6
CONTINUOUS
1001
ACAD
1000
R13OBJECT
1002
{
1005
0
1002
}
  0
LINE
  5
43BC
100
AcDbEntity
  8
0
100
AcDbLine
 10
321.580083
 20
186.946038
 30
0.0
 11
318.875083
 21
186.946038
 31
0.0
  0
LINE
  5
43BD
100
AcDbEntity
  8
0
100
AcDbLine
 10
323.279083
 20
186.946038
 30
0.0
 11
322.357083
 21
186.946038
 31
0.0
  0
LINE
  5
43BE
100
AcDbEntity
  8
0
100
AcDbLine
 10
324.809083
 20
186.946038
 30
0.0
 11
323.279083
 21
186.946038
 31
0.0
  0
LINE
  5
43BF
100
AcDbEntity
  8
0
100
AcDbLine
 10
298.809083
 20
190.511837
 30
0.0
 11
270.809083
 21
190.511837
 31
0.0
  0
ARC
  5
43C0
100
AcDbEntity
  8
0
100
AcDbCircle
 10
284.809083
 20
204.946038
 30
0.0
 40
14.0
100
AcDbArc
 50
0.0
 51
180.0
  0
LINE
  5
43C1
100
AcDbEntity
  8
0
100
AcDbLine
 10
298.809083
 20
228.946038
 30
0.0
 11
270.809083
 21
228.946038
 31
0.0
  0
LINE
  5
43C2
100
AcDbEntity
  8
0
100
AcDbLine
 10
323.809083
 20
189.946038
 30
0.0
 11
245.809083
 21
189.946038
 31
0.0
  0
LINE
  5
43C3
100
AcDbEntity
  8
0
100
AcDbLine
 10
270.809083
 20
228.946038
 30
0.0
 11
270.809083
 21
191.92742
 31
0.0
  0
ARC
  5
43C4
100
AcDbEntity
  8
0
100
AcDbCircle
 10
284.809583
 20
137.445838
 30
0.0
 40
60.000236
100
AcDbArc
 50
103.493836
 51
118.955036
  0
CIRCLE
  5
43C5
100
AcDbEntity
  8
0
100
AcDbCircle
 10
284.809083
 20
204.946038
 30
0.0
 40
9.315755
  0
LINE
  5
43C6
100
AcDbEntity
  8
0
100
AcDbLine
 10
298.809083
 20
191.946038
 30
0.0
 11
298.809083
 21
228.946038
 31
0.0
  0
LINE
  5
43C7
100
AcDbEntity
  8
0
100
AcDbLine
 10
301.809083
 20
211.946038
 30
0.0
 11
301.809083
 21
198.946038
 31
0.0
  0
LINE
  5
43C8
100
AcDbEntity
  8
0
100
AcDbLine
 10
301.809083
 20
198.946038
 30
0.0
 11
300.809083
 21
198.946038
 31
0.0
  0
ARC
  5
43C9
100
AcDbEntity
  8
0
100
AcDbCircle
 10
300.809083
 20
196.946038
 30
0.0
 40
2.0
100
AcDbArc
 50
90.0
 51
180.0
  0
LINE
  5
43CA
100
AcDbEntity
  8
0
100
AcDbLine
 10
300.809083
 20
198.946038
 30
0.0
 11
301.809083
 21
198.946038
 31
0.0
  0
ARC
  5
43CB
100
AcDbEntity
  8
0
100
AcDbCircle
 10
284.808583
 20
137.445838
 30
0.0
 40
60.000236
100
AcDbArc
 50
61.044964
 51
76.506164
  0
LINE
  5
43CC
100
AcDbEntity
  8
0
100
AcDbLine
 10
300.809083
 20
211.946038
 30
0.0
 11
301.809083
 21
211.946038
 31
0.0
  0
ARC
  5
43CD
100
AcDbEntity
  8
0
100
AcDbCircle
 10
300.809083
 20
213.946038
 30
0.0
 40
2.0
100
AcDbArc
 50
180.0
 51
270.0
  0
LINE
  5
43CE
100
AcDbEntity
  8
0
100
AcDbLine
 10
484.5
 20
189.946038
 30
0.0
 11
485.5
 21
188.946038
 31
0.0
  0
LINE
  5
43CF
100
AcDbEntity
  8
0
100
AcDbLine
 10
405.5
 20
188.946038
 30
0.0
 11
406.5
 21
189.946038
 31
0.0
  0
ARC
  5
43D0
100
AcDbEntity
  8
0
100
AcDbCircle
 10
445.5
 20
156.446038
 30
0.0
 40
30.0
100
AcDbArc
 50
180.0
 51
253.665177
  0
LINE
  5
43D1
100
AcDbEntity
  8
0
100
AcDbLine
 10
427.564
 20
186.946038
 30
0.0
 11
434.095
 21
186.946038
 31
0.0
  0
LINE
  5
43D2
100
AcDbEntity
  8
0
100
AcDbLine
 10
407.500019
 20
173.946038
 30
0.0
 11
483.5
 21
173.946038
 31
0.0
  0
LINE
  5
43D3
100
AcDbEntity
  8
0
100
AcDbLine
 10
415.5
 20
156.446038
 30
0.0
 11
415.5
 21
173.946038
 31
0.0
  0
LINE
  5
43D4
100
AcDbEntity
  8
0
100
AcDbLine
 10
412.934
 20
186.946038
 30
0.0
 11
417.237
 21
186.946038
 31
0.0
  0
LINE
  5
43D5
100
AcDbEntity
  8
0
100
AcDbLine
 10
408.729
 20
186.946038
 30
0.0
 11
411.434
 21
186.946038
 31
0.0
  0
LINE
  5
43D6
100
AcDbEntity
  8
0
100
AcDbLine
 10
407.03
 20
186.946038
 30
0.0
 11
407.952
 21
186.946038
 31
0.0
  0
LINE
  5
43D7
100
AcDbEntity
  8
0
100
AcDbLine
 10
405.5
 20
186.946038
 30
0.0
 11
407.03
 21
186.946038
 31
0.0
  0
ARC
  5
43D8
100
AcDbEntity
  8
0
100
AcDbCircle
 10
407.499041
 20
175.94506
 30
0.0
 40
1.999023
100
AcDbArc
 50
179.971978
 51
270.028022
  0
POLYLINE
  5
43D9
100
AcDbEntity
  8
0
  6
CONTINUOUS
100
AcDb3dPolyline
 66
     1
 10
0.0
 20
0.0
 30
0.0
 70
     8
  0
VERTEX
  5
43DA
100
AcDbEntity
  8
0
  6
CONTINUOUS
100
AcDbVertex
100
AcDb3dPolylineVertex
 10
407.952
 20
175.447038
 30
0.0
 70
    32
1001
ACAD
1000
R13OBJECT
1002
{
1005
0
1002
}
  0
VERTEX
  5
43DB
100
AcDbEntity
  8
0
  6
CONTINUOUS
100
AcDbVertex
100
AcDb3dPolylineVertex
 10
408.026101
 20
174.564772
 30
0.0
 70
    32
1001
ACAD
1000
R13OBJECT
1002
{
1005
0
1002
}
  0
VERTEX
  5
43DC
100
AcDbEntity
  8
0
  6
CONTINUOUS
100
AcDbVertex
100
AcDb3dPolylineVertex
 10
408.220101
 20
174.019502
 30
0.0
 70
    32
1001
ACAD
1000
R13OBJECT
1002
{
1005
0
1002
}
  0
VERTEX
  5
43DD
100
AcDbEntity
  8
0
  6
CONTINUOUS
100
AcDbVertex
100
AcDb3dPolylineVertex
 10
408.459899
 20
174.019502
 30
0.0
 70
    32
1001
ACAD
1000
R13OBJECT
1002
{
1005
0
1002
}
  0
VERTEX
  5
43DE
100
AcDbEntity
  8
0
  6
CONTINUOUS
100
AcDbVertex
100
AcDb3dPolylineVertex
 10
408.653899
 20
174.564772
 30
0.0
 70
    32
1001
ACAD
1000
R13OBJECT
1002
{
1005
0
1002
}
  0
VERTEX
  5
43DF
100
AcDbEntity
  8
0
  6
CONTINUOUS
100
AcDbVertex
100
AcDb3dPolylineVertex
 10
408.728
 20
175.447038
 30
0.0
 70
    32
1001
ACAD
1000
R13OBJECT
1002
{
1005
0
1002
}
  0
SEQEND
  5
43E0
100
AcDbEntity
  8
0
  6
CONTINUOUS
1001
ACAD
1000
R13OBJECT
1002
{
1005
0
1002
}
  0
POLYLINE
  5
43E1
100
AcDbEntity
  8
0
  6
CONTINUOUS
100
AcDb3dPolyline
 66
     1
 10
0.0
 20
0.0
 30
0.0
 70
     8
  0
VERTEX
  5
43E2
100
AcDbEntity
  8
0
  6
CONTINUOUS
100
AcDbVertex
100
AcDb3dPolylineVertex
 10
407.684019
 20
173.946038
 30
0.0
 70
    32
1001
ACAD
1000
R13OBJECT
1002
{
1005
0
1002
}
  0
VERTEX
  5
43E3
100
AcDbEntity
  8
0
  6
CONTINUOUS
100
AcDbVertex
100
AcDb3dPolylineVertex
 10
407.356519
 20
174.147
 30
0.0
 70
    32
1001
ACAD
1000
R13OBJECT
1002
{
1005
0
1002
}
  0
VERTEX
  5
43E4
100
AcDbEntity
  8
0
  6
CONTINUOUS
100
AcDbVertex
100
AcDb3dPolylineVertex
 10
407.116772
 20
174.696038
 30
0.0
 70
    32
1001
ACAD
1000
R13OBJECT
1002
{
1005
0
1002
}
  0
VERTEX
  5
43E5
100
AcDbEntity
  8
0
  6
CONTINUOUS
100
AcDbVertex
100
AcDb3dPolylineVertex
 10
407.029019
 20
175.446038
 30
0.0
 70
    32
1001
ACAD
1000
R13OBJECT
1002
{
1005
0
1002
}
  0
SEQEND
  5
43E6
100
AcDbEntity
  8
0
  6
CONTINUOUS
1001
ACAD
1000
R13OBJECT
1002
{
1005
0
1002
}
  0
POLYLINE
  5
43E7
100
AcDbEntity
  8
0
  6
CONTINUOUS
100
AcDb3dPolyline
 66
     1
 10
0.0
 20
0.0
 30
0.0
 70
     8
  0
VERTEX
  5
43E8
100
AcDbEntity
  8
0
  6
CONTINUOUS
100
AcDbVertex
100
AcDb3dPolylineVertex
 10
411.434
 20
175.446038
 30
0.0
 70
    32
1001
ACAD
1000
R13OBJECT
1002
{
1005
0
1002
}
  0
VERTEX
  5
43E9
100
AcDbEntity
  8
0
  6
CONTINUOUS
100
AcDbVertex
100
AcDb3dPolylineVertex
 10
411.57705
 20
174.56436
 30
0.0
 70
    32
1001
ACAD
1000
R13OBJECT
1002
{
1005
0
1002
}
  0
VERTEX
  5
43EA
100
AcDbEntity
  8
0
  6
CONTINUOUS
100
AcDbVertex
100
AcDb3dPolylineVertex
 10
411.951559
 20
174.019453
 30
0.0
 70
    32
1001
ACAD
1000
R13OBJECT
1002
{
1005
0
1002
}
  0
VERTEX
  5
43EB
100
AcDbEntity
  8
0
  6
CONTINUOUS
100
AcDbVertex
100
AcDb3dPolylineVertex
 10
412.414478
 20
174.019453
 30
0.0
 70
    32
1001
ACAD
1000
R13OBJECT
1002
{
1005
0
1002
}
  0
VERTEX
  5
43EC
100
AcDbEntity
  8
0
  6
CONTINUOUS
100
AcDbVertex
100
AcDb3dPolylineVertex
 10
412.788988
 20
174.56436
 30
0.0
 70
    32
1001
ACAD
1000
R13OBJECT
1002
{
1005
0
1002
}
  0
VERTEX
  5
43ED
100
AcDbEntity
  8
0
  6
CONTINUOUS
100
AcDbVertex
100
AcDb3dPolylineVertex
 10
412.932037
 20
175.446038
 30
0.0
 70
    32
1001
ACAD
1000
R13OBJECT
1002
{
1005
0
1002
}
  0
SEQEND
  5
43EE
100
AcDbEntity
  8
0
  6
CONTINUOUS
1001
ACAD
1000
R13OBJECT
1002
{
1005
0
1002
}
  0
LINE
  5
43EF
100
AcDbEntity
  8
0
100
AcDbLine
 10
405.5
 20
175.946038
 30
0.0
 11
405.5
 21
188.946038
 31
0.0
  0
LINE
  5
43F0
100
AcDbEntity
  8
0
100
AcDbLine
 10
408.729
 20
175.447038
 30
0.0
 11
408.729
 21
186.946038
 31
0.0
  0
LINE
  5
43F1
100
AcDbEntity
  8
0
100
AcDbLine
 10
407.952
 20
186.946038
 30
0.0
 11
407.952
 21
175.446038
 31
0.0
  0
LINE
  5
43F2
100
AcDbEntity
  8
0
100
AcDbLine
 10
407.03
 20
186.946038
 30
0.0
 11
407.03
 21
175.446038
 31
0.0
  0
LINE
  5
43F3
100
AcDbEntity
  8
0
100
AcDbLine
 10
412.934
 20
175.446038
 30
0.0
 11
412.934
 21
186.946038
 31
0.0
  0
LINE
  5
43F4
100
AcDbEntity
  8
0
100
AcDbLine
 10
411.434
 20
186.946038
 30
0.0
 11
411.434
 21
175.446038
 31
0.0
  0
LINE
  5
43F5
100
AcDbEntity
  8
0
100
AcDbLine
 10
427.564
 20
175.446038
 30
0.0
 11
427.564
 21
186.946038
 31
0.0
  0
LINE
  5
43F6
100
AcDbEntity
  8
0
100
AcDbLine
 10
419.358
 20
186.946038
 30
0.0
 11
424.966
 21
186.946038
 31
0.0
  0
POLYLINE
  5
43F7
100
AcDbEntity
  8
0
  6
CONTINUOUS
100
AcDb3dPolyline
 66
     1
 10
0.0
 20
0.0
 30
0.0
 70
     8
  0
VERTEX
  5
43F8
100
AcDbEntity
  8
0
  6
CONTINUOUS
100
AcDbVertex
100
AcDb3dPolylineVertex
 10
417.237
 20
175.446038
 30
0.0
 70
    32
1001
ACAD
1000
R13OBJECT
1002
{
1005
0
1002
}
  0
VERTEX
  5
43F9
100
AcDbEntity
  8
0
  6
CONTINUOUS
100
AcDbVertex
100
AcDb3dPolylineVertex
 10
417.439497
 20
174.56436
 30
0.0
 70
    32
1001
ACAD
1000
R13OBJECT
1002
{
1005
0
1002
}
  0
VERTEX
  5
43FA
100
AcDbEntity
  8
0
  6
CONTINUOUS
100
AcDbVertex
100
AcDb3dPolylineVertex
 10
417.969348
 20
174.019453
 30
0.0
 70
    32
1001
ACAD
1000
R13OBJECT
1002
{
1005
0
1002
}
  0
VERTEX
  5
43FB
100
AcDbEntity
  8
0
  6
CONTINUOUS
100
AcDbVertex
100
AcDb3dPolylineVertex
 10
418.624166
 20
174.019453
 30
0.0
 70
    32
1001
ACAD
1000
R13OBJECT
1002
{
1005
0
1002
}
  0
VERTEX
  5
43FC
100
AcDbEntity
  8
0
  6
CONTINUOUS
100
AcDbVertex
100
AcDb3dPolylineVertex
 10
419.153835
 20
174.56436
 30
0.0
 70
    32
1001
ACAD
1000
R13OBJECT
1002
{
1005
0
1002
}
  0
VERTEX
  5
43FD
100
AcDbEntity
  8
0
  6
CONTINUOUS
100
AcDbVertex
100
AcDb3dPolylineVertex
 10
419.356037
 20
175.446038
 30
0.0
 70
    32
1001
ACAD
1000
R13OBJECT
1002
{
1005
0
1002
}
  0
SEQEND
  5
43FE
100
AcDbEntity
  8
0
  6
CONTINUOUS
1001
ACAD
1000
R13OBJECT
1002
{
1005
0
1002
}
  0
LINE
  5
43FF
100
AcDbEntity
  8
0
100
AcDbLine
 10
419.358
 20
175.446038
 30
0.0
 11
419.358
 21
186.946038
 31
0.0
  0
LINE
  5
4400
100
AcDbEntity
  8
0
100
AcDbLine
 10
417.237
 20
186.946038
 30
0.0
 11
417.237
 21
175.446038
 31
0.0
  0
LINE
  5
4401
100
AcDbEntity
  8
0
100
AcDbLine
 10
424.966
 20
186.946038
 30
0.0
 11
424.966
 21
175.446038
 31
0.0
  0
POLYLINE
  5
4402
100
AcDbEntity
  8
0
  6
CONTINUOUS
100
AcDb3dPolyline
 66
     1
 10
0.0
 20
0.0
 30
0.0
 70
     8
  0
VERTEX
  5
4403
100
AcDbEntity
  8
0
  6
CONTINUOUS
100
AcDbVertex
100
AcDb3dPolylineVertex
 10
424.966
 20
175.446324
 30
0.0
 70
    32
1001
ACAD
1000
R13OBJECT
1002
{
1005
0
1002
}
  0
VERTEX
  5
4404
100
AcDbEntity
  8
0
  6
CONTINUOUS
100
AcDbVertex
100
AcDb3dPolylineVertex
 10
425.14041
 20
174.695039
 30
0.0
 70
    32
1001
ACAD
1000
R13OBJECT
1002
{
1005
0
1002
}
  0
VERTEX
  5
4405
100
AcDbEntity
  8
0
  6
CONTINUOUS
100
AcDbVertex
100
AcDb3dPolylineVertex
 10
425.617237
 20
174.145704
 30
0.0
 70
    32
1001
ACAD
1000
R13OBJECT
1002
{
1005
0
1002
}
  0
VERTEX
  5
4406
100
AcDbEntity
  8
0
  6
CONTINUOUS
100
AcDbVertex
100
AcDb3dPolylineVertex
 10
426.268256
 20
173.946043
 30
0.0
 70
    32
1001
ACAD
1000
R13OBJECT
1002
{
1005
0
1002
}
  0
VERTEX
  5
4407
100
AcDbEntity
  8
0
  6
CONTINUOUS
100
AcDbVertex
100
AcDb3dPolylineVertex
 10
426.918402
 20
174.149746
 30
0.0
 70
    32
1001
ACAD
1000
R13OBJECT
1002
{
1005
0
1002
}
  0
VERTEX
  5
4408
100
AcDbEntity
  8
0
  6
CONTINUOUS
100
AcDbVertex
100
AcDb3dPolylineVertex
 10
427.392844
 20
174.702034
 30
0.0
 70
    32
1001
ACAD
1000
R13OBJECT
1002
{
1005
0
1002
}
  0
VERTEX
  5
4409
100
AcDbEntity
  8
0
  6
CONTINUOUS
100
AcDbVertex
100
AcDb3dPolylineVertex
 10
427.564
 20
175.454393
 30
0.0
 70
    32
1001
ACAD
1000
R13OBJECT
1002
{
1005
0
1002
}
  0
SEQEND
  5
440A
100
AcDbEntity
  8
0
  6
CONTINUOUS
1001
ACAD
1000
R13OBJECT
1002
{
1005
0
1002
}
  0
LINE
  5
440B
100
AcDbEntity
  8
0
100
AcDbLine
 10
475.5
 20
159.709629
 30
0.0
 11
485.501
 21
155.046038
 31
0.0
  0
ARC
  5
440C
100
AcDbEntity
  8
0
100
AcDbCircle
 10
445.5
 20
156.446038
 30
0.0
 40
30.0
100
AcDbArc
 50
286.334823
 51
326.807647
  0
LINE
  5
440D
100
AcDbEntity
  8
0
100
AcDbLine
 10
439.314037
 20
127.274134
 30
0.0
 11
451.685963
 21
127.274134
 31
0.0
  0
LINE
  5
440E
100
AcDbEntity
  8
0
100
AcDbLine
 10
452.5
 20
124.946038
 30
0.0
 11
438.5
 21
124.946038
 31
0.0
  0
LINE
  5
440F
100
AcDbEntity
  8
0
100
AcDbLine
 10
438.5
 20
124.946038
 30
0.0
 11
438.5
 21
125.738038
 31
0.0
  0
ARC
  5
4410
100
AcDbEntity
  8
0
100
AcDbCircle
 10
436.500388
 20
125.738206
 30
0.0
 40
1.999612
100
AcDbArc
 50
359.995179
 51
73.658579
  0
LINE
  5
4411
100
AcDbEntity
  8
0
100
AcDbLine
 10
452.5
 20
125.738038
 30
0.0
 11
452.5
 21
124.946038
 31
0.0
  0
ARC
  5
4412
100
AcDbEntity
  8
0
100
AcDbCircle
 10
454.500088
 20
125.737557
 30
0.0
 40
2.000088
100
AcDbArc
 50
106.32178
 51
179.986211
  0
LINE
  5
4413
100
AcDbEntity
  8
0
100
AcDbLine
 10
453.938
 20
127.657038
 30
0.0
 11
453.938
 21
127.657038
 31
0.0
  0
LINE
  5
4414
100
AcDbEntity
  8
0
100
AcDbLine
 10
489.2
 20
151.466038
 30
0.0
 11
485.836
 21
138.909038
 31
0.0
  0
ARC
  5
4415
100
AcDbEntity
  8
0
100
AcDbCircle
 10
486.610984
 20
138.889438
 30
0.0
 40
0.818475
100
AcDbArc
 50
75.276717
 51
142.115692
  0
LINE
  5
4416
100
AcDbEntity
  8
0
100
AcDbLine
 10
490.571539
 20
153.687595
 30
0.0
 11
485.913677
 21
136.30029
 31
0.0
  0
LINE
  5
4417
100
AcDbEntity
  8
0
100
AcDbLine
 10
485.501
 20
155.046038
 30
0.0
 11
480.6765
 21
137.673538
 31
0.0
  0
LINE
  5
4418
100
AcDbEntity
  8
0
100
AcDbLine
 10
487.433
 20
154.528038
 30
0.0
 11
482.774
 21
137.142038
 31
0.0
  0
LINE
  5
4419
100
AcDbEntity
  8
0
100
AcDbLine
 10
482.774
 20
137.142038
 30
0.0
 11
480.842
 21
137.659038
 31
0.0
  0
LINE
  5
441A
100
AcDbEntity
  8
0
100
AcDbLine
 10
476.75
 20
127.946038
 30
0.0
 11
472.25
 21
127.946038
 31
0.0
  0
LINE
  5
441B
100
AcDbEntity
  8
0
100
AcDbLine
 10
477.75
 20
128.946038
 30
0.0
 11
476.75
 21
127.946038
 31
0.0
  0
LINE
  5
441C
100
AcDbEntity
  8
0
100
AcDbLine
 10
477.75
 20
129.946038
 30
0.0
 11
477.75
 21
128.946038
 31
0.0
  0
LINE
  5
441D
100
AcDbEntity
  8
0
100
AcDbLine
 10
477.76
 20
129.946038
 30
0.0
 11
477.75
 21
129.946038
 31
0.0
  0
LINE
  5
441E
100
AcDbEntity
  8
0
100
AcDbLine
 10
477.76
 20
129.946038
 30
0.0
 11
477.76
 21
129.946038
 31
0.0
  0
ARC
  5
441F
100
AcDbEntity
  8
0
100
AcDbCircle
 10
478.249983
 20
130.817769
 30
0.0
 40
1.0
100
AcDbArc
 50
180.328389
 51
240.660511
  0
LINE
  5
4420
100
AcDbEntity
  8
0
100
AcDbLine
 10
477.25
 20
134.699038
 30
0.0
 11
477.25
 21
130.812038
 31
0.0
  0
ARC
  5
4421
100
AcDbEntity
  8
0
100
AcDbCircle
 10
480.297204
 20
134.660685
 30
0.0
 40
3.047446
100
AcDbArc
 50
79.701801
 51
179.278892
  0
ARC
  5
4422
100
AcDbEntity
  8
0
100
AcDbCircle
 10
470.749947
 20
130.812094
 30
0.0
 40
1.000053
100
AcDbArc
 50
300.001752
 51
359.996793
  0
LINE
  5
4423
100
AcDbEntity
  8
0
100
AcDbLine
 10
471.26
 20
129.946038
 30
0.0
 11
471.25
 21
129.946038
 31
0.0
  0
LINE
  5
4424
100
AcDbEntity
  8
0
100
AcDbLine
 10
471.25
 20
128.946038
 30
0.0
 11
471.26
 21
129.946038
 31
0.0
  0
LINE
  5
4425
100
AcDbEntity
  8
0
100
AcDbLine
 10
471.75
 20
130.812038
 30
0.0
 11
471.75
 21
134.261038
 31
0.0
  0
ARC
  5
4426
100
AcDbEntity
  8
0
100
AcDbCircle
 10
469.249908
 20
134.261326
 30
0.0
 40
2.500092
100
AcDbArc
 50
359.993395
 51
136.948171
  0
LINE
  5
4427
100
AcDbEntity
  8
0
100
AcDbLine
 10
472.25
 20
127.946038
 30
0.0
 11
471.25
 21
128.946038
 31
0.0
  0
LINE
  5
4428
100
AcDbEntity
  8
0
100
AcDbLine
 10
471.25
 20
129.946038
 30
0.0
 11
477.75
 21
129.946038
 31
0.0
  0
LINE
  5
4429
100
AcDbEntity
  8
0
100
AcDbLine
 10
471.25
 20
128.946038
 30
0.0
 11
477.75
 21
128.946038
 31
0.0
  0
ARC
  5
442A
100
AcDbEntity
  8
0
100
AcDbCircle
 10
474.158709
 20
133.105462
 30
0.0
 40
4.231607
100
AcDbArc
 50
50.189462
 51
123.453395
  0
LINE
  5
442B
100
AcDbEntity
  8
0
100
AcDbLine
 10
484.815
 20
137.889038
 30
0.0
 11
483.097
 21
138.349038
 31
0.0
  0
LINE
  5
442C
100
AcDbEntity
  8
0
100
AcDbLine
 10
485.836
 20
138.909038
 30
0.0
 11
484.815
 21
137.889038
 31
0.0
  0
LINE
  5
442D
100
AcDbEntity
  8
0
100
AcDbLine
 10
474.122
 20
153.150038
 30
0.0
 11
470.605
 21
140.022038
 31
0.0
  0
ARC
  5
442E
100
AcDbEntity
  8
0
100
AcDbCircle
 10
489.884124
 20
151.097708
 30
0.0
 40
0.82117
100
AcDbArc
 50
188.027163
 51
254.595853
  0
LINE
  5
442F
100
AcDbEntity
  8
0
100
AcDbLine
 10
488.827
 20
152.860038
 30
0.0
 11
489.2
 21
151.466038
 31
0.0
  0
LINE
  5
4430
100
AcDbEntity
  8
0
100
AcDbLine
 10
486.379595
 20
140.938146
 30
0.0
 11
483.965
 21
141.585038
 31
0.0
  0
LINE
  5
4431
100
AcDbEntity
  8
0
100
AcDbLine
 10
486.657445
 20
141.975295
 30
0.0
 11
484.242
 21
142.622038
 31
0.0
  0
LINE
  5
4432
100
AcDbEntity
  8
0
100
AcDbLine
 10
487.109
 20
153.321038
 30
0.0
 11
488.827
 21
152.860038
 31
0.0
  0
LINE
  5
4433
100
AcDbEntity
  8
0
100
AcDbLine
 10
485.501
 20
155.046038
 30
0.0
 11
487.433
 21
154.528038
 31
0.0
  0
LINE
  5
4434
100
AcDbEntity
  8
0
100
AcDbLine
 10
488.378641
 20
148.400105
 30
0.0
 11
485.964
 21
149.048038
 31
0.0
  0
LINE
  5
4435
100
AcDbEntity
  8
0
100
AcDbLine
 10
488.656566
 20
149.43753
 30
0.0
 11
486.242
 21
150.084038
 31
0.0
  0
POLYLINE
  5
4436
100
AcDbEntity
  8
0
  6
CONTINUOUS
100
AcDb3dPolyline
 66
     1
 10
0.0
 20
0.0
 30
0.0
 70
     8
  0
VERTEX
  5
4437
100
AcDbEntity
  8
0
  6
CONTINUOUS
100
AcDbVertex
100
AcDb3dPolylineVertex
 10
463.436
 20
175.446324
 30
0.0
 70
    32
1001
ACAD
1000
R13OBJECT
1002
{
1005
0
1002
}
  0
VERTEX
  5
4438
100
AcDbEntity
  8
0
  6
CONTINUOUS
100
AcDbVertex
100
AcDb3dPolylineVertex
 10
463.61041
 20
174.695039
 30
0.0
 70
    32
1001
ACAD
1000
R13OBJECT
1002
{
1005
0
1002
}
  0
VERTEX
  5
4439
100
AcDbEntity
  8
0
  6
CONTINUOUS
100
AcDbVertex
100
AcDb3dPolylineVertex
 10
464.087237
 20
174.145704
 30
0.0
 70
    32
1001
ACAD
1000
R13OBJECT
1002
{
1005
0
1002
}
  0
VERTEX
  5
443A
100
AcDbEntity
  8
0
  6
CONTINUOUS
100
AcDbVertex
100
AcDb3dPolylineVertex
 10
464.738256
 20
173.946043
 30
0.0
 70
    32
1001
ACAD
1000
R13OBJECT
1002
{
1005
0
1002
}
  0
VERTEX
  5
443B
100
AcDbEntity
  8
0
  6
CONTINUOUS
100
AcDbVertex
100
AcDb3dPolylineVertex
 10
465.388402
 20
174.149746
 30
0.0
 70
    32
1001
ACAD
1000
R13OBJECT
1002
{
1005
0
1002
}
  0
VERTEX
  5
443C
100
AcDbEntity
  8
0
  6
CONTINUOUS
100
AcDbVertex
100
AcDb3dPolylineVertex
 10
465.862844
 20
174.702034
 30
0.0
 70
    32
1001
ACAD
1000
R13OBJECT
1002
{
1005
0
1002
}
  0
VERTEX
  5
443D
100
AcDbEntity
  8
0
  6
CONTINUOUS
100
AcDbVertex
100
AcDb3dPolylineVertex
 10
466.034
 20
175.454393
 30
0.0
 70
    32
1001
ACAD
1000
R13OBJECT
1002
{
1005
0
1002
}
  0
SEQEND
  5
443E
100
AcDbEntity
  8
0
  6
CONTINUOUS
1001
ACAD
1000
R13OBJECT
1002
{
1005
0
1002
}
  0
LINE
  5
443F
100
AcDbEntity
  8
0
100
AcDbLine
 10
447.0
 20
186.946038
 30
0.0
 11
454.009
 21
186.946038
 31
0.0
  0
LINE
  5
4440
100
AcDbEntity
  8
0
100
AcDbLine
 10
436.992
 20
186.946038
 30
0.0
 11
444.001
 21
186.946038
 31
0.0
  0
ARC
  5
4441
100
AcDbEntity
  8
0
100
AcDbCircle
 10
445.500509
 20
175.445847
 30
0.0
 40
1.499767
100
AcDbArc
 50
181.062465
 51
358.899325
  0
ARC
  5
4442
100
AcDbEntity
  8
0
100
AcDbCircle
 10
435.542519
 20
175.395422
 30
0.0
 40
1.449384
100
AcDbArc
 50
177.998686
 51
2.001314
  0
LINE
  5
4443
100
AcDbEntity
  8
0
100
AcDbLine
 10
436.992
 20
175.446038
 30
0.0
 11
436.992
 21
186.946038
 31
0.0
  0
LINE
  5
4444
100
AcDbEntity
  8
0
100
AcDbLine
 10
434.095
 20
186.946038
 30
0.0
 11
434.095
 21
175.446038
 31
0.0
  0
LINE
  5
4445
100
AcDbEntity
  8
0
100
AcDbLine
 10
447.0
 20
175.417038
 30
0.0
 11
447.0
 21
186.946038
 31
0.0
  0
LINE
  5
4446
100
AcDbEntity
  8
0
100
AcDbLine
 10
444.001
 20
186.946038
 30
0.0
 11
444.001
 21
175.418038
 31
0.0
  0
LINE
  5
4447
100
AcDbEntity
  8
0
100
AcDbLine
 10
456.906
 20
186.946038
 30
0.0
 11
463.437
 21
186.946038
 31
0.0
  0
ARC
  5
4448
100
AcDbEntity
  8
0
100
AcDbCircle
 10
455.4575
 20
175.395422
 30
0.0
 40
1.449384
100
AcDbArc
 50
177.998686
 51
2.001314
  0
LINE
  5
4449
100
AcDbEntity
  8
0
100
AcDbLine
 10
454.009
 20
186.946038
 30
0.0
 11
454.009
 21
175.446038
 31
0.0
  0
LINE
  5
444A
100
AcDbEntity
  8
0
100
AcDbLine
 10
463.437
 20
186.946038
 30
0.0
 11
463.437
 21
175.446038
 31
0.0
  0
LINE
  5
444B
100
AcDbEntity
  8
0
100
AcDbLine
 10
456.906
 20
175.446038
 30
0.0
 11
456.906
 21
186.946038
 31
0.0
  0
LINE
  5
444C
100
AcDbEntity
  8
0
100
AcDbLine
 10
475.5
 20
173.946038
 30
0.0
 11
475.5
 21
159.709629
 31
0.0
  0
LINE
  5
444D
100
AcDbEntity
  8
0
100
AcDbLine
 10
479.567
 20
186.946038
 30
0.0
 11
482.272
 21
186.946038
 31
0.0
  0
LINE
  5
444E
100
AcDbEntity
  8
0
100
AcDbLine
 10
473.764
 20
186.946038
 30
0.0
 11
478.067
 21
186.946038
 31
0.0
  0
LINE
  5
444F
100
AcDbEntity
  8
0
100
AcDbLine
 10
466.034
 20
186.946038
 30
0.0
 11
471.643
 21
186.946038
 31
0.0
  0
POLYLINE
  5
4450
100
AcDbEntity
  8
0
  6
CONTINUOUS
100
AcDb3dPolyline
 66
     1
 10
0.0
 20
0.0
 30
0.0
 70
     8
  0
VERTEX
  5
4451
100
AcDbEntity
  8
0
  6
CONTINUOUS
100
AcDbVertex
100
AcDb3dPolylineVertex
 10
478.068963
 20
175.446038
 30
0.0
 70
    32
1001
ACAD
1000
R13OBJECT
1002
{
1005
0
1002
}
  0
VERTEX
  5
4452
100
AcDbEntity
  8
0
  6
CONTINUOUS
100
AcDbVertex
100
AcDb3dPolylineVertex
 10
478.212012
 20
174.56436
 30
0.0
 70
    32
1001
ACAD
1000
R13OBJECT
1002
{
1005
0
1002
}
  0
VERTEX
  5
4453
100
AcDbEntity
  8
0
  6
CONTINUOUS
100
AcDbVertex
100
AcDb3dPolylineVertex
 10
478.586522
 20
174.019453
 30
0.0
 70
    32
1001
ACAD
1000
R13OBJECT
1002
{
1005
0
1002
}
  0
VERTEX
  5
4454
100
AcDbEntity
  8
0
  6
CONTINUOUS
100
AcDbVertex
100
AcDb3dPolylineVertex
 10
479.049441
 20
174.019453
 30
0.0
 70
    32
1001
ACAD
1000
R13OBJECT
1002
{
1005
0
1002
}
  0
VERTEX
  5
4455
100
AcDbEntity
  8
0
  6
CONTINUOUS
100
AcDbVertex
100
AcDb3dPolylineVertex
 10
479.42395
 20
174.56436
 30
0.0
 70
    32
1001
ACAD
1000
R13OBJECT
1002
{
1005
0
1002
}
  0
VERTEX
  5
4456
100
AcDbEntity
  8
0
  6
CONTINUOUS
100
AcDbVertex
100
AcDb3dPolylineVertex
 10
479.567
 20
175.446038
 30
0.0
 70
    32
1001
ACAD
1000
R13OBJECT
1002
{
1005
0
1002
}
  0
SEQEND
  5
4457
100
AcDbEntity
  8
0
  6
CONTINUOUS
1001
ACAD
1000
R13OBJECT
1002
{
1005
0
1002
}
  0
POLYLINE
  5
4458
100
AcDbEntity
  8
0
  6
CONTINUOUS
100
AcDb3dPolyline
 66
     1
 10
0.0
 20
0.0
 30
0.0
 70
     8
  0
VERTEX
  5
4459
100
AcDbEntity
  8
0
  6
CONTINUOUS
100
AcDbVertex
100
AcDb3dPolylineVertex
 10
471.644963
 20
175.446038
 30
0.0
 70
    32
1001
ACAD
1000
R13OBJECT
1002
{
1005
0
1002
}
  0
VERTEX
  5
445A
100
AcDbEntity
  8
0
  6
CONTINUOUS
100
AcDbVertex
100
AcDb3dPolylineVertex
 10
471.84746
 20
174.56436
 30
0.0
 70
    32
1001
ACAD
1000
R13OBJECT
1002
{
1005
0
1002
}
  0
VERTEX
  5
445B
100
AcDbEntity
  8
0
  6
CONTINUOUS
100
AcDbVertex
100
AcDb3dPolylineVertex
 10
472.37731
 20
174.019453
 30
0.0
 70
    32
1001
ACAD
1000
R13OBJECT
1002
{
1005
0
1002
}
  0
VERTEX
  5
445C
100
AcDbEntity
  8
0
  6
CONTINUOUS
100
AcDbVertex
100
AcDb3dPolylineVertex
 10
473.032129
 20
174.019453
 30
0.0
 70
    32
1001
ACAD
1000
R13OBJECT
1002
{
1005
0
1002
}
  0
VERTEX
  5
445D
100
AcDbEntity
  8
0
  6
CONTINUOUS
100
AcDbVertex
100
AcDb3dPolylineVertex
 10
473.561797
 20
174.56436
 30
0.0
 70
    32
1001
ACAD
1000
R13OBJECT
1002
{
1005
0
1002
}
  0
VERTEX
  5
445E
100
AcDbEntity
  8
0
  6
CONTINUOUS
100
AcDbVertex
100
AcDb3dPolylineVertex
 10
473.764
 20
175.446038
 30
0.0
 70
    32
1001
ACAD
1000
R13OBJECT
1002
{
1005
0
1002
}
  0
SEQEND
  5
445F
100
AcDbEntity
  8
0
  6
CONTINUOUS
1001
ACAD
1000
R13OBJECT
1002
{
1005
0
1002
}
  0
LINE
  5
4460
100
AcDbEntity
  8
0
100
AcDbLine
 10
466.034
 20
175.446038
 30
0.0
 11
466.034
 21
186.946038
 31
0.0
  0
LINE
  5
4461
100
AcDbEntity
  8
0
100
AcDbLine
 10
473.764
 20
175.446038
 30
0.0
 11
473.764
 21
186.946038
 31
0.0
  0
LINE
  5
4462
100
AcDbEntity
  8
0
100
AcDbLine
 10
471.643
 20
186.946038
 30
0.0
 11
471.643
 21
175.446038
 31
0.0
  0
LINE
  5
4463
100
AcDbEntity
  8
0
100
AcDbLine
 10
479.567
 20
175.446038
 30
0.0
 11
479.567
 21
186.946038
 31
0.0
  0
LINE
  5
4464
100
AcDbEntity
  8
0
100
AcDbLine
 10
478.067
 20
186.946038
 30
0.0
 11
478.067
 21
175.446038
 31
0.0
  0
LINE
  5
4465
100
AcDbEntity
  8
0
100
AcDbLine
 10
483.971
 20
186.946038
 30
0.0
 11
485.5
 21
186.946038
 31
0.0
  0
LINE
  5
4466
100
AcDbEntity
  8
0
100
AcDbLine
 10
483.048
 20
186.946038
 30
0.0
 11
483.971
 21
186.946038
 31
0.0
  0
ARC
  5
4467
100
AcDbEntity
  8
0
100
AcDbCircle
 10
483.500978
 20
175.94506
 30
0.0
 40
1.999023
100
AcDbArc
 50
269.971978
 51
0.028022
  0
POLYLINE
  5
4468
100
AcDbEntity
  8
0
  6
CONTINUOUS
100
AcDb3dPolyline
 66
     1
 10
0.0
 20
0.0
 30
0.0
 70
     8
  0
VERTEX
  5
4469
100
AcDbEntity
  8
0
  6
CONTINUOUS
100
AcDbVertex
100
AcDb3dPolylineVertex
 10
483.316
 20
173.946038
 30
0.0
 70
    32
1001
ACAD
1000
R13OBJECT
1002
{
1005
0
1002
}
  0
VERTEX
  5
446A
100
AcDbEntity
  8
0
  6
CONTINUOUS
100
AcDbVertex
100
AcDb3dPolylineVertex
 10
483.6435
 20
174.147
 30
0.0
 70
    32
1001
ACAD
1000
R13OBJECT
1002
{
1005
0
1002
}
  0
VERTEX
  5
446B
100
AcDbEntity
  8
0
  6
CONTINUOUS
100
AcDbVertex
100
AcDb3dPolylineVertex
 10
483.883247
 20
174.696038
 30
0.0
 70
    32
1001
ACAD
1000
R13OBJECT
1002
{
1005
0
1002
}
  0
VERTEX
  5
446C
100
AcDbEntity
  8
0
  6
CONTINUOUS
100
AcDbVertex
100
AcDb3dPolylineVertex
 10
483.971
 20
175.446038
 30
0.0
 70
    32
1001
ACAD
1000
R13OBJECT
1002
{
1005
0
1002
}
  0
SEQEND
  5
446D
100
AcDbEntity
  8
0
  6
CONTINUOUS
1001
ACAD
1000
R13OBJECT
1002
{
1005
0
1002
}
  0
POLYLINE
  5
446E
100
AcDbEntity
  8
0
  6
CONTINUOUS
100
AcDb3dPolyline
 66
     1
 10
0.0
 20
0.0
 30
0.0
 70
     8
  0
VERTEX
  5
446F
100
AcDbEntity
  8
0
  6
CONTINUOUS
100
AcDbVertex
100
AcDb3dPolylineVertex
 10
482.272
 20
175.447038
 30
0.0
 70
    32
1001
ACAD
1000
R13OBJECT
1002
{
1005
0
1002
}
  0
VERTEX
  5
4470
100
AcDbEntity
  8
0
  6
CONTINUOUS
100
AcDbVertex
100
AcDb3dPolylineVertex
 10
482.346101
 20
174.564772
 30
0.0
 70
    32
1001
ACAD
1000
R13OBJECT
1002
{
1005
0
1002
}
  0
VERTEX
  5
4471
100
AcDbEntity
  8
0
  6
CONTINUOUS
100
AcDbVertex
100
AcDb3dPolylineVertex
 10
482.540101
 20
174.019502
 30
0.0
 70
    32
1001
ACAD
1000
R13OBJECT
1002
{
1005
0
1002
}
  0
VERTEX
  5
4472
100
AcDbEntity
  8
0
  6
CONTINUOUS
100
AcDbVertex
100
AcDb3dPolylineVertex
 10
482.779899
 20
174.019502
 30
0.0
 70
    32
1001
ACAD
1000
R13OBJECT
1002
{
1005
0
1002
}
  0
VERTEX
  5
4473
100
AcDbEntity
  8
0
  6
CONTINUOUS
100
AcDbVertex
100
AcDb3dPolylineVertex
 10
482.973899
 20
174.564772
 30
0.0
 70
    32
1001
ACAD
1000
R13OBJECT
1002
{
1005
0
1002
}
  0
VERTEX
  5
4474
100
AcDbEntity
  8
0
  6
CONTINUOUS
100
AcDbVertex
100
AcDb3dPolylineVertex
 10
483.048
 20
175.447038
 30
0.0
 70
    32
1001
ACAD
1000
R13OBJECT
1002
{
1005
0
1002
}
  0
SEQEND
  5
4475
100
AcDbEntity
  8
0
  6
CONTINUOUS
1001
ACAD
1000
R13OBJECT
1002
{
1005
0
1002
}
  0
LINE
  5
4476
100
AcDbEntity
  8
0
100
AcDbLine
 10
485.5
 20
188.946038
 30
0.0
 11
485.5
 21
175.946038
 31
0.0
  0
LINE
  5
4477
100
AcDbEntity
  8
0
100
AcDbLine
 10
483.971
 20
186.946038
 30
0.0
 11
483.971
 21
175.446038
 31
0.0
  0
LINE
  5
4478
100
AcDbEntity
  8
0
100
AcDbLine
 10
483.048
 20
175.446038
 30
0.0
 11
483.048
 21
186.946038
 31
0.0
  0
LINE
  5
4479
100
AcDbEntity
  8
0
100
AcDbLine
 10
482.272
 20
186.946038
 30
0.0
 11
482.272
 21
175.447038
 31
0.0
  0
ARC
  5
447A
100
AcDbEntity
  8
0
100
AcDbCircle
 10
428.500596
 20
221.945442
 30
0.0
 40
2.999404
100
AcDbArc
 50
269.988611
 51
0.011389
  0
ARC
  5
447B
100
AcDbEntity
  8
0
100
AcDbCircle
 10
445.5005
 20
137.445838
 30
0.0
 40
60.000236
100
AcDbArc
 50
61.044964
 51
118.955036
  0
LINE
  5
447C
100
AcDbEntity
  8
0
100
AcDbLine
 10
406.5
 20
189.946038
 30
0.0
 11
484.5
 21
189.946038
 31
0.0
  0
LINE
  5
447D
100
AcDbEntity
  8
0
100
AcDbLine
 10
417.5
 20
190.511837
 30
0.0
 11
417.5
 21
218.946038
 31
0.0
  0
LINE
  5
447E
100
AcDbEntity
  8
0
100
AcDbLine
 10
417.5
 20
218.946038
 30
0.0
 11
428.5
 21
218.946038
 31
0.0
  0
LINE
  5
447F
100
AcDbEntity
  8
0
100
AcDbLine
 10
459.5
 20
228.946038
 30
0.0
 11
459.5
 21
218.499214
 31
0.0
  0
LINE
  5
4480
100
AcDbEntity
  8
0
100
AcDbLine
 10
431.5
 20
221.946038
 30
0.0
 11
431.5
 21
228.946038
 31
0.0
  0
LINE
  5
4481
100
AcDbEntity
  8
0
100
AcDbLine
 10
460.035918
 20
216.49918
 30
0.0
 11
475.366727
 21
189.946038
 31
0.0
  0
LINE
  5
4482
100
AcDbEntity
  8
0
100
AcDbLine
 10
455.5
 20
198.946038
 30
0.0
 11
455.5
 21
211.946038
 31
0.0
  0
LINE
  5
4483
100
AcDbEntity
  8
0
100
AcDbLine
 10
431.5
 20
214.931652
 30
0.0
 11
431.5
 21
198.819215
 31
0.0
  0
LINE
  5
4484
100
AcDbEntity
  8
0
100
AcDbLine
 10
435.5
 20
211.946038
 30
0.0
 11
435.5
 21
198.946038
 31
0.0
  0
LINE
  5
4485
100
AcDbEntity
  8
0
100
AcDbLine
 10
435.5
 20
198.946038
 30
0.0
 11
455.5
 21
198.946038
 31
0.0
  0
LINE
  5
4486
100
AcDbEntity
  8
0
100
AcDbLine
 10
435.576817
 20
218.946038
 30
0.0
 11
457.524869
 21
218.946038
 31
0.0
  0
LINE
  5
4487
100
AcDbEntity
  8
0
100
AcDbLine
 10
455.5
 20
211.946038
 30
0.0
 11
435.5
 21
211.946038
 31
0.0
  0
LINE
  5
4488
100
AcDbEntity
  8
0
100
AcDbLine
 10
431.5
 20
218.946038
 30
0.0
 11
436.806
 21
213.641038
 31
0.0
  0
ARC
  5
4489
100
AcDbEntity
  8
0
100
AcDbCircle
 10
463.5
 20
218.499214
 30
0.0
 40
4.0
100
AcDbArc
 50
180.0
 51
210.000558
  0
LINE
  5
448A
100
AcDbEntity
  8
0
100
AcDbLine
 10
455.375
 20
213.302038
 30
0.0
 11
458.105
 21
216.032038
 31
0.0
  0
LINE
  5
448B
100
AcDbEntity
  8
0
100
AcDbLine
 10
431.5
 20
228.946038
 30
0.0
 11
459.5
 21
228.946038
 31
0.0
  0
ARC
  5
448C
100
AcDbEntity
  8
0
100
AcDbCircle
 10
606.190417
 20
137.445838
 30
0.0
 40
60.000236
100
AcDbArc
 50
61.044964
 51
76.506164
  0
ARC
  5
448D
100
AcDbEntity
  8
0
100
AcDbCircle
 10
606.190917
 20
156.446038
 30
0.0
 40
30.0
100
AcDbArc
 50
286.334823
 51
0.0
  0
LINE
  5
448E
100
AcDbEntity
  8
0
100
AcDbLine
 10
626.724917
 20
186.946038
 30
0.0
 11
632.333917
 21
186.946038
 31
0.0
  0
LINE
  5
448F
100
AcDbEntity
  8
0
100
AcDbLine
 10
567.190917
 20
189.946038
 30
0.0
 11
645.190917
 21
189.946038
 31
0.0
  0
LINE
  5
4490
100
AcDbEntity
  8
0
100
AcDbLine
 10
568.190936
 20
173.946038
 30
0.0
 11
644.190917
 21
173.946038
 31
0.0
  0
LINE
  5
4491
100
AcDbEntity
  8
0
100
AcDbLine
 10
566.190917
 20
188.946038
 30
0.0
 11
567.190917
 21
189.946038
 31
0.0
  0
LINE
  5
4492
100
AcDbEntity
  8
0
100
AcDbLine
 10
504.09435
 20
150.063779
 30
0.0
 11
499.4355
 21
132.676739
 31
0.0
  0
ELLIPSE
  5
4493
100
AcDbEntity
  8
0
100
AcDbEllipse
 10
606.190917
 20
149.165006
 30
0.0
 11
-10.89999999999997
 21
0.0
 31
0.0
210
0.0
220
0.0
230
1.0
 40
0.965926
 41
2.542217153986378
 42
6.882560806783276
  0
ARC
  5
4494
100
AcDbEntity
  8
0
100
AcDbCircle
 10
606.190917
 20
156.446038
 30
0.0
 40
30.0
100
AcDbArc
 50
180.0
 51
253.665177
  0
ELLIPSE
  5
4495
100
AcDbEntity
  8
0
100
AcDbEllipse
 10
606.190917
 20
144.994262
 30
0.0
 11
-9.0
 21
0.0
 31
0.0
210
0.0
220
0.0
230
1.0
 40
0.965926
 41
3.141592653589793
 42
6.283185307179586
  0
ELLIPSE
  5
4496
100
AcDbEntity
  8
0
100
AcDbEllipse
 10
606.190917
 20
147.165814
 30
0.0
 11
-9.0
 21
0.0
 31
0.0
210
0.0
220
0.0
230
1.0
 40
0.965926
 41
3.016368116625329
 42
6.40840984414405
  0
ELLIPSE
  5
4497
100
AcDbEntity
  8
0
100
AcDbEllipse
 10
606.190917
 20
141.370259
 30
0.0
 11
-9.0
 21
0.0
 31
0.0
210
0.0
220
0.0
230
1.0
 40
0.965926
 41
0.0
 42
6.283185307179586
  0
LINE
  5
4498
100
AcDbEntity
  8
0
100
AcDbLine
 10
597.190917
 20
144.994262
 30
0.0
 11
597.190917
 21
141.370259
 31
0.0
  0
ELLIPSE
  5
4499
100
AcDbEntity
  8
0
100
AcDbEllipse
 10
606.190917
 20
141.370259
 30
0.0
 11
-6.0
 21
0.0
 31
0.0
210
0.0
220
0.0
230
1.0
 40
0.965926
 41
0.0
 42
6.283185307179586
  0
ARC
  5
449A
100
AcDbEntity
  8
0
100
AcDbCircle
 10
615.190917
 20
125.737733
 30
0.0
 40
2.0
100
AcDbArc
 50
106.334823
 51
180.0
  0
ARC
  5
449B
100
AcDbEntity
  8
0
100
AcDbCircle
 10
597.190917
 20
125.737733
 30
0.0
 40
2.0
100
AcDbArc
 50
0.0
 51
73.665177
  0
LINE
  5
449C
100
AcDbEntity
  8
0
100
AcDbLine
 10
602.940917
 20
128.946038
 30
0.0
 11
609.440917
 21
128.946038
 31
0.0
  0
LINE
  5
449D
100
AcDbEntity
  8
0
100
AcDbLine
 10
602.940917
 20
129.946038
 30
0.0
 11
609.440917
 21
129.946038
 31
0.0
  0
LINE
  5
449E
100
AcDbEntity
  8
0
100
AcDbLine
 10
603.940917
 20
127.946038
 30
0.0
 11
602.940917
 21
128.946038
 31
0.0
  0
LINE
  5
449F
100
AcDbEntity
  8
0
100
AcDbLine
 10
602.940917
 20
128.946038
 30
0.0
 11
602.950917
 21
129.946038
 31
0.0
  0
LINE
  5
44A0
100
AcDbEntity
  8
0
100
AcDbLine
 10
602.950917
 20
129.946038
 30
0.0
 11
602.940917
 21
129.946038
 31
0.0
  0
ARC
  5
44A1
100
AcDbEntity
  8
0
100
AcDbCircle
 10
602.440864
 20
130.812094
 30
0.0
 40
1.000053
100
AcDbArc
 50
300.001752
 51
359.996793
  0
ARC
  5
44A2
100
AcDbEntity
  8
0
100
AcDbCircle
 10
609.9409
 20
130.817769
 30
0.0
 40
1.0
100
AcDbArc
 50
180.328389
 51
240.660511
  0
LINE
  5
44A3
100
AcDbEntity
  8
0
100
AcDbLine
 10
609.450917
 20
129.946038
 30
0.0
 11
609.450917
 21
129.946038
 31
0.0
  0
LINE
  5
44A4
100
AcDbEntity
  8
0
100
AcDbLine
 10
609.450917
 20
129.946038
 30
0.0
 11
609.440917
 21
129.946038
 31
0.0
  0
LINE
  5
44A5
100
AcDbEntity
  8
0
100
AcDbLine
 10
609.440917
 20
129.946038
 30
0.0
 11
609.440917
 21
128.946038
 31
0.0
  0
LINE
  5
44A6
100
AcDbEntity
  8
0
100
AcDbLine
 10
609.440917
 20
128.946038
 30
0.0
 11
608.440917
 21
127.946038
 31
0.0
  0
LINE
  5
44A7
100
AcDbEntity
  8
0
100
AcDbLine
 10
608.440917
 20
127.946038
 30
0.0
 11
603.940917
 21
127.946038
 31
0.0
  0
LINE
  5
44A8
100
AcDbEntity
  8
0
100
AcDbLine
 10
613.190917
 20
124.946038
 30
0.0
 11
599.190917
 21
124.946038
 31
0.0
  0
LINE
  5
44A9
100
AcDbEntity
  8
0
100
AcDbLine
 10
600.004954
 20
127.274134
 30
0.0
 11
612.37688
 21
127.274134
 31
0.0
  0
LINE
  5
44AA
100
AcDbEntity
  8
0
100
AcDbLine
 10
597.753917
 20
127.657038
 30
0.0
 11
597.753917
 21
127.657038
 31
0.0
  0
LINE
  5
44AB
100
AcDbEntity
  8
0
100
AcDbLine
 10
599.190917
 20
124.946038
 30
0.0
 11
599.190917
 21
125.737733
 31
0.0
  0
LINE
  5
44AC
100
AcDbEntity
  8
0
100
AcDbLine
 10
613.190917
 20
125.737733
 30
0.0
 11
613.190917
 21
124.946038
 31
0.0
  0
LINE
  5
44AD
100
AcDbEntity
  8
0
100
AcDbLine
 10
603.440917
 20
130.812038
 30
0.0
 11
603.440917
 21
133.092691
 31
0.0
  0
LINE
  5
44AE
100
AcDbEntity
  8
0
100
AcDbLine
 10
608.940917
 20
133.092691
 30
0.0
 11
608.940917
 21
130.812038
 31
0.0
  0
LINE
  5
44AF
100
AcDbEntity
  8
0
100
AcDbLine
 10
614.628917
 20
127.657038
 30
0.0
 11
614.628917
 21
127.657038
 31
0.0
  0
LINE
  5
44B0
100
AcDbEntity
  8
0
100
AcDbLine
 10
615.190917
 20
144.994262
 30
0.0
 11
615.190917
 21
141.370259
 31
0.0
  0
ARC
  5
44B1
100
AcDbEntity
  8
0
100
AcDbCircle
 10
596.233436
 20
175.395422
 30
0.0
 40
1.449384
100
AcDbArc
 50
177.998686
 51
2.001314
  0
LINE
  5
44B2
100
AcDbEntity
  8
0
100
AcDbLine
 10
576.190917
 20
156.446038
 30
0.0
 11
576.190917
 21
173.946038
 31
0.0
  0
LINE
  5
44B3
100
AcDbEntity
  8
0
100
AcDbLine
 10
580.048917
 20
186.946038
 30
0.0
 11
585.656917
 21
186.946038
 31
0.0
  0
LINE
  5
44B4
100
AcDbEntity
  8
0
100
AcDbLine
 10
573.624917
 20
186.946038
 30
0.0
 11
577.927917
 21
186.946038
 31
0.0
  0
LINE
  5
44B5
100
AcDbEntity
  8
0
100
AcDbLine
 10
566.190917
 20
186.946038
 30
0.0
 11
567.720917
 21
186.946038
 31
0.0
  0
LINE
  5
44B6
100
AcDbEntity
  8
0
100
AcDbLine
 10
567.720917
 20
186.946038
 30
0.0
 11
568.642917
 21
186.946038
 31
0.0
  0
LINE
  5
44B7
100
AcDbEntity
  8
0
100
AcDbLine
 10
569.419917
 20
186.946038
 30
0.0
 11
572.124917
 21
186.946038
 31
0.0
  0
POLYLINE
  5
44B8
100
AcDbEntity
  8
0
  6
CONTINUOUS
100
AcDb3dPolyline
 66
     1
 10
0.0
 20
0.0
 30
0.0
 70
     8
  0
VERTEX
  5
44B9
100
AcDbEntity
  8
0
  6
CONTINUOUS
100
AcDbVertex
100
AcDb3dPolylineVertex
 10
572.124917
 20
175.446038
 30
0.0
 70
    32
1001
ACAD
1000
R13OBJECT
1002
{
1005
0
1002
}
  0
VERTEX
  5
44BA
100
AcDbEntity
  8
0
  6
CONTINUOUS
100
AcDbVertex
100
AcDb3dPolylineVertex
 10
572.267967
 20
174.56436
 30
0.0
 70
    32
1001
ACAD
1000
R13OBJECT
1002
{
1005
0
1002
}
  0
VERTEX
  5
44BB
100
AcDbEntity
  8
0
  6
CONTINUOUS
100
AcDbVertex
100
AcDb3dPolylineVertex
 10
572.642476
 20
174.019453
 30
0.0
 70
    32
1001
ACAD
1000
R13OBJECT
1002
{
1005
0
1002
}
  0
VERTEX
  5
44BC
100
AcDbEntity
  8
0
  6
CONTINUOUS
100
AcDbVertex
100
AcDb3dPolylineVertex
 10
573.105395
 20
174.019453
 30
0.0
 70
    32
1001
ACAD
1000
R13OBJECT
1002
{
1005
0
1002
}
  0
VERTEX
  5
44BD
100
AcDbEntity
  8
0
  6
CONTINUOUS
100
AcDbVertex
100
AcDb3dPolylineVertex
 10
573.479905
 20
174.56436
 30
0.0
 70
    32
1001
ACAD
1000
R13OBJECT
1002
{
1005
0
1002
}
  0
VERTEX
  5
44BE
100
AcDbEntity
  8
0
  6
CONTINUOUS
100
AcDbVertex
100
AcDb3dPolylineVertex
 10
573.622954
 20
175.446038
 30
0.0
 70
    32
1001
ACAD
1000
R13OBJECT
1002
{
1005
0
1002
}
  0
SEQEND
  5
44BF
100
AcDbEntity
  8
0
  6
CONTINUOUS
1001
ACAD
1000
R13OBJECT
1002
{
1005
0
1002
}
  0
POLYLINE
  5
44C0
100
AcDbEntity
  8
0
  6
CONTINUOUS
100
AcDb3dPolyline
 66
     1
 10
0.0
 20
0.0
 30
0.0
 70
     8
  0
VERTEX
  5
44C1
100
AcDbEntity
  8
0
  6
CONTINUOUS
100
AcDbVertex
100
AcDb3dPolylineVertex
 10
568.374936
 20
173.946038
 30
0.0
 70
    32
1001
ACAD
1000
R13OBJECT
1002
{
1005
0
1002
}
  0
VERTEX
  5
44C2
100
AcDbEntity
  8
0
  6
CONTINUOUS
100
AcDbVertex
100
AcDb3dPolylineVertex
 10
568.047436
 20
174.147
 30
0.0
 70
    32
1001
ACAD
1000
R13OBJECT
1002
{
1005
0
1002
}
  0
VERTEX
  5
44C3
100
AcDbEntity
  8
0
  6
CONTINUOUS
100
AcDbVertex
100
AcDb3dPolylineVertex
 10
567.807689
 20
174.696038
 30
0.0
 70
    32
1001
ACAD
1000
R13OBJECT
1002
{
1005
0
1002
}
  0
VERTEX
  5
44C4
100
AcDbEntity
  8
0
  6
CONTINUOUS
100
AcDbVertex
100
AcDb3dPolylineVertex
 10
567.719936
 20
175.446038
 30
0.0
 70
    32
1001
ACAD
1000
R13OBJECT
1002
{
1005
0
1002
}
  0
SEQEND
  5
44C5
100
AcDbEntity
  8
0
  6
CONTINUOUS
1001
ACAD
1000
R13OBJECT
1002
{
1005
0
1002
}
  0
POLYLINE
  5
44C6
100
AcDbEntity
  8
0
  6
CONTINUOUS
100
AcDb3dPolyline
 66
     1
 10
0.0
 20
0.0
 30
0.0
 70
     8
  0
VERTEX
  5
44C7
100
AcDbEntity
  8
0
  6
CONTINUOUS
100
AcDbVertex
100
AcDb3dPolylineVertex
 10
568.642917
 20
175.447038
 30
0.0
 70
    32
1001
ACAD
1000
R13OBJECT
1002
{
1005
0
1002
}
  0
VERTEX
  5
44C8
100
AcDbEntity
  8
0
  6
CONTINUOUS
100
AcDbVertex
100
AcDb3dPolylineVertex
 10
568.717018
 20
174.564772
 30
0.0
 70
    32
1001
ACAD
1000
R13OBJECT
1002
{
1005
0
1002
}
  0
VERTEX
  5
44C9
100
AcDbEntity
  8
0
  6
CONTINUOUS
100
AcDbVertex
100
AcDb3dPolylineVertex
 10
568.911018
 20
174.019502
 30
0.0
 70
    32
1001
ACAD
1000
R13OBJECT
1002
{
1005
0
1002
}
  0
VERTEX
  5
44CA
100
AcDbEntity
  8
0
  6
CONTINUOUS
100
AcDbVertex
100
AcDb3dPolylineVertex
 10
569.150816
 20
174.019502
 30
0.0
 70
    32
1001
ACAD
1000
R13OBJECT
1002
{
1005
0
1002
}
  0
VERTEX
  5
44CB
100
AcDbEntity
  8
0
  6
CONTINUOUS
100
AcDbVertex
100
AcDb3dPolylineVertex
 10
569.344816
 20
174.564772
 30
0.0
 70
    32
1001
ACAD
1000
R13OBJECT
1002
{
1005
0
1002
}
  0
VERTEX
  5
44CC
100
AcDbEntity
  8
0
  6
CONTINUOUS
100
AcDbVertex
100
AcDb3dPolylineVertex
 10
569.418917
 20
175.447038
 30
0.0
 70
    32
1001
ACAD
1000
R13OBJECT
1002
{
1005
0
1002
}
  0
SEQEND
  5
44CD
100
AcDbEntity
  8
0
  6
CONTINUOUS
1001
ACAD
1000
R13OBJECT
1002
{
1005
0
1002
}
  0
ARC
  5
44CE
100
AcDbEntity
  8
0
100
AcDbCircle
 10
568.189958
 20
175.94506
 30
0.0
 40
1.999023
100
AcDbArc
 50
179.971978
 51
270.028022
  0
POLYLINE
  5
44CF
100
AcDbEntity
  8
0
  6
CONTINUOUS
100
AcDb3dPolyline
 66
     1
 10
0.0
 20
0.0
 30
0.0
 70
     8
  0
VERTEX
  5
44D0
100
AcDbEntity
  8
0
  6
CONTINUOUS
100
AcDbVertex
100
AcDb3dPolylineVertex
 10
577.927917
 20
175.446038
 30
0.0
 70
    32
1001
ACAD
1000
R13OBJECT
1002
{
1005
0
1002
}
  0
VERTEX
  5
44D1
100
AcDbEntity
  8
0
  6
CONTINUOUS
100
AcDbVertex
100
AcDb3dPolylineVertex
 10
578.130414
 20
174.56436
 30
0.0
 70
    32
1001
ACAD
1000
R13OBJECT
1002
{
1005
0
1002
}
  0
VERTEX
  5
44D2
100
AcDbEntity
  8
0
  6
CONTINUOUS
100
AcDbVertex
100
AcDb3dPolylineVertex
 10
578.660265
 20
174.019453
 30
0.0
 70
    32
1001
ACAD
1000
R13OBJECT
1002
{
1005
0
1002
}
  0
VERTEX
  5
44D3
100
AcDbEntity
  8
0
  6
CONTINUOUS
100
AcDbVertex
100
AcDb3dPolylineVertex
 10
579.315083
 20
174.019453
 30
0.0
 70
    32
1001
ACAD
1000
R13OBJECT
1002
{
1005
0
1002
}
  0
VERTEX
  5
44D4
100
AcDbEntity
  8
0
  6
CONTINUOUS
100
AcDbVertex
100
AcDb3dPolylineVertex
 10
579.844752
 20
174.56436
 30
0.0
 70
    32
1001
ACAD
1000
R13OBJECT
1002
{
1005
0
1002
}
  0
VERTEX
  5
44D5
100
AcDbEntity
  8
0
  6
CONTINUOUS
100
AcDbVertex
100
AcDb3dPolylineVertex
 10
580.046954
 20
175.446038
 30
0.0
 70
    32
1001
ACAD
1000
R13OBJECT
1002
{
1005
0
1002
}
  0
SEQEND
  5
44D6
100
AcDbEntity
  8
0
  6
CONTINUOUS
1001
ACAD
1000
R13OBJECT
1002
{
1005
0
1002
}
  0
LINE
  5
44D7
100
AcDbEntity
  8
0
100
AcDbLine
 10
572.124917
 20
186.946038
 30
0.0
 11
572.124917
 21
175.446038
 31
0.0
  0
LINE
  5
44D8
100
AcDbEntity
  8
0
100
AcDbLine
 10
573.624917
 20
175.446038
 30
0.0
 11
573.624917
 21
186.946038
 31
0.0
  0
LINE
  5
44D9
100
AcDbEntity
  8
0
100
AcDbLine
 10
577.927917
 20
186.946038
 30
0.0
 11
577.927917
 21
175.446038
 31
0.0
  0
LINE
  5
44DA
100
AcDbEntity
  8
0
100
AcDbLine
 10
580.048917
 20
175.446038
 30
0.0
 11
580.048917
 21
186.946038
 31
0.0
  0
LINE
  5
44DB
100
AcDbEntity
  8
0
100
AcDbLine
 10
567.720917
 20
186.946038
 30
0.0
 11
567.720917
 21
175.446038
 31
0.0
  0
LINE
  5
44DC
100
AcDbEntity
  8
0
100
AcDbLine
 10
568.642917
 20
186.946038
 30
0.0
 11
568.642917
 21
175.446038
 31
0.0
  0
LINE
  5
44DD
100
AcDbEntity
  8
0
100
AcDbLine
 10
569.419917
 20
175.447038
 30
0.0
 11
569.419917
 21
186.946038
 31
0.0
  0
LINE
  5
44DE
100
AcDbEntity
  8
0
100
AcDbLine
 10
566.190917
 20
175.946038
 30
0.0
 11
566.190917
 21
188.946038
 31
0.0
  0
LINE
  5
44DF
100
AcDbEntity
  8
0
100
AcDbLine
 10
588.254917
 20
186.946038
 30
0.0
 11
594.785917
 21
186.946038
 31
0.0
  0
POLYLINE
  5
44E0
100
AcDbEntity
  8
0
  6
CONTINUOUS
100
AcDb3dPolyline
 66
     1
 10
0.0
 20
0.0
 30
0.0
 70
     8
  0
VERTEX
  5
44E1
100
AcDbEntity
  8
0
  6
CONTINUOUS
100
AcDbVertex
100
AcDb3dPolylineVertex
 10
585.656917
 20
175.446324
 30
0.0
 70
    32
1001
ACAD
1000
R13OBJECT
1002
{
1005
0
1002
}
  0
VERTEX
  5
44E2
100
AcDbEntity
  8
0
  6
CONTINUOUS
100
AcDbVertex
100
AcDb3dPolylineVertex
 10
585.831327
 20
174.695039
 30
0.0
 70
    32
1001
ACAD
1000
R13OBJECT
1002
{
1005
0
1002
}
  0
VERTEX
  5
44E3
100
AcDbEntity
  8
0
  6
CONTINUOUS
100
AcDbVertex
100
AcDb3dPolylineVertex
 10
586.308154
 20
174.145704
 30
0.0
 70
    32
1001
ACAD
1000
R13OBJECT
1002
{
1005
0
1002
}
  0
VERTEX
  5
44E4
100
AcDbEntity
  8
0
  6
CONTINUOUS
100
AcDbVertex
100
AcDb3dPolylineVertex
 10
586.959173
 20
173.946043
 30
0.0
 70
    32
1001
ACAD
1000
R13OBJECT
1002
{
1005
0
1002
}
  0
VERTEX
  5
44E5
100
AcDbEntity
  8
0
  6
CONTINUOUS
100
AcDbVertex
100
AcDb3dPolylineVertex
 10
587.609319
 20
174.149746
 30
0.0
 70
    32
1001
ACAD
1000
R13OBJECT
1002
{
1005
0
1002
}
  0
VERTEX
  5
44E6
100
AcDbEntity
  8
0
  6
CONTINUOUS
100
AcDbVertex
100
AcDb3dPolylineVertex
 10
588.083761
 20
174.702034
 30
0.0
 70
    32
1001
ACAD
1000
R13OBJECT
1002
{
1005
0
1002
}
  0
VERTEX
  5
44E7
100
AcDbEntity
  8
0
  6
CONTINUOUS
100
AcDbVertex
100
AcDb3dPolylineVertex
 10
588.254917
 20
175.454393
 30
0.0
 70
    32
1001
ACAD
1000
R13OBJECT
1002
{
1005
0
1002
}
  0
SEQEND
  5
44E8
100
AcDbEntity
  8
0
  6
CONTINUOUS
1001
ACAD
1000
R13OBJECT
1002
{
1005
0
1002
}
  0
LINE
  5
44E9
100
AcDbEntity
  8
0
100
AcDbLine
 10
585.656917
 20
186.946038
 30
0.0
 11
585.656917
 21
175.446038
 31
0.0
  0
LINE
  5
44EA
100
AcDbEntity
  8
0
100
AcDbLine
 10
594.785917
 20
186.946038
 30
0.0
 11
594.785917
 21
175.446038
 31
0.0
  0
LINE
  5
44EB
100
AcDbEntity
  8
0
100
AcDbLine
 10
588.254917
 20
175.446038
 30
0.0
 11
588.254917
 21
186.946038
 31
0.0
  0
LINE
  5
44EC
100
AcDbEntity
  8
0
100
AcDbLine
 10
607.690917
 20
186.946038
 30
0.0
 11
614.699917
 21
186.946038
 31
0.0
  0
LINE
  5
44ED
100
AcDbEntity
  8
0
100
AcDbLine
 10
597.682917
 20
186.946038
 30
0.0
 11
604.691917
 21
186.946038
 31
0.0
  0
ARC
  5
44EE
100
AcDbEntity
  8
0
100
AcDbCircle
 10
606.191426
 20
175.445847
 30
0.0
 40
1.499767
100
AcDbArc
 50
181.062465
 51
358.899325
  0
LINE
  5
44EF
100
AcDbEntity
  8
0
100
AcDbLine
 10
604.691917
 20
186.946038
 30
0.0
 11
604.691917
 21
175.418038
 31
0.0
  0
LINE
  5
44F0
100
AcDbEntity
  8
0
100
AcDbLine
 10
607.690917
 20
175.417038
 30
0.0
 11
607.690917
 21
186.946038
 31
0.0
  0
LINE
  5
44F1
100
AcDbEntity
  8
0
100
AcDbLine
 10
597.682917
 20
175.446038
 30
0.0
 11
597.682917
 21
186.946038
 31
0.0
  0
LINE
  5
44F2
100
AcDbEntity
  8
0
100
AcDbLine
 10
617.596917
 20
186.946038
 30
0.0
 11
624.127917
 21
186.946038
 31
0.0
  0
POLYLINE
  5
44F3
100
AcDbEntity
  8
0
  6
CONTINUOUS
100
AcDb3dPolyline
 66
     1
 10
0.0
 20
0.0
 30
0.0
 70
     8
  0
VERTEX
  5
44F4
100
AcDbEntity
  8
0
  6
CONTINUOUS
100
AcDbVertex
100
AcDb3dPolylineVertex
 10
624.126917
 20
175.446324
 30
0.0
 70
    32
1001
ACAD
1000
R13OBJECT
1002
{
1005
0
1002
}
  0
VERTEX
  5
44F5
100
AcDbEntity
  8
0
  6
CONTINUOUS
100
AcDbVertex
100
AcDb3dPolylineVertex
 10
624.301327
 20
174.695039
 30
0.0
 70
    32
1001
ACAD
1000
R13OBJECT
1002
{
1005
0
1002
}
  0
VERTEX
  5
44F6
100
AcDbEntity
  8
0
  6
CONTINUOUS
100
AcDbVertex
100
AcDb3dPolylineVertex
 10
624.778154
 20
174.145704
 30
0.0
 70
    32
1001
ACAD
1000
R13OBJECT
1002
{
1005
0
1002
}
  0
VERTEX
  5
44F7
100
AcDbEntity
  8
0
  6
CONTINUOUS
100
AcDbVertex
100
AcDb3dPolylineVertex
 10
625.429173
 20
173.946043
 30
0.0
 70
    32
1001
ACAD
1000
R13OBJECT
1002
{
1005
0
1002
}
  0
VERTEX
  5
44F8
100
AcDbEntity
  8
0
  6
CONTINUOUS
100
AcDbVertex
100
AcDb3dPolylineVertex
 10
626.079319
 20
174.149746
 30
0.0
 70
    32
1001
ACAD
1000
R13OBJECT
1002
{
1005
0
1002
}
  0
VERTEX
  5
44F9
100
AcDbEntity
  8
0
  6
CONTINUOUS
100
AcDbVertex
100
AcDb3dPolylineVertex
 10
626.553761
 20
174.702034
 30
0.0
 70
    32
1001
ACAD
1000
R13OBJECT
1002
{
1005
0
1002
}
  0
VERTEX
  5
44FA
100
AcDbEntity
  8
0
  6
CONTINUOUS
100
AcDbVertex
100
AcDb3dPolylineVertex
 10
626.724917
 20
175.454393
 30
0.0
 70
    32
1001
ACAD
1000
R13OBJECT
1002
{
1005
0
1002
}
  0
SEQEND
  5
44FB
100
AcDbEntity
  8
0
  6
CONTINUOUS
1001
ACAD
1000
R13OBJECT
1002
{
1005
0
1002
}
  0
LINE
  5
44FC
100
AcDbEntity
  8
0
100
AcDbLine
 10
617.596917
 20
175.446038
 30
0.0
 11
617.596917
 21
186.946038
 31
0.0
  0
LINE
  5
44FD
100
AcDbEntity
  8
0
100
AcDbLine
 10
624.127917
 20
186.946038
 30
0.0
 11
624.127917
 21
175.446038
 31
0.0
  0
LINE
  5
44FE
100
AcDbEntity
  8
0
100
AcDbLine
 10
626.724917
 20
175.446038
 30
0.0
 11
626.724917
 21
186.946038
 31
0.0
  0
LINE
  5
44FF
100
AcDbEntity
  8
0
100
AcDbLine
 10
614.699917
 20
186.946038
 30
0.0
 11
614.699917
 21
175.446038
 31
0.0
  0
ARC
  5
4500
100
AcDbEntity
  8
0
100
AcDbCircle
 10
616.148417
 20
175.395422
 30
0.0
 40
1.449384
100
AcDbArc
 50
177.998686
 51
2.001314
  0
LINE
  5
4501
100
AcDbEntity
  8
0
100
AcDbLine
 10
620.190917
 20
228.946038
 30
0.0
 11
620.190917
 21
195.790009
 31
0.0
  0
LINE
  5
4502
100
AcDbEntity
  8
0
100
AcDbLine
 10
592.190917
 20
195.789769
 30
0.0
 11
592.190917
 21
228.946038
 31
0.0
  0
ARC
  5
4503
100
AcDbEntity
  8
0
100
AcDbCircle
 10
606.190917
 20
209.638012
 30
0.0
 40
19.691974
100
AcDbArc
 50
224.687775
 51
315.312225
  0
ARC
  5
4504
100
AcDbEntity
  8
0
100
AcDbCircle
 10
606.119121
 20
197.047067
 30
0.0
 40
21.899089
100
AcDbArc
 50
50.015937
 51
129.495492
  0
LINE
  5
4505
100
AcDbEntity
  8
0
100
AcDbLine
 10
589.190917
 20
211.946038
 30
0.0
 11
589.190917
 21
198.946038
 31
0.0
  0
ARC
  5
4506
100
AcDbEntity
  8
0
100
AcDbCircle
 10
606.191417
 20
137.445838
 30
0.0
 40
60.000236
100
AcDbArc
 50
103.493836
 51
118.955036
  0
LINE
  5
4507
100
AcDbEntity
  8
0
100
AcDbLine
 10
590.190917
 20
198.946038
 30
0.0
 11
589.190917
 21
198.946038
 31
0.0
  0
ARC
  5
4508
100
AcDbEntity
  8
0
100
AcDbCircle
 10
590.190917
 20
196.946038
 30
0.0
 40
2.0
100
AcDbArc
 50
0.0
 51
90.0
  0
LINE
  5
4509
100
AcDbEntity
  8
0
100
AcDbLine
 10
589.190917
 20
198.946038
 30
0.0
 11
590.190917
 21
198.946038
 31
0.0
  0
ARC
  5
450A
100
AcDbEntity
  8
0
100
AcDbCircle
 10
590.190917
 20
213.946038
 30
0.0
 40
2.0
100
AcDbArc
 50
270.0
 51
0.0
  0
LINE
  5
450B
100
AcDbEntity
  8
0
100
AcDbLine
 10
590.190917
 20
211.946038
 30
0.0
 11
589.190917
 21
211.946038
 31
0.0
  0
LINE
  5
450C
100
AcDbEntity
  8
0
100
AcDbLine
 10
592.190917
 20
228.946038
 30
0.0
 11
620.190917
 21
228.946038
 31
0.0
  0
LINE
  5
450D
100
AcDbEntity
  8
0
100
AcDbLine
 10
645.190917
 20
189.946038
 30
0.0
 11
646.190917
 21
188.946038
 31
0.0
  0
LINE
  5
450E
100
AcDbEntity
  8
0
100
AcDbLine
 10
636.190917
 20
173.946038
 30
0.0
 11
636.190917
 21
156.446038
 31
0.0
  0
LINE
  5
450F
100
AcDbEntity
  8
0
100
AcDbLine
 10
643.738917
 20
186.946038
 30
0.0
 11
644.661917
 21
186.946038
 31
0.0
  0
LINE
  5
4510
100
AcDbEntity
  8
0
100
AcDbLine
 10
640.257917
 20
186.946038
 30
0.0
 11
642.962917
 21
186.946038
 31
0.0
  0
LINE
  5
4511
100
AcDbEntity
  8
0
100
AcDbLine
 10
634.454917
 20
186.946038
 30
0.0
 11
638.757917
 21
186.946038
 31
0.0
  0
LINE
  5
4512
100
AcDbEntity
  8
0
100
AcDbLine
 10
644.661917
 20
186.946038
 30
0.0
 11
646.190917
 21
186.946038
 31
0.0
  0
POLYLINE
  5
4513
100
AcDbEntity
  8
0
  6
CONTINUOUS
100
AcDb3dPolyline
 66
     1
 10
0.0
 20
0.0
 30
0.0
 70
     8
  0
VERTEX
  5
4514
100
AcDbEntity
  8
0
  6
CONTINUOUS
100
AcDbVertex
100
AcDb3dPolylineVertex
 10
632.33588
 20
175.446038
 30
0.0
 70
    32
1001
ACAD
1000
R13OBJECT
1002
{
1005
0
1002
}
  0
VERTEX
  5
4515
100
AcDbEntity
  8
0
  6
CONTINUOUS
100
AcDbVertex
100
AcDb3dPolylineVertex
 10
632.538377
 20
174.56436
 30
0.0
 70
    32
1001
ACAD
1000
R13OBJECT
1002
{
1005
0
1002
}
  0
VERTEX
  5
4516
100
AcDbEntity
  8
0
  6
CONTINUOUS
100
AcDbVertex
100
AcDb3dPolylineVertex
 10
633.068227
 20
174.019453
 30
0.0
 70
    32
1001
ACAD
1000
R13OBJECT
1002
{
1005
0
1002
}
  0
VERTEX
  5
4517
100
AcDbEntity
  8
0
  6
CONTINUOUS
100
AcDbVertex
100
AcDb3dPolylineVertex
 10
633.723046
 20
174.019453
 30
0.0
 70
    32
1001
ACAD
1000
R13OBJECT
1002
{
1005
0
1002
}
  0
VERTEX
  5
4518
100
AcDbEntity
  8
0
  6
CONTINUOUS
100
AcDbVertex
100
AcDb3dPolylineVertex
 10
634.252714
 20
174.56436
 30
0.0
 70
    32
1001
ACAD
1000
R13OBJECT
1002
{
1005
0
1002
}
  0
VERTEX
  5
4519
100
AcDbEntity
  8
0
  6
CONTINUOUS
100
AcDbVertex
100
AcDb3dPolylineVertex
 10
634.454917
 20
175.446038
 30
0.0
 70
    32
1001
ACAD
1000
R13OBJECT
1002
{
1005
0
1002
}
  0
SEQEND
  5
451A
100
AcDbEntity
  8
0
  6
CONTINUOUS
1001
ACAD
1000
R13OBJECT
1002
{
1005
0
1002
}
  0
POLYLINE
  5
451B
100
AcDbEntity
  8
0
  6
CONTINUOUS
100
AcDb3dPolyline
 66
     1
 10
0.0
 20
0.0
 30
0.0
 70
     8
  0
VERTEX
  5
451C
100
AcDbEntity
  8
0
  6
CONTINUOUS
100
AcDbVertex
100
AcDb3dPolylineVertex
 10
642.962917
 20
175.447038
 30
0.0
 70
    32
1001
ACAD
1000
R13OBJECT
1002
{
1005
0
1002
}
  0
VERTEX
  5
451D
100
AcDbEntity
  8
0
  6
CONTINUOUS
100
AcDbVertex
100
AcDb3dPolylineVertex
 10
643.037018
 20
174.564772
 30
0.0
 70
    32
1001
ACAD
1000
R13OBJECT
1002
{
1005
0
1002
}
  0
VERTEX
  5
451E
100
AcDbEntity
  8
0
  6
CONTINUOUS
100
AcDbVertex
100
AcDb3dPolylineVertex
 10
643.231018
 20
174.019502
 30
0.0
 70
    32
1001
ACAD
1000
R13OBJECT
1002
{
1005
0
1002
}
  0
VERTEX
  5
451F
100
AcDbEntity
  8
0
  6
CONTINUOUS
100
AcDbVertex
100
AcDb3dPolylineVertex
 10
643.470816
 20
174.019502
 30
0.0
 70
    32
1001
ACAD
1000
R13OBJECT
1002
{
1005
0
1002
}
  0
VERTEX
  5
4520
100
AcDbEntity
  8
0
  6
CONTINUOUS
100
AcDbVertex
100
AcDb3dPolylineVertex
 10
643.664816
 20
174.564772
 30
0.0
 70
    32
1001
ACAD
1000
R13OBJECT
1002
{
1005
0
1002
}
  0
VERTEX
  5
4521
100
AcDbEntity
  8
0
  6
CONTINUOUS
100
AcDbVertex
100
AcDb3dPolylineVertex
 10
643.738917
 20
175.447038
 30
0.0
 70
    32
1001
ACAD
1000
R13OBJECT
1002
{
1005
0
1002
}
  0
SEQEND
  5
4522
100
AcDbEntity
  8
0
  6
CONTINUOUS
1001
ACAD
1000
R13OBJECT
1002
{
1005
0
1002
}
  0
POLYLINE
  5
4523
100
AcDbEntity
  8
0
  6
CONTINUOUS
100
AcDb3dPolyline
 66
     1
 10
0.0
 20
0.0
 30
0.0
 70
     8
  0
VERTEX
  5
4524
100
AcDbEntity
  8
0
  6
CONTINUOUS
100
AcDbVertex
100
AcDb3dPolylineVertex
 10
638.75988
 20
175.446038
 30
0.0
 70
    32
1001
ACAD
1000
R13OBJECT
1002
{
1005
0
1002
}
  0
VERTEX
  5
4525
100
AcDbEntity
  8
0
  6
CONTINUOUS
100
AcDbVertex
100
AcDb3dPolylineVertex
 10
638.902929
 20
174.56436
 30
0.0
 70
    32
1001
ACAD
1000
R13OBJECT
1002
{
1005
0
1002
}
  0
VERTEX
  5
4526
100
AcDbEntity
  8
0
  6
CONTINUOUS
100
AcDbVertex
100
AcDb3dPolylineVertex
 10
639.277439
 20
174.019453
 30
0.0
 70
    32
1001
ACAD
1000
R13OBJECT
1002
{
1005
0
1002
}
  0
VERTEX
  5
4527
100
AcDbEntity
  8
0
  6
CONTINUOUS
100
AcDbVertex
100
AcDb3dPolylineVertex
 10
639.740358
 20
174.019453
 30
0.0
 70
    32
1001
ACAD
1000
R13OBJECT
1002
{
1005
0
1002
}
  0
VERTEX
  5
4528
100
AcDbEntity
  8
0
  6
CONTINUOUS
100
AcDbVertex
100
AcDb3dPolylineVertex
 10
640.114867
 20
174.56436
 30
0.0
 70
    32
1001
ACAD
1000
R13OBJECT
1002
{
1005
0
1002
}
  0
VERTEX
  5
4529
100
AcDbEntity
  8
0
  6
CONTINUOUS
100
AcDbVertex
100
AcDb3dPolylineVertex
 10
640.257917
 20
175.446038
 30
0.0
 70
    32
1001
ACAD
1000
R13OBJECT
1002
{
1005
0
1002
}
  0
SEQEND
  5
452A
100
AcDbEntity
  8
0
  6
CONTINUOUS
1001
ACAD
1000
R13OBJECT
1002
{
1005
0
1002
}
  0
POLYLINE
  5
452B
100
AcDbEntity
  8
0
  6
CONTINUOUS
100
AcDb3dPolyline
 66
     1
 10
0.0
 20
0.0
 30
0.0
 70
     8
  0
VERTEX
  5
452C
100
AcDbEntity
  8
0
  6
CONTINUOUS
100
AcDbVertex
100
AcDb3dPolylineVertex
 10
644.006917
 20
173.946038
 30
0.0
 70
    32
1001
ACAD
1000
R13OBJECT
1002
{
1005
0
1002
}
  0
VERTEX
  5
452D
100
AcDbEntity
  8
0
  6
CONTINUOUS
100
AcDbVertex
100
AcDb3dPolylineVertex
 10
644.334417
 20
174.147
 30
0.0
 70
    32
1001
ACAD
1000
R13OBJECT
1002
{
1005
0
1002
}
  0
VERTEX
  5
452E
100
AcDbEntity
  8
0
  6
CONTINUOUS
100
AcDbVertex
100
AcDb3dPolylineVertex
 10
644.574164
 20
174.696038
 30
0.0
 70
    32
1001
ACAD
1000
R13OBJECT
1002
{
1005
0
1002
}
  0
VERTEX
  5
452F
100
AcDbEntity
  8
0
  6
CONTINUOUS
100
AcDbVertex
100
AcDb3dPolylineVertex
 10
644.661917
 20
175.446038
 30
0.0
 70
    32
1001
ACAD
1000
R13OBJECT
1002
{
1005
0
1002
}
  0
SEQEND
  5
4530
100
AcDbEntity
  8
0
  6
CONTINUOUS
1001
ACAD
1000
R13OBJECT
1002
{
1005
0
1002
}
  0
ARC
  5
4531
100
AcDbEntity
  8
0
100
AcDbCircle
 10
644.191895
 20
175.94506
 30
0.0
 40
1.999023
100
AcDbArc
 50
269.971978
 51
0.028022
  0
LINE
  5
4532
100
AcDbEntity
  8
0
100
AcDbLine
 10
638.757917
 20
186.946038
 30
0.0
 11
638.757917
 21
175.446038
 31
0.0
  0
LINE
  5
4533
100
AcDbEntity
  8
0
100
AcDbLine
 10
640.257917
 20
175.446038
 30
0.0
 11
640.257917
 21
186.946038
 31
0.0
  0
LINE
  5
4534
100
AcDbEntity
  8
0
100
AcDbLine
 10
642.962917
 20
186.946038
 30
0.0
 11
642.962917
 21
175.447038
 31
0.0
  0
LINE
  5
4535
100
AcDbEntity
  8
0
100
AcDbLine
 10
643.738917
 20
175.446038
 30
0.0
 11
643.738917
 21
186.946038
 31
0.0
  0
LINE
  5
4536
100
AcDbEntity
  8
0
100
AcDbLine
 10
644.661917
 20
186.946038
 30
0.0
 11
644.661917
 21
175.446038
 31
0.0
  0
LINE
  5
4537
100
AcDbEntity
  8
0
100
AcDbLine
 10
646.190917
 20
188.946038
 30
0.0
 11
646.190917
 21
175.946038
 31
0.0
  0
LINE
  5
4538
100
AcDbEntity
  8
0
100
AcDbLine
 10
632.333917
 20
186.946038
 30
0.0
 11
632.333917
 21
175.446038
 31
0.0
  0
LINE
  5
4539
100
AcDbEntity
  8
0
100
AcDbLine
 10
634.454917
 20
175.446038
 30
0.0
 11
634.454917
 21
186.946038
 31
0.0
  0
TEXT
  5
453A
100
AcDbEntity
  8
0
100
AcDbText
 10
141.857366
 20
329.854928
 30
0.0
 40
10.5
  1
平面
100
AcDbText
  0
TEXT
  5
453B
100
AcDbEntity
  8
0
100
AcDbText
 10
141.857366
 20
479.230164
 30
0.0
 40
10.5
  1
背面
100
AcDbText
  0
LINE
  5
453C
100
AcDbEntity
  8
0
100
AcDbLine
 10
488.242114
 20
338.855123
 30
0.0
 11
501.764925
 21
338.855123
 31
0.0
  0
LINE
  5
453D
100
AcDbEntity
  8
0
100
AcDbLine
 10
488.242114
 20
320.854733
 30
0.0
 11
501.764925
 21
320.854733
 31
0.0
  0
ARC
  5
453E
100
AcDbEntity
  8
0
100
AcDbCircle
 10
478.841978
 20
349.104928
 30
0.0
 40
1.5
100
AcDbArc
 50
298.883778
 51
121.116222
  0
ARC
  5
453F
100
AcDbEntity
  8
0
100
AcDbCircle
 10
412.158022
 20
349.104928
 30
0.0
 40
1.5
100
AcDbArc
 50
58.883778
 51
241.116222
  0
ARC
  5
4540
100
AcDbEntity
  8
0
100
AcDbCircle
 10
445.5
 20
329.854928
 30
0.0
 40
29.047375
100
AcDbArc
 50
208.814228
 51
151.185772
  0
CIRCLE
  5
4541
100
AcDbEntity
  8
0
100
AcDbCircle
 10
445.5
 20
329.854928
 30
0.0
 40
38.5
  0
CIRCLE
  5
4542
100
AcDbEntity
  8
0
100
AcDbCircle
 10
445.5
 20
329.854928
 30
0.0
 40
40.0
  0
LINE
  5
4543
100
AcDbEntity
  8
0
100
AcDbLine
 10
455.5
 20
315.854928
 30
0.0
 11
417.5
 21
315.854928
 31
0.0
  0
LINE
  5
4544
100
AcDbEntity
  8
0
100
AcDbLine
 10
455.5
 20
343.854928
 30
0.0
 11
417.5
 21
343.854928
 31
0.0
  0
ARC
  5
4545
100
AcDbEntity
  8
0
100
AcDbCircle
 10
426.25
 20
296.51295
 30
0.0
 40
1.5
100
AcDbArc
 50
148.883778
 51
331.116222
  0
ARC
  5
4546
100
AcDbEntity
  8
0
100
AcDbCircle
 10
412.158022
 20
310.604928
 30
0.0
 40
1.5
100
AcDbArc
 50
118.883778
 51
301.116222
  0
ARC
  5
4547
100
AcDbEntity
  8
0
100
AcDbCircle
 10
418.276389
 20
302.631317
 30
0.0
 40
1.5
100
AcDbArc
 50
133.883778
 51
316.116222
  0
ARC
  5
4548
100
AcDbEntity
  8
0
100
AcDbCircle
 10
445.5
 20
329.854928
 30
0.0
 40
29.047375
100
AcDbArc
 50
164.567049
 51
195.432951
  0
LINE
  5
4549
100
AcDbEntity
  8
0
100
AcDbLine
 10
417.5
 20
315.854928
 30
0.0
 11
417.5
 21
343.854928
 31
0.0
  0
ARC
  5
454A
100
AcDbEntity
  8
0
100
AcDbCircle
 10
408.311856
 20
319.890395
 30
0.0
 40
1.5
100
AcDbArc
 50
103.883778
 51
286.116222
  0
ARC
  5
454B
100
AcDbEntity
  8
0
100
AcDbCircle
 10
407.0
 20
329.854928
 30
0.0
 40
1.5
100
AcDbArc
 50
88.883778
 51
271.116222
  0
ARC
  5
454C
100
AcDbEntity
  8
0
100
AcDbCircle
 10
408.311856
 20
339.819461
 30
0.0
 40
1.5
100
AcDbArc
 50
73.883778
 51
256.116222
  0
LINE
  5
454D
100
AcDbEntity
  8
0
100
AcDbLine
 10
455.5
 20
312.854928
 30
0.0
 11
455.5
 21
315.854928
 31
0.0
  0
LINE
  5
454E
100
AcDbEntity
  8
0
100
AcDbLine
 10
435.5
 20
312.854928
 30
0.0
 11
435.5
 21
315.854928
 31
0.0
  0
ARC
  5
454F
100
AcDbEntity
  8
0
100
AcDbCircle
 10
464.75
 20
296.51295
 30
0.0
 40
1.5
100
AcDbArc
 50
208.883778
 51
31.116222
  0
ARC
  5
4550
100
AcDbEntity
  8
0
100
AcDbCircle
 10
445.5
 20
291.354928
 30
0.0
 40
1.5
100
AcDbArc
 50
178.883778
 51
1.116222
  0
ARC
  5
4551
100
AcDbEntity
  8
0
100
AcDbCircle
 10
435.535467
 20
292.666784
 30
0.0
 40
1.5
100
AcDbArc
 50
163.883778
 51
346.116222
  0
ARC
  5
4552
100
AcDbEntity
  8
0
100
AcDbCircle
 10
455.464533
 20
292.666784
 30
0.0
 40
1.5
100
AcDbArc
 50
193.883778
 51
16.116222
  0
LINE
  5
4553
100
AcDbEntity
  8
0
100
AcDbLine
 10
455.5
 20
312.854928
 30
0.0
 11
435.5
 21
312.854928
 31
0.0
  0
ARC
  5
4554
100
AcDbEntity
  8
0
100
AcDbCircle
 10
478.841978
 20
310.604928
 30
0.0
 40
1.5
100
AcDbArc
 50
238.883778
 51
61.116222
  0
ARC
  5
4555
100
AcDbEntity
  8
0
100
AcDbCircle
 10
472.723611
 20
302.631317
 30
0.0
 40
1.5
100
AcDbArc
 50
223.883778
 51
46.116222
  0
POLYLINE
  5
4556
100
AcDbEntity
  8
0
100
AcDb2dPolyline
 66
     1
 10
0.0
 20
0.0
 30
0.0
  0
VERTEX
  5
47AE
100
AcDbEntity
  8
0
100
AcDbVertex
100
AcDb2dVertex
 10
455.5
 20
315.854928
 30
0.0
 42
0.074019
  0
VERTEX
  5
47AF
100
AcDbEntity
  8
0
100
AcDbVertex
100
AcDb2dVertex
 10
463.022438
 20
316.974662
 30
0.0
 42
0.084778
  0
VERTEX
  5
47B0
100
AcDbEntity
  8
0
100
AcDbVertex
100
AcDb2dVertex
 10
468.968528
 20
319.955433
 30
0.0
 42
0.106341
  0
VERTEX
  5
47B1
100
AcDbEntity
  8
0
100
AcDbVertex
100
AcDb2dVertex
 10
473.204199
 20
324.735658
 30
0.0
 42
0.129005
  0
VERTEX
  5
47B2
100
AcDbEntity
  8
0
100
AcDbVertex
100
AcDb2dVertex
 10
474.547375
 20
329.854928
 30
0.0
 42
0.129005
  0
VERTEX
  5
47B3
100
AcDbEntity
  8
0
100
AcDbVertex
100
AcDb2dVertex
 10
473.204199
 20
334.974198
 30
0.0
 42
0.106341
  0
VERTEX
  5
47B4
100
AcDbEntity
  8
0
100
AcDbVertex
100
AcDb2dVertex
 10
468.968528
 20
339.754423
 30
0.0
 42
0.084778
  0
VERTEX
  5
47B5
100
AcDbEntity
  8
0
100
AcDbVertex
100
AcDb2dVertex
 10
463.022438
 20
342.735194
 30
0.0
 42
0.074019
  0
VERTEX
  5
47B6
100
AcDbEntity
  8
0
100
AcDbVertex
100
AcDb2dVertex
 10
455.5
 20
343.854928
 30
0.0
 42
0.074019
  0
SEQEND
  5
47B7
100
AcDbEntity
  8
0
  0
CIRCLE
  5
4557
100
AcDbEntity
  8
0
100
AcDbCircle
 10
445.5
 20
329.854928
 30
0.0
 40
9.3155
  0
CIRCLE
  5
4558
100
AcDbEntity
  8
0
100
AcDbCircle
 10
445.5
 20
329.854928
 30
0.0
 40
14.0
  0
POLYLINE
  5
4559
100
AcDbEntity
  8
0
100
AcDb2dPolyline
 66
     1
 10
0.0
 20
0.0
 30
0.0
  0
VERTEX
  5
47B8
100
AcDbEntity
  8
0
100
AcDbVertex
100
AcDb2dVertex
 10
487.070146
 20
322.152156
 30
0.0
 42
0.032403
  0
VERTEX
  5
47B9
100
AcDbEntity
  8
0
100
AcDbVertex
100
AcDb2dVertex
 10
487.566957
 20
321.228986
 30
0.0
 42
0.258622
  0
VERTEX
  5
47BA
100
AcDbEntity
  8
0
100
AcDbVertex
100
AcDb2dVertex
 10
488.242114
 20
320.854733
 30
0.0
 42
0.258622
  0
VERTEX
  5
47BB
100
AcDbEntity
  8
0
100
AcDbVertex
100
AcDb2dVertex
 10
488.917272
 20
321.228986
 30
0.0
 42
0.076455
  0
VERTEX
  5
47BC
100
AcDbEntity
  8
0
100
AcDbVertex
100
AcDb2dVertex
 10
489.889267
 20
323.490829
 30
0.0
 42
0.036632
  0
VERTEX
  5
47BD
100
AcDbEntity
  8
0
100
AcDbVertex
100
AcDb2dVertex
 10
490.373624
 20
326.152122
 30
0.0
 42
0.026706
  0
VERTEX
  5
47BE
100
AcDbEntity
  8
0
100
AcDbVertex
100
AcDb2dVertex
 10
490.571539
 20
329.854928
 30
0.0
 42
0.026706
  0
VERTEX
  5
47BF
100
AcDbEntity
  8
0
100
AcDbVertex
100
AcDb2dVertex
 10
490.373624
 20
333.557734
 30
0.0
 42
0.036632
  0
VERTEX
  5
47C0
100
AcDbEntity
  8
0
100
AcDbVertex
100
AcDb2dVertex
 10
489.889267
 20
336.219027
 30
0.0
 42
0.076455
  0
VERTEX
  5
47C1
100
AcDbEntity
  8
0
100
AcDbVertex
100
AcDb2dVertex
 10
488.917272
 20
338.480869
 30
0.0
 42
0.258622
  0
VERTEX
  5
47C2
100
AcDbEntity
  8
0
100
AcDbVertex
100
AcDb2dVertex
 10
488.242114
 20
338.855123
 30
0.0
 42
0.258622
  0
VERTEX
  5
47C3
100
AcDbEntity
  8
0
100
AcDbVertex
100
AcDb2dVertex
 10
487.566957
 20
338.480869
 30
0.0
 42
0.032403
  0
VERTEX
  5
47C4
100
AcDbEntity
  8
0
100
AcDbVertex
100
AcDb2dVertex
 10
487.070146
 20
337.5577
 30
0.0
 42
0.036632
  0
SEQEND
  5
47C5
100
AcDbEntity
  8
0
  0
POLYLINE
  5
455A
100
AcDbEntity
  8
0
100
AcDb2dPolyline
 66
     1
 10
0.0
 20
0.0
 30
0.0
  0
VERTEX
  5
47C6
100
AcDbEntity
  8
0
100
AcDbVertex
100
AcDb2dVertex
 10
487.77846
 20
323.923112
 30
0.0
 42
0.125642
  0
VERTEX
  5
47C7
100
AcDbEntity
  8
0
100
AcDbVertex
100
AcDb2dVertex
 10
487.968319
 20
324.104431
 30
0.0
 42
0.076448
  0
VERTEX
  5
47C8
100
AcDbEntity
  8
0
100
AcDbVertex
100
AcDb2dVertex
 10
488.616225
 20
325.612309
 30
0.0
 42
0.036628
  0
VERTEX
  5
47C9
100
AcDbEntity
  8
0
100
AcDbVertex
100
AcDb2dVertex
 10
488.939077
 20
327.386452
 30
0.0
 42
0.026702
  0
VERTEX
  5
47CA
100
AcDbEntity
  8
0
100
AcDbVertex
100
AcDb2dVertex
 10
489.071
 20
329.854928
 30
0.0
 42
0.026702
  0
VERTEX
  5
47CB
100
AcDbEntity
  8
0
100
AcDbVertex
100
AcDb2dVertex
 10
488.939077
 20
332.323403
 30
0.0
 42
0.036628
  0
VERTEX
  5
47CC
100
AcDbEntity
  8
0
100
AcDbVertex
100
AcDb2dVertex
 10
488.616225
 20
334.097547
 30
0.0
 42
0.076448
  0
VERTEX
  5
47CD
100
AcDbEntity
  8
0
100
AcDbVertex
100
AcDb2dVertex
 10
487.968319
 20
335.605425
 30
0.0
 42
0.125642
  0
VERTEX
  5
47CE
100
AcDbEntity
  8
0
100
AcDbVertex
100
AcDb2dVertex
 10
487.77846
 20
335.786744
 30
0.0
 42
0.258638
  0
SEQEND
  5
47CF
100
AcDbEntity
  8
0
  0
POLYLINE
  5
455B
100
AcDbEntity
  8
0
100
AcDb2dPolyline
 66
     1
 10
0.0
 20
0.0
 30
0.0
  0
VERTEX
  5
47D0
100
AcDbEntity
  8
0
100
AcDbVertex
100
AcDb2dVertex
 10
487.67266
 20
323.376227
 30
0.0
 42
0.187131
  0
VERTEX
  5
47D1
100
AcDbEntity
  8
0
100
AcDbVertex
100
AcDb2dVertex
 10
488.005489
 20
323.625279
 30
0.0
 42
0.076446
  0
VERTEX
  5
47D2
100
AcDbEntity
  8
0
100
AcDbVertex
100
AcDb2dVertex
 10
488.707354
 20
325.258805
 30
0.0
 42
0.036626
  0
VERTEX
  5
47D3
100
AcDbEntity
  8
0
100
AcDbVertex
100
AcDb2dVertex
 10
489.057091
 20
327.180772
 30
0.0
 42
0.026701
  0
VERTEX
  5
47D4
100
AcDbEntity
  8
0
100
AcDbVertex
100
AcDb2dVertex
 10
489.2
 20
329.854928
 30
0.0
 42
0.026701
  0
VERTEX
  5
47D5
100
AcDbEntity
  8
0
100
AcDbVertex
100
AcDb2dVertex
 10
489.057091
 20
332.529083
 30
0.0
 42
0.036626
  0
VERTEX
  5
47D6
100
AcDbEntity
  8
0
100
AcDbVertex
100
AcDb2dVertex
 10
488.707354
 20
334.451051
 30
0.0
 42
0.076446
  0
VERTEX
  5
47D7
100
AcDbEntity
  8
0
100
AcDbVertex
100
AcDb2dVertex
 10
488.005489
 20
336.084576
 30
0.0
 42
0.187131
  0
VERTEX
  5
47D8
100
AcDbEntity
  8
0
100
AcDbVertex
100
AcDb2dVertex
 10
487.67266
 20
336.333629
 30
0.0
 42
0.258644
  0
SEQEND
  5
47D9
100
AcDbEntity
  8
0
  0
LINE
  5
455C
100
AcDbEntity
  8
0
100
AcDbLine
 10
488.82218
 20
330.391737
 30
0.0
 11
487.530569
 21
337.068101
 31
0.0
  0
POLYLINE
  5
455D
100
AcDbEntity
  8
0
100
AcDb2dPolyline
 66
     1
 10
0.0
 20
0.0
 30
0.0
  0
VERTEX
  5
47DA
100
AcDbEntity
  8
0
100
AcDbVertex
100
AcDb2dVertex
 10
487.433
 20
329.854928
 30
0.0
 42
0.011108
  0
VERTEX
  5
47DB
100
AcDbEntity
  8
0
100
AcDbVertex
100
AcDb2dVertex
 10
487.35027
 20
333.578504
 30
0.0
 42
0.015625
  0
VERTEX
  5
47DC
100
AcDbEntity
  8
0
100
AcDbVertex
100
AcDb2dVertex
 10
487.150065
 20
336.219027
 30
0.0
 42
0.036672
  0
VERTEX
  5
47DD
100
AcDbEntity
  8
0
100
AcDbVertex
100
AcDb2dVertex
 10
486.703025
 20
338.672462
 30
0.0
 42
0.341758
  0
VERTEX
  5
47DE
100
AcDbEntity
  8
0
100
AcDbVertex
100
AcDb2dVertex
 10
486.467
 20
338.855123
 30
0.0
 42
0.341758
  0
SEQEND
  5
47DF
100
AcDbEntity
  8
0
  0
POLYLINE
  5
455E
100
AcDbEntity
  8
0
100
AcDb2dPolyline
 66
     1
 10
0.0
 20
0.0
 30
0.0
  0
VERTEX
  5
47E0
100
AcDbEntity
  8
0
100
AcDbVertex
100
AcDb2dVertex
 10
485.501
 20
329.854928
 30
0.0
 42
0.011108
  0
VERTEX
  5
47E1
100
AcDbEntity
  8
0
100
AcDbVertex
100
AcDb2dVertex
 10
485.41827
 20
333.578504
 30
0.0
 42
0.015625
  0
VERTEX
  5
47E2
100
AcDbEntity
  8
0
100
AcDbVertex
100
AcDb2dVertex
 10
485.218065
 20
336.219027
 30
0.0
 42
0.036672
  0
VERTEX
  5
47E3
100
AcDbEntity
  8
0
100
AcDbVertex
100
AcDb2dVertex
 10
484.771025
 20
338.672462
 30
0.0
 42
0.341758
  0
VERTEX
  5
47E4
100
AcDbEntity
  8
0
100
AcDbVertex
100
AcDb2dVertex
 10
484.535
 20
338.855123
 30
0.0
 42
0.341758
  0
SEQEND
  5
47E5
100
AcDbEntity
  8
0
  0
POLYLINE
  5
455F
100
AcDbEntity
  8
0
100
AcDb2dPolyline
 66
     1
 10
0.0
 20
0.0
 30
0.0
  0
VERTEX
  5
47E6
100
AcDbEntity
  8
0
100
AcDbVertex
100
AcDb2dVertex
 10
489.665682
 20
329.854928
 30
0.0
 42
0.026705
  0
VERTEX
  5
47E7
100
AcDbEntity
  8
0
100
AcDbVertex
100
AcDb2dVertex
 10
489.54475
 20
332.117497
 30
0.0
 42
0.036631
  0
VERTEX
  5
47E8
100
AcDbEntity
  8
0
100
AcDbVertex
100
AcDb2dVertex
 10
489.248795
 20
333.743657
 30
0.0
 42
0.076454
  0
VERTEX
  5
47E9
100
AcDbEntity
  8
0
100
AcDbVertex
100
AcDb2dVertex
 10
488.654878
 20
335.125741
 30
0.0
 42
0.169375
  0
VERTEX
  5
47EA
100
AcDbEntity
  8
0
100
AcDbVertex
100
AcDb2dVertex
 10
488.40511
 20
335.326381
 30
0.0
 42
0.258625
  0
SEQEND
  5
47EB
100
AcDbEntity
  8
0
  0
POLYLINE
  5
4560
100
AcDbEntity
  8
0
100
AcDb2dPolyline
 66
     1
 10
0.0
 20
0.0
 30
0.0
  0
VERTEX
  5
47EC
100
AcDbEntity
  8
0
100
AcDbVertex
100
AcDb2dVertex
 10
488.40511
 20
324.383474
 30
0.0
 42
0.169375
  0
VERTEX
  5
47ED
100
AcDbEntity
  8
0
100
AcDbVertex
100
AcDb2dVertex
 10
488.654878
 20
324.584115
 30
0.0
 42
0.076454
  0
VERTEX
  5
47EE
100
AcDbEntity
  8
0
100
AcDbVertex
100
AcDb2dVertex
 10
489.248795
 20
325.966199
 30
0.0
 42
0.036631
  0
VERTEX
  5
47EF
100
AcDbEntity
  8
0
100
AcDbVertex
100
AcDb2dVertex
 10
489.54475
 20
327.592359
 30
0.0
 42
0.026705
  0
VERTEX
  5
47F0
100
AcDbEntity
  8
0
100
AcDbVertex
100
AcDb2dVertex
 10
489.665682
 20
329.854928
 30
0.0
 42
0.026705
  0
SEQEND
  5
47F1
100
AcDbEntity
  8
0
  0
POLYLINE
  5
4561
100
AcDbEntity
  8
0
100
AcDb2dPolyline
 66
     1
 10
0.0
 20
0.0
 30
0.0
  0
VERTEX
  5
47F2
100
AcDbEntity
  8
0
100
AcDbVertex
100
AcDb2dVertex
 10
488.827
 20
329.854928
 30
0.0
 42
0.004489
  0
VERTEX
  5
47F3
100
AcDbEntity
  8
0
100
AcDbVertex
100
AcDb2dVertex
 10
488.82218
 20
330.391737
 30
0.0
 42
0.036651
  0
SEQEND
  5
47F4
100
AcDbEntity
  8
0
  0
POLYLINE
  5
4562
100
AcDbEntity
  8
0
100
AcDb2dPolyline
 66
     1
 10
0.0
 20
0.0
 30
0.0
  0
VERTEX
  5
47F5
100
AcDbEntity
  8
0
100
AcDbVertex
100
AcDb2dVertex
 10
488.82218
 20
329.318118
 30
0.0
 42
0.004489
  0
VERTEX
  5
47F6
100
AcDbEntity
  8
0
100
AcDbVertex
100
AcDb2dVertex
 10
488.827
 20
329.854928
 30
0.0
 42
0.026721
  0
SEQEND
  5
47F7
100
AcDbEntity
  8
0
  0
POLYLINE
  5
4563
100
AcDbEntity
  8
0
100
AcDb2dPolyline
 66
     1
 10
0.0
 20
0.0
 30
0.0
  0
VERTEX
  5
47F8
100
AcDbEntity
  8
0
100
AcDbVertex
100
AcDb2dVertex
 10
486.467
 20
320.854733
 30
0.0
 42
0.341758
  0
VERTEX
  5
47F9
100
AcDbEntity
  8
0
100
AcDbVertex
100
AcDb2dVertex
 10
486.703025
 20
321.037394
 30
0.0
 42
0.036672
  0
VERTEX
  5
47FA
100
AcDbEntity
  8
0
100
AcDbVertex
100
AcDb2dVertex
 10
487.150065
 20
323.490829
 30
0.0
 42
0.015625
  0
VERTEX
  5
47FB
100
AcDbEntity
  8
0
100
AcDbVertex
100
AcDb2dVertex
 10
487.35027
 20
326.131352
 30
0.0
 42
0.011108
  0
VERTEX
  5
47FC
100
AcDbEntity
  8
0
100
AcDbVertex
100
AcDb2dVertex
 10
487.433
 20
329.854928
 30
0.0
 42
0.011108
  0
SEQEND
  5
47FD
100
AcDbEntity
  8
0
  0
POLYLINE
  5
4564
100
AcDbEntity
  8
0
100
AcDb2dPolyline
 66
     1
 10
0.0
 20
0.0
 30
0.0
  0
VERTEX
  5
47FE
100
AcDbEntity
  8
0
100
AcDbVertex
100
AcDb2dVertex
 10
484.535
 20
320.854733
 30
0.0
 42
0.341758
  0
VERTEX
  5
47FF
100
AcDbEntity
  8
0
100
AcDbVertex
100
AcDb2dVertex
 10
484.771025
 20
321.037394
 30
0.0
 42
0.036672
  0
VERTEX
  5
4800
100
AcDbEntity
  8
0
100
AcDbVertex
100
AcDb2dVertex
 10
485.218065
 20
323.490829
 30
0.0
 42
0.015625
  0
VERTEX
  5
4801
100
AcDbEntity
  8
0
100
AcDbVertex
100
AcDb2dVertex
 10
485.41827
 20
326.131352
 30
0.0
 42
0.011108
  0
VERTEX
  5
4802
100
AcDbEntity
  8
0
100
AcDbVertex
100
AcDb2dVertex
 10
485.501
 20
329.854928
 30
0.0
 42
0.011108
  0
SEQEND
  5
4803
100
AcDbEntity
  8
0
  0
LINE
  5
4565
100
AcDbEntity
  8
0
100
AcDbLine
 10
487.037262
 20
322.641755
 30
0.0
 11
487.530569
 21
322.641755
 31
0.0
  0
POLYLINE
  5
4566
100
AcDbEntity
  8
0
100
AcDb2dPolyline
 66
     1
 10
0.0
 20
0.0
 30
0.0
  0
VERTEX
  5
4804
100
AcDbEntity
  8
0
100
AcDbVertex
100
AcDb2dVertex
 10
486.945532
 20
322.11652
 30
0.0
 42
0.210038
  0
VERTEX
  5
4805
100
AcDbEntity
  8
0
100
AcDbVertex
100
AcDb2dVertex
 10
487.401809
 20
322.427338
 30
0.0
 42
0.008972
  0
VERTEX
  5
4806
100
AcDbEntity
  8
0
100
AcDbVertex
100
AcDb2dVertex
 10
487.530569
 20
322.641755
 30
0.0
 42
0.036651
  0
SEQEND
  5
4807
100
AcDbEntity
  8
0
  0
LINE
  5
4567
100
AcDbEntity
  8
0
100
AcDbLine
 10
484.474305
 20
320.854733
 30
0.0
 11
486.467
 21
320.854733
 31
0.0
  0
ARC
  5
4568
100
AcDbEntity
  8
0
100
AcDbCircle
 10
482.688144
 20
319.890395
 30
0.0
 40
1.5
100
AcDbArc
 50
253.883778
 51
76.116222
  0
LINE
  5
4569
100
AcDbEntity
  8
0
100
AcDbLine
 10
488.82218
 20
329.318118
 30
0.0
 11
487.530569
 21
322.641755
 31
0.0
  0
LINE
  5
456A
100
AcDbEntity
  8
0
100
AcDbLine
 10
487.431281
 20
330.391737
 30
0.0
 11
488.82218
 21
330.391737
 31
0.0
  0
LINE
  5
456B
100
AcDbEntity
  8
0
100
AcDbLine
 10
487.431281
 20
329.318118
 30
0.0
 11
488.82218
 21
329.318118
 31
0.0
  0
ARC
  5
456C
100
AcDbEntity
  8
0
100
AcDbCircle
 10
484.0
 20
329.854928
 30
0.0
 40
1.5
100
AcDbArc
 50
268.883778
 51
91.116222
  0
POLYLINE
  5
456D
100
AcDbEntity
  8
0
100
AcDb2dPolyline
 66
     1
 10
0.0
 20
0.0
 30
0.0
  0
VERTEX
  5
4808
100
AcDbEntity
  8
0
100
AcDbVertex
100
AcDb2dVertex
 10
487.530569
 20
337.068101
 30
0.0
 42
0.008972
  0
VERTEX
  5
4809
100
AcDbEntity
  8
0
100
AcDbVertex
100
AcDb2dVertex
 10
487.401809
 20
337.282517
 30
0.0
 42
0.210038
  0
VERTEX
  5
480A
100
AcDbEntity
  8
0
100
AcDbVertex
100
AcDb2dVertex
 10
486.945532
 20
337.593336
 30
0.0
 42
0.258555
  0
SEQEND
  5
480B
100
AcDbEntity
  8
0
  0
LINE
  5
456E
100
AcDbEntity
  8
0
100
AcDbLine
 10
487.037262
 20
337.068101
 30
0.0
 11
487.530569
 21
337.068101
 31
0.0
  0
LINE
  5
456F
100
AcDbEntity
  8
0
100
AcDbLine
 10
484.474305
 20
338.855123
 30
0.0
 11
486.467
 21
338.855123
 31
0.0
  0
ARC
  5
4570
100
AcDbEntity
  8
0
100
AcDbCircle
 10
482.688144
 20
339.819461
 30
0.0
 40
1.5
100
AcDbArc
 50
283.883778
 51
106.116222
  0
ARC
  5
4571
100
AcDbEntity
  8
0
100
AcDbCircle
 10
426.25
 20
363.196906
 30
0.0
 40
1.5
100
AcDbArc
 50
28.883778
 51
211.116222
  0
ARC
  5
4572
100
AcDbEntity
  8
0
100
AcDbCircle
 10
418.276389
 20
357.078539
 30
0.0
 40
1.5
100
AcDbArc
 50
43.883778
 51
226.116222
  0
ARC
  5
4573
100
AcDbEntity
  8
0
100
AcDbCircle
 10
464.75
 20
363.196906
 30
0.0
 40
1.5
100
AcDbArc
 50
328.883778
 51
151.116222
  0
ARC
  5
4574
100
AcDbEntity
  8
0
100
AcDbCircle
 10
445.5
 20
368.354928
 30
0.0
 40
1.5
100
AcDbArc
 50
358.883778
 51
181.116222
  0
ARC
  5
4575
100
AcDbEntity
  8
0
100
AcDbCircle
 10
435.535467
 20
367.043072
 30
0.0
 40
1.5
100
AcDbArc
 50
13.883778
 51
196.116222
  0
ARC
  5
4576
100
AcDbEntity
  8
0
100
AcDbCircle
 10
455.464533
 20
367.043072
 30
0.0
 40
1.5
100
AcDbArc
 50
343.883778
 51
166.116222
  0
ARC
  5
4577
100
AcDbEntity
  8
0
100
AcDbCircle
 10
472.723611
 20
357.078539
 30
0.0
 40
1.5
100
AcDbArc
 50
313.883778
 51
136.116222
  0
POLYLINE
  5
4578
100
AcDbEntity
  8
0
100
AcDb2dPolyline
 66
     1
 10
0.0
 20
0.0
 30
0.0
  0
VERTEX
  5
480C
100
AcDbEntity
  8
0
100
AcDbVertex
100
AcDb2dVertex
 10
501.764925
 20
320.854733
 30
0.0
 42
0.258622
  0
VERTEX
  5
480D
100
AcDbEntity
  8
0
100
AcDbVertex
100
AcDb2dVertex
 10
502.440083
 20
321.228986
 30
0.0
 42
0.076455
  0
VERTEX
  5
480E
100
AcDbEntity
  8
0
100
AcDbVertex
100
AcDb2dVertex
 10
503.412077
 20
323.490829
 30
0.0
 42
0.036632
  0
VERTEX
  5
480F
100
AcDbEntity
  8
0
100
AcDbVertex
100
AcDb2dVertex
 10
503.896435
 20
326.152122
 30
0.0
 42
0.026706
  0
VERTEX
  5
4810
100
AcDbEntity
  8
0
100
AcDbVertex
100
AcDb2dVertex
 10
504.09435
 20
329.854928
 30
0.0
 42
0.026706
  0
VERTEX
  5
4811
100
AcDbEntity
  8
0
100
AcDbVertex
100
AcDb2dVertex
 10
503.896435
 20
333.557734
 30
0.0
 42
0.036632
  0
VERTEX
  5
4812
100
AcDbEntity
  8
0
100
AcDbVertex
100
AcDb2dVertex
 10
503.412077
 20
336.219027
 30
0.0
 42
0.076455
  0
VERTEX
  5
4813
100
AcDbEntity
  8
0
100
AcDbVertex
100
AcDb2dVertex
 10
502.440083
 20
338.480869
 30
0.0
 42
0.258622
  0
VERTEX
  5
4814
100
AcDbEntity
  8
0
100
AcDbVertex
100
AcDb2dVertex
 10
501.764925
 20
338.855123
 30
0.0
 42
0.258622
  0
SEQEND
  5
4815
100
AcDbEntity
  8
0
  0
LINE
  5
4579
100
AcDbEntity
  8
0
100
AcDbLine
 10
475.5
 20
430.947264
 30
0.0
 11
475.5
 21
448.447264
 31
0.0
  0
LINE
  5
457A
100
AcDbEntity
  8
0
100
AcDbLine
 10
415.5
 20
448.447264
 30
0.0
 11
415.5
 21
434.210855
 31
0.0
  0
ARC
  5
457B
100
AcDbEntity
  8
0
100
AcDbCircle
 10
445.496536
 20
430.944641
 30
0.0
 40
29.995812
100
AcDbArc
 50
213.192634
 51
247.579295
  0
LINE
  5
457C
100
AcDbEntity
  8
0
100
AcDbLine
 10
406.185
 20
412.390264
 30
0.0
 11
407.903
 21
412.850264
 31
0.0
  0
ARC
  5
457D
100
AcDbEntity
  8
0
100
AcDbCircle
 10
410.702796
 20
409.161911
 30
0.0
 40
3.047446
100
AcDbArc
 50
0.721108
 51
100.298199
  0
LINE
  5
457E
100
AcDbEntity
  8
0
100
AcDbLine
 10
400.428461
 20
428.188821
 30
0.0
 11
405.086323
 21
410.801516
 31
0.0
  0
LINE
  5
457F
100
AcDbEntity
  8
0
100
AcDbLine
 10
403.567
 20
429.029264
 30
0.0
 11
408.226
 21
411.643264
 31
0.0
  0
LINE
  5
4580
100
AcDbEntity
  8
0
100
AcDbLine
 10
405.499
 20
429.547264
 30
0.0
 11
410.3235
 21
412.174764
 31
0.0
  0
LINE
  5
4581
100
AcDbEntity
  8
0
100
AcDbLine
 10
405.164
 20
413.410264
 30
0.0
 11
406.185
 21
412.390264
 31
0.0
  0
LINE
  5
4582
100
AcDbEntity
  8
0
100
AcDbLine
 10
386.90565
 20
424.565005
 30
0.0
 11
391.5645
 21
407.177965
 31
0.0
  0
LINE
  5
4583
100
AcDbEntity
  8
0
100
AcDbLine
 10
391.5645
 20
407.177965
 30
0.0
 11
405.086323
 21
410.801516
 31
0.0
  0
LINE
  5
4584
100
AcDbEntity
  8
0
100
AcDbLine
 10
419.75
 20
403.447264
 30
0.0
 11
413.25
 21
403.447264
 31
0.0
  0
LINE
  5
4585
100
AcDbEntity
  8
0
100
AcDbLine
 10
419.75
 20
404.447264
 30
0.0
 11
413.25
 21
404.447264
 31
0.0
  0
LINE
  5
4586
100
AcDbEntity
  8
0
100
AcDbLine
 10
414.25
 20
402.447264
 30
0.0
 11
418.75
 21
402.447264
 31
0.0
  0
ARC
  5
4587
100
AcDbEntity
  8
0
100
AcDbCircle
 10
416.841291
 20
407.606689
 30
0.0
 40
4.231607
100
AcDbArc
 50
56.546605
 51
129.810538
  0
LINE
  5
4588
100
AcDbEntity
  8
0
100
AcDbLine
 10
408.226
 20
411.643264
 30
0.0
 11
410.158
 21
412.160264
 31
0.0
  0
ARC
  5
4589
100
AcDbEntity
  8
0
100
AcDbCircle
 10
412.750017
 20
405.318996
 30
0.0
 40
1.0
100
AcDbArc
 50
299.339489
 51
359.671611
  0
LINE
  5
458A
100
AcDbEntity
  8
0
100
AcDbLine
 10
413.24
 20
404.447264
 30
0.0
 11
413.24
 21
404.447264
 31
0.0
  0
LINE
  5
458B
100
AcDbEntity
  8
0
100
AcDbLine
 10
413.24
 20
404.447264
 30
0.0
 11
413.25
 21
404.447264
 31
0.0
  0
LINE
  5
458C
100
AcDbEntity
  8
0
100
AcDbLine
 10
413.25
 20
404.447264
 30
0.0
 11
413.25
 21
403.447264
 31
0.0
  0
LINE
  5
458D
100
AcDbEntity
  8
0
100
AcDbLine
 10
413.25
 20
403.447264
 30
0.0
 11
414.25
 21
402.447264
 31
0.0
  0
LINE
  5
458E
100
AcDbEntity
  8
0
100
AcDbLine
 10
413.75
 20
409.200264
 30
0.0
 11
413.75
 21
405.313264
 31
0.0
  0
ARC
  5
458F
100
AcDbEntity
  8
0
100
AcDbCircle
 10
421.750092
 20
408.762553
 30
0.0
 40
2.500092
100
AcDbArc
 50
43.051829
 51
180.006605
  0
LINE
  5
4590
100
AcDbEntity
  8
0
100
AcDbLine
 10
418.75
 20
402.447264
 30
0.0
 11
419.75
 21
403.447264
 31
0.0
  0
ARC
  5
4591
100
AcDbEntity
  8
0
100
AcDbCircle
 10
420.250053
 20
405.31332
 30
0.0
 40
1.000053
100
AcDbArc
 50
180.003207
 51
239.998248
  0
LINE
  5
4592
100
AcDbEntity
  8
0
100
AcDbLine
 10
419.75
 20
403.447264
 30
0.0
 11
419.74
 21
404.447264
 31
0.0
  0
LINE
  5
4593
100
AcDbEntity
  8
0
100
AcDbLine
 10
419.74
 20
404.447264
 30
0.0
 11
419.75
 21
404.447264
 31
0.0
  0
LINE
  5
4594
100
AcDbEntity
  8
0
100
AcDbLine
 10
419.25
 20
405.313264
 30
0.0
 11
419.25
 21
408.762264
 31
0.0
  0
LINE
  5
4595
100
AcDbEntity
  8
0
100
AcDbLine
 10
400.428461
 20
428.188821
 30
0.0
 11
386.90565
 21
424.565005
 31
0.0
  0
LINE
  5
4596
100
AcDbEntity
  8
0
100
AcDbLine
 10
405.499
 20
429.547264
 30
0.0
 11
403.567
 21
429.029264
 31
0.0
  0
LINE
  5
4597
100
AcDbEntity
  8
0
100
AcDbLine
 10
401.8
 20
425.967264
 30
0.0
 11
405.164
 21
413.410264
 31
0.0
  0
ARC
  5
4598
100
AcDbEntity
  8
0
100
AcDbCircle
 10
404.389016
 20
413.390664
 30
0.0
 40
0.818475
100
AcDbArc
 50
37.884308
 51
104.723283
  0
LINE
  5
4599
100
AcDbEntity
  8
0
100
AcDbLine
 10
402.343434
 20
423.938757
 30
0.0
 11
404.758
 21
424.585264
 31
0.0
  0
LINE
  5
459A
100
AcDbEntity
  8
0
100
AcDbLine
 10
402.621359
 20
422.901331
 30
0.0
 11
405.036
 21
423.549264
 31
0.0
  0
LINE
  5
459B
100
AcDbEntity
  8
0
100
AcDbLine
 10
403.891
 20
427.822264
 30
0.0
 11
402.173
 21
427.361264
 31
0.0
  0
LINE
  5
459C
100
AcDbEntity
  8
0
100
AcDbLine
 10
402.173
 20
427.361264
 30
0.0
 11
401.8
 21
425.967264
 31
0.0
  0
ARC
  5
459D
100
AcDbEntity
  8
0
100
AcDbCircle
 10
401.115876
 20
425.598935
 30
0.0
 40
0.82117
100
AcDbArc
 50
285.404147
 51
351.972837
  0
LINE
  5
459E
100
AcDbEntity
  8
0
100
AcDbLine
 10
404.342555
 20
416.476521
 30
0.0
 11
406.758
 21
417.123264
 31
0.0
  0
LINE
  5
459F
100
AcDbEntity
  8
0
100
AcDbLine
 10
404.620405
 20
415.439372
 30
0.0
 11
407.035
 21
416.086264
 31
0.0
  0
LINE
  5
45A0
100
AcDbEntity
  8
0
100
AcDbLine
 10
416.878
 20
427.651264
 30
0.0
 11
420.395
 21
414.523264
 31
0.0
  0
LINE
  5
45A1
100
AcDbEntity
  8
0
100
AcDbLine
 10
415.5
 20
434.210855
 30
0.0
 11
405.499
 21
429.547264
 31
0.0
  0
ARC
  5
45A2
100
AcDbEntity
  8
0
100
AcDbCircle
 10
445.138945
 20
431.184951
 30
0.0
 40
30.361985
100
AcDbArc
 50
293.782714
 51
359.551459
  0
LINE
  5
45A3
100
AcDbEntity
  8
0
100
AcDbLine
 10
439.314037
 20
401.77536
 30
0.0
 11
451.685963
 21
401.77536
 31
0.0
  0
LINE
  5
45A4
100
AcDbEntity
  8
0
100
AcDbLine
 10
438.5
 20
399.447264
 30
0.0
 11
452.5
 21
399.447264
 31
0.0
  0
LINE
  5
45A5
100
AcDbEntity
  8
0
100
AcDbLine
 10
437.062
 20
402.158264
 30
0.0
 11
437.062
 21
402.158264
 31
0.0
  0
ARC
  5
45A6
100
AcDbEntity
  8
0
100
AcDbCircle
 10
436.499912
 20
400.238783
 30
0.0
 40
2.000088
100
AcDbArc
 50
0.013789
 51
73.67822
  0
LINE
  5
45A7
100
AcDbEntity
  8
0
100
AcDbLine
 10
438.5
 20
400.239264
 30
0.0
 11
438.5
 21
399.447264
 31
0.0
  0
LINE
  5
45A8
100
AcDbEntity
  8
0
100
AcDbLine
 10
434.056
 20
403.216264
 30
0.0
 11
437.062
 21
402.158264
 31
0.0
  0
ARC
  5
45A9
100
AcDbEntity
  8
0
100
AcDbCircle
 10
454.499612
 20
400.239433
 30
0.0
 40
1.999612
100
AcDbArc
 50
106.341421
 51
180.004821
  0
LINE
  5
45AA
100
AcDbEntity
  8
0
100
AcDbLine
 10
452.5
 20
399.447264
 30
0.0
 11
452.5
 21
400.239264
 31
0.0
  0
LINE
  5
45AB
100
AcDbEntity
  8
0
100
AcDbLine
 10
453.937
 20
402.158264
 30
0.0
 11
453.937
 21
402.158264
 31
0.0
  0
LINE
  5
45AC
100
AcDbEntity
  8
0
100
AcDbLine
 10
453.937
 20
402.158264
 30
0.0
 11
457.383
 21
403.401264
 31
0.0
  0
ARC
  5
45AD
100
AcDbEntity
  8
0
100
AcDbCircle
 10
427.621245
 20
492.940845
 30
0.0
 40
3.865212
100
AcDbArc
 50
329.863417
 51
0.880841
  0
LINE
  5
45AE
100
AcDbEntity
  8
0
100
AcDbLine
 10
434.094
 20
461.447264
 30
0.0
 11
427.563
 21
461.447264
 31
0.0
  0
LINE
  5
45AF
100
AcDbEntity
  8
0
100
AcDbLine
 10
484.5
 20
464.447264
 30
0.0
 11
406.5
 21
464.447264
 31
0.0
  0
ARC
  5
45B0
100
AcDbEntity
  8
0
100
AcDbCircle
 10
445.4995
 20
411.947064
 30
0.0
 40
60.000236
100
AcDbArc
 50
61.044964
 51
118.955036
  0
LINE
  5
45B1
100
AcDbEntity
  8
0
100
AcDbLine
 10
483.499981
 20
448.447264
 30
0.0
 11
407.5
 21
448.447264
 31
0.0
  0
LINE
  5
45B2
100
AcDbEntity
  8
0
100
AcDbLine
 10
430.964
 20
491.000264
 30
0.0
 11
415.633273
 21
464.447264
 31
0.0
  0
LINE
  5
45B3
100
AcDbEntity
  8
0
100
AcDbLine
 10
405.5
 20
463.447264
 30
0.0
 11
405.5
 21
450.447264
 31
0.0
  0
LINE
  5
45B4
100
AcDbEntity
  8
0
100
AcDbLine
 10
417.236
 20
461.447264
 30
0.0
 11
412.933
 21
461.447264
 31
0.0
  0
LINE
  5
45B5
100
AcDbEntity
  8
0
100
AcDbLine
 10
407.952
 20
461.447264
 30
0.0
 11
407.029
 21
461.447264
 31
0.0
  0
LINE
  5
45B6
100
AcDbEntity
  8
0
100
AcDbLine
 10
411.433
 20
461.447264
 30
0.0
 11
408.728
 21
461.447264
 31
0.0
  0
LINE
  5
45B7
100
AcDbEntity
  8
0
100
AcDbLine
 10
407.029
 20
461.447264
 30
0.0
 11
405.5
 21
461.447264
 31
0.0
  0
POLYLINE
  5
45B8
100
AcDbEntity
  8
0
  6
CONTINUOUS
100
AcDb3dPolyline
 66
     1
 10
0.0
 20
0.0
 30
0.0
 70
     8
  0
VERTEX
  5
45B9
100
AcDbEntity
  8
0
  6
CONTINUOUS
100
AcDbVertex
100
AcDb3dPolylineVertex
 10
408.728
 20
449.948264
 30
0.0
 70
    32
1001
ACAD
1000
R13OBJECT
1002
{
1005
0
1002
}
  0
VERTEX
  5
45BA
100
AcDbEntity
  8
0
  6
CONTINUOUS
100
AcDbVertex
100
AcDb3dPolylineVertex
 10
408.653899
 20
449.065999
 30
0.0
 70
    32
1001
ACAD
1000
R13OBJECT
1002
{
1005
0
1002
}
  0
VERTEX
  5
45BB
100
AcDbEntity
  8
0
  6
CONTINUOUS
100
AcDbVertex
100
AcDb3dPolylineVertex
 10
408.459899
 20
448.520729
 30
0.0
 70
    32
1001
ACAD
1000
R13OBJECT
1002
{
1005
0
1002
}
  0
VERTEX
  5
45BC
100
AcDbEntity
  8
0
  6
CONTINUOUS
100
AcDbVertex
100
AcDb3dPolylineVertex
 10
408.220101
 20
448.520729
 30
0.0
 70
    32
1001
ACAD
1000
R13OBJECT
1002
{
1005
0
1002
}
  0
VERTEX
  5
45BD
100
AcDbEntity
  8
0
  6
CONTINUOUS
100
AcDbVertex
100
AcDb3dPolylineVertex
 10
408.026101
 20
449.065999
 30
0.0
 70
    32
1001
ACAD
1000
R13OBJECT
1002
{
1005
0
1002
}
  0
VERTEX
  5
45BE
100
AcDbEntity
  8
0
  6
CONTINUOUS
100
AcDbVertex
100
AcDb3dPolylineVertex
 10
407.952
 20
449.948264
 30
0.0
 70
    32
1001
ACAD
1000
R13OBJECT
1002
{
1005
0
1002
}
  0
SEQEND
  5
45BF
100
AcDbEntity
  8
0
  6
CONTINUOUS
1001
ACAD
1000
R13OBJECT
1002
{
1005
0
1002
}
  0
POLYLINE
  5
45C0
100
AcDbEntity
  8
0
  6
CONTINUOUS
100
AcDb3dPolyline
 66
     1
 10
0.0
 20
0.0
 30
0.0
 70
     8
  0
VERTEX
  5
45C1
100
AcDbEntity
  8
0
  6
CONTINUOUS
100
AcDbVertex
100
AcDb3dPolylineVertex
 10
407.684
 20
448.447264
 30
0.0
 70
    32
1001
ACAD
1000
R13OBJECT
1002
{
1005
0
1002
}
  0
VERTEX
  5
45C2
100
AcDbEntity
  8
0
  6
CONTINUOUS
100
AcDbVertex
100
AcDb3dPolylineVertex
 10
407.3565
 20
448.648226
 30
0.0
 70
    32
1001
ACAD
1000
R13OBJECT
1002
{
1005
0
1002
}
  0
VERTEX
  5
45C3
100
AcDbEntity
  8
0
  6
CONTINUOUS
100
AcDbVertex
100
AcDb3dPolylineVertex
 10
407.116753
 20
449.197264
 30
0.0
 70
    32
1001
ACAD
1000
R13OBJECT
1002
{
1005
0
1002
}
  0
VERTEX
  5
45C4
100
AcDbEntity
  8
0
  6
CONTINUOUS
100
AcDbVertex
100
AcDb3dPolylineVertex
 10
407.029
 20
449.947264
 30
0.0
 70
    32
1001
ACAD
1000
R13OBJECT
1002
{
1005
0
1002
}
  0
SEQEND
  5
45C5
100
AcDbEntity
  8
0
  6
CONTINUOUS
1001
ACAD
1000
R13OBJECT
1002
{
1005
0
1002
}
  0
POLYLINE
  5
45C6
100
AcDbEntity
  8
0
  6
CONTINUOUS
100
AcDb3dPolyline
 66
     1
 10
0.0
 20
0.0
 30
0.0
 70
     8
  0
VERTEX
  5
45C7
100
AcDbEntity
  8
0
  6
CONTINUOUS
100
AcDbVertex
100
AcDb3dPolylineVertex
 10
412.931037
 20
449.947264
 30
0.0
 70
    32
1001
ACAD
1000
R13OBJECT
1002
{
1005
0
1002
}
  0
VERTEX
  5
45C8
100
AcDbEntity
  8
0
  6
CONTINUOUS
100
AcDbVertex
100
AcDb3dPolylineVertex
 10
412.787988
 20
449.065587
 30
0.0
 70
    32
1001
ACAD
1000
R13OBJECT
1002
{
1005
0
1002
}
  0
VERTEX
  5
45C9
100
AcDbEntity
  8
0
  6
CONTINUOUS
100
AcDbVertex
100
AcDb3dPolylineVertex
 10
412.413478
 20
448.52068
 30
0.0
 70
    32
1001
ACAD
1000
R13OBJECT
1002
{
1005
0
1002
}
  0
VERTEX
  5
45CA
100
AcDbEntity
  8
0
  6
CONTINUOUS
100
AcDbVertex
100
AcDb3dPolylineVertex
 10
411.950559
 20
448.52068
 30
0.0
 70
    32
1001
ACAD
1000
R13OBJECT
1002
{
1005
0
1002
}
  0
VERTEX
  5
45CB
100
AcDbEntity
  8
0
  6
CONTINUOUS
100
AcDbVertex
100
AcDb3dPolylineVertex
 10
411.57605
 20
449.065587
 30
0.0
 70
    32
1001
ACAD
1000
R13OBJECT
1002
{
1005
0
1002
}
  0
VERTEX
  5
45CC
100
AcDbEntity
  8
0
  6
CONTINUOUS
100
AcDbVertex
100
AcDb3dPolylineVertex
 10
411.433
 20
449.947264
 30
0.0
 70
    32
1001
ACAD
1000
R13OBJECT
1002
{
1005
0
1002
}
  0
SEQEND
  5
45CD
100
AcDbEntity
  8
0
  6
CONTINUOUS
1001
ACAD
1000
R13OBJECT
1002
{
1005
0
1002
}
  0
ARC
  5
45CE
100
AcDbEntity
  8
0
100
AcDbCircle
 10
407.499022
 20
450.446287
 30
0.0
 40
1.999023
100
AcDbArc
 50
179.971978
 51
270.028022
  0
LINE
  5
45CF
100
AcDbEntity
  8
0
100
AcDbLine
 10
407.952
 20
449.947264
 30
0.0
 11
407.952
 21
461.447264
 31
0.0
  0
LINE
  5
45D0
100
AcDbEntity
  8
0
100
AcDbLine
 10
407.029
 20
461.447264
 30
0.0
 11
407.029
 21
449.947264
 31
0.0
  0
LINE
  5
45D1
100
AcDbEntity
  8
0
100
AcDbLine
 10
412.933
 20
461.447264
 30
0.0
 11
412.933
 21
449.947264
 31
0.0
  0
LINE
  5
45D2
100
AcDbEntity
  8
0
100
AcDbLine
 10
411.433
 20
449.947264
 30
0.0
 11
411.433
 21
461.447264
 31
0.0
  0
LINE
  5
45D3
100
AcDbEntity
  8
0
100
AcDbLine
 10
408.728
 20
461.447264
 30
0.0
 11
408.728
 21
449.948264
 31
0.0
  0
LINE
  5
45D4
100
AcDbEntity
  8
0
100
AcDbLine
 10
424.966
 20
461.447264
 30
0.0
 11
419.357
 21
461.447264
 31
0.0
  0
POLYLINE
  5
45D5
100
AcDbEntity
  8
0
  6
CONTINUOUS
100
AcDb3dPolyline
 66
     1
 10
0.0
 20
0.0
 30
0.0
 70
     8
  0
VERTEX
  5
45D6
100
AcDbEntity
  8
0
  6
CONTINUOUS
100
AcDbVertex
100
AcDb3dPolylineVertex
 10
419.355037
 20
449.947264
 30
0.0
 70
    32
1001
ACAD
1000
R13OBJECT
1002
{
1005
0
1002
}
  0
VERTEX
  5
45D7
100
AcDbEntity
  8
0
  6
CONTINUOUS
100
AcDbVertex
100
AcDb3dPolylineVertex
 10
419.15254
 20
449.065587
 30
0.0
 70
    32
1001
ACAD
1000
R13OBJECT
1002
{
1005
0
1002
}
  0
VERTEX
  5
45D8
100
AcDbEntity
  8
0
  6
CONTINUOUS
100
AcDbVertex
100
AcDb3dPolylineVertex
 10
418.62269
 20
448.52068
 30
0.0
 70
    32
1001
ACAD
1000
R13OBJECT
1002
{
1005
0
1002
}
  0
VERTEX
  5
45D9
100
AcDbEntity
  8
0
  6
CONTINUOUS
100
AcDbVertex
100
AcDb3dPolylineVertex
 10
417.967871
 20
448.52068
 30
0.0
 70
    32
1001
ACAD
1000
R13OBJECT
1002
{
1005
0
1002
}
  0
VERTEX
  5
45DA
100
AcDbEntity
  8
0
  6
CONTINUOUS
100
AcDbVertex
100
AcDb3dPolylineVertex
 10
417.438203
 20
449.065587
 30
0.0
 70
    32
1001
ACAD
1000
R13OBJECT
1002
{
1005
0
1002
}
  0
VERTEX
  5
45DB
100
AcDbEntity
  8
0
  6
CONTINUOUS
100
AcDbVertex
100
AcDb3dPolylineVertex
 10
417.236
 20
449.947264
 30
0.0
 70
    32
1001
ACAD
1000
R13OBJECT
1002
{
1005
0
1002
}
  0
SEQEND
  5
45DC
100
AcDbEntity
  8
0
  6
CONTINUOUS
1001
ACAD
1000
R13OBJECT
1002
{
1005
0
1002
}
  0
POLYLINE
  5
45DD
100
AcDbEntity
  8
0
  6
CONTINUOUS
100
AcDb3dPolyline
 66
     1
 10
0.0
 20
0.0
 30
0.0
 70
     8
  0
VERTEX
  5
45DE
100
AcDbEntity
  8
0
  6
CONTINUOUS
100
AcDbVertex
100
AcDb3dPolylineVertex
 10
427.564
 20
449.94755
 30
0.0
 70
    32
1001
ACAD
1000
R13OBJECT
1002
{
1005
0
1002
}
  0
VERTEX
  5
45DF
100
AcDbEntity
  8
0
  6
CONTINUOUS
100
AcDbVertex
100
AcDb3dPolylineVertex
 10
427.38959
 20
449.196265
 30
0.0
 70
    32
1001
ACAD
1000
R13OBJECT
1002
{
1005
0
1002
}
  0
VERTEX
  5
45E0
100
AcDbEntity
  8
0
  6
CONTINUOUS
100
AcDbVertex
100
AcDb3dPolylineVertex
 10
426.912763
 20
448.646931
 30
0.0
 70
    32
1001
ACAD
1000
R13OBJECT
1002
{
1005
0
1002
}
  0
VERTEX
  5
45E1
100
AcDbEntity
  8
0
  6
CONTINUOUS
100
AcDbVertex
100
AcDb3dPolylineVertex
 10
426.261744
 20
448.44727
 30
0.0
 70
    32
1001
ACAD
1000
R13OBJECT
1002
{
1005
0
1002
}
  0
VERTEX
  5
45E2
100
AcDbEntity
  8
0
  6
CONTINUOUS
100
AcDbVertex
100
AcDb3dPolylineVertex
 10
425.611598
 20
448.650972
 30
0.0
 70
    32
1001
ACAD
1000
R13OBJECT
1002
{
1005
0
1002
}
  0
VERTEX
  5
45E3
100
AcDbEntity
  8
0
  6
CONTINUOUS
100
AcDbVertex
100
AcDb3dPolylineVertex
 10
425.137156
 20
449.203261
 30
0.0
 70
    32
1001
ACAD
1000
R13OBJECT
1002
{
1005
0
1002
}
  0
VERTEX
  5
45E4
100
AcDbEntity
  8
0
  6
CONTINUOUS
100
AcDbVertex
100
AcDb3dPolylineVertex
 10
424.966
 20
449.95562
 30
0.0
 70
    32
1001
ACAD
1000
R13OBJECT
1002
{
1005
0
1002
}
  0
SEQEND
  5
45E5
100
AcDbEntity
  8
0
  6
CONTINUOUS
1001
ACAD
1000
R13OBJECT
1002
{
1005
0
1002
}
  0
LINE
  5
45E6
100
AcDbEntity
  8
0
100
AcDbLine
 10
419.357
 20
461.447264
 30
0.0
 11
419.357
 21
449.947264
 31
0.0
  0
LINE
  5
45E7
100
AcDbEntity
  8
0
100
AcDbLine
 10
417.236
 20
449.947264
 30
0.0
 11
417.236
 21
461.447264
 31
0.0
  0
LINE
  5
45E8
100
AcDbEntity
  8
0
100
AcDbLine
 10
427.563
 20
461.447264
 30
0.0
 11
427.563
 21
449.947264
 31
0.0
  0
LINE
  5
45E9
100
AcDbEntity
  8
0
100
AcDbLine
 10
424.966
 20
449.947264
 30
0.0
 11
424.966
 21
461.447264
 31
0.0
  0
LINE
  5
45EA
100
AcDbEntity
  8
0
100
AcDbLine
 10
406.5
 20
464.447264
 30
0.0
 11
405.5
 21
463.447264
 31
0.0
  0
LINE
  5
45EB
100
AcDbEntity
  8
0
100
AcDbLine
 10
473.5
 20
465.013063
 30
0.0
 11
473.5
 21
493.447264
 31
0.0
  0
LINE
  5
45EC
100
AcDbEntity
  8
0
100
AcDbLine
 10
459.5
 20
489.432878
 30
0.0
 11
459.5
 21
473.320441
 31
0.0
  0
POLYLINE
  5
45ED
100
AcDbEntity
  8
0
  6
CONTINUOUS
100
AcDb3dPolyline
 66
     1
 10
0.0
 20
0.0
 30
0.0
 70
     8
  0
VERTEX
  5
45EE
100
AcDbEntity
  8
0
  6
CONTINUOUS
100
AcDbVertex
100
AcDb3dPolylineVertex
 10
466.034
 20
449.94755
 30
0.0
 70
    32
1001
ACAD
1000
R13OBJECT
1002
{
1005
0
1002
}
  0
VERTEX
  5
45EF
100
AcDbEntity
  8
0
  6
CONTINUOUS
100
AcDbVertex
100
AcDb3dPolylineVertex
 10
465.85959
 20
449.196265
 30
0.0
 70
    32
1001
ACAD
1000
R13OBJECT
1002
{
1005
0
1002
}
  0
VERTEX
  5
45F0
100
AcDbEntity
  8
0
  6
CONTINUOUS
100
AcDbVertex
100
AcDb3dPolylineVertex
 10
465.382763
 20
448.646931
 30
0.0
 70
    32
1001
ACAD
1000
R13OBJECT
1002
{
1005
0
1002
}
  0
VERTEX
  5
45F1
100
AcDbEntity
  8
0
  6
CONTINUOUS
100
AcDbVertex
100
AcDb3dPolylineVertex
 10
464.731744
 20
448.44727
 30
0.0
 70
    32
1001
ACAD
1000
R13OBJECT
1002
{
1005
0
1002
}
  0
VERTEX
  5
45F2
100
AcDbEntity
  8
0
  6
CONTINUOUS
100
AcDbVertex
100
AcDb3dPolylineVertex
 10
464.081598
 20
448.650972
 30
0.0
 70
    32
1001
ACAD
1000
R13OBJECT
1002
{
1005
0
1002
}
  0
VERTEX
  5
45F3
100
AcDbEntity
  8
0
  6
CONTINUOUS
100
AcDbVertex
100
AcDb3dPolylineVertex
 10
463.607156
 20
449.203261
 30
0.0
 70
    32
1001
ACAD
1000
R13OBJECT
1002
{
1005
0
1002
}
  0
VERTEX
  5
45F4
100
AcDbEntity
  8
0
  6
CONTINUOUS
100
AcDbVertex
100
AcDb3dPolylineVertex
 10
463.436
 20
449.95562
 30
0.0
 70
    32
1001
ACAD
1000
R13OBJECT
1002
{
1005
0
1002
}
  0
SEQEND
  5
45F5
100
AcDbEntity
  8
0
  6
CONTINUOUS
1001
ACAD
1000
R13OBJECT
1002
{
1005
0
1002
}
  0
LINE
  5
45F6
100
AcDbEntity
  8
0
100
AcDbLine
 10
454.008
 20
461.447264
 30
0.0
 11
446.999
 21
461.447264
 31
0.0
  0
LINE
  5
45F7
100
AcDbEntity
  8
0
100
AcDbLine
 10
444.0
 20
461.447264
 30
0.0
 11
436.991
 21
461.447264
 31
0.0
  0
ARC
  5
45F8
100
AcDbEntity
  8
0
100
AcDbCircle
 10
445.499491
 20
449.947074
 30
0.0
 40
1.499767
100
AcDbArc
 50
181.100675
 51
358.937535
  0
ARC
  5
45F9
100
AcDbEntity
  8
0
100
AcDbCircle
 10
435.5425
 20
449.896648
 30
0.0
 40
1.449384
100
AcDbArc
 50
177.998686
 51
2.001314
  0
LINE
  5
45FA
100
AcDbEntity
  8
0
100
AcDbLine
 10
434.094
 20
449.947264
 30
0.0
 11
434.094
 21
461.447264
 31
0.0
  0
LINE
  5
45FB
100
AcDbEntity
  8
0
100
AcDbLine
 10
436.991
 20
461.447264
 30
0.0
 11
436.991
 21
449.947264
 31
0.0
  0
LINE
  5
45FC
100
AcDbEntity
  8
0
100
AcDbLine
 10
446.999
 20
461.447264
 30
0.0
 11
446.999
 21
449.919264
 31
0.0
  0
LINE
  5
45FD
100
AcDbEntity
  8
0
100
AcDbLine
 10
444.0
 20
449.918264
 30
0.0
 11
444.0
 21
461.447264
 31
0.0
  0
LINE
  5
45FE
100
AcDbEntity
  8
0
100
AcDbLine
 10
463.436
 20
449.947264
 30
0.0
 11
463.436
 21
461.447264
 31
0.0
  0
ARC
  5
45FF
100
AcDbEntity
  8
0
100
AcDbCircle
 10
455.457481
 20
449.896648
 30
0.0
 40
1.449384
100
AcDbArc
 50
177.998686
 51
2.001314
  0
LINE
  5
4600
100
AcDbEntity
  8
0
100
AcDbLine
 10
456.905
 20
461.447264
 30
0.0
 11
456.905
 21
449.947264
 31
0.0
  0
LINE
  5
4601
100
AcDbEntity
  8
0
100
AcDbLine
 10
454.008
 20
449.947264
 30
0.0
 11
454.008
 21
461.447264
 31
0.0
  0
LINE
  5
4602
100
AcDbEntity
  8
0
100
AcDbLine
 10
463.436
 20
461.447264
 30
0.0
 11
456.905
 21
461.447264
 31
0.0
  0
LINE
  5
4603
100
AcDbEntity
  8
0
100
AcDbLine
 10
485.5
 20
450.447264
 30
0.0
 11
485.5
 21
463.447264
 31
0.0
  0
LINE
  5
4604
100
AcDbEntity
  8
0
100
AcDbLine
 10
482.271
 20
461.447264
 30
0.0
 11
479.566
 21
461.447264
 31
0.0
  0
LINE
  5
4605
100
AcDbEntity
  8
0
100
AcDbLine
 10
478.066
 20
461.447264
 30
0.0
 11
473.763
 21
461.447264
 31
0.0
  0
LINE
  5
4606
100
AcDbEntity
  8
0
100
AcDbLine
 10
471.642
 20
461.447264
 30
0.0
 11
466.034
 21
461.447264
 31
0.0
  0
POLYLINE
  5
4607
100
AcDbEntity
  8
0
  6
CONTINUOUS
100
AcDb3dPolyline
 66
     1
 10
0.0
 20
0.0
 30
0.0
 70
     8
  0
VERTEX
  5
4608
100
AcDbEntity
  8
0
  6
CONTINUOUS
100
AcDbVertex
100
AcDb3dPolylineVertex
 10
479.566
 20
449.947264
 30
0.0
 70
    32
1001
ACAD
1000
R13OBJECT
1002
{
1005
0
1002
}
  0
VERTEX
  5
4609
100
AcDbEntity
  8
0
  6
CONTINUOUS
100
AcDbVertex
100
AcDb3dPolylineVertex
 10
479.42295
 20
449.065587
 30
0.0
 70
    32
1001
ACAD
1000
R13OBJECT
1002
{
1005
0
1002
}
  0
VERTEX
  5
460A
100
AcDbEntity
  8
0
  6
CONTINUOUS
100
AcDbVertex
100
AcDb3dPolylineVertex
 10
479.048441
 20
448.52068
 30
0.0
 70
    32
1001
ACAD
1000
R13OBJECT
1002
{
1005
0
1002
}
  0
VERTEX
  5
460B
100
AcDbEntity
  8
0
  6
CONTINUOUS
100
AcDbVertex
100
AcDb3dPolylineVertex
 10
478.585522
 20
448.52068
 30
0.0
 70
    32
1001
ACAD
1000
R13OBJECT
1002
{
1005
0
1002
}
  0
VERTEX
  5
460C
100
AcDbEntity
  8
0
  6
CONTINUOUS
100
AcDbVertex
100
AcDb3dPolylineVertex
 10
478.211012
 20
449.065587
 30
0.0
 70
    32
1001
ACAD
1000
R13OBJECT
1002
{
1005
0
1002
}
  0
VERTEX
  5
460D
100
AcDbEntity
  8
0
  6
CONTINUOUS
100
AcDbVertex
100
AcDb3dPolylineVertex
 10
478.067963
 20
449.947264
 30
0.0
 70
    32
1001
ACAD
1000
R13OBJECT
1002
{
1005
0
1002
}
  0
SEQEND
  5
460E
100
AcDbEntity
  8
0
  6
CONTINUOUS
1001
ACAD
1000
R13OBJECT
1002
{
1005
0
1002
}
  0
POLYLINE
  5
460F
100
AcDbEntity
  8
0
  6
CONTINUOUS
100
AcDb3dPolyline
 66
     1
 10
0.0
 20
0.0
 30
0.0
 70
     8
  0
VERTEX
  5
4610
100
AcDbEntity
  8
0
  6
CONTINUOUS
100
AcDbVertex
100
AcDb3dPolylineVertex
 10
473.763
 20
449.947264
 30
0.0
 70
    32
1001
ACAD
1000
R13OBJECT
1002
{
1005
0
1002
}
  0
VERTEX
  5
4611
100
AcDbEntity
  8
0
  6
CONTINUOUS
100
AcDbVertex
100
AcDb3dPolylineVertex
 10
473.560503
 20
449.065587
 30
0.0
 70
    32
1001
ACAD
1000
R13OBJECT
1002
{
1005
0
1002
}
  0
VERTEX
  5
4612
100
AcDbEntity
  8
0
  6
CONTINUOUS
100
AcDbVertex
100
AcDb3dPolylineVertex
 10
473.030652
 20
448.52068
 30
0.0
 70
    32
1001
ACAD
1000
R13OBJECT
1002
{
1005
0
1002
}
  0
VERTEX
  5
4613
100
AcDbEntity
  8
0
  6
CONTINUOUS
100
AcDbVertex
100
AcDb3dPolylineVertex
 10
472.375834
 20
448.52068
 30
0.0
 70
    32
1001
ACAD
1000
R13OBJECT
1002
{
1005
0
1002
}
  0
VERTEX
  5
4614
100
AcDbEntity
  8
0
  6
CONTINUOUS
100
AcDbVertex
100
AcDb3dPolylineVertex
 10
471.846165
 20
449.065587
 30
0.0
 70
    32
1001
ACAD
1000
R13OBJECT
1002
{
1005
0
1002
}
  0
VERTEX
  5
4615
100
AcDbEntity
  8
0
  6
CONTINUOUS
100
AcDbVertex
100
AcDb3dPolylineVertex
 10
471.643963
 20
449.947264
 30
0.0
 70
    32
1001
ACAD
1000
R13OBJECT
1002
{
1005
0
1002
}
  0
SEQEND
  5
4616
100
AcDbEntity
  8
0
  6
CONTINUOUS
1001
ACAD
1000
R13OBJECT
1002
{
1005
0
1002
}
  0
LINE
  5
4617
100
AcDbEntity
  8
0
100
AcDbLine
 10
466.034
 20
461.447264
 30
0.0
 11
466.034
 21
449.947264
 31
0.0
  0
LINE
  5
4618
100
AcDbEntity
  8
0
100
AcDbLine
 10
473.763
 20
461.447264
 30
0.0
 11
473.763
 21
449.947264
 31
0.0
  0
LINE
  5
4619
100
AcDbEntity
  8
0
100
AcDbLine
 10
471.642
 20
449.947264
 30
0.0
 11
471.642
 21
461.447264
 31
0.0
  0
LINE
  5
461A
100
AcDbEntity
  8
0
100
AcDbLine
 10
479.566
 20
461.447264
 30
0.0
 11
479.566
 21
449.947264
 31
0.0
  0
LINE
  5
461B
100
AcDbEntity
  8
0
100
AcDbLine
 10
478.066
 20
449.947264
 30
0.0
 11
478.066
 21
461.447264
 31
0.0
  0
LINE
  5
461C
100
AcDbEntity
  8
0
100
AcDbLine
 10
483.97
 20
461.447264
 30
0.0
 11
483.048
 21
461.447264
 31
0.0
  0
LINE
  5
461D
100
AcDbEntity
  8
0
100
AcDbLine
 10
485.5
 20
461.447264
 30
0.0
 11
483.97
 21
461.447264
 31
0.0
  0
POLYLINE
  5
461E
100
AcDbEntity
  8
0
  6
CONTINUOUS
100
AcDb3dPolyline
 66
     1
 10
0.0
 20
0.0
 30
0.0
 70
     8
  0
VERTEX
  5
461F
100
AcDbEntity
  8
0
  6
CONTINUOUS
100
AcDbVertex
100
AcDb3dPolylineVertex
 10
483.315981
 20
448.447264
 30
0.0
 70
    32
1001
ACAD
1000
R13OBJECT
1002
{
1005
0
1002
}
  0
VERTEX
  5
4620
100
AcDbEntity
  8
0
  6
CONTINUOUS
100
AcDbVertex
100
AcDb3dPolylineVertex
 10
483.643481
 20
448.648226
 30
0.0
 70
    32
1001
ACAD
1000
R13OBJECT
1002
{
1005
0
1002
}
  0
VERTEX
  5
4621
100
AcDbEntity
  8
0
  6
CONTINUOUS
100
AcDbVertex
100
AcDb3dPolylineVertex
 10
483.883228
 20
449.197264
 30
0.0
 70
    32
1001
ACAD
1000
R13OBJECT
1002
{
1005
0
1002
}
  0
VERTEX
  5
4622
100
AcDbEntity
  8
0
  6
CONTINUOUS
100
AcDbVertex
100
AcDb3dPolylineVertex
 10
483.970981
 20
449.947264
 30
0.0
 70
    32
1001
ACAD
1000
R13OBJECT
1002
{
1005
0
1002
}
  0
SEQEND
  5
4623
100
AcDbEntity
  8
0
  6
CONTINUOUS
1001
ACAD
1000
R13OBJECT
1002
{
1005
0
1002
}
  0
POLYLINE
  5
4624
100
AcDbEntity
  8
0
  6
CONTINUOUS
100
AcDb3dPolyline
 66
     1
 10
0.0
 20
0.0
 30
0.0
 70
     8
  0
VERTEX
  5
4625
100
AcDbEntity
  8
0
  6
CONTINUOUS
100
AcDbVertex
100
AcDb3dPolylineVertex
 10
483.048
 20
449.948264
 30
0.0
 70
    32
1001
ACAD
1000
R13OBJECT
1002
{
1005
0
1002
}
  0
VERTEX
  5
4626
100
AcDbEntity
  8
0
  6
CONTINUOUS
100
AcDbVertex
100
AcDb3dPolylineVertex
 10
482.973899
 20
449.065999
 30
0.0
 70
    32
1001
ACAD
1000
R13OBJECT
1002
{
1005
0
1002
}
  0
VERTEX
  5
4627
100
AcDbEntity
  8
0
  6
CONTINUOUS
100
AcDbVertex
100
AcDb3dPolylineVertex
 10
482.779899
 20
448.520729
 30
0.0
 70
    32
1001
ACAD
1000
R13OBJECT
1002
{
1005
0
1002
}
  0
VERTEX
  5
4628
100
AcDbEntity
  8
0
  6
CONTINUOUS
100
AcDbVertex
100
AcDb3dPolylineVertex
 10
482.540101
 20
448.520729
 30
0.0
 70
    32
1001
ACAD
1000
R13OBJECT
1002
{
1005
0
1002
}
  0
VERTEX
  5
4629
100
AcDbEntity
  8
0
  6
CONTINUOUS
100
AcDbVertex
100
AcDb3dPolylineVertex
 10
482.346101
 20
449.065999
 30
0.0
 70
    32
1001
ACAD
1000
R13OBJECT
1002
{
1005
0
1002
}
  0
VERTEX
  5
462A
100
AcDbEntity
  8
0
  6
CONTINUOUS
100
AcDbVertex
100
AcDb3dPolylineVertex
 10
482.272
 20
449.948264
 30
0.0
 70
    32
1001
ACAD
1000
R13OBJECT
1002
{
1005
0
1002
}
  0
SEQEND
  5
462B
100
AcDbEntity
  8
0
  6
CONTINUOUS
1001
ACAD
1000
R13OBJECT
1002
{
1005
0
1002
}
  0
ARC
  5
462C
100
AcDbEntity
  8
0
100
AcDbCircle
 10
483.500959
 20
450.446287
 30
0.0
 40
1.999023
100
AcDbArc
 50
269.971978
 51
0.028022
  0
LINE
  5
462D
100
AcDbEntity
  8
0
100
AcDbLine
 10
483.97
 20
461.447264
 30
0.0
 11
483.97
 21
449.947264
 31
0.0
  0
LINE
  5
462E
100
AcDbEntity
  8
0
100
AcDbLine
 10
483.048
 20
461.447264
 30
0.0
 11
483.048
 21
449.947264
 31
0.0
  0
LINE
  5
462F
100
AcDbEntity
  8
0
100
AcDbLine
 10
482.271
 20
449.948264
 30
0.0
 11
482.271
 21
461.447264
 31
0.0
  0
LINE
  5
4630
100
AcDbEntity
  8
0
100
AcDbLine
 10
485.5
 20
463.447264
 30
0.0
 11
484.5
 21
464.447264
 31
0.0
  0
LINE
  5
4631
100
AcDbEntity
  8
0
100
AcDbLine
 10
473.5
 20
493.447264
 30
0.0
 11
462.5
 21
493.447264
 31
0.0
  0
LINE
  5
4632
100
AcDbEntity
  8
0
100
AcDbLine
 10
431.5
 20
503.447264
 30
0.0
 11
431.5
 21
493.000264
 31
0.0
  0
ARC
  5
4633
100
AcDbEntity
  8
0
100
AcDbCircle
 10
462.499404
 20
496.446668
 30
0.0
 40
2.999404
100
AcDbArc
 50
179.988611
 51
270.011389
  0
LINE
  5
4634
100
AcDbEntity
  8
0
100
AcDbLine
 10
455.423183
 20
493.447264
 30
0.0
 11
433.475131
 21
493.447264
 31
0.0
  0
LINE
  5
4635
100
AcDbEntity
  8
0
100
AcDbLine
 10
435.625
 20
487.803264
 30
0.0
 11
432.895
 21
490.533264
 31
0.0
  0
LINE
  5
4636
100
AcDbEntity
  8
0
100
AcDbLine
 10
459.5
 20
493.447264
 30
0.0
 11
454.194
 21
488.142264
 31
0.0
  0
LINE
  5
4637
100
AcDbEntity
  8
0
100
AcDbLine
 10
459.5
 20
503.447264
 30
0.0
 11
431.5
 21
503.447264
 31
0.0
  0
LINE
  5
4638
100
AcDbEntity
  8
0
100
AcDbLine
 10
459.5
 20
496.447264
 30
0.0
 11
459.5
 21
503.447264
 31
0.0
  0
INSERT
  5
464A
100
AcDbEntity
  8
0
100
AcDbBlockReference
  2
YA
 10
403.5
 20
204.946038
 30
0.0
 41
1.713613
 42
1.713613
 43
1.713613
  0
INSERT
  5
464D
100
AcDbEntity
  8
0
100
AcDbBlockReference
  2
YA
 10
445.5
 20
241.946038
 30
0.0
 41
1.713613
 42
1.713613
 43
1.713613
 50
270.0
  0
INSERT
  5
4650
100
AcDbEntity
  8
0
100
AcDbBlockReference
  2
YA
 10
445.5
 20
516.447264
 30
0.0
 41
1.713613
 42
1.713613
 43
1.713613
 50
270.0
  0
INSERT
  5
4651
100
AcDbEntity
  8
0
100
AcDbBlockReference
  2
YA
 10
487.5
 20
479.447264
 30
0.0
 41
-1.713613
 42
1.713613
 43
1.713613
  0
VIEWPORT
  5
41
100
AcDbEntity
 67
     1
  8
0
100
AcDbViewport
 10
117.358407
 20
73.5
 30
0.0
 40
234.716814
 41
147.0
 68
    -1
 69
     1
1001
ACAD
1000
MVIEW
1002
{
1070
    16
1010
0.0
1020
0.0
1030
0.0
1010
0.0
1020
0.0
1030
1.0
1040
0.0
1040
147.0
1040
117.358407
1040
73.5
1040
50.0
1040
0.0
1040
0.0
1070
     0
1070
   100
1070
     1
1070
     1
1070
     0
1070
     0
1070
     0
1070
     0
1040
0.0
1040
0.0
1040
0.0
1040
1.0
1040
1.0
1040
0.0
1040
0.0
1070
     0
1002
{
1002
}
1002
}
  0
ENDSEC
  0
SECTION
  2
OBJECTS
  0
DICTIONARY
  5
C
100
AcDbDictionary
  3
ACAD_GROUP
350
D
  3
ACAD_MLINESTYLE
350
E
  0
DICTIONARY
  5
D
102
{ACAD_REACTORS
330
C
102
}
100
AcDbDictionary
  0
DICTIONARY
  5
E
102
{ACAD_REACTORS
330
C
102
}
100
AcDbDictionary
  3
STANDARD
350
1B
  0
MLINESTYLE
  5
1B
102
{ACAD_REACTORS
330
E
102
}
100
AcDbMlineStyle
  2
STANDARD
 70
     0
  3

 62
     0
 51
90.0
 52
90.0
 71
     2
 49
0.5
 62
   256
  6
BYLAYER
 49
-0.5
 62
   256
  6
BYLAYER
  0
ENDSEC
  0
EOF
