  0
SECTION
  2
HEADER
  9
$ACADVER
  1
AC1009
  9
$INSBASE
 10
0.0
 20
0.0
 30
0.0
  9
$EXTMIN
 10
144.0
 20
56.000000000000007
 30
0.0
  9
$EXTMAX
 10
3272.0000000000018
 20
2256.0
 30
0.0
  9
$LIMMIN
 10
0.0
 20
0.0
  9
$LIMMAX
 10
3360.0
 20
2376.0
  9
$ORTHOMODE
 70
     0
  9
$REGENMODE
 70
     1
  9
$FILLMODE
 70
     1
  9
$QTEXTMODE
 70
     0
  9
$MIRRTEXT
 70
     1
  9
$DRAGMODE
 70
     2
  9
$LTSCALE
 40
32.0
  9
$OSMODE
 70
   163
  9
$ATTMODE
 70
     1
  9
$TEXTSIZE
 40
32.0
  9
$TRACEWID
 40
0.05
  9
$TEXTSTYLE
  7
STANDARD
  9
$CLAYER
  8
0
  9
$CELTYPE
  6
BYLAYER
  9
$CECOLOR
 62
   256
  9
$DIMSCALE
 40
8.0
  9
$DIMASZ
 40
2.7999999999999989
  9
$DIMEXO
 40
1.0
  9
$DIMDLI
 40
5.0
  9
$DIMRND
 40
0.1
  9
$DIMDLE
 40
0.0
  9
$DIMEXE
 40
1.0
  9
$DIMTP
 40
0.0
  9
$DIMTM
 40
0.0
  9
$DIMTXT
 40
2.5
  9
$DIMCEN
 40
0.0
  9
$DIMTSZ
 40
0.0
  9
$DIMTOL
 70
     0
  9
$DIMLIM
 70
     0
  9
$DIMTIH
 70
     0
  9
$DIMTOH
 70
     0
  9
$DIMSE1
 70
     0
  9
$DIMSE2
 70
     0
  9
$DIMTAD
 70
     3
  9
$DIMZIN
 70
     8
  9
$DIMBLK
  1

  9
$DIMASO
 70
     1
  9
$DIMSHO
 70
     1
  9
$DIMPOST
  1

  9
$DIMAPOST
  1

  9
$DIMALT
 70
     0
  9
$DIMALTD
 70
     2
  9
$DIMALTF
 40
1.0
  9
$DIMLFAC
 40
1.0
  9
$DIMTOFL
 70
     1
  9
$DIMTVP
 40
0.0
  9
$DIMTIX
 70
     0
  9
$DIMSOXD
 70
     0
  9
$DIMSAH
 70
     1
  9
$DIMBLK1
  1
OPEN
  9
$DIMBLK2
  1
OPEN
  9
$DIMSTYLE
  2
DIM1
  9
$DIMCLRD
 70
     2
  9
$DIMCLRE
 70
     2
  9
$DIMCLRT
 70
     2
  9
$DIMTFAC
 40
0.7
  9
$DIMGAP
 40
0.85
  9
$LUNITS
 70
     2
  9
$LUPREC
 70
     4
  9
$SKETCHINC
 40
1.0
  9
$FILLETRAD
 40
3.0
  9
$AUNITS
 70
     0
  9
$AUPREC
 70
     0
  9
$MENU
  1
C:\ACADR13\WIN\SUPPORT\ACAD.mnc
  9
$ELEVATION
 40
0.0
  9
$PELEVATION
 40
0.0
  9
$THICKNESS
 40
0.0
  9
$LIMCHECK
 70
     0
  9
$BLIPMODE
 70
     0
  9
$CHAMFERA
 40
1.0
  9
$CHAMFERB
 40
1.0
  9
$SKPOLY
 70
     0
  9
$TDCREATE
 40
2453916.5373667828
  9
$TDUPDATE
 40
2453952.3951075119
  9
$TDINDWG
 40
2.2085707985999998
  9
$TDUSRTIMER
 40
2.2085707985999998
  9
$USRTIMER
 70
     1
  9
$ANGBASE
 50
0.0
  9
$ANGDIR
 70
     0
  9
$PDMODE
 70
     0
  9
$PDSIZE
 40
0.0
  9
$PLINEWID
 40
0.0
  9
$COORDS
 70
     0
  9
$SPLFRAME
 70
     0
  9
$SPLINETYPE
 70
     6
  9
$SPLINESEGS
 70
     8
  9
$ATTDIA
 70
     0
  9
$ATTREQ
 70
     1
  9
$HANDLING
 70
     1
  9
$HANDSEED
  5
81BE
  9
$SURFTAB1
 70
     6
  9
$SURFTAB2
 70
     6
  9
$SURFTYPE
 70
     6
  9
$SURFU
 70
     6
  9
$SURFV
 70
     6
  9
$UCSNAME
  2

  9
$UCSORG
 10
0.0
 20
0.0
 30
0.0
  9
$UCSXDIR
 10
1.0
 20
0.0
 30
0.0
  9
$UCSYDIR
 10
0.0
 20
1.0
 30
0.0
  9
$PUCSNAME
  2

  9
$PUCSORG
 10
0.0
 20
0.0
 30
0.0
  9
$PUCSXDIR
 10
1.0
 20
0.0
 30
0.0
  9
$PUCSYDIR
 10
0.0
 20
1.0
 30
0.0
  9
$USERI1
 70
     0
  9
$USERI2
 70
     0
  9
$USERI3
 70
     0
  9
$USERI4
 70
     0
  9
$USERI5
 70
     0
  9
$USERR1
 40
0.0
  9
$USERR2
 40
0.0
  9
$USERR3
 40
0.0
  9
$USERR4
 40
0.0
  9
$USERR5
 40
0.0
  9
$WORLDVIEW
 70
     1
  9
$SHADEDGE
 70
     3
  9
$SHADEDIF
 70
    70
  9
$TILEMODE
 70
     1
  9
$MAXACTVP
 70
    16
  9
$PLIMCHECK
 70
     0
  9
$PEXTMIN
 10
1.0000000000000000E+020
 20
1.0000000000000000E+020
 30
1.0000000000000000E+020
  9
$PEXTMAX
 10
-1.0000000000000000E+020
 20
-1.0000000000000000E+020
 30
-1.0000000000000000E+020
  9
$PLIMMIN
 10
0.0
 20
0.0
  9
$PLIMMAX
 10
20.0
 20
147.0
  9
$UNITMODE
 70
     0
  9
$VISRETAIN
 70
     0
  9
$PLINEGEN
 70
     0
  9
$PSLTSCALE
 70
     1
  0
ENDSEC
  0
SECTION
  2
TABLES
  0
TABLE
  2
VPORT
 70
     3
  0
VPORT
  2
*ACTIVE
 70
     0
 10
0.0
 20
0.0
 11
1.0
 21
1.0
 12
1680.0
 22
1259.8765801972961
 13
0.0
 23
0.0
 14
1.0
 24
1.0
 15
0.0
 25
0.0
 16
0.0
 26
0.0
 36
1.0
 17
0.0
 27
0.0
 37
0.0
 40
2540.2231707782948
 41
1.2117486338797809
 42
50.0
 43
0.0
 44
0.0
 50
0.0
 51
0.0
 71
     0
 72
   100
 73
     1
 74
     1
 75
     0
 76
     0
 77
     0
 78
     0
  0
ENDTAB
  0
TABLE
  2
LTYPE
 70
     5
  0
LTYPE
  2
CONTINUOUS
 70
     0
  3
Solid line
 72
    65
 73
     0
 40
0.0
  0
ENDTAB
  0
TABLE
  2
LAYER
 70
    15
  0
LAYER
  2
0
 70
     0
 62
     7
  6
CONTINUOUS
  0
ENDTAB
  0
TABLE
  2
STYLE
 70
     3
  0
STYLE
  2
STANDARD
 70
     0
 40
0.0
 41
0.8
 50
0.0
 71
     0
 42
32.0
  3
simplex
  4
extfont
  0
STYLE
  2
PTSH
 70
     0
 40
0.0
 41
0.9
 50
0.0
 71
     0
 42
4.0
  3
SIMPLEX
  4
EXTFONT
  0
STYLE
  2
DIM
 70
     0
 40
0.0
 41
0.8
 50
0.0
 71
     0
 42
4.0
  3
simplex
  4
extfont
  0
ENDTAB
  0
TABLE
  2
VIEW
 70
     0
  0
ENDTAB
  0
TABLE
  2
UCS
 70
     0
  0
ENDTAB
  0
TABLE
  2
APPID
 70
     4
  0
APPID
  2
ACAD
 70
     0
  0
APPID
  2
ACAD_PSEXT
 70
     0
  0
APPID
  2
ACAD_DSTYLE_DIMTEXT_FILL
 70
     0
  0
APPID
  2
DCO15
 70
     0
  0
ENDTAB
  0
TABLE
  2
DIMSTYLE
 70
     9
  0
DIMSTYLE
  2
DIM1
 70
     0
  3

  4

  5

  6
OPEN
  7
OPEN
 40
8.0
 41
2.7999999999999989
 42
1.0
 43
5.0
 44
1.0
 45
0.1
 46
0.0
 47
0.0
 48
0.0
140
2.5
141
0.0
142
0.0
143
1.0
144
1.0
145
0.0
146
0.7
147
0.85
 71
     0
 72
     0
 73
     0
 74
     0
 75
     0
 76
     0
 77
     3
 78
     8
170
     0
171
     2
172
     1
173
     1
174
     0
175
     0
176
     2
177
     2
178
     2
  0
ENDTAB
  0
ENDSEC
  0
SECTION
  2
BLOCKS
  0
BLOCK
  8
0
  2
$MODEL_SPACE
 70
     0
 10
0.0
 20
0.0
 30
0.0
  3
$MODEL_SPACE
  1

  0
ENDBLK
  5
3D
  8
0
  0
BLOCK
 67
     1
  8
0
  2
$PAPER_SPACE
 70
     0
 10
0.0
 20
0.0
 30
0.0
  3
$PAPER_SPACE
  1

  0
ENDBLK
  5
3B
 67
     1
  8
0
  0
BLOCK
  8
0
  2
_OPEN
 70
     0
 10
0.0
 20
0.0
 30
0.0
  3
_OPEN
  1
H1111.DWG
  0
LINE
  5
244A
  8
0
  6
BYBLOCK
 62
     0
 10
-1.0
 20
0.1666666666666666
 30
0.0
 11
0.0
 21
0.0
 31
0.0
  0
LINE
  5
244B
  8
0
  6
BYBLOCK
 62
     0
 10
0.0
 20
0.0
 30
0.0
 11
-1.0
 21
-0.1666666666666666
 31
0.0
  0
LINE
  5
244C
  8
0
  6
BYBLOCK
 62
     0
 10
0.0
 20
0.0
 30
0.0
 11
-1.0
 21
0.0
 31
0.0
  0
ENDBLK
  5
244D
  8
0
  0
ENDSEC
  0
SECTION
  2
ENTITIES
  0
TEXT
  5
2529
  8
0
  6
CONTINUOUS
 10
3046.2000000000012
 20
122.0
 30
0.0
 40
28.000000000000011
  1
SF1
 41
0.9
  7
PTSH
 72
     1
 11
3072.0000000000009
 21
136.0
 31
0.0
 73
     2
  0
POLYLINE
  5
2563
  8
0
 66
     1
 10
0.0
 20
0.0
 30
0.0
 70
     1
  0
VERTEX
  5
81B5
  8
0
 10
144.0
 20
56.000000000000007
 30
0.0
  0
VERTEX
  5
81B6
  8
0
 10
3272.0000000000018
 20
56.000000000000007
 30
0.0
  0
VERTEX
  5
81B7
  8
0
 10
3272.0000000000018
 20
2256.0
 30
0.0
  0
VERTEX
  5
81B8
  8
0
 10
144.0
 20
2256.0
 30
0.0
  0
SEQEND
  5
81B9
  8
0
  0
TEXT
  5
6A18
  8
0
 10
557.80084804631599
 20
1255.9356405399101
 30
0.0
 40
26.666666666666679
  1
15mm,20mm
 41
0.8
 72
     4
 11
658.37227661774455
 21
1266.7292913335609
 31
0.0
  0
TEXT
  5
6AF5
  8
0
 10
1784.0558438635819
 20
1233.2092525968289
 30
0.0
 40
26.666666666666679
  1
25mm
 41
0.8
 72
     4
 11
1830.7860025937409
 21
1246.5425859301631
 31
0.0
  0
TEXT
  5
6BAE
  8
0
 10
1098.6999532444861
 20
229.3821476483796
 30
0.0
 40
26.666666666666679
  1
40mm
 41
0.8
 72
     4
 11
1145.4301119746449
 21
242.715480981713
 31
0.0
  0
TEXT
  5
6DA6
  8
0
 10
2596.3778538659599
 20
191.23308847974729
 30
0.0
 40
26.666666666666679
  1
50mm
 41
0.8
 72
     4
 11
2643.1080125961189
 21
204.56642181308061
 31
0.0
  0
TEXT
  5
6E9E
  8
0
 10
1429.658009717924
 20
137.24520396623601
 30
0.0
 40
40.0
  1
TLV  SF1 (PT/SW)
 41
0.8
 72
     4
 11
1637.505628765543
 21
154.38806110909309
 31
0.0
  0
ARC
  5
7ACB
  8
0
 10
452.52549613179337
 20
1502.467753654026
 30
0.0
 40
73.0
 50
60.000000000002721
 51
64.179682532411547
  0
ARC
  5
7ACC
  8
0
 10
481.02549613179349
 20
1551.83120166974
 30
0.0
 40
16.0
 50
0.0
 51
60.000000000002721
  0
ARC
  5
7ACD
  8
0
 10
471.52549613179349
 20
1576.0544372319671
 30
0.0
 40
3.0
 50
180.0
 51
184.4504097965204
  0
LINE
  5
7ACE
  8
0
 10
405.52549613179349
 20
1556.9677536540271
 30
0.0
 11
405.52549613179349
 21
1535.9677536540271
 31
0.0
  0
ARC
  5
7ACF
  8
0
 10
424.02549613179337
 20
1551.83120166974
 30
0.0
 40
16.0
 50
119.9999999999973
 51
180.0
  0
LINE
  5
7AD0
  8
0
 10
408.8724161243257
 20
1556.9677536540271
 30
0.0
 11
405.52549613179349
 21
1556.9677536540271
 31
0.0
  0
LINE
  5
7AD1
  8
0
 10
408.02549613179337
 20
1551.83120166974
 30
0.0
 11
408.02549613179337
 21
1488.0475304110239
 31
0.0
  0
LINE
  5
7AD2
  8
0
 10
408.02549613179337
 20
1535.9677536540271
 30
0.0
 11
405.52549613179349
 21
1535.9677536540271
 31
0.0
  0
LINE
  5
7AD3
  8
0
 10
455.52549613179349
 20
1502.470865076308
 30
0.0
 11
455.5254961317936
 21
1476.387976897031
 31
0.0
  0
LINE
  5
7AD4
  8
0
 10
470.52549613179372
 20
1502.470865076308
 30
0.0
 11
470.52549613179337
 21
1476.387976897031
 31
0.0
  0
LINE
  5
7AD5
  8
0
 10
490.52549613179337
 20
1496.4677536540271
 30
0.0
 11
490.52549613179337
 21
1494.9677536540271
 31
0.0
  0
LINE
  5
7AD6
  8
0
 10
490.52549613179337
 20
1489.9677536540271
 30
0.0
 11
490.52549613179372
 21
1488.4677536540271
 31
0.0
  0
LINE
  5
7AD7
  8
0
 10
510.52549613179372
 20
1494.9677536540271
 30
0.0
 11
510.52549613179337
 21
1489.9677536540271
 31
0.0
  0
LINE
  5
7AD8
  8
0
 10
449.52549613179337
 20
1502.470865076308
 30
0.0
 11
449.52549613179337
 21
1476.387976897031
 31
0.0
  0
LINE
  5
7AD9
  8
0
 10
434.52549613179349
 20
1502.470865076308
 30
0.0
 11
434.52549613179349
 21
1476.387976897031
 31
0.0
  0
LINE
  5
7ADA
  8
0
 10
428.52549613179337
 20
1496.4677536540271
 30
0.0
 11
428.52549613179337
 21
1488.4677536540271
 31
0.0
  0
LINE
  5
7ADB
  8
0
 10
497.0254961317936
 20
1551.83120166974
 30
0.0
 11
497.0254961317936
 21
1494.967753654028
 31
0.0
  0
LINE
  5
7ADC
  8
0
 10
468.53454152887929
 20
1575.8216485653479
 30
0.0
 11
484.34545841964058
 21
1568.1677536540269
 31
0.0
  0
LINE
  5
7ADD
  8
0
 10
436.51674594801528
 20
1575.825473180307
 30
0.0
 11
420.70553384394651
 21
1568.1677536540269
 31
0.0
  0
LINE
  5
7ADE
  8
0
 10
467.52549613179349
 20
1606.4677536540271
 30
0.0
 11
437.52549613179337
 21
1606.4677536540271
 31
0.0
  0
LINE
  5
7ADF
  8
0
 10
468.52549613179349
 20
1605.4677536540271
 30
0.0
 11
468.52549613179349
 21
1576.0544372319671
 31
0.0
  0
LINE
  5
7AE0
  8
0
 10
467.52549613179349
 20
1606.4677536540271
 30
0.0
 11
468.52549613179349
 21
1605.4677536540271
 31
0.0
  0
LINE
  5
7AE1
  8
0
 10
436.52549613179337
 20
1605.4677536540271
 30
0.0
 11
436.52549613179337
 21
1576.0544372319671
 31
0.0
  0
LINE
  5
7AE2
  8
0
 10
437.52549613179337
 20
1606.4677536540271
 30
0.0
 11
436.52549613179337
 21
1605.4677536540271
 31
0.0
  0
LINE
  5
7AE3
  8
0
 10
470.21782644873127
 20
1575.0100781065521
 30
0.0
 11
470.21782644873127
 21
1575.0100781065521
 31
0.0
  0
LINE
  5
7AE4
  8
0
 10
444.24358813906628
 20
1579.567753654027
 30
0.0
 11
436.51674594801528
 21
1575.825473180307
 31
0.0
  0
LINE
  5
7AE5
  8
0
 10
468.53454152887929
 20
1575.8216485653479
 30
0.0
 11
461.52549613179337
 21
1579.2009541847081
 31
0.0
  0
ARC
  5
7AE6
  8
0
 10
452.52549613179337
 20
1502.467753654026
 30
0.0
 40
73.0
 50
115.8419327631776
 51
119.9999999999973
  0
ARC
  5
7AE7
  8
0
 10
433.52549613179372
 20
1576.0544372319671
 30
0.0
 40
3.0
 50
355.62285224876632
 51
0.0
  0
CIRCLE
  5
7AE8
  8
0
 10
452.52549613179337
 20
1562.4677536540271
 30
0.0
 40
18.99999999999994
  0
CIRCLE
  5
7AE9
  8
0
 10
647.35783852076383
 20
1749.749658712085
 30
0.0
 40
16.0
  0
ARC
  5
7AEA
  8
0
 10
647.35783852076383
 20
1749.749658712085
 30
0.0
 40
44.500000000000107
 50
205.27518690666989
 51
334.72481309333011
  0
ARC
  5
7AEB
  8
0
 10
647.35783852076383
 20
1749.749658712085
 30
0.0
 40
44.500000000000107
 50
25.27518690666987
 51
154.72481309333011
  0
LINE
  5
7AEC
  8
0
 10
583.35783852076383
 20
1768.749658712085
 30
0.0
 11
582.35783852076383
 21
1767.749658712085
 31
0.0
  0
ARC
  5
7AED
  8
0
 10
612.85783852076361
 20
1760.749658712085
 30
0.0
 40
8.000000000000119
 50
27.03569178941299
 51
90.0
  0
ARC
  5
7AEE
  8
0
 10
622.65579749189635
 20
1765.7496587120861
 30
0.0
 40
3.0
 50
207.03569178941299
 51
270.0
  0
LINE
  5
7AEF
  8
0
 10
638.03045946767497
 20
1762.749658712085
 30
0.0
 11
622.61190035952916
 21
1762.749658712085
 31
0.0
  0
LINE
  5
7AF0
  8
0
 10
583.35783852076383
 20
1768.749658712085
 30
0.0
 11
612.85783852076361
 21
1768.749658712085
 31
0.0
  0
LINE
  5
7AF1
  8
0
 10
583.35783852076383
 20
1730.749658712085
 30
0.0
 11
582.35783852076383
 21
1731.749658712085
 31
0.0
  0
ARC
  5
7AF2
  8
0
 10
612.85783852076361
 20
1738.7496587120861
 30
0.0
 40
8.000000000000119
 50
270.0
 51
332.96430821058698
  0
ARC
  5
7AF3
  8
0
 10
622.65579749189635
 20
1733.749658712085
 30
0.0
 40
3.0
 50
90.0
 51
152.96430821058701
  0
LINE
  5
7AF4
  8
0
 10
638.03045946767497
 20
1736.749658712085
 30
0.0
 11
622.61190035952916
 21
1736.749658712085
 31
0.0
  0
LINE
  5
7AF5
  8
0
 10
583.35783852076383
 20
1730.749658712085
 30
0.0
 11
612.85783852076361
 21
1730.749658712085
 31
0.0
  0
LINE
  5
7AF6
  8
0
 10
582.35783852076383
 20
1767.749658712085
 30
0.0
 11
582.35783852076383
 21
1731.749658712085
 31
0.0
  0
LINE
  5
7AF7
  8
0
 10
711.35783852076383
 20
1768.749658712085
 30
0.0
 11
712.35783852076383
 21
1767.749658712085
 31
0.0
  0
ARC
  5
7AF8
  8
0
 10
681.85783852076383
 20
1760.749658712085
 30
0.0
 40
8.000000000000119
 50
90.0
 51
152.96430821058701
  0
ARC
  5
7AF9
  8
0
 10
672.05987954963121
 20
1765.7496587120861
 30
0.0
 40
3.0
 50
270.0
 51
332.96430821058698
  0
LINE
  5
7AFA
  8
0
 10
656.68521757385236
 20
1762.749658712085
 30
0.0
 11
672.10377668199806
 21
1762.749658712085
 31
0.0
  0
LINE
  5
7AFB
  8
0
 10
711.35783852076383
 20
1768.749658712085
 30
0.0
 11
681.85783852076383
 21
1768.749658712085
 31
0.0
  0
LINE
  5
7AFC
  8
0
 10
711.35783852076383
 20
1730.749658712085
 30
0.0
 11
712.35783852076383
 21
1731.749658712085
 31
0.0
  0
ARC
  5
7AFD
  8
0
 10
681.85783852076383
 20
1738.7496587120861
 30
0.0
 40
8.000000000000119
 50
207.03569178941299
 51
270.0
  0
ARC
  5
7AFE
  8
0
 10
672.05987954963121
 20
1733.749658712085
 30
0.0
 40
3.0
 50
27.03569178941299
 51
90.0
  0
LINE
  5
7AFF
  8
0
 10
656.68521757385236
 20
1736.749658712085
 30
0.0
 11
672.10377668199806
 21
1736.749658712085
 31
0.0
  0
LINE
  5
7B00
  8
0
 10
711.35783852076383
 20
1730.749658712085
 30
0.0
 11
681.85783852076383
 21
1730.749658712085
 31
0.0
  0
LINE
  5
7B01
  8
0
 10
712.35783852076383
 20
1767.749658712085
 30
0.0
 11
712.35783852076383
 21
1731.749658712085
 31
0.0
  0
LINE
  5
7B02
  8
0
 10
497.02549613179349
 20
1417.5554668942989
 30
0.0
 11
497.0254961317936
 21
1476.387976897031
 31
0.0
  0
LINE
  5
7B03
  8
0
 10
408.02549613179372
 20
1417.5554668942989
 30
0.0
 11
408.02549613179372
 21
1476.387976897031
 31
0.0
  0
LINE
  5
7B04
  8
0
 10
396.52549613179349
 20
1488.0475304110239
 30
0.0
 11
434.52549613179349
 21
1488.0475304110239
 31
0.0
  0
LINE
  5
7B05
  8
0
 10
470.52549613179337
 20
1488.0475304110239
 30
0.0
 11
508.52549613179349
 21
1488.0475304110239
 31
0.0
  0
LINE
  5
7B06
  8
0
 10
470.52549613179372
 20
1502.470865076308
 30
0.0
 11
455.52549613179349
 21
1502.4708650763071
 31
0.0
  0
LINE
  5
7B07
  8
0
 10
449.52549613179337
 20
1502.4708650763071
 30
0.0
 11
434.52549613179349
 21
1502.4708650763071
 31
0.0
  0
LINE
  5
7B08
  8
0
 10
508.52549613179372
 20
1476.387976897031
 30
0.0
 11
508.52549613179349
 21
1488.0475304110239
 31
0.0
  0
LINE
  5
7B09
  8
0
 10
396.52549613179349
 20
1476.387976897031
 30
0.0
 11
396.52549613179349
 21
1488.0475304110239
 31
0.0
  0
LINE
  5
7B0A
  8
0
 10
396.52549613179349
 20
1476.387976897031
 30
0.0
 11
508.52549613179372
 21
1476.387976897031
 31
0.0
  0
LINE
  5
7B0B
  8
0
 10
455.5254961317936
 20
1496.4677536540271
 30
0.0
 11
449.52549613179372
 21
1496.4677536540271
 31
0.0
  0
LINE
  5
7B0C
  8
0
 10
455.5254961317936
 20
1488.4677536540271
 30
0.0
 11
449.52549613179337
 21
1488.4677536540271
 31
0.0
  0
LINE
  5
7B0D
  8
0
 10
449.52549613179372
 20
1488.047530411023
 30
0.0
 11
455.52549613179349
 21
1488.047530411023
 31
0.0
  0
LINE
  5
7B0E
  8
0
 10
437.52549613179337
 20
1351.4677536540271
 30
0.0
 11
467.52549613179349
 21
1351.4677536540271
 31
0.0
  0
ARC
  5
7B0F
  8
0
 10
452.52549613179337
 20
1446.4677536540271
 30
0.0
 40
73.0
 50
240.00000000001401
 51
299.99999999998602
  0
LINE
  5
7B10
  8
0
 10
497.02549613179349
 20
1397.1043056383139
 30
0.0
 11
497.02549613179349
 21
1417.5554668942989
 31
0.0
  0
ARC
  5
7B11
  8
0
 10
481.02549613179349
 20
1397.1043056383139
 30
0.0
 40
16.0
 50
299.99999999998602
 51
0.0
  0
LINE
  5
7B12
  8
0
 10
468.52549613179349
 20
1372.881070076086
 30
0.0
 11
468.52549613179349
 21
1352.4677536540271
 31
0.0
  0
LINE
  5
7B13
  8
0
 10
468.52549613179349
 20
1352.4677536540271
 30
0.0
 11
467.52549613179349
 21
1351.4677536540271
 31
0.0
  0
ARC
  5
7B14
  8
0
 10
471.52549613179349
 20
1372.881070076086
 30
0.0
 40
3.0
 50
104.4775121859294
 51
180.0
  0
LINE
  5
7B15
  8
0
 10
408.02549613179337
 20
1397.1043056383139
 30
0.0
 11
408.02549613179337
 21
1417.5554668942989
 31
0.0
  0
LINE
  5
7B16
  8
0
 10
436.52549613179337
 20
1372.881070076086
 30
0.0
 11
436.52549613179337
 21
1352.4677536540271
 31
0.0
  0
LINE
  5
7B17
  8
0
 10
437.52549613179337
 20
1351.4677536540271
 30
0.0
 11
436.52549613179337
 21
1352.4677536540271
 31
0.0
  0
ARC
  5
7B18
  8
0
 10
433.52549613179349
 20
1372.881070076086
 30
0.0
 40
3.0
 50
0.0
 51
75.522487814070544
  0
ARC
  5
7B19
  8
0
 10
424.02549613179337
 20
1397.1043056383139
 30
0.0
 40
16.0
 50
180.0
 51
240.00000000001401
  0
LINE
  5
7B1A
  8
0
 10
470.52549613179337
 20
1496.4677536540271
 30
0.0
 11
490.52549613179337
 21
1496.4677536540271
 31
0.0
  0
LINE
  5
7B1B
  8
0
 10
470.52549613179337
 20
1488.4677536540271
 30
0.0
 11
490.52549613179337
 21
1488.4677536540271
 31
0.0
  0
LINE
  5
7B1C
  8
0
 10
490.52549613179337
 20
1489.9677536540271
 30
0.0
 11
510.52549613179337
 21
1489.9677536540271
 31
0.0
  0
LINE
  5
7B1D
  8
0
 10
490.52549613179337
 20
1494.9677536540271
 30
0.0
 11
510.52549613179372
 21
1494.9677536540271
 31
0.0
  0
LINE
  5
7B1E
  8
0
 10
490.52549613179337
 20
1494.420678537228
 30
0.0
 11
490.52549613179337
 21
1490.5148287708271
 31
0.0
  0
LINE
  5
7B1F
  8
0
 10
434.5254961317936
 20
1496.4677536540271
 30
0.0
 11
428.52549613179337
 21
1496.4677536540271
 31
0.0
  0
LINE
  5
7B20
  8
0
 10
434.52549613179349
 20
1488.4677536540271
 30
0.0
 11
428.52549613179337
 21
1488.4677536540271
 31
0.0
  0
ARC
  5
7B21
  8
0
 10
826.87210882660725
 20
1502.467753654026
 30
0.0
 40
73.0
 50
115.8203174675884
 51
119.9999999999973
  0
ARC
  5
7B22
  8
0
 10
798.37210882660725
 20
1551.83120166974
 30
0.0
 40
16.0
 50
119.9999999999973
 51
180.0
  0
ARC
  5
7B23
  8
0
 10
807.87210882660725
 20
1576.0544372319671
 30
0.0
 40
3.0
 50
355.54959020347962
 51
0.0
  0
ARC
  5
7B24
  8
0
 10
855.37210882660725
 20
1551.83120166974
 30
0.0
 40
16.0
 50
0.0
 51
60.000000000002721
  0
LINE
  5
7B25
  8
0
 10
871.37210882660725
 20
1551.83120166974
 30
0.0
 11
871.37210882660725
 21
1492.4677536540271
 31
0.0
  0
LINE
  5
7B26
  8
0
 10
782.3721088266069
 20
1551.83120166974
 30
0.0
 11
782.3721088266069
 21
1492.4677536540271
 31
0.0
  0
LINE
  5
7B27
  8
0
 10
810.86306342952128
 20
1575.8216485653479
 30
0.0
 11
795.0521465387601
 21
1568.1677536540269
 31
0.0
  0
LINE
  5
7B28
  8
0
 10
842.88085901038528
 20
1575.825473180307
 30
0.0
 11
858.69207111445405
 21
1568.1677536540269
 31
0.0
  0
LINE
  5
7B29
  8
0
 10
811.87210882660725
 20
1606.4677536540271
 30
0.0
 11
841.87210882660725
 21
1606.4677536540271
 31
0.0
  0
LINE
  5
7B2A
  8
0
 10
810.87210882660725
 20
1605.4677536540271
 30
0.0
 11
810.87210882660725
 21
1576.0544372319671
 31
0.0
  0
LINE
  5
7B2B
  8
0
 10
811.87210882660725
 20
1606.4677536540271
 30
0.0
 11
810.87210882660725
 21
1605.4677536540271
 31
0.0
  0
LINE
  5
7B2C
  8
0
 10
842.87210882660725
 20
1605.4677536540271
 30
0.0
 11
842.87210882660725
 21
1576.0544372319671
 31
0.0
  0
LINE
  5
7B2D
  8
0
 10
841.87210882660725
 20
1606.4677536540271
 30
0.0
 11
842.87210882660725
 21
1605.4677536540271
 31
0.0
  0
LINE
  5
7B2E
  8
0
 10
809.1797785096694
 20
1575.0100781065521
 30
0.0
 11
809.1797785096694
 21
1575.0100781065521
 31
0.0
  0
LINE
  5
7B2F
  8
0
 10
835.15401681933429
 20
1579.567753654027
 30
0.0
 11
842.88085901038528
 21
1575.825473180307
 31
0.0
  0
LINE
  5
7B30
  8
0
 10
810.86306342952128
 20
1575.8216485653479
 30
0.0
 11
817.87210882660725
 21
1579.2009541847081
 31
0.0
  0
ARC
  5
7B31
  8
0
 10
826.87210882660725
 20
1502.467753654026
 30
0.0
 40
73.0
 50
60.000000000002721
 51
64.158067236822404
  0
ARC
  5
7B32
  8
0
 10
845.87210882660702
 20
1576.0544372319671
 30
0.0
 40
3.0
 50
180.0
 51
184.3771477512208
  0
CIRCLE
  5
7B33
  8
0
 10
826.87210882660725
 20
1562.4677536540271
 30
0.0
 40
18.99999999999994
  0
LINE
  5
7B34
  8
0
 10
782.37210882660725
 20
1417.5554668942989
 30
0.0
 11
782.3721088266069
 21
1471.967753654028
 31
0.0
  0
LINE
  5
7B35
  8
0
 10
871.3721088266069
 20
1417.5554668942989
 30
0.0
 11
871.3721088266069
 21
1471.9677536540271
 31
0.0
  0
LINE
  5
7B36
  8
0
 10
770.87210882660702
 20
1471.9677536540271
 30
0.0
 11
770.87210882660725
 21
1492.4677536540271
 31
0.0
  0
LINE
  5
7B37
  8
0
 10
882.87210882660747
 20
1471.9677536540271
 30
0.0
 11
882.87210882660725
 21
1492.4677536540271
 31
0.0
  0
LINE
  5
7B38
  8
0
 10
871.3721088266069
 20
1417.5554668942989
 30
0.0
 11
782.37210882660725
 21
1417.5554668942989
 31
0.0
  0
LINE
  5
7B39
  8
0
 10
871.42210882660697
 20
1417.5554668942989
 30
0.0
 11
782.3721088266069
 21
1417.5554668942989
 31
0.0
  0
LINE
  5
7B3A
  8
0
 10
871.37210882660725
 20
1417.5554668942989
 30
0.0
 11
782.37210882660725
 21
1417.5554668942989
 31
0.0
  0
LINE
  5
7B3B
  8
0
 10
841.87210882660725
 20
1351.4677536540271
 30
0.0
 11
811.87210882660725
 21
1351.4677536540271
 31
0.0
  0
ARC
  5
7B3C
  8
0
 10
826.87210882660725
 20
1446.4677536540271
 30
0.0
 40
73.0
 50
240.00000000001401
 51
299.99999999998602
  0
LINE
  5
7B3D
  8
0
 10
782.37210882660725
 20
1397.1043056383139
 30
0.0
 11
782.37210882660725
 21
1417.5554668942989
 31
0.0
  0
ARC
  5
7B3E
  8
0
 10
798.37210882660725
 20
1397.1043056383139
 30
0.0
 40
16.0
 50
180.0
 51
240.00000000001401
  0
LINE
  5
7B3F
  8
0
 10
810.87210882660725
 20
1372.881070076086
 30
0.0
 11
810.87210882660725
 21
1352.4677536540271
 31
0.0
  0
LINE
  5
7B40
  8
0
 10
810.87210882660725
 20
1352.4677536540271
 30
0.0
 11
811.87210882660725
 21
1351.4677536540271
 31
0.0
  0
ARC
  5
7B41
  8
0
 10
807.87210882660725
 20
1372.881070076086
 30
0.0
 40
3.0
 50
0.0
 51
75.522487814070544
  0
LINE
  5
7B42
  8
0
 10
871.37210882660725
 20
1397.1043056383139
 30
0.0
 11
871.37210882660725
 21
1417.5554668942989
 31
0.0
  0
LINE
  5
7B43
  8
0
 10
842.87210882660725
 20
1372.881070076086
 30
0.0
 11
842.87210882660725
 21
1352.4677536540271
 31
0.0
  0
LINE
  5
7B44
  8
0
 10
841.87210882660725
 20
1351.4677536540271
 30
0.0
 11
842.87210882660725
 21
1352.4677536540271
 31
0.0
  0
ARC
  5
7B45
  8
0
 10
845.87210882660725
 20
1372.881070076086
 30
0.0
 40
3.0
 50
104.4775121859294
 51
180.0
  0
ARC
  5
7B46
  8
0
 10
855.37210882660725
 20
1397.1043056383139
 30
0.0
 40
16.0
 50
299.99999999998602
 51
0.0
  0
LINE
  5
7B47
  8
0
 10
770.87210882660725
 20
1492.4677536540271
 30
0.0
 11
882.87210882660725
 21
1492.4677536540271
 31
0.0
  0
LINE
  5
7B48
  8
0
 10
770.87210882660702
 20
1471.9677536540271
 30
0.0
 11
882.87210882660747
 21
1471.9677536540271
 31
0.0
  0
LINE
  5
7B49
  8
0
 10
631.35786353197
 20
1797.248654960164
 30
0.0
 11
663.35781350955745
 21
1797.2506624640071
 31
0.0
  0
LINE
  5
7B4A
  8
0
 10
630.35632077022865
 20
1792.8317645523521
 30
0.0
 11
630.35792627024557
 21
1796.2487407812121
 31
0.0
  0
ARC
  5
7B4B
  8
0
 10
627.35632110138113
 20
1792.833174131815
 30
0.0
 40
3.0
 50
294.903080335124
 51
359.97307901429627
  0
ARC
  5
7B4C
  8
0
 10
631.35792626656303
 20
1796.248654962131
 30
0.0
 40
1.0
 50
90.003594427412423
 51
179.99508292883499
  0
ARC
  5
7B4D
  8
0
 10
667.35757981934069
 20
1792.833998651209
 30
0.0
 40
3.0
 50
179.99502884858751
 51
245.09928166462049
  0
LINE
  5
7B4E
  8
0
 10
664.3575798306324
 20
1792.8342589400879
 30
0.0
 11
664.35787624038664
 21
1796.250575703016
 31
0.0
  0
ARC
  5
7B4F
  8
0
 10
663.35787624415036
 20
1796.250662465975
 30
0.0
 40
1.0
 50
359.99502884858748
 51
90.003594427412423
  0
LINE
  5
7B50
  8
0
 10
584.30992338645774
 20
1691.749658712085
 30
0.0
 11
600.19942368922375
 21
1691.749658712085
 31
0.0
  0
LINE
  5
7B51
  8
0
 10
584.30992338645774
 20
1695.749658712085
 30
0.0
 11
600.19942368922375
 21
1695.749658712085
 31
0.0
  0
LINE
  5
7B52
  8
0
 10
596.16836058013064
 20
1773.749658712085
 30
0.0
 11
596.16836058013064
 21
1768.749658712085
 31
0.0
  0
LINE
  5
7B53
  8
0
 10
596.16836058013041
 20
1730.749658712085
 30
0.0
 11
596.16836058013041
 21
1713.1925943337051
 31
0.0
  0
LINE
  5
7B54
  8
0
 10
588.16836058013064
 20
1773.749658712085
 30
0.0
 11
588.16836058013064
 21
1768.749658712085
 31
0.0
  0
LINE
  5
7B55
  8
0
 10
588.16836058013041
 20
1730.749658712085
 30
0.0
 11
588.16836058013041
 21
1713.067040961304
 31
0.0
  0
LINE
  5
7B56
  8
0
 10
588.16836058013041
 20
1713.067040961304
 30
0.0
 11
579.49997791650412
 21
1701.336359783553
 31
0.0
  0
LINE
  5
7B57
  8
0
 10
593.8103353074473
 20
1709.6634384967949
 30
0.0
 11
601.80273884587496
 21
1698.945225735908
 31
0.0
  0
LINE
  5
7B58
  8
0
 10
596.16836058013041
 20
1713.1925943337051
 30
0.0
 11
605.00936915917725
 21
1701.336359783553
 31
0.0
  0
ARC
  5
7B59
  8
0
 10
600.19942368922375
 20
1697.749658712085
 30
0.0
 40
2.0
 50
270.0
 51
36.71131776775978
  0
ARC
  5
7B5A
  8
0
 10
600.19942368922375
 20
1697.749658712085
 30
0.0
 40
6.0
 50
270.0
 51
36.71131776775978
  0
ARC
  5
7B5B
  8
0
 10
592.20702015079576
 20
1708.467871472973
 30
0.0
 40
2.0
 50
36.71131776775978
 51
143.13010235416641
  0
ARC
  5
7B5C
  8
0
 10
584.30992338645774
 20
1697.749658712085
 30
0.0
 40
2.0
 50
143.28868223224021
 51
270.0
  0
ARC
  5
7B5D
  8
0
 10
584.30992338645774
 20
1697.749658712085
 30
0.0
 40
6.0
 50
143.28868223224021
 51
270.0
  0
LINE
  5
7B5E
  8
0
 10
590.60702015079585
 20
1709.667871472973
 30
0.0
 11
582.70660822980653
 21
1698.945225735908
 31
0.0
  0
LINE
  5
7B5F
  8
0
 10
588.16836058013064
 20
1773.749658712085
 30
0.0
 11
596.16836058013064
 21
1773.749658712085
 31
0.0
  0
ARC
  5
7B60
  8
0
 10
672.43469118003532
 20
1793.184041611863
 30
0.0
 40
5.6537053185431851
 50
60.000000000002721
 51
240.0000000000027
  0
ARC
  5
7B61
  8
0
 10
672.43469118003532
 20
1706.3152758123081
 30
0.0
 40
5.6537053185431851
 50
119.9999999999973
 51
299.99999999999733
  0
ARC
  5
7B62
  8
0
 10
647.35783852076383
 20
1749.749658712085
 30
0.0
 40
56.0
 50
203.9220712530541
 51
340.16663809113521
  0
ARC
  5
7B63
  8
0
 10
647.35783852076383
 20
1749.749658712085
 30
0.0
 40
56.0
 50
19.833361908864791
 51
156.0779287469459
  0
LINE
  5
7B64
  8
0
 10
662.16524915785021
 20
1606.4677536540271
 30
0.0
 11
632.16524915785021
 21
1606.4677536540271
 31
0.0
  0
LINE
  5
7B65
  8
0
 10
582.16524915785021
 20
1580.4677536540271
 30
0.0
 11
582.16524915785021
 21
1544.4677536540271
 31
0.0
  0
LINE
  5
7B66
  8
0
 10
583.16524915785021
 20
1581.4677536540271
 30
0.0
 11
582.16524915785021
 21
1580.4677536540271
 31
0.0
  0
LINE
  5
7B67
  8
0
 10
599.66524915785021
 20
1543.4677536540271
 30
0.0
 11
583.16524915785021
 21
1543.4677536540271
 31
0.0
  0
LINE
  5
7B68
  8
0
 10
582.16524915785021
 20
1544.4677536540271
 30
0.0
 11
583.16524915785021
 21
1543.4677536540271
 31
0.0
  0
ARC
  5
7B69
  8
0
 10
675.66524915785021
 20
1551.83120166974
 30
0.0
 40
16.0
 50
0.0
 51
60.000000000002721
  0
ARC
  5
7B6A
  8
0
 10
647.16524915785021
 20
1502.4677536540271
 30
0.0
 40
73.0
 50
60.000000000002721
 51
119.9999999999973
  0
ARC
  5
7B6B
  8
0
 10
618.6652491578501
 20
1551.83120166974
 30
0.0
 40
16.0
 50
119.9999999999973
 51
180.0
  0
LINE
  5
7B6C
  8
0
 10
602.66524915785021
 20
1540.4677536540271
 30
0.0
 11
602.66524915785021
 21
1494.967753654028
 31
0.0
  0
LINE
  5
7B6D
  8
0
 10
602.66524915785021
 20
1551.83120166974
 30
0.0
 11
602.66524915785021
 21
1539.8312138282311
 31
0.0
  0
LINE
  5
7B6E
  8
0
 10
663.16524915785021
 20
1605.4677536540271
 30
0.0
 11
663.16524915784987
 21
1576.054437231968
 31
0.0
  0
LINE
  5
7B6F
  8
0
 10
662.16524915785021
 20
1606.4677536540271
 30
0.0
 11
663.16524915785021
 21
1605.4677536540271
 31
0.0
  0
LINE
  5
7B70
  8
0
 10
631.1652491578501
 20
1605.4677536540271
 30
0.0
 11
631.1652491578501
 21
1576.054437231968
 31
0.0
  0
LINE
  5
7B71
  8
0
 10
632.16524915785021
 20
1606.4677536540271
 30
0.0
 11
631.1652491578501
 21
1605.4677536540271
 31
0.0
  0
LINE
  5
7B72
  8
0
 10
712.16524915785021
 20
1580.4677536540271
 30
0.0
 11
712.16524915785021
 21
1544.4677536540271
 31
0.0
  0
LINE
  5
7B73
  8
0
 10
711.16524915785021
 20
1581.4677536540271
 30
0.0
 11
663.16524915784987
 21
1581.4677536540271
 31
0.0
  0
LINE
  5
7B74
  8
0
 10
631.1652491578501
 20
1581.4677536540271
 30
0.0
 11
583.16524915785021
 21
1581.4677536540271
 31
0.0
  0
LINE
  5
7B75
  8
0
 10
711.16524915785021
 20
1581.4677536540271
 30
0.0
 11
712.16524915785021
 21
1580.4677536540271
 31
0.0
  0
LINE
  5
7B76
  8
0
 10
691.66524915785021
 20
1540.4677536540271
 30
0.0
 11
691.66524915785021
 21
1492.4677536540271
 31
0.0
  0
LINE
  5
7B77
  8
0
 10
711.16524915785021
 20
1543.4677536540271
 30
0.0
 11
694.66524915785021
 21
1543.4677536540271
 31
0.0
  0
LINE
  5
7B78
  8
0
 10
691.66524915785021
 20
1551.83120166974
 30
0.0
 11
691.66524915785021
 21
1540.4677536540271
 31
0.0
  0
ARC
  5
7B79
  8
0
 10
694.66524915785021
 20
1540.4677536540271
 30
0.0
 40
3.0
 50
90.0
 51
180.0
  0
LINE
  5
7B7A
  8
0
 10
712.16524915785021
 20
1544.4677536540271
 30
0.0
 11
711.16524915785021
 21
1543.4677536540271
 31
0.0
  0
ARC
  5
7B7B
  8
0
 10
599.66524915784987
 20
1540.4677536540271
 30
0.0
 40
3.0
 50
0.0
 51
90.0
  0
LINE
  5
7B7C
  8
0
 10
601.66524915785021
 20
1489.9677536540271
 30
0.0
 11
601.66524915785021
 21
1488.0475304110239
 31
0.0
  0
LINE
  5
7B7D
  8
0
 10
703.16524915785021
 20
1485.067753654027
 30
0.0
 11
703.16524915785021
 21
1482.2177536540271
 31
0.0
  0
LINE
  5
7B7E
  8
0
 10
703.16524915785021
 20
1479.067753654027
 30
0.0
 11
703.16524915785021
 21
1482.2177536540271
 31
0.0
  0
LINE
  5
7B7F
  8
0
 10
601.14186962668316
 20
1488.0475304110239
 30
0.0
 11
703.16524915785021
 21
1488.0475304110239
 31
0.0
  0
LINE
  5
7B80
  8
0
 10
582.16524915785021
 20
1482.2177536540271
 30
0.0
 11
610.17147200241061
 21
1482.2177536540271
 31
0.0
  0
LINE
  5
7B81
  8
0
 10
582.16524915785021
 20
1476.387976897031
 30
0.0
 11
703.16524915785021
 21
1476.387976897031
 31
0.0
  0
LINE
  5
7B82
  8
0
 10
703.16524915785044
 20
1471.9677536540271
 30
0.0
 11
703.16524915785021
 21
1492.4677536540271
 31
0.0
  0
LINE
  5
7B83
  8
0
 10
582.16524915785021
 20
1476.387976897031
 30
0.0
 11
582.16524915785021
 21
1489.9677536540271
 31
0.0
  0
ARC
  5
7B84
  8
0
 10
591.91904707949845
 20
1492.444698309555
 30
0.0
 40
10.23910092035522
 50
272.79222088910518
 51
346.00068079444941
  0
ARC
  5
7B85
  8
0
 10
592.16836058013041
 20
1492.4677536540271
 30
0.0
 40
10.00311142228025
 50
14.472910718502989
 51
165.52708928149701
  0
LINE
  5
7B86
  8
0
 10
607.16836058013041
 20
1489.9677536540271
 30
0.0
 11
607.16836058013041
 21
1494.967753654028
 31
0.0
  0
LINE
  5
7B87
  8
0
 10
577.16836058013041
 20
1489.9677536540271
 30
0.0
 11
577.16836058013041
 21
1494.9677536540271
 31
0.0
  0
LINE
  5
7B88
  8
0
 10
607.16836058013041
 20
1494.967753654028
 30
0.0
 11
577.16836058013041
 21
1494.9677536540271
 31
0.0
  0
LINE
  5
7B89
  8
0
 10
607.16836058013041
 20
1489.9677536540271
 30
0.0
 11
577.16836058013041
 21
1489.9677536540271
 31
0.0
  0
LINE
  5
7B8A
  8
0
 10
632.16524915785021
 20
1351.4677536540271
 30
0.0
 11
662.16524915785021
 21
1351.4677536540271
 31
0.0
  0
ARC
  5
7B8B
  8
0
 10
647.16524915785021
 20
1446.4677536540271
 30
0.0
 40
73.0
 50
240.00000000001401
 51
299.99999999998602
  0
LINE
  5
7B8C
  8
0
 10
691.66524915785021
 20
1397.1043056383139
 30
0.0
 11
691.66524915785021
 21
1417.5554668942989
 31
0.0
  0
ARC
  5
7B8D
  8
0
 10
675.66524915785021
 20
1397.1043056383139
 30
0.0
 40
16.0
 50
299.99999999998602
 51
0.0
  0
LINE
  5
7B8E
  8
0
 10
663.16524915785021
 20
1372.881070076086
 30
0.0
 11
663.16524915785021
 21
1352.4677536540271
 31
0.0
  0
LINE
  5
7B8F
  8
0
 10
663.16524915785021
 20
1352.4677536540271
 30
0.0
 11
662.16524915785021
 21
1351.4677536540271
 31
0.0
  0
ARC
  5
7B90
  8
0
 10
666.16524915785021
 20
1372.881070076086
 30
0.0
 40
3.0
 50
104.4775121859294
 51
180.0
  0
LINE
  5
7B91
  8
0
 10
602.66524915785021
 20
1397.1043056383139
 30
0.0
 11
602.66524915785021
 21
1417.5554668942989
 31
0.0
  0
LINE
  5
7B92
  8
0
 10
631.1652491578501
 20
1372.881070076086
 30
0.0
 11
631.1652491578501
 21
1352.4677536540271
 31
0.0
  0
LINE
  5
7B93
  8
0
 10
632.16524915785021
 20
1351.4677536540271
 30
0.0
 11
631.1652491578501
 21
1352.4677536540271
 31
0.0
  0
ARC
  5
7B94
  8
0
 10
628.16524915785021
 20
1372.881070076086
 30
0.0
 40
3.0
 50
0.0
 51
75.522487814070544
  0
ARC
  5
7B95
  8
0
 10
618.6652491578501
 20
1397.1043056383139
 30
0.0
 40
16.0
 50
180.0
 51
240.00000000001401
  0
LINE
  5
7B96
  8
0
 10
667.53843874866595
 20
1492.4677536540271
 30
0.0
 11
667.53843874866584
 21
1488.047530411023
 31
0.0
  0
LINE
  5
7B97
  8
0
 10
667.53843874866584
 20
1476.387976897031
 30
0.0
 11
667.53843874866584
 21
1471.9677536540271
 31
0.0
  0
ARC
  5
7B98
  8
0
 10
592.16836058013041
 20
1492.4677536540271
 30
0.0
 40
4.0
 50
218.68218745349299
 51
321.3178125465069
  0
ARC
  5
7B99
  8
0
 10
592.16836058013041
 20
1492.4677536540271
 30
0.0
 40
4.0
 50
38.68218745349305
 51
141.3178125465069
  0
LINE
  5
7B9A
  8
0
 10
703.16524915785021
 20
1492.4677536540271
 30
0.0
 11
667.53843874866595
 21
1492.4677536540271
 31
0.0
  0
LINE
  5
7B9B
  8
0
 10
703.16524915785044
 20
1471.9677536540271
 30
0.0
 11
667.53843874866584
 21
1471.9677536540271
 31
0.0
  0
LINE
  5
7B9C
  8
0
 10
691.66524915785021
 20
1417.5554668942989
 30
0.0
 11
691.66524915785021
 21
1471.9677536540271
 31
0.0
  0
LINE
  5
7B9D
  8
0
 10
602.66524915785021
 20
1417.5554668942989
 30
0.0
 11
602.66524915785021
 21
1472.9677536540271
 31
0.0
  0
LINE
  5
7B9E
  8
0
 10
601.66524915785021
 20
1473.9677536540271
 30
0.0
 11
601.66524915785021
 21
1476.337976897031
 31
0.0
  0
ARC
  5
7B9F
  8
0
 10
601.66524915785021
 20
1472.9677536540271
 30
0.0
 40
1.0
 50
0.0
 51
90.0
  0
LINE
  5
7BA0
  8
0
 10
602.66524915785021
 20
1417.5554668942989
 30
0.0
 11
691.66524915785021
 21
1417.5554668942989
 31
0.0
  0
LINE
  5
7BA1
  8
0
 10
408.02549613179372
 20
1417.5554668942989
 30
0.0
 11
497.0254961317936
 21
1417.5554668942989
 31
0.0
  0
LINE
  5
7BA2
  8
0
 10
1770.5724052418459
 20
1546.9911017570059
 30
0.0
 11
1791.0724052418459
 21
1546.9911017570059
 31
0.0
  0
LINE
  5
7BA3
  8
0
 10
1769.5724052418459
 20
1547.9911017570059
 30
0.0
 11
1770.5724052418459
 21
1546.9911017570059
 31
0.0
  0
LINE
  5
7BA4
  8
0
 10
1918.5724052418459
 20
1546.9911017570059
 30
0.0
 11
1898.0724052418459
 21
1546.9911017570059
 31
0.0
  0
ARC
  5
7BA5
  8
0
 10
1898.0724052418459
 20
1543.9911017570059
 30
0.0
 40
3.0
 50
90.0
 51
180.0
  0
LINE
  5
7BA6
  8
0
 10
1918.5724052418459
 20
1592.9911017570059
 30
0.0
 11
1860.5725462843491
 21
1592.9911017570059
 31
0.0
  0
LINE
  5
7BA7
  8
0
 10
1828.572267999069
 20
1592.9911017570059
 30
0.0
 11
1770.5724052418459
 21
1592.9911017570059
 31
0.0
  0
LINE
  5
7BA8
  8
0
 10
1919.5724052418459
 20
1591.9911017570059
 30
0.0
 11
1918.5724052418459
 21
1592.9911017570059
 31
0.0
  0
LINE
  5
7BA9
  8
0
 10
1883.929481754599
 20
1730.780817178844
 30
0.0
 11
1883.5253377463041
 21
1730.780817178844
 31
0.0
  0
LINE
  5
7BAA
  8
0
 10
1919.5718151458409
 20
1768.614096717657
 30
0.0
 11
1919.57181514584
 21
1724.614121604151
 31
0.0
  0
LINE
  5
7BAB
  8
0
 10
1918.57181514584
 20
1723.614121604151
 30
0.0
 11
1899.3658420126139
 21
1723.6148357166351
 31
0.0
  0
ARC
  5
7BAC
  8
0
 10
1899.3658791944049
 20
1724.6148357159441
 30
0.0
 40
1.0
 50
240.2004279299278
 51
269.99786964028988
  0
LINE
  5
7BAD
  8
0
 10
1919.57181514584
 20
1724.614121604151
 30
0.0
 11
1918.57181514584
 21
1723.614121604151
 31
0.0
  0
LINE
  5
7BAE
  8
0
 10
1883.9263104856709
 20
1730.7808176777451
 30
0.0
 11
1846.8761782554061
 21
1730.780771762096
 31
0.0
  0
ARC
  5
7BAF
  8
0
 10
1883.9263229279561
 20
1720.780817677753
 30
0.0
 40
10.0
 50
60.200427929927827
 51
90.000071289044229
  0
LINE
  5
7BB0
  8
0
 10
1829.5724052415881
 20
1616.4911017570059
 30
0.0
 11
1859.572405242104
 21
1616.4911017570059
 31
0.0
  0
LINE
  5
7BB1
  8
0
 10
1828.572405241589
 20
1615.4911017570059
 30
0.0
 11
1828.5722307041331
 21
1586.8768446848301
 31
0.0
  0
LINE
  5
7BB2
  8
0
 10
1860.572405242104
 20
1615.4911017570059
 30
0.0
 11
1860.5725846118489
 21
1586.8768430901921
 31
0.0
  0
LINE
  5
7BB3
  8
0
 10
1829.5724052415881
 20
1616.4911017570059
 30
0.0
 11
1859.572405242104
 21
1616.4911017570059
 31
0.0
  0
LINE
  5
7BB4
  8
0
 10
1859.572405242104
 20
1616.4911017570059
 30
0.0
 11
1860.572405242104
 21
1615.4911017570059
 31
0.0
  0
LINE
  5
7BB5
  8
0
 10
1829.5724052415881
 20
1616.4911017570059
 30
0.0
 11
1828.572405241589
 21
1615.4911017570059
 31
0.0
  0
LINE
  5
7BB6
  8
0
 10
1895.0724052418459
 20
1559.066783846547
 30
0.0
 11
1895.0724052418459
 21
1515.2411017570059
 31
0.0
  0
LINE
  5
7BB7
  8
0
 10
1794.0724052418459
 20
1543.9911017570059
 30
0.0
 11
1794.0724052418459
 21
1517.7411017570059
 31
0.0
  0
ARC
  5
7BB8
  8
0
 10
1791.0724052418459
 20
1543.9911017570059
 30
0.0
 40
3.0
 50
0.0
 51
90.0
  0
LINE
  5
7BB9
  8
0
 10
1919.5724052418459
 20
1591.9911017570059
 30
0.0
 11
1919.5724052418459
 21
1547.9911017570059
 31
0.0
  0
LINE
  5
7BBA
  8
0
 10
1918.5724052418459
 20
1546.9911017570059
 30
0.0
 11
1919.5724052418459
 21
1547.9911017570059
 31
0.0
  0
LINE
  5
7BBB
  8
0
 10
1769.5724052418459
 20
1591.9911017570059
 30
0.0
 11
1769.5724052418459
 21
1547.9911017570059
 31
0.0
  0
LINE
  5
7BBC
  8
0
 10
1770.5724052418459
 20
1592.9911017570059
 30
0.0
 11
1769.5724052418459
 21
1591.9911017570059
 31
0.0
  0
ARC
  5
7BBD
  8
0
 10
1844.5724052418459
 20
1502.489403207285
 30
0.0
 40
83.499999999999986
 50
60.507627324947293
 51
119.49237267505271
  0
ARC
  5
7BBE
  8
0
 10
1876.5724052418459
 20
1559.066783846547
 30
0.0
 40
18.5
 50
0.0
 51
60.507627324947293
  0
ARC
  5
7BBF
  8
0
 10
1812.5724052418459
 20
1559.066783846547
 30
0.0
 40
18.5
 50
119.49237267505271
 51
180.0
  0
LINE
  5
7BC0
  8
0
 10
1794.0724052418459
 20
1543.9911017570059
 30
0.0
 11
1794.0724052418459
 21
1559.066783846547
 31
0.0
  0
LINE
  5
7BC1
  8
0
 10
1975.6151068949041
 20
1559.066783846547
 30
0.0
 11
1975.6151068949041
 21
1515.2411017570059
 31
0.0
  0
LINE
  5
7BC2
  8
0
 10
2076.6151068949039
 20
1543.9911017570059
 30
0.0
 11
2076.6151068949039
 21
1515.2411017570059
 31
0.0
  0
ARC
  5
7BC3
  8
0
 10
2026.1151068949041
 20
1502.489403207285
 30
0.0
 40
83.499999999999986
 50
116.3274903744406
 51
119.49237267505271
  0
ARC
  5
7BC4
  8
0
 10
2026.1151068949041
 20
1502.489403207285
 30
0.0
 40
83.499999999999986
 50
60.507627324947293
 51
63.672509625559357
  0
ARC
  5
7BC5
  8
0
 10
1994.1151068949041
 20
1559.066783846547
 30
0.0
 40
18.5
 50
119.49237267505271
 51
180.0
  0
ARC
  5
7BC6
  8
0
 10
2058.1151068949039
 20
1559.066783846547
 30
0.0
 40
18.5
 50
0.0
 51
60.507627324947293
  0
LINE
  5
7BC7
  8
0
 10
2076.6151068949039
 20
1543.9911017570059
 30
0.0
 11
2076.6151068949048
 21
1559.066783846547
 31
0.0
  0
LINE
  5
7BC8
  8
0
 10
2041.1151068951619
 20
1616.4911017570059
 30
0.0
 11
2011.1151068946469
 21
1616.4911017570059
 31
0.0
  0
LINE
  5
7BC9
  8
0
 10
2042.1151068951619
 20
1615.4911017570059
 30
0.0
 11
2042.115276343565
 21
1587.711161167965
 31
0.0
  0
LINE
  5
7BCA
  8
0
 10
2010.115106894646
 20
1615.4911017570059
 30
0.0
 11
2010.1149329078801
 21
1587.7355716990289
 31
0.0
  0
LINE
  5
7BCB
  8
0
 10
2041.1151068951619
 20
1616.4911017570059
 30
0.0
 11
2011.1151068946469
 21
1616.4911017570059
 31
0.0
  0
LINE
  5
7BCC
  8
0
 10
2011.1151068946469
 20
1616.4911017570059
 30
0.0
 11
2010.115106894646
 21
1615.4911017570059
 31
0.0
  0
LINE
  5
7BCD
  8
0
 10
2041.1151068951619
 20
1616.4911017570059
 30
0.0
 11
2042.1151068951619
 21
1615.4911017570059
 31
0.0
  0
CIRCLE
  5
7BCE
  8
0
 10
2026.1151068949041
 20
1569.9911017570059
 30
0.0
 40
23.00000000000006
  0
LINE
  5
7BCF
  8
0
 10
2036.3156361462779
 20
1590.605397839867
 30
0.0
 11
2063.1474630901089
 21
1577.328260725498
 31
0.0
  0
LINE
  5
7BD0
  8
0
 10
2015.9145776435309
 20
1590.605397839867
 30
0.0
 11
1989.0827506996991
 21
1577.328260725498
 31
0.0
  0
LINE
  5
7BD1
  8
0
 10
2079.6151068949039
 20
1562.4911017570059
 30
0.0
 11
2079.6151068949039
 21
1541.4911017570059
 31
0.0
  0
LINE
  5
7BD2
  8
0
 10
2076.2951333074479
 20
1562.4911017570059
 30
0.0
 11
2079.6151068949039
 21
1562.4911017570059
 31
0.0
  0
LINE
  5
7BD3
  8
0
 10
2076.6151068949039
 20
1541.4911017570059
 30
0.0
 11
2079.6151068949039
 21
1541.4911017570059
 31
0.0
  0
ARC
  5
7BD4
  8
0
 10
1844.57181514584
 20
1746.614109160904
 30
0.0
 40
50.50000000000022
 50
201.67084699063619
 51
338.32915300936389
  0
ARC
  5
7BD5
  8
0
 10
1844.57181514584
 20
1746.614109160904
 30
0.0
 40
50.50000000000022
 50
21.670846990636161
 51
158.32915300936381
  0
CIRCLE
  5
7BD6
  8
0
 10
1844.5724052418459
 20
1746.614109160904
 30
0.0
 40
16.00006072746363
  0
LINE
  5
7BD7
  8
0
 10
1888.895997726547
 20
1729.458509329123
 30
0.0
 11
1898.8689117145459
 21
1723.7470665508069
 31
0.0
  0
LINE
  5
7BD8
  8
0
 10
1861.572405241847
 20
1796.2351732365571
 30
0.0
 11
1861.572405241847
 21
1799.114109160904
 31
0.0
  0
LINE
  5
7BD9
  8
0
 10
1827.5724052418459
 20
1796.2351732365571
 30
0.0
 11
1827.5724052418459
 21
1799.114109160904
 31
0.0
  0
ARC
  5
7BDA
  8
0
 10
1824.572405241847
 20
1796.2351732365571
 30
0.0
 40
3.0
 50
291.95212783520208
 51
0.0
  0
ARC
  5
7BDB
  8
0
 10
1864.5724052418459
 20
1796.2351732365571
 30
0.0
 40
3.0
 50
180.0
 51
248.04787216479801
  0
LINE
  5
7BDC
  8
0
 10
1860.5724052418459
 20
1800.114109160904
 30
0.0
 11
1828.5724052418459
 21
1800.114109160904
 31
0.0
  0
ARC
  5
7BDD
  8
0
 10
1828.5724052418459
 20
1799.114109160904
 30
0.0
 40
1.0
 50
90.0
 51
180.0
  0
ARC
  5
7BDE
  8
0
 10
1860.5724052418459
 20
1799.114109160904
 30
0.0
 40
1.0
 50
0.0
 51
90.0
  0
LINE
  5
7BDF
  8
0
 10
1805.2141485370821
 20
1730.780817178844
 30
0.0
 11
1805.618292545377
 21
1730.780817178844
 31
0.0
  0
LINE
  5
7BE0
  8
0
 10
1769.57181514584
 20
1768.614096717657
 30
0.0
 11
1769.5718151458409
 21
1724.614121604151
 31
0.0
  0
LINE
  5
7BE1
  8
0
 10
1770.5718151458409
 20
1723.614121604151
 30
0.0
 11
1789.777788279067
 21
1723.6148357166351
 31
0.0
  0
ARC
  5
7BE2
  8
0
 10
1789.777751097276
 20
1724.6148357159441
 30
0.0
 40
1.0
 50
270.0021303597232
 51
299.79957207006572
  0
LINE
  5
7BE3
  8
0
 10
1769.5718151458409
 20
1724.614121604151
 30
0.0
 11
1770.5718151458409
 21
1723.614121604151
 31
0.0
  0
LINE
  5
7BE4
  8
0
 10
1805.2173198060109
 20
1730.7808176777451
 30
0.0
 11
1842.267452036275
 21
1730.780771762096
 31
0.0
  0
ARC
  5
7BE5
  8
0
 10
1805.217307363725
 20
1720.780817677753
 30
0.0
 40
10.0
 50
89.999928710955757
 51
119.7995720700721
  0
LINE
  5
7BE6
  8
0
 10
1800.2476325651351
 20
1729.458509329123
 30
0.0
 11
1790.274718577135
 21
1723.7470665508069
 31
0.0
  0
LINE
  5
7BE7
  8
0
 10
1883.9294817552329
 20
1762.447401142965
 30
0.0
 11
1883.5253377463041
 21
1762.447401142965
 31
0.0
  0
LINE
  5
7BE8
  8
0
 10
1918.57181514584
 20
1769.614096717658
 30
0.0
 11
1899.3658420126139
 21
1769.6133826051739
 31
0.0
  0
ARC
  5
7BE9
  8
0
 10
1899.3658791944049
 20
1768.6133826058649
 30
0.0
 40
1.0
 50
90.002130359710137
 51
119.7995720700721
  0
LINE
  5
7BEA
  8
0
 10
1883.9263104856709
 20
1762.447400644063
 30
0.0
 11
1846.8761782554061
 21
1762.4474465597129
 31
0.0
  0
ARC
  5
7BEB
  8
0
 10
1883.9263229279561
 20
1772.447400644056
 30
0.0
 40
10.0
 50
269.99992871095583
 51
299.79957207006572
  0
LINE
  5
7BEC
  8
0
 10
1888.895997726547
 20
1763.769708992686
 30
0.0
 11
1898.8689117145459
 21
1769.481151771002
 31
0.0
  0
LINE
  5
7BED
  8
0
 10
1805.214148536448
 20
1762.447401142965
 30
0.0
 11
1805.618292545377
 21
1762.447401142965
 31
0.0
  0
LINE
  5
7BEE
  8
0
 10
1770.5718151458409
 20
1769.614096717658
 30
0.0
 11
1789.777788279067
 21
1769.6133826051739
 31
0.0
  0
ARC
  5
7BEF
  8
0
 10
1789.777751097276
 20
1768.6133826058649
 30
0.0
 40
1.0
 50
60.200427929927827
 51
89.997869640289835
  0
LINE
  5
7BF0
  8
0
 10
1805.2173198060109
 20
1762.447400644063
 30
0.0
 11
1842.267452036275
 21
1762.4474465597129
 31
0.0
  0
ARC
  5
7BF1
  8
0
 10
1805.217307363725
 20
1772.447400644056
 30
0.0
 40
10.0
 50
240.2004279299278
 51
270.00007128904417
  0
LINE
  5
7BF2
  8
0
 10
1800.2476325651351
 20
1763.769708992686
 30
0.0
 11
1790.274718577135
 21
1769.481151771002
 31
0.0
  0
LINE
  5
7BF3
  8
0
 10
1769.5718151458409
 20
1768.614096717658
 30
0.0
 11
1770.5718151458409
 21
1769.614096717658
 31
0.0
  0
LINE
  5
7BF4
  8
0
 10
1919.57181514584
 20
1768.614096717658
 30
0.0
 11
1918.57181514584
 21
1769.614096717658
 31
0.0
  0
LINE
  5
7BF5
  8
0
 10
1794.0724052418459
 20
1495.9911017570059
 30
0.0
 11
1794.0724052418459
 21
1394.9911017570059
 31
0.0
  0
LINE
  5
7BF6
  8
0
 10
1895.0724052418459
 20
1494.7411017570059
 30
0.0
 11
1895.0724052418459
 21
1394.9911017570059
 31
0.0
  0
LINE
  5
7BF7
  8
0
 10
1891.972405241846
 20
1394.9911017570059
 30
0.0
 11
1797.172405241846
 21
1394.9911017570059
 31
0.0
  0
LINE
  5
7BF8
  8
0
 10
1793.0724052418459
 20
1497.0787172682481
 30
0.0
 11
1793.0724052418459
 21
1496.9911017570059
 31
0.0
  0
LINE
  5
7BF9
  8
0
 10
1860.5724052418459
 20
1349.116194901618
 30
0.0
 11
1860.5724052418459
 21
1328.9911017570059
 31
0.0
  0
LINE
  5
7BFA
  8
0
 10
1859.5724052418459
 20
1327.9911017570059
 30
0.0
 11
1860.5724052418459
 21
1328.9911017570059
 31
0.0
  0
LINE
  5
7BFB
  8
0
 10
1828.5724052418459
 20
1349.116194901618
 30
0.0
 11
1828.5724052418459
 21
1328.9911017570059
 31
0.0
  0
LINE
  5
7BFC
  8
0
 10
1895.0724052418459
 20
1394.9911017570059
 30
0.0
 11
1895.0724052418459
 21
1374.9932569694611
 31
0.0
  0
LINE
  5
7BFD
  8
0
 10
1794.0724052418459
 20
1394.9911017570059
 30
0.0
 11
1794.0724052418459
 21
1374.9932569694611
 31
0.0
  0
LINE
  5
7BFE
  8
0
 10
1794.0724052418459
 20
1394.9911017570059
 30
0.0
 11
1895.0724052418459
 21
1394.9911017570059
 31
0.0
  0
LINE
  5
7BFF
  8
0
 10
1829.5724052418459
 20
1327.9911017570059
 30
0.0
 11
1859.5724052418459
 21
1327.9911017570059
 31
0.0
  0
LINE
  5
7C00
  8
0
 10
1828.5724052418459
 20
1328.9911017570059
 30
0.0
 11
1829.5724052418459
 21
1327.9911017570059
 31
0.0
  0
ARC
  5
7C01
  8
0
 10
1844.5724052418459
 20
1432.9911017570059
 30
0.0
 40
83.0
 50
238.5295450954122
 51
301.47045490458783
  0
ARC
  5
7C02
  8
0
 10
1880.0724052418459
 20
1374.9932569694611
 30
0.0
 40
15.0
 50
301.47045490458783
 51
0.0
  0
ARC
  5
7C03
  8
0
 10
1809.0724052418459
 20
1374.9932569694611
 30
0.0
 40
15.0
 50
180.0
 51
238.5295450954122
  0
ARC
  5
7C05
  8
0
 10
1863.5724052418459
 20
1349.116194901618
 30
0.0
 40
3.0
 50
102.76367589244229
 51
180.0
  0
ARC
  5
7C06
  8
0
 10
1825.5724052418459
 20
1349.116194901618
 30
0.0
 40
3.0
 50
0.0
 51
77.23632410755765
  0
LINE
  5
7C07
  8
0
 10
647.16474915785011
 20
1622.7910293432551
 30
0.0
 11
657.64224915784996
 21
1612.791029343254
 31
0.0
  0
LINE
  5
7C08
  8
0
 10
636.68724915785015
 20
1612.7910293432551
 30
0.0
 11
647.16474915785011
 21
1622.7910293432551
 31
0.0
  0
LINE
  5
7C09
  8
0
 10
647.16524915785021
 20
1612.7910293432551
 30
0.0
 11
636.68724915785015
 21
1622.7910293432551
 31
0.0
  0
LINE
  5
7C0A
  8
0
 10
657.6422491578503
 20
1622.7910293432551
 30
0.0
 11
647.16524915785021
 21
1612.7910293432551
 31
0.0
  0
LINE
  5
7C0B
  8
0
 10
636.68724915785015
 20
1622.7910293432551
 30
0.0
 11
636.68724915785015
 21
1612.7910293432551
 31
0.0
  0
LINE
  5
7C0C
  8
0
 10
657.6422491578503
 20
1622.7910293432551
 30
0.0
 11
657.64224915784996
 21
1612.7910293432551
 31
0.0
  0
LINE
  5
7C0D
  8
0
 10
636.68724915785015
 20
1612.7910293432551
 30
0.0
 11
657.6422491578503
 21
1612.7910293432551
 31
0.0
  0
LINE
  5
7C0E
  8
0
 10
636.68724915785015
 20
1612.7910293432551
 30
0.0
 11
636.88492025439609
 21
1606.4677536540271
 31
0.0
  0
LINE
  5
7C0F
  8
0
 10
637.85024915785004
 20
1612.7910293432551
 30
0.0
 11
638.04764532936611
 21
1606.4677536540271
 31
0.0
  0
LINE
  5
7C10
  8
0
 10
656.48024915785015
 20
1612.7910293432551
 30
0.0
 11
656.28285298633432
 21
1606.4677536540271
 31
0.0
  0
LINE
  5
7C11
  8
0
 10
657.6422491578503
 20
1612.7910293432551
 30
0.0
 11
657.44485298633435
 21
1606.4677536540271
 31
0.0
  0
LINE
  5
7C12
  8
0
 10
636.68724915785015
 20
1622.7910293432551
 30
0.0
 11
657.6422491578503
 21
1622.7910293432551
 31
0.0
  0
LINE
  5
7C13
  8
0
 10
826.87160882660726
 20
1622.7910293432551
 30
0.0
 11
837.34910882660733
 21
1612.791029343254
 31
0.0
  0
LINE
  5
7C14
  8
0
 10
816.39410882660741
 20
1612.7910293432551
 30
0.0
 11
826.87160882660726
 21
1622.7910293432551
 31
0.0
  0
LINE
  5
7C15
  8
0
 10
826.87210882660725
 20
1612.7910293432551
 30
0.0
 11
816.39410882660741
 21
1622.7910293432551
 31
0.0
  0
LINE
  5
7C16
  8
0
 10
837.34910882660733
 20
1622.7910293432551
 30
0.0
 11
826.87210882660725
 21
1612.7910293432551
 31
0.0
  0
LINE
  5
7C17
  8
0
 10
816.39410882660741
 20
1622.7910293432551
 30
0.0
 11
816.39410882660741
 21
1612.7910293432551
 31
0.0
  0
LINE
  5
7C18
  8
0
 10
837.34910882660733
 20
1622.7910293432551
 30
0.0
 11
837.34910882660733
 21
1612.7910293432551
 31
0.0
  0
LINE
  5
7C19
  8
0
 10
816.39410882660741
 20
1612.7910293432551
 30
0.0
 11
837.34910882660733
 21
1612.7910293432551
 31
0.0
  0
LINE
  5
7C1A
  8
0
 10
816.39410882660741
 20
1612.7910293432551
 30
0.0
 11
816.59177992315313
 21
1606.4677536540271
 31
0.0
  0
LINE
  5
7C1B
  8
0
 10
817.55710882660708
 20
1612.7910293432551
 30
0.0
 11
817.75450499812314
 21
1606.4677536540271
 31
0.0
  0
LINE
  5
7C1C
  8
0
 10
836.18710882660719
 20
1612.7910293432551
 30
0.0
 11
835.98971265509135
 21
1606.4677536540271
 31
0.0
  0
LINE
  5
7C1D
  8
0
 10
837.34910882660733
 20
1612.7910293432551
 30
0.0
 11
837.15171265509139
 21
1606.4677536540271
 31
0.0
  0
LINE
  5
7C1E
  8
0
 10
816.39410882660741
 20
1622.7910293432551
 30
0.0
 11
837.34910882660733
 21
1622.7910293432551
 31
0.0
  0
LINE
  5
7C1F
  8
0
 10
452.5253586692786
 20
1622.7910293432551
 30
0.0
 11
463.00285866927862
 21
1612.791029343254
 31
0.0
  0
LINE
  5
7C20
  8
0
 10
442.04785866927858
 20
1612.7910293432551
 30
0.0
 11
452.5253586692786
 21
1622.7910293432551
 31
0.0
  0
LINE
  5
7C21
  8
0
 10
452.52585866927848
 20
1612.7910293432551
 30
0.0
 11
442.04785866927858
 21
1622.7910293432551
 31
0.0
  0
LINE
  5
7C22
  8
0
 10
463.00285866927862
 20
1622.7910293432551
 30
0.0
 11
452.52585866927848
 21
1612.7910293432551
 31
0.0
  0
LINE
  5
7C23
  8
0
 10
442.04785866927858
 20
1622.7910293432551
 30
0.0
 11
442.04785866927858
 21
1612.7910293432551
 31
0.0
  0
LINE
  5
7C24
  8
0
 10
463.00285866927862
 20
1622.7910293432551
 30
0.0
 11
463.00285866927862
 21
1612.7910293432551
 31
0.0
  0
LINE
  5
7C25
  8
0
 10
442.04785866927858
 20
1612.7910293432551
 30
0.0
 11
463.00285866927862
 21
1612.7910293432551
 31
0.0
  0
LINE
  5
7C26
  8
0
 10
442.04785866927858
 20
1612.7910293432551
 30
0.0
 11
442.24552976582441
 21
1606.4677536540271
 31
0.0
  0
LINE
  5
7C27
  8
0
 10
443.21085866927842
 20
1612.7910293432551
 30
0.0
 11
443.40825484079443
 21
1606.4677536540271
 31
0.0
  0
LINE
  5
7C28
  8
0
 10
461.84085866927848
 20
1612.7910293432551
 30
0.0
 11
461.6434624977627
 21
1606.4677536540271
 31
0.0
  0
LINE
  5
7C29
  8
0
 10
463.00285866927862
 20
1612.7910293432551
 30
0.0
 11
462.80546249776262
 21
1606.4677536540271
 31
0.0
  0
LINE
  5
7C2A
  8
0
 10
442.04785866927858
 20
1622.7910293432551
 30
0.0
 11
463.00285866927862
 21
1622.7910293432551
 31
0.0
  0
LINE
  5
7C2B
  8
0
 10
1844.571905241846
 20
1632.8143774462339
 30
0.0
 11
1855.049405241846
 21
1622.814377446233
 31
0.0
  0
LINE
  5
7C2C
  8
0
 10
1834.0944052418461
 20
1622.8143774462339
 30
0.0
 11
1844.571905241846
 21
1632.8143774462339
 31
0.0
  0
LINE
  5
7C2D
  8
0
 10
1844.5724052418459
 20
1622.8143774462339
 30
0.0
 11
1834.0944052418461
 21
1632.8143774462339
 31
0.0
  0
LINE
  5
7C2E
  8
0
 10
1855.049405241846
 20
1632.8143774462339
 30
0.0
 11
1844.5724052418459
 21
1622.8143774462339
 31
0.0
  0
LINE
  5
7C2F
  8
0
 10
1834.0944052418461
 20
1632.8143774462339
 30
0.0
 11
1834.0944052418461
 21
1622.8143774462339
 31
0.0
  0
LINE
  5
7C30
  8
0
 10
1855.049405241846
 20
1632.8143774462339
 30
0.0
 11
1855.049405241846
 21
1622.8143774462339
 31
0.0
  0
LINE
  5
7C31
  8
0
 10
1834.0944052418461
 20
1622.8143774462339
 30
0.0
 11
1855.049405241846
 21
1622.8143774462339
 31
0.0
  0
LINE
  5
7C32
  8
0
 10
1834.0944052418461
 20
1622.8143774462339
 30
0.0
 11
1834.292076338392
 21
1616.4911017570059
 31
0.0
  0
LINE
  5
7C33
  8
0
 10
1835.2574052418461
 20
1622.8143774462339
 30
0.0
 11
1835.454801413362
 21
1616.4911017570059
 31
0.0
  0
LINE
  5
7C34
  8
0
 10
1853.887405241846
 20
1622.8143774462339
 30
0.0
 11
1853.69000907033
 21
1616.4911017570059
 31
0.0
  0
LINE
  5
7C35
  8
0
 10
1855.049405241846
 20
1622.8143774462339
 30
0.0
 11
1854.85200907033
 21
1616.4911017570059
 31
0.0
  0
LINE
  5
7C36
  8
0
 10
1834.0944052418461
 20
1632.8143774462339
 30
0.0
 11
1855.049405241846
 21
1632.8143774462339
 31
0.0
  0
LINE
  5
7C37
  8
0
 10
1793.0724052418459
 20
1512.7411017570059
 30
0.0
 11
1793.0724052418459
 21
1510.8208785140021
 31
0.0
  0
LINE
  5
7C38
  8
0
 10
1908.1223769435931
 20
1507.8411017570061
 30
0.0
 11
1908.1223769435931
 21
1504.9911017570059
 31
0.0
  0
LINE
  5
7C39
  8
0
 10
1908.1223769435931
 20
1501.8411017570061
 30
0.0
 11
1908.1223769435931
 21
1504.9911017570059
 31
0.0
  0
LINE
  5
7C3A
  8
0
 10
1792.549025710679
 20
1510.8208785140021
 30
0.0
 11
1908.1223769435931
 21
1510.8208785140021
 31
0.0
  0
LINE
  5
7C3B
  8
0
 10
1773.5724052418459
 20
1504.9911017570059
 30
0.0
 11
1801.578628086407
 21
1504.9911017570059
 31
0.0
  0
LINE
  5
7C3C
  8
0
 10
1773.5724052418459
 20
1499.16132500001
 30
0.0
 11
1908.1223769435931
 21
1499.16132500001
 31
0.0
  0
LINE
  5
7C3D
  8
0
 10
1908.122376943594
 20
1494.7411017570059
 30
0.0
 11
1908.1223769435931
 21
1515.2411017570059
 31
0.0
  0
LINE
  5
7C3E
  8
0
 10
1773.5724052418459
 20
1499.16132500001
 30
0.0
 11
1773.5724052418459
 21
1512.7411017570059
 31
0.0
  0
ARC
  5
7C3F
  8
0
 10
1783.326203163494
 20
1515.218046412534
 30
0.0
 40
10.23910092035522
 50
272.79222088910518
 51
346.00068079444941
  0
ARC
  5
7C40
  8
0
 10
1783.5755166641261
 20
1515.2411017570059
 30
0.0
 40
10.00311142228025
 50
14.472910718502989
 51
165.52708928149701
  0
LINE
  5
7C41
  8
0
 10
1798.5755166641261
 20
1512.7411017570059
 30
0.0
 11
1798.5755166641261
 21
1517.7411017570059
 31
0.0
  0
LINE
  5
7C42
  8
0
 10
1768.5755166641261
 20
1512.7411017570059
 30
0.0
 11
1768.5755166641261
 21
1517.7411017570059
 31
0.0
  0
LINE
  5
7C43
  8
0
 10
1798.5755166641261
 20
1517.7411017570059
 30
0.0
 11
1768.5755166641261
 21
1517.7411017570059
 31
0.0
  0
LINE
  5
7C44
  8
0
 10
1798.5755166641261
 20
1512.7411017570059
 30
0.0
 11
1768.5755166641261
 21
1512.7411017570059
 31
0.0
  0
LINE
  5
7C45
  8
0
 10
1866.613813813409
 20
1515.2411017570059
 30
0.0
 11
1866.6138138134079
 21
1510.8208785140021
 31
0.0
  0
LINE
  5
7C46
  8
0
 10
1866.6138138134079
 20
1499.16132500001
 30
0.0
 11
1866.6138138134079
 21
1494.7411017570059
 31
0.0
  0
ARC
  5
7C47
  8
0
 10
1783.5755166641261
 20
1515.2411017570059
 30
0.0
 40
4.0
 50
218.68218745349299
 51
321.3178125465069
  0
ARC
  5
7C48
  8
0
 10
1783.5755166641261
 20
1515.2411017570059
 30
0.0
 40
4.0
 50
38.68218745349305
 51
141.3178125465069
  0
LINE
  5
7C49
  8
0
 10
1908.1223769435931
 20
1515.2411017570059
 30
0.0
 11
1866.613813813409
 21
1515.2411017570059
 31
0.0
  0
LINE
  5
7C4A
  8
0
 10
1908.122376943594
 20
1494.7411017570059
 30
0.0
 11
1866.6138138134079
 21
1494.7411017570059
 31
0.0
  0
LINE
  5
7C4B
  8
0
 10
1793.0724052418459
 20
1496.7411017570059
 30
0.0
 11
1793.0724052418459
 21
1499.1113250000101
 31
0.0
  0
ARC
  5
7C4C
  8
0
 10
1793.0724052418459
 20
1495.7411017570059
 30
0.0
 40
1.0
 50
0.0
 51
90.0
  0
LINE
  5
7C4D
  8
0
 10
2076.6151068949048
 20
1494.7411017570059
 30
0.0
 11
2076.6151068949048
 21
1394.9911017570059
 31
0.0
  0
LINE
  5
7C4E
  8
0
 10
1975.6151068949041
 20
1494.7411017570059
 30
0.0
 11
1975.6151068949041
 21
1394.9911017570059
 31
0.0
  0
LINE
  5
7C4F
  8
0
 10
1978.715106894904
 20
1394.9911017570059
 30
0.0
 11
2073.515106894904
 21
1394.9911017570059
 31
0.0
  0
LINE
  5
7C50
  8
0
 10
2010.115106894905
 20
1349.116194901618
 30
0.0
 11
2010.115106894905
 21
1328.9911017570059
 31
0.0
  0
LINE
  5
7C51
  8
0
 10
2011.115106894905
 20
1327.9911017570059
 30
0.0
 11
2010.115106894905
 21
1328.9911017570059
 31
0.0
  0
LINE
  5
7C52
  8
0
 10
2042.115106894905
 20
1349.116194901618
 30
0.0
 11
2042.115106894905
 21
1328.9911017570059
 31
0.0
  0
LINE
  5
7C53
  8
0
 10
1975.6151068949041
 20
1394.9911017570059
 30
0.0
 11
1975.6151068949041
 21
1374.9932569694611
 31
0.0
  0
LINE
  5
7C54
  8
0
 10
2076.6151068949048
 20
1394.9911017570059
 30
0.0
 11
2076.6151068949048
 21
1374.9932569694611
 31
0.0
  0
LINE
  5
7C55
  8
0
 10
2076.6151068949048
 20
1394.9911017570059
 30
0.0
 11
1975.6151068949041
 21
1394.9911017570059
 31
0.0
  0
LINE
  5
7C56
  8
0
 10
2041.1151068949041
 20
1327.9911017570059
 30
0.0
 11
2011.115106894905
 21
1327.9911017570059
 31
0.0
  0
LINE
  5
7C57
  8
0
 10
2042.115106894905
 20
1328.9911017570059
 30
0.0
 11
2041.1151068949041
 21
1327.9911017570059
 31
0.0
  0
ARC
  5
7C58
  8
0
 10
2026.115106894905
 20
1432.9911017570059
 30
0.0
 40
83.0
 50
238.5295450954122
 51
301.47045490458783
  0
ARC
  5
7C59
  8
0
 10
1990.615106894905
 20
1374.9932569694611
 30
0.0
 40
15.0
 50
180.0
 51
238.5295450954122
  0
ARC
  5
7C5A
  8
0
 10
2061.6151068949048
 20
1374.9932569694611
 30
0.0
 40
15.0
 50
301.47045490458783
 51
0.0
  0
ARC
  5
7C5C
  8
0
 10
2007.115106894905
 20
1349.116194901618
 30
0.0
 40
3.0
 50
0.0
 51
77.23632410755765
  0
ARC
  5
7C5D
  8
0
 10
2045.1151068949041
 20
1349.116194901618
 30
0.0
 40
3.0
 50
102.76367589244229
 51
180.0
  0
LINE
  5
7C5E
  8
0
 10
2088.1151068949048
 20
1494.7411017570059
 30
0.0
 11
2088.1151068949048
 21
1515.2411017570059
 31
0.0
  0
LINE
  5
7C5F
  8
0
 10
1964.1151068949041
 20
1494.7411017570059
 30
0.0
 11
1964.1151068949041
 21
1515.2411017570059
 31
0.0
  0
LINE
  5
7C60
  8
0
 10
2088.1151068949048
 20
1515.2411017570059
 30
0.0
 11
1964.1151068949041
 21
1515.2411017570059
 31
0.0
  0
LINE
  5
7C61
  8
0
 10
2088.1151068949048
 20
1494.7411017570059
 30
0.0
 11
1964.1151068949041
 21
1494.7411017570059
 31
0.0
  0
LINE
  5
7C62
  8
0
 10
1664.395287096333
 20
1559.066783846547
 30
0.0
 11
1664.395287096333
 21
1517.741101757005
 31
0.0
  0
LINE
  5
7C63
  8
0
 10
1664.395287096333
 20
1512.7411017570059
 30
0.0
 11
1664.395287096333
 21
1510.8208785140021
 31
0.0
  0
LINE
  5
7C64
  8
0
 10
1563.395287096333
 20
1543.9911017570059
 30
0.0
 11
1563.395287096333
 21
1510.8208785140021
 31
0.0
  0
ARC
  5
7C65
  8
0
 10
1613.8952870963319
 20
1502.489403207285
 30
0.0
 40
83.499999999999986
 50
60.507627324947293
 51
63.672509625559357
  0
ARC
  5
7C66
  8
0
 10
1613.8952870963319
 20
1502.489403207285
 30
0.0
 40
83.499999999999986
 50
116.3274903744406
 51
119.49237267505271
  0
ARC
  5
7C67
  8
0
 10
1645.8952870963319
 20
1559.066783846547
 30
0.0
 40
18.5
 50
0.0
 51
60.507627324947293
  0
ARC
  5
7C68
  8
0
 10
1581.8952870963319
 20
1559.066783846547
 30
0.0
 40
18.5
 50
119.49237267505271
 51
180.0
  0
LINE
  5
7C69
  8
0
 10
1563.395287096333
 20
1543.9911017570059
 30
0.0
 11
1563.3952870963319
 21
1559.066783846547
 31
0.0
  0
LINE
  5
7C6A
  8
0
 10
1598.895287096075
 20
1616.4911017570059
 30
0.0
 11
1628.89528709659
 21
1616.4911017570059
 31
0.0
  0
LINE
  5
7C6B
  8
0
 10
1597.895287096075
 20
1615.4911017570059
 30
0.0
 11
1597.8951176476719
 21
1587.711161167965
 31
0.0
  0
LINE
  5
7C6C
  8
0
 10
1629.89528709659
 20
1615.4911017570059
 30
0.0
 11
1629.8954610833571
 21
1587.7355716990289
 31
0.0
  0
LINE
  5
7C6D
  8
0
 10
1598.895287096075
 20
1616.4911017570059
 30
0.0
 11
1628.89528709659
 21
1616.4911017570059
 31
0.0
  0
LINE
  5
7C6E
  8
0
 10
1628.89528709659
 20
1616.4911017570059
 30
0.0
 11
1629.89528709659
 21
1615.4911017570059
 31
0.0
  0
LINE
  5
7C6F
  8
0
 10
1598.895287096075
 20
1616.4911017570059
 30
0.0
 11
1597.895287096075
 21
1615.4911017570059
 31
0.0
  0
CIRCLE
  5
7C70
  8
0
 10
1613.8952870963319
 20
1569.9911017570059
 30
0.0
 40
23.00000000000006
  0
LINE
  5
7C71
  8
0
 10
1603.694757844959
 20
1590.605397839867
 30
0.0
 11
1576.8629309011269
 21
1577.328260725498
 31
0.0
  0
LINE
  5
7C72
  8
0
 10
1624.095816347706
 20
1590.605397839867
 30
0.0
 11
1650.9276432915381
 21
1577.328260725498
 31
0.0
  0
LINE
  5
7C73
  8
0
 10
1560.3952870963319
 20
1562.4911017570059
 30
0.0
 11
1560.3952870963319
 21
1541.4911017570059
 31
0.0
  0
LINE
  5
7C74
  8
0
 10
1563.715260683789
 20
1562.4911017570059
 30
0.0
 11
1560.3952870963319
 21
1562.4911017570059
 31
0.0
  0
LINE
  5
7C75
  8
0
 10
1563.395287096333
 20
1541.4911017570059
 30
0.0
 11
1560.3952870963319
 21
1541.4911017570059
 31
0.0
  0
LINE
  5
7C76
  8
0
 10
1563.3952870963319
 20
1499.1613250000089
 30
0.0
 11
1563.3952870963319
 21
1394.9911017570059
 31
0.0
  0
LINE
  5
7C77
  8
0
 10
1664.3952870963319
 20
1499.1613250000089
 30
0.0
 11
1664.3952870963319
 21
1394.9911017570059
 31
0.0
  0
LINE
  5
7C78
  8
0
 10
1661.295287096332
 20
1394.9911017570059
 30
0.0
 11
1566.495287096332
 21
1394.9911017570059
 31
0.0
  0
LINE
  5
7C79
  8
0
 10
1629.8952870963319
 20
1349.116194901618
 30
0.0
 11
1629.8952870963319
 21
1328.9911017570059
 31
0.0
  0
LINE
  5
7C7A
  8
0
 10
1628.8952870963319
 20
1327.9911017570059
 30
0.0
 11
1629.8952870963319
 21
1328.9911017570059
 31
0.0
  0
LINE
  5
7C7B
  8
0
 10
1597.8952870963319
 20
1349.116194901618
 30
0.0
 11
1597.8952870963319
 21
1328.9911017570059
 31
0.0
  0
LINE
  5
7C7C
  8
0
 10
1664.3952870963319
 20
1394.9911017570059
 30
0.0
 11
1664.3952870963319
 21
1374.9932569694611
 31
0.0
  0
LINE
  5
7C7D
  8
0
 10
1563.3952870963319
 20
1394.9911017570059
 30
0.0
 11
1563.3952870963319
 21
1374.9932569694611
 31
0.0
  0
LINE
  5
7C7E
  8
0
 10
1563.3952870963319
 20
1394.9911017570059
 30
0.0
 11
1664.3952870963319
 21
1394.9911017570059
 31
0.0
  0
LINE
  5
7C7F
  8
0
 10
1598.8952870963319
 20
1327.9911017570059
 30
0.0
 11
1628.8952870963319
 21
1327.9911017570059
 31
0.0
  0
LINE
  5
7C80
  8
0
 10
1597.8952870963319
 20
1328.9911017570059
 30
0.0
 11
1598.8952870963319
 21
1327.9911017570059
 31
0.0
  0
ARC
  5
7C81
  8
0
 10
1613.8952870963319
 20
1432.9911017570059
 30
0.0
 40
83.0
 50
238.5295450954122
 51
301.47045490458783
  0
ARC
  5
7C82
  8
0
 10
1649.3952870963319
 20
1374.9932569694611
 30
0.0
 40
15.0
 50
301.47045490458783
 51
0.0
  0
ARC
  5
7C83
  8
0
 10
1578.3952870963319
 20
1374.9932569694611
 30
0.0
 40
15.0
 50
180.0
 51
238.5295450954122
  0
ARC
  5
7C85
  8
0
 10
1632.8952870963319
 20
1349.116194901618
 30
0.0
 40
3.0
 50
102.76367589244229
 51
180.0
  0
ARC
  5
7C86
  8
0
 10
1594.8952870963319
 20
1349.116194901618
 30
0.0
 40
3.0
 50
0.0
 51
77.23632410755765
  0
LINE
  5
7C87
  8
0
 10
1616.895287096333
 20
1525.2442131792859
 30
0.0
 11
1616.895287096333
 21
1499.1613250000089
 31
0.0
  0
LINE
  5
7C88
  8
0
 10
1631.8952870963319
 20
1525.2442131792859
 30
0.0
 11
1631.8952870963319
 21
1499.1613250000089
 31
0.0
  0
LINE
  5
7C89
  8
0
 10
1657.8952870963319
 20
1519.241101757005
 30
0.0
 11
1657.8952870963319
 21
1517.741101757005
 31
0.0
  0
LINE
  5
7C8A
  8
0
 10
1657.8952870963319
 20
1512.7411017570059
 30
0.0
 11
1657.8952870963319
 21
1511.241101757005
 31
0.0
  0
LINE
  5
7C8B
  8
0
 10
1677.8952870963319
 20
1517.741101757005
 30
0.0
 11
1677.8952870963319
 21
1512.7411017570059
 31
0.0
  0
LINE
  5
7C8C
  8
0
 10
1610.8952870963319
 20
1525.2442131792859
 30
0.0
 11
1610.8952870963319
 21
1499.1613250000089
 31
0.0
  0
LINE
  5
7C8D
  8
0
 10
1595.8952870963319
 20
1525.2442131792859
 30
0.0
 11
1595.8952870963319
 21
1499.1613250000089
 31
0.0
  0
LINE
  5
7C8E
  8
0
 10
1589.8952870963319
 20
1519.2411017570059
 30
0.0
 11
1589.8952870963319
 21
1511.2411017570059
 31
0.0
  0
LINE
  5
7C8F
  8
0
 10
1551.8952870963319
 20
1510.8208785140021
 30
0.0
 11
1595.8952870963319
 21
1510.8208785140021
 31
0.0
  0
LINE
  5
7C90
  8
0
 10
1631.8952870963319
 20
1510.8208785140021
 30
0.0
 11
1675.8952870963319
 21
1510.8208785140021
 31
0.0
  0
LINE
  5
7C91
  8
0
 10
1631.8952870963319
 20
1525.2442131792859
 30
0.0
 11
1616.895287096333
 21
1525.2442131792859
 31
0.0
  0
LINE
  5
7C92
  8
0
 10
1610.8952870963319
 20
1525.2442131792859
 30
0.0
 11
1595.8952870963319
 21
1525.2442131792859
 31
0.0
  0
LINE
  5
7C93
  8
0
 10
1675.8952870963319
 20
1499.1613250000089
 30
0.0
 11
1675.8952870963319
 21
1510.8208785140021
 31
0.0
  0
LINE
  5
7C94
  8
0
 10
1551.8952870963319
 20
1499.1613250000089
 30
0.0
 11
1551.8952870963319
 21
1510.8208785140021
 31
0.0
  0
LINE
  5
7C95
  8
0
 10
1551.8952870963319
 20
1499.1613250000089
 30
0.0
 11
1675.8952870963319
 21
1499.1613250000089
 31
0.0
  0
LINE
  5
7C96
  8
0
 10
1616.895287096333
 20
1519.241101757005
 30
0.0
 11
1610.8952870963319
 21
1519.2411017570059
 31
0.0
  0
LINE
  5
7C97
  8
0
 10
1616.895287096333
 20
1511.2411017570059
 30
0.0
 11
1610.8952870963319
 21
1511.2411017570059
 31
0.0
  0
LINE
  5
7C98
  8
0
 10
1610.8952870963319
 20
1510.8208785140021
 30
0.0
 11
1616.895287096333
 21
1510.8208785140021
 31
0.0
  0
LINE
  5
7C99
  8
0
 10
1631.8952870963319
 20
1519.241101757005
 30
0.0
 11
1657.8952870963319
 21
1519.241101757005
 31
0.0
  0
LINE
  5
7C9A
  8
0
 10
1631.8952870963319
 20
1511.241101757005
 30
0.0
 11
1657.8952870963319
 21
1511.241101757005
 31
0.0
  0
LINE
  5
7C9B
  8
0
 10
1657.8952870963319
 20
1512.7411017570059
 30
0.0
 11
1677.8952870963319
 21
1512.7411017570059
 31
0.0
  0
LINE
  5
7C9C
  8
0
 10
1657.8952870963319
 20
1517.741101757005
 30
0.0
 11
1677.8952870963319
 21
1517.741101757005
 31
0.0
  0
LINE
  5
7C9D
  8
0
 10
1657.8952870963319
 20
1517.1940266402059
 30
0.0
 11
1657.8952870963319
 21
1513.288176873805
 31
0.0
  0
LINE
  5
7C9E
  8
0
 10
1595.8952870963319
 20
1519.2411017570059
 30
0.0
 11
1589.8952870963319
 21
1519.2411017570059
 31
0.0
  0
LINE
  5
7C9F
  8
0
 10
1595.8952870963319
 20
1511.2411017570059
 30
0.0
 11
1589.8952870963319
 21
1511.2411017570059
 31
0.0
  0
LINE
  5
7CA0
  8
0
 10
497.0254961317936
 20
1489.9677536540271
 30
0.0
 11
497.0254961317936
 21
1488.0475304110239
 31
0.0
  0
LINE
  5
7CA1
  8
0
 10
1613.894787096332
 20
1632.8143774462339
 30
0.0
 11
1624.372287096332
 21
1622.814377446233
 31
0.0
  0
LINE
  5
7CA2
  8
0
 10
1603.4172870963321
 20
1622.8143774462339
 30
0.0
 11
1613.894787096332
 21
1632.8143774462339
 31
0.0
  0
LINE
  5
7CA3
  8
0
 10
1613.8952870963319
 20
1622.8143774462339
 30
0.0
 11
1603.4172870963321
 21
1632.8143774462339
 31
0.0
  0
LINE
  5
7CA4
  8
0
 10
1624.372287096332
 20
1632.8143774462339
 30
0.0
 11
1613.8952870963319
 21
1622.8143774462339
 31
0.0
  0
LINE
  5
7CA5
  8
0
 10
1603.4172870963321
 20
1632.8143774462339
 30
0.0
 11
1603.4172870963321
 21
1622.8143774462339
 31
0.0
  0
LINE
  5
7CA6
  8
0
 10
1624.372287096332
 20
1632.8143774462339
 30
0.0
 11
1624.372287096332
 21
1622.8143774462339
 31
0.0
  0
LINE
  5
7CA7
  8
0
 10
1603.4172870963321
 20
1622.8143774462339
 30
0.0
 11
1624.372287096332
 21
1622.8143774462339
 31
0.0
  0
LINE
  5
7CA8
  8
0
 10
1603.4172870963321
 20
1622.8143774462339
 30
0.0
 11
1603.614958192878
 21
1616.4911017570059
 31
0.0
  0
LINE
  5
7CA9
  8
0
 10
1604.5802870963321
 20
1622.8143774462339
 30
0.0
 11
1604.777683267848
 21
1616.4911017570059
 31
0.0
  0
LINE
  5
7CAA
  8
0
 10
1623.210287096332
 20
1622.8143774462339
 30
0.0
 11
1623.012890924816
 21
1616.4911017570059
 31
0.0
  0
LINE
  5
7CAB
  8
0
 10
1624.372287096332
 20
1622.8143774462339
 30
0.0
 11
1624.1748909248161
 21
1616.4911017570059
 31
0.0
  0
LINE
  5
7CAC
  8
0
 10
1603.4172870963321
 20
1632.8143774462339
 30
0.0
 11
1624.372287096332
 21
1632.8143774462339
 31
0.0
  0
LINE
  5
7CAD
  8
0
 10
2026.114606894904
 20
1632.8143774462339
 30
0.0
 11
2036.592106894904
 21
1622.814377446233
 31
0.0
  0
LINE
  5
7CAE
  8
0
 10
2015.637106894904
 20
1622.8143774462339
 30
0.0
 11
2026.114606894904
 21
1632.8143774462339
 31
0.0
  0
LINE
  5
7CAF
  8
0
 10
2026.1151068949041
 20
1622.8143774462339
 30
0.0
 11
2015.637106894904
 21
1632.8143774462339
 31
0.0
  0
LINE
  5
7CB0
  8
0
 10
2036.592106894904
 20
1632.8143774462339
 30
0.0
 11
2026.1151068949041
 21
1622.8143774462339
 31
0.0
  0
LINE
  5
7CB1
  8
0
 10
2015.637106894904
 20
1632.8143774462339
 30
0.0
 11
2015.637106894904
 21
1622.8143774462339
 31
0.0
  0
LINE
  5
7CB2
  8
0
 10
2036.592106894904
 20
1632.8143774462339
 30
0.0
 11
2036.592106894904
 21
1622.8143774462339
 31
0.0
  0
LINE
  5
7CB3
  8
0
 10
2015.637106894904
 20
1622.8143774462339
 30
0.0
 11
2036.592106894904
 21
1622.8143774462339
 31
0.0
  0
LINE
  5
7CB4
  8
0
 10
2015.637106894904
 20
1622.8143774462339
 30
0.0
 11
2015.83477799145
 21
1616.4911017570059
 31
0.0
  0
LINE
  5
7CB5
  8
0
 10
2016.800106894904
 20
1622.8143774462339
 30
0.0
 11
2016.99750306642
 21
1616.4911017570059
 31
0.0
  0
LINE
  5
7CB6
  8
0
 10
2035.4301068949039
 20
1622.8143774462339
 30
0.0
 11
2035.232710723388
 21
1616.4911017570059
 31
0.0
  0
LINE
  5
7CB7
  8
0
 10
2036.592106894904
 20
1622.8143774462339
 30
0.0
 11
2036.3947107233889
 21
1616.4911017570059
 31
0.0
  0
LINE
  5
7CB8
  8
0
 10
2015.637106894904
 20
1632.8143774462339
 30
0.0
 11
2036.592106894904
 21
1632.8143774462339
 31
0.0
  0
LINE
  5
7CB9
  8
0
 10
1775.717079470453
 20
1688.614109160904
 30
0.0
 11
1791.606579773219
 21
1688.614109160904
 31
0.0
  0
LINE
  5
7CBA
  8
0
 10
1775.717079470453
 20
1692.614109160904
 30
0.0
 11
1791.606579773219
 21
1692.614109160904
 31
0.0
  0
LINE
  5
7CBB
  8
0
 10
1787.5755166641261
 20
1770.614109160904
 30
0.0
 11
1787.5755166641261
 21
1769.6134644895769
 31
0.0
  0
LINE
  5
7CBC
  8
0
 10
1787.5755166641261
 20
1723.6147538322309
 30
0.0
 11
1787.5755166641261
 21
1710.0570447825239
 31
0.0
  0
LINE
  5
7CBD
  8
0
 10
1779.5755166641261
 20
1770.614109160904
 30
0.0
 11
1779.5755166641261
 21
1769.6137619439071
 31
0.0
  0
LINE
  5
7CBE
  8
0
 10
1779.5755166641261
 20
1723.614456377901
 30
0.0
 11
1779.5755166641261
 21
1709.931491410123
 31
0.0
  0
LINE
  5
7CBF
  8
0
 10
1779.5755166641261
 20
1709.931491410123
 30
0.0
 11
1770.9071340005
 21
1698.2008102323721
 31
0.0
  0
LINE
  5
7CC0
  8
0
 10
1785.217491391443
 20
1706.527888945614
 30
0.0
 11
1793.20989492987
 21
1695.8096761847271
 31
0.0
  0
LINE
  5
7CC1
  8
0
 10
1787.5755166641261
 20
1710.0570447825239
 30
0.0
 11
1796.4165252431731
 21
1698.2008102323721
 31
0.0
  0
ARC
  5
7CC2
  8
0
 10
1791.606579773219
 20
1694.614109160904
 30
0.0
 40
2.0
 50
270.0
 51
36.71131776775978
  0
ARC
  5
7CC3
  8
0
 10
1791.606579773219
 20
1694.614109160904
 30
0.0
 40
6.0
 50
270.0
 51
36.71131776775978
  0
ARC
  5
7CC4
  8
0
 10
1783.614176234792
 20
1705.3323219217909
 30
0.0
 40
2.0
 50
36.71131776775978
 51
143.13010235416641
  0
ARC
  5
7CC5
  8
0
 10
1775.717079470453
 20
1694.614109160904
 30
0.0
 40
2.0
 50
143.28868223224021
 51
270.0
  0
ARC
  5
7CC6
  8
0
 10
1775.717079470453
 20
1694.614109160904
 30
0.0
 40
6.0
 50
143.28868223224021
 51
270.0
  0
LINE
  5
7CC7
  8
0
 10
1782.014176234791
 20
1706.532321921791
 30
0.0
 11
1774.113764313802
 21
1695.8096761847271
 31
0.0
  0
LINE
  5
7CC8
  8
0
 10
1779.5755166641261
 20
1770.614109160904
 30
0.0
 11
1787.5755166641261
 21
1770.614109160904
 31
0.0
  0
ARC
  5
7CC9
  8
0
 10
1873.0298164782721
 20
1795.9048133505389
 30
0.0
 40
6.4160026648635977
 50
60.000000000002721
 51
240.0000000000027
  0
ARC
  5
7CCA
  8
0
 10
1873.0298164782721
 20
1697.3234049712689
 30
0.0
 40
6.4160026648635977
 50
119.9999999999973
 51
299.99999999999733
  0
ARC
  5
7CCB
  8
0
 10
1844.57181514584
 20
1746.614109160904
 30
0.0
 40
63.55056179775265
 50
206.25095418419519
 51
338.78259811910021
  0
ARC
  5
7CCC
  8
0
 10
1844.57181514584
 20
1746.614109160904
 30
0.0
 40
63.55056179775265
 50
21.2174018808998
 51
157.81167908449021
  0
LINE
  5
7CCD
  8
0
 10
1883.9263104856709
 20
1585.8243932401649
 30
0.0
 11
1860.7632483642819
 21
1585.8244219457861
 31
0.0
  0
ARC
  5
7CCE
  8
0
 10
1883.9263229279561
 20
1595.824393240157
 30
0.0
 40
10.0
 50
269.99992871095583
 51
299.79957207006572
  0
LINE
  5
7CCF
  8
0
 10
1888.895997726547
 20
1587.146701588787
 30
0.0
 11
1898.8689117145459
 21
1592.858144367103
 31
0.0
  0
LINE
  5
7CD0
  8
0
 10
1805.214148536448
 20
1585.8243937390671
 30
0.0
 11
1805.618292545377
 21
1585.8243937390671
 31
0.0
  0
LINE
  5
7CD1
  8
0
 10
1805.2173198060109
 20
1585.8243932401649
 30
0.0
 11
1828.381566544655
 21
1585.824421947254
 31
0.0
  0
ARC
  5
7CD2
  8
0
 10
1805.217307363725
 20
1595.824393240157
 30
0.0
 40
10.0
 50
240.2004279299278
 51
270.00007128904417
  0
LINE
  5
7CD3
  8
0
 10
1800.2476325651351
 20
1587.146701588787
 30
0.0
 11
1790.274718577135
 21
1592.858144367103
 31
0.0
  0
ARC
  5
7CD4
  8
0
 10
1863.57258461179
 20
1586.876861895824
 30
0.0
 40
3.0
 50
180.00035916112699
 51
257.31121485148248
  0
ARC
  5
7CD5
  8
0
 10
1825.572230704189
 20
1586.876862983833
 30
0.0
 40
3.0
 50
282.6887818675981
 51
359.9996505147875
  0
ARC
  5
7CD6
  8
0
 10
612.85783852076361
 20
1573.4677536540271
 30
0.0
 40
8.000000000000119
 50
27.03569178941299
 51
90.0
  0
ARC
  5
7CD7
  8
0
 10
622.65579749189635
 20
1578.4677536540271
 30
0.0
 40
3.0
 50
207.03569178941299
 51
270.0
  0
LINE
  5
7CD8
  8
0
 10
631.10732366053958
 20
1575.4677536540271
 30
0.0
 11
622.61190035952916
 21
1575.4677536540271
 31
0.0
  0
ARC
  5
7CD9
  8
0
 10
681.85783852076383
 20
1573.4677536540271
 30
0.0
 40
8.000000000000119
 50
90.0
 51
152.96430821058701
  0
ARC
  5
7CDA
  8
0
 10
672.05987954963121
 20
1578.4677536540271
 30
0.0
 40
3.0
 50
270.0
 51
332.96430821058698
  0
LINE
  5
7CDB
  8
0
 10
663.22317465516085
 20
1575.4677536540271
 30
0.0
 11
672.10377668199806
 21
1575.4677536540271
 31
0.0
  0
ARC
  5
7CDC
  8
0
 10
628.16524915785021
 20
1576.054437231968
 30
0.0
 40
3.0
 50
284.47751218592953
 51
0.0
  0
ARC
  5
7CDD
  8
0
 10
666.16524915785021
 20
1576.054437231968
 30
0.0
 40
3.0
 50
180.0
 51
255.5224878140705
  0
LINE
  5
7CDE
  8
0
 10
1173.8604135677961
 20
342.09940841951129
 30
0.0
 11
1173.8604135677961
 21
322.38267649258228
 31
0.0
  0
LINE
  5
7CDF
  8
0
 10
1172.8604135677961
 20
321.38267649258228
 30
0.0
 11
1173.8604135677961
 21
322.38267649258228
 31
0.0
  0
LINE
  5
7CE0
  8
0
 10
1141.8604135677961
 20
342.09940841951129
 30
0.0
 11
1141.8604135677961
 21
322.38267649258228
 31
0.0
  0
LINE
  5
7CE1
  8
0
 10
1214.8604135677961
 20
393.38267649258228
 30
0.0
 11
1214.8604135677961
 21
372.70771466700683
 31
0.0
  0
LINE
  5
7CE2
  8
0
 10
1100.8604135677949
 20
393.38267649258228
 30
0.0
 11
1100.8604135677949
 21
372.70771466700683
 31
0.0
  0
ARC
  5
7CE3
  8
0
 10
1157.8604135677961
 20
446.38267649258228
 30
0.0
 40
103.0
 50
243.9583500440439
 51
296.04164995595607
  0
ARC
  5
7CE4
  8
0
 10
1121.8604135677961
 20
372.70771466700683
 30
0.0
 40
21.0
 50
180.0
 51
243.9583500440439
  0
ARC
  5
7CE5
  8
0
 10
1193.8604135677961
 20
372.70771466700683
 30
0.0
 40
21.0
 50
296.04164995595607
 51
0.0
  0
LINE
  5
7CE6
  8
0
 10
1100.8604135677949
 20
393.38267649258228
 30
0.0
 11
1214.8604135677961
 21
393.38267649258228
 31
0.0
  0
LINE
  5
7CE7
  8
0
 10
1142.8604135677949
 20
321.38267649258228
 30
0.0
 11
1172.8604135677961
 21
321.38267649258228
 31
0.0
  0
LINE
  5
7CE8
  8
0
 10
1141.8604135677961
 20
322.38267649258228
 30
0.0
 11
1142.8604135677949
 21
321.38267649258228
 31
0.0
  0
ARC
  5
7CE9
  8
0
 10
1138.8604135677961
 20
342.09940841951129
 30
0.0
 40
3.0
 50
0.0
 51
79.674197228759212
  0
ARC
  5
7CEA
  8
0
 10
1176.8604135677961
 20
342.09940841951129
 30
0.0
 40
3.0
 50
100.3258027712407
 51
180.0
  0
LINE
  5
7CEB
  8
0
 10
1215.3604135677949
 20
635.71188441337438
 30
0.0
 11
1215.3604135677949
 21
393.38267649258228
 31
0.0
  0
LINE
  5
7CEC
  8
0
 10
1100.3604135677961
 20
640.74481186827927
 30
0.0
 11
1100.3604135677961
 21
393.38267649258228
 31
0.0
  0
LINE
  5
7CED
  8
0
 10
1100.3604135677961
 20
393.38267649258228
 30
0.0
 11
1215.3604135677949
 21
393.38267649258228
 31
0.0
  0
LINE
  5
7CEE
  8
0
 10
1125.5257780716461
 20
751.38267649258228
 30
0.0
 11
1201.602083318598
 21
751.38267649258228
 31
0.0
  0
LINE
  5
7CEF
  8
0
 10
1141.8604135677961
 20
781.38267649258216
 30
0.0
 11
1173.8604135677961
 21
781.38267649258216
 31
0.0
  0
LINE
  5
7CF0
  8
0
 10
1176.8604135677961
 20
751.38267649258205
 30
0.0
 11
1201.602083318598
 21
751.38267649258205
 31
0.0
  0
LINE
  5
7CF1
  8
0
 10
1073.8604135677961
 20
757.88267649258216
 30
0.0
 11
1138.8604135677961
 21
757.88267649258216
 31
0.0
  0
LINE
  5
7CF2
  8
0
 10
1176.8604135677961
 20
757.88267649258216
 30
0.0
 11
1241.8604135677961
 21
757.88267649258216
 31
0.0
  0
LINE
  5
7CF3
  8
0
 10
1242.8604135677961
 20
756.88267649258216
 30
0.0
 11
1241.8604135677961
 21
757.88267649258216
 31
0.0
  0
LINE
  5
7CF4
  8
0
 10
1073.8604135677961
 20
696.88267649258228
 30
0.0
 11
1100.8604135677961
 21
696.88267649258228
 31
0.0
  0
LINE
  5
7CF5
  8
0
 10
1072.8604135677961
 20
697.88267649258216
 30
0.0
 11
1073.8604135677961
 21
696.88267649258228
 31
0.0
  0
LINE
  5
7CF6
  8
0
 10
1214.8604135677961
 20
696.88267649258205
 30
0.0
 11
1241.8604135677961
 21
696.88267649258239
 31
0.0
  0
LINE
  5
7CF7
  8
0
 10
1173.8604135677961
 20
781.38267649258216
 30
0.0
 11
1173.8604135677961
 21
754.38267649258205
 31
0.0
  0
LINE
  5
7CF8
  8
0
 10
1141.8604135677961
 20
781.38267649258216
 30
0.0
 11
1141.8604135677961
 21
754.38267649258228
 31
0.0
  0
LINE
  5
7CF9
  8
0
 10
1242.8604135677961
 20
756.88267649258216
 30
0.0
 11
1242.8604135677961
 21
697.8826764925825
 31
0.0
  0
LINE
  5
7CFA
  8
0
 10
1241.8604135677961
 20
696.88267649258239
 30
0.0
 11
1242.8604135677961
 21
697.8826764925825
 31
0.0
  0
LINE
  5
7CFB
  8
0
 10
1072.8604135677961
 20
756.88267649258216
 30
0.0
 11
1072.8604135677961
 21
697.88267649258216
 31
0.0
  0
LINE
  5
7CFC
  8
0
 10
1073.8604135677961
 20
757.88267649258216
 30
0.0
 11
1072.8604135677961
 21
756.88267649258216
 31
0.0
  0
LINE
  5
7CFD
  8
0
 10
1214.8604135677961
 20
720.25928453659014
 30
0.0
 11
1214.8604135677961
 21
659.05346857179018
 31
0.0
  0
LINE
  5
7CFE
  8
0
 10
1100.8604135677961
 20
720.25928453659094
 30
0.0
 11
1100.8604135677961
 21
661.90000322525555
 31
0.0
  0
LINE
  5
7CFF
  8
0
 10
1100.8604135677961
 20
656.20693391832492
 30
0.0
 11
1100.8604135677949
 21
654.02054111688494
 31
0.0
  0
ARC
  5
7D00
  8
0
 10
1114.8604135677961
 20
748.88267649258216
 30
0.0
 40
9.0
 50
27.279612735972911
 51
90.0
  0
ARC
  5
7D01
  8
0
 10
1125.5257780716461
 20
754.38267649258228
 30
0.0
 40
3.0
 50
207.2796127359729
 51
270.0
  0
ARC
  5
7D02
  8
0
 10
1176.8604135677961
 20
754.38267649258205
 30
0.0
 40
3.0
 50
180.0
 51
270.0
  0
LINE
  5
7D03
  8
0
 10
1125.5257780716461
 20
751.38267649258228
 30
0.0
 11
1138.8604135677961
 21
751.38267649258228
 31
0.0
  0
ARC
  5
7D04
  8
0
 10
1138.8604135677961
 20
754.38267649258228
 30
0.0
 40
3.0
 50
270.0
 51
0.0
  0
LINE
  5
7D05
  8
0
 10
1201.602083318598
 20
751.38267649258228
 30
0.0
 11
1212.8604135677961
 21
757.88267649258216
 31
0.0
  0
ARC
  5
7D06
  8
0
 10
1176.8604135677961
 20
760.88267649258216
 30
0.0
 40
3.0
 50
180.0
 51
270.0
  0
ARC
  5
7D07
  8
0
 10
1138.8604135677961
 20
760.88267649258216
 30
0.0
 40
3.0
 50
270.0
 51
0.0
  0
ARC
  5
7D08
  8
0
 10
1157.8604135677961
 20
647.38267649258216
 30
0.0
 40
104.0
 50
65.638022060012688
 51
114.3619779399754
  0
ARC
  5
7D09
  8
0
 10
1190.8604135677961
 20
720.25928453659014
 30
0.0
 40
24.0
 50
0.0
 51
65.638022060012688
  0
ARC
  5
7D0A
  8
0
 10
1124.8604135677961
 20
720.25928453659071
 30
0.0
 40
24.0
 50
114.3619779399754
 51
180.0
  0
CIRCLE
  5
7D0B
  8
0
 10
1457.8462355320869
 20
727.38267649258216
 30
0.0
 40
30.5
  0
LINE
  5
7D0C
  8
0
 10
1441.8462355320869
 20
781.38267649258216
 30
0.0
 11
1473.8462355320869
 21
781.38267649258216
 31
0.0
  0
LINE
  5
7D0D
  8
0
 10
1473.8462355320869
 20
781.38267649258216
 30
0.0
 11
1473.8462355320869
 21
753.70383438228578
 31
0.0
  0
LINE
  5
7D0E
  8
0
 10
1441.8462355320869
 20
781.38267649258216
 30
0.0
 11
1441.8462355320869
 21
753.70383438228623
 31
0.0
  0
LINE
  5
7D0F
  8
0
 10
1514.846235532088
 20
720.25928453659014
 30
0.0
 11
1514.8462355320869
 21
659.05346857179018
 31
0.0
  0
LINE
  5
7D10
  8
0
 10
1400.8462355320869
 20
720.25928453659094
 30
0.0
 11
1400.8462355320869
 21
659.05346857179006
 31
0.0
  0
ARC
  5
7D11
  8
0
 10
1457.8462355320869
 20
647.38267649258216
 30
0.0
 40
104.0
 50
65.638022060012688
 51
66.744019208233055
  0
ARC
  5
7D12
  8
0
 10
1457.8462355320869
 20
647.38267649258216
 30
0.0
 40
104.0
 50
113.2559807917669
 51
114.3619779399754
  0
ARC
  5
7D13
  8
0
 10
1490.8462355320869
 20
720.25928453659014
 30
0.0
 40
24.0
 50
0.0
 51
65.638022060012688
  0
ARC
  5
7D14
  8
0
 10
1424.8462355320869
 20
720.25928453659071
 30
0.0
 40
24.0
 50
114.3619779399754
 51
180.0
  0
LINE
  5
7D15
  8
0
 10
1445.8036227971199
 20
755.40455149258241
 30
0.0
 11
1416.78290030466
 21
742.93267649258223
 31
0.0
  0
LINE
  5
7D16
  8
0
 10
1469.8888482670541
 20
755.40455149258219
 30
0.0
 11
1498.9095707595129
 21
742.93267649258235
 31
0.0
  0
LINE
  5
7D17
  8
0
 10
1473.8462355320869
 20
342.09940841951129
 30
0.0
 11
1473.8462355320869
 21
322.38267649258228
 31
0.0
  0
LINE
  5
7D18
  8
0
 10
1472.8462355320869
 20
321.38267649258228
 30
0.0
 11
1473.8462355320869
 21
322.38267649258228
 31
0.0
  0
LINE
  5
7D19
  8
0
 10
1441.8462355320869
 20
342.09940841951129
 30
0.0
 11
1441.8462355320869
 21
322.38267649258228
 31
0.0
  0
LINE
  5
7D1A
  8
0
 10
1514.8462355320869
 20
393.38267649258228
 30
0.0
 11
1514.8462355320869
 21
372.70771466700683
 31
0.0
  0
LINE
  5
7D1B
  8
0
 10
1400.8462355320869
 20
393.38267649258228
 30
0.0
 11
1400.8462355320869
 21
372.70771466700683
 31
0.0
  0
ARC
  5
7D1C
  8
0
 10
1457.8462355320869
 20
446.38267649258228
 30
0.0
 40
103.0
 50
243.9583500440439
 51
296.04164995595607
  0
ARC
  5
7D1D
  8
0
 10
1421.8462355320869
 20
372.70771466700683
 30
0.0
 40
21.0
 50
180.0
 51
243.9583500440439
  0
ARC
  5
7D1E
  8
0
 10
1493.8462355320869
 20
372.70771466700683
 30
0.0
 40
21.0
 50
296.04164995595607
 51
0.0
  0
LINE
  5
7D1F
  8
0
 10
1400.8462355320869
 20
393.38267649258228
 30
0.0
 11
1514.8462355320869
 21
393.38267649258228
 31
0.0
  0
LINE
  5
7D20
  8
0
 10
1442.8462355320869
 20
321.38267649258228
 30
0.0
 11
1472.8462355320869
 21
321.38267649258228
 31
0.0
  0
LINE
  5
7D21
  8
0
 10
1441.8462355320869
 20
322.38267649258228
 30
0.0
 11
1442.8462355320869
 21
321.38267649258228
 31
0.0
  0
ARC
  5
7D22
  8
0
 10
1438.8462355320869
 20
342.09940841951129
 30
0.0
 40
3.0
 50
0.0
 51
79.674197228759212
  0
ARC
  5
7D23
  8
0
 10
1476.8462355320869
 20
342.09940841951129
 30
0.0
 40
3.0
 50
100.3258027712407
 51
180.0
  0
LINE
  5
7D24
  8
0
 10
1515.3462355320869
 20
635.71188441337438
 30
0.0
 11
1515.346235532086
 21
393.38267649258228
 31
0.0
  0
LINE
  5
7D25
  8
0
 10
1400.3462355320869
 20
635.71188441337426
 30
0.0
 11
1400.3462355320869
 21
393.38267649258228
 31
0.0
  0
LINE
  5
7D26
  8
0
 10
1400.3462355320869
 20
393.38267649258228
 30
0.0
 11
1515.346235532086
 21
393.38267649258228
 31
0.0
  0
ARC
  5
7D27
  8
0
 10
1157.8604135677961
 20
910.51872408265069
 30
0.0
 40
57.000000000000448
 50
28.908072172487209
 51
151.09192782751279
  0
ARC
  5
7D28
  8
0
 10
1157.8604135677961
 20
910.51872408265069
 30
0.0
 40
57.000000000000448
 50
208.90807217248721
 51
331.09192782751279
  0
LINE
  5
7D29
  8
0
 10
1174.8604135677949
 20
967.08726657757495
 30
0.0
 11
1174.8604135677949
 21
968.51872408265126
 31
0.0
  0
ARC
  5
7D2A
  8
0
 10
1172.8604135677961
 20
968.51872408265126
 30
0.0
 40
2.0
 50
0.0
 51
90.0
  0
LINE
  5
7D2B
  8
0
 10
1140.8604135677949
 20
967.08726657757495
 30
0.0
 11
1140.8604135677949
 21
968.51872408265126
 31
0.0
  0
ARC
  5
7D2C
  8
0
 10
1142.8604135677949
 20
968.51872408265126
 30
0.0
 40
2.0
 50
90.0
 51
180.0
  0
LINE
  5
7D2D
  8
0
 10
1114.1187438169929
 20
934.51872408265081
 30
0.0
 11
1201.602083318598
 21
934.51872408265081
 31
0.0
  0
LINE
  5
7D2E
  8
0
 10
1176.8604135677961
 20
934.51872408265024
 30
0.0
 11
1201.602083318598
 21
934.51872408265024
 31
0.0
  0
LINE
  5
7D2F
  8
0
 10
1242.8604135677961
 20
941.01872408265069
 30
0.0
 11
1242.8604135677961
 21
880.01872408265081
 31
0.0
  0
LINE
  5
7D30
  8
0
 10
1201.602083318598
 20
934.51872408265081
 30
0.0
 11
1212.8604135677961
 21
941.01872408265069
 31
0.0
  0
LINE
  5
7D31
  8
0
 10
1212.8604135677961
 20
941.01872408265069
 30
0.0
 11
1242.8604135677961
 21
941.01872408265069
 31
0.0
  0
LINE
  5
7D32
  8
0
 10
1114.1187438169929
 20
886.51872408265069
 30
0.0
 11
1201.602083318598
 21
886.51872408265069
 31
0.0
  0
LINE
  5
7D33
  8
0
 10
1176.8604135677961
 20
886.51872408265069
 30
0.0
 11
1201.602083318598
 21
886.51872408265069
 31
0.0
  0
LINE
  5
7D34
  8
0
 10
1201.602083318598
 20
886.51872408265069
 30
0.0
 11
1212.8604135677961
 21
880.01872408265081
 31
0.0
  0
LINE
  5
7D35
  8
0
 10
1212.8604135677961
 20
880.01872408265081
 30
0.0
 11
1242.8604135677961
 21
880.01872408265081
 31
0.0
  0
LINE
  5
7D36
  8
0
 10
1072.8604135677949
 20
941.01872408265069
 30
0.0
 11
1072.8604135677949
 21
880.01872408265081
 31
0.0
  0
LINE
  5
7D37
  8
0
 10
1114.1187438169929
 20
934.51872408265081
 30
0.0
 11
1102.8604135677949
 21
941.01872408265069
 31
0.0
  0
LINE
  5
7D38
  8
0
 10
1102.8604135677949
 20
941.01872408265069
 30
0.0
 11
1072.8604135677949
 21
941.01872408265069
 31
0.0
  0
LINE
  5
7D39
  8
0
 10
1114.1187438169929
 20
886.51872408265069
 30
0.0
 11
1102.8604135677949
 21
880.01872408265081
 31
0.0
  0
LINE
  5
7D3A
  8
0
 10
1102.8604135677949
 20
880.01872408265081
 30
0.0
 11
1072.8604135677949
 21
880.01872408265081
 31
0.0
  0
CIRCLE
  5
7D3B
  8
0
 10
1157.8604135677961
 20
910.51872408265069
 30
0.0
 40
15.999999999999879
  0
LINE
  5
7D3C
  8
0
 10
1078.677964236417
 20
836.56332108418508
 30
0.0
 11
1098.139057227138
 21
836.56332108418508
 31
0.0
  0
LINE
  5
7D3D
  8
0
 10
1078.677964236417
 20
841.46242870113974
 30
0.0
 11
1098.139057227138
 21
841.46242870113974
 31
0.0
  0
LINE
  5
7D3E
  8
0
 10
1093.3076183487319
 20
947.14260860384411
 30
0.0
 11
1093.3076183487319
 21
941.01872408265069
 31
0.0
  0
LINE
  5
7D3F
  8
0
 10
1093.2019042315919
 20
880.01872408265081
 30
0.0
 11
1093.2019042315919
 21
862.82613339262105
 31
0.0
  0
LINE
  5
7D40
  8
0
 10
1083.509403114823
 20
947.14260860384456
 30
0.0
 11
1083.509403114823
 21
941.01872408265069
 31
0.0
  0
LINE
  5
7D41
  8
0
 10
1083.403688997683
 20
880.01872408265081
 30
0.0
 11
1083.403688997683
 21
862.67235852185593
 31
0.0
  0
LINE
  5
7D42
  8
0
 10
1083.403688997683
 20
862.67235852185593
 30
0.0
 11
1072.7868541141711
 21
848.30489114435977
 31
0.0
  0
LINE
  5
7D43
  8
0
 10
1090.313849337999
 20
858.50370483211543
 30
0.0
 11
1100.1027606012201
 21
845.37628538786475
 31
0.0
  0
LINE
  5
7D44
  8
0
 10
1093.2019042315919
 20
862.82613339262105
 30
0.0
 11
1104.0301673493841
 21
848.30489114435977
 31
0.0
  0
ARC
  5
7D45
  8
0
 10
1098.139057227138
 20
843.91198250961725
 30
0.0
 40
2.4495538084772952
 50
270.0
 51
36.71131776775978
  0
ARC
  5
7D46
  8
0
 10
1098.139057227138
 20
843.91198250961725
 30
0.0
 40
7.3486614254318852
 50
270.0
 51
36.71131776775978
  0
ARC
  5
7D47
  8
0
 10
1088.350145963916
 20
857.03940195386804
 30
0.0
 40
2.4495538084772952
 50
36.71131776775978
 51
143.13010235416641
  0
ARC
  5
7D48
  8
0
 10
1078.677964236417
 20
843.91198250961725
 30
0.0
 40
2.4495538084772952
 50
143.28868223224021
 51
270.0
  0
ARC
  5
7D49
  8
0
 10
1078.677964236417
 20
843.91198250961725
 30
0.0
 40
7.3486614254318852
 50
143.28868223224021
 51
270.0
  0
LINE
  5
7D4A
  8
0
 10
1086.3905029171351
 20
858.50913423895463
 30
0.0
 11
1076.7142608623351
 21
845.37628538786475
 31
0.0
  0
LINE
  5
7D4B
  8
0
 10
1083.509403114823
 20
947.14260860384456
 30
0.0
 11
1093.3076183487319
 21
947.14260860384456
 31
0.0
  0
ARC
  5
7D4C
  8
0
 10
1189.9813259628179
 20
966.15377633629748
 30
0.0
 40
7.2418247900440429
 50
60.000000000002721
 51
240.0000000000027
  0
ARC
  5
7D4D
  8
0
 10
1189.9813259628179
 20
854.88367182900345
 30
0.0
 40
7.2418247900440429
 50
119.9999999999973
 51
299.99999999999733
  0
ARC
  5
7D4E
  8
0
 10
1157.8604135677961
 20
910.51872408265069
 30
0.0
 40
71.730337078651331
 50
205.16355346523989
 51
334.83644653476011
  0
ARC
  5
7D4F
  8
0
 10
1157.8604135677961
 20
910.51872408265069
 30
0.0
 40
71.730337078651331
 50
25.163553465239911
 51
154.14980729756419
  0
LINE
  5
7D50
  8
0
 10
1215.3604135677961
 20
593.11996588372722
 30
0.0
 11
1215.3604135677961
 21
635.71188441337438
 31
0.0
  0
LINE
  5
7D51
  8
0
 10
1099.221799706409
 20
656.20693391832492
 30
0.0
 11
1099.221799706409
 21
654.02054111688517
 31
0.0
  0
LINE
  5
7D52
  8
0
 10
1230.2192922381009
 20
650.62772599753237
 30
0.0
 11
1230.2192922381009
 21
647.38267649258205
 31
0.0
  0
LINE
  5
7D53
  8
0
 10
1230.2192922381009
 20
643.79604282921548
 30
0.0
 11
1230.2192922381009
 21
647.38267649258205
 31
0.0
  0
LINE
  5
7D54
  8
0
 10
1098.6258725174559
 20
654.02054111688494
 30
0.0
 11
1230.2192922381009
 21
654.02054111688494
 31
0.0
  0
LINE
  5
7D55
  8
0
 10
1077.0188294093789
 20
647.38267649258205
 30
0.0
 11
1108.907102945265
 21
647.38267649258216
 31
0.0
  0
LINE
  5
7D56
  8
0
 10
1077.0188294093789
 20
640.74481186827927
 30
0.0
 11
1230.2192922381009
 21
640.74481186827961
 31
0.0
  0
LINE
  5
7D57
  8
0
 10
1230.2192922381009
 20
635.71188441337438
 30
0.0
 11
1230.2192922381009
 21
659.05346857179018
 31
0.0
  0
LINE
  5
7D58
  8
0
 10
1077.0188294093789
 20
640.74481186827927
 30
0.0
 11
1077.0188294093789
 21
656.20693391832458
 31
0.0
  0
ARC
  5
7D59
  8
0
 10
1088.1246389241271
 20
659.02721743699499
 30
0.0
 40
11.65838223604802
 50
272.79222088910518
 51
346.00068079444941
  0
ARC
  5
7D5A
  8
0
 10
1088.4085107317781
 20
659.05346857179006
 30
0.0
 40
11.38968132239831
 50
14.472910718502989
 51
165.52708928149701
  0
LINE
  5
7D5B
  8
0
 10
1105.4877186525689
 20
656.20693391832492
 30
0.0
 11
1105.4877186525689
 21
661.90000322525555
 31
0.0
  0
LINE
  5
7D5C
  8
0
 10
1071.3293028109849
 20
656.20693391832492
 30
0.0
 11
1071.3293028109849
 21
661.90000322525543
 31
0.0
  0
LINE
  5
7D5D
  8
0
 10
1105.4877186525689
 20
661.90000322525555
 30
0.0
 11
1071.3293028109849
 21
661.90000322525543
 31
0.0
  0
LINE
  5
7D5E
  8
0
 10
1105.4877186525689
 20
656.20693391832492
 30
0.0
 11
1071.3293028109849
 21
656.20693391832458
 31
0.0
  0
LINE
  5
7D5F
  8
0
 10
1182.957066891852
 20
659.05346857179018
 30
0.0
 11
1182.957066891852
 21
654.02054111688494
 31
0.0
  0
LINE
  5
7D60
  8
0
 10
1182.957066891852
 20
640.74481186827927
 30
0.0
 11
1182.957066891852
 21
635.71188441337438
 31
0.0
  0
ARC
  5
7D61
  8
0
 10
1088.4085107317781
 20
659.05346857179006
 30
0.0
 40
4.5544554455445541
 50
218.68218745349299
 51
321.3178125465069
  0
ARC
  5
7D62
  8
0
 10
1088.4085107317781
 20
659.05346857179006
 30
0.0
 40
4.5544554455445541
 50
38.68218745349305
 51
141.3178125465069
  0
LINE
  5
7D63
  8
0
 10
1230.2192922381009
 20
659.05346857179018
 30
0.0
 11
1182.957066891852
 21
659.05346857179018
 31
0.0
  0
LINE
  5
7D64
  8
0
 10
1230.2192922381009
 20
635.71188441337438
 30
0.0
 11
1182.957066891852
 21
635.71188441337438
 31
0.0
  0
LINE
  5
7D65
  8
0
 10
1142.8604135677949
 20
970.51872408265115
 30
0.0
 11
1172.8604135677961
 21
970.51872408265115
 31
0.0
  0
ARC
  5
7D66
  8
0
 10
1177.8604135677949
 20
967.08726657757495
 30
0.0
 40
3.0
 50
180.0
 51
250.52877936551209
  0
ARC
  5
7D67
  8
0
 10
1137.8604135677961
 20
967.08726657757495
 30
0.0
 40
3.0
 50
289.47122063448791
 51
0.0
  0
LINE
  5
7D68
  8
0
 10
1528.4402949380269
 20
635.71188441337438
 30
0.0
 11
1528.4402949380269
 21
659.05346857179006
 31
0.0
  0
LINE
  5
7D69
  8
0
 10
1387.252176126146
 20
635.71188441337426
 30
0.0
 11
1387.252176126146
 21
659.05346857179006
 31
0.0
  0
LINE
  5
7D6A
  8
0
 10
1528.4402949380269
 20
659.05346857179006
 30
0.0
 11
1387.252176126146
 21
659.05346857179006
 31
0.0
  0
LINE
  5
7D6B
  8
0
 10
1528.4402949380269
 20
635.71188441337438
 30
0.0
 11
1387.252176126146
 21
635.71188441337426
 31
0.0
  0
CIRCLE
  5
7D6C
  8
0
 10
898.34887198811009
 20
727.38267649258216
 30
0.0
 40
30.5
  0
LINE
  5
7D6D
  8
0
 10
914.34887198811009
 20
781.38267649258216
 30
0.0
 11
882.34887198811055
 21
781.38267649258216
 31
0.0
  0
LINE
  5
7D6E
  8
0
 10
882.34887198811009
 20
781.38267649258216
 30
0.0
 11
882.34887198811009
 21
753.70383438228578
 31
0.0
  0
LINE
  5
7D6F
  8
0
 10
914.34887198811009
 20
781.38267649258216
 30
0.0
 11
914.34887198810998
 21
753.70383438228623
 31
0.0
  0
LINE
  5
7D70
  8
0
 10
841.34887198810975
 20
720.25928453659014
 30
0.0
 11
841.34887198811009
 21
659.05346857179018
 31
0.0
  0
LINE
  5
7D71
  8
0
 10
838.34887198810964
 20
695.38267649258216
 30
0.0
 11
838.34887198810964
 21
676.38267649258228
 31
0.0
  0
ARC
  5
7D72
  8
0
 10
839.34887198810975
 20
695.38267649258216
 30
0.0
 40
1.0
 50
90.0
 51
180.0
  0
LINE
  5
7D73
  8
0
 10
955.34887198810998
 20
720.25928453659094
 30
0.0
 11
955.34887198811032
 21
659.05346857179006
 31
0.0
  0
ARC
  5
7D74
  8
0
 10
898.34887198811055
 20
647.38267649258216
 30
0.0
 40
104.0
 50
113.2559807917669
 51
114.3619779399754
  0
ARC
  5
7D75
  8
0
 10
898.34887198811055
 20
647.38267649258216
 30
0.0
 40
104.0
 50
65.638022060012688
 51
66.744019208233055
  0
ARC
  5
7D76
  8
0
 10
865.34887198810975
 20
720.25928453659014
 30
0.0
 40
24.0
 50
114.3619779399754
 51
180.0
  0
ARC
  5
7D77
  8
0
 10
931.34887198810998
 20
720.25928453659071
 30
0.0
 40
24.0
 50
0.0
 51
65.638022060012688
  0
LINE
  5
7D78
  8
0
 10
910.39148472307716
 20
755.40455149258241
 30
0.0
 11
939.41220721553702
 21
742.93267649258223
 31
0.0
  0
LINE
  5
7D79
  8
0
 10
886.30625925314359
 20
755.40455149258219
 30
0.0
 11
857.28553676068395
 21
742.93267649258235
 31
0.0
  0
LINE
  5
7D7A
  8
0
 10
882.34887198811055
 20
342.09940841951129
 30
0.0
 11
882.34887198811055
 21
322.38267649258228
 31
0.0
  0
LINE
  5
7D7B
  8
0
 10
883.34887198811043
 20
321.38267649258228
 30
0.0
 11
882.34887198811055
 21
322.38267649258228
 31
0.0
  0
LINE
  5
7D7C
  8
0
 10
914.34887198811032
 20
342.09940841951129
 30
0.0
 11
914.34887198811032
 21
322.38267649258228
 31
0.0
  0
LINE
  5
7D7D
  8
0
 10
841.34887198811055
 20
393.38267649258228
 30
0.0
 11
841.34887198811055
 21
372.70771466700683
 31
0.0
  0
LINE
  5
7D7E
  8
0
 10
955.34887198811032
 20
393.38267649258228
 30
0.0
 11
955.34887198811032
 21
372.70771466700683
 31
0.0
  0
ARC
  5
7D7F
  8
0
 10
898.34887198811055
 20
446.38267649258228
 30
0.0
 40
103.0
 50
243.9583500440439
 51
296.04164995595607
  0
ARC
  5
7D80
  8
0
 10
934.34887198811043
 20
372.70771466700683
 30
0.0
 40
21.0
 50
296.04164995595607
 51
0.0
  0
ARC
  5
7D81
  8
0
 10
862.34887198811066
 20
372.70771466700683
 30
0.0
 40
21.0
 50
180.0
 51
243.9583500440439
  0
LINE
  5
7D82
  8
0
 10
955.34887198811032
 20
393.38267649258228
 30
0.0
 11
841.34887198811055
 21
393.38267649258228
 31
0.0
  0
LINE
  5
7D83
  8
0
 10
913.34887198811032
 20
321.38267649258228
 30
0.0
 11
883.34887198811043
 21
321.38267649258228
 31
0.0
  0
LINE
  5
7D84
  8
0
 10
914.34887198811032
 20
322.38267649258228
 30
0.0
 11
913.34887198811032
 21
321.38267649258228
 31
0.0
  0
ARC
  5
7D85
  8
0
 10
917.34887198811043
 20
342.09940841951129
 30
0.0
 40
3.0
 50
100.3258027712407
 51
180.0
  0
ARC
  5
7D86
  8
0
 10
879.34887198811043
 20
342.09940841951129
 30
0.0
 40
3.0
 50
0.0
 51
79.674197228759212
  0
LINE
  5
7D87
  8
0
 10
840.8488719881102
 20
635.71188441337438
 30
0.0
 11
840.84887198811055
 21
393.38267649258228
 31
0.0
  0
LINE
  5
7D88
  8
0
 10
955.84887198811043
 20
635.71188441337426
 30
0.0
 11
955.84887198811055
 21
393.38267649258228
 31
0.0
  0
LINE
  5
7D89
  8
0
 10
955.84887198811043
 20
393.38267649258228
 30
0.0
 11
840.84887198811055
 21
393.38267649258228
 31
0.0
  0
LINE
  5
7D8A
  8
0
 10
827.75481258216951
 20
635.71188441337438
 30
0.0
 11
827.75481258217042
 21
659.05346857179006
 31
0.0
  0
LINE
  5
7D8B
  8
0
 10
968.94293139405056
 20
635.71188441337426
 30
0.0
 11
968.94293139405056
 21
659.05346857179006
 31
0.0
  0
LINE
  5
7D8C
  8
0
 10
827.75481258217042
 20
659.05346857179006
 30
0.0
 11
968.94293139405056
 21
659.05346857179006
 31
0.0
  0
LINE
  5
7D8D
  8
0
 10
827.75481258216951
 20
635.71188441337438
 30
0.0
 11
968.94293139405056
 21
635.71188441337426
 31
0.0
  0
LINE
  5
7D8E
  8
0
 10
841.34887198810975
 20
696.38267649258205
 30
0.0
 11
839.34887198810975
 21
696.38267649258228
 31
0.0
  0
LINE
  5
7D8F
  8
0
 10
841.34887198810975
 20
675.38267649258228
 30
0.0
 11
839.34887198810975
 21
675.38267649258228
 31
0.0
  0
ARC
  5
7D90
  8
0
 10
839.34887198810975
 20
676.38267649258228
 30
0.0
 40
1.0
 50
180.0
 51
270.0
  0
LINE
  5
7D91
  8
0
 10
1517.846235532088
 20
695.38267649257432
 30
0.0
 11
1517.846235532088
 21
676.38267649257432
 31
0.0
  0
ARC
  5
7D92
  8
0
 10
1516.846235532088
 20
695.38267649257432
 30
0.0
 40
1.0
 50
0.0
 51
90.0
  0
LINE
  5
7D93
  8
0
 10
1514.846235532088
 20
696.38267649257409
 30
0.0
 11
1516.846235532088
 21
696.38267649257432
 31
0.0
  0
LINE
  5
7D94
  8
0
 10
1514.846235532088
 20
675.38267649257432
 30
0.0
 11
1516.846235532088
 21
675.38267649257432
 31
0.0
  0
ARC
  5
7D95
  8
0
 10
1516.846235532088
 20
676.38267649257432
 30
0.0
 40
1.0
 50
270.0
 51
0.0
  0
LINE
  5
7D96
  8
0
 10
2613.8920275710352
 20
842.01260688259754
 30
0.0
 11
2645.8920275710352
 21
842.01260688259754
 31
0.0
  0
LINE
  5
7D97
  8
0
 10
2587.985414193482
 20
812.01260688259754
 30
0.0
 11
2610.8920275710352
 21
812.01260688259754
 31
0.0
  0
LINE
  5
7D98
  8
0
 10
2712.3920275710339
 20
745.51260688259754
 30
0.0
 11
2738.8920275710352
 21
745.51260688259754
 31
0.0
  0
LINE
  5
7D99
  8
0
 10
2709.8920275710352
 20
819.5126068825972
 30
0.0
 11
2738.8920275710352
 21
819.51260688259765
 31
0.0
  0
LINE
  5
7D9A
  8
0
 10
2739.8920275710352
 20
818.51260688259765
 30
0.0
 11
2738.8920275710352
 21
819.51260688259765
 31
0.0
  0
LINE
  5
7D9B
  8
0
 10
2645.8920275710352
 20
842.01260688259754
 30
0.0
 11
2645.8920275710352
 21
810.4545015870566
 31
0.0
  0
LINE
  5
7D9C
  8
0
 10
2613.8920275710352
 20
842.01260688259754
 30
0.0
 11
2613.8920275710352
 21
810.4545015870566
 31
0.0
  0
LINE
  5
7D9D
  8
0
 10
2739.8920275710352
 20
818.51260688259765
 30
0.0
 11
2739.8920275710352
 21
746.51260688259754
 31
0.0
  0
LINE
  5
7D9E
  8
0
 10
2738.8920275710352
 20
745.51260688259754
 30
0.0
 11
2739.8920275710352
 21
746.51260688259754
 31
0.0
  0
LINE
  5
7D9F
  8
0
 10
2712.3920275710352
 20
766.75242705439621
 30
0.0
 11
2712.3920275710352
 21
653.75790970858384
 31
0.0
  0
LINE
  5
7DA0
  8
0
 10
2547.3920275710352
 20
766.75242705439621
 30
0.0
 11
2547.3920275710352
 21
657.8421299100437
 31
0.0
  0
LINE
  5
7DA1
  8
0
 10
2547.3920275710352
 20
649.6736895071233
 30
0.0
 11
2547.3920275710352
 21
646.53664368296791
 31
0.0
  0
LINE
  5
7DA2
  8
0
 10
2696.9016465142681
 20
812.01260688259754
 30
0.0
 11
2709.8920275710352
 21
819.51260688259765
 31
0.0
  0
LINE
  5
7DA3
  8
0
 10
2547.3920275710352
 20
745.51260688259754
 30
0.0
 11
2520.8920275710352
 21
745.51260688259742
 31
0.0
  0
LINE
  5
7DA4
  8
0
 10
2519.8920275710339
 20
746.51260688259731
 30
0.0
 11
2520.8920275710352
 21
745.51260688259742
 31
0.0
  0
LINE
  5
7DA5
  8
0
 10
2575.8920275710352
 20
819.51260688259697
 30
0.0
 11
2520.8920275710352
 21
819.5126068825972
 31
0.0
  0
LINE
  5
7DA6
  8
0
 10
2519.8920275710339
 20
818.5126068825972
 30
0.0
 11
2519.8920275710339
 21
746.51260688259731
 31
0.0
  0
LINE
  5
7DA7
  8
0
 10
2520.8920275710352
 20
819.5126068825972
 30
0.0
 11
2519.8920275710339
 21
818.5126068825972
 31
0.0
  0
ARC
  5
7DA8
  8
0
 10
2629.8920275710352
 20
690.01260688259754
 30
0.0
 40
121.5
 50
53.88033187285172
 51
126.1196681271482
  0
ARC
  5
7DA9
  8
0
 10
2685.8920275710339
 20
766.75242705439621
 30
0.0
 40
26.5
 50
0.0
 51
53.88033187285172
  0
ARC
  5
7DAA
  8
0
 10
2575.8920275710352
 20
809.01260688259697
 30
0.0
 40
10.5
 50
26.387799961237569
 51
90.0
  0
ARC
  5
7DAB
  8
0
 10
2587.985414193482
 20
815.01260688259765
 30
0.0
 40
3.0
 50
206.38779996123759
 51
270.0
  0
LINE
  5
7DAC
  8
0
 10
2575.8920275710352
 20
819.51260688259697
 30
0.0
 11
2613.8920275710352
 21
819.51260688259697
 31
0.0
  0
LINE
  5
7DAD
  8
0
 10
2645.8920275710352
 20
819.5126068825972
 30
0.0
 11
2709.8920275710352
 21
819.5126068825972
 31
0.0
  0
ARC
  5
7DAE
  8
0
 10
2573.8920275710339
 20
766.75242705439621
 30
0.0
 40
26.5
 50
126.1196681271482
 51
180.0
  0
ARC
  5
7DAF
  8
0
 10
2610.8920275710352
 20
815.01260688259765
 30
0.0
 40
3.0
 50
270.0
 51
0.0
  0
ARC
  5
7DB0
  8
0
 10
2648.8920275710339
 20
815.01260688259765
 30
0.0
 40
3.0
 50
180.0
 51
270.0
  0
LINE
  5
7DB1
  8
0
 10
2648.8920275710339
 20
812.01260688259754
 30
0.0
 11
2696.9016465142681
 21
812.01260688259754
 31
0.0
  0
LINE
  5
7DB2
  8
0
 10
2645.8920275710352
 20
297.47689780153007
 30
0.0
 11
2645.8920275710352
 21
278.01260688259771
 31
0.0
  0
LINE
  5
7DB3
  8
0
 10
2644.8920275710339
 20
277.01260688259771
 30
0.0
 11
2645.8920275710352
 21
278.01260688259771
 31
0.0
  0
LINE
  5
7DB4
  8
0
 10
2613.8920275710352
 20
297.47689780153007
 30
0.0
 11
2613.8920275710352
 21
278.01260688259748
 31
0.0
  0
LINE
  5
7DB5
  8
0
 10
2712.7920275710349
 20
354.01260688259748
 30
0.0
 11
2712.7920275710339
 21
343.93770957737598
 31
0.0
  0
LINE
  5
7DB6
  8
0
 10
2546.9920275710351
 20
354.01260688259748
 30
0.0
 11
2546.9920275710351
 21
343.93770957737598
 31
0.0
  0
LINE
  5
7DB7
  8
0
 10
2712.3920275710352
 20
620.26730405661135
 30
0.0
 11
2712.3920275710352
 21
354.01260688259748
 31
0.0
  0
LINE
  5
7DB8
  8
0
 10
2547.3920275710352
 20
649.6736895071233
 30
0.0
 11
2547.3920275710352
 21
646.53664368296791
 31
0.0
  0
LINE
  5
7DB9
  8
0
 10
2547.3920275710352
 20
627.48857008222649
 30
0.0
 11
2547.3920275710352
 21
354.01260688259748
 31
0.0
  0
LINE
  5
7DBA
  8
0
 10
2547.3920275710352
 20
354.01260688259748
 30
0.0
 11
2712.3920275710352
 21
354.01260688259748
 31
0.0
  0
LINE
  5
7DBB
  8
0
 10
2546.9920275710351
 20
354.01260688259748
 30
0.0
 11
2712.7920275710349
 21
354.01260688259748
 31
0.0
  0
LINE
  5
7DBC
  8
0
 10
2614.8920275710352
 20
277.01260688259748
 30
0.0
 11
2644.8920275710339
 21
277.01260688259771
 31
0.0
  0
LINE
  5
7DBD
  8
0
 10
2613.8920275710352
 20
278.01260688259748
 30
0.0
 11
2614.8920275710352
 21
277.01260688259748
 31
0.0
  0
ARC
  5
7DBE
  8
0
 10
2629.8920275710352
 20
420.01260688259748
 30
0.0
 40
121.0
 50
233.20545439748909
 51
306.79454560251088
  0
ARC
  5
7DBF
  8
0
 10
2648.8920275710339
 20
297.47689780153007
 30
0.0
 40
3.0
 50
98.813913318657882
 51
180.0
  0
ARC
  5
7DC0
  8
0
 10
2610.8920275710352
 20
297.47689780153007
 30
0.0
 40
3.0
 50
0.0
 51
81.186086681342104
  0
ARC
  5
7DC1
  8
0
 10
2572.9920275710342
 20
343.93770957737598
 30
0.0
 40
26.0
 50
180.0
 51
233.20545439748909
  0
ARC
  5
7DC2
  8
0
 10
2686.7920275710339
 20
343.93770957737598
 30
0.0
 40
26.0
 50
306.79454560251088
 51
0.0
  0
CIRCLE
  5
7DC3
  8
0
 10
2917.9118910364268
 20
782.51260688259754
 30
0.0
 40
36.999999999999773
  0
LINE
  5
7DC4
  8
0
 10
3000.4118910364268
 20
766.75242705439621
 30
0.0
 11
3000.4118910364268
 21
653.75790970858361
 31
0.0
  0
LINE
  5
7DC5
  8
0
 10
3003.4118910364268
 20
763.01260688259754
 30
0.0
 11
3003.4118910364268
 21
748.01260688259765
 31
0.0
  0
ARC
  5
7DC6
  8
0
 10
3000.4118910364268
 20
763.01260688259731
 30
0.0
 40
3.0
 50
0.0
 51
90.0
  0
LINE
  5
7DC7
  8
0
 10
2835.4118910364268
 20
766.75242705439621
 30
0.0
 11
2835.4118910364268
 21
653.75790970858361
 31
0.0
  0
ARC
  5
7DC8
  8
0
 10
2917.9118910364268
 20
690.01260688259754
 30
0.0
 40
121.5
 50
53.88033187285172
 51
65.995500522485003
  0
ARC
  5
7DC9
  8
0
 10
2917.9118910364268
 20
690.01260688259754
 30
0.0
 40
121.5
 50
114.004499477515
 51
126.1196681271482
  0
ARC
  5
7DCA
  8
0
 10
2973.9118910364268
 20
766.75242705439621
 30
0.0
 40
26.5
 50
0.0
 51
53.88033187285172
  0
ARC
  5
7DCB
  8
0
 10
2861.9118910364268
 20
766.75242705439621
 30
0.0
 40
26.5
 50
126.1196681271482
 51
180.0
  0
LINE
  5
7DCC
  8
0
 10
2901.9118910364268
 20
842.01260688259765
 30
0.0
 11
2933.9118910364268
 21
842.01260688259754
 31
0.0
  0
LINE
  5
7DCD
  8
0
 10
2933.9118910364268
 20
842.01260688259754
 30
0.0
 11
2933.9118910364268
 21
817.83845619094484
 31
0.0
  0
LINE
  5
7DCE
  8
0
 10
2901.9118910364268
 20
842.01260688259754
 30
0.0
 11
2901.9118910364268
 21
817.83845619094484
 31
0.0
  0
LINE
  5
7DCF
  8
0
 10
2902.8599808586459
 20
816.31260688259738
 30
0.0
 11
2868.4846724796589
 21
801.00449877448955
 31
0.0
  0
LINE
  5
7DD0
  8
0
 10
2932.9638012142082
 20
816.31260688259738
 30
0.0
 11
2967.3391095931952
 21
801.00449877448978
 31
0.0
  0
ARC
  5
7DD1
  8
0
 10
2936.9118910364268
 20
817.83845619094484
 30
0.0
 40
3.0
 50
180.0
 51
245.99550052249029
  0
ARC
  5
7DD2
  8
0
 10
2898.9118910364268
 20
817.83845619094484
 30
0.0
 40
3.0
 50
294.00449947750968
 51
0.0
  0
LINE
  5
7DD3
  8
0
 10
2933.9118910364268
 20
297.47689780153007
 30
0.0
 11
2933.9118910364268
 21
278.01260688259771
 31
0.0
  0
LINE
  5
7DD4
  8
0
 10
2932.9118910364268
 20
277.01260688259771
 30
0.0
 11
2933.9118910364268
 21
278.01260688259771
 31
0.0
  0
LINE
  5
7DD5
  8
0
 10
2901.9118910364268
 20
297.47689780153007
 30
0.0
 11
2901.9118910364268
 21
278.01260688259748
 31
0.0
  0
LINE
  5
7DD6
  8
0
 10
3000.8118910364269
 20
354.01260688259748
 30
0.0
 11
3000.8118910364269
 21
343.93770957737598
 31
0.0
  0
LINE
  5
7DD7
  8
0
 10
2835.0118910364281
 20
354.01260688259748
 30
0.0
 11
2835.0118910364281
 21
343.93770957737598
 31
0.0
  0
LINE
  5
7DD8
  8
0
 10
3000.4118910364268
 20
620.26730405661135
 30
0.0
 11
3000.4118910364268
 21
354.01260688259748
 31
0.0
  0
LINE
  5
7DD9
  8
0
 10
2835.4118910364268
 20
620.26730405661374
 30
0.0
 11
2835.4118910364268
 21
354.01260688259748
 31
0.0
  0
ARC
  5
7DDA
  8
0
 10
3000.4118910364268
 20
748.01260688259754
 30
0.0
 40
3.0
 50
270.0
 51
0.0
  0
LINE
  5
7DDB
  8
0
 10
2835.4118910364268
 20
354.01260688259748
 30
0.0
 11
3000.4118910364268
 21
354.01260688259748
 31
0.0
  0
LINE
  5
7DDC
  8
0
 10
2835.0118910364281
 20
354.01260688259748
 30
0.0
 11
3000.8118910364269
 21
354.01260688259748
 31
0.0
  0
LINE
  5
7DDD
  8
0
 10
2902.9118910364268
 20
277.01260688259748
 30
0.0
 11
2932.9118910364268
 21
277.01260688259771
 31
0.0
  0
LINE
  5
7DDE
  8
0
 10
2901.9118910364268
 20
278.01260688259748
 30
0.0
 11
2902.9118910364268
 21
277.01260688259748
 31
0.0
  0
ARC
  5
7DDF
  8
0
 10
2917.9118910364268
 20
420.01260688259748
 30
0.0
 40
121.0
 50
233.20545439748909
 51
306.79454560251088
  0
ARC
  5
7DE0
  8
0
 10
2936.9118910364268
 20
297.47689780153007
 30
0.0
 40
3.0
 50
98.813913318657882
 51
180.0
  0
ARC
  5
7DE1
  8
0
 10
2898.9118910364268
 20
297.47689780153007
 30
0.0
 40
3.0
 50
0.0
 51
81.186086681342104
  0
ARC
  5
7DE2
  8
0
 10
2861.0118910364272
 20
343.93770957737598
 30
0.0
 40
26.0
 50
180.0
 51
233.20545439748909
  0
ARC
  5
7DE3
  8
0
 10
2974.8118910364269
 20
343.93770957737598
 30
0.0
 40
26.0
 50
306.79454560251088
 51
0.0
  0
LINE
  5
7DE4
  8
0
 10
2629.8915275710351
 20
858.33588257182532
 30
0.0
 11
2640.3690275710342
 21
848.33588257182441
 31
0.0
  0
LINE
  5
7DE5
  8
0
 10
2619.4140275710338
 20
848.33588257182532
 30
0.0
 11
2629.8915275710351
 21
858.33588257182532
 31
0.0
  0
LINE
  5
7DE6
  8
0
 10
2629.8920275710352
 20
848.33588257182532
 30
0.0
 11
2619.4140275710338
 21
858.33588257182532
 31
0.0
  0
LINE
  5
7DE7
  8
0
 10
2640.3690275710342
 20
858.33588257182532
 30
0.0
 11
2629.8920275710352
 21
848.33588257182532
 31
0.0
  0
LINE
  5
7DE8
  8
0
 10
2619.4140275710338
 20
858.33588257182532
 30
0.0
 11
2619.4140275710338
 21
848.33588257182532
 31
0.0
  0
LINE
  5
7DE9
  8
0
 10
2640.3690275710342
 20
858.33588257182532
 30
0.0
 11
2640.3690275710342
 21
848.33588257182532
 31
0.0
  0
LINE
  5
7DEA
  8
0
 10
2619.4140275710338
 20
848.33588257182532
 30
0.0
 11
2640.3690275710342
 21
848.33588257182532
 31
0.0
  0
LINE
  5
7DEB
  8
0
 10
2619.4140275710338
 20
848.33588257182532
 30
0.0
 11
2619.6116986675802
 21
842.01260688259765
 31
0.0
  0
LINE
  5
7DEC
  8
0
 10
2620.5770275710338
 20
848.33588257182532
 30
0.0
 11
2620.77442374255
 21
842.01260688259765
 31
0.0
  0
LINE
  5
7DED
  8
0
 10
2639.2070275710339
 20
848.33588257182532
 30
0.0
 11
2639.0096313995191
 21
842.01260688259765
 31
0.0
  0
LINE
  5
7DEE
  8
0
 10
2640.3690275710342
 20
848.33588257182532
 30
0.0
 11
2640.171631399518
 21
842.01260688259765
 31
0.0
  0
LINE
  5
7DEF
  8
0
 10
2619.4140275710338
 20
858.33588257182532
 30
0.0
 11
2640.3690275710342
 21
858.33588257182532
 31
0.0
  0
LINE
  5
7DF0
  8
0
 10
2917.9113910364272
 20
858.33588257182555
 30
0.0
 11
2928.3888910364271
 21
848.33588257182464
 31
0.0
  0
LINE
  5
7DF1
  8
0
 10
2907.4338910364272
 20
848.33588257182555
 30
0.0
 11
2917.9113910364272
 21
858.33588257182555
 31
0.0
  0
LINE
  5
7DF2
  8
0
 10
2917.9118910364268
 20
848.33588257182555
 30
0.0
 11
2907.4338910364272
 21
858.33588257182555
 31
0.0
  0
LINE
  5
7DF3
  8
0
 10
2928.3888910364271
 20
858.33588257182555
 30
0.0
 11
2917.9118910364268
 21
848.33588257182555
 31
0.0
  0
LINE
  5
7DF4
  8
0
 10
2907.4338910364272
 20
858.33588257182555
 30
0.0
 11
2907.4338910364272
 21
848.33588257182555
 31
0.0
  0
LINE
  5
7DF5
  8
0
 10
2928.3888910364271
 20
858.33588257182555
 30
0.0
 11
2928.3888910364271
 21
848.33588257182555
 31
0.0
  0
LINE
  5
7DF6
  8
0
 10
2907.4338910364272
 20
848.33588257182555
 30
0.0
 11
2928.3888910364271
 21
848.33588257182555
 31
0.0
  0
LINE
  5
7DF7
  8
0
 10
2907.4338910364272
 20
848.33588257182555
 30
0.0
 11
2907.6315621329732
 21
842.01260688259788
 31
0.0
  0
LINE
  5
7DF8
  8
0
 10
2908.5968910364272
 20
848.33588257182555
 30
0.0
 11
2908.7942872079429
 21
842.01260688259788
 31
0.0
  0
LINE
  5
7DF9
  8
0
 10
2927.226891036426
 20
848.33588257182555
 30
0.0
 11
2927.0294948649112
 21
842.01260688259788
 31
0.0
  0
LINE
  5
7DFA
  8
0
 10
2928.3888910364271
 20
848.33588257182555
 30
0.0
 11
2928.191494864911
 21
842.01260688259788
 31
0.0
  0
LINE
  5
7DFB
  8
0
 10
2907.4338910364272
 20
858.33588257182555
 30
0.0
 11
2928.3888910364271
 21
858.33588257182555
 31
0.0
  0
CIRCLE
  5
7DFC
  8
0
 10
2341.8721641056418
 20
782.51260688259754
 30
0.0
 40
36.999999999999773
  0
LINE
  5
7DFD
  8
0
 10
2259.3721641056418
 20
766.75242705439621
 30
0.0
 11
2259.3721641056409
 21
647.01283682899918
 31
0.0
  0
LINE
  5
7DFE
  8
0
 10
2256.3721641056418
 20
763.01260688259754
 30
0.0
 11
2256.3721641056418
 21
748.01260688259765
 31
0.0
  0
ARC
  5
7DFF
  8
0
 10
2259.3721641056418
 20
763.01260688259731
 30
0.0
 40
3.0
 50
90.0
 51
180.0
  0
LINE
  5
7E00
  8
0
 10
2424.3721641056418
 20
766.75242705439621
 30
0.0
 11
2424.3721641056418
 21
658.60095505166271
 31
0.0
  0
LINE
  5
7E01
  8
0
 10
2424.3721641056418
 20
650.22830736693732
 30
0.0
 11
2424.3721641056418
 21
647.0128368289993
 31
0.0
  0
ARC
  5
7E02
  8
0
 10
2341.8721641056418
 20
690.01260688259754
 30
0.0
 40
121.5
 50
114.004499477515
 51
126.1196681271482
  0
ARC
  5
7E03
  8
0
 10
2341.8721641056418
 20
690.01260688259754
 30
0.0
 40
121.5
 50
53.88033187285172
 51
65.995500522485003
  0
ARC
  5
7E04
  8
0
 10
2285.8721641056418
 20
766.75242705439621
 30
0.0
 40
26.5
 50
126.1196681271482
 51
180.0
  0
ARC
  5
7E05
  8
0
 10
2397.8721641056418
 20
766.75242705439621
 30
0.0
 40
26.5
 50
0.0
 51
53.88033187285172
  0
LINE
  5
7E06
  8
0
 10
2357.8721641056418
 20
842.01260688259765
 30
0.0
 11
2325.8721641056418
 21
842.01260688259754
 31
0.0
  0
LINE
  5
7E07
  8
0
 10
2325.8721641056418
 20
842.01260688259754
 30
0.0
 11
2325.8721641056418
 21
817.83845619094484
 31
0.0
  0
LINE
  5
7E08
  8
0
 10
2357.8721641056418
 20
842.01260688259754
 30
0.0
 11
2357.8721641056418
 21
817.83845619094484
 31
0.0
  0
LINE
  5
7E09
  8
0
 10
2356.9240742834231
 20
816.31260688259738
 30
0.0
 11
2391.2993826624102
 21
801.00449877448955
 31
0.0
  0
LINE
  5
7E0A
  8
0
 10
2326.8202539278609
 20
816.31260688259738
 30
0.0
 11
2292.4449455488739
 21
801.00449877448978
 31
0.0
  0
ARC
  5
7E0B
  8
0
 10
2322.8721641056418
 20
817.83845619094484
 30
0.0
 40
3.0
 50
294.00449947750968
 51
0.0
  0
ARC
  5
7E0C
  8
0
 10
2360.8721641056418
 20
817.83845619094484
 30
0.0
 40
3.0
 50
180.0
 51
245.99550052249029
  0
LINE
  5
7E0D
  8
0
 10
2325.8721641056418
 20
297.47689780153007
 30
0.0
 11
2325.8721641056418
 21
278.01260688259771
 31
0.0
  0
LINE
  5
7E0E
  8
0
 10
2326.8721641056418
 20
277.01260688259771
 30
0.0
 11
2325.8721641056418
 21
278.01260688259771
 31
0.0
  0
LINE
  5
7E0F
  8
0
 10
2357.8721641056418
 20
297.47689780153007
 30
0.0
 11
2357.8721641056418
 21
278.01260688259748
 31
0.0
  0
LINE
  5
7E10
  8
0
 10
2258.9721641056408
 20
354.01260688259748
 30
0.0
 11
2258.9721641056422
 21
343.93770957737598
 31
0.0
  0
LINE
  5
7E11
  8
0
 10
2424.7721641056419
 20
354.01260688259748
 30
0.0
 11
2424.7721641056419
 21
343.93770957737598
 31
0.0
  0
LINE
  5
7E12
  8
0
 10
2259.3721641056418
 20
627.48857008222649
 30
0.0
 11
2259.3721641056418
 21
354.01260688259748
 31
0.0
  0
LINE
  5
7E13
  8
0
 10
2424.3721641056418
 20
627.48857008222649
 30
0.0
 11
2424.3721641056409
 21
354.01260688259748
 31
0.0
  0
ARC
  5
7E14
  8
0
 10
2259.3721641056418
 20
748.01260688259754
 30
0.0
 40
3.0
 50
180.0
 51
270.0
  0
LINE
  5
7E15
  8
0
 10
2424.3721641056418
 20
354.01260688259748
 30
0.0
 11
2259.3721641056418
 21
354.01260688259748
 31
0.0
  0
LINE
  5
7E16
  8
0
 10
2424.7721641056419
 20
354.01260688259748
 30
0.0
 11
2258.9721641056408
 21
354.01260688259748
 31
0.0
  0
LINE
  5
7E17
  8
0
 10
2356.8721641056418
 20
277.01260688259748
 30
0.0
 11
2326.8721641056418
 21
277.01260688259771
 31
0.0
  0
LINE
  5
7E18
  8
0
 10
2357.8721641056418
 20
278.01260688259748
 30
0.0
 11
2356.8721641056418
 21
277.01260688259748
 31
0.0
  0
ARC
  5
7E19
  8
0
 10
2341.8721641056418
 20
420.01260688259748
 30
0.0
 40
121.0
 50
233.20545439748909
 51
306.79454560251088
  0
ARC
  5
7E1A
  8
0
 10
2322.8721641056418
 20
297.47689780153007
 30
0.0
 40
3.0
 50
0.0
 51
81.186086681342104
  0
ARC
  5
7E1B
  8
0
 10
2360.8721641056418
 20
297.47689780153007
 30
0.0
 40
3.0
 50
98.813913318657882
 51
180.0
  0
ARC
  5
7E1C
  8
0
 10
2398.7721641056419
 20
343.93770957737598
 30
0.0
 40
26.0
 50
306.79454560251088
 51
0.0
  0
ARC
  5
7E1D
  8
0
 10
2284.9721641056408
 20
343.93770957737598
 30
0.0
 40
26.0
 50
180.0
 51
233.20545439748909
  0
LINE
  5
7E1E
  8
0
 10
2341.8726641056419
 20
858.33588257182555
 30
0.0
 11
2331.3951641056419
 21
848.33588257182464
 31
0.0
  0
LINE
  5
7E1F
  8
0
 10
2352.3501641056419
 20
848.33588257182555
 30
0.0
 11
2341.8726641056419
 21
858.33588257182555
 31
0.0
  0
LINE
  5
7E20
  8
0
 10
2341.8721641056418
 20
848.33588257182555
 30
0.0
 11
2352.3501641056419
 21
858.33588257182555
 31
0.0
  0
LINE
  5
7E21
  8
0
 10
2331.3951641056419
 20
858.33588257182555
 30
0.0
 11
2341.8721641056418
 21
848.33588257182555
 31
0.0
  0
LINE
  5
7E22
  8
0
 10
2352.3501641056419
 20
858.33588257182555
 30
0.0
 11
2352.3501641056419
 21
848.33588257182555
 31
0.0
  0
LINE
  5
7E23
  8
0
 10
2331.3951641056419
 20
858.33588257182555
 30
0.0
 11
2331.3951641056419
 21
848.33588257182555
 31
0.0
  0
LINE
  5
7E24
  8
0
 10
2352.3501641056419
 20
848.33588257182555
 30
0.0
 11
2331.3951641056419
 21
848.33588257182555
 31
0.0
  0
LINE
  5
7E25
  8
0
 10
2352.3501641056419
 20
848.33588257182555
 30
0.0
 11
2352.1524930090959
 21
842.01260688259788
 31
0.0
  0
LINE
  5
7E26
  8
0
 10
2351.1871641056418
 20
848.33588257182555
 30
0.0
 11
2350.9897679341261
 21
842.01260688259788
 31
0.0
  0
LINE
  5
7E27
  8
0
 10
2332.5571641056422
 20
848.33588257182555
 30
0.0
 11
2332.7545602771579
 21
842.01260688259788
 31
0.0
  0
LINE
  5
7E28
  8
0
 10
2331.3951641056419
 20
848.33588257182555
 30
0.0
 11
2331.5925602771581
 21
842.01260688259788
 31
0.0
  0
LINE
  5
7E29
  8
0
 10
2352.3501641056419
 20
858.33588257182555
 30
0.0
 11
2331.3951641056419
 21
858.33588257182555
 31
0.0
  0
ARC
  5
7E2A
  8
0
 10
2629.8920275710352
 20
1050.9483487835671
 30
0.0
 40
82.500000000000227
 50
24.465263338046309
 51
155.53473666195359
  0
ARC
  5
7E2B
  8
0
 10
2629.8920275710352
 20
1050.9483487835671
 30
0.0
 40
82.500000000000227
 50
204.4652633380463
 51
335.53473666195367
  0
LINE
  5
7E2C
  8
0
 10
2739.8920275710352
 20
1086.9483487835671
 30
0.0
 11
2739.8920275710352
 21
1014.948348783567
 31
0.0
  0
LINE
  5
7E2D
  8
0
 10
2738.8920275710352
 20
1013.948348783567
 30
0.0
 11
2739.8920275710352
 21
1014.948348783567
 31
0.0
  0
LINE
  5
7E2E
  8
0
 10
2696.9016465142681
 20
1080.448348783566
 30
0.0
 11
2709.8920275710352
 21
1087.9483487835671
 31
0.0
  0
LINE
  5
7E2F
  8
0
 10
2519.8920275710339
 20
1086.9483487835671
 30
0.0
 11
2519.8920275710339
 21
1014.948348783566
 31
0.0
  0
LINE
  5
7E30
  8
0
 10
2520.8920275710352
 20
1087.9483487835671
 30
0.0
 11
2519.8920275710339
 21
1086.9483487835671
 31
0.0
  0
LINE
  5
7E31
  8
0
 10
2562.8824086278009
 20
1080.448348783566
 30
0.0
 11
2696.9016465142681
 21
1080.448348783566
 31
0.0
  0
LINE
  5
7E32
  8
0
 10
2709.8920275710352
 20
1087.9483487835671
 30
0.0
 11
2738.8920275710352
 21
1087.9483487835671
 31
0.0
  0
LINE
  5
7E33
  8
0
 10
2739.8920275710352
 20
1086.9483487835671
 30
0.0
 11
2738.8920275710352
 21
1087.9483487835671
 31
0.0
  0
LINE
  5
7E34
  8
0
 10
2562.8824086278009
 20
1080.448348783566
 30
0.0
 11
2549.8920275710352
 21
1087.9483487835671
 31
0.0
  0
LINE
  5
7E35
  8
0
 10
2549.8920275710352
 20
1087.9483487835671
 30
0.0
 11
2520.8920275710352
 21
1087.9483487835671
 31
0.0
  0
LINE
  5
7E36
  8
0
 10
2696.9016465142681
 20
1021.448348783567
 30
0.0
 11
2709.8920275710352
 21
1013.948348783567
 31
0.0
  0
LINE
  5
7E37
  8
0
 10
2562.8824086278009
 20
1021.448348783567
 30
0.0
 11
2696.9016465142681
 21
1021.448348783567
 31
0.0
  0
LINE
  5
7E38
  8
0
 10
2709.8920275710352
 20
1013.948348783567
 30
0.0
 11
2738.8920275710352
 21
1013.948348783567
 31
0.0
  0
LINE
  5
7E39
  8
0
 10
2562.8824086278009
 20
1021.448348783567
 30
0.0
 11
2549.8920275710352
 21
1013.948348783567
 31
0.0
  0
LINE
  5
7E3A
  8
0
 10
2549.8920275710352
 20
1013.948348783567
 30
0.0
 11
2520.8920275710352
 21
1013.948348783566
 31
0.0
  0
LINE
  5
7E3B
  8
0
 10
2519.8920275710339
 20
1014.948348783566
 30
0.0
 11
2520.8920275710352
 21
1013.948348783566
 31
0.0
  0
CIRCLE
  5
7E3C
  8
0
 10
2629.8920275710352
 20
1050.9483487835671
 30
0.0
 40
16.0
  0
LINE
  5
7E3D
  8
0
 10
2517.405911101082
 20
956.19531994303361
 30
0.0
 11
2543.3641573157311
 21
956.19531994303361
 31
0.0
  0
LINE
  5
7E3E
  8
0
 10
2517.405911101082
 20
962.73001158720808
 30
0.0
 11
2543.3641573157311
 21
962.73001158720808
 31
0.0
  0
LINE
  5
7E3F
  8
0
 10
2536.7787187116978
 20
1013.374925011645
 30
0.0
 11
2536.7787187116978
 21
991.22606300132657
 31
0.0
  0
LINE
  5
7E40
  8
0
 10
2523.709335423348
 20
1013.374439068565
 30
0.0
 11
2523.709335423348
 21
991.02094985794599
 31
0.0
  0
LINE
  5
7E41
  8
0
 10
2523.709335423348
 20
991.02094985794599
 30
0.0
 11
2509.5480334832218
 21
971.8568537897645
 31
0.0
  0
LINE
  5
7E42
  8
0
 10
2532.9264767001591
 20
985.46057671171627
 30
0.0
 11
2545.9834498550181
 21
967.95052286945202
 31
0.0
  0
LINE
  5
7E43
  8
0
 10
2536.7787187116978
 20
991.22606300132657
 30
0.0
 11
2551.2220349335912
 21
971.8568537897645
 31
0.0
  0
ARC
  5
7E44
  8
0
 10
2543.3641573157311
 20
965.99735740929555
 30
0.0
 40
3.2673458220873441
 50
270.0
 51
36.71131776775978
  0
ARC
  5
7E45
  8
0
 10
2543.3641573157311
 20
965.99735740929555
 30
0.0
 40
9.8020374662620338
 50
270.0
 51
36.71131776775978
  0
ARC
  5
7E46
  8
0
 10
2530.3071841608721
 20
983.50741125155992
 30
0.0
 40
3.2673458220873441
 50
36.71131776775978
 51
143.13010235416641
  0
ARC
  5
7E47
  8
0
 10
2517.405911101082
 20
965.99735740929555
 30
0.0
 40
3.2673458220873441
 50
143.28868223224021
 51
270.0
  0
ARC
  5
7E48
  8
0
 10
2517.405911101082
 20
965.99735740929555
 30
0.0
 40
9.8020374662620338
 50
143.28868223224021
 51
270.0
  0
LINE
  5
7E49
  8
0
 10
2527.693307503202
 20
985.46781874481235
 30
0.0
 11
2514.786618561795
 21
967.95052286945202
 31
0.0
  0
ARC
  5
7E4A
  8
0
 10
2676.383093450273
 20
1131.4732369844401
 30
0.0
 40
10.48164975077167
 50
60.000000000002721
 51
240.0000000000027
  0
ARC
  5
7E4B
  8
0
 10
2676.383093450273
 20
970.42346058269356
 30
0.0
 40
10.48164975077167
 50
119.9999999999973
 51
299.99999999999733
  0
ARC
  5
7E4C
  8
0
 10
2629.8920275710352
 20
1050.9483487835671
 30
0.0
 40
103.82083129059529
 50
206.25095418419519
 51
338.78259811910021
  0
ARC
  5
7E4D
  8
0
 10
2629.8920275710352
 20
1050.9483487835671
 30
0.0
 40
103.82083129059529
 50
21.2174018808998
 51
159.12175870059809
  0
LINE
  5
7E4E
  8
0
 10
2545.7570914209568
 20
649.67368950712375
 30
0.0
 11
2545.7570914209568
 21
646.53664368296791
 31
0.0
  0
LINE
  5
7E4F
  8
0
 10
2733.7128588616301
 20
641.6686179122612
 30
0.0
 11
2733.7128588616301
 21
637.01260688259686
 31
0.0
  0
LINE
  5
7E50
  8
0
 10
2733.7128588616301
 20
631.86648942875695
 30
0.0
 11
2733.7128588616301
 21
637.01260688259686
 31
0.0
  0
LINE
  5
7E51
  8
0
 10
2544.9020525192682
 20
646.53664368296791
 30
0.0
 11
2733.7128588616301
 21
646.53664368296791
 31
0.0
  0
LINE
  5
7E52
  8
0
 10
2513.9001738495681
 20
637.01260688259686
 30
0.0
 11
2559.6536062929058
 21
637.0126068825972
 31
0.0
  0
LINE
  5
7E53
  8
0
 10
2513.9001738495681
 20
627.48857008222649
 30
0.0
 11
2733.7128588616301
 21
627.48857008222649
 31
0.0
  0
LINE
  5
7E54
  8
0
 10
2733.7128588616301
 20
620.26730405661135
 30
0.0
 11
2733.7128588616301
 21
653.75790970858384
 31
0.0
  0
LINE
  5
7E55
  8
0
 10
2513.9001738495681
 20
627.48857008222649
 30
0.0
 11
2513.9001738495681
 21
649.67368950712284
 31
0.0
  0
ARC
  5
7E56
  8
0
 10
2529.8348372545902
 20
653.72024446712521
 30
0.0
 40
16.7274971294812
 50
272.79222088910518
 51
346.00068079444941
  0
ARC
  5
7E57
  8
0
 10
2530.2421377489009
 20
653.75790970858327
 30
0.0
 40
16.34196389933312
 50
14.472910718502989
 51
165.52708928149701
  0
LINE
  5
7E58
  8
0
 10
2554.7474589576609
 20
649.6736895071233
 30
0.0
 11
2554.7474589576609
 21
657.84212991004381
 31
0.0
  0
LINE
  5
7E59
  8
0
 10
2505.7368165401408
 20
649.6736895071233
 30
0.0
 11
2505.7368165401408
 21
657.84212991004335
 31
0.0
  0
LINE
  5
7E5A
  8
0
 10
2554.7474589576609
 20
657.84212991004381
 30
0.0
 11
2505.7368165401408
 21
657.84212991004335
 31
0.0
  0
LINE
  5
7E5B
  8
0
 10
2554.7474589576609
 20
649.6736895071233
 30
0.0
 11
2505.7368165401408
 21
649.67368950712284
 31
0.0
  0
LINE
  5
7E5C
  8
0
 10
2665.9008140336782
 20
653.75790970858384
 30
0.0
 11
2665.9008140336782
 21
646.53664368296791
 31
0.0
  0
LINE
  5
7E5D
  8
0
 10
2665.9008140336782
 20
627.48857008222649
 30
0.0
 11
2665.9008140336782
 21
620.26730405661135
 31
0.0
  0
ARC
  5
7E5E
  8
0
 10
2530.2421377489009
 20
653.75790970858327
 30
0.0
 40
6.5347523223360806
 50
218.68218745349299
 51
321.3178125465069
  0
ARC
  5
7E5F
  8
0
 10
2530.2421377489009
 20
653.75790970858327
 30
0.0
 40
6.5347523223360806
 50
38.68218745349305
 51
141.3178125465069
  0
LINE
  5
7E60
  8
0
 10
2733.7128588616301
 20
653.75790970858384
 30
0.0
 11
2665.9008140336782
 21
653.75790970858384
 31
0.0
  0
LINE
  5
7E61
  8
0
 10
2733.7128588616301
 20
620.26730405661135
 30
0.0
 11
2665.9008140336782
 21
620.26730405661135
 31
0.0
  0
LINE
  5
7E62
  8
0
 10
3021.7327223270231
 20
620.26730405661112
 30
0.0
 11
3021.7327223270222
 21
653.75790970858361
 31
0.0
  0
LINE
  5
7E63
  8
0
 10
2814.091059745831
 20
620.26730405661112
 30
0.0
 11
2814.0910597458319
 21
653.75790970858361
 31
0.0
  0
LINE
  5
7E64
  8
0
 10
2814.0910597458319
 20
653.75790970858361
 30
0.0
 11
3021.7327223270222
 21
653.75790970858361
 31
0.0
  0
LINE
  5
7E65
  8
0
 10
3021.7327223270231
 20
620.26730405661112
 30
0.0
 11
2814.091059745831
 21
620.26730405661385
 31
0.0
  0
LINE
  5
7E66
  8
0
 10
2346.8957527164771
 20
671.16513674726127
 30
0.0
 11
2346.8957527164771
 21
627.48857008222649
 31
0.0
  0
LINE
  5
7E67
  8
0
 10
2372.0136957706541
 20
671.16513674726127
 30
0.0
 11
2372.0136957706541
 21
627.48857008222649
 31
0.0
  0
LINE
  5
7E68
  8
0
 10
2415.5514637312258
 20
661.11274935707991
 30
0.0
 11
2415.5514637312258
 21
658.60095505166282
 31
0.0
  0
LINE
  5
7E69
  8
0
 10
2415.5514637312258
 20
650.22830736693766
 30
0.0
 11
2415.5514637312258
 21
647.71651306151909
 31
0.0
  0
LINE
  5
7E6A
  8
0
 10
2449.0420544701269
 20
658.60095505166282
 30
0.0
 11
2449.0420544701269
 21
650.22830736693732
 31
0.0
  0
LINE
  5
7E6B
  8
0
 10
2336.8485754948069
 20
671.16513674726127
 30
0.0
 11
2336.8485754948069
 21
627.48857008222649
 31
0.0
  0
LINE
  5
7E6C
  8
0
 10
2311.7306324406309
 20
671.16513674726127
 30
0.0
 11
2311.7306324406309
 21
627.48857008222649
 31
0.0
  0
LINE
  5
7E6D
  8
0
 10
2301.6834552189598
 20
661.1127493570807
 30
0.0
 11
2301.6834552189598
 21
647.71651306152012
 31
0.0
  0
LINE
  5
7E6E
  8
0
 10
2238.0513328150469
 20
647.01283682899918
 30
0.0
 11
2311.7306324406309
 21
647.01283682899918
 31
0.0
  0
LINE
  5
7E6F
  8
0
 10
2372.0136957706541
 20
647.01283682899918
 30
0.0
 11
2445.6929953962381
 21
647.01283682899918
 31
0.0
  0
LINE
  5
7E70
  8
0
 10
2372.0136957706541
 20
671.16513674726127
 30
0.0
 11
2346.8957527164771
 21
671.16513674726104
 31
0.0
  0
LINE
  5
7E71
  8
0
 10
2336.8485754948069
 20
671.16513674726104
 30
0.0
 11
2311.7306324406309
 21
671.16513674726059
 31
0.0
  0
LINE
  5
7E72
  8
0
 10
2445.6929953962381
 20
627.48857008222649
 30
0.0
 11
2445.6929953962381
 21
647.01283682899918
 31
0.0
  0
LINE
  5
7E73
  8
0
 10
2238.0513328150469
 20
627.48857008222649
 30
0.0
 11
2238.0513328150469
 21
647.01283682899918
 31
0.0
  0
LINE
  5
7E74
  8
0
 10
2238.0513328150469
 20
627.48857008222649
 30
0.0
 11
2445.6929953962381
 21
627.48857008222649
 31
0.0
  0
LINE
  5
7E75
  8
0
 10
2346.8957527164771
 20
661.11274935707991
 30
0.0
 11
2336.8485754948069
 21
661.1127493570807
 31
0.0
  0
LINE
  5
7E76
  8
0
 10
2346.8957527164771
 20
647.71651306152012
 30
0.0
 11
2336.8485754948069
 21
647.71651306152012
 31
0.0
  0
LINE
  5
7E77
  8
0
 10
2336.8485754948069
 20
647.01283682899918
 30
0.0
 11
2346.8957527164771
 21
647.01283682899918
 31
0.0
  0
LINE
  5
7E78
  8
0
 10
2372.0136957706541
 20
661.11274935708047
 30
0.0
 11
2415.5514637312258
 21
661.11274935708047
 31
0.0
  0
LINE
  5
7E79
  8
0
 10
2372.0136957706541
 20
647.71651306151909
 30
0.0
 11
2415.5514637312258
 21
647.71651306151966
 31
0.0
  0
LINE
  5
7E7A
  8
0
 10
2415.5514637312258
 20
650.22830736693732
 30
0.0
 11
2449.0420544701269
 21
650.22830736693732
 31
0.0
  0
LINE
  5
7E7B
  8
0
 10
2415.5514637312258
 20
658.60095505166282
 30
0.0
 11
2449.0420544701269
 21
658.60095505166282
 31
0.0
  0
LINE
  5
7E7C
  8
0
 10
2415.5514637312258
 20
657.68486160965472
 30
0.0
 11
2415.5514637312258
 21
651.14440080894542
 31
0.0
  0
LINE
  5
7E7D
  8
0
 10
2311.7306324406309
 20
661.1127493570807
 30
0.0
 11
2301.6834552189598
 21
661.1127493570807
 31
0.0
  0
LINE
  5
7E7E
  8
0
 10
2311.7306324406309
 20
647.71651306152012
 30
0.0
 11
2301.6834552189598
 21
647.71651306152012
 31
0.0
  0
LINE
  5
7E7F
  8
0
 10
1157.8602761052809
 20
797.70595218180983
 30
0.0
 11
1168.3377761052809
 21
787.70595218180893
 31
0.0
  0
LINE
  5
7E80
  8
0
 10
1147.382776105281
 20
787.70595218180983
 30
0.0
 11
1157.8602761052809
 21
797.70595218180983
 31
0.0
  0
LINE
  5
7E81
  8
0
 10
1157.860776105281
 20
787.70595218180983
 30
0.0
 11
1147.382776105281
 21
797.70595218180983
 31
0.0
  0
LINE
  5
7E82
  8
0
 10
1168.3377761052809
 20
797.70595218180983
 30
0.0
 11
1157.860776105281
 21
787.70595218180983
 31
0.0
  0
LINE
  5
7E83
  8
0
 10
1147.382776105281
 20
797.70595218180983
 30
0.0
 11
1147.382776105281
 21
787.70595218180983
 31
0.0
  0
LINE
  5
7E84
  8
0
 10
1168.3377761052809
 20
797.70595218180983
 30
0.0
 11
1168.3377761052809
 21
787.70595218180983
 31
0.0
  0
LINE
  5
7E85
  8
0
 10
1147.382776105281
 20
787.70595218180983
 30
0.0
 11
1168.3377761052809
 21
787.70595218180983
 31
0.0
  0
LINE
  5
7E86
  8
0
 10
1147.382776105281
 20
787.70595218180983
 30
0.0
 11
1147.580447201826
 21
781.38267649258216
 31
0.0
  0
LINE
  5
7E87
  8
0
 10
1148.545776105281
 20
787.70595218180983
 30
0.0
 11
1148.743172276796
 21
781.38267649258216
 31
0.0
  0
LINE
  5
7E88
  8
0
 10
1167.1757761052811
 20
787.70595218180983
 30
0.0
 11
1166.9783799337649
 21
781.38267649258216
 31
0.0
  0
LINE
  5
7E89
  8
0
 10
1168.3377761052809
 20
787.70595218180983
 30
0.0
 11
1168.140379933765
 21
781.38267649258216
 31
0.0
  0
LINE
  5
7E8A
  8
0
 10
1147.382776105281
 20
797.70595218180983
 30
0.0
 11
1168.3377761052809
 21
797.70595218180983
 31
0.0
  0
LINE
  5
7E8B
  8
0
 10
1457.846098069572
 20
797.70595218180983
 30
0.0
 11
1468.323598069572
 21
787.70595218180893
 31
0.0
  0
LINE
  5
7E8C
  8
0
 10
1447.368598069572
 20
787.70595218180983
 30
0.0
 11
1457.846098069572
 21
797.70595218180983
 31
0.0
  0
LINE
  5
7E8D
  8
0
 10
1457.8465980695721
 20
787.70595218180983
 30
0.0
 11
1447.368598069572
 21
797.70595218180983
 31
0.0
  0
LINE
  5
7E8E
  8
0
 10
1468.323598069572
 20
797.70595218180983
 30
0.0
 11
1457.8465980695721
 21
787.70595218180983
 31
0.0
  0
LINE
  5
7E8F
  8
0
 10
1447.368598069572
 20
797.70595218180983
 30
0.0
 11
1447.368598069572
 21
787.70595218180983
 31
0.0
  0
LINE
  5
7E90
  8
0
 10
1468.323598069572
 20
797.70595218180983
 30
0.0
 11
1468.323598069572
 21
787.70595218180983
 31
0.0
  0
LINE
  5
7E91
  8
0
 10
1447.368598069572
 20
787.70595218180983
 30
0.0
 11
1468.323598069572
 21
787.70595218180983
 31
0.0
  0
LINE
  5
7E92
  8
0
 10
1447.368598069572
 20
787.70595218180983
 30
0.0
 11
1447.566269166118
 21
781.38267649258216
 31
0.0
  0
LINE
  5
7E93
  8
0
 10
1448.5315980695721
 20
787.70595218180983
 30
0.0
 11
1448.728994241088
 21
781.38267649258216
 31
0.0
  0
LINE
  5
7E94
  8
0
 10
1467.1615980695719
 20
787.70595218180983
 30
0.0
 11
1466.964201898056
 21
781.38267649258216
 31
0.0
  0
LINE
  5
7E95
  8
0
 10
1468.323598069572
 20
787.70595218180983
 30
0.0
 11
1468.126201898056
 21
781.38267649258216
 31
0.0
  0
LINE
  5
7E96
  8
0
 10
1447.368598069572
 20
797.70595218180983
 30
0.0
 11
1468.323598069572
 21
797.70595218180983
 31
0.0
  0
LINE
  5
7E97
  8
0
 10
898.34873452559532
 20
797.70595218180983
 30
0.0
 11
908.82623452559528
 21
787.70595218180893
 31
0.0
  0
LINE
  5
7E98
  8
0
 10
887.87123452559536
 20
787.70595218180983
 30
0.0
 11
898.34873452559532
 21
797.70595218180983
 31
0.0
  0
LINE
  5
7E99
  8
0
 10
898.34923452559531
 20
787.70595218180983
 30
0.0
 11
887.87123452559536
 21
797.70595218180983
 31
0.0
  0
LINE
  5
7E9A
  8
0
 10
908.82623452559528
 20
797.70595218180983
 30
0.0
 11
898.34923452559531
 21
787.70595218180983
 31
0.0
  0
LINE
  5
7E9B
  8
0
 10
887.87123452559536
 20
797.70595218180983
 30
0.0
 11
887.87123452559536
 21
787.70595218180983
 31
0.0
  0
LINE
  5
7E9C
  8
0
 10
908.82623452559528
 20
797.70595218180983
 30
0.0
 11
908.82623452559528
 21
787.70595218180983
 31
0.0
  0
LINE
  5
7E9D
  8
0
 10
887.87123452559536
 20
787.70595218180983
 30
0.0
 11
908.82623452559528
 21
787.70595218180983
 31
0.0
  0
LINE
  5
7E9E
  8
0
 10
887.87123452559536
 20
787.70595218180983
 30
0.0
 11
888.0689056221413
 21
781.38267649258216
 31
0.0
  0
LINE
  5
7E9F
  8
0
 10
889.03423452559537
 20
787.70595218180983
 30
0.0
 11
889.23163069711097
 21
781.38267649258216
 31
0.0
  0
LINE
  5
7EA0
  8
0
 10
907.66423452559548
 20
787.70595218180983
 30
0.0
 11
907.46683835407941
 21
781.38267649258216
 31
0.0
  0
LINE
  5
7EA1
  8
0
 10
908.82623452559528
 20
787.70595218180983
 30
0.0
 11
908.62883835407945
 21
781.38267649258216
 31
0.0
  0
LINE
  5
7EA2
  8
0
 10
887.87123452559536
 20
797.70595218180983
 30
0.0
 11
908.82623452559528
 21
797.70595218180983
 31
0.0
  0
CIRCLE
  5
7EA3
  8
0
 10
647.35783852076383
 20
1749.749658712085
 30
0.0
 40
10.47750000000007
  0
LINE
  5
7EA4
  8
0
 10
657.8353385207638
 20
1749.749658712085
 30
0.0
 11
647.35783852076383
 21
1760.2271587120849
 31
0.0
  0
LINE
  5
7EA5
  8
0
 10
647.35783852076383
 20
1760.2271587120849
 30
0.0
 11
636.88033852076376
 21
1749.749658712085
 31
0.0
  0
LINE
  5
7EA6
  8
0
 10
636.88033852076376
 20
1749.749658712085
 30
0.0
 11
647.35783852076383
 21
1739.272158712085
 31
0.0
  0
LINE
  5
7EA7
  8
0
 10
647.35783852076383
 20
1739.272158712085
 30
0.0
 11
657.8353385207638
 21
1749.749658712085
 31
0.0
  0
CIRCLE
  5
7EA8
  8
0
 10
1844.57181514584
 20
1746.614109160904
 30
0.0
 40
10.47750000000007
  0
LINE
  5
7EA9
  8
0
 10
1855.0493151458411
 20
1746.614109160904
 30
0.0
 11
1844.57181514584
 21
1757.091609160904
 31
0.0
  0
LINE
  5
7EAA
  8
0
 10
1844.57181514584
 20
1757.091609160904
 30
0.0
 11
1834.09431514584
 21
1746.614109160904
 31
0.0
  0
LINE
  5
7EAB
  8
0
 10
1834.09431514584
 20
1746.614109160904
 30
0.0
 11
1844.57181514584
 21
1736.1366091609041
 31
0.0
  0
LINE
  5
7EAC
  8
0
 10
1844.57181514584
 20
1736.1366091609041
 30
0.0
 11
1855.0493151458411
 21
1746.614109160904
 31
0.0
  0
CIRCLE
  5
7EAD
  8
0
 10
1157.8604135677961
 20
910.51872408265069
 30
0.0
 40
10.47750000000007
  0
LINE
  5
7EAE
  8
0
 10
1168.337913567796
 20
910.51872408265069
 30
0.0
 11
1157.8604135677961
 21
920.99622408265077
 31
0.0
  0
LINE
  5
7EAF
  8
0
 10
1157.8604135677961
 20
920.99622408265077
 30
0.0
 11
1147.382913567795
 21
910.51872408265069
 31
0.0
  0
LINE
  5
7EB0
  8
0
 10
1147.382913567795
 20
910.51872408265069
 30
0.0
 11
1157.8604135677961
 21
900.04122408265039
 31
0.0
  0
LINE
  5
7EB1
  8
0
 10
1157.8604135677961
 20
900.04122408265039
 30
0.0
 11
1168.337913567796
 21
910.51872408265069
 31
0.0
  0
CIRCLE
  5
7EB2
  8
0
 10
2629.8920275710352
 20
1050.9483487835671
 30
0.0
 40
10.47750000000007
  0
LINE
  5
7EB3
  8
0
 10
2640.3695275710352
 20
1050.9483487835671
 30
0.0
 11
2629.8920275710352
 21
1061.4258487835671
 31
0.0
  0
LINE
  5
7EB4
  8
0
 10
2629.8920275710352
 20
1061.4258487835671
 30
0.0
 11
2619.4145275710348
 21
1050.9483487835671
 31
0.0
  0
LINE
  5
7EB5
  8
0
 10
2619.4145275710348
 20
1050.9483487835671
 30
0.0
 11
2629.8920275710352
 21
1040.470848783566
 31
0.0
  0
LINE
  5
7EB6
  8
0
 10
2629.8920275710352
 20
1040.470848783566
 30
0.0
 11
2640.3695275710352
 21
1050.9483487835671
 31
0.0
  0
LINE
  5
7EB7
  8
0
 10
612.85783852076327
 20
1768.749658712085
 30
0.0
 11
612.85783852076327
 21
1730.749658712085
 31
0.0
  0
LINE
  5
7EB8
  8
0
 10
622.61190035952916
 20
1762.749658712085
 30
0.0
 11
622.65125641444024
 21
1736.7496552751859
 31
0.0
  0
LINE
  5
7EB9
  8
0
 10
672.10377668199806
 20
1762.749658712085
 30
0.0
 11
672.10377668199806
 21
1736.749658712085
 31
0.0
  0
LINE
  5
7EBA
  8
0
 10
681.85783852076383
 20
1768.749658712085
 30
0.0
 11
681.85783852076383
 21
1730.749658712085
 31
0.0
  0
LINE
  5
7EBB
  8
0
 10
1790.0438437998371
 20
1767.5074416219841
 30
0.0
 11
1790.0438437998371
 21
1725.7207766998249
 31
0.0
  0
LINE
  5
7EBC
  8
0
 10
1802.556558842321
 20
1759.4282687607979
 30
0.0
 11
1802.556558842321
 21
1733.79994956101
 31
0.0
  0
LINE
  5
7EBD
  8
0
 10
1899.099786491844
 20
1767.5074416219841
 30
0.0
 11
1899.099786491844
 21
1725.7207766998249
 31
0.0
  0
LINE
  5
7EBE
  8
0
 10
1886.587071449359
 20
1759.4282687607979
 30
0.0
 11
1886.587071449359
 21
1733.79994956101
 31
0.0
  0
LINE
  5
7EBF
  8
0
 10
1102.8604135677949
 20
941.01872408265069
 30
0.0
 11
1102.8604135677949
 21
880.01872408265081
 31
0.0
  0
LINE
  5
7EC0
  8
0
 10
1114.1187438169929
 20
934.51872408265081
 30
0.0
 11
1114.1187438169929
 21
886.51872408265069
 31
0.0
  0
LINE
  5
7EC1
  8
0
 10
1201.602083318598
 20
934.51872408265024
 30
0.0
 11
1201.602083318598
 21
886.51872408265115
 31
0.0
  0
LINE
  5
7EC2
  8
0
 10
1212.8604135677961
 20
941.01872408265069
 30
0.0
 11
1212.8604135677961
 21
880.01872408265081
 31
0.0
  0
LINE
  5
7EC3
  8
0
 10
2549.8920275710352
 20
1087.9483487835671
 30
0.0
 11
2549.8920275710352
 21
1013.948348783567
 31
0.0
  0
LINE
  5
7EC4
  8
0
 10
2562.8824086278019
 20
1080.448348783566
 30
0.0
 11
2562.8824086278019
 21
1021.448348783567
 31
0.0
  0
LINE
  5
7EC5
  8
0
 10
2709.8920275710352
 20
1087.9483487835671
 30
0.0
 11
2709.8920275710352
 21
1013.948348783567
 31
0.0
  0
LINE
  5
7EC6
  8
0
 10
2696.9016465142681
 20
1021.448348783567
 30
0.0
 11
2696.9016465142681
 21
1080.448348783566
 31
0.0
  0
LINE
  5
7EC7
  8
0
 10
2602.120552107152
 20
1129.3349050265299
 30
0.0
 11
2602.120552107152
 21
1134.8146758725229
 31
0.0
  0
LINE
  5
7EC8
  8
0
 10
2656.0317581715931
 20
1136.4483487835671
 30
0.0
 11
2603.7542250181959
 21
1136.4483487835671
 31
0.0
  0
ARC
  5
7EC9
  8
0
 10
2603.7542250181959
 20
1134.8146758725229
 30
0.0
 40
1.6336729110436721
 50
90.0
 51
180.0
  0
LINE
  5
7ECA
  8
0
 10
2657.6635030349162
 20
1129.3349050265299
 30
0.0
 11
2657.6635030349171
 21
1134.8146758725229
 31
0.0
  0
ARC
  5
7ECB
  8
0
 10
2656.0298301238731
 20
1134.8146758725229
 30
0.0
 40
1.6336729110436721
 50
0.0
 51
90.0
  0
ARC
  5
7ECC
  8
0
 10
2601.120552107152
 20
1129.3349050265299
 30
0.0
 40
1.0
 50
290.15546181159851
 51
0.0
  0
ARC
  5
7ECD
  8
0
 10
2658.6635030349162
 20
1129.3349050265299
 30
0.0
 40
1.0
 50
180.0
 51
249.8445381884014
  0
LINE
  5
7F28
  8
0
 10
632.16474915785011
 20
2144.991120037269
 30
0.0
 11
662.16474915785
 21
2144.991120037269
 31
0.0
  0
LINE
  5
7F29
  8
0
 10
712.16474915785
 20
2118.9911200372699
 30
0.0
 11
712.16474915785
 21
2082.9911200372699
 31
0.0
  0
LINE
  5
7F2A
  8
0
 10
711.16474915785011
 20
2119.991120037269
 30
0.0
 11
712.16474915785
 21
2118.9911200372699
 31
0.0
  0
LINE
  5
7F2B
  8
0
 10
694.66474915785011
 20
2081.991120037269
 30
0.0
 11
711.16474915785011
 21
2081.991120037269
 31
0.0
  0
LINE
  5
7F2C
  8
0
 10
712.16474915785
 20
2082.9911200372699
 30
0.0
 11
711.16474915785011
 21
2081.991120037269
 31
0.0
  0
ARC
  5
7F2D
  8
0
 10
618.66474915785011
 20
2090.3545680529819
 30
0.0
 40
16.0
 50
119.9999999999973
 51
180.0
  0
ARC
  5
7F2E
  8
0
 10
647.16474915785011
 20
2040.991120037269
 30
0.0
 40
73.0
 50
60.000000000002721
 51
119.9999999999973
  0
ARC
  5
7F2F
  8
0
 10
675.66474915785011
 20
2090.3545680529819
 30
0.0
 40
16.0
 50
0.0
 51
60.000000000002721
  0
LINE
  5
7F30
  8
0
 10
691.66474915785011
 20
2078.9911200372699
 30
0.0
 11
691.66474915785011
 21
2029.991120037269
 31
0.0
  0
LINE
  5
7F31
  8
0
 10
691.66474915785011
 20
2090.3545680529819
 30
0.0
 11
691.66474915785011
 21
2078.3545802114731
 31
0.0
  0
LINE
  5
7F32
  8
0
 10
664.16474915785011
 20
2093.491120037269
 30
0.0
 11
664.16474915785011
 21
2076.491120037269
 31
0.0
  0
ARC
  5
7F33
  8
0
 10
662.16474915785
 20
2076.491120037269
 30
0.0
 40
2.0
 50
270.0
 51
0.0
  0
LINE
  5
7F34
  8
0
 10
630.16474915785011
 20
2093.491120037269
 30
0.0
 11
630.16474915785011
 21
2076.491120037269
 31
0.0
  0
ARC
  5
7F35
  8
0
 10
632.16474915785011
 20
2093.491120037269
 30
0.0
 40
2.0
 50
90.0
 51
180.0
  0
LINE
  5
7F36
  8
0
 10
631.16474915785011
 20
2143.9911200372699
 30
0.0
 11
631.16474915785034
 21
2114.5778036152101
 31
0.0
  0
LINE
  5
7F37
  8
0
 10
632.16474915785011
 20
2144.991120037269
 30
0.0
 11
631.16474915785011
 21
2143.9911200372699
 31
0.0
  0
LINE
  5
7F38
  8
0
 10
663.16474915785011
 20
2143.9911200372699
 30
0.0
 11
663.16474915785011
 21
2114.5778036152101
 31
0.0
  0
LINE
  5
7F39
  8
0
 10
662.16474915785
 20
2144.991120037269
 30
0.0
 11
663.16474915785011
 21
2143.9911200372699
 31
0.0
  0
LINE
  5
7F3A
  8
0
 10
582.16474915785011
 20
2118.9911200372699
 30
0.0
 11
582.16474915785011
 21
2082.9911200372699
 31
0.0
  0
LINE
  5
7F3B
  8
0
 10
583.16474915785
 20
2119.991120037269
 30
0.0
 11
631.16474915785034
 21
2119.991120037269
 31
0.0
  0
LINE
  5
7F3C
  8
0
 10
663.16474915785011
 20
2119.991120037269
 30
0.0
 11
711.16474915785011
 21
2119.991120037269
 31
0.0
  0
LINE
  5
7F3D
  8
0
 10
583.16474915785
 20
2119.991120037269
 30
0.0
 11
582.16474915785011
 21
2118.9911200372699
 31
0.0
  0
LINE
  5
7F3E
  8
0
 10
602.66474915785011
 20
2078.9911200372699
 30
0.0
 11
602.66474915785011
 21
2030.9911200372701
 31
0.0
  0
LINE
  5
7F3F
  8
0
 10
583.16474915785
 20
2081.991120037269
 30
0.0
 11
599.66474915785
 21
2081.991120037269
 31
0.0
  0
LINE
  5
7F40
  8
0
 10
602.66474915785011
 20
2090.3545680529819
 30
0.0
 11
602.66474915785011
 21
2078.9911200372699
 31
0.0
  0
ARC
  5
7F41
  8
0
 10
599.66474915785
 20
2078.9911200372699
 30
0.0
 40
3.0
 50
0.0
 51
90.0
  0
LINE
  5
7F42
  8
0
 10
582.16474915785011
 20
2082.9911200372699
 30
0.0
 11
583.16474915785
 21
2081.991120037269
 31
0.0
  0
ARC
  5
7F43
  8
0
 10
694.66474915785034
 20
2078.9911200372699
 30
0.0
 40
3.0
 50
90.0
 51
180.0
  0
LINE
  5
7F44
  8
0
 10
692.66474915785011
 20
2027.8294770000359
 30
0.0
 11
692.66474915785011
 21
2026.570896794266
 31
0.0
  0
LINE
  5
7F45
  8
0
 10
591.16474915785
 20
2023.59112003727
 30
0.0
 11
591.16474915785
 21
2020.7411200372701
 31
0.0
  0
LINE
  5
7F46
  8
0
 10
591.16474915785
 20
2017.5911200372691
 30
0.0
 11
591.16474915785
 21
2020.7411200372701
 31
0.0
  0
LINE
  5
7F47
  8
0
 10
693.18812868901705
 20
2026.570896794266
 30
0.0
 11
591.16474915785
 21
2026.570896794266
 31
0.0
  0
LINE
  5
7F48
  8
0
 10
712.16474915785
 20
2020.7411200372701
 30
0.0
 11
684.15852631328971
 21
2020.7411200372701
 31
0.0
  0
LINE
  5
7F49
  8
0
 10
712.16474915785
 20
2014.9113432802731
 30
0.0
 11
591.16474915785
 21
2014.9113432802731
 31
0.0
  0
LINE
  5
7F4A
  8
0
 10
591.16474915784988
 20
2010.491120037269
 30
0.0
 11
591.16474915785
 21
2030.9911200372701
 31
0.0
  0
LINE
  5
7F4B
  8
0
 10
712.16474915785
 20
2014.9113432802731
 30
0.0
 11
712.16474915785
 21
2027.853162806563
 31
0.0
  0
LINE
  5
7F4C
  8
0
 10
662.16474915785
 20
1889.991120037269
 30
0.0
 11
632.16474915785011
 21
1889.991120037269
 31
0.0
  0
ARC
  5
7F4D
  8
0
 10
647.16474915785011
 20
1984.991120037269
 30
0.0
 40
73.0
 50
240.00000000001401
 51
299.99999999998602
  0
LINE
  5
7F4E
  8
0
 10
602.66474915785011
 20
1935.627672021556
 30
0.0
 11
602.66474915785011
 21
1956.078833277541
 31
0.0
  0
ARC
  5
7F4F
  8
0
 10
618.66474915785011
 20
1935.627672021556
 30
0.0
 40
16.0
 50
180.0
 51
240.00000000001401
  0
LINE
  5
7F50
  8
0
 10
631.16474915785011
 20
1911.4044364593281
 30
0.0
 11
631.16474915785011
 21
1890.991120037269
 31
0.0
  0
LINE
  5
7F51
  8
0
 10
631.16474915785011
 20
1890.991120037269
 30
0.0
 11
632.16474915785011
 21
1889.991120037269
 31
0.0
  0
ARC
  5
7F52
  8
0
 10
628.16474915785
 20
1911.4044364593281
 30
0.0
 40
3.0
 50
0.0
 51
75.522487814070544
  0
LINE
  5
7F53
  8
0
 10
691.66474915785011
 20
1935.627672021556
 30
0.0
 11
691.66474915785011
 21
1956.078833277541
 31
0.0
  0
LINE
  5
7F54
  8
0
 10
663.16474915785011
 20
1911.4044364593281
 30
0.0
 11
663.16474915785011
 21
1890.991120037269
 31
0.0
  0
LINE
  5
7F55
  8
0
 10
662.16474915785
 20
1889.991120037269
 30
0.0
 11
663.16474915785011
 21
1890.991120037269
 31
0.0
  0
ARC
  5
7F56
  8
0
 10
666.16474915785
 20
1911.4044364593281
 30
0.0
 40
3.0
 50
104.4775121859294
 51
180.0
  0
ARC
  5
7F57
  8
0
 10
675.66474915785011
 20
1935.627672021556
 30
0.0
 40
16.0
 50
299.99999999998602
 51
0.0
  0
LINE
  5
7F58
  8
0
 10
626.79155956703426
 20
2030.9911200372701
 30
0.0
 11
626.79155956703448
 21
2026.570896794266
 31
0.0
  0
LINE
  5
7F59
  8
0
 10
626.79155956703448
 20
2014.9113432802731
 30
0.0
 11
626.79155956703448
 21
2010.491120037269
 31
0.0
  0
LINE
  5
7F5A
  8
0
 10
591.16474915785
 20
2030.9911200372701
 30
0.0
 11
626.79155956703426
 21
2030.9911200372701
 31
0.0
  0
LINE
  5
7F5B
  8
0
 10
591.16474915784988
 20
2010.491120037269
 30
0.0
 11
626.79155956703448
 21
2010.491120037269
 31
0.0
  0
LINE
  5
7F5C
  8
0
 10
602.66474915785011
 20
1956.078833277541
 30
0.0
 11
602.66474915785011
 21
2010.491120037269
 31
0.0
  0
LINE
  5
7F5D
  8
0
 10
691.66474915785011
 20
1956.078833277541
 30
0.0
 11
691.66474915785011
 21
2011.4911200372701
 31
0.0
  0
LINE
  5
7F5E
  8
0
 10
692.66474915785011
 20
2012.491120037269
 30
0.0
 11
692.66474915785011
 21
2014.8613432802731
 31
0.0
  0
ARC
  5
7F5F
  8
0
 10
692.66474915785011
 20
2011.4911200372701
 30
0.0
 40
1.0
 50
90.0
 51
180.0
  0
LINE
  5
7F60
  8
0
 10
691.66474915785011
 20
1956.078833277541
 30
0.0
 11
602.66474915785011
 21
1956.078833277541
 31
0.0
  0
LINE
  5
7F61
  8
0
 10
647.16524915785021
 20
2161.314395726497
 30
0.0
 11
636.68774915785025
 21
2151.3143957264961
 31
0.0
  0
LINE
  5
7F62
  8
0
 10
657.64274915785018
 20
2151.314395726497
 30
0.0
 11
647.16524915785021
 21
2161.314395726497
 31
0.0
  0
LINE
  5
7F63
  8
0
 10
647.16474915785011
 20
2151.314395726497
 30
0.0
 11
657.64274915785018
 21
2161.314395726497
 31
0.0
  0
LINE
  5
7F64
  8
0
 10
636.68774915785002
 20
2161.314395726497
 30
0.0
 11
647.16474915785011
 21
2151.314395726497
 31
0.0
  0
LINE
  5
7F65
  8
0
 10
657.64274915785018
 20
2161.314395726497
 30
0.0
 11
657.64274915785018
 21
2151.314395726497
 31
0.0
  0
LINE
  5
7F66
  8
0
 10
636.68774915785002
 20
2161.314395726497
 30
0.0
 11
636.68774915785025
 21
2151.314395726497
 31
0.0
  0
LINE
  5
7F67
  8
0
 10
657.64274915785018
 20
2151.314395726497
 30
0.0
 11
636.68774915785002
 21
2151.314395726497
 31
0.0
  0
LINE
  5
7F68
  8
0
 10
657.64274915785018
 20
2151.314395726497
 30
0.0
 11
657.44507806130423
 21
2144.991120037269
 31
0.0
  0
LINE
  5
7F69
  8
0
 10
656.47974915785005
 20
2151.314395726497
 30
0.0
 11
656.28235298633422
 21
2144.991120037269
 31
0.0
  0
LINE
  5
7F6A
  8
0
 10
637.84974915785006
 20
2151.314395726497
 30
0.0
 11
638.047145329366
 21
2144.991120037269
 31
0.0
  0
LINE
  5
7F6B
  8
0
 10
636.68774915785002
 20
2151.314395726497
 30
0.0
 11
636.88514532936586
 21
2144.991120037269
 31
0.0
  0
LINE
  5
7F6C
  8
0
 10
657.64274915785018
 20
2161.314395726497
 30
0.0
 11
636.68774915785002
 21
2161.314395726497
 31
0.0
  0
ARC
  5
7F6D
  8
0
 10
681.4721597949366
 20
2111.9911200372699
 30
0.0
 40
8.000000000000119
 50
90.0
 51
152.96430821058399
  0
ARC
  5
7F6E
  8
0
 10
671.67420082380374
 20
2116.991120037269
 30
0.0
 40
3.0
 50
270.0
 51
332.96430821058408
  0
LINE
  5
7F6F
  8
0
 10
663.22267465516074
 20
2113.991120037269
 30
0.0
 11
671.71809795617105
 21
2113.991120037269
 31
0.0
  0
ARC
  5
7F70
  8
0
 10
612.47215979493637
 20
2111.9911200372699
 30
0.0
 40
8.000000000000119
 50
27.035691789415939
 51
90.0
  0
ARC
  5
7F71
  8
0
 10
622.27011876606912
 20
2116.991120037269
 30
0.0
 40
3.0
 50
207.03569178941589
 51
270.0
  0
LINE
  5
7F72
  8
0
 10
631.10682366053936
 20
2113.991120037269
 30
0.0
 11
622.22622163370215
 21
2113.991120037269
 31
0.0
  0
ARC
  5
7F73
  8
0
 10
666.16474915785
 20
2114.5778036152101
 30
0.0
 40
3.0
 50
180.0
 51
255.5224878140705
  0
ARC
  5
7F74
  8
0
 10
628.16474915785
 20
2114.5778036152101
 30
0.0
 40
3.0
 50
284.47751218592953
 51
0.0
  0
LINE
  5
7F75
  8
0
 10
632.16474915785011
 20
2074.491120037269
 30
0.0
 11
662.16474915785
 21
2074.491120037269
 31
0.0
  0
ARC
  5
7F76
  8
0
 10
632.16474915785011
 20
2076.491120037269
 30
0.0
 40
2.0
 50
180.0
 51
270.0
  0
LINE
  5
7F77
  8
0
 10
632.16474915785011
 20
2095.491120037269
 30
0.0
 11
662.16474915785
 21
2095.491120037269
 31
0.0
  0
ARC
  5
7F78
  8
0
 10
662.16474915785
 20
2093.491120037269
 30
0.0
 40
2.0
 50
0.0
 51
90.0
  0
ARC
  5
7F79
  8
0
 10
692.66474915785011
 20
2029.991120037269
 30
0.0
 40
1.0
 50
180.0
 51
251.9534494656647
  0
CIRCLE
  5
7F7A
  8
0
 10
702.16163773556991
 20
2030.9911200372701
 30
0.0
 40
4.0
  0
CIRCLE
  5
7F7B
  8
0
 10
702.41095123620175
 20
2030.968064692797
 30
0.0
 40
10.239100920355259
  0
LINE
  5
7FDC
  8
0
 10
1918.572405241847
 20
2111.7102354853628
 30
0.0
 11
1898.072405241847
 21
2111.7102354853628
 31
0.0
  0
LINE
  5
7FDD
  8
0
 10
1919.572405241847
 20
2112.7102354853628
 30
0.0
 11
1918.572405241847
 21
2111.7102354853628
 31
0.0
  0
LINE
  5
7FDE
  8
0
 10
1770.572405241847
 20
2111.7102354853628
 30
0.0
 11
1791.072405241847
 21
2111.7102354853628
 31
0.0
  0
ARC
  5
7FDF
  8
0
 10
1791.072405241847
 20
2108.7102354853628
 30
0.0
 40
3.0
 50
0.0
 51
90.0
  0
LINE
  5
7FE0
  8
0
 10
1770.572405241847
 20
2157.7102354853628
 30
0.0
 11
1828.5722641993441
 21
2157.7102354853628
 31
0.0
  0
LINE
  5
7FE1
  8
0
 10
1860.572542484625
 20
2157.7102354853628
 30
0.0
 11
1918.572405241847
 21
2157.7102354853628
 31
0.0
  0
LINE
  5
7FE2
  8
0
 10
1769.572405241847
 20
2156.7102354853628
 30
0.0
 11
1770.572405241847
 21
2157.7102354853628
 31
0.0
  0
LINE
  5
7FE3
  8
0
 10
1859.572405242104
 20
2181.2102354853628
 30
0.0
 11
1829.572405241589
 21
2181.2102354853628
 31
0.0
  0
LINE
  5
7FE4
  8
0
 10
1860.5724052421051
 20
2180.2102354853628
 30
0.0
 11
1860.5725797795601
 21
2151.5959784131878
 31
0.0
  0
LINE
  5
7FE5
  8
0
 10
1828.572405241589
 20
2180.2102354853628
 30
0.0
 11
1828.572225871844
 21
2151.5959768185489
 31
0.0
  0
LINE
  5
7FE6
  8
0
 10
1859.572405242104
 20
2181.2102354853628
 30
0.0
 11
1829.572405241589
 21
2181.2102354853628
 31
0.0
  0
LINE
  5
7FE7
  8
0
 10
1829.572405241589
 20
2181.2102354853628
 30
0.0
 11
1828.572405241589
 21
2180.2102354853628
 31
0.0
  0
LINE
  5
7FE8
  8
0
 10
1859.572405242104
 20
2181.2102354853628
 30
0.0
 11
1860.5724052421051
 21
2180.2102354853628
 31
0.0
  0
LINE
  5
7FE9
  8
0
 10
1794.072405241847
 20
2123.7859175749049
 30
0.0
 11
1794.0724052418459
 21
2079.9602354853641
 31
0.0
  0
LINE
  5
7FEA
  8
0
 10
1895.072405241847
 20
2108.7102354853628
 30
0.0
 11
1895.0724052418459
 21
2078.9602354853628
 31
0.0
  0
ARC
  5
7FEB
  8
0
 10
1898.072405241847
 20
2108.7102354853628
 30
0.0
 40
3.0
 50
90.0
 51
180.0
  0
LINE
  5
7FEC
  8
0
 10
1769.572405241847
 20
2156.7102354853628
 30
0.0
 11
1769.572405241847
 21
2112.7102354853628
 31
0.0
  0
LINE
  5
7FED
  8
0
 10
1770.572405241847
 20
2111.7102354853628
 30
0.0
 11
1769.572405241847
 21
2112.7102354853628
 31
0.0
  0
LINE
  5
7FEE
  8
0
 10
1919.572405241847
 20
2156.7102354853628
 30
0.0
 11
1919.572405241847
 21
2112.7102354853628
 31
0.0
  0
LINE
  5
7FEF
  8
0
 10
1918.572405241847
 20
2157.7102354853628
 30
0.0
 11
1919.572405241847
 21
2156.7102354853628
 31
0.0
  0
ARC
  5
7FF0
  8
0
 10
1844.5724052418459
 20
2067.2085369356419
 30
0.0
 40
83.499999999999986
 50
60.507627324958619
 51
119.4923726750413
  0
ARC
  5
7FF1
  8
0
 10
1812.572405241847
 20
2123.7859175749049
 30
0.0
 40
18.5
 50
119.4923726750413
 51
180.0
  0
ARC
  5
7FF2
  8
0
 10
1876.572405241847
 20
2123.7859175749049
 30
0.0
 40
18.5
 50
0.0
 51
60.507627324958619
  0
LINE
  5
7FF3
  8
0
 10
1895.072405241847
 20
2108.7102354853628
 30
0.0
 11
1895.072405241847
 21
2123.7859175749049
 31
0.0
  0
LINE
  5
7FF4
  8
0
 10
1861.572405241847
 20
2125.2102354853628
 30
0.0
 11
1861.572405241847
 21
2108.2102354853628
 31
0.0
  0
ARC
  5
7FF5
  8
0
 10
1859.5724052418459
 20
2125.2102354853628
 30
0.0
 40
2.0
 50
0.0
 51
90.0
  0
LINE
  5
7FF6
  8
0
 10
1827.5724052418459
 20
2125.2102354853628
 30
0.0
 11
1827.5724052418459
 21
2108.2102354853628
 31
0.0
  0
ARC
  5
7FF7
  8
0
 10
1829.5724052418459
 20
2125.2102354853628
 30
0.0
 40
2.0
 50
90.0
 51
180.0
  0
LINE
  5
7FF8
  8
0
 10
1895.072405241847
 20
2060.7102354853628
 30
0.0
 11
1895.0724052418459
 21
1959.710235485363
 31
0.0
  0
LINE
  5
7FF9
  8
0
 10
1794.072405241847
 20
2059.4602354853641
 30
0.0
 11
1794.072405241847
 21
1959.710235485363
 31
0.0
  0
LINE
  5
7FFA
  8
0
 10
1797.172405241846
 20
1959.7102354853639
 30
0.0
 11
1891.972405241846
 21
1959.710235485363
 31
0.0
  0
LINE
  5
7FFB
  8
0
 10
1896.072405241847
 20
2061.7978509966051
 30
0.0
 11
1896.072405241847
 21
2061.7102354853628
 31
0.0
  0
LINE
  5
7FFC
  8
0
 10
1828.5724052418459
 20
1913.8353286299759
 30
0.0
 11
1828.5724052418459
 21
1893.710235485363
 31
0.0
  0
LINE
  5
7FFD
  8
0
 10
1829.5724052418459
 20
1892.710235485363
 30
0.0
 11
1828.5724052418459
 21
1893.710235485363
 31
0.0
  0
LINE
  5
7FFE
  8
0
 10
1860.5724052418459
 20
1913.8353286299759
 30
0.0
 11
1860.5724052418459
 21
1893.710235485363
 31
0.0
  0
LINE
  5
7FFF
  8
0
 10
1794.072405241847
 20
1959.7102354853639
 30
0.0
 11
1794.072405241847
 21
1939.712390697819
 31
0.0
  0
LINE
  5
8000
  8
0
 10
1895.0724052418459
 20
1959.710235485363
 30
0.0
 11
1895.0724052418459
 21
1939.7123906978179
 31
0.0
  0
LINE
  5
8001
  8
0
 10
1895.0724052418459
 20
1959.710235485363
 30
0.0
 11
1794.072405241847
 21
1959.7102354853639
 31
0.0
  0
LINE
  5
8002
  8
0
 10
1859.5724052418459
 20
1892.710235485363
 30
0.0
 11
1829.5724052418459
 21
1892.710235485363
 31
0.0
  0
LINE
  5
8003
  8
0
 10
1860.5724052418459
 20
1893.710235485363
 30
0.0
 11
1859.5724052418459
 21
1892.710235485363
 31
0.0
  0
ARC
  5
8004
  8
0
 10
1844.5724052418459
 20
1997.7102354853639
 30
0.0
 40
83.0
 50
238.52954509540541
 51
301.47045490459459
  0
ARC
  5
8005
  8
0
 10
1809.0724052418459
 20
1939.7123906978179
 30
0.0
 40
15.0
 50
180.0
 51
238.52954509540541
  0
ARC
  5
8006
  8
0
 10
1880.072405241847
 20
1939.7123906978179
 30
0.0
 40
15.0
 50
301.47045490459459
 51
0.0
  0
ARC
  5
8008
  8
0
 10
1825.5724052418459
 20
1913.8353286299759
 30
0.0
 40
3.0
 50
0.0
 51
77.23632410755765
  0
ARC
  5
8009
  8
0
 10
1863.5724052418459
 20
1913.8353286299759
 30
0.0
 40
3.0
 50
102.76367589244229
 51
180.0
  0
LINE
  5
800A
  8
0
 10
1844.5729052418469
 20
2197.5335111745908
 30
0.0
 11
1834.0954052418469
 21
2187.5335111745899
 31
0.0
  0
LINE
  5
800B
  8
0
 10
1855.0504052418471
 20
2187.5335111745908
 30
0.0
 11
1844.5729052418469
 21
2197.5335111745908
 31
0.0
  0
LINE
  5
800C
  8
0
 10
1844.572405241847
 20
2187.5335111745908
 30
0.0
 11
1855.0504052418471
 21
2197.5335111745908
 31
0.0
  0
LINE
  5
800D
  8
0
 10
1834.095405241846
 20
2197.5335111745908
 30
0.0
 11
1844.572405241847
 21
2187.5335111745908
 31
0.0
  0
LINE
  5
800E
  8
0
 10
1855.0504052418471
 20
2197.5335111745908
 30
0.0
 11
1855.0504052418471
 21
2187.5335111745908
 31
0.0
  0
LINE
  5
800F
  8
0
 10
1834.095405241846
 20
2197.5335111745908
 30
0.0
 11
1834.0954052418469
 21
2187.5335111745908
 31
0.0
  0
LINE
  5
8010
  8
0
 10
1855.0504052418471
 20
2187.5335111745908
 30
0.0
 11
1834.095405241846
 21
2187.5335111745908
 31
0.0
  0
LINE
  5
8011
  8
0
 10
1855.0504052418471
 20
2187.5335111745908
 30
0.0
 11
1854.8527341453009
 21
2181.2102354853628
 31
0.0
  0
LINE
  5
8012
  8
0
 10
1853.8874052418471
 20
2187.5335111745908
 30
0.0
 11
1853.6900090703309
 21
2181.2102354853628
 31
0.0
  0
LINE
  5
8013
  8
0
 10
1835.257405241847
 20
2187.5335111745908
 30
0.0
 11
1835.454801413362
 21
2181.2102354853628
 31
0.0
  0
LINE
  5
8014
  8
0
 10
1834.095405241846
 20
2187.5335111745908
 30
0.0
 11
1834.2928014133629
 21
2181.2102354853628
 31
0.0
  0
LINE
  5
8015
  8
0
 10
1855.0504052418471
 20
2197.5335111745908
 30
0.0
 11
1834.095405241846
 21
2197.5335111745908
 31
0.0
  0
LINE
  5
8016
  8
0
 10
1896.072405241847
 20
2076.7985924481291
 30
0.0
 11
1896.072405241847
 21
2075.5400122423598
 31
0.0
  0
LINE
  5
8017
  8
0
 10
1781.022433540099
 20
2072.5602354853631
 30
0.0
 11
1781.022433540099
 21
2069.7102354853628
 31
0.0
  0
LINE
  5
8018
  8
0
 10
1781.022433540099
 20
2066.5602354853631
 30
0.0
 11
1781.022433540099
 21
2069.7102354853628
 31
0.0
  0
LINE
  5
8019
  8
0
 10
1896.595784773014
 20
2075.5400122423598
 30
0.0
 11
1781.022433540099
 21
2075.5400122423598
 31
0.0
  0
LINE
  5
801A
  8
0
 10
1915.572405241847
 20
2069.7102354853628
 30
0.0
 11
1887.566182397286
 21
2069.7102354853628
 31
0.0
  0
LINE
  5
801B
  8
0
 10
1915.572405241847
 20
2063.8804587283671
 30
0.0
 11
1781.022433540099
 21
2063.880458728368
 31
0.0
  0
LINE
  5
801C
  8
0
 10
1781.022433540099
 20
2059.4602354853641
 30
0.0
 11
1781.022433540099
 21
2079.9602354853641
 31
0.0
  0
LINE
  5
801D
  8
0
 10
1915.572405241847
 20
2063.8804587283671
 30
0.0
 11
1915.572405241847
 21
2076.8222782546568
 31
0.0
  0
LINE
  5
801E
  8
0
 10
1822.5309966702839
 20
2079.9602354853641
 30
0.0
 11
1822.5309966702839
 21
2075.5400122423598
 31
0.0
  0
LINE
  5
801F
  8
0
 10
1822.5309966702839
 20
2063.8804587283671
 30
0.0
 11
1822.5309966702839
 21
2059.4602354853641
 31
0.0
  0
LINE
  5
8020
  8
0
 10
1781.022433540099
 20
2079.9602354853641
 30
0.0
 11
1822.5309966702839
 21
2079.9602354853641
 31
0.0
  0
LINE
  5
8021
  8
0
 10
1781.022433540099
 20
2059.4602354853641
 30
0.0
 11
1822.5309966702839
 21
2059.4602354853641
 31
0.0
  0
LINE
  5
8022
  8
0
 10
1896.072405241847
 20
2061.4602354853628
 30
0.0
 11
1896.072405241847
 21
2063.8304587283669
 31
0.0
  0
ARC
  5
8023
  8
0
 10
1896.072405241847
 20
2060.4602354853628
 30
0.0
 40
1.0
 50
90.0
 51
180.0
  0
LINE
  5
8024
  8
0
 10
1805.2184999980229
 20
2150.5435269685222
 30
0.0
 11
1828.381562119411
 21
2150.5435556741431
 31
0.0
  0
ARC
  5
8025
  8
0
 10
1805.2184875557371
 20
2160.5435269685149
 30
0.0
 40
10.0
 50
240.2004279299278
 51
270.00007128903121
  0
LINE
  5
8026
  8
0
 10
1800.248812757146
 20
2151.865835317145
 30
0.0
 11
1790.275898769147
 21
2157.5772780954612
 31
0.0
  0
LINE
  5
8027
  8
0
 10
1883.930661947245
 20
2150.5435274674251
 30
0.0
 11
1883.5265179383159
 21
2150.5435274674251
 31
0.0
  0
LINE
  5
8028
  8
0
 10
1883.927490677683
 20
2150.5435269685222
 30
0.0
 11
1860.7632439390391
 21
2150.543555675612
 31
0.0
  0
ARC
  5
8029
  8
0
 10
1883.9275031199679
 20
2160.5435269685149
 30
0.0
 40
10.0
 50
269.9999287109427
 51
299.7995720700722
  0
LINE
  5
802A
  8
0
 10
1888.897177918559
 20
2151.865835317145
 30
0.0
 11
1898.8700919065579
 21
2157.5772780954612
 31
0.0
  0
ARC
  5
802B
  8
0
 10
1825.5722258719029
 20
2151.5959956241818
 30
0.0
 40
3.0
 50
282.68878514851752
 51
359.99964083885988
  0
ARC
  5
802C
  8
0
 10
1863.5725797795051
 20
2151.5959967121912
 30
0.0
 40
3.0
 50
180.00034948521241
 51
257.31121813240179
  0
CIRCLE
  5
802D
  8
0
 10
1905.818607320198
 20
2079.9371801408911
 30
0.0
 40
10.239100920355201
  0
CIRCLE
  5
802E
  8
0
 10
1905.5692938195671
 20
2079.9602354853628
 30
0.0
 40
4.0
  0
ARC
  5
802F
  8
0
 10
1896.072405241847
 20
2078.9602354853628
 30
0.0
 40
1.0
 50
180.0
 51
251.9534494656483
  0
LINE
  5
8030
  8
0
 10
1859.5724052418459
 20
2106.2102354853628
 30
0.0
 11
1829.5724052418459
 21
2106.2102354853628
 31
0.0
  0
ARC
  5
8031
  8
0
 10
1859.5724052418459
 20
2108.2102354853628
 30
0.0
 40
2.0
 50
270.0
 51
0.0
  0
ARC
  5
8032
  8
0
 10
1829.5724052418459
 20
2108.2102354853628
 30
0.0
 40
2.0
 50
180.0
 51
270.0
  0
LINE
  5
8033
  8
0
 10
1859.5724052418459
 20
2127.2102354853628
 30
0.0
 11
1829.5724052418459
 21
2127.2102354853628
 31
0.0
  0
LINE
  5
80E1
  8
0
 10
2612.8920275710361
 20
1758.9047479090191
 30
0.0
 11
2612.8920275710361
 21
1743.9047479090191
 31
0.0
  0
ARC
  5
80E2
  8
0
 10
2615.8920275710361
 20
1743.9047479090191
 30
0.0
 40
3.0
 50
180.0
 51
270.0
  0
LINE
  5
80E3
  8
0
 10
2646.892027571037
 20
1758.9047479090191
 30
0.0
 11
2646.892027571037
 21
1743.9047479090191
 31
0.0
  0
ARC
  5
80E4
  8
0
 10
2643.892027571037
 20
1758.9047479090191
 30
0.0
 40
3.0
 50
0.000000000000007
 51
90.0
  0
LINE
  5
80E5
  8
0
 10
1142.8658642845619
 20
1079.9506013192099
 30
0.0
 11
1142.8658642845619
 21
1060.2338693922809
 31
0.0
  0
LINE
  5
80E6
  8
0
 10
1143.8658642845619
 20
1059.2338693922809
 30
0.0
 11
1142.8658642845619
 21
1060.2338693922809
 31
0.0
  0
LINE
  5
80E7
  8
0
 10
1174.8658642845619
 20
1079.9506013192099
 30
0.0
 11
1174.8658642845619
 21
1060.2338693922809
 31
0.0
  0
LINE
  5
80E8
  8
0
 10
1101.8658642845619
 20
1131.2338693922809
 30
0.0
 11
1101.8658642845619
 21
1110.558907566706
 31
0.0
  0
LINE
  5
80E9
  8
0
 10
1215.865864284563
 20
1131.2338693922809
 30
0.0
 11
1215.865864284563
 21
1110.558907566706
 31
0.0
  0
ARC
  5
80EA
  8
0
 10
1158.8658642845619
 20
1184.2338693922809
 30
0.0
 40
103.0
 50
243.95835004404401
 51
296.04164995595607
  0
ARC
  5
80EB
  8
0
 10
1194.8658642845619
 20
1110.558907566706
 30
0.0
 40
21.0
 50
296.04164995595607
 51
0.000000000000007
  0
ARC
  5
80EC
  8
0
 10
1122.865864284563
 20
1110.558907566706
 30
0.0
 40
21.0
 50
180.0
 51
243.95835004404401
  0
LINE
  5
80ED
  8
0
 10
1215.865864284563
 20
1131.2338693922809
 30
0.0
 11
1101.8658642845619
 21
1131.2338693922809
 31
0.0
  0
LINE
  5
80EE
  8
0
 10
1173.8658642845619
 20
1059.2338693922809
 30
0.0
 11
1143.8658642845619
 21
1059.2338693922809
 31
0.0
  0
LINE
  5
80EF
  8
0
 10
1174.8658642845619
 20
1060.2338693922809
 30
0.0
 11
1173.8658642845619
 21
1059.2338693922809
 31
0.0
  0
ARC
  5
80F0
  8
0
 10
1177.8658642845619
 20
1079.9506013192099
 30
0.0
 40
3.0
 50
100.32580277125361
 51
180.0
  0
ARC
  5
80F1
  8
0
 10
1139.8658642845619
 20
1079.9506013192099
 30
0.0
 40
3.0
 50
0.000000000000007
 51
79.674197228746422
  0
LINE
  5
80F2
  8
0
 10
1141.8658642845619
 20
1432.2338693922809
 30
0.0
 11
1141.8658642845619
 21
1415.2338693922809
 31
0.0
  0
ARC
  5
80F3
  8
0
 10
1143.8658642845619
 20
1415.2338693922809
 30
0.0
 40
2.0
 50
180.0
 51
270.0
  0
LINE
  5
80F4
  8
0
 10
1175.8658642845619
 20
1432.2338693922809
 30
0.0
 11
1175.8658642845619
 21
1415.2338693922809
 31
0.0
  0
ARC
  5
80F5
  8
0
 10
1173.8658642845619
 20
1432.2338693922809
 30
0.0
 40
2.0
 50
0.000000000000007
 51
90.0
  0
LINE
  5
80F6
  8
0
 10
1101.3658642845619
 20
1373.563077313074
 30
0.0
 11
1101.3658642845619
 21
1131.2338693922809
 31
0.0
  0
LINE
  5
80F7
  8
0
 10
1216.3658642845619
 20
1378.5960047679789
 30
0.0
 11
1216.3658642845619
 21
1131.2338693922809
 31
0.0
  0
LINE
  5
80F8
  8
0
 10
1216.3658642845619
 20
1131.2338693922809
 30
0.0
 11
1101.3658642845619
 21
1131.2338693922809
 31
0.0
  0
LINE
  5
80F9
  8
0
 10
1191.200499780711
 20
1489.233869392282
 30
0.0
 11
1115.124194533759
 21
1489.233869392282
 31
0.0
  0
LINE
  5
80FA
  8
0
 10
1174.8658642845619
 20
1519.2338693922809
 30
0.0
 11
1142.8658642845619
 21
1519.2338693922809
 31
0.0
  0
LINE
  5
80FB
  8
0
 10
1139.8658642845619
 20
1489.2338693922809
 30
0.0
 11
1115.1241945337599
 21
1489.2338693922809
 31
0.0
  0
LINE
  5
80FC
  8
0
 10
1242.8658642845619
 20
1495.7338693922809
 30
0.0
 11
1177.865864284561
 21
1495.7338693922809
 31
0.0
  0
LINE
  5
80FD
  8
0
 10
1139.8658642845619
 20
1495.7338693922809
 30
0.0
 11
1074.8658642845619
 21
1495.7338693922809
 31
0.0
  0
LINE
  5
80FE
  8
0
 10
1073.865864284561
 20
1494.7338693922809
 30
0.0
 11
1074.8658642845619
 21
1495.7338693922809
 31
0.0
  0
LINE
  5
80FF
  8
0
 10
1242.8658642845619
 20
1434.733869392282
 30
0.0
 11
1215.8658642845619
 21
1434.733869392282
 31
0.0
  0
LINE
  5
8100
  8
0
 10
1243.8658642845619
 20
1435.7338693922809
 30
0.0
 11
1242.8658642845619
 21
1434.733869392282
 31
0.0
  0
LINE
  5
8101
  8
0
 10
1101.8658642845619
 20
1434.7338693922809
 30
0.0
 11
1074.8658642845619
 21
1434.733869392282
 31
0.0
  0
LINE
  5
8102
  8
0
 10
1142.8658642845619
 20
1519.2338693922809
 30
0.0
 11
1142.8658642845619
 21
1492.2338693922809
 31
0.0
  0
LINE
  5
8103
  8
0
 10
1174.8658642845619
 20
1519.2338693922809
 30
0.0
 11
1174.8658642845619
 21
1492.2338693922809
 31
0.0
  0
LINE
  5
8104
  8
0
 10
1073.865864284561
 20
1494.7338693922809
 30
0.0
 11
1073.865864284561
 21
1435.7338693922809
 31
0.0
  0
LINE
  5
8105
  8
0
 10
1074.8658642845619
 20
1434.733869392282
 30
0.0
 11
1073.865864284561
 21
1435.7338693922809
 31
0.0
  0
LINE
  5
8106
  8
0
 10
1243.8658642845619
 20
1494.7338693922809
 30
0.0
 11
1243.8658642845619
 21
1435.7338693922809
 31
0.0
  0
LINE
  5
8107
  8
0
 10
1242.8658642845619
 20
1495.7338693922809
 30
0.0
 11
1243.8658642845619
 21
1494.7338693922809
 31
0.0
  0
LINE
  5
8108
  8
0
 10
1101.8658642845619
 20
1458.1104774362891
 30
0.0
 11
1101.8658642845619
 21
1396.9046614714889
 31
0.0
  0
LINE
  5
8109
  8
0
 10
1215.8658642845619
 20
1458.11047743629
 30
0.0
 11
1215.8658642845619
 21
1391.871734016584
 31
0.0
  0
ARC
  5
810A
  8
0
 10
1201.8658642845619
 20
1486.7338693922809
 30
0.0
 40
9.0
 50
90.0
 51
152.7203872640271
  0
ARC
  5
810B
  8
0
 10
1191.200499780711
 20
1492.2338693922809
 30
0.0
 40
3.0
 50
270.0
 51
332.72038726402712
  0
ARC
  5
810C
  8
0
 10
1139.8658642845619
 20
1492.2338693922809
 30
0.0
 40
3.0
 50
270.0
 51
0.000000000000007
  0
LINE
  5
810D
  8
0
 10
1191.200499780711
 20
1489.233869392282
 30
0.0
 11
1177.865864284561
 21
1489.233869392282
 31
0.0
  0
ARC
  5
810E
  8
0
 10
1177.865864284561
 20
1492.2338693922809
 30
0.0
 40
3.0
 50
180.0
 51
270.0
  0
LINE
  5
810F
  8
0
 10
1115.124194533759
 20
1489.233869392282
 30
0.0
 11
1103.8658642845619
 21
1495.7338693922809
 31
0.0
  0
ARC
  5
8110
  8
0
 10
1139.8658642845619
 20
1498.7338693922809
 30
0.0
 40
3.0
 50
270.0
 51
0.000000000000007
  0
ARC
  5
8111
  8
0
 10
1177.865864284561
 20
1498.7338693922809
 30
0.0
 40
3.0
 50
180.0
 51
270.0
  0
ARC
  5
8112
  8
0
 10
1158.8658642845619
 20
1385.2338693922809
 30
0.0
 40
104.0
 50
65.638022060024582
 51
114.3619779399754
  0
ARC
  5
8113
  8
0
 10
1125.8658642845619
 20
1458.1104774362891
 30
0.0
 40
24.0
 50
114.3619779399754
 51
180.0
  0
ARC
  5
8114
  8
0
 10
1191.8658642845619
 20
1458.11047743629
 30
0.0
 40
24.0
 50
0.000000000000007
 51
65.638022060024582
  0
LINE
  5
8115
  8
0
 10
1101.3658642845619
 20
1330.9711587834261
 30
0.0
 11
1101.3658642845619
 21
1373.563077313074
 31
0.0
  0
LINE
  5
8116
  8
0
 10
1086.506985614257
 20
1388.478918897232
 30
0.0
 11
1086.506985614257
 21
1385.2338693922809
 31
0.0
  0
LINE
  5
8117
  8
0
 10
1086.506985614257
 20
1381.6472357289149
 30
0.0
 11
1086.506985614257
 21
1385.2338693922809
 31
0.0
  0
LINE
  5
8118
  8
0
 10
1218.1004053349011
 20
1391.871734016584
 30
0.0
 11
1086.506985614257
 21
1391.871734016584
 31
0.0
  0
LINE
  5
8119
  8
0
 10
1239.7074484429791
 20
1385.2338693922809
 30
0.0
 11
1207.8191749070929
 21
1385.2338693922809
 31
0.0
  0
LINE
  5
811A
  8
0
 10
1239.7074484429791
 20
1378.5960047679789
 30
0.0
 11
1086.506985614257
 21
1378.5960047679789
 31
0.0
  0
LINE
  5
811B
  8
0
 10
1086.506985614257
 20
1373.563077313074
 30
0.0
 11
1086.506985614257
 21
1396.9046614714889
 31
0.0
  0
LINE
  5
811C
  8
0
 10
1239.7074484429791
 20
1378.5960047679789
 30
0.0
 11
1239.7074484429791
 21
1393.3317398721699
 31
0.0
  0
LINE
  5
811D
  8
0
 10
1133.7692109605059
 20
1396.9046614714889
 30
0.0
 11
1133.7692109605059
 21
1391.871734016584
 31
0.0
  0
LINE
  5
811E
  8
0
 10
1133.7692109605059
 20
1378.5960047679789
 30
0.0
 11
1133.7692109605059
 21
1373.563077313074
 31
0.0
  0
LINE
  5
811F
  8
0
 10
1086.506985614257
 20
1396.9046614714889
 30
0.0
 11
1133.7692109605059
 21
1396.9046614714889
 31
0.0
  0
LINE
  5
8120
  8
0
 10
1086.506985614257
 20
1373.563077313074
 30
0.0
 11
1133.7692109605059
 21
1373.563077313074
 31
0.0
  0
LINE
  5
8121
  8
0
 10
1158.866001747077
 20
1535.5571450815089
 30
0.0
 11
1148.388501747077
 21
1525.557145081508
 31
0.0
  0
LINE
  5
8122
  8
0
 10
1169.343501747077
 20
1525.5571450815089
 30
0.0
 11
1158.866001747077
 21
1535.5571450815089
 31
0.0
  0
LINE
  5
8123
  8
0
 10
1158.8655017470769
 20
1525.5571450815089
 30
0.0
 11
1169.343501747077
 21
1535.5571450815089
 31
0.0
  0
LINE
  5
8124
  8
0
 10
1148.388501747077
 20
1535.5571450815089
 30
0.0
 11
1158.8655017470769
 21
1525.5571450815089
 31
0.0
  0
LINE
  5
8125
  8
0
 10
1169.343501747077
 20
1535.5571450815089
 30
0.0
 11
1169.343501747077
 21
1525.5571450815089
 31
0.0
  0
LINE
  5
8126
  8
0
 10
1148.388501747077
 20
1535.5571450815089
 30
0.0
 11
1148.388501747077
 21
1525.5571450815089
 31
0.0
  0
LINE
  5
8127
  8
0
 10
1169.343501747077
 20
1525.5571450815089
 30
0.0
 11
1148.388501747077
 21
1525.5571450815089
 31
0.0
  0
LINE
  5
8128
  8
0
 10
1169.343501747077
 20
1525.5571450815089
 30
0.0
 11
1169.145830650531
 21
1519.2338693922809
 31
0.0
  0
LINE
  5
8129
  8
0
 10
1168.180501747077
 20
1525.5571450815089
 30
0.0
 11
1167.9831055755619
 21
1519.2338693922809
 31
0.0
  0
LINE
  5
812A
  8
0
 10
1149.5505017470771
 20
1525.5571450815089
 30
0.0
 11
1149.747897918593
 21
1519.2338693922809
 31
0.0
  0
LINE
  5
812B
  8
0
 10
1148.388501747077
 20
1525.5571450815089
 30
0.0
 11
1148.585897918593
 21
1519.2338693922809
 31
0.0
  0
LINE
  5
812C
  8
0
 10
1169.343501747077
 20
1535.5571450815089
 30
0.0
 11
1148.388501747077
 21
1535.5571450815089
 31
0.0
  0
LINE
  5
8130
  8
0
 10
1173.8658642845619
 20
1413.2338693922809
 30
0.0
 11
1143.8658642845619
 21
1413.2338693922809
 31
0.0
  0
ARC
  5
8131
  8
0
 10
1173.8658642845619
 20
1415.2338693922809
 30
0.0
 40
2.0
 50
270.0
 51
0.000000000000007
  0
LINE
  5
8132
  8
0
 10
1173.8658642845619
 20
1434.2338693922809
 30
0.0
 11
1143.8658642845619
 21
1434.2338693922809
 31
0.0
  0
ARC
  5
8133
  8
0
 10
1143.8658642845619
 20
1432.2338693922809
 30
0.0
 40
2.0
 50
90.0
 51
180.0
  0
CIRCLE
  5
8134
  8
0
 10
1228.317767120581
 20
1396.9046614714889
 30
0.0
 40
4.5544554455445896
  0
CIRCLE
  5
8135
  8
0
 10
1228.6016389282311
 20
1396.8784103366941
 30
0.0
 40
11.65838223604803
  0
LINE
  5
8136
  8
0
 10
2645.8920275710352
 20
1837.90474790902
 30
0.0
 11
2613.8920275710352
 21
1837.9047479090191
 31
0.0
  0
LINE
  5
8137
  8
0
 10
2671.798640948587
 20
1807.9047479090191
 30
0.0
 11
2648.8920275710352
 21
1807.9047479090191
 31
0.0
  0
LINE
  5
8138
  8
0
 10
2547.3920275710352
 20
1741.4047479090191
 30
0.0
 11
2520.8920275710352
 21
1741.4047479090191
 31
0.0
  0
LINE
  5
8139
  8
0
 10
2549.8920275710352
 20
1815.4047479090191
 30
0.0
 11
2520.8920275710352
 21
1815.4047479090191
 31
0.0
  0
LINE
  5
813A
  8
0
 10
2519.8920275710361
 20
1814.4047479090191
 30
0.0
 11
2520.8920275710352
 21
1815.4047479090191
 31
0.0
  0
LINE
  5
813B
  8
0
 10
2613.8920275710352
 20
1837.9047479090191
 30
0.0
 11
2613.8920275710352
 21
1806.346642613478
 31
0.0
  0
LINE
  5
813C
  8
0
 10
2645.8920275710352
 20
1837.9047479090191
 30
0.0
 11
2645.8920275710352
 21
1806.346642613478
 31
0.0
  0
LINE
  5
813D
  8
0
 10
2519.8920275710361
 20
1814.4047479090191
 30
0.0
 11
2519.8920275710361
 21
1742.4047479090191
 31
0.0
  0
LINE
  5
813E
  8
0
 10
2520.8920275710352
 20
1741.4047479090191
 30
0.0
 11
2519.8920275710361
 21
1742.4047479090191
 31
0.0
  0
LINE
  5
813F
  8
0
 10
2547.3920275710352
 20
1762.644568080817
 30
0.0
 11
2547.3920275710352
 21
1649.6500507350049
 31
0.0
  0
LINE
  5
8140
  8
0
 10
2712.3920275710352
 20
1762.644568080817
 30
0.0
 11
2712.3920275710352
 21
1642.428784709389
 31
0.0
  0
LINE
  5
8141
  8
0
 10
2562.8824086278009
 20
1807.9047479090191
 30
0.0
 11
2549.8920275710352
 21
1815.4047479090191
 31
0.0
  0
LINE
  5
8142
  8
0
 10
2712.3920275710361
 20
1741.4047479090191
 30
0.0
 11
2738.8920275710352
 21
1741.4047479090191
 31
0.0
  0
LINE
  5
8143
  8
0
 10
2739.8920275710352
 20
1742.4047479090191
 30
0.0
 11
2738.8920275710352
 21
1741.4047479090191
 31
0.0
  0
LINE
  5
8144
  8
0
 10
2683.8920275710339
 20
1815.4047479090191
 30
0.0
 11
2738.8920275710352
 21
1815.4047479090191
 31
0.0
  0
LINE
  5
8145
  8
0
 10
2739.8920275710352
 20
1814.4047479090191
 30
0.0
 11
2739.8920275710352
 21
1742.4047479090191
 31
0.0
  0
LINE
  5
8146
  8
0
 10
2738.8920275710352
 20
1815.4047479090191
 30
0.0
 11
2739.8920275710352
 21
1814.4047479090191
 31
0.0
  0
ARC
  5
8147
  8
0
 10
2629.8920275710352
 20
1685.9047479090191
 30
0.0
 40
121.5
 50
53.880331872851741
 51
126.1196681271482
  0
ARC
  5
8148
  8
0
 10
2573.8920275710352
 20
1762.644568080817
 30
0.0
 40
26.5
 50
126.1196681271482
 51
180.0
  0
ARC
  5
8149
  8
0
 10
2683.8920275710339
 20
1804.9047479090179
 30
0.0
 40
10.5
 50
90.0
 51
153.61220003876241
  0
ARC
  5
814A
  8
0
 10
2671.798640948587
 20
1810.9047479090191
 30
0.0
 40
3.0
 50
270.0
 51
333.61220003876241
  0
LINE
  5
814B
  8
0
 10
2683.8920275710339
 20
1815.4047479090191
 30
0.0
 11
2645.8920275710352
 21
1815.4047479090191
 31
0.0
  0
LINE
  5
814C
  8
0
 10
2613.8920275710352
 20
1815.4047479090191
 30
0.0
 11
2549.8920275710352
 21
1815.4047479090191
 31
0.0
  0
ARC
  5
814D
  8
0
 10
2685.8920275710352
 20
1762.644568080817
 30
0.0
 40
26.5
 50
0.000000000000007
 51
53.880331872851741
  0
ARC
  5
814E
  8
0
 10
2648.8920275710352
 20
1810.9047479090191
 30
0.0
 40
3.0
 50
180.0
 51
270.0
  0
ARC
  5
814F
  8
0
 10
2610.8920275710352
 20
1810.9047479090191
 30
0.0
 40
3.0
 50
270.0
 51
0.000000000000007
  0
LINE
  5
8150
  8
0
 10
2610.8920275710352
 20
1807.9047479090191
 30
0.0
 11
2562.8824086278009
 21
1807.9047479090191
 31
0.0
  0
LINE
  5
8151
  8
0
 10
2613.8920275710352
 20
1293.369038827952
 30
0.0
 11
2613.8920275710352
 21
1273.9047479090191
 31
0.0
  0
LINE
  5
8152
  8
0
 10
2614.8920275710352
 20
1272.9047479090191
 30
0.0
 11
2613.8920275710352
 21
1273.9047479090191
 31
0.0
  0
LINE
  5
8153
  8
0
 10
2645.8920275710352
 20
1293.369038827952
 30
0.0
 11
2645.8920275710352
 21
1273.9047479090191
 31
0.0
  0
LINE
  5
8154
  8
0
 10
2546.9920275710351
 20
1349.9047479090191
 30
0.0
 11
2546.9920275710351
 21
1339.8298506037979
 31
0.0
  0
LINE
  5
8155
  8
0
 10
2712.7920275710349
 20
1349.9047479090191
 30
0.0
 11
2712.7920275710349
 21
1339.8298506037979
 31
0.0
  0
LINE
  5
8156
  8
0
 10
2547.3920275710352
 20
1616.159445083033
 30
0.0
 11
2547.3920275710352
 21
1349.9047479090191
 31
0.0
  0
LINE
  5
8157
  8
0
 10
2712.3920275710361
 20
1623.380711108648
 30
0.0
 11
2712.3920275710352
 21
1349.9047479090191
 31
0.0
  0
LINE
  5
8158
  8
0
 10
2712.3920275710352
 20
1349.9047479090191
 30
0.0
 11
2547.3920275710352
 21
1349.9047479090191
 31
0.0
  0
LINE
  5
8159
  8
0
 10
2712.7920275710349
 20
1349.9047479090191
 30
0.0
 11
2546.9920275710351
 21
1349.9047479090191
 31
0.0
  0
LINE
  5
815A
  8
0
 10
2644.8920275710361
 20
1272.9047479090191
 30
0.0
 11
2614.8920275710352
 21
1272.9047479090191
 31
0.0
  0
LINE
  5
815B
  8
0
 10
2645.8920275710352
 20
1273.9047479090191
 30
0.0
 11
2644.8920275710361
 21
1272.9047479090191
 31
0.0
  0
ARC
  5
815C
  8
0
 10
2629.8920275710352
 20
1415.9047479090191
 30
0.0
 40
121.0
 50
233.20545439749961
 51
306.79454560250042
  0
ARC
  5
815D
  8
0
 10
2610.8920275710352
 20
1293.369038827952
 30
0.0
 40
3.0
 50
0.000000000000007
 51
81.186086681329229
  0
ARC
  5
815E
  8
0
 10
2648.8920275710352
 20
1293.369038827952
 30
0.0
 40
3.0
 50
98.813913318670785
 51
180.0
  0
ARC
  5
815F
  8
0
 10
2686.7920275710349
 20
1339.8298506037979
 30
0.0
 40
26.0
 50
306.79454560250042
 51
0.000000000000007
  0
ARC
  5
8160
  8
0
 10
2572.9920275710351
 20
1339.8298506037979
 30
0.0
 40
26.0
 50
180.0
 51
233.20545439749961
  0
LINE
  5
8161
  8
0
 10
2629.8925275710362
 20
1854.2280235982471
 30
0.0
 11
2619.4150275710349
 21
1844.228023598246
 31
0.0
  0
LINE
  5
8162
  8
0
 10
2640.3700275710362
 20
1844.2280235982471
 30
0.0
 11
2629.8925275710362
 21
1854.2280235982471
 31
0.0
  0
LINE
  5
8163
  8
0
 10
2629.8920275710352
 20
1844.2280235982471
 30
0.0
 11
2640.3700275710362
 21
1854.2280235982471
 31
0.0
  0
LINE
  5
8164
  8
0
 10
2619.4150275710349
 20
1854.2280235982471
 30
0.0
 11
2629.8920275710352
 21
1844.2280235982471
 31
0.0
  0
LINE
  5
8165
  8
0
 10
2640.3700275710362
 20
1854.2280235982471
 30
0.0
 11
2640.3700275710362
 21
1844.2280235982471
 31
0.0
  0
LINE
  5
8166
  8
0
 10
2619.4150275710349
 20
1854.2280235982471
 30
0.0
 11
2619.4150275710349
 21
1844.2280235982471
 31
0.0
  0
LINE
  5
8167
  8
0
 10
2640.3700275710362
 20
1844.2280235982471
 30
0.0
 11
2619.4150275710349
 21
1844.2280235982471
 31
0.0
  0
LINE
  5
8168
  8
0
 10
2640.3700275710362
 20
1844.2280235982471
 30
0.0
 11
2640.1723564744889
 21
1837.90474790902
 31
0.0
  0
LINE
  5
8169
  8
0
 10
2639.2070275710348
 20
1844.2280235982471
 30
0.0
 11
2639.0096313995191
 21
1837.90474790902
 31
0.0
  0
LINE
  5
816A
  8
0
 10
2620.5770275710352
 20
1844.2280235982471
 30
0.0
 11
2620.7744237425509
 21
1837.90474790902
 31
0.0
  0
LINE
  5
816B
  8
0
 10
2619.4150275710349
 20
1844.2280235982471
 30
0.0
 11
2619.6124237425511
 21
1837.90474790902
 31
0.0
  0
LINE
  5
816C
  8
0
 10
2640.3700275710362
 20
1854.2280235982471
 30
0.0
 11
2619.4150275710349
 21
1854.2280235982471
 31
0.0
  0
LINE
  5
816D
  8
0
 10
2526.0711962804389
 20
1637.560758938683
 30
0.0
 11
2526.0711962804389
 21
1632.9047479090179
 31
0.0
  0
LINE
  5
816E
  8
0
 10
2526.0711962804389
 20
1627.758630455178
 30
0.0
 11
2526.0711962804389
 21
1632.9047479090179
 31
0.0
  0
LINE
  5
816F
  8
0
 10
2714.8820026228009
 20
1642.428784709389
 30
0.0
 11
2526.0711962804389
 21
1642.428784709389
 31
0.0
  0
LINE
  5
8170
  8
0
 10
2745.883881292501
 20
1632.9047479090179
 30
0.0
 11
2700.1304488491628
 21
1632.9047479090191
 31
0.0
  0
LINE
  5
8171
  8
0
 10
2745.883881292501
 20
1623.380711108648
 30
0.0
 11
2526.0711962804389
 21
1623.380711108648
 31
0.0
  0
LINE
  5
8172
  8
0
 10
2526.0711962804389
 20
1616.159445083033
 30
0.0
 11
2526.0711962804389
 21
1649.6500507350049
 31
0.0
  0
LINE
  5
8173
  8
0
 10
2745.883881292501
 20
1623.380711108648
 30
0.0
 11
2745.883881292501
 21
1647.3604837669409
 31
0.0
  0
LINE
  5
8174
  8
0
 10
2593.8832411083908
 20
1649.6500507350049
 30
0.0
 11
2593.8832411083922
 21
1642.428784709389
 31
0.0
  0
LINE
  5
8175
  8
0
 10
2593.8832411083922
 20
1623.380711108648
 30
0.0
 11
2593.8832411083922
 21
1616.159445083033
 31
0.0
  0
ARC
  5
8176
  8
0
 10
2729.5419173931682
 20
1649.6500507350049
 30
0.0
 40
6.5347523223360806
 50
218.6821874534931
 51
321.31781254650701
  0
ARC
  5
8177
  8
0
 10
2729.5419173931682
 20
1649.6500507350049
 30
0.0
 40
6.5347523223360806
 50
38.68218745349305
 51
141.3178125465069
  0
LINE
  5
8178
  8
0
 10
2526.0711962804389
 20
1649.6500507350049
 30
0.0
 11
2593.8832411083908
 21
1649.6500507350049
 31
0.0
  0
LINE
  5
8179
  8
0
 10
2526.0711962804389
 20
1616.159445083033
 30
0.0
 11
2593.8832411083922
 21
1616.159445083033
 31
0.0
  0
LINE
  5
817D
  8
0
 10
2739.8920275710352
 20
1814.4047479090191
 30
0.0
 11
2738.8920275710352
 21
1815.4047479090191
 31
0.0
  0
LINE
  5
817E
  8
0
 10
2738.8920275710352
 20
1741.4047479090191
 30
0.0
 11
2739.8920275710352
 21
1742.4047479090191
 31
0.0
  0
LINE
  5
8182
  8
0
 10
2643.892027571037
 20
1761.9047479090191
 30
0.0
 11
2615.8920275710361
 21
1761.9047479090191
 31
0.0
  0
ARC
  5
8183
  8
0
 10
2615.8920275710361
 20
1758.9047479090191
 30
0.0
 40
3.0
 50
90.0
 51
180.0
  0
LINE
  5
8184
  8
0
 10
2643.892027571037
 20
1740.9047479090191
 30
0.0
 11
2615.8920275710361
 21
1740.9047479090191
 31
0.0
  0
ARC
  5
8185
  8
0
 10
2643.892027571037
 20
1743.9047479090191
 30
0.0
 40
3.0
 50
270.0
 51
0.000000000000007
  0
CIRCLE
  5
8186
  8
0
 10
2729.5419173931682
 20
1649.6500507350049
 30
0.0
 40
6.5347523223360886
  0
CIRCLE
  5
8187
  8
0
 10
2729.5419173931682
 20
1649.6500507350049
 30
0.0
 40
16.501572682273618
  0
VIEWPORT
  5
41
 67
     1
  8
0
 10
117.358407079646
 20
73.5
 30
0.0
 40
234.716814159292
 41
147.0
 68
     1
 69
     1
1001
ACAD
1000
MVIEW
1002
{
1070
    16
1010
0.0
1020
0.0
1030
0.0
1010
0.0
1020
0.0
1030
1.0
1040
0.0
1040
147.0
1040
117.358407079646
1040
73.5
1040
50.0
1040
0.0
1040
0.0
1070
     0
1070
   100
1070
     1
1070
     1
1070
     0
1070
     0
1070
     0
1070
     0
1040
0.0
1040
0.0
1040
0.0
1040
1.0
1040
1.0
1040
0.0
1040
0.0
1070
     0
1002
{
1002
}
1002
}
  0
ENDSEC
  0
EOF
