  0
SECTION
  2
HEADER
  9
$ACADVER
  1
AC1012
  9
$DWGCODEPAGE
  3
dos932
  9
$INSBASE
 10
0.0
 20
0.0
 30
0.0
  9
$EXTMIN
 10
21.97499985989907
 20
9.914251973286809
 30
-0.0015258207003583
  9
$EXTMAX
 10
572.2334798924075
 20
382.1150243749316
 30
0.0000000349246037
  9
$LIMMIN
 10
0.0
 20
0.0
  9
$LIMMAX
 10
594.0
 20
420.0
  9
$ORTHOMODE
 70
     0
  9
$REGENMODE
 70
     1
  9
$FILLMODE
 70
     1
  9
$QTEXTMODE
 70
     0
  9
$MIRRTEXT
 70
     1
  9
$DRAGMODE
 70
     2
  9
$LTSCALE
 40
8.0
  9
$OSMODE
 70
   163
  9
$ATTMODE
 70
     1
  9
$TEXTSIZE
 40
8.0
  9
$TRACEWID
 40
0.05
  9
$TEXTSTYLE
  7
STANDARD
  9
$CLAYER
  8
0
  9
$CELTYPE
  6
BYLAYER
  9
$CECOLOR
 62
   256
  9
$CELTSCALE
 40
1.0
  9
$DELOBJ
 70
     1
  9
$DISPSILH
 70
     0
  9
$DIMSCALE
 40
2.0
  9
$DIMASZ
 40
2.799999999999999
  9
$DIMEXO
 40
1.0
  9
$DIMDLI
 40
5.0
  9
$DIMRND
 40
0.1
  9
$DIMDLE
 40
0.0
  9
$DIMEXE
 40
1.0
  9
$DIMTP
 40
0.0
  9
$DIMTM
 40
0.0
  9
$DIMTXT
 40
2.5
  9
$DIMCEN
 40
0.0
  9
$DIMTSZ
 40
0.0
  9
$DIMTOL
 70
     0
  9
$DIMLIM
 70
     0
  9
$DIMTIH
 70
     0
  9
$DIMTOH
 70
     0
  9
$DIMSE1
 70
     0
  9
$DIMSE2
 70
     0
  9
$DIMTAD
 70
     3
  9
$DIMZIN
 70
     8
  9
$DIMBLK
  1

  9
$DIMASO
 70
     1
  9
$DIMSHO
 70
     1
  9
$DIMPOST
  1

  9
$DIMAPOST
  1

  9
$DIMALT
 70
     0
  9
$DIMALTD
 70
     2
  9
$DIMALTF
 40
1.0
  9
$DIMLFAC
 40
1.0
  9
$DIMTOFL
 70
     1
  9
$DIMTVP
 40
0.0
  9
$DIMTIX
 70
     0
  9
$DIMSOXD
 70
     0
  9
$DIMSAH
 70
     1
  9
$DIMBLK1
  1
OPEN
  9
$DIMBLK2
  1
OPEN
  9
$DIMSTYLE
  2
DIM1
  9
$DIMCLRD
 70
     2
  9
$DIMCLRE
 70
     2
  9
$DIMCLRT
 70
     2
  9
$DIMTFAC
 40
0.7
  9
$DIMGAP
 40
0.85
  9
$DIMJUST
 70
     0
  9
$DIMSD1
 70
     0
  9
$DIMSD2
 70
     0
  9
$DIMTOLJ
 70
     1
  9
$DIMTZIN
 70
     8
  9
$DIMALTZ
 70
     8
  9
$DIMALTTZ
 70
     8
  9
$DIMFIT
 70
     3
  9
$DIMUPT
 70
     0
  9
$DIMUNIT
 70
     2
  9
$DIMDEC
 70
     2
  9
$DIMTDEC
 70
     3
  9
$DIMALTU
 70
     2
  9
$DIMALTTD
 70
     3
  9
$DIMTXSTY
  7
DIM
  9
$DIMAUNIT
 70
     0
  9
$LUNITS
 70
     2
  9
$LUPREC
 70
     4
  9
$SKETCHINC
 40
0.1
  9
$FILLETRAD
 40
0.0
  9
$AUNITS
 70
     0
  9
$AUPREC
 70
     0
  9
$MENU
  1
C:\ACADR13\WIN\SUPPORT\ACAD.mnc
  9
$ELEVATION
 40
0.0
  9
$PELEVATION
 40
0.0
  9
$THICKNESS
 40
0.0
  9
$LIMCHECK
 70
     0
  9
$BLIPMODE
 70
     0
  9
$CHAMFERA
 40
0.0
  9
$CHAMFERB
 40
0.0
  9
$CHAMFERC
 40
0.0
  9
$CHAMFERD
 40
0.0
  9
$SKPOLY
 70
     0
  9
$TDCREATE
 40
2451565.378430799
  9
$TDUPDATE
 40
2452251.591863599
  9
$TDINDWG
 40
0.0216738310
  9
$TDUSRTIMER
 40
0.0216738310
  9
$USRTIMER
 70
     1
  9
$ANGBASE
 50
0.0
  9
$ANGDIR
 70
     0
  9
$PDMODE
 70
     0
  9
$PDSIZE
 40
0.0
  9
$PLINEWID
 40
0.0
  9
$COORDS
 70
     2
  9
$SPLFRAME
 70
     0
  9
$SPLINETYPE
 70
     6
  9
$SPLINESEGS
 70
     8
  9
$ATTDIA
 70
     0
  9
$ATTREQ
 70
     1
  9
$HANDLING
 70
-16383
  9
$HANDSEED
  5
44F4
  9
$SURFTAB1
 70
     6
  9
$SURFTAB2
 70
     6
  9
$SURFTYPE
 70
     6
  9
$SURFU
 70
     6
  9
$SURFV
 70
     6
  9
$UCSNAME
  2

  9
$UCSORG
 10
0.0
 20
0.0
 30
0.0
  9
$UCSXDIR
 10
1.0
 20
0.0
 30
0.0
  9
$UCSYDIR
 10
0.0
 20
1.0
 30
0.0
  9
$PUCSNAME
  2

  9
$PUCSORG
 10
0.0
 20
0.0
 30
0.0
  9
$PUCSXDIR
 10
1.0
 20
0.0
 30
0.0
  9
$PUCSYDIR
 10
0.0
 20
1.0
 30
0.0
  9
$USERI1
 70
     0
  9
$USERI2
 70
     0
  9
$USERI3
 70
     0
  9
$USERI4
 70
     0
  9
$USERI5
 70
     0
  9
$USERR1
 40
0.0
  9
$USERR2
 40
0.0
  9
$USERR3
 40
0.0
  9
$USERR4
 40
0.0
  9
$USERR5
 40
0.0
  9
$WORLDVIEW
 70
     1
  9
$SHADEDGE
 70
     3
  9
$SHADEDIF
 70
    70
  9
$TILEMODE
 70
     1
  9
$MAXACTVP
 70
    16
  9
$PINSBASE
 10
0.0
 20
0.0
 30
0.0
  9
$PLIMCHECK
 70
     0
  9
$PEXTMIN
 10
1.000000000000000E+20
 20
1.000000000000000E+20
 30
1.000000000000000E+20
  9
$PEXTMAX
 10
-1.000000000000000E+20
 20
-1.000000000000000E+20
 30
-1.000000000000000E+20
  9
$PLIMMIN
 10
0.0
 20
0.0
  9
$PLIMMAX
 10
20.0
 20
147.0
  9
$UNITMODE
 70
     0
  9
$VISRETAIN
 70
     0
  9
$PLINEGEN
 70
     0
  9
$PSLTSCALE
 70
     1
  9
$TREEDEPTH
 70
  3020
  9
$PICKSTYLE
 70
     0
  9
$CMLSTYLE
  2
STANDARD
  9
$CMLJUST
 70
     0
  9
$CMLSCALE
 40
1.0
  9
$SAVEIMAGES
 70
     1
  0
ENDSEC
  0
SECTION
  2
CLASSES
  0
CLASS
  1
LWPOLYLINE
  2
AcDbPolyline
  3
AutoCAD 2000
 90
    32768
280
     0
281
     1
  0
CLASS
  1
ACDBDICTIONARYWDFLT
  2
AcDbDictionaryWithDefault
  3
AutoCAD 2000
 90
    32768
280
     0
281
     0
  0
CLASS
  1
ACDBPLACEHOLDER
  2
AcDbPlaceHolder
  3
AutoCAD 2000
 90
    32768
280
     0
281
     0
  0
CLASS
  1
LAYOUT
  2
AcDbLayout
  3
AutoCAD 2000
 90
    32768
280
     0
281
     0
  0
CLASS
  1
LONG_TRANSACTION
  2
AcDbLongTransaction
  3
AutoCAD 2000
 90
    32768
280
     0
281
     0
  0
CLASS
  1
LWPOLYLINE
  2
AcDbPolyline
  3
AutoCAD 2000
 90
    32768
280
     0
281
     1
  0
CLASS
  1
HATCH
  2
AcDbHatch
  3
AutoCAD 2000
 90
    32768
280
     0
281
     1
  0
CLASS
  1
XRECORD
  2
AcDbXrecord
  3
AutoCAD 2000
 90
    32768
280
     0
281
     0
  0
CLASS
  1
LONG_TRANSACTION
  2
AcDbLongTransaction
  3
AutoCAD 2000
 90
    32768
280
     0
281
     0
  0
CLASS
  1
LWPOLYLINE
  2
AcDbPolyline
  3
AutoCAD 2000
 90
    32768
280
     0
281
     1
  0
CLASS
  1
HATCH
  2
AcDbHatch
  3
AutoCAD 2000
 90
    32768
280
     0
281
     1
  0
CLASS
  1
XRECORD
  2
AcDbXrecord
  3
AutoCAD 2000
 90
    32768
280
     0
281
     0
  0
CLASS
  1
LONG_TRANSACTION
  2
AcDbLongTransaction
  3
AutoCAD 2000
 90
    32768
280
     0
281
     0
  0
CLASS
  1
LWPOLYLINE
  2
AcDbPolyline
  3
AutoCAD 2000
 90
    32768
280
     0
281
     1
  0
CLASS
  1
HATCH
  2
AcDbHatch
  3
AutoCAD 2000
 90
    32768
280
     0
281
     1
  0
CLASS
  1
XRECORD
  2
AcDbXrecord
  3
AutoCAD 2000
 90
    32768
280
     0
281
     0
  0
ENDSEC
  0
SECTION
  2
TABLES
  0
TABLE
  2
VPORT
  5
8
330
0
100
AcDbSymbolTable
 70
     8
  0
VPORT
  5
44B6
330
8
100
AcDbSymbolTableRecord
100
AcDbViewportTableRecord
  2
*ACTIVE
 70
     0
 10
0.0
 20
0.0
 11
1.0
 21
1.0
 12
296.9999999999999
 22
210.0
 13
0.0
 23
0.0
 14
1.0
 24
1.0
 15
0.0
 25
0.0
 16
0.0
 26
0.0
 36
1.0
 17
0.0
 27
0.0
 37
0.0
 40
450.530341977511
 41
1.327707454289732
 42
50.0
 43
0.0
 44
0.0
 50
0.0
 51
0.0
 71
     0
 72
   100
 73
     1
 74
     1
 75
     0
 76
     0
 77
     0
 78
     0
  0
ENDTAB
  0
TABLE
  2
LTYPE
  5
5
330
0
100
AcDbSymbolTable
 70
     1
  0
LTYPE
  5
12
330
5
100
AcDbSymbolTableRecord
100
AcDbLinetypeTableRecord
  2
BYBLOCK
 70
     0
  3

 72
    65
 73
     0
 40
0.0
  0
LTYPE
  5
13
330
5
100
AcDbSymbolTableRecord
100
AcDbLinetypeTableRecord
  2
BYLAYER
 70
     0
  3

 72
    65
 73
     0
 40
0.0
  0
LTYPE
  5
14
330
5
100
AcDbSymbolTableRecord
100
AcDbLinetypeTableRecord
  2
CONTINUOUS
 70
     0
  3
Solid line
 72
    65
 73
     0
 40
0.0
  0
ENDTAB
  0
TABLE
  2
LAYER
  5
2
330
0
100
AcDbSymbolTable
 70
     3
  0
LAYER
  5
F
330
2
100
AcDbSymbolTableRecord
100
AcDbLayerTableRecord
  2
0
 70
     0
 62
     7
  6
CONTINUOUS
  0
ENDTAB
  0
TABLE
  2
STYLE
  5
3
330
0
100
AcDbSymbolTable
 70
     3
  0
STYLE
  5
10
330
3
100
AcDbSymbolTableRecord
100
AcDbTextStyleTableRecord
  2
STANDARD
 70
     0
 40
0.0
 41
0.8
 50
0.0
 71
     0
 42
8.0
  3
simplex
  4
extfont
  0
STYLE
  5
237C
330
3
100
AcDbSymbolTableRecord
100
AcDbTextStyleTableRecord
  2
PTSH
 70
     0
 40
0.0
 41
0.9
 50
0.0
 71
     0
 42
4.0
  3
SIMPLEX
  4
EXTFONT
  0
STYLE
  5
2592
330
3
100
AcDbSymbolTableRecord
100
AcDbTextStyleTableRecord
  2
DIM
 70
     0
 40
0.0
 41
0.8
 50
0.0
 71
     0
 42
4.0
  3
simplex
  4
extfont
  0
ENDTAB
  0
TABLE
  2
VIEW
  5
6
330
0
100
AcDbSymbolTable
 70
     0
  0
ENDTAB
  0
TABLE
  2
UCS
  5
7
330
0
100
AcDbSymbolTable
 70
     0
  0
ENDTAB
  0
TABLE
  2
APPID
  5
9
330
0
100
AcDbSymbolTable
 70
     1
  0
APPID
  5
11
330
9
100
AcDbSymbolTableRecord
100
AcDbRegAppTableRecord
  2
ACAD
 70
     0
  0
ENDTAB
  0
TABLE
  2
DIMSTYLE
  5
A
330
0
100
AcDbSymbolTable
 70
     1
  0
DIMSTYLE
105
2237
330
A
100
AcDbSymbolTableRecord
100
AcDbDimStyleTableRecord
  2
DIM1
 70
     0
  3

  4

  5

  6
OPEN
  7
OPEN
 40
2.0
 41
2.799999999999999
 42
1.0
 43
5.0
 44
1.0
 45
0.1
 46
0.0
 47
0.0
 48
0.0
140
2.5
141
0.0
142
0.0
143
1.0
144
1.0
145
0.0
146
0.7
147
0.85
 71
     0
 72
     0
 73
     0
 74
     0
 75
     0
 76
     0
 77
     3
 78
     8
170
     0
171
     2
172
     1
173
     1
174
     0
175
     0
176
     2
177
     2
178
     2
270
     2
271
     2
272
     3
273
     2
274
     3
340
2592
275
     0
280
     0
281
     0
282
     0
283
     1
284
     8
285
     8
286
     8
287
     3
288
     0
  0
ENDTAB
  0
TABLE
  2
BLOCK_RECORD
  5
1
330
0
100
AcDbSymbolTable
 70
     5
  0
BLOCK_RECORD
  5
18
102
{ACAD_XDICTIONARY
360
3E34
102
}
330
1
100
AcDbSymbolTableRecord
100
AcDbBlockTableRecord
  2
*MODEL_SPACE
  0
BLOCK_RECORD
  5
15
102
{ACAD_XDICTIONARY
360
3E32
102
}
330
1
100
AcDbSymbolTableRecord
100
AcDbBlockTableRecord
  2
*PAPER_SPACE
  0
BLOCK_RECORD
  5
2448
330
1
100
AcDbSymbolTableRecord
100
AcDbBlockTableRecord
  2
_OPEN
  0
ENDTAB
  0
ENDSEC
  0
SECTION
  2
BLOCKS
  0
BLOCK
  5
3C
330
18
100
AcDbEntity
  8
0
100
AcDbBlockBegin
  2
*MODEL_SPACE
 70
     0
 10
0.0
 20
0.0
 30
0.0
  3
*MODEL_SPACE
  1

  0
ENDBLK
  5
3D
330
18
100
AcDbEntity
  8
0
100
AcDbBlockEnd
  0
BLOCK
  5
3A
330
15
100
AcDbEntity
 67
     1
  8
0
100
AcDbBlockBegin
  2
*PAPER_SPACE
 70
     0
 10
0.0
 20
0.0
 30
0.0
  3
*PAPER_SPACE
  1

  0
ENDBLK
  5
3B
330
15
100
AcDbEntity
 67
     1
  8
0
100
AcDbBlockEnd
  0
BLOCK
  5
2449
330
2448
100
AcDbEntity
  8
0
 48
4.0
100
AcDbBlockBegin
  2
_OPEN
 70
     0
 10
0.0
 20
0.0
 30
0.0
  3
_OPEN
  1
H1111.DWG
  0
LINE
  5
244A
330
2448
100
AcDbEntity
  8
0
  6
BYBLOCK
 62
     0
 48
4.0
100
AcDbLine
 10
-1.0
 20
0.1666666666666666
 30
0.0
 11
0.0
 21
0.0
 31
0.0
  0
LINE
  5
244B
330
2448
100
AcDbEntity
  8
0
  6
BYBLOCK
 62
     0
 48
4.0
100
AcDbLine
 10
0.0
 20
0.0
 30
0.0
 11
-1.0
 21
-0.1666666666666666
 31
0.0
  0
LINE
  5
244C
330
2448
100
AcDbEntity
  8
0
  6
BYBLOCK
 62
     0
 48
4.0
100
AcDbLine
 10
0.0
 20
0.0
 30
0.0
 11
-1.0
 21
0.0
 31
0.0
  0
ENDBLK
  5
244D
330
2448
100
AcDbEntity
  8
0
 48
4.0
100
AcDbBlockEnd
  0
ENDSEC
  0
SECTION
  2
ENTITIES
  0
MTEXT
  5
ADA
330
18
100
AcDbEntity
  8
0
100
AcDbMText
 10
760.2785595434168
 20
99.69262227244568
 30
0.0
 40
0.4000000000000007
 41
94.45292969749255
 71
     1
 72
     1
  1

1001
ACAD
1000
MTEXTBEGIN
1070
    73
1070
     1
1070
    44
1040
1.0
1070
    74
1070
     0
1000
MTEXTEND
1000
MTEXTBEGIN
1070
    73
1070
     1
1070
    44
1040
1.0
1070
    74
1070
     0
1000
MTEXTEND
1000
MTEXTBEGIN
1070
    73
1070
     1
1070
    44
1040
1.0
1070
    74
1070
     0
1000
MTEXTEND
  0
MTEXT
  5
ADB
330
18
100
AcDbEntity
  8
0
100
AcDbMText
 10
778.0998663338302
 20
115.7015874657983
 30
0.0
 40
0.4000000000000007
 41
90.88866833940949
 71
     1
 72
     1
  1

1001
ACAD
1000
MTEXTBEGIN
1070
    73
1070
     1
1070
    44
1040
1.0
1070
    74
1070
     0
1000
MTEXTEND
1000
MTEXTBEGIN
1070
    73
1070
     1
1070
    44
1040
1.0
1070
    74
1070
     0
1000
MTEXTEND
1000
MTEXTBEGIN
1070
    73
1070
     1
1070
    44
1040
1.0
1070
    74
1070
     0
1000
MTEXTEND
  0
MTEXT
  5
ADC
330
18
100
AcDbEntity
  8
0
100
AcDbMText
 10
767.407082259582
 20
-95.9724928109855
 30
0.0
 40
0.4000000000000007
 41
103.3635830926997
 71
     1
 72
     1
  1

1001
ACAD
1000
MTEXTBEGIN
1070
    73
1070
     1
1070
    44
1040
1.0
1070
    74
1070
     0
1000
MTEXTEND
1000
MTEXTBEGIN
1070
    73
1070
     1
1070
    44
1040
1.0
1070
    74
1070
     0
1000
MTEXTEND
1000
MTEXTBEGIN
1070
    73
1070
     1
1070
    44
1040
1.0
1070
    74
1070
     0
1000
MTEXTEND
  0
TEXT
  5
2529
330
18
100
AcDbEntity
  8
0
  6
CONTINUOUS
100
AcDbText
 10
552.453513939585
 20
14.74696273991631
 30
0.0
 40
4.307692307692313
  1
VP1
 41
0.9
  7
PTSH
 72
     1
 11
556.6996677857389
 21
16.90080889376247
 31
0.0
100
AcDbText
 73
     2
  0
POLYLINE
  5
2563
330
18
100
AcDbEntity
  8
0
100
AcDb2dPolyline
 66
     1
 10
0.0
 20
0.0
 30
0.0
 70
     1
  0
VERTEX
  5
44B9
330
2563
100
AcDbEntity
  8
0
100
AcDbVertex
100
AcDb2dVertex
 10
22.00000000000002
 20
10.00000000000001
 30
0.0
  0
VERTEX
  5
44BA
330
2563
100
AcDbEntity
  8
0
100
AcDbVertex
100
AcDb2dVertex
 10
572.0000000000009
 20
10.00000000000001
 30
0.0
  0
VERTEX
  5
44BB
330
2563
100
AcDbEntity
  8
0
100
AcDbVertex
100
AcDb2dVertex
 10
572.0000000000009
 20
382.0000000000004
 30
0.0
  0
VERTEX
  5
44BC
330
2563
100
AcDbEntity
  8
0
100
AcDbVertex
100
AcDb2dVertex
 10
22.00000000000002
 20
382.0000000000004
 30
0.0
  0
SEQEND
  5
44BD
330
2563
100
AcDbEntity
  8
0
  0
TEXT
  5
3225
330
18
100
AcDbEntity
  8
0
100
AcDbText
 10
258.9349998884779
 20
34.95649704844611
 30
0.0
 40
10.0
  1
TLV-VP1
100
AcDbText
  0
TEXT
  5
3235
330
18
100
AcDbEntity
  8
0
100
AcDbText
 10
125.223307412316
 20
140.4232093640042
 30
0.0
 40
8.0
  1
正面
100
AcDbText
  0
TEXT
  5
32EA
330
18
100
AcDbEntity
  8
0
100
AcDbText
 10
126.4137124731151
 20
290.1983310418191
 30
0.0
 40
8.0
  1
背面
100
AcDbText
  0
TEXT
  5
32EB
330
18
100
AcDbEntity
  8
0
100
AcDbText
 10
126.4137124731151
 20
218.1123297522283
 30
0.0
 40
8.0
  1
平面
100
AcDbText
  0
LINE
  5
333E
330
18
100
AcDbEntity
  8
0
100
AcDbLine
 10
287.2324856154239
 20
97.58923055572653
 30
0.0
 11
287.2324856154239
 21
78.19699978649556
 31
0.0
  0
LINE
  5
333F
330
18
100
AcDbEntity
  8
0
100
AcDbLine
 10
291.1107933077314
 20
74.31869209418803
 30
0.0
 11
291.1107933077314
 21
85.95361517111122
 31
0.0
  0
LINE
  5
3340
330
18
100
AcDbEntity
  8
0
100
AcDbLine
 10
291.1107933077314
 20
93.62646132495761
 30
0.0
 11
287.2324856154239
 21
97.58923055572653
 31
0.0
  0
LINE
  5
3341
330
18
100
AcDbEntity
  8
0
100
AcDbLine
 10
291.1107933077314
 20
85.95361517111122
 30
0.0
 11
289.1716394615776
 21
87.89346132495742
 31
0.0
  0
LINE
  5
3342
330
18
100
AcDbEntity
  8
0
100
AcDbLine
 10
289.1716394615776
 20
93.62646132495761
 30
0.0
 11
291.1107933077314
 21
93.62646132495761
 31
0.0
  0
LINE
  5
3343
330
18
100
AcDbEntity
  8
0
100
AcDbLine
 10
289.1716394615776
 20
87.89346132495742
 30
0.0
 11
289.1716394615776
 21
93.62646132495761
 31
0.0
  0
LINE
  5
3344
330
18
100
AcDbEntity
  8
0
100
AcDbLine
 10
287.2324856154239
 20
78.19699978649556
 30
0.0
 11
291.1107933077314
 21
74.31869209418803
 31
0.0
  0
LINE
  5
421B
330
18
100
AcDbEntity
  8
0
100
AcDbLine
 10
329.4022514687098
 20
147.8063124072232
 30
0.0
 11
329.402121171585
 21
131.0749770745655
 31
0.0
  0
LINE
  5
421C
330
18
100
AcDbEntity
  8
0
100
AcDbLine
 10
370.3429657394264
 20
153.477339273984
 30
0.0
 11
370.3427944114777
 21
131.477273139626
 31
0.0
  0
LINE
  5
421D
330
18
100
AcDbEntity
  8
0
100
AcDbLine
 10
378.9019952929376
 20
153.4772064845694
 30
0.0
 11
378.9018239655039
 21
131.4772064852365
 31
0.0
  0
LINE
  5
421E
330
18
100
AcDbEntity
  8
0
100
AcDbLine
 10
196.64723913516
 20
153.477916149107
 30
0.0
 11
196.64723913516
 21
131.477916149107
 31
0.0
  0
LINE
  5
421F
330
18
100
AcDbEntity
  8
0
100
AcDbLine
 10
205.2062686894458
 20
153.477982284132
 30
0.0
 11
205.2062686894458
 21
131.4779161491069
 31
0.0
  0
LINE
  5
4220
330
18
100
AcDbEntity
  8
0
100
AcDbLine
 10
246.1469387951719
 20
147.8066365872019
 30
0.0
 11
246.1469387951719
 21
131.0753012540369
 31
0.0
  0
LINE
  5
4221
330
18
100
AcDbEntity
  8
0
100
AcDbLine
 10
263.7748503397824
 20
147.8067300371072
 30
0.0
 11
263.77478519122
 21
131.075394704069
 31
0.0
  0
LINE
  5
4222
330
18
100
AcDbEntity
  8
0
100
AcDbLine
 10
270.7749479932302
 20
132.4779166145425
 30
0.0
 11
270.7749479932302
 21
152.4779163313946
 31
0.0
  0
LINE
  5
4223
330
18
100
AcDbEntity
  8
0
100
AcDbLine
 10
311.7741198845077
 20
147.8066365872019
 30
0.0
 11
311.7741198845078
 21
131.0753012540369
 31
0.0
  0
LINE
  5
4224
330
18
100
AcDbEntity
  8
0
100
AcDbLine
 10
304.7749475118787
 20
132.4779166145424
 30
0.0
 11
304.7749475118787
 21
152.4779163313946
 31
0.0
  0
ARC
  5
4225
330
18
100
AcDbEntity
  8
0
100
AcDbCircle
 10
222.3972858544787
 20
141.3821315323688
 30
0.0
 40
28.9052961738644
100
AcDbArc
 50
269.5043537934413
 51
288.1904767304244
  0
LINE
  5
4226
330
18
100
AcDbEntity
  8
0
100
AcDbLine
 10
222.1473384269793
 20
128.4779166735484
 30
0.0
 11
244.6473381084379
 21
128.4779166735484
 31
0.0
  0
LINE
  5
4227
330
18
100
AcDbEntity
  8
0
100
AcDbLine
 10
246.1469387951719
 20
131.0753012540369
 30
0.0
 11
222.1473384269793
 21
131.075301254037
 31
0.0
  0
LINE
  5
4228
330
18
100
AcDbEntity
  8
0
100
AcDbLine
 10
222.1472352411402
 20
112.4779168994489
 30
0.0
 11
242.1471384978165
 21
112.4779168994491
 31
0.0
  0
LINE
  5
4229
330
18
100
AcDbEntity
  8
0
100
AcDbLine
 10
212.8736211119026
 20
113.9214439273281
 30
0.0
 11
212.8736777921141
 21
128.4779527830969
 31
0.0
  0
LINE
  5
422A
330
18
100
AcDbEntity
  8
0
100
AcDbLine
 10
209.0305301356706
 20
113.9214588915762
 30
0.0
 11
209.0305868158821
 21
128.477967747345
 31
0.0
  0
LINE
  5
422B
330
18
100
AcDbEntity
  8
0
100
AcDbLine
 10
199.6471379946854
 20
113.9214954286783
 30
0.0
 11
199.6471946748969
 21
128.4780042844472
 31
0.0
  0
LINE
  5
422C
330
18
100
AcDbEntity
  8
0
100
AcDbLine
 10
222.1472352411402
 20
112.4779168994489
 30
0.0
 11
202.1473319846154
 21
112.4779947751785
 31
0.0
  0
LINE
  5
422D
330
18
100
AcDbEntity
  8
0
100
AcDbLine
 10
209.0305301356706
 20
113.9214588915762
 30
0.0
 11
212.8736211119026
 21
113.9214439273281
 31
0.0
  0
ARC
  5
422E
330
18
100
AcDbEntity
  8
0
100
AcDbCircle
 10
204.338860946688
 20
120.8251376841975
 30
0.0
 40
8.347007886095404
100
AcDbArc
 50
235.7999289208033
 51
304.1996248819779
  0
LINE
  5
422F
330
18
100
AcDbEntity
  8
0
100
AcDbLine
 10
202.1473319846154
 20
112.4779947751785
 30
0.0
 11
199.6471379946855
 21
113.9214954286782
 31
0.0
  0
ARC
  5
4230
330
18
100
AcDbEntity
  8
0
100
AcDbCircle
 10
221.8972971751878
 20
141.3821325057981
 30
0.0
 40
28.9052961738644
100
AcDbArc
 50
251.809300170969
 51
270.4954231079466
  0
LINE
  5
4231
330
18
100
AcDbEntity
  8
0
100
AcDbLine
 10
198.1476041018842
 20
131.075394704069
 30
0.0
 11
222.1472044698948
 21
131.0753012542978
 31
0.0
  0
LINE
  5
4232
330
18
100
AcDbEntity
  8
0
100
AcDbLine
 10
222.147194356185
 20
128.4779166738288
 30
0.0
 11
199.6471946748969
 21
128.4780042844472
 31
0.0
  0
LINE
  5
4233
330
18
100
AcDbEntity
  8
0
100
AcDbLine
 10
205.2062686894457
 20
131.4779161491069
 30
0.0
 11
196.64723913516
 21
131.477916149107
 31
0.0
  0
LINE
  5
4234
330
18
100
AcDbEntity
  8
0
100
AcDbLine
 10
199.6471946748969
 20
128.4780042844472
 30
0.0
 11
198.1476041018842
 21
131.075394704069
 31
0.0
  0
LINE
  5
4235
330
18
100
AcDbEntity
  8
0
100
AcDbLine
 10
198.1476056692244
 20
131.477916149107
 30
0.0
 11
198.1476041018842
 21
131.075394704069
 31
0.0
  0
LINE
  5
4236
330
18
100
AcDbEntity
  8
0
100
AcDbLine
 10
235.2639459673816
 20
113.9214078176692
 30
0.0
 11
235.2639459673816
 21
128.4779166735484
 31
0.0
  0
LINE
  5
4237
330
18
100
AcDbEntity
  8
0
100
AcDbLine
 10
231.4208549911205
 20
113.9214078176692
 30
0.0
 11
231.4208549911205
 21
128.4779166735484
 31
0.0
  0
LINE
  5
4238
330
18
100
AcDbEntity
  8
0
100
AcDbLine
 10
244.6473381084379
 20
113.9214078176692
 30
0.0
 11
244.6473381084379
 21
128.4779166735484
 31
0.0
  0
ARC
  5
4239
330
18
100
AcDbEntity
  8
0
100
AcDbCircle
 10
239.9556420379097
 20
120.8250683417919
 30
0.0
 40
8.347007886095404
100
AcDbArc
 50
235.8001520194129
 51
304.199847980587
  0
LINE
  5
423A
330
18
100
AcDbEntity
  8
0
100
AcDbLine
 10
242.1471384978165
 20
112.4779168994491
 30
0.0
 11
244.6473381084379
 21
113.9214078176692
 31
0.0
  0
LINE
  5
423B
330
18
100
AcDbEntity
  8
0
100
AcDbLine
 10
235.2639459673816
 20
113.9214078176692
 30
0.0
 11
231.4208549911205
 21
113.9214078176692
 31
0.0
  0
LINE
  5
423C
330
18
100
AcDbEntity
  8
0
100
AcDbLine
 10
244.6473381084379
 20
128.4779166735484
 30
0.0
 11
246.1469387951719
 21
131.0753012540369
 31
0.0
  0
LINE
  5
423D
330
18
100
AcDbEntity
  8
0
100
AcDbLine
 10
271.7749479790728
 20
131.4779166286999
 30
0.0
 11
303.7749475260362
 21
131.4779166286998
 31
0.0
  0
LINE
  5
423E
330
18
100
AcDbEntity
  8
0
100
AcDbLine
 10
287.774416330476
 20
112.477916899449
 30
0.0
 11
307.7743195871524
 21
112.4779168994491
 31
0.0
  0
LINE
  5
423F
330
18
100
AcDbEntity
  8
0
100
AcDbLine
 10
311.7741198845078
 20
131.0753012540369
 30
0.0
 11
287.7745195163152
 21
131.075301254037
 31
0.0
  0
LINE
  5
4240
330
18
100
AcDbEntity
  8
0
100
AcDbLine
 10
287.7745195163152
 20
128.4779166735484
 30
0.0
 11
310.2745191977738
 21
128.4779166735484
 31
0.0
  0
ARC
  5
4241
330
18
100
AcDbEntity
  8
0
100
AcDbCircle
 10
288.0244669438146
 20
141.3821315323688
 30
0.0
 40
28.9052961738644
100
AcDbArc
 50
269.5043537934413
 51
288.1904767304244
  0
LINE
  5
4242
330
18
100
AcDbEntity
  8
0
100
AcDbLine
 10
265.2743190840213
 20
113.9214954286783
 30
0.0
 11
265.2743757642328
 21
128.4780042844472
 31
0.0
  0
LINE
  5
4243
330
18
100
AcDbEntity
  8
0
100
AcDbLine
 10
274.6577112250065
 20
113.9214588915762
 30
0.0
 11
274.657767905218
 21
128.477967747345
 31
0.0
  0
LINE
  5
4244
330
18
100
AcDbEntity
  8
0
100
AcDbLine
 10
278.5008022012385
 20
113.9214439273281
 30
0.0
 11
278.50085888145
 21
128.4779527830969
 31
0.0
  0
LINE
  5
4245
330
18
100
AcDbEntity
  8
0
100
AcDbLine
 10
274.6577112250065
 20
113.9214588915762
 30
0.0
 11
278.5008022012385
 21
113.9214439273281
 31
0.0
  0
LINE
  5
4246
330
18
100
AcDbEntity
  8
0
100
AcDbLine
 10
287.774416330476
 20
112.477916899449
 30
0.0
 11
267.7745130739513
 21
112.4779947751785
 31
0.0
  0
ARC
  5
4247
330
18
100
AcDbEntity
  8
0
100
AcDbCircle
 10
269.9660420360239
 20
120.8251376841975
 30
0.0
 40
8.347007886095404
100
AcDbArc
 50
235.7999289208033
 51
304.1996248819779
  0
LINE
  5
4248
330
18
100
AcDbEntity
  8
0
100
AcDbLine
 10
267.7745130739513
 20
112.4779947751785
 30
0.0
 11
265.2743190840213
 21
113.9214954286783
 31
0.0
  0
ARC
  5
4249
330
18
100
AcDbEntity
  8
0
100
AcDbCircle
 10
287.5244782645236
 20
141.3821325057981
 30
0.0
 40
28.9052961738644
100
AcDbArc
 50
251.809300170969
 51
270.4954231079466
  0
LINE
  5
424A
330
18
100
AcDbEntity
  8
0
100
AcDbLine
 10
287.7743754455209
 20
128.4779166738289
 30
0.0
 11
265.2743757642328
 21
128.4780042844472
 31
0.0
  0
LINE
  5
424B
330
18
100
AcDbEntity
  8
0
100
AcDbLine
 10
263.77478519122
 20
131.075394704069
 30
0.0
 11
287.7743855592307
 21
131.0753012542978
 31
0.0
  0
LINE
  5
424C
330
18
100
AcDbEntity
  8
0
100
AcDbLine
 10
265.2743757642328
 20
128.4780042844472
 30
0.0
 11
263.77478519122
 21
131.075394704069
 31
0.0
  0
ARC
  5
424D
330
18
100
AcDbEntity
  8
0
100
AcDbCircle
 10
271.7749479790728
 20
132.4779166145425
 30
0.0
 40
0.9999999858426043
100
AcDbArc
 50
180.0
 51
270.0
  0
LINE
  5
424E
330
18
100
AcDbEntity
  8
0
100
AcDbLine
 10
310.2745191977738
 20
113.9214078176692
 30
0.0
 11
310.2745191977738
 21
128.4779166735484
 31
0.0
  0
LINE
  5
424F
330
18
100
AcDbEntity
  8
0
100
AcDbLine
 10
297.0480360804563
 20
113.9214078176692
 30
0.0
 11
297.0480360804563
 21
128.4779166735484
 31
0.0
  0
LINE
  5
4250
330
18
100
AcDbEntity
  8
0
100
AcDbLine
 10
300.8911270567175
 20
113.9214078176692
 30
0.0
 11
300.8911270567175
 21
128.4779166735484
 31
0.0
  0
LINE
  5
4251
330
18
100
AcDbEntity
  8
0
100
AcDbLine
 10
307.7743195871524
 20
112.4779168994491
 30
0.0
 11
310.2745191977738
 21
113.9214078176692
 31
0.0
  0
ARC
  5
4252
330
18
100
AcDbEntity
  8
0
100
AcDbCircle
 10
305.5828231272456
 20
120.8250683417919
 30
0.0
 40
8.347007886095404
100
AcDbArc
 50
235.8001520194129
 51
304.199847980587
  0
LINE
  5
4253
330
18
100
AcDbEntity
  8
0
100
AcDbLine
 10
300.8911270567175
 20
113.9214078176692
 30
0.0
 11
297.0480360804563
 21
113.9214078176692
 31
0.0
  0
ARC
  5
4254
330
18
100
AcDbEntity
  8
0
100
AcDbCircle
 10
303.7749475260361
 20
132.4779166145424
 30
0.0
 40
0.9999999858426043
100
AcDbArc
 50
270.0
 51
0.0
  0
LINE
  5
4255
330
18
100
AcDbEntity
  8
0
100
AcDbLine
 10
310.2745191977738
 20
128.4779166735484
 30
0.0
 11
311.7741198845077
 21
131.0753012540369
 31
0.0
  0
LINE
  5
4256
330
18
100
AcDbEntity
  8
0
100
AcDbLine
 10
353.4018453824244
 20
128.4774055937715
 30
0.0
 11
375.9018450637125
 21
128.4773179831533
 31
0.0
  0
LINE
  5
4257
330
18
100
AcDbEntity
  8
0
100
AcDbLine
 10
377.401455864145
 20
131.0746967244689
 30
0.0
 11
353.4018554961344
 21
131.0747901742404
 31
0.0
  0
ARC
  5
4258
330
18
100
AcDbEntity
  8
0
100
AcDbCircle
 10
353.6518430564223
 20
141.3816194792476
 30
0.0
 40
28.9052961738644
100
AcDbArc
 50
269.5041306948315
 51
288.190253631812
  0
LINE
  5
4259
330
18
100
AcDbEntity
  8
0
100
AcDbLine
 10
353.4016798957011
 20
112.4774058201952
 30
0.0
 11
373.4015831522258
 21
112.4773279444657
 31
0.0
  0
LINE
  5
425A
330
18
100
AcDbEntity
  8
0
100
AcDbLine
 10
330.9015882704308
 20
113.9210719604118
 30
0.0
 11
330.9017016308537
 21
128.4775808158496
 31
0.0
  0
LINE
  5
425B
330
18
100
AcDbEntity
  8
0
100
AcDbLine
 10
344.1280713873472
 20
113.9209689577114
 30
0.0
 11
344.1281847477702
 21
128.4774778131492
 31
0.0
  0
LINE
  5
425C
330
18
100
AcDbEntity
  8
0
100
AcDbLine
 10
340.2849804112026
 20
113.9209988862075
 30
0.0
 11
340.2850937716256
 21
128.4775077416453
 31
0.0
  0
LINE
  5
425D
330
18
100
AcDbEntity
  8
0
100
AcDbLine
 10
340.2849804112026
 20
113.9209988862075
 30
0.0
 11
344.1280713873472
 21
113.9209689577114
 31
0.0
  0
LINE
  5
425E
330
18
100
AcDbEntity
  8
0
100
AcDbLine
 10
353.4016798957011
 20
112.4774058201952
 30
0.0
 11
333.4017766396312
 21
112.4775615716544
 31
0.0
  0
ARC
  5
425F
330
18
100
AcDbEntity
  8
0
100
AcDbCircle
 10
335.5933381038368
 20
120.824695947223
 30
0.0
 40
8.347007886095404
100
AcDbArc
 50
235.7997058221906
 51
304.1994017833676
  0
LINE
  5
4260
330
18
100
AcDbEntity
  8
0
100
AcDbLine
 10
333.4017766396312
 20
112.4775615716544
 30
0.0
 11
330.9015882704308
 21
113.9210719604118
 31
0.0
  0
ARC
  5
4261
330
18
100
AcDbEntity
  8
0
100
AcDbCircle
 10
353.151854377139
 20
141.3816223995354
 30
0.0
 40
28.9052961738644
100
AcDbArc
 50
251.8090770723547
 51
270.4952000093388
  0
LINE
  5
4262
330
18
100
AcDbEntity
  8
0
100
AcDbLine
 10
329.402121171585
 20
131.0749770745656
 30
0.0
 11
353.4017215390499
 21
131.0747901750229
 31
0.0
  0
LINE
  5
4263
330
18
100
AcDbEntity
  8
0
100
AcDbLine
 10
353.4017013116301
 20
128.477405594613
 30
0.0
 11
330.9017016308537
 21
128.4775808158496
 31
0.0
  0
LINE
  5
4264
330
18
100
AcDbEntity
  8
0
100
AcDbLine
 10
330.9017016308537
 20
128.4775808158496
 30
0.0
 11
329.402121171585
 21
131.0749770745655
 31
0.0
  0
LINE
  5
4265
330
18
100
AcDbEntity
  8
0
100
AcDbLine
 10
375.901788383501
 20
113.9208091273845
 30
0.0
 11
375.9018450637125
 21
128.4773179831533
 31
0.0
  0
LINE
  5
4266
330
18
100
AcDbEntity
  8
0
100
AcDbLine
 10
366.5183962425158
 20
113.9208456644867
 30
0.0
 11
366.5184529227273
 21
128.4773545202554
 31
0.0
  0
LINE
  5
4267
330
18
100
AcDbEntity
  8
0
100
AcDbLine
 10
362.6753052662838
 20
113.9208606287347
 30
0.0
 11
362.6753619464953
 21
128.4773694845035
 31
0.0
  0
LINE
  5
4268
330
18
100
AcDbEntity
  8
0
100
AcDbLine
 10
373.4015831522258
 20
112.4773279444657
 30
0.0
 11
375.901788383501
 21
113.9208091273844
 31
0.0
  0
ARC
  5
4269
330
18
100
AcDbEntity
  8
0
100
AcDbCircle
 10
371.2101191945185
 20
120.8244879200058
 30
0.0
 40
8.347007886095404
100
AcDbArc
 50
235.7999289207997
 51
304.1996248819771
  0
LINE
  5
426A
330
18
100
AcDbEntity
  8
0
100
AcDbLine
 10
366.5183962425158
 20
113.9208456644867
 30
0.0
 11
362.6753052662838
 21
113.9208606287347
 31
0.0
  0
LINE
  5
426B
330
18
100
AcDbEntity
  8
0
100
AcDbLine
 10
370.3427944114778
 20
131.477273139626
 30
0.0
 11
378.9018239655039
 21
131.4772064852365
 31
0.0
  0
LINE
  5
426C
330
18
100
AcDbEntity
  8
0
100
AcDbLine
 10
375.9018450637125
 20
128.4773179831533
 30
0.0
 11
377.401455864145
 21
131.0746967244689
 31
0.0
  0
LINE
  5
426D
330
18
100
AcDbEntity
  8
0
100
AcDbLine
 10
377.4014574314851
 20
131.4772181695069
 30
0.0
 11
377.401455864145
 21
131.0746967244689
 31
0.0
  0
LINE
  5
426E
330
18
100
AcDbEntity
  8
0
100
AcDbLine
 10
301.3913279113524
 20
337.6999049016294
 30
0.0
 11
301.3913279113524
 21
327.1433958198343
 31
0.0
  0
LINE
  5
426F
330
18
100
AcDbEntity
  8
0
100
AcDbLine
 10
297.5482369350913
 20
337.6999049016294
 30
0.0
 11
297.5482369350913
 21
327.1433958198343
 31
0.0
  0
LINE
  5
4270
330
18
100
AcDbEntity
  8
0
100
AcDbLine
 10
310.7747200524087
 20
337.6999049016294
 30
0.0
 11
310.7747200524087
 21
327.1433958198343
 31
0.0
  0
LINE
  5
4271
330
18
100
AcDbEntity
  8
0
100
AcDbLine
 10
275.1579120796414
 20
337.6998538277224
 30
0.0
 11
275.1579531844337
 21
327.1433958198343
 31
0.0
  0
LINE
  5
4272
330
18
100
AcDbEntity
  8
0
100
AcDbLine
 10
265.7745199386563
 20
337.6998172906203
 30
0.0
 11
265.7745610433063
 21
327.1433958198343
 31
0.0
  0
LINE
  5
4273
330
18
100
AcDbEntity
  8
0
100
AcDbLine
 10
279.0010030558734
 20
337.6998687919705
 30
0.0
 11
279.0010441607239
 21
327.1433958198343
 31
0.0
  0
LINE
  5
4274
330
18
100
AcDbEntity
  8
0
100
AcDbLine
 10
205.2062686894458
 20
147.806716294701
 30
0.0
 11
246.1469387951719
 21
147.8066365872017
 31
0.0
  0
LINE
  5
4275
330
18
100
AcDbEntity
  8
0
100
AcDbLine
 10
222.1473170110505
 20
153.4779163189957
 30
0.0
 11
247.1473384270268
 21
153.4779163189957
 31
0.0
  0
LINE
  5
4276
330
18
100
AcDbEntity
  8
0
100
AcDbLine
 10
222.1473170110505
 20
153.4779163189957
 30
0.0
 11
247.1473384270268
 21
153.4779163189957
 31
0.0
  0
LINE
  5
4277
330
18
100
AcDbEntity
  8
0
100
AcDbLine
 10
222.1473384269793
 20
165.4779161491069
 30
0.0
 11
247.1473384270268
 21
165.4779161491069
 31
0.0
  0
LINE
  5
4278
330
18
100
AcDbEntity
  8
0
100
AcDbLine
 10
199.1473384269793
 20
170.4779161491069
 30
0.0
 11
245.1473384269794
 21
170.4779161491069
 31
0.0
  0
ARC
  5
4279
330
18
100
AcDbEntity
  8
0
100
AcDbCircle
 10
222.3973929521718
 20
153.5737015162024
 30
0.0
 40
28.9052961738644
100
AcDbArc
 50
71.80952326957561
 51
90.49564620655871
  0
LINE
  5
427A
330
18
100
AcDbEntity
  8
0
100
AcDbLine
 10
222.1473423388332
 20
182.4779161491222
 30
0.0
 11
242.1472455955096
 21
182.4779161491221
 31
0.0
  0
LINE
  5
427B
330
18
100
AcDbEntity
  8
0
100
AcDbLine
 10
197.1473384269794
 20
165.4779161491069
 30
0.0
 11
247.1473384269793
 21
165.4779161491069
 31
0.0
  0
ARC
  5
427C
330
18
100
AcDbEntity
  8
0
100
AcDbCircle
 10
199.1473384269793
 20
168.4779161491069
 30
0.0
 40
2.0
100
AcDbArc
 50
90.0
 51
180.0
  0
LINE
  5
427D
330
18
100
AcDbEntity
  8
0
100
AcDbLine
 10
222.1473131172452
 20
153.4779163190033
 30
0.0
 11
197.1472917014585
 21
153.4780136642194
 31
0.0
  0
LINE
  5
427E
330
18
100
AcDbEntity
  8
0
100
AcDbLine
 10
222.1473384269793
 20
165.4779161491069
 30
0.0
 11
197.1473384271215
 21
165.4780134942397
 31
0.0
  0
LINE
  5
427F
330
18
100
AcDbEntity
  8
0
100
AcDbLine
 10
197.147738427116
 20
165.4780134926823
 30
0.0
 11
197.1476917014529
 21
153.4780136626619
 31
0.0
  0
LINE
  5
4280
330
18
100
AcDbEntity
  8
0
100
AcDbLine
 10
205.2062686894457
 20
153.477982284132
 30
0.0
 11
197.1472917014585
 21
153.4780136642194
 31
0.0
  0
LINE
  5
4281
330
18
100
AcDbEntity
  8
0
100
AcDbLine
 10
197.1473384269794
 20
153.4779161491069
 30
0.0
 11
196.64723913516
 21
153.477916149107
 31
0.0
  0
LINE
  5
4282
330
18
100
AcDbEntity
  8
0
100
AcDbLine
 10
197.1473384269794
 20
165.4779161491069
 30
0.0
 11
197.1473384269794
 21
168.4779161491069
 31
0.0
  0
LINE
  5
4283
330
18
100
AcDbEntity
  8
0
100
AcDbLine
 10
222.1473423388332
 20
182.4779161491222
 30
0.0
 11
202.1474390823084
 21
182.4778382733926
 31
0.0
  0
LINE
  5
4284
330
18
100
AcDbEntity
  8
0
100
AcDbLine
 10
209.0306372333636
 20
181.0343741569949
 30
0.0
 11
212.8737282095956
 21
181.0343891212431
 31
0.0
  0
ARC
  5
4285
330
18
100
AcDbEntity
  8
0
100
AcDbCircle
 10
204.338968044381
 20
174.1306953643737
 30
0.0
 40
8.347007886095404
100
AcDbArc
 50
55.80037511802199
 51
124.2000710791966
  0
LINE
  5
4286
330
18
100
AcDbEntity
  8
0
100
AcDbLine
 10
202.1474390823084
 20
182.4778382733926
 30
0.0
 11
199.6472450923785
 21
181.034337619893
 31
0.0
  0
LINE
  5
4287
330
18
100
AcDbEntity
  8
0
100
AcDbLine
 10
199.6472450923785
 20
181.0343376198929
 30
0.0
 11
199.6472861970285
 21
170.4779161491069
 31
0.0
  0
LINE
  5
4288
330
18
100
AcDbEntity
  8
0
100
AcDbLine
 10
209.0306372333636
 20
181.0343741569949
 30
0.0
 11
209.030678338156
 21
170.4779161491069
 31
0.0
  0
ARC
  5
4289
330
18
100
AcDbEntity
  8
0
100
AcDbCircle
 10
221.8974042728808
 20
153.5737005427731
 30
0.0
 40
28.9052961738644
100
AcDbArc
 50
89.50457689205334
 51
108.1906998290309
  0
LINE
  5
428A
330
18
100
AcDbEntity
  8
0
100
AcDbLine
 10
212.8737282095956
 20
181.0343891212431
 30
0.0
 11
212.8737693144461
 21
170.4779161491069
 31
0.0
  0
ARC
  5
428B
330
18
100
AcDbEntity
  8
0
100
AcDbCircle
 10
245.1473384269794
 20
168.4779161491069
 30
0.0
 40
2.0
100
AcDbArc
 50
0.0
 51
90.0
  0
LINE
  5
428C
330
18
100
AcDbEntity
  8
0
100
AcDbLine
 10
247.1469384270322
 20
165.477916149107
 30
0.0
 11
247.1469384270323
 21
153.4779163189957
 31
0.0
  0
LINE
  5
428D
330
18
100
AcDbEntity
  8
0
100
AcDbLine
 10
247.1469384270323
 20
153.4779163189957
 30
0.0
 11
246.1469387951719
 21
147.8066365872017
 31
0.0
  0
POINT
  5
428E
330
18
100
AcDbEntity
  8
0
  6
BYBLOCK
100
AcDbPoint
 10
247.1473384270268
 20
165.4779161491069
 30
0.0
  0
POINT
  5
428F
330
18
100
AcDbEntity
  8
0
  6
BYBLOCK
100
AcDbPoint
 10
247.1473384270268
 20
165.4779161491069
 30
0.0
  0
LINE
  5
4290
330
18
100
AcDbEntity
  8
0
100
AcDbLine
 10
247.1473384269793
 20
165.4779161491069
 30
0.0
 11
247.1473384269794
 21
168.4779161491069
 31
0.0
  0
ARC
  5
4291
330
18
100
AcDbEntity
  8
0
100
AcDbCircle
 10
239.9557491356028
 20
174.1307647067793
 30
0.0
 40
8.347007886095404
100
AcDbArc
 50
55.80015201941295
 51
124.199847980587
  0
LINE
  5
4292
330
18
100
AcDbEntity
  8
0
100
AcDbLine
 10
242.1472455955096
 20
182.4779161491221
 30
0.0
 11
244.6474452061309
 21
181.034425230902
 31
0.0
  0
LINE
  5
4293
330
18
100
AcDbEntity
  8
0
100
AcDbLine
 10
235.2640530650746
 20
181.034425230902
 30
0.0
 11
235.2640530650746
 21
170.4779161491069
 31
0.0
  0
LINE
  5
4294
330
18
100
AcDbEntity
  8
0
100
AcDbLine
 10
231.4209620888135
 20
181.034425230902
 30
0.0
 11
231.4209620888135
 21
170.4779161491069
 31
0.0
  0
LINE
  5
4295
330
18
100
AcDbEntity
  8
0
100
AcDbLine
 10
235.2640530650746
 20
181.034425230902
 30
0.0
 11
231.4209620888135
 21
181.034425230902
 31
0.0
  0
LINE
  5
4296
330
18
100
AcDbEntity
  8
0
100
AcDbLine
 10
244.6474452061309
 20
181.034425230902
 30
0.0
 11
244.6474452061309
 21
170.4779161491069
 31
0.0
  0
ARC
  5
4299
330
18
100
AcDbEntity
  8
0
100
AcDbCircle
 10
287.774416330476
 20
228.1431889184296
 30
0.0
 40
25.0
100
AcDbArc
 50
0.0
 51
180.0
  0
ARC
  5
429A
330
18
100
AcDbEntity
  8
0
100
AcDbCircle
 10
287.774416330476
 20
228.1431889184296
 30
0.0
 40
24.0
100
AcDbArc
 50
0.0
 51
180.0
  0
ARC
  5
429B
330
18
100
AcDbEntity
  8
0
100
AcDbCircle
 10
287.774416330476
 20
228.1431882915443
 30
0.0
 40
20.0
100
AcDbArc
 50
0.0000017958936362
 51
179.9999982041063
  0
ARC
  5
429C
330
18
100
AcDbEntity
  8
0
100
AcDbCircle
 10
287.774416330476
 20
228.1431889184297
 30
0.0
 40
15.1455
100
AcDbArc
 50
0.0
 51
180.0
  0
LINE
  5
429D
330
18
100
AcDbEntity
  8
0
100
AcDbLine
 10
262.7745195163152
 20
165.477916149107
 30
0.0
 11
312.7745195163152
 21
165.477916149107
 31
0.0
  0
LINE
  5
429E
330
18
100
AcDbEntity
  8
0
100
AcDbLine
 10
287.7745234281691
 20
182.4779161491223
 30
0.0
 11
307.7744266848454
 21
182.4779161491221
 31
0.0
  0
ARC
  5
429F
330
18
100
AcDbEntity
  8
0
100
AcDbCircle
 10
288.0245740415076
 20
153.5737015162024
 30
0.0
 40
28.9052961738644
100
AcDbArc
 50
71.80952326957561
 51
90.49564620655871
  0
LINE
  5
42A0
330
18
100
AcDbEntity
  8
0
100
AcDbLine
 10
264.7745195163152
 20
170.477916149107
 30
0.0
 11
310.7745195163153
 21
170.477916149107
 31
0.0
  0
LINE
  5
42A1
330
18
100
AcDbEntity
  8
0
100
AcDbLine
 10
271.7749479790728
 20
153.4779163172372
 30
0.0
 11
303.7749475260362
 21
153.4779163172372
 31
0.0
  0
LINE
  5
42A2
330
18
100
AcDbEntity
  8
0
100
AcDbLine
 10
287.7745195163152
 20
165.477916149107
 30
0.0
 11
312.7745195163626
 21
165.477916149107
 31
0.0
  0
LINE
  5
42A3
330
18
100
AcDbEntity
  8
0
100
AcDbLine
 10
287.7744981003863
 20
153.4779163189957
 30
0.0
 11
312.7745195163626
 21
153.4779163189957
 31
0.0
  0
LINE
  5
42A4
330
18
100
AcDbEntity
  8
0
100
AcDbLine
 10
287.7744981003863
 20
153.4779163189957
 30
0.0
 11
312.7745195163626
 21
153.4779163189957
 31
0.0
  0
ARC
  5
42A5
330
18
100
AcDbEntity
  8
0
100
AcDbCircle
 10
264.7745195163152
 20
168.477916149107
 30
0.0
 40
2.0
100
AcDbArc
 50
90.0
 51
180.0
  0
LINE
  5
42A6
330
18
100
AcDbEntity
  8
0
100
AcDbLine
 10
287.7745195163152
 20
165.477916149107
 30
0.0
 11
262.7745195164574
 21
165.4780134942397
 31
0.0
  0
LINE
  5
42A7
330
18
100
AcDbEntity
  8
0
100
AcDbLine
 10
287.774494206581
 20
153.4779163190033
 30
0.0
 11
262.7744727907944
 21
153.4780136642195
 31
0.0
  0
LINE
  5
42A8
330
18
100
AcDbEntity
  8
0
100
AcDbLine
 10
287.774494206581
 20
153.4779163190033
 30
0.0
 11
262.7744727907944
 21
153.4780136642195
 31
0.0
  0
LINE
  5
42A9
330
18
100
AcDbEntity
  8
0
100
AcDbLine
 10
262.7749195164519
 20
165.4780134926823
 30
0.0
 11
262.7748727907888
 21
153.478013662662
 31
0.0
  0
LINE
  5
42AA
330
18
100
AcDbEntity
  8
0
100
AcDbLine
 10
263.7748503397824
 20
147.8067300371071
 30
0.0
 11
270.7749479932302
 21
147.8067164085984
 31
0.0
  0
LINE
  5
42AB
330
18
100
AcDbEntity
  8
0
100
AcDbLine
 10
262.7748727907888
 20
153.478013662662
 30
0.0
 11
263.7748503397824
 21
147.8067300371071
 31
0.0
  0
ARC
  5
42AC
330
18
100
AcDbEntity
  8
0
100
AcDbCircle
 10
271.7749479790728
 20
152.4779163313946
 30
0.0
 40
0.9999999858426043
100
AcDbArc
 50
90.0
 51
180.0
  0
LINE
  5
42AD
330
18
100
AcDbEntity
  8
0
100
AcDbLine
 10
262.7745195163152
 20
165.477916149107
 30
0.0
 11
262.7745195163152
 21
168.477916149107
 31
0.0
  0
LINE
  5
42AE
330
18
100
AcDbEntity
  8
0
100
AcDbLine
 10
287.7744961534837
 20
153.4779163189957
 30
0.0
 11
283.1285191547704
 21
153.4779344095256
 31
0.0
  0
LINE
  5
42AF
330
18
100
AcDbEntity
  8
0
100
AcDbLine
 10
287.7744961534837
 20
153.4779163189957
 30
0.0
 11
283.1285191547704
 21
153.4779344095256
 31
0.0
  0
LINE
  5
42B0
330
18
100
AcDbEntity
  8
0
100
AcDbLine
 10
287.7744961534837
 20
153.4779163189957
 30
0.0
 11
292.4204731522322
 21
153.4779163189957
 31
0.0
  0
LINE
  5
42B1
330
18
100
AcDbEntity
  8
0
100
AcDbLine
 10
287.7744961534837
 20
153.4779163189957
 30
0.0
 11
292.4204731522322
 21
153.4779163189957
 31
0.0
  0
LINE
  5
42B2
330
18
100
AcDbEntity
  8
0
100
AcDbLine
 10
274.6578183226995
 20
181.034374156995
 30
0.0
 11
278.5009092989315
 21
181.0343891212431
 31
0.0
  0
LINE
  5
42B3
330
18
100
AcDbEntity
  8
0
100
AcDbLine
 10
287.7745234281691
 20
182.4779161491223
 30
0.0
 11
267.7746201716443
 21
182.4778382733927
 31
0.0
  0
LINE
  5
42B4
330
18
100
AcDbEntity
  8
0
100
AcDbLine
 10
267.7746201716443
 20
182.4778382733927
 30
0.0
 11
265.2744261817144
 21
181.034337619893
 31
0.0
  0
ARC
  5
42B5
330
18
100
AcDbEntity
  8
0
100
AcDbCircle
 10
269.9661491337169
 20
174.1306953643737
 30
0.0
 40
8.347007886095404
100
AcDbArc
 50
55.80037511802199
 51
124.2000710791966
  0
LINE
  5
42B6
330
18
100
AcDbEntity
  8
0
100
AcDbLine
 10
265.2744261817143
 20
181.0343376198929
 30
0.0
 11
265.2744672863644
 21
170.4779161491069
 31
0.0
  0
LINE
  5
42B7
330
18
100
AcDbEntity
  8
0
100
AcDbLine
 10
274.6578183226995
 20
181.034374156995
 30
0.0
 11
274.6578594274918
 21
170.4779161491069
 31
0.0
  0
ARC
  5
42B8
330
18
100
AcDbEntity
  8
0
100
AcDbCircle
 10
287.5245853622167
 20
153.5737005427731
 30
0.0
 40
28.9052961738644
100
AcDbArc
 50
89.50457689205334
 51
108.1906998290309
  0
LINE
  5
42B9
330
18
100
AcDbEntity
  8
0
100
AcDbLine
 10
278.5009092989315
 20
181.0343891212431
 30
0.0
 11
278.500950403782
 21
170.4779161491069
 31
0.0
  0
ARC
  5
42BA
330
18
100
AcDbEntity
  8
0
100
AcDbCircle
 10
310.7745195163153
 20
168.477916149107
 30
0.0
 40
2.0
100
AcDbArc
 50
0.0
 51
90.0
  0
LINE
  5
42BB
330
18
100
AcDbEntity
  8
0
100
AcDbLine
 10
311.7741198845077
 20
147.8066365872017
 30
0.0
 11
304.7749475118787
 21
147.806650213909
 31
0.0
  0
ARC
  5
42BC
330
18
100
AcDbEntity
  8
0
100
AcDbCircle
 10
303.7749475260361
 20
152.4779163313946
 30
0.0
 40
0.9999999858426043
100
AcDbArc
 50
0.0
 51
90.0
  0
LINE
  5
42BD
330
18
100
AcDbEntity
  8
0
100
AcDbLine
 10
312.7741195163681
 20
165.477916149107
 30
0.0
 11
312.7741195163682
 21
153.4779163189957
 31
0.0
  0
LINE
  5
42BE
330
18
100
AcDbEntity
  8
0
100
AcDbLine
 10
312.7741195163681
 20
153.4779163189957
 30
0.0
 11
311.7741198845077
 21
147.8066365872017
 31
0.0
  0
LINE
  5
42BF
330
18
100
AcDbEntity
  8
0
100
AcDbLine
 10
312.7745195163152
 20
165.477916149107
 30
0.0
 11
312.7745195163153
 21
168.477916149107
 31
0.0
  0
POINT
  5
42C0
330
18
100
AcDbEntity
  8
0
  6
BYBLOCK
100
AcDbPoint
 10
312.7745195163626
 20
165.477916149107
 30
0.0
  0
POINT
  5
42C1
330
18
100
AcDbEntity
  8
0
  6
BYBLOCK
100
AcDbPoint
 10
312.7745195163626
 20
165.477916149107
 30
0.0
  0
LINE
  5
42C2
330
18
100
AcDbEntity
  8
0
100
AcDbLine
 10
307.7744266848454
 20
182.4779161491221
 30
0.0
 11
310.2746262954668
 21
181.034425230902
 31
0.0
  0
ARC
  5
42C3
330
18
100
AcDbEntity
  8
0
100
AcDbCircle
 10
305.5829302249386
 20
174.1307647067793
 30
0.0
 40
8.347007886095404
100
AcDbArc
 50
55.80015201941295
 51
124.199847980587
  0
LINE
  5
42C4
330
18
100
AcDbEntity
  8
0
100
AcDbLine
 10
297.0481431781493
 20
181.034425230902
 30
0.0
 11
297.0481431781495
 21
170.477916149107
 31
0.0
  0
LINE
  5
42C5
330
18
100
AcDbEntity
  8
0
100
AcDbLine
 10
300.8912341544105
 20
181.034425230902
 30
0.0
 11
300.8912341544105
 21
170.477916149107
 31
0.0
  0
LINE
  5
42C6
330
18
100
AcDbEntity
  8
0
100
AcDbLine
 10
300.8912341544105
 20
181.034425230902
 30
0.0
 11
297.0481431781493
 21
181.034425230902
 31
0.0
  0
LINE
  5
42C7
330
18
100
AcDbEntity
  8
0
100
AcDbLine
 10
310.2746262954668
 20
181.034425230902
 30
0.0
 11
310.2746262954668
 21
170.477916149107
 31
0.0
  0
LINE
  5
42C9
330
18
100
AcDbEntity
  8
0
100
AcDbLine
 10
271.7746234101219
 20
202.6431889186439
 30
0.0
 11
303.774623410122
 21
202.643188918644
 31
0.0
  0
ARC
  5
42CA
330
18
100
AcDbEntity
  8
0
100
AcDbCircle
 10
287.774416330476
 20
228.1431889184296
 30
0.0
 40
24.0
100
AcDbArc
 50
180.0
 51
0.0
  0
ARC
  5
42CB
330
18
100
AcDbEntity
  8
0
100
AcDbCircle
 10
287.774416330476
 20
228.143189545315
 30
0.0
 40
20.0
100
AcDbArc
 50
180.0000017958936
 51
359.9999982041063
  0
ARC
  5
42CC
330
18
100
AcDbEntity
  8
0
100
AcDbCircle
 10
287.774416330476
 20
228.1431889184295
 30
0.0
 40
15.1455
100
AcDbArc
 50
180.0
 51
0.0
  0
ARC
  5
42CD
330
18
100
AcDbEntity
  8
0
100
AcDbCircle
 10
287.774416330476
 20
228.1431889184296
 30
0.0
 40
25.0
100
AcDbArc
 50
180.0
 51
227.1566805942282
  0
ARC
  5
42CF
330
18
100
AcDbEntity
  8
0
100
AcDbCircle
 10
287.774416330476
 20
228.1431889184296
 30
0.0
 40
22.5
100
AcDbArc
 50
234.3406486651637
 51
245.6593493982721
  0
LINE
  5
42D0
330
18
100
AcDbEntity
  8
0
100
AcDbLine
 10
270.7746234101219
 20
203.6431889186439
 30
0.0
 11
270.774519870299
 21
211.2020106730046
 31
0.0
  0
ARC
  5
42D1
330
18
100
AcDbEntity
  8
0
100
AcDbCircle
 10
271.7746234101219
 20
203.6431889186439
 30
0.0
 40
1.0
100
AcDbArc
 50
180.0
 51
270.0
  0
ARC
  5
42D2
330
18
100
AcDbEntity
  8
0
100
AcDbCircle
 10
287.774416330476
 20
228.1431889184296
 30
0.0
 40
22.5
100
AcDbArc
 50
174.3406486651639
 51
180.0
  0
ARC
  5
42D3
330
18
100
AcDbEntity
  8
0
100
AcDbCircle
 10
287.774416330476
 20
228.1431889184296
 30
0.0
 40
22.5
100
AcDbArc
 50
180.0
 51
185.659351334836
  0
ARC
  5
42D5
330
18
100
AcDbEntity
  8
0
100
AcDbCircle
 10
287.774416330476
 20
228.1431889184296
 30
0.0
 40
25.0
100
AcDbArc
 50
312.8439666831174
 51
0.0
  0
LINE
  5
42D6
330
18
100
AcDbEntity
  8
0
100
AcDbLine
 10
304.7746234101219
 20
203.643188918644
 30
0.0
 11
304.7745198702989
 21
211.2022184729297
 31
0.0
  0
ARC
  5
42D7
330
18
100
AcDbEntity
  8
0
100
AcDbCircle
 10
303.774623410122
 20
203.643188918644
 30
0.0
 40
1.0
100
AcDbArc
 50
270.0
 51
0.0
  0
ARC
  5
42D8
330
18
100
AcDbEntity
  8
0
100
AcDbCircle
 10
287.774416330476
 20
228.1431889184296
 30
0.0
 40
22.5
100
AcDbArc
 50
294.3406506017278
 51
305.6593513348361
  0
POINT
  5
42D9
330
18
100
AcDbEntity
  8
0
  6
BYBLOCK
100
AcDbPoint
 10
299.0244166597762
 20
208.6576175234013
 30
0.0
  0
ARC
  5
42DA
330
18
100
AcDbEntity
  8
0
100
AcDbCircle
 10
287.774416330476
 20
228.1431889184296
 30
0.0
 40
22.5
100
AcDbArc
 50
354.3406486651639
 51
5.659351334836026
  0
ARC
  5
42DB
330
18
100
AcDbEntity
  8
0
100
AcDbCircle
 10
353.651830901914
 20
153.5731875166868
 30
0.0
 40
28.9052961738644
100
AcDbArc
 50
71.8088539737463
 51
90.49497691072554
  0
LINE
  5
42DC
330
18
100
AcDbEntity
  8
0
100
AcDbLine
 10
353.4021179307458
 20
182.4774050685799
 30
0.0
 11
373.4020211860576
 21
182.4771714413913
 31
0.0
  0
LINE
  5
42DD
330
18
100
AcDbEntity
  8
0
100
AcDbLine
 10
353.401989453219
 20
165.4774050690496
 30
0.0
 11
378.4019894530769
 21
165.4773077239168
 31
0.0
  0
LINE
  5
42DE
330
18
100
AcDbEntity
  8
0
100
AcDbLine
 10
353.4019213116271
 20
153.4774052391128
 30
0.0
 11
378.4019427274137
 21
153.4773078938966
 31
0.0
  0
LINE
  5
42DF
330
18
100
AcDbEntity
  8
0
100
AcDbLine
 10
378.4019894524609
 20
165.4772103787841
 30
0.0
 11
328.4019894539771
 21
165.4775997593152
 31
0.0
  0
LINE
  5
42E0
330
18
100
AcDbEntity
  8
0
100
AcDbLine
 10
376.4020283905747
 20
170.4772259538537
 30
0.0
 11
330.4020283919695
 21
170.4775841839423
 31
0.0
  0
LINE
  5
42E1
330
18
100
AcDbEntity
  8
0
100
AcDbLine
 10
370.3429215738152
 20
147.8060732847249
 30
0.0
 11
329.4022514687098
 21
147.806312407223
 31
0.0
  0
ARC
  5
42E2
330
18
100
AcDbEntity
  8
0
100
AcDbCircle
 10
330.4020128167483
 20
168.477584184003
 30
0.0
 40
2.0
100
AcDbArc
 50
89.99955380277855
 51
179.9995538027785
  0
LINE
  5
42E3
330
18
100
AcDbEntity
  8
0
100
AcDbLine
 10
353.401989453219
 20
165.4774050690496
 30
0.0
 11
328.4019894539297
 21
165.4775997593152
 31
0.0
  0
LINE
  5
42E4
330
18
100
AcDbEntity
  8
0
100
AcDbLine
 10
353.4019174178218
 20
153.4774052391355
 30
0.0
 11
328.4018960026036
 21
153.4775999295679
 31
0.0
  0
LINE
  5
42E5
330
18
100
AcDbEntity
  8
0
100
AcDbLine
 10
353.4019174178218
 20
153.4774052391355
 30
0.0
 11
328.4018960026036
 21
153.4775999295679
 31
0.0
  0
LINE
  5
42E6
330
18
100
AcDbEntity
  8
0
100
AcDbLine
 10
328.4023894539243
 20
165.4775997562002
 30
0.0
 11
328.402296002598
 21
153.4775999264528
 31
0.0
  0
LINE
  5
42E7
330
18
100
AcDbEntity
  8
0
100
AcDbLine
 10
328.4022960025981
 20
153.4775999264528
 30
0.0
 11
329.4022514687098
 21
147.806312407223
 31
0.0
  0
LINE
  5
42E8
330
18
100
AcDbEntity
  8
0
100
AcDbLine
 10
328.4019894539771
 20
165.4775997593152
 30
0.0
 11
328.4020128168089
 21
168.4775997592242
 31
0.0
  0
POINT
  5
42E9
330
18
100
AcDbEntity
  8
0
  6
BYBLOCK
100
AcDbPoint
 10
328.4019894539297
 20
165.4775997593152
 30
0.0
  0
POINT
  5
42EA
330
18
100
AcDbEntity
  8
0
  6
BYBLOCK
100
AcDbPoint
 10
328.4019894539297
 20
165.4775997593152
 30
0.0
  0
LINE
  5
42EB
330
18
100
AcDbEntity
  8
0
100
AcDbLine
 10
340.2853959635568
 20
181.0340162982392
 30
0.0
 11
344.1284869397014
 21
181.0339863697431
 31
0.0
  0
LINE
  5
42EC
330
18
100
AcDbEntity
  8
0
100
AcDbLine
 10
353.4021179307458
 20
182.4774050685799
 30
0.0
 11
333.4022146746759
 21
182.4775608200388
 31
0.0
  0
LINE
  5
42ED
330
18
100
AcDbEntity
  8
0
100
AcDbLine
 10
333.4022146746759
 20
182.4775608200388
 30
0.0
 11
330.902003822785
 21
181.0340893724435
 31
0.0
  0
ARC
  5
42EE
330
18
100
AcDbEntity
  8
0
100
AcDbCircle
 10
335.593646130151
 20
174.130392311428
 30
0.0
 40
8.347007886095404
100
AcDbArc
 50
55.79970582219061
 51
124.1994017833676
  0
LINE
  5
42EF
330
18
100
AcDbEntity
  8
0
100
AcDbLine
 10
330.902003822785
 20
181.0340893724435
 30
0.0
 11
330.9019216128028
 21
170.4775802909686
 31
0.0
  0
LINE
  5
42F0
330
18
100
AcDbEntity
  8
0
100
AcDbLine
 10
340.2853959635568
 20
181.0340162982392
 30
0.0
 11
340.2853137535746
 21
170.4775072167643
 31
0.0
  0
ARC
  5
42F1
330
18
100
AcDbEntity
  8
0
100
AcDbCircle
 10
353.1518422226458
 20
153.5731923838333
 30
0.0
 40
28.9052961738644
100
AcDbArc
 50
89.50390759622065
 51
108.1900305332005
  0
LINE
  5
42F2
330
18
100
AcDbEntity
  8
0
100
AcDbLine
 10
344.1284869397014
 20
181.0339863697431
 30
0.0
 11
344.1284047297191
 21
170.4774772882682
 31
0.0
  0
ARC
  5
42F3
330
18
100
AcDbEntity
  8
0
100
AcDbCircle
 10
376.4020128153534
 20
168.4772259539144
 30
0.0
 40
2.0
100
AcDbArc
 50
359.9995538027785
 51
89.99955380277855
  0
LINE
  5
42F4
330
18
100
AcDbEntity
  8
0
100
AcDbLine
 10
370.3429657394265
 20
153.477339273984
 30
0.0
 11
378.4019427274137
 21
153.4773078938966
 31
0.0
  0
LINE
  5
42F5
330
18
100
AcDbEntity
  8
0
100
AcDbLine
 10
378.4015894530823
 20
165.4773077254744
 30
0.0
 11
378.4015427274193
 21
153.4773078954541
 31
0.0
  0
LINE
  5
42F6
330
18
100
AcDbEntity
  8
0
100
AcDbLine
 10
378.4018960011334
 20
153.477210379148
 30
0.0
 11
378.9019952929376
 21
153.4772064845694
 31
0.0
  0
LINE
  5
42F7
330
18
100
AcDbEntity
  8
0
100
AcDbLine
 10
378.4019894524609
 20
165.4772103787841
 30
0.0
 11
378.4020128152928
 21
168.4772103786931
 31
0.0
  0
LINE
  5
42F8
330
18
100
AcDbEntity
  8
0
100
AcDbLine
 10
373.4020211860576
 20
182.4771714413913
 30
0.0
 11
375.9022039344907
 21
181.0336513173981
 31
0.0
  0
ARC
  5
42F9
330
18
100
AcDbEntity
  8
0
100
AcDbCircle
 10
371.2104272197527
 20
174.1300455993997
 30
0.0
 40
8.347007886095404
100
AcDbArc
 50
55.79948272358184
 51
124.1991786847568
  0
LINE
  5
42FA
330
18
100
AcDbEntity
  8
0
100
AcDbLine
 10
362.6757208180757
 20
181.0338058214486
 30
0.0
 11
362.6755975035242
 21
170.4773328499527
 31
0.0
  0
LINE
  5
42FB
330
18
100
AcDbEntity
  8
0
100
AcDbLine
 10
366.5188117940746
 20
181.0337609287044
 30
0.0
 11
366.5186884796978
 21
170.4773029214566
 31
0.0
  0
LINE
  5
42FC
330
18
100
AcDbEntity
  8
0
100
AcDbLine
 10
366.5188117940746
 20
181.0337609287044
 30
0.0
 11
362.6757208180757
 21
181.0338058214486
 31
0.0
  0
LINE
  5
42FD
330
18
100
AcDbEntity
  8
0
100
AcDbLine
 10
375.9022039344908
 20
181.033651317398
 30
0.0
 11
375.9020806205407
 21
170.4772298472523
 31
0.0
  0
LINE
  5
42FE
330
18
100
AcDbEntity
  8
0
100
AcDbLine
 10
310.7746129547157
 20
285.1433963442758
 30
0.0
 11
312.2742136414497
 21
287.7407809247642
 31
0.0
  0
LINE
  5
42FF
330
18
100
AcDbEntity
  8
0
100
AcDbLine
 10
265.7744695211747
 20
285.1434839551746
 30
0.0
 11
264.274878948162
 21
287.7408743747965
 31
0.0
  0
ARC
  5
4300
330
18
100
AcDbEntity
  8
0
100
AcDbCircle
 10
288.5245607007565
 20
298.0476112030962
 30
0.0
 40
28.9052961738644
100
AcDbArc
 50
269.5043537934413
 51
288.1904767304244
  0
LINE
  5
4301
330
18
100
AcDbEntity
  8
0
100
AcDbLine
 10
288.2746132732571
 20
285.1433963442758
 30
0.0
 11
310.7746129547157
 21
285.1433963442758
 31
0.0
  0
LINE
  5
4302
330
18
100
AcDbEntity
  8
0
100
AcDbLine
 10
288.274510087418
 20
269.1433965701763
 30
0.0
 11
308.2744133440943
 21
269.1433965701765
 31
0.0
  0
ARC
  5
4304
330
18
100
AcDbEntity
  8
0
100
AcDbCircle
 10
287.774416330476
 20
228.1431889184296
 30
0.0
 40
22.5
100
AcDbArc
 50
114.3406506017278
 51
125.6593513348362
  0
LINE
  5
4305
330
18
100
AcDbEntity
  8
0
100
AcDbLine
 10
275.1578049819485
 20
270.5869385623036
 30
0.0
 11
279.0008959581804
 21
270.5869235980555
 31
0.0
  0
LINE
  5
4306
330
18
100
AcDbEntity
  8
0
100
AcDbLine
 10
288.2745100874179
 20
269.1433965701763
 30
0.0
 11
268.2746068308931
 21
269.143474445906
 31
0.0
  0
LINE
  5
4307
330
18
100
AcDbEntity
  8
0
100
AcDbLine
 10
288.2744692024628
 20
285.1433963445563
 30
0.0
 11
265.7744695211747
 21
285.1434839551746
 31
0.0
  0
LINE
  5
4308
330
18
100
AcDbEntity
  8
0
100
AcDbLine
 10
265.7744128409632
 20
270.5869750994057
 30
0.0
 11
265.7744695211747
 21
285.1434839551746
 31
0.0
  0
ARC
  5
4309
330
18
100
AcDbEntity
  8
0
100
AcDbCircle
 10
270.4661357929658
 20
277.4906173549249
 30
0.0
 40
8.347007886095404
100
AcDbArc
 50
235.7999289208033
 51
304.1996248819779
  0
LINE
  5
430A
330
18
100
AcDbEntity
  8
0
100
AcDbLine
 10
268.2746068308931
 20
269.143474445906
 30
0.0
 11
265.7744128409632
 21
270.5869750994056
 31
0.0
  0
LINE
  5
430B
330
18
100
AcDbEntity
  8
0
100
AcDbLine
 10
279.0008959581804
 20
270.5869235980555
 30
0.0
 11
279.0009526383919
 21
285.1434324538244
 31
0.0
  0
ARC
  5
430C
330
18
100
AcDbEntity
  8
0
100
AcDbCircle
 10
288.0245720214655
 20
298.0476121765256
 30
0.0
 40
28.9052961738644
100
AcDbArc
 50
251.809300170969
 51
270.4954231079466
  0
ARC
  5
430D
330
18
100
AcDbEntity
  8
0
100
AcDbCircle
 10
287.774416330476
 20
228.1431889184296
 30
0.0
 40
22.5
100
AcDbArc
 50
54.34064866516381
 51
65.65934939827212
  0
POINT
  5
430E
330
18
100
AcDbEntity
  8
0
  6
BYBLOCK
100
AcDbPoint
 10
299.0244166597762
 20
247.6287603134581
 30
0.0
  0
LINE
  5
430F
330
18
100
AcDbEntity
  8
0
100
AcDbLine
 10
308.2744133440943
 20
269.1433965701765
 30
0.0
 11
310.7746129547157
 21
270.5868874883966
 31
0.0
  0
ARC
  5
4310
330
18
100
AcDbEntity
  8
0
100
AcDbCircle
 10
306.0829168841876
 20
277.4905480125193
 30
0.0
 40
8.347007886095404
100
AcDbArc
 50
235.8001520194129
 51
304.199847980587
  0
LINE
  5
4311
330
18
100
AcDbEntity
  8
0
100
AcDbLine
 10
301.3912208136594
 20
270.5868874883967
 30
0.0
 11
301.3912208136594
 21
285.1433963442758
 31
0.0
  0
LINE
  5
4312
330
18
100
AcDbEntity
  8
0
100
AcDbLine
 10
297.5481298373982
 20
270.5868874883967
 30
0.0
 11
297.5481298373982
 21
285.1433963442758
 31
0.0
  0
LINE
  5
4313
330
18
100
AcDbEntity
  8
0
100
AcDbLine
 10
301.3912208136594
 20
270.5868874883967
 30
0.0
 11
297.5481298373982
 21
270.5868874883967
 31
0.0
  0
LINE
  5
4314
330
18
100
AcDbEntity
  8
0
100
AcDbLine
 10
310.7746129547157
 20
270.5868874883967
 30
0.0
 11
310.7746129547157
 21
285.1433963442758
 31
0.0
  0
LINE
  5
4315
330
18
100
AcDbEntity
  8
0
100
AcDbLine
 10
288.2746132732571
 20
322.1433958198343
 30
0.0
 11
313.2746132733045
 21
322.1433958198343
 31
0.0
  0
LINE
  5
4316
330
18
100
AcDbEntity
  8
0
100
AcDbLine
 10
265.2746132732571
 20
327.1433958198343
 30
0.0
 11
311.2746132732572
 21
327.1433958198343
 31
0.0
  0
LINE
  5
4317
330
18
100
AcDbEntity
  8
0
100
AcDbLine
 10
312.2742136414498
 20
287.7407809247644
 30
0.0
 11
288.2746132732571
 21
287.7407809247644
 31
0.0
  0
LINE
  5
4318
330
18
100
AcDbEntity
  8
0
100
AcDbLine
 10
312.2742136414497
 20
304.4721162579292
 30
0.0
 11
264.2749440967242
 21
304.472209707835
 31
0.0
  0
LINE
  5
4319
330
18
100
AcDbEntity
  8
0
100
AcDbLine
 10
288.2745918573282
 20
310.1433959897232
 30
0.0
 11
313.2746132733045
 21
310.1433959897232
 31
0.0
  0
LINE
  5
431A
330
18
100
AcDbEntity
  8
0
100
AcDbLine
 10
288.2745918573282
 20
310.1433959897232
 30
0.0
 11
313.2746132733045
 21
310.1433959897232
 31
0.0
  0
LINE
  5
431B
330
18
100
AcDbEntity
  8
0
100
AcDbLine
 10
263.2749665477307
 20
310.1434933333894
 30
0.0
 11
264.2749440967243
 21
304.4722097078345
 31
0.0
  0
LINE
  5
431C
330
18
100
AcDbEntity
  8
0
100
AcDbLine
 10
264.2748789481619
 20
287.7408743747965
 30
0.0
 11
288.2744793161726
 21
287.7407809250252
 31
0.0
  0
LINE
  5
431D
330
18
100
AcDbEntity
  8
0
100
AcDbLine
 10
264.2749440967243
 20
304.4722097078346
 30
0.0
 11
264.2748789481619
 21
287.7408743747965
 31
0.0
  0
LINE
  5
431E
330
18
100
AcDbEntity
  8
0
100
AcDbLine
 10
288.2746132732571
 20
322.1433958198343
 30
0.0
 11
263.2746132733994
 21
322.1434931649671
 31
0.0
  0
LINE
  5
431F
330
18
100
AcDbEntity
  8
0
100
AcDbLine
 10
288.2745879635229
 20
310.1433959897308
 30
0.0
 11
263.2745665477362
 21
310.1434933349469
 31
0.0
  0
LINE
  5
4320
330
18
100
AcDbEntity
  8
0
100
AcDbLine
 10
288.2745879635229
 20
310.1433959897308
 30
0.0
 11
263.2745665477362
 21
310.1434933349469
 31
0.0
  0
LINE
  5
4321
330
18
100
AcDbEntity
  8
0
100
AcDbLine
 10
263.2750132733939
 20
322.1434931634097
 30
0.0
 11
263.2749665477307
 21
310.1434933333894
 31
0.0
  0
ARC
  5
4322
330
18
100
AcDbEntity
  8
0
100
AcDbCircle
 10
265.2746132732571
 20
325.1433958198343
 30
0.0
 40
2.0
100
AcDbArc
 50
90.0
 51
180.0
  0
LINE
  5
4323
330
18
100
AcDbEntity
  8
0
100
AcDbLine
 10
263.2746132732571
 20
322.1433958198343
 30
0.0
 11
263.2746132732571
 21
325.1433958198343
 31
0.0
  0
LINE
  5
4324
330
18
100
AcDbEntity
  8
0
100
AcDbLine
 10
313.27421327331
 20
310.1433959897232
 30
0.0
 11
312.2742136414497
 21
304.4721162579292
 31
0.0
  0
LINE
  5
4325
330
18
100
AcDbEntity
  8
0
100
AcDbLine
 10
312.2742136414497
 20
304.4721162579294
 30
0.0
 11
312.2742136414498
 21
287.7407809247642
 31
0.0
  0
LINE
  5
4326
330
18
100
AcDbEntity
  8
0
100
AcDbLine
 10
313.2742132733099
 20
322.1433958198344
 30
0.0
 11
313.27421327331
 21
310.1433959897232
 31
0.0
  0
ARC
  5
4327
330
18
100
AcDbEntity
  8
0
100
AcDbCircle
 10
311.2746132732572
 20
325.1433958198343
 30
0.0
 40
2.0
100
AcDbArc
 50
0.0
 51
90.0
  0
LINE
  5
4328
330
18
100
AcDbEntity
  8
0
100
AcDbLine
 10
313.2746132732571
 20
322.1433958198343
 30
0.0
 11
313.2746132732572
 21
325.1433958198343
 31
0.0
  0
POINT
  5
4329
330
18
100
AcDbEntity
  8
0
  6
BYBLOCK
100
AcDbPoint
 10
313.2746132733045
 20
322.1433958198343
 30
0.0
  0
POINT
  5
432A
330
18
100
AcDbEntity
  8
0
  6
BYBLOCK
100
AcDbPoint
 10
313.2746132733045
 20
322.1433958198343
 30
0.0
  0
ARC
  5
432B
330
18
100
AcDbEntity
  8
0
100
AcDbCircle
 10
288.5246677984495
 20
310.2391811869298
 30
0.0
 40
28.9052961738644
100
AcDbArc
 50
71.80952326957561
 51
90.49564620655871
  0
LINE
  5
432C
330
18
100
AcDbEntity
  8
0
100
AcDbLine
 10
288.274617185111
 20
339.1433958198497
 30
0.0
 11
308.2745204417873
 21
339.1433958198496
 31
0.0
  0
LINE
  5
432D
330
18
100
AcDbEntity
  8
0
100
AcDbLine
 10
275.1579120796414
 20
337.6998538277224
 30
0.0
 11
279.0010030558734
 21
337.6998687919705
 31
0.0
  0
LINE
  5
432E
330
18
100
AcDbEntity
  8
0
100
AcDbLine
 10
288.274617185111
 20
339.1433958198497
 30
0.0
 11
268.2747139285862
 21
339.1433179441201
 31
0.0
  0
ARC
  5
432F
330
18
100
AcDbEntity
  8
0
100
AcDbCircle
 10
270.4662428906588
 20
330.7961750351012
 30
0.0
 40
8.347007886095404
100
AcDbArc
 50
55.80037511802199
 51
124.2000710791966
  0
LINE
  5
4330
330
18
100
AcDbEntity
  8
0
100
AcDbLine
 10
268.2747139285862
 20
339.1433179441201
 30
0.0
 11
265.7745199386563
 21
337.6998172906204
 31
0.0
  0
ARC
  5
4331
330
18
100
AcDbEntity
  8
0
100
AcDbCircle
 10
288.0246791191586
 20
310.2391802135004
 30
0.0
 40
28.9052961738644
100
AcDbArc
 50
89.50457689205334
 51
108.1906998290309
  0
LINE
  5
4332
330
18
100
AcDbEntity
  8
0
100
AcDbLine
 10
308.2745204417873
 20
339.1433958198496
 30
0.0
 11
310.7747200524087
 21
337.6999049016294
 31
0.0
  0
ARC
  5
4333
330
18
100
AcDbEntity
  8
0
100
AcDbCircle
 10
306.0830239818805
 20
330.7962443775068
 30
0.0
 40
8.347007886095404
100
AcDbArc
 50
55.80015201941295
 51
124.199847980587
  0
LINE
  5
4334
330
18
100
AcDbEntity
  8
0
100
AcDbLine
 10
301.3913279113524
 20
337.6999049016294
 30
0.0
 11
297.5482369350913
 21
337.6999049016294
 31
0.0
  0
LINE
  5
4336
330
18
100
AcDbEntity
  8
0
100
AcDbLine
 10
265.3840862301527
 20
225.9243788773137
 30
0.0
 11
274.657705418536
 21
209.8619992729882
 31
0.0
  0
LINE
  5
4337
330
18
100
AcDbEntity
  8
0
100
AcDbLine
 10
265.3840862301527
 20
230.3619989595456
 30
0.0
 11
274.657705418536
 21
246.424378563871
 31
0.0
  0
LINE
  5
4338
330
18
100
AcDbEntity
  8
0
100
AcDbLine
 10
300.891127242416
 20
246.4243785638712
 30
0.0
 11
310.1647464307993
 21
230.3619989595457
 31
0.0
  0
LINE
  5
4339
330
18
100
AcDbEntity
  8
0
100
AcDbLine
 10
300.891127242416
 20
209.8619992729882
 30
0.0
 11
310.1647464307993
 21
225.9243788773135
 31
0.0
  0
LINE
  5
433A
330
18
100
AcDbEntity
  8
0
100
AcDbLine
 10
278.5007964492052
 20
207.6431895453149
 30
0.0
 11
297.0480362117468
 21
207.6431895453149
 31
0.0
  0
LINE
  5
433B
330
18
100
AcDbEntity
  8
0
100
AcDbLine
 10
278.5007964492052
 20
248.6431882915443
 30
0.0
 11
297.0480362117468
 21
248.6431882915443
 31
0.0
  0
LINE
  5
43E1
330
18
100
AcDbEntity
  8
0
100
AcDbLine
 10
275.1578049819486
 20
270.5869385623036
 30
0.0
 11
275.1578616621601
 21
285.1434474180724
 31
0.0
  0
TEXT
  5
43E7
330
18
100
AcDbEntity
  8
0
100
AcDbText
 10
274.3427906728138
 20
59.67731320390157
 30
0.0
 40
8.0
  1
20,25A
 41
0.8
 11
274.3427906728138
 21
59.67731320390157
 31
0.0
100
AcDbText
 73
     1
  0
VIEWPORT
  5
41
330
15
100
AcDbEntity
 67
     1
  8
0
100
AcDbViewport
 10
117.358407079646
 20
73.5
 30
0.0
 40
234.716814159292
 41
147.0
 68
     1
 69
     1
1001
ACAD
1000
MVIEW
1002
{
1070
    16
1010
0.0
1020
0.0
1030
0.0
1010
0.0
1020
0.0
1030
1.0
1040
0.0
1040
147.0
1040
117.358407079646
1040
73.5
1040
50.0
1040
0.0
1040
0.0
1070
     0
1070
   100
1070
     1
1070
     1
1070
     0
1070
     0
1070
     0
1070
     0
1040
0.0
1040
0.0
1040
0.0
1040
1.0
1040
1.0
1040
0.0
1040
0.0
1070
     0
1002
{
1002
}
1002
}
  0
ENDSEC
  0
SECTION
  2
OBJECTS
  0
DICTIONARY
  5
C
330
0
100
AcDbDictionary
  3
ACAD_GROUP
350
D
  3
ACAD_LAYOUT
350
3E08
  3
ACAD_MLINESTYLE
350
E
  3
ACAD_PLOTSETTINGS
350
3E09
1001
ACAD
1000
TREAT_AS_HARD
1070
     0
  0
DICTIONARY
  5
3E34
330
18
100
AcDbDictionary
  3
ACAD_LAYOUTSELFREF
350
44B8
1001
ACAD
1000
TREAT_AS_HARD
1070
     1
  0
DICTIONARY
  5
3E32
330
15
100
AcDbDictionary
  3
ACAD_LAYOUTSELFREF
350
44B7
1001
ACAD
1000
TREAT_AS_HARD
1070
     1
  0
DICTIONARY
  5
D
102
{ACAD_REACTORS
330
C
102
}
330
C
100
AcDbDictionary
1001
ACAD
1000
TREAT_AS_HARD
1070
     0
  0
DICTIONARY
  5
3E08
102
{ACAD_REACTORS
330
C
102
}
330
C
100
AcDbDictionary
1001
ACAD
1000
TREAT_AS_HARD
1070
     0
  0
DICTIONARY
  5
E
102
{ACAD_REACTORS
330
C
102
}
330
C
100
AcDbDictionary
  3
STANDARD
350
1B
1001
ACAD
1000
TREAT_AS_HARD
1070
     0
  0
DICTIONARY
  5
3E09
102
{ACAD_REACTORS
330
C
102
}
330
C
100
AcDbDictionary
1001
ACAD
1000
TREAT_AS_HARD
1070
     0
  0
XRECORD
  5
44B8
102
{ACAD_REACTORS
330
3E34
102
}
330
3E34
100
AcDbXrecord
340
18
  0
XRECORD
  5
44B7
102
{ACAD_REACTORS
330
3E32
102
}
330
3E32
100
AcDbXrecord
340
15
  0
MLINESTYLE
  5
1B
102
{ACAD_REACTORS
330
E
102
}
330
E
100
AcDbMlineStyle
  2
STANDARD
 70
     0
  3

 62
     0
 51
90.0
 52
90.0
 71
     2
 49
0.5
 62
   256
  6
BYLAYER
 49
-0.5
 62
   256
  6
BYLAYER
  0
ENDSEC
  0
EOF
