  0
SECTION
  2
HEADER
  9
$ACADVER
  1
AC1012
  9
$DWGCODEPAGE
  3
dos932
  9
$INSBASE
 10
0.0
 20
0.0
 30
0.0
  9
$EXTMIN
 10
11.0
 20
5.0
 30
0.0
  9
$EXTMAX
 10
286.0
 20
191.0
 30
0.0
  9
$LIMMIN
 10
0.0
 20
0.0
  9
$LIMMAX
 10
297.0
 20
210.0
  9
$ORTHOMODE
 70
     1
  9
$REGENMODE
 70
     1
  9
$FILLMODE
 70
     1
  9
$QTEXTMODE
 70
     0
  9
$MIRRTEXT
 70
     1
  9
$DRAGMODE
 70
     2
  9
$LTSCALE
 40
4.0
  9
$OSMODE
 70
   163
  9
$ATTMODE
 70
     1
  9
$TEXTSIZE
 40
4.0
  9
$TRACEWID
 40
0.05
  9
$TEXTSTYLE
  7
STANDARD
  9
$CLAYER
  8
0
  9
$CELTYPE
  6
BYLAYER
  9
$CECOLOR
 62
   256
  9
$CELTSCALE
 40
1.0
  9
$DELOBJ
 70
     1
  9
$DISPSILH
 70
     0
  9
$DIMSCALE
 40
1.0
  9
$DIMASZ
 40
2.8
  9
$DIMEXO
 40
1.0
  9
$DIMDLI
 40
5.0
  9
$DIMRND
 40
0.1
  9
$DIMDLE
 40
0.0
  9
$DIMEXE
 40
1.0
  9
$DIMTP
 40
0.0
  9
$DIMTM
 40
0.0
  9
$DIMTXT
 40
2.5
  9
$DIMCEN
 40
0.0
  9
$DIMTSZ
 40
0.0
  9
$DIMTOL
 70
     0
  9
$DIMLIM
 70
     0
  9
$DIMTIH
 70
     0
  9
$DIMTOH
 70
     0
  9
$DIMSE1
 70
     0
  9
$DIMSE2
 70
     0
  9
$DIMTAD
 70
     3
  9
$DIMZIN
 70
     8
  9
$DIMBLK
  1

  9
$DIMASO
 70
     1
  9
$DIMSHO
 70
     1
  9
$DIMPOST
  1
 
  9
$DIMAPOST
  1

  9
$DIMALT
 70
     0
  9
$DIMALTD
 70
     2
  9
$DIMALTF
 40
1.0
  9
$DIMLFAC
 40
1.0
  9
$DIMTOFL
 70
     1
  9
$DIMTVP
 40
0.0
  9
$DIMTIX
 70
     0
  9
$DIMSOXD
 70
     0
  9
$DIMSAH
 70
     1
  9
$DIMBLK1
  1
_OPEN
  9
$DIMBLK2
  1
_OPEN
  9
$DIMSTYLE
  2
DIM1
  9
$DIMCLRD
 70
     2
  9
$DIMCLRE
 70
     2
  9
$DIMCLRT
 70
     2
  9
$DIMTFAC
 40
0.7
  9
$DIMGAP
 40
0.85
  9
$DIMJUST
 70
     0
  9
$DIMSD1
 70
     0
  9
$DIMSD2
 70
     0
  9
$DIMTOLJ
 70
     1
  9
$DIMTZIN
 70
     8
  9
$DIMALTZ
 70
     8
  9
$DIMALTTZ
 70
     8
  9
$DIMFIT
 70
     0
  9
$DIMUPT
 70
     0
  9
$DIMUNIT
 70
     2
  9
$DIMDEC
 70
     2
  9
$DIMTDEC
 70
     3
  9
$DIMALTU
 70
     2
  9
$DIMALTTD
 70
     3
  9
$DIMTXSTY
  7
DIM
  9
$DIMAUNIT
 70
     0
  9
$LUNITS
 70
     2
  9
$LUPREC
 70
     4
  9
$SKETCHINC
 40
0.1
  9
$FILLETRAD
 40
0.0
  9
$AUNITS
 70
     0
  9
$AUPREC
 70
     0
  9
$MENU
  1
C:\ACADR13\WIN\SUPPORT\ACAD.mnc
  9
$ELEVATION
 40
0.0
  9
$PELEVATION
 40
0.0
  9
$THICKNESS
 40
0.0
  9
$LIMCHECK
 70
     0
  9
$BLIPMODE
 70
     1
  9
$CHAMFERA
 40
0.0
  9
$CHAMFERB
 40
0.0
  9
$CHAMFERC
 40
0.0
  9
$CHAMFERD
 40
0.0
  9
$SKPOLY
 70
     0
  9
$TDCREATE
 40
2451564.587411898
  9
$TDUPDATE
 40
2451967.665626805
  9
$TDINDWG
 40
0.0584693171
  9
$TDUSRTIMER
 40
0.0584693171
  9
$USRTIMER
 70
     1
  9
$ANGBASE
 50
0.0
  9
$ANGDIR
 70
     0
  9
$PDMODE
 70
     0
  9
$PDSIZE
 40
0.0
  9
$PLINEWID
 40
0.0
  9
$COORDS
 70
     1
  9
$SPLFRAME
 70
     0
  9
$SPLINETYPE
 70
     6
  9
$SPLINESEGS
 70
     8
  9
$ATTDIA
 70
     0
  9
$ATTREQ
 70
     1
  9
$HANDLING
 70
     1
  9
$HANDSEED
  5
3A7B
  9
$SURFTAB1
 70
     6
  9
$SURFTAB2
 70
     6
  9
$SURFTYPE
 70
     6
  9
$SURFU
 70
     6
  9
$SURFV
 70
     6
  9
$UCSNAME
  2

  9
$UCSORG
 10
0.0
 20
0.0
 30
0.0
  9
$UCSXDIR
 10
1.0
 20
0.0
 30
0.0
  9
$UCSYDIR
 10
0.0
 20
1.0
 30
0.0
  9
$PUCSNAME
  2

  9
$PUCSORG
 10
0.0
 20
0.0
 30
0.0
  9
$PUCSXDIR
 10
1.0
 20
0.0
 30
0.0
  9
$PUCSYDIR
 10
0.0
 20
1.0
 30
0.0
  9
$USERI1
 70
     0
  9
$USERI2
 70
     0
  9
$USERI3
 70
     0
  9
$USERI4
 70
     0
  9
$USERI5
 70
     0
  9
$USERR1
 40
0.0
  9
$USERR2
 40
0.0
  9
$USERR3
 40
0.0
  9
$USERR4
 40
0.0
  9
$USERR5
 40
0.0
  9
$WORLDVIEW
 70
     1
  9
$SHADEDGE
 70
     3
  9
$SHADEDIF
 70
    70
  9
$TILEMODE
 70
     1
  9
$MAXACTVP
 70
    16
  9
$PINSBASE
 10
0.0
 20
0.0
 30
0.0
  9
$PLIMCHECK
 70
     0
  9
$PEXTMIN
 10
1.000000E+20
 20
1.000000E+20
 30
1.000000E+20
  9
$PEXTMAX
 10
-1.000000E+20
 20
-1.000000E+20
 30
-1.000000E+20
  9
$PLIMMIN
 10
0.0
 20
0.0
  9
$PLIMMAX
 10
20.0
 20
147.0
  9
$UNITMODE
 70
     0
  9
$VISRETAIN
 70
     0
  9
$PLINEGEN
 70
     0
  9
$PSLTSCALE
 70
     1
  9
$TREEDEPTH
 70
  3020
  9
$PICKSTYLE
 70
     1
  9
$CMLSTYLE
  2
STANDARD
  9
$CMLJUST
 70
     0
  9
$CMLSCALE
 40
1.0
  9
$SAVEIMAGES
 70
     1
  0
ENDSEC
  0
SECTION
  2
CLASSES
  0
CLASS
  1
LWPOLYLINE
  2
AcDbPolyline
  3
"AutoCAD"
 90
    32768
280
     0
281
     1
  0
ENDSEC
  0
SECTION
  2
TABLES
  0
TABLE
  2
VPORT
  5
8
100
AcDbSymbolTable
 70
     2
  0
VPORT
  5
3A7A
100
AcDbSymbolTableRecord
100
AcDbViewportTableRecord
  2
*ACTIVE
 70
     0
 10
0.0
 20
0.0
 11
1.0
 21
1.0
 12
189.95777
 22
107.804174
 13
0.0
 23
0.0
 14
1.0
 24
1.0
 15
0.0
 25
0.0
 16
0.0
 26
0.0
 36
1.0
 17
0.0
 27
0.0
 37
0.0
 40
215.608347
 41
1.762063
 42
50.0
 43
0.0
 44
0.0
 50
0.0
 51
0.0
 71
     0
 72
   100
 73
     1
 74
     1
 75
     0
 76
     0
 77
     0
 78
     0
  0
ENDTAB
  0
TABLE
  2
LTYPE
  5
5
100
AcDbSymbolTable
 70
     5
  0
LTYPE
  5
12
100
AcDbSymbolTableRecord
100
AcDbLinetypeTableRecord
  2
BYBLOCK
 70
     0
  3

 72
    65
 73
     0
 40
0.0
  0
LTYPE
  5
13
100
AcDbSymbolTableRecord
100
AcDbLinetypeTableRecord
  2
BYLAYER
 70
     0
  3

 72
    65
 73
     0
 40
0.0
  0
LTYPE
  5
14
100
AcDbSymbolTableRecord
100
AcDbLinetypeTableRecord
  2
CONTINUOUS
 70
     0
  3
Solid line
 72
    65
 73
     0
 40
0.0
  0
ENDTAB
  0
TABLE
  2
LAYER
  5
2
100
AcDbSymbolTable
 70
     4
  0
LAYER
  5
F
100
AcDbSymbolTableRecord
100
AcDbLayerTableRecord
  2
0
 70
     0
 62
     7
  6
CONTINUOUS
  0
ENDTAB
  0
TABLE
  2
STYLE
  5
3
100
AcDbSymbolTable
 70
     3
  0
STYLE
  5
10
100
AcDbSymbolTableRecord
100
AcDbTextStyleTableRecord
  2
STANDARD
 70
     0
 40
0.0
 41
0.8
 50
0.0
 71
     0
 42
4.0
  3
simplex
  4
extfont
  0
STYLE
  5
237C
100
AcDbSymbolTableRecord
100
AcDbTextStyleTableRecord
  2
PTSH
 70
     0
 40
0.0
 41
0.9
 50
0.0
 71
     0
 42
4.0
  3
SIMPLEX
  4
EXTFONT
  0
STYLE
  5
2592
100
AcDbSymbolTableRecord
100
AcDbTextStyleTableRecord
  2
DIM
 70
     0
 40
0.0
 41
0.8
 50
0.0
 71
     0
 42
4.0
  3
simplex
  4
extfont
  0
ENDTAB
  0
TABLE
  2
VIEW
  5
6
100
AcDbSymbolTable
 70
     0
  0
ENDTAB
  0
TABLE
  2
UCS
  5
7
100
AcDbSymbolTable
 70
     0
  0
ENDTAB
  0
TABLE
  2
APPID
  5
9
100
AcDbSymbolTable
 70
     1
  0
APPID
  5
11
100
AcDbSymbolTableRecord
100
AcDbRegAppTableRecord
  2
ACAD
 70
     0
  0
ENDTAB
  0
TABLE
  2
DIMSTYLE
  5
A
100
AcDbSymbolTable
 70
     1
  0
DIMSTYLE
105
2237
100
AcDbSymbolTableRecord
100
AcDbDimStyleTableRecord
  2
DIM1
 70
     0
  3
 
  4

  5

  6
_OPEN
  7
_OPEN
 40
1.0
 41
2.8
 42
1.0
 43
5.0
 44
1.0
 45
0.1
 46
0.0
 47
0.0
 48
0.0
140
2.5
141
0.0
142
0.0
143
1.0
144
1.0
145
0.0
146
0.7
147
0.85
 71
     0
 72
     0
 73
     0
 74
     0
 75
     0
 76
     0
 77
     3
 78
     8
170
     0
171
     2
172
     1
173
     1
174
     0
175
     0
176
     2
177
     2
178
     2
270
     2
271
     2
272
     3
273
     2
274
     3
340
2592
275
     0
280
     0
281
     0
282
     0
283
     1
284
     8
285
     8
286
     8
287
     0
288
     0
  0
ENDTAB
  0
TABLE
  2
BLOCK_RECORD
  5
1
100
AcDbSymbolTable
 70
     2
  0
BLOCK_RECORD
  5
18
100
AcDbSymbolTableRecord
100
AcDbBlockTableRecord
  2
*MODEL_SPACE
  0
BLOCK_RECORD
  5
15
100
AcDbSymbolTableRecord
100
AcDbBlockTableRecord
  2
*PAPER_SPACE
  0
BLOCK_RECORD
  5
2448
100
AcDbSymbolTableRecord
100
AcDbBlockTableRecord
  2
_OPEN
  0
BLOCK_RECORD
  5
3813
100
AcDbSymbolTableRecord
100
AcDbBlockTableRecord
  2
YA
  0
ENDTAB
  0
ENDSEC
  0
SECTION
  2
BLOCKS
  0
BLOCK
  5
3C
100
AcDbEntity
  8
0
100
AcDbBlockBegin
  2
*MODEL_SPACE
 70
     0
 10
0.0
 20
0.0
 30
0.0
  3
*MODEL_SPACE
  1

  0
ENDBLK
  5
3D
100
AcDbEntity
  8
0
100
AcDbBlockEnd
  0
BLOCK
  5
3A
100
AcDbEntity
 67
     1
  8
0
100
AcDbBlockBegin
  2
*PAPER_SPACE
 70
     0
 10
0.0
 20
0.0
 30
0.0
  3
*PAPER_SPACE
  1

  0
ENDBLK
  5
3B
100
AcDbEntity
 67
     1
  8
0
100
AcDbBlockEnd
  0
BLOCK
  5
2449
100
AcDbEntity
  8
0
 48
4.0
100
AcDbBlockBegin
  2
_OPEN
 70
     0
 10
0.0
 20
0.0
 30
0.0
  3
_OPEN
  1
H1111.DWG
  0
LINE
  5
244A
100
AcDbEntity
  8
0
  6
BYBLOCK
 62
     0
 48
4.0
100
AcDbLine
 10
-1.0
 20
0.166667
 30
0.0
 11
0.0
 21
0.0
 31
0.0
  0
LINE
  5
244B
100
AcDbEntity
  8
0
  6
BYBLOCK
 62
     0
 48
4.0
100
AcDbLine
 10
0.0
 20
0.0
 30
0.0
 11
-1.0
 21
-0.166667
 31
0.0
  0
LINE
  5
244C
100
AcDbEntity
  8
0
  6
BYBLOCK
 62
     0
 48
4.0
100
AcDbLine
 10
0.0
 20
0.0
 30
0.0
 11
-1.0
 21
0.0
 31
0.0
  0
ENDBLK
  5
244D
100
AcDbEntity
  8
0
 48
4.0
100
AcDbBlockEnd
  0
BLOCK
  5
381B
100
AcDbEntity
  8
0
100
AcDbBlockBegin
  2
YA
 70
     0
 10
0.0
 20
0.0
 30
0.0
  3
YA
  1

  0
LINE
  5
3814
100
AcDbEntity
  8
0
100
AcDbLine
 10
-16.8065
 20
2.801
 30
0.0
 11
-8.4035
 21
2.801
 31
0.0
  0
LINE
  5
3815
100
AcDbEntity
  8
0
100
AcDbLine
 10
-8.4035
 20
2.801
 30
0.0
 11
-7.0025
 21
1.4005
 31
0.0
  0
LINE
  5
3816
100
AcDbEntity
  8
0
100
AcDbLine
 10
-7.0025
 20
1.4005
 30
0.0
 11
-2.862
 21
1.4005
 31
0.0
  0
LINE
  5
3817
100
AcDbEntity
  8
0
100
AcDbLine
 10
-2.862
 20
1.4005
 30
0.0
 11
-2.862
 21
2.801
 31
0.0
  0
LINE
  5
3818
100
AcDbEntity
  8
0
100
AcDbLine
 10
-2.862
 20
2.801
 30
0.0
 11
0.0
 21
0.0
 31
0.0
  0
LINE
  5
3819
100
AcDbEntity
  8
0
100
AcDbLine
 10
0.0
 20
0.0
 30
0.0
 11
-14.0055
 21
0.0
 31
0.0
  0
LINE
  5
381A
100
AcDbEntity
  8
0
100
AcDbLine
 10
-14.0055
 20
0.0
 30
0.0
 11
-16.8065
 21
2.801
 31
0.0
  0
ENDBLK
  5
381C
100
AcDbEntity
  8
0
100
AcDbBlockEnd
  0
ENDSEC
  0
SECTION
  2
ENTITIES
  0
MTEXT
  5
ADA
100
AcDbEntity
  8
0
100
AcDbMText
 10
380.13928
 20
49.846311
 30
0.0
 40
0.2
 41
47.226465
 71
     1
 72
     1
  1

  0
MTEXT
  5
ADB
100
AcDbEntity
  8
0
100
AcDbMText
 10
389.049933
 20
57.850794
 30
0.0
 40
0.2
 41
45.444334
 71
     1
 72
     1
  1

  0
MTEXT
  5
ADC
100
AcDbEntity
  8
0
100
AcDbMText
 10
383.703541
 20
-47.986246
 30
0.0
 40
0.2
 41
51.681792
 71
     1
 72
     1
  1

  0
TEXT
  5
2529
100
AcDbEntity
  8
0
  6
CONTINUOUS
100
AcDbText
 10
273.671429
 20
7.0
 30
0.0
 40
3.0
  1
BO2
 41
0.9
  7
PTSH
 72
     2
 11
281.0
 21
8.5
 31
0.0
100
AcDbText
 73
     2
  0
POLYLINE
  5
2563
100
AcDbEntity
  8
0
100
AcDb2dPolyline
 66
     1
 10
0.0
 20
0.0
 30
0.0
 70
     1
  0
VERTEX
  5
3A55
100
AcDbEntity
  8
0
100
AcDbVertex
100
AcDb2dVertex
 10
11.0
 20
5.0
 30
0.0
  0
VERTEX
  5
3A56
100
AcDbEntity
  8
0
100
AcDbVertex
100
AcDb2dVertex
 10
286.0
 20
5.0
 30
0.0
  0
VERTEX
  5
3A57
100
AcDbEntity
  8
0
100
AcDbVertex
100
AcDb2dVertex
 10
286.0
 20
191.0
 30
0.0
  0
VERTEX
  5
3A58
100
AcDbEntity
  8
0
100
AcDbVertex
100
AcDb2dVertex
 10
11.0
 20
191.0
 30
0.0
  0
SEQEND
  5
3A59
100
AcDbEntity
  8
0
  0
TEXT
  5
28A0
100
AcDbEntity
  8
0
100
AcDbText
 10
130.516667
 20
18.25
 30
0.0
 40
3.5
  1
TLV  BO2 (PF)
 72
     1
 11
148.5
 21
20.0
 31
0.0
100
AcDbText
 73
     2
  0
TEXT
  5
376D
100
AcDbEntity
  8
0
100
AcDbText
 10
146.357143
 20
36.493642
 30
0.0
 40
2.5
  1
8A
 72
     1
 11
148.5
 21
37.743642
 31
0.0
100
AcDbText
 73
     2
  0
TEXT
  5
376E
100
AcDbEntity
  8
0
100
AcDbText
 10
58.843934
 20
62.710889
 30
0.0
 40
3.5
  1
正面
100
AcDbText
  0
TEXT
  5
3772
100
AcDbEntity
  8
0
100
AcDbText
 10
58.825579
 20
142.79362
 30
0.0
 40
3.5
  1
背面
100
AcDbText
  0
TEXT
  5
3773
100
AcDbEntity
  8
0
100
AcDbText
 10
58.843934
 20
102.350843
 30
0.0
 40
3.5
  1
平面
100
AcDbText
  0
INSERT
  5
3822
100
AcDbEntity
  8
0
100
AcDbBlockReference
  2
YA
 10
119.383215
 20
62.710889
 30
0.0
 41
0.571204
 42
0.571204
 43
0.571204
  0
POLYLINE
  5
3900
100
AcDbEntity
  8
0
100
AcDb2dPolyline
 66
     1
 10
0.0
 20
0.0
 30
0.0
  0
VERTEX
  5
3A5A
100
AcDbEntity
  8
0
100
AcDbVertex
100
AcDb2dVertex
 10
187.188461
 20
71.844547
 30
0.0
  0
VERTEX
  5
3A5B
100
AcDbEntity
  8
0
100
AcDbVertex
100
AcDb2dVertex
 10
194.53693
 20
67.601906
 30
0.0
  0
SEQEND
  5
3A5C
100
AcDbEntity
  8
0
  0
POLYLINE
  5
3901
100
AcDbEntity
  8
0
100
AcDb2dPolyline
 66
     1
 10
0.0
 20
0.0
 30
0.0
  0
VERTEX
  5
3A5D
100
AcDbEntity
  8
0
100
AcDbVertex
100
AcDb2dVertex
 10
178.688461
 20
67.601906
 30
0.0
  0
VERTEX
  5
3A5E
100
AcDbEntity
  8
0
100
AcDbVertex
100
AcDb2dVertex
 10
186.03693
 20
71.844547
 30
0.0
  0
SEQEND
  5
3A5F
100
AcDbEntity
  8
0
  0
POLYLINE
  5
3902
100
AcDbEntity
  8
0
100
AcDb2dPolyline
 66
     1
 10
0.0
 20
0.0
 30
0.0
  0
VERTEX
  5
3A60
100
AcDbEntity
  8
0
100
AcDbVertex
100
AcDb2dVertex
 10
186.03693
 20
52.879474
 30
0.0
  0
VERTEX
  5
3A61
100
AcDbEntity
  8
0
100
AcDbVertex
100
AcDb2dVertex
 10
178.688461
 20
57.122115
 30
0.0
  0
SEQEND
  5
3A62
100
AcDbEntity
  8
0
  0
POLYLINE
  5
3903
100
AcDbEntity
  8
0
100
AcDb2dPolyline
 66
     1
 10
0.0
 20
0.0
 30
0.0
  0
VERTEX
  5
3A63
100
AcDbEntity
  8
0
100
AcDbVertex
100
AcDb2dVertex
 10
195.112696
 20
66.604651
 30
0.0
  0
VERTEX
  5
3A64
100
AcDbEntity
  8
0
100
AcDbVertex
100
AcDb2dVertex
 10
195.112696
 20
58.11937
 30
0.0
  0
SEQEND
  5
3A65
100
AcDbEntity
  8
0
  0
POLYLINE
  5
3904
100
AcDbEntity
  8
0
100
AcDb2dPolyline
 66
     1
 10
0.0
 20
0.0
 30
0.0
  0
VERTEX
  5
3A66
100
AcDbEntity
  8
0
100
AcDbVertex
100
AcDb2dVertex
 10
194.53693
 20
57.122115
 30
0.0
  0
VERTEX
  5
3A67
100
AcDbEntity
  8
0
100
AcDbVertex
100
AcDb2dVertex
 10
187.188461
 20
52.879474
 30
0.0
  0
SEQEND
  5
3A68
100
AcDbEntity
  8
0
  0
ARC
  5
3905
100
AcDbEntity
  8
0
100
AcDbCircle
 10
186.612696
 20
62.36201
 30
0.0
 40
9.5
100
AcDbArc
 50
326.525352
 51
333.474648
  0
ARC
  5
3906
100
AcDbEntity
  8
0
100
AcDbCircle
 10
186.612696
 20
62.36201
 30
0.0
 40
9.5
100
AcDbArc
 50
266.525352
 51
273.474648
  0
ARC
  5
3907
100
AcDbEntity
  8
0
100
AcDbCircle
 10
186.612696
 20
62.36201
 30
0.0
 40
9.5
100
AcDbArc
 50
26.525352
 51
33.474648
  0
POLYLINE
  5
3908
100
AcDbEntity
  8
0
100
AcDb2dPolyline
 66
     1
 10
0.0
 20
0.0
 30
0.0
  0
VERTEX
  5
3A69
100
AcDbEntity
  8
0
100
AcDbVertex
100
AcDb2dVertex
 10
178.112696
 20
58.11937
 30
0.0
  0
VERTEX
  5
3A6A
100
AcDbEntity
  8
0
100
AcDbVertex
100
AcDb2dVertex
 10
178.112696
 20
66.604651
 30
0.0
  0
SEQEND
  5
3A6B
100
AcDbEntity
  8
0
  0
ARC
  5
3909
100
AcDbEntity
  8
0
100
AcDbCircle
 10
186.612696
 20
62.36201
 30
0.0
 40
9.5
100
AcDbArc
 50
206.525352
 51
213.474648
  0
ARC
  5
390A
100
AcDbEntity
  8
0
100
AcDbCircle
 10
186.612696
 20
62.36201
 30
0.0
 40
9.5
100
AcDbArc
 50
146.525352
 51
153.474648
  0
ARC
  5
390B
100
AcDbEntity
  8
0
100
AcDbCircle
 10
186.612696
 20
62.36201
 30
0.0
 40
9.5
100
AcDbArc
 50
86.525352
 51
93.474648
  0
LINE
  5
390D
100
AcDbEntity
  8
0
100
AcDbLine
 10
123.090223
 20
68.94037
 30
0.0
 11
131.888534
 21
68.940649
 31
0.0
  0
LINE
  5
390E
100
AcDbEntity
  8
0
100
AcDbLine
 10
131.888615
 20
55.78323
 30
0.0
 11
123.090223
 21
55.783653
 31
0.0
  0
LINE
  5
3910
100
AcDbEntity
  8
0
100
AcDbLine
 10
149.388518
 20
71.611674
 30
0.0
 11
158.388518
 21
71.612311
 31
0.0
  0
LINE
  5
3911
100
AcDbEntity
  8
0
100
AcDbLine
 10
158.388632
 20
53.111993
 30
0.0
 11
149.388632
 21
53.111993
 31
0.0
  0
ARC
  5
3912
100
AcDbEntity
  8
0
100
AcDbCircle
 10
164.649792
 20
69.731983
 30
0.0
 40
3.339343
100
AcDbArc
 50
140.366599
 51
219.633401
  0
LINE
  5
3913
100
AcDbEntity
  8
0
100
AcDbLine
 10
161.321154
 20
70.862029
 30
0.0
 11
161.321296
 21
53.861909
 31
0.0
  0
ARC
  5
3914
100
AcDbEntity
  8
0
100
AcDbCircle
 10
162.992784
 20
69.731983
 30
0.0
 40
3.339343
100
AcDbArc
 50
320.366599
 51
39.633401
  0
LINE
  5
3915
100
AcDbEntity
  8
0
100
AcDbLine
 10
158.388632
 20
53.111993
 30
0.0
 11
158.388518
 21
71.612311
 31
0.0
  0
LINE
  5
3916
100
AcDbEntity
  8
0
100
AcDbLine
 10
166.321154
 20
70.86207
 30
0.0
 11
166.321225
 21
62.36201
 31
0.0
  0
LINE
  5
3917
100
AcDbEntity
  8
0
100
AcDbLine
 10
162.078026
 20
58.11937
 30
0.0
 11
165.56455
 21
58.11937
 31
0.0
  0
LINE
  5
3918
100
AcDbEntity
  8
0
100
AcDbLine
 10
165.56455
 20
57.122115
 30
0.0
 11
162.078026
 21
57.122115
 31
0.0
  0
LINE
  5
3919
100
AcDbEntity
  8
0
100
AcDbLine
 10
162.078026
 20
66.604651
 30
0.0
 11
165.56455
 21
66.604651
 31
0.0
  0
LINE
  5
391A
100
AcDbEntity
  8
0
100
AcDbLine
 10
165.56455
 20
67.601906
 30
0.0
 11
162.078026
 21
67.601906
 31
0.0
  0
LINE
  5
391B
100
AcDbEntity
  8
0
100
AcDbLine
 10
165.578692
 20
52.86196
 30
0.0
 11
162.063651
 21
52.862288
 31
0.0
  0
LINE
  5
391C
100
AcDbEntity
  8
0
100
AcDbLine
 10
166.321225
 20
62.36201
 30
0.0
 11
166.321296
 21
53.86195
 31
0.0
  0
ARC
  5
391D
100
AcDbEntity
  8
0
100
AcDbCircle
 10
154.129127
 20
62.36201
 30
0.0
 40
12.197086
100
AcDbArc
 50
339.644712
 51
20.355288
  0
ARC
  5
391E
100
AcDbEntity
  8
0
100
AcDbCircle
 10
162.992784
 20
54.992038
 30
0.0
 40
3.339343
100
AcDbArc
 50
320.366599
 51
39.633401
  0
LINE
  5
391F
100
AcDbEntity
  8
0
100
AcDbLine
 10
166.321154
 20
56.362139
 30
0.0
 11
166.321296
 21
53.86195
 31
0.0
  0
LINE
  5
3920
100
AcDbEntity
  8
0
100
AcDbLine
 10
166.321296
 20
53.86195
 30
0.0
 11
165.578692
 21
52.86196
 31
0.0
  0
LINE
  5
3921
100
AcDbEntity
  8
0
100
AcDbLine
 10
165.56455
 20
57.122115
 30
0.0
 11
165.56455
 21
58.11937
 31
0.0
  0
LINE
  5
3922
100
AcDbEntity
  8
0
100
AcDbLine
 10
165.56455
 20
67.601906
 30
0.0
 11
165.56455
 21
66.604651
 31
0.0
  0
ARC
  5
3923
100
AcDbEntity
  8
0
100
AcDbCircle
 10
173.513449
 20
62.36201
 30
0.0
 40
12.197086
100
AcDbArc
 50
159.644712
 51
200.355288
  0
ARC
  5
3924
100
AcDbEntity
  8
0
100
AcDbCircle
 10
164.649792
 20
54.992038
 30
0.0
 40
3.339343
100
AcDbArc
 50
140.366599
 51
219.633401
  0
LINE
  5
3925
100
AcDbEntity
  8
0
100
AcDbLine
 10
161.321396
 20
56.362097
 30
0.0
 11
161.321296
 21
53.861909
 31
0.0
  0
LINE
  5
3926
100
AcDbEntity
  8
0
100
AcDbLine
 10
161.321344
 20
54.361875
 30
0.0
 11
158.388624
 21
54.362203
 31
0.0
  0
LINE
  5
3927
100
AcDbEntity
  8
0
100
AcDbLine
 10
161.321296
 20
53.861909
 30
0.0
 11
162.063651
 21
52.862288
 31
0.0
  0
LINE
  5
3928
100
AcDbEntity
  8
0
100
AcDbLine
 10
162.078026
 20
57.122115
 30
0.0
 11
162.078026
 21
58.11937
 31
0.0
  0
LINE
  5
3929
100
AcDbEntity
  8
0
100
AcDbLine
 10
162.078026
 20
67.601906
 30
0.0
 11
162.078026
 21
66.604651
 31
0.0
  0
LINE
  5
392A
100
AcDbEntity
  8
0
100
AcDbLine
 10
162.078026
 20
71.862266
 30
0.0
 11
165.56455
 21
71.861919
 31
0.0
  0
LINE
  5
392B
100
AcDbEntity
  8
0
100
AcDbLine
 10
166.321154
 20
70.86207
 30
0.0
 11
166.321366
 21
68.361953
 31
0.0
  0
LINE
  5
392C
100
AcDbEntity
  8
0
100
AcDbLine
 10
165.56455
 20
71.861919
 30
0.0
 11
166.321154
 21
70.86207
 31
0.0
  0
LINE
  5
392D
100
AcDbEntity
  8
0
100
AcDbLine
 10
158.388525
 20
70.361696
 30
0.0
 11
161.321132
 21
70.362075
 31
0.0
  0
LINE
  5
392E
100
AcDbEntity
  8
0
100
AcDbLine
 10
162.078026
 20
71.862266
 30
0.0
 11
161.321154
 21
70.862029
 31
0.0
  0
LINE
  5
392F
100
AcDbEntity
  8
0
100
AcDbLine
 10
161.321154
 20
70.862029
 30
0.0
 11
161.320984
 21
68.361911
 31
0.0
  0
ARC
  5
3930
100
AcDbEntity
  8
0
100
AcDbCircle
 10
143.032165
 20
66.9942
 30
0.0
 40
8.644361
100
AcDbArc
 50
145.727768
 51
212.404003
  0
ARC
  5
3931
100
AcDbEntity
  8
0
100
AcDbCircle
 10
140.744985
 20
66.9942
 30
0.0
 40
8.644361
100
AcDbArc
 50
327.595997
 51
34.272232
  0
LINE
  5
3932
100
AcDbEntity
  8
0
100
AcDbLine
 10
131.888615
 20
55.78323
 30
0.0
 11
131.888534
 21
68.940649
 31
0.0
  0
LINE
  5
3933
100
AcDbEntity
  8
0
100
AcDbLine
 10
133.888615
 20
55.783513
 30
0.0
 11
133.888534
 21
68.940508
 31
0.0
  0
LINE
  5
3934
100
AcDbEntity
  8
0
100
AcDbLine
 10
149.388632
 20
53.111993
 30
0.0
 11
149.388518
 21
71.611674
 31
0.0
  0
LINE
  5
3935
100
AcDbEntity
  8
0
100
AcDbLine
 10
134.388633
 20
52.862176
 30
0.0
 11
134.388516
 21
71.861778
 31
0.0
  0
LINE
  5
3936
100
AcDbEntity
  8
0
100
AcDbLine
 10
148.043336
 20
62.36181
 30
0.0
 11
135.733699
 21
62.361991
 31
0.0
  0
LINE
  5
3937
100
AcDbEntity
  8
0
100
AcDbLine
 10
149.244384
 20
52.861819
 30
0.0
 11
134.388633
 21
52.862176
 31
0.0
  0
ARC
  5
3938
100
AcDbEntity
  8
0
100
AcDbCircle
 10
140.744985
 20
57.72942
 30
0.0
 40
8.644361
100
AcDbArc
 50
325.727768
 51
32.404003
  0
LINE
  5
3939
100
AcDbEntity
  8
0
100
AcDbLine
 10
149.388493
 20
53.111993
 30
0.0
 11
149.244384
 21
52.861819
 31
0.0
  0
ARC
  5
393A
100
AcDbEntity
  8
0
100
AcDbCircle
 10
143.032165
 20
57.72942
 30
0.0
 40
8.644361
100
AcDbArc
 50
147.595997
 51
214.272232
  0
ARC
  5
393B
100
AcDbEntity
  8
0
100
AcDbCircle
 10
132.884629
 20
55.624028
 30
0.0
 40
1.015797
100
AcDbArc
 50
9.033063
 51
170.975002
  0
LINE
  5
393C
100
AcDbEntity
  8
0
100
AcDbLine
 10
134.388226
 20
55.783513
 30
0.0
 11
133.888615
 21
55.783513
 31
0.0
  0
LINE
  5
393D
100
AcDbEntity
  8
0
100
AcDbLine
 10
134.388516
 20
71.861778
 30
0.0
 11
149.244384
 21
71.861778
 31
0.0
  0
LINE
  5
3940
100
AcDbEntity
  8
0
100
AcDbLine
 10
149.244384
 20
71.861778
 30
0.0
 11
149.388846
 21
71.611674
 31
0.0
  0
ARC
  5
3942
100
AcDbEntity
  8
0
100
AcDbCircle
 10
132.884968
 20
69.099992
 30
0.0
 40
1.015797
100
AcDbArc
 50
189.024998
 51
350.966937
  0
LINE
  5
3943
100
AcDbEntity
  8
0
100
AcDbLine
 10
134.388566
 20
68.940508
 30
0.0
 11
133.888534
 21
68.940508
 31
0.0
  0
POLYLINE
  5
3945
100
AcDbEntity
  8
0
100
AcDb2dPolyline
 66
     1
 10
0.0
 20
0.0
 30
0.0
 70
     1
  0
VERTEX
  5
3A6C
100
AcDbEntity
  8
0
100
AcDbVertex
100
AcDb2dVertex
 10
97.758572
 20
71.86201
 30
0.0
  0
VERTEX
  5
3A6D
100
AcDbEntity
  8
0
100
AcDbVertex
100
AcDb2dVertex
 10
103.2434
 20
62.36201
 30
0.0
  0
VERTEX
  5
3A6E
100
AcDbEntity
  8
0
100
AcDbVertex
100
AcDb2dVertex
 10
97.758572
 20
52.86201
 30
0.0
  0
VERTEX
  5
3A6F
100
AcDbEntity
  8
0
100
AcDbVertex
100
AcDb2dVertex
 10
86.788917
 20
52.86201
 30
0.0
  0
VERTEX
  5
3A70
100
AcDbEntity
  8
0
100
AcDbVertex
100
AcDb2dVertex
 10
81.30409
 20
62.36201
 30
0.0
  0
VERTEX
  5
3A71
100
AcDbEntity
  8
0
100
AcDbVertex
100
AcDb2dVertex
 10
86.788917
 20
71.86201
 30
0.0
  0
SEQEND
  5
3A72
100
AcDbEntity
  8
0
  0
LINE
  5
3946
100
AcDbEntity
  8
0
100
AcDbLine
 10
122.388575
 20
62.361895
 30
0.0
 11
122.38854
 21
68.051327
 31
0.0
  0
LINE
  5
3947
100
AcDbEntity
  8
0
100
AcDbLine
 10
123.090223
 20
68.94037
 30
0.0
 11
123.090223
 21
55.783653
 31
0.0
  0
LINE
  5
3948
100
AcDbEntity
  8
0
100
AcDbLine
 10
122.38861
 20
56.672463
 30
0.0
 11
122.388575
 21
62.361895
 31
0.0
  0
LINE
  5
3949
100
AcDbEntity
  8
0
100
AcDbLine
 10
123.090223
 20
55.78351
 30
0.0
 11
122.38854
 21
56.672552
 31
0.0
  0
LINE
  5
394A
100
AcDbEntity
  8
0
100
AcDbLine
 10
123.090223
 20
68.94037
 30
0.0
 11
122.38854
 21
68.051327
 31
0.0
  0
ARC
  5
394D
100
AcDbEntity
  8
0
100
AcDbCircle
 10
124.096594
 20
149.465407
 30
0.0
 40
3.339343
100
AcDbArc
 50
320.367552
 51
39.634355
  0
LINE
  5
394E
100
AcDbEntity
  8
0
100
AcDbLine
 10
127.425213
 20
150.595508
 30
0.0
 11
127.425425
 21
148.095391
 31
0.0
  0
ARC
  5
394F
100
AcDbEntity
  8
0
100
AcDbCircle
 10
125.753603
 20
149.465434
 30
0.0
 40
3.339343
100
AcDbArc
 50
140.367552
 51
219.634354
  0
LINE
  5
3950
100
AcDbEntity
  8
0
100
AcDbLine
 10
122.425213
 20
150.595467
 30
0.0
 11
122.425043
 21
148.095349
 31
0.0
  0
ARC
  5
3951
100
AcDbEntity
  8
0
100
AcDbCircle
 10
145.714267
 20
146.727984
 30
0.0
 40
8.644361
100
AcDbArc
 50
327.59695
 51
34.273185
  0
ARC
  5
3952
100
AcDbEntity
  8
0
100
AcDbCircle
 10
148.001447
 20
146.728022
 30
0.0
 40
8.644361
100
AcDbArc
 50
145.728721
 51
212.404957
  0
LINE
  5
3953
100
AcDbEntity
  8
0
100
AcDbLine
 10
127.425213
 20
150.595508
 30
0.0
 11
127.425355
 21
133.595388
 31
0.0
  0
LINE
  5
3954
100
AcDbEntity
  8
0
100
AcDbLine
 10
130.358031
 20
132.845521
 30
0.0
 11
130.357838
 21
151.345839
 31
0.0
  0
LINE
  5
3955
100
AcDbEntity
  8
0
100
AcDbLine
 10
139.358031
 20
132.845671
 30
0.0
 11
139.357838
 21
151.345352
 31
0.0
  0
LINE
  5
3956
100
AcDbEntity
  8
0
100
AcDbLine
 10
154.358034
 20
132.596103
 30
0.0
 11
154.357835
 21
151.595705
 31
0.0
  0
LINE
  5
3957
100
AcDbEntity
  8
0
100
AcDbLine
 10
122.425213
 20
150.595467
 30
0.0
 11
122.425355
 21
133.595347
 31
0.0
  0
LINE
  5
3958
100
AcDbEntity
  8
0
100
AcDbLine
 10
131.90697
 20
95.650273
 30
0.0
 11
123.108578
 21
95.650696
 31
0.0
  0
LINE
  5
3959
100
AcDbEntity
  8
0
100
AcDbLine
 10
123.108578
 20
108.807412
 30
0.0
 11
131.906889
 21
108.807691
 31
0.0
  0
LINE
  5
395A
100
AcDbEntity
  8
0
100
AcDbLine
 10
127.425299
 20
134.095354
 30
0.0
 11
130.358018
 21
134.095731
 31
0.0
  0
LINE
  5
395B
100
AcDbEntity
  8
0
100
AcDbLine
 10
149.406872
 20
111.478717
 30
0.0
 11
158.406872
 21
111.479353
 31
0.0
  0
LINE
  5
395C
100
AcDbEntity
  8
0
100
AcDbLine
 10
158.406987
 20
92.979035
 30
0.0
 11
149.406847
 21
92.979035
 31
0.0
  0
LINE
  5
395D
100
AcDbEntity
  8
0
100
AcDbLine
 10
166.33958
 20
102.229023
 30
0.0
 11
166.33965
 21
93.728993
 31
0.0
  0
ARC
  5
395E
100
AcDbEntity
  8
0
100
AcDbCircle
 10
170.536962
 20
97.979053
 30
0.0
 40
9.205864
100
AcDbArc
 50
156.476889
 51
203.523111
  0
ARC
  5
395F
100
AcDbEntity
  8
0
100
AcDbCircle
 10
157.142056
 20
97.979053
 30
0.0
 40
9.205864
100
AcDbArc
 50
336.476889
 51
23.523111
  0
LINE
  5
3960
100
AcDbEntity
  8
0
100
AcDbLine
 10
158.406987
 20
92.979035
 30
0.0
 11
158.406872
 21
111.479353
 31
0.0
  0
LINE
  5
3961
100
AcDbEntity
  8
0
100
AcDbLine
 10
161.339509
 20
110.729053
 30
0.0
 11
161.33965
 21
93.728951
 31
0.0
  0
LINE
  5
3962
100
AcDbEntity
  8
0
100
AcDbLine
 10
161.33965
 20
93.728951
 30
0.0
 11
166.33965
 21
93.728993
 31
0.0
  0
LINE
  5
3963
100
AcDbEntity
  8
0
100
AcDbLine
 10
165.582905
 20
94.304818
 30
0.0
 11
162.096113
 21
94.304818
 31
0.0
  0
LINE
  5
3964
100
AcDbEntity
  8
0
100
AcDbLine
 10
165.582905
 20
94.304818
 30
0.0
 11
166.33965
 21
93.729053
 31
0.0
  0
LINE
  5
3965
100
AcDbEntity
  8
0
100
AcDbLine
 10
161.339698
 20
94.228917
 30
0.0
 11
158.406979
 21
94.229246
 31
0.0
  0
LINE
  5
3966
100
AcDbEntity
  8
0
100
AcDbLine
 10
162.096113
 20
94.304818
 30
0.0
 11
161.33965
 21
93.728951
 31
0.0
  0
LINE
  5
3967
100
AcDbEntity
  8
0
100
AcDbLine
 10
165.582905
 20
101.653287
 30
0.0
 11
162.096113
 21
101.653287
 31
0.0
  0
LINE
  5
3968
100
AcDbEntity
  8
0
100
AcDbLine
 10
165.582905
 20
102.804818
 30
0.0
 11
162.096113
 21
102.804818
 31
0.0
  0
LINE
  5
3969
100
AcDbEntity
  8
0
100
AcDbLine
 10
165.582905
 20
110.153287
 30
0.0
 11
162.096113
 21
110.153287
 31
0.0
  0
LINE
  5
396A
100
AcDbEntity
  8
0
100
AcDbLine
 10
166.339509
 20
110.729053
 30
0.0
 11
161.339509
 21
110.729053
 31
0.0
  0
ARC
  5
396B
100
AcDbEntity
  8
0
100
AcDbCircle
 10
157.142056
 20
106.479053
 30
0.0
 40
9.205864
100
AcDbArc
 50
336.476889
 51
23.523111
  0
LINE
  5
396C
100
AcDbEntity
  8
0
100
AcDbLine
 10
166.339509
 20
110.729053
 30
0.0
 11
166.33958
 21
102.229023
 31
0.0
  0
LINE
  5
396D
100
AcDbEntity
  8
0
100
AcDbLine
 10
166.339509
 20
110.729113
 30
0.0
 11
166.339721
 21
108.228995
 31
0.0
  0
LINE
  5
396E
100
AcDbEntity
  8
0
100
AcDbLine
 10
165.582905
 20
102.804818
 30
0.0
 11
165.582905
 21
101.653287
 31
0.0
  0
LINE
  5
396F
100
AcDbEntity
  8
0
100
AcDbLine
 10
165.582905
 20
110.153287
 30
0.0
 11
166.339509
 21
110.729113
 31
0.0
  0
LINE
  5
3970
100
AcDbEntity
  8
0
100
AcDbLine
 10
161.339509
 20
110.729113
 30
0.0
 11
161.339297
 21
108.228995
 31
0.0
  0
ARC
  5
3971
100
AcDbEntity
  8
0
100
AcDbCircle
 10
170.536962
 20
106.479053
 30
0.0
 40
9.205864
100
AcDbArc
 50
156.476889
 51
203.523111
  0
LINE
  5
3972
100
AcDbEntity
  8
0
100
AcDbLine
 10
161.339509
 20
110.729071
 30
0.0
 11
161.339338
 21
108.228954
 31
0.0
  0
LINE
  5
3973
100
AcDbEntity
  8
0
100
AcDbLine
 10
162.096113
 20
102.804818
 30
0.0
 11
162.096113
 21
101.653287
 31
0.0
  0
LINE
  5
3974
100
AcDbEntity
  8
0
100
AcDbLine
 10
158.40688
 20
110.228738
 30
0.0
 11
161.339486
 21
110.229117
 31
0.0
  0
LINE
  5
3975
100
AcDbEntity
  8
0
100
AcDbLine
 10
162.096113
 20
110.153287
 30
0.0
 11
161.339509
 21
110.729053
 31
0.0
  0
ARC
  5
3976
100
AcDbEntity
  8
0
100
AcDbCircle
 10
150.048038
 20
102.229153
 30
0.0
 40
15.641109
100
AcDbArc
 50
159.472564
 51
200.528852
  0
LINE
  5
3977
100
AcDbEntity
  8
0
100
AcDbLine
 10
134.406987
 20
92.978925
 30
0.0
 11
134.406872
 21
111.478624
 31
0.0
  0
ARC
  5
3978
100
AcDbEntity
  8
0
100
AcDbCircle
 10
133.76582
 20
102.229053
 30
0.0
 40
15.641109
100
AcDbArc
 50
339.471856
 51
20.528144
  0
LINE
  5
3979
100
AcDbEntity
  8
0
100
AcDbLine
 10
149.406987
 20
92.979018
 30
0.0
 11
149.406872
 21
111.478717
 31
0.0
  0
LINE
  5
397A
100
AcDbEntity
  8
0
100
AcDbLine
 10
133.90697
 20
95.650556
 30
0.0
 11
133.906889
 21
108.80755
 31
0.0
  0
LINE
  5
397B
100
AcDbEntity
  8
0
100
AcDbLine
 10
131.90697
 20
95.650273
 30
0.0
 11
131.906889
 21
108.807691
 31
0.0
  0
LINE
  5
397C
100
AcDbEntity
  8
0
100
AcDbLine
 10
135.400177
 20
96.744225
 30
0.0
 11
148.41372
 21
96.744225
 31
0.0
  0
LINE
  5
397D
100
AcDbEntity
  8
0
100
AcDbLine
 10
135.400207
 20
91.259398
 30
0.0
 11
148.41372
 21
91.259398
 31
0.0
  0
LINE
  5
397E
100
AcDbEntity
  8
0
100
AcDbLine
 10
148.41372
 20
91.259398
 30
0.0
 11
149.406987
 21
92.979018
 31
0.0
  0
ARC
  5
397F
100
AcDbEntity
  8
0
100
AcDbCircle
 10
145.123979
 20
94.001811
 30
0.0
 40
4.282899
100
AcDbArc
 50
339.793312
 51
39.815472
  0
LINE
  5
3980
100
AcDbEntity
  8
0
100
AcDbLine
 10
135.400274
 20
91.259317
 30
0.0
 11
134.406987
 21
92.978925
 31
0.0
  0
ARC
  5
3981
100
AcDbEntity
  8
0
100
AcDbCircle
 10
132.902984
 20
95.491071
 30
0.0
 40
1.015797
100
AcDbArc
 50
9.033063
 51
170.975002
  0
ARC
  5
3982
100
AcDbEntity
  8
0
100
AcDbCircle
 10
138.689981
 20
94.001772
 30
0.0
 40
4.282899
100
AcDbArc
 50
140.185236
 51
200.207396
  0
LINE
  5
3983
100
AcDbEntity
  8
0
100
AcDbLine
 10
134.406581
 20
95.650556
 30
0.0
 11
133.90697
 21
95.650556
 31
0.0
  0
LINE
  5
3984
100
AcDbEntity
  8
0
100
AcDbLine
 10
135.399871
 20
107.713267
 30
0.0
 11
148.413652
 21
107.713427
 31
0.0
  0
LINE
  5
3985
100
AcDbEntity
  8
0
100
AcDbLine
 10
135.40005
 20
113.198708
 30
0.0
 11
148.41372
 21
113.198708
 31
0.0
  0
ARC
  5
3986
100
AcDbEntity
  8
0
100
AcDbCircle
 10
145.123979
 20
110.456294
 30
0.0
 40
4.282899
100
AcDbArc
 50
320.184528
 51
20.206688
  0
CIRCLE
  5
3987
100
AcDbEntity
  8
0
100
AcDbCircle
 10
145.40678
 20
102.229053
 30
0.0
 40
1.5
  0
LINE
  5
3988
100
AcDbEntity
  8
0
100
AcDbLine
 10
148.41372
 20
113.198708
 30
0.0
 11
149.407201
 21
111.478717
 31
0.0
  0
ARC
  5
3989
100
AcDbEntity
  8
0
100
AcDbCircle
 10
138.689778
 20
110.456254
 30
0.0
 40
4.282899
100
AcDbArc
 50
159.79402
 51
219.81618
  0
ARC
  5
398A
100
AcDbEntity
  8
0
100
AcDbCircle
 10
132.903323
 20
108.967035
 30
0.0
 40
1.015797
100
AcDbArc
 50
189.024998
 51
350.966937
  0
LINE
  5
398B
100
AcDbEntity
  8
0
100
AcDbLine
 10
134.40692
 20
108.80755
 30
0.0
 11
133.906889
 21
108.80755
 31
0.0
  0
LINE
  5
398C
100
AcDbEntity
  8
0
100
AcDbLine
 10
135.40005
 20
113.198708
 30
0.0
 11
134.406544
 21
111.478624
 31
0.0
  0
LINE
  5
398D
100
AcDbEntity
  8
0
100
AcDbLine
 10
140.703173
 20
142.09551
 30
0.0
 11
153.012811
 21
142.095896
 31
0.0
  0
LINE
  5
398E
100
AcDbEntity
  8
0
100
AcDbLine
 10
139.502283
 20
132.595499
 30
0.0
 11
154.358034
 21
132.596103
 31
0.0
  0
ARC
  5
398F
100
AcDbEntity
  8
0
100
AcDbCircle
 10
145.714421
 20
137.463204
 30
0.0
 40
8.644361
100
AcDbArc
 50
325.728721
 51
32.404957
  0
LINE
  5
3990
100
AcDbEntity
  8
0
100
AcDbLine
 10
165.656286
 20
148.674339
 30
0.0
 11
156.857975
 21
148.674618
 31
0.0
  0
LINE
  5
3991
100
AcDbEntity
  8
0
100
AcDbLine
 10
156.857894
 20
135.5172
 30
0.0
 11
165.656286
 21
135.517623
 31
0.0
  0
LINE
  5
3992
100
AcDbEntity
  8
0
100
AcDbLine
 10
166.357899
 20
136.406433
 30
0.0
 11
166.357934
 21
142.095864
 31
0.0
  0
LINE
  5
3993
100
AcDbEntity
  8
0
100
AcDbLine
 10
165.656286
 20
148.674339
 30
0.0
 11
165.656286
 21
135.517623
 31
0.0
  0
LINE
  5
3994
100
AcDbEntity
  8
0
100
AcDbLine
 10
165.656286
 20
135.517479
 30
0.0
 11
166.35797
 21
136.406522
 31
0.0
  0
LINE
  5
3995
100
AcDbEntity
  8
0
100
AcDbLine
 10
166.357934
 20
142.095864
 30
0.0
 11
166.35797
 21
147.785296
 31
0.0
  0
LINE
  5
3996
100
AcDbEntity
  8
0
100
AcDbLine
 10
165.656286
 20
148.674339
 30
0.0
 11
166.35797
 21
147.785296
 31
0.0
  0
LINE
  5
3997
100
AcDbEntity
  8
0
100
AcDbLine
 10
156.858003
 20
135.5172
 30
0.0
 11
156.857866
 21
148.674618
 31
0.0
  0
LINE
  5
3998
100
AcDbEntity
  8
0
100
AcDbLine
 10
154.858003
 20
135.517449
 30
0.0
 11
154.857866
 21
148.674444
 31
0.0
  0
ARC
  5
3999
100
AcDbEntity
  8
0
100
AcDbCircle
 10
155.861992
 20
135.357981
 30
0.0
 40
1.015797
100
AcDbArc
 50
9.025951
 51
170.96789
  0
LINE
  5
399A
100
AcDbEntity
  8
0
100
AcDbLine
 10
154.358392
 20
135.517441
 30
0.0
 11
154.858003
 21
135.517449
 31
0.0
  0
ARC
  5
399B
100
AcDbEntity
  8
0
100
AcDbCircle
 10
155.861429
 20
148.833945
 30
0.0
 40
1.015797
100
AcDbArc
 50
189.034016
 51
350.975955
  0
LINE
  5
399C
100
AcDbEntity
  8
0
100
AcDbLine
 10
154.357834
 20
148.674435
 30
0.0
 11
154.857866
 21
148.674444
 31
0.0
  0
ARC
  5
399D
100
AcDbEntity
  8
0
100
AcDbCircle
 10
148.001602
 20
137.463242
 30
0.0
 40
8.644361
100
AcDbArc
 50
147.59695
 51
214.273185
  0
LINE
  5
399E
100
AcDbEntity
  8
0
100
AcDbLine
 10
130.358031
 20
132.845521
 30
0.0
 11
139.358031
 21
132.845671
 31
0.0
  0
LINE
  5
399F
100
AcDbEntity
  8
0
100
AcDbLine
 10
139.358171
 20
132.845671
 30
0.0
 11
139.502283
 21
132.595499
 31
0.0
  0
LINE
  5
39A0
100
AcDbEntity
  8
0
100
AcDbLine
 10
122.406965
 20
96.539506
 30
0.0
 11
122.406929
 21
102.228938
 31
0.0
  0
LINE
  5
39A1
100
AcDbEntity
  8
0
100
AcDbLine
 10
123.108578
 20
108.807412
 30
0.0
 11
123.108578
 21
95.650696
 31
0.0
  0
LINE
  5
39A2
100
AcDbEntity
  8
0
100
AcDbLine
 10
123.108578
 20
95.650552
 30
0.0
 11
122.406894
 21
96.539595
 31
0.0
  0
LINE
  5
39A3
100
AcDbEntity
  8
0
100
AcDbLine
 10
122.406929
 20
102.228938
 30
0.0
 11
122.406894
 21
107.918369
 31
0.0
  0
LINE
  5
39A4
100
AcDbEntity
  8
0
100
AcDbLine
 10
123.108578
 20
108.807412
 30
0.0
 11
122.406894
 21
107.918369
 31
0.0
  0
LINE
  5
39A5
100
AcDbEntity
  8
0
100
AcDbLine
 10
127.425355
 20
133.595388
 30
0.0
 11
126.683016
 21
132.595755
 31
0.0
  0
ARC
  5
39A6
100
AcDbEntity
  8
0
100
AcDbCircle
 10
124.096839
 20
134.725462
 30
0.0
 40
3.339343
100
AcDbArc
 50
320.367552
 51
39.634354
  0
LINE
  5
39A7
100
AcDbEntity
  8
0
100
AcDbLine
 10
122.425355
 20
133.595347
 30
0.0
 11
123.167975
 21
132.595369
 31
0.0
  0
ARC
  5
39A8
100
AcDbEntity
  8
0
100
AcDbCircle
 10
125.753848
 20
134.72549
 30
0.0
 40
3.339343
100
AcDbArc
 50
140.367552
 51
219.634355
  0
LINE
  5
39A9
100
AcDbEntity
  8
0
100
AcDbLine
 10
123.167975
 20
132.595369
 30
0.0
 11
126.683016
 21
132.595755
 31
0.0
  0
ARC
  5
39AA
100
AcDbEntity
  8
0
100
AcDbCircle
 10
134.617382
 20
142.09561
 30
0.0
 40
12.197086
100
AcDbArc
 50
159.645665
 51
200.356241
  0
ARC
  5
39AB
100
AcDbEntity
  8
0
100
AcDbCircle
 10
115.23306
 20
142.095287
 30
0.0
 40
12.197086
100
AcDbArc
 50
339.645665
 51
20.356241
  0
LINE
  5
39AC
100
AcDbEntity
  8
0
100
AcDbLine
 10
126.66857
 20
136.855582
 30
0.0
 11
126.668554
 21
137.852837
 31
0.0
  0
LINE
  5
39AD
100
AcDbEntity
  8
0
100
AcDbLine
 10
123.182046
 20
136.855524
 30
0.0
 11
123.18203
 21
137.852779
 31
0.0
  0
LINE
  5
39AE
100
AcDbEntity
  8
0
100
AcDbLine
 10
123.182046
 20
136.855524
 30
0.0
 11
126.66857
 21
136.855582
 31
0.0
  0
LINE
  5
39AF
100
AcDbEntity
  8
0
100
AcDbLine
 10
127.425213
 20
136.095577
 30
0.0
 11
127.425355
 21
133.595388
 31
0.0
  0
LINE
  5
39B0
100
AcDbEntity
  8
0
100
AcDbLine
 10
122.425455
 20
136.095535
 30
0.0
 11
122.425355
 21
133.595347
 31
0.0
  0
LINE
  5
39B1
100
AcDbEntity
  8
0
100
AcDbLine
 10
126.668554
 20
137.852837
 30
0.0
 11
123.18203
 21
137.852779
 31
0.0
  0
LINE
  5
39B2
100
AcDbEntity
  8
0
100
AcDbLine
 10
126.668412
 20
146.338118
 30
0.0
 11
123.181888
 21
146.33806
 31
0.0
  0
LINE
  5
39B3
100
AcDbEntity
  8
0
100
AcDbLine
 10
123.181872
 20
147.335315
 30
0.0
 11
126.668396
 21
147.335373
 31
0.0
  0
LINE
  5
39B4
100
AcDbEntity
  8
0
100
AcDbLine
 10
126.668396
 20
147.335373
 30
0.0
 11
126.668412
 21
146.338118
 31
0.0
  0
LINE
  5
39B5
100
AcDbEntity
  8
0
100
AcDbLine
 10
123.181872
 20
147.335315
 30
0.0
 11
123.181888
 21
146.33806
 31
0.0
  0
LINE
  5
39B6
100
AcDbEntity
  8
0
100
AcDbLine
 10
130.357851
 20
150.095224
 30
0.0
 11
127.425244
 21
150.095555
 31
0.0
  0
LINE
  5
39B7
100
AcDbEntity
  8
0
100
AcDbLine
 10
154.357835
 20
151.595705
 30
0.0
 11
139.501967
 21
151.595458
 31
0.0
  0
LINE
  5
39B8
100
AcDbEntity
  8
0
100
AcDbLine
 10
139.357838
 20
151.345352
 30
0.0
 11
130.357838
 21
151.345839
 31
0.0
  0
LINE
  5
39B9
100
AcDbEntity
  8
0
100
AcDbLine
 10
141.858036
 20
152.234722
 30
0.0
 11
144.857795
 21
152.23456
 31
0.0
  0
LINE
  5
39BA
100
AcDbEntity
  8
0
100
AcDbLine
 10
144.857795
 20
152.23456
 30
0.0
 11
144.857851
 21
151.595547
 31
0.0
  0
LINE
  5
39BB
100
AcDbEntity
  8
0
100
AcDbLine
 10
141.858002
 20
151.595497
 30
0.0
 11
141.858036
 21
152.234722
 31
0.0
  0
LINE
  5
39BC
100
AcDbEntity
  8
0
100
AcDbLine
 10
139.501967
 20
151.595458
 30
0.0
 11
139.357509
 21
151.345352
 31
0.0
  0
LINE
  5
39BD
100
AcDbEntity
  8
0
100
AcDbLine
 10
126.668325
 20
151.595733
 30
0.0
 11
123.181801
 21
151.595328
 31
0.0
  0
LINE
  5
39BE
100
AcDbEntity
  8
0
100
AcDbLine
 10
126.668325
 20
151.595733
 30
0.0
 11
127.425213
 21
150.595508
 31
0.0
  0
LINE
  5
39BF
100
AcDbEntity
  8
0
100
AcDbLine
 10
123.181801
 20
151.595328
 30
0.0
 11
122.425213
 21
150.595467
 31
0.0
  0
LINE
  5
39C1
100
AcDbEntity
  8
0
100
AcDbLine
 10
146.90678
 20
72.561778
 30
0.0
 11
146.90678
 21
71.861778
 31
0.0
  0
LINE
  5
39C2
100
AcDbEntity
  8
0
100
AcDbLine
 10
143.90678
 20
72.561778
 30
0.0
 11
143.90678
 21
71.861778
 31
0.0
  0
LINE
  5
39C4
100
AcDbEntity
  8
0
100
AcDbLine
 10
93.773745
 20
72.56201
 30
0.0
 11
93.773745
 21
71.86201
 31
0.0
  0
LINE
  5
39C5
100
AcDbEntity
  8
0
100
AcDbLine
 10
90.773745
 20
72.56201
 30
0.0
 11
90.773745
 21
71.86201
 31
0.0
  0
INSERT
  5
39D3
100
AcDbEntity
  8
0
100
AcDbBlockReference
  2
YA
 10
169.28987
 20
142.444401
 30
0.0
 41
-0.571204
 42
0.571204
 43
0.571204
  0
LINE
  5
39D8
100
AcDbEntity
  8
0
100
AcDbLine
 10
143.90678
 20
72.561778
 30
0.0
 11
146.90678
 21
72.561778
 31
0.0
  0
LINE
  5
39DF
100
AcDbEntity
  8
0
100
AcDbLine
 10
90.773745
 20
72.56201
 30
0.0
 11
93.773745
 21
72.56201
 31
0.0
  0
POLYLINE
  5
39FC
100
AcDbEntity
  8
0
100
AcDb2dPolyline
 66
     1
 10
0.0
 20
0.0
 30
0.0
 70
     1
  0
VERTEX
  5
3A73
100
AcDbEntity
  8
0
100
AcDbVertex
100
AcDb2dVertex
 10
192.097523
 20
71.86201
 30
0.0
  0
VERTEX
  5
3A74
100
AcDbEntity
  8
0
100
AcDbVertex
100
AcDb2dVertex
 10
197.582351
 20
62.36201
 30
0.0
  0
VERTEX
  5
3A75
100
AcDbEntity
  8
0
100
AcDbVertex
100
AcDb2dVertex
 10
192.097523
 20
52.86201
 30
0.0
  0
VERTEX
  5
3A76
100
AcDbEntity
  8
0
100
AcDbVertex
100
AcDb2dVertex
 10
181.127868
 20
52.86201
 30
0.0
  0
VERTEX
  5
3A77
100
AcDbEntity
  8
0
100
AcDbVertex
100
AcDb2dVertex
 10
175.643041
 20
62.36201
 30
0.0
  0
VERTEX
  5
3A78
100
AcDbEntity
  8
0
100
AcDbVertex
100
AcDb2dVertex
 10
181.127868
 20
71.86201
 30
0.0
  0
SEQEND
  5
3A79
100
AcDbEntity
  8
0
  0
LINE
  5
39FD
100
AcDbEntity
  8
0
100
AcDbLine
 10
185.112696
 20
72.56201
 30
0.0
 11
185.112696
 21
71.86201
 31
0.0
  0
LINE
  5
39FE
100
AcDbEntity
  8
0
100
AcDbLine
 10
188.112696
 20
72.56201
 30
0.0
 11
188.112696
 21
71.86201
 31
0.0
  0
LINE
  5
39FF
100
AcDbEntity
  8
0
100
AcDbLine
 10
185.112696
 20
72.56201
 30
0.0
 11
188.112696
 21
72.56201
 31
0.0
  0
VIEWPORT
  5
41
100
AcDbEntity
 67
     1
  8
0
100
AcDbViewport
 10
117.358407
 20
73.5
 30
0.0
 40
234.716814
 41
147.0
 68
    -1
 69
     1
1001
ACAD
1000
MVIEW
1002
{
1070
    16
1010
0.0
1020
0.0
1030
0.0
1010
0.0
1020
0.0
1030
1.0
1040
0.0
1040
147.0
1040
117.358407
1040
73.5
1040
50.0
1040
0.0
1040
0.0
1070
     0
1070
   100
1070
     1
1070
     1
1070
     0
1070
     0
1070
     0
1070
     0
1040
0.0
1040
0.0
1040
0.0
1040
1.0
1040
1.0
1040
0.0
1040
0.0
1070
     0
1002
{
1002
}
1002
}
  0
ENDSEC
  0
SECTION
  2
OBJECTS
  0
DICTIONARY
  5
C
100
AcDbDictionary
  3
ACAD_GROUP
350
D
  3
ACAD_MLINESTYLE
350
E
  0
DICTIONARY
  5
D
102
{ACAD_REACTORS
330
C
102
}
100
AcDbDictionary
  0
DICTIONARY
  5
E
102
{ACAD_REACTORS
330
C
102
}
100
AcDbDictionary
  3
STANDARD
350
1B
  0
MLINESTYLE
  5
1B
102
{ACAD_REACTORS
330
E
102
}
100
AcDbMlineStyle
  2
STANDARD
 70
     0
  3

 62
     0
 51
90.0
 52
90.0
 71
     2
 49
0.5
 62
   256
  6
BYLAYER
 49
-0.5
 62
   256
  6
BYLAYER
  0
ENDSEC
  0
EOF
