  0
SECTION
  2
HEADER
  9
$ACADVER
  1
AC1012
  9
$DWGCODEPAGE
  3
dos932
  9
$INSBASE
 10
0.0
 20
0.0
 30
0.0
  9
$EXTMIN
 10
66.0
 20
30.0
 30
0.0
  9
$EXTMAX
 10
1716.0
 20
1146.0
 30
0.0
  9
$LIMMIN
 10
0.0
 20
0.0
  9
$LIMMAX
 10
1782.0
 20
1260.0
  9
$ORTHOMODE
 70
     1
  9
$REGENMODE
 70
     1
  9
$FILLMODE
 70
     1
  9
$QTEXTMODE
 70
     0
  9
$MIRRTEXT
 70
     1
  9
$DRAGMODE
 70
     2
  9
$LTSCALE
 40
24.0
  9
$OSMODE
 70
   163
  9
$ATTMODE
 70
     1
  9
$TEXTSIZE
 40
24.0
  9
$TRACEWID
 40
0.05
  9
$TEXTSTYLE
  7
STANDARD
  9
$CLAYER
  8
0
  9
$CELTYPE
  6
BYLAYER
  9
$CECOLOR
 62
   256
  9
$CELTSCALE
 40
1.0
  9
$DELOBJ
 70
     1
  9
$DISPSILH
 70
     0
  9
$DIMSCALE
 40
6.0
  9
$DIMASZ
 40
2.8
  9
$DIMEXO
 40
1.0
  9
$DIMDLI
 40
5.0
  9
$DIMRND
 40
0.1
  9
$DIMDLE
 40
0.0
  9
$DIMEXE
 40
1.0
  9
$DIMTP
 40
0.0
  9
$DIMTM
 40
0.0
  9
$DIMTXT
 40
2.5
  9
$DIMCEN
 40
0.0
  9
$DIMTSZ
 40
0.0
  9
$DIMTOL
 70
     0
  9
$DIMLIM
 70
     0
  9
$DIMTIH
 70
     0
  9
$DIMTOH
 70
     0
  9
$DIMSE1
 70
     0
  9
$DIMSE2
 70
     0
  9
$DIMTAD
 70
     3
  9
$DIMZIN
 70
     8
  9
$DIMBLK
  1

  9
$DIMASO
 70
     1
  9
$DIMSHO
 70
     1
  9
$DIMPOST
  1
 
  9
$DIMAPOST
  1

  9
$DIMALT
 70
     0
  9
$DIMALTD
 70
     2
  9
$DIMALTF
 40
1.0
  9
$DIMLFAC
 40
1.0
  9
$DIMTOFL
 70
     1
  9
$DIMTVP
 40
0.0
  9
$DIMTIX
 70
     0
  9
$DIMSOXD
 70
     0
  9
$DIMSAH
 70
     1
  9
$DIMBLK1
  1
_OPEN
  9
$DIMBLK2
  1
_OPEN
  9
$DIMSTYLE
  2
DIM1
  9
$DIMCLRD
 70
     2
  9
$DIMCLRE
 70
     2
  9
$DIMCLRT
 70
     2
  9
$DIMTFAC
 40
0.7
  9
$DIMGAP
 40
0.85
  9
$DIMJUST
 70
     0
  9
$DIMSD1
 70
     0
  9
$DIMSD2
 70
     0
  9
$DIMTOLJ
 70
     1
  9
$DIMTZIN
 70
     8
  9
$DIMALTZ
 70
     8
  9
$DIMALTTZ
 70
     8
  9
$DIMFIT
 70
     0
  9
$DIMUPT
 70
     0
  9
$DIMUNIT
 70
     2
  9
$DIMDEC
 70
     2
  9
$DIMTDEC
 70
     3
  9
$DIMALTU
 70
     2
  9
$DIMALTTD
 70
     3
  9
$DIMTXSTY
  7
DIM
  9
$DIMAUNIT
 70
     0
  9
$LUNITS
 70
     2
  9
$LUPREC
 70
     4
  9
$SKETCHINC
 40
0.1
  9
$FILLETRAD
 40
5.0
  9
$AUNITS
 70
     0
  9
$AUPREC
 70
     0
  9
$MENU
  1
C:\ACADR13\WIN\SUPPORT\ACAD.mnc
  9
$ELEVATION
 40
0.0
  9
$PELEVATION
 40
0.0
  9
$THICKNESS
 40
0.0
  9
$LIMCHECK
 70
     0
  9
$BLIPMODE
 70
     1
  9
$CHAMFERA
 40
0.0
  9
$CHAMFERB
 40
0.0
  9
$CHAMFERC
 40
0.0
  9
$CHAMFERD
 40
0.0
  9
$SKPOLY
 70
     0
  9
$TDCREATE
 40
2451564.376489502
  9
$TDUPDATE
 40
2451967.665351921
  9
$TDINDWG
 40
0.4538084722
  9
$TDUSRTIMER
 40
0.4538084722
  9
$USRTIMER
 70
     1
  9
$ANGBASE
 50
0.0
  9
$ANGDIR
 70
     0
  9
$PDMODE
 70
     0
  9
$PDSIZE
 40
0.0
  9
$PLINEWID
 40
0.0
  9
$COORDS
 70
     2
  9
$SPLFRAME
 70
     0
  9
$SPLINETYPE
 70
     6
  9
$SPLINESEGS
 70
     8
  9
$ATTDIA
 70
     0
  9
$ATTREQ
 70
     1
  9
$HANDLING
 70
     1
  9
$HANDSEED
  5
6AA6
  9
$SURFTAB1
 70
     6
  9
$SURFTAB2
 70
     6
  9
$SURFTYPE
 70
     6
  9
$SURFU
 70
     6
  9
$SURFV
 70
     6
  9
$UCSNAME
  2

  9
$UCSORG
 10
0.0
 20
0.0
 30
0.0
  9
$UCSXDIR
 10
1.0
 20
0.0
 30
0.0
  9
$UCSYDIR
 10
0.0
 20
1.0
 30
0.0
  9
$PUCSNAME
  2

  9
$PUCSORG
 10
0.0
 20
0.0
 30
0.0
  9
$PUCSXDIR
 10
1.0
 20
0.0
 30
0.0
  9
$PUCSYDIR
 10
0.0
 20
1.0
 30
0.0
  9
$USERI1
 70
     0
  9
$USERI2
 70
     0
  9
$USERI3
 70
     0
  9
$USERI4
 70
     0
  9
$USERI5
 70
     0
  9
$USERR1
 40
0.0
  9
$USERR2
 40
0.0
  9
$USERR3
 40
0.0
  9
$USERR4
 40
0.0
  9
$USERR5
 40
0.0
  9
$WORLDVIEW
 70
     1
  9
$SHADEDGE
 70
     3
  9
$SHADEDIF
 70
    70
  9
$TILEMODE
 70
     1
  9
$MAXACTVP
 70
    16
  9
$PINSBASE
 10
0.0
 20
0.0
 30
0.0
  9
$PLIMCHECK
 70
     0
  9
$PEXTMIN
 10
1.000000E+20
 20
1.000000E+20
 30
1.000000E+20
  9
$PEXTMAX
 10
-1.000000E+20
 20
-1.000000E+20
 30
-1.000000E+20
  9
$PLIMMIN
 10
0.0
 20
0.0
  9
$PLIMMAX
 10
20.0
 20
147.0
  9
$UNITMODE
 70
     0
  9
$VISRETAIN
 70
     0
  9
$PLINEGEN
 70
     0
  9
$PSLTSCALE
 70
     1
  9
$TREEDEPTH
 70
  3020
  9
$PICKSTYLE
 70
     0
  9
$CMLSTYLE
  2
STANDARD
  9
$CMLJUST
 70
     0
  9
$CMLSCALE
 40
1.0
  9
$SAVEIMAGES
 70
     1
  0
ENDSEC
  0
SECTION
  2
CLASSES
  0
CLASS
  1
LWPOLYLINE
  2
AcDbPolyline
  3
"AutoCAD"
 90
    32768
280
     0
281
     1
  0
ENDSEC
  0
SECTION
  2
TABLES
  0
TABLE
  2
VPORT
  5
8
100
AcDbSymbolTable
 70
     2
  0
VPORT
  5
6AA5
100
AcDbSymbolTableRecord
100
AcDbViewportTableRecord
  2
*ACTIVE
 70
     0
 10
0.0
 20
0.0
 11
1.0
 21
1.0
 12
1156.26072
 22
656.197066
 13
0.0
 23
0.0
 14
1.0
 24
1.0
 15
20.0
 25
20.0
 16
0.0
 26
0.0
 36
1.0
 17
0.0
 27
0.0
 37
0.0
 40
1312.394132
 41
1.762063
 42
50.0
 43
0.0
 44
0.0
 50
0.0
 51
0.0
 71
     0
 72
   100
 73
     1
 74
     1
 75
     0
 76
     0
 77
     0
 78
     0
  0
ENDTAB
  0
TABLE
  2
LTYPE
  5
5
100
AcDbSymbolTable
 70
     5
  0
LTYPE
  5
12
100
AcDbSymbolTableRecord
100
AcDbLinetypeTableRecord
  2
BYBLOCK
 70
     0
  3

 72
    65
 73
     0
 40
0.0
  0
LTYPE
  5
13
100
AcDbSymbolTableRecord
100
AcDbLinetypeTableRecord
  2
BYLAYER
 70
     0
  3

 72
    65
 73
     0
 40
0.0
  0
LTYPE
  5
14
100
AcDbSymbolTableRecord
100
AcDbLinetypeTableRecord
  2
CONTINUOUS
 70
     0
  3
Solid line
 72
    65
 73
     0
 40
0.0
  0
ENDTAB
  0
TABLE
  2
LAYER
  5
2
100
AcDbSymbolTable
 70
     6
  0
LAYER
  5
F
100
AcDbSymbolTableRecord
100
AcDbLayerTableRecord
  2
0
 70
     0
 62
     7
  6
CONTINUOUS
  0
ENDTAB
  0
TABLE
  2
STYLE
  5
3
100
AcDbSymbolTable
 70
     3
  0
STYLE
  5
10
100
AcDbSymbolTableRecord
100
AcDbTextStyleTableRecord
  2
STANDARD
 70
     0
 40
0.0
 41
0.8
 50
0.0
 71
     0
 42
24.0
  3
simplex
  4
extfont
  0
STYLE
  5
237C
100
AcDbSymbolTableRecord
100
AcDbTextStyleTableRecord
  2
PTSH
 70
     0
 40
0.0
 41
0.9
 50
0.0
 71
     0
 42
4.0
  3
SIMPLEX
  4
EXTFONT
  0
STYLE
  5
2592
100
AcDbSymbolTableRecord
100
AcDbTextStyleTableRecord
  2
DIM
 70
     0
 40
0.0
 41
0.8
 50
0.0
 71
     0
 42
4.0
  3
simplex
  4
extfont
  0
ENDTAB
  0
TABLE
  2
VIEW
  5
6
100
AcDbSymbolTable
 70
     0
  0
ENDTAB
  0
TABLE
  2
UCS
  5
7
100
AcDbSymbolTable
 70
     0
  0
ENDTAB
  0
TABLE
  2
APPID
  5
9
100
AcDbSymbolTable
 70
     1
  0
APPID
  5
11
100
AcDbSymbolTableRecord
100
AcDbRegAppTableRecord
  2
ACAD
 70
     0
  0
ENDTAB
  0
TABLE
  2
DIMSTYLE
  5
A
100
AcDbSymbolTable
 70
     1
  0
DIMSTYLE
105
2237
100
AcDbSymbolTableRecord
100
AcDbDimStyleTableRecord
  2
DIM1
 70
     0
  3
 
  4

  5

  6
_OPEN
  7
_OPEN
 40
6.0
 41
2.8
 42
1.0
 43
5.0
 44
1.0
 45
0.1
 46
0.0
 47
0.0
 48
0.0
140
2.5
141
0.0
142
0.0
143
1.0
144
1.0
145
0.0
146
0.7
147
0.85
 71
     0
 72
     0
 73
     0
 74
     0
 75
     0
 76
     0
 77
     3
 78
     8
170
     0
171
     2
172
     1
173
     1
174
     0
175
     0
176
     2
177
     2
178
     2
270
     2
271
     2
272
     3
273
     2
274
     3
340
2592
275
     0
280
     0
281
     0
282
     0
283
     1
284
     8
285
     8
286
     8
287
     0
288
     0
  0
ENDTAB
  0
TABLE
  2
BLOCK_RECORD
  5
1
100
AcDbSymbolTable
 70
     2
  0
BLOCK_RECORD
  5
18
100
AcDbSymbolTableRecord
100
AcDbBlockTableRecord
  2
*MODEL_SPACE
  0
BLOCK_RECORD
  5
15
100
AcDbSymbolTableRecord
100
AcDbBlockTableRecord
  2
*PAPER_SPACE
  0
BLOCK_RECORD
  5
2448
100
AcDbSymbolTableRecord
100
AcDbBlockTableRecord
  2
_OPEN
  0
BLOCK_RECORD
  5
435F
100
AcDbSymbolTableRecord
100
AcDbBlockTableRecord
  2
YA
  0
ENDTAB
  0
ENDSEC
  0
SECTION
  2
BLOCKS
  0
BLOCK
  5
3C
100
AcDbEntity
  8
0
100
AcDbBlockBegin
  2
*MODEL_SPACE
 70
     0
 10
0.0
 20
0.0
 30
0.0
  3
*MODEL_SPACE
  1

  0
ENDBLK
  5
3D
100
AcDbEntity
  8
0
100
AcDbBlockEnd
  0
BLOCK
  5
3A
100
AcDbEntity
 67
     1
  8
0
100
AcDbBlockBegin
  2
*PAPER_SPACE
 70
     0
 10
0.0
 20
0.0
 30
0.0
  3
*PAPER_SPACE
  1

  0
ENDBLK
  5
3B
100
AcDbEntity
 67
     1
  8
0
100
AcDbBlockEnd
  0
BLOCK
  5
2449
100
AcDbEntity
  8
0
 48
4.0
100
AcDbBlockBegin
  2
_OPEN
 70
     0
 10
0.0
 20
0.0
 30
0.0
  3
_OPEN
  1
H1111.DWG
  0
LINE
  5
244A
100
AcDbEntity
  8
0
  6
BYBLOCK
 62
     0
 48
4.0
100
AcDbLine
 10
-1.0
 20
0.166667
 30
0.0
 11
0.0
 21
0.0
 31
0.0
  0
LINE
  5
244B
100
AcDbEntity
  8
0
  6
BYBLOCK
 62
     0
 48
4.0
100
AcDbLine
 10
0.0
 20
0.0
 30
0.0
 11
-1.0
 21
-0.166667
 31
0.0
  0
LINE
  5
244C
100
AcDbEntity
  8
0
  6
BYBLOCK
 62
     0
 48
4.0
100
AcDbLine
 10
0.0
 20
0.0
 30
0.0
 11
-1.0
 21
0.0
 31
0.0
  0
ENDBLK
  5
244D
100
AcDbEntity
  8
0
 48
4.0
100
AcDbBlockEnd
  0
BLOCK
  5
4367
100
AcDbEntity
  8
0
100
AcDbBlockBegin
  2
YA
 70
     0
 10
0.0
 20
0.0
 30
0.0
  3
YA
  1

  0
LINE
  5
4360
100
AcDbEntity
  8
0
100
AcDbLine
 10
-16.8065
 20
2.801
 30
0.0
 11
-8.4035
 21
2.801
 31
0.0
  0
LINE
  5
4361
100
AcDbEntity
  8
0
100
AcDbLine
 10
-8.4035
 20
2.801
 30
0.0
 11
-7.0025
 21
1.4005
 31
0.0
  0
LINE
  5
4362
100
AcDbEntity
  8
0
100
AcDbLine
 10
-7.0025
 20
1.4005
 30
0.0
 11
-2.862
 21
1.4005
 31
0.0
  0
LINE
  5
4363
100
AcDbEntity
  8
0
100
AcDbLine
 10
-2.862
 20
1.4005
 30
0.0
 11
-2.862
 21
2.801
 31
0.0
  0
LINE
  5
4364
100
AcDbEntity
  8
0
100
AcDbLine
 10
-2.862
 20
2.801
 30
0.0
 11
0.0
 21
0.0
 31
0.0
  0
LINE
  5
4365
100
AcDbEntity
  8
0
100
AcDbLine
 10
0.0
 20
0.0
 30
0.0
 11
-14.0055
 21
0.0
 31
0.0
  0
LINE
  5
4366
100
AcDbEntity
  8
0
100
AcDbLine
 10
-14.0055
 20
0.0
 30
0.0
 11
-16.8065
 21
2.801
 31
0.0
  0
ENDBLK
  5
4368
100
AcDbEntity
  8
0
100
AcDbBlockEnd
  0
ENDSEC
  0
SECTION
  2
ENTITIES
  0
MTEXT
  5
ADA
100
AcDbEntity
  8
0
100
AcDbMText
 10
2280.835679
 20
299.077867
 30
0.0
 40
1.2
 41
283.358789
 71
     1
 72
     1
  1

  0
MTEXT
  5
ADB
100
AcDbEntity
  8
0
100
AcDbMText
 10
2334.299599
 20
347.104762
 30
0.0
 40
1.2
 41
272.666005
 71
     1
 72
     1
  1

  0
MTEXT
  5
ADC
100
AcDbEntity
  8
0
100
AcDbMText
 10
2302.221247
 20
-287.917478
 30
0.0
 40
1.2
 41
310.090749
 71
     1
 72
     1
  1

  0
TEXT
  5
2529
100
AcDbEntity
  8
0
  6
CONTINUOUS
100
AcDbText
 10
1608.085714
 20
42.0
 30
0.0
 40
18.0
  1
CK3MG
 41
0.9
  7
PTSH
 72
     2
 11
1686.0
 21
51.0
 31
0.0
100
AcDbText
 73
     2
  0
POLYLINE
  5
2563
100
AcDbEntity
  8
0
100
AcDb2dPolyline
 66
     1
 10
0.0
 20
0.0
 30
0.0
 70
     1
  0
VERTEX
  5
6A42
100
AcDbEntity
  8
0
100
AcDbVertex
100
AcDb2dVertex
 10
66.0
 20
30.0
 30
0.0
  0
VERTEX
  5
6A43
100
AcDbEntity
  8
0
100
AcDbVertex
100
AcDb2dVertex
 10
1716.0
 20
30.0
 30
0.0
  0
VERTEX
  5
6A44
100
AcDbEntity
  8
0
100
AcDbVertex
100
AcDb2dVertex
 10
1716.0
 20
1146.0
 30
0.0
  0
VERTEX
  5
6A45
100
AcDbEntity
  8
0
100
AcDbVertex
100
AcDb2dVertex
 10
66.0
 20
1146.0
 30
0.0
  0
SEQEND
  5
6A46
100
AcDbEntity
  8
0
  0
TEXT
  5
326F
100
AcDbEntity
  8
0
100
AcDbText
 10
761.1
 20
85.023325
 30
0.0
 40
21.0
  1
TLV  CK3MG (PT)
 72
     4
 11
891.0
 21
94.023325
 31
0.0
100
AcDbText
  0
CIRCLE
  5
5088
100
AcDbEntity
  8
0
100
AcDbCircle
 10
1079.382034
 20
211.14317
 30
0.0
 40
60.0
  0
TEXT
  5
509C
100
AcDbEntity
  8
0
100
AcDbText
 10
139.724269
 20
209.924365
 30
0.0
 40
21.0
  1
正面
100
AcDbText
  0
TEXT
  5
510E
100
AcDbEntity
  8
0
100
AcDbText
 10
139.724269
 20
404.0916
 30
0.0
 40
21.0
  1
平面
100
AcDbText
  0
TEXT
  5
510F
100
AcDbEntity
  8
0
100
AcDbText
 10
139.724269
 20
585.36077
 30
0.0
 40
21.0
  1
背面
100
AcDbText
  0
CIRCLE
  5
5171
100
AcDbEntity
  8
0
100
AcDbCircle
 10
1573.565436
 20
211.14317
 30
0.0
 40
49.5
  0
TEXT
  5
5173
100
AcDbEntity
  8
0
100
AcDbText
 10
1344.745601
 20
98.014651
 30
0.0
 40
15.0
  1
80A
 41
0.8
 11
1344.745601
 21
98.014651
 31
0.0
100
AcDbText
 73
     1
  0
INSERT
  5
51BC
100
AcDbEntity
  8
0
100
AcDbBlockReference
  2
YA
 10
1249.230701
 20
211.14317
 30
0.0
 41
3.0
 42
3.0
 43
3.0
  0
LINE
  5
51D3
100
AcDbEntity
  8
0
100
AcDbLine
 10
1374.730701
 20
194.13962
 30
0.0
 11
1374.730701
 21
228.13962
 31
0.0
  0
LINE
  5
51D5
100
AcDbEntity
  8
0
100
AcDbLine
 10
1321.730701
 20
228.14317
 30
0.0
 11
1321.730701
 21
194.14317
 31
0.0
  0
LINE
  5
51D7
100
AcDbEntity
  8
0
100
AcDbLine
 10
1324.730701
 20
191.14317
 30
0.0
 11
1371.730701
 21
191.13962
 31
0.0
  0
ARC
  5
51DC
100
AcDbEntity
  8
0
100
AcDbCircle
 10
1324.730701
 20
194.14317
 30
0.0
 40
3.0
100
AcDbArc
 50
180.0
 51
270.0
  0
ARC
  5
51E0
100
AcDbEntity
  8
0
100
AcDbCircle
 10
1371.730701
 20
194.13962
 30
0.0
 40
3.0
100
AcDbArc
 50
270.0
 51
0.0
  0
LINE
  5
51E3
100
AcDbEntity
  8
0
100
AcDbLine
 10
1371.730701
 20
231.13962
 30
0.0
 11
1324.730701
 21
231.14317
 31
0.0
  0
ARC
  5
51E5
100
AcDbEntity
  8
0
100
AcDbCircle
 10
1324.730701
 20
228.14317
 30
0.0
 40
3.0
100
AcDbArc
 50
90.0
 51
180.0
  0
ARC
  5
51E8
100
AcDbEntity
  8
0
100
AcDbCircle
 10
1371.730701
 20
228.13962
 30
0.0
 40
3.0
100
AcDbArc
 50
0.0
 51
90.0
  0
LINE
  5
5210
100
AcDbEntity
  8
0
100
AcDbLine
 10
1523.565436
 20
194.89767
 30
0.0
 11
1523.565436
 21
194.89767
 31
0.0
  0
CIRCLE
  5
5242
100
AcDbEntity
  8
0
100
AcDbCircle
 10
1573.565436
 20
211.14317
 30
0.0
 40
42.46
  0
LINE
  5
524D
100
AcDbEntity
  8
0
100
AcDbLine
 10
1433.730701
 20
585.36077
 30
0.0
 11
1433.730701
 21
634.86077
 31
0.0
  0
ARC
  5
524E
100
AcDbEntity
  8
0
100
AcDbCircle
 10
1384.181156
 20
614.75027
 30
0.0
 40
49.549559
100
AcDbArc
 50
344.617616
 51
15.382384
  0
LINE
  5
524F
100
AcDbEntity
  8
0
100
AcDbLine
 10
1401.730701
 20
643.36077
 30
0.0
 11
1401.730701
 21
639.93377
 31
0.0
  0
INSERT
  5
525F
100
AcDbEntity
  8
0
100
AcDbBlockReference
  2
YA
 10
1249.230701
 20
404.0916
 30
0.0
 41
3.0
 42
3.0
 43
3.0
  0
LINE
  5
5281
100
AcDbEntity
  8
0
100
AcDbLine
 10
1431.955701
 20
532.78777
 30
0.0
 11
1403.730701
 21
532.78777
 31
0.0
  0
LINE
  5
5289
100
AcDbEntity
  8
0
100
AcDbLine
 10
1399.721701
 20
525.36077
 30
0.0
 11
1393.730701
 21
525.36077
 31
0.0
  0
ARC
  5
528B
100
AcDbEntity
  8
0
100
AcDbCircle
 10
1403.730701
 20
530.78777
 30
0.0
 40
2.0
100
AcDbArc
 50
90.0
 51
180.0
  0
ARC
  5
528C
100
AcDbEntity
  8
0
100
AcDbCircle
 10
1399.730701
 20
527.36077
 30
0.0
 40
2.0
100
AcDbArc
 50
270.0
 51
0.0
  0
ARC
  5
528D
100
AcDbEntity
  8
0
100
AcDbCircle
 10
1384.181156
 20
555.97127
 30
0.0
 40
49.549559
100
AcDbArc
 50
344.617616
 51
15.382384
  0
LINE
  5
528E
100
AcDbEntity
  8
0
100
AcDbLine
 10
1433.730701
 20
585.36077
 30
0.0
 11
1433.730701
 21
535.86077
 31
0.0
  0
LINE
  5
528F
100
AcDbEntity
  8
0
100
AcDbLine
 10
1431.964701
 20
542.82877
 30
0.0
 11
1401.024772
 21
542.82877
 31
0.0
  0
ARC
  5
5290
100
AcDbEntity
  8
0
100
AcDbCircle
 10
1426.06388
 20
537.921213
 30
0.0
 40
7.667324
100
AcDbArc
 50
333.601829
 51
39.786661
  0
LINE
  5
5291
100
AcDbEntity
  8
0
100
AcDbLine
 10
1432.644701
 20
533.97977
 30
0.0
 11
1432.841701
 21
534.33077
 31
0.0
  0
LINE
  5
5292
100
AcDbEntity
  8
0
100
AcDbLine
 10
1433.730701
 20
535.86077
 30
0.0
 11
1431.955701
 21
532.78677
 31
0.0
  0
ARC
  5
5293
100
AcDbEntity
  8
0
100
AcDbCircle
 10
1358.496013
 20
585.36077
 30
0.0
 40
75.234688
100
AcDbArc
 50
347.529458
 51
12.470542
  0
LINE
  5
5294
100
AcDbEntity
  8
0
100
AcDbLine
 10
1431.964701
 20
569.11477
 30
0.0
 11
1401.008472
 21
569.11477
 31
0.0
  0
LINE
  5
5295
100
AcDbEntity
  8
0
100
AcDbLine
 10
1431.964701
 20
601.60677
 30
0.0
 11
1401.006602
 21
601.60677
 31
0.0
  0
LINE
  5
529E
100
AcDbEntity
  8
0
100
AcDbLine
 10
1431.955701
 20
637.93377
 30
0.0
 11
1403.730701
 21
637.93377
 31
0.0
  0
LINE
  5
52A7
100
AcDbEntity
  8
0
100
AcDbLine
 10
1399.721701
 20
645.36077
 30
0.0
 11
1393.730701
 21
645.36077
 31
0.0
  0
ARC
  5
52A9
100
AcDbEntity
  8
0
100
AcDbCircle
 10
1399.730701
 20
643.36077
 30
0.0
 40
2.0
100
AcDbArc
 50
0.0
 51
90.0
  0
ARC
  5
52AA
100
AcDbEntity
  8
0
100
AcDbCircle
 10
1403.730701
 20
639.93377
 30
0.0
 40
2.0
100
AcDbArc
 50
180.0
 51
270.0
  0
LINE
  5
52AB
100
AcDbEntity
  8
0
100
AcDbLine
 10
1431.964701
 20
627.89377
 30
0.0
 11
1401.008472
 21
627.89377
 31
0.0
  0
LINE
  5
52AC
100
AcDbEntity
  8
0
100
AcDbLine
 10
1433.730701
 20
634.86077
 30
0.0
 11
1431.955701
 21
637.93477
 31
0.0
  0
LINE
  5
52AD
100
AcDbEntity
  8
0
100
AcDbLine
 10
1432.644701
 20
636.74177
 30
0.0
 11
1432.841701
 21
636.39077
 31
0.0
  0
ARC
  5
52AE
100
AcDbEntity
  8
0
100
AcDbCircle
 10
1426.06388
 20
632.800327
 30
0.0
 40
7.667324
100
AcDbArc
 50
320.213339
 51
26.398171
  0
POLYLINE
  5
5EAB
100
AcDbEntity
  8
0
100
AcDb2dPolyline
 66
     1
 10
0.0
 20
0.0
 30
0.0
  0
VERTEX
  5
6A47
100
AcDbEntity
  8
0
100
AcDbVertex
100
AcDb2dVertex
 10
737.873772
 20
839.04511
 30
0.0
  0
VERTEX
  5
6A48
100
AcDbEntity
  8
0
100
AcDbVertex
100
AcDb2dVertex
 10
710.160959
 20
823.04511
 30
0.0
  0
SEQEND
  5
6A49
100
AcDbEntity
  8
0
  0
POLYLINE
  5
5EAC
100
AcDbEntity
  8
0
100
AcDb2dPolyline
 66
     1
 10
0.0
 20
0.0
 30
0.0
  0
VERTEX
  5
6A4A
100
AcDbEntity
  8
0
100
AcDbVertex
100
AcDb2dVertex
 10
710.160959
 20
787.083586
 30
0.0
  0
VERTEX
  5
6A4B
100
AcDbEntity
  8
0
100
AcDbVertex
100
AcDb2dVertex
 10
737.873772
 20
771.083586
 30
0.0
  0
SEQEND
  5
6A4C
100
AcDbEntity
  8
0
  0
CIRCLE
  5
5EAD
100
AcDbEntity
  8
0
100
AcDbCircle
 10
739.017366
 20
805.064348
 30
0.0
 40
51.0
  0
CIRCLE
  5
5EAE
100
AcDbEntity
  8
0
100
AcDbCircle
 10
739.017366
 20
805.064348
 30
0.0
 40
22.4225
  0
CIRCLE
  5
5EAF
100
AcDbEntity
  8
0
100
AcDbCircle
 10
739.017366
 20
805.064348
 30
0.0
 40
29.5
  0
LINE
  5
5EB0
100
AcDbEntity
  8
0
100
AcDbLine
 10
709.017366
 20
821.064348
 30
0.0
 11
709.017366
 21
789.064348
 31
0.0
  0
POLYLINE
  5
5EB1
100
AcDbEntity
  8
0
100
AcDb2dPolyline
 66
     1
 10
0.0
 20
0.0
 30
0.0
  0
VERTEX
  5
6A4D
100
AcDbEntity
  8
0
100
AcDbVertex
100
AcDb2dVertex
 10
709.017366
 20
821.064348
 30
0.0
  0
VERTEX
  5
6A4E
100
AcDbEntity
  8
0
100
AcDbVertex
100
AcDb2dVertex
 10
709.017366
 20
789.064348
 30
0.0
  0
SEQEND
  5
6A4F
100
AcDbEntity
  8
0
  0
CIRCLE
  5
5EB2
100
AcDbEntity
  8
0
100
AcDbCircle
 10
302.134732
 20
805.098382
 30
0.0
 40
15.1455
  0
CIRCLE
  5
5EB3
100
AcDbEntity
  8
0
100
AcDbCircle
 10
560.708883
 20
805.098382
 30
0.0
 40
15.1455
  0
CIRCLE
  5
5EB4
100
AcDbEntity
  8
0
100
AcDbCircle
 10
302.134732
 20
805.098382
 30
0.0
 40
35.0
  0
CIRCLE
  5
5EB5
100
AcDbEntity
  8
0
100
AcDbCircle
 10
302.134732
 20
805.098382
 30
0.0
 40
20.0
  0
POLYLINE
  5
5EB6
100
AcDbEntity
  8
0
100
AcDb2dPolyline
 66
     1
 10
0.0
 20
0.0
 30
0.0
  0
VERTEX
  5
6A50
100
AcDbEntity
  8
0
100
AcDbVertex
100
AcDb2dVertex
 10
281.60993
 20
794.684922
 30
0.0
  0
VERTEX
  5
6A51
100
AcDbEntity
  8
0
100
AcDbVertex
100
AcDb2dVertex
 10
281.60993
 20
815.443775
 30
0.0
  0
SEQEND
  5
6A52
100
AcDbEntity
  8
0
  0
POLYLINE
  5
5EB7
100
AcDbEntity
  8
0
100
AcDb2dPolyline
 66
     1
 10
0.0
 20
0.0
 30
0.0
  0
VERTEX
  5
6A53
100
AcDbEntity
  8
0
100
AcDbVertex
100
AcDb2dVertex
 10
322.659534
 20
815.443775
 30
0.0
  0
VERTEX
  5
6A54
100
AcDbEntity
  8
0
100
AcDbVertex
100
AcDb2dVertex
 10
322.659534
 20
794.684922
 30
0.0
  0
SEQEND
  5
6A55
100
AcDbEntity
  8
0
  0
INSERT
  5
5EB8
100
AcDbEntity
  8
0
100
AcDbBlockReference
  2
YA
 10
403.263209
 20
805.064348
 30
0.0
 41
3.0
 42
3.0
 43
3.0
  0
TEXT
  5
5EB9
100
AcDbEntity
  8
0
100
AcDbText
 10
139.724269
 20
805.064348
 30
0.0
 40
21.0
  1
正面
100
AcDbText
  0
POLYLINE
  5
5EBA
100
AcDbEntity
  8
0
100
AcDb2dPolyline
 66
     1
 10
0.0
 20
0.0
 30
0.0
  0
VERTEX
  5
6A56
100
AcDbEntity
  8
0
100
AcDbVertex
100
AcDb2dVertex
 10
581.208883
 20
815.492675
 30
0.0
  0
VERTEX
  5
6A57
100
AcDbEntity
  8
0
100
AcDbVertex
100
AcDb2dVertex
 10
581.208883
 20
794.636021
 30
0.0
  0
SEQEND
  5
6A58
100
AcDbEntity
  8
0
  0
POLYLINE
  5
5EBB
100
AcDbEntity
  8
0
100
AcDb2dPolyline
 66
     1
 10
0.0
 20
0.0
 30
0.0
  0
VERTEX
  5
6A59
100
AcDbEntity
  8
0
100
AcDbVertex
100
AcDb2dVertex
 10
540.208883
 20
794.636021
 30
0.0
  0
VERTEX
  5
6A5A
100
AcDbEntity
  8
0
100
AcDbVertex
100
AcDb2dVertex
 10
540.208883
 20
815.492675
 30
0.0
  0
SEQEND
  5
6A5B
100
AcDbEntity
  8
0
  0
CIRCLE
  5
5EBC
100
AcDbEntity
  8
0
100
AcDbCircle
 10
560.708883
 20
805.098382
 30
0.0
 40
20.0
  0
LINE
  5
5EBF
100
AcDbEntity
  8
0
100
AcDbLine
 10
480.763209
 20
836.828784
 30
0.0
 11
480.763209
 21
805.064348
 31
0.0
  0
SPLINE
  5
5EC0
100
AcDbEntity
  8
0
100
AcDbSpline
210
0.0
220
0.0
230
1.0
 70
     8
 71
     3
 72
    11
 73
     7
 74
     5
 42
0.0000001
 43
0.0000001
 44
0.0000000001
 40
0.0
 40
0.0
 40
0.0
 40
0.0
 40
10.5536215618232
 40
12.75948141215519
 40
18.26920666935371
 40
23.85239324160861
 40
23.85239324160861
 40
23.85239324160861
 40
23.85239324160861
 10
486.6764442597706
 20
805.0643482902168
 30
0.0
 10
485.8928053863043
 20
808.4853793199044
 30
0.0
 10
484.9453746317276
 20
812.6214554126464
 30
0.0
 10
484.512542893723
 20
818.7870233206222
 30
0.0
 10
487.9102221363459
 20
822.8030804733812
 30
0.0
 10
485.8192777035195
 20
826.3028667301785
 30
0.0
 10
484.7668819881139
 20
828.0643482902167
 30
0.0
 11
486.6764442597706
 21
805.0643482902168
 31
0.0
 11
484.766881988114
 21
815.4437750567028
 31
0.0
 11
484.766881988114
 21
817.6496349070347
 31
0.0
 11
486.6764442597705
 21
822.8178690677978
 31
0.0
 11
484.7668819881139
 21
828.0643482902167
 31
0.0
  0
LINE
  5
5EC1
100
AcDbEntity
  8
0
100
AcDbLine
 10
455.763209
 20
771.064348
 30
0.0
 11
455.763209
 21
839.064348
 31
0.0
  0
LINE
  5
5EC2
100
AcDbEntity
  8
0
100
AcDbLine
 10
450.763209
 20
770.064348
 30
0.0
 11
450.763209
 21
840.064348
 31
0.0
  0
SPLINE
  5
5EC4
100
AcDbEntity
  8
0
100
AcDbSpline
210
0.0
220
0.0
230
-1.0
 70
     8
 71
     3
 72
    11
 73
     7
 74
     5
 42
0.0000001
 43
0.0000001
 44
0.0000000001
 40
0.0
 40
0.0
 40
0.0
 40
0.0
 40
5.409318042600223
 40
10.78455958939874
 40
12.99041943973073
 40
23.46384279063556
 40
23.46384279063556
 40
23.46384279063556
 40
23.46384279063556
 10
432.5478191020124
 20
828.0643482903053
 30
0.0
 10
431.7788731263686
 20
826.3161684161037
 30
0.0
 10
430.2458252208747
 20
822.8308214873708
 30
0.0
 10
432.7408485168651
 20
818.7261389984673
 30
0.0
 10
432.4104073165641
 20
812.6657837444462
 30
0.0
 10
431.7189481420594
 20
808.5029549778862
 30
0.0
 10
431.1477845715709
 20
805.0643482903055
 30
0.0
 11
432.5478191020124
 21
828.0643482903053
 31
0.0
 11
431.1477845715708
 21
822.8393482903463
 31
0.0
 11
432.5478191020124
 21
817.6496349071237
 31
0.0
 11
432.5478191020125
 21
815.4437750567918
 31
0.0
 11
431.1477845715709
 21
805.0643482903055
 31
0.0
  0
LINE
  5
5EC6
100
AcDbEntity
  8
0
100
AcDbLine
 10
435.763209
 20
770.781836
 30
0.0
 11
435.763209
 21
839.34686
 31
0.0
  0
LINE
  5
5EC7
100
AcDbEntity
  8
0
100
AcDbLine
 10
440.763209
 20
770.064348
 30
0.0
 11
440.763209
 21
840.064348
 31
0.0
  0
ARC
  5
5EC8
100
AcDbEntity
  8
0
100
AcDbCircle
 10
560.708883
 20
805.098382
 30
0.0
 40
35.0
100
AcDbArc
 50
298.592141
 51
241.407859
  0
CIRCLE
  5
5EC9
100
AcDbEntity
  8
0
100
AcDbCircle
 10
560.708883
 20
805.098382
 30
0.0
 40
34.0
  0
POLYLINE
  5
5ECA
100
AcDbEntity
  8
0
100
AcDb2dPolyline
 66
     1
 10
0.0
 20
0.0
 30
0.0
  0
VERTEX
  5
6A5C
100
AcDbEntity
  8
0
100
AcDbVertex
100
AcDb2dVertex
 10
300.861178
 20
782.099635
 30
0.0
  0
VERTEX
  5
6A5D
100
AcDbEntity
  8
0
100
AcDbVertex
100
AcDb2dVertex
 10
282.883484
 20
792.479062
 30
0.0
  0
SEQEND
  5
6A5E
100
AcDbEntity
  8
0
  0
LINE
  5
5ECB
100
AcDbEntity
  8
0
100
AcDbLine
 10
285.384732
 20
770.064348
 30
0.0
 11
318.884732
 21
770.064348
 31
0.0
  0
LINE
  5
5ECC
100
AcDbEntity
  8
0
100
AcDbLine
 10
285.384732
 20
774.36668
 30
0.0
 11
285.384732
 21
770.064348
 31
0.0
  0
ARC
  5
5ECD
100
AcDbEntity
  8
0
100
AcDbCircle
 10
302.134732
 20
805.064348
 30
0.0
 40
23.0
100
AcDbArc
 50
206.8258
 51
213.1742
  0
LINE
  5
5ECE
100
AcDbEntity
  8
0
100
AcDbLine
 10
484.766882
 20
792.479062
 30
0.0
 11
499.011509
 21
792.479062
 31
0.0
  0
LINE
  5
5ECF
100
AcDbEntity
  8
0
100
AcDbLine
 10
484.766882
 20
794.684922
 30
0.0
 11
499.011509
 21
794.684922
 31
0.0
  0
LINE
  5
5ED0
100
AcDbEntity
  8
0
100
AcDbLine
 10
484.766882
 20
782.064348
 30
0.0
 11
499.011509
 21
782.064348
 31
0.0
  0
LINE
  5
5ED2
100
AcDbEntity
  8
0
100
AcDbLine
 10
318.884732
 20
774.36668
 30
0.0
 11
318.884732
 21
770.064348
 31
0.0
  0
POLYLINE
  5
5ED3
100
AcDbEntity
  8
0
100
AcDb2dPolyline
 66
     1
 10
0.0
 20
0.0
 30
0.0
  0
VERTEX
  5
6A5F
100
AcDbEntity
  8
0
100
AcDbVertex
100
AcDb2dVertex
 10
321.385981
 20
792.479062
 30
0.0
  0
VERTEX
  5
6A60
100
AcDbEntity
  8
0
100
AcDbVertex
100
AcDb2dVertex
 10
303.408286
 20
782.099635
 30
0.0
  0
SEQEND
  5
6A61
100
AcDbEntity
  8
0
  0
ARC
  5
5ED4
100
AcDbEntity
  8
0
100
AcDbCircle
 10
302.134732
 20
805.064348
 30
0.0
 40
23.0
100
AcDbArc
 50
266.8258
 51
273.1742
  0
ARC
  5
5ED5
100
AcDbEntity
  8
0
100
AcDbCircle
 10
302.134732
 20
805.064348
 30
0.0
 40
23.0
100
AcDbArc
 50
326.8258
 51
333.1742
  0
TEXT
  5
5ED6
100
AcDbEntity
  8
0
100
AcDbText
 10
449.521012
 20
691.935829
 30
0.0
 40
15.0
  1
25A
 41
0.8
 11
449.521012
 21
691.935829
 31
0.0
100
AcDbText
 73
     1
  0
LINE
  5
5ED7
100
AcDbEntity
  8
0
100
AcDbLine
 10
440.763209
 20
770.064348
 30
0.0
 11
450.763209
 21
770.064348
 31
0.0
  0
LINE
  5
5ED8
100
AcDbEntity
  8
0
100
AcDbLine
 10
435.366012
 20
771.54671
 30
0.0
 11
432.547819
 21
782.064348
 31
0.0
  0
ARC
  5
5ED9
100
AcDbEntity
  8
0
100
AcDbCircle
 10
437.297863
 20
772.064348
 30
0.0
 40
2.0
100
AcDbArc
 50
195.0
 51
270.0
  0
LINE
  5
5EDA
100
AcDbEntity
  8
0
100
AcDbLine
 10
437.297863
 20
770.064348
 30
0.0
 11
440.763209
 21
770.064348
 31
0.0
  0
SPLINE
  5
5EDE
100
AcDbEntity
  8
0
100
AcDbSpline
210
0.0
220
0.0
230
-1.0
 70
     8
 71
     3
 72
    11
 73
     7
 74
     5
 42
0.0000001
 43
0.0000001
 44
0.0000000001
 40
0.0
 40
0.0
 40
0.0
 40
0.0
 40
5.409318042600443
 40
10.78455958939896
 40
12.99041943973095
 40
23.46384279063556
 40
23.46384279063556
 40
23.46384279063556
 40
23.46384279063556
 10
432.5478191020124
 20
782.0643482902166
 30
0.0
 10
431.7788731263687
 20
783.8125281644184
 30
0.0
 10
430.2458252208747
 20
787.2978750931513
 30
0.0
 10
432.7408485168649
 20
791.4025575820551
 30
0.0
 10
432.4104073165642
 20
797.462912836076
 30
0.0
 10
431.7189481420594
 20
801.6257416026357
 30
0.0
 10
431.1477845715708
 20
805.0643482902165
 30
0.0
 11
432.5478191020124
 21
782.0643482902166
 31
0.0
 11
431.1477845715708
 21
787.2893482901758
 31
0.0
 11
432.5478191020124
 21
792.4790616733985
 31
0.0
 11
432.5478191020124
 21
794.6849215237305
 31
0.0
 11
431.1477845715708
 21
805.0643482902165
 31
0.0
  0
LINE
  5
5EDF
100
AcDbEntity
  8
0
100
AcDbLine
 10
418.514909
 20
782.064348
 30
0.0
 11
432.547819
 21
782.064348
 31
0.0
  0
LINE
  5
5EE0
100
AcDbEntity
  8
0
100
AcDbLine
 10
418.514909
 20
794.684922
 30
0.0
 11
432.547819
 21
794.684922
 31
0.0
  0
LINE
  5
5EE1
100
AcDbEntity
  8
0
100
AcDbLine
 10
418.514909
 20
792.479062
 30
0.0
 11
432.547819
 21
792.479062
 31
0.0
  0
ARC
  5
5EE2
100
AcDbEntity
  8
0
100
AcDbCircle
 10
475.861757
 20
778.064348
 30
0.0
 40
7.0
100
AcDbArc
 50
270.0
 51
340.0
  0
LINE
  5
5EE3
100
AcDbEntity
  8
0
100
AcDbLine
 10
480.763209
 20
773.066773
 30
0.0
 11
480.763209
 21
805.064348
 31
0.0
  0
LINE
  5
5EE4
100
AcDbEntity
  8
0
100
AcDbLine
 10
450.763209
 20
770.064348
 30
0.0
 11
473.763209
 21
770.064348
 31
0.0
  0
LINE
  5
5EE5
100
AcDbEntity
  8
0
100
AcDbLine
 10
455.763209
 20
771.064348
 30
0.0
 11
475.861757
 21
771.064348
 31
0.0
  0
LINE
  5
5EE6
100
AcDbEntity
  8
0
100
AcDbLine
 10
455.763209
 20
771.064348
 30
0.0
 11
450.763209
 21
770.064348
 31
0.0
  0
LINE
  5
5EE7
100
AcDbEntity
  8
0
100
AcDbLine
 10
473.763209
 20
770.064348
 30
0.0
 11
473.763209
 21
771.064348
 31
0.0
  0
SPLINE
  5
5EE8
100
AcDbEntity
  8
0
100
AcDbSpline
210
0.0
220
0.0
230
1.0
 70
     8
 71
     3
 72
    11
 73
     7
 74
     5
 42
0.0000001
 43
0.0000001
 44
0.0000000001
 40
0.0
 40
0.0
 40
0.0
 40
0.0
 40
10.5536215618232
 40
12.75948141215519
 40
18.26920666935374
 40
23.85239324160867
 40
23.85239324160867
 40
23.85239324160867
 40
23.85239324160867
 10
486.6764442597706
 20
805.0643482902165
 30
0.0
 10
485.8928053863044
 20
801.6433172605289
 30
0.0
 10
484.9453746317277
 20
797.5072411677866
 30
0.0
 10
484.512542893723
 20
791.3416732598111
 30
0.0
 10
487.9102221363462
 20
787.3256161070523
 30
0.0
 10
485.8192777035196
 20
783.8258298502547
 30
0.0
 10
484.766881988114
 20
782.0643482902166
 30
0.0
 11
486.6764442597706
 21
805.0643482902165
 31
0.0
 11
484.766881988114
 21
794.6849215237305
 31
0.0
 11
484.766881988114
 21
792.4790616733985
 31
0.0
 11
486.6764442597706
 21
787.3108275126355
 31
0.0
 11
484.766881988114
 21
782.0643482902166
 31
0.0
  0
LINE
  5
5EE9
100
AcDbEntity
  8
0
100
AcDbLine
 10
482.439605
 20
775.670207
 30
0.0
 11
484.766882
 21
782.064348
 31
0.0
  0
LINE
  5
5EED
100
AcDbEntity
  8
0
100
AcDbLine
 10
577.458883
 20
775.510589
 30
0.0
 11
577.458883
 21
770.064348
 31
0.0
  0
LINE
  5
5EEE
100
AcDbEntity
  8
0
100
AcDbLine
 10
543.958883
 20
775.510589
 30
0.0
 11
543.958883
 21
770.064348
 31
0.0
  0
LINE
  5
5EEF
100
AcDbEntity
  8
0
100
AcDbLine
 10
543.958883
 20
770.064348
 30
0.0
 11
577.458883
 21
770.064348
 31
0.0
  0
ARC
  5
5EF0
100
AcDbEntity
  8
0
100
AcDbCircle
 10
560.708883
 20
805.064348
 30
0.0
 40
23.0
100
AcDbArc
 50
266.962389
 51
273.037611
  0
POLYLINE
  5
5EF1
100
AcDbEntity
  8
0
100
AcDb2dPolyline
 66
     1
 10
0.0
 20
0.0
 30
0.0
  0
VERTEX
  5
6A62
100
AcDbEntity
  8
0
100
AcDbVertex
100
AcDb2dVertex
 10
559.490079
 20
782.096664
 30
0.0
  0
VERTEX
  5
6A63
100
AcDbEntity
  8
0
100
AcDbVertex
100
AcDb2dVertex
 10
541.427687
 20
792.524991
 30
0.0
  0
SEQEND
  5
6A64
100
AcDbEntity
  8
0
  0
ARC
  5
5EF2
100
AcDbEntity
  8
0
100
AcDbCircle
 10
560.708883
 20
805.064348
 30
0.0
 40
23.0
100
AcDbArc
 50
206.962389
 51
213.037611
  0
POLYLINE
  5
5EF3
100
AcDbEntity
  8
0
100
AcDb2dPolyline
 66
     1
 10
0.0
 20
0.0
 30
0.0
  0
VERTEX
  5
6A65
100
AcDbEntity
  8
0
100
AcDbVertex
100
AcDb2dVertex
 10
579.990079
 20
792.524991
 30
0.0
  0
VERTEX
  5
6A66
100
AcDbEntity
  8
0
100
AcDbVertex
100
AcDb2dVertex
 10
561.927687
 20
782.096664
 30
0.0
  0
SEQEND
  5
6A67
100
AcDbEntity
  8
0
  0
ARC
  5
5EF4
100
AcDbEntity
  8
0
100
AcDbCircle
 10
560.708883
 20
805.064348
 30
0.0
 40
23.0
100
AcDbArc
 50
326.962389
 51
333.037611
  0
ARC
  5
5EF5
100
AcDbEntity
  8
0
100
AcDbCircle
 10
739.017366
 20
805.064348
 30
0.0
 40
34.0
100
AcDbArc
 50
208.072487
 51
211.927513
  0
POLYLINE
  5
5EF6
100
AcDbEntity
  8
0
100
AcDb2dPolyline
 66
     1
 10
0.0
 20
0.0
 30
0.0
  0
VERTEX
  5
6A68
100
AcDbEntity
  8
0
100
AcDbVertex
100
AcDb2dVertex
 10
282.883484
 20
817.649635
 30
0.0
  0
VERTEX
  5
6A69
100
AcDbEntity
  8
0
100
AcDbVertex
100
AcDb2dVertex
 10
300.861178
 20
828.029062
 30
0.0
  0
SEQEND
  5
6A6A
100
AcDbEntity
  8
0
  0
ARC
  5
5EF7
100
AcDbEntity
  8
0
100
AcDbCircle
 10
302.134732
 20
805.064348
 30
0.0
 40
23.0
100
AcDbArc
 50
146.8258
 51
153.1742
  0
TEXT
  5
5EF8
100
AcDbEntity
  8
0
100
AcDbText
 10
139.724269
 20
936.838575
 30
0.0
 40
21.0
  1
平面
100
AcDbText
  0
TEXT
  5
5EF9
100
AcDbEntity
  8
0
100
AcDbText
 10
139.724269
 20
1078.122196
 30
0.0
 40
21.0
  1
背面
100
AcDbText
  0
LINE
  5
5EFA
100
AcDbEntity
  8
0
100
AcDbLine
 10
499.011509
 20
936.838575
 30
0.0
 11
484.766882
 21
936.838575
 31
0.0
  0
LINE
  5
5EFB
100
AcDbEntity
  8
0
100
AcDbLine
 10
499.011509
 20
934.400967
 30
0.0
 11
484.766882
 21
934.400967
 31
0.0
  0
LINE
  5
5EFC
100
AcDbEntity
  8
0
100
AcDbLine
 10
500.474536
 20
956.119771
 30
0.0
 11
484.766882
 21
956.119771
 31
0.0
  0
LINE
  5
5EFD
100
AcDbEntity
  8
0
100
AcDbLine
 10
499.438799
 20
954.900967
 30
0.0
 11
484.984758
 21
954.900967
 31
0.0
  0
LINE
  5
5EFE
100
AcDbEntity
  8
0
100
AcDbLine
 10
500.474534
 20
915.119769
 30
0.0
 11
484.766882
 21
915.119769
 31
0.0
  0
LINE
  5
5EFF
100
AcDbEntity
  8
0
100
AcDbLine
 10
499.438775
 20
916.338575
 30
0.0
 11
484.984746
 21
916.338575
 31
0.0
  0
LINE
  5
5F00
100
AcDbEntity
  8
0
100
AcDbLine
 10
484.766882
 20
828.064348
 30
0.0
 11
499.011509
 21
828.064348
 31
0.0
  0
LINE
  5
5F01
100
AcDbEntity
  8
0
100
AcDbLine
 10
484.766882
 20
815.443775
 30
0.0
 11
499.011509
 21
815.443775
 31
0.0
  0
LINE
  5
5F02
100
AcDbEntity
  8
0
100
AcDbLine
 10
484.766882
 20
817.649635
 30
0.0
 11
499.011509
 21
817.649635
 31
0.0
  0
POLYLINE
  5
5F03
100
AcDbEntity
  8
0
100
AcDb2dPolyline
 66
     1
 10
0.0
 20
0.0
 30
0.0
  0
VERTEX
  5
6A6B
100
AcDbEntity
  8
0
100
AcDbVertex
100
AcDb2dVertex
 10
303.408286
 20
828.029062
 30
0.0
  0
VERTEX
  5
6A6C
100
AcDbEntity
  8
0
100
AcDbVertex
100
AcDb2dVertex
 10
321.385981
 20
817.649635
 30
0.0
  0
SEQEND
  5
6A6D
100
AcDbEntity
  8
0
  0
ARC
  5
5F04
100
AcDbEntity
  8
0
100
AcDbCircle
 10
302.134732
 20
805.064348
 30
0.0
 40
23.0
100
AcDbArc
 50
26.8258
 51
33.1742
  0
ARC
  5
5F05
100
AcDbEntity
  8
0
100
AcDbCircle
 10
302.134732
 20
805.064348
 30
0.0
 40
23.0
100
AcDbArc
 50
86.8258
 51
93.1742
  0
LINE
  5
5F06
100
AcDbEntity
  8
0
100
AcDbLine
 10
440.763209
 20
840.064348
 30
0.0
 11
450.763209
 21
840.064348
 31
0.0
  0
ARC
  5
5F07
100
AcDbEntity
  8
0
100
AcDbCircle
 10
437.297863
 20
838.064348
 30
0.0
 40
2.0
100
AcDbArc
 50
90.0
 51
165.0
  0
LINE
  5
5F09
100
AcDbEntity
  8
0
100
AcDbLine
 10
418.514909
 20
817.649635
 30
0.0
 11
432.547819
 21
817.649635
 31
0.0
  0
LINE
  5
5F0A
100
AcDbEntity
  8
0
100
AcDbLine
 10
418.514909
 20
815.443775
 30
0.0
 11
432.547819
 21
815.443775
 31
0.0
  0
LINE
  5
5F0B
100
AcDbEntity
  8
0
100
AcDbLine
 10
418.514909
 20
828.064348
 30
0.0
 11
432.547819
 21
828.064348
 31
0.0
  0
LINE
  5
5F0C
100
AcDbEntity
  8
0
100
AcDbLine
 10
435.366012
 20
838.581986
 30
0.0
 11
432.547819
 21
828.064348
 31
0.0
  0
LINE
  5
5F0D
100
AcDbEntity
  8
0
100
AcDbLine
 10
437.297863
 20
840.064348
 30
0.0
 11
440.763209
 21
840.064348
 31
0.0
  0
ARC
  5
5F0E
100
AcDbEntity
  8
0
100
AcDbCircle
 10
475.861757
 20
832.064348
 30
0.0
 40
7.0
100
AcDbArc
 50
20.0
 51
90.0
  0
LINE
  5
5F0F
100
AcDbEntity
  8
0
100
AcDbLine
 10
455.763209
 20
839.064348
 30
0.0
 11
450.763209
 21
840.064348
 31
0.0
  0
LINE
  5
5F10
100
AcDbEntity
  8
0
100
AcDbLine
 10
455.763209
 20
839.064348
 30
0.0
 11
475.861757
 21
839.064348
 31
0.0
  0
LINE
  5
5F11
100
AcDbEntity
  8
0
100
AcDbLine
 10
482.439605
 20
834.458489
 30
0.0
 11
484.766882
 21
828.064348
 31
0.0
  0
LINE
  5
5F12
100
AcDbEntity
  8
0
100
AcDbLine
 10
480.763209
 20
967.617346
 30
0.0
 11
480.763209
 21
935.61977
 31
0.0
  0
LINE
  5
5F13
100
AcDbEntity
  8
0
100
AcDbLine
 10
450.763209
 20
970.11977
 30
0.0
 11
450.763209
 21
935.61977
 31
0.0
  0
ARC
  5
5F14
100
AcDbEntity
  8
0
100
AcDbCircle
 10
434.355168
 20
946.479173
 30
0.0
 40
51.325257
100
AcDbArc
 50
349.173629
 51
10.826371
  0
ARC
  5
5F15
100
AcDbEntity
  8
0
100
AcDbCircle
 10
444.061893
 20
946.479173
 30
0.0
 40
27.305485
100
AcDbArc
 50
162.035441
 51
200.67487
  0
LINE
  5
5F16
100
AcDbEntity
  8
0
100
AcDbLine
 10
416.763209
 20
955.585737
 30
0.0
 11
416.763209
 21
935.61977
 31
0.0
  0
ARC
  5
5F17
100
AcDbEntity
  8
0
100
AcDbCircle
 10
483.171251
 20
946.479173
 30
0.0
 40
51.325257
100
AcDbArc
 50
169.173629
 51
190.826371
  0
LINE
  5
5F18
100
AcDbEntity
  8
0
100
AcDbLine
 10
450.763209
 20
970.61977
 30
0.0
 11
450.763209
 21
900.61977
 31
0.0
  0
LINE
  5
5F19
100
AcDbEntity
  8
0
100
AcDbLine
 10
440.763209
 20
970.61977
 30
0.0
 11
440.763209
 21
900.61977
 31
0.0
  0
LINE
  5
5F1A
100
AcDbEntity
  8
0
100
AcDbLine
 10
435.763209
 20
969.902282
 30
0.0
 11
435.763209
 21
901.337258
 31
0.0
  0
LINE
  5
5F1B
100
AcDbEntity
  8
0
100
AcDbLine
 10
416.763209
 20
955.619773
 30
0.0
 11
416.763209
 21
915.61977
 31
0.0
  0
LINE
  5
5F1C
100
AcDbEntity
  8
0
100
AcDbLine
 10
455.763209
 20
969.61977
 30
0.0
 11
455.763209
 21
901.61977
 31
0.0
  0
LINE
  5
5F1D
100
AcDbEntity
  8
0
100
AcDbLine
 10
440.763209
 20
900.61977
 30
0.0
 11
450.763209
 21
900.61977
 31
0.0
  0
LINE
  5
5F1E
100
AcDbEntity
  8
0
100
AcDbLine
 10
435.366012
 20
902.102132
 30
0.0
 11
431.877946
 21
915.119769
 31
0.0
  0
LINE
  5
5F1F
100
AcDbEntity
  8
0
100
AcDbLine
 10
437.297863
 20
900.61977
 30
0.0
 11
440.763209
 21
900.61977
 31
0.0
  0
ARC
  5
5F20
100
AcDbEntity
  8
0
100
AcDbCircle
 10
437.297863
 20
902.61977
 30
0.0
 40
2.0
100
AcDbArc
 50
195.0
 51
270.0
  0
LINE
  5
5F21
100
AcDbEntity
  8
0
100
AcDbLine
 10
417.051885
 20
915.119769
 30
0.0
 11
432.759537
 21
915.119769
 31
0.0
  0
ARC
  5
5F22
100
AcDbEntity
  8
0
100
AcDbCircle
 10
444.063419
 20
924.760368
 30
0.0
 40
27.306912
100
AcDbArc
 50
159.326259
 51
197.963587
  0
LINE
  5
5F23
100
AcDbEntity
  8
0
100
AcDbLine
 10
416.763209
 20
915.653804
 30
0.0
 11
416.763209
 21
935.61977
 31
0.0
  0
LINE
  5
5F24
100
AcDbEntity
  8
0
100
AcDbLine
 10
416.763209
 20
915.61977
 30
0.0
 11
417.051885
 21
915.119769
 31
0.0
  0
ARC
  5
5F25
100
AcDbEntity
  8
0
100
AcDbCircle
 10
483.174187
 20
924.760368
 30
0.0
 40
51.328142
100
AcDbArc
 50
169.174244
 51
190.825756
  0
LINE
  5
5F26
100
AcDbEntity
  8
0
100
AcDbLine
 10
418.087644
 20
916.338575
 30
0.0
 11
432.541673
 21
916.338575
 31
0.0
  0
LINE
  5
5F27
100
AcDbEntity
  8
0
100
AcDbLine
 10
418.087644
 20
916.338575
 30
0.0
 11
418.087644
 21
915.119769
 31
0.0
  0
LINE
  5
5F28
100
AcDbEntity
  8
0
100
AcDbLine
 10
418.514909
 20
936.838575
 30
0.0
 11
432.759537
 21
936.838575
 31
0.0
  0
LINE
  5
5F29
100
AcDbEntity
  8
0
100
AcDbLine
 10
418.514909
 20
934.400967
 30
0.0
 11
432.759537
 21
934.400967
 31
0.0
  0
LINE
  5
5F2A
100
AcDbEntity
  8
0
100
AcDbLine
 10
418.514909
 20
936.838575
 30
0.0
 11
418.514909
 21
934.400967
 31
0.0
  0
LINE
  5
5F2B
100
AcDbEntity
  8
0
100
AcDbLine
 10
432.759537
 20
936.838575
 30
0.0
 11
432.759537
 21
934.400967
 31
0.0
  0
LINE
  5
5F2C
100
AcDbEntity
  8
0
100
AcDbLine
 10
482.439605
 20
906.225629
 30
0.0
 11
485.676807
 21
915.119769
 31
0.0
  0
LINE
  5
5F2D
100
AcDbEntity
  8
0
100
AcDbLine
 10
480.763209
 20
903.855334
 30
0.0
 11
480.763209
 21
935.61977
 31
0.0
  0
LINE
  5
5F2E
100
AcDbEntity
  8
0
100
AcDbLine
 10
455.763209
 20
901.61977
 30
0.0
 11
475.861757
 21
901.61977
 31
0.0
  0
LINE
  5
5F2F
100
AcDbEntity
  8
0
100
AcDbLine
 10
455.763209
 20
901.61977
 30
0.0
 11
450.763209
 21
900.61977
 31
0.0
  0
ARC
  5
5F30
100
AcDbEntity
  8
0
100
AcDbCircle
 10
475.861757
 20
908.61977
 30
0.0
 40
7.0
100
AcDbArc
 50
270.0
 51
340.0
  0
ARC
  5
5F31
100
AcDbEntity
  8
0
100
AcDbCircle
 10
434.352231
 20
924.760368
 30
0.0
 40
51.328142
100
AcDbArc
 50
349.174244
 51
10.825756
  0
LINE
  5
5F32
100
AcDbEntity
  8
0
100
AcDbLine
 10
484.766882
 20
936.838575
 30
0.0
 11
484.766882
 21
934.400967
 31
0.0
  0
LINE
  5
5F33
100
AcDbEntity
  8
0
100
AcDbLine
 10
440.763209
 20
970.61977
 30
0.0
 11
450.763209
 21
970.61977
 31
0.0
  0
LINE
  5
5F34
100
AcDbEntity
  8
0
100
AcDbLine
 10
417.051883
 20
956.119771
 30
0.0
 11
432.759537
 21
956.119771
 31
0.0
  0
LINE
  5
5F35
100
AcDbEntity
  8
0
100
AcDbLine
 10
416.763208
 20
955.61977
 30
0.0
 11
417.051883
 21
956.119771
 31
0.0
  0
LINE
  5
5F36
100
AcDbEntity
  8
0
100
AcDbLine
 10
435.366012
 20
969.137408
 30
0.0
 11
431.877946
 21
956.119771
 31
0.0
  0
LINE
  5
5F37
100
AcDbEntity
  8
0
100
AcDbLine
 10
418.087619
 20
954.900967
 30
0.0
 11
432.54166
 21
954.900967
 31
0.0
  0
LINE
  5
5F38
100
AcDbEntity
  8
0
100
AcDbLine
 10
418.087619
 20
954.900967
 30
0.0
 11
418.087619
 21
956.119771
 31
0.0
  0
ARC
  5
5F39
100
AcDbEntity
  8
0
100
AcDbCircle
 10
437.297863
 20
968.61977
 30
0.0
 40
2.0
100
AcDbArc
 50
90.0
 51
165.0
  0
LINE
  5
5F3A
100
AcDbEntity
  8
0
100
AcDbLine
 10
437.297863
 20
970.61977
 30
0.0
 11
440.763209
 21
970.61977
 31
0.0
  0
LINE
  5
5F3B
100
AcDbEntity
  8
0
100
AcDbLine
 10
455.763209
 20
969.61977
 30
0.0
 11
475.861757
 21
969.61977
 31
0.0
  0
LINE
  5
5F3C
100
AcDbEntity
  8
0
100
AcDbLine
 10
455.763209
 20
969.61977
 30
0.0
 11
450.763209
 21
970.61977
 31
0.0
  0
LINE
  5
5F3D
100
AcDbEntity
  8
0
100
AcDbLine
 10
482.439605
 20
965.013911
 30
0.0
 11
485.676807
 21
956.119771
 31
0.0
  0
ARC
  5
5F3E
100
AcDbEntity
  8
0
100
AcDbCircle
 10
475.861757
 20
962.61977
 30
0.0
 40
7.0
100
AcDbArc
 50
20.0
 51
90.0
  0
ARC
  5
5F40
100
AcDbEntity
  8
0
100
AcDbCircle
 10
560.708883
 20
805.064348
 30
0.0
 40
23.0
100
AcDbArc
 50
86.962389
 51
93.037611
  0
POLYLINE
  5
5F41
100
AcDbEntity
  8
0
100
AcDb2dPolyline
 66
     1
 10
0.0
 20
0.0
 30
0.0
  0
VERTEX
  5
6A6E
100
AcDbEntity
  8
0
100
AcDbVertex
100
AcDb2dVertex
 10
541.427687
 20
817.603706
 30
0.0
  0
VERTEX
  5
6A6F
100
AcDbEntity
  8
0
100
AcDbVertex
100
AcDb2dVertex
 10
559.490079
 20
828.032032
 30
0.0
  0
SEQEND
  5
6A70
100
AcDbEntity
  8
0
  0
ARC
  5
5F42
100
AcDbEntity
  8
0
100
AcDbCircle
 10
560.708883
 20
805.064348
 30
0.0
 40
23.0
100
AcDbArc
 50
146.962389
 51
153.037611
  0
POLYLINE
  5
5F43
100
AcDbEntity
  8
0
100
AcDb2dPolyline
 66
     1
 10
0.0
 20
0.0
 30
0.0
  0
VERTEX
  5
6A71
100
AcDbEntity
  8
0
100
AcDbVertex
100
AcDb2dVertex
 10
561.927687
 20
828.032032
 30
0.0
  0
VERTEX
  5
6A72
100
AcDbEntity
  8
0
100
AcDbVertex
100
AcDb2dVertex
 10
579.990079
 20
817.603706
 30
0.0
  0
SEQEND
  5
6A73
100
AcDbEntity
  8
0
  0
ARC
  5
5F44
100
AcDbEntity
  8
0
100
AcDbCircle
 10
560.708883
 20
805.064348
 30
0.0
 40
23.0
100
AcDbArc
 50
26.962389
 51
33.037611
  0
ARC
  5
5F45
100
AcDbEntity
  8
0
100
AcDbCircle
 10
739.017366
 20
805.064348
 30
0.0
 40
34.0
100
AcDbArc
 50
148.072487
 51
151.927513
  0
ARC
  5
5F46
100
AcDbEntity
  8
0
100
AcDbCircle
 10
473.464526
 20
946.479173
 30
0.0
 40
27.305485
100
AcDbArc
 50
339.32513
 51
17.964559
  0
LINE
  5
5F47
100
AcDbEntity
  8
0
100
AcDbLine
 10
500.763209
 20
955.619773
 30
0.0
 11
500.763209
 21
915.61977
 31
0.0
  0
ARC
  5
5F48
100
AcDbEntity
  8
0
100
AcDbCircle
 10
473.463
 20
924.760368
 30
0.0
 40
27.306912
100
AcDbArc
 50
342.036413
 51
20.673741
  0
LINE
  5
5F49
100
AcDbEntity
  8
0
100
AcDbLine
 10
499.438775
 20
916.338575
 30
0.0
 11
499.438775
 21
915.119769
 31
0.0
  0
LINE
  5
5F4A
100
AcDbEntity
  8
0
100
AcDbLine
 10
500.763209
 20
915.61977
 30
0.0
 11
500.474534
 21
915.119769
 31
0.0
  0
LINE
  5
5F4B
100
AcDbEntity
  8
0
100
AcDbLine
 10
499.011509
 20
936.838575
 30
0.0
 11
499.011509
 21
934.400967
 31
0.0
  0
LINE
  5
5F4C
100
AcDbEntity
  8
0
100
AcDbLine
 10
500.763211
 20
955.61977
 30
0.0
 11
500.474536
 21
956.119771
 31
0.0
  0
LINE
  5
5F4D
100
AcDbEntity
  8
0
100
AcDbLine
 10
499.438799
 20
954.900967
 30
0.0
 11
499.438799
 21
956.119771
 31
0.0
  0
LINE
  5
5F4E
100
AcDbEntity
  8
0
100
AcDbLine
 10
499.011509
 20
1064.318104
 30
0.0
 11
484.9786
 21
1064.318104
 31
0.0
  0
LINE
  5
5F4F
100
AcDbEntity
  8
0
100
AcDbLine
 10
499.011509
 20
1066.523964
 30
0.0
 11
484.9786
 21
1066.523964
 31
0.0
  0
LINE
  5
5F50
100
AcDbEntity
  8
0
100
AcDbLine
 10
499.011509
 20
1053.903391
 30
0.0
 11
484.9786
 21
1053.903391
 31
0.0
  0
LINE
  5
5F51
100
AcDbEntity
  8
0
100
AcDbLine
 10
499.011509
 20
1099.903391
 30
0.0
 11
484.9786
 21
1099.903391
 31
0.0
  0
LINE
  5
5F52
100
AcDbEntity
  8
0
100
AcDbLine
 10
499.011509
 20
1089.488678
 30
0.0
 11
484.9786
 21
1089.488678
 31
0.0
  0
LINE
  5
5F53
100
AcDbEntity
  8
0
100
AcDbLine
 10
499.011509
 20
1087.282818
 30
0.0
 11
484.9786
 21
1087.282818
 31
0.0
  0
SPLINE
  5
5F54
100
AcDbEntity
  8
0
100
AcDbSpline
210
0.0
220
0.0
230
1.0
 70
     8
 71
     3
 72
    11
 73
     7
 74
     5
 42
0.0000001
 43
0.0000001
 44
0.0000000001
 40
0.0
 40
0.0
 40
0.0
 40
0.0
 40
5.409318042600223
 40
10.78455958939874
 40
12.99041943973096
 40
23.46384279063578
 40
23.46384279063578
 40
23.46384279063578
 40
23.46384279063578
 10
484.9785997203595
 20
1053.903391014456
 30
0.0
 10
485.7475456960034
 20
1055.651570888658
 30
0.0
 10
487.2805936014974
 20
1059.136917817391
 30
0.0
 10
484.7855703055071
 20
1063.241600306295
 30
0.0
 10
485.1160115058077
 20
1069.301955560315
 30
0.0
 10
485.8074706803126
 20
1073.464784326875
 30
0.0
 10
486.3786342508011
 20
1076.903391014456
 30
0.0
 11
484.9785997203595
 21
1053.903391014456
 31
0.0
 11
486.3786342508013
 21
1059.128391014415
 31
0.0
 11
484.9785997203595
 21
1064.318104397638
 31
0.0
 11
484.9785997203595
 21
1066.52396424797
 31
0.0
 11
486.3786342508011
 21
1076.903391014456
 31
0.0
  0
LINE
  5
5F55
100
AcDbEntity
  8
0
100
AcDbLine
 10
481.763209
 20
1111.185903
 30
0.0
 11
481.763209
 21
1042.620879
 31
0.0
  0
LINE
  5
5F56
100
AcDbEntity
  8
0
100
AcDbLine
 10
476.763209
 20
1111.903391
 30
0.0
 11
476.763209
 21
1041.903391
 31
0.0
  0
LINE
  5
5F57
100
AcDbEntity
  8
0
100
AcDbLine
 10
461.763209
 20
1110.903391
 30
0.0
 11
461.763209
 21
1042.903391
 31
0.0
  0
LINE
  5
5F58
100
AcDbEntity
  8
0
100
AcDbLine
 10
466.763209
 20
1111.903391
 30
0.0
 11
466.763209
 21
1041.903391
 31
0.0
  0
SPLINE
  5
5F59
100
AcDbEntity
  8
0
100
AcDbSpline
210
0.0
220
0.0
230
-1.0
 70
     8
 71
     3
 72
    11
 73
     7
 74
     5
 42
0.0000001
 43
0.0000001
 44
0.0000000001
 40
0.0
 40
0.0
 40
0.0
 40
0.0
 40
10.55362156182342
 40
12.75948141215541
 40
18.26920666935372
 40
23.85239324160884
 40
23.85239324160884
 40
23.85239324160884
 40
23.85239324160884
 10
430.8499745626014
 20
1076.903391014545
 30
0.0
 10
431.6336134360676
 20
1073.482359984857
 30
0.0
 10
432.5810441906443
 20
1069.346283892116
 30
0.0
 10
433.013875928649
 20
1063.180715984139
 30
0.0
 10
429.6161966860261
 20
1059.164658831381
 30
0.0
 10
431.7071411188527
 20
1055.664872574583
 30
0.0
 10
432.7595368342581
 20
1053.903391014545
 30
0.0
 11
430.8499745626014
 21
1076.903391014545
 31
0.0
 11
432.759536834258
 21
1066.523964248059
 31
0.0
 11
432.759536834258
 21
1064.318104397727
 31
0.0
 11
430.8499745626015
 21
1059.149870236964
 31
0.0
 11
432.7595368342581
 21
1053.903391014545
 31
0.0
  0
LINE
  5
5F5C
100
AcDbEntity
  8
0
100
AcDbLine
 10
436.763209
 20
1045.138955
 30
0.0
 11
436.763209
 21
1076.903391
 31
0.0
  0
ARC
  5
5F5D
100
AcDbEntity
  8
0
100
AcDbCircle
 10
441.664662
 20
1049.903391
 30
0.0
 40
7.0
100
AcDbArc
 50
200.0
 51
270.0
  0
LINE
  5
5F5F
100
AcDbEntity
  8
0
100
AcDbLine
 10
435.086814
 20
1047.50925
 30
0.0
 11
432.759537
 21
1053.903391
 31
0.0
  0
LINE
  5
5F60
100
AcDbEntity
  8
0
100
AcDbLine
 10
432.759537
 20
1064.318104
 30
0.0
 11
418.514909
 21
1064.318104
 31
0.0
  0
LINE
  5
5F61
100
AcDbEntity
  8
0
100
AcDbLine
 10
432.759537
 20
1053.903391
 30
0.0
 11
418.514909
 21
1053.903391
 31
0.0
  0
LINE
  5
5F62
100
AcDbEntity
  8
0
100
AcDbLine
 10
461.763209
 20
1042.903391
 30
0.0
 11
466.763209
 21
1041.903391
 31
0.0
  0
LINE
  5
5F63
100
AcDbEntity
  8
0
100
AcDbLine
 10
466.763209
 20
1041.903391
 30
0.0
 11
443.763209
 21
1041.903391
 31
0.0
  0
LINE
  5
5F64
100
AcDbEntity
  8
0
100
AcDbLine
 10
461.763209
 20
1042.903391
 30
0.0
 11
441.664662
 21
1042.903391
 31
0.0
  0
LINE
  5
5F65
100
AcDbEntity
  8
0
100
AcDbLine
 10
443.763209
 20
1041.903391
 30
0.0
 11
443.763209
 21
1042.903391
 31
0.0
  0
LINE
  5
5F66
100
AcDbEntity
  8
0
100
AcDbLine
 10
482.160407
 20
1043.385753
 30
0.0
 11
484.9786
 21
1053.903391
 31
0.0
  0
LINE
  5
5F67
100
AcDbEntity
  8
0
100
AcDbLine
 10
480.228555
 20
1041.903391
 30
0.0
 11
476.763209
 21
1041.903391
 31
0.0
  0
LINE
  5
5F68
100
AcDbEntity
  8
0
100
AcDbLine
 10
476.763209
 20
1041.903391
 30
0.0
 11
466.763209
 21
1041.903391
 31
0.0
  0
ARC
  5
5F69
100
AcDbEntity
  8
0
100
AcDbCircle
 10
480.228555
 20
1043.903391
 30
0.0
 40
2.0
100
AcDbArc
 50
270.0
 51
345.0
  0
ARC
  5
5F6A
100
AcDbEntity
  8
0
100
AcDbCircle
 10
441.664662
 20
1103.903391
 30
0.0
 40
7.0
100
AcDbArc
 50
90.0
 51
160.0
  0
LINE
  5
5F6D
100
AcDbEntity
  8
0
100
AcDbLine
 10
436.763209
 20
1108.900967
 30
0.0
 11
436.763209
 21
1076.903391
 31
0.0
  0
SPLINE
  5
5F6E
100
AcDbEntity
  8
0
100
AcDbSpline
210
0.0
220
0.0
230
-1.0
 70
     8
 71
     3
 72
    11
 73
     7
 74
     5
 42
0.0000001
 43
0.0000001
 44
0.0000000001
 40
0.0
 40
0.0
 40
0.0
 40
0.0
 40
10.5536215618232
 40
12.75948141215542
 40
18.26920666935376
 40
23.85239324160868
 40
23.85239324160868
 40
23.85239324160868
 40
23.85239324160868
 10
430.8499745626014
 20
1076.903391014545
 30
0.0
 10
431.6336134360677
 20
1080.324422044233
 30
0.0
 10
432.5810441906445
 20
1084.460498136975
 30
0.0
 10
433.013875928649
 20
1090.62606604495
 30
0.0
 10
429.616196686026
 20
1094.64212319771
 30
0.0
 10
431.7071411188525
 20
1098.141909454507
 30
0.0
 10
432.759536834258
 20
1099.903391014545
 30
0.0
 11
430.8499745626014
 21
1076.903391014545
 31
0.0
 11
432.759536834258
 21
1087.282817781031
 31
0.0
 11
432.759536834258
 21
1089.488677631363
 31
0.0
 11
430.8499745626014
 21
1094.656911792126
 31
0.0
 11
432.759536834258
 21
1099.903391014545
 31
0.0
  0
LINE
  5
5F70
100
AcDbEntity
  8
0
100
AcDbLine
 10
432.759537
 20
1066.523964
 30
0.0
 11
418.514909
 21
1066.523964
 31
0.0
  0
LINE
  5
5F71
100
AcDbEntity
  8
0
100
AcDbLine
 10
432.759537
 20
1089.488678
 30
0.0
 11
418.514909
 21
1089.488678
 31
0.0
  0
LINE
  5
5F72
100
AcDbEntity
  8
0
100
AcDbLine
 10
432.759537
 20
1087.282818
 30
0.0
 11
418.514909
 21
1087.282818
 31
0.0
  0
LINE
  5
5F73
100
AcDbEntity
  8
0
100
AcDbLine
 10
432.759537
 20
1099.903391
 30
0.0
 11
418.514909
 21
1099.903391
 31
0.0
  0
LINE
  5
5F74
100
AcDbEntity
  8
0
100
AcDbLine
 10
435.086814
 20
1106.297532
 30
0.0
 11
432.759537
 21
1099.903391
 31
0.0
  0
LINE
  5
5F75
100
AcDbEntity
  8
0
100
AcDbLine
 10
466.763209
 20
1111.403391
 30
0.0
 11
466.763209
 21
1076.903391
 31
0.0
  0
SPLINE
  5
5F76
100
AcDbEntity
  8
0
100
AcDbSpline
210
0.0
220
0.0
230
1.0
 70
     8
 71
     3
 72
    11
 73
     7
 74
     5
 42
0.0000001
 43
0.0000001
 44
0.0000000001
 40
0.0
 40
0.0
 40
0.0
 40
0.0
 40
5.409318042600223
 40
10.78455958939874
 40
12.99041943973096
 40
23.46384279063557
 40
23.46384279063557
 40
23.46384279063557
 40
23.46384279063557
 10
484.9785997203595
 20
1099.903391014545
 30
0.0
 10
485.7475456960035
 20
1098.155211140343
 30
0.0
 10
487.2805936014975
 20
1094.669864211611
 30
0.0
 10
484.7855703055069
 20
1090.565181722706
 30
0.0
 10
485.1160115058079
 20
1084.504826468686
 30
0.0
 10
485.8074706803127
 20
1080.341997702126
 30
0.0
 10
486.3786342508013
 20
1076.903391014545
 30
0.0
 11
484.9785997203595
 21
1099.903391014545
 31
0.0
 11
486.3786342508013
 21
1094.678391014586
 31
0.0
 11
484.9785997203595
 21
1089.488677631363
 31
0.0
 11
484.9785997203595
 21
1087.282817781031
 31
0.0
 11
486.3786342508013
 21
1076.903391014545
 31
0.0
  0
LINE
  5
5F77
100
AcDbEntity
  8
0
100
AcDbLine
 10
461.763209
 20
1110.903391
 30
0.0
 11
466.763209
 21
1111.903391
 31
0.0
  0
LINE
  5
5F78
100
AcDbEntity
  8
0
100
AcDbLine
 10
461.763209
 20
1110.903391
 30
0.0
 11
441.664662
 21
1110.903391
 31
0.0
  0
LINE
  5
5F79
100
AcDbEntity
  8
0
100
AcDbLine
 10
480.228555
 20
1111.903391
 30
0.0
 11
476.763209
 21
1111.903391
 31
0.0
  0
LINE
  5
5F7A
100
AcDbEntity
  8
0
100
AcDbLine
 10
476.763209
 20
1111.903391
 30
0.0
 11
466.763209
 21
1111.903391
 31
0.0
  0
LINE
  5
5F7B
100
AcDbEntity
  8
0
100
AcDbLine
 10
482.160407
 20
1110.421029
 30
0.0
 11
484.9786
 21
1099.903391
 31
0.0
  0
ARC
  5
5F7C
100
AcDbEntity
  8
0
100
AcDbCircle
 10
480.228555
 20
1109.903391
 30
0.0
 40
2.0
100
AcDbArc
 50
15.0
 51
90.0
  0
LINE
  5
5F7D
100
AcDbEntity
  8
0
100
AcDbLine
 10
500.763209
 20
1056.937424
 30
0.0
 11
500.763209
 21
1076.903391
 31
0.0
  0
LINE
  5
5F81
100
AcDbEntity
  8
0
100
AcDbLine
 10
500.763209
 20
1096.869358
 30
0.0
 11
499.011509
 21
1099.903391
 31
0.0
  0
LINE
  5
5F83
100
AcDbEntity
  8
0
100
AcDbLine
 10
500.763209
 20
1096.869358
 30
0.0
 11
500.763209
 21
1076.903391
 31
0.0
  0
CIRCLE
  5
5F84
100
AcDbEntity
  8
0
100
AcDbCircle
 10
321.532668
 20
211.14812
 30
0.0
 40
60.0
  0
CIRCLE
  5
5F85
100
AcDbEntity
  8
0
100
AcDbCircle
 10
321.496848
 20
211.14812
 30
0.0
 40
28.29218
  0
LINE
  5
5F86
100
AcDbEntity
  8
0
100
AcDbLine
 10
284.032668
 20
231.14812
 30
0.0
 11
284.032668
 21
191.14812
 31
0.0
  0
CIRCLE
  5
5F87
100
AcDbEntity
  8
0
100
AcDbCircle
 10
321.532668
 20
211.14812
 30
0.0
 40
37.0
  0
LINE
  5
5F88
100
AcDbEntity
  8
0
100
AcDbLine
 10
359.032668
 20
191.14812
 30
0.0
 11
359.032668
 21
231.14812
 31
0.0
  0
ARC
  5
5F89
100
AcDbEntity
  8
0
100
AcDbCircle
 10
708.419191
 20
211.14812
 30
0.0
 40
60.0
100
AcDbArc
 50
281.536789
 51
258.462871
  0
CIRCLE
  5
5F8A
100
AcDbEntity
  8
0
100
AcDbCircle
 10
708.419191
 20
211.14812
 30
0.0
 40
57.0
  0
ARC
  5
5F8B
100
AcDbEntity
  8
0
100
AcDbCircle
 10
604.182577
 20
211.14317
 30
0.0
 40
110.915291
100
AcDbArc
 50
169.611834
 51
190.388166
  0
LINE
  5
5F8C
100
AcDbEntity
  8
0
100
AcDbLine
 10
469.365328
 20
248.14797
 30
0.0
 11
469.365328
 21
174.14827
 31
0.0
  0
ARC
  5
5F8D
100
AcDbEntity
  8
0
100
AcDbCircle
 10
540.445231
 20
211.14317
 30
0.0
 40
70.791774
100
AcDbArc
 50
163.589583
 51
196.410417
  0
LINE
  5
5F8F
100
AcDbEntity
  8
0
100
AcDbLine
 10
469.365328
 20
248.14797
 30
0.0
 11
469.365328
 21
174.14797
 31
0.0
  0
CIRCLE
  5
5F90
100
AcDbEntity
  8
0
100
AcDbCircle
 10
708.382371
 20
211.14812
 30
0.0
 40
28.29218
  0
LINE
  5
5F91
100
AcDbEntity
  8
0
100
AcDbLine
 10
745.918191
 20
191.14812
 30
0.0
 11
745.918191
 21
231.14812
 31
0.0
  0
LINE
  5
5F92
100
AcDbEntity
  8
0
100
AcDbLine
 10
670.918191
 20
231.14812
 30
0.0
 11
670.918191
 21
191.14812
 31
0.0
  0
CIRCLE
  5
5F93
100
AcDbEntity
  8
0
100
AcDbCircle
 10
708.418191
 20
211.14812
 30
0.0
 40
37.0
  0
LINE
  5
5F95
100
AcDbEntity
  8
0
100
AcDbLine
 10
520.365328
 20
271.14797
 30
0.0
 11
520.365328
 21
151.14827
 31
0.0
  0
LINE
  5
5F96
100
AcDbEntity
  8
0
100
AcDbLine
 10
565.365328
 20
261.27797
 30
0.0
 11
565.365328
 21
160.92347
 31
0.0
  0
LINE
  5
5F97
100
AcDbEntity
  8
0
100
AcDbLine
 10
530.365328
 20
268.14797
 30
0.0
 11
530.365328
 21
154.14827
 31
0.0
  0
ARC
  5
5F98
100
AcDbEntity
  8
0
100
AcDbCircle
 10
461.548078
 20
211.14317
 30
0.0
 40
110.915291
100
AcDbArc
 50
349.611834
 51
10.388166
  0
ARC
  5
5F99
100
AcDbEntity
  8
0
100
AcDbCircle
 10
525.285425
 20
211.14317
 30
0.0
 40
70.791774
100
AcDbArc
 50
343.589583
 51
16.410417
  0
LINE
  5
5F9A
100
AcDbEntity
  8
0
100
AcDbLine
 10
505.365328
 20
151.14827
 30
0.0
 11
505.365328
 21
271.14797
 31
0.0
  0
LINE
  5
5F9B
100
AcDbEntity
  8
0
100
AcDbLine
 10
596.365328
 20
248.14797
 30
0.0
 11
596.365328
 21
174.14827
 31
0.0
  0
LINE
  5
5F9C
100
AcDbEntity
  8
0
100
AcDbLine
 10
925.628979
 20
854.064348
 30
0.0
 11
925.628979
 21
756.064348
 31
0.0
  0
ARC
  5
5F9D
100
AcDbEntity
  8
0
100
AcDbCircle
 10
882.897196
 20
805.064348
 30
0.0
 40
88.647218
100
AcDbArc
 50
349.601656
 51
10.398344
  0
ARC
  5
5F9E
100
AcDbEntity
  8
0
100
AcDbCircle
 10
940.062718
 20
805.064348
 30
0.0
 40
50.566261
100
AcDbArc
 50
341.553651
 51
18.446349
  0
LINE
  5
5F9F
100
AcDbEntity
  8
0
100
AcDbLine
 10
990.628979
 20
834.564348
 30
0.0
 11
990.628979
 21
805.064348
 31
0.0
  0
LINE
  5
5FA0
100
AcDbEntity
  8
0
100
AcDbLine
 10
964.628979
 20
758.791959
 30
0.0
 11
964.628979
 21
851.203742
 31
0.0
  0
LINE
  5
5FA1
100
AcDbEntity
  8
0
100
AcDbLine
 10
915.628979
 20
856.064348
 30
0.0
 11
915.628979
 21
753.064348
 31
0.0
  0
LINE
  5
5FA2
100
AcDbEntity
  8
0
100
AcDbLine
 10
900.628979
 20
754.064348
 30
0.0
 11
900.628979
 21
856.064348
 31
0.0
  0
LINE
  5
5FA3
100
AcDbEntity
  8
0
100
AcDbLine
 10
868.628979
 20
834.564348
 30
0.0
 11
868.628979
 21
805.064348
 31
0.0
  0
ARC
  5
5FA4
100
AcDbEntity
  8
0
100
AcDbCircle
 10
919.195241
 20
805.064348
 30
0.0
 40
50.566261
100
AcDbArc
 50
161.553651
 51
198.446349
  0
LINE
  5
5FA5
100
AcDbEntity
  8
0
100
AcDbLine
 10
892.628979
 20
854.988116
 30
0.0
 11
892.628979
 21
755.14058
 31
0.0
  0
ARC
  5
5FA6
100
AcDbEntity
  8
0
100
AcDbCircle
 10
976.360763
 20
805.064348
 30
0.0
 40
88.647218
100
AcDbArc
 50
169.601656
 51
190.398344
  0
INSERT
  5
5FA7
100
AcDbEntity
  8
0
100
AcDbBlockReference
  2
YA
 10
855.128979
 20
805.064348
 30
0.0
 41
3.0
 42
3.0
 43
3.0
  0
LINE
  5
5FA8
100
AcDbEntity
  8
0
100
AcDbLine
 10
769.017366
 20
821.064348
 30
0.0
 11
769.017366
 21
789.064348
 31
0.0
  0
POLYLINE
  5
5FA9
100
AcDbEntity
  8
0
100
AcDb2dPolyline
 66
     1
 10
0.0
 20
0.0
 30
0.0
  0
VERTEX
  5
6A74
100
AcDbEntity
  8
0
100
AcDbVertex
100
AcDb2dVertex
 10
769.017366
 20
789.064348
 30
0.0
  0
VERTEX
  5
6A75
100
AcDbEntity
  8
0
100
AcDbVertex
100
AcDb2dVertex
 10
769.017366
 20
821.064348
 30
0.0
  0
SEQEND
  5
6A76
100
AcDbEntity
  8
0
  0
ARC
  5
5FAA
100
AcDbEntity
  8
0
100
AcDbCircle
 10
1069.764181
 20
805.064348
 30
0.0
 40
51.0
100
AcDbArc
 50
283.608961
 51
256.391039
  0
CIRCLE
  5
5FAB
100
AcDbEntity
  8
0
100
AcDbCircle
 10
1069.764181
 20
805.064348
 30
0.0
 40
49.0
  0
CIRCLE
  5
5FAC
100
AcDbEntity
  8
0
100
AcDbCircle
 10
1069.764181
 20
805.064348
 30
0.0
 40
29.5
  0
POLYLINE
  5
5FAD
100
AcDbEntity
  8
0
100
AcDb2dPolyline
 66
     1
 10
0.0
 20
0.0
 30
0.0
  0
VERTEX
  5
6A77
100
AcDbEntity
  8
0
100
AcDbVertex
100
AcDb2dVertex
 10
1099.764181
 20
789.064348
 30
0.0
  0
VERTEX
  5
6A78
100
AcDbEntity
  8
0
100
AcDbVertex
100
AcDb2dVertex
 10
1099.764181
 20
821.064348
 30
0.0
  0
SEQEND
  5
6A79
100
AcDbEntity
  8
0
  0
POLYLINE
  5
5FAE
100
AcDbEntity
  8
0
100
AcDb2dPolyline
 66
     1
 10
0.0
 20
0.0
 30
0.0
  0
VERTEX
  5
6A7A
100
AcDbEntity
  8
0
100
AcDbVertex
100
AcDb2dVertex
 10
1039.764181
 20
821.064348
 30
0.0
  0
VERTEX
  5
6A7B
100
AcDbEntity
  8
0
100
AcDbVertex
100
AcDb2dVertex
 10
1039.764181
 20
789.064348
 30
0.0
  0
SEQEND
  5
6A7C
100
AcDbEntity
  8
0
  0
LINE
  5
5FAF
100
AcDbEntity
  8
0
100
AcDbLine
 10
1039.764181
 20
821.064348
 30
0.0
 11
1039.764181
 21
789.064348
 31
0.0
  0
LINE
  5
5FB0
100
AcDbEntity
  8
0
100
AcDbLine
 10
1099.764181
 20
821.064348
 30
0.0
 11
1099.764181
 21
789.064348
 31
0.0
  0
CIRCLE
  5
5FB1
100
AcDbEntity
  8
0
100
AcDbCircle
 10
1069.764181
 20
805.064348
 30
0.0
 40
22.4225
  0
POLYLINE
  5
5FB2
100
AcDbEntity
  8
0
100
AcDb2dPolyline
 66
     1
 10
0.0
 20
0.0
 30
0.0
  0
VERTEX
  5
6A7D
100
AcDbEntity
  8
0
100
AcDbVertex
100
AcDb2dVertex
 10
1070.907774
 20
771.083586
 30
0.0
  0
VERTEX
  5
6A7E
100
AcDbEntity
  8
0
100
AcDbVertex
100
AcDb2dVertex
 10
1098.620587
 20
787.083586
 30
0.0
  0
SEQEND
  5
6A7F
100
AcDbEntity
  8
0
  0
LINE
  5
5FB3
100
AcDbEntity
  8
0
100
AcDbLine
 10
900.628979
 20
754.064348
 30
0.0
 11
915.628979
 21
754.064348
 31
0.0
  0
POLYLINE
  5
5FB4
100
AcDbEntity
  8
0
100
AcDb2dPolyline
 66
     1
 10
0.0
 20
0.0
 30
0.0
  0
VERTEX
  5
6A80
100
AcDbEntity
  8
0
100
AcDbVertex
100
AcDb2dVertex
 10
740.160959
 20
771.083586
 30
0.0
  0
VERTEX
  5
6A81
100
AcDbEntity
  8
0
100
AcDbVertex
100
AcDb2dVertex
 10
767.873772
 20
787.083586
 30
0.0
  0
SEQEND
  5
6A82
100
AcDbEntity
  8
0
  0
LINE
  5
5FB5
100
AcDbEntity
  8
0
100
AcDbLine
 10
727.017366
 20
753.064348
 30
0.0
 11
751.017366
 21
753.064348
 31
0.0
  0
LINE
  5
5FB6
100
AcDbEntity
  8
0
100
AcDbLine
 10
727.017366
 20
755.496213
 30
0.0
 11
727.017366
 21
753.064348
 31
0.0
  0
ARC
  5
5FB7
100
AcDbEntity
  8
0
100
AcDbCircle
 10
739.017366
 20
805.064348
 30
0.0
 40
34.0
100
AcDbArc
 50
268.072487
 51
271.927513
  0
LINE
  5
5FB8
100
AcDbEntity
  8
0
100
AcDbLine
 10
751.017366
 20
755.496213
 30
0.0
 11
751.017366
 21
753.064348
 31
0.0
  0
ARC
  5
5FB9
100
AcDbEntity
  8
0
100
AcDbCircle
 10
739.017366
 20
805.064348
 30
0.0
 40
34.0
100
AcDbArc
 50
328.072487
 51
331.927513
  0
SPLINE
  5
5FBA
100
AcDbEntity
  8
0
100
AcDbSpline
210
0.0
220
0.0
230
-1.0
 70
     8
 71
     3
 72
    10
 73
     6
 74
     4
 42
0.0000001
 43
0.0000001
 44
0.0000000001
 40
0.0
 40
0.0
 40
0.0
 40
0.0
 40
4.295843329571327
 40
8.315081216038052
 40
16.44647650239007
 40
16.44647650239007
 40
16.44647650239007
 40
16.44647650239007
 10
888.1472333225234
 20
770.7904526008847
 30
0.0
 10
887.9751823952231
 20
772.2120862659175
 30
0.0
 10
887.642158743278
 20
774.9638158978687
 30
0.0
 10
887.59456408629
 20
780.4731419513927
 30
0.0
 10
888.538038199621
 20
784.4333515060033
 30
0.0
 10
889.169425951092
 20
787.0835861766841
 30
0.0
 11
888.1472333225234
 21
770.7904526008847
 31
0.0
 11
887.7135450140276
 21
775.0643482902173
 31
0.0
 11
887.7135450140276
 21
779.0835861766841
 31
0.0
 11
889.169425951092
 21
787.0835861766841
 31
0.0
  0
LINE
  5
5FBB
100
AcDbEntity
  8
0
100
AcDbLine
 10
868.628979
 20
775.564348
 30
0.0
 11
871.227056
 21
771.064348
 31
0.0
  0
ARC
  5
5FBC
100
AcDbEntity
  8
0
100
AcDbCircle
 10
882.274442
 20
779.073967
 30
0.0
 40
13.645466
100
AcDbArc
 50
144.056991
 51
215.943009
  0
LINE
  5
5FBD
100
AcDbEntity
  8
0
100
AcDbLine
 10
871.227056
 20
771.064348
 30
0.0
 11
888.073843
 21
771.064348
 31
0.0
  0
LINE
  5
5FBE
100
AcDbEntity
  8
0
100
AcDbLine
 10
892.033183
 20
756.287891
 30
0.0
 11
888.073843
 21
771.064348
 31
0.0
  0
LINE
  5
5FBF
100
AcDbEntity
  8
0
100
AcDbLine
 10
900.628979
 20
754.064348
 30
0.0
 11
894.93096
 21
754.064348
 31
0.0
  0
ARC
  5
5FC0
100
AcDbEntity
  8
0
100
AcDbCircle
 10
894.93096
 20
757.064348
 30
0.0
 40
3.0
100
AcDbArc
 50
195.0
 51
270.0
  0
LINE
  5
5FC1
100
AcDbEntity
  8
0
100
AcDbLine
 10
871.227056
 20
789.064348
 30
0.0
 11
889.169426
 21
789.064348
 31
0.0
  0
LINE
  5
5FC2
100
AcDbEntity
  8
0
100
AcDbLine
 10
871.227056
 20
787.083586
 30
0.0
 11
889.169426
 21
787.083586
 31
0.0
  0
LINE
  5
5FC3
100
AcDbEntity
  8
0
100
AcDbLine
 10
868.628979
 20
775.564348
 30
0.0
 11
868.628979
 21
805.064348
 31
0.0
  0
LINE
  5
5FC4
100
AcDbEntity
  8
0
100
AcDbLine
 10
871.227056
 20
789.064348
 30
0.0
 11
871.227056
 21
787.083586
 31
0.0
  0
LINE
  5
5FC5
100
AcDbEntity
  8
0
100
AcDbLine
 10
889.169426
 20
789.064348
 30
0.0
 11
889.169426
 21
787.083586
 31
0.0
  0
TEXT
  5
5FC6
100
AcDbEntity
  8
0
100
AcDbText
 10
911.330424
 20
691.935829
 30
0.0
 40
15.0
  1
40A
 41
0.8
 11
911.330424
 21
691.935829
 31
0.0
100
AcDbText
 73
     1
  0
LINE
  5
5FC7
100
AcDbEntity
  8
0
100
AcDbLine
 10
925.628979
 20
756.064348
 30
0.0
 11
957.626904
 21
756.064348
 31
0.0
  0
LINE
  5
5FC8
100
AcDbEntity
  8
0
100
AcDbLine
 10
915.628979
 20
753.064348
 30
0.0
 11
951.128979
 21
753.064348
 31
0.0
  0
LINE
  5
5FC9
100
AcDbEntity
  8
0
100
AcDbLine
 10
915.628979
 20
754.064348
 30
0.0
 11
925.628979
 21
756.064348
 31
0.0
  0
LINE
  5
5FCA
100
AcDbEntity
  8
0
100
AcDbLine
 10
951.128979
 20
756.064348
 30
0.0
 11
951.128979
 21
753.064348
 31
0.0
  0
ARC
  5
5FCB
100
AcDbEntity
  8
0
100
AcDbCircle
 10
976.983517
 20
779.073967
 30
0.0
 40
13.645466
100
AcDbArc
 50
324.056991
 51
35.943009
  0
SPLINE
  5
5FCC
100
AcDbEntity
  8
0
100
AcDbSpline
210
0.0
220
0.0
230
1.0
 70
     8
 71
     3
 72
    10
 73
     6
 74
     4
 42
0.0000001
 43
0.0000001
 44
0.0000000001
 40
0.0
 40
0.0
 40
0.0
 40
0.0
 40
4.256711089902447
 40
8.275948976369173
 40
16.40734426272119
 40
16.40734426272119
 40
16.40734426272119
 40
16.40734426272119
 10
970.0885329790791
 20
771.0643482902185
 30
0.0
 10
970.6925955328658
 20
772.3737383522525
 30
0.0
 10
971.8670212263392
 20
774.9194702834763
 30
0.0
 10
971.5252331972763
 20
780.5047538158174
 30
0.0
 10
970.6645294779335
 20
784.4460252169141
 30
0.0
 10
970.0885329790789
 20
787.0835861766841
 30
0.0
 11
970.0885329790791
 21
771.0643482902185
 31
0.0
 11
971.5444139161435
 21
775.0643482902173
 31
0.0
 11
971.5444139161435
 21
779.0835861766841
 31
0.0
 11
970.0885329790789
 21
787.0835861766841
 31
0.0
  0
LINE
  5
5FCD
100
AcDbEntity
  8
0
100
AcDbLine
 10
990.628979
 20
775.564348
 30
0.0
 11
988.030903
 21
771.064348
 31
0.0
  0
LINE
  5
5FCE
100
AcDbEntity
  8
0
100
AcDbLine
 10
970.088533
 20
771.064348
 30
0.0
 11
988.030903
 21
771.064348
 31
0.0
  0
ARC
  5
5FCF
100
AcDbEntity
  8
0
100
AcDbCircle
 10
957.626904
 20
766.064348
 30
0.0
 40
10.0
100
AcDbArc
 50
270.0
 51
340.0
  0
LINE
  5
5FD0
100
AcDbEntity
  8
0
100
AcDbLine
 10
967.02383
 20
762.644147
 30
0.0
 11
970.088533
 21
771.064348
 31
0.0
  0
LINE
  5
5FD1
100
AcDbEntity
  8
0
100
AcDbLine
 10
988.030903
 20
787.083586
 30
0.0
 11
970.088533
 21
787.083586
 31
0.0
  0
LINE
  5
5FD2
100
AcDbEntity
  8
0
100
AcDbLine
 10
988.030903
 20
789.064348
 30
0.0
 11
970.088533
 21
789.064348
 31
0.0
  0
LINE
  5
5FD3
100
AcDbEntity
  8
0
100
AcDbLine
 10
970.088533
 20
789.064348
 30
0.0
 11
970.088533
 21
787.083586
 31
0.0
  0
LINE
  5
5FD4
100
AcDbEntity
  8
0
100
AcDbLine
 10
990.628979
 20
775.564348
 30
0.0
 11
990.628979
 21
805.064348
 31
0.0
  0
LINE
  5
5FD5
100
AcDbEntity
  8
0
100
AcDbLine
 10
988.030903
 20
789.064348
 30
0.0
 11
988.030903
 21
787.083586
 31
0.0
  0
POLYLINE
  5
5FD6
100
AcDbEntity
  8
0
100
AcDb2dPolyline
 66
     1
 10
0.0
 20
0.0
 30
0.0
  0
VERTEX
  5
6A83
100
AcDbEntity
  8
0
100
AcDbVertex
100
AcDb2dVertex
 10
1040.907774
 20
787.083586
 30
0.0
  0
VERTEX
  5
6A84
100
AcDbEntity
  8
0
100
AcDbVertex
100
AcDb2dVertex
 10
1068.620587
 20
771.083586
 30
0.0
  0
SEQEND
  5
6A85
100
AcDbEntity
  8
0
  0
ARC
  5
5FD7
100
AcDbEntity
  8
0
100
AcDbCircle
 10
1069.764181
 20
805.064348
 30
0.0
 40
34.0
100
AcDbArc
 50
208.072487
 51
211.927513
  0
LINE
  5
5FD8
100
AcDbEntity
  8
0
100
AcDbLine
 10
1057.764181
 20
753.064348
 30
0.0
 11
1081.764181
 21
753.064348
 31
0.0
  0
LINE
  5
5FD9
100
AcDbEntity
  8
0
100
AcDbLine
 10
1057.764181
 20
757.556454
 30
0.0
 11
1057.764181
 21
753.064348
 31
0.0
  0
ARC
  5
5FDA
100
AcDbEntity
  8
0
100
AcDbCircle
 10
1069.764181
 20
805.064348
 30
0.0
 40
34.0
100
AcDbArc
 50
268.072487
 51
271.927513
  0
LINE
  5
5FDB
100
AcDbEntity
  8
0
100
AcDbLine
 10
1081.764181
 20
757.556454
 30
0.0
 11
1081.764181
 21
753.064348
 31
0.0
  0
LINE
  5
5FDC
100
AcDbEntity
  8
0
100
AcDbLine
 10
285.462668
 20
188.67212
 30
0.0
 11
320.103668
 21
168.67212
 31
0.0
  0
ARC
  5
5FDD
100
AcDbEntity
  8
0
100
AcDbCircle
 10
1069.764181
 20
805.064348
 30
0.0
 40
34.0
100
AcDbArc
 50
328.072487
 51
331.927513
  0
LINE
  5
5FDE
100
AcDbEntity
  8
0
100
AcDbLine
 10
285.015668
 20
189.40412
 30
0.0
 11
285.163668
 21
189.15912
 31
0.0
  0
LINE
  5
5FDF
100
AcDbEntity
  8
0
100
AcDbLine
 10
284.870668
 20
189.65112
 30
0.0
 11
285.015668
 21
189.40412
 31
0.0
  0
LINE
  5
5FE0
100
AcDbEntity
  8
0
100
AcDbLine
 10
284.726668
 20
189.89812
 30
0.0
 11
284.870668
 21
189.65112
 31
0.0
  0
LINE
  5
5FE1
100
AcDbEntity
  8
0
100
AcDbLine
 10
284.584668
 20
190.14612
 30
0.0
 11
284.726668
 21
189.89812
 31
0.0
  0
LINE
  5
5FE2
100
AcDbEntity
  8
0
100
AcDbLine
 10
284.444668
 20
190.39512
 30
0.0
 11
284.584668
 21
190.14612
 31
0.0
  0
LINE
  5
5FE3
100
AcDbEntity
  8
0
100
AcDbLine
 10
284.305668
 20
190.64512
 30
0.0
 11
284.444668
 21
190.39512
 31
0.0
  0
LINE
  5
5FE4
100
AcDbEntity
  8
0
100
AcDbLine
 10
284.168668
 20
190.89612
 30
0.0
 11
284.305668
 21
190.64512
 31
0.0
  0
LINE
  5
5FE5
100
AcDbEntity
  8
0
100
AcDbLine
 10
284.032668
 20
191.14812
 30
0.0
 11
284.168668
 21
190.89612
 31
0.0
  0
LINE
  5
5FE6
100
AcDbEntity
  8
0
100
AcDbLine
 10
284.032668
 20
191.14812
 30
0.0
 11
284.032668
 21
191.14812
 31
0.0
  0
LINE
  5
5FE7
100
AcDbEntity
  8
0
100
AcDbLine
 10
285.163668
 20
189.15912
 30
0.0
 11
285.462668
 21
188.67212
 31
0.0
  0
LINE
  5
5FE8
100
AcDbEntity
  8
0
100
AcDbLine
 10
322.962668
 20
168.67212
 30
0.0
 11
357.603668
 21
188.67212
 31
0.0
  0
LINE
  5
5FE9
100
AcDbEntity
  8
0
100
AcDbLine
 10
310.533494
 20
151.150946
 30
0.0
 11
332.533494
 21
151.150946
 31
0.0
  0
LINE
  5
5FEA
100
AcDbEntity
  8
0
100
AcDbLine
 10
310.239494
 20
151.194946
 30
0.0
 11
310.533494
 21
151.150946
 31
0.0
  0
LINE
  5
5FEB
100
AcDbEntity
  8
0
100
AcDbLine
 10
310.092494
 20
151.253946
 30
0.0
 11
310.239494
 21
151.194946
 31
0.0
  0
LINE
  5
5FEC
100
AcDbEntity
  8
0
100
AcDbLine
 10
309.952494
 20
151.336946
 30
0.0
 11
310.092494
 21
151.253946
 31
0.0
  0
LINE
  5
5FED
100
AcDbEntity
  8
0
100
AcDbLine
 10
309.826494
 20
151.443946
 30
0.0
 11
309.952494
 21
151.336946
 31
0.0
  0
LINE
  5
5FEE
100
AcDbEntity
  8
0
100
AcDbLine
 10
309.719494
 20
151.569946
 30
0.0
 11
309.826494
 21
151.443946
 31
0.0
  0
LINE
  5
5FEF
100
AcDbEntity
  8
0
100
AcDbLine
 10
309.636494
 20
151.709946
 30
0.0
 11
309.719494
 21
151.569946
 31
0.0
  0
LINE
  5
5FF0
100
AcDbEntity
  8
0
100
AcDbLine
 10
309.577494
 20
151.856946
 30
0.0
 11
309.636494
 21
151.709946
 31
0.0
  0
LINE
  5
5FF1
100
AcDbEntity
  8
0
100
AcDbLine
 10
309.544494
 20
152.005946
 30
0.0
 11
309.577494
 21
151.856946
 31
0.0
  0
LINE
  5
5FF2
100
AcDbEntity
  8
0
100
AcDbLine
 10
309.533494
 20
152.150946
 30
0.0
 11
309.544494
 21
152.005946
 31
0.0
  0
LINE
  5
5FF3
100
AcDbEntity
  8
0
100
AcDbLine
 10
309.533494
 20
152.150946
 30
0.0
 11
309.533494
 21
152.150946
 31
0.0
  0
LINE
  5
5FF4
100
AcDbEntity
  8
0
100
AcDbLine
 10
309.533494
 20
152.360198
 30
0.0
 11
309.533494
 21
152.150946
 31
0.0
  0
LINE
  5
5FF5
100
AcDbEntity
  8
0
100
AcDbLine
 10
322.676668
 20
168.66312
 30
0.0
 11
322.962668
 21
168.67212
 31
0.0
  0
LINE
  5
5FF6
100
AcDbEntity
  8
0
100
AcDbLine
 10
322.533668
 20
168.65912
 30
0.0
 11
322.676668
 21
168.66312
 31
0.0
  0
LINE
  5
5FF7
100
AcDbEntity
  8
0
100
AcDbLine
 10
322.390668
 20
168.65612
 30
0.0
 11
322.533668
 21
168.65912
 31
0.0
  0
LINE
  5
5FF8
100
AcDbEntity
  8
0
100
AcDbLine
 10
322.247668
 20
168.65412
 30
0.0
 11
322.390668
 21
168.65612
 31
0.0
  0
LINE
  5
5FF9
100
AcDbEntity
  8
0
100
AcDbLine
 10
322.104668
 20
168.65212
 30
0.0
 11
322.247668
 21
168.65412
 31
0.0
  0
LINE
  5
5FFA
100
AcDbEntity
  8
0
100
AcDbLine
 10
321.961668
 20
168.65012
 30
0.0
 11
322.104668
 21
168.65212
 31
0.0
  0
LINE
  5
5FFB
100
AcDbEntity
  8
0
100
AcDbLine
 10
321.818668
 20
168.64912
 30
0.0
 11
321.961668
 21
168.65012
 31
0.0
  0
LINE
  5
5FFC
100
AcDbEntity
  8
0
100
AcDbLine
 10
321.675668
 20
168.64812
 30
0.0
 11
321.818668
 21
168.64912
 31
0.0
  0
LINE
  5
5FFD
100
AcDbEntity
  8
0
100
AcDbLine
 10
321.532668
 20
168.64812
 30
0.0
 11
321.675668
 21
168.64812
 31
0.0
  0
LINE
  5
5FFE
100
AcDbEntity
  8
0
100
AcDbLine
 10
321.532668
 20
168.64812
 30
0.0
 11
321.532668
 21
168.64812
 31
0.0
  0
LINE
  5
5FFF
100
AcDbEntity
  8
0
100
AcDbLine
 10
321.246668
 20
168.64912
 30
0.0
 11
321.532668
 21
168.64812
 31
0.0
  0
LINE
  5
6000
100
AcDbEntity
  8
0
100
AcDbLine
 10
321.103668
 20
168.65012
 30
0.0
 11
321.246668
 21
168.64912
 31
0.0
  0
LINE
  5
6001
100
AcDbEntity
  8
0
100
AcDbLine
 10
320.960668
 20
168.65212
 30
0.0
 11
321.103668
 21
168.65012
 31
0.0
  0
LINE
  5
6002
100
AcDbEntity
  8
0
100
AcDbLine
 10
320.674668
 20
168.65612
 30
0.0
 11
320.817668
 21
168.65412
 31
0.0
  0
LINE
  5
6003
100
AcDbEntity
  8
0
100
AcDbLine
 10
320.532668
 20
168.65912
 30
0.0
 11
320.674668
 21
168.65612
 31
0.0
  0
LINE
  5
6004
100
AcDbEntity
  8
0
100
AcDbLine
 10
320.389668
 20
168.66312
 30
0.0
 11
320.532668
 21
168.65912
 31
0.0
  0
LINE
  5
6005
100
AcDbEntity
  8
0
100
AcDbLine
 10
320.246668
 20
168.66712
 30
0.0
 11
320.389668
 21
168.66312
 31
0.0
  0
LINE
  5
6006
100
AcDbEntity
  8
0
100
AcDbLine
 10
320.103668
 20
168.67212
 30
0.0
 11
320.246668
 21
168.66712
 31
0.0
  0
LINE
  5
6007
100
AcDbEntity
  8
0
100
AcDbLine
 10
320.103668
 20
168.67212
 30
0.0
 11
320.103668
 21
168.67212
 31
0.0
  0
LINE
  5
6008
100
AcDbEntity
  8
0
100
AcDbLine
 10
320.817668
 20
168.65412
 30
0.0
 11
320.960668
 21
168.65212
 31
0.0
  0
LINE
  5
6009
100
AcDbEntity
  8
0
100
AcDbLine
 10
333.489494
 20
151.856946
 30
0.0
 11
333.533494
 21
152.150946
 31
0.0
  0
LINE
  5
600A
100
AcDbEntity
  8
0
100
AcDbLine
 10
333.431494
 20
151.709946
 30
0.0
 11
333.489494
 21
151.856946
 31
0.0
  0
LINE
  5
600B
100
AcDbEntity
  8
0
100
AcDbLine
 10
333.347494
 20
151.569946
 30
0.0
 11
333.431494
 21
151.709946
 31
0.0
  0
LINE
  5
600C
100
AcDbEntity
  8
0
100
AcDbLine
 10
333.240494
 20
151.443946
 30
0.0
 11
333.347494
 21
151.569946
 31
0.0
  0
LINE
  5
600D
100
AcDbEntity
  8
0
100
AcDbLine
 10
333.114494
 20
151.336946
 30
0.0
 11
333.240494
 21
151.443946
 31
0.0
  0
LINE
  5
600E
100
AcDbEntity
  8
0
100
AcDbLine
 10
332.975494
 20
151.253946
 30
0.0
 11
333.114494
 21
151.336946
 31
0.0
  0
LINE
  5
600F
100
AcDbEntity
  8
0
100
AcDbLine
 10
332.827494
 20
151.194946
 30
0.0
 11
332.975494
 21
151.253946
 31
0.0
  0
LINE
  5
6010
100
AcDbEntity
  8
0
100
AcDbLine
 10
333.533494
 20
152.150946
 30
0.0
 11
333.533494
 21
152.360535
 31
0.0
  0
LINE
  5
6011
100
AcDbEntity
  8
0
100
AcDbLine
 10
332.533494
 20
151.150946
 30
0.0
 11
332.678494
 21
151.161946
 31
0.0
  0
LINE
  5
6012
100
AcDbEntity
  8
0
100
AcDbLine
 10
332.533494
 20
151.150946
 30
0.0
 11
332.533494
 21
151.150946
 31
0.0
  0
LINE
  5
6013
100
AcDbEntity
  8
0
100
AcDbLine
 10
332.678494
 20
151.161946
 30
0.0
 11
332.827494
 21
151.194946
 31
0.0
  0
LINE
  5
6014
100
AcDbEntity
  8
0
100
AcDbLine
 10
358.760668
 20
190.64512
 30
0.0
 11
359.032668
 21
191.14812
 31
0.0
  0
LINE
  5
6015
100
AcDbEntity
  8
0
100
AcDbLine
 10
358.621668
 20
190.39512
 30
0.0
 11
358.760668
 21
190.64512
 31
0.0
  0
LINE
  5
6016
100
AcDbEntity
  8
0
100
AcDbLine
 10
358.480668
 20
190.14612
 30
0.0
 11
358.621668
 21
190.39512
 31
0.0
  0
LINE
  5
6017
100
AcDbEntity
  8
0
100
AcDbLine
 10
358.338668
 20
189.89812
 30
0.0
 11
358.480668
 21
190.14612
 31
0.0
  0
LINE
  5
6018
100
AcDbEntity
  8
0
100
AcDbLine
 10
358.194668
 20
189.65112
 30
0.0
 11
358.338668
 21
189.89812
 31
0.0
  0
LINE
  5
6019
100
AcDbEntity
  8
0
100
AcDbLine
 10
358.049668
 20
189.40412
 30
0.0
 11
358.194668
 21
189.65112
 31
0.0
  0
LINE
  5
601A
100
AcDbEntity
  8
0
100
AcDbLine
 10
357.902668
 20
189.15912
 30
0.0
 11
358.049668
 21
189.40412
 31
0.0
  0
LINE
  5
601B
100
AcDbEntity
  8
0
100
AcDbLine
 10
357.753668
 20
188.91512
 30
0.0
 11
357.902668
 21
189.15912
 31
0.0
  0
LINE
  5
601C
100
AcDbEntity
  8
0
100
AcDbLine
 10
357.603668
 20
188.67212
 30
0.0
 11
357.603668
 21
188.67212
 31
0.0
  0
LINE
  5
601D
100
AcDbEntity
  8
0
100
AcDbLine
 10
357.603668
 20
188.67212
 30
0.0
 11
357.753668
 21
188.91512
 31
0.0
  0
LINE
  5
601E
100
AcDbEntity
  8
0
100
AcDbLine
 10
563.025328
 20
155.30117
 30
0.0
 11
561.886328
 21
154.78917
 31
0.0
  0
LINE
  5
601F
100
AcDbEntity
  8
0
100
AcDbLine
 10
520.365328
 20
151.14827
 30
0.0
 11
505.365328
 21
151.14827
 31
0.0
  0
ARC
  5
6020
100
AcDbEntity
  8
0
100
AcDbCircle
 10
521.678297
 20
178.66737
 30
0.0
 40
28.411019
100
AcDbArc
 50
159.391769
 51
200.608231
  0
ARC
  5
6021
100
AcDbEntity
  8
0
100
AcDbCircle
 10
488.400698
 20
178.66737
 30
0.0
 40
18.75224
100
AcDbArc
 50
147.773363
 51
212.226637
  0
LINE
  5
6022
100
AcDbEntity
  8
0
100
AcDbLine
 10
472.537328
 20
168.64337
 30
0.0
 11
495.089328
 21
168.64337
 31
0.0
  0
LINE
  5
6023
100
AcDbEntity
  8
0
100
AcDbLine
 10
469.365328
 20
174.14827
 30
0.0
 11
472.537328
 21
168.64337
 31
0.0
  0
LINE
  5
6024
100
AcDbEntity
  8
0
100
AcDbLine
 10
472.537328
 20
168.66737
 30
0.0
 11
472.537328
 21
168.64337
 31
0.0
  0
LINE
  5
6025
100
AcDbEntity
  8
0
100
AcDbLine
 10
496.769328
 20
153.37227
 30
0.0
 11
492.675328
 21
168.64827
 31
0.0
  0
LINE
  5
6026
100
AcDbEntity
  8
0
100
AcDbLine
 10
505.365328
 20
151.14827
 30
0.0
 11
499.667328
 21
151.14827
 31
0.0
  0
ARC
  5
6027
100
AcDbEntity
  8
0
100
AcDbCircle
 10
499.667228
 20
154.14827
 30
0.0
 40
3.0
100
AcDbArc
 50
194.990962
 51
270.001911
  0
LINE
  5
6028
100
AcDbEntity
  8
0
100
AcDbLine
 10
495.085328
 20
168.65327
 30
0.0
 11
495.085328
 21
168.67727
 31
0.0
  0
LINE
  5
6029
100
AcDbEntity
  8
0
100
AcDbLine
 10
495.085328
 20
168.66737
 30
0.0
 11
495.089328
 21
168.64337
 31
0.0
  0
LINE
  5
602A
100
AcDbEntity
  8
0
100
AcDbLine
 10
495.085328
 20
188.66737
 30
0.0
 11
472.537328
 21
188.66737
 31
0.0
  0
LINE
  5
602B
100
AcDbEntity
  8
0
100
AcDbLine
 10
495.085328
 20
191.14337
 30
0.0
 11
472.537328
 21
191.14337
 31
0.0
  0
LINE
  5
602C
100
AcDbEntity
  8
0
100
AcDbLine
 10
472.537328
 20
191.14337
 30
0.0
 11
472.537328
 21
188.66737
 31
0.0
  0
LINE
  5
602D
100
AcDbEntity
  8
0
100
AcDbLine
 10
495.085328
 20
191.14337
 30
0.0
 11
495.085328
 21
188.66737
 31
0.0
  0
LINE
  5
602E
100
AcDbEntity
  8
0
100
AcDbLine
 10
558.363328
 20
154.14837
 30
0.0
 11
530.365328
 21
154.14827
 31
0.0
  0
LINE
  5
602F
100
AcDbEntity
  8
0
100
AcDbLine
 10
520.365328
 20
151.14827
 30
0.0
 11
554.865328
 21
151.14827
 31
0.0
  0
LINE
  5
6030
100
AcDbEntity
  8
0
100
AcDbLine
 10
530.365328
 20
154.14827
 30
0.0
 11
520.365328
 21
151.14827
 31
0.0
  0
LINE
  5
6031
100
AcDbEntity
  8
0
100
AcDbLine
 10
561.886328
 20
154.78917
 30
0.0
 11
560.711328
 21
154.42767
 31
0.0
  0
LINE
  5
6032
100
AcDbEntity
  8
0
100
AcDbLine
 10
555.865328
 20
152.14827
 30
0.0
 11
555.865328
 21
154.148361
 31
0.0
  0
LINE
  5
6033
100
AcDbEntity
  8
0
100
AcDbLine
 10
560.711328
 20
154.42767
 30
0.0
 11
558.363328
 21
154.14837
 31
0.0
  0
ARC
  5
6034
100
AcDbEntity
  8
0
100
AcDbCircle
 10
554.865328
 20
152.14827
 30
0.0
 40
1.0
100
AcDbArc
 50
270.0
 51
0.0
  0
ARC
  5
6035
100
AcDbEntity
  8
0
100
AcDbCircle
 10
577.329957
 20
178.66737
 30
0.0
 40
18.75224
100
AcDbArc
 50
327.773363
 51
32.226637
  0
ARC
  5
6036
100
AcDbEntity
  8
0
100
AcDbCircle
 10
544.052359
 20
178.66737
 30
0.0
 40
28.411019
100
AcDbArc
 50
339.391769
 51
20.608231
  0
LINE
  5
6037
100
AcDbEntity
  8
0
100
AcDbLine
 10
593.193328
 20
168.64337
 30
0.0
 11
570.641328
 21
168.64337
 31
0.0
  0
LINE
  5
6038
100
AcDbEntity
  8
0
100
AcDbLine
 10
570.641328
 20
168.64337
 30
0.0
 11
567.760328
 21
160.72817
 31
0.0
  0
LINE
  5
6039
100
AcDbEntity
  8
0
100
AcDbLine
 10
567.760328
 20
160.72817
 30
0.0
 11
567.760328
 21
160.72817
 31
0.0
  0
LINE
  5
603A
100
AcDbEntity
  8
0
100
AcDbLine
 10
567.298328
 20
159.65727
 30
0.0
 11
566.695328
 21
158.61807
 31
0.0
  0
LINE
  5
603B
100
AcDbEntity
  8
0
100
AcDbLine
 10
566.695328
 20
158.61807
 30
0.0
 11
565.953328
 21
157.63747
 31
0.0
  0
LINE
  5
603C
100
AcDbEntity
  8
0
100
AcDbLine
 10
567.760328
 20
160.72817
 30
0.0
 11
567.298328
 21
159.65727
 31
0.0
  0
LINE
  5
603D
100
AcDbEntity
  8
0
100
AcDbLine
 10
565.083328
 20
156.74227
 30
0.0
 11
564.099328
 21
155.95677
 31
0.0
  0
LINE
  5
603E
100
AcDbEntity
  8
0
100
AcDbLine
 10
564.099328
 20
155.95677
 30
0.0
 11
563.025328
 21
155.30117
 31
0.0
  0
LINE
  5
603F
100
AcDbEntity
  8
0
100
AcDbLine
 10
565.953328
 20
157.63747
 30
0.0
 11
565.083328
 21
156.74227
 31
0.0
  0
LINE
  5
6040
100
AcDbEntity
  8
0
100
AcDbLine
 10
570.645328
 20
168.66737
 30
0.0
 11
570.641328
 21
168.64337
 31
0.0
  0
LINE
  5
6041
100
AcDbEntity
  8
0
100
AcDbLine
 10
593.193328
 20
168.66737
 30
0.0
 11
593.193328
 21
168.64337
 31
0.0
  0
LINE
  5
6042
100
AcDbEntity
  8
0
100
AcDbLine
 10
596.365328
 20
174.14827
 30
0.0
 11
593.193328
 21
168.64337
 31
0.0
  0
LINE
  5
6043
100
AcDbEntity
  8
0
100
AcDbLine
 10
570.645328
 20
191.14337
 30
0.0
 11
593.193328
 21
191.14337
 31
0.0
  0
LINE
  5
6044
100
AcDbEntity
  8
0
100
AcDbLine
 10
570.645328
 20
188.66737
 30
0.0
 11
593.193328
 21
188.66737
 31
0.0
  0
LINE
  5
6045
100
AcDbEntity
  8
0
100
AcDbLine
 10
570.645328
 20
191.14337
 30
0.0
 11
570.645328
 21
188.66737
 31
0.0
  0
LINE
  5
6046
100
AcDbEntity
  8
0
100
AcDbLine
 10
593.193328
 20
191.14337
 30
0.0
 11
593.193328
 21
188.66737
 31
0.0
  0
LINE
  5
6047
100
AcDbEntity
  8
0
100
AcDbLine
 10
672.348191
 20
188.67212
 30
0.0
 11
706.989191
 21
168.67212
 31
0.0
  0
LINE
  5
6048
100
AcDbEntity
  8
0
100
AcDbLine
 10
697.419016
 20
151.150946
 30
0.0
 11
719.419016
 21
151.150946
 31
0.0
  0
ARC
  5
6049
100
AcDbEntity
  8
0
100
AcDbCircle
 10
695.4193
 20
154.622583
 30
0.0
 40
0.999716
100
AcDbArc
 50
0.020806
 51
77.068881
  0
LINE
  5
604A
100
AcDbEntity
  8
0
100
AcDbLine
 10
697.125016
 20
151.194946
 30
0.0
 11
697.419016
 21
151.150946
 31
0.0
  0
LINE
  5
604B
100
AcDbEntity
  8
0
100
AcDbLine
 10
696.978016
 20
151.253946
 30
0.0
 11
697.125016
 21
151.194946
 31
0.0
  0
LINE
  5
604C
100
AcDbEntity
  8
0
100
AcDbLine
 10
696.838016
 20
151.336946
 30
0.0
 11
696.978016
 21
151.253946
 31
0.0
  0
LINE
  5
604D
100
AcDbEntity
  8
0
100
AcDbLine
 10
696.712016
 20
151.443946
 30
0.0
 11
696.838016
 21
151.336946
 31
0.0
  0
LINE
  5
604E
100
AcDbEntity
  8
0
100
AcDbLine
 10
696.605016
 20
151.569946
 30
0.0
 11
696.712016
 21
151.443946
 31
0.0
  0
LINE
  5
604F
100
AcDbEntity
  8
0
100
AcDbLine
 10
696.522016
 20
151.709946
 30
0.0
 11
696.605016
 21
151.569946
 31
0.0
  0
LINE
  5
6050
100
AcDbEntity
  8
0
100
AcDbLine
 10
696.463016
 20
151.856946
 30
0.0
 11
696.522016
 21
151.709946
 31
0.0
  0
LINE
  5
6051
100
AcDbEntity
  8
0
100
AcDbLine
 10
696.430016
 20
152.005946
 30
0.0
 11
696.463016
 21
151.856946
 31
0.0
  0
LINE
  5
6052
100
AcDbEntity
  8
0
100
AcDbLine
 10
696.419016
 20
152.150946
 30
0.0
 11
696.430016
 21
152.005946
 31
0.0
  0
LINE
  5
6053
100
AcDbEntity
  8
0
100
AcDbLine
 10
696.419016
 20
152.150946
 30
0.0
 11
696.419016
 21
152.150946
 31
0.0
  0
LINE
  5
6054
100
AcDbEntity
  8
0
100
AcDbLine
 10
696.419016
 20
154.622946
 30
0.0
 11
696.419016
 21
152.150946
 31
0.0
  0
LINE
  5
6055
100
AcDbEntity
  8
0
100
AcDbLine
 10
671.901191
 20
189.40412
 30
0.0
 11
672.049191
 21
189.15912
 31
0.0
  0
LINE
  5
6056
100
AcDbEntity
  8
0
100
AcDbLine
 10
671.756191
 20
189.65112
 30
0.0
 11
671.901191
 21
189.40412
 31
0.0
  0
LINE
  5
6057
100
AcDbEntity
  8
0
100
AcDbLine
 10
671.612191
 20
189.89812
 30
0.0
 11
671.756191
 21
189.65112
 31
0.0
  0
LINE
  5
6058
100
AcDbEntity
  8
0
100
AcDbLine
 10
671.470191
 20
190.14612
 30
0.0
 11
671.612191
 21
189.89812
 31
0.0
  0
LINE
  5
6059
100
AcDbEntity
  8
0
100
AcDbLine
 10
671.330191
 20
190.39512
 30
0.0
 11
671.470191
 21
190.14612
 31
0.0
  0
LINE
  5
605A
100
AcDbEntity
  8
0
100
AcDbLine
 10
671.191191
 20
190.64512
 30
0.0
 11
671.330191
 21
190.39512
 31
0.0
  0
LINE
  5
605B
100
AcDbEntity
  8
0
100
AcDbLine
 10
671.054191
 20
190.89612
 30
0.0
 11
671.191191
 21
190.64512
 31
0.0
  0
LINE
  5
605C
100
AcDbEntity
  8
0
100
AcDbLine
 10
670.918191
 20
191.14812
 30
0.0
 11
671.054191
 21
190.89612
 31
0.0
  0
LINE
  5
605D
100
AcDbEntity
  8
0
100
AcDbLine
 10
670.918191
 20
191.14812
 30
0.0
 11
670.918191
 21
191.14812
 31
0.0
  0
LINE
  5
605E
100
AcDbEntity
  8
0
100
AcDbLine
 10
672.049191
 20
189.15912
 30
0.0
 11
672.348191
 21
188.67212
 31
0.0
  0
LINE
  5
605F
100
AcDbEntity
  8
0
100
AcDbLine
 10
709.848191
 20
168.67212
 30
0.0
 11
744.489191
 21
188.67212
 31
0.0
  0
LINE
  5
6060
100
AcDbEntity
  8
0
100
AcDbLine
 10
721.195016
 20
155.596946
 30
0.0
 11
721.195016
 21
155.596946
 31
0.0
  0
ARC
  5
6061
100
AcDbEntity
  8
0
100
AcDbCircle
 10
721.418743
 20
154.622574
 30
0.0
 40
0.999727
100
AcDbArc
 50
102.93163
 51
179.978684
  0
LINE
  5
6062
100
AcDbEntity
  8
0
100
AcDbLine
 10
720.375016
 20
151.856946
 30
0.0
 11
720.419016
 21
152.150946
 31
0.0
  0
LINE
  5
6063
100
AcDbEntity
  8
0
100
AcDbLine
 10
720.317016
 20
151.709946
 30
0.0
 11
720.375016
 21
151.856946
 31
0.0
  0
LINE
  5
6064
100
AcDbEntity
  8
0
100
AcDbLine
 10
720.233016
 20
151.569946
 30
0.0
 11
720.317016
 21
151.709946
 31
0.0
  0
LINE
  5
6065
100
AcDbEntity
  8
0
100
AcDbLine
 10
720.126016
 20
151.443946
 30
0.0
 11
720.233016
 21
151.569946
 31
0.0
  0
LINE
  5
6066
100
AcDbEntity
  8
0
100
AcDbLine
 10
720.000016
 20
151.336946
 30
0.0
 11
720.126016
 21
151.443946
 31
0.0
  0
LINE
  5
6067
100
AcDbEntity
  8
0
100
AcDbLine
 10
719.861016
 20
151.253946
 30
0.0
 11
720.000016
 21
151.336946
 31
0.0
  0
LINE
  5
6068
100
AcDbEntity
  8
0
100
AcDbLine
 10
719.713016
 20
151.194946
 30
0.0
 11
719.861016
 21
151.253946
 31
0.0
  0
LINE
  5
6069
100
AcDbEntity
  8
0
100
AcDbLine
 10
719.564016
 20
151.161946
 30
0.0
 11
719.713016
 21
151.194946
 31
0.0
  0
LINE
  5
606A
100
AcDbEntity
  8
0
100
AcDbLine
 10
719.419016
 20
151.150946
 30
0.0
 11
719.564016
 21
151.161946
 31
0.0
  0
LINE
  5
606B
100
AcDbEntity
  8
0
100
AcDbLine
 10
719.419016
 20
151.150946
 30
0.0
 11
719.419016
 21
151.150946
 31
0.0
  0
LINE
  5
606C
100
AcDbEntity
  8
0
100
AcDbLine
 10
720.419016
 20
152.150946
 30
0.0
 11
720.419016
 21
154.622946
 31
0.0
  0
LINE
  5
606D
100
AcDbEntity
  8
0
100
AcDbLine
 10
709.562191
 20
168.66312
 30
0.0
 11
709.848191
 21
168.67212
 31
0.0
  0
LINE
  5
606E
100
AcDbEntity
  8
0
100
AcDbLine
 10
709.419191
 20
168.65912
 30
0.0
 11
709.562191
 21
168.66312
 31
0.0
  0
LINE
  5
606F
100
AcDbEntity
  8
0
100
AcDbLine
 10
709.276191
 20
168.65612
 30
0.0
 11
709.419191
 21
168.65912
 31
0.0
  0
LINE
  5
6070
100
AcDbEntity
  8
0
100
AcDbLine
 10
709.133191
 20
168.65412
 30
0.0
 11
709.276191
 21
168.65612
 31
0.0
  0
LINE
  5
6071
100
AcDbEntity
  8
0
100
AcDbLine
 10
708.990191
 20
168.65212
 30
0.0
 11
709.133191
 21
168.65412
 31
0.0
  0
LINE
  5
6072
100
AcDbEntity
  8
0
100
AcDbLine
 10
708.847191
 20
168.65012
 30
0.0
 11
708.990191
 21
168.65212
 31
0.0
  0
LINE
  5
6073
100
AcDbEntity
  8
0
100
AcDbLine
 10
708.704191
 20
168.64912
 30
0.0
 11
708.847191
 21
168.65012
 31
0.0
  0
LINE
  5
6074
100
AcDbEntity
  8
0
100
AcDbLine
 10
708.561191
 20
168.64812
 30
0.0
 11
708.704191
 21
168.64912
 31
0.0
  0
LINE
  5
6075
100
AcDbEntity
  8
0
100
AcDbLine
 10
708.418191
 20
168.64812
 30
0.0
 11
708.561191
 21
168.64812
 31
0.0
  0
LINE
  5
6076
100
AcDbEntity
  8
0
100
AcDbLine
 10
708.418191
 20
168.64812
 30
0.0
 11
708.418191
 21
168.64812
 31
0.0
  0
LINE
  5
6077
100
AcDbEntity
  8
0
100
AcDbLine
 10
708.132191
 20
168.64912
 30
0.0
 11
708.418191
 21
168.64812
 31
0.0
  0
LINE
  5
6078
100
AcDbEntity
  8
0
100
AcDbLine
 10
707.989191
 20
168.65012
 30
0.0
 11
708.132191
 21
168.64912
 31
0.0
  0
LINE
  5
6079
100
AcDbEntity
  8
0
100
AcDbLine
 10
707.846191
 20
168.65212
 30
0.0
 11
707.989191
 21
168.65012
 31
0.0
  0
LINE
  5
607A
100
AcDbEntity
  8
0
100
AcDbLine
 10
707.703191
 20
168.65412
 30
0.0
 11
707.846191
 21
168.65212
 31
0.0
  0
LINE
  5
607B
100
AcDbEntity
  8
0
100
AcDbLine
 10
707.560191
 20
168.65612
 30
0.0
 11
707.703191
 21
168.65412
 31
0.0
  0
LINE
  5
607C
100
AcDbEntity
  8
0
100
AcDbLine
 10
707.418191
 20
168.65912
 30
0.0
 11
707.560191
 21
168.65612
 31
0.0
  0
LINE
  5
607D
100
AcDbEntity
  8
0
100
AcDbLine
 10
707.275191
 20
168.66312
 30
0.0
 11
707.418191
 21
168.65912
 31
0.0
  0
LINE
  5
607E
100
AcDbEntity
  8
0
100
AcDbLine
 10
707.132191
 20
168.66712
 30
0.0
 11
707.275191
 21
168.66312
 31
0.0
  0
LINE
  5
607F
100
AcDbEntity
  8
0
100
AcDbLine
 10
706.989191
 20
168.67212
 30
0.0
 11
707.132191
 21
168.66712
 31
0.0
  0
LINE
  5
6080
100
AcDbEntity
  8
0
100
AcDbLine
 10
706.989191
 20
168.67212
 30
0.0
 11
706.989191
 21
168.67212
 31
0.0
  0
LINE
  5
6081
100
AcDbEntity
  8
0
100
AcDbLine
 10
745.646191
 20
190.64512
 30
0.0
 11
745.918191
 21
191.14812
 31
0.0
  0
LINE
  5
6082
100
AcDbEntity
  8
0
100
AcDbLine
 10
745.507191
 20
190.39512
 30
0.0
 11
745.646191
 21
190.64512
 31
0.0
  0
LINE
  5
6083
100
AcDbEntity
  8
0
100
AcDbLine
 10
745.366191
 20
190.14612
 30
0.0
 11
745.507191
 21
190.39512
 31
0.0
  0
LINE
  5
6084
100
AcDbEntity
  8
0
100
AcDbLine
 10
745.224191
 20
189.89812
 30
0.0
 11
745.366191
 21
190.14612
 31
0.0
  0
LINE
  5
6085
100
AcDbEntity
  8
0
100
AcDbLine
 10
745.080191
 20
189.65112
 30
0.0
 11
745.224191
 21
189.89812
 31
0.0
  0
LINE
  5
6086
100
AcDbEntity
  8
0
100
AcDbLine
 10
744.935191
 20
189.40412
 30
0.0
 11
745.080191
 21
189.65112
 31
0.0
  0
LINE
  5
6087
100
AcDbEntity
  8
0
100
AcDbLine
 10
744.788191
 20
189.15912
 30
0.0
 11
744.935191
 21
189.40412
 31
0.0
  0
LINE
  5
6088
100
AcDbEntity
  8
0
100
AcDbLine
 10
744.639191
 20
188.91512
 30
0.0
 11
744.788191
 21
189.15912
 31
0.0
  0
LINE
  5
6089
100
AcDbEntity
  8
0
100
AcDbLine
 10
744.489191
 20
188.67212
 30
0.0
 11
744.489191
 21
188.67212
 31
0.0
  0
LINE
  5
608A
100
AcDbEntity
  8
0
100
AcDbLine
 10
744.489191
 20
188.67212
 30
0.0
 11
744.639191
 21
188.91512
 31
0.0
  0
POLYLINE
  5
608B
100
AcDbEntity
  8
0
100
AcDb2dPolyline
 66
     1
 10
0.0
 20
0.0
 30
0.0
  0
VERTEX
  5
6A86
100
AcDbEntity
  8
0
100
AcDbVertex
100
AcDb2dVertex
 10
1098.620587
 20
823.04511
 30
0.0
  0
VERTEX
  5
6A87
100
AcDbEntity
  8
0
100
AcDbVertex
100
AcDb2dVertex
 10
1070.907774
 20
839.04511
 30
0.0
  0
SEQEND
  5
6A88
100
AcDbEntity
  8
0
  0
LINE
  5
608C
100
AcDbEntity
  8
0
100
AcDbLine
 10
900.628979
 20
986.61977
 30
0.0
 11
915.628979
 21
986.61977
 31
0.0
  0
LINE
  5
608D
100
AcDbEntity
  8
0
100
AcDbLine
 10
900.628979
 20
884.61977
 30
0.0
 11
915.628979
 21
884.61977
 31
0.0
  0
LINE
  5
608F
100
AcDbEntity
  8
0
100
AcDbLine
 10
900.628979
 20
856.064348
 30
0.0
 11
915.628979
 21
856.064348
 31
0.0
  0
POLYLINE
  5
6090
100
AcDbEntity
  8
0
100
AcDb2dPolyline
 66
     1
 10
0.0
 20
0.0
 30
0.0
  0
VERTEX
  5
6A89
100
AcDbEntity
  8
0
100
AcDbVertex
100
AcDb2dVertex
 10
767.873772
 20
823.04511
 30
0.0
  0
VERTEX
  5
6A8A
100
AcDbEntity
  8
0
100
AcDbVertex
100
AcDb2dVertex
 10
740.160959
 20
839.04511
 30
0.0
  0
SEQEND
  5
6A8B
100
AcDbEntity
  8
0
  0
ARC
  5
6091
100
AcDbEntity
  8
0
100
AcDbCircle
 10
739.017366
 20
805.064348
 30
0.0
 40
34.0
100
AcDbArc
 50
88.072487
 51
91.927513
  0
ARC
  5
6092
100
AcDbEntity
  8
0
100
AcDbCircle
 10
739.017366
 20
805.064348
 30
0.0
 40
34.0
100
AcDbArc
 50
28.072487
 51
31.927513
  0
LINE
  5
6093
100
AcDbEntity
  8
0
100
AcDbLine
 10
892.033183
 20
853.840805
 30
0.0
 11
888.073843
 21
839.064348
 31
0.0
  0
LINE
  5
6094
100
AcDbEntity
  8
0
100
AcDbLine
 10
871.227056
 20
839.064348
 30
0.0
 11
888.073843
 21
839.064348
 31
0.0
  0
LINE
  5
6095
100
AcDbEntity
  8
0
100
AcDbLine
 10
871.227056
 20
823.04511
 30
0.0
 11
889.169426
 21
823.04511
 31
0.0
  0
LINE
  5
6096
100
AcDbEntity
  8
0
100
AcDbLine
 10
871.227056
 20
821.064348
 30
0.0
 11
889.169426
 21
821.064348
 31
0.0
  0
ARC
  5
6097
100
AcDbEntity
  8
0
100
AcDbCircle
 10
882.274442
 20
831.054729
 30
0.0
 40
13.645466
100
AcDbArc
 50
144.056991
 51
215.943009
  0
LINE
  5
6098
100
AcDbEntity
  8
0
100
AcDbLine
 10
871.227056
 20
823.04511
 30
0.0
 11
871.227056
 21
821.064348
 31
0.0
  0
LINE
  5
6099
100
AcDbEntity
  8
0
100
AcDbLine
 10
868.628979
 20
834.564348
 30
0.0
 11
871.227056
 21
839.064348
 31
0.0
  0
SPLINE
  5
609A
100
AcDbEntity
  8
0
100
AcDbSpline
210
0.0
220
0.0
230
-1.0
 70
     8
 71
     3
 72
    10
 73
     6
 74
     4
 42
0.0000001
 43
0.0000001
 44
0.0000000001
 40
0.0
 40
0.0
 40
0.0
 40
0.0
 40
4.016194066316268
 40
8.035431952782994
 40
16.16682723913526
 40
16.16682723913526
 40
16.16682723913526
 40
16.16682723913526
 10
888.0738431937565
 20
839.0643482902172
 30
0.0
 10
887.9327698174165
 20
837.7333548637812
 30
0.0
 10
887.650516147098
 20
835.0703592686663
 30
0.0
 10
887.5894032195761
 20
829.6560292696804
 30
0.0
 10
888.5359691241658
 20
825.6955353655877
 30
0.0
 10
889.1694259510924
 20
823.0451104037504
 30
0.0
 11
888.0738431937565
 21
839.0643482902172
 31
0.0
 11
887.7135450140277
 21
835.0643482902173
 31
0.0
 11
887.7135450140277
 21
831.0451104037506
 31
0.0
 11
889.1694259510924
 21
823.0451104037504
 31
0.0
  0
LINE
  5
609B
100
AcDbEntity
  8
0
100
AcDbLine
 10
889.169426
 20
823.04511
 30
0.0
 11
889.169426
 21
821.064348
 31
0.0
  0
LINE
  5
609C
100
AcDbEntity
  8
0
100
AcDbLine
 10
900.628979
 20
856.064348
 30
0.0
 11
900.628979
 21
847.325816
 31
0.0
  0
LINE
  5
609D
100
AcDbEntity
  8
0
100
AcDbLine
 10
900.628979
 20
856.064348
 30
0.0
 11
900.628979
 21
847.325816
 31
0.0
  0
LINE
  5
609E
100
AcDbEntity
  8
0
100
AcDbLine
 10
900.628979
 20
856.064348
 30
0.0
 11
900.628979
 21
845.940348
 31
0.0
  0
ARC
  5
609F
100
AcDbEntity
  8
0
100
AcDbCircle
 10
894.93096
 20
853.064348
 30
0.0
 40
3.0
100
AcDbArc
 50
90.0
 51
165.0
  0
LINE
  5
60A0
100
AcDbEntity
  8
0
100
AcDbLine
 10
900.628979
 20
856.064348
 30
0.0
 11
894.93096
 21
856.064348
 31
0.0
  0
LINE
  5
60A1
100
AcDbEntity
  8
0
100
AcDbLine
 10
900.628979
 20
976.49577
 30
0.0
 11
900.628979
 21
935.61977
 31
0.0
  0
LINE
  5
60A2
100
AcDbEntity
  8
0
100
AcDbLine
 10
892.628979
 20
985.543538
 30
0.0
 11
892.628979
 21
885.696002
 31
0.0
  0
ARC
  5
60A3
100
AcDbEntity
  8
0
100
AcDbCircle
 10
954.380944
 20
950.61977
 30
0.0
 40
66.667399
100
AcDbArc
 50
168.003976
 51
191.996024
  0
ARC
  5
60A4
100
AcDbEntity
  8
0
100
AcDbCircle
 10
906.866407
 20
950.61977
 30
0.0
 40
38.238244
100
AcDbArc
 50
158.75416
 51
201.24584
  0
LINE
  5
60A5
100
AcDbEntity
  8
0
100
AcDbLine
 10
868.628979
 20
965.11977
 30
0.0
 11
868.628979
 21
935.61977
 31
0.0
  0
LINE
  5
60A6
100
AcDbEntity
  8
0
100
AcDbLine
 10
900.628979
 20
894.74377
 30
0.0
 11
900.628979
 21
935.61977
 31
0.0
  0
ARC
  5
60A7
100
AcDbEntity
  8
0
100
AcDbCircle
 10
954.380944
 20
920.61977
 30
0.0
 40
66.667399
100
AcDbArc
 50
168.003976
 51
191.996024
  0
LINE
  5
60A8
100
AcDbEntity
  8
0
100
AcDbLine
 10
868.628979
 20
906.11977
 30
0.0
 11
868.628979
 21
935.61977
 31
0.0
  0
ARC
  5
60A9
100
AcDbEntity
  8
0
100
AcDbCircle
 10
906.866407
 20
920.61977
 30
0.0
 40
38.238244
100
AcDbArc
 50
158.75416
 51
201.24584
  0
LINE
  5
60AA
100
AcDbEntity
  8
0
100
AcDbLine
 10
871.227056
 20
906.763364
 30
0.0
 11
889.169426
 21
906.763364
 31
0.0
  0
LINE
  5
60AB
100
AcDbEntity
  8
0
100
AcDbLine
 10
868.917655
 20
905.61977
 30
0.0
 11
889.169426
 21
905.61977
 31
0.0
  0
LINE
  5
60AC
100
AcDbEntity
  8
0
100
AcDbLine
 10
871.227056
 20
905.61977
 30
0.0
 11
871.227056
 21
906.763364
 31
0.0
  0
LINE
  5
60AD
100
AcDbEntity
  8
0
100
AcDbLine
 10
868.628979
 20
906.11977
 30
0.0
 11
868.917655
 21
905.61977
 31
0.0
  0
LINE
  5
60AE
100
AcDbEntity
  8
0
100
AcDbLine
 10
900.628979
 20
884.61977
 30
0.0
 11
900.628979
 21
894.74377
 31
0.0
  0
LINE
  5
60AF
100
AcDbEntity
  8
0
100
AcDbLine
 10
900.628979
 20
884.61977
 30
0.0
 11
900.628979
 21
893.358302
 31
0.0
  0
LINE
  5
60B0
100
AcDbEntity
  8
0
100
AcDbLine
 10
900.628979
 20
884.61977
 30
0.0
 11
900.628979
 21
893.358302
 31
0.0
  0
LINE
  5
60B1
100
AcDbEntity
  8
0
100
AcDbLine
 10
892.033183
 20
886.843313
 30
0.0
 11
887.002046
 21
905.61977
 31
0.0
  0
LINE
  5
60B2
100
AcDbEntity
  8
0
100
AcDbLine
 10
900.628979
 20
884.61977
 30
0.0
 11
894.93096
 21
884.61977
 31
0.0
  0
ARC
  5
60B3
100
AcDbEntity
  8
0
100
AcDbCircle
 10
894.93096
 20
887.61977
 30
0.0
 40
3.0
100
AcDbArc
 50
195.0
 51
270.0
  0
LINE
  5
60B4
100
AcDbEntity
  8
0
100
AcDbLine
 10
889.169426
 20
905.61977
 30
0.0
 11
889.169426
 21
906.763364
 31
0.0
  0
LINE
  5
60B5
100
AcDbEntity
  8
0
100
AcDbLine
 10
871.227056
 20
934.476177
 30
0.0
 11
889.169426
 21
934.476177
 31
0.0
  0
LINE
  5
60B6
100
AcDbEntity
  8
0
100
AcDbLine
 10
871.227056
 20
936.763364
 30
0.0
 11
889.169426
 21
936.763364
 31
0.0
  0
LINE
  5
60B7
100
AcDbEntity
  8
0
100
AcDbLine
 10
871.227056
 20
934.476177
 30
0.0
 11
871.227056
 21
936.763364
 31
0.0
  0
LINE
  5
60B8
100
AcDbEntity
  8
0
100
AcDbLine
 10
889.169426
 20
934.476177
 30
0.0
 11
889.169426
 21
936.763364
 31
0.0
  0
LINE
  5
60B9
100
AcDbEntity
  8
0
100
AcDbLine
 10
892.033183
 20
984.396227
 30
0.0
 11
887.002046
 21
965.61977
 31
0.0
  0
LINE
  5
60BA
100
AcDbEntity
  8
0
100
AcDbLine
 10
871.227056
 20
964.476177
 30
0.0
 11
889.169426
 21
964.476177
 31
0.0
  0
LINE
  5
60BB
100
AcDbEntity
  8
0
100
AcDbLine
 10
868.917655
 20
965.61977
 30
0.0
 11
889.169426
 21
965.61977
 31
0.0
  0
LINE
  5
60BC
100
AcDbEntity
  8
0
100
AcDbLine
 10
871.227056
 20
964.476177
 30
0.0
 11
871.227056
 21
965.61977
 31
0.0
  0
LINE
  5
60BD
100
AcDbEntity
  8
0
100
AcDbLine
 10
868.628979
 20
965.11977
 30
0.0
 11
868.917655
 21
965.61977
 31
0.0
  0
LINE
  5
60BE
100
AcDbEntity
  8
0
100
AcDbLine
 10
889.169426
 20
964.476177
 30
0.0
 11
889.169426
 21
965.61977
 31
0.0
  0
LINE
  5
60BF
100
AcDbEntity
  8
0
100
AcDbLine
 10
900.628979
 20
986.61977
 30
0.0
 11
894.93096
 21
986.61977
 31
0.0
  0
ARC
  5
60C0
100
AcDbEntity
  8
0
100
AcDbCircle
 10
894.93096
 20
983.61977
 30
0.0
 40
3.0
100
AcDbArc
 50
90.0
 51
165.0
  0
LINE
  5
60C1
100
AcDbEntity
  8
0
100
AcDbLine
 10
900.628979
 20
986.61977
 30
0.0
 11
900.628979
 21
977.881238
 31
0.0
  0
LINE
  5
60C2
100
AcDbEntity
  8
0
100
AcDbLine
 10
900.628979
 20
986.61977
 30
0.0
 11
900.628979
 21
977.881238
 31
0.0
  0
LINE
  5
60C3
100
AcDbEntity
  8
0
100
AcDbLine
 10
900.628979
 20
986.61977
 30
0.0
 11
900.628979
 21
976.49577
 31
0.0
  0
LINE
  5
60C4
100
AcDbEntity
  8
0
100
AcDbLine
 10
925.628979
 20
854.064348
 30
0.0
 11
957.626904
 21
854.064348
 31
0.0
  0
LINE
  5
60C5
100
AcDbEntity
  8
0
100
AcDbLine
 10
915.628979
 20
856.064348
 30
0.0
 11
925.628979
 21
854.064348
 31
0.0
  0
LINE
  5
60C6
100
AcDbEntity
  8
0
100
AcDbLine
 10
967.02383
 20
847.48455
 30
0.0
 11
970.088533
 21
839.064348
 31
0.0
  0
LINE
  5
60C7
100
AcDbEntity
  8
0
100
AcDbLine
 10
970.088533
 20
839.064348
 30
0.0
 11
988.030903
 21
839.064348
 31
0.0
  0
LINE
  5
60C8
100
AcDbEntity
  8
0
100
AcDbLine
 10
988.030903
 20
821.064348
 30
0.0
 11
970.088533
 21
821.064348
 31
0.0
  0
LINE
  5
60C9
100
AcDbEntity
  8
0
100
AcDbLine
 10
988.030903
 20
823.04511
 30
0.0
 11
970.088533
 21
823.04511
 31
0.0
  0
SPLINE
  5
60CA
100
AcDbEntity
  8
0
100
AcDbSpline
210
0.0
220
0.0
230
1.0
 70
     8
 71
     3
 72
    10
 73
     6
 74
     4
 42
0.0000001
 43
0.0000001
 44
0.0000000001
 40
0.0
 40
0.0
 40
0.0
 40
0.0
 40
4.256711089903224
 40
8.275948976369949
 40
16.40734426272222
 40
16.40734426272222
 40
16.40734426272222
 40
16.40734426272222
 10
970.0885329790791
 20
839.0643482902172
 30
0.0
 10
970.6925955328658
 20
837.7549582281828
 30
0.0
 10
971.8670212263386
 20
835.2092262969588
 30
0.0
 10
971.5252331972763
 20
829.623942764617
 30
0.0
 10
970.6645294779335
 20
825.6826713635204
 30
0.0
 10
970.0885329790786
 20
823.0451104037504
 30
0.0
 11
970.0885329790791
 21
839.0643482902172
 31
0.0
 11
971.5444139161432
 21
835.0643482902173
 31
0.0
 11
971.5444139161432
 21
831.0451104037506
 31
0.0
 11
970.0885329790786
 21
823.0451104037504
 31
0.0
  0
LINE
  5
60CB
100
AcDbEntity
  8
0
100
AcDbLine
 10
970.088533
 20
823.04511
 30
0.0
 11
970.088533
 21
821.064348
 31
0.0
  0
ARC
  5
60CC
100
AcDbEntity
  8
0
100
AcDbCircle
 10
976.983517
 20
831.054729
 30
0.0
 40
13.645466
100
AcDbArc
 50
324.056991
 51
35.943009
  0
LINE
  5
60CD
100
AcDbEntity
  8
0
100
AcDbLine
 10
988.030903
 20
823.04511
 30
0.0
 11
988.030903
 21
821.064348
 31
0.0
  0
LINE
  5
60CE
100
AcDbEntity
  8
0
100
AcDbLine
 10
990.628979
 20
834.564348
 30
0.0
 11
988.030903
 21
839.064348
 31
0.0
  0
ARC
  5
60CF
100
AcDbEntity
  8
0
100
AcDbCircle
 10
957.626904
 20
844.064348
 30
0.0
 40
10.0
100
AcDbArc
 50
20.0
 51
90.0
  0
POLYLINE
  5
60D0
100
AcDbEntity
  8
0
100
AcDb2dPolyline
 66
     1
 10
0.0
 20
0.0
 30
0.0
  0
VERTEX
  5
6A8C
100
AcDbEntity
  8
0
100
AcDbVertex
100
AcDb2dVertex
 10
1068.620587
 20
839.04511
 30
0.0
  0
VERTEX
  5
6A8D
100
AcDbEntity
  8
0
100
AcDbVertex
100
AcDb2dVertex
 10
1040.907774
 20
823.04511
 30
0.0
  0
SEQEND
  5
6A8E
100
AcDbEntity
  8
0
  0
ARC
  5
60D1
100
AcDbEntity
  8
0
100
AcDbCircle
 10
1069.764181
 20
805.064348
 30
0.0
 40
34.0
100
AcDbArc
 50
148.072487
 51
151.927513
  0
ARC
  5
60D2
100
AcDbEntity
  8
0
100
AcDbCircle
 10
1069.764181
 20
805.064348
 30
0.0
 40
34.0
100
AcDbArc
 50
88.072487
 51
91.927513
  0
LINE
  5
60D3
100
AcDbEntity
  8
0
100
AcDbLine
 10
990.628979
 20
965.11977
 30
0.0
 11
990.628979
 21
935.61977
 31
0.0
  0
ARC
  5
60D4
100
AcDbEntity
  8
0
100
AcDbCircle
 10
952.391552
 20
950.61977
 30
0.0
 40
38.238244
100
AcDbArc
 50
338.75416
 51
21.24584
  0
ARC
  5
60D5
100
AcDbEntity
  8
0
100
AcDbCircle
 10
904.877015
 20
950.61977
 30
0.0
 40
66.667399
100
AcDbArc
 50
348.003976
 51
11.996024
  0
LINE
  5
60D6
100
AcDbEntity
  8
0
100
AcDbLine
 10
964.628979
 20
889.34738
 30
0.0
 11
964.628979
 21
981.759164
 31
0.0
  0
LINE
  5
60D7
100
AcDbEntity
  8
0
100
AcDbLine
 10
925.628979
 20
984.61977
 30
0.0
 11
925.628979
 21
886.61977
 31
0.0
  0
LINE
  5
60D8
100
AcDbEntity
  8
0
100
AcDbLine
 10
915.628979
 20
986.61977
 30
0.0
 11
915.628979
 21
884.61977
 31
0.0
  0
LINE
  5
60D9
100
AcDbEntity
  8
0
100
AcDbLine
 10
925.628979
 20
886.61977
 30
0.0
 11
957.626904
 21
886.61977
 31
0.0
  0
LINE
  5
60DB
100
AcDbEntity
  8
0
100
AcDbLine
 10
915.628979
 20
884.61977
 30
0.0
 11
925.628979
 21
886.61977
 31
0.0
  0
ARC
  5
60DC
100
AcDbEntity
  8
0
100
AcDbCircle
 10
904.877015
 20
920.61977
 30
0.0
 40
66.667399
100
AcDbArc
 50
348.003976
 51
11.996024
  0
LINE
  5
60DD
100
AcDbEntity
  8
0
100
AcDbLine
 10
990.628979
 20
906.11977
 30
0.0
 11
990.628979
 21
935.61977
 31
0.0
  0
ARC
  5
60DE
100
AcDbEntity
  8
0
100
AcDbCircle
 10
952.391552
 20
920.61977
 30
0.0
 40
38.238244
100
AcDbArc
 50
338.75416
 51
21.24584
  0
LINE
  5
60DF
100
AcDbEntity
  8
0
100
AcDbLine
 10
988.030903
 20
906.763364
 30
0.0
 11
970.088533
 21
906.763364
 31
0.0
  0
LINE
  5
60E0
100
AcDbEntity
  8
0
100
AcDbLine
 10
990.340304
 20
905.61977
 30
0.0
 11
970.088533
 21
905.61977
 31
0.0
  0
ARC
  5
60E1
100
AcDbEntity
  8
0
100
AcDbCircle
 10
957.626904
 20
896.61977
 30
0.0
 40
10.0
100
AcDbArc
 50
270.0
 51
340.0
  0
LINE
  5
60E2
100
AcDbEntity
  8
0
100
AcDbLine
 10
967.02383
 20
893.199569
 30
0.0
 11
971.544414
 21
905.61977
 31
0.0
  0
LINE
  5
60E3
100
AcDbEntity
  8
0
100
AcDbLine
 10
970.088533
 20
905.61977
 30
0.0
 11
970.088533
 21
906.763364
 31
0.0
  0
LINE
  5
60E4
100
AcDbEntity
  8
0
100
AcDbLine
 10
988.030903
 20
905.61977
 30
0.0
 11
988.030903
 21
906.763364
 31
0.0
  0
LINE
  5
60E5
100
AcDbEntity
  8
0
100
AcDbLine
 10
990.628979
 20
906.11977
 30
0.0
 11
990.340304
 21
905.61977
 31
0.0
  0
LINE
  5
60E6
100
AcDbEntity
  8
0
100
AcDbLine
 10
988.030903
 20
936.763364
 30
0.0
 11
970.088533
 21
936.763364
 31
0.0
  0
LINE
  5
60E7
100
AcDbEntity
  8
0
100
AcDbLine
 10
988.030903
 20
934.476177
 30
0.0
 11
970.088533
 21
934.476177
 31
0.0
  0
LINE
  5
60E8
100
AcDbEntity
  8
0
100
AcDbLine
 10
970.088533
 20
934.476177
 30
0.0
 11
970.088533
 21
936.763364
 31
0.0
  0
LINE
  5
60E9
100
AcDbEntity
  8
0
100
AcDbLine
 10
988.030903
 20
934.476177
 30
0.0
 11
988.030903
 21
936.763364
 31
0.0
  0
LINE
  5
60EA
100
AcDbEntity
  8
0
100
AcDbLine
 10
925.628979
 20
984.61977
 30
0.0
 11
957.626904
 21
984.61977
 31
0.0
  0
LINE
  5
60EB
100
AcDbEntity
  8
0
100
AcDbLine
 10
915.628979
 20
986.61977
 30
0.0
 11
925.628979
 21
984.61977
 31
0.0
  0
LINE
  5
60EC
100
AcDbEntity
  8
0
100
AcDbLine
 10
967.02383
 20
978.039972
 30
0.0
 11
971.544414
 21
965.61977
 31
0.0
  0
LINE
  5
60ED
100
AcDbEntity
  8
0
100
AcDbLine
 10
988.030903
 20
964.476177
 30
0.0
 11
970.088533
 21
964.476177
 31
0.0
  0
LINE
  5
60EE
100
AcDbEntity
  8
0
100
AcDbLine
 10
990.340304
 20
965.61977
 30
0.0
 11
970.088533
 21
965.61977
 31
0.0
  0
LINE
  5
60EF
100
AcDbEntity
  8
0
100
AcDbLine
 10
970.088533
 20
964.476177
 30
0.0
 11
970.088533
 21
965.61977
 31
0.0
  0
LINE
  5
60F0
100
AcDbEntity
  8
0
100
AcDbLine
 10
988.030903
 20
964.476177
 30
0.0
 11
988.030903
 21
965.61977
 31
0.0
  0
LINE
  5
60F1
100
AcDbEntity
  8
0
100
AcDbLine
 10
990.628979
 20
965.11977
 30
0.0
 11
990.340304
 21
965.61977
 31
0.0
  0
ARC
  5
60F2
100
AcDbEntity
  8
0
100
AcDbCircle
 10
957.626904
 20
974.61977
 30
0.0
 40
10.0
100
AcDbArc
 50
20.0
 51
90.0
  0
LINE
  5
60F3
100
AcDbEntity
  8
0
100
AcDbLine
 10
933.628979
 20
1125.903391
 30
0.0
 11
901.631055
 21
1125.903391
 31
0.0
  0
LINE
  5
60F4
100
AcDbEntity
  8
0
100
AcDbLine
 10
933.628979
 20
1027.903391
 30
0.0
 11
901.631055
 21
1027.903391
 31
0.0
  0
LINE
  5
60F5
100
AcDbEntity
  8
0
100
AcDbLine
 10
868.628979
 20
1047.403391
 30
0.0
 11
868.628979
 21
1076.903391
 31
0.0
  0
ARC
  5
60F6
100
AcDbEntity
  8
0
100
AcDbCircle
 10
919.195241
 20
1076.903391
 30
0.0
 40
50.566261
100
AcDbArc
 50
161.553651
 51
198.446349
  0
ARC
  5
60F7
100
AcDbEntity
  8
0
100
AcDbCircle
 10
976.360763
 20
1076.903391
 30
0.0
 40
88.647218
100
AcDbArc
 50
169.601656
 51
190.398344
  0
LINE
  5
60F8
100
AcDbEntity
  8
0
100
AcDbLine
 10
894.628979
 20
1030.631001
 30
0.0
 11
894.628979
 21
1123.042785
 31
0.0
  0
ARC
  5
60F9
100
AcDbEntity
  8
0
100
AcDbCircle
 10
901.631055
 20
1037.903391
 30
0.0
 40
10.0
100
AcDbArc
 50
200.0
 51
270.0
  0
LINE
  5
60FA
100
AcDbEntity
  8
0
100
AcDbLine
 10
871.227056
 20
1058.922629
 30
0.0
 11
889.169426
 21
1058.922629
 31
0.0
  0
LINE
  5
60FB
100
AcDbEntity
  8
0
100
AcDbLine
 10
871.227056
 20
1060.903391
 30
0.0
 11
889.169426
 21
1060.903391
 31
0.0
  0
LINE
  5
60FC
100
AcDbEntity
  8
0
100
AcDbLine
 10
889.169426
 20
1042.903391
 30
0.0
 11
871.227056
 21
1042.903391
 31
0.0
  0
ARC
  5
60FD
100
AcDbEntity
  8
0
100
AcDbCircle
 10
882.274442
 20
1050.91301
 30
0.0
 40
13.645466
100
AcDbArc
 50
144.056991
 51
215.943009
  0
LINE
  5
60FE
100
AcDbEntity
  8
0
100
AcDbLine
 10
868.628979
 20
1047.403391
 30
0.0
 11
871.227056
 21
1042.903391
 31
0.0
  0
LINE
  5
60FF
100
AcDbEntity
  8
0
100
AcDbLine
 10
871.227056
 20
1060.903391
 30
0.0
 11
871.227056
 21
1058.922629
 31
0.0
  0
SPLINE
  5
6100
100
AcDbEntity
  8
0
100
AcDbSpline
210
0.0
220
0.0
230
-1.0
 70
     8
 71
     3
 72
    10
 73
     6
 74
     4
 42
0.0000001
 43
0.0000001
 44
0.0000000001
 40
0.0
 40
0.0
 40
0.0
 40
0.0
 40
4.256711089902447
 40
8.2759489763694
 40
16.4073442627212
 40
16.4073442627212
 40
16.4073442627212
 40
16.4073442627212
 10
889.169425951092
 20
1042.903391014547
 30
0.0
 10
888.5653633973054
 20
1044.212781076581
 30
0.0
 10
887.3909377038319
 20
1046.758513007805
 30
0.0
 10
887.7327257328948
 20
1052.343796540146
 30
0.0
 10
888.5934294522375
 20
1056.285067941243
 30
0.0
 10
889.169425951092
 20
1058.922628901013
 30
0.0
 11
889.169425951092
 21
1042.903391014547
 31
0.0
 11
887.7135450140276
 21
1046.903391014546
 31
0.0
 11
887.7135450140276
 21
1050.922628901013
 31
0.0
 11
889.169425951092
 21
1058.922628901013
 31
0.0
  0
LINE
  5
6101
100
AcDbEntity
  8
0
100
AcDbLine
 10
892.234129
 20
1034.48319
 30
0.0
 11
889.169426
 21
1042.903391
 31
0.0
  0
LINE
  5
6102
100
AcDbEntity
  8
0
100
AcDbLine
 10
889.169426
 20
1060.903391
 30
0.0
 11
889.169426
 21
1058.922629
 31
0.0
  0
SPLINE
  5
6103
100
AcDbEntity
  8
0
100
AcDbSpline
210
0.0
220
0.0
230
-1.0
 70
     8
 71
     3
 72
    10
 73
     6
 74
     4
 42
0.0000001
 43
0.0000001
 44
0.0000000001
 40
0.0
 40
0.0
 40
0.0
 40
0.0
 40
4.256711089903224
 40
8.275948976369949
 40
16.40734426272222
 40
16.40734426272222
 40
16.40734426272222
 40
16.40734426272222
 10
889.169425951092
 20
1110.903391014546
 30
0.0
 10
888.5653633973054
 20
1109.594000952512
 30
0.0
 10
887.3909377038321
 20
1107.048269021287
 30
0.0
 10
887.732725732895
 20
1101.462985488946
 30
0.0
 10
888.5934294522378
 20
1097.521714087849
 30
0.0
 10
889.1694259510924
 20
1094.884153128079
 30
0.0
 11
889.169425951092
 21
1110.903391014546
 31
0.0
 11
887.7135450140277
 21
1106.903391014546
 31
0.0
 11
887.7135450140277
 21
1102.884153128079
 31
0.0
 11
889.1694259510924
 21
1094.884153128079
 31
0.0
  0
LINE
  5
6104
100
AcDbEntity
  8
0
100
AcDbLine
 10
868.628979
 20
1106.403391
 30
0.0
 11
868.628979
 21
1076.903391
 31
0.0
  0
ARC
  5
6105
100
AcDbEntity
  8
0
100
AcDbCircle
 10
882.274442
 20
1102.893772
 30
0.0
 40
13.645466
100
AcDbArc
 50
144.056991
 51
215.943009
  0
LINE
  5
6106
100
AcDbEntity
  8
0
100
AcDbLine
 10
871.227056
 20
1092.903391
 30
0.0
 11
889.169426
 21
1092.903391
 31
0.0
  0
LINE
  5
6107
100
AcDbEntity
  8
0
100
AcDbLine
 10
871.227056
 20
1094.884153
 30
0.0
 11
889.169426
 21
1094.884153
 31
0.0
  0
LINE
  5
6108
100
AcDbEntity
  8
0
100
AcDbLine
 10
871.227056
 20
1094.884153
 30
0.0
 11
871.227056
 21
1092.903391
 31
0.0
  0
LINE
  5
6109
100
AcDbEntity
  8
0
100
AcDbLine
 10
889.169426
 20
1094.884153
 30
0.0
 11
889.169426
 21
1092.903391
 31
0.0
  0
LINE
  5
610A
100
AcDbEntity
  8
0
100
AcDbLine
 10
889.169426
 20
1110.903391
 30
0.0
 11
871.227056
 21
1110.903391
 31
0.0
  0
LINE
  5
610B
100
AcDbEntity
  8
0
100
AcDbLine
 10
868.628979
 20
1106.403391
 30
0.0
 11
871.227056
 21
1110.903391
 31
0.0
  0
LINE
  5
610C
100
AcDbEntity
  8
0
100
AcDbLine
 10
892.234129
 20
1119.323592
 30
0.0
 11
889.169426
 21
1110.903391
 31
0.0
  0
ARC
  5
610D
100
AcDbEntity
  8
0
100
AcDbCircle
 10
901.631055
 20
1115.903391
 30
0.0
 40
10.0
100
AcDbArc
 50
90.0
 51
160.0
  0
LINE
  5
610E
100
AcDbEntity
  8
0
100
AcDbLine
 10
990.628979
 20
1047.403391
 30
0.0
 11
990.628979
 21
1076.903391
 31
0.0
  0
LINE
  5
610F
100
AcDbEntity
  8
0
100
AcDbLine
 10
933.628979
 20
1125.903391
 30
0.0
 11
933.628979
 21
1027.903391
 31
0.0
  0
LINE
  5
6110
100
AcDbEntity
  8
0
100
AcDbLine
 10
943.628979
 20
1127.903391
 30
0.0
 11
943.628979
 21
1024.903391
 31
0.0
  0
LINE
  5
6111
100
AcDbEntity
  8
0
100
AcDbLine
 10
958.628979
 20
1025.903391
 30
0.0
 11
958.628979
 21
1127.903391
 31
0.0
  0
ARC
  5
6112
100
AcDbEntity
  8
0
100
AcDbCircle
 10
940.062718
 20
1076.903391
 30
0.0
 40
50.566261
100
AcDbArc
 50
341.553651
 51
18.446349
  0
LINE
  5
6113
100
AcDbEntity
  8
0
100
AcDbLine
 10
966.628979
 20
1126.827159
 30
0.0
 11
966.628979
 21
1026.979623
 31
0.0
  0
ARC
  5
6114
100
AcDbEntity
  8
0
100
AcDbCircle
 10
882.897196
 20
1076.903391
 30
0.0
 40
88.647218
100
AcDbArc
 50
349.601656
 51
10.398344
  0
LINE
  5
6115
100
AcDbEntity
  8
0
100
AcDbLine
 10
958.628979
 20
1025.903391
 30
0.0
 11
943.628979
 21
1025.903391
 31
0.0
  0
LINE
  5
6116
100
AcDbEntity
  8
0
100
AcDbLine
 10
943.628979
 20
1024.903391
 30
0.0
 11
908.128979
 21
1024.903391
 31
0.0
  0
LINE
  5
6117
100
AcDbEntity
  8
0
100
AcDbLine
 10
908.128979
 20
1027.903391
 30
0.0
 11
908.128979
 21
1024.903391
 31
0.0
  0
LINE
  5
6118
100
AcDbEntity
  8
0
100
AcDbLine
 10
943.628979
 20
1025.903391
 30
0.0
 11
933.628979
 21
1027.903391
 31
0.0
  0
LINE
  5
6119
100
AcDbEntity
  8
0
100
AcDbLine
 10
967.224776
 20
1028.126934
 30
0.0
 11
971.184116
 21
1042.903391
 31
0.0
  0
ARC
  5
611A
100
AcDbEntity
  8
0
100
AcDbCircle
 10
964.326999
 20
1028.903391
 30
0.0
 40
3.0
100
AcDbArc
 50
270.0
 51
345.0
  0
LINE
  5
611B
100
AcDbEntity
  8
0
100
AcDbLine
 10
958.628979
 20
1025.903391
 30
0.0
 11
964.326999
 21
1025.903391
 31
0.0
  0
LINE
  5
611C
100
AcDbEntity
  8
0
100
AcDbLine
 10
988.030903
 20
1042.903391
 30
0.0
 11
971.184116
 21
1042.903391
 31
0.0
  0
LINE
  5
611D
100
AcDbEntity
  8
0
100
AcDbLine
 10
988.030903
 20
1060.903391
 30
0.0
 11
970.088533
 21
1060.903391
 31
0.0
  0
LINE
  5
611E
100
AcDbEntity
  8
0
100
AcDbLine
 10
988.030903
 20
1058.922629
 30
0.0
 11
970.088533
 21
1058.922629
 31
0.0
  0
SPLINE
  5
611F
100
AcDbEntity
  8
0
100
AcDbSpline
210
0.0
220
0.0
230
1.0
 70
     8
 71
     3
 72
    10
 73
     6
 74
     4
 42
0.0000001
 43
0.0000001
 44
0.0000000001
 40
0.0
 40
0.0
 40
0.0
 40
0.0
 40
4.295843329571327
 40
8.315081216038279
 40
16.44647650239008
 40
16.44647650239008
 40
16.44647650239008
 40
16.44647650239008
 10
971.1107256076475
 20
1042.629495325213
 30
0.0
 10
971.2827765349482
 20
1044.051128990246
 30
0.0
 10
971.6158001868931
 20
1046.802858622197
 30
0.0
 10
971.6633948438811
 20
1052.312184675722
 30
0.0
 10
970.7199207305501
 20
1056.272394230332
 30
0.0
 10
970.0885329790789
 20
1058.922628901013
 30
0.0
 11
971.1107256076475
 21
1042.629495325213
 31
0.0
 11
971.5444139161435
 21
1046.903391014546
 31
0.0
 11
971.5444139161435
 21
1050.922628901013
 31
0.0
 11
970.0885329790789
 21
1058.922628901013
 31
0.0
  0
LINE
  5
6120
100
AcDbEntity
  8
0
100
AcDbLine
 10
970.088533
 20
1060.903391
 30
0.0
 11
970.088533
 21
1058.922629
 31
0.0
  0
ARC
  5
6121
100
AcDbEntity
  8
0
100
AcDbCircle
 10
976.983517
 20
1050.91301
 30
0.0
 40
13.645466
100
AcDbArc
 50
324.056991
 51
35.943009
  0
LINE
  5
6122
100
AcDbEntity
  8
0
100
AcDbLine
 10
990.628979
 20
1047.403391
 30
0.0
 11
988.030903
 21
1042.903391
 31
0.0
  0
LINE
  5
6123
100
AcDbEntity
  8
0
100
AcDbLine
 10
988.030903
 20
1060.903391
 30
0.0
 11
988.030903
 21
1058.922629
 31
0.0
  0
LINE
  5
6124
100
AcDbEntity
  8
0
100
AcDbLine
 10
958.628979
 20
1127.903391
 30
0.0
 11
943.628979
 21
1127.903391
 31
0.0
  0
LINE
  5
6125
100
AcDbEntity
  8
0
100
AcDbLine
 10
943.628979
 20
1127.903391
 30
0.0
 11
933.628979
 21
1125.903391
 31
0.0
  0
ARC
  5
6126
100
AcDbEntity
  8
0
100
AcDbCircle
 10
976.983517
 20
1102.893772
 30
0.0
 40
13.645466
100
AcDbArc
 50
324.056991
 51
35.943009
  0
LINE
  5
6127
100
AcDbEntity
  8
0
100
AcDbLine
 10
990.628979
 20
1106.403391
 30
0.0
 11
990.628979
 21
1076.903391
 31
0.0
  0
SPLINE
  5
6128
100
AcDbEntity
  8
0
100
AcDbSpline
210
0.0
220
0.0
230
1.0
 70
     8
 71
     3
 72
    10
 73
     6
 74
     4
 42
0.0000001
 43
0.0000001
 44
0.0000000001
 40
0.0
 40
0.0
 40
0.0
 40
0.0
 40
4.016194066316495
 40
8.03543195278322
 40
16.16682723913548
 40
16.16682723913548
 40
16.16682723913548
 40
16.16682723913548
 10
971.1841157364146
 20
1110.903391014546
 30
0.0
 10
971.3251891127544
 20
1109.57239758811
 30
0.0
 10
971.6074427830729
 20
1106.909401992995
 30
0.0
 10
971.6685557105947
 20
1101.49507199401
 30
0.0
 10
970.7219898060049
 20
1097.534578089917
 30
0.0
 10
970.0885329790786
 20
1094.884153128079
 30
0.0
 11
971.1841157364146
 21
1110.903391014546
 31
0.0
 11
971.5444139161432
 21
1106.903391014546
 31
0.0
 11
971.5444139161432
 21
1102.884153128079
 31
0.0
 11
970.0885329790786
 21
1094.884153128079
 31
0.0
  0
LINE
  5
6129
100
AcDbEntity
  8
0
100
AcDbLine
 10
988.030903
 20
1094.884153
 30
0.0
 11
970.088533
 21
1094.884153
 31
0.0
  0
LINE
  5
612A
100
AcDbEntity
  8
0
100
AcDbLine
 10
988.030903
 20
1092.903391
 30
0.0
 11
970.088533
 21
1092.903391
 31
0.0
  0
LINE
  5
612B
100
AcDbEntity
  8
0
100
AcDbLine
 10
970.088533
 20
1094.884153
 30
0.0
 11
970.088533
 21
1092.903391
 31
0.0
  0
LINE
  5
612C
100
AcDbEntity
  8
0
100
AcDbLine
 10
988.030903
 20
1094.884153
 30
0.0
 11
988.030903
 21
1092.903391
 31
0.0
  0
LINE
  5
612D
100
AcDbEntity
  8
0
100
AcDbLine
 10
988.030903
 20
1110.903391
 30
0.0
 11
971.184116
 21
1110.903391
 31
0.0
  0
LINE
  5
612E
100
AcDbEntity
  8
0
100
AcDbLine
 10
967.224776
 20
1125.679848
 30
0.0
 11
971.184116
 21
1110.903391
 31
0.0
  0
ARC
  5
612F
100
AcDbEntity
  8
0
100
AcDbCircle
 10
964.326999
 20
1124.903391
 30
0.0
 40
3.0
100
AcDbArc
 50
15.0
 51
90.0
  0
LINE
  5
6130
100
AcDbEntity
  8
0
100
AcDbLine
 10
958.628979
 20
1127.903391
 30
0.0
 11
958.628979
 21
1119.164859
 31
0.0
  0
LINE
  5
6131
100
AcDbEntity
  8
0
100
AcDbLine
 10
958.628979
 20
1127.903391
 30
0.0
 11
958.628979
 21
1119.164859
 31
0.0
  0
LINE
  5
6132
100
AcDbEntity
  8
0
100
AcDbLine
 10
958.628979
 20
1127.903391
 30
0.0
 11
958.628979
 21
1117.779391
 31
0.0
  0
LINE
  5
6133
100
AcDbEntity
  8
0
100
AcDbLine
 10
958.628979
 20
1127.903391
 30
0.0
 11
964.326999
 21
1127.903391
 31
0.0
  0
LINE
  5
6134
100
AcDbEntity
  8
0
100
AcDbLine
 10
990.628979
 20
1106.403391
 30
0.0
 11
988.030903
 21
1110.903391
 31
0.0
  0
INSERT
  5
6135
100
AcDbEntity
  8
0
100
AcDbBlockReference
  2
YA
 10
1004.128979
 20
1076.903391
 30
0.0
 41
-3.0
 42
3.0
 43
3.0
  0
LINE
  5
6136
100
AcDbEntity
  8
0
100
AcDbLine
 10
320.103668
 20
253.62412
 30
0.0
 11
285.462668
 21
233.62412
 31
0.0
  0
ARC
  5
6137
100
AcDbEntity
  8
0
100
AcDbCircle
 10
1069.764181
 20
805.064348
 30
0.0
 40
34.0
100
AcDbArc
 50
28.072487
 51
31.927513
  0
LINE
  5
6138
100
AcDbEntity
  8
0
100
AcDbLine
 10
285.462668
 20
233.62412
 30
0.0
 11
285.311668
 21
233.38112
 31
0.0
  0
LINE
  5
6139
100
AcDbEntity
  8
0
100
AcDbLine
 10
285.462668
 20
233.62412
 30
0.0
 11
285.462668
 21
233.62412
 31
0.0
  0
LINE
  5
613A
100
AcDbEntity
  8
0
100
AcDbLine
 10
284.870668
 20
232.64512
 30
0.0
 11
284.726668
 21
232.39812
 31
0.0
  0
LINE
  5
613B
100
AcDbEntity
  8
0
100
AcDbLine
 10
285.015668
 20
232.89112
 30
0.0
 11
284.870668
 21
232.64512
 31
0.0
  0
LINE
  5
613C
100
AcDbEntity
  8
0
100
AcDbLine
 10
285.163668
 20
233.13612
 30
0.0
 11
285.015668
 21
232.89112
 31
0.0
  0
LINE
  5
613D
100
AcDbEntity
  8
0
100
AcDbLine
 10
284.305668
 20
231.65012
 30
0.0
 11
284.032668
 21
231.14812
 31
0.0
  0
LINE
  5
613E
100
AcDbEntity
  8
0
100
AcDbLine
 10
284.444668
 20
231.90012
 30
0.0
 11
284.305668
 21
231.65012
 31
0.0
  0
LINE
  5
613F
100
AcDbEntity
  8
0
100
AcDbLine
 10
284.584668
 20
232.15012
 30
0.0
 11
284.444668
 21
231.90012
 31
0.0
  0
LINE
  5
6140
100
AcDbEntity
  8
0
100
AcDbLine
 10
284.726668
 20
232.39812
 30
0.0
 11
284.584668
 21
232.15012
 31
0.0
  0
LINE
  5
6141
100
AcDbEntity
  8
0
100
AcDbLine
 10
285.311668
 20
233.38112
 30
0.0
 11
285.163668
 21
233.13612
 31
0.0
  0
LINE
  5
6142
100
AcDbEntity
  8
0
100
AcDbLine
 10
357.603668
 20
233.62412
 30
0.0
 11
322.962668
 21
253.62412
 31
0.0
  0
LINE
  5
6143
100
AcDbEntity
  8
0
100
AcDbLine
 10
321.103668
 20
253.64512
 30
0.0
 11
320.960668
 21
253.64412
 31
0.0
  0
LINE
  5
6144
100
AcDbEntity
  8
0
100
AcDbLine
 10
321.246668
 20
253.64712
 30
0.0
 11
321.103668
 21
253.64512
 31
0.0
  0
LINE
  5
6145
100
AcDbEntity
  8
0
100
AcDbLine
 10
321.389668
 20
253.64712
 30
0.0
 11
321.246668
 21
253.64712
 31
0.0
  0
LINE
  5
6146
100
AcDbEntity
  8
0
100
AcDbLine
 10
321.532668
 20
253.64812
 30
0.0
 11
321.389668
 21
253.64712
 31
0.0
  0
LINE
  5
6147
100
AcDbEntity
  8
0
100
AcDbLine
 10
321.532668
 20
253.64812
 30
0.0
 11
321.532668
 21
253.64812
 31
0.0
  0
LINE
  5
6148
100
AcDbEntity
  8
0
100
AcDbLine
 10
321.818668
 20
253.64712
 30
0.0
 11
321.532668
 21
253.64812
 31
0.0
  0
LINE
  5
6149
100
AcDbEntity
  8
0
100
AcDbLine
 10
321.961668
 20
253.64512
 30
0.0
 11
321.818668
 21
253.64712
 31
0.0
  0
LINE
  5
614A
100
AcDbEntity
  8
0
100
AcDbLine
 10
322.104668
 20
253.64412
 30
0.0
 11
321.961668
 21
253.64512
 31
0.0
  0
LINE
  5
614B
100
AcDbEntity
  8
0
100
AcDbLine
 10
322.247668
 20
253.64212
 30
0.0
 11
322.104668
 21
253.64412
 31
0.0
  0
LINE
  5
614C
100
AcDbEntity
  8
0
100
AcDbLine
 10
322.390668
 20
253.63912
 30
0.0
 11
322.247668
 21
253.64212
 31
0.0
  0
LINE
  5
614D
100
AcDbEntity
  8
0
100
AcDbLine
 10
322.533668
 20
253.63612
 30
0.0
 11
322.390668
 21
253.63912
 31
0.0
  0
LINE
  5
614E
100
AcDbEntity
  8
0
100
AcDbLine
 10
322.676668
 20
253.63212
 30
0.0
 11
322.533668
 21
253.63612
 31
0.0
  0
LINE
  5
614F
100
AcDbEntity
  8
0
100
AcDbLine
 10
322.819668
 20
253.62812
 30
0.0
 11
322.676668
 21
253.63212
 31
0.0
  0
LINE
  5
6150
100
AcDbEntity
  8
0
100
AcDbLine
 10
322.962668
 20
253.62412
 30
0.0
 11
322.819668
 21
253.62812
 31
0.0
  0
LINE
  5
6151
100
AcDbEntity
  8
0
100
AcDbLine
 10
320.388668
 20
253.63212
 30
0.0
 11
320.103668
 21
253.62412
 31
0.0
  0
LINE
  5
6152
100
AcDbEntity
  8
0
100
AcDbLine
 10
320.531668
 20
253.63612
 30
0.0
 11
320.388668
 21
253.63212
 31
0.0
  0
LINE
  5
6153
100
AcDbEntity
  8
0
100
AcDbLine
 10
320.674668
 20
253.63912
 30
0.0
 11
320.531668
 21
253.63612
 31
0.0
  0
LINE
  5
6154
100
AcDbEntity
  8
0
100
AcDbLine
 10
320.817668
 20
253.64212
 30
0.0
 11
320.674668
 21
253.63912
 31
0.0
  0
LINE
  5
6155
100
AcDbEntity
  8
0
100
AcDbLine
 10
320.960668
 20
253.64412
 30
0.0
 11
320.817668
 21
253.64212
 31
0.0
  0
LINE
  5
6156
100
AcDbEntity
  8
0
100
AcDbLine
 10
357.902668
 20
233.13612
 30
0.0
 11
357.603668
 21
233.62412
 31
0.0
  0
LINE
  5
6157
100
AcDbEntity
  8
0
100
AcDbLine
 10
358.049668
 20
232.89112
 30
0.0
 11
357.902668
 21
233.13612
 31
0.0
  0
LINE
  5
6158
100
AcDbEntity
  8
0
100
AcDbLine
 10
358.194668
 20
232.64512
 30
0.0
 11
358.049668
 21
232.89112
 31
0.0
  0
LINE
  5
6159
100
AcDbEntity
  8
0
100
AcDbLine
 10
358.338668
 20
232.39812
 30
0.0
 11
358.194668
 21
232.64512
 31
0.0
  0
LINE
  5
615A
100
AcDbEntity
  8
0
100
AcDbLine
 10
358.621668
 20
231.90012
 30
0.0
 11
358.480668
 21
232.15012
 31
0.0
  0
LINE
  5
615B
100
AcDbEntity
  8
0
100
AcDbLine
 10
358.760668
 20
231.65012
 30
0.0
 11
358.621668
 21
231.90012
 31
0.0
  0
LINE
  5
615C
100
AcDbEntity
  8
0
100
AcDbLine
 10
358.897668
 20
231.39912
 30
0.0
 11
358.760668
 21
231.65012
 31
0.0
  0
LINE
  5
615D
100
AcDbEntity
  8
0
100
AcDbLine
 10
359.032668
 20
231.14812
 30
0.0
 11
358.897668
 21
231.39912
 31
0.0
  0
LINE
  5
615E
100
AcDbEntity
  8
0
100
AcDbLine
 10
359.032668
 20
231.14812
 30
0.0
 11
359.032668
 21
231.14812
 31
0.0
  0
LINE
  5
615F
100
AcDbEntity
  8
0
100
AcDbLine
 10
358.480668
 20
232.15012
 30
0.0
 11
358.338668
 21
232.39812
 31
0.0
  0
ARC
  5
6160
100
AcDbEntity
  8
0
100
AcDbCircle
 10
499.955357
 20
347.10225
 30
0.0
 40
3.0
100
AcDbArc
 50
194.990962
 51
270.001911
  0
LINE
  5
6161
100
AcDbEntity
  8
0
100
AcDbLine
 10
561.886328
 20
267.50697
 30
0.0
 11
563.025328
 21
266.99497
 31
0.0
  0
LINE
  5
6162
100
AcDbEntity
  8
0
100
AcDbLine
 10
505.365328
 20
271.14797
 30
0.0
 11
520.365328
 21
271.14797
 31
0.0
  0
ARC
  5
6163
100
AcDbEntity
  8
0
100
AcDbCircle
 10
521.677984
 20
243.61897
 30
0.0
 40
28.410726
100
AcDbArc
 50
159.391547
 51
200.608453
  0
ARC
  5
6164
100
AcDbEntity
  8
0
100
AcDbCircle
 10
488.400504
 20
243.61897
 30
0.0
 40
18.752076
100
AcDbArc
 50
147.773046
 51
212.226954
  0
LINE
  5
6165
100
AcDbEntity
  8
0
100
AcDbLine
 10
495.085328
 20
231.14297
 30
0.0
 11
472.537328
 21
231.14297
 31
0.0
  0
LINE
  5
6166
100
AcDbEntity
  8
0
100
AcDbLine
 10
495.085328
 20
233.61897
 30
0.0
 11
472.537328
 21
233.61897
 31
0.0
  0
LINE
  5
6167
100
AcDbEntity
  8
0
100
AcDbLine
 10
472.537328
 20
233.61897
 30
0.0
 11
472.537328
 21
231.14297
 31
0.0
  0
LINE
  5
6168
100
AcDbEntity
  8
0
100
AcDbLine
 10
495.085328
 20
233.61897
 30
0.0
 11
495.085328
 21
231.14297
 31
0.0
  0
LINE
  5
6169
100
AcDbEntity
  8
0
100
AcDbLine
 10
495.085328
 20
253.64297
 30
0.0
 11
472.537328
 21
253.64297
 31
0.0
  0
LINE
  5
616A
100
AcDbEntity
  8
0
100
AcDbLine
 10
492.675328
 20
253.64797
 30
0.0
 11
472.540328
 21
253.64797
 31
0.0
  0
LINE
  5
616B
100
AcDbEntity
  8
0
100
AcDbLine
 10
472.537328
 20
253.64297
 30
0.0
 11
469.365328
 21
248.14797
 31
0.0
  0
LINE
  5
616C
100
AcDbEntity
  8
0
100
AcDbLine
 10
472.537328
 20
253.64297
 30
0.0
 11
472.537328
 21
253.61897
 31
0.0
  0
LINE
  5
616D
100
AcDbEntity
  8
0
100
AcDbLine
 10
496.769328
 20
268.92397
 30
0.0
 11
492.675328
 21
253.64797
 31
0.0
  0
LINE
  5
616E
100
AcDbEntity
  8
0
100
AcDbLine
 10
495.085328
 20
253.64297
 30
0.0
 11
495.085328
 21
253.61897
 31
0.0
  0
LINE
  5
616F
100
AcDbEntity
  8
0
100
AcDbLine
 10
505.365328
 20
271.14797
 30
0.0
 11
499.667328
 21
271.14797
 31
0.0
  0
ARC
  5
6170
100
AcDbEntity
  8
0
100
AcDbCircle
 10
499.667228
 20
268.14797
 30
0.0
 40
3.0
100
AcDbArc
 50
89.998089
 51
165.009038
  0
LINE
  5
6171
100
AcDbEntity
  8
0
100
AcDbLine
 10
530.365328
 20
268.14797
 30
0.0
 11
558.363328
 21
268.14797
 31
0.0
  0
LINE
  5
6172
100
AcDbEntity
  8
0
100
AcDbLine
 10
520.365328
 20
271.14797
 30
0.0
 11
530.365328
 21
268.14797
 31
0.0
  0
LINE
  5
6173
100
AcDbEntity
  8
0
100
AcDbLine
 10
559.528328
 20
268.07997
 30
0.0
 11
560.711328
 21
267.86897
 31
0.0
  0
LINE
  5
6174
100
AcDbEntity
  8
0
100
AcDbLine
 10
560.711328
 20
267.86897
 30
0.0
 11
561.886328
 21
267.50697
 31
0.0
  0
LINE
  5
6175
100
AcDbEntity
  8
0
100
AcDbLine
 10
558.363328
 20
268.14797
 30
0.0
 11
558.363328
 21
268.14797
 31
0.0
  0
LINE
  5
6176
100
AcDbEntity
  8
0
100
AcDbLine
 10
558.363328
 20
268.14797
 30
0.0
 11
559.528328
 21
268.07997
 31
0.0
  0
ARC
  5
6177
100
AcDbEntity
  8
0
100
AcDbCircle
 10
577.330152
 20
243.61897
 30
0.0
 40
18.752076
100
AcDbArc
 50
327.773046
 51
32.226954
  0
ARC
  5
6178
100
AcDbEntity
  8
0
100
AcDbCircle
 10
544.052672
 20
243.61897
 30
0.0
 40
28.410726
100
AcDbArc
 50
339.391547
 51
20.608453
  0
LINE
  5
6179
100
AcDbEntity
  8
0
100
AcDbLine
 10
570.645328
 20
233.61897
 30
0.0
 11
593.193328
 21
233.61897
 31
0.0
  0
LINE
  5
617A
100
AcDbEntity
  8
0
100
AcDbLine
 10
570.645328
 20
231.14297
 30
0.0
 11
593.193328
 21
231.14297
 31
0.0
  0
LINE
  5
617B
100
AcDbEntity
  8
0
100
AcDbLine
 10
570.645328
 20
233.61897
 30
0.0
 11
570.645328
 21
231.14297
 31
0.0
  0
LINE
  5
617C
100
AcDbEntity
  8
0
100
AcDbLine
 10
593.193328
 20
233.61897
 30
0.0
 11
593.193328
 21
231.14297
 31
0.0
  0
LINE
  5
617D
100
AcDbEntity
  8
0
100
AcDbLine
 10
570.645328
 20
253.64297
 30
0.0
 11
593.193328
 21
253.64297
 31
0.0
  0
LINE
  5
617E
100
AcDbEntity
  8
0
100
AcDbLine
 10
566.695328
 20
263.67897
 30
0.0
 11
567.760328
 21
261.56897
 31
0.0
  0
LINE
  5
617F
100
AcDbEntity
  8
0
100
AcDbLine
 10
570.645328
 20
253.64297
 30
0.0
 11
570.645328
 21
253.61897
 31
0.0
  0
LINE
  5
6180
100
AcDbEntity
  8
0
100
AcDbLine
 10
567.760328
 20
261.56897
 30
0.0
 11
570.645328
 21
253.64297
 31
0.0
  0
LINE
  5
6181
100
AcDbEntity
  8
0
100
AcDbLine
 10
565.953328
 20
264.65897
 30
0.0
 11
566.695328
 21
263.67897
 31
0.0
  0
LINE
  5
6182
100
AcDbEntity
  8
0
100
AcDbLine
 10
563.025328
 20
266.99497
 30
0.0
 11
564.099328
 21
266.33997
 31
0.0
  0
LINE
  5
6183
100
AcDbEntity
  8
0
100
AcDbLine
 10
564.099328
 20
266.33997
 30
0.0
 11
565.083328
 21
265.55397
 31
0.0
  0
LINE
  5
6184
100
AcDbEntity
  8
0
100
AcDbLine
 10
565.083328
 20
265.55397
 30
0.0
 11
565.953328
 21
264.65897
 31
0.0
  0
LINE
  5
6185
100
AcDbEntity
  8
0
100
AcDbLine
 10
593.193328
 20
253.64297
 30
0.0
 11
593.193328
 21
253.61897
 31
0.0
  0
LINE
  5
6186
100
AcDbEntity
  8
0
100
AcDbLine
 10
593.193328
 20
253.64297
 30
0.0
 11
596.365328
 21
248.14797
 31
0.0
  0
ARC
  5
6187
100
AcDbEntity
  8
0
100
AcDbCircle
 10
558.651381
 20
451.09175
 30
0.0
 40
10.0
100
AcDbArc
 50
20.0
 51
90.0
  0
ARC
  5
6188
100
AcDbEntity
  8
0
100
AcDbCircle
 10
558.651381
 20
357.09145
 30
0.0
 40
10.0
100
AcDbArc
 50
270.0
 51
340.0
  0
ARC
  5
618A
100
AcDbEntity
  8
0
100
AcDbCircle
 10
577.335329
 20
422.848516
 30
0.0
 40
83.773298
100
AcDbArc
 50
168.072439
 51
191.936601
  0
LINE
  5
618B
100
AcDbEntity
  8
0
100
AcDbLine
 10
469.653457
 20
441.09175
 30
0.0
 11
469.653457
 21
367.09135
 31
0.0
  0
ARC
  5
618C
100
AcDbEntity
  8
0
100
AcDbCircle
 10
518.46077
 20
422.84205
 30
0.0
 40
48.811624
100
AcDbArc
 50
159.216382
 51
200.783618
  0
LINE
  5
618D
100
AcDbEntity
  8
0
100
AcDbLine
 10
530.653457
 20
461.09175
 30
0.0
 11
530.653457
 21
347.09145
 31
0.0
  0
LINE
  5
618E
100
AcDbEntity
  8
0
100
AcDbLine
 10
520.653457
 20
464.09175
 30
0.0
 11
520.653457
 21
344.09145
 31
0.0
  0
LINE
  5
618F
100
AcDbEntity
  8
0
100
AcDbLine
 10
505.653457
 20
344.09145
 30
0.0
 11
505.653457
 21
464.09175
 31
0.0
  0
LINE
  5
6190
100
AcDbEntity
  8
0
100
AcDbLine
 10
505.653457
 20
344.09145
 30
0.0
 11
505.653457
 21
464.09175
 31
0.0
  0
LINE
  5
6191
100
AcDbEntity
  8
0
100
AcDbLine
 10
520.653457
 20
344.09145
 30
0.0
 11
505.653457
 21
344.09145
 31
0.0
  0
ARC
  5
6192
100
AcDbEntity
  8
0
100
AcDbCircle
 10
577.335329
 20
385.334985
 30
0.0
 40
83.773298
100
AcDbArc
 50
168.063399
 51
191.927561
  0
ARC
  5
6193
100
AcDbEntity
  8
0
100
AcDbCircle
 10
518.46077
 20
385.34145
 30
0.0
 40
48.811624
100
AcDbArc
 50
159.216382
 51
200.783618
  0
LINE
  5
6194
100
AcDbEntity
  8
0
100
AcDbLine
 10
469.942132
 20
366.59175
 30
0.0
 11
495.370724
 21
366.59175
 31
0.0
  0
LINE
  5
6195
100
AcDbEntity
  8
0
100
AcDbLine
 10
495.370724
 20
368.02115
 30
0.0
 11
472.825457
 21
368.02115
 31
0.0
  0
LINE
  5
6196
100
AcDbEntity
  8
0
100
AcDbLine
 10
472.825457
 20
366.59175
 30
0.0
 11
472.825457
 21
368.02115
 31
0.0
  0
LINE
  5
6197
100
AcDbEntity
  8
0
100
AcDbLine
 10
469.653457
 20
367.09175
 30
0.0
 11
469.942132
 21
366.59175
 31
0.0
  0
LINE
  5
6198
100
AcDbEntity
  8
0
100
AcDbLine
 10
497.057457
 20
346.32625
 30
0.0
 11
491.623348
 21
366.602617
 31
0.0
  0
LINE
  5
6199
100
AcDbEntity
  8
0
100
AcDbLine
 10
505.653457
 20
344.10225
 30
0.0
 11
499.955457
 21
344.10225
 31
0.0
  0
LINE
  5
619A
100
AcDbEntity
  8
0
100
AcDbLine
 10
495.370724
 20
366.59175
 30
0.0
 11
495.370724
 21
368.02115
 31
0.0
  0
LINE
  5
619B
100
AcDbEntity
  8
0
100
AcDbLine
 10
472.825457
 20
402.66175
 30
0.0
 11
495.373457
 21
402.66175
 31
0.0
  0
LINE
  5
619C
100
AcDbEntity
  8
0
100
AcDbLine
 10
472.825457
 20
405.521458
 30
0.0
 11
495.373457
 21
405.521458
 31
0.0
  0
LINE
  5
619D
100
AcDbEntity
  8
0
100
AcDbLine
 10
472.825457
 20
402.66175
 30
0.0
 11
472.825457
 21
405.521458
 31
0.0
  0
LINE
  5
619E
100
AcDbEntity
  8
0
100
AcDbLine
 10
495.373457
 20
405.52175
 30
0.0
 11
495.373457
 21
402.66175
 31
0.0
  0
LINE
  5
619F
100
AcDbEntity
  8
0
100
AcDbLine
 10
558.651381
 20
347.09145
 30
0.0
 11
530.653457
 21
347.09145
 31
0.0
  0
LINE
  5
61A0
100
AcDbEntity
  8
0
100
AcDbLine
 10
530.653457
 20
347.09145
 30
0.0
 11
520.653457
 21
344.09145
 31
0.0
  0
LINE
  5
61A1
100
AcDbEntity
  8
0
100
AcDbLine
 10
505.653457
 20
464.09175
 30
0.0
 11
520.653457
 21
464.09175
 31
0.0
  0
LINE
  5
61A2
100
AcDbEntity
  8
0
100
AcDbLine
 10
497.057457
 20
461.86745
 30
0.0
 11
491.623348
 21
441.591084
 31
0.0
  0
LINE
  5
61A3
100
AcDbEntity
  8
0
100
AcDbLine
 10
469.942324
 20
441.591084
 30
0.0
 11
495.370724
 21
441.591084
 31
0.0
  0
LINE
  5
61A4
100
AcDbEntity
  8
0
100
AcDbLine
 10
495.370724
 20
440.16235
 30
0.0
 11
472.825457
 21
440.16235
 31
0.0
  0
LINE
  5
61A5
100
AcDbEntity
  8
0
100
AcDbLine
 10
472.825457
 20
440.16235
 30
0.0
 11
472.825457
 21
441.591084
 31
0.0
  0
LINE
  5
61A6
100
AcDbEntity
  8
0
100
AcDbLine
 10
469.653457
 20
441.09075
 30
0.0
 11
469.942324
 21
441.591084
 31
0.0
  0
LINE
  5
61A7
100
AcDbEntity
  8
0
100
AcDbLine
 10
495.370724
 20
441.591084
 30
0.0
 11
495.370724
 21
440.16235
 31
0.0
  0
LINE
  5
61A8
100
AcDbEntity
  8
0
100
AcDbLine
 10
505.653457
 20
464.09145
 30
0.0
 11
499.955457
 21
464.09145
 31
0.0
  0
ARC
  5
61A9
100
AcDbEntity
  8
0
100
AcDbCircle
 10
499.955357
 20
461.09145
 30
0.0
 40
3.0
100
AcDbArc
 50
89.998089
 51
165.009038
  0
LINE
  5
61AA
100
AcDbEntity
  8
0
100
AcDbLine
 10
530.653457
 20
461.09175
 30
0.0
 11
558.651381
 21
461.09175
 31
0.0
  0
LINE
  5
61AB
100
AcDbEntity
  8
0
100
AcDbLine
 10
520.653457
 20
464.09175
 30
0.0
 11
530.653457
 21
461.09175
 31
0.0
  0
ARC
  5
61AC
100
AcDbEntity
  8
0
100
AcDbCircle
 10
547.846143
 20
422.84205
 30
0.0
 40
48.811624
100
AcDbArc
 50
339.216382
 51
20.783618
  0
LINE
  5
61AD
100
AcDbEntity
  8
0
100
AcDbLine
 10
596.653457
 20
441.09175
 30
0.0
 11
596.653457
 21
367.09135
 31
0.0
  0
ARC
  5
61AE
100
AcDbEntity
  8
0
100
AcDbCircle
 10
488.971584
 20
422.848516
 30
0.0
 40
83.773298
100
AcDbArc
 50
348.063399
 51
11.927561
  0
LINE
  5
61AF
100
AcDbEntity
  8
0
100
AcDbLine
 10
565.653457
 20
454.22135
 30
0.0
 11
565.653457
 21
353.86625
 31
0.0
  0
ARC
  5
61B0
100
AcDbEntity
  8
0
100
AcDbCircle
 10
547.846143
 20
385.34145
 30
0.0
 40
48.811624
100
AcDbArc
 50
339.216382
 51
20.783618
  0
ARC
  5
61B1
100
AcDbEntity
  8
0
100
AcDbCircle
 10
488.971584
 20
385.334985
 30
0.0
 40
83.773298
100
AcDbArc
 50
348.072439
 51
11.936601
  0
LINE
  5
61B2
100
AcDbEntity
  8
0
100
AcDbLine
 10
570.936189
 20
368.02115
 30
0.0
 11
593.481457
 21
368.02115
 31
0.0
  0
LINE
  5
61B3
100
AcDbEntity
  8
0
100
AcDbLine
 10
596.364782
 20
366.59175
 30
0.0
 11
570.936189
 21
366.59175
 31
0.0
  0
LINE
  5
61B4
100
AcDbEntity
  8
0
100
AcDbLine
 10
568.048308
 20
353.671249
 30
0.0
 11
572.742373
 21
366.568087
 31
0.0
  0
LINE
  5
61B5
100
AcDbEntity
  8
0
100
AcDbLine
 10
568.048457
 20
353.67125
 30
0.0
 11
568.048457
 21
353.67125
 31
0.0
  0
LINE
  5
61B6
100
AcDbEntity
  8
0
100
AcDbLine
 10
570.936189
 20
366.59175
 30
0.0
 11
570.936189
 21
368.02115
 31
0.0
  0
LINE
  5
61B7
100
AcDbEntity
  8
0
100
AcDbLine
 10
570.933457
 20
361.61055
 30
0.0
 11
570.929457
 21
361.58645
 31
0.0
  0
LINE
  5
61B8
100
AcDbEntity
  8
0
100
AcDbLine
 10
596.653457
 20
367.09175
 30
0.0
 11
596.364782
 21
366.59175
 31
0.0
  0
LINE
  5
61B9
100
AcDbEntity
  8
0
100
AcDbLine
 10
593.481457
 20
366.59175
 30
0.0
 11
593.481457
 21
368.02115
 31
0.0
  0
LINE
  5
61BA
100
AcDbEntity
  8
0
100
AcDbLine
 10
593.481457
 20
405.521458
 30
0.0
 11
570.933457
 21
405.521458
 31
0.0
  0
LINE
  5
61BB
100
AcDbEntity
  8
0
100
AcDbLine
 10
593.481457
 20
402.66175
 30
0.0
 11
570.933457
 21
402.66175
 31
0.0
  0
LINE
  5
61BC
100
AcDbEntity
  8
0
100
AcDbLine
 10
570.933457
 20
405.52175
 30
0.0
 11
570.933457
 21
402.66175
 31
0.0
  0
LINE
  5
61BD
100
AcDbEntity
  8
0
100
AcDbLine
 10
593.481457
 20
402.66175
 30
0.0
 11
593.481457
 21
405.521458
 31
0.0
  0
LINE
  5
61BE
100
AcDbEntity
  8
0
100
AcDbLine
 10
568.048308
 20
454.511952
 30
0.0
 11
572.751119
 21
441.591084
 31
0.0
  0
LINE
  5
61BF
100
AcDbEntity
  8
0
100
AcDbLine
 10
570.936189
 20
440.16235
 30
0.0
 11
593.481457
 21
440.16235
 31
0.0
  0
LINE
  5
61C0
100
AcDbEntity
  8
0
100
AcDbLine
 10
596.364589
 20
441.591084
 30
0.0
 11
570.936189
 21
441.591084
 31
0.0
  0
LINE
  5
61C1
100
AcDbEntity
  8
0
100
AcDbLine
 10
570.936189
 20
441.591084
 30
0.0
 11
570.936189
 21
440.16235
 31
0.0
  0
LINE
  5
61C2
100
AcDbEntity
  8
0
100
AcDbLine
 10
596.653457
 20
441.09075
 30
0.0
 11
596.364589
 21
441.591084
 31
0.0
  0
LINE
  5
61C3
100
AcDbEntity
  8
0
100
AcDbLine
 10
593.481457
 20
440.16235
 30
0.0
 11
593.481457
 21
441.591084
 31
0.0
  0
LINE
  5
61C4
100
AcDbEntity
  8
0
100
AcDbLine
 10
570.933457
 20
446.58675
 30
0.0
 11
570.933457
 21
446.56275
 31
0.0
  0
LINE
  5
61C5
100
AcDbEntity
  8
0
100
AcDbLine
 10
706.989191
 20
253.62412
 30
0.0
 11
672.348191
 21
233.62412
 31
0.0
  0
LINE
  5
61C6
100
AcDbEntity
  8
0
100
AcDbLine
 10
671.756191
 20
232.64512
 30
0.0
 11
671.612191
 21
232.39812
 31
0.0
  0
LINE
  5
61C7
100
AcDbEntity
  8
0
100
AcDbLine
 10
671.901191
 20
232.89112
 30
0.0
 11
671.756191
 21
232.64512
 31
0.0
  0
LINE
  5
61C8
100
AcDbEntity
  8
0
100
AcDbLine
 10
672.049191
 20
233.13612
 30
0.0
 11
671.901191
 21
232.89112
 31
0.0
  0
LINE
  5
61C9
100
AcDbEntity
  8
0
100
AcDbLine
 10
672.197191
 20
233.38112
 30
0.0
 11
672.049191
 21
233.13612
 31
0.0
  0
LINE
  5
61CA
100
AcDbEntity
  8
0
100
AcDbLine
 10
672.348191
 20
233.62412
 30
0.0
 11
672.197191
 21
233.38112
 31
0.0
  0
LINE
  5
61CB
100
AcDbEntity
  8
0
100
AcDbLine
 10
672.348191
 20
233.62412
 30
0.0
 11
672.348191
 21
233.62412
 31
0.0
  0
LINE
  5
61CC
100
AcDbEntity
  8
0
100
AcDbLine
 10
671.191191
 20
231.65012
 30
0.0
 11
670.918191
 21
231.14812
 31
0.0
  0
LINE
  5
61CD
100
AcDbEntity
  8
0
100
AcDbLine
 10
671.330191
 20
231.90012
 30
0.0
 11
671.191191
 21
231.65012
 31
0.0
  0
LINE
  5
61CE
100
AcDbEntity
  8
0
100
AcDbLine
 10
671.470191
 20
232.15012
 30
0.0
 11
671.330191
 21
231.90012
 31
0.0
  0
LINE
  5
61CF
100
AcDbEntity
  8
0
100
AcDbLine
 10
671.612191
 20
232.39812
 30
0.0
 11
671.470191
 21
232.15012
 31
0.0
  0
LINE
  5
61D0
100
AcDbEntity
  8
0
100
AcDbLine
 10
744.489191
 20
233.62412
 30
0.0
 11
709.848191
 21
253.62412
 31
0.0
  0
LINE
  5
61D1
100
AcDbEntity
  8
0
100
AcDbLine
 10
744.788191
 20
233.13612
 30
0.0
 11
744.489191
 21
233.62412
 31
0.0
  0
LINE
  5
61D2
100
AcDbEntity
  8
0
100
AcDbLine
 10
744.935191
 20
232.89112
 30
0.0
 11
744.788191
 21
233.13612
 31
0.0
  0
LINE
  5
61D3
100
AcDbEntity
  8
0
100
AcDbLine
 10
745.080191
 20
232.64512
 30
0.0
 11
744.935191
 21
232.89112
 31
0.0
  0
LINE
  5
61D4
100
AcDbEntity
  8
0
100
AcDbLine
 10
745.224191
 20
232.39812
 30
0.0
 11
745.080191
 21
232.64512
 31
0.0
  0
LINE
  5
61D5
100
AcDbEntity
  8
0
100
AcDbLine
 10
745.507191
 20
231.90012
 30
0.0
 11
745.366191
 21
232.15012
 31
0.0
  0
LINE
  5
61D6
100
AcDbEntity
  8
0
100
AcDbLine
 10
745.646191
 20
231.65012
 30
0.0
 11
745.507191
 21
231.90012
 31
0.0
  0
LINE
  5
61D7
100
AcDbEntity
  8
0
100
AcDbLine
 10
745.783191
 20
231.39912
 30
0.0
 11
745.646191
 21
231.65012
 31
0.0
  0
LINE
  5
61D8
100
AcDbEntity
  8
0
100
AcDbLine
 10
745.918191
 20
231.14812
 30
0.0
 11
745.783191
 21
231.39912
 31
0.0
  0
LINE
  5
61D9
100
AcDbEntity
  8
0
100
AcDbLine
 10
745.918191
 20
231.14812
 30
0.0
 11
745.918191
 21
231.14812
 31
0.0
  0
LINE
  5
61DA
100
AcDbEntity
  8
0
100
AcDbLine
 10
745.366191
 20
232.15012
 30
0.0
 11
745.224191
 21
232.39812
 31
0.0
  0
LINE
  5
61DB
100
AcDbEntity
  8
0
100
AcDbLine
 10
707.274191
 20
253.63212
 30
0.0
 11
706.989191
 21
253.62412
 31
0.0
  0
LINE
  5
61DC
100
AcDbEntity
  8
0
100
AcDbLine
 10
707.417191
 20
253.63612
 30
0.0
 11
707.274191
 21
253.63212
 31
0.0
  0
LINE
  5
61DD
100
AcDbEntity
  8
0
100
AcDbLine
 10
707.560191
 20
253.63912
 30
0.0
 11
707.417191
 21
253.63612
 31
0.0
  0
LINE
  5
61DE
100
AcDbEntity
  8
0
100
AcDbLine
 10
707.703191
 20
253.64212
 30
0.0
 11
707.560191
 21
253.63912
 31
0.0
  0
LINE
  5
61DF
100
AcDbEntity
  8
0
100
AcDbLine
 10
707.846191
 20
253.64412
 30
0.0
 11
707.703191
 21
253.64212
 31
0.0
  0
LINE
  5
61E0
100
AcDbEntity
  8
0
100
AcDbLine
 10
707.989191
 20
253.64512
 30
0.0
 11
707.846191
 21
253.64412
 31
0.0
  0
LINE
  5
61E1
100
AcDbEntity
  8
0
100
AcDbLine
 10
708.132191
 20
253.64712
 30
0.0
 11
707.989191
 21
253.64512
 31
0.0
  0
LINE
  5
61E2
100
AcDbEntity
  8
0
100
AcDbLine
 10
708.275191
 20
253.64712
 30
0.0
 11
708.132191
 21
253.64712
 31
0.0
  0
LINE
  5
61E3
100
AcDbEntity
  8
0
100
AcDbLine
 10
708.418191
 20
253.64812
 30
0.0
 11
708.275191
 21
253.64712
 31
0.0
  0
LINE
  5
61E4
100
AcDbEntity
  8
0
100
AcDbLine
 10
708.418191
 20
253.64812
 30
0.0
 11
708.418191
 21
253.64812
 31
0.0
  0
LINE
  5
61E5
100
AcDbEntity
  8
0
100
AcDbLine
 10
708.704191
 20
253.64712
 30
0.0
 11
708.418191
 21
253.64812
 31
0.0
  0
LINE
  5
61E6
100
AcDbEntity
  8
0
100
AcDbLine
 10
708.847191
 20
253.64512
 30
0.0
 11
708.704191
 21
253.64712
 31
0.0
  0
LINE
  5
61E7
100
AcDbEntity
  8
0
100
AcDbLine
 10
708.990191
 20
253.64412
 30
0.0
 11
708.847191
 21
253.64512
 31
0.0
  0
LINE
  5
61E8
100
AcDbEntity
  8
0
100
AcDbLine
 10
709.133191
 20
253.64212
 30
0.0
 11
708.990191
 21
253.64412
 31
0.0
  0
LINE
  5
61E9
100
AcDbEntity
  8
0
100
AcDbLine
 10
709.276191
 20
253.63912
 30
0.0
 11
709.133191
 21
253.64212
 31
0.0
  0
LINE
  5
61EA
100
AcDbEntity
  8
0
100
AcDbLine
 10
709.419191
 20
253.63612
 30
0.0
 11
709.276191
 21
253.63912
 31
0.0
  0
LINE
  5
61EB
100
AcDbEntity
  8
0
100
AcDbLine
 10
709.562191
 20
253.63212
 30
0.0
 11
709.419191
 21
253.63612
 31
0.0
  0
LINE
  5
61EC
100
AcDbEntity
  8
0
100
AcDbLine
 10
709.705191
 20
253.62812
 30
0.0
 11
709.562191
 21
253.63212
 31
0.0
  0
LINE
  5
61ED
100
AcDbEntity
  8
0
100
AcDbLine
 10
709.848191
 20
253.62412
 30
0.0
 11
709.705191
 21
253.62812
 31
0.0
  0
LINE
  5
61FE
100
AcDbEntity
  8
0
100
AcDbLine
 10
545.653457
 20
645.36062
 30
0.0
 11
545.653457
 21
525.36092
 31
0.0
  0
LINE
  5
61FF
100
AcDbEntity
  8
0
100
AcDbLine
 10
535.653457
 20
642.36062
 30
0.0
 11
535.653457
 21
528.36092
 31
0.0
  0
LINE
  5
6200
100
AcDbEntity
  8
0
100
AcDbLine
 10
560.653457
 20
525.36092
 30
0.0
 11
560.653457
 21
645.36062
 31
0.0
  0
LINE
  5
6201
100
AcDbEntity
  8
0
100
AcDbLine
 10
569.249457
 20
527.58492
 30
0.0
 11
573.343457
 21
542.86092
 31
0.0
  0
LINE
  5
6202
100
AcDbEntity
  8
0
100
AcDbLine
 10
500.653457
 20
635.49062
 30
0.0
 11
500.653457
 21
535.13612
 31
0.0
  0
LINE
  5
6203
100
AcDbEntity
  8
0
100
AcDbLine
 10
495.377457
 20
542.85602
 30
0.0
 11
498.258457
 21
534.94082
 31
0.0
  0
LINE
  5
6204
100
AcDbEntity
  8
0
100
AcDbLine
 10
545.653457
 20
525.36092
 30
0.0
 11
560.653457
 21
525.36092
 31
0.0
  0
ARC
  5
6205
100
AcDbEntity
  8
0
100
AcDbCircle
 10
566.351557
 20
528.36092
 30
0.0
 40
3.0
100
AcDbArc
 50
269.998089
 51
345.009038
  0
LINE
  5
6206
100
AcDbEntity
  8
0
100
AcDbLine
 10
560.653457
 20
525.36092
 30
0.0
 11
566.351457
 21
525.36092
 31
0.0
  0
LINE
  5
6207
100
AcDbEntity
  8
0
100
AcDbLine
 10
507.655457
 20
528.36102
 30
0.0
 11
535.653457
 21
528.36092
 31
0.0
  0
LINE
  5
6208
100
AcDbEntity
  8
0
100
AcDbLine
 10
545.653457
 20
525.36092
 30
0.0
 11
511.153457
 21
525.36092
 31
0.0
  0
LINE
  5
6209
100
AcDbEntity
  8
0
100
AcDbLine
 10
535.653457
 20
528.36092
 30
0.0
 11
545.653457
 21
525.36092
 31
0.0
  0
LINE
  5
620A
100
AcDbEntity
  8
0
100
AcDbLine
 10
500.935457
 20
530.95492
 30
0.0
 11
501.919457
 21
530.16942
 31
0.0
  0
LINE
  5
620B
100
AcDbEntity
  8
0
100
AcDbLine
 10
504.132457
 20
529.00182
 30
0.0
 11
505.307457
 21
528.64032
 31
0.0
  0
LINE
  5
620C
100
AcDbEntity
  8
0
100
AcDbLine
 10
510.153457
 20
526.36092
 30
0.0
 11
510.153457
 21
528.361011
 31
0.0
  0
LINE
  5
620D
100
AcDbEntity
  8
0
100
AcDbLine
 10
505.307457
 20
528.64032
 30
0.0
 11
507.655457
 21
528.36102
 31
0.0
  0
ARC
  5
620E
100
AcDbEntity
  8
0
100
AcDbCircle
 10
511.153457
 20
526.36092
 30
0.0
 40
1.0
100
AcDbArc
 50
180.0
 51
270.0
  0
LINE
  5
620F
100
AcDbEntity
  8
0
100
AcDbLine
 10
502.993457
 20
529.51382
 30
0.0
 11
504.132457
 21
529.00182
 31
0.0
  0
LINE
  5
6210
100
AcDbEntity
  8
0
100
AcDbLine
 10
501.919457
 20
530.16942
 30
0.0
 11
502.993457
 21
529.51382
 31
0.0
  0
LINE
  5
6211
100
AcDbEntity
  8
0
100
AcDbLine
 10
499.323457
 20
532.83072
 30
0.0
 11
500.065457
 21
531.85012
 31
0.0
  0
LINE
  5
6212
100
AcDbEntity
  8
0
100
AcDbLine
 10
500.065457
 20
531.85012
 30
0.0
 11
500.935457
 21
530.95492
 31
0.0
  0
LINE
  5
6213
100
AcDbEntity
  8
0
100
AcDbLine
 10
498.258457
 20
534.94082
 30
0.0
 11
498.258457
 21
534.94082
 31
0.0
  0
LINE
  5
6214
100
AcDbEntity
  8
0
100
AcDbLine
 10
498.720457
 20
533.86992
 30
0.0
 11
499.323457
 21
532.83072
 31
0.0
  0
LINE
  5
6215
100
AcDbEntity
  8
0
100
AcDbLine
 10
498.258457
 20
534.94082
 30
0.0
 11
498.720457
 21
533.86992
 31
0.0
  0
LINE
  5
6217
100
AcDbEntity
  8
0
100
AcDbLine
 10
560.653457
 20
645.36062
 30
0.0
 11
545.653457
 21
645.36062
 31
0.0
  0
LINE
  5
6218
100
AcDbEntity
  8
0
100
AcDbLine
 10
596.653457
 20
622.36062
 30
0.0
 11
596.653457
 21
548.36092
 31
0.0
  0
LINE
  5
6219
100
AcDbEntity
  8
0
100
AcDbLine
 10
596.653457
 20
622.36062
 30
0.0
 11
596.653457
 21
548.36062
 31
0.0
  0
LINE
  5
621A
100
AcDbEntity
  8
0
100
AcDbLine
 10
593.481457
 20
607.83162
 30
0.0
 11
593.481457
 21
605.35562
 31
0.0
  0
LINE
  5
621B
100
AcDbEntity
  8
0
100
AcDbLine
 10
570.933457
 20
607.83162
 30
0.0
 11
570.933457
 21
605.35562
 31
0.0
  0
ARC
  5
621C
100
AcDbEntity
  8
0
100
AcDbCircle
 10
461.836207
 20
585.35582
 30
0.0
 40
110.915291
100
AcDbArc
 50
349.611834
 51
10.388166
  0
ARC
  5
621D
100
AcDbEntity
  8
0
100
AcDbCircle
 10
525.573554
 20
585.35582
 30
0.0
 40
70.791774
100
AcDbArc
 50
343.589583
 51
16.410417
  0
LINE
  5
621E
100
AcDbEntity
  8
0
100
AcDbLine
 10
593.481457
 20
542.85602
 30
0.0
 11
570.929457
 21
542.85602
 31
0.0
  0
LINE
  5
621F
100
AcDbEntity
  8
0
100
AcDbLine
 10
570.933457
 20
562.88002
 30
0.0
 11
593.481457
 21
562.88002
 31
0.0
  0
LINE
  5
6220
100
AcDbEntity
  8
0
100
AcDbLine
 10
570.933457
 20
565.35602
 30
0.0
 11
593.481457
 21
565.35602
 31
0.0
  0
ARC
  5
6221
100
AcDbEntity
  8
0
100
AcDbCircle
 10
577.618086
 20
552.88002
 30
0.0
 40
18.75224
100
AcDbArc
 50
327.773363
 51
32.226637
  0
LINE
  5
6222
100
AcDbEntity
  8
0
100
AcDbLine
 10
596.653457
 20
548.36092
 30
0.0
 11
593.481457
 21
542.85602
 31
0.0
  0
LINE
  5
6223
100
AcDbEntity
  8
0
100
AcDbLine
 10
593.481457
 20
542.88002
 30
0.0
 11
593.481457
 21
542.85602
 31
0.0
  0
LINE
  5
6224
100
AcDbEntity
  8
0
100
AcDbLine
 10
593.481457
 20
565.35602
 30
0.0
 11
593.481457
 21
562.88002
 31
0.0
  0
ARC
  5
6225
100
AcDbEntity
  8
0
100
AcDbCircle
 10
544.340488
 20
552.88002
 30
0.0
 40
28.411019
100
AcDbArc
 50
339.391769
 51
20.608231
  0
LINE
  5
6226
100
AcDbEntity
  8
0
100
AcDbLine
 10
570.933457
 20
542.86592
 30
0.0
 11
570.933457
 21
542.88992
 31
0.0
  0
LINE
  5
6227
100
AcDbEntity
  8
0
100
AcDbLine
 10
570.933457
 20
542.88002
 30
0.0
 11
570.929457
 21
542.85602
 31
0.0
  0
LINE
  5
6228
100
AcDbEntity
  8
0
100
AcDbLine
 10
570.933457
 20
565.35602
 30
0.0
 11
570.933457
 21
562.88002
 31
0.0
  0
LINE
  5
6229
100
AcDbEntity
  8
0
100
AcDbLine
 10
570.933457
 20
605.35562
 30
0.0
 11
593.481457
 21
605.35562
 31
0.0
  0
LINE
  5
622A
100
AcDbEntity
  8
0
100
AcDbLine
 10
569.249457
 20
643.13662
 30
0.0
 11
573.343457
 21
627.86062
 31
0.0
  0
LINE
  5
622B
100
AcDbEntity
  8
0
100
AcDbLine
 10
570.933457
 20
607.83162
 30
0.0
 11
593.481457
 21
607.83162
 31
0.0
  0
LINE
  5
622C
100
AcDbEntity
  8
0
100
AcDbLine
 10
570.933457
 20
627.85562
 30
0.0
 11
593.481457
 21
627.85562
 31
0.0
  0
LINE
  5
622D
100
AcDbEntity
  8
0
100
AcDbLine
 10
573.343457
 20
627.86062
 30
0.0
 11
593.478457
 21
627.86062
 31
0.0
  0
ARC
  5
622E
100
AcDbEntity
  8
0
100
AcDbCircle
 10
577.618281
 20
617.83162
 30
0.0
 40
18.752076
100
AcDbArc
 50
327.773046
 51
32.226954
  0
LINE
  5
622F
100
AcDbEntity
  8
0
100
AcDbLine
 10
593.481457
 20
627.85562
 30
0.0
 11
596.653457
 21
622.36062
 31
0.0
  0
LINE
  5
6230
100
AcDbEntity
  8
0
100
AcDbLine
 10
593.481457
 20
627.85562
 30
0.0
 11
593.481457
 21
627.83162
 31
0.0
  0
ARC
  5
6231
100
AcDbEntity
  8
0
100
AcDbCircle
 10
544.3408
 20
617.83162
 30
0.0
 40
28.410726
100
AcDbArc
 50
339.391547
 51
20.608453
  0
LINE
  5
6232
100
AcDbEntity
  8
0
100
AcDbLine
 10
570.933457
 20
627.85562
 30
0.0
 11
570.933457
 21
627.83162
 31
0.0
  0
ARC
  5
6233
100
AcDbEntity
  8
0
100
AcDbCircle
 10
566.351557
 20
642.36062
 30
0.0
 40
3.0
100
AcDbArc
 50
14.990962
 51
90.001911
  0
LINE
  5
6234
100
AcDbEntity
  8
0
100
AcDbLine
 10
560.653457
 20
645.36062
 30
0.0
 11
566.351457
 21
645.36062
 31
0.0
  0
LINE
  5
6235
100
AcDbEntity
  8
0
100
AcDbLine
 10
469.653457
 20
622.36062
 30
0.0
 11
469.653457
 21
548.36092
 31
0.0
  0
LINE
  5
6236
100
AcDbEntity
  8
0
100
AcDbLine
 10
495.373457
 20
607.83162
 30
0.0
 11
495.373457
 21
605.35562
 31
0.0
  0
LINE
  5
6237
100
AcDbEntity
  8
0
100
AcDbLine
 10
472.825457
 20
607.83162
 30
0.0
 11
472.825457
 21
605.35562
 31
0.0
  0
ARC
  5
6238
100
AcDbEntity
  8
0
100
AcDbCircle
 10
604.470706
 20
585.35582
 30
0.0
 40
110.915291
100
AcDbArc
 50
169.611834
 51
190.388166
  0
ARC
  5
6239
100
AcDbEntity
  8
0
100
AcDbCircle
 10
540.73336
 20
585.35582
 30
0.0
 40
70.791774
100
AcDbArc
 50
163.589583
 51
196.410417
  0
LINE
  5
623A
100
AcDbEntity
  8
0
100
AcDbLine
 10
472.825457
 20
542.85602
 30
0.0
 11
495.377457
 21
542.85602
 31
0.0
  0
LINE
  5
623B
100
AcDbEntity
  8
0
100
AcDbLine
 10
495.373457
 20
565.35602
 30
0.0
 11
472.825457
 21
565.35602
 31
0.0
  0
LINE
  5
623C
100
AcDbEntity
  8
0
100
AcDbLine
 10
495.373457
 20
562.88002
 30
0.0
 11
472.825457
 21
562.88002
 31
0.0
  0
ARC
  5
623D
100
AcDbEntity
  8
0
100
AcDbCircle
 10
521.966426
 20
552.88002
 30
0.0
 40
28.411019
100
AcDbArc
 50
159.391769
 51
200.608231
  0
LINE
  5
623E
100
AcDbEntity
  8
0
100
AcDbLine
 10
495.373457
 20
542.88002
 30
0.0
 11
495.377457
 21
542.85602
 31
0.0
  0
LINE
  5
623F
100
AcDbEntity
  8
0
100
AcDbLine
 10
495.373457
 20
565.35602
 30
0.0
 11
495.373457
 21
562.88002
 31
0.0
  0
ARC
  5
6240
100
AcDbEntity
  8
0
100
AcDbCircle
 10
488.688827
 20
552.88002
 30
0.0
 40
18.75224
100
AcDbArc
 50
147.773363
 51
212.226637
  0
LINE
  5
6241
100
AcDbEntity
  8
0
100
AcDbLine
 10
472.825457
 20
542.88002
 30
0.0
 11
472.825457
 21
542.85602
 31
0.0
  0
LINE
  5
6242
100
AcDbEntity
  8
0
100
AcDbLine
 10
469.653457
 20
548.36092
 30
0.0
 11
472.825457
 21
542.85602
 31
0.0
  0
LINE
  5
6243
100
AcDbEntity
  8
0
100
AcDbLine
 10
472.825457
 20
565.35602
 30
0.0
 11
472.825457
 21
562.88002
 31
0.0
  0
LINE
  5
6244
100
AcDbEntity
  8
0
100
AcDbLine
 10
495.373457
 20
605.35562
 30
0.0
 11
472.825457
 21
605.35562
 31
0.0
  0
LINE
  5
6245
100
AcDbEntity
  8
0
100
AcDbLine
 10
535.653457
 20
642.36062
 30
0.0
 11
507.655457
 21
642.36062
 31
0.0
  0
LINE
  5
6246
100
AcDbEntity
  8
0
100
AcDbLine
 10
545.653457
 20
645.36062
 30
0.0
 11
535.653457
 21
642.36062
 31
0.0
  0
LINE
  5
6247
100
AcDbEntity
  8
0
100
AcDbLine
 10
500.935457
 20
639.76662
 30
0.0
 11
500.065457
 21
638.87162
 31
0.0
  0
LINE
  5
6248
100
AcDbEntity
  8
0
100
AcDbLine
 10
495.373457
 20
607.83162
 30
0.0
 11
472.825457
 21
607.83162
 31
0.0
  0
LINE
  5
6249
100
AcDbEntity
  8
0
100
AcDbLine
 10
495.373457
 20
627.85562
 30
0.0
 11
472.825457
 21
627.85562
 31
0.0
  0
ARC
  5
624A
100
AcDbEntity
  8
0
100
AcDbCircle
 10
521.966113
 20
617.83162
 30
0.0
 40
28.410726
100
AcDbArc
 50
159.391547
 51
200.608453
  0
LINE
  5
624B
100
AcDbEntity
  8
0
100
AcDbLine
 10
498.258457
 20
635.78162
 30
0.0
 11
495.373457
 21
627.85562
 31
0.0
  0
LINE
  5
624C
100
AcDbEntity
  8
0
100
AcDbLine
 10
495.373457
 20
627.85562
 30
0.0
 11
495.373457
 21
627.83162
 31
0.0
  0
LINE
  5
624D
100
AcDbEntity
  8
0
100
AcDbLine
 10
499.323457
 20
637.89162
 30
0.0
 11
498.258457
 21
635.78162
 31
0.0
  0
LINE
  5
624E
100
AcDbEntity
  8
0
100
AcDbLine
 10
500.065457
 20
638.87162
 30
0.0
 11
499.323457
 21
637.89162
 31
0.0
  0
ARC
  5
624F
100
AcDbEntity
  8
0
100
AcDbCircle
 10
488.688633
 20
617.83162
 30
0.0
 40
18.752076
100
AcDbArc
 50
147.773046
 51
212.226954
  0
LINE
  5
6250
100
AcDbEntity
  8
0
100
AcDbLine
 10
472.825457
 20
627.85562
 30
0.0
 11
469.653457
 21
622.36062
 31
0.0
  0
LINE
  5
6251
100
AcDbEntity
  8
0
100
AcDbLine
 10
472.825457
 20
627.85562
 30
0.0
 11
472.825457
 21
627.83162
 31
0.0
  0
LINE
  5
6252
100
AcDbEntity
  8
0
100
AcDbLine
 10
501.919457
 20
640.55262
 30
0.0
 11
500.935457
 21
639.76662
 31
0.0
  0
LINE
  5
6253
100
AcDbEntity
  8
0
100
AcDbLine
 10
506.490457
 20
642.29262
 30
0.0
 11
505.307457
 21
642.08162
 31
0.0
  0
LINE
  5
6254
100
AcDbEntity
  8
0
100
AcDbLine
 10
505.307457
 20
642.08162
 30
0.0
 11
504.132457
 21
641.71962
 31
0.0
  0
LINE
  5
6255
100
AcDbEntity
  8
0
100
AcDbLine
 10
507.655457
 20
642.36062
 30
0.0
 11
507.655457
 21
642.36062
 31
0.0
  0
LINE
  5
6256
100
AcDbEntity
  8
0
100
AcDbLine
 10
507.655457
 20
642.36062
 30
0.0
 11
506.490457
 21
642.29262
 31
0.0
  0
LINE
  5
6257
100
AcDbEntity
  8
0
100
AcDbLine
 10
504.132457
 20
641.71962
 30
0.0
 11
502.993457
 21
641.20762
 31
0.0
  0
LINE
  5
6258
100
AcDbEntity
  8
0
100
AcDbLine
 10
502.993457
 20
641.20762
 30
0.0
 11
501.919457
 21
640.55262
 31
0.0
  0
TEXT
  5
6265
100
AcDbEntity
  8
0
100
AcDbText
 10
503.48314
 20
107.254026
 30
0.0
 40
15.0
  1
50A
 41
0.8
 11
503.48314
 21
107.254026
 31
0.0
100
AcDbText
 73
     1
  0
INSERT
  5
6266
100
AcDbEntity
  8
0
100
AcDbBlockReference
  2
YA
 10
403.263209
 20
936.838575
 30
0.0
 41
3.0
 42
3.0
 43
3.0
  0
INSERT
  5
6267
100
AcDbEntity
  8
0
100
AcDbBlockReference
  2
YA
 10
855.128979
 20
936.838575
 30
0.0
 41
3.0
 42
3.0
 43
3.0
  0
INSERT
  5
6268
100
AcDbEntity
  8
0
100
AcDbBlockReference
  2
YA
 10
514.263209
 20
1076.903391
 30
0.0
 41
-3.0
 42
3.0
 43
3.0
  0
LINE
  5
626B
100
AcDbEntity
  8
0
100
AcDbLine
 10
499.011509
 20
1089.488678
 30
0.0
 11
499.011509
 21
1087.282818
 31
0.0
  0
ARC
  5
626C
100
AcDbEntity
  8
0
100
AcDbCircle
 10
492.314201
 20
1094.639887
 30
0.0
 40
8.449195
100
AcDbArc
 50
322.434453
 51
26.321881
  0
ARC
  5
626F
100
AcDbEntity
  8
0
100
AcDbCircle
 10
469.136518
 20
1076.903391
 30
0.0
 40
31.626691
100
AcDbArc
 50
340.84131
 51
19.15869
  0
ARC
  5
6270
100
AcDbEntity
  8
0
100
AcDbCircle
 10
469.136518
 20
1076.903391
 30
0.0
 40
31.626691
100
AcDbArc
 50
340.84131
 51
19.15869
  0
LINE
  5
6271
100
AcDbEntity
  8
0
100
AcDbLine
 10
499.011509
 20
1064.318104
 30
0.0
 11
499.011509
 21
1066.523964
 31
0.0
  0
ARC
  5
6272
100
AcDbEntity
  8
0
100
AcDbCircle
 10
492.314201
 20
1059.166895
 30
0.0
 40
8.449195
100
AcDbArc
 50
333.678119
 51
37.565547
  0
LINE
  5
6273
100
AcDbEntity
  8
0
100
AcDbLine
 10
500.763209
 20
1056.937424
 30
0.0
 11
499.011509
 21
1053.903391
 31
0.0
  0
ARC
  5
62CE
100
AcDbEntity
  8
0
100
AcDbCircle
 10
448.389901
 20
1076.903391
 30
0.0
 40
31.626691
100
AcDbArc
 50
160.84131
 51
199.15869
  0
ARC
  5
62CF
100
AcDbEntity
  8
0
100
AcDbCircle
 10
448.389901
 20
1076.903391
 30
0.0
 40
31.626691
100
AcDbArc
 50
160.84131
 51
199.15869
  0
LINE
  5
62D0
100
AcDbEntity
  8
0
100
AcDbLine
 10
416.763209
 20
1056.937424
 30
0.0
 11
416.763209
 21
1076.903391
 31
0.0
  0
ARC
  5
62D1
100
AcDbEntity
  8
0
100
AcDbCircle
 10
425.212218
 20
1059.166895
 30
0.0
 40
8.449195
100
AcDbArc
 50
142.434453
 51
206.321881
  0
LINE
  5
62D2
100
AcDbEntity
  8
0
100
AcDbLine
 10
416.763209
 20
1056.937424
 30
0.0
 11
418.514909
 21
1053.903391
 31
0.0
  0
LINE
  5
62D3
100
AcDbEntity
  8
0
100
AcDbLine
 10
418.514909
 20
1064.318104
 30
0.0
 11
418.514909
 21
1066.523964
 31
0.0
  0
ARC
  5
62D4
100
AcDbEntity
  8
0
100
AcDbCircle
 10
425.212218
 20
1094.639887
 30
0.0
 40
8.449195
100
AcDbArc
 50
153.678119
 51
217.565547
  0
LINE
  5
62D5
100
AcDbEntity
  8
0
100
AcDbLine
 10
416.763209
 20
1096.869358
 30
0.0
 11
416.763209
 21
1076.903391
 31
0.0
  0
LINE
  5
62D6
100
AcDbEntity
  8
0
100
AcDbLine
 10
418.514909
 20
1089.488678
 30
0.0
 11
418.514909
 21
1087.282818
 31
0.0
  0
LINE
  5
62D7
100
AcDbEntity
  8
0
100
AcDbLine
 10
416.763209
 20
1096.869358
 30
0.0
 11
418.514909
 21
1099.903391
 31
0.0
  0
LINE
  5
62D8
100
AcDbEntity
  8
0
100
AcDbLine
 10
416.763209
 20
785.098382
 30
0.0
 11
416.763209
 21
805.064348
 31
0.0
  0
ARC
  5
62D9
100
AcDbEntity
  8
0
100
AcDbCircle
 10
448.389901
 20
805.064348
 30
0.0
 40
31.626691
100
AcDbArc
 50
160.84131
 51
199.15869
  0
ARC
  5
62DA
100
AcDbEntity
  8
0
100
AcDbCircle
 10
448.389901
 20
805.064348
 30
0.0
 40
31.626691
100
AcDbArc
 50
160.84131
 51
199.15869
  0
ARC
  5
62DB
100
AcDbEntity
  8
0
100
AcDbCircle
 10
425.212218
 20
787.327852
 30
0.0
 40
8.449195
100
AcDbArc
 50
142.434453
 51
206.321881
  0
LINE
  5
62DC
100
AcDbEntity
  8
0
100
AcDbLine
 10
416.763209
 20
785.098382
 30
0.0
 11
418.514909
 21
782.064348
 31
0.0
  0
LINE
  5
62DD
100
AcDbEntity
  8
0
100
AcDbLine
 10
418.514909
 20
792.479062
 30
0.0
 11
418.514909
 21
794.684922
 31
0.0
  0
LINE
  5
62DE
100
AcDbEntity
  8
0
100
AcDbLine
 10
416.763209
 20
825.030315
 30
0.0
 11
416.763209
 21
805.064348
 31
0.0
  0
ARC
  5
62DF
100
AcDbEntity
  8
0
100
AcDbCircle
 10
425.212218
 20
822.800844
 30
0.0
 40
8.449195
100
AcDbArc
 50
153.678119
 51
217.565547
  0
LINE
  5
62E0
100
AcDbEntity
  8
0
100
AcDbLine
 10
418.514909
 20
817.649635
 30
0.0
 11
418.514909
 21
815.443775
 31
0.0
  0
LINE
  5
62E1
100
AcDbEntity
  8
0
100
AcDbLine
 10
416.763209
 20
825.030315
 30
0.0
 11
418.514909
 21
828.064348
 31
0.0
  0
ARC
  5
62E2
100
AcDbEntity
  8
0
100
AcDbCircle
 10
469.136518
 20
805.064348
 30
0.0
 40
31.626691
100
AcDbArc
 50
340.84131
 51
19.15869
  0
ARC
  5
62E3
100
AcDbEntity
  8
0
100
AcDbCircle
 10
469.136518
 20
805.064348
 30
0.0
 40
31.626691
100
AcDbArc
 50
340.84131
 51
19.15869
  0
LINE
  5
62E4
100
AcDbEntity
  8
0
100
AcDbLine
 10
500.763209
 20
785.098382
 30
0.0
 11
500.763209
 21
805.064348
 31
0.0
  0
ARC
  5
62E5
100
AcDbEntity
  8
0
100
AcDbCircle
 10
492.314201
 20
787.327852
 30
0.0
 40
8.449195
100
AcDbArc
 50
333.678119
 51
37.565547
  0
LINE
  5
62E6
100
AcDbEntity
  8
0
100
AcDbLine
 10
500.763209
 20
785.098382
 30
0.0
 11
499.011509
 21
782.064348
 31
0.0
  0
LINE
  5
62E7
100
AcDbEntity
  8
0
100
AcDbLine
 10
499.011509
 20
792.479062
 30
0.0
 11
499.011509
 21
794.684922
 31
0.0
  0
ARC
  5
62E8
100
AcDbEntity
  8
0
100
AcDbCircle
 10
492.314201
 20
822.800844
 30
0.0
 40
8.449195
100
AcDbArc
 50
322.434453
 51
26.321881
  0
LINE
  5
62E9
100
AcDbEntity
  8
0
100
AcDbLine
 10
500.763209
 20
825.030315
 30
0.0
 11
500.763209
 21
805.064348
 31
0.0
  0
LINE
  5
62EA
100
AcDbEntity
  8
0
100
AcDbLine
 10
499.011509
 20
817.649635
 30
0.0
 11
499.011509
 21
815.443775
 31
0.0
  0
LINE
  5
62EB
100
AcDbEntity
  8
0
100
AcDbLine
 10
500.763209
 20
825.030315
 30
0.0
 11
499.011509
 21
828.064348
 31
0.0
  0
INSERT
  5
630D
100
AcDbEntity
  8
0
100
AcDbBlockReference
  2
YA
 10
456.153457
 20
211.14317
 30
0.0
 41
3.0
 42
3.0
 43
3.0
  0
INSERT
  5
630E
100
AcDbEntity
  8
0
100
AcDbBlockReference
  2
YA
 10
456.153457
 20
404.0916
 30
0.0
 41
3.0
 42
3.0
 43
3.0
  0
INSERT
  5
630F
100
AcDbEntity
  8
0
100
AcDbBlockReference
  2
YA
 10
609.577199
 20
585.36082
 30
0.0
 41
-3.0
 42
3.0
 43
3.0
  0
INSERT
  5
6310
100
AcDbEntity
  8
0
100
AcDbBlockReference
  2
YA
 10
1447.221701
 20
585.36077
 30
0.0
 41
-3.0
 42
3.0
 43
3.0
  0
ARC
  5
6392
100
AcDbEntity
  8
0
100
AcDbCircle
 10
1261.468972
 20
585.42877
 30
0.0
 40
140.472339
100
AcDbArc
 50
353.358729
 51
6.641271
  0
ARC
  5
6393
100
AcDbEntity
  8
0
100
AcDbCircle
 10
1309.773452
 20
556.03977
 30
0.0
 40
92.167155
100
AcDbArc
 50
351.801698
 51
8.198302
  0
ARC
  5
6394
100
AcDbEntity
  8
0
100
AcDbCircle
 10
1388.005952
 20
537.87647
 30
0.0
 40
13.928925
100
AcDbArc
 50
338.873846
 51
21.126154
  0
ARC
  5
6398
100
AcDbEntity
  8
0
100
AcDbCircle
 10
1309.769982
 20
614.81827
 30
0.0
 40
92.170661
100
AcDbArc
 50
351.801698
 51
8.198302
  0
ARC
  5
6399
100
AcDbEntity
  8
0
100
AcDbCircle
 10
1388.006429
 20
632.98177
 30
0.0
 40
13.928371
100
AcDbArc
 50
338.874288
 51
21.125712
  0
LINE
  5
63A4
100
AcDbEntity
  8
0
100
AcDbLine
 10
1401.730701
 20
530.78777
 30
0.0
 11
1401.730701
 21
527.36077
 31
0.0
  0
LINE
  5
6439
100
AcDbEntity
  8
0
100
AcDbLine
 10
1156.382034
 20
191.14367
 30
0.0
 11
1152.146034
 21
191.14367
 31
0.0
  0
LINE
  5
643E
100
AcDbEntity
  8
0
100
AcDbLine
 10
1156.382034
 20
231.14267
 30
0.0
 11
1152.146034
 21
231.14267
 31
0.0
  0
LINE
  5
6655
100
AcDbEntity
  8
0
100
AcDbLine
 10
1314.472955
 20
660.86077
 30
0.0
 11
1377.131538
 21
660.86077
 31
0.0
  0
LINE
  5
6656
100
AcDbEntity
  8
0
100
AcDbLine
 10
1264.504701
 20
637.93377
 30
0.0
 11
1292.575574
 21
637.93377
 31
0.0
  0
LINE
  5
6657
100
AcDbEntity
  8
0
100
AcDbLine
 10
1264.504701
 20
627.89277
 30
0.0
 11
1295.462701
 21
627.89277
 31
0.0
  0
LINE
  5
6677
100
AcDbEntity
  8
0
100
AcDbLine
 10
1296.905675
 20
640.433724
 30
0.0
 11
1305.812754
 21
655.860862
 31
0.0
  0
ARC
  5
6678
100
AcDbEntity
  8
0
100
AcDbCircle
 10
1308.31777
 20
632.91327
 30
0.0
 40
13.80066
100
AcDbArc
 50
158.667052
 51
201.332948
  0
LINE
  5
6697
100
AcDbEntity
  8
0
100
AcDbLine
 10
1392.004427
 20
645.36077
 30
0.0
 11
1393.730701
 21
645.36077
 31
0.0
  0
LINE
  5
669E
100
AcDbEntity
  8
0
100
AcDbLine
 10
1386.194504
 20
655.087193
 30
0.0
 11
1390.191834
 21
646.515485
 31
0.0
  0
LINE
  5
66A3
100
AcDbEntity
  8
0
100
AcDbLine
 10
1393.730701
 20
645.36077
 30
0.0
 11
1393.730701
 21
525.36077
 31
0.0
  0
LINE
  5
66A4
100
AcDbEntity
  8
0
100
AcDbLine
 10
1383.502701
 20
653.90477
 30
0.0
 11
1383.502701
 21
516.81577
 31
0.0
  0
ARC
  5
66A7
100
AcDbEntity
  8
0
100
AcDbCircle
 10
1386.33818
 20
614.74977
 30
0.0
 40
91.820973
100
AcDbArc
 50
171.770575
 51
188.229425
  0
LINE
  5
66A8
100
AcDbEntity
  8
0
100
AcDbLine
 10
1308.698701
 20
653.90477
 30
0.0
 11
1308.698701
 21
516.81577
 31
0.0
  0
ARC
  5
66AB
100
AcDbEntity
  8
0
100
AcDbCircle
 10
1386.341637
 20
555.97127
 30
0.0
 40
91.824466
100
AcDbArc
 50
171.770575
 51
188.229425
  0
LINE
  5
66AD
100
AcDbEntity
  8
0
100
AcDbLine
 10
1264.504701
 20
532.78777
 30
0.0
 11
1292.575701
 21
532.78777
 31
0.0
  0
LINE
  5
66AE
100
AcDbEntity
  8
0
100
AcDbLine
 10
1264.504701
 20
542.82777
 30
0.0
 11
1295.462701
 21
542.82777
 31
0.0
  0
ARC
  5
66C8
100
AcDbEntity
  8
0
100
AcDbCircle
 10
1308.316197
 20
537.80777
 30
0.0
 40
13.799013
100
AcDbArc
 50
158.666609
 51
201.333391
  0
LINE
  5
66D1
100
AcDbEntity
  8
0
100
AcDbLine
 10
1264.504701
 20
601.60677
 30
0.0
 11
1295.462701
 21
601.60677
 31
0.0
  0
LINE
  5
66D2
100
AcDbEntity
  8
0
100
AcDbLine
 10
1264.504701
 20
569.11477
 30
0.0
 11
1295.462701
 21
569.11477
 31
0.0
  0
ARC
  5
66FF
100
AcDbEntity
  8
0
100
AcDbCircle
 10
1434.560389
 20
585.36077
 30
0.0
 40
140.043205
100
AcDbArc
 50
173.338286
 51
186.661714
  0
ARC
  5
6731
100
AcDbEntity
  8
0
100
AcDbCircle
 10
1270.397522
 20
632.800327
 30
0.0
 40
7.667324
100
AcDbArc
 50
153.601829
 51
219.786661
  0
LINE
  5
6732
100
AcDbEntity
  8
0
100
AcDbLine
 10
1262.730701
 20
585.36077
 30
0.0
 11
1262.730701
 21
634.86077
 31
0.0
  0
ARC
  5
6733
100
AcDbEntity
  8
0
100
AcDbCircle
 10
1337.965389
 20
585.36077
 30
0.0
 40
75.234688
100
AcDbArc
 50
167.529458
 51
192.470542
  0
LINE
  5
6734
100
AcDbEntity
  8
0
100
AcDbLine
 10
1262.730701
 20
585.36077
 30
0.0
 11
1262.730701
 21
535.86077
 31
0.0
  0
ARC
  5
6735
100
AcDbEntity
  8
0
100
AcDbCircle
 10
1312.280246
 20
555.97127
 30
0.0
 40
49.549559
100
AcDbArc
 50
164.617616
 51
195.382384
  0
LINE
  5
6736
100
AcDbEntity
  8
0
100
AcDbLine
 10
1262.730701
 20
535.86077
 30
0.0
 11
1264.505701
 21
532.78677
 31
0.0
  0
LINE
  5
6737
100
AcDbEntity
  8
0
100
AcDbLine
 10
1263.816701
 20
533.97977
 30
0.0
 11
1263.619701
 21
534.33077
 31
0.0
  0
ARC
  5
6738
100
AcDbEntity
  8
0
100
AcDbCircle
 10
1270.397522
 20
537.921213
 30
0.0
 40
7.667324
100
AcDbArc
 50
140.213339
 51
206.398171
  0
ARC
  5
6739
100
AcDbEntity
  8
0
100
AcDbCircle
 10
1312.280246
 20
614.75027
 30
0.0
 40
49.549559
100
AcDbArc
 50
164.617616
 51
195.382384
  0
LINE
  5
673A
100
AcDbEntity
  8
0
100
AcDbLine
 10
1263.816701
 20
636.74177
 30
0.0
 11
1263.619701
 21
636.39077
 31
0.0
  0
LINE
  5
673B
100
AcDbEntity
  8
0
100
AcDbLine
 10
1262.730701
 20
634.86077
 30
0.0
 11
1264.505701
 21
637.93477
 31
0.0
  0
ARC
  5
673D
100
AcDbEntity
  8
0
100
AcDbCircle
 10
1314.472955
 20
650.86077
 30
0.0
 40
10.0
100
AcDbArc
 50
90.0
 51
149.999394
  0
ARC
  5
673F
100
AcDbEntity
  8
0
100
AcDbCircle
 10
1292.575574
 20
642.93377
 30
0.0
 40
5.0
100
AcDbArc
 50
270.0
 51
329.999394
  0
ARC
  5
6742
100
AcDbEntity
  8
0
100
AcDbCircle
 10
1392.004427
 20
647.36077
 30
0.0
 40
2.0
100
AcDbArc
 50
205.001521
 51
270.0
  0
ARC
  5
6743
100
AcDbEntity
  8
0
100
AcDbCircle
 10
1377.131538
 20
650.86077
 30
0.0
 40
10.0
100
AcDbArc
 50
25.001521
 51
90.0
  0
ARC
  5
6744
100
AcDbEntity
  8
0
100
AcDbCircle
 10
1314.472955
 20
519.86077
 30
0.0
 40
10.0
100
AcDbArc
 50
210.000606
 51
270.0
  0
LINE
  5
6745
100
AcDbEntity
  8
0
100
AcDbLine
 10
1296.905675
 20
530.287816
 30
0.0
 11
1305.812754
 21
514.860678
 31
0.0
  0
ARC
  5
6746
100
AcDbEntity
  8
0
100
AcDbCircle
 10
1292.575574
 20
527.78777
 30
0.0
 40
5.0
100
AcDbArc
 50
30.000606
 51
90.0
  0
ARC
  5
6747
100
AcDbEntity
  8
0
100
AcDbCircle
 10
1377.131538
 20
519.86077
 30
0.0
 40
10.0
100
AcDbArc
 50
270.0
 51
334.998479
  0
LINE
  5
6748
100
AcDbEntity
  8
0
100
AcDbLine
 10
1314.472955
 20
509.86077
 30
0.0
 11
1377.131538
 21
509.86077
 31
0.0
  0
LINE
  5
6749
100
AcDbEntity
  8
0
100
AcDbLine
 10
1386.194504
 20
515.634347
 30
0.0
 11
1390.191834
 21
524.206055
 31
0.0
  0
ARC
  5
674A
100
AcDbEntity
  8
0
100
AcDbCircle
 10
1392.004427
 20
523.36077
 30
0.0
 40
2.0
100
AcDbArc
 50
90.0
 51
154.998479
  0
LINE
  5
674B
100
AcDbEntity
  8
0
100
AcDbLine
 10
1392.004427
 20
525.36077
 30
0.0
 11
1393.730701
 21
525.36077
 31
0.0
  0
LINE
  5
67E6
100
AcDbEntity
  8
0
100
AcDbLine
 10
1262.730701
 20
211.14317
 30
0.0
 11
1262.730701
 21
260.64317
 31
0.0
  0
ARC
  5
67E7
100
AcDbEntity
  8
0
100
AcDbCircle
 10
1270.397522
 20
258.582727
 30
0.0
 40
7.667324
100
AcDbArc
 50
153.601829
 51
219.786661
  0
ARC
  5
67E8
100
AcDbEntity
  8
0
100
AcDbCircle
 10
1308.454973
 20
258.76417
 30
0.0
 40
13.928371
100
AcDbArc
 50
158.874288
 51
201.125712
  0
LINE
  5
67E9
100
AcDbEntity
  8
0
100
AcDbLine
 10
1433.730701
 20
211.14317
 30
0.0
 11
1433.730701
 21
260.64317
 31
0.0
  0
ARC
  5
67EA
100
AcDbEntity
  8
0
100
AcDbCircle
 10
1426.06388
 20
258.582727
 30
0.0
 40
7.667324
100
AcDbArc
 50
320.213339
 51
26.398171
  0
LINE
  5
67EB
100
AcDbEntity
  8
0
100
AcDbLine
 10
1387.762701
 20
279.68717
 30
0.0
 11
1387.762701
 21
142.59817
 31
0.0
  0
LINE
  5
67EC
100
AcDbEntity
  8
0
100
AcDbLine
 10
1312.958701
 20
279.68717
 30
0.0
 11
1312.958701
 21
142.59817
 31
0.0
  0
LINE
  5
67ED
100
AcDbEntity
  8
0
100
AcDbLine
 10
1302.730701
 20
271.14317
 30
0.0
 11
1302.730701
 21
151.14317
 31
0.0
  0
ARC
  5
67EE
100
AcDbEntity
  8
0
100
AcDbCircle
 10
1388.143632
 20
258.69567
 30
0.0
 40
13.80066
100
AcDbArc
 50
338.667052
 51
21.332948
  0
ARC
  5
67EF
100
AcDbEntity
  8
0
100
AcDbCircle
 10
1381.988447
 20
145.64317
 30
0.0
 40
10.0
100
AcDbArc
 50
270.0
 51
329.999394
  0
ARC
  5
67F0
100
AcDbEntity
  8
0
100
AcDbCircle
 10
1403.885828
 20
153.57017
 30
0.0
 40
5.0
100
AcDbArc
 50
90.0
 51
149.999394
  0
LINE
  5
67F1
100
AcDbEntity
  8
0
100
AcDbLine
 10
1399.555727
 20
156.070216
 30
0.0
 11
1390.648648
 21
140.643078
 31
0.0
  0
LINE
  5
67F2
100
AcDbEntity
  8
0
100
AcDbLine
 10
1433.730701
 20
211.14317
 30
0.0
 11
1433.730701
 21
161.64317
 31
0.0
  0
ARC
  5
67F3
100
AcDbEntity
  8
0
100
AcDbCircle
 10
1358.496013
 20
211.14317
 30
0.0
 40
75.234688
100
AcDbArc
 50
347.529458
 51
12.470542
  0
ARC
  5
67F4
100
AcDbEntity
  8
0
100
AcDbCircle
 10
1261.901013
 20
211.14317
 30
0.0
 40
140.043205
100
AcDbArc
 50
353.338286
 51
6.661714
  0
LINE
  5
67F5
100
AcDbEntity
  8
0
100
AcDbLine
 10
1431.956701
 20
194.89717
 30
0.0
 11
1400.998701
 21
194.89717
 31
0.0
  0
LINE
  5
67F6
100
AcDbEntity
  8
0
100
AcDbLine
 10
1431.956701
 20
168.61017
 30
0.0
 11
1400.998701
 21
168.61017
 31
0.0
  0
LINE
  5
67F7
100
AcDbEntity
  8
0
100
AcDbLine
 10
1431.956701
 20
158.57017
 30
0.0
 11
1403.885701
 21
158.57017
 31
0.0
  0
ARC
  5
67F8
100
AcDbEntity
  8
0
100
AcDbCircle
 10
1384.181156
 20
181.75367
 30
0.0
 40
49.549559
100
AcDbArc
 50
344.617616
 51
15.382384
  0
ARC
  5
67F9
100
AcDbEntity
  8
0
100
AcDbCircle
 10
1426.06388
 20
163.703613
 30
0.0
 40
7.667324
100
AcDbArc
 50
333.601829
 51
39.786661
  0
LINE
  5
67FA
100
AcDbEntity
  8
0
100
AcDbLine
 10
1432.644701
 20
159.76217
 30
0.0
 11
1432.841701
 21
160.11317
 31
0.0
  0
LINE
  5
67FB
100
AcDbEntity
  8
0
100
AcDbLine
 10
1433.730701
 20
161.64317
 30
0.0
 11
1431.955701
 21
158.56917
 31
0.0
  0
ARC
  5
67FC
100
AcDbEntity
  8
0
100
AcDbCircle
 10
1310.119765
 20
181.75367
 30
0.0
 40
91.824466
100
AcDbArc
 50
351.770575
 51
8.229425
  0
ARC
  5
67FD
100
AcDbEntity
  8
0
100
AcDbCircle
 10
1388.145205
 20
163.59017
 30
0.0
 40
13.799013
100
AcDbArc
 50
338.666609
 51
21.333391
  0
LINE
  5
67FE
100
AcDbEntity
  8
0
100
AcDbLine
 10
1431.956701
 20
227.38917
 30
0.0
 11
1400.998701
 21
227.38917
 31
0.0
  0
LINE
  5
67FF
100
AcDbEntity
  8
0
100
AcDbLine
 10
1431.956701
 20
253.67517
 30
0.0
 11
1400.998701
 21
253.67517
 31
0.0
  0
ARC
  5
6800
100
AcDbEntity
  8
0
100
AcDbCircle
 10
1384.181156
 20
240.53267
 30
0.0
 40
49.549559
100
AcDbArc
 50
344.617616
 51
15.382384
  0
ARC
  5
6801
100
AcDbEntity
  8
0
100
AcDbCircle
 10
1310.123223
 20
240.53217
 30
0.0
 40
91.820973
100
AcDbArc
 50
351.770575
 51
8.229425
  0
ARC
  5
6803
100
AcDbEntity
  8
0
100
AcDbCircle
 10
1292.730701
 20
156.57017
 30
0.0
 40
2.0
100
AcDbArc
 50
0.0
 51
90.0
  0
ARC
  5
6804
100
AcDbEntity
  8
0
100
AcDbCircle
 10
1319.329864
 20
145.64317
 30
0.0
 40
10.0
100
AcDbArc
 50
205.001521
 51
270.0
  0
LINE
  5
6805
100
AcDbEntity
  8
0
100
AcDbLine
 10
1381.988447
 20
135.64317
 30
0.0
 11
1319.329864
 21
135.64317
 31
0.0
  0
LINE
  5
6806
100
AcDbEntity
  8
0
100
AcDbLine
 10
1296.739701
 20
151.14317
 30
0.0
 11
1302.730701
 21
151.14317
 31
0.0
  0
LINE
  5
6807
100
AcDbEntity
  8
0
100
AcDbLine
 10
1304.456975
 20
151.14317
 30
0.0
 11
1302.730701
 21
151.14317
 31
0.0
  0
ARC
  5
6808
100
AcDbEntity
  8
0
100
AcDbCircle
 10
1304.456975
 20
149.14317
 30
0.0
 40
2.0
100
AcDbArc
 50
25.001521
 51
90.0
  0
LINE
  5
6809
100
AcDbEntity
  8
0
100
AcDbLine
 10
1310.266898
 20
141.416747
 30
0.0
 11
1306.269568
 21
149.988455
 31
0.0
  0
ARC
  5
680A
100
AcDbEntity
  8
0
100
AcDbCircle
 10
1296.730701
 20
153.14317
 30
0.0
 40
2.0
100
AcDbArc
 50
180.0
 51
270.0
  0
LINE
  5
680B
100
AcDbEntity
  8
0
100
AcDbLine
 10
1294.730701
 20
156.57017
 30
0.0
 11
1294.730701
 21
153.14317
 31
0.0
  0
LINE
  5
680C
100
AcDbEntity
  8
0
100
AcDbLine
 10
1262.730701
 20
211.14317
 30
0.0
 11
1262.730701
 21
161.64317
 31
0.0
  0
ARC
  5
680D
100
AcDbEntity
  8
0
100
AcDbCircle
 10
1337.965389
 20
211.14317
 30
0.0
 40
75.234688
100
AcDbArc
 50
167.529458
 51
192.470542
  0
ARC
  5
680E
100
AcDbEntity
  8
0
100
AcDbCircle
 10
1434.992431
 20
211.21117
 30
0.0
 40
140.472339
100
AcDbArc
 50
173.358729
 51
186.641271
  0
LINE
  5
680F
100
AcDbEntity
  8
0
100
AcDbLine
 10
1264.505701
 20
158.57017
 30
0.0
 11
1292.730701
 21
158.57017
 31
0.0
  0
LINE
  5
6810
100
AcDbEntity
  8
0
100
AcDbLine
 10
1264.496701
 20
168.61117
 30
0.0
 11
1295.43663
 21
168.61117
 31
0.0
  0
LINE
  5
6811
100
AcDbEntity
  8
0
100
AcDbLine
 10
1264.496701
 20
194.89717
 30
0.0
 11
1295.45293
 21
194.89717
 31
0.0
  0
ARC
  5
6812
100
AcDbEntity
  8
0
100
AcDbCircle
 10
1386.68795
 20
181.82217
 30
0.0
 40
92.167155
100
AcDbArc
 50
171.801698
 51
188.198302
  0
ARC
  5
6813
100
AcDbEntity
  8
0
100
AcDbCircle
 10
1308.455451
 20
163.65887
 30
0.0
 40
13.928925
100
AcDbArc
 50
158.873846
 51
201.126154
  0
ARC
  5
6814
100
AcDbEntity
  8
0
100
AcDbCircle
 10
1312.280246
 20
181.75367
 30
0.0
 40
49.549559
100
AcDbArc
 50
164.617616
 51
195.382384
  0
ARC
  5
6815
100
AcDbEntity
  8
0
100
AcDbCircle
 10
1270.397522
 20
163.703613
 30
0.0
 40
7.667324
100
AcDbArc
 50
140.213339
 51
206.398171
  0
LINE
  5
6816
100
AcDbEntity
  8
0
100
AcDbLine
 10
1263.816701
 20
159.76217
 30
0.0
 11
1263.619701
 21
160.11317
 31
0.0
  0
LINE
  5
6817
100
AcDbEntity
  8
0
100
AcDbLine
 10
1262.730701
 20
161.64317
 30
0.0
 11
1264.505701
 21
158.56917
 31
0.0
  0
LINE
  5
6818
100
AcDbEntity
  8
0
100
AcDbLine
 10
1264.496701
 20
227.38917
 30
0.0
 11
1295.4548
 21
227.38917
 31
0.0
  0
LINE
  5
6819
100
AcDbEntity
  8
0
100
AcDbLine
 10
1264.496701
 20
253.67617
 30
0.0
 11
1295.45293
 21
253.67617
 31
0.0
  0
ARC
  5
681A
100
AcDbEntity
  8
0
100
AcDbCircle
 10
1386.69142
 20
240.60067
 30
0.0
 40
92.170661
100
AcDbArc
 50
171.801698
 51
188.198302
  0
ARC
  5
681B
100
AcDbEntity
  8
0
100
AcDbCircle
 10
1312.280246
 20
240.53267
 30
0.0
 40
49.549559
100
AcDbArc
 50
164.617616
 51
195.382384
  0
ARC
  5
681C
100
AcDbEntity
  8
0
100
AcDbCircle
 10
1381.988447
 20
276.64317
 30
0.0
 40
10.0
100
AcDbArc
 50
30.000606
 51
90.0
  0
LINE
  5
681D
100
AcDbEntity
  8
0
100
AcDbLine
 10
1431.956701
 20
263.71617
 30
0.0
 11
1403.885828
 21
263.71617
 31
0.0
  0
LINE
  5
681E
100
AcDbEntity
  8
0
100
AcDbLine
 10
1433.730701
 20
260.64317
 30
0.0
 11
1431.955701
 21
263.71717
 31
0.0
  0
LINE
  5
681F
100
AcDbEntity
  8
0
100
AcDbLine
 10
1432.644701
 20
262.52417
 30
0.0
 11
1432.841701
 21
262.17317
 31
0.0
  0
LINE
  5
6820
100
AcDbEntity
  8
0
100
AcDbLine
 10
1399.555727
 20
266.216124
 30
0.0
 11
1390.648648
 21
281.643262
 31
0.0
  0
ARC
  5
6821
100
AcDbEntity
  8
0
100
AcDbCircle
 10
1403.885828
 20
268.71617
 30
0.0
 40
5.0
100
AcDbArc
 50
210.000606
 51
270.0
  0
ARC
  5
6822
100
AcDbEntity
  8
0
100
AcDbCircle
 10
1319.329864
 20
276.64317
 30
0.0
 40
10.0
100
AcDbArc
 50
90.0
 51
154.998479
  0
LINE
  5
6823
100
AcDbEntity
  8
0
100
AcDbLine
 10
1381.988447
 20
286.64317
 30
0.0
 11
1319.329864
 21
286.64317
 31
0.0
  0
LINE
  5
6824
100
AcDbEntity
  8
0
100
AcDbLine
 10
1264.505701
 20
263.71617
 30
0.0
 11
1292.730701
 21
263.71617
 31
0.0
  0
LINE
  5
6825
100
AcDbEntity
  8
0
100
AcDbLine
 10
1310.266898
 20
280.869593
 30
0.0
 11
1306.269568
 21
272.297885
 31
0.0
  0
LINE
  5
6826
100
AcDbEntity
  8
0
100
AcDbLine
 10
1296.739701
 20
271.14317
 30
0.0
 11
1302.730701
 21
271.14317
 31
0.0
  0
ARC
  5
6827
100
AcDbEntity
  8
0
100
AcDbCircle
 10
1304.456975
 20
273.14317
 30
0.0
 40
2.0
100
AcDbArc
 50
270.0
 51
334.998479
  0
LINE
  5
6828
100
AcDbEntity
  8
0
100
AcDbLine
 10
1304.456975
 20
271.14317
 30
0.0
 11
1302.730701
 21
271.14317
 31
0.0
  0
LINE
  5
6829
100
AcDbEntity
  8
0
100
AcDbLine
 10
1294.730701
 20
269.14317
 30
0.0
 11
1294.730701
 21
265.71617
 31
0.0
  0
ARC
  5
682A
100
AcDbEntity
  8
0
100
AcDbCircle
 10
1296.730701
 20
269.14317
 30
0.0
 40
2.0
100
AcDbArc
 50
90.0
 51
180.0
  0
ARC
  5
682B
100
AcDbEntity
  8
0
100
AcDbCircle
 10
1292.730701
 20
265.71617
 30
0.0
 40
2.0
100
AcDbArc
 50
270.0
 51
0.0
  0
LINE
  5
682C
100
AcDbEntity
  8
0
100
AcDbLine
 10
1262.730701
 20
260.64317
 30
0.0
 11
1264.505701
 21
263.71717
 31
0.0
  0
LINE
  5
682D
100
AcDbEntity
  8
0
100
AcDbLine
 10
1263.816701
 20
262.52417
 30
0.0
 11
1263.619701
 21
262.17317
 31
0.0
  0
LINE
  5
6897
100
AcDbEntity
  8
0
100
AcDbLine
 10
1262.730701
 20
404.0916
 30
0.0
 11
1262.730701
 21
454.0916
 31
0.0
  0
LINE
  5
6898
100
AcDbEntity
  8
0
100
AcDbLine
 10
1312.958701
 20
472.6356
 30
0.0
 11
1312.958701
 21
335.5466
 31
0.0
  0
LINE
  5
6899
100
AcDbEntity
  8
0
100
AcDbLine
 10
1302.730701
 20
464.0916
 30
0.0
 11
1302.730701
 21
344.0916
 31
0.0
  0
LINE
  5
689E
100
AcDbEntity
  8
0
100
AcDbLine
 10
1387.762701
 20
472.6356
 30
0.0
 11
1387.762701
 21
335.5466
 31
0.0
  0
LINE
  5
68A1
100
AcDbEntity
  8
0
100
AcDbLine
 10
1310.266898
 20
334.365177
 30
0.0
 11
1306.269568
 21
342.936885
 31
0.0
  0
LINE
  5
68A3
100
AcDbEntity
  8
0
100
AcDbLine
 10
1262.730701
 20
404.0916
 30
0.0
 11
1262.730701
 21
354.5916
 31
0.0
  0
ARC
  5
68AD
100
AcDbEntity
  8
0
100
AcDbCircle
 10
1296.730701
 20
346.0916
 30
0.0
 40
2.0
100
AcDbArc
 50
180.0
 51
270.0
  0
LINE
  5
68AE
100
AcDbEntity
  8
0
100
AcDbLine
 10
1294.730701
 20
352.0916
 30
0.0
 11
1294.730701
 21
346.0916
 31
0.0
  0
LINE
  5
68AF
100
AcDbEntity
  8
0
100
AcDbLine
 10
1304.456975
 20
344.0916
 30
0.0
 11
1302.730701
 21
344.0916
 31
0.0
  0
ARC
  5
68B0
100
AcDbEntity
  8
0
100
AcDbCircle
 10
1304.456975
 20
342.0916
 30
0.0
 40
2.0
100
AcDbArc
 50
25.001521
 51
90.0
  0
LINE
  5
68B1
100
AcDbEntity
  8
0
100
AcDbLine
 10
1296.739701
 20
344.0916
 30
0.0
 11
1302.730701
 21
344.0916
 31
0.0
  0
ARC
  5
68B6
100
AcDbEntity
  8
0
100
AcDbCircle
 10
1319.329864
 20
338.5916
 30
0.0
 40
10.0
100
AcDbArc
 50
205.001521
 51
270.0
  0
ARC
  5
68B7
100
AcDbEntity
  8
0
100
AcDbCircle
 10
1381.988447
 20
338.5916
 30
0.0
 40
10.0
100
AcDbArc
 50
270.0
 51
329.999394
  0
LINE
  5
68B8
100
AcDbEntity
  8
0
100
AcDbLine
 10
1381.988447
 20
328.5916
 30
0.0
 11
1319.329864
 21
328.5916
 31
0.0
  0
LINE
  5
68BB
100
AcDbEntity
  8
0
100
AcDbLine
 10
1321.730701
 20
328.5916
 30
0.0
 11
1321.730701
 21
326.0916
 31
0.0
  0
LINE
  5
68BE
100
AcDbEntity
  8
0
100
AcDbLine
 10
1374.730701
 20
326.0916
 30
0.0
 11
1374.730701
 21
328.5916
 31
0.0
  0
LINE
  5
68C7
100
AcDbEntity
  8
0
100
AcDbLine
 10
1401.041286
 20
351.591646
 30
0.0
 11
1390.648648
 21
333.591509
 31
0.0
  0
LINE
  5
68D0
100
AcDbEntity
  8
0
100
AcDbLine
 10
1310.266898
 20
473.818023
 30
0.0
 11
1306.269568
 21
465.246316
 31
0.0
  0
LINE
  5
68D7
100
AcDbEntity
  8
0
100
AcDbLine
 10
1294.730701
 20
462.0916
 30
0.0
 11
1294.730701
 21
456.0916
 31
0.0
  0
ARC
  5
68D8
100
AcDbEntity
  8
0
100
AcDbCircle
 10
1296.730701
 20
462.0916
 30
0.0
 40
2.0
100
AcDbArc
 50
90.0
 51
180.0
  0
ARC
  5
68DA
100
AcDbEntity
  8
0
100
AcDbCircle
 10
1304.456975
 20
466.0916
 30
0.0
 40
2.0
100
AcDbArc
 50
270.0
 51
334.998479
  0
LINE
  5
68DB
100
AcDbEntity
  8
0
100
AcDbLine
 10
1304.456975
 20
464.0916
 30
0.0
 11
1302.730701
 21
464.0916
 31
0.0
  0
LINE
  5
68DC
100
AcDbEntity
  8
0
100
AcDbLine
 10
1296.739701
 20
464.0916
 30
0.0
 11
1302.730701
 21
464.0916
 31
0.0
  0
LINE
  5
68DD
100
AcDbEntity
  8
0
100
AcDbLine
 10
1381.988447
 20
479.5916
 30
0.0
 11
1319.329864
 21
479.5916
 31
0.0
  0
ARC
  5
68DE
100
AcDbEntity
  8
0
100
AcDbCircle
 10
1319.329864
 20
469.5916
 30
0.0
 40
10.0
100
AcDbArc
 50
90.0
 51
154.998479
  0
ARC
  5
68DF
100
AcDbEntity
  8
0
100
AcDbCircle
 10
1381.988447
 20
469.5916
 30
0.0
 40
10.0
100
AcDbArc
 50
30.000606
 51
90.0
  0
LINE
  5
68E3
100
AcDbEntity
  8
0
100
AcDbLine
 10
1401.041286
 20
456.591554
 30
0.0
 11
1390.648648
 21
474.591692
 31
0.0
  0
LINE
  5
68F4
100
AcDbEntity
  8
0
100
AcDbLine
 10
1321.730701
 20
326.0916
 30
0.0
 11
1374.730701
 21
326.0916
 31
0.0
  0
LINE
  5
68F7
100
AcDbEntity
  8
0
100
AcDbLine
 10
1390.730701
 20
645.36077
 30
0.0
 11
1390.730701
 21
525.36077
 31
0.0
  0
LINE
  5
68F8
100
AcDbEntity
  8
0
100
AcDbLine
 10
1305.730701
 20
464.0916
 30
0.0
 11
1305.730701
 21
344.0916
 31
0.0
  0
LINE
  5
68F9
100
AcDbEntity
  8
0
100
AcDbLine
 10
1305.730701
 20
271.14317
 30
0.0
 11
1305.730701
 21
151.14317
 31
0.0
  0
LINE
  5
6908
100
AcDbEntity
  8
0
100
AcDbLine
 10
1157.382034
 20
230.14267
 30
0.0
 11
1157.382034
 21
192.14367
 31
0.0
  0
ARC
  5
6909
100
AcDbEntity
  8
0
100
AcDbCircle
 10
1156.382034
 20
230.14267
 30
0.0
 40
1.0
100
AcDbArc
 50
0.0
 51
90.0
  0
ARC
  5
690A
100
AcDbEntity
  8
0
100
AcDbCircle
 10
1156.382034
 20
192.14367
 30
0.0
 40
1.0
100
AcDbArc
 50
270.0
 51
0.0
  0
CIRCLE
  5
690C
100
AcDbEntity
  8
0
100
AcDbCircle
 10
1079.382034
 20
211.14317
 30
0.0
 40
75.5
  0
POLYLINE
  5
6910
100
AcDbEntity
  8
0
100
AcDb2dPolyline
 66
     1
 10
0.0
 20
0.0
 30
0.0
 70
     1
  0
VERTEX
  5
6A8F
100
AcDbEntity
  8
0
100
AcDbVertex
100
AcDb2dVertex
 10
1523.565436
 20
194.897185
 30
0.0
  0
VERTEX
  5
6A90
100
AcDbEntity
  8
0
100
AcDbVertex
100
AcDb2dVertex
 10
1542.663737
 20
168.61063
 30
0.0
  0
VERTEX
  5
6A91
100
AcDbEntity
  8
0
100
AcDbVertex
100
AcDb2dVertex
 10
1573.565436
 20
158.570059
 30
0.0
  0
VERTEX
  5
6A92
100
AcDbEntity
  8
0
100
AcDbVertex
100
AcDb2dVertex
 10
1604.467136
 20
168.61063
 30
0.0
  0
VERTEX
  5
6A93
100
AcDbEntity
  8
0
100
AcDbVertex
100
AcDb2dVertex
 10
1623.565436
 20
194.897185
 30
0.0
  0
VERTEX
  5
6A94
100
AcDbEntity
  8
0
100
AcDbVertex
100
AcDb2dVertex
 10
1623.565436
 20
227.389155
 30
0.0
  0
VERTEX
  5
6A95
100
AcDbEntity
  8
0
100
AcDbVertex
100
AcDb2dVertex
 10
1604.467136
 20
253.67571
 30
0.0
  0
VERTEX
  5
6A96
100
AcDbEntity
  8
0
100
AcDbVertex
100
AcDb2dVertex
 10
1573.565436
 20
263.716281
 30
0.0
  0
VERTEX
  5
6A97
100
AcDbEntity
  8
0
100
AcDbVertex
100
AcDb2dVertex
 10
1542.663737
 20
253.67571
 30
0.0
  0
VERTEX
  5
6A98
100
AcDbEntity
  8
0
100
AcDbVertex
100
AcDb2dVertex
 10
1523.565436
 20
227.389155
 30
0.0
  0
SEQEND
  5
6A99
100
AcDbEntity
  8
0
  0
POLYLINE
  5
6911
100
AcDbEntity
  8
0
100
AcDb2dPolyline
 66
     1
 10
0.0
 20
0.0
 30
0.0
 70
     1
  0
VERTEX
  5
6A9A
100
AcDbEntity
  8
0
100
AcDbVertex
100
AcDb2dVertex
 10
1029.382034
 20
194.897185
 30
0.0
  0
VERTEX
  5
6A9B
100
AcDbEntity
  8
0
100
AcDbVertex
100
AcDb2dVertex
 10
1048.480335
 20
168.61063
 30
0.0
  0
VERTEX
  5
6A9C
100
AcDbEntity
  8
0
100
AcDbVertex
100
AcDb2dVertex
 10
1079.382034
 20
158.570059
 30
0.0
  0
VERTEX
  5
6A9D
100
AcDbEntity
  8
0
100
AcDbVertex
100
AcDb2dVertex
 10
1110.283734
 20
168.61063
 30
0.0
  0
VERTEX
  5
6A9E
100
AcDbEntity
  8
0
100
AcDbVertex
100
AcDb2dVertex
 10
1129.382034
 20
194.897185
 30
0.0
  0
VERTEX
  5
6A9F
100
AcDbEntity
  8
0
100
AcDbVertex
100
AcDb2dVertex
 10
1129.382034
 20
227.389155
 30
0.0
  0
VERTEX
  5
6AA0
100
AcDbEntity
  8
0
100
AcDbVertex
100
AcDb2dVertex
 10
1110.283734
 20
253.67571
 30
0.0
  0
VERTEX
  5
6AA1
100
AcDbEntity
  8
0
100
AcDbVertex
100
AcDb2dVertex
 10
1079.382034
 20
263.716281
 30
0.0
  0
VERTEX
  5
6AA2
100
AcDbEntity
  8
0
100
AcDbVertex
100
AcDb2dVertex
 10
1048.480335
 20
253.67571
 30
0.0
  0
VERTEX
  5
6AA3
100
AcDbEntity
  8
0
100
AcDbVertex
100
AcDb2dVertex
 10
1029.382034
 20
227.389155
 30
0.0
  0
SEQEND
  5
6AA4
100
AcDbEntity
  8
0
  0
CIRCLE
  5
6912
100
AcDbEntity
  8
0
100
AcDbCircle
 10
1079.382034
 20
211.14317
 30
0.0
 40
49.5
  0
CIRCLE
  5
6913
100
AcDbEntity
  8
0
100
AcDbCircle
 10
1079.382034
 20
211.14317
 30
0.0
 40
42.46
  0
CIRCLE
  5
6914
100
AcDbEntity
  8
0
100
AcDbCircle
 10
1573.565436
 20
211.14317
 30
0.0
 40
75.5
  0
LINE
  5
6915
100
AcDbEntity
  8
0
100
AcDbLine
 10
1495.565436
 20
230.14267
 30
0.0
 11
1495.565436
 21
192.14367
 31
0.0
  0
ARC
  5
6916
100
AcDbEntity
  8
0
100
AcDbCircle
 10
1496.565436
 20
192.14367
 30
0.0
 40
1.0
100
AcDbArc
 50
180.0
 51
270.0
  0
LINE
  5
6917
100
AcDbEntity
  8
0
100
AcDbLine
 10
1496.565436
 20
191.14367
 30
0.0
 11
1500.801436
 21
191.14367
 31
0.0
  0
ARC
  5
6918
100
AcDbEntity
  8
0
100
AcDbCircle
 10
1496.565436
 20
230.14267
 30
0.0
 40
1.0
100
AcDbArc
 50
90.0
 51
180.0
  0
LINE
  5
6919
100
AcDbEntity
  8
0
100
AcDbLine
 10
1496.565436
 20
231.14267
 30
0.0
 11
1500.801436
 21
231.14267
 31
0.0
  0
LINE
  5
691B
100
AcDbEntity
  8
0
100
AcDbLine
 10
1295.364905
 20
404.0916
 30
0.0
 11
1264.496701
 21
404.0916
 31
0.0
  0
LINE
  5
6926
100
AcDbEntity
  8
0
100
AcDbLine
 10
1262.730701
 20
454.0916
 30
0.0
 11
1292.730701
 21
454.0916
 31
0.0
  0
LINE
  5
6927
100
AcDbEntity
  8
0
100
AcDbLine
 10
1264.496701
 20
434.9933
 30
0.0
 11
1295.364905
 21
434.9933
 31
0.0
  0
ARC
  5
692F
100
AcDbEntity
  8
0
100
AcDbCircle
 10
1289.430879
 20
444.54245
 30
0.0
 40
26.700178
100
AcDbArc
 50
159.044442
 51
200.955558
  0
ARC
  5
6930
100
AcDbEntity
  8
0
100
AcDbCircle
 10
1331.203949
 20
419.54245
 30
0.0
 40
68.473248
100
AcDbArc
 50
166.959016
 51
193.040984
  0
ARC
  5
6932
100
AcDbEntity
  8
0
100
AcDbCircle
 10
1292.730701
 20
456.0916
 30
0.0
 40
2.0
100
AcDbArc
 50
270.0
 51
0.0
  0
ARC
  5
6935
100
AcDbEntity
  8
0
100
AcDbCircle
 10
1348.835907
 20
444.54245
 30
0.0
 40
54.316979
100
AcDbArc
 50
169.874542
 51
190.125458
  0
ARC
  5
6936
100
AcDbEntity
  8
0
100
AcDbCircle
 10
1436.236112
 20
419.54245
 30
0.0
 40
141.716003
100
AcDbArc
 50
173.740779
 51
186.259221
  0
ARC
  5
6938
100
AcDbEntity
  8
0
100
AcDbCircle
 10
1436.236112
 20
388.640751
 30
0.0
 40
141.716003
100
AcDbArc
 50
173.740779
 51
186.259221
  0
LINE
  5
6939
100
AcDbEntity
  8
0
100
AcDbLine
 10
1262.730701
 20
404.0916
 30
0.0
 11
1262.730701
 21
354.0916
 31
0.0
  0
ARC
  5
693A
100
AcDbEntity
  8
0
100
AcDbCircle
 10
1331.203949
 20
388.640751
 30
0.0
 40
68.473248
100
AcDbArc
 50
166.959016
 51
193.040984
  0
LINE
  5
693B
100
AcDbEntity
  8
0
100
AcDbLine
 10
1295.364905
 20
404.0916
 30
0.0
 11
1264.496701
 21
404.0916
 31
0.0
  0
LINE
  5
693C
100
AcDbEntity
  8
0
100
AcDbLine
 10
1264.496701
 20
373.189901
 30
0.0
 11
1295.364905
 21
373.189901
 31
0.0
  0
LINE
  5
693D
100
AcDbEntity
  8
0
100
AcDbLine
 10
1262.730701
 20
354.0916
 30
0.0
 11
1292.730701
 21
354.0916
 31
0.0
  0
ARC
  5
693E
100
AcDbEntity
  8
0
100
AcDbCircle
 10
1289.430879
 20
363.640751
 30
0.0
 40
26.700178
100
AcDbArc
 50
159.044442
 51
200.955558
  0
ARC
  5
693F
100
AcDbEntity
  8
0
100
AcDbCircle
 10
1348.835907
 20
363.640751
 30
0.0
 40
54.316979
100
AcDbArc
 50
169.874542
 51
190.125458
  0
ARC
  5
6940
100
AcDbEntity
  8
0
100
AcDbCircle
 10
1292.730701
 20
352.0916
 30
0.0
 40
2.0
100
AcDbArc
 50
0.0
 51
90.0
  0
LINE
  5
6959
100
AcDbEntity
  8
0
100
AcDbLine
 10
1433.730701
 20
404.0916
 30
0.0
 11
1433.730701
 21
454.0916
 31
0.0
  0
ARC
  5
695A
100
AcDbEntity
  8
0
100
AcDbCircle
 10
1365.257453
 20
419.54245
 30
0.0
 40
68.473248
100
AcDbArc
 50
346.959016
 51
13.040984
  0
ARC
  5
695B
100
AcDbEntity
  8
0
100
AcDbCircle
 10
1365.257453
 20
388.640751
 30
0.0
 40
68.473248
100
AcDbArc
 50
346.959016
 51
13.040984
  0
LINE
  5
695C
100
AcDbEntity
  8
0
100
AcDbLine
 10
1433.730701
 20
404.0916
 30
0.0
 11
1433.730701
 21
354.0916
 31
0.0
  0
LINE
  5
695D
100
AcDbEntity
  8
0
100
AcDbLine
 10
1433.730701
 20
404.0916
 30
0.0
 11
1433.730701
 21
354.5916
 31
0.0
  0
ARC
  5
695E
100
AcDbEntity
  8
0
100
AcDbCircle
 10
1407.030524
 20
363.640751
 30
0.0
 40
26.700178
100
AcDbArc
 50
339.044442
 51
20.955558
  0
ARC
  5
695F
100
AcDbEntity
  8
0
100
AcDbCircle
 10
1407.030524
 20
444.54245
 30
0.0
 40
26.700178
100
AcDbArc
 50
339.044442
 51
20.955558
  0
ARC
  5
6960
100
AcDbEntity
  8
0
100
AcDbCircle
 10
1260.22529
 20
419.54245
 30
0.0
 40
141.716003
100
AcDbArc
 50
353.740779
 51
6.259221
  0
ARC
  5
6961
100
AcDbEntity
  8
0
100
AcDbCircle
 10
1260.22529
 20
388.640751
 30
0.0
 40
141.716003
100
AcDbArc
 50
353.740779
 51
6.259221
  0
LINE
  5
6962
100
AcDbEntity
  8
0
100
AcDbLine
 10
1433.730701
 20
354.0916
 30
0.0
 11
1405.371387
 21
354.0916
 31
0.0
  0
LINE
  5
6963
100
AcDbEntity
  8
0
100
AcDbLine
 10
1431.964701
 20
373.189901
 30
0.0
 11
1401.096497
 21
373.189901
 31
0.0
  0
ARC
  5
6964
100
AcDbEntity
  8
0
100
AcDbCircle
 10
1347.625496
 20
363.640751
 30
0.0
 40
54.316979
100
AcDbArc
 50
349.874542
 51
10.125458
  0
LINE
  5
6966
100
AcDbEntity
  8
0
100
AcDbLine
 10
1401.096497
 20
404.0916
 30
0.0
 11
1431.964701
 21
404.0916
 31
0.0
  0
LINE
  5
6967
100
AcDbEntity
  8
0
100
AcDbLine
 10
1401.096497
 20
404.0916
 30
0.0
 11
1431.964701
 21
404.0916
 31
0.0
  0
LINE
  5
6968
100
AcDbEntity
  8
0
100
AcDbLine
 10
1431.964701
 20
434.9933
 30
0.0
 11
1401.096497
 21
434.9933
 31
0.0
  0
LINE
  5
6969
100
AcDbEntity
  8
0
100
AcDbLine
 10
1433.730701
 20
454.0916
 30
0.0
 11
1405.371387
 21
454.0916
 31
0.0
  0
ARC
  5
696A
100
AcDbEntity
  8
0
100
AcDbCircle
 10
1347.625496
 20
444.54245
 30
0.0
 40
54.316979
100
AcDbArc
 50
349.874542
 51
10.125458
  0
ARC
  5
696C
100
AcDbEntity
  8
0
100
AcDbCircle
 10
1405.371387
 20
459.0916
 30
0.0
 40
5.0
100
AcDbArc
 50
210.000606
 51
270.0
  0
ARC
  5
696D
100
AcDbEntity
  8
0
100
AcDbCircle
 10
1405.371387
 20
349.0916
 30
0.0
 40
5.0
100
AcDbArc
 50
90.0
 51
149.999394
  0
VIEWPORT
  5
41
100
AcDbEntity
 67
     1
  8
0
100
AcDbViewport
 10
117.358407
 20
73.5
 30
0.0
 40
234.716814
 41
147.0
 68
    -1
 69
     1
1001
ACAD
1000
MVIEW
1002
{
1070
    16
1010
0.0
1020
0.0
1030
0.0
1010
0.0
1020
0.0
1030
1.0
1040
0.0
1040
147.0
1040
117.358407
1040
73.5
1040
50.0
1040
0.0
1040
0.0
1070
     0
1070
   100
1070
     1
1070
     1
1070
     0
1070
     0
1070
     0
1070
     0
1040
0.0
1040
0.0
1040
0.0
1040
1.0
1040
1.0
1040
0.0
1040
0.0
1070
     0
1002
{
1002
}
1002
}
  0
ENDSEC
  0
SECTION
  2
OBJECTS
  0
DICTIONARY
  5
C
100
AcDbDictionary
  3
ACAD_GROUP
350
D
  3
ACAD_MLINESTYLE
350
E
  0
DICTIONARY
  5
D
102
{ACAD_REACTORS
330
C
102
}
100
AcDbDictionary
  0
DICTIONARY
  5
E
102
{ACAD_REACTORS
330
C
102
}
100
AcDbDictionary
  3
STANDARD
350
1B
  0
MLINESTYLE
  5
1B
102
{ACAD_REACTORS
330
E
102
}
100
AcDbMlineStyle
  2
STANDARD
 70
     0
  3

 62
     0
 51
90.0
 52
90.0
 71
     2
 49
0.5
 62
   256
  6
BYLAYER
 49
-0.5
 62
   256
  6
BYLAYER
  0
ENDSEC
  0
EOF
