  0
SECTION
  2
HEADER
  9
$ACADVER
  1
AC1009
  9
$INSBASE
 10
0.0
 20
0.0
 30
0.0
  9
$EXTMIN
 10
154.0
 20
70.0
 30
0.0
  9
$EXTMAX
 10
4004.0
 20
2674.0
 30
0.0
  9
$LIMMIN
 10
0.0
 20
0.0
  9
$LIMMAX
 10
4158.0
 20
2940.0
  9
$ORTHOMODE
 70
     1
  9
$REGENMODE
 70
     1
  9
$FILLMODE
 70
     1
  9
$QTEXTMODE
 70
     0
  9
$MIRRTEXT
 70
     1
  9
$DRAGMODE
 70
     2
  9
$LTSCALE
 40
56.0
  9
$OSMODE
 70
   163
  9
$ATTMODE
 70
     1
  9
$TEXTSIZE
 40
56.0
  9
$TRACEWID
 40
0.05
  9
$TEXTSTYLE
  7
STANDARD
  9
$CLAYER
  8
0
  9
$CELTYPE
  6
BYLAYER
  9
$CECOLOR
 62
   256
  9
$DIMSCALE
 40
14.0
  9
$DIMASZ
 40
2.7999999999999989
  9
$DIMEXO
 40
1.0
  9
$DIMDLI
 40
5.0
  9
$DIMRND
 40
0.1
  9
$DIMDLE
 40
0.0
  9
$DIMEXE
 40
1.0
  9
$DIMTP
 40
0.0
  9
$DIMTM
 40
0.0
  9
$DIMTXT
 40
2.5
  9
$DIMCEN
 40
0.0
  9
$DIMTSZ
 40
0.0
  9
$DIMTOL
 70
     0
  9
$DIMLIM
 70
     0
  9
$DIMTIH
 70
     0
  9
$DIMTOH
 70
     0
  9
$DIMSE1
 70
     0
  9
$DIMSE2
 70
     0
  9
$DIMTAD
 70
     3
  9
$DIMZIN
 70
     8
  9
$DIMBLK
  1

  9
$DIMASO
 70
     1
  9
$DIMSHO
 70
     1
  9
$DIMPOST
  1
 
  9
$DIMAPOST
  1

  9
$DIMALT
 70
     0
  9
$DIMALTD
 70
     2
  9
$DIMALTF
 40
1.0
  9
$DIMLFAC
 40
1.0
  9
$DIMTOFL
 70
     1
  9
$DIMTVP
 40
0.0
  9
$DIMTIX
 70
     0
  9
$DIMSOXD
 70
     0
  9
$DIMSAH
 70
     1
  9
$DIMBLK1
  1
OPEN
  9
$DIMBLK2
  1
OPEN
  9
$DIMSTYLE
  2
DIM1
  9
$DIMCLRD
 70
     2
  9
$DIMCLRE
 70
     2
  9
$DIMCLRT
 70
     2
  9
$DIMTFAC
 40
0.7
  9
$DIMGAP
 40
0.85
  9
$LUNITS
 70
     2
  9
$LUPREC
 70
     4
  9
$SKETCHINC
 40
0.1
  9
$FILLETRAD
 40
8.0
  9
$AUNITS
 70
     0
  9
$AUPREC
 70
     0
  9
$MENU
  1
C:\ACADR13\WIN\SUPPORT\ACAD.mnc
  9
$ELEVATION
 40
0.0
  9
$PELEVATION
 40
0.0
  9
$THICKNESS
 40
0.0
  9
$LIMCHECK
 70
     0
  9
$BLIPMODE
 70
     0
  9
$CHAMFERA
 40
0.0
  9
$CHAMFERB
 40
0.0
  9
$SKPOLY
 70
     0
  9
$TDCREATE
 40
2451564.458605729
  9
$TDUPDATE
 40
2456008.5562939239
  9
$TDINDWG
 40
0.0848534259
  9
$TDUSRTIMER
 40
0.0848534259
  9
$USRTIMER
 70
     1
  9
$ANGBASE
 50
0.0
  9
$ANGDIR
 70
     0
  9
$PDMODE
 70
     0
  9
$PDSIZE
 40
0.0
  9
$PLINEWID
 40
0.0
  9
$COORDS
 70
     1
  9
$SPLFRAME
 70
     0
  9
$SPLINETYPE
 70
     6
  9
$SPLINESEGS
 70
     8
  9
$ATTDIA
 70
     0
  9
$ATTREQ
 70
     1
  9
$HANDLING
 70
     1
  9
$HANDSEED
  5
6317
  9
$SURFTAB1
 70
     6
  9
$SURFTAB2
 70
     6
  9
$SURFTYPE
 70
     6
  9
$SURFU
 70
     6
  9
$SURFV
 70
     6
  9
$UCSNAME
  2

  9
$UCSORG
 10
0.0
 20
0.0
 30
0.0
  9
$UCSXDIR
 10
1.0
 20
0.0
 30
0.0
  9
$UCSYDIR
 10
0.0
 20
1.0
 30
0.0
  9
$PUCSNAME
  2

  9
$PUCSORG
 10
0.0
 20
0.0
 30
0.0
  9
$PUCSXDIR
 10
1.0
 20
0.0
 30
0.0
  9
$PUCSYDIR
 10
0.0
 20
1.0
 30
0.0
  9
$USERI1
 70
     0
  9
$USERI2
 70
     0
  9
$USERI3
 70
     0
  9
$USERI4
 70
     0
  9
$USERI5
 70
     0
  9
$USERR1
 40
0.0
  9
$USERR2
 40
0.0
  9
$USERR3
 40
0.0
  9
$USERR4
 40
0.0
  9
$USERR5
 40
0.0
  9
$WORLDVIEW
 70
     1
  9
$SHADEDGE
 70
     3
  9
$SHADEDIF
 70
    70
  9
$TILEMODE
 70
     1
  9
$MAXACTVP
 70
    16
  9
$PLIMCHECK
 70
     0
  9
$PEXTMIN
 10
1.0000000000000000E+020
 20
1.0000000000000000E+020
 30
1.0000000000000000E+020
  9
$PEXTMAX
 10
-1.0000000000000000E+020
 20
-1.0000000000000000E+020
 30
-1.0000000000000000E+020
  9
$PLIMMIN
 10
0.0
 20
0.0
  9
$PLIMMAX
 10
20.0
 20
147.0
  9
$UNITMODE
 70
     0
  9
$VISRETAIN
 70
     0
  9
$PLINEGEN
 70
     0
  9
$PSLTSCALE
 70
     1
  0
ENDSEC
  0
SECTION
  2
TABLES
  0
TABLE
  2
VPORT
 70
     1
  0
VPORT
  2
*ACTIVE
 70
     0
 10
0.0
 20
0.0
 11
1.0
 21
1.0
 12
2079.0
 22
1470.0
 13
0.0
 23
0.0
 14
1.0
 24
1.0
 15
0.0
 25
0.0
 16
0.0
 26
0.0
 36
1.0
 17
0.0
 27
0.0
 37
0.0
 40
2959.3633369923159
 41
1.7967032967032961
 42
50.0
 43
0.0
 44
0.0
 50
0.0
 51
0.0
 71
     0
 72
   100
 73
     1
 74
     1
 75
     0
 76
     0
 77
     0
 78
     0
  0
ENDTAB
  0
TABLE
  2
LTYPE
 70
     3
  0
LTYPE
  2
CONTINUOUS
 70
     0
  3
Solid line
 72
    65
 73
     0
 40
0.0
  0
ENDTAB
  0
TABLE
  2
LAYER
 70
     1
  0
LAYER
  2
0
 70
     0
 62
     7
  6
CONTINUOUS
  0
ENDTAB
  0
TABLE
  2
STYLE
 70
     3
  0
STYLE
  2
STANDARD
 70
     0
 40
0.0
 41
0.8
 50
0.0
 71
     0
 42
56.0
  3
simplex
  4
extfont
  0
STYLE
  2
PTSH
 70
     0
 40
0.0
 41
0.9
 50
0.0
 71
     0
 42
4.0
  3
SIMPLEX
  4
EXTFONT
  0
STYLE
  2
DIM
 70
     0
 40
0.0
 41
0.8
 50
0.0
 71
     0
 42
4.0
  3
simplex
  4
extfont
  0
ENDTAB
  0
TABLE
  2
VIEW
 70
     1
  0
ENDTAB
  0
TABLE
  2
UCS
 70
     0
  0
ENDTAB
  0
TABLE
  2
APPID
 70
     5
  0
APPID
  2
ACAD
 70
     0
  0
APPID
  2
ACAD_MLEADERVER
 70
     0
  0
APPID
  2
ACAD_PSEXT
 70
     0
  0
APPID
  2
ACAD_NAV_VCDISPLAY
 70
     0
  0
APPID
  2
ACAD_EXEMPT_FROM_CAD_STANDARDS
 70
     0
  0
ENDTAB
  0
TABLE
  2
DIMSTYLE
 70
     1
  0
DIMSTYLE
  2
DIM1
 70
     0
  3
 
  4

  5

  6
OPEN
  7
OPEN
 40
14.0
 41
2.7999999999999989
 42
1.0
 43
5.0
 44
1.0
 45
0.1
 46
0.0
 47
0.0
 48
0.0
140
2.5
141
0.0
142
0.0
143
1.0
144
1.0
145
0.0
146
0.7
147
0.85
 71
     0
 72
     0
 73
     0
 74
     0
 75
     0
 76
     0
 77
     3
 78
     8
170
     0
171
     2
172
     1
173
     1
174
     0
175
     0
176
     2
177
     2
178
     2
  0
ENDTAB
  0
ENDSEC
  0
SECTION
  2
BLOCKS
  0
BLOCK
  8
0
  2
$MODEL_SPACE
 70
     0
 10
0.0
 20
0.0
 30
0.0
  3
$MODEL_SPACE
  1

  0
ENDBLK
  5
3D
  8
0
  0
BLOCK
 67
     1
  8
0
  2
$PAPER_SPACE
 70
     0
 10
0.0
 20
0.0
 30
0.0
  3
$PAPER_SPACE
  1

  0
ENDBLK
  5
3B
 67
     1
  8
0
  0
BLOCK
  8
0
  2
_OPEN
 70
     0
 10
0.0
 20
0.0
 30
0.0
  3
_OPEN
  1
H1111.DWG
  0
LINE
  5
244A
  8
0
  6
BYBLOCK
 62
     0
 10
-1.0
 20
0.1666666666666666
 30
0.0
 11
0.0
 21
0.0
 31
0.0
  0
LINE
  5
244B
  8
0
  6
BYBLOCK
 62
     0
 10
0.0
 20
0.0
 30
0.0
 11
-1.0
 21
-0.1666666666666666
 31
0.0
  0
LINE
  5
244C
  8
0
  6
BYBLOCK
 62
     0
 10
0.0
 20
0.0
 30
0.0
 11
-1.0
 21
0.0
 31
0.0
  0
ENDBLK
  5
244D
  8
0
  0
ENDSEC
  0
SECTION
  2
ENTITIES
  0
TEXT
  5
2529
  8
0
  6
CONTINUOUS
 10
3372.400000000001
 20
94.500000000000014
 30
0.0
 40
42.0
  1
COSR-16-LONG-F2
 41
0.9
  7
PTSH
 72
     2
 11
3934.0
 21
115.5
 31
0.0
 73
     2
  0
POLYLINE
  5
2563
  8
0
 66
     1
 10
0.0
 20
0.0
 30
0.0
 70
     1
  0
VERTEX
  5
6290
  8
0
 10
154.0
 20
70.0
 30
0.0
  0
VERTEX
  5
6291
  8
0
 10
4004.0
 20
70.0
 30
0.0
  0
VERTEX
  5
6292
  8
0
 10
4004.0
 20
2674.0
 30
0.0
  0
VERTEX
  5
6293
  8
0
 10
154.0
 20
2674.0
 30
0.0
  0
SEQEND
  5
6294
  8
0
  0
LINE
  5
3CA3
  8
0
 10
1387.8260839757661
 20
749.29295143467778
 30
0.0
 11
1387.8260839757661
 21
755.38995143467764
 31
0.0
  0
LINE
  5
3CA4
  8
0
 10
1382.918083975766
 20
749.29295143467778
 30
0.0
 11
1382.918083975766
 21
755.38995143467764
 31
0.0
  0
LINE
  5
3CA5
  8
0
 10
1373.1040839757659
 20
749.29295143467778
 30
0.0
 11
1373.1040839757659
 21
755.38995143467764
 31
0.0
  0
LINE
  5
3CA6
  8
0
 10
1267.7371371367719
 20
749.29295143467778
 30
0.0
 11
1267.7371371367719
 21
755.38995143467764
 31
0.0
  0
LINE
  5
3CA7
  8
0
 10
1287.3671371367709
 20
755.38995143467764
 30
0.0
 11
1287.3671371367709
 21
749.29295143467778
 31
0.0
  0
LINE
  5
3CA8
  8
0
 10
1272.6451371367709
 20
749.29295143467778
 30
0.0
 11
1272.6451371367709
 21
755.38995143467764
 31
0.0
  0
LINE
  5
3CA9
  8
0
 10
1282.459137136769
 20
749.29295143467778
 30
0.0
 11
1282.459137136769
 21
755.38995143467764
 31
0.0
  0
ARC
  5
3CAA
  8
0
 10
1342.7738102921539
 20
749.51532639367724
 30
0.0
 40
5.0
 50
94.055223387114154
 51
177.6143736727611
  0
LINE
  5
3CAB
  8
0
 10
1368.1960839757651
 20
755.38995143467764
 30
0.0
 11
1368.1960839757651
 21
749.29295143467778
 31
0.0
  0
LINE
  5
3CAC
  8
0
 10
1317.9666105562681
 20
755.38995143467764
 30
0.0
 11
1317.9666105562681
 21
749.29295143467778
 31
0.0
  0
LINE
  5
3CAD
  8
0
 10
1332.688610556268
 20
749.29295143467778
 30
0.0
 11
1332.688610556268
 21
755.38995143467764
 31
0.0
  0
LINE
  5
3CAE
  8
0
 10
1322.8746105562691
 20
749.29295143467778
 30
0.0
 11
1322.8746105562691
 21
755.38995143467764
 31
0.0
  0
LINE
  5
3CAF
  8
0
 10
1337.596610556267
 20
749.29295143467778
 30
0.0
 11
1337.596610556267
 21
755.38995143467764
 31
0.0
  0
ARC
  5
3CB0
  8
0
 10
1312.789410820383
 20
749.51532639367724
 30
0.0
 40
5.0
 50
2.38562632723889
 51
85.944776612885846
  0
LINE
  5
3CB1
  8
0
 10
1062.680755641255
 20
768.38995143467764
 30
0.0
 11
1062.680755641255
 21
757.38995143467764
 31
0.0
  0
LINE
  5
3CB2
  8
0
 10
1026.3076886823069
 20
760.4942588914837
 30
0.0
 11
1026.3076886823069
 21
774.58192521745423
 31
0.0
  0
LINE
  5
3CB3
  8
0
 10
953.56155476441552
 20
760.4942588914837
 30
0.0
 11
953.56155476441552
 21
774.58192521745423
 31
0.0
  0
LINE
  5
3CB4
  8
0
 10
917.18848780546796
 20
768.38995143467764
 30
0.0
 11
917.18848780546796
 21
757.38995143467764
 31
0.0
  0
LINE
  5
3CB5
  8
0
 10
995.93462172336137
 20
745.88995143467764
 30
0.0
 11
983.93462172336149
 21
745.88995143467764
 31
0.0
  0
LINE
  5
3CB6
  8
0
 10
1060.680755641255
 20
755.38995143467855
 30
0.0
 11
919.18848780546784
 21
755.38995143467764
 31
0.0
  0
LINE
  5
3CB7
  8
0
 10
967.86962172335905
 20
748.38895143467744
 30
0.0
 11
953.9996217233637
 21
748.38895143467744
 31
0.0
  0
ARC
  5
3CB8
  8
0
 10
956.68462172336149
 20
758.83127223113752
 30
0.0
 40
10.44232079645947
 50
245.98362926446461
 51
294.0163707355353
  0
ARC
  5
3CB9
  8
0
 10
919.18848780546784
 20
757.38995143467764
 30
0.0
 40
2.0
 50
180.0
 51
270.0
  0
ARC
  5
3CBA
  8
0
 10
936.18462172336331
 20
758.83127223113661
 30
0.0
 40
10.44232079645921
 50
245.98362926446461
 51
294.01637073553542
  0
LINE
  5
3CBB
  8
0
 10
938.86962172336098
 20
748.38895143467744
 30
0.0
 11
924.99962172336564
 21
748.38895143467744
 31
0.0
  0
LINE
  5
3CBC
  8
0
 10
940.43462172336342
 20
749.29295143467778
 30
0.0
 11
938.8696217233645
 21
748.38895143467744
 31
0.0
  0
LINE
  5
3CBD
  8
0
 10
940.43462172336342
 20
755.38995143467764
 30
0.0
 11
940.43462172336342
 21
749.29295143467778
 31
0.0
  0
LINE
  5
3CBE
  8
0
 10
924.99962172336564
 20
748.38895143467744
 30
0.0
 11
923.43462172336342
 21
749.29295143467778
 31
0.0
  0
ARC
  5
3CBF
  8
0
 10
927.68462172336319
 20
758.83127223113752
 30
0.0
 40
10.44232079645947
 50
245.98362926446461
 51
294.0163707355353
  0
LINE
  5
3CC0
  8
0
 10
931.93462172336331
 20
749.29295143467778
 30
0.0
 11
931.93462172336331
 21
755.38995143467764
 31
0.0
  0
LINE
  5
3CC1
  8
0
 10
923.43462172336342
 20
749.29295143467778
 30
0.0
 11
923.43462172336342
 21
755.38995143467764
 31
0.0
  0
LINE
  5
3CC2
  8
0
 10
953.9996217233637
 20
748.38895143467744
 30
0.0
 11
952.43462172336149
 21
749.29295143467778
 31
0.0
  0
LINE
  5
3CC3
  8
0
 10
952.43462172336149
 20
749.29295143467778
 30
0.0
 11
952.43462172336149
 21
755.38995143467764
 31
0.0
  0
ARC
  5
3CC4
  8
0
 10
965.18462172336149
 20
758.83127223113661
 30
0.0
 40
10.44232079645921
 50
245.98362926446461
 51
294.01637073553542
  0
LINE
  5
3CC5
  8
0
 10
960.93462172336137
 20
749.29295143467778
 30
0.0
 11
960.93462172336137
 21
755.38995143467764
 31
0.0
  0
ARC
  5
3CC6
  8
0
 10
974.94852134555549
 20
750.38995143467764
 30
0.0
 40
5.0
 50
356.8152614632773
 51
90.0
  0
ARC
  5
3CC7
  8
0
 10
983.93462172336149
 20
749.88995143467764
 30
0.0
 40
4.0
 50
176.81526146327889
 51
270.0
  0
LINE
  5
3CC8
  8
0
 10
969.43462172336149
 20
749.29295143467778
 30
0.0
 11
967.8696217233628
 21
748.38895143467744
 31
0.0
  0
LINE
  5
3CC9
  8
0
 10
969.43462172336149
 20
755.38995143467764
 30
0.0
 11
969.43462172336149
 21
749.29295143467778
 31
0.0
  0
LINE
  5
3CCA
  8
0
 10
979.93462172336149
 20
749.92127763167616
 30
0.0
 11
979.93462172336149
 21
749.88995143467764
 31
0.0
  0
LINE
  5
3CCB
  8
0
 10
979.93462172336149
 20
749.92127763167616
 30
0.0
 11
979.93462172336149
 21
749.88995143467764
 31
0.0
  0
LINE
  5
3CCC
  8
0
 10
1027.4346217233649
 20
749.29295143467778
 30
0.0
 11
1025.869621723366
 21
748.38895143467835
 31
0.0
  0
LINE
  5
3CCD
  8
0
 10
1027.4346217233649
 20
755.38995143467764
 30
0.0
 11
1027.4346217233649
 21
749.29295143467778
 31
0.0
  0
ARC
  5
3CCE
  8
0
 10
1004.920722101167
 20
750.38995143467764
 30
0.0
 40
5.0
 50
90.0
 51
183.18473853672259
  0
LINE
  5
3CCF
  8
0
 10
1011.999621723367
 20
748.38895143467835
 30
0.0
 11
1010.434621723365
 21
749.29295143467778
 31
0.0
  0
ARC
  5
3CD0
  8
0
 10
1014.684621723365
 20
758.83127223113752
 30
0.0
 40
10.44232079645947
 50
245.98362926446461
 51
294.0163707355353
  0
LINE
  5
3CD1
  8
0
 10
1018.934621723365
 20
749.29295143467778
 30
0.0
 11
1018.934621723365
 21
755.38995143467764
 31
0.0
  0
LINE
  5
3CD2
  8
0
 10
1010.434621723365
 20
749.29295143467778
 30
0.0
 11
1010.434621723365
 21
755.38995143467764
 31
0.0
  0
ARC
  5
3CD3
  8
0
 10
995.93462172336137
 20
749.88995143467764
 30
0.0
 40
4.0
 50
270.0
 51
3.1847385367235539
  0
LINE
  5
3CD4
  8
0
 10
999.93462172336149
 20
749.92127763167616
 30
0.0
 11
999.93462172336149
 21
749.88995143467764
 31
0.0
  0
ARC
  5
3CD5
  8
0
 10
1023.184621723365
 20
758.83127223113752
 30
0.0
 40
10.44232079645921
 50
245.98362926446461
 51
294.01637073553542
  0
LINE
  5
3CD6
  8
0
 10
1025.869621723363
 20
748.38895143467835
 30
0.0
 11
1011.999621723367
 21
748.38895143467835
 31
0.0
  0
ARC
  5
3CD7
  8
0
 10
1060.680755641255
 20
757.38995143467764
 30
0.0
 40
2.0
 50
270.0
 51
0.000000000000007
  0
ARC
  5
3CD8
  8
0
 10
1052.1846217233631
 20
758.83127223113752
 30
0.0
 40
10.44232079645921
 50
245.98362926446461
 51
294.01637073553542
  0
LINE
  5
3CD9
  8
0
 10
1056.4346217233631
 20
749.29295143467778
 30
0.0
 11
1054.8696217233639
 21
748.38895143467835
 31
0.0
  0
LINE
  5
3CDA
  8
0
 10
1056.4346217233631
 20
755.38995143467855
 30
0.0
 11
1056.4346217233631
 21
749.29295143467778
 31
0.0
  0
LINE
  5
3CDB
  8
0
 10
1047.9346217233631
 20
749.29295143467778
 30
0.0
 11
1047.9346217233631
 21
755.38995143467855
 31
0.0
  0
LINE
  5
3CDC
  8
0
 10
1040.999621723365
 20
748.38895143467835
 30
0.0
 11
1039.4346217233631
 21
749.29295143467778
 31
0.0
  0
LINE
  5
3CDD
  8
0
 10
1039.4346217233631
 20
749.29295143467778
 30
0.0
 11
1039.4346217233631
 21
755.38995143467855
 31
0.0
  0
LINE
  5
3CDE
  8
0
 10
1054.869621723361
 20
748.38895143467835
 30
0.0
 11
1040.999621723365
 21
748.38895143467835
 31
0.0
  0
ARC
  5
3CDF
  8
0
 10
1043.6846217233631
 20
758.83127223113843
 30
0.0
 40
10.44232079645947
 50
245.98362926446461
 51
294.0163707355353
  0
ARC
  5
3CE0
  8
0
 10
1270.191137136771
 20
753.22027550009443
 30
0.0
 40
4.6309815714167701
 50
238.00067615949069
 51
301.99932384050919
  0
LINE
  5
3CE1
  8
0
 10
1285.8021371367699
 20
748.38895143467744
 30
0.0
 11
1269.3021371367699
 21
748.38895143467744
 31
0.0
  0
LINE
  5
3CE2
  8
0
 10
1269.3021371367699
 20
748.38895143467744
 30
0.0
 11
1267.7371371367719
 21
749.29295143467778
 31
0.0
  0
LINE
  5
3CE3
  8
0
 10
1282.8951371367709
 20
749.0519514346779
 30
0.0
 11
1283.36513713677
 21
748.85595143467788
 31
0.0
  0
LINE
  5
3CE4
  8
0
 10
1287.3671371367709
 20
749.29295143467778
 30
0.0
 11
1285.8021371367699
 21
748.38895143467744
 31
0.0
  0
LINE
  5
3CE5
  8
0
 10
1286.46113713677
 20
748.85495143467779
 30
0.0
 11
1287.3671371367709
 21
749.29295143467778
 31
0.0
  0
LINE
  5
3CE6
  8
0
 10
1285.96213713677
 20
748.70995143467735
 30
0.0
 11
1286.46113713677
 21
748.85495143467779
 31
0.0
  0
LINE
  5
3CE7
  8
0
 10
1285.44213713677
 20
748.61995143467811
 30
0.0
 11
1285.96213713677
 21
748.70995143467735
 31
0.0
  0
LINE
  5
3CE8
  8
0
 10
1284.913137136771
 20
748.58895143467805
 30
0.0
 11
1285.44213713677
 21
748.61995143467811
 31
0.0
  0
LINE
  5
3CE9
  8
0
 10
1284.384137136771
 20
748.61995143467811
 30
0.0
 11
1284.913137136771
 21
748.58895143467805
 31
0.0
  0
LINE
  5
3CEA
  8
0
 10
1283.86513713677
 20
748.70995143467735
 30
0.0
 11
1284.384137136771
 21
748.61995143467811
 31
0.0
  0
LINE
  5
3CEB
  8
0
 10
1283.36513713677
 20
748.85595143467788
 30
0.0
 11
1283.86513713677
 21
748.70995143467735
 31
0.0
  0
ARC
  5
3CEC
  8
0
 10
1277.5521371367699
 20
766.05194302779091
 30
0.0
 40
17.462601416113358
 50
253.68007233167401
 51
286.31992766832587
  0
LINE
  5
3CED
  8
0
 10
1282.459137136769
 20
749.29295143467778
 30
0.0
 11
1282.8951371367709
 21
749.0519514346779
 31
0.0
  0
ARC
  5
3CEE
  8
0
 10
1385.3720839757659
 20
753.22027550009443
 30
0.0
 40
4.6309815714167701
 50
238.00067615949081
 51
301.99932384050931
  0
LINE
  5
3CEF
  8
0
 10
1369.7610839757649
 20
748.38895143467744
 30
0.0
 11
1386.2610839757649
 21
748.38895143467744
 31
0.0
  0
TEXT
  5
3CF0
  8
0
 10
1300.4215255796839
 20
670.56577096680655
 30
0.0
 40
35.0
  1
40
 41
0.8
 72
     4
 11
1323.08819224635
 21
688.06577096680655
 31
0.0
  0
LINE
  5
3CF1
  8
0
 10
1317.7816105562681
 20
749.92127763167616
 30
0.0
 11
1317.7816105562681
 21
749.88995143467764
 31
0.0
  0
ARC
  5
3CF2
  8
0
 10
1333.7816105562681
 20
749.88995143467764
 30
0.0
 40
4.0
 50
270.0
 51
357.61437367276278
  0
LINE
  5
3CF3
  8
0
 10
1317.7816105562681
 20
749.92127763167616
 30
0.0
 11
1317.7816105562681
 21
749.88995143467764
 31
0.0
  0
ARC
  5
3CF4
  8
0
 10
1321.781610556269
 20
749.88995143467764
 30
0.0
 40
4.0
 50
180.0
 51
270.0
  0
LINE
  5
3CF5
  8
0
 10
1337.781610556269
 20
749.92127763167616
 30
0.0
 11
1337.781610556269
 21
749.88995143467764
 31
0.0
  0
LINE
  5
3CF6
  8
0
 10
1333.7816105562681
 20
745.88995143467764
 30
0.0
 11
1321.781610556269
 21
745.88995143467764
 31
0.0
  0
LINE
  5
3CF7
  8
0
 10
1319.531610556269
 20
748.38895143467744
 30
0.0
 11
1336.031610556269
 21
748.38895143467744
 31
0.0
  0
ARC
  5
3CF8
  8
0
 10
1335.142610556268
 20
753.22027550009443
 30
0.0
 40
4.6309815714167701
 50
238.00067615949081
 51
301.99932384050931
  0
LINE
  5
3CF9
  8
0
 10
1322.438610556268
 20
749.0519514346779
 30
0.0
 11
1321.968610556268
 21
748.85595143467697
 31
0.0
  0
LINE
  5
3CFA
  8
0
 10
1317.9666105562681
 20
749.29295143467778
 30
0.0
 11
1319.531610556269
 21
748.38895143467744
 31
0.0
  0
LINE
  5
3CFB
  8
0
 10
1318.8726105562689
 20
748.85495143467779
 30
0.0
 11
1317.9666105562681
 21
749.29295143467778
 31
0.0
  0
LINE
  5
3CFC
  8
0
 10
1319.3716105562689
 20
748.70995143467735
 30
0.0
 11
1318.8726105562689
 21
748.85495143467779
 31
0.0
  0
LINE
  5
3CFD
  8
0
 10
1319.8916105562689
 20
748.6199514346772
 30
0.0
 11
1319.3716105562689
 21
748.70995143467735
 31
0.0
  0
LINE
  5
3CFE
  8
0
 10
1320.420610556268
 20
748.58895143467726
 30
0.0
 11
1319.8916105562689
 21
748.6199514346772
 31
0.0
  0
LINE
  5
3CFF
  8
0
 10
1320.949610556268
 20
748.6199514346772
 30
0.0
 11
1320.420610556268
 21
748.58895143467726
 31
0.0
  0
LINE
  5
3D00
  8
0
 10
1321.4686105562689
 20
748.70995143467735
 30
0.0
 11
1320.949610556268
 21
748.6199514346772
 31
0.0
  0
LINE
  5
3D01
  8
0
 10
1321.968610556268
 20
748.85595143467697
 30
0.0
 11
1321.4686105562689
 21
748.70995143467735
 31
0.0
  0
ARC
  5
3D02
  8
0
 10
1327.781610556269
 20
766.05194302779091
 30
0.0
 40
17.462601416113358
 50
253.6800723316741
 51
286.31992766832587
  0
LINE
  5
3D03
  8
0
 10
1322.8746105562691
 20
749.29295143467778
 30
0.0
 11
1322.438610556268
 21
749.0519514346779
 31
0.0
  0
LINE
  5
3D04
  8
0
 10
1336.031610556269
 20
748.38895143467744
 30
0.0
 11
1337.596610556267
 21
749.29295143467778
 31
0.0
  0
LINE
  5
3D05
  8
0
 10
1373.1040839757659
 20
749.29295143467778
 30
0.0
 11
1372.668083975766
 21
749.0519514346779
 31
0.0
  0
LINE
  5
3D06
  8
0
 10
1372.198083975765
 20
748.85595143467788
 30
0.0
 11
1371.698083975765
 21
748.70995143467735
 31
0.0
  0
LINE
  5
3D07
  8
0
 10
1371.698083975765
 20
748.70995143467735
 30
0.0
 11
1371.179083975765
 21
748.61995143467811
 31
0.0
  0
LINE
  5
3D08
  8
0
 10
1371.179083975765
 20
748.61995143467811
 30
0.0
 11
1370.6500839757659
 21
748.58895143467805
 31
0.0
  0
LINE
  5
3D09
  8
0
 10
1370.6500839757659
 20
748.58895143467805
 30
0.0
 11
1370.1210839757659
 21
748.61995143467811
 31
0.0
  0
LINE
  5
3D0A
  8
0
 10
1370.1210839757659
 20
748.61995143467811
 30
0.0
 11
1369.6010839757651
 21
748.70995143467735
 31
0.0
  0
LINE
  5
3D0B
  8
0
 10
1372.668083975766
 20
749.0519514346779
 30
0.0
 11
1372.198083975765
 21
748.85595143467788
 31
0.0
  0
ARC
  5
3D0C
  8
0
 10
1378.0110839757649
 20
766.05194302779091
 30
0.0
 40
17.462601416113358
 50
253.6800723316741
 51
286.31992766832587
  0
LINE
  5
3D0D
  8
0
 10
1369.102083975765
 20
748.85495143467779
 30
0.0
 11
1368.1960839757651
 21
749.29295143467778
 31
0.0
  0
LINE
  5
3D0E
  8
0
 10
1368.1960839757651
 20
749.29295143467778
 30
0.0
 11
1369.7610839757649
 21
748.38895143467744
 31
0.0
  0
LINE
  5
3D0F
  8
0
 10
1369.6010839757651
 20
748.70995143467735
 30
0.0
 11
1369.102083975765
 21
748.85495143467779
 31
0.0
  0
LINE
  5
3D10
  8
0
 10
1386.2610839757649
 20
748.38895143467744
 30
0.0
 11
1387.8260839757661
 21
749.29295143467778
 31
0.0
  0
LINE
  5
3D12
  8
0
 10
1028.0637472203159
 20
973.38995143467753
 30
0.0
 11
1028.875747220314
 21
974.20195143467754
 31
0.0
  0
LINE
  5
3D13
  8
0
 10
951.80549622640683
 20
973.38995143467753
 30
0.0
 11
950.99349622640682
 21
974.20195143467754
 31
0.0
  0
LINE
  5
3D14
  8
0
 10
960.99349622640705
 20
974.20195143467754
 30
0.0
 11
960.18149622640703
 21
973.38995143467753
 31
0.0
  0
LINE
  5
3D15
  8
0
 10
1018.875747220316
 20
974.20195143467754
 30
0.0
 11
1019.6877472203161
 21
973.38995143467753
 31
0.0
  0
ARC
  5
3D16
  8
0
 10
918.56545168787659
 20
935.38995143468026
 30
0.0
 40
2.0
 50
90.0
 51
180.0
  0
ARC
  5
3D17
  8
0
 10
918.56545168787659
 20
912.38995143467935
 30
0.0
 40
2.0
 50
180.0
 51
270.0
  0
LINE
  5
3D18
  8
0
 10
1063.303791758846
 20
924.38995143467946
 30
0.0
 11
916.56545168787488
 21
924.38995143467946
 31
0.0
  0
LINE
  5
3D19
  8
0
 10
916.5654516878767
 20
935.38995143468026
 30
0.0
 11
916.5654516878767
 21
912.38995143467935
 31
0.0
  0
LINE
  5
3D1A
  8
0
 10
916.56545168787488
 20
924.38995143467946
 30
0.0
 11
916.5654516878767
 21
912.38995143467935
 31
0.0
  0
CIRCLE
  5
3D1B
  8
0
 10
952.81151571106966
 20
871.51305744697117
 30
0.0
 40
9.5
  0
CIRCLE
  5
3D1C
  8
0
 10
1027.0577277356531
 20
871.51305744697117
 30
0.0
 40
9.5
  0
CIRCLE
  5
3D1D
  8
0
 10
989.93462172336149
 20
834.38995143467776
 30
0.0
 40
70.0
  0
LINE
  5
3D1E
  8
0
 10
966.61081414397995
 20
768.38995143467764
 30
0.0
 11
917.18848780546796
 21
768.38995143467764
 31
0.0
  0
CIRCLE
  5
3D1F
  8
0
 10
952.81151571106966
 20
797.26684542238399
 30
0.0
 40
9.5
  0
LINE
  5
3D20
  8
0
 10
917.18848780546796
 20
779.38995143467764
 30
0.0
 11
917.18848780546796
 21
768.38995143467764
 31
0.0
  0
ARC
  5
3D21
  8
0
 10
919.18848780546784
 20
779.38995143467764
 30
0.0
 40
2.0
 50
90.0
 51
180.00000000000199
  0
ARC
  5
3D22
  8
0
 10
936.93462172336137
 20
785.38995143467764
 30
0.0
 40
4.0
 50
270.0
 51
347.12587784516012
  0
LINE
  5
3D23
  8
0
 10
944.20716826266641
 20
781.38995143467764
 30
0.0
 11
919.18848780546784
 21
781.38995143467764
 31
0.0
  0
LINE
  5
3D24
  8
0
 10
1062.680755641253
 20
768.38995143467764
 30
0.0
 11
1013.258429302743
 21
768.38995143467764
 31
0.0
  0
CIRCLE
  5
3D25
  8
0
 10
1027.0577277356531
 20
797.26684542238399
 30
0.0
 40
9.5
  0
LINE
  5
3D26
  8
0
 10
1060.680755641255
 20
781.38995143467764
 30
0.0
 11
1035.662075184056
 21
781.38995143467764
 31
0.0
  0
LINE
  5
3D27
  8
0
 10
1062.680755641255
 20
779.38995143467764
 30
0.0
 11
1062.680755641255
 21
768.38995143467764
 31
0.0
  0
ARC
  5
3D28
  8
0
 10
1060.680755641255
 20
779.38995143467764
 30
0.0
 40
2.0
 50
0.000000000000007
 51
90.0
  0
ARC
  5
3D29
  8
0
 10
1042.934621723361
 20
785.38995143467764
 30
0.0
 40
4.0
 50
192.87412215483991
 51
270.0
  0
POLYLINE
  5
3D2A
  8
0
 66
     1
 10
0.0
 20
0.0
 30
0.0
 70
     1
  0
VERTEX
  5
6295
  8
0
 10
989.93462172336149
 20
925.53354497412681
 30
0.0
  0
VERTEX
  5
6296
  8
0
 10
1001.934621723361
 20
932.46174820440217
 30
0.0
  0
VERTEX
  5
6297
  8
0
 10
1001.934621723361
 20
946.31815466495289
 30
0.0
  0
VERTEX
  5
6298
  8
0
 10
989.93462172336149
 20
953.24635789522824
 30
0.0
  0
VERTEX
  5
6299
  8
0
 10
977.93462172336137
 20
946.31815466495289
 30
0.0
  0
VERTEX
  5
629A
  8
0
 10
977.93462172336137
 20
932.46174820440217
 30
0.0
  0
SEQEND
  5
629B
  8
0
  0
CIRCLE
  5
3D2B
  8
0
 10
989.93462172336149
 20
939.38995143467764
 30
0.0
 40
12.0
  0
ARC
  5
3D2C
  8
0
 10
989.93462172336149
 20
939.38995143467764
 30
0.0
 40
13.49999999999998
 50
272.73395554927282
 51
327.26604445072871
  0
ARC
  5
3D2D
  8
0
 10
989.93462172336149
 20
939.38995143467764
 30
0.0
 40
13.49999999999998
 50
32.733955549271322
 51
87.266044450727165
  0
LINE
  5
3D2E
  8
0
 10
1061.303791758844
 20
910.38995143467935
 30
0.0
 11
918.56545168787659
 21
910.38995143467935
 31
0.0
  0
LINE
  5
3D2F
  8
0
 10
953.25003670561989
 20
916.4942588914854
 30
0.0
 11
953.25003670561989
 21
932.28564397786977
 31
0.0
  0
LINE
  5
3D30
  8
0
 10
946.43462172336149
 20
895.38995143467764
 30
0.0
 11
946.43462172336149
 21
889.23290905003614
 31
0.0
  0
LINE
  5
3D31
  8
0
 10
923.93462172336149
 20
910.38995143467935
 30
0.0
 11
923.93462172336149
 21
907.20195143467924
 31
0.0
  0
LINE
  5
3D32
  8
0
 10
923.93462172336149
 20
907.20195143467924
 30
0.0
 11
924.74662172336127
 21
906.38995143467946
 31
0.0
  0
LINE
  5
3D33
  8
0
 10
933.93462172336149
 20
907.20195143467924
 30
0.0
 11
933.93462172336149
 21
910.38995143467935
 31
0.0
  0
LINE
  5
3D34
  8
0
 10
933.12262172336159
 20
906.38995143467946
 30
0.0
 11
933.93462172336149
 21
907.20195143467924
 31
0.0
  0
LINE
  5
3D35
  8
0
 10
924.74662172336127
 20
906.38995143467946
 30
0.0
 11
933.12262172336159
 21
906.38995143467946
 31
0.0
  0
LINE
  5
3D36
  8
0
 10
933.93462172336149
 20
907.20195143467924
 30
0.0
 11
923.93462172336149
 21
907.20195143467924
 31
0.0
  0
ARC
  5
3D37
  8
0
 10
940.15540611248798
 20
906.38995143467753
 30
0.0
 40
4.0
 50
11.30993247402043
 51
60.796269409788898
  0
LINE
  5
3D38
  8
0
 10
944.07772881524943
 20
907.17441597522975
 30
0.0
 11
946.43462172336149
 21
895.38995143467764
 31
0.0
  0
LINE
  5
3D39
  8
0
 10
964.43462172336137
 20
907.20195143467924
 30
0.0
 11
954.43462172336149
 21
907.20195143467924
 31
0.0
  0
LINE
  5
3D3A
  8
0
 10
955.24662172336127
 20
906.38995143467946
 30
0.0
 11
963.62262172336159
 21
906.38995143467946
 31
0.0
  0
LINE
  5
3D3B
  8
0
 10
954.43462172336149
 20
907.20195143467924
 30
0.0
 11
955.24662172336127
 21
906.38995143467946
 31
0.0
  0
LINE
  5
3D3C
  8
0
 10
954.43462172336149
 20
910.38995143467935
 30
0.0
 11
954.43462172336149
 21
907.20195143467924
 31
0.0
  0
LINE
  5
3D3D
  8
0
 10
963.62262172336159
 20
906.38995143467946
 30
0.0
 11
964.43462172336137
 21
907.20195143467924
 31
0.0
  0
LINE
  5
3D3E
  8
0
 10
964.43462172336137
 20
907.20195143467924
 30
0.0
 11
964.43462172336137
 21
910.38995143467935
 31
0.0
  0
LINE
  5
3D3F
  8
0
 10
981.93462172335967
 20
903.93130603753173
 30
0.0
 11
981.93462172335967
 21
910.38995143467935
 31
0.0
  0
LINE
  5
3D40
  8
0
 10
976.58359180054322
 20
937.38995143467764
 30
0.0
 11
918.56545168787659
 21
937.38995143467764
 31
0.0
  0
LINE
  5
3D41
  8
0
 10
966.36962172335905
 20
944.41182106312681
 30
0.0
 11
952.49962172336382
 21
944.41182106312681
 31
0.0
  0
ARC
  5
3D42
  8
0
 10
955.18462172336149
 20
933.96950026666673
 30
0.0
 40
10.44232079645947
 50
65.983629264464611
 51
114.0163707355354
  0
LINE
  5
3D43
  8
0
 10
960.18149622640703
 20
973.38995143467753
 30
0.0
 11
951.80549622640683
 21
973.38995143467753
 31
0.0
  0
LINE
  5
3D44
  8
0
 10
921.99962172336393
 20
944.39095143467785
 30
0.0
 11
920.43462172336149
 21
943.48695143467739
 31
0.0
  0
LINE
  5
3D45
  8
0
 10
920.43462172336149
 20
943.48695143467739
 30
0.0
 11
920.43462172336149
 21
937.38995143467764
 31
0.0
  0
LINE
  5
3D46
  8
0
 10
937.43462172336149
 20
943.48695143467739
 30
0.0
 11
935.8696217233628
 21
944.39095143467785
 31
0.0
  0
ARC
  5
3D47
  8
0
 10
933.18462172336137
 20
933.94863063821856
 30
0.0
 40
10.44232079645921
 50
65.983629264464597
 51
114.0163707355354
  0
LINE
  5
3D48
  8
0
 10
937.43462172336149
 20
937.38995143467764
 30
0.0
 11
937.43462172336149
 21
943.48695143467739
 31
0.0
  0
LINE
  5
3D49
  8
0
 10
928.93462172336137
 20
943.48695143467739
 30
0.0
 11
928.93462172336137
 21
937.38995143467764
 31
0.0
  0
ARC
  5
3D4A
  8
0
 10
924.68462172336149
 20
933.94863063821856
 30
0.0
 40
10.44232079645947
 50
65.983629264464611
 51
114.0163707355354
  0
LINE
  5
3D4B
  8
0
 10
935.86962172335905
 20
944.39095143467785
 30
0.0
 11
921.99962172336393
 21
944.39095143467785
 31
0.0
  0
LINE
  5
3D4C
  8
0
 10
952.49962172336382
 20
944.41182106312681
 30
0.0
 11
950.93462172336137
 21
943.50782106312727
 31
0.0
  0
LINE
  5
3D4D
  8
0
 10
950.93462172336137
 20
943.50782106312727
 30
0.0
 11
950.93462172336137
 21
937.41082106312751
 31
0.0
  0
ARC
  5
3D4E
  8
0
 10
971.93462172336149
 20
980.38995143467764
 30
0.0
 40
15.0
 50
208.57187814230801
 51
229.29429316895769
  0
ARC
  5
3D4F
  8
0
 10
971.93462172336149
 20
980.38995143467764
 30
0.0
 40
15.0
 50
208.5718781423079
 51
229.29429316895761
  0
ARC
  5
3D50
  8
0
 10
963.68462172336137
 20
933.96950026666764
 30
0.0
 40
10.44232079645921
 50
65.983629264464597
 51
114.0163707355354
  0
LINE
  5
3D51
  8
0
 10
959.43462172336149
 20
943.50782106312727
 30
0.0
 11
959.43462172336149
 21
937.41082106312751
 31
0.0
  0
LINE
  5
3D52
  8
0
 10
964.93462172336149
 20
962.95435566051492
 30
0.0
 11
964.93462172336149
 21
944.41182106312681
 31
0.0
  0
ARC
  5
3D53
  8
0
 10
956.93462172336149
 20
962.95435566051492
 30
0.0
 40
8.0
 50
0.000000000000007
 51
49.294293168957132
  0
ARC
  5
3D54
  8
0
 10
989.93462172336149
 20
939.38995143467764
 30
0.0
 40
13.49999999999998
 50
92.733955549272807
 51
147.2660444507286
  0
ARC
  5
3D55
  8
0
 10
989.93462172336149
 20
939.38995143467764
 30
0.0
 40
13.49999999999998
 50
212.73395554927129
 51
267.26604445072718
  0
ARC
  5
3D56
  8
0
 10
989.93462172336149
 20
939.38995143467764
 30
0.0
 40
13.49999999999998
 50
152.73395554926779
 51
207.2660444507321
  0
ARC
  5
3D57
  8
0
 10
971.67948545983188
 20
942.38995143467776
 30
0.0
 40
5.0
 50
270.0
 51
350.66758181620048
  0
LINE
  5
3D58
  8
0
 10
967.93462172336137
 20
943.50782106312727
 30
0.0
 11
966.3696217233628
 21
944.41182106312681
 31
0.0
  0
LINE
  5
3D59
  8
0
 10
967.93462172336137
 20
937.41082106312751
 30
0.0
 11
967.93462172336137
 21
943.50782106312727
 31
0.0
  0
ARC
  5
3D5A
  8
0
 10
951.73561184663765
 20
969.38995143467764
 30
0.0
 40
8.0
 50
28.571878142307789
 51
30.000000000000629
  0
ARC
  5
3D5B
  8
0
 10
951.73561184663765
 20
969.38995143467764
 30
0.0
 40
8.0
 50
28.571878142307789
 51
30.000000000000519
  0
ARC
  5
3D5C
  8
0
 10
951.73561184663765
 20
969.38995143467764
 30
0.0
 40
8.0
 50
28.571878142307789
 51
30.000000000000391
  0
LINE
  5
3D5D
  8
0
 10
1063.303791758844
 20
935.38995143468026
 30
0.0
 11
1063.303791758844
 21
912.38995143467935
 31
0.0
  0
LINE
  5
3D5E
  8
0
 10
1063.303791758844
 20
924.38995143467946
 30
0.0
 11
1063.303791758844
 21
912.38995143467935
 31
0.0
  0
LINE
  5
3D5F
  8
0
 10
1026.619206741105
 20
916.4942588914854
 30
0.0
 11
1026.619206741105
 21
932.28564397786977
 31
0.0
  0
LINE
  5
3D60
  8
0
 10
1025.434621723361
 20
907.20195143467924
 30
0.0
 11
1024.6226217233609
 21
906.38995143467946
 31
0.0
  0
LINE
  5
3D61
  8
0
 10
1025.434621723361
 20
910.38995143467935
 30
0.0
 11
1025.434621723361
 21
907.20195143467924
 31
0.0
  0
LINE
  5
3D62
  8
0
 10
1016.246621723361
 20
906.38995143467946
 30
0.0
 11
1015.434621723361
 21
907.20195143467924
 31
0.0
  0
LINE
  5
3D63
  8
0
 10
1015.434621723361
 20
907.20195143467924
 30
0.0
 11
1015.434621723361
 21
910.38995143467935
 31
0.0
  0
LINE
  5
3D64
  8
0
 10
997.93462172336513
 20
903.93130603753173
 30
0.0
 11
997.93462172336513
 21
910.38995143467935
 31
0.0
  0
LINE
  5
3D65
  8
0
 10
1015.434621723361
 20
907.20195143467924
 30
0.0
 11
1025.434621723361
 21
907.20195143467924
 31
0.0
  0
LINE
  5
3D66
  8
0
 10
1024.6226217233609
 20
906.38995143467946
 30
0.0
 11
1016.246621723361
 21
906.38995143467946
 31
0.0
  0
LINE
  5
3D67
  8
0
 10
1055.934621723361
 20
910.38995143467935
 30
0.0
 11
1055.934621723361
 21
907.20195143467924
 31
0.0
  0
LINE
  5
3D68
  8
0
 10
1055.934621723361
 20
907.20195143467924
 30
0.0
 11
1055.1226217233609
 21
906.38995143467946
 31
0.0
  0
ARC
  5
3D69
  8
0
 10
1061.303791758844
 20
912.38995143467935
 30
0.0
 40
2.0
 50
270.0
 51
0.000000000000007
  0
LINE
  5
3D6A
  8
0
 10
1046.7466217233609
 20
906.38995143467946
 30
0.0
 11
1045.934621723361
 21
907.20195143467924
 31
0.0
  0
LINE
  5
3D6B
  8
0
 10
1033.434621723361
 20
895.38995143467764
 30
0.0
 11
1033.434621723361
 21
889.23290905003614
 31
0.0
  0
LINE
  5
3D6C
  8
0
 10
1045.934621723361
 20
907.20195143467924
 30
0.0
 11
1045.934621723361
 21
910.38995143467935
 31
0.0
  0
ARC
  5
3D6D
  8
0
 10
1039.713837334235
 20
906.38995143467753
 30
0.0
 40
4.0
 50
119.20373059021099
 51
168.69006752597949
  0
LINE
  5
3D6E
  8
0
 10
1035.791514631472
 20
907.17441597523054
 30
0.0
 11
1033.434621723361
 21
895.38995143467764
 31
0.0
  0
LINE
  5
3D6F
  8
0
 10
1045.934621723361
 20
907.20195143467924
 30
0.0
 11
1055.934621723361
 21
907.20195143467924
 31
0.0
  0
LINE
  5
3D70
  8
0
 10
1055.1226217233609
 20
906.38995143467946
 30
0.0
 11
1046.7466217233609
 21
906.38995143467946
 31
0.0
  0
LINE
  5
3D71
  8
0
 10
1061.303791758844
 20
937.38995143467764
 30
0.0
 11
1003.28565164618
 21
937.38995143467764
 31
0.0
  0
LINE
  5
3D72
  8
0
 10
1028.934621723361
 20
943.48695143467739
 30
0.0
 11
1027.3696217233619
 21
944.39095143467785
 31
0.0
  0
LINE
  5
3D73
  8
0
 10
1028.934621723361
 20
937.38995143467764
 30
0.0
 11
1028.934621723361
 21
943.48695143467739
 31
0.0
  0
ARC
  5
3D74
  8
0
 10
1007.934621723361
 20
980.38995143467764
 30
0.0
 40
15.0
 50
310.70570683104228
 51
331.42812185769191
  0
ARC
  5
3D75
  8
0
 10
1007.934621723361
 20
980.38995143467764
 30
0.0
 40
15.0
 50
310.70570683104251
 51
331.42812185769208
  0
ARC
  5
3D76
  8
0
 10
1008.189757986891
 20
942.38995143467776
 30
0.0
 40
5.0
 50
189.3324181837994
 51
270.0
  0
LINE
  5
3D77
  8
0
 10
1014.934621723361
 20
962.95435566051492
 30
0.0
 11
1014.934621723361
 21
944.39095143467785
 31
0.0
  0
LINE
  5
3D78
  8
0
 10
1013.499621723364
 20
944.39095143467785
 30
0.0
 11
1011.934621723361
 21
943.48695143467739
 31
0.0
  0
LINE
  5
3D79
  8
0
 10
1011.934621723361
 20
943.48695143467739
 30
0.0
 11
1011.934621723361
 21
937.38995143467764
 31
0.0
  0
LINE
  5
3D7A
  8
0
 10
1020.434621723361
 20
943.48695143467739
 30
0.0
 11
1020.434621723361
 21
937.38995143467764
 31
0.0
  0
ARC
  5
3D7B
  8
0
 10
1016.184621723361
 20
933.94863063821856
 30
0.0
 40
10.44232079645947
 50
65.983629264464611
 51
114.0163707355354
  0
ARC
  5
3D7C
  8
0
 10
1022.934621723361
 20
962.95435566051492
 30
0.0
 40
8.0
 50
130.7057068310429
 51
180.0
  0
ARC
  5
3D7D
  8
0
 10
989.93462172336149
 20
939.38995143467764
 30
0.0
 40
13.49999999999998
 50
332.73395554927532
 51
27.26604445074241
  0
ARC
  5
3D7E
  8
0
 10
1028.133631600085
 20
969.38995143467764
 30
0.0
 40
8.0
 50
149.99999999999929
 51
151.42812185769219
  0
ARC
  5
3D7F
  8
0
 10
1028.133631600085
 20
969.38995143467764
 30
0.0
 40
8.0
 50
149.9999999999996
 51
151.42812185769219
  0
ARC
  5
3D80
  8
0
 10
1024.684621723361
 20
933.94863063821856
 30
0.0
 40
10.44232079645921
 50
65.983629264464597
 51
114.0163707355354
  0
LINE
  5
3D81
  8
0
 10
1027.3696217233589
 20
944.39095143467785
 30
0.0
 11
1013.499621723364
 21
944.39095143467785
 31
0.0
  0
LINE
  5
3D82
  8
0
 10
1019.6877472203161
 20
973.38995143467753
 30
0.0
 11
1028.0637472203159
 21
973.38995143467753
 31
0.0
  0
LINE
  5
3D83
  8
0
 10
1059.434621723361
 20
943.48695143467739
 30
0.0
 11
1057.8696217233619
 21
944.39095143467785
 31
0.0
  0
ARC
  5
3D84
  8
0
 10
1055.184621723361
 20
933.94863063821856
 30
0.0
 40
10.44232079645921
 50
65.983629264464597
 51
114.0163707355354
  0
LINE
  5
3D85
  8
0
 10
1059.434621723361
 20
937.38995143467764
 30
0.0
 11
1059.434621723361
 21
943.48695143467739
 31
0.0
  0
LINE
  5
3D86
  8
0
 10
1050.934621723361
 20
943.48695143467739
 30
0.0
 11
1050.934621723361
 21
937.38995143467764
 31
0.0
  0
ARC
  5
3D87
  8
0
 10
1061.303791758844
 20
935.38995143468026
 30
0.0
 40
2.0
 50
0.000000000000007
 51
90.0
  0
LINE
  5
3D88
  8
0
 10
1043.999621723364
 20
944.39095143467785
 30
0.0
 11
1042.434621723361
 21
943.48695143467739
 31
0.0
  0
LINE
  5
3D89
  8
0
 10
1042.434621723361
 20
943.48695143467739
 30
0.0
 11
1042.434621723361
 21
937.38995143467764
 31
0.0
  0
ARC
  5
3D8A
  8
0
 10
1046.684621723361
 20
933.94863063821856
 30
0.0
 40
10.44232079645947
 50
65.983629264464611
 51
114.0163707355354
  0
LINE
  5
3D8B
  8
0
 10
1057.8696217233589
 20
944.39095143467785
 30
0.0
 11
1043.999621723364
 21
944.39095143467785
 31
0.0
  0
LINE
  5
3D8C
  8
0
 10
969.43462172336149
 20
1115.889951434679
 30
0.0
 11
969.43462172336149
 21
1077.0613124714539
 31
0.0
  0
LINE
  5
3D8D
  8
0
 10
1010.434621723361
 20
1115.889951434677
 30
0.0
 11
1010.434621723361
 21
1077.0613124714539
 31
0.0
  0
LINE
  5
3D8E
  8
0
 10
989.93462172336149
 20
1112.7185903979021
 30
0.0
 11
989.93462172336149
 21
1077.0613124714521
 31
0.0
  0
LINE
  5
3D8F
  8
0
 10
1015.93462172336
 20
1058.889951434677
 30
0.0
 11
963.93462172336149
 21
1058.889951434677
 31
0.0
  0
LINE
  5
3D90
  8
0
 10
1015.934621723361
 20
1053.8899514346781
 30
0.0
 11
963.93462172336331
 21
1053.8899514346781
 31
0.0
  0
LINE
  5
3D91
  8
0
 10
1015.93462172336
 20
1065.8899514346781
 30
0.0
 11
963.93462172336149
 21
1065.8899514346781
 31
0.0
  0
LINE
  5
3D92
  8
0
 10
1015.934621723361
 20
1073.8899514346781
 30
0.0
 11
963.93462172336149
 21
1073.8899514346781
 31
0.0
  0
ARC
  5
3D93
  8
0
 10
1000.184621723359
 20
1092.03989234185
 30
0.0
 40
18.149940907172681
 50
235.61575253195321
 51
304.38424746806101
  0
LINE
  5
3D94
  8
0
 10
1034.434621723361
 20
977.38995143467764
 30
0.0
 11
945.43462172336149
 21
977.38995143467764
 31
0.0
  0
LINE
  5
3D95
  8
0
 10
945.43462172336149
 20
1000.389951434677
 30
0.0
 11
1034.434621723361
 21
1000.389951434677
 31
0.0
  0
LINE
  5
3D96
  8
0
 10
1036.434621723361
 20
989.38995143467764
 30
0.0
 11
943.43462172336149
 21
989.38995143467764
 31
0.0
  0
LINE
  5
3D97
  8
0
 10
968.93462172336137
 20
1006.389951434677
 30
0.0
 11
968.93462172336137
 21
1053.8899514346781
 31
0.0
  0
LINE
  5
3D98
  8
0
 10
962.9284962264046
 20
1008.389951434677
 30
0.0
 11
949.05849622640744
 21
1008.389951434677
 31
0.0
  0
ARC
  5
3D99
  8
0
 10
951.74349622640693
 20
997.94763063821847
 30
0.0
 40
10.44232079645947
 50
65.983629264464611
 51
114.0163707355354
  0
LINE
  5
3D9A
  8
0
 10
950.99349622640682
 20
974.20195143467754
 30
0.0
 11
960.99349622640705
 21
974.20195143467754
 31
0.0
  0
LINE
  5
3D9B
  8
0
 10
943.43462172336149
 20
998.38995143467753
 30
0.0
 11
943.43462172336149
 21
989.38995143467764
 31
0.0
  0
ARC
  5
3D9C
  8
0
 10
945.43462172336149
 20
998.38995143467753
 30
0.0
 40
2.0
 50
90.0
 51
180.00000000000031
  0
LINE
  5
3D9D
  8
0
 10
949.05849622640744
 20
1008.389951434677
 30
0.0
 11
947.49349622640705
 21
1007.485951434677
 31
0.0
  0
LINE
  5
3D9E
  8
0
 10
947.49349622640705
 20
1007.485951434677
 30
0.0
 11
947.49349622640705
 21
1000.389951434677
 31
0.0
  0
LINE
  5
3D9F
  8
0
 10
943.43462172336149
 20
989.38995143467764
 30
0.0
 11
943.43462172336149
 21
979.38995143467764
 31
0.0
  0
LINE
  5
3DA0
  8
0
 10
950.99349622640682
 20
974.20195143467754
 30
0.0
 11
950.99349622640682
 21
977.38995143467764
 31
0.0
  0
ARC
  5
3DA1
  8
0
 10
945.43462172336149
 20
979.38995143467764
 30
0.0
 40
2.0
 50
180.0
 51
270.0
  0
ARC
  5
3DA2
  8
0
 10
962.93462172336149
 20
1006.389951434677
 30
0.0
 40
5.9999999999999281
 50
285.05893193847339
 51
0.0000000000002869
  0
ARC
  5
3DA3
  8
0
 10
960.24349622640693
 20
997.94763063821847
 30
0.0
 40
10.44232079645921
 50
65.983629264464597
 51
114.0163707355354
  0
LINE
  5
3DA4
  8
0
 10
955.99349622640693
 20
1007.485951434677
 30
0.0
 11
955.99349622640693
 21
1000.389951434677
 31
0.0
  0
LINE
  5
3DA5
  8
0
 10
960.99349622640705
 20
977.38995143467764
 30
0.0
 11
960.99349622640705
 21
974.20195143467754
 31
0.0
  0
LINE
  5
3DA6
  8
0
 10
964.49349622640705
 20
1007.485951434677
 30
0.0
 11
962.92849622640642
 21
1008.389951434677
 31
0.0
  0
LINE
  5
3DA7
  8
0
 10
964.49349622640705
 20
1000.389951434677
 30
0.0
 11
964.49349622640705
 21
1007.485951434677
 31
0.0
  0
LINE
  5
3DA8
  8
0
 10
969.43462172335967
 20
1077.0613124714539
 30
0.0
 11
963.93462172336149
 21
1073.8899514346781
 31
0.0
  0
LINE
  5
3DA9
  8
0
 10
963.93462172336149
 20
1073.8899514346781
 30
0.0
 11
963.93462172336331
 21
1053.8899514346781
 31
0.0
  0
ARC
  5
3DAA
  8
0
 10
979.68462172336137
 20
1092.03989234185
 30
0.0
 40
18.149940907172681
 50
235.61575253193911
 51
304.38424746804668
  0
LINE
  5
3DAB
  8
0
 10
976.93462172336137
 20
1065.8899514346781
 30
0.0
 11
976.93462172336319
 21
1058.889951434677
 31
0.0
  0
ARC
  5
3DAC
  8
0
 10
969.43462172335785
 20
1060.889951434677
 30
0.0
 40
2.0
 50
180.0
 51
270.0
  0
ARC
  5
3DAD
  8
0
 10
969.43462172335785
 20
1063.8899514346781
 30
0.0
 40
2.0
 50
90.0
 51
180.0
  0
LINE
  5
3DAE
  8
0
 10
967.43462172335956
 20
1063.8899514346781
 30
0.0
 11
967.43462172335785
 21
1060.889951434677
 31
0.0
  0
LINE
  5
3DAF
  8
0
 10
989.93462172336149
 20
1058.889951434677
 30
0.0
 11
989.93462172336149
 21
1065.8899514346781
 31
0.0
  0
LINE
  5
3DB0
  8
0
 10
1010.934621723361
 20
1006.389951434677
 30
0.0
 11
1010.934621723361
 21
1053.8899514346781
 31
0.0
  0
ARC
  5
3DB1
  8
0
 10
1028.125747220316
 20
997.94763063821847
 30
0.0
 40
10.44232079645921
 50
65.983629264464597
 51
114.0163707355354
  0
LINE
  5
3DB2
  8
0
 10
1030.810747220313
 20
1008.389951434677
 30
0.0
 11
1016.940747220316
 21
1008.389951434677
 31
0.0
  0
LINE
  5
3DB3
  8
0
 10
1028.875747220314
 20
974.20195143467754
 30
0.0
 11
1028.875747220314
 21
977.38995143467764
 31
0.0
  0
LINE
  5
3DB4
  8
0
 10
1023.875747220316
 20
1007.485951434677
 30
0.0
 11
1023.875747220316
 21
1000.389951434677
 31
0.0
  0
ARC
  5
3DB5
  8
0
 10
1016.934621723361
 20
1006.389951434677
 30
0.0
 40
5.9999999999999902
 50
180.0
 51
254.94106806152661
  0
LINE
  5
3DB6
  8
0
 10
1016.940747220316
 20
1008.389951434677
 30
0.0
 11
1015.375747220316
 21
1007.485951434677
 31
0.0
  0
LINE
  5
3DB7
  8
0
 10
1015.375747220316
 20
1007.485951434677
 30
0.0
 11
1015.375747220316
 21
1000.389951434677
 31
0.0
  0
LINE
  5
3DB8
  8
0
 10
1018.875747220316
 20
977.38995143467764
 30
0.0
 11
1018.875747220316
 21
974.20195143467754
 31
0.0
  0
ARC
  5
3DB9
  8
0
 10
1019.625747220316
 20
997.94763063821847
 30
0.0
 40
10.44232079645947
 50
65.983629264464611
 51
114.0163707355354
  0
LINE
  5
3DBA
  8
0
 10
1028.875747220314
 20
974.20195143467754
 30
0.0
 11
1018.875747220316
 21
974.20195143467754
 31
0.0
  0
LINE
  5
3DBB
  8
0
 10
1036.434621723361
 20
998.38995143467753
 30
0.0
 11
1036.434621723361
 21
989.38995143467764
 31
0.0
  0
ARC
  5
3DBC
  8
0
 10
1034.434621723361
 20
998.38995143467753
 30
0.0
 40
2.0
 50
0.000000000000007
 51
90.0
  0
LINE
  5
3DBD
  8
0
 10
1032.375747220316
 20
1007.485951434677
 30
0.0
 11
1030.8107472203151
 21
1008.389951434677
 31
0.0
  0
LINE
  5
3DBE
  8
0
 10
1032.375747220316
 20
1000.389951434677
 30
0.0
 11
1032.375747220316
 21
1007.485951434677
 31
0.0
  0
LINE
  5
3DBF
  8
0
 10
1036.434621723361
 20
989.38995143467764
 30
0.0
 11
1036.434621723361
 21
979.38995143467764
 31
0.0
  0
ARC
  5
3DC0
  8
0
 10
1034.434621723361
 20
979.38995143467764
 30
0.0
 40
2.0
 50
270.0
 51
0.000000000000007
  0
LINE
  5
3DC1
  8
0
 10
1002.934621723361
 20
1065.8899514346781
 30
0.0
 11
1002.934621723361
 21
1058.889951434677
 31
0.0
  0
ARC
  5
3DC2
  8
0
 10
1010.441681651236
 20
1060.889951434677
 30
0.0
 40
2.0
 50
270.0
 51
0.000000000000007
  0
LINE
  5
3DC3
  8
0
 10
1015.934621723361
 20
1073.8899514346781
 30
0.0
 11
1015.934621723361
 21
1053.8899514346781
 31
0.0
  0
LINE
  5
3DC4
  8
0
 10
1010.434621723361
 20
1077.061312471455
 30
0.0
 11
1015.934621723361
 21
1073.8899514346781
 31
0.0
  0
ARC
  5
3DC5
  8
0
 10
1010.441681651236
 20
1063.8899514346781
 30
0.0
 40
2.0
 50
0.000000000000007
 51
90.0
  0
LINE
  5
3DC6
  8
0
 10
1012.441681651236
 20
1063.8899514346781
 30
0.0
 11
1012.441681651236
 21
1060.889951434677
 31
0.0
  0
LINE
  5
3DC7
  8
0
 10
1006.204915869282
 20
1130.889951434677
 30
0.0
 11
973.66432757743848
 21
1130.889951434677
 31
0.0
  0
LINE
  5
3DC8
  8
0
 10
1010.434621723361
 20
1115.889951434677
 30
0.0
 11
969.43462172336149
 21
1115.889951434677
 31
0.0
  0
ARC
  5
3DC9
  8
0
 10
1000.184621723359
 20
1097.7400105275051
 30
0.0
 40
18.149940907172681
 50
55.61575253193903
 51
124.38424746804669
  0
ARC
  5
3DCA
  8
0
 10
979.68462172336137
 20
1097.7400105275051
 30
0.0
 40
18.149940907172681
 50
55.615752531953248
 51
124.38424746806091
  0
ARC
  5
3DCB
  8
0
 10
973.66432757743848
 20
1129.389951434677
 30
0.0
 40
1.5
 50
90.0
 51
168.69006752597991
  0
LINE
  5
3DCC
  8
0
 10
972.19345656390215
 20
1129.6841256373841
 30
0.0
 11
969.43462172336149
 21
1115.889951434677
 31
0.0
  0
ARC
  5
3DCD
  8
0
 10
1006.204915869282
 20
1129.389951434677
 30
0.0
 40
1.5
 50
11.309932474020149
 51
90.0
  0
LINE
  5
3DCE
  8
0
 10
1007.6757868828209
 20
1129.6841256373841
 30
0.0
 11
1010.434621723361
 21
1115.889951434677
 31
0.0
  0
LINE
  5
3DCF
  8
0
 10
1389.613466898096
 20
962.05895143467751
 30
0.0
 11
1389.613466898096
 21
978.72095143467766
 31
0.0
  0
LINE
  5
3DD0
  8
0
 10
1380.613466898096
 20
962.05895143467751
 30
0.0
 11
1380.613466898096
 21
978.72095143467766
 31
0.0
  0
LINE
  5
3DD1
  8
0
 10
1377.781610556269
 20
982.38995143467753
 30
0.0
 11
1377.781610556269
 21
958.38995143467776
 31
0.0
  0
ARC
  5
3DD2
  8
0
 10
1360.781610556269
 20
962.95435566051492
 30
0.0
 40
8.0
 50
130.70570683104279
 51
180.0
  0
ARC
  5
3DD3
  8
0
 10
1294.781610556269
 20
962.95435566051492
 30
0.0
 40
8.0
 50
0.0
 51
49.294293168957211
  0
LINE
  5
3DD4
  8
0
 10
1283.566220247096
 20
841.38995143467776
 30
0.0
 11
1366.781610556269
 21
841.38995143467776
 31
0.0
  0
LINE
  5
3DD5
  8
0
 10
1305.3385127647309
 20
952.4880276460317
 30
0.0
 11
1316.6487895521459
 21
945.95803629820784
 31
0.0
  0
LINE
  5
3DD6
  8
0
 10
1264.281610556269
 20
910.38995143467764
 30
0.0
 11
1391.281610556269
 21
910.38995143467764
 31
0.0
  0
LINE
  5
3DD7
  8
0
 10
1264.281610556269
 20
937.38995143467764
 30
0.0
 11
1391.281610556269
 21
937.38995143467764
 31
0.0
  0
LINE
  5
3DD8
  8
0
 10
1262.281610556269
 20
924.38995143467776
 30
0.0
 11
1393.281610556269
 21
924.38995143467776
 31
0.0
  0
ARC
  5
3DD9
  8
0
 10
1327.781610556269
 20
960.98455334429298
 30
0.0
 40
207.0
 50
263.3196662760389
 51
267.28227532669513
  0
LINE
  5
3DDA
  8
0
 10
1388.781610556269
 20
755.38995143467764
 30
0.0
 11
1266.781610556269
 21
755.38995143467764
 31
0.0
  0
LINE
  5
3DDB
  8
0
 10
1266.781610556269
 20
781.38995143467764
 30
0.0
 11
1388.781610556269
 21
781.38995143467764
 31
0.0
  0
LINE
  5
3DDC
  8
0
 10
1264.781610556269
 20
768.38995143467764
 30
0.0
 11
1390.781610556269
 21
768.38995143467764
 31
0.0
  0
LINE
  5
3DDD
  8
0
 10
1273.281610556269
 20
906.38995143467753
 30
0.0
 11
1273.281610556269
 21
863.91935593363087
 31
0.0
  0
LINE
  5
3DDE
  8
0
 10
1284.281610556269
 20
894.38995143467935
 30
0.0
 11
1284.281610556269
 21
858.29496047836528
 31
0.0
  0
LINE
  5
3DDF
  8
0
 10
1237.781610556269
 20
904.38995143467764
 30
0.0
 11
1237.781610556269
 21
764.38995143467764
 31
0.0
  0
LINE
  5
3DE0
  8
0
 10
1215.781610556269
 20
834.38995143467776
 30
0.0
 11
1215.781610556269
 21
904.38995143467764
 31
0.0
  0
LINE
  5
3DE1
  8
0
 10
1198.853900396186
 20
830.5034863463934
 30
0.0
 11
1135.829150396185
 21
830.5034863463934
 31
0.0
  0
LINE
  5
3DE2
  8
0
 10
1161.038150396186
 20
843.10798634639275
 30
0.0
 11
1167.3426503961859
 21
836.80573634639404
 31
0.0
  0
LINE
  5
3DE3
  8
0
 10
1123.224650396186
 20
843.10798634639275
 30
0.0
 11
1161.038150396186
 21
843.10798634639275
 31
0.0
  0
LINE
  5
3DE4
  8
0
 10
1135.829150396185
 20
830.5034863463934
 30
0.0
 11
1123.224650396186
 21
843.10798634639275
 31
0.0
  0
LINE
  5
3DE5
  8
0
 10
1167.3426503961859
 20
836.80573634639404
 30
0.0
 11
1185.974900396187
 21
836.80573634639404
 31
0.0
  0
LINE
  5
3DE6
  8
0
 10
1185.974900396187
 20
843.10798634639275
 30
0.0
 11
1198.853900396186
 21
830.5034863463934
 31
0.0
  0
LINE
  5
3DE7
  8
0
 10
1185.974900396187
 20
836.80573634639404
 30
0.0
 11
1185.974900396187
 21
843.10798634639275
 31
0.0
  0
LINE
  5
3DE8
  8
0
 10
1215.781610556269
 20
764.38995143467764
 30
0.0
 11
1215.781610556269
 21
834.38995143467776
 31
0.0
  0
ARC
  5
3DEA
  8
0
 10
1266.781610556269
 20
757.38995143467764
 30
0.0
 40
2.0
 50
180.0
 51
270.0
  0
ARC
  5
3DEB
  8
0
 10
1266.781610556269
 20
779.38995143467764
 30
0.0
 40
2.0
 50
90.0
 51
179.99999999999801
  0
LINE
  5
3DEC
  8
0
 10
1264.781610556269
 20
779.38995143467764
 30
0.0
 11
1264.781610556269
 21
757.38992702983523
 31
0.0
  0
LINE
  5
3DED
  8
0
 10
1237.781610556269
 20
764.38995143467764
 30
0.0
 11
1215.781610556269
 21
764.38995143467764
 31
0.0
  0
ARC
  5
3DEF
  8
0
 10
1267.281610556269
 20
863.91935593363087
 30
0.0
 40
6.0
 50
248.45773265562511
 51
0.0
  0
ARC
  5
3DF0
  8
0
 10
1243.781610556269
 20
804.38995143467764
 30
0.0
 40
58.0
 50
57.380158060708048
 51
91.848571645226869
  0
ARC
  5
3DF2
  8
0
 10
1278.281610556269
 20
858.29496047836528
 30
0.0
 40
6.0
 50
237.3801580607078
 51
0.0
  0
ARC
  5
3DF3
  8
0
 10
1283.566220247096
 20
831.38995143467753
 30
0.0
 40
10.0
 50
90.0
 51
180.0
  0
LINE
  5
3DF4
  8
0
 10
1262.281610556269
 20
935.38995143467764
 30
0.0
 11
1262.281610556269
 21
912.38995143467764
 31
0.0
  0
LINE
  5
3DF5
  8
0
 10
1279.9540609254179
 20
907.20195143467754
 30
0.0
 11
1269.9540609254179
 21
907.20195143467754
 31
0.0
  0
LINE
  5
3DF6
  8
0
 10
1269.9540609254179
 20
907.20195143467754
 30
0.0
 11
1270.7660609254181
 21
906.38995143467753
 31
0.0
  0
ARC
  5
3DF7
  8
0
 10
1264.281610556269
 20
912.38995143467764
 30
0.0
 40
2.0
 50
180.0
 51
270.0
  0
LINE
  5
3DF8
  8
0
 10
1269.9540609254179
 20
910.38995143467764
 30
0.0
 11
1269.9540609254179
 21
907.20195143467754
 31
0.0
  0
LINE
  5
3DF9
  8
0
 10
1215.781610556269
 20
904.38995143467764
 30
0.0
 11
1237.781610556269
 21
904.38995143467764
 31
0.0
  0
LINE
  5
3DFA
  8
0
 10
1270.7660609254181
 20
906.38995143467753
 30
0.0
 11
1279.142060925418
 21
906.38995143467753
 31
0.0
  0
LINE
  5
3DFB
  8
0
 10
1279.142060925418
 20
906.38995143467753
 30
0.0
 11
1279.9540609254179
 21
907.20195143467754
 31
0.0
  0
LINE
  5
3DFC
  8
0
 10
1279.9540609254179
 20
907.20195143467754
 30
0.0
 11
1279.9540609254179
 21
910.38995143467764
 31
0.0
  0
ARC
  5
3DFD
  8
0
 10
1278.0023949453951
 20
906.38995143467753
 30
0.0
 40
4.0
 50
11.309932474020711
 51
60.796269409780983
  0
LINE
  5
3DFE
  8
0
 10
1281.9247176481581
 20
907.17441597523054
 30
0.0
 11
1284.281610556269
 21
894.38995143467764
 31
0.0
  0
LINE
  5
3DFF
  8
0
 10
1283.030572865222
 20
945.38995143467764
 30
0.0
 11
1266.530572865222
 21
945.38995143467855
 31
0.0
  0
LINE
  5
3E00
  8
0
 10
1259.781610556269
 20
952.88995143467753
 30
0.0
 11
1303.8385127647309
 21
952.88995143467753
 31
0.0
  0
ARC
  5
3E01
  8
0
 10
1274.7805728652199
 20
927.72695984156405
 30
0.0
 40
17.462601416113358
 50
73.680072331667574
 51
106.3199276683257
  0
ARC
  5
3E02
  8
0
 10
1267.419572865221
 20
940.55862736926156
 30
0.0
 40
4.6309815714167701
 50
58.000676159489913
 51
121.9993238405084
  0
LINE
  5
3E03
  8
0
 10
1266.530572865222
 20
945.38995143467855
 30
0.0
 11
1264.965572865221
 21
944.4859514346781
 31
0.0
  0
LINE
  5
3E04
  8
0
 10
1264.965572865221
 20
944.4859514346781
 30
0.0
 11
1264.9655728652201
 21
937.38995143467855
 31
0.0
  0
ARC
  5
3E05
  8
0
 10
1264.281610556269
 20
935.38995143467764
 30
0.0
 40
2.0
 50
90.0
 51
180.0
  0
LINE
  5
3E06
  8
0
 10
1252.781610556269
 20
927.38995143467764
 30
0.0
 11
1253.8534073259921
 21
925.53354497412681
 31
0.0
  0
LINE
  5
3E07
  8
0
 10
1259.781610556269
 20
927.38995143467764
 30
0.0
 11
1258.7098137865451
 21
925.53354497412681
 31
0.0
  0
LINE
  5
3E08
  8
0
 10
1253.8534073259921
 20
925.53354497412681
 30
0.0
 11
1258.7098137865451
 21
925.53354497412681
 31
0.0
  0
LINE
  5
3E09
  8
0
 10
1252.781610556269
 20
951.38995143467776
 30
0.0
 11
1253.8534073259921
 21
953.24635789522824
 31
0.0
  0
ARC
  5
3E0A
  8
0
 10
1258.915585152484
 20
949.78225628009102
 30
0.0
 40
6.1339745962155821
 50
145.615752531959
 51
214.38424746804091
  0
ARC
  5
3E0B
  8
0
 10
1258.915585152484
 20
928.99764658926495
 30
0.0
 40
6.1339745962155821
 50
145.615752531959
 51
214.38424746804091
  0
LINE
  5
3E0C
  8
0
 10
1252.781610556269
 20
927.38995143467764
 30
0.0
 11
1252.781610556269
 21
951.38995143467776
 31
0.0
  0
ARC
  5
3E0D
  8
0
 10
1275.7098137865451
 20
939.38995143467764
 30
0.0
 40
22.928203230275809
 50
162.41204622600719
 51
197.58795377399269
  0
LINE
  5
3E0E
  8
0
 10
1259.781610556269
 20
951.38995143467776
 30
0.0
 11
1258.7098137865451
 21
953.24635789522824
 31
0.0
  0
ARC
  5
3E0F
  8
0
 10
1253.6476359600549
 20
949.78225628009102
 30
0.0
 40
6.1339745962155821
 50
325.61575253195912
 51
34.384247468040918
  0
ARC
  5
3E10
  8
0
 10
1253.6476359600549
 20
928.99764658926495
 30
0.0
 40
6.1339745962155821
 50
325.61575253195912
 51
34.384247468040918
  0
ARC
  5
3E11
  8
0
 10
1236.8534073259921
 20
939.38995143467764
 30
0.0
 40
22.928203230275809
 50
342.41204622600731
 51
17.587953773992769
  0
LINE
  5
3E12
  8
0
 10
1253.8534073259921
 20
953.24635789522824
 30
0.0
 11
1258.7098137865451
 21
953.24635789522824
 31
0.0
  0
LINE
  5
3E13
  8
0
 10
1253.8534073259921
 20
946.31815466495379
 30
0.0
 11
1258.7098137865451
 21
946.31815466495379
 31
0.0
  0
LINE
  5
3E14
  8
0
 10
1253.8534073259921
 20
932.46174820440217
 30
0.0
 11
1258.7098137865451
 21
932.46174820440217
 31
0.0
  0
LINE
  5
3E15
  8
0
 10
1259.781610556269
 20
952.88995143467753
 30
0.0
 11
1259.781610556269
 21
925.88995143467764
 31
0.0
  0
LINE
  5
3E16
  8
0
 10
1259.781610556269
 20
925.88995143467764
 30
0.0
 11
1262.281610556269
 21
925.88995143467764
 31
0.0
  0
LINE
  5
3E17
  8
0
 10
1269.8735728652209
 20
944.4859514346781
 30
0.0
 11
1269.8735728652209
 21
937.38995143467764
 31
0.0
  0
LINE
  5
3E18
  8
0
 10
1302.781610556269
 20
962.95435566051492
 30
0.0
 11
1302.781610556269
 21
957.88995143467764
 31
0.0
  0
LINE
  5
3E19
  8
0
 10
1282.6715728652209
 20
945.15995143467705
 30
0.0
 11
1283.1905728652221
 21
945.06995143467782
 31
0.0
  0
LINE
  5
3E1A
  8
0
 10
1279.687572865221
 20
944.48595143467719
 30
0.0
 11
1280.1235728652209
 21
944.72695143467706
 31
0.0
  0
LINE
  5
3E1B
  8
0
 10
1280.1235728652209
 20
944.72695143467706
 30
0.0
 11
1280.59357286522
 21
944.92395143467729
 31
0.0
  0
LINE
  5
3E1C
  8
0
 10
1280.59357286522
 20
944.92395143467729
 30
0.0
 11
1281.09357286522
 21
945.06995143467782
 31
0.0
  0
LINE
  5
3E1D
  8
0
 10
1281.61257286522
 20
945.15995143467796
 30
0.0
 11
1282.141572865221
 21
945.1899514346768
 31
0.0
  0
LINE
  5
3E1E
  8
0
 10
1282.141572865221
 20
945.1899514346768
 30
0.0
 11
1282.6715728652209
 21
945.15995143467705
 31
0.0
  0
LINE
  5
3E1F
  8
0
 10
1281.09357286522
 20
945.06995143467782
 30
0.0
 11
1281.61257286522
 21
945.15995143467796
 31
0.0
  0
LINE
  5
3E20
  8
0
 10
1279.687572865221
 20
944.48595143467719
 30
0.0
 11
1279.687572865221
 21
937.38995143467764
 31
0.0
  0
LINE
  5
3E21
  8
0
 10
1283.1905728652221
 20
945.06995143467782
 30
0.0
 11
1283.689572865221
 21
944.92395143467729
 31
0.0
  0
LINE
  5
3E22
  8
0
 10
1283.689572865221
 20
944.92395143467729
 30
0.0
 11
1284.59557286522
 21
944.48695143467728
 31
0.0
  0
LINE
  5
3E23
  8
0
 10
1284.59557286522
 20
944.48595143467719
 30
0.0
 11
1283.030572865222
 21
945.38995143467764
 31
0.0
  0
LINE
  5
3E24
  8
0
 10
1284.59557286522
 20
937.38995143467764
 30
0.0
 11
1284.59557286522
 21
944.48595143467719
 31
0.0
  0
ARC
  5
3E25
  8
0
 10
1303.8385127647309
 20
949.88995143467764
 30
0.0
 40
3.0
 50
60.000000000000057
 51
90.0
  0
ARC
  5
3E26
  8
0
 10
1297.781610556269
 20
957.88995143467764
 30
0.0
 40
5.0
 50
270.0
 51
0.0
  0
LINE
  5
3E27
  8
0
 10
1439.781610556269
 20
834.38995143467776
 30
0.0
 11
1439.781610556269
 21
904.38995143467764
 31
0.0
  0
LINE
  5
3E28
  8
0
 10
1417.781610556269
 20
904.38995143467764
 30
0.0
 11
1417.781610556269
 21
764.38995143467764
 31
0.0
  0
ARC
  5
3E2A
  8
0
 10
1327.781610556269
 20
960.98455334429298
 30
0.0
 40
207.0
 50
272.71772467330487
 51
276.68033372396121
  0
ARC
  5
3E2B
  8
0
 10
1380.781610556269
 20
785.38995143467764
 30
0.0
 40
4.0
 50
180.0
 51
270.0
  0
LINE
  5
3E2C
  8
0
 10
1376.781610556269
 20
812.16926587808939
 30
0.0
 11
1376.781610556269
 21
785.38995143467764
 31
0.0
  0
ARC
  5
3E2D
  8
0
 10
1366.781610556269
 20
831.38995143467753
 30
0.0
 40
10.0
 50
0.0
 51
90.0
  0
LINE
  5
3E2F
  8
0
 10
1439.781610556269
 20
764.38995143467764
 30
0.0
 11
1439.781610556269
 21
834.38995143467776
 31
0.0
  0
LINE
  5
3E30
  8
0
 10
1417.781610556269
 20
764.38995143467764
 30
0.0
 11
1439.781610556269
 21
764.38995143467764
 31
0.0
  0
ARC
  5
3E31
  8
0
 10
1388.781610556269
 20
757.38995143467764
 30
0.0
 40
2.0
 50
270.0
 51
0.0
  0
ARC
  5
3E32
  8
0
 10
1388.781610556269
 20
779.38995143467764
 30
0.0
 40
2.0
 50
0.0000000000020356
 51
90.0
  0
LINE
  5
3E33
  8
0
 10
1390.781610556269
 20
779.38995143467764
 30
0.0
 11
1390.781610556269
 21
757.38992778653574
 31
0.0
  0
ARC
  5
3E35
  8
0
 10
1388.2816105562681
 20
882.87115178485135
 30
0.0
 40
6.0
 50
180.0
 51
243.94784034067351
  0
LINE
  5
3E36
  8
0
 10
1384.7971601871191
 20
906.38995143467753
 30
0.0
 11
1376.4211601871191
 21
906.38995143467753
 31
0.0
  0
LINE
  5
3E37
  8
0
 10
1375.609160187121
 20
907.20195143467754
 30
0.0
 11
1385.609160187121
 21
907.20195143467754
 31
0.0
  0
ARC
  5
3E38
  8
0
 10
1355.781610556269
 20
816.38995143467776
 30
0.0
 40
68.0
 50
40.820891043316479
 51
73.10967983779733
  0
LINE
  5
3E39
  8
0
 10
1389.613466898096
 20
962.05895143467751
 30
0.0
 11
1377.781610556269
 21
962.05895143467751
 31
0.0
  0
LINE
  5
3E3A
  8
0
 10
1372.532648247317
 20
945.38995143467764
 30
0.0
 11
1389.032648247317
 21
945.38995143467855
 31
0.0
  0
ARC
  5
3E3B
  8
0
 10
1380.782648247319
 20
927.72695984156405
 30
0.0
 40
17.462601416113358
 50
73.68007233167431
 51
106.3199276683324
  0
LINE
  5
3E3C
  8
0
 10
1323.593610556268
 20
906.38995143467753
 30
0.0
 11
1331.9696105562689
 21
906.38995143467753
 31
0.0
  0
LINE
  5
3E3D
  8
0
 10
1332.781610556269
 20
907.20195143467754
 30
0.0
 11
1322.781610556269
 21
907.20195143467754
 31
0.0
  0
LINE
  5
3E3E
  8
0
 10
1332.781610556269
 20
907.20195143467754
 30
0.0
 11
1332.781610556269
 21
910.38995143467764
 31
0.0
  0
LINE
  5
3E3F
  8
0
 10
1331.9696105562689
 20
906.38995143467753
 30
0.0
 11
1332.781610556269
 21
907.20195143467754
 31
0.0
  0
LINE
  5
3E40
  8
0
 10
1322.781610556269
 20
910.38995143467764
 30
0.0
 11
1322.781610556269
 21
907.20195143467754
 31
0.0
  0
LINE
  5
3E41
  8
0
 10
1322.781610556269
 20
907.20195143467754
 30
0.0
 11
1323.593610556268
 21
906.38995143467753
 31
0.0
  0
LINE
  5
3E42
  8
0
 10
1382.281610556269
 20
906.38995143467753
 30
0.0
 11
1382.281610556269
 21
882.87115178485135
 31
0.0
  0
LINE
  5
3E43
  8
0
 10
1375.609160187121
 20
907.20195143467754
 30
0.0
 11
1375.609160187119
 21
910.38995143467764
 31
0.0
  0
LINE
  5
3E44
  8
0
 10
1376.4211601871191
 20
906.38995143467753
 30
0.0
 11
1375.609160187121
 21
907.20195143467754
 31
0.0
  0
ARC
  5
3E45
  8
0
 10
1377.281610556269
 20
887.19778998380934
 30
0.0
 40
6.0
 50
180.0
 51
253.10967983779759
  0
ARC
  5
3E46
  8
0
 10
1377.5608261671421
 20
906.38995143467753
 30
0.0
 40
4.0
 50
119.2037305902042
 51
168.6900675259792
  0
LINE
  5
3E47
  8
0
 10
1371.281610556269
 20
894.38995143467764
 30
0.0
 11
1373.638503464379
 21
907.17441597523054
 31
0.0
  0
LINE
  5
3E48
  8
0
 10
1371.281610556269
 20
894.38995143467764
 30
0.0
 11
1371.281610556269
 21
887.19778998380934
 31
0.0
  0
ARC
  5
3E49
  8
0
 10
1335.3160986164669
 20
940.55862736926156
 30
0.0
 40
4.6309815714167701
 50
58.000676159491562
 51
121.9993238405101
  0
LINE
  5
3E4A
  8
0
 10
1332.862098616466
 20
944.4859514346781
 30
0.0
 11
1332.8620986164681
 21
937.38995143467764
 31
0.0
  0
LINE
  5
3E4B
  8
0
 10
1336.205098616467
 20
945.38995143467855
 30
0.0
 11
1337.7700986164671
 21
944.4859514346781
 31
0.0
  0
LINE
  5
3E4C
  8
0
 10
1337.7700986164671
 20
944.4859514346781
 30
0.0
 11
1337.7700986164671
 21
937.38995143467855
 31
0.0
  0
LINE
  5
3E4D
  8
0
 10
1323.0480986164671
 20
944.48595143467719
 30
0.0
 11
1322.612098616466
 21
944.72695143467706
 31
0.0
  0
LINE
  5
3E4E
  8
0
 10
1322.612098616466
 20
944.72695143467706
 30
0.0
 11
1322.142098616466
 21
944.92395143467729
 31
0.0
  0
LINE
  5
3E4F
  8
0
 10
1322.142098616466
 20
944.92395143467729
 30
0.0
 11
1321.642098616466
 21
945.06995143467782
 31
0.0
  0
LINE
  5
3E50
  8
0
 10
1321.123098616466
 20
945.15995143467796
 30
0.0
 11
1320.594098616466
 21
945.1899514346768
 31
0.0
  0
LINE
  5
3E51
  8
0
 10
1320.594098616466
 20
945.1899514346768
 30
0.0
 11
1320.0640986164669
 21
945.15995143467705
 31
0.0
  0
LINE
  5
3E52
  8
0
 10
1320.0640986164669
 20
945.15995143467705
 30
0.0
 11
1319.5450986164669
 21
945.06995143467782
 31
0.0
  0
LINE
  5
3E53
  8
0
 10
1319.5450986164669
 20
945.06995143467782
 30
0.0
 11
1319.0460986164669
 21
944.92395143467729
 31
0.0
  0
LINE
  5
3E54
  8
0
 10
1319.0460986164669
 20
944.92395143467729
 30
0.0
 11
1318.140098616466
 21
944.48695143467728
 31
0.0
  0
LINE
  5
3E55
  8
0
 10
1318.140098616466
 20
944.48595143467719
 30
0.0
 11
1319.705098616467
 21
945.38995143467764
 31
0.0
  0
LINE
  5
3E56
  8
0
 10
1321.642098616466
 20
945.06995143467782
 30
0.0
 11
1321.123098616466
 21
945.15995143467796
 31
0.0
  0
LINE
  5
3E57
  8
0
 10
1323.0480986164671
 20
944.48595143467719
 30
0.0
 11
1323.0480986164671
 21
937.38995143467764
 31
0.0
  0
LINE
  5
3E58
  8
0
 10
1318.1400986164681
 20
937.38995143467764
 30
0.0
 11
1318.140098616466
 21
944.48595143467719
 31
0.0
  0
LINE
  5
3E59
  8
0
 10
1319.705098616467
 20
945.38995143467764
 30
0.0
 11
1336.205098616467
 21
945.38995143467855
 31
0.0
  0
ARC
  5
3E5A
  8
0
 10
1327.955098616467
 20
927.72695984156405
 30
0.0
 40
17.462601416113358
 50
73.68007233167431
 51
106.3199276683324
  0
LINE
  5
3E5B
  8
0
 10
1370.9676482473169
 20
937.38995143467764
 30
0.0
 11
1370.9676482473169
 21
944.48595143467719
 31
0.0
  0
LINE
  5
3E5C
  8
0
 10
1375.8756482473179
 20
944.48595143467719
 30
0.0
 11
1375.8756482473179
 21
937.38995143467764
 31
0.0
  0
LINE
  5
3E5D
  8
0
 10
1374.4696482473171
 20
945.06995143467782
 30
0.0
 11
1373.9506482473171
 21
945.15995143467796
 31
0.0
  0
LINE
  5
3E5E
  8
0
 10
1370.9676482473169
 20
944.48595143467719
 30
0.0
 11
1372.532648247317
 21
945.38995143467764
 31
0.0
  0
LINE
  5
3E5F
  8
0
 10
1371.873648247318
 20
944.92395143467729
 30
0.0
 11
1370.9676482473169
 21
944.48695143467728
 31
0.0
  0
LINE
  5
3E60
  8
0
 10
1372.3726482473171
 20
945.06995143467782
 30
0.0
 11
1371.873648247318
 21
944.92395143467729
 31
0.0
  0
LINE
  5
3E61
  8
0
 10
1372.891648247318
 20
945.15995143467705
 30
0.0
 11
1372.3726482473171
 21
945.06995143467782
 31
0.0
  0
LINE
  5
3E62
  8
0
 10
1373.421648247318
 20
945.1899514346768
 30
0.0
 11
1372.891648247318
 21
945.15995143467705
 31
0.0
  0
LINE
  5
3E63
  8
0
 10
1373.9506482473171
 20
945.15995143467796
 30
0.0
 11
1373.421648247318
 21
945.1899514346768
 31
0.0
  0
LINE
  5
3E64
  8
0
 10
1374.9696482473171
 20
944.92395143467729
 30
0.0
 11
1374.4696482473171
 21
945.06995143467782
 31
0.0
  0
LINE
  5
3E65
  8
0
 10
1375.4396482473171
 20
944.72695143467706
 30
0.0
 11
1374.9696482473171
 21
944.92395143467729
 31
0.0
  0
LINE
  5
3E66
  8
0
 10
1375.8756482473179
 20
944.48595143467719
 30
0.0
 11
1375.4396482473171
 21
944.72695143467706
 31
0.0
  0
LINE
  5
3E67
  8
0
 10
1371.8315422630801
 20
952.36389100470114
 30
0.0
 11
1374.369848682139
 21
945.38995143467764
 31
0.0
  0
LINE
  5
3E68
  8
0
 10
1374.6506201254381
 20
956.38995143467753
 30
0.0
 11
1375.781610556269
 21
956.38995143467753
 31
0.0
  0
ARC
  5
3E69
  8
0
 10
1375.781610556269
 20
958.38995143467776
 30
0.0
 40
2.0
 50
270.0
 51
359.99999999999949
  0
ARC
  5
3E6A
  8
0
 10
1374.6506201254381
 20
953.38995143467764
 30
0.0
 40
3.0
 50
90.0
 51
200.0000000000004
  0
ARC
  5
3E6B
  8
0
 10
1358.781610556269
 20
943.38995143467764
 30
0.0
 40
6.0
 50
180.0
 51
270.0
  0
LINE
  5
3E6C
  8
0
 10
1352.781610556269
 20
962.95435566051492
 30
0.0
 11
1352.781610556269
 21
943.38995143467764
 31
0.0
  0
LINE
  5
3E6D
  8
0
 10
1393.281610556269
 20
935.38995143467764
 30
0.0
 11
1393.281610556269
 21
912.38995143467764
 31
0.0
  0
LINE
  5
3E6E
  8
0
 10
1439.781610556269
 20
904.38995143467764
 30
0.0
 11
1417.781610556269
 21
904.38995143467764
 31
0.0
  0
LINE
  5
3E6F
  8
0
 10
1385.609160187119
 20
910.38995143467764
 30
0.0
 11
1385.609160187121
 21
907.20195143467754
 31
0.0
  0
LINE
  5
3E70
  8
0
 10
1385.609160187121
 20
907.20195143467754
 30
0.0
 11
1384.7971601871191
 21
906.38995143467753
 31
0.0
  0
ARC
  5
3E71
  8
0
 10
1391.281610556269
 20
912.38995143467764
 30
0.0
 40
2.0
 50
270.0
 51
0.0000000000018574
  0
LINE
  5
3E73
  8
0
 10
1390.5976482473179
 20
944.4859514346781
 30
0.0
 11
1390.5976482473179
 21
937.38995143467855
 31
0.0
  0
LINE
  5
3E74
  8
0
 10
1385.689648247316
 20
944.4859514346781
 30
0.0
 11
1385.689648247318
 21
937.38995143467764
 31
0.0
  0
ARC
  5
3E75
  8
0
 10
1388.143648247318
 20
940.55862736926156
 30
0.0
 40
4.6309815714167701
 50
58.000676159491562
 51
121.9993238405101
  0
LINE
  5
3E76
  8
0
 10
1389.032648247317
 20
945.38995143467855
 30
0.0
 11
1390.5976482473179
 21
944.4859514346781
 31
0.0
  0
ARC
  5
3E77
  8
0
 10
1391.281610556269
 20
935.38995143467764
 30
0.0
 40
2.0
 50
0.0
 51
90.0
  0
ARC
  5
3E78
  8
0
 10
1310.028089778689
 20
1083.973798731236
 30
0.0
 40
9.7552083333333677
 50
232.65349068554301
 51
307.34650931445702
  0
LINE
  5
3E79
  8
0
 10
1295.781610556269
 20
1065.8899514346781
 30
0.0
 11
1327.781610556269
 21
1071.5324148173479
 31
0.0
  0
LINE
  5
3E7A
  8
0
 10
1301.7816105562681
 20
1073.8899514346781
 30
0.0
 11
1353.781610556269
 21
1073.8899514346781
 31
0.0
  0
LINE
  5
3E7B
  8
0
 10
1303.281610556269
 20
1053.8899514346781
 30
0.0
 11
1352.281610556269
 21
1053.8899514346781
 31
0.0
  0
ARC
  5
3E7C
  8
0
 10
1310.028089778689
 20
1104.9633820645699
 30
0.0
 40
9.7552083333333677
 50
52.653490685542941
 51
127.3465093144569
  0
LINE
  5
3E7D
  8
0
 10
1310.040445396811
 20
1129.6841256373841
 30
0.0
 11
1307.281610556269
 21
1115.889951434677
 31
0.0
  0
LINE
  5
3E7E
  8
0
 10
1307.281610556269
 20
1115.889951434677
 30
0.0
 11
1348.281610556269
 21
1115.889951434677
 31
0.0
  0
LINE
  5
3E7F
  8
0
 10
1274.781610556269
 20
1065.8899514346781
 30
0.0
 11
1380.781610556269
 21
1065.8899514346781
 31
0.0
  0
LINE
  5
3E80
  8
0
 10
1274.781610556269
 20
1058.889951434677
 30
0.0
 11
1380.781610556269
 21
1058.889951434677
 31
0.0
  0
LINE
  5
3E81
  8
0
 10
1372.2816105562681
 20
1000.389951434677
 30
0.0
 11
1283.281610556269
 21
1000.389951434677
 31
0.0
  0
LINE
  5
3E82
  8
0
 10
1281.281610556269
 20
989.38995143467764
 30
0.0
 11
1374.281610556269
 21
989.38995143467764
 31
0.0
  0
LINE
  5
3E83
  8
0
 10
1281.281610556269
 20
989.38995143467764
 30
0.0
 11
1374.281610556269
 21
989.38995143467764
 31
0.0
  0
LINE
  5
3E84
  8
0
 10
1283.281610556269
 20
977.38995143467764
 30
0.0
 11
1372.2816105562681
 21
977.38995143467764
 31
0.0
  0
LINE
  5
3E85
  8
0
 10
1301.7816105562681
 20
1073.8899514346781
 30
0.0
 11
1301.7816105562681
 21
1066.9479133189291
 31
0.0
  0
LINE
  5
3E86
  8
0
 10
1306.781610556269
 20
1006.389951434677
 30
0.0
 11
1306.781610556269
 21
1053.8899514346781
 31
0.0
  0
LINE
  5
3E87
  8
0
 10
1281.281610556269
 20
998.38995143467753
 30
0.0
 11
1281.281610556269
 21
979.38995143467764
 31
0.0
  0
LINE
  5
3E88
  8
0
 10
1302.090485059314
 20
1008.389951434677
 30
0.0
 11
1303.655485059315
 21
1007.485951434678
 31
0.0
  0
ARC
  5
3E89
  8
0
 10
1301.201485059315
 20
1003.55862736926
 30
0.0
 40
4.6309815714167701
 50
58.00067615949073
 51
121.99932384050921
  0
LINE
  5
3E8A
  8
0
 10
1288.933485059315
 20
1007.485951434678
 30
0.0
 11
1288.4974850593151
 21
1007.726951434678
 31
0.0
  0
LINE
  5
3E8B
  8
0
 10
1288.4974850593151
 20
1007.726951434678
 30
0.0
 11
1288.0274850593139
 21
1007.923951434677
 31
0.0
  0
LINE
  5
3E8C
  8
0
 10
1288.0274850593139
 20
1007.923951434677
 30
0.0
 11
1287.5274850593139
 21
1008.069951434678
 31
0.0
  0
ARC
  5
3E8D
  8
0
 10
1293.840485059314
 20
990.72695984156405
 30
0.0
 40
17.462601416113358
 50
73.680072331674069
 51
106.3199276683259
  0
LINE
  5
3E8E
  8
0
 10
1287.0084850593139
 20
1008.159951434678
 30
0.0
 11
1286.479485059315
 21
1008.1899514346781
 31
0.0
  0
LINE
  5
3E8F
  8
0
 10
1286.479485059315
 20
1008.1899514346781
 30
0.0
 11
1285.9494850593139
 21
1008.159951434678
 31
0.0
  0
LINE
  5
3E90
  8
0
 10
1285.9494850593139
 20
1008.159951434678
 30
0.0
 11
1285.4304850593139
 21
1008.069951434678
 31
0.0
  0
LINE
  5
3E91
  8
0
 10
1285.4304850593139
 20
1008.069951434678
 30
0.0
 11
1284.9314850593139
 21
1007.923951434677
 31
0.0
  0
LINE
  5
3E92
  8
0
 10
1284.9314850593139
 20
1007.923951434677
 30
0.0
 11
1284.025485059314
 21
1007.4869514346771
 31
0.0
  0
LINE
  5
3E93
  8
0
 10
1284.025485059314
 20
1007.485951434678
 30
0.0
 11
1285.5904850593161
 21
1008.389951434677
 31
0.0
  0
LINE
  5
3E94
  8
0
 10
1287.5274850593139
 20
1008.069951434678
 30
0.0
 11
1287.0084850593139
 21
1008.159951434678
 31
0.0
  0
LINE
  5
3E95
  8
0
 10
1285.5904850593161
 20
1008.389951434677
 30
0.0
 11
1302.090485059314
 21
1008.389951434677
 31
0.0
  0
ARC
  5
3E96
  8
0
 10
1283.281610556269
 20
998.38995143467753
 30
0.0
 40
2.0
 50
90.0
 51
180.0
  0
ARC
  5
3E97
  8
0
 10
1300.781610556269
 20
1006.389951434677
 30
0.0
 40
5.9999999999999902
 50
298.6187455799564
 51
0.0
  0
LINE
  5
3E98
  8
0
 10
1303.655485059315
 20
1007.485951434678
 30
0.0
 11
1303.655485059315
 21
1000.389951434677
 31
0.0
  0
LINE
  5
3E99
  8
0
 10
1298.7474850593151
 20
1007.485951434678
 30
0.0
 11
1298.7474850593151
 21
1000.389951434677
 31
0.0
  0
LINE
  5
3E9A
  8
0
 10
1284.025485059314
 20
1000.389951434677
 30
0.0
 11
1284.025485059314
 21
1007.485951434678
 31
0.0
  0
LINE
  5
3E9B
  8
0
 10
1288.933485059315
 20
1007.485951434678
 30
0.0
 11
1288.933485059315
 21
1000.389951434677
 31
0.0
  0
ARC
  5
3E9C
  8
0
 10
1283.281610556269
 20
979.38995143467764
 30
0.0
 40
2.0
 50
180.0
 51
270.0
  0
LINE
  5
3E9D
  8
0
 10
1281.281610556269
 20
989.38995143467764
 30
0.0
 11
1281.281610556269
 21
979.38995143467764
 31
0.0
  0
ARC
  5
3E9E
  8
0
 10
1309.7816105562681
 20
980.38995143467764
 30
0.0
 40
15.0
 50
208.57187814230801
 51
229.29429316895781
  0
LINE
  5
3E9F
  8
0
 10
1298.840485059314
 20
977.38995143467764
 30
0.0
 11
1298.840485059314
 21
974.20195143467754
 31
0.0
  0
LINE
  5
3EA0
  8
0
 10
1298.840485059314
 20
974.20195143467754
 30
0.0
 11
1298.0284850593141
 21
973.38995143467753
 31
0.0
  0
LINE
  5
3EA1
  8
0
 10
1288.8404850593161
 20
974.20195143467754
 30
0.0
 11
1288.8404850593161
 21
977.38995143467764
 31
0.0
  0
LINE
  5
3EA2
  8
0
 10
1289.6524850593139
 20
973.38995143467753
 30
0.0
 11
1288.8404850593161
 21
974.20195143467754
 31
0.0
  0
LINE
  5
3EA3
  8
0
 10
1298.0284850593141
 20
973.38995143467753
 30
0.0
 11
1289.6524850593139
 21
973.38995143467753
 31
0.0
  0
LINE
  5
3EA4
  8
0
 10
1288.8404850593161
 20
974.20195143467754
 30
0.0
 11
1298.840485059314
 21
974.20195143467754
 31
0.0
  0
ARC
  5
3EA5
  8
0
 10
1289.5826006795451
 20
969.38995143467764
 30
0.0
 40
8.0
 50
28.57187814230771
 51
30.000000000000671
  0
ARC
  5
3EA6
  8
0
 10
1309.7816105562681
 20
980.38995143467764
 30
0.0
 40
15.0
 50
208.5718781423079
 51
229.29429316895749
  0
ARC
  5
3EA7
  8
0
 10
1289.5826006795451
 20
969.38995143467764
 30
0.0
 40
8.0
 50
28.571878142307732
 51
30.000000000000341
  0
ARC
  5
3EA8
  8
0
 10
1274.781610556269
 20
1063.8899514346781
 30
0.0
 40
2.0
 50
90.0
 51
180.0
  0
LINE
  5
3EA9
  8
0
 10
1301.7816105562681
 20
1056.889951434677
 30
0.0
 11
1301.7816105562681
 21
1055.389951434677
 31
0.0
  0
ARC
  5
3EAA
  8
0
 10
1303.281610556269
 20
1055.389951434677
 30
0.0
 40
1.5
 50
180.0
 51
270.0
  0
ARC
  5
3EAB
  8
0
 10
1299.781610556269
 20
1056.889951434677
 30
0.0
 40
2.0
 50
0.0
 51
90.0
  0
ARC
  5
3EAC
  8
0
 10
1274.781610556269
 20
1060.889951434677
 30
0.0
 40
2.0
 50
180.0
 51
270.0
  0
LINE
  5
3EAD
  8
0
 10
1272.781610556269
 20
1063.8899514346781
 30
0.0
 11
1272.781610556269
 21
1060.889951434677
 31
0.0
  0
LINE
  5
3EAE
  8
0
 10
1304.110249519493
 20
1112.718590397903
 30
0.0
 11
1304.110249519493
 21
1076.218590397903
 31
0.0
  0
LINE
  5
3EAF
  8
0
 10
1304.110249519493
 20
1076.218590397903
 30
0.0
 11
1301.7816105562681
 21
1073.8899514346781
 31
0.0
  0
LINE
  5
3EB0
  8
0
 10
1307.281610556269
 20
1115.889951434677
 30
0.0
 11
1304.110249519493
 21
1112.718590397903
 31
0.0
  0
LINE
  5
3EB1
  8
0
 10
1353.781610556269
 20
1073.8899514346781
 30
0.0
 11
1353.781610556269
 21
1066.9479133189291
 31
0.0
  0
LINE
  5
3EB2
  8
0
 10
1389.613466898096
 20
978.72095143467766
 30
0.0
 11
1377.781610556269
 21
978.72095143467766
 31
0.0
  0
LINE
  5
3EB3
  8
0
 10
1389.613466898096
 20
970.38995143467764
 30
0.0
 11
1380.613466898096
 21
970.38995143467764
 31
0.0
  0
LINE
  5
3EB4
  8
0
 10
1348.781610556269
 20
1006.389951434677
 30
0.0
 11
1348.781610556269
 21
1053.8899514346781
 31
0.0
  0
LINE
  5
3EB5
  8
0
 10
1374.281610556269
 20
998.38995143467753
 30
0.0
 11
1374.281610556269
 21
979.38995143467764
 31
0.0
  0
LINE
  5
3EB6
  8
0
 10
1371.5377360532241
 20
1007.485951434678
 30
0.0
 11
1369.9727360532229
 21
1008.389951434677
 31
0.0
  0
LINE
  5
3EB7
  8
0
 10
1370.631736053223
 20
1007.923951434677
 30
0.0
 11
1371.5377360532241
 21
1007.4869514346771
 31
0.0
  0
LINE
  5
3EB8
  8
0
 10
1370.132736053223
 20
1008.069951434678
 30
0.0
 11
1370.631736053223
 21
1007.923951434677
 31
0.0
  0
LINE
  5
3EB9
  8
0
 10
1369.613736053223
 20
1008.159951434678
 30
0.0
 11
1370.132736053223
 21
1008.069951434678
 31
0.0
  0
ARC
  5
3EBA
  8
0
 10
1372.2816105562681
 20
998.38995143467753
 30
0.0
 40
2.0
 50
359.99999999999972
 51
90.0
  0
LINE
  5
3EBB
  8
0
 10
1371.5377360532241
 20
1000.389951434677
 30
0.0
 11
1371.5377360532241
 21
1007.485951434678
 31
0.0
  0
ARC
  5
3EBC
  8
0
 10
1375.781610556269
 20
982.38995143467753
 30
0.0
 40
2.0
 50
0.0
 51
90.0
  0
LINE
  5
3EBD
  8
0
 10
1374.281610556269
 20
984.38995143467776
 30
0.0
 11
1375.781610556269
 21
984.38995143467776
 31
0.0
  0
LINE
  5
3EBE
  8
0
 10
1374.281610556269
 20
989.38995143467764
 30
0.0
 11
1374.281610556269
 21
979.38995143467764
 31
0.0
  0
ARC
  5
3EBF
  8
0
 10
1372.2816105562681
 20
979.38995143467764
 30
0.0
 40
2.0
 50
270.0
 51
0.0
  0
LINE
  5
3EC0
  8
0
 10
1368.554736053223
 20
1008.159951434678
 30
0.0
 11
1369.0837360532221
 21
1008.1899514346781
 31
0.0
  0
ARC
  5
3EC1
  8
0
 10
1354.3617360532239
 20
1003.55862736926
 30
0.0
 40
4.6309815714167701
 50
58.000676159490787
 51
121.99932384050931
  0
LINE
  5
3EC2
  8
0
 10
1353.4727360532229
 20
1008.389951434677
 30
0.0
 11
1351.9077360532231
 21
1007.485951434678
 31
0.0
  0
ARC
  5
3EC3
  8
0
 10
1354.781610556269
 20
1006.389951434677
 30
0.0
 40
5.9999999999999281
 50
179.99999999999969
 51
241.3812544200438
  0
LINE
  5
3EC4
  8
0
 10
1351.9077360532231
 20
1007.485951434678
 30
0.0
 11
1351.9077360532231
 21
1000.389951434677
 31
0.0
  0
ARC
  5
3EC5
  8
0
 10
1361.7227360532229
 20
990.72695984156405
 30
0.0
 40
17.462601416113358
 50
73.680072331674069
 51
106.3199276683259
  0
LINE
  5
3EC6
  8
0
 10
1368.035736053223
 20
1008.069951434678
 30
0.0
 11
1368.554736053223
 21
1008.159951434678
 31
0.0
  0
LINE
  5
3EC7
  8
0
 10
1367.535736053223
 20
1007.923951434677
 30
0.0
 11
1368.035736053223
 21
1008.069951434678
 31
0.0
  0
LINE
  5
3EC8
  8
0
 10
1367.0657360532221
 20
1007.726951434678
 30
0.0
 11
1367.535736053223
 21
1007.923951434677
 31
0.0
  0
LINE
  5
3EC9
  8
0
 10
1366.6297360532219
 20
1007.485951434678
 30
0.0
 11
1367.0657360532221
 21
1007.726951434678
 31
0.0
  0
LINE
  5
3ECA
  8
0
 10
1356.8157360532241
 20
1007.485951434678
 30
0.0
 11
1356.8157360532241
 21
1000.389951434677
 31
0.0
  0
LINE
  5
3ECB
  8
0
 10
1366.6297360532219
 20
1007.485951434678
 30
0.0
 11
1366.6297360532219
 21
1000.389951434677
 31
0.0
  0
ARC
  5
3ECC
  8
0
 10
1365.9806204329921
 20
969.38995143467764
 30
0.0
 40
8.0
 50
149.99999999999929
 51
151.4281218576923
  0
LINE
  5
3ECD
  8
0
 10
1357.534736053223
 20
973.38995143467753
 30
0.0
 11
1365.910736053223
 21
973.38995143467753
 31
0.0
  0
LINE
  5
3ECE
  8
0
 10
1365.910736053223
 20
973.38995143467753
 30
0.0
 11
1366.7227360532229
 21
974.20195143467754
 31
0.0
  0
LINE
  5
3ECF
  8
0
 10
1366.7227360532229
 20
974.20195143467754
 30
0.0
 11
1366.7227360532229
 21
977.38995143467764
 31
0.0
  0
ARC
  5
3ED0
  8
0
 10
1365.9806204329921
 20
969.38995143467764
 30
0.0
 40
8.0
 50
149.9999999999994
 51
151.4281218576923
  0
ARC
  5
3ED1
  8
0
 10
1365.9806204329921
 20
969.38995143467764
 30
0.0
 40
8.0
 50
149.99999999999969
 51
151.4281218576923
  0
LINE
  5
3ED2
  8
0
 10
1356.7227360532229
 20
977.38995143467764
 30
0.0
 11
1356.7227360532229
 21
974.20195143467754
 31
0.0
  0
ARC
  5
3ED3
  8
0
 10
1345.781610556269
 20
980.38995143467764
 30
0.0
 40
15.0
 50
310.70570683104222
 51
331.42812185769191
  0
LINE
  5
3ED4
  8
0
 10
1366.7227360532229
 20
974.20195143467754
 30
0.0
 11
1356.7227360532229
 21
974.20195143467754
 31
0.0
  0
LINE
  5
3ED5
  8
0
 10
1356.7227360532229
 20
974.20195143467754
 30
0.0
 11
1357.534736053223
 21
973.38995143467753
 31
0.0
  0
ARC
  5
3ED6
  8
0
 10
1345.781610556269
 20
980.38995143467764
 30
0.0
 40
15.0
 50
310.70570683104251
 51
331.42812185769208
  0
LINE
  5
3ED7
  8
0
 10
1369.9727360532229
 20
1008.389951434677
 30
0.0
 11
1353.4727360532229
 21
1008.389951434677
 31
0.0
  0
LINE
  5
3ED8
  8
0
 10
1369.0837360532221
 20
1008.1899514346781
 30
0.0
 11
1369.613736053223
 21
1008.159951434678
 31
0.0
  0
LINE
  5
3ED9
  8
0
 10
1359.781610556269
 20
1065.8899514346781
 30
0.0
 11
1327.781610556269
 21
1071.5324148173479
 31
0.0
  0
ARC
  5
3EDA
  8
0
 10
1380.781610556269
 20
1063.8899514346781
 30
0.0
 40
2.0
 50
0.0
 51
90.0
  0
ARC
  5
3EDB
  8
0
 10
1380.781610556269
 20
1060.889951434677
 30
0.0
 40
2.0
 50
270.0
 51
359.99999999999989
  0
LINE
  5
3EDC
  8
0
 10
1382.781610556269
 20
1063.8899514346781
 30
0.0
 11
1382.781610556269
 21
1060.889951434677
 31
0.0
  0
ARC
  5
3EDD
  8
0
 10
1355.781610556269
 20
1056.889951434677
 30
0.0
 40
2.0
 50
90.0
 51
180.0
  0
LINE
  5
3EDE
  8
0
 10
1353.781610556269
 20
1056.889951434677
 30
0.0
 11
1353.781610556269
 21
1055.389951434677
 31
0.0
  0
ARC
  5
3EDF
  8
0
 10
1352.281610556269
 20
1055.389951434677
 30
0.0
 40
1.5
 50
270.0
 51
0.0
  0
LINE
  5
3EE0
  8
0
 10
1345.5227757157279
 20
1129.6841256373841
 30
0.0
 11
1348.281610556269
 21
1115.889951434677
 31
0.0
  0
ARC
  5
3EE1
  8
0
 10
1345.5351313338499
 20
1083.9737987312369
 30
0.0
 40
9.7552083333333677
 50
232.65349068554349
 51
307.34650931445748
  0
ARC
  5
3EE2
  8
0
 10
1345.5351313338499
 20
1104.963382064569
 30
0.0
 40
9.7552083333333677
 50
52.653490685542437
 51
127.3465093144564
  0
LINE
  5
3EE3
  8
0
 10
1339.617291074655
 20
1112.7185903979021
 30
0.0
 11
1339.617291074655
 21
1076.218590397903
 31
0.0
  0
LINE
  5
3EE4
  8
0
 10
1315.9459300378819
 20
1112.7185903979021
 30
0.0
 11
1315.9459300378819
 21
1076.218590397903
 31
0.0
  0
ARC
  5
3EE5
  8
0
 10
1327.781610556269
 20
1110.2394237312351
 30
0.0
 40
36.02083333333254
 50
250.81746569497301
 51
289.18253430502699
  0
ARC
  5
3EE6
  8
0
 10
1327.781610556269
 20
1078.6977570645699
 30
0.0
 40
36.02083333333254
 50
70.817465694973009
 51
109.182534305027
  0
LINE
  5
3EE7
  8
0
 10
1351.4529715930439
 20
1112.7185903979021
 30
0.0
 11
1351.4529715930439
 21
1076.218590397903
 31
0.0
  0
LINE
  5
3EE8
  8
0
 10
1351.4529715930439
 20
1076.218590397903
 30
0.0
 11
1353.781610556269
 21
1073.8899514346781
 31
0.0
  0
LINE
  5
3EE9
  8
0
 10
1348.281610556269
 20
1115.889951434677
 30
0.0
 11
1351.4529715930439
 21
1112.7185903979021
 31
0.0
  0
ARC
  5
3EEA
  8
0
 10
1344.051904702191
 20
1129.389951434677
 30
0.0
 40
1.5
 50
11.309932474020099
 51
90.0
  0
LINE
  5
3EEB
  8
0
 10
1311.5113164103479
 20
1130.889951434677
 30
0.0
 11
1344.051904702191
 21
1130.889951434677
 31
0.0
  0
ARC
  5
3EEC
  8
0
 10
1311.5113164103479
 20
1129.389951434677
 30
0.0
 40
1.5
 50
90.0
 51
168.6900675259798
  0
LINE
  5
3EEE
  8
0
 10
1327.7816360532231
 20
1450.0809703027969
 30
0.0
 11
1272.7816360532231
 21
1453.0809703027969
 31
0.0
  0
ARC
  5
3EEF
  8
0
 10
1327.7816360532231
 20
1475.5809703027969
 30
0.0
 40
26.0
 50
104.7964841186247
 51
255.20351588137521
  0
LINE
  5
3EF0
  8
0
 10
1361.7227377178151
 20
1429.080971463716
 30
0.0
 11
1293.8405377178151
 21
1429.080971463716
 31
0.0
  0
LINE
  5
3EF1
  8
0
 10
1327.7816360532231
 20
1501.0809703027969
 30
0.0
 11
1272.7816360532231
 21
1498.0809703027969
 31
0.0
  0
LINE
  5
3EF2
  8
0
 10
1315.9459555348351
 20
1455.0809703027969
 30
0.0
 11
1304.110275016448
 21
1475.5809703027969
 31
0.0
  0
CIRCLE
  5
3EF3
  8
0
 10
1327.7816360532231
 20
1475.5809703027969
 30
0.0
 40
20.5
  0
LINE
  5
3EF4
  8
0
 10
1304.110275016448
 20
1475.5809703027969
 30
0.0
 11
1315.9459555348351
 21
1496.0809703027969
 31
0.0
  0
LINE
  5
3EF5
  8
0
 10
1293.8405377178151
 20
1522.080971463716
 30
0.0
 11
1361.7227377178151
 21
1522.080971463716
 31
0.0
  0
POLYLINE
  5
3EF6
  8
0
 66
     1
 10
0.0
 20
0.0
 30
0.0
  0
VERTEX
  5
629C
  8
0
 10
1385.965193421303
 20
1517.6215630577669
 30
0.0
  0
VERTEX
  5
629D
  8
0
 10
1335.0980785727791
 20
1546.989705443588
 30
0.0
 42
0.2679491924311219
  0
VERTEX
  5
629E
  8
0
 10
1320.465193308939
 20
1546.989705443588
 30
0.0
  0
VERTEX
  5
629F
  8
0
 10
1269.598078685143
 20
1517.6215630577681
 30
0.0
 42
0.2679491924311231
  0
VERTEX
  5
62A0
  8
0
 10
1262.2816360532231
 20
1504.9491126886189
 30
0.0
  0
VERTEX
  5
62A1
  8
0
 10
1262.2816360532231
 20
1489.0809703027969
 30
0.0
 42
0.267949192700065
  0
SEQEND
  5
62A2
  8
0
  0
POLYLINE
  5
3EF7
  8
0
 66
     1
 10
0.0
 20
0.0
 30
0.0
  0
VERTEX
  5
62A3
  8
0
 10
1262.2816360532231
 20
1462.0809703027969
 30
0.0
  0
VERTEX
  5
62A4
  8
0
 10
1262.2816360532231
 20
1446.212827926767
 30
0.0
 42
0.267949192700065
  0
VERTEX
  5
62A5
  8
0
 10
1269.598078697863
 20
1433.5403775502739
 30
0.0
  0
VERTEX
  5
62A6
  8
0
 10
1320.4651935561701
 20
1404.1722351620051
 30
0.0
 42
0.2679491924311215
  0
VERTEX
  5
62A7
  8
0
 10
1335.098078820012
 20
1404.1722351620051
 30
0.0
  0
VERTEX
  5
62A8
  8
0
 10
1385.9651934213009
 20
1433.540377547826
 30
0.0
 42
0.2679491924311235
  0
VERTEX
  5
62A9
  8
0
 10
1393.2816360532231
 20
1446.2128279169749
 30
0.0
  0
VERTEX
  5
62AA
  8
0
 10
1393.2816360532231
 20
1475.5809703027969
 30
0.0
 42
0.2679491924311224
  0
SEQEND
  5
62AB
  8
0
  0
LINE
  5
3EF9
  8
0
 10
1272.7816360532231
 20
1453.0809703027969
 30
0.0
 11
1272.7816360532231
 21
1463.0809703027969
 31
0.0
  0
ARC
  5
3EFB
  8
0
 10
1274.954086422372
 20
1445.0809703027969
 30
0.0
 40
8.2499099999999999
 50
104.3379796849093
 51
321.36646305796921
  0
LINE
  5
3EFC
  8
0
 10
1279.86180235454
 20
1436.581383646427
 30
0.0
 11
1270.046586422372
 21
1436.5809309646529
 31
0.0
  0
LINE
  5
3EFD
  8
0
 10
1270.0463704902049
 20
1453.580556959166
 30
0.0
 11
1272.7816360532231
 21
1453.5806831107341
 31
0.0
  0
LINE
  5
3EFE
  8
0
 10
1270.046586422372
 20
1436.5809309646529
 30
0.0
 11
1265.1393704902059
 21
1445.081383646426
 31
0.0
  0
LINE
  5
3EFF
  8
0
 10
1265.1393704902059
 20
1445.081383646426
 30
0.0
 11
1270.0463704902049
 21
1453.580556959166
 31
0.0
  0
LINE
  5
3F03
  8
0
 10
1298.74751222086
 20
1450.139845966761
 30
0.0
 11
1303.6555122208611
 21
1441.6398459667621
 31
0.0
  0
LINE
  5
3F04
  8
0
 10
1303.6555122208611
 20
1441.6398459667621
 30
0.0
 11
1298.74751222086
 21
1433.139845966761
 31
0.0
  0
ARC
  5
3F05
  8
0
 10
1274.954086422372
 20
1445.0809703027969
 30
0.0
 40
8.2499099999999999
 50
39.916153018182243
 51
69.417759390857967
  0
CIRCLE
  5
3F06
  8
0
 10
1293.8405122208601
 20
1441.6398459667621
 30
0.0
 40
8.2499099999999999
  0
LINE
  5
3F07
  8
0
 10
1284.02551222086
 20
1441.6398459667621
 30
0.0
 11
1288.9335122208611
 21
1450.139845966761
 31
0.0
  0
LINE
  5
3F08
  8
0
 10
1298.74751222086
 20
1433.139845966761
 30
0.0
 11
1288.9335122208611
 21
1433.139845966761
 31
0.0
  0
ARC
  5
3F09
  8
0
 10
1293.8405377178151
 20
1441.639871463716
 30
0.0
 40
12.5589
 50
180.0
 51
270.0
  0
LINE
  5
3F0A
  8
0
 10
1288.9335122208611
 20
1433.139845966761
 30
0.0
 11
1284.02551222086
 21
1441.6398459667621
 31
0.0
  0
LINE
  5
3F0B
  8
0
 10
1281.484460677093
 20
1439.391910304412
 30
0.0
 11
1279.86180235454
 21
1436.581383646427
 31
0.0
  0
LINE
  5
3F0C
  8
0
 10
1288.9335122208611
 20
1450.139845966761
 30
0.0
 11
1298.74751222086
 21
1450.139845966761
 31
0.0
  0
LINE
  5
3F0D
  8
0
 10
1281.2816377178151
 20
1452.6173338483641
 30
0.0
 11
1281.2816377178151
 21
1441.639871463716
 31
0.0
  0
LINE
  5
3F0E
  8
0
 10
1280.3898237777501
 20
1452.6659782450949
 30
0.0
 11
1281.2816377178151
 21
1451.1211466535649
 31
0.0
  0
LINE
  5
3F0F
  8
0
 10
1179.3322551115641
 20
1466.536420925135
 30
0.0
 11
1116.3075051115641
 21
1466.536420925135
 31
0.0
  0
LINE
  5
3F10
  8
0
 10
1147.8210051115641
 20
1472.8386709251349
 30
0.0
 11
1166.4532551115651
 21
1472.8386709251349
 31
0.0
  0
LINE
  5
3F11
  8
0
 10
1103.7030051115639
 20
1479.140920925134
 30
0.0
 11
1141.5165051115639
 21
1479.140920925134
 31
0.0
  0
LINE
  5
3F12
  8
0
 10
1116.3075051115641
 20
1466.536420925135
 30
0.0
 11
1103.7030051115639
 21
1479.140920925134
 31
0.0
  0
LINE
  5
3F13
  8
0
 10
1141.5165051115639
 20
1479.140920925134
 30
0.0
 11
1147.8210051115641
 21
1472.8386709251349
 31
0.0
  0
LINE
  5
3F14
  8
0
 10
1166.4532551115651
 20
1479.140920925134
 30
0.0
 11
1179.3322551115641
 21
1466.536420925135
 31
0.0
  0
LINE
  5
3F15
  8
0
 10
1166.4532551115651
 20
1472.8386709251349
 30
0.0
 11
1166.4532551115651
 21
1479.140920925134
 31
0.0
  0
LINE
  5
3F16
  8
0
 10
1298.74751222086
 20
1518.0220969606701
 30
0.0
 11
1303.6555122208611
 21
1509.522096960671
 31
0.0
  0
LINE
  5
3F17
  8
0
 10
1265.139086422372
 20
1506.0809703027969
 30
0.0
 11
1270.047086422373
 21
1514.5809703027969
 31
0.0
  0
CIRCLE
  5
3F18
  8
0
 10
1293.8405122208601
 20
1509.522096960671
 30
0.0
 40
8.2499099999999999
  0
ARC
  5
3F19
  8
0
 10
1293.8405377178151
 20
1509.522071463716
 30
0.0
 40
12.5589
 50
90.0
 51
180.0
  0
LINE
  5
3F1A
  8
0
 10
1284.02551222086
 20
1509.522096960671
 30
0.0
 11
1288.9335122208611
 21
1518.0220969606701
 31
0.0
  0
ARC
  5
3F1B
  8
0
 10
1274.954086422372
 20
1506.0809703027969
 30
0.0
 40
8.2499099999999999
 50
38.633539970327128
 51
255.6620203150907
  0
LINE
  5
3F1D
  8
0
 10
1272.7816360532231
 20
1462.0809703027969
 30
0.0
 11
1259.7816360532231
 21
1462.0809703027969
 31
0.0
  0
LINE
  5
3F1E
  8
0
 10
1272.7816360532231
 20
1489.0809703027969
 30
0.0
 11
1259.7816360532231
 21
1489.0809703027969
 31
0.0
  0
LINE
  5
3F1F
  8
0
 10
1272.7816360532231
 20
1497.5809703027969
 30
0.0
 11
1270.047086422373
 21
1497.5809703027969
 31
0.0
  0
LINE
  5
3F20
  8
0
 10
1270.047086422373
 20
1497.5809703027969
 30
0.0
 11
1265.139086422372
 21
1506.0809703027969
 31
0.0
  0
LINE
  5
3F21
  8
0
 10
1252.7816360532231
 20
1463.5809703027969
 30
0.0
 11
1253.8534328229471
 21
1461.724563842246
 31
0.0
  0
LINE
  5
3F22
  8
0
 10
1259.7816360532231
 20
1463.5809703027969
 30
0.0
 11
1258.709839283498
 21
1461.724563842246
 31
0.0
  0
LINE
  5
3F23
  8
0
 10
1259.7816360532231
 20
1462.0809703027969
 30
0.0
 11
1259.7816360532231
 21
1489.0809703027969
 31
0.0
  0
ARC
  5
3F24
  8
0
 10
1258.915610649439
 20
1465.188665457383
 30
0.0
 40
6.1339745962155821
 50
145.615752531959
 51
214.38424746804091
  0
ARC
  5
3F25
  8
0
 10
1253.647661457007
 20
1465.188665457383
 30
0.0
 40
6.1339745962155821
 50
325.61575253195912
 51
34.384247468040918
  0
LINE
  5
3F26
  8
0
 10
1253.8534328229471
 20
1461.724563842246
 30
0.0
 11
1258.709839283498
 21
1461.724563842246
 31
0.0
  0
ARC
  5
3F27
  8
0
 10
1275.7098392834989
 20
1475.5809703027969
 30
0.0
 40
22.928203230275809
 50
162.41204622600719
 51
197.58795377399269
  0
ARC
  5
3F28
  8
0
 10
1236.8534328229471
 20
1475.5809703027969
 30
0.0
 40
22.928203230275809
 50
342.41204622600731
 51
17.587953773992769
  0
LINE
  5
3F29
  8
0
 10
1253.8534328229471
 20
1468.652767072522
 30
0.0
 11
1258.709839283498
 21
1468.652767072522
 31
0.0
  0
LINE
  5
3F2A
  8
0
 10
1252.7816360532231
 20
1487.5809703027969
 30
0.0
 11
1253.8534328229471
 21
1489.4373767633481
 31
0.0
  0
ARC
  5
3F2B
  8
0
 10
1258.915610649439
 20
1485.973275148209
 30
0.0
 40
6.1339745962155821
 50
145.615752531959
 51
214.38424746804091
  0
LINE
  5
3F2C
  8
0
 10
1259.7816360532231
 20
1487.5809703027969
 30
0.0
 11
1258.709839283498
 21
1489.4373767633481
 31
0.0
  0
ARC
  5
3F2D
  8
0
 10
1253.647661457007
 20
1485.973275148209
 30
0.0
 40
6.1339745962155821
 50
325.61575253195912
 51
34.384247468040918
  0
LINE
  5
3F2E
  8
0
 10
1253.8534328229471
 20
1489.4373767633481
 30
0.0
 11
1258.709839283498
 21
1489.4373767633481
 31
0.0
  0
LINE
  5
3F2F
  8
0
 10
1253.8534328229471
 20
1482.509173533072
 30
0.0
 11
1258.709839283498
 21
1482.509173533072
 31
0.0
  0
LINE
  5
3F30
  8
0
 10
1252.7816360532231
 20
1463.5809703027969
 30
0.0
 11
1252.7816360532231
 21
1487.5809703027969
 31
0.0
  0
LINE
  5
3F33
  8
0
 10
1303.6555122208611
 20
1509.522096960671
 30
0.0
 11
1298.74751222086
 21
1501.022096960671
 31
0.0
  0
LINE
  5
3F34
  8
0
 10
1288.9335122208611
 20
1501.022096960671
 30
0.0
 11
1284.02551222086
 21
1509.522096960671
 31
0.0
  0
LINE
  5
3F35
  8
0
 10
1298.74751222086
 20
1501.022096960671
 30
0.0
 11
1288.9335122208611
 21
1501.022096960671
 31
0.0
  0
LINE
  5
3F36
  8
0
 10
1292.7816360532231
 20
1475.5809703027969
 30
0.0
 11
1285.564757688353
 21
1488.0809703027969
 31
0.0
  0
LINE
  5
3F37
  8
0
 10
1272.7816360532231
 20
1488.0809703027969
 30
0.0
 11
1272.7816360532231
 21
1498.0809703027969
 31
0.0
  0
LINE
  5
3F38
  8
0
 10
1272.7816360532231
 20
1488.0809703027969
 30
0.0
 11
1285.564757688353
 21
1488.0809703027969
 31
0.0
  0
LINE
  5
3F39
  8
0
 10
1272.7816360532231
 20
1463.0809703027969
 30
0.0
 11
1285.564757688353
 21
1463.0809703027969
 31
0.0
  0
LINE
  5
3F3A
  8
0
 10
1292.7816360532231
 20
1475.5809703027969
 30
0.0
 11
1285.564757688353
 21
1463.0809703027969
 31
0.0
  0
LINE
  5
3F3B
  8
0
 10
1281.2816377178151
 20
1509.522071463716
 30
0.0
 11
1281.2816377178151
 21
1498.5446067572291
 31
0.0
  0
LINE
  5
3F3C
  8
0
 10
1281.2816377178151
 20
1500.0411752765669
 30
0.0
 11
1280.389400262407
 21
1498.4959392596611
 31
0.0
  0
ARC
  5
3F3D
  8
0
 10
1274.954086422372
 20
1506.0809703027969
 30
0.0
 40
8.2499099999999999
 50
290.58224060914199
 51
320.08384698181737
  0
LINE
  5
3F3E
  8
0
 10
1270.047086422373
 20
1514.5809703027969
 30
0.0
 11
1279.861086422372
 21
1514.5809703027969
 31
0.0
  0
LINE
  5
3F40
  8
0
 10
1288.9335122208611
 20
1518.0220969606701
 30
0.0
 11
1298.74751222086
 21
1518.0220969606701
 31
0.0
  0
LINE
  5
3F41
  8
0
 10
1279.861086422372
 20
1514.5809703027969
 30
0.0
 11
1281.4843874229391
 21
1511.7696299391409
 31
0.0
  0
LINE
  5
3F44
  8
0
 10
1382.7816360532231
 20
1453.0809703027969
 30
0.0
 11
1382.7816360532231
 21
1463.0809703027969
 31
0.0
  0
LINE
  5
3F45
  8
0
 10
1339.617316571612
 20
1455.0809703027969
 30
0.0
 11
1351.452997089998
 21
1475.5809703027969
 31
0.0
  0
ARC
  5
3F46
  8
0
 10
1327.7816360532231
 20
1475.5809703027969
 30
0.0
 40
26.0
 50
284.79648411862468
 51
75.203515881375239
  0
ARC
  5
3F47
  8
0
 10
1380.609185684074
 20
1445.0809703027969
 30
0.0
 40
8.2499099999999999
 50
218.6335685425002
 51
75.662020315090899
  0
LINE
  5
3F48
  8
0
 10
1385.5166856840749
 20
1436.580930964652
 30
0.0
 11
1375.701469751906
 21
1436.581383646427
 31
0.0
  0
LINE
  5
3F49
  8
0
 10
1382.7816360532231
 20
1453.5806831107341
 30
0.0
 11
1385.516901616242
 21
1453.580556959166
 31
0.0
  0
LINE
  5
3F4A
  8
0
 10
1327.7816360532231
 20
1450.0809703027969
 30
0.0
 11
1382.7816360532231
 21
1453.0809703027969
 31
0.0
  0
LINE
  5
3F4B
  8
0
 10
1317.966920121054
 20
1414.580556959166
 30
0.0
 11
1322.874136053224
 21
1423.0810096409409
 31
0.0
  0
LINE
  5
3F4C
  8
0
 10
1332.6893519853911
 20
1423.080556959166
 30
0.0
 11
1337.5963519853919
 21
1414.581383646426
 31
0.0
  0
LINE
  5
3F4D
  8
0
 10
1322.874136053224
 20
1423.0810096409409
 30
0.0
 11
1332.6893519853911
 21
1423.080556959166
 31
0.0
  0
LINE
  5
3F4E
  8
0
 10
1315.9459555348351
 20
1455.0809703027969
 30
0.0
 11
1339.617316571612
 21
1455.0809703027969
 31
0.0
  0
LINE
  5
3F4F
  8
0
 10
1332.6891360532229
 20
1406.080930964652
 30
0.0
 11
1322.8739201210551
 21
1406.081383646427
 31
0.0
  0
CIRCLE
  5
3F50
  8
0
 10
1327.7816360532231
 20
1414.5809703027969
 30
0.0
 40
8.2499099999999999
  0
LINE
  5
3F51
  8
0
 10
1337.5963519853919
 20
1414.581383646426
 30
0.0
 11
1332.6891360532229
 21
1406.080930964652
 31
0.0
  0
LINE
  5
3F52
  8
0
 10
1322.8739201210551
 20
1406.081383646427
 30
0.0
 11
1317.966920121054
 21
1414.580556959166
 31
0.0
  0
ARC
  5
3F53
  8
0
 10
1380.609185684074
 20
1445.0809703027969
 30
0.0
 40
8.2499099999999999
 50
110.58224060914161
 51
140.08381094868631
  0
LINE
  5
3F54
  8
0
 10
1375.701469751906
 20
1436.581383646427
 30
0.0
 11
1374.0788139608301
 21
1439.391905919766
 31
0.0
  0
LINE
  5
3F55
  8
0
 10
1374.2816377178151
 20
1441.639871463716
 30
0.0
 11
1374.2816377178151
 21
1452.6173340299561
 31
0.0
  0
LINE
  5
3F56
  8
0
 10
1374.2816377178151
 20
1451.121152420493
 30
0.0
 11
1375.173448328698
 21
1452.6659782450949
 31
0.0
  0
LINE
  5
3F57
  8
0
 10
1366.6297632147689
 20
1433.139845966761
 30
0.0
 11
1356.815763214769
 21
1433.139845966761
 31
0.0
  0
LINE
  5
3F58
  8
0
 10
1356.815763214769
 20
1450.139845966761
 30
0.0
 11
1366.6297632147689
 21
1450.139845966761
 31
0.0
  0
LINE
  5
3F59
  8
0
 10
1351.9077632147689
 20
1441.6398459667621
 30
0.0
 11
1356.815763214769
 21
1450.139845966761
 31
0.0
  0
LINE
  5
3F5A
  8
0
 10
1356.815763214769
 20
1433.139845966761
 30
0.0
 11
1351.9077632147689
 21
1441.6398459667621
 31
0.0
  0
LINE
  5
3F5B
  8
0
 10
1366.6297632147689
 20
1450.139845966761
 30
0.0
 11
1371.5377632147699
 21
1441.6398459667621
 31
0.0
  0
LINE
  5
3F5C
  8
0
 10
1371.5377632147699
 20
1441.6398459667621
 30
0.0
 11
1366.6297632147689
 21
1433.139845966761
 31
0.0
  0
ARC
  5
3F5D
  8
0
 10
1361.7227377178151
 20
1441.639871463716
 30
0.0
 40
12.5589
 50
270.0
 51
0.0
  0
CIRCLE
  5
3F5E
  8
0
 10
1361.7227632147681
 20
1441.6398459667621
 30
0.0
 40
8.2499099999999999
  0
LINE
  5
3F61
  8
0
 10
1385.516901616242
 20
1453.580556959166
 30
0.0
 11
1390.423901616241
 21
1445.081383646426
 31
0.0
  0
LINE
  5
3F62
  8
0
 10
1390.423901616241
 20
1445.081383646426
 30
0.0
 11
1385.5166856840749
 21
1436.580930964652
 31
0.0
  0
ARC
  5
3F64
  8
0
 10
1380.609185684074
 20
1506.0809703027969
 30
0.0
 40
8.2499099999999999
 50
284.33797968490939
 51
141.36642842919801
  0
LINE
  5
3F65
  8
0
 10
1389.6134923950499
 20
1467.249970302797
 30
0.0
 11
1377.7816360532231
 21
1467.249970302797
 31
0.0
  0
LINE
  5
3F66
  8
0
 10
1389.6134923950499
 20
1475.5809703027969
 30
0.0
 11
1380.6134923950499
 21
1475.5809703027969
 31
0.0
  0
LINE
  5
3F67
  8
0
 10
1389.6134923950499
 20
1483.911970302797
 30
0.0
 11
1377.7816360532231
 21
1483.911970302797
 31
0.0
  0
LINE
  5
3F68
  8
0
 10
1385.516901616242
 20
1497.581383646427
 30
0.0
 11
1382.7816360532231
 21
1497.5812574948591
 31
0.0
  0
LINE
  5
3F69
  8
0
 10
1375.701469751906
 20
1514.5805569591671
 30
0.0
 11
1385.5166856840749
 21
1514.5810096409409
 31
0.0
  0
LINE
  5
3F6A
  8
0
 10
1351.9077632147689
 20
1509.522096960671
 30
0.0
 11
1356.815763214769
 21
1518.0220969606701
 31
0.0
  0
LINE
  5
3F6B
  8
0
 10
1366.6297632147689
 20
1518.0220969606701
 30
0.0
 11
1371.5377632147699
 21
1509.522096960671
 31
0.0
  0
ARC
  5
3F6C
  8
0
 10
1361.7227377178151
 20
1509.522071463716
 30
0.0
 40
12.5589
 50
0.0
 51
90.0
  0
CIRCLE
  5
3F6D
  8
0
 10
1361.7227632147681
 20
1509.522096960671
 30
0.0
 40
8.2499099999999999
  0
LINE
  5
3F6E
  8
0
 10
1351.452997089998
 20
1475.5809703027969
 30
0.0
 11
1339.617316571612
 21
1496.0809703027969
 31
0.0
  0
LINE
  5
3F6F
  8
0
 10
1327.7816360532231
 20
1501.0809703027969
 30
0.0
 11
1382.7816360532231
 21
1498.0809703027969
 31
0.0
  0
CIRCLE
  5
3F70
  8
0
 10
1327.7816360532231
 20
1475.5809703027969
 30
0.0
 40
17.5
  0
LINE
  5
3F71
  8
0
 10
1320.564757688353
 20
1488.0809703027969
 30
0.0
 11
1334.9985144180939
 21
1488.0809703027969
 31
0.0
  0
LINE
  5
3F72
  8
0
 10
1315.9459555348351
 20
1496.0809703027969
 30
0.0
 11
1339.617316571612
 21
1496.0809703027969
 31
0.0
  0
LINE
  5
3F73
  8
0
 10
1313.3478793234819
 20
1475.5809703027969
 30
0.0
 11
1320.564757688353
 21
1488.0809703027969
 31
0.0
  0
LINE
  5
3F74
  8
0
 10
1320.564757688353
 20
1463.0809703027969
 30
0.0
 11
1334.9985144180939
 21
1463.0809703027969
 31
0.0
  0
LINE
  5
3F75
  8
0
 10
1320.564757688353
 20
1463.0809703027969
 30
0.0
 11
1313.3478793234819
 21
1475.5809703027969
 31
0.0
  0
LINE
  5
3F76
  8
0
 10
1342.215392782964
 20
1475.5809703027969
 30
0.0
 11
1334.9985144180939
 21
1488.0809703027969
 31
0.0
  0
LINE
  5
3F77
  8
0
 10
1334.9985144180939
 20
1463.0809703027969
 30
0.0
 11
1342.215392782964
 21
1475.5809703027969
 31
0.0
  0
LINE
  5
3F78
  8
0
 10
1380.6134923950499
 20
1467.249970302797
 30
0.0
 11
1380.6134923950499
 21
1483.911970302797
 31
0.0
  0
LINE
  5
3F79
  8
0
 10
1369.998514418093
 20
1488.0809703027969
 30
0.0
 11
1382.7816360532231
 21
1488.0809703027969
 31
0.0
  0
LINE
  5
3F7A
  8
0
 10
1382.7816360532231
 20
1488.0809703027969
 30
0.0
 11
1382.7816360532231
 21
1498.0809703027969
 31
0.0
  0
LINE
  5
3F7B
  8
0
 10
1369.998514418093
 20
1463.0809703027969
 30
0.0
 11
1382.7816360532231
 21
1463.0809703027969
 31
0.0
  0
LINE
  5
3F7C
  8
0
 10
1374.2816377178151
 20
1463.0809703027969
 30
0.0
 11
1374.2816377178151
 21
1488.0809703027969
 31
0.0
  0
LINE
  5
3F7D
  8
0
 10
1377.7816360532231
 20
1488.0809703027969
 30
0.0
 11
1377.7816360532231
 21
1463.0809703027969
 31
0.0
  0
LINE
  5
3F7E
  8
0
 10
1374.2816377178151
 20
1498.5446065756371
 30
0.0
 11
1374.2816377178151
 21
1509.522071463716
 31
0.0
  0
LINE
  5
3F7F
  8
0
 10
1375.173448328698
 20
1498.4959623604991
 30
0.0
 11
1374.2816377178151
 21
1500.0407881850999
 31
0.0
  0
ARC
  5
3F80
  8
0
 10
1380.609185684074
 20
1506.0809703027969
 30
0.0
 40
8.2499099999999999
 50
219.9161890513133
 51
249.41775939085781
  0
LINE
  5
3F81
  8
0
 10
1366.6297632147689
 20
1501.022096960671
 30
0.0
 11
1356.815763214769
 21
1501.022096960671
 31
0.0
  0
LINE
  5
3F82
  8
0
 10
1356.815763214769
 20
1501.022096960671
 30
0.0
 11
1351.9077632147689
 21
1509.522096960671
 31
0.0
  0
LINE
  5
3F83
  8
0
 10
1371.5377632147699
 20
1509.522096960671
 30
0.0
 11
1366.6297632147689
 21
1501.022096960671
 31
0.0
  0
LINE
  5
3F84
  8
0
 10
1362.7816360532231
 20
1475.5809703027969
 30
0.0
 11
1369.998514418093
 21
1488.0809703027969
 31
0.0
  0
LINE
  5
3F85
  8
0
 10
1362.7816360532231
 20
1475.5809703027969
 30
0.0
 11
1369.998514418093
 21
1463.0809703027969
 31
0.0
  0
LINE
  5
3F86
  8
0
 10
1322.874136053224
 20
1545.0810096409409
 30
0.0
 11
1332.6893519853911
 21
1545.0805569591671
 31
0.0
  0
LINE
  5
3F87
  8
0
 10
1337.5963519853919
 20
1536.581383646427
 30
0.0
 11
1332.6891360532229
 21
1528.0809309646529
 31
0.0
  0
LINE
  5
3F88
  8
0
 10
1322.8739201210551
 20
1528.081383646427
 30
0.0
 11
1317.966920121054
 21
1536.580556959166
 31
0.0
  0
LINE
  5
3F89
  8
0
 10
1332.6891360532229
 20
1528.0809309646529
 30
0.0
 11
1322.8739201210551
 21
1528.081383646427
 31
0.0
  0
LINE
  5
3F8A
  8
0
 10
1332.6893519853911
 20
1545.0805569591671
 30
0.0
 11
1337.5963519853919
 21
1536.581383646427
 31
0.0
  0
CIRCLE
  5
3F8B
  8
0
 10
1327.7816360532231
 20
1536.5809703027969
 30
0.0
 40
8.2499099999999999
  0
LINE
  5
3F8C
  8
0
 10
1317.966920121054
 20
1536.580556959166
 30
0.0
 11
1322.874136053224
 21
1545.0810096409409
 31
0.0
  0
LINE
  5
3F8D
  8
0
 10
1374.0788142820311
 20
1511.770035242165
 30
0.0
 11
1375.701469751906
 21
1514.5805569591671
 31
0.0
  0
LINE
  5
3F8E
  8
0
 10
1356.815763214769
 20
1518.0220969606701
 30
0.0
 11
1366.6297632147689
 21
1518.0220969606701
 31
0.0
  0
LINE
  5
3F8F
  8
0
 10
1385.5166856840749
 20
1514.5810096409409
 30
0.0
 11
1390.423901616241
 21
1506.0805569591671
 31
0.0
  0
POLYLINE
  5
3F90
  8
0
 66
     1
 10
0.0
 20
0.0
 30
0.0
  0
VERTEX
  5
62AC
  8
0
 10
1393.2816360532211
 20
1475.5809703027969
 30
0.0
  0
VERTEX
  5
62AD
  8
0
 10
1393.2816360532231
 20
1504.949112688618
 30
0.0
 42
0.2679491924311224
  0
VERTEX
  5
62AE
  8
0
 10
1385.965193421303
 20
1517.6215630577669
 30
0.0
  0
SEQEND
  5
62AF
  8
0
  0
LINE
  5
3F93
  8
0
 10
1389.6134923950499
 20
1467.249970302797
 30
0.0
 11
1389.6134923950499
 21
1483.911970302797
 31
0.0
  0
LINE
  5
3F94
  8
0
 10
1390.423901616241
 20
1506.0805569591671
 30
0.0
 11
1385.516901616242
 21
1497.581383646427
 31
0.0
  0
LINE
  5
3F9A
  8
0
 10
3179.6028943466699
 20
746.70387154153639
 30
0.0
 11
3179.6028943466699
 21
764.04099942068206
 31
0.0
  0
LINE
  5
3F9B
  8
0
 10
3225.5871297003841
 20
770.38995143467764
 30
0.0
 11
3225.5871297003841
 21
757.38995143467764
 31
0.0
  0
LINE
  5
3F9C
  8
0
 10
3068.587129700385
 20
770.38995143467764
 30
0.0
 11
3068.5871297003828
 21
757.38995143467764
 31
0.0
  0
LINE
  5
3F9D
  8
0
 10
3114.571365054097
 20
746.70387154153639
 30
0.0
 11
3114.5713650540988
 21
764.04099942068024
 31
0.0
  0
LINE
  5
3F9E
  8
0
 10
2948.457123839542
 20
770.38995143467764
 30
0.0
 11
2948.457123839542
 21
744.38995143467764
 31
0.0
  0
LINE
  5
3F9F
  8
0
 10
2977.457123839542
 20
911.88995143467776
 30
0.0
 11
2977.457123839542
 21
756.88995143467764
 31
0.0
  0
LINE
  5
3FA0
  8
0
 10
2999.457123839542
 20
756.88995143467764
 30
0.0
 11
2999.457123839542
 21
834.38995143467776
 31
0.0
  0
CIRCLE
  5
3FA1
  8
0
 10
3147.0871297003828
 20
834.38995143467571
 30
0.0
 40
77.5
  0
LINE
  5
3FA2
  8
0
 10
2837.4413591932548
 20
746.70387154153639
 30
0.0
 11
2837.4413591932548
 21
768.07603132781867
 31
0.0
  0
LINE
  5
3FA3
  8
0
 10
2902.4728884858291
 20
746.70387154153639
 30
0.0
 11
2902.4728884858291
 21
768.07603132781867
 31
0.0
  0
LINE
  5
3FA4
  8
0
 10
2791.4571238395438
 20
770.38995143467764
 30
0.0
 11
2791.4571238395411
 21
744.38995143467764
 31
0.0
  0
LINE
  5
3FA5
  8
0
 10
2762.457123839542
 20
911.88995143467776
 30
0.0
 11
2762.457123839542
 21
756.88995143467764
 31
0.0
  0
LINE
  5
3FA6
  8
0
 10
2740.457123839542
 20
756.88995143467764
 30
0.0
 11
2740.457123839542
 21
834.38995143467776
 31
0.0
  0
LINE
  5
3FA7
  8
0
 10
2599.8785169600178
 20
770.38995143467764
 30
0.0
 11
2599.8785169600201
 21
757.38995143467764
 31
0.0
  0
LINE
  5
3FA8
  8
0
 10
2553.8942816063059
 20
746.70387154153639
 30
0.0
 11
2553.8942816063059
 21
764.04099942068206
 31
0.0
  0
LINE
  5
3FA9
  8
0
 10
2488.8627523137329
 20
746.70387154153639
 30
0.0
 11
2488.8627523137329
 21
764.04099942068206
 31
0.0
  0
LINE
  5
3FAA
  8
0
 10
2442.8785169600201
 20
770.38995143467764
 30
0.0
 11
2442.8785169600201
 21
757.38995143467764
 31
0.0
  0
CIRCLE
  5
3FAB
  8
0
 10
2521.3785169600201
 20
834.38995143467571
 30
0.0
 40
77.5
  0
LINE
  5
3FAC
  8
0
 10
1665.0321374435109
 20
768.38995143467764
 30
0.0
 11
1665.0321374435109
 21
757.38995143467764
 31
0.0
  0
LINE
  5
3FAD
  8
0
 10
1555.912936566672
 20
760.4942588914837
 30
0.0
 11
1555.912936566672
 21
774.58192521745423
 31
0.0
  0
LINE
  5
3FAE
  8
0
 10
1628.6590704845639
 20
760.4942588914837
 30
0.0
 11
1628.659070484566
 21
774.58192521745514
 31
0.0
  0
LINE
  5
3FAF
  8
0
 10
1519.5398696077241
 20
768.38995143467764
 30
0.0
 11
1519.5398696077241
 21
757.38995143467764
 31
0.0
  0
LINE
  5
3FB0
  8
0
 10
2852.390283573985
 20
732.38995143467764
 30
0.0
 11
2833.948283573985
 21
732.38995143467764
 31
0.0
  0
ARC
  5
3FB1
  8
0
 10
2851.3962835739858
 20
737.78974821964221
 30
0.0
 40
5.1763273479641221
 50
238.0004643881762
 51
301.99953561182377
  0
LINE
  5
3FB2
  8
0
 10
2793.4571238395401
 20
742.38995143467764
 30
0.0
 11
2946.457123839542
 21
742.38995143467764
 31
0.0
  0
LINE
  5
3FB3
  8
0
 10
2791.457123839542
 20
757.38995143467764
 30
0.0
 11
2948.457123839542
 21
757.38995143467764
 31
0.0
  0
LINE
  5
3FB4
  8
0
 10
2485.0903780149511
 20
733.39995143467775
 30
0.0
 11
2486.8393780149531
 21
732.38995143467764
 31
0.0
  0
ARC
  5
3FB5
  8
0
 10
2489.8405273547032
 20
744.06520824157894
 30
0.0
 40
11.67525680690135
 50
245.99250827525691
 51
294.0074917247448
  0
LINE
  5
3FB6
  8
0
 10
2597.8785169600219
 20
742.38995143467764
 30
0.0
 11
2444.8785169600201
 21
742.38995143467764
 31
0.0
  0
LINE
  5
3FB7
  8
0
 10
2512.5893190443799
 20
757.38995143467764
 30
0.0
 11
2442.8785169600201
 21
757.38995143467764
 31
0.0
  0
ARC
  5
3FB8
  8
0
 10
1654.536003525616
 20
758.83127223113752
 30
0.0
 40
10.44232079645947
 50
245.98362926446461
 51
294.0163707355353
  0
LINE
  5
3FB9
  8
0
 10
1643.351003525619
 20
748.38895143467744
 30
0.0
 11
1657.2210035256139
 21
748.38895143467744
 31
0.0
  0
LINE
  5
3FBA
  8
0
 10
1521.5398696077241
 20
755.38995143467855
 30
0.0
 11
1663.0321374435109
 21
755.38995143467764
 31
0.0
  0
ARC
  5
3FBB
  8
0
 10
1538.536003525616
 20
758.83127223113843
 30
0.0
 40
10.44232079645947
 50
245.98362926446461
 51
294.0163707355353
  0
LINE
  5
3FBC
  8
0
 10
1527.3510035256179
 20
748.38895143467835
 30
0.0
 11
1541.2210035256139
 21
748.38895143467835
 31
0.0
  0
LINE
  5
3FBD
  8
0
 10
1534.286003525616
 20
749.29295143467778
 30
0.0
 11
1534.286003525616
 21
755.38995143467855
 31
0.0
  0
ARC
  5
3FBE
  8
0
 10
1521.5398696077241
 20
757.38995143467764
 30
0.0
 40
2.0
 50
180.0
 51
270.0
  0
LINE
  5
3FBF
  8
0
 10
1525.786003525616
 20
755.38995143467855
 30
0.0
 11
1525.786003525616
 21
749.29295143467778
 31
0.0
  0
LINE
  5
3FC0
  8
0
 10
1525.786003525616
 20
749.29295143467778
 30
0.0
 11
1527.3510035256149
 21
748.38895143467835
 31
0.0
  0
ARC
  5
3FC1
  8
0
 10
1530.036003525616
 20
758.83127223113752
 30
0.0
 40
10.44232079645921
 50
245.98362926446461
 51
294.01637073553542
  0
LINE
  5
3FC2
  8
0
 10
1571.786003525614
 20
749.29295143467778
 30
0.0
 11
1571.786003525614
 21
755.38995143467764
 31
0.0
  0
LINE
  5
3FC3
  8
0
 10
1563.286003525614
 20
749.29295143467778
 30
0.0
 11
1563.286003525614
 21
755.38995143467764
 31
0.0
  0
ARC
  5
3FC4
  8
0
 10
1567.536003525614
 20
758.83127223113752
 30
0.0
 40
10.44232079645947
 50
245.98362926446461
 51
294.0163707355353
  0
LINE
  5
3FC5
  8
0
 10
1570.2210035256121
 20
748.38895143467835
 30
0.0
 11
1571.786003525614
 21
749.29295143467778
 31
0.0
  0
LINE
  5
3FC6
  8
0
 10
1554.786003525614
 20
755.38995143467764
 30
0.0
 11
1554.786003525614
 21
749.29295143467778
 31
0.0
  0
LINE
  5
3FC7
  8
0
 10
1554.786003525614
 20
749.29295143467778
 30
0.0
 11
1556.3510035256129
 21
748.38895143467835
 31
0.0
  0
LINE
  5
3FC8
  8
0
 10
1556.351003525617
 20
748.38895143467835
 30
0.0
 11
1570.2210035256121
 21
748.38895143467835
 31
0.0
  0
ARC
  5
3FC9
  8
0
 10
1559.036003525614
 20
758.83127223113752
 30
0.0
 40
10.44232079645921
 50
245.98362926446461
 51
294.01637073553542
  0
LINE
  5
3FCA
  8
0
 10
1542.786003525616
 20
749.29295143467778
 30
0.0
 11
1542.786003525616
 21
755.38995143467855
 31
0.0
  0
LINE
  5
3FCB
  8
0
 10
1541.2210035256139
 20
748.38895143467835
 30
0.0
 11
1542.786003525616
 21
749.29295143467778
 31
0.0
  0
ARC
  5
3FCC
  8
0
 10
1617.0360035256181
 20
758.83127223113661
 30
0.0
 40
10.44232079645921
 50
245.98362926446461
 51
294.01637073553542
  0
LINE
  5
3FCD
  8
0
 10
1612.7860035256181
 20
749.29295143467778
 30
0.0
 11
1614.351003525617
 21
748.38895143467744
 31
0.0
  0
ARC
  5
3FCE
  8
0
 10
1607.2721039034241
 20
750.38995143467764
 30
0.0
 40
5.0
 50
90.0
 51
183.18473853672259
  0
LINE
  5
3FCF
  8
0
 10
1582.2860035256181
 20
749.92127763167616
 30
0.0
 11
1582.2860035256181
 21
749.88995143467764
 31
0.0
  0
LINE
  5
3FD0
  8
0
 10
1602.2860035256181
 20
749.92127763167616
 30
0.0
 11
1602.2860035256181
 21
749.88995143467764
 31
0.0
  0
LINE
  5
3FD1
  8
0
 10
1602.2860035256181
 20
749.92127763167616
 30
0.0
 11
1602.2860035256181
 21
749.88995143467764
 31
0.0
  0
LINE
  5
3FD2
  8
0
 10
1586.2860035256181
 20
745.88995143467764
 30
0.0
 11
1598.2860035256181
 21
745.88995143467764
 31
0.0
  0
ARC
  5
3FD3
  8
0
 10
1586.2860035256181
 20
749.88995143467764
 30
0.0
 40
4.0
 50
176.81526146327641
 51
270.0
  0
ARC
  5
3FD4
  8
0
 10
1598.2860035256181
 20
749.88995143467764
 30
0.0
 40
4.0
 50
270.0
 51
3.184738536721019
  0
ARC
  5
3FD5
  8
0
 10
1577.2999031478121
 20
750.38995143467764
 30
0.0
 40
5.0
 50
356.81526146327741
 51
90.0
  0
LINE
  5
3FD6
  8
0
 10
1612.7860035256181
 20
755.38995143467764
 30
0.0
 11
1612.7860035256181
 21
749.29295143467778
 31
0.0
  0
LINE
  5
3FD7
  8
0
 10
1614.3510035256199
 20
748.38895143467744
 30
0.0
 11
1628.2210035256151
 21
748.38895143467744
 31
0.0
  0
ARC
  5
3FD8
  8
0
 10
1625.5360035256181
 20
758.83127223113752
 30
0.0
 40
10.44232079645947
 50
245.98362926446461
 51
294.0163707355353
  0
LINE
  5
3FD9
  8
0
 10
1621.2860035256181
 20
749.29295143467778
 30
0.0
 11
1621.2860035256181
 21
755.38995143467764
 31
0.0
  0
LINE
  5
3FDA
  8
0
 10
1629.7860035256181
 20
749.29295143467778
 30
0.0
 11
1629.7860035256181
 21
755.38995143467764
 31
0.0
  0
LINE
  5
3FDB
  8
0
 10
1628.2210035256151
 20
748.38895143467744
 30
0.0
 11
1629.7860035256181
 21
749.29295143467778
 31
0.0
  0
LINE
  5
3FDC
  8
0
 10
1650.286003525616
 20
749.29295143467778
 30
0.0
 11
1650.286003525616
 21
755.38995143467764
 31
0.0
  0
LINE
  5
3FDD
  8
0
 10
1641.786003525616
 20
755.38995143467764
 30
0.0
 11
1641.786003525616
 21
749.29295143467778
 31
0.0
  0
LINE
  5
3FDE
  8
0
 10
1641.786003525616
 20
749.29295143467778
 30
0.0
 11
1643.3510035256149
 21
748.38895143467744
 31
0.0
  0
ARC
  5
3FDF
  8
0
 10
1646.036003525616
 20
758.83127223113661
 30
0.0
 40
10.44232079645921
 50
245.98362926446461
 51
294.01637073553542
  0
ARC
  5
3FE0
  8
0
 10
1663.0321374435109
 20
757.38995143467764
 30
0.0
 40
2.0
 50
270.0
 51
0.0
  0
LINE
  5
3FE1
  8
0
 10
1658.786003525616
 20
749.29295143467778
 30
0.0
 11
1658.786003525616
 21
755.38995143467764
 31
0.0
  0
LINE
  5
3FE2
  8
0
 10
1657.2210035256139
 20
748.38895143467744
 30
0.0
 11
1658.786003525616
 21
749.29295143467778
 31
0.0
  0
ARC
  5
3FE3
  8
0
 10
2451.9568003444688
 20
744.06520824157894
 30
0.0
 40
11.67525680690135
 50
245.99250827525691
 51
294.0074917247448
  0
LINE
  5
3FE4
  8
0
 10
2447.2066510047171
 20
733.39995143467775
 30
0.0
 11
2448.9556510047191
 21
732.38995143467764
 31
0.0
  0
LINE
  5
3FE5
  8
0
 10
2447.2066510047139
 20
742.38995143467764
 30
0.0
 11
2447.2066510047139
 21
733.39995143467775
 31
0.0
  0
LINE
  5
3FE6
  8
0
 10
2442.8785169600201
 20
757.38995143467764
 30
0.0
 11
2442.8785169600201
 21
744.38995143467764
 31
0.0
  0
ARC
  5
3FE7
  8
0
 10
2444.8785169600201
 20
744.38995143467764
 30
0.0
 40
2.0
 50
180.0
 51
270.0
  0
LINE
  5
3FE8
  8
0
 10
2466.2072483637439
 20
733.39995143467775
 30
0.0
 11
2466.2072483637439
 21
742.38995143467764
 31
0.0
  0
LINE
  5
3FE9
  8
0
 10
2485.0903780149479
 20
742.38995143467764
 30
0.0
 11
2485.0903780149479
 21
733.39995143467775
 31
0.0
  0
LINE
  5
3FEA
  8
0
 10
2456.7069496842291
 20
733.39995143467775
 30
0.0
 11
2456.7069496842291
 21
742.38995143467764
 31
0.0
  0
ARC
  5
3FEB
  8
0
 10
2461.4570990239849
 20
744.06520824160179
 30
0.0
 40
11.675256806925161
 50
245.9925082752855
 51
294.00749172474269
  0
LINE
  5
3FEC
  8
0
 10
2448.9556510047169
 20
732.38995143467764
 30
0.0
 11
2464.4582483637419
 21
732.38995143467764
 31
0.0
  0
LINE
  5
3FED
  8
0
 10
2464.4582483637441
 20
732.38995143467764
 30
0.0
 11
2466.2072483637439
 21
733.39995143467775
 31
0.0
  0
LINE
  5
3FEE
  8
0
 10
2599.8785169600201
 20
757.38995143467764
 30
0.0
 11
2530.1677148756589
 21
757.38995143467764
 31
0.0
  0
LINE
  5
3FEF
  8
0
 10
2527.3785169600201
 20
737.38995143467764
 30
0.0
 11
2515.3785169600201
 21
737.38995143467764
 31
0.0
  0
LINE
  5
3FF0
  8
0
 10
2504.0909753739779
 20
733.39995143467775
 30
0.0
 11
2504.0909753739779
 21
742.38995143467764
 31
0.0
  0
LINE
  5
3FF1
  8
0
 10
2494.5906766944631
 20
733.39995143467775
 30
0.0
 11
2494.5906766944631
 21
742.38995143467764
 31
0.0
  0
ARC
  5
3FF2
  8
0
 10
2499.3408260342189
 20
744.06520824160179
 30
0.0
 40
11.675256806925161
 50
245.9925082752855
 51
294.00749172474269
  0
LINE
  5
3FF3
  8
0
 10
2502.3419753739781
 20
732.38995143467764
 30
0.0
 11
2504.0909753739779
 21
733.39995143467775
 31
0.0
  0
ARC
  5
3FF4
  8
0
 10
2507.9623184729239
 20
738.38995143467764
 30
0.0
 40
4.0
 50
22.02431283703865
 51
90.0
  0
ARC
  5
3FF5
  8
0
 10
2515.3785169600201
 20
741.38995143467764
 30
0.0
 40
4.0
 50
202.0243128370397
 51
270.0
  0
LINE
  5
3FF6
  8
0
 10
2486.8393780149509
 20
732.38995143467764
 30
0.0
 11
2502.3419753739772
 21
732.38995143467764
 31
0.0
  0
LINE
  5
3FF7
  8
0
 10
2548.166357225577
 20
733.39995143467775
 30
0.0
 11
2548.166357225577
 21
742.38995143467764
 31
0.0
  0
LINE
  5
3FF8
  8
0
 10
2538.6660585460609
 20
742.38995143467764
 30
0.0
 11
2538.6660585460609
 21
733.39995143467775
 31
0.0
  0
LINE
  5
3FF9
  8
0
 10
2557.6666559050918
 20
733.39995143467775
 30
0.0
 11
2557.6666559050918
 21
742.38995143467764
 31
0.0
  0
ARC
  5
3FFA
  8
0
 10
2543.416207885818
 20
744.06520824157894
 30
0.0
 40
11.67525680690135
 50
245.99250827525691
 51
294.0074917247448
  0
LINE
  5
3FFB
  8
0
 10
2538.666058546065
 20
733.39995143467775
 30
0.0
 11
2540.415058546067
 21
732.38995143467764
 31
0.0
  0
LINE
  5
3FFC
  8
0
 10
2555.917655905092
 20
732.38995143467764
 30
0.0
 11
2557.6666559050918
 21
733.39995143467775
 31
0.0
  0
ARC
  5
3FFD
  8
0
 10
2552.9165065653319
 20
744.06520824160179
 30
0.0
 40
11.675256806925161
 50
245.9925082752855
 51
294.00749172474269
  0
LINE
  5
3FFE
  8
0
 10
2540.4150585460652
 20
732.38995143467764
 30
0.0
 11
2555.9176559050911
 21
732.38995143467764
 31
0.0
  0
ARC
  5
3FFF
  8
0
 10
2534.7947154471149
 20
738.38995143467764
 30
0.0
 40
4.0
 50
90.0
 51
157.97568716296101
  0
ARC
  5
4000
  8
0
 10
2527.3785169600201
 20
741.38995143467764
 30
0.0
 40
4.0
 50
270.0
 51
337.97568716296001
  0
ARC
  5
4001
  8
0
 10
2597.8785169600219
 20
744.38995143467764
 30
0.0
 40
2.0
 50
270.0
 51
0.0000000000034675
  0
LINE
  5
4002
  8
0
 10
2595.5503829153258
 20
733.39995143467775
 30
0.0
 11
2595.5503829153258
 21
742.38995143467764
 31
0.0
  0
LINE
  5
4003
  8
0
 10
2586.050084235811
 20
733.39995143467775
 30
0.0
 11
2586.050084235811
 21
742.38995143467764
 31
0.0
  0
LINE
  5
4004
  8
0
 10
2576.5497855562949
 20
742.38995143467764
 30
0.0
 11
2576.5497855562949
 21
733.39995143467775
 31
0.0
  0
ARC
  5
4005
  8
0
 10
2590.8002335755668
 20
744.06520824160179
 30
0.0
 40
11.675256806925161
 50
245.9925082752855
 51
294.00749172474269
  0
LINE
  5
4006
  8
0
 10
2593.801382915326
 20
732.38995143467764
 30
0.0
 11
2595.5503829153258
 21
733.39995143467775
 31
0.0
  0
LINE
  5
4007
  8
0
 10
2576.549785556299
 20
733.39995143467775
 30
0.0
 11
2578.298785556301
 21
732.38995143467764
 31
0.0
  0
ARC
  5
4008
  8
0
 10
2581.299934896052
 20
744.06520824157894
 30
0.0
 40
11.67525680690135
 50
245.99250827525691
 51
294.0074917247448
  0
LINE
  5
4009
  8
0
 10
2578.2987855562992
 20
732.38995143467764
 30
0.0
 11
2593.8013829153242
 21
732.38995143467764
 31
0.0
  0
LINE
  5
400A
  8
0
 10
2599.8785169600178
 20
757.38995143467764
 30
0.0
 11
2599.8785169600219
 21
744.38995143467764
 31
0.0
  0
LINE
  5
400B
  8
0
 10
2762.457123839542
 20
756.88995143467764
 30
0.0
 11
2740.457123839542
 21
756.88995143467764
 31
0.0
  0
ARC
  5
400C
  8
0
 10
2813.5125565637518
 20
737.78974821964221
 30
0.0
 40
5.1763273479641221
 50
238.0004643881762
 51
301.99953561182377
  0
LINE
  5
400D
  8
0
 10
2814.506556563751
 20
732.38995143467764
 30
0.0
 11
2796.0645565637519
 21
732.38995143467764
 31
0.0
  0
LINE
  5
400E
  8
0
 10
2794.3155565637521
 20
733.39995143467775
 30
0.0
 11
2794.3155565637521
 21
742.38995143467764
 31
0.0
  0
LINE
  5
400F
  8
0
 10
2810.7695565637532
 20
733.39995143467775
 30
0.0
 11
2810.7695565637532
 21
742.38995143467764
 31
0.0
  0
LINE
  5
4010
  8
0
 10
2799.8015565637529
 20
733.39995143467775
 30
0.0
 11
2799.8015565637529
 21
742.38995143467764
 31
0.0
  0
LINE
  5
4011
  8
0
 10
2796.0645565637519
 20
732.38995143467764
 30
0.0
 11
2794.3155565637521
 21
733.39995143467775
 31
0.0
  0
ARC
  5
4012
  8
0
 10
2805.2855565637528
 20
752.12985680468591
 30
0.0
 40
19.51623967800851
 50
253.68029689768471
 51
286.31970310231537
  0
ARC
  5
4013
  8
0
 10
2797.0585565637521
 20
737.78974821964221
 30
0.0
 40
5.1763273479641221
 50
238.0004643881762
 51
301.99953561182377
  0
ARC
  5
4014
  8
0
 10
2793.4571238395401
 20
744.38995143467764
 30
0.0
 40
2.0
 50
179.9999999999965
 51
270.0
  0
LINE
  5
4015
  8
0
 10
2816.2555565637522
 20
742.38995143467764
 30
0.0
 11
2816.2555565637522
 21
733.39995143467775
 31
0.0
  0
LINE
  5
4016
  8
0
 10
2837.685283573986
 20
733.39995143467775
 30
0.0
 11
2837.685283573986
 21
742.38995143467764
 31
0.0
  0
LINE
  5
4017
  8
0
 10
2848.6532835739872
 20
733.39995143467775
 30
0.0
 11
2848.6532835739872
 21
742.38995143467764
 31
0.0
  0
LINE
  5
4018
  8
0
 10
2832.1992835739861
 20
733.39995143467775
 30
0.0
 11
2832.1992835739861
 21
742.38995143467764
 31
0.0
  0
LINE
  5
4019
  8
0
 10
2816.2555565637522
 20
733.39995143467775
 30
0.0
 11
2814.506556563751
 21
732.38995143467764
 31
0.0
  0
ARC
  5
401A
  8
0
 10
2834.9422835739861
 20
737.78974821964221
 30
0.0
 40
5.1763273479641221
 50
238.0004643881762
 51
301.99953561182377
  0
ARC
  5
401B
  8
0
 10
2843.1692835739868
 20
752.12985680468591
 30
0.0
 40
19.51623967800851
 50
253.68029689768471
 51
286.31970310231537
  0
LINE
  5
401C
  8
0
 10
2833.948283573985
 20
732.38995143467764
 30
0.0
 11
2832.1992835739861
 21
733.39995143467775
 31
0.0
  0
LINE
  5
401D
  8
0
 10
3070.5871297003819
 20
742.38995143467764
 30
0.0
 11
3223.5871297003828
 21
742.38995143467764
 31
0.0
  0
LINE
  5
401E
  8
0
 10
3155.8763276160221
 20
757.38995143467764
 30
0.0
 11
3225.5871297003841
 21
757.38995143467764
 31
0.0
  0
ARC
  5
401F
  8
0
 10
2926.4016911153321
 20
737.78974821964221
 30
0.0
 40
5.1763273479641221
 50
238.0004643881762
 51
301.99953561182377
  0
LINE
  5
4020
  8
0
 10
2925.4076911153338
 20
732.38995143467764
 30
0.0
 11
2943.8496911153329
 21
732.38995143467764
 31
0.0
  0
TEXT
  5
4021
  8
0
 10
2830.7432613858832
 20
656.95452171048225
 30
0.0
 40
35.0
  1
50
 41
0.8
 72
     4
 11
2853.4099280525502
 21
674.45452171048225
 31
0.0
  0
ARC
  5
4022
  8
0
 10
2888.5179641050981
 20
737.78974821964221
 30
0.0
 40
5.1763273479641221
 50
238.0004643881762
 51
301.99953561182377
  0
LINE
  5
4023
  8
0
 10
2887.5239641050989
 20
732.38995143467764
 30
0.0
 11
2905.965964105098
 21
732.38995143467764
 31
0.0
  0
LINE
  5
4024
  8
0
 10
2854.1392835739871
 20
742.38995143467764
 30
0.0
 11
2854.1392835739871
 21
733.39995143467775
 31
0.0
  0
LINE
  5
4025
  8
0
 10
2885.7749641050982
 20
742.38995143467764
 30
0.0
 11
2885.7749641050982
 21
733.39995143467775
 31
0.0
  0
LINE
  5
4026
  8
0
 10
2854.1392835739871
 20
733.39995143467775
 30
0.0
 11
2852.390283573985
 21
732.38995143467764
 31
0.0
  0
LINE
  5
4027
  8
0
 10
2885.7749641050982
 20
733.39995143467775
 30
0.0
 11
2887.5239641050989
 21
732.38995143467764
 31
0.0
  0
ARC
  5
4028
  8
0
 10
2883.3733223266372
 20
738.38995143467764
 30
0.0
 40
4.0
 50
90.0
 51
157.97568716296129
  0
ARC
  5
4029
  8
0
 10
2875.957123839542
 20
741.38995143467764
 30
0.0
 40
4.0
 50
270.0
 51
337.9756871629603
  0
ARC
  5
402A
  8
0
 10
2856.5409253524472
 20
738.38995143467764
 30
0.0
 40
4.0
 50
22.024312837038892
 51
90.0
  0
ARC
  5
402B
  8
0
 10
2863.957123839542
 20
741.38995143467764
 30
0.0
 40
4.0
 50
202.02431283703979
 51
270.0
  0
LINE
  5
402C
  8
0
 10
2863.957123839542
 20
737.38995143467764
 30
0.0
 11
2875.957123839542
 21
737.38995143467764
 31
0.0
  0
LINE
  5
402D
  8
0
 10
2907.7149641050978
 20
733.39995143467775
 30
0.0
 11
2907.7149641050978
 21
742.38995143467764
 31
0.0
  0
LINE
  5
402E
  8
0
 10
2891.2609641050972
 20
733.39995143467775
 30
0.0
 11
2891.2609641050972
 21
742.38995143467764
 31
0.0
  0
LINE
  5
402F
  8
0
 10
2902.2289641050979
 20
733.39995143467775
 30
0.0
 11
2902.2289641050979
 21
742.38995143467764
 31
0.0
  0
LINE
  5
4030
  8
0
 10
2923.6586911153322
 20
742.38995143467764
 30
0.0
 11
2923.6586911153322
 21
733.39995143467775
 31
0.0
  0
LINE
  5
4031
  8
0
 10
2905.965964105098
 20
732.38995143467764
 30
0.0
 11
2907.7149641050978
 21
733.39995143467775
 31
0.0
  0
ARC
  5
4032
  8
0
 10
2896.7449641050971
 20
752.12985680468591
 30
0.0
 40
19.51623967800851
 50
253.68029689768471
 51
286.31970310231537
  0
ARC
  5
4033
  8
0
 10
2904.9719641050979
 20
737.78974821964221
 30
0.0
 40
5.1763273479641221
 50
238.0004643881762
 51
301.99953561182377
  0
LINE
  5
4034
  8
0
 10
2923.6586911153322
 20
733.39995143467775
 30
0.0
 11
2925.4076911153338
 21
732.38995143467764
 31
0.0
  0
LINE
  5
4035
  8
0
 10
2977.457123839542
 20
756.88995143467764
 30
0.0
 11
2999.457123839542
 21
756.88995143467764
 31
0.0
  0
LINE
  5
4036
  8
0
 10
2940.1126911153319
 20
733.39995143467775
 30
0.0
 11
2940.1126911153319
 21
742.38995143467764
 31
0.0
  0
LINE
  5
4037
  8
0
 10
2945.5986911153318
 20
733.39995143467775
 30
0.0
 11
2945.5986911153318
 21
742.38995143467764
 31
0.0
  0
ARC
  5
4038
  8
0
 10
2942.8556911153319
 20
737.78974821964221
 30
0.0
 40
5.1763273479641221
 50
238.0004643881762
 51
301.99953561182377
  0
LINE
  5
4039
  8
0
 10
2943.8496911153329
 20
732.38995143467764
 30
0.0
 11
2945.5986911153318
 21
733.39995143467775
 31
0.0
  0
ARC
  5
403A
  8
0
 10
2946.457123839542
 20
744.38995143467764
 30
0.0
 40
2.0
 50
270.0
 51
0.0
  0
LINE
  5
403B
  8
0
 10
2929.1446911153312
 20
733.39995143467775
 30
0.0
 11
2929.1446911153312
 21
742.38995143467764
 31
0.0
  0
ARC
  5
403C
  8
0
 10
2934.6286911153311
 20
752.12985680468591
 30
0.0
 40
19.51623967800851
 50
253.68029689768471
 51
286.31970310231537
  0
LINE
  5
403D
  8
0
 10
3068.5871297003828
 20
757.38995143467764
 30
0.0
 11
3138.2979317847439
 21
757.38995143467764
 31
0.0
  0
ARC
  5
403E
  8
0
 10
3070.5871297003819
 20
744.38995143467764
 30
0.0
 40
2.0
 50
179.9999999999965
 51
270.0
  0
LINE
  5
403F
  8
0
 10
3068.587129700385
 20
757.38995143467764
 30
0.0
 11
3068.587129700381
 21
744.38995143467764
 31
0.0
  0
LINE
  5
4040
  8
0
 10
3072.915263745077
 20
733.39995143467775
 30
0.0
 11
3072.915263745077
 21
742.38995143467764
 31
0.0
  0
LINE
  5
4041
  8
0
 10
3082.4155624245918
 20
733.39995143467775
 30
0.0
 11
3082.4155624245918
 21
742.38995143467764
 31
0.0
  0
LINE
  5
4042
  8
0
 10
3091.915861104108
 20
742.38995143467764
 30
0.0
 11
3091.915861104108
 21
733.39995143467775
 31
0.0
  0
ARC
  5
4043
  8
0
 10
3087.1657117643522
 20
744.06520824157894
 30
0.0
 40
11.67525680690135
 50
245.9925082752552
 51
294.00749172474298
  0
LINE
  5
4044
  8
0
 10
3090.1668611041041
 20
732.38995143467764
 30
0.0
 11
3074.6642637450791
 21
732.38995143467764
 31
0.0
  0
ARC
  5
4045
  8
0
 10
3077.6654130848369
 20
744.06520824160179
 30
0.0
 40
11.675256806925161
 50
245.99250827525739
 51
294.0074917247145
  0
LINE
  5
4046
  8
0
 10
3074.6642637450768
 20
732.38995143467764
 30
0.0
 11
3072.915263745077
 21
733.39995143467775
 31
0.0
  0
LINE
  5
4047
  8
0
 10
3091.9158611041039
 20
733.39995143467775
 30
0.0
 11
3090.1668611041032
 21
732.38995143467764
 31
0.0
  0
LINE
  5
4048
  8
0
 10
3141.0871297003828
 20
737.38995143467764
 30
0.0
 11
3153.0871297003828
 21
737.38995143467764
 31
0.0
  0
LINE
  5
4049
  8
0
 10
3110.798990755311
 20
733.39995143467775
 30
0.0
 11
3110.798990755311
 21
742.38995143467764
 31
0.0
  0
LINE
  5
404A
  8
0
 10
3120.2992894348258
 20
733.39995143467775
 30
0.0
 11
3120.2992894348258
 21
742.38995143467764
 31
0.0
  0
LINE
  5
404B
  8
0
 10
3129.7995881143411
 20
742.38995143467764
 30
0.0
 11
3129.7995881143411
 21
733.39995143467775
 31
0.0
  0
ARC
  5
404C
  8
0
 10
3125.0494387745862
 20
744.06520824157894
 30
0.0
 40
11.67525680690135
 50
245.9925082752552
 51
294.00749172474298
  0
ARC
  5
404D
  8
0
 10
3115.5491400950709
 20
744.06520824160179
 30
0.0
 40
11.675256806925161
 50
245.99250827525739
 51
294.0074917247145
  0
LINE
  5
404E
  8
0
 10
3128.0505881143381
 20
732.38995143467764
 30
0.0
 11
3112.5479907553131
 21
732.38995143467764
 31
0.0
  0
LINE
  5
404F
  8
0
 10
3112.5479907553108
 20
732.38995143467764
 30
0.0
 11
3110.798990755311
 21
733.39995143467775
 31
0.0
  0
LINE
  5
4050
  8
0
 10
3129.7995881143379
 20
733.39995143467775
 30
0.0
 11
3128.0505881143358
 21
732.38995143467764
 31
0.0
  0
ARC
  5
4051
  8
0
 10
3133.670931213288
 20
738.38995143467764
 30
0.0
 40
4.0
 50
22.024312837038941
 51
90.0
  0
ARC
  5
4052
  8
0
 10
3141.0871297003828
 20
741.38995143467764
 30
0.0
 40
4.0
 50
202.02431283703979
 51
270.0
  0
LINE
  5
4053
  8
0
 10
3183.3752686454559
 20
742.38995143467764
 30
0.0
 11
3183.3752686454559
 21
733.39995143467775
 31
0.0
  0
LINE
  5
4054
  8
0
 10
3183.3752686454518
 20
733.39995143467775
 30
0.0
 11
3181.6262686454502
 21
732.38995143467764
 31
0.0
  0
LINE
  5
4055
  8
0
 10
3164.3746712864249
 20
733.39995143467775
 30
0.0
 11
3164.3746712864249
 21
742.38995143467764
 31
0.0
  0
LINE
  5
4056
  8
0
 10
3173.8749699659402
 20
733.39995143467775
 30
0.0
 11
3173.8749699659402
 21
742.38995143467764
 31
0.0
  0
ARC
  5
4057
  8
0
 10
3169.1248206261839
 20
744.06520824160179
 30
0.0
 40
11.675256806925161
 50
245.99250827525739
 51
294.0074917247145
  0
LINE
  5
4058
  8
0
 10
3166.1236712864252
 20
732.38995143467764
 30
0.0
 11
3164.3746712864249
 21
733.39995143467775
 31
0.0
  0
ARC
  5
4059
  8
0
 10
3160.5033281874789
 20
738.38995143467764
 30
0.0
 40
4.0
 50
90.0
 51
157.97568716296129
  0
ARC
  5
405A
  8
0
 10
3153.0871297003828
 20
741.38995143467764
 30
0.0
 40
4.0
 50
270.0
 51
337.97568716296041
  0
ARC
  5
405B
  8
0
 10
3178.6251193057001
 20
744.06520824157894
 30
0.0
 40
11.67525680690135
 50
245.9925082752552
 51
294.00749172474298
  0
LINE
  5
405C
  8
0
 10
3181.626268645452
 20
732.38995143467764
 30
0.0
 11
3166.123671286427
 21
732.38995143467764
 31
0.0
  0
LINE
  5
4061
  8
0
 10
3211.7586969761751
 20
733.39995143467775
 30
0.0
 11
3211.7586969761751
 21
742.38995143467764
 31
0.0
  0
LINE
  5
4062
  8
0
 10
3221.2589956556899
 20
742.38995143467764
 30
0.0
 11
3221.2589956556899
 21
733.39995143467775
 31
0.0
  0
LINE
  5
4063
  8
0
 10
3202.2583982966589
 20
733.39995143467775
 30
0.0
 11
3202.2583982966589
 21
742.38995143467764
 31
0.0
  0
ARC
  5
4064
  8
0
 10
3216.5088463159341
 20
744.06520824157894
 30
0.0
 40
11.67525680690135
 50
245.9925082752552
 51
294.00749172474298
  0
LINE
  5
4065
  8
0
 10
3221.2589956556858
 20
733.39995143467775
 30
0.0
 11
3219.5099956556842
 21
732.38995143467764
 31
0.0
  0
LINE
  5
4066
  8
0
 10
3204.0073982966592
 20
732.38995143467764
 30
0.0
 11
3202.2583982966589
 21
733.39995143467775
 31
0.0
  0
ARC
  5
4067
  8
0
 10
3207.0085476364179
 20
744.06520824160179
 30
0.0
 40
11.675256806925161
 50
245.99250827525739
 51
294.0074917247145
  0
LINE
  5
4068
  8
0
 10
3219.509995655686
 20
732.38995143467764
 30
0.0
 11
3204.0073982966601
 21
732.38995143467764
 31
0.0
  0
LINE
  5
4069
  8
0
 10
3225.5871297003841
 20
757.38995143467764
 30
0.0
 11
3225.5871297003841
 21
744.38995143467764
 31
0.0
  0
ARC
  5
406A
  8
0
 10
3223.5871297003828
 20
744.38995143467764
 30
0.0
 40
2.0
 50
270.0
 51
0.0
  0
CIRCLE
  5
409D
  8
0
 10
2869.957123839542
 20
1475.5809703027969
 30
0.0
 40
20.5
  0
LINE
  5
409E
  8
0
 10
2903.8982255041342
 20
1429.0809714637151
 30
0.0
 11
2836.0160255041342
 21
1429.0809714637151
 31
0.0
  0
POLYLINE
  5
409F
  8
0
 66
     1
 10
0.0
 20
0.0
 30
0.0
  0
VERTEX
  5
62B0
  8
0
 10
2814.9268658024021
 20
1419.595463693649
 30
0.0
  0
VERTEX
  5
62B1
  8
0
 10
2835.691188447136
 20
1398.831141048915
 30
0.0
 42
0.198912367379658
  0
VERTEX
  5
62B2
  8
0
 10
2839.9164743988831
 20
1397.0809703027969
 30
0.0
  0
VERTEX
  5
62B3
  8
0
 10
2853.9231123177251
 20
1397.0809703027969
 30
0.0
 42
0.1989123673796566
  0
SEQEND
  5
62B4
  8
0
  0
LINE
  5
40A0
  8
0
 10
2846.2857628027691
 20
1475.5809703027969
 30
0.0
 11
2858.1214433211562
 21
1496.0809703027969
 31
0.0
  0
ARC
  5
40A1
  8
0
 10
2869.957123839542
 20
1475.5809703027969
 30
0.0
 40
26.0
 50
104.79648411861839
 51
255.20351588138149
  0
LINE
  5
40A2
  8
0
 10
2869.957123839542
 20
1450.0809703027969
 30
0.0
 11
2814.957123839542
 21
1453.0809703027969
 31
0.0
  0
LINE
  5
40A3
  8
0
 10
2858.1214433211562
 20
1455.0809703027969
 30
0.0
 11
2846.2857628027691
 21
1475.5809703027969
 31
0.0
  0
LINE
  5
40A4
  8
0
 10
2869.957123839542
 20
1501.0809703027969
 30
0.0
 11
2814.957123839542
 21
1498.0809703027969
 31
0.0
  0
LINE
  5
40A5
  8
0
 10
2836.0160255041342
 20
1522.080971463716
 30
0.0
 11
2903.8982255041342
 21
1522.080971463716
 31
0.0
  0
POLYLINE
  5
40A6
  8
0
 66
     1
 10
0.0
 20
0.0
 30
0.0
  0
VERTEX
  5
62B5
  8
0
 10
2853.923112205232
 20
1554.0809703027969
 30
0.0
  0
VERTEX
  5
62B6
  8
0
 10
2839.9164743988831
 20
1554.0809703027969
 30
0.0
 42
0.1989123673796567
  0
VERTEX
  5
62B7
  8
0
 10
2835.691188447136
 20
1552.330799556679
 30
0.0
  0
VERTEX
  5
62B8
  8
0
 10
2814.9268658497149
 20
1531.5664769592579
 30
0.0
 42
0.1989123673796594
  0
SEQEND
  5
62B9
  8
0
  0
LINE
  5
40A7
  8
0
 10
2800.9967156617881
 20
1427.6380396156981
 30
0.0
 11
2862.9175321233238
 21
1391.8880396142461
 31
0.0
  0
LINE
  5
40A8
  8
0
 10
2862.9175319896408
 20
1559.273900989481
 30
0.0
 11
2800.996715654248
 21
1523.523900989481
 31
0.0
  0
LINE
  5
40A9
  8
0
 10
2922.957123839542
 20
1078.389951434676
 30
0.0
 11
2816.957123839542
 21
1078.389951434676
 31
0.0
  0
LINE
  5
40AA
  8
0
 10
2922.957123839542
 20
1085.389951434676
 30
0.0
 11
2816.957123839542
 21
1085.389951434676
 31
0.0
  0
LINE
  5
40AB
  8
0
 10
2895.957123839542
 20
1093.389951434676
 30
0.0
 11
2843.957123839542
 21
1093.389951434676
 31
0.0
  0
LINE
  5
40AC
  8
0
 10
2894.457123839542
 20
1073.389951434676
 30
0.0
 11
2845.457123839542
 21
1073.389951434676
 31
0.0
  0
LINE
  5
40AD
  8
0
 10
2890.457123839542
 20
1135.389951434676
 30
0.0
 11
2849.457123839542
 21
1135.389951434676
 31
0.0
  0
LINE
  5
40AE
  8
0
 10
2837.957123839542
 20
1085.389951434676
 30
0.0
 11
2869.957123839542
 21
1091.0324148173461
 31
0.0
  0
ARC
  5
40AF
  8
0
 10
2852.203603061962
 20
1103.4737987312351
 30
0.0
 40
9.7552083333333677
 50
232.65349068554249
 51
307.34650931445651
  0
ARC
  5
40B0
  8
0
 10
2852.203603061962
 20
1124.463382064567
 30
0.0
 40
9.7552083333333677
 50
52.653490685543552
 51
127.34650931445751
  0
LINE
  5
40B1
  8
0
 10
2852.2159586800831
 20
1149.184125637383
 30
0.0
 11
2849.457123839542
 21
1135.389951434676
 31
0.0
  0
LINE
  5
40B2
  8
0
 10
2822.4879927354732
 20
851.20405569336071
 30
0.0
 11
2917.4262549434388
 21
851.20405569336071
 31
0.0
  0
LINE
  5
40B3
  8
0
 10
2847.5140260480021
 20
972.48802764603158
 30
0.0
 11
2858.8243028354191
 21
965.95803629820784
 31
0.0
  0
LINE
  5
40B4
  8
0
 10
2825.457123839542
 20
1019.889951434675
 30
0.0
 11
2914.457123839542
 21
1019.889951434675
 31
0.0
  0
LINE
  5
40B5
  8
0
 10
2825.457123839542
 20
997.38995143467764
 30
0.0
 11
2914.457123839542
 21
997.38995143467764
 31
0.0
  0
LINE
  5
40B6
  8
0
 10
2823.457123839542
 20
1008.889951434676
 30
0.0
 11
2916.457123839542
 21
1008.889951434676
 31
0.0
  0
LINE
  5
40B7
  8
0
 10
2795.957123839542
 20
928.38995143467764
 30
0.0
 11
2945.9571238395401
 21
928.38995143467412
 31
0.0
  0
LINE
  5
40B8
  8
0
 10
2793.4571238395438
 20
772.38995143467776
 30
0.0
 11
2946.457123839542
 21
772.38995143467776
 31
0.0
  0
LINE
  5
40BA
  8
0
 10
2793.957123839542
 20
959.38995143467776
 30
0.0
 11
2945.957123839542
 21
959.38995143467776
 31
0.0
  0
ARC
  5
40BB
  8
0
 10
2480.8783676211938
 20
957.21469462777441
 30
0.0
 40
11.67525680690135
 50
65.992508275255162
 51
114.00749172474301
  0
CIRCLE
  5
40BC
  8
0
 10
2478.9521100888269
 20
876.81635830586845
 30
0.0
 40
9.5
  0
LINE
  5
40BD
  8
0
 10
2491.6253914639969
 20
992.88995143467582
 30
0.0
 11
2483.2493914639972
 21
992.88995143467582
 31
0.0
  0
ARC
  5
40BE
  8
0
 10
2483.1873914639959
 20
1017.447630638216
 30
0.0
 40
10.44232079645947
 50
65.983629264464611
 51
114.0163707355357
  0
LINE
  5
40BF
  8
0
 10
2507.8877793972879
 20
958.88995143467582
 30
0.0
 11
2435.7993333315371
 21
958.88995143467582
 31
0.0
  0
LINE
  5
40C0
  8
0
 10
2606.9577005894321
 20
943.88995143467582
 30
0.0
 11
2435.7993333306058
 21
943.88995143467582
 31
0.0
  0
LINE
  5
40C1
  8
0
 10
2604.9577005903629
 20
928.38995143467764
 30
0.0
 11
2437.7993333315371
 21
928.38995143467412
 31
0.0
  0
LINE
  5
40C2
  8
0
 10
2477.8772182814409
 20
968.88995143467582
 30
0.0
 11
2493.3798156404659
 21
968.88995143467582
 31
0.0
  0
LINE
  5
40C3
  8
0
 10
2565.8785169609509
 20
996.88995143467571
 30
0.0
 11
2476.8785169609509
 21
996.88995143467571
 31
0.0
  0
LINE
  5
40C4
  8
0
 10
2567.8785169609509
 20
1008.889951434676
 30
0.0
 11
2474.8785169609509
 21
1008.889951434676
 31
0.0
  0
LINE
  5
40C5
  8
0
 10
2476.8785169609509
 20
1019.889951434675
 30
0.0
 11
2565.8785169609509
 21
1019.889951434675
 31
0.0
  0
LINE
  5
40C6
  8
0
 10
2482.4373914639982
 20
993.70195143467561
 30
0.0
 11
2492.4373914639982
 21
993.70195143467561
 31
0.0
  0
LINE
  5
40C7
  8
0
 10
2494.3723914639941
 20
1027.8899514346749
 30
0.0
 11
2480.5023914639969
 21
1027.8899514346749
 31
0.0
  0
CIRCLE
  5
40C8
  8
0
 10
2478.9521100888269
 20
791.96354456348297
 30
0.0
 40
9.5
  0
CIRCLE
  5
40C9
  8
0
 10
1592.2860035256181
 20
970.38995143467764
 30
0.0
 40
14.0
  0
CIRCLE
  5
40CA
  8
0
 10
1592.2860035256181
 20
970.38995143467764
 30
0.0
 40
8.3309999999999036
  0
LINE
  5
40CB
  8
0
 10
1592.2860035256181
 20
978.72095143467766
 30
0.0
 11
1583.9550035256179
 21
970.38995143467764
 31
0.0
  0
LINE
  5
40CC
  8
0
 10
1600.617003525618
 20
970.38995143467764
 30
0.0
 11
1592.2860035256199
 21
978.72095143467766
 31
0.0
  0
LINE
  5
40CD
  8
0
 10
1554.156878028663
 20
973.38995143467753
 30
0.0
 11
1553.3448780286651
 21
974.20195143467754
 31
0.0
  0
LINE
  5
40CE
  8
0
 10
1563.3448780286631
 20
974.20195143467754
 30
0.0
 11
1562.5328780286641
 21
973.38995143467753
 31
0.0
  0
LINE
  5
40CF
  8
0
 10
1621.2271290225719
 20
974.20195143467754
 30
0.0
 11
1622.039129022573
 21
973.38995143467753
 31
0.0
  0
LINE
  5
40D0
  8
0
 10
1630.415129022573
 20
973.38995143467753
 30
0.0
 11
1631.2271290225731
 21
974.20195143467754
 31
0.0
  0
ARC
  5
40D1
  8
0
 10
1649.0360035256181
 20
933.94863063821856
 30
0.0
 40
10.44232079645921
 50
65.983629264464597
 51
114.0163707355354
  0
LINE
  5
40D2
  8
0
 10
1648.2860035256181
 20
907.20195143467924
 30
0.0
 11
1658.2860035256181
 21
907.20195143467924
 31
0.0
  0
LINE
  5
40D3
  8
0
 10
1657.4740035256179
 20
906.38995143467946
 30
0.0
 11
1649.098003525618
 21
906.38995143467946
 31
0.0
  0
LINE
  5
40D4
  8
0
 10
1646.3510035256199
 20
944.39095143467785
 30
0.0
 11
1660.221003525616
 21
944.39095143467785
 31
0.0
  0
LINE
  5
40D5
  8
0
 10
1638.013456986313
 20
781.38995143467764
 30
0.0
 11
1663.0321374435109
 21
781.38995143467764
 31
0.0
  0
LINE
  5
40D6
  8
0
 10
1615.6098111049989
 20
768.38995143467764
 30
0.0
 11
1665.0321374435109
 21
768.38995143467764
 31
0.0
  0
LINE
  5
40D7
  8
0
 10
1520.9168334901351
 20
910.38995143467935
 30
0.0
 11
1663.6551735611031
 21
910.38995143467935
 31
0.0
  0
LINE
  5
40D8
  8
0
 10
1518.9168334901331
 20
924.38995143467946
 30
0.0
 11
1665.655173561104
 21
924.38995143467946
 31
0.0
  0
LINE
  5
40D9
  8
0
 10
1520.9168334901351
 20
937.38995143467764
 30
0.0
 11
1663.6551735611031
 21
937.38995143467764
 31
0.0
  0
CIRCLE
  5
40DA
  8
0
 10
1592.2860035256181
 20
834.38995143467776
 30
0.0
 40
70.0
  0
CIRCLE
  5
40DB
  8
0
 10
1555.162897513326
 20
871.51305744697117
 30
0.0
 40
9.5
  0
CIRCLE
  5
40DC
  8
0
 10
1629.4091095379099
 20
871.51305744697117
 30
0.0
 40
9.5
  0
LINE
  5
40DD
  8
0
 10
1519.5398696077259
 20
768.38995143467764
 30
0.0
 11
1568.9621959462361
 21
768.38995143467764
 31
0.0
  0
LINE
  5
40DE
  8
0
 10
1521.5398696077241
 20
781.38995143467764
 30
0.0
 11
1546.5585500649231
 21
781.38995143467764
 31
0.0
  0
ARC
  5
40DF
  8
0
 10
1521.5398696077241
 20
779.38995143467764
 30
0.0
 40
2.0
 50
90.0
 51
180.0
  0
LINE
  5
40E0
  8
0
 10
1519.5398696077241
 20
779.38995143467764
 30
0.0
 11
1519.5398696077241
 21
768.38995143467764
 31
0.0
  0
ARC
  5
40E1
  8
0
 10
1539.2860035256181
 20
785.38995143467764
 30
0.0
 40
4.0
 50
270.0
 51
347.12587784516012
  0
CIRCLE
  5
40E2
  8
0
 10
1555.162897513326
 20
797.26684542238399
 30
0.0
 40
9.5
  0
ARC
  5
40E3
  8
0
 10
1645.2860035256181
 20
785.38995143467764
 30
0.0
 40
4.0
 50
192.87412215483991
 51
270.0
  0
CIRCLE
  5
40E4
  8
0
 10
1629.4091095379099
 20
797.26684542238399
 30
0.0
 40
9.5
  0
LINE
  5
40E5
  8
0
 10
1555.6014185078741
 20
916.4942588914854
 30
0.0
 11
1555.6014185078741
 21
932.28564397786977
 31
0.0
  0
LINE
  5
40E6
  8
0
 10
1518.9168334901351
 20
924.38995143467946
 30
0.0
 11
1518.9168334901351
 21
912.38995143467935
 31
0.0
  0
LINE
  5
40E7
  8
0
 10
1518.9168334901351
 20
935.38995143468026
 30
0.0
 11
1518.9168334901351
 21
912.38995143467935
 31
0.0
  0
LINE
  5
40E8
  8
0
 10
1535.4740035256179
 20
906.38995143467946
 30
0.0
 11
1536.2860035256181
 21
907.20195143467924
 31
0.0
  0
LINE
  5
40E9
  8
0
 10
1536.2860035256181
 20
907.20195143467924
 30
0.0
 11
1536.2860035256181
 21
910.38995143467935
 31
0.0
  0
ARC
  5
40EA
  8
0
 10
1520.9168334901351
 20
912.38995143467935
 30
0.0
 40
2.0
 50
180.0
 51
270.0
  0
LINE
  5
40EB
  8
0
 10
1526.2860035256181
 20
907.20195143467924
 30
0.0
 11
1527.098003525618
 21
906.38995143467946
 31
0.0
  0
LINE
  5
40EC
  8
0
 10
1526.2860035256181
 20
910.38995143467935
 30
0.0
 11
1526.2860035256181
 21
907.20195143467924
 31
0.0
  0
LINE
  5
40ED
  8
0
 10
1536.2860035256181
 20
907.20195143467924
 30
0.0
 11
1526.2860035256181
 21
907.20195143467924
 31
0.0
  0
LINE
  5
40EE
  8
0
 10
1527.098003525618
 20
906.38995143467946
 30
0.0
 11
1535.4740035256179
 21
906.38995143467946
 31
0.0
  0
LINE
  5
40EF
  8
0
 10
1546.4291106175081
 20
907.17441597523054
 30
0.0
 11
1548.7860035256181
 21
895.38995143467764
 31
0.0
  0
LINE
  5
40F0
  8
0
 10
1557.598003525618
 20
906.38995143467946
 30
0.0
 11
1565.9740035256179
 21
906.38995143467946
 31
0.0
  0
LINE
  5
40F1
  8
0
 10
1566.7860035256181
 20
907.20195143467924
 30
0.0
 11
1556.7860035256181
 21
907.20195143467924
 31
0.0
  0
LINE
  5
40F2
  8
0
 10
1556.7860035256181
 20
910.38995143467935
 30
0.0
 11
1556.7860035256181
 21
907.20195143467924
 31
0.0
  0
LINE
  5
40F3
  8
0
 10
1556.7860035256181
 20
907.20195143467924
 30
0.0
 11
1557.598003525618
 21
906.38995143467946
 31
0.0
  0
LINE
  5
40F4
  8
0
 10
1566.7860035256181
 20
907.20195143467924
 30
0.0
 11
1566.7860035256181
 21
910.38995143467935
 31
0.0
  0
LINE
  5
40F5
  8
0
 10
1565.9740035256179
 20
906.38995143467946
 30
0.0
 11
1566.7860035256181
 21
907.20195143467924
 31
0.0
  0
LINE
  5
40F6
  8
0
 10
1548.7860035256181
 20
895.38995143467764
 30
0.0
 11
1548.786003525616
 21
889.23290905003523
 31
0.0
  0
ARC
  5
40F7
  8
0
 10
1542.5067879147441
 20
906.38995143467753
 30
0.0
 40
4.0
 50
11.309932474020419
 51
60.796269409788898
  0
LINE
  5
40F8
  8
0
 10
1524.3510035256199
 20
944.39095143467785
 30
0.0
 11
1538.221003525616
 21
944.39095143467785
 31
0.0
  0
ARC
  5
40F9
  8
0
 10
1535.5360035256181
 20
933.94863063821856
 30
0.0
 40
10.44232079645947
 50
65.983629264464611
 51
114.0163707355354
  0
ARC
  5
40FA
  8
0
 10
1520.9168334901351
 20
935.38995143468026
 30
0.0
 40
2.0
 50
90.0
 51
180.0
  0
LINE
  5
40FB
  8
0
 10
1531.2860035256181
 20
943.48695143467739
 30
0.0
 11
1531.2860035256181
 21
937.38995143467764
 31
0.0
  0
LINE
  5
40FC
  8
0
 10
1522.7860035256181
 20
937.38995143467764
 30
0.0
 11
1522.7860035256181
 21
943.48695143467739
 31
0.0
  0
ARC
  5
40FD
  8
0
 10
1527.0360035256181
 20
933.94863063821856
 30
0.0
 40
10.44232079645921
 50
65.983629264464597
 51
114.0163707355354
  0
LINE
  5
40FE
  8
0
 10
1522.7860035256181
 20
943.48695143467739
 30
0.0
 11
1524.351003525617
 21
944.39095143467785
 31
0.0
  0
ARC
  5
40FF
  8
0
 10
1574.2860035256181
 20
980.38995143467764
 30
0.0
 40
15.0
 50
208.5718781423079
 51
229.29429316895761
  0
ARC
  5
4100
  8
0
 10
1574.2860035256181
 20
980.38995143467764
 30
0.0
 40
15.0
 50
208.57187814230801
 51
229.29429316895769
  0
ARC
  5
4101
  8
0
 10
1559.2860035256181
 20
962.95435566051492
 30
0.0
 40
8.0
 50
0.000000000000007
 51
49.294293168957132
  0
LINE
  5
4102
  8
0
 10
1554.8510035256199
 20
944.39095143467785
 30
0.0
 11
1568.721003525616
 21
944.39095143467785
 31
0.0
  0
ARC
  5
4103
  8
0
 10
1566.0360035256181
 20
933.94863063821856
 30
0.0
 40
10.44232079645947
 50
65.983629264464611
 51
114.0163707355354
  0
LINE
  5
4104
  8
0
 10
1561.7860035256181
 20
943.48695143467739
 30
0.0
 11
1561.7860035256181
 21
937.38995143467764
 31
0.0
  0
LINE
  5
4105
  8
0
 10
1553.2860035256181
 20
937.38995143467764
 30
0.0
 11
1553.2860035256181
 21
943.48695143467739
 31
0.0
  0
ARC
  5
4106
  8
0
 10
1557.5360035256181
 20
933.94863063821856
 30
0.0
 40
10.44232079645921
 50
65.983629264464597
 51
114.0163707355354
  0
LINE
  5
4107
  8
0
 10
1553.2860035256181
 20
943.48695143467739
 30
0.0
 11
1554.851003525617
 21
944.39095143467785
 31
0.0
  0
LINE
  5
4108
  8
0
 10
1570.2860035256181
 20
943.48695143467739
 30
0.0
 11
1570.2860035256181
 21
937.38995143467764
 31
0.0
  0
LINE
  5
4109
  8
0
 10
1568.721003525616
 20
944.39095143467785
 30
0.0
 11
1570.2860035256181
 21
943.48695143467739
 31
0.0
  0
LINE
  5
410A
  8
0
 10
1567.2860035256181
 20
962.95435566051492
 30
0.0
 11
1567.2860035256181
 21
944.39095143467785
 31
0.0
  0
LINE
  5
410B
  8
0
 10
1539.7860035256181
 20
943.48695143467739
 30
0.0
 11
1539.7860035256181
 21
937.38995143467764
 31
0.0
  0
LINE
  5
410C
  8
0
 10
1538.221003525616
 20
944.39095143467785
 30
0.0
 11
1539.7860035256181
 21
943.48695143467739
 31
0.0
  0
ARC
  5
410D
  8
0
 10
1554.0869936488939
 20
969.38995143467764
 30
0.0
 40
8.0
 50
28.571878142307821
 51
30.000000000000391
  0
ARC
  5
410E
  8
0
 10
1554.0869936488939
 20
969.38995143467764
 30
0.0
 40
8.0
 50
28.571878142307749
 51
30.000000000000629
  0
LINE
  5
410F
  8
0
 10
1562.5328780286641
 20
973.38995143467753
 30
0.0
 11
1554.156878028663
 21
973.38995143467753
 31
0.0
  0
LINE
  5
4110
  8
0
 10
1628.9705885433591
 20
916.4942588914854
 30
0.0
 11
1628.9705885433591
 21
932.28564397786977
 31
0.0
  0
LINE
  5
4111
  8
0
 10
1600.2860035256199
 20
903.93130603753173
 30
0.0
 11
1600.2860035256199
 21
910.38995143467935
 31
0.0
  0
LINE
  5
4112
  8
0
 10
1584.286003525614
 20
903.93130603753173
 30
0.0
 11
1584.286003525614
 21
910.38995143467935
 31
0.0
  0
LINE
  5
4113
  8
0
 10
1617.7860035256181
 20
907.20195143467924
 30
0.0
 11
1627.7860035256181
 21
907.20195143467924
 31
0.0
  0
LINE
  5
4114
  8
0
 10
1627.7860035256181
 20
907.20195143467924
 30
0.0
 11
1626.9740035256179
 21
906.38995143467946
 31
0.0
  0
LINE
  5
4115
  8
0
 10
1626.9740035256179
 20
906.38995143467946
 30
0.0
 11
1618.598003525618
 21
906.38995143467946
 31
0.0
  0
LINE
  5
4116
  8
0
 10
1617.7860035256181
 20
907.20195143467924
 30
0.0
 11
1617.7860035256181
 21
910.38995143467935
 31
0.0
  0
LINE
  5
4117
  8
0
 10
1618.598003525618
 20
906.38995143467946
 30
0.0
 11
1617.7860035256181
 21
907.20195143467924
 31
0.0
  0
LINE
  5
4118
  8
0
 10
1638.1428964337299
 20
907.17441597522975
 30
0.0
 11
1635.7860035256181
 21
895.38995143467764
 31
0.0
  0
ARC
  5
4119
  8
0
 10
1642.0652191364909
 20
906.38995143467753
 30
0.0
 40
4.0
 50
119.20373059021109
 51
168.69006752597949
  0
LINE
  5
411A
  8
0
 10
1649.098003525618
 20
906.38995143467946
 30
0.0
 11
1648.2860035256181
 21
907.20195143467924
 31
0.0
  0
LINE
  5
411B
  8
0
 10
1648.2860035256181
 20
907.20195143467924
 30
0.0
 11
1648.2860035256181
 21
910.38995143467935
 31
0.0
  0
LINE
  5
411C
  8
0
 10
1627.7860035256181
 20
910.38995143467935
 30
0.0
 11
1627.7860035256181
 21
907.20195143467924
 31
0.0
  0
LINE
  5
411D
  8
0
 10
1635.7860035256181
 20
895.38995143467764
 30
0.0
 11
1635.7860035256181
 21
889.23290905003614
 31
0.0
  0
LINE
  5
411E
  8
0
 10
1583.9550035256179
 20
970.38995143467764
 30
0.0
 11
1592.2860035256181
 21
962.05895143467751
 31
0.0
  0
LINE
  5
411F
  8
0
 10
1592.2860035256181
 20
962.05895143467751
 30
0.0
 11
1600.617003525618
 21
970.38995143467764
 31
0.0
  0
LINE
  5
4120
  8
0
 10
1606.2860035256181
 20
970.38995143467764
 30
0.0
 11
1606.2860035256181
 21
937.38995143467764
 31
0.0
  0
LINE
  5
4121
  8
0
 10
1578.2860035256181
 20
970.38995143467764
 30
0.0
 11
1578.2860035256181
 21
937.38995143467764
 31
0.0
  0
ARC
  5
4122
  8
0
 10
1610.2860035256181
 20
980.38995143467764
 30
0.0
 40
15.0
 50
310.70570683104251
 51
331.42812185769208
  0
ARC
  5
4123
  8
0
 10
1610.2860035256181
 20
980.38995143467764
 30
0.0
 40
15.0
 50
310.70570683104228
 51
331.42812185769202
  0
LINE
  5
4124
  8
0
 10
1615.8510035256199
 20
944.41182106312681
 30
0.0
 11
1629.721003525616
 21
944.41182106312681
 31
0.0
  0
ARC
  5
4125
  8
0
 10
1627.0360035256181
 20
933.96950026666673
 30
0.0
 40
10.44232079645947
 50
65.983629264464611
 51
114.0163707355354
  0
ARC
  5
4126
  8
0
 10
1618.5360035256181
 20
933.96950026666764
 30
0.0
 40
10.44232079645921
 50
65.983629264464597
 51
114.0163707355354
  0
ARC
  5
4127
  8
0
 10
1625.2860035256181
 20
962.95435566051492
 30
0.0
 40
8.0
 50
130.7057068310429
 51
180.0
  0
LINE
  5
4128
  8
0
 10
1614.2860035256181
 20
937.41082106312751
 30
0.0
 11
1614.2860035256181
 21
943.50782106312727
 31
0.0
  0
LINE
  5
4129
  8
0
 10
1614.2860035256181
 20
943.50782106312727
 30
0.0
 11
1615.851003525617
 21
944.41182106312681
 31
0.0
  0
LINE
  5
412A
  8
0
 10
1617.2860035256181
 20
962.95435566051492
 30
0.0
 11
1617.2860035256181
 21
944.41182106312681
 31
0.0
  0
LINE
  5
412B
  8
0
 10
1622.7860035256181
 20
943.50782106312727
 30
0.0
 11
1622.7860035256181
 21
937.41082106312751
 31
0.0
  0
LINE
  5
412C
  8
0
 10
1631.2860035256181
 20
943.50782106312727
 30
0.0
 11
1631.2860035256181
 21
937.41082106312751
 31
0.0
  0
LINE
  5
412D
  8
0
 10
1629.721003525616
 20
944.41182106312681
 30
0.0
 11
1631.2860035256181
 21
943.50782106312727
 31
0.0
  0
LINE
  5
412E
  8
0
 10
1644.7860035256181
 20
937.38995143467764
 30
0.0
 11
1644.7860035256181
 21
943.48695143467739
 31
0.0
  0
LINE
  5
412F
  8
0
 10
1644.7860035256181
 20
943.48695143467739
 30
0.0
 11
1646.351003525617
 21
944.39095143467785
 31
0.0
  0
LINE
  5
4130
  8
0
 10
1622.039129022573
 20
973.38995143467753
 30
0.0
 11
1630.415129022573
 21
973.38995143467753
 31
0.0
  0
ARC
  5
4131
  8
0
 10
1630.485013402342
 20
969.38995143467764
 30
0.0
 40
8.0
 50
149.9999999999996
 51
151.4281218576921
  0
ARC
  5
4132
  8
0
 10
1630.485013402342
 20
969.38995143467764
 30
0.0
 40
8.0
 50
149.9999999999994
 51
151.4281218576921
  0
ARC
  5
4133
  8
0
 10
1630.485013402342
 20
969.38995143467764
 30
0.0
 40
8.0
 50
149.99999999999929
 51
151.4281218576921
  0
ARC
  5
4134
  8
0
 10
1663.0321374435109
 20
779.38995143467764
 30
0.0
 40
2.0
 50
359.99999999999801
 51
90.0
  0
LINE
  5
4135
  8
0
 10
1665.0321374435109
 20
779.38995143467764
 30
0.0
 11
1665.0321374435109
 21
768.38995143467764
 31
0.0
  0
LINE
  5
4136
  8
0
 10
2474.8785169600178
 20
772.38995143467776
 30
0.0
 11
2444.8785169600201
 21
772.38995143467776
 31
0.0
  0
ARC
  5
4137
  8
0
 10
2444.8785169600201
 20
770.38995143467764
 30
0.0
 40
2.0
 50
90.0
 51
180.00000000000179
  0
ARC
  5
4138
  8
0
 10
2456.8785169600228
 20
777.38995143467582
 30
0.0
 40
5.0
 50
270.0
 51
0.000000000000007
  0
LINE
  5
4139
  8
0
 10
2461.8785169600242
 20
784.73111536293061
 30
0.0
 11
2461.8785169600242
 21
777.38995143467582
 31
0.0
  0
LINE
  5
413A
  8
0
 10
1665.655173561104
 20
924.38995143467946
 30
0.0
 11
1665.6551735611031
 21
912.38995143467935
 31
0.0
  0
LINE
  5
413B
  8
0
 10
1665.6551735611031
 20
935.38995143468026
 30
0.0
 11
1665.6551735611031
 21
912.38995143467935
 31
0.0
  0
ARC
  5
413C
  8
0
 10
1663.6551735611031
 20
912.38995143467935
 30
0.0
 40
2.0
 50
270.0
 51
0.0
  0
LINE
  5
413D
  8
0
 10
1658.2860035256181
 20
907.20195143467924
 30
0.0
 11
1657.4740035256179
 21
906.38995143467946
 31
0.0
  0
LINE
  5
413E
  8
0
 10
1658.2860035256181
 20
910.38995143467935
 30
0.0
 11
1658.2860035256181
 21
907.20195143467924
 31
0.0
  0
ARC
  5
413F
  8
0
 10
1663.6551735611031
 20
935.38995143468026
 30
0.0
 40
2.0
 50
0.0
 51
90.0
  0
LINE
  5
4140
  8
0
 10
1661.7860035256181
 20
943.48695143467739
 30
0.0
 11
1661.7860035256181
 21
937.38995143467764
 31
0.0
  0
LINE
  5
4141
  8
0
 10
1660.221003525616
 20
944.39095143467785
 30
0.0
 11
1661.7860035256181
 21
943.48695143467739
 31
0.0
  0
LINE
  5
4142
  8
0
 10
1653.2860035256181
 20
943.48695143467739
 30
0.0
 11
1653.2860035256181
 21
937.38995143467764
 31
0.0
  0
ARC
  5
4143
  8
0
 10
1657.5360035256181
 20
933.94863063821856
 30
0.0
 40
10.44232079645947
 50
65.983629264464611
 51
114.0163707355354
  0
LINE
  5
4144
  8
0
 10
2469.3785169600228
 20
913.38995143467582
 30
0.0
 11
2467.1824008248841
 21
924.37053211036607
 31
0.0
  0
LINE
  5
4145
  8
0
 10
2469.3785169600228
 20
913.38995143467935
 30
0.0
 11
2469.3785169600228
 21
891.85515829935514
 31
0.0
  0
ARC
  5
4146
  8
0
 10
2445.128367621192
 20
957.21469462777441
 30
0.0
 40
11.67525680690135
 50
65.992508275255162
 51
114.00749172474301
  0
LINE
  5
4147
  8
0
 10
2442.1272182814391
 20
968.88995143467582
 30
0.0
 11
2457.629815640465
 21
968.88995143467582
 31
0.0
  0
LINE
  5
4148
  8
0
 10
2435.7993333315371
 20
943.88995143467582
 30
0.0
 11
2435.7993333315371
 21
958.88995143467582
 31
0.0
  0
LINE
  5
4149
  8
0
 10
2440.3782182814361
 20
958.88995143467582
 30
0.0
 11
2440.3782182814361
 21
967.8799514346756
 31
0.0
  0
LINE
  5
414A
  8
0
 10
2440.3782182814389
 20
967.8799514346756
 30
0.0
 11
2442.1272182814409
 21
968.88995143467582
 31
0.0
  0
ARC
  5
414B
  8
0
 10
2437.7993333315371
 20
930.389951434674
 30
0.0
 40
2.0
 50
180.0
 51
270.0
  0
LINE
  5
414C
  8
0
 10
2435.7993333315371
 20
930.389951434674
 30
0.0
 11
2435.7993333315371
 21
944.38995143467764
 31
0.0
  0
LINE
  5
414D
  8
0
 10
2476.128218281438
 20
958.88995143467582
 30
0.0
 11
2476.128218281438
 21
967.8799514346756
 31
0.0
  0
LINE
  5
414E
  8
0
 10
2476.1282182814411
 20
967.8799514346756
 30
0.0
 11
2477.8772182814432
 21
968.88995143467582
 31
0.0
  0
LINE
  5
414F
  8
0
 10
2478.588925146973
 20
955.89966075832388
 30
0.0
 11
2478.588925146973
 21
929.95419106189365
 31
0.0
  0
ARC
  5
4150
  8
0
 10
2462.2794974464309
 20
923.38995143467582
 30
0.0
 40
5.0
 50
11.309932474015371
 51
90.0
  0
ARC
  5
4151
  8
0
 10
2454.6286663007072
 20
957.21469462775156
 30
0.0
 40
11.675256806925161
 50
65.992508275257379
 51
114.0074917247145
  0
LINE
  5
4152
  8
0
 10
2457.6298156404669
 20
968.88995143467582
 30
0.0
 11
2459.3788156404662
 21
967.8799514346756
 31
0.0
  0
LINE
  5
4153
  8
0
 10
2459.3788156404662
 20
967.8799514346756
 30
0.0
 11
2459.3788156404662
 21
958.88995143467582
 31
0.0
  0
LINE
  5
4154
  8
0
 10
2449.8785169609509
 20
967.8799514346756
 30
0.0
 11
2449.8785169609509
 21
958.88995143467582
 31
0.0
  0
LINE
  5
4155
  8
0
 10
1592.2860035256181
 20
1112.7185903979021
 30
0.0
 11
1592.2860035256181
 21
1077.0613124714521
 31
0.0
  0
LINE
  5
4156
  8
0
 10
1571.7860035256181
 20
1115.889951434677
 30
0.0
 11
1571.7860035256181
 21
1077.0613124714539
 31
0.0
  0
LINE
  5
4157
  8
0
 10
1612.7860035256181
 20
1115.889951434679
 30
0.0
 11
1612.7860035256181
 21
1077.0613124714539
 31
0.0
  0
LINE
  5
4158
  8
0
 10
1566.2860035256181
 20
1073.8899514346781
 30
0.0
 11
1618.2860035256181
 21
1073.8899514346781
 31
0.0
  0
LINE
  5
4159
  8
0
 10
1566.2860035256199
 20
1065.8899514346781
 30
0.0
 11
1618.2860035256181
 21
1065.8899514346781
 31
0.0
  0
LINE
  5
415A
  8
0
 10
1566.2860035256181
 20
1053.8899514346781
 30
0.0
 11
1618.286003525616
 21
1053.8899514346781
 31
0.0
  0
LINE
  5
415B
  8
0
 10
1566.2860035256199
 20
1058.889951434677
 30
0.0
 11
1618.2860035256181
 21
1058.889951434677
 31
0.0
  0
ARC
  5
415C
  8
0
 10
1582.0360035256199
 20
1092.03989234185
 30
0.0
 40
18.149940907172681
 50
235.61575253193911
 51
304.38424746804668
  0
LINE
  5
415D
  8
0
 10
1545.7860035256181
 20
989.38995143467764
 30
0.0
 11
1638.7860035256181
 21
989.38995143467764
 31
0.0
  0
LINE
  5
415E
  8
0
 10
1636.7860035256181
 20
1000.389951434677
 30
0.0
 11
1547.7860035256181
 21
1000.389951434677
 31
0.0
  0
LINE
  5
415F
  8
0
 10
1547.7860035256181
 20
977.38995143467764
 30
0.0
 11
1580.1616478726351
 21
977.38995143467764
 31
0.0
  0
LINE
  5
4160
  8
0
 10
1571.2860035256181
 20
1006.389951434677
 30
0.0
 11
1571.2860035256181
 21
1053.8899514346781
 31
0.0
  0
ARC
  5
4161
  8
0
 10
1547.7860035256181
 20
979.38995143467764
 30
0.0
 40
2.0
 50
180.0
 51
270.0
  0
LINE
  5
4162
  8
0
 10
1553.3448780286651
 20
974.20195143467754
 30
0.0
 11
1563.3448780286631
 21
974.20195143467754
 31
0.0
  0
LINE
  5
4163
  8
0
 10
1553.3448780286651
 20
974.20195143467754
 30
0.0
 11
1553.3448780286651
 21
977.38995143467764
 31
0.0
  0
LINE
  5
4164
  8
0
 10
1563.3448780286631
 20
977.38995143467764
 30
0.0
 11
1563.3448780286631
 21
974.20195143467754
 31
0.0
  0
LINE
  5
4165
  8
0
 10
1545.7860035256181
 20
989.38995143467764
 30
0.0
 11
1545.7860035256181
 21
979.38995143467764
 31
0.0
  0
ARC
  5
4166
  8
0
 10
1562.5948780286631
 20
997.94763063821847
 30
0.0
 40
10.44232079645947
 50
65.983629264464611
 51
114.0163707355354
  0
LINE
  5
4167
  8
0
 10
1551.4098780286661
 20
1008.389951434677
 30
0.0
 11
1565.279878028663
 21
1008.389951434677
 31
0.0
  0
LINE
  5
4168
  8
0
 10
1549.8448780286631
 20
1000.389951434677
 30
0.0
 11
1549.8448780286631
 21
1007.485951434677
 31
0.0
  0
LINE
  5
4169
  8
0
 10
1558.3448780286631
 20
1007.485951434677
 30
0.0
 11
1558.3448780286631
 21
1000.389951434677
 31
0.0
  0
ARC
  5
416A
  8
0
 10
1554.0948780286631
 20
997.94763063821847
 30
0.0
 40
10.44232079645921
 50
65.983629264464597
 51
114.0163707355354
  0
LINE
  5
416B
  8
0
 10
1549.8448780286631
 20
1007.485951434677
 30
0.0
 11
1551.409878028664
 21
1008.389951434677
 31
0.0
  0
LINE
  5
416C
  8
0
 10
1566.8448780286631
 20
1007.485951434677
 30
0.0
 11
1566.8448780286631
 21
1000.389951434677
 31
0.0
  0
LINE
  5
416D
  8
0
 10
1565.279878028663
 20
1008.389951434677
 30
0.0
 11
1566.8448780286631
 21
1007.485951434677
 31
0.0
  0
ARC
  5
416E
  8
0
 10
1565.2860035256181
 20
1006.389951434677
 30
0.0
 40
5.9999999999999902
 50
285.05893193847339
 51
0.0
  0
ARC
  5
416F
  8
0
 10
1547.7860035256181
 20
998.38995143467753
 30
0.0
 40
2.0
 50
90.0
 51
180.0
  0
LINE
  5
4170
  8
0
 10
1545.7860035256181
 20
998.38995143467753
 30
0.0
 11
1545.7860035256181
 21
989.38995143467764
 31
0.0
  0
LINE
  5
4171
  8
0
 10
1569.7789435977429
 20
1063.8899514346781
 30
0.0
 11
1569.7789435977429
 21
1060.889951434677
 31
0.0
  0
ARC
  5
4172
  8
0
 10
1571.7789435977429
 20
1063.8899514346781
 30
0.0
 40
2.0
 50
90.0
 51
180.0
  0
LINE
  5
4173
  8
0
 10
1571.7860035256181
 20
1077.061312471455
 30
0.0
 11
1566.2860035256181
 21
1073.8899514346781
 31
0.0
  0
LINE
  5
4174
  8
0
 10
1566.2860035256181
 20
1073.8899514346781
 30
0.0
 11
1566.2860035256181
 21
1053.8899514346781
 31
0.0
  0
ARC
  5
4175
  8
0
 10
1571.7789435977429
 20
1060.889951434677
 30
0.0
 40
2.0
 50
180.0
 51
270.0
  0
LINE
  5
4176
  8
0
 10
1613.2860035256181
 20
1006.389951434677
 30
0.0
 11
1613.2860035256181
 21
1053.8899514346781
 31
0.0
  0
LINE
  5
4177
  8
0
 10
1604.4103591785999
 20
977.38995143467764
 30
0.0
 11
1636.7860035256181
 21
977.38995143467764
 31
0.0
  0
ARC
  5
4178
  8
0
 10
1619.2860035256181
 20
1006.389951434677
 30
0.0
 40
5.9999999999999281
 50
179.99999999999969
 51
254.94106806152661
  0
LINE
  5
4179
  8
0
 10
1619.292129022575
 20
1008.389951434677
 30
0.0
 11
1633.1621290225719
 21
1008.389951434677
 31
0.0
  0
LINE
  5
417A
  8
0
 10
1631.2271290225731
 20
974.20195143467754
 30
0.0
 11
1621.2271290225719
 21
974.20195143467754
 31
0.0
  0
ARC
  5
417B
  8
0
 10
1630.4771290225731
 20
997.94763063821847
 30
0.0
 40
10.44232079645947
 50
65.983629264464611
 51
114.0163707355354
  0
ARC
  5
417C
  8
0
 10
1621.9771290225719
 20
997.94763063821847
 30
0.0
 40
10.44232079645921
 50
65.983629264464597
 51
114.0163707355354
  0
LINE
  5
417D
  8
0
 10
1617.7271290225719
 20
1000.389951434677
 30
0.0
 11
1617.7271290225719
 21
1007.485951434677
 31
0.0
  0
LINE
  5
417E
  8
0
 10
1617.7271290225719
 20
1007.485951434677
 30
0.0
 11
1619.2921290225729
 21
1008.389951434677
 31
0.0
  0
LINE
  5
417F
  8
0
 10
1621.2271290225719
 20
977.38995143467764
 30
0.0
 11
1621.2271290225719
 21
974.20195143467754
 31
0.0
  0
LINE
  5
4180
  8
0
 10
1626.2271290225719
 20
1007.485951434677
 30
0.0
 11
1626.2271290225719
 21
1000.389951434677
 31
0.0
  0
ARC
  5
4181
  8
0
 10
1636.7860035256181
 20
979.38995143467764
 30
0.0
 40
2.0
 50
270.0
 51
0.0
  0
LINE
  5
4182
  8
0
 10
1631.2271290225731
 20
974.20195143467754
 30
0.0
 11
1631.2271290225731
 21
977.38995143467764
 31
0.0
  0
LINE
  5
4183
  8
0
 10
1638.7860035256181
 20
989.38995143467764
 30
0.0
 11
1638.7860035256181
 21
979.38995143467764
 31
0.0
  0
LINE
  5
4184
  8
0
 10
1634.7271290225731
 20
1007.485951434677
 30
0.0
 11
1634.7271290225731
 21
1000.389951434677
 31
0.0
  0
LINE
  5
4185
  8
0
 10
1633.1621290225719
 20
1008.389951434677
 30
0.0
 11
1634.7271290225731
 21
1007.485951434677
 31
0.0
  0
ARC
  5
4186
  8
0
 10
1636.7860035256181
 20
998.38995143467753
 30
0.0
 40
2.0
 50
359.99999999999972
 51
90.0
  0
LINE
  5
4187
  8
0
 10
1638.7860035256181
 20
998.38995143467753
 30
0.0
 11
1638.7860035256181
 21
989.38995143467764
 31
0.0
  0
ARC
  5
4188
  8
0
 10
1612.786003525621
 20
1063.8899514346781
 30
0.0
 40
2.0
 50
0.0
 51
90.0
  0
LINE
  5
4189
  8
0
 10
1612.7860035256199
 20
1077.0613124714539
 30
0.0
 11
1618.2860035256181
 21
1073.8899514346781
 31
0.0
  0
ARC
  5
418A
  8
0
 10
1612.786003525621
 20
1060.889951434677
 30
0.0
 40
2.0
 50
270.0
 51
0.0
  0
ARC
  5
418B
  8
0
 10
1602.5360035256181
 20
1092.03989234185
 30
0.0
 40
18.149940907172681
 50
235.61575253195321
 51
304.38424746806101
  0
LINE
  5
418C
  8
0
 10
1605.2860035256181
 20
1065.8899514346781
 30
0.0
 11
1605.286003525616
 21
1058.889951434677
 31
0.0
  0
LINE
  5
418D
  8
0
 10
1592.2860035256181
 20
1058.889951434677
 30
0.0
 11
1592.2860035256181
 21
1065.8899514346781
 31
0.0
  0
LINE
  5
418E
  8
0
 10
1579.2860035256181
 20
1065.8899514346781
 30
0.0
 11
1579.2860035256181
 21
1058.889951434677
 31
0.0
  0
LINE
  5
418F
  8
0
 10
1614.7860035256199
 20
1063.8899514346781
 30
0.0
 11
1614.7860035256219
 21
1060.889951434677
 31
0.0
  0
LINE
  5
4190
  8
0
 10
1618.2860035256181
 20
1073.8899514346781
 30
0.0
 11
1618.286003525616
 21
1053.8899514346781
 31
0.0
  0
LINE
  5
4191
  8
0
 10
1571.7860035256181
 20
1115.889951434677
 30
0.0
 11
1612.7860035256181
 21
1115.889951434677
 31
0.0
  0
ARC
  5
4192
  8
0
 10
1576.015709379697
 20
1129.389951434677
 30
0.0
 40
1.5
 50
90.0
 51
168.6900675259798
  0
ARC
  5
4193
  8
0
 10
1582.0360035256199
 20
1097.7400105275051
 30
0.0
 40
18.149940907172681
 50
55.615752531953248
 51
124.38424746806091
  0
LINE
  5
4194
  8
0
 10
1574.544838366159
 20
1129.6841256373841
 30
0.0
 11
1571.7860035256181
 21
1115.889951434677
 31
0.0
  0
ARC
  5
4195
  8
0
 10
1602.5360035256181
 20
1097.7400105275051
 30
0.0
 40
18.149940907172681
 50
55.61575253193903
 51
124.38424746804669
  0
LINE
  5
4196
  8
0
 10
1610.027168685077
 20
1129.6841256373841
 30
0.0
 11
1612.7860035256181
 21
1115.889951434677
 31
0.0
  0
ARC
  5
4197
  8
0
 10
1608.556297671541
 20
1129.389951434677
 30
0.0
 40
1.5
 50
11.309932474020069
 51
90.0
  0
LINE
  5
4198
  8
0
 10
1576.015709379697
 20
1130.889951434677
 30
0.0
 11
1608.556297671541
 21
1130.889951434677
 31
0.0
  0
LINE
  5
4199
  8
0
 10
2483.2493914639972
 20
992.88995143467582
 30
0.0
 11
2482.4373914639982
 21
993.70195143467561
 31
0.0
  0
LINE
  5
419A
  8
0
 10
2482.4373914639982
 20
993.70195143467561
 30
0.0
 11
2482.4373914639982
 21
996.88995143467571
 31
0.0
  0
ARC
  5
419B
  8
0
 10
2476.8785169609509
 20
998.88995143467582
 30
0.0
 40
2.0
 50
180.0
 51
270.0
  0
LINE
  5
419C
  8
0
 10
2474.8785169609509
 20
1008.889951434676
 30
0.0
 11
2474.8785169609509
 21
998.88995143467582
 31
0.0
  0
LINE
  5
419D
  8
0
 10
2478.9373914639959
 20
1026.9859514346749
 30
0.0
 11
2478.9373914639959
 21
1019.889951434675
 31
0.0
  0
LINE
  5
419E
  8
0
 10
2480.5023914639969
 20
1027.8899514346749
 30
0.0
 11
2478.9373914639959
 21
1026.9859514346749
 31
0.0
  0
ARC
  5
419F
  8
0
 10
2476.8785169609509
 20
1017.889951434676
 30
0.0
 40
2.0
 50
90.0
 51
180.00000000000031
  0
LINE
  5
41A0
  8
0
 10
2474.8785169609509
 20
1017.889951434676
 30
0.0
 11
2474.8785169609509
 21
1008.889951434676
 31
0.0
  0
ARC
  5
41A1
  8
0
 10
2839.957123839542
 20
977.88995143467753
 30
0.0
 40
5.0
 50
270.0
 51
0.0
  0
LINE
  5
41A2
  8
0
 10
2496.3785169609509
 20
982.45435566051322
 30
0.0
 11
2496.3785169609509
 21
958.88995143467582
 31
0.0
  0
LINE
  5
41A3
  8
0
 10
2546.3785169609509
 20
982.45435566051322
 30
0.0
 11
2546.3785169609509
 21
958.88995143467582
 31
0.0
  0
CIRCLE
  5
41A4
  8
0
 10
2563.8049238312128
 20
876.81635830586845
 30
0.0
 40
9.5
  0
CIRCLE
  5
41A5
  8
0
 10
2563.8049238312128
 20
791.96354456348297
 30
0.0
 40
9.5
  0
ARC
  5
41A6
  8
0
 10
2597.8785169600178
 20
770.38995143467764
 30
0.0
 40
2.0
 50
0.0000000000056048
 51
90.0
  0
LINE
  5
41A7
  8
0
 10
2580.878516960016
 20
784.73111536293061
 30
0.0
 11
2580.878516960016
 21
777.38995143467582
 31
0.0
  0
ARC
  5
41A8
  8
0
 10
2585.878516960016
 20
777.38995143467582
 30
0.0
 40
5.0
 50
180.0
 51
270.0
  0
LINE
  5
41A9
  8
0
 10
2597.8785169600178
 20
772.38995143467776
 30
0.0
 11
2567.8785169600219
 21
772.38995143467776
 31
0.0
  0
ARC
  5
41AA
  8
0
 10
2561.8786663007072
 20
957.21469462775156
 30
0.0
 40
11.675256806925161
 50
65.992508275257379
 51
114.0074917247145
  0
LINE
  5
41AB
  8
0
 10
2549.3772182814391
 20
968.88995143467582
 30
0.0
 11
2564.879815640465
 21
968.88995143467582
 31
0.0
  0
LINE
  5
41AC
  8
0
 10
2606.9577005903629
 20
958.88995143467582
 30
0.0
 11
2534.8692545237518
 21
958.88995143467582
 31
0.0
  0
LINE
  5
41AD
  8
0
 10
2529.378516960955
 20
911.47594237975682
 30
0.0
 11
2529.378516960955
 21
928.38995143467582
 31
0.0
  0
LINE
  5
41AE
  8
0
 10
2513.3785169609491
 20
911.47594237994963
 30
0.0
 11
2513.3785169609491
 21
928.38995143467582
 31
0.0
  0
ARC
  5
41AF
  8
0
 10
2521.3785169605198
 20
959.38995143467776
 30
0.0
 40
13.500000000000011
 50
32.733955549271172
 51
87.266044450727165
  0
CIRCLE
  5
41B0
  8
0
 10
2521.378516960548
 20
959.38995143467776
 30
0.0
 40
11.99999999999998
  0
ARC
  5
41B1
  8
0
 10
2521.3785169605198
 20
959.38995143467776
 30
0.0
 40
13.500000000000011
 50
272.73395554927282
 51
327.26604445072809
  0
POLYLINE
  5
41B2
  8
0
 66
     1
 10
0.0
 20
0.0
 30
0.0
 70
     1
  0
VERTEX
  5
62BA
  8
0
 10
2521.3785169605198
 20
945.53354497412693
 30
0.0
  0
VERTEX
  5
62BB
  8
0
 10
2533.3785169605198
 20
952.46174820440228
 30
0.0
  0
VERTEX
  5
62BC
  8
0
 10
2533.3785169605198
 20
966.31815466495391
 30
0.0
  0
VERTEX
  5
62BD
  8
0
 10
2521.3785169605198
 20
973.24635789522836
 30
0.0
  0
VERTEX
  5
62BE
  8
0
 10
2509.3785169605198
 20
966.31815466495391
 30
0.0
  0
VERTEX
  5
62BF
  8
0
 10
2509.3785169605198
 20
952.46174820440228
 30
0.0
  0
SEQEND
  5
62C0
  8
0
  0
ARC
  5
41B3
  8
0
 10
2521.3785169605198
 20
959.38995143467776
 30
0.0
 40
13.500000000000011
 50
92.733955549272807
 51
147.26604445072849
  0
ARC
  5
41B4
  8
0
 10
2503.434158515593
 20
963.88995143467594
 30
0.0
 40
5.0
 50
270.0
 51
345.92196139624531
  0
LINE
  5
41B5
  8
0
 10
2493.3798156404682
 20
968.88995143467582
 30
0.0
 11
2495.128815640468
 21
967.8799514346756
 31
0.0
  0
LINE
  5
41B6
  8
0
 10
2495.128815640468
 20
967.8799514346756
 30
0.0
 11
2495.128815640468
 21
958.88995143467582
 31
0.0
  0
ARC
  5
41B7
  8
0
 10
2521.3785169605198
 20
959.38995143467776
 30
0.0
 40
13.500000000000011
 50
212.7339555492718
 51
267.26604445072718
  0
ARC
  5
41B8
  8
0
 10
2521.3785169605198
 20
959.38995143467776
 30
0.0
 40
13.500000000000011
 50
152.7339555492679
 51
207.26604445073201
  0
LINE
  5
41B9
  8
0
 10
2485.6285169609532
 20
967.8799514346756
 30
0.0
 11
2485.6285169609532
 21
958.88995143467582
 31
0.0
  0
ARC
  5
41BA
  8
0
 10
2490.378666300709
 20
957.21469462775156
 30
0.0
 40
11.675256806925161
 50
65.992508275257379
 51
114.0074917247145
  0
ARC
  5
41BB
  8
0
 10
2539.3228754054471
 20
963.88995143467594
 30
0.0
 40
5.0
 50
194.07803860375469
 51
270.0
  0
ARC
  5
41BC
  8
0
 10
2521.3785169605198
 20
959.38995143467776
 30
0.0
 40
13.500000000000011
 50
332.73395554927509
 51
27.266044450739621
  0
LINE
  5
41BD
  8
0
 10
2547.6282182814361
 20
958.88995143467582
 30
0.0
 11
2547.6282182814361
 21
967.8799514346756
 31
0.0
  0
LINE
  5
41BE
  8
0
 10
2547.6282182814398
 20
967.8799514346756
 30
0.0
 11
2549.3772182814409
 21
968.88995143467582
 31
0.0
  0
LINE
  5
41BF
  8
0
 10
2557.1285169609509
 20
967.8799514346756
 30
0.0
 11
2557.1285169609509
 21
958.88995143467582
 31
0.0
  0
ARC
  5
41C0
  8
0
 10
2552.378367621192
 20
957.21469462777441
 30
0.0
 40
11.67525680690135
 50
65.992508275255162
 51
114.00749172474301
  0
LINE
  5
41C1
  8
0
 10
2573.378516961699
 20
913.38995143405555
 30
0.0
 11
2575.5746330969691
 21
924.37053210971953
 31
0.0
  0
LINE
  5
41C2
  8
0
 10
2573.378516961699
 20
913.38995143405816
 30
0.0
 11
2573.3785169614412
 21
891.85515829806525
 31
0.0
  0
ARC
  5
41C3
  8
0
 10
2597.6286663007072
 20
957.21469462775156
 30
0.0
 40
11.675256806925161
 50
65.992508275257379
 51
114.0074917247145
  0
LINE
  5
41C4
  8
0
 10
2585.1272182814391
 20
968.88995143467582
 30
0.0
 11
2600.629815640465
 21
968.88995143467582
 31
0.0
  0
ARC
  5
41C5
  8
0
 10
2588.128367621191
 20
957.21469462777441
 30
0.0
 40
11.67525680690135
 50
65.992508275255162
 51
114.00749172474301
  0
LINE
  5
41C6
  8
0
 10
2583.3782182814361
 20
958.88995143467582
 30
0.0
 11
2583.3782182814361
 21
967.8799514346756
 31
0.0
  0
LINE
  5
41C7
  8
0
 10
2592.8785169609509
 20
967.8799514346756
 30
0.0
 11
2592.8785169609509
 21
958.88995143467582
 31
0.0
  0
LINE
  5
41C8
  8
0
 10
2583.3782182814389
 20
967.8799514346756
 30
0.0
 11
2585.1272182814409
 21
968.88995143467582
 31
0.0
  0
LINE
  5
41C9
  8
0
 10
2564.8798156404669
 20
968.88995143467582
 30
0.0
 11
2566.6288156404662
 21
967.8799514346756
 31
0.0
  0
LINE
  5
41CA
  8
0
 10
2566.6288156404662
 20
967.8799514346756
 30
0.0
 11
2566.6288156404662
 21
958.88995143467582
 31
0.0
  0
LINE
  5
41CB
  8
0
 10
2564.1681087756569
 20
955.89966075832388
 30
0.0
 11
2564.1681087756569
 21
929.95419106189365
 31
0.0
  0
ARC
  5
41CC
  8
0
 10
2580.4775364754119
 20
923.38995143397005
 30
0.0
 40
5.0
 50
89.999999999309537
 51
168.69006752529859
  0
ARC
  5
41CD
  8
0
 10
2604.9577005903629
 20
930.38995143467764
 30
0.0
 40
2.0
 50
270.0
 51
0.000000000000007
  0
LINE
  5
41CE
  8
0
 10
2600.6298156404669
 20
968.88995143467582
 30
0.0
 11
2602.3788156404671
 21
967.8799514346756
 31
0.0
  0
LINE
  5
41CF
  8
0
 10
2602.3788156404671
 20
967.8799514346756
 30
0.0
 11
2602.3788156404671
 21
958.88995143467582
 31
0.0
  0
LINE
  5
41D0
  8
0
 10
2606.9577005903629
 20
943.88995143467582
 30
0.0
 11
2606.9577005903629
 21
958.88995143467582
 31
0.0
  0
LINE
  5
41D1
  8
0
 10
2606.9577005903629
 20
930.38995143467764
 30
0.0
 11
2606.9577005903629
 21
944.38995143467764
 31
0.0
  0
LINE
  5
41D2
  8
0
 10
2818.957123839542
 20
913.38995143467855
 30
0.0
 11
2818.9571238395388
 21
857.38995143468037
 31
0.0
  0
LINE
  5
41D3
  8
0
 10
2740.457123839542
 20
834.38995143467776
 30
0.0
 11
2740.457123839542
 21
911.88995143467776
 31
0.0
  0
LINE
  5
41D7
  8
0
 10
2713.5711921735542
 20
847.17271691482165
 30
0.0
 11
2650.5464421735528
 21
847.17271691482165
 31
0.0
  0
LINE
  5
41D8
  8
0
 10
2700.6921921735552
 20
859.777216914821
 30
0.0
 11
2713.5711921735542
 21
847.17271691482165
 31
0.0
  0
LINE
  5
41D9
  8
0
 10
2637.9419421735538
 20
859.777216914821
 30
0.0
 11
2675.755442173554
 21
859.777216914821
 31
0.0
  0
LINE
  5
41DA
  8
0
 10
2650.5464421735528
 20
847.17271691482165
 30
0.0
 11
2637.9419421735538
 21
859.777216914821
 31
0.0
  0
LINE
  5
41DB
  8
0
 10
2682.0599421735542
 20
853.47496691482218
 30
0.0
 11
2700.6921921735552
 21
853.47496691482218
 31
0.0
  0
LINE
  5
41DC
  8
0
 10
2675.755442173554
 20
859.777216914821
 30
0.0
 11
2682.0599421735542
 21
853.47496691482218
 31
0.0
  0
LINE
  5
41DD
  8
0
 10
2700.6921921735552
 20
853.47496691482218
 30
0.0
 11
2700.6921921735552
 21
859.777216914821
 31
0.0
  0
ARC
  5
41DE
  8
0
 10
2773.3571238395421
 20
764.38995143467764
 30
0.0
 40
36.0
 50
24.793862463055259
 51
100.9716102296702
  0
ARC
  5
41DF
  8
0
 10
2801.4996183984822
 20
777.38995143467764
 30
0.0
 40
5.0
 50
270.0
 51
24.793862463047191
  0
ARC
  5
41E0
  8
0
 10
2793.4571238395438
 20
770.38995143467764
 30
0.0
 40
2.0
 50
90.0
 51
179.9999999999944
  0
ARC
  5
41E1
  8
0
 10
2822.4879927354732
 20
841.20405569336071
 30
0.0
 40
10.0
 50
90.0
 51
158.63450841046219
  0
ARC
  5
41E2
  8
0
 10
2836.457123839542
 20
835.73931634006647
 30
0.0
 40
25.0
 50
158.63450841046139
 51
180.0
  0
ARC
  5
41E3
  8
0
 10
2808.9571238395379
 20
857.38995143468128
 30
0.0
 40
10.0
 50
321.78678929825821
 51
359.99999999999682
  0
ARC
  5
41E4
  8
0
 10
2808.957123839542
 20
857.38995143467753
 30
0.0
 40
10.0
 50
321.7867892982602
 51
0.0
  0
LINE
  5
41E5
  8
0
 10
2740.457123839542
 20
911.88995143467776
 30
0.0
 11
2762.457123839542
 21
911.88995143467776
 31
0.0
  0
LINE
  5
41E6
  8
0
 10
2818.957123839542
 20
913.38995143468037
 30
0.0
 11
2816.7610077044069
 21
924.370532110368
 31
0.0
  0
ARC
  5
41E7
  8
0
 10
2803.457123839542
 20
923.38995143467753
 30
0.0
 40
5.0
 50
0.0
 51
90.0
  0
LINE
  5
41E8
  8
0
 10
2808.457123839542
 20
923.38995143467753
 30
0.0
 11
2808.457123839542
 21
870.02616173842239
 31
0.0
  0
ARC
  5
41E9
  8
0
 10
2811.8581043259528
 20
923.38995143467753
 30
0.0
 40
5.0
 50
11.309932474014889
 51
90.0
  0
LINE
  5
41EA
  8
0
 10
2817.2573074689549
 20
969.38995143467764
 30
0.0
 11
2798.8153074689558
 21
969.38995143467764
 31
0.0
  0
ARC
  5
41EB
  8
0
 10
2808.036307468954
 20
949.65004606466925
 30
0.0
 40
19.51623967800851
 50
73.680296897684642
 51
106.3197031023153
  0
LINE
  5
41EC
  8
0
 10
2791.957123839542
 20
972.88995143467764
 30
0.0
 11
2846.0140260480021
 21
972.88995143467764
 31
0.0
  0
LINE
  5
41ED
  8
0
 10
2798.8153074689558
 20
969.38995143467764
 30
0.0
 11
2797.0663074689569
 21
968.37995143467731
 31
0.0
  0
ARC
  5
41EE
  8
0
 10
2799.809307468955
 20
963.99015464971399
 30
0.0
 40
5.1763273479641221
 50
58.000464388176241
 51
121.9995356118237
  0
LINE
  5
41EF
  8
0
 10
2802.552307468954
 20
968.37995143467731
 30
0.0
 11
2802.552307468954
 21
959.38995143467776
 31
0.0
  0
LINE
  5
41F0
  8
0
 10
2797.0663074689569
 20
968.37995143467731
 30
0.0
 11
2797.0663074689569
 21
959.38995143467776
 31
0.0
  0
ARC
  5
41F1
  8
0
 10
2791.0910984357561
 20
948.99764658926506
 30
0.0
 40
6.1339745962155821
 50
145.61575253195539
 51
214.38424746804461
  0
ARC
  5
41F2
  8
0
 10
2785.8231492433279
 20
948.99764658926506
 30
0.0
 40
6.1339745962155821
 50
325.61575253195542
 51
34.384247468044592
  0
LINE
  5
41F3
  8
0
 10
2793.957123839542
 20
930.38995143467764
 30
0.0
 11
2793.957123839542
 21
959.38995143467776
 31
0.0
  0
LINE
  5
41F4
  8
0
 10
2784.957123839542
 20
947.38995143467764
 30
0.0
 11
2784.957123839542
 21
971.38995143467764
 31
0.0
  0
LINE
  5
41F5
  8
0
 10
2791.957123839542
 20
972.88995143467764
 30
0.0
 11
2791.957123839542
 21
945.88995143467776
 31
0.0
  0
LINE
  5
41F6
  8
0
 10
2791.957123839542
 20
945.88995143467776
 30
0.0
 11
2793.957123839542
 21
945.88995143467776
 31
0.0
  0
LINE
  5
41F7
  8
0
 10
2784.957123839542
 20
947.38995143467764
 30
0.0
 11
2786.0289206092662
 21
945.53354497412693
 31
0.0
  0
LINE
  5
41F8
  8
0
 10
2791.957123839542
 20
947.38995143467764
 30
0.0
 11
2790.8853270698191
 21
945.53354497412693
 31
0.0
  0
LINE
  5
41F9
  8
0
 10
2786.0289206092662
 20
945.53354497412693
 30
0.0
 11
2790.8853270698191
 21
945.53354497412693
 31
0.0
  0
LINE
  5
41FA
  8
0
 10
2786.0289206092662
 20
973.24635789522836
 30
0.0
 11
2790.8853270698191
 21
973.24635789522836
 31
0.0
  0
LINE
  5
41FB
  8
0
 10
2786.0289206092662
 20
966.318154664953
 30
0.0
 11
2790.8853270698191
 21
966.318154664953
 31
0.0
  0
LINE
  5
41FC
  8
0
 10
2784.957123839542
 20
971.38995143467764
 30
0.0
 11
2786.0289206092662
 21
973.24635789522836
 31
0.0
  0
LINE
  5
41FD
  8
0
 10
2791.957123839542
 20
971.38995143467764
 30
0.0
 11
2790.8853270698191
 21
973.24635789522836
 31
0.0
  0
ARC
  5
41FE
  8
0
 10
2791.0910984357561
 20
969.78225628009125
 30
0.0
 40
6.1339745962155821
 50
145.61575253195539
 51
214.38424746804461
  0
ARC
  5
41FF
  8
0
 10
2785.8231492433279
 20
969.78225628009125
 30
0.0
 40
6.1339745962155821
 50
325.61575253195542
 51
34.384247468044592
  0
LINE
  5
4200
  8
0
 10
2786.0289206092662
 20
952.46174820440228
 30
0.0
 11
2790.8853270698191
 21
952.46174820440228
 31
0.0
  0
ARC
  5
4201
  8
0
 10
2807.8853270698178
 20
959.38995143467776
 30
0.0
 40
22.928203230275809
 50
162.41204622600529
 51
197.58795377399471
  0
ARC
  5
4202
  8
0
 10
2769.0289206092662
 20
959.38995143467776
 30
0.0
 40
22.928203230275809
 50
342.41204622600532
 51
17.58795377399473
  0
ARC
  5
4203
  8
0
 10
2795.957123839542
 20
930.38995143467764
 30
0.0
 40
2.0
 50
180.0
 51
270.0
  0
ARC
  5
4204
  8
0
 10
2816.2633074689552
 20
963.99015464971399
 30
0.0
 40
5.1763273479641221
 50
58.000464388176241
 51
121.9995356118237
  0
LINE
  5
4205
  8
0
 10
2819.0063074689551
 20
968.37995143467731
 30
0.0
 11
2817.2573074689549
 21
969.38995143467764
 31
0.0
  0
LINE
  5
4206
  8
0
 10
2819.0063074689551
 20
959.38995143467776
 30
0.0
 11
2819.0063074689551
 21
968.37995143467731
 31
0.0
  0
LINE
  5
4207
  8
0
 10
2813.5203074689539
 20
968.37995143467731
 30
0.0
 11
2813.5203074689539
 21
959.38995143467776
 31
0.0
  0
ARC
  5
4208
  8
0
 10
2846.0140260480021
 20
969.88995143467753
 30
0.0
 40
3.0
 50
60.000000000000057
 51
90.0
  0
LINE
  5
4209
  8
0
 10
2495.3785169609509
 20
1093.389951434676
 30
0.0
 11
2495.3785169609532
 21
1073.389951434676
 31
0.0
  0
LINE
  5
420A
  8
0
 10
2547.3785169609509
 20
1093.389951434676
 30
0.0
 11
2547.3785169609509
 21
1073.389951434676
 31
0.0
  0
ARC
  5
420B
  8
0
 10
2500.8785169609469
 20
1083.389951434676
 30
0.0
 40
2.0
 50
90.0
 51
180.0
  0
ARC
  5
420C
  8
0
 10
2541.8855768888261
 20
1083.389951434676
 30
0.0
 40
2.0
 50
0.000000000000007
 51
90.0
  0
LINE
  5
420D
  8
0
 10
2508.3785169609509
 20
1085.389951434676
 30
0.0
 11
2508.3785169609532
 21
1078.389951434676
 31
0.0
  0
LINE
  5
420E
  8
0
 10
2521.3785169609509
 20
1078.389951434676
 30
0.0
 11
2521.3785169609509
 21
1085.389951434676
 31
0.0
  0
LINE
  5
420F
  8
0
 10
2534.3785169609509
 20
1085.389951434676
 30
0.0
 11
2534.3785169609509
 21
1078.389951434676
 31
0.0
  0
ARC
  5
4210
  8
0
 10
2559.569642457906
 20
1017.447630638216
 30
0.0
 40
10.44232079645921
 50
65.983629264464597
 51
114.0163707355357
  0
LINE
  5
4211
  8
0
 10
2562.2546424579032
 20
1027.8899514346749
 30
0.0
 11
2548.384642457906
 21
1027.8899514346749
 31
0.0
  0
LINE
  5
4212
  8
0
 10
2500.3785169609509
 20
1025.889951434676
 30
0.0
 11
2500.3785169609509
 21
1073.389951434676
 31
0.0
  0
LINE
  5
4213
  8
0
 10
2542.3785169609509
 20
1025.889951434676
 30
0.0
 11
2542.3785169609509
 21
1073.389951434676
 31
0.0
  0
LINE
  5
4214
  8
0
 10
2492.4373914639982
 20
996.88995143467571
 30
0.0
 11
2492.4373914639982
 21
993.70195143467561
 31
0.0
  0
ARC
  5
4215
  8
0
 10
2488.3785169609509
 20
982.45435566051322
 30
0.0
 40
8.0
 50
0.000000000000007
 51
49.294293168957132
  0
LINE
  5
4216
  8
0
 10
2495.9373914639968
 20
1019.889951434675
 30
0.0
 11
2495.9373914639968
 21
1026.9859514346749
 31
0.0
  0
LINE
  5
4217
  8
0
 10
2495.9373914639968
 20
1026.9859514346749
 30
0.0
 11
2494.3723914639959
 21
1027.8899514346749
 31
0.0
  0
ARC
  5
4218
  8
0
 10
2494.3785169609509
 20
1025.889951434676
 30
0.0
 40
5.9999999999999281
 50
285.0589319384797
 51
0.0000000000002869
  0
ARC
  5
4219
  8
0
 10
2483.1795070842272
 20
988.88995143467594
 30
0.0
 40
8.0
 50
28.57187814231078
 51
29.999999999997389
  0
ARC
  5
421A
  8
0
 10
2483.1795070842272
 20
988.88995143467594
 30
0.0
 40
8.0
 50
28.57187814231078
 51
29.999999999997272
  0
ARC
  5
421B
  8
0
 10
2483.1795070842272
 20
988.88995143467594
 30
0.0
 40
8.0
 50
28.57187814231078
 51
29.999999999997812
  0
LINE
  5
421C
  8
0
 10
2487.4373914639968
 20
1026.9859514346749
 30
0.0
 11
2487.4373914639968
 21
1019.889951434675
 31
0.0
  0
LINE
  5
421D
  8
0
 10
2492.4373914639982
 20
993.70195143467561
 30
0.0
 11
2491.6253914639969
 21
992.88995143467582
 31
0.0
  0
ARC
  5
421E
  8
0
 10
2503.3785169609509
 20
999.88995143467582
 30
0.0
 40
15.0
 50
208.57187814231119
 51
229.29429316895801
  0
ARC
  5
421F
  8
0
 10
2503.3785169609509
 20
999.88995143467582
 30
0.0
 40
15.0
 50
208.57187814231111
 51
229.2942931689573
  0
ARC
  5
4220
  8
0
 10
2491.6873914639959
 20
1017.447630638216
 30
0.0
 40
10.44232079645921
 50
65.983629264464597
 51
114.0163707355357
  0
LINE
  5
4221
  8
0
 10
2550.3196424579041
 20
996.88995143467571
 30
0.0
 11
2550.3196424579041
 21
993.70195143467561
 31
0.0
  0
LINE
  5
4222
  8
0
 10
2550.3196424579041
 20
993.70195143467561
 30
0.0
 11
2551.1316424579049
 21
992.88995143467582
 31
0.0
  0
ARC
  5
4223
  8
0
 10
2559.5775268376751
 20
988.88995143467594
 30
0.0
 40
8.0
 50
150.00000000000259
 51
151.42812185768901
  0
ARC
  5
4224
  8
0
 10
2559.5775268376751
 20
988.88995143467594
 30
0.0
 40
8.0
 50
150.00000000000239
 51
151.42812185768901
  0
ARC
  5
4225
  8
0
 10
2539.3785169609509
 20
999.88995143467582
 30
0.0
 40
15.0
 50
310.70570683104228
 51
331.42812185768878
  0
ARC
  5
4226
  8
0
 10
2554.3785169609509
 20
982.45435566051322
 30
0.0
 40
8.0
 50
130.7057068310429
 51
180.0
  0
LINE
  5
4227
  8
0
 10
2546.819642457906
 20
1026.9859514346749
 30
0.0
 11
2546.819642457906
 21
1019.889951434675
 31
0.0
  0
LINE
  5
4228
  8
0
 10
2548.384642457906
 20
1027.8899514346749
 30
0.0
 11
2546.819642457906
 21
1026.9859514346749
 31
0.0
  0
ARC
  5
4229
  8
0
 10
2548.3785169609509
 20
1025.889951434676
 30
0.0
 40
5.9999999999999902
 50
180.0
 51
254.94106806152041
  0
LINE
  5
422A
  8
0
 10
2560.3196424579041
 20
993.70195143467561
 30
0.0
 11
2560.3196424579041
 21
996.88995143467571
 31
0.0
  0
LINE
  5
422B
  8
0
 10
2559.5076424579051
 20
992.88995143467582
 30
0.0
 11
2560.3196424579041
 21
993.70195143467561
 31
0.0
  0
LINE
  5
422C
  8
0
 10
2555.319642457906
 20
1026.9859514346749
 30
0.0
 11
2555.319642457906
 21
1019.889951434675
 31
0.0
  0
LINE
  5
422D
  8
0
 10
2551.1316424579049
 20
992.88995143467582
 30
0.0
 11
2559.5076424579051
 21
992.88995143467582
 31
0.0
  0
LINE
  5
422E
  8
0
 10
2560.3196424579041
 20
993.70195143467561
 30
0.0
 11
2550.3196424579041
 21
993.70195143467561
 31
0.0
  0
ARC
  5
422F
  8
0
 10
2551.069642457906
 20
1017.447630638216
 30
0.0
 40
10.44232079645947
 50
65.983629264464611
 51
114.0163707355357
  0
LINE
  5
4230
  8
0
 10
2547.3785169609509
 20
1073.389951434676
 30
0.0
 11
2495.3785169609532
 21
1073.389951434676
 31
0.0
  0
LINE
  5
4231
  8
0
 10
2547.3785169609491
 20
1078.389951434676
 30
0.0
 11
2495.3785169609509
 21
1078.389951434676
 31
0.0
  0
LINE
  5
4232
  8
0
 10
2498.8785169609491
 20
1083.389951434676
 30
0.0
 11
2498.8785169609482
 21
1080.389951434676
 31
0.0
  0
ARC
  5
4233
  8
0
 10
2500.8785169609469
 20
1080.389951434676
 30
0.0
 40
2.0
 50
180.0
 51
270.0
  0
LINE
  5
4234
  8
0
 10
2543.8855768888261
 20
1083.389951434676
 30
0.0
 11
2543.8855768888261
 21
1080.389951434676
 31
0.0
  0
ARC
  5
4235
  8
0
 10
2541.8855768888261
 20
1080.389951434676
 30
0.0
 40
2.0
 50
270.0
 51
0.000000000000007
  0
ARC
  5
4236
  8
0
 10
2565.8785169609509
 20
998.88995143467582
 30
0.0
 40
2.0
 50
270.0
 51
0.000000000000007
  0
LINE
  5
4237
  8
0
 10
2567.8785169609509
 20
1008.889951434676
 30
0.0
 11
2567.8785169609509
 21
998.88995143467582
 31
0.0
  0
LINE
  5
4238
  8
0
 10
2563.819642457906
 20
1019.889951434675
 30
0.0
 11
2563.819642457906
 21
1026.9859514346749
 31
0.0
  0
LINE
  5
4239
  8
0
 10
2563.819642457906
 20
1026.9859514346749
 30
0.0
 11
2562.254642457905
 21
1027.8899514346749
 31
0.0
  0
ARC
  5
423A
  8
0
 10
2565.8785169609509
 20
1017.889951434676
 30
0.0
 40
2.0
 50
0.000000000000007
 51
90.0
  0
LINE
  5
423B
  8
0
 10
2567.8785169609509
 20
1017.889951434676
 30
0.0
 11
2567.8785169609509
 21
1008.889951434676
 31
0.0
  0
LINE
  5
423C
  8
0
 10
2503.6373518014921
 20
1149.184125637383
 30
0.0
 11
2500.8785169609509
 21
1135.389951434676
 31
0.0
  0
LINE
  5
423D
  8
0
 10
2539.1196821204112
 20
1149.184125637383
 30
0.0
 11
2541.8785169609509
 21
1135.389951434676
 31
0.0
  0
LINE
  5
423E
  8
0
 10
2547.3785169609491
 20
1085.389951434676
 30
0.0
 11
2495.3785169609509
 21
1085.389951434676
 31
0.0
  0
LINE
  5
423F
  8
0
 10
2547.3785169609509
 20
1093.389951434676
 30
0.0
 11
2495.3785169609509
 21
1093.389951434676
 31
0.0
  0
LINE
  5
4240
  8
0
 10
2541.8785169609509
 20
1135.389951434676
 30
0.0
 11
2500.8785169609509
 21
1135.389951434676
 31
0.0
  0
ARC
  5
4241
  8
0
 10
2531.62851696095
 20
1111.5398923418491
 30
0.0
 40
18.149940907172681
 50
235.61575253194781
 51
304.38424746805549
  0
ARC
  5
4242
  8
0
 10
2531.62851696095
 20
1117.240010527503
 30
0.0
 40
18.149940907172681
 50
55.615752531944452
 51
124.38424746805219
  0
ARC
  5
4243
  8
0
 10
2511.1285169609509
 20
1111.5398923418491
 30
0.0
 40
18.149940907172681
 50
235.61575253194471
 51
304.38424746805219
  0
ARC
  5
4244
  8
0
 10
2511.1285169609509
 20
1117.240010527503
 30
0.0
 40
18.149940907172681
 50
55.615752531947827
 51
124.38424746805519
  0
LINE
  5
4245
  8
0
 10
2500.8785169609509
 20
1135.389951434677
 30
0.0
 11
2500.8785169609509
 21
1096.561312471453
 31
0.0
  0
LINE
  5
4246
  8
0
 10
2500.8785169609491
 20
1096.561312471453
 30
0.0
 11
2495.3785169609509
 21
1093.389951434676
 31
0.0
  0
LINE
  5
4247
  8
0
 10
2521.3785169609509
 20
1132.2185903979
 30
0.0
 11
2521.3785169609509
 21
1096.5613124714509
 31
0.0
  0
LINE
  5
4248
  8
0
 10
2541.8785169609509
 20
1135.389951434676
 30
0.0
 11
2541.8785169609509
 21
1096.561312471453
 31
0.0
  0
LINE
  5
4249
  8
0
 10
2541.8785169609509
 20
1096.561312471453
 30
0.0
 11
2547.3785169609509
 21
1093.389951434676
 31
0.0
  0
LINE
  5
424A
  8
0
 10
2537.648811106872
 20
1150.389951434676
 30
0.0
 11
2505.1082228150281
 21
1150.389951434676
 31
0.0
  0
ARC
  5
424B
  8
0
 10
2505.1082228150281
 20
1148.889951434676
 30
0.0
 40
1.5
 50
90.0
 51
168.69006752597861
  0
ARC
  5
424C
  8
0
 10
2537.648811106872
 20
1148.889951434676
 30
0.0
 40
1.5
 50
11.30993247402145
 51
90.0
  0
LINE
  5
424D
  8
0
 10
2814.957123839542
 20
1083.389951434676
 30
0.0
 11
2814.957123839542
 21
1080.389951434676
 31
0.0
  0
LINE
  5
424E
  8
0
 10
2848.957123839542
 20
1025.889951434676
 30
0.0
 11
2848.957123839542
 21
1073.389951434676
 31
0.0
  0
ARC
  5
424F
  8
0
 10
2825.457123839542
 20
1017.889951434676
 30
0.0
 40
2.0
 50
90.0
 51
180.0
  0
ARC
  5
4250
  8
0
 10
2825.457123839542
 20
999.38995143467776
 30
0.0
 40
2.0
 50
180.0
 51
270.0
  0
LINE
  5
4251
  8
0
 10
2831.1089983425891
 20
1026.9859514346761
 30
0.0
 11
2830.6729983425889
 21
1027.226951434676
 31
0.0
  0
LINE
  5
4252
  8
0
 10
2830.6729983425889
 20
1027.226951434676
 30
0.0
 11
2830.2029983425882
 21
1027.423951434675
 31
0.0
  0
LINE
  5
4253
  8
0
 10
2830.2029983425882
 20
1027.423951434675
 30
0.0
 11
2829.7029983425869
 21
1027.5699514346761
 31
0.0
  0
LINE
  5
4254
  8
0
 10
2829.1839983425871
 20
1027.659951434676
 30
0.0
 11
2828.6549983425889
 21
1027.689951434676
 31
0.0
  0
LINE
  5
4255
  8
0
 10
2828.6549983425889
 20
1027.689951434676
 30
0.0
 11
2828.1249983425878
 21
1027.659951434676
 31
0.0
  0
LINE
  5
4256
  8
0
 10
2828.1249983425878
 20
1027.659951434676
 30
0.0
 11
2827.6059983425898
 21
1027.5699514346761
 31
0.0
  0
LINE
  5
4257
  8
0
 10
2827.6059983425898
 20
1027.5699514346761
 30
0.0
 11
2827.1069983425882
 21
1027.423951434675
 31
0.0
  0
LINE
  5
4258
  8
0
 10
2827.1069983425882
 20
1027.423951434675
 30
0.0
 11
2826.2009983425869
 21
1026.9869514346749
 31
0.0
  0
LINE
  5
4259
  8
0
 10
2826.2009983425869
 20
1026.9859514346761
 30
0.0
 11
2827.7659983425888
 21
1027.8899514346749
 31
0.0
  0
LINE
  5
425A
  8
0
 10
2829.7029983425869
 20
1027.5699514346761
 30
0.0
 11
2829.1839983425871
 21
1027.659951434676
 31
0.0
  0
LINE
  5
425B
  8
0
 10
2844.2659983425888
 20
1027.8899514346749
 30
0.0
 11
2845.8309983425879
 21
1026.9859514346761
 31
0.0
  0
ARC
  5
425C
  8
0
 10
2843.3769983425859
 20
1023.0586273692591
 30
0.0
 40
4.6309815714167701
 50
58.00067615949073
 51
121.99932384050921
  0
ARC
  5
425D
  8
0
 10
2836.0159983425888
 20
1010.226959841562
 30
0.0
 40
17.462601416113358
 50
73.680072331667816
 51
106.3199276683322
  0
LINE
  5
425E
  8
0
 10
2827.7659983425888
 20
1027.8899514346749
 30
0.0
 11
2844.2659983425888
 21
1027.8899514346749
 31
0.0
  0
LINE
  5
425F
  8
0
 10
2826.2009983425869
 20
1019.889951434675
 30
0.0
 11
2826.2009983425869
 21
1026.9859514346761
 31
0.0
  0
LINE
  5
4260
  8
0
 10
2831.1089983425891
 20
1026.9859514346761
 30
0.0
 11
2831.1089983425891
 21
1019.889951434675
 31
0.0
  0
LINE
  5
4261
  8
0
 10
2840.922998342588
 20
1026.9859514346761
 30
0.0
 11
2840.922998342588
 21
1019.889951434675
 31
0.0
  0
LINE
  5
4262
  8
0
 10
2845.8309983425879
 20
1026.9859514346761
 30
0.0
 11
2845.8309983425879
 21
1019.889951434675
 31
0.0
  0
ARC
  5
4263
  8
0
 10
2842.957123839542
 20
1025.889951434676
 30
0.0
 40
5.9999999999999281
 50
298.61874557995048
 51
0.0000000000002799
  0
LINE
  5
4264
  8
0
 10
2841.0159983425888
 20
997.38995143467764
 30
0.0
 11
2841.0159983425888
 21
994.20195143467754
 31
0.0
  0
LINE
  5
4265
  8
0
 10
2841.0159983425888
 20
994.20195143467754
 30
0.0
 11
2840.203998342588
 21
993.38995143467764
 31
0.0
  0
ARC
  5
4266
  8
0
 10
2831.7581139628178
 20
989.38995143467764
 30
0.0
 40
8.0
 50
28.571878142310819
 51
29.99999999999741
  0
LINE
  5
4267
  8
0
 10
2831.0159983425901
 20
994.20195143467754
 30
0.0
 11
2831.0159983425901
 21
997.38995143467764
 31
0.0
  0
LINE
  5
4268
  8
0
 10
2831.8279983425882
 20
993.38995143467764
 30
0.0
 11
2831.0159983425901
 21
994.20195143467754
 31
0.0
  0
LINE
  5
4269
  8
0
 10
2840.203998342588
 20
993.38995143467764
 30
0.0
 11
2831.8279983425882
 21
993.38995143467764
 31
0.0
  0
LINE
  5
426A
  8
0
 10
2831.0159983425901
 20
994.20195143467754
 30
0.0
 11
2841.0159983425888
 21
994.20195143467754
 31
0.0
  0
ARC
  5
426B
  8
0
 10
2831.7581139628178
 20
989.38995143467764
 30
0.0
 40
8.0
 50
28.57187814231084
 51
29.999999999997691
  0
LINE
  5
426C
  8
0
 10
2823.457123839542
 20
1017.889951434676
 30
0.0
 11
2823.457123839542
 21
999.38995143467776
 31
0.0
  0
ARC
  5
426D
  8
0
 10
2836.957123839542
 20
982.95435566051481
 30
0.0
 40
8.0
 50
0.0
 51
49.294293168957211
  0
LINE
  5
426E
  8
0
 10
2844.957123839542
 20
982.95435566051481
 30
0.0
 11
2844.957123839542
 21
977.88995143467753
 31
0.0
  0
ARC
  5
426F
  8
0
 10
2851.957123839542
 20
1000.389951434677
 30
0.0
 40
15.0
 50
208.57187814231111
 51
229.29429316895781
  0
ARC
  5
4270
  8
0
 10
2851.957123839542
 20
1000.389951434677
 30
0.0
 40
15.0
 50
208.57187814231111
 51
229.29429316895749
  0
ARC
  5
4271
  8
0
 10
2816.957123839542
 20
1080.389951434676
 30
0.0
 40
2.0
 50
180.00000000000011
 51
270.0
  0
ARC
  5
4272
  8
0
 10
2845.457123839542
 20
1074.889951434676
 30
0.0
 40
1.5
 50
180.0
 51
270.0
  0
LINE
  5
4273
  8
0
 10
2843.957123839542
 20
1076.389951434676
 30
0.0
 11
2843.957123839542
 21
1074.889951434676
 31
0.0
  0
ARC
  5
4274
  8
0
 10
2841.957123839542
 20
1076.389951434676
 30
0.0
 40
2.0
 50
0.0
 51
90.0
  0
LINE
  5
4275
  8
0
 10
2843.957123839542
 20
1093.389951434676
 30
0.0
 11
2843.957123839542
 21
1086.447913318927
 31
0.0
  0
ARC
  5
4276
  8
0
 10
2816.957123839542
 20
1083.389951434676
 30
0.0
 40
2.0
 50
90.0
 51
180.0
  0
LINE
  5
4277
  8
0
 10
2846.2857628027691
 20
1132.2185903979
 30
0.0
 11
2846.2857628027691
 21
1095.7185903979009
 31
0.0
  0
LINE
  5
4278
  8
0
 10
2846.2857628027691
 20
1095.7185903979009
 30
0.0
 11
2843.957123839542
 21
1093.389951434676
 31
0.0
  0
LINE
  5
4279
  8
0
 10
2849.457123839542
 20
1135.389951434676
 30
0.0
 11
2846.2857628027691
 21
1132.2185903979
 31
0.0
  0
LINE
  5
427A
  8
0
 10
2814.957123839542
 20
1453.0809703027969
 30
0.0
 11
2814.957123839542
 21
1463.0809703027969
 31
0.0
  0
LINE
  5
427B
  8
0
 10
2793.957123839542
 20
1511.330970301864
 30
0.0
 11
2793.957123839542
 21
1439.8309703076679
 31
0.0
  0
LINE
  5
427F
  8
0
 10
2802.551566133001
 20
1449.3311196416221
 30
0.0
 11
2813.521307468955
 21
1449.331268981379
 31
0.0
  0
LINE
  5
4280
  8
0
 10
2813.521048804907
 20
1430.3308209621059
 30
0.0
 11
2802.5513074689538
 21
1430.330671622349
 31
0.0
  0
CIRCLE
  5
4281
  8
0
 10
2808.036307468954
 20
1439.830970301864
 30
0.0
 40
9.2205300000000001
  0
LINE
  5
4283
  8
0
 10
2802.5513074689538
 20
1430.330671622349
 30
0.0
 11
2797.0665661330031
 21
1439.8308209621059
 31
0.0
  0
LINE
  5
4284
  8
0
 10
2797.0665661330031
 20
1439.8308209621059
 30
0.0
 11
2802.551566133001
 21
1449.3311196416221
 31
0.0
  0
POLYLINE
  5
4285
  8
0
 66
     1
 10
0.0
 20
0.0
 30
0.0
  0
VERTEX
  5
62C1
  8
0
 10
2792.0055200371148
 20
1443.039701524008
 30
0.0
 42
0.088637340368966
  0
VERTEX
  5
62C2
  8
0
 10
2793.2072945856598
 20
1441.315034910391
 30
0.0
  0
VERTEX
  5
62C3
  8
0
 10
2793.957123839542
 20
1440.5652056565091
 30
0.0
 42
0.198912367379658
  0
SEQEND
  5
62C4
  8
0
  0
ARC
  5
4287
  8
0
 10
2808.036307468954
 20
1439.8309703076679
 30
0.0
 40
14.079183629412521
 50
180.0
 51
240.00000003542769
  0
ARC
  5
4288
  8
0
 10
2836.0160255041342
 20
1441.639871463716
 30
0.0
 40
12.5589
 50
180.0
 51
270.0
  0
LINE
  5
4289
  8
0
 10
2819.006048804908
 20
1439.8311196416209
 30
0.0
 11
2813.521048804907
 21
1430.3308209621059
 31
0.0
  0
LINE
  5
428A
  8
0
 10
2813.521307468955
 20
1449.331268981379
 30
0.0
 11
2819.006048804908
 21
1439.8311196416209
 31
0.0
  0
LINE
  5
428B
  8
0
 10
2831.1090000071799
 20
1450.139845966761
 30
0.0
 11
2840.923000007178
 21
1450.139845966761
 31
0.0
  0
LINE
  5
428C
  8
0
 10
2845.8310000071779
 20
1441.6398459667621
 30
0.0
 11
2840.923000007178
 21
1433.139845966761
 31
0.0
  0
LINE
  5
428D
  8
0
 10
2831.1090000071799
 20
1433.139845966761
 30
0.0
 11
2826.2010000071809
 21
1441.6398459667621
 31
0.0
  0
LINE
  5
428E
  8
0
 10
2840.923000007178
 20
1433.139845966761
 30
0.0
 11
2831.1090000071799
 21
1433.139845966761
 31
0.0
  0
LINE
  5
428F
  8
0
 10
2840.923000007178
 20
1450.139845966761
 30
0.0
 11
2845.8310000071779
 21
1441.6398459667621
 31
0.0
  0
LINE
  5
4290
  8
0
 10
2823.4571255041342
 20
1452.6173338483641
 30
0.0
 11
2823.4571255041342
 21
1441.639871463716
 31
0.0
  0
LINE
  5
4291
  8
0
 10
2826.2010000071809
 20
1441.6398459667621
 30
0.0
 11
2831.1090000071799
 21
1450.139845966761
 31
0.0
  0
CIRCLE
  5
4292
  8
0
 10
2836.0160000071792
 20
1441.6398459667621
 30
0.0
 40
8.2499099999999999
  0
LINE
  5
4295
  8
0
 10
2701.5486212965561
 20
1481.1009697101319
 30
0.0
 11
2638.5238712965561
 21
1481.1009697101319
 31
0.0
  0
LINE
  5
4296
  8
0
 10
2688.6696212965571
 20
1493.7054697101321
 30
0.0
 11
2701.5486212965561
 21
1481.1009697101319
 31
0.0
  0
LINE
  5
4297
  8
0
 10
2625.9193712965562
 20
1493.7054697101321
 30
0.0
 11
2663.7328712965568
 21
1493.7054697101321
 31
0.0
  0
LINE
  5
4298
  8
0
 10
2638.5238712965561
 20
1481.1009697101319
 30
0.0
 11
2625.9193712965562
 21
1493.7054697101321
 31
0.0
  0
LINE
  5
4299
  8
0
 10
2670.037371296557
 20
1487.403219710133
 30
0.0
 11
2688.6696212965571
 21
1487.403219710133
 31
0.0
  0
LINE
  5
429A
  8
0
 10
2663.7328712965568
 20
1493.7054697101321
 30
0.0
 11
2670.037371296557
 21
1487.403219710133
 31
0.0
  0
LINE
  5
429B
  8
0
 10
2688.6696212965571
 20
1487.403219710133
 30
0.0
 11
2688.6696212965571
 21
1493.7054697101321
 31
0.0
  0
ARC
  5
429C
  8
0
 10
2836.0160255041342
 20
1509.522071463716
 30
0.0
 40
12.5589
 50
90.0
 51
180.0
  0
LINE
  5
429D
  8
0
 10
2840.923000007178
 20
1518.0220969606701
 30
0.0
 11
2845.8310000071779
 21
1509.5220969606701
 31
0.0
  0
LINE
  5
429E
  8
0
 10
2826.2010000071809
 20
1509.5220969606701
 30
0.0
 11
2831.1090000071799
 21
1518.0220969606701
 31
0.0
  0
CIRCLE
  5
429F
  8
0
 10
2836.0160000071792
 20
1509.5220969606701
 30
0.0
 40
8.2499099999999999
  0
LINE
  5
42A0
  8
0
 10
2813.521307468955
 20
1520.830970301864
 30
0.0
 11
2819.0063074689551
 21
1511.330970301864
 31
0.0
  0
LINE
  5
42A2
  8
0
 10
2797.0663074689551
 20
1511.330970301864
 30
0.0
 11
2802.5513074689538
 21
1520.830970301864
 31
0.0
  0
ARC
  5
42A3
  8
0
 10
2808.036307468954
 20
1511.330970301864
 30
0.0
 40
14.07918362941261
 50
120.0000000000001
 51
180.0
  0
CIRCLE
  5
42A4
  8
0
 10
2808.036307468954
 20
1511.330970301864
 30
0.0
 40
9.2205300000000001
  0
LINE
  5
42A5
  8
0
 10
2813.521307468955
 20
1501.830970301864
 30
0.0
 11
2802.5513074689538
 21
1501.830970301864
 31
0.0
  0
LINE
  5
42A6
  8
0
 10
2814.957123839542
 20
1462.0809703027969
 30
0.0
 11
2791.957123839542
 21
1462.0809703027969
 31
0.0
  0
LINE
  5
42A7
  8
0
 10
2814.957123839542
 20
1489.0809703027969
 30
0.0
 11
2791.957123839542
 21
1489.0809703027969
 31
0.0
  0
LINE
  5
42A8
  8
0
 10
2802.5513074689538
 20
1501.830970301864
 30
0.0
 11
2797.0663074689551
 21
1511.330970301864
 31
0.0
  0
ARC
  5
42AA
  8
0
 10
2791.0910984357561
 20
1485.973275148209
 30
0.0
 40
6.1339745962155821
 50
145.61575253195539
 51
214.38424746804461
  0
ARC
  5
42AB
  8
0
 10
2785.8231492433242
 20
1485.973275148209
 30
0.0
 40
6.1339745962155821
 50
325.61575253195542
 51
34.384247468044592
  0
LINE
  5
42AC
  8
0
 10
2784.957123839542
 20
1463.5809703027969
 30
0.0
 11
2784.957123839542
 21
1487.5809703027969
 31
0.0
  0
LINE
  5
42AD
  8
0
 10
2791.957123839542
 20
1462.0809703027969
 30
0.0
 11
2791.957123839542
 21
1489.0809703027969
 31
0.0
  0
LINE
  5
42AE
  8
0
 10
2786.0289206092662
 20
1482.509173533072
 30
0.0
 11
2790.8853270698191
 21
1482.509173533072
 31
0.0
  0
LINE
  5
42AF
  8
0
 10
2786.0289206092662
 20
1468.6527670725211
 30
0.0
 11
2790.8853270698191
 21
1468.6527670725211
 31
0.0
  0
ARC
  5
42B0
  8
0
 10
2807.8853270698178
 20
1475.5809703027969
 30
0.0
 40
22.928203230275809
 50
162.41204622600529
 51
197.58795377399471
  0
ARC
  5
42B1
  8
0
 10
2769.0289206092662
 20
1475.5809703027969
 30
0.0
 40
22.928203230275809
 50
342.41204622600532
 51
17.587953773994741
  0
LINE
  5
42B2
  8
0
 10
2786.0289206092662
 20
1461.7245638422451
 30
0.0
 11
2790.8853270698191
 21
1461.7245638422451
 31
0.0
  0
LINE
  5
42B3
  8
0
 10
2784.957123839542
 20
1463.5809703027969
 30
0.0
 11
2786.0289206092662
 21
1461.7245638422451
 31
0.0
  0
LINE
  5
42B4
  8
0
 10
2791.957123839542
 20
1463.5809703027969
 30
0.0
 11
2790.8853270698191
 21
1461.7245638422451
 31
0.0
  0
ARC
  5
42B5
  8
0
 10
2791.0910984357561
 20
1465.188665457383
 30
0.0
 40
6.1339745962155821
 50
145.61575253195539
 51
214.38424746804461
  0
ARC
  5
42B6
  8
0
 10
2785.8231492433242
 20
1465.188665457383
 30
0.0
 40
6.1339745962155821
 50
325.61575253195542
 51
34.384247468044592
  0
POLYLINE
  5
42B7
  8
0
 66
     1
 10
0.0
 20
0.0
 30
0.0
  0
VERTEX
  5
62C5
  8
0
 10
2793.957123839542
 20
1510.5967349490841
 30
0.0
  0
VERTEX
  5
62C6
  8
0
 10
2793.2072945856598
 20
1509.8469056952019
 30
0.0
 42
0.0886373403689682
  0
VERTEX
  5
62C7
  8
0
 10
2792.0055200371148
 20
1508.1222390815849
 30
0.0
  0
SEQEND
  5
62C8
  8
0
  0
LINE
  5
42B8
  8
0
 10
2786.0289206092662
 20
1489.4373767633481
 30
0.0
 11
2790.8853270698191
 21
1489.4373767633481
 31
0.0
  0
LINE
  5
42B9
  8
0
 10
2784.957123839542
 20
1487.5809703027969
 30
0.0
 11
2786.0289206092662
 21
1489.4373767633481
 31
0.0
  0
LINE
  5
42BA
  8
0
 10
2791.957123839542
 20
1487.5809703027969
 30
0.0
 11
2790.8853270698191
 21
1489.4373767633481
 31
0.0
  0
LINE
  5
42BB
  8
0
 10
2819.0063074689551
 20
1511.330970301864
 30
0.0
 11
2813.521307468955
 21
1501.830970301864
 31
0.0
  0
LINE
  5
42BC
  8
0
 10
2834.957123839542
 20
1475.5809703027969
 30
0.0
 11
2827.7402454746721
 21
1488.0809703027969
 31
0.0
  0
LINE
  5
42BD
  8
0
 10
2814.957123839542
 20
1463.0809703027969
 30
0.0
 11
2827.7402454746721
 21
1463.0809703027969
 31
0.0
  0
LINE
  5
42BE
  8
0
 10
2834.957123839542
 20
1475.5809703027969
 30
0.0
 11
2827.7402454746721
 21
1463.0809703027969
 31
0.0
  0
LINE
  5
42BF
  8
0
 10
2814.957123839542
 20
1488.0809703027969
 30
0.0
 11
2827.7402454746721
 21
1488.0809703027969
 31
0.0
  0
LINE
  5
42C0
  8
0
 10
2814.957123839542
 20
1488.0809703027969
 30
0.0
 11
2814.957123839542
 21
1498.0809703027969
 31
0.0
  0
LINE
  5
42C1
  8
0
 10
2823.4571255041342
 20
1509.522071463716
 30
0.0
 11
2823.4571255041342
 21
1498.5446067572291
 31
0.0
  0
LINE
  5
42C2
  8
0
 10
2840.923000007178
 20
1501.0220969606701
 30
0.0
 11
2831.1090000071799
 21
1501.0220969606701
 31
0.0
  0
LINE
  5
42C3
  8
0
 10
2845.8310000071779
 20
1509.5220969606701
 30
0.0
 11
2840.923000007178
 21
1501.0220969606701
 31
0.0
  0
LINE
  5
42C4
  8
0
 10
2831.1090000071799
 20
1501.0220969606701
 30
0.0
 11
2826.2010000071809
 21
1509.5220969606701
 31
0.0
  0
LINE
  5
42C5
  8
0
 10
2802.5513074689538
 20
1520.830970301864
 30
0.0
 11
2813.521307468955
 21
1520.830970301864
 31
0.0
  0
LINE
  5
42C6
  8
0
 10
2831.1090000071799
 20
1518.0220969606701
 30
0.0
 11
2840.923000007178
 21
1518.0220969606701
 31
0.0
  0
ARC
  5
42CA
  8
0
 10
3187.58727903921
 20
957.21469462777441
 30
0.0
 40
11.67525680690135
 50
65.992508275256924
 51
114.0074917247448
  0
CIRCLE
  5
42CB
  8
0
 10
3189.513536571576
 20
876.81635830586845
 30
0.0
 40
9.5
  0
ARC
  5
42CC
  8
0
 10
3185.278255196406
 20
1017.447630638216
 30
0.0
 40
10.44232079645947
 50
65.983629264464611
 51
114.0163707355354
  0
CIRCLE
  5
42CD
  8
0
 10
3189.513536571576
 20
791.96354456348297
 30
0.0
 40
9.5
  0
LINE
  5
42CE
  8
0
 10
3061.5079460700399
 20
958.88995143467582
 30
0.0
 11
3232.6663133288662
 21
958.88995143467582
 31
0.0
  0
LINE
  5
42CF
  8
0
 10
3061.5079460709708
 20
943.88995143467582
 30
0.0
 11
3232.666313329797
 21
943.88995143467582
 31
0.0
  0
LINE
  5
42D0
  8
0
 10
3063.5079460700399
 20
928.38995143467764
 30
0.0
 11
3230.6663133288662
 21
928.38995143467412
 31
0.0
  0
LINE
  5
42D1
  8
0
 10
3190.5884283789619
 20
968.88995143467582
 30
0.0
 11
3175.0858310199369
 21
968.88995143467582
 31
0.0
  0
LINE
  5
42D2
  8
0
 10
3191.5871296994519
 20
1019.889951434675
 30
0.0
 11
3102.5871296994519
 21
1019.889951434675
 31
0.0
  0
LINE
  5
42D3
  8
0
 10
3100.5871296994519
 20
1008.889951434676
 30
0.0
 11
3193.5871296994519
 21
1008.889951434676
 31
0.0
  0
LINE
  5
42D4
  8
0
 10
3174.0932551964088
 20
1027.8899514346749
 30
0.0
 11
3187.963255196406
 21
1027.8899514346749
 31
0.0
  0
LINE
  5
42D5
  8
0
 10
3159.2114853533658
 20
996.88995143467571
 30
0.0
 11
3191.5871296994519
 21
996.88995143467571
 31
0.0
  0
LINE
  5
42D6
  8
0
 10
3186.0282551964051
 20
993.70195143467561
 30
0.0
 11
3176.0282551964051
 21
993.70195143467561
 31
0.0
  0
LINE
  5
42D7
  8
0
 10
3176.8402551964068
 20
992.88995143467582
 30
0.0
 11
3185.216255196407
 21
992.88995143467582
 31
0.0
  0
LINE
  5
42D8
  8
0
 10
3133.0871297003828
 20
989.88995143467594
 30
0.0
 11
3133.0871297003828
 21
958.88995143467582
 31
0.0
  0
LINE
  5
42D9
  8
0
 10
3122.0871296994519
 20
982.45435566051322
 30
0.0
 11
3122.0871296994519
 21
958.88995143467582
 31
0.0
  0
LINE
  5
42DA
  8
0
 10
3161.0871297003828
 20
989.88995143467594
 30
0.0
 11
3161.0871297003828
 21
958.88995143467582
 31
0.0
  0
LINE
  5
42DB
  8
0
 10
3172.0871296994519
 20
982.45435566051322
 30
0.0
 11
3172.0871296994519
 21
958.88995143467582
 31
0.0
  0
CIRCLE
  5
42DC
  8
0
 10
3147.0871297003828
 20
989.88995143467594
 30
0.0
 40
14.0
  0
LINE
  5
42DD
  8
0
 10
2894.957123839542
 20
982.95435566051481
 30
0.0
 11
2894.957123839542
 21
963.38995143467764
 31
0.0
  0
ARC
  5
42DE
  8
0
 10
2917.957123839542
 20
978.38995143467764
 30
0.0
 40
2.0
 50
270.0
 51
359.99999999999949
  0
LINE
  5
42DF
  8
0
 10
2999.457123839542
 20
834.38995143467776
 30
0.0
 11
2999.457123839542
 21
911.88995143467776
 31
0.0
  0
ARC
  5
42E0
  8
0
 10
2917.4262549434388
 20
841.20405569336071
 30
0.0
 40
10.0
 50
21.365491589774951
 51
90.0
  0
LINE
  5
42E2
  8
0
 10
2928.457123839542
 20
817.76717483299376
 30
0.0
 11
2928.457123839542
 21
777.38995143467764
 31
0.0
  0
ARC
  5
42E3
  8
0
 10
2946.457123839542
 20
770.38995143467764
 30
0.0
 40
2.0
 50
359.99999999999818
 51
90.0
  0
ARC
  5
42E5
  8
0
 10
2933.457123839542
 20
777.38995143467764
 30
0.0
 40
5.0
 50
180.0
 51
270.0
  0
ARC
  5
42E7
  8
0
 10
2903.457123839542
 20
835.73931634006647
 30
0.0
 40
25.0
 50
0.0
 51
21.36549158978044
  0
ARC
  5
42E9
  8
0
 10
2928.0561433531311
 20
923.38995143469208
 30
0.0
 40
5.0
 50
90.000000000013031
 51
168.69006752599921
  0
ARC
  5
42EB
  8
0
 10
2923.650940210131
 20
963.99015464971399
 30
0.0
 40
5.1763273479641221
 50
58.000464388176241
 51
121.9995356118237
  0
LINE
  5
42EC
  8
0
 10
2922.6569402101291
 20
969.38995143467764
 30
0.0
 11
2941.0989402101318
 21
969.38995143467764
 31
0.0
  0
LINE
  5
42ED
  8
0
 10
2920.957123839542
 20
913.3899514346939
 30
0.0
 11
2923.153239974677
 21
924.37053211038153
 31
0.0
  0
LINE
  5
42EE
  8
0
 10
2920.957123839542
 20
913.38995143467582
 30
0.0
 11
2920.957123839542
 21
911.31299038979034
 31
0.0
  0
LINE
  5
42EF
  8
0
 10
2869.957123839542
 20
955.89966075832388
 30
0.0
 11
2869.957123839542
 21
929.95419106189365
 31
0.0
  0
LINE
  5
42F0
  8
0
 10
2860.736123839542
 20
969.38995143467764
 30
0.0
 11
2879.1781238395438
 21
969.38995143467764
 31
0.0
  0
ARC
  5
42F1
  8
0
 10
2869.957123839542
 20
949.65004606466925
 30
0.0
 40
19.51623967800851
 50
73.680296897684642
 51
106.3197031023153
  0
ARC
  5
42F2
  8
0
 10
2861.730123839543
 20
963.99015464971399
 30
0.0
 40
5.1763273479641221
 50
58.000464388176241
 51
121.9995356118237
  0
LINE
  5
42F3
  8
0
 10
2858.9871238395431
 20
968.37995143467731
 30
0.0
 11
2860.736123839542
 21
969.38995143467764
 31
0.0
  0
LINE
  5
42F4
  8
0
 10
2879.1781238395438
 20
969.38995143467764
 30
0.0
 11
2880.9271238395431
 21
968.37995143467731
 31
0.0
  0
ARC
  5
42F5
  8
0
 10
2878.1841238395409
 20
963.99015464971399
 30
0.0
 40
5.1763273479641221
 50
58.000464388176241
 51
121.9995356118237
  0
LINE
  5
42F6
  8
0
 10
2858.9871238395431
 20
959.38995143467776
 30
0.0
 11
2858.9871238395431
 21
968.37995143467731
 31
0.0
  0
LINE
  5
42F7
  8
0
 10
2864.4731238395411
 20
968.37995143467731
 30
0.0
 11
2864.4731238395411
 21
959.38995143467776
 31
0.0
  0
LINE
  5
42F8
  8
0
 10
2880.9271238395431
 20
968.37995143467731
 30
0.0
 11
2880.9271238395431
 21
959.38995143467776
 31
0.0
  0
LINE
  5
42F9
  8
0
 10
2875.4411238395428
 20
968.37995143467731
 30
0.0
 11
2875.4411238395428
 21
959.38995143467776
 31
0.0
  0
ARC
  5
42FA
  8
0
 10
2917.6062708784561
 20
974.38995143467776
 30
0.0
 40
2.0
 50
90.0
 51
209.99999999999761
  0
LINE
  5
42FB
  8
0
 10
2920.9079402101288
 20
968.37995143467731
 30
0.0
 11
2922.6569402101291
 21
969.38995143467764
 31
0.0
  0
LINE
  5
42FC
  8
0
 10
2920.9079402101288
 20
959.38995143467776
 30
0.0
 11
2920.9079402101288
 21
968.37995143467731
 31
0.0
  0
LINE
  5
42FD
  8
0
 10
2920.9079402101288
 20
964.67129240242491
 30
0.0
 11
2915.8742200708862
 21
973.38995143467753
 31
0.0
  0
LINE
  5
42FE
  8
0
 10
2917.6062708784561
 20
976.38995143467776
 30
0.0
 11
2917.957123839542
 21
976.38995143467776
 31
0.0
  0
ARC
  5
42FF
  8
0
 10
2936.457123839542
 20
923.38995143467753
 30
0.0
 40
5.0
 50
90.0
 51
180.0
  0
LINE
  5
4300
  8
0
 10
2999.457123839542
 20
911.88995143467776
 30
0.0
 11
2977.457123839542
 21
911.88995143467776
 31
0.0
  0
LINE
  5
4305
  8
0
 10
2945.957123839542
 20
928.38995143467412
 30
0.0
 11
2945.957123839542
 21
959.38995143467776
 31
0.0
  0
ARC
  5
4306
  8
0
 10
2940.1049402101289
 20
963.99015464971399
 30
0.0
 40
5.1763273479641221
 50
58.000464388176241
 51
121.9995356118237
  0
LINE
  5
4307
  8
0
 10
2941.0989402101318
 20
969.38995143467764
 30
0.0
 11
2942.847940210132
 21
968.37995143467731
 31
0.0
  0
LINE
  5
4308
  8
0
 10
2937.3619402101308
 20
968.37995143467731
 30
0.0
 11
2937.3619402101308
 21
959.38995143467776
 31
0.0
  0
LINE
  5
4309
  8
0
 10
2942.847940210132
 20
968.37995143467731
 30
0.0
 11
2942.847940210132
 21
959.38995143467776
 31
0.0
  0
LINE
  5
430A
  8
0
 10
2926.39394021013
 20
968.37995143467731
 30
0.0
 11
2926.39394021013
 21
959.38995143467776
 31
0.0
  0
ARC
  5
430B
  8
0
 10
2931.87794021013
 20
949.65004606466925
 30
0.0
 40
19.51623967800851
 50
73.680296897684642
 51
106.3197031023153
  0
CIRCLE
  5
430C
  8
0
 10
3104.6607228291909
 20
876.81635830586845
 30
0.0
 40
9.5
  0
CIRCLE
  5
430D
  8
0
 10
3104.6607228291909
 20
791.96354456348297
 30
0.0
 40
9.5
  0
ARC
  5
430E
  8
0
 10
3070.587129700385
 20
770.38995143467764
 30
0.0
 40
2.0
 50
90.0
 51
179.9999999999944
  0
LINE
  5
430F
  8
0
 10
3070.587129700385
 20
772.38995143467776
 30
0.0
 11
3100.587129700381
 21
772.38995143467776
 31
0.0
  0
ARC
  5
4310
  8
0
 10
3082.5871297003869
 20
777.38995143467582
 30
0.0
 40
5.0
 50
270.0
 51
0.000000000000007
  0
LINE
  5
4311
  8
0
 10
3087.5871297003869
 20
784.73111536293061
 30
0.0
 11
3087.5871297003869
 21
777.38995143467582
 31
0.0
  0
LINE
  5
4312
  8
0
 10
3119.0884283789642
 20
968.88995143467582
 30
0.0
 11
3103.5858310199378
 21
968.88995143467582
 31
0.0
  0
ARC
  5
4313
  8
0
 10
3106.5869803596961
 20
957.21469462775156
 30
0.0
 40
11.675256806925161
 50
65.992508275285473
 51
114.00749172474259
  0
LINE
  5
4314
  8
0
 10
3095.0871296987052
 20
913.38995143405555
 30
0.0
 11
3092.8910135634351
 21
924.37053210971953
 31
0.0
  0
LINE
  5
4315
  8
0
 10
3095.0871296987052
 20
913.38995143405816
 30
0.0
 11
3095.0871296989631
 21
891.85515829806525
 31
0.0
  0
LINE
  5
4316
  8
0
 10
3083.3384283789642
 20
968.88995143467582
 30
0.0
 11
3067.8358310199378
 21
968.88995143467582
 31
0.0
  0
ARC
  5
4317
  8
0
 10
3070.8369803596961
 20
957.21469462775156
 30
0.0
 40
11.675256806925161
 50
65.992508275285473
 51
114.00749172474259
  0
LINE
  5
4318
  8
0
 10
3066.0868310199371
 20
967.8799514346756
 30
0.0
 11
3066.0868310199371
 21
958.88995143467582
 31
0.0
  0
LINE
  5
4319
  8
0
 10
3067.835831019936
 20
968.88995143467582
 30
0.0
 11
3066.0868310199371
 21
967.8799514346756
 31
0.0
  0
LINE
  5
431A
  8
0
 10
3061.5079460700399
 20
943.88995143467582
 30
0.0
 11
3061.5079460700399
 21
958.88995143467582
 31
0.0
  0
ARC
  5
431B
  8
0
 10
3063.5079460700399
 20
930.38995143467764
 30
0.0
 40
2.0
 50
180.0
 51
270.0
  0
LINE
  5
431C
  8
0
 10
3061.5079460700399
 20
930.38995143467764
 30
0.0
 11
3061.5079460700399
 21
944.38995143467764
 31
0.0
  0
LINE
  5
431D
  8
0
 10
3085.087428378964
 20
967.8799514346756
 30
0.0
 11
3083.3384283789619
 21
968.88995143467582
 31
0.0
  0
ARC
  5
431E
  8
0
 10
3080.3372790392109
 20
957.21469462777441
 30
0.0
 40
11.67525680690135
 50
65.992508275256924
 51
114.0074917247448
  0
LINE
  5
431F
  8
0
 10
3075.5871296994519
 20
967.8799514346756
 30
0.0
 11
3075.5871296994519
 21
958.88995143467582
 31
0.0
  0
LINE
  5
4320
  8
0
 10
3104.2975378847459
 20
955.89966075832388
 30
0.0
 11
3104.2975378847459
 21
929.95419106189365
 31
0.0
  0
LINE
  5
4321
  8
0
 10
3101.8368310199371
 20
967.8799514346756
 30
0.0
 11
3101.8368310199371
 21
958.88995143467582
 31
0.0
  0
LINE
  5
4322
  8
0
 10
3103.5858310199369
 20
968.88995143467582
 30
0.0
 11
3101.8368310199371
 21
967.8799514346756
 31
0.0
  0
LINE
  5
4323
  8
0
 10
3085.0874283789672
 20
958.88995143467582
 30
0.0
 11
3085.0874283789672
 21
967.8799514346756
 31
0.0
  0
ARC
  5
4324
  8
0
 10
3087.988110184991
 20
923.38995143397005
 30
0.0
 40
5.0
 50
11.30993247470132
 51
90.000000000690477
  0
LINE
  5
4325
  8
0
 10
3139.0871296994478
 20
911.47594237975682
 30
0.0
 11
3139.0871296994478
 21
928.38995143467582
 31
0.0
  0
LINE
  5
4326
  8
0
 10
3155.0871296994542
 20
911.47594237994963
 30
0.0
 11
3155.0871296994542
 21
928.38995143467582
 31
0.0
  0
LINE
  5
4327
  8
0
 10
3120.837428378964
 20
967.8799514346756
 30
0.0
 11
3119.0884283789619
 21
968.88995143467582
 31
0.0
  0
LINE
  5
4328
  8
0
 10
3111.3371296994519
 20
967.8799514346756
 30
0.0
 11
3111.3371296994519
 21
958.88995143467582
 31
0.0
  0
LINE
  5
4329
  8
0
 10
3120.8374283789681
 20
958.88995143467582
 30
0.0
 11
3120.8374283789681
 21
967.8799514346756
 31
0.0
  0
ARC
  5
432A
  8
0
 10
3116.0872790392118
 20
957.21469462777441
 30
0.0
 40
11.67525680690135
 50
65.992508275256924
 51
114.0074917247448
  0
LINE
  5
432B
  8
0
 10
3182.8371296994501
 20
967.8799514346756
 30
0.0
 11
3182.8371296994501
 21
958.88995143467582
 31
0.0
  0
LINE
  5
432C
  8
0
 10
3173.3368310199348
 20
967.8799514346756
 30
0.0
 11
3173.3368310199348
 21
958.88995143467582
 31
0.0
  0
LINE
  5
432D
  8
0
 10
3175.0858310199351
 20
968.88995143467582
 30
0.0
 11
3173.3368310199348
 21
967.8799514346756
 31
0.0
  0
ARC
  5
432E
  8
0
 10
3178.0869803596938
 20
957.21469462775156
 30
0.0
 40
11.675256806925161
 50
65.992508275285473
 51
114.00749172474259
  0
LINE
  5
432F
  8
0
 10
2924.957123839542
 20
1083.389951434676
 30
0.0
 11
2924.957123839542
 21
1080.389951434676
 31
0.0
  0
LINE
  5
4330
  8
0
 10
2931.788980181369
 20
998.72095143467777
 30
0.0
 11
2919.957123839542
 21
998.72095143467777
 31
0.0
  0
LINE
  5
4331
  8
0
 10
2931.788980181369
 20
990.38995143467753
 30
0.0
 11
2922.788980181369
 21
990.38995143467753
 31
0.0
  0
LINE
  5
4332
  8
0
 10
2931.788980181369
 20
982.0589514346774
 30
0.0
 11
2919.957123839542
 21
982.0589514346774
 31
0.0
  0
LINE
  5
4333
  8
0
 10
2890.957123839542
 20
1025.889951434676
 30
0.0
 11
2890.957123839542
 21
1073.389951434676
 31
0.0
  0
ARC
  5
4334
  8
0
 10
2914.457123839542
 20
1017.889951434676
 30
0.0
 40
2.0
 50
0.0
 51
90.0
  0
LINE
  5
4335
  8
0
 10
2912.1482493364952
 20
1027.8899514346749
 30
0.0
 11
2895.6482493364952
 21
1027.8899514346749
 31
0.0
  0
LINE
  5
4336
  8
0
 10
2910.2112493364971
 20
1027.5699514346761
 30
0.0
 11
2910.7302493364969
 21
1027.659951434676
 31
0.0
  0
LINE
  5
4337
  8
0
 10
2913.713249336497
 20
1026.9859514346761
 30
0.0
 11
2912.1482493364952
 21
1027.8899514346749
 31
0.0
  0
LINE
  5
4338
  8
0
 10
2912.8072493364962
 20
1027.423951434675
 30
0.0
 11
2913.713249336497
 21
1026.9869514346749
 31
0.0
  0
LINE
  5
4339
  8
0
 10
2912.308249336495
 20
1027.5699514346761
 30
0.0
 11
2912.8072493364962
 21
1027.423951434675
 31
0.0
  0
LINE
  5
433A
  8
0
 10
2911.7892493364961
 20
1027.659951434676
 30
0.0
 11
2912.308249336495
 21
1027.5699514346761
 31
0.0
  0
LINE
  5
433B
  8
0
 10
2911.2592493364959
 20
1027.689951434676
 30
0.0
 11
2911.7892493364961
 21
1027.659951434676
 31
0.0
  0
LINE
  5
433C
  8
0
 10
2910.7302493364969
 20
1027.659951434676
 30
0.0
 11
2911.2592493364959
 21
1027.689951434676
 31
0.0
  0
ARC
  5
433D
  8
0
 10
2903.8982493364952
 20
1010.226959841562
 30
0.0
 40
17.462601416113358
 50
73.680072331667816
 51
106.3199276683322
  0
LINE
  5
433E
  8
0
 10
2909.7112493364971
 20
1027.423951434675
 30
0.0
 11
2910.2112493364971
 21
1027.5699514346761
 31
0.0
  0
LINE
  5
433F
  8
0
 10
2909.2412493364959
 20
1027.226951434676
 30
0.0
 11
2909.7112493364971
 21
1027.423951434675
 31
0.0
  0
LINE
  5
4340
  8
0
 10
2908.805249336498
 20
1026.9859514346761
 30
0.0
 11
2909.2412493364959
 21
1027.226951434676
 31
0.0
  0
ARC
  5
4341
  8
0
 10
2896.537249336498
 20
1023.0586273692591
 30
0.0
 40
4.6309815714167701
 50
58.000676159490787
 51
121.99932384050931
  0
LINE
  5
4342
  8
0
 10
2895.6482493364952
 20
1027.8899514346749
 30
0.0
 11
2894.083249336496
 21
1026.9859514346761
 31
0.0
  0
LINE
  5
4343
  8
0
 10
2908.805249336498
 20
1026.9859514346761
 30
0.0
 11
2908.805249336498
 21
1019.889951434675
 31
0.0
  0
LINE
  5
4344
  8
0
 10
2913.713249336497
 20
1019.889951434675
 30
0.0
 11
2913.713249336497
 21
1026.9859514346761
 31
0.0
  0
LINE
  5
4345
  8
0
 10
2898.991249336495
 20
1026.9859514346761
 30
0.0
 11
2898.991249336495
 21
1019.889951434675
 31
0.0
  0
LINE
  5
4346
  8
0
 10
2894.083249336496
 20
1026.9859514346761
 30
0.0
 11
2894.083249336496
 21
1019.889951434675
 31
0.0
  0
ARC
  5
4347
  8
0
 10
2896.957123839542
 20
1025.889951434676
 30
0.0
 40
5.9999999999999902
 50
180.0
 51
241.3812544200494
  0
ARC
  5
4348
  8
0
 10
2917.957123839542
 20
1002.389951434677
 30
0.0
 40
2.0
 50
0.0
 51
90.0
  0
LINE
  5
4349
  8
0
 10
2916.457123839542
 20
1017.889951434676
 30
0.0
 11
2916.457123839542
 21
999.38995143467776
 31
0.0
  0
LINE
  5
434A
  8
0
 10
2908.0862493364971
 20
993.38995143467764
 30
0.0
 11
2908.8982493364952
 21
994.20195143467754
 31
0.0
  0
LINE
  5
434B
  8
0
 10
2908.8982493364952
 20
994.20195143467754
 30
0.0
 11
2908.8982493364952
 21
997.38995143467764
 31
0.0
  0
ARC
  5
434C
  8
0
 10
2914.457123839542
 20
999.38995143467776
 30
0.0
 40
2.0
 50
270.0
 51
0.0
  0
LINE
  5
434D
  8
0
 10
2916.457123839542
 20
1004.389951434677
 30
0.0
 11
2917.957123839542
 21
1004.389951434677
 31
0.0
  0
LINE
  5
434E
  8
0
 10
2919.957123839542
 20
1002.389951434677
 30
0.0
 11
2919.957123839542
 21
978.38995143467764
 31
0.0
  0
LINE
  5
434F
  8
0
 10
2922.788980181369
 20
982.0589514346774
 30
0.0
 11
2922.788980181369
 21
998.72095143467777
 31
0.0
  0
ARC
  5
4350
  8
0
 10
2908.1561337162661
 20
989.38995143467764
 30
0.0
 40
8.0
 50
150.00000000000259
 51
151.42812185768909
  0
LINE
  5
4351
  8
0
 10
2898.8982493364952
 20
994.20195143467754
 30
0.0
 11
2899.7102493364969
 21
993.38995143467764
 31
0.0
  0
LINE
  5
4352
  8
0
 10
2898.8982493364952
 20
997.38995143467764
 30
0.0
 11
2898.8982493364952
 21
994.20195143467754
 31
0.0
  0
ARC
  5
4353
  8
0
 10
2908.1561337162661
 20
989.38995143467764
 30
0.0
 40
8.0
 50
150.0000000000027
 51
151.42812185768909
  0
ARC
  5
4354
  8
0
 10
2908.1561337162661
 20
989.38995143467764
 30
0.0
 40
8.0
 50
150.0000000000023
 51
151.42812185768909
  0
ARC
  5
4355
  8
0
 10
2902.957123839542
 20
982.95435566051481
 30
0.0
 40
8.0
 50
130.70570683104279
 51
180.0
  0
ARC
  5
4356
  8
0
 10
2887.957123839542
 20
1000.389951434677
 30
0.0
 40
15.0
 50
310.70570683104222
 51
331.42812185768878
  0
ARC
  5
4357
  8
0
 10
2887.957123839542
 20
1000.389951434677
 30
0.0
 40
15.0
 50
310.70570683104251
 51
331.42812185768901
  0
LINE
  5
4358
  8
0
 10
2908.8982493364952
 20
994.20195143467754
 30
0.0
 11
2898.8982493364952
 21
994.20195143467754
 31
0.0
  0
LINE
  5
4359
  8
0
 10
2899.7102493364969
 20
993.38995143467764
 30
0.0
 11
2908.0862493364971
 21
993.38995143467764
 31
0.0
  0
ARC
  5
435A
  8
0
 10
2922.957123839542
 20
1080.389951434676
 30
0.0
 40
2.0
 50
270.0
 51
0.0
  0
ARC
  5
435B
  8
0
 10
2897.957123839542
 20
1076.389951434676
 30
0.0
 40
2.0
 50
90.0
 51
180.0
  0
ARC
  5
435C
  8
0
 10
2894.457123839542
 20
1074.889951434676
 30
0.0
 40
1.5
 50
270.0
 51
0.0
  0
LINE
  5
435D
  8
0
 10
2895.957123839542
 20
1076.389951434676
 30
0.0
 11
2895.957123839542
 21
1074.889951434676
 31
0.0
  0
LINE
  5
435E
  8
0
 10
2931.788980181369
 20
982.0589514346774
 30
0.0
 11
2931.788980181369
 21
998.72095143467777
 31
0.0
  0
LINE
  5
435F
  8
0
 10
2887.6982889990009
 20
1149.184125637383
 30
0.0
 11
2890.457123839542
 21
1135.389951434676
 31
0.0
  0
ARC
  5
4360
  8
0
 10
2887.7106446171219
 20
1103.4737987312351
 30
0.0
 40
9.7552083333333677
 50
232.65349068554289
 51
307.34650931445702
  0
LINE
  5
4361
  8
0
 10
2901.957123839542
 20
1085.389951434676
 30
0.0
 11
2869.957123839542
 21
1091.0324148173461
 31
0.0
  0
ARC
  5
4362
  8
0
 10
2887.7106446171219
 20
1124.463382064567
 30
0.0
 40
9.7552083333333677
 50
52.653490685543041
 51
127.34650931445699
  0
LINE
  5
4363
  8
0
 10
2858.1214433211562
 20
1132.2185903979
 30
0.0
 11
2858.1214433211562
 21
1095.7185903979009
 31
0.0
  0
LINE
  5
4364
  8
0
 10
2881.7928043579282
 20
1132.2185903979
 30
0.0
 11
2881.7928043579282
 21
1095.7185903979009
 31
0.0
  0
ARC
  5
4365
  8
0
 10
2869.957123839542
 20
1129.739423731233
 30
0.0
 40
36.02083333333254
 50
250.81746569497301
 51
289.18253430502699
  0
ARC
  5
4366
  8
0
 10
2869.957123839542
 20
1098.1977570645679
 30
0.0
 40
36.02083333333254
 50
70.817465694973009
 51
109.182534305027
  0
LINE
  5
4367
  8
0
 10
2895.957123839542
 20
1093.389951434676
 30
0.0
 11
2895.957123839542
 21
1086.447913318927
 31
0.0
  0
ARC
  5
4368
  8
0
 10
2922.957123839542
 20
1083.389951434676
 30
0.0
 40
2.0
 50
0.0
 51
90.0
  0
LINE
  5
4369
  8
0
 10
2893.6284848763162
 20
1132.2185903979021
 30
0.0
 11
2893.6284848763162
 21
1095.7185903979009
 31
0.0
  0
LINE
  5
436A
  8
0
 10
2893.6284848763162
 20
1095.7185903979009
 30
0.0
 11
2895.957123839542
 21
1093.389951434676
 31
0.0
  0
LINE
  5
436B
  8
0
 10
2890.457123839542
 20
1135.389951434676
 30
0.0
 11
2893.6284848763162
 21
1132.2185903979021
 31
0.0
  0
LINE
  5
436C
  8
0
 10
2886.227417985463
 20
1150.389951434676
 30
0.0
 11
2853.6868296936209
 21
1150.389951434676
 31
0.0
  0
ARC
  5
436D
  8
0
 10
2853.6868296936209
 20
1148.889951434676
 30
0.0
 40
1.5
 50
90.0
 51
168.69006752597861
  0
ARC
  5
436E
  8
0
 10
2886.227417985463
 20
1148.889951434676
 30
0.0
 40
1.5
 50
11.30993247402146
 51
90.0
  0
LINE
  5
436F
  8
0
 10
3121.0871296994519
 20
1093.389951434676
 30
0.0
 11
3121.0871296994519
 21
1073.389951434676
 31
0.0
  0
LINE
  5
4370
  8
0
 10
3173.0871296994519
 20
1093.389951434676
 30
0.0
 11
3173.0871296994501
 21
1073.389951434676
 31
0.0
  0
LINE
  5
4371
  8
0
 10
3134.0871296994519
 20
1085.389951434676
 30
0.0
 11
3134.0871296994519
 21
1078.389951434676
 31
0.0
  0
LINE
  5
4372
  8
0
 10
3147.0871296994519
 20
1078.389951434676
 30
0.0
 11
3147.0871296994519
 21
1085.389951434676
 31
0.0
  0
ARC
  5
4373
  8
0
 10
3126.5800697715772
 20
1083.389951434676
 30
0.0
 40
2.0
 50
90.0
 51
180.0
  0
LINE
  5
4374
  8
0
 10
3160.0871296994519
 20
1085.389951434676
 30
0.0
 11
3160.0871296994501
 21
1078.389951434676
 31
0.0
  0
ARC
  5
4375
  8
0
 10
3167.587129699456
 20
1083.389951434676
 30
0.0
 40
2.0
 50
0.0
 51
90.0
  0
ARC
  5
4376
  8
0
 10
3108.8960042024978
 20
1017.447630638216
 30
0.0
 40
10.44232079645921
 50
65.983629264464597
 51
114.0163707355354
  0
LINE
  5
4377
  8
0
 10
3106.2110042025001
 20
1027.8899514346749
 30
0.0
 11
3120.0810042024968
 21
1027.8899514346749
 31
0.0
  0
LINE
  5
4378
  8
0
 10
3108.1460042024992
 20
993.70195143467561
 30
0.0
 11
3118.1460042024992
 21
993.70195143467561
 31
0.0
  0
LINE
  5
4379
  8
0
 10
3108.9580042024968
 20
992.88995143467582
 30
0.0
 11
3108.1460042024992
 21
993.70195143467561
 31
0.0
  0
LINE
  5
437A
  8
0
 10
3102.5871296994519
 20
996.88995143467571
 30
0.0
 11
3134.9627740474011
 21
996.88995143467571
 31
0.0
  0
LINE
  5
437B
  8
0
 10
3100.5871296994519
 20
1017.889951434676
 30
0.0
 11
3100.5871296994519
 21
1008.889951434676
 31
0.0
  0
ARC
  5
437C
  8
0
 10
3102.5871296994519
 20
1017.889951434676
 30
0.0
 40
2.0
 50
90.0
 51
180.0
  0
LINE
  5
437D
  8
0
 10
3104.6460042024978
 20
1026.9859514346749
 30
0.0
 11
3106.2110042024979
 21
1027.8899514346749
 31
0.0
  0
LINE
  5
437E
  8
0
 10
3104.6460042024978
 20
1019.889951434675
 30
0.0
 11
3104.6460042024978
 21
1026.9859514346749
 31
0.0
  0
LINE
  5
437F
  8
0
 10
3100.5871296994519
 20
1008.889951434676
 30
0.0
 11
3100.5871296994519
 21
998.88995143467582
 31
0.0
  0
ARC
  5
4380
  8
0
 10
3102.5871296994519
 20
998.88995143467582
 30
0.0
 40
2.0
 50
180.0
 51
270.0
  0
LINE
  5
4381
  8
0
 10
3108.1460042024992
 20
993.70195143467561
 30
0.0
 11
3108.1460042024992
 21
996.88995143467571
 31
0.0
  0
LINE
  5
4382
  8
0
 10
3126.0871296994519
 20
1025.889951434676
 30
0.0
 11
3126.0871296994519
 21
1073.389951434676
 31
0.0
  0
LINE
  5
4383
  8
0
 10
3168.0871296994519
 20
1025.889951434676
 30
0.0
 11
3168.0871296994519
 21
1073.389951434676
 31
0.0
  0
LINE
  5
4384
  8
0
 10
3138.7561297003831
 20
989.88995143467594
 30
0.0
 11
3147.0871297003828
 21
981.55895143467558
 31
0.0
  0
LINE
  5
4385
  8
0
 10
3147.0871297003828
 20
998.22095143467595
 30
0.0
 11
3138.7561297003831
 21
989.88995143467594
 31
0.0
  0
CIRCLE
  5
4386
  8
0
 10
3147.0871297003828
 20
989.88995143467594
 30
0.0
 40
8.3309999999999036
  0
ARC
  5
4387
  8
0
 10
3120.0871296994519
 20
1025.889951434676
 30
0.0
 40
5.9999999999999902
 50
285.0589319384797
 51
0.0
  0
LINE
  5
4388
  8
0
 10
3120.0810042024968
 20
1027.8899514346749
 30
0.0
 11
3121.6460042024978
 21
1026.9859514346749
 31
0.0
  0
LINE
  5
4389
  8
0
 10
3121.6460042024978
 20
1026.9859514346749
 30
0.0
 11
3121.6460042024978
 21
1019.889951434675
 31
0.0
  0
LINE
  5
438A
  8
0
 10
3113.1460042024969
 20
1026.9859514346749
 30
0.0
 11
3113.1460042024969
 21
1019.889951434675
 31
0.0
  0
ARC
  5
438B
  8
0
 10
3117.3960042024969
 20
1017.447630638216
 30
0.0
 40
10.44232079645947
 50
65.983629264464611
 51
114.0163707355354
  0
ARC
  5
438C
  8
0
 10
3114.0871296994519
 20
982.45435566051322
 30
0.0
 40
8.0
 50
0.0
 51
49.294293168957132
  0
ARC
  5
438D
  8
0
 10
3129.0871296994519
 20
999.88995143467582
 30
0.0
 40
15.0
 50
208.57187814231119
 51
229.29429316895769
  0
ARC
  5
438E
  8
0
 10
3108.8881198227282
 20
988.88995143467594
 30
0.0
 40
8.0
 50
28.571878142310769
 51
29.999999999997598
  0
LINE
  5
438F
  8
0
 10
3117.334004202497
 20
992.88995143467582
 30
0.0
 11
3108.9580042024968
 21
992.88995143467582
 31
0.0
  0
ARC
  5
4390
  8
0
 10
3108.8881198227282
 20
988.88995143467594
 30
0.0
 40
8.0
 50
28.571878142310769
 51
29.999999999997382
  0
LINE
  5
4391
  8
0
 10
3118.1460042024992
 20
993.70195143467561
 30
0.0
 11
3117.334004202497
 21
992.88995143467582
 31
0.0
  0
LINE
  5
4392
  8
0
 10
3118.1460042024992
 20
996.88995143467571
 30
0.0
 11
3118.1460042024992
 21
993.70195143467561
 31
0.0
  0
LINE
  5
4393
  8
0
 10
3181.0282551964069
 20
1026.9859514346749
 30
0.0
 11
3181.0282551964069
 21
1019.889951434675
 31
0.0
  0
LINE
  5
4394
  8
0
 10
3155.4181297003829
 20
989.88995143467594
 30
0.0
 11
3147.0871297003828
 21
998.22095143467595
 31
0.0
  0
LINE
  5
4395
  8
0
 10
3147.0871297003828
 20
981.55895143467558
 30
0.0
 11
3155.4181297003829
 21
989.88995143467594
 31
0.0
  0
ARC
  5
4396
  8
0
 10
3174.0871296994519
 20
1025.889951434676
 30
0.0
 40
5.9999999999999281
 50
179.99999999999969
 51
254.9410680615203
  0
LINE
  5
4397
  8
0
 10
3172.528255196406
 20
1026.9859514346749
 30
0.0
 11
3174.093255196407
 21
1027.8899514346749
 31
0.0
  0
LINE
  5
4398
  8
0
 10
3172.528255196406
 20
1019.889951434675
 30
0.0
 11
3172.528255196406
 21
1026.9859514346749
 31
0.0
  0
ARC
  5
4399
  8
0
 10
3180.0871296994519
 20
982.45435566051322
 30
0.0
 40
8.0
 50
130.7057068310429
 51
180.0
  0
ARC
  5
439A
  8
0
 10
3165.0871296994519
 20
999.88995143467582
 30
0.0
 40
15.0
 50
310.70570683104251
 51
331.42812185768878
  0
ARC
  5
439B
  8
0
 10
3165.0871296994519
 20
999.88995143467582
 30
0.0
 40
15.0
 50
310.70570683104228
 51
331.42812185768878
  0
ARC
  5
439C
  8
0
 10
3185.2861395761761
 20
988.88995143467594
 30
0.0
 40
8.0
 50
150.00000000000219
 51
151.42812185768921
  0
ARC
  5
439D
  8
0
 10
3185.2861395761761
 20
988.88995143467594
 30
0.0
 40
8.0
 50
150.0000000000027
 51
151.42812185768921
  0
LINE
  5
439E
  8
0
 10
3176.0282551964051
 20
996.88995143467571
 30
0.0
 11
3176.0282551964051
 21
993.70195143467561
 31
0.0
  0
LINE
  5
439F
  8
0
 10
3176.0282551964051
 20
993.70195143467561
 30
0.0
 11
3176.8402551964068
 21
992.88995143467582
 31
0.0
  0
ARC
  5
43A0
  8
0
 10
3185.2861395761761
 20
988.88995143467594
 30
0.0
 40
8.0
 50
150.00000000000259
 51
151.42812185768921
  0
ARC
  5
43A1
  8
0
 10
3176.7782551964069
 20
1017.447630638216
 30
0.0
 40
10.44232079645921
 50
65.983629264464597
 51
114.0163707355354
  0
LINE
  5
43A2
  8
0
 10
3121.0871296994542
 20
1078.389951434676
 30
0.0
 11
3173.0871296994519
 21
1078.389951434676
 31
0.0
  0
LINE
  5
43A3
  8
0
 10
3121.0871296994519
 20
1073.389951434676
 30
0.0
 11
3173.0871296994501
 21
1073.389951434676
 31
0.0
  0
ARC
  5
43A4
  8
0
 10
3126.5800697715772
 20
1080.389951434676
 30
0.0
 40
2.0
 50
180.0
 51
270.0
  0
LINE
  5
43A5
  8
0
 10
3124.5800697715772
 20
1083.389951434676
 30
0.0
 11
3124.5800697715772
 21
1080.389951434676
 31
0.0
  0
ARC
  5
43A6
  8
0
 10
3167.587129699456
 20
1080.389951434676
 30
0.0
 40
2.0
 50
270.0
 51
0.0
  0
LINE
  5
43A7
  8
0
 10
3169.5871296994542
 20
1083.389951434676
 30
0.0
 11
3169.587129699456
 21
1080.389951434676
 31
0.0
  0
LINE
  5
43A8
  8
0
 10
3129.345964539993
 20
1149.184125637383
 30
0.0
 11
3126.5871296994519
 21
1135.389951434676
 31
0.0
  0
LINE
  5
43A9
  8
0
 10
3164.8282948589108
 20
1149.184125637383
 30
0.0
 11
3167.5871296994519
 21
1135.389951434676
 31
0.0
  0
LINE
  5
43AA
  8
0
 10
3121.0871296994542
 20
1085.389951434676
 30
0.0
 11
3173.0871296994519
 21
1085.389951434676
 31
0.0
  0
LINE
  5
43AB
  8
0
 10
3126.5871296994519
 20
1135.389951434676
 30
0.0
 11
3167.5871296994519
 21
1135.389951434676
 31
0.0
  0
LINE
  5
43AC
  8
0
 10
3121.0871296994519
 20
1093.389951434676
 30
0.0
 11
3173.0871296994519
 21
1093.389951434676
 31
0.0
  0
ARC
  5
43AD
  8
0
 10
3136.8371296994542
 20
1117.240010527503
 30
0.0
 40
18.149940907172681
 50
55.615752531947827
 51
124.38424746805551
  0
ARC
  5
43AE
  8
0
 10
3136.8371296994542
 20
1111.5398923418491
 30
0.0
 40
18.149940907172681
 50
235.61575253194439
 51
304.38424746805219
  0
LINE
  5
43AF
  8
0
 10
3126.5871296994519
 20
1096.561312471453
 30
0.0
 11
3121.0871296994519
 21
1093.389951434676
 31
0.0
  0
LINE
  5
43B0
  8
0
 10
3126.5871296994519
 20
1135.389951434676
 30
0.0
 11
3126.5871296994519
 21
1096.561312471453
 31
0.0
  0
ARC
  5
43B1
  8
0
 10
3157.3371296994519
 20
1117.240010527503
 30
0.0
 40
18.149940907172681
 50
55.615752531944452
 51
124.38424746805219
  0
ARC
  5
43B2
  8
0
 10
3157.3371296994519
 20
1111.5398923418491
 30
0.0
 40
18.149940907172681
 50
235.61575253194781
 51
304.38424746805549
  0
LINE
  5
43B3
  8
0
 10
3147.0871296994519
 20
1132.2185903979
 30
0.0
 11
3147.0871296994519
 21
1096.5613124714509
 31
0.0
  0
LINE
  5
43B4
  8
0
 10
3167.5871296994542
 20
1096.561312471453
 30
0.0
 11
3173.0871296994519
 21
1093.389951434676
 31
0.0
  0
LINE
  5
43B5
  8
0
 10
3167.5871296994519
 20
1135.389951434677
 30
0.0
 11
3167.5871296994519
 21
1096.561312471453
 31
0.0
  0
LINE
  5
43B6
  8
0
 10
3130.8168355535308
 20
1150.389951434676
 30
0.0
 11
3163.3574238453748
 21
1150.389951434676
 31
0.0
  0
ARC
  5
43B7
  8
0
 10
3130.8168355535308
 20
1148.889951434676
 30
0.0
 40
1.5
 50
90.0
 51
168.69006752597849
  0
ARC
  5
43B8
  8
0
 10
3163.3574238453748
 20
1148.889951434676
 30
0.0
 40
1.5
 50
11.30993247402138
 51
90.0
  0
LINE
  5
43BC
  8
0
 10
3193.587129700385
 20
772.38995143467776
 30
0.0
 11
3223.5871297003828
 21
772.38995143467776
 31
0.0
  0
LINE
  5
43BD
  8
0
 10
3206.5871297003819
 20
784.73111536293254
 30
0.0
 11
3206.58712970038
 21
777.38995143467582
 31
0.0
  0
ARC
  5
43BE
  8
0
 10
3211.58712970038
 20
777.38995143467582
 30
0.0
 40
5.0
 50
180.0
 51
270.0
  0
ARC
  5
43BF
  8
0
 10
3223.5871297003828
 20
770.38995143467764
 30
0.0
 40
2.0
 50
359.99999999999818
 51
90.0
  0
LINE
  5
43C0
  8
0
 10
3199.08712970038
 20
913.38995143467582
 30
0.0
 11
3201.2832458355192
 21
924.37053211036607
 31
0.0
  0
LINE
  5
43C1
  8
0
 10
3199.08712970038
 20
913.38995143467935
 30
0.0
 11
3199.08712970038
 21
891.85515829935514
 31
0.0
  0
LINE
  5
43C2
  8
0
 10
3226.3384283789642
 20
968.88995143467582
 30
0.0
 11
3210.8358310199378
 21
968.88995143467582
 31
0.0
  0
ARC
  5
43C3
  8
0
 10
3223.3372790392118
 20
957.21469462777441
 30
0.0
 40
11.67525680690135
 50
65.992508275256924
 51
114.0074917247448
  0
LINE
  5
43C4
  8
0
 10
3218.5871296994519
 20
967.8799514346756
 30
0.0
 11
3218.5871296994519
 21
958.88995143467582
 31
0.0
  0
LINE
  5
43C5
  8
0
 10
3209.0868310199371
 20
967.8799514346756
 30
0.0
 11
3209.0868310199371
 21
958.88995143467582
 31
0.0
  0
LINE
  5
43C6
  8
0
 10
3210.8358310199369
 20
968.88995143467582
 30
0.0
 11
3209.0868310199371
 21
967.8799514346756
 31
0.0
  0
ARC
  5
43C7
  8
0
 10
3213.8369803596961
 20
957.21469462775156
 30
0.0
 40
11.675256806925161
 50
65.992508275285473
 51
114.00749172474259
  0
LINE
  5
43C8
  8
0
 10
3192.3374283789622
 20
967.8799514346756
 30
0.0
 11
3190.5884283789601
 21
968.88995143467582
 31
0.0
  0
LINE
  5
43C9
  8
0
 10
3192.3374283789658
 20
958.88995143467582
 30
0.0
 11
3192.3374283789658
 21
967.8799514346756
 31
0.0
  0
ARC
  5
43CA
  8
0
 10
3206.1861492139728
 20
923.38995143467582
 30
0.0
 40
5.0
 50
90.0
 51
168.6900675259846
  0
LINE
  5
43CB
  8
0
 10
3189.8767215134299
 20
955.89966075832388
 30
0.0
 11
3189.8767215134299
 21
929.95419106189365
 31
0.0
  0
LINE
  5
43CC
  8
0
 10
3228.087428378964
 20
967.8799514346756
 30
0.0
 11
3226.3384283789619
 21
968.88995143467582
 31
0.0
  0
LINE
  5
43CD
  8
0
 10
3228.0874283789672
 20
958.88995143467582
 30
0.0
 11
3228.0874283789672
 21
967.8799514346756
 31
0.0
  0
LINE
  5
43CE
  8
0
 10
3232.6663133288662
 20
943.88995143467582
 30
0.0
 11
3232.6663133288662
 21
958.88995143467582
 31
0.0
  0
ARC
  5
43CF
  8
0
 10
3230.6663133288662
 20
930.389951434674
 30
0.0
 40
2.0
 50
270.0
 51
0.0
  0
LINE
  5
43D0
  8
0
 10
3232.6663133288662
 20
930.389951434674
 30
0.0
 11
3232.6663133288662
 21
944.38995143467764
 31
0.0
  0
LINE
  5
43EB
  8
0
 10
3185.216255196407
 20
992.88995143467582
 30
0.0
 11
3186.0282551964051
 21
993.70195143467561
 31
0.0
  0
LINE
  5
43EC
  8
0
 10
3193.5871296994519
 20
1017.889951434676
 30
0.0
 11
3193.5871296994519
 21
1008.889951434676
 31
0.0
  0
ARC
  5
43ED
  8
0
 10
3191.5871296994519
 20
1017.889951434676
 30
0.0
 40
2.0
 50
359.99999999999972
 51
90.0
  0
LINE
  5
43EE
  8
0
 10
3187.963255196406
 20
1027.8899514346749
 30
0.0
 11
3189.5282551964069
 21
1026.9859514346749
 31
0.0
  0
LINE
  5
43EF
  8
0
 10
3189.5282551964069
 20
1026.9859514346749
 30
0.0
 11
3189.5282551964069
 21
1019.889951434675
 31
0.0
  0
LINE
  5
43F0
  8
0
 10
3193.5871296994519
 20
1008.889951434676
 30
0.0
 11
3193.5871296994519
 21
998.88995143467582
 31
0.0
  0
ARC
  5
43F1
  8
0
 10
3191.5871296994519
 20
998.88995143467582
 30
0.0
 40
2.0
 50
270.0
 51
0.0
  0
LINE
  5
43F2
  8
0
 10
3186.0282551964051
 20
993.70195143467561
 30
0.0
 11
3186.0282551964051
 21
996.88995143467571
 31
0.0
  0
LINE
  5
4491
  8
0
 10
2945.957123839542
 20
1439.830970301864
 30
0.0
 11
2945.957123839542
 21
1511.3309702997899
 31
0.0
  0
CIRCLE
  5
4494
  8
0
 10
2869.957123839542
 20
1475.5809703027969
 30
0.0
 40
17.5
  0
ARC
  5
4495
  8
0
 10
2869.957123839542
 20
1475.5809703027969
 30
0.0
 40
26.0
 50
284.79648411861842
 51
75.203515881381534
  0
LINE
  5
4496
  8
0
 10
2881.7928043579282
 20
1455.0809703027969
 30
0.0
 11
2893.6284848763162
 21
1475.5809703027969
 31
0.0
  0
LINE
  5
4497
  8
0
 10
2924.957123839542
 20
1453.0809703027969
 30
0.0
 11
2924.957123839542
 21
1463.0809703027969
 31
0.0
  0
LINE
  5
4498
  8
0
 10
2926.3929402101298
 20
1430.330970301864
 30
0.0
 11
2920.9079402101288
 21
1439.830970301864
 31
0.0
  0
LINE
  5
4499
  8
0
 10
2920.9079402101288
 20
1439.830970301864
 30
0.0
 11
2926.3929402101298
 21
1449.330970301864
 31
0.0
  0
LINE
  5
449A
  8
0
 10
2876.9967157527371
 20
1391.8880396142461
 30
0.0
 11
2938.9175320248378
 21
1427.638039614247
 31
0.0
  0
CIRCLE
  5
449B
  8
0
 10
2931.87794021013
 20
1439.830970301864
 30
0.0
 40
9.2205300000000001
  0
CIRCLE
  5
449C
  8
0
 10
2869.957123839542
 20
1404.0809703018649
 30
0.0
 40
9.2205300000000001
  0
LINE
  5
449D
  8
0
 10
2858.9873825035888
 20
1404.0811196416209
 30
0.0
 11
2864.4721238395418
 21
1413.581268981379
 31
0.0
  0
LINE
  5
449E
  8
0
 10
2875.441865175495
 20
1413.5811196416209
 30
0.0
 11
2880.926865175496
 21
1404.0808209621059
 31
0.0
  0
POLYLINE
  5
449F
  8
0
 66
     1
 10
0.0
 20
0.0
 30
0.0
  0
VERTEX
  5
62C9
  8
0
 10
2885.991135531181
 20
1397.0809703027969
 30
0.0
  0
VERTEX
  5
62CA
  8
0
 10
2899.9977732802022
 20
1397.0809703027969
 30
0.0
 42
0.1989123673796566
  0
VERTEX
  5
62CB
  8
0
 10
2904.2230592319488
 20
1398.831141048915
 30
0.0
  0
VERTEX
  5
62CC
  8
0
 10
2924.987381805508
 20
1419.5954636224731
 30
0.0
 42
0.1989123673796566
  0
SEQEND
  5
62CD
  8
0
  0
ARC
  5
44A0
  8
0
 10
2869.9571239380289
 20
1404.080970301864
 30
0.0
 40
14.07918362941264
 50
239.9999999999998
 51
299.99999999999977
  0
LINE
  5
44A1
  8
0
 10
2880.926865175496
 20
1404.0808209621059
 30
0.0
 11
2875.442123839543
 21
1394.580671622349
 31
0.0
  0
LINE
  5
44A2
  8
0
 10
2864.472382503589
 20
1394.5808209621059
 30
0.0
 11
2858.9873825035888
 21
1404.0811196416209
 31
0.0
  0
LINE
  5
44A3
  8
0
 10
2875.442123839543
 20
1394.580671622349
 30
0.0
 11
2864.472382503589
 21
1394.5808209621059
 31
0.0
  0
LINE
  5
44A4
  8
0
 10
2869.957123839542
 20
1450.0809703027969
 30
0.0
 11
2924.957123839542
 21
1453.0809703027969
 31
0.0
  0
LINE
  5
44A5
  8
0
 10
2858.1214433211562
 20
1455.0809703027969
 30
0.0
 11
2881.7928043579282
 21
1455.0809703027969
 31
0.0
  0
LINE
  5
44A6
  8
0
 10
2864.4721238395418
 20
1413.581268981379
 30
0.0
 11
2875.441865175495
 21
1413.5811196416209
 31
0.0
  0
ARC
  5
44A7
  8
0
 10
2903.8982255041342
 20
1441.639871463716
 30
0.0
 40
12.5589
 50
270.0
 51
0.0
  0
LINE
  5
44A8
  8
0
 10
2898.991251001089
 20
1450.139845966761
 30
0.0
 11
2908.8052510010871
 21
1450.139845966761
 31
0.0
  0
LINE
  5
44A9
  8
0
 10
2908.8052510010871
 20
1433.139845966761
 30
0.0
 11
2898.991251001089
 21
1433.139845966761
 31
0.0
  0
LINE
  5
44AA
  8
0
 10
2898.991251001089
 20
1433.139845966761
 30
0.0
 11
2894.0832510010878
 21
1441.6398459667621
 31
0.0
  0
LINE
  5
44AB
  8
0
 10
2913.713251001087
 20
1441.6398459667621
 30
0.0
 11
2908.8052510010871
 21
1433.139845966761
 31
0.0
  0
CIRCLE
  5
44AC
  8
0
 10
2903.8982510010878
 20
1441.6398459667621
 30
0.0
 40
8.2499099999999999
  0
LINE
  5
44AD
  8
0
 10
2894.0832510010878
 20
1441.6398459667621
 30
0.0
 11
2898.991251001089
 21
1450.139845966761
 31
0.0
  0
LINE
  5
44AE
  8
0
 10
2908.8052510010871
 20
1450.139845966761
 30
0.0
 11
2913.713251001087
 21
1441.6398459667621
 31
0.0
  0
LINE
  5
44AF
  8
0
 10
2916.4571255041342
 20
1441.639871463716
 30
0.0
 11
2916.4571255041342
 21
1452.6173340299561
 31
0.0
  0
ARC
  5
44B1
  8
0
 10
2931.87794021013
 20
1439.830970301864
 30
0.0
 40
14.079183629412441
 50
300.00000000000028
 51
0.0000000000004627
  0
LINE
  5
44B2
  8
0
 10
2942.8479402101289
 20
1439.830970301864
 30
0.0
 11
2937.3629402101301
 21
1430.330970301864
 31
0.0
  0
LINE
  5
44B3
  8
0
 10
2937.3629402101301
 20
1449.330970301864
 30
0.0
 11
2942.8479402101289
 21
1439.830970301864
 31
0.0
  0
LINE
  5
44B4
  8
0
 10
2936.3526434404048
 20
1448.5805569591671
 30
0.0
 11
2935.457123839542
 21
1448.5805982608979
 31
0.0
  0
LINE
  5
44B5
  8
0
 10
2935.457123839542
 20
1448.580970302796
 30
0.0
 11
2936.3519275082372
 21
1448.580970302796
 31
0.0
  0
POLYLINE
  5
44B6
  8
0
 66
     1
 10
0.0
 20
0.0
 30
0.0
  0
VERTEX
  5
62CE
  8
0
 10
2945.957123839542
 20
1440.6795304437819
 30
0.0
 42
0.1303056406480723
  0
VERTEX
  5
62CF
  8
0
 10
2947.9087276420578
 20
1443.039701524008
 30
0.0
  0
SEQEND
  5
62D0
  8
0
  0
LINE
  5
44B9
  8
0
 10
2926.3929402101298
 20
1449.330970301864
 30
0.0
 11
2937.3629402101301
 21
1449.330970301864
 31
0.0
  0
LINE
  5
44BA
  8
0
 10
2937.3629402101301
 20
1430.330970301864
 30
0.0
 11
2926.3929402101298
 21
1430.330970301864
 31
0.0
  0
LINE
  5
44BB
  8
0
 10
2926.3929402101298
 20
1501.830671622349
 30
0.0
 11
2920.9081988741759
 21
1511.3308209621059
 31
0.0
  0
LINE
  5
44BC
  8
0
 10
2931.788980181369
 20
1483.9119703027959
 30
0.0
 11
2919.957123839542
 21
1483.9119703027959
 31
0.0
  0
LINE
  5
44BD
  8
0
 10
2931.788980181369
 20
1475.5809703027969
 30
0.0
 11
2922.788980181369
 21
1475.5809703027969
 31
0.0
  0
LINE
  5
44BE
  8
0
 10
2931.788980181369
 20
1467.249970302797
 30
0.0
 11
2919.957123839542
 21
1467.249970302797
 31
0.0
  0
LINE
  5
44BF
  8
0
 10
2920.9081988741759
 20
1511.3308209621059
 30
0.0
 11
2926.393198874177
 21
1520.8311196416221
 31
0.0
  0
CIRCLE
  5
44C0
  8
0
 10
2931.87794021013
 20
1511.330970301864
 30
0.0
 40
9.2205300000000001
  0
LINE
  5
44C1
  8
0
 10
2938.917532022142
 20
1523.5239009889631
 30
0.0
 11
2876.9967156190528
 21
1559.273900989481
 31
0.0
  0
ARC
  5
44C2
  8
0
 10
2903.8982255041342
 20
1509.522071463716
 30
0.0
 40
12.5589
 50
0.0
 51
90.0
  0
LINE
  5
44C3
  8
0
 10
2894.0832510010878
 20
1509.5220969606701
 30
0.0
 11
2898.991251001089
 21
1518.0220969606701
 31
0.0
  0
LINE
  5
44C4
  8
0
 10
2908.8052510010871
 20
1518.0220969606701
 30
0.0
 11
2913.713251001087
 21
1509.5220969606701
 31
0.0
  0
CIRCLE
  5
44C5
  8
0
 10
2903.8982510010878
 20
1509.5220969606701
 30
0.0
 40
8.2499099999999999
  0
LINE
  5
44C6
  8
0
 10
2893.6284848763162
 20
1475.5809703027969
 30
0.0
 11
2881.7928043579282
 21
1496.0809703027969
 31
0.0
  0
LINE
  5
44C7
  8
0
 10
2869.957123839542
 20
1501.0809703027969
 30
0.0
 11
2924.957123839542
 21
1498.0809703027969
 31
0.0
  0
LINE
  5
44C8
  8
0
 10
2884.3908805692831
 20
1475.5809703027969
 30
0.0
 11
2877.1740022044128
 21
1488.0809703027969
 31
0.0
  0
LINE
  5
44C9
  8
0
 10
2877.1740022044128
 20
1463.0809703027969
 30
0.0
 11
2884.3908805692831
 21
1475.5809703027969
 31
0.0
  0
LINE
  5
44CA
  8
0
 10
2855.5233671098008
 20
1475.5809703027969
 30
0.0
 11
2862.7402454746721
 21
1488.0809703027969
 31
0.0
  0
LINE
  5
44CB
  8
0
 10
2862.7402454746721
 20
1463.0809703027969
 30
0.0
 11
2877.1740022044128
 21
1463.0809703027969
 31
0.0
  0
LINE
  5
44CC
  8
0
 10
2862.7402454746721
 20
1463.0809703027969
 30
0.0
 11
2855.5233671098008
 21
1475.5809703027969
 31
0.0
  0
LINE
  5
44CD
  8
0
 10
2858.1214433211562
 20
1496.0809703027969
 30
0.0
 11
2881.7928043579282
 21
1496.0809703027969
 31
0.0
  0
LINE
  5
44CE
  8
0
 10
2862.7402454746721
 20
1488.0809703027969
 30
0.0
 11
2877.1740022044128
 21
1488.0809703027969
 31
0.0
  0
LINE
  5
44CF
  8
0
 10
2904.957123839542
 20
1475.5809703027969
 30
0.0
 11
2912.1740022044119
 21
1488.0809703027969
 31
0.0
  0
LINE
  5
44D0
  8
0
 10
2919.957123839542
 20
1488.0809703027969
 30
0.0
 11
2919.957123839542
 21
1463.0809703027969
 31
0.0
  0
LINE
  5
44D1
  8
0
 10
2916.4571255041342
 20
1463.0809703027969
 30
0.0
 11
2916.4571255041342
 21
1488.0809703027969
 31
0.0
  0
LINE
  5
44D2
  8
0
 10
2922.788980181369
 20
1467.249970302797
 30
0.0
 11
2922.788980181369
 21
1483.9119703027959
 31
0.0
  0
LINE
  5
44D3
  8
0
 10
2912.1740022044119
 20
1463.0809703027969
 30
0.0
 11
2924.957123839542
 21
1463.0809703027969
 31
0.0
  0
LINE
  5
44D4
  8
0
 10
2904.957123839542
 20
1475.5809703027969
 30
0.0
 11
2912.1740022044119
 21
1463.0809703027969
 31
0.0
  0
LINE
  5
44D5
  8
0
 10
2916.4571255041342
 20
1498.5446065756371
 30
0.0
 11
2916.4571255041342
 21
1509.522071463716
 31
0.0
  0
LINE
  5
44D6
  8
0
 10
2912.1740022044119
 20
1488.0809703027969
 30
0.0
 11
2924.957123839542
 21
1488.0809703027969
 31
0.0
  0
LINE
  5
44D7
  8
0
 10
2924.957123839542
 20
1488.0809703027969
 30
0.0
 11
2924.957123839542
 21
1498.0809703027969
 31
0.0
  0
LINE
  5
44D8
  8
0
 10
2908.8052510010871
 20
1501.0220969606701
 30
0.0
 11
2898.991251001089
 21
1501.0220969606701
 31
0.0
  0
LINE
  5
44D9
  8
0
 10
2898.991251001089
 20
1501.0220969606701
 30
0.0
 11
2894.0832510010878
 21
1509.5220969606701
 31
0.0
  0
LINE
  5
44DA
  8
0
 10
2913.713251001087
 20
1509.5220969606701
 30
0.0
 11
2908.8052510010871
 21
1501.0220969606701
 31
0.0
  0
POLYLINE
  5
44DB
  8
0
 66
     1
 10
0.0
 20
0.0
 30
0.0
  0
VERTEX
  5
62D1
  8
0
 10
2924.9873818548058
 20
1531.5664769338221
 30
0.0
  0
VERTEX
  5
62D2
  8
0
 10
2904.2230592319488
 20
1552.330799556679
 30
0.0
 42
0.1989123673796566
  0
VERTEX
  5
62D3
  8
0
 10
2899.9977732802022
 20
1554.0809703027969
 30
0.0
  0
VERTEX
  5
62D4
  8
0
 10
2885.9911354131641
 20
1554.0809703027969
 30
0.0
 42
0.1989123673796567
  0
SEQEND
  5
62D5
  8
0
  0
ARC
  5
44DC
  8
0
 10
2869.9571238043468
 20
1547.080970301864
 30
0.0
 40
14.079183629412929
 50
60.000000000000021
 51
119.9999999999999
  0
LINE
  5
44DD
  8
0
 10
2864.4721238395418
 20
1556.581268981379
 30
0.0
 11
2875.441865175495
 21
1556.5811196416209
 31
0.0
  0
LINE
  5
44DE
  8
0
 10
2858.9873825035902
 20
1547.0811196416209
 30
0.0
 11
2864.4721238395418
 21
1556.581268981379
 31
0.0
  0
LINE
  5
44DF
  8
0
 10
2875.441865175495
 20
1556.5811196416209
 30
0.0
 11
2880.926865175496
 21
1547.0808209621059
 31
0.0
  0
LINE
  5
44E0
  8
0
 10
2875.442123839543
 20
1537.580671622349
 30
0.0
 11
2864.472382503589
 21
1537.5808209621059
 31
0.0
  0
LINE
  5
44E1
  8
0
 10
2880.926865175496
 20
1547.0808209621059
 30
0.0
 11
2875.442123839543
 21
1537.580671622349
 31
0.0
  0
LINE
  5
44E2
  8
0
 10
2864.472382503589
 20
1537.5808209621059
 30
0.0
 11
2858.9873825035902
 21
1547.0811196416209
 31
0.0
  0
CIRCLE
  5
44E3
  8
0
 10
2869.957123839542
 20
1547.080970301864
 30
0.0
 40
9.2205300000000001
  0
LINE
  5
44E4
  8
0
 10
2898.991251001089
 20
1518.0220969606701
 30
0.0
 11
2908.8052510010871
 21
1518.0220969606701
 31
0.0
  0
ARC
  5
44E5
  8
0
 10
2972.457123839542
 20
1516.1409415304111
 30
0.0
 40
5.0
 50
282.17729778841959
 51
0.0
  0
ARC
  5
44E7
  8
0
 10
2931.87794021013
 20
1511.3309702997899
 30
0.0
 40
14.07918362941245
 50
0.0
 51
60.000000012665183
  0
LINE
  5
44E8
  8
0
 10
2937.3629402101301
 20
1520.831268981379
 30
0.0
 11
2942.8476815460799
 21
1511.3311196416209
 31
0.0
  0
LINE
  5
44E9
  8
0
 10
2942.8476815460799
 20
1511.3311196416209
 30
0.0
 11
2937.3626815460821
 21
1501.8308209621059
 31
0.0
  0
ARC
  5
44EA
  8
0
 10
2985.957123839542
 20
1453.5809703027969
 30
0.0
 40
59.0
 50
102.17729778841959
 51
112.4176975363152
  0
LINE
  5
44EB
  8
0
 10
2936.3526434404048
 20
1502.581383646426
 30
0.0
 11
2935.457123839542
 21
1502.581342344695
 31
0.0
  0
POLYLINE
  5
44EC
  8
0
 66
     1
 10
0.0
 20
0.0
 30
0.0
  0
VERTEX
  5
62D6
  8
0
 10
2947.9087276419691
 20
1508.1222390815849
 30
0.0
 42
0.0886373403690248
  0
VERTEX
  5
62D7
  8
0
 10
2946.7069530934241
 20
1509.8469056952031
 30
0.0
  0
SEQEND
  5
62D8
  8
0
  0
POLYLINE
  5
44ED
  8
0
 66
     1
 10
0.0
 20
0.0
 30
0.0
  0
VERTEX
  5
62D9
  8
0
 10
2946.7069530934241
 20
1509.8469056952031
 30
0.0
  0
VERTEX
  5
62DA
  8
0
 10
2945.957123839542
 20
1510.5967349490841
 30
0.0
 42
0.1989123673796566
  0
SEQEND
  5
62DB
  8
0
  0
LINE
  5
44EE
  8
0
 10
2931.788980181369
 20
1467.249970302797
 30
0.0
 11
2931.788980181369
 21
1483.9119703027959
 31
0.0
  0
LINE
  5
44EF
  8
0
 10
2937.3626815460821
 20
1501.8308209621059
 30
0.0
 11
2926.3929402101298
 21
1501.830671622349
 31
0.0
  0
LINE
  5
44F1
  8
0
 10
2926.393198874177
 20
1520.8311196416221
 30
0.0
 11
2937.3629402101301
 21
1520.831268981379
 31
0.0
  0
LINE
  5
44FA
  8
0
 10
1467.9700237720181
 20
1842.7534124685089
 30
0.0
 11
1530.9947737720181
 21
1842.7534124685089
 31
0.0
  0
LINE
  5
44FB
  8
0
 10
1499.4812737720169
 20
1849.055662468508
 30
0.0
 11
1480.8490237720171
 21
1849.055662468508
 31
0.0
  0
LINE
  5
45CA
  8
0
 10
1480.8490237720171
 20
1855.3579124685079
 30
0.0
 11
1467.9700237720181
 21
1842.7534124685089
 31
0.0
  0
LINE
  5
45CB
  8
0
 10
1480.8490237720171
 20
1849.055662468508
 30
0.0
 11
1480.8490237720171
 21
1855.3579124685079
 31
0.0
  0
LINE
  5
4684
  8
0
 10
1543.599273772018
 20
1855.3579124685079
 30
0.0
 11
1505.785773772018
 21
1855.3579124685079
 31
0.0
  0
LINE
  5
4685
  8
0
 10
1505.785773772018
 20
1855.3579124685079
 30
0.0
 11
1499.4812737720169
 21
1849.055662468508
 31
0.0
  0
LINE
  5
4686
  8
0
 10
1530.9947737720181
 20
1842.7534124685089
 30
0.0
 11
1543.599273772018
 21
1855.3579124685079
 31
0.0
  0
LINE
  5
474E
  8
0
 10
3102.9042583081041
 20
1849.978049318077
 30
0.0
 11
3065.0907583081039
 21
1849.978049318077
 31
0.0
  0
LINE
  5
474F
  8
0
 10
3090.2997583081042
 20
1837.373549318077
 30
0.0
 11
3102.9042583081041
 21
1849.978049318077
 31
0.0
  0
LINE
  5
4750
  8
0
 10
3027.2750083081041
 20
1837.373549318077
 30
0.0
 11
3090.2997583081042
 21
1837.373549318077
 31
0.0
  0
LINE
  5
4751
  8
0
 10
3040.1540083081031
 20
1849.978049318077
 30
0.0
 11
3027.2750083081041
 21
1837.373549318077
 31
0.0
  0
LINE
  5
4752
  8
0
 10
3058.7862583081028
 20
1843.675799318077
 30
0.0
 11
3040.1540083081031
 21
1843.675799318077
 31
0.0
  0
LINE
  5
4753
  8
0
 10
3040.1540083081031
 20
1843.675799318077
 30
0.0
 11
3040.1540083081031
 21
1849.978049318077
 31
0.0
  0
LINE
  5
4754
  8
0
 10
3065.0907583081039
 20
1849.978049318077
 30
0.0
 11
3058.7862583081028
 21
1843.675799318077
 31
0.0
  0
TEXT
  5
5302
  8
0
 10
1243.2295609054761
 20
394.92320633739928
 30
0.0
 40
49.0
  1
TLV  COSR-3,16 (JIS20K-40Aü`50A) Long Version
  0
ARC
  5
5607
  8
0
 10
1254.7816105562711
 20
782.38995143467776
 30
0.0
 40
24.0
 50
8.6269265586786812
 51
82.819244218548235
  0
ARC
  5
5608
  8
0
 10
1274.5553304895559
 20
785.38995143467764
 30
0.0
 40
4.0
 50
270.0
 51
8.6269265586792034
  0
TEXT
  5
5CFE
  8
0
 10
1269.3548589130171
 20
626.98369885786985
 30
0.0
 40
35.0
  1
1 1/2
 41
0.8
 72
     4
 11
1323.08819224635
 21
641.98369885786985
 31
0.0
  0
TEXT
  5
5CFF
  8
0
 10
2844.0765947192158
 20
610.87244960154555
 30
0.0
 40
35.0
  1
2
 41
0.8
 72
     4
 11
2853.4099280525502
 21
628.37244960154555
 31
0.0
  0
ARC
  5
5D44
  8
0
 10
1419.781610556269
 20
864.38995143467764
 30
0.0
 40
58.0
 50
234.68122709698841
 51
264.44655580433999
  0
ARC
  5
5D45
  8
0
 10
1413.781610556269
 20
802.68095695251145
 30
0.0
 40
4.0
 50
0.0
 51
84.446555804340051
  0
ARC
  5
5D46
  8
0
 10
1382.781610556269
 20
812.16926587808985
 30
0.0
 40
6.0
 50
54.681227096988508
 51
180.0
  0
ARC
  5
5D47
  8
0
 10
1411.781610556269
 20
864.76349792446899
 30
0.0
 40
6.0
 50
220.82089104331621
 51
0.0
  0
ARC
  5
5D4D
  8
0
 10
1241.781610556269
 20
866.35768497399636
 30
0.0
 40
4.0
 50
180.0
 51
271.8485716452268
  0
LINE
  5
5D58
  8
0
 10
1241.4207358762801
 20
804.71961284661199
 30
0.0
 11
1257.781610556269
 21
806.20171323425916
 31
0.0
  0
ARC
  5
5D5A
  8
0
 10
1241.781610556269
 20
800.73592492392731
 30
0.0
 40
4.0
 50
95.176187135961044
 51
180.0
  0
LINE
  5
5D5C
  8
0
 10
1237.781610556269
 20
1545.5809703027969
 30
0.0
 11
1237.781610556269
 21
1405.5809703027969
 31
0.0
  0
LINE
  5
5D5D
  8
0
 10
1215.781610556269
 20
1475.5809703027969
 30
0.0
 11
1215.781610556269
 21
1545.5809703027969
 31
0.0
  0
LINE
  5
5D5E
  8
0
 10
1215.781610556269
 20
1405.5809703027969
 30
0.0
 11
1215.781610556269
 21
1475.5809703027969
 31
0.0
  0
LINE
  5
5D5F
  8
0
 10
1237.781610556269
 20
1405.5809703027969
 30
0.0
 11
1215.781610556269
 21
1405.5809703027969
 31
0.0
  0
LINE
  5
5D60
  8
0
 10
1215.781610556269
 20
1545.5809703027969
 30
0.0
 11
1237.781610556269
 21
1545.5809703027969
 31
0.0
  0
ARC
  5
5D66
  8
0
 10
1241.781610556269
 20
1507.5487038421161
 30
0.0
 40
4.0
 50
180.0
 51
271.8485716452268
  0
LINE
  5
5D68
  8
0
 10
1241.910642814333
 20
1503.550785549256
 30
0.0
 11
1262.2816360532231
 21
1503.550785549256
 31
0.0
  0
ARC
  5
5D6B
  8
0
 10
1241.781610556269
 20
1443.613236763478
 30
0.0
 40
4.0
 50
88.151428354773131
 51
180.0
  0
LINE
  5
5D6C
  8
0
 10
1241.910642814333
 20
1447.6111550563371
 30
0.0
 11
1262.2816360532231
 21
1447.6111550563371
 31
0.0
  0
LINE
  5
5D6D
  8
0
 10
1417.781664879361
 20
1545.5809703027969
 30
0.0
 11
1417.781664879361
 21
1405.5809703027969
 31
0.0
  0
LINE
  5
5D6E
  8
0
 10
1439.781664879361
 20
1475.5809703027969
 30
0.0
 11
1439.781664879361
 21
1545.5809703027969
 31
0.0
  0
LINE
  5
5D6F
  8
0
 10
1439.781664879361
 20
1405.5809703027969
 30
0.0
 11
1439.781664879361
 21
1475.5809703027969
 31
0.0
  0
LINE
  5
5D70
  8
0
 10
1417.781664879361
 20
1405.5809703027969
 30
0.0
 11
1439.781664879361
 21
1405.5809703027969
 31
0.0
  0
LINE
  5
5D71
  8
0
 10
1439.781664879361
 20
1545.5809703027969
 30
0.0
 11
1417.781664879361
 21
1545.5809703027969
 31
0.0
  0
ARC
  5
5D72
  8
0
 10
1413.781664879361
 20
1507.5487038421161
 30
0.0
 40
4.0
 50
268.15142835477309
 51
0.000000000000007
  0
LINE
  5
5D73
  8
0
 10
1413.652632621297
 20
1503.550785549256
 30
0.0
 11
1393.2816393824071
 21
1503.550785549256
 31
0.0
  0
ARC
  5
5D74
  8
0
 10
1413.781664879361
 20
1443.613236763478
 30
0.0
 40
4.0
 50
0.000000000000007
 51
91.848571645226869
  0
LINE
  5
5D75
  8
0
 10
1413.652632621297
 20
1447.6111550563371
 30
0.0
 11
1393.2816393824071
 21
1447.6111550563371
 31
0.0
  0
LINE
  5
5D76
  8
0
 10
1267.7371371367719
 20
1765.3212714793131
 30
0.0
 11
1267.7371371367719
 21
1771.4182714793119
 31
0.0
  0
LINE
  5
5D77
  8
0
 10
1272.6451371367709
 20
1765.3212714793131
 30
0.0
 11
1272.6451371367709
 21
1771.4182714793119
 31
0.0
  0
LINE
  5
5D78
  8
0
 10
1282.459137136771
 20
1765.3212714793131
 30
0.0
 11
1282.459137136771
 21
1771.4182714793119
 31
0.0
  0
LINE
  5
5D79
  8
0
 10
1387.8260839757661
 20
1765.3212714793131
 30
0.0
 11
1387.8260839757661
 21
1771.4182714793119
 31
0.0
  0
LINE
  5
5D7A
  8
0
 10
1368.196083975766
 20
1771.4182714793119
 30
0.0
 11
1368.196083975766
 21
1765.3212714793131
 31
0.0
  0
LINE
  5
5D7B
  8
0
 10
1382.918083975766
 20
1765.3212714793131
 30
0.0
 11
1382.918083975766
 21
1771.4182714793119
 31
0.0
  0
LINE
  5
5D7C
  8
0
 10
1373.1040839757679
 20
1765.3212714793131
 30
0.0
 11
1373.1040839757679
 21
1771.4182714793119
 31
0.0
  0
ARC
  5
5D7D
  8
0
 10
1312.789410820383
 20
1765.543646438312
 30
0.0
 40
5.0
 50
2.3856263272414711
 51
85.944776612885846
  0
LINE
  5
5D7E
  8
0
 10
1287.367137136772
 20
1771.4182714793119
 30
0.0
 11
1287.367137136772
 21
1765.3212714793131
 31
0.0
  0
LINE
  5
5D7F
  8
0
 10
1337.5966105562691
 20
1771.4182714793119
 30
0.0
 11
1337.5966105562691
 21
1765.3212714793131
 31
0.0
  0
LINE
  5
5D80
  8
0
 10
1322.8746105562691
 20
1765.3212714793131
 30
0.0
 11
1322.8746105562691
 21
1771.4182714793119
 31
0.0
  0
LINE
  5
5D81
  8
0
 10
1332.688610556268
 20
1765.3212714793131
 30
0.0
 11
1332.688610556268
 21
1771.4182714793119
 31
0.0
  0
LINE
  5
5D82
  8
0
 10
1317.9666105562701
 20
1765.3212714793131
 30
0.0
 11
1317.9666105562701
 21
1771.4182714793119
 31
0.0
  0
ARC
  5
5D83
  8
0
 10
1342.7738102921539
 20
1765.543646438312
 30
0.0
 40
5.0
 50
94.055223387114168
 51
177.61437367275849
  0
ARC
  5
5D84
  8
0
 10
1385.3720839757659
 20
1769.2485955447289
 30
0.0
 40
4.6309815714167701
 50
238.00067615949081
 51
301.99932384050919
  0
LINE
  5
5D85
  8
0
 10
1369.761083975767
 20
1764.4172714793119
 30
0.0
 11
1386.261083975767
 21
1764.4172714793119
 31
0.0
  0
LINE
  5
5D86
  8
0
 10
1386.261083975767
 20
1764.4172714793119
 30
0.0
 11
1387.8260839757661
 21
1765.3212714793131
 31
0.0
  0
LINE
  5
5D87
  8
0
 10
1372.668083975766
 20
1765.0802714793131
 30
0.0
 11
1372.1980839757671
 21
1764.884271479312
 31
0.0
  0
LINE
  5
5D88
  8
0
 10
1368.196083975766
 20
1765.3212714793131
 30
0.0
 11
1369.761083975767
 21
1764.4172714793119
 31
0.0
  0
LINE
  5
5D89
  8
0
 10
1369.1020839757671
 20
1764.883271479313
 30
0.0
 11
1368.196083975766
 21
1765.3212714793131
 31
0.0
  0
LINE
  5
5D8A
  8
0
 10
1369.6010839757671
 20
1764.7382714793121
 30
0.0
 11
1369.1020839757671
 21
1764.883271479313
 31
0.0
  0
LINE
  5
5D8B
  8
0
 10
1370.121083975768
 20
1764.6482714793131
 30
0.0
 11
1369.6010839757671
 21
1764.7382714793121
 31
0.0
  0
LINE
  5
5D8C
  8
0
 10
1370.6500839757659
 20
1764.6172714793131
 30
0.0
 11
1370.121083975768
 21
1764.6482714793131
 31
0.0
  0
LINE
  5
5D8D
  8
0
 10
1371.1790839757671
 20
1764.6482714793131
 30
0.0
 11
1370.6500839757659
 21
1764.6172714793131
 31
0.0
  0
LINE
  5
5D8E
  8
0
 10
1371.6980839757671
 20
1764.7382714793121
 30
0.0
 11
1371.1790839757671
 21
1764.6482714793131
 31
0.0
  0
LINE
  5
5D8F
  8
0
 10
1372.1980839757671
 20
1764.884271479312
 30
0.0
 11
1371.6980839757671
 21
1764.7382714793121
 31
0.0
  0
ARC
  5
5D90
  8
0
 10
1378.011083975767
 20
1782.0802630724249
 30
0.0
 40
17.462601416113358
 50
253.68007233166739
 51
286.31992766833241
  0
LINE
  5
5D91
  8
0
 10
1373.1040839757679
 20
1765.3212714793131
 30
0.0
 11
1372.668083975766
 21
1765.0802714793131
 31
0.0
  0
ARC
  5
5D92
  8
0
 10
1270.191137136771
 20
1769.2485955447289
 30
0.0
 40
4.6309815714167701
 50
238.00067615949081
 51
301.99932384050919
  0
LINE
  5
5D93
  8
0
 10
1285.802137136772
 20
1764.4172714793119
 30
0.0
 11
1269.302137136772
 21
1764.4172714793119
 31
0.0
  0
LINE
  5
5D94
  8
0
 10
1337.781610556269
 20
1765.949597676311
 30
0.0
 11
1337.781610556269
 21
1765.9182714793119
 31
0.0
  0
ARC
  5
5D95
  8
0
 10
1321.781610556269
 20
1765.9182714793119
 30
0.0
 40
4.0
 50
182.38562632723469
 51
270.0
  0
LINE
  5
5D96
  8
0
 10
1337.781610556269
 20
1765.949597676311
 30
0.0
 11
1337.781610556269
 21
1765.9182714793119
 31
0.0
  0
ARC
  5
5D97
  8
0
 10
1333.7816105562681
 20
1765.9182714793119
 30
0.0
 40
4.0
 50
270.0
 51
0.000000000000007
  0
LINE
  5
5D98
  8
0
 10
1317.7816105562681
 20
1765.949597676311
 30
0.0
 11
1317.7816105562681
 21
1765.9182714793119
 31
0.0
  0
LINE
  5
5D99
  8
0
 10
1321.781610556269
 20
1761.9182714793119
 30
0.0
 11
1333.7816105562681
 21
1761.9182714793119
 31
0.0
  0
LINE
  5
5D9A
  8
0
 10
1336.031610556269
 20
1764.4172714793119
 30
0.0
 11
1319.531610556269
 21
1764.4172714793119
 31
0.0
  0
ARC
  5
5D9B
  8
0
 10
1320.42061055627
 20
1769.2485955447289
 30
0.0
 40
4.6309815714167701
 50
238.00067615949081
 51
301.99932384050919
  0
LINE
  5
5D9C
  8
0
 10
1333.1246105562691
 20
1765.0802714793131
 30
0.0
 11
1333.5946105562689
 21
1764.884271479312
 31
0.0
  0
LINE
  5
5D9D
  8
0
 10
1337.5966105562691
 20
1765.3212714793131
 30
0.0
 11
1336.031610556269
 21
1764.4172714793119
 31
0.0
  0
LINE
  5
5D9E
  8
0
 10
1336.690610556268
 20
1764.883271479313
 30
0.0
 11
1337.5966105562691
 21
1765.3212714793131
 31
0.0
  0
LINE
  5
5D9F
  8
0
 10
1336.1916105562691
 20
1764.7382714793121
 30
0.0
 11
1336.690610556268
 21
1764.883271479313
 31
0.0
  0
LINE
  5
5DA0
  8
0
 10
1335.671610556268
 20
1764.6482714793119
 30
0.0
 11
1336.1916105562691
 21
1764.7382714793121
 31
0.0
  0
LINE
  5
5DA1
  8
0
 10
1335.14261055627
 20
1764.617271479312
 30
0.0
 11
1335.671610556268
 21
1764.6482714793119
 31
0.0
  0
LINE
  5
5DA2
  8
0
 10
1334.6136105562689
 20
1764.6482714793119
 30
0.0
 11
1335.14261055627
 21
1764.617271479312
 31
0.0
  0
LINE
  5
5DA3
  8
0
 10
1334.0946105562689
 20
1764.7382714793121
 30
0.0
 11
1334.6136105562689
 21
1764.6482714793119
 31
0.0
  0
LINE
  5
5DA4
  8
0
 10
1333.5946105562689
 20
1764.884271479312
 30
0.0
 11
1334.0946105562689
 21
1764.7382714793121
 31
0.0
  0
ARC
  5
5DA5
  8
0
 10
1327.781610556269
 20
1782.0802630724249
 30
0.0
 40
17.462601416113358
 50
253.68007233166739
 51
286.31992766833241
  0
LINE
  5
5DA6
  8
0
 10
1332.688610556268
 20
1765.3212714793131
 30
0.0
 11
1333.1246105562691
 21
1765.0802714793131
 31
0.0
  0
LINE
  5
5DA7
  8
0
 10
1319.531610556269
 20
1764.4172714793119
 30
0.0
 11
1317.9666105562701
 21
1765.3212714793131
 31
0.0
  0
LINE
  5
5DA8
  8
0
 10
1282.459137136771
 20
1765.3212714793131
 30
0.0
 11
1282.8951371367709
 21
1765.0802714793131
 31
0.0
  0
LINE
  5
5DA9
  8
0
 10
1283.3651371367721
 20
1764.884271479312
 30
0.0
 11
1283.8651371367721
 21
1764.7382714793121
 31
0.0
  0
LINE
  5
5DAA
  8
0
 10
1283.8651371367721
 20
1764.7382714793121
 30
0.0
 11
1284.3841371367721
 21
1764.6482714793131
 31
0.0
  0
LINE
  5
5DAB
  8
0
 10
1284.3841371367721
 20
1764.6482714793131
 30
0.0
 11
1284.913137136771
 21
1764.6172714793131
 31
0.0
  0
LINE
  5
5DAC
  8
0
 10
1284.913137136771
 20
1764.6172714793131
 30
0.0
 11
1285.4421371367721
 21
1764.6482714793131
 31
0.0
  0
LINE
  5
5DAD
  8
0
 10
1285.4421371367721
 20
1764.6482714793131
 30
0.0
 11
1285.9621371367721
 21
1764.7382714793121
 31
0.0
  0
LINE
  5
5DAE
  8
0
 10
1282.8951371367709
 20
1765.0802714793131
 30
0.0
 11
1283.3651371367721
 21
1764.884271479312
 31
0.0
  0
ARC
  5
5DAF
  8
0
 10
1277.552137136772
 20
1782.0802630724249
 30
0.0
 40
17.462601416113358
 50
253.68007233166739
 51
286.31992766833241
  0
LINE
  5
5DB0
  8
0
 10
1286.4611371367721
 20
1764.883271479313
 30
0.0
 11
1287.367137136772
 21
1765.3212714793131
 31
0.0
  0
LINE
  5
5DB1
  8
0
 10
1287.367137136772
 20
1765.3212714793131
 30
0.0
 11
1285.802137136772
 21
1764.4172714793119
 31
0.0
  0
LINE
  5
5DB2
  8
0
 10
1285.9621371367721
 20
1764.7382714793121
 30
0.0
 11
1286.4611371367721
 21
1764.883271479313
 31
0.0
  0
LINE
  5
5DB3
  8
0
 10
1269.302137136772
 20
1764.4172714793119
 30
0.0
 11
1267.7371371367719
 21
1765.3212714793131
 31
0.0
  0
LINE
  5
5DB4
  8
0
 10
1265.949754214442
 20
1978.087271479312
 30
0.0
 11
1265.949754214442
 21
1994.749271479312
 31
0.0
  0
LINE
  5
5DB5
  8
0
 10
1274.949754214442
 20
1978.087271479312
 30
0.0
 11
1274.949754214442
 21
1994.749271479312
 31
0.0
  0
LINE
  5
5DB6
  8
0
 10
1277.781610556269
 20
1998.4182714793119
 30
0.0
 11
1277.781610556269
 21
1974.4182714793119
 31
0.0
  0
ARC
  5
5DB7
  8
0
 10
1294.781610556269
 20
1978.9826757051501
 30
0.0
 40
8.0
 50
0.000000000000007
 51
49.294293168957452
  0
ARC
  5
5DB8
  8
0
 10
1360.781610556269
 20
1978.9826757051501
 30
0.0
 40
8.0
 50
130.70570683104251
 51
180.0
  0
LINE
  5
5DB9
  8
0
 10
1371.997000865442
 20
1857.4182714793119
 30
0.0
 11
1288.781610556269
 21
1857.4182714793119
 31
0.0
  0
LINE
  5
5DBA
  8
0
 10
1350.2247083478071
 20
1968.516347690666
 30
0.0
 11
1338.9144315603919
 21
1961.9863563428421
 31
0.0
  0
LINE
  5
5DBB
  8
0
 10
1391.281610556269
 20
1926.4182714793119
 30
0.0
 11
1264.281610556269
 21
1926.4182714793119
 31
0.0
  0
LINE
  5
5DBC
  8
0
 10
1391.281610556269
 20
1953.4182714793119
 30
0.0
 11
1264.281610556269
 21
1953.4182714793119
 31
0.0
  0
LINE
  5
5DBD
  8
0
 10
1393.281610556269
 20
1940.4182714793119
 30
0.0
 11
1262.281610556269
 21
1940.4182714793119
 31
0.0
  0
ARC
  5
5DBE
  8
0
 10
1327.781610556269
 20
1977.012873388928
 30
0.0
 40
207.0
 50
272.71772467330487
 51
276.68033372395467
  0
LINE
  5
5DBF
  8
0
 10
1266.781610556269
 20
1771.4182714793119
 30
0.0
 11
1388.781610556269
 21
1771.4182714793119
 31
0.0
  0
LINE
  5
5DC0
  8
0
 10
1388.781610556269
 20
1797.4182714793119
 30
0.0
 11
1266.781610556269
 21
1797.4182714793119
 31
0.0
  0
LINE
  5
5DC1
  8
0
 10
1390.781610556269
 20
1784.4182714793119
 30
0.0
 11
1264.781610556269
 21
1784.4182714793119
 31
0.0
  0
LINE
  5
5DC2
  8
0
 10
1382.281610556269
 20
1922.4182714793119
 30
0.0
 11
1382.281610556269
 21
1879.947675978266
 31
0.0
  0
LINE
  5
5DC3
  8
0
 10
1371.281610556269
 20
1910.4182714793139
 30
0.0
 11
1371.281610556269
 21
1874.323280523
 31
0.0
  0
LINE
  5
5DC4
  8
0
 10
1417.781610556269
 20
1920.4182714793119
 30
0.0
 11
1417.781610556269
 21
1780.4182714793119
 31
0.0
  0
LINE
  5
5DC5
  8
0
 10
1439.781610556269
 20
1850.4182714793119
 30
0.0
 11
1439.781610556269
 21
1920.4182714793119
 31
0.0
  0
LINE
  5
5DC6
  8
0
 10
1439.781610556269
 20
1780.4182714793119
 30
0.0
 11
1439.781610556269
 21
1850.4182714793119
 31
0.0
  0
ARC
  5
5DC7
  8
0
 10
1388.781610556269
 20
1773.4182714793119
 30
0.0
 40
2.0
 50
270.0
 51
0.000000000000007
  0
ARC
  5
5DC8
  8
0
 10
1388.781610556269
 20
1795.4182714793119
 30
0.0
 40
2.0
 50
0.000000000000007
 51
90.0
  0
LINE
  5
5DC9
  8
0
 10
1390.781610556269
 20
1795.4182714793119
 30
0.0
 11
1390.781610556269
 21
1773.4182470744699
 31
0.0
  0
LINE
  5
5DCA
  8
0
 10
1417.781610556269
 20
1780.4182714793119
 30
0.0
 11
1439.781610556269
 21
1780.4182714793119
 31
0.0
  0
ARC
  5
5DCB
  8
0
 10
1388.2816105562681
 20
1879.947675978266
 30
0.0
 40
6.0
 50
180.0
 51
291.54226734437492
  0
ARC
  5
5DCC
  8
0
 10
1411.781610556269
 20
1820.4182714793119
 30
0.0
 40
58.0
 50
88.151428354773131
 51
122.6198419392921
  0
ARC
  5
5DCD
  8
0
 10
1377.281610556269
 20
1874.323280523
 30
0.0
 40
6.0
 50
180.0
 51
302.61984193929209
  0
ARC
  5
5DCE
  8
0
 10
1371.997000865442
 20
1847.4182714793119
 30
0.0
 40
10.0
 50
0.000000000000007
 51
90.0
  0
LINE
  5
5DCF
  8
0
 10
1393.281610556269
 20
1951.4182714793119
 30
0.0
 11
1393.281610556269
 21
1928.4182714793119
 31
0.0
  0
LINE
  5
5DD0
  8
0
 10
1375.609160187119
 20
1923.230271479312
 30
0.0
 11
1385.609160187119
 21
1923.230271479312
 31
0.0
  0
LINE
  5
5DD1
  8
0
 10
1385.609160187119
 20
1923.230271479312
 30
0.0
 11
1384.7971601871191
 21
1922.4182714793119
 31
0.0
  0
ARC
  5
5DD2
  8
0
 10
1391.281610556269
 20
1928.4182714793119
 30
0.0
 40
2.0
 50
270.0
 51
0.000000000000007
  0
LINE
  5
5DD3
  8
0
 10
1385.609160187119
 20
1926.4182714793119
 30
0.0
 11
1385.609160187119
 21
1923.230271479312
 31
0.0
  0
LINE
  5
5DD4
  8
0
 10
1439.781610556269
 20
1920.4182714793119
 30
0.0
 11
1417.781610556269
 21
1920.4182714793119
 31
0.0
  0
LINE
  5
5DD5
  8
0
 10
1384.7971601871191
 20
1922.4182714793119
 30
0.0
 11
1376.4211601871191
 21
1922.4182714793119
 31
0.0
  0
LINE
  5
5DD6
  8
0
 10
1376.4211601871191
 20
1922.4182714793119
 30
0.0
 11
1375.609160187119
 21
1923.230271479312
 31
0.0
  0
LINE
  5
5DD7
  8
0
 10
1375.609160187119
 20
1923.230271479312
 30
0.0
 11
1375.609160187119
 21
1926.4182714793119
 31
0.0
  0
ARC
  5
5DD8
  8
0
 10
1377.5608261671421
 20
1922.4182714793119
 30
0.0
 40
4.0
 50
119.203730590226
 51
168.69006752598099
  0
LINE
  5
5DD9
  8
0
 10
1373.638503464379
 20
1923.2027360198649
 30
0.0
 11
1371.281610556269
 21
1910.4182714793119
 31
0.0
  0
LINE
  5
5DDA
  8
0
 10
1372.5326482473149
 20
1961.4182714793119
 30
0.0
 11
1389.0326482473149
 21
1961.418271479313
 31
0.0
  0
LINE
  5
5DDB
  8
0
 10
1395.781610556269
 20
1968.9182714793119
 30
0.0
 11
1351.7247083478071
 21
1968.9182714793119
 31
0.0
  0
ARC
  5
5DDC
  8
0
 10
1380.782648247317
 20
1943.7552798861991
 30
0.0
 40
17.462601416113358
 50
73.680072331680989
 51
106.3199276683325
  0
ARC
  5
5DDD
  8
0
 10
1388.1436482473159
 20
1956.586947413896
 30
0.0
 40
4.6309815714167701
 50
58.000676159490979
 51
121.99932384050931
  0
LINE
  5
5DDE
  8
0
 10
1389.0326482473149
 20
1961.418271479313
 30
0.0
 11
1390.5976482473161
 21
1960.514271479313
 31
0.0
  0
LINE
  5
5DDF
  8
0
 10
1390.5976482473161
 20
1960.514271479313
 30
0.0
 11
1390.5976482473179
 21
1953.418271479313
 31
0.0
  0
ARC
  5
5DE0
  8
0
 10
1391.281610556269
 20
1951.4182714793119
 30
0.0
 40
2.0
 50
0.000000000000007
 51
90.0
  0
LINE
  5
5DE1
  8
0
 10
1402.781610556269
 20
1943.4182714793119
 30
0.0
 11
1401.7098137865451
 21
1941.5618650187621
 31
0.0
  0
LINE
  5
5DE2
  8
0
 10
1395.781610556269
 20
1943.4182714793119
 30
0.0
 11
1396.8534073259921
 21
1941.5618650187621
 31
0.0
  0
LINE
  5
5DE3
  8
0
 10
1401.7098137865451
 20
1941.5618650187621
 30
0.0
 11
1396.8534073259921
 21
1941.5618650187621
 31
0.0
  0
LINE
  5
5DE4
  8
0
 10
1402.781610556269
 20
1967.4182714793119
 30
0.0
 11
1401.7098137865451
 21
1969.2746779398631
 31
0.0
  0
ARC
  5
5DE5
  8
0
 10
1396.6476359600531
 20
1965.8105763247261
 30
0.0
 40
6.1339745962155821
 50
325.61575253196298
 51
34.384247468036953
  0
ARC
  5
5DE6
  8
0
 10
1396.6476359600531
 20
1945.0259666339
 30
0.0
 40
6.1339745962155821
 50
325.61575253196298
 51
34.384247468036953
  0
LINE
  5
5DE7
  8
0
 10
1402.781610556269
 20
1943.4182714793119
 30
0.0
 11
1402.781610556269
 21
1967.4182714793119
 31
0.0
  0
ARC
  5
5DE8
  8
0
 10
1379.8534073259921
 20
1955.4182714793119
 30
0.0
 40
22.928203230275809
 50
342.41204622600799
 51
17.587953773991991
  0
LINE
  5
5DE9
  8
0
 10
1395.781610556269
 20
1967.4182714793119
 30
0.0
 11
1396.8534073259921
 21
1969.2746779398631
 31
0.0
  0
ARC
  5
5DEA
  8
0
 10
1401.9155851524829
 20
1965.8105763247261
 30
0.0
 40
6.1339745962155821
 50
145.61575253196301
 51
214.3842474680369
  0
ARC
  5
5DEB
  8
0
 10
1401.9155851524829
 20
1945.0259666339
 30
0.0
 40
6.1339745962155821
 50
145.61575253196301
 51
214.3842474680369
  0
ARC
  5
5DEC
  8
0
 10
1418.7098137865451
 20
1955.4182714793119
 30
0.0
 40
22.928203230275809
 50
162.41204622600799
 51
197.58795377399201
  0
LINE
  5
5DED
  8
0
 10
1401.7098137865451
 20
1969.2746779398631
 30
0.0
 11
1396.8534073259921
 21
1969.2746779398631
 31
0.0
  0
LINE
  5
5DEE
  8
0
 10
1401.7098137865451
 20
1962.3464747095891
 30
0.0
 11
1396.8534073259921
 21
1962.3464747095891
 31
0.0
  0
LINE
  5
5DEF
  8
0
 10
1401.7098137865451
 20
1948.490068249037
 30
0.0
 11
1396.8534073259921
 21
1948.490068249037
 31
0.0
  0
LINE
  5
5DF0
  8
0
 10
1395.781610556269
 20
1968.9182714793119
 30
0.0
 11
1395.781610556269
 21
1941.9182714793119
 31
0.0
  0
LINE
  5
5DF1
  8
0
 10
1395.781610556269
 20
1941.9182714793119
 30
0.0
 11
1393.281610556269
 21
1941.9182714793119
 31
0.0
  0
LINE
  5
5DF2
  8
0
 10
1385.689648247316
 20
1960.514271479313
 30
0.0
 11
1385.689648247316
 21
1953.4182714793119
 31
0.0
  0
LINE
  5
5DF3
  8
0
 10
1352.781610556269
 20
1978.9826757051501
 30
0.0
 11
1352.781610556269
 21
1973.9182714793119
 31
0.0
  0
LINE
  5
5DF4
  8
0
 10
1372.891648247316
 20
1961.1882714793121
 30
0.0
 11
1372.3726482473151
 21
1961.0982714793131
 31
0.0
  0
LINE
  5
5DF5
  8
0
 10
1375.8756482473159
 20
1960.514271479311
 30
0.0
 11
1375.4396482473171
 21
1960.7552714793119
 31
0.0
  0
LINE
  5
5DF6
  8
0
 10
1375.4396482473171
 20
1960.7552714793119
 30
0.0
 11
1374.9696482473171
 21
1960.952271479312
 31
0.0
  0
LINE
  5
5DF7
  8
0
 10
1374.9696482473171
 20
1960.952271479312
 30
0.0
 11
1374.4696482473171
 21
1961.0982714793131
 31
0.0
  0
LINE
  5
5DF8
  8
0
 10
1373.9506482473171
 20
1961.188271479313
 30
0.0
 11
1373.4216482473159
 21
1961.2182714793121
 31
0.0
  0
LINE
  5
5DF9
  8
0
 10
1373.4216482473159
 20
1961.2182714793121
 30
0.0
 11
1372.891648247316
 21
1961.1882714793121
 31
0.0
  0
LINE
  5
5DFA
  8
0
 10
1374.4696482473171
 20
1961.0982714793131
 30
0.0
 11
1373.9506482473171
 21
1961.188271479313
 31
0.0
  0
LINE
  5
5DFB
  8
0
 10
1375.8756482473159
 20
1960.514271479311
 30
0.0
 11
1375.8756482473159
 21
1953.4182714793119
 31
0.0
  0
LINE
  5
5DFC
  8
0
 10
1372.3726482473151
 20
1961.0982714793131
 30
0.0
 11
1371.8736482473159
 21
1960.952271479312
 31
0.0
  0
LINE
  5
5DFD
  8
0
 10
1371.8736482473159
 20
1960.952271479312
 30
0.0
 11
1370.9676482473169
 21
1960.5152714793121
 31
0.0
  0
LINE
  5
5DFE
  8
0
 10
1370.9676482473169
 20
1960.514271479311
 30
0.0
 11
1372.5326482473149
 21
1961.4182714793119
 31
0.0
  0
LINE
  5
5DFF
  8
0
 10
1370.9676482473169
 20
1953.4182714793119
 30
0.0
 11
1370.9676482473169
 21
1960.514271479311
 31
0.0
  0
ARC
  5
5E00
  8
0
 10
1351.7247083478071
 20
1965.9182714793119
 30
0.0
 40
3.0
 50
90.0
 51
120.0
  0
ARC
  5
5E01
  8
0
 10
1357.781610556269
 20
1973.9182714793119
 30
0.0
 40
5.0
 50
180.0
 51
270.0
  0
LINE
  5
5E02
  8
0
 10
1215.781610556269
 20
1850.4182714793119
 30
0.0
 11
1215.781610556269
 21
1920.4182714793119
 31
0.0
  0
LINE
  5
5E03
  8
0
 10
1237.781610556269
 20
1920.4182714793119
 30
0.0
 11
1237.781610556269
 21
1780.4182714793119
 31
0.0
  0
ARC
  5
5E04
  8
0
 10
1327.781610556269
 20
1977.012873388928
 30
0.0
 40
207.0
 50
263.31966627604533
 51
267.28227532669513
  0
ARC
  5
5E05
  8
0
 10
1274.781610556269
 20
1801.4182714793119
 30
0.0
 40
4.0
 50
270.0
 51
0.000000000000007
  0
LINE
  5
5E06
  8
0
 10
1278.781610556269
 20
1828.1975859227241
 30
0.0
 11
1278.781610556269
 21
1801.4182714793119
 31
0.0
  0
ARC
  5
5E07
  8
0
 10
1288.781610556269
 20
1847.4182714793119
 30
0.0
 40
10.0
 50
90.0
 51
180.0
  0
LINE
  5
5E08
  8
0
 10
1215.781610556269
 20
1780.4182714793119
 30
0.0
 11
1215.781610556269
 21
1850.4182714793119
 31
0.0
  0
LINE
  5
5E09
  8
0
 10
1237.781610556269
 20
1780.4182714793119
 30
0.0
 11
1215.781610556269
 21
1780.4182714793119
 31
0.0
  0
ARC
  5
5E0A
  8
0
 10
1266.781610556269
 20
1773.4182714793119
 30
0.0
 40
2.0
 50
180.0
 51
270.0
  0
ARC
  5
5E0B
  8
0
 10
1266.781610556269
 20
1795.4182714793119
 30
0.0
 40
2.0
 50
90.0
 51
180.0
  0
LINE
  5
5E0C
  8
0
 10
1264.781610556269
 20
1795.4182714793119
 30
0.0
 11
1264.781610556269
 21
1773.41824783117
 31
0.0
  0
ARC
  5
5E0D
  8
0
 10
1267.281610556269
 20
1898.8994718294859
 30
0.0
 40
6.0
 50
296.05215965932661
 51
0.000000000000007
  0
LINE
  5
5E0E
  8
0
 10
1270.7660609254181
 20
1922.4182714793119
 30
0.0
 11
1279.142060925418
 21
1922.4182714793119
 31
0.0
  0
LINE
  5
5E0F
  8
0
 10
1279.9540609254159
 20
1923.230271479312
 30
0.0
 11
1269.9540609254159
 21
1923.230271479312
 31
0.0
  0
ARC
  5
5E10
  8
0
 10
1299.781610556269
 20
1832.4182714793119
 30
0.0
 40
68.0
 50
106.89032016220921
 51
139.1791089566772
  0
LINE
  5
5E11
  8
0
 10
1265.949754214442
 20
1978.087271479312
 30
0.0
 11
1277.781610556269
 21
1978.087271479312
 31
0.0
  0
LINE
  5
5E12
  8
0
 10
1283.0305728652199
 20
1961.4182714793119
 30
0.0
 11
1266.5305728652199
 21
1961.418271479313
 31
0.0
  0
ARC
  5
5E13
  8
0
 10
1274.7805728652179
 20
1943.7552798861991
 30
0.0
 40
17.462601416113358
 50
73.680072331667475
 51
106.319927668319
  0
LINE
  5
5E14
  8
0
 10
1331.9696105562689
 20
1922.4182714793119
 30
0.0
 11
1323.593610556268
 21
1922.4182714793119
 31
0.0
  0
LINE
  5
5E15
  8
0
 10
1322.781610556269
 20
1923.230271479312
 30
0.0
 11
1332.781610556269
 21
1923.230271479312
 31
0.0
  0
LINE
  5
5E16
  8
0
 10
1322.781610556269
 20
1923.230271479312
 30
0.0
 11
1322.781610556269
 21
1926.4182714793119
 31
0.0
  0
LINE
  5
5E17
  8
0
 10
1323.593610556268
 20
1922.4182714793119
 30
0.0
 11
1322.781610556269
 21
1923.230271479312
 31
0.0
  0
LINE
  5
5E18
  8
0
 10
1332.781610556269
 20
1926.4182714793119
 30
0.0
 11
1332.781610556269
 21
1923.230271479312
 31
0.0
  0
LINE
  5
5E19
  8
0
 10
1332.781610556269
 20
1923.230271479312
 30
0.0
 11
1331.9696105562689
 21
1922.4182714793119
 31
0.0
  0
LINE
  5
5E1A
  8
0
 10
1273.281610556269
 20
1922.4182714793119
 30
0.0
 11
1273.281610556269
 21
1898.8994718294859
 31
0.0
  0
LINE
  5
5E1B
  8
0
 10
1279.9540609254159
 20
1923.230271479312
 30
0.0
 11
1279.9540609254179
 21
1926.4182714793119
 31
0.0
  0
LINE
  5
5E1C
  8
0
 10
1279.142060925418
 20
1922.4182714793119
 30
0.0
 11
1279.9540609254159
 21
1923.230271479312
 31
0.0
  0
ARC
  5
5E1D
  8
0
 10
1278.281610556269
 20
1903.2261100284441
 30
0.0
 40
6.0
 50
286.89032016219568
 51
0.000000000000007
  0
ARC
  5
5E1E
  8
0
 10
1278.0023949453951
 20
1922.4182714793119
 30
0.0
 40
4.0
 50
11.309932474018989
 51
60.796269409788849
  0
LINE
  5
5E1F
  8
0
 10
1284.281610556269
 20
1910.4182714793119
 30
0.0
 11
1281.9247176481581
 21
1923.2027360198649
 31
0.0
  0
LINE
  5
5E20
  8
0
 10
1284.281610556269
 20
1910.4182714793119
 30
0.0
 11
1284.281610556269
 21
1903.2261100284441
 31
0.0
  0
ARC
  5
5E21
  8
0
 10
1320.24712249607
 20
1956.586947413896
 30
0.0
 40
4.6309815714167701
 50
58.000676159490652
 51
121.99932384050901
  0
LINE
  5
5E22
  8
0
 10
1322.7011224960711
 20
1960.514271479313
 30
0.0
 11
1322.70112249607
 21
1953.4182714793119
 31
0.0
  0
LINE
  5
5E23
  8
0
 10
1319.358122496071
 20
1961.418271479313
 30
0.0
 11
1317.7931224960701
 21
1960.514271479313
 31
0.0
  0
LINE
  5
5E24
  8
0
 10
1317.7931224960701
 20
1960.514271479313
 30
0.0
 11
1317.7931224960701
 21
1953.418271479313
 31
0.0
  0
LINE
  5
5E25
  8
0
 10
1332.51512249607
 20
1960.514271479311
 30
0.0
 11
1332.9511224960711
 21
1960.7552714793119
 31
0.0
  0
LINE
  5
5E26
  8
0
 10
1332.9511224960711
 20
1960.7552714793119
 30
0.0
 11
1333.4211224960709
 21
1960.952271479312
 31
0.0
  0
LINE
  5
5E27
  8
0
 10
1333.4211224960709
 20
1960.952271479312
 30
0.0
 11
1333.9211224960709
 21
1961.0982714793131
 31
0.0
  0
LINE
  5
5E28
  8
0
 10
1334.4401224960709
 20
1961.188271479313
 30
0.0
 11
1334.969122496072
 21
1961.2182714793121
 31
0.0
  0
LINE
  5
5E29
  8
0
 10
1334.969122496072
 20
1961.2182714793121
 30
0.0
 11
1335.49912249607
 21
1961.1882714793121
 31
0.0
  0
LINE
  5
5E2A
  8
0
 10
1335.49912249607
 20
1961.1882714793121
 30
0.0
 11
1336.01812249607
 21
1961.0982714793131
 31
0.0
  0
LINE
  5
5E2B
  8
0
 10
1336.01812249607
 20
1961.0982714793131
 30
0.0
 11
1336.51712249607
 21
1960.952271479312
 31
0.0
  0
LINE
  5
5E2C
  8
0
 10
1336.51712249607
 20
1960.952271479312
 30
0.0
 11
1337.4231224960711
 21
1960.5152714793121
 31
0.0
  0
LINE
  5
5E2D
  8
0
 10
1337.4231224960711
 20
1960.514271479311
 30
0.0
 11
1335.858122496071
 21
1961.4182714793119
 31
0.0
  0
LINE
  5
5E2E
  8
0
 10
1333.9211224960709
 20
1961.0982714793131
 30
0.0
 11
1334.4401224960709
 21
1961.188271479313
 31
0.0
  0
LINE
  5
5E2F
  8
0
 10
1332.51512249607
 20
1960.514271479311
 30
0.0
 11
1332.51512249607
 21
1953.4182714793119
 31
0.0
  0
LINE
  5
5E30
  8
0
 10
1337.423122496069
 20
1953.4182714793119
 30
0.0
 11
1337.4231224960711
 21
1960.514271479311
 31
0.0
  0
LINE
  5
5E31
  8
0
 10
1335.858122496071
 20
1961.4182714793119
 30
0.0
 11
1319.358122496071
 21
1961.418271479313
 31
0.0
  0
ARC
  5
5E32
  8
0
 10
1327.6081224960701
 20
1943.7552798861991
 30
0.0
 40
17.462601416113358
 50
73.680072331667475
 51
106.319927668319
  0
LINE
  5
5E33
  8
0
 10
1284.59557286522
 20
1953.4182714793119
 30
0.0
 11
1284.59557286522
 21
1960.514271479311
 31
0.0
  0
LINE
  5
5E34
  8
0
 10
1279.687572865219
 20
1960.514271479311
 30
0.0
 11
1279.687572865219
 21
1953.4182714793119
 31
0.0
  0
LINE
  5
5E35
  8
0
 10
1281.09357286522
 20
1961.0982714793131
 30
0.0
 11
1281.61257286522
 21
1961.188271479313
 31
0.0
  0
LINE
  5
5E36
  8
0
 10
1284.59557286522
 20
1960.514271479311
 30
0.0
 11
1283.0305728652199
 21
1961.4182714793119
 31
0.0
  0
LINE
  5
5E37
  8
0
 10
1283.68957286522
 20
1960.952271479312
 30
0.0
 11
1284.59557286522
 21
1960.5152714793121
 31
0.0
  0
LINE
  5
5E38
  8
0
 10
1283.19057286522
 20
1961.0982714793131
 30
0.0
 11
1283.68957286522
 21
1960.952271479312
 31
0.0
  0
LINE
  5
5E39
  8
0
 10
1282.67157286522
 20
1961.1882714793121
 30
0.0
 11
1283.19057286522
 21
1961.0982714793131
 31
0.0
  0
LINE
  5
5E3A
  8
0
 10
1282.1415728652189
 20
1961.2182714793121
 30
0.0
 11
1282.67157286522
 21
1961.1882714793121
 31
0.0
  0
LINE
  5
5E3B
  8
0
 10
1281.61257286522
 20
1961.188271479313
 30
0.0
 11
1282.1415728652189
 21
1961.2182714793121
 31
0.0
  0
LINE
  5
5E3C
  8
0
 10
1280.59357286522
 20
1960.952271479312
 30
0.0
 11
1281.09357286522
 21
1961.0982714793131
 31
0.0
  0
LINE
  5
5E3D
  8
0
 10
1280.1235728652209
 20
1960.7552714793119
 30
0.0
 11
1280.59357286522
 21
1960.952271479312
 31
0.0
  0
LINE
  5
5E3E
  8
0
 10
1279.687572865219
 20
1960.514271479311
 30
0.0
 11
1280.1235728652209
 21
1960.7552714793119
 31
0.0
  0
LINE
  5
5E3F
  8
0
 10
1283.731678849457
 20
1968.3922110493361
 30
0.0
 11
1281.1933724303981
 21
1961.4182714793119
 31
0.0
  0
LINE
  5
5E40
  8
0
 10
1280.9126009870999
 20
1972.4182714793119
 30
0.0
 11
1279.781610556269
 21
1972.4182714793119
 31
0.0
  0
ARC
  5
5E41
  8
0
 10
1279.781610556269
 20
1974.4182714793119
 30
0.0
 40
2.0
 50
180.0
 51
270.0
  0
ARC
  5
5E42
  8
0
 10
1280.9126009870999
 20
1969.4182714793119
 30
0.0
 40
3.0
 50
340.0000000000054
 51
90.0
  0
ARC
  5
5E43
  8
0
 10
1296.781610556269
 20
1959.4182714793119
 30
0.0
 40
6.0
 50
270.0
 51
0.000000000000007
  0
LINE
  5
5E44
  8
0
 10
1302.781610556269
 20
1978.9826757051501
 30
0.0
 11
1302.781610556269
 21
1959.4182714793119
 31
0.0
  0
LINE
  5
5E45
  8
0
 10
1262.281610556269
 20
1951.4182714793119
 30
0.0
 11
1262.281610556269
 21
1928.4182714793119
 31
0.0
  0
LINE
  5
5E46
  8
0
 10
1215.781610556269
 20
1920.4182714793119
 30
0.0
 11
1237.781610556269
 21
1920.4182714793119
 31
0.0
  0
LINE
  5
5E47
  8
0
 10
1269.9540609254179
 20
1926.4182714793119
 30
0.0
 11
1269.9540609254159
 21
1923.230271479312
 31
0.0
  0
LINE
  5
5E48
  8
0
 10
1269.9540609254159
 20
1923.230271479312
 30
0.0
 11
1270.7660609254181
 21
1922.4182714793119
 31
0.0
  0
ARC
  5
5E49
  8
0
 10
1264.281610556269
 20
1928.4182714793119
 30
0.0
 40
2.0
 50
180.0
 51
270.0
  0
LINE
  5
5E4A
  8
0
 10
1264.9655728652201
 20
1960.514271479313
 30
0.0
 11
1264.9655728652201
 21
1953.418271479313
 31
0.0
  0
LINE
  5
5E4B
  8
0
 10
1269.8735728652209
 20
1960.514271479313
 30
0.0
 11
1269.8735728652191
 21
1953.4182714793119
 31
0.0
  0
ARC
  5
5E4C
  8
0
 10
1267.4195728652189
 20
1956.586947413896
 30
0.0
 40
4.6309815714167701
 50
58.000676159490652
 51
121.99932384050901
  0
LINE
  5
5E4D
  8
0
 10
1266.5305728652199
 20
1961.418271479313
 30
0.0
 11
1264.9655728652201
 21
1960.514271479313
 31
0.0
  0
ARC
  5
5E4E
  8
0
 10
1264.281610556269
 20
1951.4182714793119
 30
0.0
 40
2.0
 50
90.0
 51
180.0
  0
ARC
  5
5E4F
  8
0
 10
1345.535131333849
 20
2100.0021187758712
 30
0.0
 40
9.7552083333333677
 50
232.65349068554289
 51
307.34650931445702
  0
LINE
  5
5E50
  8
0
 10
1359.781610556269
 20
2081.9182714793128
 30
0.0
 11
1327.781610556269
 21
2087.5607348619842
 31
0.0
  0
LINE
  5
5E51
  8
0
 10
1353.781610556269
 20
2089.9182714793119
 30
0.0
 11
1301.7816105562681
 21
2089.9182714793119
 31
0.0
  0
LINE
  5
5E52
  8
0
 10
1352.281610556269
 20
2069.9182714793128
 30
0.0
 11
1303.281610556269
 21
2069.9182714793128
 31
0.0
  0
ARC
  5
5E53
  8
0
 10
1345.535131333849
 20
2120.9917021092051
 30
0.0
 40
9.7552083333333677
 50
52.653490685542991
 51
127.34650931445699
  0
LINE
  5
5E54
  8
0
 10
1345.5227757157261
 20
2145.7124456820188
 30
0.0
 11
1348.281610556269
 21
2131.9182714793128
 31
0.0
  0
LINE
  5
5E55
  8
0
 10
1348.281610556269
 20
2131.9182714793128
 30
0.0
 11
1307.281610556269
 21
2131.9182714793128
 31
0.0
  0
LINE
  5
5E56
  8
0
 10
1380.781610556269
 20
2081.9182714793128
 30
0.0
 11
1274.781610556269
 21
2081.9182714793128
 31
0.0
  0
LINE
  5
5E57
  8
0
 10
1380.781610556269
 20
2074.9182714793128
 30
0.0
 11
1274.781610556269
 21
2074.9182714793128
 31
0.0
  0
LINE
  5
5E58
  8
0
 10
1283.281610556269
 20
2016.418271479313
 30
0.0
 11
1372.2816105562681
 21
2016.418271479313
 31
0.0
  0
LINE
  5
5E59
  8
0
 10
1374.281610556269
 20
2005.4182714793119
 30
0.0
 11
1281.281610556269
 21
2005.4182714793119
 31
0.0
  0
LINE
  5
5E5A
  8
0
 10
1374.281610556269
 20
2005.4182714793119
 30
0.0
 11
1281.281610556269
 21
2005.4182714793119
 31
0.0
  0
LINE
  5
5E5B
  8
0
 10
1372.2816105562681
 20
1993.4182714793119
 30
0.0
 11
1283.281610556269
 21
1993.4182714793119
 31
0.0
  0
LINE
  5
5E5C
  8
0
 10
1353.781610556269
 20
2089.9182714793119
 30
0.0
 11
1353.781610556269
 21
2082.9762333635631
 31
0.0
  0
LINE
  5
5E5D
  8
0
 10
1348.781610556269
 20
2022.4182714793119
 30
0.0
 11
1348.781610556269
 21
2069.9182714793128
 31
0.0
  0
LINE
  5
5E5E
  8
0
 10
1374.281610556269
 20
2014.4182714793119
 30
0.0
 11
1374.281610556269
 21
1995.4182714793119
 31
0.0
  0
LINE
  5
5E5F
  8
0
 10
1353.4727360532229
 20
2024.4182714793119
 30
0.0
 11
1351.9077360532231
 21
2023.514271479313
 31
0.0
  0
ARC
  5
5E60
  8
0
 10
1354.3617360532221
 20
2019.586947413896
 30
0.0
 40
4.6309815714167701
 50
58.00067615949083
 51
121.99932384050921
  0
LINE
  5
5E61
  8
0
 10
1366.6297360532219
 20
2023.514271479313
 30
0.0
 11
1367.0657360532221
 21
2023.755271479313
 31
0.0
  0
LINE
  5
5E62
  8
0
 10
1367.0657360532221
 20
2023.755271479313
 30
0.0
 11
1367.535736053223
 21
2023.952271479312
 31
0.0
  0
LINE
  5
5E63
  8
0
 10
1367.535736053223
 20
2023.952271479312
 30
0.0
 11
1368.035736053223
 21
2024.0982714793131
 31
0.0
  0
ARC
  5
5E64
  8
0
 10
1361.7227360532229
 20
2006.7552798861991
 30
0.0
 40
17.462601416113358
 50
73.680072331667475
 51
106.3199276683325
  0
LINE
  5
5E65
  8
0
 10
1368.554736053223
 20
2024.188271479313
 30
0.0
 11
1369.0837360532221
 21
2024.218271479313
 31
0.0
  0
LINE
  5
5E66
  8
0
 10
1369.0837360532221
 20
2024.218271479313
 30
0.0
 11
1369.613736053223
 21
2024.188271479313
 31
0.0
  0
LINE
  5
5E67
  8
0
 10
1369.613736053223
 20
2024.188271479313
 30
0.0
 11
1370.132736053223
 21
2024.0982714793131
 31
0.0
  0
LINE
  5
5E68
  8
0
 10
1370.132736053223
 20
2024.0982714793131
 30
0.0
 11
1370.631736053223
 21
2023.952271479312
 31
0.0
  0
LINE
  5
5E69
  8
0
 10
1370.631736053223
 20
2023.952271479312
 30
0.0
 11
1371.5377360532241
 21
2023.5152714793121
 31
0.0
  0
LINE
  5
5E6A
  8
0
 10
1371.5377360532241
 20
2023.514271479313
 30
0.0
 11
1369.9727360532211
 21
2024.4182714793119
 31
0.0
  0
LINE
  5
5E6B
  8
0
 10
1368.035736053223
 20
2024.0982714793131
 30
0.0
 11
1368.554736053223
 21
2024.188271479313
 31
0.0
  0
LINE
  5
5E6C
  8
0
 10
1369.9727360532211
 20
2024.4182714793119
 30
0.0
 11
1353.4727360532229
 21
2024.4182714793119
 31
0.0
  0
ARC
  5
5E6D
  8
0
 10
1372.2816105562681
 20
2014.4182714793119
 30
0.0
 40
2.0
 50
0.000000000000007
 51
90.0
  0
ARC
  5
5E6E
  8
0
 10
1354.781610556269
 20
2022.4182714793119
 30
0.0
 40
5.9999999999999902
 50
180.0
 51
241.3812544200506
  0
LINE
  5
5E6F
  8
0
 10
1351.9077360532231
 20
2023.514271479313
 30
0.0
 11
1351.9077360532231
 21
2016.418271479313
 31
0.0
  0
LINE
  5
5E70
  8
0
 10
1356.8157360532221
 20
2023.514271479313
 30
0.0
 11
1356.8157360532221
 21
2016.418271479313
 31
0.0
  0
LINE
  5
5E71
  8
0
 10
1371.5377360532241
 20
2016.418271479313
 30
0.0
 11
1371.5377360532241
 21
2023.514271479313
 31
0.0
  0
LINE
  5
5E72
  8
0
 10
1366.6297360532219
 20
2023.514271479313
 30
0.0
 11
1366.6297360532219
 21
2016.418271479313
 31
0.0
  0
ARC
  5
5E73
  8
0
 10
1372.2816105562681
 20
1995.4182714793119
 30
0.0
 40
2.0
 50
270.0
 51
0.000000000000007
  0
LINE
  5
5E74
  8
0
 10
1374.281610556269
 20
2005.4182714793119
 30
0.0
 11
1374.281610556269
 21
1995.4182714793119
 31
0.0
  0
ARC
  5
5E75
  8
0
 10
1345.781610556269
 20
1996.4182714793119
 30
0.0
 40
15.0
 50
310.70570683104239
 51
331.42812185768639
  0
LINE
  5
5E76
  8
0
 10
1356.7227360532229
 20
1993.4182714793119
 30
0.0
 11
1356.7227360532229
 21
1990.230271479312
 31
0.0
  0
LINE
  5
5E77
  8
0
 10
1356.7227360532229
 20
1990.230271479312
 30
0.0
 11
1357.534736053223
 21
1989.4182714793119
 31
0.0
  0
LINE
  5
5E78
  8
0
 10
1366.7227360532211
 20
1990.230271479312
 30
0.0
 11
1366.7227360532211
 21
1993.4182714793119
 31
0.0
  0
LINE
  5
5E79
  8
0
 10
1365.910736053223
 20
1989.4182714793119
 30
0.0
 11
1366.7227360532211
 21
1990.230271479312
 31
0.0
  0
LINE
  5
5E7A
  8
0
 10
1357.534736053223
 20
1989.4182714793119
 30
0.0
 11
1365.910736053223
 21
1989.4182714793119
 31
0.0
  0
LINE
  5
5E7B
  8
0
 10
1366.7227360532211
 20
1990.230271479312
 30
0.0
 11
1356.7227360532229
 21
1990.230271479312
 31
0.0
  0
ARC
  5
5E7C
  8
0
 10
1365.9806204329921
 20
1985.4182714793119
 30
0.0
 40
8.0
 50
150.00000000000139
 51
151.42812185768651
  0
ARC
  5
5E7D
  8
0
 10
1345.781610556269
 20
1996.4182714793119
 30
0.0
 40
15.0
 50
310.70570683104251
 51
331.42812185768639
  0
ARC
  5
5E7E
  8
0
 10
1365.9806204329921
 20
1985.4182714793119
 30
0.0
 40
8.0
 50
150.00000000000151
 51
151.42812185768651
  0
ARC
  5
5E7F
  8
0
 10
1380.781610556269
 20
2079.9182714793119
 30
0.0
 40
2.0
 50
0.000000000000007
 51
90.0
  0
LINE
  5
5E80
  8
0
 10
1353.781610556269
 20
2072.9182714793119
 30
0.0
 11
1353.781610556269
 21
2071.4182714793128
 31
0.0
  0
ARC
  5
5E81
  8
0
 10
1352.281610556269
 20
2071.4182714793128
 30
0.0
 40
1.5
 50
270.0
 51
0.000000000000007
  0
ARC
  5
5E82
  8
0
 10
1355.781610556269
 20
2072.9182714793119
 30
0.0
 40
2.0
 50
90.0
 51
180.0
  0
ARC
  5
5E83
  8
0
 10
1380.781610556269
 20
2076.9182714793119
 30
0.0
 40
2.0
 50
270.0
 51
0.000000000000007
  0
LINE
  5
5E84
  8
0
 10
1382.781610556269
 20
2079.9182714793119
 30
0.0
 11
1382.781610556269
 21
2076.9182714793119
 31
0.0
  0
LINE
  5
5E85
  8
0
 10
1351.4529715930439
 20
2128.7469104425381
 30
0.0
 11
1351.4529715930439
 21
2092.2469104425381
 31
0.0
  0
LINE
  5
5E86
  8
0
 10
1351.4529715930439
 20
2092.2469104425381
 30
0.0
 11
1353.781610556269
 21
2089.9182714793119
 31
0.0
  0
LINE
  5
5E87
  8
0
 10
1348.281610556269
 20
2131.9182714793128
 30
0.0
 11
1351.4529715930439
 21
2128.7469104425381
 31
0.0
  0
LINE
  5
5E88
  8
0
 10
1301.7816105562681
 20
2089.9182714793119
 30
0.0
 11
1301.7816105562681
 21
2082.9762333635631
 31
0.0
  0
LINE
  5
5E89
  8
0
 10
1265.949754214442
 20
1994.749271479312
 30
0.0
 11
1277.781610556269
 21
1994.749271479312
 31
0.0
  0
LINE
  5
5E8A
  8
0
 10
1265.949754214442
 20
1986.4182714793119
 30
0.0
 11
1274.949754214442
 21
1986.4182714793119
 31
0.0
  0
LINE
  5
5E8B
  8
0
 10
1306.781610556269
 20
2022.4182714793119
 30
0.0
 11
1306.781610556269
 21
2069.9182714793128
 31
0.0
  0
LINE
  5
5E8C
  8
0
 10
1281.281610556269
 20
2014.4182714793119
 30
0.0
 11
1281.281610556269
 21
1995.4182714793119
 31
0.0
  0
LINE
  5
5E8D
  8
0
 10
1284.025485059314
 20
2023.514271479313
 30
0.0
 11
1285.590485059314
 21
2024.4182714793119
 31
0.0
  0
LINE
  5
5E8E
  8
0
 10
1284.9314850593139
 20
2023.952271479312
 30
0.0
 11
1284.025485059314
 21
2023.5152714793121
 31
0.0
  0
LINE
  5
5E8F
  8
0
 10
1285.4304850593139
 20
2024.0982714793131
 30
0.0
 11
1284.9314850593139
 21
2023.952271479312
 31
0.0
  0
LINE
  5
5E90
  8
0
 10
1285.9494850593139
 20
2024.188271479313
 30
0.0
 11
1285.4304850593139
 21
2024.0982714793131
 31
0.0
  0
ARC
  5
5E91
  8
0
 10
1283.281610556269
 20
2014.4182714793119
 30
0.0
 40
2.0
 50
90.0
 51
180.0
  0
LINE
  5
5E92
  8
0
 10
1284.025485059314
 20
2016.418271479313
 30
0.0
 11
1284.025485059314
 21
2023.514271479313
 31
0.0
  0
ARC
  5
5E93
  8
0
 10
1279.781610556269
 20
1998.4182714793119
 30
0.0
 40
2.0
 50
90.0
 51
180.0
  0
LINE
  5
5E94
  8
0
 10
1281.281610556269
 20
2000.418271479313
 30
0.0
 11
1279.781610556269
 21
2000.418271479313
 31
0.0
  0
LINE
  5
5E95
  8
0
 10
1281.281610556269
 20
2005.4182714793119
 30
0.0
 11
1281.281610556269
 21
1995.4182714793119
 31
0.0
  0
ARC
  5
5E96
  8
0
 10
1283.281610556269
 20
1995.4182714793119
 30
0.0
 40
2.0
 50
180.0
 51
270.0
  0
LINE
  5
5E97
  8
0
 10
1287.0084850593139
 20
2024.188271479313
 30
0.0
 11
1286.479485059315
 21
2024.218271479313
 31
0.0
  0
ARC
  5
5E98
  8
0
 10
1301.201485059313
 20
2019.586947413896
 30
0.0
 40
4.6309815714167701
 50
58.000676159490823
 51
121.99932384050911
  0
LINE
  5
5E99
  8
0
 10
1302.090485059314
 20
2024.4182714793119
 30
0.0
 11
1303.655485059315
 21
2023.514271479313
 31
0.0
  0
ARC
  5
5E9A
  8
0
 10
1300.781610556269
 20
2022.4182714793119
 30
0.0
 40
5.9999999999999281
 50
298.6187455799494
 51
0.000000000000007
  0
LINE
  5
5E9B
  8
0
 10
1303.655485059315
 20
2023.514271479313
 30
0.0
 11
1303.655485059315
 21
2016.418271479313
 31
0.0
  0
ARC
  5
5E9C
  8
0
 10
1293.840485059314
 20
2006.7552798861991
 30
0.0
 40
17.462601416113358
 50
73.680072331667475
 51
106.3199276683325
  0
LINE
  5
5E9D
  8
0
 10
1287.5274850593139
 20
2024.0982714793131
 30
0.0
 11
1287.0084850593139
 21
2024.188271479313
 31
0.0
  0
LINE
  5
5E9E
  8
0
 10
1288.0274850593139
 20
2023.952271479312
 30
0.0
 11
1287.5274850593139
 21
2024.0982714793131
 31
0.0
  0
LINE
  5
5E9F
  8
0
 10
1288.4974850593151
 20
2023.755271479313
 30
0.0
 11
1288.0274850593139
 21
2023.952271479312
 31
0.0
  0
LINE
  5
5EA0
  8
0
 10
1288.933485059315
 20
2023.514271479313
 30
0.0
 11
1288.4974850593151
 21
2023.755271479313
 31
0.0
  0
LINE
  5
5EA1
  8
0
 10
1298.747485059313
 20
2023.514271479313
 30
0.0
 11
1298.747485059313
 21
2016.418271479313
 31
0.0
  0
LINE
  5
5EA2
  8
0
 10
1288.933485059315
 20
2023.514271479313
 30
0.0
 11
1288.933485059315
 21
2016.418271479313
 31
0.0
  0
ARC
  5
5EA3
  8
0
 10
1289.5826006795451
 20
1985.4182714793119
 30
0.0
 40
8.0
 50
28.571878142313519
 51
29.99999999999854
  0
LINE
  5
5EA4
  8
0
 10
1298.0284850593141
 20
1989.4182714793119
 30
0.0
 11
1289.6524850593139
 21
1989.4182714793119
 31
0.0
  0
LINE
  5
5EA5
  8
0
 10
1289.6524850593139
 20
1989.4182714793119
 30
0.0
 11
1288.840485059314
 21
1990.230271479312
 31
0.0
  0
LINE
  5
5EA6
  8
0
 10
1288.840485059314
 20
1990.230271479312
 30
0.0
 11
1288.840485059314
 21
1993.4182714793119
 31
0.0
  0
ARC
  5
5EA7
  8
0
 10
1289.5826006795451
 20
1985.4182714793119
 30
0.0
 40
8.0
 50
28.571878142313519
 51
29.999999999998511
  0
ARC
  5
5EA8
  8
0
 10
1289.5826006795451
 20
1985.4182714793119
 30
0.0
 40
8.0
 50
28.571878142313519
 51
29.999999999998469
  0
LINE
  5
5EA9
  8
0
 10
1298.840485059314
 20
1993.4182714793119
 30
0.0
 11
1298.840485059314
 21
1990.230271479312
 31
0.0
  0
ARC
  5
5EAA
  8
0
 10
1309.7816105562681
 20
1996.4182714793119
 30
0.0
 40
15.0
 50
208.57187814231349
 51
229.29429316895761
  0
LINE
  5
5EAB
  8
0
 10
1288.840485059314
 20
1990.230271479312
 30
0.0
 11
1298.840485059314
 21
1990.230271479312
 31
0.0
  0
LINE
  5
5EAC
  8
0
 10
1298.840485059314
 20
1990.230271479312
 30
0.0
 11
1298.0284850593141
 21
1989.4182714793119
 31
0.0
  0
ARC
  5
5EAD
  8
0
 10
1309.7816105562681
 20
1996.4182714793119
 30
0.0
 40
15.0
 50
208.57187814231349
 51
229.29429316895761
  0
LINE
  5
5EAE
  8
0
 10
1285.590485059314
 20
2024.4182714793119
 30
0.0
 11
1302.090485059314
 21
2024.4182714793119
 31
0.0
  0
LINE
  5
5EAF
  8
0
 10
1286.479485059315
 20
2024.218271479313
 30
0.0
 11
1285.9494850593139
 21
2024.188271479313
 31
0.0
  0
LINE
  5
5EB0
  8
0
 10
1295.781610556269
 20
2081.9182714793128
 30
0.0
 11
1327.781610556269
 21
2087.5607348619842
 31
0.0
  0
ARC
  5
5EB1
  8
0
 10
1274.781610556269
 20
2079.9182714793119
 30
0.0
 40
2.0
 50
90.0
 51
180.0
  0
ARC
  5
5EB2
  8
0
 10
1274.781610556269
 20
2076.9182714793119
 30
0.0
 40
2.0
 50
180.0
 51
270.0
  0
LINE
  5
5EB3
  8
0
 10
1272.781610556269
 20
2079.9182714793119
 30
0.0
 11
1272.781610556269
 21
2076.9182714793119
 31
0.0
  0
ARC
  5
5EB4
  8
0
 10
1299.781610556269
 20
2072.9182714793119
 30
0.0
 40
2.0
 50
0.000000000000007
 51
90.0
  0
LINE
  5
5EB5
  8
0
 10
1301.7816105562681
 20
2072.9182714793119
 30
0.0
 11
1301.7816105562681
 21
2071.4182714793128
 31
0.0
  0
ARC
  5
5EB6
  8
0
 10
1303.281610556269
 20
2071.4182714793128
 30
0.0
 40
1.5
 50
180.0
 51
270.0
  0
LINE
  5
5EB7
  8
0
 10
1310.040445396809
 20
2145.7124456820188
 30
0.0
 11
1307.281610556269
 21
2131.9182714793128
 31
0.0
  0
ARC
  5
5EB8
  8
0
 10
1310.028089778687
 20
2100.0021187758721
 30
0.0
 40
9.7552083333333677
 50
232.65349068554289
 51
307.34650931445691
  0
ARC
  5
5EB9
  8
0
 10
1310.028089778687
 20
2120.9917021092042
 30
0.0
 40
9.7552083333333677
 50
52.653490685543112
 51
127.34650931445709
  0
LINE
  5
5EBA
  8
0
 10
1315.9459300378819
 20
2128.7469104425368
 30
0.0
 11
1315.9459300378819
 21
2092.2469104425381
 31
0.0
  0
LINE
  5
5EBB
  8
0
 10
1339.617291074655
 20
2128.7469104425368
 30
0.0
 11
1339.617291074655
 21
2092.2469104425381
 31
0.0
  0
ARC
  5
5EBC
  8
0
 10
1327.781610556269
 20
2126.2677437758712
 30
0.0
 40
36.02083333333254
 50
250.8174656949729
 51
289.1825343050271
  0
ARC
  5
5EBD
  8
0
 10
1327.781610556269
 20
2094.7260771092051
 30
0.0
 40
36.02083333333254
 50
70.817465694972867
 51
109.1825343050271
  0
LINE
  5
5EBE
  8
0
 10
1304.110249519493
 20
2128.7469104425368
 30
0.0
 11
1304.110249519493
 21
2092.2469104425381
 31
0.0
  0
LINE
  5
5EBF
  8
0
 10
1304.110249519493
 20
2092.2469104425381
 30
0.0
 11
1301.7816105562681
 21
2089.9182714793119
 31
0.0
  0
LINE
  5
5EC0
  8
0
 10
1307.281610556269
 20
2131.9182714793128
 30
0.0
 11
1304.110249519493
 21
2128.7469104425368
 31
0.0
  0
ARC
  5
5EC1
  8
0
 10
1311.5113164103459
 20
2145.4182714793128
 30
0.0
 40
1.5
 50
90.0
 51
168.69006752598099
  0
LINE
  5
5EC2
  8
0
 10
1344.0519047021901
 20
2146.9182714793128
 30
0.0
 11
1311.5113164103459
 21
2146.9182714793128
 31
0.0
  0
ARC
  5
5EC3
  8
0
 10
1344.0519047021901
 20
2145.4182714793128
 30
0.0
 40
1.5
 50
11.309932474018961
 51
90.0
  0
ARC
  5
5EC4
  8
0
 10
1400.781610556267
 20
1798.4182714793119
 30
0.0
 40
24.0
 50
97.180755781458274
 51
171.37307344132299
  0
ARC
  5
5EC5
  8
0
 10
1381.0078906229819
 20
1801.4182714793119
 30
0.0
 40
4.0
 50
171.37307344132299
 51
270.0
  0
ARC
  5
5EC6
  8
0
 10
1241.781610556269
 20
1818.7092769971459
 30
0.0
 40
4.0
 50
95.553444195653427
 51
180.0
  0
ARC
  5
5EC7
  8
0
 10
1235.781610556269
 20
1880.4182714793119
 30
0.0
 40
58.0
 50
275.55344419565341
 51
305.31877290301139
  0
ARC
  5
5EC8
  8
0
 10
1272.781610556269
 20
1828.1975859227241
 30
0.0
 40
6.0
 50
0.000000000000007
 51
125.31877290301141
  0
ARC
  5
5EC9
  8
0
 10
1243.781610556269
 20
1880.791817969103
 30
0.0
 40
6.0
 50
180.0
 51
319.17910895668149
  0
ARC
  5
5ECA
  8
0
 10
1413.781610556269
 20
1882.3860050186311
 30
0.0
 40
4.0
 50
268.15142835477309
 51
0.000000000000007
  0
LINE
  5
5ECB
  8
0
 10
1414.142485236257
 20
1820.747932891247
 30
0.0
 11
1397.781610556269
 21
1822.2300332788941
 31
0.0
  0
ARC
  5
5ECC
  8
0
 10
1413.781610556269
 20
1816.764244968562
 30
0.0
 40
4.0
 50
0.000000000000007
 51
84.823812864032433
  0
ARC
  5
5ED7
  8
0
 10
2771.957123839542
 20
809.38995143467776
 30
0.0
 40
59.0
 50
41.834378633436927
 51
94.031936375689327
  0
ARC
  5
5EDC
  8
0
 10
2767.457123839542
 20
873.23155229179906
 30
0.0
 40
5.0
 50
180.0
 51
274.03193637568933
  0
ARC
  5
5EDD
  8
0
 10
2800.457123839542
 20
870.02616173842239
 30
0.0
 40
8.0
 50
244.8257161177817
 51
0.0
  0
ARC
  5
5EE0
  8
0
 10
2767.457123839542
 20
794.82332127766415
 30
0.0
 40
5.0
 50
100.9716102296706
 51
180.0
  0
ARC
  5
5EE5
  8
0
 10
2979.457123839542
 20
849.38995143467753
 30
0.0
 40
49.0
 50
215.09680122758471
 51
261.63639821097343
  0
ARC
  5
5EE6
  8
0
 10
2934.457123839542
 20
817.76717483299376
 30
0.0
 40
6.0
 50
35.096801227583747
 51
180.0
  0
ARC
  5
5EE7
  8
0
 10
2971.457123839542
 20
794.97487999302643
 30
0.0
 40
6.0
 50
0.0
 51
81.636398210972246
  0
ARC
  5
5EEE
  8
0
 10
2972.457123839542
 20
884.22055245414231
 30
0.0
 40
5.0
 50
221.97634201728781
 51
0.0
  0
ARC
  5
5EEF
  8
0
 10
2915.957123839542
 20
833.38995143467776
 30
0.0
 40
71.0
 50
41.976342017287571
 51
80.528501533537934
  0
ARC
  5
5EF0
  8
0
 10
2928.957123839542
 20
911.31299038979034
 30
0.0
 40
8.0
 50
180.0
 51
260.52850153353882
  0
LINE
  5
5EF1
  8
0
 10
2931.457123839542
 20
923.38995143467753
 30
0.0
 11
2931.457123839542
 21
908.81375404366827
 31
0.0
  0
ARC
  5
5EF2
  8
0
 10
2939.457123839542
 20
908.81375404366827
 30
0.0
 40
8.0
 50
180.0
 51
252.69439010131799
  0
LINE
  5
5EF4
  8
0
 10
2977.457123839542
 20
1553.0809703027969
 30
0.0
 11
2977.457123839542
 21
1398.0809703027969
 31
0.0
  0
LINE
  5
5EF5
  8
0
 10
2999.457123839542
 20
1398.0809703027969
 30
0.0
 11
2999.457123839542
 21
1475.5809703027969
 31
0.0
  0
LINE
  5
5EF6
  8
0
 10
2977.457123839542
 20
1398.0809703027969
 30
0.0
 11
2999.457123839542
 21
1398.0809703027969
 31
0.0
  0
LINE
  5
5EF7
  8
0
 10
2999.457123839542
 20
1475.5809703027969
 30
0.0
 11
2999.457123839542
 21
1553.0809703027969
 31
0.0
  0
LINE
  5
5EF8
  8
0
 10
2999.457123839542
 20
1553.0809703027969
 30
0.0
 11
2977.457123839542
 21
1553.0809703027969
 31
0.0
  0
LINE
  5
5EF9
  8
0
 10
2963.4571238395411
 20
1508.1222390815849
 30
0.0
 11
2945.957123839542
 21
1508.1222390815849
 31
0.0
  0
ARC
  5
5EFA
  8
0
 10
2972.4571238395429
 20
1435.0209990751821
 30
0.0
 40
5.0
 50
0.0
 51
77.822702211579013
  0
ARC
  5
5EFB
  8
0
 10
2985.957123839542
 20
1497.5809703027969
 30
0.0
 40
59.0
 50
247.58230246368211
 51
257.82270221157899
  0
LINE
  5
5EFC
  8
0
 10
2963.457123839542
 20
1443.0397015240089
 30
0.0
 11
2945.9571238395429
 21
1443.039701524008
 31
0.0
  0
ARC
  5
5EFD
  8
0
 10
2767.457123839542
 20
1516.1409415304111
 30
0.0
 40
5.0
 50
180.0
 51
257.82270221158029
  0
ARC
  5
5EFE
  8
0
 10
2753.957123839542
 20
1453.5809703027969
 30
0.0
 40
59.0
 50
67.582302463684542
 51
77.822702211580349
  0
LINE
  5
5EFF
  8
0
 10
2762.457123839542
 20
1553.0809703027969
 30
0.0
 11
2762.457123839542
 21
1398.0809703027969
 31
0.0
  0
LINE
  5
5F00
  8
0
 10
2740.457123839542
 20
1398.0809703027969
 30
0.0
 11
2740.457123839542
 21
1475.5809703027969
 31
0.0
  0
LINE
  5
5F01
  8
0
 10
2762.457123839542
 20
1398.0809703027969
 30
0.0
 11
2740.457123839542
 21
1398.0809703027969
 31
0.0
  0
LINE
  5
5F02
  8
0
 10
2740.457123839542
 20
1475.5809703027969
 30
0.0
 11
2740.457123839542
 21
1553.0809703027969
 31
0.0
  0
LINE
  5
5F03
  8
0
 10
2740.457123839542
 20
1553.0809703027969
 30
0.0
 11
2762.457123839542
 21
1553.0809703027969
 31
0.0
  0
LINE
  5
5F04
  8
0
 10
2776.4571238395429
 20
1508.1222390815849
 30
0.0
 11
2793.957123839542
 21
1508.1222390815849
 31
0.0
  0
ARC
  5
5F05
  8
0
 10
2767.457123839542
 20
1435.0209990751821
 30
0.0
 40
5.0
 50
102.17729778841969
 51
180.0
  0
ARC
  5
5F06
  8
0
 10
2753.9571238395429
 20
1497.5809703027969
 30
0.0
 40
59.0
 50
282.17729778841982
 51
292.41769753631581
  0
LINE
  5
5F07
  8
0
 10
2776.457123839542
 20
1443.0397015240089
 30
0.0
 11
2793.9571238395411
 21
1443.039701524008
 31
0.0
  0
LINE
  5
5F08
  8
0
 10
2793.4571238395401
 20
1782.8916601385311
 30
0.0
 11
2793.4571238395401
 21
1756.8916601385311
 31
0.0
  0
LINE
  5
5F09
  8
0
 10
2764.4571238395401
 20
1924.391660138532
 30
0.0
 11
2764.4571238395401
 21
1769.391660138532
 31
0.0
  0
LINE
  5
5F0A
  8
0
 10
2742.4571238395401
 20
1769.391660138532
 30
0.0
 11
2742.4571238395401
 21
1846.8916601385311
 31
0.0
  0
LINE
  5
5F0B
  8
0
 10
2904.4728884858268
 20
1759.2055802453899
 30
0.0
 11
2904.4728884858268
 21
1780.5777400316731
 31
0.0
  0
LINE
  5
5F0C
  8
0
 10
2839.4413591932539
 20
1759.2055802453899
 30
0.0
 11
2839.4413591932539
 21
1780.5777400316731
 31
0.0
  0
LINE
  5
5F0D
  8
0
 10
2950.4571238395388
 20
1782.8916601385311
 30
0.0
 11
2950.457123839542
 21
1756.8916601385311
 31
0.0
  0
LINE
  5
5F0E
  8
0
 10
2979.4571238395411
 20
1924.391660138532
 30
0.0
 11
2979.4571238395411
 21
1769.391660138532
 31
0.0
  0
LINE
  5
5F0F
  8
0
 10
3001.4571238395401
 20
1769.391660138532
 30
0.0
 11
3001.4571238395401
 21
1846.8916601385311
 31
0.0
  0
LINE
  5
5F10
  8
0
 10
2889.523964105098
 20
1744.891660138532
 30
0.0
 11
2907.9659641050971
 21
1744.891660138532
 31
0.0
  0
ARC
  5
5F11
  8
0
 10
2890.5179641050968
 20
1750.2914569234961
 30
0.0
 40
5.1763273479641221
 50
238.00046438817711
 51
301.99953561182298
  0
LINE
  5
5F12
  8
0
 10
2948.457123839542
 20
1754.891660138532
 30
0.0
 11
2795.4571238395401
 21
1754.891660138532
 31
0.0
  0
LINE
  5
5F13
  8
0
 10
2950.4571238395411
 20
1769.8916601385311
 30
0.0
 11
2793.4571238395401
 21
1769.8916601385311
 31
0.0
  0
LINE
  5
5F14
  8
0
 10
2979.4571238395411
 20
1769.391660138532
 30
0.0
 11
3001.4571238395401
 21
1769.391660138532
 31
0.0
  0
ARC
  5
5F15
  8
0
 10
2928.4016911153308
 20
1750.2914569234961
 30
0.0
 40
5.1763273479641221
 50
238.00046438817711
 51
301.99953561182298
  0
LINE
  5
5F16
  8
0
 10
2927.407691115332
 20
1744.891660138532
 30
0.0
 11
2945.8496911153311
 21
1744.891660138532
 31
0.0
  0
LINE
  5
5F17
  8
0
 10
2947.5986911153309
 20
1745.901660138532
 30
0.0
 11
2947.5986911153309
 21
1754.891660138532
 31
0.0
  0
LINE
  5
5F18
  8
0
 10
2931.1446911153289
 20
1745.901660138532
 30
0.0
 11
2931.1446911153289
 21
1754.891660138532
 31
0.0
  0
LINE
  5
5F19
  8
0
 10
2942.1126911153301
 20
1745.901660138532
 30
0.0
 11
2942.1126911153301
 21
1754.891660138532
 31
0.0
  0
LINE
  5
5F1A
  8
0
 10
2945.8496911153311
 20
1744.891660138532
 30
0.0
 11
2947.5986911153309
 21
1745.901660138532
 31
0.0
  0
ARC
  5
5F1B
  8
0
 10
2936.6286911153288
 20
1764.63156550854
 30
0.0
 40
19.51623967800851
 50
253.6802968976971
 51
286.31970310230292
  0
ARC
  5
5F1C
  8
0
 10
2944.85569111533
 20
1750.2914569234961
 30
0.0
 40
5.1763273479641221
 50
238.00046438817711
 51
301.99953561182298
  0
ARC
  5
5F1D
  8
0
 10
2948.457123839542
 20
1756.8916601385311
 30
0.0
 40
2.0
 50
270.0
 51
0.0000000000065208
  0
LINE
  5
5F1E
  8
0
 10
2925.6586911153299
 20
1754.891660138532
 30
0.0
 11
2925.6586911153299
 21
1745.901660138532
 31
0.0
  0
LINE
  5
5F1F
  8
0
 10
2904.2289641050961
 20
1745.901660138532
 30
0.0
 11
2904.2289641050961
 21
1754.891660138532
 31
0.0
  0
LINE
  5
5F20
  8
0
 10
2893.2609641050949
 20
1745.901660138532
 30
0.0
 11
2893.2609641050949
 21
1754.891660138532
 31
0.0
  0
LINE
  5
5F21
  8
0
 10
2909.7149641050969
 20
1745.901660138532
 30
0.0
 11
2909.7149641050969
 21
1754.891660138532
 31
0.0
  0
LINE
  5
5F22
  8
0
 10
2925.6586911153299
 20
1745.901660138532
 30
0.0
 11
2927.407691115332
 21
1744.891660138532
 31
0.0
  0
ARC
  5
5F23
  8
0
 10
2906.971964105096
 20
1750.2914569234961
 30
0.0
 40
5.1763273479641221
 50
238.00046438817711
 51
301.99953561182298
  0
ARC
  5
5F24
  8
0
 10
2898.7449641050948
 20
1764.63156550854
 30
0.0
 40
19.51623967800851
 50
253.6802968976971
 51
286.31970310230292
  0
LINE
  5
5F25
  8
0
 10
2907.9659641050971
 20
1744.891660138532
 30
0.0
 11
2909.7149641050969
 21
1745.901660138532
 31
0.0
  0
ARC
  5
5F26
  8
0
 10
2815.51255656375
 20
1750.2914569234961
 30
0.0
 40
5.1763273479641221
 50
238.00046438817711
 51
301.99953561182298
  0
LINE
  5
5F27
  8
0
 10
2816.5065565637492
 20
1744.891660138532
 30
0.0
 11
2798.0645565637501
 21
1744.891660138532
 31
0.0
  0
ARC
  5
5F28
  8
0
 10
2853.396283573984
 20
1750.2914569234961
 30
0.0
 40
5.1763273479641221
 50
238.00046438817711
 51
301.99953561182298
  0
LINE
  5
5F29
  8
0
 10
2854.3902835739832
 20
1744.891660138532
 30
0.0
 11
2835.9482835739841
 21
1744.891660138532
 31
0.0
  0
LINE
  5
5F2A
  8
0
 10
2887.7749641050959
 20
1754.891660138532
 30
0.0
 11
2887.7749641050959
 21
1745.901660138532
 31
0.0
  0
LINE
  5
5F2B
  8
0
 10
2856.1392835739839
 20
1754.891660138532
 30
0.0
 11
2856.1392835739839
 21
1745.901660138532
 31
0.0
  0
LINE
  5
5F2C
  8
0
 10
2887.7749641050959
 20
1745.901660138532
 30
0.0
 11
2889.523964105098
 21
1744.891660138532
 31
0.0
  0
LINE
  5
5F2D
  8
0
 10
2856.1392835739839
 20
1745.901660138532
 30
0.0
 11
2854.3902835739832
 21
1744.891660138532
 31
0.0
  0
ARC
  5
5F2E
  8
0
 10
2858.5409253524449
 20
1750.891660138532
 30
0.0
 40
4.0
 50
22.024312837042871
 51
90.0
  0
ARC
  5
5F2F
  8
0
 10
2865.9571238395401
 20
1753.8916601385311
 30
0.0
 40
4.0
 50
202.024312837043
 51
270.0
  0
ARC
  5
5F30
  8
0
 10
2885.3733223266358
 20
1750.891660138532
 30
0.0
 40
4.0
 50
90.0
 51
157.97568716295709
  0
ARC
  5
5F31
  8
0
 10
2877.9571238395401
 20
1753.8916601385311
 30
0.0
 40
4.0
 50
270.0
 51
337.975687162957
  0
LINE
  5
5F32
  8
0
 10
2877.9571238395401
 20
1749.891660138532
 30
0.0
 11
2865.9571238395401
 21
1749.891660138532
 31
0.0
  0
LINE
  5
5F33
  8
0
 10
2834.1992835739838
 20
1745.901660138532
 30
0.0
 11
2834.1992835739838
 21
1754.891660138532
 31
0.0
  0
LINE
  5
5F34
  8
0
 10
2850.6532835739849
 20
1745.901660138532
 30
0.0
 11
2850.6532835739849
 21
1754.891660138532
 31
0.0
  0
LINE
  5
5F35
  8
0
 10
2839.6852835739851
 20
1745.901660138532
 30
0.0
 11
2839.6852835739851
 21
1754.891660138532
 31
0.0
  0
LINE
  5
5F36
  8
0
 10
2818.2555565637499
 20
1754.891660138532
 30
0.0
 11
2818.2555565637499
 21
1745.901660138532
 31
0.0
  0
LINE
  5
5F37
  8
0
 10
2835.9482835739841
 20
1744.891660138532
 30
0.0
 11
2834.1992835739838
 21
1745.901660138532
 31
0.0
  0
ARC
  5
5F38
  8
0
 10
2845.169283573985
 20
1764.63156550854
 30
0.0
 40
19.51623967800851
 50
253.6802968976971
 51
286.31970310230292
  0
ARC
  5
5F39
  8
0
 10
2836.9422835739838
 20
1750.2914569234961
 30
0.0
 40
5.1763273479641221
 50
238.00046438817711
 51
301.99953561182298
  0
LINE
  5
5F3A
  8
0
 10
2818.2555565637499
 20
1745.901660138532
 30
0.0
 11
2816.5065565637492
 21
1744.891660138532
 31
0.0
  0
LINE
  5
5F3B
  8
0
 10
2764.4571238395401
 20
1769.391660138532
 30
0.0
 11
2742.4571238395401
 21
1769.391660138532
 31
0.0
  0
LINE
  5
5F3C
  8
0
 10
2801.8015565637511
 20
1745.901660138532
 30
0.0
 11
2801.8015565637511
 21
1754.891660138532
 31
0.0
  0
LINE
  5
5F3D
  8
0
 10
2796.3155565637499
 20
1745.901660138532
 30
0.0
 11
2796.3155565637499
 21
1754.891660138532
 31
0.0
  0
ARC
  5
5F3E
  8
0
 10
2799.0585565637498
 20
1750.2914569234961
 30
0.0
 40
5.1763273479641221
 50
238.00046438817711
 51
301.99953561182298
  0
LINE
  5
5F3F
  8
0
 10
2798.0645565637501
 20
1744.891660138532
 30
0.0
 11
2796.3155565637499
 21
1745.901660138532
 31
0.0
  0
ARC
  5
5F40
  8
0
 10
2795.4571238395401
 20
1756.8916601385311
 30
0.0
 40
2.0
 50
180.0
 51
270.0
  0
LINE
  5
5F41
  8
0
 10
2812.7695565637509
 20
1745.901660138532
 30
0.0
 11
2812.7695565637509
 21
1754.891660138532
 31
0.0
  0
ARC
  5
5F42
  8
0
 10
2807.285556563751
 20
1764.63156550854
 30
0.0
 40
19.51623967800851
 50
253.6802968976971
 51
286.31970310230292
  0
LINE
  5
5F43
  8
0
 10
2818.9571238395401
 20
2090.8916601385299
 30
0.0
 11
2924.9571238395401
 21
2090.8916601385299
 31
0.0
  0
LINE
  5
5F44
  8
0
 10
2818.9571238395401
 20
2097.8916601385299
 30
0.0
 11
2924.9571238395401
 21
2097.8916601385299
 31
0.0
  0
LINE
  5
5F45
  8
0
 10
2845.9571238395401
 20
2105.8916601385299
 30
0.0
 11
2897.9571238395401
 21
2105.8916601385299
 31
0.0
  0
LINE
  5
5F46
  8
0
 10
2847.4571238395401
 20
2085.8916601385299
 30
0.0
 11
2896.4571238395401
 21
2085.8916601385299
 31
0.0
  0
LINE
  5
5F47
  8
0
 10
2851.4571238395401
 20
2147.8916601385299
 30
0.0
 11
2892.4571238395401
 21
2147.8916601385299
 31
0.0
  0
LINE
  5
5F48
  8
0
 10
2903.9571238395411
 20
2097.8916601385299
 30
0.0
 11
2871.9571238395411
 21
2103.5341235212009
 31
0.0
  0
ARC
  5
5F49
  8
0
 10
2889.7106446171201
 20
2115.9755074350901
 30
0.0
 40
9.7552083333333677
 50
232.6534906855639
 51
307.34650931447783
  0
ARC
  5
5F4A
  8
0
 10
2889.7106446171201
 20
2136.9650907684222
 30
0.0
 40
9.7552083333333677
 50
52.653490685522193
 51
127.3465093144361
  0
LINE
  5
5F4B
  8
0
 10
2889.6982889989999
 20
2161.6858343412368
 30
0.0
 11
2892.4571238395401
 21
2147.8916601385299
 31
0.0
  0
LINE
  5
5F4C
  8
0
 10
2919.4262549436098
 20
1863.705764397215
 30
0.0
 11
2824.4879927356428
 21
1863.705764397215
 31
0.0
  0
LINE
  5
5F4D
  8
0
 10
2894.4002216310801
 20
1984.989736349886
 30
0.0
 11
2883.089944843663
 21
1978.4597450020619
 31
0.0
  0
LINE
  5
5F4E
  8
0
 10
2916.4571238395411
 20
2032.3916601385299
 30
0.0
 11
2827.4571238395401
 21
2032.3916601385299
 31
0.0
  0
LINE
  5
5F4F
  8
0
 10
2916.4571238395411
 20
2009.891660138532
 30
0.0
 11
2827.4571238395401
 21
2009.891660138532
 31
0.0
  0
LINE
  5
5F50
  8
0
 10
2918.4571238395411
 20
2021.3916601385299
 30
0.0
 11
2825.4571238395411
 21
2021.3916601385299
 31
0.0
  0
LINE
  5
5F51
  8
0
 10
2945.9571238395401
 20
1940.891660138532
 30
0.0
 11
2795.957123839542
 21
1940.8916601385281
 31
0.0
  0
LINE
  5
5F52
  8
0
 10
2948.4571238395379
 20
1784.891660138532
 30
0.0
 11
2795.4571238395401
 21
1784.891660138532
 31
0.0
  0
LINE
  5
5F53
  8
0
 10
2947.9571238395401
 20
1971.8916601385311
 30
0.0
 11
2795.9571238395401
 21
1971.8916601385311
 31
0.0
  0
ARC
  5
5F54
  8
0
 10
2901.9571238395401
 20
1990.391660138532
 30
0.0
 40
5.0
 50
180.0
 51
270.0
  0
LINE
  5
5F55
  8
0
 10
2922.9571238395401
 20
1925.8916601385331
 30
0.0
 11
2922.9571238395438
 21
1869.891660138534
 31
0.0
  0
LINE
  5
5F56
  8
0
 10
3001.4571238395401
 20
1846.8916601385311
 30
0.0
 11
3001.4571238395401
 21
1924.391660138532
 31
0.0
  0
ARC
  5
5F57
  8
0
 10
2968.5571238395401
 20
1776.891660138532
 30
0.0
 40
36.0
 50
79.028389770314064
 51
155.2061375369488
  0
ARC
  5
5F58
  8
0
 10
2940.4146292805999
 20
1789.891660138532
 30
0.0
 40
5.0
 50
155.20613753695491
 51
270.0
  0
ARC
  5
5F59
  8
0
 10
2948.4571238395379
 20
1782.8916601385311
 30
0.0
 40
2.0
 50
0.0000000000065208
 51
90.0
  0
ARC
  5
5F5A
  8
0
 10
2919.4262549436098
 20
1853.705764397215
 30
0.0
 40
10.0
 50
21.365491589543868
 51
90.0
  0
ARC
  5
5F5B
  8
0
 10
2905.4571238395401
 20
1848.2410250439209
 30
0.0
 40
25.0
 50
0.000000000000007
 51
21.365491589543961
  0
ARC
  5
5F5C
  8
0
 10
2932.9571238395438
 20
1869.8916601385349
 30
0.0
 40
10.0
 50
180.0
 51
218.2132107017257
  0
ARC
  5
5F5D
  8
0
 10
2932.9571238395401
 20
1869.891660138532
 30
0.0
 40
10.0
 50
180.0
 51
218.2132107017253
  0
LINE
  5
5F5E
  8
0
 10
3001.4571238395401
 20
1924.391660138532
 30
0.0
 11
2979.4571238395411
 21
1924.391660138532
 31
0.0
  0
LINE
  5
5F5F
  8
0
 10
2922.9571238395401
 20
1925.891660138534
 30
0.0
 11
2925.1532399746761
 21
1936.8722408142221
 31
0.0
  0
ARC
  5
5F60
  8
0
 10
2938.4571238395401
 20
1935.891660138532
 30
0.0
 40
5.0
 50
90.0
 51
180.0
  0
LINE
  5
5F61
  8
0
 10
2933.4571238395401
 20
1935.891660138532
 30
0.0
 11
2933.4571238395401
 21
1882.5278704422769
 31
0.0
  0
ARC
  5
5F62
  8
0
 10
2930.0561433531288
 20
1935.891660138532
 30
0.0
 40
5.0
 50
90.0
 51
168.69006752598619
  0
LINE
  5
5F63
  8
0
 10
2924.6569402101268
 20
1981.891660138532
 30
0.0
 11
2943.0989402101259
 21
1981.891660138532
 31
0.0
  0
ARC
  5
5F64
  8
0
 10
2933.8779402101281
 20
1962.151754768523
 30
0.0
 40
19.51623967800851
 50
73.680296897697076
 51
106.3197031023029
  0
LINE
  5
5F65
  8
0
 10
2949.9571238395401
 20
1985.391660138532
 30
0.0
 11
2895.9002216310801
 21
1985.391660138532
 31
0.0
  0
LINE
  5
5F66
  8
0
 10
2943.0989402101259
 20
1981.891660138532
 30
0.0
 11
2944.8479402101261
 21
1980.881660138532
 31
0.0
  0
ARC
  5
5F67
  8
0
 10
2942.1049402101271
 20
1976.4918633535681
 30
0.0
 40
5.1763273479641221
 50
58.000464388177022
 51
121.99953561182301
  0
LINE
  5
5F68
  8
0
 10
2939.361940210129
 20
1980.881660138532
 30
0.0
 11
2939.361940210129
 21
1971.8916601385311
 31
0.0
  0
LINE
  5
5F69
  8
0
 10
2944.8479402101261
 20
1980.881660138532
 30
0.0
 11
2944.8479402101261
 21
1971.8916601385311
 31
0.0
  0
ARC
  5
5F6A
  8
0
 10
2950.823149243326
 20
1961.4993552931189
 30
0.0
 40
6.1339745962155821
 50
325.61575253195258
 51
34.38424746804742
  0
ARC
  5
5F6B
  8
0
 10
2956.0910984357538
 20
1961.4993552931189
 30
0.0
 40
6.1339745962155821
 50
145.61575253195261
 51
214.38424746804739
  0
LINE
  5
5F6C
  8
0
 10
2947.9571238395401
 20
1942.8916601385311
 30
0.0
 11
2947.9571238395401
 21
1971.8916601385311
 31
0.0
  0
LINE
  5
5F6D
  8
0
 10
2956.9571238395401
 20
1959.891660138532
 30
0.0
 11
2956.9571238395401
 21
1983.891660138532
 31
0.0
  0
LINE
  5
5F6E
  8
0
 10
2949.9571238395401
 20
1985.391660138532
 30
0.0
 11
2949.9571238395401
 21
1958.391660138532
 31
0.0
  0
LINE
  5
5F6F
  8
0
 10
2949.9571238395401
 20
1958.391660138532
 30
0.0
 11
2947.9571238395401
 21
1958.391660138532
 31
0.0
  0
LINE
  5
5F70
  8
0
 10
2956.9571238395401
 20
1959.891660138532
 30
0.0
 11
2955.8853270698169
 21
1958.035253677981
 31
0.0
  0
LINE
  5
5F71
  8
0
 10
2949.9571238395401
 20
1959.891660138532
 30
0.0
 11
2951.0289206092639
 21
1958.035253677981
 31
0.0
  0
LINE
  5
5F72
  8
0
 10
2955.8853270698169
 20
1958.035253677981
 30
0.0
 11
2951.0289206092639
 21
1958.035253677981
 31
0.0
  0
LINE
  5
5F73
  8
0
 10
2955.8853270698169
 20
1985.748066599082
 30
0.0
 11
2951.0289206092639
 21
1985.748066599082
 31
0.0
  0
LINE
  5
5F74
  8
0
 10
2955.8853270698169
 20
1978.8198633688071
 30
0.0
 11
2951.0289206092639
 21
1978.8198633688071
 31
0.0
  0
LINE
  5
5F75
  8
0
 10
2956.9571238395401
 20
1983.891660138532
 30
0.0
 11
2955.8853270698169
 21
1985.748066599082
 31
0.0
  0
LINE
  5
5F76
  8
0
 10
2949.9571238395401
 20
1983.891660138532
 30
0.0
 11
2951.0289206092639
 21
1985.748066599082
 31
0.0
  0
ARC
  5
5F77
  8
0
 10
2950.823149243326
 20
1982.283964983945
 30
0.0
 40
6.1339745962155821
 50
325.61575253195258
 51
34.38424746804742
  0
ARC
  5
5F78
  8
0
 10
2956.0910984357538
 20
1982.283964983945
 30
0.0
 40
6.1339745962155821
 50
145.61575253195261
 51
214.38424746804739
  0
LINE
  5
5F79
  8
0
 10
2955.8853270698169
 20
1964.9634569082559
 30
0.0
 11
2951.0289206092639
 21
1964.9634569082559
 31
0.0
  0
ARC
  5
5F7A
  8
0
 10
2934.0289206092639
 20
1971.8916601385311
 30
0.0
 40
22.928203230275809
 50
342.41204622600549
 51
17.58795377399446
  0
ARC
  5
5F7B
  8
0
 10
2972.885327069816
 20
1971.8916601385311
 30
0.0
 40
22.928203230275809
 50
162.41204622600549
 51
197.5879537739944
  0
ARC
  5
5F7C
  8
0
 10
2945.9571238395401
 20
1942.8916601385311
 30
0.0
 40
2.0
 50
270.0
 51
0.000000000000007
  0
ARC
  5
5F7D
  8
0
 10
2925.6509402101269
 20
1976.4918633535681
 30
0.0
 40
5.1763273479641221
 50
58.000464388177022
 51
121.99953561182301
  0
LINE
  5
5F7E
  8
0
 10
2922.907940210127
 20
1980.881660138532
 30
0.0
 11
2924.6569402101268
 21
1981.891660138532
 31
0.0
  0
LINE
  5
5F7F
  8
0
 10
2922.907940210127
 20
1971.8916601385311
 30
0.0
 11
2922.907940210127
 21
1980.881660138532
 31
0.0
  0
LINE
  5
5F80
  8
0
 10
2928.3939402101282
 20
1980.881660138532
 30
0.0
 11
2928.3939402101282
 21
1971.8916601385311
 31
0.0
  0
ARC
  5
5F81
  8
0
 10
2895.9002216310801
 20
1982.391660138532
 30
0.0
 40
3.0
 50
90.0
 51
120.0000000000001
  0
LINE
  5
5F82
  8
0
 10
2926.9571238395401
 20
2095.8916601385299
 30
0.0
 11
2926.9571238395401
 21
2092.8916601385299
 31
0.0
  0
LINE
  5
5F83
  8
0
 10
2892.9571238395401
 20
2038.3916601385299
 30
0.0
 11
2892.9571238395401
 21
2085.8916601385299
 31
0.0
  0
ARC
  5
5F84
  8
0
 10
2916.4571238395411
 20
2030.3916601385299
 30
0.0
 40
2.0
 50
0.000000000000007
 51
90.0
  0
ARC
  5
5F85
  8
0
 10
2916.4571238395411
 20
2011.891660138532
 30
0.0
 40
2.0
 50
270.0
 51
0.000000000000007
  0
LINE
  5
5F86
  8
0
 10
2910.8052493364939
 20
2039.4876601385299
 30
0.0
 11
2911.2412493364941
 21
2039.7286601385299
 31
0.0
  0
LINE
  5
5F87
  8
0
 10
2911.2412493364941
 20
2039.7286601385299
 30
0.0
 11
2911.7112493364948
 21
2039.92566013853
 31
0.0
  0
LINE
  5
5F88
  8
0
 10
2911.7112493364948
 20
2039.92566013853
 30
0.0
 11
2912.2112493364948
 21
2040.07166013853
 31
0.0
  0
LINE
  5
5F89
  8
0
 10
2912.730249336495
 20
2040.1616601385299
 30
0.0
 11
2913.2592493364941
 21
2040.1916601385301
 31
0.0
  0
LINE
  5
5F8A
  8
0
 10
2913.2592493364941
 20
2040.1916601385301
 30
0.0
 11
2913.7892493364939
 21
2040.1616601385299
 31
0.0
  0
LINE
  5
5F8B
  8
0
 10
2913.7892493364939
 20
2040.1616601385299
 30
0.0
 11
2914.3082493364932
 21
2040.07166013853
 31
0.0
  0
LINE
  5
5F8C
  8
0
 10
2914.3082493364932
 20
2040.07166013853
 30
0.0
 11
2914.8072493364939
 21
2039.92566013853
 31
0.0
  0
LINE
  5
5F8D
  8
0
 10
2914.8072493364939
 20
2039.92566013853
 30
0.0
 11
2915.7132493364952
 21
2039.4886601385299
 31
0.0
  0
LINE
  5
5F8E
  8
0
 10
2915.7132493364952
 20
2039.4876601385299
 30
0.0
 11
2914.1482493364929
 21
2040.3916601385299
 31
0.0
  0
LINE
  5
5F8F
  8
0
 10
2912.2112493364948
 20
2040.07166013853
 30
0.0
 11
2912.730249336495
 21
2040.1616601385299
 31
0.0
  0
LINE
  5
5F90
  8
0
 10
2897.6482493364929
 20
2040.3916601385299
 30
0.0
 11
2896.0832493364951
 21
2039.4876601385299
 31
0.0
  0
ARC
  5
5F91
  8
0
 10
2898.5372493364962
 20
2035.5603360731129
 30
0.0
 40
4.6309815714167701
 50
58.000676159512963
 51
121.99932384048699
  0
ARC
  5
5F92
  8
0
 10
2905.8982493364929
 20
2022.7286685454169
 30
0.0
 40
17.462601416113358
 50
73.680072331654983
 51
106.319927668345
  0
LINE
  5
5F93
  8
0
 10
2914.1482493364929
 20
2040.3916601385299
 30
0.0
 11
2897.6482493364929
 21
2040.3916601385299
 31
0.0
  0
LINE
  5
5F94
  8
0
 10
2915.7132493364952
 20
2032.3916601385299
 30
0.0
 11
2915.7132493364952
 21
2039.4876601385299
 31
0.0
  0
LINE
  5
5F95
  8
0
 10
2910.8052493364939
 20
2039.4876601385299
 30
0.0
 11
2910.8052493364939
 21
2032.3916601385299
 31
0.0
  0
LINE
  5
5F96
  8
0
 10
2900.9912493364941
 20
2039.4876601385299
 30
0.0
 11
2900.9912493364941
 21
2032.3916601385299
 31
0.0
  0
LINE
  5
5F97
  8
0
 10
2896.0832493364951
 20
2039.4876601385299
 30
0.0
 11
2896.0832493364951
 21
2032.3916601385299
 31
0.0
  0
ARC
  5
5F98
  8
0
 10
2898.9571238395401
 20
2038.3916601385299
 30
0.0
 40
5.9999999999999281
 50
180.0
 51
241.38125442002811
  0
LINE
  5
5F99
  8
0
 10
2900.8982493364929
 20
2009.891660138532
 30
0.0
 11
2900.8982493364929
 21
2006.7036601385321
 31
0.0
  0
LINE
  5
5F9A
  8
0
 10
2900.8982493364929
 20
2006.7036601385321
 30
0.0
 11
2901.7102493364951
 21
2005.891660138532
 31
0.0
  0
ARC
  5
5F9B
  8
0
 10
2910.1561337162639
 20
2001.891660138532
 30
0.0
 40
8.0
 50
149.99999999999011
 51
151.42812185770001
  0
LINE
  5
5F9C
  8
0
 10
2910.8982493364929
 20
2006.7036601385321
 30
0.0
 11
2910.8982493364929
 21
2009.891660138532
 31
0.0
  0
LINE
  5
5F9D
  8
0
 10
2910.0862493364948
 20
2005.891660138532
 30
0.0
 11
2910.8982493364929
 21
2006.7036601385321
 31
0.0
  0
LINE
  5
5F9E
  8
0
 10
2901.7102493364951
 20
2005.891660138532
 30
0.0
 11
2910.0862493364948
 21
2005.891660138532
 31
0.0
  0
LINE
  5
5F9F
  8
0
 10
2910.8982493364929
 20
2006.7036601385321
 30
0.0
 11
2900.8982493364929
 21
2006.7036601385321
 31
0.0
  0
ARC
  5
5FA0
  8
0
 10
2910.1561337162639
 20
2001.891660138532
 30
0.0
 40
8.0
 50
149.99999999999011
 51
151.42812185769989
  0
LINE
  5
5FA1
  8
0
 10
2918.4571238395411
 20
2030.3916601385299
 30
0.0
 11
2918.4571238395411
 21
2011.891660138532
 31
0.0
  0
ARC
  5
5FA2
  8
0
 10
2904.9571238395401
 20
1995.456064364369
 30
0.0
 40
8.0
 50
130.7057068310223
 51
180.0
  0
LINE
  5
5FA3
  8
0
 10
2896.9571238395401
 20
1995.456064364369
 30
0.0
 11
2896.9571238395401
 21
1990.391660138532
 31
0.0
  0
ARC
  5
5FA4
  8
0
 10
2889.9571238395401
 20
2012.891660138532
 30
0.0
 40
15.0
 50
310.70570683102221
 51
331.42812185769992
  0
ARC
  5
5FA5
  8
0
 10
2889.9571238395401
 20
2012.891660138532
 30
0.0
 40
15.0
 50
310.70570683102221
 51
331.42812185769992
  0
ARC
  5
5FA6
  8
0
 10
2924.9571238395401
 20
2092.8916601385299
 30
0.0
 40
2.0
 50
270.0
 51
0.000000000000007
  0
ARC
  5
5FA7
  8
0
 10
2896.4571238395401
 20
2087.3916601385299
 30
0.0
 40
1.5
 50
270.0
 51
0.000000000000007
  0
LINE
  5
5FA8
  8
0
 10
2897.9571238395401
 20
2088.8916601385299
 30
0.0
 11
2897.9571238395401
 21
2087.3916601385299
 31
0.0
  0
ARC
  5
5FA9
  8
0
 10
2899.9571238395401
 20
2088.8916601385299
 30
0.0
 40
2.0
 50
90.0
 51
180.0
  0
LINE
  5
5FAA
  8
0
 10
2897.9571238395401
 20
2105.8916601385299
 30
0.0
 11
2897.9571238395401
 21
2098.9496220227811
 31
0.0
  0
ARC
  5
5FAB
  8
0
 10
2924.9571238395401
 20
2095.8916601385299
 30
0.0
 40
2.0
 50
0.000000000000007
 51
90.0
  0
LINE
  5
5FAC
  8
0
 10
2895.628484876313
 20
2144.7202991017548
 30
0.0
 11
2895.628484876313
 21
2108.2202991017562
 31
0.0
  0
LINE
  5
5FAD
  8
0
 10
2895.628484876313
 20
2108.2202991017562
 30
0.0
 11
2897.9571238395401
 21
2105.8916601385299
 31
0.0
  0
LINE
  5
5FAE
  8
0
 10
2892.4571238395401
 20
2147.8916601385299
 30
0.0
 11
2895.628484876313
 21
2144.7202991017548
 31
0.0
  0
LINE
  5
5FAF
  8
0
 10
2846.9571238395411
 20
1995.456064364369
 30
0.0
 11
2846.9571238395411
 21
1975.891660138532
 31
0.0
  0
ARC
  5
5FB0
  8
0
 10
2823.9571238395401
 20
1990.8916601385311
 30
0.0
 40
2.0
 50
180.0
 51
270.0
  0
LINE
  5
5FB1
  8
0
 10
2742.4571238395401
 20
1846.8916601385311
 30
0.0
 11
2742.4571238395401
 21
1924.391660138532
 31
0.0
  0
ARC
  5
5FB2
  8
0
 10
2824.4879927356428
 20
1853.705764397215
 30
0.0
 40
10.0
 50
90.0
 51
158.63450841023101
  0
LINE
  5
5FB3
  8
0
 10
2813.4571238395401
 20
1830.2688835368481
 30
0.0
 11
2813.4571238395401
 21
1789.891660138532
 31
0.0
  0
ARC
  5
5FB4
  8
0
 10
2795.4571238395401
 20
1782.8916601385311
 30
0.0
 40
2.0
 50
90.0
 51
180.0
  0
ARC
  5
5FB5
  8
0
 10
2808.4571238395401
 20
1789.891660138532
 30
0.0
 40
5.0
 50
270.0
 51
0.000000000000007
  0
ARC
  5
5FB6
  8
0
 10
2838.4571238395401
 20
1848.2410250439209
 30
0.0
 40
25.0
 50
158.6345084102251
 51
180.0
  0
ARC
  5
5FB7
  8
0
 10
2813.858104325951
 20
1935.8916601385461
 30
0.0
 40
5.0
 50
11.30993247399477
 51
90.0
  0
ARC
  5
5FB8
  8
0
 10
2818.2633074689511
 20
1976.4918633535681
 30
0.0
 40
5.1763273479641221
 50
58.000464388177022
 51
121.99953561182301
  0
LINE
  5
5FB9
  8
0
 10
2819.257307468954
 20
1981.891660138532
 30
0.0
 11
2800.8153074689508
 21
1981.891660138532
 31
0.0
  0
LINE
  5
5FBA
  8
0
 10
2820.9571238395401
 20
1925.8916601385481
 30
0.0
 11
2818.7610077044042
 21
1936.872240814236
 31
0.0
  0
LINE
  5
5FBB
  8
0
 10
2820.9571238395401
 20
1925.8916601385299
 30
0.0
 11
2820.9571238395401
 21
1923.8146990936441
 31
0.0
  0
LINE
  5
5FBC
  8
0
 10
2871.9571238395411
 20
1968.4013694621781
 30
0.0
 11
2871.9571238395411
 21
1942.455899765748
 31
0.0
  0
LINE
  5
5FBD
  8
0
 10
2881.1781238395401
 20
1981.891660138532
 30
0.0
 11
2862.7361238395388
 21
1981.891660138532
 31
0.0
  0
ARC
  5
5FBE
  8
0
 10
2871.9571238395411
 20
1962.151754768523
 30
0.0
 40
19.51623967800851
 50
73.680296897697076
 51
106.3197031023029
  0
ARC
  5
5FBF
  8
0
 10
2880.1841238395391
 20
1976.4918633535681
 30
0.0
 40
5.1763273479641221
 50
58.000464388177022
 51
121.99953561182301
  0
LINE
  5
5FC0
  8
0
 10
2882.9271238395399
 20
1980.881660138532
 30
0.0
 11
2881.1781238395401
 21
1981.891660138532
 31
0.0
  0
LINE
  5
5FC1
  8
0
 10
2862.7361238395388
 20
1981.891660138532
 30
0.0
 11
2860.987123839539
 21
1980.881660138532
 31
0.0
  0
ARC
  5
5FC2
  8
0
 10
2863.7301238395412
 20
1976.4918633535681
 30
0.0
 40
5.1763273479641221
 50
58.000464388177022
 51
121.99953561182301
  0
LINE
  5
5FC3
  8
0
 10
2882.9271238395399
 20
1971.8916601385311
 30
0.0
 11
2882.9271238395399
 21
1980.881660138532
 31
0.0
  0
LINE
  5
5FC4
  8
0
 10
2877.4411238395401
 20
1980.881660138532
 30
0.0
 11
2877.4411238395401
 21
1971.8916601385311
 31
0.0
  0
LINE
  5
5FC5
  8
0
 10
2860.987123839539
 20
1980.881660138532
 30
0.0
 11
2860.987123839539
 21
1971.8916601385311
 31
0.0
  0
LINE
  5
5FC6
  8
0
 10
2866.4731238395402
 20
1980.881660138532
 30
0.0
 11
2866.4731238395402
 21
1971.8916601385311
 31
0.0
  0
ARC
  5
5FC7
  8
0
 10
2824.3079768006269
 20
1986.891660138532
 30
0.0
 40
2.0
 50
329.99999999999022
 51
90.0
  0
LINE
  5
5FC8
  8
0
 10
2821.0063074689529
 20
1980.881660138532
 30
0.0
 11
2819.257307468954
 21
1981.891660138532
 31
0.0
  0
LINE
  5
5FC9
  8
0
 10
2821.0063074689529
 20
1971.8916601385311
 30
0.0
 11
2821.0063074689529
 21
1980.881660138532
 31
0.0
  0
LINE
  5
5FCA
  8
0
 10
2821.0063074689529
 20
1977.1730011062789
 30
0.0
 11
2826.0400276081969
 21
1985.891660138532
 31
0.0
  0
LINE
  5
5FCB
  8
0
 10
2824.3079768006269
 20
1988.891660138532
 30
0.0
 11
2823.9571238395401
 21
1988.891660138532
 31
0.0
  0
ARC
  5
5FCC
  8
0
 10
2805.4571238395401
 20
1935.891660138532
 30
0.0
 40
5.0
 50
0.000000000000007
 51
90.0
  0
LINE
  5
5FCD
  8
0
 10
2742.4571238395401
 20
1924.391660138532
 30
0.0
 11
2764.4571238395401
 21
1924.391660138532
 31
0.0
  0
LINE
  5
5FCE
  8
0
 10
2795.9571238395401
 20
1940.8916601385281
 30
0.0
 11
2795.9571238395401
 21
1971.8916601385311
 31
0.0
  0
ARC
  5
5FCF
  8
0
 10
2801.8093074689532
 20
1976.4918633535681
 30
0.0
 40
5.1763273479641221
 50
58.000464388177022
 51
121.99953561182301
  0
LINE
  5
5FD0
  8
0
 10
2800.8153074689508
 20
1981.891660138532
 30
0.0
 11
2799.066307468951
 21
1980.881660138532
 31
0.0
  0
LINE
  5
5FD1
  8
0
 10
2804.5523074689522
 20
1980.881660138532
 30
0.0
 11
2804.5523074689522
 21
1971.8916601385311
 31
0.0
  0
LINE
  5
5FD2
  8
0
 10
2799.066307468951
 20
1980.881660138532
 30
0.0
 11
2799.066307468951
 21
1971.8916601385311
 31
0.0
  0
LINE
  5
5FD3
  8
0
 10
2815.520307468953
 20
1980.881660138532
 30
0.0
 11
2815.520307468953
 21
1971.8916601385311
 31
0.0
  0
ARC
  5
5FD4
  8
0
 10
2810.0363074689521
 20
1962.151754768523
 30
0.0
 40
19.51623967800851
 50
73.680296897697076
 51
106.3197031023029
  0
LINE
  5
5FD5
  8
0
 10
2816.9571238395401
 20
2095.8916601385299
 30
0.0
 11
2816.9571238395401
 21
2092.8916601385299
 31
0.0
  0
LINE
  5
5FD6
  8
0
 10
2810.1252674977131
 20
2011.2226601385321
 30
0.0
 11
2821.9571238395411
 21
2011.2226601385321
 31
0.0
  0
LINE
  5
5FD7
  8
0
 10
2810.1252674977131
 20
2002.891660138532
 30
0.0
 11
2819.1252674977131
 21
2002.891660138532
 31
0.0
  0
LINE
  5
5FD8
  8
0
 10
2810.1252674977131
 20
1994.5606601385321
 30
0.0
 11
2821.9571238395411
 21
1994.5606601385321
 31
0.0
  0
LINE
  5
5FD9
  8
0
 10
2850.9571238395401
 20
2038.3916601385299
 30
0.0
 11
2850.9571238395401
 21
2085.8916601385299
 31
0.0
  0
ARC
  5
5FDA
  8
0
 10
2827.4571238395401
 20
2030.3916601385299
 30
0.0
 40
2.0
 50
90.0
 51
180.0
  0
LINE
  5
5FDB
  8
0
 10
2829.765998342587
 20
2040.3916601385299
 30
0.0
 11
2846.2659983425879
 21
2040.3916601385299
 31
0.0
  0
LINE
  5
5FDC
  8
0
 10
2831.702998342585
 20
2040.07166013853
 30
0.0
 11
2831.1839983425848
 21
2040.1616601385299
 31
0.0
  0
LINE
  5
5FDD
  8
0
 10
2828.2009983425851
 20
2039.4876601385299
 30
0.0
 11
2829.765998342587
 21
2040.3916601385299
 31
0.0
  0
LINE
  5
5FDE
  8
0
 10
2829.1069983425859
 20
2039.92566013853
 30
0.0
 11
2828.2009983425851
 21
2039.4886601385299
 31
0.0
  0
LINE
  5
5FDF
  8
0
 10
2829.605998342588
 20
2040.07166013853
 30
0.0
 11
2829.1069983425859
 21
2039.92566013853
 31
0.0
  0
LINE
  5
5FE0
  8
0
 10
2830.124998342586
 20
2040.1616601385299
 30
0.0
 11
2829.605998342588
 21
2040.07166013853
 31
0.0
  0
LINE
  5
5FE1
  8
0
 10
2830.6549983425871
 20
2040.1916601385301
 30
0.0
 11
2830.124998342586
 21
2040.1616601385299
 31
0.0
  0
LINE
  5
5FE2
  8
0
 10
2831.1839983425848
 20
2040.1616601385299
 30
0.0
 11
2830.6549983425871
 21
2040.1916601385301
 31
0.0
  0
ARC
  5
5FE3
  8
0
 10
2838.0159983425879
 20
2022.7286685454169
 30
0.0
 40
17.462601416113358
 50
73.680072331654983
 51
106.319927668345
  0
LINE
  5
5FE4
  8
0
 10
2832.2029983425859
 20
2039.92566013853
 30
0.0
 11
2831.702998342585
 21
2040.07166013853
 31
0.0
  0
LINE
  5
5FE5
  8
0
 10
2832.6729983425871
 20
2039.7286601385299
 30
0.0
 11
2832.2029983425859
 21
2039.92566013853
 31
0.0
  0
LINE
  5
5FE6
  8
0
 10
2833.108998342585
 20
2039.4876601385299
 30
0.0
 11
2832.6729983425871
 21
2039.7286601385299
 31
0.0
  0
ARC
  5
5FE7
  8
0
 10
2845.376998342585
 20
2035.5603360731129
 30
0.0
 40
4.6309815714167701
 50
58.000676159512942
 51
121.99932384048699
  0
LINE
  5
5FE8
  8
0
 10
2846.2659983425879
 20
2040.3916601385299
 30
0.0
 11
2847.8309983425861
 21
2039.4876601385299
 31
0.0
  0
LINE
  5
5FE9
  8
0
 10
2833.108998342585
 20
2039.4876601385299
 30
0.0
 11
2833.108998342585
 21
2032.3916601385299
 31
0.0
  0
LINE
  5
5FEA
  8
0
 10
2828.2009983425851
 20
2032.3916601385299
 30
0.0
 11
2828.2009983425851
 21
2039.4876601385299
 31
0.0
  0
LINE
  5
5FEB
  8
0
 10
2842.9229983425871
 20
2039.4876601385299
 30
0.0
 11
2842.9229983425871
 21
2032.3916601385299
 31
0.0
  0
LINE
  5
5FEC
  8
0
 10
2847.8309983425861
 20
2039.4876601385299
 30
0.0
 11
2847.8309983425861
 21
2032.3916601385299
 31
0.0
  0
ARC
  5
5FED
  8
0
 10
2844.9571238395401
 20
2038.3916601385299
 30
0.0
 40
5.9999999999999902
 50
298.61874557997191
 51
0.000000000000007
  0
ARC
  5
5FEE
  8
0
 10
2823.9571238395401
 20
2014.891660138532
 30
0.0
 40
2.0
 50
90.0
 51
180.0
  0
LINE
  5
5FEF
  8
0
 10
2825.4571238395411
 20
2030.3916601385299
 30
0.0
 11
2825.4571238395411
 21
2011.891660138532
 31
0.0
  0
LINE
  5
5FF0
  8
0
 10
2833.8279983425859
 20
2005.891660138532
 30
0.0
 11
2833.0159983425879
 21
2006.7036601385321
 31
0.0
  0
LINE
  5
5FF1
  8
0
 10
2833.0159983425879
 20
2006.7036601385321
 30
0.0
 11
2833.0159983425879
 21
2009.891660138532
 31
0.0
  0
ARC
  5
5FF2
  8
0
 10
2827.4571238395401
 20
2011.891660138532
 30
0.0
 40
2.0
 50
180.0
 51
270.0
  0
LINE
  5
5FF3
  8
0
 10
2825.4571238395411
 20
2016.891660138532
 30
0.0
 11
2823.9571238395401
 21
2016.891660138532
 31
0.0
  0
LINE
  5
5FF4
  8
0
 10
2821.9571238395411
 20
2014.891660138532
 30
0.0
 11
2821.9571238395411
 21
1990.8916601385311
 31
0.0
  0
LINE
  5
5FF5
  8
0
 10
2819.1252674977131
 20
1994.5606601385321
 30
0.0
 11
2819.1252674977131
 21
2011.2226601385321
 31
0.0
  0
ARC
  5
5FF6
  8
0
 10
2833.7581139628169
 20
2001.891660138532
 30
0.0
 40
8.0
 50
28.57187814230004
 51
30.00000000000983
  0
LINE
  5
5FF7
  8
0
 10
2843.0159983425879
 20
2006.7036601385321
 30
0.0
 11
2842.2039983425861
 21
2005.891660138532
 31
0.0
  0
LINE
  5
5FF8
  8
0
 10
2843.0159983425879
 20
2009.891660138532
 30
0.0
 11
2843.0159983425879
 21
2006.7036601385321
 31
0.0
  0
ARC
  5
5FF9
  8
0
 10
2833.7581139628169
 20
2001.891660138532
 30
0.0
 40
8.0
 50
28.57187814230004
 51
30.000000000009798
  0
ARC
  5
5FFA
  8
0
 10
2833.7581139628169
 20
2001.891660138532
 30
0.0
 40
8.0
 50
28.57187814230004
 51
30.000000000009891
  0
ARC
  5
5FFB
  8
0
 10
2838.9571238395401
 20
1995.456064364369
 30
0.0
 40
8.0
 50
0.000000000000007
 51
49.294293168977703
  0
ARC
  5
5FFC
  8
0
 10
2853.9571238395411
 20
2012.891660138532
 30
0.0
 40
15.0
 50
208.57187814230011
 51
229.29429316897779
  0
ARC
  5
5FFD
  8
0
 10
2853.9571238395411
 20
2012.891660138532
 30
0.0
 40
15.0
 50
208.57187814230011
 51
229.29429316897779
  0
LINE
  5
5FFE
  8
0
 10
2833.0159983425879
 20
2006.7036601385321
 30
0.0
 11
2843.0159983425879
 21
2006.7036601385321
 31
0.0
  0
LINE
  5
5FFF
  8
0
 10
2842.2039983425861
 20
2005.891660138532
 30
0.0
 11
2833.8279983425859
 21
2005.891660138532
 31
0.0
  0
ARC
  5
6000
  8
0
 10
2818.9571238395401
 20
2092.8916601385299
 30
0.0
 40
2.0
 50
180.0
 51
270.0
  0
ARC
  5
6001
  8
0
 10
2843.9571238395401
 20
2088.8916601385299
 30
0.0
 40
2.0
 50
0.000000000000007
 51
90.0
  0
ARC
  5
6002
  8
0
 10
2847.4571238395401
 20
2087.3916601385299
 30
0.0
 40
1.5
 50
180.0
 51
270.0
  0
LINE
  5
6003
  8
0
 10
2845.9571238395401
 20
2088.8916601385299
 30
0.0
 11
2845.9571238395401
 21
2087.3916601385299
 31
0.0
  0
LINE
  5
6004
  8
0
 10
2810.1252674977131
 20
1994.5606601385321
 30
0.0
 11
2810.1252674977131
 21
2011.2226601385321
 31
0.0
  0
LINE
  5
6005
  8
0
 10
2854.2159586800808
 20
2161.6858343412368
 30
0.0
 11
2851.4571238395401
 21
2147.8916601385299
 31
0.0
  0
ARC
  5
6006
  8
0
 10
2854.2036030619602
 20
2115.9755074350892
 30
0.0
 40
9.7552083333333677
 50
232.65349068556381
 51
307.34650931443628
  0
LINE
  5
6007
  8
0
 10
2839.9571238395401
 20
2097.8916601385299
 30
0.0
 11
2871.9571238395411
 21
2103.5341235212009
 31
0.0
  0
ARC
  5
6008
  8
0
 10
2854.2036030619602
 20
2136.9650907684222
 30
0.0
 40
9.7552083333333677
 50
52.653490685563739
 51
127.3465093144362
  0
LINE
  5
6009
  8
0
 10
2883.7928043579268
 20
2144.7202991017548
 30
0.0
 11
2883.7928043579268
 21
2108.2202991017562
 31
0.0
  0
LINE
  5
600A
  8
0
 10
2860.121443321153
 20
2144.7202991017548
 30
0.0
 11
2860.121443321153
 21
2108.2202991017562
 31
0.0
  0
ARC
  5
600B
  8
0
 10
2871.9571238395411
 20
2142.2411324350878
 30
0.0
 40
36.02083333333254
 50
250.8174656949729
 51
289.1825343050271
  0
ARC
  5
600C
  8
0
 10
2871.9571238395411
 20
2110.6994657684231
 30
0.0
 40
36.02083333333254
 50
70.817465694972896
 51
109.1825343050271
  0
LINE
  5
600D
  8
0
 10
2845.9571238395401
 20
2105.8916601385299
 30
0.0
 11
2845.9571238395401
 21
2098.9496220227811
 31
0.0
  0
ARC
  5
600E
  8
0
 10
2818.9571238395401
 20
2095.8916601385299
 30
0.0
 40
2.0
 50
90.0
 51
180.0
  0
LINE
  5
600F
  8
0
 10
2848.2857628027668
 20
2144.7202991017562
 30
0.0
 11
2848.2857628027668
 21
2108.2202991017562
 31
0.0
  0
LINE
  5
6010
  8
0
 10
2848.2857628027668
 20
2108.2202991017562
 30
0.0
 11
2845.9571238395401
 21
2105.8916601385299
 31
0.0
  0
LINE
  5
6011
  8
0
 10
2851.4571238395401
 20
2147.8916601385299
 30
0.0
 11
2848.2857628027668
 21
2144.7202991017562
 31
0.0
  0
LINE
  5
6012
  8
0
 10
2855.6868296936191
 20
2162.8916601385299
 30
0.0
 11
2888.2274179854612
 21
2162.8916601385299
 31
0.0
  0
ARC
  5
6013
  8
0
 10
2888.2274179854612
 20
2161.3916601385299
 30
0.0
 40
1.5
 50
11.30993247402011
 51
90.0
  0
ARC
  5
6014
  8
0
 10
2855.6868296936191
 20
2161.3916601385299
 30
0.0
 40
1.5
 50
90.0
 51
168.69006752597991
  0
ARC
  5
6015
  8
0
 10
2969.9571238395411
 20
1821.891660138532
 30
0.0
 40
59.0
 50
85.968063624310645
 51
138.1656213665824
  0
ARC
  5
6016
  8
0
 10
2974.4571238395401
 20
1885.7332609956529
 30
0.0
 40
5.0
 50
265.96806362431067
 51
0.000000000000007
  0
ARC
  5
6017
  8
0
 10
2941.4571238395411
 20
1882.5278704422769
 30
0.0
 40
8.0
 50
180.0
 51
295.17428388224118
  0
ARC
  5
6018
  8
0
 10
2974.4571238395401
 20
1807.3250299815179
 30
0.0
 40
5.0
 50
0.000000000000007
 51
79.028389770314064
  0
ARC
  5
6019
  8
0
 10
2762.4571238395401
 20
1861.891660138532
 30
0.0
 40
49.0
 50
278.36360178901919
 51
324.90319877242172
  0
ARC
  5
601A
  8
0
 10
2807.4571238395411
 20
1830.2688835368481
 30
0.0
 40
6.0
 50
0.000000000000007
 51
144.90319877242189
  0
ARC
  5
601B
  8
0
 10
2770.4571238395401
 20
1807.4765886968801
 30
0.0
 40
6.0
 50
98.363601789019228
 51
180.0
  0
ARC
  5
601C
  8
0
 10
2825.9571238395401
 20
1845.891660138532
 30
0.0
 40
71.0
 50
99.471498466445055
 51
138.02365798271481
  0
ARC
  5
601D
  8
0
 10
2812.9571238395401
 20
1923.8146990936441
 30
0.0
 40
8.0
 50
279.47149846644498
 51
0.000000000000007
  0
ARC
  5
601E
  8
0
 10
2769.4571238395401
 20
1896.7222611579959
 30
0.0
 40
5.0
 50
180.0
 51
318.02365798271478
  0
LINE
  5
601F
  8
0
 10
2810.4571238395401
 20
1935.891660138532
 30
0.0
 11
2810.4571238395401
 21
1921.3154627475219
 31
0.0
  0
ARC
  5
6020
  8
0
 10
2802.4571238395401
 20
1921.3154627475219
 30
0.0
 40
8.0
 50
287.30560989870082
 51
0.000000000000007
  0
VIEWPORT
  5
41
 67
     1
  8
0
 10
117.358407079646
 20
73.5
 30
0.0
 40
234.716814159292
 41
147.0
 68
     1
 69
     1
1001
ACAD
1000
MVIEW
1002
{
1070
    16
1010
0.0
1020
0.0
1030
0.0
1010
0.0
1020
0.0
1030
1.0
1040
0.0
1040
147.0
1040
117.358407079646
1040
73.5
1040
50.0
1040
0.0
1040
0.0
1070
     0
1070
   100
1070
     1
1070
     1
1070
     0
1070
     0
1070
     0
1070
     0
1040
0.0
1040
0.0
1040
0.0
1040
1.0
1040
1.0
1040
0.0
1040
0.0
1070
     0
1002
{
1002
}
1002
}
  0
ENDSEC
  0
EOF
