  0
SECTION
  2
HEADER
  9
$ACADVER
  1
AC1012
  9
$DWGCODEPAGE
  3
dos932
  9
$INSBASE
 10
0.0
 20
0.0
 30
0.0
  9
$EXTMIN
 10
132.0
 20
60.0
 30
0.0
  9
$EXTMAX
 10
3432.0
 20
2292.0
 30
0.0
  9
$LIMMIN
 10
0.0
 20
0.0
  9
$LIMMAX
 10
3564.0
 20
2520.0
  9
$ORTHOMODE
 70
     1
  9
$REGENMODE
 70
     1
  9
$FILLMODE
 70
     1
  9
$QTEXTMODE
 70
     0
  9
$MIRRTEXT
 70
     1
  9
$DRAGMODE
 70
     2
  9
$LTSCALE
 40
48.0
  9
$OSMODE
 70
   163
  9
$ATTMODE
 70
     1
  9
$TEXTSIZE
 40
48.0
  9
$TRACEWID
 40
0.05
  9
$TEXTSTYLE
  7
STANDARD
  9
$CLAYER
  8
0
  9
$CELTYPE
  6
BYLAYER
  9
$CECOLOR
 62
   256
  9
$CELTSCALE
 40
1.0
  9
$DELOBJ
 70
     1
  9
$DISPSILH
 70
     0
  9
$DIMSCALE
 40
12.0
  9
$DIMASZ
 40
2.8
  9
$DIMEXO
 40
1.0
  9
$DIMDLI
 40
5.0
  9
$DIMRND
 40
0.1
  9
$DIMDLE
 40
0.0
  9
$DIMEXE
 40
1.0
  9
$DIMTP
 40
0.0
  9
$DIMTM
 40
0.0
  9
$DIMTXT
 40
2.5
  9
$DIMCEN
 40
0.0
  9
$DIMTSZ
 40
0.0
  9
$DIMTOL
 70
     0
  9
$DIMLIM
 70
     0
  9
$DIMTIH
 70
     0
  9
$DIMTOH
 70
     0
  9
$DIMSE1
 70
     0
  9
$DIMSE2
 70
     0
  9
$DIMTAD
 70
     3
  9
$DIMZIN
 70
     8
  9
$DIMBLK
  1

  9
$DIMASO
 70
     1
  9
$DIMSHO
 70
     1
  9
$DIMPOST
  1
 
  9
$DIMAPOST
  1

  9
$DIMALT
 70
     0
  9
$DIMALTD
 70
     2
  9
$DIMALTF
 40
1.0
  9
$DIMLFAC
 40
1.0
  9
$DIMTOFL
 70
     1
  9
$DIMTVP
 40
0.0
  9
$DIMTIX
 70
     0
  9
$DIMSOXD
 70
     0
  9
$DIMSAH
 70
     1
  9
$DIMBLK1
  1
_OPEN
  9
$DIMBLK2
  1
_OPEN
  9
$DIMSTYLE
  2
DIM1
  9
$DIMCLRD
 70
     2
  9
$DIMCLRE
 70
     2
  9
$DIMCLRT
 70
     2
  9
$DIMTFAC
 40
0.7
  9
$DIMGAP
 40
0.85
  9
$DIMJUST
 70
     0
  9
$DIMSD1
 70
     0
  9
$DIMSD2
 70
     0
  9
$DIMTOLJ
 70
     1
  9
$DIMTZIN
 70
     8
  9
$DIMALTZ
 70
     8
  9
$DIMALTTZ
 70
     8
  9
$DIMFIT
 70
     0
  9
$DIMUPT
 70
     0
  9
$DIMUNIT
 70
     2
  9
$DIMDEC
 70
     2
  9
$DIMTDEC
 70
     3
  9
$DIMALTU
 70
     2
  9
$DIMALTTD
 70
     3
  9
$DIMTXSTY
  7
DIM
  9
$DIMAUNIT
 70
     0
  9
$LUNITS
 70
     2
  9
$LUPREC
 70
     4
  9
$SKETCHINC
 40
0.1
  9
$FILLETRAD
 40
4.0
  9
$AUNITS
 70
     0
  9
$AUPREC
 70
     0
  9
$MENU
  1
C:\ACADR13\WIN\SUPPORT\ACAD.mnc
  9
$ELEVATION
 40
0.0
  9
$PELEVATION
 40
0.0
  9
$THICKNESS
 40
0.0
  9
$LIMCHECK
 70
     0
  9
$BLIPMODE
 70
     1
  9
$CHAMFERA
 40
0.0
  9
$CHAMFERB
 40
0.0
  9
$CHAMFERC
 40
0.0
  9
$CHAMFERD
 40
0.0
  9
$SKPOLY
 70
     0
  9
$TDCREATE
 40
2451564.492637881
  9
$TDUPDATE
 40
2451981.563306203
  9
$TDINDWG
 40
0.6852109375
  9
$TDUSRTIMER
 40
0.6852109375
  9
$USRTIMER
 70
     1
  9
$ANGBASE
 50
0.0
  9
$ANGDIR
 70
     0
  9
$PDMODE
 70
     0
  9
$PDSIZE
 40
0.0
  9
$PLINEWID
 40
0.0
  9
$COORDS
 70
     1
  9
$SPLFRAME
 70
     0
  9
$SPLINETYPE
 70
     6
  9
$SPLINESEGS
 70
     8
  9
$ATTDIA
 70
     0
  9
$ATTREQ
 70
     1
  9
$HANDLING
 70
     1
  9
$HANDSEED
  5
12499
  9
$SURFTAB1
 70
     6
  9
$SURFTAB2
 70
     6
  9
$SURFTYPE
 70
     6
  9
$SURFU
 70
     6
  9
$SURFV
 70
     6
  9
$UCSNAME
  2

  9
$UCSORG
 10
0.0
 20
0.0
 30
0.0
  9
$UCSXDIR
 10
1.0
 20
0.0
 30
0.0
  9
$UCSYDIR
 10
0.0
 20
1.0
 30
0.0
  9
$PUCSNAME
  2

  9
$PUCSORG
 10
0.0
 20
0.0
 30
0.0
  9
$PUCSXDIR
 10
1.0
 20
0.0
 30
0.0
  9
$PUCSYDIR
 10
0.0
 20
1.0
 30
0.0
  9
$USERI1
 70
     0
  9
$USERI2
 70
     0
  9
$USERI3
 70
     0
  9
$USERI4
 70
     0
  9
$USERI5
 70
     0
  9
$USERR1
 40
0.0
  9
$USERR2
 40
0.0
  9
$USERR3
 40
0.0
  9
$USERR4
 40
0.0
  9
$USERR5
 40
0.0
  9
$WORLDVIEW
 70
     1
  9
$SHADEDGE
 70
     3
  9
$SHADEDIF
 70
    70
  9
$TILEMODE
 70
     1
  9
$MAXACTVP
 70
    16
  9
$PINSBASE
 10
0.0
 20
0.0
 30
0.0
  9
$PLIMCHECK
 70
     0
  9
$PEXTMIN
 10
1.000000E+20
 20
1.000000E+20
 30
1.000000E+20
  9
$PEXTMAX
 10
-1.000000E+20
 20
-1.000000E+20
 30
-1.000000E+20
  9
$PLIMMIN
 10
0.0
 20
0.0
  9
$PLIMMAX
 10
20.0
 20
147.0
  9
$UNITMODE
 70
     0
  9
$VISRETAIN
 70
     0
  9
$PLINEGEN
 70
     0
  9
$PSLTSCALE
 70
     1
  9
$TREEDEPTH
 70
  3020
  9
$PICKSTYLE
 70
     1
  9
$CMLSTYLE
  2
STANDARD
  9
$CMLJUST
 70
     0
  9
$CMLSCALE
 40
1.0
  9
$SAVEIMAGES
 70
     1
  0
ENDSEC
  0
SECTION
  2
CLASSES
  0
CLASS
  1
LWPOLYLINE
  2
AcDbPolyline
  3
"AutoCAD"
 90
    32768
280
     0
281
     1
  0
ENDSEC
  0
SECTION
  2
TABLES
  0
TABLE
  2
VPORT
  5
8
100
AcDbSymbolTable
 70
     2
  0
VPORT
  5
12498
100
AcDbSymbolTableRecord
100
AcDbViewportTableRecord
  2
*ACTIVE
 70
     0
 10
0.0
 20
0.0
 11
1.0
 21
1.0
 12
2302.197092
 22
1306.534894
 13
0.0
 23
0.0
 14
1.0
 24
1.0
 15
0.0
 25
0.0
 16
0.0
 26
0.0
 36
1.0
 17
0.0
 27
0.0
 37
0.0
 40
2613.069787
 41
1.762063
 42
50.0
 43
0.0
 44
0.0
 50
0.0
 51
0.0
 71
     0
 72
   100
 73
     1
 74
     1
 75
     0
 76
     0
 77
     0
 78
     0
  0
ENDTAB
  0
TABLE
  2
LTYPE
  5
5
100
AcDbSymbolTable
 70
     1
  0
LTYPE
  5
12
100
AcDbSymbolTableRecord
100
AcDbLinetypeTableRecord
  2
BYBLOCK
 70
     0
  3

 72
    65
 73
     0
 40
0.0
  0
LTYPE
  5
13
100
AcDbSymbolTableRecord
100
AcDbLinetypeTableRecord
  2
BYLAYER
 70
     0
  3

 72
    65
 73
     0
 40
0.0
  0
LTYPE
  5
14
100
AcDbSymbolTableRecord
100
AcDbLinetypeTableRecord
  2
CONTINUOUS
 70
     0
  3
Solid line
 72
    65
 73
     0
 40
0.0
  0
ENDTAB
  0
TABLE
  2
LAYER
  5
2
100
AcDbSymbolTable
 70
     1
  0
LAYER
  5
F
100
AcDbSymbolTableRecord
100
AcDbLayerTableRecord
  2
0
 70
     0
 62
     7
  6
CONTINUOUS
  0
ENDTAB
  0
TABLE
  2
STYLE
  5
3
100
AcDbSymbolTable
 70
     3
  0
STYLE
  5
10
100
AcDbSymbolTableRecord
100
AcDbTextStyleTableRecord
  2
STANDARD
 70
     0
 40
0.0
 41
0.8
 50
0.0
 71
     0
 42
48.0
  3
simplex
  4
extfont
  0
STYLE
  5
237C
100
AcDbSymbolTableRecord
100
AcDbTextStyleTableRecord
  2
PTSH
 70
     0
 40
0.0
 41
0.9
 50
0.0
 71
     0
 42
4.0
  3
SIMPLEX
  4
EXTFONT
  0
STYLE
  5
2592
100
AcDbSymbolTableRecord
100
AcDbTextStyleTableRecord
  2
DIM
 70
     0
 40
0.0
 41
0.8
 50
0.0
 71
     0
 42
4.0
  3
simplex
  4
extfont
  0
ENDTAB
  0
TABLE
  2
VIEW
  5
6
100
AcDbSymbolTable
 70
     0
  0
ENDTAB
  0
TABLE
  2
UCS
  5
7
100
AcDbSymbolTable
 70
     0
  0
ENDTAB
  0
TABLE
  2
APPID
  5
9
100
AcDbSymbolTable
 70
     1
  0
APPID
  5
11
100
AcDbSymbolTableRecord
100
AcDbRegAppTableRecord
  2
ACAD
 70
     0
  0
ENDTAB
  0
TABLE
  2
DIMSTYLE
  5
A
100
AcDbSymbolTable
 70
     1
  0
DIMSTYLE
105
2237
100
AcDbSymbolTableRecord
100
AcDbDimStyleTableRecord
  2
DIM1
 70
     0
  3
 
  4

  5

  6
_OPEN
  7
_OPEN
 40
12.0
 41
2.8
 42
1.0
 43
5.0
 44
1.0
 45
0.1
 46
0.0
 47
0.0
 48
0.0
140
2.5
141
0.0
142
0.0
143
1.0
144
1.0
145
0.0
146
0.7
147
0.85
 71
     0
 72
     0
 73
     0
 74
     0
 75
     0
 76
     0
 77
     3
 78
     8
170
     0
171
     2
172
     1
173
     1
174
     0
175
     0
176
     2
177
     2
178
     2
270
     2
271
     2
272
     3
273
     2
274
     3
340
2592
275
     0
280
     0
281
     0
282
     0
283
     1
284
     8
285
     8
286
     8
287
     0
288
     0
  0
ENDTAB
  0
TABLE
  2
BLOCK_RECORD
  5
1
100
AcDbSymbolTable
 70
     2
  0
BLOCK_RECORD
  5
18
100
AcDbSymbolTableRecord
100
AcDbBlockTableRecord
  2
*MODEL_SPACE
  0
BLOCK_RECORD
  5
15
100
AcDbSymbolTableRecord
100
AcDbBlockTableRecord
  2
*PAPER_SPACE
  0
BLOCK_RECORD
  5
2448
100
AcDbSymbolTableRecord
100
AcDbBlockTableRecord
  2
_OPEN
  0
BLOCK_RECORD
  5
9259
100
AcDbSymbolTableRecord
100
AcDbBlockTableRecord
  2
YA
  0
ENDTAB
  0
ENDSEC
  0
SECTION
  2
BLOCKS
  0
BLOCK
  5
3C
100
AcDbEntity
  8
0
100
AcDbBlockBegin
  2
*MODEL_SPACE
 70
     0
 10
0.0
 20
0.0
 30
0.0
  3
*MODEL_SPACE
  1

  0
ENDBLK
  5
3D
100
AcDbEntity
  8
0
100
AcDbBlockEnd
  0
BLOCK
  5
3A
100
AcDbEntity
 67
     1
  8
0
100
AcDbBlockBegin
  2
*PAPER_SPACE
 70
     0
 10
0.0
 20
0.0
 30
0.0
  3
*PAPER_SPACE
  1

  0
ENDBLK
  5
3B
100
AcDbEntity
 67
     1
  8
0
100
AcDbBlockEnd
  0
BLOCK
  5
2449
100
AcDbEntity
  8
0
 48
4.0
100
AcDbBlockBegin
  2
_OPEN
 70
     0
 10
0.0
 20
0.0
 30
0.0
  3
_OPEN
  1
H1111.DWG
  0
LINE
  5
244A
100
AcDbEntity
  8
0
  6
BYBLOCK
 62
     0
 48
4.0
100
AcDbLine
 10
-1.0
 20
0.166667
 30
0.0
 11
0.0
 21
0.0
 31
0.0
  0
LINE
  5
244B
100
AcDbEntity
  8
0
  6
BYBLOCK
 62
     0
 48
4.0
100
AcDbLine
 10
0.0
 20
0.0
 30
0.0
 11
-1.0
 21
-0.166667
 31
0.0
  0
LINE
  5
244C
100
AcDbEntity
  8
0
  6
BYBLOCK
 62
     0
 48
4.0
100
AcDbLine
 10
0.0
 20
0.0
 30
0.0
 11
-1.0
 21
0.0
 31
0.0
  0
ENDBLK
  5
244D
100
AcDbEntity
  8
0
 48
4.0
100
AcDbBlockEnd
  0
BLOCK
  5
9261
100
AcDbEntity
  8
0
100
AcDbBlockBegin
  2
YA
 70
     0
 10
0.0
 20
0.0
 30
0.0
  3
YA
  1

  0
LINE
  5
925A
100
AcDbEntity
  8
0
100
AcDbLine
 10
-16.8065
 20
2.801
 30
0.0
 11
-8.4035
 21
2.801
 31
0.0
  0
LINE
  5
925B
100
AcDbEntity
  8
0
100
AcDbLine
 10
-8.4035
 20
2.801
 30
0.0
 11
-7.0025
 21
1.4005
 31
0.0
  0
LINE
  5
925C
100
AcDbEntity
  8
0
100
AcDbLine
 10
-7.0025
 20
1.4005
 30
0.0
 11
-2.862
 21
1.4005
 31
0.0
  0
LINE
  5
925D
100
AcDbEntity
  8
0
100
AcDbLine
 10
-2.862
 20
1.4005
 30
0.0
 11
-2.862
 21
2.801
 31
0.0
  0
LINE
  5
925E
100
AcDbEntity
  8
0
100
AcDbLine
 10
-2.862
 20
2.801
 30
0.0
 11
0.0
 21
0.0
 31
0.0
  0
LINE
  5
925F
100
AcDbEntity
  8
0
100
AcDbLine
 10
0.0
 20
0.0
 30
0.0
 11
-14.0055
 21
0.0
 31
0.0
  0
LINE
  5
9260
100
AcDbEntity
  8
0
100
AcDbLine
 10
-14.0055
 20
0.0
 30
0.0
 11
-16.8065
 21
2.801
 31
0.0
  0
ENDBLK
  5
9262
100
AcDbEntity
  8
0
100
AcDbBlockEnd
  0
ENDSEC
  0
SECTION
  2
ENTITIES
  0
MTEXT
  5
ADA
100
AcDbEntity
  8
0
100
AcDbMText
 10
4561.671357
 20
598.155734
 30
0.0
 40
2.4
 41
566.717578
 71
     1
 72
     1
  1

  0
MTEXT
  5
ADB
100
AcDbEntity
  8
0
100
AcDbMText
 10
4668.599198
 20
694.209525
 30
0.0
 40
2.4
 41
545.33201
 71
     1
 72
     1
  1

  0
MTEXT
  5
ADC
100
AcDbEntity
  8
0
100
AcDbMText
 10
4604.442494
 20
-575.834957
 30
0.0
 40
2.4
 41
620.181499
 71
     1
 72
     1
  1

  0
TEXT
  5
2529
100
AcDbEntity
  8
0
  6
CONTINUOUS
100
AcDbText
 10
3068.057143
 20
84.0
 30
0.0
 40
36.0
  1
DC3AL,SL-F1
 41
0.9
  7
PTSH
 72
     2
 11
3372.0
 21
102.0
 31
0.0
100
AcDbText
 73
     2
  0
POLYLINE
  5
2563
100
AcDbEntity
  8
0
100
AcDb2dPolyline
 66
     1
 10
0.0
 20
0.0
 30
0.0
 70
     1
  0
VERTEX
  5
12493
100
AcDbEntity
  8
0
100
AcDbVertex
100
AcDb2dVertex
 10
132.0
 20
60.0
 30
0.0
  0
VERTEX
  5
12494
100
AcDbEntity
  8
0
100
AcDbVertex
100
AcDb2dVertex
 10
3432.0
 20
60.0
 30
0.0
  0
VERTEX
  5
12495
100
AcDbEntity
  8
0
100
AcDbVertex
100
AcDb2dVertex
 10
3432.0
 20
2292.0
 30
0.0
  0
VERTEX
  5
12496
100
AcDbEntity
  8
0
100
AcDbVertex
100
AcDb2dVertex
 10
132.0
 20
2292.0
 30
0.0
  0
SEQEND
  5
12497
100
AcDbEntity
  8
0
  0
TEXT
  5
2FCF
100
AcDbEntity
  8
0
100
AcDbText
 10
1186.2
 20
219.0
 30
0.0
 40
42.0
  1
TLV  DC3A-L,DC3S-L,DC3-L (JIS20K)
 72
     1
 11
1782.0
 21
240.0
 31
0.0
100
AcDbText
 73
     2
  0
TEXT
  5
E66D
100
AcDbEntity
  8
0
100
AcDbText
 10
193.133248
 20
1348.850141
 30
0.0
 40
42.0
  1
平面
100
AcDbText
  0
TEXT
  5
E857
100
AcDbEntity
  8
0
100
AcDbText
 10
193.133248
 20
955.538404
 30
0.0
 40
42.0
  1
正面
100
AcDbText
  0
INSERT
  5
E886
100
AcDbEntity
  8
0
100
AcDbBlockReference
  2
YA
 10
618.531774
 20
955.538404
 30
0.0
 41
3.427225
 42
3.427225
 43
3.427225
  0
INSERT
  5
E888
100
AcDbEntity
  8
0
100
AcDbBlockReference
  2
YA
 10
618.531774
 20
1348.850141
 30
0.0
 41
3.427225
 42
3.427225
 43
3.427225
  0
TEXT
  5
EE19
100
AcDbEntity
  8
0
100
AcDbText
 10
193.133248
 20
1979.780361
 30
0.0
 40
42.0
  1
背面
100
AcDbText
  0
TEXT
  5
1008B
100
AcDbEntity
  8
0
100
AcDbText
 10
765.854419
 20
606.268974
 30
0.0
 40
30.0
  1
15A
 41
0.8
 72
     1
 11
795.568705
 21
621.268974
 31
0.0
100
AcDbText
 73
     2
  0
TEXT
  5
10543
100
AcDbEntity
  8
0
100
AcDbText
 10
2866.08452
 20
606.268974
 30
0.0
 40
30.0
  1
25A
 41
0.8
 72
     1
 11
2898.08452
 21
621.268974
 31
0.0
100
AcDbText
 73
     2
  0
TEXT
  5
10562
100
AcDbEntity
  8
0
100
AcDbText
 10
1819.523156
 20
606.268974
 30
0.0
 40
30.0
  1
20A
 41
0.8
 72
     1
 11
1851.523156
 21
621.268974
 31
0.0
100
AcDbText
 73
     2
  0
LINE
  5
10D47
100
AcDbEntity
  8
0
100
AcDbLine
 10
794.327632
 20
992.538404
 30
0.0
 11
827.327632
 21
992.538404
 31
0.0
  0
LINE
  5
10D48
100
AcDbEntity
  8
0
100
AcDbLine
 10
790.139632
 20
882.038404
 30
0.0
 11
798.515632
 21
882.038404
 31
0.0
  0
CIRCLE
  5
10D49
100
AcDbEntity
  8
0
100
AcDbCircle
 10
788.327632
 20
923.538404
 30
0.0
 40
19.0
  0
LINE
  5
10D4A
100
AcDbEntity
  8
0
100
AcDbLine
 10
802.577632
 20
838.037404
 30
0.0
 11
786.077632
 21
838.037404
 31
0.0
  0
ARC
  5
10D4B
100
AcDbEntity
  8
0
100
AcDbCircle
 10
794.327632
 20
855.700396
 30
0.0
 40
17.462601
100
AcDbArc
 50
253.680072
 51
286.319928
  0
LINE
  5
10D4C
100
AcDbEntity
  8
0
100
AcDbLine
 10
790.139632
 20
784.538404
 30
0.0
 11
798.515632
 21
784.538404
 31
0.0
  0
LINE
  5
10D4D
100
AcDbEntity
  8
0
100
AcDbLine
 10
802.577632
 20
739.537404
 30
0.0
 11
786.077632
 21
739.537404
 31
0.0
  0
ARC
  5
10D4E
100
AcDbEntity
  8
0
100
AcDbCircle
 10
794.327632
 20
757.200396
 30
0.0
 40
17.462601
100
AcDbArc
 50
253.680072
 51
286.319928
  0
LINE
  5
10D4F
100
AcDbEntity
  8
0
100
AcDbLine
 10
808.827632
 20
724.538404
 30
0.0
 11
777.327632
 21
724.538404
 31
0.0
  0
LINE
  5
10D50
100
AcDbEntity
  8
0
100
AcDbLine
 10
716.327632
 20
861.538404
 30
0.0
 11
872.327632
 21
861.538404
 31
0.0
  0
LINE
  5
10D51
100
AcDbEntity
  8
0
100
AcDbLine
 10
872.327632
 20
878.038404
 30
0.0
 11
716.327632
 21
878.038404
 31
0.0
  0
LINE
  5
10D52
100
AcDbEntity
  8
0
100
AcDbLine
 10
716.327632
 20
763.538404
 30
0.0
 11
872.327632
 21
763.538404
 31
0.0
  0
LINE
  5
10D53
100
AcDbEntity
  8
0
100
AcDbLine
 10
716.327632
 20
845.038404
 30
0.0
 11
872.327632
 21
845.038404
 31
0.0
  0
LINE
  5
10D54
100
AcDbEntity
  8
0
100
AcDbLine
 10
716.327632
 20
780.538404
 30
0.0
 11
872.327632
 21
780.538404
 31
0.0
  0
LINE
  5
10D55
100
AcDbEntity
  8
0
100
AcDbLine
 10
872.327632
 20
746.538404
 30
0.0
 11
716.327632
 21
746.538404
 31
0.0
  0
LINE
  5
10D56
100
AcDbEntity
  8
0
100
AcDbLine
 10
748.327632
 20
893.038404
 30
0.0
 11
840.327632
 21
893.038404
 31
0.0
  0
LINE
  5
10D57
100
AcDbEntity
  8
0
100
AcDbLine
 10
755.327632
 20
949.538404
 30
0.0
 11
833.327632
 21
949.538404
 31
0.0
  0
LINE
  5
10D58
100
AcDbEntity
  8
0
100
AcDbLine
 10
789.327632
 20
878.038404
 30
0.0
 11
789.327632
 21
881.226404
 31
0.0
  0
LINE
  5
10D59
100
AcDbEntity
  8
0
100
AcDbLine
 10
743.035981
 20
881.226404
 30
0.0
 11
743.035981
 21
878.038404
 31
0.0
  0
LINE
  5
10D5A
100
AcDbEntity
  8
0
100
AcDbLine
 10
733.035981
 20
878.038404
 30
0.0
 11
733.035981
 21
881.226404
 31
0.0
  0
LINE
  5
10D5B
100
AcDbEntity
  8
0
100
AcDbLine
 10
775.327632
 20
726.538404
 30
0.0
 11
775.327632
 21
740.538404
 31
0.0
  0
ARC
  5
10D5C
100
AcDbEntity
  8
0
100
AcDbCircle
 10
777.327632
 20
726.538404
 30
0.0
 40
2.0
100
AcDbArc
 50
180.0
 51
270.0
  0
LINE
  5
10D5D
100
AcDbEntity
  8
0
100
AcDbLine
 10
716.327632
 20
746.538404
 30
0.0
 11
716.327632
 21
780.538404
 31
0.0
  0
LINE
  5
10D5E
100
AcDbEntity
  8
0
100
AcDbLine
 10
716.327632
 20
878.038404
 30
0.0
 11
716.327632
 21
845.038404
 31
0.0
  0
LINE
  5
10D5F
100
AcDbEntity
  8
0
100
AcDbLine
 10
749.025531
 20
830.038404
 30
0.0
 11
748.040978
 21
801.844495
 31
0.0
  0
LINE
  5
10D60
100
AcDbEntity
  8
0
100
AcDbLine
 10
748.040978
 20
801.844495
 30
0.0
 11
743.126424
 21
783.503128
 31
0.0
  0
LINE
  5
10D61
100
AcDbEntity
  8
0
100
AcDbLine
 10
733.035981
 20
780.538404
 30
0.0
 11
733.035981
 21
783.726404
 31
0.0
  0
LINE
  5
10D62
100
AcDbEntity
  8
0
100
AcDbLine
 10
733.035981
 20
783.726404
 30
0.0
 11
733.847981
 21
784.538404
 31
0.0
  0
LINE
  5
10D63
100
AcDbEntity
  8
0
100
AcDbLine
 10
733.847981
 20
784.538404
 30
0.0
 11
742.223981
 21
784.538404
 31
0.0
  0
LINE
  5
10D64
100
AcDbEntity
  8
0
100
AcDbLine
 10
743.035981
 20
783.726404
 30
0.0
 11
743.035981
 21
780.538404
 31
0.0
  0
LINE
  5
10D65
100
AcDbEntity
  8
0
100
AcDbLine
 10
742.223981
 20
784.538404
 30
0.0
 11
743.035981
 21
783.726404
 31
0.0
  0
LINE
  5
10D66
100
AcDbEntity
  8
0
100
AcDbLine
 10
747.850981
 20
746.538404
 30
0.0
 11
747.850981
 21
740.441404
 31
0.0
  0
LINE
  5
10D67
100
AcDbEntity
  8
0
100
AcDbLine
 10
747.850981
 20
740.441404
 30
0.0
 11
746.285981
 21
739.537404
 31
0.0
  0
LINE
  5
10D68
100
AcDbEntity
  8
0
100
AcDbLine
 10
742.942981
 20
740.441404
 30
0.0
 11
742.942981
 21
746.538404
 31
0.0
  0
LINE
  5
10D69
100
AcDbEntity
  8
0
100
AcDbLine
 10
733.128981
 20
740.441404
 30
0.0
 11
733.128981
 21
746.538404
 31
0.0
  0
ARC
  5
10D6A
100
AcDbEntity
  8
0
100
AcDbCircle
 10
738.035981
 20
757.200396
 30
0.0
 40
17.462601
100
AcDbArc
 50
253.680072
 51
286.319928
  0
ARC
  5
10D6B
100
AcDbEntity
  8
0
100
AcDbCircle
 10
745.396981
 20
744.368728
 30
0.0
 40
4.630982
100
AcDbArc
 50
238.000676
 51
301.999324
  0
LINE
  5
10D6C
100
AcDbEntity
  8
0
100
AcDbLine
 10
728.220981
 20
740.441404
 30
0.0
 11
728.220981
 21
746.538404
 31
0.0
  0
LINE
  5
10D6D
100
AcDbEntity
  8
0
100
AcDbLine
 10
729.785981
 20
739.537404
 30
0.0
 11
728.220981
 21
740.441404
 31
0.0
  0
ARC
  5
10D6E
100
AcDbEntity
  8
0
100
AcDbCircle
 10
730.674981
 20
744.368728
 30
0.0
 40
4.630982
100
AcDbArc
 50
238.000676
 51
301.999324
  0
LINE
  5
10D6F
100
AcDbEntity
  8
0
100
AcDbLine
 10
746.285981
 20
739.537404
 30
0.0
 11
729.785981
 21
739.537404
 31
0.0
  0
LINE
  5
10D70
100
AcDbEntity
  8
0
100
AcDbLine
 10
789.327632
 20
783.726404
 30
0.0
 11
790.139632
 21
784.538404
 31
0.0
  0
LINE
  5
10D71
100
AcDbEntity
  8
0
100
AcDbLine
 10
789.327632
 20
780.538404
 30
0.0
 11
789.327632
 21
783.726404
 31
0.0
  0
LINE
  5
10D72
100
AcDbEntity
  8
0
100
AcDbLine
 10
775.327632
 20
740.538404
 30
0.0
 11
773.595581
 21
743.538404
 31
0.0
  0
ARC
  5
10D73
100
AcDbEntity
  8
0
100
AcDbCircle
 10
786.966632
 20
744.368728
 30
0.0
 40
4.630982
100
AcDbArc
 50
238.000676
 51
301.999324
  0
LINE
  5
10D74
100
AcDbEntity
  8
0
100
AcDbLine
 10
786.077632
 20
739.537404
 30
0.0
 11
784.512632
 21
740.441404
 31
0.0
  0
LINE
  5
10D75
100
AcDbEntity
  8
0
100
AcDbLine
 10
784.512632
 20
740.441404
 30
0.0
 11
784.512632
 21
746.538404
 31
0.0
  0
LINE
  5
10D76
100
AcDbEntity
  8
0
100
AcDbLine
 10
789.420632
 20
740.441404
 30
0.0
 11
789.420632
 21
746.538404
 31
0.0
  0
ARC
  5
10D77
100
AcDbEntity
  8
0
100
AcDbCircle
 10
768.399429
 20
740.538404
 30
0.0
 40
6.0
100
AcDbArc
 50
30.0
 51
90.0
  0
LINE
  5
10D78
100
AcDbEntity
  8
0
100
AcDbLine
 10
747.850981
 20
845.038404
 30
0.0
 11
747.850981
 21
838.941404
 31
0.0
  0
LINE
  5
10D79
100
AcDbEntity
  8
0
100
AcDbLine
 10
747.850981
 20
838.941404
 30
0.0
 11
746.285981
 21
838.037404
 31
0.0
  0
LINE
  5
10D7A
100
AcDbEntity
  8
0
100
AcDbLine
 10
742.942981
 20
838.941404
 30
0.0
 11
742.942981
 21
845.038404
 31
0.0
  0
LINE
  5
10D7B
100
AcDbEntity
  8
0
100
AcDbLine
 10
733.128981
 20
838.941404
 30
0.0
 11
733.128981
 21
845.038404
 31
0.0
  0
ARC
  5
10D7C
100
AcDbEntity
  8
0
100
AcDbCircle
 10
738.035981
 20
855.700396
 30
0.0
 40
17.462601
100
AcDbArc
 50
253.680072
 51
286.319928
  0
ARC
  5
10D7D
100
AcDbEntity
  8
0
100
AcDbCircle
 10
745.396981
 20
842.868728
 30
0.0
 40
4.630982
100
AcDbArc
 50
238.000676
 51
301.999324
  0
LINE
  5
10D7E
100
AcDbEntity
  8
0
100
AcDbLine
 10
749.025531
 20
830.038404
 30
0.0
 11
747.850981
 21
840.414909
 31
0.0
  0
LINE
  5
10D7F
100
AcDbEntity
  8
0
100
AcDbLine
 10
728.220981
 20
838.941404
 30
0.0
 11
728.220981
 21
845.038404
 31
0.0
  0
LINE
  5
10D80
100
AcDbEntity
  8
0
100
AcDbLine
 10
729.785981
 20
838.037404
 30
0.0
 11
728.220981
 21
838.941404
 31
0.0
  0
ARC
  5
10D81
100
AcDbEntity
  8
0
100
AcDbCircle
 10
730.674981
 20
842.868728
 30
0.0
 40
4.630982
100
AcDbArc
 50
238.000676
 51
301.999324
  0
LINE
  5
10D82
100
AcDbEntity
  8
0
100
AcDbLine
 10
746.285981
 20
838.037404
 30
0.0
 11
729.785981
 21
838.037404
 31
0.0
  0
ARC
  5
10D83
100
AcDbEntity
  8
0
100
AcDbCircle
 10
786.966632
 20
842.868728
 30
0.0
 40
4.630982
100
AcDbArc
 50
238.000676
 51
301.999324
  0
LINE
  5
10D84
100
AcDbEntity
  8
0
100
AcDbLine
 10
786.077632
 20
838.037404
 30
0.0
 11
784.512632
 21
838.941404
 31
0.0
  0
LINE
  5
10D85
100
AcDbEntity
  8
0
100
AcDbLine
 10
784.512632
 20
838.941404
 30
0.0
 11
784.512632
 21
845.038404
 31
0.0
  0
LINE
  5
10D86
100
AcDbEntity
  8
0
100
AcDbLine
 10
789.420632
 20
838.941404
 30
0.0
 11
789.420632
 21
845.038404
 31
0.0
  0
LINE
  5
10D87
100
AcDbEntity
  8
0
100
AcDbLine
 10
709.43496
 20
980.538404
 30
0.0
 11
725.327632
 21
980.538404
 31
0.0
  0
LINE
  5
10D88
100
AcDbEntity
  8
0
100
AcDbLine
 10
709.43496
 20
930.538404
 30
0.0
 11
730.327632
 21
930.538404
 31
0.0
  0
LINE
  5
10D89
100
AcDbEntity
  8
0
100
AcDbLine
 10
702.290623
 20
970.538404
 30
0.0
 11
702.290623
 21
940.538404
 31
0.0
  0
LINE
  5
10D8A
100
AcDbEntity
  8
0
100
AcDbLine
 10
667.827632
 20
1003.038404
 30
0.0
 11
667.827632
 21
908.038404
 31
0.0
  0
LINE
  5
10D8B
100
AcDbEntity
  8
0
100
AcDbLine
 10
697.864641
 20
940.538404
 30
0.0
 11
697.864641
 21
970.538404
 31
0.0
  0
LINE
  5
10D8E
100
AcDbEntity
  8
0
100
AcDbLine
 10
709.43496
 20
980.538404
 30
0.0
 11
709.43496
 21
930.538404
 31
0.0
  0
LINE
  5
10D8F
100
AcDbEntity
  8
0
100
AcDbLine
 10
667.827632
 20
908.038404
 30
0.0
 11
681.827632
 21
908.038404
 31
0.0
  0
ARC
  5
10D91
100
AcDbEntity
  8
0
100
AcDbCircle
 10
700.077632
 20
943.938404
 30
0.0
 40
4.056763
100
AcDbArc
 50
236.940715
 51
303.059285
  0
LINE
  5
10D94
100
AcDbEntity
  8
0
100
AcDbLine
 10
706.19153
 20
933.781834
 30
0.0
 11
709.43496
 21
930.538404
 31
0.0
  0
LINE
  5
10D95
100
AcDbEntity
  8
0
100
AcDbLine
 10
702.290623
 20
940.538404
 30
0.0
 11
706.19153
 21
933.781834
 31
0.0
  0
LINE
  5
10D96
100
AcDbEntity
  8
0
100
AcDbLine
 10
667.827632
 20
1003.038404
 30
0.0
 11
681.827632
 21
1003.038404
 31
0.0
  0
ARC
  5
10D98
100
AcDbEntity
  8
0
100
AcDbCircle
 10
700.077632
 20
967.138404
 30
0.0
 40
4.056763
100
AcDbArc
 50
56.940715
 51
123.059285
  0
LINE
  5
10D99
100
AcDbEntity
  8
0
100
AcDbLine
 10
692.096136
 20
970.538404
 30
0.0
 11
697.864641
 21
970.538404
 31
0.0
  0
LINE
  5
10D9B
100
AcDbEntity
  8
0
100
AcDbLine
 10
702.290623
 20
970.538404
 30
0.0
 11
706.19153
 21
977.294974
 31
0.0
  0
LINE
  5
10D9C
100
AcDbEntity
  8
0
100
AcDbLine
 10
706.19153
 20
977.294974
 30
0.0
 11
709.43496
 21
980.538404
 31
0.0
  0
ARC
  5
10D9D
100
AcDbEntity
  8
0
100
AcDbCircle
 10
755.327632
 20
939.538404
 30
0.0
 40
10.0
100
AcDbArc
 50
90.0
 51
180.0
  0
LINE
  5
10D9E
100
AcDbEntity
  8
0
100
AcDbLine
 10
742.223981
 20
882.038404
 30
0.0
 11
743.035981
 21
881.226404
 31
0.0
  0
LINE
  5
10D9F
100
AcDbEntity
  8
0
100
AcDbLine
 10
733.035981
 20
881.226404
 30
0.0
 11
733.847981
 21
882.038404
 31
0.0
  0
LINE
  5
10DA0
100
AcDbEntity
  8
0
100
AcDbLine
 10
733.847981
 20
882.038404
 30
0.0
 11
742.223981
 21
882.038404
 31
0.0
  0
ARC
  5
10DA1
100
AcDbEntity
  8
0
100
AcDbCircle
 10
730.327632
 20
915.538404
 30
0.0
 40
15.0
100
AcDbArc
 50
0.0
 51
90.0
  0
LINE
  5
10DA2
100
AcDbEntity
  8
0
100
AcDbLine
 10
745.327632
 20
893.038404
 30
0.0
 11
745.327632
 21
915.538404
 31
0.0
  0
LINE
  5
10DA3
100
AcDbEntity
  8
0
100
AcDbLine
 10
745.327632
 20
893.038404
 30
0.0
 11
742.358442
 21
881.903943
 31
0.0
  0
LINE
  5
10DA4
100
AcDbEntity
  8
0
100
AcDbLine
 10
745.327632
 20
939.538404
 30
0.0
 11
745.327632
 21
933.975946
 31
0.0
  0
LINE
  5
10DA5
100
AcDbEntity
  8
0
100
AcDbLine
 10
789.327632
 20
881.226404
 30
0.0
 11
790.139632
 21
882.038404
 31
0.0
  0
ARC
  5
10DA6
100
AcDbEntity
  8
0
100
AcDbCircle
 10
754.605404
 20
977.512955
 30
0.0
 40
6.0
100
AcDbArc
 50
235.734114
 51
342.302564
  0
LINE
  5
10DA7
100
AcDbEntity
  8
0
100
AcDbLine
 10
781.9299
 20
991.363525
 30
0.0
 11
725.327632
 21
980.538404
 31
0.0
  0
ARC
  5
10DA8
100
AcDbEntity
  8
0
100
AcDbCircle
 10
725.327632
 20
934.538404
 30
0.0
 40
46.0
100
AcDbArc
 50
55.734114
 51
90.0
  0
ARC
  5
10DA9
100
AcDbEntity
  8
0
100
AcDbCircle
 10
794.327632
 20
926.538404
 30
0.0
 40
66.0
100
AcDbArc
 50
90.0
 51
108.126204
  0
ARC
  5
10DAA
100
AcDbEntity
  8
0
100
AcDbCircle
 10
780.327632
 20
969.305214
 30
0.0
 40
21.0
100
AcDbArc
 50
108.126204
 51
162.302564
  0
LINE
  5
10DAB
100
AcDbEntity
  8
0
100
AcDbLine
 10
855.619283
 20
881.226404
 30
0.0
 11
855.619283
 21
878.038404
 31
0.0
  0
LINE
  5
10DAC
100
AcDbEntity
  8
0
100
AcDbLine
 10
845.619283
 20
878.038404
 30
0.0
 11
845.619283
 21
881.226404
 31
0.0
  0
LINE
  5
10DAD
100
AcDbEntity
  8
0
100
AcDbLine
 10
799.327632
 20
881.226404
 30
0.0
 11
799.327632
 21
878.038404
 31
0.0
  0
LINE
  5
10DAE
100
AcDbEntity
  8
0
100
AcDbLine
 10
855.827632
 20
704.538404
 30
0.0
 11
855.827632
 21
738.765929
 31
0.0
  0
LINE
  5
10DAF
100
AcDbEntity
  8
0
100
AcDbLine
 10
855.827632
 20
704.538404
 30
0.0
 11
810.827632
 21
704.538404
 31
0.0
  0
LINE
  5
10DB0
100
AcDbEntity
  8
0
100
AcDbLine
 10
810.827632
 20
704.538404
 30
0.0
 11
810.827632
 21
746.538404
 31
0.0
  0
ARC
  5
10DB1
100
AcDbEntity
  8
0
100
AcDbCircle
 10
808.827632
 20
722.538404
 30
0.0
 40
2.0
100
AcDbArc
 50
0.0
 51
90.0
  0
LINE
  5
10DB2
100
AcDbEntity
  8
0
100
AcDbLine
 10
839.629732
 20
830.038404
 30
0.0
 11
840.614285
 21
801.844495
 31
0.0
  0
LINE
  5
10DB3
100
AcDbEntity
  8
0
100
AcDbLine
 10
798.515632
 20
784.538404
 30
0.0
 11
799.327632
 21
783.726404
 31
0.0
  0
LINE
  5
10DB4
100
AcDbEntity
  8
0
100
AcDbLine
 10
799.327632
 20
783.726404
 30
0.0
 11
799.327632
 21
780.538404
 31
0.0
  0
ARC
  5
10DB5
100
AcDbEntity
  8
0
100
AcDbCircle
 10
801.688632
 20
744.368728
 30
0.0
 40
4.630982
100
AcDbArc
 50
238.000676
 51
301.999324
  0
LINE
  5
10DB6
100
AcDbEntity
  8
0
100
AcDbLine
 10
799.234632
 20
740.441404
 30
0.0
 11
799.234632
 21
746.538404
 31
0.0
  0
LINE
  5
10DB7
100
AcDbEntity
  8
0
100
AcDbLine
 10
804.142632
 20
740.441404
 30
0.0
 11
802.577632
 21
739.537404
 31
0.0
  0
LINE
  5
10DB8
100
AcDbEntity
  8
0
100
AcDbLine
 10
804.142632
 20
746.538404
 30
0.0
 11
804.142632
 21
740.441404
 31
0.0
  0
LINE
  5
10DB9
100
AcDbEntity
  8
0
100
AcDbLine
 10
855.619283
 20
783.726404
 30
0.0
 11
855.619283
 21
780.538404
 31
0.0
  0
LINE
  5
10DBA
100
AcDbEntity
  8
0
100
AcDbLine
 10
854.807283
 20
784.538404
 30
0.0
 11
855.619283
 21
783.726404
 31
0.0
  0
LINE
  5
10DBB
100
AcDbEntity
  8
0
100
AcDbLine
 10
840.614285
 20
801.844495
 30
0.0
 11
845.52884
 21
783.503128
 31
0.0
  0
LINE
  5
10DBC
100
AcDbEntity
  8
0
100
AcDbLine
 10
845.619283
 20
780.538404
 30
0.0
 11
845.619283
 21
783.726404
 31
0.0
  0
LINE
  5
10DBD
100
AcDbEntity
  8
0
100
AcDbLine
 10
845.619283
 20
783.726404
 30
0.0
 11
846.431283
 21
784.538404
 31
0.0
  0
LINE
  5
10DBE
100
AcDbEntity
  8
0
100
AcDbLine
 10
846.431283
 20
784.538404
 30
0.0
 11
854.807283
 21
784.538404
 31
0.0
  0
LINE
  5
10DBF
100
AcDbEntity
  8
0
100
AcDbLine
 10
860.434283
 20
746.538404
 30
0.0
 11
860.434283
 21
740.441404
 31
0.0
  0
LINE
  5
10DC0
100
AcDbEntity
  8
0
100
AcDbLine
 10
860.434283
 20
740.441404
 30
0.0
 11
858.869283
 21
739.537404
 31
0.0
  0
LINE
  5
10DC1
100
AcDbEntity
  8
0
100
AcDbLine
 10
855.526283
 20
740.441404
 30
0.0
 11
855.526283
 21
746.538404
 31
0.0
  0
ARC
  5
10DC2
100
AcDbEntity
  8
0
100
AcDbCircle
 10
857.980283
 20
744.368728
 30
0.0
 40
4.630982
100
AcDbArc
 50
238.000676
 51
301.999324
  0
ARC
  5
10DC3
100
AcDbEntity
  8
0
100
AcDbCircle
 10
843.258283
 20
744.368728
 30
0.0
 40
4.630982
100
AcDbArc
 50
238.000676
 51
301.999324
  0
LINE
  5
10DC4
100
AcDbEntity
  8
0
100
AcDbLine
 10
845.712283
 20
740.441404
 30
0.0
 11
845.712283
 21
746.538404
 31
0.0
  0
LINE
  5
10DC5
100
AcDbEntity
  8
0
100
AcDbLine
 10
840.804283
 20
740.441404
 30
0.0
 11
840.804283
 21
746.538404
 31
0.0
  0
LINE
  5
10DC6
100
AcDbEntity
  8
0
100
AcDbLine
 10
858.869283
 20
739.537404
 30
0.0
 11
842.369283
 21
739.537404
 31
0.0
  0
ARC
  5
10DC7
100
AcDbEntity
  8
0
100
AcDbCircle
 10
850.619283
 20
757.200396
 30
0.0
 40
17.462601
100
AcDbArc
 50
253.680072
 51
286.319928
  0
LINE
  5
10DC8
100
AcDbEntity
  8
0
100
AcDbLine
 10
872.327632
 20
746.538404
 30
0.0
 11
872.327632
 21
780.538404
 31
0.0
  0
ARC
  5
10DC9
100
AcDbEntity
  8
0
100
AcDbCircle
 10
801.688632
 20
842.868728
 30
0.0
 40
4.630982
100
AcDbArc
 50
238.000676
 51
301.999324
  0
LINE
  5
10DCA
100
AcDbEntity
  8
0
100
AcDbLine
 10
799.234632
 20
838.941404
 30
0.0
 11
799.234632
 21
845.038404
 31
0.0
  0
LINE
  5
10DCB
100
AcDbEntity
  8
0
100
AcDbLine
 10
804.142632
 20
838.941404
 30
0.0
 11
802.577632
 21
838.037404
 31
0.0
  0
LINE
  5
10DCC
100
AcDbEntity
  8
0
100
AcDbLine
 10
804.142632
 20
845.038404
 30
0.0
 11
804.142632
 21
838.941404
 31
0.0
  0
LINE
  5
10DCD
100
AcDbEntity
  8
0
100
AcDbLine
 10
860.434283
 20
845.038404
 30
0.0
 11
860.434283
 21
838.941404
 31
0.0
  0
LINE
  5
10DCE
100
AcDbEntity
  8
0
100
AcDbLine
 10
860.434283
 20
838.941404
 30
0.0
 11
858.869283
 21
838.037404
 31
0.0
  0
LINE
  5
10DCF
100
AcDbEntity
  8
0
100
AcDbLine
 10
855.526283
 20
838.941404
 30
0.0
 11
855.526283
 21
845.038404
 31
0.0
  0
ARC
  5
10DD0
100
AcDbEntity
  8
0
100
AcDbCircle
 10
857.980283
 20
842.868728
 30
0.0
 40
4.630982
100
AcDbArc
 50
238.000676
 51
301.999324
  0
LINE
  5
10DD1
100
AcDbEntity
  8
0
100
AcDbLine
 10
845.712283
 20
838.941404
 30
0.0
 11
845.712283
 21
845.038404
 31
0.0
  0
LINE
  5
10DD2
100
AcDbEntity
  8
0
100
AcDbLine
 10
840.804283
 20
838.941404
 30
0.0
 11
840.804283
 21
845.038404
 31
0.0
  0
LINE
  5
10DD3
100
AcDbEntity
  8
0
100
AcDbLine
 10
842.369283
 20
838.037404
 30
0.0
 11
840.804283
 21
838.941404
 31
0.0
  0
ARC
  5
10DD4
100
AcDbEntity
  8
0
100
AcDbCircle
 10
843.258283
 20
842.868728
 30
0.0
 40
4.630982
100
AcDbArc
 50
238.000676
 51
301.999324
  0
LINE
  5
10DD5
100
AcDbEntity
  8
0
100
AcDbLine
 10
839.629732
 20
830.038404
 30
0.0
 11
840.804283
 21
840.414909
 31
0.0
  0
ARC
  5
10DD6
100
AcDbEntity
  8
0
100
AcDbCircle
 10
850.619283
 20
855.700396
 30
0.0
 40
17.462601
100
AcDbArc
 50
253.680072
 51
286.319928
  0
LINE
  5
10DD7
100
AcDbEntity
  8
0
100
AcDbLine
 10
858.869283
 20
838.037404
 30
0.0
 11
842.369283
 21
838.037404
 31
0.0
  0
LINE
  5
10DD8
100
AcDbEntity
  8
0
100
AcDbLine
 10
872.327632
 20
878.038404
 30
0.0
 11
872.327632
 21
845.038404
 31
0.0
  0
LINE
  5
10DD9
100
AcDbEntity
  8
0
100
AcDbLine
 10
861.968648
 20
980.538404
 30
0.0
 11
879.220303
 21
980.538404
 31
0.0
  0
LINE
  5
10DDA
100
AcDbEntity
  8
0
100
AcDbLine
 10
879.220303
 20
930.538404
 30
0.0
 11
871.327632
 21
930.538404
 31
0.0
  0
ARC
  5
10DDB
100
AcDbEntity
  8
0
100
AcDbCircle
 10
833.327632
 20
939.538404
 30
0.0
 40
10.0
100
AcDbArc
 50
0.0
 51
90.0
  0
LINE
  5
10DDC
100
AcDbEntity
  8
0
100
AcDbLine
 10
798.515632
 20
882.038404
 30
0.0
 11
799.327632
 21
881.226404
 31
0.0
  0
LINE
  5
10DDD
100
AcDbEntity
  8
0
100
AcDbLine
 10
854.807283
 20
882.038404
 30
0.0
 11
855.619283
 21
881.226404
 31
0.0
  0
ARC
  5
10DDE
100
AcDbEntity
  8
0
100
AcDbCircle
 10
871.327632
 20
976.538404
 30
0.0
 40
46.0
100
AcDbArc
 50
244.971001
 51
270.0
  0
LINE
  5
10DDF
100
AcDbEntity
  8
0
100
AcDbLine
 10
845.619283
 20
881.226404
 30
0.0
 11
846.431283
 21
882.038404
 31
0.0
  0
LINE
  5
10DE0
100
AcDbEntity
  8
0
100
AcDbLine
 10
843.327632
 20
893.038404
 30
0.0
 11
843.327632
 21
929.421528
 31
0.0
  0
LINE
  5
10DE1
100
AcDbEntity
  8
0
100
AcDbLine
 10
843.327632
 20
893.038404
 30
0.0
 11
846.296821
 21
881.903943
 31
0.0
  0
LINE
  5
10DE2
100
AcDbEntity
  8
0
100
AcDbLine
 10
846.431283
 20
882.038404
 30
0.0
 11
854.807283
 21
882.038404
 31
0.0
  0
ARC
  5
10DE3
100
AcDbEntity
  8
0
100
AcDbCircle
 10
849.327632
 20
929.421528
 30
0.0
 40
6.0
100
AcDbArc
 50
64.971001
 51
180.0
  0
ARC
  5
10DE4
100
AcDbEntity
  8
0
100
AcDbCircle
 10
827.327632
 20
946.538404
 30
0.0
 40
46.0
100
AcDbArc
 50
51.786789
 51
90.0
  0
ARC
  5
10DE5
100
AcDbEntity
  8
0
100
AcDbCircle
 10
861.968648
 20
990.538404
 30
0.0
 40
10.0
100
AcDbArc
 50
231.786789
 51
270.0
  0
LINE
  5
10DE6
100
AcDbEntity
  8
0
100
AcDbLine
 10
886.364641
 20
970.538404
 30
0.0
 11
886.364641
 21
940.538404
 31
0.0
  0
LINE
  5
10DE9
100
AcDbEntity
  8
0
100
AcDbLine
 10
890.790623
 20
940.538404
 30
0.0
 11
890.790623
 21
970.538404
 31
0.0
  0
LINE
  5
10DEB
100
AcDbEntity
  8
0
100
AcDbLine
 10
879.220303
 20
980.538404
 30
0.0
 11
879.220303
 21
930.538404
 31
0.0
  0
ARC
  5
10DEF
100
AcDbEntity
  8
0
100
AcDbCircle
 10
888.577632
 20
943.938404
 30
0.0
 40
4.056763
100
AcDbArc
 50
236.940715
 51
303.059285
  0
LINE
  5
10DF0
100
AcDbEntity
  8
0
100
AcDbLine
 10
882.463733
 20
933.781834
 30
0.0
 11
879.220303
 21
930.538404
 31
0.0
  0
LINE
  5
10DF1
100
AcDbEntity
  8
0
100
AcDbLine
 10
886.364641
 20
940.538404
 30
0.0
 11
882.463733
 21
933.781834
 31
0.0
  0
ARC
  5
10DF6
100
AcDbEntity
  8
0
100
AcDbCircle
 10
888.577632
 20
967.138404
 30
0.0
 40
4.056763
100
AcDbArc
 50
56.940715
 51
123.059285
  0
LINE
  5
10DF7
100
AcDbEntity
  8
0
100
AcDbLine
 10
882.463733
 20
977.294974
 30
0.0
 11
879.220303
 21
980.538404
 31
0.0
  0
LINE
  5
10DF8
100
AcDbEntity
  8
0
100
AcDbLine
 10
886.364641
 20
970.538404
 30
0.0
 11
882.463733
 21
977.294974
 31
0.0
  0
LINE
  5
10E01
100
AcDbEntity
  8
0
100
AcDbLine
 10
681.827632
 20
908.038404
 30
0.0
 11
681.827632
 21
1003.038404
 31
0.0
  0
LINE
  5
10E05
100
AcDbEntity
  8
0
100
AcDbLine
 10
685.06292
 20
971.908266
 30
0.0
 11
692.096136
 21
970.538404
 31
0.0
  0
ARC
  5
10E06
100
AcDbEntity
  8
0
100
AcDbCircle
 10
685.827632
 20
975.834488
 30
0.0
 40
4.0
100
AcDbArc
 50
180.0
 51
258.978469
  0
LINE
  5
10E07
100
AcDbEntity
  8
0
100
AcDbLine
 10
685.06292
 20
939.168542
 30
0.0
 11
692.096136
 21
940.538404
 31
0.0
  0
ARC
  5
10E08
100
AcDbEntity
  8
0
100
AcDbCircle
 10
685.827632
 20
935.242321
 30
0.0
 40
4.0
100
AcDbArc
 50
101.021531
 51
180.0
  0
LINE
  5
10E09
100
AcDbEntity
  8
0
100
AcDbLine
 10
692.096136
 20
940.538404
 30
0.0
 11
697.864641
 21
940.538404
 31
0.0
  0
LINE
  5
10E0A
100
AcDbEntity
  8
0
100
AcDbLine
 10
906.827632
 20
908.038404
 30
0.0
 11
906.827632
 21
1003.038404
 31
0.0
  0
LINE
  5
10E0B
100
AcDbEntity
  8
0
100
AcDbLine
 10
920.827632
 20
1003.038404
 30
0.0
 11
920.827632
 21
908.038404
 31
0.0
  0
LINE
  5
10E0C
100
AcDbEntity
  8
0
100
AcDbLine
 10
920.827632
 20
908.038404
 30
0.0
 11
906.827632
 21
908.038404
 31
0.0
  0
ARC
  5
10E0D
100
AcDbEntity
  8
0
100
AcDbCircle
 10
902.827632
 20
935.242321
 30
0.0
 40
4.0
100
AcDbArc
 50
0.0
 51
78.978469
  0
ARC
  5
10E0E
100
AcDbEntity
  8
0
100
AcDbCircle
 10
902.827632
 20
975.834488
 30
0.0
 40
4.0
100
AcDbArc
 50
281.021531
 51
0.0
  0
LINE
  5
10E0F
100
AcDbEntity
  8
0
100
AcDbLine
 10
920.827632
 20
1003.038404
 30
0.0
 11
906.827632
 21
1003.038404
 31
0.0
  0
LINE
  5
10E10
100
AcDbEntity
  8
0
100
AcDbLine
 10
896.559127
 20
970.538404
 30
0.0
 11
890.790623
 21
970.538404
 31
0.0
  0
LINE
  5
10E11
100
AcDbEntity
  8
0
100
AcDbLine
 10
903.592343
 20
971.908266
 30
0.0
 11
896.559127
 21
970.538404
 31
0.0
  0
LINE
  5
10E12
100
AcDbEntity
  8
0
100
AcDbLine
 10
896.559127
 20
940.538404
 30
0.0
 11
890.790623
 21
940.538404
 31
0.0
  0
LINE
  5
10E13
100
AcDbEntity
  8
0
100
AcDbLine
 10
903.592343
 20
939.168542
 30
0.0
 11
896.559127
 21
940.538404
 31
0.0
  0
ARC
  5
10FDD
100
AcDbEntity
  8
0
100
AcDbCircle
 10
794.327632
 20
1413.850141
 30
0.0
 40
4.99999
100
AcDbArc
 50
336.421772
 51
203.578228
  0
ARC
  5
10FDE
100
AcDbEntity
  8
0
100
AcDbCircle
 10
794.327632
 20
1348.850141
 30
0.0
 40
35.055457
100
AcDbArc
 50
75.0
 51
171.799872
  0
ARC
  5
10FDF
100
AcDbEntity
  8
0
100
AcDbCircle
 10
794.327632
 20
1348.850141
 30
0.0
 40
78.0
100
AcDbArc
 50
18.693941
 51
161.306059
  0
ARC
  5
10FE0
100
AcDbEntity
  8
0
100
AcDbCircle
 10
794.327632
 20
1348.850141
 30
0.0
 40
49.0
100
AcDbArc
 50
30.677424
 51
149.322576
  0
LINE
  5
10FE1
100
AcDbEntity
  8
0
100
AcDbLine
 10
769.327632
 20
1411.850141
 30
0.0
 11
807.327632
 21
1411.850141
 31
0.0
  0
ARC
  5
10FE2
100
AcDbEntity
  8
0
100
AcDbCircle
 10
794.327632
 20
1283.850141
 30
0.0
 40
4.99999
100
AcDbArc
 50
156.421772
 51
23.578228
  0
ARC
  5
10FE3
100
AcDbEntity
  8
0
100
AcDbCircle
 10
794.327632
 20
1348.850141
 30
0.0
 40
49.0
100
AcDbArc
 50
210.677424
 51
329.322576
  0
ARC
  5
10FE4
100
AcDbEntity
  8
0
100
AcDbCircle
 10
794.327632
 20
1348.850141
 30
0.0
 40
78.0
100
AcDbArc
 50
198.693941
 51
341.306059
  0
ARC
  5
10FE5
100
AcDbEntity
  8
0
100
AcDbCircle
 10
794.327632
 20
1348.850141
 30
0.0
 40
35.055457
100
AcDbArc
 50
188.200128
 51
285.0
  0
LINE
  5
10FE6
100
AcDbEntity
  8
0
100
AcDbLine
 10
769.327632
 20
1285.850141
 30
0.0
 11
807.327632
 21
1285.850141
 31
0.0
  0
ARC
  5
10FE9
100
AcDbEntity
  8
0
100
AcDbCircle
 10
794.327632
 20
1348.850141
 30
0.0
 40
54.0
100
AcDbArc
 50
207.578468
 51
242.421532
  0
CIRCLE
  5
10FEA
100
AcDbEntity
  8
0
100
AcDbCircle
 10
738.035981
 20
1316.350141
 30
0.0
 40
4.99999
  0
LINE
  5
10FEC
100
AcDbEntity
  8
0
100
AcDbLine
 10
769.327632
 20
1306.707526
 30
0.0
 11
769.327632
 21
1285.850141
 31
0.0
  0
LINE
  5
10FED
100
AcDbEntity
  8
0
100
AcDbLine
 10
709.43496
 20
1373.850141
 30
0.0
 11
756.31175
 21
1373.850141
 31
0.0
  0
LINE
  5
10FEE
100
AcDbEntity
  8
0
100
AcDbLine
 10
709.43496
 20
1323.850141
 30
0.0
 11
756.31175
 21
1323.850141
 31
0.0
  0
LINE
  5
10FF3
100
AcDbEntity
  8
0
100
AcDbLine
 10
706.19153
 20
1370.60671
 30
0.0
 11
709.43496
 21
1373.850141
 31
0.0
  0
LINE
  5
10FF4
100
AcDbEntity
  8
0
100
AcDbLine
 10
697.864641
 20
1333.850141
 30
0.0
 11
697.864641
 21
1363.850141
 31
0.0
  0
LINE
  5
10FF5
100
AcDbEntity
  8
0
100
AcDbLine
 10
702.290623
 20
1363.850141
 30
0.0
 11
702.290623
 21
1333.850141
 31
0.0
  0
LINE
  5
10FF6
100
AcDbEntity
  8
0
100
AcDbLine
 10
706.19153
 20
1327.093571
 30
0.0
 11
709.43496
 21
1323.850141
 31
0.0
  0
ARC
  5
10FF7
100
AcDbEntity
  8
0
100
AcDbCircle
 10
700.077632
 20
1337.250141
 30
0.0
 40
4.056763
100
AcDbArc
 50
236.940715
 51
303.059285
  0
LINE
  5
10FF8
100
AcDbEntity
  8
0
100
AcDbLine
 10
702.290623
 20
1333.850141
 30
0.0
 11
706.19153
 21
1327.093571
 31
0.0
  0
ARC
  5
10FF9
100
AcDbEntity
  8
0
100
AcDbCircle
 10
700.077632
 20
1360.450141
 30
0.0
 40
4.056763
100
AcDbArc
 50
56.940715
 51
123.059285
  0
LINE
  5
10FFA
100
AcDbEntity
  8
0
100
AcDbLine
 10
702.290623
 20
1363.850141
 30
0.0
 11
706.19153
 21
1370.60671
 31
0.0
  0
LINE
  5
10FFF
100
AcDbEntity
  8
0
100
AcDbLine
 10
709.43496
 20
1373.850141
 30
0.0
 11
709.43496
 21
1323.850141
 31
0.0
  0
ARC
  5
11001
100
AcDbEntity
  8
0
100
AcDbCircle
 10
794.327632
 20
1348.850141
 30
0.0
 40
54.0
100
AcDbArc
 50
117.578468
 51
152.421532
  0
CIRCLE
  5
11002
100
AcDbEntity
  8
0
100
AcDbCircle
 10
738.035981
 20
1381.350141
 30
0.0
 40
4.99999
  0
LINE
  5
11003
100
AcDbEntity
  8
0
100
AcDbLine
 10
725.327632
 20
1353.850141
 30
0.0
 11
772.804004
 21
1353.850141
 31
0.0
  0
LINE
  5
11004
100
AcDbEntity
  8
0
100
AcDbLine
 10
725.327632
 20
1343.850141
 30
0.0
 11
773.794298
 21
1343.850141
 31
0.0
  0
ARC
  5
11005
100
AcDbEntity
  8
0
100
AcDbCircle
 10
726.317926
 20
1358.850141
 30
0.0
 40
5.0
100
AcDbArc
 50
180.0
 51
270.0
  0
ARC
  5
11006
100
AcDbEntity
  8
0
100
AcDbCircle
 10
726.317926
 20
1338.850141
 30
0.0
 40
5.0
100
AcDbArc
 50
90.0
 51
180.0
  0
LINE
  5
11007
100
AcDbEntity
  8
0
100
AcDbLine
 10
721.317926
 20
1351.850141
 30
0.0
 11
721.317926
 21
1345.850141
 31
0.0
  0
ARC
  5
11008
100
AcDbEntity
  8
0
100
AcDbCircle
 10
772.804004
 20
1358.850141
 30
0.0
 40
5.0
100
AcDbArc
 50
270.0
 51
0.0
  0
ARC
  5
11009
100
AcDbEntity
  8
0
100
AcDbCircle
 10
756.31175
 20
1378.850141
 30
0.0
 40
5.0
100
AcDbArc
 50
270.0
 51
323.315862
  0
ARC
  5
1100A
100
AcDbEntity
  8
0
100
AcDbCircle
 10
756.31175
 20
1318.850141
 30
0.0
 40
5.0
100
AcDbArc
 50
36.684138
 51
90.0
  0
ARC
  5
1100B
100
AcDbEntity
  8
0
100
AcDbCircle
 10
772.804004
 20
1338.850141
 30
0.0
 40
5.0
100
AcDbArc
 50
0.0
 51
90.0
  0
LINE
  5
1100C
100
AcDbEntity
  8
0
100
AcDbLine
 10
769.327632
 20
1390.992756
 30
0.0
 11
769.327632
 21
1411.850141
 31
0.0
  0
CIRCLE
  5
1100F
100
AcDbEntity
  8
0
100
AcDbCircle
 10
850.619283
 20
1316.350141
 30
0.0
 40
4.99999
  0
ARC
  5
11010
100
AcDbEntity
  8
0
100
AcDbCircle
 10
794.327632
 20
1348.850141
 30
0.0
 40
54.0
100
AcDbArc
 50
283.930264
 51
332.421532
  0
LINE
  5
11011
100
AcDbEntity
  8
0
100
AcDbLine
 10
807.327632
 20
1301.606093
 30
0.0
 11
807.327632
 21
1285.850141
 31
0.0
  0
LINE
  5
11013
100
AcDbEntity
  8
0
100
AcDbLine
 10
879.220303
 20
1373.850141
 30
0.0
 11
836.470247
 21
1373.850141
 31
0.0
  0
LINE
  5
11014
100
AcDbEntity
  8
0
100
AcDbLine
 10
879.220303
 20
1323.850141
 30
0.0
 11
836.470247
 21
1323.850141
 31
0.0
  0
CIRCLE
  5
11015
100
AcDbEntity
  8
0
100
AcDbCircle
 10
850.619283
 20
1381.350141
 30
0.0
 40
4.99999
  0
ARC
  5
11016
100
AcDbEntity
  8
0
100
AcDbCircle
 10
794.327632
 20
1348.850141
 30
0.0
 40
54.0
100
AcDbArc
 50
27.578468
 51
76.069736
  0
LINE
  5
11017
100
AcDbEntity
  8
0
100
AcDbLine
 10
836.470247
 20
1373.850141
 30
0.0
 11
803.400652
 21
1382.711112
 31
0.0
  0
LINE
  5
11018
100
AcDbEntity
  8
0
100
AcDbLine
 10
836.470247
 20
1323.850141
 30
0.0
 11
803.400652
 21
1314.989169
 31
0.0
  0
LINE
  5
11019
100
AcDbEntity
  8
0
100
AcDbLine
 10
836.470247
 20
1369.850141
 30
0.0
 11
836.470247
 21
1327.850141
 31
0.0
  0
LINE
  5
1101A
100
AcDbEntity
  8
0
100
AcDbLine
 10
807.327632
 20
1396.094188
 30
0.0
 11
807.327632
 21
1411.850141
 31
0.0
  0
LINE
  5
1101B
100
AcDbEntity
  8
0
100
AcDbLine
 10
882.463733
 20
1370.60671
 30
0.0
 11
879.220303
 21
1373.850141
 31
0.0
  0
LINE
  5
1101C
100
AcDbEntity
  8
0
100
AcDbLine
 10
890.790623
 20
1333.850141
 30
0.0
 11
890.790623
 21
1363.850141
 31
0.0
  0
LINE
  5
1101D
100
AcDbEntity
  8
0
100
AcDbLine
 10
886.364641
 20
1363.850141
 30
0.0
 11
886.364641
 21
1333.850141
 31
0.0
  0
ARC
  5
11020
100
AcDbEntity
  8
0
100
AcDbCircle
 10
888.577632
 20
1337.250141
 30
0.0
 40
4.056763
100
AcDbArc
 50
236.940715
 51
303.059285
  0
ARC
  5
11023
100
AcDbEntity
  8
0
100
AcDbCircle
 10
888.577632
 20
1360.450141
 30
0.0
 40
4.056763
100
AcDbArc
 50
56.940715
 51
123.059285
  0
LINE
  5
11024
100
AcDbEntity
  8
0
100
AcDbLine
 10
882.463733
 20
1327.093571
 30
0.0
 11
879.220303
 21
1323.850141
 31
0.0
  0
LINE
  5
11025
100
AcDbEntity
  8
0
100
AcDbLine
 10
886.364641
 20
1333.850141
 30
0.0
 11
882.463733
 21
1327.093571
 31
0.0
  0
LINE
  5
11026
100
AcDbEntity
  8
0
100
AcDbLine
 10
886.364641
 20
1363.850141
 30
0.0
 11
882.463733
 21
1370.60671
 31
0.0
  0
LINE
  5
11027
100
AcDbEntity
  8
0
100
AcDbLine
 10
879.220303
 20
1373.850141
 30
0.0
 11
879.220303
 21
1323.850141
 31
0.0
  0
LINE
  5
11030
100
AcDbEntity
  8
0
100
AcDbLine
 10
681.827632
 20
1301.350141
 30
0.0
 11
681.827632
 21
1396.350141
 31
0.0
  0
LINE
  5
11031
100
AcDbEntity
  8
0
100
AcDbLine
 10
667.827632
 20
1396.350141
 30
0.0
 11
667.827632
 21
1301.350141
 31
0.0
  0
LINE
  5
11032
100
AcDbEntity
  8
0
100
AcDbLine
 10
667.827632
 20
1301.350141
 30
0.0
 11
681.827632
 21
1301.350141
 31
0.0
  0
ARC
  5
11033
100
AcDbEntity
  8
0
100
AcDbCircle
 10
685.827632
 20
1328.554057
 30
0.0
 40
4.0
100
AcDbArc
 50
101.021531
 51
180.0
  0
ARC
  5
11034
100
AcDbEntity
  8
0
100
AcDbCircle
 10
685.827632
 20
1369.146224
 30
0.0
 40
4.0
100
AcDbArc
 50
180.0
 51
258.978469
  0
LINE
  5
11035
100
AcDbEntity
  8
0
100
AcDbLine
 10
667.827632
 20
1396.350141
 30
0.0
 11
681.827632
 21
1396.350141
 31
0.0
  0
LINE
  5
11036
100
AcDbEntity
  8
0
100
AcDbLine
 10
685.06292
 20
1365.220002
 30
0.0
 11
692.096136
 21
1363.850141
 31
0.0
  0
LINE
  5
11037
100
AcDbEntity
  8
0
100
AcDbLine
 10
685.06292
 20
1332.480279
 30
0.0
 11
692.096136
 21
1333.850141
 31
0.0
  0
LINE
  5
11038
100
AcDbEntity
  8
0
100
AcDbLine
 10
692.096136
 20
1333.850141
 30
0.0
 11
697.864641
 21
1333.850141
 31
0.0
  0
LINE
  5
11039
100
AcDbEntity
  8
0
100
AcDbLine
 10
920.827632
 20
1396.350141
 30
0.0
 11
920.827632
 21
1301.350141
 31
0.0
  0
LINE
  5
1103A
100
AcDbEntity
  8
0
100
AcDbLine
 10
906.827632
 20
1301.350141
 30
0.0
 11
906.827632
 21
1396.350141
 31
0.0
  0
LINE
  5
1103B
100
AcDbEntity
  8
0
100
AcDbLine
 10
920.827632
 20
1301.350141
 30
0.0
 11
906.827632
 21
1301.350141
 31
0.0
  0
LINE
  5
1103C
100
AcDbEntity
  8
0
100
AcDbLine
 10
903.592343
 20
1332.480279
 30
0.0
 11
896.559127
 21
1333.850141
 31
0.0
  0
LINE
  5
1103D
100
AcDbEntity
  8
0
100
AcDbLine
 10
896.559127
 20
1333.850141
 30
0.0
 11
890.790623
 21
1333.850141
 31
0.0
  0
ARC
  5
1103E
100
AcDbEntity
  8
0
100
AcDbCircle
 10
902.827632
 20
1328.554057
 30
0.0
 40
4.0
100
AcDbArc
 50
0.0
 51
78.978469
  0
LINE
  5
1103F
100
AcDbEntity
  8
0
100
AcDbLine
 10
920.827632
 20
1396.350141
 30
0.0
 11
906.827632
 21
1396.350141
 31
0.0
  0
LINE
  5
11040
100
AcDbEntity
  8
0
100
AcDbLine
 10
903.592343
 20
1365.220002
 30
0.0
 11
896.559127
 21
1363.850141
 31
0.0
  0
LINE
  5
11041
100
AcDbEntity
  8
0
100
AcDbLine
 10
896.559127
 20
1363.850141
 30
0.0
 11
890.790623
 21
1363.850141
 31
0.0
  0
ARC
  5
11042
100
AcDbEntity
  8
0
100
AcDbCircle
 10
902.827632
 20
1369.146224
 30
0.0
 40
4.0
100
AcDbArc
 50
281.021531
 51
0.0
  0
LINE
  5
110A3
100
AcDbEntity
  8
0
100
AcDbLine
 10
692.096136
 20
1363.850141
 30
0.0
 11
697.864641
 21
1363.850141
 31
0.0
  0
LINE
  5
114E4
100
AcDbEntity
  8
0
100
AcDbLine
 10
1719.782082
 20
1398.850141
 30
0.0
 11
1719.782082
 21
1298.850141
 31
0.0
  0
CIRCLE
  5
114E6
100
AcDbEntity
  8
0
100
AcDbCircle
 10
1896.573734
 20
1316.350141
 30
0.0
 40
4.99999
  0
ARC
  5
114E7
100
AcDbEntity
  8
0
100
AcDbCircle
 10
1840.282082
 20
1348.850141
 30
0.0
 40
54.0
100
AcDbArc
 50
283.930264
 51
332.421532
  0
LINE
  5
114E8
100
AcDbEntity
  8
0
100
AcDbLine
 10
1882.424697
 20
1323.850141
 30
0.0
 11
1849.355102
 21
1314.989169
 31
0.0
  0
ARC
  5
114E9
100
AcDbEntity
  8
0
100
AcDbCircle
 10
1840.282082
 20
1348.850141
 30
0.0
 40
54.0
100
AcDbArc
 50
207.578468
 51
242.421532
  0
CIRCLE
  5
114EA
100
AcDbEntity
  8
0
100
AcDbCircle
 10
1783.990431
 20
1316.350141
 30
0.0
 40
4.99999
  0
ARC
  5
114EB
100
AcDbEntity
  8
0
100
AcDbCircle
 10
1840.282082
 20
1348.850141
 30
0.0
 40
49.0
100
AcDbArc
 50
210.677424
 51
329.322576
  0
ARC
  5
114EC
100
AcDbEntity
  8
0
100
AcDbCircle
 10
1840.282082
 20
1348.850141
 30
0.0
 40
78.0
100
AcDbArc
 50
198.693941
 51
341.306059
  0
ARC
  5
114ED
100
AcDbEntity
  8
0
100
AcDbCircle
 10
1840.282082
 20
1348.850141
 30
0.0
 40
35.055457
100
AcDbArc
 50
188.200128
 51
285.0
  0
LINE
  5
114F2
100
AcDbEntity
  8
0
100
AcDbLine
 10
1853.282082
 20
1301.606093
 30
0.0
 11
1853.282082
 21
1285.850141
 31
0.0
  0
ARC
  5
114F3
100
AcDbEntity
  8
0
100
AcDbCircle
 10
1840.282082
 20
1283.850141
 30
0.0
 40
4.99999
100
AcDbArc
 50
156.421772
 51
23.578228
  0
LINE
  5
114F4
100
AcDbEntity
  8
0
100
AcDbLine
 10
1815.282082
 20
1306.707526
 30
0.0
 11
1815.282082
 21
1285.850141
 31
0.0
  0
LINE
  5
114F5
100
AcDbEntity
  8
0
100
AcDbLine
 10
1815.282082
 20
1285.850141
 30
0.0
 11
1853.282082
 21
1285.850141
 31
0.0
  0
LINE
  5
114F7
100
AcDbEntity
  8
0
100
AcDbLine
 10
1755.389411
 20
1373.850141
 30
0.0
 11
1802.2662
 21
1373.850141
 31
0.0
  0
LINE
  5
114F8
100
AcDbEntity
  8
0
100
AcDbLine
 10
1755.389411
 20
1323.850141
 30
0.0
 11
1802.2662
 21
1323.850141
 31
0.0
  0
LINE
  5
114F9
100
AcDbEntity
  8
0
100
AcDbLine
 10
1748.389411
 20
1366.850141
 30
0.0
 11
1755.389411
 21
1373.850141
 31
0.0
  0
ARC
  5
114FA
100
AcDbEntity
  8
0
100
AcDbCircle
 10
1746.032082
 20
1363.200141
 30
0.0
 40
4.345054
100
AcDbArc
 50
57.14387
 51
122.85613
  0
ARC
  5
114FC
100
AcDbEntity
  8
0
100
AcDbCircle
 10
1723.782082
 20
1373.129356
 30
0.0
 40
4.0
100
AcDbArc
 50
180.0
 51
258.690068
  0
LINE
  5
114FD
100
AcDbEntity
  8
0
100
AcDbLine
 10
1734.782082
 20
1366.850141
 30
0.0
 11
1722.997618
 21
1369.207034
 31
0.0
  0
LINE
  5
114FE
100
AcDbEntity
  8
0
100
AcDbLine
 10
1734.782082
 20
1366.850141
 30
0.0
 11
1743.674754
 21
1366.850141
 31
0.0
  0
LINE
  5
114FF
100
AcDbEntity
  8
0
100
AcDbLine
 10
1748.389411
 20
1330.850141
 30
0.0
 11
1755.389411
 21
1323.850141
 31
0.0
  0
ARC
  5
11500
100
AcDbEntity
  8
0
100
AcDbCircle
 10
1746.032082
 20
1334.500141
 30
0.0
 40
4.345054
100
AcDbArc
 50
237.14387
 51
302.85613
  0
LINE
  5
11501
100
AcDbEntity
  8
0
100
AcDbLine
 10
1703.782082
 20
1348.850141
 30
0.0
 11
1703.782082
 21
1298.850141
 31
0.0
  0
LINE
  5
11503
100
AcDbEntity
  8
0
100
AcDbLine
 10
1734.782082
 20
1330.850141
 30
0.0
 11
1722.997618
 21
1328.493248
 31
0.0
  0
ARC
  5
11504
100
AcDbEntity
  8
0
100
AcDbCircle
 10
1723.782082
 20
1324.570925
 30
0.0
 40
4.0
100
AcDbArc
 50
101.309932
 51
180.0
  0
LINE
  5
11505
100
AcDbEntity
  8
0
100
AcDbLine
 10
1734.782082
 20
1330.850141
 30
0.0
 11
1743.674754
 21
1330.850141
 31
0.0
  0
LINE
  5
11506
100
AcDbEntity
  8
0
100
AcDbLine
 10
1703.782082
 20
1348.850141
 30
0.0
 11
1703.782082
 21
1398.850141
 31
0.0
  0
LINE
  5
11507
100
AcDbEntity
  8
0
100
AcDbLine
 10
1743.674754
 20
1330.850141
 30
0.0
 11
1743.674754
 21
1366.850141
 31
0.0
  0
LINE
  5
11508
100
AcDbEntity
  8
0
100
AcDbLine
 10
1748.389411
 20
1366.850141
 30
0.0
 11
1748.389411
 21
1330.850141
 31
0.0
  0
LINE
  5
11509
100
AcDbEntity
  8
0
100
AcDbLine
 10
1734.782082
 20
1334.450141
 30
0.0
 11
1734.782082
 21
1363.250141
 31
0.0
  0
LINE
  5
1150A
100
AcDbEntity
  8
0
100
AcDbLine
 10
1755.389411
 20
1373.850141
 30
0.0
 11
1755.389411
 21
1323.850141
 31
0.0
  0
LINE
  5
1150C
100
AcDbEntity
  8
0
100
AcDbLine
 10
1853.282082
 20
1396.094188
 30
0.0
 11
1853.282082
 21
1411.850141
 31
0.0
  0
ARC
  5
1150D
100
AcDbEntity
  8
0
100
AcDbCircle
 10
1840.282082
 20
1348.850141
 30
0.0
 40
54.0
100
AcDbArc
 50
27.578468
 51
76.069736
  0
LINE
  5
1150E
100
AcDbEntity
  8
0
100
AcDbLine
 10
1815.282082
 20
1390.992756
 30
0.0
 11
1815.282082
 21
1411.850141
 31
0.0
  0
ARC
  5
1150F
100
AcDbEntity
  8
0
100
AcDbCircle
 10
1840.282082
 20
1348.850141
 30
0.0
 40
78.0
100
AcDbArc
 50
18.693941
 51
161.306059
  0
LINE
  5
11510
100
AcDbEntity
  8
0
100
AcDbLine
 10
1925.174754
 20
1373.850141
 30
0.0
 11
1882.424697
 21
1373.850141
 31
0.0
  0
LINE
  5
11511
100
AcDbEntity
  8
0
100
AcDbLine
 10
1925.174754
 20
1323.850141
 30
0.0
 11
1882.424697
 21
1323.850141
 31
0.0
  0
CIRCLE
  5
11512
100
AcDbEntity
  8
0
100
AcDbCircle
 10
1896.573734
 20
1381.350141
 30
0.0
 40
4.99999
  0
LINE
  5
11513
100
AcDbEntity
  8
0
100
AcDbLine
 10
1882.424697
 20
1373.850141
 30
0.0
 11
1849.355102
 21
1382.711112
 31
0.0
  0
ARC
  5
11514
100
AcDbEntity
  8
0
100
AcDbCircle
 10
1818.758454
 20
1358.850141
 30
0.0
 40
5.0
100
AcDbArc
 50
270.0
 51
0.0
  0
ARC
  5
11515
100
AcDbEntity
  8
0
100
AcDbCircle
 10
1840.282082
 20
1348.850141
 30
0.0
 40
54.0
100
AcDbArc
 50
117.578468
 51
152.421532
  0
ARC
  5
11516
100
AcDbEntity
  8
0
100
AcDbCircle
 10
1802.2662
 20
1378.850141
 30
0.0
 40
5.0
100
AcDbArc
 50
270.0
 51
323.315862
  0
ARC
  5
11517
100
AcDbEntity
  8
0
100
AcDbCircle
 10
1772.272377
 20
1358.850141
 30
0.0
 40
5.0
100
AcDbArc
 50
180.0
 51
270.0
  0
CIRCLE
  5
11518
100
AcDbEntity
  8
0
100
AcDbCircle
 10
1783.990431
 20
1381.350141
 30
0.0
 40
4.99999
  0
LINE
  5
11519
100
AcDbEntity
  8
0
100
AcDbLine
 10
1771.282082
 20
1353.850141
 30
0.0
 11
1818.758454
 21
1353.850141
 31
0.0
  0
ARC
  5
1151A
100
AcDbEntity
  8
0
100
AcDbCircle
 10
1840.282082
 20
1348.850141
 30
0.0
 40
35.055457
100
AcDbArc
 50
75.0
 51
171.799872
  0
ARC
  5
1151B
100
AcDbEntity
  8
0
100
AcDbCircle
 10
1840.282082
 20
1348.850141
 30
0.0
 40
49.0
100
AcDbArc
 50
30.677424
 51
149.322576
  0
ARC
  5
1151C
100
AcDbEntity
  8
0
100
AcDbCircle
 10
1802.2662
 20
1318.850141
 30
0.0
 40
5.0
100
AcDbArc
 50
36.684138
 51
90.0
  0
ARC
  5
1151D
100
AcDbEntity
  8
0
100
AcDbCircle
 10
1818.758454
 20
1338.850141
 30
0.0
 40
5.0
100
AcDbArc
 50
0.0
 51
90.0
  0
ARC
  5
1151E
100
AcDbEntity
  8
0
100
AcDbCircle
 10
1772.272377
 20
1338.850141
 30
0.0
 40
5.0
100
AcDbArc
 50
90.0
 51
180.0
  0
LINE
  5
1151F
100
AcDbEntity
  8
0
100
AcDbLine
 10
1771.282082
 20
1343.850141
 30
0.0
 11
1819.748749
 21
1343.850141
 31
0.0
  0
LINE
  5
11520
100
AcDbEntity
  8
0
100
AcDbLine
 10
1882.424697
 20
1369.850141
 30
0.0
 11
1882.424697
 21
1327.850141
 31
0.0
  0
LINE
  5
11521
100
AcDbEntity
  8
0
100
AcDbLine
 10
1767.272377
 20
1351.850141
 30
0.0
 11
1767.272377
 21
1345.850141
 31
0.0
  0
LINE
  5
11523
100
AcDbEntity
  8
0
100
AcDbLine
 10
1945.782082
 20
1366.850141
 30
0.0
 11
1936.889411
 21
1366.850141
 31
0.0
  0
ARC
  5
11524
100
AcDbEntity
  8
0
100
AcDbCircle
 10
1956.782082
 20
1373.129356
 30
0.0
 40
4.0
100
AcDbArc
 50
281.309932
 51
0.0
  0
LINE
  5
11525
100
AcDbEntity
  8
0
100
AcDbLine
 10
1945.782082
 20
1366.850141
 30
0.0
 11
1957.566547
 21
1369.207034
 31
0.0
  0
ARC
  5
11526
100
AcDbEntity
  8
0
100
AcDbCircle
 10
1934.532082
 20
1363.200141
 30
0.0
 40
4.345054
100
AcDbArc
 50
57.14387
 51
122.85613
  0
LINE
  5
11527
100
AcDbEntity
  8
0
100
AcDbLine
 10
1932.174754
 20
1366.850141
 30
0.0
 11
1925.174754
 21
1373.850141
 31
0.0
  0
LINE
  5
1152A
100
AcDbEntity
  8
0
100
AcDbLine
 10
1945.782082
 20
1330.850141
 30
0.0
 11
1936.889411
 21
1330.850141
 31
0.0
  0
LINE
  5
1152B
100
AcDbEntity
  8
0
100
AcDbLine
 10
1945.782082
 20
1330.850141
 30
0.0
 11
1957.566547
 21
1328.493248
 31
0.0
  0
ARC
  5
1152C
100
AcDbEntity
  8
0
100
AcDbCircle
 10
1956.782082
 20
1324.570925
 30
0.0
 40
4.0
100
AcDbArc
 50
0.0
 51
78.690068
  0
ARC
  5
1152D
100
AcDbEntity
  8
0
100
AcDbCircle
 10
1934.532082
 20
1334.500141
 30
0.0
 40
4.345054
100
AcDbArc
 50
237.14387
 51
302.85613
  0
LINE
  5
1152E
100
AcDbEntity
  8
0
100
AcDbLine
 10
1932.174754
 20
1330.850141
 30
0.0
 11
1925.174754
 21
1323.850141
 31
0.0
  0
LINE
  5
1152F
100
AcDbEntity
  8
0
100
AcDbLine
 10
1936.889411
 20
1330.850141
 30
0.0
 11
1936.889411
 21
1366.850141
 31
0.0
  0
LINE
  5
11531
100
AcDbEntity
  8
0
100
AcDbLine
 10
1932.174754
 20
1366.850141
 30
0.0
 11
1932.174754
 21
1330.850141
 31
0.0
  0
LINE
  5
11532
100
AcDbEntity
  8
0
100
AcDbLine
 10
1945.782082
 20
1334.450141
 30
0.0
 11
1945.782082
 21
1363.250141
 31
0.0
  0
LINE
  5
11533
100
AcDbEntity
  8
0
100
AcDbLine
 10
1925.174754
 20
1373.850141
 30
0.0
 11
1925.174754
 21
1323.850141
 31
0.0
  0
ARC
  5
11534
100
AcDbEntity
  8
0
100
AcDbCircle
 10
1840.282082
 20
1413.850141
 30
0.0
 40
4.99999
100
AcDbArc
 50
336.421772
 51
203.578228
  0
LINE
  5
11535
100
AcDbEntity
  8
0
100
AcDbLine
 10
1815.282082
 20
1411.850141
 30
0.0
 11
1853.282082
 21
1411.850141
 31
0.0
  0
LINE
  5
1153A
100
AcDbEntity
  8
0
100
AcDbLine
 10
1719.782082
 20
1005.538404
 30
0.0
 11
1719.782082
 21
905.538404
 31
0.0
  0
LINE
  5
1153D
100
AcDbEntity
  8
0
100
AcDbLine
 10
1885.584183
 20
830.038404
 30
0.0
 11
1886.758734
 21
840.414909
 31
0.0
  0
LINE
  5
1153E
100
AcDbEntity
  8
0
100
AcDbLine
 10
1794.979982
 20
830.038404
 30
0.0
 11
1793.805431
 21
840.414909
 31
0.0
  0
LINE
  5
11540
100
AcDbEntity
  8
0
100
AcDbLine
 10
1762.282082
 20
763.538404
 30
0.0
 11
1918.282082
 21
763.538404
 31
0.0
  0
LINE
  5
11541
100
AcDbEntity
  8
0
100
AcDbLine
 10
1762.282082
 20
780.538404
 30
0.0
 11
1918.282082
 21
780.538404
 31
0.0
  0
LINE
  5
11542
100
AcDbEntity
  8
0
100
AcDbLine
 10
1918.282082
 20
746.538404
 30
0.0
 11
1762.282082
 21
746.538404
 31
0.0
  0
LINE
  5
11543
100
AcDbEntity
  8
0
100
AcDbLine
 10
1762.282082
 20
746.538404
 30
0.0
 11
1762.282082
 21
780.538404
 31
0.0
  0
ARC
  5
11544
100
AcDbEntity
  8
0
100
AcDbCircle
 10
1869.94789
 20
740.538404
 30
0.0
 40
6.0
100
AcDbArc
 50
90.0
 51
150.0
  0
ARC
  5
11545
100
AcDbEntity
  8
0
100
AcDbCircle
 10
1814.353879
 20
740.538404
 30
0.0
 40
6.0
100
AcDbArc
 50
30.0
 51
90.0
  0
LINE
  5
11546
100
AcDbEntity
  8
0
100
AcDbLine
 10
1906.388734
 20
746.538404
 30
0.0
 11
1906.388734
 21
740.441404
 31
0.0
  0
LINE
  5
11547
100
AcDbEntity
  8
0
100
AcDbLine
 10
1901.480734
 20
740.441404
 30
0.0
 11
1901.480734
 21
746.538404
 31
0.0
  0
LINE
  5
11548
100
AcDbEntity
  8
0
100
AcDbLine
 10
1891.666734
 20
740.441404
 30
0.0
 11
1891.666734
 21
746.538404
 31
0.0
  0
LINE
  5
11549
100
AcDbEntity
  8
0
100
AcDbLine
 10
1886.758734
 20
740.441404
 30
0.0
 11
1886.758734
 21
746.538404
 31
0.0
  0
LINE
  5
1154A
100
AcDbEntity
  8
0
100
AcDbLine
 10
1830.467082
 20
740.441404
 30
0.0
 11
1830.467082
 21
746.538404
 31
0.0
  0
LINE
  5
1154B
100
AcDbEntity
  8
0
100
AcDbLine
 10
1835.375082
 20
740.441404
 30
0.0
 11
1835.375082
 21
746.538404
 31
0.0
  0
LINE
  5
1154C
100
AcDbEntity
  8
0
100
AcDbLine
 10
1845.189082
 20
740.441404
 30
0.0
 11
1845.189082
 21
746.538404
 31
0.0
  0
LINE
  5
1154D
100
AcDbEntity
  8
0
100
AcDbLine
 10
1850.097082
 20
746.538404
 30
0.0
 11
1850.097082
 21
740.441404
 31
0.0
  0
LINE
  5
1154E
100
AcDbEntity
  8
0
100
AcDbLine
 10
1793.805431
 20
746.538404
 30
0.0
 11
1793.805431
 21
740.441404
 31
0.0
  0
LINE
  5
1154F
100
AcDbEntity
  8
0
100
AcDbLine
 10
1788.897431
 20
740.441404
 30
0.0
 11
1788.897431
 21
746.538404
 31
0.0
  0
LINE
  5
11550
100
AcDbEntity
  8
0
100
AcDbLine
 10
1779.083431
 20
740.441404
 30
0.0
 11
1779.083431
 21
746.538404
 31
0.0
  0
LINE
  5
11551
100
AcDbEntity
  8
0
100
AcDbLine
 10
1774.175431
 20
740.441404
 30
0.0
 11
1774.175431
 21
746.538404
 31
0.0
  0
LINE
  5
11552
100
AcDbEntity
  8
0
100
AcDbLine
 10
1821.282082
 20
740.538404
 30
0.0
 11
1819.550032
 21
743.538404
 31
0.0
  0
LINE
  5
11553
100
AcDbEntity
  8
0
100
AcDbLine
 10
1821.859433
 20
739.538404
 30
0.0
 11
1819.550032
 21
743.538404
 31
0.0
  0
LINE
  5
11554
100
AcDbEntity
  8
0
100
AcDbLine
 10
1863.019687
 20
740.538404
 30
0.0
 11
1864.751738
 21
743.538404
 31
0.0
  0
LINE
  5
11555
100
AcDbEntity
  8
0
100
AcDbLine
 10
1862.442336
 20
739.538404
 30
0.0
 11
1864.751738
 21
743.538404
 31
0.0
  0
LINE
  5
11556
100
AcDbEntity
  8
0
100
AcDbLine
 10
1901.782082
 20
705.538404
 30
0.0
 11
1901.782082
 21
738.765929
 31
0.0
  0
LINE
  5
11557
100
AcDbEntity
  8
0
100
AcDbLine
 10
1900.782082
 20
704.538404
 30
0.0
 11
1901.782082
 21
705.538404
 31
0.0
  0
ARC
  5
11558
100
AcDbEntity
  8
0
100
AcDbCircle
 10
1854.782082
 20
722.538404
 30
0.0
 40
2.0
100
AcDbArc
 50
0.0
 51
90.0
  0
LINE
  5
11559
100
AcDbEntity
  8
0
100
AcDbLine
 10
1856.782082
 20
705.538404
 30
0.0
 11
1857.782082
 21
704.538404
 31
0.0
  0
LINE
  5
1155A
100
AcDbEntity
  8
0
100
AcDbLine
 10
1830.519687
 20
734.538404
 30
0.0
 11
1853.782082
 21
734.538404
 31
0.0
  0
ARC
  5
1155B
100
AcDbEntity
  8
0
100
AcDbCircle
 10
1853.782082
 20
744.538404
 30
0.0
 40
10.0
100
AcDbArc
 50
270.0
 51
330.0
  0
LINE
  5
1155C
100
AcDbEntity
  8
0
100
AcDbLine
 10
1856.782082
 20
705.538404
 30
0.0
 11
1856.782082
 21
734.999012
 31
0.0
  0
LINE
  5
1155D
100
AcDbEntity
  8
0
100
AcDbLine
 10
1821.282082
 20
726.538404
 30
0.0
 11
1821.282082
 21
740.538404
 31
0.0
  0
ARC
  5
1155E
100
AcDbEntity
  8
0
100
AcDbCircle
 10
1823.282082
 20
726.538404
 30
0.0
 40
2.0
100
AcDbArc
 50
180.0
 51
270.0
  0
LINE
  5
1155F
100
AcDbEntity
  8
0
100
AcDbLine
 10
1854.782082
 20
724.538404
 30
0.0
 11
1823.282082
 21
724.538404
 31
0.0
  0
ARC
  5
11560
100
AcDbEntity
  8
0
100
AcDbCircle
 10
1830.519687
 20
744.538404
 30
0.0
 40
10.0
100
AcDbArc
 50
210.0
 51
270.0
  0
LINE
  5
11561
100
AcDbEntity
  8
0
100
AcDbLine
 10
1900.782082
 20
704.538404
 30
0.0
 11
1857.782082
 21
704.538404
 31
0.0
  0
ARC
  5
11562
100
AcDbEntity
  8
0
100
AcDbCircle
 10
1889.212734
 20
744.368728
 30
0.0
 40
4.630982
100
AcDbArc
 50
238.000676
 51
301.999324
  0
LINE
  5
11563
100
AcDbEntity
  8
0
100
AcDbLine
 10
1904.823734
 20
739.537404
 30
0.0
 11
1888.323734
 21
739.537404
 31
0.0
  0
LINE
  5
11564
100
AcDbEntity
  8
0
100
AcDbLine
 10
1906.388734
 20
740.441404
 30
0.0
 11
1904.823734
 21
739.537404
 31
0.0
  0
ARC
  5
11565
100
AcDbEntity
  8
0
100
AcDbCircle
 10
1903.934734
 20
744.368728
 30
0.0
 40
4.630982
100
AcDbArc
 50
238.000676
 51
301.999324
  0
ARC
  5
11566
100
AcDbEntity
  8
0
100
AcDbCircle
 10
1896.573734
 20
757.200396
 30
0.0
 40
17.462601
100
AcDbArc
 50
253.680072
 51
286.319928
  0
LINE
  5
11567
100
AcDbEntity
  8
0
100
AcDbLine
 10
1848.532082
 20
739.537404
 30
0.0
 11
1832.032082
 21
739.537404
 31
0.0
  0
ARC
  5
11568
100
AcDbEntity
  8
0
100
AcDbCircle
 10
1847.643082
 20
744.368728
 30
0.0
 40
4.630982
100
AcDbArc
 50
238.000676
 51
301.999324
  0
ARC
  5
11569
100
AcDbEntity
  8
0
100
AcDbCircle
 10
1840.282082
 20
757.200396
 30
0.0
 40
17.462601
100
AcDbArc
 50
253.680072
 51
286.319928
  0
ARC
  5
1156A
100
AcDbEntity
  8
0
100
AcDbCircle
 10
1832.921082
 20
744.368728
 30
0.0
 40
4.630982
100
AcDbArc
 50
238.000676
 51
301.999324
  0
LINE
  5
1156B
100
AcDbEntity
  8
0
100
AcDbLine
 10
1832.032082
 20
739.537404
 30
0.0
 11
1830.467082
 21
740.441404
 31
0.0
  0
LINE
  5
1156C
100
AcDbEntity
  8
0
100
AcDbLine
 10
1850.097082
 20
740.441404
 30
0.0
 11
1848.532082
 21
739.537404
 31
0.0
  0
LINE
  5
1156D
100
AcDbEntity
  8
0
100
AcDbLine
 10
1793.805431
 20
740.441404
 30
0.0
 11
1792.240431
 21
739.537404
 31
0.0
  0
ARC
  5
1156E
100
AcDbEntity
  8
0
100
AcDbCircle
 10
1783.990431
 20
757.200396
 30
0.0
 40
17.462601
100
AcDbArc
 50
253.680072
 51
286.319928
  0
ARC
  5
1156F
100
AcDbEntity
  8
0
100
AcDbCircle
 10
1791.351431
 20
744.368728
 30
0.0
 40
4.630982
100
AcDbArc
 50
238.000676
 51
301.999324
  0
LINE
  5
11570
100
AcDbEntity
  8
0
100
AcDbLine
 10
1775.740431
 20
739.537404
 30
0.0
 11
1774.175431
 21
740.441404
 31
0.0
  0
ARC
  5
11571
100
AcDbEntity
  8
0
100
AcDbCircle
 10
1776.629431
 20
744.368728
 30
0.0
 40
4.630982
100
AcDbArc
 50
238.000676
 51
301.999324
  0
LINE
  5
11572
100
AcDbEntity
  8
0
100
AcDbLine
 10
1792.240431
 20
739.537404
 30
0.0
 11
1775.740431
 21
739.537404
 31
0.0
  0
LINE
  5
11573
100
AcDbEntity
  8
0
100
AcDbLine
 10
1836.094082
 20
784.538404
 30
0.0
 11
1844.470082
 21
784.538404
 31
0.0
  0
LINE
  5
11574
100
AcDbEntity
  8
0
100
AcDbLine
 10
1835.282082
 20
783.726404
 30
0.0
 11
1836.094082
 21
784.538404
 31
0.0
  0
LINE
  5
11575
100
AcDbEntity
  8
0
100
AcDbLine
 10
1835.282082
 20
780.538404
 30
0.0
 11
1835.282082
 21
783.726404
 31
0.0
  0
LINE
  5
11576
100
AcDbEntity
  8
0
100
AcDbLine
 10
1844.470082
 20
784.538404
 30
0.0
 11
1845.282082
 21
783.726404
 31
0.0
  0
LINE
  5
11577
100
AcDbEntity
  8
0
100
AcDbLine
 10
1845.282082
 20
783.726404
 30
0.0
 11
1845.282082
 21
780.538404
 31
0.0
  0
LINE
  5
11578
100
AcDbEntity
  8
0
100
AcDbLine
 10
1891.573734
 20
780.538404
 30
0.0
 11
1891.573734
 21
783.726404
 31
0.0
  0
LINE
  5
11579
100
AcDbEntity
  8
0
100
AcDbLine
 10
1891.573734
 20
783.726404
 30
0.0
 11
1892.385734
 21
784.538404
 31
0.0
  0
LINE
  5
1157A
100
AcDbEntity
  8
0
100
AcDbLine
 10
1901.573734
 20
783.726404
 30
0.0
 11
1901.573734
 21
780.538404
 31
0.0
  0
LINE
  5
1157B
100
AcDbEntity
  8
0
100
AcDbLine
 10
1900.761734
 20
784.538404
 30
0.0
 11
1901.573734
 21
783.726404
 31
0.0
  0
LINE
  5
1157C
100
AcDbEntity
  8
0
100
AcDbLine
 10
1892.385734
 20
784.538404
 30
0.0
 11
1900.761734
 21
784.538404
 31
0.0
  0
LINE
  5
1157D
100
AcDbEntity
  8
0
100
AcDbLine
 10
1788.990431
 20
783.726404
 30
0.0
 11
1788.990431
 21
780.538404
 31
0.0
  0
LINE
  5
1157E
100
AcDbEntity
  8
0
100
AcDbLine
 10
1788.178431
 20
784.538404
 30
0.0
 11
1788.990431
 21
783.726404
 31
0.0
  0
LINE
  5
1157F
100
AcDbEntity
  8
0
100
AcDbLine
 10
1778.990431
 20
780.538404
 30
0.0
 11
1778.990431
 21
783.726404
 31
0.0
  0
LINE
  5
11580
100
AcDbEntity
  8
0
100
AcDbLine
 10
1778.990431
 20
783.726404
 30
0.0
 11
1779.802431
 21
784.538404
 31
0.0
  0
LINE
  5
11581
100
AcDbEntity
  8
0
100
AcDbLine
 10
1779.802431
 20
784.538404
 30
0.0
 11
1788.178431
 21
784.538404
 31
0.0
  0
LINE
  5
11582
100
AcDbEntity
  8
0
100
AcDbLine
 10
1793.995429
 20
801.844495
 30
0.0
 11
1789.080875
 21
783.503128
 31
0.0
  0
LINE
  5
11583
100
AcDbEntity
  8
0
100
AcDbLine
 10
1886.568736
 20
801.844495
 30
0.0
 11
1891.48329
 21
783.503128
 31
0.0
  0
LINE
  5
11584
100
AcDbEntity
  8
0
100
AcDbLine
 10
1918.282082
 20
746.538404
 30
0.0
 11
1918.282082
 21
780.538404
 31
0.0
  0
LINE
  5
11585
100
AcDbEntity
  8
0
100
AcDbLine
 10
1885.584183
 20
830.038404
 30
0.0
 11
1886.568736
 21
801.844495
 31
0.0
  0
LINE
  5
11586
100
AcDbEntity
  8
0
100
AcDbLine
 10
1794.979982
 20
830.038404
 30
0.0
 11
1793.995429
 21
801.844495
 31
0.0
  0
LINE
  5
11587
100
AcDbEntity
  8
0
100
AcDbLine
 10
1755.389411
 20
980.538404
 30
0.0
 11
1771.282082
 21
980.538404
 31
0.0
  0
LINE
  5
11588
100
AcDbEntity
  8
0
100
AcDbLine
 10
1755.389411
 20
930.538404
 30
0.0
 11
1776.282082
 21
930.538404
 31
0.0
  0
LINE
  5
11589
100
AcDbEntity
  8
0
100
AcDbLine
 10
1762.282082
 20
861.538404
 30
0.0
 11
1918.282082
 21
861.538404
 31
0.0
  0
LINE
  5
1158A
100
AcDbEntity
  8
0
100
AcDbLine
 10
1918.282082
 20
878.038404
 30
0.0
 11
1762.282082
 21
878.038404
 31
0.0
  0
LINE
  5
1158B
100
AcDbEntity
  8
0
100
AcDbLine
 10
1762.282082
 20
845.038404
 30
0.0
 11
1918.282082
 21
845.038404
 31
0.0
  0
LINE
  5
1158D
100
AcDbEntity
  8
0
100
AcDbLine
 10
1762.282082
 20
878.038404
 30
0.0
 11
1762.282082
 21
845.038404
 31
0.0
  0
LINE
  5
1158E
100
AcDbEntity
  8
0
100
AcDbLine
 10
1748.389411
 20
973.538404
 30
0.0
 11
1748.389411
 21
937.538404
 31
0.0
  0
ARC
  5
1158F
100
AcDbEntity
  8
0
100
AcDbCircle
 10
1746.032082
 20
941.188404
 30
0.0
 40
4.345054
100
AcDbArc
 50
237.14387
 51
302.85613
  0
ARC
  5
11590
100
AcDbEntity
  8
0
100
AcDbCircle
 10
1746.032082
 20
969.888404
 30
0.0
 40
4.345054
100
AcDbArc
 50
57.14387
 51
122.85613
  0
LINE
  5
11591
100
AcDbEntity
  8
0
100
AcDbLine
 10
1734.782082
 20
973.538404
 30
0.0
 11
1722.997618
 21
975.895297
 31
0.0
  0
ARC
  5
11592
100
AcDbEntity
  8
0
100
AcDbCircle
 10
1723.782082
 20
979.81762
 30
0.0
 40
4.0
100
AcDbArc
 50
180.0
 51
258.690068
  0
LINE
  5
11593
100
AcDbEntity
  8
0
100
AcDbLine
 10
1734.782082
 20
973.538404
 30
0.0
 11
1743.674754
 21
973.538404
 31
0.0
  0
ARC
  5
11595
100
AcDbEntity
  8
0
100
AcDbCircle
 10
1723.782082
 20
931.259189
 30
0.0
 40
4.0
100
AcDbArc
 50
101.309932
 51
180.0
  0
LINE
  5
11596
100
AcDbEntity
  8
0
100
AcDbLine
 10
1734.782082
 20
937.538404
 30
0.0
 11
1722.997618
 21
935.181511
 31
0.0
  0
LINE
  5
11597
100
AcDbEntity
  8
0
100
AcDbLine
 10
1734.782082
 20
937.538404
 30
0.0
 11
1743.674754
 21
937.538404
 31
0.0
  0
LINE
  5
11598
100
AcDbEntity
  8
0
100
AcDbLine
 10
1703.782082
 20
955.538404
 30
0.0
 11
1703.782082
 21
905.538404
 31
0.0
  0
LINE
  5
1159A
100
AcDbEntity
  8
0
100
AcDbLine
 10
1703.782082
 20
955.538404
 30
0.0
 11
1703.782082
 21
1005.538404
 31
0.0
  0
LINE
  5
1159B
100
AcDbEntity
  8
0
100
AcDbLine
 10
1734.782082
 20
941.138404
 30
0.0
 11
1734.782082
 21
969.938404
 31
0.0
  0
LINE
  5
1159C
100
AcDbEntity
  8
0
100
AcDbLine
 10
1743.674754
 20
937.538404
 30
0.0
 11
1743.674754
 21
973.538404
 31
0.0
  0
LINE
  5
1159D
100
AcDbEntity
  8
0
100
AcDbLine
 10
1748.389411
 20
937.538404
 30
0.0
 11
1755.389411
 21
930.538404
 31
0.0
  0
LINE
  5
1159E
100
AcDbEntity
  8
0
100
AcDbLine
 10
1748.389411
 20
973.538404
 30
0.0
 11
1755.389411
 21
980.538404
 31
0.0
  0
LINE
  5
1159F
100
AcDbEntity
  8
0
100
AcDbLine
 10
1755.389411
 20
980.538404
 30
0.0
 11
1755.389411
 21
930.538404
 31
0.0
  0
LINE
  5
115A0
100
AcDbEntity
  8
0
100
AcDbLine
 10
1889.282082
 20
893.038404
 30
0.0
 11
1889.282082
 21
929.421528
 31
0.0
  0
LINE
  5
115A1
100
AcDbEntity
  8
0
100
AcDbLine
 10
1791.282082
 20
893.038404
 30
0.0
 11
1791.282082
 21
915.538404
 31
0.0
  0
CIRCLE
  5
115A2
100
AcDbEntity
  8
0
100
AcDbCircle
 10
1834.282082
 20
923.538404
 30
0.0
 40
19.0
  0
LINE
  5
115A3
100
AcDbEntity
  8
0
100
AcDbLine
 10
1889.282082
 20
893.038404
 30
0.0
 11
1892.251272
 21
881.903943
 31
0.0
  0
LINE
  5
115A4
100
AcDbEntity
  8
0
100
AcDbLine
 10
1791.282082
 20
893.038404
 30
0.0
 11
1788.312893
 21
881.903943
 31
0.0
  0
LINE
  5
115A5
100
AcDbEntity
  8
0
100
AcDbLine
 10
1794.282082
 20
893.038404
 30
0.0
 11
1886.282082
 21
893.038404
 31
0.0
  0
LINE
  5
115A6
100
AcDbEntity
  8
0
100
AcDbLine
 10
1779.802431
 20
882.038404
 30
0.0
 11
1788.178431
 21
882.038404
 31
0.0
  0
LINE
  5
115A7
100
AcDbEntity
  8
0
100
AcDbLine
 10
1778.990431
 20
881.226404
 30
0.0
 11
1779.802431
 21
882.038404
 31
0.0
  0
LINE
  5
115A8
100
AcDbEntity
  8
0
100
AcDbLine
 10
1778.990431
 20
878.038404
 30
0.0
 11
1778.990431
 21
881.226404
 31
0.0
  0
LINE
  5
115A9
100
AcDbEntity
  8
0
100
AcDbLine
 10
1788.178431
 20
882.038404
 30
0.0
 11
1788.990431
 21
881.226404
 31
0.0
  0
LINE
  5
115AA
100
AcDbEntity
  8
0
100
AcDbLine
 10
1788.990431
 20
881.226404
 30
0.0
 11
1788.990431
 21
878.038404
 31
0.0
  0
LINE
  5
115AB
100
AcDbEntity
  8
0
100
AcDbLine
 10
1792.240431
 20
838.037404
 30
0.0
 11
1775.740431
 21
838.037404
 31
0.0
  0
ARC
  5
115AC
100
AcDbEntity
  8
0
100
AcDbCircle
 10
1791.351431
 20
842.868728
 30
0.0
 40
4.630982
100
AcDbArc
 50
238.000676
 51
301.999324
  0
ARC
  5
115AD
100
AcDbEntity
  8
0
100
AcDbCircle
 10
1783.990431
 20
855.700396
 30
0.0
 40
17.462601
100
AcDbArc
 50
253.680072
 51
286.319928
  0
ARC
  5
115AE
100
AcDbEntity
  8
0
100
AcDbCircle
 10
1776.629431
 20
842.868728
 30
0.0
 40
4.630982
100
AcDbArc
 50
238.000676
 51
301.999324
  0
LINE
  5
115AF
100
AcDbEntity
  8
0
100
AcDbLine
 10
1775.740431
 20
838.037404
 30
0.0
 11
1774.175431
 21
838.941404
 31
0.0
  0
LINE
  5
115B0
100
AcDbEntity
  8
0
100
AcDbLine
 10
1774.175431
 20
838.941404
 30
0.0
 11
1774.175431
 21
845.038404
 31
0.0
  0
LINE
  5
115B1
100
AcDbEntity
  8
0
100
AcDbLine
 10
1779.083431
 20
838.941404
 30
0.0
 11
1779.083431
 21
845.038404
 31
0.0
  0
LINE
  5
115B2
100
AcDbEntity
  8
0
100
AcDbLine
 10
1788.897431
 20
838.941404
 30
0.0
 11
1788.897431
 21
845.038404
 31
0.0
  0
LINE
  5
115B3
100
AcDbEntity
  8
0
100
AcDbLine
 10
1793.805431
 20
838.941404
 30
0.0
 11
1792.240431
 21
838.037404
 31
0.0
  0
LINE
  5
115B4
100
AcDbEntity
  8
0
100
AcDbLine
 10
1793.805431
 20
845.038404
 30
0.0
 11
1793.805431
 21
838.941404
 31
0.0
  0
LINE
  5
115B5
100
AcDbEntity
  8
0
100
AcDbLine
 10
1892.385734
 20
882.038404
 30
0.0
 11
1900.761734
 21
882.038404
 31
0.0
  0
LINE
  5
115B6
100
AcDbEntity
  8
0
100
AcDbLine
 10
1891.573734
 20
881.226404
 30
0.0
 11
1892.385734
 21
882.038404
 31
0.0
  0
LINE
  5
115B7
100
AcDbEntity
  8
0
100
AcDbLine
 10
1891.573734
 20
878.038404
 30
0.0
 11
1891.573734
 21
881.226404
 31
0.0
  0
LINE
  5
115B8
100
AcDbEntity
  8
0
100
AcDbLine
 10
1900.761734
 20
882.038404
 30
0.0
 11
1901.573734
 21
881.226404
 31
0.0
  0
LINE
  5
115B9
100
AcDbEntity
  8
0
100
AcDbLine
 10
1901.573734
 20
881.226404
 30
0.0
 11
1901.573734
 21
878.038404
 31
0.0
  0
LINE
  5
115BA
100
AcDbEntity
  8
0
100
AcDbLine
 10
1904.823734
 20
838.037404
 30
0.0
 11
1888.323734
 21
838.037404
 31
0.0
  0
ARC
  5
115BB
100
AcDbEntity
  8
0
100
AcDbCircle
 10
1903.934734
 20
842.868728
 30
0.0
 40
4.630982
100
AcDbArc
 50
238.000676
 51
301.999324
  0
ARC
  5
115BC
100
AcDbEntity
  8
0
100
AcDbCircle
 10
1896.573734
 20
855.700396
 30
0.0
 40
17.462601
100
AcDbArc
 50
253.680072
 51
286.319928
  0
ARC
  5
115BD
100
AcDbEntity
  8
0
100
AcDbCircle
 10
1889.212734
 20
842.868728
 30
0.0
 40
4.630982
100
AcDbArc
 50
238.000676
 51
301.999324
  0
LINE
  5
115BE
100
AcDbEntity
  8
0
100
AcDbLine
 10
1888.323734
 20
838.037404
 30
0.0
 11
1886.758734
 21
838.941404
 31
0.0
  0
LINE
  5
115BF
100
AcDbEntity
  8
0
100
AcDbLine
 10
1886.758734
 20
838.941404
 30
0.0
 11
1886.758734
 21
845.038404
 31
0.0
  0
LINE
  5
115C0
100
AcDbEntity
  8
0
100
AcDbLine
 10
1891.666734
 20
838.941404
 30
0.0
 11
1891.666734
 21
845.038404
 31
0.0
  0
LINE
  5
115C1
100
AcDbEntity
  8
0
100
AcDbLine
 10
1901.480734
 20
838.941404
 30
0.0
 11
1901.480734
 21
845.038404
 31
0.0
  0
LINE
  5
115C2
100
AcDbEntity
  8
0
100
AcDbLine
 10
1906.388734
 20
838.941404
 30
0.0
 11
1904.823734
 21
838.037404
 31
0.0
  0
LINE
  5
115C3
100
AcDbEntity
  8
0
100
AcDbLine
 10
1906.388734
 20
845.038404
 30
0.0
 11
1906.388734
 21
838.941404
 31
0.0
  0
LINE
  5
115C4
100
AcDbEntity
  8
0
100
AcDbLine
 10
1845.282082
 20
881.226404
 30
0.0
 11
1845.282082
 21
878.038404
 31
0.0
  0
LINE
  5
115C5
100
AcDbEntity
  8
0
100
AcDbLine
 10
1844.470082
 20
882.038404
 30
0.0
 11
1845.282082
 21
881.226404
 31
0.0
  0
LINE
  5
115C6
100
AcDbEntity
  8
0
100
AcDbLine
 10
1835.282082
 20
878.038404
 30
0.0
 11
1835.282082
 21
881.226404
 31
0.0
  0
LINE
  5
115C7
100
AcDbEntity
  8
0
100
AcDbLine
 10
1835.282082
 20
881.226404
 30
0.0
 11
1836.094082
 21
882.038404
 31
0.0
  0
LINE
  5
115C8
100
AcDbEntity
  8
0
100
AcDbLine
 10
1836.094082
 20
882.038404
 30
0.0
 11
1844.470082
 21
882.038404
 31
0.0
  0
LINE
  5
115C9
100
AcDbEntity
  8
0
100
AcDbLine
 10
1850.097082
 20
845.038404
 30
0.0
 11
1850.097082
 21
838.941404
 31
0.0
  0
LINE
  5
115CA
100
AcDbEntity
  8
0
100
AcDbLine
 10
1850.097082
 20
838.941404
 30
0.0
 11
1848.532082
 21
838.037404
 31
0.0
  0
LINE
  5
115CB
100
AcDbEntity
  8
0
100
AcDbLine
 10
1845.189082
 20
838.941404
 30
0.0
 11
1845.189082
 21
845.038404
 31
0.0
  0
ARC
  5
115CC
100
AcDbEntity
  8
0
100
AcDbCircle
 10
1847.643082
 20
842.868728
 30
0.0
 40
4.630982
100
AcDbArc
 50
238.000676
 51
301.999324
  0
LINE
  5
115CD
100
AcDbEntity
  8
0
100
AcDbLine
 10
1835.375082
 20
838.941404
 30
0.0
 11
1835.375082
 21
845.038404
 31
0.0
  0
LINE
  5
115CE
100
AcDbEntity
  8
0
100
AcDbLine
 10
1830.467082
 20
838.941404
 30
0.0
 11
1830.467082
 21
845.038404
 31
0.0
  0
LINE
  5
115CF
100
AcDbEntity
  8
0
100
AcDbLine
 10
1832.032082
 20
838.037404
 30
0.0
 11
1830.467082
 21
838.941404
 31
0.0
  0
ARC
  5
115D0
100
AcDbEntity
  8
0
100
AcDbCircle
 10
1832.921082
 20
842.868728
 30
0.0
 40
4.630982
100
AcDbArc
 50
238.000676
 51
301.999324
  0
ARC
  5
115D1
100
AcDbEntity
  8
0
100
AcDbCircle
 10
1840.282082
 20
855.700396
 30
0.0
 40
17.462601
100
AcDbArc
 50
253.680072
 51
286.319928
  0
LINE
  5
115D2
100
AcDbEntity
  8
0
100
AcDbLine
 10
1848.532082
 20
838.037404
 30
0.0
 11
1832.032082
 21
838.037404
 31
0.0
  0
LINE
  5
115D3
100
AcDbEntity
  8
0
100
AcDbLine
 10
1918.282082
 20
878.038404
 30
0.0
 11
1918.282082
 21
845.038404
 31
0.0
  0
LINE
  5
115D5
100
AcDbEntity
  8
0
100
AcDbLine
 10
1907.923099
 20
980.538404
 30
0.0
 11
1925.174754
 21
980.538404
 31
0.0
  0
LINE
  5
115D6
100
AcDbEntity
  8
0
100
AcDbLine
 10
1925.174754
 20
930.538404
 30
0.0
 11
1917.282082
 21
930.538404
 31
0.0
  0
ARC
  5
115D7
100
AcDbEntity
  8
0
100
AcDbCircle
 10
1873.282082
 20
946.538404
 30
0.0
 40
46.0
100
AcDbArc
 50
51.786789
 51
90.0
  0
LINE
  5
115D8
100
AcDbEntity
  8
0
100
AcDbLine
 10
1840.282082
 20
992.538404
 30
0.0
 11
1873.282082
 21
992.538404
 31
0.0
  0
ARC
  5
115D9
100
AcDbEntity
  8
0
100
AcDbCircle
 10
1907.923099
 20
990.538404
 30
0.0
 40
10.0
100
AcDbArc
 50
231.786789
 51
270.0
  0
ARC
  5
115DA
100
AcDbEntity
  8
0
100
AcDbCircle
 10
1895.282082
 20
929.421528
 30
0.0
 40
6.0
100
AcDbArc
 50
64.971001
 51
180.0
  0
ARC
  5
115DB
100
AcDbEntity
  8
0
100
AcDbCircle
 10
1879.282082
 20
939.538404
 30
0.0
 40
10.0
100
AcDbArc
 50
0.0
 51
90.0
  0
ARC
  5
115DC
100
AcDbEntity
  8
0
100
AcDbCircle
 10
1917.282082
 20
976.538404
 30
0.0
 40
46.0
100
AcDbArc
 50
244.971001
 51
270.0
  0
LINE
  5
115DD
100
AcDbEntity
  8
0
100
AcDbLine
 10
1827.884351
 20
991.363525
 30
0.0
 11
1771.282082
 21
980.538404
 31
0.0
  0
LINE
  5
115DE
100
AcDbEntity
  8
0
100
AcDbLine
 10
1791.282082
 20
939.538404
 30
0.0
 11
1791.282082
 21
933.975946
 31
0.0
  0
ARC
  5
115DF
100
AcDbEntity
  8
0
100
AcDbCircle
 10
1800.559855
 20
977.512955
 30
0.0
 40
6.0
100
AcDbArc
 50
235.734114
 51
342.302564
  0
ARC
  5
115E0
100
AcDbEntity
  8
0
100
AcDbCircle
 10
1801.282082
 20
939.538404
 30
0.0
 40
10.0
100
AcDbArc
 50
90.0
 51
180.0
  0
ARC
  5
115E1
100
AcDbEntity
  8
0
100
AcDbCircle
 10
1776.282082
 20
915.538404
 30
0.0
 40
15.0
100
AcDbArc
 50
0.0
 51
90.0
  0
ARC
  5
115E2
100
AcDbEntity
  8
0
100
AcDbCircle
 10
1771.282082
 20
934.538404
 30
0.0
 40
46.0
100
AcDbArc
 50
55.734114
 51
90.0
  0
ARC
  5
115E3
100
AcDbEntity
  8
0
100
AcDbCircle
 10
1826.282082
 20
969.305214
 30
0.0
 40
21.0
100
AcDbArc
 50
108.126204
 51
162.302564
  0
LINE
  5
115E4
100
AcDbEntity
  8
0
100
AcDbLine
 10
1801.282082
 20
949.538404
 30
0.0
 11
1879.282082
 21
949.538404
 31
0.0
  0
ARC
  5
115E5
100
AcDbEntity
  8
0
100
AcDbCircle
 10
1840.282082
 20
926.538404
 30
0.0
 40
66.0
100
AcDbArc
 50
90.0
 51
108.126204
  0
LINE
  5
115E6
100
AcDbEntity
  8
0
100
AcDbLine
 10
1932.174754
 20
973.538404
 30
0.0
 11
1932.174754
 21
937.538404
 31
0.0
  0
LINE
  5
115E7
100
AcDbEntity
  8
0
100
AcDbLine
 10
1936.889411
 20
937.538404
 30
0.0
 11
1936.889411
 21
973.538404
 31
0.0
  0
ARC
  5
115E8
100
AcDbEntity
  8
0
100
AcDbCircle
 10
1934.532082
 20
969.888404
 30
0.0
 40
4.345054
100
AcDbArc
 50
57.14387
 51
122.85613
  0
ARC
  5
115E9
100
AcDbEntity
  8
0
100
AcDbCircle
 10
1934.532082
 20
941.188404
 30
0.0
 40
4.345054
100
AcDbArc
 50
237.14387
 51
302.85613
  0
LINE
  5
115EC
100
AcDbEntity
  8
0
100
AcDbLine
 10
1945.782082
 20
973.538404
 30
0.0
 11
1957.566547
 21
975.895297
 31
0.0
  0
ARC
  5
115ED
100
AcDbEntity
  8
0
100
AcDbCircle
 10
1956.782082
 20
979.81762
 30
0.0
 40
4.0
100
AcDbArc
 50
281.309932
 51
0.0
  0
LINE
  5
115EE
100
AcDbEntity
  8
0
100
AcDbLine
 10
1945.782082
 20
941.138404
 30
0.0
 11
1945.782082
 21
969.938404
 31
0.0
  0
ARC
  5
115F0
100
AcDbEntity
  8
0
100
AcDbCircle
 10
1956.782082
 20
931.259189
 30
0.0
 40
4.0
100
AcDbArc
 50
0.0
 51
78.690068
  0
LINE
  5
115F1
100
AcDbEntity
  8
0
100
AcDbLine
 10
1945.782082
 20
937.538404
 30
0.0
 11
1957.566547
 21
935.181511
 31
0.0
  0
LINE
  5
115F3
100
AcDbEntity
  8
0
100
AcDbLine
 10
1945.782082
 20
973.538404
 30
0.0
 11
1936.889411
 21
973.538404
 31
0.0
  0
LINE
  5
115F4
100
AcDbEntity
  8
0
100
AcDbLine
 10
1945.782082
 20
937.538404
 30
0.0
 11
1936.889411
 21
937.538404
 31
0.0
  0
LINE
  5
115F5
100
AcDbEntity
  8
0
100
AcDbLine
 10
1932.174754
 20
937.538404
 30
0.0
 11
1925.174754
 21
930.538404
 31
0.0
  0
LINE
  5
115F6
100
AcDbEntity
  8
0
100
AcDbLine
 10
1932.174754
 20
973.538404
 30
0.0
 11
1925.174754
 21
980.538404
 31
0.0
  0
LINE
  5
115F7
100
AcDbEntity
  8
0
100
AcDbLine
 10
1925.174754
 20
980.538404
 30
0.0
 11
1925.174754
 21
930.538404
 31
0.0
  0
LINE
  5
115FA
100
AcDbEntity
  8
0
100
AcDbLine
 10
2814.944882
 20
878.038404
 30
0.0
 11
2814.944882
 21
881.226404
 31
0.0
  0
LINE
  5
115FB
100
AcDbEntity
  8
0
100
AcDbLine
 10
2824.944882
 20
881.226404
 30
0.0
 11
2824.944882
 21
878.038404
 31
0.0
  0
LINE
  5
115FC
100
AcDbEntity
  8
0
100
AcDbLine
 10
2927.528184
 20
878.038404
 30
0.0
 11
2927.528184
 21
881.226404
 31
0.0
  0
LINE
  5
115FD
100
AcDbEntity
  8
0
100
AcDbLine
 10
2937.528184
 20
881.226404
 30
0.0
 11
2937.528184
 21
878.038404
 31
0.0
  0
LINE
  5
115FE
100
AcDbEntity
  8
0
100
AcDbLine
 10
2881.236533
 20
881.226404
 30
0.0
 11
2881.236533
 21
878.038404
 31
0.0
  0
LINE
  5
115FF
100
AcDbEntity
  8
0
100
AcDbLine
 10
2871.236533
 20
878.038404
 30
0.0
 11
2871.236533
 21
881.226404
 31
0.0
  0
LINE
  5
11600
100
AcDbEntity
  8
0
100
AcDbLine
 10
2798.236533
 20
861.538404
 30
0.0
 11
2954.236533
 21
861.538404
 31
0.0
  0
LINE
  5
11601
100
AcDbEntity
  8
0
100
AcDbLine
 10
2954.236533
 20
878.038404
 30
0.0
 11
2798.236533
 21
878.038404
 31
0.0
  0
LINE
  5
11602
100
AcDbEntity
  8
0
100
AcDbLine
 10
2798.236533
 20
763.538404
 30
0.0
 11
2954.236533
 21
763.538404
 31
0.0
  0
LINE
  5
11603
100
AcDbEntity
  8
0
100
AcDbLine
 10
2798.236533
 20
845.038404
 30
0.0
 11
2954.236533
 21
845.038404
 31
0.0
  0
LINE
  5
11604
100
AcDbEntity
  8
0
100
AcDbLine
 10
2798.236533
 20
780.538404
 30
0.0
 11
2954.236533
 21
780.538404
 31
0.0
  0
LINE
  5
11605
100
AcDbEntity
  8
0
100
AcDbLine
 10
2954.236533
 20
746.538404
 30
0.0
 11
2798.236533
 21
746.538404
 31
0.0
  0
LINE
  5
11606
100
AcDbEntity
  8
0
100
AcDbLine
 10
2798.236533
 20
746.538404
 30
0.0
 11
2798.236533
 21
780.538404
 31
0.0
  0
LINE
  5
11607
100
AcDbEntity
  8
0
100
AcDbLine
 10
2798.236533
 20
878.038404
 30
0.0
 11
2798.236533
 21
845.038404
 31
0.0
  0
LINE
  5
11608
100
AcDbEntity
  8
0
100
AcDbLine
 10
2937.736533
 20
704.538404
 30
0.0
 11
2937.736533
 21
738.765929
 31
0.0
  0
LINE
  5
11609
100
AcDbEntity
  8
0
100
AcDbLine
 10
2857.236533
 20
726.538404
 30
0.0
 11
2857.236533
 21
740.538404
 31
0.0
  0
LINE
  5
1160A
100
AcDbEntity
  8
0
100
AcDbLine
 10
2890.736533
 20
724.538404
 30
0.0
 11
2859.236533
 21
724.538404
 31
0.0
  0
ARC
  5
1160B
100
AcDbEntity
  8
0
100
AcDbCircle
 10
2859.236533
 20
726.538404
 30
0.0
 40
2.0
100
AcDbArc
 50
180.0
 51
270.0
  0
LINE
  5
1160C
100
AcDbEntity
  8
0
100
AcDbLine
 10
2937.736533
 20
704.538404
 30
0.0
 11
2892.736533
 21
704.538404
 31
0.0
  0
ARC
  5
1160D
100
AcDbEntity
  8
0
100
AcDbCircle
 10
2890.736533
 20
722.538404
 30
0.0
 40
2.0
100
AcDbArc
 50
0.0
 51
90.0
  0
LINE
  5
1160E
100
AcDbEntity
  8
0
100
AcDbLine
 10
2892.736533
 20
704.538404
 30
0.0
 11
2892.736533
 21
746.538404
 31
0.0
  0
LINE
  5
1160F
100
AcDbEntity
  8
0
100
AcDbLine
 10
2884.486533
 20
739.537404
 30
0.0
 11
2867.986533
 21
739.537404
 31
0.0
  0
ARC
  5
11610
100
AcDbEntity
  8
0
100
AcDbCircle
 10
2883.597533
 20
744.368728
 30
0.0
 40
4.630982
100
AcDbArc
 50
238.000676
 51
301.999324
  0
ARC
  5
11611
100
AcDbEntity
  8
0
100
AcDbCircle
 10
2883.597533
 20
842.868728
 30
0.0
 40
4.630982
100
AcDbArc
 50
238.000676
 51
301.999324
  0
LINE
  5
11612
100
AcDbEntity
  8
0
100
AcDbLine
 10
2884.486533
 20
838.037404
 30
0.0
 11
2867.986533
 21
838.037404
 31
0.0
  0
LINE
  5
11613
100
AcDbEntity
  8
0
100
AcDbLine
 10
2830.934433
 20
830.038404
 30
0.0
 11
2829.94988
 21
801.844495
 31
0.0
  0
LINE
  5
11614
100
AcDbEntity
  8
0
100
AcDbLine
 10
2829.759882
 20
746.538404
 30
0.0
 11
2829.759882
 21
740.441404
 31
0.0
  0
LINE
  5
11615
100
AcDbEntity
  8
0
100
AcDbLine
 10
2829.759882
 20
740.441404
 30
0.0
 11
2828.194882
 21
739.537404
 31
0.0
  0
LINE
  5
11616
100
AcDbEntity
  8
0
100
AcDbLine
 10
2824.851882
 20
740.441404
 30
0.0
 11
2824.851882
 21
746.538404
 31
0.0
  0
LINE
  5
11617
100
AcDbEntity
  8
0
100
AcDbLine
 10
2815.037882
 20
740.441404
 30
0.0
 11
2815.037882
 21
746.538404
 31
0.0
  0
ARC
  5
11618
100
AcDbEntity
  8
0
100
AcDbCircle
 10
2819.944882
 20
757.200396
 30
0.0
 40
17.462601
100
AcDbArc
 50
253.680072
 51
286.319928
  0
ARC
  5
11619
100
AcDbEntity
  8
0
100
AcDbCircle
 10
2827.305882
 20
744.368728
 30
0.0
 40
4.630982
100
AcDbArc
 50
238.000676
 51
301.999324
  0
LINE
  5
1161A
100
AcDbEntity
  8
0
100
AcDbLine
 10
2810.129882
 20
740.441404
 30
0.0
 11
2810.129882
 21
746.538404
 31
0.0
  0
LINE
  5
1161B
100
AcDbEntity
  8
0
100
AcDbLine
 10
2811.694882
 20
739.537404
 30
0.0
 11
2810.129882
 21
740.441404
 31
0.0
  0
ARC
  5
1161C
100
AcDbEntity
  8
0
100
AcDbCircle
 10
2812.583882
 20
744.368728
 30
0.0
 40
4.630982
100
AcDbArc
 50
238.000676
 51
301.999324
  0
LINE
  5
1161D
100
AcDbEntity
  8
0
100
AcDbLine
 10
2828.194882
 20
739.537404
 30
0.0
 11
2811.694882
 21
739.537404
 31
0.0
  0
LINE
  5
1161E
100
AcDbEntity
  8
0
100
AcDbLine
 10
2824.944882
 20
783.726404
 30
0.0
 11
2824.944882
 21
780.538404
 31
0.0
  0
LINE
  5
1161F
100
AcDbEntity
  8
0
100
AcDbLine
 10
2824.132882
 20
784.538404
 30
0.0
 11
2824.944882
 21
783.726404
 31
0.0
  0
LINE
  5
11620
100
AcDbEntity
  8
0
100
AcDbLine
 10
2814.944882
 20
780.538404
 30
0.0
 11
2814.944882
 21
783.726404
 31
0.0
  0
LINE
  5
11621
100
AcDbEntity
  8
0
100
AcDbLine
 10
2814.944882
 20
783.726404
 30
0.0
 11
2815.756882
 21
784.538404
 31
0.0
  0
LINE
  5
11622
100
AcDbEntity
  8
0
100
AcDbLine
 10
2815.756882
 20
784.538404
 30
0.0
 11
2824.132882
 21
784.538404
 31
0.0
  0
LINE
  5
11623
100
AcDbEntity
  8
0
100
AcDbLine
 10
2829.94988
 20
801.844495
 30
0.0
 11
2825.035325
 21
783.503128
 31
0.0
  0
LINE
  5
11624
100
AcDbEntity
  8
0
100
AcDbLine
 10
2872.048533
 20
784.538404
 30
0.0
 11
2880.424533
 21
784.538404
 31
0.0
  0
LINE
  5
11625
100
AcDbEntity
  8
0
100
AcDbLine
 10
2871.236533
 20
783.726404
 30
0.0
 11
2872.048533
 21
784.538404
 31
0.0
  0
LINE
  5
11626
100
AcDbEntity
  8
0
100
AcDbLine
 10
2871.236533
 20
780.538404
 30
0.0
 11
2871.236533
 21
783.726404
 31
0.0
  0
LINE
  5
11627
100
AcDbEntity
  8
0
100
AcDbLine
 10
2880.424533
 20
784.538404
 30
0.0
 11
2881.236533
 21
783.726404
 31
0.0
  0
LINE
  5
11628
100
AcDbEntity
  8
0
100
AcDbLine
 10
2881.236533
 20
783.726404
 30
0.0
 11
2881.236533
 21
780.538404
 31
0.0
  0
ARC
  5
11629
100
AcDbEntity
  8
0
100
AcDbCircle
 10
2876.236533
 20
757.200396
 30
0.0
 40
17.462601
100
AcDbArc
 50
253.680072
 51
286.319928
  0
ARC
  5
1162A
100
AcDbEntity
  8
0
100
AcDbCircle
 10
2868.875533
 20
744.368728
 30
0.0
 40
4.630982
100
AcDbArc
 50
238.000676
 51
301.999324
  0
LINE
  5
1162B
100
AcDbEntity
  8
0
100
AcDbLine
 10
2867.986533
 20
739.537404
 30
0.0
 11
2866.421533
 21
740.441404
 31
0.0
  0
LINE
  5
1162C
100
AcDbEntity
  8
0
100
AcDbLine
 10
2866.421533
 20
740.441404
 30
0.0
 11
2866.421533
 21
746.538404
 31
0.0
  0
LINE
  5
1162D
100
AcDbEntity
  8
0
100
AcDbLine
 10
2871.329533
 20
740.441404
 30
0.0
 11
2871.329533
 21
746.538404
 31
0.0
  0
LINE
  5
1162E
100
AcDbEntity
  8
0
100
AcDbLine
 10
2881.143533
 20
740.441404
 30
0.0
 11
2881.143533
 21
746.538404
 31
0.0
  0
LINE
  5
1162F
100
AcDbEntity
  8
0
100
AcDbLine
 10
2857.236533
 20
740.538404
 30
0.0
 11
2855.504482
 21
743.538404
 31
0.0
  0
ARC
  5
11630
100
AcDbEntity
  8
0
100
AcDbCircle
 10
2850.30833
 20
740.538404
 30
0.0
 40
6.0
100
AcDbArc
 50
30.0
 51
90.0
  0
LINE
  5
11631
100
AcDbEntity
  8
0
100
AcDbLine
 10
2828.194882
 20
838.037404
 30
0.0
 11
2811.694882
 21
838.037404
 31
0.0
  0
ARC
  5
11632
100
AcDbEntity
  8
0
100
AcDbCircle
 10
2827.305882
 20
842.868728
 30
0.0
 40
4.630982
100
AcDbArc
 50
238.000676
 51
301.999324
  0
ARC
  5
11633
100
AcDbEntity
  8
0
100
AcDbCircle
 10
2819.944882
 20
855.700396
 30
0.0
 40
17.462601
100
AcDbArc
 50
253.680072
 51
286.319928
  0
ARC
  5
11634
100
AcDbEntity
  8
0
100
AcDbCircle
 10
2812.583882
 20
842.868728
 30
0.0
 40
4.630982
100
AcDbArc
 50
238.000676
 51
301.999324
  0
LINE
  5
11635
100
AcDbEntity
  8
0
100
AcDbLine
 10
2811.694882
 20
838.037404
 30
0.0
 11
2810.129882
 21
838.941404
 31
0.0
  0
LINE
  5
11636
100
AcDbEntity
  8
0
100
AcDbLine
 10
2810.129882
 20
838.941404
 30
0.0
 11
2810.129882
 21
845.038404
 31
0.0
  0
LINE
  5
11637
100
AcDbEntity
  8
0
100
AcDbLine
 10
2815.037882
 20
838.941404
 30
0.0
 11
2815.037882
 21
845.038404
 31
0.0
  0
LINE
  5
11638
100
AcDbEntity
  8
0
100
AcDbLine
 10
2824.851882
 20
838.941404
 30
0.0
 11
2824.851882
 21
845.038404
 31
0.0
  0
LINE
  5
11639
100
AcDbEntity
  8
0
100
AcDbLine
 10
2829.759882
 20
838.941404
 30
0.0
 11
2828.194882
 21
838.037404
 31
0.0
  0
LINE
  5
1163A
100
AcDbEntity
  8
0
100
AcDbLine
 10
2829.759882
 20
845.038404
 30
0.0
 11
2829.759882
 21
838.941404
 31
0.0
  0
LINE
  5
1163B
100
AcDbEntity
  8
0
100
AcDbLine
 10
2830.934433
 20
830.038404
 30
0.0
 11
2829.759882
 21
840.414909
 31
0.0
  0
LINE
  5
1163C
100
AcDbEntity
  8
0
100
AcDbLine
 10
2881.143533
 20
838.941404
 30
0.0
 11
2881.143533
 21
845.038404
 31
0.0
  0
LINE
  5
1163D
100
AcDbEntity
  8
0
100
AcDbLine
 10
2871.329533
 20
838.941404
 30
0.0
 11
2871.329533
 21
845.038404
 31
0.0
  0
LINE
  5
1163E
100
AcDbEntity
  8
0
100
AcDbLine
 10
2866.421533
 20
838.941404
 30
0.0
 11
2866.421533
 21
845.038404
 31
0.0
  0
LINE
  5
1163F
100
AcDbEntity
  8
0
100
AcDbLine
 10
2867.986533
 20
838.037404
 30
0.0
 11
2866.421533
 21
838.941404
 31
0.0
  0
ARC
  5
11640
100
AcDbEntity
  8
0
100
AcDbCircle
 10
2868.875533
 20
842.868728
 30
0.0
 40
4.630982
100
AcDbArc
 50
238.000676
 51
301.999324
  0
ARC
  5
11641
100
AcDbEntity
  8
0
100
AcDbCircle
 10
2876.236533
 20
855.700396
 30
0.0
 40
17.462601
100
AcDbArc
 50
253.680072
 51
286.319928
  0
LINE
  5
11642
100
AcDbEntity
  8
0
100
AcDbLine
 10
2921.538633
 20
830.038404
 30
0.0
 11
2922.523186
 21
801.844495
 31
0.0
  0
ARC
  5
11643
100
AcDbEntity
  8
0
100
AcDbCircle
 10
2925.167184
 20
744.368728
 30
0.0
 40
4.630982
100
AcDbArc
 50
238.000676
 51
301.999324
  0
LINE
  5
11644
100
AcDbEntity
  8
0
100
AcDbLine
 10
2922.523186
 20
801.844495
 30
0.0
 11
2927.437741
 21
783.503128
 31
0.0
  0
LINE
  5
11645
100
AcDbEntity
  8
0
100
AcDbLine
 10
2922.713184
 20
740.441404
 30
0.0
 11
2922.713184
 21
746.538404
 31
0.0
  0
LINE
  5
11646
100
AcDbEntity
  8
0
100
AcDbLine
 10
2886.051533
 20
740.441404
 30
0.0
 11
2884.486533
 21
739.537404
 31
0.0
  0
LINE
  5
11647
100
AcDbEntity
  8
0
100
AcDbLine
 10
2886.051533
 20
746.538404
 30
0.0
 11
2886.051533
 21
740.441404
 31
0.0
  0
LINE
  5
11648
100
AcDbEntity
  8
0
100
AcDbLine
 10
2927.528184
 20
780.538404
 30
0.0
 11
2927.528184
 21
783.726404
 31
0.0
  0
LINE
  5
11649
100
AcDbEntity
  8
0
100
AcDbLine
 10
2927.528184
 20
783.726404
 30
0.0
 11
2928.340184
 21
784.538404
 31
0.0
  0
LINE
  5
1164A
100
AcDbEntity
  8
0
100
AcDbLine
 10
2937.528184
 20
783.726404
 30
0.0
 11
2937.528184
 21
780.538404
 31
0.0
  0
LINE
  5
1164B
100
AcDbEntity
  8
0
100
AcDbLine
 10
2936.716184
 20
784.538404
 30
0.0
 11
2937.528184
 21
783.726404
 31
0.0
  0
LINE
  5
1164C
100
AcDbEntity
  8
0
100
AcDbLine
 10
2928.340184
 20
784.538404
 30
0.0
 11
2936.716184
 21
784.538404
 31
0.0
  0
LINE
  5
1164D
100
AcDbEntity
  8
0
100
AcDbLine
 10
2940.778184
 20
739.537404
 30
0.0
 11
2924.278184
 21
739.537404
 31
0.0
  0
LINE
  5
1164E
100
AcDbEntity
  8
0
100
AcDbLine
 10
2942.343184
 20
746.538404
 30
0.0
 11
2942.343184
 21
740.441404
 31
0.0
  0
LINE
  5
1164F
100
AcDbEntity
  8
0
100
AcDbLine
 10
2942.343184
 20
740.441404
 30
0.0
 11
2940.778184
 21
739.537404
 31
0.0
  0
LINE
  5
11650
100
AcDbEntity
  8
0
100
AcDbLine
 10
2937.435184
 20
740.441404
 30
0.0
 11
2937.435184
 21
746.538404
 31
0.0
  0
ARC
  5
11651
100
AcDbEntity
  8
0
100
AcDbCircle
 10
2939.889184
 20
744.368728
 30
0.0
 40
4.630982
100
AcDbArc
 50
238.000676
 51
301.999324
  0
LINE
  5
11652
100
AcDbEntity
  8
0
100
AcDbLine
 10
2927.621184
 20
740.441404
 30
0.0
 11
2927.621184
 21
746.538404
 31
0.0
  0
ARC
  5
11653
100
AcDbEntity
  8
0
100
AcDbCircle
 10
2932.528184
 20
757.200396
 30
0.0
 40
17.462601
100
AcDbArc
 50
253.680072
 51
286.319928
  0
LINE
  5
11654
100
AcDbEntity
  8
0
100
AcDbLine
 10
2954.236533
 20
746.538404
 30
0.0
 11
2954.236533
 21
780.538404
 31
0.0
  0
ARC
  5
11655
100
AcDbEntity
  8
0
100
AcDbCircle
 10
2925.167184
 20
842.868728
 30
0.0
 40
4.630982
100
AcDbArc
 50
238.000676
 51
301.999324
  0
LINE
  5
11656
100
AcDbEntity
  8
0
100
AcDbLine
 10
2924.278184
 20
838.037404
 30
0.0
 11
2922.713184
 21
838.941404
 31
0.0
  0
LINE
  5
11657
100
AcDbEntity
  8
0
100
AcDbLine
 10
2922.713184
 20
838.941404
 30
0.0
 11
2922.713184
 21
845.038404
 31
0.0
  0
LINE
  5
11658
100
AcDbEntity
  8
0
100
AcDbLine
 10
2886.051533
 20
845.038404
 30
0.0
 11
2886.051533
 21
838.941404
 31
0.0
  0
LINE
  5
11659
100
AcDbEntity
  8
0
100
AcDbLine
 10
2886.051533
 20
838.941404
 30
0.0
 11
2884.486533
 21
838.037404
 31
0.0
  0
LINE
  5
1165A
100
AcDbEntity
  8
0
100
AcDbLine
 10
2921.538633
 20
830.038404
 30
0.0
 11
2922.713184
 21
840.414909
 31
0.0
  0
LINE
  5
1165B
100
AcDbEntity
  8
0
100
AcDbLine
 10
2940.778184
 20
838.037404
 30
0.0
 11
2924.278184
 21
838.037404
 31
0.0
  0
ARC
  5
1165C
100
AcDbEntity
  8
0
100
AcDbCircle
 10
2939.889184
 20
842.868728
 30
0.0
 40
4.630982
100
AcDbArc
 50
238.000676
 51
301.999324
  0
ARC
  5
1165D
100
AcDbEntity
  8
0
100
AcDbCircle
 10
2932.528184
 20
855.700396
 30
0.0
 40
17.462601
100
AcDbArc
 50
253.680072
 51
286.319928
  0
LINE
  5
1165E
100
AcDbEntity
  8
0
100
AcDbLine
 10
2927.621184
 20
838.941404
 30
0.0
 11
2927.621184
 21
845.038404
 31
0.0
  0
LINE
  5
1165F
100
AcDbEntity
  8
0
100
AcDbLine
 10
2937.435184
 20
838.941404
 30
0.0
 11
2937.435184
 21
845.038404
 31
0.0
  0
LINE
  5
11660
100
AcDbEntity
  8
0
100
AcDbLine
 10
2942.343184
 20
838.941404
 30
0.0
 11
2940.778184
 21
838.037404
 31
0.0
  0
LINE
  5
11661
100
AcDbEntity
  8
0
100
AcDbLine
 10
2942.343184
 20
845.038404
 30
0.0
 11
2942.343184
 21
838.941404
 31
0.0
  0
LINE
  5
11662
100
AcDbEntity
  8
0
100
AcDbLine
 10
2954.236533
 20
878.038404
 30
0.0
 11
2954.236533
 21
845.038404
 31
0.0
  0
LINE
  5
11663
100
AcDbEntity
  8
0
100
AcDbLine
 10
2787.690272
 20
980.538404
 30
0.0
 11
2807.236533
 21
980.538404
 31
0.0
  0
LINE
  5
11664
100
AcDbEntity
  8
0
100
AcDbLine
 10
2787.690272
 20
930.538404
 30
0.0
 11
2812.236533
 21
930.538404
 31
0.0
  0
LINE
  5
11666
100
AcDbEntity
  8
0
100
AcDbLine
 10
2721.236533
 20
955.538404
 30
0.0
 11
2721.236533
 21
893.038404
 31
0.0
  0
LINE
  5
1166B
100
AcDbEntity
  8
0
100
AcDbLine
 10
2787.690272
 20
980.538404
 30
0.0
 11
2787.690272
 21
930.538404
 31
0.0
  0
LINE
  5
11677
100
AcDbEntity
  8
0
100
AcDbLine
 10
2721.236533
 20
955.538404
 30
0.0
 11
2721.236533
 21
1018.038404
 31
0.0
  0
LINE
  5
1167D
100
AcDbEntity
  8
0
100
AcDbLine
 10
2876.236533
 20
992.538404
 30
0.0
 11
2909.236533
 21
992.538404
 31
0.0
  0
LINE
  5
1167E
100
AcDbEntity
  8
0
100
AcDbLine
 10
2830.236533
 20
893.038404
 30
0.0
 11
2922.236533
 21
893.038404
 31
0.0
  0
LINE
  5
1167F
100
AcDbEntity
  8
0
100
AcDbLine
 10
2837.236533
 20
949.538404
 30
0.0
 11
2915.236533
 21
949.538404
 31
0.0
  0
CIRCLE
  5
11680
100
AcDbEntity
  8
0
100
AcDbCircle
 10
2870.236533
 20
923.538404
 30
0.0
 40
19.0
  0
ARC
  5
11681
100
AcDbEntity
  8
0
100
AcDbCircle
 10
2837.236533
 20
939.538404
 30
0.0
 40
10.0
100
AcDbArc
 50
90.0
 51
180.0
  0
LINE
  5
11682
100
AcDbEntity
  8
0
100
AcDbLine
 10
2827.236533
 20
893.038404
 30
0.0
 11
2824.267343
 21
881.903943
 31
0.0
  0
LINE
  5
11683
100
AcDbEntity
  8
0
100
AcDbLine
 10
2827.236533
 20
939.538404
 30
0.0
 11
2827.236533
 21
933.975946
 31
0.0
  0
LINE
  5
11684
100
AcDbEntity
  8
0
100
AcDbLine
 10
2827.236533
 20
893.038404
 30
0.0
 11
2827.236533
 21
915.538404
 31
0.0
  0
ARC
  5
11685
100
AcDbEntity
  8
0
100
AcDbCircle
 10
2812.236533
 20
915.538404
 30
0.0
 40
15.0
100
AcDbArc
 50
0.0
 51
90.0
  0
LINE
  5
11686
100
AcDbEntity
  8
0
100
AcDbLine
 10
2815.756882
 20
882.038404
 30
0.0
 11
2824.132882
 21
882.038404
 31
0.0
  0
LINE
  5
11687
100
AcDbEntity
  8
0
100
AcDbLine
 10
2814.944882
 20
881.226404
 30
0.0
 11
2815.756882
 21
882.038404
 31
0.0
  0
LINE
  5
11688
100
AcDbEntity
  8
0
100
AcDbLine
 10
2824.132882
 20
882.038404
 30
0.0
 11
2824.944882
 21
881.226404
 31
0.0
  0
LINE
  5
11689
100
AcDbEntity
  8
0
100
AcDbLine
 10
2880.424533
 20
882.038404
 30
0.0
 11
2881.236533
 21
881.226404
 31
0.0
  0
LINE
  5
1168A
100
AcDbEntity
  8
0
100
AcDbLine
 10
2871.236533
 20
881.226404
 30
0.0
 11
2872.048533
 21
882.038404
 31
0.0
  0
LINE
  5
1168B
100
AcDbEntity
  8
0
100
AcDbLine
 10
2872.048533
 20
882.038404
 30
0.0
 11
2880.424533
 21
882.038404
 31
0.0
  0
LINE
  5
1168C
100
AcDbEntity
  8
0
100
AcDbLine
 10
2863.838801
 20
991.363525
 30
0.0
 11
2807.236533
 21
980.538404
 31
0.0
  0
ARC
  5
1168D
100
AcDbEntity
  8
0
100
AcDbCircle
 10
2862.236533
 20
969.305214
 30
0.0
 40
21.0
100
AcDbArc
 50
108.126204
 51
162.302564
  0
ARC
  5
1168E
100
AcDbEntity
  8
0
100
AcDbCircle
 10
2836.514306
 20
977.512955
 30
0.0
 40
6.0
100
AcDbArc
 50
235.734114
 51
342.302564
  0
ARC
  5
1168F
100
AcDbEntity
  8
0
100
AcDbCircle
 10
2807.236533
 20
934.538404
 30
0.0
 40
46.0
100
AcDbArc
 50
55.734114
 51
90.0
  0
ARC
  5
11690
100
AcDbEntity
  8
0
100
AcDbCircle
 10
2876.236533
 20
926.538404
 30
0.0
 40
66.0
100
AcDbArc
 50
90.0
 51
108.126204
  0
ARC
  5
11691
100
AcDbEntity
  8
0
100
AcDbCircle
 10
2915.236533
 20
939.538404
 30
0.0
 40
10.0
100
AcDbArc
 50
0.0
 51
90.0
  0
LINE
  5
11693
100
AcDbEntity
  8
0
100
AcDbLine
 10
2925.236533
 20
893.038404
 30
0.0
 11
2928.205723
 21
881.903943
 31
0.0
  0
LINE
  5
11694
100
AcDbEntity
  8
0
100
AcDbLine
 10
2964.782794
 20
930.538404
 30
0.0
 11
2953.236533
 21
930.538404
 31
0.0
  0
ARC
  5
11695
100
AcDbEntity
  8
0
100
AcDbCircle
 10
2931.236533
 20
929.421528
 30
0.0
 40
6.0
100
AcDbArc
 50
64.971001
 51
180.0
  0
LINE
  5
11696
100
AcDbEntity
  8
0
100
AcDbLine
 10
2925.236533
 20
893.038404
 30
0.0
 11
2925.236533
 21
929.421528
 31
0.0
  0
ARC
  5
11697
100
AcDbEntity
  8
0
100
AcDbCircle
 10
2953.236533
 20
976.538404
 30
0.0
 40
46.0
100
AcDbArc
 50
244.971001
 51
270.0
  0
LINE
  5
11698
100
AcDbEntity
  8
0
100
AcDbLine
 10
2928.340184
 20
882.038404
 30
0.0
 11
2936.716184
 21
882.038404
 31
0.0
  0
LINE
  5
11699
100
AcDbEntity
  8
0
100
AcDbLine
 10
2927.528184
 20
881.226404
 30
0.0
 11
2928.340184
 21
882.038404
 31
0.0
  0
LINE
  5
1169A
100
AcDbEntity
  8
0
100
AcDbLine
 10
2936.716184
 20
882.038404
 30
0.0
 11
2937.528184
 21
881.226404
 31
0.0
  0
ARC
  5
1169B
100
AcDbEntity
  8
0
100
AcDbCircle
 10
2909.236533
 20
946.538404
 30
0.0
 40
46.0
100
AcDbArc
 50
51.786789
 51
90.0
  0
LINE
  5
1169C
100
AcDbEntity
  8
0
100
AcDbLine
 10
2943.877549
 20
980.538404
 30
0.0
 11
2964.782794
 21
980.538404
 31
0.0
  0
ARC
  5
1169D
100
AcDbEntity
  8
0
100
AcDbCircle
 10
2943.877549
 20
990.538404
 30
0.0
 40
10.0
100
AcDbArc
 50
231.786789
 51
270.0
  0
LINE
  5
1182F
100
AcDbEntity
  8
0
100
AcDbLine
 10
692.121255
 20
944.038377
 30
0.0
 11
692.121255
 21
967.038432
 31
0.0
  0
LINE
  5
11832
100
AcDbEntity
  8
0
100
AcDbLine
 10
896.534009
 20
944.038377
 30
0.0
 11
896.534009
 21
967.038432
 31
0.0
  0
LINE
  5
11833
100
AcDbEntity
  8
0
100
AcDbLine
 10
692.121255
 20
1337.350113
 30
0.0
 11
692.121255
 21
1360.350168
 31
0.0
  0
LINE
  5
11834
100
AcDbEntity
  8
0
100
AcDbLine
 10
896.534009
 20
1337.350113
 30
0.0
 11
896.534009
 21
1360.350168
 31
0.0
  0
CIRCLE
  5
11837
100
AcDbEntity
  8
0
100
AcDbCircle
 10
406.315614
 20
955.538404
 30
0.0
 40
47.5
  0
CIRCLE
  5
11839
100
AcDbEntity
  8
0
100
AcDbCircle
 10
431.064351
 20
980.287142
 30
0.0
 40
7.5
  0
CIRCLE
  5
1183A
100
AcDbEntity
  8
0
100
AcDbCircle
 10
381.566876
 20
980.287142
 30
0.0
 40
7.5
  0
CIRCLE
  5
1183B
100
AcDbEntity
  8
0
100
AcDbCircle
 10
381.566876
 20
930.789667
 30
0.0
 40
7.5
  0
CIRCLE
  5
1183C
100
AcDbEntity
  8
0
100
AcDbCircle
 10
431.064351
 20
930.789667
 30
0.0
 40
7.5
  0
CIRCLE
  5
1183E
100
AcDbEntity
  8
0
100
AcDbCircle
 10
1442.270065
 20
955.538404
 30
0.0
 40
50.0
  0
LINE
  5
11840
100
AcDbEntity
  8
0
100
AcDbLine
 10
1703.782082
 20
1005.538404
 30
0.0
 11
1719.782082
 21
1005.538404
 31
0.0
  0
LINE
  5
11841
100
AcDbEntity
  8
0
100
AcDbLine
 10
1703.782082
 20
905.538404
 30
0.0
 11
1719.782082
 21
905.538404
 31
0.0
  0
LINE
  5
11844
100
AcDbEntity
  8
0
100
AcDbLine
 10
1703.782082
 20
1398.850141
 30
0.0
 11
1719.782082
 21
1398.850141
 31
0.0
  0
LINE
  5
11845
100
AcDbEntity
  8
0
100
AcDbLine
 10
1703.782082
 20
1298.850141
 30
0.0
 11
1719.782082
 21
1298.850141
 31
0.0
  0
LINE
  5
1184B
100
AcDbEntity
  8
0
100
AcDbLine
 10
1960.782082
 20
1398.850141
 30
0.0
 11
1960.782082
 21
1298.850141
 31
0.0
  0
LINE
  5
1184C
100
AcDbEntity
  8
0
100
AcDbLine
 10
1976.782082
 20
1348.850141
 30
0.0
 11
1976.782082
 21
1398.850141
 31
0.0
  0
LINE
  5
1184D
100
AcDbEntity
  8
0
100
AcDbLine
 10
1976.782082
 20
1398.850141
 30
0.0
 11
1960.782082
 21
1398.850141
 31
0.0
  0
LINE
  5
1184E
100
AcDbEntity
  8
0
100
AcDbLine
 10
1976.782082
 20
1348.850141
 30
0.0
 11
1976.782082
 21
1298.850141
 31
0.0
  0
LINE
  5
1184F
100
AcDbEntity
  8
0
100
AcDbLine
 10
1976.782082
 20
1298.850141
 30
0.0
 11
1960.782082
 21
1298.850141
 31
0.0
  0
LINE
  5
11850
100
AcDbEntity
  8
0
100
AcDbLine
 10
1960.782082
 20
1005.538404
 30
0.0
 11
1960.782082
 21
905.538404
 31
0.0
  0
LINE
  5
11851
100
AcDbEntity
  8
0
100
AcDbLine
 10
1976.782082
 20
955.538404
 30
0.0
 11
1976.782082
 21
1005.538404
 31
0.0
  0
LINE
  5
11852
100
AcDbEntity
  8
0
100
AcDbLine
 10
1976.782082
 20
1005.538404
 30
0.0
 11
1960.782082
 21
1005.538404
 31
0.0
  0
LINE
  5
11853
100
AcDbEntity
  8
0
100
AcDbLine
 10
1976.782082
 20
955.538404
 30
0.0
 11
1976.782082
 21
905.538404
 31
0.0
  0
LINE
  5
11854
100
AcDbEntity
  8
0
100
AcDbLine
 10
1976.782082
 20
905.538404
 30
0.0
 11
1960.782082
 21
905.538404
 31
0.0
  0
CIRCLE
  5
11856
100
AcDbEntity
  8
0
100
AcDbCircle
 10
1468.786569
 20
982.054909
 30
0.0
 40
7.5
  0
CIRCLE
  5
11857
100
AcDbEntity
  8
0
100
AcDbCircle
 10
1415.75356
 20
982.054909
 30
0.0
 40
7.5
  0
CIRCLE
  5
11858
100
AcDbEntity
  8
0
100
AcDbCircle
 10
1415.75356
 20
929.0219
 30
0.0
 40
7.5
  0
CIRCLE
  5
11859
100
AcDbEntity
  8
0
100
AcDbCircle
 10
1468.786569
 20
929.0219
 30
0.0
 40
7.5
  0
LINE
  5
1185B
100
AcDbEntity
  8
0
100
AcDbLine
 10
2752.236533
 20
977.538404
 30
0.0
 11
2779.282794
 21
977.538404
 31
0.0
  0
LINE
  5
11860
100
AcDbEntity
  8
0
100
AcDbLine
 10
2784.690272
 20
977.538404
 30
0.0
 11
2787.690272
 21
980.538404
 31
0.0
  0
ARC
  5
11865
100
AcDbEntity
  8
0
100
AcDbCircle
 10
2781.986533
 20
974.414553
 30
0.0
 40
4.131422
100
AcDbArc
 50
49.123337
 51
130.876663
  0
LINE
  5
11866
100
AcDbEntity
  8
0
100
AcDbLine
 10
2784.690272
 20
977.538404
 30
0.0
 11
2784.690272
 21
933.538404
 31
0.0
  0
LINE
  5
11867
100
AcDbEntity
  8
0
100
AcDbLine
 10
2779.282794
 20
977.538404
 30
0.0
 11
2779.282794
 21
933.538404
 31
0.0
  0
LINE
  5
11868
100
AcDbEntity
  8
0
100
AcDbLine
 10
2721.236533
 20
1018.038404
 30
0.0
 11
2737.236533
 21
1018.038404
 31
0.0
  0
LINE
  5
1186B
100
AcDbEntity
  8
0
100
AcDbLine
 10
2737.236533
 20
1018.038404
 30
0.0
 11
2737.236533
 21
893.038404
 31
0.0
  0
LINE
  5
1186C
100
AcDbEntity
  8
0
100
AcDbLine
 10
2752.236533
 20
974.038404
 30
0.0
 11
2752.236533
 21
937.038404
 31
0.0
  0
LINE
  5
1186D
100
AcDbEntity
  8
0
100
AcDbLine
 10
2740.452069
 20
979.895297
 30
0.0
 11
2752.236533
 21
977.538404
 31
0.0
  0
ARC
  5
1186E
100
AcDbEntity
  8
0
100
AcDbCircle
 10
2741.236533
 20
983.81762
 30
0.0
 40
4.0
100
AcDbArc
 50
180.0
 51
258.690068
  0
LINE
  5
11871
100
AcDbEntity
  8
0
100
AcDbLine
 10
2721.236533
 20
893.038404
 30
0.0
 11
2737.236533
 21
893.038404
 31
0.0
  0
LINE
  5
11872
100
AcDbEntity
  8
0
100
AcDbLine
 10
2740.452069
 20
931.181511
 30
0.0
 11
2752.236533
 21
933.538404
 31
0.0
  0
ARC
  5
11873
100
AcDbEntity
  8
0
100
AcDbCircle
 10
2741.236533
 20
927.259189
 30
0.0
 40
4.0
100
AcDbArc
 50
101.309932
 51
180.0
  0
LINE
  5
11874
100
AcDbEntity
  8
0
100
AcDbLine
 10
2752.236533
 20
933.538404
 30
0.0
 11
2779.282794
 21
933.538404
 31
0.0
  0
ARC
  5
11875
100
AcDbEntity
  8
0
100
AcDbCircle
 10
2781.986533
 20
936.662256
 30
0.0
 40
4.131422
100
AcDbArc
 50
229.123337
 51
310.876663
  0
LINE
  5
11876
100
AcDbEntity
  8
0
100
AcDbLine
 10
2784.690272
 20
933.538404
 30
0.0
 11
2787.690272
 21
930.538404
 31
0.0
  0
LINE
  5
11877
100
AcDbEntity
  8
0
100
AcDbLine
 10
2967.782794
 20
977.538404
 30
0.0
 11
2967.782794
 21
933.538404
 31
0.0
  0
LINE
  5
11878
100
AcDbEntity
  8
0
100
AcDbLine
 10
2973.190272
 20
977.538404
 30
0.0
 11
2973.190272
 21
933.538404
 31
0.0
  0
LINE
  5
11879
100
AcDbEntity
  8
0
100
AcDbLine
 10
2964.782794
 20
980.538404
 30
0.0
 11
2964.782794
 21
930.538404
 31
0.0
  0
LINE
  5
1187A
100
AcDbEntity
  8
0
100
AcDbLine
 10
3015.236533
 20
1018.038404
 30
0.0
 11
3015.236533
 21
893.038404
 31
0.0
  0
LINE
  5
1187B
100
AcDbEntity
  8
0
100
AcDbLine
 10
3000.236533
 20
974.038404
 30
0.0
 11
3000.236533
 21
937.038404
 31
0.0
  0
LINE
  5
1187C
100
AcDbEntity
  8
0
100
AcDbLine
 10
3031.236533
 20
955.538404
 30
0.0
 11
3031.236533
 21
1018.038404
 31
0.0
  0
LINE
  5
1187D
100
AcDbEntity
  8
0
100
AcDbLine
 10
3031.236533
 20
955.538404
 30
0.0
 11
3031.236533
 21
893.038404
 31
0.0
  0
LINE
  5
1187E
100
AcDbEntity
  8
0
100
AcDbLine
 10
3031.236533
 20
893.038404
 30
0.0
 11
3015.236533
 21
893.038404
 31
0.0
  0
LINE
  5
1187F
100
AcDbEntity
  8
0
100
AcDbLine
 10
2967.782794
 20
933.538404
 30
0.0
 11
2964.782794
 21
930.538404
 31
0.0
  0
ARC
  5
11880
100
AcDbEntity
  8
0
100
AcDbCircle
 10
2970.486533
 20
936.662256
 30
0.0
 40
4.131422
100
AcDbArc
 50
229.123337
 51
310.876663
  0
LINE
  5
11881
100
AcDbEntity
  8
0
100
AcDbLine
 10
3000.236533
 20
933.538404
 30
0.0
 11
2973.190272
 21
933.538404
 31
0.0
  0
ARC
  5
11882
100
AcDbEntity
  8
0
100
AcDbCircle
 10
3011.236533
 20
927.259189
 30
0.0
 40
4.0
100
AcDbArc
 50
0.0
 51
78.690068
  0
LINE
  5
11883
100
AcDbEntity
  8
0
100
AcDbLine
 10
3012.020998
 20
931.181511
 30
0.0
 11
3000.236533
 21
933.538404
 31
0.0
  0
LINE
  5
11884
100
AcDbEntity
  8
0
100
AcDbLine
 10
3000.236533
 20
977.538404
 30
0.0
 11
2973.190272
 21
977.538404
 31
0.0
  0
LINE
  5
11885
100
AcDbEntity
  8
0
100
AcDbLine
 10
3012.020998
 20
979.895297
 30
0.0
 11
3000.236533
 21
977.538404
 31
0.0
  0
ARC
  5
11886
100
AcDbEntity
  8
0
100
AcDbCircle
 10
3011.236533
 20
983.81762
 30
0.0
 40
4.0
100
AcDbArc
 50
281.309932
 51
0.0
  0
ARC
  5
11887
100
AcDbEntity
  8
0
100
AcDbCircle
 10
2970.486533
 20
974.414553
 30
0.0
 40
4.131422
100
AcDbArc
 50
49.123337
 51
130.876663
  0
LINE
  5
11888
100
AcDbEntity
  8
0
100
AcDbLine
 10
2967.782794
 20
977.538404
 30
0.0
 11
2964.782794
 21
980.538404
 31
0.0
  0
LINE
  5
11889
100
AcDbEntity
  8
0
100
AcDbLine
 10
3031.236533
 20
1018.038404
 30
0.0
 11
3015.236533
 21
1018.038404
 31
0.0
  0
ARC
  5
118E5
100
AcDbEntity
  8
0
100
AcDbCircle
 10
2808.226828
 20
1358.850141
 30
0.0
 40
5.0
100
AcDbArc
 50
180.0
 51
270.0
  0
LINE
  5
118E6
100
AcDbEntity
  8
0
100
AcDbLine
 10
2787.690272
 20
1373.850141
 30
0.0
 11
2838.220651
 21
1373.850141
 31
0.0
  0
ARC
  5
118E7
100
AcDbEntity
  8
0
100
AcDbCircle
 10
2876.236533
 20
1348.850141
 30
0.0
 40
78.0
100
AcDbArc
 50
18.693941
 51
161.306059
  0
ARC
  5
118E8
100
AcDbEntity
  8
0
100
AcDbCircle
 10
2808.226828
 20
1338.850141
 30
0.0
 40
5.0
100
AcDbArc
 50
90.0
 51
180.0
  0
LINE
  5
118E9
100
AcDbEntity
  8
0
100
AcDbLine
 10
2787.690272
 20
1323.850141
 30
0.0
 11
2838.220651
 21
1323.850141
 31
0.0
  0
ARC
  5
118EA
100
AcDbEntity
  8
0
100
AcDbCircle
 10
2876.236533
 20
1348.850141
 30
0.0
 40
78.0
100
AcDbArc
 50
198.693941
 51
341.306059
  0
LINE
  5
11900
100
AcDbEntity
  8
0
100
AcDbLine
 10
2803.226828
 20
1351.850141
 30
0.0
 11
2803.226828
 21
1345.850141
 31
0.0
  0
CIRCLE
  5
11904
100
AcDbEntity
  8
0
100
AcDbCircle
 10
2932.528184
 20
1316.350141
 30
0.0
 40
4.99999
  0
ARC
  5
11905
100
AcDbEntity
  8
0
100
AcDbCircle
 10
2876.236533
 20
1348.850141
 30
0.0
 40
54.0
100
AcDbArc
 50
283.930264
 51
332.421532
  0
ARC
  5
11906
100
AcDbEntity
  8
0
100
AcDbCircle
 10
2876.236533
 20
1348.850141
 30
0.0
 40
54.0
100
AcDbArc
 50
207.578468
 51
242.421532
  0
CIRCLE
  5
11907
100
AcDbEntity
  8
0
100
AcDbCircle
 10
2819.944882
 20
1316.350141
 30
0.0
 40
4.99999
  0
ARC
  5
11908
100
AcDbEntity
  8
0
100
AcDbCircle
 10
2876.236533
 20
1348.850141
 30
0.0
 40
49.0
100
AcDbArc
 50
210.677424
 51
329.322576
  0
ARC
  5
11909
100
AcDbEntity
  8
0
100
AcDbCircle
 10
2876.236533
 20
1348.850141
 30
0.0
 40
35.055457
100
AcDbArc
 50
188.200128
 51
285.0
  0
LINE
  5
1190A
100
AcDbEntity
  8
0
100
AcDbLine
 10
2851.236533
 20
1285.850141
 30
0.0
 11
2889.236533
 21
1285.850141
 31
0.0
  0
ARC
  5
1190B
100
AcDbEntity
  8
0
100
AcDbCircle
 10
2876.236533
 20
1283.850141
 30
0.0
 40
4.99999
100
AcDbArc
 50
156.421772
 51
23.578228
  0
LINE
  5
1190C
100
AcDbEntity
  8
0
100
AcDbLine
 10
2851.236533
 20
1306.707526
 30
0.0
 11
2851.236533
 21
1285.850141
 31
0.0
  0
LINE
  5
1190D
100
AcDbEntity
  8
0
100
AcDbLine
 10
2889.236533
 20
1301.606093
 30
0.0
 11
2889.236533
 21
1285.850141
 31
0.0
  0
ARC
  5
11911
100
AcDbEntity
  8
0
100
AcDbCircle
 10
2876.236533
 20
1348.850141
 30
0.0
 40
35.055457
100
AcDbArc
 50
75.0
 51
171.799872
  0
ARC
  5
11912
100
AcDbEntity
  8
0
100
AcDbCircle
 10
2876.236533
 20
1348.850141
 30
0.0
 40
49.0
100
AcDbArc
 50
30.677424
 51
149.322576
  0
LINE
  5
11913
100
AcDbEntity
  8
0
100
AcDbLine
 10
2851.236533
 20
1411.850141
 30
0.0
 11
2889.236533
 21
1411.850141
 31
0.0
  0
ARC
  5
11914
100
AcDbEntity
  8
0
100
AcDbCircle
 10
2876.236533
 20
1348.850141
 30
0.0
 40
54.0
100
AcDbArc
 50
117.578468
 51
152.421532
  0
CIRCLE
  5
11915
100
AcDbEntity
  8
0
100
AcDbCircle
 10
2819.944882
 20
1381.350141
 30
0.0
 40
4.99999
  0
LINE
  5
11916
100
AcDbEntity
  8
0
100
AcDbLine
 10
2807.236533
 20
1353.850141
 30
0.0
 11
2854.712905
 21
1353.850141
 31
0.0
  0
LINE
  5
11917
100
AcDbEntity
  8
0
100
AcDbLine
 10
2807.236533
 20
1343.850141
 30
0.0
 11
2855.7032
 21
1343.850141
 31
0.0
  0
ARC
  5
11918
100
AcDbEntity
  8
0
100
AcDbCircle
 10
2838.220651
 20
1378.850141
 30
0.0
 40
5.0
100
AcDbArc
 50
270.0
 51
323.315862
  0
ARC
  5
11919
100
AcDbEntity
  8
0
100
AcDbCircle
 10
2838.220651
 20
1318.850141
 30
0.0
 40
5.0
100
AcDbArc
 50
36.684138
 51
90.0
  0
ARC
  5
1191A
100
AcDbEntity
  8
0
100
AcDbCircle
 10
2854.712905
 20
1358.850141
 30
0.0
 40
5.0
100
AcDbArc
 50
270.0
 51
0.0
  0
ARC
  5
1191B
100
AcDbEntity
  8
0
100
AcDbCircle
 10
2854.712905
 20
1338.850141
 30
0.0
 40
5.0
100
AcDbArc
 50
0.0
 51
90.0
  0
ARC
  5
1191C
100
AcDbEntity
  8
0
100
AcDbCircle
 10
2876.236533
 20
1413.850141
 30
0.0
 40
4.99999
100
AcDbArc
 50
336.421772
 51
203.578228
  0
LINE
  5
1191D
100
AcDbEntity
  8
0
100
AcDbLine
 10
2851.236533
 20
1390.992756
 30
0.0
 11
2851.236533
 21
1411.850141
 31
0.0
  0
CIRCLE
  5
1191E
100
AcDbEntity
  8
0
100
AcDbCircle
 10
2932.528184
 20
1381.350141
 30
0.0
 40
4.99999
  0
ARC
  5
1191F
100
AcDbEntity
  8
0
100
AcDbCircle
 10
2876.236533
 20
1348.850141
 30
0.0
 40
54.0
100
AcDbArc
 50
27.578468
 51
76.069736
  0
LINE
  5
11920
100
AcDbEntity
  8
0
100
AcDbLine
 10
2964.782794
 20
1373.850141
 30
0.0
 11
2918.379148
 21
1373.850141
 31
0.0
  0
LINE
  5
11921
100
AcDbEntity
  8
0
100
AcDbLine
 10
2964.782794
 20
1323.850141
 30
0.0
 11
2918.379148
 21
1323.850141
 31
0.0
  0
LINE
  5
11922
100
AcDbEntity
  8
0
100
AcDbLine
 10
2918.379148
 20
1373.850141
 30
0.0
 11
2885.309553
 21
1382.711112
 31
0.0
  0
LINE
  5
11923
100
AcDbEntity
  8
0
100
AcDbLine
 10
2918.379148
 20
1323.850141
 30
0.0
 11
2885.309553
 21
1314.989169
 31
0.0
  0
LINE
  5
11924
100
AcDbEntity
  8
0
100
AcDbLine
 10
2918.379148
 20
1369.850141
 30
0.0
 11
2918.379148
 21
1327.850141
 31
0.0
  0
LINE
  5
11926
100
AcDbEntity
  8
0
100
AcDbLine
 10
2889.236533
 20
1396.094188
 30
0.0
 11
2889.236533
 21
1411.850141
 31
0.0
  0
LINE
  5
1193A
100
AcDbEntity
  8
0
100
AcDbLine
 10
2784.690272
 20
1370.850141
 30
0.0
 11
2784.690272
 21
1326.850141
 31
0.0
  0
LINE
  5
1193B
100
AcDbEntity
  8
0
100
AcDbLine
 10
2779.282794
 20
1370.850141
 30
0.0
 11
2779.282794
 21
1326.850141
 31
0.0
  0
LINE
  5
1193C
100
AcDbEntity
  8
0
100
AcDbLine
 10
2787.690272
 20
1373.850141
 30
0.0
 11
2787.690272
 21
1323.850141
 31
0.0
  0
LINE
  5
1193D
100
AcDbEntity
  8
0
100
AcDbLine
 10
2737.236533
 20
1411.350141
 30
0.0
 11
2737.236533
 21
1286.350141
 31
0.0
  0
LINE
  5
1193E
100
AcDbEntity
  8
0
100
AcDbLine
 10
2752.236533
 20
1367.350141
 30
0.0
 11
2752.236533
 21
1330.350141
 31
0.0
  0
LINE
  5
1193F
100
AcDbEntity
  8
0
100
AcDbLine
 10
2721.236533
 20
1348.850141
 30
0.0
 11
2721.236533
 21
1411.350141
 31
0.0
  0
LINE
  5
11940
100
AcDbEntity
  8
0
100
AcDbLine
 10
2721.236533
 20
1348.850141
 30
0.0
 11
2721.236533
 21
1286.350141
 31
0.0
  0
LINE
  5
11941
100
AcDbEntity
  8
0
100
AcDbLine
 10
2721.236533
 20
1286.350141
 30
0.0
 11
2737.236533
 21
1286.350141
 31
0.0
  0
LINE
  5
11942
100
AcDbEntity
  8
0
100
AcDbLine
 10
2784.690272
 20
1326.850141
 30
0.0
 11
2787.690272
 21
1323.850141
 31
0.0
  0
ARC
  5
11943
100
AcDbEntity
  8
0
100
AcDbCircle
 10
2781.986533
 20
1329.973992
 30
0.0
 40
4.131422
100
AcDbArc
 50
229.123337
 51
310.876663
  0
LINE
  5
11944
100
AcDbEntity
  8
0
100
AcDbLine
 10
2752.236533
 20
1326.850141
 30
0.0
 11
2779.282794
 21
1326.850141
 31
0.0
  0
ARC
  5
11945
100
AcDbEntity
  8
0
100
AcDbCircle
 10
2741.236533
 20
1320.570925
 30
0.0
 40
4.0
100
AcDbArc
 50
101.309932
 51
180.0
  0
LINE
  5
11946
100
AcDbEntity
  8
0
100
AcDbLine
 10
2740.452069
 20
1324.493248
 30
0.0
 11
2752.236533
 21
1326.850141
 31
0.0
  0
LINE
  5
11947
100
AcDbEntity
  8
0
100
AcDbLine
 10
2752.236533
 20
1370.850141
 30
0.0
 11
2779.282794
 21
1370.850141
 31
0.0
  0
LINE
  5
11948
100
AcDbEntity
  8
0
100
AcDbLine
 10
2740.452069
 20
1373.207034
 30
0.0
 11
2752.236533
 21
1370.850141
 31
0.0
  0
ARC
  5
11949
100
AcDbEntity
  8
0
100
AcDbCircle
 10
2741.236533
 20
1377.129356
 30
0.0
 40
4.0
100
AcDbArc
 50
180.0
 51
258.690068
  0
ARC
  5
1194A
100
AcDbEntity
  8
0
100
AcDbCircle
 10
2781.986533
 20
1367.726289
 30
0.0
 40
4.131422
100
AcDbArc
 50
49.123337
 51
130.876663
  0
LINE
  5
1194B
100
AcDbEntity
  8
0
100
AcDbLine
 10
2784.690272
 20
1370.850141
 30
0.0
 11
2787.690272
 21
1373.850141
 31
0.0
  0
LINE
  5
1194C
100
AcDbEntity
  8
0
100
AcDbLine
 10
2721.236533
 20
1411.350141
 30
0.0
 11
2737.236533
 21
1411.350141
 31
0.0
  0
LINE
  5
1194D
100
AcDbEntity
  8
0
100
AcDbLine
 10
3031.236533
 20
1348.850141
 30
0.0
 11
3031.236533
 21
1411.350141
 31
0.0
  0
LINE
  5
1194E
100
AcDbEntity
  8
0
100
AcDbLine
 10
3000.236533
 20
1367.350141
 30
0.0
 11
3000.236533
 21
1330.350141
 31
0.0
  0
LINE
  5
1194F
100
AcDbEntity
  8
0
100
AcDbLine
 10
3015.236533
 20
1411.350141
 30
0.0
 11
3015.236533
 21
1286.350141
 31
0.0
  0
LINE
  5
11950
100
AcDbEntity
  8
0
100
AcDbLine
 10
2964.782794
 20
1373.850141
 30
0.0
 11
2964.782794
 21
1323.850141
 31
0.0
  0
LINE
  5
11951
100
AcDbEntity
  8
0
100
AcDbLine
 10
2973.190272
 20
1370.850141
 30
0.0
 11
2973.190272
 21
1326.850141
 31
0.0
  0
LINE
  5
11952
100
AcDbEntity
  8
0
100
AcDbLine
 10
2967.782794
 20
1370.850141
 30
0.0
 11
2967.782794
 21
1326.850141
 31
0.0
  0
LINE
  5
11953
100
AcDbEntity
  8
0
100
AcDbLine
 10
3031.236533
 20
1348.850141
 30
0.0
 11
3031.236533
 21
1286.350141
 31
0.0
  0
LINE
  5
11954
100
AcDbEntity
  8
0
100
AcDbLine
 10
3031.236533
 20
1286.350141
 30
0.0
 11
3015.236533
 21
1286.350141
 31
0.0
  0
LINE
  5
11955
100
AcDbEntity
  8
0
100
AcDbLine
 10
3000.236533
 20
1326.850141
 30
0.0
 11
2973.190272
 21
1326.850141
 31
0.0
  0
ARC
  5
11956
100
AcDbEntity
  8
0
100
AcDbCircle
 10
2970.486533
 20
1329.973992
 30
0.0
 40
4.131422
100
AcDbArc
 50
229.123337
 51
310.876663
  0
LINE
  5
11957
100
AcDbEntity
  8
0
100
AcDbLine
 10
2967.782794
 20
1326.850141
 30
0.0
 11
2964.782794
 21
1323.850141
 31
0.0
  0
LINE
  5
11958
100
AcDbEntity
  8
0
100
AcDbLine
 10
3012.020998
 20
1324.493248
 30
0.0
 11
3000.236533
 21
1326.850141
 31
0.0
  0
ARC
  5
11959
100
AcDbEntity
  8
0
100
AcDbCircle
 10
3011.236533
 20
1320.570925
 30
0.0
 40
4.0
100
AcDbArc
 50
0.0
 51
78.690068
  0
LINE
  5
1195A
100
AcDbEntity
  8
0
100
AcDbLine
 10
3000.236533
 20
1370.850141
 30
0.0
 11
2973.190272
 21
1370.850141
 31
0.0
  0
LINE
  5
1195B
100
AcDbEntity
  8
0
100
AcDbLine
 10
2967.782794
 20
1370.850141
 30
0.0
 11
2964.782794
 21
1373.850141
 31
0.0
  0
ARC
  5
1195C
100
AcDbEntity
  8
0
100
AcDbCircle
 10
2970.486533
 20
1367.726289
 30
0.0
 40
4.131422
100
AcDbArc
 50
49.123337
 51
130.876663
  0
ARC
  5
1195D
100
AcDbEntity
  8
0
100
AcDbCircle
 10
3011.236533
 20
1377.129356
 30
0.0
 40
4.0
100
AcDbArc
 50
281.309932
 51
0.0
  0
LINE
  5
1195E
100
AcDbEntity
  8
0
100
AcDbLine
 10
3012.020998
 20
1373.207034
 30
0.0
 11
3000.236533
 21
1370.850141
 31
0.0
  0
LINE
  5
1195F
100
AcDbEntity
  8
0
100
AcDbLine
 10
3031.236533
 20
1411.350141
 30
0.0
 11
3015.236533
 21
1411.350141
 31
0.0
  0
CIRCLE
  5
11986
100
AcDbEntity
  8
0
100
AcDbCircle
 10
2478.224515
 20
955.538404
 30
0.0
 40
62.5
  0
CIRCLE
  5
11988
100
AcDbEntity
  8
0
100
AcDbCircle
 10
2510.04432
 20
987.358209
 30
0.0
 40
9.5
  0
CIRCLE
  5
11989
100
AcDbEntity
  8
0
100
AcDbCircle
 10
2446.40471
 20
987.358209
 30
0.0
 40
9.5
  0
CIRCLE
  5
1198A
100
AcDbEntity
  8
0
100
AcDbCircle
 10
2446.40471
 20
923.718599
 30
0.0
 40
9.5
  0
CIRCLE
  5
1198B
100
AcDbEntity
  8
0
100
AcDbCircle
 10
2510.04432
 20
923.718599
 30
0.0
 40
9.5
  0
LINE
  5
119DA
100
AcDbEntity
  8
0
100
AcDbLine
 10
328.315614
 20
861.538404
 30
0.0
 11
484.315614
 21
861.538404
 31
0.0
  0
LINE
  5
119DC
100
AcDbEntity
  8
0
100
AcDbLine
 10
484.315614
 20
878.038404
 30
0.0
 11
328.315614
 21
878.038404
 31
0.0
  0
LINE
  5
11B17
100
AcDbEntity
  8
0
100
AcDbLine
 10
430.315614
 20
838.037404
 30
0.0
 11
447.315614
 21
838.037404
 31
0.0
  0
ARC
  5
11B18
100
AcDbEntity
  8
0
100
AcDbCircle
 10
443.065614
 20
848.479725
 30
0.0
 40
10.442321
100
AcDbArc
 50
245.983629
 51
294.016371
  0
ARC
  5
11B19
100
AcDbEntity
  8
0
100
AcDbCircle
 10
443.065614
 20
749.979725
 30
0.0
 40
10.442321
100
AcDbArc
 50
245.983629
 51
294.016371
  0
LINE
  5
11B1A
100
AcDbEntity
  8
0
100
AcDbLine
 10
430.315614
 20
739.537404
 30
0.0
 11
447.315614
 21
739.537404
 31
0.0
  0
LINE
  5
11B1B
100
AcDbEntity
  8
0
100
AcDbLine
 10
328.315614
 20
746.538404
 30
0.0
 11
484.315614
 21
746.538404
 31
0.0
  0
LINE
  5
11B1C
100
AcDbEntity
  8
0
100
AcDbLine
 10
484.315614
 20
763.538404
 30
0.0
 11
328.315614
 21
763.538404
 31
0.0
  0
LINE
  5
11B1D
100
AcDbEntity
  8
0
100
AcDbLine
 10
484.315614
 20
780.538404
 30
0.0
 11
328.315614
 21
780.538404
 31
0.0
  0
LINE
  5
11B1E
100
AcDbEntity
  8
0
100
AcDbLine
 10
484.315614
 20
845.038404
 30
0.0
 11
328.315614
 21
845.038404
 31
0.0
  0
LINE
  5
11B1F
100
AcDbEntity
  8
0
100
AcDbLine
 10
360.02896
 20
801.844495
 30
0.0
 11
355.511604
 21
784.98549
 31
0.0
  0
ARC
  5
11B20
100
AcDbEntity
  8
0
100
AcDbCircle
 10
349.716049
 20
786.538404
 30
0.0
 40
6.0
100
AcDbArc
 50
270.0
 51
345.0
  0
LINE
  5
11B21
100
AcDbEntity
  8
0
100
AcDbLine
 10
328.315614
 20
746.538404
 30
0.0
 11
328.315614
 21
780.538404
 31
0.0
  0
LINE
  5
11B22
100
AcDbEntity
  8
0
100
AcDbLine
 10
349.815614
 20
739.537404
 30
0.0
 11
349.815614
 21
746.538404
 31
0.0
  0
LINE
  5
11B23
100
AcDbEntity
  8
0
100
AcDbLine
 10
341.315614
 20
740.441404
 30
0.0
 11
341.315614
 21
746.538404
 31
0.0
  0
LINE
  5
11B24
100
AcDbEntity
  8
0
100
AcDbLine
 10
332.815614
 20
739.537404
 30
0.0
 11
332.815614
 21
746.538404
 31
0.0
  0
ARC
  5
11B25
100
AcDbEntity
  8
0
100
AcDbCircle
 10
337.065614
 20
749.979725
 30
0.0
 40
10.442321
100
AcDbArc
 50
245.983629
 51
294.016371
  0
LINE
  5
11B26
100
AcDbEntity
  8
0
100
AcDbLine
 10
349.815614
 20
739.537404
 30
0.0
 11
332.815614
 21
739.537404
 31
0.0
  0
ARC
  5
11B27
100
AcDbEntity
  8
0
100
AcDbCircle
 10
345.565614
 20
749.979725
 30
0.0
 40
10.442321
100
AcDbArc
 50
245.983629
 51
294.016371
  0
LINE
  5
11B28
100
AcDbEntity
  8
0
100
AcDbLine
 10
336.315614
 20
780.538404
 30
0.0
 11
336.315614
 21
783.726404
 31
0.0
  0
LINE
  5
11B29
100
AcDbEntity
  8
0
100
AcDbLine
 10
346.315614
 20
783.726404
 30
0.0
 11
346.315614
 21
780.538404
 31
0.0
  0
LINE
  5
11B2A
100
AcDbEntity
  8
0
100
AcDbLine
 10
345.503614
 20
784.538404
 30
0.0
 11
346.315614
 21
783.726404
 31
0.0
  0
LINE
  5
11B2B
100
AcDbEntity
  8
0
100
AcDbLine
 10
337.127614
 20
784.538404
 30
0.0
 11
345.503614
 21
784.538404
 31
0.0
  0
LINE
  5
11B2C
100
AcDbEntity
  8
0
100
AcDbLine
 10
336.315614
 20
783.726404
 30
0.0
 11
337.127614
 21
784.538404
 31
0.0
  0
ARC
  5
11B2D
100
AcDbEntity
  8
0
100
AcDbCircle
 10
389.315614
 20
726.538404
 30
0.0
 40
2.0
100
AcDbArc
 50
180.0
 51
270.0
  0
ARC
  5
11B2E
100
AcDbEntity
  8
0
100
AcDbCircle
 10
423.315614
 20
726.538404
 30
0.0
 40
2.0
100
AcDbArc
 50
270.0
 51
0.0
  0
LINE
  5
11B2F
100
AcDbEntity
  8
0
100
AcDbLine
 10
383.815614
 20
705.538404
 30
0.0
 11
383.815614
 21
735.089374
 31
0.0
  0
LINE
  5
11B30
100
AcDbEntity
  8
0
100
AcDbLine
 10
428.815614
 20
705.538404
 30
0.0
 11
428.815614
 21
735.089374
 31
0.0
  0
LINE
  5
11B31
100
AcDbEntity
  8
0
100
AcDbLine
 10
427.815614
 20
704.538404
 30
0.0
 11
384.815614
 21
704.538404
 31
0.0
  0
LINE
  5
11B32
100
AcDbEntity
  8
0
100
AcDbLine
 10
423.315614
 20
724.538404
 30
0.0
 11
389.315614
 21
724.538404
 31
0.0
  0
LINE
  5
11B33
100
AcDbEntity
  8
0
100
AcDbLine
 10
383.815614
 20
705.538404
 30
0.0
 11
384.815614
 21
704.538404
 31
0.0
  0
LINE
  5
11B34
100
AcDbEntity
  8
0
100
AcDbLine
 10
427.815614
 20
704.538404
 30
0.0
 11
428.815614
 21
705.538404
 31
0.0
  0
LINE
  5
11B35
100
AcDbEntity
  8
0
100
AcDbLine
 10
387.089117
 20
734.538404
 30
0.0
 11
425.542111
 21
734.538404
 31
0.0
  0
ARC
  5
11B36
100
AcDbEntity
  8
0
100
AcDbCircle
 10
378.065614
 20
749.979725
 30
0.0
 40
10.442321
100
AcDbArc
 50
245.983629
 51
294.016371
  0
LINE
  5
11B37
100
AcDbEntity
  8
0
100
AcDbLine
 10
382.315614
 20
739.537404
 30
0.0
 11
365.315614
 21
739.537404
 31
0.0
  0
ARC
  5
11B38
100
AcDbEntity
  8
0
100
AcDbCircle
 10
369.565614
 20
749.979725
 30
0.0
 40
10.442321
100
AcDbArc
 50
245.983629
 51
294.016371
  0
LINE
  5
11B39
100
AcDbEntity
  8
0
100
AcDbLine
 10
365.315614
 20
739.537404
 30
0.0
 11
365.315614
 21
746.538404
 31
0.0
  0
LINE
  5
11B3A
100
AcDbEntity
  8
0
100
AcDbLine
 10
373.815614
 20
740.441404
 30
0.0
 11
373.815614
 21
746.538404
 31
0.0
  0
LINE
  5
11B3B
100
AcDbEntity
  8
0
100
AcDbLine
 10
382.315614
 20
739.537404
 30
0.0
 11
382.315614
 21
746.538404
 31
0.0
  0
ARC
  5
11B3C
100
AcDbEntity
  8
0
100
AcDbCircle
 10
387.089117
 20
744.538404
 30
0.0
 40
10.0
100
AcDbArc
 50
210.0
 51
270.0
  0
LINE
  5
11B3D
100
AcDbEntity
  8
0
100
AcDbLine
 10
387.315614
 20
726.538404
 30
0.0
 11
387.315614
 21
734.538404
 31
0.0
  0
LINE
  5
11B3E
100
AcDbEntity
  8
0
100
AcDbLine
 10
369.627614
 20
784.538404
 30
0.0
 11
378.003614
 21
784.538404
 31
0.0
  0
LINE
  5
11B3F
100
AcDbEntity
  8
0
100
AcDbLine
 10
368.815614
 20
780.538404
 30
0.0
 11
368.815614
 21
783.726404
 31
0.0
  0
LINE
  5
11B40
100
AcDbEntity
  8
0
100
AcDbLine
 10
368.815614
 20
783.726404
 30
0.0
 11
369.627614
 21
784.538404
 31
0.0
  0
LINE
  5
11B41
100
AcDbEntity
  8
0
100
AcDbLine
 10
378.815614
 20
783.726404
 30
0.0
 11
378.815614
 21
780.538404
 31
0.0
  0
LINE
  5
11B42
100
AcDbEntity
  8
0
100
AcDbLine
 10
378.003614
 20
784.538404
 30
0.0
 11
378.815614
 21
783.726404
 31
0.0
  0
LINE
  5
11B43
100
AcDbEntity
  8
0
100
AcDbLine
 10
430.315614
 20
739.537404
 30
0.0
 11
430.315614
 21
746.538404
 31
0.0
  0
LINE
  5
11B44
100
AcDbEntity
  8
0
100
AcDbLine
 10
438.815614
 20
740.441404
 30
0.0
 11
438.815614
 21
746.538404
 31
0.0
  0
ARC
  5
11B45
100
AcDbEntity
  8
0
100
AcDbCircle
 10
434.565614
 20
749.979725
 30
0.0
 40
10.442321
100
AcDbArc
 50
245.983629
 51
294.016371
  0
ARC
  5
11B46
100
AcDbEntity
  8
0
100
AcDbCircle
 10
425.542111
 20
744.538404
 30
0.0
 40
10.0
100
AcDbArc
 50
270.0
 51
330.0
  0
LINE
  5
11B47
100
AcDbEntity
  8
0
100
AcDbLine
 10
425.315614
 20
726.538404
 30
0.0
 11
425.315614
 21
734.538404
 31
0.0
  0
LINE
  5
11B48
100
AcDbEntity
  8
0
100
AcDbLine
 10
443.815614
 20
780.538404
 30
0.0
 11
443.815614
 21
783.726404
 31
0.0
  0
LINE
  5
11B49
100
AcDbEntity
  8
0
100
AcDbLine
 10
433.815614
 20
783.726404
 30
0.0
 11
433.815614
 21
780.538404
 31
0.0
  0
LINE
  5
11B4A
100
AcDbEntity
  8
0
100
AcDbLine
 10
434.627614
 20
784.538404
 30
0.0
 11
433.815614
 21
783.726404
 31
0.0
  0
LINE
  5
11B4B
100
AcDbEntity
  8
0
100
AcDbLine
 10
443.003614
 20
784.538404
 30
0.0
 11
434.627614
 21
784.538404
 31
0.0
  0
LINE
  5
11B4C
100
AcDbEntity
  8
0
100
AcDbLine
 10
443.815614
 20
783.726404
 30
0.0
 11
443.003614
 21
784.538404
 31
0.0
  0
LINE
  5
11B4D
100
AcDbEntity
  8
0
100
AcDbLine
 10
328.315614
 20
878.038404
 30
0.0
 11
328.315614
 21
845.038404
 31
0.0
  0
ARC
  5
11B4E
100
AcDbEntity
  8
0
100
AcDbCircle
 10
345.565614
 20
848.479725
 30
0.0
 40
10.442321
100
AcDbArc
 50
245.983629
 51
294.016371
  0
LINE
  5
11B4F
100
AcDbEntity
  8
0
100
AcDbLine
 10
349.815614
 20
838.037404
 30
0.0
 11
332.815614
 21
838.037404
 31
0.0
  0
ARC
  5
11B50
100
AcDbEntity
  8
0
100
AcDbCircle
 10
337.065614
 20
848.479725
 30
0.0
 40
10.442321
100
AcDbArc
 50
245.983629
 51
294.016371
  0
LINE
  5
11B51
100
AcDbEntity
  8
0
100
AcDbLine
 10
332.815614
 20
838.037404
 30
0.0
 11
332.815614
 21
845.038404
 31
0.0
  0
LINE
  5
11B52
100
AcDbEntity
  8
0
100
AcDbLine
 10
341.315614
 20
838.941404
 30
0.0
 11
341.315614
 21
845.038404
 31
0.0
  0
LINE
  5
11B53
100
AcDbEntity
  8
0
100
AcDbLine
 10
349.815614
 20
838.037404
 30
0.0
 11
349.815614
 21
845.038404
 31
0.0
  0
LINE
  5
11B54
100
AcDbEntity
  8
0
100
AcDbLine
 10
361.013513
 20
830.038404
 30
0.0
 11
360.02896
 21
801.844495
 31
0.0
  0
LINE
  5
11B55
100
AcDbEntity
  8
0
100
AcDbLine
 10
382.315614
 20
838.037404
 30
0.0
 11
365.315614
 21
838.037404
 31
0.0
  0
ARC
  5
11B56
100
AcDbEntity
  8
0
100
AcDbCircle
 10
378.065614
 20
848.479725
 30
0.0
 40
10.442321
100
AcDbArc
 50
245.983629
 51
294.016371
  0
LINE
  5
11B57
100
AcDbEntity
  8
0
100
AcDbLine
 10
373.815614
 20
838.941404
 30
0.0
 11
373.815614
 21
845.038404
 31
0.0
  0
LINE
  5
11B58
100
AcDbEntity
  8
0
100
AcDbLine
 10
365.315614
 20
838.037404
 30
0.0
 11
365.315614
 21
845.038404
 31
0.0
  0
ARC
  5
11B59
100
AcDbEntity
  8
0
100
AcDbCircle
 10
369.565614
 20
848.479725
 30
0.0
 40
10.442321
100
AcDbArc
 50
245.983629
 51
294.016371
  0
LINE
  5
11B5A
100
AcDbEntity
  8
0
100
AcDbLine
 10
361.013513
 20
830.038404
 30
0.0
 11
359.918385
 21
839.713255
 31
0.0
  0
ARC
  5
11B5B
100
AcDbEntity
  8
0
100
AcDbCircle
 10
353.956458
 20
839.038404
 30
0.0
 40
6.0
100
AcDbArc
 50
6.458011
 51
90.0
  0
LINE
  5
11B5C
100
AcDbEntity
  8
0
100
AcDbLine
 10
382.315614
 20
838.037404
 30
0.0
 11
382.315614
 21
845.038404
 31
0.0
  0
ARC
  5
11B5D
100
AcDbEntity
  8
0
100
AcDbCircle
 10
434.565614
 20
848.479725
 30
0.0
 40
10.442321
100
AcDbArc
 50
245.983629
 51
294.016371
  0
LINE
  5
11B5E
100
AcDbEntity
  8
0
100
AcDbLine
 10
438.815614
 20
838.941404
 30
0.0
 11
438.815614
 21
845.038404
 31
0.0
  0
LINE
  5
11B5F
100
AcDbEntity
  8
0
100
AcDbLine
 10
430.315614
 20
838.037404
 30
0.0
 11
430.315614
 21
845.038404
 31
0.0
  0
LINE
  5
11B60
100
AcDbEntity
  8
0
100
AcDbLine
 10
452.602267
 20
801.844495
 30
0.0
 11
457.119624
 21
784.98549
 31
0.0
  0
LINE
  5
11B61
100
AcDbEntity
  8
0
100
AcDbLine
 10
484.315614
 20
746.538404
 30
0.0
 11
484.315614
 21
780.538404
 31
0.0
  0
ARC
  5
11B62
100
AcDbEntity
  8
0
100
AcDbCircle
 10
467.065614
 20
749.979725
 30
0.0
 40
10.442321
100
AcDbArc
 50
245.983629
 51
294.016371
  0
LINE
  5
11B63
100
AcDbEntity
  8
0
100
AcDbLine
 10
462.815614
 20
739.537404
 30
0.0
 11
479.815614
 21
739.537404
 31
0.0
  0
LINE
  5
11B64
100
AcDbEntity
  8
0
100
AcDbLine
 10
447.315614
 20
739.537404
 30
0.0
 11
447.315614
 21
746.538404
 31
0.0
  0
LINE
  5
11B65
100
AcDbEntity
  8
0
100
AcDbLine
 10
462.815614
 20
739.537404
 30
0.0
 11
462.815614
 21
746.538404
 31
0.0
  0
ARC
  5
11B66
100
AcDbEntity
  8
0
100
AcDbCircle
 10
475.565614
 20
749.979725
 30
0.0
 40
10.442321
100
AcDbArc
 50
245.983629
 51
294.016371
  0
LINE
  5
11B67
100
AcDbEntity
  8
0
100
AcDbLine
 10
479.815614
 20
739.537404
 30
0.0
 11
479.815614
 21
746.538404
 31
0.0
  0
LINE
  5
11B68
100
AcDbEntity
  8
0
100
AcDbLine
 10
471.315614
 20
740.441404
 30
0.0
 11
471.315614
 21
746.538404
 31
0.0
  0
LINE
  5
11B69
100
AcDbEntity
  8
0
100
AcDbLine
 10
475.503614
 20
784.538404
 30
0.0
 11
467.127614
 21
784.538404
 31
0.0
  0
LINE
  5
11B6A
100
AcDbEntity
  8
0
100
AcDbLine
 10
466.315614
 20
783.726404
 30
0.0
 11
466.315614
 21
780.538404
 31
0.0
  0
LINE
  5
11B6B
100
AcDbEntity
  8
0
100
AcDbLine
 10
467.127614
 20
784.538404
 30
0.0
 11
466.315614
 21
783.726404
 31
0.0
  0
ARC
  5
11B6C
100
AcDbEntity
  8
0
100
AcDbCircle
 10
462.915179
 20
786.538404
 30
0.0
 40
6.0
100
AcDbArc
 50
195.0
 51
270.0
  0
LINE
  5
11B6D
100
AcDbEntity
  8
0
100
AcDbLine
 10
476.315614
 20
780.538404
 30
0.0
 11
476.315614
 21
783.726404
 31
0.0
  0
LINE
  5
11B6E
100
AcDbEntity
  8
0
100
AcDbLine
 10
476.315614
 20
783.726404
 30
0.0
 11
475.503614
 21
784.538404
 31
0.0
  0
LINE
  5
11B6F
100
AcDbEntity
  8
0
100
AcDbLine
 10
484.315614
 20
878.038404
 30
0.0
 11
484.315614
 21
845.038404
 31
0.0
  0
LINE
  5
11B70
100
AcDbEntity
  8
0
100
AcDbLine
 10
451.617714
 20
830.038404
 30
0.0
 11
452.602267
 21
801.844495
 31
0.0
  0
LINE
  5
11B71
100
AcDbEntity
  8
0
100
AcDbLine
 10
462.815614
 20
838.037404
 30
0.0
 11
479.815614
 21
838.037404
 31
0.0
  0
ARC
  5
11B72
100
AcDbEntity
  8
0
100
AcDbCircle
 10
467.065614
 20
848.479725
 30
0.0
 40
10.442321
100
AcDbArc
 50
245.983629
 51
294.016371
  0
LINE
  5
11B73
100
AcDbEntity
  8
0
100
AcDbLine
 10
462.815614
 20
838.037404
 30
0.0
 11
462.815614
 21
845.038404
 31
0.0
  0
LINE
  5
11B74
100
AcDbEntity
  8
0
100
AcDbLine
 10
447.315614
 20
838.037404
 30
0.0
 11
447.315614
 21
845.038404
 31
0.0
  0
LINE
  5
11B75
100
AcDbEntity
  8
0
100
AcDbLine
 10
451.617714
 20
830.038404
 30
0.0
 11
452.712842
 21
839.713255
 31
0.0
  0
ARC
  5
11B76
100
AcDbEntity
  8
0
100
AcDbCircle
 10
458.67477
 20
839.038404
 30
0.0
 40
6.0
100
AcDbArc
 50
90.0
 51
173.541989
  0
LINE
  5
11B77
100
AcDbEntity
  8
0
100
AcDbLine
 10
471.315614
 20
838.941404
 30
0.0
 11
471.315614
 21
845.038404
 31
0.0
  0
LINE
  5
11B78
100
AcDbEntity
  8
0
100
AcDbLine
 10
479.815614
 20
838.037404
 30
0.0
 11
479.815614
 21
845.038404
 31
0.0
  0
ARC
  5
11B79
100
AcDbEntity
  8
0
100
AcDbCircle
 10
475.565614
 20
848.479725
 30
0.0
 40
10.442321
100
AcDbArc
 50
245.983629
 51
294.016371
  0
LINE
  5
11B91
100
AcDbEntity
  8
0
100
AcDbLine
 10
343.315614
 20
904.538404
 30
0.0
 11
343.315614
 21
942.538404
 31
0.0
  0
LINE
  5
11B94
100
AcDbEntity
  8
0
100
AcDbLine
 10
469.315614
 20
904.538404
 30
0.0
 11
469.315614
 21
942.538404
 31
0.0
  0
ARC
  5
11BE4
100
AcDbEntity
  8
0
100
AcDbCircle
 10
333.614729
 20
923.538404
 30
0.0
 40
33.540028
100
AcDbArc
 50
330.483041
 51
10.121044
  0
LINE
  5
11BE5
100
AcDbEntity
  8
0
100
AcDbLine
 10
359.071567
 20
904.538404
 30
0.0
 11
343.315614
 21
904.538404
 31
0.0
  0
ARC
  5
11BE6
100
AcDbEntity
  8
0
100
AcDbCircle
 10
359.071567
 20
901.538404
 30
0.0
 40
3.0
100
AcDbArc
 50
0.0
 51
90.0
  0
LINE
  5
11BE7
100
AcDbEntity
  8
0
100
AcDbLine
 10
359.071567
 20
942.538404
 30
0.0
 11
343.315614
 21
942.538404
 31
0.0
  0
LINE
  5
11BE8
100
AcDbEntity
  8
0
100
AcDbLine
 10
357.315614
 20
949.538404
 30
0.0
 11
357.315614
 21
942.538404
 31
0.0
  0
ARC
  5
11BE9
100
AcDbEntity
  8
0
100
AcDbCircle
 10
359.071567
 20
945.538404
 30
0.0
 40
3.0
100
AcDbArc
 50
270.0
 51
298.958838
  0
LINE
  5
11BEA
100
AcDbEntity
  8
0
100
AcDbLine
 10
452.315614
 20
893.038404
 30
0.0
 11
360.315614
 21
893.038404
 31
0.0
  0
ARC
  5
11BEB
100
AcDbEntity
  8
0
100
AcDbCircle
 10
350.242501
 20
882.038404
 30
0.0
 40
4.0
100
AcDbArc
 50
270.0
 51
345.068583
  0
LINE
  5
11BEC
100
AcDbEntity
  8
0
100
AcDbLine
 10
345.503614
 20
882.038404
 30
0.0
 11
346.315614
 21
881.226404
 31
0.0
  0
LINE
  5
11BED
100
AcDbEntity
  8
0
100
AcDbLine
 10
337.127614
 20
882.038404
 30
0.0
 11
345.503614
 21
882.038404
 31
0.0
  0
LINE
  5
11BEE
100
AcDbEntity
  8
0
100
AcDbLine
 10
336.315614
 20
881.226404
 30
0.0
 11
337.127614
 21
882.038404
 31
0.0
  0
LINE
  5
11BEF
100
AcDbEntity
  8
0
100
AcDbLine
 10
336.315614
 20
878.038404
 30
0.0
 11
336.315614
 21
881.226404
 31
0.0
  0
LINE
  5
11BF0
100
AcDbEntity
  8
0
100
AcDbLine
 10
346.315614
 20
881.226404
 30
0.0
 11
346.315614
 21
878.038404
 31
0.0
  0
LINE
  5
11BF1
100
AcDbEntity
  8
0
100
AcDbLine
 10
357.315614
 20
893.038404
 30
0.0
 11
354.10744
 21
881.007754
 31
0.0
  0
LINE
  5
11BF2
100
AcDbEntity
  8
0
100
AcDbLine
 10
369.627614
 20
882.038404
 30
0.0
 11
378.003614
 21
882.038404
 31
0.0
  0
LINE
  5
11BF3
100
AcDbEntity
  8
0
100
AcDbLine
 10
368.815614
 20
878.038404
 30
0.0
 11
368.815614
 21
881.226404
 31
0.0
  0
LINE
  5
11BF4
100
AcDbEntity
  8
0
100
AcDbLine
 10
368.815614
 20
881.226404
 30
0.0
 11
369.627614
 21
882.038404
 31
0.0
  0
LINE
  5
11BF5
100
AcDbEntity
  8
0
100
AcDbLine
 10
378.815614
 20
881.226404
 30
0.0
 11
378.815614
 21
878.038404
 31
0.0
  0
LINE
  5
11BF6
100
AcDbEntity
  8
0
100
AcDbLine
 10
378.003614
 20
882.038404
 30
0.0
 11
378.815614
 21
881.226404
 31
0.0
  0
LINE
  5
11BF7
100
AcDbEntity
  8
0
100
AcDbLine
 10
357.315614
 20
893.038404
 30
0.0
 11
357.315614
 21
904.538404
 31
0.0
  0
LINE
  5
11BF8
100
AcDbEntity
  8
0
100
AcDbLine
 10
434.627614
 20
882.038404
 30
0.0
 11
433.815614
 21
881.226404
 31
0.0
  0
LINE
  5
11BF9
100
AcDbEntity
  8
0
100
AcDbLine
 10
443.003614
 20
882.038404
 30
0.0
 11
434.627614
 21
882.038404
 31
0.0
  0
LINE
  5
11BFA
100
AcDbEntity
  8
0
100
AcDbLine
 10
443.815614
 20
881.226404
 30
0.0
 11
443.003614
 21
882.038404
 31
0.0
  0
LINE
  5
11BFB
100
AcDbEntity
  8
0
100
AcDbLine
 10
443.815614
 20
878.038404
 30
0.0
 11
443.815614
 21
881.226404
 31
0.0
  0
LINE
  5
11BFC
100
AcDbEntity
  8
0
100
AcDbLine
 10
433.815614
 20
881.226404
 30
0.0
 11
433.815614
 21
878.038404
 31
0.0
  0
LINE
  5
11BFD
100
AcDbEntity
  8
0
100
AcDbLine
 10
455.315614
 20
893.038404
 30
0.0
 11
458.523787
 21
881.007754
 31
0.0
  0
LINE
  5
11BFE
100
AcDbEntity
  8
0
100
AcDbLine
 10
475.503614
 20
882.038404
 30
0.0
 11
467.127614
 21
882.038404
 31
0.0
  0
ARC
  5
11BFF
100
AcDbEntity
  8
0
100
AcDbCircle
 10
462.388727
 20
882.038404
 30
0.0
 40
4.0
100
AcDbArc
 50
194.931417
 51
270.0
  0
LINE
  5
11C00
100
AcDbEntity
  8
0
100
AcDbLine
 10
467.127614
 20
882.038404
 30
0.0
 11
466.315614
 21
881.226404
 31
0.0
  0
LINE
  5
11C01
100
AcDbEntity
  8
0
100
AcDbLine
 10
466.315614
 20
881.226404
 30
0.0
 11
466.315614
 21
878.038404
 31
0.0
  0
LINE
  5
11C02
100
AcDbEntity
  8
0
100
AcDbLine
 10
476.315614
 20
881.226404
 30
0.0
 11
475.503614
 21
882.038404
 31
0.0
  0
LINE
  5
11C03
100
AcDbEntity
  8
0
100
AcDbLine
 10
476.315614
 20
878.038404
 30
0.0
 11
476.315614
 21
881.226404
 31
0.0
  0
LINE
  5
11C04
100
AcDbEntity
  8
0
100
AcDbLine
 10
453.559661
 20
904.538404
 30
0.0
 11
469.315614
 21
904.538404
 31
0.0
  0
LINE
  5
11C05
100
AcDbEntity
  8
0
100
AcDbLine
 10
455.315614
 20
893.038404
 30
0.0
 11
455.315614
 21
904.538404
 31
0.0
  0
ARC
  5
11C06
100
AcDbEntity
  8
0
100
AcDbCircle
 10
453.559661
 20
901.538404
 30
0.0
 40
3.0
100
AcDbArc
 50
90.0
 51
180.0
  0
ARC
  5
11C07
100
AcDbEntity
  8
0
100
AcDbCircle
 10
479.016498
 20
923.538404
 30
0.0
 40
33.540028
100
AcDbArc
 50
169.878956
 51
209.516959
  0
LINE
  5
11C09
100
AcDbEntity
  8
0
100
AcDbLine
 10
453.559661
 20
942.538404
 30
0.0
 11
469.315614
 21
942.538404
 31
0.0
  0
ARC
  5
11C0A
100
AcDbEntity
  8
0
100
AcDbCircle
 10
453.559661
 20
945.538404
 30
0.0
 40
3.0
100
AcDbArc
 50
241.041162
 51
270.0
  0
ARC
  5
11C0B
100
AcDbEntity
  8
0
100
AcDbCircle
 10
439.315614
 20
949.538404
 30
0.0
 40
16.0
100
AcDbArc
 50
0.0
 51
25.061685
  0
LINE
  5
11C0C
100
AcDbEntity
  8
0
100
AcDbLine
 10
455.315614
 20
949.538404
 30
0.0
 11
455.315614
 21
942.538404
 31
0.0
  0
ARC
  5
11C0D
100
AcDbEntity
  8
0
100
AcDbCircle
 10
373.315614
 20
949.538404
 30
0.0
 40
16.0
100
AcDbArc
 50
154.938315
 51
180.0
  0
LINE
  5
11C75
100
AcDbEntity
  8
0
100
AcDbLine
 10
1030.267366
 20
780.538404
 30
0.0
 11
1186.267366
 21
780.538404
 31
0.0
  0
LINE
  5
11C76
100
AcDbEntity
  8
0
100
AcDbLine
 10
1030.267366
 20
845.038404
 30
0.0
 11
1186.267366
 21
845.038404
 31
0.0
  0
LINE
  5
11C77
100
AcDbEntity
  8
0
100
AcDbLine
 10
1030.267366
 20
763.538404
 30
0.0
 11
1186.267366
 21
763.538404
 31
0.0
  0
LINE
  5
11C78
100
AcDbEntity
  8
0
100
AcDbLine
 10
1129.767366
 20
704.538404
 30
0.0
 11
1086.767366
 21
704.538404
 31
0.0
  0
LINE
  5
11C79
100
AcDbEntity
  8
0
100
AcDbLine
 10
1186.267366
 20
746.538404
 30
0.0
 11
1030.267366
 21
746.538404
 31
0.0
  0
LINE
  5
11C7A
100
AcDbEntity
  8
0
100
AcDbLine
 10
1061.980713
 20
801.844495
 30
0.0
 11
1057.463356
 21
784.98549
 31
0.0
  0
LINE
  5
11C7B
100
AcDbEntity
  8
0
100
AcDbLine
 10
1085.767366
 20
705.538404
 30
0.0
 11
1085.767366
 21
742.538404
 31
0.0
  0
LINE
  5
11C7C
100
AcDbEntity
  8
0
100
AcDbLine
 10
1085.767366
 20
705.538404
 30
0.0
 11
1086.767366
 21
704.538404
 31
0.0
  0
LINE
  5
11C7D
100
AcDbEntity
  8
0
100
AcDbLine
 10
1051.767366
 20
739.537404
 30
0.0
 11
1034.767366
 21
739.537404
 31
0.0
  0
ARC
  5
11C7E
100
AcDbEntity
  8
0
100
AcDbCircle
 10
1039.017366
 20
749.979725
 30
0.0
 40
10.442321
100
AcDbArc
 50
245.983629
 51
294.016371
  0
LINE
  5
11C7F
100
AcDbEntity
  8
0
100
AcDbLine
 10
1039.079366
 20
784.538404
 30
0.0
 11
1047.455366
 21
784.538404
 31
0.0
  0
LINE
  5
11C80
100
AcDbEntity
  8
0
100
AcDbLine
 10
1030.267366
 20
746.538404
 30
0.0
 11
1030.267366
 21
780.538404
 31
0.0
  0
LINE
  5
11C81
100
AcDbEntity
  8
0
100
AcDbLine
 10
1034.767366
 20
739.537404
 30
0.0
 11
1034.767366
 21
746.538404
 31
0.0
  0
LINE
  5
11C82
100
AcDbEntity
  8
0
100
AcDbLine
 10
1038.267366
 20
780.538404
 30
0.0
 11
1038.267366
 21
783.726404
 31
0.0
  0
LINE
  5
11C83
100
AcDbEntity
  8
0
100
AcDbLine
 10
1038.267366
 20
783.726404
 30
0.0
 11
1039.079366
 21
784.538404
 31
0.0
  0
ARC
  5
11C84
100
AcDbEntity
  8
0
100
AcDbCircle
 10
1047.517366
 20
749.979725
 30
0.0
 40
10.442321
100
AcDbArc
 50
245.983629
 51
294.016371
  0
LINE
  5
11C85
100
AcDbEntity
  8
0
100
AcDbLine
 10
1043.267366
 20
740.441404
 30
0.0
 11
1043.267366
 21
746.538404
 31
0.0
  0
LINE
  5
11C86
100
AcDbEntity
  8
0
100
AcDbLine
 10
1051.767366
 20
739.537404
 30
0.0
 11
1051.767366
 21
746.538404
 31
0.0
  0
ARC
  5
11C87
100
AcDbEntity
  8
0
100
AcDbCircle
 10
1081.767366
 20
742.538404
 30
0.0
 40
4.0
100
AcDbArc
 50
0.0
 51
51.317813
  0
LINE
  5
11C88
100
AcDbEntity
  8
0
100
AcDbLine
 10
1084.267366
 20
739.537404
 30
0.0
 11
1084.267366
 21
746.538404
 31
0.0
  0
LINE
  5
11C89
100
AcDbEntity
  8
0
100
AcDbLine
 10
1075.767366
 20
740.441404
 30
0.0
 11
1075.767366
 21
746.538404
 31
0.0
  0
LINE
  5
11C8A
100
AcDbEntity
  8
0
100
AcDbLine
 10
1067.267366
 20
739.537404
 30
0.0
 11
1067.267366
 21
746.538404
 31
0.0
  0
ARC
  5
11C8B
100
AcDbEntity
  8
0
100
AcDbCircle
 10
1071.517366
 20
749.979725
 30
0.0
 40
10.442321
100
AcDbArc
 50
245.983629
 51
294.016371
  0
LINE
  5
11C8C
100
AcDbEntity
  8
0
100
AcDbLine
 10
1084.267366
 20
739.537404
 30
0.0
 11
1067.267366
 21
739.537404
 31
0.0
  0
ARC
  5
11C8D
100
AcDbEntity
  8
0
100
AcDbCircle
 10
1080.017366
 20
749.979725
 30
0.0
 40
10.442321
100
AcDbArc
 50
245.983629
 51
294.016371
  0
LINE
  5
11C8E
100
AcDbEntity
  8
0
100
AcDbLine
 10
1048.267366
 20
783.726404
 30
0.0
 11
1048.267366
 21
780.538404
 31
0.0
  0
LINE
  5
11C8F
100
AcDbEntity
  8
0
100
AcDbLine
 10
1047.455366
 20
784.538404
 30
0.0
 11
1048.267366
 21
783.726404
 31
0.0
  0
ARC
  5
11C90
100
AcDbEntity
  8
0
100
AcDbCircle
 10
1051.667801
 20
786.538404
 30
0.0
 40
6.0
100
AcDbArc
 50
270.0
 51
345.0
  0
LINE
  5
11C91
100
AcDbEntity
  8
0
100
AcDbLine
 10
1070.767366
 20
780.538404
 30
0.0
 11
1070.767366
 21
783.726404
 31
0.0
  0
LINE
  5
11C92
100
AcDbEntity
  8
0
100
AcDbLine
 10
1080.767366
 20
783.726404
 30
0.0
 11
1080.767366
 21
780.538404
 31
0.0
  0
LINE
  5
11C93
100
AcDbEntity
  8
0
100
AcDbLine
 10
1079.955366
 20
784.538404
 30
0.0
 11
1080.767366
 21
783.726404
 31
0.0
  0
LINE
  5
11C94
100
AcDbEntity
  8
0
100
AcDbLine
 10
1071.579366
 20
784.538404
 30
0.0
 11
1079.955366
 21
784.538404
 31
0.0
  0
LINE
  5
11C95
100
AcDbEntity
  8
0
100
AcDbLine
 10
1070.767366
 20
783.726404
 30
0.0
 11
1071.579366
 21
784.538404
 31
0.0
  0
LINE
  5
11C96
100
AcDbEntity
  8
0
100
AcDbLine
 10
1030.267366
 20
878.038404
 30
0.0
 11
1030.267366
 21
845.038404
 31
0.0
  0
ARC
  5
11C97
100
AcDbEntity
  8
0
100
AcDbCircle
 10
1039.017366
 20
848.479725
 30
0.0
 40
10.442321
100
AcDbArc
 50
245.983629
 51
294.016371
  0
LINE
  5
11C98
100
AcDbEntity
  8
0
100
AcDbLine
 10
1051.767366
 20
838.037404
 30
0.0
 11
1034.767366
 21
838.037404
 31
0.0
  0
LINE
  5
11C99
100
AcDbEntity
  8
0
100
AcDbLine
 10
1034.767366
 20
838.037404
 30
0.0
 11
1034.767366
 21
845.038404
 31
0.0
  0
LINE
  5
11C9A
100
AcDbEntity
  8
0
100
AcDbLine
 10
1062.965266
 20
830.038404
 30
0.0
 11
1061.980713
 21
801.844495
 31
0.0
  0
LINE
  5
11C9B
100
AcDbEntity
  8
0
100
AcDbLine
 10
1051.767366
 20
838.037404
 30
0.0
 11
1051.767366
 21
845.038404
 31
0.0
  0
LINE
  5
11C9C
100
AcDbEntity
  8
0
100
AcDbLine
 10
1043.267366
 20
838.941404
 30
0.0
 11
1043.267366
 21
845.038404
 31
0.0
  0
ARC
  5
11C9D
100
AcDbEntity
  8
0
100
AcDbCircle
 10
1047.517366
 20
848.479725
 30
0.0
 40
10.442321
100
AcDbArc
 50
245.983629
 51
294.016371
  0
LINE
  5
11C9E
100
AcDbEntity
  8
0
100
AcDbLine
 10
1062.965266
 20
830.038404
 30
0.0
 11
1061.870137
 21
839.713255
 31
0.0
  0
ARC
  5
11C9F
100
AcDbEntity
  8
0
100
AcDbCircle
 10
1055.90821
 20
839.038404
 30
0.0
 40
6.0
100
AcDbArc
 50
6.458011
 51
90.0
  0
ARC
  5
11CA0
100
AcDbEntity
  8
0
100
AcDbCircle
 10
1071.517366
 20
848.479725
 30
0.0
 40
10.442321
100
AcDbArc
 50
245.983629
 51
294.016371
  0
LINE
  5
11CA1
100
AcDbEntity
  8
0
100
AcDbLine
 10
1067.267366
 20
838.037404
 30
0.0
 11
1067.267366
 21
845.038404
 31
0.0
  0
LINE
  5
11CA2
100
AcDbEntity
  8
0
100
AcDbLine
 10
1084.267366
 20
838.037404
 30
0.0
 11
1067.267366
 21
838.037404
 31
0.0
  0
LINE
  5
11CA3
100
AcDbEntity
  8
0
100
AcDbLine
 10
1084.267366
 20
838.037404
 30
0.0
 11
1084.267366
 21
845.038404
 31
0.0
  0
LINE
  5
11CA4
100
AcDbEntity
  8
0
100
AcDbLine
 10
1075.767366
 20
838.941404
 30
0.0
 11
1075.767366
 21
845.038404
 31
0.0
  0
ARC
  5
11CA5
100
AcDbEntity
  8
0
100
AcDbCircle
 10
1080.017366
 20
848.479725
 30
0.0
 40
10.442321
100
AcDbArc
 50
245.983629
 51
294.016371
  0
LINE
  5
11CA6
100
AcDbEntity
  8
0
100
AcDbLine
 10
1154.55402
 20
801.844495
 30
0.0
 11
1159.071376
 21
784.98549
 31
0.0
  0
ARC
  5
11CA7
100
AcDbEntity
  8
0
100
AcDbCircle
 10
1177.517366
 20
749.979725
 30
0.0
 40
10.442321
100
AcDbArc
 50
245.983629
 51
294.016371
  0
LINE
  5
11CA8
100
AcDbEntity
  8
0
100
AcDbLine
 10
1164.767366
 20
739.537404
 30
0.0
 11
1181.767366
 21
739.537404
 31
0.0
  0
LINE
  5
11CA9
100
AcDbEntity
  8
0
100
AcDbLine
 10
1130.767366
 20
705.538404
 30
0.0
 11
1130.767366
 21
742.538404
 31
0.0
  0
LINE
  5
11CAA
100
AcDbEntity
  8
0
100
AcDbLine
 10
1129.767366
 20
704.538404
 30
0.0
 11
1130.767366
 21
705.538404
 31
0.0
  0
ARC
  5
11CAB
100
AcDbEntity
  8
0
100
AcDbCircle
 10
1136.517366
 20
749.979725
 30
0.0
 40
10.442321
100
AcDbArc
 50
245.983629
 51
294.016371
  0
LINE
  5
11CAC
100
AcDbEntity
  8
0
100
AcDbLine
 10
1132.267366
 20
739.537404
 30
0.0
 11
1149.267366
 21
739.537404
 31
0.0
  0
LINE
  5
11CAD
100
AcDbEntity
  8
0
100
AcDbLine
 10
1132.267366
 20
739.537404
 30
0.0
 11
1132.267366
 21
746.538404
 31
0.0
  0
ARC
  5
11CAE
100
AcDbEntity
  8
0
100
AcDbCircle
 10
1134.767366
 20
742.538404
 30
0.0
 40
4.0
100
AcDbArc
 50
128.682187
 51
180.0
  0
LINE
  5
11CAF
100
AcDbEntity
  8
0
100
AcDbLine
 10
1149.267366
 20
739.537404
 30
0.0
 11
1149.267366
 21
746.538404
 31
0.0
  0
LINE
  5
11CB0
100
AcDbEntity
  8
0
100
AcDbLine
 10
1140.767366
 20
740.441404
 30
0.0
 11
1140.767366
 21
746.538404
 31
0.0
  0
ARC
  5
11CB1
100
AcDbEntity
  8
0
100
AcDbCircle
 10
1145.017366
 20
749.979725
 30
0.0
 40
10.442321
100
AcDbArc
 50
245.983629
 51
294.016371
  0
LINE
  5
11CB2
100
AcDbEntity
  8
0
100
AcDbLine
 10
1173.267366
 20
740.441404
 30
0.0
 11
1173.267366
 21
746.538404
 31
0.0
  0
LINE
  5
11CB3
100
AcDbEntity
  8
0
100
AcDbLine
 10
1164.767366
 20
739.537404
 30
0.0
 11
1164.767366
 21
746.538404
 31
0.0
  0
ARC
  5
11CB4
100
AcDbEntity
  8
0
100
AcDbCircle
 10
1169.017366
 20
749.979725
 30
0.0
 40
10.442321
100
AcDbArc
 50
245.983629
 51
294.016371
  0
LINE
  5
11CB5
100
AcDbEntity
  8
0
100
AcDbLine
 10
1135.767366
 20
783.726404
 30
0.0
 11
1135.767366
 21
780.538404
 31
0.0
  0
LINE
  5
11CB6
100
AcDbEntity
  8
0
100
AcDbLine
 10
1145.767366
 20
780.538404
 30
0.0
 11
1145.767366
 21
783.726404
 31
0.0
  0
LINE
  5
11CB7
100
AcDbEntity
  8
0
100
AcDbLine
 10
1144.955366
 20
784.538404
 30
0.0
 11
1136.579366
 21
784.538404
 31
0.0
  0
LINE
  5
11CB8
100
AcDbEntity
  8
0
100
AcDbLine
 10
1145.767366
 20
783.726404
 30
0.0
 11
1144.955366
 21
784.538404
 31
0.0
  0
LINE
  5
11CB9
100
AcDbEntity
  8
0
100
AcDbLine
 10
1136.579366
 20
784.538404
 30
0.0
 11
1135.767366
 21
783.726404
 31
0.0
  0
LINE
  5
11CBA
100
AcDbEntity
  8
0
100
AcDbLine
 10
1178.267366
 20
780.538404
 30
0.0
 11
1178.267366
 21
783.726404
 31
0.0
  0
LINE
  5
11CBB
100
AcDbEntity
  8
0
100
AcDbLine
 10
1168.267366
 20
783.726404
 30
0.0
 11
1168.267366
 21
780.538404
 31
0.0
  0
LINE
  5
11CBC
100
AcDbEntity
  8
0
100
AcDbLine
 10
1169.079366
 20
784.538404
 30
0.0
 11
1168.267366
 21
783.726404
 31
0.0
  0
LINE
  5
11CBD
100
AcDbEntity
  8
0
100
AcDbLine
 10
1177.455366
 20
784.538404
 30
0.0
 11
1169.079366
 21
784.538404
 31
0.0
  0
LINE
  5
11CBE
100
AcDbEntity
  8
0
100
AcDbLine
 10
1178.267366
 20
783.726404
 30
0.0
 11
1177.455366
 21
784.538404
 31
0.0
  0
ARC
  5
11CBF
100
AcDbEntity
  8
0
100
AcDbCircle
 10
1164.866931
 20
786.538404
 30
0.0
 40
6.0
100
AcDbArc
 50
195.0
 51
270.0
  0
LINE
  5
11CC0
100
AcDbEntity
  8
0
100
AcDbLine
 10
1186.267366
 20
746.538404
 30
0.0
 11
1186.267366
 21
780.538404
 31
0.0
  0
LINE
  5
11CC1
100
AcDbEntity
  8
0
100
AcDbLine
 10
1181.767366
 20
739.537404
 30
0.0
 11
1181.767366
 21
746.538404
 31
0.0
  0
ARC
  5
11CC2
100
AcDbEntity
  8
0
100
AcDbCircle
 10
1177.517366
 20
848.479725
 30
0.0
 40
10.442321
100
AcDbArc
 50
245.983629
 51
294.016371
  0
LINE
  5
11CC3
100
AcDbEntity
  8
0
100
AcDbLine
 10
1164.767366
 20
838.037404
 30
0.0
 11
1181.767366
 21
838.037404
 31
0.0
  0
ARC
  5
11CC4
100
AcDbEntity
  8
0
100
AcDbCircle
 10
1136.517366
 20
848.479725
 30
0.0
 40
10.442321
100
AcDbArc
 50
245.983629
 51
294.016371
  0
LINE
  5
11CC5
100
AcDbEntity
  8
0
100
AcDbLine
 10
1132.267366
 20
838.037404
 30
0.0
 11
1149.267366
 21
838.037404
 31
0.0
  0
LINE
  5
11CC6
100
AcDbEntity
  8
0
100
AcDbLine
 10
1132.267366
 20
838.037404
 30
0.0
 11
1132.267366
 21
845.038404
 31
0.0
  0
LINE
  5
11CC7
100
AcDbEntity
  8
0
100
AcDbLine
 10
1153.569466
 20
830.038404
 30
0.0
 11
1154.55402
 21
801.844495
 31
0.0
  0
ARC
  5
11CC8
100
AcDbEntity
  8
0
100
AcDbCircle
 10
1160.626522
 20
839.038404
 30
0.0
 40
6.0
100
AcDbArc
 50
90.0
 51
173.541989
  0
LINE
  5
11CC9
100
AcDbEntity
  8
0
100
AcDbLine
 10
1149.267366
 20
838.037404
 30
0.0
 11
1149.267366
 21
845.038404
 31
0.0
  0
LINE
  5
11CCA
100
AcDbEntity
  8
0
100
AcDbLine
 10
1140.767366
 20
838.941404
 30
0.0
 11
1140.767366
 21
845.038404
 31
0.0
  0
ARC
  5
11CCB
100
AcDbEntity
  8
0
100
AcDbCircle
 10
1145.017366
 20
848.479725
 30
0.0
 40
10.442321
100
AcDbArc
 50
245.983629
 51
294.016371
  0
LINE
  5
11CCC
100
AcDbEntity
  8
0
100
AcDbLine
 10
1153.569466
 20
830.038404
 30
0.0
 11
1154.664595
 21
839.713255
 31
0.0
  0
LINE
  5
11CCD
100
AcDbEntity
  8
0
100
AcDbLine
 10
1173.267366
 20
838.941404
 30
0.0
 11
1173.267366
 21
845.038404
 31
0.0
  0
LINE
  5
11CCE
100
AcDbEntity
  8
0
100
AcDbLine
 10
1164.767366
 20
838.037404
 30
0.0
 11
1164.767366
 21
845.038404
 31
0.0
  0
ARC
  5
11CCF
100
AcDbEntity
  8
0
100
AcDbCircle
 10
1169.017366
 20
848.479725
 30
0.0
 40
10.442321
100
AcDbArc
 50
245.983629
 51
294.016371
  0
LINE
  5
11CD0
100
AcDbEntity
  8
0
100
AcDbLine
 10
1186.267366
 20
878.038404
 30
0.0
 11
1186.267366
 21
845.038404
 31
0.0
  0
LINE
  5
11CD1
100
AcDbEntity
  8
0
100
AcDbLine
 10
1181.767366
 20
838.037404
 30
0.0
 11
1181.767366
 21
845.038404
 31
0.0
  0
CIRCLE
  5
11CD2
100
AcDbEntity
  8
0
100
AcDbCircle
 10
1083.518629
 20
980.287142
 30
0.0
 40
7.5
  0
CIRCLE
  5
11CD3
100
AcDbEntity
  8
0
100
AcDbCircle
 10
1133.016103
 20
980.287142
 30
0.0
 40
7.5
  0
CIRCLE
  5
11CD4
100
AcDbEntity
  8
0
100
AcDbCircle
 10
1108.267366
 20
955.538404
 30
0.0
 40
47.5
  0
LINE
  5
11CD5
100
AcDbEntity
  8
0
100
AcDbLine
 10
1155.511413
 20
942.538404
 30
0.0
 11
1171.267366
 21
942.538404
 31
0.0
  0
LINE
  5
11CD6
100
AcDbEntity
  8
0
100
AcDbLine
 10
1155.511413
 20
904.538404
 30
0.0
 11
1171.267366
 21
904.538404
 31
0.0
  0
LINE
  5
11CD7
100
AcDbEntity
  8
0
100
AcDbLine
 10
1186.267366
 20
878.038404
 30
0.0
 11
1030.267366
 21
878.038404
 31
0.0
  0
LINE
  5
11CD8
100
AcDbEntity
  8
0
100
AcDbLine
 10
1038.267366
 20
881.226404
 30
0.0
 11
1039.079366
 21
882.038404
 31
0.0
  0
LINE
  5
11CD9
100
AcDbEntity
  8
0
100
AcDbLine
 10
1038.267366
 20
878.038404
 30
0.0
 11
1038.267366
 21
881.226404
 31
0.0
  0
LINE
  5
11CDA
100
AcDbEntity
  8
0
100
AcDbLine
 10
1045.267366
 20
904.538404
 30
0.0
 11
1045.267366
 21
942.538404
 31
0.0
  0
LINE
  5
11CDB
100
AcDbEntity
  8
0
100
AcDbLine
 10
1154.267366
 20
893.038404
 30
0.0
 11
1062.267366
 21
893.038404
 31
0.0
  0
LINE
  5
11CDC
100
AcDbEntity
  8
0
100
AcDbLine
 10
1059.267366
 20
893.038404
 30
0.0
 11
1059.267366
 21
904.538404
 31
0.0
  0
LINE
  5
11CDD
100
AcDbEntity
  8
0
100
AcDbLine
 10
1079.955366
 20
882.038404
 30
0.0
 11
1080.767366
 21
881.226404
 31
0.0
  0
LINE
  5
11CDE
100
AcDbEntity
  8
0
100
AcDbLine
 10
1080.767366
 20
881.226404
 30
0.0
 11
1080.767366
 21
878.038404
 31
0.0
  0
LINE
  5
11CDF
100
AcDbEntity
  8
0
100
AcDbLine
 10
1070.767366
 20
881.226404
 30
0.0
 11
1071.579366
 21
882.038404
 31
0.0
  0
LINE
  5
11CE0
100
AcDbEntity
  8
0
100
AcDbLine
 10
1070.767366
 20
878.038404
 30
0.0
 11
1070.767366
 21
881.226404
 31
0.0
  0
LINE
  5
11CE1
100
AcDbEntity
  8
0
100
AcDbLine
 10
1071.579366
 20
882.038404
 30
0.0
 11
1079.955366
 21
882.038404
 31
0.0
  0
LINE
  5
11CE2
100
AcDbEntity
  8
0
100
AcDbLine
 10
1059.267366
 20
893.038404
 30
0.0
 11
1056.059193
 21
881.007754
 31
0.0
  0
LINE
  5
11CE3
100
AcDbEntity
  8
0
100
AcDbLine
 10
1048.267366
 20
881.226404
 30
0.0
 11
1048.267366
 21
878.038404
 31
0.0
  0
LINE
  5
11CE4
100
AcDbEntity
  8
0
100
AcDbLine
 10
1039.079366
 20
882.038404
 30
0.0
 11
1047.455366
 21
882.038404
 31
0.0
  0
LINE
  5
11CE5
100
AcDbEntity
  8
0
100
AcDbLine
 10
1047.455366
 20
882.038404
 30
0.0
 11
1048.267366
 21
881.226404
 31
0.0
  0
ARC
  5
11CE6
100
AcDbEntity
  8
0
100
AcDbCircle
 10
1052.194253
 20
882.038404
 30
0.0
 40
4.0
100
AcDbArc
 50
270.0
 51
345.068583
  0
ARC
  5
11CE7
100
AcDbEntity
  8
0
100
AcDbCircle
 10
1061.023319
 20
901.538404
 30
0.0
 40
3.0
100
AcDbArc
 50
0.0
 51
90.0
  0
LINE
  5
11CE8
100
AcDbEntity
  8
0
100
AcDbLine
 10
1061.023319
 20
904.538404
 30
0.0
 11
1045.267366
 21
904.538404
 31
0.0
  0
ARC
  5
11CE9
100
AcDbEntity
  8
0
100
AcDbCircle
 10
1155.511413
 20
901.538404
 30
0.0
 40
3.0
100
AcDbArc
 50
90.0
 51
180.0
  0
LINE
  5
11CEA
100
AcDbEntity
  8
0
100
AcDbLine
 10
1157.267366
 20
893.038404
 30
0.0
 11
1157.267366
 21
904.538404
 31
0.0
  0
ARC
  5
11CEB
100
AcDbEntity
  8
0
100
AcDbCircle
 10
1164.340479
 20
882.038404
 30
0.0
 40
4.0
100
AcDbArc
 50
194.931417
 51
270.0
  0
LINE
  5
11CEC
100
AcDbEntity
  8
0
100
AcDbLine
 10
1157.267366
 20
893.038404
 30
0.0
 11
1160.47554
 21
881.007754
 31
0.0
  0
LINE
  5
11CED
100
AcDbEntity
  8
0
100
AcDbLine
 10
1135.767366
 20
881.226404
 30
0.0
 11
1135.767366
 21
878.038404
 31
0.0
  0
LINE
  5
11CEE
100
AcDbEntity
  8
0
100
AcDbLine
 10
1145.767366
 20
878.038404
 30
0.0
 11
1145.767366
 21
881.226404
 31
0.0
  0
LINE
  5
11CEF
100
AcDbEntity
  8
0
100
AcDbLine
 10
1145.767366
 20
881.226404
 30
0.0
 11
1144.955366
 21
882.038404
 31
0.0
  0
LINE
  5
11CF0
100
AcDbEntity
  8
0
100
AcDbLine
 10
1144.955366
 20
882.038404
 30
0.0
 11
1136.579366
 21
882.038404
 31
0.0
  0
LINE
  5
11CF1
100
AcDbEntity
  8
0
100
AcDbLine
 10
1136.579366
 20
882.038404
 30
0.0
 11
1135.767366
 21
881.226404
 31
0.0
  0
ARC
  5
11CF2
100
AcDbEntity
  8
0
100
AcDbCircle
 10
1035.566482
 20
923.538404
 30
0.0
 40
33.540028
100
AcDbArc
 50
330.483041
 51
10.121044
  0
ARC
  5
11CF3
100
AcDbEntity
  8
0
100
AcDbCircle
 10
1061.023319
 20
945.538404
 30
0.0
 40
3.0
100
AcDbArc
 50
270.0
 51
298.958838
  0
ARC
  5
11CF4
100
AcDbEntity
  8
0
100
AcDbCircle
 10
1075.267366
 20
949.538404
 30
0.0
 40
16.0
100
AcDbArc
 50
154.938315
 51
180.0
  0
LINE
  5
11CF5
100
AcDbEntity
  8
0
100
AcDbLine
 10
1059.267366
 20
949.538404
 30
0.0
 11
1059.267366
 21
942.538404
 31
0.0
  0
LINE
  5
11CF6
100
AcDbEntity
  8
0
100
AcDbLine
 10
1061.023319
 20
942.538404
 30
0.0
 11
1045.267366
 21
942.538404
 31
0.0
  0
CIRCLE
  5
11CF7
100
AcDbEntity
  8
0
100
AcDbCircle
 10
1083.518629
 20
930.789667
 30
0.0
 40
7.5
  0
ARC
  5
11CF8
100
AcDbEntity
  8
0
100
AcDbCircle
 10
1141.267366
 20
949.538404
 30
0.0
 40
16.0
100
AcDbArc
 50
0.0
 51
25.061685
  0
ARC
  5
11CF9
100
AcDbEntity
  8
0
100
AcDbCircle
 10
1155.511413
 20
945.538404
 30
0.0
 40
3.0
100
AcDbArc
 50
241.041162
 51
270.0
  0
ARC
  5
11CFA
100
AcDbEntity
  8
0
100
AcDbCircle
 10
1180.968251
 20
923.538404
 30
0.0
 40
33.540028
100
AcDbArc
 50
169.878956
 51
209.516959
  0
LINE
  5
11CFB
100
AcDbEntity
  8
0
100
AcDbLine
 10
1157.267366
 20
949.538404
 30
0.0
 11
1157.267366
 21
942.538404
 31
0.0
  0
CIRCLE
  5
11CFC
100
AcDbEntity
  8
0
100
AcDbCircle
 10
1133.016103
 20
930.789667
 30
0.0
 40
7.5
  0
LINE
  5
11CFD
100
AcDbEntity
  8
0
100
AcDbLine
 10
1171.267366
 20
904.538404
 30
0.0
 11
1171.267366
 21
942.538404
 31
0.0
  0
LINE
  5
11CFE
100
AcDbEntity
  8
0
100
AcDbLine
 10
1178.267366
 20
878.038404
 30
0.0
 11
1178.267366
 21
881.226404
 31
0.0
  0
LINE
  5
11CFF
100
AcDbEntity
  8
0
100
AcDbLine
 10
1178.267366
 20
881.226404
 30
0.0
 11
1177.455366
 21
882.038404
 31
0.0
  0
LINE
  5
11D00
100
AcDbEntity
  8
0
100
AcDbLine
 10
1168.267366
 20
881.226404
 30
0.0
 11
1168.267366
 21
878.038404
 31
0.0
  0
LINE
  5
11D01
100
AcDbEntity
  8
0
100
AcDbLine
 10
1169.079366
 20
882.038404
 30
0.0
 11
1168.267366
 21
881.226404
 31
0.0
  0
LINE
  5
11D02
100
AcDbEntity
  8
0
100
AcDbLine
 10
1177.455366
 20
882.038404
 30
0.0
 11
1169.079366
 21
882.038404
 31
0.0
  0
LINE
  5
11D03
100
AcDbEntity
  8
0
100
AcDbLine
 10
1396.967964
 20
830.038404
 30
0.0
 11
1395.872836
 21
839.713255
 31
0.0
  0
LINE
  5
11D04
100
AcDbEntity
  8
0
100
AcDbLine
 10
1372.270065
 20
783.726404
 30
0.0
 11
1373.082065
 21
784.538404
 31
0.0
  0
LINE
  5
11D05
100
AcDbEntity
  8
0
100
AcDbLine
 10
1385.770065
 20
739.537404
 30
0.0
 11
1368.770065
 21
739.537404
 31
0.0
  0
ARC
  5
11D06
100
AcDbEntity
  8
0
100
AcDbCircle
 10
1373.020065
 20
749.979725
 30
0.0
 40
10.442321
100
AcDbArc
 50
245.983629
 51
294.016371
  0
LINE
  5
11D07
100
AcDbEntity
  8
0
100
AcDbLine
 10
1364.270065
 20
746.538404
 30
0.0
 11
1364.270065
 21
780.538404
 31
0.0
  0
LINE
  5
11D08
100
AcDbEntity
  8
0
100
AcDbLine
 10
1368.770065
 20
739.537404
 30
0.0
 11
1368.770065
 21
746.538404
 31
0.0
  0
LINE
  5
11D09
100
AcDbEntity
  8
0
100
AcDbLine
 10
1372.270065
 20
780.538404
 30
0.0
 11
1372.270065
 21
783.726404
 31
0.0
  0
LINE
  5
11D0A
100
AcDbEntity
  8
0
100
AcDbLine
 10
1401.270065
 20
739.537404
 30
0.0
 11
1401.270065
 21
746.538404
 31
0.0
  0
ARC
  5
11D0B
100
AcDbEntity
  8
0
100
AcDbCircle
 10
1381.520065
 20
749.979725
 30
0.0
 40
10.442321
100
AcDbArc
 50
245.983629
 51
294.016371
  0
LINE
  5
11D0C
100
AcDbEntity
  8
0
100
AcDbLine
 10
1377.270065
 20
740.441404
 30
0.0
 11
1377.270065
 21
746.538404
 31
0.0
  0
LINE
  5
11D0D
100
AcDbEntity
  8
0
100
AcDbLine
 10
1385.770065
 20
739.537404
 30
0.0
 11
1385.770065
 21
746.538404
 31
0.0
  0
LINE
  5
11D0E
100
AcDbEntity
  8
0
100
AcDbLine
 10
1396.967964
 20
830.038404
 30
0.0
 11
1395.983411
 21
801.844495
 31
0.0
  0
LINE
  5
11D0F
100
AcDbEntity
  8
0
100
AcDbLine
 10
1404.770065
 20
783.726404
 30
0.0
 11
1405.582065
 21
784.538404
 31
0.0
  0
LINE
  5
11D10
100
AcDbEntity
  8
0
100
AcDbLine
 10
1404.770065
 20
780.538404
 30
0.0
 11
1404.770065
 21
783.726404
 31
0.0
  0
LINE
  5
11D11
100
AcDbEntity
  8
0
100
AcDbLine
 10
1373.082065
 20
784.538404
 30
0.0
 11
1381.458065
 21
784.538404
 31
0.0
  0
LINE
  5
11D12
100
AcDbEntity
  8
0
100
AcDbLine
 10
1381.458065
 20
784.538404
 30
0.0
 11
1382.270065
 21
783.726404
 31
0.0
  0
LINE
  5
11D13
100
AcDbEntity
  8
0
100
AcDbLine
 10
1382.270065
 20
783.726404
 30
0.0
 11
1382.270065
 21
780.538404
 31
0.0
  0
ARC
  5
11D14
100
AcDbEntity
  8
0
100
AcDbCircle
 10
1385.670499
 20
786.538404
 30
0.0
 40
6.0
100
AcDbArc
 50
270.0
 51
345.0
  0
LINE
  5
11D15
100
AcDbEntity
  8
0
100
AcDbLine
 10
1395.983411
 20
801.844495
 30
0.0
 11
1391.466054
 21
784.98549
 31
0.0
  0
LINE
  5
11D16
100
AcDbEntity
  8
0
100
AcDbLine
 10
1372.270065
 20
881.226404
 30
0.0
 11
1373.082065
 21
882.038404
 31
0.0
  0
ARC
  5
11D17
100
AcDbEntity
  8
0
100
AcDbCircle
 10
1373.020065
 20
848.479725
 30
0.0
 40
10.442321
100
AcDbArc
 50
245.983629
 51
294.016371
  0
LINE
  5
11D18
100
AcDbEntity
  8
0
100
AcDbLine
 10
1385.770065
 20
838.037404
 30
0.0
 11
1368.770065
 21
838.037404
 31
0.0
  0
LINE
  5
11D19
100
AcDbEntity
  8
0
100
AcDbLine
 10
1372.270065
 20
878.038404
 30
0.0
 11
1372.270065
 21
881.226404
 31
0.0
  0
LINE
  5
11D1A
100
AcDbEntity
  8
0
100
AcDbLine
 10
1368.770065
 20
838.037404
 30
0.0
 11
1368.770065
 21
845.038404
 31
0.0
  0
LINE
  5
11D1B
100
AcDbEntity
  8
0
100
AcDbLine
 10
1364.270065
 20
878.038404
 30
0.0
 11
1364.270065
 21
845.038404
 31
0.0
  0
LINE
  5
11D1C
100
AcDbEntity
  8
0
100
AcDbLine
 10
1379.270065
 20
904.538404
 30
0.0
 11
1379.270065
 21
942.538404
 31
0.0
  0
LINE
  5
11D1D
100
AcDbEntity
  8
0
100
AcDbLine
 10
1393.270065
 20
893.038404
 30
0.0
 11
1393.270065
 21
904.538404
 31
0.0
  0
LINE
  5
11D1E
100
AcDbEntity
  8
0
100
AcDbLine
 10
1404.770065
 20
881.226404
 30
0.0
 11
1405.582065
 21
882.038404
 31
0.0
  0
LINE
  5
11D1F
100
AcDbEntity
  8
0
100
AcDbLine
 10
1404.770065
 20
878.038404
 30
0.0
 11
1404.770065
 21
881.226404
 31
0.0
  0
LINE
  5
11D20
100
AcDbEntity
  8
0
100
AcDbLine
 10
1393.270065
 20
893.038404
 30
0.0
 11
1390.061891
 21
881.007754
 31
0.0
  0
LINE
  5
11D21
100
AcDbEntity
  8
0
100
AcDbLine
 10
1382.270065
 20
881.226404
 30
0.0
 11
1382.270065
 21
878.038404
 31
0.0
  0
LINE
  5
11D22
100
AcDbEntity
  8
0
100
AcDbLine
 10
1373.082065
 20
882.038404
 30
0.0
 11
1381.458065
 21
882.038404
 31
0.0
  0
LINE
  5
11D23
100
AcDbEntity
  8
0
100
AcDbLine
 10
1381.458065
 20
882.038404
 30
0.0
 11
1382.270065
 21
881.226404
 31
0.0
  0
ARC
  5
11D24
100
AcDbEntity
  8
0
100
AcDbCircle
 10
1386.196951
 20
882.038404
 30
0.0
 40
4.0
100
AcDbArc
 50
270.0
 51
345.068583
  0
ARC
  5
11D25
100
AcDbEntity
  8
0
100
AcDbCircle
 10
1395.026017
 20
901.538404
 30
0.0
 40
3.0
100
AcDbArc
 50
0.0
 51
90.0
  0
LINE
  5
11D26
100
AcDbEntity
  8
0
100
AcDbLine
 10
1395.026017
 20
904.538404
 30
0.0
 11
1379.270065
 21
904.538404
 31
0.0
  0
ARC
  5
11D27
100
AcDbEntity
  8
0
100
AcDbCircle
 10
1389.910909
 20
839.038404
 30
0.0
 40
6.0
100
AcDbArc
 50
6.458011
 51
90.0
  0
LINE
  5
11D28
100
AcDbEntity
  8
0
100
AcDbLine
 10
1401.270065
 20
838.037404
 30
0.0
 11
1401.270065
 21
845.038404
 31
0.0
  0
LINE
  5
11D29
100
AcDbEntity
  8
0
100
AcDbLine
 10
1385.770065
 20
838.037404
 30
0.0
 11
1385.770065
 21
845.038404
 31
0.0
  0
LINE
  5
11D2A
100
AcDbEntity
  8
0
100
AcDbLine
 10
1377.270065
 20
838.941404
 30
0.0
 11
1377.270065
 21
845.038404
 31
0.0
  0
ARC
  5
11D2B
100
AcDbEntity
  8
0
100
AcDbCircle
 10
1381.520065
 20
848.479725
 30
0.0
 40
10.442321
100
AcDbArc
 50
245.983629
 51
294.016371
  0
ARC
  5
11D2C
100
AcDbEntity
  8
0
100
AcDbCircle
 10
1369.56918
 20
923.538404
 30
0.0
 40
33.540028
100
AcDbArc
 50
330.483041
 51
1.586846
  0
LINE
  5
11D2F
100
AcDbEntity
  8
0
100
AcDbLine
 10
1393.270065
 20
945.58853
 30
0.0
 11
1393.270065
 21
942.538404
 31
0.0
  0
LINE
  5
11D30
100
AcDbEntity
  8
0
100
AcDbLine
 10
1393.989634
 20
942.538404
 30
0.0
 11
1379.270065
 21
942.538404
 31
0.0
  0
ARC
  5
11D31
100
AcDbEntity
  8
0
100
AcDbCircle
 10
1503.020065
 20
848.479725
 30
0.0
 40
10.442321
100
AcDbArc
 50
245.983629
 51
294.016371
  0
LINE
  5
11D32
100
AcDbEntity
  8
0
100
AcDbLine
 10
1498.770065
 20
838.037404
 30
0.0
 11
1515.770065
 21
838.037404
 31
0.0
  0
LINE
  5
11D33
100
AcDbEntity
  8
0
100
AcDbLine
 10
1498.770065
 20
739.537404
 30
0.0
 11
1515.770065
 21
739.537404
 31
0.0
  0
ARC
  5
11D34
100
AcDbEntity
  8
0
100
AcDbCircle
 10
1503.020065
 20
749.979725
 30
0.0
 40
10.442321
100
AcDbArc
 50
245.983629
 51
294.016371
  0
LINE
  5
11D35
100
AcDbEntity
  8
0
100
AcDbLine
 10
1520.270065
 20
845.038404
 30
0.0
 11
1364.270065
 21
845.038404
 31
0.0
  0
LINE
  5
11D36
100
AcDbEntity
  8
0
100
AcDbLine
 10
1520.270065
 20
780.538404
 30
0.0
 11
1364.270065
 21
780.538404
 31
0.0
  0
LINE
  5
11D37
100
AcDbEntity
  8
0
100
AcDbLine
 10
1520.270065
 20
763.538404
 30
0.0
 11
1364.270065
 21
763.538404
 31
0.0
  0
LINE
  5
11D38
100
AcDbEntity
  8
0
100
AcDbLine
 10
1364.270065
 20
746.538404
 30
0.0
 11
1520.270065
 21
746.538404
 31
0.0
  0
LINE
  5
11D39
100
AcDbEntity
  8
0
100
AcDbLine
 10
1520.270065
 20
878.038404
 30
0.0
 11
1364.270065
 21
878.038404
 31
0.0
  0
LINE
  5
11D3A
100
AcDbEntity
  8
0
100
AcDbLine
 10
1364.270065
 20
861.538404
 30
0.0
 11
1520.270065
 21
861.538404
 31
0.0
  0
LINE
  5
11D3B
100
AcDbEntity
  8
0
100
AcDbLine
 10
1487.572165
 20
830.038404
 30
0.0
 11
1488.667293
 21
839.713255
 31
0.0
  0
LINE
  5
11D3C
100
AcDbEntity
  8
0
100
AcDbLine
 10
1423.043567
 20
734.538404
 30
0.0
 11
1461.496562
 21
734.538404
 31
0.0
  0
LINE
  5
11D3D
100
AcDbEntity
  8
0
100
AcDbLine
 10
1459.270065
 20
724.538404
 30
0.0
 11
1425.270065
 21
724.538404
 31
0.0
  0
LINE
  5
11D3E
100
AcDbEntity
  8
0
100
AcDbLine
 10
1463.770065
 20
704.538404
 30
0.0
 11
1420.770065
 21
704.538404
 31
0.0
  0
LINE
  5
11D3F
100
AcDbEntity
  8
0
100
AcDbLine
 10
1423.270065
 20
726.538404
 30
0.0
 11
1423.270065
 21
734.538404
 31
0.0
  0
ARC
  5
11D40
100
AcDbEntity
  8
0
100
AcDbCircle
 10
1423.043567
 20
744.538404
 30
0.0
 40
10.0
100
AcDbArc
 50
210.0
 51
270.0
  0
LINE
  5
11D41
100
AcDbEntity
  8
0
100
AcDbLine
 10
1418.270065
 20
739.537404
 30
0.0
 11
1418.270065
 21
746.538404
 31
0.0
  0
LINE
  5
11D42
100
AcDbEntity
  8
0
100
AcDbLine
 10
1409.770065
 20
740.441404
 30
0.0
 11
1409.770065
 21
746.538404
 31
0.0
  0
ARC
  5
11D43
100
AcDbEntity
  8
0
100
AcDbCircle
 10
1405.520065
 20
749.979725
 30
0.0
 40
10.442321
100
AcDbArc
 50
245.983629
 51
294.016371
  0
LINE
  5
11D44
100
AcDbEntity
  8
0
100
AcDbLine
 10
1418.270065
 20
739.537404
 30
0.0
 11
1401.270065
 21
739.537404
 31
0.0
  0
ARC
  5
11D45
100
AcDbEntity
  8
0
100
AcDbCircle
 10
1414.020065
 20
749.979725
 30
0.0
 40
10.442321
100
AcDbArc
 50
245.983629
 51
294.016371
  0
LINE
  5
11D46
100
AcDbEntity
  8
0
100
AcDbLine
 10
1419.770065
 20
705.538404
 30
0.0
 11
1420.770065
 21
704.538404
 31
0.0
  0
LINE
  5
11D47
100
AcDbEntity
  8
0
100
AcDbLine
 10
1419.770065
 20
705.538404
 30
0.0
 11
1419.770065
 21
735.089374
 31
0.0
  0
ARC
  5
11D48
100
AcDbEntity
  8
0
100
AcDbCircle
 10
1425.270065
 20
726.538404
 30
0.0
 40
2.0
100
AcDbArc
 50
180.0
 51
270.0
  0
LINE
  5
11D49
100
AcDbEntity
  8
0
100
AcDbLine
 10
1498.770065
 20
739.537404
 30
0.0
 11
1498.770065
 21
746.538404
 31
0.0
  0
LINE
  5
11D4A
100
AcDbEntity
  8
0
100
AcDbLine
 10
1483.270065
 20
739.537404
 30
0.0
 11
1483.270065
 21
746.538404
 31
0.0
  0
LINE
  5
11D4B
100
AcDbEntity
  8
0
100
AcDbLine
 10
1461.270065
 20
726.538404
 30
0.0
 11
1461.270065
 21
734.538404
 31
0.0
  0
ARC
  5
11D4C
100
AcDbEntity
  8
0
100
AcDbCircle
 10
1461.496562
 20
744.538404
 30
0.0
 40
10.0
100
AcDbArc
 50
270.0
 51
330.0
  0
ARC
  5
11D4D
100
AcDbEntity
  8
0
100
AcDbCircle
 10
1470.520065
 20
749.979725
 30
0.0
 40
10.442321
100
AcDbArc
 50
245.983629
 51
294.016371
  0
LINE
  5
11D4E
100
AcDbEntity
  8
0
100
AcDbLine
 10
1474.770065
 20
740.441404
 30
0.0
 11
1474.770065
 21
746.538404
 31
0.0
  0
LINE
  5
11D4F
100
AcDbEntity
  8
0
100
AcDbLine
 10
1466.270065
 20
739.537404
 30
0.0
 11
1466.270065
 21
746.538404
 31
0.0
  0
LINE
  5
11D50
100
AcDbEntity
  8
0
100
AcDbLine
 10
1463.770065
 20
704.538404
 30
0.0
 11
1464.770065
 21
705.538404
 31
0.0
  0
LINE
  5
11D51
100
AcDbEntity
  8
0
100
AcDbLine
 10
1464.770065
 20
705.538404
 30
0.0
 11
1464.770065
 21
735.089374
 31
0.0
  0
ARC
  5
11D52
100
AcDbEntity
  8
0
100
AcDbCircle
 10
1459.270065
 20
726.538404
 30
0.0
 40
2.0
100
AcDbArc
 50
270.0
 51
0.0
  0
LINE
  5
11D53
100
AcDbEntity
  8
0
100
AcDbLine
 10
1466.270065
 20
739.537404
 30
0.0
 11
1483.270065
 21
739.537404
 31
0.0
  0
ARC
  5
11D54
100
AcDbEntity
  8
0
100
AcDbCircle
 10
1479.020065
 20
749.979725
 30
0.0
 40
10.442321
100
AcDbArc
 50
245.983629
 51
294.016371
  0
LINE
  5
11D55
100
AcDbEntity
  8
0
100
AcDbLine
 10
1413.958065
 20
784.538404
 30
0.0
 11
1414.770065
 21
783.726404
 31
0.0
  0
LINE
  5
11D56
100
AcDbEntity
  8
0
100
AcDbLine
 10
1414.770065
 20
783.726404
 30
0.0
 11
1414.770065
 21
780.538404
 31
0.0
  0
LINE
  5
11D57
100
AcDbEntity
  8
0
100
AcDbLine
 10
1405.582065
 20
784.538404
 30
0.0
 11
1413.958065
 21
784.538404
 31
0.0
  0
LINE
  5
11D58
100
AcDbEntity
  8
0
100
AcDbLine
 10
1487.572165
 20
830.038404
 30
0.0
 11
1488.556718
 21
801.844495
 31
0.0
  0
ARC
  5
11D59
100
AcDbEntity
  8
0
100
AcDbCircle
 10
1498.86963
 20
786.538404
 30
0.0
 40
6.0
100
AcDbArc
 50
195.0
 51
270.0
  0
LINE
  5
11D5A
100
AcDbEntity
  8
0
100
AcDbLine
 10
1488.556718
 20
801.844495
 30
0.0
 11
1493.074075
 21
784.98549
 31
0.0
  0
LINE
  5
11D5B
100
AcDbEntity
  8
0
100
AcDbLine
 10
1479.770065
 20
783.726404
 30
0.0
 11
1478.958065
 21
784.538404
 31
0.0
  0
LINE
  5
11D5C
100
AcDbEntity
  8
0
100
AcDbLine
 10
1478.958065
 20
784.538404
 30
0.0
 11
1470.582065
 21
784.538404
 31
0.0
  0
LINE
  5
11D5D
100
AcDbEntity
  8
0
100
AcDbLine
 10
1470.582065
 20
784.538404
 30
0.0
 11
1469.770065
 21
783.726404
 31
0.0
  0
LINE
  5
11D5E
100
AcDbEntity
  8
0
100
AcDbLine
 10
1469.770065
 20
783.726404
 30
0.0
 11
1469.770065
 21
780.538404
 31
0.0
  0
LINE
  5
11D5F
100
AcDbEntity
  8
0
100
AcDbLine
 10
1479.770065
 20
780.538404
 30
0.0
 11
1479.770065
 21
783.726404
 31
0.0
  0
LINE
  5
11D60
100
AcDbEntity
  8
0
100
AcDbLine
 10
1413.958065
 20
882.038404
 30
0.0
 11
1414.770065
 21
881.226404
 31
0.0
  0
LINE
  5
11D61
100
AcDbEntity
  8
0
100
AcDbLine
 10
1414.770065
 20
881.226404
 30
0.0
 11
1414.770065
 21
878.038404
 31
0.0
  0
LINE
  5
11D62
100
AcDbEntity
  8
0
100
AcDbLine
 10
1405.582065
 20
882.038404
 30
0.0
 11
1413.958065
 21
882.038404
 31
0.0
  0
LINE
  5
11D63
100
AcDbEntity
  8
0
100
AcDbLine
 10
1418.270065
 20
838.037404
 30
0.0
 11
1418.270065
 21
845.038404
 31
0.0
  0
ARC
  5
11D64
100
AcDbEntity
  8
0
100
AcDbCircle
 10
1405.520065
 20
848.479725
 30
0.0
 40
10.442321
100
AcDbArc
 50
245.983629
 51
294.016371
  0
LINE
  5
11D65
100
AcDbEntity
  8
0
100
AcDbLine
 10
1409.770065
 20
838.941404
 30
0.0
 11
1409.770065
 21
845.038404
 31
0.0
  0
ARC
  5
11D66
100
AcDbEntity
  8
0
100
AcDbCircle
 10
1414.020065
 20
848.479725
 30
0.0
 40
10.442321
100
AcDbArc
 50
245.983629
 51
294.016371
  0
LINE
  5
11D67
100
AcDbEntity
  8
0
100
AcDbLine
 10
1418.270065
 20
838.037404
 30
0.0
 11
1401.270065
 21
838.037404
 31
0.0
  0
ARC
  5
11D68
100
AcDbEntity
  8
0
100
AcDbCircle
 10
1498.343178
 20
882.038404
 30
0.0
 40
4.0
100
AcDbArc
 50
194.931417
 51
270.0
  0
LINE
  5
11D69
100
AcDbEntity
  8
0
100
AcDbLine
 10
1469.770065
 20
881.226404
 30
0.0
 11
1469.770065
 21
878.038404
 31
0.0
  0
LINE
  5
11D6A
100
AcDbEntity
  8
0
100
AcDbLine
 10
1479.770065
 20
878.038404
 30
0.0
 11
1479.770065
 21
881.226404
 31
0.0
  0
LINE
  5
11D6B
100
AcDbEntity
  8
0
100
AcDbLine
 10
1479.770065
 20
881.226404
 30
0.0
 11
1478.958065
 21
882.038404
 31
0.0
  0
LINE
  5
11D6C
100
AcDbEntity
  8
0
100
AcDbLine
 10
1478.958065
 20
882.038404
 30
0.0
 11
1470.582065
 21
882.038404
 31
0.0
  0
LINE
  5
11D6D
100
AcDbEntity
  8
0
100
AcDbLine
 10
1470.582065
 20
882.038404
 30
0.0
 11
1469.770065
 21
881.226404
 31
0.0
  0
ARC
  5
11D6E
100
AcDbEntity
  8
0
100
AcDbCircle
 10
1494.62922
 20
839.038404
 30
0.0
 40
6.0
100
AcDbArc
 50
90.0
 51
173.541989
  0
LINE
  5
11D6F
100
AcDbEntity
  8
0
100
AcDbLine
 10
1483.270065
 20
838.037404
 30
0.0
 11
1483.270065
 21
845.038404
 31
0.0
  0
LINE
  5
11D70
100
AcDbEntity
  8
0
100
AcDbLine
 10
1498.770065
 20
838.037404
 30
0.0
 11
1498.770065
 21
845.038404
 31
0.0
  0
LINE
  5
11D71
100
AcDbEntity
  8
0
100
AcDbLine
 10
1466.270065
 20
838.037404
 30
0.0
 11
1466.270065
 21
845.038404
 31
0.0
  0
LINE
  5
11D72
100
AcDbEntity
  8
0
100
AcDbLine
 10
1474.770065
 20
838.941404
 30
0.0
 11
1474.770065
 21
845.038404
 31
0.0
  0
ARC
  5
11D73
100
AcDbEntity
  8
0
100
AcDbCircle
 10
1470.520065
 20
848.479725
 30
0.0
 40
10.442321
100
AcDbArc
 50
245.983629
 51
294.016371
  0
ARC
  5
11D74
100
AcDbEntity
  8
0
100
AcDbCircle
 10
1479.020065
 20
848.479725
 30
0.0
 40
10.442321
100
AcDbArc
 50
245.983629
 51
294.016371
  0
LINE
  5
11D75
100
AcDbEntity
  8
0
100
AcDbLine
 10
1466.270065
 20
838.037404
 30
0.0
 11
1483.270065
 21
838.037404
 31
0.0
  0
LINE
  5
11D76
100
AcDbEntity
  8
0
100
AcDbLine
 10
1520.270065
 20
746.538404
 30
0.0
 11
1520.270065
 21
780.538404
 31
0.0
  0
LINE
  5
11D77
100
AcDbEntity
  8
0
100
AcDbLine
 10
1507.270065
 20
740.441404
 30
0.0
 11
1507.270065
 21
746.538404
 31
0.0
  0
LINE
  5
11D78
100
AcDbEntity
  8
0
100
AcDbLine
 10
1515.770065
 20
739.537404
 30
0.0
 11
1515.770065
 21
746.538404
 31
0.0
  0
ARC
  5
11D79
100
AcDbEntity
  8
0
100
AcDbCircle
 10
1511.520065
 20
749.979725
 30
0.0
 40
10.442321
100
AcDbArc
 50
245.983629
 51
294.016371
  0
LINE
  5
11D7A
100
AcDbEntity
  8
0
100
AcDbLine
 10
1512.270065
 20
783.726404
 30
0.0
 11
1511.458065
 21
784.538404
 31
0.0
  0
LINE
  5
11D7B
100
AcDbEntity
  8
0
100
AcDbLine
 10
1512.270065
 20
780.538404
 30
0.0
 11
1512.270065
 21
783.726404
 31
0.0
  0
LINE
  5
11D7C
100
AcDbEntity
  8
0
100
AcDbLine
 10
1503.082065
 20
784.538404
 30
0.0
 11
1502.270065
 21
783.726404
 31
0.0
  0
LINE
  5
11D7D
100
AcDbEntity
  8
0
100
AcDbLine
 10
1502.270065
 20
783.726404
 30
0.0
 11
1502.270065
 21
780.538404
 31
0.0
  0
LINE
  5
11D7E
100
AcDbEntity
  8
0
100
AcDbLine
 10
1511.458065
 20
784.538404
 30
0.0
 11
1503.082065
 21
784.538404
 31
0.0
  0
LINE
  5
11D7F
100
AcDbEntity
  8
0
100
AcDbLine
 10
1512.270065
 20
878.038404
 30
0.0
 11
1512.270065
 21
881.226404
 31
0.0
  0
LINE
  5
11D80
100
AcDbEntity
  8
0
100
AcDbLine
 10
1512.270065
 20
881.226404
 30
0.0
 11
1511.458065
 21
882.038404
 31
0.0
  0
LINE
  5
11D81
100
AcDbEntity
  8
0
100
AcDbLine
 10
1502.270065
 20
881.226404
 30
0.0
 11
1502.270065
 21
878.038404
 31
0.0
  0
LINE
  5
11D82
100
AcDbEntity
  8
0
100
AcDbLine
 10
1503.082065
 20
882.038404
 30
0.0
 11
1502.270065
 21
881.226404
 31
0.0
  0
LINE
  5
11D83
100
AcDbEntity
  8
0
100
AcDbLine
 10
1511.458065
 20
882.038404
 30
0.0
 11
1503.082065
 21
882.038404
 31
0.0
  0
ARC
  5
11D84
100
AcDbEntity
  8
0
100
AcDbCircle
 10
1511.520065
 20
848.479725
 30
0.0
 40
10.442321
100
AcDbArc
 50
245.983629
 51
294.016371
  0
LINE
  5
11D85
100
AcDbEntity
  8
0
100
AcDbLine
 10
1515.770065
 20
838.037404
 30
0.0
 11
1515.770065
 21
845.038404
 31
0.0
  0
LINE
  5
11D86
100
AcDbEntity
  8
0
100
AcDbLine
 10
1507.270065
 20
838.941404
 30
0.0
 11
1507.270065
 21
845.038404
 31
0.0
  0
LINE
  5
11D87
100
AcDbEntity
  8
0
100
AcDbLine
 10
1520.270065
 20
878.038404
 30
0.0
 11
1520.270065
 21
845.038404
 31
0.0
  0
LINE
  5
11D88
100
AcDbEntity
  8
0
100
AcDbLine
 10
1488.270065
 20
893.038404
 30
0.0
 11
1396.270065
 21
893.038404
 31
0.0
  0
LINE
  5
11D89
100
AcDbEntity
  8
0
100
AcDbLine
 10
1491.270065
 20
893.038404
 30
0.0
 11
1494.478238
 21
881.007754
 31
0.0
  0
LINE
  5
11D8A
100
AcDbEntity
  8
0
100
AcDbLine
 10
1489.514112
 20
904.538404
 30
0.0
 11
1505.270065
 21
904.538404
 31
0.0
  0
ARC
  5
11D8B
100
AcDbEntity
  8
0
100
AcDbCircle
 10
1489.514112
 20
901.538404
 30
0.0
 40
3.0
100
AcDbArc
 50
90.0
 51
180.0
  0
LINE
  5
11D8C
100
AcDbEntity
  8
0
100
AcDbLine
 10
1491.270065
 20
893.038404
 30
0.0
 11
1491.270065
 21
904.538404
 31
0.0
  0
ARC
  5
11D8D
100
AcDbEntity
  8
0
100
AcDbCircle
 10
1514.970949
 20
923.538404
 30
0.0
 40
33.540028
100
AcDbArc
 50
178.413154
 51
209.516959
  0
LINE
  5
11D8E
100
AcDbEntity
  8
0
100
AcDbLine
 10
1505.270065
 20
904.538404
 30
0.0
 11
1505.270065
 21
942.538404
 31
0.0
  0
LINE
  5
11D8F
100
AcDbEntity
  8
0
100
AcDbLine
 10
1490.550495
 20
942.538404
 30
0.0
 11
1505.270065
 21
942.538404
 31
0.0
  0
LINE
  5
11D92
100
AcDbEntity
  8
0
100
AcDbLine
 10
1491.270065
 20
945.58853
 30
0.0
 11
1491.270065
 21
942.538404
 31
0.0
  0
LINE
  5
11D93
100
AcDbEntity
  8
0
100
AcDbLine
 10
1030.267366
 20
861.538404
 30
0.0
 11
1186.267366
 21
861.538404
 31
0.0
  0
LINE
  5
11F4A
100
AcDbEntity
  8
0
100
AcDbLine
 10
2539.357567
 20
942.538404
 30
0.0
 11
2541.224515
 21
942.538404
 31
0.0
  0
LINE
  5
11F4B
100
AcDbEntity
  8
0
100
AcDbLine
 10
2525.468562
 20
904.538404
 30
0.0
 11
2541.224515
 21
904.538404
 31
0.0
  0
ARC
  5
11F4C
100
AcDbEntity
  8
0
100
AcDbCircle
 10
2538.974515
 20
848.479725
 30
0.0
 40
10.442321
100
AcDbArc
 50
245.983629
 51
294.016371
  0
LINE
  5
11F4D
100
AcDbEntity
  8
0
100
AcDbLine
 10
2534.724515
 20
838.037404
 30
0.0
 11
2551.724515
 21
838.037404
 31
0.0
  0
LINE
  5
11F4E
100
AcDbEntity
  8
0
100
AcDbLine
 10
2534.724515
 20
739.537404
 30
0.0
 11
2551.724515
 21
739.537404
 31
0.0
  0
ARC
  5
11F4F
100
AcDbEntity
  8
0
100
AcDbCircle
 10
2538.974515
 20
749.979725
 30
0.0
 40
10.442321
100
AcDbArc
 50
245.983629
 51
294.016371
  0
LINE
  5
11F50
100
AcDbEntity
  8
0
100
AcDbLine
 10
2556.224515
 20
845.038404
 30
0.0
 11
2400.224515
 21
845.038404
 31
0.0
  0
LINE
  5
11F51
100
AcDbEntity
  8
0
100
AcDbLine
 10
2556.224515
 20
780.538404
 30
0.0
 11
2400.224515
 21
780.538404
 31
0.0
  0
LINE
  5
11F52
100
AcDbEntity
  8
0
100
AcDbLine
 10
2556.224515
 20
763.538404
 30
0.0
 11
2400.224515
 21
763.538404
 31
0.0
  0
LINE
  5
11F53
100
AcDbEntity
  8
0
100
AcDbLine
 10
2400.224515
 20
746.538404
 30
0.0
 11
2556.224515
 21
746.538404
 31
0.0
  0
LINE
  5
11F54
100
AcDbEntity
  8
0
100
AcDbLine
 10
2556.224515
 20
878.038404
 30
0.0
 11
2400.224515
 21
878.038404
 31
0.0
  0
LINE
  5
11F55
100
AcDbEntity
  8
0
100
AcDbLine
 10
2400.224515
 20
861.538404
 30
0.0
 11
2556.224515
 21
861.538404
 31
0.0
  0
LINE
  5
11F56
100
AcDbEntity
  8
0
100
AcDbLine
 10
2523.526616
 20
830.038404
 30
0.0
 11
2524.621744
 21
839.713255
 31
0.0
  0
LINE
  5
11F57
100
AcDbEntity
  8
0
100
AcDbLine
 10
2432.922415
 20
830.038404
 30
0.0
 11
2431.827287
 21
839.713255
 31
0.0
  0
LINE
  5
11F58
100
AcDbEntity
  8
0
100
AcDbLine
 10
2408.224515
 20
783.726404
 30
0.0
 11
2409.036515
 21
784.538404
 31
0.0
  0
LINE
  5
11F59
100
AcDbEntity
  8
0
100
AcDbLine
 10
2421.724515
 20
739.537404
 30
0.0
 11
2404.724515
 21
739.537404
 31
0.0
  0
ARC
  5
11F5A
100
AcDbEntity
  8
0
100
AcDbCircle
 10
2408.974515
 20
749.979725
 30
0.0
 40
10.442321
100
AcDbArc
 50
245.983629
 51
294.016371
  0
LINE
  5
11F5B
100
AcDbEntity
  8
0
100
AcDbLine
 10
2400.224515
 20
746.538404
 30
0.0
 11
2400.224515
 21
780.538404
 31
0.0
  0
LINE
  5
11F5C
100
AcDbEntity
  8
0
100
AcDbLine
 10
2404.724515
 20
739.537404
 30
0.0
 11
2404.724515
 21
746.538404
 31
0.0
  0
LINE
  5
11F5D
100
AcDbEntity
  8
0
100
AcDbLine
 10
2408.224515
 20
780.538404
 30
0.0
 11
2408.224515
 21
783.726404
 31
0.0
  0
LINE
  5
11F5E
100
AcDbEntity
  8
0
100
AcDbLine
 10
2458.998018
 20
734.538404
 30
0.0
 11
2497.451013
 21
734.538404
 31
0.0
  0
LINE
  5
11F5F
100
AcDbEntity
  8
0
100
AcDbLine
 10
2495.224515
 20
724.538404
 30
0.0
 11
2461.224515
 21
724.538404
 31
0.0
  0
LINE
  5
11F60
100
AcDbEntity
  8
0
100
AcDbLine
 10
2499.724515
 20
704.538404
 30
0.0
 11
2456.724515
 21
704.538404
 31
0.0
  0
LINE
  5
11F61
100
AcDbEntity
  8
0
100
AcDbLine
 10
2459.224515
 20
726.538404
 30
0.0
 11
2459.224515
 21
734.538404
 31
0.0
  0
ARC
  5
11F62
100
AcDbEntity
  8
0
100
AcDbCircle
 10
2458.998018
 20
744.538404
 30
0.0
 40
10.0
100
AcDbArc
 50
210.0
 51
270.0
  0
LINE
  5
11F63
100
AcDbEntity
  8
0
100
AcDbLine
 10
2454.224515
 20
739.537404
 30
0.0
 11
2454.224515
 21
746.538404
 31
0.0
  0
LINE
  5
11F64
100
AcDbEntity
  8
0
100
AcDbLine
 10
2445.724515
 20
740.441404
 30
0.0
 11
2445.724515
 21
746.538404
 31
0.0
  0
LINE
  5
11F65
100
AcDbEntity
  8
0
100
AcDbLine
 10
2437.224515
 20
739.537404
 30
0.0
 11
2437.224515
 21
746.538404
 31
0.0
  0
ARC
  5
11F66
100
AcDbEntity
  8
0
100
AcDbCircle
 10
2441.474515
 20
749.979725
 30
0.0
 40
10.442321
100
AcDbArc
 50
245.983629
 51
294.016371
  0
LINE
  5
11F67
100
AcDbEntity
  8
0
100
AcDbLine
 10
2454.224515
 20
739.537404
 30
0.0
 11
2437.224515
 21
739.537404
 31
0.0
  0
ARC
  5
11F68
100
AcDbEntity
  8
0
100
AcDbCircle
 10
2449.974515
 20
749.979725
 30
0.0
 40
10.442321
100
AcDbArc
 50
245.983629
 51
294.016371
  0
LINE
  5
11F69
100
AcDbEntity
  8
0
100
AcDbLine
 10
2455.724515
 20
705.538404
 30
0.0
 11
2456.724515
 21
704.538404
 31
0.0
  0
LINE
  5
11F6A
100
AcDbEntity
  8
0
100
AcDbLine
 10
2455.724515
 20
705.538404
 30
0.0
 11
2455.724515
 21
735.089374
 31
0.0
  0
ARC
  5
11F6B
100
AcDbEntity
  8
0
100
AcDbCircle
 10
2461.224515
 20
726.538404
 30
0.0
 40
2.0
100
AcDbArc
 50
180.0
 51
270.0
  0
ARC
  5
11F6C
100
AcDbEntity
  8
0
100
AcDbCircle
 10
2417.474515
 20
749.979725
 30
0.0
 40
10.442321
100
AcDbArc
 50
245.983629
 51
294.016371
  0
LINE
  5
11F6D
100
AcDbEntity
  8
0
100
AcDbLine
 10
2413.224515
 20
740.441404
 30
0.0
 11
2413.224515
 21
746.538404
 31
0.0
  0
LINE
  5
11F6E
100
AcDbEntity
  8
0
100
AcDbLine
 10
2421.724515
 20
739.537404
 30
0.0
 11
2421.724515
 21
746.538404
 31
0.0
  0
LINE
  5
11F6F
100
AcDbEntity
  8
0
100
AcDbLine
 10
2534.724515
 20
739.537404
 30
0.0
 11
2534.724515
 21
746.538404
 31
0.0
  0
LINE
  5
11F70
100
AcDbEntity
  8
0
100
AcDbLine
 10
2519.224515
 20
739.537404
 30
0.0
 11
2519.224515
 21
746.538404
 31
0.0
  0
LINE
  5
11F71
100
AcDbEntity
  8
0
100
AcDbLine
 10
2497.224515
 20
726.538404
 30
0.0
 11
2497.224515
 21
734.538404
 31
0.0
  0
ARC
  5
11F72
100
AcDbEntity
  8
0
100
AcDbCircle
 10
2497.451013
 20
744.538404
 30
0.0
 40
10.0
100
AcDbArc
 50
270.0
 51
330.0
  0
ARC
  5
11F73
100
AcDbEntity
  8
0
100
AcDbCircle
 10
2506.474515
 20
749.979725
 30
0.0
 40
10.442321
100
AcDbArc
 50
245.983629
 51
294.016371
  0
LINE
  5
11F74
100
AcDbEntity
  8
0
100
AcDbLine
 10
2510.724515
 20
740.441404
 30
0.0
 11
2510.724515
 21
746.538404
 31
0.0
  0
LINE
  5
11F75
100
AcDbEntity
  8
0
100
AcDbLine
 10
2502.224515
 20
739.537404
 30
0.0
 11
2502.224515
 21
746.538404
 31
0.0
  0
LINE
  5
11F76
100
AcDbEntity
  8
0
100
AcDbLine
 10
2499.724515
 20
704.538404
 30
0.0
 11
2500.724515
 21
705.538404
 31
0.0
  0
LINE
  5
11F77
100
AcDbEntity
  8
0
100
AcDbLine
 10
2500.724515
 20
705.538404
 30
0.0
 11
2500.724515
 21
735.089374
 31
0.0
  0
ARC
  5
11F78
100
AcDbEntity
  8
0
100
AcDbCircle
 10
2495.224515
 20
726.538404
 30
0.0
 40
2.0
100
AcDbArc
 50
270.0
 51
0.0
  0
LINE
  5
11F79
100
AcDbEntity
  8
0
100
AcDbLine
 10
2502.224515
 20
739.537404
 30
0.0
 11
2519.224515
 21
739.537404
 31
0.0
  0
ARC
  5
11F7A
100
AcDbEntity
  8
0
100
AcDbCircle
 10
2514.974515
 20
749.979725
 30
0.0
 40
10.442321
100
AcDbArc
 50
245.983629
 51
294.016371
  0
LINE
  5
11F7B
100
AcDbEntity
  8
0
100
AcDbLine
 10
2432.922415
 20
830.038404
 30
0.0
 11
2431.937862
 21
801.844495
 31
0.0
  0
LINE
  5
11F7C
100
AcDbEntity
  8
0
100
AcDbLine
 10
2449.912515
 20
784.538404
 30
0.0
 11
2450.724515
 21
783.726404
 31
0.0
  0
LINE
  5
11F7D
100
AcDbEntity
  8
0
100
AcDbLine
 10
2450.724515
 20
783.726404
 30
0.0
 11
2450.724515
 21
780.538404
 31
0.0
  0
LINE
  5
11F7E
100
AcDbEntity
  8
0
100
AcDbLine
 10
2440.724515
 20
783.726404
 30
0.0
 11
2441.536515
 21
784.538404
 31
0.0
  0
LINE
  5
11F7F
100
AcDbEntity
  8
0
100
AcDbLine
 10
2440.724515
 20
780.538404
 30
0.0
 11
2440.724515
 21
783.726404
 31
0.0
  0
LINE
  5
11F80
100
AcDbEntity
  8
0
100
AcDbLine
 10
2441.536515
 20
784.538404
 30
0.0
 11
2449.912515
 21
784.538404
 31
0.0
  0
LINE
  5
11F81
100
AcDbEntity
  8
0
100
AcDbLine
 10
2409.036515
 20
784.538404
 30
0.0
 11
2417.412515
 21
784.538404
 31
0.0
  0
LINE
  5
11F82
100
AcDbEntity
  8
0
100
AcDbLine
 10
2417.412515
 20
784.538404
 30
0.0
 11
2418.224515
 21
783.726404
 31
0.0
  0
LINE
  5
11F83
100
AcDbEntity
  8
0
100
AcDbLine
 10
2418.224515
 20
783.726404
 30
0.0
 11
2418.224515
 21
780.538404
 31
0.0
  0
ARC
  5
11F84
100
AcDbEntity
  8
0
100
AcDbCircle
 10
2421.62495
 20
786.538404
 30
0.0
 40
6.0
100
AcDbArc
 50
270.0
 51
345.0
  0
LINE
  5
11F85
100
AcDbEntity
  8
0
100
AcDbLine
 10
2431.937862
 20
801.844495
 30
0.0
 11
2427.420505
 21
784.98549
 31
0.0
  0
LINE
  5
11F86
100
AcDbEntity
  8
0
100
AcDbLine
 10
2523.526616
 20
830.038404
 30
0.0
 11
2524.511169
 21
801.844495
 31
0.0
  0
ARC
  5
11F87
100
AcDbEntity
  8
0
100
AcDbCircle
 10
2534.82408
 20
786.538404
 30
0.0
 40
6.0
100
AcDbArc
 50
195.0
 51
270.0
  0
LINE
  5
11F88
100
AcDbEntity
  8
0
100
AcDbLine
 10
2524.511169
 20
801.844495
 30
0.0
 11
2529.028525
 21
784.98549
 31
0.0
  0
LINE
  5
11F89
100
AcDbEntity
  8
0
100
AcDbLine
 10
2515.724515
 20
783.726404
 30
0.0
 11
2514.912515
 21
784.538404
 31
0.0
  0
LINE
  5
11F8A
100
AcDbEntity
  8
0
100
AcDbLine
 10
2514.912515
 20
784.538404
 30
0.0
 11
2506.536515
 21
784.538404
 31
0.0
  0
LINE
  5
11F8B
100
AcDbEntity
  8
0
100
AcDbLine
 10
2506.536515
 20
784.538404
 30
0.0
 11
2505.724515
 21
783.726404
 31
0.0
  0
LINE
  5
11F8C
100
AcDbEntity
  8
0
100
AcDbLine
 10
2505.724515
 20
783.726404
 30
0.0
 11
2505.724515
 21
780.538404
 31
0.0
  0
LINE
  5
11F8D
100
AcDbEntity
  8
0
100
AcDbLine
 10
2515.724515
 20
780.538404
 30
0.0
 11
2515.724515
 21
783.726404
 31
0.0
  0
LINE
  5
11F8E
100
AcDbEntity
  8
0
100
AcDbLine
 10
2408.224515
 20
881.226404
 30
0.0
 11
2409.036515
 21
882.038404
 31
0.0
  0
ARC
  5
11F8F
100
AcDbEntity
  8
0
100
AcDbCircle
 10
2408.974515
 20
848.479725
 30
0.0
 40
10.442321
100
AcDbArc
 50
245.983629
 51
294.016371
  0
LINE
  5
11F90
100
AcDbEntity
  8
0
100
AcDbLine
 10
2421.724515
 20
838.037404
 30
0.0
 11
2404.724515
 21
838.037404
 31
0.0
  0
LINE
  5
11F91
100
AcDbEntity
  8
0
100
AcDbLine
 10
2408.224515
 20
878.038404
 30
0.0
 11
2408.224515
 21
881.226404
 31
0.0
  0
LINE
  5
11F92
100
AcDbEntity
  8
0
100
AcDbLine
 10
2404.724515
 20
838.037404
 30
0.0
 11
2404.724515
 21
845.038404
 31
0.0
  0
LINE
  5
11F93
100
AcDbEntity
  8
0
100
AcDbLine
 10
2400.224515
 20
878.038404
 30
0.0
 11
2400.224515
 21
845.038404
 31
0.0
  0
LINE
  5
11F94
100
AcDbEntity
  8
0
100
AcDbLine
 10
2415.224515
 20
904.538404
 30
0.0
 11
2415.224515
 21
942.538404
 31
0.0
  0
LINE
  5
11F95
100
AcDbEntity
  8
0
100
AcDbLine
 10
2524.224515
 20
893.038404
 30
0.0
 11
2432.224515
 21
893.038404
 31
0.0
  0
LINE
  5
11F96
100
AcDbEntity
  8
0
100
AcDbLine
 10
2429.224515
 20
893.038404
 30
0.0
 11
2429.224515
 21
904.538404
 31
0.0
  0
LINE
  5
11F97
100
AcDbEntity
  8
0
100
AcDbLine
 10
2449.912515
 20
882.038404
 30
0.0
 11
2450.724515
 21
881.226404
 31
0.0
  0
LINE
  5
11F98
100
AcDbEntity
  8
0
100
AcDbLine
 10
2450.724515
 20
881.226404
 30
0.0
 11
2450.724515
 21
878.038404
 31
0.0
  0
LINE
  5
11F99
100
AcDbEntity
  8
0
100
AcDbLine
 10
2440.724515
 20
881.226404
 30
0.0
 11
2441.536515
 21
882.038404
 31
0.0
  0
LINE
  5
11F9A
100
AcDbEntity
  8
0
100
AcDbLine
 10
2440.724515
 20
878.038404
 30
0.0
 11
2440.724515
 21
881.226404
 31
0.0
  0
LINE
  5
11F9B
100
AcDbEntity
  8
0
100
AcDbLine
 10
2441.536515
 20
882.038404
 30
0.0
 11
2449.912515
 21
882.038404
 31
0.0
  0
LINE
  5
11F9C
100
AcDbEntity
  8
0
100
AcDbLine
 10
2429.224515
 20
893.038404
 30
0.0
 11
2426.016342
 21
881.007754
 31
0.0
  0
LINE
  5
11F9D
100
AcDbEntity
  8
0
100
AcDbLine
 10
2418.224515
 20
881.226404
 30
0.0
 11
2418.224515
 21
878.038404
 31
0.0
  0
LINE
  5
11F9E
100
AcDbEntity
  8
0
100
AcDbLine
 10
2409.036515
 20
882.038404
 30
0.0
 11
2417.412515
 21
882.038404
 31
0.0
  0
LINE
  5
11F9F
100
AcDbEntity
  8
0
100
AcDbLine
 10
2417.412515
 20
882.038404
 30
0.0
 11
2418.224515
 21
881.226404
 31
0.0
  0
ARC
  5
11FA0
100
AcDbEntity
  8
0
100
AcDbCircle
 10
2422.151402
 20
882.038404
 30
0.0
 40
4.0
100
AcDbArc
 50
270.0
 51
345.068583
  0
ARC
  5
11FA1
100
AcDbEntity
  8
0
100
AcDbCircle
 10
2430.980468
 20
901.538404
 30
0.0
 40
3.0
100
AcDbArc
 50
0.0
 51
90.0
  0
LINE
  5
11FA2
100
AcDbEntity
  8
0
100
AcDbLine
 10
2430.980468
 20
904.538404
 30
0.0
 11
2415.224515
 21
904.538404
 31
0.0
  0
LINE
  5
11FA3
100
AcDbEntity
  8
0
100
AcDbLine
 10
2454.224515
 20
838.037404
 30
0.0
 11
2454.224515
 21
845.038404
 31
0.0
  0
ARC
  5
11FA4
100
AcDbEntity
  8
0
100
AcDbCircle
 10
2425.865359
 20
839.038404
 30
0.0
 40
6.0
100
AcDbArc
 50
6.458011
 51
90.0
  0
ARC
  5
11FA5
100
AcDbEntity
  8
0
100
AcDbCircle
 10
2441.474515
 20
848.479725
 30
0.0
 40
10.442321
100
AcDbArc
 50
245.983629
 51
294.016371
  0
LINE
  5
11FA6
100
AcDbEntity
  8
0
100
AcDbLine
 10
2437.224515
 20
838.037404
 30
0.0
 11
2437.224515
 21
845.038404
 31
0.0
  0
LINE
  5
11FA7
100
AcDbEntity
  8
0
100
AcDbLine
 10
2445.724515
 20
838.941404
 30
0.0
 11
2445.724515
 21
845.038404
 31
0.0
  0
ARC
  5
11FA8
100
AcDbEntity
  8
0
100
AcDbCircle
 10
2449.974515
 20
848.479725
 30
0.0
 40
10.442321
100
AcDbArc
 50
245.983629
 51
294.016371
  0
LINE
  5
11FA9
100
AcDbEntity
  8
0
100
AcDbLine
 10
2454.224515
 20
838.037404
 30
0.0
 11
2437.224515
 21
838.037404
 31
0.0
  0
LINE
  5
11FAA
100
AcDbEntity
  8
0
100
AcDbLine
 10
2421.724515
 20
838.037404
 30
0.0
 11
2421.724515
 21
845.038404
 31
0.0
  0
LINE
  5
11FAB
100
AcDbEntity
  8
0
100
AcDbLine
 10
2413.224515
 20
838.941404
 30
0.0
 11
2413.224515
 21
845.038404
 31
0.0
  0
ARC
  5
11FAC
100
AcDbEntity
  8
0
100
AcDbCircle
 10
2417.474515
 20
848.479725
 30
0.0
 40
10.442321
100
AcDbArc
 50
245.983629
 51
294.016371
  0
ARC
  5
11FAD
100
AcDbEntity
  8
0
100
AcDbCircle
 10
2525.468562
 20
901.538404
 30
0.0
 40
3.0
100
AcDbArc
 50
90.0
 51
180.0
  0
LINE
  5
11FAE
100
AcDbEntity
  8
0
100
AcDbLine
 10
2527.224515
 20
893.038404
 30
0.0
 11
2527.224515
 21
904.538404
 31
0.0
  0
ARC
  5
11FAF
100
AcDbEntity
  8
0
100
AcDbCircle
 10
2534.297628
 20
882.038404
 30
0.0
 40
4.0
100
AcDbArc
 50
194.931417
 51
270.0
  0
LINE
  5
11FB0
100
AcDbEntity
  8
0
100
AcDbLine
 10
2527.224515
 20
893.038404
 30
0.0
 11
2530.432689
 21
881.007754
 31
0.0
  0
LINE
  5
11FB1
100
AcDbEntity
  8
0
100
AcDbLine
 10
2505.724515
 20
881.226404
 30
0.0
 11
2505.724515
 21
878.038404
 31
0.0
  0
LINE
  5
11FB2
100
AcDbEntity
  8
0
100
AcDbLine
 10
2515.724515
 20
878.038404
 30
0.0
 11
2515.724515
 21
881.226404
 31
0.0
  0
LINE
  5
11FB3
100
AcDbEntity
  8
0
100
AcDbLine
 10
2515.724515
 20
881.226404
 30
0.0
 11
2514.912515
 21
882.038404
 31
0.0
  0
LINE
  5
11FB4
100
AcDbEntity
  8
0
100
AcDbLine
 10
2514.912515
 20
882.038404
 30
0.0
 11
2506.536515
 21
882.038404
 31
0.0
  0
LINE
  5
11FB5
100
AcDbEntity
  8
0
100
AcDbLine
 10
2506.536515
 20
882.038404
 30
0.0
 11
2505.724515
 21
881.226404
 31
0.0
  0
ARC
  5
11FB6
100
AcDbEntity
  8
0
100
AcDbCircle
 10
2530.583671
 20
839.038404
 30
0.0
 40
6.0
100
AcDbArc
 50
90.0
 51
173.541989
  0
LINE
  5
11FB7
100
AcDbEntity
  8
0
100
AcDbLine
 10
2519.224515
 20
838.037404
 30
0.0
 11
2519.224515
 21
845.038404
 31
0.0
  0
LINE
  5
11FB8
100
AcDbEntity
  8
0
100
AcDbLine
 10
2534.724515
 20
838.037404
 30
0.0
 11
2534.724515
 21
845.038404
 31
0.0
  0
LINE
  5
11FB9
100
AcDbEntity
  8
0
100
AcDbLine
 10
2502.224515
 20
838.037404
 30
0.0
 11
2502.224515
 21
845.038404
 31
0.0
  0
LINE
  5
11FBA
100
AcDbEntity
  8
0
100
AcDbLine
 10
2510.724515
 20
838.941404
 30
0.0
 11
2510.724515
 21
845.038404
 31
0.0
  0
ARC
  5
11FBB
100
AcDbEntity
  8
0
100
AcDbCircle
 10
2506.474515
 20
848.479725
 30
0.0
 40
10.442321
100
AcDbArc
 50
245.983629
 51
294.016371
  0
ARC
  5
11FBC
100
AcDbEntity
  8
0
100
AcDbCircle
 10
2514.974515
 20
848.479725
 30
0.0
 40
10.442321
100
AcDbArc
 50
245.983629
 51
294.016371
  0
LINE
  5
11FBD
100
AcDbEntity
  8
0
100
AcDbLine
 10
2502.224515
 20
838.037404
 30
0.0
 11
2519.224515
 21
838.037404
 31
0.0
  0
LINE
  5
11FC2
100
AcDbEntity
  8
0
100
AcDbLine
 10
2417.091464
 20
942.538404
 30
0.0
 11
2415.224515
 21
942.538404
 31
0.0
  0
LINE
  5
11FC7
100
AcDbEntity
  8
0
100
AcDbLine
 10
2556.224515
 20
746.538404
 30
0.0
 11
2556.224515
 21
780.538404
 31
0.0
  0
LINE
  5
11FC8
100
AcDbEntity
  8
0
100
AcDbLine
 10
2543.224515
 20
740.441404
 30
0.0
 11
2543.224515
 21
746.538404
 31
0.0
  0
LINE
  5
11FC9
100
AcDbEntity
  8
0
100
AcDbLine
 10
2551.724515
 20
739.537404
 30
0.0
 11
2551.724515
 21
746.538404
 31
0.0
  0
ARC
  5
11FCA
100
AcDbEntity
  8
0
100
AcDbCircle
 10
2547.474515
 20
749.979725
 30
0.0
 40
10.442321
100
AcDbArc
 50
245.983629
 51
294.016371
  0
LINE
  5
11FCB
100
AcDbEntity
  8
0
100
AcDbLine
 10
2548.224515
 20
783.726404
 30
0.0
 11
2547.412515
 21
784.538404
 31
0.0
  0
LINE
  5
11FCC
100
AcDbEntity
  8
0
100
AcDbLine
 10
2548.224515
 20
780.538404
 30
0.0
 11
2548.224515
 21
783.726404
 31
0.0
  0
LINE
  5
11FCD
100
AcDbEntity
  8
0
100
AcDbLine
 10
2539.036515
 20
784.538404
 30
0.0
 11
2538.224515
 21
783.726404
 31
0.0
  0
LINE
  5
11FCE
100
AcDbEntity
  8
0
100
AcDbLine
 10
2538.224515
 20
783.726404
 30
0.0
 11
2538.224515
 21
780.538404
 31
0.0
  0
LINE
  5
11FCF
100
AcDbEntity
  8
0
100
AcDbLine
 10
2547.412515
 20
784.538404
 30
0.0
 11
2539.036515
 21
784.538404
 31
0.0
  0
LINE
  5
11FD0
100
AcDbEntity
  8
0
100
AcDbLine
 10
2541.224515
 20
904.538404
 30
0.0
 11
2541.224515
 21
942.538404
 31
0.0
  0
LINE
  5
11FD1
100
AcDbEntity
  8
0
100
AcDbLine
 10
2548.224515
 20
878.038404
 30
0.0
 11
2548.224515
 21
881.226404
 31
0.0
  0
LINE
  5
11FD2
100
AcDbEntity
  8
0
100
AcDbLine
 10
2548.224515
 20
881.226404
 30
0.0
 11
2547.412515
 21
882.038404
 31
0.0
  0
LINE
  5
11FD3
100
AcDbEntity
  8
0
100
AcDbLine
 10
2538.224515
 20
881.226404
 30
0.0
 11
2538.224515
 21
878.038404
 31
0.0
  0
LINE
  5
11FD4
100
AcDbEntity
  8
0
100
AcDbLine
 10
2539.036515
 20
882.038404
 30
0.0
 11
2538.224515
 21
881.226404
 31
0.0
  0
LINE
  5
11FD5
100
AcDbEntity
  8
0
100
AcDbLine
 10
2547.412515
 20
882.038404
 30
0.0
 11
2539.036515
 21
882.038404
 31
0.0
  0
ARC
  5
11FD6
100
AcDbEntity
  8
0
100
AcDbCircle
 10
2547.474515
 20
848.479725
 30
0.0
 40
10.442321
100
AcDbArc
 50
245.983629
 51
294.016371
  0
LINE
  5
11FD7
100
AcDbEntity
  8
0
100
AcDbLine
 10
2551.724515
 20
838.037404
 30
0.0
 11
2551.724515
 21
845.038404
 31
0.0
  0
LINE
  5
11FD8
100
AcDbEntity
  8
0
100
AcDbLine
 10
2543.224515
 20
838.941404
 30
0.0
 11
2543.224515
 21
845.038404
 31
0.0
  0
LINE
  5
11FD9
100
AcDbEntity
  8
0
100
AcDbLine
 10
2556.224515
 20
878.038404
 30
0.0
 11
2556.224515
 21
845.038404
 31
0.0
  0
CIRCLE
  5
11FDA
100
AcDbEntity
  8
0
100
AcDbCircle
 10
2138.2941
 20
955.538404
 30
0.0
 40
50.0
  0
CIRCLE
  5
11FDB
100
AcDbEntity
  8
0
100
AcDbCircle
 10
2164.810605
 20
982.054909
 30
0.0
 40
7.5
  0
CIRCLE
  5
11FDC
100
AcDbEntity
  8
0
100
AcDbCircle
 10
2111.777596
 20
982.054909
 30
0.0
 40
7.5
  0
LINE
  5
11FDD
100
AcDbEntity
  8
0
100
AcDbLine
 10
2090.01367
 20
942.538404
 30
0.0
 11
2075.2941
 21
942.538404
 31
0.0
  0
LINE
  5
11FDE
100
AcDbEntity
  8
0
100
AcDbLine
 10
2091.050053
 20
904.538404
 30
0.0
 11
2075.2941
 21
904.538404
 31
0.0
  0
LINE
  5
11FDF
100
AcDbEntity
  8
0
100
AcDbLine
 10
2216.2941
 20
861.538404
 30
0.0
 11
2060.2941
 21
861.538404
 31
0.0
  0
LINE
  5
11FE0
100
AcDbEntity
  8
0
100
AcDbLine
 10
2060.2941
 20
878.038404
 30
0.0
 11
2216.2941
 21
878.038404
 31
0.0
  0
LINE
  5
11FE1
100
AcDbEntity
  8
0
100
AcDbLine
 10
2216.2941
 20
746.538404
 30
0.0
 11
2060.2941
 21
746.538404
 31
0.0
  0
LINE
  5
11FE2
100
AcDbEntity
  8
0
100
AcDbLine
 10
2060.2941
 20
763.538404
 30
0.0
 11
2216.2941
 21
763.538404
 31
0.0
  0
LINE
  5
11FE3
100
AcDbEntity
  8
0
100
AcDbLine
 10
2060.2941
 20
780.538404
 30
0.0
 11
2216.2941
 21
780.538404
 31
0.0
  0
LINE
  5
11FE4
100
AcDbEntity
  8
0
100
AcDbLine
 10
2060.2941
 20
845.038404
 30
0.0
 11
2216.2941
 21
845.038404
 31
0.0
  0
ARC
  5
11FE5
100
AcDbEntity
  8
0
100
AcDbCircle
 10
2077.5441
 20
749.979725
 30
0.0
 40
10.442321
100
AcDbArc
 50
245.983629
 51
294.016371
  0
LINE
  5
11FE6
100
AcDbEntity
  8
0
100
AcDbLine
 10
2081.7941
 20
739.537404
 30
0.0
 11
2064.7941
 21
739.537404
 31
0.0
  0
LINE
  5
11FE7
100
AcDbEntity
  8
0
100
AcDbLine
 10
2081.7941
 20
838.037404
 30
0.0
 11
2064.7941
 21
838.037404
 31
0.0
  0
ARC
  5
11FE8
100
AcDbEntity
  8
0
100
AcDbCircle
 10
2077.5441
 20
848.479725
 30
0.0
 40
10.442321
100
AcDbArc
 50
245.983629
 51
294.016371
  0
LINE
  5
11FE9
100
AcDbEntity
  8
0
100
AcDbLine
 10
2092.992
 20
830.038404
 30
0.0
 11
2091.896872
 21
839.713255
 31
0.0
  0
LINE
  5
11FEA
100
AcDbEntity
  8
0
100
AcDbLine
 10
2183.596201
 20
830.038404
 30
0.0
 11
2184.691329
 21
839.713255
 31
0.0
  0
ARC
  5
11FEB
100
AcDbEntity
  8
0
100
AcDbCircle
 10
2207.5441
 20
749.979725
 30
0.0
 40
10.442321
100
AcDbArc
 50
245.983629
 51
294.016371
  0
LINE
  5
11FEC
100
AcDbEntity
  8
0
100
AcDbLine
 10
2194.7941
 20
739.537404
 30
0.0
 11
2211.7941
 21
739.537404
 31
0.0
  0
LINE
  5
11FED
100
AcDbEntity
  8
0
100
AcDbLine
 10
2216.2941
 20
746.538404
 30
0.0
 11
2216.2941
 21
780.538404
 31
0.0
  0
LINE
  5
11FEE
100
AcDbEntity
  8
0
100
AcDbLine
 10
2211.7941
 20
739.537404
 30
0.0
 11
2211.7941
 21
746.538404
 31
0.0
  0
ARC
  5
11FF5
100
AcDbEntity
  8
0
100
AcDbCircle
 10
2166.5441
 20
749.979725
 30
0.0
 40
10.442321
100
AcDbArc
 50
245.983629
 51
294.016371
  0
LINE
  5
11FF6
100
AcDbEntity
  8
0
100
AcDbLine
 10
2162.2941
 20
739.537404
 30
0.0
 11
2179.2941
 21
739.537404
 31
0.0
  0
ARC
  5
11FF7
100
AcDbEntity
  8
0
100
AcDbCircle
 10
2175.0441
 20
749.979725
 30
0.0
 40
10.442321
100
AcDbArc
 50
245.983629
 51
294.016371
  0
LINE
  5
11FF8
100
AcDbEntity
  8
0
100
AcDbLine
 10
2170.7941
 20
740.441404
 30
0.0
 11
2170.7941
 21
746.538404
 31
0.0
  0
LINE
  5
11FF9
100
AcDbEntity
  8
0
100
AcDbLine
 10
2162.2941
 20
739.537404
 30
0.0
 11
2162.2941
 21
746.538404
 31
0.0
  0
LINE
  5
11FFC
100
AcDbEntity
  8
0
100
AcDbLine
 10
2194.7941
 20
739.537404
 30
0.0
 11
2194.7941
 21
746.538404
 31
0.0
  0
LINE
  5
11FFD
100
AcDbEntity
  8
0
100
AcDbLine
 10
2203.2941
 20
740.441404
 30
0.0
 11
2203.2941
 21
746.538404
 31
0.0
  0
ARC
  5
11FFE
100
AcDbEntity
  8
0
100
AcDbCircle
 10
2199.0441
 20
749.979725
 30
0.0
 40
10.442321
100
AcDbArc
 50
245.983629
 51
294.016371
  0
LINE
  5
11FFF
100
AcDbEntity
  8
0
100
AcDbLine
 10
2179.2941
 20
739.537404
 30
0.0
 11
2179.2941
 21
746.538404
 31
0.0
  0
ARC
  5
12000
100
AcDbEntity
  8
0
100
AcDbCircle
 10
2101.5441
 20
749.979725
 30
0.0
 40
10.442321
100
AcDbArc
 50
245.983629
 51
294.016371
  0
LINE
  5
12001
100
AcDbEntity
  8
0
100
AcDbLine
 10
2114.2941
 20
739.537404
 30
0.0
 11
2097.2941
 21
739.537404
 31
0.0
  0
LINE
  5
12005
100
AcDbEntity
  8
0
100
AcDbLine
 10
2114.2941
 20
739.537404
 30
0.0
 11
2114.2941
 21
746.538404
 31
0.0
  0
LINE
  5
12006
100
AcDbEntity
  8
0
100
AcDbLine
 10
2105.7941
 20
740.441404
 30
0.0
 11
2105.7941
 21
746.538404
 31
0.0
  0
ARC
  5
12007
100
AcDbEntity
  8
0
100
AcDbCircle
 10
2110.0441
 20
749.979725
 30
0.0
 40
10.442321
100
AcDbArc
 50
245.983629
 51
294.016371
  0
LINE
  5
1200A
100
AcDbEntity
  8
0
100
AcDbLine
 10
2097.2941
 20
739.537404
 30
0.0
 11
2097.2941
 21
746.538404
 31
0.0
  0
LINE
  5
1200B
100
AcDbEntity
  8
0
100
AcDbLine
 10
2081.7941
 20
739.537404
 30
0.0
 11
2081.7941
 21
746.538404
 31
0.0
  0
LINE
  5
1200C
100
AcDbEntity
  8
0
100
AcDbLine
 10
2174.9821
 20
784.538404
 30
0.0
 11
2166.6061
 21
784.538404
 31
0.0
  0
LINE
  5
1200D
100
AcDbEntity
  8
0
100
AcDbLine
 10
2165.7941
 20
783.726404
 30
0.0
 11
2165.7941
 21
780.538404
 31
0.0
  0
LINE
  5
1200E
100
AcDbEntity
  8
0
100
AcDbLine
 10
2166.6061
 20
784.538404
 30
0.0
 11
2165.7941
 21
783.726404
 31
0.0
  0
LINE
  5
1200F
100
AcDbEntity
  8
0
100
AcDbLine
 10
2184.580754
 20
801.844495
 30
0.0
 11
2189.09811
 21
784.98549
 31
0.0
  0
ARC
  5
12010
100
AcDbEntity
  8
0
100
AcDbCircle
 10
2194.893665
 20
786.538404
 30
0.0
 40
6.0
100
AcDbArc
 50
195.0
 51
270.0
  0
LINE
  5
12011
100
AcDbEntity
  8
0
100
AcDbLine
 10
2198.2941
 20
783.726404
 30
0.0
 11
2198.2941
 21
780.538404
 31
0.0
  0
LINE
  5
12012
100
AcDbEntity
  8
0
100
AcDbLine
 10
2199.1061
 20
784.538404
 30
0.0
 11
2198.2941
 21
783.726404
 31
0.0
  0
LINE
  5
12013
100
AcDbEntity
  8
0
100
AcDbLine
 10
2207.4821
 20
784.538404
 30
0.0
 11
2199.1061
 21
784.538404
 31
0.0
  0
LINE
  5
12014
100
AcDbEntity
  8
0
100
AcDbLine
 10
2175.7941
 20
780.538404
 30
0.0
 11
2175.7941
 21
783.726404
 31
0.0
  0
LINE
  5
12015
100
AcDbEntity
  8
0
100
AcDbLine
 10
2175.7941
 20
783.726404
 30
0.0
 11
2174.9821
 21
784.538404
 31
0.0
  0
LINE
  5
12016
100
AcDbEntity
  8
0
100
AcDbLine
 10
2183.596201
 20
830.038404
 30
0.0
 11
2184.580754
 21
801.844495
 31
0.0
  0
LINE
  5
12017
100
AcDbEntity
  8
0
100
AcDbLine
 10
2208.2941
 20
780.538404
 30
0.0
 11
2208.2941
 21
783.726404
 31
0.0
  0
LINE
  5
12018
100
AcDbEntity
  8
0
100
AcDbLine
 10
2208.2941
 20
783.726404
 30
0.0
 11
2207.4821
 21
784.538404
 31
0.0
  0
LINE
  5
12019
100
AcDbEntity
  8
0
100
AcDbLine
 10
2100.7941
 20
780.538404
 30
0.0
 11
2100.7941
 21
783.726404
 31
0.0
  0
LINE
  5
1201A
100
AcDbEntity
  8
0
100
AcDbLine
 10
2110.7941
 20
783.726404
 30
0.0
 11
2110.7941
 21
780.538404
 31
0.0
  0
LINE
  5
1201B
100
AcDbEntity
  8
0
100
AcDbLine
 10
2109.9821
 20
784.538404
 30
0.0
 11
2110.7941
 21
783.726404
 31
0.0
  0
LINE
  5
1201C
100
AcDbEntity
  8
0
100
AcDbLine
 10
2101.6061
 20
784.538404
 30
0.0
 11
2109.9821
 21
784.538404
 31
0.0
  0
LINE
  5
1201D
100
AcDbEntity
  8
0
100
AcDbLine
 10
2100.7941
 20
783.726404
 30
0.0
 11
2101.6061
 21
784.538404
 31
0.0
  0
LINE
  5
1201E
100
AcDbEntity
  8
0
100
AcDbLine
 10
2092.007447
 20
801.844495
 30
0.0
 11
2087.49009
 21
784.98549
 31
0.0
  0
ARC
  5
1201F
100
AcDbEntity
  8
0
100
AcDbCircle
 10
2081.694535
 20
786.538404
 30
0.0
 40
6.0
100
AcDbArc
 50
270.0
 51
345.0
  0
LINE
  5
12020
100
AcDbEntity
  8
0
100
AcDbLine
 10
2092.992
 20
830.038404
 30
0.0
 11
2092.007447
 21
801.844495
 31
0.0
  0
LINE
  5
12021
100
AcDbEntity
  8
0
100
AcDbLine
 10
2194.7941
 20
838.037404
 30
0.0
 11
2211.7941
 21
838.037404
 31
0.0
  0
ARC
  5
12022
100
AcDbEntity
  8
0
100
AcDbCircle
 10
2207.5441
 20
848.479725
 30
0.0
 40
10.442321
100
AcDbArc
 50
245.983629
 51
294.016371
  0
LINE
  5
12023
100
AcDbEntity
  8
0
100
AcDbLine
 10
2216.2941
 20
878.038404
 30
0.0
 11
2216.2941
 21
845.038404
 31
0.0
  0
LINE
  5
12024
100
AcDbEntity
  8
0
100
AcDbLine
 10
2211.7941
 20
838.037404
 30
0.0
 11
2211.7941
 21
845.038404
 31
0.0
  0
LINE
  5
12025
100
AcDbEntity
  8
0
100
AcDbLine
 10
2201.2941
 20
904.538404
 30
0.0
 11
2201.2941
 21
942.538404
 31
0.0
  0
LINE
  5
12026
100
AcDbEntity
  8
0
100
AcDbLine
 10
2092.2941
 20
893.038404
 30
0.0
 11
2184.2941
 21
893.038404
 31
0.0
  0
LINE
  5
12027
100
AcDbEntity
  8
0
100
AcDbLine
 10
2162.2941
 20
838.037404
 30
0.0
 11
2179.2941
 21
838.037404
 31
0.0
  0
ARC
  5
12028
100
AcDbEntity
  8
0
100
AcDbCircle
 10
2166.5441
 20
848.479725
 30
0.0
 40
10.442321
100
AcDbArc
 50
245.983629
 51
294.016371
  0
LINE
  5
12029
100
AcDbEntity
  8
0
100
AcDbLine
 10
2170.7941
 20
838.941404
 30
0.0
 11
2170.7941
 21
845.038404
 31
0.0
  0
ARC
  5
1202A
100
AcDbEntity
  8
0
100
AcDbCircle
 10
2175.0441
 20
848.479725
 30
0.0
 40
10.442321
100
AcDbArc
 50
245.983629
 51
294.016371
  0
LINE
  5
1202B
100
AcDbEntity
  8
0
100
AcDbLine
 10
2162.2941
 20
838.037404
 30
0.0
 11
2162.2941
 21
845.038404
 31
0.0
  0
LINE
  5
1202C
100
AcDbEntity
  8
0
100
AcDbLine
 10
2174.9821
 20
882.038404
 30
0.0
 11
2166.6061
 21
882.038404
 31
0.0
  0
LINE
  5
1202D
100
AcDbEntity
  8
0
100
AcDbLine
 10
2165.7941
 20
881.226404
 30
0.0
 11
2165.7941
 21
878.038404
 31
0.0
  0
LINE
  5
1202E
100
AcDbEntity
  8
0
100
AcDbLine
 10
2166.6061
 20
882.038404
 30
0.0
 11
2165.7941
 21
881.226404
 31
0.0
  0
ARC
  5
1202F
100
AcDbEntity
  8
0
100
AcDbCircle
 10
2199.0441
 20
848.479725
 30
0.0
 40
10.442321
100
AcDbArc
 50
245.983629
 51
294.016371
  0
LINE
  5
12030
100
AcDbEntity
  8
0
100
AcDbLine
 10
2203.2941
 20
838.941404
 30
0.0
 11
2203.2941
 21
845.038404
 31
0.0
  0
LINE
  5
12031
100
AcDbEntity
  8
0
100
AcDbLine
 10
2194.7941
 20
838.037404
 30
0.0
 11
2194.7941
 21
845.038404
 31
0.0
  0
LINE
  5
12032
100
AcDbEntity
  8
0
100
AcDbLine
 10
2179.2941
 20
838.037404
 30
0.0
 11
2179.2941
 21
845.038404
 31
0.0
  0
ARC
  5
12033
100
AcDbEntity
  8
0
100
AcDbCircle
 10
2190.653256
 20
839.038404
 30
0.0
 40
6.0
100
AcDbArc
 50
90.0
 51
173.541989
  0
LINE
  5
12034
100
AcDbEntity
  8
0
100
AcDbLine
 10
2185.538148
 20
904.538404
 30
0.0
 11
2201.2941
 21
904.538404
 31
0.0
  0
ARC
  5
12035
100
AcDbEntity
  8
0
100
AcDbCircle
 10
2185.538148
 20
901.538404
 30
0.0
 40
3.0
100
AcDbArc
 50
90.0
 51
180.0
  0
ARC
  5
12036
100
AcDbEntity
  8
0
100
AcDbCircle
 10
2194.367214
 20
882.038404
 30
0.0
 40
4.0
100
AcDbArc
 50
194.931417
 51
270.0
  0
LINE
  5
12037
100
AcDbEntity
  8
0
100
AcDbLine
 10
2199.1061
 20
882.038404
 30
0.0
 11
2198.2941
 21
881.226404
 31
0.0
  0
LINE
  5
12038
100
AcDbEntity
  8
0
100
AcDbLine
 10
2207.4821
 20
882.038404
 30
0.0
 11
2199.1061
 21
882.038404
 31
0.0
  0
LINE
  5
12039
100
AcDbEntity
  8
0
100
AcDbLine
 10
2198.2941
 20
881.226404
 30
0.0
 11
2198.2941
 21
878.038404
 31
0.0
  0
LINE
  5
1203A
100
AcDbEntity
  8
0
100
AcDbLine
 10
2187.2941
 20
893.038404
 30
0.0
 11
2190.502274
 21
881.007754
 31
0.0
  0
LINE
  5
1203B
100
AcDbEntity
  8
0
100
AcDbLine
 10
2175.7941
 20
878.038404
 30
0.0
 11
2175.7941
 21
881.226404
 31
0.0
  0
LINE
  5
1203C
100
AcDbEntity
  8
0
100
AcDbLine
 10
2175.7941
 20
881.226404
 30
0.0
 11
2174.9821
 21
882.038404
 31
0.0
  0
LINE
  5
1203D
100
AcDbEntity
  8
0
100
AcDbLine
 10
2187.2941
 20
893.038404
 30
0.0
 11
2187.2941
 21
904.538404
 31
0.0
  0
LINE
  5
1203E
100
AcDbEntity
  8
0
100
AcDbLine
 10
2208.2941
 20
878.038404
 30
0.0
 11
2208.2941
 21
881.226404
 31
0.0
  0
LINE
  5
1203F
100
AcDbEntity
  8
0
100
AcDbLine
 10
2208.2941
 20
881.226404
 30
0.0
 11
2207.4821
 21
882.038404
 31
0.0
  0
LINE
  5
12040
100
AcDbEntity
  8
0
100
AcDbLine
 10
2089.2941
 20
893.038404
 30
0.0
 11
2089.2941
 21
904.538404
 31
0.0
  0
ARC
  5
12041
100
AcDbEntity
  8
0
100
AcDbCircle
 10
2091.050053
 20
901.538404
 30
0.0
 40
3.0
100
AcDbArc
 50
0.0
 51
90.0
  0
LINE
  5
12042
100
AcDbEntity
  8
0
100
AcDbLine
 10
2089.2941
 20
893.038404
 30
0.0
 11
2086.085927
 21
881.007754
 31
0.0
  0
LINE
  5
12043
100
AcDbEntity
  8
0
100
AcDbLine
 10
2114.2941
 20
838.037404
 30
0.0
 11
2097.2941
 21
838.037404
 31
0.0
  0
ARC
  5
12044
100
AcDbEntity
  8
0
100
AcDbCircle
 10
2101.5441
 20
848.479725
 30
0.0
 40
10.442321
100
AcDbArc
 50
245.983629
 51
294.016371
  0
ARC
  5
12045
100
AcDbEntity
  8
0
100
AcDbCircle
 10
2110.0441
 20
848.479725
 30
0.0
 40
10.442321
100
AcDbArc
 50
245.983629
 51
294.016371
  0
LINE
  5
12046
100
AcDbEntity
  8
0
100
AcDbLine
 10
2105.7941
 20
838.941404
 30
0.0
 11
2105.7941
 21
845.038404
 31
0.0
  0
LINE
  5
12047
100
AcDbEntity
  8
0
100
AcDbLine
 10
2114.2941
 20
838.037404
 30
0.0
 11
2114.2941
 21
845.038404
 31
0.0
  0
LINE
  5
12048
100
AcDbEntity
  8
0
100
AcDbLine
 10
2081.7941
 20
838.037404
 30
0.0
 11
2081.7941
 21
845.038404
 31
0.0
  0
LINE
  5
12049
100
AcDbEntity
  8
0
100
AcDbLine
 10
2097.2941
 20
838.037404
 30
0.0
 11
2097.2941
 21
845.038404
 31
0.0
  0
ARC
  5
1204A
100
AcDbEntity
  8
0
100
AcDbCircle
 10
2085.934944
 20
839.038404
 30
0.0
 40
6.0
100
AcDbArc
 50
6.458011
 51
90.0
  0
LINE
  5
1204B
100
AcDbEntity
  8
0
100
AcDbLine
 10
2109.9821
 20
882.038404
 30
0.0
 11
2110.7941
 21
881.226404
 31
0.0
  0
LINE
  5
1204C
100
AcDbEntity
  8
0
100
AcDbLine
 10
2101.6061
 20
882.038404
 30
0.0
 11
2109.9821
 21
882.038404
 31
0.0
  0
LINE
  5
1204D
100
AcDbEntity
  8
0
100
AcDbLine
 10
2100.7941
 20
881.226404
 30
0.0
 11
2101.6061
 21
882.038404
 31
0.0
  0
LINE
  5
1204E
100
AcDbEntity
  8
0
100
AcDbLine
 10
2100.7941
 20
878.038404
 30
0.0
 11
2100.7941
 21
881.226404
 31
0.0
  0
LINE
  5
1204F
100
AcDbEntity
  8
0
100
AcDbLine
 10
2110.7941
 20
881.226404
 30
0.0
 11
2110.7941
 21
878.038404
 31
0.0
  0
ARC
  5
12050
100
AcDbEntity
  8
0
100
AcDbCircle
 10
2082.220987
 20
882.038404
 30
0.0
 40
4.0
100
AcDbArc
 50
270.0
 51
345.068583
  0
LINE
  5
12051
100
AcDbEntity
  8
0
100
AcDbLine
 10
2186.574531
 20
942.538404
 30
0.0
 11
2201.2941
 21
942.538404
 31
0.0
  0
LINE
  5
12052
100
AcDbEntity
  8
0
100
AcDbLine
 10
2187.2941
 20
945.58853
 30
0.0
 11
2187.2941
 21
942.538404
 31
0.0
  0
ARC
  5
12053
100
AcDbEntity
  8
0
100
AcDbCircle
 10
2210.994985
 20
923.538404
 30
0.0
 40
33.540028
100
AcDbArc
 50
178.413154
 51
209.516959
  0
CIRCLE
  5
12054
100
AcDbEntity
  8
0
100
AcDbCircle
 10
2164.810605
 20
929.0219
 30
0.0
 40
7.5
  0
LINE
  5
12055
100
AcDbEntity
  8
0
100
AcDbLine
 10
2089.2941
 20
945.58853
 30
0.0
 11
2089.2941
 21
942.538404
 31
0.0
  0
ARC
  5
12056
100
AcDbEntity
  8
0
100
AcDbCircle
 10
2065.593216
 20
923.538404
 30
0.0
 40
33.540028
100
AcDbArc
 50
330.483041
 51
1.586846
  0
CIRCLE
  5
12057
100
AcDbEntity
  8
0
100
AcDbCircle
 10
2111.777596
 20
929.0219
 30
0.0
 40
7.5
  0
LINE
  5
12058
100
AcDbEntity
  8
0
100
AcDbLine
 10
2060.2941
 20
746.538404
 30
0.0
 11
2060.2941
 21
780.538404
 31
0.0
  0
ARC
  5
12059
100
AcDbEntity
  8
0
100
AcDbCircle
 10
2069.0441
 20
749.979725
 30
0.0
 40
10.442321
100
AcDbArc
 50
245.983629
 51
294.016371
  0
LINE
  5
1205A
100
AcDbEntity
  8
0
100
AcDbLine
 10
2064.7941
 20
739.537404
 30
0.0
 11
2064.7941
 21
746.538404
 31
0.0
  0
LINE
  5
1205B
100
AcDbEntity
  8
0
100
AcDbLine
 10
2073.2941
 20
740.441404
 30
0.0
 11
2073.2941
 21
746.538404
 31
0.0
  0
LINE
  5
1205C
100
AcDbEntity
  8
0
100
AcDbLine
 10
2069.1061
 20
784.538404
 30
0.0
 11
2077.4821
 21
784.538404
 31
0.0
  0
LINE
  5
1205D
100
AcDbEntity
  8
0
100
AcDbLine
 10
2078.2941
 20
783.726404
 30
0.0
 11
2078.2941
 21
780.538404
 31
0.0
  0
LINE
  5
1205E
100
AcDbEntity
  8
0
100
AcDbLine
 10
2077.4821
 20
784.538404
 30
0.0
 11
2078.2941
 21
783.726404
 31
0.0
  0
LINE
  5
1205F
100
AcDbEntity
  8
0
100
AcDbLine
 10
2068.2941
 20
780.538404
 30
0.0
 11
2068.2941
 21
783.726404
 31
0.0
  0
LINE
  5
12060
100
AcDbEntity
  8
0
100
AcDbLine
 10
2068.2941
 20
783.726404
 30
0.0
 11
2069.1061
 21
784.538404
 31
0.0
  0
LINE
  5
12061
100
AcDbEntity
  8
0
100
AcDbLine
 10
2075.2941
 20
904.538404
 30
0.0
 11
2075.2941
 21
942.538404
 31
0.0
  0
LINE
  5
12062
100
AcDbEntity
  8
0
100
AcDbLine
 10
2060.2941
 20
878.038404
 30
0.0
 11
2060.2941
 21
845.038404
 31
0.0
  0
LINE
  5
12063
100
AcDbEntity
  8
0
100
AcDbLine
 10
2073.2941
 20
838.941404
 30
0.0
 11
2073.2941
 21
845.038404
 31
0.0
  0
LINE
  5
12064
100
AcDbEntity
  8
0
100
AcDbLine
 10
2064.7941
 20
838.037404
 30
0.0
 11
2064.7941
 21
845.038404
 31
0.0
  0
ARC
  5
12065
100
AcDbEntity
  8
0
100
AcDbCircle
 10
2069.0441
 20
848.479725
 30
0.0
 40
10.442321
100
AcDbArc
 50
245.983629
 51
294.016371
  0
LINE
  5
12066
100
AcDbEntity
  8
0
100
AcDbLine
 10
2069.1061
 20
882.038404
 30
0.0
 11
2077.4821
 21
882.038404
 31
0.0
  0
LINE
  5
12067
100
AcDbEntity
  8
0
100
AcDbLine
 10
2077.4821
 20
882.038404
 30
0.0
 11
2078.2941
 21
881.226404
 31
0.0
  0
LINE
  5
12068
100
AcDbEntity
  8
0
100
AcDbLine
 10
2078.2941
 20
881.226404
 30
0.0
 11
2078.2941
 21
878.038404
 31
0.0
  0
LINE
  5
12069
100
AcDbEntity
  8
0
100
AcDbLine
 10
2068.2941
 20
881.226404
 30
0.0
 11
2069.1061
 21
882.038404
 31
0.0
  0
LINE
  5
1206A
100
AcDbEntity
  8
0
100
AcDbLine
 10
2068.2941
 20
878.038404
 30
0.0
 11
2068.2941
 21
881.226404
 31
0.0
  0
CIRCLE
  5
1206B
100
AcDbEntity
  8
0
100
AcDbCircle
 10
3174.248551
 20
955.538404
 30
0.0
 40
62.5
  0
LINE
  5
1206C
100
AcDbEntity
  8
0
100
AcDbLine
 10
3252.248551
 20
861.538404
 30
0.0
 11
3096.248551
 21
861.538404
 31
0.0
  0
LINE
  5
1206D
100
AcDbEntity
  8
0
100
AcDbLine
 10
3096.248551
 20
878.038404
 30
0.0
 11
3252.248551
 21
878.038404
 31
0.0
  0
LINE
  5
1206E
100
AcDbEntity
  8
0
100
AcDbLine
 10
3252.248551
 20
746.538404
 30
0.0
 11
3096.248551
 21
746.538404
 31
0.0
  0
LINE
  5
1206F
100
AcDbEntity
  8
0
100
AcDbLine
 10
3096.248551
 20
763.538404
 30
0.0
 11
3252.248551
 21
763.538404
 31
0.0
  0
LINE
  5
12070
100
AcDbEntity
  8
0
100
AcDbLine
 10
3096.248551
 20
780.538404
 30
0.0
 11
3252.248551
 21
780.538404
 31
0.0
  0
LINE
  5
12071
100
AcDbEntity
  8
0
100
AcDbLine
 10
3096.248551
 20
845.038404
 30
0.0
 11
3252.248551
 21
845.038404
 31
0.0
  0
ARC
  5
12072
100
AcDbEntity
  8
0
100
AcDbCircle
 10
3113.498551
 20
749.979725
 30
0.0
 40
10.442321
100
AcDbArc
 50
245.983629
 51
294.016371
  0
LINE
  5
12073
100
AcDbEntity
  8
0
100
AcDbLine
 10
3117.748551
 20
739.537404
 30
0.0
 11
3100.748551
 21
739.537404
 31
0.0
  0
LINE
  5
12074
100
AcDbEntity
  8
0
100
AcDbLine
 10
3117.748551
 20
838.037404
 30
0.0
 11
3100.748551
 21
838.037404
 31
0.0
  0
ARC
  5
12075
100
AcDbEntity
  8
0
100
AcDbCircle
 10
3113.498551
 20
848.479725
 30
0.0
 40
10.442321
100
AcDbArc
 50
245.983629
 51
294.016371
  0
LINE
  5
12076
100
AcDbEntity
  8
0
100
AcDbLine
 10
3127.004504
 20
904.538404
 30
0.0
 11
3111.248551
 21
904.538404
 31
0.0
  0
LINE
  5
12077
100
AcDbEntity
  8
0
100
AcDbLine
 10
3219.550651
 20
830.038404
 30
0.0
 11
3220.64578
 21
839.713255
 31
0.0
  0
LINE
  5
12078
100
AcDbEntity
  8
0
100
AcDbLine
 10
3128.946451
 20
830.038404
 30
0.0
 11
3127.851322
 21
839.713255
 31
0.0
  0
ARC
  5
12079
100
AcDbEntity
  8
0
100
AcDbCircle
 10
3243.498551
 20
749.979725
 30
0.0
 40
10.442321
100
AcDbArc
 50
245.983629
 51
294.016371
  0
LINE
  5
1207A
100
AcDbEntity
  8
0
100
AcDbLine
 10
3230.748551
 20
739.537404
 30
0.0
 11
3247.748551
 21
739.537404
 31
0.0
  0
LINE
  5
1207B
100
AcDbEntity
  8
0
100
AcDbLine
 10
3252.248551
 20
746.538404
 30
0.0
 11
3252.248551
 21
780.538404
 31
0.0
  0
LINE
  5
1207C
100
AcDbEntity
  8
0
100
AcDbLine
 10
3247.748551
 20
739.537404
 30
0.0
 11
3247.748551
 21
746.538404
 31
0.0
  0
LINE
  5
12080
100
AcDbEntity
  8
0
100
AcDbLine
 10
3230.748551
 20
739.537404
 30
0.0
 11
3230.748551
 21
746.538404
 31
0.0
  0
LINE
  5
12081
100
AcDbEntity
  8
0
100
AcDbLine
 10
3239.248551
 20
740.441404
 30
0.0
 11
3239.248551
 21
746.538404
 31
0.0
  0
ARC
  5
12082
100
AcDbEntity
  8
0
100
AcDbCircle
 10
3234.998551
 20
749.979725
 30
0.0
 40
10.442321
100
AcDbArc
 50
245.983629
 51
294.016371
  0
ARC
  5
12086
100
AcDbEntity
  8
0
100
AcDbCircle
 10
3202.498551
 20
749.979725
 30
0.0
 40
10.442321
100
AcDbArc
 50
245.983629
 51
294.016371
  0
LINE
  5
12087
100
AcDbEntity
  8
0
100
AcDbLine
 10
3198.248551
 20
739.537404
 30
0.0
 11
3215.248551
 21
739.537404
 31
0.0
  0
ARC
  5
12088
100
AcDbEntity
  8
0
100
AcDbCircle
 10
3210.998551
 20
749.979725
 30
0.0
 40
10.442321
100
AcDbArc
 50
245.983629
 51
294.016371
  0
LINE
  5
12089
100
AcDbEntity
  8
0
100
AcDbLine
 10
3215.248551
 20
739.537404
 30
0.0
 11
3215.248551
 21
746.538404
 31
0.0
  0
LINE
  5
1208A
100
AcDbEntity
  8
0
100
AcDbLine
 10
3206.748551
 20
740.441404
 30
0.0
 11
3206.748551
 21
746.538404
 31
0.0
  0
LINE
  5
1208B
100
AcDbEntity
  8
0
100
AcDbLine
 10
3198.248551
 20
739.537404
 30
0.0
 11
3198.248551
 21
746.538404
 31
0.0
  0
ARC
  5
1208E
100
AcDbEntity
  8
0
100
AcDbCircle
 10
3137.498551
 20
749.979725
 30
0.0
 40
10.442321
100
AcDbArc
 50
245.983629
 51
294.016371
  0
LINE
  5
1208F
100
AcDbEntity
  8
0
100
AcDbLine
 10
3150.248551
 20
739.537404
 30
0.0
 11
3133.248551
 21
739.537404
 31
0.0
  0
LINE
  5
12093
100
AcDbEntity
  8
0
100
AcDbLine
 10
3150.248551
 20
739.537404
 30
0.0
 11
3150.248551
 21
746.538404
 31
0.0
  0
LINE
  5
12094
100
AcDbEntity
  8
0
100
AcDbLine
 10
3141.748551
 20
740.441404
 30
0.0
 11
3141.748551
 21
746.538404
 31
0.0
  0
ARC
  5
12095
100
AcDbEntity
  8
0
100
AcDbCircle
 10
3145.998551
 20
749.979725
 30
0.0
 40
10.442321
100
AcDbArc
 50
245.983629
 51
294.016371
  0
LINE
  5
12098
100
AcDbEntity
  8
0
100
AcDbLine
 10
3133.248551
 20
739.537404
 30
0.0
 11
3133.248551
 21
746.538404
 31
0.0
  0
LINE
  5
12099
100
AcDbEntity
  8
0
100
AcDbLine
 10
3117.748551
 20
739.537404
 30
0.0
 11
3117.748551
 21
746.538404
 31
0.0
  0
LINE
  5
1209A
100
AcDbEntity
  8
0
100
AcDbLine
 10
3220.535204
 20
801.844495
 30
0.0
 11
3225.052561
 21
784.98549
 31
0.0
  0
ARC
  5
1209B
100
AcDbEntity
  8
0
100
AcDbCircle
 10
3230.848116
 20
786.538404
 30
0.0
 40
6.0
100
AcDbArc
 50
195.0
 51
270.0
  0
LINE
  5
1209C
100
AcDbEntity
  8
0
100
AcDbLine
 10
3234.248551
 20
783.726404
 30
0.0
 11
3234.248551
 21
780.538404
 31
0.0
  0
LINE
  5
1209D
100
AcDbEntity
  8
0
100
AcDbLine
 10
3235.060551
 20
784.538404
 30
0.0
 11
3234.248551
 21
783.726404
 31
0.0
  0
LINE
  5
1209E
100
AcDbEntity
  8
0
100
AcDbLine
 10
3243.436551
 20
784.538404
 30
0.0
 11
3235.060551
 21
784.538404
 31
0.0
  0
LINE
  5
1209F
100
AcDbEntity
  8
0
100
AcDbLine
 10
3210.936551
 20
784.538404
 30
0.0
 11
3202.560551
 21
784.538404
 31
0.0
  0
LINE
  5
120A0
100
AcDbEntity
  8
0
100
AcDbLine
 10
3211.748551
 20
780.538404
 30
0.0
 11
3211.748551
 21
783.726404
 31
0.0
  0
LINE
  5
120A1
100
AcDbEntity
  8
0
100
AcDbLine
 10
3211.748551
 20
783.726404
 30
0.0
 11
3210.936551
 21
784.538404
 31
0.0
  0
LINE
  5
120A2
100
AcDbEntity
  8
0
100
AcDbLine
 10
3201.748551
 20
783.726404
 30
0.0
 11
3201.748551
 21
780.538404
 31
0.0
  0
LINE
  5
120A3
100
AcDbEntity
  8
0
100
AcDbLine
 10
3202.560551
 20
784.538404
 30
0.0
 11
3201.748551
 21
783.726404
 31
0.0
  0
LINE
  5
120A4
100
AcDbEntity
  8
0
100
AcDbLine
 10
3219.550651
 20
830.038404
 30
0.0
 11
3220.535204
 21
801.844495
 31
0.0
  0
LINE
  5
120A5
100
AcDbEntity
  8
0
100
AcDbLine
 10
3244.248551
 20
780.538404
 30
0.0
 11
3244.248551
 21
783.726404
 31
0.0
  0
LINE
  5
120A6
100
AcDbEntity
  8
0
100
AcDbLine
 10
3244.248551
 20
783.726404
 30
0.0
 11
3243.436551
 21
784.538404
 31
0.0
  0
LINE
  5
120A7
100
AcDbEntity
  8
0
100
AcDbLine
 10
3136.748551
 20
780.538404
 30
0.0
 11
3136.748551
 21
783.726404
 31
0.0
  0
LINE
  5
120A8
100
AcDbEntity
  8
0
100
AcDbLine
 10
3146.748551
 20
783.726404
 30
0.0
 11
3146.748551
 21
780.538404
 31
0.0
  0
LINE
  5
120A9
100
AcDbEntity
  8
0
100
AcDbLine
 10
3145.936551
 20
784.538404
 30
0.0
 11
3146.748551
 21
783.726404
 31
0.0
  0
LINE
  5
120AA
100
AcDbEntity
  8
0
100
AcDbLine
 10
3137.560551
 20
784.538404
 30
0.0
 11
3145.936551
 21
784.538404
 31
0.0
  0
LINE
  5
120AB
100
AcDbEntity
  8
0
100
AcDbLine
 10
3136.748551
 20
783.726404
 30
0.0
 11
3137.560551
 21
784.538404
 31
0.0
  0
LINE
  5
120AC
100
AcDbEntity
  8
0
100
AcDbLine
 10
3127.961898
 20
801.844495
 30
0.0
 11
3123.444541
 21
784.98549
 31
0.0
  0
ARC
  5
120AD
100
AcDbEntity
  8
0
100
AcDbCircle
 10
3117.648986
 20
786.538404
 30
0.0
 40
6.0
100
AcDbArc
 50
270.0
 51
345.0
  0
LINE
  5
120AE
100
AcDbEntity
  8
0
100
AcDbLine
 10
3128.946451
 20
830.038404
 30
0.0
 11
3127.961898
 21
801.844495
 31
0.0
  0
LINE
  5
120AF
100
AcDbEntity
  8
0
100
AcDbLine
 10
3230.748551
 20
838.037404
 30
0.0
 11
3247.748551
 21
838.037404
 31
0.0
  0
ARC
  5
120B0
100
AcDbEntity
  8
0
100
AcDbCircle
 10
3243.498551
 20
848.479725
 30
0.0
 40
10.442321
100
AcDbArc
 50
245.983629
 51
294.016371
  0
LINE
  5
120B1
100
AcDbEntity
  8
0
100
AcDbLine
 10
3252.248551
 20
878.038404
 30
0.0
 11
3252.248551
 21
845.038404
 31
0.0
  0
LINE
  5
120B2
100
AcDbEntity
  8
0
100
AcDbLine
 10
3247.748551
 20
838.037404
 30
0.0
 11
3247.748551
 21
845.038404
 31
0.0
  0
LINE
  5
120B3
100
AcDbEntity
  8
0
100
AcDbLine
 10
3237.248551
 20
904.538404
 30
0.0
 11
3237.248551
 21
942.538404
 31
0.0
  0
LINE
  5
120B4
100
AcDbEntity
  8
0
100
AcDbLine
 10
3128.248551
 20
893.038404
 30
0.0
 11
3220.248551
 21
893.038404
 31
0.0
  0
ARC
  5
120B5
100
AcDbEntity
  8
0
100
AcDbCircle
 10
3234.998551
 20
848.479725
 30
0.0
 40
10.442321
100
AcDbArc
 50
245.983629
 51
294.016371
  0
LINE
  5
120B6
100
AcDbEntity
  8
0
100
AcDbLine
 10
3239.248551
 20
838.941404
 30
0.0
 11
3239.248551
 21
845.038404
 31
0.0
  0
LINE
  5
120B7
100
AcDbEntity
  8
0
100
AcDbLine
 10
3230.748551
 20
838.037404
 30
0.0
 11
3230.748551
 21
845.038404
 31
0.0
  0
LINE
  5
120B8
100
AcDbEntity
  8
0
100
AcDbLine
 10
3198.248551
 20
838.037404
 30
0.0
 11
3215.248551
 21
838.037404
 31
0.0
  0
ARC
  5
120B9
100
AcDbEntity
  8
0
100
AcDbCircle
 10
3202.498551
 20
848.479725
 30
0.0
 40
10.442321
100
AcDbArc
 50
245.983629
 51
294.016371
  0
LINE
  5
120BA
100
AcDbEntity
  8
0
100
AcDbLine
 10
3206.748551
 20
838.941404
 30
0.0
 11
3206.748551
 21
845.038404
 31
0.0
  0
LINE
  5
120BB
100
AcDbEntity
  8
0
100
AcDbLine
 10
3215.248551
 20
838.037404
 30
0.0
 11
3215.248551
 21
845.038404
 31
0.0
  0
ARC
  5
120BC
100
AcDbEntity
  8
0
100
AcDbCircle
 10
3210.998551
 20
848.479725
 30
0.0
 40
10.442321
100
AcDbArc
 50
245.983629
 51
294.016371
  0
ARC
  5
120BD
100
AcDbEntity
  8
0
100
AcDbCircle
 10
3226.607707
 20
839.038404
 30
0.0
 40
6.0
100
AcDbArc
 50
90.0
 51
173.541989
  0
LINE
  5
120BE
100
AcDbEntity
  8
0
100
AcDbLine
 10
3198.248551
 20
838.037404
 30
0.0
 11
3198.248551
 21
845.038404
 31
0.0
  0
LINE
  5
120BF
100
AcDbEntity
  8
0
100
AcDbLine
 10
3221.492598
 20
904.538404
 30
0.0
 11
3237.248551
 21
904.538404
 31
0.0
  0
ARC
  5
120C0
100
AcDbEntity
  8
0
100
AcDbCircle
 10
3221.492598
 20
901.538404
 30
0.0
 40
3.0
100
AcDbArc
 50
90.0
 51
180.0
  0
ARC
  5
120C1
100
AcDbEntity
  8
0
100
AcDbCircle
 10
3230.321664
 20
882.038404
 30
0.0
 40
4.0
100
AcDbArc
 50
194.931417
 51
270.0
  0
LINE
  5
120C2
100
AcDbEntity
  8
0
100
AcDbLine
 10
3235.060551
 20
882.038404
 30
0.0
 11
3234.248551
 21
881.226404
 31
0.0
  0
LINE
  5
120C3
100
AcDbEntity
  8
0
100
AcDbLine
 10
3243.436551
 20
882.038404
 30
0.0
 11
3235.060551
 21
882.038404
 31
0.0
  0
LINE
  5
120C4
100
AcDbEntity
  8
0
100
AcDbLine
 10
3234.248551
 20
881.226404
 30
0.0
 11
3234.248551
 21
878.038404
 31
0.0
  0
LINE
  5
120C5
100
AcDbEntity
  8
0
100
AcDbLine
 10
3223.248551
 20
893.038404
 30
0.0
 11
3226.456725
 21
881.007754
 31
0.0
  0
LINE
  5
120C6
100
AcDbEntity
  8
0
100
AcDbLine
 10
3210.936551
 20
882.038404
 30
0.0
 11
3202.560551
 21
882.038404
 31
0.0
  0
LINE
  5
120C7
100
AcDbEntity
  8
0
100
AcDbLine
 10
3211.748551
 20
878.038404
 30
0.0
 11
3211.748551
 21
881.226404
 31
0.0
  0
LINE
  5
120C8
100
AcDbEntity
  8
0
100
AcDbLine
 10
3211.748551
 20
881.226404
 30
0.0
 11
3210.936551
 21
882.038404
 31
0.0
  0
LINE
  5
120C9
100
AcDbEntity
  8
0
100
AcDbLine
 10
3201.748551
 20
881.226404
 30
0.0
 11
3201.748551
 21
878.038404
 31
0.0
  0
LINE
  5
120CA
100
AcDbEntity
  8
0
100
AcDbLine
 10
3202.560551
 20
882.038404
 30
0.0
 11
3201.748551
 21
881.226404
 31
0.0
  0
LINE
  5
120CB
100
AcDbEntity
  8
0
100
AcDbLine
 10
3223.248551
 20
893.038404
 30
0.0
 11
3223.248551
 21
904.538404
 31
0.0
  0
LINE
  5
120CC
100
AcDbEntity
  8
0
100
AcDbLine
 10
3244.248551
 20
878.038404
 30
0.0
 11
3244.248551
 21
881.226404
 31
0.0
  0
LINE
  5
120CD
100
AcDbEntity
  8
0
100
AcDbLine
 10
3244.248551
 20
881.226404
 30
0.0
 11
3243.436551
 21
882.038404
 31
0.0
  0
LINE
  5
120CE
100
AcDbEntity
  8
0
100
AcDbLine
 10
3150.248551
 20
838.037404
 30
0.0
 11
3133.248551
 21
838.037404
 31
0.0
  0
ARC
  5
120CF
100
AcDbEntity
  8
0
100
AcDbCircle
 10
3137.498551
 20
848.479725
 30
0.0
 40
10.442321
100
AcDbArc
 50
245.983629
 51
294.016371
  0
ARC
  5
120D0
100
AcDbEntity
  8
0
100
AcDbCircle
 10
3145.998551
 20
848.479725
 30
0.0
 40
10.442321
100
AcDbArc
 50
245.983629
 51
294.016371
  0
LINE
  5
120D1
100
AcDbEntity
  8
0
100
AcDbLine
 10
3141.748551
 20
838.941404
 30
0.0
 11
3141.748551
 21
845.038404
 31
0.0
  0
LINE
  5
120D2
100
AcDbEntity
  8
0
100
AcDbLine
 10
3150.248551
 20
838.037404
 30
0.0
 11
3150.248551
 21
845.038404
 31
0.0
  0
LINE
  5
120D3
100
AcDbEntity
  8
0
100
AcDbLine
 10
3117.748551
 20
838.037404
 30
0.0
 11
3117.748551
 21
845.038404
 31
0.0
  0
LINE
  5
120D4
100
AcDbEntity
  8
0
100
AcDbLine
 10
3133.248551
 20
838.037404
 30
0.0
 11
3133.248551
 21
845.038404
 31
0.0
  0
ARC
  5
120D5
100
AcDbEntity
  8
0
100
AcDbCircle
 10
3121.889395
 20
839.038404
 30
0.0
 40
6.0
100
AcDbArc
 50
6.458011
 51
90.0
  0
LINE
  5
120D6
100
AcDbEntity
  8
0
100
AcDbLine
 10
3145.936551
 20
882.038404
 30
0.0
 11
3146.748551
 21
881.226404
 31
0.0
  0
LINE
  5
120D7
100
AcDbEntity
  8
0
100
AcDbLine
 10
3137.560551
 20
882.038404
 30
0.0
 11
3145.936551
 21
882.038404
 31
0.0
  0
LINE
  5
120D8
100
AcDbEntity
  8
0
100
AcDbLine
 10
3136.748551
 20
881.226404
 30
0.0
 11
3137.560551
 21
882.038404
 31
0.0
  0
LINE
  5
120D9
100
AcDbEntity
  8
0
100
AcDbLine
 10
3136.748551
 20
878.038404
 30
0.0
 11
3136.748551
 21
881.226404
 31
0.0
  0
LINE
  5
120DA
100
AcDbEntity
  8
0
100
AcDbLine
 10
3146.748551
 20
881.226404
 30
0.0
 11
3146.748551
 21
878.038404
 31
0.0
  0
LINE
  5
120DB
100
AcDbEntity
  8
0
100
AcDbLine
 10
3125.248551
 20
893.038404
 30
0.0
 11
3122.040378
 21
881.007754
 31
0.0
  0
ARC
  5
120DC
100
AcDbEntity
  8
0
100
AcDbCircle
 10
3118.175438
 20
882.038404
 30
0.0
 40
4.0
100
AcDbArc
 50
270.0
 51
345.068583
  0
LINE
  5
120DD
100
AcDbEntity
  8
0
100
AcDbLine
 10
3125.248551
 20
893.038404
 30
0.0
 11
3125.248551
 21
904.538404
 31
0.0
  0
ARC
  5
120DE
100
AcDbEntity
  8
0
100
AcDbCircle
 10
3127.004504
 20
901.538404
 30
0.0
 40
3.0
100
AcDbArc
 50
0.0
 51
90.0
  0
LINE
  5
120DF
100
AcDbEntity
  8
0
100
AcDbLine
 10
3235.381603
 20
942.538404
 30
0.0
 11
3237.248551
 21
942.538404
 31
0.0
  0
CIRCLE
  5
120E0
100
AcDbEntity
  8
0
100
AcDbCircle
 10
3206.068356
 20
923.718599
 30
0.0
 40
9.5
  0
CIRCLE
  5
120E1
100
AcDbEntity
  8
0
100
AcDbCircle
 10
3142.428746
 20
923.718599
 30
0.0
 40
9.5
  0
LINE
  5
120E2
100
AcDbEntity
  8
0
100
AcDbLine
 10
3096.248551
 20
746.538404
 30
0.0
 11
3096.248551
 21
780.538404
 31
0.0
  0
ARC
  5
120E3
100
AcDbEntity
  8
0
100
AcDbCircle
 10
3104.998551
 20
749.979725
 30
0.0
 40
10.442321
100
AcDbArc
 50
245.983629
 51
294.016371
  0
LINE
  5
120E4
100
AcDbEntity
  8
0
100
AcDbLine
 10
3100.748551
 20
739.537404
 30
0.0
 11
3100.748551
 21
746.538404
 31
0.0
  0
LINE
  5
120E5
100
AcDbEntity
  8
0
100
AcDbLine
 10
3109.248551
 20
740.441404
 30
0.0
 11
3109.248551
 21
746.538404
 31
0.0
  0
LINE
  5
120E6
100
AcDbEntity
  8
0
100
AcDbLine
 10
3105.060551
 20
784.538404
 30
0.0
 11
3113.436551
 21
784.538404
 31
0.0
  0
LINE
  5
120E7
100
AcDbEntity
  8
0
100
AcDbLine
 10
3114.248551
 20
783.726404
 30
0.0
 11
3114.248551
 21
780.538404
 31
0.0
  0
LINE
  5
120E8
100
AcDbEntity
  8
0
100
AcDbLine
 10
3113.436551
 20
784.538404
 30
0.0
 11
3114.248551
 21
783.726404
 31
0.0
  0
LINE
  5
120E9
100
AcDbEntity
  8
0
100
AcDbLine
 10
3104.248551
 20
780.538404
 30
0.0
 11
3104.248551
 21
783.726404
 31
0.0
  0
LINE
  5
120EA
100
AcDbEntity
  8
0
100
AcDbLine
 10
3104.248551
 20
783.726404
 30
0.0
 11
3105.060551
 21
784.538404
 31
0.0
  0
LINE
  5
120EB
100
AcDbEntity
  8
0
100
AcDbLine
 10
3111.248551
 20
904.538404
 30
0.0
 11
3111.248551
 21
942.538404
 31
0.0
  0
LINE
  5
120EC
100
AcDbEntity
  8
0
100
AcDbLine
 10
3096.248551
 20
878.038404
 30
0.0
 11
3096.248551
 21
845.038404
 31
0.0
  0
LINE
  5
120ED
100
AcDbEntity
  8
0
100
AcDbLine
 10
3109.248551
 20
838.941404
 30
0.0
 11
3109.248551
 21
845.038404
 31
0.0
  0
LINE
  5
120EE
100
AcDbEntity
  8
0
100
AcDbLine
 10
3100.748551
 20
838.037404
 30
0.0
 11
3100.748551
 21
845.038404
 31
0.0
  0
ARC
  5
120EF
100
AcDbEntity
  8
0
100
AcDbCircle
 10
3104.998551
 20
848.479725
 30
0.0
 40
10.442321
100
AcDbArc
 50
245.983629
 51
294.016371
  0
LINE
  5
120F0
100
AcDbEntity
  8
0
100
AcDbLine
 10
3105.060551
 20
882.038404
 30
0.0
 11
3113.436551
 21
882.038404
 31
0.0
  0
LINE
  5
120F1
100
AcDbEntity
  8
0
100
AcDbLine
 10
3113.436551
 20
882.038404
 30
0.0
 11
3114.248551
 21
881.226404
 31
0.0
  0
LINE
  5
120F2
100
AcDbEntity
  8
0
100
AcDbLine
 10
3114.248551
 20
881.226404
 30
0.0
 11
3114.248551
 21
878.038404
 31
0.0
  0
LINE
  5
120F3
100
AcDbEntity
  8
0
100
AcDbLine
 10
3104.248551
 20
881.226404
 30
0.0
 11
3105.060551
 21
882.038404
 31
0.0
  0
LINE
  5
120F4
100
AcDbEntity
  8
0
100
AcDbLine
 10
3104.248551
 20
878.038404
 30
0.0
 11
3104.248551
 21
881.226404
 31
0.0
  0
LINE
  5
120F5
100
AcDbEntity
  8
0
100
AcDbLine
 10
3113.115499
 20
942.538404
 30
0.0
 11
3111.248551
 21
942.538404
 31
0.0
  0
CIRCLE
  5
120F6
100
AcDbEntity
  8
0
100
AcDbCircle
 10
3206.068356
 20
987.358209
 30
0.0
 40
9.5
  0
CIRCLE
  5
120F7
100
AcDbEntity
  8
0
100
AcDbCircle
 10
3142.428746
 20
987.358209
 30
0.0
 40
9.5
  0
LINE
  5
1210E
100
AcDbEntity
  8
0
100
AcDbLine
 10
2159.7941
 20
704.538404
 30
0.0
 11
2116.7941
 21
704.538404
 31
0.0
  0
LINE
  5
1210F
100
AcDbEntity
  8
0
100
AcDbLine
 10
2115.7941
 20
705.538404
 30
0.0
 11
2115.7941
 21
742.538404
 31
0.0
  0
LINE
  5
12110
100
AcDbEntity
  8
0
100
AcDbLine
 10
2115.7941
 20
705.538404
 30
0.0
 11
2116.7941
 21
704.538404
 31
0.0
  0
LINE
  5
12111
100
AcDbEntity
  8
0
100
AcDbLine
 10
2160.7941
 20
705.538404
 30
0.0
 11
2160.7941
 21
742.538404
 31
0.0
  0
LINE
  5
12112
100
AcDbEntity
  8
0
100
AcDbLine
 10
2159.7941
 20
704.538404
 30
0.0
 11
2160.7941
 21
705.538404
 31
0.0
  0
ARC
  5
12113
100
AcDbEntity
  8
0
100
AcDbCircle
 10
2111.7941
 20
742.538404
 30
0.0
 40
4.0
100
AcDbArc
 50
0.0
 51
51.317813
  0
ARC
  5
12114
100
AcDbEntity
  8
0
100
AcDbCircle
 10
2164.7941
 20
742.538404
 30
0.0
 40
4.0
100
AcDbArc
 50
128.682187
 51
180.0
  0
LINE
  5
12120
100
AcDbEntity
  8
0
100
AcDbLine
 10
3195.748551
 20
704.538404
 30
0.0
 11
3152.748551
 21
704.538404
 31
0.0
  0
LINE
  5
12121
100
AcDbEntity
  8
0
100
AcDbLine
 10
3151.748551
 20
705.538404
 30
0.0
 11
3151.748551
 21
742.538404
 31
0.0
  0
LINE
  5
12122
100
AcDbEntity
  8
0
100
AcDbLine
 10
3151.748551
 20
705.538404
 30
0.0
 11
3152.748551
 21
704.538404
 31
0.0
  0
LINE
  5
12123
100
AcDbEntity
  8
0
100
AcDbLine
 10
3196.748551
 20
705.538404
 30
0.0
 11
3196.748551
 21
742.538404
 31
0.0
  0
LINE
  5
12124
100
AcDbEntity
  8
0
100
AcDbLine
 10
3195.748551
 20
704.538404
 30
0.0
 11
3196.748551
 21
705.538404
 31
0.0
  0
ARC
  5
12125
100
AcDbEntity
  8
0
100
AcDbCircle
 10
3147.748551
 20
742.538404
 30
0.0
 40
4.0
100
AcDbArc
 50
0.0
 51
51.317813
  0
ARC
  5
12126
100
AcDbEntity
  8
0
100
AcDbCircle
 10
3200.748551
 20
742.538404
 30
0.0
 40
4.0
100
AcDbArc
 50
128.682187
 51
180.0
  0
LINE
  5
12128
100
AcDbEntity
  8
0
100
AcDbLine
 10
879.220303
 20
1954.780361
 30
0.0
 11
858.327632
 21
1954.780361
 31
0.0
  0
LINE
  5
12129
100
AcDbEntity
  8
0
100
AcDbLine
 10
879.220303
 20
2004.780361
 30
0.0
 11
863.327632
 21
2004.780361
 31
0.0
  0
LINE
  5
1212A
100
AcDbEntity
  8
0
100
AcDbLine
 10
716.327632
 20
1770.780361
 30
0.0
 11
872.327632
 21
1770.780361
 31
0.0
  0
LINE
  5
1212B
100
AcDbEntity
  8
0
100
AcDbLine
 10
872.327632
 20
1804.780361
 30
0.0
 11
716.327632
 21
1804.780361
 31
0.0
  0
LINE
  5
1212C
100
AcDbEntity
  8
0
100
AcDbLine
 10
872.327632
 20
1869.280361
 30
0.0
 11
716.327632
 21
1869.280361
 31
0.0
  0
LINE
  5
1212D
100
AcDbEntity
  8
0
100
AcDbLine
 10
872.327632
 20
1787.780361
 30
0.0
 11
716.327632
 21
1787.780361
 31
0.0
  0
LINE
  5
1212E
100
AcDbEntity
  8
0
100
AcDbLine
 10
716.327632
 20
1902.280361
 30
0.0
 11
872.327632
 21
1902.280361
 31
0.0
  0
LINE
  5
1212F
100
AcDbEntity
  8
0
100
AcDbLine
 10
872.327632
 20
1885.780361
 30
0.0
 11
716.327632
 21
1885.780361
 31
0.0
  0
LINE
  5
12130
100
AcDbEntity
  8
0
100
AcDbLine
 10
906.827632
 20
1932.280361
 30
0.0
 11
906.827632
 21
2027.280361
 31
0.0
  0
LINE
  5
12131
100
AcDbEntity
  8
0
100
AcDbLine
 10
886.364641
 20
1994.780361
 30
0.0
 11
882.463733
 21
2001.536931
 31
0.0
  0
LINE
  5
12132
100
AcDbEntity
  8
0
100
AcDbLine
 10
879.220303
 20
2004.780361
 30
0.0
 11
879.220303
 21
1954.780361
 31
0.0
  0
LINE
  5
12133
100
AcDbEntity
  8
0
100
AcDbLine
 10
920.827632
 20
2027.280361
 30
0.0
 11
920.827632
 21
1932.280361
 31
0.0
  0
LINE
  5
12134
100
AcDbEntity
  8
0
100
AcDbLine
 10
872.327632
 20
1770.780361
 30
0.0
 11
872.327632
 21
1804.780361
 31
0.0
  0
LINE
  5
12135
100
AcDbEntity
  8
0
100
AcDbLine
 10
872.327632
 20
1902.280361
 30
0.0
 11
872.327632
 21
1869.280361
 31
0.0
  0
LINE
  5
12136
100
AcDbEntity
  8
0
100
AcDbLine
 10
896.534009
 20
1968.280334
 30
0.0
 11
896.534009
 21
1991.280389
 31
0.0
  0
LINE
  5
12137
100
AcDbEntity
  8
0
100
AcDbLine
 10
896.559127
 20
1964.780361
 30
0.0
 11
890.790623
 21
1964.780361
 31
0.0
  0
ARC
  5
12138
100
AcDbEntity
  8
0
100
AcDbCircle
 10
902.827632
 20
1959.484278
 30
0.0
 40
4.0
100
AcDbArc
 50
0.0
 51
78.978469
  0
LINE
  5
12139
100
AcDbEntity
  8
0
100
AcDbLine
 10
903.592343
 20
1963.4105
 30
0.0
 11
896.559127
 21
1964.780361
 31
0.0
  0
ARC
  5
1213A
100
AcDbEntity
  8
0
100
AcDbCircle
 10
902.827632
 20
2000.076445
 30
0.0
 40
4.0
100
AcDbArc
 50
281.021531
 51
0.0
  0
LINE
  5
1213B
100
AcDbEntity
  8
0
100
AcDbLine
 10
903.592343
 20
1996.150223
 30
0.0
 11
896.559127
 21
1994.780361
 31
0.0
  0
LINE
  5
1213C
100
AcDbEntity
  8
0
100
AcDbLine
 10
896.559127
 20
1994.780361
 30
0.0
 11
890.790623
 21
1994.780361
 31
0.0
  0
ARC
  5
1213D
100
AcDbEntity
  8
0
100
AcDbCircle
 10
888.577632
 20
1991.380361
 30
0.0
 40
4.056763
100
AcDbArc
 50
56.940715
 51
123.059285
  0
LINE
  5
1213E
100
AcDbEntity
  8
0
100
AcDbLine
 10
886.364641
 20
1964.780361
 30
0.0
 11
882.463733
 21
1958.023792
 31
0.0
  0
LINE
  5
1213F
100
AcDbEntity
  8
0
100
AcDbLine
 10
882.463733
 20
1958.023792
 30
0.0
 11
879.220303
 21
1954.780361
 31
0.0
  0
ARC
  5
12140
100
AcDbEntity
  8
0
100
AcDbCircle
 10
888.577632
 20
1968.180361
 30
0.0
 40
4.056763
100
AcDbArc
 50
236.940715
 51
303.059285
  0
LINE
  5
12141
100
AcDbEntity
  8
0
100
AcDbLine
 10
920.827632
 20
1932.280361
 30
0.0
 11
906.827632
 21
1932.280361
 31
0.0
  0
LINE
  5
12142
100
AcDbEntity
  8
0
100
AcDbLine
 10
890.790623
 20
1964.780361
 30
0.0
 11
890.790623
 21
1994.780361
 31
0.0
  0
LINE
  5
12143
100
AcDbEntity
  8
0
100
AcDbLine
 10
886.364641
 20
1994.780361
 30
0.0
 11
886.364641
 21
1964.780361
 31
0.0
  0
LINE
  5
12144
100
AcDbEntity
  8
0
100
AcDbLine
 10
882.463733
 20
2001.536931
 30
0.0
 11
879.220303
 21
2004.780361
 31
0.0
  0
LINE
  5
12145
100
AcDbEntity
  8
0
100
AcDbLine
 10
920.827632
 20
2027.280361
 30
0.0
 11
906.827632
 21
2027.280361
 31
0.0
  0
LINE
  5
12147
100
AcDbEntity
  8
0
100
AcDbLine
 10
667.827632
 20
2027.280361
 30
0.0
 11
667.827632
 21
1932.280361
 31
0.0
  0
LINE
  5
12148
100
AcDbEntity
  8
0
100
AcDbLine
 10
681.827632
 20
1932.280361
 30
0.0
 11
681.827632
 21
2027.280361
 31
0.0
  0
LINE
  5
12149
100
AcDbEntity
  8
0
100
AcDbLine
 10
702.290623
 20
1994.780361
 30
0.0
 11
706.19153
 21
2001.536931
 31
0.0
  0
LINE
  5
1214A
100
AcDbEntity
  8
0
100
AcDbLine
 10
709.43496
 20
2004.780361
 30
0.0
 11
709.43496
 21
1954.780361
 31
0.0
  0
ARC
  5
1214B
100
AcDbEntity
  8
0
100
AcDbCircle
 10
808.327632
 20
1993.547171
 30
0.0
 40
21.0
100
AcDbArc
 50
17.697436
 51
71.873796
  0
ARC
  5
1214C
100
AcDbEntity
  8
0
100
AcDbCircle
 10
863.327632
 20
1958.780361
 30
0.0
 40
46.0
100
AcDbArc
 50
90.0
 51
124.265886
  0
LINE
  5
1214D
100
AcDbEntity
  8
0
100
AcDbLine
 10
749.025531
 20
1854.280361
 30
0.0
 11
747.850981
 21
1864.656866
 31
0.0
  0
LINE
  5
1214E
100
AcDbEntity
  8
0
100
AcDbLine
 10
839.629732
 20
1854.280361
 30
0.0
 11
840.804283
 21
1864.656866
 31
0.0
  0
ARC
  5
1214F
100
AcDbEntity
  8
0
100
AcDbCircle
 10
738.035981
 20
1781.442353
 30
0.0
 40
17.462601
100
AcDbArc
 50
253.680072
 51
286.319928
  0
LINE
  5
12150
100
AcDbEntity
  8
0
100
AcDbLine
 10
729.785981
 20
1763.779361
 30
0.0
 11
746.285981
 21
1763.779361
 31
0.0
  0
LINE
  5
12151
100
AcDbEntity
  8
0
100
AcDbLine
 10
742.223981
 20
1808.780361
 30
0.0
 11
733.847981
 21
1808.780361
 31
0.0
  0
LINE
  5
12152
100
AcDbEntity
  8
0
100
AcDbLine
 10
732.827632
 20
1728.780361
 30
0.0
 11
777.827632
 21
1728.780361
 31
0.0
  0
ARC
  5
12153
100
AcDbEntity
  8
0
100
AcDbCircle
 10
801.688632
 20
1768.610685
 30
0.0
 40
4.630982
100
AcDbArc
 50
238.000676
 51
301.999324
  0
LINE
  5
12154
100
AcDbEntity
  8
0
100
AcDbLine
 10
779.827632
 20
1748.780361
 30
0.0
 11
811.327632
 21
1748.780361
 31
0.0
  0
LINE
  5
12155
100
AcDbEntity
  8
0
100
AcDbLine
 10
786.077632
 20
1763.779361
 30
0.0
 11
802.577632
 21
1763.779361
 31
0.0
  0
ARC
  5
12156
100
AcDbEntity
  8
0
100
AcDbCircle
 10
820.255835
 20
1764.780361
 30
0.0
 40
6.0
100
AcDbArc
 50
90.0
 51
150.0
  0
LINE
  5
12157
100
AcDbEntity
  8
0
100
AcDbLine
 10
804.142632
 20
1764.683361
 30
0.0
 11
804.142632
 21
1770.780361
 31
0.0
  0
LINE
  5
12158
100
AcDbEntity
  8
0
100
AcDbLine
 10
802.577632
 20
1763.779361
 30
0.0
 11
804.142632
 21
1764.683361
 31
0.0
  0
LINE
  5
12159
100
AcDbEntity
  8
0
100
AcDbLine
 10
813.327632
 20
1764.780361
 30
0.0
 11
815.059683
 21
1767.780361
 31
0.0
  0
LINE
  5
1215A
100
AcDbEntity
  8
0
100
AcDbLine
 10
842.369283
 20
1763.779361
 30
0.0
 11
858.869283
 21
1763.779361
 31
0.0
  0
ARC
  5
1215B
100
AcDbEntity
  8
0
100
AcDbCircle
 10
857.980283
 20
1768.610685
 30
0.0
 40
4.630982
100
AcDbArc
 50
238.000676
 51
301.999324
  0
LINE
  5
1215C
100
AcDbEntity
  8
0
100
AcDbLine
 10
858.869283
 20
1763.779361
 30
0.0
 11
860.434283
 21
1764.683361
 31
0.0
  0
LINE
  5
1215D
100
AcDbEntity
  8
0
100
AcDbLine
 10
860.434283
 20
1764.683361
 30
0.0
 11
860.434283
 21
1770.780361
 31
0.0
  0
ARC
  5
1215E
100
AcDbEntity
  8
0
100
AcDbCircle
 10
843.258283
 20
1768.610685
 30
0.0
 40
4.630982
100
AcDbArc
 50
238.000676
 51
301.999324
  0
ARC
  5
1215F
100
AcDbEntity
  8
0
100
AcDbCircle
 10
850.619283
 20
1781.442353
 30
0.0
 40
17.462601
100
AcDbArc
 50
253.680072
 51
286.319928
  0
LINE
  5
12160
100
AcDbEntity
  8
0
100
AcDbLine
 10
855.526283
 20
1764.683361
 30
0.0
 11
855.526283
 21
1770.780361
 31
0.0
  0
LINE
  5
12161
100
AcDbEntity
  8
0
100
AcDbLine
 10
845.712283
 20
1764.683361
 30
0.0
 11
845.712283
 21
1770.780361
 31
0.0
  0
LINE
  5
12162
100
AcDbEntity
  8
0
100
AcDbLine
 10
840.804283
 20
1764.683361
 30
0.0
 11
842.369283
 21
1763.779361
 31
0.0
  0
LINE
  5
12163
100
AcDbEntity
  8
0
100
AcDbLine
 10
840.804283
 20
1770.780361
 30
0.0
 11
840.804283
 21
1764.683361
 31
0.0
  0
ARC
  5
12164
100
AcDbEntity
  8
0
100
AcDbCircle
 10
811.327632
 20
1750.780361
 30
0.0
 40
2.0
100
AcDbArc
 50
270.0
 51
0.0
  0
LINE
  5
12165
100
AcDbEntity
  8
0
100
AcDbLine
 10
813.327632
 20
1750.780361
 30
0.0
 11
813.327632
 21
1764.780361
 31
0.0
  0
LINE
  5
12166
100
AcDbEntity
  8
0
100
AcDbLine
 10
747.850981
 20
1764.683361
 30
0.0
 11
747.850981
 21
1770.780361
 31
0.0
  0
LINE
  5
12167
100
AcDbEntity
  8
0
100
AcDbLine
 10
742.942981
 20
1764.683361
 30
0.0
 11
742.942981
 21
1770.780361
 31
0.0
  0
ARC
  5
12168
100
AcDbEntity
  8
0
100
AcDbCircle
 10
745.396981
 20
1768.610685
 30
0.0
 40
4.630982
100
AcDbArc
 50
238.000676
 51
301.999324
  0
LINE
  5
12169
100
AcDbEntity
  8
0
100
AcDbLine
 10
784.512632
 20
1770.780361
 30
0.0
 11
784.512632
 21
1764.683361
 31
0.0
  0
LINE
  5
1216A
100
AcDbEntity
  8
0
100
AcDbLine
 10
784.512632
 20
1764.683361
 30
0.0
 11
786.077632
 21
1763.779361
 31
0.0
  0
LINE
  5
1216B
100
AcDbEntity
  8
0
100
AcDbLine
 10
789.420632
 20
1764.683361
 30
0.0
 11
789.420632
 21
1770.780361
 31
0.0
  0
ARC
  5
1216C
100
AcDbEntity
  8
0
100
AcDbCircle
 10
786.966632
 20
1768.610685
 30
0.0
 40
4.630982
100
AcDbArc
 50
238.000676
 51
301.999324
  0
ARC
  5
1216D
100
AcDbEntity
  8
0
100
AcDbCircle
 10
779.827632
 20
1746.780361
 30
0.0
 40
2.0
100
AcDbArc
 50
90.0
 51
180.0
  0
LINE
  5
1216E
100
AcDbEntity
  8
0
100
AcDbLine
 10
777.827632
 20
1728.780361
 30
0.0
 11
777.827632
 21
1770.780361
 31
0.0
  0
LINE
  5
1216F
100
AcDbEntity
  8
0
100
AcDbLine
 10
799.234632
 20
1764.683361
 30
0.0
 11
799.234632
 21
1770.780361
 31
0.0
  0
ARC
  5
12170
100
AcDbEntity
  8
0
100
AcDbCircle
 10
794.327632
 20
1781.442353
 30
0.0
 40
17.462601
100
AcDbArc
 50
253.680072
 51
286.319928
  0
LINE
  5
12171
100
AcDbEntity
  8
0
100
AcDbLine
 10
846.431283
 20
1808.780361
 30
0.0
 11
845.619283
 21
1807.968361
 31
0.0
  0
LINE
  5
12172
100
AcDbEntity
  8
0
100
AcDbLine
 10
845.619283
 20
1807.968361
 30
0.0
 11
845.619283
 21
1804.780361
 31
0.0
  0
LINE
  5
12173
100
AcDbEntity
  8
0
100
AcDbLine
 10
854.807283
 20
1808.780361
 30
0.0
 11
846.431283
 21
1808.780361
 31
0.0
  0
LINE
  5
12174
100
AcDbEntity
  8
0
100
AcDbLine
 10
855.619283
 20
1807.968361
 30
0.0
 11
854.807283
 21
1808.780361
 31
0.0
  0
LINE
  5
12175
100
AcDbEntity
  8
0
100
AcDbLine
 10
855.619283
 20
1804.780361
 30
0.0
 11
855.619283
 21
1807.968361
 31
0.0
  0
LINE
  5
12176
100
AcDbEntity
  8
0
100
AcDbLine
 10
840.614285
 20
1826.086452
 30
0.0
 11
845.52884
 21
1807.745085
 31
0.0
  0
LINE
  5
12177
100
AcDbEntity
  8
0
100
AcDbLine
 10
839.629732
 20
1854.280361
 30
0.0
 11
840.614285
 21
1826.086452
 31
0.0
  0
LINE
  5
12178
100
AcDbEntity
  8
0
100
AcDbLine
 10
743.035981
 20
1807.968361
 30
0.0
 11
742.223981
 21
1808.780361
 31
0.0
  0
LINE
  5
12179
100
AcDbEntity
  8
0
100
AcDbLine
 10
743.035981
 20
1804.780361
 30
0.0
 11
743.035981
 21
1807.968361
 31
0.0
  0
LINE
  5
1217A
100
AcDbEntity
  8
0
100
AcDbLine
 10
748.040978
 20
1826.086452
 30
0.0
 11
743.126424
 21
1807.745085
 31
0.0
  0
LINE
  5
1217B
100
AcDbEntity
  8
0
100
AcDbLine
 10
789.327632
 20
1807.968361
 30
0.0
 11
789.327632
 21
1804.780361
 31
0.0
  0
LINE
  5
1217C
100
AcDbEntity
  8
0
100
AcDbLine
 10
790.139632
 20
1808.780361
 30
0.0
 11
789.327632
 21
1807.968361
 31
0.0
  0
LINE
  5
1217D
100
AcDbEntity
  8
0
100
AcDbLine
 10
749.025531
 20
1854.280361
 30
0.0
 11
748.040978
 21
1826.086452
 31
0.0
  0
LINE
  5
1217E
100
AcDbEntity
  8
0
100
AcDbLine
 10
799.327632
 20
1804.780361
 30
0.0
 11
799.327632
 21
1807.968361
 31
0.0
  0
LINE
  5
1217F
100
AcDbEntity
  8
0
100
AcDbLine
 10
799.327632
 20
1807.968361
 30
0.0
 11
798.515632
 21
1808.780361
 31
0.0
  0
LINE
  5
12180
100
AcDbEntity
  8
0
100
AcDbLine
 10
798.515632
 20
1808.780361
 30
0.0
 11
790.139632
 21
1808.780361
 31
0.0
  0
LINE
  5
12181
100
AcDbEntity
  8
0
100
AcDbLine
 10
716.327632
 20
1770.780361
 30
0.0
 11
716.327632
 21
1804.780361
 31
0.0
  0
ARC
  5
12182
100
AcDbEntity
  8
0
100
AcDbCircle
 10
730.674981
 20
1768.610685
 30
0.0
 40
4.630982
100
AcDbArc
 50
238.000676
 51
301.999324
  0
LINE
  5
12183
100
AcDbEntity
  8
0
100
AcDbLine
 10
733.128981
 20
1764.683361
 30
0.0
 11
733.128981
 21
1770.780361
 31
0.0
  0
LINE
  5
12184
100
AcDbEntity
  8
0
100
AcDbLine
 10
728.220981
 20
1764.683361
 30
0.0
 11
729.785981
 21
1763.779361
 31
0.0
  0
LINE
  5
12185
100
AcDbEntity
  8
0
100
AcDbLine
 10
728.220981
 20
1770.780361
 30
0.0
 11
728.220981
 21
1764.683361
 31
0.0
  0
LINE
  5
12186
100
AcDbEntity
  8
0
100
AcDbLine
 10
732.827632
 20
1728.780361
 30
0.0
 11
732.827632
 21
1763.007886
 31
0.0
  0
LINE
  5
12187
100
AcDbEntity
  8
0
100
AcDbLine
 10
733.847981
 20
1808.780361
 30
0.0
 11
733.035981
 21
1807.968361
 31
0.0
  0
LINE
  5
12188
100
AcDbEntity
  8
0
100
AcDbLine
 10
733.035981
 20
1807.968361
 30
0.0
 11
733.035981
 21
1804.780361
 31
0.0
  0
LINE
  5
12189
100
AcDbEntity
  8
0
100
AcDbLine
 10
742.223981
 20
1906.280361
 30
0.0
 11
733.847981
 21
1906.280361
 31
0.0
  0
ARC
  5
1218A
100
AcDbEntity
  8
0
100
AcDbCircle
 10
717.327632
 20
2000.780361
 30
0.0
 40
46.0
100
AcDbArc
 50
270.0
 51
295.028999
  0
LINE
  5
1218B
100
AcDbEntity
  8
0
100
AcDbLine
 10
729.785981
 20
1862.279361
 30
0.0
 11
746.285981
 21
1862.279361
 31
0.0
  0
ARC
  5
1218C
100
AcDbEntity
  8
0
100
AcDbCircle
 10
738.035981
 20
1879.942353
 30
0.0
 40
17.462601
100
AcDbArc
 50
253.680072
 51
286.319928
  0
CIRCLE
  5
1218D
100
AcDbEntity
  8
0
100
AcDbCircle
 10
800.327632
 20
1947.780361
 30
0.0
 40
19.0
  0
LINE
  5
1218E
100
AcDbEntity
  8
0
100
AcDbLine
 10
745.327632
 20
1917.280361
 30
0.0
 11
745.327632
 21
1953.663485
 31
0.0
  0
LINE
  5
1218F
100
AcDbEntity
  8
0
100
AcDbLine
 10
843.327632
 20
1917.280361
 30
0.0
 11
843.327632
 21
1939.780361
 31
0.0
  0
ARC
  5
12190
100
AcDbEntity
  8
0
100
AcDbCircle
 10
801.688632
 20
1867.110685
 30
0.0
 40
4.630982
100
AcDbArc
 50
238.000676
 51
301.999324
  0
LINE
  5
12191
100
AcDbEntity
  8
0
100
AcDbLine
 10
840.327632
 20
1917.280361
 30
0.0
 11
748.327632
 21
1917.280361
 31
0.0
  0
LINE
  5
12192
100
AcDbEntity
  8
0
100
AcDbLine
 10
786.077632
 20
1862.279361
 30
0.0
 11
802.577632
 21
1862.279361
 31
0.0
  0
LINE
  5
12193
100
AcDbEntity
  8
0
100
AcDbLine
 10
843.327632
 20
1917.280361
 30
0.0
 11
846.296821
 21
1906.1459
 31
0.0
  0
LINE
  5
12194
100
AcDbEntity
  8
0
100
AcDbLine
 10
854.807283
 20
1906.280361
 30
0.0
 11
846.431283
 21
1906.280361
 31
0.0
  0
LINE
  5
12195
100
AcDbEntity
  8
0
100
AcDbLine
 10
855.619283
 20
1905.468361
 30
0.0
 11
854.807283
 21
1906.280361
 31
0.0
  0
LINE
  5
12196
100
AcDbEntity
  8
0
100
AcDbLine
 10
846.431283
 20
1906.280361
 30
0.0
 11
845.619283
 21
1905.468361
 31
0.0
  0
LINE
  5
12197
100
AcDbEntity
  8
0
100
AcDbLine
 10
804.142632
 20
1863.183361
 30
0.0
 11
804.142632
 21
1869.280361
 31
0.0
  0
LINE
  5
12198
100
AcDbEntity
  8
0
100
AcDbLine
 10
802.577632
 20
1862.279361
 30
0.0
 11
804.142632
 21
1863.183361
 31
0.0
  0
LINE
  5
12199
100
AcDbEntity
  8
0
100
AcDbLine
 10
842.369283
 20
1862.279361
 30
0.0
 11
858.869283
 21
1862.279361
 31
0.0
  0
ARC
  5
1219A
100
AcDbEntity
  8
0
100
AcDbCircle
 10
857.980283
 20
1867.110685
 30
0.0
 40
4.630982
100
AcDbArc
 50
238.000676
 51
301.999324
  0
LINE
  5
1219B
100
AcDbEntity
  8
0
100
AcDbLine
 10
858.869283
 20
1862.279361
 30
0.0
 11
860.434283
 21
1863.183361
 31
0.0
  0
LINE
  5
1219C
100
AcDbEntity
  8
0
100
AcDbLine
 10
860.434283
 20
1863.183361
 30
0.0
 11
860.434283
 21
1869.280361
 31
0.0
  0
ARC
  5
1219D
100
AcDbEntity
  8
0
100
AcDbCircle
 10
843.258283
 20
1867.110685
 30
0.0
 40
4.630982
100
AcDbArc
 50
238.000676
 51
301.999324
  0
ARC
  5
1219E
100
AcDbEntity
  8
0
100
AcDbCircle
 10
850.619283
 20
1879.942353
 30
0.0
 40
17.462601
100
AcDbArc
 50
253.680072
 51
286.319928
  0
LINE
  5
1219F
100
AcDbEntity
  8
0
100
AcDbLine
 10
855.526283
 20
1863.183361
 30
0.0
 11
855.526283
 21
1869.280361
 31
0.0
  0
LINE
  5
121A0
100
AcDbEntity
  8
0
100
AcDbLine
 10
845.712283
 20
1863.183361
 30
0.0
 11
845.712283
 21
1869.280361
 31
0.0
  0
LINE
  5
121A1
100
AcDbEntity
  8
0
100
AcDbLine
 10
840.804283
 20
1863.183361
 30
0.0
 11
842.369283
 21
1862.279361
 31
0.0
  0
LINE
  5
121A2
100
AcDbEntity
  8
0
100
AcDbLine
 10
840.804283
 20
1869.280361
 30
0.0
 11
840.804283
 21
1863.183361
 31
0.0
  0
LINE
  5
121A3
100
AcDbEntity
  8
0
100
AcDbLine
 10
855.619283
 20
1902.280361
 30
0.0
 11
855.619283
 21
1905.468361
 31
0.0
  0
LINE
  5
121A4
100
AcDbEntity
  8
0
100
AcDbLine
 10
845.619283
 20
1905.468361
 30
0.0
 11
845.619283
 21
1902.280361
 31
0.0
  0
LINE
  5
121A5
100
AcDbEntity
  8
0
100
AcDbLine
 10
745.327632
 20
1917.280361
 30
0.0
 11
742.358442
 21
1906.1459
 31
0.0
  0
LINE
  5
121A6
100
AcDbEntity
  8
0
100
AcDbLine
 10
743.035981
 20
1905.468361
 30
0.0
 11
742.223981
 21
1906.280361
 31
0.0
  0
LINE
  5
121A7
100
AcDbEntity
  8
0
100
AcDbLine
 10
790.139632
 20
1906.280361
 30
0.0
 11
789.327632
 21
1905.468361
 31
0.0
  0
ARC
  5
121A8
100
AcDbEntity
  8
0
100
AcDbCircle
 10
745.396981
 20
1867.110685
 30
0.0
 40
4.630982
100
AcDbArc
 50
238.000676
 51
301.999324
  0
LINE
  5
121A9
100
AcDbEntity
  8
0
100
AcDbLine
 10
746.285981
 20
1862.279361
 30
0.0
 11
747.850981
 21
1863.183361
 31
0.0
  0
LINE
  5
121AA
100
AcDbEntity
  8
0
100
AcDbLine
 10
747.850981
 20
1863.183361
 30
0.0
 11
747.850981
 21
1869.280361
 31
0.0
  0
LINE
  5
121AB
100
AcDbEntity
  8
0
100
AcDbLine
 10
742.942981
 20
1863.183361
 30
0.0
 11
742.942981
 21
1869.280361
 31
0.0
  0
LINE
  5
121AC
100
AcDbEntity
  8
0
100
AcDbLine
 10
784.512632
 20
1869.280361
 30
0.0
 11
784.512632
 21
1863.183361
 31
0.0
  0
LINE
  5
121AD
100
AcDbEntity
  8
0
100
AcDbLine
 10
784.512632
 20
1863.183361
 30
0.0
 11
786.077632
 21
1862.279361
 31
0.0
  0
LINE
  5
121AE
100
AcDbEntity
  8
0
100
AcDbLine
 10
789.420632
 20
1863.183361
 30
0.0
 11
789.420632
 21
1869.280361
 31
0.0
  0
ARC
  5
121AF
100
AcDbEntity
  8
0
100
AcDbCircle
 10
786.966632
 20
1867.110685
 30
0.0
 40
4.630982
100
AcDbArc
 50
238.000676
 51
301.999324
  0
LINE
  5
121B0
100
AcDbEntity
  8
0
100
AcDbLine
 10
789.327632
 20
1905.468361
 30
0.0
 11
789.327632
 21
1902.280361
 31
0.0
  0
LINE
  5
121B1
100
AcDbEntity
  8
0
100
AcDbLine
 10
743.035981
 20
1902.280361
 30
0.0
 11
743.035981
 21
1905.468361
 31
0.0
  0
LINE
  5
121B2
100
AcDbEntity
  8
0
100
AcDbLine
 10
799.327632
 20
1905.468361
 30
0.0
 11
798.515632
 21
1906.280361
 31
0.0
  0
LINE
  5
121B3
100
AcDbEntity
  8
0
100
AcDbLine
 10
799.234632
 20
1863.183361
 30
0.0
 11
799.234632
 21
1869.280361
 31
0.0
  0
LINE
  5
121B4
100
AcDbEntity
  8
0
100
AcDbLine
 10
799.327632
 20
1902.280361
 30
0.0
 11
799.327632
 21
1905.468361
 31
0.0
  0
ARC
  5
121B5
100
AcDbEntity
  8
0
100
AcDbCircle
 10
794.327632
 20
1879.942353
 30
0.0
 40
17.462601
100
AcDbArc
 50
253.680072
 51
286.319928
  0
LINE
  5
121B6
100
AcDbEntity
  8
0
100
AcDbLine
 10
798.515632
 20
1906.280361
 30
0.0
 11
790.139632
 21
1906.280361
 31
0.0
  0
LINE
  5
121B7
100
AcDbEntity
  8
0
100
AcDbLine
 10
833.327632
 20
1973.780361
 30
0.0
 11
755.327632
 21
1973.780361
 31
0.0
  0
ARC
  5
121B8
100
AcDbEntity
  8
0
100
AcDbCircle
 10
834.049859
 20
2001.754912
 30
0.0
 40
6.0
100
AcDbArc
 50
197.697436
 51
304.265886
  0
LINE
  5
121B9
100
AcDbEntity
  8
0
100
AcDbLine
 10
843.327632
 20
1963.780361
 30
0.0
 11
843.327632
 21
1958.217904
 31
0.0
  0
ARC
  5
121BA
100
AcDbEntity
  8
0
100
AcDbCircle
 10
858.327632
 20
1939.780361
 30
0.0
 40
15.0
100
AcDbArc
 50
90.0
 51
180.0
  0
ARC
  5
121BB
100
AcDbEntity
  8
0
100
AcDbCircle
 10
833.327632
 20
1963.780361
 30
0.0
 40
10.0
100
AcDbArc
 50
0.0
 51
90.0
  0
ARC
  5
121BC
100
AcDbEntity
  8
0
100
AcDbCircle
 10
739.327632
 20
1953.663485
 30
0.0
 40
6.0
100
AcDbArc
 50
0.0
 51
115.028999
  0
ARC
  5
121BD
100
AcDbEntity
  8
0
100
AcDbCircle
 10
755.327632
 20
1963.780361
 30
0.0
 40
10.0
100
AcDbArc
 50
90.0
 51
180.0
  0
LINE
  5
121BE
100
AcDbEntity
  8
0
100
AcDbLine
 10
733.847981
 20
1906.280361
 30
0.0
 11
733.035981
 21
1905.468361
 31
0.0
  0
LINE
  5
121BF
100
AcDbEntity
  8
0
100
AcDbLine
 10
716.327632
 20
1902.280361
 30
0.0
 11
716.327632
 21
1869.280361
 31
0.0
  0
ARC
  5
121C0
100
AcDbEntity
  8
0
100
AcDbCircle
 10
730.674981
 20
1867.110685
 30
0.0
 40
4.630982
100
AcDbArc
 50
238.000676
 51
301.999324
  0
LINE
  5
121C1
100
AcDbEntity
  8
0
100
AcDbLine
 10
733.128981
 20
1863.183361
 30
0.0
 11
733.128981
 21
1869.280361
 31
0.0
  0
LINE
  5
121C2
100
AcDbEntity
  8
0
100
AcDbLine
 10
728.220981
 20
1863.183361
 30
0.0
 11
729.785981
 21
1862.279361
 31
0.0
  0
LINE
  5
121C3
100
AcDbEntity
  8
0
100
AcDbLine
 10
728.220981
 20
1869.280361
 30
0.0
 11
728.220981
 21
1863.183361
 31
0.0
  0
LINE
  5
121C4
100
AcDbEntity
  8
0
100
AcDbLine
 10
733.035981
 20
1905.468361
 30
0.0
 11
733.035981
 21
1902.280361
 31
0.0
  0
LINE
  5
121C5
100
AcDbEntity
  8
0
100
AcDbLine
 10
667.827632
 20
1932.280361
 30
0.0
 11
681.827632
 21
1932.280361
 31
0.0
  0
LINE
  5
121C6
100
AcDbEntity
  8
0
100
AcDbLine
 10
692.121255
 20
1968.280334
 30
0.0
 11
692.121255
 21
1991.280389
 31
0.0
  0
LINE
  5
121C7
100
AcDbEntity
  8
0
100
AcDbLine
 10
685.06292
 20
1963.4105
 30
0.0
 11
692.096136
 21
1964.780361
 31
0.0
  0
LINE
  5
121C8
100
AcDbEntity
  8
0
100
AcDbLine
 10
692.096136
 20
1964.780361
 30
0.0
 11
697.864641
 21
1964.780361
 31
0.0
  0
LINE
  5
121C9
100
AcDbEntity
  8
0
100
AcDbLine
 10
685.06292
 20
1996.150223
 30
0.0
 11
692.096136
 21
1994.780361
 31
0.0
  0
LINE
  5
121CA
100
AcDbEntity
  8
0
100
AcDbLine
 10
692.096136
 20
1994.780361
 30
0.0
 11
697.864641
 21
1994.780361
 31
0.0
  0
ARC
  5
121CB
100
AcDbEntity
  8
0
100
AcDbCircle
 10
685.827632
 20
2000.076445
 30
0.0
 40
4.0
100
AcDbArc
 50
180.0
 51
258.978469
  0
ARC
  5
121CC
100
AcDbEntity
  8
0
100
AcDbCircle
 10
685.827632
 20
1959.484278
 30
0.0
 40
4.0
100
AcDbArc
 50
101.021531
 51
180.0
  0
ARC
  5
121CD
100
AcDbEntity
  8
0
100
AcDbCircle
 10
700.077632
 20
1991.380361
 30
0.0
 40
4.056763
100
AcDbArc
 50
56.940715
 51
123.059285
  0
LINE
  5
121CE
100
AcDbEntity
  8
0
100
AcDbLine
 10
702.290623
 20
1964.780361
 30
0.0
 11
706.19153
 21
1958.023792
 31
0.0
  0
LINE
  5
121CF
100
AcDbEntity
  8
0
100
AcDbLine
 10
706.19153
 20
1958.023792
 30
0.0
 11
709.43496
 21
1954.780361
 31
0.0
  0
ARC
  5
121D0
100
AcDbEntity
  8
0
100
AcDbCircle
 10
700.077632
 20
1968.180361
 30
0.0
 40
4.056763
100
AcDbArc
 50
236.940715
 51
303.059285
  0
LINE
  5
121D1
100
AcDbEntity
  8
0
100
AcDbLine
 10
697.864641
 20
1964.780361
 30
0.0
 11
697.864641
 21
1994.780361
 31
0.0
  0
LINE
  5
121D2
100
AcDbEntity
  8
0
100
AcDbLine
 10
702.290623
 20
1994.780361
 30
0.0
 11
702.290623
 21
1964.780361
 31
0.0
  0
LINE
  5
121D3
100
AcDbEntity
  8
0
100
AcDbLine
 10
709.43496
 20
1954.780361
 30
0.0
 11
717.327632
 21
1954.780361
 31
0.0
  0
ARC
  5
121D4
100
AcDbEntity
  8
0
100
AcDbCircle
 10
761.327632
 20
1970.780361
 30
0.0
 40
46.0
100
AcDbArc
 50
90.0
 51
128.213211
  0
ARC
  5
121D5
100
AcDbEntity
  8
0
100
AcDbCircle
 10
794.327632
 20
1950.780361
 30
0.0
 40
66.0
100
AcDbArc
 50
71.873796
 51
90.0
  0
LINE
  5
121D6
100
AcDbEntity
  8
0
100
AcDbLine
 10
806.725364
 20
2015.605482
 30
0.0
 11
863.327632
 21
2004.780361
 31
0.0
  0
LINE
  5
121D7
100
AcDbEntity
  8
0
100
AcDbLine
 10
794.327632
 20
2016.780361
 30
0.0
 11
761.327632
 21
2016.780361
 31
0.0
  0
LINE
  5
121D8
100
AcDbEntity
  8
0
100
AcDbLine
 10
667.827632
 20
2027.280361
 30
0.0
 11
681.827632
 21
2027.280361
 31
0.0
  0
LINE
  5
121D9
100
AcDbEntity
  8
0
100
AcDbLine
 10
706.19153
 20
2001.536931
 30
0.0
 11
709.43496
 21
2004.780361
 31
0.0
  0
ARC
  5
121DA
100
AcDbEntity
  8
0
100
AcDbCircle
 10
726.686616
 20
2014.780361
 30
0.0
 40
10.0
100
AcDbArc
 50
270.0
 51
308.213211
  0
LINE
  5
121DB
100
AcDbEntity
  8
0
100
AcDbLine
 10
726.686616
 20
2004.780361
 30
0.0
 11
709.43496
 21
2004.780361
 31
0.0
  0
LINE
  5
121DF
100
AcDbEntity
  8
0
100
AcDbLine
 10
1925.174754
 20
1954.780361
 30
0.0
 11
1904.282082
 21
1954.780361
 31
0.0
  0
LINE
  5
121E0
100
AcDbEntity
  8
0
100
AcDbLine
 10
1925.174754
 20
2004.780361
 30
0.0
 11
1909.282082
 21
2004.780361
 31
0.0
  0
LINE
  5
121E1
100
AcDbEntity
  8
0
100
AcDbLine
 10
1925.174754
 20
2004.780361
 30
0.0
 11
1925.174754
 21
1954.780361
 31
0.0
  0
LINE
  5
121E2
100
AcDbEntity
  8
0
100
AcDbLine
 10
1932.174754
 20
1997.780361
 30
0.0
 11
1925.174754
 21
2004.780361
 31
0.0
  0
LINE
  5
121E3
100
AcDbEntity
  8
0
100
AcDbLine
 10
1976.782082
 20
1979.780361
 30
0.0
 11
1976.782082
 21
2029.780361
 31
0.0
  0
ARC
  5
121E4
100
AcDbEntity
  8
0
100
AcDbCircle
 10
1956.782082
 20
2004.059577
 30
0.0
 40
4.0
100
AcDbArc
 50
281.309932
 51
0.0
  0
LINE
  5
121E5
100
AcDbEntity
  8
0
100
AcDbLine
 10
1960.782082
 20
2029.780361
 30
0.0
 11
1960.782082
 21
1929.780361
 31
0.0
  0
LINE
  5
121E6
100
AcDbEntity
  8
0
100
AcDbLine
 10
1976.782082
 20
1929.780361
 30
0.0
 11
1960.782082
 21
1929.780361
 31
0.0
  0
LINE
  5
121E7
100
AcDbEntity
  8
0
100
AcDbLine
 10
1932.174754
 20
1961.780361
 30
0.0
 11
1925.174754
 21
1954.780361
 31
0.0
  0
LINE
  5
121E8
100
AcDbEntity
  8
0
100
AcDbLine
 10
1936.889411
 20
1961.780361
 30
0.0
 11
1936.889411
 21
1997.780361
 31
0.0
  0
LINE
  5
121E9
100
AcDbEntity
  8
0
100
AcDbLine
 10
1945.782082
 20
1965.380361
 30
0.0
 11
1945.782082
 21
1994.180361
 31
0.0
  0
LINE
  5
121EA
100
AcDbEntity
  8
0
100
AcDbLine
 10
1976.782082
 20
1979.780361
 30
0.0
 11
1976.782082
 21
1929.780361
 31
0.0
  0
LINE
  5
121EB
100
AcDbEntity
  8
0
100
AcDbLine
 10
1945.782082
 20
1961.780361
 30
0.0
 11
1936.889411
 21
1961.780361
 31
0.0
  0
LINE
  5
121EC
100
AcDbEntity
  8
0
100
AcDbLine
 10
1945.782082
 20
1961.780361
 30
0.0
 11
1957.566547
 21
1959.423468
 31
0.0
  0
ARC
  5
121ED
100
AcDbEntity
  8
0
100
AcDbCircle
 10
1956.782082
 20
1955.501146
 30
0.0
 40
4.0
100
AcDbArc
 50
360.0
 51
78.690068
  0
LINE
  5
121EE
100
AcDbEntity
  8
0
100
AcDbLine
 10
1945.782082
 20
1997.780361
 30
0.0
 11
1936.889411
 21
1997.780361
 31
0.0
  0
LINE
  5
121EF
100
AcDbEntity
  8
0
100
AcDbLine
 10
1945.782082
 20
1997.780361
 30
0.0
 11
1957.566547
 21
2000.137254
 31
0.0
  0
ARC
  5
121F0
100
AcDbEntity
  8
0
100
AcDbCircle
 10
1934.532082
 20
1994.130361
 30
0.0
 40
4.345054
100
AcDbArc
 50
57.14387
 51
122.85613
  0
ARC
  5
121F1
100
AcDbEntity
  8
0
100
AcDbCircle
 10
1934.532082
 20
1965.430361
 30
0.0
 40
4.345054
100
AcDbArc
 50
237.14387
 51
302.85613
  0
LINE
  5
121F2
100
AcDbEntity
  8
0
100
AcDbLine
 10
1932.174754
 20
1997.780361
 30
0.0
 11
1932.174754
 21
1961.780361
 31
0.0
  0
LINE
  5
121F3
100
AcDbEntity
  8
0
100
AcDbLine
 10
1976.782082
 20
2029.780361
 30
0.0
 11
1960.782082
 21
2029.780361
 31
0.0
  0
LINE
  5
121F4
100
AcDbEntity
  8
0
100
AcDbLine
 10
1703.782082
 20
1979.780361
 30
0.0
 11
1703.782082
 21
2029.780361
 31
0.0
  0
LINE
  5
121F5
100
AcDbEntity
  8
0
100
AcDbLine
 10
1719.782082
 20
2029.780361
 30
0.0
 11
1719.782082
 21
1929.780361
 31
0.0
  0
LINE
  5
121F6
100
AcDbEntity
  8
0
100
AcDbLine
 10
1755.389411
 20
2004.780361
 30
0.0
 11
1755.389411
 21
1954.780361
 31
0.0
  0
LINE
  5
121F7
100
AcDbEntity
  8
0
100
AcDbLine
 10
1748.389411
 20
1997.780361
 30
0.0
 11
1755.389411
 21
2004.780361
 31
0.0
  0
ARC
  5
121F8
100
AcDbEntity
  8
0
100
AcDbCircle
 10
1723.782082
 20
2004.059577
 30
0.0
 40
4.0
100
AcDbArc
 50
180.0
 51
258.690068
  0
ARC
  5
121F9
100
AcDbEntity
  8
0
100
AcDbCircle
 10
1854.282082
 20
1993.547171
 30
0.0
 40
21.0
100
AcDbArc
 50
17.697436
 51
71.873796
  0
ARC
  5
121FA
100
AcDbEntity
  8
0
100
AcDbCircle
 10
1909.282082
 20
1958.780361
 30
0.0
 40
46.0
100
AcDbArc
 50
90.0
 51
124.265886
  0
LINE
  5
121FB
100
AcDbEntity
  8
0
100
AcDbLine
 10
1885.584183
 20
1854.280361
 30
0.0
 11
1886.758734
 21
1864.656866
 31
0.0
  0
LINE
  5
121FC
100
AcDbEntity
  8
0
100
AcDbLine
 10
1794.979982
 20
1854.280361
 30
0.0
 11
1793.805431
 21
1864.656866
 31
0.0
  0
LINE
  5
121FD
100
AcDbEntity
  8
0
100
AcDbLine
 10
1793.995429
 20
1826.086452
 30
0.0
 11
1789.080875
 21
1807.745085
 31
0.0
  0
LINE
  5
121FE
100
AcDbEntity
  8
0
100
AcDbLine
 10
1775.740431
 20
1763.779361
 30
0.0
 11
1792.240431
 21
1763.779361
 31
0.0
  0
ARC
  5
121FF
100
AcDbEntity
  8
0
100
AcDbCircle
 10
1791.351431
 20
1768.610685
 30
0.0
 40
4.630982
100
AcDbArc
 50
238.000676
 51
301.999324
  0
LINE
  5
12200
100
AcDbEntity
  8
0
100
AcDbLine
 10
1779.782082
 20
1728.780361
 30
0.0
 11
1822.782082
 21
1728.780361
 31
0.0
  0
LINE
  5
12201
100
AcDbEntity
  8
0
100
AcDbLine
 10
1762.282082
 20
1770.780361
 30
0.0
 11
1918.282082
 21
1770.780361
 31
0.0
  0
LINE
  5
12202
100
AcDbEntity
  8
0
100
AcDbLine
 10
1918.282082
 20
1804.780361
 30
0.0
 11
1762.282082
 21
1804.780361
 31
0.0
  0
LINE
  5
12203
100
AcDbEntity
  8
0
100
AcDbLine
 10
1918.282082
 20
1787.780361
 30
0.0
 11
1762.282082
 21
1787.780361
 31
0.0
  0
LINE
  5
12204
100
AcDbEntity
  8
0
100
AcDbLine
 10
1918.282082
 20
1770.780361
 30
0.0
 11
1918.282082
 21
1804.780361
 31
0.0
  0
ARC
  5
12205
100
AcDbEntity
  8
0
100
AcDbCircle
 10
1850.044478
 20
1768.780361
 30
0.0
 40
10.0
100
AcDbArc
 50
270.0
 51
330.0
  0
LINE
  5
12206
100
AcDbEntity
  8
0
100
AcDbLine
 10
1825.782082
 20
1748.780361
 30
0.0
 11
1857.282082
 21
1748.780361
 31
0.0
  0
LINE
  5
12207
100
AcDbEntity
  8
0
100
AcDbLine
 10
1888.323734
 20
1763.779361
 30
0.0
 11
1904.823734
 21
1763.779361
 31
0.0
  0
ARC
  5
12208
100
AcDbEntity
  8
0
100
AcDbCircle
 10
1903.934734
 20
1768.610685
 30
0.0
 40
4.630982
100
AcDbArc
 50
238.000676
 51
301.999324
  0
LINE
  5
12209
100
AcDbEntity
  8
0
100
AcDbLine
 10
1904.823734
 20
1763.779361
 30
0.0
 11
1906.388734
 21
1764.683361
 31
0.0
  0
ARC
  5
1220A
100
AcDbEntity
  8
0
100
AcDbCircle
 10
1889.212734
 20
1768.610685
 30
0.0
 40
4.630982
100
AcDbArc
 50
238.000676
 51
301.999324
  0
ARC
  5
1220B
100
AcDbEntity
  8
0
100
AcDbCircle
 10
1896.573734
 20
1781.442353
 30
0.0
 40
17.462601
100
AcDbArc
 50
253.680072
 51
286.319928
  0
LINE
  5
1220C
100
AcDbEntity
  8
0
100
AcDbLine
 10
1886.758734
 20
1764.683361
 30
0.0
 11
1888.323734
 21
1763.779361
 31
0.0
  0
ARC
  5
1220D
100
AcDbEntity
  8
0
100
AcDbCircle
 10
1857.282082
 20
1750.780361
 30
0.0
 40
2.0
100
AcDbArc
 50
270.0
 51
0.0
  0
LINE
  5
1220E
100
AcDbEntity
  8
0
100
AcDbLine
 10
1859.282082
 20
1750.780361
 30
0.0
 11
1859.282082
 21
1764.780361
 31
0.0
  0
LINE
  5
1220F
100
AcDbEntity
  8
0
100
AcDbLine
 10
1858.704732
 20
1763.780361
 30
0.0
 11
1861.014133
 21
1767.780361
 31
0.0
  0
LINE
  5
12210
100
AcDbEntity
  8
0
100
AcDbLine
 10
1859.282082
 20
1764.780361
 30
0.0
 11
1861.014133
 21
1767.780361
 31
0.0
  0
LINE
  5
12211
100
AcDbEntity
  8
0
100
AcDbLine
 10
1906.388734
 20
1764.683361
 30
0.0
 11
1906.388734
 21
1770.780361
 31
0.0
  0
LINE
  5
12212
100
AcDbEntity
  8
0
100
AcDbLine
 10
1901.480734
 20
1764.683361
 30
0.0
 11
1901.480734
 21
1770.780361
 31
0.0
  0
LINE
  5
12213
100
AcDbEntity
  8
0
100
AcDbLine
 10
1891.666734
 20
1764.683361
 30
0.0
 11
1891.666734
 21
1770.780361
 31
0.0
  0
LINE
  5
12214
100
AcDbEntity
  8
0
100
AcDbLine
 10
1886.758734
 20
1770.780361
 30
0.0
 11
1886.758734
 21
1764.683361
 31
0.0
  0
ARC
  5
12215
100
AcDbEntity
  8
0
100
AcDbCircle
 10
1866.210286
 20
1764.780361
 30
0.0
 40
6.0
100
AcDbArc
 50
90.0
 51
150.0
  0
LINE
  5
12216
100
AcDbEntity
  8
0
100
AcDbLine
 10
1830.467082
 20
1764.683361
 30
0.0
 11
1832.032082
 21
1763.779361
 31
0.0
  0
LINE
  5
12217
100
AcDbEntity
  8
0
100
AcDbLine
 10
1848.532082
 20
1763.779361
 30
0.0
 11
1850.097082
 21
1764.683361
 31
0.0
  0
ARC
  5
12218
100
AcDbEntity
  8
0
100
AcDbCircle
 10
1847.643082
 20
1768.610685
 30
0.0
 40
4.630982
100
AcDbArc
 50
238.000676
 51
301.999324
  0
ARC
  5
12219
100
AcDbEntity
  8
0
100
AcDbCircle
 10
1840.282082
 20
1781.442353
 30
0.0
 40
17.462601
100
AcDbArc
 50
253.680072
 51
286.319928
  0
ARC
  5
1221A
100
AcDbEntity
  8
0
100
AcDbCircle
 10
1832.921082
 20
1768.610685
 30
0.0
 40
4.630982
100
AcDbArc
 50
238.000676
 51
301.999324
  0
LINE
  5
1221B
100
AcDbEntity
  8
0
100
AcDbLine
 10
1832.032082
 20
1763.779361
 30
0.0
 11
1848.532082
 21
1763.779361
 31
0.0
  0
LINE
  5
1221C
100
AcDbEntity
  8
0
100
AcDbLine
 10
1823.782082
 20
1729.780361
 30
0.0
 11
1823.782082
 21
1759.240969
 31
0.0
  0
ARC
  5
1221D
100
AcDbEntity
  8
0
100
AcDbCircle
 10
1826.782082
 20
1768.780361
 30
0.0
 40
10.0
100
AcDbArc
 50
210.0
 51
270.0
  0
LINE
  5
1221E
100
AcDbEntity
  8
0
100
AcDbLine
 10
1850.044478
 20
1758.780361
 30
0.0
 11
1826.782082
 21
1758.780361
 31
0.0
  0
LINE
  5
1221F
100
AcDbEntity
  8
0
100
AcDbLine
 10
1823.782082
 20
1729.780361
 30
0.0
 11
1822.782082
 21
1728.780361
 31
0.0
  0
ARC
  5
12220
100
AcDbEntity
  8
0
100
AcDbCircle
 10
1825.782082
 20
1746.780361
 30
0.0
 40
2.0
100
AcDbArc
 50
90.0
 51
180.0
  0
LINE
  5
12221
100
AcDbEntity
  8
0
100
AcDbLine
 10
1818.121828
 20
1763.780361
 30
0.0
 11
1815.812427
 21
1767.780361
 31
0.0
  0
LINE
  5
12222
100
AcDbEntity
  8
0
100
AcDbLine
 10
1817.544478
 20
1764.780361
 30
0.0
 11
1815.812427
 21
1767.780361
 31
0.0
  0
LINE
  5
12223
100
AcDbEntity
  8
0
100
AcDbLine
 10
1830.467082
 20
1770.780361
 30
0.0
 11
1830.467082
 21
1764.683361
 31
0.0
  0
LINE
  5
12224
100
AcDbEntity
  8
0
100
AcDbLine
 10
1835.375082
 20
1764.683361
 30
0.0
 11
1835.375082
 21
1770.780361
 31
0.0
  0
LINE
  5
12225
100
AcDbEntity
  8
0
100
AcDbLine
 10
1845.189082
 20
1764.683361
 30
0.0
 11
1845.189082
 21
1770.780361
 31
0.0
  0
LINE
  5
12226
100
AcDbEntity
  8
0
100
AcDbLine
 10
1850.097082
 20
1764.683361
 30
0.0
 11
1850.097082
 21
1770.780361
 31
0.0
  0
LINE
  5
12227
100
AcDbEntity
  8
0
100
AcDbLine
 10
1793.805431
 20
1764.683361
 30
0.0
 11
1793.805431
 21
1770.780361
 31
0.0
  0
ARC
  5
12228
100
AcDbEntity
  8
0
100
AcDbCircle
 10
1810.616275
 20
1764.780361
 30
0.0
 40
6.0
100
AcDbArc
 50
30.0
 51
90.0
  0
LINE
  5
12229
100
AcDbEntity
  8
0
100
AcDbLine
 10
1885.584183
 20
1854.280361
 30
0.0
 11
1886.568736
 21
1826.086452
 31
0.0
  0
LINE
  5
1222A
100
AcDbEntity
  8
0
100
AcDbLine
 10
1886.568736
 20
1826.086452
 30
0.0
 11
1891.48329
 21
1807.745085
 31
0.0
  0
LINE
  5
1222B
100
AcDbEntity
  8
0
100
AcDbLine
 10
1900.761734
 20
1808.780361
 30
0.0
 11
1892.385734
 21
1808.780361
 31
0.0
  0
LINE
  5
1222C
100
AcDbEntity
  8
0
100
AcDbLine
 10
1901.573734
 20
1807.968361
 30
0.0
 11
1900.761734
 21
1808.780361
 31
0.0
  0
LINE
  5
1222D
100
AcDbEntity
  8
0
100
AcDbLine
 10
1901.573734
 20
1804.780361
 30
0.0
 11
1901.573734
 21
1807.968361
 31
0.0
  0
LINE
  5
1222E
100
AcDbEntity
  8
0
100
AcDbLine
 10
1892.385734
 20
1808.780361
 30
0.0
 11
1891.573734
 21
1807.968361
 31
0.0
  0
LINE
  5
1222F
100
AcDbEntity
  8
0
100
AcDbLine
 10
1891.573734
 20
1807.968361
 30
0.0
 11
1891.573734
 21
1804.780361
 31
0.0
  0
LINE
  5
12230
100
AcDbEntity
  8
0
100
AcDbLine
 10
1794.979982
 20
1854.280361
 30
0.0
 11
1793.995429
 21
1826.086452
 31
0.0
  0
LINE
  5
12231
100
AcDbEntity
  8
0
100
AcDbLine
 10
1835.282082
 20
1807.968361
 30
0.0
 11
1835.282082
 21
1804.780361
 31
0.0
  0
LINE
  5
12232
100
AcDbEntity
  8
0
100
AcDbLine
 10
1836.094082
 20
1808.780361
 30
0.0
 11
1835.282082
 21
1807.968361
 31
0.0
  0
LINE
  5
12233
100
AcDbEntity
  8
0
100
AcDbLine
 10
1845.282082
 20
1804.780361
 30
0.0
 11
1845.282082
 21
1807.968361
 31
0.0
  0
LINE
  5
12234
100
AcDbEntity
  8
0
100
AcDbLine
 10
1845.282082
 20
1807.968361
 30
0.0
 11
1844.470082
 21
1808.780361
 31
0.0
  0
LINE
  5
12235
100
AcDbEntity
  8
0
100
AcDbLine
 10
1844.470082
 20
1808.780361
 30
0.0
 11
1836.094082
 21
1808.780361
 31
0.0
  0
LINE
  5
12236
100
AcDbEntity
  8
0
100
AcDbLine
 10
1762.282082
 20
1770.780361
 30
0.0
 11
1762.282082
 21
1804.780361
 31
0.0
  0
ARC
  5
12237
100
AcDbEntity
  8
0
100
AcDbCircle
 10
1783.990431
 20
1781.442353
 30
0.0
 40
17.462601
100
AcDbArc
 50
253.680072
 51
286.319928
  0
ARC
  5
12238
100
AcDbEntity
  8
0
100
AcDbCircle
 10
1776.629431
 20
1768.610685
 30
0.0
 40
4.630982
100
AcDbArc
 50
238.000676
 51
301.999324
  0
LINE
  5
12239
100
AcDbEntity
  8
0
100
AcDbLine
 10
1774.175431
 20
1764.683361
 30
0.0
 11
1775.740431
 21
1763.779361
 31
0.0
  0
LINE
  5
1223A
100
AcDbEntity
  8
0
100
AcDbLine
 10
1779.782082
 20
1728.780361
 30
0.0
 11
1778.782082
 21
1729.780361
 31
0.0
  0
LINE
  5
1223B
100
AcDbEntity
  8
0
100
AcDbLine
 10
1778.782082
 20
1729.780361
 30
0.0
 11
1778.782082
 21
1763.007886
 31
0.0
  0
LINE
  5
1223C
100
AcDbEntity
  8
0
100
AcDbLine
 10
1788.897431
 20
1764.683361
 30
0.0
 11
1788.897431
 21
1770.780361
 31
0.0
  0
LINE
  5
1223D
100
AcDbEntity
  8
0
100
AcDbLine
 10
1779.083431
 20
1764.683361
 30
0.0
 11
1779.083431
 21
1770.780361
 31
0.0
  0
LINE
  5
1223E
100
AcDbEntity
  8
0
100
AcDbLine
 10
1774.175431
 20
1770.780361
 30
0.0
 11
1774.175431
 21
1764.683361
 31
0.0
  0
LINE
  5
1223F
100
AcDbEntity
  8
0
100
AcDbLine
 10
1788.178431
 20
1808.780361
 30
0.0
 11
1779.802431
 21
1808.780361
 31
0.0
  0
LINE
  5
12240
100
AcDbEntity
  8
0
100
AcDbLine
 10
1779.802431
 20
1808.780361
 30
0.0
 11
1778.990431
 21
1807.968361
 31
0.0
  0
LINE
  5
12241
100
AcDbEntity
  8
0
100
AcDbLine
 10
1778.990431
 20
1807.968361
 30
0.0
 11
1778.990431
 21
1804.780361
 31
0.0
  0
LINE
  5
12242
100
AcDbEntity
  8
0
100
AcDbLine
 10
1788.990431
 20
1807.968361
 30
0.0
 11
1788.178431
 21
1808.780361
 31
0.0
  0
LINE
  5
12243
100
AcDbEntity
  8
0
100
AcDbLine
 10
1788.990431
 20
1804.780361
 30
0.0
 11
1788.990431
 21
1807.968361
 31
0.0
  0
ARC
  5
12244
100
AcDbEntity
  8
0
100
AcDbCircle
 10
1801.282082
 20
1963.780361
 30
0.0
 40
10.0
100
AcDbArc
 50
90.0
 51
180.0
  0
ARC
  5
12245
100
AcDbEntity
  8
0
100
AcDbCircle
 10
1785.282082
 20
1953.663485
 30
0.0
 40
6.0
100
AcDbArc
 50
0.0
 51
115.028999
  0
ARC
  5
12246
100
AcDbEntity
  8
0
100
AcDbCircle
 10
1791.351431
 20
1867.110685
 30
0.0
 40
4.630982
100
AcDbArc
 50
238.000676
 51
301.999324
  0
LINE
  5
12247
100
AcDbEntity
  8
0
100
AcDbLine
 10
1775.740431
 20
1862.279361
 30
0.0
 11
1792.240431
 21
1862.279361
 31
0.0
  0
LINE
  5
12248
100
AcDbEntity
  8
0
100
AcDbLine
 10
1918.282082
 20
1869.280361
 30
0.0
 11
1762.282082
 21
1869.280361
 31
0.0
  0
LINE
  5
12249
100
AcDbEntity
  8
0
100
AcDbLine
 10
1762.282082
 20
1902.280361
 30
0.0
 11
1918.282082
 21
1902.280361
 31
0.0
  0
LINE
  5
1224A
100
AcDbEntity
  8
0
100
AcDbLine
 10
1918.282082
 20
1885.780361
 30
0.0
 11
1762.282082
 21
1885.780361
 31
0.0
  0
CIRCLE
  5
1224B
100
AcDbEntity
  8
0
100
AcDbCircle
 10
1846.282082
 20
1947.780361
 30
0.0
 40
19.0
  0
LINE
  5
1224C
100
AcDbEntity
  8
0
100
AcDbLine
 10
1889.282082
 20
1917.280361
 30
0.0
 11
1889.282082
 21
1939.780361
 31
0.0
  0
LINE
  5
1224D
100
AcDbEntity
  8
0
100
AcDbLine
 10
1886.282082
 20
1917.280361
 30
0.0
 11
1794.282082
 21
1917.280361
 31
0.0
  0
LINE
  5
1224E
100
AcDbEntity
  8
0
100
AcDbLine
 10
1886.758734
 20
1869.280361
 30
0.0
 11
1886.758734
 21
1863.183361
 31
0.0
  0
LINE
  5
1224F
100
AcDbEntity
  8
0
100
AcDbLine
 10
1886.758734
 20
1863.183361
 30
0.0
 11
1888.323734
 21
1862.279361
 31
0.0
  0
LINE
  5
12250
100
AcDbEntity
  8
0
100
AcDbLine
 10
1891.666734
 20
1863.183361
 30
0.0
 11
1891.666734
 21
1869.280361
 31
0.0
  0
LINE
  5
12251
100
AcDbEntity
  8
0
100
AcDbLine
 10
1901.480734
 20
1863.183361
 30
0.0
 11
1901.480734
 21
1869.280361
 31
0.0
  0
LINE
  5
12252
100
AcDbEntity
  8
0
100
AcDbLine
 10
1906.388734
 20
1863.183361
 30
0.0
 11
1906.388734
 21
1869.280361
 31
0.0
  0
LINE
  5
12253
100
AcDbEntity
  8
0
100
AcDbLine
 10
1904.823734
 20
1862.279361
 30
0.0
 11
1906.388734
 21
1863.183361
 31
0.0
  0
ARC
  5
12254
100
AcDbEntity
  8
0
100
AcDbCircle
 10
1903.934734
 20
1867.110685
 30
0.0
 40
4.630982
100
AcDbArc
 50
238.000676
 51
301.999324
  0
ARC
  5
12255
100
AcDbEntity
  8
0
100
AcDbCircle
 10
1896.573734
 20
1879.942353
 30
0.0
 40
17.462601
100
AcDbArc
 50
253.680072
 51
286.319928
  0
ARC
  5
12256
100
AcDbEntity
  8
0
100
AcDbCircle
 10
1889.212734
 20
1867.110685
 30
0.0
 40
4.630982
100
AcDbArc
 50
238.000676
 51
301.999324
  0
LINE
  5
12257
100
AcDbEntity
  8
0
100
AcDbLine
 10
1888.323734
 20
1862.279361
 30
0.0
 11
1904.823734
 21
1862.279361
 31
0.0
  0
LINE
  5
12258
100
AcDbEntity
  8
0
100
AcDbLine
 10
1891.573734
 20
1905.468361
 30
0.0
 11
1891.573734
 21
1902.280361
 31
0.0
  0
LINE
  5
12259
100
AcDbEntity
  8
0
100
AcDbLine
 10
1892.385734
 20
1906.280361
 30
0.0
 11
1891.573734
 21
1905.468361
 31
0.0
  0
LINE
  5
1225A
100
AcDbEntity
  8
0
100
AcDbLine
 10
1901.573734
 20
1902.280361
 30
0.0
 11
1901.573734
 21
1905.468361
 31
0.0
  0
LINE
  5
1225B
100
AcDbEntity
  8
0
100
AcDbLine
 10
1901.573734
 20
1905.468361
 30
0.0
 11
1900.761734
 21
1906.280361
 31
0.0
  0
LINE
  5
1225C
100
AcDbEntity
  8
0
100
AcDbLine
 10
1900.761734
 20
1906.280361
 30
0.0
 11
1892.385734
 21
1906.280361
 31
0.0
  0
LINE
  5
1225D
100
AcDbEntity
  8
0
100
AcDbLine
 10
1889.282082
 20
1917.280361
 30
0.0
 11
1892.251272
 21
1906.1459
 31
0.0
  0
LINE
  5
1225E
100
AcDbEntity
  8
0
100
AcDbLine
 10
1918.282082
 20
1902.280361
 30
0.0
 11
1918.282082
 21
1869.280361
 31
0.0
  0
LINE
  5
1225F
100
AcDbEntity
  8
0
100
AcDbLine
 10
1832.032082
 20
1862.279361
 30
0.0
 11
1848.532082
 21
1862.279361
 31
0.0
  0
ARC
  5
12260
100
AcDbEntity
  8
0
100
AcDbCircle
 10
1840.282082
 20
1879.942353
 30
0.0
 40
17.462601
100
AcDbArc
 50
253.680072
 51
286.319928
  0
ARC
  5
12261
100
AcDbEntity
  8
0
100
AcDbCircle
 10
1847.643082
 20
1867.110685
 30
0.0
 40
4.630982
100
AcDbArc
 50
238.000676
 51
301.999324
  0
LINE
  5
12262
100
AcDbEntity
  8
0
100
AcDbLine
 10
1848.532082
 20
1862.279361
 30
0.0
 11
1850.097082
 21
1863.183361
 31
0.0
  0
LINE
  5
12263
100
AcDbEntity
  8
0
100
AcDbLine
 10
1850.097082
 20
1863.183361
 30
0.0
 11
1850.097082
 21
1869.280361
 31
0.0
  0
LINE
  5
12264
100
AcDbEntity
  8
0
100
AcDbLine
 10
1845.189082
 20
1863.183361
 30
0.0
 11
1845.189082
 21
1869.280361
 31
0.0
  0
ARC
  5
12265
100
AcDbEntity
  8
0
100
AcDbCircle
 10
1832.921082
 20
1867.110685
 30
0.0
 40
4.630982
100
AcDbArc
 50
238.000676
 51
301.999324
  0
LINE
  5
12266
100
AcDbEntity
  8
0
100
AcDbLine
 10
1835.375082
 20
1863.183361
 30
0.0
 11
1835.375082
 21
1869.280361
 31
0.0
  0
LINE
  5
12267
100
AcDbEntity
  8
0
100
AcDbLine
 10
1830.467082
 20
1863.183361
 30
0.0
 11
1832.032082
 21
1862.279361
 31
0.0
  0
LINE
  5
12268
100
AcDbEntity
  8
0
100
AcDbLine
 10
1830.467082
 20
1869.280361
 30
0.0
 11
1830.467082
 21
1863.183361
 31
0.0
  0
LINE
  5
12269
100
AcDbEntity
  8
0
100
AcDbLine
 10
1844.470082
 20
1906.280361
 30
0.0
 11
1836.094082
 21
1906.280361
 31
0.0
  0
LINE
  5
1226A
100
AcDbEntity
  8
0
100
AcDbLine
 10
1845.282082
 20
1905.468361
 30
0.0
 11
1844.470082
 21
1906.280361
 31
0.0
  0
LINE
  5
1226B
100
AcDbEntity
  8
0
100
AcDbLine
 10
1845.282082
 20
1902.280361
 30
0.0
 11
1845.282082
 21
1905.468361
 31
0.0
  0
LINE
  5
1226C
100
AcDbEntity
  8
0
100
AcDbLine
 10
1836.094082
 20
1906.280361
 30
0.0
 11
1835.282082
 21
1905.468361
 31
0.0
  0
LINE
  5
1226D
100
AcDbEntity
  8
0
100
AcDbLine
 10
1835.282082
 20
1905.468361
 30
0.0
 11
1835.282082
 21
1902.280361
 31
0.0
  0
LINE
  5
1226E
100
AcDbEntity
  8
0
100
AcDbLine
 10
1793.805431
 20
1863.183361
 30
0.0
 11
1793.805431
 21
1869.280361
 31
0.0
  0
LINE
  5
1226F
100
AcDbEntity
  8
0
100
AcDbLine
 10
1792.240431
 20
1862.279361
 30
0.0
 11
1793.805431
 21
1863.183361
 31
0.0
  0
LINE
  5
12270
100
AcDbEntity
  8
0
100
AcDbLine
 10
1879.282082
 20
1973.780361
 30
0.0
 11
1801.282082
 21
1973.780361
 31
0.0
  0
ARC
  5
12271
100
AcDbEntity
  8
0
100
AcDbCircle
 10
1904.282082
 20
1939.780361
 30
0.0
 40
15.0
100
AcDbArc
 50
90.0
 51
180.0
  0
ARC
  5
12272
100
AcDbEntity
  8
0
100
AcDbCircle
 10
1879.282082
 20
1963.780361
 30
0.0
 40
10.0
100
AcDbArc
 50
0.0
 51
90.0
  0
ARC
  5
12273
100
AcDbEntity
  8
0
100
AcDbCircle
 10
1880.00431
 20
2001.754912
 30
0.0
 40
6.0
100
AcDbArc
 50
197.697436
 51
304.265886
  0
LINE
  5
12274
100
AcDbEntity
  8
0
100
AcDbLine
 10
1889.282082
 20
1963.780361
 30
0.0
 11
1889.282082
 21
1958.217904
 31
0.0
  0
LINE
  5
12275
100
AcDbEntity
  8
0
100
AcDbLine
 10
1791.282082
 20
1917.280361
 30
0.0
 11
1791.282082
 21
1953.663485
 31
0.0
  0
LINE
  5
12276
100
AcDbEntity
  8
0
100
AcDbLine
 10
1762.282082
 20
1902.280361
 30
0.0
 11
1762.282082
 21
1869.280361
 31
0.0
  0
LINE
  5
12277
100
AcDbEntity
  8
0
100
AcDbLine
 10
1774.175431
 20
1869.280361
 30
0.0
 11
1774.175431
 21
1863.183361
 31
0.0
  0
LINE
  5
12278
100
AcDbEntity
  8
0
100
AcDbLine
 10
1774.175431
 20
1863.183361
 30
0.0
 11
1775.740431
 21
1862.279361
 31
0.0
  0
LINE
  5
12279
100
AcDbEntity
  8
0
100
AcDbLine
 10
1779.083431
 20
1863.183361
 30
0.0
 11
1779.083431
 21
1869.280361
 31
0.0
  0
LINE
  5
1227A
100
AcDbEntity
  8
0
100
AcDbLine
 10
1788.897431
 20
1863.183361
 30
0.0
 11
1788.897431
 21
1869.280361
 31
0.0
  0
ARC
  5
1227B
100
AcDbEntity
  8
0
100
AcDbCircle
 10
1783.990431
 20
1879.942353
 30
0.0
 40
17.462601
100
AcDbArc
 50
253.680072
 51
286.319928
  0
ARC
  5
1227C
100
AcDbEntity
  8
0
100
AcDbCircle
 10
1776.629431
 20
1867.110685
 30
0.0
 40
4.630982
100
AcDbArc
 50
238.000676
 51
301.999324
  0
LINE
  5
1227D
100
AcDbEntity
  8
0
100
AcDbLine
 10
1778.990431
 20
1905.468361
 30
0.0
 11
1778.990431
 21
1902.280361
 31
0.0
  0
LINE
  5
1227E
100
AcDbEntity
  8
0
100
AcDbLine
 10
1779.802431
 20
1906.280361
 30
0.0
 11
1778.990431
 21
1905.468361
 31
0.0
  0
LINE
  5
1227F
100
AcDbEntity
  8
0
100
AcDbLine
 10
1788.990431
 20
1902.280361
 30
0.0
 11
1788.990431
 21
1905.468361
 31
0.0
  0
LINE
  5
12280
100
AcDbEntity
  8
0
100
AcDbLine
 10
1788.990431
 20
1905.468361
 30
0.0
 11
1788.178431
 21
1906.280361
 31
0.0
  0
LINE
  5
12281
100
AcDbEntity
  8
0
100
AcDbLine
 10
1788.178431
 20
1906.280361
 30
0.0
 11
1779.802431
 21
1906.280361
 31
0.0
  0
LINE
  5
12282
100
AcDbEntity
  8
0
100
AcDbLine
 10
1791.282082
 20
1917.280361
 30
0.0
 11
1788.312893
 21
1906.1459
 31
0.0
  0
LINE
  5
12283
100
AcDbEntity
  8
0
100
AcDbLine
 10
1734.782082
 20
1961.780361
 30
0.0
 11
1722.997618
 21
1959.423468
 31
0.0
  0
LINE
  5
12284
100
AcDbEntity
  8
0
100
AcDbLine
 10
1734.782082
 20
1997.780361
 30
0.0
 11
1722.997618
 21
2000.137254
 31
0.0
  0
LINE
  5
12285
100
AcDbEntity
  8
0
100
AcDbLine
 10
1748.389411
 20
1961.780361
 30
0.0
 11
1755.389411
 21
1954.780361
 31
0.0
  0
LINE
  5
12286
100
AcDbEntity
  8
0
100
AcDbLine
 10
1734.782082
 20
1961.780361
 30
0.0
 11
1743.674754
 21
1961.780361
 31
0.0
  0
LINE
  5
12287
100
AcDbEntity
  8
0
100
AcDbLine
 10
1734.782082
 20
1997.780361
 30
0.0
 11
1743.674754
 21
1997.780361
 31
0.0
  0
LINE
  5
12288
100
AcDbEntity
  8
0
100
AcDbLine
 10
1734.782082
 20
1965.380361
 30
0.0
 11
1734.782082
 21
1994.180361
 31
0.0
  0
ARC
  5
12289
100
AcDbEntity
  8
0
100
AcDbCircle
 10
1746.032082
 20
1965.430361
 30
0.0
 40
4.345054
100
AcDbArc
 50
237.14387
 51
302.85613
  0
ARC
  5
1228A
100
AcDbEntity
  8
0
100
AcDbCircle
 10
1746.032082
 20
1994.130361
 30
0.0
 40
4.345054
100
AcDbArc
 50
57.14387
 51
122.85613
  0
LINE
  5
1228B
100
AcDbEntity
  8
0
100
AcDbLine
 10
1743.674754
 20
1961.780361
 30
0.0
 11
1743.674754
 21
1997.780361
 31
0.0
  0
LINE
  5
1228C
100
AcDbEntity
  8
0
100
AcDbLine
 10
1748.389411
 20
1997.780361
 30
0.0
 11
1748.389411
 21
1961.780361
 31
0.0
  0
ARC
  5
1228D
100
AcDbEntity
  8
0
100
AcDbCircle
 10
1763.282082
 20
2000.780361
 30
0.0
 40
46.0
100
AcDbArc
 50
270.0
 51
295.028999
  0
LINE
  5
1228E
100
AcDbEntity
  8
0
100
AcDbLine
 10
1755.389411
 20
1954.780361
 30
0.0
 11
1763.282082
 21
1954.780361
 31
0.0
  0
LINE
  5
1228F
100
AcDbEntity
  8
0
100
AcDbLine
 10
1703.782082
 20
1929.780361
 30
0.0
 11
1719.782082
 21
1929.780361
 31
0.0
  0
LINE
  5
12290
100
AcDbEntity
  8
0
100
AcDbLine
 10
1703.782082
 20
1979.780361
 30
0.0
 11
1703.782082
 21
1929.780361
 31
0.0
  0
ARC
  5
12291
100
AcDbEntity
  8
0
100
AcDbCircle
 10
1723.782082
 20
1955.501146
 30
0.0
 40
4.0
100
AcDbArc
 50
101.309932
 51
180.0
  0
ARC
  5
12292
100
AcDbEntity
  8
0
100
AcDbCircle
 10
1807.282082
 20
1970.780361
 30
0.0
 40
46.0
100
AcDbArc
 50
90.0
 51
128.213211
  0
ARC
  5
12293
100
AcDbEntity
  8
0
100
AcDbCircle
 10
1840.282082
 20
1950.780361
 30
0.0
 40
66.0
100
AcDbArc
 50
71.873796
 51
90.0
  0
LINE
  5
12294
100
AcDbEntity
  8
0
100
AcDbLine
 10
1852.679814
 20
2015.605482
 30
0.0
 11
1909.282082
 21
2004.780361
 31
0.0
  0
LINE
  5
12295
100
AcDbEntity
  8
0
100
AcDbLine
 10
1840.282082
 20
2016.780361
 30
0.0
 11
1807.282082
 21
2016.780361
 31
0.0
  0
ARC
  5
12296
100
AcDbEntity
  8
0
100
AcDbCircle
 10
1772.641066
 20
2014.780361
 30
0.0
 40
10.0
100
AcDbArc
 50
270.0
 51
308.213211
  0
LINE
  5
12297
100
AcDbEntity
  8
0
100
AcDbLine
 10
1772.641066
 20
2004.780361
 30
0.0
 11
1755.389411
 21
2004.780361
 31
0.0
  0
LINE
  5
12298
100
AcDbEntity
  8
0
100
AcDbLine
 10
1703.782082
 20
2029.780361
 30
0.0
 11
1719.782082
 21
2029.780361
 31
0.0
  0
LINE
  5
1229D
100
AcDbEntity
  8
0
100
AcDbLine
 10
2964.782794
 20
1954.780361
 30
0.0
 11
2940.236533
 21
1954.780361
 31
0.0
  0
LINE
  5
1229E
100
AcDbEntity
  8
0
100
AcDbLine
 10
2964.782794
 20
2004.780361
 30
0.0
 11
2945.236533
 21
2004.780361
 31
0.0
  0
LINE
  5
1229F
100
AcDbEntity
  8
0
100
AcDbLine
 10
3015.236533
 20
2042.280361
 30
0.0
 11
3015.236533
 21
1917.280361
 31
0.0
  0
LINE
  5
122A0
100
AcDbEntity
  8
0
100
AcDbLine
 10
2973.190272
 20
2001.780361
 30
0.0
 11
2973.190272
 21
1957.780361
 31
0.0
  0
LINE
  5
122A1
100
AcDbEntity
  8
0
100
AcDbLine
 10
2967.782794
 20
2001.780361
 30
0.0
 11
2967.782794
 21
1957.780361
 31
0.0
  0
LINE
  5
122A2
100
AcDbEntity
  8
0
100
AcDbLine
 10
3031.236533
 20
1979.780361
 30
0.0
 11
3031.236533
 21
2042.280361
 31
0.0
  0
LINE
  5
122A3
100
AcDbEntity
  8
0
100
AcDbLine
 10
2964.782794
 20
2004.780361
 30
0.0
 11
2964.782794
 21
1954.780361
 31
0.0
  0
LINE
  5
122A4
100
AcDbEntity
  8
0
100
AcDbLine
 10
3031.236533
 20
1979.780361
 30
0.0
 11
3031.236533
 21
1917.280361
 31
0.0
  0
LINE
  5
122A5
100
AcDbEntity
  8
0
100
AcDbLine
 10
3031.236533
 20
1917.280361
 30
0.0
 11
3015.236533
 21
1917.280361
 31
0.0
  0
LINE
  5
122A6
100
AcDbEntity
  8
0
100
AcDbLine
 10
2967.782794
 20
1957.780361
 30
0.0
 11
2964.782794
 21
1954.780361
 31
0.0
  0
ARC
  5
122A7
100
AcDbEntity
  8
0
100
AcDbCircle
 10
2970.486533
 20
1960.904213
 30
0.0
 40
4.131422
100
AcDbArc
 50
229.123337
 51
310.876663
  0
LINE
  5
122A8
100
AcDbEntity
  8
0
100
AcDbLine
 10
3000.236533
 20
1957.780361
 30
0.0
 11
2973.190272
 21
1957.780361
 31
0.0
  0
ARC
  5
122A9
100
AcDbEntity
  8
0
100
AcDbCircle
 10
3011.236533
 20
1951.501146
 30
0.0
 40
4.0
100
AcDbArc
 50
0.0
 51
78.690068
  0
LINE
  5
122AA
100
AcDbEntity
  8
0
100
AcDbLine
 10
3012.020998
 20
1955.423468
 30
0.0
 11
3000.236533
 21
1957.780361
 31
0.0
  0
LINE
  5
122AB
100
AcDbEntity
  8
0
100
AcDbLine
 10
3000.236533
 20
1998.280361
 30
0.0
 11
3000.236533
 21
1961.280361
 31
0.0
  0
LINE
  5
122AC
100
AcDbEntity
  8
0
100
AcDbLine
 10
3031.236533
 20
2042.280361
 30
0.0
 11
3015.236533
 21
2042.280361
 31
0.0
  0
ARC
  5
122AD
100
AcDbEntity
  8
0
100
AcDbCircle
 10
3011.236533
 20
2008.059577
 30
0.0
 40
4.0
100
AcDbArc
 50
281.309932
 51
0.0
  0
LINE
  5
122AE
100
AcDbEntity
  8
0
100
AcDbLine
 10
3012.020998
 20
2004.137254
 30
0.0
 11
3000.236533
 21
2001.780361
 31
0.0
  0
ARC
  5
122AF
100
AcDbEntity
  8
0
100
AcDbCircle
 10
2970.486533
 20
1998.65651
 30
0.0
 40
4.131422
100
AcDbArc
 50
49.123337
 51
130.876663
  0
LINE
  5
122B0
100
AcDbEntity
  8
0
100
AcDbLine
 10
2967.782794
 20
2001.780361
 30
0.0
 11
2964.782794
 21
2004.780361
 31
0.0
  0
LINE
  5
122B1
100
AcDbEntity
  8
0
100
AcDbLine
 10
3000.236533
 20
2001.780361
 30
0.0
 11
2973.190272
 21
2001.780361
 31
0.0
  0
LINE
  5
122B2
100
AcDbEntity
  8
0
100
AcDbLine
 10
2721.236533
 20
1979.780361
 30
0.0
 11
2721.236533
 21
2042.280361
 31
0.0
  0
LINE
  5
122B3
100
AcDbEntity
  8
0
100
AcDbLine
 10
2737.236533
 20
2042.280361
 30
0.0
 11
2737.236533
 21
1917.280361
 31
0.0
  0
LINE
  5
122B4
100
AcDbEntity
  8
0
100
AcDbLine
 10
2787.690272
 20
2004.780361
 30
0.0
 11
2787.690272
 21
1954.780361
 31
0.0
  0
LINE
  5
122B5
100
AcDbEntity
  8
0
100
AcDbLine
 10
2779.282794
 20
2001.780361
 30
0.0
 11
2779.282794
 21
1957.780361
 31
0.0
  0
LINE
  5
122B6
100
AcDbEntity
  8
0
100
AcDbLine
 10
2784.690272
 20
2001.780361
 30
0.0
 11
2784.690272
 21
1957.780361
 31
0.0
  0
ARC
  5
122B8
100
AcDbEntity
  8
0
100
AcDbCircle
 10
2945.236533
 20
1958.780361
 30
0.0
 40
46.0
100
AcDbArc
 50
90.0
 51
124.265886
  0
ARC
  5
122B9
100
AcDbEntity
  8
0
100
AcDbCircle
 10
2890.236533
 20
1993.547171
 30
0.0
 40
21.0
100
AcDbArc
 50
17.697436
 51
71.873796
  0
LINE
  5
122BA
100
AcDbEntity
  8
0
100
AcDbLine
 10
2830.934433
 20
1854.280361
 30
0.0
 11
2829.759882
 21
1864.656866
 31
0.0
  0
LINE
  5
122BB
100
AcDbEntity
  8
0
100
AcDbLine
 10
2921.538633
 20
1854.280361
 30
0.0
 11
2922.713184
 21
1864.656866
 31
0.0
  0
LINE
  5
122BC
100
AcDbEntity
  8
0
100
AcDbLine
 10
2829.94988
 20
1826.086452
 30
0.0
 11
2825.035325
 21
1807.745085
 31
0.0
  0
ARC
  5
122BD
100
AcDbEntity
  8
0
100
AcDbCircle
 10
2827.305882
 20
1768.610685
 30
0.0
 40
4.630982
100
AcDbArc
 50
238.000676
 51
301.999324
  0
LINE
  5
122BE
100
AcDbEntity
  8
0
100
AcDbLine
 10
2814.736533
 20
1728.780361
 30
0.0
 11
2859.736533
 21
1728.780361
 31
0.0
  0
LINE
  5
122BF
100
AcDbEntity
  8
0
100
AcDbLine
 10
2798.236533
 20
1770.780361
 30
0.0
 11
2954.236533
 21
1770.780361
 31
0.0
  0
LINE
  5
122C0
100
AcDbEntity
  8
0
100
AcDbLine
 10
2954.236533
 20
1804.780361
 30
0.0
 11
2798.236533
 21
1804.780361
 31
0.0
  0
LINE
  5
122C1
100
AcDbEntity
  8
0
100
AcDbLine
 10
2954.236533
 20
1787.780361
 30
0.0
 11
2798.236533
 21
1787.780361
 31
0.0
  0
LINE
  5
122C2
100
AcDbEntity
  8
0
100
AcDbLine
 10
2954.236533
 20
1770.780361
 30
0.0
 11
2954.236533
 21
1804.780361
 31
0.0
  0
ARC
  5
122C3
100
AcDbEntity
  8
0
100
AcDbCircle
 10
2893.236533
 20
1750.780361
 30
0.0
 40
2.0
100
AcDbArc
 50
270.0
 51
0.0
  0
ARC
  5
122C4
100
AcDbEntity
  8
0
100
AcDbCircle
 10
2902.164736
 20
1764.780361
 30
0.0
 40
6.0
100
AcDbArc
 50
90.0
 51
150.0
  0
LINE
  5
122C5
100
AcDbEntity
  8
0
100
AcDbLine
 10
2895.236533
 20
1764.780361
 30
0.0
 11
2896.968584
 21
1767.780361
 31
0.0
  0
LINE
  5
122C6
100
AcDbEntity
  8
0
100
AcDbLine
 10
2924.278184
 20
1763.779361
 30
0.0
 11
2940.778184
 21
1763.779361
 31
0.0
  0
ARC
  5
122C7
100
AcDbEntity
  8
0
100
AcDbCircle
 10
2939.889184
 20
1768.610685
 30
0.0
 40
4.630982
100
AcDbArc
 50
238.000676
 51
301.999324
  0
LINE
  5
122C8
100
AcDbEntity
  8
0
100
AcDbLine
 10
2940.778184
 20
1763.779361
 30
0.0
 11
2942.343184
 21
1764.683361
 31
0.0
  0
LINE
  5
122C9
100
AcDbEntity
  8
0
100
AcDbLine
 10
2942.343184
 20
1764.683361
 30
0.0
 11
2942.343184
 21
1770.780361
 31
0.0
  0
ARC
  5
122CA
100
AcDbEntity
  8
0
100
AcDbCircle
 10
2925.167184
 20
1768.610685
 30
0.0
 40
4.630982
100
AcDbArc
 50
238.000676
 51
301.999324
  0
ARC
  5
122CB
100
AcDbEntity
  8
0
100
AcDbCircle
 10
2932.528184
 20
1781.442353
 30
0.0
 40
17.462601
100
AcDbArc
 50
253.680072
 51
286.319928
  0
LINE
  5
122CC
100
AcDbEntity
  8
0
100
AcDbLine
 10
2937.435184
 20
1764.683361
 30
0.0
 11
2937.435184
 21
1770.780361
 31
0.0
  0
LINE
  5
122CD
100
AcDbEntity
  8
0
100
AcDbLine
 10
2927.621184
 20
1764.683361
 30
0.0
 11
2927.621184
 21
1770.780361
 31
0.0
  0
LINE
  5
122CE
100
AcDbEntity
  8
0
100
AcDbLine
 10
2922.713184
 20
1764.683361
 30
0.0
 11
2924.278184
 21
1763.779361
 31
0.0
  0
LINE
  5
122CF
100
AcDbEntity
  8
0
100
AcDbLine
 10
2922.713184
 20
1770.780361
 30
0.0
 11
2922.713184
 21
1764.683361
 31
0.0
  0
LINE
  5
122D0
100
AcDbEntity
  8
0
100
AcDbLine
 10
2895.236533
 20
1750.780361
 30
0.0
 11
2895.236533
 21
1764.780361
 31
0.0
  0
LINE
  5
122D1
100
AcDbEntity
  8
0
100
AcDbLine
 10
2866.421533
 20
1770.780361
 30
0.0
 11
2866.421533
 21
1764.683361
 31
0.0
  0
LINE
  5
122D2
100
AcDbEntity
  8
0
100
AcDbLine
 10
2866.421533
 20
1764.683361
 30
0.0
 11
2867.986533
 21
1763.779361
 31
0.0
  0
LINE
  5
122D3
100
AcDbEntity
  8
0
100
AcDbLine
 10
2829.759882
 20
1764.683361
 30
0.0
 11
2829.759882
 21
1770.780361
 31
0.0
  0
LINE
  5
122D4
100
AcDbEntity
  8
0
100
AcDbLine
 10
2871.329533
 20
1764.683361
 30
0.0
 11
2871.329533
 21
1770.780361
 31
0.0
  0
LINE
  5
122D5
100
AcDbEntity
  8
0
100
AcDbLine
 10
2881.143533
 20
1764.683361
 30
0.0
 11
2881.143533
 21
1770.780361
 31
0.0
  0
LINE
  5
122D6
100
AcDbEntity
  8
0
100
AcDbLine
 10
2886.051533
 20
1764.683361
 30
0.0
 11
2886.051533
 21
1770.780361
 31
0.0
  0
LINE
  5
122D7
100
AcDbEntity
  8
0
100
AcDbLine
 10
2884.486533
 20
1763.779361
 30
0.0
 11
2886.051533
 21
1764.683361
 31
0.0
  0
ARC
  5
122D8
100
AcDbEntity
  8
0
100
AcDbCircle
 10
2883.597533
 20
1768.610685
 30
0.0
 40
4.630982
100
AcDbArc
 50
238.000676
 51
301.999324
  0
ARC
  5
122D9
100
AcDbEntity
  8
0
100
AcDbCircle
 10
2876.236533
 20
1781.442353
 30
0.0
 40
17.462601
100
AcDbArc
 50
253.680072
 51
286.319928
  0
ARC
  5
122DA
100
AcDbEntity
  8
0
100
AcDbCircle
 10
2868.875533
 20
1768.610685
 30
0.0
 40
4.630982
100
AcDbArc
 50
238.000676
 51
301.999324
  0
LINE
  5
122DB
100
AcDbEntity
  8
0
100
AcDbLine
 10
2867.986533
 20
1763.779361
 30
0.0
 11
2884.486533
 21
1763.779361
 31
0.0
  0
LINE
  5
122DC
100
AcDbEntity
  8
0
100
AcDbLine
 10
2859.736533
 20
1728.780361
 30
0.0
 11
2859.736533
 21
1770.780361
 31
0.0
  0
ARC
  5
122DD
100
AcDbEntity
  8
0
100
AcDbCircle
 10
2861.736533
 20
1746.780361
 30
0.0
 40
2.0
100
AcDbArc
 50
90.0
 51
180.0
  0
LINE
  5
122DE
100
AcDbEntity
  8
0
100
AcDbLine
 10
2861.736533
 20
1748.780361
 30
0.0
 11
2893.236533
 21
1748.780361
 31
0.0
  0
LINE
  5
122DF
100
AcDbEntity
  8
0
100
AcDbLine
 10
2922.523186
 20
1826.086452
 30
0.0
 11
2927.437741
 21
1807.745085
 31
0.0
  0
LINE
  5
122E0
100
AcDbEntity
  8
0
100
AcDbLine
 10
2936.716184
 20
1808.780361
 30
0.0
 11
2928.340184
 21
1808.780361
 31
0.0
  0
LINE
  5
122E1
100
AcDbEntity
  8
0
100
AcDbLine
 10
2937.528184
 20
1807.968361
 30
0.0
 11
2936.716184
 21
1808.780361
 31
0.0
  0
LINE
  5
122E2
100
AcDbEntity
  8
0
100
AcDbLine
 10
2937.528184
 20
1804.780361
 30
0.0
 11
2937.528184
 21
1807.968361
 31
0.0
  0
LINE
  5
122E3
100
AcDbEntity
  8
0
100
AcDbLine
 10
2928.340184
 20
1808.780361
 30
0.0
 11
2927.528184
 21
1807.968361
 31
0.0
  0
LINE
  5
122E4
100
AcDbEntity
  8
0
100
AcDbLine
 10
2927.528184
 20
1807.968361
 30
0.0
 11
2927.528184
 21
1804.780361
 31
0.0
  0
LINE
  5
122E5
100
AcDbEntity
  8
0
100
AcDbLine
 10
2921.538633
 20
1854.280361
 30
0.0
 11
2922.523186
 21
1826.086452
 31
0.0
  0
LINE
  5
122E6
100
AcDbEntity
  8
0
100
AcDbLine
 10
2830.934433
 20
1854.280361
 30
0.0
 11
2829.94988
 21
1826.086452
 31
0.0
  0
LINE
  5
122E7
100
AcDbEntity
  8
0
100
AcDbLine
 10
2871.236533
 20
1807.968361
 30
0.0
 11
2871.236533
 21
1804.780361
 31
0.0
  0
LINE
  5
122E8
100
AcDbEntity
  8
0
100
AcDbLine
 10
2872.048533
 20
1808.780361
 30
0.0
 11
2871.236533
 21
1807.968361
 31
0.0
  0
LINE
  5
122E9
100
AcDbEntity
  8
0
100
AcDbLine
 10
2881.236533
 20
1804.780361
 30
0.0
 11
2881.236533
 21
1807.968361
 31
0.0
  0
LINE
  5
122EA
100
AcDbEntity
  8
0
100
AcDbLine
 10
2881.236533
 20
1807.968361
 30
0.0
 11
2880.424533
 21
1808.780361
 31
0.0
  0
LINE
  5
122EB
100
AcDbEntity
  8
0
100
AcDbLine
 10
2880.424533
 20
1808.780361
 30
0.0
 11
2872.048533
 21
1808.780361
 31
0.0
  0
LINE
  5
122EC
100
AcDbEntity
  8
0
100
AcDbLine
 10
2798.236533
 20
1770.780361
 30
0.0
 11
2798.236533
 21
1804.780361
 31
0.0
  0
ARC
  5
122ED
100
AcDbEntity
  8
0
100
AcDbCircle
 10
2819.944882
 20
1781.442353
 30
0.0
 40
17.462601
100
AcDbArc
 50
253.680072
 51
286.319928
  0
LINE
  5
122EE
100
AcDbEntity
  8
0
100
AcDbLine
 10
2824.851882
 20
1764.683361
 30
0.0
 11
2824.851882
 21
1770.780361
 31
0.0
  0
ARC
  5
122EF
100
AcDbEntity
  8
0
100
AcDbCircle
 10
2812.583882
 20
1768.610685
 30
0.0
 40
4.630982
100
AcDbArc
 50
238.000676
 51
301.999324
  0
LINE
  5
122F0
100
AcDbEntity
  8
0
100
AcDbLine
 10
2815.037882
 20
1764.683361
 30
0.0
 11
2815.037882
 21
1770.780361
 31
0.0
  0
LINE
  5
122F1
100
AcDbEntity
  8
0
100
AcDbLine
 10
2810.129882
 20
1764.683361
 30
0.0
 11
2811.694882
 21
1763.779361
 31
0.0
  0
LINE
  5
122F2
100
AcDbEntity
  8
0
100
AcDbLine
 10
2810.129882
 20
1770.780361
 30
0.0
 11
2810.129882
 21
1764.683361
 31
0.0
  0
LINE
  5
122F3
100
AcDbEntity
  8
0
100
AcDbLine
 10
2811.694882
 20
1763.779361
 30
0.0
 11
2828.194882
 21
1763.779361
 31
0.0
  0
LINE
  5
122F4
100
AcDbEntity
  8
0
100
AcDbLine
 10
2814.736533
 20
1728.780361
 30
0.0
 11
2814.736533
 21
1763.007886
 31
0.0
  0
LINE
  5
122F5
100
AcDbEntity
  8
0
100
AcDbLine
 10
2824.132882
 20
1808.780361
 30
0.0
 11
2815.756882
 21
1808.780361
 31
0.0
  0
LINE
  5
122F6
100
AcDbEntity
  8
0
100
AcDbLine
 10
2815.756882
 20
1808.780361
 30
0.0
 11
2814.944882
 21
1807.968361
 31
0.0
  0
LINE
  5
122F7
100
AcDbEntity
  8
0
100
AcDbLine
 10
2814.944882
 20
1807.968361
 30
0.0
 11
2814.944882
 21
1804.780361
 31
0.0
  0
LINE
  5
122F8
100
AcDbEntity
  8
0
100
AcDbLine
 10
2824.944882
 20
1807.968361
 30
0.0
 11
2824.132882
 21
1808.780361
 31
0.0
  0
LINE
  5
122F9
100
AcDbEntity
  8
0
100
AcDbLine
 10
2824.944882
 20
1804.780361
 30
0.0
 11
2824.944882
 21
1807.968361
 31
0.0
  0
ARC
  5
122FA
100
AcDbEntity
  8
0
100
AcDbCircle
 10
2821.236533
 20
1953.663485
 30
0.0
 40
6.0
100
AcDbArc
 50
0.0
 51
115.028999
  0
ARC
  5
122FB
100
AcDbEntity
  8
0
100
AcDbCircle
 10
2837.236533
 20
1963.780361
 30
0.0
 40
10.0
100
AcDbArc
 50
90.0
 51
180.0
  0
LINE
  5
122FC
100
AcDbEntity
  8
0
100
AcDbLine
 10
2828.194882
 20
1862.279361
 30
0.0
 11
2829.759882
 21
1863.183361
 31
0.0
  0
ARC
  5
122FD
100
AcDbEntity
  8
0
100
AcDbCircle
 10
2827.305882
 20
1867.110685
 30
0.0
 40
4.630982
100
AcDbArc
 50
238.000676
 51
301.999324
  0
LINE
  5
122FE
100
AcDbEntity
  8
0
100
AcDbLine
 10
2954.236533
 20
1869.280361
 30
0.0
 11
2798.236533
 21
1869.280361
 31
0.0
  0
LINE
  5
122FF
100
AcDbEntity
  8
0
100
AcDbLine
 10
2798.236533
 20
1902.280361
 30
0.0
 11
2954.236533
 21
1902.280361
 31
0.0
  0
LINE
  5
12300
100
AcDbEntity
  8
0
100
AcDbLine
 10
2954.236533
 20
1885.780361
 30
0.0
 11
2798.236533
 21
1885.780361
 31
0.0
  0
LINE
  5
12301
100
AcDbEntity
  8
0
100
AcDbLine
 10
2925.236533
 20
1917.280361
 30
0.0
 11
2925.236533
 21
1939.780361
 31
0.0
  0
CIRCLE
  5
12302
100
AcDbEntity
  8
0
100
AcDbCircle
 10
2882.236533
 20
1947.780361
 30
0.0
 40
19.0
  0
LINE
  5
12303
100
AcDbEntity
  8
0
100
AcDbLine
 10
2922.236533
 20
1917.280361
 30
0.0
 11
2830.236533
 21
1917.280361
 31
0.0
  0
LINE
  5
12304
100
AcDbEntity
  8
0
100
AcDbLine
 10
2928.340184
 20
1906.280361
 30
0.0
 11
2927.528184
 21
1905.468361
 31
0.0
  0
LINE
  5
12305
100
AcDbEntity
  8
0
100
AcDbLine
 10
2937.528184
 20
1905.468361
 30
0.0
 11
2936.716184
 21
1906.280361
 31
0.0
  0
LINE
  5
12306
100
AcDbEntity
  8
0
100
AcDbLine
 10
2936.716184
 20
1906.280361
 30
0.0
 11
2928.340184
 21
1906.280361
 31
0.0
  0
LINE
  5
12307
100
AcDbEntity
  8
0
100
AcDbLine
 10
2925.236533
 20
1917.280361
 30
0.0
 11
2928.205723
 21
1906.1459
 31
0.0
  0
LINE
  5
12308
100
AcDbEntity
  8
0
100
AcDbLine
 10
2922.713184
 20
1869.280361
 30
0.0
 11
2922.713184
 21
1863.183361
 31
0.0
  0
LINE
  5
12309
100
AcDbEntity
  8
0
100
AcDbLine
 10
2922.713184
 20
1863.183361
 30
0.0
 11
2924.278184
 21
1862.279361
 31
0.0
  0
LINE
  5
1230A
100
AcDbEntity
  8
0
100
AcDbLine
 10
2927.621184
 20
1863.183361
 30
0.0
 11
2927.621184
 21
1869.280361
 31
0.0
  0
LINE
  5
1230B
100
AcDbEntity
  8
0
100
AcDbLine
 10
2937.435184
 20
1863.183361
 30
0.0
 11
2937.435184
 21
1869.280361
 31
0.0
  0
LINE
  5
1230C
100
AcDbEntity
  8
0
100
AcDbLine
 10
2942.343184
 20
1863.183361
 30
0.0
 11
2942.343184
 21
1869.280361
 31
0.0
  0
LINE
  5
1230D
100
AcDbEntity
  8
0
100
AcDbLine
 10
2940.778184
 20
1862.279361
 30
0.0
 11
2942.343184
 21
1863.183361
 31
0.0
  0
ARC
  5
1230E
100
AcDbEntity
  8
0
100
AcDbCircle
 10
2939.889184
 20
1867.110685
 30
0.0
 40
4.630982
100
AcDbArc
 50
238.000676
 51
301.999324
  0
ARC
  5
1230F
100
AcDbEntity
  8
0
100
AcDbCircle
 10
2932.528184
 20
1879.942353
 30
0.0
 40
17.462601
100
AcDbArc
 50
253.680072
 51
286.319928
  0
ARC
  5
12310
100
AcDbEntity
  8
0
100
AcDbCircle
 10
2925.167184
 20
1867.110685
 30
0.0
 40
4.630982
100
AcDbArc
 50
238.000676
 51
301.999324
  0
LINE
  5
12311
100
AcDbEntity
  8
0
100
AcDbLine
 10
2924.278184
 20
1862.279361
 30
0.0
 11
2940.778184
 21
1862.279361
 31
0.0
  0
LINE
  5
12312
100
AcDbEntity
  8
0
100
AcDbLine
 10
2954.236533
 20
1902.280361
 30
0.0
 11
2954.236533
 21
1869.280361
 31
0.0
  0
LINE
  5
12313
100
AcDbEntity
  8
0
100
AcDbLine
 10
2927.528184
 20
1905.468361
 30
0.0
 11
2927.528184
 21
1902.280361
 31
0.0
  0
LINE
  5
12314
100
AcDbEntity
  8
0
100
AcDbLine
 10
2937.528184
 20
1902.280361
 30
0.0
 11
2937.528184
 21
1905.468361
 31
0.0
  0
LINE
  5
12315
100
AcDbEntity
  8
0
100
AcDbLine
 10
2880.424533
 20
1906.280361
 30
0.0
 11
2872.048533
 21
1906.280361
 31
0.0
  0
LINE
  5
12316
100
AcDbEntity
  8
0
100
AcDbLine
 10
2881.236533
 20
1905.468361
 30
0.0
 11
2880.424533
 21
1906.280361
 31
0.0
  0
LINE
  5
12317
100
AcDbEntity
  8
0
100
AcDbLine
 10
2872.048533
 20
1906.280361
 30
0.0
 11
2871.236533
 21
1905.468361
 31
0.0
  0
LINE
  5
12318
100
AcDbEntity
  8
0
100
AcDbLine
 10
2866.421533
 20
1863.183361
 30
0.0
 11
2867.986533
 21
1862.279361
 31
0.0
  0
LINE
  5
12319
100
AcDbEntity
  8
0
100
AcDbLine
 10
2866.421533
 20
1869.280361
 30
0.0
 11
2866.421533
 21
1863.183361
 31
0.0
  0
LINE
  5
1231A
100
AcDbEntity
  8
0
100
AcDbLine
 10
2829.759882
 20
1863.183361
 30
0.0
 11
2829.759882
 21
1869.280361
 31
0.0
  0
ARC
  5
1231B
100
AcDbEntity
  8
0
100
AcDbCircle
 10
2876.236533
 20
1879.942353
 30
0.0
 40
17.462601
100
AcDbArc
 50
253.680072
 51
286.319928
  0
ARC
  5
1231C
100
AcDbEntity
  8
0
100
AcDbCircle
 10
2883.597533
 20
1867.110685
 30
0.0
 40
4.630982
100
AcDbArc
 50
238.000676
 51
301.999324
  0
LINE
  5
1231D
100
AcDbEntity
  8
0
100
AcDbLine
 10
2884.486533
 20
1862.279361
 30
0.0
 11
2886.051533
 21
1863.183361
 31
0.0
  0
LINE
  5
1231E
100
AcDbEntity
  8
0
100
AcDbLine
 10
2886.051533
 20
1863.183361
 30
0.0
 11
2886.051533
 21
1869.280361
 31
0.0
  0
LINE
  5
1231F
100
AcDbEntity
  8
0
100
AcDbLine
 10
2881.143533
 20
1863.183361
 30
0.0
 11
2881.143533
 21
1869.280361
 31
0.0
  0
LINE
  5
12320
100
AcDbEntity
  8
0
100
AcDbLine
 10
2871.329533
 20
1863.183361
 30
0.0
 11
2871.329533
 21
1869.280361
 31
0.0
  0
LINE
  5
12321
100
AcDbEntity
  8
0
100
AcDbLine
 10
2867.986533
 20
1862.279361
 30
0.0
 11
2884.486533
 21
1862.279361
 31
0.0
  0
ARC
  5
12322
100
AcDbEntity
  8
0
100
AcDbCircle
 10
2868.875533
 20
1867.110685
 30
0.0
 40
4.630982
100
AcDbArc
 50
238.000676
 51
301.999324
  0
LINE
  5
12323
100
AcDbEntity
  8
0
100
AcDbLine
 10
2881.236533
 20
1902.280361
 30
0.0
 11
2881.236533
 21
1905.468361
 31
0.0
  0
LINE
  5
12324
100
AcDbEntity
  8
0
100
AcDbLine
 10
2871.236533
 20
1905.468361
 30
0.0
 11
2871.236533
 21
1902.280361
 31
0.0
  0
LINE
  5
12325
100
AcDbEntity
  8
0
100
AcDbLine
 10
2915.236533
 20
1973.780361
 30
0.0
 11
2837.236533
 21
1973.780361
 31
0.0
  0
ARC
  5
12326
100
AcDbEntity
  8
0
100
AcDbCircle
 10
2915.958761
 20
2001.754912
 30
0.0
 40
6.0
100
AcDbArc
 50
197.697436
 51
304.265886
  0
ARC
  5
12327
100
AcDbEntity
  8
0
100
AcDbCircle
 10
2940.236533
 20
1939.780361
 30
0.0
 40
15.0
100
AcDbArc
 50
90.0
 51
180.0
  0
LINE
  5
12328
100
AcDbEntity
  8
0
100
AcDbLine
 10
2925.236533
 20
1963.780361
 30
0.0
 11
2925.236533
 21
1958.217904
 31
0.0
  0
ARC
  5
12329
100
AcDbEntity
  8
0
100
AcDbCircle
 10
2915.236533
 20
1963.780361
 30
0.0
 40
10.0
100
AcDbArc
 50
0.0
 51
90.0
  0
LINE
  5
1232A
100
AcDbEntity
  8
0
100
AcDbLine
 10
2721.236533
 20
1979.780361
 30
0.0
 11
2721.236533
 21
1917.280361
 31
0.0
  0
LINE
  5
1232B
100
AcDbEntity
  8
0
100
AcDbLine
 10
2827.236533
 20
1917.280361
 30
0.0
 11
2827.236533
 21
1953.663485
 31
0.0
  0
LINE
  5
1232C
100
AcDbEntity
  8
0
100
AcDbLine
 10
2815.756882
 20
1906.280361
 30
0.0
 11
2814.944882
 21
1905.468361
 31
0.0
  0
LINE
  5
1232D
100
AcDbEntity
  8
0
100
AcDbLine
 10
2824.944882
 20
1905.468361
 30
0.0
 11
2824.132882
 21
1906.280361
 31
0.0
  0
LINE
  5
1232E
100
AcDbEntity
  8
0
100
AcDbLine
 10
2824.132882
 20
1906.280361
 30
0.0
 11
2815.756882
 21
1906.280361
 31
0.0
  0
LINE
  5
1232F
100
AcDbEntity
  8
0
100
AcDbLine
 10
2827.236533
 20
1917.280361
 30
0.0
 11
2824.267343
 21
1906.1459
 31
0.0
  0
LINE
  5
12330
100
AcDbEntity
  8
0
100
AcDbLine
 10
2798.236533
 20
1902.280361
 30
0.0
 11
2798.236533
 21
1869.280361
 31
0.0
  0
LINE
  5
12331
100
AcDbEntity
  8
0
100
AcDbLine
 10
2810.129882
 20
1869.280361
 30
0.0
 11
2810.129882
 21
1863.183361
 31
0.0
  0
LINE
  5
12332
100
AcDbEntity
  8
0
100
AcDbLine
 10
2810.129882
 20
1863.183361
 30
0.0
 11
2811.694882
 21
1862.279361
 31
0.0
  0
LINE
  5
12333
100
AcDbEntity
  8
0
100
AcDbLine
 10
2815.037882
 20
1863.183361
 30
0.0
 11
2815.037882
 21
1869.280361
 31
0.0
  0
LINE
  5
12334
100
AcDbEntity
  8
0
100
AcDbLine
 10
2824.851882
 20
1863.183361
 30
0.0
 11
2824.851882
 21
1869.280361
 31
0.0
  0
ARC
  5
12335
100
AcDbEntity
  8
0
100
AcDbCircle
 10
2819.944882
 20
1879.942353
 30
0.0
 40
17.462601
100
AcDbArc
 50
253.680072
 51
286.319928
  0
ARC
  5
12336
100
AcDbEntity
  8
0
100
AcDbCircle
 10
2812.583882
 20
1867.110685
 30
0.0
 40
4.630982
100
AcDbArc
 50
238.000676
 51
301.999324
  0
LINE
  5
12337
100
AcDbEntity
  8
0
100
AcDbLine
 10
2811.694882
 20
1862.279361
 30
0.0
 11
2828.194882
 21
1862.279361
 31
0.0
  0
LINE
  5
12338
100
AcDbEntity
  8
0
100
AcDbLine
 10
2814.944882
 20
1905.468361
 30
0.0
 11
2814.944882
 21
1902.280361
 31
0.0
  0
LINE
  5
12339
100
AcDbEntity
  8
0
100
AcDbLine
 10
2824.944882
 20
1902.280361
 30
0.0
 11
2824.944882
 21
1905.468361
 31
0.0
  0
LINE
  5
1233A
100
AcDbEntity
  8
0
100
AcDbLine
 10
2721.236533
 20
1917.280361
 30
0.0
 11
2737.236533
 21
1917.280361
 31
0.0
  0
LINE
  5
1233B
100
AcDbEntity
  8
0
100
AcDbLine
 10
2752.236533
 20
1957.780361
 30
0.0
 11
2779.282794
 21
1957.780361
 31
0.0
  0
ARC
  5
1233C
100
AcDbEntity
  8
0
100
AcDbCircle
 10
2781.986533
 20
1960.904213
 30
0.0
 40
4.131422
100
AcDbArc
 50
229.123337
 51
310.876663
  0
LINE
  5
1233D
100
AcDbEntity
  8
0
100
AcDbLine
 10
2784.690272
 20
1957.780361
 30
0.0
 11
2787.690272
 21
1954.780361
 31
0.0
  0
ARC
  5
1233E
100
AcDbEntity
  8
0
100
AcDbCircle
 10
2799.236533
 20
2000.780361
 30
0.0
 40
46.0
100
AcDbArc
 50
270.0
 51
295.028999
  0
LINE
  5
1233F
100
AcDbEntity
  8
0
100
AcDbLine
 10
2787.690272
 20
1954.780361
 30
0.0
 11
2799.236533
 21
1954.780361
 31
0.0
  0
LINE
  5
12340
100
AcDbEntity
  8
0
100
AcDbLine
 10
2740.452069
 20
1955.423468
 30
0.0
 11
2752.236533
 21
1957.780361
 31
0.0
  0
ARC
  5
12341
100
AcDbEntity
  8
0
100
AcDbCircle
 10
2741.236533
 20
1951.501146
 30
0.0
 40
4.0
100
AcDbArc
 50
101.309932
 51
180.0
  0
LINE
  5
12342
100
AcDbEntity
  8
0
100
AcDbLine
 10
2752.236533
 20
1998.280361
 30
0.0
 11
2752.236533
 21
1961.280361
 31
0.0
  0
ARC
  5
12343
100
AcDbEntity
  8
0
100
AcDbCircle
 10
2843.236533
 20
1970.780361
 30
0.0
 40
46.0
100
AcDbArc
 50
90.0
 51
128.213211
  0
ARC
  5
12344
100
AcDbEntity
  8
0
100
AcDbCircle
 10
2876.236533
 20
1950.780361
 30
0.0
 40
66.0
100
AcDbArc
 50
71.873796
 51
90.0
  0
LINE
  5
12345
100
AcDbEntity
  8
0
100
AcDbLine
 10
2888.634265
 20
2015.605482
 30
0.0
 11
2945.236533
 21
2004.780361
 31
0.0
  0
LINE
  5
12346
100
AcDbEntity
  8
0
100
AcDbLine
 10
2876.236533
 20
2016.780361
 30
0.0
 11
2843.236533
 21
2016.780361
 31
0.0
  0
LINE
  5
12347
100
AcDbEntity
  8
0
100
AcDbLine
 10
2752.236533
 20
2001.780361
 30
0.0
 11
2779.282794
 21
2001.780361
 31
0.0
  0
LINE
  5
12348
100
AcDbEntity
  8
0
100
AcDbLine
 10
2784.690272
 20
2001.780361
 30
0.0
 11
2787.690272
 21
2004.780361
 31
0.0
  0
ARC
  5
12349
100
AcDbEntity
  8
0
100
AcDbCircle
 10
2781.986533
 20
1998.65651
 30
0.0
 40
4.131422
100
AcDbArc
 50
49.123337
 51
130.876663
  0
ARC
  5
1234A
100
AcDbEntity
  8
0
100
AcDbCircle
 10
2808.595517
 20
2014.780361
 30
0.0
 40
10.0
100
AcDbArc
 50
270.0
 51
308.213211
  0
LINE
  5
1234B
100
AcDbEntity
  8
0
100
AcDbLine
 10
2808.595517
 20
2004.780361
 30
0.0
 11
2787.690272
 21
2004.780361
 31
0.0
  0
LINE
  5
1234C
100
AcDbEntity
  8
0
100
AcDbLine
 10
2721.236533
 20
2042.280361
 30
0.0
 11
2737.236533
 21
2042.280361
 31
0.0
  0
ARC
  5
1234D
100
AcDbEntity
  8
0
100
AcDbCircle
 10
2741.236533
 20
2008.059577
 30
0.0
 40
4.0
100
AcDbArc
 50
180.0
 51
258.690068
  0
LINE
  5
1234E
100
AcDbEntity
  8
0
100
AcDbLine
 10
2740.452069
 20
2004.137254
 30
0.0
 11
2752.236533
 21
2001.780361
 31
0.0
  0
INSERT
  5
12452
100
AcDbEntity
  8
0
100
AcDbBlockReference
  2
YA
 10
970.12349
 20
1979.780361
 30
0.0
 41
-3.427225
 42
3.427225
 43
3.427225
  0
INSERT
  5
12453
100
AcDbEntity
  8
0
100
AcDbBlockReference
  2
YA
 10
2026.07794
 20
1979.780361
 30
0.0
 41
-3.427225
 42
3.427225
 43
3.427225
  0
INSERT
  5
12454
100
AcDbEntity
  8
0
100
AcDbBlockReference
  2
YA
 10
3080.532391
 20
1979.780361
 30
0.0
 41
-3.427225
 42
3.427225
 43
3.427225
  0
INSERT
  5
12457
100
AcDbEntity
  8
0
100
AcDbBlockReference
  2
YA
 10
2671.940675
 20
955.538404
 30
0.0
 41
3.427225
 42
3.427225
 43
3.427225
  0
INSERT
  5
12458
100
AcDbEntity
  8
0
100
AcDbBlockReference
  2
YA
 10
2671.940675
 20
1348.850141
 30
0.0
 41
3.427225
 42
3.427225
 43
3.427225
  0
INSERT
  5
1245B
100
AcDbEntity
  8
0
100
AcDbBlockReference
  2
YA
 10
1654.486224
 20
955.538404
 30
0.0
 41
3.427225
 42
3.427225
 43
3.427225
  0
INSERT
  5
1245C
100
AcDbEntity
  8
0
100
AcDbBlockReference
  2
YA
 10
1654.486224
 20
1348.850141
 30
0.0
 41
3.427225
 42
3.427225
 43
3.427225
  0
VIEWPORT
  5
41
100
AcDbEntity
 67
     1
  8
0
100
AcDbViewport
 10
117.358407
 20
73.5
 30
0.0
 40
234.716814
 41
147.0
 68
    -1
 69
     1
1001
ACAD
1000
MVIEW
1002
{
1070
    16
1010
0.0
1020
0.0
1030
0.0
1010
0.0
1020
0.0
1030
1.0
1040
0.0
1040
147.0
1040
117.358407
1040
73.5
1040
50.0
1040
0.0
1040
0.0
1070
     0
1070
   100
1070
     1
1070
     1
1070
     0
1070
     0
1070
     0
1070
     0
1040
0.0
1040
0.0
1040
0.0
1040
1.0
1040
1.0
1040
0.0
1040
0.0
1070
     0
1002
{
1002
}
1002
}
  0
ENDSEC
  0
SECTION
  2
OBJECTS
  0
DICTIONARY
  5
C
100
AcDbDictionary
  3
ACAD_GROUP
350
D
  3
ACAD_MLINESTYLE
350
E
  0
DICTIONARY
  5
D
102
{ACAD_REACTORS
330
C
102
}
100
AcDbDictionary
  0
DICTIONARY
  5
E
102
{ACAD_REACTORS
330
C
102
}
100
AcDbDictionary
  3
STANDARD
350
1B
  0
MLINESTYLE
  5
1B
102
{ACAD_REACTORS
330
E
102
}
100
AcDbMlineStyle
  2
STANDARD
 70
     0
  3

 62
     0
 51
90.0
 52
90.0
 71
     2
 49
0.5
 62
   256
  6
BYLAYER
 49
-0.5
 62
   256
  6
BYLAYER
  0
ENDSEC
  0
EOF
