  0
SECTION
  2
HEADER
  9
$ACADVER
  1
AC1012
  9
$DWGCODEPAGE
  3
dos932
  9
$INSBASE
 10
0.0
 20
0.0
 30
0.0
  9
$EXTMIN
 10
88.0
 20
40.0
 30
0.0
  9
$EXTMAX
 10
2288.0
 20
1528.0
 30
0.0
  9
$LIMMIN
 10
0.0
 20
0.0
  9
$LIMMAX
 10
2376.0
 20
1680.0
  9
$ORTHOMODE
 70
     1
  9
$REGENMODE
 70
     1
  9
$FILLMODE
 70
     1
  9
$QTEXTMODE
 70
     0
  9
$MIRRTEXT
 70
     1
  9
$DRAGMODE
 70
     2
  9
$LTSCALE
 40
32.0
  9
$OSMODE
 70
   163
  9
$ATTMODE
 70
     1
  9
$TEXTSIZE
 40
32.0
  9
$TRACEWID
 40
0.05
  9
$TEXTSTYLE
  7
STANDARD
  9
$CLAYER
  8
0
  9
$CELTYPE
  6
BYLAYER
  9
$CECOLOR
 62
   256
  9
$CELTSCALE
 40
1.0
  9
$DELOBJ
 70
     1
  9
$DISPSILH
 70
     0
  9
$DIMSCALE
 40
8.0
  9
$DIMASZ
 40
2.8
  9
$DIMEXO
 40
1.0
  9
$DIMDLI
 40
5.0
  9
$DIMRND
 40
0.1
  9
$DIMDLE
 40
0.0
  9
$DIMEXE
 40
1.0
  9
$DIMTP
 40
0.0
  9
$DIMTM
 40
0.0
  9
$DIMTXT
 40
2.5
  9
$DIMCEN
 40
0.0
  9
$DIMTSZ
 40
0.0
  9
$DIMTOL
 70
     0
  9
$DIMLIM
 70
     0
  9
$DIMTIH
 70
     0
  9
$DIMTOH
 70
     0
  9
$DIMSE1
 70
     0
  9
$DIMSE2
 70
     0
  9
$DIMTAD
 70
     3
  9
$DIMZIN
 70
     8
  9
$DIMBLK
  1

  9
$DIMASO
 70
     1
  9
$DIMSHO
 70
     1
  9
$DIMPOST
  1
 
  9
$DIMAPOST
  1

  9
$DIMALT
 70
     0
  9
$DIMALTD
 70
     2
  9
$DIMALTF
 40
1.0
  9
$DIMLFAC
 40
1.0
  9
$DIMTOFL
 70
     1
  9
$DIMTVP
 40
0.0
  9
$DIMTIX
 70
     0
  9
$DIMSOXD
 70
     0
  9
$DIMSAH
 70
     1
  9
$DIMBLK1
  1
_OPEN
  9
$DIMBLK2
  1
_OPEN
  9
$DIMSTYLE
  2
DIM1
  9
$DIMCLRD
 70
     2
  9
$DIMCLRE
 70
     2
  9
$DIMCLRT
 70
     2
  9
$DIMTFAC
 40
0.7
  9
$DIMGAP
 40
0.85
  9
$DIMJUST
 70
     0
  9
$DIMSD1
 70
     0
  9
$DIMSD2
 70
     0
  9
$DIMTOLJ
 70
     1
  9
$DIMTZIN
 70
     8
  9
$DIMALTZ
 70
     8
  9
$DIMALTTZ
 70
     8
  9
$DIMFIT
 70
     3
  9
$DIMUPT
 70
     0
  9
$DIMUNIT
 70
     2
  9
$DIMDEC
 70
     2
  9
$DIMTDEC
 70
     3
  9
$DIMALTU
 70
     2
  9
$DIMALTTD
 70
     3
  9
$DIMTXSTY
  7
DIM
  9
$DIMAUNIT
 70
     0
  9
$LUNITS
 70
     2
  9
$LUPREC
 70
     4
  9
$SKETCHINC
 40
0.1
  9
$FILLETRAD
 40
4.0
  9
$AUNITS
 70
     0
  9
$AUPREC
 70
     0
  9
$MENU
  1
C:\ACADR13\WIN\SUPPORT\ACAD.mnc
  9
$ELEVATION
 40
0.0
  9
$PELEVATION
 40
0.0
  9
$THICKNESS
 40
0.0
  9
$LIMCHECK
 70
     0
  9
$BLIPMODE
 70
     1
  9
$CHAMFERA
 40
0.0
  9
$CHAMFERB
 40
0.0
  9
$CHAMFERC
 40
0.0
  9
$CHAMFERD
 40
0.0
  9
$SKPOLY
 70
     0
  9
$TDCREATE
 40
2451564.492637881
  9
$TDUPDATE
 40
2451981.563385046
  9
$TDINDWG
 40
0.2819406713
  9
$TDUSRTIMER
 40
0.2819406713
  9
$USRTIMER
 70
     1
  9
$ANGBASE
 50
0.0
  9
$ANGDIR
 70
     0
  9
$PDMODE
 70
     0
  9
$PDSIZE
 40
0.0
  9
$PLINEWID
 40
0.0
  9
$COORDS
 70
     1
  9
$SPLFRAME
 70
     0
  9
$SPLINETYPE
 70
     6
  9
$SPLINESEGS
 70
     8
  9
$ATTDIA
 70
     0
  9
$ATTREQ
 70
     1
  9
$HANDLING
 70
     1
  9
$HANDSEED
  5
E646
  9
$SURFTAB1
 70
     6
  9
$SURFTAB2
 70
     6
  9
$SURFTYPE
 70
     6
  9
$SURFU
 70
     6
  9
$SURFV
 70
     6
  9
$UCSNAME
  2

  9
$UCSORG
 10
0.0
 20
0.0
 30
0.0
  9
$UCSXDIR
 10
1.0
 20
0.0
 30
0.0
  9
$UCSYDIR
 10
0.0
 20
1.0
 30
0.0
  9
$PUCSNAME
  2

  9
$PUCSORG
 10
0.0
 20
0.0
 30
0.0
  9
$PUCSXDIR
 10
1.0
 20
0.0
 30
0.0
  9
$PUCSYDIR
 10
0.0
 20
1.0
 30
0.0
  9
$USERI1
 70
     0
  9
$USERI2
 70
     0
  9
$USERI3
 70
     0
  9
$USERI4
 70
     0
  9
$USERI5
 70
     0
  9
$USERR1
 40
0.0
  9
$USERR2
 40
0.0
  9
$USERR3
 40
0.0
  9
$USERR4
 40
0.0
  9
$USERR5
 40
0.0
  9
$WORLDVIEW
 70
     1
  9
$SHADEDGE
 70
     3
  9
$SHADEDIF
 70
    70
  9
$TILEMODE
 70
     1
  9
$MAXACTVP
 70
    16
  9
$PINSBASE
 10
0.0
 20
0.0
 30
0.0
  9
$PLIMCHECK
 70
     0
  9
$PEXTMIN
 10
1.000000E+20
 20
1.000000E+20
 30
1.000000E+20
  9
$PEXTMAX
 10
-1.000000E+20
 20
-1.000000E+20
 30
-1.000000E+20
  9
$PLIMMIN
 10
0.0
 20
0.0
  9
$PLIMMAX
 10
20.0
 20
147.0
  9
$UNITMODE
 70
     0
  9
$VISRETAIN
 70
     0
  9
$PLINEGEN
 70
     0
  9
$PSLTSCALE
 70
     1
  9
$TREEDEPTH
 70
  3020
  9
$PICKSTYLE
 70
     1
  9
$CMLSTYLE
  2
STANDARD
  9
$CMLJUST
 70
     0
  9
$CMLSCALE
 40
1.0
  9
$SAVEIMAGES
 70
     1
  0
ENDSEC
  0
SECTION
  2
CLASSES
  0
CLASS
  1
LWPOLYLINE
  2
AcDbPolyline
  3
"AutoCAD"
 90
    32768
280
     0
281
     1
  0
ENDSEC
  0
SECTION
  2
TABLES
  0
TABLE
  2
VPORT
  5
8
100
AcDbSymbolTable
 70
     2
  0
VPORT
  5
E645
100
AcDbSymbolTableRecord
100
AcDbViewportTableRecord
  2
*ACTIVE
 70
     0
 10
0.0
 20
0.0
 11
1.0
 21
1.0
 12
1534.798061
 22
871.023262
 13
0.0
 23
0.0
 14
1.0
 24
1.0
 15
0.0
 25
0.0
 16
0.0
 26
0.0
 36
1.0
 17
0.0
 27
0.0
 37
0.0
 40
1742.046525
 41
1.762063
 42
50.0
 43
0.0
 44
0.0
 50
0.0
 51
0.0
 71
     0
 72
   100
 73
     1
 74
     1
 75
     0
 76
     0
 77
     0
 78
     0
  0
ENDTAB
  0
TABLE
  2
LTYPE
  5
5
100
AcDbSymbolTable
 70
     1
  0
LTYPE
  5
12
100
AcDbSymbolTableRecord
100
AcDbLinetypeTableRecord
  2
BYBLOCK
 70
     0
  3

 72
    65
 73
     0
 40
0.0
  0
LTYPE
  5
13
100
AcDbSymbolTableRecord
100
AcDbLinetypeTableRecord
  2
BYLAYER
 70
     0
  3

 72
    65
 73
     0
 40
0.0
  0
LTYPE
  5
14
100
AcDbSymbolTableRecord
100
AcDbLinetypeTableRecord
  2
CONTINUOUS
 70
     0
  3
Solid line
 72
    65
 73
     0
 40
0.0
  0
ENDTAB
  0
TABLE
  2
LAYER
  5
2
100
AcDbSymbolTable
 70
     1
  0
LAYER
  5
F
100
AcDbSymbolTableRecord
100
AcDbLayerTableRecord
  2
0
 70
     0
 62
     7
  6
CONTINUOUS
  0
ENDTAB
  0
TABLE
  2
STYLE
  5
3
100
AcDbSymbolTable
 70
     3
  0
STYLE
  5
10
100
AcDbSymbolTableRecord
100
AcDbTextStyleTableRecord
  2
STANDARD
 70
     0
 40
0.0
 41
0.8
 50
0.0
 71
     0
 42
32.0
  3
simplex
  4
extfont
  0
STYLE
  5
237C
100
AcDbSymbolTableRecord
100
AcDbTextStyleTableRecord
  2
PTSH
 70
     0
 40
0.0
 41
0.9
 50
0.0
 71
     0
 42
4.0
  3
SIMPLEX
  4
EXTFONT
  0
STYLE
  5
2592
100
AcDbSymbolTableRecord
100
AcDbTextStyleTableRecord
  2
DIM
 70
     0
 40
0.0
 41
0.8
 50
0.0
 71
     0
 42
4.0
  3
simplex
  4
extfont
  0
ENDTAB
  0
TABLE
  2
VIEW
  5
6
100
AcDbSymbolTable
 70
     0
  0
ENDTAB
  0
TABLE
  2
UCS
  5
7
100
AcDbSymbolTable
 70
     0
  0
ENDTAB
  0
TABLE
  2
APPID
  5
9
100
AcDbSymbolTable
 70
     1
  0
APPID
  5
11
100
AcDbSymbolTableRecord
100
AcDbRegAppTableRecord
  2
ACAD
 70
     0
  0
ENDTAB
  0
TABLE
  2
DIMSTYLE
  5
A
100
AcDbSymbolTable
 70
     1
  0
DIMSTYLE
105
2237
100
AcDbSymbolTableRecord
100
AcDbDimStyleTableRecord
  2
DIM1
 70
     0
  3
 
  4

  5

  6
_OPEN
  7
_OPEN
 40
8.0
 41
2.8
 42
1.0
 43
5.0
 44
1.0
 45
0.1
 46
0.0
 47
0.0
 48
0.0
140
2.5
141
0.0
142
0.0
143
1.0
144
1.0
145
0.0
146
0.7
147
0.85
 71
     0
 72
     0
 73
     0
 74
     0
 75
     0
 76
     0
 77
     3
 78
     8
170
     0
171
     2
172
     1
173
     1
174
     0
175
     0
176
     2
177
     2
178
     2
270
     2
271
     2
272
     3
273
     2
274
     3
340
2592
275
     0
280
     0
281
     0
282
     0
283
     1
284
     8
285
     8
286
     8
287
     3
288
     0
  0
ENDTAB
  0
TABLE
  2
BLOCK_RECORD
  5
1
100
AcDbSymbolTable
 70
     2
  0
BLOCK_RECORD
  5
18
100
AcDbSymbolTableRecord
100
AcDbBlockTableRecord
  2
*MODEL_SPACE
  0
BLOCK_RECORD
  5
15
100
AcDbSymbolTableRecord
100
AcDbBlockTableRecord
  2
*PAPER_SPACE
  0
BLOCK_RECORD
  5
2448
100
AcDbSymbolTableRecord
100
AcDbBlockTableRecord
  2
_OPEN
  0
BLOCK_RECORD
  5
9259
100
AcDbSymbolTableRecord
100
AcDbBlockTableRecord
  2
YA
  0
ENDTAB
  0
ENDSEC
  0
SECTION
  2
BLOCKS
  0
BLOCK
  5
3C
100
AcDbEntity
  8
0
100
AcDbBlockBegin
  2
*MODEL_SPACE
 70
     0
 10
0.0
 20
0.0
 30
0.0
  3
*MODEL_SPACE
  1

  0
ENDBLK
  5
3D
100
AcDbEntity
  8
0
100
AcDbBlockEnd
  0
BLOCK
  5
3A
100
AcDbEntity
 67
     1
  8
0
100
AcDbBlockBegin
  2
*PAPER_SPACE
 70
     0
 10
0.0
 20
0.0
 30
0.0
  3
*PAPER_SPACE
  1

  0
ENDBLK
  5
3B
100
AcDbEntity
 67
     1
  8
0
100
AcDbBlockEnd
  0
BLOCK
  5
2449
100
AcDbEntity
  8
0
 48
4.0
100
AcDbBlockBegin
  2
_OPEN
 70
     0
 10
0.0
 20
0.0
 30
0.0
  3
_OPEN
  1
H1111.DWG
  0
LINE
  5
244A
100
AcDbEntity
  8
0
  6
BYBLOCK
 62
     0
 48
4.0
100
AcDbLine
 10
-1.0
 20
0.166667
 30
0.0
 11
0.0
 21
0.0
 31
0.0
  0
LINE
  5
244B
100
AcDbEntity
  8
0
  6
BYBLOCK
 62
     0
 48
4.0
100
AcDbLine
 10
0.0
 20
0.0
 30
0.0
 11
-1.0
 21
-0.166667
 31
0.0
  0
LINE
  5
244C
100
AcDbEntity
  8
0
  6
BYBLOCK
 62
     0
 48
4.0
100
AcDbLine
 10
0.0
 20
0.0
 30
0.0
 11
-1.0
 21
0.0
 31
0.0
  0
ENDBLK
  5
244D
100
AcDbEntity
  8
0
 48
4.0
100
AcDbBlockEnd
  0
BLOCK
  5
9261
100
AcDbEntity
  8
0
100
AcDbBlockBegin
  2
YA
 70
     0
 10
0.0
 20
0.0
 30
0.0
  3
YA
  1

  0
LINE
  5
925A
100
AcDbEntity
  8
0
100
AcDbLine
 10
-16.8065
 20
2.801
 30
0.0
 11
-8.4035
 21
2.801
 31
0.0
  0
LINE
  5
925B
100
AcDbEntity
  8
0
100
AcDbLine
 10
-8.4035
 20
2.801
 30
0.0
 11
-7.0025
 21
1.4005
 31
0.0
  0
LINE
  5
925C
100
AcDbEntity
  8
0
100
AcDbLine
 10
-7.0025
 20
1.4005
 30
0.0
 11
-2.862
 21
1.4005
 31
0.0
  0
LINE
  5
925D
100
AcDbEntity
  8
0
100
AcDbLine
 10
-2.862
 20
1.4005
 30
0.0
 11
-2.862
 21
2.801
 31
0.0
  0
LINE
  5
925E
100
AcDbEntity
  8
0
100
AcDbLine
 10
-2.862
 20
2.801
 30
0.0
 11
0.0
 21
0.0
 31
0.0
  0
LINE
  5
925F
100
AcDbEntity
  8
0
100
AcDbLine
 10
0.0
 20
0.0
 30
0.0
 11
-14.0055
 21
0.0
 31
0.0
  0
LINE
  5
9260
100
AcDbEntity
  8
0
100
AcDbLine
 10
-14.0055
 20
0.0
 30
0.0
 11
-16.8065
 21
2.801
 31
0.0
  0
ENDBLK
  5
9262
100
AcDbEntity
  8
0
100
AcDbBlockEnd
  0
ENDSEC
  0
SECTION
  2
ENTITIES
  0
MTEXT
  5
ADA
100
AcDbEntity
  8
0
100
AcDbMText
 10
3041.114238
 20
398.770489
 30
0.0
 40
1.6
 41
377.811719
 71
     1
 72
     1
  1

  0
MTEXT
  5
ADB
100
AcDbEntity
  8
0
100
AcDbMText
 10
3112.399465
 20
462.80635
 30
0.0
 40
1.6
 41
363.554673
 71
     1
 72
     1
  1

  0
MTEXT
  5
ADC
100
AcDbEntity
  8
0
100
AcDbMText
 10
3069.628329
 20
-383.889971
 30
0.0
 40
1.6
 41
413.454332
 71
     1
 72
     1
  1

  0
TEXT
  5
2529
100
AcDbEntity
  8
0
  6
CONTINUOUS
100
AcDbText
 10
2100.914286
 20
56.0
 30
0.0
 40
24.0
  1
DC3AL,SL
 41
0.9
  7
PTSH
 72
     2
 11
2248.0
 21
68.0
 31
0.0
100
AcDbText
 73
     2
  0
POLYLINE
  5
2563
100
AcDbEntity
  8
0
100
AcDb2dPolyline
 66
     1
 10
0.0
 20
0.0
 30
0.0
 70
     1
  0
VERTEX
  5
E640
100
AcDbEntity
  8
0
100
AcDbVertex
100
AcDb2dVertex
 10
88.0
 20
40.0
 30
0.0
  0
VERTEX
  5
E641
100
AcDbEntity
  8
0
100
AcDbVertex
100
AcDb2dVertex
 10
2288.0
 20
40.0
 30
0.0
  0
VERTEX
  5
E642
100
AcDbEntity
  8
0
100
AcDbVertex
100
AcDb2dVertex
 10
2288.0
 20
1528.0
 30
0.0
  0
VERTEX
  5
E643
100
AcDbEntity
  8
0
100
AcDbVertex
100
AcDb2dVertex
 10
88.0
 20
1528.0
 30
0.0
  0
SEQEND
  5
E644
100
AcDbEntity
  8
0
  0
TEXT
  5
2FCF
100
AcDbEntity
  8
0
100
AcDbText
 10
379.732344
 20
146.0
 30
0.0
 40
28.0
  1
TLV  DC3A-L,DC3S-L,DC3-L (PT)
 72
     1
 11
732.932344
 21
160.0
 31
0.0
100
AcDbText
 73
     2
  0
TEXT
  5
D749
100
AcDbEntity
  8
0
100
AcDbText
 10
173.392955
 20
610.144623
 30
0.0
 40
28.0
  1
正面
100
AcDbText
  0
TEXT
  5
D74A
100
AcDbEntity
  8
0
100
AcDbText
 10
173.392955
 20
872.753253
 30
0.0
 40
28.0
  1
平面
100
AcDbText
  0
TEXT
  5
D74B
100
AcDbEntity
  8
0
100
AcDbText
 10
173.392955
 20
1340.066081
 30
0.0
 40
28.0
  1
背面
100
AcDbText
  0
ARC
  5
D74C
100
AcDbEntity
  8
0
100
AcDbCircle
 10
699.932344
 20
1331.066081
 30
0.0
 40
46.0
100
AcDbArc
 50
90.0
 51
128.213211
  0
ARC
  5
D74D
100
AcDbEntity
  8
0
100
AcDbCircle
 10
732.932344
 20
1311.066081
 30
0.0
 40
66.0
100
AcDbArc
 50
71.873796
 51
90.0
  0
ARC
  5
D752
100
AcDbEntity
  8
0
100
AcDbCircle
 10
732.932344
 20
872.753253
 30
0.0
 40
35.055457
100
AcDbArc
 50
188.200128
 51
285.0
  0
LINE
  5
D753
100
AcDbEntity
  8
0
100
AcDbLine
 10
1099.968688
 20
401.144623
 30
0.0
 11
943.968688
 21
401.144623
 31
0.0
  0
LINE
  5
D754
100
AcDbEntity
  8
0
100
AcDbLine
 10
1043.468688
 20
359.144623
 30
0.0
 11
1000.468688
 21
359.144623
 31
0.0
  0
LINE
  5
D755
100
AcDbEntity
  8
0
100
AcDbLine
 10
943.968688
 20
418.144623
 30
0.0
 11
1099.968688
 21
418.144623
 31
0.0
  0
LINE
  5
D756
100
AcDbEntity
  8
0
100
AcDbLine
 10
1007.913231
 20
647.144623
 30
0.0
 11
1036.024145
 21
647.144623
 31
0.0
  0
LINE
  5
D757
100
AcDbEntity
  8
0
100
AcDbLine
 10
943.968688
 20
499.644623
 30
0.0
 11
1099.968688
 21
499.644623
 31
0.0
  0
LINE
  5
D758
100
AcDbEntity
  8
0
100
AcDbLine
 10
943.968688
 20
435.144623
 30
0.0
 11
1099.968688
 21
435.144623
 31
0.0
  0
CIRCLE
  5
D759
100
AcDbEntity
  8
0
100
AcDbCircle
 10
1021.968688
 20
610.144623
 30
0.0
 40
25.0
  0
LINE
  5
D75B
100
AcDbEntity
  8
0
100
AcDbLine
 10
975.968688
 20
547.644623
 30
0.0
 11
1067.968688
 21
547.644623
 31
0.0
  0
LINE
  5
D75C
100
AcDbEntity
  8
0
100
AcDbLine
 10
943.968688
 20
516.144623
 30
0.0
 11
1099.968688
 21
516.144623
 31
0.0
  0
LINE
  5
D75D
100
AcDbEntity
  8
0
100
AcDbLine
 10
1099.968688
 20
532.644623
 30
0.0
 11
943.968688
 21
532.644623
 31
0.0
  0
LINE
  5
D75E
100
AcDbEntity
  8
0
100
AcDbLine
 10
639.432344
 20
847.753253
 30
0.0
 11
694.916462
 21
847.753253
 31
0.0
  0
LINE
  5
D75F
100
AcDbEntity
  8
0
100
AcDbLine
 10
826.432344
 20
847.753253
 30
0.0
 11
775.074959
 21
847.753253
 31
0.0
  0
LINE
  5
D760
100
AcDbEntity
  8
0
100
AcDbLine
 10
826.432344
 20
585.144623
 30
0.0
 11
809.932344
 21
585.144623
 31
0.0
  0
LINE
  5
D761
100
AcDbEntity
  8
0
100
AcDbLine
 10
800.57336
 20
635.144623
 30
0.0
 11
826.432344
 21
635.144623
 31
0.0
  0
LINE
  5
D762
100
AcDbEntity
  8
0
100
AcDbLine
 10
827.932344
 20
633.644623
 30
0.0
 11
827.932344
 21
610.144623
 31
0.0
  0
LINE
  5
D765
100
AcDbEntity
  8
0
100
AcDbLine
 10
827.932344
 20
610.144623
 30
0.0
 11
827.932344
 21
586.644623
 31
0.0
  0
LINE
  5
D768
100
AcDbEntity
  8
0
100
AcDbLine
 10
639.432344
 20
585.144623
 30
0.0
 11
668.932344
 21
585.144623
 31
0.0
  0
LINE
  5
D769
100
AcDbEntity
  8
0
100
AcDbLine
 10
637.932344
 20
610.144623
 30
0.0
 11
637.932344
 21
586.644623
 31
0.0
  0
LINE
  5
D76C
100
AcDbEntity
  8
0
100
AcDbLine
 10
637.932344
 20
633.644623
 30
0.0
 11
637.932344
 21
610.144623
 31
0.0
  0
LINE
  5
D76D
100
AcDbEntity
  8
0
100
AcDbLine
 10
639.432344
 20
635.144623
 30
0.0
 11
663.932344
 21
635.144623
 31
0.0
  0
LINE
  5
D76E
100
AcDbEntity
  8
0
100
AcDbLine
 10
827.932344
 20
621.744623
 30
0.0
 11
827.932344
 21
610.144623
 31
0.0
  0
LINE
  5
D76F
100
AcDbEntity
  8
0
100
AcDbLine
 10
827.932344
 20
610.144623
 30
0.0
 11
827.932344
 21
598.544623
 31
0.0
  0
LINE
  5
D770
100
AcDbEntity
  8
0
100
AcDbLine
 10
794.432344
 20
360.144623
 30
0.0
 11
794.432344
 21
394.143623
 31
0.0
  0
LINE
  5
D771
100
AcDbEntity
  8
0
100
AcDbLine
 10
779.408995
 20
395.047623
 30
0.0
 11
780.973995
 21
394.143623
 31
0.0
  0
LINE
  5
D772
100
AcDbEntity
  8
0
100
AcDbLine
 10
429.894826
 20
360.144623
 30
0.0
 11
429.894826
 21
389.695592
 31
0.0
  0
LINE
  5
D773
100
AcDbEntity
  8
0
100
AcDbLine
 10
384.894826
 20
360.144623
 30
0.0
 11
384.894826
 21
389.695592
 31
0.0
  0
LINE
  5
D774
100
AcDbEntity
  8
0
100
AcDbLine
 10
426.394826
 20
381.144623
 30
0.0
 11
426.394826
 21
389.144623
 31
0.0
  0
LINE
  5
D775
100
AcDbEntity
  8
0
100
AcDbLine
 10
388.394826
 20
381.144623
 30
0.0
 11
388.394826
 21
389.144623
 31
0.0
  0
LINE
  5
D776
100
AcDbEntity
  8
0
100
AcDbLine
 10
424.394826
 20
379.144623
 30
0.0
 11
390.394826
 21
379.144623
 31
0.0
  0
ARC
  5
D777
100
AcDbEntity
  8
0
100
AcDbCircle
 10
424.394826
 20
381.144623
 30
0.0
 40
2.0
100
AcDbArc
 50
270.0
 51
0.0
  0
LINE
  5
D778
100
AcDbEntity
  8
0
100
AcDbLine
 10
428.894826
 20
359.144623
 30
0.0
 11
385.894826
 21
359.144623
 31
0.0
  0
LINE
  5
D779
100
AcDbEntity
  8
0
100
AcDbLine
 10
384.894826
 20
360.144623
 30
0.0
 11
385.894826
 21
359.144623
 31
0.0
  0
LINE
  5
D77A
100
AcDbEntity
  8
0
100
AcDbLine
 10
428.894826
 20
359.144623
 30
0.0
 11
429.894826
 21
360.144623
 31
0.0
  0
ARC
  5
D77B
100
AcDbEntity
  8
0
100
AcDbCircle
 10
426.621323
 20
399.144623
 30
0.0
 40
10.0
100
AcDbArc
 50
270.0
 51
330.0
  0
LINE
  5
D77C
100
AcDbEntity
  8
0
100
AcDbLine
 10
388.168328
 20
389.144623
 30
0.0
 11
426.621323
 21
389.144623
 31
0.0
  0
ARC
  5
D77D
100
AcDbEntity
  8
0
100
AcDbCircle
 10
388.168328
 20
399.144623
 30
0.0
 40
10.0
100
AcDbArc
 50
210.0
 51
270.0
  0
ARC
  5
D77E
100
AcDbEntity
  8
0
100
AcDbCircle
 10
390.394826
 20
381.144623
 30
0.0
 40
2.0
100
AcDbArc
 50
180.0
 51
270.0
  0
LINE
  5
D780
100
AcDbEntity
  8
0
100
AcDbLine
 10
999.468688
 20
360.144623
 30
0.0
 11
999.468688
 21
397.144623
 31
0.0
  0
LINE
  5
D781
100
AcDbEntity
  8
0
100
AcDbLine
 10
999.468688
 20
360.144623
 30
0.0
 11
1000.468688
 21
359.144623
 31
0.0
  0
LINE
  5
D782
100
AcDbEntity
  8
0
100
AcDbLine
 10
749.432344
 20
360.144623
 30
0.0
 11
749.432344
 21
389.144623
 31
0.0
  0
LINE
  5
D783
100
AcDbEntity
  8
0
100
AcDbLine
 10
713.705846
 20
389.144623
 30
0.0
 11
752.158841
 21
389.144623
 31
0.0
  0
ARC
  5
D784
100
AcDbEntity
  8
0
100
AcDbCircle
 10
752.158841
 20
399.144623
 30
0.0
 40
10.0
100
AcDbArc
 50
270.0
 51
330.0
  0
LINE
  5
D785
100
AcDbEntity
  8
0
100
AcDbLine
 10
760.819095
 20
394.144623
 30
0.0
 11
763.128496
 21
398.144623
 31
0.0
  0
ARC
  5
D786
100
AcDbEntity
  8
0
100
AcDbCircle
 10
768.324649
 20
395.144623
 30
0.0
 40
6.0
100
AcDbArc
 50
90.0
 51
150.0
  0
LINE
  5
D787
100
AcDbEntity
  8
0
100
AcDbLine
 10
707.932344
 20
381.144623
 30
0.0
 11
707.932344
 21
390.979657
 31
0.0
  0
LINE
  5
D788
100
AcDbEntity
  8
0
100
AcDbLine
 10
810.932344
 20
401.144623
 30
0.0
 11
654.932344
 21
401.144623
 31
0.0
  0
LINE
  5
D789
100
AcDbEntity
  8
0
100
AcDbLine
 10
810.932344
 20
401.144623
 30
0.0
 11
810.932344
 21
435.144623
 31
0.0
  0
LINE
  5
D78A
100
AcDbEntity
  8
0
100
AcDbLine
 10
747.432344
 20
379.144623
 30
0.0
 11
709.932344
 21
379.144623
 31
0.0
  0
ARC
  5
D78B
100
AcDbEntity
  8
0
100
AcDbCircle
 10
697.540039
 20
395.144623
 30
0.0
 40
6.0
100
AcDbArc
 50
30.0
 51
90.0
  0
LINE
  5
D78C
100
AcDbEntity
  8
0
100
AcDbLine
 10
705.045592
 20
394.144623
 30
0.0
 11
702.736191
 21
398.144623
 31
0.0
  0
ARC
  5
D78D
100
AcDbEntity
  8
0
100
AcDbCircle
 10
713.705846
 20
399.144623
 30
0.0
 40
10.0
100
AcDbArc
 50
210.0
 51
270.0
  0
ARC
  5
D78E
100
AcDbEntity
  8
0
100
AcDbCircle
 10
709.932344
 20
381.144623
 30
0.0
 40
2.0
100
AcDbArc
 50
180.0
 51
270.0
  0
ARC
  5
D78F
100
AcDbEntity
  8
0
100
AcDbCircle
 10
417.394826
 20
638.428894
 30
0.0
 40
5.0
100
AcDbArc
 50
180.0
 51
250.528779
  0
LINE
  5
D790
100
AcDbEntity
  8
0
100
AcDbLine
 10
412.394826
 20
638.428894
 30
0.0
 11
412.394826
 21
647.144623
 31
0.0
  0
ARC
  5
D791
100
AcDbEntity
  8
0
100
AcDbCircle
 10
397.394826
 20
638.428894
 30
0.0
 40
5.0
100
AcDbArc
 50
289.471221
 51
0.0
  0
LINE
  5
D792
100
AcDbEntity
  8
0
100
AcDbLine
 10
402.394826
 20
638.428894
 30
0.0
 11
402.394826
 21
647.144623
 31
0.0
  0
LINE
  5
D793
100
AcDbEntity
  8
0
100
AcDbLine
 10
421.450283
 20
647.144623
 30
0.0
 11
393.339369
 21
647.144623
 31
0.0
  0
LINE
  5
D794
100
AcDbEntity
  8
0
100
AcDbLine
 10
485.394826
 20
499.644623
 30
0.0
 11
329.394826
 21
499.644623
 31
0.0
  0
LINE
  5
D795
100
AcDbEntity
  8
0
100
AcDbLine
 10
485.394826
 20
435.144623
 30
0.0
 11
329.394826
 21
435.144623
 31
0.0
  0
CIRCLE
  5
D796
100
AcDbEntity
  8
0
100
AcDbCircle
 10
407.394826
 20
610.144623
 30
0.0
 40
25.0
  0
LINE
  5
D797
100
AcDbEntity
  8
0
100
AcDbLine
 10
453.394826
 20
547.644623
 30
0.0
 11
361.394826
 21
547.644623
 31
0.0
  0
LINE
  5
D798
100
AcDbEntity
  8
0
100
AcDbLine
 10
485.394826
 20
516.144623
 30
0.0
 11
329.394826
 21
516.144623
 31
0.0
  0
LINE
  5
D799
100
AcDbEntity
  8
0
100
AcDbLine
 10
329.394826
 20
532.644623
 30
0.0
 11
485.394826
 21
532.644623
 31
0.0
  0
LINE
  5
D79A
100
AcDbEntity
  8
0
100
AcDbLine
 10
485.394826
 20
418.144623
 30
0.0
 11
329.394826
 21
418.144623
 31
0.0
  0
LINE
  5
D79B
100
AcDbEntity
  8
0
100
AcDbLine
 10
329.394826
 20
401.144623
 30
0.0
 11
485.394826
 21
401.144623
 31
0.0
  0
ARC
  5
D79C
100
AcDbEntity
  8
0
100
AcDbCircle
 10
459.753982
 20
493.644623
 30
0.0
 40
6.0
100
AcDbArc
 50
90.0
 51
173.541989
  0
LINE
  5
D79D
100
AcDbEntity
  8
0
100
AcDbLine
 10
452.696926
 20
484.644623
 30
0.0
 11
453.792054
 21
494.319473
 31
0.0
  0
ARC
  5
D79E
100
AcDbEntity
  8
0
100
AcDbCircle
 10
463.994391
 20
441.144623
 30
0.0
 40
6.0
100
AcDbArc
 50
195.0
 51
270.0
  0
LINE
  5
D79F
100
AcDbEntity
  8
0
100
AcDbLine
 10
453.681479
 20
456.450713
 30
0.0
 11
458.198836
 21
439.591708
 31
0.0
  0
LINE
  5
D7A0
100
AcDbEntity
  8
0
100
AcDbLine
 10
456.394826
 20
604.144623
 30
0.0
 11
456.394826
 21
597.144623
 31
0.0
  0
LINE
  5
D7A1
100
AcDbEntity
  8
0
100
AcDbLine
 10
456.394826
 20
547.644623
 30
0.0
 11
456.394826
 21
559.144623
 31
0.0
  0
ARC
  5
D7A2
100
AcDbEntity
  8
0
100
AcDbCircle
 10
480.09571
 20
578.144623
 30
0.0
 40
33.540028
100
AcDbArc
 50
150.483041
 51
209.516959
  0
ARC
  5
D7A3
100
AcDbEntity
  8
0
100
AcDbCircle
 10
454.638873
 20
556.144623
 30
0.0
 40
3.0
100
AcDbArc
 50
90.0
 51
180.0
  0
ARC
  5
D7A4
100
AcDbEntity
  8
0
100
AcDbCircle
 10
454.638873
 20
600.144623
 30
0.0
 40
3.0
100
AcDbArc
 50
180.0
 51
270.0
  0
ARC
  5
D7A5
100
AcDbEntity
  8
0
100
AcDbCircle
 10
463.467939
 20
536.644623
 30
0.0
 40
4.0
100
AcDbArc
 50
194.931417
 51
270.0
  0
ARC
  5
D7A6
100
AcDbEntity
  8
0
100
AcDbCircle
 10
450.450283
 20
625.936543
 30
0.0
 40
8.0
100
AcDbArc
 50
180.0
 51
245.229958
  0
ARC
  5
D7A7
100
AcDbEntity
  8
0
100
AcDbCircle
 10
421.450283
 20
626.144623
 30
0.0
 40
21.0
100
AcDbArc
 50
0.0
 51
90.0
  0
ARC
  5
D7A8
100
AcDbEntity
  8
0
100
AcDbCircle
 10
440.394826
 20
604.144623
 30
0.0
 40
16.0
100
AcDbArc
 50
0.0
 51
65.229958
  0
LINE
  5
D7A9
100
AcDbEntity
  8
0
100
AcDbLine
 10
442.450283
 20
626.144623
 30
0.0
 11
442.450283
 21
625.936543
 31
0.0
  0
LINE
  5
D7AA
100
AcDbEntity
  8
0
100
AcDbLine
 10
454.638873
 20
559.144623
 30
0.0
 11
470.394826
 21
559.144623
 31
0.0
  0
LINE
  5
D7AB
100
AcDbEntity
  8
0
100
AcDbLine
 10
470.394826
 20
597.144623
 30
0.0
 11
470.394826
 21
559.144623
 31
0.0
  0
LINE
  5
D7AC
100
AcDbEntity
  8
0
100
AcDbLine
 10
454.638873
 20
597.144623
 30
0.0
 11
470.394826
 21
597.144623
 31
0.0
  0
LINE
  5
D7AD
100
AcDbEntity
  8
0
100
AcDbLine
 10
434.894826
 20
535.832623
 30
0.0
 11
434.894826
 21
532.644623
 31
0.0
  0
LINE
  5
D7AE
100
AcDbEntity
  8
0
100
AcDbLine
 10
444.894826
 20
532.644623
 30
0.0
 11
444.894826
 21
535.832623
 31
0.0
  0
LINE
  5
D7AF
100
AcDbEntity
  8
0
100
AcDbLine
 10
444.894826
 20
535.832623
 30
0.0
 11
444.082826
 21
536.644623
 31
0.0
  0
LINE
  5
D7B0
100
AcDbEntity
  8
0
100
AcDbLine
 10
444.082826
 20
536.644623
 30
0.0
 11
435.706826
 21
536.644623
 31
0.0
  0
LINE
  5
D7B1
100
AcDbEntity
  8
0
100
AcDbLine
 10
435.706826
 20
536.644623
 30
0.0
 11
434.894826
 21
535.832623
 31
0.0
  0
LINE
  5
D7BC
100
AcDbEntity
  8
0
100
AcDbLine
 10
444.894826
 20
438.332623
 30
0.0
 11
444.082826
 21
439.144623
 31
0.0
  0
LINE
  5
D7BD
100
AcDbEntity
  8
0
100
AcDbLine
 10
444.082826
 20
439.144623
 30
0.0
 11
435.706826
 21
439.144623
 31
0.0
  0
LINE
  5
D7BE
100
AcDbEntity
  8
0
100
AcDbLine
 10
435.706826
 20
439.144623
 30
0.0
 11
434.894826
 21
438.332623
 31
0.0
  0
LINE
  5
D7C9
100
AcDbEntity
  8
0
100
AcDbLine
 10
434.894826
 20
438.332623
 30
0.0
 11
434.894826
 21
435.144623
 31
0.0
  0
LINE
  5
D7CA
100
AcDbEntity
  8
0
100
AcDbLine
 10
444.894826
 20
435.144623
 30
0.0
 11
444.894826
 21
438.332623
 31
0.0
  0
LINE
  5
D7CB
100
AcDbEntity
  8
0
100
AcDbLine
 10
467.394826
 20
535.832623
 30
0.0
 11
467.394826
 21
532.644623
 31
0.0
  0
LINE
  5
D7CC
100
AcDbEntity
  8
0
100
AcDbLine
 10
477.394826
 20
532.644623
 30
0.0
 11
477.394826
 21
535.832623
 31
0.0
  0
LINE
  5
D7CD
100
AcDbEntity
  8
0
100
AcDbLine
 10
477.394826
 20
535.832623
 30
0.0
 11
476.582826
 21
536.644623
 31
0.0
  0
LINE
  5
D7CE
100
AcDbEntity
  8
0
100
AcDbLine
 10
476.582826
 20
536.644623
 30
0.0
 11
468.206826
 21
536.644623
 31
0.0
  0
LINE
  5
D7CF
100
AcDbEntity
  8
0
100
AcDbLine
 10
468.206826
 20
536.644623
 30
0.0
 11
467.394826
 21
535.832623
 31
0.0
  0
LINE
  5
D7D0
100
AcDbEntity
  8
0
100
AcDbLine
 10
456.394826
 20
547.644623
 30
0.0
 11
459.602999
 21
535.613972
 31
0.0
  0
LINE
  5
D7DB
100
AcDbEntity
  8
0
100
AcDbLine
 10
477.394826
 20
438.332623
 30
0.0
 11
476.582826
 21
439.144623
 31
0.0
  0
LINE
  5
D7DC
100
AcDbEntity
  8
0
100
AcDbLine
 10
476.582826
 20
439.144623
 30
0.0
 11
468.206826
 21
439.144623
 31
0.0
  0
LINE
  5
D7DD
100
AcDbEntity
  8
0
100
AcDbLine
 10
468.206826
 20
439.144623
 30
0.0
 11
467.394826
 21
438.332623
 31
0.0
  0
LINE
  5
D7DE
100
AcDbEntity
  8
0
100
AcDbLine
 10
452.696926
 20
484.644623
 30
0.0
 11
453.681479
 21
456.450713
 31
0.0
  0
LINE
  5
D7DF
100
AcDbEntity
  8
0
100
AcDbLine
 10
485.394826
 20
532.644623
 30
0.0
 11
485.394826
 21
499.644623
 31
0.0
  0
LINE
  5
D7EA
100
AcDbEntity
  8
0
100
AcDbLine
 10
485.394826
 20
401.144623
 30
0.0
 11
485.394826
 21
435.144623
 31
0.0
  0
LINE
  5
D7EB
100
AcDbEntity
  8
0
100
AcDbLine
 10
467.394826
 20
438.332623
 30
0.0
 11
467.394826
 21
435.144623
 31
0.0
  0
LINE
  5
D7EC
100
AcDbEntity
  8
0
100
AcDbLine
 10
477.394826
 20
435.144623
 30
0.0
 11
477.394826
 21
438.332623
 31
0.0
  0
ARC
  5
D7ED
100
AcDbEntity
  8
0
100
AcDbCircle
 10
355.03567
 20
493.644623
 30
0.0
 40
6.0
100
AcDbArc
 50
6.458011
 51
90.0
  0
ARC
  5
D7EE
100
AcDbEntity
  8
0
100
AcDbCircle
 10
350.795261
 20
441.144623
 30
0.0
 40
6.0
100
AcDbArc
 50
270.0
 51
345.0
  0
ARC
  5
D7EF
100
AcDbEntity
  8
0
100
AcDbCircle
 10
351.321712
 20
536.644623
 30
0.0
 40
4.0
100
AcDbArc
 50
270.0
 51
345.068583
  0
ARC
  5
D7F0
100
AcDbEntity
  8
0
100
AcDbCircle
 10
374.394826
 20
604.144623
 30
0.0
 40
16.0
100
AcDbArc
 50
114.770042
 51
180.0
  0
ARC
  5
D7F1
100
AcDbEntity
  8
0
100
AcDbCircle
 10
364.339369
 20
625.936543
 30
0.0
 40
8.0
100
AcDbArc
 50
294.770042
 51
0.0
  0
LINE
  5
D7F2
100
AcDbEntity
  8
0
100
AcDbLine
 10
358.394826
 20
604.144623
 30
0.0
 11
358.394826
 21
597.144623
 31
0.0
  0
LINE
  5
D7F3
100
AcDbEntity
  8
0
100
AcDbLine
 10
372.339369
 20
626.144623
 30
0.0
 11
372.339369
 21
625.936543
 31
0.0
  0
ARC
  5
D7F4
100
AcDbEntity
  8
0
100
AcDbCircle
 10
393.339369
 20
626.144623
 30
0.0
 40
21.0
100
AcDbArc
 50
90.0
 51
180.0
  0
LINE
  5
D7F5
100
AcDbEntity
  8
0
100
AcDbLine
 10
358.394826
 20
547.644623
 30
0.0
 11
358.394826
 21
559.144623
 31
0.0
  0
LINE
  5
D7F6
100
AcDbEntity
  8
0
100
AcDbLine
 10
360.150778
 20
597.144623
 30
0.0
 11
344.394826
 21
597.144623
 31
0.0
  0
LINE
  5
D7F7
100
AcDbEntity
  8
0
100
AcDbLine
 10
344.394826
 20
597.144623
 30
0.0
 11
344.394826
 21
559.144623
 31
0.0
  0
LINE
  5
D7F8
100
AcDbEntity
  8
0
100
AcDbLine
 10
360.150778
 20
559.144623
 30
0.0
 11
344.394826
 21
559.144623
 31
0.0
  0
ARC
  5
D7F9
100
AcDbEntity
  8
0
100
AcDbCircle
 10
360.150778
 20
600.144623
 30
0.0
 40
3.0
100
AcDbArc
 50
270.0
 51
0.0
  0
ARC
  5
D7FA
100
AcDbEntity
  8
0
100
AcDbCircle
 10
360.150778
 20
556.144623
 30
0.0
 40
3.0
100
AcDbArc
 50
0.0
 51
90.0
  0
ARC
  5
D7FB
100
AcDbEntity
  8
0
100
AcDbCircle
 10
334.693941
 20
578.144623
 30
0.0
 40
33.540028
100
AcDbArc
 50
330.483041
 51
29.516959
  0
LINE
  5
D7FC
100
AcDbEntity
  8
0
100
AcDbLine
 10
379.082826
 20
439.144623
 30
0.0
 11
379.894826
 21
438.332623
 31
0.0
  0
LINE
  5
D7FD
100
AcDbEntity
  8
0
100
AcDbLine
 10
337.394826
 20
438.332623
 30
0.0
 11
338.206826
 21
439.144623
 31
0.0
  0
LINE
  5
D7FE
100
AcDbEntity
  8
0
100
AcDbLine
 10
338.206826
 20
439.144623
 30
0.0
 11
346.582826
 21
439.144623
 31
0.0
  0
LINE
  5
D7FF
100
AcDbEntity
  8
0
100
AcDbLine
 10
346.582826
 20
439.144623
 30
0.0
 11
347.394826
 21
438.332623
 31
0.0
  0
LINE
  5
D800
100
AcDbEntity
  8
0
100
AcDbLine
 10
369.894826
 20
438.332623
 30
0.0
 11
370.706826
 21
439.144623
 31
0.0
  0
LINE
  5
D801
100
AcDbEntity
  8
0
100
AcDbLine
 10
370.706826
 20
439.144623
 30
0.0
 11
379.082826
 21
439.144623
 31
0.0
  0
LINE
  5
D80B
100
AcDbEntity
  8
0
100
AcDbLine
 10
383.394826
 20
394.143623
 30
0.0
 11
366.394826
 21
394.143623
 31
0.0
  0
LINE
  5
D816
100
AcDbEntity
  8
0
100
AcDbLine
 10
347.394826
 20
438.332623
 30
0.0
 11
347.394826
 21
435.144623
 31
0.0
  0
LINE
  5
D817
100
AcDbEntity
  8
0
100
AcDbLine
 10
337.394826
 20
435.144623
 30
0.0
 11
337.394826
 21
438.332623
 31
0.0
  0
LINE
  5
D818
100
AcDbEntity
  8
0
100
AcDbLine
 10
369.894826
 20
435.144623
 30
0.0
 11
369.894826
 21
438.332623
 31
0.0
  0
LINE
  5
D819
100
AcDbEntity
  8
0
100
AcDbLine
 10
379.894826
 20
438.332623
 30
0.0
 11
379.894826
 21
435.144623
 31
0.0
  0
LINE
  5
D81A
100
AcDbEntity
  8
0
100
AcDbLine
 10
379.082826
 20
536.644623
 30
0.0
 11
379.894826
 21
535.832623
 31
0.0
  0
LINE
  5
D81B
100
AcDbEntity
  8
0
100
AcDbLine
 10
379.894826
 20
535.832623
 30
0.0
 11
379.894826
 21
532.644623
 31
0.0
  0
LINE
  5
D81C
100
AcDbEntity
  8
0
100
AcDbLine
 10
347.394826
 20
535.832623
 30
0.0
 11
347.394826
 21
532.644623
 31
0.0
  0
LINE
  5
D81D
100
AcDbEntity
  8
0
100
AcDbLine
 10
337.394826
 20
532.644623
 30
0.0
 11
337.394826
 21
535.832623
 31
0.0
  0
LINE
  5
D81E
100
AcDbEntity
  8
0
100
AcDbLine
 10
337.394826
 20
535.832623
 30
0.0
 11
338.206826
 21
536.644623
 31
0.0
  0
LINE
  5
D81F
100
AcDbEntity
  8
0
100
AcDbLine
 10
338.206826
 20
536.644623
 30
0.0
 11
346.582826
 21
536.644623
 31
0.0
  0
LINE
  5
D820
100
AcDbEntity
  8
0
100
AcDbLine
 10
346.582826
 20
536.644623
 30
0.0
 11
347.394826
 21
535.832623
 31
0.0
  0
LINE
  5
D821
100
AcDbEntity
  8
0
100
AcDbLine
 10
369.894826
 20
535.832623
 30
0.0
 11
370.706826
 21
536.644623
 31
0.0
  0
LINE
  5
D822
100
AcDbEntity
  8
0
100
AcDbLine
 10
369.894826
 20
532.644623
 30
0.0
 11
369.894826
 21
535.832623
 31
0.0
  0
LINE
  5
D823
100
AcDbEntity
  8
0
100
AcDbLine
 10
370.706826
 20
536.644623
 30
0.0
 11
379.082826
 21
536.644623
 31
0.0
  0
LINE
  5
D838
100
AcDbEntity
  8
0
100
AcDbLine
 10
329.394826
 20
532.644623
 30
0.0
 11
329.394826
 21
499.644623
 31
0.0
  0
LINE
  5
D839
100
AcDbEntity
  8
0
100
AcDbLine
 10
329.394826
 20
401.144623
 30
0.0
 11
329.394826
 21
435.144623
 31
0.0
  0
LINE
  5
D83A
100
AcDbEntity
  8
0
100
AcDbLine
 10
358.394826
 20
547.644623
 30
0.0
 11
355.186652
 21
535.613972
 31
0.0
  0
LINE
  5
D83B
100
AcDbEntity
  8
0
100
AcDbLine
 10
362.092725
 20
484.644623
 30
0.0
 11
360.997597
 21
494.319473
 31
0.0
  0
LINE
  5
D83C
100
AcDbEntity
  8
0
100
AcDbLine
 10
361.108172
 20
456.450713
 30
0.0
 11
356.590816
 21
439.591708
 31
0.0
  0
LINE
  5
D83D
100
AcDbEntity
  8
0
100
AcDbLine
 10
362.092725
 20
484.644623
 30
0.0
 11
361.108172
 21
456.450713
 31
0.0
  0
ARC
  5
D83E
100
AcDbEntity
  8
0
100
AcDbCircle
 10
969.609532
 20
493.644623
 30
0.0
 40
6.0
100
AcDbArc
 50
6.458011
 51
90.0
  0
LINE
  5
D83F
100
AcDbEntity
  8
0
100
AcDbLine
 10
976.666588
 20
484.644623
 30
0.0
 11
975.57146
 21
494.319473
 31
0.0
  0
ARC
  5
D840
100
AcDbEntity
  8
0
100
AcDbCircle
 10
965.369123
 20
441.144623
 30
0.0
 40
6.0
100
AcDbArc
 50
270.0
 51
345.0
  0
LINE
  5
D841
100
AcDbEntity
  8
0
100
AcDbLine
 10
975.682035
 20
456.450713
 30
0.0
 11
971.164678
 21
439.591708
 31
0.0
  0
LINE
  5
D842
100
AcDbEntity
  8
0
100
AcDbLine
 10
972.968688
 20
604.144623
 30
0.0
 11
972.968688
 21
597.144623
 31
0.0
  0
LINE
  5
D843
100
AcDbEntity
  8
0
100
AcDbLine
 10
972.968688
 20
547.644623
 30
0.0
 11
972.968688
 21
559.144623
 31
0.0
  0
ARC
  5
D844
100
AcDbEntity
  8
0
100
AcDbCircle
 10
949.267804
 20
578.144623
 30
0.0
 40
33.540028
100
AcDbArc
 50
330.483041
 51
29.516959
  0
ARC
  5
D845
100
AcDbEntity
  8
0
100
AcDbCircle
 10
974.724641
 20
556.144623
 30
0.0
 40
3.0
100
AcDbArc
 50
0.0
 51
90.0
  0
ARC
  5
D846
100
AcDbEntity
  8
0
100
AcDbCircle
 10
974.724641
 20
600.144623
 30
0.0
 40
3.0
100
AcDbArc
 50
270.0
 51
0.0
  0
ARC
  5
D847
100
AcDbEntity
  8
0
100
AcDbCircle
 10
965.895575
 20
536.644623
 30
0.0
 40
4.0
100
AcDbArc
 50
270.0
 51
345.068583
  0
ARC
  5
D848
100
AcDbEntity
  8
0
100
AcDbCircle
 10
978.913231
 20
625.936543
 30
0.0
 40
8.0
100
AcDbArc
 50
294.770042
 51
0.0
  0
ARC
  5
D849
100
AcDbEntity
  8
0
100
AcDbCircle
 10
1007.913231
 20
626.144623
 30
0.0
 40
21.0
100
AcDbArc
 50
90.0
 51
180.0
  0
ARC
  5
D84A
100
AcDbEntity
  8
0
100
AcDbCircle
 10
988.968688
 20
604.144623
 30
0.0
 40
16.0
100
AcDbArc
 50
114.770042
 51
180.0
  0
LINE
  5
D84B
100
AcDbEntity
  8
0
100
AcDbLine
 10
986.913231
 20
626.144623
 30
0.0
 11
986.913231
 21
625.936543
 31
0.0
  0
LINE
  5
D84C
100
AcDbEntity
  8
0
100
AcDbLine
 10
974.724641
 20
559.144623
 30
0.0
 11
958.968688
 21
559.144623
 31
0.0
  0
LINE
  5
D84D
100
AcDbEntity
  8
0
100
AcDbLine
 10
958.968688
 20
597.144623
 30
0.0
 11
958.968688
 21
559.144623
 31
0.0
  0
LINE
  5
D84E
100
AcDbEntity
  8
0
100
AcDbLine
 10
974.724641
 20
597.144623
 30
0.0
 11
958.968688
 21
597.144623
 31
0.0
  0
LINE
  5
D84F
100
AcDbEntity
  8
0
100
AcDbLine
 10
994.468688
 20
535.832623
 30
0.0
 11
994.468688
 21
532.644623
 31
0.0
  0
LINE
  5
D850
100
AcDbEntity
  8
0
100
AcDbLine
 10
984.468688
 20
532.644623
 30
0.0
 11
984.468688
 21
535.832623
 31
0.0
  0
LINE
  5
D851
100
AcDbEntity
  8
0
100
AcDbLine
 10
984.468688
 20
535.832623
 30
0.0
 11
985.280688
 21
536.644623
 31
0.0
  0
LINE
  5
D852
100
AcDbEntity
  8
0
100
AcDbLine
 10
985.280688
 20
536.644623
 30
0.0
 11
993.656688
 21
536.644623
 31
0.0
  0
LINE
  5
D853
100
AcDbEntity
  8
0
100
AcDbLine
 10
993.656688
 20
536.644623
 30
0.0
 11
994.468688
 21
535.832623
 31
0.0
  0
LINE
  5
D85E
100
AcDbEntity
  8
0
100
AcDbLine
 10
984.468688
 20
438.332623
 30
0.0
 11
985.280688
 21
439.144623
 31
0.0
  0
LINE
  5
D85F
100
AcDbEntity
  8
0
100
AcDbLine
 10
985.280688
 20
439.144623
 30
0.0
 11
993.656688
 21
439.144623
 31
0.0
  0
LINE
  5
D860
100
AcDbEntity
  8
0
100
AcDbLine
 10
993.656688
 20
439.144623
 30
0.0
 11
994.468688
 21
438.332623
 31
0.0
  0
LINE
  5
D86B
100
AcDbEntity
  8
0
100
AcDbLine
 10
994.468688
 20
438.332623
 30
0.0
 11
994.468688
 21
435.144623
 31
0.0
  0
LINE
  5
D86C
100
AcDbEntity
  8
0
100
AcDbLine
 10
984.468688
 20
435.144623
 30
0.0
 11
984.468688
 21
438.332623
 31
0.0
  0
LINE
  5
D86D
100
AcDbEntity
  8
0
100
AcDbLine
 10
961.968688
 20
535.832623
 30
0.0
 11
961.968688
 21
532.644623
 31
0.0
  0
LINE
  5
D86E
100
AcDbEntity
  8
0
100
AcDbLine
 10
951.968688
 20
532.644623
 30
0.0
 11
951.968688
 21
535.832623
 31
0.0
  0
LINE
  5
D86F
100
AcDbEntity
  8
0
100
AcDbLine
 10
951.968688
 20
535.832623
 30
0.0
 11
952.780688
 21
536.644623
 31
0.0
  0
LINE
  5
D870
100
AcDbEntity
  8
0
100
AcDbLine
 10
952.780688
 20
536.644623
 30
0.0
 11
961.156688
 21
536.644623
 31
0.0
  0
LINE
  5
D871
100
AcDbEntity
  8
0
100
AcDbLine
 10
961.156688
 20
536.644623
 30
0.0
 11
961.968688
 21
535.832623
 31
0.0
  0
LINE
  5
D872
100
AcDbEntity
  8
0
100
AcDbLine
 10
972.968688
 20
547.644623
 30
0.0
 11
969.760515
 21
535.613972
 31
0.0
  0
LINE
  5
D87D
100
AcDbEntity
  8
0
100
AcDbLine
 10
951.968688
 20
438.332623
 30
0.0
 11
952.780688
 21
439.144623
 31
0.0
  0
LINE
  5
D87E
100
AcDbEntity
  8
0
100
AcDbLine
 10
952.780688
 20
439.144623
 30
0.0
 11
961.156688
 21
439.144623
 31
0.0
  0
LINE
  5
D87F
100
AcDbEntity
  8
0
100
AcDbLine
 10
961.156688
 20
439.144623
 30
0.0
 11
961.968688
 21
438.332623
 31
0.0
  0
LINE
  5
D880
100
AcDbEntity
  8
0
100
AcDbLine
 10
976.666588
 20
484.644623
 30
0.0
 11
975.682035
 21
456.450713
 31
0.0
  0
LINE
  5
D881
100
AcDbEntity
  8
0
100
AcDbLine
 10
943.968688
 20
532.644623
 30
0.0
 11
943.968688
 21
499.644623
 31
0.0
  0
LINE
  5
D88C
100
AcDbEntity
  8
0
100
AcDbLine
 10
943.968688
 20
401.144623
 30
0.0
 11
943.968688
 21
435.144623
 31
0.0
  0
LINE
  5
D88D
100
AcDbEntity
  8
0
100
AcDbLine
 10
961.968688
 20
438.332623
 30
0.0
 11
961.968688
 21
435.144623
 31
0.0
  0
LINE
  5
D88E
100
AcDbEntity
  8
0
100
AcDbLine
 10
951.968688
 20
435.144623
 30
0.0
 11
951.968688
 21
438.332623
 31
0.0
  0
ARC
  5
D88F
100
AcDbEntity
  8
0
100
AcDbCircle
 10
765.932344
 20
601.144623
 30
0.0
 40
46.0
100
AcDbArc
 50
51.786789
 51
90.0
  0
ARC
  5
D890
100
AcDbEntity
  8
0
100
AcDbCircle
 10
800.57336
 20
645.144623
 30
0.0
 40
10.0
100
AcDbArc
 50
231.786789
 51
270.0
  0
ARC
  5
D891
100
AcDbEntity
  8
0
100
AcDbCircle
 10
693.210116
 20
632.119173
 30
0.0
 40
6.0
100
AcDbArc
 50
235.734114
 51
342.302564
  0
ARC
  5
D892
100
AcDbEntity
  8
0
100
AcDbCircle
 10
718.932344
 20
623.911432
 30
0.0
 40
21.0
100
AcDbArc
 50
108.126204
 51
162.302564
  0
ARC
  5
D893
100
AcDbEntity
  8
0
100
AcDbCircle
 10
732.932344
 20
581.144623
 30
0.0
 40
66.0
100
AcDbArc
 50
90.0
 51
108.126204
  0
LINE
  5
D894
100
AcDbEntity
  8
0
100
AcDbLine
 10
720.534612
 20
645.969743
 30
0.0
 11
663.932344
 21
635.144623
 31
0.0
  0
ARC
  5
D895
100
AcDbEntity
  8
0
100
AcDbCircle
 10
663.932344
 20
589.144623
 30
0.0
 40
46.0
100
AcDbArc
 50
55.734114
 51
90.0
  0
LINE
  5
D896
100
AcDbEntity
  8
0
100
AcDbLine
 10
693.932344
 20
604.144623
 30
0.0
 11
771.932344
 21
604.144623
 31
0.0
  0
LINE
  5
D897
100
AcDbEntity
  8
0
100
AcDbLine
 10
732.932344
 20
647.144623
 30
0.0
 11
765.932344
 21
647.144623
 31
0.0
  0
LINE
  5
D898
100
AcDbEntity
  8
0
100
AcDbLine
 10
781.932344
 20
547.644623
 30
0.0
 11
781.932344
 21
584.027747
 31
0.0
  0
LINE
  5
D899
100
AcDbEntity
  8
0
100
AcDbLine
 10
781.932344
 20
547.644623
 30
0.0
 11
784.901533
 21
536.510161
 31
0.0
  0
LINE
  5
D89A
100
AcDbEntity
  8
0
100
AcDbLine
 10
794.223995
 20
535.832623
 30
0.0
 11
794.223995
 21
532.644623
 31
0.0
  0
LINE
  5
D89B
100
AcDbEntity
  8
0
100
AcDbLine
 10
793.411995
 20
536.644623
 30
0.0
 11
794.223995
 21
535.832623
 31
0.0
  0
LINE
  5
D89C
100
AcDbEntity
  8
0
100
AcDbLine
 10
784.223995
 20
532.644623
 30
0.0
 11
784.223995
 21
535.832623
 31
0.0
  0
LINE
  5
D89D
100
AcDbEntity
  8
0
100
AcDbLine
 10
784.223995
 20
535.832623
 30
0.0
 11
785.035995
 21
536.644623
 31
0.0
  0
LINE
  5
D89E
100
AcDbEntity
  8
0
100
AcDbLine
 10
785.035995
 20
536.644623
 30
0.0
 11
793.411995
 21
536.644623
 31
0.0
  0
ARC
  5
D89F
100
AcDbEntity
  8
0
100
AcDbCircle
 10
787.932344
 20
584.027747
 30
0.0
 40
6.0
100
AcDbArc
 50
64.971001
 51
180.0
  0
ARC
  5
D8A0
100
AcDbEntity
  8
0
100
AcDbCircle
 10
809.932344
 20
631.144623
 30
0.0
 40
46.0
100
AcDbArc
 50
244.971001
 51
270.0
  0
LINE
  5
D8A1
100
AcDbEntity
  8
0
100
AcDbLine
 10
778.234444
 20
484.644623
 30
0.0
 11
779.218997
 21
456.450713
 31
0.0
  0
LINE
  5
D8A2
100
AcDbEntity
  8
0
100
AcDbLine
 10
793.411995
 20
439.144623
 30
0.0
 11
794.223995
 21
438.332623
 31
0.0
  0
LINE
  5
D8A3
100
AcDbEntity
  8
0
100
AcDbLine
 10
794.223995
 20
438.332623
 30
0.0
 11
794.223995
 21
435.144623
 31
0.0
  0
LINE
  5
D8A4
100
AcDbEntity
  8
0
100
AcDbLine
 10
779.218997
 20
456.450713
 30
0.0
 11
784.133551
 21
438.109346
 31
0.0
  0
LINE
  5
D8A5
100
AcDbEntity
  8
0
100
AcDbLine
 10
784.223995
 20
438.332623
 30
0.0
 11
785.035995
 21
439.144623
 31
0.0
  0
LINE
  5
D8A6
100
AcDbEntity
  8
0
100
AcDbLine
 10
784.223995
 20
435.144623
 30
0.0
 11
784.223995
 21
438.332623
 31
0.0
  0
LINE
  5
D8A7
100
AcDbEntity
  8
0
100
AcDbLine
 10
785.035995
 20
439.144623
 30
0.0
 11
793.411995
 21
439.144623
 31
0.0
  0
LINE
  5
D8A8
100
AcDbEntity
  8
0
100
AcDbLine
 10
799.038995
 20
499.644623
 30
0.0
 11
799.038995
 21
493.547623
 31
0.0
  0
LINE
  5
D8A9
100
AcDbEntity
  8
0
100
AcDbLine
 10
799.038995
 20
493.547623
 30
0.0
 11
797.473995
 21
492.643623
 31
0.0
  0
LINE
  5
D8AA
100
AcDbEntity
  8
0
100
AcDbLine
 10
794.130995
 20
493.547623
 30
0.0
 11
794.130995
 21
499.644623
 31
0.0
  0
ARC
  5
D8AB
100
AcDbEntity
  8
0
100
AcDbCircle
 10
796.584995
 20
497.474947
 30
0.0
 40
4.630982
100
AcDbArc
 50
238.000676
 51
301.999324
  0
LINE
  5
D8AC
100
AcDbEntity
  8
0
100
AcDbLine
 10
778.234444
 20
484.644623
 30
0.0
 11
779.408995
 21
495.021127
 31
0.0
  0
LINE
  5
D8AD
100
AcDbEntity
  8
0
100
AcDbLine
 10
784.316995
 20
493.547623
 30
0.0
 11
784.316995
 21
499.644623
 31
0.0
  0
LINE
  5
D8AE
100
AcDbEntity
  8
0
100
AcDbLine
 10
779.408995
 20
493.547623
 30
0.0
 11
779.408995
 21
499.644623
 31
0.0
  0
LINE
  5
D8AF
100
AcDbEntity
  8
0
100
AcDbLine
 10
780.973995
 20
492.643623
 30
0.0
 11
779.408995
 21
493.547623
 31
0.0
  0
ARC
  5
D8B0
100
AcDbEntity
  8
0
100
AcDbCircle
 10
781.862995
 20
497.474947
 30
0.0
 40
4.630982
100
AcDbArc
 50
238.000676
 51
301.999324
  0
ARC
  5
D8B1
100
AcDbEntity
  8
0
100
AcDbCircle
 10
789.223995
 20
510.306614
 30
0.0
 40
17.462601
100
AcDbArc
 50
253.680072
 51
286.319928
  0
LINE
  5
D8B2
100
AcDbEntity
  8
0
100
AcDbLine
 10
797.473995
 20
492.643623
 30
0.0
 11
780.973995
 21
492.643623
 31
0.0
  0
LINE
  5
D8B3
100
AcDbEntity
  8
0
100
AcDbLine
 10
810.932344
 20
532.644623
 30
0.0
 11
810.932344
 21
499.644623
 31
0.0
  0
ARC
  5
D8B4
100
AcDbEntity
  8
0
100
AcDbCircle
 10
796.584995
 20
398.974947
 30
0.0
 40
4.630982
100
AcDbArc
 50
238.000676
 51
301.999324
  0
LINE
  5
D8B5
100
AcDbEntity
  8
0
100
AcDbLine
 10
794.130995
 20
395.047623
 30
0.0
 11
794.130995
 21
401.144623
 31
0.0
  0
LINE
  5
D8B6
100
AcDbEntity
  8
0
100
AcDbLine
 10
799.038995
 20
395.047623
 30
0.0
 11
797.473995
 21
394.143623
 31
0.0
  0
LINE
  5
D8B7
100
AcDbEntity
  8
0
100
AcDbLine
 10
799.038995
 20
401.144623
 30
0.0
 11
799.038995
 21
395.047623
 31
0.0
  0
LINE
  5
D8B8
100
AcDbEntity
  8
0
100
AcDbLine
 10
779.408995
 20
395.047623
 30
0.0
 11
779.408995
 21
401.144623
 31
0.0
  0
LINE
  5
D8B9
100
AcDbEntity
  8
0
100
AcDbLine
 10
784.316995
 20
395.047623
 30
0.0
 11
784.316995
 21
401.144623
 31
0.0
  0
ARC
  5
D8BA
100
AcDbEntity
  8
0
100
AcDbCircle
 10
781.862995
 20
398.974947
 30
0.0
 40
4.630982
100
AcDbArc
 50
238.000676
 51
301.999324
  0
ARC
  5
D8BB
100
AcDbEntity
  8
0
100
AcDbCircle
 10
789.223995
 20
411.806614
 30
0.0
 40
17.462601
100
AcDbArc
 50
253.680072
 51
286.319928
  0
LINE
  5
D8BC
100
AcDbEntity
  8
0
100
AcDbLine
 10
797.473995
 20
394.143623
 30
0.0
 11
780.973995
 21
394.143623
 31
0.0
  0
LINE
  5
D8BD
100
AcDbEntity
  8
0
100
AcDbLine
 10
793.432344
 20
359.144623
 30
0.0
 11
794.432344
 21
360.144623
 31
0.0
  0
LINE
  5
D8BE
100
AcDbEntity
  8
0
100
AcDbLine
 10
728.744344
 20
536.644623
 30
0.0
 11
737.120344
 21
536.644623
 31
0.0
  0
LINE
  5
D8BF
100
AcDbEntity
  8
0
100
AcDbLine
 10
727.932344
 20
535.832623
 30
0.0
 11
728.744344
 21
536.644623
 31
0.0
  0
LINE
  5
D8C0
100
AcDbEntity
  8
0
100
AcDbLine
 10
727.932344
 20
532.644623
 30
0.0
 11
727.932344
 21
535.832623
 31
0.0
  0
LINE
  5
D8C1
100
AcDbEntity
  8
0
100
AcDbLine
 10
737.120344
 20
536.644623
 30
0.0
 11
737.932344
 21
535.832623
 31
0.0
  0
LINE
  5
D8C2
100
AcDbEntity
  8
0
100
AcDbLine
 10
737.932344
 20
535.832623
 30
0.0
 11
737.932344
 21
532.644623
 31
0.0
  0
LINE
  5
D8C3
100
AcDbEntity
  8
0
100
AcDbLine
 10
683.932344
 20
547.644623
 30
0.0
 11
683.932344
 21
570.144623
 31
0.0
  0
LINE
  5
D8C4
100
AcDbEntity
  8
0
100
AcDbLine
 10
683.932344
 20
594.144623
 30
0.0
 11
683.932344
 21
588.582165
 31
0.0
  0
CIRCLE
  5
D8C5
100
AcDbEntity
  8
0
100
AcDbCircle
 10
726.932344
 20
578.144623
 30
0.0
 40
19.0
  0
LINE
  5
D8C6
100
AcDbEntity
  8
0
100
AcDbLine
 10
728.744344
 20
439.144623
 30
0.0
 11
737.120344
 21
439.144623
 31
0.0
  0
LINE
  5
D8C7
100
AcDbEntity
  8
0
100
AcDbLine
 10
727.932344
 20
435.144623
 30
0.0
 11
727.932344
 21
438.332623
 31
0.0
  0
LINE
  5
D8C8
100
AcDbEntity
  8
0
100
AcDbLine
 10
727.932344
 20
438.332623
 30
0.0
 11
728.744344
 21
439.144623
 31
0.0
  0
LINE
  5
D8C9
100
AcDbEntity
  8
0
100
AcDbLine
 10
737.932344
 20
438.332623
 30
0.0
 11
737.932344
 21
435.144623
 31
0.0
  0
LINE
  5
D8CA
100
AcDbEntity
  8
0
100
AcDbLine
 10
737.120344
 20
439.144623
 30
0.0
 11
737.932344
 21
438.332623
 31
0.0
  0
LINE
  5
D8CB
100
AcDbEntity
  8
0
100
AcDbLine
 10
741.182344
 20
492.643623
 30
0.0
 11
724.682344
 21
492.643623
 31
0.0
  0
ARC
  5
D8CC
100
AcDbEntity
  8
0
100
AcDbCircle
 10
732.932344
 20
510.306614
 30
0.0
 40
17.462601
100
AcDbArc
 50
253.680072
 51
286.319928
  0
ARC
  5
D8CD
100
AcDbEntity
  8
0
100
AcDbCircle
 10
725.571344
 20
497.474947
 30
0.0
 40
4.630982
100
AcDbArc
 50
238.000676
 51
301.999324
  0
LINE
  5
D8CE
100
AcDbEntity
  8
0
100
AcDbLine
 10
724.682344
 20
492.643623
 30
0.0
 11
723.117344
 21
493.547623
 31
0.0
  0
LINE
  5
D8CF
100
AcDbEntity
  8
0
100
AcDbLine
 10
723.117344
 20
493.547623
 30
0.0
 11
723.117344
 21
499.644623
 31
0.0
  0
LINE
  5
D8D0
100
AcDbEntity
  8
0
100
AcDbLine
 10
728.025344
 20
493.547623
 30
0.0
 11
728.025344
 21
499.644623
 31
0.0
  0
ARC
  5
D8D1
100
AcDbEntity
  8
0
100
AcDbCircle
 10
740.293344
 20
497.474947
 30
0.0
 40
4.630982
100
AcDbArc
 50
238.000676
 51
301.999324
  0
LINE
  5
D8D2
100
AcDbEntity
  8
0
100
AcDbLine
 10
737.839344
 20
493.547623
 30
0.0
 11
737.839344
 21
499.644623
 31
0.0
  0
LINE
  5
D8D3
100
AcDbEntity
  8
0
100
AcDbLine
 10
742.747344
 20
493.547623
 30
0.0
 11
741.182344
 21
492.643623
 31
0.0
  0
LINE
  5
D8D4
100
AcDbEntity
  8
0
100
AcDbLine
 10
742.747344
 20
499.644623
 30
0.0
 11
742.747344
 21
493.547623
 31
0.0
  0
LINE
  5
D8D5
100
AcDbEntity
  8
0
100
AcDbLine
 10
687.630243
 20
484.644623
 30
0.0
 11
686.64569
 21
456.450713
 31
0.0
  0
LINE
  5
D8D6
100
AcDbEntity
  8
0
100
AcDbLine
 10
687.630243
 20
484.644623
 30
0.0
 11
686.455692
 21
495.021127
 31
0.0
  0
LINE
  5
D8D7
100
AcDbEntity
  8
0
100
AcDbLine
 10
686.455692
 20
499.644623
 30
0.0
 11
686.455692
 21
493.547623
 31
0.0
  0
LINE
  5
D8D8
100
AcDbEntity
  8
0
100
AcDbLine
 10
686.455692
 20
493.547623
 30
0.0
 11
684.890692
 21
492.643623
 31
0.0
  0
LINE
  5
D8D9
100
AcDbEntity
  8
0
100
AcDbLine
 10
681.640692
 20
535.832623
 30
0.0
 11
681.640692
 21
532.644623
 31
0.0
  0
LINE
  5
D8DA
100
AcDbEntity
  8
0
100
AcDbLine
 10
680.828692
 20
536.644623
 30
0.0
 11
681.640692
 21
535.832623
 31
0.0
  0
LINE
  5
D8DB
100
AcDbEntity
  8
0
100
AcDbLine
 10
671.640692
 20
532.644623
 30
0.0
 11
671.640692
 21
535.832623
 31
0.0
  0
LINE
  5
D8DC
100
AcDbEntity
  8
0
100
AcDbLine
 10
671.640692
 20
535.832623
 30
0.0
 11
672.452692
 21
536.644623
 31
0.0
  0
LINE
  5
D8DD
100
AcDbEntity
  8
0
100
AcDbLine
 10
672.452692
 20
536.644623
 30
0.0
 11
680.828692
 21
536.644623
 31
0.0
  0
LINE
  5
D8DE
100
AcDbEntity
  8
0
100
AcDbLine
 10
672.452692
 20
439.144623
 30
0.0
 11
680.828692
 21
439.144623
 31
0.0
  0
LINE
  5
D8DF
100
AcDbEntity
  8
0
100
AcDbLine
 10
671.640692
 20
438.332623
 30
0.0
 11
672.452692
 21
439.144623
 31
0.0
  0
LINE
  5
D8E0
100
AcDbEntity
  8
0
100
AcDbLine
 10
671.640692
 20
435.144623
 30
0.0
 11
671.640692
 21
438.332623
 31
0.0
  0
LINE
  5
D8E1
100
AcDbEntity
  8
0
100
AcDbLine
 10
680.828692
 20
439.144623
 30
0.0
 11
681.640692
 21
438.332623
 31
0.0
  0
LINE
  5
D8E2
100
AcDbEntity
  8
0
100
AcDbLine
 10
681.640692
 20
438.332623
 30
0.0
 11
681.640692
 21
435.144623
 31
0.0
  0
LINE
  5
D8E3
100
AcDbEntity
  8
0
100
AcDbLine
 10
681.547692
 20
493.547623
 30
0.0
 11
681.547692
 21
499.644623
 31
0.0
  0
LINE
  5
D8E4
100
AcDbEntity
  8
0
100
AcDbLine
 10
671.733692
 20
493.547623
 30
0.0
 11
671.733692
 21
499.644623
 31
0.0
  0
ARC
  5
D8E5
100
AcDbEntity
  8
0
100
AcDbCircle
 10
676.640692
 20
510.306614
 30
0.0
 40
17.462601
100
AcDbArc
 50
253.680072
 51
286.319928
  0
LINE
  5
D8E6
100
AcDbEntity
  8
0
100
AcDbLine
 10
666.825692
 20
493.547623
 30
0.0
 11
666.825692
 21
499.644623
 31
0.0
  0
LINE
  5
D8E7
100
AcDbEntity
  8
0
100
AcDbLine
 10
668.390692
 20
492.643623
 30
0.0
 11
666.825692
 21
493.547623
 31
0.0
  0
ARC
  5
D8E8
100
AcDbEntity
  8
0
100
AcDbCircle
 10
669.279692
 20
497.474947
 30
0.0
 40
4.630982
100
AcDbArc
 50
238.000676
 51
301.999324
  0
LINE
  5
D8E9
100
AcDbEntity
  8
0
100
AcDbLine
 10
654.932344
 20
532.644623
 30
0.0
 11
654.932344
 21
499.644623
 31
0.0
  0
LINE
  5
D8EA
100
AcDbEntity
  8
0
100
AcDbLine
 10
686.64569
 20
456.450713
 30
0.0
 11
681.731136
 21
438.109346
 31
0.0
  0
LINE
  5
D8EB
100
AcDbEntity
  8
0
100
AcDbLine
 10
683.932344
 20
547.644623
 30
0.0
 11
680.963154
 21
536.510161
 31
0.0
  0
ARC
  5
D8EC
100
AcDbEntity
  8
0
100
AcDbCircle
 10
668.932344
 20
570.144623
 30
0.0
 40
15.0
100
AcDbArc
 50
0.0
 51
90.0
  0
ARC
  5
D8ED
100
AcDbEntity
  8
0
100
AcDbCircle
 10
684.001692
 20
497.474947
 30
0.0
 40
4.630982
100
AcDbArc
 50
238.000676
 51
301.999324
  0
LINE
  5
D8EE
100
AcDbEntity
  8
0
100
AcDbLine
 10
684.890692
 20
492.643623
 30
0.0
 11
668.390692
 21
492.643623
 31
0.0
  0
ARC
  5
D8EF
100
AcDbEntity
  8
0
100
AcDbCircle
 10
732.932344
 20
411.806614
 30
0.0
 40
17.462601
100
AcDbArc
 50
253.680072
 51
286.319928
  0
LINE
  5
D8F0
100
AcDbEntity
  8
0
100
AcDbLine
 10
741.182344
 20
394.143623
 30
0.0
 11
724.682344
 21
394.143623
 31
0.0
  0
LINE
  5
D8F1
100
AcDbEntity
  8
0
100
AcDbLine
 10
728.025344
 20
395.047623
 30
0.0
 11
728.025344
 21
401.144623
 31
0.0
  0
LINE
  5
D8F2
100
AcDbEntity
  8
0
100
AcDbLine
 10
723.117344
 20
395.047623
 30
0.0
 11
723.117344
 21
401.144623
 31
0.0
  0
LINE
  5
D8F3
100
AcDbEntity
  8
0
100
AcDbLine
 10
724.682344
 20
394.143623
 30
0.0
 11
723.117344
 21
395.047623
 31
0.0
  0
ARC
  5
D8F4
100
AcDbEntity
  8
0
100
AcDbCircle
 10
725.571344
 20
398.974947
 30
0.0
 40
4.630982
100
AcDbArc
 50
238.000676
 51
301.999324
  0
ARC
  5
D8F5
100
AcDbEntity
  8
0
100
AcDbCircle
 10
747.432344
 20
377.144623
 30
0.0
 40
2.0
100
AcDbArc
 50
0.0
 51
90.0
  0
LINE
  5
D8F6
100
AcDbEntity
  8
0
100
AcDbLine
 10
742.747344
 20
401.144623
 30
0.0
 11
742.747344
 21
395.047623
 31
0.0
  0
LINE
  5
D8F7
100
AcDbEntity
  8
0
100
AcDbLine
 10
742.747344
 20
395.047623
 30
0.0
 11
741.182344
 21
394.143623
 31
0.0
  0
LINE
  5
D8F8
100
AcDbEntity
  8
0
100
AcDbLine
 10
737.839344
 20
395.047623
 30
0.0
 11
737.839344
 21
401.144623
 31
0.0
  0
ARC
  5
D8F9
100
AcDbEntity
  8
0
100
AcDbCircle
 10
740.293344
 20
398.974947
 30
0.0
 40
4.630982
100
AcDbArc
 50
238.000676
 51
301.999324
  0
LINE
  5
D8FA
100
AcDbEntity
  8
0
100
AcDbLine
 10
749.432344
 20
360.144623
 30
0.0
 11
750.432344
 21
359.144623
 31
0.0
  0
LINE
  5
D8FB
100
AcDbEntity
  8
0
100
AcDbLine
 10
686.455692
 20
395.047623
 30
0.0
 11
684.890692
 21
394.143623
 31
0.0
  0
LINE
  5
D8FC
100
AcDbEntity
  8
0
100
AcDbLine
 10
686.455692
 20
401.144623
 30
0.0
 11
686.455692
 21
395.047623
 31
0.0
  0
ARC
  5
D8FD
100
AcDbEntity
  8
0
100
AcDbCircle
 10
676.640692
 20
411.806614
 30
0.0
 40
17.462601
100
AcDbArc
 50
253.680072
 51
286.319928
  0
LINE
  5
D8FE
100
AcDbEntity
  8
0
100
AcDbLine
 10
671.733692
 20
395.047623
 30
0.0
 11
671.733692
 21
401.144623
 31
0.0
  0
LINE
  5
D8FF
100
AcDbEntity
  8
0
100
AcDbLine
 10
681.547692
 20
395.047623
 30
0.0
 11
681.547692
 21
401.144623
 31
0.0
  0
LINE
  5
D900
100
AcDbEntity
  8
0
100
AcDbLine
 10
668.390692
 20
394.143623
 30
0.0
 11
666.825692
 21
395.047623
 31
0.0
  0
LINE
  5
D901
100
AcDbEntity
  8
0
100
AcDbLine
 10
666.825692
 20
395.047623
 30
0.0
 11
666.825692
 21
401.144623
 31
0.0
  0
ARC
  5
D902
100
AcDbEntity
  8
0
100
AcDbCircle
 10
669.279692
 20
398.974947
 30
0.0
 40
4.630982
100
AcDbArc
 50
238.000676
 51
301.999324
  0
ARC
  5
D903
100
AcDbEntity
  8
0
100
AcDbCircle
 10
684.001692
 20
398.974947
 30
0.0
 40
4.630982
100
AcDbArc
 50
238.000676
 51
301.999324
  0
LINE
  5
D904
100
AcDbEntity
  8
0
100
AcDbLine
 10
684.890692
 20
394.143623
 30
0.0
 11
668.390692
 21
394.143623
 31
0.0
  0
LINE
  5
D905
100
AcDbEntity
  8
0
100
AcDbLine
 10
654.932344
 20
401.144623
 30
0.0
 11
654.932344
 21
435.144623
 31
0.0
  0
LINE
  5
D906
100
AcDbEntity
  8
0
100
AcDbLine
 10
654.932344
 20
418.144623
 30
0.0
 11
810.932344
 21
418.144623
 31
0.0
  0
LINE
  5
D907
100
AcDbEntity
  8
0
100
AcDbLine
 10
654.932344
 20
435.144623
 30
0.0
 11
810.932344
 21
435.144623
 31
0.0
  0
LINE
  5
D908
100
AcDbEntity
  8
0
100
AcDbLine
 10
793.432344
 20
359.144623
 30
0.0
 11
750.432344
 21
359.144623
 31
0.0
  0
LINE
  5
D909
100
AcDbEntity
  8
0
100
AcDbLine
 10
686.932344
 20
547.644623
 30
0.0
 11
778.932344
 21
547.644623
 31
0.0
  0
LINE
  5
D90A
100
AcDbEntity
  8
0
100
AcDbLine
 10
810.932344
 20
532.644623
 30
0.0
 11
654.932344
 21
532.644623
 31
0.0
  0
LINE
  5
D90B
100
AcDbEntity
  8
0
100
AcDbLine
 10
654.932344
 20
516.144623
 30
0.0
 11
810.932344
 21
516.144623
 31
0.0
  0
LINE
  5
D90C
100
AcDbEntity
  8
0
100
AcDbLine
 10
654.932344
 20
499.644623
 30
0.0
 11
810.932344
 21
499.644623
 31
0.0
  0
ARC
  5
D90D
100
AcDbEntity
  8
0
100
AcDbCircle
 10
693.932344
 20
594.144623
 30
0.0
 40
10.0
100
AcDbArc
 50
90.0
 51
180.0
  0
ARC
  5
D90E
100
AcDbEntity
  8
0
100
AcDbCircle
 10
771.932344
 20
594.144623
 30
0.0
 40
10.0
100
AcDbArc
 50
0.0
 51
90.0
  0
CIRCLE
  5
D90F
100
AcDbEntity
  8
0
100
AcDbCircle
 10
789.223995
 20
840.253253
 30
0.0
 40
4.99999
  0
LINE
  5
D910
100
AcDbEntity
  8
0
100
AcDbLine
 10
745.932344
 20
825.509206
 30
0.0
 11
745.932344
 21
809.753253
 31
0.0
  0
ARC
  5
D911
100
AcDbEntity
  8
0
100
AcDbCircle
 10
732.932344
 20
807.753253
 30
0.0
 40
4.99999
100
AcDbArc
 50
156.421772
 51
23.578228
  0
ARC
  5
D912
100
AcDbEntity
  8
0
100
AcDbCircle
 10
732.932344
 20
872.753253
 30
0.0
 40
54.0
100
AcDbArc
 50
207.578468
 51
242.421532
  0
LINE
  5
D913
100
AcDbEntity
  8
0
100
AcDbLine
 10
707.932344
 20
830.610638
 30
0.0
 11
707.932344
 21
809.753253
 31
0.0
  0
ARC
  5
D914
100
AcDbEntity
  8
0
100
AcDbCircle
 10
694.916462
 20
842.753253
 30
0.0
 40
5.0
100
AcDbArc
 50
36.684138
 51
90.0
  0
LINE
  5
D915
100
AcDbEntity
  8
0
100
AcDbLine
 10
707.932344
 20
809.753253
 30
0.0
 11
745.932344
 21
809.753253
 31
0.0
  0
CIRCLE
  5
D916
100
AcDbEntity
  8
0
100
AcDbCircle
 10
676.640692
 20
840.253253
 30
0.0
 40
4.99999
  0
ARC
  5
D917
100
AcDbEntity
  8
0
100
AcDbCircle
 10
732.932344
 20
872.753253
 30
0.0
 40
78.0
100
AcDbArc
 50
198.693941
 51
341.306059
  0
LINE
  5
D918
100
AcDbEntity
  8
0
100
AcDbLine
 10
775.074959
 20
847.753253
 30
0.0
 11
742.005364
 21
838.892281
 31
0.0
  0
ARC
  5
D919
100
AcDbEntity
  8
0
100
AcDbCircle
 10
732.932344
 20
872.753253
 30
0.0
 40
54.0
100
AcDbArc
 50
283.930264
 51
332.421532
  0
ARC
  5
D91A
100
AcDbEntity
  8
0
100
AcDbCircle
 10
732.932344
 20
872.753253
 30
0.0
 40
49.0
100
AcDbArc
 50
210.677424
 51
329.322576
  0
INSERT
  5
D91B
100
AcDbEntity
  8
0
100
AcDbBlockReference
  2
YA
 10
598.636486
 20
610.144623
 30
0.0
 41
3.427225
 42
3.427225
 43
3.427225
  0
ARC
  5
D91C
100
AcDbEntity
  8
0
100
AcDbCircle
 10
1048.468688
 20
397.144623
 30
0.0
 40
4.0
100
AcDbArc
 50
128.682187
 51
180.0
  0
LINE
  5
D91D
100
AcDbEntity
  8
0
100
AcDbLine
 10
1044.468688
 20
360.144623
 30
0.0
 11
1044.468688
 21
397.144623
 31
0.0
  0
LINE
  5
D91E
100
AcDbEntity
  8
0
100
AcDbLine
 10
1043.468688
 20
359.144623
 30
0.0
 11
1044.468688
 21
360.144623
 31
0.0
  0
ARC
  5
D91F
100
AcDbEntity
  8
0
100
AcDbCircle
 10
1074.327844
 20
493.644623
 30
0.0
 40
6.0
100
AcDbArc
 50
90.0
 51
173.541989
  0
ARC
  5
D920
100
AcDbEntity
  8
0
100
AcDbCircle
 10
1078.568253
 20
441.144623
 30
0.0
 40
6.0
100
AcDbArc
 50
195.0
 51
270.0
  0
ARC
  5
D921
100
AcDbEntity
  8
0
100
AcDbCircle
 10
1078.041802
 20
536.644623
 30
0.0
 40
4.0
100
AcDbArc
 50
194.931417
 51
270.0
  0
ARC
  5
D922
100
AcDbEntity
  8
0
100
AcDbCircle
 10
1054.968688
 20
604.144623
 30
0.0
 40
16.0
100
AcDbArc
 50
0.0
 51
65.229958
  0
ARC
  5
D923
100
AcDbEntity
  8
0
100
AcDbCircle
 10
1065.024145
 20
625.936543
 30
0.0
 40
8.0
100
AcDbArc
 50
180.0
 51
245.229958
  0
LINE
  5
D924
100
AcDbEntity
  8
0
100
AcDbLine
 10
1070.968688
 20
604.144623
 30
0.0
 11
1070.968688
 21
597.144623
 31
0.0
  0
LINE
  5
D925
100
AcDbEntity
  8
0
100
AcDbLine
 10
1057.024145
 20
626.144623
 30
0.0
 11
1057.024145
 21
625.936543
 31
0.0
  0
ARC
  5
D926
100
AcDbEntity
  8
0
100
AcDbCircle
 10
1036.024145
 20
626.144623
 30
0.0
 40
21.0
100
AcDbArc
 50
0.0
 51
90.0
  0
LINE
  5
D927
100
AcDbEntity
  8
0
100
AcDbLine
 10
1070.968688
 20
547.644623
 30
0.0
 11
1070.968688
 21
559.144623
 31
0.0
  0
LINE
  5
D928
100
AcDbEntity
  8
0
100
AcDbLine
 10
1069.212736
 20
597.144623
 30
0.0
 11
1084.968688
 21
597.144623
 31
0.0
  0
LINE
  5
D929
100
AcDbEntity
  8
0
100
AcDbLine
 10
1084.968688
 20
597.144623
 30
0.0
 11
1084.968688
 21
559.144623
 31
0.0
  0
LINE
  5
D92A
100
AcDbEntity
  8
0
100
AcDbLine
 10
1069.212736
 20
559.144623
 30
0.0
 11
1084.968688
 21
559.144623
 31
0.0
  0
ARC
  5
D92B
100
AcDbEntity
  8
0
100
AcDbCircle
 10
1069.212736
 20
600.144623
 30
0.0
 40
3.0
100
AcDbArc
 50
180.0
 51
270.0
  0
ARC
  5
D92C
100
AcDbEntity
  8
0
100
AcDbCircle
 10
1069.212736
 20
556.144623
 30
0.0
 40
3.0
100
AcDbArc
 50
90.0
 51
180.0
  0
ARC
  5
D92D
100
AcDbEntity
  8
0
100
AcDbCircle
 10
1094.669573
 20
578.144623
 30
0.0
 40
33.540028
100
AcDbArc
 50
150.483041
 51
209.516959
  0
LINE
  5
D92E
100
AcDbEntity
  8
0
100
AcDbLine
 10
1050.280688
 20
439.144623
 30
0.0
 11
1049.468688
 21
438.332623
 31
0.0
  0
LINE
  5
D92F
100
AcDbEntity
  8
0
100
AcDbLine
 10
1091.968688
 20
438.332623
 30
0.0
 11
1091.156688
 21
439.144623
 31
0.0
  0
LINE
  5
D930
100
AcDbEntity
  8
0
100
AcDbLine
 10
1091.156688
 20
439.144623
 30
0.0
 11
1082.780688
 21
439.144623
 31
0.0
  0
LINE
  5
D931
100
AcDbEntity
  8
0
100
AcDbLine
 10
1082.780688
 20
439.144623
 30
0.0
 11
1081.968688
 21
438.332623
 31
0.0
  0
LINE
  5
D932
100
AcDbEntity
  8
0
100
AcDbLine
 10
1059.468688
 20
438.332623
 30
0.0
 11
1058.656688
 21
439.144623
 31
0.0
  0
LINE
  5
D933
100
AcDbEntity
  8
0
100
AcDbLine
 10
1058.656688
 20
439.144623
 30
0.0
 11
1050.280688
 21
439.144623
 31
0.0
  0
LINE
  5
D948
100
AcDbEntity
  8
0
100
AcDbLine
 10
1081.968688
 20
438.332623
 30
0.0
 11
1081.968688
 21
435.144623
 31
0.0
  0
LINE
  5
D949
100
AcDbEntity
  8
0
100
AcDbLine
 10
1091.968688
 20
435.144623
 30
0.0
 11
1091.968688
 21
438.332623
 31
0.0
  0
LINE
  5
D94A
100
AcDbEntity
  8
0
100
AcDbLine
 10
1059.468688
 20
435.144623
 30
0.0
 11
1059.468688
 21
438.332623
 31
0.0
  0
LINE
  5
D94B
100
AcDbEntity
  8
0
100
AcDbLine
 10
1049.468688
 20
438.332623
 30
0.0
 11
1049.468688
 21
435.144623
 31
0.0
  0
LINE
  5
D94C
100
AcDbEntity
  8
0
100
AcDbLine
 10
1050.280688
 20
536.644623
 30
0.0
 11
1049.468688
 21
535.832623
 31
0.0
  0
LINE
  5
D94D
100
AcDbEntity
  8
0
100
AcDbLine
 10
1049.468688
 20
535.832623
 30
0.0
 11
1049.468688
 21
532.644623
 31
0.0
  0
LINE
  5
D94E
100
AcDbEntity
  8
0
100
AcDbLine
 10
1081.968688
 20
535.832623
 30
0.0
 11
1081.968688
 21
532.644623
 31
0.0
  0
LINE
  5
D94F
100
AcDbEntity
  8
0
100
AcDbLine
 10
1091.968688
 20
532.644623
 30
0.0
 11
1091.968688
 21
535.832623
 31
0.0
  0
LINE
  5
D950
100
AcDbEntity
  8
0
100
AcDbLine
 10
1091.968688
 20
535.832623
 30
0.0
 11
1091.156688
 21
536.644623
 31
0.0
  0
LINE
  5
D951
100
AcDbEntity
  8
0
100
AcDbLine
 10
1091.156688
 20
536.644623
 30
0.0
 11
1082.780688
 21
536.644623
 31
0.0
  0
LINE
  5
D952
100
AcDbEntity
  8
0
100
AcDbLine
 10
1082.780688
 20
536.644623
 30
0.0
 11
1081.968688
 21
535.832623
 31
0.0
  0
LINE
  5
D953
100
AcDbEntity
  8
0
100
AcDbLine
 10
1059.468688
 20
535.832623
 30
0.0
 11
1058.656688
 21
536.644623
 31
0.0
  0
LINE
  5
D954
100
AcDbEntity
  8
0
100
AcDbLine
 10
1059.468688
 20
532.644623
 30
0.0
 11
1059.468688
 21
535.832623
 31
0.0
  0
LINE
  5
D955
100
AcDbEntity
  8
0
100
AcDbLine
 10
1058.656688
 20
536.644623
 30
0.0
 11
1050.280688
 21
536.644623
 31
0.0
  0
LINE
  5
D96A
100
AcDbEntity
  8
0
100
AcDbLine
 10
1099.968688
 20
532.644623
 30
0.0
 11
1099.968688
 21
499.644623
 31
0.0
  0
LINE
  5
D96B
100
AcDbEntity
  8
0
100
AcDbLine
 10
1099.968688
 20
401.144623
 30
0.0
 11
1099.968688
 21
435.144623
 31
0.0
  0
LINE
  5
D96C
100
AcDbEntity
  8
0
100
AcDbLine
 10
1070.968688
 20
547.644623
 30
0.0
 11
1074.176862
 21
535.613972
 31
0.0
  0
LINE
  5
D96D
100
AcDbEntity
  8
0
100
AcDbLine
 10
1067.270789
 20
484.644623
 30
0.0
 11
1068.365917
 21
494.319473
 31
0.0
  0
LINE
  5
D96E
100
AcDbEntity
  8
0
100
AcDbLine
 10
1068.255342
 20
456.450713
 30
0.0
 11
1072.772698
 21
439.591708
 31
0.0
  0
LINE
  5
D96F
100
AcDbEntity
  8
0
100
AcDbLine
 10
1067.270789
 20
484.644623
 30
0.0
 11
1068.255342
 21
456.450713
 31
0.0
  0
LINE
  5
D970
100
AcDbEntity
  8
0
100
AcDbLine
 10
826.432344
 20
1365.066081
 30
0.0
 11
801.932344
 21
1365.066081
 31
0.0
  0
LINE
  5
D971
100
AcDbEntity
  8
0
100
AcDbLine
 10
826.432344
 20
1315.066081
 30
0.0
 11
796.932344
 21
1315.066081
 31
0.0
  0
LINE
  5
D972
100
AcDbEntity
  8
0
100
AcDbLine
 10
639.432344
 20
1315.066081
 30
0.0
 11
655.932344
 21
1315.066081
 31
0.0
  0
LINE
  5
D973
100
AcDbEntity
  8
0
100
AcDbLine
 10
665.291328
 20
1365.066081
 30
0.0
 11
639.432344
 21
1365.066081
 31
0.0
  0
LINE
  5
D974
100
AcDbEntity
  8
0
100
AcDbLine
 10
827.932344
 20
1363.566081
 30
0.0
 11
827.932344
 21
1340.066081
 31
0.0
  0
LINE
  5
D976
100
AcDbEntity
  8
0
100
AcDbLine
 10
827.932344
 20
1340.066081
 30
0.0
 11
827.932344
 21
1316.566081
 31
0.0
  0
LINE
  5
D977
100
AcDbEntity
  8
0
100
AcDbLine
 10
827.932344
 20
1351.666081
 30
0.0
 11
827.932344
 21
1340.066081
 31
0.0
  0
LINE
  5
D978
100
AcDbEntity
  8
0
100
AcDbLine
 10
827.932344
 20
1340.066081
 30
0.0
 11
827.932344
 21
1328.466081
 31
0.0
  0
LINE
  5
D97B
100
AcDbEntity
  8
0
100
AcDbLine
 10
637.932344
 20
1340.066081
 30
0.0
 11
637.932344
 21
1316.566081
 31
0.0
  0
LINE
  5
D97D
100
AcDbEntity
  8
0
100
AcDbLine
 10
637.932344
 20
1363.566081
 30
0.0
 11
637.932344
 21
1340.066081
 31
0.0
  0
LINE
  5
D980
100
AcDbEntity
  8
0
100
AcDbLine
 10
639.432344
 20
897.753253
 30
0.0
 11
694.916462
 21
897.753253
 31
0.0
  0
LINE
  5
D981
100
AcDbEntity
  8
0
100
AcDbLine
 10
826.432344
 20
897.753253
 30
0.0
 11
775.074959
 21
897.753253
 31
0.0
  0
LINE
  5
D982
100
AcDbEntity
  8
0
100
AcDbLine
 10
827.932344
 20
872.753253
 30
0.0
 11
827.932344
 21
849.253253
 31
0.0
  0
LINE
  5
D983
100
AcDbEntity
  8
0
100
AcDbLine
 10
827.932344
 20
884.353253
 30
0.0
 11
827.932344
 21
872.753253
 31
0.0
  0
LINE
  5
D984
100
AcDbEntity
  8
0
100
AcDbLine
 10
827.932344
 20
872.753253
 30
0.0
 11
827.932344
 21
854.753253
 31
0.0
  0
LINE
  5
D986
100
AcDbEntity
  8
0
100
AcDbLine
 10
827.932344
 20
896.253253
 30
0.0
 11
827.932344
 21
872.753253
 31
0.0
  0
LINE
  5
D987
100
AcDbEntity
  8
0
100
AcDbLine
 10
637.932344
 20
896.253253
 30
0.0
 11
637.932344
 21
872.753253
 31
0.0
  0
LINE
  5
D989
100
AcDbEntity
  8
0
100
AcDbLine
 10
637.932344
 20
872.753253
 30
0.0
 11
637.932344
 21
849.253253
 31
0.0
  0
ARC
  5
D98A
100
AcDbEntity
  8
0
100
AcDbCircle
 10
755.932344
 20
1111.066081
 30
0.0
 40
2.0
100
AcDbArc
 50
270.0
 51
0.0
  0
LINE
  5
D98B
100
AcDbEntity
  8
0
100
AcDbLine
 10
757.932344
 20
1111.066081
 30
0.0
 11
757.932344
 21
1120.901115
 31
0.0
  0
LINE
  5
D98C
100
AcDbEntity
  8
0
100
AcDbLine
 10
718.432344
 20
1109.066081
 30
0.0
 11
755.932344
 21
1109.066081
 31
0.0
  0
ARC
  5
D98D
100
AcDbEntity
  8
0
100
AcDbCircle
 10
718.432344
 20
1107.066081
 30
0.0
 40
2.0
100
AcDbArc
 50
90.0
 51
180.0
  0
LINE
  5
D98E
100
AcDbEntity
  8
0
100
AcDbLine
 10
716.432344
 20
1090.066081
 30
0.0
 11
716.432344
 21
1119.066081
 31
0.0
  0
LINE
  5
D98F
100
AcDbEntity
  8
0
100
AcDbLine
 10
672.432344
 20
1089.066081
 30
0.0
 11
715.432344
 21
1089.066081
 31
0.0
  0
LINE
  5
D990
100
AcDbEntity
  8
0
100
AcDbLine
 10
672.432344
 20
1089.066081
 30
0.0
 11
671.432344
 21
1090.066081
 31
0.0
  0
LINE
  5
D991
100
AcDbEntity
  8
0
100
AcDbLine
 10
715.432344
 20
1089.066081
 30
0.0
 11
716.432344
 21
1090.066081
 31
0.0
  0
LINE
  5
D992
100
AcDbEntity
  8
0
100
AcDbLine
 10
671.432344
 20
1090.066081
 30
0.0
 11
671.432344
 21
1124.065081
 31
0.0
  0
LINE
  5
D993
100
AcDbEntity
  8
0
100
AcDbLine
 10
745.330076
 20
1375.891202
 30
0.0
 11
801.932344
 21
1365.066081
 31
0.0
  0
ARC
  5
D994
100
AcDbEntity
  8
0
100
AcDbCircle
 10
746.932344
 20
1353.832891
 30
0.0
 40
21.0
100
AcDbArc
 50
17.697436
 51
71.873796
  0
LINE
  5
D995
100
AcDbEntity
  8
0
100
AcDbLine
 10
732.932344
 20
1377.066081
 30
0.0
 11
699.932344
 21
1377.066081
 31
0.0
  0
LINE
  5
D996
100
AcDbEntity
  8
0
100
AcDbLine
 10
771.932344
 20
1334.066081
 30
0.0
 11
693.932344
 21
1334.066081
 31
0.0
  0
LINE
  5
D997
100
AcDbEntity
  8
0
100
AcDbLine
 10
778.932344
 20
1277.566081
 30
0.0
 11
686.932344
 21
1277.566081
 31
0.0
  0
LINE
  5
D998
100
AcDbEntity
  8
0
100
AcDbLine
 10
654.932344
 20
1262.566081
 30
0.0
 11
810.932344
 21
1262.566081
 31
0.0
  0
LINE
  5
D999
100
AcDbEntity
  8
0
100
AcDbLine
 10
810.932344
 20
1246.066081
 30
0.0
 11
654.932344
 21
1246.066081
 31
0.0
  0
LINE
  5
D99A
100
AcDbEntity
  8
0
100
AcDbLine
 10
654.932344
 20
1131.066081
 30
0.0
 11
810.932344
 21
1131.066081
 31
0.0
  0
LINE
  5
D99B
100
AcDbEntity
  8
0
100
AcDbLine
 10
810.932344
 20
1148.066081
 30
0.0
 11
654.932344
 21
1148.066081
 31
0.0
  0
LINE
  5
D99C
100
AcDbEntity
  8
0
100
AcDbLine
 10
810.932344
 20
1165.066081
 30
0.0
 11
654.932344
 21
1165.066081
 31
0.0
  0
LINE
  5
D99D
100
AcDbEntity
  8
0
100
AcDbLine
 10
810.932344
 20
1229.566081
 30
0.0
 11
654.932344
 21
1229.566081
 31
0.0
  0
LINE
  5
D99E
100
AcDbEntity
  8
0
100
AcDbLine
 10
687.630243
 20
1214.566081
 30
0.0
 11
686.455692
 21
1224.942586
 31
0.0
  0
ARC
  5
D99F
100
AcDbEntity
  8
0
100
AcDbCircle
 10
684.001692
 20
1128.896405
 30
0.0
 40
4.630982
100
AcDbArc
 50
238.000676
 51
301.999324
  0
LINE
  5
D9A0
100
AcDbEntity
  8
0
100
AcDbLine
 10
668.390692
 20
1124.065081
 30
0.0
 11
684.890692
 21
1124.065081
 31
0.0
  0
LINE
  5
D9A1
100
AcDbEntity
  8
0
100
AcDbLine
 10
686.64569
 20
1186.372172
 30
0.0
 11
681.731136
 21
1168.030805
 31
0.0
  0
LINE
  5
D9A2
100
AcDbEntity
  8
0
100
AcDbLine
 10
654.932344
 20
1131.066081
 30
0.0
 11
654.932344
 21
1165.066081
 31
0.0
  0
ARC
  5
D9A3
100
AcDbEntity
  8
0
100
AcDbCircle
 10
669.279692
 20
1128.896405
 30
0.0
 40
4.630982
100
AcDbArc
 50
238.000676
 51
301.999324
  0
LINE
  5
D9A4
100
AcDbEntity
  8
0
100
AcDbLine
 10
671.733692
 20
1124.969081
 30
0.0
 11
671.733692
 21
1131.066081
 31
0.0
  0
LINE
  5
D9A5
100
AcDbEntity
  8
0
100
AcDbLine
 10
666.825692
 20
1124.969081
 30
0.0
 11
668.390692
 21
1124.065081
 31
0.0
  0
LINE
  5
D9A6
100
AcDbEntity
  8
0
100
AcDbLine
 10
666.825692
 20
1131.066081
 30
0.0
 11
666.825692
 21
1124.969081
 31
0.0
  0
LINE
  5
D9A7
100
AcDbEntity
  8
0
100
AcDbLine
 10
681.547692
 20
1124.969081
 30
0.0
 11
681.547692
 21
1131.066081
 31
0.0
  0
ARC
  5
D9A8
100
AcDbEntity
  8
0
100
AcDbCircle
 10
676.640692
 20
1141.728073
 30
0.0
 40
17.462601
100
AcDbArc
 50
253.680072
 51
286.319928
  0
LINE
  5
D9A9
100
AcDbEntity
  8
0
100
AcDbLine
 10
672.452692
 20
1169.066081
 30
0.0
 11
671.640692
 21
1168.254081
 31
0.0
  0
LINE
  5
D9AA
100
AcDbEntity
  8
0
100
AcDbLine
 10
671.640692
 20
1168.254081
 30
0.0
 11
671.640692
 21
1165.066081
 31
0.0
  0
LINE
  5
D9AB
100
AcDbEntity
  8
0
100
AcDbLine
 10
681.640692
 20
1168.254081
 30
0.0
 11
680.828692
 21
1169.066081
 31
0.0
  0
LINE
  5
D9AC
100
AcDbEntity
  8
0
100
AcDbLine
 10
681.640692
 20
1165.066081
 30
0.0
 11
681.640692
 21
1168.254081
 31
0.0
  0
LINE
  5
D9AD
100
AcDbEntity
  8
0
100
AcDbLine
 10
680.828692
 20
1169.066081
 30
0.0
 11
672.452692
 21
1169.066081
 31
0.0
  0
LINE
  5
D9AE
100
AcDbEntity
  8
0
100
AcDbLine
 10
686.455692
 20
1124.969081
 30
0.0
 11
686.455692
 21
1131.066081
 31
0.0
  0
ARC
  5
D9AF
100
AcDbEntity
  8
0
100
AcDbCircle
 10
732.932344
 20
1141.728073
 30
0.0
 40
17.462601
100
AcDbArc
 50
253.680072
 51
286.319928
  0
LINE
  5
D9B0
100
AcDbEntity
  8
0
100
AcDbLine
 10
724.682344
 20
1124.065081
 30
0.0
 11
741.182344
 21
1124.065081
 31
0.0
  0
LINE
  5
D9B1
100
AcDbEntity
  8
0
100
AcDbLine
 10
737.839344
 20
1124.969081
 30
0.0
 11
737.839344
 21
1131.066081
 31
0.0
  0
LINE
  5
D9B2
100
AcDbEntity
  8
0
100
AcDbLine
 10
742.747344
 20
1124.969081
 30
0.0
 11
742.747344
 21
1131.066081
 31
0.0
  0
LINE
  5
D9B3
100
AcDbEntity
  8
0
100
AcDbLine
 10
741.182344
 20
1124.065081
 30
0.0
 11
742.747344
 21
1124.969081
 31
0.0
  0
ARC
  5
D9B4
100
AcDbEntity
  8
0
100
AcDbCircle
 10
740.293344
 20
1128.896405
 30
0.0
 40
4.630982
100
AcDbArc
 50
238.000676
 51
301.999324
  0
LINE
  5
D9B5
100
AcDbEntity
  8
0
100
AcDbLine
 10
723.117344
 20
1131.066081
 30
0.0
 11
723.117344
 21
1124.969081
 31
0.0
  0
LINE
  5
D9B6
100
AcDbEntity
  8
0
100
AcDbLine
 10
723.117344
 20
1124.969081
 30
0.0
 11
724.682344
 21
1124.065081
 31
0.0
  0
LINE
  5
D9B7
100
AcDbEntity
  8
0
100
AcDbLine
 10
728.025344
 20
1124.969081
 30
0.0
 11
728.025344
 21
1131.066081
 31
0.0
  0
ARC
  5
D9B8
100
AcDbEntity
  8
0
100
AcDbCircle
 10
725.571344
 20
1128.896405
 30
0.0
 40
4.630982
100
AcDbArc
 50
238.000676
 51
301.999324
  0
LINE
  5
D9B9
100
AcDbEntity
  8
0
100
AcDbLine
 10
687.630243
 20
1214.566081
 30
0.0
 11
686.64569
 21
1186.372172
 31
0.0
  0
LINE
  5
D9BA
100
AcDbEntity
  8
0
100
AcDbLine
 10
737.120344
 20
1169.066081
 30
0.0
 11
728.744344
 21
1169.066081
 31
0.0
  0
LINE
  5
D9BB
100
AcDbEntity
  8
0
100
AcDbLine
 10
737.932344
 20
1165.066081
 30
0.0
 11
737.932344
 21
1168.254081
 31
0.0
  0
LINE
  5
D9BC
100
AcDbEntity
  8
0
100
AcDbLine
 10
737.932344
 20
1168.254081
 30
0.0
 11
737.120344
 21
1169.066081
 31
0.0
  0
LINE
  5
D9BD
100
AcDbEntity
  8
0
100
AcDbLine
 10
727.932344
 20
1168.254081
 30
0.0
 11
727.932344
 21
1165.066081
 31
0.0
  0
LINE
  5
D9BE
100
AcDbEntity
  8
0
100
AcDbLine
 10
728.744344
 20
1169.066081
 30
0.0
 11
727.932344
 21
1168.254081
 31
0.0
  0
ARC
  5
D9BF
100
AcDbEntity
  8
0
100
AcDbCircle
 10
693.932344
 20
1324.066081
 30
0.0
 40
10.0
100
AcDbArc
 50
90.0
 51
180.0
  0
LINE
  5
D9C0
100
AcDbEntity
  8
0
100
AcDbLine
 10
683.932344
 20
1277.566081
 30
0.0
 11
680.72417
 21
1265.53543
 31
0.0
  0
ARC
  5
D9C1
100
AcDbEntity
  8
0
100
AcDbCircle
 10
684.001692
 20
1227.396405
 30
0.0
 40
4.630982
100
AcDbArc
 50
238.000676
 51
301.999324
  0
ARC
  5
D9C2
100
AcDbEntity
  8
0
100
AcDbCircle
 10
677.932344
 20
1313.949205
 30
0.0
 40
6.0
100
AcDbArc
 50
0.0
 51
115.028999
  0
LINE
  5
D9C3
100
AcDbEntity
  8
0
100
AcDbLine
 10
668.390692
 20
1222.565081
 30
0.0
 11
684.890692
 21
1222.565081
 31
0.0
  0
LINE
  5
D9C4
100
AcDbEntity
  8
0
100
AcDbLine
 10
671.640692
 20
1265.754081
 30
0.0
 11
671.640692
 21
1262.566081
 31
0.0
  0
LINE
  5
D9C5
100
AcDbEntity
  8
0
100
AcDbLine
 10
672.452692
 20
1266.566081
 30
0.0
 11
671.640692
 21
1265.754081
 31
0.0
  0
LINE
  5
D9C6
100
AcDbEntity
  8
0
100
AcDbLine
 10
681.640692
 20
1262.566081
 30
0.0
 11
681.640692
 21
1265.754081
 31
0.0
  0
LINE
  5
D9C7
100
AcDbEntity
  8
0
100
AcDbLine
 10
681.640692
 20
1265.754081
 30
0.0
 11
680.828692
 21
1266.566081
 31
0.0
  0
ARC
  5
D9C8
100
AcDbEntity
  8
0
100
AcDbCircle
 10
676.85923
 20
1266.566081
 30
0.0
 40
4.0
100
AcDbArc
 50
270.0
 51
345.068583
  0
LINE
  5
D9C9
100
AcDbEntity
  8
0
100
AcDbLine
 10
680.828692
 20
1266.566081
 30
0.0
 11
672.452692
 21
1266.566081
 31
0.0
  0
LINE
  5
D9CA
100
AcDbEntity
  8
0
100
AcDbLine
 10
666.825692
 20
1229.566081
 30
0.0
 11
666.825692
 21
1223.469081
 31
0.0
  0
LINE
  5
D9CB
100
AcDbEntity
  8
0
100
AcDbLine
 10
666.825692
 20
1223.469081
 30
0.0
 11
668.390692
 21
1222.565081
 31
0.0
  0
LINE
  5
D9CC
100
AcDbEntity
  8
0
100
AcDbLine
 10
671.733692
 20
1223.469081
 30
0.0
 11
671.733692
 21
1229.566081
 31
0.0
  0
ARC
  5
D9CD
100
AcDbEntity
  8
0
100
AcDbCircle
 10
669.279692
 20
1227.396405
 30
0.0
 40
4.630982
100
AcDbArc
 50
238.000676
 51
301.999324
  0
LINE
  5
D9CE
100
AcDbEntity
  8
0
100
AcDbLine
 10
681.547692
 20
1223.469081
 30
0.0
 11
681.547692
 21
1229.566081
 31
0.0
  0
ARC
  5
D9CF
100
AcDbEntity
  8
0
100
AcDbCircle
 10
676.640692
 20
1240.228073
 30
0.0
 40
17.462601
100
AcDbArc
 50
253.680072
 51
286.319928
  0
LINE
  5
D9D0
100
AcDbEntity
  8
0
100
AcDbLine
 10
654.932344
 20
1262.566081
 30
0.0
 11
654.932344
 21
1229.566081
 31
0.0
  0
ARC
  5
D9D1
100
AcDbEntity
  8
0
100
AcDbCircle
 10
665.291328
 20
1375.066081
 30
0.0
 40
10.0
100
AcDbArc
 50
270.0
 51
308.213211
  0
ARC
  5
D9D2
100
AcDbEntity
  8
0
100
AcDbCircle
 10
655.932344
 20
1361.066081
 30
0.0
 40
46.0
100
AcDbArc
 50
270.0
 51
295.028999
  0
LINE
  5
D9D3
100
AcDbEntity
  8
0
100
AcDbLine
 10
683.932344
 20
1277.566081
 30
0.0
 11
683.932344
 21
1313.949205
 31
0.0
  0
CIRCLE
  5
D9D4
100
AcDbEntity
  8
0
100
AcDbCircle
 10
738.932344
 20
1308.066081
 30
0.0
 40
19.0
  0
LINE
  5
D9D5
100
AcDbEntity
  8
0
100
AcDbLine
 10
686.455692
 20
1223.469081
 30
0.0
 11
686.455692
 21
1229.566081
 31
0.0
  0
LINE
  5
D9D6
100
AcDbEntity
  8
0
100
AcDbLine
 10
684.890692
 20
1222.565081
 30
0.0
 11
686.455692
 21
1223.469081
 31
0.0
  0
LINE
  5
D9D7
100
AcDbEntity
  8
0
100
AcDbLine
 10
737.120344
 20
1266.566081
 30
0.0
 11
728.744344
 21
1266.566081
 31
0.0
  0
LINE
  5
D9D8
100
AcDbEntity
  8
0
100
AcDbLine
 10
737.932344
 20
1265.754081
 30
0.0
 11
737.120344
 21
1266.566081
 31
0.0
  0
LINE
  5
D9D9
100
AcDbEntity
  8
0
100
AcDbLine
 10
737.932344
 20
1262.566081
 30
0.0
 11
737.932344
 21
1265.754081
 31
0.0
  0
LINE
  5
D9DA
100
AcDbEntity
  8
0
100
AcDbLine
 10
728.744344
 20
1266.566081
 30
0.0
 11
727.932344
 21
1265.754081
 31
0.0
  0
LINE
  5
D9DB
100
AcDbEntity
  8
0
100
AcDbLine
 10
727.932344
 20
1265.754081
 30
0.0
 11
727.932344
 21
1262.566081
 31
0.0
  0
LINE
  5
D9DC
100
AcDbEntity
  8
0
100
AcDbLine
 10
724.682344
 20
1222.565081
 30
0.0
 11
741.182344
 21
1222.565081
 31
0.0
  0
ARC
  5
D9DD
100
AcDbEntity
  8
0
100
AcDbCircle
 10
732.932344
 20
1240.228073
 30
0.0
 40
17.462601
100
AcDbArc
 50
253.680072
 51
286.319928
  0
ARC
  5
D9DE
100
AcDbEntity
  8
0
100
AcDbCircle
 10
740.293344
 20
1227.396405
 30
0.0
 40
4.630982
100
AcDbArc
 50
238.000676
 51
301.999324
  0
LINE
  5
D9DF
100
AcDbEntity
  8
0
100
AcDbLine
 10
741.182344
 20
1222.565081
 30
0.0
 11
742.747344
 21
1223.469081
 31
0.0
  0
LINE
  5
D9E0
100
AcDbEntity
  8
0
100
AcDbLine
 10
742.747344
 20
1223.469081
 30
0.0
 11
742.747344
 21
1229.566081
 31
0.0
  0
LINE
  5
D9E1
100
AcDbEntity
  8
0
100
AcDbLine
 10
737.839344
 20
1223.469081
 30
0.0
 11
737.839344
 21
1229.566081
 31
0.0
  0
ARC
  5
D9E2
100
AcDbEntity
  8
0
100
AcDbCircle
 10
725.571344
 20
1227.396405
 30
0.0
 40
4.630982
100
AcDbArc
 50
238.000676
 51
301.999324
  0
LINE
  5
D9E3
100
AcDbEntity
  8
0
100
AcDbLine
 10
728.025344
 20
1223.469081
 30
0.0
 11
728.025344
 21
1229.566081
 31
0.0
  0
LINE
  5
D9E4
100
AcDbEntity
  8
0
100
AcDbLine
 10
723.117344
 20
1223.469081
 30
0.0
 11
724.682344
 21
1222.565081
 31
0.0
  0
LINE
  5
D9E5
100
AcDbEntity
  8
0
100
AcDbLine
 10
723.117344
 20
1229.566081
 30
0.0
 11
723.117344
 21
1223.469081
 31
0.0
  0
LINE
  5
D9E6
100
AcDbEntity
  8
0
100
AcDbLine
 10
778.234444
 20
1214.566081
 30
0.0
 11
779.408995
 21
1224.942586
 31
0.0
  0
LINE
  5
D9E7
100
AcDbEntity
  8
0
100
AcDbLine
 10
810.932344
 20
1131.066081
 30
0.0
 11
810.932344
 21
1165.066081
 31
0.0
  0
ARC
  5
D9E8
100
AcDbEntity
  8
0
100
AcDbCircle
 10
781.862995
 20
1128.896405
 30
0.0
 40
4.630982
100
AcDbArc
 50
238.000676
 51
301.999324
  0
ARC
  5
D9E9
100
AcDbEntity
  8
0
100
AcDbCircle
 10
789.223995
 20
1141.728073
 30
0.0
 40
17.462601
100
AcDbArc
 50
253.680072
 51
286.319928
  0
LINE
  5
D9EA
100
AcDbEntity
  8
0
100
AcDbLine
 10
794.130995
 20
1124.969081
 30
0.0
 11
794.130995
 21
1131.066081
 31
0.0
  0
LINE
  5
D9EB
100
AcDbEntity
  8
0
100
AcDbLine
 10
784.316995
 20
1124.969081
 30
0.0
 11
784.316995
 21
1131.066081
 31
0.0
  0
LINE
  5
D9EC
100
AcDbEntity
  8
0
100
AcDbLine
 10
779.408995
 20
1124.969081
 30
0.0
 11
780.973995
 21
1124.065081
 31
0.0
  0
LINE
  5
D9ED
100
AcDbEntity
  8
0
100
AcDbLine
 10
779.408995
 20
1131.066081
 30
0.0
 11
779.408995
 21
1124.969081
 31
0.0
  0
LINE
  5
D9EE
100
AcDbEntity
  8
0
100
AcDbLine
 10
797.473995
 20
1124.065081
 30
0.0
 11
799.038995
 21
1124.969081
 31
0.0
  0
LINE
  5
D9EF
100
AcDbEntity
  8
0
100
AcDbLine
 10
799.038995
 20
1124.969081
 30
0.0
 11
799.038995
 21
1131.066081
 31
0.0
  0
LINE
  5
D9F0
100
AcDbEntity
  8
0
100
AcDbLine
 10
780.973995
 20
1124.065081
 30
0.0
 11
797.473995
 21
1124.065081
 31
0.0
  0
ARC
  5
D9F1
100
AcDbEntity
  8
0
100
AcDbCircle
 10
796.584995
 20
1128.896405
 30
0.0
 40
4.630982
100
AcDbArc
 50
238.000676
 51
301.999324
  0
LINE
  5
D9F2
100
AcDbEntity
  8
0
100
AcDbLine
 10
778.234444
 20
1214.566081
 30
0.0
 11
779.218997
 21
1186.372172
 31
0.0
  0
LINE
  5
D9F3
100
AcDbEntity
  8
0
100
AcDbLine
 10
793.411995
 20
1169.066081
 30
0.0
 11
785.035995
 21
1169.066081
 31
0.0
  0
LINE
  5
D9F4
100
AcDbEntity
  8
0
100
AcDbLine
 10
785.035995
 20
1169.066081
 30
0.0
 11
784.223995
 21
1168.254081
 31
0.0
  0
LINE
  5
D9F5
100
AcDbEntity
  8
0
100
AcDbLine
 10
784.223995
 20
1168.254081
 30
0.0
 11
784.223995
 21
1165.066081
 31
0.0
  0
LINE
  5
D9F6
100
AcDbEntity
  8
0
100
AcDbLine
 10
794.223995
 20
1165.066081
 30
0.0
 11
794.223995
 21
1168.254081
 31
0.0
  0
LINE
  5
D9F7
100
AcDbEntity
  8
0
100
AcDbLine
 10
794.223995
 20
1168.254081
 30
0.0
 11
793.411995
 21
1169.066081
 31
0.0
  0
LINE
  5
D9F8
100
AcDbEntity
  8
0
100
AcDbLine
 10
779.218997
 20
1186.372172
 30
0.0
 11
784.133551
 21
1168.030805
 31
0.0
  0
ARC
  5
D9F9
100
AcDbEntity
  8
0
100
AcDbCircle
 10
796.932344
 20
1300.066081
 30
0.0
 40
15.0
100
AcDbArc
 50
90.0
 51
180.0
  0
LINE
  5
D9FA
100
AcDbEntity
  8
0
100
AcDbLine
 10
781.932344
 20
1277.566081
 30
0.0
 11
785.140517
 21
1265.53543
 31
0.0
  0
ARC
  5
D9FB
100
AcDbEntity
  8
0
100
AcDbCircle
 10
789.005457
 20
1266.566081
 30
0.0
 40
4.0
100
AcDbArc
 50
194.931417
 51
270.0
  0
LINE
  5
D9FC
100
AcDbEntity
  8
0
100
AcDbLine
 10
781.932344
 20
1277.566081
 30
0.0
 11
781.932344
 21
1300.066081
 31
0.0
  0
LINE
  5
D9FD
100
AcDbEntity
  8
0
100
AcDbLine
 10
784.223995
 20
1265.754081
 30
0.0
 11
784.223995
 21
1262.566081
 31
0.0
  0
LINE
  5
D9FE
100
AcDbEntity
  8
0
100
AcDbLine
 10
785.035995
 20
1266.566081
 30
0.0
 11
784.223995
 21
1265.754081
 31
0.0
  0
LINE
  5
D9FF
100
AcDbEntity
  8
0
100
AcDbLine
 10
793.411995
 20
1266.566081
 30
0.0
 11
785.035995
 21
1266.566081
 31
0.0
  0
LINE
  5
DA00
100
AcDbEntity
  8
0
100
AcDbLine
 10
794.223995
 20
1262.566081
 30
0.0
 11
794.223995
 21
1265.754081
 31
0.0
  0
LINE
  5
DA01
100
AcDbEntity
  8
0
100
AcDbLine
 10
794.223995
 20
1265.754081
 30
0.0
 11
793.411995
 21
1266.566081
 31
0.0
  0
LINE
  5
DA02
100
AcDbEntity
  8
0
100
AcDbLine
 10
779.408995
 20
1229.566081
 30
0.0
 11
779.408995
 21
1223.469081
 31
0.0
  0
LINE
  5
DA03
100
AcDbEntity
  8
0
100
AcDbLine
 10
779.408995
 20
1223.469081
 30
0.0
 11
780.973995
 21
1222.565081
 31
0.0
  0
LINE
  5
DA04
100
AcDbEntity
  8
0
100
AcDbLine
 10
784.316995
 20
1223.469081
 30
0.0
 11
784.316995
 21
1229.566081
 31
0.0
  0
LINE
  5
DA05
100
AcDbEntity
  8
0
100
AcDbLine
 10
794.130995
 20
1223.469081
 30
0.0
 11
794.130995
 21
1229.566081
 31
0.0
  0
ARC
  5
DA06
100
AcDbEntity
  8
0
100
AcDbCircle
 10
789.223995
 20
1240.228073
 30
0.0
 40
17.462601
100
AcDbArc
 50
253.680072
 51
286.319928
  0
ARC
  5
DA07
100
AcDbEntity
  8
0
100
AcDbCircle
 10
781.862995
 20
1227.396405
 30
0.0
 40
4.630982
100
AcDbArc
 50
238.000676
 51
301.999324
  0
LINE
  5
DA08
100
AcDbEntity
  8
0
100
AcDbLine
 10
799.038995
 20
1223.469081
 30
0.0
 11
799.038995
 21
1229.566081
 31
0.0
  0
LINE
  5
DA09
100
AcDbEntity
  8
0
100
AcDbLine
 10
797.473995
 20
1222.565081
 30
0.0
 11
799.038995
 21
1223.469081
 31
0.0
  0
ARC
  5
DA0A
100
AcDbEntity
  8
0
100
AcDbCircle
 10
796.584995
 20
1227.396405
 30
0.0
 40
4.630982
100
AcDbArc
 50
238.000676
 51
301.999324
  0
LINE
  5
DA0B
100
AcDbEntity
  8
0
100
AcDbLine
 10
780.973995
 20
1222.565081
 30
0.0
 11
797.473995
 21
1222.565081
 31
0.0
  0
LINE
  5
DA0C
100
AcDbEntity
  8
0
100
AcDbLine
 10
810.932344
 20
1262.566081
 30
0.0
 11
810.932344
 21
1229.566081
 31
0.0
  0
ARC
  5
DA0D
100
AcDbEntity
  8
0
100
AcDbCircle
 10
801.932344
 20
1319.066081
 30
0.0
 40
46.0
100
AcDbArc
 50
90.0
 51
124.265886
  0
ARC
  5
DA0E
100
AcDbEntity
  8
0
100
AcDbCircle
 10
772.654571
 20
1362.040632
 30
0.0
 40
6.0
100
AcDbArc
 50
197.697436
 51
304.265886
  0
ARC
  5
DA0F
100
AcDbEntity
  8
0
100
AcDbCircle
 10
771.932344
 20
1324.066081
 30
0.0
 40
10.0
100
AcDbArc
 50
0.0
 51
90.0
  0
LINE
  5
DA10
100
AcDbEntity
  8
0
100
AcDbLine
 10
781.932344
 20
1324.066081
 30
0.0
 11
781.932344
 21
1318.503623
 31
0.0
  0
ARC
  5
DA11
100
AcDbEntity
  8
0
100
AcDbCircle
 10
752.158841
 20
1129.066081
 30
0.0
 40
10.0
100
AcDbArc
 50
270.0
 51
330.0
  0
LINE
  5
DA12
100
AcDbEntity
  8
0
100
AcDbLine
 10
760.819095
 20
1124.066081
 30
0.0
 11
763.128496
 21
1128.066081
 31
0.0
  0
LINE
  5
DA13
100
AcDbEntity
  8
0
100
AcDbLine
 10
752.158841
 20
1119.066081
 30
0.0
 11
713.705846
 21
1119.066081
 31
0.0
  0
ARC
  5
DA14
100
AcDbEntity
  8
0
100
AcDbCircle
 10
768.324649
 20
1125.066081
 30
0.0
 40
6.0
100
AcDbArc
 50
90.0
 51
150.0
  0
ARC
  5
DA15
100
AcDbEntity
  8
0
100
AcDbCircle
 10
697.540039
 20
1125.066081
 30
0.0
 40
6.0
100
AcDbArc
 50
30.0
 51
90.0
  0
LINE
  5
DA16
100
AcDbEntity
  8
0
100
AcDbLine
 10
705.045592
 20
1124.066081
 30
0.0
 11
702.736191
 21
1128.066081
 31
0.0
  0
ARC
  5
DA17
100
AcDbEntity
  8
0
100
AcDbCircle
 10
713.705846
 20
1129.066081
 30
0.0
 40
10.0
100
AcDbArc
 50
210.0
 51
270.0
  0
LINE
  5
DA18
100
AcDbEntity
  8
0
100
AcDbLine
 10
686.455692
 20
1124.969081
 30
0.0
 11
684.890692
 21
1124.065081
 31
0.0
  0
CIRCLE
  5
DA19
100
AcDbEntity
  8
0
100
AcDbCircle
 10
789.223995
 20
905.253253
 30
0.0
 40
4.99999
  0
LINE
  5
DA1A
100
AcDbEntity
  8
0
100
AcDbLine
 10
775.074959
 20
893.753253
 30
0.0
 11
775.074959
 21
851.753253
 31
0.0
  0
ARC
  5
DA1B
100
AcDbEntity
  8
0
100
AcDbCircle
 10
732.932344
 20
937.753253
 30
0.0
 40
4.99999
100
AcDbArc
 50
336.421772
 51
203.578228
  0
LINE
  5
DA1C
100
AcDbEntity
  8
0
100
AcDbLine
 10
745.932344
 20
919.9973
 30
0.0
 11
745.932344
 21
935.753253
 31
0.0
  0
LINE
  5
DA1D
100
AcDbEntity
  8
0
100
AcDbLine
 10
707.932344
 20
914.895868
 30
0.0
 11
707.932344
 21
935.753253
 31
0.0
  0
ARC
  5
DA1E
100
AcDbEntity
  8
0
100
AcDbCircle
 10
732.932344
 20
872.753253
 30
0.0
 40
54.0
100
AcDbArc
 50
117.578468
 51
152.421532
  0
ARC
  5
DA1F
100
AcDbEntity
  8
0
100
AcDbCircle
 10
711.408716
 20
882.753253
 30
0.0
 40
5.0
100
AcDbArc
 50
270.0
 51
0.0
  0
ARC
  5
DA20
100
AcDbEntity
  8
0
100
AcDbCircle
 10
694.916462
 20
902.753253
 30
0.0
 40
5.0
100
AcDbArc
 50
270.0
 51
323.315862
  0
ARC
  5
DA21
100
AcDbEntity
  8
0
100
AcDbCircle
 10
732.932344
 20
872.753253
 30
0.0
 40
35.055457
100
AcDbArc
 50
75.0
 51
171.799872
  0
LINE
  5
DA22
100
AcDbEntity
  8
0
100
AcDbLine
 10
707.932344
 20
935.753253
 30
0.0
 11
745.932344
 21
935.753253
 31
0.0
  0
ARC
  5
DA23
100
AcDbEntity
  8
0
100
AcDbCircle
 10
711.408716
 20
862.753253
 30
0.0
 40
5.0
100
AcDbArc
 50
0.0
 51
90.0
  0
CIRCLE
  5
DA24
100
AcDbEntity
  8
0
100
AcDbCircle
 10
676.640692
 20
905.253253
 30
0.0
 40
4.99999
  0
ARC
  5
DA25
100
AcDbEntity
  8
0
100
AcDbCircle
 10
664.922638
 20
882.753253
 30
0.0
 40
5.0
100
AcDbArc
 50
180.0
 51
270.0
  0
ARC
  5
DA26
100
AcDbEntity
  8
0
100
AcDbCircle
 10
664.922638
 20
862.753253
 30
0.0
 40
5.0
100
AcDbArc
 50
90.0
 51
180.0
  0
LINE
  5
DA27
100
AcDbEntity
  8
0
100
AcDbLine
 10
659.922638
 20
875.753253
 30
0.0
 11
659.922638
 21
869.753253
 31
0.0
  0
LINE
  5
DA28
100
AcDbEntity
  8
0
100
AcDbLine
 10
663.932344
 20
877.753253
 30
0.0
 11
711.408716
 21
877.753253
 31
0.0
  0
LINE
  5
DA29
100
AcDbEntity
  8
0
100
AcDbLine
 10
663.932344
 20
867.753253
 30
0.0
 11
712.39901
 21
867.753253
 31
0.0
  0
ARC
  5
DA2A
100
AcDbEntity
  8
0
100
AcDbCircle
 10
732.932344
 20
872.753253
 30
0.0
 40
78.0
100
AcDbArc
 50
18.693941
 51
161.306059
  0
LINE
  5
DA2B
100
AcDbEntity
  8
0
100
AcDbLine
 10
775.074959
 20
897.753253
 30
0.0
 11
742.005364
 21
906.614224
 31
0.0
  0
ARC
  5
DA2C
100
AcDbEntity
  8
0
100
AcDbCircle
 10
732.932344
 20
872.753253
 30
0.0
 40
54.0
100
AcDbArc
 50
27.578468
 51
76.069736
  0
ARC
  5
DA2D
100
AcDbEntity
  8
0
100
AcDbCircle
 10
732.932344
 20
872.753253
 30
0.0
 40
49.0
100
AcDbArc
 50
30.677424
 51
149.322576
  0
INSERT
  5
DA2E
100
AcDbEntity
  8
0
100
AcDbBlockReference
  2
YA
 10
598.636486
 20
872.753253
 30
0.0
 41
3.427225
 42
3.427225
 43
3.427225
  0
TEXT
  5
DA30
100
AcDbEntity
  8
0
100
AcDbText
 10
639.59901
 20
284.400002
 30
0.0
 40
20.0
  1
15A,20A,25A
 72
     1
 11
732.932344
 21
294.400002
 31
0.0
100
AcDbText
 73
     2
  0
INSERT
  5
DA31
100
AcDbEntity
  8
0
100
AcDbBlockReference
  2
YA
 10
867.228202
 20
1340.066081
 30
0.0
 41
-3.427225
 42
3.427225
 43
3.427225
  0
CIRCLE
  5
DAEC
100
AcDbEntity
  8
0
100
AcDbCircle
 10
1820.5137
 20
840.253253
 30
0.0
 40
4.99999
  0
LINE
  5
DAED
100
AcDbEntity
  8
0
100
AcDbLine
 10
1806.364664
 20
847.753253
 30
0.0
 11
1773.295068
 21
838.892281
 31
0.0
  0
ARC
  5
DAEE
100
AcDbEntity
  8
0
100
AcDbCircle
 10
1764.222049
 20
872.753253
 30
0.0
 40
54.0
100
AcDbArc
 50
283.930264
 51
332.421532
  0
ARC
  5
DAEF
100
AcDbEntity
  8
0
100
AcDbCircle
 10
1764.222049
 20
872.753253
 30
0.0
 40
54.0
100
AcDbArc
 50
207.578468
 51
242.421532
  0
CIRCLE
  5
DAF0
100
AcDbEntity
  8
0
100
AcDbCircle
 10
1707.930397
 20
840.253253
 30
0.0
 40
4.99999
  0
ARC
  5
DAF1
100
AcDbEntity
  8
0
100
AcDbCircle
 10
1764.222049
 20
872.753253
 30
0.0
 40
35.055457
100
AcDbArc
 50
188.200128
 51
285.0
  0
ARC
  5
DAF2
100
AcDbEntity
  8
0
100
AcDbCircle
 10
1764.222049
 20
872.753253
 30
0.0
 40
78.0
100
AcDbArc
 50
198.693941
 51
341.306059
  0
ARC
  5
DAF3
100
AcDbEntity
  8
0
100
AcDbCircle
 10
1764.222049
 20
872.753253
 30
0.0
 40
49.0
100
AcDbArc
 50
210.677424
 51
329.322576
  0
TEXT
  5
DAF4
100
AcDbEntity
  8
0
100
AcDbText
 10
1407.688715
 20
146.0
 30
0.0
 40
28.0
  1
TLV  DC3A-L,DC3S-L,DC3-L (SW)
 72
     1
 11
1764.222049
 21
160.0
 31
0.0
100
AcDbText
 73
     2
  0
ARC
  5
DAF5
100
AcDbEntity
  8
0
100
AcDbCircle
 10
1481.739987
 20
625.936543
 30
0.0
 40
8.0
100
AcDbArc
 50
180.0
 51
245.229958
  0
ARC
  5
DAF6
100
AcDbEntity
  8
0
100
AcDbCircle
 10
1452.739987
 20
626.144623
 30
0.0
 40
21.0
100
AcDbArc
 50
0.0
 51
90.0
  0
LINE
  5
DAF9
100
AcDbEntity
  8
0
100
AcDbLine
 10
1360.68453
 20
532.644623
 30
0.0
 11
1516.68453
 21
532.644623
 31
0.0
  0
LINE
  5
DAFA
100
AcDbEntity
  8
0
100
AcDbLine
 10
1516.68453
 20
516.144623
 30
0.0
 11
1360.68453
 21
516.144623
 31
0.0
  0
LINE
  5
DAFC
100
AcDbEntity
  8
0
100
AcDbLine
 10
1484.68453
 20
547.644623
 30
0.0
 11
1392.68453
 21
547.644623
 31
0.0
  0
ARC
  5
DB02
100
AcDbEntity
  8
0
100
AcDbCircle
 10
1365.983646
 20
578.144623
 30
0.0
 40
33.540028
100
AcDbArc
 50
330.483041
 51
29.516959
  0
LINE
  5
DB03
100
AcDbEntity
  8
0
100
AcDbLine
 10
1375.68453
 20
597.144623
 30
0.0
 11
1375.68453
 21
559.144623
 31
0.0
  0
ARC
  5
DB16
100
AcDbEntity
  8
0
100
AcDbCircle
 10
1455.68453
 20
381.144623
 30
0.0
 40
2.0
100
AcDbArc
 50
270.0
 51
0.0
  0
LINE
  5
DB17
100
AcDbEntity
  8
0
100
AcDbLine
 10
1461.18453
 20
360.144623
 30
0.0
 11
1461.18453
 21
389.695592
 31
0.0
  0
ARC
  5
DB18
100
AcDbEntity
  8
0
100
AcDbCircle
 10
1421.68453
 20
381.144623
 30
0.0
 40
2.0
100
AcDbArc
 50
180.0
 51
270.0
  0
LINE
  5
DB19
100
AcDbEntity
  8
0
100
AcDbLine
 10
1416.18453
 20
360.144623
 30
0.0
 11
1416.18453
 21
389.695592
 31
0.0
  0
LINE
  5
DB1A
100
AcDbEntity
  8
0
100
AcDbLine
 10
1460.18453
 20
359.144623
 30
0.0
 11
1417.18453
 21
359.144623
 31
0.0
  0
LINE
  5
DB1B
100
AcDbEntity
  8
0
100
AcDbLine
 10
1455.68453
 20
379.144623
 30
0.0
 11
1421.68453
 21
379.144623
 31
0.0
  0
LINE
  5
DB1C
100
AcDbEntity
  8
0
100
AcDbLine
 10
1416.18453
 20
360.144623
 30
0.0
 11
1417.18453
 21
359.144623
 31
0.0
  0
LINE
  5
DB1D
100
AcDbEntity
  8
0
100
AcDbLine
 10
1460.18453
 20
359.144623
 30
0.0
 11
1461.18453
 21
360.144623
 31
0.0
  0
LINE
  5
DB1E
100
AcDbEntity
  8
0
100
AcDbLine
 10
1419.458033
 20
389.144623
 30
0.0
 11
1457.911028
 21
389.144623
 31
0.0
  0
LINE
  5
DB29
100
AcDbEntity
  8
0
100
AcDbLine
 10
1419.68453
 20
381.144623
 30
0.0
 11
1419.68453
 21
389.144623
 31
0.0
  0
ARC
  5
DB2A
100
AcDbEntity
  8
0
100
AcDbCircle
 10
1419.458033
 20
399.144623
 30
0.0
 40
10.0
100
AcDbArc
 50
210.0
 51
270.0
  0
ARC
  5
DB31
100
AcDbEntity
  8
0
100
AcDbCircle
 10
1457.911028
 20
399.144623
 30
0.0
 40
10.0
100
AcDbArc
 50
270.0
 51
330.0
  0
LINE
  5
DB34
100
AcDbEntity
  8
0
100
AcDbLine
 10
1457.68453
 20
381.144623
 30
0.0
 11
1457.68453
 21
389.144623
 31
0.0
  0
ARC
  5
DB3D
100
AcDbEntity
  8
0
100
AcDbCircle
 10
1382.611417
 20
536.644623
 30
0.0
 40
4.0
100
AcDbArc
 50
270.0
 51
345.068583
  0
LINE
  5
DB3E
100
AcDbEntity
  8
0
100
AcDbLine
 10
1391.440483
 20
559.144623
 30
0.0
 11
1375.68453
 21
559.144623
 31
0.0
  0
LINE
  5
DB3F
100
AcDbEntity
  8
0
100
AcDbLine
 10
1360.68453
 20
532.644623
 30
0.0
 11
1360.68453
 21
499.644623
 31
0.0
  0
LINE
  5
DB4A
100
AcDbEntity
  8
0
100
AcDbLine
 10
1369.49653
 20
536.644623
 30
0.0
 11
1377.87253
 21
536.644623
 31
0.0
  0
LINE
  5
DB4B
100
AcDbEntity
  8
0
100
AcDbLine
 10
1368.68453
 20
535.832623
 30
0.0
 11
1369.49653
 21
536.644623
 31
0.0
  0
LINE
  5
DB4C
100
AcDbEntity
  8
0
100
AcDbLine
 10
1368.68453
 20
532.644623
 30
0.0
 11
1368.68453
 21
535.832623
 31
0.0
  0
LINE
  5
DB4D
100
AcDbEntity
  8
0
100
AcDbLine
 10
1377.87253
 20
536.644623
 30
0.0
 11
1378.68453
 21
535.832623
 31
0.0
  0
LINE
  5
DB4E
100
AcDbEntity
  8
0
100
AcDbLine
 10
1378.68453
 20
535.832623
 30
0.0
 11
1378.68453
 21
532.644623
 31
0.0
  0
LINE
  5
DB62
100
AcDbEntity
  8
0
100
AcDbLine
 10
1389.68453
 20
547.644623
 30
0.0
 11
1386.476357
 21
535.613972
 31
0.0
  0
LINE
  5
DB63
100
AcDbEntity
  8
0
100
AcDbLine
 10
1401.99653
 20
536.644623
 30
0.0
 11
1410.37253
 21
536.644623
 31
0.0
  0
LINE
  5
DB64
100
AcDbEntity
  8
0
100
AcDbLine
 10
1401.18453
 20
532.644623
 30
0.0
 11
1401.18453
 21
535.832623
 31
0.0
  0
LINE
  5
DB65
100
AcDbEntity
  8
0
100
AcDbLine
 10
1401.18453
 20
535.832623
 30
0.0
 11
1401.99653
 21
536.644623
 31
0.0
  0
LINE
  5
DB66
100
AcDbEntity
  8
0
100
AcDbLine
 10
1411.18453
 20
535.832623
 30
0.0
 11
1411.18453
 21
532.644623
 31
0.0
  0
LINE
  5
DB67
100
AcDbEntity
  8
0
100
AcDbLine
 10
1410.37253
 20
536.644623
 30
0.0
 11
1411.18453
 21
535.832623
 31
0.0
  0
ARC
  5
DB68
100
AcDbEntity
  8
0
100
AcDbCircle
 10
1391.440483
 20
556.144623
 30
0.0
 40
3.0
100
AcDbArc
 50
0.0
 51
90.0
  0
LINE
  5
DB69
100
AcDbEntity
  8
0
100
AcDbLine
 10
1389.68453
 20
547.644623
 30
0.0
 11
1389.68453
 21
559.144623
 31
0.0
  0
LINE
  5
DB6A
100
AcDbEntity
  8
0
100
AcDbLine
 10
1466.99653
 20
536.644623
 30
0.0
 11
1466.18453
 21
535.832623
 31
0.0
  0
LINE
  5
DB6B
100
AcDbEntity
  8
0
100
AcDbLine
 10
1475.37253
 20
536.644623
 30
0.0
 11
1466.99653
 21
536.644623
 31
0.0
  0
LINE
  5
DB6C
100
AcDbEntity
  8
0
100
AcDbLine
 10
1476.18453
 20
535.832623
 30
0.0
 11
1475.37253
 21
536.644623
 31
0.0
  0
LINE
  5
DB6D
100
AcDbEntity
  8
0
100
AcDbLine
 10
1476.18453
 20
532.644623
 30
0.0
 11
1476.18453
 21
535.832623
 31
0.0
  0
LINE
  5
DB6E
100
AcDbEntity
  8
0
100
AcDbLine
 10
1466.18453
 20
535.832623
 30
0.0
 11
1466.18453
 21
532.644623
 31
0.0
  0
LINE
  5
DB6F
100
AcDbEntity
  8
0
100
AcDbLine
 10
1391.440483
 20
597.144623
 30
0.0
 11
1375.68453
 21
597.144623
 31
0.0
  0
LINE
  5
DB70
100
AcDbEntity
  8
0
100
AcDbLine
 10
1433.68453
 20
638.428894
 30
0.0
 11
1433.68453
 21
647.144623
 31
0.0
  0
LINE
  5
DB71
100
AcDbEntity
  8
0
100
AcDbLine
 10
1443.68453
 20
638.428894
 30
0.0
 11
1443.68453
 21
647.144623
 31
0.0
  0
ARC
  5
DB72
100
AcDbEntity
  8
0
100
AcDbCircle
 10
1424.629073
 20
626.144623
 30
0.0
 40
21.0
100
AcDbArc
 50
90.0
 51
180.0
  0
CIRCLE
  5
DB73
100
AcDbEntity
  8
0
100
AcDbCircle
 10
1438.68453
 20
610.144623
 30
0.0
 40
25.0
  0
ARC
  5
DB74
100
AcDbEntity
  8
0
100
AcDbCircle
 10
1428.68453
 20
638.428894
 30
0.0
 40
5.0
100
AcDbArc
 50
289.471221
 51
0.0
  0
ARC
  5
DB75
100
AcDbEntity
  8
0
100
AcDbCircle
 10
1405.68453
 20
604.144623
 30
0.0
 40
16.0
100
AcDbArc
 50
114.770042
 51
180.0
  0
ARC
  5
DB76
100
AcDbEntity
  8
0
100
AcDbCircle
 10
1391.440483
 20
600.144623
 30
0.0
 40
3.0
100
AcDbArc
 50
270.0
 51
0.0
  0
LINE
  5
DB77
100
AcDbEntity
  8
0
100
AcDbLine
 10
1389.68453
 20
604.144623
 30
0.0
 11
1389.68453
 21
597.144623
 31
0.0
  0
LINE
  5
DB78
100
AcDbEntity
  8
0
100
AcDbLine
 10
1403.629073
 20
626.144623
 30
0.0
 11
1403.629073
 21
625.936543
 31
0.0
  0
ARC
  5
DB79
100
AcDbEntity
  8
0
100
AcDbCircle
 10
1395.629073
 20
625.936543
 30
0.0
 40
8.0
100
AcDbArc
 50
294.770042
 51
0.0
  0
ARC
  5
DB7A
100
AcDbEntity
  8
0
100
AcDbCircle
 10
1448.68453
 20
638.428894
 30
0.0
 40
5.0
100
AcDbArc
 50
180.0
 51
250.528779
  0
LINE
  5
DB7B
100
AcDbEntity
  8
0
100
AcDbLine
 10
1473.739987
 20
626.144623
 30
0.0
 11
1473.739987
 21
625.936543
 31
0.0
  0
LINE
  5
DB7C
100
AcDbEntity
  8
0
100
AcDbLine
 10
1452.739987
 20
647.144623
 30
0.0
 11
1424.629073
 21
647.144623
 31
0.0
  0
TEXT
  5
DB7D
100
AcDbEntity
  8
0
100
AcDbText
 10
1670.888715
 20
284.400002
 30
0.0
 40
20.0
  1
15A,20A,25A
 72
     1
 11
1764.222049
 21
294.400002
 31
0.0
100
AcDbText
 73
     2
  0
LINE
  5
DB7E
100
AcDbEntity
  8
0
100
AcDbLine
 10
1831.863065
 20
635.144623
 30
0.0
 11
1852.222049
 21
635.144623
 31
0.0
  0
LINE
  5
DB7F
100
AcDbEntity
  8
0
100
AcDbLine
 10
1852.222049
 20
585.144623
 30
0.0
 11
1841.222049
 21
585.144623
 31
0.0
  0
LINE
  5
DB80
100
AcDbEntity
  8
0
100
AcDbLine
 10
1813.222049
 20
547.644623
 30
0.0
 11
1813.222049
 21
584.027747
 31
0.0
  0
ARC
  5
DB81
100
AcDbEntity
  8
0
100
AcDbCircle
 10
1700.222049
 20
570.144623
 30
0.0
 40
15.0
100
AcDbArc
 50
0.0
 51
90.0
  0
CIRCLE
  5
DB82
100
AcDbEntity
  8
0
100
AcDbCircle
 10
1758.222049
 20
578.144623
 30
0.0
 40
19.0
  0
ARC
  5
DB83
100
AcDbEntity
  8
0
100
AcDbCircle
 10
1511.385415
 20
578.144623
 30
0.0
 40
33.540028
100
AcDbArc
 50
150.483041
 51
209.516959
  0
LINE
  5
DB84
100
AcDbEntity
  8
0
100
AcDbLine
 10
1501.68453
 20
597.144623
 30
0.0
 11
1501.68453
 21
559.144623
 31
0.0
  0
LINE
  5
DB99
100
AcDbEntity
  8
0
100
AcDbLine
 10
1516.68453
 20
532.644623
 30
0.0
 11
1516.68453
 21
499.644623
 31
0.0
  0
LINE
  5
DBA9
100
AcDbEntity
  8
0
100
AcDbLine
 10
1487.68453
 20
547.644623
 30
0.0
 11
1490.892704
 21
535.613972
 31
0.0
  0
LINE
  5
DBAA
100
AcDbEntity
  8
0
100
AcDbLine
 10
1507.87253
 20
536.644623
 30
0.0
 11
1499.49653
 21
536.644623
 31
0.0
  0
LINE
  5
DBAB
100
AcDbEntity
  8
0
100
AcDbLine
 10
1499.49653
 20
536.644623
 30
0.0
 11
1498.68453
 21
535.832623
 31
0.0
  0
LINE
  5
DBAC
100
AcDbEntity
  8
0
100
AcDbLine
 10
1498.68453
 20
535.832623
 30
0.0
 11
1498.68453
 21
532.644623
 31
0.0
  0
ARC
  5
DBAD
100
AcDbEntity
  8
0
100
AcDbCircle
 10
1494.757644
 20
536.644623
 30
0.0
 40
4.0
100
AcDbArc
 50
194.931417
 51
270.0
  0
LINE
  5
DBAE
100
AcDbEntity
  8
0
100
AcDbLine
 10
1508.68453
 20
535.832623
 30
0.0
 11
1507.87253
 21
536.644623
 31
0.0
  0
LINE
  5
DBAF
100
AcDbEntity
  8
0
100
AcDbLine
 10
1508.68453
 20
532.644623
 30
0.0
 11
1508.68453
 21
535.832623
 31
0.0
  0
LINE
  5
DBB0
100
AcDbEntity
  8
0
100
AcDbLine
 10
1485.928578
 20
559.144623
 30
0.0
 11
1501.68453
 21
559.144623
 31
0.0
  0
ARC
  5
DBB1
100
AcDbEntity
  8
0
100
AcDbCircle
 10
1485.928578
 20
556.144623
 30
0.0
 40
3.0
100
AcDbArc
 50
90.0
 51
180.0
  0
LINE
  5
DBB2
100
AcDbEntity
  8
0
100
AcDbLine
 10
1487.68453
 20
547.644623
 30
0.0
 11
1487.68453
 21
559.144623
 31
0.0
  0
LINE
  5
DBB3
100
AcDbEntity
  8
0
100
AcDbLine
 10
1810.508702
 20
456.450713
 30
0.0
 11
1815.423256
 21
438.109346
 31
0.0
  0
LINE
  5
DBB4
100
AcDbEntity
  8
0
100
AcDbLine
 10
1717.935395
 20
456.450713
 30
0.0
 11
1713.020841
 21
438.109346
 31
0.0
  0
ARC
  5
DBB5
100
AcDbEntity
  8
0
100
AcDbCircle
 10
1756.861049
 20
398.974947
 30
0.0
 40
4.630982
100
AcDbArc
 50
238.000676
 51
301.999324
  0
LINE
  5
DBB6
100
AcDbEntity
  8
0
100
AcDbLine
 10
1755.972049
 20
394.143623
 30
0.0
 11
1754.407049
 21
395.047623
 31
0.0
  0
LINE
  5
DBB7
100
AcDbEntity
  8
0
100
AcDbLine
 10
1842.222049
 20
401.144623
 30
0.0
 11
1686.222049
 21
401.144623
 31
0.0
  0
LINE
  5
DBB8
100
AcDbEntity
  8
0
100
AcDbLine
 10
1686.222049
 20
418.144623
 30
0.0
 11
1842.222049
 21
418.144623
 31
0.0
  0
LINE
  5
DBB9
100
AcDbEntity
  8
0
100
AcDbLine
 10
1686.222049
 20
435.144623
 30
0.0
 11
1842.222049
 21
435.144623
 31
0.0
  0
LINE
  5
DBBA
100
AcDbEntity
  8
0
100
AcDbLine
 10
1778.722049
 20
379.144623
 30
0.0
 11
1741.222049
 21
379.144623
 31
0.0
  0
LINE
  5
DBBB
100
AcDbEntity
  8
0
100
AcDbLine
 10
1744.995551
 20
389.144623
 30
0.0
 11
1783.448546
 21
389.144623
 31
0.0
  0
ARC
  5
DBBC
100
AcDbEntity
  8
0
100
AcDbCircle
 10
1741.222049
 20
381.144623
 30
0.0
 40
2.0
100
AcDbArc
 50
180.0
 51
270.0
  0
LINE
  5
DBBD
100
AcDbEntity
  8
0
100
AcDbLine
 10
1703.742397
 20
439.144623
 30
0.0
 11
1712.118397
 21
439.144623
 31
0.0
  0
ARC
  5
DBBE
100
AcDbEntity
  8
0
100
AcDbCircle
 10
1707.930397
 20
411.806614
 30
0.0
 40
17.462601
100
AcDbArc
 50
253.680072
 51
286.319928
  0
LINE
  5
DBBF
100
AcDbEntity
  8
0
100
AcDbLine
 10
1716.180397
 20
394.143623
 30
0.0
 11
1699.680397
 21
394.143623
 31
0.0
  0
LINE
  5
DBC0
100
AcDbEntity
  8
0
100
AcDbLine
 10
1686.222049
 20
401.144623
 30
0.0
 11
1686.222049
 21
435.144623
 31
0.0
  0
LINE
  5
DBC1
100
AcDbEntity
  8
0
100
AcDbLine
 10
1703.023397
 20
395.047623
 30
0.0
 11
1703.023397
 21
401.144623
 31
0.0
  0
LINE
  5
DBC2
100
AcDbEntity
  8
0
100
AcDbLine
 10
1699.680397
 20
394.143623
 30
0.0
 11
1698.115397
 21
395.047623
 31
0.0
  0
LINE
  5
DBC3
100
AcDbEntity
  8
0
100
AcDbLine
 10
1698.115397
 20
395.047623
 30
0.0
 11
1698.115397
 21
401.144623
 31
0.0
  0
ARC
  5
DBC4
100
AcDbEntity
  8
0
100
AcDbCircle
 10
1700.569397
 20
398.974947
 30
0.0
 40
4.630982
100
AcDbArc
 50
238.000676
 51
301.999324
  0
LINE
  5
DBC5
100
AcDbEntity
  8
0
100
AcDbLine
 10
1702.930397
 20
438.332623
 30
0.0
 11
1703.742397
 21
439.144623
 31
0.0
  0
LINE
  5
DBC6
100
AcDbEntity
  8
0
100
AcDbLine
 10
1702.930397
 20
435.144623
 30
0.0
 11
1702.930397
 21
438.332623
 31
0.0
  0
ARC
  5
DBC7
100
AcDbEntity
  8
0
100
AcDbCircle
 10
1728.829744
 20
395.144623
 30
0.0
 40
6.0
100
AcDbArc
 50
30.0
 51
90.0
  0
LINE
  5
DBC8
100
AcDbEntity
  8
0
100
AcDbLine
 10
1717.745397
 20
395.047623
 30
0.0
 11
1716.180397
 21
394.143623
 31
0.0
  0
LINE
  5
DBC9
100
AcDbEntity
  8
0
100
AcDbLine
 10
1717.745397
 20
401.144623
 30
0.0
 11
1717.745397
 21
395.047623
 31
0.0
  0
LINE
  5
DBCA
100
AcDbEntity
  8
0
100
AcDbLine
 10
1712.837397
 20
395.047623
 30
0.0
 11
1712.837397
 21
401.144623
 31
0.0
  0
ARC
  5
DBCB
100
AcDbEntity
  8
0
100
AcDbCircle
 10
1715.291397
 20
398.974947
 30
0.0
 40
4.630982
100
AcDbArc
 50
238.000676
 51
301.999324
  0
LINE
  5
DBCC
100
AcDbEntity
  8
0
100
AcDbLine
 10
1754.407049
 20
395.047623
 30
0.0
 11
1754.407049
 21
401.144623
 31
0.0
  0
LINE
  5
DBCD
100
AcDbEntity
  8
0
100
AcDbLine
 10
1739.222049
 20
381.144623
 30
0.0
 11
1739.222049
 21
390.979657
 31
0.0
  0
LINE
  5
DBCE
100
AcDbEntity
  8
0
100
AcDbLine
 10
1736.335297
 20
394.144623
 30
0.0
 11
1734.025896
 21
398.144623
 31
0.0
  0
ARC
  5
DBCF
100
AcDbEntity
  8
0
100
AcDbCircle
 10
1744.995551
 20
399.144623
 30
0.0
 40
10.0
100
AcDbArc
 50
210.0
 51
270.0
  0
LINE
  5
DBD0
100
AcDbEntity
  8
0
100
AcDbLine
 10
1712.118397
 20
439.144623
 30
0.0
 11
1712.930397
 21
438.332623
 31
0.0
  0
LINE
  5
DBD1
100
AcDbEntity
  8
0
100
AcDbLine
 10
1712.930397
 20
438.332623
 30
0.0
 11
1712.930397
 21
435.144623
 31
0.0
  0
LINE
  5
DBD2
100
AcDbEntity
  8
0
100
AcDbLine
 10
1780.722049
 20
360.144623
 30
0.0
 11
1780.722049
 21
389.144623
 31
0.0
  0
LINE
  5
DBD3
100
AcDbEntity
  8
0
100
AcDbLine
 10
1825.722049
 20
360.144623
 30
0.0
 11
1825.722049
 21
394.143623
 31
0.0
  0
LINE
  5
DBD4
100
AcDbEntity
  8
0
100
AcDbLine
 10
1824.722049
 20
359.144623
 30
0.0
 11
1781.722049
 21
359.144623
 31
0.0
  0
ARC
  5
DBD5
100
AcDbEntity
  8
0
100
AcDbCircle
 10
1778.722049
 20
377.144623
 30
0.0
 40
2.0
100
AcDbArc
 50
0.0
 51
90.0
  0
LINE
  5
DBD6
100
AcDbEntity
  8
0
100
AcDbLine
 10
1780.722049
 20
360.144623
 30
0.0
 11
1781.722049
 21
359.144623
 31
0.0
  0
LINE
  5
DBD7
100
AcDbEntity
  8
0
100
AcDbLine
 10
1824.722049
 20
359.144623
 30
0.0
 11
1825.722049
 21
360.144623
 31
0.0
  0
LINE
  5
DBD8
100
AcDbEntity
  8
0
100
AcDbLine
 10
1772.472049
 20
394.143623
 30
0.0
 11
1755.972049
 21
394.143623
 31
0.0
  0
LINE
  5
DBD9
100
AcDbEntity
  8
0
100
AcDbLine
 10
1774.037049
 20
401.144623
 30
0.0
 11
1774.037049
 21
395.047623
 31
0.0
  0
LINE
  5
DBDA
100
AcDbEntity
  8
0
100
AcDbLine
 10
1774.037049
 20
395.047623
 30
0.0
 11
1772.472049
 21
394.143623
 31
0.0
  0
LINE
  5
DBDB
100
AcDbEntity
  8
0
100
AcDbLine
 10
1769.129049
 20
395.047623
 30
0.0
 11
1769.129049
 21
401.144623
 31
0.0
  0
ARC
  5
DBDC
100
AcDbEntity
  8
0
100
AcDbCircle
 10
1771.583049
 20
398.974947
 30
0.0
 40
4.630982
100
AcDbArc
 50
238.000676
 51
301.999324
  0
LINE
  5
DBDD
100
AcDbEntity
  8
0
100
AcDbLine
 10
1759.315049
 20
395.047623
 30
0.0
 11
1759.315049
 21
401.144623
 31
0.0
  0
ARC
  5
DBDE
100
AcDbEntity
  8
0
100
AcDbCircle
 10
1764.222049
 20
411.806614
 30
0.0
 40
17.462601
100
AcDbArc
 50
253.680072
 51
286.319928
  0
LINE
  5
DBDF
100
AcDbEntity
  8
0
100
AcDbLine
 10
1792.1088
 20
394.144623
 30
0.0
 11
1794.418201
 21
398.144623
 31
0.0
  0
ARC
  5
DBE0
100
AcDbEntity
  8
0
100
AcDbCircle
 10
1799.614353
 20
395.144623
 30
0.0
 40
6.0
100
AcDbArc
 50
90.0
 51
150.0
  0
ARC
  5
DBE1
100
AcDbEntity
  8
0
100
AcDbCircle
 10
1783.448546
 20
399.144623
 30
0.0
 40
10.0
100
AcDbArc
 50
270.0
 51
330.0
  0
LINE
  5
DBE2
100
AcDbEntity
  8
0
100
AcDbLine
 10
1769.222049
 20
438.332623
 30
0.0
 11
1769.222049
 21
435.144623
 31
0.0
  0
LINE
  5
DBE3
100
AcDbEntity
  8
0
100
AcDbLine
 10
1768.410049
 20
439.144623
 30
0.0
 11
1769.222049
 21
438.332623
 31
0.0
  0
LINE
  5
DBE4
100
AcDbEntity
  8
0
100
AcDbLine
 10
1759.222049
 20
435.144623
 30
0.0
 11
1759.222049
 21
438.332623
 31
0.0
  0
LINE
  5
DBE5
100
AcDbEntity
  8
0
100
AcDbLine
 10
1759.222049
 20
438.332623
 30
0.0
 11
1760.034049
 21
439.144623
 31
0.0
  0
LINE
  5
DBE6
100
AcDbEntity
  8
0
100
AcDbLine
 10
1760.034049
 20
439.144623
 30
0.0
 11
1768.410049
 21
439.144623
 31
0.0
  0
LINE
  5
DBE7
100
AcDbEntity
  8
0
100
AcDbLine
 10
1842.222049
 20
401.144623
 30
0.0
 11
1842.222049
 21
435.144623
 31
0.0
  0
LINE
  5
DBE8
100
AcDbEntity
  8
0
100
AcDbLine
 10
1828.7637
 20
394.143623
 30
0.0
 11
1812.2637
 21
394.143623
 31
0.0
  0
ARC
  5
DBE9
100
AcDbEntity
  8
0
100
AcDbCircle
 10
1820.5137
 20
411.806614
 30
0.0
 40
17.462601
100
AcDbArc
 50
253.680072
 51
286.319928
  0
LINE
  5
DBEA
100
AcDbEntity
  8
0
100
AcDbLine
 10
1810.6987
 20
395.047623
 30
0.0
 11
1812.2637
 21
394.143623
 31
0.0
  0
LINE
  5
DBEB
100
AcDbEntity
  8
0
100
AcDbLine
 10
1810.6987
 20
395.047623
 30
0.0
 11
1810.6987
 21
401.144623
 31
0.0
  0
LINE
  5
DBEC
100
AcDbEntity
  8
0
100
AcDbLine
 10
1815.6067
 20
395.047623
 30
0.0
 11
1815.6067
 21
401.144623
 31
0.0
  0
ARC
  5
DBED
100
AcDbEntity
  8
0
100
AcDbCircle
 10
1813.1527
 20
398.974947
 30
0.0
 40
4.630982
100
AcDbArc
 50
238.000676
 51
301.999324
  0
ARC
  5
DBEE
100
AcDbEntity
  8
0
100
AcDbCircle
 10
1827.8747
 20
398.974947
 30
0.0
 40
4.630982
100
AcDbArc
 50
238.000676
 51
301.999324
  0
LINE
  5
DBEF
100
AcDbEntity
  8
0
100
AcDbLine
 10
1825.4207
 20
395.047623
 30
0.0
 11
1825.4207
 21
401.144623
 31
0.0
  0
LINE
  5
DBF0
100
AcDbEntity
  8
0
100
AcDbLine
 10
1830.3287
 20
395.047623
 30
0.0
 11
1828.7637
 21
394.143623
 31
0.0
  0
LINE
  5
DBF1
100
AcDbEntity
  8
0
100
AcDbLine
 10
1830.3287
 20
401.144623
 30
0.0
 11
1830.3287
 21
395.047623
 31
0.0
  0
LINE
  5
DBF2
100
AcDbEntity
  8
0
100
AcDbLine
 10
1824.7017
 20
439.144623
 30
0.0
 11
1825.5137
 21
438.332623
 31
0.0
  0
LINE
  5
DBF3
100
AcDbEntity
  8
0
100
AcDbLine
 10
1815.5137
 20
438.332623
 30
0.0
 11
1816.3257
 21
439.144623
 31
0.0
  0
LINE
  5
DBF4
100
AcDbEntity
  8
0
100
AcDbLine
 10
1815.5137
 20
435.144623
 30
0.0
 11
1815.5137
 21
438.332623
 31
0.0
  0
LINE
  5
DBF5
100
AcDbEntity
  8
0
100
AcDbLine
 10
1816.3257
 20
439.144623
 30
0.0
 11
1824.7017
 21
439.144623
 31
0.0
  0
LINE
  5
DBF6
100
AcDbEntity
  8
0
100
AcDbLine
 10
1825.5137
 20
438.332623
 30
0.0
 11
1825.5137
 21
435.144623
 31
0.0
  0
ARC
  5
DBF7
100
AcDbEntity
  8
0
100
AcDbCircle
 10
1756.861049
 20
497.474947
 30
0.0
 40
4.630982
100
AcDbArc
 50
238.000676
 51
301.999324
  0
LINE
  5
DBF8
100
AcDbEntity
  8
0
100
AcDbLine
 10
1755.972049
 20
492.643623
 30
0.0
 11
1754.407049
 21
493.547623
 31
0.0
  0
LINE
  5
DBF9
100
AcDbEntity
  8
0
100
AcDbLine
 10
1718.222049
 20
547.644623
 30
0.0
 11
1810.222049
 21
547.644623
 31
0.0
  0
LINE
  5
DBFA
100
AcDbEntity
  8
0
100
AcDbLine
 10
1842.222049
 20
532.644623
 30
0.0
 11
1686.222049
 21
532.644623
 31
0.0
  0
LINE
  5
DBFB
100
AcDbEntity
  8
0
100
AcDbLine
 10
1686.222049
 20
516.144623
 30
0.0
 11
1842.222049
 21
516.144623
 31
0.0
  0
LINE
  5
DBFC
100
AcDbEntity
  8
0
100
AcDbLine
 10
1686.222049
 20
499.644623
 30
0.0
 11
1842.222049
 21
499.644623
 31
0.0
  0
LINE
  5
DBFD
100
AcDbEntity
  8
0
100
AcDbLine
 10
1686.222049
 20
532.644623
 30
0.0
 11
1686.222049
 21
499.644623
 31
0.0
  0
ARC
  5
DBFE
100
AcDbEntity
  8
0
100
AcDbCircle
 10
1707.930397
 20
510.306614
 30
0.0
 40
17.462601
100
AcDbArc
 50
253.680072
 51
286.319928
  0
LINE
  5
DBFF
100
AcDbEntity
  8
0
100
AcDbLine
 10
1716.180397
 20
492.643623
 30
0.0
 11
1699.680397
 21
492.643623
 31
0.0
  0
LINE
  5
DC00
100
AcDbEntity
  8
0
100
AcDbLine
 10
1703.023397
 20
493.547623
 30
0.0
 11
1703.023397
 21
499.644623
 31
0.0
  0
LINE
  5
DC01
100
AcDbEntity
  8
0
100
AcDbLine
 10
1698.115397
 20
493.547623
 30
0.0
 11
1698.115397
 21
499.644623
 31
0.0
  0
LINE
  5
DC02
100
AcDbEntity
  8
0
100
AcDbLine
 10
1699.680397
 20
492.643623
 30
0.0
 11
1698.115397
 21
493.547623
 31
0.0
  0
ARC
  5
DC03
100
AcDbEntity
  8
0
100
AcDbCircle
 10
1700.569397
 20
497.474947
 30
0.0
 40
4.630982
100
AcDbArc
 50
238.000676
 51
301.999324
  0
LINE
  5
DC04
100
AcDbEntity
  8
0
100
AcDbLine
 10
1718.919948
 20
484.644623
 30
0.0
 11
1717.935395
 21
456.450713
 31
0.0
  0
LINE
  5
DC05
100
AcDbEntity
  8
0
100
AcDbLine
 10
1717.745397
 20
499.644623
 30
0.0
 11
1717.745397
 21
493.547623
 31
0.0
  0
LINE
  5
DC06
100
AcDbEntity
  8
0
100
AcDbLine
 10
1717.745397
 20
493.547623
 30
0.0
 11
1716.180397
 21
492.643623
 31
0.0
  0
LINE
  5
DC07
100
AcDbEntity
  8
0
100
AcDbLine
 10
1712.837397
 20
493.547623
 30
0.0
 11
1712.837397
 21
499.644623
 31
0.0
  0
ARC
  5
DC08
100
AcDbEntity
  8
0
100
AcDbCircle
 10
1715.291397
 20
497.474947
 30
0.0
 40
4.630982
100
AcDbArc
 50
238.000676
 51
301.999324
  0
LINE
  5
DC09
100
AcDbEntity
  8
0
100
AcDbLine
 10
1718.919948
 20
484.644623
 30
0.0
 11
1717.745397
 21
495.021127
 31
0.0
  0
LINE
  5
DC0A
100
AcDbEntity
  8
0
100
AcDbLine
 10
1754.407049
 20
493.547623
 30
0.0
 11
1754.407049
 21
499.644623
 31
0.0
  0
LINE
  5
DC0B
100
AcDbEntity
  8
0
100
AcDbLine
 10
1703.742397
 20
536.644623
 30
0.0
 11
1712.118397
 21
536.644623
 31
0.0
  0
LINE
  5
DC0C
100
AcDbEntity
  8
0
100
AcDbLine
 10
1702.930397
 20
532.644623
 30
0.0
 11
1702.930397
 21
535.832623
 31
0.0
  0
LINE
  5
DC0D
100
AcDbEntity
  8
0
100
AcDbLine
 10
1702.930397
 20
535.832623
 30
0.0
 11
1703.742397
 21
536.644623
 31
0.0
  0
LINE
  5
DC0E
100
AcDbEntity
  8
0
100
AcDbLine
 10
1715.222049
 20
547.644623
 30
0.0
 11
1712.252859
 21
536.510161
 31
0.0
  0
LINE
  5
DC0F
100
AcDbEntity
  8
0
100
AcDbLine
 10
1712.930397
 20
535.832623
 30
0.0
 11
1712.930397
 21
532.644623
 31
0.0
  0
LINE
  5
DC10
100
AcDbEntity
  8
0
100
AcDbLine
 10
1712.118397
 20
536.644623
 30
0.0
 11
1712.930397
 21
535.832623
 31
0.0
  0
LINE
  5
DC11
100
AcDbEntity
  8
0
100
AcDbLine
 10
1715.222049
 20
547.644623
 30
0.0
 11
1715.222049
 21
570.144623
 31
0.0
  0
LINE
  5
DC12
100
AcDbEntity
  8
0
100
AcDbLine
 10
1842.222049
 20
532.644623
 30
0.0
 11
1842.222049
 21
499.644623
 31
0.0
  0
LINE
  5
DC13
100
AcDbEntity
  8
0
100
AcDbLine
 10
1772.472049
 20
492.643623
 30
0.0
 11
1755.972049
 21
492.643623
 31
0.0
  0
ARC
  5
DC14
100
AcDbEntity
  8
0
100
AcDbCircle
 10
1771.583049
 20
497.474947
 30
0.0
 40
4.630982
100
AcDbArc
 50
238.000676
 51
301.999324
  0
LINE
  5
DC15
100
AcDbEntity
  8
0
100
AcDbLine
 10
1769.129049
 20
493.547623
 30
0.0
 11
1769.129049
 21
499.644623
 31
0.0
  0
LINE
  5
DC16
100
AcDbEntity
  8
0
100
AcDbLine
 10
1774.037049
 20
493.547623
 30
0.0
 11
1772.472049
 21
492.643623
 31
0.0
  0
LINE
  5
DC17
100
AcDbEntity
  8
0
100
AcDbLine
 10
1774.037049
 20
499.644623
 30
0.0
 11
1774.037049
 21
493.547623
 31
0.0
  0
LINE
  5
DC18
100
AcDbEntity
  8
0
100
AcDbLine
 10
1759.315049
 20
493.547623
 30
0.0
 11
1759.315049
 21
499.644623
 31
0.0
  0
ARC
  5
DC19
100
AcDbEntity
  8
0
100
AcDbCircle
 10
1764.222049
 20
510.306614
 30
0.0
 40
17.462601
100
AcDbArc
 50
253.680072
 51
286.319928
  0
LINE
  5
DC1A
100
AcDbEntity
  8
0
100
AcDbLine
 10
1809.524149
 20
484.644623
 30
0.0
 11
1810.508702
 21
456.450713
 31
0.0
  0
LINE
  5
DC1B
100
AcDbEntity
  8
0
100
AcDbLine
 10
1828.7637
 20
492.643623
 30
0.0
 11
1812.2637
 21
492.643623
 31
0.0
  0
ARC
  5
DC1C
100
AcDbEntity
  8
0
100
AcDbCircle
 10
1820.5137
 20
510.306614
 30
0.0
 40
17.462601
100
AcDbArc
 50
253.680072
 51
286.319928
  0
LINE
  5
DC1D
100
AcDbEntity
  8
0
100
AcDbLine
 10
1815.6067
 20
493.547623
 30
0.0
 11
1815.6067
 21
499.644623
 31
0.0
  0
LINE
  5
DC1E
100
AcDbEntity
  8
0
100
AcDbLine
 10
1810.6987
 20
493.547623
 30
0.0
 11
1810.6987
 21
499.644623
 31
0.0
  0
LINE
  5
DC1F
100
AcDbEntity
  8
0
100
AcDbLine
 10
1812.2637
 20
492.643623
 30
0.0
 11
1810.6987
 21
493.547623
 31
0.0
  0
ARC
  5
DC20
100
AcDbEntity
  8
0
100
AcDbCircle
 10
1813.1527
 20
497.474947
 30
0.0
 40
4.630982
100
AcDbArc
 50
238.000676
 51
301.999324
  0
LINE
  5
DC21
100
AcDbEntity
  8
0
100
AcDbLine
 10
1809.524149
 20
484.644623
 30
0.0
 11
1810.6987
 21
495.021127
 31
0.0
  0
ARC
  5
DC22
100
AcDbEntity
  8
0
100
AcDbCircle
 10
1827.8747
 20
497.474947
 30
0.0
 40
4.630982
100
AcDbArc
 50
238.000676
 51
301.999324
  0
LINE
  5
DC23
100
AcDbEntity
  8
0
100
AcDbLine
 10
1825.4207
 20
493.547623
 30
0.0
 11
1825.4207
 21
499.644623
 31
0.0
  0
LINE
  5
DC24
100
AcDbEntity
  8
0
100
AcDbLine
 10
1830.3287
 20
499.644623
 30
0.0
 11
1830.3287
 21
493.547623
 31
0.0
  0
LINE
  5
DC25
100
AcDbEntity
  8
0
100
AcDbLine
 10
1830.3287
 20
493.547623
 30
0.0
 11
1828.7637
 21
492.643623
 31
0.0
  0
LINE
  5
DC26
100
AcDbEntity
  8
0
100
AcDbLine
 10
1768.410049
 20
536.644623
 30
0.0
 11
1769.222049
 21
535.832623
 31
0.0
  0
LINE
  5
DC27
100
AcDbEntity
  8
0
100
AcDbLine
 10
1769.222049
 20
535.832623
 30
0.0
 11
1769.222049
 21
532.644623
 31
0.0
  0
LINE
  5
DC28
100
AcDbEntity
  8
0
100
AcDbLine
 10
1759.222049
 20
535.832623
 30
0.0
 11
1760.034049
 21
536.644623
 31
0.0
  0
LINE
  5
DC29
100
AcDbEntity
  8
0
100
AcDbLine
 10
1759.222049
 20
532.644623
 30
0.0
 11
1759.222049
 21
535.832623
 31
0.0
  0
LINE
  5
DC2A
100
AcDbEntity
  8
0
100
AcDbLine
 10
1760.034049
 20
536.644623
 30
0.0
 11
1768.410049
 21
536.644623
 31
0.0
  0
LINE
  5
DC2B
100
AcDbEntity
  8
0
100
AcDbLine
 10
1813.222049
 20
547.644623
 30
0.0
 11
1816.191238
 21
536.510161
 31
0.0
  0
LINE
  5
DC2C
100
AcDbEntity
  8
0
100
AcDbLine
 10
1824.7017
 20
536.644623
 30
0.0
 11
1825.5137
 21
535.832623
 31
0.0
  0
LINE
  5
DC2D
100
AcDbEntity
  8
0
100
AcDbLine
 10
1815.5137
 20
532.644623
 30
0.0
 11
1815.5137
 21
535.832623
 31
0.0
  0
LINE
  5
DC2E
100
AcDbEntity
  8
0
100
AcDbLine
 10
1815.5137
 20
535.832623
 30
0.0
 11
1816.3257
 21
536.644623
 31
0.0
  0
LINE
  5
DC2F
100
AcDbEntity
  8
0
100
AcDbLine
 10
1816.3257
 20
536.644623
 30
0.0
 11
1824.7017
 21
536.644623
 31
0.0
  0
LINE
  5
DC30
100
AcDbEntity
  8
0
100
AcDbLine
 10
1825.5137
 20
535.832623
 30
0.0
 11
1825.5137
 21
532.644623
 31
0.0
  0
ARC
  5
DC31
100
AcDbEntity
  8
0
100
AcDbCircle
 10
1471.68453
 20
604.144623
 30
0.0
 40
16.0
100
AcDbArc
 50
0.0
 51
65.229958
  0
LINE
  5
DC32
100
AcDbEntity
  8
0
100
AcDbLine
 10
1485.928578
 20
597.144623
 30
0.0
 11
1501.68453
 21
597.144623
 31
0.0
  0
ARC
  5
DC33
100
AcDbEntity
  8
0
100
AcDbCircle
 10
1485.928578
 20
600.144623
 30
0.0
 40
3.0
100
AcDbArc
 50
180.0
 51
270.0
  0
LINE
  5
DC34
100
AcDbEntity
  8
0
100
AcDbLine
 10
1487.68453
 20
604.144623
 30
0.0
 11
1487.68453
 21
597.144623
 31
0.0
  0
INSERT
  5
DC35
100
AcDbEntity
  8
0
100
AcDbBlockReference
  2
YA
 10
1629.92619
 20
610.144623
 30
0.0
 41
3.427225
 42
3.427225
 43
3.427225
  0
LINE
  5
DC36
100
AcDbEntity
  8
0
100
AcDbLine
 10
1725.222049
 20
604.144623
 30
0.0
 11
1803.222049
 21
604.144623
 31
0.0
  0
ARC
  5
DC37
100
AcDbEntity
  8
0
100
AcDbCircle
 10
1764.222049
 20
581.144623
 30
0.0
 40
66.0
100
AcDbArc
 50
90.0
 51
108.126204
  0
LINE
  5
DC38
100
AcDbEntity
  8
0
100
AcDbLine
 10
1751.824317
 20
645.969743
 30
0.0
 11
1695.222049
 21
635.144623
 31
0.0
  0
ARC
  5
DC39
100
AcDbEntity
  8
0
100
AcDbCircle
 10
1750.222049
 20
623.911432
 30
0.0
 40
21.0
100
AcDbArc
 50
108.126204
 51
162.302564
  0
ARC
  5
DC3A
100
AcDbEntity
  8
0
100
AcDbCircle
 10
1695.222049
 20
589.144623
 30
0.0
 40
46.0
100
AcDbArc
 50
55.734114
 51
90.0
  0
LINE
  5
DC3B
100
AcDbEntity
  8
0
100
AcDbLine
 10
1676.222049
 20
635.144623
 30
0.0
 11
1676.222049
 21
585.144623
 31
0.0
  0
LINE
  5
DC3C
100
AcDbEntity
  8
0
100
AcDbLine
 10
1669.222049
 20
628.144623
 30
0.0
 11
1669.222049
 21
610.144623
 31
0.0
  0
LINE
  5
DC3D
100
AcDbEntity
  8
0
100
AcDbLine
 10
1676.222049
 20
585.144623
 30
0.0
 11
1700.222049
 21
585.144623
 31
0.0
  0
LINE
  5
DC3E
100
AcDbEntity
  8
0
100
AcDbLine
 10
1669.222049
 20
610.144623
 30
0.0
 11
1669.222049
 21
592.144623
 31
0.0
  0
LINE
  5
DC3F
100
AcDbEntity
  8
0
100
AcDbLine
 10
1676.222049
 20
585.144623
 30
0.0
 11
1669.222049
 21
592.144623
 31
0.0
  0
LINE
  5
DC40
100
AcDbEntity
  8
0
100
AcDbLine
 10
1676.222049
 20
635.144623
 30
0.0
 11
1695.222049
 21
635.144623
 31
0.0
  0
LINE
  5
DC41
100
AcDbEntity
  8
0
100
AcDbLine
 10
1676.222049
 20
635.144623
 30
0.0
 11
1669.222049
 21
628.144623
 31
0.0
  0
LINE
  5
DC42
100
AcDbEntity
  8
0
100
AcDbLine
 10
1715.222049
 20
594.144623
 30
0.0
 11
1715.222049
 21
588.582165
 31
0.0
  0
ARC
  5
DC43
100
AcDbEntity
  8
0
100
AcDbCircle
 10
1725.222049
 20
594.144623
 30
0.0
 40
10.0
100
AcDbArc
 50
90.0
 51
180.0
  0
ARC
  5
DC44
100
AcDbEntity
  8
0
100
AcDbCircle
 10
1724.499821
 20
632.119173
 30
0.0
 40
6.0
100
AcDbArc
 50
235.734114
 51
342.302564
  0
ARC
  5
DC45
100
AcDbEntity
  8
0
100
AcDbCircle
 10
1797.222049
 20
601.144623
 30
0.0
 40
46.0
100
AcDbArc
 50
51.786789
 51
90.0
  0
ARC
  5
DC46
100
AcDbEntity
  8
0
100
AcDbCircle
 10
1841.222049
 20
631.144623
 30
0.0
 40
46.0
100
AcDbArc
 50
244.971001
 51
270.0
  0
ARC
  5
DC47
100
AcDbEntity
  8
0
100
AcDbCircle
 10
1819.222049
 20
584.027747
 30
0.0
 40
6.0
100
AcDbArc
 50
64.971001
 51
180.0
  0
ARC
  5
DC48
100
AcDbEntity
  8
0
100
AcDbCircle
 10
1803.222049
 20
594.144623
 30
0.0
 40
10.0
100
AcDbArc
 50
0.0
 51
90.0
  0
ARC
  5
DC49
100
AcDbEntity
  8
0
100
AcDbCircle
 10
1831.863065
 20
645.144623
 30
0.0
 40
10.0
100
AcDbArc
 50
231.786789
 51
270.0
  0
LINE
  5
DC4A
100
AcDbEntity
  8
0
100
AcDbLine
 10
1764.222049
 20
647.144623
 30
0.0
 11
1797.222049
 21
647.144623
 31
0.0
  0
LINE
  5
DC4B
100
AcDbEntity
  8
0
100
AcDbLine
 10
1739.222049
 20
809.753253
 30
0.0
 11
1777.222049
 21
809.753253
 31
0.0
  0
LINE
  5
DC4C
100
AcDbEntity
  8
0
100
AcDbLine
 10
1739.222049
 20
830.610638
 30
0.0
 11
1739.222049
 21
809.753253
 31
0.0
  0
ARC
  5
DC4D
100
AcDbEntity
  8
0
100
AcDbCircle
 10
1764.222049
 20
807.753253
 30
0.0
 40
4.99999
100
AcDbArc
 50
156.421772
 51
23.578228
  0
LINE
  5
DC4E
100
AcDbEntity
  8
0
100
AcDbLine
 10
1777.222049
 20
825.509206
 30
0.0
 11
1777.222049
 21
809.753253
 31
0.0
  0
LINE
  5
DC4F
100
AcDbEntity
  8
0
100
AcDbLine
 10
1990.258393
 20
597.144623
 30
0.0
 11
1990.258393
 21
559.144623
 31
0.0
  0
ARC
  5
DC50
100
AcDbEntity
  8
0
100
AcDbCircle
 10
1980.557509
 20
578.144623
 30
0.0
 40
33.540028
100
AcDbArc
 50
330.483041
 51
29.516959
  0
ARC
  5
DC51
100
AcDbEntity
  8
0
100
AcDbCircle
 10
2125.959278
 20
578.144623
 30
0.0
 40
33.540028
100
AcDbArc
 50
150.483041
 51
209.516959
  0
LINE
  5
DC52
100
AcDbEntity
  8
0
100
AcDbLine
 10
2116.258393
 20
597.144623
 30
0.0
 11
2116.258393
 21
559.144623
 31
0.0
  0
LINE
  5
DC53
100
AcDbEntity
  8
0
100
AcDbLine
 10
2007.258393
 20
547.644623
 30
0.0
 11
2099.258393
 21
547.644623
 31
0.0
  0
LINE
  5
DC54
100
AcDbEntity
  8
0
100
AcDbLine
 10
2131.258393
 20
532.644623
 30
0.0
 11
1975.258393
 21
532.644623
 31
0.0
  0
LINE
  5
DC55
100
AcDbEntity
  8
0
100
AcDbLine
 10
1975.258393
 20
516.144623
 30
0.0
 11
2131.258393
 21
516.144623
 31
0.0
  0
LINE
  5
DC57
100
AcDbEntity
  8
0
100
AcDbLine
 10
2074.758393
 20
359.144623
 30
0.0
 11
2031.758393
 21
359.144623
 31
0.0
  0
LINE
  5
DC5C
100
AcDbEntity
  8
0
100
AcDbLine
 10
2030.758393
 20
360.144623
 30
0.0
 11
2030.758393
 21
397.144623
 31
0.0
  0
LINE
  5
DC5D
100
AcDbEntity
  8
0
100
AcDbLine
 10
2030.758393
 20
360.144623
 30
0.0
 11
2031.758393
 21
359.144623
 31
0.0
  0
LINE
  5
DC7F
100
AcDbEntity
  8
0
100
AcDbLine
 10
1975.258393
 20
532.644623
 30
0.0
 11
1975.258393
 21
499.644623
 31
0.0
  0
LINE
  5
DC97
100
AcDbEntity
  8
0
100
AcDbLine
 10
1984.070393
 20
536.644623
 30
0.0
 11
1992.446393
 21
536.644623
 31
0.0
  0
LINE
  5
DC98
100
AcDbEntity
  8
0
100
AcDbLine
 10
1983.258393
 20
535.832623
 30
0.0
 11
1984.070393
 21
536.644623
 31
0.0
  0
LINE
  5
DC99
100
AcDbEntity
  8
0
100
AcDbLine
 10
1983.258393
 20
532.644623
 30
0.0
 11
1983.258393
 21
535.832623
 31
0.0
  0
LINE
  5
DC9A
100
AcDbEntity
  8
0
100
AcDbLine
 10
2004.258393
 20
547.644623
 30
0.0
 11
2001.05022
 21
535.613972
 31
0.0
  0
ARC
  5
DC9B
100
AcDbEntity
  8
0
100
AcDbCircle
 10
1997.18528
 20
536.644623
 30
0.0
 40
4.0
100
AcDbArc
 50
270.0
 51
345.068583
  0
LINE
  5
DC9C
100
AcDbEntity
  8
0
100
AcDbLine
 10
1992.446393
 20
536.644623
 30
0.0
 11
1993.258393
 21
535.832623
 31
0.0
  0
LINE
  5
DC9D
100
AcDbEntity
  8
0
100
AcDbLine
 10
1993.258393
 20
535.832623
 30
0.0
 11
1993.258393
 21
532.644623
 31
0.0
  0
LINE
  5
DC9E
100
AcDbEntity
  8
0
100
AcDbLine
 10
2024.946393
 20
536.644623
 30
0.0
 11
2025.758393
 21
535.832623
 31
0.0
  0
LINE
  5
DC9F
100
AcDbEntity
  8
0
100
AcDbLine
 10
2025.758393
 20
535.832623
 30
0.0
 11
2025.758393
 21
532.644623
 31
0.0
  0
LINE
  5
DCA0
100
AcDbEntity
  8
0
100
AcDbLine
 10
2015.758393
 20
535.832623
 30
0.0
 11
2016.570393
 21
536.644623
 31
0.0
  0
LINE
  5
DCA1
100
AcDbEntity
  8
0
100
AcDbLine
 10
2015.758393
 20
532.644623
 30
0.0
 11
2015.758393
 21
535.832623
 31
0.0
  0
LINE
  5
DCA2
100
AcDbEntity
  8
0
100
AcDbLine
 10
2016.570393
 20
536.644623
 30
0.0
 11
2024.946393
 21
536.644623
 31
0.0
  0
ARC
  5
DCA3
100
AcDbEntity
  8
0
100
AcDbCircle
 10
2006.014346
 20
556.144623
 30
0.0
 40
3.0
100
AcDbArc
 50
0.0
 51
90.0
  0
LINE
  5
DCA4
100
AcDbEntity
  8
0
100
AcDbLine
 10
2004.258393
 20
547.644623
 30
0.0
 11
2004.258393
 21
559.144623
 31
0.0
  0
LINE
  5
DCA5
100
AcDbEntity
  8
0
100
AcDbLine
 10
2006.014346
 20
559.144623
 30
0.0
 11
1990.258393
 21
559.144623
 31
0.0
  0
LINE
  5
DCA9
100
AcDbEntity
  8
0
100
AcDbLine
 10
2075.758393
 20
360.144623
 30
0.0
 11
2075.758393
 21
397.144623
 31
0.0
  0
LINE
  5
DCAA
100
AcDbEntity
  8
0
100
AcDbLine
 10
2074.758393
 20
359.144623
 30
0.0
 11
2075.758393
 21
360.144623
 31
0.0
  0
LINE
  5
DCDF
100
AcDbEntity
  8
0
100
AcDbLine
 10
2102.258393
 20
547.644623
 30
0.0
 11
2105.466567
 21
535.613972
 31
0.0
  0
LINE
  5
DCE0
100
AcDbEntity
  8
0
100
AcDbLine
 10
2090.758393
 20
532.644623
 30
0.0
 11
2090.758393
 21
535.832623
 31
0.0
  0
LINE
  5
DCE1
100
AcDbEntity
  8
0
100
AcDbLine
 10
2090.758393
 20
535.832623
 30
0.0
 11
2089.946393
 21
536.644623
 31
0.0
  0
LINE
  5
DCE2
100
AcDbEntity
  8
0
100
AcDbLine
 10
2080.758393
 20
535.832623
 30
0.0
 11
2080.758393
 21
532.644623
 31
0.0
  0
LINE
  5
DCE3
100
AcDbEntity
  8
0
100
AcDbLine
 10
2081.570393
 20
536.644623
 30
0.0
 11
2080.758393
 21
535.832623
 31
0.0
  0
LINE
  5
DCE4
100
AcDbEntity
  8
0
100
AcDbLine
 10
2089.946393
 20
536.644623
 30
0.0
 11
2081.570393
 21
536.644623
 31
0.0
  0
LINE
  5
DCE5
100
AcDbEntity
  8
0
100
AcDbLine
 10
2122.446393
 20
536.644623
 30
0.0
 11
2114.070393
 21
536.644623
 31
0.0
  0
LINE
  5
DCE6
100
AcDbEntity
  8
0
100
AcDbLine
 10
2114.070393
 20
536.644623
 30
0.0
 11
2113.258393
 21
535.832623
 31
0.0
  0
LINE
  5
DCE7
100
AcDbEntity
  8
0
100
AcDbLine
 10
2113.258393
 20
535.832623
 30
0.0
 11
2113.258393
 21
532.644623
 31
0.0
  0
LINE
  5
DCE8
100
AcDbEntity
  8
0
100
AcDbLine
 10
2123.258393
 20
535.832623
 30
0.0
 11
2122.446393
 21
536.644623
 31
0.0
  0
LINE
  5
DCE9
100
AcDbEntity
  8
0
100
AcDbLine
 10
2123.258393
 20
532.644623
 30
0.0
 11
2123.258393
 21
535.832623
 31
0.0
  0
ARC
  5
DCEA
100
AcDbEntity
  8
0
100
AcDbCircle
 10
2109.331506
 20
536.644623
 30
0.0
 40
4.0
100
AcDbArc
 50
194.931417
 51
270.0
  0
LINE
  5
DCEB
100
AcDbEntity
  8
0
100
AcDbLine
 10
2100.50244
 20
559.144623
 30
0.0
 11
2116.258393
 21
559.144623
 31
0.0
  0
ARC
  5
DCEC
100
AcDbEntity
  8
0
100
AcDbCircle
 10
2100.50244
 20
556.144623
 30
0.0
 40
3.0
100
AcDbArc
 50
90.0
 51
180.0
  0
LINE
  5
DCED
100
AcDbEntity
  8
0
100
AcDbLine
 10
2102.258393
 20
547.644623
 30
0.0
 11
2102.258393
 21
559.144623
 31
0.0
  0
LINE
  5
DCEE
100
AcDbEntity
  8
0
100
AcDbLine
 10
2131.258393
 20
532.644623
 30
0.0
 11
2131.258393
 21
499.644623
 31
0.0
  0
ARC
  5
DCF1
100
AcDbEntity
  8
0
100
AcDbCircle
 10
2039.202936
 20
626.144623
 30
0.0
 40
21.0
100
AcDbArc
 50
90.0
 51
180.0
  0
CIRCLE
  5
DCF2
100
AcDbEntity
  8
0
100
AcDbCircle
 10
2053.258393
 20
610.144623
 30
0.0
 40
25.0
  0
LINE
  5
DCF3
100
AcDbEntity
  8
0
100
AcDbLine
 10
1859.222049
 20
628.144623
 30
0.0
 11
1859.222049
 21
610.144623
 31
0.0
  0
LINE
  5
DCF4
100
AcDbEntity
  8
0
100
AcDbLine
 10
1859.222049
 20
621.744623
 30
0.0
 11
1859.222049
 21
610.144623
 31
0.0
  0
LINE
  5
DCF5
100
AcDbEntity
  8
0
100
AcDbLine
 10
1852.222049
 20
635.144623
 30
0.0
 11
1852.222049
 21
585.144623
 31
0.0
  0
LINE
  5
DCF6
100
AcDbEntity
  8
0
100
AcDbLine
 10
1859.222049
 20
610.144623
 30
0.0
 11
1859.222049
 21
592.144623
 31
0.0
  0
LINE
  5
DCF7
100
AcDbEntity
  8
0
100
AcDbLine
 10
1859.222049
 20
610.144623
 30
0.0
 11
1859.222049
 21
598.544623
 31
0.0
  0
LINE
  5
DCF8
100
AcDbEntity
  8
0
100
AcDbLine
 10
1852.222049
 20
585.144623
 30
0.0
 11
1859.222049
 21
592.144623
 31
0.0
  0
LINE
  5
DCF9
100
AcDbEntity
  8
0
100
AcDbLine
 10
1852.222049
 20
635.144623
 30
0.0
 11
1859.222049
 21
628.144623
 31
0.0
  0
ARC
  5
DCFA
100
AcDbEntity
  8
0
100
AcDbCircle
 10
2020.258393
 20
604.144623
 30
0.0
 40
16.0
100
AcDbArc
 50
114.770042
 51
180.0
  0
ARC
  5
DCFB
100
AcDbEntity
  8
0
100
AcDbCircle
 10
2006.014346
 20
600.144623
 30
0.0
 40
3.0
100
AcDbArc
 50
270.0
 51
0.0
  0
LINE
  5
DCFC
100
AcDbEntity
  8
0
100
AcDbLine
 10
2004.258393
 20
604.144623
 30
0.0
 11
2004.258393
 21
597.144623
 31
0.0
  0
LINE
  5
DCFD
100
AcDbEntity
  8
0
100
AcDbLine
 10
2006.014346
 20
597.144623
 30
0.0
 11
1990.258393
 21
597.144623
 31
0.0
  0
LINE
  5
DCFE
100
AcDbEntity
  8
0
100
AcDbLine
 10
2018.202936
 20
626.144623
 30
0.0
 11
2018.202936
 21
625.936543
 31
0.0
  0
ARC
  5
DCFF
100
AcDbEntity
  8
0
100
AcDbCircle
 10
2010.202936
 20
625.936543
 30
0.0
 40
8.0
100
AcDbArc
 50
294.770042
 51
0.0
  0
ARC
  5
DD00
100
AcDbEntity
  8
0
100
AcDbCircle
 10
2067.31385
 20
626.144623
 30
0.0
 40
21.0
100
AcDbArc
 50
0.0
 51
90.0
  0
ARC
  5
DD01
100
AcDbEntity
  8
0
100
AcDbCircle
 10
2086.258393
 20
604.144623
 30
0.0
 40
16.0
100
AcDbArc
 50
0.0
 51
65.229958
  0
LINE
  5
DD02
100
AcDbEntity
  8
0
100
AcDbLine
 10
2100.50244
 20
597.144623
 30
0.0
 11
2116.258393
 21
597.144623
 31
0.0
  0
ARC
  5
DD03
100
AcDbEntity
  8
0
100
AcDbCircle
 10
2100.50244
 20
600.144623
 30
0.0
 40
3.0
100
AcDbArc
 50
180.0
 51
270.0
  0
LINE
  5
DD04
100
AcDbEntity
  8
0
100
AcDbLine
 10
2102.258393
 20
604.144623
 30
0.0
 11
2102.258393
 21
597.144623
 31
0.0
  0
LINE
  5
DD05
100
AcDbEntity
  8
0
100
AcDbLine
 10
2088.31385
 20
626.144623
 30
0.0
 11
2088.31385
 21
625.936543
 31
0.0
  0
ARC
  5
DD06
100
AcDbEntity
  8
0
100
AcDbCircle
 10
2096.31385
 20
625.936543
 30
0.0
 40
8.0
100
AcDbArc
 50
180.0
 51
245.229958
  0
LINE
  5
DD07
100
AcDbEntity
  8
0
100
AcDbLine
 10
2039.202936
 20
647.144623
 30
0.0
 11
2067.31385
 21
647.144623
 31
0.0
  0
LINE
  5
DD08
100
AcDbEntity
  8
0
100
AcDbLine
 10
1852.222049
 20
1365.066081
 30
0.0
 11
1859.222049
 21
1358.066081
 31
0.0
  0
LINE
  5
DD09
100
AcDbEntity
  8
0
100
AcDbLine
 10
1852.222049
 20
1365.066081
 30
0.0
 11
1852.222049
 21
1315.066081
 31
0.0
  0
ARC
  5
DD0A
100
AcDbEntity
  8
0
100
AcDbCircle
 10
1778.222049
 20
1353.832891
 30
0.0
 40
21.0
100
AcDbArc
 50
17.697436
 51
71.873796
  0
ARC
  5
DD0B
100
AcDbEntity
  8
0
100
AcDbCircle
 10
1833.222049
 20
1319.066081
 30
0.0
 40
46.0
100
AcDbArc
 50
90.0
 51
124.265886
  0
LINE
  5
DD0C
100
AcDbEntity
  8
0
100
AcDbLine
 10
1676.222049
 20
1365.066081
 30
0.0
 11
1669.222049
 21
1358.066081
 31
0.0
  0
LINE
  5
DD0D
100
AcDbEntity
  8
0
100
AcDbLine
 10
1676.222049
 20
1365.066081
 30
0.0
 11
1676.222049
 21
1315.066081
 31
0.0
  0
ARC
  5
DD0E
100
AcDbEntity
  8
0
100
AcDbCircle
 10
1696.581032
 20
1375.066081
 30
0.0
 40
10.0
100
AcDbArc
 50
270.0
 51
308.213211
  0
LINE
  5
DD0F
100
AcDbEntity
  8
0
100
AcDbLine
 10
1852.222049
 20
1315.066081
 30
0.0
 11
1828.222049
 21
1315.066081
 31
0.0
  0
LINE
  5
DD10
100
AcDbEntity
  8
0
100
AcDbLine
 10
1852.222049
 20
847.753253
 30
0.0
 11
1806.364664
 21
847.753253
 31
0.0
  0
LINE
  5
DD11
100
AcDbEntity
  8
0
100
AcDbLine
 10
1852.222049
 20
897.753253
 30
0.0
 11
1806.364664
 21
897.753253
 31
0.0
  0
LINE
  5
DD12
100
AcDbEntity
  8
0
100
AcDbLine
 10
1747.722049
 20
1090.066081
 30
0.0
 11
1747.722049
 21
1119.066081
 31
0.0
  0
LINE
  5
DD13
100
AcDbEntity
  8
0
100
AcDbLine
 10
1702.722049
 20
1090.066081
 30
0.0
 11
1702.722049
 21
1124.065081
 31
0.0
  0
INSERT
  5
DD14
100
AcDbEntity
  8
0
100
AcDbBlockReference
  2
YA
 10
1629.92619
 20
872.753253
 30
0.0
 41
3.427225
 42
3.427225
 43
3.427225
  0
ARC
  5
DD15
100
AcDbEntity
  8
0
100
AcDbCircle
 10
1764.222049
 20
872.753253
 30
0.0
 40
78.0
100
AcDbArc
 50
18.693941
 51
161.306059
  0
ARC
  5
DD16
100
AcDbEntity
  8
0
100
AcDbCircle
 10
1764.222049
 20
872.753253
 30
0.0
 40
49.0
100
AcDbArc
 50
30.677424
 51
149.322576
  0
ARC
  5
DD17
100
AcDbEntity
  8
0
100
AcDbCircle
 10
1764.222049
 20
872.753253
 30
0.0
 40
35.055457
100
AcDbArc
 50
75.0
 51
171.799872
  0
LINE
  5
DD18
100
AcDbEntity
  8
0
100
AcDbLine
 10
1739.222049
 20
935.753253
 30
0.0
 11
1777.222049
 21
935.753253
 31
0.0
  0
CIRCLE
  5
DD19
100
AcDbEntity
  8
0
100
AcDbCircle
 10
1707.930397
 20
905.253253
 30
0.0
 40
4.99999
  0
ARC
  5
DD1A
100
AcDbEntity
  8
0
100
AcDbCircle
 10
1764.222049
 20
872.753253
 30
0.0
 40
54.0
100
AcDbArc
 50
117.578468
 51
152.421532
  0
LINE
  5
DD1B
100
AcDbEntity
  8
0
100
AcDbLine
 10
1676.222049
 20
847.753253
 30
0.0
 11
1726.206166
 21
847.753253
 31
0.0
  0
LINE
  5
DD1C
100
AcDbEntity
  8
0
100
AcDbLine
 10
1676.222049
 20
897.753253
 30
0.0
 11
1726.206166
 21
897.753253
 31
0.0
  0
LINE
  5
DD1D
100
AcDbEntity
  8
0
100
AcDbLine
 10
1695.222049
 20
877.753253
 30
0.0
 11
1742.69842
 21
877.753253
 31
0.0
  0
LINE
  5
DD1E
100
AcDbEntity
  8
0
100
AcDbLine
 10
1695.222049
 20
867.753253
 30
0.0
 11
1743.688715
 21
867.753253
 31
0.0
  0
LINE
  5
DD1F
100
AcDbEntity
  8
0
100
AcDbLine
 10
1676.222049
 20
897.753253
 30
0.0
 11
1676.222049
 21
847.753253
 31
0.0
  0
LINE
  5
DD20
100
AcDbEntity
  8
0
100
AcDbLine
 10
1691.212343
 20
875.753253
 30
0.0
 11
1691.212343
 21
869.753253
 31
0.0
  0
LINE
  5
DD21
100
AcDbEntity
  8
0
100
AcDbLine
 10
1669.222049
 20
890.753253
 30
0.0
 11
1669.222049
 21
872.753253
 31
0.0
  0
LINE
  5
DD22
100
AcDbEntity
  8
0
100
AcDbLine
 10
1669.222049
 20
872.753253
 30
0.0
 11
1669.222049
 21
854.753253
 31
0.0
  0
LINE
  5
DD23
100
AcDbEntity
  8
0
100
AcDbLine
 10
1676.222049
 20
847.753253
 30
0.0
 11
1669.222049
 21
854.753253
 31
0.0
  0
ARC
  5
DD24
100
AcDbEntity
  8
0
100
AcDbCircle
 10
1696.212343
 20
862.753253
 30
0.0
 40
5.0
100
AcDbArc
 50
90.0
 51
180.0
  0
LINE
  5
DD25
100
AcDbEntity
  8
0
100
AcDbLine
 10
1676.222049
 20
897.753253
 30
0.0
 11
1669.222049
 21
890.753253
 31
0.0
  0
ARC
  5
DD26
100
AcDbEntity
  8
0
100
AcDbCircle
 10
1696.212343
 20
882.753253
 30
0.0
 40
5.0
100
AcDbArc
 50
180.0
 51
270.0
  0
ARC
  5
DD27
100
AcDbEntity
  8
0
100
AcDbCircle
 10
1726.206166
 20
842.753253
 30
0.0
 40
5.0
100
AcDbArc
 50
36.684138
 51
90.0
  0
ARC
  5
DD28
100
AcDbEntity
  8
0
100
AcDbCircle
 10
1742.69842
 20
862.753253
 30
0.0
 40
5.0
100
AcDbArc
 50
0.0
 51
90.0
  0
ARC
  5
DD29
100
AcDbEntity
  8
0
100
AcDbCircle
 10
1726.206166
 20
902.753253
 30
0.0
 40
5.0
100
AcDbArc
 50
270.0
 51
323.315862
  0
ARC
  5
DD2A
100
AcDbEntity
  8
0
100
AcDbCircle
 10
1742.69842
 20
882.753253
 30
0.0
 40
5.0
100
AcDbArc
 50
270.0
 51
0.0
  0
LINE
  5
DD2B
100
AcDbEntity
  8
0
100
AcDbLine
 10
1739.222049
 20
914.895868
 30
0.0
 11
1739.222049
 21
935.753253
 31
0.0
  0
LINE
  5
DD2C
100
AcDbEntity
  8
0
100
AcDbLine
 10
1806.364664
 20
897.753253
 30
0.0
 11
1773.295068
 21
906.614224
 31
0.0
  0
ARC
  5
DD2D
100
AcDbEntity
  8
0
100
AcDbCircle
 10
1764.222049
 20
872.753253
 30
0.0
 40
54.0
100
AcDbArc
 50
27.578468
 51
76.069736
  0
CIRCLE
  5
DD2E
100
AcDbEntity
  8
0
100
AcDbCircle
 10
1820.5137
 20
905.253253
 30
0.0
 40
4.99999
  0
LINE
  5
DD2F
100
AcDbEntity
  8
0
100
AcDbLine
 10
1806.364664
 20
893.753253
 30
0.0
 11
1806.364664
 21
851.753253
 31
0.0
  0
ARC
  5
DD30
100
AcDbEntity
  8
0
100
AcDbCircle
 10
1764.222049
 20
937.753253
 30
0.0
 40
4.99999
100
AcDbArc
 50
336.421772
 51
203.578228
  0
LINE
  5
DD31
100
AcDbEntity
  8
0
100
AcDbLine
 10
1777.222049
 20
919.9973
 30
0.0
 11
1777.222049
 21
935.753253
 31
0.0
  0
LINE
  5
DD32
100
AcDbEntity
  8
0
100
AcDbLine
 10
1703.722049
 20
1089.066081
 30
0.0
 11
1746.722049
 21
1089.066081
 31
0.0
  0
LINE
  5
DD33
100
AcDbEntity
  8
0
100
AcDbLine
 10
1703.722049
 20
1089.066081
 30
0.0
 11
1702.722049
 21
1090.066081
 31
0.0
  0
LINE
  5
DD34
100
AcDbEntity
  8
0
100
AcDbLine
 10
1746.722049
 20
1089.066081
 30
0.0
 11
1747.722049
 21
1090.066081
 31
0.0
  0
LINE
  5
DD35
100
AcDbEntity
  8
0
100
AcDbLine
 10
1842.222049
 20
1262.566081
 30
0.0
 11
1842.222049
 21
1229.566081
 31
0.0
  0
LINE
  5
DD36
100
AcDbEntity
  8
0
100
AcDbLine
 10
1686.222049
 20
1262.566081
 30
0.0
 11
1686.222049
 21
1229.566081
 31
0.0
  0
ARC
  5
DD37
100
AcDbEntity
  8
0
100
AcDbCircle
 10
1756.861049
 20
1227.396405
 30
0.0
 40
4.630982
100
AcDbArc
 50
238.000676
 51
301.999324
  0
LINE
  5
DD38
100
AcDbEntity
  8
0
100
AcDbLine
 10
1754.407049
 20
1223.469081
 30
0.0
 11
1755.972049
 21
1222.565081
 31
0.0
  0
ARC
  5
DD39
100
AcDbEntity
  8
0
100
AcDbCircle
 10
1756.861049
 20
1128.896405
 30
0.0
 40
4.630982
100
AcDbArc
 50
238.000676
 51
301.999324
  0
LINE
  5
DD3A
100
AcDbEntity
  8
0
100
AcDbLine
 10
1754.407049
 20
1124.969081
 30
0.0
 11
1755.972049
 21
1124.065081
 31
0.0
  0
LINE
  5
DD3B
100
AcDbEntity
  8
0
100
AcDbLine
 10
1686.222049
 20
1131.066081
 30
0.0
 11
1842.222049
 21
1131.066081
 31
0.0
  0
LINE
  5
DD3C
100
AcDbEntity
  8
0
100
AcDbLine
 10
1842.222049
 20
1148.066081
 30
0.0
 11
1686.222049
 21
1148.066081
 31
0.0
  0
LINE
  5
DD3D
100
AcDbEntity
  8
0
100
AcDbLine
 10
1842.222049
 20
1165.066081
 30
0.0
 11
1686.222049
 21
1165.066081
 31
0.0
  0
LINE
  5
DD3E
100
AcDbEntity
  8
0
100
AcDbLine
 10
1842.222049
 20
1229.566081
 30
0.0
 11
1686.222049
 21
1229.566081
 31
0.0
  0
LINE
  5
DD3F
100
AcDbEntity
  8
0
100
AcDbLine
 10
1749.722049
 20
1109.066081
 30
0.0
 11
1787.222049
 21
1109.066081
 31
0.0
  0
LINE
  5
DD40
100
AcDbEntity
  8
0
100
AcDbLine
 10
1783.448546
 20
1119.066081
 30
0.0
 11
1744.995551
 21
1119.066081
 31
0.0
  0
LINE
  5
DD41
100
AcDbEntity
  8
0
100
AcDbLine
 10
1702.930397
 20
1168.254081
 30
0.0
 11
1702.930397
 21
1165.066081
 31
0.0
  0
LINE
  5
DD42
100
AcDbEntity
  8
0
100
AcDbLine
 10
1717.935395
 20
1186.372172
 30
0.0
 11
1713.020841
 21
1168.030805
 31
0.0
  0
LINE
  5
DD43
100
AcDbEntity
  8
0
100
AcDbLine
 10
1712.930397
 20
1165.066081
 30
0.0
 11
1712.930397
 21
1168.254081
 31
0.0
  0
LINE
  5
DD44
100
AcDbEntity
  8
0
100
AcDbLine
 10
1699.680397
 20
1124.065081
 30
0.0
 11
1716.180397
 21
1124.065081
 31
0.0
  0
ARC
  5
DD45
100
AcDbEntity
  8
0
100
AcDbCircle
 10
1707.930397
 20
1141.728073
 30
0.0
 40
17.462601
100
AcDbArc
 50
253.680072
 51
286.319928
  0
LINE
  5
DD46
100
AcDbEntity
  8
0
100
AcDbLine
 10
1686.222049
 20
1131.066081
 30
0.0
 11
1686.222049
 21
1165.066081
 31
0.0
  0
ARC
  5
DD47
100
AcDbEntity
  8
0
100
AcDbCircle
 10
1700.569397
 20
1128.896405
 30
0.0
 40
4.630982
100
AcDbArc
 50
238.000676
 51
301.999324
  0
LINE
  5
DD48
100
AcDbEntity
  8
0
100
AcDbLine
 10
1703.023397
 20
1124.969081
 30
0.0
 11
1703.023397
 21
1131.066081
 31
0.0
  0
LINE
  5
DD49
100
AcDbEntity
  8
0
100
AcDbLine
 10
1698.115397
 20
1124.969081
 30
0.0
 11
1699.680397
 21
1124.065081
 31
0.0
  0
LINE
  5
DD4A
100
AcDbEntity
  8
0
100
AcDbLine
 10
1698.115397
 20
1131.066081
 30
0.0
 11
1698.115397
 21
1124.969081
 31
0.0
  0
ARC
  5
DD4B
100
AcDbEntity
  8
0
100
AcDbCircle
 10
1728.829744
 20
1125.066081
 30
0.0
 40
6.0
100
AcDbArc
 50
30.0
 51
90.0
  0
ARC
  5
DD4C
100
AcDbEntity
  8
0
100
AcDbCircle
 10
1715.291397
 20
1128.896405
 30
0.0
 40
4.630982
100
AcDbArc
 50
238.000676
 51
301.999324
  0
LINE
  5
DD4D
100
AcDbEntity
  8
0
100
AcDbLine
 10
1712.837397
 20
1124.969081
 30
0.0
 11
1712.837397
 21
1131.066081
 31
0.0
  0
LINE
  5
DD4E
100
AcDbEntity
  8
0
100
AcDbLine
 10
1717.745397
 20
1124.969081
 30
0.0
 11
1717.745397
 21
1131.066081
 31
0.0
  0
LINE
  5
DD4F
100
AcDbEntity
  8
0
100
AcDbLine
 10
1717.745397
 20
1124.969081
 30
0.0
 11
1716.180397
 21
1124.065081
 31
0.0
  0
LINE
  5
DD50
100
AcDbEntity
  8
0
100
AcDbLine
 10
1754.407049
 20
1131.066081
 30
0.0
 11
1754.407049
 21
1124.969081
 31
0.0
  0
ARC
  5
DD51
100
AcDbEntity
  8
0
100
AcDbCircle
 10
1749.722049
 20
1107.066081
 30
0.0
 40
2.0
100
AcDbArc
 50
90.0
 51
180.0
  0
LINE
  5
DD52
100
AcDbEntity
  8
0
100
AcDbLine
 10
1736.335297
 20
1124.066081
 30
0.0
 11
1734.025896
 21
1128.066081
 31
0.0
  0
ARC
  5
DD53
100
AcDbEntity
  8
0
100
AcDbCircle
 10
1744.995551
 20
1129.066081
 30
0.0
 40
10.0
100
AcDbArc
 50
210.0
 51
270.0
  0
LINE
  5
DD54
100
AcDbEntity
  8
0
100
AcDbLine
 10
1699.680397
 20
1222.565081
 30
0.0
 11
1716.180397
 21
1222.565081
 31
0.0
  0
ARC
  5
DD55
100
AcDbEntity
  8
0
100
AcDbCircle
 10
1707.930397
 20
1240.228073
 30
0.0
 40
17.462601
100
AcDbArc
 50
253.680072
 51
286.319928
  0
LINE
  5
DD56
100
AcDbEntity
  8
0
100
AcDbLine
 10
1712.118397
 20
1169.066081
 30
0.0
 11
1703.742397
 21
1169.066081
 31
0.0
  0
LINE
  5
DD57
100
AcDbEntity
  8
0
100
AcDbLine
 10
1703.742397
 20
1169.066081
 30
0.0
 11
1702.930397
 21
1168.254081
 31
0.0
  0
LINE
  5
DD58
100
AcDbEntity
  8
0
100
AcDbLine
 10
1698.115397
 20
1229.566081
 30
0.0
 11
1698.115397
 21
1223.469081
 31
0.0
  0
LINE
  5
DD59
100
AcDbEntity
  8
0
100
AcDbLine
 10
1698.115397
 20
1223.469081
 30
0.0
 11
1699.680397
 21
1222.565081
 31
0.0
  0
LINE
  5
DD5A
100
AcDbEntity
  8
0
100
AcDbLine
 10
1703.023397
 20
1223.469081
 30
0.0
 11
1703.023397
 21
1229.566081
 31
0.0
  0
ARC
  5
DD5B
100
AcDbEntity
  8
0
100
AcDbCircle
 10
1700.569397
 20
1227.396405
 30
0.0
 40
4.630982
100
AcDbArc
 50
238.000676
 51
301.999324
  0
LINE
  5
DD5C
100
AcDbEntity
  8
0
100
AcDbLine
 10
1718.919948
 20
1214.566081
 30
0.0
 11
1717.935395
 21
1186.372172
 31
0.0
  0
LINE
  5
DD5D
100
AcDbEntity
  8
0
100
AcDbLine
 10
1712.930397
 20
1168.254081
 30
0.0
 11
1712.118397
 21
1169.066081
 31
0.0
  0
ARC
  5
DD5E
100
AcDbEntity
  8
0
100
AcDbCircle
 10
1715.291397
 20
1227.396405
 30
0.0
 40
4.630982
100
AcDbArc
 50
238.000676
 51
301.999324
  0
LINE
  5
DD5F
100
AcDbEntity
  8
0
100
AcDbLine
 10
1712.837397
 20
1223.469081
 30
0.0
 11
1712.837397
 21
1229.566081
 31
0.0
  0
LINE
  5
DD60
100
AcDbEntity
  8
0
100
AcDbLine
 10
1717.745397
 20
1223.469081
 30
0.0
 11
1717.745397
 21
1229.566081
 31
0.0
  0
LINE
  5
DD61
100
AcDbEntity
  8
0
100
AcDbLine
 10
1716.180397
 20
1222.565081
 30
0.0
 11
1717.745397
 21
1223.469081
 31
0.0
  0
LINE
  5
DD62
100
AcDbEntity
  8
0
100
AcDbLine
 10
1718.919948
 20
1214.566081
 30
0.0
 11
1717.745397
 21
1224.942586
 31
0.0
  0
LINE
  5
DD63
100
AcDbEntity
  8
0
100
AcDbLine
 10
1754.407049
 20
1229.566081
 30
0.0
 11
1754.407049
 21
1223.469081
 31
0.0
  0
LINE
  5
DD64
100
AcDbEntity
  8
0
100
AcDbLine
 10
1769.222049
 20
1165.066081
 30
0.0
 11
1769.222049
 21
1168.254081
 31
0.0
  0
LINE
  5
DD65
100
AcDbEntity
  8
0
100
AcDbLine
 10
1759.222049
 20
1168.254081
 30
0.0
 11
1759.222049
 21
1165.066081
 31
0.0
  0
LINE
  5
DD66
100
AcDbEntity
  8
0
100
AcDbLine
 10
1815.5137
 20
1168.254081
 30
0.0
 11
1815.5137
 21
1165.066081
 31
0.0
  0
LINE
  5
DD67
100
AcDbEntity
  8
0
100
AcDbLine
 10
1825.5137
 20
1165.066081
 30
0.0
 11
1825.5137
 21
1168.254081
 31
0.0
  0
LINE
  5
DD68
100
AcDbEntity
  8
0
100
AcDbLine
 10
1810.508702
 20
1186.372172
 30
0.0
 11
1815.423256
 21
1168.030805
 31
0.0
  0
LINE
  5
DD69
100
AcDbEntity
  8
0
100
AcDbLine
 10
1755.972049
 20
1124.065081
 30
0.0
 11
1772.472049
 21
1124.065081
 31
0.0
  0
LINE
  5
DD6A
100
AcDbEntity
  8
0
100
AcDbLine
 10
1769.129049
 20
1124.969081
 30
0.0
 11
1769.129049
 21
1131.066081
 31
0.0
  0
LINE
  5
DD6B
100
AcDbEntity
  8
0
100
AcDbLine
 10
1774.037049
 20
1124.969081
 30
0.0
 11
1774.037049
 21
1131.066081
 31
0.0
  0
LINE
  5
DD6C
100
AcDbEntity
  8
0
100
AcDbLine
 10
1772.472049
 20
1124.065081
 30
0.0
 11
1774.037049
 21
1124.969081
 31
0.0
  0
ARC
  5
DD6D
100
AcDbEntity
  8
0
100
AcDbCircle
 10
1771.583049
 20
1128.896405
 30
0.0
 40
4.630982
100
AcDbArc
 50
238.000676
 51
301.999324
  0
LINE
  5
DD6E
100
AcDbEntity
  8
0
100
AcDbLine
 10
1759.315049
 20
1124.969081
 30
0.0
 11
1759.315049
 21
1131.066081
 31
0.0
  0
ARC
  5
DD6F
100
AcDbEntity
  8
0
100
AcDbCircle
 10
1764.222049
 20
1141.728073
 30
0.0
 40
17.462601
100
AcDbArc
 50
253.680072
 51
286.319928
  0
LINE
  5
DD70
100
AcDbEntity
  8
0
100
AcDbLine
 10
1789.222049
 20
1111.066081
 30
0.0
 11
1789.222049
 21
1120.901115
 31
0.0
  0
LINE
  5
DD71
100
AcDbEntity
  8
0
100
AcDbLine
 10
1792.1088
 20
1124.066081
 30
0.0
 11
1794.418201
 21
1128.066081
 31
0.0
  0
ARC
  5
DD72
100
AcDbEntity
  8
0
100
AcDbCircle
 10
1799.614353
 20
1125.066081
 30
0.0
 40
6.0
100
AcDbArc
 50
90.0
 51
150.0
  0
ARC
  5
DD73
100
AcDbEntity
  8
0
100
AcDbCircle
 10
1787.222049
 20
1111.066081
 30
0.0
 40
2.0
100
AcDbArc
 50
270.0
 51
0.0
  0
ARC
  5
DD74
100
AcDbEntity
  8
0
100
AcDbCircle
 10
1783.448546
 20
1129.066081
 30
0.0
 40
10.0
100
AcDbArc
 50
270.0
 51
330.0
  0
LINE
  5
DD75
100
AcDbEntity
  8
0
100
AcDbLine
 10
1842.222049
 20
1131.066081
 30
0.0
 11
1842.222049
 21
1165.066081
 31
0.0
  0
LINE
  5
DD76
100
AcDbEntity
  8
0
100
AcDbLine
 10
1812.2637
 20
1124.065081
 30
0.0
 11
1828.7637
 21
1124.065081
 31
0.0
  0
ARC
  5
DD77
100
AcDbEntity
  8
0
100
AcDbCircle
 10
1820.5137
 20
1141.728073
 30
0.0
 40
17.462601
100
AcDbArc
 50
253.680072
 51
286.319928
  0
ARC
  5
DD78
100
AcDbEntity
  8
0
100
AcDbCircle
 10
1813.1527
 20
1128.896405
 30
0.0
 40
4.630982
100
AcDbArc
 50
238.000676
 51
301.999324
  0
LINE
  5
DD79
100
AcDbEntity
  8
0
100
AcDbLine
 10
1815.6067
 20
1124.969081
 30
0.0
 11
1815.6067
 21
1131.066081
 31
0.0
  0
LINE
  5
DD7A
100
AcDbEntity
  8
0
100
AcDbLine
 10
1810.6987
 20
1124.969081
 30
0.0
 11
1812.2637
 21
1124.065081
 31
0.0
  0
LINE
  5
DD7B
100
AcDbEntity
  8
0
100
AcDbLine
 10
1810.6987
 20
1131.066081
 30
0.0
 11
1810.6987
 21
1124.969081
 31
0.0
  0
ARC
  5
DD7C
100
AcDbEntity
  8
0
100
AcDbCircle
 10
1827.8747
 20
1128.896405
 30
0.0
 40
4.630982
100
AcDbArc
 50
238.000676
 51
301.999324
  0
LINE
  5
DD7D
100
AcDbEntity
  8
0
100
AcDbLine
 10
1825.4207
 20
1124.969081
 30
0.0
 11
1825.4207
 21
1131.066081
 31
0.0
  0
LINE
  5
DD7E
100
AcDbEntity
  8
0
100
AcDbLine
 10
1828.7637
 20
1124.065081
 30
0.0
 11
1830.3287
 21
1124.969081
 31
0.0
  0
LINE
  5
DD7F
100
AcDbEntity
  8
0
100
AcDbLine
 10
1830.3287
 20
1124.969081
 30
0.0
 11
1830.3287
 21
1131.066081
 31
0.0
  0
LINE
  5
DD80
100
AcDbEntity
  8
0
100
AcDbLine
 10
1769.222049
 20
1168.254081
 30
0.0
 11
1768.410049
 21
1169.066081
 31
0.0
  0
LINE
  5
DD81
100
AcDbEntity
  8
0
100
AcDbLine
 10
1760.034049
 20
1169.066081
 30
0.0
 11
1759.222049
 21
1168.254081
 31
0.0
  0
LINE
  5
DD82
100
AcDbEntity
  8
0
100
AcDbLine
 10
1768.410049
 20
1169.066081
 30
0.0
 11
1760.034049
 21
1169.066081
 31
0.0
  0
LINE
  5
DD83
100
AcDbEntity
  8
0
100
AcDbLine
 10
1755.972049
 20
1222.565081
 30
0.0
 11
1772.472049
 21
1222.565081
 31
0.0
  0
ARC
  5
DD84
100
AcDbEntity
  8
0
100
AcDbCircle
 10
1771.583049
 20
1227.396405
 30
0.0
 40
4.630982
100
AcDbArc
 50
238.000676
 51
301.999324
  0
LINE
  5
DD85
100
AcDbEntity
  8
0
100
AcDbLine
 10
1772.472049
 20
1222.565081
 30
0.0
 11
1774.037049
 21
1223.469081
 31
0.0
  0
LINE
  5
DD86
100
AcDbEntity
  8
0
100
AcDbLine
 10
1774.037049
 20
1223.469081
 30
0.0
 11
1774.037049
 21
1229.566081
 31
0.0
  0
LINE
  5
DD87
100
AcDbEntity
  8
0
100
AcDbLine
 10
1769.129049
 20
1223.469081
 30
0.0
 11
1769.129049
 21
1229.566081
 31
0.0
  0
LINE
  5
DD88
100
AcDbEntity
  8
0
100
AcDbLine
 10
1759.315049
 20
1223.469081
 30
0.0
 11
1759.315049
 21
1229.566081
 31
0.0
  0
ARC
  5
DD89
100
AcDbEntity
  8
0
100
AcDbCircle
 10
1764.222049
 20
1240.228073
 30
0.0
 40
17.462601
100
AcDbArc
 50
253.680072
 51
286.319928
  0
LINE
  5
DD8A
100
AcDbEntity
  8
0
100
AcDbLine
 10
1809.524149
 20
1214.566081
 30
0.0
 11
1810.508702
 21
1186.372172
 31
0.0
  0
LINE
  5
DD8B
100
AcDbEntity
  8
0
100
AcDbLine
 10
1825.5137
 20
1168.254081
 30
0.0
 11
1824.7017
 21
1169.066081
 31
0.0
  0
LINE
  5
DD8C
100
AcDbEntity
  8
0
100
AcDbLine
 10
1816.3257
 20
1169.066081
 30
0.0
 11
1815.5137
 21
1168.254081
 31
0.0
  0
LINE
  5
DD8D
100
AcDbEntity
  8
0
100
AcDbLine
 10
1824.7017
 20
1169.066081
 30
0.0
 11
1816.3257
 21
1169.066081
 31
0.0
  0
LINE
  5
DD8E
100
AcDbEntity
  8
0
100
AcDbLine
 10
1812.2637
 20
1222.565081
 30
0.0
 11
1828.7637
 21
1222.565081
 31
0.0
  0
ARC
  5
DD8F
100
AcDbEntity
  8
0
100
AcDbCircle
 10
1820.5137
 20
1240.228073
 30
0.0
 40
17.462601
100
AcDbArc
 50
253.680072
 51
286.319928
  0
LINE
  5
DD90
100
AcDbEntity
  8
0
100
AcDbLine
 10
1810.6987
 20
1229.566081
 30
0.0
 11
1810.6987
 21
1223.469081
 31
0.0
  0
LINE
  5
DD91
100
AcDbEntity
  8
0
100
AcDbLine
 10
1810.6987
 20
1223.469081
 30
0.0
 11
1812.2637
 21
1222.565081
 31
0.0
  0
LINE
  5
DD92
100
AcDbEntity
  8
0
100
AcDbLine
 10
1815.6067
 20
1223.469081
 30
0.0
 11
1815.6067
 21
1229.566081
 31
0.0
  0
ARC
  5
DD93
100
AcDbEntity
  8
0
100
AcDbCircle
 10
1813.1527
 20
1227.396405
 30
0.0
 40
4.630982
100
AcDbArc
 50
238.000676
 51
301.999324
  0
LINE
  5
DD94
100
AcDbEntity
  8
0
100
AcDbLine
 10
1809.524149
 20
1214.566081
 30
0.0
 11
1810.6987
 21
1224.942586
 31
0.0
  0
ARC
  5
DD95
100
AcDbEntity
  8
0
100
AcDbCircle
 10
1827.8747
 20
1227.396405
 30
0.0
 40
4.630982
100
AcDbArc
 50
238.000676
 51
301.999324
  0
LINE
  5
DD96
100
AcDbEntity
  8
0
100
AcDbLine
 10
1825.4207
 20
1223.469081
 30
0.0
 11
1825.4207
 21
1229.566081
 31
0.0
  0
LINE
  5
DD97
100
AcDbEntity
  8
0
100
AcDbLine
 10
1830.3287
 20
1223.469081
 30
0.0
 11
1830.3287
 21
1229.566081
 31
0.0
  0
LINE
  5
DD98
100
AcDbEntity
  8
0
100
AcDbLine
 10
1828.7637
 20
1222.565081
 30
0.0
 11
1830.3287
 21
1223.469081
 31
0.0
  0
LINE
  5
DD99
100
AcDbEntity
  8
0
100
AcDbLine
 10
1803.222049
 20
1334.066081
 30
0.0
 11
1725.222049
 21
1334.066081
 31
0.0
  0
LINE
  5
DD9A
100
AcDbEntity
  8
0
100
AcDbLine
 10
1810.222049
 20
1277.566081
 30
0.0
 11
1718.222049
 21
1277.566081
 31
0.0
  0
LINE
  5
DD9B
100
AcDbEntity
  8
0
100
AcDbLine
 10
1686.222049
 20
1262.566081
 30
0.0
 11
1842.222049
 21
1262.566081
 31
0.0
  0
LINE
  5
DD9C
100
AcDbEntity
  8
0
100
AcDbLine
 10
1842.222049
 20
1246.066081
 30
0.0
 11
1686.222049
 21
1246.066081
 31
0.0
  0
CIRCLE
  5
DD9D
100
AcDbEntity
  8
0
100
AcDbCircle
 10
1770.222049
 20
1308.066081
 30
0.0
 40
19.0
  0
LINE
  5
DD9E
100
AcDbEntity
  8
0
100
AcDbLine
 10
1715.222049
 20
1277.566081
 30
0.0
 11
1715.222049
 21
1313.949205
 31
0.0
  0
ARC
  5
DD9F
100
AcDbEntity
  8
0
100
AcDbCircle
 10
1708.148935
 20
1266.566081
 30
0.0
 40
4.0
100
AcDbArc
 50
270.0
 51
345.068583
  0
LINE
  5
DDA0
100
AcDbEntity
  8
0
100
AcDbLine
 10
1712.118397
 20
1266.566081
 30
0.0
 11
1703.742397
 21
1266.566081
 31
0.0
  0
LINE
  5
DDA1
100
AcDbEntity
  8
0
100
AcDbLine
 10
1703.742397
 20
1266.566081
 30
0.0
 11
1702.930397
 21
1265.754081
 31
0.0
  0
LINE
  5
DDA2
100
AcDbEntity
  8
0
100
AcDbLine
 10
1702.930397
 20
1265.754081
 30
0.0
 11
1702.930397
 21
1262.566081
 31
0.0
  0
LINE
  5
DDA3
100
AcDbEntity
  8
0
100
AcDbLine
 10
1715.222049
 20
1277.566081
 30
0.0
 11
1712.013875
 21
1265.53543
 31
0.0
  0
LINE
  5
DDA4
100
AcDbEntity
  8
0
100
AcDbLine
 10
1712.930397
 20
1265.754081
 30
0.0
 11
1712.118397
 21
1266.566081
 31
0.0
  0
LINE
  5
DDA5
100
AcDbEntity
  8
0
100
AcDbLine
 10
1712.930397
 20
1262.566081
 30
0.0
 11
1712.930397
 21
1265.754081
 31
0.0
  0
ARC
  5
DDA6
100
AcDbEntity
  8
0
100
AcDbCircle
 10
1709.222049
 20
1313.949205
 30
0.0
 40
6.0
100
AcDbArc
 50
0.0
 51
115.028999
  0
LINE
  5
DDA7
100
AcDbEntity
  8
0
100
AcDbLine
 10
1669.222049
 20
1340.066081
 30
0.0
 11
1669.222049
 21
1322.066081
 31
0.0
  0
LINE
  5
DDA8
100
AcDbEntity
  8
0
100
AcDbLine
 10
1676.222049
 20
1315.066081
 30
0.0
 11
1687.222049
 21
1315.066081
 31
0.0
  0
LINE
  5
DDA9
100
AcDbEntity
  8
0
100
AcDbLine
 10
1676.222049
 20
1315.066081
 30
0.0
 11
1669.222049
 21
1322.066081
 31
0.0
  0
ARC
  5
DDAA
100
AcDbEntity
  8
0
100
AcDbCircle
 10
1687.222049
 20
1361.066081
 30
0.0
 40
46.0
100
AcDbArc
 50
270.0
 51
295.028999
  0
LINE
  5
DDAB
100
AcDbEntity
  8
0
100
AcDbLine
 10
1669.222049
 20
1358.066081
 30
0.0
 11
1669.222049
 21
1340.066081
 31
0.0
  0
ARC
  5
DDAC
100
AcDbEntity
  8
0
100
AcDbCircle
 10
1725.222049
 20
1324.066081
 30
0.0
 40
10.0
100
AcDbArc
 50
90.0
 51
180.0
  0
LINE
  5
DDAD
100
AcDbEntity
  8
0
100
AcDbLine
 10
1813.222049
 20
1277.566081
 30
0.0
 11
1813.222049
 21
1300.066081
 31
0.0
  0
LINE
  5
DDAE
100
AcDbEntity
  8
0
100
AcDbLine
 10
1769.222049
 20
1265.754081
 30
0.0
 11
1768.410049
 21
1266.566081
 31
0.0
  0
LINE
  5
DDAF
100
AcDbEntity
  8
0
100
AcDbLine
 10
1760.034049
 20
1266.566081
 30
0.0
 11
1759.222049
 21
1265.754081
 31
0.0
  0
LINE
  5
DDB0
100
AcDbEntity
  8
0
100
AcDbLine
 10
1769.222049
 20
1262.566081
 30
0.0
 11
1769.222049
 21
1265.754081
 31
0.0
  0
LINE
  5
DDB1
100
AcDbEntity
  8
0
100
AcDbLine
 10
1759.222049
 20
1265.754081
 30
0.0
 11
1759.222049
 21
1262.566081
 31
0.0
  0
LINE
  5
DDB2
100
AcDbEntity
  8
0
100
AcDbLine
 10
1768.410049
 20
1266.566081
 30
0.0
 11
1760.034049
 21
1266.566081
 31
0.0
  0
LINE
  5
DDB3
100
AcDbEntity
  8
0
100
AcDbLine
 10
1813.222049
 20
1277.566081
 30
0.0
 11
1816.430222
 21
1265.53543
 31
0.0
  0
LINE
  5
DDB4
100
AcDbEntity
  8
0
100
AcDbLine
 10
1816.3257
 20
1266.566081
 30
0.0
 11
1815.5137
 21
1265.754081
 31
0.0
  0
LINE
  5
DDB5
100
AcDbEntity
  8
0
100
AcDbLine
 10
1825.5137
 20
1265.754081
 30
0.0
 11
1824.7017
 21
1266.566081
 31
0.0
  0
ARC
  5
DDB6
100
AcDbEntity
  8
0
100
AcDbCircle
 10
1820.295162
 20
1266.566081
 30
0.0
 40
4.0
100
AcDbArc
 50
194.931417
 51
270.0
  0
LINE
  5
DDB7
100
AcDbEntity
  8
0
100
AcDbLine
 10
1815.5137
 20
1265.754081
 30
0.0
 11
1815.5137
 21
1262.566081
 31
0.0
  0
LINE
  5
DDB8
100
AcDbEntity
  8
0
100
AcDbLine
 10
1825.5137
 20
1262.566081
 30
0.0
 11
1825.5137
 21
1265.754081
 31
0.0
  0
LINE
  5
DDB9
100
AcDbEntity
  8
0
100
AcDbLine
 10
1824.7017
 20
1266.566081
 30
0.0
 11
1816.3257
 21
1266.566081
 31
0.0
  0
ARC
  5
DDBA
100
AcDbEntity
  8
0
100
AcDbCircle
 10
1803.944276
 20
1362.040632
 30
0.0
 40
6.0
100
AcDbArc
 50
197.697436
 51
304.265886
  0
ARC
  5
DDBB
100
AcDbEntity
  8
0
100
AcDbCircle
 10
1803.222049
 20
1324.066081
 30
0.0
 40
10.0
100
AcDbArc
 50
0.0
 51
90.0
  0
ARC
  5
DDBC
100
AcDbEntity
  8
0
100
AcDbCircle
 10
1828.222049
 20
1300.066081
 30
0.0
 40
15.0
100
AcDbArc
 50
90.0
 51
180.0
  0
LINE
  5
DDBD
100
AcDbEntity
  8
0
100
AcDbLine
 10
1813.222049
 20
1324.066081
 30
0.0
 11
1813.222049
 21
1318.503623
 31
0.0
  0
LINE
  5
DDBE
100
AcDbEntity
  8
0
100
AcDbLine
 10
1859.222049
 20
884.353253
 30
0.0
 11
1859.222049
 21
872.753253
 31
0.0
  0
LINE
  5
DDBF
100
AcDbEntity
  8
0
100
AcDbLine
 10
1859.222049
 20
890.753253
 30
0.0
 11
1859.222049
 21
872.753253
 31
0.0
  0
LINE
  5
DDC0
100
AcDbEntity
  8
0
100
AcDbLine
 10
1852.222049
 20
897.753253
 30
0.0
 11
1852.222049
 21
847.753253
 31
0.0
  0
LINE
  5
DDC1
100
AcDbEntity
  8
0
100
AcDbLine
 10
1859.222049
 20
872.753253
 30
0.0
 11
1859.222049
 21
861.153253
 31
0.0
  0
LINE
  5
DDC2
100
AcDbEntity
  8
0
100
AcDbLine
 10
1859.222049
 20
872.753253
 30
0.0
 11
1859.222049
 21
854.753253
 31
0.0
  0
LINE
  5
DDC3
100
AcDbEntity
  8
0
100
AcDbLine
 10
1852.222049
 20
847.753253
 30
0.0
 11
1859.222049
 21
854.753253
 31
0.0
  0
LINE
  5
DDC4
100
AcDbEntity
  8
0
100
AcDbLine
 10
1852.222049
 20
897.753253
 30
0.0
 11
1859.222049
 21
890.753253
 31
0.0
  0
INSERT
  5
DDC5
100
AcDbEntity
  8
0
100
AcDbBlockReference
  2
YA
 10
1898.517907
 20
1340.066081
 30
0.0
 41
-3.427225
 42
3.427225
 43
3.427225
  0
LINE
  5
DDC6
100
AcDbEntity
  8
0
100
AcDbLine
 10
1859.222049
 20
1340.066081
 30
0.0
 11
1859.222049
 21
1322.066081
 31
0.0
  0
LINE
  5
DDC7
100
AcDbEntity
  8
0
100
AcDbLine
 10
1859.222049
 20
1340.066081
 30
0.0
 11
1859.222049
 21
1328.466081
 31
0.0
  0
LINE
  5
DDC8
100
AcDbEntity
  8
0
100
AcDbLine
 10
1852.222049
 20
1315.066081
 30
0.0
 11
1859.222049
 21
1322.066081
 31
0.0
  0
LINE
  5
DDC9
100
AcDbEntity
  8
0
100
AcDbLine
 10
1859.222049
 20
1358.066081
 30
0.0
 11
1859.222049
 21
1340.066081
 31
0.0
  0
LINE
  5
DDCA
100
AcDbEntity
  8
0
100
AcDbLine
 10
1859.222049
 20
1351.666081
 30
0.0
 11
1859.222049
 21
1340.066081
 31
0.0
  0
LINE
  5
DDCB
100
AcDbEntity
  8
0
100
AcDbLine
 10
1852.222049
 20
1365.066081
 30
0.0
 11
1833.222049
 21
1365.066081
 31
0.0
  0
LINE
  5
DDCC
100
AcDbEntity
  8
0
100
AcDbLine
 10
1764.222049
 20
1377.066081
 30
0.0
 11
1731.222049
 21
1377.066081
 31
0.0
  0
ARC
  5
DDCD
100
AcDbEntity
  8
0
100
AcDbCircle
 10
1731.222049
 20
1331.066081
 30
0.0
 40
46.0
100
AcDbArc
 50
90.0
 51
128.213211
  0
LINE
  5
DDCE
100
AcDbEntity
  8
0
100
AcDbLine
 10
1696.581032
 20
1365.066081
 30
0.0
 11
1676.222049
 21
1365.066081
 31
0.0
  0
LINE
  5
DDCF
100
AcDbEntity
  8
0
100
AcDbLine
 10
1776.61978
 20
1375.891202
 30
0.0
 11
1833.222049
 21
1365.066081
 31
0.0
  0
ARC
  5
DDD0
100
AcDbEntity
  8
0
100
AcDbCircle
 10
1764.222049
 20
1311.066081
 30
0.0
 40
66.0
100
AcDbArc
 50
71.873796
 51
90.0
  0
LINE
  5
DDD1
100
AcDbEntity
  8
0
100
AcDbLine
 10
639.432344
 20
1365.066081
 30
0.0
 11
637.932344
 21
1363.566081
 31
0.0
  0
LINE
  5
DDD2
100
AcDbEntity
  8
0
100
AcDbLine
 10
637.932344
 20
1316.566081
 30
0.0
 11
639.432344
 21
1315.066081
 31
0.0
  0
LINE
  5
DDD3
100
AcDbEntity
  8
0
100
AcDbLine
 10
826.432344
 20
1315.066081
 30
0.0
 11
827.932344
 21
1316.566081
 31
0.0
  0
LINE
  5
DDD4
100
AcDbEntity
  8
0
100
AcDbLine
 10
827.932344
 20
1363.566081
 30
0.0
 11
826.432344
 21
1365.066081
 31
0.0
  0
LINE
  5
DDD5
100
AcDbEntity
  8
0
100
AcDbLine
 10
639.432344
 20
897.753253
 30
0.0
 11
637.932344
 21
896.253253
 31
0.0
  0
LINE
  5
DDD6
100
AcDbEntity
  8
0
100
AcDbLine
 10
637.932344
 20
849.253253
 30
0.0
 11
639.432344
 21
847.753253
 31
0.0
  0
LINE
  5
DDD7
100
AcDbEntity
  8
0
100
AcDbLine
 10
826.432344
 20
847.753253
 30
0.0
 11
827.932344
 21
849.253253
 31
0.0
  0
LINE
  5
DDD8
100
AcDbEntity
  8
0
100
AcDbLine
 10
826.432344
 20
897.753253
 30
0.0
 11
827.932344
 21
896.253253
 31
0.0
  0
LINE
  5
DDD9
100
AcDbEntity
  8
0
100
AcDbLine
 10
639.432344
 20
635.144623
 30
0.0
 11
637.932344
 21
633.644623
 31
0.0
  0
LINE
  5
DDDA
100
AcDbEntity
  8
0
100
AcDbLine
 10
637.932344
 20
586.644623
 30
0.0
 11
639.432344
 21
585.144623
 31
0.0
  0
LINE
  5
DDDB
100
AcDbEntity
  8
0
100
AcDbLine
 10
826.432344
 20
635.144623
 30
0.0
 11
827.932344
 21
633.644623
 31
0.0
  0
LINE
  5
DDDC
100
AcDbEntity
  8
0
100
AcDbLine
 10
827.932344
 20
586.644623
 30
0.0
 11
826.432344
 21
585.144623
 31
0.0
  0
LINE
  5
DDF8
100
AcDbEntity
  8
0
100
AcDbLine
 10
374.894826
 20
395.047623
 30
0.0
 11
374.894826
 21
401.144623
 31
0.0
  0
LINE
  5
DDF9
100
AcDbEntity
  8
0
100
AcDbLine
 10
366.394826
 20
394.143623
 30
0.0
 11
366.394826
 21
401.144623
 31
0.0
  0
ARC
  5
DDFD
100
AcDbEntity
  8
0
100
AcDbCircle
 10
370.644826
 20
404.585943
 30
0.0
 40
10.442321
100
AcDbArc
 50
245.983629
 51
294.016371
  0
ARC
  5
DDFE
100
AcDbEntity
  8
0
100
AcDbCircle
 10
379.144826
 20
404.585943
 30
0.0
 40
10.442321
100
AcDbArc
 50
245.983629
 51
294.016371
  0
LINE
  5
DDFF
100
AcDbEntity
  8
0
100
AcDbLine
 10
383.394826
 20
394.143623
 30
0.0
 11
383.394826
 21
401.144623
 31
0.0
  0
ARC
  5
DE06
100
AcDbEntity
  8
0
100
AcDbCircle
 10
346.644826
 20
404.585943
 30
0.0
 40
10.442321
100
AcDbArc
 50
245.983629
 51
294.016371
  0
LINE
  5
DE07
100
AcDbEntity
  8
0
100
AcDbLine
 10
350.894826
 20
394.143623
 30
0.0
 11
333.894826
 21
394.143623
 31
0.0
  0
ARC
  5
DE08
100
AcDbEntity
  8
0
100
AcDbCircle
 10
338.144826
 20
404.585943
 30
0.0
 40
10.442321
100
AcDbArc
 50
245.983629
 51
294.016371
  0
LINE
  5
DE09
100
AcDbEntity
  8
0
100
AcDbLine
 10
333.894826
 20
394.143623
 30
0.0
 11
333.894826
 21
401.144623
 31
0.0
  0
LINE
  5
DE0A
100
AcDbEntity
  8
0
100
AcDbLine
 10
342.394826
 20
395.047623
 30
0.0
 11
342.394826
 21
401.144623
 31
0.0
  0
LINE
  5
DE0B
100
AcDbEntity
  8
0
100
AcDbLine
 10
350.894826
 20
394.143623
 30
0.0
 11
350.894826
 21
401.144623
 31
0.0
  0
LINE
  5
DE0C
100
AcDbEntity
  8
0
100
AcDbLine
 10
463.894826
 20
394.143623
 30
0.0
 11
463.894826
 21
401.144623
 31
0.0
  0
LINE
  5
DE0D
100
AcDbEntity
  8
0
100
AcDbLine
 10
472.394826
 20
395.047623
 30
0.0
 11
472.394826
 21
401.144623
 31
0.0
  0
LINE
  5
DE0E
100
AcDbEntity
  8
0
100
AcDbLine
 10
480.894826
 20
394.143623
 30
0.0
 11
480.894826
 21
401.144623
 31
0.0
  0
ARC
  5
DE0F
100
AcDbEntity
  8
0
100
AcDbCircle
 10
476.644826
 20
404.585943
 30
0.0
 40
10.442321
100
AcDbArc
 50
245.983629
 51
294.016371
  0
LINE
  5
DE10
100
AcDbEntity
  8
0
100
AcDbLine
 10
463.894826
 20
394.143623
 30
0.0
 11
480.894826
 21
394.143623
 31
0.0
  0
ARC
  5
DE11
100
AcDbEntity
  8
0
100
AcDbCircle
 10
468.144826
 20
404.585943
 30
0.0
 40
10.442321
100
AcDbArc
 50
245.983629
 51
294.016371
  0
ARC
  5
DE12
100
AcDbEntity
  8
0
100
AcDbCircle
 10
435.644826
 20
404.585943
 30
0.0
 40
10.442321
100
AcDbArc
 50
245.983629
 51
294.016371
  0
LINE
  5
DE13
100
AcDbEntity
  8
0
100
AcDbLine
 10
431.394826
 20
394.143623
 30
0.0
 11
448.394826
 21
394.143623
 31
0.0
  0
ARC
  5
DE14
100
AcDbEntity
  8
0
100
AcDbCircle
 10
444.144826
 20
404.585943
 30
0.0
 40
10.442321
100
AcDbArc
 50
245.983629
 51
294.016371
  0
LINE
  5
DE15
100
AcDbEntity
  8
0
100
AcDbLine
 10
448.394826
 20
394.143623
 30
0.0
 11
448.394826
 21
401.144623
 31
0.0
  0
LINE
  5
DE16
100
AcDbEntity
  8
0
100
AcDbLine
 10
439.894826
 20
395.047623
 30
0.0
 11
439.894826
 21
401.144623
 31
0.0
  0
LINE
  5
DE17
100
AcDbEntity
  8
0
100
AcDbLine
 10
431.394826
 20
394.143623
 30
0.0
 11
431.394826
 21
401.144623
 31
0.0
  0
ARC
  5
DE30
100
AcDbEntity
  8
0
100
AcDbCircle
 10
444.144826
 20
503.085943
 30
0.0
 40
10.442321
100
AcDbArc
 50
245.983629
 51
294.016371
  0
LINE
  5
DE31
100
AcDbEntity
  8
0
100
AcDbLine
 10
431.394826
 20
492.643623
 30
0.0
 11
448.394826
 21
492.643623
 31
0.0
  0
LINE
  5
DE32
100
AcDbEntity
  8
0
100
AcDbLine
 10
350.894826
 20
492.643623
 30
0.0
 11
350.894826
 21
499.644623
 31
0.0
  0
LINE
  5
DE33
100
AcDbEntity
  8
0
100
AcDbLine
 10
342.394826
 20
493.547623
 30
0.0
 11
342.394826
 21
499.644623
 31
0.0
  0
LINE
  5
DE34
100
AcDbEntity
  8
0
100
AcDbLine
 10
333.894826
 20
492.643623
 30
0.0
 11
333.894826
 21
499.644623
 31
0.0
  0
ARC
  5
DE35
100
AcDbEntity
  8
0
100
AcDbCircle
 10
338.144826
 20
503.085943
 30
0.0
 40
10.442321
100
AcDbArc
 50
245.983629
 51
294.016371
  0
LINE
  5
DE36
100
AcDbEntity
  8
0
100
AcDbLine
 10
350.894826
 20
492.643623
 30
0.0
 11
333.894826
 21
492.643623
 31
0.0
  0
ARC
  5
DE37
100
AcDbEntity
  8
0
100
AcDbCircle
 10
346.644826
 20
503.085943
 30
0.0
 40
10.442321
100
AcDbArc
 50
245.983629
 51
294.016371
  0
ARC
  5
DE38
100
AcDbEntity
  8
0
100
AcDbCircle
 10
379.144826
 20
503.085943
 30
0.0
 40
10.442321
100
AcDbArc
 50
245.983629
 51
294.016371
  0
LINE
  5
DE39
100
AcDbEntity
  8
0
100
AcDbLine
 10
383.394826
 20
492.643623
 30
0.0
 11
366.394826
 21
492.643623
 31
0.0
  0
ARC
  5
DE3A
100
AcDbEntity
  8
0
100
AcDbCircle
 10
370.644826
 20
503.085943
 30
0.0
 40
10.442321
100
AcDbArc
 50
245.983629
 51
294.016371
  0
LINE
  5
DE3B
100
AcDbEntity
  8
0
100
AcDbLine
 10
366.394826
 20
492.643623
 30
0.0
 11
366.394826
 21
499.644623
 31
0.0
  0
LINE
  5
DE3C
100
AcDbEntity
  8
0
100
AcDbLine
 10
374.894826
 20
493.547623
 30
0.0
 11
374.894826
 21
499.644623
 31
0.0
  0
LINE
  5
DE3D
100
AcDbEntity
  8
0
100
AcDbLine
 10
383.394826
 20
492.643623
 30
0.0
 11
383.394826
 21
499.644623
 31
0.0
  0
LINE
  5
DE3E
100
AcDbEntity
  8
0
100
AcDbLine
 10
431.394826
 20
492.643623
 30
0.0
 11
431.394826
 21
499.644623
 31
0.0
  0
LINE
  5
DE3F
100
AcDbEntity
  8
0
100
AcDbLine
 10
439.894826
 20
493.547623
 30
0.0
 11
439.894826
 21
499.644623
 31
0.0
  0
ARC
  5
DE40
100
AcDbEntity
  8
0
100
AcDbCircle
 10
435.644826
 20
503.085943
 30
0.0
 40
10.442321
100
AcDbArc
 50
245.983629
 51
294.016371
  0
ARC
  5
DE41
100
AcDbEntity
  8
0
100
AcDbCircle
 10
468.144826
 20
503.085943
 30
0.0
 40
10.442321
100
AcDbArc
 50
245.983629
 51
294.016371
  0
LINE
  5
DE42
100
AcDbEntity
  8
0
100
AcDbLine
 10
463.894826
 20
492.643623
 30
0.0
 11
480.894826
 21
492.643623
 31
0.0
  0
LINE
  5
DE43
100
AcDbEntity
  8
0
100
AcDbLine
 10
448.394826
 20
492.643623
 30
0.0
 11
448.394826
 21
499.644623
 31
0.0
  0
LINE
  5
DE44
100
AcDbEntity
  8
0
100
AcDbLine
 10
463.894826
 20
492.643623
 30
0.0
 11
463.894826
 21
499.644623
 31
0.0
  0
ARC
  5
DE45
100
AcDbEntity
  8
0
100
AcDbCircle
 10
476.644826
 20
503.085943
 30
0.0
 40
10.442321
100
AcDbArc
 50
245.983629
 51
294.016371
  0
LINE
  5
DE46
100
AcDbEntity
  8
0
100
AcDbLine
 10
480.894826
 20
492.643623
 30
0.0
 11
480.894826
 21
499.644623
 31
0.0
  0
LINE
  5
DE47
100
AcDbEntity
  8
0
100
AcDbLine
 10
472.394826
 20
493.547623
 30
0.0
 11
472.394826
 21
499.644623
 31
0.0
  0
ARC
  5
DE48
100
AcDbEntity
  8
0
100
AcDbCircle
 10
961.218688
 20
503.085943
 30
0.0
 40
10.442321
100
AcDbArc
 50
245.983629
 51
294.016371
  0
LINE
  5
DE49
100
AcDbEntity
  8
0
100
AcDbLine
 10
965.468688
 20
492.643623
 30
0.0
 11
948.468688
 21
492.643623
 31
0.0
  0
ARC
  5
DE4A
100
AcDbEntity
  8
0
100
AcDbCircle
 10
952.718688
 20
503.085943
 30
0.0
 40
10.442321
100
AcDbArc
 50
245.983629
 51
294.016371
  0
LINE
  5
DE4B
100
AcDbEntity
  8
0
100
AcDbLine
 10
948.468688
 20
492.643623
 30
0.0
 11
948.468688
 21
499.644623
 31
0.0
  0
LINE
  5
DE4C
100
AcDbEntity
  8
0
100
AcDbLine
 10
956.968688
 20
493.547623
 30
0.0
 11
956.968688
 21
499.644623
 31
0.0
  0
LINE
  5
DE4D
100
AcDbEntity
  8
0
100
AcDbLine
 10
965.468688
 20
492.643623
 30
0.0
 11
965.468688
 21
499.644623
 31
0.0
  0
ARC
  5
DE4E
100
AcDbEntity
  8
0
100
AcDbCircle
 10
993.718688
 20
503.085943
 30
0.0
 40
10.442321
100
AcDbArc
 50
245.983629
 51
294.016371
  0
LINE
  5
DE4F
100
AcDbEntity
  8
0
100
AcDbLine
 10
989.468688
 20
493.547623
 30
0.0
 11
989.468688
 21
499.644623
 31
0.0
  0
LINE
  5
DE50
100
AcDbEntity
  8
0
100
AcDbLine
 10
997.968688
 20
492.643623
 30
0.0
 11
997.968688
 21
499.644623
 31
0.0
  0
LINE
  5
DE51
100
AcDbEntity
  8
0
100
AcDbLine
 10
1045.968688
 20
492.643623
 30
0.0
 11
1062.968688
 21
492.643623
 31
0.0
  0
ARC
  5
DE52
100
AcDbEntity
  8
0
100
AcDbCircle
 10
1058.718688
 20
503.085943
 30
0.0
 40
10.442321
100
AcDbArc
 50
245.983629
 51
294.016371
  0
LINE
  5
DE53
100
AcDbEntity
  8
0
100
AcDbLine
 10
997.968688
 20
492.643623
 30
0.0
 11
980.968688
 21
492.643623
 31
0.0
  0
LINE
  5
DE54
100
AcDbEntity
  8
0
100
AcDbLine
 10
980.968688
 20
492.643623
 30
0.0
 11
980.968688
 21
499.644623
 31
0.0
  0
ARC
  5
DE55
100
AcDbEntity
  8
0
100
AcDbCircle
 10
985.218688
 20
503.085943
 30
0.0
 40
10.442321
100
AcDbArc
 50
245.983629
 51
294.016371
  0
ARC
  5
DE56
100
AcDbEntity
  8
0
100
AcDbCircle
 10
1050.218688
 20
503.085943
 30
0.0
 40
10.442321
100
AcDbArc
 50
245.983629
 51
294.016371
  0
LINE
  5
DE57
100
AcDbEntity
  8
0
100
AcDbLine
 10
1054.468688
 20
493.547623
 30
0.0
 11
1054.468688
 21
499.644623
 31
0.0
  0
LINE
  5
DE58
100
AcDbEntity
  8
0
100
AcDbLine
 10
1045.968688
 20
492.643623
 30
0.0
 11
1045.968688
 21
499.644623
 31
0.0
  0
LINE
  5
DE59
100
AcDbEntity
  8
0
100
AcDbLine
 10
1062.968688
 20
492.643623
 30
0.0
 11
1062.968688
 21
499.644623
 31
0.0
  0
LINE
  5
DE5A
100
AcDbEntity
  8
0
100
AcDbLine
 10
1078.468688
 20
492.643623
 30
0.0
 11
1095.468688
 21
492.643623
 31
0.0
  0
ARC
  5
DE5B
100
AcDbEntity
  8
0
100
AcDbCircle
 10
1082.718688
 20
503.085943
 30
0.0
 40
10.442321
100
AcDbArc
 50
245.983629
 51
294.016371
  0
LINE
  5
DE5C
100
AcDbEntity
  8
0
100
AcDbLine
 10
1078.468688
 20
492.643623
 30
0.0
 11
1078.468688
 21
499.644623
 31
0.0
  0
LINE
  5
DE5D
100
AcDbEntity
  8
0
100
AcDbLine
 10
1086.968688
 20
493.547623
 30
0.0
 11
1086.968688
 21
499.644623
 31
0.0
  0
LINE
  5
DE5E
100
AcDbEntity
  8
0
100
AcDbLine
 10
1095.468688
 20
492.643623
 30
0.0
 11
1095.468688
 21
499.644623
 31
0.0
  0
ARC
  5
DE5F
100
AcDbEntity
  8
0
100
AcDbCircle
 10
1091.218688
 20
503.085943
 30
0.0
 40
10.442321
100
AcDbArc
 50
245.983629
 51
294.016371
  0
LINE
  5
DE60
100
AcDbEntity
  8
0
100
AcDbLine
 10
965.468688
 20
394.143623
 30
0.0
 11
965.468688
 21
401.144623
 31
0.0
  0
LINE
  5
DE61
100
AcDbEntity
  8
0
100
AcDbLine
 10
956.968688
 20
395.047623
 30
0.0
 11
956.968688
 21
401.144623
 31
0.0
  0
LINE
  5
DE62
100
AcDbEntity
  8
0
100
AcDbLine
 10
948.468688
 20
394.143623
 30
0.0
 11
948.468688
 21
401.144623
 31
0.0
  0
ARC
  5
DE63
100
AcDbEntity
  8
0
100
AcDbCircle
 10
952.718688
 20
404.585943
 30
0.0
 40
10.442321
100
AcDbArc
 50
245.983629
 51
294.016371
  0
LINE
  5
DE64
100
AcDbEntity
  8
0
100
AcDbLine
 10
965.468688
 20
394.143623
 30
0.0
 11
948.468688
 21
394.143623
 31
0.0
  0
ARC
  5
DE65
100
AcDbEntity
  8
0
100
AcDbCircle
 10
961.218688
 20
404.585943
 30
0.0
 40
10.442321
100
AcDbArc
 50
245.983629
 51
294.016371
  0
ARC
  5
DE66
100
AcDbEntity
  8
0
100
AcDbCircle
 10
993.718688
 20
404.585943
 30
0.0
 40
10.442321
100
AcDbArc
 50
245.983629
 51
294.016371
  0
LINE
  5
DE67
100
AcDbEntity
  8
0
100
AcDbLine
 10
997.968688
 20
394.143623
 30
0.0
 11
980.968688
 21
394.143623
 31
0.0
  0
ARC
  5
DE68
100
AcDbEntity
  8
0
100
AcDbCircle
 10
985.218688
 20
404.585943
 30
0.0
 40
10.442321
100
AcDbArc
 50
245.983629
 51
294.016371
  0
LINE
  5
DE69
100
AcDbEntity
  8
0
100
AcDbLine
 10
980.968688
 20
394.143623
 30
0.0
 11
980.968688
 21
401.144623
 31
0.0
  0
LINE
  5
DE6A
100
AcDbEntity
  8
0
100
AcDbLine
 10
989.468688
 20
395.047623
 30
0.0
 11
989.468688
 21
401.144623
 31
0.0
  0
LINE
  5
DE6B
100
AcDbEntity
  8
0
100
AcDbLine
 10
997.968688
 20
394.143623
 30
0.0
 11
997.968688
 21
401.144623
 31
0.0
  0
ARC
  5
DE6C
100
AcDbEntity
  8
0
100
AcDbCircle
 10
1058.718688
 20
404.585943
 30
0.0
 40
10.442321
100
AcDbArc
 50
245.983629
 51
294.016371
  0
LINE
  5
DE6D
100
AcDbEntity
  8
0
100
AcDbLine
 10
1045.968688
 20
394.143623
 30
0.0
 11
1062.968688
 21
394.143623
 31
0.0
  0
LINE
  5
DE6E
100
AcDbEntity
  8
0
100
AcDbLine
 10
1045.968688
 20
394.143623
 30
0.0
 11
1045.968688
 21
401.144623
 31
0.0
  0
LINE
  5
DE6F
100
AcDbEntity
  8
0
100
AcDbLine
 10
1054.468688
 20
395.047623
 30
0.0
 11
1054.468688
 21
401.144623
 31
0.0
  0
ARC
  5
DE70
100
AcDbEntity
  8
0
100
AcDbCircle
 10
1050.218688
 20
404.585943
 30
0.0
 40
10.442321
100
AcDbArc
 50
245.983629
 51
294.016371
  0
ARC
  5
DE71
100
AcDbEntity
  8
0
100
AcDbCircle
 10
1082.718688
 20
404.585943
 30
0.0
 40
10.442321
100
AcDbArc
 50
245.983629
 51
294.016371
  0
LINE
  5
DE72
100
AcDbEntity
  8
0
100
AcDbLine
 10
1078.468688
 20
394.143623
 30
0.0
 11
1095.468688
 21
394.143623
 31
0.0
  0
LINE
  5
DE73
100
AcDbEntity
  8
0
100
AcDbLine
 10
1062.968688
 20
394.143623
 30
0.0
 11
1062.968688
 21
401.144623
 31
0.0
  0
LINE
  5
DE74
100
AcDbEntity
  8
0
100
AcDbLine
 10
1078.468688
 20
394.143623
 30
0.0
 11
1078.468688
 21
401.144623
 31
0.0
  0
ARC
  5
DE75
100
AcDbEntity
  8
0
100
AcDbCircle
 10
1091.218688
 20
404.585943
 30
0.0
 40
10.442321
100
AcDbArc
 50
245.983629
 51
294.016371
  0
LINE
  5
DE76
100
AcDbEntity
  8
0
100
AcDbLine
 10
1095.468688
 20
394.143623
 30
0.0
 11
1095.468688
 21
401.144623
 31
0.0
  0
LINE
  5
DE77
100
AcDbEntity
  8
0
100
AcDbLine
 10
1086.968688
 20
395.047623
 30
0.0
 11
1086.968688
 21
401.144623
 31
0.0
  0
ARC
  5
DE78
100
AcDbEntity
  8
0
100
AcDbCircle
 10
995.468688
 20
397.144623
 30
0.0
 40
4.0
100
AcDbArc
 50
0.0
 51
51.317813
  0
LINE
  5
DE79
100
AcDbEntity
  8
0
100
AcDbLine
 10
1462.68453
 20
492.643623
 30
0.0
 11
1479.68453
 21
492.643623
 31
0.0
  0
ARC
  5
DE7A
100
AcDbEntity
  8
0
100
AcDbCircle
 10
1475.43453
 20
503.085943
 30
0.0
 40
10.442321
100
AcDbArc
 50
245.983629
 51
294.016371
  0
ARC
  5
DE7B
100
AcDbEntity
  8
0
100
AcDbCircle
 10
1475.43453
 20
404.585943
 30
0.0
 40
10.442321
100
AcDbArc
 50
245.983629
 51
294.016371
  0
LINE
  5
DE7C
100
AcDbEntity
  8
0
100
AcDbLine
 10
1462.68453
 20
394.143623
 30
0.0
 11
1479.68453
 21
394.143623
 31
0.0
  0
LINE
  5
DE7D
100
AcDbEntity
  8
0
100
AcDbLine
 10
1360.68453
 20
401.144623
 30
0.0
 11
1516.68453
 21
401.144623
 31
0.0
  0
LINE
  5
DE7E
100
AcDbEntity
  8
0
100
AcDbLine
 10
1516.68453
 20
418.144623
 30
0.0
 11
1360.68453
 21
418.144623
 31
0.0
  0
LINE
  5
DE7F
100
AcDbEntity
  8
0
100
AcDbLine
 10
1516.68453
 20
435.144623
 30
0.0
 11
1360.68453
 21
435.144623
 31
0.0
  0
LINE
  5
DE80
100
AcDbEntity
  8
0
100
AcDbLine
 10
1516.68453
 20
499.644623
 30
0.0
 11
1360.68453
 21
499.644623
 31
0.0
  0
LINE
  5
DE81
100
AcDbEntity
  8
0
100
AcDbLine
 10
1392.397877
 20
456.450713
 30
0.0
 11
1387.88052
 21
439.591708
 31
0.0
  0
ARC
  5
DE82
100
AcDbEntity
  8
0
100
AcDbCircle
 10
1382.084965
 20
441.144623
 30
0.0
 40
6.0
100
AcDbArc
 50
270.0
 51
345.0
  0
LINE
  5
DE83
100
AcDbEntity
  8
0
100
AcDbLine
 10
1360.68453
 20
401.144623
 30
0.0
 11
1360.68453
 21
435.144623
 31
0.0
  0
LINE
  5
DE84
100
AcDbEntity
  8
0
100
AcDbLine
 10
1382.18453
 20
394.143623
 30
0.0
 11
1382.18453
 21
401.144623
 31
0.0
  0
LINE
  5
DE85
100
AcDbEntity
  8
0
100
AcDbLine
 10
1373.68453
 20
395.047623
 30
0.0
 11
1373.68453
 21
401.144623
 31
0.0
  0
LINE
  5
DE86
100
AcDbEntity
  8
0
100
AcDbLine
 10
1365.18453
 20
394.143623
 30
0.0
 11
1365.18453
 21
401.144623
 31
0.0
  0
ARC
  5
DE87
100
AcDbEntity
  8
0
100
AcDbCircle
 10
1369.43453
 20
404.585943
 30
0.0
 40
10.442321
100
AcDbArc
 50
245.983629
 51
294.016371
  0
LINE
  5
DE88
100
AcDbEntity
  8
0
100
AcDbLine
 10
1382.18453
 20
394.143623
 30
0.0
 11
1365.18453
 21
394.143623
 31
0.0
  0
ARC
  5
DE89
100
AcDbEntity
  8
0
100
AcDbCircle
 10
1377.93453
 20
404.585943
 30
0.0
 40
10.442321
100
AcDbArc
 50
245.983629
 51
294.016371
  0
LINE
  5
DE8A
100
AcDbEntity
  8
0
100
AcDbLine
 10
1368.68453
 20
435.144623
 30
0.0
 11
1368.68453
 21
438.332623
 31
0.0
  0
LINE
  5
DE8B
100
AcDbEntity
  8
0
100
AcDbLine
 10
1378.68453
 20
438.332623
 30
0.0
 11
1378.68453
 21
435.144623
 31
0.0
  0
LINE
  5
DE8C
100
AcDbEntity
  8
0
100
AcDbLine
 10
1377.87253
 20
439.144623
 30
0.0
 11
1378.68453
 21
438.332623
 31
0.0
  0
LINE
  5
DE8D
100
AcDbEntity
  8
0
100
AcDbLine
 10
1369.49653
 20
439.144623
 30
0.0
 11
1377.87253
 21
439.144623
 31
0.0
  0
LINE
  5
DE8E
100
AcDbEntity
  8
0
100
AcDbLine
 10
1368.68453
 20
438.332623
 30
0.0
 11
1369.49653
 21
439.144623
 31
0.0
  0
ARC
  5
DE8F
100
AcDbEntity
  8
0
100
AcDbCircle
 10
1410.43453
 20
404.585943
 30
0.0
 40
10.442321
100
AcDbArc
 50
245.983629
 51
294.016371
  0
LINE
  5
DE90
100
AcDbEntity
  8
0
100
AcDbLine
 10
1414.68453
 20
394.143623
 30
0.0
 11
1397.68453
 21
394.143623
 31
0.0
  0
ARC
  5
DE91
100
AcDbEntity
  8
0
100
AcDbCircle
 10
1401.93453
 20
404.585943
 30
0.0
 40
10.442321
100
AcDbArc
 50
245.983629
 51
294.016371
  0
LINE
  5
DE92
100
AcDbEntity
  8
0
100
AcDbLine
 10
1397.68453
 20
394.143623
 30
0.0
 11
1397.68453
 21
401.144623
 31
0.0
  0
LINE
  5
DE93
100
AcDbEntity
  8
0
100
AcDbLine
 10
1406.18453
 20
395.047623
 30
0.0
 11
1406.18453
 21
401.144623
 31
0.0
  0
LINE
  5
DE94
100
AcDbEntity
  8
0
100
AcDbLine
 10
1414.68453
 20
394.143623
 30
0.0
 11
1414.68453
 21
401.144623
 31
0.0
  0
LINE
  5
DE95
100
AcDbEntity
  8
0
100
AcDbLine
 10
1401.99653
 20
439.144623
 30
0.0
 11
1410.37253
 21
439.144623
 31
0.0
  0
LINE
  5
DE96
100
AcDbEntity
  8
0
100
AcDbLine
 10
1401.18453
 20
435.144623
 30
0.0
 11
1401.18453
 21
438.332623
 31
0.0
  0
LINE
  5
DE97
100
AcDbEntity
  8
0
100
AcDbLine
 10
1401.18453
 20
438.332623
 30
0.0
 11
1401.99653
 21
439.144623
 31
0.0
  0
LINE
  5
DE98
100
AcDbEntity
  8
0
100
AcDbLine
 10
1411.18453
 20
438.332623
 30
0.0
 11
1411.18453
 21
435.144623
 31
0.0
  0
LINE
  5
DE99
100
AcDbEntity
  8
0
100
AcDbLine
 10
1410.37253
 20
439.144623
 30
0.0
 11
1411.18453
 21
438.332623
 31
0.0
  0
LINE
  5
DE9A
100
AcDbEntity
  8
0
100
AcDbLine
 10
1462.68453
 20
394.143623
 30
0.0
 11
1462.68453
 21
401.144623
 31
0.0
  0
LINE
  5
DE9B
100
AcDbEntity
  8
0
100
AcDbLine
 10
1471.18453
 20
395.047623
 30
0.0
 11
1471.18453
 21
401.144623
 31
0.0
  0
ARC
  5
DE9C
100
AcDbEntity
  8
0
100
AcDbCircle
 10
1466.93453
 20
404.585943
 30
0.0
 40
10.442321
100
AcDbArc
 50
245.983629
 51
294.016371
  0
LINE
  5
DE9D
100
AcDbEntity
  8
0
100
AcDbLine
 10
1476.18453
 20
435.144623
 30
0.0
 11
1476.18453
 21
438.332623
 31
0.0
  0
LINE
  5
DE9E
100
AcDbEntity
  8
0
100
AcDbLine
 10
1466.18453
 20
438.332623
 30
0.0
 11
1466.18453
 21
435.144623
 31
0.0
  0
LINE
  5
DE9F
100
AcDbEntity
  8
0
100
AcDbLine
 10
1466.99653
 20
439.144623
 30
0.0
 11
1466.18453
 21
438.332623
 31
0.0
  0
LINE
  5
DEA0
100
AcDbEntity
  8
0
100
AcDbLine
 10
1475.37253
 20
439.144623
 30
0.0
 11
1466.99653
 21
439.144623
 31
0.0
  0
LINE
  5
DEA1
100
AcDbEntity
  8
0
100
AcDbLine
 10
1476.18453
 20
438.332623
 30
0.0
 11
1475.37253
 21
439.144623
 31
0.0
  0
ARC
  5
DEA2
100
AcDbEntity
  8
0
100
AcDbCircle
 10
1377.93453
 20
503.085943
 30
0.0
 40
10.442321
100
AcDbArc
 50
245.983629
 51
294.016371
  0
LINE
  5
DEA3
100
AcDbEntity
  8
0
100
AcDbLine
 10
1382.18453
 20
492.643623
 30
0.0
 11
1365.18453
 21
492.643623
 31
0.0
  0
ARC
  5
DEA4
100
AcDbEntity
  8
0
100
AcDbCircle
 10
1369.43453
 20
503.085943
 30
0.0
 40
10.442321
100
AcDbArc
 50
245.983629
 51
294.016371
  0
LINE
  5
DEA5
100
AcDbEntity
  8
0
100
AcDbLine
 10
1365.18453
 20
492.643623
 30
0.0
 11
1365.18453
 21
499.644623
 31
0.0
  0
LINE
  5
DEA6
100
AcDbEntity
  8
0
100
AcDbLine
 10
1373.68453
 20
493.547623
 30
0.0
 11
1373.68453
 21
499.644623
 31
0.0
  0
LINE
  5
DEA7
100
AcDbEntity
  8
0
100
AcDbLine
 10
1382.18453
 20
492.643623
 30
0.0
 11
1382.18453
 21
499.644623
 31
0.0
  0
LINE
  5
DEA8
100
AcDbEntity
  8
0
100
AcDbLine
 10
1393.38243
 20
484.644623
 30
0.0
 11
1392.397877
 21
456.450713
 31
0.0
  0
LINE
  5
DEA9
100
AcDbEntity
  8
0
100
AcDbLine
 10
1414.68453
 20
492.643623
 30
0.0
 11
1397.68453
 21
492.643623
 31
0.0
  0
ARC
  5
DEAA
100
AcDbEntity
  8
0
100
AcDbCircle
 10
1410.43453
 20
503.085943
 30
0.0
 40
10.442321
100
AcDbArc
 50
245.983629
 51
294.016371
  0
LINE
  5
DEAB
100
AcDbEntity
  8
0
100
AcDbLine
 10
1406.18453
 20
493.547623
 30
0.0
 11
1406.18453
 21
499.644623
 31
0.0
  0
LINE
  5
DEAC
100
AcDbEntity
  8
0
100
AcDbLine
 10
1397.68453
 20
492.643623
 30
0.0
 11
1397.68453
 21
499.644623
 31
0.0
  0
ARC
  5
DEAD
100
AcDbEntity
  8
0
100
AcDbCircle
 10
1401.93453
 20
503.085943
 30
0.0
 40
10.442321
100
AcDbArc
 50
245.983629
 51
294.016371
  0
LINE
  5
DEAE
100
AcDbEntity
  8
0
100
AcDbLine
 10
1393.38243
 20
484.644623
 30
0.0
 11
1392.287302
 21
494.319473
 31
0.0
  0
ARC
  5
DEAF
100
AcDbEntity
  8
0
100
AcDbCircle
 10
1386.325374
 20
493.644623
 30
0.0
 40
6.0
100
AcDbArc
 50
6.458011
 51
90.0
  0
LINE
  5
DEB0
100
AcDbEntity
  8
0
100
AcDbLine
 10
1414.68453
 20
492.643623
 30
0.0
 11
1414.68453
 21
499.644623
 31
0.0
  0
ARC
  5
DEB1
100
AcDbEntity
  8
0
100
AcDbCircle
 10
1466.93453
 20
503.085943
 30
0.0
 40
10.442321
100
AcDbArc
 50
245.983629
 51
294.016371
  0
LINE
  5
DEB2
100
AcDbEntity
  8
0
100
AcDbLine
 10
1471.18453
 20
493.547623
 30
0.0
 11
1471.18453
 21
499.644623
 31
0.0
  0
LINE
  5
DEB3
100
AcDbEntity
  8
0
100
AcDbLine
 10
1462.68453
 20
492.643623
 30
0.0
 11
1462.68453
 21
499.644623
 31
0.0
  0
LINE
  5
DEB4
100
AcDbEntity
  8
0
100
AcDbLine
 10
1484.971184
 20
456.450713
 30
0.0
 11
1489.48854
 21
439.591708
 31
0.0
  0
LINE
  5
DEB5
100
AcDbEntity
  8
0
100
AcDbLine
 10
1516.68453
 20
401.144623
 30
0.0
 11
1516.68453
 21
435.144623
 31
0.0
  0
ARC
  5
DEB6
100
AcDbEntity
  8
0
100
AcDbCircle
 10
1499.43453
 20
404.585943
 30
0.0
 40
10.442321
100
AcDbArc
 50
245.983629
 51
294.016371
  0
LINE
  5
DEB7
100
AcDbEntity
  8
0
100
AcDbLine
 10
1495.18453
 20
394.143623
 30
0.0
 11
1512.18453
 21
394.143623
 31
0.0
  0
LINE
  5
DEB8
100
AcDbEntity
  8
0
100
AcDbLine
 10
1479.68453
 20
394.143623
 30
0.0
 11
1479.68453
 21
401.144623
 31
0.0
  0
LINE
  5
DEB9
100
AcDbEntity
  8
0
100
AcDbLine
 10
1495.18453
 20
394.143623
 30
0.0
 11
1495.18453
 21
401.144623
 31
0.0
  0
ARC
  5
DEBA
100
AcDbEntity
  8
0
100
AcDbCircle
 10
1507.93453
 20
404.585943
 30
0.0
 40
10.442321
100
AcDbArc
 50
245.983629
 51
294.016371
  0
LINE
  5
DEBB
100
AcDbEntity
  8
0
100
AcDbLine
 10
1512.18453
 20
394.143623
 30
0.0
 11
1512.18453
 21
401.144623
 31
0.0
  0
LINE
  5
DEBC
100
AcDbEntity
  8
0
100
AcDbLine
 10
1503.68453
 20
395.047623
 30
0.0
 11
1503.68453
 21
401.144623
 31
0.0
  0
LINE
  5
DEBD
100
AcDbEntity
  8
0
100
AcDbLine
 10
1507.87253
 20
439.144623
 30
0.0
 11
1499.49653
 21
439.144623
 31
0.0
  0
LINE
  5
DEBE
100
AcDbEntity
  8
0
100
AcDbLine
 10
1498.68453
 20
438.332623
 30
0.0
 11
1498.68453
 21
435.144623
 31
0.0
  0
LINE
  5
DEBF
100
AcDbEntity
  8
0
100
AcDbLine
 10
1499.49653
 20
439.144623
 30
0.0
 11
1498.68453
 21
438.332623
 31
0.0
  0
ARC
  5
DEC0
100
AcDbEntity
  8
0
100
AcDbCircle
 10
1495.284095
 20
441.144623
 30
0.0
 40
6.0
100
AcDbArc
 50
195.0
 51
270.0
  0
LINE
  5
DEC1
100
AcDbEntity
  8
0
100
AcDbLine
 10
1508.68453
 20
435.144623
 30
0.0
 11
1508.68453
 21
438.332623
 31
0.0
  0
LINE
  5
DEC2
100
AcDbEntity
  8
0
100
AcDbLine
 10
1508.68453
 20
438.332623
 30
0.0
 11
1507.87253
 21
439.144623
 31
0.0
  0
LINE
  5
DEC3
100
AcDbEntity
  8
0
100
AcDbLine
 10
1483.986631
 20
484.644623
 30
0.0
 11
1484.971184
 21
456.450713
 31
0.0
  0
LINE
  5
DEC4
100
AcDbEntity
  8
0
100
AcDbLine
 10
1495.18453
 20
492.643623
 30
0.0
 11
1512.18453
 21
492.643623
 31
0.0
  0
ARC
  5
DEC5
100
AcDbEntity
  8
0
100
AcDbCircle
 10
1499.43453
 20
503.085943
 30
0.0
 40
10.442321
100
AcDbArc
 50
245.983629
 51
294.016371
  0
LINE
  5
DEC6
100
AcDbEntity
  8
0
100
AcDbLine
 10
1495.18453
 20
492.643623
 30
0.0
 11
1495.18453
 21
499.644623
 31
0.0
  0
LINE
  5
DEC7
100
AcDbEntity
  8
0
100
AcDbLine
 10
1479.68453
 20
492.643623
 30
0.0
 11
1479.68453
 21
499.644623
 31
0.0
  0
LINE
  5
DEC8
100
AcDbEntity
  8
0
100
AcDbLine
 10
1483.986631
 20
484.644623
 30
0.0
 11
1485.081759
 21
494.319473
 31
0.0
  0
ARC
  5
DEC9
100
AcDbEntity
  8
0
100
AcDbCircle
 10
1491.043686
 20
493.644623
 30
0.0
 40
6.0
100
AcDbArc
 50
90.0
 51
173.541989
  0
LINE
  5
DECA
100
AcDbEntity
  8
0
100
AcDbLine
 10
1503.68453
 20
493.547623
 30
0.0
 11
1503.68453
 21
499.644623
 31
0.0
  0
LINE
  5
DECB
100
AcDbEntity
  8
0
100
AcDbLine
 10
1512.18453
 20
492.643623
 30
0.0
 11
1512.18453
 21
499.644623
 31
0.0
  0
ARC
  5
DECC
100
AcDbEntity
  8
0
100
AcDbCircle
 10
1507.93453
 20
503.085943
 30
0.0
 40
10.442321
100
AcDbArc
 50
245.983629
 51
294.016371
  0
LINE
  5
DECD
100
AcDbEntity
  8
0
100
AcDbLine
 10
1975.258393
 20
435.144623
 30
0.0
 11
2131.258393
 21
435.144623
 31
0.0
  0
LINE
  5
DECE
100
AcDbEntity
  8
0
100
AcDbLine
 10
1975.258393
 20
499.644623
 30
0.0
 11
2131.258393
 21
499.644623
 31
0.0
  0
LINE
  5
DECF
100
AcDbEntity
  8
0
100
AcDbLine
 10
1975.258393
 20
418.144623
 30
0.0
 11
2131.258393
 21
418.144623
 31
0.0
  0
LINE
  5
DED0
100
AcDbEntity
  8
0
100
AcDbLine
 10
2131.258393
 20
401.144623
 30
0.0
 11
1975.258393
 21
401.144623
 31
0.0
  0
LINE
  5
DED1
100
AcDbEntity
  8
0
100
AcDbLine
 10
2006.97174
 20
456.450713
 30
0.0
 11
2002.454383
 21
439.591708
 31
0.0
  0
LINE
  5
DED2
100
AcDbEntity
  8
0
100
AcDbLine
 10
1996.758393
 20
394.143623
 30
0.0
 11
1979.758393
 21
394.143623
 31
0.0
  0
ARC
  5
DED3
100
AcDbEntity
  8
0
100
AcDbCircle
 10
1984.008393
 20
404.585943
 30
0.0
 40
10.442321
100
AcDbArc
 50
245.983629
 51
294.016371
  0
LINE
  5
DED4
100
AcDbEntity
  8
0
100
AcDbLine
 10
1984.070393
 20
439.144623
 30
0.0
 11
1992.446393
 21
439.144623
 31
0.0
  0
LINE
  5
DED5
100
AcDbEntity
  8
0
100
AcDbLine
 10
1975.258393
 20
401.144623
 30
0.0
 11
1975.258393
 21
435.144623
 31
0.0
  0
LINE
  5
DED6
100
AcDbEntity
  8
0
100
AcDbLine
 10
1979.758393
 20
394.143623
 30
0.0
 11
1979.758393
 21
401.144623
 31
0.0
  0
LINE
  5
DED7
100
AcDbEntity
  8
0
100
AcDbLine
 10
1983.258393
 20
435.144623
 30
0.0
 11
1983.258393
 21
438.332623
 31
0.0
  0
LINE
  5
DED8
100
AcDbEntity
  8
0
100
AcDbLine
 10
1983.258393
 20
438.332623
 30
0.0
 11
1984.070393
 21
439.144623
 31
0.0
  0
ARC
  5
DED9
100
AcDbEntity
  8
0
100
AcDbCircle
 10
1992.508393
 20
404.585943
 30
0.0
 40
10.442321
100
AcDbArc
 50
245.983629
 51
294.016371
  0
LINE
  5
DEDA
100
AcDbEntity
  8
0
100
AcDbLine
 10
1988.258393
 20
395.047623
 30
0.0
 11
1988.258393
 21
401.144623
 31
0.0
  0
LINE
  5
DEDB
100
AcDbEntity
  8
0
100
AcDbLine
 10
1996.758393
 20
394.143623
 30
0.0
 11
1996.758393
 21
401.144623
 31
0.0
  0
ARC
  5
DEDC
100
AcDbEntity
  8
0
100
AcDbCircle
 10
2026.758393
 20
397.144623
 30
0.0
 40
4.0
100
AcDbArc
 50
0.0
 51
51.317813
  0
LINE
  5
DEDD
100
AcDbEntity
  8
0
100
AcDbLine
 10
2029.258393
 20
394.143623
 30
0.0
 11
2029.258393
 21
401.144623
 31
0.0
  0
LINE
  5
DEDE
100
AcDbEntity
  8
0
100
AcDbLine
 10
2020.758393
 20
395.047623
 30
0.0
 11
2020.758393
 21
401.144623
 31
0.0
  0
LINE
  5
DEDF
100
AcDbEntity
  8
0
100
AcDbLine
 10
2012.258393
 20
394.143623
 30
0.0
 11
2012.258393
 21
401.144623
 31
0.0
  0
ARC
  5
DEE0
100
AcDbEntity
  8
0
100
AcDbCircle
 10
2016.508393
 20
404.585943
 30
0.0
 40
10.442321
100
AcDbArc
 50
245.983629
 51
294.016371
  0
LINE
  5
DEE1
100
AcDbEntity
  8
0
100
AcDbLine
 10
2029.258393
 20
394.143623
 30
0.0
 11
2012.258393
 21
394.143623
 31
0.0
  0
ARC
  5
DEE2
100
AcDbEntity
  8
0
100
AcDbCircle
 10
2025.008393
 20
404.585943
 30
0.0
 40
10.442321
100
AcDbArc
 50
245.983629
 51
294.016371
  0
LINE
  5
DEE3
100
AcDbEntity
  8
0
100
AcDbLine
 10
1993.258393
 20
438.332623
 30
0.0
 11
1993.258393
 21
435.144623
 31
0.0
  0
LINE
  5
DEE4
100
AcDbEntity
  8
0
100
AcDbLine
 10
1992.446393
 20
439.144623
 30
0.0
 11
1993.258393
 21
438.332623
 31
0.0
  0
ARC
  5
DEE5
100
AcDbEntity
  8
0
100
AcDbCircle
 10
1996.658828
 20
441.144623
 30
0.0
 40
6.0
100
AcDbArc
 50
270.0
 51
345.0
  0
LINE
  5
DEE6
100
AcDbEntity
  8
0
100
AcDbLine
 10
2015.758393
 20
435.144623
 30
0.0
 11
2015.758393
 21
438.332623
 31
0.0
  0
LINE
  5
DEE7
100
AcDbEntity
  8
0
100
AcDbLine
 10
2025.758393
 20
438.332623
 30
0.0
 11
2025.758393
 21
435.144623
 31
0.0
  0
LINE
  5
DEE8
100
AcDbEntity
  8
0
100
AcDbLine
 10
2024.946393
 20
439.144623
 30
0.0
 11
2025.758393
 21
438.332623
 31
0.0
  0
LINE
  5
DEE9
100
AcDbEntity
  8
0
100
AcDbLine
 10
2016.570393
 20
439.144623
 30
0.0
 11
2024.946393
 21
439.144623
 31
0.0
  0
LINE
  5
DEEA
100
AcDbEntity
  8
0
100
AcDbLine
 10
2015.758393
 20
438.332623
 30
0.0
 11
2016.570393
 21
439.144623
 31
0.0
  0
ARC
  5
DEEB
100
AcDbEntity
  8
0
100
AcDbCircle
 10
1984.008393
 20
503.085943
 30
0.0
 40
10.442321
100
AcDbArc
 50
245.983629
 51
294.016371
  0
LINE
  5
DEEC
100
AcDbEntity
  8
0
100
AcDbLine
 10
1996.758393
 20
492.643623
 30
0.0
 11
1979.758393
 21
492.643623
 31
0.0
  0
LINE
  5
DEED
100
AcDbEntity
  8
0
100
AcDbLine
 10
1979.758393
 20
492.643623
 30
0.0
 11
1979.758393
 21
499.644623
 31
0.0
  0
LINE
  5
DEEE
100
AcDbEntity
  8
0
100
AcDbLine
 10
2007.956293
 20
484.644623
 30
0.0
 11
2006.97174
 21
456.450713
 31
0.0
  0
LINE
  5
DEEF
100
AcDbEntity
  8
0
100
AcDbLine
 10
1996.758393
 20
492.643623
 30
0.0
 11
1996.758393
 21
499.644623
 31
0.0
  0
LINE
  5
DEF0
100
AcDbEntity
  8
0
100
AcDbLine
 10
1988.258393
 20
493.547623
 30
0.0
 11
1988.258393
 21
499.644623
 31
0.0
  0
ARC
  5
DEF1
100
AcDbEntity
  8
0
100
AcDbCircle
 10
1992.508393
 20
503.085943
 30
0.0
 40
10.442321
100
AcDbArc
 50
245.983629
 51
294.016371
  0
LINE
  5
DEF2
100
AcDbEntity
  8
0
100
AcDbLine
 10
2007.956293
 20
484.644623
 30
0.0
 11
2006.861165
 21
494.319473
 31
0.0
  0
ARC
  5
DEF3
100
AcDbEntity
  8
0
100
AcDbCircle
 10
2000.899237
 20
493.644623
 30
0.0
 40
6.0
100
AcDbArc
 50
6.458011
 51
90.0
  0
ARC
  5
DEF4
100
AcDbEntity
  8
0
100
AcDbCircle
 10
2016.508393
 20
503.085943
 30
0.0
 40
10.442321
100
AcDbArc
 50
245.983629
 51
294.016371
  0
LINE
  5
DEF5
100
AcDbEntity
  8
0
100
AcDbLine
 10
2012.258393
 20
492.643623
 30
0.0
 11
2012.258393
 21
499.644623
 31
0.0
  0
LINE
  5
DEF6
100
AcDbEntity
  8
0
100
AcDbLine
 10
2029.258393
 20
492.643623
 30
0.0
 11
2012.258393
 21
492.643623
 31
0.0
  0
LINE
  5
DEF7
100
AcDbEntity
  8
0
100
AcDbLine
 10
2029.258393
 20
492.643623
 30
0.0
 11
2029.258393
 21
499.644623
 31
0.0
  0
LINE
  5
DEF8
100
AcDbEntity
  8
0
100
AcDbLine
 10
2020.758393
 20
493.547623
 30
0.0
 11
2020.758393
 21
499.644623
 31
0.0
  0
ARC
  5
DEF9
100
AcDbEntity
  8
0
100
AcDbCircle
 10
2025.008393
 20
503.085943
 30
0.0
 40
10.442321
100
AcDbArc
 50
245.983629
 51
294.016371
  0
LINE
  5
DEFA
100
AcDbEntity
  8
0
100
AcDbLine
 10
2099.545047
 20
456.450713
 30
0.0
 11
2104.062403
 21
439.591708
 31
0.0
  0
ARC
  5
DEFB
100
AcDbEntity
  8
0
100
AcDbCircle
 10
2122.508393
 20
404.585943
 30
0.0
 40
10.442321
100
AcDbArc
 50
245.983629
 51
294.016371
  0
LINE
  5
DEFC
100
AcDbEntity
  8
0
100
AcDbLine
 10
2109.758393
 20
394.143623
 30
0.0
 11
2126.758393
 21
394.143623
 31
0.0
  0
ARC
  5
DEFD
100
AcDbEntity
  8
0
100
AcDbCircle
 10
2081.508393
 20
404.585943
 30
0.0
 40
10.442321
100
AcDbArc
 50
245.983629
 51
294.016371
  0
LINE
  5
DEFE
100
AcDbEntity
  8
0
100
AcDbLine
 10
2077.258393
 20
394.143623
 30
0.0
 11
2094.258393
 21
394.143623
 31
0.0
  0
ARC
  5
DEFF
100
AcDbEntity
  8
0
100
AcDbCircle
 10
2079.758393
 20
397.144623
 30
0.0
 40
4.0
100
AcDbArc
 50
128.682187
 51
180.0
  0
LINE
  5
DF00
100
AcDbEntity
  8
0
100
AcDbLine
 10
2077.258393
 20
394.143623
 30
0.0
 11
2077.258393
 21
401.144623
 31
0.0
  0
LINE
  5
DF01
100
AcDbEntity
  8
0
100
AcDbLine
 10
2094.258393
 20
394.143623
 30
0.0
 11
2094.258393
 21
401.144623
 31
0.0
  0
LINE
  5
DF02
100
AcDbEntity
  8
0
100
AcDbLine
 10
2085.758393
 20
395.047623
 30
0.0
 11
2085.758393
 21
401.144623
 31
0.0
  0
ARC
  5
DF03
100
AcDbEntity
  8
0
100
AcDbCircle
 10
2090.008393
 20
404.585943
 30
0.0
 40
10.442321
100
AcDbArc
 50
245.983629
 51
294.016371
  0
LINE
  5
DF04
100
AcDbEntity
  8
0
100
AcDbLine
 10
2118.258393
 20
395.047623
 30
0.0
 11
2118.258393
 21
401.144623
 31
0.0
  0
LINE
  5
DF05
100
AcDbEntity
  8
0
100
AcDbLine
 10
2109.758393
 20
394.143623
 30
0.0
 11
2109.758393
 21
401.144623
 31
0.0
  0
ARC
  5
DF06
100
AcDbEntity
  8
0
100
AcDbCircle
 10
2114.008393
 20
404.585943
 30
0.0
 40
10.442321
100
AcDbArc
 50
245.983629
 51
294.016371
  0
LINE
  5
DF07
100
AcDbEntity
  8
0
100
AcDbLine
 10
2080.758393
 20
438.332623
 30
0.0
 11
2080.758393
 21
435.144623
 31
0.0
  0
LINE
  5
DF08
100
AcDbEntity
  8
0
100
AcDbLine
 10
2090.758393
 20
435.144623
 30
0.0
 11
2090.758393
 21
438.332623
 31
0.0
  0
LINE
  5
DF09
100
AcDbEntity
  8
0
100
AcDbLine
 10
2089.946393
 20
439.144623
 30
0.0
 11
2081.570393
 21
439.144623
 31
0.0
  0
LINE
  5
DF0A
100
AcDbEntity
  8
0
100
AcDbLine
 10
2090.758393
 20
438.332623
 30
0.0
 11
2089.946393
 21
439.144623
 31
0.0
  0
LINE
  5
DF0B
100
AcDbEntity
  8
0
100
AcDbLine
 10
2081.570393
 20
439.144623
 30
0.0
 11
2080.758393
 21
438.332623
 31
0.0
  0
LINE
  5
DF0C
100
AcDbEntity
  8
0
100
AcDbLine
 10
2123.258393
 20
435.144623
 30
0.0
 11
2123.258393
 21
438.332623
 31
0.0
  0
LINE
  5
DF0D
100
AcDbEntity
  8
0
100
AcDbLine
 10
2113.258393
 20
438.332623
 30
0.0
 11
2113.258393
 21
435.144623
 31
0.0
  0
LINE
  5
DF0E
100
AcDbEntity
  8
0
100
AcDbLine
 10
2114.070393
 20
439.144623
 30
0.0
 11
2113.258393
 21
438.332623
 31
0.0
  0
LINE
  5
DF0F
100
AcDbEntity
  8
0
100
AcDbLine
 10
2122.446393
 20
439.144623
 30
0.0
 11
2114.070393
 21
439.144623
 31
0.0
  0
LINE
  5
DF10
100
AcDbEntity
  8
0
100
AcDbLine
 10
2123.258393
 20
438.332623
 30
0.0
 11
2122.446393
 21
439.144623
 31
0.0
  0
ARC
  5
DF11
100
AcDbEntity
  8
0
100
AcDbCircle
 10
2109.857958
 20
441.144623
 30
0.0
 40
6.0
100
AcDbArc
 50
195.0
 51
270.0
  0
LINE
  5
DF12
100
AcDbEntity
  8
0
100
AcDbLine
 10
2131.258393
 20
401.144623
 30
0.0
 11
2131.258393
 21
435.144623
 31
0.0
  0
LINE
  5
DF13
100
AcDbEntity
  8
0
100
AcDbLine
 10
2126.758393
 20
394.143623
 30
0.0
 11
2126.758393
 21
401.144623
 31
0.0
  0
ARC
  5
DF14
100
AcDbEntity
  8
0
100
AcDbCircle
 10
2122.508393
 20
503.085943
 30
0.0
 40
10.442321
100
AcDbArc
 50
245.983629
 51
294.016371
  0
LINE
  5
DF15
100
AcDbEntity
  8
0
100
AcDbLine
 10
2109.758393
 20
492.643623
 30
0.0
 11
2126.758393
 21
492.643623
 31
0.0
  0
ARC
  5
DF16
100
AcDbEntity
  8
0
100
AcDbCircle
 10
2081.508393
 20
503.085943
 30
0.0
 40
10.442321
100
AcDbArc
 50
245.983629
 51
294.016371
  0
LINE
  5
DF17
100
AcDbEntity
  8
0
100
AcDbLine
 10
2077.258393
 20
492.643623
 30
0.0
 11
2094.258393
 21
492.643623
 31
0.0
  0
LINE
  5
DF18
100
AcDbEntity
  8
0
100
AcDbLine
 10
2077.258393
 20
492.643623
 30
0.0
 11
2077.258393
 21
499.644623
 31
0.0
  0
LINE
  5
DF19
100
AcDbEntity
  8
0
100
AcDbLine
 10
2098.560494
 20
484.644623
 30
0.0
 11
2099.545047
 21
456.450713
 31
0.0
  0
ARC
  5
DF1A
100
AcDbEntity
  8
0
100
AcDbCircle
 10
2105.617549
 20
493.644623
 30
0.0
 40
6.0
100
AcDbArc
 50
90.0
 51
173.541989
  0
LINE
  5
DF1B
100
AcDbEntity
  8
0
100
AcDbLine
 10
2094.258393
 20
492.643623
 30
0.0
 11
2094.258393
 21
499.644623
 31
0.0
  0
LINE
  5
DF1C
100
AcDbEntity
  8
0
100
AcDbLine
 10
2085.758393
 20
493.547623
 30
0.0
 11
2085.758393
 21
499.644623
 31
0.0
  0
ARC
  5
DF1D
100
AcDbEntity
  8
0
100
AcDbCircle
 10
2090.008393
 20
503.085943
 30
0.0
 40
10.442321
100
AcDbArc
 50
245.983629
 51
294.016371
  0
LINE
  5
DF1E
100
AcDbEntity
  8
0
100
AcDbLine
 10
2098.560494
 20
484.644623
 30
0.0
 11
2099.655622
 21
494.319473
 31
0.0
  0
LINE
  5
DF1F
100
AcDbEntity
  8
0
100
AcDbLine
 10
2118.258393
 20
493.547623
 30
0.0
 11
2118.258393
 21
499.644623
 31
0.0
  0
LINE
  5
DF20
100
AcDbEntity
  8
0
100
AcDbLine
 10
2109.758393
 20
492.643623
 30
0.0
 11
2109.758393
 21
499.644623
 31
0.0
  0
ARC
  5
DF21
100
AcDbEntity
  8
0
100
AcDbCircle
 10
2114.008393
 20
503.085943
 30
0.0
 40
10.442321
100
AcDbArc
 50
245.983629
 51
294.016371
  0
LINE
  5
DF22
100
AcDbEntity
  8
0
100
AcDbLine
 10
2126.758393
 20
492.643623
 30
0.0
 11
2126.758393
 21
499.644623
 31
0.0
  0
VIEWPORT
  5
41
100
AcDbEntity
 67
     1
  8
0
100
AcDbViewport
 10
117.358407
 20
73.5
 30
0.0
 40
234.716814
 41
147.0
 68
    -1
 69
     1
1001
ACAD
1000
MVIEW
1002
{
1070
    16
1010
0.0
1020
0.0
1030
0.0
1010
0.0
1020
0.0
1030
1.0
1040
0.0
1040
147.0
1040
117.358407
1040
73.5
1040
50.0
1040
0.0
1040
0.0
1070
     0
1070
   100
1070
     1
1070
     1
1070
     0
1070
     0
1070
     0
1070
     0
1040
0.0
1040
0.0
1040
0.0
1040
1.0
1040
1.0
1040
0.0
1040
0.0
1070
     0
1002
{
1002
}
1002
}
  0
ENDSEC
  0
SECTION
  2
OBJECTS
  0
DICTIONARY
  5
C
100
AcDbDictionary
  3
ACAD_GROUP
350
D
  3
ACAD_MLINESTYLE
350
E
  0
DICTIONARY
  5
D
102
{ACAD_REACTORS
330
C
102
}
100
AcDbDictionary
  0
DICTIONARY
  5
E
102
{ACAD_REACTORS
330
C
102
}
100
AcDbDictionary
  3
STANDARD
350
1B
  0
MLINESTYLE
  5
1B
102
{ACAD_REACTORS
330
E
102
}
100
AcDbMlineStyle
  2
STANDARD
 70
     0
  3

 62
     0
 51
90.0
 52
90.0
 71
     2
 49
0.5
 62
   256
  6
BYLAYER
 49
-0.5
 62
   256
  6
BYLAYER
  0
ENDSEC
  0
EOF
