  0
SECTION
  2
HEADER
  9
$ACADVER
  1
AC1009
  9
$INSBASE
 10
0.0
 20
0.0
 30
0.0
  9
$EXTMIN
 10
66.0
 20
30.0
 30
0.0
  9
$EXTMAX
 10
1716.0
 20
1146.0
 30
0.0
  9
$LIMMIN
 10
0.0
 20
0.0
  9
$LIMMAX
 10
1782.0
 20
1260.0
  9
$ORTHOMODE
 70
     1
  9
$REGENMODE
 70
     1
  9
$FILLMODE
 70
     1
  9
$QTEXTMODE
 70
     0
  9
$MIRRTEXT
 70
     1
  9
$DRAGMODE
 70
     2
  9
$LTSCALE
 40
4.0
  9
$OSMODE
 70
   163
  9
$ATTMODE
 70
     1
  9
$TEXTSIZE
 40
24.0
  9
$TRACEWID
 40
0.05
  9
$TEXTSTYLE
  7
STANDARD
  9
$CLAYER
  8
0
  9
$CELTYPE
  6
BYLAYER
  9
$CECOLOR
 62
   256
  9
$DIMSCALE
 40
6.0
  9
$DIMASZ
 40
2.7999999999999989
  9
$DIMEXO
 40
1.0
  9
$DIMDLI
 40
5.0
  9
$DIMRND
 40
0.1
  9
$DIMDLE
 40
0.0
  9
$DIMEXE
 40
1.0
  9
$DIMTP
 40
0.0
  9
$DIMTM
 40
0.0
  9
$DIMTXT
 40
2.5
  9
$DIMCEN
 40
0.0
  9
$DIMTSZ
 40
0.0
  9
$DIMTOL
 70
     0
  9
$DIMLIM
 70
     0
  9
$DIMTIH
 70
     0
  9
$DIMTOH
 70
     0
  9
$DIMSE1
 70
     0
  9
$DIMSE2
 70
     0
  9
$DIMTAD
 70
     3
  9
$DIMZIN
 70
     8
  9
$DIMBLK
  1

  9
$DIMASO
 70
     1
  9
$DIMSHO
 70
     1
  9
$DIMPOST
  1
 
  9
$DIMAPOST
  1

  9
$DIMALT
 70
     0
  9
$DIMALTD
 70
     2
  9
$DIMALTF
 40
1.0
  9
$DIMLFAC
 40
1.0
  9
$DIMTOFL
 70
     1
  9
$DIMTVP
 40
0.0
  9
$DIMTIX
 70
     0
  9
$DIMSOXD
 70
     0
  9
$DIMSAH
 70
     1
  9
$DIMBLK1
  1
OPEN
  9
$DIMBLK2
  1
OPEN
  9
$DIMSTYLE
  2
DIM1
  9
$DIMCLRD
 70
     2
  9
$DIMCLRE
 70
     2
  9
$DIMCLRT
 70
     2
  9
$DIMTFAC
 40
0.7
  9
$DIMGAP
 40
0.85
  9
$LUNITS
 70
     2
  9
$LUPREC
 70
     4
  9
$SKETCHINC
 40
0.1
  9
$FILLETRAD
 40
0.0
  9
$AUNITS
 70
     0
  9
$AUPREC
 70
     0
  9
$MENU
  1
C:\ACADR13\WIN\SUPPORT\ACAD.mnc
  9
$ELEVATION
 40
0.0
  9
$PELEVATION
 40
0.0
  9
$THICKNESS
 40
0.0
  9
$LIMCHECK
 70
     0
  9
$BLIPMODE
 70
     0
  9
$CHAMFERA
 40
0.0
  9
$CHAMFERB
 40
0.0
  9
$SKPOLY
 70
     0
  9
$TDCREATE
 40
2451564.492637882
  9
$TDUPDATE
 40
2454819.5952403252
  9
$TDINDWG
 40
0.0773715162
  9
$TDUSRTIMER
 40
0.0773715162
  9
$USRTIMER
 70
     1
  9
$ANGBASE
 50
0.0
  9
$ANGDIR
 70
     0
  9
$PDMODE
 70
     0
  9
$PDSIZE
 40
0.0
  9
$PLINEWID
 40
0.0
  9
$COORDS
 70
     0
  9
$SPLFRAME
 70
     0
  9
$SPLINETYPE
 70
     6
  9
$SPLINESEGS
 70
     8
  9
$ATTDIA
 70
     0
  9
$ATTREQ
 70
     1
  9
$HANDLING
 70
     1
  9
$HANDSEED
  5
44B2
  9
$SURFTAB1
 70
     6
  9
$SURFTAB2
 70
     6
  9
$SURFTYPE
 70
     6
  9
$SURFU
 70
     6
  9
$SURFV
 70
     6
  9
$UCSNAME
  2

  9
$UCSORG
 10
0.0
 20
0.0
 30
0.0
  9
$UCSXDIR
 10
1.0
 20
0.0
 30
0.0
  9
$UCSYDIR
 10
0.0
 20
1.0
 30
0.0
  9
$PUCSNAME
  2

  9
$PUCSORG
 10
0.0
 20
0.0
 30
0.0
  9
$PUCSXDIR
 10
1.0
 20
0.0
 30
0.0
  9
$PUCSYDIR
 10
0.0
 20
1.0
 30
0.0
  9
$USERI1
 70
     0
  9
$USERI2
 70
     0
  9
$USERI3
 70
     0
  9
$USERI4
 70
     0
  9
$USERI5
 70
     0
  9
$USERR1
 40
0.0
  9
$USERR2
 40
0.0
  9
$USERR3
 40
0.0
  9
$USERR4
 40
0.0
  9
$USERR5
 40
0.0
  9
$WORLDVIEW
 70
     1
  9
$SHADEDGE
 70
     3
  9
$SHADEDIF
 70
    70
  9
$TILEMODE
 70
     1
  9
$MAXACTVP
 70
    16
  9
$PLIMCHECK
 70
     0
  9
$PEXTMIN
 10
1.0000000000000000E+020
 20
1.0000000000000000E+020
 30
1.0000000000000000E+020
  9
$PEXTMAX
 10
-1.0000000000000000E+020
 20
-1.0000000000000000E+020
 30
-1.0000000000000000E+020
  9
$PLIMMIN
 10
0.0
 20
0.0
  9
$PLIMMAX
 10
20.0
 20
147.0
  9
$UNITMODE
 70
     0
  9
$VISRETAIN
 70
     0
  9
$PLINEGEN
 70
     0
  9
$PSLTSCALE
 70
     1
  0
ENDSEC
  0
SECTION
  2
TABLES
  0
TABLE
  2
VPORT
 70
     1
  0
VPORT
  2
*ACTIVE
 70
     0
 10
0.0
 20
0.0
 11
1.0
 21
1.0
 12
1346.632028470148
 22
630.0
 13
0.0
 23
0.0
 14
1.0
 24
1.0
 15
0.0
 25
0.0
 16
0.0
 26
0.0
 36
1.0
 17
0.0
 27
0.0
 37
0.0
 40
1720.284076232648
 41
1.5742574257425741
 42
50.0
 43
0.0
 44
0.0
 50
0.0
 51
0.0
 71
     0
 72
   100
 73
     1
 74
     1
 75
     0
 76
     0
 77
     0
 78
     0
  0
ENDTAB
  0
TABLE
  2
LTYPE
 70
     5
  0
LTYPE
  2
CONTINUOUS
 70
     0
  3
Solid line
 72
    65
 73
     0
 40
0.0
  0
ENDTAB
  0
TABLE
  2
LAYER
 70
    15
  0
LAYER
  2
0
 70
     0
 62
     7
  6
CONTINUOUS
  0
ENDTAB
  0
TABLE
  2
STYLE
 70
     3
  0
STYLE
  2
STANDARD
 70
     0
 40
0.0
 41
0.8
 50
0.0
 71
     0
 42
24.0
  3
simplex
  4
extfont
  0
STYLE
  2
PTSH
 70
     0
 40
0.0
 41
0.9
 50
0.0
 71
     0
 42
4.0
  3
SIMPLEX
  4
EXTFONT
  0
STYLE
  2
DIM
 70
     0
 40
0.0
 41
0.8
 50
0.0
 71
     0
 42
4.0
  3
simplex
  4
extfont
  0
ENDTAB
  0
TABLE
  2
VIEW
 70
     0
  0
ENDTAB
  0
TABLE
  2
UCS
 70
     0
  0
ENDTAB
  0
TABLE
  2
APPID
 70
     4
  0
APPID
  2
ACAD
 70
     0
  0
APPID
  2
ACAD_MLEADERVER
 70
     0
  0
APPID
  2
ACAD_DSTYLE_DIMTEXT_FILL
 70
     0
  0
APPID
  2
ACAD_PSEXT
 70
     0
  0
ENDTAB
  0
TABLE
  2
DIMSTYLE
 70
     6
  0
DIMSTYLE
  2
DIM1
 70
     0
  3
 
  4

  5

  6
OPEN
  7
OPEN
 40
6.0
 41
2.7999999999999989
 42
1.0
 43
5.0
 44
1.0
 45
0.1
 46
0.0
 47
0.0
 48
0.0
140
2.5
141
0.0
142
0.0
143
1.0
144
1.0
145
0.0
146
0.7
147
0.85
 71
     0
 72
     0
 73
     0
 74
     0
 75
     0
 76
     0
 77
     3
 78
     8
170
     0
171
     2
172
     1
173
     1
174
     0
175
     0
176
     2
177
     2
178
     2
  0
ENDTAB
  0
ENDSEC
  0
SECTION
  2
BLOCKS
  0
BLOCK
  8
0
  2
$MODEL_SPACE
 70
     0
 10
0.0
 20
0.0
 30
0.0
  3
$MODEL_SPACE
  1

  0
ENDBLK
  5
3D
  8
0
  0
BLOCK
 67
     1
  8
0
  2
$PAPER_SPACE
 70
     0
 10
0.0
 20
0.0
 30
0.0
  3
$PAPER_SPACE
  1

  0
ENDBLK
  5
3B
 67
     1
  8
0
  0
BLOCK
  8
0
  2
_OPEN
 70
     0
 10
0.0
 20
0.0
 30
0.0
  3
_OPEN
  1
H1111.DWG
  0
LINE
  5
244A
  8
0
  6
BYBLOCK
 62
     0
 10
-1.0
 20
0.1666666666666666
 30
0.0
 11
0.0
 21
0.0
 31
0.0
  0
LINE
  5
244B
  8
0
  6
BYBLOCK
 62
     0
 10
0.0
 20
0.0
 30
0.0
 11
-1.0
 21
-0.1666666666666666
 31
0.0
  0
LINE
  5
244C
  8
0
  6
BYBLOCK
 62
     0
 10
0.0
 20
0.0
 30
0.0
 11
-1.0
 21
0.0
 31
0.0
  0
ENDBLK
  5
244D
  8
0
  0
BLOCK
  8
0
  2
00000
 70
     0
 10
0.0
 20
0.0
 30
0.0
  3
00000
  1

  0
ENDBLK
  5
4379
  8
0
  0
BLOCK
  8
0
  2
*U3
 70
     1
 10
0.0
 20
0.0
 30
0.0
  3
*U3
  1

  0
TEXT
  5
44AB
  8
0
 62
     2
 10
519.05975389523644
 20
568.01111850821826
 30
0.0
 40
15.0
  1
150
 41
0.8
  7
DIM
  0
ENDBLK
  5
44AD
  8
0
  0
BLOCK
  8
0
  2
*U4
 70
     1
 10
0.0
 20
0.0
 30
0.0
  3
*U4
  1

  0
TEXT
  5
44AF
  8
0
 62
     2
 10
1242.9075289742091
 20
558.71270857402271
 30
0.0
 40
15.0
  1
170
 41
0.8
  7
DIM
  0
ENDBLK
  5
44B1
  8
0
  0
ENDSEC
  0
SECTION
  2
ENTITIES
  0
TEXT
  5
2529
  8
0
  6
CONTINUOUS
 10
1618.8
 20
42.387098376353599
 30
0.0
 40
18.0
  1
DC3AS
 41
0.8
  7
PTSH
 72
     2
 11
1686.0
 21
51.387098376353599
 31
0.0
 73
     2
  0
POLYLINE
  5
2563
  8
0
 66
     1
 10
0.0
 20
0.0
 30
0.0
 70
     1
  0
VERTEX
  5
42EC
  8
0
 10
66.0
 20
30.0
 30
0.0
  0
VERTEX
  5
42ED
  8
0
 10
1716.0
 20
30.0
 30
0.0
  0
VERTEX
  5
42EE
  8
0
 10
1716.0
 20
1146.0
 30
0.0
  0
VERTEX
  5
42EF
  8
0
 10
66.0
 20
1146.0
 30
0.0
  0
SEQEND
  5
42F0
  8
0
  0
LINE
  5
2FD6
  8
0
 10
608.34546818095077
 20
691.78412316082438
 30
0.0
 11
608.34546818095077
 21
672.78412316082449
 31
0.0
  0
LINE
  5
2FD7
  8
0
 10
606.84546818095066
 20
712.28412316082438
 30
0.0
 11
606.84546818095066
 21
671.28412316082438
 31
0.0
  0
LINE
  5
2FD8
  8
0
 10
458.34546818095077
 20
691.78412316082438
 30
0.0
 11
458.34546818095077
 21
672.78412316082449
 31
0.0
  0
ARC
  5
2FD9
  8
0
 10
477.34546818095072
 20
682.78412316082438
 30
0.0
 40
4.0
 50
90.0
 51
180.0
  0
ARC
  5
2FDA
  8
0
 10
515.47896070747447
 20
682.78412316082438
 30
0.0
 40
4.0
 50
0.0
 51
90.0
  0
ARC
  5
2FDB
  8
0
 10
498.5165782054973
 20
682.78412316082438
 30
0.0
 40
4.0
 50
14.488645544556229
 51
90.0
  0
LINE
  5
2FDC
  8
0
 10
459.84546818095072
 20
712.28412316082427
 30
0.0
 11
459.84546818095072
 21
671.28412316082438
 31
0.0
  0
LINE
  5
2FDD
  8
0
 10
459.84546818095072
 20
671.28412316082438
 30
0.0
 11
493.28613718304217
 21
671.28412316082438
 31
0.0
  0
LINE
  5
2FDE
  8
0
 10
459.84546818095072
 20
481.6691845229152
 30
0.0
 11
478.34546818095077
 21
481.6691845229152
 31
0.0
  0
LINE
  5
2FDF
  8
0
 10
459.84546818095072
 20
522.66918452291486
 30
0.0
 11
472.42780988815679
 21
522.66918452291486
 31
0.0
  0
LINE
  5
2FE0
  8
0
 10
296.9139895733133
 20
309.1691845229152
 30
0.0
 11
297.00769545566618
 21
312.1691845229152
 31
0.0
  0
LINE
  5
2FE1
  8
0
 10
296.05798957331348
 20
309.1691845229152
 30
0.0
 11
296.15169545566641
 21
312.1691845229152
 31
0.0
  0
LINE
  5
2FE2
  8
0
 10
312.7199895733138
 20
309.1691845229152
 30
0.0
 11
312.62628369096092
 21
312.16918452291537
 31
0.0
  0
LINE
  5
2FE3
  8
0
 10
311.86398957331397
 20
309.1691845229152
 30
0.0
 11
311.77085433817768
 21
312.15091521463142
 31
0.0
  0
LINE
  5
2FE4
  8
0
 10
288.38898957331457
 20
312.18179646042898
 30
0.0
 11
288.38898957331372
 21
295.1691845229152
 31
0.0
  0
LINE
  5
2FE5
  8
0
 10
320.38898957331372
 20
312.16918452291571
 30
0.0
 11
320.38898957331372
 21
295.1691845229152
 31
0.0
  0
LINE
  5
2FE6
  8
0
 10
296.05798957331348
 20
300.1691845229152
 30
0.0
 11
312.7199895733138
 21
300.1691845229152
 31
0.0
  0
LINE
  5
2FE7
  8
0
 10
296.05798957331348
 20
309.1691845229152
 30
0.0
 11
312.7199895733138
 21
309.1691845229152
 31
0.0
  0
LINE
  5
2FE8
  8
0
 10
318.38898957331372
 20
293.1691845229152
 30
0.0
 11
304.38898957331372
 21
293.1691845229152
 31
0.0
  0
LINE
  5
2FE9
  8
0
 10
304.38898957331372
 20
293.1691845229152
 30
0.0
 11
290.38898957331361
 21
293.1691845229152
 31
0.0
  0
ARC
  5
2FEA
  8
0
 10
290.38898957331361
 20
295.1691845229152
 30
0.0
 40
2.0
 50
180.0
 51
269.99999999999989
  0
LINE
  5
2FEB
  8
0
 10
296.05798957331348
 20
300.1691845229152
 30
0.0
 11
296.05798957331348
 21
309.1691845229152
 31
0.0
  0
LINE
  5
2FEC
  8
0
 10
304.38898957331372
 20
300.1691845229152
 30
0.0
 11
304.38898957331372
 21
309.1691845229152
 31
0.0
  0
LINE
  5
2FED
  8
0
 10
312.7199895733138
 20
300.1691845229152
 30
0.0
 11
312.7199895733138
 21
309.1691845229152
 31
0.0
  0
ARC
  5
2FEE
  8
0
 10
318.38898957331372
 20
295.1691845229152
 30
0.0
 40
2.0
 50
269.99999999999989
 51
0.0
  0
LINE
  5
2FEF
  8
0
 10
459.84546818095072
 20
522.66918452291486
 30
0.0
 11
459.84546818095072
 21
481.6691845229152
 31
0.0
  0
LINE
  5
2FF0
  8
0
 10
458.34546818095077
 20
521.16918452291486
 30
0.0
 11
458.34546818095077
 21
502.1691845229152
 31
0.0
  0
ARC
  5
2FF1
  8
0
 10
271.38898957331361
 20
498.1691845229152
 30
0.0
 40
12.0
 50
110.3682734002014
 51
179.9999999999998
  0
CIRCLE
  5
2FF2
  8
0
 10
304.38898957331372
 20
502.1691845229152
 30
0.0
 40
20.5
  0
CIRCLE
  5
2FF3
  8
0
 10
304.38898957331372
 20
502.1691845229152
 30
0.0
 40
19.0
  0
ARC
  5
2FF4
  8
0
 10
337.38898957331372
 20
498.1691845229152
 30
0.0
 40
12.0
 50
0.0000000000002036
 51
69.631726599798569
  0
LINE
  5
2FF5
  8
0
 10
353.88898957331372
 20
409.1691845229152
 30
0.0
 11
254.88898957331361
 21
409.1691845229152
 31
0.0
  0
LINE
  5
2FF6
  8
0
 10
355.88898957331372
 20
424.16918452291509
 30
0.0
 11
252.88898957331361
 21
424.16918452291509
 31
0.0
  0
LINE
  5
2FF7
  8
0
 10
353.88898957331372
 20
439.1691845229152
 30
0.0
 11
254.88898957331361
 21
439.1691845229152
 31
0.0
  0
LINE
  5
2FF8
  8
0
 10
353.88898957331372
 20
323.1691845229152
 30
0.0
 11
254.88898957331361
 21
323.1691845229152
 31
0.0
  0
LINE
  5
2FF9
  8
0
 10
355.88898957331372
 20
338.1691845229152
 30
0.0
 11
252.88898957331361
 21
338.1691845229152
 31
0.0
  0
LINE
  5
2FFA
  8
0
 10
353.88898957331372
 20
353.1691845229152
 30
0.0
 11
254.88898957331361
 21
353.1691845229152
 31
0.0
  0
ARC
  5
2FFB
  8
0
 10
273.68407176712748
 20
317.1691845229152
 30
0.0
 40
6.0
 50
20.000000000000039
 51
86.999345533599353
  0
ARC
  5
2FFC
  8
0
 10
254.88898957331361
 20
411.16918452291509
 30
0.0
 40
2.0
 50
180.0000000000008
 51
270.0
  0
LINE
  5
2FFD
  8
0
 10
273.99815594620031
 20
402.0731845229152
 30
0.0
 11
273.99815594620031
 21
409.1691845229152
 31
0.0
  0
LINE
  5
2FFE
  8
0
 10
265.49811660805608
 20
402.0731845229152
 30
0.0
 11
265.49811660805608
 21
409.1691845229152
 31
0.0
  0
LINE
  5
2FFF
  8
0
 10
256.9980772699127
 20
402.0731845229152
 30
0.0
 11
256.9980772699127
 21
409.1691845229152
 31
0.0
  0
LINE
  5
3001
  8
0
 10
259.3415920258613
 20
363.1691845229152
 30
0.0
 11
257.86251063842792
 21
355.59426119173258
 31
0.0
  0
LINE
  5
3002
  8
0
 10
252.88898957331361
 20
338.16918452291537
 30
0.0
 11
252.88898957331361
 21
325.1691845229152
 31
0.0
  0
LINE
  5
3003
  8
0
 10
272.4331559461998
 20
315.16918452291537
 30
0.0
 11
258.56307726990963
 21
315.1691845229152
 31
0.0
  0
ARC
  5
3004
  8
0
 10
261.24809693898442
 20
325.6115977903396
 30
0.0
 40
10.44241326742447
 50
245.98373718587089
 51
294.01626281413007
  0
LINE
  5
3005
  8
0
 10
256.9980772699127
 20
316.0731845229152
 30
0.0
 11
256.9980772699127
 21
323.1691845229152
 31
0.0
  0
LINE
  5
3006
  8
0
 10
258.56307726991048
 20
315.1691845229152
 30
0.0
 11
256.9980772699119
 21
316.0731845229152
 31
0.0
  0
ARC
  5
3007
  8
0
 10
254.88898957331361
 20
325.1691845229152
 30
0.0
 40
2.0
 50
180.0
 51
270.0
  0
LINE
  5
3008
  8
0
 10
261.31011660805422
 20
311.1691845229152
 30
0.0
 11
260.49811660805432
 21
311.98118452291533
 31
0.0
  0
LINE
  5
3009
  8
0
 10
260.49811660805432
 20
311.98118452291533
 30
0.0
 11
260.49811660805432
 21
315.1691845229152
 31
0.0
  0
LINE
  5
300A
  8
0
 10
270.49811660805432
 20
311.98118452291533
 30
0.0
 11
269.68611660805442
 21
311.1691845229152
 31
0.0
  0
LINE
  5
300B
  8
0
 10
270.49811660805432
 20
315.1691845229152
 30
0.0
 11
270.49811660805432
 21
311.98118452291533
 31
0.0
  0
LINE
  5
300C
  8
0
 10
260.49811660805432
 20
311.98118452291533
 30
0.0
 11
270.49811660805432
 21
311.98118452291533
 31
0.0
  0
LINE
  5
300D
  8
0
 10
269.68611660805442
 20
311.1691845229152
 30
0.0
 11
261.31011660805422
 21
311.1691845229152
 31
0.0
  0
LINE
  5
300E
  8
0
 10
265.49811660805608
 20
316.0731845229152
 30
0.0
 11
265.49811660805608
 21
323.1691845229152
 31
0.0
  0
LINE
  5
300F
  8
0
 10
273.99815594620031
 20
316.0731845229152
 30
0.0
 11
273.99815594620031
 21
323.1691845229152
 31
0.0
  0
LINE
  5
3010
  8
0
 10
273.99815594620122
 20
316.0731845229152
 30
0.0
 11
272.43315594620071
 21
315.1691845229152
 31
0.0
  0
ARC
  5
3011
  8
0
 10
269.74813627712871
 20
325.61159779033909
 30
0.0
 40
10.442413267423641
 50
245.9837371858689
 51
294.01626281413007
  0
ARC
  5
3012
  8
0
 10
254.88898957331361
 20
351.1691845229152
 30
0.0
 40
2.0
 50
90.0
 51
180.0
  0
ARC
  5
3013
  8
0
 10
254.91811542662981
 20
356.1691845229152
 30
0.0
 40
3.0
 50
270.0
 51
348.95142696362848
  0
LINE
  5
3014
  8
0
 10
252.88898957331361
 20
351.1691845229152
 30
0.0
 11
252.88898957331361
 21
338.1691845229152
 31
0.0
  0
LINE
  5
3015
  8
0
 10
261.31011660805422
 20
354.98118452291533
 30
0.0
 11
269.68611660805442
 21
354.98118452291533
 31
0.0
  0
LINE
  5
3016
  8
0
 10
260.49811660805432
 20
354.1691845229152
 30
0.0
 11
270.49811660805432
 21
354.1691845229152
 31
0.0
  0
LINE
  5
3017
  8
0
 10
269.68611660805442
 20
354.98118452291533
 30
0.0
 11
270.49811660805432
 21
354.1691845229152
 31
0.0
  0
LINE
  5
3018
  8
0
 10
270.49811660805432
 20
353.1691845229152
 30
0.0
 11
270.49811660805432
 21
354.1691845229152
 31
0.0
  0
LINE
  5
3019
  8
0
 10
260.49811660805432
 20
354.1691845229152
 30
0.0
 11
261.31011660805422
 21
354.98118452291533
 31
0.0
  0
LINE
  5
301A
  8
0
 10
260.49811660805432
 20
353.1691845229152
 30
0.0
 11
260.49811660805432
 21
354.1691845229152
 31
0.0
  0
LINE
  5
301B
  8
0
 10
263.36607054805432
 20
397.1691845229152
 30
0.0
 11
259.3415920258613
 21
363.1691845229156
 31
0.0
  0
ARC
  5
301C
  8
0
 10
261.24809693898442
 20
411.6115977903396
 30
0.0
 40
10.44241326742447
 50
245.98373718587089
 51
294.01626281413007
  0
LINE
  5
301D
  8
0
 10
272.4331559461998
 20
401.16918452291537
 30
0.0
 11
258.56307726990963
 21
401.1691845229152
 31
0.0
  0
LINE
  5
301E
  8
0
 10
258.56307726991048
 20
401.1691845229152
 30
0.0
 11
256.9980772699119
 21
402.0731845229152
 31
0.0
  0
LINE
  5
301F
  8
0
 10
261.31011660805422
 20
397.1691845229152
 30
0.0
 11
260.49811660805432
 21
397.98118452291533
 31
0.0
  0
LINE
  5
3020
  8
0
 10
260.49811660805432
 20
397.98118452291533
 30
0.0
 11
260.49811660805432
 21
401.1691845229152
 31
0.0
  0
LINE
  5
3021
  8
0
 10
270.49811660805432
 20
397.98118452291533
 30
0.0
 11
269.68611660805442
 21
397.1691845229152
 31
0.0
  0
LINE
  5
3022
  8
0
 10
270.49811660805432
 20
401.1691845229152
 30
0.0
 11
270.49811660805432
 21
397.98118452291533
 31
0.0
  0
LINE
  5
3023
  8
0
 10
260.49811660805432
 20
397.98118452291533
 30
0.0
 11
270.49811660805432
 21
397.98118452291533
 31
0.0
  0
LINE
  5
3024
  8
0
 10
269.68611660805442
 20
397.1691845229152
 30
0.0
 11
261.31011660805422
 21
397.1691845229152
 31
0.0
  0
ARC
  5
3025
  8
0
 10
269.74813627712871
 20
411.61159779033909
 30
0.0
 40
10.442413267423641
 50
245.9837371858689
 51
294.01626281413007
  0
LINE
  5
3026
  8
0
 10
273.99815594620122
 20
402.0731845229152
 30
0.0
 11
272.43315594620071
 21
401.1691845229152
 31
0.0
  0
LINE
  5
3027
  8
0
 10
259.38898957331372
 20
477.50282536037042
 30
0.0
 11
259.38898957331372
 21
454.16918452291492
 31
0.0
  0
LINE
  5
3028
  8
0
 10
256.38898957331457
 20
479.6691845229156
 30
0.0
 11
256.38898957331457
 21
452.1691845229156
 31
0.0
  0
LINE
  5
3029
  8
0
 10
259.38898957331457
 20
498.1691845229152
 30
0.0
 11
259.38898957331372
 21
454.16918452291492
 31
0.0
  0
LINE
  5
302A
  8
0
 10
252.88898957331361
 20
437.16918452291509
 30
0.0
 11
252.88898957331361
 21
411.16918452291509
 31
0.0
  0
LINE
  5
302B
  8
0
 10
252.88898957331361
 20
424.16918452291509
 30
0.0
 11
252.88898957331361
 21
411.16918452291509
 31
0.0
  0
LINE
  5
302C
  8
0
 10
259.38898957331372
 20
454.16918452291509
 30
0.0
 11
256.85197339633851
 21
441.48410363804351
 31
0.0
  0
ARC
  5
302D
  8
0
 10
253.91023136926739
 20
442.07245204345821
 30
0.0
 40
3.0
 50
281.28863569399311
 51
348.69006752598028
  0
ARC
  5
302E
  8
0
 10
254.88898957331361
 20
437.16918452291509
 30
0.0
 40
2.0
 50
90.0
 51
180.0000000000002
  0
ARC
  5
302F
  8
0
 10
259.38898957331457
 20
452.1691845229156
 30
0.0
 40
3.0
 50
180.0
 51
251.17747498588531
  0
LINE
  5
3030
  8
0
 10
260.49811660805432
 20
439.1691845229152
 30
0.0
 11
260.49811660805432
 21
440.1691845229152
 31
0.0
  0
LINE
  5
3031
  8
0
 10
260.49811660805432
 20
440.1691845229152
 30
0.0
 11
261.31011660805422
 21
440.98118452291533
 31
0.0
  0
LINE
  5
3032
  8
0
 10
270.49811660805432
 20
439.1691845229152
 30
0.0
 11
270.49811660805432
 21
440.1691845229152
 31
0.0
  0
LINE
  5
3033
  8
0
 10
269.68611660805442
 20
440.98118452291533
 30
0.0
 11
270.49811660805432
 21
440.1691845229152
 31
0.0
  0
LINE
  5
3034
  8
0
 10
260.49811660805432
 20
440.1691845229152
 30
0.0
 11
270.49811660805432
 21
440.1691845229152
 31
0.0
  0
LINE
  5
3035
  8
0
 10
261.31011660805422
 20
440.98118452291533
 30
0.0
 11
269.68611660805442
 21
440.98118452291533
 31
0.0
  0
ARC
  5
3036
  8
0
 10
259.38898957331457
 20
479.6691845229156
 30
0.0
 40
3.0
 50
90.0
 51
180.0
  0
LINE
  5
3037
  8
0
 10
259.38898957331372
 20
490.7878644884176
 30
0.0
 11
259.38898957331372
 21
498.1691845229152
 31
0.0
  0
ARC
  5
3038
  8
0
 10
353.88898957331372
 20
411.16918452291509
 30
0.0
 40
2.0
 50
270.0
 51
0.0
  0
LINE
  5
3039
  8
0
 10
351.77990187671912
 20
402.0731845229152
 30
0.0
 11
351.77990187671912
 21
409.1691845229152
 31
0.0
  0
LINE
  5
303A
  8
0
 10
343.27986253857489
 20
402.0731845229152
 30
0.0
 11
343.27986253857489
 21
409.1691845229152
 31
0.0
  0
LINE
  5
303B
  8
0
 10
334.77982320043162
 20
402.0731845229152
 30
0.0
 11
334.77982320043162
 21
409.1691845229152
 31
0.0
  0
LINE
  5
303C
  8
0
 10
339.09186253857303
 20
311.1691845229152
 30
0.0
 11
347.46786253857317
 21
311.1691845229152
 31
0.0
  0
LINE
  5
303D
  8
0
 10
348.27986253857313
 20
311.98118452291533
 30
0.0
 11
338.27986253857313
 21
311.98118452291533
 31
0.0
  0
LINE
  5
303E
  8
0
 10
350.21490187671861
 20
315.16918452291537
 30
0.0
 11
336.34482320042838
 21
315.1691845229152
 31
0.0
  0
ARC
  5
303F
  8
0
 10
347.52988220764752
 20
325.61159779033909
 30
0.0
 40
10.442413267423641
 50
245.9837371858689
 51
294.01626281413007
  0
LINE
  5
3040
  8
0
 10
339.09186253857303
 20
354.98118452291533
 30
0.0
 11
347.46786253857317
 21
354.98118452291533
 31
0.0
  0
LINE
  5
3041
  8
0
 10
348.27986253857313
 20
354.1691845229152
 30
0.0
 11
338.27986253857313
 21
354.1691845229152
 31
0.0
  0
LINE
  5
3042
  8
0
 10
339.09186253857303
 20
397.1691845229152
 30
0.0
 11
347.46786253857317
 21
397.1691845229152
 31
0.0
  0
LINE
  5
3043
  8
0
 10
348.27986253857313
 20
397.98118452291533
 30
0.0
 11
338.27986253857313
 21
397.98118452291533
 31
0.0
  0
LINE
  5
3044
  8
0
 10
345.41190859857488
 20
397.16918452291338
 30
0.0
 11
349.43638712076608
 21
363.16918452291361
 31
0.0
  0
ARC
  5
3045
  8
0
 10
347.52988220764752
 20
411.61159779033909
 30
0.0
 40
10.442413267423641
 50
245.9837371858689
 51
294.01626281413007
  0
LINE
  5
3046
  8
0
 10
350.21490187671861
 20
401.16918452291537
 30
0.0
 11
336.34482320042838
 21
401.1691845229152
 31
0.0
  0
LINE
  5
3047
  8
0
 10
288.38898957331281
 20
312.18179646042898
 30
0.0
 11
320.38898957331372
 21
312.16918452291537
 31
0.0
  0
LINE
  5
3048
  8
0
 10
279.32222749184263
 20
319.2213053828691
 30
0.0
 11
279.49413874755192
 21
318.7489830896584
 31
0.0
  0
ARC
  5
3049
  8
0
 10
288.89106495541091
 20
322.1691845229152
 30
0.0
 40
10.0
 50
200.00000000000051
 51
267.12211000011911
  0
ARC
  5
304A
  8
0
 10
319.88691419121642
 20
322.1691845229152
 30
0.0
 40
10.0
 50
272.87788999987049
 51
339.99999999999949
  0
ARC
  5
304B
  8
0
 10
335.0939073794998
 20
317.1691845229152
 30
0.0
 40
6.0
 50
93.000654466357176
 51
159.99999999999989
  0
LINE
  5
304C
  8
0
 10
329.45575165478482
 20
319.2213053828691
 30
0.0
 11
329.28384039907542
 21
318.7489830896584
 31
0.0
  0
LINE
  5
304D
  8
0
 10
338.27986253857313
 20
315.1691845229152
 30
0.0
 11
338.27986253857313
 21
311.98118452291533
 31
0.0
  0
LINE
  5
304E
  8
0
 10
338.27986253857313
 20
311.98118452291533
 30
0.0
 11
339.09186253857303
 21
311.1691845229152
 31
0.0
  0
LINE
  5
304F
  8
0
 10
334.77982320043162
 20
316.0731845229152
 30
0.0
 11
334.77982320043162
 21
323.1691845229152
 31
0.0
  0
LINE
  5
3050
  8
0
 10
343.27986253857489
 20
316.0731845229152
 30
0.0
 11
343.27986253857489
 21
323.1691845229152
 31
0.0
  0
LINE
  5
3051
  8
0
 10
336.34482320042929
 20
315.1691845229152
 30
0.0
 11
334.7798232004306
 21
316.0731845229152
 31
0.0
  0
ARC
  5
3052
  8
0
 10
339.02984286950323
 20
325.6115977903396
 30
0.0
 40
10.44241326742447
 50
245.98373718587089
 51
294.01626281413007
  0
LINE
  5
3053
  8
0
 10
338.27986253857313
 20
354.1691845229152
 30
0.0
 11
339.09186253857303
 21
354.98118452291533
 31
0.0
  0
LINE
  5
3054
  8
0
 10
338.27986253857313
 20
353.1691845229152
 30
0.0
 11
338.27986253857313
 21
354.1691845229152
 31
0.0
  0
LINE
  5
3055
  8
0
 10
338.27986253857313
 20
401.1691845229152
 30
0.0
 11
338.27986253857313
 21
397.98118452291533
 31
0.0
  0
LINE
  5
3056
  8
0
 10
338.27986253857313
 20
397.98118452291533
 30
0.0
 11
339.09186253857303
 21
397.1691845229152
 31
0.0
  0
ARC
  5
3057
  8
0
 10
339.02984286950323
 20
411.6115977903396
 30
0.0
 40
10.44241326742447
 50
245.98373718587089
 51
294.01626281413007
  0
LINE
  5
3058
  8
0
 10
336.34482320042929
 20
401.1691845229152
 30
0.0
 11
334.7798232004306
 21
402.0731845229152
 31
0.0
  0
LINE
  5
3059
  8
0
 10
349.43638712076608
 20
363.16918452291321
 30
0.0
 11
350.91548505375067
 21
355.59417645583488
 31
0.0
  0
LINE
  5
305A
  8
0
 10
355.88898957331372
 20
338.1691845229152
 30
0.0
 11
355.88898957331372
 21
325.1691845229152
 31
0.0
  0
LINE
  5
305B
  8
0
 10
348.27986253857313
 20
311.98118452291533
 30
0.0
 11
348.27986253857313
 21
315.1691845229152
 31
0.0
  0
LINE
  5
305C
  8
0
 10
347.46786253857317
 20
311.1691845229152
 30
0.0
 11
348.27986253857313
 21
311.98118452291533
 31
0.0
  0
LINE
  5
305D
  8
0
 10
351.77990187671912
 20
316.0731845229152
 30
0.0
 11
351.77990187671912
 21
323.1691845229152
 31
0.0
  0
LINE
  5
305E
  8
0
 10
351.77990187671998
 20
316.0731845229152
 30
0.0
 11
350.21490187671952
 21
315.1691845229152
 31
0.0
  0
ARC
  5
305F
  8
0
 10
353.88898957331372
 20
325.1691845229152
 30
0.0
 40
2.0
 50
270.0
 51
0.0
  0
LINE
  5
3060
  8
0
 10
347.46786253857317
 20
354.98118452291533
 30
0.0
 11
348.27986253857313
 21
354.1691845229152
 31
0.0
  0
LINE
  5
3061
  8
0
 10
348.27986253857313
 20
353.1691845229152
 30
0.0
 11
348.27986253857313
 21
354.1691845229152
 31
0.0
  0
ARC
  5
3062
  8
0
 10
353.88898957331372
 20
351.1691845229152
 30
0.0
 40
2.0
 50
0.0
 51
90.0
  0
ARC
  5
3063
  8
0
 10
353.85988026554878
 20
356.16909978701727
 30
0.0
 40
3.0
 50
191.04857303636811
 51
270.43063739823288
  0
LINE
  5
3064
  8
0
 10
355.88898957331372
 20
351.1691845229152
 30
0.0
 11
355.88898957331372
 21
338.1691845229152
 31
0.0
  0
LINE
  5
3065
  8
0
 10
348.27986253857313
 20
397.98118452291533
 30
0.0
 11
348.27986253857313
 21
401.1691845229152
 31
0.0
  0
LINE
  5
3066
  8
0
 10
347.46786253857317
 20
397.1691845229152
 30
0.0
 11
348.27986253857313
 21
397.98118452291533
 31
0.0
  0
LINE
  5
3067
  8
0
 10
351.77990187671998
 20
402.0731845229152
 30
0.0
 11
350.21490187671952
 21
401.1691845229152
 31
0.0
  0
LINE
  5
3068
  8
0
 10
348.27986253857313
 20
440.1691845229152
 30
0.0
 11
338.27986253857313
 21
440.1691845229152
 31
0.0
  0
LINE
  5
3069
  8
0
 10
339.09186253857303
 20
440.98118452291533
 30
0.0
 11
347.46786253857317
 21
440.98118452291533
 31
0.0
  0
LINE
  5
306A
  8
0
 10
338.27986253857313
 20
439.1691845229152
 30
0.0
 11
338.27986253857313
 21
440.1691845229152
 31
0.0
  0
LINE
  5
306B
  8
0
 10
338.27986253857313
 20
440.1691845229152
 30
0.0
 11
339.09186253857303
 21
440.98118452291533
 31
0.0
  0
LINE
  5
306C
  8
0
 10
283.98678381021091
 20
504.16918452291509
 30
0.0
 11
283.88898957331372
 21
504.16918452291509
 31
0.0
  0
ARC
  5
306D
  8
0
 10
283.88898957331372
 20
502.1691845229152
 30
0.0
 40
2.0
 50
90.0
 51
180.0
  0
LINE
  5
306E
  8
0
 10
281.88898957331361
 20
502.1691845229152
 30
0.0
 11
281.88898957331361
 21
502.16918452291537
 31
0.0
  0
LINE
  5
306F
  8
0
 10
283.88898957331372
 20
500.16918452291537
 30
0.0
 11
283.98678381021091
 21
500.16918452291537
 31
0.0
  0
ARC
  5
3070
  8
0
 10
283.88898957331372
 20
502.16918452291537
 30
0.0
 40
2.0
 50
180.0
 51
270.0000000000062
  0
LINE
  5
3071
  8
0
 10
324.79119533641642
 20
504.16918452291509
 30
0.0
 11
324.88898957331372
 21
504.16918452291509
 31
0.0
  0
LINE
  5
3072
  8
0
 10
324.88898957331372
 20
500.16918452291537
 30
0.0
 11
324.79119533641642
 21
500.16918452291537
 31
0.0
  0
LINE
  5
3073
  8
0
 10
326.88898957331372
 20
502.1691845229152
 30
0.0
 11
326.88898957331372
 21
502.16918452291537
 31
0.0
  0
ARC
  5
3074
  8
0
 10
324.88898957331372
 20
502.16918452291537
 30
0.0
 40
2.0
 50
269.9999999999938
 51
0.0
  0
ARC
  5
3075
  8
0
 10
324.88898957331372
 20
502.1691845229152
 30
0.0
 40
2.0
 50
0.0
 51
90.0
  0
LINE
  5
3076
  8
0
 10
349.3889895733127
 20
498.1691845229152
 30
0.0
 11
349.38898957331372
 21
454.16918452291492
 31
0.0
  0
LINE
  5
3077
  8
0
 10
355.88898957331372
 20
437.16918452291509
 30
0.0
 11
355.88898957331372
 21
411.16918452291509
 31
0.0
  0
LINE
  5
3078
  8
0
 10
355.88898957331372
 20
424.16918452291509
 30
0.0
 11
355.88898957331372
 21
411.16918452291509
 31
0.0
  0
LINE
  5
3079
  8
0
 10
349.38898957331372
 20
454.16918452291509
 30
0.0
 11
351.92600575028882
 21
441.48410363804351
 31
0.0
  0
LINE
  5
307A
  8
0
 10
348.27986253857313
 20
439.1691845229152
 30
0.0
 11
348.27986253857313
 21
440.1691845229152
 31
0.0
  0
LINE
  5
307B
  8
0
 10
347.46786253857317
 20
440.98118452291533
 30
0.0
 11
348.27986253857313
 21
440.1691845229152
 31
0.0
  0
ARC
  5
307C
  8
0
 10
353.88898957331372
 20
437.16918452291509
 30
0.0
 40
2.0
 50
0.0
 51
89.999999999999943
  0
ARC
  5
307D
  8
0
 10
354.86774777735991
 20
442.07245204345821
 30
0.0
 40
3.0
 50
191.30993247401969
 51
258.71136430600677
  0
LINE
  5
307E
  8
0
 10
449.87814520029309
 20
502.16918452291509
 30
0.0
 11
418.36577020029279
 21
502.16918452291509
 31
0.0
  0
LINE
  5
307F
  8
0
 10
412.06352020029311
 20
508.47143452291488
 30
0.0
 11
430.97027020029321
 21
508.47143452291488
 31
0.0
  0
LINE
  5
3080
  8
0
 10
349.38898957331372
 20
487.16918452291509
 30
0.0
 11
349.38898957331548
 21
463.16918452291537
 31
0.0
  0
LINE
  5
3081
  8
0
 10
358.38898957331457
 20
483.50018452291528
 30
0.0
 11
358.38898957331457
 21
466.83818452291501
 31
0.0
  0
LINE
  5
3082
  8
0
 10
358.38898957331457
 20
475.1691845229152
 30
0.0
 11
349.38898957331457
 21
475.1691845229152
 31
0.0
  0
LINE
  5
3083
  8
0
 10
358.38898957331457
 20
466.83818452291501
 30
0.0
 11
349.38898957331457
 21
466.83818452291501
 31
0.0
  0
LINE
  5
3084
  8
0
 10
358.38898957331457
 20
483.50018452291528
 30
0.0
 11
349.38898957331457
 21
483.50018452291528
 31
0.0
  0
LINE
  5
3085
  8
0
 10
418.36577020029279
 20
502.16918452291509
 30
0.0
 11
412.06352020029311
 21
508.47143452291488
 31
0.0
  0
LINE
  5
3086
  8
0
 10
458.34546818095077
 20
483.16918452291509
 30
0.0
 11
459.84546818095072
 21
481.6691845229152
 31
0.0
  0
LINE
  5
3087
  8
0
 10
434.12252020029342
 20
505.3203095229149
 30
0.0
 11
443.43864520029359
 21
505.3203095229149
 31
0.0
  0
LINE
  5
3088
  8
0
 10
430.97027020029321
 20
508.47143452291488
 30
0.0
 11
434.12252020029342
 21
505.3203095229149
 31
0.0
  0
LINE
  5
3089
  8
0
 10
443.43864520029359
 20
508.47143452291488
 30
0.0
 11
449.87814520029309
 21
502.16918452291509
 31
0.0
  0
LINE
  5
308A
  8
0
 10
443.43864520029359
 20
505.3203095229149
 30
0.0
 11
443.43864520029359
 21
508.47143452291488
 31
0.0
  0
LINE
  5
308B
  8
0
 10
458.34546818095077
 20
502.1691845229152
 30
0.0
 11
458.34546818095077
 21
483.16918452291509
 31
0.0
  0
ARC
  5
308C
  8
0
 10
290.38898957331361
 20
515.49622798822656
 30
0.0
 40
18.0
 50
111.6182724221581
 51
176.8637957734316
  0
ARC
  5
308D
  8
0
 10
264.42792978625221
 20
516.91868175993363
 30
0.0
 40
8.0
 50
290.36827340019948
 51
356.8637957734324
  0
ARC
  5
308E
  8
0
 10
314.38898957331457
 20
525.62659273439454
 30
0.0
 40
5.0
 50
180.0
 51
246.91122756297949
  0
ARC
  5
308F
  8
0
 10
304.38898957331372
 20
480.1691845229152
 30
0.0
 40
56.0
 50
68.381727577841843
 51
90.0
  0
LINE
  5
3090
  8
0
 10
299.38898957331457
 20
534.82719058244095
 30
0.0
 11
299.38898957331372
 21
525.62659273439499
 31
0.0
  0
LINE
  5
3091
  8
0
 10
309.38898957331457
 20
525.62659273439454
 30
0.0
 11
309.38898957330912
 21
534.82719058244174
 31
0.0
  0
ARC
  5
3092
  8
0
 10
294.38898957331361
 20
525.62659273439499
 30
0.0
 40
5.0
 50
293.08877243700988
 51
0.0
  0
ARC
  5
3093
  8
0
 10
304.38898957331372
 20
480.1691845229152
 30
0.0
 40
56.0
 50
90.0
 51
111.6182724221581
  0
ARC
  5
3094
  8
0
 10
300.38898957331088
 20
534.82719058244095
 30
0.0
 40
1.0
 50
90.0
 51
180.0
  0
ARC
  5
3095
  8
0
 10
308.38898957331099
 20
534.82719058244129
 30
0.0
 40
1.0
 50
0.0
 51
90.0
  0
LINE
  5
3096
  8
0
 10
308.38898957331099
 20
535.82719058244129
 30
0.0
 11
300.38898957331088
 21
535.82719058244095
 31
0.0
  0
ARC
  5
3097
  8
0
 10
318.38898957331372
 20
515.49622798822656
 30
0.0
 40
18.0
 50
3.136204226568426
 51
68.381727577841843
  0
ARC
  5
3098
  8
0
 10
344.35004936037512
 20
516.91868175993363
 30
0.0
 40
8.0
 50
183.1362042265676
 51
249.63172659980049
  0
LINE
  5
3099
  8
0
 10
459.84546818095072
 20
522.66918452291486
 30
0.0
 11
458.34546818095077
 21
521.16918452291486
 31
0.0
  0
LINE
  5
309A
  8
0
 10
458.34546818095077
 20
672.78412316082449
 30
0.0
 11
459.84546818095072
 21
671.28412316082438
 31
0.0
  0
LINE
  5
30A1
  8
0
 10
750.61606227619905
 20
323.1691845229152
 30
0.0
 11
750.61606227619905
 21
295.1691845229152
 31
0.0
  0
LINE
  5
30A2
  8
0
 10
718.61606227619905
 20
323.1691845229152
 30
0.0
 11
718.61606227619905
 21
295.1691845229152
 31
0.0
  0
LINE
  5
30A3
  8
0
 10
576.34546818095066
 20
311.1691845229152
 30
0.0
 11
576.34546818095066
 21
295.1691845229152
 31
0.0
  0
LINE
  5
30A4
  8
0
 10
544.34546818095066
 20
323.1691845229152
 30
0.0
 11
544.34546818095066
 21
295.1691845229152
 31
0.0
  0
LINE
  5
30A5
  8
0
 10
525.8704681809503
 20
309.1691845229152
 30
0.0
 11
525.96417406330329
 21
312.1691845229152
 31
0.0
  0
LINE
  5
30A6
  8
0
 10
525.01446818095064
 20
309.1691845229152
 30
0.0
 11
525.10817406330352
 21
312.1691845229152
 31
0.0
  0
LINE
  5
30A7
  8
0
 10
541.67646818095079
 20
309.1691845229152
 30
0.0
 11
541.588952876853
 21
311.97099275204209
 31
0.0
  0
LINE
  5
30A8
  8
0
 10
540.82046818095114
 20
309.1691845229152
 30
0.0
 11
540.72733294581485
 21
312.15091521463142
 31
0.0
  0
ARC
  5
30A9
  8
0
 10
540.34546818095066
 20
308.1691845229152
 30
0.0
 40
4.0
 50
0.0
 51
90.0
  0
LINE
  5
30AA
  8
0
 10
525.01446818095064
 20
300.1691845229152
 30
0.0
 11
541.67646818095079
 21
300.1691845229152
 31
0.0
  0
LINE
  5
30AB
  8
0
 10
525.01446818095064
 20
309.1691845229152
 30
0.0
 11
541.67646818095079
 21
309.1691845229152
 31
0.0
  0
TEXT
  5
30AC
  8
0
 10
393.02868128462001
 20
145.12560290321679
 30
0.0
 40
20.0
  1
15,20  1/2,3/4 (DC3S)
 41
0.8
 72
     4
 11
528.95249080842939
 21
153.6970314746454
 31
0.0
  0
LINE
  5
30AD
  8
0
 10
525.01446818095064
 20
300.1691845229152
 30
0.0
 11
525.01446818095064
 21
309.1691845229152
 31
0.0
  0
LINE
  5
30AE
  8
0
 10
560.34546818095066
 20
293.1691845229152
 30
0.0
 11
574.34546818095077
 21
293.1691845229152
 31
0.0
  0
LINE
  5
30AF
  8
0
 10
546.34546818095066
 20
293.1691845229152
 30
0.0
 11
560.34546818095066
 21
293.1691845229152
 31
0.0
  0
ARC
  5
30B0
  8
0
 10
546.34546818095066
 20
295.1691845229152
 30
0.0
 40
2.0
 50
180.0
 51
270.00000000000011
  0
LINE
  5
30B1
  8
0
 10
541.67646818095079
 20
300.1691845229152
 30
0.0
 11
541.67646818095079
 21
309.1691845229152
 31
0.0
  0
LINE
  5
30B2
  8
0
 10
533.34546818095077
 20
300.1691845229152
 30
0.0
 11
533.34546818095077
 21
309.1691845229152
 31
0.0
  0
ARC
  5
30B3
  8
0
 10
574.34546818095077
 20
295.1691845229152
 30
0.0
 40
2.0
 50
270.00000000000011
 51
0.0
  0
LINE
  5
30B4
  8
0
 10
734.61606227619905
 20
293.1691845229152
 30
0.0
 11
748.61606227619905
 21
293.1691845229152
 31
0.0
  0
LINE
  5
30B5
  8
0
 10
720.61606227619905
 20
293.1691845229152
 30
0.0
 11
734.61606227619905
 21
293.1691845229152
 31
0.0
  0
ARC
  5
30B6
  8
0
 10
720.61606227619905
 20
295.1691845229152
 30
0.0
 40
2.0
 50
180.0
 51
270.00000000000011
  0
ARC
  5
30B7
  8
0
 10
748.61606227619905
 20
295.1691845229152
 30
0.0
 40
2.0
 50
270.00000000000011
 51
0.0
  0
ARC
  5
30C1
  8
0
 10
767.61606227619905
 20
498.1691845229152
 30
0.0
 40
12.0
 50
0.0
 51
69.631726599798583
  0
LINE
  5
30C2
  8
0
 10
685.11606227619905
 20
439.1691845229152
 30
0.0
 11
784.11606227619905
 21
439.1691845229152
 31
0.0
  0
LINE
  5
30C3
  8
0
 10
683.11606227619905
 20
424.16918452291509
 30
0.0
 11
786.11606227619905
 21
424.16918452291509
 31
0.0
  0
LINE
  5
30C4
  8
0
 10
685.11606227619905
 20
409.1691845229152
 30
0.0
 11
784.11606227619905
 21
409.1691845229152
 31
0.0
  0
LINE
  5
30C5
  8
0
 10
685.11606227619905
 20
353.1691845229152
 30
0.0
 11
784.11606227619905
 21
353.1691845229152
 31
0.0
  0
LINE
  5
30C6
  8
0
 10
683.11606227619905
 20
338.1691845229152
 30
0.0
 11
786.11606227619905
 21
338.1691845229152
 31
0.0
  0
LINE
  5
30C7
  8
0
 10
685.11606227619905
 20
323.1691845229152
 30
0.0
 11
784.11606227619905
 21
323.1691845229152
 31
0.0
  0
LINE
  5
30C8
  8
0
 10
777.69493524145855
 20
440.98118452291533
 30
0.0
 11
769.31893524145835
 21
440.98118452291533
 31
0.0
  0
LINE
  5
30C9
  8
0
 10
778.50693524145845
 20
440.1691845229152
 30
0.0
 11
768.50693524145845
 21
440.1691845229152
 31
0.0
  0
LINE
  5
30CA
  8
0
 10
766.57189590331291
 20
401.16918452291537
 30
0.0
 11
780.44197457960308
 21
401.1691845229152
 31
0.0
  0
ARC
  5
30CB
  8
0
 10
777.75695491052818
 20
411.6115977903396
 30
0.0
 40
10.44241326742447
 50
245.9837371858699
 51
294.01626281412899
  0
LINE
  5
30CC
  8
0
 10
775.63898130145844
 20
397.1691845229152
 30
0.0
 11
779.66345982365135
 21
363.1691845229156
 31
0.0
  0
LINE
  5
30CD
  8
0
 10
769.31893524145835
 20
397.1691845229152
 30
0.0
 11
777.69493524145855
 21
397.1691845229152
 31
0.0
  0
LINE
  5
30CE
  8
0
 10
778.50693524145845
 20
397.98118452291533
 30
0.0
 11
768.50693524145845
 21
397.98118452291533
 31
0.0
  0
LINE
  5
30CF
  8
0
 10
778.50693524145845
 20
354.1691845229152
 30
0.0
 11
768.50693524145845
 21
354.1691845229152
 31
0.0
  0
LINE
  5
30D0
  8
0
 10
777.69493524145855
 20
354.98118452291533
 30
0.0
 11
769.31893524145835
 21
354.98118452291533
 31
0.0
  0
LINE
  5
30D1
  8
0
 10
766.57189590331291
 20
315.16918452291537
 30
0.0
 11
780.44197457960308
 21
315.1691845229152
 31
0.0
  0
ARC
  5
30D2
  8
0
 10
777.75695491052818
 20
325.6115977903396
 30
0.0
 40
10.44241326742447
 50
245.9837371858699
 51
294.01626281412899
  0
LINE
  5
30D3
  8
0
 10
778.50693524145845
 20
311.98118452291533
 30
0.0
 11
768.50693524145845
 21
311.98118452291533
 31
0.0
  0
LINE
  5
30D4
  8
0
 10
769.31893524145835
 20
311.1691845229152
 30
0.0
 11
777.69493524145855
 21
311.1691845229152
 31
0.0
  0
ARC
  5
30D5
  8
0
 10
701.61606227619905
 20
498.1691845229152
 30
0.0
 40
12.0
 50
110.3682734002014
 51
179.9999999999998
  0
CIRCLE
  5
30D6
  8
0
 10
734.61606227619905
 20
502.1691845229152
 30
0.0
 40
19.0
  0
CIRCLE
  5
30D7
  8
0
 10
734.61606227619905
 20
502.1691845229152
 30
0.0
 40
20.5
  0
ARC
  5
30D8
  8
0
 10
566.34546818095077
 20
498.1691845229152
 30
0.0
 40
12.0
 50
0.0
 51
90.000000000000057
  0
LINE
  5
30D9
  8
0
 10
606.84546818095066
 20
522.6691845229152
 30
0.0
 11
606.84546818095066
 21
481.6691845229152
 31
0.0
  0
LINE
  5
30DA
  8
0
 10
608.34546818095077
 20
521.1691845229152
 30
0.0
 11
608.34546818095077
 21
502.1691845229152
 31
0.0
  0
ARC
  5
30DB
  8
0
 10
506.34546818095072
 20
492.1691845229152
 30
0.0
 40
18.0
 50
90.000000000000057
 51
180.0000000000002
  0
LINE
  5
30DC
  8
0
 10
601.34546818095066
 20
504.16918452291509
 30
0.0
 11
593.34546818095066
 21
504.16918452291509
 31
0.0
  0
LINE
  5
30DD
  8
0
 10
601.34546818095066
 20
500.16918452291492
 30
0.0
 11
593.34546818095066
 21
500.1691845229152
 31
0.0
  0
LINE
  5
30DE
  8
0
 10
597.34546818095066
 20
481.6691845229152
 30
0.0
 11
606.84546818095066
 21
481.6691845229152
 31
0.0
  0
ARC
  5
30DF
  8
0
 10
582.84546818095077
 20
411.16918452291509
 30
0.0
 40
2.0
 50
270.0
 51
359.9999999999992
  0
LINE
  5
30E0
  8
0
 10
562.42134114621149
 20
402.0731845229152
 30
0.0
 11
562.42134114621149
 21
409.1691845229152
 31
0.0
  0
LINE
  5
30E1
  8
0
 10
567.32934114621094
 20
402.0731845229152
 30
0.0
 11
567.32934114621094
 21
409.1691845229152
 31
0.0
  0
LINE
  5
30E2
  8
0
 10
582.05134114621069
 20
409.1691845229152
 30
0.0
 11
582.05134114621069
 21
402.0731845229152
 31
0.0
  0
LINE
  5
30E3
  8
0
 10
577.14334114621124
 20
402.0731845229152
 30
0.0
 11
577.14334114621124
 21
409.1691845229152
 31
0.0
  0
ARC
  5
30E4
  8
0
 10
483.84546818095072
 20
411.16918452291509
 30
0.0
 40
2.0
 50
180.0
 51
270.0
  0
LINE
  5
30E5
  8
0
 10
489.54759521569019
 20
402.0731845229152
 30
0.0
 11
489.54759521569019
 21
409.1691845229152
 31
0.0
  0
LINE
  5
30E6
  8
0
 10
484.63959521569092
 20
409.1691845229152
 30
0.0
 11
484.63959521569092
 21
402.0731845229152
 31
0.0
  0
LINE
  5
30E7
  8
0
 10
499.36159521569061
 20
402.0731845229152
 30
0.0
 11
499.36159521569061
 21
409.1691845229152
 31
0.0
  0
LINE
  5
30E8
  8
0
 10
504.26959521569012
 20
402.0731845229152
 30
0.0
 11
504.26959521569012
 21
409.1691845229152
 31
0.0
  0
LINE
  5
30E9
  8
0
 10
517.84754356304802
 20
312.1691845229152
 30
0.0
 11
540.34546818095066
 21
312.1691845229152
 31
0.0
  0
LINE
  5
30EA
  8
0
 10
483.84546818095072
 20
323.1691845229152
 30
0.0
 11
582.84546818095077
 21
323.1691845229152
 31
0.0
  0
LINE
  5
30EB
  8
0
 10
483.84546818095072
 20
353.1691845229152
 30
0.0
 11
582.84546818095077
 21
353.1691845229152
 31
0.0
  0
LINE
  5
30EC
  8
0
 10
481.84546818095072
 20
338.1691845229152
 30
0.0
 11
584.84546818095066
 21
338.1691845229152
 31
0.0
  0
LINE
  5
30ED
  8
0
 10
481.84546818095072
 20
338.1691845229152
 30
0.0
 11
584.84546818095066
 21
338.1691845229152
 31
0.0
  0
LINE
  5
30EE
  8
0
 10
488.2980706334983
 20
363.16918452291321
 30
0.0
 11
486.81897270051371
 21
355.59417645583488
 31
0.0
  0
ARC
  5
30EF
  8
0
 10
494.45459521569131
 20
332.83217611602868
 30
0.0
 40
17.462601416113358
 50
253.68007233167191
 51
286.31992766832798
  0
LINE
  5
30F0
  8
0
 10
498.64259521569141
 20
311.1691845229152
 30
0.0
 11
490.26659521569132
 21
311.1691845229152
 31
0.0
  0
LINE
  5
30F1
  8
0
 10
489.45459521569143
 20
311.98118452291533
 30
0.0
 11
499.45459521569131
 21
311.98118452291533
 31
0.0
  0
LINE
  5
30F2
  8
0
 10
486.20459521569131
 20
315.1691845229152
 30
0.0
 11
502.70459521569131
 21
315.1691845229152
 31
0.0
  0
LINE
  5
30F3
  8
0
 10
489.45459521569143
 20
354.1691845229152
 30
0.0
 11
499.45459521569131
 21
354.1691845229152
 31
0.0
  0
LINE
  5
30F4
  8
0
 10
498.64259521569141
 20
354.98118452291533
 30
0.0
 11
490.26659521569132
 21
354.98118452291533
 31
0.0
  0
LINE
  5
30F5
  8
0
 10
481.84546818095072
 20
351.1691845229152
 30
0.0
 11
481.84546818095072
 21
325.1691845229152
 31
0.0
  0
ARC
  5
30F6
  8
0
 10
483.84546818095072
 20
325.1691845229152
 30
0.0
 40
2.0
 50
180.0
 51
270.0
  0
LINE
  5
30F7
  8
0
 10
484.63959521569092
 20
323.1691845229152
 30
0.0
 11
484.63959521569092
 21
316.0731845229152
 31
0.0
  0
LINE
  5
30F8
  8
0
 10
489.54759521569019
 20
316.0731845229152
 30
0.0
 11
489.54759521569019
 21
323.1691845229152
 31
0.0
  0
LINE
  5
30F9
  8
0
 10
484.63959521569092
 20
316.0731845229152
 30
0.0
 11
486.20459521569131
 21
315.1691845229152
 31
0.0
  0
LINE
  5
30FA
  8
0
 10
489.45459521569143
 20
311.98118452291533
 30
0.0
 11
489.45459521569143
 21
315.1691845229152
 31
0.0
  0
LINE
  5
30FB
  8
0
 10
490.26659521569132
 20
311.1691845229152
 30
0.0
 11
489.45459521569143
 21
311.98118452291533
 31
0.0
  0
ARC
  5
30FC
  8
0
 10
487.09359521569053
 20
320.00050858833191
 30
0.0
 40
4.6309815714167701
 50
238.00067615949041
 51
301.99932384050942
  0
ARC
  5
30FD
  8
0
 10
483.8745774887156
 20
356.16909978701727
 30
0.0
 40
3.0
 50
269.56936260176712
 51
348.95142696363177
  0
ARC
  5
30FE
  8
0
 10
483.84546818095072
 20
351.1691845229152
 30
0.0
 40
2.0
 50
90.0
 51
180.0
  0
LINE
  5
30FF
  8
0
 10
489.45459521569143
 20
353.1691845229152
 30
0.0
 11
489.45459521569143
 21
354.1691845229152
 31
0.0
  0
LINE
  5
3100
  8
0
 10
490.26659521569132
 20
354.98118452291533
 30
0.0
 11
489.45459521569143
 21
354.1691845229152
 31
0.0
  0
ARC
  5
3101
  8
0
 10
517.84754356304802
 20
322.1691845229152
 30
0.0
 40
10.0
 50
200.00000000000051
 51
270.0
  0
ARC
  5
3102
  8
0
 10
502.64055037476459
 20
317.1691845229152
 30
0.0
 40
6.0
 50
20.000000000000039
 51
74.246009987504664
  0
LINE
  5
3103
  8
0
 10
508.27870609947962
 20
319.2213053828691
 30
0.0
 11
508.45061735518902
 21
318.7489830896584
 31
0.0
  0
LINE
  5
3104
  8
0
 10
504.26959521569012
 20
316.0731845229152
 30
0.0
 11
504.26959521569012
 21
323.1691845229152
 31
0.0
  0
LINE
  5
3105
  8
0
 10
502.70459521569131
 20
315.1691845229152
 30
0.0
 11
504.26959521569012
 21
316.0731845229152
 31
0.0
  0
LINE
  5
3106
  8
0
 10
499.45459521569131
 20
315.1691845229152
 30
0.0
 11
499.45459521569131
 21
311.98118452291533
 31
0.0
  0
LINE
  5
3107
  8
0
 10
499.36159521569061
 20
316.0731845229152
 30
0.0
 11
499.36159521569061
 21
323.1691845229152
 31
0.0
  0
LINE
  5
3108
  8
0
 10
499.45459521569131
 20
311.98118452291533
 30
0.0
 11
498.64259521569141
 21
311.1691845229152
 31
0.0
  0
ARC
  5
3109
  8
0
 10
501.81559521569028
 20
320.00050858833191
 30
0.0
 40
4.6309815714167701
 50
238.00067615949061
 51
301.99932384050959
  0
LINE
  5
310A
  8
0
 10
499.45459521569131
 20
353.1691845229152
 30
0.0
 11
499.45459521569131
 21
354.1691845229152
 31
0.0
  0
LINE
  5
310B
  8
0
 10
499.45459521569131
 20
354.1691845229152
 30
0.0
 11
498.64259521569141
 21
354.98118452291533
 31
0.0
  0
LINE
  5
310C
  8
0
 10
486.20459521569131
 20
401.1691845229152
 30
0.0
 11
502.70459521569131
 21
401.1691845229152
 31
0.0
  0
LINE
  5
310D
  8
0
 10
489.45459521569143
 20
397.98118452291533
 30
0.0
 11
499.45459521569131
 21
397.98118452291533
 31
0.0
  0
LINE
  5
310E
  8
0
 10
498.64259521569141
 20
397.1691845229152
 30
0.0
 11
490.26659521569132
 21
397.1691845229152
 31
0.0
  0
ARC
  5
310F
  8
0
 10
494.45459521569131
 20
418.83217611602862
 30
0.0
 40
17.462601416113358
 50
253.68007233167191
 51
286.31992766832798
  0
LINE
  5
3110
  8
0
 10
492.32254915568961
 20
397.16918452291338
 30
0.0
 11
488.2980706334983
 21
363.16918452291361
 31
0.0
  0
ARC
  5
3111
  8
0
 10
487.09359521569053
 20
406.00050858833191
 30
0.0
 40
4.6309815714167701
 50
238.00067615949041
 51
301.99932384050942
  0
LINE
  5
3112
  8
0
 10
490.26659521569132
 20
397.1691845229152
 30
0.0
 11
489.45459521569143
 21
397.98118452291533
 31
0.0
  0
LINE
  5
3113
  8
0
 10
489.45459521569143
 20
397.98118452291533
 30
0.0
 11
489.45459521569143
 21
401.1691845229152
 31
0.0
  0
LINE
  5
3114
  8
0
 10
484.63959521569092
 20
402.0731845229152
 30
0.0
 11
486.20459521569131
 21
401.1691845229152
 31
0.0
  0
ARC
  5
3115
  8
0
 10
501.81559521569028
 20
406.00050858833191
 30
0.0
 40
4.6309815714167701
 50
238.00067615949061
 51
301.99932384050959
  0
LINE
  5
3116
  8
0
 10
499.45459521569131
 20
397.98118452291533
 30
0.0
 11
498.64259521569141
 21
397.1691845229152
 31
0.0
  0
LINE
  5
3117
  8
0
 10
499.45459521569131
 20
401.1691845229152
 30
0.0
 11
499.45459521569131
 21
397.98118452291533
 31
0.0
  0
LINE
  5
3118
  8
0
 10
502.70459521569131
 20
401.1691845229152
 30
0.0
 11
504.26959521569012
 21
402.0731845229152
 31
0.0
  0
LINE
  5
3119
  8
0
 10
578.39286572840319
 20
363.1691845229152
 30
0.0
 11
579.87194711583641
 21
355.59426119173258
 31
0.0
  0
ARC
  5
311A
  8
0
 10
564.87534114621121
 20
320.00050858833191
 30
0.0
 40
4.6309815714167701
 50
238.00067615949041
 51
301.99932384050942
  0
LINE
  5
311B
  8
0
 10
580.48634114621007
 20
315.1691845229152
 30
0.0
 11
563.98634114621007
 21
315.1691845229152
 31
0.0
  0
LINE
  5
311C
  8
0
 10
563.98634114621007
 20
315.1691845229152
 30
0.0
 11
562.42134114621149
 21
316.0731845229152
 31
0.0
  0
LINE
  5
311D
  8
0
 10
562.42134114621149
 20
316.0731845229152
 30
0.0
 11
562.42134114621149
 21
323.1691845229152
 31
0.0
  0
LINE
  5
311E
  8
0
 10
584.84546818095066
 20
351.1691845229152
 30
0.0
 11
584.84546818095066
 21
325.1691845229152
 31
0.0
  0
ARC
  5
311F
  8
0
 10
582.84546818095077
 20
325.1691845229152
 30
0.0
 40
2.0
 50
270.0
 51
0.0
  0
ARC
  5
3120
  8
0
 10
579.59734114621085
 20
320.00050858833191
 30
0.0
 40
4.6309815714167701
 50
238.00067615949061
 51
301.99932384050959
  0
LINE
  5
3121
  8
0
 10
576.42434114621028
 20
311.1691845229152
 30
0.0
 11
577.23634114621018
 21
311.98118452291533
 31
0.0
  0
LINE
  5
3122
  8
0
 10
577.23634114621018
 20
311.98118452291533
 30
0.0
 11
577.23634114621018
 21
315.1691845229152
 31
0.0
  0
LINE
  5
3123
  8
0
 10
582.05134114621069
 20
316.0731845229152
 30
0.0
 11
580.48634114621007
 21
315.1691845229152
 31
0.0
  0
LINE
  5
3124
  8
0
 10
577.14334114621124
 20
316.0731845229152
 30
0.0
 11
577.14334114621124
 21
323.1691845229152
 31
0.0
  0
LINE
  5
3125
  8
0
 10
582.05134114621069
 20
323.1691845229152
 30
0.0
 11
582.05134114621069
 21
316.0731845229152
 31
0.0
  0
LINE
  5
3126
  8
0
 10
567.23634114621007
 20
311.98118452291533
 30
0.0
 11
568.04834114620996
 21
311.1691845229152
 31
0.0
  0
LINE
  5
3127
  8
0
 10
567.32934114621094
 20
316.0731845229152
 30
0.0
 11
567.32934114621094
 21
323.1691845229152
 31
0.0
  0
LINE
  5
3128
  8
0
 10
567.23634114621007
 20
315.1691845229152
 30
0.0
 11
567.23634114621007
 21
311.98118452291533
 31
0.0
  0
LINE
  5
3129
  8
0
 10
577.23634114621018
 20
311.98118452291533
 30
0.0
 11
567.23634114621007
 21
311.98118452291533
 31
0.0
  0
LINE
  5
312A
  8
0
 10
568.04834114620996
 20
311.1691845229152
 30
0.0
 11
576.42434114621028
 21
311.1691845229152
 31
0.0
  0
ARC
  5
312B
  8
0
 10
572.23634114621018
 20
332.83217611602868
 30
0.0
 40
17.462601416113358
 50
253.68007233167191
 51
286.31992766832798
  0
ARC
  5
312C
  8
0
 10
582.84546818095077
 20
351.1691845229152
 30
0.0
 40
2.0
 50
0.0
 51
90.0
  0
ARC
  5
312D
  8
0
 10
582.81634232763463
 20
356.1691845229152
 30
0.0
 40
3.0
 50
191.04857303637141
 51
270.0
  0
LINE
  5
312E
  8
0
 10
577.23634114621018
 20
353.1691845229152
 30
0.0
 11
577.23634114621018
 21
354.1691845229152
 31
0.0
  0
LINE
  5
312F
  8
0
 10
577.23634114621018
 20
354.1691845229152
 30
0.0
 11
576.42434114621028
 21
354.98118452291533
 31
0.0
  0
LINE
  5
3130
  8
0
 10
567.23634114621007
 20
353.1691845229152
 30
0.0
 11
567.23634114621007
 21
354.1691845229152
 31
0.0
  0
LINE
  5
3131
  8
0
 10
568.04834114620996
 20
354.98118452291533
 30
0.0
 11
567.23634114621007
 21
354.1691845229152
 31
0.0
  0
LINE
  5
3132
  8
0
 10
577.23634114621018
 20
354.1691845229152
 30
0.0
 11
567.23634114621007
 21
354.1691845229152
 31
0.0
  0
LINE
  5
3133
  8
0
 10
576.42434114621028
 20
354.98118452291533
 30
0.0
 11
568.04834114620996
 21
354.98118452291533
 31
0.0
  0
LINE
  5
3134
  8
0
 10
580.48634114621007
 20
401.1691845229152
 30
0.0
 11
563.98634114621007
 21
401.1691845229152
 31
0.0
  0
ARC
  5
3135
  8
0
 10
564.87534114621121
 20
406.00050858833191
 30
0.0
 40
4.6309815714167701
 50
238.00067615949041
 51
301.99932384050942
  0
LINE
  5
3136
  8
0
 10
563.98634114621007
 20
401.1691845229152
 30
0.0
 11
562.42134114621149
 21
402.0731845229152
 31
0.0
  0
LINE
  5
3137
  8
0
 10
574.36838720621006
 20
397.1691845229152
 30
0.0
 11
578.39286572840319
 21
363.1691845229156
 31
0.0
  0
ARC
  5
3138
  8
0
 10
572.23634114621018
 20
418.83217611602862
 30
0.0
 40
17.462601416113358
 50
253.68007233167191
 51
286.31992766832798
  0
LINE
  5
3139
  8
0
 10
568.04834114620996
 20
397.1691845229152
 30
0.0
 11
576.42434114621028
 21
397.1691845229152
 31
0.0
  0
LINE
  5
313A
  8
0
 10
577.23634114621018
 20
397.98118452291533
 30
0.0
 11
567.23634114621007
 21
397.98118452291533
 31
0.0
  0
LINE
  5
313B
  8
0
 10
567.23634114621007
 20
401.1691845229152
 30
0.0
 11
567.23634114621007
 21
397.98118452291533
 31
0.0
  0
LINE
  5
313C
  8
0
 10
567.23634114621007
 20
397.98118452291533
 30
0.0
 11
568.04834114620996
 21
397.1691845229152
 31
0.0
  0
LINE
  5
313D
  8
0
 10
582.05134114621069
 20
402.0731845229152
 30
0.0
 11
580.48634114621007
 21
401.1691845229152
 31
0.0
  0
LINE
  5
313E
  8
0
 10
577.23634114621018
 20
397.98118452291533
 30
0.0
 11
577.23634114621018
 21
401.1691845229152
 31
0.0
  0
LINE
  5
313F
  8
0
 10
576.42434114621028
 20
397.1691845229152
 30
0.0
 11
577.23634114621018
 21
397.98118452291533
 31
0.0
  0
ARC
  5
3140
  8
0
 10
579.59734114621085
 20
406.00050858833191
 30
0.0
 40
4.6309815714167701
 50
238.00067615949061
 51
301.99932384050959
  0
LINE
  5
3141
  8
0
 10
483.84546818095072
 20
409.1691845229152
 30
0.0
 11
582.84546818095077
 21
409.1691845229152
 31
0.0
  0
LINE
  5
3142
  8
0
 10
483.84546818095072
 20
439.1691845229152
 30
0.0
 11
582.84546818095077
 21
439.1691845229152
 31
0.0
  0
LINE
  5
3143
  8
0
 10
481.84546818095072
 20
424.16918452291509
 30
0.0
 11
584.84546818095066
 21
424.16918452291509
 31
0.0
  0
LINE
  5
3144
  8
0
 10
488.34546818095072
 20
471.6691845229152
 30
0.0
 11
488.34546818095072
 21
454.16918452291509
 31
0.0
  0
LINE
  5
3145
  8
0
 10
498.64259521569141
 20
440.98118452291533
 30
0.0
 11
490.26659521569132
 21
440.98118452291533
 31
0.0
  0
LINE
  5
3146
  8
0
 10
489.45459521569143
 20
440.1691845229152
 30
0.0
 11
499.45459521569131
 21
440.1691845229152
 31
0.0
  0
LINE
  5
3147
  8
0
 10
481.84546818095072
 20
437.16918452291509
 30
0.0
 11
481.84546818095072
 21
411.16918452291509
 31
0.0
  0
LINE
  5
3148
  8
0
 10
488.34546818095072
 20
454.16918452291509
 30
0.0
 11
485.8084520039755
 21
441.48410363804351
 31
0.0
  0
ARC
  5
3149
  8
0
 10
482.86670997690447
 20
442.07245204345821
 30
0.0
 40
3.0
 50
281.28863569399311
 51
348.69006752598028
  0
ARC
  5
314A
  8
0
 10
483.84546818095072
 20
437.16918452291509
 30
0.0
 40
2.0
 50
90.000000000000057
 51
180.0
  0
LINE
  5
314B
  8
0
 10
490.26659521569132
 20
440.98118452291533
 30
0.0
 11
489.45459521569143
 21
440.1691845229152
 31
0.0
  0
LINE
  5
314C
  8
0
 10
489.45459521569143
 20
439.1691845229152
 30
0.0
 11
489.45459521569143
 21
440.1691845229152
 31
0.0
  0
LINE
  5
314D
  8
0
 10
499.45459521569131
 20
440.1691845229152
 30
0.0
 11
498.64259521569141
 21
440.98118452291533
 31
0.0
  0
LINE
  5
314E
  8
0
 10
499.45459521569131
 20
439.1691845229152
 30
0.0
 11
499.45459521569131
 21
440.1691845229152
 31
0.0
  0
ARC
  5
314F
  8
0
 10
478.34546818095077
 20
471.6691845229152
 30
0.0
 40
10.0
 50
0.0
 51
90.0
  0
ARC
  5
3150
  8
0
 10
473.34546818095072
 20
502.1691845229152
 30
0.0
 40
2.0
 50
270.0
 51
90.0
  0
ARC
  5
3151
  8
0
 10
465.34546818095072
 20
502.16918452291492
 30
0.0
 40
2.0
 50
90.0
 51
270.0
  0
LINE
  5
3152
  8
0
 10
465.34546818095072
 20
500.16918452291492
 30
0.0
 11
473.34546818095072
 21
500.1691845229152
 31
0.0
  0
LINE
  5
3153
  8
0
 10
465.34546818095072
 20
504.16918452291509
 30
0.0
 11
473.34546818095072
 21
504.16918452291509
 31
0.0
  0
LINE
  5
3154
  8
0
 10
578.34546818095077
 20
477.50282536037042
 30
0.0
 11
578.34546818095077
 21
454.16918452291492
 31
0.0
  0
LINE
  5
3155
  8
0
 10
584.84546818095066
 20
437.16918452291509
 30
0.0
 11
584.84546818095066
 21
411.16918452291509
 31
0.0
  0
ARC
  5
3156
  8
0
 10
582.84546818095077
 20
437.16918452291509
 30
0.0
 40
2.0
 50
359.99999999999977
 51
90.0
  0
LINE
  5
3157
  8
0
 10
578.34546818095077
 20
454.16918452291509
 30
0.0
 11
580.88248435792593
 21
441.48410363804351
 31
0.0
  0
ARC
  5
3158
  8
0
 10
583.82422638499702
 20
442.07245204345821
 30
0.0
 40
3.0
 50
191.30993247401969
 51
258.71136430600677
  0
LINE
  5
3159
  8
0
 10
576.42434114621028
 20
440.98118452291533
 30
0.0
 11
568.04834114620996
 21
440.98118452291533
 31
0.0
  0
LINE
  5
315A
  8
0
 10
577.23634114621018
 20
440.1691845229152
 30
0.0
 11
567.23634114621007
 21
440.1691845229152
 31
0.0
  0
LINE
  5
315B
  8
0
 10
568.04834114620996
 20
440.98118452291533
 30
0.0
 11
567.23634114621007
 21
440.1691845229152
 31
0.0
  0
LINE
  5
315C
  8
0
 10
567.23634114621007
 20
439.1691845229152
 30
0.0
 11
567.23634114621007
 21
440.1691845229152
 31
0.0
  0
LINE
  5
315D
  8
0
 10
577.23634114621018
 20
440.1691845229152
 30
0.0
 11
576.42434114621028
 21
440.98118452291533
 31
0.0
  0
LINE
  5
315E
  8
0
 10
577.23634114621018
 20
439.1691845229152
 30
0.0
 11
577.23634114621018
 21
440.1691845229152
 31
0.0
  0
CIRCLE
  5
3161
  8
0
 10
563.34546818095066
 20
475.1691845229152
 30
0.0
 40
13.0
  0
ARC
  5
3165
  8
0
 10
597.34546818095066
 20
522.6691845229152
 30
0.0
 40
41.0
 50
253.94286727754621
 51
270.0
  0
ARC
  5
3166
  8
0
 10
584.34546818095066
 20
477.50282536037042
 30
0.0
 40
6.0
 50
73.942867277546043
 51
180.0
  0
LINE
  5
3167
  8
0
 10
578.34546818095077
 20
490.7878644884176
 30
0.0
 11
578.34546818095077
 21
498.1691845229152
 31
0.0
  0
ARC
  5
3168
  8
0
 10
593.34546818095066
 20
502.1691845229152
 30
0.0
 40
2.0
 50
90.0
 51
270.0
  0
LINE
  5
3169
  8
0
 10
765.0068959033124
 20
402.0731845229152
 30
0.0
 11
765.0068959033124
 21
409.1691845229152
 31
0.0
  0
LINE
  5
316A
  8
0
 10
704.22522864908115
 20
402.0731845229152
 30
0.0
 11
704.22522864908115
 21
409.1691845229152
 31
0.0
  0
LINE
  5
316B
  8
0
 10
695.72518931093782
 20
402.0731845229152
 30
0.0
 11
695.72518931093782
 21
409.1691845229152
 31
0.0
  0
LINE
  5
316C
  8
0
 10
687.22514997279347
 20
402.0731845229152
 30
0.0
 11
687.22514997279347
 21
409.1691845229152
 31
0.0
  0
ARC
  5
316D
  8
0
 10
685.11606227619905
 20
411.16918452291509
 30
0.0
 40
2.0
 50
180.0
 51
270.0
  0
LINE
  5
316E
  8
0
 10
773.50693524145663
 20
402.0731845229152
 30
0.0
 11
773.50693524145663
 21
409.1691845229152
 31
0.0
  0
ARC
  5
316F
  8
0
 10
703.91114447001291
 20
317.1691845229152
 30
0.0
 40
6.0
 50
20.000000000000039
 51
86.999345533642824
  0
LINE
  5
3170
  8
0
 10
689.56866472874663
 20
363.16918452291321
 30
0.0
 11
688.08956679576204
 21
355.59417645583488
 31
0.0
  0
LINE
  5
3171
  8
0
 10
683.11606227619905
 20
338.1691845229152
 30
0.0
 11
683.11606227619905
 21
325.1691845229152
 31
0.0
  0
LINE
  5
3172
  8
0
 10
688.7901499727941
 20
315.16918452291537
 30
0.0
 11
702.66022864908427
 21
315.1691845229152
 31
0.0
  0
ARC
  5
3173
  8
0
 10
691.47516964186525
 20
325.61159779033909
 30
0.0
 40
10.442413267423641
 50
245.9837371858699
 51
294.0162628141311
  0
LINE
  5
3174
  8
0
 10
687.22514997279347
 20
316.0731845229152
 30
0.0
 11
687.22514997279347
 21
323.1691845229152
 31
0.0
  0
LINE
  5
3175
  8
0
 10
687.22514997279256
 20
316.0731845229152
 30
0.0
 11
688.79014997279319
 21
315.1691845229152
 31
0.0
  0
ARC
  5
3176
  8
0
 10
685.11606227619905
 20
325.1691845229152
 30
0.0
 40
2.0
 50
180.0
 51
270.0
  0
LINE
  5
3177
  8
0
 10
704.22522864908115
 20
316.0731845229152
 30
0.0
 11
704.22522864908115
 21
323.1691845229152
 31
0.0
  0
LINE
  5
3178
  8
0
 10
695.72518931093782
 20
316.0731845229152
 30
0.0
 11
695.72518931093782
 21
323.1691845229152
 31
0.0
  0
LINE
  5
3179
  8
0
 10
702.66022864908336
 20
315.1691845229152
 30
0.0
 11
704.22522864908206
 21
316.0731845229152
 31
0.0
  0
ARC
  5
317A
  8
0
 10
699.97520898000948
 20
325.6115977903396
 30
0.0
 40
10.44241326742447
 50
245.9837371858699
 51
294.01626281412899
  0
LINE
  5
317B
  8
0
 10
699.91318931093974
 20
311.1691845229152
 30
0.0
 11
691.53718931093954
 21
311.1691845229152
 31
0.0
  0
LINE
  5
317C
  8
0
 10
700.72518931093964
 20
315.1691845229152
 30
0.0
 11
700.72518931093964
 21
311.98118452291533
 31
0.0
  0
LINE
  5
317D
  8
0
 10
700.72518931093964
 20
311.98118452291533
 30
0.0
 11
699.91318931093974
 21
311.1691845229152
 31
0.0
  0
LINE
  5
317E
  8
0
 10
690.72518931093964
 20
311.98118452291533
 30
0.0
 11
700.72518931093964
 21
311.98118452291533
 31
0.0
  0
LINE
  5
317F
  8
0
 10
690.72518931093964
 20
311.98118452291533
 30
0.0
 11
690.72518931093964
 21
315.1691845229152
 31
0.0
  0
LINE
  5
3180
  8
0
 10
691.53718931093954
 20
311.1691845229152
 30
0.0
 11
690.72518931093964
 21
311.98118452291533
 31
0.0
  0
LINE
  5
3181
  8
0
 10
683.11606227619905
 20
351.1691845229152
 30
0.0
 11
683.11606227619905
 21
338.1691845229152
 31
0.0
  0
ARC
  5
3182
  8
0
 10
685.14517158396393
 20
356.16909978701727
 30
0.0
 40
3.0
 50
269.56936260176712
 51
348.95142696363177
  0
ARC
  5
3183
  8
0
 10
685.11606227619905
 20
351.1691845229152
 30
0.0
 40
2.0
 50
90.0
 51
180.0
  0
LINE
  5
3184
  8
0
 10
700.72518931093964
 20
353.1691845229152
 30
0.0
 11
700.72518931093964
 21
354.1691845229152
 31
0.0
  0
LINE
  5
3185
  8
0
 10
690.72518931093964
 20
353.1691845229152
 30
0.0
 11
690.72518931093964
 21
354.1691845229152
 31
0.0
  0
LINE
  5
3186
  8
0
 10
690.72518931093964
 20
354.1691845229152
 30
0.0
 11
700.72518931093964
 21
354.1691845229152
 31
0.0
  0
LINE
  5
3187
  8
0
 10
699.91318931093974
 20
354.98118452291533
 30
0.0
 11
691.53718931093954
 21
354.98118452291533
 31
0.0
  0
LINE
  5
3188
  8
0
 10
700.72518931093964
 20
354.1691845229152
 30
0.0
 11
699.91318931093974
 21
354.98118452291533
 31
0.0
  0
LINE
  5
3189
  8
0
 10
691.53718931093954
 20
354.98118452291533
 30
0.0
 11
690.72518931093964
 21
354.1691845229152
 31
0.0
  0
LINE
  5
318A
  8
0
 10
693.59314325093783
 20
397.16918452291338
 30
0.0
 11
689.56866472874663
 21
363.16918452291361
 31
0.0
  0
LINE
  5
318B
  8
0
 10
688.7901499727941
 20
401.16918452291537
 30
0.0
 11
702.66022864908427
 21
401.1691845229152
 31
0.0
  0
ARC
  5
318C
  8
0
 10
691.47516964186525
 20
411.61159779033909
 30
0.0
 40
10.442413267423641
 50
245.9837371858699
 51
294.0162628141311
  0
LINE
  5
318D
  8
0
 10
687.22514997279256
 20
402.0731845229152
 30
0.0
 11
688.79014997279319
 21
401.1691845229152
 31
0.0
  0
LINE
  5
318E
  8
0
 10
702.66022864908336
 20
401.1691845229152
 30
0.0
 11
704.22522864908206
 21
402.0731845229152
 31
0.0
  0
ARC
  5
318F
  8
0
 10
699.97520898000948
 20
411.6115977903396
 30
0.0
 40
10.44241326742447
 50
245.9837371858699
 51
294.01626281412899
  0
LINE
  5
3190
  8
0
 10
691.53718931093954
 20
397.1691845229152
 30
0.0
 11
690.72518931093964
 21
397.98118452291533
 31
0.0
  0
LINE
  5
3191
  8
0
 10
690.72518931093964
 20
397.98118452291533
 30
0.0
 11
690.72518931093964
 21
401.1691845229152
 31
0.0
  0
LINE
  5
3192
  8
0
 10
690.72518931093964
 20
397.98118452291533
 30
0.0
 11
700.72518931093964
 21
397.98118452291533
 31
0.0
  0
LINE
  5
3193
  8
0
 10
700.72518931093964
 20
397.98118452291533
 30
0.0
 11
699.91318931093974
 21
397.1691845229152
 31
0.0
  0
LINE
  5
3194
  8
0
 10
700.72518931093964
 20
401.1691845229152
 30
0.0
 11
700.72518931093964
 21
397.98118452291533
 31
0.0
  0
LINE
  5
3195
  8
0
 10
699.91318931093974
 20
397.1691845229152
 30
0.0
 11
691.53718931093954
 21
397.1691845229152
 31
0.0
  0
ARC
  5
3196
  8
0
 10
719.11813765829629
 20
322.1691845229152
 30
0.0
 40
10.0
 50
200.00000000000051
 51
267.12211000012951
  0
LINE
  5
3197
  8
0
 10
709.54930019472795
 20
319.2213053828691
 30
0.0
 11
709.72121145043718
 21
318.7489830896584
 31
0.0
  0
ARC
  5
3198
  8
0
 10
750.1139868941018
 20
322.1691845229152
 30
0.0
 40
10.0
 50
272.87788999988089
 51
339.99999999999949
  0
LINE
  5
3199
  8
0
 10
765.00689590331149
 20
316.0731845229152
 30
0.0
 11
766.571895903312
 21
315.1691845229152
 31
0.0
  0
ARC
  5
319A
  8
0
 10
769.25691557238395
 20
325.61159779033909
 30
0.0
 40
10.442413267423641
 50
245.9837371858699
 51
294.0162628141311
  0
LINE
  5
319B
  8
0
 10
765.0068959033124
 20
316.0731845229152
 30
0.0
 11
765.0068959033124
 21
323.1691845229152
 31
0.0
  0
LINE
  5
319C
  8
0
 10
759.68282435767014
 20
319.2213053828691
 30
0.0
 11
759.5109131019608
 21
318.7489830896584
 31
0.0
  0
ARC
  5
319D
  8
0
 10
765.32098008238518
 20
317.1691845229152
 30
0.0
 40
6.0
 50
93.000654466400647
 51
159.99999999999989
  0
LINE
  5
319E
  8
0
 10
773.50693524145663
 20
316.0731845229152
 30
0.0
 11
773.50693524145663
 21
323.1691845229152
 31
0.0
  0
LINE
  5
319F
  8
0
 10
768.50693524145845
 20
311.98118452291533
 30
0.0
 11
769.31893524145835
 21
311.1691845229152
 31
0.0
  0
LINE
  5
31A0
  8
0
 10
768.50693524145845
 20
315.1691845229152
 30
0.0
 11
768.50693524145845
 21
311.98118452291533
 31
0.0
  0
LINE
  5
31A1
  8
0
 10
768.50693524145845
 20
353.1691845229152
 30
0.0
 11
768.50693524145845
 21
354.1691845229152
 31
0.0
  0
LINE
  5
31A2
  8
0
 10
769.31893524145835
 20
354.98118452291533
 30
0.0
 11
768.50693524145845
 21
354.1691845229152
 31
0.0
  0
LINE
  5
31A3
  8
0
 10
765.00689590331149
 20
402.0731845229152
 30
0.0
 11
766.571895903312
 21
401.1691845229152
 31
0.0
  0
ARC
  5
31A4
  8
0
 10
769.25691557238395
 20
411.61159779033909
 30
0.0
 40
10.442413267423641
 50
245.9837371858699
 51
294.0162628141311
  0
LINE
  5
31A5
  8
0
 10
768.50693524145845
 20
401.1691845229152
 30
0.0
 11
768.50693524145845
 21
397.98118452291533
 31
0.0
  0
LINE
  5
31A6
  8
0
 10
768.50693524145845
 20
397.98118452291533
 30
0.0
 11
769.31893524145835
 21
397.1691845229152
 31
0.0
  0
LINE
  5
31A7
  8
0
 10
690.61606227619905
 20
488.1691845229152
 30
0.0
 11
719.64108314432724
 21
488.1691845229152
 31
0.0
  0
LINE
  5
31A8
  8
0
 10
689.61606227619995
 20
498.1691845229152
 30
0.0
 11
689.61606227619905
 21
454.16918452291492
 31
0.0
  0
LINE
  5
31A9
  8
0
 10
683.11606227619905
 20
437.16918452291509
 30
0.0
 11
683.11606227619905
 21
411.16918452291509
 31
0.0
  0
LINE
  5
31AA
  8
0
 10
683.11606227619905
 20
424.16918452291509
 30
0.0
 11
683.11606227619905
 21
411.16918452291509
 31
0.0
  0
LINE
  5
31AB
  8
0
 10
689.61606227619905
 20
454.16918452291509
 30
0.0
 11
687.07904609922389
 21
441.48410363804351
 31
0.0
  0
ARC
  5
31AC
  8
0
 10
684.1373040721528
 20
442.07245204345821
 30
0.0
 40
3.0
 50
281.28863569399311
 51
348.69006752598028
  0
ARC
  5
31AD
  8
0
 10
685.11606227619905
 20
437.16918452291509
 30
0.0
 40
2.0
 50
90.000000000000057
 51
180.0
  0
LINE
  5
31AE
  8
0
 10
691.53718931093954
 20
440.98118452291533
 30
0.0
 11
690.72518931093964
 21
440.1691845229152
 31
0.0
  0
LINE
  5
31AF
  8
0
 10
700.72518931093964
 20
440.1691845229152
 30
0.0
 11
699.91318931093974
 21
440.98118452291533
 31
0.0
  0
LINE
  5
31B0
  8
0
 10
699.91318931093974
 20
440.98118452291533
 30
0.0
 11
691.53718931093954
 21
440.98118452291533
 31
0.0
  0
LINE
  5
31B1
  8
0
 10
690.72518931093964
 20
440.1691845229152
 30
0.0
 11
700.72518931093964
 21
440.1691845229152
 31
0.0
  0
LINE
  5
31B2
  8
0
 10
690.72518931093964
 20
439.1691845229152
 30
0.0
 11
690.72518931093964
 21
440.1691845229152
 31
0.0
  0
LINE
  5
31B3
  8
0
 10
700.72518931093964
 20
439.1691845229152
 30
0.0
 11
700.72518931093964
 21
440.1691845229152
 31
0.0
  0
LINE
  5
31B4
  8
0
 10
606.84546818095066
 20
481.6691845229152
 30
0.0
 11
608.34546818095077
 21
483.16918452291509
 31
0.0
  0
ARC
  5
31B5
  8
0
 10
601.34546818095066
 20
502.16918452291492
 30
0.0
 40
2.0
 50
270.0
 51
90.0
  0
LINE
  5
31B6
  8
0
 10
608.34546818095077
 20
502.1691845229152
 30
0.0
 11
608.34546818095077
 21
483.16918452291509
 31
0.0
  0
LINE
  5
31B7
  8
0
 10
680.61606227619814
 20
483.50018452291528
 30
0.0
 11
680.61606227619814
 21
466.83818452291501
 31
0.0
  0
LINE
  5
31B8
  8
0
 10
689.61606227619905
 20
487.16918452291509
 30
0.0
 11
689.61606227619723
 21
463.16918452291537
 31
0.0
  0
LINE
  5
31B9
  8
0
 10
680.61606227619814
 20
466.83818452291501
 30
0.0
 11
689.61606227619814
 21
466.83818452291501
 31
0.0
  0
LINE
  5
31BA
  8
0
 10
680.61606227619814
 20
475.1691845229152
 30
0.0
 11
689.61606227619814
 21
475.1691845229152
 31
0.0
  0
ARC
  5
31BB
  8
0
 10
691.48834497050211
 20
461.16918452291537
 30
0.0
 40
1.0
 50
339.64559360176509
 51
90.000000000000028
  0
LINE
  5
31BC
  8
0
 10
691.4883449705012
 20
462.16918452291611
 30
0.0
 11
690.61606227619723
 21
462.16918452291611
 31
0.0
  0
ARC
  5
31BD
  8
0
 10
690.61606227619723
 20
463.16918452291537
 30
0.0
 40
1.0
 50
179.99999999999591
 51
270.0
  0
LINE
  5
31BE
  8
0
 10
680.61606227619814
 20
483.50018452291528
 30
0.0
 11
689.61606227619814
 21
483.50018452291528
 31
0.0
  0
ARC
  5
31BF
  8
0
 10
690.61606227619905
 20
487.16918452291509
 30
0.0
 40
1.0
 50
90.0
 51
179.99999999999369
  0
LINE
  5
31C0
  8
0
 10
769.31893524145835
 20
440.98118452291533
 30
0.0
 11
768.50693524145845
 21
440.1691845229152
 31
0.0
  0
LINE
  5
31C1
  8
0
 10
768.50693524145845
 20
439.1691845229152
 30
0.0
 11
768.50693524145845
 21
440.1691845229152
 31
0.0
  0
ARC
  5
31C2
  8
0
 10
714.11606227619905
 20
502.16918452291537
 30
0.0
 40
2.0
 50
180.0
 51
270.0000000000062
  0
ARC
  5
31C3
  8
0
 10
714.11606227619905
 20
502.1691845229152
 30
0.0
 40
2.0
 50
90.0
 51
180.0
  0
LINE
  5
31C4
  8
0
 10
714.11606227619905
 20
500.16918452291537
 30
0.0
 11
714.21385651309629
 21
500.16918452291537
 31
0.0
  0
LINE
  5
31C5
  8
0
 10
712.11606227619905
 20
502.1691845229152
 30
0.0
 11
712.11606227619905
 21
502.16918452291537
 31
0.0
  0
LINE
  5
31C6
  8
0
 10
714.21385651309629
 20
504.16918452291509
 30
0.0
 11
714.11606227619905
 21
504.16918452291509
 31
0.0
  0
ARC
  5
31C7
  8
0
 10
755.11606227619905
 20
502.16918452291537
 30
0.0
 40
2.0
 50
269.9999999999938
 51
0.0
  0
ARC
  5
31C8
  8
0
 10
755.11606227619905
 20
502.1691845229152
 30
0.0
 40
2.0
 50
0.0
 51
90.0
  0
LINE
  5
31C9
  8
0
 10
755.11606227619905
 20
500.16918452291537
 30
0.0
 11
755.01826803930169
 21
500.16918452291537
 31
0.0
  0
LINE
  5
31CA
  8
0
 10
757.11606227619905
 20
502.1691845229152
 30
0.0
 11
757.11606227619905
 21
502.16918452291537
 31
0.0
  0
LINE
  5
31CB
  8
0
 10
755.01826803930169
 20
504.16918452291509
 30
0.0
 11
755.11606227619905
 21
504.16918452291509
 31
0.0
  0
LINE
  5
31CC
  8
0
 10
579.34577951204483
 20
671.28412316082404
 30
0.0
 11
606.84546818095066
 21
671.28412316082438
 31
0.0
  0
LINE
  5
31CD
  8
0
 10
593.34546818094896
 20
669.28412316082449
 30
0.0
 11
601.34546818095066
 21
669.28412316082449
 31
0.0
  0
LINE
  5
31CE
  8
0
 10
590.5856921044923
 20
522.6691845229152
 30
0.0
 11
606.84546818095066
 21
522.6691845229152
 31
0.0
  0
ARC
  5
31CF
  8
0
 10
533.34546818095077
 20
480.1691845229152
 30
0.0
 40
56.0
 50
90.0
 51
111.6182724221582
  0
LINE
  5
31D0
  8
0
 10
506.34546818095072
 20
510.1691845229152
 30
0.0
 11
566.34546818095077
 21
510.1691845229152
 31
0.0
  0
ARC
  5
31D1
  8
0
 10
496.13792316249601
 20
521.61258754407322
 30
0.0
 40
6.0
 50
238.16336959508811
 51
345.23540271911378
  0
LINE
  5
31D2
  8
0
 10
473.34546818095072
 20
522.63466361273004
 30
0.0
 11
519.47896070747447
 21
534.42524382036186
 31
0.0
  0
ARC
  5
31D3
  8
0
 10
471.34546818095072
 20
481.68347315384329
 30
0.0
 40
41.0
 50
58.163369595087772
 51
90.0
  0
ARC
  5
31D4
  8
0
 10
519.34546818095066
 20
515.49622798822656
 30
0.0
 40
18.0
 50
111.6182724221582
 51
165.2354027191144
  0
ARC
  5
31D5
  8
0
 10
556.02053623908239
 20
495.16918452291509
 30
0.0
 40
41.0
 50
47.33207450589159
 51
90.0
  0
LINE
  5
31D6
  8
0
 10
533.34546818095077
 20
536.16918452291509
 30
0.0
 11
556.02053623908239
 21
536.16918452291509
 31
0.0
  0
ARC
  5
31D7
  8
0
 10
590.5856921044923
 20
532.66918452291509
 30
0.0
 40
10.0
 50
227.3320745058916
 51
270.0
  0
ARC
  5
31D8
  8
0
 10
533.34546818095077
 20
691.78412316082438
 30
0.0
 40
31.972928389585832
 50
194.48864554455571
 51
285.3901460375842
  0
LINE
  5
31D9
  8
0
 10
494.45459521569131
 20
640.28412316082472
 30
0.0
 11
555.01446818095064
 21
640.28412316082472
 31
0.0
  0
ARC
  5
31DA
  8
0
 10
533.34546818095077
 20
691.78412316082438
 30
0.0
 40
48.00000000000005
 50
205.28260304330789
 51
291.18434924246878
  0
ARC
  5
31DB
  8
0
 10
533.34546818095077
 20
691.78412316082438
 30
0.0
 40
45.0
 50
207.10068534824029
 51
290.35440639823759
  0
CIRCLE
  5
31DC
  8
0
 10
494.45459521569131
 20
652.89325019556406
 30
0.0
 40
4.188000000000101
  0
CIRCLE
  5
31DD
  8
0
 10
494.45459521569131
 20
652.89325019556406
 30
0.0
 40
5.0
  0
ARC
  5
31DE
  8
0
 10
493.28613718304217
 20
667.28412316082449
 30
0.0
 40
4.0
 50
0.0
 51
90.0
  0
LINE
  5
31DF
  8
0
 10
481.84546818095072
 20
671.28412316082438
 30
0.0
 11
481.84546818095072
 21
652.89325019556406
 31
0.0
  0
ARC
  5
31E0
  8
0
 10
494.45459521569131
 20
652.89325019556406
 30
0.0
 40
12.60912703473991
 50
180.0
 51
270.0
  0
LINE
  5
31E1
  8
0
 10
473.34546818095259
 20
669.28412316082449
 30
0.0
 11
465.34546818095072
 21
669.28412316082449
 31
0.0
  0
ARC
  5
31E2
  8
0
 10
465.34546818095072
 20
671.28412316082415
 30
0.0
 40
1.9999999999999709
 50
180.0
 51
270.0
  0
ARC
  5
31E3
  8
0
 10
473.34546818095259
 20
671.28412316082415
 30
0.0
 40
1.9999999999999709
 50
270.0
 51
0.0
  0
LINE
  5
31E4
  8
0
 10
551.34546818095066
 20
646.78412316082449
 30
0.0
 11
575.34546818095077
 21
646.78412316082449
 31
0.0
  0
LINE
  5
31E5
  8
0
 10
555.01446818095064
 20
646.78412316082449
 30
0.0
 11
571.67646818095079
 21
646.78412316082449
 31
0.0
  0
LINE
  5
31E6
  8
0
 10
555.01446818095064
 20
637.78412316082438
 30
0.0
 11
571.67646818095079
 21
637.78412316082438
 31
0.0
  0
LINE
  5
31E7
  8
0
 10
579.34577951204483
 20
671.28412316082404
 30
0.0
 11
541.83077338172905
 21
660.95771004714493
 31
0.0
  0
LINE
  5
31E8
  8
0
 10
563.34546818095066
 20
637.78412316082438
 30
0.0
 11
563.34546818095066
 21
646.78412316082449
 31
0.0
  0
LINE
  5
31E9
  8
0
 10
550.34546818095077
 20
648.65640585512892
 30
0.0
 11
550.34546818095077
 21
647.78412316082449
 31
0.0
  0
ARC
  5
31EA
  8
0
 10
549.34546818095077
 20
648.65640585512892
 30
0.0
 40
1.0
 50
0.0
 51
110.354406398235
  0
ARC
  5
31EB
  8
0
 10
551.34546818095066
 20
647.78412316082449
 30
0.0
 40
1.0
 50
180.00000000000031
 51
270.0
  0
LINE
  5
31EC
  8
0
 10
555.01446818095064
 20
637.78412316082438
 30
0.0
 11
555.01446818095064
 21
646.78412316082449
 31
0.0
  0
LINE
  5
31ED
  8
0
 10
576.34546818095066
 20
670.45825486249805
 30
0.0
 11
576.34546818095066
 21
647.78412316082449
 31
0.0
  0
LINE
  5
31EE
  8
0
 10
584.84546818095066
 20
671.28412316082415
 30
0.0
 11
584.84546818095066
 21
652.89325019556441
 31
0.0
  0
ARC
  5
31EF
  8
0
 10
572.23634114621018
 20
652.89325019556441
 30
0.0
 40
12.60912703473991
 50
270.0
 51
0.0
  0
ARC
  5
31F0
  8
0
 10
572.23634114621018
 20
652.89325019556441
 30
0.0
 40
5.0
 50
325.26794366262737
 51
34.732056337372541
  0
ARC
  5
31F1
  8
0
 10
572.23634114621018
 20
652.89325019556441
 30
0.0
 40
4.188000000000101
 50
348.862638001221
 51
11.137361998779021
  0
ARC
  5
31F2
  8
0
 10
575.34546818095077
 20
647.78412316082449
 30
0.0
 40
1.0
 50
270.0
 51
0.0
  0
LINE
  5
31F3
  8
0
 10
571.67646818095079
 20
637.78412316082438
 30
0.0
 11
571.67646818095079
 21
646.78412316082449
 31
0.0
  0
LINE
  5
31F4
  8
0
 10
571.67646818095079
 20
640.28412316082472
 30
0.0
 11
572.23634114621018
 21
640.28412316082472
 31
0.0
  0
ARC
  5
31F5
  8
0
 10
593.34546818094896
 20
671.28412316082415
 30
0.0
 40
1.9999999999999709
 50
180.0
 51
270.0
  0
ARC
  5
31F6
  8
0
 10
720.61606227619905
 20
515.49622798822656
 30
0.0
 40
18.0
 50
111.6182724221582
 51
176.8637957734316
  0
LINE
  5
31F7
  8
0
 10
606.84546818095066
 20
522.6691845229152
 30
0.0
 11
608.34546818095077
 21
521.1691845229152
 31
0.0
  0
ARC
  5
31F8
  8
0
 10
694.65500248913759
 20
516.91868175993363
 30
0.0
 40
8.0
 50
290.36827340019948
 51
356.8637957734324
  0
ARC
  5
31F9
  8
0
 10
734.61606227619905
 20
480.1691845229152
 30
0.0
 40
56.0
 50
68.381727577841843
 51
90.0
  0
ARC
  5
31FA
  8
0
 10
734.61606227619905
 20
480.1691845229152
 30
0.0
 40
56.0
 50
90.0
 51
111.6182724221582
  0
ARC
  5
31FB
  8
0
 10
748.61606227619905
 20
515.49622798822656
 30
0.0
 40
18.0
 50
3.136204226568426
 51
68.381727577841843
  0
ARC
  5
31FC
  8
0
 10
774.5771220632605
 20
516.91868175993363
 30
0.0
 40
8.0
 50
183.1362042265676
 51
249.63172659980049
  0
LINE
  5
31FD
  8
0
 10
606.84546818095066
 20
671.28412316082438
 30
0.0
 11
608.34546818095077
 21
672.78412316082449
 31
0.0
  0
ARC
  5
31FE
  8
0
 10
601.34546818095066
 20
671.28412316082415
 30
0.0
 40
1.9999999999999709
 50
270.0
 51
0.0
  0
LINE
  5
3211
  8
0
 10
782.00697457959996
 20
402.0731845229152
 30
0.0
 11
782.00697457959996
 21
409.1691845229152
 31
0.0
  0
ARC
  5
3212
  8
0
 10
784.11606227619905
 20
411.16918452291509
 30
0.0
 40
2.0
 50
270.0
 51
359.9999999999992
  0
LINE
  5
3219
  8
0
 10
779.66345982365135
 20
363.1691845229152
 30
0.0
 11
781.14254121108479
 21
355.59426119173258
 31
0.0
  0
LINE
  5
321A
  8
0
 10
786.11606227619905
 20
338.16918452291537
 30
0.0
 11
786.11606227619905
 21
325.1691845229152
 31
0.0
  0
LINE
  5
321B
  8
0
 10
782.00697457959996
 20
316.0731845229152
 30
0.0
 11
782.00697457959996
 21
323.1691845229152
 31
0.0
  0
LINE
  5
321C
  8
0
 10
780.44197457960206
 20
315.1691845229152
 30
0.0
 11
782.00697457960086
 21
316.0731845229152
 31
0.0
  0
ARC
  5
321D
  8
0
 10
784.11606227619905
 20
325.1691845229152
 30
0.0
 40
2.0
 50
270.0
 51
0.0
  0
LINE
  5
321E
  8
0
 10
777.69493524145855
 20
311.1691845229152
 30
0.0
 11
778.50693524145845
 21
311.98118452291533
 31
0.0
  0
LINE
  5
321F
  8
0
 10
778.50693524145845
 20
311.98118452291533
 30
0.0
 11
778.50693524145845
 21
315.1691845229152
 31
0.0
  0
LINE
  5
3220
  8
0
 10
786.11606227619905
 20
351.1691845229152
 30
0.0
 11
786.11606227619905
 21
338.1691845229152
 31
0.0
  0
ARC
  5
3221
  8
0
 10
784.08693642288279
 20
356.1691845229152
 30
0.0
 40
3.0
 50
191.04857303637141
 51
270.0
  0
ARC
  5
3222
  8
0
 10
784.11606227619905
 20
351.1691845229152
 30
0.0
 40
2.0
 50
0.0
 51
90.0
  0
LINE
  5
3223
  8
0
 10
778.50693524145845
 20
353.1691845229152
 30
0.0
 11
778.50693524145845
 21
354.1691845229152
 31
0.0
  0
LINE
  5
3224
  8
0
 10
778.50693524145845
 20
354.1691845229152
 30
0.0
 11
777.69493524145855
 21
354.98118452291533
 31
0.0
  0
LINE
  5
322A
  8
0
 10
780.44197457960206
 20
401.1691845229152
 30
0.0
 11
782.00697457960086
 21
402.0731845229152
 31
0.0
  0
LINE
  5
322B
  8
0
 10
778.50693524145845
 20
397.98118452291533
 30
0.0
 11
778.50693524145845
 21
401.1691845229152
 31
0.0
  0
LINE
  5
322C
  8
0
 10
777.69493524145855
 20
397.1691845229152
 30
0.0
 11
778.50693524145845
 21
397.98118452291533
 31
0.0
  0
LINE
  5
324F
  8
0
 10
779.61606227619905
 20
477.50282536037042
 30
0.0
 11
779.61606227619905
 21
454.16918452291492
 31
0.0
  0
LINE
  5
3251
  8
0
 10
782.61606227619814
 20
479.6691845229156
 30
0.0
 11
782.61606227619814
 21
452.1691845229156
 31
0.0
  0
LINE
  5
3252
  8
0
 10
779.61606227619814
 20
498.1691845229152
 30
0.0
 11
779.61606227619905
 21
454.16918452291492
 31
0.0
  0
LINE
  5
3253
  8
0
 10
786.11606227619905
 20
437.16918452291509
 30
0.0
 11
786.11606227619905
 21
411.16918452291509
 31
0.0
  0
LINE
  5
3254
  8
0
 10
786.11606227619905
 20
424.16918452291509
 30
0.0
 11
786.11606227619905
 21
411.16918452291509
 31
0.0
  0
LINE
  5
3255
  8
0
 10
779.61606227619905
 20
454.16918452291509
 30
0.0
 11
782.15307845317409
 21
441.48410363804351
 31
0.0
  0
ARC
  5
3256
  8
0
 10
779.61606227619814
 20
452.1691845229156
 30
0.0
 40
3.0
 50
288.82252501411472
 51
0.0
  0
ARC
  5
3257
  8
0
 10
784.11606227619905
 20
437.16918452291509
 30
0.0
 40
2.0
 50
359.99999999999977
 51
90.0
  0
LINE
  5
3258
  8
0
 10
778.50693524145845
 20
440.1691845229152
 30
0.0
 11
777.69493524145855
 21
440.98118452291533
 31
0.0
  0
ARC
  5
3259
  8
0
 10
785.09482048024529
 20
442.07245204345821
 30
0.0
 40
3.0
 50
191.30993247401969
 51
258.71136430600677
  0
LINE
  5
325A
  8
0
 10
778.50693524145845
 20
439.1691845229152
 30
0.0
 11
778.50693524145845
 21
440.1691845229152
 31
0.0
  0
ARC
  5
325F
  8
0
 10
779.61606227619814
 20
479.6691845229156
 30
0.0
 40
3.0
 50
0.0
 51
90.0
  0
LINE
  5
3260
  8
0
 10
779.61606227619905
 20
490.7878644884176
 30
0.0
 11
779.61606227619905
 21
498.1691845229152
 31
0.0
  0
LINE
  5
331D
  8
0
 10
459.84546818095072
 20
712.28412316082427
 30
0.0
 11
493.28613718304217
 21
712.28412316082427
 31
0.0
  0
LINE
  5
3321
  8
0
 10
449.87814520029309
 20
691.78412316082438
 30
0.0
 11
418.36577020029279
 21
691.78412316082438
 31
0.0
  0
LINE
  5
3322
  8
0
 10
412.06352020029311
 20
698.08637316082422
 30
0.0
 11
430.97027020029321
 21
698.08637316082422
 31
0.0
  0
LINE
  5
3323
  8
0
 10
418.36577020029279
 20
691.78412316082438
 30
0.0
 11
412.06352020029311
 21
698.08637316082422
 31
0.0
  0
LINE
  5
3324
  8
0
 10
458.34546818095077
 20
710.78412316082415
 30
0.0
 11
458.34546818095077
 21
691.78412316082438
 31
0.0
  0
LINE
  5
3325
  8
0
 10
443.43864520029359
 20
698.08637316082422
 30
0.0
 11
449.87814520029309
 21
691.78412316082438
 31
0.0
  0
LINE
  5
3326
  8
0
 10
434.12252020029342
 20
694.93524816082436
 30
0.0
 11
443.43864520029359
 21
694.93524816082436
 31
0.0
  0
LINE
  5
3327
  8
0
 10
430.97027020029321
 20
698.08637316082422
 30
0.0
 11
434.12252020029342
 21
694.93524816082436
 31
0.0
  0
LINE
  5
3328
  8
0
 10
443.43864520029359
 20
694.93524816082436
 30
0.0
 11
443.43864520029359
 21
698.08637316082422
 31
0.0
  0
LINE
  5
3329
  8
0
 10
459.84546818095072
 20
712.28412316082427
 30
0.0
 11
458.34546818095077
 21
710.78412316082415
 31
0.0
  0
LINE
  5
3337
  8
0
 10
579.34577951204665
 20
712.28412316082438
 30
0.0
 11
606.84546818095066
 21
712.28412316082438
 31
0.0
  0
LINE
  5
3338
  8
0
 10
593.34546818094896
 20
714.28412316082472
 30
0.0
 11
601.34546818095066
 21
714.28412316082449
 31
0.0
  0
ARC
  5
3339
  8
0
 10
533.34546818095077
 20
691.78412316082438
 30
0.0
 40
31.972928389585832
 50
74.609853962415784
 51
165.51135445544401
  0
LINE
  5
333A
  8
0
 10
494.45459521569131
 20
743.28412316082449
 30
0.0
 11
572.23634114621018
 21
743.28412316082449
 31
0.0
  0
ARC
  5
333B
  8
0
 10
533.34546818095077
 20
691.78412316082438
 30
0.0
 40
45.0
 50
29.886240352462622
 51
152.89931465175999
  0
LINE
  5
333C
  8
0
 10
556.34546818095066
 20
738.78412316082449
 30
0.0
 11
510.34546818095072
 21
738.78412316082449
 31
0.0
  0
CIRCLE
  5
333D
  8
0
 10
494.45459521569131
 20
730.67499612608447
 30
0.0
 40
4.188000000000101
  0
CIRCLE
  5
333E
  8
0
 10
494.45459521569131
 20
730.67499612608447
 30
0.0
 40
5.0
  0
ARC
  5
333F
  8
0
 10
494.45459521569131
 20
730.67499612608447
 30
0.0
 40
12.60912703473991
 50
90.0
 51
180.0
  0
LINE
  5
3340
  8
0
 10
507.34546818095072
 20
735.78412316082449
 30
0.0
 11
507.34546818095072
 21
728.51285850523846
 31
0.0
  0
ARC
  5
3341
  8
0
 10
493.28613718304217
 20
716.28412316082427
 30
0.0
 40
4.0
 50
270.0
 51
0.0
  0
ARC
  5
3342
  8
0
 10
533.34546818095077
 20
691.78412316082438
 30
0.0
 40
48.00000000000005
 50
122.7971682958236
 51
154.71739695669231
  0
LINE
  5
3343
  8
0
 10
477.34546818095072
 20
696.78412316082449
 30
0.0
 11
515.47896070747447
 21
696.78412316082449
 31
0.0
  0
LINE
  5
3344
  8
0
 10
477.34546818095072
 20
686.78412316082438
 30
0.0
 11
515.47896070747447
 21
686.78412316082438
 31
0.0
  0
ARC
  5
3345
  8
0
 10
477.34546818095072
 20
700.78412316082449
 30
0.0
 40
4.0
 50
180.0
 51
270.0
  0
LINE
  5
3346
  8
0
 10
477.34546818095072
 20
695.92559429822313
 30
0.0
 11
477.34546818095072
 21
687.64265202342585
 31
0.0
  0
ARC
  5
3347
  8
0
 10
473.34546818095259
 20
712.28412316082472
 30
0.0
 40
1.9999999999999709
 50
0.0
 51
90.0
  0
ARC
  5
3348
  8
0
 10
465.34546818095072
 20
712.28412316082472
 30
0.0
 40
1.9999999999999709
 50
90.0
 51
180.0
  0
LINE
  5
3349
  8
0
 10
473.34546818095259
 20
714.28412316082472
 30
0.0
 11
465.34546818095072
 21
714.28412316082449
 31
0.0
  0
LINE
  5
334A
  8
0
 10
481.84546818095072
 20
730.67499612608447
 30
0.0
 11
481.84546818095072
 21
712.28412316082427
 31
0.0
  0
ARC
  5
334B
  8
0
 10
498.5165782054973
 20
700.78412316082449
 30
0.0
 40
4.0
 50
270.0
 51
345.51135445544378
  0
ARC
  5
334C
  8
0
 10
515.47896070747447
 20
700.78412316082449
 30
0.0
 40
4.0
 50
270.0
 51
0.0
  0
LINE
  5
334D
  8
0
 10
515.47896070747447
 20
695.92559429822313
 30
0.0
 11
515.47896070747447
 21
687.64265202342585
 31
0.0
  0
ARC
  5
334E
  8
0
 10
510.34546818095072
 20
735.78412316082449
 30
0.0
 40
3.0
 50
89.999999999999943
 51
179.99999999999969
  0
ARC
  5
334F
  8
0
 10
572.23634114621018
 20
730.67499612608481
 30
0.0
 40
12.60912703473991
 50
0.0
 51
90.0
  0
CIRCLE
  5
3350
  8
0
 10
572.23634114621018
 20
730.67499612608481
 30
0.0
 40
5.0
  0
CIRCLE
  5
3351
  8
0
 10
572.23634114621018
 20
730.67499612608481
 30
0.0
 40
4.188000000000101
  0
LINE
  5
3352
  8
0
 10
559.34546818095066
 20
735.78412316082449
 30
0.0
 11
559.34546818095066
 21
728.51285850523846
 31
0.0
  0
ARC
  5
3353
  8
0
 10
533.34546818095077
 20
691.78412316082438
 30
0.0
 40
48.00000000000005
 50
26.376829258865481
 51
57.202831704176418
  0
LINE
  5
3354
  8
0
 10
579.34577951204665
 20
712.28412316082438
 30
0.0
 11
541.83077338172905
 21
722.61053627450406
 31
0.0
  0
LINE
  5
3355
  8
0
 10
584.84546818095066
 20
730.67499612608481
 30
0.0
 11
584.84546818095066
 21
712.28412316082438
 31
0.0
  0
ARC
  5
3356
  8
0
 10
593.34546818094896
 20
712.28412316082472
 30
0.0
 40
1.9999999999999709
 50
90.0
 51
180.0
  0
ARC
  5
3357
  8
0
 10
556.34546818095066
 20
735.78412316082449
 30
0.0
 40
3.0
 50
0.0
 51
89.999999999999915
  0
LINE
  5
335C
  8
0
 10
608.34546818095077
 20
710.78412316082449
 30
0.0
 11
608.34546818095077
 21
691.78412316082438
 31
0.0
  0
LINE
  5
335D
  8
0
 10
606.84546818095066
 20
712.28412316082438
 30
0.0
 11
608.34546818095077
 21
710.78412316082449
 31
0.0
  0
ARC
  5
335E
  8
0
 10
601.34546818095066
 20
712.28412316082472
 30
0.0
 40
1.9999999999999709
 50
0.0
 51
90.0
  0
LINE
  5
345B
  8
0
 10
639.79958956222924
 20
1031.7934956796839
 30
0.0
 11
630.48346456222907
 21
1031.7934956796839
 31
0.0
  0
LINE
  5
345C
  8
0
 10
624.04396456222946
 20
1028.6423706796841
 30
0.0
 11
655.55633956222982
 21
1028.6423706796841
 31
0.0
  0
LINE
  5
345F
  8
0
 10
630.48346456222907
 20
1031.7934956796839
 30
0.0
 11
630.48346456222907
 21
1034.9446206796831
 31
0.0
  0
LINE
  5
3460
  8
0
 10
630.48346456222907
 20
1034.9446206796831
 30
0.0
 11
624.04396456222946
 21
1028.6423706796841
 31
0.0
  0
LINE
  5
3462
  8
0
 10
661.85858956222955
 20
1034.9446206796831
 30
0.0
 11
642.95183956222945
 21
1034.9446206796831
 31
0.0
  0
LINE
  5
3463
  8
0
 10
642.95183956222945
 20
1034.9446206796831
 30
0.0
 11
639.79958956222924
 21
1031.7934956796839
 31
0.0
  0
LINE
  5
3464
  8
0
 10
655.55633956222982
 20
1028.6423706796841
 30
0.0
 11
661.85858956222955
 21
1034.9446206796831
 31
0.0
  0
LINE
  5
346E
  8
0
 10
1342.1932432599231
 20
668.28412316082449
 30
0.0
 11
1342.1932432599231
 21
691.78412316082438
 31
0.0
  0
LINE
  5
346F
  8
0
 10
1340.6932432599231
 20
716.78412316082438
 30
0.0
 11
1340.6932432599231
 21
666.78412316082438
 31
0.0
  0
ARC
  5
3470
  8
0
 10
1257.1932432599231
 20
691.78412316082438
 30
0.0
 40
33.984890929442493
 50
188.46030650995391
 51
285.0
  0
LINE
  5
3471
  8
0
 10
1172.1932432599231
 20
668.28412316082449
 30
0.0
 11
1172.1932432599231
 21
691.78412316082438
 31
0.0
  0
ARC
  5
3472
  8
0
 10
1239.7955114688459
 20
681.78412316082449
 30
0.0
 40
5.0
 50
0.0
 51
90.0
  0
ARC
  5
3473
  8
0
 10
1193.1932432599231
 20
681.78412316082449
 30
0.0
 40
5.0
 50
90.0
 51
180.0
  0
LINE
  5
3474
  8
0
 10
1173.6932432599231
 20
716.78412316082438
 30
0.0
 11
1173.6932432599231
 21
666.78412316082438
 31
0.0
  0
LINE
  5
3477
  8
0
 10
1298.0776651888559
 20
502.1691845229152
 30
0.0
 11
1222.8907100700151
 21
502.1691845229152
 31
0.0
  0
ARC
  5
3478
  8
0
 10
1257.1932432599231
 20
691.78412316082438
 30
0.0
 40
48.99999999999995
 50
210.67742447255631
 51
329.32257552744369
  0
ARC
  5
3479
  8
0
 10
1243.1932432599231
 20
515.93599408360126
 30
0.0
 40
21.0
 50
108.12620396055669
 51
162.11250686208189
  0
LINE
  5
347A
  8
0
 10
1188.1932432599231
 20
527.16918452291486
 30
0.0
 11
1244.7955114688459
 21
537.99430501209338
 31
0.0
  0
LINE
  5
347B
  8
0
 10
1250.6557267068879
 20
623.38977645384739
 30
0.0
 11
1201.230759812933
 21
651.92529439476152
 31
0.0
  0
LINE
  5
347C
  8
0
 10
1250.9395498300789
 20
617.45240840537497
 30
0.0
 11
1195.946936689767
 21
649.20240840537508
 31
0.0
  0
ARC
  5
347D
  8
0
 10
1257.1932432599231
 20
691.78412316082472
 30
0.0
 40
52.0
 50
208.73565374490551
 51
331.26434625509472
  0
LINE
  5
347E
  8
0
 10
1226.997090837217
 20
290.1691845229152
 30
0.0
 11
1230.4611924523531
 21
284.1691845229152
 31
0.0
  0
LINE
  5
347F
  8
0
 10
1194.6932432599231
 20
408.16918452291509
 30
0.0
 11
1319.6932432599231
 21
408.16918452291509
 31
0.0
  0
LINE
  5
3480
  8
0
 10
1194.6932432599231
 20
424.66918452291537
 30
0.0
 11
1319.6932432599231
 21
424.66918452291469
 31
0.0
  0
LINE
  5
3481
  8
0
 10
1194.6932432599231
 20
391.6691845229152
 30
0.0
 11
1319.6932432599231
 21
391.6691845229152
 31
0.0
  0
LINE
  5
3482
  8
0
 10
1189.6932432599231
 20
327.1691845229152
 30
0.0
 11
1324.6932432599231
 21
327.1691845229152
 31
0.0
  0
LINE
  5
3483
  8
0
 10
1189.6932432599231
 20
310.1691845229152
 30
0.0
 11
1324.6932432599231
 21
310.1691845229152
 31
0.0
  0
LINE
  5
3484
  8
0
 10
1189.6932432599231
 20
293.1691845229152
 30
0.0
 11
1324.6932432599231
 21
293.1691845229152
 31
0.0
  0
LINE
  5
3485
  8
0
 10
1189.6932432599231
 20
327.1691845229152
 30
0.0
 11
1189.6932432599231
 21
293.1691845229152
 31
0.0
  0
LINE
  5
3486
  8
0
 10
1048.150225664232
 20
323.32223689584629
 30
0.0
 11
1048.150225664232
 21
297.99513573176318
 31
0.0
  0
LINE
  5
3487
  8
0
 10
1086.1539190940759
 20
327.1691845229152
 30
0.0
 11
1086.1539190940759
 21
310.16918452291537
 31
0.0
  0
LINE
  5
3488
  8
0
 10
934.13914537470203
 20
327.1691845229152
 30
0.0
 11
934.13914537469998
 21
310.1691845229152
 31
0.0
  0
LINE
  5
3489
  8
0
 10
972.14283880454423
 20
323.32223689584629
 30
0.0
 11
972.14283880454423
 21
297.99513573176318
 31
0.0
  0
LINE
  5
34A1
  8
0
 10
1048.8315715725339
 20
286.16818452291568
 30
0.0
 11
1034.9614928962451
 21
286.16818452291551
 31
0.0
  0
ARC
  5
34A2
  8
0
 10
1046.1465519034621
 20
296.61059779034622
 30
0.0
 40
10.44241326743024
 50
245.9837371858801
 51
294.0162628141203
  0
LINE
  5
34A3
  8
0
 10
1086.1539190940759
 20
310.16918452291537
 30
0.0
 11
934.13914537470203
 21
310.1691845229152
 31
0.0
  0
LINE
  5
34A4
  8
0
 10
1086.1539190940759
 20
293.1691845229152
 30
0.0
 11
934.13914537470203
 21
293.1691845229152
 31
0.0
  0
LINE
  5
34A5
  8
0
 10
985.33157157253288
 20
286.16818452291551
 30
0.0
 11
971.46149289624361
 21
286.16818452291523
 31
0.0
  0
ARC
  5
34A6
  8
0
 10
974.14651066370061
 20
296.61058885018792
 30
0.0
 40
10.44240432727257
 50
245.9837267520231
 51
294.01628467069742
  0
LINE
  5
34A7
  8
0
 10
953.58157157253299
 20
286.16818452291568
 30
0.0
 11
939.71149289624373
 21
286.16818452291551
 31
0.0
  0
ARC
  5
34A8
  8
0
 10
942.3965106637005
 20
296.61058885018821
 30
0.0
 40
10.44240432727257
 50
245.9837267520231
 51
294.01628467069742
  0
LINE
  5
34A9
  8
0
 10
934.13914537469998
 20
310.1691845229152
 30
0.0
 11
934.13914537469998
 21
293.1691845229152
 31
0.0
  0
LINE
  5
34AA
  8
0
 10
938.1464928962431
 20
287.07218452291551
 30
0.0
 11
938.1464928962431
 21
293.16918452291537
 31
0.0
  0
LINE
  5
34AB
  8
0
 10
939.71149289621644
 20
286.16818452293109
 30
0.0
 11
938.14649289621593
 21
287.07218452293108
 31
0.0
  0
LINE
  5
34AC
  8
0
 10
946.64653223438836
 20
287.07218452291522
 30
0.0
 11
946.64653223438836
 21
293.1691845229152
 31
0.0
  0
LINE
  5
34AD
  8
0
 10
955.1465715725335
 20
287.07218452291551
 30
0.0
 11
955.1465715725335
 21
293.16918452291537
 31
0.0
  0
LINE
  5
34AE
  8
0
 10
955.1465715725335
 20
287.07218452291551
 30
0.0
 11
953.58157157253299
 21
286.16818452291551
 31
0.0
  0
ARC
  5
34AF
  8
0
 10
950.89655190346082
 20
296.61059779034622
 30
0.0
 40
10.44241326743024
 50
245.9837371858801
 51
294.0162628141203
  0
LINE
  5
34B0
  8
0
 10
969.89649289624322
 20
287.07218452291522
 30
0.0
 11
969.89649289624322
 21
293.1691845229152
 31
0.0
  0
LINE
  5
34B1
  8
0
 10
971.46149289621655
 20
286.16818452293091
 30
0.0
 11
969.89649289621582
 21
287.07218452293091
 31
0.0
  0
LINE
  5
34B2
  8
0
 10
1001.815532234388
 20
270.1691845229152
 30
0.0
 11
1018.477532234388
 21
270.1691845229152
 31
0.0
  0
LINE
  5
34B3
  8
0
 10
1001.815532234388
 20
279.1691845229152
 30
0.0
 11
1018.477532234388
 21
279.1691845229152
 31
0.0
  0
LINE
  5
34B4
  8
0
 10
1031.68243061925
 20
281.1691845229152
 30
0.0
 11
988.61063384952649
 21
281.1691845229152
 31
0.0
  0
LINE
  5
34B5
  8
0
 10
994.14653223438836
 20
261.1691845229152
 30
0.0
 11
1026.1465322343879
 21
261.1691845229152
 31
0.0
  0
LINE
  5
34B6
  8
0
 10
982.26035823871098
 20
286.16818452291523
 30
0.0
 11
983.41448142682009
 21
284.1691845229152
 31
0.0
  0
ARC
  5
34B7
  8
0
 10
988.61063384952649
 20
287.1691845229152
 30
0.0
 40
6.0
 50
210.0
 51
270.0
  0
LINE
  5
34B8
  8
0
 10
1010.146532234388
 20
270.1691845229152
 30
0.0
 11
1010.146532234388
 21
279.1691845229152
 31
0.0
  0
LINE
  5
34B9
  8
0
 10
1001.815532234388
 20
270.1691845229152
 30
0.0
 11
1001.815532234388
 21
279.1691845229152
 31
0.0
  0
LINE
  5
34BA
  8
0
 10
1001.815532234388
 20
279.1691845229152
 30
0.0
 11
1001.878002822625
 21
281.1691845229152
 31
0.0
  0
LINE
  5
34BB
  8
0
 10
994.14653223438836
 20
281.1691845229152
 30
0.0
 11
994.14653223438836
 21
261.1691845229152
 31
0.0
  0
LINE
  5
34BC
  8
0
 10
978.39653223438825
 20
287.07218452291499
 30
0.0
 11
978.39653223438825
 21
293.16918452291492
 31
0.0
  0
LINE
  5
34BD
  8
0
 10
986.89657157253362
 20
287.07218452291522
 30
0.0
 11
986.89657157253362
 21
293.1691845229152
 31
0.0
  0
LINE
  5
34BE
  8
0
 10
986.89657157253362
 20
287.07218452291522
 30
0.0
 11
985.33157157253288
 21
286.16818452291523
 31
0.0
  0
ARC
  5
34BF
  8
0
 10
982.64655190346093
 20
296.61059779034599
 30
0.0
 40
10.44241326743024
 50
245.9837371858801
 51
294.0162628141203
  0
LINE
  5
34C0
  8
0
 10
1038.0327062300689
 20
286.16818452291568
 30
0.0
 11
1036.8785830419581
 21
284.1691845229152
 31
0.0
  0
LINE
  5
34C1
  8
0
 10
1018.477532234388
 20
270.1691845229152
 30
0.0
 11
1018.477532234388
 21
279.1691845229152
 31
0.0
  0
LINE
  5
34C2
  8
0
 10
1018.477532234388
 20
279.1691845229152
 30
0.0
 11
1018.415061646152
 21
281.1691845229152
 31
0.0
  0
LINE
  5
34C3
  8
0
 10
1026.1465322343879
 20
281.1691845229152
 30
0.0
 11
1026.1465322343879
 21
261.1691845229152
 31
0.0
  0
ARC
  5
34C4
  8
0
 10
1031.68243061925
 20
287.1691845229152
 30
0.0
 40
6.0
 50
270.0
 51
330.0
  0
LINE
  5
34C5
  8
0
 10
1033.396492896245
 20
287.07218452291551
 30
0.0
 11
1033.396492896245
 21
293.16918452291537
 31
0.0
  0
LINE
  5
34C6
  8
0
 10
1041.89653223439
 20
287.07218452291522
 30
0.0
 11
1041.89653223439
 21
293.1691845229152
 31
0.0
  0
LINE
  5
34C7
  8
0
 10
1034.961492896218
 20
286.16818452293109
 30
0.0
 11
1033.396492896218
 21
287.07218452293108
 31
0.0
  0
ARC
  5
34C8
  8
0
 10
1037.646510663702
 20
296.61058885018821
 30
0.0
 40
10.44240432727257
 50
245.9837267520231
 51
294.01628467069742
  0
LINE
  5
34C9
  8
0
 10
1080.581571572533
 20
286.16818452291568
 30
0.0
 11
1066.711492896244
 21
286.16818452291551
 31
0.0
  0
ARC
  5
34CA
  8
0
 10
1077.8965519034609
 20
296.61059779034622
 30
0.0
 40
10.44241326743024
 50
245.9837371858801
 51
294.0162628141203
  0
LINE
  5
34CB
  8
0
 10
1050.3965715725351
 20
287.07218452291551
 30
0.0
 11
1050.3965715725351
 21
293.16918452291537
 31
0.0
  0
LINE
  5
34CC
  8
0
 10
1050.3965715725351
 20
287.07218452291551
 30
0.0
 11
1048.8315715725339
 21
286.16818452291551
 31
0.0
  0
LINE
  5
34CD
  8
0
 10
1065.146492896243
 20
287.07218452291551
 30
0.0
 11
1065.146492896243
 21
293.16918452291537
 31
0.0
  0
LINE
  5
34CE
  8
0
 10
1073.6465322343879
 20
287.07218452291522
 30
0.0
 11
1073.6465322343879
 21
293.1691845229152
 31
0.0
  0
LINE
  5
34CF
  8
0
 10
1066.711492896216
 20
286.16818452293109
 30
0.0
 11
1065.1464928962159
 21
287.07218452293108
 31
0.0
  0
ARC
  5
34D0
  8
0
 10
1069.3965106636999
 20
296.61058885018821
 30
0.0
 40
10.44240432727257
 50
245.9837267520231
 51
294.01628467069742
  0
LINE
  5
34D1
  8
0
 10
1086.1539190940759
 20
310.1691845229152
 30
0.0
 11
1086.1539190940759
 21
293.1691845229152
 31
0.0
  0
LINE
  5
34D2
  8
0
 10
1082.146571572533
 20
287.07218452291551
 30
0.0
 11
1082.146571572533
 21
293.16918452291537
 31
0.0
  0
LINE
  5
34D3
  8
0
 10
1082.146571572533
 20
287.07218452291551
 30
0.0
 11
1080.581571572533
 21
286.16818452291551
 31
0.0
  0
LINE
  5
34D4
  8
0
 10
1192.3856301196111
 20
287.07218452291522
 30
0.0
 11
1193.9506301196111
 21
286.16818452291523
 31
0.0
  0
ARC
  5
34D5
  8
0
 10
1194.8396301196119
 20
290.99950858833199
 30
0.0
 40
4.6309815714167701
 50
238.00067615949041
 51
301.99932384050942
  0
LINE
  5
34D6
  8
0
 10
1192.3856301196111
 20
293.1691845229152
 30
0.0
 11
1192.3856301196111
 21
287.07218452291522
 31
0.0
  0
LINE
  5
34D7
  8
0
 10
1210.4506301196111
 20
286.16818452291523
 30
0.0
 11
1212.0156301196121
 21
287.07218452291522
 31
0.0
  0
ARC
  5
34D8
  8
0
 10
1209.5616301196101
 20
290.99950858833199
 30
0.0
 40
4.6309815714167701
 50
238.00067615949061
 51
301.99932384050959
  0
ARC
  5
34D9
  8
0
 10
1202.2006301196111
 20
303.83117611602847
 30
0.0
 40
17.462601416113358
 50
253.68007233167199
 51
286.31992766832798
  0
LINE
  5
34DA
  8
0
 10
1197.29363011961
 20
287.07218452291522
 30
0.0
 11
1197.29363011961
 21
293.1691845229152
 31
0.0
  0
LINE
  5
34DB
  8
0
 10
1207.1076301196131
 20
287.07218452291522
 30
0.0
 11
1207.1076301196131
 21
293.1691845229152
 31
0.0
  0
LINE
  5
34DC
  8
0
 10
1193.9506301196111
 20
286.16818452291523
 30
0.0
 11
1210.4506301196111
 21
286.16818452291523
 31
0.0
  0
ARC
  5
34DD
  8
0
 10
1221.8009384145089
 20
287.1691845229152
 30
0.0
 40
6.0
 50
30.0
 51
90.0
  0
LINE
  5
34DE
  8
0
 10
1212.0156301196121
 20
287.07218452291522
 30
0.0
 11
1212.0156301196121
 21
293.1691845229152
 31
0.0
  0
LINE
  5
35DF
  8
0
 10
1172.1932432599231
 20
502.1691845229152
 30
0.0
 11
1172.1932432599231
 21
525.6691845229152
 31
0.0
  0
ARC
  5
35E0
  8
0
 10
1052.5952712593901
 20
510.30845040208209
 30
0.0
 40
8.0
 50
168.8105787395468
 51
246.8152373291131
  0
LINE
  5
35E1
  8
0
 10
1173.6932432599231
 20
527.1691845229152
 30
0.0
 11
1173.6932432599231
 21
477.1691845229152
 31
0.0
  0
ARC
  5
35E2
  8
0
 10
967.69779320938687
 20
510.30845040208209
 30
0.0
 40
8.0
 50
293.18476267088693
 51
11.18942126045315
  0
CIRCLE
  5
35E3
  8
0
 10
1010.146532234388
 20
502.1691845229152
 30
0.0
 40
23.5
  0
CIRCLE
  5
35E4
  8
0
 10
1010.146532234388
 20
502.1691845229152
 30
0.0
 40
25.0
  0
LINE
  5
35E5
  8
0
 10
1046.0845322343901
 20
333.16918452291537
 30
0.0
 11
1037.7085322343901
 21
333.16918452291537
 31
0.0
  0
LINE
  5
35E6
  8
0
 10
1045.581571572533
 20
384.66818452291568
 30
0.0
 11
1031.711492896244
 21
384.6681845229154
 31
0.0
  0
ARC
  5
35E7
  8
0
 10
1042.8965519034609
 20
395.11059779034622
 30
0.0
 40
10.44241326743024
 50
245.9837371858801
 51
294.0162628141203
  0
LINE
  5
35E8
  8
0
 10
1086.1539190940759
 20
327.1691845229152
 30
0.0
 11
934.13914537470373
 21
327.1691845229152
 31
0.0
  0
LINE
  5
35E9
  8
0
 10
1080.2831322343879
 20
391.6691845229152
 30
0.0
 11
940.00993223438854
 21
391.6691845229152
 31
0.0
  0
LINE
  5
35EA
  8
0
 10
1080.2831322343879
 20
408.16918452291509
 30
0.0
 11
940.00993223438854
 21
408.16918452291509
 31
0.0
  0
LINE
  5
35EB
  8
0
 10
1080.2831322343879
 20
424.66918452291537
 30
0.0
 11
940.00993223438854
 21
424.66918452291452
 31
0.0
  0
LINE
  5
35EC
  8
0
 10
1045.214832234396
 20
421.32223689584629
 30
0.0
 11
1045.214832234396
 21
395.99513573176318
 31
0.0
  0
LINE
  5
35ED
  8
0
 10
940.00993223438854
 20
424.66918452291509
 30
0.0
 11
940.00993223438854
 21
408.16918452291509
 31
0.0
  0
LINE
  5
35EE
  8
0
 10
975.07823223439652
 20
421.32223689584629
 30
0.0
 11
975.07823223439652
 21
395.99513573176318
 31
0.0
  0
LINE
  5
35EF
  8
0
 10
982.58453223438835
 20
333.1691845229152
 30
0.0
 11
974.20853223438814
 21
333.1691845229152
 31
0.0
  0
LINE
  5
35F0
  8
0
 10
988.58157157253299
 20
384.66818452291568
 30
0.0
 11
974.71149289624373
 21
384.6681845229154
 31
0.0
  0
ARC
  5
35F1
  8
0
 10
977.3965106637005
 20
395.11058885018809
 30
0.0
 40
10.44240432727257
 50
245.9837267520231
 51
294.01628467069742
  0
LINE
  5
35F2
  8
0
 10
964.84443188780085
 20
376.6691845229152
 30
0.0
 11
963.86053777540292
 21
348.4941435167118
 31
0.0
  0
LINE
  5
35F3
  8
0
 10
963.86053777540292
 20
348.4941435167118
 30
0.0
 11
958.14653223439018
 21
327.1691845229152
 31
0.0
  0
LINE
  5
35F4
  8
0
 10
950.83453223438846
 20
333.1691845229152
 30
0.0
 11
942.45853223438826
 21
333.1691845229152
 31
0.0
  0
LINE
  5
35F5
  8
0
 10
951.64653223438825
 20
332.35718452291508
 30
0.0
 11
950.83453223438846
 21
333.1691845229152
 31
0.0
  0
LINE
  5
35F6
  8
0
 10
951.64653223438825
 20
327.1691845229152
 30
0.0
 11
951.64653223438825
 21
332.35718452291508
 31
0.0
  0
LINE
  5
35F7
  8
0
 10
942.45853223438826
 20
333.1691845229152
 30
0.0
 11
941.64653223438825
 21
332.35718452291508
 31
0.0
  0
LINE
  5
35F8
  8
0
 10
941.64653223438825
 20
332.35718452291508
 30
0.0
 11
941.64653223438825
 21
327.1691845229152
 31
0.0
  0
LINE
  5
35F9
  8
0
 10
973.39653223438836
 20
332.35718452291508
 30
0.0
 11
973.39653223438836
 21
327.1691845229152
 31
0.0
  0
LINE
  5
35FA
  8
0
 10
974.20853223438814
 20
333.1691845229152
 30
0.0
 11
973.39653223438836
 21
332.35718452291508
 31
0.0
  0
LINE
  5
35FB
  8
0
 10
940.00993223438854
 20
408.16918452291509
 30
0.0
 11
940.00993223438854
 21
391.6691845229152
 31
0.0
  0
LINE
  5
35FC
  8
0
 10
963.14653223438825
 20
391.66918452291497
 30
0.0
 11
964.84443188780085
 21
376.6691845229152
 31
0.0
  0
LINE
  5
35FD
  8
0
 10
960.08157157253299
 20
384.66818452291568
 30
0.0
 11
946.21149289624373
 21
384.6681845229154
 31
0.0
  0
ARC
  5
35FE
  8
0
 10
957.39655190346105
 20
395.11059779034622
 30
0.0
 40
10.44241326743024
 50
245.9837371858801
 51
294.0162628141203
  0
LINE
  5
35FF
  8
0
 10
944.64649289624322
 20
385.57218452291551
 30
0.0
 11
944.64649289624322
 21
391.66918452291537
 31
0.0
  0
LINE
  5
3600
  8
0
 10
953.14653223438825
 20
385.57218452291522
 30
0.0
 11
953.14653223438825
 21
391.6691845229152
 31
0.0
  0
LINE
  5
3601
  8
0
 10
946.21149289621633
 20
384.6681845229312
 30
0.0
 11
944.64649289621593
 21
385.57218452293108
 31
0.0
  0
ARC
  5
3602
  8
0
 10
948.89651066370072
 20
395.11058885018809
 30
0.0
 40
10.44240432727257
 50
245.9837267520231
 51
294.01628467069742
  0
LINE
  5
3603
  8
0
 10
961.64657157253339
 20
385.57218452291551
 30
0.0
 11
961.64657157253339
 21
391.66918452291537
 31
0.0
  0
LINE
  5
3604
  8
0
 10
961.64657157253339
 20
385.57218452291551
 30
0.0
 11
960.08157157253299
 21
384.6681845229154
 31
0.0
  0
LINE
  5
3605
  8
0
 10
973.14649289624333
 20
385.57218452291551
 30
0.0
 11
973.14649289624333
 21
391.66918452291537
 31
0.0
  0
LINE
  5
3606
  8
0
 10
974.71149289621633
 20
384.6681845229312
 30
0.0
 11
973.14649289621593
 21
385.57218452293108
 31
0.0
  0
LINE
  5
3607
  8
0
 10
983.39653223438836
 20
327.1691845229152
 30
0.0
 11
983.39653223438836
 21
332.35718452291508
 31
0.0
  0
LINE
  5
3608
  8
0
 10
983.39653223438836
 20
332.35718452291508
 30
0.0
 11
982.58453223438835
 21
333.1691845229152
 31
0.0
  0
LINE
  5
3609
  8
0
 10
1036.89653223439
 20
332.35718452291547
 30
0.0
 11
1036.89653223439
 21
327.16918452291537
 31
0.0
  0
LINE
  5
360A
  8
0
 10
1037.7085322343901
 20
333.16918452291537
 30
0.0
 11
1036.89653223439
 21
332.35718452291547
 31
0.0
  0
LINE
  5
360B
  8
0
 10
981.64653223438836
 20
385.57218452291522
 30
0.0
 11
981.64653223438836
 21
391.6691845229152
 31
0.0
  0
LINE
  5
360C
  8
0
 10
990.14657157253339
 20
385.57218452291551
 30
0.0
 11
990.14657157253339
 21
391.66918452291537
 31
0.0
  0
LINE
  5
360D
  8
0
 10
990.14657157253339
 20
385.57218452291551
 30
0.0
 11
988.58157157253299
 21
384.6681845229154
 31
0.0
  0
ARC
  5
360E
  8
0
 10
985.89655190346105
 20
395.11059779034622
 30
0.0
 40
10.44241326743024
 50
245.9837371858801
 51
294.0162628141203
  0
LINE
  5
360F
  8
0
 10
1030.146492896243
 20
385.57218452291551
 30
0.0
 11
1030.146492896243
 21
391.66918452291537
 31
0.0
  0
LINE
  5
3610
  8
0
 10
1038.6465322343879
 20
385.57218452291522
 30
0.0
 11
1038.6465322343879
 21
391.6691845229152
 31
0.0
  0
LINE
  5
3611
  8
0
 10
1031.711492896216
 20
384.6681845229312
 30
0.0
 11
1030.1464928962159
 21
385.57218452293108
 31
0.0
  0
ARC
  5
3612
  8
0
 10
1034.3965106636999
 20
395.11058885018809
 30
0.0
 40
10.44240432727257
 50
245.9837267520231
 51
294.01628467069742
  0
LINE
  5
3613
  8
0
 10
958.14653223438654
 20
470.15868631380329
 30
0.0
 11
958.14653223438654
 21
442.6586863138034
 31
0.0
  0
LINE
  5
3614
  8
0
 10
961.14653223438665
 20
488.2466886674103
 30
0.0
 11
961.14653223438825
 21
439.6691845229152
 31
0.0
  0
LINE
  5
3615
  8
0
 10
958.14653223438836
 20
428.41918452291151
 30
0.0
 11
961.14653223438825
 21
439.6691845229152
 31
0.0
  0
LINE
  5
3616
  8
0
 10
948.14653223438825
 20
430.85718452291508
 30
0.0
 11
948.14653223438825
 21
424.66918452291492
 31
0.0
  0
LINE
  5
3617
  8
0
 10
948.95853223438826
 20
431.6691845229152
 30
0.0
 11
948.14653223438825
 21
430.85718452291508
 31
0.0
  0
LINE
  5
3618
  8
0
 10
957.33453223438835
 20
431.6691845229152
 30
0.0
 11
948.95853223438826
 21
431.6691845229152
 31
0.0
  0
LINE
  5
3619
  8
0
 10
958.14653223438836
 20
424.66918452291492
 30
0.0
 11
958.14653223438836
 21
430.85718452291508
 31
0.0
  0
LINE
  5
361A
  8
0
 10
958.14653223438836
 20
430.85718452291508
 30
0.0
 11
957.33453223438835
 21
431.6691845229152
 31
0.0
  0
ARC
  5
361B
  8
0
 10
961.14653223438665
 20
442.6586863138034
 30
0.0
 40
3.0
 50
180.0
 51
270.0
  0
ARC
  5
361C
  8
0
 10
961.14653223438665
 20
470.15868631380329
 30
0.0
 40
3.0
 50
90.0
 51
180.0
  0
ARC
  5
361D
  8
0
 10
977.14653223438836
 20
488.2466886674103
 30
0.0
 40
16.0
 50
113.1847626708872
 51
180.0
  0
LINE
  5
361E
  8
0
 10
976.64653223438825
 20
430.85718452291508
 30
0.0
 11
976.64653223438825
 21
424.66918452291492
 31
0.0
  0
LINE
  5
361F
  8
0
 10
985.83453223438835
 20
431.6691845229152
 30
0.0
 11
977.45853223438826
 21
431.6691845229152
 31
0.0
  0
LINE
  5
3620
  8
0
 10
977.45853223438826
 20
431.6691845229152
 30
0.0
 11
976.64653223438825
 21
430.85718452291508
 31
0.0
  0
LINE
  5
3621
  8
0
 10
986.64653223438825
 20
424.66918452291492
 30
0.0
 11
986.64653223438825
 21
430.85718452291508
 31
0.0
  0
LINE
  5
3622
  8
0
 10
986.64653223438825
 20
430.85718452291508
 30
0.0
 11
985.83453223438835
 21
431.6691845229152
 31
0.0
  0
LINE
  5
3623
  8
0
 10
1043.6465322343879
 20
424.66918452291509
 30
0.0
 11
1043.6465322343879
 21
430.85718452291508
 31
0.0
  0
LINE
  5
3624
  8
0
 10
1043.6465322343879
 20
430.85718452291508
 30
0.0
 11
1042.834532234388
 21
431.6691845229152
 31
0.0
  0
LINE
  5
3625
  8
0
 10
1033.6465322343879
 20
430.85718452291508
 30
0.0
 11
1033.6465322343879
 21
424.66918452291509
 31
0.0
  0
LINE
  5
3626
  8
0
 10
1034.458532234388
 20
431.6691845229152
 30
0.0
 11
1033.6465322343879
 21
430.85718452291508
 31
0.0
  0
LINE
  5
3627
  8
0
 10
1042.834532234388
 20
431.6691845229152
 30
0.0
 11
1034.458532234388
 21
431.6691845229152
 31
0.0
  0
ARC
  5
3628
  8
0
 10
985.14653223438836
 20
502.16918452291537
 30
0.0
 40
2.0
 50
180.0
 51
270.0000000000062
  0
LINE
  5
3629
  8
0
 10
985.14653223438836
 20
500.16918452291537
 30
0.0
 11
985.24432647128572
 21
500.16918452291537
 31
0.0
  0
LINE
  5
362A
  8
0
 10
983.14653223438836
 20
502.1691845229152
 30
0.0
 11
983.14653223438836
 21
502.16918452291537
 31
0.0
  0
ARC
  5
362B
  8
0
 10
985.14653223438836
 20
502.1691845229152
 30
0.0
 40
2.0
 50
90.0
 51
180.0
  0
LINE
  5
362C
  8
0
 10
985.24432647128572
 20
504.16918452291509
 30
0.0
 11
985.14653223438836
 21
504.16918452291509
 31
0.0
  0
ARC
  5
362D
  8
0
 10
1035.1465322343879
 20
502.1691845229152
 30
0.0
 40
2.0
 50
0.0
 51
90.0
  0
ARC
  5
362E
  8
0
 10
1035.1465322343879
 20
502.16918452291537
 30
0.0
 40
2.0
 50
269.9999999999938
 51
0.0
  0
LINE
  5
362F
  8
0
 10
1037.1465322343879
 20
502.1691845229152
 30
0.0
 11
1037.1465322343879
 21
502.16918452291537
 31
0.0
  0
LINE
  5
3630
  8
0
 10
1035.1465322343879
 20
500.16918452291537
 30
0.0
 11
1035.0487379974909
 21
500.16918452291537
 31
0.0
  0
LINE
  5
3631
  8
0
 10
1035.0487379974909
 20
504.16918452291509
 30
0.0
 11
1035.1465322343879
 21
504.16918452291509
 31
0.0
  0
LINE
  5
3632
  8
0
 10
1194.6932432599231
 20
424.66918452291509
 30
0.0
 11
1194.6932432599231
 21
391.6691845229152
 31
0.0
  0
LINE
  5
3633
  8
0
 10
1080.2831322343879
 20
424.66918452291509
 30
0.0
 11
1080.2831322343879
 21
408.16918452291509
 31
0.0
  0
LINE
  5
3634
  8
0
 10
1055.448632580976
 20
376.66918452291497
 30
0.0
 11
1056.432526693374
 21
348.49414351671248
 31
0.0
  0
LINE
  5
3635
  8
0
 10
1056.432526693374
 20
348.49414351671248
 30
0.0
 11
1062.1465322343861
 21
327.1691845229152
 31
0.0
  0
LINE
  5
3636
  8
0
 10
1046.89653223439
 20
327.16918452291537
 30
0.0
 11
1046.89653223439
 21
332.35718452291547
 31
0.0
  0
LINE
  5
3637
  8
0
 10
1046.89653223439
 20
332.35718452291547
 30
0.0
 11
1046.0845322343901
 21
333.16918452291537
 31
0.0
  0
LINE
  5
3638
  8
0
 10
1068.6465322343879
 20
332.3571845229153
 30
0.0
 11
1068.6465322343879
 21
327.1691845229152
 31
0.0
  0
LINE
  5
3639
  8
0
 10
1077.834532234388
 20
333.1691845229152
 30
0.0
 11
1069.458532234388
 21
333.1691845229152
 31
0.0
  0
LINE
  5
363A
  8
0
 10
1078.6465322343879
 20
327.1691845229152
 30
0.0
 11
1078.6465322343879
 21
332.3571845229153
 31
0.0
  0
LINE
  5
363B
  8
0
 10
1078.6465322343879
 20
332.3571845229153
 30
0.0
 11
1077.834532234388
 21
333.1691845229152
 31
0.0
  0
LINE
  5
363C
  8
0
 10
1069.458532234388
 20
333.1691845229152
 30
0.0
 11
1068.6465322343879
 21
332.3571845229153
 31
0.0
  0
LINE
  5
363D
  8
0
 10
1057.1465322343861
 20
391.66918452291497
 30
0.0
 11
1055.448632580976
 21
376.6691845229152
 31
0.0
  0
LINE
  5
363E
  8
0
 10
1074.081571572533
 20
384.66818452291568
 30
0.0
 11
1060.211492896244
 21
384.6681845229154
 31
0.0
  0
ARC
  5
363F
  8
0
 10
1062.8965106636999
 20
395.11058885018809
 30
0.0
 40
10.44240432727257
 50
245.9837267520231
 51
294.01628467069742
  0
LINE
  5
3640
  8
0
 10
1058.646492896243
 20
385.57218452291551
 30
0.0
 11
1058.646492896243
 21
391.66918452291537
 31
0.0
  0
LINE
  5
3641
  8
0
 10
1060.211492896216
 20
384.6681845229312
 30
0.0
 11
1058.6464928962159
 21
385.57218452293108
 31
0.0
  0
LINE
  5
3642
  8
0
 10
1047.146571572533
 20
385.57218452291551
 30
0.0
 11
1047.146571572533
 21
391.66918452291537
 31
0.0
  0
LINE
  5
3643
  8
0
 10
1047.146571572533
 20
385.57218452291551
 30
0.0
 11
1045.581571572533
 21
384.6681845229154
 31
0.0
  0
LINE
  5
3644
  8
0
 10
1080.2831322343879
 20
408.16918452291509
 30
0.0
 11
1080.2831322343879
 21
391.6691845229152
 31
0.0
  0
LINE
  5
3645
  8
0
 10
1067.1465322343879
 20
385.57218452291522
 30
0.0
 11
1067.1465322343879
 21
391.6691845229152
 31
0.0
  0
LINE
  5
3646
  8
0
 10
1075.646571572533
 20
385.57218452291551
 30
0.0
 11
1075.646571572533
 21
391.66918452291537
 31
0.0
  0
LINE
  5
3647
  8
0
 10
1075.646571572533
 20
385.57218452291551
 30
0.0
 11
1074.081571572533
 21
384.6681845229154
 31
0.0
  0
ARC
  5
3648
  8
0
 10
1071.3965519034609
 20
395.11059779034622
 30
0.0
 40
10.44241326743024
 50
245.9837371858801
 51
294.0162628141203
  0
LINE
  5
3649
  8
0
 10
1211.8911429133359
 20
376.66918452291497
 30
0.0
 11
1210.9072488009381
 21
348.49414351671248
 31
0.0
  0
LINE
  5
364A
  8
0
 10
1210.9072488009381
 20
348.49414351671248
 30
0.0
 11
1206.713807419585
 21
332.8440072229414
 31
0.0
  0
LINE
  5
364B
  8
0
 10
1207.2006301196111
 20
332.3571845229153
 30
0.0
 11
1207.2006301196111
 21
327.1691845229152
 31
0.0
  0
LINE
  5
364C
  8
0
 10
1198.012630119611
 20
333.1691845229152
 30
0.0
 11
1206.3886301196119
 21
333.1691845229152
 31
0.0
  0
LINE
  5
364D
  8
0
 10
1197.2006301196111
 20
327.1691845229152
 30
0.0
 11
1197.2006301196111
 21
332.3571845229153
 31
0.0
  0
LINE
  5
364E
  8
0
 10
1197.2006301196111
 20
332.3571845229153
 30
0.0
 11
1198.012630119611
 21
333.1691845229152
 31
0.0
  0
LINE
  5
364F
  8
0
 10
1206.3886301196119
 20
333.1691845229152
 30
0.0
 11
1207.2006301196111
 21
332.3571845229153
 31
0.0
  0
LINE
  5
3650
  8
0
 10
1210.9857096248261
 20
384.66818452291523
 30
0.0
 11
1211.8911429133359
 21
376.6691845229152
 31
0.0
  0
ARC
  5
3651
  8
0
 10
1207.829795244211
 20
402.33117611602842
 30
0.0
 40
17.462601416113358
 50
253.68007233167199
 51
286.31992766832798
  0
LINE
  5
3652
  8
0
 10
1199.579795244211
 20
384.66818452291523
 30
0.0
 11
1216.079795244211
 21
384.66818452291523
 31
0.0
  0
LINE
  5
3653
  8
0
 10
1198.0147952442101
 20
385.57218452291522
 30
0.0
 11
1199.579795244211
 21
384.66818452291523
 31
0.0
  0
ARC
  5
3654
  8
0
 10
1200.46879524421
 20
389.49950858833199
 30
0.0
 40
4.6309815714167701
 50
238.00067615949041
 51
301.99932384050942
  0
LINE
  5
3655
  8
0
 10
1198.0147952442101
 20
391.6691845229152
 30
0.0
 11
1198.0147952442101
 21
385.57218452291522
 31
0.0
  0
LINE
  5
3656
  8
0
 10
1202.92279524421
 20
385.57218452291522
 30
0.0
 11
1202.92279524421
 21
391.6691845229152
 31
0.0
  0
LINE
  5
3657
  8
0
 10
1216.079795244211
 20
384.66818452291523
 30
0.0
 11
1217.6447952442111
 21
385.57218452291522
 31
0.0
  0
ARC
  5
3658
  8
0
 10
1215.19079524421
 20
389.49950858833199
 30
0.0
 40
4.6309815714167701
 50
238.00067615949061
 51
301.99932384050959
  0
LINE
  5
3659
  8
0
 10
1217.6447952442111
 20
385.57218452291522
 30
0.0
 11
1217.6447952442111
 21
391.6691845229152
 31
0.0
  0
LINE
  5
365A
  8
0
 10
1212.73679524421
 20
385.57218452291522
 30
0.0
 11
1212.73679524421
 21
391.6691845229152
 31
0.0
  0
LINE
  5
365B
  8
0
 10
1158.9166100339351
 20
502.16918452291492
 30
0.0
 11
1127.404235033935
 21
502.16918452291492
 31
0.0
  0
LINE
  5
365C
  8
0
 10
1152.4771100339351
 20
508.47143452291459
 30
0.0
 11
1158.9166100339351
 21
502.16918452291492
 31
0.0
  0
LINE
  5
365D
  8
0
 10
1067.14653223439
 20
473.15446589491512
 30
0.0
 11
1067.14653223439
 21
456.18390315091551
 31
0.0
  0
LINE
  5
365E
  8
0
 10
1059.14653223439
 20
488.2466886674103
 30
0.0
 11
1059.1465322343879
 21
439.6691845229152
 31
0.0
  0
LINE
  5
365F
  8
0
 10
1062.1465322343879
 20
428.41918452291702
 30
0.0
 11
1059.1465322343879
 21
439.6691845229156
 31
0.0
  0
LINE
  5
3660
  8
0
 10
1062.958532234388
 20
431.6691845229152
 30
0.0
 11
1062.1465322343879
 21
430.85718452291508
 31
0.0
  0
LINE
  5
3661
  8
0
 10
1062.1465322343879
 20
430.85718452291508
 30
0.0
 11
1062.1465322343879
 21
424.66918452291509
 31
0.0
  0
LINE
  5
3662
  8
0
 10
1071.334532234388
 20
431.6691845229152
 30
0.0
 11
1062.958532234388
 21
431.6691845229152
 31
0.0
  0
LINE
  5
3663
  8
0
 10
1072.1465322343879
 20
430.85718452291508
 30
0.0
 11
1071.334532234388
 21
431.6691845229152
 31
0.0
  0
LINE
  5
3664
  8
0
 10
1072.1465322343879
 20
424.66918452291509
 30
0.0
 11
1072.1465322343879
 21
430.85718452291508
 31
0.0
  0
LINE
  5
3665
  8
0
 10
1067.14653223439
 20
456.183903150915
 30
0.0
 11
1059.146532234389
 21
456.18390315091477
 31
0.0
  0
LINE
  5
3666
  8
0
 10
1121.1019850339351
 20
508.47143452291459
 30
0.0
 11
1140.008735033935
 21
508.47143452291459
 31
0.0
  0
LINE
  5
3667
  8
0
 10
1127.404235033935
 20
502.16918452291492
 30
0.0
 11
1121.1019850339351
 21
508.47143452291459
 31
0.0
  0
LINE
  5
3668
  8
0
 10
1067.14653223439
 20
473.15446589491512
 30
0.0
 11
1059.14653223439
 21
473.15446589491512
 31
0.0
  0
LINE
  5
3669
  8
0
 10
1067.14653223439
 20
464.6691845229152
 30
0.0
 11
1059.1465322343879
 21
464.6691845229152
 31
0.0
  0
ARC
  5
366A
  8
0
 10
1043.1465322343879
 20
488.2466886674103
 30
0.0
 40
16.0
 50
0.0
 51
66.815237329112762
  0
LINE
  5
366B
  8
0
 10
1143.160985033935
 20
505.32030952291478
 30
0.0
 11
1152.4771100339351
 21
505.32030952291478
 31
0.0
  0
LINE
  5
366C
  8
0
 10
1140.008735033935
 20
508.47143452291459
 30
0.0
 11
1143.160985033935
 21
505.32030952291478
 31
0.0
  0
LINE
  5
366D
  8
0
 10
1152.4771100339351
 20
505.32030952291478
 30
0.0
 11
1152.4771100339351
 21
508.47143452291459
 31
0.0
  0
LINE
  5
366E
  8
0
 10
1208.1932432599231
 20
462.16918452291509
 30
0.0
 11
1208.1932432599231
 21
439.6691845229152
 31
0.0
  0
LINE
  5
366F
  8
0
 10
1206.0599099265901
 20
431.6691845229152
 30
0.0
 11
1208.1932432599231
 21
439.6691845229156
 31
0.0
  0
LINE
  5
3670
  8
0
 10
1203.6417952442109
 20
431.6691845229152
 30
0.0
 11
1212.0177952442109
 21
431.6691845229152
 31
0.0
  0
ARC
  5
3671
  8
0
 10
1201.120130007587
 20
428.66918452291509
 30
0.0
 40
4.0
 50
269.99999999999972
 51
295.30370402795779
  0
LINE
  5
3672
  8
0
 10
1202.829795244211
 20
424.66918452291509
 30
0.0
 11
1202.829795244211
 21
430.85718452291508
 31
0.0
  0
LINE
  5
3673
  8
0
 10
1202.829795244211
 20
430.85718452291508
 30
0.0
 11
1203.6417952442109
 21
431.6691845229152
 31
0.0
  0
LINE
  5
3674
  8
0
 10
1212.829795244211
 20
430.85718452291508
 30
0.0
 11
1212.829795244211
 21
424.66918452291509
 31
0.0
  0
LINE
  5
3675
  8
0
 10
1212.0177952442109
 20
431.6691845229152
 30
0.0
 11
1212.829795244211
 21
430.85718452291508
 31
0.0
  0
ARC
  5
3676
  8
0
 10
1193.1932432599231
 20
462.16918452291509
 30
0.0
 40
15.0
 50
0.0
 51
90.0
  0
LINE
  5
3677
  8
0
 10
1172.1932432599231
 20
478.66918452291509
 30
0.0
 11
1172.1932432599231
 21
502.1691845229152
 31
0.0
  0
LINE
  5
3678
  8
0
 10
1173.6932432599231
 20
477.1691845229152
 30
0.0
 11
1193.1932432599231
 21
477.1691845229152
 31
0.0
  0
LINE
  5
3679
  8
0
 10
1172.1932432599231
 20
478.66918452291509
 30
0.0
 11
1173.6932432599231
 21
477.1691845229152
 31
0.0
  0
ARC
  5
367A
  8
0
 10
1224.1932432599231
 20
488.2466886674103
 30
0.0
 40
16.0
 50
114.01522745286211
 51
180.0
  0
ARC
  5
367B
  8
0
 10
1024.1465322343879
 20
515.93599408360126
 30
0.0
 40
21.0
 50
348.8105787395483
 51
71.873796039443278
  0
ARC
  5
367C
  8
0
 10
996.14653223438825
 20
515.93599408360126
 30
0.0
 40
21.0
 50
108.12620396055669
 51
191.1894212604517
  0
ARC
  5
367D
  8
0
 10
1010.146532234388
 20
473.1691845229152
 30
0.0
 40
66.0
 50
71.873796039443292
 51
90.0
  0
LINE
  5
367E
  8
0
 10
1014.146532234388
 20
538.64709039073546
 30
0.0
 11
1006.146532234388
 21
538.64709039073523
 31
0.0
  0
LINE
  5
367F
  8
0
 10
1005.146532234387
 20
537.64709039073523
 30
0.0
 11
1005.146532234387
 21
530.45345577037745
 31
0.0
  0
ARC
  5
3680
  8
0
 10
1000.146532234388
 20
530.4534557703771
 30
0.0
 40
5.0
 50
289.47122063448359
 51
0.0000000000052924
  0
ARC
  5
3681
  8
0
 10
1010.146532234388
 20
473.1691845229152
 30
0.0
 40
66.0
 50
90.0
 51
108.12620396055669
  0
ARC
  5
3682
  8
0
 10
1006.146532234388
 20
537.64709039073523
 30
0.0
 40
1.0
 50
90.0
 51
180.0
  0
LINE
  5
3683
  8
0
 10
1015.146532234386
 20
530.45345577037551
 30
0.0
 11
1015.146532234387
 21
537.64709039073546
 31
0.0
  0
ARC
  5
3684
  8
0
 10
1020.146532234388
 20
530.45345577037676
 30
0.0
 40
5.0
 50
180.0000000000156
 51
250.52877936551539
  0
ARC
  5
3685
  8
0
 10
1014.146532234388
 20
537.64709039073546
 30
0.0
 40
1.0
 50
0.0
 51
90.0
  0
ARC
  5
3686
  8
0
 10
1188.1932432599231
 20
480.6691845229152
 30
0.0
 40
46.5
 50
56.069066284540568
 51
90.0
  0
LINE
  5
3687
  8
0
 10
1173.6932432599231
 20
527.1691845229152
 30
0.0
 11
1189.1932432599231
 21
527.16918452291486
 31
0.0
  0
LINE
  5
3688
  8
0
 10
1173.6932432599231
 20
527.1691845229152
 30
0.0
 11
1172.1932432599231
 21
525.6691845229152
 31
0.0
  0
ARC
  5
3689
  8
0
 10
1217.4983834934981
 20
524.22901413565091
 30
0.0
 40
6.0
 50
236.06906628454061
 51
342.11250686208223
  0
ARC
  5
368A
  8
0
 10
1207.829795244211
 20
663.28412316082472
 30
0.0
 40
13.1366
 50
179.84508696390441
 51
240.15491303601451
  0
ARC
  5
368B
  8
0
 10
1202.20063011961
 20
660.03412316082472
 30
0.0
 40
12.50738685968815
 50
180.0
 51
240.0
  0
LINE
  5
368C
  8
0
 10
1173.6932432599231
 20
666.78412316082438
 30
0.0
 11
1216.1869780396819
 21
666.78412316082472
 31
0.0
  0
LINE
  5
368D
  8
0
 10
1172.1932432599231
 20
668.28412316082449
 30
0.0
 11
1173.6932432599231
 21
666.78412316082438
 31
0.0
  0
LINE
  5
368E
  8
0
 10
1189.6932432599231
 20
660.03412316082472
 30
0.0
 11
1189.6932432599231
 21
666.78412316082438
 31
0.0
  0
ARC
  5
368F
  8
0
 10
1207.829795244211
 20
663.28412316082472
 30
0.0
 40
5.0
 50
135.5729959991958
 51
44.427004000804132
  0
LINE
  5
3690
  8
0
 10
1194.6932432599231
 20
663.24860521991354
 30
0.0
 11
1194.6932432599231
 21
666.78412316082472
 31
0.0
  0
ARC
  5
3691
  8
0
 10
1216.1869780396819
 20
663.78412316082449
 30
0.0
 40
3.0
 50
0.0
 51
90.0
  0
LINE
  5
3692
  8
0
 10
1447.167897105091
 20
323.32223689584629
 30
0.0
 11
1447.167897105091
 21
297.99513573176318
 31
0.0
  0
LINE
  5
3693
  8
0
 10
1523.17528396478
 20
323.32223689584629
 30
0.0
 11
1523.17528396478
 21
297.99513573176318
 31
0.0
  0
LINE
  5
3694
  8
0
 10
1561.1789773946221
 20
327.1691845229152
 30
0.0
 11
1561.1789773946241
 21
310.1691845229152
 31
0.0
  0
LINE
  5
3695
  8
0
 10
1324.6932432599231
 20
327.1691845229152
 30
0.0
 11
1324.6932432599231
 21
293.1691845229152
 31
0.0
  0
LINE
  5
3696
  8
0
 10
1409.1642036752471
 20
327.1691845229152
 30
0.0
 11
1409.1642036752471
 21
310.16918452291537
 31
0.0
  0
LINE
  5
3697
  8
0
 10
1257.1932432599231
 20
323.32223689584629
 30
0.0
 11
1257.1932432599231
 21
297.99513573176318
 31
0.0
  0
ARC
  5
3698
  8
0
 10
1552.9216121056229
 20
296.61058885018821
 30
0.0
 40
10.44240432727257
 50
245.98371532930261
 51
294.01627324797693
  0
LINE
  5
3699
  8
0
 10
1541.736551196791
 20
286.16818452291568
 30
0.0
 11
1555.60662987308
 21
286.16818452291551
 31
0.0
  0
LINE
  5
369A
  8
0
 10
1409.1642036752471
 20
310.16918452291537
 30
0.0
 11
1561.1789773946221
 21
310.1691845229152
 31
0.0
  0
LINE
  5
369B
  8
0
 10
1409.1642036752471
 20
293.1691845229152
 30
0.0
 11
1561.1789773946221
 21
293.1691845229152
 31
0.0
  0
LINE
  5
369C
  8
0
 10
1307.1932432599231
 20
261.1691845229152
 30
0.0
 11
1275.1932432599231
 21
261.1691845229152
 31
0.0
  0
LINE
  5
369E
  8
0
 10
1248.8622432599229
 20
279.1691845229152
 30
0.0
 11
1265.524243259923
 21
279.1691845229152
 31
0.0
  0
LINE
  5
369F
  8
0
 10
1248.8622432599229
 20
270.1691845229152
 30
0.0
 11
1265.524243259923
 21
270.1691845229152
 31
0.0
  0
LINE
  5
36A0
  8
0
 10
1248.9432432599231
 20
286.16818452291523
 30
0.0
 11
1265.4432432599231
 21
286.16818452291523
 31
0.0
  0
LINE
  5
36A1
  8
0
 10
1278.7291416447849
 20
281.1691845229152
 30
0.0
 11
1235.657344875061
 21
281.1691845229152
 31
0.0
  0
ARC
  5
36A2
  8
0
 10
1264.554243259922
 20
290.99950858833199
 30
0.0
 40
4.6309815714167701
 50
238.00067615949061
 51
301.99932384050959
  0
ARC
  5
36A3
  8
0
 10
1235.657344875061
 20
287.1691845229152
 30
0.0
 40
6.0
 50
210.0
 51
270.0
  0
LINE
  5
36A4
  8
0
 10
1248.8622432599229
 20
279.1691845229152
 30
0.0
 11
1248.9247138481601
 21
281.1691845229152
 31
0.0
  0
LINE
  5
36A5
  8
0
 10
1248.8622432599229
 20
270.1691845229152
 30
0.0
 11
1248.8622432599229
 21
279.1691845229152
 31
0.0
  0
LINE
  5
36A6
  8
0
 10
1257.1932432599231
 20
270.1691845229152
 30
0.0
 11
1257.1932432599231
 21
279.1691845229152
 31
0.0
  0
ARC
  5
36A7
  8
0
 10
1257.1932432599231
 20
303.83117611602847
 30
0.0
 40
17.462601416113358
 50
253.68007233167199
 51
286.31992766832798
  0
LINE
  5
36A8
  8
0
 10
1252.286243259922
 20
287.07218452291522
 30
0.0
 11
1252.286243259922
 21
293.1691845229152
 31
0.0
  0
LINE
  5
36A9
  8
0
 10
1247.3782432599221
 20
293.1691845229152
 30
0.0
 11
1247.3782432599221
 21
287.07218452291522
 31
0.0
  0
ARC
  5
36AA
  8
0
 10
1249.8322432599241
 20
290.99950858833199
 30
0.0
 40
4.6309815714167701
 50
238.00067615949041
 51
301.99932384050942
  0
LINE
  5
36AB
  8
0
 10
1247.3782432599221
 20
287.07218452291522
 30
0.0
 11
1248.9432432599231
 21
286.16818452291523
 31
0.0
  0
LINE
  5
36AC
  8
0
 10
1262.1002432599239
 20
287.07218452291522
 30
0.0
 11
1262.1002432599239
 21
293.1691845229152
 31
0.0
  0
LINE
  5
36AD
  8
0
 10
1287.3893956826289
 20
290.1691845229152
 30
0.0
 11
1283.925294067491
 21
284.1691845229152
 31
0.0
  0
ARC
  5
36AE
  8
0
 10
1278.7291416447849
 20
287.1691845229152
 30
0.0
 40
6.0
 50
270.0
 51
330.0
  0
LINE
  5
36AF
  8
0
 10
1265.524243259923
 20
279.1691845229152
 30
0.0
 11
1265.461772671687
 21
281.1691845229152
 31
0.0
  0
LINE
  5
36B0
  8
0
 10
1265.524243259923
 20
270.1691845229152
 30
0.0
 11
1265.524243259923
 21
279.1691845229152
 31
0.0
  0
ARC
  5
36B1
  8
0
 10
1272.1932432599231
 20
278.1691845229152
 30
0.0
 40
3.0
 50
0.0
 51
90.0
  0
LINE
  5
36B2
  8
0
 10
1275.1932432599231
 20
278.1691845229152
 30
0.0
 11
1275.1932432599231
 21
261.1691845229152
 31
0.0
  0
LINE
  5
36B3
  8
0
 10
1267.008243259924
 20
287.07218452291522
 30
0.0
 11
1267.008243259924
 21
293.1691845229152
 31
0.0
  0
LINE
  5
36B4
  8
0
 10
1265.4432432599231
 20
286.16818452291523
 30
0.0
 11
1267.008243259924
 21
287.07218452291522
 31
0.0
  0
ARC
  5
36B5
  8
0
 10
1292.5855481053361
 20
287.1691845229152
 30
0.0
 40
6.0
 50
90.0
 51
150.0
  0
LINE
  5
36B6
  8
0
 10
1307.1932432599231
 20
286.16818452291523
 30
0.0
 11
1307.1932432599231
 21
261.1691845229152
 31
0.0
  0
LINE
  5
36B7
  8
0
 10
1303.935856400235
 20
286.16818452291523
 30
0.0
 11
1320.435856400235
 21
286.16818452291523
 31
0.0
  0
ARC
  5
36B8
  8
0
 10
1312.185856400235
 20
303.83117611602847
 30
0.0
 40
17.462601416113358
 50
253.68007233167199
 51
286.31992766832798
  0
LINE
  5
36B9
  8
0
 10
1307.278856400234
 20
287.07218452291522
 30
0.0
 11
1307.278856400234
 21
293.1691845229152
 31
0.0
  0
LINE
  5
36BA
  8
0
 10
1302.3708564002341
 20
293.1691845229152
 30
0.0
 11
1302.3708564002341
 21
287.07218452291522
 31
0.0
  0
LINE
  5
36BB
  8
0
 10
1302.3708564002341
 20
287.07218452291522
 30
0.0
 11
1303.935856400235
 21
286.16818452291523
 31
0.0
  0
ARC
  5
36BC
  8
0
 10
1304.8248564002361
 20
290.99950858833199
 30
0.0
 40
4.6309815714167701
 50
238.00067615949041
 51
301.99932384050942
  0
LINE
  5
36BD
  8
0
 10
1322.0008564002351
 20
287.07218452291522
 30
0.0
 11
1322.0008564002351
 21
293.1691845229152
 31
0.0
  0
LINE
  5
36BE
  8
0
 10
1317.0928564002361
 20
287.07218452291522
 30
0.0
 11
1317.0928564002361
 21
293.1691845229152
 31
0.0
  0
ARC
  5
36BF
  8
0
 10
1319.546856400234
 20
290.99950858833199
 30
0.0
 40
4.6309815714167701
 50
238.00067615949061
 51
301.99932384050959
  0
LINE
  5
36C0
  8
0
 10
1320.435856400235
 20
286.16818452291523
 30
0.0
 11
1322.0008564002351
 21
287.07218452291522
 31
0.0
  0
LINE
  5
36C1
  8
0
 10
1409.1642036752471
 20
310.1691845229152
 30
0.0
 11
1409.1642036752471
 21
293.1691845229152
 31
0.0
  0
LINE
  5
36C2
  8
0
 10
1501.1715905349361
 20
261.1691845229152
 30
0.0
 11
1469.1715905349361
 21
261.1691845229152
 31
0.0
  0
ARC
  5
36C3
  8
0
 10
1425.9216121056229
 20
296.61058885018821
 30
0.0
 40
10.44240432727257
 50
245.98371532930261
 51
294.01627324797693
  0
LINE
  5
36C4
  8
0
 10
1414.736551196791
 20
286.16818452291568
 30
0.0
 11
1428.60662987308
 21
286.16818452291551
 31
0.0
  0
ARC
  5
36C5
  8
0
 10
1417.421570865863
 20
296.61059779034622
 30
0.0
 40
10.44241326743024
 50
245.98373718587959
 51
294.01626281411978
  0
LINE
  5
36C6
  8
0
 10
1413.17155119679
 20
287.07218452291551
 30
0.0
 11
1414.736551196791
 21
286.16818452291551
 31
0.0
  0
LINE
  5
36C7
  8
0
 10
1413.17155119679
 20
287.07218452291551
 30
0.0
 11
1413.17155119679
 21
293.16918452291537
 31
0.0
  0
LINE
  5
36C8
  8
0
 10
1421.6715905349349
 20
287.07218452291522
 30
0.0
 11
1421.6715905349349
 21
293.1691845229152
 31
0.0
  0
LINE
  5
36C9
  8
0
 10
1428.6066298731071
 20
286.16818452293109
 30
0.0
 11
1430.171629873108
 21
287.07218452293108
 31
0.0
  0
LINE
  5
36CA
  8
0
 10
1430.171629873081
 20
287.07218452291551
 30
0.0
 11
1430.171629873081
 21
293.16918452291537
 31
0.0
  0
LINE
  5
36CB
  8
0
 10
1469.1715905349361
 20
293.1691845229152
 30
0.0
 11
1469.1715905349361
 21
261.1691845229152
 31
0.0
  0
LINE
  5
36CC
  8
0
 10
1457.2854165392539
 20
286.16818452291568
 30
0.0
 11
1458.4395397273649
 21
284.1691845229152
 31
0.0
  0
ARC
  5
36CD
  8
0
 10
1463.635692150074
 20
287.1691845229152
 30
0.0
 40
6.0
 50
210.0
 51
270.0
  0
LINE
  5
36CE
  8
0
 10
1469.1715905349361
 20
281.1691845229152
 30
0.0
 11
1463.635692150074
 21
281.1691845229152
 31
0.0
  0
ARC
  5
36CF
  8
0
 10
1457.6716121056211
 20
296.61058885018821
 30
0.0
 40
10.44240432727257
 50
245.98371532930261
 51
294.01627324797693
  0
ARC
  5
36D0
  8
0
 10
1449.171570865861
 20
296.61059779034622
 30
0.0
 40
10.44241326743024
 50
245.98373718587959
 51
294.01626281411978
  0
LINE
  5
36D1
  8
0
 10
1446.4865511967889
 20
286.16818452291568
 30
0.0
 11
1460.356629873078
 21
286.16818452291551
 31
0.0
  0
LINE
  5
36D2
  8
0
 10
1444.9215511967891
 20
287.07218452291551
 30
0.0
 11
1446.4865511967889
 21
286.16818452291551
 31
0.0
  0
LINE
  5
36D3
  8
0
 10
1460.356629873105
 20
286.16818452293109
 30
0.0
 11
1461.921629873106
 21
287.07218452293108
 31
0.0
  0
LINE
  5
36D4
  8
0
 10
1444.9215511967891
 20
287.07218452291551
 30
0.0
 11
1444.9215511967891
 21
293.16918452291537
 31
0.0
  0
LINE
  5
36D5
  8
0
 10
1453.421590534934
 20
287.07218452291522
 30
0.0
 11
1453.421590534934
 21
293.1691845229152
 31
0.0
  0
LINE
  5
36D6
  8
0
 10
1461.9216298730789
 20
287.07218452291551
 30
0.0
 11
1461.9216298730789
 21
293.16918452291537
 31
0.0
  0
ARC
  5
36D7
  8
0
 10
1512.671570865863
 20
296.61059779034599
 30
0.0
 40
10.44241326743024
 50
245.98373718587959
 51
294.01626281411978
  0
LINE
  5
36D8
  8
0
 10
1509.986551196791
 20
286.16818452291551
 30
0.0
 11
1523.85662987308
 21
286.16818452291523
 31
0.0
  0
LINE
  5
36D9
  8
0
 10
1501.171590534934
 20
293.1691845229152
 30
0.0
 11
1501.1715905349361
 21
261.1691845229152
 31
0.0
  0
LINE
  5
36DA
  8
0
 10
1513.057764530613
 20
286.16818452291523
 30
0.0
 11
1511.9036413425031
 21
284.1691845229152
 31
0.0
  0
LINE
  5
36DB
  8
0
 10
1506.707488919797
 20
281.1691845229152
 30
0.0
 11
1501.1715905349361
 21
281.1691845229152
 31
0.0
  0
ARC
  5
36DC
  8
0
 10
1506.707488919797
 20
287.1691845229152
 30
0.0
 40
6.0
 50
270.0
 51
330.0
  0
LINE
  5
36DD
  8
0
 10
1508.42155119679
 20
287.07218452291522
 30
0.0
 11
1509.986551196791
 21
286.16818452291523
 31
0.0
  0
LINE
  5
36DE
  8
0
 10
1508.42155119679
 20
287.07218452291522
 30
0.0
 11
1508.42155119679
 21
293.1691845229152
 31
0.0
  0
ARC
  5
36DF
  8
0
 10
1521.1716121056229
 20
296.61058885018792
 30
0.0
 40
10.44240432727257
 50
245.98371532930261
 51
294.01627324797693
  0
LINE
  5
36E0
  8
0
 10
1523.8566298731071
 20
286.16818452293091
 30
0.0
 11
1525.421629873108
 21
287.07218452293091
 31
0.0
  0
LINE
  5
36E1
  8
0
 10
1516.9215905349349
 20
287.07218452291499
 30
0.0
 11
1516.9215905349349
 21
293.16918452291492
 31
0.0
  0
LINE
  5
36E2
  8
0
 10
1525.421629873081
 20
287.07218452291522
 30
0.0
 11
1525.421629873081
 21
293.1691845229152
 31
0.0
  0
ARC
  5
36E3
  8
0
 10
1544.421570865863
 20
296.61059779034622
 30
0.0
 40
10.44241326743024
 50
245.98373718587959
 51
294.01626281411978
  0
LINE
  5
36E4
  8
0
 10
1540.17155119679
 20
287.07218452291551
 30
0.0
 11
1541.736551196791
 21
286.16818452291551
 31
0.0
  0
LINE
  5
36E5
  8
0
 10
1540.17155119679
 20
287.07218452291551
 30
0.0
 11
1540.17155119679
 21
293.16918452291537
 31
0.0
  0
LINE
  5
36E6
  8
0
 10
1548.6715905349361
 20
287.07218452291522
 30
0.0
 11
1548.6715905349361
 21
293.1691845229152
 31
0.0
  0
LINE
  5
36E7
  8
0
 10
1555.6066298731071
 20
286.16818452293109
 30
0.0
 11
1557.171629873108
 21
287.07218452293108
 31
0.0
  0
LINE
  5
36E8
  8
0
 10
1557.171629873081
 20
287.07218452291551
 30
0.0
 11
1557.171629873081
 21
293.16918452291537
 31
0.0
  0
LINE
  5
36E9
  8
0
 10
1561.1789773946241
 20
310.1691845229152
 30
0.0
 11
1561.1789773946241
 21
293.1691845229152
 31
0.0
  0
ARC
  5
36EA
  8
0
 10
1546.4216121056229
 20
395.11058885018809
 30
0.0
 40
10.44240432727257
 50
245.98371532930261
 51
294.01627324797693
  0
LINE
  5
36EB
  8
0
 10
1535.236551196791
 20
384.66818452291568
 30
0.0
 11
1549.10662987308
 21
384.6681845229154
 31
0.0
  0
LINE
  5
36EC
  8
0
 10
1544.483590534935
 20
333.1691845229152
 30
0.0
 11
1552.8595905349359
 21
333.1691845229152
 31
0.0
  0
LINE
  5
36ED
  8
0
 10
1415.034990534936
 20
424.66918452291537
 30
0.0
 11
1555.308190534935
 21
424.66918452291452
 31
0.0
  0
LINE
  5
36EE
  8
0
 10
1415.034990534936
 20
408.16918452291509
 30
0.0
 11
1555.308190534935
 21
408.16918452291509
 31
0.0
  0
LINE
  5
36EF
  8
0
 10
1415.034990534936
 20
391.6691845229152
 30
0.0
 11
1555.308190534935
 21
391.6691845229152
 31
0.0
  0
LINE
  5
36F0
  8
0
 10
1409.1642036752471
 20
327.1691845229152
 30
0.0
 11
1561.17897739462
 21
327.1691845229152
 31
0.0
  0
CIRCLE
  5
36F1
  8
0
 10
1485.1715905349361
 20
502.1691845229152
 30
0.0
 40
23.5
  0
ARC
  5
36F2
  8
0
 10
1442.7228515099339
 20
510.30845040208209
 30
0.0
 40
8.0
 50
293.18476267088698
 51
11.18942126045315
  0
ARC
  5
36F3
  8
0
 10
1527.6203295599371
 20
510.30845040208209
 30
0.0
 40
8.0
 50
168.8105787395468
 51
246.8152373291131
  0
LINE
  5
36F4
  8
0
 10
1342.1932432599231
 20
525.6691845229152
 30
0.0
 11
1342.1932432599231
 21
502.1691845229152
 31
0.0
  0
LINE
  5
36F5
  8
0
 10
1340.6932432599231
 20
527.1691845229152
 30
0.0
 11
1340.6932432599231
 21
477.1691845229152
 31
0.0
  0
CIRCLE
  5
36F6
  8
0
 10
1485.1715905349361
 20
502.1691845229152
 30
0.0
 40
25.0
  0
LINE
  5
36F7
  8
0
 10
1319.6932432599231
 20
424.66918452291509
 30
0.0
 11
1319.6932432599231
 21
391.6691845229152
 31
0.0
  0
LINE
  5
36F8
  8
0
 10
1257.1932432599231
 20
421.32223689584629
 30
0.0
 11
1257.1932432599231
 21
395.99513573176318
 31
0.0
  0
LINE
  5
36F9
  8
0
 10
1296.741691275635
 20
385.57218452291522
 30
0.0
 11
1298.306691275636
 21
384.66818452291523
 31
0.0
  0
ARC
  5
36FA
  8
0
 10
1299.195691275637
 20
389.49950858833199
 30
0.0
 40
4.6309815714167701
 50
238.00067615949041
 51
301.99932384050942
  0
LINE
  5
36FB
  8
0
 10
1253.005243259923
 20
333.1691845229152
 30
0.0
 11
1261.3812432599229
 21
333.1691845229152
 31
0.0
  0
LINE
  5
36FC
  8
0
 10
1252.1932432599231
 20
327.1691845229152
 30
0.0
 11
1252.1932432599231
 21
332.3571845229153
 31
0.0
  0
LINE
  5
36FD
  8
0
 10
1252.1932432599231
 20
332.3571845229153
 30
0.0
 11
1253.005243259923
 21
333.1691845229152
 31
0.0
  0
LINE
  5
36FE
  8
0
 10
1262.1932432599231
 20
332.3571845229153
 30
0.0
 11
1262.1932432599231
 21
327.1691845229152
 31
0.0
  0
LINE
  5
36FF
  8
0
 10
1261.3812432599229
 20
333.1691845229152
 30
0.0
 11
1262.1932432599231
 21
332.3571845229153
 31
0.0
  0
LINE
  5
3700
  8
0
 10
1248.9432432599231
 20
384.66818452291523
 30
0.0
 11
1265.4432432599231
 21
384.66818452291523
 31
0.0
  0
ARC
  5
3701
  8
0
 10
1264.554243259922
 20
389.49950858833199
 30
0.0
 40
4.6309815714167701
 50
238.00067615949061
 51
301.99932384050959
  0
ARC
  5
3702
  8
0
 10
1257.1932432599231
 20
402.33117611602842
 30
0.0
 40
17.462601416113358
 50
253.68007233167199
 51
286.31992766832798
  0
ARC
  5
3703
  8
0
 10
1249.8322432599241
 20
389.49950858833199
 30
0.0
 40
4.6309815714167701
 50
238.00067615949041
 51
301.99932384050942
  0
LINE
  5
3704
  8
0
 10
1247.3782432599221
 20
385.57218452291522
 30
0.0
 11
1248.9432432599231
 21
384.66818452291523
 31
0.0
  0
LINE
  5
3705
  8
0
 10
1247.3782432599221
 20
391.6691845229152
 30
0.0
 11
1247.3782432599221
 21
385.57218452291522
 31
0.0
  0
LINE
  5
3706
  8
0
 10
1252.286243259922
 20
385.57218452291522
 30
0.0
 11
1252.286243259922
 21
391.6691845229152
 31
0.0
  0
LINE
  5
3707
  8
0
 10
1262.1002432599239
 20
385.57218452291522
 30
0.0
 11
1262.1002432599239
 21
391.6691845229152
 31
0.0
  0
LINE
  5
3708
  8
0
 10
1265.4432432599231
 20
384.66818452291523
 30
0.0
 11
1267.008243259924
 21
385.57218452291522
 31
0.0
  0
LINE
  5
3709
  8
0
 10
1267.008243259924
 20
385.57218452291522
 30
0.0
 11
1267.008243259924
 21
391.6691845229152
 31
0.0
  0
LINE
  5
370A
  8
0
 10
1296.741691275635
 20
391.6691845229152
 30
0.0
 11
1296.741691275635
 21
385.57218452291522
 31
0.0
  0
LINE
  5
370B
  8
0
 10
1302.49534360651
 20
376.6691845229152
 30
0.0
 11
1303.479237718909
 21
348.4941435167118
 31
0.0
  0
LINE
  5
370C
  8
0
 10
1303.479237718909
 20
348.4941435167118
 30
0.0
 11
1307.6726791002609
 21
332.8440072229414
 31
0.0
  0
LINE
  5
370D
  8
0
 10
1307.9978564002349
 20
333.1691845229152
 30
0.0
 11
1316.3738564002349
 21
333.1691845229152
 31
0.0
  0
LINE
  5
370E
  8
0
 10
1307.185856400235
 20
327.1691845229152
 30
0.0
 11
1307.185856400235
 21
332.35718452291508
 31
0.0
  0
LINE
  5
370F
  8
0
 10
1307.185856400235
 20
332.35718452291508
 30
0.0
 11
1307.9978564002349
 21
333.1691845229152
 31
0.0
  0
LINE
  5
3710
  8
0
 10
1317.185856400235
 20
332.35718452291508
 30
0.0
 11
1317.185856400235
 21
327.1691845229152
 31
0.0
  0
LINE
  5
3711
  8
0
 10
1316.3738564002349
 20
333.1691845229152
 30
0.0
 11
1317.185856400235
 21
332.35718452291508
 31
0.0
  0
LINE
  5
3712
  8
0
 10
1303.40077689502
 20
384.66818452291523
 30
0.0
 11
1302.49534360651
 21
376.6691845229152
 31
0.0
  0
LINE
  5
3713
  8
0
 10
1314.8066912756351
 20
384.66818452291523
 30
0.0
 11
1316.3716912756361
 21
385.57218452291522
 31
0.0
  0
ARC
  5
3714
  8
0
 10
1313.9176912756359
 20
389.49950858833199
 30
0.0
 40
4.6309815714167701
 50
238.00067615949061
 51
301.99932384050959
  0
ARC
  5
3715
  8
0
 10
1306.556691275636
 20
402.33117611602842
 30
0.0
 40
17.462601416113358
 50
253.68007233167199
 51
286.31992766832798
  0
LINE
  5
3716
  8
0
 10
1301.649691275637
 20
385.57218452291522
 30
0.0
 11
1301.649691275637
 21
391.6691845229152
 31
0.0
  0
LINE
  5
3717
  8
0
 10
1311.4636912756371
 20
385.57218452291522
 30
0.0
 11
1311.4636912756371
 21
391.6691845229152
 31
0.0
  0
LINE
  5
3718
  8
0
 10
1298.306691275636
 20
384.66818452291523
 30
0.0
 11
1314.8066912756351
 21
384.66818452291523
 31
0.0
  0
LINE
  5
3719
  8
0
 10
1316.3716912756361
 20
385.57218452291522
 30
0.0
 11
1316.3716912756361
 21
391.6691845229152
 31
0.0
  0
ARC
  5
371A
  8
0
 10
1290.1932432599231
 20
488.2466886674103
 30
0.0
 40
16.0
 50
0.0
 51
60.47677171614751
  0
CIRCLE
  5
371B
  8
0
 10
1289.1932432599231
 20
464.6691845229152
 30
0.0
 40
14.0
  0
LINE
  5
371F
  8
0
 10
1253.005243259923
 20
431.6691845229152
 30
0.0
 11
1261.3812432599229
 21
431.6691845229152
 31
0.0
  0
LINE
  5
3720
  8
0
 10
1252.1932432599231
 20
424.66918452291492
 30
0.0
 11
1252.1932432599231
 21
430.85718452291508
 31
0.0
  0
LINE
  5
3721
  8
0
 10
1252.1932432599231
 20
430.85718452291508
 30
0.0
 11
1253.005243259923
 21
431.6691845229152
 31
0.0
  0
LINE
  5
3722
  8
0
 10
1262.1932432599231
 20
430.85718452291508
 30
0.0
 11
1262.1932432599231
 21
424.66918452291492
 31
0.0
  0
LINE
  5
3723
  8
0
 10
1261.3812432599229
 20
431.6691845229152
 30
0.0
 11
1262.1932432599231
 21
430.85718452291508
 31
0.0
  0
LINE
  5
3726
  8
0
 10
1306.1932432599231
 20
475.12796492554622
 30
0.0
 11
1306.1932432599231
 21
439.6691845229152
 31
0.0
  0
LINE
  5
3727
  8
0
 10
1308.326576593257
 20
431.6691845229152
 30
0.0
 11
1306.1932432599231
 21
439.6691845229152
 31
0.0
  0
ARC
  5
3728
  8
0
 10
1313.2663565122591
 20
428.66918452291469
 30
0.0
 40
4.0
 50
244.69629597204499
 51
269.99999999999989
  0
LINE
  5
3729
  8
0
 10
1311.556691275636
 20
430.85718452291508
 30
0.0
 11
1311.556691275636
 21
424.66918452291492
 31
0.0
  0
LINE
  5
372A
  8
0
 10
1302.3686912756359
 20
431.6691845229152
 30
0.0
 11
1310.7446912756359
 21
431.6691845229152
 31
0.0
  0
LINE
  5
372B
  8
0
 10
1310.7446912756359
 20
431.6691845229152
 30
0.0
 11
1311.556691275636
 21
430.85718452291508
 31
0.0
  0
LINE
  5
372C
  8
0
 10
1301.556691275636
 20
424.66918452291492
 30
0.0
 11
1301.556691275636
 21
430.85718452291508
 31
0.0
  0
LINE
  5
372D
  8
0
 10
1301.556691275636
 20
430.85718452291508
 30
0.0
 11
1302.3686912756359
 21
431.6691845229152
 31
0.0
  0
LINE
  5
372E
  8
0
 10
1340.6932432599231
 20
477.1691845229152
 30
0.0
 11
1332.1932432599231
 21
477.1691845229152
 31
0.0
  0
ARC
  5
372F
  8
0
 10
1312.1932432599231
 20
475.12796492554622
 30
0.0
 40
6.0
 50
67.607312194598421
 51
180.0
  0
ARC
  5
3730
  8
0
 10
1332.1932432599231
 20
523.66918452291509
 30
0.0
 40
46.5
 50
247.60731219459831
 51
270.0
  0
LINE
  5
3731
  8
0
 10
1342.1932432599231
 20
478.66918452291509
 30
0.0
 11
1342.1932432599231
 21
502.1691845229152
 31
0.0
  0
LINE
  5
3732
  8
0
 10
1342.1932432599231
 20
478.66918452291509
 30
0.0
 11
1340.6932432599231
 21
477.1691845229152
 31
0.0
  0
LINE
  5
3733
  8
0
 10
1450.1032905349271
 20
421.32223689584629
 30
0.0
 11
1450.1032905349271
 21
395.99513573176318
 31
0.0
  0
LINE
  5
3734
  8
0
 10
1520.2398905349271
 20
421.32223689584629
 30
0.0
 11
1520.2398905349271
 21
395.99513573176318
 31
0.0
  0
LINE
  5
3735
  8
0
 10
1415.034990534936
 20
424.66918452291509
 30
0.0
 11
1415.034990534936
 21
408.16918452291509
 31
0.0
  0
LINE
  5
3736
  8
0
 10
1439.869490188348
 20
376.66918452291497
 30
0.0
 11
1438.8855960759499
 21
348.49414351671248
 31
0.0
  0
LINE
  5
3737
  8
0
 10
1438.8855960759499
 20
348.49414351671248
 30
0.0
 11
1433.171590534937
 21
327.1691845229152
 31
0.0
  0
LINE
  5
3738
  8
0
 10
1426.6715905349349
 20
332.3571845229153
 30
0.0
 11
1426.6715905349349
 21
327.1691845229152
 31
0.0
  0
LINE
  5
3739
  8
0
 10
1417.483590534935
 20
333.1691845229152
 30
0.0
 11
1425.8595905349359
 21
333.1691845229152
 31
0.0
  0
LINE
  5
373A
  8
0
 10
1416.6715905349349
 20
327.1691845229152
 30
0.0
 11
1416.6715905349349
 21
332.3571845229153
 31
0.0
  0
LINE
  5
373B
  8
0
 10
1416.6715905349349
 20
332.3571845229153
 30
0.0
 11
1417.483590534935
 21
333.1691845229152
 31
0.0
  0
LINE
  5
373C
  8
0
 10
1425.8595905349359
 20
333.1691845229152
 30
0.0
 11
1426.6715905349349
 21
332.3571845229153
 31
0.0
  0
LINE
  5
373D
  8
0
 10
1449.2335905349339
 20
333.16918452291537
 30
0.0
 11
1457.6095905349339
 21
333.16918452291537
 31
0.0
  0
LINE
  5
373E
  8
0
 10
1458.421590534934
 20
332.35718452291547
 30
0.0
 11
1458.421590534934
 21
327.16918452291537
 31
0.0
  0
LINE
  5
373F
  8
0
 10
1457.6095905349339
 20
333.16918452291537
 30
0.0
 11
1458.421590534934
 21
332.35718452291547
 31
0.0
  0
LINE
  5
3740
  8
0
 10
1448.421590534934
 20
327.16918452291537
 30
0.0
 11
1448.421590534934
 21
332.35718452291547
 31
0.0
  0
LINE
  5
3741
  8
0
 10
1448.421590534934
 20
332.35718452291547
 30
0.0
 11
1449.2335905349339
 21
333.16918452291537
 31
0.0
  0
LINE
  5
3742
  8
0
 10
1438.171590534937
 20
391.66918452291497
 30
0.0
 11
1439.869490188348
 21
376.6691845229152
 31
0.0
  0
ARC
  5
3743
  8
0
 10
1423.921570865863
 20
395.11059779034622
 30
0.0
 40
10.44241326743024
 50
245.98373718587959
 51
294.01626281411978
  0
LINE
  5
3744
  8
0
 10
1421.236551196791
 20
384.66818452291568
 30
0.0
 11
1435.10662987308
 21
384.6681845229154
 31
0.0
  0
LINE
  5
3745
  8
0
 10
1419.67155119679
 20
385.57218452291551
 30
0.0
 11
1421.236551196791
 21
384.6681845229154
 31
0.0
  0
LINE
  5
3746
  8
0
 10
1419.67155119679
 20
385.57218452291551
 30
0.0
 11
1419.67155119679
 21
391.66918452291537
 31
0.0
  0
LINE
  5
3747
  8
0
 10
1415.034990534936
 20
408.16918452291509
 30
0.0
 11
1415.034990534936
 21
391.6691845229152
 31
0.0
  0
ARC
  5
3748
  8
0
 10
1432.4216121056229
 20
395.11058885018809
 30
0.0
 40
10.44240432727257
 50
245.98371532930261
 51
294.01627324797693
  0
LINE
  5
3749
  8
0
 10
1435.1066298731071
 20
384.6681845229312
 30
0.0
 11
1436.671629873108
 21
385.57218452293108
 31
0.0
  0
LINE
  5
374A
  8
0
 10
1428.1715905349349
 20
385.57218452291522
 30
0.0
 11
1428.1715905349349
 21
391.6691845229152
 31
0.0
  0
LINE
  5
374B
  8
0
 10
1436.671629873081
 20
385.57218452291551
 30
0.0
 11
1436.671629873081
 21
391.66918452291537
 31
0.0
  0
ARC
  5
374C
  8
0
 10
1460.9216121056229
 20
395.11058885018809
 30
0.0
 40
10.44240432727257
 50
245.98371532930261
 51
294.01627324797693
  0
LINE
  5
374D
  8
0
 10
1449.736551196791
 20
384.66818452291568
 30
0.0
 11
1463.60662987308
 21
384.6681845229154
 31
0.0
  0
ARC
  5
374E
  8
0
 10
1452.421570865863
 20
395.11059779034622
 30
0.0
 40
10.44241326743024
 50
245.98373718587959
 51
294.01626281411978
  0
LINE
  5
374F
  8
0
 10
1448.17155119679
 20
385.57218452291551
 30
0.0
 11
1449.736551196791
 21
384.6681845229154
 31
0.0
  0
LINE
  5
3750
  8
0
 10
1448.17155119679
 20
385.57218452291551
 30
0.0
 11
1448.17155119679
 21
391.66918452291537
 31
0.0
  0
LINE
  5
3751
  8
0
 10
1456.6715905349349
 20
385.57218452291522
 30
0.0
 11
1456.6715905349349
 21
391.6691845229152
 31
0.0
  0
LINE
  5
3752
  8
0
 10
1463.6066298731071
 20
384.6681845229312
 30
0.0
 11
1465.171629873108
 21
385.57218452293108
 31
0.0
  0
LINE
  5
3753
  8
0
 10
1465.171629873081
 20
385.57218452291551
 30
0.0
 11
1465.171629873081
 21
391.66918452291537
 31
0.0
  0
LINE
  5
3754
  8
0
 10
1530.473690881523
 20
376.6691845229152
 30
0.0
 11
1531.457584993921
 21
348.4941435167118
 31
0.0
  0
LINE
  5
3755
  8
0
 10
1512.733590534935
 20
333.1691845229152
 30
0.0
 11
1521.109590534935
 21
333.1691845229152
 31
0.0
  0
LINE
  5
3756
  8
0
 10
1511.9215905349349
 20
327.1691845229152
 30
0.0
 11
1511.9215905349349
 21
332.35718452291508
 31
0.0
  0
LINE
  5
3757
  8
0
 10
1511.9215905349349
 20
332.35718452291508
 30
0.0
 11
1512.733590534935
 21
333.1691845229152
 31
0.0
  0
LINE
  5
3758
  8
0
 10
1531.457584993921
 20
348.4941435167118
 30
0.0
 11
1537.171590534934
 21
327.1691845229152
 31
0.0
  0
LINE
  5
3759
  8
0
 10
1521.9215905349349
 20
332.35718452291508
 30
0.0
 11
1521.9215905349349
 21
327.1691845229152
 31
0.0
  0
LINE
  5
375A
  8
0
 10
1521.109590534935
 20
333.1691845229152
 30
0.0
 11
1521.9215905349349
 21
332.35718452291508
 31
0.0
  0
LINE
  5
375B
  8
0
 10
1543.6715905349349
 20
327.1691845229152
 30
0.0
 11
1543.6715905349349
 21
332.35718452291508
 31
0.0
  0
LINE
  5
375C
  8
0
 10
1543.6715905349349
 20
332.35718452291508
 30
0.0
 11
1544.483590534935
 21
333.1691845229152
 31
0.0
  0
ARC
  5
375D
  8
0
 10
1517.9216121056229
 20
395.11058885018809
 30
0.0
 40
10.44240432727257
 50
245.98371532930261
 51
294.01627324797693
  0
LINE
  5
375E
  8
0
 10
1506.736551196791
 20
384.66818452291568
 30
0.0
 11
1520.60662987308
 21
384.6681845229154
 31
0.0
  0
ARC
  5
375F
  8
0
 10
1509.421570865863
 20
395.11059779034622
 30
0.0
 40
10.44241326743024
 50
245.98373718587959
 51
294.01626281411978
  0
LINE
  5
3760
  8
0
 10
1505.17155119679
 20
385.57218452291551
 30
0.0
 11
1506.736551196791
 21
384.6681845229154
 31
0.0
  0
LINE
  5
3761
  8
0
 10
1505.17155119679
 20
385.57218452291551
 30
0.0
 11
1505.17155119679
 21
391.66918452291537
 31
0.0
  0
LINE
  5
3762
  8
0
 10
1513.6715905349361
 20
385.57218452291522
 30
0.0
 11
1513.6715905349361
 21
391.6691845229152
 31
0.0
  0
LINE
  5
3763
  8
0
 10
1532.1715905349349
 20
391.66918452291497
 30
0.0
 11
1530.473690881523
 21
376.6691845229152
 31
0.0
  0
LINE
  5
3764
  8
0
 10
1520.6066298731071
 20
384.6681845229312
 30
0.0
 11
1522.171629873108
 21
385.57218452293108
 31
0.0
  0
LINE
  5
3765
  8
0
 10
1522.171629873081
 20
385.57218452291551
 30
0.0
 11
1522.171629873081
 21
391.66918452291537
 31
0.0
  0
ARC
  5
3766
  8
0
 10
1537.921570865863
 20
395.11059779034622
 30
0.0
 40
10.44241326743024
 50
245.98373718587959
 51
294.01626281411978
  0
LINE
  5
3767
  8
0
 10
1533.67155119679
 20
385.57218452291551
 30
0.0
 11
1535.236551196791
 21
384.6681845229154
 31
0.0
  0
LINE
  5
3768
  8
0
 10
1533.67155119679
 20
385.57218452291551
 30
0.0
 11
1533.67155119679
 21
391.66918452291537
 31
0.0
  0
LINE
  5
3769
  8
0
 10
1542.1715905349361
 20
385.57218452291522
 30
0.0
 11
1542.1715905349361
 21
391.6691845229152
 31
0.0
  0
LINE
  5
376A
  8
0
 10
1428.171590534934
 20
473.15446589491512
 30
0.0
 11
1428.171590534934
 21
456.18390315091551
 31
0.0
  0
LINE
  5
376B
  8
0
 10
1437.171590534934
 20
477.66918452291537
 30
0.0
 11
1437.1715905349349
 21
451.66918452291537
 31
0.0
  0
LINE
  5
376C
  8
0
 10
1433.1715905349349
 20
428.41918452291702
 30
0.0
 11
1436.1715905349349
 21
439.6691845229156
 31
0.0
  0
LINE
  5
376D
  8
0
 10
1423.983590534935
 20
431.6691845229152
 30
0.0
 11
1432.3595905349359
 21
431.6691845229152
 31
0.0
  0
LINE
  5
376E
  8
0
 10
1423.1715905349349
 20
430.85718452291508
 30
0.0
 11
1423.983590534935
 21
431.6691845229152
 31
0.0
  0
LINE
  5
376F
  8
0
 10
1423.1715905349349
 20
424.66918452291509
 30
0.0
 11
1423.1715905349349
 21
430.85718452291508
 31
0.0
  0
LINE
  5
3770
  8
0
 10
1432.3595905349359
 20
431.6691845229152
 30
0.0
 11
1433.1715905349349
 21
430.85718452291508
 31
0.0
  0
LINE
  5
3771
  8
0
 10
1433.1715905349349
 20
430.85718452291508
 30
0.0
 11
1433.1715905349349
 21
424.66918452291509
 31
0.0
  0
LINE
  5
3772
  8
0
 10
1436.171590534934
 20
456.183903150915
 30
0.0
 11
1436.1715905349349
 21
439.6691845229152
 31
0.0
  0
ARC
  5
3773
  8
0
 10
1439.04387322924
 20
449.66918452291469
 30
0.0
 40
1.0
 50
339.64559360176509
 51
90.000000000000028
  0
LINE
  5
3774
  8
0
 10
1439.043873229238
 20
450.66918452291537
 30
0.0
 11
1438.1715905349349
 21
450.66918452291537
 31
0.0
  0
ARC
  5
3775
  8
0
 10
1438.1715905349349
 20
451.66918452291537
 30
0.0
 40
1.0
 50
180.0
 51
269.99999999999977
  0
LINE
  5
3776
  8
0
 10
1428.171590534934
 20
456.183903150915
 30
0.0
 11
1437.171590534934
 21
456.183903150915
 31
0.0
  0
LINE
  5
3777
  8
0
 10
1461.6715905349349
 20
430.85718452291508
 30
0.0
 11
1461.6715905349349
 21
424.66918452291509
 31
0.0
  0
LINE
  5
3778
  8
0
 10
1460.859590534935
 20
431.6691845229152
 30
0.0
 11
1461.6715905349349
 21
430.85718452291508
 31
0.0
  0
LINE
  5
3779
  8
0
 10
1451.6715905349349
 20
424.66918452291509
 30
0.0
 11
1451.6715905349349
 21
430.85718452291508
 31
0.0
  0
LINE
  5
377A
  8
0
 10
1451.6715905349349
 20
430.85718452291508
 30
0.0
 11
1452.483590534935
 21
431.6691845229152
 31
0.0
  0
LINE
  5
377B
  8
0
 10
1452.483590534935
 20
431.6691845229152
 30
0.0
 11
1460.859590534935
 21
431.6691845229152
 31
0.0
  0
LINE
  5
377C
  8
0
 10
1476.6422294803201
 20
478.66918452291509
 30
0.0
 11
1438.171590534934
 21
478.66918452291537
 31
0.0
  0
ARC
  5
377D
  8
0
 10
1452.1715905349349
 20
488.2466886674103
 30
0.0
 40
16.0
 50
113.1847626708872
 51
180.0
  0
LINE
  5
377E
  8
0
 10
1436.171590534934
 20
488.2466886674103
 30
0.0
 11
1436.171590534934
 21
473.15446589491512
 31
0.0
  0
ARC
  5
377F
  8
0
 10
1438.171590534934
 20
477.66918452291537
 30
0.0
 40
1.0
 50
90.0
 51
180.0
  0
LINE
  5
3780
  8
0
 10
1428.171590534934
 20
473.15446589491512
 30
0.0
 11
1437.171590534934
 21
473.15446589491512
 31
0.0
  0
LINE
  5
3781
  8
0
 10
1428.171590534934
 20
464.6691845229152
 30
0.0
 11
1437.171590534934
 21
464.6691845229152
 31
0.0
  0
ARC
  5
3782
  8
0
 10
1460.1715905349349
 20
502.1691845229152
 30
0.0
 40
2.0
 50
90.0
 51
180.0
  0
ARC
  5
3783
  8
0
 10
1460.1715905349349
 20
502.16918452291537
 30
0.0
 40
2.0
 50
180.0
 51
270.0000000000062
  0
LINE
  5
3784
  8
0
 10
1458.1715905349349
 20
502.1691845229152
 30
0.0
 11
1458.1715905349349
 21
502.16918452291537
 31
0.0
  0
LINE
  5
3785
  8
0
 10
1460.1715905349349
 20
500.16918452291537
 30
0.0
 11
1460.2693847718331
 21
500.16918452291537
 31
0.0
  0
LINE
  5
3786
  8
0
 10
1460.2693847718331
 20
504.16918452291509
 30
0.0
 11
1460.1715905349349
 21
504.16918452291509
 31
0.0
  0
LINE
  5
3787
  8
0
 10
1537.171590534937
 20
470.15868631380329
 30
0.0
 11
1537.171590534937
 21
442.6586863138034
 31
0.0
  0
LINE
  5
3788
  8
0
 10
1534.171590534937
 20
488.2466886674103
 30
0.0
 11
1534.1715905349361
 21
439.6691845229152
 31
0.0
  0
LINE
  5
3789
  8
0
 10
1509.483590534935
 20
431.6691845229152
 30
0.0
 11
1517.8595905349359
 21
431.6691845229152
 31
0.0
  0
LINE
  5
378A
  8
0
 10
1508.6715905349349
 20
424.66918452291492
 30
0.0
 11
1508.6715905349349
 21
430.85718452291508
 31
0.0
  0
LINE
  5
378B
  8
0
 10
1508.6715905349349
 20
430.85718452291508
 30
0.0
 11
1509.483590534935
 21
431.6691845229152
 31
0.0
  0
LINE
  5
378C
  8
0
 10
1537.1715905349349
 20
428.41918452291151
 30
0.0
 11
1534.1715905349361
 21
439.6691845229152
 31
0.0
  0
LINE
  5
378D
  8
0
 10
1518.6715905349349
 20
430.85718452291508
 30
0.0
 11
1518.6715905349349
 21
424.66918452291492
 31
0.0
  0
LINE
  5
378E
  8
0
 10
1517.8595905349359
 20
431.6691845229152
 30
0.0
 11
1518.6715905349349
 21
430.85718452291508
 31
0.0
  0
LINE
  5
378F
  8
0
 10
1537.1715905349349
 20
424.66918452291492
 30
0.0
 11
1537.1715905349349
 21
430.85718452291508
 31
0.0
  0
LINE
  5
3790
  8
0
 10
1547.1715905349349
 20
430.85718452291508
 30
0.0
 11
1547.1715905349349
 21
424.66918452291492
 31
0.0
  0
LINE
  5
3791
  8
0
 10
1537.983590534935
 20
431.6691845229152
 30
0.0
 11
1546.3595905349359
 21
431.6691845229152
 31
0.0
  0
LINE
  5
3792
  8
0
 10
1537.1715905349349
 20
430.85718452291508
 30
0.0
 11
1537.983590534935
 21
431.6691845229152
 31
0.0
  0
LINE
  5
3793
  8
0
 10
1546.3595905349359
 20
431.6691845229152
 30
0.0
 11
1547.1715905349349
 21
430.85718452291508
 31
0.0
  0
ARC
  5
3794
  8
0
 10
1534.171590534937
 20
442.6586863138034
 30
0.0
 40
3.0
 50
270.0
 51
0.0
  0
ARC
  5
3795
  8
0
 10
1510.1715905349361
 20
502.16918452291537
 30
0.0
 40
2.0
 50
269.9999999999938
 51
0.0
  0
LINE
  5
3796
  8
0
 10
1510.1715905349361
 20
500.16918452291537
 30
0.0
 11
1510.0737962980379
 21
500.16918452291537
 31
0.0
  0
LINE
  5
3797
  8
0
 10
1512.1715905349349
 20
502.1691845229152
 30
0.0
 11
1512.1715905349349
 21
502.16918452291537
 31
0.0
  0
ARC
  5
3798
  8
0
 10
1510.1715905349361
 20
502.1691845229152
 30
0.0
 40
2.0
 50
0.0
 51
90.0
  0
LINE
  5
3799
  8
0
 10
1510.0737962980379
 20
504.16918452291509
 30
0.0
 11
1510.1715905349361
 21
504.16918452291509
 31
0.0
  0
ARC
  5
379A
  8
0
 10
1534.171590534937
 20
470.15868631380329
 30
0.0
 40
3.0
 50
0.0
 51
90.0
  0
ARC
  5
379B
  8
0
 10
1518.1715905349361
 20
488.2466886674103
 30
0.0
 40
16.0
 50
0.0
 51
66.815237329112762
  0
ARC
  5
379C
  8
0
 10
1290.1932432599231
 20
493.1691845229152
 30
0.0
 40
46.0
 50
51.786789298261702
 51
90.0
  0
LINE
  5
379D
  8
0
 10
1257.1932432599231
 20
539.1691845229152
 30
0.0
 11
1274.9556287242131
 21
539.1691845229152
 31
0.0
  0
LINE
  5
379E
  8
0
 10
1257.1932432599231
 20
539.1691845229152
 30
0.0
 11
1290.1932432599231
 21
539.1691845229152
 31
0.0
  0
ARC
  5
379F
  8
0
 10
1257.1932432599231
 20
473.1691845229152
 30
0.0
 40
66.0
 50
90.0
 51
108.12620396055669
  0
LINE
  5
37A0
  8
0
 10
1283.1162060535539
 20
539.1691845229152
 30
0.0
 11
1293.550200105582
 21
539.1691845229152
 31
0.0
  0
LINE
  5
37A1
  8
0
 10
1340.6932432599231
 20
527.1691845229152
 30
0.0
 11
1324.834259411301
 21
527.16918452291486
 31
0.0
  0
ARC
  5
37A2
  8
0
 10
1324.834259411301
 20
537.16918452291486
 30
0.0
 40
10.0
 50
231.78678929826179
 51
270.00000000000028
  0
LINE
  5
37A3
  8
0
 10
1340.6932432599231
 20
527.1691845229152
 30
0.0
 11
1342.1932432599231
 21
525.6691845229152
 31
0.0
  0
LINE
  5
37A4
  8
0
 10
1297.6785246319221
 20
642.98952761046348
 30
0.0
 11
1299.054804496617
 21
643.78412316082461
 31
0.0
  0
LINE
  5
37A5
  8
0
 10
1340.6932432599231
 20
666.78412316082438
 30
0.0
 11
1295.1995084801649
 21
666.78412316082472
 31
0.0
  0
LINE
  5
37A6
  8
0
 10
1297.6785246319221
 20
637.2160249185672
 30
0.0
 11
1318.4395498300789
 21
649.20240840537508
 31
0.0
  0
LINE
  5
37A7
  8
0
 10
1277.1932432599231
 20
643.78412316082461
 30
0.0
 11
1305.1932432599231
 21
643.78412316082461
 31
0.0
  0
CIRCLE
  5
37A8
  8
0
 10
1257.1932432599231
 20
634.78412316082472
 30
0.0
 40
5.0
  0
LINE
  5
37A9
  8
0
 10
1263.730759812973
 20
623.38977645385671
 30
0.0
 11
1283.466347228496
 21
634.78412316082472
 31
0.0
  0
LINE
  5
37AA
  8
0
 10
1263.446936689767
 20
617.45240840537497
 30
0.0
 11
1293.466347228496
 21
634.78412316082472
 31
0.0
  0
ARC
  5
37AB
  8
0
 10
1257.1932432599231
 20
634.78412316082472
 30
0.0
 40
13.1366
 50
239.84508696390441
 51
300.15491303601442
  0
ARC
  5
37AC
  8
0
 10
1257.1932432599231
 20
628.28412316082472
 30
0.0
 40
12.50738685968815
 50
240.0
 51
300.0
  0
LINE
  5
37AD
  8
0
 10
1297.6785246319221
 20
634.78412316082472
 30
0.0
 11
1280.707961887922
 21
634.78412316082472
 31
0.0
  0
LINE
  5
37AE
  8
0
 10
1280.707961887922
 20
634.78412316082472
 30
0.0
 11
1280.707961887922
 21
643.78412316082461
 31
0.0
  0
LINE
  5
37AF
  8
0
 10
1297.6785246319221
 20
634.78412316082472
 30
0.0
 11
1297.6785246319221
 21
643.78412316082461
 31
0.0
  0
LINE
  5
37B0
  8
0
 10
1289.1932432599231
 20
634.78412316082472
 30
0.0
 11
1289.1932432599231
 21
643.78412316082461
 31
0.0
  0
LINE
  5
37B1
  8
0
 10
1265.989180278194
 20
658.95723930845884
 30
0.0
 11
1295.1995084801649
 21
666.78412316082472
 31
0.0
  0
ARC
  5
37B2
  8
0
 10
1306.556691275636
 20
663.28412316082472
 30
0.0
 40
13.1366
 50
299.84508696390441
 51
0.1549130360144435
  0
ARC
  5
37B3
  8
0
 10
1312.185856400235
 20
660.03412316082472
 30
0.0
 40
12.50738685968815
 50
300.0
 51
0.0000000000000799
  0
ARC
  5
37B4
  8
0
 10
1306.556691275636
 20
663.28412316082472
 30
0.0
 40
5.0
 50
254.1756232062061
 51
44.427004000805979
  0
LINE
  5
37B5
  8
0
 10
1305.1932432599231
 20
643.78412316082461
 30
0.0
 11
1305.1932432599231
 21
666.78412316082472
 31
0.0
  0
LINE
  5
37B6
  8
0
 10
1305.1932432599231
 20
647.32815243322352
 30
0.0
 11
1313.155726706899
 21
651.92529439475334
 31
0.0
  0
LINE
  5
37B7
  8
0
 10
1319.6932432599231
 20
663.24860521993151
 30
0.0
 11
1319.6932432599231
 21
666.78412316082472
 31
0.0
  0
LINE
  5
37B8
  8
0
 10
1324.6932432599231
 20
660.03412316082472
 30
0.0
 11
1324.6932432599231
 21
666.78412316082472
 31
0.0
  0
LINE
  5
37B9
  8
0
 10
1342.1932432599231
 20
668.28412316082449
 30
0.0
 11
1340.6932432599231
 21
666.78412316082438
 31
0.0
  0
ARC
  5
37BA
  8
0
 10
1485.1715905349361
 20
473.1691845229152
 30
0.0
 40
66.0
 50
90.0
 51
108.12620396055669
  0
ARC
  5
37BB
  8
0
 10
1471.1715905349349
 20
515.93599408360126
 30
0.0
 40
21.0
 50
108.12620396055669
 51
191.1894212604517
  0
ARC
  5
37BC
  8
0
 10
1499.1715905349349
 20
515.93599408360126
 30
0.0
 40
21.0
 50
348.8105787395483
 51
71.873796039443278
  0
ARC
  5
37BD
  8
0
 10
1485.1715905349361
 20
473.1691845229152
 30
0.0
 40
66.0
 50
71.873796039443292
 51
90.0
  0
LINE
  5
37BE
  8
0
 10
1555.308190534935
 20
424.66918452291509
 30
0.0
 11
1555.308190534935
 21
408.16918452291509
 31
0.0
  0
LINE
  5
37BF
  8
0
 10
1553.6715905349349
 20
332.35718452291508
 30
0.0
 11
1553.6715905349349
 21
327.1691845229152
 31
0.0
  0
LINE
  5
37C0
  8
0
 10
1552.8595905349359
 20
333.1691845229152
 30
0.0
 11
1553.6715905349349
 21
332.35718452291508
 31
0.0
  0
LINE
  5
37C1
  8
0
 10
1549.1066298731071
 20
384.6681845229312
 30
0.0
 11
1550.671629873108
 21
385.57218452293108
 31
0.0
  0
LINE
  5
37C2
  8
0
 10
1550.671629873081
 20
385.57218452291551
 30
0.0
 11
1550.671629873081
 21
391.66918452291537
 31
0.0
  0
LINE
  5
37C3
  8
0
 10
1555.308190534935
 20
408.16918452291509
 30
0.0
 11
1555.308190534935
 21
391.6691845229152
 31
0.0
  0
ARC
  5
37CA
  8
0
 10
1257.1932432599231
 20
691.78412316082438
 30
0.0
 40
48.99999999999995
 50
30.677424472556378
 51
149.3225755274436
  0
ARC
  5
37CD
  8
0
 10
1257.1932432599231
 20
691.78412316082472
 30
0.0
 40
52.0
 50
119.9999999999998
 51
151.26434625509481
  0
LINE
  5
37CE
  8
0
 10
1201.2307598129621
 20
731.6429519269052
 30
0.0
 11
1250.655726706897
 21
760.17846986780683
 31
0.0
  0
LINE
  5
37CF
  8
0
 10
1195.946936689767
 20
734.36583791627459
 30
0.0
 11
1250.9395498300789
 21
766.11583791627413
 31
0.0
  0
LINE
  5
37D0
  8
0
 10
1193.1932432599231
 20
686.78412316082472
 30
0.0
 11
1239.7955114688459
 21
686.78412316082472
 31
0.0
  0
LINE
  5
37D1
  8
0
 10
1193.1932432599231
 20
696.78412316082449
 30
0.0
 11
1239.7955114688459
 21
696.78412316082449
 31
0.0
  0
LINE
  5
37D2
  8
0
 10
1193.1932432599231
 20
696.78412316082449
 30
0.0
 11
1239.7955114688459
 21
696.78412316082449
 31
0.0
  0
ARC
  5
37D3
  8
0
 10
1257.1932432599231
 20
691.78412316082438
 30
0.0
 40
33.984890929442493
 50
75.0
 51
171.5396934900462
  0
LINE
  5
383B
  8
0
 10
1161.6697035194979
 20
691.78412316082438
 30
0.0
 11
1130.1573285194979
 21
691.78412316082438
 31
0.0
  0
LINE
  5
383C
  8
0
 10
1155.2302035194989
 20
698.08637316082422
 30
0.0
 11
1161.6697035194979
 21
691.78412316082438
 31
0.0
  0
LINE
  5
383D
  8
0
 10
1123.855078519498
 20
698.08637316082422
 30
0.0
 11
1142.7618285194981
 21
698.08637316082422
 31
0.0
  0
LINE
  5
383E
  8
0
 10
1130.1573285194979
 20
691.78412316082438
 30
0.0
 11
1123.855078519498
 21
698.08637316082422
 31
0.0
  0
LINE
  5
383F
  8
0
 10
1145.9140785194979
 20
694.93524816082436
 30
0.0
 11
1155.2302035194989
 21
694.93524816082436
 31
0.0
  0
LINE
  5
3840
  8
0
 10
1142.7618285194981
 20
698.08637316082422
 30
0.0
 11
1145.9140785194979
 21
694.93524816082436
 31
0.0
  0
LINE
  5
3841
  8
0
 10
1155.2302035194989
 20
694.93524816082436
 30
0.0
 11
1155.2302035194989
 21
698.08637316082422
 31
0.0
  0
ARC
  5
3842
  8
0
 10
1207.829795244211
 20
720.28412316082472
 30
0.0
 40
13.1366
 50
119.84508696390439
 51
180.15491303601439
  0
ARC
  5
3843
  8
0
 10
1202.2006301196111
 20
723.53412316082472
 30
0.0
 40
12.50738685968815
 50
120.0
 51
180.0
  0
LINE
  5
3844
  8
0
 10
1173.6932432599231
 20
716.78412316082438
 30
0.0
 11
1216.1869780396819
 21
716.78412316082415
 31
0.0
  0
LINE
  5
3845
  8
0
 10
1172.1932432599231
 20
691.78412316082438
 30
0.0
 11
1172.1932432599231
 21
715.28412316082449
 31
0.0
  0
ARC
  5
3846
  8
0
 10
1193.1932432599231
 20
701.78412316082449
 30
0.0
 40
5.0
 50
180.0
 51
270.0
  0
LINE
  5
3847
  8
0
 10
1173.6932432599231
 20
716.78412316082438
 30
0.0
 11
1172.1932432599231
 21
715.28412316082449
 31
0.0
  0
LINE
  5
3848
  8
0
 10
1189.6932432599231
 20
716.78412316082438
 30
0.0
 11
1189.6932432599231
 21
723.53412316082472
 31
0.0
  0
ARC
  5
3849
  8
0
 10
1207.829795244211
 20
720.28412316082472
 30
0.0
 40
5.0
 50
315.57299599918889
 51
224.42700400081051
  0
LINE
  5
384A
  8
0
 10
1194.6932432599231
 20
716.78412316082438
 30
0.0
 11
1194.6932432599231
 21
720.31964110176148
 31
0.0
  0
ARC
  5
384B
  8
0
 10
1216.1869780396819
 20
719.78412316082438
 30
0.0
 40
3.0
 50
270.0
 51
0.0
  0
ARC
  5
3892
  8
0
 10
1257.1932432599231
 20
691.78412316082472
 30
0.0
 40
52.0
 50
28.735653744905122
 51
59.999999999999829
  0
LINE
  5
3893
  8
0
 10
1340.6932432599231
 20
716.78412316082438
 30
0.0
 11
1295.1995084801649
 21
716.78412316082415
 31
0.0
  0
LINE
  5
3894
  8
0
 10
1313.1557267068661
 20
731.64295192691475
 30
0.0
 11
1263.7307598130069
 21
760.17846986777329
 31
0.0
  0
LINE
  5
3895
  8
0
 10
1318.4395498300789
 20
734.36583791627413
 30
0.0
 11
1263.446936689767
 21
766.11583791627413
 31
0.0
  0
ARC
  5
3896
  8
0
 10
1239.7955114688459
 20
701.78412316082449
 30
0.0
 40
5.0
 50
270.0
 51
0.0
  0
LINE
  5
3897
  8
0
 10
1265.989180278194
 20
724.61100701319015
 30
0.0
 11
1295.1995084801649
 21
716.78412316082415
 31
0.0
  0
ARC
  5
3898
  8
0
 10
1257.1932432599231
 20
748.78412316082472
 30
0.0
 40
13.1366
 50
59.84508696390445
 51
120.15491303601441
  0
ARC
  5
3899
  8
0
 10
1257.1932432599231
 20
691.78412316082472
 30
0.0
 40
52.0
 50
78.74528738177051
 51
101.2547126182295
  0
LINE
  5
389A
  8
0
 10
1231.1932432599231
 20
742.78412316082472
 30
0.0
 11
1283.1932432599231
 21
742.78412316082472
 31
0.0
  0
LINE
  5
389B
  8
0
 10
1231.1932432599231
 20
742.78412316082472
 30
0.0
 11
1231.1932432599231
 21
735.99950509969278
 31
0.0
  0
CIRCLE
  5
389C
  8
0
 10
1257.1932432599231
 20
748.78412316082472
 30
0.0
 40
5.0
  0
ARC
  5
389D
  8
0
 10
1257.1932432599231
 20
755.28412316082472
 30
0.0
 40
12.50738685968815
 50
59.999999999999972
 51
120.0
  0
LINE
  5
389E
  8
0
 10
1283.1932432599231
 20
742.78412316082472
 30
0.0
 11
1283.1932432599231
 21
735.99950509969278
 31
0.0
  0
ARC
  5
389F
  8
0
 10
1306.556691275636
 20
720.28412316082472
 30
0.0
 40
13.1366
 50
359.84508696390441
 51
60.154913036014392
  0
ARC
  5
38A0
  8
0
 10
1312.185856400235
 20
723.53412316082472
 30
0.0
 40
12.50738685968815
 50
0.0
 51
60.000000000000057
  0
ARC
  5
38A1
  8
0
 10
1306.556691275636
 20
720.28412316082472
 30
0.0
 40
5.0
 50
315.57299599919168
 51
224.4270040008083
  0
LINE
  5
38A2
  8
0
 10
1324.6932432599231
 20
716.78412316082438
 30
0.0
 11
1324.6932432599231
 21
723.53412316082472
 31
0.0
  0
LINE
  5
38A3
  8
0
 10
1319.6932432599231
 20
716.78412316082438
 30
0.0
 11
1319.6932432599231
 21
720.31964110168178
 31
0.0
  0
LINE
  5
38A4
  8
0
 10
1342.1932432599231
 20
691.78412316082438
 30
0.0
 11
1342.1932432599231
 21
715.28412316082472
 31
0.0
  0
LINE
  5
38A5
  8
0
 10
1340.6932432599231
 20
716.78412316082438
 30
0.0
 11
1342.1932432599231
 21
715.28412316082449
 31
0.0
  0
LINE
  5
3DA0
  8
0
 10
1324.6932432599231
 20
883.97596133740421
 30
0.0
 11
1324.6932432599231
 21
849.97596133740421
 31
0.0
  0
LINE
  5
3DA1
  8
0
 10
1257.1932432599231
 20
880.12901371033536
 30
0.0
 11
1257.1932432599231
 21
854.8019125462522
 31
0.0
  0
LINE
  5
3DA2
  8
0
 10
1189.6932432599231
 20
883.97596133740421
 30
0.0
 11
1189.6932432599231
 21
849.97596133740421
 31
0.0
  0
LINE
  5
3DA3
  8
0
 10
1324.6932432599231
 20
849.97596133740421
 30
0.0
 11
1189.6932432599231
 21
849.97596133740421
 31
0.0
  0
LINE
  5
3DA4
  8
0
 10
1324.6932432599231
 20
866.97596133740421
 30
0.0
 11
1189.6932432599231
 21
866.97596133740421
 31
0.0
  0
LINE
  5
3DA5
  8
0
 10
1207.1932432599231
 20
817.97596133740421
 30
0.0
 11
1239.1932432599231
 21
817.97596133740421
 31
0.0
  0
ARC
  5
3DA6
  8
0
 10
1202.2006301196111
 20
860.63795293051737
 30
0.0
 40
17.462601416113358
 50
253.68007233167191
 51
286.31992766832798
  0
LINE
  5
3DA7
  8
0
 10
1210.4506301196111
 20
842.97496133740424
 30
0.0
 11
1193.9506301196111
 21
842.97496133740424
 31
0.0
  0
LINE
  5
3DA8
  8
0
 10
1193.9506301196111
 20
842.97496133740424
 30
0.0
 11
1192.3856301196111
 21
843.87896133740423
 31
0.0
  0
ARC
  5
3DA9
  8
0
 10
1194.839630119611
 20
847.80628540282089
 30
0.0
 40
4.6309815714167701
 50
238.00067615949041
 51
301.99932384050931
  0
LINE
  5
3DAA
  8
0
 10
1197.293630119611
 20
843.87896133740423
 30
0.0
 11
1197.293630119611
 21
849.97596133740421
 31
0.0
  0
LINE
  5
3DAB
  8
0
 10
1192.3856301196111
 20
843.87896133740423
 30
0.0
 11
1192.3856301196111
 21
849.97596133740421
 31
0.0
  0
LINE
  5
3DAC
  8
0
 10
1207.1932432599231
 20
842.97496133740424
 30
0.0
 11
1207.1932432599231
 21
817.97596133740421
 31
0.0
  0
ARC
  5
3DAD
  8
0
 10
1209.561630119611
 20
847.80628540282089
 30
0.0
 40
4.6309815714167701
 50
238.00067615949069
 51
301.99932384050959
  0
LINE
  5
3DAE
  8
0
 10
1212.0156301196109
 20
843.87896133740423
 30
0.0
 11
1210.4506301196111
 21
842.97496133740424
 31
0.0
  0
LINE
  5
3DAF
  8
0
 10
1212.0156301196109
 20
849.97596133740421
 30
0.0
 11
1212.0156301196109
 21
843.87896133740423
 31
0.0
  0
LINE
  5
3DB0
  8
0
 10
1207.107630119611
 20
843.87896133740423
 30
0.0
 11
1207.107630119611
 21
849.97596133740421
 31
0.0
  0
LINE
  5
3DB1
  8
0
 10
1235.657344875061
 20
837.97596133740433
 30
0.0
 11
1278.7291416447849
 21
837.97596133740433
 31
0.0
  0
LINE
  5
3DB2
  8
0
 10
1248.8622432599229
 20
826.9759613374041
 30
0.0
 11
1265.524243259923
 21
826.9759613374041
 31
0.0
  0
LINE
  5
3DB3
  8
0
 10
1248.8622432599229
 20
835.9759613374041
 30
0.0
 11
1265.524243259923
 21
835.9759613374041
 31
0.0
  0
LINE
  5
3DB4
  8
0
 10
1265.4432432599231
 20
842.97496133740424
 30
0.0
 11
1248.9432432599231
 21
842.97496133740424
 31
0.0
  0
ARC
  5
3DB5
  8
0
 10
1257.1932432599231
 20
860.6379529305176
 30
0.0
 40
17.462601416113358
 50
253.68007233167191
 51
286.31992766832798
  0
ARC
  5
3DB6
  8
0
 10
1221.80093841451
 20
843.9759613374041
 30
0.0
 40
6.0
 50
30.000000000000021
 51
90.0
  0
LINE
  5
3DB7
  8
0
 10
1226.9970908372161
 20
846.97596133740421
 30
0.0
 11
1230.461192452354
 21
840.97596133740421
 31
0.0
  0
ARC
  5
3DB8
  8
0
 10
1235.657344875061
 20
843.9759613374041
 30
0.0
 40
6.0
 50
210.0
 51
270.0
  0
LINE
  5
3DB9
  8
0
 10
1248.8622432599229
 20
826.9759613374041
 30
0.0
 11
1248.8622432599229
 21
835.9759613374041
 31
0.0
  0
LINE
  5
3DBA
  8
0
 10
1248.8622432599229
 20
835.9759613374041
 30
0.0
 11
1248.924713848158
 21
837.97596133740433
 31
0.0
  0
LINE
  5
3DBB
  8
0
 10
1239.1932432599231
 20
834.9759613374041
 30
0.0
 11
1239.1932432599231
 21
817.97596133740421
 31
0.0
  0
LINE
  5
3DBC
  8
0
 10
1248.9432432599231
 20
842.97496133740424
 30
0.0
 11
1247.378243259923
 21
843.87896133740423
 31
0.0
  0
ARC
  5
3DBD
  8
0
 10
1249.832243259923
 20
847.80628540282089
 30
0.0
 40
4.6309815714167701
 50
238.00067615949041
 51
301.99932384050931
  0
LINE
  5
3DBE
  8
0
 10
1252.2862432599229
 20
843.87896133740423
 30
0.0
 11
1252.2862432599229
 21
849.97596133740421
 31
0.0
  0
LINE
  5
3DBF
  8
0
 10
1247.378243259923
 20
843.87896133740423
 30
0.0
 11
1247.378243259923
 21
849.97596133740421
 31
0.0
  0
ARC
  5
3DC0
  8
0
 10
1242.1932432599231
 20
834.9759613374041
 30
0.0
 40
3.0
 50
90.0
 51
180.0
  0
LINE
  5
3DC1
  8
0
 10
1257.1932432599231
 20
826.9759613374041
 30
0.0
 11
1257.1932432599231
 21
835.9759613374041
 31
0.0
  0
LINE
  5
3DC2
  8
0
 10
1265.524243259923
 20
826.9759613374041
 30
0.0
 11
1265.524243259923
 21
835.9759613374041
 31
0.0
  0
LINE
  5
3DC3
  8
0
 10
1265.524243259923
 20
835.9759613374041
 30
0.0
 11
1265.461772671687
 21
837.97596133740433
 31
0.0
  0
LINE
  5
3DC4
  8
0
 10
1267.0082432599229
 20
843.87896133740423
 30
0.0
 11
1265.4432432599231
 21
842.97496133740424
 31
0.0
  0
ARC
  5
3DC5
  8
0
 10
1264.5542432599229
 20
847.80628540282089
 30
0.0
 40
4.6309815714167701
 50
238.00067615949069
 51
301.99932384050959
  0
LINE
  5
3DC6
  8
0
 10
1267.0082432599229
 20
849.97596133740421
 30
0.0
 11
1267.0082432599229
 21
843.87896133740423
 31
0.0
  0
LINE
  5
3DC7
  8
0
 10
1262.100243259923
 20
843.87896133740423
 30
0.0
 11
1262.100243259923
 21
849.97596133740421
 31
0.0
  0
ARC
  5
3DC8
  8
0
 10
1278.7291416447849
 20
843.9759613374041
 30
0.0
 40
6.0
 50
270.0
 51
329.99999999999989
  0
LINE
  5
3DC9
  8
0
 10
1287.3893956826289
 20
846.97596133740421
 30
0.0
 11
1283.9252940674919
 21
840.97596133740421
 31
0.0
  0
ARC
  5
3DCA
  8
0
 10
1292.5855481053361
 20
843.9759613374041
 30
0.0
 40
6.0
 50
90.0
 51
150.0
  0
LINE
  5
3DCB
  8
0
 10
1320.435856400235
 20
842.97496133740424
 30
0.0
 11
1303.935856400235
 21
842.97496133740424
 31
0.0
  0
ARC
  5
3DCC
  8
0
 10
1312.185856400235
 20
860.6379529305176
 30
0.0
 40
17.462601416113358
 50
253.68007233167191
 51
286.31992766832798
  0
ARC
  5
3DCD
  8
0
 10
1304.8248564002349
 20
847.80628540282089
 30
0.0
 40
4.6309815714167701
 50
238.00067615949041
 51
301.99932384050931
  0
LINE
  5
3DCE
  8
0
 10
1303.935856400235
 20
842.97496133740424
 30
0.0
 11
1302.370856400235
 21
843.87896133740423
 31
0.0
  0
LINE
  5
3DCF
  8
0
 10
1307.2788564002351
 20
843.87896133740423
 30
0.0
 11
1307.2788564002351
 21
849.97596133740421
 31
0.0
  0
LINE
  5
3DD0
  8
0
 10
1302.370856400235
 20
843.87896133740423
 30
0.0
 11
1302.370856400235
 21
849.97596133740421
 31
0.0
  0
ARC
  5
3DD1
  8
0
 10
1319.5468564002349
 20
847.80628540282089
 30
0.0
 40
4.6309815714167701
 50
238.00067615949069
 51
301.99932384050959
  0
LINE
  5
3DD2
  8
0
 10
1322.0008564002351
 20
843.87896133740423
 30
0.0
 11
1320.435856400235
 21
842.97496133740424
 31
0.0
  0
LINE
  5
3DD3
  8
0
 10
1322.0008564002351
 20
849.97596133740421
 30
0.0
 11
1322.0008564002351
 21
843.87896133740423
 31
0.0
  0
LINE
  5
3DD4
  8
0
 10
1317.092856400235
 20
843.87896133740423
 30
0.0
 11
1317.092856400235
 21
849.97596133740421
 31
0.0
  0
LINE
  5
3DD5
  8
0
 10
1216.3088213309891
 20
1058.975961337404
 30
0.0
 11
1291.4957764498311
 21
1058.975961337404
 31
0.0
  0
LINE
  5
3DD6
  8
0
 10
1217.6447952442099
 20
942.37896133740423
 30
0.0
 11
1216.0797952442099
 21
941.47496133740412
 31
0.0
  0
LINE
  5
3DD7
  8
0
 10
1324.6932432599231
 20
883.97596133740421
 30
0.0
 11
1189.6932432599231
 21
883.97596133740421
 31
0.0
  0
LINE
  5
3DD8
  8
0
 10
1319.6932432599231
 20
948.4759613374041
 30
0.0
 11
1194.6932432599231
 21
948.4759613374041
 31
0.0
  0
LINE
  5
3DD9
  8
0
 10
1319.6932432599231
 20
981.47596133740456
 30
0.0
 11
1194.6932432599231
 21
981.47596133740399
 31
0.0
  0
LINE
  5
3DDA
  8
0
 10
1319.6932432599231
 20
964.97596133740421
 30
0.0
 11
1194.6932432599231
 21
964.97596133740421
 31
0.0
  0
ARC
  5
3DDB
  8
0
 10
1215.19079524421
 20
946.306285402821
 30
0.0
 40
4.6309815714167701
 50
238.00067615949069
 51
301.99932384050959
  0
ARC
  5
3DDC
  8
0
 10
1224.1932432599231
 20
1049.975961337404
 30
0.0
 40
46.0
 50
90.0
 51
128.21321070173829
  0
LINE
  5
3DDD
  8
0
 10
1208.1932432599231
 20
1031.934741740035
 30
0.0
 11
1208.1932432599231
 21
996.47596133740421
 31
0.0
  0
LINE
  5
3DDE
  8
0
 10
1202.92279524421
 20
942.37896133740423
 30
0.0
 11
1202.92279524421
 21
948.4759613374041
 31
0.0
  0
LINE
  5
3DDF
  8
0
 10
1198.0147952442101
 20
942.37896133740423
 30
0.0
 11
1198.0147952442101
 21
948.4759613374041
 31
0.0
  0
LINE
  5
3DE0
  8
0
 10
1212.73679524421
 20
942.37896133740423
 30
0.0
 11
1212.73679524421
 21
948.4759613374041
 31
0.0
  0
LINE
  5
3DE1
  8
0
 10
1198.012630119611
 20
889.97596133740421
 30
0.0
 11
1197.2006301196111
 21
889.16396133740398
 31
0.0
  0
LINE
  5
3DE2
  8
0
 10
1197.2006301196111
 20
889.16396133740398
 30
0.0
 11
1197.2006301196111
 21
883.97596133740421
 31
0.0
  0
LINE
  5
3DE3
  8
0
 10
1211.8911429133359
 20
933.47596133740433
 30
0.0
 11
1210.9072488009369
 21
905.30092033120081
 31
0.0
  0
LINE
  5
3DE4
  8
0
 10
1207.2006301196111
 20
889.16396133740398
 30
0.0
 11
1206.388630119611
 21
889.97596133740421
 31
0.0
  0
LINE
  5
3DE5
  8
0
 10
1207.2006301196111
 20
883.97596133740421
 30
0.0
 11
1207.2006301196111
 21
889.16396133740398
 31
0.0
  0
LINE
  5
3DE6
  8
0
 10
1206.388630119611
 20
889.97596133740421
 30
0.0
 11
1198.012630119611
 21
889.97596133740421
 31
0.0
  0
LINE
  5
3DE7
  8
0
 10
1210.9072488009369
 20
905.30092033120081
 30
0.0
 11
1206.713807419585
 21
889.65078403743041
 31
0.0
  0
ARC
  5
3DE8
  8
0
 10
1200.46879524421
 20
946.306285402821
 30
0.0
 40
4.6309815714167701
 50
238.00067615949041
 51
301.99932384050931
  0
LINE
  5
3DE9
  8
0
 10
1199.5797952442099
 20
941.47496133740412
 30
0.0
 11
1198.0147952442101
 21
942.37896133740423
 31
0.0
  0
LINE
  5
3DEA
  8
0
 10
1210.9857096248249
 20
941.47496133740412
 30
0.0
 11
1211.8911429133359
 21
933.47596133740433
 31
0.0
  0
ARC
  5
3DEB
  8
0
 10
1207.8297952442099
 20
959.13795293051749
 30
0.0
 40
17.462601416113358
 50
253.68007233167191
 51
286.31992766832798
  0
LINE
  5
3DEC
  8
0
 10
1216.0797952442099
 20
941.47496133740412
 30
0.0
 11
1199.5797952442099
 21
941.47496133740412
 31
0.0
  0
LINE
  5
3DED
  8
0
 10
1203.64179524421
 20
988.47596133740421
 30
0.0
 11
1202.8297952442099
 21
987.66396133740398
 31
0.0
  0
LINE
  5
3DEE
  8
0
 10
1212.8297952442099
 20
987.66396133740398
 30
0.0
 11
1212.01779524421
 21
988.47596133740421
 31
0.0
  0
LINE
  5
3DEF
  8
0
 10
1212.01779524421
 20
988.47596133740421
 30
0.0
 11
1203.64179524421
 21
988.47596133740421
 31
0.0
  0
LINE
  5
3DF0
  8
0
 10
1202.8297952442099
 20
987.66396133740398
 30
0.0
 11
1202.8297952442099
 21
981.47596133740399
 31
0.0
  0
LINE
  5
3DF1
  8
0
 10
1212.8297952442099
 20
981.47596133740399
 30
0.0
 11
1212.8297952442099
 21
987.66396133740398
 31
0.0
  0
LINE
  5
3DF2
  8
0
 10
1206.0599099265901
 20
988.47596133740421
 30
0.0
 11
1208.1932432599231
 21
996.47596133740421
 31
0.0
  0
ARC
  5
3DF3
  8
0
 10
1201.120130007587
 20
985.47596133740399
 30
0.0
 40
4.0
 50
270.00000000000011
 51
295.30370402795501
  0
LINE
  5
3DF4
  8
0
 10
1194.6932432599231
 20
981.4759613374041
 30
0.0
 11
1194.6932432599231
 21
948.4759613374041
 31
0.0
  0
LINE
  5
3DF5
  8
0
 10
1173.6932432599231
 20
1083.975961337404
 30
0.0
 11
1189.5522271085449
 21
1083.975961337404
 31
0.0
  0
LINE
  5
3DF6
  8
0
 10
1173.6932432599231
 20
1033.975961337404
 30
0.0
 11
1182.1932432599231
 21
1033.975961337404
 31
0.0
  0
LINE
  5
3DF7
  8
0
 10
1173.6932432599231
 20
1083.975961337404
 30
0.0
 11
1172.1932432599231
 21
1082.475961337404
 31
0.0
  0
LINE
  5
3DF8
  8
0
 10
1172.1932432599231
 20
1035.475961337404
 30
0.0
 11
1173.6932432599231
 21
1033.975961337404
 31
0.0
  0
LINE
  5
3DF9
  8
0
 10
1173.6932432599231
 20
1083.975961337404
 30
0.0
 11
1173.6932432599231
 21
1033.975961337404
 31
0.0
  0
LINE
  5
3DFA
  8
0
 10
1172.1932432599231
 20
1058.975961337404
 30
0.0
 11
1172.1932432599231
 21
1082.475961337404
 31
0.0
  0
LINE
  5
3DFB
  8
0
 10
1172.1932432599231
 20
1035.475961337404
 30
0.0
 11
1172.1932432599231
 21
1058.975961337404
 31
0.0
  0
ARC
  5
3DFC
  8
0
 10
1182.1932432599231
 20
1080.475961337404
 30
0.0
 40
46.5
 50
270.0
 51
292.39268780540169
  0
ARC
  5
3DFD
  8
0
 10
1189.5522271085449
 20
1093.975961337404
 30
0.0
 40
10.0
 50
269.99999999999972
 51
308.21321070173821
  0
ARC
  5
3DFE
  8
0
 10
1202.1932432599231
 20
1031.934741740035
 30
0.0
 40
6.0
 50
0.0
 51
112.39268780540159
  0
ARC
  5
3DFF
  8
0
 10
1224.1932432599231
 20
1045.0534654818989
 30
0.0
 40
16.0
 50
119.5232282838525
 51
180.0
  0
LINE
  5
3E00
  8
0
 10
1306.1932432599231
 20
1018.975961337404
 30
0.0
 11
1306.1932432599231
 21
996.47596133740421
 31
0.0
  0
LINE
  5
3E01
  8
0
 10
1283.1932432599231
 20
1026.965463128294
 30
0.0
 11
1283.1932432599231
 21
999.46546312829366
 31
0.0
  0
LINE
  5
3E02
  8
0
 10
1231.1932432599231
 20
1026.965463128294
 30
0.0
 11
1231.1932432599231
 21
999.46546312829366
 31
0.0
  0
LINE
  5
3E03
  8
0
 10
1262.100243259923
 20
942.37896133740423
 30
0.0
 11
1262.100243259923
 21
948.4759613374041
 31
0.0
  0
LINE
  5
3E04
  8
0
 10
1267.0082432599229
 20
948.4759613374041
 30
0.0
 11
1267.0082432599229
 21
942.37896133740423
 31
0.0
  0
LINE
  5
3E05
  8
0
 10
1217.6447952442099
 20
948.4759613374041
 30
0.0
 11
1217.6447952442099
 21
942.37896133740423
 31
0.0
  0
LINE
  5
3E06
  8
0
 10
1247.378243259923
 20
942.37896133740423
 30
0.0
 11
1247.378243259923
 21
948.4759613374041
 31
0.0
  0
LINE
  5
3E07
  8
0
 10
1252.2862432599229
 20
942.37896133740423
 30
0.0
 11
1252.2862432599229
 21
948.4759613374041
 31
0.0
  0
LINE
  5
3E08
  8
0
 10
1261.3812432599229
 20
889.97596133740421
 30
0.0
 11
1253.005243259923
 21
889.97596133740421
 31
0.0
  0
LINE
  5
3E09
  8
0
 10
1265.4432432599231
 20
941.47496133740412
 30
0.0
 11
1248.9432432599231
 21
941.47496133740412
 31
0.0
  0
ARC
  5
3E0A
  8
0
 10
1257.1932432599231
 20
959.13795293051749
 30
0.0
 40
17.462601416113358
 50
253.68007233167191
 51
286.31992766832798
  0
LINE
  5
3E0B
  8
0
 10
1253.005243259923
 20
889.97596133740421
 30
0.0
 11
1252.1932432599231
 21
889.1639613374042
 31
0.0
  0
LINE
  5
3E0C
  8
0
 10
1252.1932432599231
 20
889.1639613374042
 30
0.0
 11
1252.1932432599231
 21
883.97596133740421
 31
0.0
  0
LINE
  5
3E0D
  8
0
 10
1248.9432432599231
 20
941.47496133740412
 30
0.0
 11
1247.378243259923
 21
942.37896133740423
 31
0.0
  0
ARC
  5
3E0E
  8
0
 10
1249.832243259923
 20
946.306285402821
 30
0.0
 40
4.6309815714167701
 50
238.00067615949041
 51
301.99932384050931
  0
LINE
  5
3E0F
  8
0
 10
1262.1932432599231
 20
889.1639613374042
 30
0.0
 11
1261.3812432599229
 21
889.97596133740421
 31
0.0
  0
LINE
  5
3E10
  8
0
 10
1262.1932432599231
 20
883.97596133740421
 30
0.0
 11
1262.1932432599231
 21
889.1639613374042
 31
0.0
  0
LINE
  5
3E11
  8
0
 10
1267.0082432599229
 20
942.37896133740423
 30
0.0
 11
1265.4432432599231
 21
941.47496133740412
 31
0.0
  0
ARC
  5
3E12
  8
0
 10
1264.5542432599229
 20
946.306285402821
 30
0.0
 40
4.6309815714167701
 50
238.00067615949069
 51
301.99932384050959
  0
LINE
  5
3E13
  8
0
 10
1234.1932432599231
 20
996.46546312829378
 30
0.0
 11
1280.1932432599231
 21
996.46546312829378
 31
0.0
  0
LINE
  5
3E14
  8
0
 10
1261.3812432599229
 20
988.47596133740421
 30
0.0
 11
1253.005243259923
 21
988.47596133740421
 31
0.0
  0
ARC
  5
3E15
  8
0
 10
1234.1932432599231
 20
999.46546312829366
 30
0.0
 40
3.0
 50
180.0
 51
270.0
  0
LINE
  5
3E16
  8
0
 10
1253.005243259923
 20
988.47596133740421
 30
0.0
 11
1252.1932432599231
 21
987.66396133740398
 31
0.0
  0
LINE
  5
3E17
  8
0
 10
1252.1932432599231
 20
987.66396133740398
 30
0.0
 11
1252.1932432599231
 21
981.47596133740399
 31
0.0
  0
LINE
  5
3E18
  8
0
 10
1262.1932432599231
 20
987.66396133740398
 30
0.0
 11
1261.3812432599229
 21
988.47596133740421
 31
0.0
  0
LINE
  5
3E19
  8
0
 10
1262.1932432599231
 20
981.47596133740399
 30
0.0
 11
1262.1932432599231
 21
987.66396133740398
 31
0.0
  0
ARC
  5
3E1A
  8
0
 10
1280.1932432599231
 20
999.46546312829366
 30
0.0
 40
3.0
 50
270.0
 51
0.0
  0
LINE
  5
3E1B
  8
0
 10
1257.1932432599231
 20
978.12901371033524
 30
0.0
 11
1257.1932432599231
 21
952.8019125462522
 31
0.0
  0
LINE
  5
3E1C
  8
0
 10
1301.649691275635
 20
942.37896133740423
 30
0.0
 11
1301.649691275635
 21
948.4759613374041
 31
0.0
  0
LINE
  5
3E1D
  8
0
 10
1296.741691275635
 20
942.37896133740423
 30
0.0
 11
1296.741691275635
 21
948.4759613374041
 31
0.0
  0
LINE
  5
3E1E
  8
0
 10
1311.4636912756359
 20
942.37896133740423
 30
0.0
 11
1311.4636912756359
 21
948.4759613374041
 31
0.0
  0
LINE
  5
3E1F
  8
0
 10
1316.3716912756361
 20
948.4759613374041
 30
0.0
 11
1316.3716912756361
 21
942.37896133740423
 31
0.0
  0
ARC
  5
3E20
  8
0
 10
1313.9176912756359
 20
946.306285402821
 30
0.0
 40
4.6309815714167701
 50
238.00067615949069
 51
301.99932384050959
  0
LINE
  5
3E21
  8
0
 10
1316.3716912756361
 20
942.37896133740423
 30
0.0
 11
1314.8066912756351
 21
941.47496133740412
 31
0.0
  0
LINE
  5
3E22
  8
0
 10
1316.373856400234
 20
889.97596133740421
 30
0.0
 11
1307.9978564002349
 21
889.97596133740421
 31
0.0
  0
LINE
  5
3E23
  8
0
 10
1302.49534360651
 20
933.47596133740387
 30
0.0
 11
1303.4792377189081
 21
905.30092033120127
 31
0.0
  0
LINE
  5
3E24
  8
0
 10
1307.9978564002349
 20
889.97596133740421
 30
0.0
 11
1307.1858564002339
 21
889.1639613374042
 31
0.0
  0
LINE
  5
3E25
  8
0
 10
1307.1858564002339
 20
889.1639613374042
 30
0.0
 11
1307.1858564002339
 21
883.97596133740421
 31
0.0
  0
LINE
  5
3E26
  8
0
 10
1303.4792377189081
 20
905.3009203312015
 30
0.0
 11
1307.6726791002609
 21
889.65078403743041
 31
0.0
  0
ARC
  5
3E27
  8
0
 10
1299.1956912756359
 20
946.306285402821
 30
0.0
 40
4.6309815714167701
 50
238.00067615949041
 51
301.99932384050931
  0
LINE
  5
3E28
  8
0
 10
1303.40077689502
 20
941.47496133740412
 30
0.0
 11
1302.49534360651
 21
933.47596133740433
 31
0.0
  0
LINE
  5
3E29
  8
0
 10
1298.306691275636
 20
941.47496133740412
 30
0.0
 11
1296.741691275635
 21
942.37896133740423
 31
0.0
  0
LINE
  5
3E2A
  8
0
 10
1314.8066912756351
 20
941.47496133740412
 30
0.0
 11
1298.306691275636
 21
941.47496133740412
 31
0.0
  0
ARC
  5
3E2B
  8
0
 10
1306.556691275636
 20
959.13795293051749
 30
0.0
 40
17.462601416113358
 50
253.68007233167191
 51
286.31992766832798
  0
LINE
  5
3E2C
  8
0
 10
1317.185856400235
 20
889.1639613374042
 30
0.0
 11
1316.373856400234
 21
889.97596133740421
 31
0.0
  0
LINE
  5
3E2D
  8
0
 10
1317.185856400235
 20
883.97596133740421
 30
0.0
 11
1317.185856400235
 21
889.1639613374042
 31
0.0
  0
LINE
  5
3E2E
  8
0
 10
1302.3686912756359
 20
988.47596133740421
 30
0.0
 11
1301.556691275636
 21
987.66396133740398
 31
0.0
  0
LINE
  5
3E2F
  8
0
 10
1301.556691275636
 20
987.66396133740398
 30
0.0
 11
1301.556691275636
 21
981.47596133740399
 31
0.0
  0
LINE
  5
3E30
  8
0
 10
1311.556691275636
 20
987.66396133740398
 30
0.0
 11
1310.7446912756359
 21
988.47596133740421
 31
0.0
  0
LINE
  5
3E31
  8
0
 10
1311.556691275636
 20
981.4759613374041
 30
0.0
 11
1311.556691275636
 21
987.66396133740398
 31
0.0
  0
LINE
  5
3E32
  8
0
 10
1310.7446912756359
 20
988.47596133740421
 30
0.0
 11
1302.3686912756359
 21
988.47596133740421
 31
0.0
  0
ARC
  5
3E33
  8
0
 10
1313.2663565122591
 20
985.47596133740444
 30
0.0
 40
4.0
 50
244.69629597204241
 51
270.00000000000028
  0
LINE
  5
3E34
  8
0
 10
1308.326576593257
 20
988.47596133740421
 30
0.0
 11
1306.1932432599231
 21
996.47596133740433
 31
0.0
  0
LINE
  5
3E35
  8
0
 10
1319.6932432599231
 20
981.4759613374041
 30
0.0
 11
1319.6932432599231
 21
948.4759613374041
 31
0.0
  0
LINE
  5
3E36
  8
0
 10
1326.1932432599219
 20
1083.975961337404
 30
0.0
 11
1269.5909750510009
 21
1094.801081826582
 31
0.0
  0
ARC
  5
3E37
  8
0
 10
1296.888103026349
 20
1081.0357909501399
 30
0.0
 40
6.0
 50
197.8874931379178
 51
303.93093371545939
  0
ARC
  5
3E38
  8
0
 10
1271.1932432599231
 20
1072.7427708980899
 30
0.0
 40
21.0
 50
17.887493137918021
 51
71.873796039443235
  0
LINE
  5
3E39
  8
0
 10
1234.1932432599231
 20
1029.9654631282931
 30
0.0
 11
1280.1932432599231
 21
1029.9654631282931
 31
0.0
  0
ARC
  5
3E3A
  8
0
 10
1234.1932432599231
 20
1026.965463128294
 30
0.0
 40
3.0
 50
90.0
 51
180.0
  0
ARC
  5
3E3B
  8
0
 10
1280.1932432599231
 20
1026.965463128294
 30
0.0
 40
3.0
 50
0.0
 51
90.0
  0
LINE
  5
3E3C
  8
0
 10
1257.1932432599231
 20
1095.975961337404
 30
0.0
 11
1224.1932432599231
 21
1095.975961337404
 31
0.0
  0
LINE
  5
3E3D
  8
0
 10
1257.1932432599231
 20
1095.975961337404
 30
0.0
 11
1239.4308577956331
 21
1095.975961337404
 31
0.0
  0
LINE
  5
3E3E
  8
0
 10
1231.270280466292
 20
1095.975961337404
 30
0.0
 11
1220.836286414265
 21
1095.975961337404
 31
0.0
  0
ARC
  5
3E3F
  8
0
 10
1257.1932432599231
 20
1029.975961337404
 30
0.0
 40
66.0
 50
71.873796039443263
 51
90.0
  0
LINE
  5
3E40
  8
0
 10
1340.6932432599231
 20
1033.975961337404
 30
0.0
 11
1321.1932432599231
 21
1033.975961337404
 31
0.0
  0
LINE
  5
3E41
  8
0
 10
1340.6932432599231
 20
1083.975961337404
 30
0.0
 11
1325.1932432599231
 21
1083.975961337404
 31
0.0
  0
ARC
  5
3E42
  8
0
 10
1326.1932432599231
 20
1037.475961337404
 30
0.0
 40
46.5
 50
90.0
 51
123.9309337154594
  0
ARC
  5
3E43
  8
0
 10
1290.1932432599231
 20
1045.0534654818989
 30
0.0
 40
16.0
 50
0.0
 51
65.984772547137894
  0
ARC
  5
3E44
  8
0
 10
1321.1932432599231
 20
1018.975961337404
 30
0.0
 40
15.0
 50
90.0
 51
180.0
  0
LINE
  5
3E45
  8
0
 10
1342.1932432599231
 20
1035.475961337404
 30
0.0
 11
1340.6932432599231
 21
1033.975961337404
 31
0.0
  0
LINE
  5
3E46
  8
0
 10
1340.6932432599231
 20
1083.975961337404
 30
0.0
 11
1342.1932432599231
 21
1082.475961337404
 31
0.0
  0
LINE
  5
3E47
  8
0
 10
1340.6932432599231
 20
1083.975961337404
 30
0.0
 11
1340.6932432599231
 21
1033.975961337404
 31
0.0
  0
LINE
  5
3E48
  8
0
 10
1342.1932432599231
 20
1082.475961337404
 30
0.0
 11
1342.1932432599231
 21
1058.975961337404
 31
0.0
  0
LINE
  5
3E49
  8
0
 10
1342.1932432599231
 20
1035.475961337404
 30
0.0
 11
1342.1932432599231
 21
1058.975961337404
 31
0.0
  0
TEXT
  5
3E51
  8
0
 10
711.13482478275728
 20
77.881484627152986
 30
0.0
 40
30.0
  1
TLV  DC3S,DC3A (Screw)
 41
0.8
  0
LINE
  5
3FCD
  8
0
 10
584.84546818095066
 20
963.64237067968429
 30
0.0
 11
584.84546818095066
 21
937.64237067968395
 31
0.0
  0
LINE
  5
3FCE
  8
0
 10
481.84546818095049
 20
963.64237067968429
 30
0.0
 11
481.845468180951
 21
937.64237067968395
 31
0.0
  0
ARC
  5
3FCF
  8
0
 10
564.05038598713691
 20
843.64237067968406
 30
0.0
 40
6.0
 50
105.7539900124942
 51
159.99999999999989
  0
LINE
  5
3FD2
  8
0
 10
582.84546818095077
 20
935.64237067968395
 30
0.0
 11
483.84546818095089
 21
935.64237067968395
 31
0.0
  0
LINE
  5
3FD3
  8
0
 10
584.84546818095055
 20
864.64237067968395
 30
0.0
 11
481.84546818095072
 21
864.64237067968395
 31
0.0
  0
LINE
  5
3FD4
  8
0
 10
584.84546818095055
 20
864.64237067968395
 30
0.0
 11
481.84546818095072
 21
864.64237067968395
 31
0.0
  0
LINE
  5
3FD5
  8
0
 10
582.84546818095055
 20
879.64237067968395
 30
0.0
 11
483.84546818095072
 21
879.64237067968395
 31
0.0
  0
LINE
  5
3FD6
  8
0
 10
582.84546818095055
 20
849.64237067968406
 30
0.0
 11
483.84546818095049
 21
849.64237067968406
 31
0.0
  0
LINE
  5
3FD7
  8
0
 10
481.84546818095049
 20
877.64237067968395
 30
0.0
 11
481.84546818095049
 21
851.64237067968406
 31
0.0
  0
LINE
  5
3FD8
  8
0
 10
520.34546818095055
 20
819.64237067968418
 30
0.0
 11
506.34546818095049
 21
819.64237067968418
 31
0.0
  0
LINE
  5
3FD9
  8
0
 10
504.26959521569057
 20
842.54637067968417
 30
0.0
 11
504.26959521569057
 21
849.64237067968406
 31
0.0
  0
LINE
  5
3FDA
  8
0
 10
502.70459521569052
 20
841.64237067968406
 30
0.0
 11
504.26959521569057
 21
842.54637067968417
 31
0.0
  0
ARC
  5
3FDB
  8
0
 10
494.45459521569052
 20
859.30536227279754
 30
0.0
 40
17.462601416113358
 50
253.68007233167191
 51
286.31992766832809
  0
LINE
  5
3FDC
  8
0
 10
498.64259521569062
 20
837.64237067968418
 30
0.0
 11
490.26659521569047
 21
837.64237067968418
 31
0.0
  0
LINE
  5
3FDD
  8
0
 10
484.63959521569052
 20
849.64237067968406
 30
0.0
 11
484.63959521569052
 21
842.54637067968417
 31
0.0
  0
LINE
  5
3FDE
  8
0
 10
489.54759521569059
 20
842.54637067968417
 30
0.0
 11
489.54759521569059
 21
849.64237067968406
 31
0.0
  0
LINE
  5
3FDF
  8
0
 10
484.63959521569052
 20
842.54637067968417
 30
0.0
 11
486.20459521569052
 21
841.64237067968406
 31
0.0
  0
LINE
  5
3FE0
  8
0
 10
499.45459521569052
 20
841.64237067968406
 30
0.0
 11
499.45459521569052
 21
838.45437067968419
 31
0.0
  0
LINE
  5
3FE1
  8
0
 10
499.3615952156905
 20
842.54637067968417
 30
0.0
 11
499.3615952156905
 21
849.64237067968406
 31
0.0
  0
LINE
  5
3FE2
  8
0
 10
499.45459521569052
 20
838.45437067968419
 30
0.0
 11
498.64259521569062
 21
837.64237067968418
 31
0.0
  0
LINE
  5
3FE3
  8
0
 10
489.45459521569057
 20
838.45437067968419
 30
0.0
 11
499.45459521569052
 21
838.45437067968419
 31
0.0
  0
LINE
  5
3FE4
  8
0
 10
486.20459521569052
 20
841.64237067968406
 30
0.0
 11
502.70459521569052
 21
841.64237067968406
 31
0.0
  0
ARC
  5
3FE5
  8
0
 10
501.81559521569039
 20
846.47369474510106
 30
0.0
 40
4.6309815714167701
 50
238.00067615949061
 51
301.99932384050959
  0
LINE
  5
3FE6
  8
0
 10
489.45459521569057
 20
838.45437067968419
 30
0.0
 11
489.45459521569057
 21
841.64237067968406
 31
0.0
  0
LINE
  5
3FE7
  8
0
 10
490.26659521569047
 20
837.64237067968418
 30
0.0
 11
489.45459521569057
 21
838.45437067968419
 31
0.0
  0
ARC
  5
3FE8
  8
0
 10
487.09359521569093
 20
846.47369474510106
 30
0.0
 40
4.6309815714167701
 50
238.00067615949041
 51
301.99932384050931
  0
LINE
  5
3FE9
  8
0
 10
506.34546818095049
 20
819.64237067968418
 30
0.0
 11
492.34546818095049
 21
819.64237067968418
 31
0.0
  0
ARC
  5
3FEA
  8
0
 10
483.84546818095049
 20
851.64237067968406
 30
0.0
 40
2.0
 50
180.0
 51
270.0
  0
LINE
  5
3FEB
  8
0
 10
490.34546818095072
 20
837.64237067968418
 30
0.0
 11
490.34546818095049
 21
821.64237067968418
 31
0.0
  0
ARC
  5
3FEC
  8
0
 10
492.34546818095049
 20
821.64237067968418
 30
0.0
 40
2.0
 50
180.0
 51
269.99999999999989
  0
LINE
  5
3FED
  8
0
 10
525.01446818095076
 20
835.64237067968418
 30
0.0
 11
525.10198348504866
 21
838.44417890881107
 31
0.0
  0
LINE
  5
3FEE
  8
0
 10
541.67646818095045
 20
835.64237067968418
 30
0.0
 11
541.5827622985978
 21
838.64237067968418
 31
0.0
  0
LINE
  5
3FEF
  8
0
 10
540.82046818095057
 20
835.64237067968418
 30
0.0
 11
540.72733294581519
 21
838.62410137140046
 31
0.0
  0
LINE
  5
3FF0
  8
0
 10
525.87046818095075
 20
835.64237067968418
 30
0.0
 11
525.96417406330363
 21
838.64237067968418
 31
0.0
  0
LINE
  5
3FF1
  8
0
 10
541.67646818095045
 20
826.64237067968406
 30
0.0
 11
541.67646818095045
 21
835.64237067968395
 31
0.0
  0
LINE
  5
3FF2
  8
0
 10
525.01446818095076
 20
826.64237067968406
 30
0.0
 11
525.01446818095076
 21
835.64237067968395
 31
0.0
  0
LINE
  5
3FF3
  8
0
 10
525.01446818095076
 20
835.64237067968418
 30
0.0
 11
541.67646818095045
 21
835.64237067968418
 31
0.0
  0
LINE
  5
3FF4
  8
0
 10
525.01446818095076
 20
826.64237067968406
 30
0.0
 11
541.67646818095045
 21
826.64237067968406
 31
0.0
  0
LINE
  5
3FF5
  8
0
 10
533.34546818095055
 20
826.64237067968406
 30
0.0
 11
533.34546818095055
 21
835.64237067968418
 31
0.0
  0
ARC
  5
3FF6
  8
0
 10
548.84339279885353
 20
848.64237067968406
 30
0.0
 40
10.0
 50
270.0
 51
339.99999999999949
  0
LINE
  5
3FF7
  8
0
 10
558.41223026242164
 20
845.69449153963819
 30
0.0
 11
558.24031900671241
 21
845.22216924642737
 31
0.0
  0
LINE
  5
3FF8
  8
0
 10
522.34546818095055
 20
849.64237067968406
 30
0.0
 11
522.34546818095055
 21
821.64237067968418
 31
0.0
  0
ARC
  5
3FF9
  8
0
 10
520.34546818095055
 20
821.64237067968418
 30
0.0
 40
2.0
 50
269.99999999999989
 51
0.0
  0
ARC
  5
3FFA
  8
0
 10
526.34546818095055
 20
834.64237067968406
 30
0.0
 40
4.0
 50
90.0
 51
180.0
  0
LINE
  5
3FFB
  8
0
 10
548.84339279885353
 20
838.64237067968418
 30
0.0
 11
526.34546818095055
 21
838.64237067968418
 31
0.0
  0
LINE
  5
3FFC
  8
0
 10
499.45459521569052
 20
879.64237067968395
 30
0.0
 11
499.45459521569052
 21
880.64237067968395
 31
0.0
  0
LINE
  5
3FFD
  8
0
 10
489.45459521569057
 20
879.64237067968395
 30
0.0
 11
489.45459521569057
 21
880.64237067968395
 31
0.0
  0
LINE
  5
3FFE
  8
0
 10
489.45459521569057
 20
880.64237067968395
 30
0.0
 11
499.45459521569052
 21
880.64237067968395
 31
0.0
  0
LINE
  5
3FFF
  8
0
 10
498.64259521569062
 20
881.45437067968408
 30
0.0
 11
490.26659521569047
 21
881.45437067968408
 31
0.0
  0
LINE
  5
4000
  8
0
 10
499.45459521569052
 20
880.64237067968395
 30
0.0
 11
498.64259521569062
 21
881.45437067968408
 31
0.0
  0
LINE
  5
4001
  8
0
 10
490.26659521569047
 20
881.45437067968408
 30
0.0
 11
489.45459521569057
 21
880.64237067968395
 31
0.0
  0
ARC
  5
4002
  8
0
 10
487.09359521569093
 20
932.47369474510106
 30
0.0
 40
4.6309815714167701
 50
238.00067615949041
 51
301.99932384050931
  0
LINE
  5
4003
  8
0
 10
490.26659521569047
 20
923.64237067968429
 30
0.0
 11
489.45459521569057
 21
924.45437067968408
 31
0.0
  0
LINE
  5
4004
  8
0
 10
489.45459521569057
 20
924.45437067968408
 30
0.0
 11
489.45459521569057
 21
927.64237067968418
 31
0.0
  0
ARC
  5
4005
  8
0
 10
501.81559521569039
 20
932.47369474510106
 30
0.0
 40
4.6309815714167701
 50
238.00067615949061
 51
301.99932384050959
  0
LINE
  5
4006
  8
0
 10
486.20459521569052
 20
927.64237067968418
 30
0.0
 11
502.70459521569052
 21
927.64237067968418
 31
0.0
  0
LINE
  5
4007
  8
0
 10
489.45459521569057
 20
924.45437067968408
 30
0.0
 11
499.45459521569052
 21
924.45437067968408
 31
0.0
  0
LINE
  5
4008
  8
0
 10
499.45459521569052
 20
924.45437067968408
 30
0.0
 11
498.64259521569062
 21
923.64237067968429
 31
0.0
  0
LINE
  5
4009
  8
0
 10
499.3615952156905
 20
928.54637067968429
 30
0.0
 11
499.3615952156905
 21
935.64237067968418
 31
0.0
  0
LINE
  5
400A
  8
0
 10
499.45459521569052
 20
927.64237067968418
 30
0.0
 11
499.45459521569052
 21
924.45437067968408
 31
0.0
  0
LINE
  5
400B
  8
0
 10
484.63959521569052
 20
928.54637067968429
 30
0.0
 11
486.20459521569052
 21
927.64237067968418
 31
0.0
  0
LINE
  5
400C
  8
0
 10
489.54759521569059
 20
928.54637067968429
 30
0.0
 11
489.54759521569059
 21
935.64237067968418
 31
0.0
  0
LINE
  5
400D
  8
0
 10
484.63959521569052
 20
935.64237067968418
 30
0.0
 11
484.63959521569052
 21
928.54637067968429
 31
0.0
  0
LINE
  5
400E
  8
0
 10
498.64259521569062
 20
923.64237067968429
 30
0.0
 11
490.26659521569047
 21
923.64237067968429
 31
0.0
  0
ARC
  5
400F
  8
0
 10
494.45459521569052
 20
945.30536227279765
 30
0.0
 40
17.462601416113358
 50
253.68007233167191
 51
286.31992766832809
  0
LINE
  5
4010
  8
0
 10
502.70459521569052
 20
927.64237067968418
 30
0.0
 11
504.26959521569057
 21
928.54637067968429
 31
0.0
  0
LINE
  5
4011
  8
0
 10
504.26959521569057
 20
928.54637067968429
 30
0.0
 11
504.26959521569057
 21
935.64237067968418
 31
0.0
  0
ARC
  5
4012
  8
0
 10
483.84546818095089
 20
937.64237067968395
 30
0.0
 40
2.0
 50
180.00000000000091
 51
270.0
  0
ARC
  5
4013
  8
0
 10
483.84546818095072
 20
877.64237067968395
 30
0.0
 40
2.0
 50
90.0
 51
180.0
  0
ARC
  5
4014
  8
0
 10
483.87459403426681
 20
882.64237067968406
 30
0.0
 40
3.0
 50
270.0
 51
348.95142696362859
  0
LINE
  5
4015
  8
0
 10
488.2980706334983
 20
889.64237067968395
 30
0.0
 11
486.81898924606543
 21
882.06744734850145
 31
0.0
  0
LINE
  5
4016
  8
0
 10
492.32254915569092
 20
923.64237067968395
 30
0.0
 11
488.2980706334983
 21
889.64237067968452
 31
0.0
  0
LINE
  5
4017
  8
0
 10
584.84546818095055
 20
877.64237067968395
 30
0.0
 11
584.84546818095055
 21
851.64237067968406
 31
0.0
  0
ARC
  5
4018
  8
0
 10
579.5973411462104
 20
846.47369474510106
 30
0.0
 40
4.6309815714167701
 50
238.00067615949069
 51
301.99932384050959
  0
LINE
  5
4019
  8
0
 10
576.42434114621085
 20
837.64237067968418
 30
0.0
 11
577.23634114621075
 21
838.45437067968419
 31
0.0
  0
LINE
  5
401A
  8
0
 10
577.23634114621075
 20
838.45437067968419
 30
0.0
 11
577.23634114621075
 21
841.64237067968406
 31
0.0
  0
LINE
  5
401B
  8
0
 10
582.05134114621069
 20
842.54637067968417
 30
0.0
 11
580.48634114621075
 21
841.64237067968406
 31
0.0
  0
LINE
  5
401C
  8
0
 10
577.14334114621067
 20
842.54637067968417
 30
0.0
 11
577.14334114621067
 21
849.64237067968406
 31
0.0
  0
LINE
  5
401D
  8
0
 10
582.05134114621069
 20
849.64237067968406
 30
0.0
 11
582.05134114621069
 21
842.54637067968417
 31
0.0
  0
ARC
  5
401E
  8
0
 10
564.87534114621076
 20
846.47369474510106
 30
0.0
 40
4.6309815714167701
 50
238.00067615949041
 51
301.99932384050942
  0
LINE
  5
401F
  8
0
 10
567.23634114621075
 20
838.45437067968419
 30
0.0
 11
568.04834114621065
 21
837.64237067968418
 31
0.0
  0
LINE
  5
4020
  8
0
 10
567.32934114621082
 20
842.54637067968417
 30
0.0
 11
567.32934114621082
 21
849.64237067968406
 31
0.0
  0
LINE
  5
4021
  8
0
 10
567.23634114621075
 20
841.64237067968406
 30
0.0
 11
567.23634114621075
 21
838.45437067968419
 31
0.0
  0
LINE
  5
4022
  8
0
 10
563.98634114621075
 20
841.64237067968406
 30
0.0
 11
562.42134114621069
 21
842.54637067968417
 31
0.0
  0
LINE
  5
4023
  8
0
 10
562.42134114621069
 20
842.54637067968417
 30
0.0
 11
562.42134114621069
 21
849.64237067968406
 31
0.0
  0
LINE
  5
4024
  8
0
 10
580.48634114621075
 20
841.64237067968406
 30
0.0
 11
563.98634114621075
 21
841.64237067968406
 31
0.0
  0
LINE
  5
4025
  8
0
 10
577.23634114621075
 20
838.45437067968419
 30
0.0
 11
567.23634114621075
 21
838.45437067968419
 31
0.0
  0
LINE
  5
4026
  8
0
 10
568.04834114621065
 20
837.64237067968418
 30
0.0
 11
576.42434114621085
 21
837.64237067968418
 31
0.0
  0
ARC
  5
4027
  8
0
 10
572.23634114621075
 20
859.30536227279754
 30
0.0
 40
17.462601416113358
 50
253.68007233167191
 51
286.31992766832809
  0
ARC
  5
4028
  8
0
 10
582.84546818095055
 20
851.64237067968406
 30
0.0
 40
2.0
 50
270.0
 51
0.0
  0
LINE
  5
4029
  8
0
 10
577.23634114621075
 20
879.64237067968395
 30
0.0
 11
577.23634114621075
 21
880.64237067968395
 31
0.0
  0
LINE
  5
402A
  8
0
 10
577.23634114621075
 20
880.64237067968395
 30
0.0
 11
576.42434114621085
 21
881.45437067968408
 31
0.0
  0
LINE
  5
402B
  8
0
 10
567.23634114621075
 20
879.64237067968395
 30
0.0
 11
567.23634114621075
 21
880.64237067968395
 31
0.0
  0
LINE
  5
402C
  8
0
 10
568.04834114621065
 20
881.45437067968408
 30
0.0
 11
567.23634114621075
 21
880.64237067968395
 31
0.0
  0
LINE
  5
402D
  8
0
 10
577.23634114621075
 20
880.64237067968395
 30
0.0
 11
567.23634114621075
 21
880.64237067968395
 31
0.0
  0
LINE
  5
402E
  8
0
 10
576.42434114621085
 20
881.45437067968408
 30
0.0
 11
568.04834114621065
 21
881.45437067968408
 31
0.0
  0
ARC
  5
402F
  8
0
 10
572.23634114621075
 20
945.30536227279765
 30
0.0
 40
17.462601416113358
 50
253.68007233167191
 51
286.31992766832809
  0
LINE
  5
4030
  8
0
 10
568.04834114621065
 20
923.64237067968429
 30
0.0
 11
576.42434114621085
 21
923.64237067968429
 31
0.0
  0
LINE
  5
4031
  8
0
 10
577.23634114621075
 20
924.45437067968408
 30
0.0
 11
567.23634114621075
 21
924.45437067968408
 31
0.0
  0
LINE
  5
4032
  8
0
 10
580.48634114621075
 20
927.64237067968418
 30
0.0
 11
563.98634114621075
 21
927.64237067968418
 31
0.0
  0
LINE
  5
4033
  8
0
 10
562.42134114621069
 20
928.54637067968429
 30
0.0
 11
562.42134114621069
 21
935.64237067968418
 31
0.0
  0
LINE
  5
4034
  8
0
 10
563.98634114621075
 20
927.64237067968418
 30
0.0
 11
562.42134114621069
 21
928.54637067968429
 31
0.0
  0
LINE
  5
4035
  8
0
 10
567.23634114621075
 20
927.64237067968418
 30
0.0
 11
567.23634114621075
 21
924.45437067968408
 31
0.0
  0
LINE
  5
4036
  8
0
 10
567.32934114621082
 20
928.54637067968429
 30
0.0
 11
567.32934114621082
 21
935.64237067968418
 31
0.0
  0
LINE
  5
4037
  8
0
 10
567.23634114621075
 20
924.45437067968408
 30
0.0
 11
568.04834114621065
 21
923.64237067968429
 31
0.0
  0
ARC
  5
4038
  8
0
 10
564.87534114621076
 20
932.47369474510106
 30
0.0
 40
4.6309815714167701
 50
238.00067615949041
 51
301.99932384050942
  0
LINE
  5
4039
  8
0
 10
582.05134114621069
 20
935.64237067968418
 30
0.0
 11
582.05134114621069
 21
928.54637067968429
 31
0.0
  0
LINE
  5
403A
  8
0
 10
577.14334114621067
 20
928.54637067968429
 30
0.0
 11
577.14334114621067
 21
935.64237067968418
 31
0.0
  0
LINE
  5
403B
  8
0
 10
582.05134114621069
 20
928.54637067968429
 30
0.0
 11
580.48634114621075
 21
927.64237067968418
 31
0.0
  0
LINE
  5
403C
  8
0
 10
577.23634114621075
 20
924.45437067968408
 30
0.0
 11
577.23634114621075
 21
927.64237067968418
 31
0.0
  0
LINE
  5
403D
  8
0
 10
576.42434114621085
 20
923.64237067968429
 30
0.0
 11
577.23634114621075
 21
924.45437067968408
 31
0.0
  0
ARC
  5
403E
  8
0
 10
579.5973411462104
 20
932.47369474510106
 30
0.0
 40
4.6309815714167701
 50
238.00067615949069
 51
301.99932384050959
  0
ARC
  5
403F
  8
0
 10
582.84546818095077
 20
937.64237067968395
 30
0.0
 40
2.0
 50
270.0
 51
0.0
  0
ARC
  5
4040
  8
0
 10
582.84546818095055
 20
877.64237067968395
 30
0.0
 40
2.0
 50
0.0
 51
90.0
  0
ARC
  5
4041
  8
0
 10
582.81635887318578
 20
882.64228594378619
 30
0.0
 40
3.0
 50
191.0485730363682
 51
270.43063739823288
  0
LINE
  5
4042
  8
0
 10
578.39286572840319
 20
889.64237067968224
 30
0.0
 11
579.87196366138733
 21
882.06736261260369
 31
0.0
  0
LINE
  5
4043
  8
0
 10
574.36838720621267
 20
923.64237067968224
 30
0.0
 11
578.39286572840319
 21
889.6423706796827
 31
0.0
  0
ARC
  5
4044
  8
0
 10
547.34546818095055
 20
1041.969414144995
 30
0.0
 40
18.0
 50
14.76459728088558
 51
68.381727577841872
  0
LINE
  5
4045
  8
0
 10
593.34546818095055
 20
1049.1078497694989
 30
0.0
 11
547.21197565442617
 21
1060.8984299771309
 31
0.0
  0
ARC
  5
4046
  8
0
 10
560.34546818095055
 20
1018.6423706796839
 30
0.0
 40
18.0
 50
359.99999999999977
 51
89.999999999999943
  0
LINE
  5
4047
  8
0
 10
582.84546818095055
 20
965.64237067968429
 30
0.0
 11
483.84546818095049
 21
965.64237067968429
 31
0.0
  0
LINE
  5
4048
  8
0
 10
584.84546818095055
 20
950.64237067968406
 30
0.0
 11
481.84546818095049
 21
950.64237067968429
 31
0.0
  0
LINE
  5
4049
  8
0
 10
458.34546818095077
 20
1028.6423706796841
 30
0.0
 11
458.3454681809506
 21
1009.6423706796839
 31
0.0
  0
LINE
  5
404A
  8
0
 10
488.34546818095072
 20
1017.261050645187
 30
0.0
 11
488.34546818095072
 21
1024.6423706796841
 31
0.0
  0
LINE
  5
404B
  8
0
 10
459.84546818095072
 20
1049.1423706796841
 30
0.0
 11
459.8454681809506
 21
1008.1423706796839
 31
0.0
  0
ARC
  5
404C
  8
0
 10
510.34546818095049
 20
978.64237067968395
 30
0.0
 40
3.0
 50
180.0
 51
270.0
  0
ARC
  5
404D
  8
0
 10
510.34546818095049
 20
1006.1423706796839
 30
0.0
 40
3.0
 50
90.0
 51
180.0
  0
LINE
  5
404E
  8
0
 10
490.26659521569047
 20
967.45437067968442
 30
0.0
 11
489.45459521569057
 21
966.64237067968429
 31
0.0
  0
LINE
  5
404F
  8
0
 10
499.45459521569052
 20
966.64237067968429
 30
0.0
 11
498.64259521569062
 21
967.45437067968442
 31
0.0
  0
LINE
  5
4050
  8
0
 10
498.64259521569062
 20
967.45437067968442
 30
0.0
 11
490.26659521569047
 21
967.45437067968442
 31
0.0
  0
LINE
  5
4051
  8
0
 10
489.45459521569057
 20
966.64237067968429
 30
0.0
 11
499.45459521569052
 21
966.64237067968429
 31
0.0
  0
LINE
  5
4052
  8
0
 10
489.45459521569057
 20
965.64237067968429
 30
0.0
 11
489.45459521569057
 21
966.64237067968429
 31
0.0
  0
LINE
  5
4053
  8
0
 10
499.45459521569052
 20
965.64237067968429
 30
0.0
 11
499.45459521569052
 21
966.64237067968429
 31
0.0
  0
LINE
  5
4054
  8
0
 10
488.34546818095049
 20
980.64237067968429
 30
0.0
 11
485.8084520039763
 21
967.9572897948126
 31
0.0
  0
ARC
  5
4055
  8
0
 10
482.86670997690339
 20
968.54563820022713
 30
0.0
 40
3.0
 50
281.28863569399323
 51
348.69006752598023
  0
ARC
  5
4056
  8
0
 10
483.84546818095049
 20
963.64237067968429
 30
0.0
 40
2.0
 50
90.0
 51
180.0000000000002
  0
LINE
  5
4057
  8
0
 10
488.34546818095049
 20
1003.976011517139
 30
0.0
 11
488.34546818095049
 21
980.64237067968395
 31
0.0
  0
LINE
  5
4058
  8
0
 10
507.34546818095049
 20
1006.1423706796839
 30
0.0
 11
507.34546818095049
 21
978.64237067968395
 31
0.0
  0
ARC
  5
4059
  8
0
 10
482.34546818095049
 20
1003.976011517139
 30
0.0
 40
6.0
 50
0.0
 51
106.0571327224539
  0
LINE
  5
405A
  8
0
 10
459.8454681809506
 20
1008.1423706796839
 30
0.0
 11
458.3454681809506
 21
1009.6423706796839
 31
0.0
  0
LINE
  5
405B
  8
0
 10
469.34546818095049
 20
1008.1423706796839
 30
0.0
 11
459.8454681809506
 21
1008.1423706796839
 31
0.0
  0
ARC
  5
405C
  8
0
 10
469.34546818095049
 20
1049.1423706796841
 30
0.0
 40
41.0
 50
270.0
 51
286.05713272245379
  0
ARC
  5
405D
  8
0
 10
556.34546818095055
 20
978.64237067968395
 30
0.0
 40
3.0
 50
270.0
 51
0.0
  0
LINE
  5
405E
  8
0
 10
559.34546818095055
 20
1006.1423706796839
 30
0.0
 11
559.34546818095055
 21
978.64237067968395
 31
0.0
  0
ARC
  5
405F
  8
0
 10
556.34546818095055
 20
1006.1423706796839
 30
0.0
 40
3.0
 50
0.0
 51
90.0
  0
LINE
  5
4060
  8
0
 10
556.34546818095055
 20
975.64237067968406
 30
0.0
 11
510.34546818095049
 21
975.64237067968406
 31
0.0
  0
LINE
  5
4061
  8
0
 10
556.34546818095055
 20
1009.1423706796839
 30
0.0
 11
510.34546818095049
 21
1009.1423706796839
 31
0.0
  0
ARC
  5
4062
  8
0
 10
510.67040012281831
 20
1021.6423706796839
 30
0.0
 40
41.0
 50
90.0
 51
132.66792549410829
  0
LINE
  5
4063
  8
0
 10
560.34546818095055
 20
1036.6423706796841
 30
0.0
 11
500.34546818095072
 21
1036.6423706796841
 31
0.0
  0
ARC
  5
4064
  8
0
 10
500.34546818095072
 20
1024.6423706796841
 30
0.0
 40
12.0
 50
89.999999999999943
 51
179.99999999999989
  0
LINE
  5
4065
  8
0
 10
465.34546818095049
 20
1030.6423706796841
 30
0.0
 11
473.34546818095049
 21
1030.6423706796841
 31
0.0
  0
LINE
  5
4066
  8
0
 10
465.34546818095049
 20
1026.6423706796841
 30
0.0
 11
473.34546818095049
 21
1026.6423706796841
 31
0.0
  0
ARC
  5
4067
  8
0
 10
465.34546818095049
 20
1028.6423706796841
 30
0.0
 40
2.0
 50
90.0
 51
270.0
  0
ARC
  5
4068
  8
0
 10
473.34546818095049
 20
1028.6423706796841
 30
0.0
 40
2.0
 50
270.0
 51
90.0
  0
LINE
  5
4069
  8
0
 10
476.10524425740948
 20
1049.1423706796841
 30
0.0
 11
459.84546818095072
 21
1049.1423706796841
 31
0.0
  0
LINE
  5
406A
  8
0
 10
459.84546818095072
 20
1049.1423706796841
 30
0.0
 11
458.34546818095077
 21
1047.6423706796841
 31
0.0
  0
LINE
  5
406B
  8
0
 10
458.34546818095077
 20
1047.6423706796841
 30
0.0
 11
458.34546818095077
 21
1028.6423706796841
 31
0.0
  0
ARC
  5
406C
  8
0
 10
476.10524425740948
 20
1059.1423706796841
 30
0.0
 40
10.0
 50
270.0
 51
312.66792549410832
  0
ARC
  5
406D
  8
0
 10
533.34546818095055
 20
1006.6423706796839
 30
0.0
 40
56.0
 50
68.381727577841872
 51
90.0
  0
LINE
  5
406E
  8
0
 10
533.34546818095055
 20
1062.6423706796841
 30
0.0
 11
510.67040012281831
 21
1062.6423706796841
 31
0.0
  0
LINE
  5
406F
  8
0
 10
608.34546818095055
 20
1028.6423706796841
 30
0.0
 11
608.34546818095055
 21
1009.6423706796839
 31
0.0
  0
LINE
  5
4070
  8
0
 10
606.84546818095055
 20
1049.1423706796841
 30
0.0
 11
606.84546818095055
 21
1008.1423706796839
 31
0.0
  0
LINE
  5
4071
  8
0
 10
608.34546818095055
 20
1009.6423706796839
 30
0.0
 11
606.84546818095055
 21
1008.1423706796839
 31
0.0
  0
LINE
  5
4072
  8
0
 10
606.84546818095055
 20
1008.1423706796839
 30
0.0
 11
588.34546818095055
 21
1008.1423706796839
 31
0.0
  0
LINE
  5
4073
  8
0
 10
576.42434114621085
 20
967.45437067968442
 30
0.0
 11
568.04834114621065
 21
967.45437067968442
 31
0.0
  0
LINE
  5
4074
  8
0
 10
577.23634114621075
 20
966.64237067968429
 30
0.0
 11
567.23634114621075
 21
966.64237067968429
 31
0.0
  0
LINE
  5
4075
  8
0
 10
568.04834114621065
 20
967.45437067968442
 30
0.0
 11
567.23634114621075
 21
966.64237067968429
 31
0.0
  0
LINE
  5
4076
  8
0
 10
567.23634114621075
 20
965.64237067968429
 30
0.0
 11
567.23634114621075
 21
966.64237067968429
 31
0.0
  0
LINE
  5
4077
  8
0
 10
577.23634114621075
 20
966.64237067968429
 30
0.0
 11
576.42434114621085
 21
967.45437067968442
 31
0.0
  0
LINE
  5
4078
  8
0
 10
577.23634114621075
 20
965.64237067968429
 30
0.0
 11
577.23634114621075
 21
966.64237067968429
 31
0.0
  0
LINE
  5
4079
  8
0
 10
578.34546818095055
 20
980.64237067968395
 30
0.0
 11
580.88248435792491
 21
967.9572897948126
 31
0.0
  0
ARC
  5
407A
  8
0
 10
583.82422638499759
 20
968.54563820022713
 30
0.0
 40
3.0
 50
191.30993247401969
 51
258.71136430600677
  0
ARC
  5
407B
  8
0
 10
582.84546818095055
 20
963.64237067968429
 30
0.0
 40
2.0
 50
0.0
 51
89.999999999999943
  0
LINE
  5
407C
  8
0
 10
578.34546818095055
 20
998.14237067968395
 30
0.0
 11
578.34546818095055
 21
980.64237067968429
 31
0.0
  0
ARC
  5
407D
  8
0
 10
588.34546818095055
 20
998.14237067968395
 30
0.0
 40
10.0
 50
90.0
 51
180.0
  0
ARC
  5
407E
  8
0
 10
593.34546818095055
 20
1028.6423706796841
 30
0.0
 40
2.0
 50
90.0
 51
270.0
  0
ARC
  5
407F
  8
0
 10
601.34546818095055
 20
1028.6423706796841
 30
0.0
 40
2.0
 50
270.0
 51
90.0
  0
LINE
  5
4080
  8
0
 10
601.34546818095055
 20
1026.6423706796841
 30
0.0
 11
593.34546818095055
 21
1026.6423706796841
 31
0.0
  0
LINE
  5
4081
  8
0
 10
601.34546818095055
 20
1030.6423706796841
 30
0.0
 11
593.34546818095055
 21
1030.6423706796841
 31
0.0
  0
LINE
  5
4082
  8
0
 10
606.84546818095055
 20
1049.1423706796841
 30
0.0
 11
594.26312647374402
 21
1049.1423706796841
 31
0.0
  0
LINE
  5
4083
  8
0
 10
606.84546818095055
 20
1049.1423706796841
 30
0.0
 11
608.34546818095055
 21
1047.6423706796841
 31
0.0
  0
LINE
  5
4084
  8
0
 10
608.34546818095055
 20
1047.6423706796841
 30
0.0
 11
608.34546818095055
 21
1028.6423706796841
 31
0.0
  0
ARC
  5
4085
  8
0
 10
570.55301319940531
 20
1048.0857737008421
 30
0.0
 40
6.0
 50
194.76459728088631
 51
301.83663040491189
  0
ARC
  5
4086
  8
0
 10
595.34546818095055
 20
1008.156659310612
 30
0.0
 40
41.0
 50
90.0
 51
121.8366304049122
  0
LINE
  5
4100
  8
0
 10
1179.1932432599231
 20
504.16918452291509
 30
0.0
 11
1187.1932432599231
 21
504.16918452291509
 31
0.0
  0
LINE
  5
4101
  8
0
 10
1179.1932432599231
 20
500.16918452291492
 30
0.0
 11
1187.1932432599231
 21
500.1691845229152
 31
0.0
  0
ARC
  5
4102
  8
0
 10
1179.1932432599231
 20
502.16918452291492
 30
0.0
 40
2.0
 50
90.0
 51
270.0
  0
ARC
  5
4103
  8
0
 10
1187.1932432599231
 20
502.1691845229152
 30
0.0
 40
2.0
 50
270.0
 51
90.0
  0
ARC
  5
4114
  8
0
 10
1335.1932432599231
 20
502.16918452291492
 30
0.0
 40
2.0
 50
270.0
 51
90.0
  0
ARC
  5
4115
  8
0
 10
1327.1932432599231
 20
502.1691845229152
 30
0.0
 40
2.0
 50
90.0
 51
270.0
  0
LINE
  5
4116
  8
0
 10
1335.1932432599231
 20
500.16918452291492
 30
0.0
 11
1327.1932432599231
 21
500.1691845229152
 31
0.0
  0
LINE
  5
4117
  8
0
 10
1335.1932432599231
 20
504.16918452291509
 30
0.0
 11
1327.1932432599231
 21
504.16918452291509
 31
0.0
  0
ARC
  5
4120
  8
0
 10
1335.1932432599231
 20
1058.975961337404
 30
0.0
 40
2.0
 50
270.0
 51
90.0
  0
ARC
  5
4121
  8
0
 10
1327.1932432599231
 20
1058.975961337404
 30
0.0
 40
2.0
 50
90.0
 51
270.0
  0
LINE
  5
4122
  8
0
 10
1335.1932432599231
 20
1056.975961337404
 30
0.0
 11
1327.1932432599231
 21
1056.975961337404
 31
0.0
  0
LINE
  5
4123
  8
0
 10
1335.1932432599231
 20
1060.975961337404
 30
0.0
 11
1327.1932432599231
 21
1060.975961337404
 31
0.0
  0
LINE
  5
4133
  8
0
 10
1179.1932432599231
 20
1060.975961337404
 30
0.0
 11
1187.1932432599231
 21
1060.975961337404
 31
0.0
  0
LINE
  5
4134
  8
0
 10
1179.1932432599231
 20
1056.975961337404
 30
0.0
 11
1187.1932432599231
 21
1056.975961337404
 31
0.0
  0
ARC
  5
4135
  8
0
 10
1179.1932432599231
 20
1058.975961337404
 30
0.0
 40
2.0
 50
90.0
 51
270.0
  0
ARC
  5
4136
  8
0
 10
1187.1932432599231
 20
1058.975961337404
 30
0.0
 40
2.0
 50
270.0
 51
90.0
  0
LINE
  5
4151
  8
0
 10
1187.1932432599251
 20
718.78412316082495
 30
0.0
 11
1179.1932432599231
 21
718.78412316082461
 31
0.0
  0
ARC
  5
4152
  8
0
 10
1179.1932432599231
 20
716.78412316082495
 30
0.0
 40
1.9999999999999709
 50
90.0
 51
180.0
  0
ARC
  5
4153
  8
0
 10
1187.1932432599251
 20
716.78412316082495
 30
0.0
 40
1.9999999999999709
 50
0.0
 51
90.0
  0
LINE
  5
4154
  8
0
 10
1187.1932432599251
 20
664.78412316082404
 30
0.0
 11
1179.1932432599231
 21
664.78412316082415
 31
0.0
  0
ARC
  5
4155
  8
0
 10
1179.1932432599231
 20
666.78412316082404
 30
0.0
 40
1.9999999999999709
 50
180.0
 51
270.0
  0
ARC
  5
4156
  8
0
 10
1187.1932432599251
 20
666.78412316082404
 30
0.0
 40
1.9999999999999709
 50
270.0
 51
0.0
  0
LINE
  5
41C7
  8
0
 10
1327.193243259921
 20
718.78412316082495
 30
0.0
 11
1335.1932432599231
 21
718.78412316082461
 31
0.0
  0
ARC
  5
41C8
  8
0
 10
1335.1932432599231
 20
716.78412316082495
 30
0.0
 40
1.9999999999999709
 50
0.000000000000007
 51
90.0
  0
ARC
  5
41C9
  8
0
 10
1327.193243259921
 20
716.78412316082495
 30
0.0
 40
1.9999999999999709
 50
90.0
 51
180.0
  0
LINE
  5
41CA
  8
0
 10
1327.193243259921
 20
664.78412316082404
 30
0.0
 11
1335.1932432599231
 21
664.78412316082415
 31
0.0
  0
ARC
  5
41CB
  8
0
 10
1335.1932432599231
 20
666.78412316082404
 30
0.0
 40
1.9999999999999709
 50
270.0
 51
0.000000000000007
  0
ARC
  5
41CC
  8
0
 10
1327.193243259921
 20
666.78412316082404
 30
0.0
 40
1.9999999999999709
 50
180.0
 51
270.0
  0
LINE
  5
4210
  8
0
 10
1395.7063646412021
 20
1065.2782113374039
 30
0.0
 11
1376.799614641202
 21
1065.2782113374039
 31
0.0
  0
LINE
  5
4211
  8
0
 10
1357.8917396412021
 20
1058.975961337404
 30
0.0
 11
1389.4041146412021
 21
1058.975961337404
 31
0.0
  0
LINE
  5
4212
  8
0
 10
1364.3312396412009
 20
1065.2782113374039
 30
0.0
 11
1357.8917396412021
 21
1058.975961337404
 31
0.0
  0
LINE
  5
4213
  8
0
 10
1376.799614641202
 20
1065.2782113374039
 30
0.0
 11
1373.647364641201
 21
1062.1270863374041
 31
0.0
  0
LINE
  5
4214
  8
0
 10
1364.3312396412009
 20
1062.1270863374041
 30
0.0
 11
1364.3312396412009
 21
1065.2782113374039
 31
0.0
  0
LINE
  5
4215
  8
0
 10
1373.647364641201
 20
1062.1270863374041
 30
0.0
 11
1364.3312396412009
 21
1062.1270863374041
 31
0.0
  0
LINE
  5
4216
  8
0
 10
1389.4041146412021
 20
1058.975961337404
 30
0.0
 11
1395.7063646412021
 21
1065.2782113374039
 31
0.0
  0
TEXT
  5
4228
  8
0
 10
1178.8193135064489
 20
171.89250983641921
 30
0.0
 40
20.0
  1
25, 1 (DC3S)
 41
0.8
 72
     4
 11
1252.800265887402
 21
180.46393840784771
 31
0.0
  0
INSERT
  5
437A
  8
0
  2
00000
 10
0.0
 20
0.0
 30
0.0
  0
TEXT
  5
444A
  8
0
 10
1122.4383611254971
 20
134.87514724820019
 30
0.0
 40
20.0
  1
15-25, 1/2-1 (DC3A)
 41
0.8
 72
     4
 11
1252.800265887402
 21
143.4465758196288
 31
0.0
  0
VIEWPORT
  5
41
 67
     1
  8
0
 10
117.358407079646
 20
73.5
 30
0.0
 40
234.716814159292
 41
147.0
 68
     1
 69
     1
1001
ACAD
1000
MVIEW
1002
{
1070
    16
1010
0.0
1020
0.0
1030
0.0
1010
0.0
1020
0.0
1030
1.0
1040
0.0
1040
147.0
1040
117.358407079646
1040
73.5
1040
50.0
1040
0.0
1040
0.0
1070
     0
1070
   100
1070
     1
1070
     1
1070
     0
1070
     0
1070
     0
1070
     0
1040
0.0
1040
0.0
1040
0.0
1040
1.0
1040
1.0
1040
0.0
1040
0.0
1070
     0
1002
{
1002
}
1002
}
  0
ENDSEC
  0
EOF
