  0
SECTION
  2
HEADER
  9
$ACADVER
  1
AC1009
  9
$INSBASE
 10
0.0
 20
0.0
 30
0.0
  9
$EXTMIN
 10
44.0
 20
20.0
 30
0.0
  9
$EXTMAX
 10
1144.0
 20
764.0
 30
0.0
  9
$LIMMIN
 10
0.0
 20
0.0
  9
$LIMMAX
 10
1188.0
 20
840.0
  9
$ORTHOMODE
 70
     1
  9
$REGENMODE
 70
     1
  9
$FILLMODE
 70
     1
  9
$QTEXTMODE
 70
     0
  9
$MIRRTEXT
 70
     1
  9
$DRAGMODE
 70
     2
  9
$LTSCALE
 40
16.0
  9
$OSMODE
 70
   163
  9
$ATTMODE
 70
     1
  9
$TEXTSIZE
 40
16.0
  9
$TRACEWID
 40
0.05
  9
$TEXTSTYLE
  7
STANDARD
  9
$CLAYER
  8
0
  9
$CELTYPE
  6
BYLAYER
  9
$CECOLOR
 62
   256
  9
$DIMSCALE
 40
4.0
  9
$DIMASZ
 40
2.7999999999999989
  9
$DIMEXO
 40
1.0
  9
$DIMDLI
 40
5.0
  9
$DIMRND
 40
0.1
  9
$DIMDLE
 40
0.0
  9
$DIMEXE
 40
1.0
  9
$DIMTP
 40
0.0
  9
$DIMTM
 40
0.0
  9
$DIMTXT
 40
2.5
  9
$DIMCEN
 40
0.0
  9
$DIMTSZ
 40
0.0
  9
$DIMTOL
 70
     0
  9
$DIMLIM
 70
     0
  9
$DIMTIH
 70
     0
  9
$DIMTOH
 70
     0
  9
$DIMSE1
 70
     0
  9
$DIMSE2
 70
     0
  9
$DIMTAD
 70
     3
  9
$DIMZIN
 70
     8
  9
$DIMBLK
  1

  9
$DIMASO
 70
     1
  9
$DIMSHO
 70
     1
  9
$DIMPOST
  1

  9
$DIMAPOST
  1

  9
$DIMALT
 70
     0
  9
$DIMALTD
 70
     2
  9
$DIMALTF
 40
1.0
  9
$DIMLFAC
 40
1.0
  9
$DIMTOFL
 70
     1
  9
$DIMTVP
 40
0.0
  9
$DIMTIX
 70
     0
  9
$DIMSOXD
 70
     0
  9
$DIMSAH
 70
     1
  9
$DIMBLK1
  1
OPEN
  9
$DIMBLK2
  1
OPEN
  9
$DIMSTYLE
  2
DIM1
  9
$DIMCLRD
 70
     2
  9
$DIMCLRE
 70
     2
  9
$DIMCLRT
 70
     2
  9
$DIMTFAC
 40
0.7
  9
$DIMGAP
 40
0.85
  9
$LUNITS
 70
     2
  9
$LUPREC
 70
     4
  9
$SKETCHINC
 40
0.1
  9
$FILLETRAD
 40
0.0
  9
$AUNITS
 70
     0
  9
$AUPREC
 70
     0
  9
$MENU
  1
C:\ACADR13\WIN\SUPPORT\ACAD.mnc
  9
$ELEVATION
 40
0.0
  9
$PELEVATION
 40
0.0
  9
$THICKNESS
 40
0.0
  9
$LIMCHECK
 70
     0
  9
$BLIPMODE
 70
     0
  9
$CHAMFERA
 40
0.0
  9
$CHAMFERB
 40
0.0
  9
$SKPOLY
 70
     0
  9
$TDCREATE
 40
2451564.5568677429
  9
$TDUPDATE
 40
2455776.3913168628
  9
$TDINDWG
 40
0.0049984491
  9
$TDUSRTIMER
 40
0.0049984491
  9
$USRTIMER
 70
     1
  9
$ANGBASE
 50
0.0
  9
$ANGDIR
 70
     0
  9
$PDMODE
 70
     0
  9
$PDSIZE
 40
0.0
  9
$PLINEWID
 40
0.0
  9
$COORDS
 70
     1
  9
$SPLFRAME
 70
     0
  9
$SPLINETYPE
 70
     6
  9
$SPLINESEGS
 70
     8
  9
$ATTDIA
 70
     0
  9
$ATTREQ
 70
     1
  9
$HANDLING
 70
     1
  9
$HANDSEED
  5
2B13
  9
$SURFTAB1
 70
     6
  9
$SURFTAB2
 70
     6
  9
$SURFTYPE
 70
     6
  9
$SURFU
 70
     6
  9
$SURFV
 70
     6
  9
$UCSNAME
  2

  9
$UCSORG
 10
0.0
 20
0.0
 30
0.0
  9
$UCSXDIR
 10
1.0
 20
0.0
 30
0.0
  9
$UCSYDIR
 10
0.0
 20
1.0
 30
0.0
  9
$PUCSNAME
  2

  9
$PUCSORG
 10
0.0
 20
0.0
 30
0.0
  9
$PUCSXDIR
 10
1.0
 20
0.0
 30
0.0
  9
$PUCSYDIR
 10
0.0
 20
1.0
 30
0.0
  9
$USERI1
 70
     0
  9
$USERI2
 70
     0
  9
$USERI3
 70
     0
  9
$USERI4
 70
     0
  9
$USERI5
 70
     0
  9
$USERR1
 40
0.0
  9
$USERR2
 40
0.0
  9
$USERR3
 40
0.0
  9
$USERR4
 40
0.0
  9
$USERR5
 40
0.0
  9
$WORLDVIEW
 70
     1
  9
$SHADEDGE
 70
     3
  9
$SHADEDIF
 70
    70
  9
$TILEMODE
 70
     1
  9
$MAXACTVP
 70
    16
  9
$PLIMCHECK
 70
     0
  9
$PEXTMIN
 10
1.0000000000000000E+020
 20
1.0000000000000000E+020
 30
1.0000000000000000E+020
  9
$PEXTMAX
 10
-1.0000000000000000E+020
 20
-1.0000000000000000E+020
 30
-1.0000000000000000E+020
  9
$PLIMMIN
 10
0.0
 20
0.0
  9
$PLIMMAX
 10
20.0
 20
147.0
  9
$UNITMODE
 70
     0
  9
$VISRETAIN
 70
     0
  9
$PLINEGEN
 70
     0
  9
$PSLTSCALE
 70
     1
  0
ENDSEC
  0
SECTION
  2
TABLES
  0
TABLE
  2
VPORT
 70
     1
  0
VPORT
  2
*ACTIVE
 70
     0
 10
0.0
 20
0.0
 11
1.0
 21
1.0
 12
991.75916017281418
 22
435.51163120632282
 13
0.0
 23
0.0
 14
1.0
 24
1.0
 15
0.0
 25
0.0
 16
0.0
 26
0.0
 36
1.0
 17
0.0
 27
0.0
 37
0.0
 40
871.02326241264564
 41
2.277227722772277
 42
50.0
 43
0.0
 44
0.0
 50
0.0
 51
0.0
 71
     0
 72
   100
 73
     1
 74
     1
 75
     0
 76
     0
 77
     0
 78
     0
  0
ENDTAB
  0
TABLE
  2
LTYPE
 70
     4
  0
LTYPE
  2
CONTINUOUS
 70
     0
  3
Solid line
 72
    65
 73
     0
 40
0.0
  0
ENDTAB
  0
TABLE
  2
LAYER
 70
     1
  0
LAYER
  2
0
 70
     0
 62
     7
  6
CONTINUOUS
  0
ENDTAB
  0
TABLE
  2
STYLE
 70
     3
  0
STYLE
  2
STANDARD
 70
     0
 40
0.0
 41
0.8
 50
0.0
 71
     0
 42
16.0
  3
simplex
  4
extfont
  0
STYLE
  2
PTSH
 70
     0
 40
0.0
 41
0.9
 50
0.0
 71
     0
 42
4.0
  3
SIMPLEX
  4
EXTFONT
  0
STYLE
  2
DIM
 70
     0
 40
0.0
 41
0.8
 50
0.0
 71
     0
 42
4.0
  3
simplex
  4
extfont
  0
ENDTAB
  0
TABLE
  2
VIEW
 70
     2
  0
ENDTAB
  0
TABLE
  2
UCS
 70
     0
  0
ENDTAB
  0
TABLE
  2
APPID
 70
     5
  0
APPID
  2
ACAD
 70
     0
  0
APPID
  2
ACAD_MLEADERVER
 70
     0
  0
APPID
  2
ACAD_PSEXT
 70
     0
  0
APPID
  2
ACAD_NAV_VCDISPLAY
 70
     0
  0
APPID
  2
ACAD_EXEMPT_FROM_CAD_STANDARDS
 70
     0
  0
ENDTAB
  0
TABLE
  2
DIMSTYLE
 70
     1
  0
DIMSTYLE
  2
DIM1
 70
     0
  3

  4

  5

  6
OPEN
  7
OPEN
 40
4.0
 41
2.7999999999999989
 42
1.0
 43
5.0
 44
1.0
 45
0.1
 46
0.0
 47
0.0
 48
0.0
140
2.5
141
0.0
142
0.0
143
1.0
144
1.0
145
0.0
146
0.7
147
0.85
 71
     0
 72
     0
 73
     0
 74
     0
 75
     0
 76
     0
 77
     3
 78
     8
170
     0
171
     2
172
     1
173
     1
174
     0
175
     0
176
     2
177
     2
178
     2
  0
ENDTAB
  0
ENDSEC
  0
SECTION
  2
BLOCKS
  0
BLOCK
  8
0
  2
$MODEL_SPACE
 70
     0
 10
0.0
 20
0.0
 30
0.0
  3
$MODEL_SPACE
  1

  0
ENDBLK
  5
3D
  8
0
  0
BLOCK
 67
     1
  8
0
  2
$PAPER_SPACE
 70
     0
 10
0.0
 20
0.0
 30
0.0
  3
$PAPER_SPACE
  1

  0
ENDBLK
  5
3B
 67
     1
  8
0
  0
BLOCK
  8
0
  2
_OPEN
 70
     0
 10
0.0
 20
0.0
 30
0.0
  3
_OPEN
  1
H1111.DWG
  0
LINE
  5
244A
  8
0
  6
BYBLOCK
 62
     0
 10
-1.0
 20
0.1666666666666666
 30
0.0
 11
0.0
 21
0.0
 31
0.0
  0
LINE
  5
244B
  8
0
  6
BYBLOCK
 62
     0
 10
0.0
 20
0.0
 30
0.0
 11
-1.0
 21
-0.1666666666666666
 31
0.0
  0
LINE
  5
244C
  8
0
  6
BYBLOCK
 62
     0
 10
0.0
 20
0.0
 30
0.0
 11
-1.0
 21
0.0
 31
0.0
  0
ENDBLK
  5
244D
  8
0
  0
ENDSEC
  0
SECTION
  2
ENTITIES
  0
TEXT
  5
2529
  8
0
  6
CONTINUOUS
 10
1107.926408044257
 20
30.612903831693981
 30
0.0
 40
10.0
  1
DC5
 41
0.9
  7
PTSH
 72
     1
 11
1119.926408044257
 21
35.612903831693977
 31
0.0
 73
     2
  0
POLYLINE
  5
2563
  8
0
 66
     1
 10
0.0
 20
0.0
 30
0.0
 70
     1
  0
VERTEX
  5
29D9
  8
0
 10
44.0
 20
20.0
 30
0.0
  0
VERTEX
  5
29DA
  8
0
 10
1144.0
 20
20.0
 30
0.0
  0
VERTEX
  5
29DB
  8
0
 10
1144.0
 20
764.0
 30
0.0
  0
VERTEX
  5
29DC
  8
0
 10
44.0
 20
764.0
 30
0.0
  0
SEQEND
  5
29DD
  8
0
  0
LINE
  5
27FC
  8
0
 10
642.64631122955495
 20
618.27704545435563
 30
0.0
 11
655.01514509009746
 21
577.8204128340036
 31
0.0
  0
LINE
  5
27FD
  8
0
 10
649.37568329052647
 20
549.32041283400372
 30
0.0
 11
636.75768329052596
 21
549.32041283400372
 31
0.0
  0
ARC
  5
27FE
  8
0
 10
643.06668329052616
 20
562.82589221917374
 30
0.0
 40
13.352467409169931
 50
253.68029689768611
 51
286.31970310231401
  0
LINE
  5
27FF
  8
0
 10
649.37568329052647
 20
623.8204128340036
 30
0.0
 11
636.75768329052596
 21
623.8204128340036
 31
0.0
  0
ARC
  5
2800
  8
0
 10
643.06668329052616
 20
637.32589221917374
 30
0.0
 40
13.352467409169931
 50
253.68029689768611
 51
286.31970310231401
  0
ARC
  5
2801
  8
0
 10
649.01514509009758
 20
665.3204128340036
 30
0.0
 40
4.0
 50
90.0
 51
180.0
  0
LINE
  5
2802
  8
0
 10
661.51514509009758
 20
713.32041283400372
 30
0.0
 11
641.01514509009758
 21
713.32041283400372
 31
0.0
  0
LINE
  5
2803
  8
0
 10
657.01514509009758
 20
566.82041283400372
 30
0.0
 11
569.01514509009758
 21
566.82041283400372
 31
0.0
  0
LINE
  5
2804
  8
0
 10
657.01514509009758
 20
555.82041283400372
 30
0.0
 11
569.01514509009758
 21
555.82041283400372
 31
0.0
  0
LINE
  5
2805
  8
0
 10
657.01514509009758
 20
577.8204128340036
 30
0.0
 11
569.01514509009758
 21
577.8204128340036
 31
0.0
  0
LINE
  5
2806
  8
0
 10
653.01514509009758
 20
641.32041283400372
 30
0.0
 11
573.01514509009746
 21
641.32041283400372
 31
0.0
  0
LINE
  5
2807
  8
0
 10
653.01514509009758
 20
630.32041283400372
 30
0.0
 11
573.01514509009746
 21
630.32041283400372
 31
0.0
  0
LINE
  5
2808
  8
0
 10
653.01514509009758
 20
652.32041283400372
 30
0.0
 11
573.01514509009746
 21
652.32041283400372
 31
0.0
  0
ARC
  5
2809
  8
0
 10
640.06718329052626
 20
401.59427584930489
 30
0.0
 40
13.94796179957174
 50
270.0
 51
0.0
  0
ARC
  5
280A
  8
0
 10
640.06718329052626
 20
401.59427584930489
 30
0.0
 40
9.9479617995717433
 50
270.0
 51
0.0
  0
ARC
  5
280B
  8
0
 10
640.06718329052626
 20
461.69835225016158
 30
0.0
 40
13.94796179957174
 50
0.0
 51
90.0
  0
ARC
  5
280C
  8
0
 10
640.06718329052626
 20
461.69835225016158
 30
0.0
 40
9.9479617995717433
 50
0.0
 51
90.0
  0
LINE
  5
280D
  8
0
 10
661.51514509009758
 20
409.64631404973318
 30
0.0
 11
615.74144628521753
 21
409.64631404973318
 31
0.0
  0
LINE
  5
280E
  8
0
 10
661.51514509009758
 20
453.64631404973329
 30
0.0
 11
615.74144628521753
 21
453.64631404973329
 31
0.0
  0
ARC
  5
280F
  8
0
 10
645.69518329052607
 20
236.59847618021081
 30
0.0
 40
3.541046664537995
 50
237.9994055349554
 51
302.00059446504389
  0
ARC
  5
2810
  8
0
 10
646.01514509009746
 20
274.40451776717299
 30
0.0
 40
4.0
 50
90.0
 51
180.0
  0
LINE
  5
2811
  8
0
 10
570.01514509009758
 20
261.4045177671731
 30
0.0
 11
650.01514509009746
 21
261.4045177671731
 31
0.0
  0
LINE
  5
2812
  8
0
 10
570.01514509009758
 20
250.4045177671731
 30
0.0
 11
650.01514509009746
 21
250.4045177671731
 31
0.0
  0
LINE
  5
2813
  8
0
 10
570.01514509009758
 20
239.40451776717299
 30
0.0
 11
650.01514509009746
 21
239.40451776717299
 31
0.0
  0
LINE
  5
2814
  8
0
 10
646.37568329052635
 20
232.90451776717299
 30
0.0
 11
633.75768329052596
 21
232.90451776717299
 31
0.0
  0
ARC
  5
2815
  8
0
 10
626.91017191555511
 20
288.4045177671731
 30
0.0
 40
39.0
 50
60.667889832296368
 51
90.0
  0
ARC
  5
2816
  8
0
 10
645.69518329052607
 20
162.0984761802107
 30
0.0
 40
3.541046664537995
 50
237.9994055349554
 51
302.00059446504389
  0
TEXT
  5
2817
  8
0
 10
436.04665663323561
 20
36.401593004665251
 30
0.0
 40
20.0
  1
TLV  DC5A,DC5S (Screw)
  0
LINE
  5
2818
  8
0
 10
619.01514509009758
 20
132.90451776717299
 30
0.0
 11
653.01514509009758
 21
132.90451776717299
 31
0.0
  0
LINE
  5
2819
  8
0
 10
566.01514509009758
 20
186.9045177671729
 30
0.0
 11
654.01514509009746
 21
186.9045177671729
 31
0.0
  0
LINE
  5
281A
  8
0
 10
566.01514509009758
 20
164.90451776717299
 30
0.0
 11
654.01514509009746
 21
164.90451776717299
 31
0.0
  0
LINE
  5
281B
  8
0
 10
566.01514509009758
 20
175.90451776717299
 30
0.0
 11
654.01514509009746
 21
175.90451776717299
 31
0.0
  0
LINE
  5
281C
  8
0
 10
646.37568329052635
 20
158.40451776717299
 30
0.0
 11
633.75768329052596
 21
158.40451776717299
 31
0.0
  0
TEXT
  5
281D
  8
0
 10
549.91824886739948
 20
96.314433662118674
 30
0.0
 40
15.0
  1
15,20,25
 41
0.8
 11
549.91824886739948
 21
96.314433662118674
 31
0.0
 73
     1
  0
LINE
  5
281E
  8
0
 10
639.64631122955495
 20
227.36115038752499
 30
0.0
 11
652.01514509009746
 21
186.9045177671729
 31
0.0
  0
LINE
  5
281F
  8
0
 10
642.01514509009746
 20
409.64631404973318
 30
0.0
 11
642.01514509009746
 21
397.64631404973329
 31
0.0
  0
ARC
  5
2820
  8
0
 10
640.06718329052626
 20
401.59427584930489
 30
0.0
 40
4.0
 50
299.14296377533759
 51
60.857036224662373
  0
CIRCLE
  5
2821
  8
0
 10
579.96310688966958
 20
401.59427584930489
 30
0.0
 40
4.0
  0
LINE
  5
2822
  8
0
 10
566.01514509009758
 20
409.64631404973318
 30
0.0
 11
566.01514509009758
 21
401.59427584930489
 31
0.0
  0
LINE
  5
2823
  8
0
 10
570.01514509009758
 20
409.64631404973318
 30
0.0
 11
570.01514509009758
 21
401.59427584930489
 31
0.0
  0
ARC
  5
2824
  8
0
 10
610.01514509009746
 20
431.64631404973318
 30
0.0
 40
32.0
 50
223.43253655778969
 51
316.56746344221028
  0
LINE
  5
2826
  8
0
 10
603.65086053000687
 20
139.98137133907829
 30
0.0
 11
603.65086053000687
 21
147.98137133907829
 31
0.0
  0
LINE
  5
2827
  8
0
 10
619.01514509009758
 20
147.90451776717299
 30
0.0
 11
619.01514509009758
 21
132.90451776717299
 31
0.0
  0
LINE
  5
2828
  8
0
 10
610.01482156068585
 20
139.98137133907829
 30
0.0
 11
610.01482156068585
 21
147.98137133907829
 31
0.0
  0
LINE
  5
2829
  8
0
 10
616.37878259136505
 20
139.98137133907829
 30
0.0
 11
616.37878259136505
 21
147.98137133907829
 31
0.0
  0
LINE
  5
282A
  8
0
 10
434.60994873300018
 20
153.8601411786982
 30
0.0
 11
434.60994873300109
 21
132.90451776717299
 31
0.0
  0
LINE
  5
282B
  8
0
 10
400.60994873300109
 20
153.86014117869891
 30
0.0
 11
400.60994873300109
 21
132.90451776717299
 31
0.0
  0
LINE
  5
282C
  8
0
 10
423.97358623426862
 20
139.98137133907829
 30
0.0
 11
423.97358623426862
 21
147.98137133907829
 31
0.0
  0
LINE
  5
282D
  8
0
 10
417.60962520358947
 20
139.98137133907829
 30
0.0
 11
417.60962520358947
 21
147.98137133907829
 31
0.0
  0
LINE
  5
282E
  8
0
 10
411.24566417291038
 20
139.98137133907829
 30
0.0
 11
411.24566417291038
 21
147.98137133907829
 31
0.0
  0
LINE
  5
282F
  8
0
 10
434.60994873300109
 20
132.90451776717299
 30
0.0
 11
400.60994873300109
 21
132.90451776717299
 31
0.0
  0
LINE
  5
2830
  8
0
 10
423.97358623426862
 20
139.98137133907829
 30
0.0
 11
411.24566417291038
 21
139.98137133907829
 31
0.0
  0
LINE
  5
2831
  8
0
 10
616.37878259136505
 20
139.98137133907829
 30
0.0
 11
603.65086053000687
 21
139.98137133907829
 31
0.0
  0
LINE
  5
2832
  8
0
 10
449.60994873300109
 20
261.4045177671731
 30
0.0
 11
449.60994873300109
 21
295.40451776717299
 31
0.0
  0
LINE
  5
2833
  8
0
 10
451.60994873300302
 20
290.90451776717299
 30
0.0
 11
451.60994873300109
 21
273.9045177671731
 31
0.0
  0
LINE
  5
2834
  8
0
 10
385.60994873300109
 20
261.4045177671731
 30
0.0
 11
385.60994873300109
 21
295.40451776717299
 31
0.0
  0
LINE
  5
2835
  8
0
 10
387.97878259354371
 20
227.36115038752499
 30
0.0
 11
375.6099487330012
 21
186.9045177671729
 31
0.0
  0
LINE
  5
2836
  8
0
 10
447.24111487245858
 20
227.36115038752499
 30
0.0
 11
459.60994873300109
 21
186.9045177671729
 31
0.0
  0
LINE
  5
2837
  8
0
 10
407.70760739482461
 20
150.90451776717299
 30
0.0
 11
427.51229007117757
 21
150.90451776717299
 31
0.0
  0
LINE
  5
2838
  8
0
 10
411.031125203589
 20
147.98137133907829
 30
0.0
 11
424.1881252035891
 21
147.98137133907829
 31
0.0
  0
LINE
  5
2839
  8
0
 10
461.60994873300109
 20
186.9045177671729
 30
0.0
 11
373.6099487330012
 21
186.9045177671729
 31
0.0
  0
LINE
  5
283A
  8
0
 10
461.60994873300109
 20
164.90451776717299
 30
0.0
 11
373.6099487330012
 21
164.90451776717299
 31
0.0
  0
LINE
  5
283B
  8
0
 10
461.60994873300109
 20
175.90451776717299
 30
0.0
 11
373.6099487330012
 21
175.90451776717299
 31
0.0
  0
LINE
  5
283C
  8
0
 10
373.6099487330012
 20
186.9045177671729
 30
0.0
 11
373.6099487330012
 21
175.90451776717319
 31
0.0
  0
LINE
  5
283D
  8
0
 10
394.05886420067691
 20
159.09551776717279
 30
0.0
 11
392.8618642006777
 21
158.40451776717299
 31
0.0
  0
ARC
  5
283E
  8
0
 10
390.86166482020423
 20
166.144589705588
 30
0.0
 40
7.7402518739024098
 50
244.7417761626204
 51
294.39729365622532
  0
LINE
  5
283F
  8
0
 10
381.05895686446911
 20
159.09551776717279
 30
0.0
 11
381.05895686446911
 21
164.90451776717299
 31
0.0
  0
LINE
  5
2840
  8
0
 10
387.55891053257159
 20
159.09551776717279
 30
0.0
 11
387.55891053257159
 21
164.90451776717299
 31
0.0
  0
LINE
  5
2841
  8
0
 10
392.8618642006777
 20
158.40451776717299
 30
0.0
 11
382.25495686446811
 21
158.40451776717299
 31
0.0
  0
ARC
  5
2842
  8
0
 10
384.25615624494088
 20
166.14458970559551
 30
0.0
 40
7.740251873909143
 50
245.60270634380521
 51
295.25822383735238
  0
LINE
  5
2843
  8
0
 10
382.25495686446811
 20
158.40451776717299
 30
0.0
 11
381.0589568644682
 21
159.09551776717279
 31
0.0
  0
LINE
  5
2844
  8
0
 10
373.6099487330012
 20
175.90451776717319
 30
0.0
 11
373.6099487330012
 21
164.90451776717299
 31
0.0
  0
LINE
  5
2845
  8
0
 10
394.05886420067691
 20
159.09551776717279
 30
0.0
 11
394.05886420067691
 21
164.90451776717299
 31
0.0
  0
LINE
  5
2846
  8
0
 10
395.60994873300109
 20
164.90451776717299
 30
0.0
 11
398.31068118696572
 21
157.48431633391621
 31
0.0
  0
ARC
  5
2847
  8
0
 10
407.70760739482461
 20
160.90451776717299
 30
0.0
 40
10.0
 50
200.0
 51
270.0
  0
LINE
  5
2848
  8
0
 10
411.88712520358962
 20
147.98137133907829
 30
0.0
 11
411.97860249180928
 21
150.90451776717299
 31
0.0
  0
LINE
  5
2849
  8
0
 10
411.031125203589
 20
147.98137133907829
 30
0.0
 11
411.12260249180957
 21
150.90451776717299
 31
0.0
  0
LINE
  5
284A
  8
0
 10
461.60994873300109
 20
186.9045177671729
 30
0.0
 11
461.60994873300109
 21
175.90451776717299
 31
0.0
  0
LINE
  5
284B
  8
0
 10
439.60994873300109
 20
164.90451776717299
 30
0.0
 11
436.90921627903663
 21
157.48431633391621
 31
0.0
  0
ARC
  5
284C
  8
0
 10
427.51229007117757
 20
160.90451776717299
 30
0.0
 40
10.0
 50
270.0
 51
340.0
  0
LINE
  5
284D
  8
0
 10
424.1881252035891
 20
147.98137133907829
 30
0.0
 11
424.09645000226459
 21
150.9163589521057
 31
0.0
  0
LINE
  5
284E
  8
0
 10
423.33212520358933
 20
147.98137133907829
 30
0.0
 11
423.24081986515921
 21
150.90451776717299
 31
0.0
  0
LINE
  5
284F
  8
0
 10
441.1620332653265
 20
159.09551776717279
 30
0.0
 11
441.1620332653265
 21
164.90451776717299
 31
0.0
  0
LINE
  5
2850
  8
0
 10
447.66198693342898
 20
159.09551776717279
 30
0.0
 11
447.66198693342898
 21
164.90451776717299
 31
0.0
  0
LINE
  5
2851
  8
0
 10
454.16194060153418
 20
159.09551776717279
 30
0.0
 11
454.16194060153418
 21
164.90451776717299
 31
0.0
  0
LINE
  5
2852
  8
0
 10
452.96494060153509
 20
158.40451776717299
 30
0.0
 11
442.3580332653255
 21
158.40451776717299
 31
0.0
  0
ARC
  5
2853
  8
0
 10
450.96474122106162
 20
166.144589705588
 30
0.0
 40
7.7402518739024098
 50
244.7417761626204
 51
294.39729365622532
  0
LINE
  5
2854
  8
0
 10
442.3580332653255
 20
158.40451776717299
 30
0.0
 11
441.16203326532559
 21
159.09551776717279
 31
0.0
  0
ARC
  5
2855
  8
0
 10
444.35923264579827
 20
166.14458970559551
 30
0.0
 40
7.740251873909143
 50
245.60270634380521
 51
295.25822383735238
  0
LINE
  5
2856
  8
0
 10
454.16194060153418
 20
159.09551776717279
 30
0.0
 11
452.96494060153509
 21
158.40451776717299
 31
0.0
  0
LINE
  5
2857
  8
0
 10
461.60994873300109
 20
175.90451776717299
 30
0.0
 11
461.60994873300109
 21
164.90451776717299
 31
0.0
  0
LINE
  5
2858
  8
0
 10
457.60994873300109
 20
250.4045177671731
 30
0.0
 11
377.60994873300109
 21
250.4045177671731
 31
0.0
  0
LINE
  5
2859
  8
0
 10
457.60994873300109
 20
261.4045177671731
 30
0.0
 11
377.60994873300109
 21
261.4045177671731
 31
0.0
  0
LINE
  5
285A
  8
0
 10
393.90501582143588
 20
227.36115038752499
 30
0.0
 11
441.31488164456732
 21
227.36115038752499
 31
0.0
  0
LINE
  5
285B
  8
0
 10
457.60994873300109
 20
239.40451776717299
 30
0.0
 11
377.60994873300109
 21
239.40451776717299
 31
0.0
  0
LINE
  5
285C
  8
0
 10
377.60994873300109
 20
250.4045177671731
 30
0.0
 11
377.60994873300109
 21
239.40451776717299
 31
0.0
  0
ARC
  5
285D
  8
0
 10
390.86166482020423
 20
240.644589705588
 30
0.0
 40
7.7402518739024098
 50
244.7417761626204
 51
294.39729365622532
  0
LINE
  5
285E
  8
0
 10
394.05886420067691
 20
233.59551776717291
 30
0.0
 11
392.8618642006777
 21
232.90451776717299
 31
0.0
  0
ARC
  5
285F
  8
0
 10
384.25615624494088
 20
240.64458970559551
 30
0.0
 40
7.740251873909143
 50
245.60270634380521
 51
295.25822383735238
  0
LINE
  5
2860
  8
0
 10
392.8618642006777
 20
232.90451776717299
 30
0.0
 11
382.25495686446811
 21
232.90451776717299
 31
0.0
  0
LINE
  5
2861
  8
0
 10
382.25495686446811
 20
232.90451776717299
 30
0.0
 11
381.0589568644682
 21
233.59551776717291
 31
0.0
  0
LINE
  5
2862
  8
0
 10
381.05895686446911
 20
233.59551776717291
 30
0.0
 11
381.05895686446911
 21
239.40451776717299
 31
0.0
  0
LINE
  5
2863
  8
0
 10
387.55891053257159
 20
233.59551776717291
 30
0.0
 11
387.55891053257159
 21
239.40451776717299
 31
0.0
  0
LINE
  5
2864
  8
0
 10
388.26929816766102
 20
232.90451776717299
 30
0.0
 11
387.97878259354371
 21
227.36115038752499
 31
0.0
  0
LINE
  5
2865
  8
0
 10
394.05886420067691
 20
233.59551776717291
 30
0.0
 11
394.05886420067691
 21
239.40451776717299
 31
0.0
  0
LINE
  5
2866
  8
0
 10
377.60994873300109
 20
261.4045177671731
 30
0.0
 11
377.60994873300109
 21
250.4045177671731
 31
0.0
  0
LINE
  5
2867
  8
0
 10
457.60994873300109
 20
250.4045177671731
 30
0.0
 11
457.60994873300109
 21
239.40451776717299
 31
0.0
  0
ARC
  5
2868
  8
0
 10
450.96474122106162
 20
240.644589705588
 30
0.0
 40
7.7402518739024098
 50
244.7417761626204
 51
294.39729365622532
  0
LINE
  5
2869
  8
0
 10
452.96494060153509
 20
232.90451776717299
 30
0.0
 11
442.3580332653255
 21
232.90451776717299
 31
0.0
  0
ARC
  5
286A
  8
0
 10
444.35923264579827
 20
240.64458970559551
 30
0.0
 40
7.740251873909143
 50
245.60270634380521
 51
295.25822383735238
  0
LINE
  5
286B
  8
0
 10
442.3580332653255
 20
232.90451776717299
 30
0.0
 11
441.16203326532559
 21
233.59551776717291
 31
0.0
  0
LINE
  5
286C
  8
0
 10
447.66198693342898
 20
233.59551776717291
 30
0.0
 11
447.66198693342898
 21
239.40451776717299
 31
0.0
  0
LINE
  5
286D
  8
0
 10
441.1620332653265
 20
233.59551776717291
 30
0.0
 11
441.1620332653265
 21
239.40451776717299
 31
0.0
  0
LINE
  5
286E
  8
0
 10
446.95059929834127
 20
232.90451776717299
 30
0.0
 11
447.24111487245858
 21
227.36115038752499
 31
0.0
  0
LINE
  5
286F
  8
0
 10
454.16194060153418
 20
233.59551776717291
 30
0.0
 11
452.96494060153509
 21
232.90451776717299
 31
0.0
  0
LINE
  5
2870
  8
0
 10
454.16194060153418
 20
233.59551776717291
 30
0.0
 11
454.16194060153418
 21
239.40451776717299
 31
0.0
  0
LINE
  5
2871
  8
0
 10
457.60994873300109
 20
261.4045177671731
 30
0.0
 11
457.60994873300109
 21
250.4045177671731
 31
0.0
  0
ARC
  5
2872
  8
0
 10
450.10994873300109
 20
273.9045177671731
 30
0.0
 40
1.5
 50
270.0
 51
359.99999999999721
  0
LINE
  5
2873
  8
0
 10
449.60994873300109
 20
272.40451776717299
 30
0.0
 11
450.10994873300109
 21
272.40451776717299
 31
0.0
  0
CIRCLE
  5
2874
  8
0
 10
417.60994873300109
 20
300.4045177671731
 30
0.0
 40
22.0
  0
CIRCLE
  5
2875
  8
0
 10
417.60994873300109
 20
300.4045177671731
 30
0.0
 40
17.5
  0
LINE
  5
2876
  8
0
 10
421.60994873300109
 20
327.40451776717282
 30
0.0
 11
413.60994873300018
 21
327.4045177671731
 31
0.0
  0
ARC
  5
2877
  8
0
 10
400.60994873300109
 20
295.40451776717299
 30
0.0
 40
15.0
 50
124.6673937388623
 51
180.0
  0
ARC
  5
2878
  8
0
 10
395.60994873300109
 20
300.4045177671731
 30
0.0
 40
2.0
 50
87.394748734944983
 51
272.60525126505502
  0
ARC
  5
2879
  8
0
 10
413.60994873300018
 20
309.4045177671731
 30
0.0
 40
18.0
 50
89.999999999999602
 51
166.4469063426763
  0
ARC
  5
287A
  8
0
 10
386.38965973038739
 20
315.96621469816961
 30
0.0
 40
10.0
 50
304.66739373885781
 51
346.44690634267641
  0
ARC
  5
287B
  8
0
 10
434.60994873300109
 20
295.40451776717299
 30
0.0
 40
15.0
 50
0.000000000000007
 51
55.332606261144427
  0
ARC
  5
287C
  8
0
 10
439.60994873300109
 20
300.4045177671731
 30
0.0
 40
2.0
 50
267.39474873494498
 51
92.605251265055045
  0
ARC
  5
287D
  8
0
 10
450.10994873300291
 20
290.90451776717299
 30
0.0
 40
1.5
 50
0.000000000000007
 51
90.000000000000952
  0
LINE
  5
287E
  8
0
 10
460.60994873300473
 20
288.76847879785191
 30
0.0
 11
460.60994873300473
 21
275.82651776717307
 31
0.0
  0
LINE
  5
287F
  8
0
 10
460.60994873300473
 20
288.76847879785191
 30
0.0
 11
451.60994873300473
 21
288.76847879785191
 31
0.0
  0
LINE
  5
2880
  8
0
 10
460.60994873300473
 20
275.82651776717307
 30
0.0
 11
451.60994873300473
 21
275.82651776717307
 31
0.0
  0
LINE
  5
2881
  8
0
 10
460.60994873300473
 20
282.4045177671731
 30
0.0
 11
451.60994873300473
 21
282.4045177671731
 31
0.0
  0
LINE
  5
2882
  8
0
 10
450.10994873300291
 20
292.4045177671731
 30
0.0
 11
449.60994873300109
 21
292.40451776717327
 31
0.0
  0
ARC
  5
2883
  8
0
 10
448.83023773561308
 20
315.96621469817018
 30
0.0
 40
10.0
 50
193.55309365732739
 51
235.33260626114301
  0
ARC
  5
2884
  8
0
 10
421.60994873300109
 20
309.40451776717282
 30
0.0
 40
18.0
 50
13.5530936573251
 51
90.0
  0
ARC
  5
2885
  8
0
 10
574.01514509009758
 20
274.40451776717299
 30
0.0
 40
4.0
 50
0.0
 51
90.0
  0
CIRCLE
  5
2886
  8
0
 10
632.01514509009758
 20
282.4045177671731
 30
0.0
 40
10.0
  0
LINE
  5
2887
  8
0
 10
580.38397895063997
 20
227.36115038752499
 30
0.0
 11
568.01514509009746
 21
186.9045177671729
 31
0.0
  0
ARC
  5
2888
  8
0
 10
600.11280375192109
 20
160.90451776717299
 30
0.0
 40
10.0
 50
200.0
 51
270.0
  0
LINE
  5
2889
  8
0
 10
566.01514509009758
 20
186.9045177671729
 30
0.0
 11
566.01514509009758
 21
164.90451776717299
 31
0.0
  0
ARC
  5
288A
  8
0
 10
579.96360688966877
 20
171.90999715234301
 30
0.0
 40
13.352467409169931
 50
253.68029689768611
 51
286.31970310231389
  0
LINE
  5
288B
  8
0
 10
573.65460688966868
 20
158.40451776717299
 30
0.0
 11
586.27260688966896
 21
158.40451776717299
 31
0.0
  0
LINE
  5
288C
  8
0
 10
572.45760688966936
 20
164.90451776717299
 30
0.0
 11
572.45760688966936
 21
159.09551776717279
 31
0.0
  0
LINE
  5
288D
  8
0
 10
576.21160688966938
 20
159.09551776717279
 30
0.0
 11
576.21160688966938
 21
164.90451776717299
 31
0.0
  0
LINE
  5
288E
  8
0
 10
572.45760688966936
 20
159.09551776717279
 30
0.0
 11
573.65460688966868
 21
158.40451776717299
 31
0.0
  0
ARC
  5
288F
  8
0
 10
574.33510688966896
 20
162.0984761802107
 30
0.0
 40
3.541046664537995
 50
237.9994055349562
 51
302.00059446504463
  0
LINE
  5
2890
  8
0
 10
583.71560688966929
 20
159.09551776717279
 30
0.0
 11
583.71560688966929
 21
164.90451776717299
 31
0.0
  0
LINE
  5
2891
  8
0
 10
587.46860688966888
 20
159.09551776717279
 30
0.0
 11
587.46860688966888
 21
164.90451776717299
 31
0.0
  0
LINE
  5
2892
  8
0
 10
588.01514509009746
 20
164.90451776717299
 30
0.0
 11
590.71587754406198
 21
157.48431633391621
 31
0.0
  0
ARC
  5
2893
  8
0
 10
585.59210688966857
 20
162.0984761802107
 30
0.0
 40
3.541046664537995
 50
237.9994055349554
 51
302.00059446504389
  0
LINE
  5
2894
  8
0
 10
586.27260688966896
 20
158.40451776717299
 30
0.0
 11
587.46860688966888
 21
159.09551776717279
 31
0.0
  0
ARC
  5
2895
  8
0
 10
616.01514509009758
 20
160.90451776717299
 30
0.0
 40
10.0
 50
270.0
 51
340.00000000000011
  0
LINE
  5
2896
  8
0
 10
603.43632156068543
 20
147.98137133907829
 30
0.0
 11
616.59332156068547
 21
147.98137133907829
 31
0.0
  0
LINE
  5
2897
  8
0
 10
600.11280375192109
 20
150.90451776717299
 30
0.0
 11
616.01514509009758
 21
150.90451776717299
 31
0.0
  0
LINE
  5
2898
  8
0
 10
603.43632156068543
 20
147.98137133907829
 30
0.0
 11
603.52779884890606
 21
150.90451776717299
 31
0.0
  0
LINE
  5
2899
  8
0
 10
604.2923215606861
 20
147.98137133907829
 30
0.0
 11
604.38379884890583
 21
150.90451776717299
 31
0.0
  0
LINE
  5
289A
  8
0
 10
615.73732156068581
 20
147.98137133907829
 30
0.0
 11
615.64601622225564
 21
150.90451776717299
 31
0.0
  0
LINE
  5
289B
  8
0
 10
616.59332156068547
 20
147.98137133907829
 30
0.0
 11
616.50164635936108
 21
150.9163589521057
 31
0.0
  0
ARC
  5
289C
  8
0
 10
616.01514509009758
 20
147.90451776717299
 30
0.0
 40
3.0
 50
0.0
 51
90.0
  0
LINE
  5
289D
  8
0
 10
636.31468329052575
 20
159.09551776717279
 30
0.0
 11
636.31468329052575
 21
164.90451776717299
 31
0.0
  0
LINE
  5
289E
  8
0
 10
643.81868329052566
 20
159.09551776717279
 30
0.0
 11
643.81868329052566
 21
164.90451776717299
 31
0.0
  0
LINE
  5
289F
  8
0
 10
628.11280375192098
 20
164.90451776717299
 30
0.0
 11
625.41207129795646
 21
157.48431633391621
 31
0.0
  0
LINE
  5
28A0
  8
0
 10
632.56168329052605
 20
159.09551776717279
 30
0.0
 11
632.56168329052605
 21
164.90451776717299
 31
0.0
  0
LINE
  5
28A1
  8
0
 10
633.75768329052596
 20
158.40451776717299
 30
0.0
 11
632.56168329052605
 21
159.09551776717279
 31
0.0
  0
ARC
  5
28A2
  8
0
 10
634.43818329052647
 20
162.0984761802107
 30
0.0
 40
3.541046664537995
 50
237.9994055349562
 51
302.00059446504463
  0
ARC
  5
28A3
  8
0
 10
640.06668329052627
 20
171.90999715234301
 30
0.0
 40
13.352467409169931
 50
253.68029689768611
 51
286.31970310231401
  0
LINE
  5
28A4
  8
0
 10
633.72007800166284
 20
227.36115038752499
 30
0.0
 11
586.31021217853129
 21
227.36115038752499
 31
0.0
  0
LINE
  5
28A5
  8
0
 10
570.01514509009758
 20
261.4045177671731
 30
0.0
 11
570.01514509009758
 21
239.40451776717299
 31
0.0
  0
ARC
  5
28A6
  8
0
 10
579.96360688966877
 20
246.4099971523431
 30
0.0
 40
13.352467409169931
 50
253.68029689768611
 51
286.31970310231389
  0
LINE
  5
28A7
  8
0
 10
573.65460688966868
 20
232.90451776717299
 30
0.0
 11
586.27260688966896
 21
232.90451776717299
 31
0.0
  0
LINE
  5
28A8
  8
0
 10
572.45760688966936
 20
239.40451776717299
 30
0.0
 11
572.45760688966936
 21
233.59551776717291
 31
0.0
  0
LINE
  5
28A9
  8
0
 10
576.21160688966938
 20
233.59551776717291
 30
0.0
 11
576.21160688966938
 21
239.40451776717299
 31
0.0
  0
LINE
  5
28AA
  8
0
 10
572.45760688966936
 20
233.59551776717291
 30
0.0
 11
573.65460688966868
 21
232.90451776717299
 31
0.0
  0
ARC
  5
28AB
  8
0
 10
574.33510688966896
 20
236.59847618021081
 30
0.0
 40
3.541046664537995
 50
237.9994055349562
 51
302.00059446504463
  0
LINE
  5
28AC
  8
0
 10
580.67449452475728
 20
232.90451776717299
 30
0.0
 11
580.38397895063997
 21
227.36115038752499
 31
0.0
  0
LINE
  5
28AD
  8
0
 10
587.46860688966888
 20
233.59551776717291
 30
0.0
 11
587.46860688966888
 21
239.40451776717299
 31
0.0
  0
LINE
  5
28AE
  8
0
 10
583.71560688966929
 20
233.59551776717291
 30
0.0
 11
583.71560688966929
 21
239.40451776717299
 31
0.0
  0
ARC
  5
28AF
  8
0
 10
585.59210688966857
 20
236.59847618021081
 30
0.0
 40
3.541046664537995
 50
237.9994055349554
 51
302.00059446504389
  0
LINE
  5
28B0
  8
0
 10
586.27260688966896
 20
232.90451776717299
 30
0.0
 11
587.46860688966888
 21
233.59551776717291
 31
0.0
  0
LINE
  5
28B1
  8
0
 10
578.01514509009758
 20
261.4045177671731
 30
0.0
 11
578.01514509009758
 21
274.40451776717299
 31
0.0
  0
LINE
  5
28B2
  8
0
 10
633.75768329052596
 20
232.90451776717299
 30
0.0
 11
632.56168329052605
 21
233.59551776717291
 31
0.0
  0
ARC
  5
28B3
  8
0
 10
634.43818329052647
 20
236.59847618021081
 30
0.0
 40
3.541046664537995
 50
237.9994055349562
 51
302.00059446504463
  0
LINE
  5
28B4
  8
0
 10
632.56168329052605
 20
233.59551776717291
 30
0.0
 11
632.56168329052605
 21
239.40451776717299
 31
0.0
  0
LINE
  5
28B5
  8
0
 10
639.35579565543765
 20
232.90451776717299
 30
0.0
 11
639.64631122955495
 21
227.36115038752499
 31
0.0
  0
ARC
  5
28B6
  8
0
 10
640.06668329052627
 20
246.4099971523431
 30
0.0
 40
13.352467409169931
 50
253.68029689768611
 51
286.31970310231401
  0
LINE
  5
28B7
  8
0
 10
636.31468329052575
 20
233.59551776717291
 30
0.0
 11
636.31468329052575
 21
239.40451776717299
 31
0.0
  0
LINE
  5
28B8
  8
0
 10
643.81868329052566
 20
233.59551776717291
 30
0.0
 11
643.81868329052566
 21
239.40451776717299
 31
0.0
  0
LINE
  5
28B9
  8
0
 10
642.01514509009746
 20
261.4045177671731
 30
0.0
 11
642.01514509009746
 21
274.40451776717299
 31
0.0
  0
LINE
  5
28BA
  8
0
 10
503.06490143189239
 20
302.88063397741689
 30
0.0
 11
521.9716514318925
 21
302.88063397741689
 31
0.0
  0
LINE
  5
28BB
  8
0
 10
509.36715143189213
 20
296.57838397741722
 30
0.0
 11
503.06490143189239
 21
302.88063397741689
 31
0.0
  0
LINE
  5
28BC
  8
0
 10
540.87952643189226
 20
296.57838397741722
 30
0.0
 11
509.36715143189213
 21
296.57838397741722
 31
0.0
  0
LINE
  5
28BD
  8
0
 10
525.12390143189248
 20
299.72950897741703
 30
0.0
 11
534.44002643189276
 21
299.72950897741703
 31
0.0
  0
LINE
  5
28BE
  8
0
 10
521.9716514318925
 20
302.88063397741689
 30
0.0
 11
525.12390143189248
 21
299.72950897741703
 31
0.0
  0
LINE
  5
28BF
  8
0
 10
534.44002643189276
 20
302.88063397741689
 30
0.0
 11
540.87952643189226
 21
296.57838397741722
 31
0.0
  0
LINE
  5
28C0
  8
0
 10
534.44002643189276
 20
299.72950897741703
 30
0.0
 11
534.44002643189276
 21
302.88063397741689
 31
0.0
  0
LINE
  5
28C1
  8
0
 10
596.08794737244352
 20
300.4045177671731
 30
0.0
 11
632.01514509009758
 21
300.4045177671731
 31
0.0
  0
ARC
  5
28C2
  8
0
 10
610.01514509009746
 20
305.4045177671731
 30
0.0
 40
22.0
 50
90.0
 51
135.2269284389296
  0
LINE
  5
28C3
  8
0
 10
561.51514509009758
 20
300.4045177671731
 30
0.0
 11
561.51514509009758
 21
322.40451776717299
 31
0.0
  0
ARC
  5
28C4
  8
0
 10
577.20092201083196
 20
305.11982719470461
 30
0.0
 40
17.942610513604421
 50
5.0737242294907894
 51
74.436136532046703
  0
LINE
  5
28C5
  8
0
 10
561.51514509009758
 20
278.40451776717299
 30
0.0
 11
561.51514509009758
 21
300.4045177671731
 31
0.0
  0
LINE
  5
28C6
  8
0
 10
561.51514509009758
 20
278.40451776717299
 30
0.0
 11
574.01514509009758
 21
278.40451776717299
 31
0.0
  0
ARC
  5
28C7
  8
0
 10
563.56143304375826
 20
298.25037549758707
 30
0.0
 40
24.711126537816678
 50
309.28733646195911
 51
339.28194528080672
  0
ARC
  5
28C8
  8
0
 10
596.08794737244352
 20
290.4045177671731
 30
0.0
 40
10.0
 50
90.0
 51
156.60139380708969
  0
LINE
  5
28C9
  8
0
 10
561.51514509009758
 20
322.40451776717299
 30
0.0
 11
582.01514509009758
 21
322.40451776717299
 31
0.0
  0
ARC
  5
28CA
  8
0
 10
590.13789387437919
 20
325.12493571678101
 30
0.0
 40
6.0
 50
237.70803330767399
 51
315.22692843892969
  0
ARC
  5
28CB
  8
0
 10
667.1935063496212
 20
305.5119074138326
 30
0.0
 40
26.98542651259913
 50
145.630832436448
 51
184.3421872263873
  0
POLYLINE
  5
28CC
  8
0
 66
     1
 10
0.0
 20
0.0
 30
0.0
 70
     1
  0
VERTEX
  5
29DE
  8
0
 10
625.65118405941848
 20
282.4045177671731
 30
0.0
  0
VERTEX
  5
29DF
  8
0
 10
632.01514509009758
 20
288.76847879785191
 30
0.0
  0
VERTEX
  5
29E0
  8
0
 10
638.37910612077656
 20
282.4045177671731
 30
0.0
  0
VERTEX
  5
29E1
  8
0
 10
632.01514509009758
 20
276.04055673649418
 30
0.0
  0
SEQEND
  5
29E2
  8
0
  0
CIRCLE
  5
28CD
  8
0
 10
632.01514509009758
 20
282.4045177671731
 30
0.0
 40
6.5779999999999736
  0
ARC
  5
28CE
  8
0
 10
632.01514509009758
 20
290.4045177671731
 30
0.0
 40
10.0
 50
23.39860619291024
 51
90.0
  0
LINE
  5
28CF
  8
0
 10
610.01514509009746
 20
327.4045177671731
 30
0.0
 11
626.91017191555511
 21
327.4045177671731
 31
0.0
  0
LINE
  5
28D0
  8
0
 10
579.96310688966958
 20
391.64631404973329
 30
0.0
 11
625.65118405941928
 21
391.64631404973352
 31
0.0
  0
LINE
  5
28D1
  8
0
 10
579.96310688966958
 20
387.64631404973329
 30
0.0
 11
640.06718329052626
 21
387.64631404973329
 31
0.0
  0
ARC
  5
28D2
  8
0
 10
579.96310688966958
 20
401.59427584930489
 30
0.0
 40
13.94796179957174
 50
180.0
 51
270.0
  0
ARC
  5
28D3
  8
0
 10
579.96310688966958
 20
401.59427584930489
 30
0.0
 40
9.9479617995717433
 50
180.0
 51
270.0
  0
LINE
  5
28D4
  8
0
 10
642.01514509009746
 20
397.64631404973329
 30
0.0
 11
622.01514509009746
 21
397.64631404973329
 31
0.0
  0
LINE
  5
28D5
  8
0
 10
622.01514509009746
 20
401.98152010135072
 30
0.0
 11
622.01514509009746
 21
397.64631404973329
 31
0.0
  0
LINE
  5
28D6
  8
0
 10
625.65118405941928
 20
388.64631404973329
 30
0.0
 11
638.59314509009789
 21
388.64631404973329
 31
0.0
  0
LINE
  5
28D7
  8
0
 10
625.65118405941928
 20
388.64631404973329
 30
0.0
 11
625.65118405941928
 21
397.64631404973329
 31
0.0
  0
LINE
  5
28D8
  8
0
 10
632.01514509009758
 20
388.64631404973329
 30
0.0
 11
632.01514509009758
 21
397.64631404973329
 31
0.0
  0
LINE
  5
28D9
  8
0
 10
638.59314509009789
 20
388.64631404973329
 30
0.0
 11
638.59314509009789
 21
397.64631404973329
 31
0.0
  0
LINE
  5
28DA
  8
0
 10
638.59314509009789
 20
391.64631404973352
 30
0.0
 11
640.06718329052626
 21
391.64631404973329
 31
0.0
  0
LINE
  5
28DD
  8
0
 10
573.01514509009746
 20
652.32041283400372
 30
0.0
 11
573.01514509009746
 21
630.32041283400372
 31
0.0
  0
LINE
  5
28DE
  8
0
 10
537.16827145058232
 20
424.52338030706369
 30
0.0
 11
505.65589645058202
 21
424.52338030706369
 31
0.0
  0
LINE
  5
28DF
  8
0
 10
499.35364645058229
 20
430.82563030706342
 30
0.0
 11
518.26039645058245
 21
430.82563030706342
 31
0.0
  0
LINE
  5
28E0
  8
0
 10
505.65589645058202
 20
424.52338030706369
 30
0.0
 11
499.35364645058229
 21
430.82563030706342
 31
0.0
  0
LINE
  5
28E1
  8
0
 10
530.72877145058283
 20
430.82563030706342
 30
0.0
 11
537.16827145058232
 21
424.52338030706369
 31
0.0
  0
LINE
  5
28E2
  8
0
 10
518.26039645058245
 20
430.82563030706342
 30
0.0
 11
521.41264645058254
 21
427.6745053070635
 31
0.0
  0
LINE
  5
28E3
  8
0
 10
521.41264645058254
 20
427.6745053070635
 30
0.0
 11
530.72877145058283
 21
427.6745053070635
 31
0.0
  0
LINE
  5
28E4
  8
0
 10
530.72877145058283
 20
427.6745053070635
 30
0.0
 11
530.72877145058283
 21
430.82563030706342
 31
0.0
  0
ARC
  5
28E5
  8
0
 10
579.96310688966958
 20
461.69835225016158
 30
0.0
 40
13.94796179957174
 50
90.0
 51
180.0
  0
ARC
  5
28E6
  8
0
 10
579.96310688966958
 20
461.69835225016158
 30
0.0
 40
9.9479617995717433
 50
90.0
 51
180.0
  0
ARC
  5
28E7
  8
0
 10
610.01514509009746
 20
431.64631404973318
 30
0.0
 40
22.733027193430139
 50
75.410413442949391
 51
284.58958655705072
  0
ARC
  5
28E8
  8
0
 10
610.01514509009746
 20
431.64631404973318
 30
0.0
 40
32.0
 50
43.432536557789689
 51
136.5674634422102
  0
LINE
  5
28E9
  8
0
 10
561.51514509009758
 20
431.64631404973318
 30
0.0
 11
561.51514509009758
 21
453.64631404973329
 31
0.0
  0
LINE
  5
28EA
  8
0
 10
591.39730484917618
 20
409.64631404973318
 30
0.0
 11
561.51514509009758
 21
409.64631404973318
 31
0.0
  0
LINE
  5
28EB
  8
0
 10
561.51514509009758
 20
409.64631404973318
 30
0.0
 11
561.51514509009758
 21
431.64631404973318
 31
0.0
  0
ARC
  5
28EC
  8
0
 10
591.39730484917618
 20
406.64631404973318
 30
0.0
 40
3.0
 50
0.0
 51
90.0
  0
CIRCLE
  5
28ED
  8
0
 10
579.96310688966958
 20
461.69835225016158
 30
0.0
 40
4.0
  0
LINE
  5
28EE
  8
0
 10
591.39730484917618
 20
453.64631404973329
 30
0.0
 11
561.51514509009758
 21
453.64631404973329
 31
0.0
  0
LINE
  5
28EF
  8
0
 10
566.01514509009758
 20
461.69835225016158
 30
0.0
 11
566.01514509009758
 21
453.64631404973329
 31
0.0
  0
LINE
  5
28F0
  8
0
 10
570.01514509009758
 20
461.69835225016158
 30
0.0
 11
570.01514509009758
 21
453.64631404973329
 31
0.0
  0
ARC
  5
28F1
  8
0
 10
591.39730484917618
 20
456.64631404973318
 30
0.0
 40
3.0
 50
270.0
 51
0.0
  0
CIRCLE
  5
28F2
  8
0
 10
640.06718329052626
 20
461.69835225016158
 30
0.0
 40
4.0
  0
LINE
  5
28F3
  8
0
 10
579.96310688966958
 20
475.64631404973318
 30
0.0
 11
640.06718329052626
 21
475.64631404973318
 31
0.0
  0
LINE
  5
28F4
  8
0
 10
579.96310688966958
 20
471.64631404973318
 30
0.0
 11
640.06718329052626
 21
471.64631404973318
 31
0.0
  0
LINE
  5
28F5
  8
0
 10
569.01514509009758
 20
577.8204128340036
 30
0.0
 11
569.01514509009758
 21
555.82041283400372
 31
0.0
  0
LINE
  5
28F6
  8
0
 10
604.01514509009746
 20
523.8204128340036
 30
0.0
 11
570.01514509009758
 21
523.8204128340036
 31
0.0
  0
ARC
  5
28F7
  8
0
 10
607.01514509009758
 20
551.82041283400372
 30
0.0
 40
10.0
 50
199.99999999999989
 51
270.0
  0
LINE
  5
28F8
  8
0
 10
570.01514509009758
 20
555.82041283400372
 30
0.0
 11
570.01514509009758
 21
523.8204128340036
 31
0.0
  0
LINE
  5
28F9
  8
0
 10
575.45760688966936
 20
550.01141283400352
 30
0.0
 11
576.65460688966857
 21
549.32041283400372
 31
0.0
  0
ARC
  5
28FA
  8
0
 10
577.33510688966896
 20
553.01437124704137
 30
0.0
 40
3.541046664537995
 50
237.9994055349562
 51
302.00059446504463
  0
LINE
  5
28FB
  8
0
 10
575.45760688966936
 20
555.82041283400372
 30
0.0
 11
575.45760688966936
 21
550.01141283400352
 31
0.0
  0
LINE
  5
28FC
  8
0
 10
576.65460688966857
 20
549.32041283400372
 30
0.0
 11
589.27260688966896
 21
549.32041283400372
 31
0.0
  0
ARC
  5
28FD
  8
0
 10
588.59210688966868
 20
553.01437124704137
 30
0.0
 40
3.541046664537995
 50
237.9994055349554
 51
302.00059446504389
  0
ARC
  5
28FE
  8
0
 10
582.96360688966888
 20
562.82589221917374
 30
0.0
 40
13.352467409169931
 50
253.68029689768611
 51
286.31970310231389
  0
LINE
  5
28FF
  8
0
 10
579.21160688966927
 20
550.01141283400352
 30
0.0
 11
579.21160688966927
 21
555.82041283400372
 31
0.0
  0
LINE
  5
2900
  8
0
 10
586.71560688966929
 20
550.01141283400352
 30
0.0
 11
586.71560688966929
 21
555.82041283400372
 31
0.0
  0
LINE
  5
2901
  8
0
 10
594.91748642827395
 20
555.82041283400372
 30
0.0
 11
597.61821888223847
 21
548.40021140074691
 31
0.0
  0
LINE
  5
2902
  8
0
 10
589.27260688966896
 20
549.32041283400372
 30
0.0
 11
590.46860688966899
 21
550.01141283400352
 31
0.0
  0
LINE
  5
2903
  8
0
 10
590.46860688966899
 20
550.01141283400352
 30
0.0
 11
590.46860688966899
 21
555.82041283400372
 31
0.0
  0
ARC
  5
2904
  8
0
 10
622.91748642827395
 20
551.82041283400372
 30
0.0
 40
10.0
 50
270.0
 51
340.0
  0
LINE
  5
2905
  8
0
 10
622.91748642827395
 20
541.82041283400372
 30
0.0
 11
607.01514509009758
 21
541.82041283400372
 31
0.0
  0
LINE
  5
2906
  8
0
 10
604.01514509009746
 20
538.82041283400372
 30
0.0
 11
604.01514509009746
 21
523.8204128340036
 31
0.0
  0
LINE
  5
2907
  8
0
 10
606.65150758882999
 20
530.89726640590902
 30
0.0
 11
619.37942965018829
 21
530.89726640590902
 31
0.0
  0
LINE
  5
2908
  8
0
 10
619.59396861950972
 20
538.89726640590902
 30
0.0
 11
606.43696861950946
 21
538.89726640590902
 31
0.0
  0
LINE
  5
2909
  8
0
 10
606.65150758882999
 20
530.89726640590902
 30
0.0
 11
606.65150758882999
 21
538.89726640590902
 31
0.0
  0
LINE
  5
290A
  8
0
 10
607.29296861950934
 20
538.89726640590902
 30
0.0
 11
607.38427395793951
 21
541.82041283400372
 31
0.0
  0
LINE
  5
290B
  8
0
 10
606.43696861950946
 20
538.89726640590902
 30
0.0
 11
606.52864382083408
 21
541.83225401893651
 31
0.0
  0
ARC
  5
290C
  8
0
 10
607.01514509009758
 20
538.82041283400372
 30
0.0
 40
3.0
 50
90.0
 51
180.0
  0
LINE
  5
290D
  8
0
 10
613.01546861950908
 20
530.89726640590902
 30
0.0
 11
613.01546861950908
 21
538.89726640590902
 31
0.0
  0
LINE
  5
290E
  8
0
 10
619.37942965018829
 20
530.89726640590902
 30
0.0
 11
619.37942965018829
 21
538.89726640590902
 31
0.0
  0
LINE
  5
290F
  8
0
 10
618.73796861950905
 20
538.89726640590902
 30
0.0
 11
618.64649133128933
 21
541.82041283400372
 31
0.0
  0
LINE
  5
2910
  8
0
 10
619.59396861950972
 20
538.89726640590902
 30
0.0
 11
619.50249133128909
 21
541.82041283400372
 31
0.0
  0
LINE
  5
2911
  8
0
 10
635.01514509009746
 20
555.82041283400372
 30
0.0
 11
632.31441263613306
 21
548.40021140074691
 31
0.0
  0
LINE
  5
2912
  8
0
 10
639.31468329052586
 20
550.01141283400352
 30
0.0
 11
639.31468329052586
 21
555.82041283400372
 31
0.0
  0
LINE
  5
2913
  8
0
 10
635.56168329052605
 20
550.01141283400352
 30
0.0
 11
635.56168329052605
 21
555.82041283400372
 31
0.0
  0
LINE
  5
2914
  8
0
 10
636.75768329052596
 20
549.32041283400372
 30
0.0
 11
635.56168329052605
 21
550.01141283400352
 31
0.0
  0
ARC
  5
2915
  8
0
 10
637.43818329052635
 20
553.01437124704137
 30
0.0
 40
3.541046664537995
 50
237.9994055349562
 51
302.00059446504463
  0
LINE
  5
2916
  8
0
 10
589.3102121785322
 20
618.27704545435563
 30
0.0
 11
636.72007800166375
 21
618.27704545435563
 31
0.0
  0
LINE
  5
2917
  8
0
 10
583.38397895063997
 20
618.27704545435563
 30
0.0
 11
571.01514509009746
 21
577.8204128340036
 31
0.0
  0
LINE
  5
2918
  8
0
 10
575.45760688966936
 20
624.51141283400352
 30
0.0
 11
576.65460688966857
 21
623.8204128340036
 31
0.0
  0
ARC
  5
2919
  8
0
 10
577.33510688966896
 20
627.51437124704148
 30
0.0
 40
3.541046664537995
 50
237.9994055349562
 51
302.00059446504463
  0
LINE
  5
291A
  8
0
 10
575.45760688966936
 20
630.32041283400372
 30
0.0
 11
575.45760688966936
 21
624.51141283400352
 31
0.0
  0
LINE
  5
291B
  8
0
 10
579.21160688966927
 20
624.51141283400352
 30
0.0
 11
579.21160688966927
 21
630.32041283400372
 31
0.0
  0
LINE
  5
291C
  8
0
 10
586.71560688966929
 20
624.51141283400352
 30
0.0
 11
586.71560688966929
 21
630.32041283400372
 31
0.0
  0
LINE
  5
291D
  8
0
 10
590.46860688966899
 20
624.51141283400352
 30
0.0
 11
590.46860688966899
 21
630.32041283400372
 31
0.0
  0
LINE
  5
291E
  8
0
 10
576.65460688966857
 20
623.8204128340036
 30
0.0
 11
589.27260688966896
 21
623.8204128340036
 31
0.0
  0
ARC
  5
291F
  8
0
 10
588.59210688966868
 20
627.51437124704148
 30
0.0
 40
3.541046664537995
 50
237.9994055349554
 51
302.00059446504389
  0
ARC
  5
2920
  8
0
 10
582.96360688966888
 20
637.32589221917374
 30
0.0
 40
13.352467409169931
 50
253.68029689768611
 51
286.31970310231389
  0
LINE
  5
2921
  8
0
 10
583.67449452475728
 20
623.8204128340036
 30
0.0
 11
583.38397895063997
 21
618.27704545435563
 31
0.0
  0
LINE
  5
2922
  8
0
 10
589.27260688966896
 20
623.8204128340036
 30
0.0
 11
590.46860688966899
 21
624.51141283400352
 31
0.0
  0
LINE
  5
2923
  8
0
 10
639.31468329052586
 20
624.51141283400352
 30
0.0
 11
639.31468329052586
 21
630.32041283400372
 31
0.0
  0
LINE
  5
2924
  8
0
 10
635.56168329052605
 20
624.51141283400352
 30
0.0
 11
635.56168329052605
 21
630.32041283400372
 31
0.0
  0
LINE
  5
2925
  8
0
 10
642.35579565543765
 20
623.8204128340036
 30
0.0
 11
642.64631122955495
 21
618.27704545435563
 31
0.0
  0
LINE
  5
2926
  8
0
 10
636.75768329052596
 20
623.8204128340036
 30
0.0
 11
635.56168329052605
 21
624.51141283400352
 31
0.0
  0
ARC
  5
2927
  8
0
 10
637.43818329052635
 20
627.51437124704148
 30
0.0
 40
3.541046664537995
 50
237.9994055349562
 51
302.00059446504463
  0
LINE
  5
2928
  8
0
 10
561.51514509009758
 20
691.32041283400372
 30
0.0
 11
561.51514509009758
 21
713.32041283400372
 31
0.0
  0
ARC
  5
2929
  8
0
 10
555.83678383057395
 20
696.42780248066333
 30
0.0
 40
26.98542651259913
 50
355.6578127736127
 51
34.369167563552011
  0
ARC
  5
292A
  8
0
 10
645.82936816936297
 20
696.03572226153517
 30
0.0
 40
17.942610513604421
 50
105.5638634679533
 51
174.92627577050919
  0
LINE
  5
292B
  8
0
 10
626.94234280775163
 20
691.32041283400372
 30
0.0
 11
591.01514509009758
 21
691.32041283400372
 31
0.0
  0
LINE
  5
292C
  8
0
 10
561.51514509009758
 20
669.3204128340036
 30
0.0
 11
561.51514509009758
 21
691.32041283400372
 31
0.0
  0
LINE
  5
292D
  8
0
 10
577.01514509009746
 20
669.3204128340036
 30
0.0
 11
561.51514509009758
 21
669.3204128340036
 31
0.0
  0
LINE
  5
292E
  8
0
 10
581.01514509009746
 20
652.32041283400372
 30
0.0
 11
581.01514509009746
 21
665.3204128340036
 31
0.0
  0
ARC
  5
292F
  8
0
 10
577.01514509009746
 20
665.3204128340036
 30
0.0
 40
4.0
 50
0.0
 51
90.0
  0
ARC
  5
2930
  8
0
 10
591.01514509009758
 20
681.32041283400372
 30
0.0
 40
10.0
 50
90.0
 51
156.60139380709049
  0
ARC
  5
2931
  8
0
 10
659.46885713643667
 20
689.16627056441769
 30
0.0
 40
24.711126537816678
 50
200.7180547191933
 51
230.7126635380408
  0
LINE
  5
2932
  8
0
 10
645.01514509009758
 20
652.32041283400372
 30
0.0
 11
645.01514509009758
 21
665.3204128340036
 31
0.0
  0
ARC
  5
2933
  8
0
 10
626.94234280775163
 20
681.32041283400372
 30
0.0
 40
10.0
 50
23.39860619290948
 51
90.0
  0
LINE
  5
2934
  8
0
 10
613.01514509009746
 20
718.32041283400372
 30
0.0
 11
596.12011826464004
 21
718.32041283400372
 31
0.0
  0
LINE
  5
2935
  8
0
 10
577.01514509009746
 20
713.32041283400372
 30
0.0
 11
561.51514509009758
 21
713.32041283400372
 31
0.0
  0
ARC
  5
2936
  8
0
 10
596.12011826464004
 20
679.32041283400372
 30
0.0
 40
39.0
 50
90.0
 51
119.3321101677036
  0
ARC
  5
2937
  8
0
 10
613.01514509009746
 20
696.32041283400372
 30
0.0
 40
22.0
 50
44.773071561070367
 51
90.0
  0
ARC
  5
2938
  8
0
 10
632.89239630581585
 20
716.04083078361157
 30
0.0
 40
6.0
 50
224.77307156107031
 51
302.29196669232601
  0
LINE
  5
2939
  8
0
 10
654.01514509009746
 20
409.64631404973318
 30
0.0
 11
654.01514509009746
 21
401.59427584930489
 31
0.0
  0
LINE
  5
293A
  8
0
 10
650.01514509009746
 20
409.64631404973318
 30
0.0
 11
650.01514509009746
 21
401.59427584930489
 31
0.0
  0
LINE
  5
293B
  8
0
 10
820.56471395654989
 20
164.90451776717299
 30
0.0
 11
820.56471395654989
 21
132.90451776717299
 31
0.0
  0
LINE
  5
293C
  8
0
 10
653.01514509009758
 20
164.90451776717299
 30
0.0
 11
653.01514509009758
 21
132.90451776717299
 31
0.0
  0
LINE
  5
293D
  8
0
 10
786.5647139565508
 20
164.90451776717299
 30
0.0
 11
786.56471395654978
 21
132.90451776717299
 31
0.0
  0
LINE
  5
293E
  8
0
 10
786.56471395654978
 20
132.90451776717299
 30
0.0
 11
820.56471395654989
 21
132.90451776717299
 31
0.0
  0
LINE
  5
293F
  8
0
 10
827.11579848887413
 20
233.59551776717291
 30
0.0
 11
828.31279848887323
 21
232.90451776717299
 31
0.0
  0
ARC
  5
2940
  8
0
 10
830.31299786934687
 20
240.644589705588
 30
0.0
 40
7.7402518739024098
 50
245.6027063437748
 51
295.25822383737972
  0
ARC
  5
2941
  8
0
 10
834.78500295916365
 20
315.96621469816961
 30
0.0
 40
10.0
 50
193.5530936573235
 51
235.33260626114219
  0
ARC
  5
2942
  8
0
 10
830.31299786934687
 20
166.144589705588
 30
0.0
 40
7.7402518739024098
 50
245.6027063437748
 51
295.25822383737972
  0
LINE
  5
2943
  8
0
 10
827.11579848887413
 20
159.09551776717279
 30
0.0
 11
828.31279848887323
 21
158.40451776717299
 31
0.0
  0
LINE
  5
2944
  8
0
 10
759.56471395654989
 20
175.90451776717299
 30
0.0
 11
847.56471395654989
 21
175.90451776717299
 31
0.0
  0
LINE
  5
2945
  8
0
 10
759.56471395654989
 20
164.90451776717299
 30
0.0
 11
847.56471395654989
 21
164.90451776717299
 31
0.0
  0
LINE
  5
2946
  8
0
 10
759.56471395654989
 20
186.9045177671729
 30
0.0
 11
847.56471395654989
 21
186.9045177671729
 31
0.0
  0
LINE
  5
2947
  8
0
 10
763.56471395654989
 20
239.40451776717299
 30
0.0
 11
843.56471395654989
 21
239.40451776717299
 31
0.0
  0
LINE
  5
2948
  8
0
 10
763.56471395654989
 20
250.4045177671731
 30
0.0
 11
843.56471395654989
 21
250.4045177671731
 31
0.0
  0
LINE
  5
2949
  8
0
 10
763.56471395654989
 20
261.4045177671731
 30
0.0
 11
843.56471395654989
 21
261.4045177671731
 31
0.0
  0
LINE
  5
294A
  8
0
 10
769.56471395654808
 20
290.90451776717299
 30
0.0
 11
769.56471395654978
 21
273.9045177671731
 31
0.0
  0
LINE
  5
294B
  8
0
 10
654.01514509009746
 20
186.9045177671729
 30
0.0
 11
654.01514509009746
 21
164.90451776717299
 31
0.0
  0
LINE
  5
294C
  8
0
 10
647.57268329052556
 20
164.90451776717299
 30
0.0
 11
647.57268329052556
 21
159.09551776717279
 31
0.0
  0
LINE
  5
294D
  8
0
 10
647.57268329052556
 20
159.09551776717279
 30
0.0
 11
646.37568329052635
 21
158.40451776717299
 31
0.0
  0
LINE
  5
294E
  8
0
 10
650.01514509009746
 20
261.4045177671731
 30
0.0
 11
650.01514509009746
 21
239.40451776717299
 31
0.0
  0
LINE
  5
294F
  8
0
 10
647.57268329052556
 20
239.40451776717299
 30
0.0
 11
647.57268329052556
 21
233.59551776717291
 31
0.0
  0
LINE
  5
2950
  8
0
 10
647.57268329052556
 20
233.59551776717291
 30
0.0
 11
646.37568329052635
 21
232.90451776717299
 31
0.0
  0
LINE
  5
2951
  8
0
 10
773.93354781709229
 20
227.36115038752499
 30
0.0
 11
761.56471395654978
 21
186.9045177671729
 31
0.0
  0
LINE
  5
2952
  8
0
 10
781.56471395654978
 20
164.90451776717299
 30
0.0
 11
784.26544641051441
 21
157.48431633391621
 31
0.0
  0
LINE
  5
2953
  8
0
 10
759.56471395654989
 20
186.9045177671729
 30
0.0
 11
759.56471395654989
 21
175.90451776717299
 31
0.0
  0
LINE
  5
2954
  8
0
 10
767.01272208801674
 20
159.09551776717279
 30
0.0
 11
767.01272208801674
 21
164.90451776717299
 31
0.0
  0
LINE
  5
2955
  8
0
 10
773.51267575612201
 20
159.09551776717279
 30
0.0
 11
773.51267575612201
 21
164.90451776717299
 31
0.0
  0
LINE
  5
2956
  8
0
 10
780.01262942422454
 20
159.09551776717279
 30
0.0
 11
780.01262942422454
 21
164.90451776717299
 31
0.0
  0
ARC
  5
2957
  8
0
 10
770.20992146848948
 20
166.144589705588
 30
0.0
 40
7.7402518739024098
 50
245.6027063437748
 51
295.25822383737972
  0
LINE
  5
2958
  8
0
 10
768.20972208801595
 20
158.40451776717299
 30
0.0
 11
778.81662942422554
 21
158.40451776717299
 31
0.0
  0
LINE
  5
2959
  8
0
 10
767.01272208801674
 20
159.09551776717279
 30
0.0
 11
768.20972208801595
 21
158.40451776717299
 31
0.0
  0
ARC
  5
295A
  8
0
 10
776.81543004375271
 20
166.14458970559551
 30
0.0
 40
7.740251873909143
 50
244.7417761626476
 51
294.39729365619479
  0
LINE
  5
295B
  8
0
 10
778.81662942422554
 20
158.40451776717299
 30
0.0
 11
780.01262942422545
 21
159.09551776717279
 31
0.0
  0
LINE
  5
295C
  8
0
 10
759.56471395654989
 20
175.90451776717299
 30
0.0
 11
759.56471395654989
 21
164.90451776717299
 31
0.0
  0
ARC
  5
295D
  8
0
 10
793.66237261837341
 20
160.90451776717299
 30
0.0
 40
10.0
 50
200.0
 51
224.78413124932021
  0
LINE
  5
295E
  8
0
 10
825.56471395654978
 20
164.90451776717299
 30
0.0
 11
822.86398150258537
 21
157.48431633391621
 31
0.0
  0
LINE
  5
295F
  8
0
 10
827.11579848887413
 20
159.09551776717279
 30
0.0
 11
827.11579848887413
 21
164.90451776717299
 31
0.0
  0
ARC
  5
2960
  8
0
 10
813.46705529472638
 20
160.90451776717299
 30
0.0
 40
10.0
 50
315.2158687506863
 51
340.0
  0
LINE
  5
2961
  8
0
 10
827.26964686811516
 20
227.36115038752499
 30
0.0
 11
779.85978104498372
 21
227.36115038752499
 31
0.0
  0
LINE
  5
2962
  8
0
 10
763.56471395654989
 20
250.4045177671731
 30
0.0
 11
763.56471395654989
 21
239.40451776717299
 31
0.0
  0
LINE
  5
2963
  8
0
 10
768.20972208801595
 20
232.90451776717299
 30
0.0
 11
778.81662942422554
 21
232.90451776717299
 31
0.0
  0
ARC
  5
2964
  8
0
 10
770.20992146848948
 20
240.644589705588
 30
0.0
 40
7.7402518739024098
 50
245.6027063437748
 51
295.25822383737972
  0
LINE
  5
2965
  8
0
 10
767.01272208801674
 20
233.59551776717291
 30
0.0
 11
767.01272208801674
 21
239.40451776717299
 31
0.0
  0
LINE
  5
2966
  8
0
 10
767.01272208801674
 20
233.59551776717291
 30
0.0
 11
768.20972208801595
 21
232.90451776717299
 31
0.0
  0
LINE
  5
2967
  8
0
 10
774.22406339120971
 20
232.90451776717299
 30
0.0
 11
773.93354781709229
 21
227.36115038752499
 31
0.0
  0
LINE
  5
2968
  8
0
 10
780.01262942422454
 20
233.59551776717291
 30
0.0
 11
780.01262942422454
 21
239.40451776717299
 31
0.0
  0
LINE
  5
2969
  8
0
 10
773.51267575612201
 20
233.59551776717291
 30
0.0
 11
773.51267575612201
 21
239.40451776717299
 31
0.0
  0
LINE
  5
296A
  8
0
 10
778.81662942422554
 20
232.90451776717299
 30
0.0
 11
780.01262942422545
 21
233.59551776717291
 31
0.0
  0
ARC
  5
296B
  8
0
 10
776.81543004375271
 20
240.64458970559551
 30
0.0
 40
7.740251873909143
 50
244.7417761626476
 51
294.39729365619479
  0
LINE
  5
296C
  8
0
 10
763.56471395654989
 20
261.4045177671731
 30
0.0
 11
763.56471395654989
 21
250.4045177671731
 31
0.0
  0
ARC
  5
296D
  8
0
 10
771.06471395654989
 20
273.9045177671731
 30
0.0
 40
1.5
 50
180.00000000000281
 51
270.0
  0
LINE
  5
296E
  8
0
 10
771.56471395654989
 20
261.4045177671731
 30
0.0
 11
771.56471395654899
 21
272.40451776717282
 31
0.0
  0
LINE
  5
296F
  8
0
 10
772.43699665085387
 20
272.40451776717299
 30
0.0
 11
771.06471395654989
 21
272.40451776717299
 31
0.0
  0
ARC
  5
2970
  8
0
 10
772.43699665085387
 20
271.40451776717242
 30
0.0
 40
1.0
 50
339.64559360176497
 51
90.000000000000028
  0
LINE
  5
2971
  8
0
 10
827.11579848887413
 20
233.59551776717291
 30
0.0
 11
827.11579848887413
 21
239.40451776717299
 31
0.0
  0
LINE
  5
2972
  8
0
 10
661.51514509009758
 20
300.4045177671731
 30
0.0
 11
661.51514509009758
 21
322.40451776717299
 31
0.0
  0
LINE
  5
2973
  8
0
 10
661.51514509009758
 20
278.40451776717299
 30
0.0
 11
661.51514509009758
 21
300.4045177671731
 31
0.0
  0
LINE
  5
2974
  8
0
 10
646.01514509009746
 20
278.40451776717299
 30
0.0
 11
661.51514509009758
 21
278.40451776717299
 31
0.0
  0
LINE
  5
2975
  8
0
 10
646.01514509009746
 20
322.40451776717299
 30
0.0
 11
661.51514509009758
 21
322.40451776717299
 31
0.0
  0
ARC
  5
2976
  8
0
 10
781.56471395654978
 20
300.4045177671731
 30
0.0
 40
2.0
 50
87.394748734944969
 51
272.60525126505502
  0
ARC
  5
2977
  8
0
 10
799.56471395654989
 20
309.40451776717282
 30
0.0
 40
18.0
 50
90.0
 51
166.44690634267491
  0
ARC
  5
2978
  8
0
 10
772.34442495393796
 20
315.96621469817018
 30
0.0
 40
10.0
 50
304.66739373885702
 51
346.44690634267272
  0
LINE
  5
2979
  8
0
 10
771.06471395654796
 20
292.4045177671731
 30
0.0
 11
783.07081242463119
 21
292.40451776717282
 31
0.0
  0
CIRCLE
  5
297A
  8
0
 10
803.56471395654989
 20
300.4045177671731
 30
0.0
 40
22.0
  0
ARC
  5
297B
  8
0
 10
786.56471395654978
 20
295.40451776717299
 30
0.0
 40
15.0
 50
124.66739373885559
 51
180.0
  0
ARC
  5
297C
  8
0
 10
771.06471395654796
 20
290.90451776717299
 30
0.0
 40
1.5
 50
89.999999999999034
 51
180.0
  0
LINE
  5
297D
  8
0
 10
760.56471395654626
 20
275.82651776717307
 30
0.0
 11
769.56471395654626
 21
275.82651776717307
 31
0.0
  0
LINE
  5
297E
  8
0
 10
760.56471395654626
 20
288.76847879785191
 30
0.0
 11
769.56471395654626
 21
288.76847879785191
 31
0.0
  0
LINE
  5
297F
  8
0
 10
760.56471395654626
 20
282.4045177671731
 30
0.0
 11
769.56471395654626
 21
282.4045177671731
 31
0.0
  0
LINE
  5
2980
  8
0
 10
760.56471395654626
 20
288.76847879785191
 30
0.0
 11
760.56471395654626
 21
275.82651776717307
 31
0.0
  0
LINE
  5
2981
  8
0
 10
771.56471395654989
 20
292.40451776717282
 30
0.0
 11
771.56471395654989
 21
295.40451776717299
 31
0.0
  0
CIRCLE
  5
2982
  8
0
 10
803.56471395654989
 20
300.4045177671731
 30
0.0
 40
17.5
  0
ARC
  5
2983
  8
0
 10
825.56471395654978
 20
300.4045177671731
 30
0.0
 40
2.0
 50
267.39474873494498
 51
92.605251265055045
  0
LINE
  5
2984
  8
0
 10
799.56471395654989
 20
327.40451776717282
 30
0.0
 11
807.56471395655069
 21
327.4045177671731
 31
0.0
  0
ARC
  5
2985
  8
0
 10
807.56471395655069
 20
309.4045177671731
 30
0.0
 40
18.0
 50
13.5530936573237
 51
90.000000000000398
  0
LINE
  5
2986
  8
0
 10
835.56471395654989
 20
261.4045177671731
 30
0.0
 11
835.56471395654989
 21
295.40451776717299
 31
0.0
  0
LINE
  5
2987
  8
0
 10
833.19588009600727
 20
227.36115038752499
 30
0.0
 11
845.56471395654989
 21
186.9045177671729
 31
0.0
  0
LINE
  5
2988
  8
0
 10
847.56471395654989
 20
186.9045177671729
 30
0.0
 11
847.56471395654989
 21
175.90451776717319
 31
0.0
  0
LINE
  5
2989
  8
0
 10
833.61575215697928
 20
159.09551776717279
 30
0.0
 11
833.61575215697928
 21
164.90451776717299
 31
0.0
  0
LINE
  5
298A
  8
0
 10
840.11570582508182
 20
159.09551776717279
 30
0.0
 11
840.11570582508182
 21
164.90451776717299
 31
0.0
  0
ARC
  5
298B
  8
0
 10
836.9185064446101
 20
166.14458970559551
 30
0.0
 40
7.740251873909143
 50
244.7417761626476
 51
294.39729365619479
  0
LINE
  5
298C
  8
0
 10
838.91970582508293
 20
158.40451776717299
 30
0.0
 11
840.11570582508273
 21
159.09551776717279
 31
0.0
  0
LINE
  5
298D
  8
0
 10
828.31279848887323
 20
158.40451776717299
 30
0.0
 11
838.91970582508293
 21
158.40451776717299
 31
0.0
  0
LINE
  5
298E
  8
0
 10
847.56471395654989
 20
175.90451776717319
 30
0.0
 11
847.56471395654989
 21
164.90451776717299
 31
0.0
  0
LINE
  5
298F
  8
0
 10
843.56471395654989
 20
250.4045177671731
 30
0.0
 11
843.56471395654989
 21
239.40451776717299
 31
0.0
  0
LINE
  5
2990
  8
0
 10
838.91970582508293
 20
232.90451776717299
 30
0.0
 11
840.11570582508273
 21
233.59551776717291
 31
0.0
  0
ARC
  5
2991
  8
0
 10
836.9185064446101
 20
240.64458970559551
 30
0.0
 40
7.740251873909143
 50
244.7417761626476
 51
294.39729365619479
  0
LINE
  5
2992
  8
0
 10
832.90536452188996
 20
232.90451776717299
 30
0.0
 11
833.19588009600727
 21
227.36115038752499
 31
0.0
  0
LINE
  5
2993
  8
0
 10
833.61575215697928
 20
233.59551776717291
 30
0.0
 11
833.61575215697928
 21
239.40451776717299
 31
0.0
  0
LINE
  5
2994
  8
0
 10
828.31279848887323
 20
232.90451776717299
 30
0.0
 11
838.91970582508293
 21
232.90451776717299
 31
0.0
  0
LINE
  5
2995
  8
0
 10
840.11570582508182
 20
233.59551776717291
 30
0.0
 11
840.11570582508182
 21
239.40451776717299
 31
0.0
  0
LINE
  5
2996
  8
0
 10
843.56471395654989
 20
261.4045177671731
 30
0.0
 11
843.56471395654989
 21
250.4045177671731
 31
0.0
  0
ARC
  5
2997
  8
0
 10
820.56471395654989
 20
295.40451776717299
 30
0.0
 40
15.0
 50
0.0
 51
55.33260626113772
  0
LINE
  5
2998
  8
0
 10
653.01514509009758
 20
652.32041283400372
 30
0.0
 11
653.01514509009758
 21
630.32041283400372
 31
0.0
  0
LINE
  5
2999
  8
0
 10
661.51514509009758
 20
431.64631404973318
 30
0.0
 11
661.51514509009758
 21
453.64631404973329
 31
0.0
  0
LINE
  5
299A
  8
0
 10
661.51514509009758
 20
409.64631404973318
 30
0.0
 11
661.51514509009758
 21
431.64631404973318
 31
0.0
  0
LINE
  5
299B
  8
0
 10
654.01514509009746
 20
461.69835225016158
 30
0.0
 11
654.01514509009746
 21
453.64631404973329
 31
0.0
  0
LINE
  5
299C
  8
0
 10
650.01514509009746
 20
461.69835225016158
 30
0.0
 11
650.01514509009746
 21
453.64631404973329
 31
0.0
  0
LINE
  5
299D
  8
0
 10
657.01514509009758
 20
577.8204128340036
 30
0.0
 11
657.01514509009758
 21
555.82041283400372
 31
0.0
  0
LINE
  5
299E
  8
0
 10
650.57268329052556
 20
550.01141283400352
 30
0.0
 11
649.37568329052647
 21
549.32041283400372
 31
0.0
  0
ARC
  5
299F
  8
0
 10
648.69518329052596
 20
553.01437124704137
 30
0.0
 40
3.541046664537995
 50
237.9994055349554
 51
302.00059446504389
  0
LINE
  5
29A0
  8
0
 10
646.81868329052656
 20
550.01141283400352
 30
0.0
 11
646.81868329052656
 21
555.82041283400372
 31
0.0
  0
LINE
  5
29A1
  8
0
 10
650.57268329052556
 20
555.82041283400372
 30
0.0
 11
650.57268329052556
 21
550.01141283400352
 31
0.0
  0
LINE
  5
29A2
  8
0
 10
646.81868329052656
 20
624.51141283400352
 30
0.0
 11
646.81868329052656
 21
630.32041283400372
 31
0.0
  0
LINE
  5
29A3
  8
0
 10
650.57268329052556
 20
630.32041283400372
 30
0.0
 11
650.57268329052556
 21
624.51141283400352
 31
0.0
  0
LINE
  5
29A4
  8
0
 10
650.57268329052556
 20
624.51141283400352
 30
0.0
 11
649.37568329052647
 21
623.8204128340036
 31
0.0
  0
ARC
  5
29A5
  8
0
 10
648.69518329052596
 20
627.51437124704148
 30
0.0
 40
3.541046664537995
 50
237.9994055349554
 51
302.00059446504389
  0
LINE
  5
29A6
  8
0
 10
661.51514509009758
 20
691.32041283400372
 30
0.0
 11
661.51514509009758
 21
713.32041283400372
 31
0.0
  0
LINE
  5
29A7
  8
0
 10
693.1635557382906
 20
693.11048383091634
 30
0.0
 11
683.8474307382902
 21
693.11048383091634
 31
0.0
  0
LINE
  5
29A8
  8
0
 10
677.4079307382907
 20
689.95935883091647
 30
0.0
 11
708.92030573829095
 21
689.95935883091647
 31
0.0
  0
LINE
  5
29A9
  8
0
 10
661.51514509009758
 20
669.3204128340036
 30
0.0
 11
661.51514509009758
 21
691.32041283400372
 31
0.0
  0
LINE
  5
29AA
  8
0
 10
661.51514509009758
 20
669.3204128340036
 30
0.0
 11
649.01514509009758
 21
669.3204128340036
 31
0.0
  0
LINE
  5
29AB
  8
0
 10
683.8474307382902
 20
696.2616088309162
 30
0.0
 11
677.4079307382907
 21
689.95935883091647
 31
0.0
  0
LINE
  5
29AC
  8
0
 10
683.8474307382902
 20
693.11048383091634
 30
0.0
 11
683.8474307382902
 21
696.2616088309162
 31
0.0
  0
LINE
  5
29AD
  8
0
 10
708.92030573829095
 20
689.95935883091647
 30
0.0
 11
715.22255573829079
 21
696.2616088309162
 31
0.0
  0
LINE
  5
29AE
  8
0
 10
715.22255573829079
 20
696.2616088309162
 30
0.0
 11
696.31580573829069
 21
696.2616088309162
 31
0.0
  0
LINE
  5
29AF
  8
0
 10
696.31580573829069
 20
696.2616088309162
 30
0.0
 11
693.1635557382906
 21
693.11048383091634
 31
0.0
  0
TEXT
  5
2A43
  8
0
 10
549.91824886739948
 20
71.709256689060496
 30
0.0
 40
15.0
  1
1/2,3/4,1
 41
0.8
 11
549.91824886739948
 21
71.709256689060496
 31
0.0
 73
     1
  0
VIEWPORT
  5
41
 67
     1
  8
0
 10
117.358407079646
 20
73.5
 30
0.0
 40
234.716814159292
 41
147.0
 68
     1
 69
     1
1001
ACAD
1000
MVIEW
1002
{
1070
    16
1010
0.0
1020
0.0
1030
0.0
1010
0.0
1020
0.0
1030
1.0
1040
0.0
1040
147.0
1040
117.358407079646
1040
73.5
1040
50.0
1040
0.0
1040
0.0
1070
     0
1070
   100
1070
     1
1070
     1
1070
     0
1070
     0
1070
     0
1070
     0
1040
0.0
1040
0.0
1040
0.0
1040
1.0
1040
1.0
1040
0.0
1040
0.0
1070
     0
1002
{
1002
}
1002
}
  0
ENDSEC
  0
EOF
