  0
SECTION
  2
HEADER
  9
$ACADVER
  1
AC1012
  9
$DWGCODEPAGE
  3
dos932
  9
$INSBASE
 10
0.0
 20
0.0
 30
0.0
  9
$EXTMIN
 10
110.0
 20
50.0
 30
0.0
  9
$EXTMAX
 10
2860.0
 20
1910.0
 30
0.0
  9
$LIMMIN
 10
0.0
 20
0.0
  9
$LIMMAX
 10
2970.0
 20
2100.0
  9
$ORTHOMODE
 70
     1
  9
$REGENMODE
 70
     1
  9
$FILLMODE
 70
     1
  9
$QTEXTMODE
 70
     0
  9
$MIRRTEXT
 70
     1
  9
$DRAGMODE
 70
     2
  9
$LTSCALE
 40
40.0
  9
$OSMODE
 70
   163
  9
$ATTMODE
 70
     1
  9
$TEXTSIZE
 40
40.0
  9
$TRACEWID
 40
0.05
  9
$TEXTSTYLE
  7
STANDARD
  9
$CLAYER
  8
0
  9
$CELTYPE
  6
BYLAYER
  9
$CECOLOR
 62
   256
  9
$CELTSCALE
 40
1.0
  9
$DELOBJ
 70
     1
  9
$DISPSILH
 70
     0
  9
$DIMSCALE
 40
10.0
  9
$DIMASZ
 40
2.8
  9
$DIMEXO
 40
1.0
  9
$DIMDLI
 40
5.0
  9
$DIMRND
 40
0.1
  9
$DIMDLE
 40
0.0
  9
$DIMEXE
 40
1.0
  9
$DIMTP
 40
0.0
  9
$DIMTM
 40
0.0
  9
$DIMTXT
 40
2.5
  9
$DIMCEN
 40
0.0
  9
$DIMTSZ
 40
0.0
  9
$DIMTOL
 70
     0
  9
$DIMLIM
 70
     0
  9
$DIMTIH
 70
     0
  9
$DIMTOH
 70
     0
  9
$DIMSE1
 70
     0
  9
$DIMSE2
 70
     0
  9
$DIMTAD
 70
     3
  9
$DIMZIN
 70
     8
  9
$DIMBLK
  1

  9
$DIMASO
 70
     1
  9
$DIMSHO
 70
     1
  9
$DIMPOST
  1
 
  9
$DIMAPOST
  1

  9
$DIMALT
 70
     0
  9
$DIMALTD
 70
     2
  9
$DIMALTF
 40
1.0
  9
$DIMLFAC
 40
1.0
  9
$DIMTOFL
 70
     1
  9
$DIMTVP
 40
0.0
  9
$DIMTIX
 70
     0
  9
$DIMSOXD
 70
     0
  9
$DIMSAH
 70
     1
  9
$DIMBLK1
  1
_OPEN
  9
$DIMBLK2
  1
_OPEN
  9
$DIMSTYLE
  2
DIM1
  9
$DIMCLRD
 70
     2
  9
$DIMCLRE
 70
     2
  9
$DIMCLRT
 70
     2
  9
$DIMTFAC
 40
0.7
  9
$DIMGAP
 40
0.85
  9
$DIMJUST
 70
     0
  9
$DIMSD1
 70
     0
  9
$DIMSD2
 70
     0
  9
$DIMTOLJ
 70
     1
  9
$DIMTZIN
 70
     8
  9
$DIMALTZ
 70
     8
  9
$DIMALTTZ
 70
     8
  9
$DIMFIT
 70
     0
  9
$DIMUPT
 70
     0
  9
$DIMUNIT
 70
     2
  9
$DIMDEC
 70
     2
  9
$DIMTDEC
 70
     3
  9
$DIMALTU
 70
     2
  9
$DIMALTTD
 70
     3
  9
$DIMTXSTY
  7
DIM
  9
$DIMAUNIT
 70
     0
  9
$LUNITS
 70
     2
  9
$LUPREC
 70
     4
  9
$SKETCHINC
 40
0.1
  9
$FILLETRAD
 40
0.0
  9
$AUNITS
 70
     0
  9
$AUPREC
 70
     0
  9
$MENU
  1
C:\ACADR13\WIN\SUPPORT\ACAD.mnc
  9
$ELEVATION
 40
0.0
  9
$PELEVATION
 40
0.0
  9
$THICKNESS
 40
0.0
  9
$LIMCHECK
 70
     0
  9
$BLIPMODE
 70
     1
  9
$CHAMFERA
 40
0.0
  9
$CHAMFERB
 40
0.0
  9
$CHAMFERC
 40
0.0
  9
$CHAMFERD
 40
0.0
  9
$SKPOLY
 70
     0
  9
$TDCREATE
 40
2451564.558683553
  9
$TDUPDATE
 40
2451981.561838460
  9
$TDINDWG
 40
0.0666496412
  9
$TDUSRTIMER
 40
0.0666496412
  9
$USRTIMER
 70
     1
  9
$ANGBASE
 50
0.0
  9
$ANGDIR
 70
     0
  9
$PDMODE
 70
     0
  9
$PDSIZE
 40
0.0
  9
$PLINEWID
 40
0.0
  9
$COORDS
 70
     1
  9
$SPLFRAME
 70
     0
  9
$SPLINETYPE
 70
     6
  9
$SPLINESEGS
 70
     8
  9
$ATTDIA
 70
     0
  9
$ATTREQ
 70
     1
  9
$HANDLING
 70
     1
  9
$HANDSEED
  5
3096
  9
$SURFTAB1
 70
     6
  9
$SURFTAB2
 70
     6
  9
$SURFTYPE
 70
     6
  9
$SURFU
 70
     6
  9
$SURFV
 70
     6
  9
$UCSNAME
  2

  9
$UCSORG
 10
0.0
 20
0.0
 30
0.0
  9
$UCSXDIR
 10
1.0
 20
0.0
 30
0.0
  9
$UCSYDIR
 10
0.0
 20
1.0
 30
0.0
  9
$PUCSNAME
  2

  9
$PUCSORG
 10
0.0
 20
0.0
 30
0.0
  9
$PUCSXDIR
 10
1.0
 20
0.0
 30
0.0
  9
$PUCSYDIR
 10
0.0
 20
1.0
 30
0.0
  9
$USERI1
 70
     0
  9
$USERI2
 70
     0
  9
$USERI3
 70
     0
  9
$USERI4
 70
     0
  9
$USERI5
 70
     0
  9
$USERR1
 40
0.0
  9
$USERR2
 40
0.0
  9
$USERR3
 40
0.0
  9
$USERR4
 40
0.0
  9
$USERR5
 40
0.0
  9
$WORLDVIEW
 70
     1
  9
$SHADEDGE
 70
     3
  9
$SHADEDIF
 70
    70
  9
$TILEMODE
 70
     1
  9
$MAXACTVP
 70
    16
  9
$PINSBASE
 10
0.0
 20
0.0
 30
0.0
  9
$PLIMCHECK
 70
     0
  9
$PEXTMIN
 10
1.000000E+20
 20
1.000000E+20
 30
1.000000E+20
  9
$PEXTMAX
 10
-1.000000E+20
 20
-1.000000E+20
 30
-1.000000E+20
  9
$PLIMMIN
 10
0.0
 20
0.0
  9
$PLIMMAX
 10
20.0
 20
147.0
  9
$UNITMODE
 70
     0
  9
$VISRETAIN
 70
     0
  9
$PLINEGEN
 70
     0
  9
$PSLTSCALE
 70
     1
  9
$TREEDEPTH
 70
  3020
  9
$PICKSTYLE
 70
     1
  9
$CMLSTYLE
  2
STANDARD
  9
$CMLJUST
 70
     0
  9
$CMLSCALE
 40
1.0
  9
$SAVEIMAGES
 70
     1
  0
ENDSEC
  0
SECTION
  2
CLASSES
  0
CLASS
  1
LWPOLYLINE
  2
AcDbPolyline
  3
"AutoCAD"
 90
    32768
280
     0
281
     1
  0
ENDSEC
  0
SECTION
  2
TABLES
  0
TABLE
  2
VPORT
  5
8
100
AcDbSymbolTable
 70
     2
  0
VPORT
  5
3095
100
AcDbSymbolTableRecord
100
AcDbViewportTableRecord
  2
*ACTIVE
 70
     0
 10
0.0
 20
0.0
 11
1.0
 21
1.0
 12
1918.497577
 22
1088.779078
 13
0.0
 23
0.0
 14
1.0
 24
1.0
 15
0.0
 25
0.0
 16
0.0
 26
0.0
 36
1.0
 17
0.0
 27
0.0
 37
0.0
 40
2177.558156
 41
1.762063
 42
50.0
 43
0.0
 44
0.0
 50
0.0
 51
0.0
 71
     0
 72
   100
 73
     1
 74
     1
 75
     0
 76
     0
 77
     0
 78
     0
  0
ENDTAB
  0
TABLE
  2
LTYPE
  5
5
100
AcDbSymbolTable
 70
     1
  0
LTYPE
  5
12
100
AcDbSymbolTableRecord
100
AcDbLinetypeTableRecord
  2
BYBLOCK
 70
     0
  3

 72
    65
 73
     0
 40
0.0
  0
LTYPE
  5
13
100
AcDbSymbolTableRecord
100
AcDbLinetypeTableRecord
  2
BYLAYER
 70
     0
  3

 72
    65
 73
     0
 40
0.0
  0
LTYPE
  5
14
100
AcDbSymbolTableRecord
100
AcDbLinetypeTableRecord
  2
CONTINUOUS
 70
     0
  3
Solid line
 72
    65
 73
     0
 40
0.0
  0
ENDTAB
  0
TABLE
  2
LAYER
  5
2
100
AcDbSymbolTable
 70
     1
  0
LAYER
  5
F
100
AcDbSymbolTableRecord
100
AcDbLayerTableRecord
  2
0
 70
     0
 62
     7
  6
CONTINUOUS
  0
ENDTAB
  0
TABLE
  2
STYLE
  5
3
100
AcDbSymbolTable
 70
     3
  0
STYLE
  5
10
100
AcDbSymbolTableRecord
100
AcDbTextStyleTableRecord
  2
STANDARD
 70
     0
 40
0.0
 41
0.8
 50
0.0
 71
     0
 42
40.0
  3
simplex
  4
extfont
  0
STYLE
  5
237C
100
AcDbSymbolTableRecord
100
AcDbTextStyleTableRecord
  2
PTSH
 70
     0
 40
0.0
 41
0.9
 50
0.0
 71
     0
 42
4.0
  3
SIMPLEX
  4
EXTFONT
  0
STYLE
  5
2592
100
AcDbSymbolTableRecord
100
AcDbTextStyleTableRecord
  2
DIM
 70
     0
 40
0.0
 41
0.8
 50
0.0
 71
     0
 42
4.0
  3
simplex
  4
extfont
  0
ENDTAB
  0
TABLE
  2
VIEW
  5
6
100
AcDbSymbolTable
 70
     0
  0
ENDTAB
  0
TABLE
  2
UCS
  5
7
100
AcDbSymbolTable
 70
     0
  0
ENDTAB
  0
TABLE
  2
APPID
  5
9
100
AcDbSymbolTable
 70
     1
  0
APPID
  5
11
100
AcDbSymbolTableRecord
100
AcDbRegAppTableRecord
  2
ACAD
 70
     0
  0
ENDTAB
  0
TABLE
  2
DIMSTYLE
  5
A
100
AcDbSymbolTable
 70
     1
  0
DIMSTYLE
105
2237
100
AcDbSymbolTableRecord
100
AcDbDimStyleTableRecord
  2
DIM1
 70
     0
  3
 
  4

  5

  6
_OPEN
  7
_OPEN
 40
10.0
 41
2.8
 42
1.0
 43
5.0
 44
1.0
 45
0.1
 46
0.0
 47
0.0
 48
0.0
140
2.5
141
0.0
142
0.0
143
1.0
144
1.0
145
0.0
146
0.7
147
0.85
 71
     0
 72
     0
 73
     0
 74
     0
 75
     0
 76
     0
 77
     3
 78
     8
170
     0
171
     2
172
     1
173
     1
174
     0
175
     0
176
     2
177
     2
178
     2
270
     2
271
     2
272
     3
273
     2
274
     3
340
2592
275
     0
280
     0
281
     0
282
     0
283
     1
284
     8
285
     8
286
     8
287
     0
288
     0
  0
ENDTAB
  0
TABLE
  2
BLOCK_RECORD
  5
1
100
AcDbSymbolTable
 70
     1
  0
BLOCK_RECORD
  5
18
100
AcDbSymbolTableRecord
100
AcDbBlockTableRecord
  2
*MODEL_SPACE
  0
BLOCK_RECORD
  5
15
100
AcDbSymbolTableRecord
100
AcDbBlockTableRecord
  2
*PAPER_SPACE
  0
BLOCK_RECORD
  5
2448
100
AcDbSymbolTableRecord
100
AcDbBlockTableRecord
  2
_OPEN
  0
ENDTAB
  0
ENDSEC
  0
SECTION
  2
BLOCKS
  0
BLOCK
  5
3C
100
AcDbEntity
  8
0
100
AcDbBlockBegin
  2
*MODEL_SPACE
 70
     0
 10
0.0
 20
0.0
 30
0.0
  3
*MODEL_SPACE
  1

  0
ENDBLK
  5
3D
100
AcDbEntity
  8
0
100
AcDbBlockEnd
  0
BLOCK
  5
3A
100
AcDbEntity
 67
     1
  8
0
100
AcDbBlockBegin
  2
*PAPER_SPACE
 70
     0
 10
0.0
 20
0.0
 30
0.0
  3
*PAPER_SPACE
  1

  0
ENDBLK
  5
3B
100
AcDbEntity
 67
     1
  8
0
100
AcDbBlockEnd
  0
BLOCK
  5
2449
100
AcDbEntity
  8
0
 48
4.0
100
AcDbBlockBegin
  2
_OPEN
 70
     0
 10
0.0
 20
0.0
 30
0.0
  3
_OPEN
  1
H1111.DWG
  0
LINE
  5
244A
100
AcDbEntity
  8
0
  6
BYBLOCK
 62
     0
 48
4.0
100
AcDbLine
 10
-1.0
 20
0.166667
 30
0.0
 11
0.0
 21
0.0
 31
0.0
  0
LINE
  5
244B
100
AcDbEntity
  8
0
  6
BYBLOCK
 62
     0
 48
4.0
100
AcDbLine
 10
0.0
 20
0.0
 30
0.0
 11
-1.0
 21
-0.166667
 31
0.0
  0
LINE
  5
244C
100
AcDbEntity
  8
0
  6
BYBLOCK
 62
     0
 48
4.0
100
AcDbLine
 10
0.0
 20
0.0
 30
0.0
 11
-1.0
 21
0.0
 31
0.0
  0
ENDBLK
  5
244D
100
AcDbEntity
  8
0
 48
4.0
100
AcDbBlockEnd
  0
ENDSEC
  0
SECTION
  2
ENTITIES
  0
MTEXT
  5
ADA
100
AcDbEntity
  8
0
100
AcDbMText
 10
3801.392798
 20
498.463111
 30
0.0
 40
2.0
 41
472.264648
 71
     1
 72
     1
  1

  0
MTEXT
  5
ADB
100
AcDbEntity
  8
0
100
AcDbMText
 10
3890.499332
 20
578.507937
 30
0.0
 40
2.0
 41
454.443342
 71
     1
 72
     1
  1

  0
MTEXT
  5
ADC
100
AcDbEntity
  8
0
100
AcDbMText
 10
3837.035411
 20
-479.862464
 30
0.0
 40
2.0
 41
516.817915
 71
     1
 72
     1
  1

  0
TEXT
  5
2529
100
AcDbEntity
  8
0
  6
CONTINUOUS
100
AcDbText
 10
2736.972013
 20
75.645157
 30
0.0
 40
20.0
  1
HR150A
 41
0.9
  7
PTSH
 72
     1
 11
2786.257727
 21
85.645157
 31
0.0
100
AcDbText
 73
     2
  0
POLYLINE
  5
2563
100
AcDbEntity
  8
0
100
AcDb2dPolyline
 66
     1
 10
0.0
 20
0.0
 30
0.0
 70
     1
  0
VERTEX
  5
3090
100
AcDbEntity
  8
0
100
AcDbVertex
100
AcDb2dVertex
 10
110.0
 20
50.0
 30
0.0
  0
VERTEX
  5
3091
100
AcDbEntity
  8
0
100
AcDbVertex
100
AcDb2dVertex
 10
2860.0
 20
50.0
 30
0.0
  0
VERTEX
  5
3092
100
AcDbEntity
  8
0
100
AcDbVertex
100
AcDb2dVertex
 10
2860.0
 20
1910.0
 30
0.0
  0
VERTEX
  5
3093
100
AcDbEntity
  8
0
100
AcDbVertex
100
AcDb2dVertex
 10
110.0
 20
1910.0
 30
0.0
  0
SEQEND
  5
3094
100
AcDbEntity
  8
0
  0
LINE
  5
2A79
100
AcDbEntity
  8
0
100
AcDbLine
 10
1449.139842
 20
829.750571
 30
0.0
 11
1461.439842
 21
829.750571
 31
0.0
  0
LINE
  5
2A7A
100
AcDbEntity
  8
0
100
AcDbLine
 10
1449.139842
 20
774.250571
 30
0.0
 11
1460.539842
 21
774.250571
 31
0.0
  0
LINE
  5
2A7B
100
AcDbEntity
  8
0
100
AcDbLine
 10
1449.139842
 20
644.171126
 30
0.0
 11
1460.639842
 21
644.171126
 31
0.0
  0
LINE
  5
2A7C
100
AcDbEntity
  8
0
100
AcDbLine
 10
1449.139842
 20
588.671126
 30
0.0
 11
1460.639842
 21
588.671126
 31
0.0
  0
LINE
  5
2A7D
100
AcDbEntity
  8
0
100
AcDbLine
 10
1449.139842
 20
352.282724
 30
0.0
 11
1461.439842
 21
352.282724
 31
0.0
  0
LINE
  5
2A7E
100
AcDbEntity
  8
0
100
AcDbLine
 10
1449.139842
 20
296.782724
 30
0.0
 11
1460.539842
 21
296.782724
 31
0.0
  0
TEXT
  5
2A7F
100
AcDbEntity
  8
0
100
AcDbText
 10
1206.418792
 20
179.264739
 30
0.0
 40
35.0
  1
TLV  HR150A (JIS63K)
100
AcDbText
  0
LINE
  5
2A80
100
AcDbEntity
  8
0
100
AcDbLine
 10
698.796219
 20
829.750571
 30
0.0
 11
698.796219
 21
901.500571
 31
0.0
  0
LINE
  5
2A81
100
AcDbEntity
  8
0
100
AcDbLine
 10
585.396219
 20
829.750571
 30
0.0
 11
585.396219
 21
901.500571
 31
0.0
  0
LINE
  5
2A82
100
AcDbEntity
  8
0
100
AcDbLine
 10
573.096219
 20
829.750571
 30
0.0
 11
585.396219
 21
829.750571
 31
0.0
  0
LINE
  5
2A83
100
AcDbEntity
  8
0
100
AcDbLine
 10
573.096219
 20
774.250571
 30
0.0
 11
584.496219
 21
774.250571
 31
0.0
  0
LINE
  5
2A84
100
AcDbEntity
  8
0
100
AcDbLine
 10
573.096219
 20
644.171126
 30
0.0
 11
584.596219
 21
644.171126
 31
0.0
  0
LINE
  5
2A85
100
AcDbEntity
  8
0
100
AcDbLine
 10
573.096219
 20
588.671126
 30
0.0
 11
584.596219
 21
588.671126
 31
0.0
  0
LINE
  5
2A86
100
AcDbEntity
  8
0
100
AcDbLine
 10
573.096219
 20
352.282724
 30
0.0
 11
585.396219
 21
352.282724
 31
0.0
  0
LINE
  5
2A87
100
AcDbEntity
  8
0
100
AcDbLine
 10
573.096219
 20
296.782724
 30
0.0
 11
584.496219
 21
296.782724
 31
0.0
  0
LINE
  5
2A88
100
AcDbEntity
  8
0
100
AcDbLine
 10
464.376452
 20
329.854898
 30
0.0
 11
477.255452
 21
317.250398
 31
0.0
  0
LINE
  5
2A89
100
AcDbEntity
  8
0
100
AcDbLine
 10
464.376452
 20
323.552648
 30
0.0
 11
464.376452
 21
329.854898
 31
0.0
  0
LINE
  5
2A8A
100
AcDbEntity
  8
0
100
AcDbLine
 10
414.230702
 20
317.250398
 30
0.0
 11
401.626202
 21
329.854898
 31
0.0
  0
LINE
  5
2A8B
100
AcDbEntity
  8
0
100
AcDbLine
 10
439.439702
 20
329.854898
 30
0.0
 11
445.744202
 21
323.552648
 31
0.0
  0
LINE
  5
2A8D
100
AcDbEntity
  8
0
100
AcDbLine
 10
566.002472
 20
351.032724
 30
0.0
 11
566.002472
 21
298.032724
 31
0.0
  0
LINE
  5
2A8E
100
AcDbEntity
  8
0
100
AcDbLine
 10
573.096219
 20
352.282724
 30
0.0
 11
573.096219
 21
296.782724
 31
0.0
  0
LINE
  5
2A8F
100
AcDbEntity
  8
0
100
AcDbLine
 10
572.096219
 20
351.282724
 30
0.0
 11
572.096219
 21
297.782724
 31
0.0
  0
LINE
  5
2A92
100
AcDbEntity
  8
0
100
AcDbLine
 10
234.981025
 20
350.282724
 30
0.0
 11
234.981025
 21
297.782724
 31
0.0
  0
LINE
  5
2A95
100
AcDbEntity
  8
0
100
AcDbLine
 10
384.981025
 20
350.282724
 30
0.0
 11
384.981025
 21
297.782724
 31
0.0
  0
LINE
  5
2A97
100
AcDbEntity
  8
0
100
AcDbLine
 10
257.317589
 20
295.782724
 30
0.0
 11
236.981025
 21
295.782724
 31
0.0
  0
LINE
  5
2A98
100
AcDbEntity
  8
0
100
AcDbLine
 10
256.274065
 20
297.782724
 30
0.0
 11
234.981025
 21
297.782724
 31
0.0
  0
LINE
  5
2A99
100
AcDbEntity
  8
0
100
AcDbLine
 10
234.981025
 20
297.782724
 30
0.0
 11
236.981025
 21
295.782724
 31
0.0
  0
LINE
  5
2A9D
100
AcDbEntity
  8
0
100
AcDbLine
 10
382.981025
 20
295.782724
 30
0.0
 11
362.644461
 21
295.782724
 31
0.0
  0
LINE
  5
2A9E
100
AcDbEntity
  8
0
100
AcDbLine
 10
363.687984
 20
297.782724
 30
0.0
 11
384.981025
 21
297.782724
 31
0.0
  0
LINE
  5
2AA0
100
AcDbEntity
  8
0
100
AcDbLine
 10
382.981025
 20
295.782724
 30
0.0
 11
384.981025
 21
297.782724
 31
0.0
  0
LINE
  5
2AA1
100
AcDbEntity
  8
0
100
AcDbLine
 10
477.255452
 20
317.250398
 30
0.0
 11
414.230702
 21
317.250398
 31
0.0
  0
LINE
  5
2AA2
100
AcDbEntity
  8
0
100
AcDbLine
 10
445.744202
 20
323.552648
 30
0.0
 11
464.376452
 21
323.552648
 31
0.0
  0
LINE
  5
2AA6
100
AcDbEntity
  8
0
100
AcDbLine
 10
573.096219
 20
296.782724
 30
0.0
 11
572.096219
 21
297.782724
 31
0.0
  0
ARC
  5
2AA7
100
AcDbEntity
  8
0
100
AcDbCircle
 10
569.264177
 20
303.144228
 30
0.0
 40
6.063513
100
AcDbArc
 50
237.457624
 51
297.843817
  0
TEXT
  5
2AA9
100
AcDbEntity
  8
0
100
AcDbText
 10
164.42
 20
599.763657
 30
0.0
 40
25.0
  1
平面
100
AcDbText
  0
LINE
  5
2AAA
100
AcDbEntity
  8
0
100
AcDbLine
 10
572.096219
 20
643.171126
 30
0.0
 11
572.096219
 21
589.671126
 31
0.0
  0
LINE
  5
2AAB
100
AcDbEntity
  8
0
100
AcDbLine
 10
573.096219
 20
644.171126
 30
0.0
 11
573.096219
 21
588.671126
 31
0.0
  0
LINE
  5
2AAC
100
AcDbEntity
  8
0
100
AcDbLine
 10
566.002472
 20
642.921126
 30
0.0
 11
566.002472
 21
589.921126
 31
0.0
  0
LINE
  5
2AAF
100
AcDbEntity
  8
0
100
AcDbLine
 10
345.481025
 20
445.232724
 30
0.0
 11
274.481025
 21
445.232724
 31
0.0
  0
LINE
  5
2AB0
100
AcDbEntity
  8
0
100
AcDbLine
 10
366.681025
 20
375.232724
 30
0.0
 11
342.067003
 21
375.232724
 31
0.0
  0
LINE
  5
2AB1
100
AcDbEntity
  8
0
100
AcDbLine
 10
313.131025
 20
452.232724
 30
0.0
 11
313.131025
 21
483.380909
 31
0.0
  0
LINE
  5
2AB2
100
AcDbEntity
  8
0
100
AcDbLine
 10
306.831025
 20
452.232724
 30
0.0
 11
306.831025
 21
483.380909
 31
0.0
  0
LINE
  5
2AB3
100
AcDbEntity
  8
0
100
AcDbLine
 10
256.783868
 20
352.282724
 30
0.0
 11
236.981025
 21
352.282724
 31
0.0
  0
LINE
  5
2AB4
100
AcDbEntity
  8
0
100
AcDbLine
 10
255.787506
 20
350.282724
 30
0.0
 11
234.981025
 21
350.282724
 31
0.0
  0
LINE
  5
2AB5
100
AcDbEntity
  8
0
100
AcDbLine
 10
236.981025
 20
352.282724
 30
0.0
 11
234.981025
 21
350.282724
 31
0.0
  0
TEXT
  5
2AB6
100
AcDbEntity
  8
0
100
AcDbText
 10
164.42
 20
429.066817
 30
0.0
 40
25.0
  1
正面
100
AcDbText
  0
LINE
  5
2AB7
100
AcDbEntity
  8
0
100
AcDbLine
 10
253.281025
 20
352.282724
 30
0.0
 11
253.281025
 21
424.032724
 31
0.0
  0
ARC
  5
2ABB
100
AcDbEntity
  8
0
100
AcDbCircle
 10
274.481025
 20
424.032724
 30
0.0
 40
21.2
100
AcDbArc
 50
90.0
 51
180.0
  0
LINE
  5
2ABC
100
AcDbEntity
  8
0
100
AcDbLine
 10
317.981025
 20
445.232724
 30
0.0
 11
315.981025
 21
457.232724
 31
0.0
  0
LINE
  5
2ABD
100
AcDbEntity
  8
0
100
AcDbLine
 10
317.981025
 20
445.232724
 30
0.0
 11
301.981025
 21
445.232724
 31
0.0
  0
LINE
  5
2ABE
100
AcDbEntity
  8
0
100
AcDbLine
 10
301.981025
 20
445.232724
 30
0.0
 11
303.981025
 21
457.232724
 31
0.0
  0
LINE
  5
2ABF
100
AcDbEntity
  8
0
100
AcDbLine
 10
306.825821
 20
458.743536
 30
0.0
 11
303.981025
 21
457.232724
 31
0.0
  0
LINE
  5
2AC0
100
AcDbEntity
  8
0
100
AcDbLine
 10
306.831025
 20
457.232724
 30
0.0
 11
303.981025
 21
457.232724
 31
0.0
  0
LINE
  5
2AC1
100
AcDbEntity
  8
0
100
AcDbLine
 10
306.831025
 20
458.743536
 30
0.0
 11
306.825821
 21
458.743536
 31
0.0
  0
ARC
  5
2AC2
100
AcDbEntity
  8
0
100
AcDbCircle
 10
305.831025
 20
452.232724
 30
0.0
 40
1.0
100
AcDbArc
 50
270.0
 51
0.0
  0
LINE
  5
2AC3
100
AcDbEntity
  8
0
100
AcDbLine
 10
315.981025
 20
457.232724
 30
0.0
 11
313.125821
 21
458.743536
 31
0.0
  0
LINE
  5
2AC4
100
AcDbEntity
  8
0
100
AcDbLine
 10
315.981025
 20
457.232724
 30
0.0
 11
313.131025
 21
457.232724
 31
0.0
  0
ARC
  5
2AC5
100
AcDbEntity
  8
0
100
AcDbCircle
 10
314.131025
 20
452.232724
 30
0.0
 40
1.0
100
AcDbArc
 50
180.0
 51
270.0
  0
ARC
  5
2AC6
100
AcDbEntity
  8
0
100
AcDbCircle
 10
309.981025
 20
468.232724
 30
0.0
 40
16.3
100
AcDbArc
 50
81.921896
 51
98.078104
  0
ARC
  5
2AC7
100
AcDbEntity
  8
0
100
AcDbCircle
 10
307.831025
 20
483.380909
 30
0.0
 40
1.0
100
AcDbArc
 50
98.078104
 51
180.0
  0
ARC
  5
2AC8
100
AcDbEntity
  8
0
100
AcDbCircle
 10
312.131025
 20
483.380909
 30
0.0
 40
1.0
100
AcDbArc
 50
0.0
 51
81.921896
  0
LINE
  5
2AC9
100
AcDbEntity
  8
0
100
AcDbLine
 10
366.681025
 20
352.282724
 30
0.0
 11
366.681025
 21
424.032724
 31
0.0
  0
LINE
  5
2ACA
100
AcDbEntity
  8
0
100
AcDbLine
 10
382.981025
 20
352.282724
 30
0.0
 11
363.178182
 21
352.282724
 31
0.0
  0
LINE
  5
2ACB
100
AcDbEntity
  8
0
100
AcDbLine
 10
364.174544
 20
350.282724
 30
0.0
 11
384.981025
 21
350.282724
 31
0.0
  0
LINE
  5
2ACD
100
AcDbEntity
  8
0
100
AcDbLine
 10
382.981025
 20
352.282724
 30
0.0
 11
384.981025
 21
350.282724
 31
0.0
  0
LINE
  5
2ACE
100
AcDbEntity
  8
0
100
AcDbLine
 10
401.626202
 20
329.854898
 30
0.0
 11
439.439702
 21
329.854898
 31
0.0
  0
ARC
  5
2ACF
100
AcDbEntity
  8
0
100
AcDbCircle
 10
345.481025
 20
424.032724
 30
0.0
 40
21.2
100
AcDbArc
 50
0.0
 51
90.0
  0
LINE
  5
2AD4
100
AcDbEntity
  8
0
100
AcDbLine
 10
573.096219
 20
352.282724
 30
0.0
 11
572.096219
 21
351.282724
 31
0.0
  0
ARC
  5
2AD5
100
AcDbEntity
  8
0
100
AcDbCircle
 10
569.264177
 20
345.92122
 30
0.0
 40
6.063513
100
AcDbArc
 50
62.156183
 51
122.542376
  0
LINE
  5
2AD9
100
AcDbEntity
  8
0
100
AcDbLine
 10
573.096219
 20
588.671126
 30
0.0
 11
572.096219
 21
589.671126
 31
0.0
  0
ARC
  5
2ADA
100
AcDbEntity
  8
0
100
AcDbCircle
 10
569.264177
 20
595.03263
 30
0.0
 40
6.063513
100
AcDbArc
 50
237.457624
 51
297.843817
  0
TEXT
  5
2ADC
100
AcDbEntity
  8
0
100
AcDbText
 10
164.42
 20
760.727864
 30
0.0
 40
25.0
  1
背面
100
AcDbText
  0
LINE
  5
2ADD
100
AcDbEntity
  8
0
100
AcDbLine
 10
466.309245
 20
615.991662
 30
0.0
 11
403.284495
 21
615.991662
 31
0.0
  0
LINE
  5
2ADE
100
AcDbEntity
  8
0
100
AcDbLine
 10
428.493495
 20
628.596162
 30
0.0
 11
434.797995
 21
622.293912
 31
0.0
  0
LINE
  5
2ADF
100
AcDbEntity
  8
0
100
AcDbLine
 10
403.284495
 20
615.991662
 30
0.0
 11
390.679995
 21
628.596162
 31
0.0
  0
LINE
  5
2AE0
100
AcDbEntity
  8
0
100
AcDbLine
 10
390.679995
 20
628.596162
 30
0.0
 11
428.493495
 21
628.596162
 31
0.0
  0
LINE
  5
2AE1
100
AcDbEntity
  8
0
100
AcDbLine
 10
453.430245
 20
628.596162
 30
0.0
 11
466.309245
 21
615.991662
 31
0.0
  0
LINE
  5
2AE2
100
AcDbEntity
  8
0
100
AcDbLine
 10
453.430245
 20
622.293912
 30
0.0
 11
453.430245
 21
628.596162
 31
0.0
  0
LINE
  5
2AE3
100
AcDbEntity
  8
0
100
AcDbLine
 10
434.797995
 20
622.293912
 30
0.0
 11
453.430245
 21
622.293912
 31
0.0
  0
LINE
  5
2AE8
100
AcDbEntity
  8
0
100
AcDbLine
 10
573.096219
 20
644.171126
 30
0.0
 11
572.096219
 21
643.171126
 31
0.0
  0
ARC
  5
2AE9
100
AcDbEntity
  8
0
100
AcDbCircle
 10
569.264177
 20
637.809622
 30
0.0
 40
6.063513
100
AcDbArc
 50
62.156183
 51
122.542376
  0
LINE
  5
2AEA
100
AcDbEntity
  8
0
100
AcDbLine
 10
572.096219
 20
828.750571
 30
0.0
 11
572.096219
 21
775.250571
 31
0.0
  0
LINE
  5
2AEB
100
AcDbEntity
  8
0
100
AcDbLine
 10
573.096219
 20
820.000571
 30
0.0
 11
573.096219
 21
784.000571
 31
0.0
  0
LINE
  5
2AEC
100
AcDbEntity
  8
0
100
AcDbLine
 10
573.096219
 20
829.750571
 30
0.0
 11
573.096219
 21
774.250571
 31
0.0
  0
LINE
  5
2AED
100
AcDbEntity
  8
0
100
AcDbLine
 10
566.002472
 20
828.500571
 30
0.0
 11
566.002472
 21
775.500571
 31
0.0
  0
LINE
  5
2AF4
100
AcDbEntity
  8
0
100
AcDbLine
 10
573.096219
 20
774.250571
 30
0.0
 11
572.096219
 21
775.250571
 31
0.0
  0
ARC
  5
2AF5
100
AcDbEntity
  8
0
100
AcDbCircle
 10
569.264177
 20
780.612075
 30
0.0
 40
6.063513
100
AcDbArc
 50
237.457624
 51
297.843817
  0
LINE
  5
2AFA
100
AcDbEntity
  8
0
100
AcDbLine
 10
573.096219
 20
829.750571
 30
0.0
 11
572.096219
 21
828.750571
 31
0.0
  0
ARC
  5
2AFB
100
AcDbEntity
  8
0
100
AcDbCircle
 10
569.264177
 20
823.389067
 30
0.0
 40
6.063513
100
AcDbArc
 50
62.156183
 51
122.542376
  0
LINE
  5
2AFC
100
AcDbEntity
  8
0
100
AcDbLine
 10
1448.139842
 20
351.282724
 30
0.0
 11
1448.139842
 21
297.782724
 31
0.0
  0
LINE
  5
2AFD
100
AcDbEntity
  8
0
100
AcDbLine
 10
1449.139842
 20
352.282724
 30
0.0
 11
1449.139842
 21
296.782724
 31
0.0
  0
LINE
  5
2AFE
100
AcDbEntity
  8
0
100
AcDbLine
 10
1442.046096
 20
351.032724
 30
0.0
 11
1442.046096
 21
298.032724
 31
0.0
  0
LINE
  5
2B03
100
AcDbEntity
  8
0
100
AcDbLine
 10
1264.757909
 20
350.282724
 30
0.0
 11
1264.757909
 21
297.782724
 31
0.0
  0
LINE
  5
2B04
100
AcDbEntity
  8
0
100
AcDbLine
 10
1114.757909
 20
350.282724
 30
0.0
 11
1114.757909
 21
297.782724
 31
0.0
  0
LINE
  5
2B07
100
AcDbEntity
  8
0
100
AcDbLine
 10
830.839695
 20
350.282724
 30
0.0
 11
830.839695
 21
297.782724
 31
0.0
  0
LINE
  5
2B0A
100
AcDbEntity
  8
0
100
AcDbLine
 10
980.839695
 20
350.282724
 30
0.0
 11
980.839695
 21
297.782724
 31
0.0
  0
LINE
  5
2B0C
100
AcDbEntity
  8
0
100
AcDbLine
 10
718.189966
 20
351.032724
 30
0.0
 11
718.189966
 21
298.032724
 31
0.0
  0
LINE
  5
2B0D
100
AcDbEntity
  8
0
100
AcDbLine
 10
712.096219
 20
351.282724
 30
0.0
 11
712.096219
 21
297.782724
 31
0.0
  0
LINE
  5
2B0E
100
AcDbEntity
  8
0
100
AcDbLine
 10
711.096219
 20
352.282724
 30
0.0
 11
711.096219
 21
296.782724
 31
0.0
  0
LINE
  5
2B0F
100
AcDbEntity
  8
0
100
AcDbLine
 10
959.546654
 20
297.782724
 30
0.0
 11
980.839695
 21
297.782724
 31
0.0
  0
LINE
  5
2B10
100
AcDbEntity
  8
0
100
AcDbLine
 10
958.503131
 20
295.782724
 30
0.0
 11
978.839695
 21
295.782724
 31
0.0
  0
LINE
  5
2B12
100
AcDbEntity
  8
0
100
AcDbLine
 10
584.496219
 20
295.782724
 30
0.0
 11
699.696219
 21
295.782724
 31
0.0
  0
TEXT
  5
2B13
100
AcDbEntity
  8
0
100
AcDbText
 10
617.026285
 20
252.634188
 30
0.0
 40
20.0
  1
15A
 41
0.8
 11
617.026285
 21
252.634188
 31
0.0
100
AcDbText
 73
     1
  0
LINE
  5
2B14
100
AcDbEntity
  8
0
100
AcDbLine
 10
584.496219
 20
296.782724
 30
0.0
 11
584.496219
 21
295.782724
 31
0.0
  0
LINE
  5
2B15
100
AcDbEntity
  8
0
100
AcDbLine
 10
699.696219
 20
296.782724
 30
0.0
 11
711.096219
 21
296.782724
 31
0.0
  0
LINE
  5
2B16
100
AcDbEntity
  8
0
100
AcDbLine
 10
699.696219
 20
296.782724
 30
0.0
 11
699.696219
 21
295.782724
 31
0.0
  0
LINE
  5
2B17
100
AcDbEntity
  8
0
100
AcDbLine
 10
711.096219
 20
296.782724
 30
0.0
 11
712.096219
 21
297.782724
 31
0.0
  0
ARC
  5
2B18
100
AcDbEntity
  8
0
100
AcDbCircle
 10
714.928262
 20
303.144228
 30
0.0
 40
6.063513
100
AcDbArc
 50
242.156183
 51
302.542376
  0
LINE
  5
2B1D
100
AcDbEntity
  8
0
100
AcDbLine
 10
832.839695
 20
295.782724
 30
0.0
 11
853.176259
 21
295.782724
 31
0.0
  0
LINE
  5
2B1E
100
AcDbEntity
  8
0
100
AcDbLine
 10
852.132735
 20
297.782724
 30
0.0
 11
830.839695
 21
297.782724
 31
0.0
  0
LINE
  5
2B1F
100
AcDbEntity
  8
0
100
AcDbLine
 10
832.839695
 20
295.782724
 30
0.0
 11
830.839695
 21
297.782724
 31
0.0
  0
LINE
  5
2B24
100
AcDbEntity
  8
0
100
AcDbLine
 10
1127.784628
 20
297.782724
 30
0.0
 11
1114.757909
 21
297.782724
 31
0.0
  0
LINE
  5
2B25
100
AcDbEntity
  8
0
100
AcDbLine
 10
1128.686741
 20
295.782724
 30
0.0
 11
1116.757909
 21
295.782724
 31
0.0
  0
LINE
  5
2B26
100
AcDbEntity
  8
0
100
AcDbLine
 10
980.839695
 20
297.782724
 30
0.0
 11
978.839695
 21
295.782724
 31
0.0
  0
LINE
  5
2B27
100
AcDbEntity
  8
0
100
AcDbLine
 10
1114.757909
 20
297.782724
 30
0.0
 11
1116.757909
 21
295.782724
 31
0.0
  0
LINE
  5
2B2B
100
AcDbEntity
  8
0
100
AcDbLine
 10
1262.757909
 20
295.782724
 30
0.0
 11
1250.829076
 21
295.782724
 31
0.0
  0
LINE
  5
2B2C
100
AcDbEntity
  8
0
100
AcDbLine
 10
1251.731189
 20
297.782724
 30
0.0
 11
1264.757909
 21
297.782724
 31
0.0
  0
LINE
  5
2B2F
100
AcDbEntity
  8
0
100
AcDbLine
 10
1262.757909
 20
295.782724
 30
0.0
 11
1264.757909
 21
297.782724
 31
0.0
  0
LINE
  5
2B30
100
AcDbEntity
  8
0
100
AcDbLine
 10
1355.118597
 20
312.889172
 30
0.0
 11
1292.093847
 21
312.889172
 31
0.0
  0
LINE
  5
2B31
100
AcDbEntity
  8
0
100
AcDbLine
 10
1317.302847
 20
325.493672
 30
0.0
 11
1323.607347
 21
319.191422
 31
0.0
  0
LINE
  5
2B32
100
AcDbEntity
  8
0
100
AcDbLine
 10
1292.093847
 20
312.889172
 30
0.0
 11
1279.489347
 21
325.493672
 31
0.0
  0
LINE
  5
2B33
100
AcDbEntity
  8
0
100
AcDbLine
 10
1279.489347
 20
325.493672
 30
0.0
 11
1317.302847
 21
325.493672
 31
0.0
  0
LINE
  5
2B34
100
AcDbEntity
  8
0
100
AcDbLine
 10
1342.239597
 20
325.493672
 30
0.0
 11
1355.118597
 21
312.889172
 31
0.0
  0
LINE
  5
2B35
100
AcDbEntity
  8
0
100
AcDbLine
 10
1342.239597
 20
319.191422
 30
0.0
 11
1342.239597
 21
325.493672
 31
0.0
  0
LINE
  5
2B36
100
AcDbEntity
  8
0
100
AcDbLine
 10
1323.607347
 20
319.191422
 30
0.0
 11
1342.239597
 21
319.191422
 31
0.0
  0
LINE
  5
2B3A
100
AcDbEntity
  8
0
100
AcDbLine
 10
1449.139842
 20
296.782724
 30
0.0
 11
1448.139842
 21
297.782724
 31
0.0
  0
ARC
  5
2B3B
100
AcDbEntity
  8
0
100
AcDbCircle
 10
1445.3078
 20
303.144228
 30
0.0
 40
6.063513
100
AcDbArc
 50
237.457624
 51
297.843817
  0
LINE
  5
2B3D
100
AcDbEntity
  8
0
100
AcDbLine
 10
960.033214
 20
350.282724
 30
0.0
 11
980.839695
 21
350.282724
 31
0.0
  0
LINE
  5
2B3E
100
AcDbEntity
  8
0
100
AcDbLine
 10
959.036852
 20
352.282724
 30
0.0
 11
978.839695
 21
352.282724
 31
0.0
  0
LINE
  5
2B3F
100
AcDbEntity
  8
0
100
AcDbLine
 10
711.096219
 20
644.171126
 30
0.0
 11
711.096219
 21
588.671126
 31
0.0
  0
LINE
  5
2B40
100
AcDbEntity
  8
0
100
AcDbLine
 10
712.096219
 20
643.171126
 30
0.0
 11
712.096219
 21
589.671126
 31
0.0
  0
LINE
  5
2B41
100
AcDbEntity
  8
0
100
AcDbLine
 10
718.189966
 20
642.921126
 30
0.0
 11
718.189966
 21
589.921126
 31
0.0
  0
CIRCLE
  5
2B42
100
AcDbEntity
  8
0
100
AcDbCircle
 10
642.096219
 20
616.421126
 30
0.0
 40
56.7
  0
LINE
  5
2B43
100
AcDbEntity
  8
0
100
AcDbLine
 10
584.596219
 20
568.267725
 30
0.0
 11
584.596219
 21
664.574526
 31
0.0
  0
LINE
  5
2B44
100
AcDbEntity
  8
0
100
AcDbLine
 10
699.596219
 20
568.267725
 30
0.0
 11
699.596219
 21
664.574526
 31
0.0
  0
ARC
  5
2B49
100
AcDbEntity
  8
0
100
AcDbCircle
 10
642.096219
 20
468.232724
 30
0.0
 40
16.3
100
AcDbArc
 50
309.353409
 51
230.646591
  0
ARC
  5
2B4A
100
AcDbEntity
  8
0
100
AcDbCircle
 10
642.096219
 20
468.232724
 30
0.0
 40
10.0
100
AcDbArc
 50
288.392229
 51
251.646371
  0
LINE
  5
2B4B
100
AcDbEntity
  8
0
100
AcDbLine
 10
606.596219
 20
445.232724
 30
0.0
 11
677.596219
 21
445.232724
 31
0.0
  0
LINE
  5
2B4C
100
AcDbEntity
  8
0
100
AcDbLine
 10
585.396219
 20
375.232724
 30
0.0
 11
698.796219
 21
375.232724
 31
0.0
  0
LINE
  5
2B4D
100
AcDbEntity
  8
0
100
AcDbLine
 10
585.396219
 20
352.282724
 30
0.0
 11
585.396219
 21
424.032724
 31
0.0
  0
ARC
  5
2B4E
100
AcDbEntity
  8
0
100
AcDbCircle
 10
606.596219
 20
424.032724
 30
0.0
 40
21.2
100
AcDbArc
 50
90.0
 51
180.0
  0
LINE
  5
2B4F
100
AcDbEntity
  8
0
100
AcDbLine
 10
650.096219
 20
445.232724
 30
0.0
 11
648.096219
 21
457.232724
 31
0.0
  0
LINE
  5
2B50
100
AcDbEntity
  8
0
100
AcDbLine
 10
634.096219
 20
445.232724
 30
0.0
 11
650.096219
 21
445.232724
 31
0.0
  0
ARC
  5
2B51
100
AcDbEntity
  8
0
100
AcDbCircle
 10
657.504896
 20
449.442762
 30
0.0
 40
8.0
100
AcDbArc
 50
129.353409
 51
189.462322
  0
LINE
  5
2B52
100
AcDbEntity
  8
0
100
AcDbLine
 10
634.096219
 20
445.232724
 30
0.0
 11
636.096219
 21
457.232724
 31
0.0
  0
ARC
  5
2B53
100
AcDbEntity
  8
0
100
AcDbCircle
 10
626.687542
 20
449.442762
 30
0.0
 40
8.0
100
AcDbArc
 50
350.537678
 51
50.646591
  0
LINE
  5
2B54
100
AcDbEntity
  8
0
100
AcDbLine
 10
638.951423
 20
458.743536
 30
0.0
 11
645.251423
 21
458.743536
 31
0.0
  0
LINE
  5
2B55
100
AcDbEntity
  8
0
100
AcDbLine
 10
636.096219
 20
457.232724
 30
0.0
 11
648.096219
 21
457.232724
 31
0.0
  0
LINE
  5
2B56
100
AcDbEntity
  8
0
100
AcDbLine
 10
636.096219
 20
457.232724
 30
0.0
 11
638.951423
 21
458.743536
 31
0.0
  0
LINE
  5
2B57
100
AcDbEntity
  8
0
100
AcDbLine
 10
645.251423
 20
458.743536
 30
0.0
 11
648.096219
 21
457.232724
 31
0.0
  0
LINE
  5
2B58
100
AcDbEntity
  8
0
100
AcDbLine
 10
698.796219
 20
352.282724
 30
0.0
 11
698.796219
 21
424.032724
 31
0.0
  0
LINE
  5
2B59
100
AcDbEntity
  8
0
100
AcDbLine
 10
698.796219
 20
352.282724
 30
0.0
 11
711.096219
 21
352.282724
 31
0.0
  0
LINE
  5
2B5A
100
AcDbEntity
  8
0
100
AcDbLine
 10
711.096219
 20
352.282724
 30
0.0
 11
712.096219
 21
351.282724
 31
0.0
  0
ARC
  5
2B5B
100
AcDbEntity
  8
0
100
AcDbCircle
 10
714.928262
 20
345.92122
 30
0.0
 40
6.063513
100
AcDbArc
 50
57.457624
 51
117.843817
  0
ARC
  5
2B5C
100
AcDbEntity
  8
0
100
AcDbCircle
 10
677.596219
 20
424.032724
 30
0.0
 40
21.2
100
AcDbArc
 50
0.0
 51
90.0
  0
ARC
  5
2B5D
100
AcDbEntity
  8
0
100
AcDbCircle
 10
642.096219
 20
616.421126
 30
0.0
 40
75.0
100
AcDbArc
 50
219.944505
 51
320.055495
  0
ARC
  5
2B5E
100
AcDbEntity
  8
0
100
AcDbCircle
 10
642.096219
 20
616.421126
 30
0.0
 40
73.0
100
AcDbArc
 50
218.031586
 51
321.968414
  0
LINE
  5
2B5F
100
AcDbEntity
  8
0
100
AcDbLine
 10
699.596219
 20
588.671126
 30
0.0
 11
711.096219
 21
588.671126
 31
0.0
  0
LINE
  5
2B60
100
AcDbEntity
  8
0
100
AcDbLine
 10
711.096219
 20
588.671126
 30
0.0
 11
712.096219
 21
589.671126
 31
0.0
  0
ARC
  5
2B61
100
AcDbEntity
  8
0
100
AcDbCircle
 10
714.928262
 20
595.03263
 30
0.0
 40
6.063513
100
AcDbArc
 50
242.156183
 51
302.542376
  0
LINE
  5
2B63
100
AcDbEntity
  8
0
100
AcDbLine
 10
902.689695
 20
452.232724
 30
0.0
 11
902.689695
 21
483.380909
 31
0.0
  0
LINE
  5
2B64
100
AcDbEntity
  8
0
100
AcDbLine
 10
908.989695
 20
452.232724
 30
0.0
 11
908.989695
 21
483.380909
 31
0.0
  0
LINE
  5
2B65
100
AcDbEntity
  8
0
100
AcDbLine
 10
870.339695
 20
445.232724
 30
0.0
 11
941.339695
 21
445.232724
 31
0.0
  0
LINE
  5
2B67
100
AcDbEntity
  8
0
100
AcDbLine
 10
849.139695
 20
375.232724
 30
0.0
 11
873.753717
 21
375.232724
 31
0.0
  0
LINE
  5
2B68
100
AcDbEntity
  8
0
100
AcDbLine
 10
849.139695
 20
352.282724
 30
0.0
 11
849.139695
 21
424.032724
 31
0.0
  0
LINE
  5
2B6C
100
AcDbEntity
  8
0
100
AcDbLine
 10
832.839695
 20
352.282724
 30
0.0
 11
852.642538
 21
352.282724
 31
0.0
  0
LINE
  5
2B6D
100
AcDbEntity
  8
0
100
AcDbLine
 10
851.646176
 20
350.282724
 30
0.0
 11
830.839695
 21
350.282724
 31
0.0
  0
LINE
  5
2B6E
100
AcDbEntity
  8
0
100
AcDbLine
 10
832.839695
 20
352.282724
 30
0.0
 11
830.839695
 21
350.282724
 31
0.0
  0
ARC
  5
2B70
100
AcDbEntity
  8
0
100
AcDbCircle
 10
870.339695
 20
424.032724
 30
0.0
 40
21.2
100
AcDbArc
 50
90.0
 51
180.0
  0
LINE
  5
2B71
100
AcDbEntity
  8
0
100
AcDbLine
 10
962.539695
 20
352.282724
 30
0.0
 11
962.539695
 21
424.032724
 31
0.0
  0
LINE
  5
2B74
100
AcDbEntity
  8
0
100
AcDbLine
 10
899.839695
 20
457.232724
 30
0.0
 11
902.694898
 21
458.743536
 31
0.0
  0
LINE
  5
2B75
100
AcDbEntity
  8
0
100
AcDbLine
 10
899.839695
 20
457.232724
 30
0.0
 11
902.689695
 21
457.232724
 31
0.0
  0
LINE
  5
2B76
100
AcDbEntity
  8
0
100
AcDbLine
 10
897.839695
 20
445.232724
 30
0.0
 11
913.839695
 21
445.232724
 31
0.0
  0
LINE
  5
2B77
100
AcDbEntity
  8
0
100
AcDbLine
 10
897.839695
 20
445.232724
 30
0.0
 11
899.839695
 21
457.232724
 31
0.0
  0
LINE
  5
2B78
100
AcDbEntity
  8
0
100
AcDbLine
 10
908.994898
 20
458.743536
 30
0.0
 11
911.839695
 21
457.232724
 31
0.0
  0
LINE
  5
2B79
100
AcDbEntity
  8
0
100
AcDbLine
 10
908.989695
 20
457.232724
 30
0.0
 11
911.839695
 21
457.232724
 31
0.0
  0
LINE
  5
2B7A
100
AcDbEntity
  8
0
100
AcDbLine
 10
908.989695
 20
458.743536
 30
0.0
 11
908.994898
 21
458.743536
 31
0.0
  0
ARC
  5
2B7B
100
AcDbEntity
  8
0
100
AcDbCircle
 10
909.989695
 20
452.232724
 30
0.0
 40
1.0
100
AcDbArc
 50
180.0
 51
270.0
  0
ARC
  5
2B7C
100
AcDbEntity
  8
0
100
AcDbCircle
 10
901.689695
 20
452.232724
 30
0.0
 40
1.0
100
AcDbArc
 50
270.0
 51
0.0
  0
LINE
  5
2B7D
100
AcDbEntity
  8
0
100
AcDbLine
 10
913.839695
 20
445.232724
 30
0.0
 11
911.839695
 21
457.232724
 31
0.0
  0
ARC
  5
2B7E
100
AcDbEntity
  8
0
100
AcDbCircle
 10
941.339695
 20
424.032724
 30
0.0
 40
21.2
100
AcDbArc
 50
0.0
 51
90.0
  0
ARC
  5
2B81
100
AcDbEntity
  8
0
100
AcDbCircle
 10
905.839695
 20
468.232724
 30
0.0
 40
16.3
100
AcDbArc
 50
81.921896
 51
98.078104
  0
ARC
  5
2B82
100
AcDbEntity
  8
0
100
AcDbCircle
 10
907.989695
 20
483.380909
 30
0.0
 40
1.0
100
AcDbArc
 50
0.0
 51
81.921896
  0
ARC
  5
2B83
100
AcDbEntity
  8
0
100
AcDbCircle
 10
903.689695
 20
483.380909
 30
0.0
 40
1.0
100
AcDbArc
 50
98.078104
 51
180.0
  0
ARC
  5
2B87
100
AcDbEntity
  8
0
100
AcDbCircle
 10
642.096219
 20
616.421126
 30
0.0
 40
75.0
100
AcDbArc
 50
39.944505
 51
140.055495
  0
ARC
  5
2B88
100
AcDbEntity
  8
0
100
AcDbCircle
 10
642.096219
 20
616.421126
 30
0.0
 40
73.0
100
AcDbArc
 50
38.031586
 51
141.968414
  0
LINE
  5
2B89
100
AcDbEntity
  8
0
100
AcDbLine
 10
626.796219
 20
619.571126
 30
0.0
 11
657.396219
 21
619.571126
 31
0.0
  0
LINE
  5
2B8A
100
AcDbEntity
  8
0
100
AcDbLine
 10
626.796219
 20
613.271126
 30
0.0
 11
657.396219
 21
613.271126
 31
0.0
  0
ARC
  5
2B8B
100
AcDbEntity
  8
0
100
AcDbCircle
 10
642.096219
 20
616.421126
 30
0.0
 40
8.0
100
AcDbArc
 50
203.188038
 51
336.811962
  0
ARC
  5
2B8C
100
AcDbEntity
  8
0
100
AcDbCircle
 10
642.096219
 20
616.421126
 30
0.0
 40
8.0
100
AcDbArc
 50
23.188038
 51
156.811962
  0
ARC
  5
2B8D
100
AcDbEntity
  8
0
100
AcDbCircle
 10
642.096219
 20
616.421126
 30
0.0
 40
6.0
100
AcDbArc
 50
211.668243
 51
328.331757
  0
ARC
  5
2B8E
100
AcDbEntity
  8
0
100
AcDbCircle
 10
642.096219
 20
616.421126
 30
0.0
 40
6.0
100
AcDbArc
 50
31.668243
 51
148.331757
  0
ARC
  5
2B8F
100
AcDbEntity
  8
0
100
AcDbCircle
 10
626.796219
 20
614.271126
 30
0.0
 40
1.0
100
AcDbArc
 50
180.0
 51
270.0
  0
LINE
  5
2B90
100
AcDbEntity
  8
0
100
AcDbLine
 10
625.796219
 20
614.271126
 30
0.0
 11
625.796219
 21
618.571126
 31
0.0
  0
ARC
  5
2B91
100
AcDbEntity
  8
0
100
AcDbCircle
 10
626.796219
 20
618.571126
 30
0.0
 40
1.0
100
AcDbArc
 50
90.0
 51
180.0
  0
ARC
  5
2B92
100
AcDbEntity
  8
0
100
AcDbCircle
 10
657.396219
 20
618.571126
 30
0.0
 40
1.0
100
AcDbArc
 50
0.0
 51
90.0
  0
LINE
  5
2B93
100
AcDbEntity
  8
0
100
AcDbLine
 10
658.396219
 20
614.271126
 30
0.0
 11
658.396219
 21
618.571126
 31
0.0
  0
ARC
  5
2B94
100
AcDbEntity
  8
0
100
AcDbCircle
 10
657.396219
 20
614.271126
 30
0.0
 40
1.0
100
AcDbArc
 50
270.0
 51
0.0
  0
LINE
  5
2B95
100
AcDbEntity
  8
0
100
AcDbLine
 10
699.596219
 20
644.171126
 30
0.0
 11
711.096219
 21
644.171126
 31
0.0
  0
LINE
  5
2B96
100
AcDbEntity
  8
0
100
AcDbLine
 10
711.096219
 20
644.171126
 30
0.0
 11
712.096219
 21
643.171126
 31
0.0
  0
ARC
  5
2B97
100
AcDbEntity
  8
0
100
AcDbCircle
 10
714.928262
 20
637.809622
 30
0.0
 40
6.063513
100
AcDbArc
 50
57.457624
 51
117.843817
  0
LINE
  5
2B98
100
AcDbEntity
  8
0
100
AcDbLine
 10
585.396219
 20
852.700571
 30
0.0
 11
698.796219
 21
852.700571
 31
0.0
  0
LINE
  5
2B99
100
AcDbEntity
  8
0
100
AcDbLine
 10
584.496219
 20
773.250571
 30
0.0
 11
699.696219
 21
773.250571
 31
0.0
  0
LINE
  5
2B9A
100
AcDbEntity
  8
0
100
AcDbLine
 10
584.496219
 20
774.250571
 30
0.0
 11
584.496219
 21
773.250571
 31
0.0
  0
LINE
  5
2B9B
100
AcDbEntity
  8
0
100
AcDbLine
 10
718.189966
 20
828.500571
 30
0.0
 11
718.189966
 21
775.500571
 31
0.0
  0
LINE
  5
2B9C
100
AcDbEntity
  8
0
100
AcDbLine
 10
712.096219
 20
828.750571
 30
0.0
 11
712.096219
 21
775.250571
 31
0.0
  0
LINE
  5
2B9D
100
AcDbEntity
  8
0
100
AcDbLine
 10
711.096219
 20
829.750571
 30
0.0
 11
711.096219
 21
774.250571
 31
0.0
  0
LINE
  5
2B9E
100
AcDbEntity
  8
0
100
AcDbLine
 10
699.696219
 20
774.250571
 30
0.0
 11
711.096219
 21
774.250571
 31
0.0
  0
LINE
  5
2B9F
100
AcDbEntity
  8
0
100
AcDbLine
 10
699.696219
 20
774.250571
 30
0.0
 11
699.696219
 21
773.250571
 31
0.0
  0
LINE
  5
2BA0
100
AcDbEntity
  8
0
100
AcDbLine
 10
711.096219
 20
774.250571
 30
0.0
 11
712.096219
 21
775.250571
 31
0.0
  0
ARC
  5
2BA1
100
AcDbEntity
  8
0
100
AcDbCircle
 10
714.928262
 20
780.612075
 30
0.0
 40
6.063513
100
AcDbArc
 50
242.156183
 51
302.542376
  0
LINE
  5
2BA3
100
AcDbEntity
  8
0
100
AcDbLine
 10
698.796219
 20
829.750571
 30
0.0
 11
711.096219
 21
829.750571
 31
0.0
  0
LINE
  5
2BA4
100
AcDbEntity
  8
0
100
AcDbLine
 10
711.096219
 20
829.750571
 30
0.0
 11
712.096219
 21
828.750571
 31
0.0
  0
ARC
  5
2BA5
100
AcDbEntity
  8
0
100
AcDbCircle
 10
714.928262
 20
823.389067
 30
0.0
 40
6.063513
100
AcDbArc
 50
57.457624
 51
117.843817
  0
LINE
  5
2BAB
100
AcDbEntity
  8
0
100
AcDbLine
 10
821.413705
 20
801.147449
 30
0.0
 11
884.438455
 21
801.147449
 31
0.0
  0
LINE
  5
2BAC
100
AcDbEntity
  8
0
100
AcDbLine
 10
834.292705
 20
813.751949
 30
0.0
 11
821.413705
 21
801.147449
 31
0.0
  0
LINE
  5
2BB0
100
AcDbEntity
  8
0
100
AcDbLine
 10
897.042955
 20
813.751949
 30
0.0
 11
859.229455
 21
813.751949
 31
0.0
  0
LINE
  5
2BB1
100
AcDbEntity
  8
0
100
AcDbLine
 10
859.229455
 20
813.751949
 30
0.0
 11
852.924955
 21
807.449699
 31
0.0
  0
LINE
  5
2BB2
100
AcDbEntity
  8
0
100
AcDbLine
 10
834.292705
 20
807.449699
 30
0.0
 11
834.292705
 21
813.751949
 31
0.0
  0
LINE
  5
2BB3
100
AcDbEntity
  8
0
100
AcDbLine
 10
852.924955
 20
807.449699
 30
0.0
 11
834.292705
 21
807.449699
 31
0.0
  0
LINE
  5
2BB4
100
AcDbEntity
  8
0
100
AcDbLine
 10
884.438455
 20
801.147449
 30
0.0
 11
897.042955
 21
813.751949
 31
0.0
  0
LINE
  5
2BB7
100
AcDbEntity
  8
0
100
AcDbLine
 10
1442.046096
 20
642.921126
 30
0.0
 11
1442.046096
 21
589.921126
 31
0.0
  0
LINE
  5
2BB8
100
AcDbEntity
  8
0
100
AcDbLine
 10
1449.139842
 20
644.171126
 30
0.0
 11
1449.139842
 21
588.671126
 31
0.0
  0
LINE
  5
2BB9
100
AcDbEntity
  8
0
100
AcDbLine
 10
1448.139842
 20
643.171126
 30
0.0
 11
1448.139842
 21
589.671126
 31
0.0
  0
LINE
  5
2BBC
100
AcDbEntity
  8
0
100
AcDbLine
 10
1225.257909
 20
445.232724
 30
0.0
 11
1154.257909
 21
445.232724
 31
0.0
  0
LINE
  5
2BBD
100
AcDbEntity
  8
0
100
AcDbLine
 10
1246.457909
 20
375.232724
 30
0.0
 11
1234.319776
 21
375.232724
 31
0.0
  0
LINE
  5
2BBF
100
AcDbEntity
  8
0
100
AcDbLine
 10
1192.907909
 20
452.232724
 30
0.0
 11
1192.907909
 21
483.380909
 31
0.0
  0
LINE
  5
2BC0
100
AcDbEntity
  8
0
100
AcDbLine
 10
1186.607909
 20
452.232724
 30
0.0
 11
1186.607909
 21
483.380909
 31
0.0
  0
LINE
  5
2BC1
100
AcDbEntity
  8
0
100
AcDbLine
 10
1127.362496
 20
350.282724
 30
0.0
 11
1114.757909
 21
350.282724
 31
0.0
  0
LINE
  5
2BC2
100
AcDbEntity
  8
0
100
AcDbLine
 10
1128.225905
 20
352.282724
 30
0.0
 11
1116.757909
 21
352.282724
 31
0.0
  0
LINE
  5
2BC3
100
AcDbEntity
  8
0
100
AcDbLine
 10
978.839695
 20
352.282724
 30
0.0
 11
980.839695
 21
350.282724
 31
0.0
  0
LINE
  5
2BC4
100
AcDbEntity
  8
0
100
AcDbLine
 10
1116.757909
 20
352.282724
 30
0.0
 11
1114.757909
 21
350.282724
 31
0.0
  0
LINE
  5
2BC5
100
AcDbEntity
  8
0
100
AcDbLine
 10
1133.057909
 20
361.157306
 30
0.0
 11
1133.057909
 21
424.032724
 31
0.0
  0
ARC
  5
2BC9
100
AcDbEntity
  8
0
100
AcDbCircle
 10
1154.257909
 20
424.032724
 30
0.0
 40
21.2
100
AcDbArc
 50
90.0
 51
180.0
  0
LINE
  5
2BCA
100
AcDbEntity
  8
0
100
AcDbLine
 10
1197.757909
 20
445.232724
 30
0.0
 11
1195.757909
 21
457.232724
 31
0.0
  0
LINE
  5
2BCB
100
AcDbEntity
  8
0
100
AcDbLine
 10
1197.757909
 20
445.232724
 30
0.0
 11
1181.757909
 21
445.232724
 31
0.0
  0
LINE
  5
2BCC
100
AcDbEntity
  8
0
100
AcDbLine
 10
1181.757909
 20
445.232724
 30
0.0
 11
1183.757909
 21
457.232724
 31
0.0
  0
ARC
  5
2BCD
100
AcDbEntity
  8
0
100
AcDbCircle
 10
1193.907909
 20
452.232724
 30
0.0
 40
1.0
100
AcDbArc
 50
180.0
 51
270.0
  0
LINE
  5
2BCE
100
AcDbEntity
  8
0
100
AcDbLine
 10
1195.757909
 20
457.232724
 30
0.0
 11
1192.902706
 21
458.743536
 31
0.0
  0
LINE
  5
2BCF
100
AcDbEntity
  8
0
100
AcDbLine
 10
1195.757909
 20
457.232724
 30
0.0
 11
1192.907909
 21
457.232724
 31
0.0
  0
ARC
  5
2BD0
100
AcDbEntity
  8
0
100
AcDbCircle
 10
1185.607909
 20
452.232724
 30
0.0
 40
1.0
100
AcDbArc
 50
270.0
 51
0.0
  0
LINE
  5
2BD1
100
AcDbEntity
  8
0
100
AcDbLine
 10
1186.607909
 20
458.743536
 30
0.0
 11
1186.602706
 21
458.743536
 31
0.0
  0
LINE
  5
2BD2
100
AcDbEntity
  8
0
100
AcDbLine
 10
1186.607909
 20
457.232724
 30
0.0
 11
1183.757909
 21
457.232724
 31
0.0
  0
LINE
  5
2BD3
100
AcDbEntity
  8
0
100
AcDbLine
 10
1186.602706
 20
458.743536
 30
0.0
 11
1183.757909
 21
457.232724
 31
0.0
  0
ARC
  5
2BD4
100
AcDbEntity
  8
0
100
AcDbCircle
 10
1191.907909
 20
483.380909
 30
0.0
 40
1.0
100
AcDbArc
 50
0.0
 51
81.921896
  0
ARC
  5
2BD5
100
AcDbEntity
  8
0
100
AcDbCircle
 10
1187.607909
 20
483.380909
 30
0.0
 40
1.0
100
AcDbArc
 50
98.078104
 51
180.0
  0
ARC
  5
2BD6
100
AcDbEntity
  8
0
100
AcDbCircle
 10
1189.757909
 20
468.232724
 30
0.0
 40
16.3
100
AcDbArc
 50
81.921896
 51
98.078104
  0
LINE
  5
2BD7
100
AcDbEntity
  8
0
100
AcDbLine
 10
1246.457909
 20
361.157306
 30
0.0
 11
1246.457909
 21
424.032724
 31
0.0
  0
LINE
  5
2BD8
100
AcDbEntity
  8
0
100
AcDbLine
 10
1262.757909
 20
352.282724
 30
0.0
 11
1251.289913
 21
352.282724
 31
0.0
  0
LINE
  5
2BD9
100
AcDbEntity
  8
0
100
AcDbLine
 10
1252.153321
 20
350.282724
 30
0.0
 11
1264.757909
 21
350.282724
 31
0.0
  0
LINE
  5
2BDC
100
AcDbEntity
  8
0
100
AcDbLine
 10
1262.757909
 20
352.282724
 30
0.0
 11
1264.757909
 21
350.282724
 31
0.0
  0
ARC
  5
2BDD
100
AcDbEntity
  8
0
100
AcDbCircle
 10
1225.257909
 20
424.032724
 30
0.0
 40
21.2
100
AcDbArc
 50
0.0
 51
90.0
  0
LINE
  5
2BE2
100
AcDbEntity
  8
0
100
AcDbLine
 10
1449.139842
 20
352.282724
 30
0.0
 11
1448.139842
 21
351.282724
 31
0.0
  0
ARC
  5
2BE3
100
AcDbEntity
  8
0
100
AcDbCircle
 10
1445.3078
 20
345.92122
 30
0.0
 40
6.063513
100
AcDbArc
 50
62.156183
 51
122.542376
  0
LINE
  5
2BE7
100
AcDbEntity
  8
0
100
AcDbLine
 10
1449.139842
 20
588.671126
 30
0.0
 11
1448.139842
 21
589.671126
 31
0.0
  0
ARC
  5
2BE8
100
AcDbEntity
  8
0
100
AcDbCircle
 10
1445.3078
 20
595.03263
 30
0.0
 40
6.063513
100
AcDbArc
 50
237.457624
 51
297.843817
  0
LINE
  5
2BEA
100
AcDbEntity
  8
0
100
AcDbLine
 10
1275.997171
 20
609.449901
 30
0.0
 11
1263.392671
 21
622.054401
 31
0.0
  0
LINE
  5
2BEB
100
AcDbEntity
  8
0
100
AcDbLine
 10
1263.392671
 20
622.054401
 30
0.0
 11
1301.206171
 21
622.054401
 31
0.0
  0
LINE
  5
2BEC
100
AcDbEntity
  8
0
100
AcDbLine
 10
1339.021921
 20
609.449901
 30
0.0
 11
1275.997171
 21
609.449901
 31
0.0
  0
LINE
  5
2BED
100
AcDbEntity
  8
0
100
AcDbLine
 10
1307.510671
 20
615.752151
 30
0.0
 11
1326.142921
 21
615.752151
 31
0.0
  0
LINE
  5
2BEE
100
AcDbEntity
  8
0
100
AcDbLine
 10
1301.206171
 20
622.054401
 30
0.0
 11
1307.510671
 21
615.752151
 31
0.0
  0
LINE
  5
2BEF
100
AcDbEntity
  8
0
100
AcDbLine
 10
1326.142921
 20
622.054401
 30
0.0
 11
1339.021921
 21
609.449901
 31
0.0
  0
LINE
  5
2BF0
100
AcDbEntity
  8
0
100
AcDbLine
 10
1326.142921
 20
615.752151
 30
0.0
 11
1326.142921
 21
622.054401
 31
0.0
  0
LINE
  5
2BF5
100
AcDbEntity
  8
0
100
AcDbLine
 10
1449.139842
 20
644.171126
 30
0.0
 11
1448.139842
 21
643.171126
 31
0.0
  0
ARC
  5
2BF6
100
AcDbEntity
  8
0
100
AcDbCircle
 10
1445.3078
 20
637.809622
 30
0.0
 40
6.063513
100
AcDbArc
 50
62.156183
 51
122.542376
  0
LINE
  5
2BF7
100
AcDbEntity
  8
0
100
AcDbLine
 10
1442.046096
 20
828.500571
 30
0.0
 11
1442.046096
 21
775.500571
 31
0.0
  0
LINE
  5
2BF8
100
AcDbEntity
  8
0
100
AcDbLine
 10
1449.139842
 20
829.750571
 30
0.0
 11
1449.139842
 21
774.250571
 31
0.0
  0
LINE
  5
2BF9
100
AcDbEntity
  8
0
100
AcDbLine
 10
1449.139842
 20
820.000571
 30
0.0
 11
1449.139842
 21
784.000571
 31
0.0
  0
LINE
  5
2BFA
100
AcDbEntity
  8
0
100
AcDbLine
 10
1448.139842
 20
828.750571
 30
0.0
 11
1448.139842
 21
775.250571
 31
0.0
  0
LINE
  5
2C01
100
AcDbEntity
  8
0
100
AcDbLine
 10
1449.139842
 20
774.250571
 30
0.0
 11
1448.139842
 21
775.250571
 31
0.0
  0
ARC
  5
2C02
100
AcDbEntity
  8
0
100
AcDbCircle
 10
1445.3078
 20
780.612075
 30
0.0
 40
6.063513
100
AcDbArc
 50
237.457624
 51
297.843817
  0
ARC
  5
2C03
100
AcDbEntity
  8
0
100
AcDbCircle
 10
1445.3078
 20
780.612075
 30
0.0
 40
6.063513
100
AcDbArc
 50
237.457624
 51
297.843817
  0
LINE
  5
2C07
100
AcDbEntity
  8
0
100
AcDbLine
 10
1449.139842
 20
829.750571
 30
0.0
 11
1448.139842
 21
828.750571
 31
0.0
  0
ARC
  5
2C08
100
AcDbEntity
  8
0
100
AcDbCircle
 10
1445.3078
 20
823.389067
 30
0.0
 40
6.063513
100
AcDbArc
 50
62.156183
 51
122.542376
  0
LINE
  5
2C09
100
AcDbEntity
  8
0
100
AcDbLine
 10
553.313961
 20
1777.333748
 30
0.0
 11
624.313961
 21
1777.333748
 31
0.0
  0
LINE
  5
2C0A
100
AcDbEntity
  8
0
100
AcDbLine
 10
532.113961
 20
1707.333748
 30
0.0
 11
645.513961
 21
1707.333748
 31
0.0
  0
LINE
  5
2C0B
100
AcDbEntity
  8
0
100
AcDbLine
 10
531.213961
 20
1627.883748
 30
0.0
 11
646.413961
 21
1627.883748
 31
0.0
  0
ARC
  5
2C0C
100
AcDbEntity
  8
0
100
AcDbCircle
 10
588.813961
 20
1506.891228
 30
0.0
 40
75.0
100
AcDbArc
 50
39.944505
 51
140.055495
  0
ARC
  5
2C0D
100
AcDbEntity
  8
0
100
AcDbCircle
 10
588.813961
 20
1506.891228
 30
0.0
 40
75.0
100
AcDbArc
 50
219.944505
 51
320.055495
  0
LINE
  5
2C0E
100
AcDbEntity
  8
0
100
AcDbLine
 10
553.313961
 20
1353.317008
 30
0.0
 11
624.313961
 21
1353.317008
 31
0.0
  0
LINE
  5
2C0F
100
AcDbEntity
  8
0
100
AcDbLine
 10
532.113961
 20
1283.317008
 30
0.0
 11
645.513961
 21
1283.317008
 31
0.0
  0
LINE
  5
2C10
100
AcDbEntity
  8
0
100
AcDbLine
 10
531.213961
 20
1203.867008
 30
0.0
 11
646.413961
 21
1203.867008
 31
0.0
  0
TEXT
  5
2C11
100
AcDbEntity
  8
0
100
AcDbText
 10
278.391928
 20
1109.225878
 30
0.0
 40
35.0
  1
TLV  HR150A (PT･SW)
 72
     4
 11
552.558594
 21
1124.225878
 31
0.0
100
AcDbText
  0
CIRCLE
  5
2C12
100
AcDbEntity
  8
0
100
AcDbCircle
 10
588.813961
 20
1506.891228
 30
0.0
 40
56.7
  0
CIRCLE
  5
2C13
100
AcDbEntity
  8
0
100
AcDbCircle
 10
588.813961
 20
1506.891228
 30
0.0
 40
55.4
  0
TEXT
  5
2C14
100
AcDbEntity
  8
0
100
AcDbText
 10
481.11287
 20
1163.704864
 30
0.0
 40
20.0
  1
15A,20A,25A
 41
0.8
 11
481.11287
 21
1163.704864
 31
0.0
100
AcDbText
 73
     1
  0
LINE
  5
2C15
100
AcDbEntity
  8
0
100
AcDbLine
 10
486.668268
 20
1513.616097
 30
0.0
 11
499.547268
 21
1501.011597
 31
0.0
  0
LINE
  5
2C16
100
AcDbEntity
  8
0
100
AcDbLine
 10
486.668268
 20
1507.313847
 30
0.0
 11
486.668268
 21
1513.616097
 31
0.0
  0
LINE
  5
2C17
100
AcDbEntity
  8
0
100
AcDbLine
 10
436.522518
 20
1501.011597
 30
0.0
 11
423.918018
 21
1513.616097
 31
0.0
  0
LINE
  5
2C18
100
AcDbEntity
  8
0
100
AcDbLine
 10
461.731518
 20
1513.616097
 30
0.0
 11
468.036018
 21
1507.313847
 31
0.0
  0
LINE
  5
2C19
100
AcDbEntity
  8
0
100
AcDbLine
 10
518.813961
 20
1506.891228
 30
0.0
 11
518.813961
 21
1480.141228
 31
0.0
  0
LINE
  5
2C1A
100
AcDbEntity
  8
0
100
AcDbLine
 10
519.813961
 20
1534.641228
 30
0.0
 11
519.813961
 21
1479.141228
 31
0.0
  0
TEXT
  5
2C1B
100
AcDbEntity
  8
0
100
AcDbText
 10
164.42
 20
1497.018378
 30
0.0
 40
25.0
  1
平面
100
AcDbText
  0
LINE
  5
2C1C
100
AcDbEntity
  8
0
100
AcDbLine
 10
531.313961
 20
1458.737828
 30
0.0
 11
531.313961
 21
1555.044629
 31
0.0
  0
LINE
  5
2C1D
100
AcDbEntity
  8
0
100
AcDbLine
 10
518.813961
 20
1232.617008
 30
0.0
 11
518.813961
 21
1205.867008
 31
0.0
  0
LINE
  5
2C1E
100
AcDbEntity
  8
0
100
AcDbLine
 10
519.813961
 20
1260.367008
 30
0.0
 11
519.813961
 21
1204.867008
 31
0.0
  0
LINE
  5
2C1F
100
AcDbEntity
  8
0
100
AcDbLine
 10
424.405901
 20
1258.367008
 30
0.0
 11
424.405901
 21
1205.867008
 31
0.0
  0
LINE
  5
2C20
100
AcDbEntity
  8
0
100
AcDbLine
 10
397.559302
 20
1258.367008
 30
0.0
 11
397.559302
 21
1205.867008
 31
0.0
  0
LINE
  5
2C21
100
AcDbEntity
  8
0
100
AcDbLine
 10
274.405901
 20
1258.367008
 30
0.0
 11
274.405901
 21
1205.867008
 31
0.0
  0
LINE
  5
2C22
100
AcDbEntity
  8
0
100
AcDbLine
 10
301.252501
 20
1258.367008
 30
0.0
 11
301.252501
 21
1205.867008
 31
0.0
  0
CIRCLE
  5
2C23
100
AcDbEntity
  8
0
100
AcDbCircle
 10
349.405901
 20
1232.617008
 30
0.0
 40
26.75
  0
CIRCLE
  5
2C24
100
AcDbEntity
  8
0
100
AcDbCircle
 10
349.405901
 20
1232.617008
 30
0.0
 40
27.75
  0
LINE
  5
2C25
100
AcDbEntity
  8
0
100
AcDbLine
 10
422.405901
 20
1203.867008
 30
0.0
 11
276.405901
 21
1203.867008
 31
0.0
  0
LINE
  5
2C26
100
AcDbEntity
  8
0
100
AcDbLine
 10
301.252501
 20
1205.867008
 30
0.0
 11
274.405901
 21
1205.867008
 31
0.0
  0
LINE
  5
2C27
100
AcDbEntity
  8
0
100
AcDbLine
 10
274.405901
 20
1205.867008
 30
0.0
 11
276.405901
 21
1203.867008
 31
0.0
  0
LINE
  5
2C28
100
AcDbEntity
  8
0
100
AcDbLine
 10
301.252501
 20
1205.867008
 30
0.0
 11
303.252501
 21
1203.867008
 31
0.0
  0
LINE
  5
2C29
100
AcDbEntity
  8
0
100
AcDbLine
 10
397.559302
 20
1205.867008
 30
0.0
 11
424.405901
 21
1205.867008
 31
0.0
  0
LINE
  5
2C2A
100
AcDbEntity
  8
0
100
AcDbLine
 10
395.559302
 20
1203.867008
 30
0.0
 11
397.559302
 21
1205.867008
 31
0.0
  0
LINE
  5
2C2B
100
AcDbEntity
  8
0
100
AcDbLine
 10
422.405901
 20
1203.867008
 30
0.0
 11
424.405901
 21
1205.867008
 31
0.0
  0
LINE
  5
2C2C
100
AcDbEntity
  8
0
100
AcDbLine
 10
531.213961
 20
1204.867008
 30
0.0
 11
531.213961
 21
1203.867008
 31
0.0
  0
LINE
  5
2C2D
100
AcDbEntity
  8
0
100
AcDbLine
 10
519.813961
 20
1204.867008
 30
0.0
 11
518.813961
 21
1205.867008
 31
0.0
  0
LINE
  5
2C2E
100
AcDbEntity
  8
0
100
AcDbLine
 10
519.813961
 20
1204.867008
 30
0.0
 11
531.213961
 21
1204.867008
 31
0.0
  0
LINE
  5
2C2F
100
AcDbEntity
  8
0
100
AcDbLine
 10
422.405901
 20
1260.367008
 30
0.0
 11
276.405901
 21
1260.367008
 31
0.0
  0
LINE
  5
2C30
100
AcDbEntity
  8
0
100
AcDbLine
 10
406.105901
 20
1283.317008
 30
0.0
 11
292.705901
 21
1283.317008
 31
0.0
  0
LINE
  5
2C31
100
AcDbEntity
  8
0
100
AcDbLine
 10
384.905901
 20
1353.317008
 30
0.0
 11
313.905901
 21
1353.317008
 31
0.0
  0
TEXT
  5
2C32
100
AcDbEntity
  8
0
100
AcDbText
 10
164.42
 20
1299.139572
 30
0.0
 40
25.0
  1
正面
100
AcDbText
  0
LINE
  5
2C33
100
AcDbEntity
  8
0
100
AcDbLine
 10
292.705901
 20
1260.367008
 30
0.0
 11
292.705901
 21
1332.117008
 31
0.0
  0
LINE
  5
2C34
100
AcDbEntity
  8
0
100
AcDbLine
 10
301.252501
 20
1258.367008
 30
0.0
 11
274.405901
 21
1258.367008
 31
0.0
  0
LINE
  5
2C35
100
AcDbEntity
  8
0
100
AcDbLine
 10
276.405901
 20
1260.367008
 30
0.0
 11
274.405901
 21
1258.367008
 31
0.0
  0
LINE
  5
2C36
100
AcDbEntity
  8
0
100
AcDbLine
 10
301.252501
 20
1258.367008
 30
0.0
 11
303.252501
 21
1260.367008
 31
0.0
  0
ARC
  5
2C37
100
AcDbEntity
  8
0
100
AcDbCircle
 10
313.905901
 20
1332.117008
 30
0.0
 40
21.2
100
AcDbArc
 50
90.0
 51
180.0
  0
LINE
  5
2C38
100
AcDbEntity
  8
0
100
AcDbLine
 10
357.405901
 20
1353.317008
 30
0.0
 11
355.405901
 21
1365.317008
 31
0.0
  0
LINE
  5
2C39
100
AcDbEntity
  8
0
100
AcDbLine
 10
352.555901
 20
1360.317008
 30
0.0
 11
352.555901
 21
1391.465192
 31
0.0
  0
LINE
  5
2C3A
100
AcDbEntity
  8
0
100
AcDbLine
 10
346.255901
 20
1360.317008
 30
0.0
 11
346.255901
 21
1391.465192
 31
0.0
  0
LINE
  5
2C3B
100
AcDbEntity
  8
0
100
AcDbLine
 10
341.405901
 20
1353.317008
 30
0.0
 11
343.405901
 21
1365.317008
 31
0.0
  0
LINE
  5
2C3C
100
AcDbEntity
  8
0
100
AcDbLine
 10
406.105901
 20
1260.367008
 30
0.0
 11
406.105901
 21
1332.117008
 31
0.0
  0
LINE
  5
2C3D
100
AcDbEntity
  8
0
100
AcDbLine
 10
422.405901
 20
1260.367008
 30
0.0
 11
424.405901
 21
1258.367008
 31
0.0
  0
LINE
  5
2C3E
100
AcDbEntity
  8
0
100
AcDbLine
 10
395.559302
 20
1260.367008
 30
0.0
 11
397.559302
 21
1258.367008
 31
0.0
  0
LINE
  5
2C3F
100
AcDbEntity
  8
0
100
AcDbLine
 10
397.559302
 20
1258.367008
 30
0.0
 11
424.405901
 21
1258.367008
 31
0.0
  0
ARC
  5
2C40
100
AcDbEntity
  8
0
100
AcDbCircle
 10
353.555901
 20
1360.317008
 30
0.0
 40
1.0
100
AcDbArc
 50
180.0
 51
270.0
  0
ARC
  5
2C41
100
AcDbEntity
  8
0
100
AcDbCircle
 10
345.255901
 20
1360.317008
 30
0.0
 40
1.0
100
AcDbArc
 50
270.0
 51
0.0
  0
LINE
  5
2C42
100
AcDbEntity
  8
0
100
AcDbLine
 10
357.405901
 20
1353.317008
 30
0.0
 11
341.405901
 21
1353.317008
 31
0.0
  0
ARC
  5
2C43
100
AcDbEntity
  8
0
100
AcDbCircle
 10
384.905901
 20
1332.117008
 30
0.0
 40
21.2
100
AcDbArc
 50
0.0
 51
90.0
  0
LINE
  5
2C44
100
AcDbEntity
  8
0
100
AcDbLine
 10
532.113961
 20
1260.367008
 30
0.0
 11
532.113961
 21
1332.117008
 31
0.0
  0
LINE
  5
2C45
100
AcDbEntity
  8
0
100
AcDbLine
 10
506.093851
 20
1228.437456
 30
0.0
 11
443.069101
 21
1228.437456
 31
0.0
  0
LINE
  5
2C46
100
AcDbEntity
  8
0
100
AcDbLine
 10
430.464601
 20
1241.041956
 30
0.0
 11
468.278101
 21
1241.041956
 31
0.0
  0
LINE
  5
2C47
100
AcDbEntity
  8
0
100
AcDbLine
 10
443.069101
 20
1228.437456
 30
0.0
 11
430.464601
 21
1241.041956
 31
0.0
  0
LINE
  5
2C48
100
AcDbEntity
  8
0
100
AcDbLine
 10
493.214851
 20
1241.041956
 30
0.0
 11
506.093851
 21
1228.437456
 31
0.0
  0
LINE
  5
2C49
100
AcDbEntity
  8
0
100
AcDbLine
 10
493.214851
 20
1234.739706
 30
0.0
 11
493.214851
 21
1241.041956
 31
0.0
  0
LINE
  5
2C4A
100
AcDbEntity
  8
0
100
AcDbLine
 10
468.278101
 20
1241.041956
 30
0.0
 11
474.582601
 21
1234.739706
 31
0.0
  0
LINE
  5
2C4B
100
AcDbEntity
  8
0
100
AcDbLine
 10
474.582601
 20
1234.739706
 30
0.0
 11
493.214851
 21
1234.739706
 31
0.0
  0
LINE
  5
2C4C
100
AcDbEntity
  8
0
100
AcDbLine
 10
519.813961
 20
1260.367008
 30
0.0
 11
518.813961
 21
1259.367008
 31
0.0
  0
LINE
  5
2C4D
100
AcDbEntity
  8
0
100
AcDbLine
 10
518.813961
 20
1259.367008
 30
0.0
 11
518.813961
 21
1232.617008
 31
0.0
  0
LINE
  5
2C4E
100
AcDbEntity
  8
0
100
AcDbLine
 10
519.813961
 20
1260.367008
 30
0.0
 11
532.113961
 21
1260.367008
 31
0.0
  0
ARC
  5
2C4F
100
AcDbEntity
  8
0
100
AcDbCircle
 10
553.313961
 20
1332.117008
 30
0.0
 40
21.2
100
AcDbArc
 50
90.0
 51
180.0
  0
ARC
  5
2C50
100
AcDbEntity
  8
0
100
AcDbCircle
 10
351.555901
 20
1391.465192
 30
0.0
 40
1.0
100
AcDbArc
 50
0.0
 51
81.921896
  0
ARC
  5
2C51
100
AcDbEntity
  8
0
100
AcDbCircle
 10
349.405901
 20
1376.317008
 30
0.0
 40
16.3
100
AcDbArc
 50
81.921896
 51
98.078104
  0
ARC
  5
2C52
100
AcDbEntity
  8
0
100
AcDbCircle
 10
347.255901
 20
1391.465192
 30
0.0
 40
1.0
100
AcDbArc
 50
98.078104
 51
180.0
  0
LINE
  5
2C53
100
AcDbEntity
  8
0
100
AcDbLine
 10
355.405901
 20
1365.317008
 30
0.0
 11
352.550698
 21
1366.82782
 31
0.0
  0
LINE
  5
2C54
100
AcDbEntity
  8
0
100
AcDbLine
 10
355.405901
 20
1365.317008
 30
0.0
 11
352.555901
 21
1365.317008
 31
0.0
  0
LINE
  5
2C55
100
AcDbEntity
  8
0
100
AcDbLine
 10
346.255901
 20
1366.82782
 30
0.0
 11
346.250698
 21
1366.82782
 31
0.0
  0
LINE
  5
2C56
100
AcDbEntity
  8
0
100
AcDbLine
 10
346.250698
 20
1366.82782
 30
0.0
 11
343.405901
 21
1365.317008
 31
0.0
  0
LINE
  5
2C57
100
AcDbEntity
  8
0
100
AcDbLine
 10
346.255901
 20
1365.317008
 30
0.0
 11
343.405901
 21
1365.317008
 31
0.0
  0
LINE
  5
2C58
100
AcDbEntity
  8
0
100
AcDbLine
 10
499.547268
 20
1501.011597
 30
0.0
 11
436.522518
 21
1501.011597
 31
0.0
  0
LINE
  5
2C59
100
AcDbEntity
  8
0
100
AcDbLine
 10
468.036018
 20
1507.313847
 30
0.0
 11
486.668268
 21
1507.313847
 31
0.0
  0
LINE
  5
2C5A
100
AcDbEntity
  8
0
100
AcDbLine
 10
519.813961
 20
1479.141228
 30
0.0
 11
518.813961
 21
1480.141228
 31
0.0
  0
LINE
  5
2C5B
100
AcDbEntity
  8
0
100
AcDbLine
 10
519.813961
 20
1479.141228
 30
0.0
 11
531.313961
 21
1479.141228
 31
0.0
  0
TEXT
  5
2C5C
100
AcDbEntity
  8
0
100
AcDbText
 10
164.42
 20
1657.982585
 30
0.0
 40
25.0
  1
背面
100
AcDbText
  0
LINE
  5
2C5D
100
AcDbEntity
  8
0
100
AcDbLine
 10
518.813961
 20
1656.633748
 30
0.0
 11
518.813961
 21
1629.883748
 31
0.0
  0
LINE
  5
2C5E
100
AcDbEntity
  8
0
100
AcDbLine
 10
519.813961
 20
1684.383748
 30
0.0
 11
519.813961
 21
1628.883748
 31
0.0
  0
LINE
  5
2C5F
100
AcDbEntity
  8
0
100
AcDbLine
 10
423.918018
 20
1513.616097
 30
0.0
 11
461.731518
 21
1513.616097
 31
0.0
  0
LINE
  5
2C60
100
AcDbEntity
  8
0
100
AcDbLine
 10
519.813961
 20
1534.641228
 30
0.0
 11
518.813961
 21
1533.641228
 31
0.0
  0
LINE
  5
2C61
100
AcDbEntity
  8
0
100
AcDbLine
 10
518.813961
 20
1533.641228
 30
0.0
 11
518.813961
 21
1506.891228
 31
0.0
  0
LINE
  5
2C62
100
AcDbEntity
  8
0
100
AcDbLine
 10
519.813961
 20
1534.641228
 30
0.0
 11
531.313961
 21
1534.641228
 31
0.0
  0
LINE
  5
2C63
100
AcDbEntity
  8
0
100
AcDbLine
 10
531.213961
 20
1628.883748
 30
0.0
 11
531.213961
 21
1627.883748
 31
0.0
  0
LINE
  5
2C64
100
AcDbEntity
  8
0
100
AcDbLine
 10
519.813961
 20
1628.883748
 30
0.0
 11
518.813961
 21
1629.883748
 31
0.0
  0
LINE
  5
2C65
100
AcDbEntity
  8
0
100
AcDbLine
 10
519.813961
 20
1628.883748
 30
0.0
 11
531.213961
 21
1628.883748
 31
0.0
  0
LINE
  5
2C66
100
AcDbEntity
  8
0
100
AcDbLine
 10
532.113961
 20
1684.383748
 30
0.0
 11
532.113961
 21
1756.133748
 31
0.0
  0
LINE
  5
2C67
100
AcDbEntity
  8
0
100
AcDbLine
 10
518.813961
 20
1683.383748
 30
0.0
 11
518.813961
 21
1656.633748
 31
0.0
  0
LINE
  5
2C68
100
AcDbEntity
  8
0
100
AcDbLine
 10
519.813961
 20
1684.383748
 30
0.0
 11
518.813961
 21
1683.383748
 31
0.0
  0
LINE
  5
2C69
100
AcDbEntity
  8
0
100
AcDbLine
 10
519.813961
 20
1684.383748
 30
0.0
 11
532.113961
 21
1684.383748
 31
0.0
  0
ARC
  5
2C6A
100
AcDbEntity
  8
0
100
AcDbCircle
 10
553.313961
 20
1756.133748
 30
0.0
 40
21.2
100
AcDbArc
 50
90.0
 51
180.0
  0
LINE
  5
2C6B
100
AcDbEntity
  8
0
100
AcDbLine
 10
658.813961
 20
1506.891228
 30
0.0
 11
658.813961
 21
1480.141228
 31
0.0
  0
LINE
  5
2C6C
100
AcDbEntity
  8
0
100
AcDbLine
 10
605.113961
 20
1504.741228
 30
0.0
 11
605.113961
 21
1509.041228
 31
0.0
  0
LINE
  5
2C6D
100
AcDbEntity
  8
0
100
AcDbLine
 10
572.513961
 20
1504.741228
 30
0.0
 11
572.513961
 21
1509.041228
 31
0.0
  0
LINE
  5
2C6E
100
AcDbEntity
  8
0
100
AcDbLine
 10
657.813961
 20
1534.641228
 30
0.0
 11
657.813961
 21
1479.141228
 31
0.0
  0
LINE
  5
2C6F
100
AcDbEntity
  8
0
100
AcDbLine
 10
646.313961
 20
1458.737828
 30
0.0
 11
646.313961
 21
1555.044629
 31
0.0
  0
LINE
  5
2C70
100
AcDbEntity
  8
0
100
AcDbLine
 10
658.813961
 20
1232.617008
 30
0.0
 11
658.813961
 21
1205.867008
 31
0.0
  0
CIRCLE
  5
2C71
100
AcDbEntity
  8
0
100
AcDbCircle
 10
776.460905
 20
1232.617008
 30
0.0
 40
26.75
  0
CIRCLE
  5
2C72
100
AcDbEntity
  8
0
100
AcDbCircle
 10
776.460905
 20
1232.617008
 30
0.0
 40
27.75
  0
LINE
  5
2C73
100
AcDbEntity
  8
0
100
AcDbLine
 10
701.460905
 20
1258.367008
 30
0.0
 11
701.460905
 21
1205.867008
 31
0.0
  0
LINE
  5
2C74
100
AcDbEntity
  8
0
100
AcDbLine
 10
851.460905
 20
1258.367008
 30
0.0
 11
851.460905
 21
1205.867008
 31
0.0
  0
LINE
  5
2C75
100
AcDbEntity
  8
0
100
AcDbLine
 10
824.614306
 20
1258.367008
 30
0.0
 11
824.614306
 21
1205.867008
 31
0.0
  0
LINE
  5
2C76
100
AcDbEntity
  8
0
100
AcDbLine
 10
728.307505
 20
1258.367008
 30
0.0
 11
728.307505
 21
1205.867008
 31
0.0
  0
LINE
  5
2C77
100
AcDbEntity
  8
0
100
AcDbLine
 10
657.813961
 20
1260.367008
 30
0.0
 11
657.813961
 21
1204.867008
 31
0.0
  0
LINE
  5
2C78
100
AcDbEntity
  8
0
100
AcDbLine
 10
703.460905
 20
1203.867008
 30
0.0
 11
849.460905
 21
1203.867008
 31
0.0
  0
LINE
  5
2C79
100
AcDbEntity
  8
0
100
AcDbLine
 10
606.596219
 20
922.700571
 30
0.0
 11
677.596219
 21
922.700571
 31
0.0
  0
ARC
  5
2C7A
100
AcDbEntity
  8
0
100
AcDbCircle
 10
642.096219
 20
945.700571
 30
0.0
 40
16.3
100
AcDbArc
 50
309.353409
 51
230.646591
  0
ARC
  5
2C7B
100
AcDbEntity
  8
0
100
AcDbCircle
 10
642.096219
 20
945.700571
 30
0.0
 40
10.0
100
AcDbArc
 50
288.392229
 51
251.646371
  0
ARC
  5
2C7C
100
AcDbEntity
  8
0
100
AcDbCircle
 10
606.596219
 20
901.500571
 30
0.0
 40
21.2
100
AcDbArc
 50
90.0
 51
180.0
  0
LINE
  5
2C7D
100
AcDbEntity
  8
0
100
AcDbLine
 10
634.096219
 20
922.700571
 30
0.0
 11
650.096219
 21
922.700571
 31
0.0
  0
LINE
  5
2C7E
100
AcDbEntity
  8
0
100
AcDbLine
 10
650.096219
 20
922.700571
 30
0.0
 11
648.096219
 21
934.700571
 31
0.0
  0
ARC
  5
2C7F
100
AcDbEntity
  8
0
100
AcDbCircle
 10
657.504896
 20
926.910609
 30
0.0
 40
8.0
100
AcDbArc
 50
129.353409
 51
189.462322
  0
LINE
  5
2C80
100
AcDbEntity
  8
0
100
AcDbLine
 10
638.951423
 20
936.211383
 30
0.0
 11
645.251423
 21
936.211383
 31
0.0
  0
LINE
  5
2C81
100
AcDbEntity
  8
0
100
AcDbLine
 10
636.096219
 20
934.700571
 30
0.0
 11
648.096219
 21
934.700571
 31
0.0
  0
LINE
  5
2C82
100
AcDbEntity
  8
0
100
AcDbLine
 10
634.096219
 20
922.700571
 30
0.0
 11
636.096219
 21
934.700571
 31
0.0
  0
ARC
  5
2C83
100
AcDbEntity
  8
0
100
AcDbCircle
 10
626.687542
 20
926.910609
 30
0.0
 40
8.0
100
AcDbArc
 50
350.537678
 51
50.646591
  0
LINE
  5
2C84
100
AcDbEntity
  8
0
100
AcDbLine
 10
636.096219
 20
934.700571
 30
0.0
 11
638.951423
 21
936.211383
 31
0.0
  0
LINE
  5
2C85
100
AcDbEntity
  8
0
100
AcDbLine
 10
645.251423
 20
936.211383
 30
0.0
 11
648.096219
 21
934.700571
 31
0.0
  0
ARC
  5
2C86
100
AcDbEntity
  8
0
100
AcDbCircle
 10
677.596219
 20
901.500571
 30
0.0
 40
21.2
100
AcDbArc
 50
0.0
 51
90.0
  0
LINE
  5
2C87
100
AcDbEntity
  8
0
100
AcDbLine
 10
646.413961
 20
1204.867008
 30
0.0
 11
646.413961
 21
1203.867008
 31
0.0
  0
LINE
  5
2C88
100
AcDbEntity
  8
0
100
AcDbLine
 10
646.413961
 20
1204.867008
 30
0.0
 11
657.813961
 21
1204.867008
 31
0.0
  0
LINE
  5
2C89
100
AcDbEntity
  8
0
100
AcDbLine
 10
657.813961
 20
1204.867008
 30
0.0
 11
658.813961
 21
1205.867008
 31
0.0
  0
LINE
  5
2C8A
100
AcDbEntity
  8
0
100
AcDbLine
 10
728.307505
 20
1205.867008
 30
0.0
 11
701.460905
 21
1205.867008
 31
0.0
  0
LINE
  5
2C8B
100
AcDbEntity
  8
0
100
AcDbLine
 10
703.460905
 20
1203.867008
 30
0.0
 11
701.460905
 21
1205.867008
 31
0.0
  0
LINE
  5
2C8C
100
AcDbEntity
  8
0
100
AcDbLine
 10
730.307505
 20
1203.867008
 30
0.0
 11
728.307505
 21
1205.867008
 31
0.0
  0
LINE
  5
2C8D
100
AcDbEntity
  8
0
100
AcDbLine
 10
824.614306
 20
1205.867008
 30
0.0
 11
851.460905
 21
1205.867008
 31
0.0
  0
LINE
  5
2C8E
100
AcDbEntity
  8
0
100
AcDbLine
 10
824.614306
 20
1205.867008
 30
0.0
 11
822.614306
 21
1203.867008
 31
0.0
  0
LINE
  5
2C8F
100
AcDbEntity
  8
0
100
AcDbLine
 10
851.460905
 20
1205.867008
 30
0.0
 11
849.460905
 21
1203.867008
 31
0.0
  0
LINE
  5
2C90
100
AcDbEntity
  8
0
100
AcDbLine
 10
740.960905
 20
1353.317008
 30
0.0
 11
811.960905
 21
1353.317008
 31
0.0
  0
LINE
  5
2C91
100
AcDbEntity
  8
0
100
AcDbLine
 10
703.460905
 20
1260.367008
 30
0.0
 11
849.460905
 21
1260.367008
 31
0.0
  0
LINE
  5
2C92
100
AcDbEntity
  8
0
100
AcDbLine
 10
719.760905
 20
1283.317008
 30
0.0
 11
833.160905
 21
1283.317008
 31
0.0
  0
LINE
  5
2C93
100
AcDbEntity
  8
0
100
AcDbLine
 10
596.813961
 20
1353.317008
 30
0.0
 11
594.813961
 21
1365.317008
 31
0.0
  0
LINE
  5
2C94
100
AcDbEntity
  8
0
100
AcDbLine
 10
580.813961
 20
1353.317008
 30
0.0
 11
582.813961
 21
1365.317008
 31
0.0
  0
ARC
  5
2C95
100
AcDbEntity
  8
0
100
AcDbCircle
 10
588.813961
 20
1376.317008
 30
0.0
 40
16.3
100
AcDbArc
 50
309.353409
 51
230.646591
  0
LINE
  5
2C96
100
AcDbEntity
  8
0
100
AcDbLine
 10
645.513961
 20
1260.367008
 30
0.0
 11
645.513961
 21
1332.117008
 31
0.0
  0
LINE
  5
2C97
100
AcDbEntity
  8
0
100
AcDbLine
 10
657.813961
 20
1260.367008
 30
0.0
 11
658.813961
 21
1259.367008
 31
0.0
  0
LINE
  5
2C98
100
AcDbEntity
  8
0
100
AcDbLine
 10
658.813961
 20
1259.367008
 30
0.0
 11
658.813961
 21
1232.617008
 31
0.0
  0
LINE
  5
2C99
100
AcDbEntity
  8
0
100
AcDbLine
 10
645.513961
 20
1260.367008
 30
0.0
 11
657.813961
 21
1260.367008
 31
0.0
  0
LINE
  5
2C9A
100
AcDbEntity
  8
0
100
AcDbLine
 10
580.813961
 20
1353.317008
 30
0.0
 11
596.813961
 21
1353.317008
 31
0.0
  0
ARC
  5
2C9B
100
AcDbEntity
  8
0
100
AcDbCircle
 10
573.405284
 20
1357.527046
 30
0.0
 40
8.0
100
AcDbArc
 50
350.537678
 51
50.646591
  0
ARC
  5
2C9C
100
AcDbEntity
  8
0
100
AcDbCircle
 10
604.222638
 20
1357.527046
 30
0.0
 40
8.0
100
AcDbArc
 50
129.353409
 51
189.462322
  0
ARC
  5
2C9D
100
AcDbEntity
  8
0
100
AcDbCircle
 10
624.313961
 20
1332.117008
 30
0.0
 40
21.2
100
AcDbArc
 50
0.0
 51
90.0
  0
LINE
  5
2C9E
100
AcDbEntity
  8
0
100
AcDbLine
 10
719.760905
 20
1260.367008
 30
0.0
 11
719.760905
 21
1332.117008
 31
0.0
  0
LINE
  5
2C9F
100
AcDbEntity
  8
0
100
AcDbLine
 10
728.307505
 20
1258.367008
 30
0.0
 11
701.460905
 21
1258.367008
 31
0.0
  0
LINE
  5
2CA0
100
AcDbEntity
  8
0
100
AcDbLine
 10
703.460905
 20
1260.367008
 30
0.0
 11
701.460905
 21
1258.367008
 31
0.0
  0
LINE
  5
2CA1
100
AcDbEntity
  8
0
100
AcDbLine
 10
730.307505
 20
1260.367008
 30
0.0
 11
728.307505
 21
1258.367008
 31
0.0
  0
ARC
  5
2CA2
100
AcDbEntity
  8
0
100
AcDbCircle
 10
740.960905
 20
1332.117008
 30
0.0
 40
21.2
100
AcDbArc
 50
90.0
 51
180.0
  0
LINE
  5
2CA3
100
AcDbEntity
  8
0
100
AcDbLine
 10
582.813961
 20
1365.317008
 30
0.0
 11
585.669164
 21
1366.82782
 31
0.0
  0
LINE
  5
2CA4
100
AcDbEntity
  8
0
100
AcDbLine
 10
582.813961
 20
1365.317008
 30
0.0
 11
594.813961
 21
1365.317008
 31
0.0
  0
ARC
  5
2CA5
100
AcDbEntity
  8
0
100
AcDbCircle
 10
588.813961
 20
1376.317008
 30
0.0
 40
10.0
100
AcDbArc
 50
288.392229
 51
251.646371
  0
LINE
  5
2CA6
100
AcDbEntity
  8
0
100
AcDbLine
 10
585.669164
 20
1366.82782
 30
0.0
 11
591.969164
 21
1366.82782
 31
0.0
  0
LINE
  5
2CA7
100
AcDbEntity
  8
0
100
AcDbLine
 10
591.969164
 20
1366.82782
 30
0.0
 11
594.813961
 21
1365.317008
 31
0.0
  0
LINE
  5
2CA8
100
AcDbEntity
  8
0
100
AcDbLine
 10
573.513961
 20
1503.741228
 30
0.0
 11
604.113961
 21
1503.741228
 31
0.0
  0
ARC
  5
2CA9
100
AcDbEntity
  8
0
100
AcDbCircle
 10
588.813961
 20
1506.891228
 30
0.0
 40
6.0
100
AcDbArc
 50
211.668243
 51
328.331757
  0
ARC
  5
2CAA
100
AcDbEntity
  8
0
100
AcDbCircle
 10
588.813961
 20
1506.891228
 30
0.0
 40
8.0
100
AcDbArc
 50
203.188038
 51
336.811962
  0
ARC
  5
2CAB
100
AcDbEntity
  8
0
100
AcDbCircle
 10
573.513961
 20
1504.741228
 30
0.0
 40
1.0
100
AcDbArc
 50
180.0
 51
270.0
  0
ARC
  5
2CAC
100
AcDbEntity
  8
0
100
AcDbCircle
 10
604.113961
 20
1504.741228
 30
0.0
 40
1.0
100
AcDbArc
 50
270.0
 51
0.0
  0
LINE
  5
2CAD
100
AcDbEntity
  8
0
100
AcDbLine
 10
646.313961
 20
1479.141228
 30
0.0
 11
657.813961
 21
1479.141228
 31
0.0
  0
LINE
  5
2CAE
100
AcDbEntity
  8
0
100
AcDbLine
 10
657.813961
 20
1479.141228
 30
0.0
 11
658.813961
 21
1480.141228
 31
0.0
  0
LINE
  5
2CAF
100
AcDbEntity
  8
0
100
AcDbLine
 10
784.460905
 20
1353.317008
 30
0.0
 11
782.460905
 21
1365.317008
 31
0.0
  0
LINE
  5
2CB0
100
AcDbEntity
  8
0
100
AcDbLine
 10
768.460905
 20
1353.317008
 30
0.0
 11
770.460905
 21
1365.317008
 31
0.0
  0
LINE
  5
2CB1
100
AcDbEntity
  8
0
100
AcDbLine
 10
779.610905
 20
1360.317008
 30
0.0
 11
779.610905
 21
1391.465192
 31
0.0
  0
LINE
  5
2CB2
100
AcDbEntity
  8
0
100
AcDbLine
 10
773.310905
 20
1360.317008
 30
0.0
 11
773.310905
 21
1391.465192
 31
0.0
  0
LINE
  5
2CB3
100
AcDbEntity
  8
0
100
AcDbLine
 10
833.160905
 20
1260.367008
 30
0.0
 11
833.160905
 21
1332.117008
 31
0.0
  0
LINE
  5
2CB4
100
AcDbEntity
  8
0
100
AcDbLine
 10
849.460905
 20
1260.367008
 30
0.0
 11
851.460905
 21
1258.367008
 31
0.0
  0
LINE
  5
2CB5
100
AcDbEntity
  8
0
100
AcDbLine
 10
824.614306
 20
1258.367008
 30
0.0
 11
822.614306
 21
1260.367008
 31
0.0
  0
LINE
  5
2CB6
100
AcDbEntity
  8
0
100
AcDbLine
 10
824.614306
 20
1258.367008
 30
0.0
 11
851.460905
 21
1258.367008
 31
0.0
  0
LINE
  5
2CB7
100
AcDbEntity
  8
0
100
AcDbLine
 10
768.460905
 20
1353.317008
 30
0.0
 11
784.460905
 21
1353.317008
 31
0.0
  0
ARC
  5
2CB8
100
AcDbEntity
  8
0
100
AcDbCircle
 10
772.310905
 20
1360.317008
 30
0.0
 40
1.0
100
AcDbArc
 50
270.0
 51
0.0
  0
ARC
  5
2CB9
100
AcDbEntity
  8
0
100
AcDbCircle
 10
780.610905
 20
1360.317008
 30
0.0
 40
1.0
100
AcDbArc
 50
180.0
 51
270.0
  0
ARC
  5
2CBA
100
AcDbEntity
  8
0
100
AcDbCircle
 10
811.960905
 20
1332.117008
 30
0.0
 40
21.2
100
AcDbArc
 50
0.0
 51
90.0
  0
ARC
  5
2CBB
100
AcDbEntity
  8
0
100
AcDbCircle
 10
776.460905
 20
1376.317008
 30
0.0
 40
16.3
100
AcDbArc
 50
81.921896
 51
98.078104
  0
ARC
  5
2CBC
100
AcDbEntity
  8
0
100
AcDbCircle
 10
774.310905
 20
1391.465192
 30
0.0
 40
1.0
100
AcDbArc
 50
98.078104
 51
180.0
  0
ARC
  5
2CBD
100
AcDbEntity
  8
0
100
AcDbCircle
 10
778.610905
 20
1391.465192
 30
0.0
 40
1.0
100
AcDbArc
 50
0.0
 51
81.921896
  0
LINE
  5
2CBE
100
AcDbEntity
  8
0
100
AcDbLine
 10
779.610905
 20
1366.82782
 30
0.0
 11
779.616109
 21
1366.82782
 31
0.0
  0
LINE
  5
2CBF
100
AcDbEntity
  8
0
100
AcDbLine
 10
779.616109
 20
1366.82782
 30
0.0
 11
782.460905
 21
1365.317008
 31
0.0
  0
LINE
  5
2CC0
100
AcDbEntity
  8
0
100
AcDbLine
 10
770.460905
 20
1365.317008
 30
0.0
 11
773.310905
 21
1365.317008
 31
0.0
  0
LINE
  5
2CC1
100
AcDbEntity
  8
0
100
AcDbLine
 10
770.460905
 20
1365.317008
 30
0.0
 11
773.316109
 21
1366.82782
 31
0.0
  0
LINE
  5
2CC2
100
AcDbEntity
  8
0
100
AcDbLine
 10
779.610905
 20
1365.317008
 30
0.0
 11
782.460905
 21
1365.317008
 31
0.0
  0
LINE
  5
2CC3
100
AcDbEntity
  8
0
100
AcDbLine
 10
596.813961
 20
1777.333748
 30
0.0
 11
594.813961
 21
1789.333748
 31
0.0
  0
ARC
  5
2CC4
100
AcDbEntity
  8
0
100
AcDbCircle
 10
604.222638
 20
1781.543786
 30
0.0
 40
8.0
100
AcDbArc
 50
129.353409
 51
189.462322
  0
ARC
  5
2CC5
100
AcDbEntity
  8
0
100
AcDbCircle
 10
573.405284
 20
1781.543786
 30
0.0
 40
8.0
100
AcDbArc
 50
350.537678
 51
50.646591
  0
LINE
  5
2CC6
100
AcDbEntity
  8
0
100
AcDbLine
 10
580.813961
 20
1777.333748
 30
0.0
 11
582.813961
 21
1789.333748
 31
0.0
  0
ARC
  5
2CC7
100
AcDbEntity
  8
0
100
AcDbCircle
 10
588.813961
 20
1800.333748
 30
0.0
 40
16.3
100
AcDbArc
 50
309.353409
 51
230.646591
  0
LINE
  5
2CC8
100
AcDbEntity
  8
0
100
AcDbLine
 10
658.813961
 20
1656.633748
 30
0.0
 11
658.813961
 21
1629.883748
 31
0.0
  0
LINE
  5
2CC9
100
AcDbEntity
  8
0
100
AcDbLine
 10
657.813961
 20
1684.383748
 30
0.0
 11
657.813961
 21
1628.883748
 31
0.0
  0
LINE
  5
2CCA
100
AcDbEntity
  8
0
100
AcDbLine
 10
573.513961
 20
1510.041228
 30
0.0
 11
604.113961
 21
1510.041228
 31
0.0
  0
ARC
  5
2CCB
100
AcDbEntity
  8
0
100
AcDbCircle
 10
588.813961
 20
1506.891228
 30
0.0
 40
6.0
100
AcDbArc
 50
31.668243
 51
148.331757
  0
ARC
  5
2CCC
100
AcDbEntity
  8
0
100
AcDbCircle
 10
588.813961
 20
1506.891228
 30
0.0
 40
8.0
100
AcDbArc
 50
23.188038
 51
156.811962
  0
ARC
  5
2CCD
100
AcDbEntity
  8
0
100
AcDbCircle
 10
573.513961
 20
1509.041228
 30
0.0
 40
1.0
100
AcDbArc
 50
90.0
 51
180.0
  0
ARC
  5
2CCE
100
AcDbEntity
  8
0
100
AcDbCircle
 10
604.113961
 20
1509.041228
 30
0.0
 40
1.0
100
AcDbArc
 50
0.0
 51
90.0
  0
LINE
  5
2CCF
100
AcDbEntity
  8
0
100
AcDbLine
 10
658.813961
 20
1533.641228
 30
0.0
 11
658.813961
 21
1506.891228
 31
0.0
  0
LINE
  5
2CD0
100
AcDbEntity
  8
0
100
AcDbLine
 10
646.313961
 20
1534.641228
 30
0.0
 11
657.813961
 21
1534.641228
 31
0.0
  0
LINE
  5
2CD1
100
AcDbEntity
  8
0
100
AcDbLine
 10
657.813961
 20
1534.641228
 30
0.0
 11
658.813961
 21
1533.641228
 31
0.0
  0
LINE
  5
2CD2
100
AcDbEntity
  8
0
100
AcDbLine
 10
646.413961
 20
1628.883748
 30
0.0
 11
646.413961
 21
1627.883748
 31
0.0
  0
LINE
  5
2CD3
100
AcDbEntity
  8
0
100
AcDbLine
 10
646.413961
 20
1628.883748
 30
0.0
 11
657.813961
 21
1628.883748
 31
0.0
  0
LINE
  5
2CD4
100
AcDbEntity
  8
0
100
AcDbLine
 10
657.813961
 20
1628.883748
 30
0.0
 11
658.813961
 21
1629.883748
 31
0.0
  0
LINE
  5
2CD5
100
AcDbEntity
  8
0
100
AcDbLine
 10
645.513961
 20
1684.383748
 30
0.0
 11
645.513961
 21
1756.133748
 31
0.0
  0
LINE
  5
2CD6
100
AcDbEntity
  8
0
100
AcDbLine
 10
658.813961
 20
1683.383748
 30
0.0
 11
658.813961
 21
1656.633748
 31
0.0
  0
LINE
  5
2CD7
100
AcDbEntity
  8
0
100
AcDbLine
 10
645.513961
 20
1684.383748
 30
0.0
 11
657.813961
 21
1684.383748
 31
0.0
  0
LINE
  5
2CD8
100
AcDbEntity
  8
0
100
AcDbLine
 10
657.813961
 20
1684.383748
 30
0.0
 11
658.813961
 21
1683.383748
 31
0.0
  0
LINE
  5
2CD9
100
AcDbEntity
  8
0
100
AcDbLine
 10
580.813961
 20
1777.333748
 30
0.0
 11
596.813961
 21
1777.333748
 31
0.0
  0
ARC
  5
2CDA
100
AcDbEntity
  8
0
100
AcDbCircle
 10
624.313961
 20
1756.133748
 30
0.0
 40
21.2
100
AcDbArc
 50
0.0
 51
90.0
  0
LINE
  5
2CDB
100
AcDbEntity
  8
0
100
AcDbLine
 10
755.70606
 20
1668.243612
 30
0.0
 11
717.89256
 21
1668.243612
 31
0.0
  0
LINE
  5
2CDC
100
AcDbEntity
  8
0
100
AcDbLine
 10
680.07681
 20
1655.639112
 30
0.0
 11
743.10156
 21
1655.639112
 31
0.0
  0
LINE
  5
2CDD
100
AcDbEntity
  8
0
100
AcDbLine
 10
692.95581
 20
1668.243612
 30
0.0
 11
680.07681
 21
1655.639112
 31
0.0
  0
LINE
  5
2CDE
100
AcDbEntity
  8
0
100
AcDbLine
 10
717.89256
 20
1668.243612
 30
0.0
 11
711.58806
 21
1661.941362
 31
0.0
  0
LINE
  5
2CDF
100
AcDbEntity
  8
0
100
AcDbLine
 10
692.95581
 20
1661.941362
 30
0.0
 11
692.95581
 21
1668.243612
 31
0.0
  0
LINE
  5
2CE0
100
AcDbEntity
  8
0
100
AcDbLine
 10
711.58806
 20
1661.941362
 30
0.0
 11
692.95581
 21
1661.941362
 31
0.0
  0
LINE
  5
2CE1
100
AcDbEntity
  8
0
100
AcDbLine
 10
743.10156
 20
1655.639112
 30
0.0
 11
755.70606
 21
1668.243612
 31
0.0
  0
LINE
  5
2CE2
100
AcDbEntity
  8
0
100
AcDbLine
 10
582.813961
 20
1789.333748
 30
0.0
 11
585.669164
 21
1790.84456
 31
0.0
  0
ARC
  5
2CE3
100
AcDbEntity
  8
0
100
AcDbCircle
 10
588.813961
 20
1800.333748
 30
0.0
 40
10.0
100
AcDbArc
 50
288.392229
 51
251.646371
  0
LINE
  5
2CE4
100
AcDbEntity
  8
0
100
AcDbLine
 10
582.813961
 20
1789.333748
 30
0.0
 11
594.813961
 21
1789.333748
 31
0.0
  0
LINE
  5
2CE5
100
AcDbEntity
  8
0
100
AcDbLine
 10
585.669164
 20
1790.84456
 30
0.0
 11
591.969164
 21
1790.84456
 31
0.0
  0
LINE
  5
2CE6
100
AcDbEntity
  8
0
100
AcDbLine
 10
591.969164
 20
1790.84456
 30
0.0
 11
594.813961
 21
1789.333748
 31
0.0
  0
LINE
  5
2CE7
100
AcDbEntity
  8
0
100
AcDbLine
 10
2497.314181
 20
829.750571
 30
0.0
 11
2497.314181
 21
901.500571
 31
0.0
  0
LINE
  5
2CE8
100
AcDbEntity
  8
0
100
AcDbLine
 10
2383.914181
 20
829.750571
 30
0.0
 11
2383.914181
 21
901.500571
 31
0.0
  0
LINE
  5
2CE9
100
AcDbEntity
  8
0
100
AcDbLine
 10
1574.839842
 20
829.750571
 30
0.0
 11
1574.839842
 21
901.500571
 31
0.0
  0
LINE
  5
2CEA
100
AcDbEntity
  8
0
100
AcDbLine
 10
1461.439842
 20
829.750571
 30
0.0
 11
1461.439842
 21
901.500571
 31
0.0
  0
LINE
  5
2CF4
100
AcDbEntity
  8
0
100
AcDbLine
 10
2175.281278
 20
350.282724
 30
0.0
 11
2175.281278
 21
297.782724
 31
0.0
  0
LINE
  5
2CF5
100
AcDbEntity
  8
0
100
AcDbLine
 10
2025.281278
 20
350.282724
 30
0.0
 11
2025.281278
 21
297.782724
 31
0.0
  0
LINE
  5
2CF7
100
AcDbEntity
  8
0
100
AcDbLine
 10
1712.811502
 20
350.282724
 30
0.0
 11
1712.811502
 21
297.782724
 31
0.0
  0
LINE
  5
2CF8
100
AcDbEntity
  8
0
100
AcDbLine
 10
1862.811502
 20
350.282724
 30
0.0
 11
1862.811502
 21
297.782724
 31
0.0
  0
LINE
  5
2CFA
100
AcDbEntity
  8
0
100
AcDbLine
 10
1587.139842
 20
352.282724
 30
0.0
 11
1587.139842
 21
296.782724
 31
0.0
  0
LINE
  5
2CFB
100
AcDbEntity
  8
0
100
AcDbLine
 10
1588.139842
 20
351.282724
 30
0.0
 11
1588.139842
 21
297.782724
 31
0.0
  0
LINE
  5
2CFC
100
AcDbEntity
  8
0
100
AcDbLine
 10
1594.233589
 20
351.032724
 30
0.0
 11
1594.233589
 21
298.032724
 31
0.0
  0
LINE
  5
2CFE
100
AcDbEntity
  8
0
100
AcDbLine
 10
1848.882669
 20
295.782724
 30
0.0
 11
1860.811502
 21
295.782724
 31
0.0
  0
LINE
  5
2CFF
100
AcDbEntity
  8
0
100
AcDbLine
 10
1849.784782
 20
297.782724
 30
0.0
 11
1862.811502
 21
297.782724
 31
0.0
  0
LINE
  5
2D01
100
AcDbEntity
  8
0
100
AcDbLine
 10
1460.539842
 20
295.782724
 30
0.0
 11
1575.739842
 21
295.782724
 31
0.0
  0
TEXT
  5
2D02
100
AcDbEntity
  8
0
100
AcDbText
 10
1471.244883
 20
241.33842
 30
0.0
 40
20.0
  1
20A
 41
0.8
 11
1471.244883
 21
241.33842
 31
0.0
100
AcDbText
 73
     1
  0
LINE
  5
2D03
100
AcDbEntity
  8
0
100
AcDbLine
 10
1460.539842
 20
296.782724
 30
0.0
 11
1460.539842
 21
295.782724
 31
0.0
  0
LINE
  5
2D04
100
AcDbEntity
  8
0
100
AcDbLine
 10
1575.739842
 20
296.782724
 30
0.0
 11
1587.139842
 21
296.782724
 31
0.0
  0
LINE
  5
2D05
100
AcDbEntity
  8
0
100
AcDbLine
 10
1575.739842
 20
296.782724
 30
0.0
 11
1575.739842
 21
295.782724
 31
0.0
  0
ARC
  5
2D06
100
AcDbEntity
  8
0
100
AcDbCircle
 10
1590.971885
 20
303.144228
 30
0.0
 40
6.063513
100
AcDbArc
 50
242.156183
 51
302.542376
  0
LINE
  5
2D08
100
AcDbEntity
  8
0
100
AcDbLine
 10
1587.139842
 20
296.782724
 30
0.0
 11
1588.139842
 21
297.782724
 31
0.0
  0
LINE
  5
2D0B
100
AcDbEntity
  8
0
100
AcDbLine
 10
1725.838221
 20
297.782724
 30
0.0
 11
1712.811502
 21
297.782724
 31
0.0
  0
LINE
  5
2D0C
100
AcDbEntity
  8
0
100
AcDbLine
 10
1714.811502
 20
295.782724
 30
0.0
 11
1726.740334
 21
295.782724
 31
0.0
  0
LINE
  5
2D0D
100
AcDbEntity
  8
0
100
AcDbLine
 10
1714.811502
 20
295.782724
 30
0.0
 11
1712.811502
 21
297.782724
 31
0.0
  0
LINE
  5
2D14
100
AcDbEntity
  8
0
100
AcDbLine
 10
1862.811502
 20
297.782724
 30
0.0
 11
1860.811502
 21
295.782724
 31
0.0
  0
LINE
  5
2D15
100
AcDbEntity
  8
0
100
AcDbLine
 10
2036.457791
 20
295.782724
 30
0.0
 11
2027.281278
 21
295.782724
 31
0.0
  0
LINE
  5
2D16
100
AcDbEntity
  8
0
100
AcDbLine
 10
2035.59405
 20
297.782724
 30
0.0
 11
2025.281278
 21
297.782724
 31
0.0
  0
LINE
  5
2D17
100
AcDbEntity
  8
0
100
AcDbLine
 10
2025.281278
 20
297.782724
 30
0.0
 11
2027.281278
 21
295.782724
 31
0.0
  0
LINE
  5
2D19
100
AcDbEntity
  8
0
100
AcDbLine
 10
2268.813079
 20
315.069785
 30
0.0
 11
2205.788329
 21
315.069785
 31
0.0
  0
LINE
  5
2D1A
100
AcDbEntity
  8
0
100
AcDbLine
 10
2193.183829
 20
327.674285
 30
0.0
 11
2230.997329
 21
327.674285
 31
0.0
  0
LINE
  5
2D1B
100
AcDbEntity
  8
0
100
AcDbLine
 10
2173.281278
 20
295.782724
 30
0.0
 11
2164.104765
 21
295.782724
 31
0.0
  0
LINE
  5
2D1D
100
AcDbEntity
  8
0
100
AcDbLine
 10
2164.968506
 20
297.782724
 30
0.0
 11
2175.281278
 21
297.782724
 31
0.0
  0
LINE
  5
2D1E
100
AcDbEntity
  8
0
100
AcDbLine
 10
2173.281278
 20
295.782724
 30
0.0
 11
2175.281278
 21
297.782724
 31
0.0
  0
LINE
  5
2D1F
100
AcDbEntity
  8
0
100
AcDbLine
 10
2205.788329
 20
315.069785
 30
0.0
 11
2193.183829
 21
327.674285
 31
0.0
  0
LINE
  5
2D21
100
AcDbEntity
  8
0
100
AcDbLine
 10
2255.934079
 20
327.674285
 30
0.0
 11
2268.813079
 21
315.069785
 31
0.0
  0
LINE
  5
2D22
100
AcDbEntity
  8
0
100
AcDbLine
 10
2255.934079
 20
321.372035
 30
0.0
 11
2255.934079
 21
327.674285
 31
0.0
  0
LINE
  5
2D23
100
AcDbEntity
  8
0
100
AcDbLine
 10
2230.997329
 20
327.674285
 30
0.0
 11
2237.301829
 21
321.372035
 31
0.0
  0
LINE
  5
2D24
100
AcDbEntity
  8
0
100
AcDbLine
 10
2237.301829
 20
321.372035
 30
0.0
 11
2255.934079
 21
321.372035
 31
0.0
  0
ARC
  5
2D26
100
AcDbEntity
  8
0
100
AcDbCircle
 10
1823.311502
 20
424.032724
 30
0.0
 40
21.2
100
AcDbArc
 50
0.0
 51
90.0
  0
LINE
  5
2D27
100
AcDbEntity
  8
0
100
AcDbLine
 10
1849.343505
 20
352.282724
 30
0.0
 11
1860.811502
 21
352.282724
 31
0.0
  0
LINE
  5
2D28
100
AcDbEntity
  8
0
100
AcDbLine
 10
1850.206914
 20
350.282724
 30
0.0
 11
1862.811502
 21
350.282724
 31
0.0
  0
LINE
  5
2D29
100
AcDbEntity
  8
0
100
AcDbLine
 10
1594.233589
 20
642.921126
 30
0.0
 11
1594.233589
 21
589.921126
 31
0.0
  0
LINE
  5
2D2A
100
AcDbEntity
  8
0
100
AcDbLine
 10
1588.139842
 20
643.171126
 30
0.0
 11
1588.139842
 21
589.671126
 31
0.0
  0
LINE
  5
2D2B
100
AcDbEntity
  8
0
100
AcDbLine
 10
1587.139842
 20
644.171126
 30
0.0
 11
1587.139842
 21
588.671126
 31
0.0
  0
CIRCLE
  5
2D2C
100
AcDbEntity
  8
0
100
AcDbCircle
 10
1518.139842
 20
616.421126
 30
0.0
 40
56.7
  0
LINE
  5
2D2D
100
AcDbEntity
  8
0
100
AcDbLine
 10
1460.639842
 20
568.267725
 30
0.0
 11
1460.639842
 21
664.574526
 31
0.0
  0
LINE
  5
2D2E
100
AcDbEntity
  8
0
100
AcDbLine
 10
1575.639842
 20
568.267725
 30
0.0
 11
1575.639842
 21
664.574526
 31
0.0
  0
ARC
  5
2D33
100
AcDbEntity
  8
0
100
AcDbCircle
 10
1518.139842
 20
468.232724
 30
0.0
 40
10.0
100
AcDbArc
 50
288.392229
 51
251.646371
  0
ARC
  5
2D34
100
AcDbEntity
  8
0
100
AcDbCircle
 10
1518.139842
 20
468.232724
 30
0.0
 40
16.3
100
AcDbArc
 50
309.353409
 51
230.646591
  0
LINE
  5
2D35
100
AcDbEntity
  8
0
100
AcDbLine
 10
1482.639842
 20
445.232724
 30
0.0
 11
1553.639842
 21
445.232724
 31
0.0
  0
LINE
  5
2D36
100
AcDbEntity
  8
0
100
AcDbLine
 10
1461.439842
 20
375.232724
 30
0.0
 11
1574.839842
 21
375.232724
 31
0.0
  0
LINE
  5
2D37
100
AcDbEntity
  8
0
100
AcDbLine
 10
1461.439842
 20
352.282724
 30
0.0
 11
1461.439842
 21
424.032724
 31
0.0
  0
ARC
  5
2D38
100
AcDbEntity
  8
0
100
AcDbCircle
 10
1482.639842
 20
424.032724
 30
0.0
 40
21.2
100
AcDbArc
 50
90.0
 51
180.0
  0
ARC
  5
2D39
100
AcDbEntity
  8
0
100
AcDbCircle
 10
1533.54852
 20
449.442762
 30
0.0
 40
8.0
100
AcDbArc
 50
129.353409
 51
189.462322
  0
ARC
  5
2D3A
100
AcDbEntity
  8
0
100
AcDbCircle
 10
1502.731165
 20
449.442762
 30
0.0
 40
8.0
100
AcDbArc
 50
350.537678
 51
50.646591
  0
LINE
  5
2D3B
100
AcDbEntity
  8
0
100
AcDbLine
 10
1510.139842
 20
445.232724
 30
0.0
 11
1512.139842
 21
457.232724
 31
0.0
  0
LINE
  5
2D3C
100
AcDbEntity
  8
0
100
AcDbLine
 10
1526.139842
 20
445.232724
 30
0.0
 11
1524.139842
 21
457.232724
 31
0.0
  0
LINE
  5
2D3D
100
AcDbEntity
  8
0
100
AcDbLine
 10
1510.139842
 20
445.232724
 30
0.0
 11
1526.139842
 21
445.232724
 31
0.0
  0
LINE
  5
2D3E
100
AcDbEntity
  8
0
100
AcDbLine
 10
1512.139842
 20
457.232724
 30
0.0
 11
1524.139842
 21
457.232724
 31
0.0
  0
LINE
  5
2D3F
100
AcDbEntity
  8
0
100
AcDbLine
 10
1514.995046
 20
458.743536
 30
0.0
 11
1521.295046
 21
458.743536
 31
0.0
  0
LINE
  5
2D40
100
AcDbEntity
  8
0
100
AcDbLine
 10
1512.139842
 20
457.232724
 30
0.0
 11
1514.995046
 21
458.743536
 31
0.0
  0
LINE
  5
2D41
100
AcDbEntity
  8
0
100
AcDbLine
 10
1521.295046
 20
458.743536
 30
0.0
 11
1524.139842
 21
457.232724
 31
0.0
  0
LINE
  5
2D42
100
AcDbEntity
  8
0
100
AcDbLine
 10
1574.839842
 20
352.282724
 30
0.0
 11
1574.839842
 21
424.032724
 31
0.0
  0
LINE
  5
2D43
100
AcDbEntity
  8
0
100
AcDbLine
 10
1574.839842
 20
352.282724
 30
0.0
 11
1587.139842
 21
352.282724
 31
0.0
  0
ARC
  5
2D44
100
AcDbEntity
  8
0
100
AcDbCircle
 10
1590.971885
 20
345.92122
 30
0.0
 40
6.063513
100
AcDbArc
 50
57.457624
 51
117.843817
  0
LINE
  5
2D45
100
AcDbEntity
  8
0
100
AcDbLine
 10
1587.139842
 20
352.282724
 30
0.0
 11
1588.139842
 21
351.282724
 31
0.0
  0
ARC
  5
2D46
100
AcDbEntity
  8
0
100
AcDbCircle
 10
1553.639842
 20
424.032724
 30
0.0
 40
21.2
100
AcDbArc
 50
0.0
 51
90.0
  0
ARC
  5
2D47
100
AcDbEntity
  8
0
100
AcDbCircle
 10
1518.139842
 20
616.421126
 30
0.0
 40
73.0
100
AcDbArc
 50
218.031586
 51
321.968414
  0
ARC
  5
2D48
100
AcDbEntity
  8
0
100
AcDbCircle
 10
1518.139842
 20
616.421126
 30
0.0
 40
75.0
100
AcDbArc
 50
219.944505
 51
320.055495
  0
LINE
  5
2D49
100
AcDbEntity
  8
0
100
AcDbLine
 10
1575.639842
 20
588.671126
 30
0.0
 11
1587.139842
 21
588.671126
 31
0.0
  0
ARC
  5
2D4A
100
AcDbEntity
  8
0
100
AcDbCircle
 10
1590.971885
 20
595.03263
 30
0.0
 40
6.063513
100
AcDbArc
 50
242.156183
 51
302.542376
  0
LINE
  5
2D4C
100
AcDbEntity
  8
0
100
AcDbLine
 10
1587.139842
 20
588.671126
 30
0.0
 11
1588.139842
 21
589.671126
 31
0.0
  0
LINE
  5
2D4D
100
AcDbEntity
  8
0
100
AcDbLine
 10
1790.961502
 20
452.232724
 30
0.0
 11
1790.961502
 21
483.380909
 31
0.0
  0
LINE
  5
2D4E
100
AcDbEntity
  8
0
100
AcDbLine
 10
1784.661502
 20
452.232724
 30
0.0
 11
1784.661502
 21
483.380909
 31
0.0
  0
ARC
  5
2D4F
100
AcDbEntity
  8
0
100
AcDbCircle
 10
1752.311502
 20
424.032724
 30
0.0
 40
21.2
100
AcDbArc
 50
90.0
 51
180.0
  0
LINE
  5
2D50
100
AcDbEntity
  8
0
100
AcDbLine
 10
1731.111502
 20
375.232724
 30
0.0
 11
1743.249634
 21
375.232724
 31
0.0
  0
LINE
  5
2D51
100
AcDbEntity
  8
0
100
AcDbLine
 10
1731.111502
 20
361.157306
 30
0.0
 11
1731.111502
 21
424.032724
 31
0.0
  0
LINE
  5
2D55
100
AcDbEntity
  8
0
100
AcDbLine
 10
1725.416089
 20
350.282724
 30
0.0
 11
1712.811502
 21
350.282724
 31
0.0
  0
LINE
  5
2D56
100
AcDbEntity
  8
0
100
AcDbLine
 10
1714.811502
 20
352.282724
 30
0.0
 11
1726.279498
 21
352.282724
 31
0.0
  0
LINE
  5
2D57
100
AcDbEntity
  8
0
100
AcDbLine
 10
1714.811502
 20
352.282724
 30
0.0
 11
1712.811502
 21
350.282724
 31
0.0
  0
LINE
  5
2D5A
100
AcDbEntity
  8
0
100
AcDbLine
 10
1844.511502
 20
361.157306
 30
0.0
 11
1844.511502
 21
424.032724
 31
0.0
  0
LINE
  5
2D5F
100
AcDbEntity
  8
0
100
AcDbLine
 10
1752.311502
 20
445.232724
 30
0.0
 11
1823.311502
 21
445.232724
 31
0.0
  0
LINE
  5
2D60
100
AcDbEntity
  8
0
100
AcDbLine
 10
1795.811502
 20
445.232724
 30
0.0
 11
1793.811502
 21
457.232724
 31
0.0
  0
ARC
  5
2D61
100
AcDbEntity
  8
0
100
AcDbCircle
 10
1791.961502
 20
452.232724
 30
0.0
 40
1.0
100
AcDbArc
 50
180.0
 51
270.0
  0
LINE
  5
2D62
100
AcDbEntity
  8
0
100
AcDbLine
 10
1790.961502
 20
458.743536
 30
0.0
 11
1790.966705
 21
458.743536
 31
0.0
  0
LINE
  5
2D63
100
AcDbEntity
  8
0
100
AcDbLine
 10
1790.961502
 20
457.232724
 30
0.0
 11
1793.811502
 21
457.232724
 31
0.0
  0
LINE
  5
2D64
100
AcDbEntity
  8
0
100
AcDbLine
 10
1790.966705
 20
458.743536
 30
0.0
 11
1793.811502
 21
457.232724
 31
0.0
  0
LINE
  5
2D65
100
AcDbEntity
  8
0
100
AcDbLine
 10
1779.811502
 20
445.232724
 30
0.0
 11
1781.811502
 21
457.232724
 31
0.0
  0
ARC
  5
2D66
100
AcDbEntity
  8
0
100
AcDbCircle
 10
1783.661502
 20
452.232724
 30
0.0
 40
1.0
100
AcDbArc
 50
270.0
 51
0.0
  0
LINE
  5
2D67
100
AcDbEntity
  8
0
100
AcDbLine
 10
1781.811502
 20
457.232724
 30
0.0
 11
1784.661502
 21
457.232724
 31
0.0
  0
LINE
  5
2D68
100
AcDbEntity
  8
0
100
AcDbLine
 10
1781.811502
 20
457.232724
 30
0.0
 11
1784.666705
 21
458.743536
 31
0.0
  0
LINE
  5
2D69
100
AcDbEntity
  8
0
100
AcDbLine
 10
1779.811502
 20
445.232724
 30
0.0
 11
1795.811502
 21
445.232724
 31
0.0
  0
ARC
  5
2D6C
100
AcDbEntity
  8
0
100
AcDbCircle
 10
1785.661502
 20
483.380909
 30
0.0
 40
1.0
100
AcDbArc
 50
98.078104
 51
180.0
  0
ARC
  5
2D6D
100
AcDbEntity
  8
0
100
AcDbCircle
 10
1787.811502
 20
468.232724
 30
0.0
 40
16.3
100
AcDbArc
 50
81.921896
 51
98.078104
  0
ARC
  5
2D6E
100
AcDbEntity
  8
0
100
AcDbCircle
 10
1789.961502
 20
483.380909
 30
0.0
 40
1.0
100
AcDbArc
 50
0.0
 51
81.921896
  0
ARC
  5
2D72
100
AcDbEntity
  8
0
100
AcDbCircle
 10
1518.139842
 20
616.421126
 30
0.0
 40
73.0
100
AcDbArc
 50
38.031586
 51
141.968414
  0
ARC
  5
2D73
100
AcDbEntity
  8
0
100
AcDbCircle
 10
1518.139842
 20
616.421126
 30
0.0
 40
75.0
100
AcDbArc
 50
39.944505
 51
140.055495
  0
ARC
  5
2D74
100
AcDbEntity
  8
0
100
AcDbCircle
 10
1502.839842
 20
614.271126
 30
0.0
 40
1.0
100
AcDbArc
 50
180.0
 51
270.0
  0
ARC
  5
2D75
100
AcDbEntity
  8
0
100
AcDbCircle
 10
1502.839842
 20
618.571126
 30
0.0
 40
1.0
100
AcDbArc
 50
90.0
 51
180.0
  0
LINE
  5
2D76
100
AcDbEntity
  8
0
100
AcDbLine
 10
1501.839842
 20
614.271126
 30
0.0
 11
1501.839842
 21
618.571126
 31
0.0
  0
LINE
  5
2D77
100
AcDbEntity
  8
0
100
AcDbLine
 10
1502.839842
 20
619.571126
 30
0.0
 11
1533.439842
 21
619.571126
 31
0.0
  0
LINE
  5
2D78
100
AcDbEntity
  8
0
100
AcDbLine
 10
1502.839842
 20
613.271126
 30
0.0
 11
1533.439842
 21
613.271126
 31
0.0
  0
ARC
  5
2D79
100
AcDbEntity
  8
0
100
AcDbCircle
 10
1518.139842
 20
616.421126
 30
0.0
 40
8.0
100
AcDbArc
 50
203.188038
 51
336.811962
  0
ARC
  5
2D7A
100
AcDbEntity
  8
0
100
AcDbCircle
 10
1518.139842
 20
616.421126
 30
0.0
 40
8.0
100
AcDbArc
 50
23.188038
 51
156.811962
  0
ARC
  5
2D7B
100
AcDbEntity
  8
0
100
AcDbCircle
 10
1518.139842
 20
616.421126
 30
0.0
 40
6.0
100
AcDbArc
 50
211.668243
 51
328.331757
  0
ARC
  5
2D7C
100
AcDbEntity
  8
0
100
AcDbCircle
 10
1518.139842
 20
616.421126
 30
0.0
 40
6.0
100
AcDbArc
 50
31.668243
 51
148.331757
  0
ARC
  5
2D7D
100
AcDbEntity
  8
0
100
AcDbCircle
 10
1533.439842
 20
618.571126
 30
0.0
 40
1.0
100
AcDbArc
 50
0.0
 51
90.0
  0
LINE
  5
2D7E
100
AcDbEntity
  8
0
100
AcDbLine
 10
1534.439842
 20
614.271126
 30
0.0
 11
1534.439842
 21
618.571126
 31
0.0
  0
ARC
  5
2D7F
100
AcDbEntity
  8
0
100
AcDbCircle
 10
1533.439842
 20
614.271126
 30
0.0
 40
1.0
100
AcDbArc
 50
270.0
 51
0.0
  0
LINE
  5
2D80
100
AcDbEntity
  8
0
100
AcDbLine
 10
1575.639842
 20
644.171126
 30
0.0
 11
1587.139842
 21
644.171126
 31
0.0
  0
ARC
  5
2D81
100
AcDbEntity
  8
0
100
AcDbCircle
 10
1590.971885
 20
637.809622
 30
0.0
 40
6.063513
100
AcDbArc
 50
57.457624
 51
117.843817
  0
LINE
  5
2D82
100
AcDbEntity
  8
0
100
AcDbLine
 10
1587.139842
 20
644.171126
 30
0.0
 11
1588.139842
 21
643.171126
 31
0.0
  0
LINE
  5
2D83
100
AcDbEntity
  8
0
100
AcDbLine
 10
1461.439842
 20
852.700571
 30
0.0
 11
1574.839842
 21
852.700571
 31
0.0
  0
LINE
  5
2D84
100
AcDbEntity
  8
0
100
AcDbLine
 10
1460.539842
 20
773.250571
 30
0.0
 11
1575.739842
 21
773.250571
 31
0.0
  0
LINE
  5
2D85
100
AcDbEntity
  8
0
100
AcDbLine
 10
1460.539842
 20
774.250571
 30
0.0
 11
1460.539842
 21
773.250571
 31
0.0
  0
LINE
  5
2D86
100
AcDbEntity
  8
0
100
AcDbLine
 10
1587.139842
 20
829.750571
 30
0.0
 11
1587.139842
 21
774.250571
 31
0.0
  0
LINE
  5
2D87
100
AcDbEntity
  8
0
100
AcDbLine
 10
1588.139842
 20
828.750571
 30
0.0
 11
1588.139842
 21
775.250571
 31
0.0
  0
LINE
  5
2D88
100
AcDbEntity
  8
0
100
AcDbLine
 10
1594.233589
 20
828.500571
 30
0.0
 11
1594.233589
 21
775.500571
 31
0.0
  0
LINE
  5
2D89
100
AcDbEntity
  8
0
100
AcDbLine
 10
1575.739842
 20
774.250571
 30
0.0
 11
1587.139842
 21
774.250571
 31
0.0
  0
LINE
  5
2D8A
100
AcDbEntity
  8
0
100
AcDbLine
 10
1575.739842
 20
774.250571
 30
0.0
 11
1575.739842
 21
773.250571
 31
0.0
  0
ARC
  5
2D8B
100
AcDbEntity
  8
0
100
AcDbCircle
 10
1590.971885
 20
780.612075
 30
0.0
 40
6.063513
100
AcDbArc
 50
242.156183
 51
302.542376
  0
ARC
  5
2D8C
100
AcDbEntity
  8
0
100
AcDbCircle
 10
1590.971885
 20
780.612075
 30
0.0
 40
6.063513
100
AcDbArc
 50
242.156183
 51
302.542376
  0
LINE
  5
2D8D
100
AcDbEntity
  8
0
100
AcDbLine
 10
1587.139842
 20
774.250571
 30
0.0
 11
1588.139842
 21
775.250571
 31
0.0
  0
LINE
  5
2D8E
100
AcDbEntity
  8
0
100
AcDbLine
 10
1574.839842
 20
829.750571
 30
0.0
 11
1587.139842
 21
829.750571
 31
0.0
  0
ARC
  5
2D8F
100
AcDbEntity
  8
0
100
AcDbCircle
 10
1590.971885
 20
823.389067
 30
0.0
 40
6.063513
100
AcDbArc
 50
57.457624
 51
117.843817
  0
LINE
  5
2D90
100
AcDbEntity
  8
0
100
AcDbLine
 10
1587.139842
 20
829.750571
 30
0.0
 11
1588.139842
 21
828.750571
 31
0.0
  0
LINE
  5
2D96
100
AcDbEntity
  8
0
100
AcDbLine
 10
1723.45539
 20
807.449699
 30
0.0
 11
1704.82314
 21
807.449699
 31
0.0
  0
LINE
  5
2D97
100
AcDbEntity
  8
0
100
AcDbLine
 10
1691.94414
 20
801.147449
 30
0.0
 11
1754.96889
 21
801.147449
 31
0.0
  0
LINE
  5
2D9B
100
AcDbEntity
  8
0
100
AcDbLine
 10
1704.82314
 20
807.449699
 30
0.0
 11
1704.82314
 21
813.751949
 31
0.0
  0
LINE
  5
2D9C
100
AcDbEntity
  8
0
100
AcDbLine
 10
1704.82314
 20
813.751949
 30
0.0
 11
1691.94414
 21
801.147449
 31
0.0
  0
LINE
  5
2D9D
100
AcDbEntity
  8
0
100
AcDbLine
 10
1767.57339
 20
813.751949
 30
0.0
 11
1729.75989
 21
813.751949
 31
0.0
  0
LINE
  5
2D9E
100
AcDbEntity
  8
0
100
AcDbLine
 10
1754.96889
 20
801.147449
 30
0.0
 11
1767.57339
 21
813.751949
 31
0.0
  0
LINE
  5
2D9F
100
AcDbEntity
  8
0
100
AcDbLine
 10
1729.75989
 20
813.751949
 30
0.0
 11
1723.45539
 21
807.449699
 31
0.0
  0
LINE
  5
2DA4
100
AcDbEntity
  8
0
100
AcDbLine
 10
2108.281278
 20
445.232724
 30
0.0
 11
2106.281278
 21
457.232724
 31
0.0
  0
LINE
  5
2DA5
100
AcDbEntity
  8
0
100
AcDbLine
 10
2108.281278
 20
445.232724
 30
0.0
 11
2092.281278
 21
445.232724
 31
0.0
  0
LINE
  5
2DA6
100
AcDbEntity
  8
0
100
AcDbLine
 10
2135.781278
 20
445.232724
 30
0.0
 11
2064.781278
 21
445.232724
 31
0.0
  0
LINE
  5
2DA7
100
AcDbEntity
  8
0
100
AcDbLine
 10
2103.431278
 20
452.232724
 30
0.0
 11
2103.431278
 21
483.380909
 31
0.0
  0
LINE
  5
2DA8
100
AcDbEntity
  8
0
100
AcDbLine
 10
2097.131278
 20
452.232724
 30
0.0
 11
2097.131278
 21
483.380909
 31
0.0
  0
LINE
  5
2DA9
100
AcDbEntity
  8
0
100
AcDbLine
 10
1860.811502
 20
352.282724
 30
0.0
 11
1862.811502
 21
350.282724
 31
0.0
  0
LINE
  5
2DAA
100
AcDbEntity
  8
0
100
AcDbLine
 10
2043.581278
 20
365.582816
 30
0.0
 11
2043.581278
 21
424.032724
 31
0.0
  0
LINE
  5
2DAB
100
AcDbEntity
  8
0
100
AcDbLine
 10
2052.01628
 20
375.232724
 30
0.0
 11
2043.581278
 21
375.232724
 31
0.0
  0
LINE
  5
2DAC
100
AcDbEntity
  8
0
100
AcDbLine
 10
2036.016688
 20
352.282724
 30
0.0
 11
2027.281278
 21
352.282724
 31
0.0
  0
LINE
  5
2DAD
100
AcDbEntity
  8
0
100
AcDbLine
 10
2035.189516
 20
350.282724
 30
0.0
 11
2025.281278
 21
350.282724
 31
0.0
  0
LINE
  5
2DAE
100
AcDbEntity
  8
0
100
AcDbLine
 10
2027.281278
 20
352.282724
 30
0.0
 11
2025.281278
 21
350.282724
 31
0.0
  0
ARC
  5
2DB0
100
AcDbEntity
  8
0
100
AcDbCircle
 10
2064.781278
 20
424.032724
 30
0.0
 40
21.2
100
AcDbArc
 50
90.0
 51
180.0
  0
LINE
  5
2DB1
100
AcDbEntity
  8
0
100
AcDbLine
 10
2092.281278
 20
445.232724
 30
0.0
 11
2094.281278
 21
457.232724
 31
0.0
  0
LINE
  5
2DB2
100
AcDbEntity
  8
0
100
AcDbLine
 10
2106.281278
 20
457.232724
 30
0.0
 11
2103.431278
 21
457.232724
 31
0.0
  0
LINE
  5
2DB3
100
AcDbEntity
  8
0
100
AcDbLine
 10
2106.281278
 20
457.232724
 30
0.0
 11
2103.426075
 21
458.743536
 31
0.0
  0
ARC
  5
2DB4
100
AcDbEntity
  8
0
100
AcDbCircle
 10
2104.431278
 20
452.232724
 30
0.0
 40
1.0
100
AcDbArc
 50
180.0
 51
270.0
  0
LINE
  5
2DB5
100
AcDbEntity
  8
0
100
AcDbLine
 10
2097.126075
 20
458.743536
 30
0.0
 11
2094.281278
 21
457.232724
 31
0.0
  0
LINE
  5
2DB6
100
AcDbEntity
  8
0
100
AcDbLine
 10
2097.131278
 20
457.232724
 30
0.0
 11
2094.281278
 21
457.232724
 31
0.0
  0
LINE
  5
2DB7
100
AcDbEntity
  8
0
100
AcDbLine
 10
2097.131278
 20
458.743536
 30
0.0
 11
2097.126075
 21
458.743536
 31
0.0
  0
ARC
  5
2DB8
100
AcDbEntity
  8
0
100
AcDbCircle
 10
2096.131278
 20
452.232724
 30
0.0
 40
1.0
100
AcDbArc
 50
270.0
 51
0.0
  0
ARC
  5
2DB9
100
AcDbEntity
  8
0
100
AcDbCircle
 10
2098.131278
 20
483.380909
 30
0.0
 40
1.0
100
AcDbArc
 50
98.078104
 51
180.0
  0
ARC
  5
2DBA
100
AcDbEntity
  8
0
100
AcDbCircle
 10
2100.281278
 20
468.232724
 30
0.0
 40
16.3
100
AcDbArc
 50
81.921896
 51
98.078104
  0
ARC
  5
2DBB
100
AcDbEntity
  8
0
100
AcDbCircle
 10
2102.431278
 20
483.380909
 30
0.0
 40
1.0
100
AcDbArc
 50
0.0
 51
81.921896
  0
LINE
  5
2DBC
100
AcDbEntity
  8
0
100
AcDbLine
 10
2156.981278
 20
365.582816
 30
0.0
 11
2156.981278
 21
424.032724
 31
0.0
  0
LINE
  5
2DBD
100
AcDbEntity
  8
0
100
AcDbLine
 10
2173.281278
 20
352.282724
 30
0.0
 11
2164.545868
 21
352.282724
 31
0.0
  0
LINE
  5
2DBE
100
AcDbEntity
  8
0
100
AcDbLine
 10
2156.981278
 20
375.232724
 30
0.0
 11
2148.546276
 21
375.232724
 31
0.0
  0
LINE
  5
2DC0
100
AcDbEntity
  8
0
100
AcDbLine
 10
2165.37304
 20
350.282724
 30
0.0
 11
2175.281278
 21
350.282724
 31
0.0
  0
LINE
  5
2DC1
100
AcDbEntity
  8
0
100
AcDbLine
 10
2173.281278
 20
352.282724
 30
0.0
 11
2175.281278
 21
350.282724
 31
0.0
  0
ARC
  5
2DC2
100
AcDbEntity
  8
0
100
AcDbCircle
 10
2135.781278
 20
424.032724
 30
0.0
 40
21.2
100
AcDbArc
 50
0.0
 51
90.0
  0
LINE
  5
2DCA
100
AcDbEntity
  8
0
100
AcDbLine
 10
2268.813079
 20
607.269288
 30
0.0
 11
2205.788329
 21
607.269288
 31
0.0
  0
LINE
  5
2DCB
100
AcDbEntity
  8
0
100
AcDbLine
 10
2193.183829
 20
619.873788
 30
0.0
 11
2230.997329
 21
619.873788
 31
0.0
  0
LINE
  5
2DCC
100
AcDbEntity
  8
0
100
AcDbLine
 10
2205.788329
 20
607.269288
 30
0.0
 11
2193.183829
 21
619.873788
 31
0.0
  0
LINE
  5
2DCE
100
AcDbEntity
  8
0
100
AcDbLine
 10
2255.934079
 20
619.873788
 30
0.0
 11
2268.813079
 21
607.269288
 31
0.0
  0
LINE
  5
2DCF
100
AcDbEntity
  8
0
100
AcDbLine
 10
2255.934079
 20
613.571538
 30
0.0
 11
2255.934079
 21
619.873788
 31
0.0
  0
LINE
  5
2DD0
100
AcDbEntity
  8
0
100
AcDbLine
 10
2230.997329
 20
619.873788
 30
0.0
 11
2237.301829
 21
613.571538
 31
0.0
  0
LINE
  5
2DD1
100
AcDbEntity
  8
0
100
AcDbLine
 10
2237.301829
 20
613.571538
 30
0.0
 11
2255.934079
 21
613.571538
 31
0.0
  0
LINE
  5
2DDB
100
AcDbEntity
  8
0
100
AcDbLine
 10
2640.174094
 20
350.282724
 30
0.0
 11
2640.174094
 21
297.782724
 31
0.0
  0
LINE
  5
2DDC
100
AcDbEntity
  8
0
100
AcDbLine
 10
2790.174094
 20
350.282724
 30
0.0
 11
2790.174094
 21
297.782724
 31
0.0
  0
LINE
  5
2DDE
100
AcDbEntity
  8
0
100
AcDbLine
 10
2364.520434
 20
351.032724
 30
0.0
 11
2364.520434
 21
298.032724
 31
0.0
  0
LINE
  5
2DDF
100
AcDbEntity
  8
0
100
AcDbLine
 10
2371.614181
 20
352.282724
 30
0.0
 11
2371.614181
 21
296.782724
 31
0.0
  0
LINE
  5
2DE1
100
AcDbEntity
  8
0
100
AcDbLine
 10
2370.614181
 20
351.282724
 30
0.0
 11
2370.614181
 21
297.782724
 31
0.0
  0
LINE
  5
2DE2
100
AcDbEntity
  8
0
100
AcDbLine
 10
2509.614181
 20
352.282724
 30
0.0
 11
2509.614181
 21
296.782724
 31
0.0
  0
LINE
  5
2DE3
100
AcDbEntity
  8
0
100
AcDbLine
 10
2510.614181
 20
351.282724
 30
0.0
 11
2510.614181
 21
297.782724
 31
0.0
  0
LINE
  5
2DE4
100
AcDbEntity
  8
0
100
AcDbLine
 10
2516.707928
 20
351.032724
 30
0.0
 11
2516.707928
 21
298.032724
 31
0.0
  0
LINE
  5
2DE7
100
AcDbEntity
  8
0
100
AcDbLine
 10
2383.014181
 20
295.782724
 30
0.0
 11
2498.214181
 21
295.782724
 31
0.0
  0
TEXT
  5
2DE8
100
AcDbEntity
  8
0
100
AcDbText
 10
2424.896508
 20
250.214773
 30
0.0
 40
20.0
  1
25A
 41
0.8
 11
2424.896508
 21
250.214773
 31
0.0
100
AcDbText
 73
     1
  0
ARC
  5
2DE9
100
AcDbEntity
  8
0
100
AcDbCircle
 10
2367.782138
 20
303.144228
 30
0.0
 40
6.063513
100
AcDbArc
 50
237.457624
 51
297.843817
  0
LINE
  5
2DEB
100
AcDbEntity
  8
0
100
AcDbLine
 10
2383.014181
 20
296.782724
 30
0.0
 11
2383.014181
 21
295.782724
 31
0.0
  0
LINE
  5
2DEC
100
AcDbEntity
  8
0
100
AcDbLine
 10
2371.614181
 20
296.782724
 30
0.0
 11
2370.614181
 21
297.782724
 31
0.0
  0
LINE
  5
2DED
100
AcDbEntity
  8
0
100
AcDbLine
 10
2371.614181
 20
296.782724
 30
0.0
 11
2383.014181
 21
296.782724
 31
0.0
  0
LINE
  5
2DEE
100
AcDbEntity
  8
0
100
AcDbLine
 10
2498.214181
 20
296.782724
 30
0.0
 11
2509.614181
 21
296.782724
 31
0.0
  0
LINE
  5
2DEF
100
AcDbEntity
  8
0
100
AcDbLine
 10
2498.214181
 20
296.782724
 30
0.0
 11
2498.214181
 21
295.782724
 31
0.0
  0
LINE
  5
2DF0
100
AcDbEntity
  8
0
100
AcDbLine
 10
2509.614181
 20
296.782724
 30
0.0
 11
2510.614181
 21
297.782724
 31
0.0
  0
ARC
  5
2DF1
100
AcDbEntity
  8
0
100
AcDbCircle
 10
2513.446223
 20
303.144228
 30
0.0
 40
6.063513
100
AcDbArc
 50
242.156183
 51
302.542376
  0
LINE
  5
2DF3
100
AcDbEntity
  8
0
100
AcDbLine
 10
2642.174094
 20
295.782724
 30
0.0
 11
2651.350607
 21
295.782724
 31
0.0
  0
LINE
  5
2DF4
100
AcDbEntity
  8
0
100
AcDbLine
 10
2650.486866
 20
297.782724
 30
0.0
 11
2640.174094
 21
297.782724
 31
0.0
  0
LINE
  5
2DF7
100
AcDbEntity
  8
0
100
AcDbLine
 10
2642.174094
 20
295.782724
 30
0.0
 11
2640.174094
 21
297.782724
 31
0.0
  0
LINE
  5
2DF9
100
AcDbEntity
  8
0
100
AcDbLine
 10
2790.174094
 20
297.782724
 30
0.0
 11
2788.174094
 21
295.782724
 31
0.0
  0
LINE
  5
2DFA
100
AcDbEntity
  8
0
100
AcDbLine
 10
2778.997581
 20
295.782724
 30
0.0
 11
2788.174094
 21
295.782724
 31
0.0
  0
LINE
  5
2DFB
100
AcDbEntity
  8
0
100
AcDbLine
 10
2779.861322
 20
297.782724
 30
0.0
 11
2790.174094
 21
297.782724
 31
0.0
  0
LINE
  5
2DFC
100
AcDbEntity
  8
0
100
AcDbLine
 10
2679.674094
 20
445.232724
 30
0.0
 11
2750.674094
 21
445.232724
 31
0.0
  0
LINE
  5
2E00
100
AcDbEntity
  8
0
100
AcDbLine
 10
2510.614181
 20
643.171126
 30
0.0
 11
2510.614181
 21
589.671126
 31
0.0
  0
LINE
  5
2E01
100
AcDbEntity
  8
0
100
AcDbLine
 10
2509.614181
 20
644.171126
 30
0.0
 11
2509.614181
 21
588.671126
 31
0.0
  0
LINE
  5
2E02
100
AcDbEntity
  8
0
100
AcDbLine
 10
2516.707928
 20
642.921126
 30
0.0
 11
2516.707928
 21
589.921126
 31
0.0
  0
LINE
  5
2E03
100
AcDbEntity
  8
0
100
AcDbLine
 10
2364.520434
 20
642.921126
 30
0.0
 11
2364.520434
 21
589.921126
 31
0.0
  0
LINE
  5
2E04
100
AcDbEntity
  8
0
100
AcDbLine
 10
2371.614181
 20
644.171126
 30
0.0
 11
2371.614181
 21
588.671126
 31
0.0
  0
LINE
  5
2E05
100
AcDbEntity
  8
0
100
AcDbLine
 10
2370.614181
 20
643.171126
 30
0.0
 11
2370.614181
 21
589.671126
 31
0.0
  0
CIRCLE
  5
2E06
100
AcDbEntity
  8
0
100
AcDbCircle
 10
2440.614181
 20
616.421126
 30
0.0
 40
56.7
  0
LINE
  5
2E07
100
AcDbEntity
  8
0
100
AcDbLine
 10
2383.114181
 20
568.267725
 30
0.0
 11
2383.114181
 21
664.574526
 31
0.0
  0
LINE
  5
2E08
100
AcDbEntity
  8
0
100
AcDbLine
 10
2498.114181
 20
568.267725
 30
0.0
 11
2498.114181
 21
664.574526
 31
0.0
  0
ARC
  5
2E0B
100
AcDbEntity
  8
0
100
AcDbCircle
 10
2440.614181
 20
468.232724
 30
0.0
 40
10.0
100
AcDbArc
 50
288.392229
 51
251.646371
  0
ARC
  5
2E0C
100
AcDbEntity
  8
0
100
AcDbCircle
 10
2440.614181
 20
468.232724
 30
0.0
 40
16.3
100
AcDbArc
 50
309.353409
 51
230.646591
  0
LINE
  5
2E0D
100
AcDbEntity
  8
0
100
AcDbLine
 10
2434.614181
 20
457.232724
 30
0.0
 11
2446.614181
 21
457.232724
 31
0.0
  0
LINE
  5
2E0E
100
AcDbEntity
  8
0
100
AcDbLine
 10
2432.614181
 20
445.232724
 30
0.0
 11
2448.614181
 21
445.232724
 31
0.0
  0
LINE
  5
2E0F
100
AcDbEntity
  8
0
100
AcDbLine
 10
2437.469384
 20
458.743536
 30
0.0
 11
2443.769384
 21
458.743536
 31
0.0
  0
LINE
  5
2E10
100
AcDbEntity
  8
0
100
AcDbLine
 10
2405.114181
 20
445.232724
 30
0.0
 11
2476.114181
 21
445.232724
 31
0.0
  0
LINE
  5
2E11
100
AcDbEntity
  8
0
100
AcDbLine
 10
2383.914181
 20
375.232724
 30
0.0
 11
2497.314181
 21
375.232724
 31
0.0
  0
LINE
  5
2E12
100
AcDbEntity
  8
0
100
AcDbLine
 10
2383.914181
 20
352.282724
 30
0.0
 11
2383.914181
 21
424.032724
 31
0.0
  0
ARC
  5
2E13
100
AcDbEntity
  8
0
100
AcDbCircle
 10
2367.782138
 20
345.92122
 30
0.0
 40
6.063513
100
AcDbArc
 50
62.156183
 51
122.542376
  0
LINE
  5
2E14
100
AcDbEntity
  8
0
100
AcDbLine
 10
2371.614181
 20
352.282724
 30
0.0
 11
2370.614181
 21
351.282724
 31
0.0
  0
LINE
  5
2E15
100
AcDbEntity
  8
0
100
AcDbLine
 10
2371.614181
 20
352.282724
 30
0.0
 11
2383.914181
 21
352.282724
 31
0.0
  0
ARC
  5
2E16
100
AcDbEntity
  8
0
100
AcDbCircle
 10
2405.114181
 20
424.032724
 30
0.0
 40
21.2
100
AcDbArc
 50
90.0
 51
180.0
  0
LINE
  5
2E17
100
AcDbEntity
  8
0
100
AcDbLine
 10
2434.614181
 20
457.232724
 30
0.0
 11
2437.469384
 21
458.743536
 31
0.0
  0
ARC
  5
2E18
100
AcDbEntity
  8
0
100
AcDbCircle
 10
2425.205504
 20
449.442762
 30
0.0
 40
8.0
100
AcDbArc
 50
350.537678
 51
50.646591
  0
LINE
  5
2E19
100
AcDbEntity
  8
0
100
AcDbLine
 10
2432.614181
 20
445.232724
 30
0.0
 11
2434.614181
 21
457.232724
 31
0.0
  0
LINE
  5
2E1A
100
AcDbEntity
  8
0
100
AcDbLine
 10
2497.314181
 20
352.282724
 30
0.0
 11
2497.314181
 21
424.032724
 31
0.0
  0
LINE
  5
2E1B
100
AcDbEntity
  8
0
100
AcDbLine
 10
2497.314181
 20
352.282724
 30
0.0
 11
2509.614181
 21
352.282724
 31
0.0
  0
LINE
  5
2E1C
100
AcDbEntity
  8
0
100
AcDbLine
 10
2509.614181
 20
352.282724
 30
0.0
 11
2510.614181
 21
351.282724
 31
0.0
  0
ARC
  5
2E1D
100
AcDbEntity
  8
0
100
AcDbCircle
 10
2513.446223
 20
345.92122
 30
0.0
 40
6.063513
100
AcDbArc
 50
57.457624
 51
117.843817
  0
ARC
  5
2E1E
100
AcDbEntity
  8
0
100
AcDbCircle
 10
2476.114181
 20
424.032724
 30
0.0
 40
21.2
100
AcDbArc
 50
0.0
 51
90.0
  0
LINE
  5
2E1F
100
AcDbEntity
  8
0
100
AcDbLine
 10
2448.614181
 20
445.232724
 30
0.0
 11
2446.614181
 21
457.232724
 31
0.0
  0
LINE
  5
2E20
100
AcDbEntity
  8
0
100
AcDbLine
 10
2443.769384
 20
458.743536
 30
0.0
 11
2446.614181
 21
457.232724
 31
0.0
  0
ARC
  5
2E21
100
AcDbEntity
  8
0
100
AcDbCircle
 10
2456.022858
 20
449.442762
 30
0.0
 40
8.0
100
AcDbArc
 50
129.353409
 51
189.462322
  0
ARC
  5
2E22
100
AcDbEntity
  8
0
100
AcDbCircle
 10
2440.614181
 20
616.421126
 30
0.0
 40
73.0
100
AcDbArc
 50
218.031586
 51
321.968414
  0
ARC
  5
2E23
100
AcDbEntity
  8
0
100
AcDbCircle
 10
2440.614181
 20
616.421126
 30
0.0
 40
75.0
100
AcDbArc
 50
219.944505
 51
320.055495
  0
ARC
  5
2E24
100
AcDbEntity
  8
0
100
AcDbCircle
 10
2367.782138
 20
595.03263
 30
0.0
 40
6.063513
100
AcDbArc
 50
237.457624
 51
297.843817
  0
LINE
  5
2E26
100
AcDbEntity
  8
0
100
AcDbLine
 10
2371.614181
 20
588.671126
 30
0.0
 11
2370.614181
 21
589.671126
 31
0.0
  0
LINE
  5
2E27
100
AcDbEntity
  8
0
100
AcDbLine
 10
2371.614181
 20
588.671126
 30
0.0
 11
2383.114181
 21
588.671126
 31
0.0
  0
LINE
  5
2E28
100
AcDbEntity
  8
0
100
AcDbLine
 10
2498.114181
 20
588.671126
 30
0.0
 11
2509.614181
 21
588.671126
 31
0.0
  0
LINE
  5
2E29
100
AcDbEntity
  8
0
100
AcDbLine
 10
2509.614181
 20
588.671126
 30
0.0
 11
2510.614181
 21
589.671126
 31
0.0
  0
ARC
  5
2E2A
100
AcDbEntity
  8
0
100
AcDbCircle
 10
2513.446223
 20
595.03263
 30
0.0
 40
6.063513
100
AcDbArc
 50
242.156183
 51
302.542376
  0
LINE
  5
2E2C
100
AcDbEntity
  8
0
100
AcDbLine
 10
2718.324094
 20
452.232724
 30
0.0
 11
2718.324094
 21
483.380909
 31
0.0
  0
LINE
  5
2E2D
100
AcDbEntity
  8
0
100
AcDbLine
 10
2712.024094
 20
452.232724
 30
0.0
 11
2712.024094
 21
483.380909
 31
0.0
  0
LINE
  5
2E2E
100
AcDbEntity
  8
0
100
AcDbLine
 10
2642.174094
 20
352.282724
 30
0.0
 11
2650.909504
 21
352.282724
 31
0.0
  0
LINE
  5
2E2F
100
AcDbEntity
  8
0
100
AcDbLine
 10
2650.082332
 20
350.282724
 30
0.0
 11
2640.174094
 21
350.282724
 31
0.0
  0
LINE
  5
2E33
100
AcDbEntity
  8
0
100
AcDbLine
 10
2642.174094
 20
352.282724
 30
0.0
 11
2640.174094
 21
350.282724
 31
0.0
  0
LINE
  5
2E34
100
AcDbEntity
  8
0
100
AcDbLine
 10
2658.474094
 20
365.582816
 30
0.0
 11
2658.474094
 21
424.032724
 31
0.0
  0
LINE
  5
2E36
100
AcDbEntity
  8
0
100
AcDbLine
 10
2658.474094
 20
375.232724
 30
0.0
 11
2666.909097
 21
375.232724
 31
0.0
  0
ARC
  5
2E37
100
AcDbEntity
  8
0
100
AcDbCircle
 10
2679.674094
 20
424.032724
 30
0.0
 40
21.2
100
AcDbArc
 50
90.0
 51
180.0
  0
LINE
  5
2E38
100
AcDbEntity
  8
0
100
AcDbLine
 10
2707.174094
 20
445.232724
 30
0.0
 11
2723.174094
 21
445.232724
 31
0.0
  0
LINE
  5
2E39
100
AcDbEntity
  8
0
100
AcDbLine
 10
2707.174094
 20
445.232724
 30
0.0
 11
2709.174094
 21
457.232724
 31
0.0
  0
LINE
  5
2E3A
100
AcDbEntity
  8
0
100
AcDbLine
 10
2709.174094
 20
457.232724
 30
0.0
 11
2712.024094
 21
457.232724
 31
0.0
  0
LINE
  5
2E3B
100
AcDbEntity
  8
0
100
AcDbLine
 10
2709.174094
 20
457.232724
 30
0.0
 11
2712.029298
 21
458.743536
 31
0.0
  0
ARC
  5
2E3C
100
AcDbEntity
  8
0
100
AcDbCircle
 10
2711.024094
 20
452.232724
 30
0.0
 40
1.0
100
AcDbArc
 50
270.0
 51
0.0
  0
LINE
  5
2E3D
100
AcDbEntity
  8
0
100
AcDbLine
 10
2723.174094
 20
445.232724
 30
0.0
 11
2721.174094
 21
457.232724
 31
0.0
  0
LINE
  5
2E3E
100
AcDbEntity
  8
0
100
AcDbLine
 10
2718.329298
 20
458.743536
 30
0.0
 11
2721.174094
 21
457.232724
 31
0.0
  0
LINE
  5
2E3F
100
AcDbEntity
  8
0
100
AcDbLine
 10
2718.324094
 20
457.232724
 30
0.0
 11
2721.174094
 21
457.232724
 31
0.0
  0
LINE
  5
2E40
100
AcDbEntity
  8
0
100
AcDbLine
 10
2718.324094
 20
458.743536
 30
0.0
 11
2718.329298
 21
458.743536
 31
0.0
  0
ARC
  5
2E41
100
AcDbEntity
  8
0
100
AcDbCircle
 10
2719.324094
 20
452.232724
 30
0.0
 40
1.0
100
AcDbArc
 50
180.0
 51
270.0
  0
ARC
  5
2E44
100
AcDbEntity
  8
0
100
AcDbCircle
 10
2717.324094
 20
483.380909
 30
0.0
 40
1.0
100
AcDbArc
 50
0.0
 51
81.921896
  0
ARC
  5
2E45
100
AcDbEntity
  8
0
100
AcDbCircle
 10
2715.174094
 20
468.232724
 30
0.0
 40
16.3
100
AcDbArc
 50
81.921896
 51
98.078104
  0
ARC
  5
2E46
100
AcDbEntity
  8
0
100
AcDbCircle
 10
2713.024094
 20
483.380909
 30
0.0
 40
1.0
100
AcDbArc
 50
98.078104
 51
180.0
  0
ARC
  5
2E4A
100
AcDbEntity
  8
0
100
AcDbCircle
 10
2440.614181
 20
616.421126
 30
0.0
 40
8.0
100
AcDbArc
 50
203.188038
 51
336.811962
  0
ARC
  5
2E4B
100
AcDbEntity
  8
0
100
AcDbCircle
 10
2440.614181
 20
616.421126
 30
0.0
 40
8.0
100
AcDbArc
 50
23.188038
 51
156.811962
  0
ARC
  5
2E4C
100
AcDbEntity
  8
0
100
AcDbCircle
 10
2440.614181
 20
616.421126
 30
0.0
 40
6.0
100
AcDbArc
 50
211.668243
 51
328.331757
  0
ARC
  5
2E4D
100
AcDbEntity
  8
0
100
AcDbCircle
 10
2440.614181
 20
616.421126
 30
0.0
 40
6.0
100
AcDbArc
 50
31.668243
 51
148.331757
  0
LINE
  5
2E4E
100
AcDbEntity
  8
0
100
AcDbLine
 10
2425.314181
 20
619.571126
 30
0.0
 11
2455.914181
 21
619.571126
 31
0.0
  0
LINE
  5
2E4F
100
AcDbEntity
  8
0
100
AcDbLine
 10
2425.314181
 20
613.271126
 30
0.0
 11
2455.914181
 21
613.271126
 31
0.0
  0
ARC
  5
2E50
100
AcDbEntity
  8
0
100
AcDbCircle
 10
2440.614181
 20
616.421126
 30
0.0
 40
73.0
100
AcDbArc
 50
38.031586
 51
141.968414
  0
ARC
  5
2E51
100
AcDbEntity
  8
0
100
AcDbCircle
 10
2440.614181
 20
616.421126
 30
0.0
 40
75.0
100
AcDbArc
 50
39.944505
 51
140.055495
  0
ARC
  5
2E52
100
AcDbEntity
  8
0
100
AcDbCircle
 10
2367.782138
 20
637.809622
 30
0.0
 40
6.063513
100
AcDbArc
 50
62.156183
 51
122.542376
  0
LINE
  5
2E53
100
AcDbEntity
  8
0
100
AcDbLine
 10
2371.614181
 20
644.171126
 30
0.0
 11
2370.614181
 21
643.171126
 31
0.0
  0
LINE
  5
2E54
100
AcDbEntity
  8
0
100
AcDbLine
 10
2371.614181
 20
644.171126
 30
0.0
 11
2383.114181
 21
644.171126
 31
0.0
  0
ARC
  5
2E55
100
AcDbEntity
  8
0
100
AcDbCircle
 10
2425.314181
 20
614.271126
 30
0.0
 40
1.0
100
AcDbArc
 50
180.0
 51
270.0
  0
LINE
  5
2E56
100
AcDbEntity
  8
0
100
AcDbLine
 10
2424.314181
 20
614.271126
 30
0.0
 11
2424.314181
 21
618.571126
 31
0.0
  0
ARC
  5
2E57
100
AcDbEntity
  8
0
100
AcDbCircle
 10
2425.314181
 20
618.571126
 30
0.0
 40
1.0
100
AcDbArc
 50
90.0
 51
180.0
  0
ARC
  5
2E58
100
AcDbEntity
  8
0
100
AcDbCircle
 10
2455.914181
 20
618.571126
 30
0.0
 40
1.0
100
AcDbArc
 50
0.0
 51
90.0
  0
LINE
  5
2E59
100
AcDbEntity
  8
0
100
AcDbLine
 10
2456.914181
 20
614.271126
 30
0.0
 11
2456.914181
 21
618.571126
 31
0.0
  0
ARC
  5
2E5A
100
AcDbEntity
  8
0
100
AcDbCircle
 10
2455.914181
 20
614.271126
 30
0.0
 40
1.0
100
AcDbArc
 50
270.0
 51
0.0
  0
LINE
  5
2E5B
100
AcDbEntity
  8
0
100
AcDbLine
 10
2498.114181
 20
644.171126
 30
0.0
 11
2509.614181
 21
644.171126
 31
0.0
  0
LINE
  5
2E5C
100
AcDbEntity
  8
0
100
AcDbLine
 10
2509.614181
 20
644.171126
 30
0.0
 11
2510.614181
 21
643.171126
 31
0.0
  0
ARC
  5
2E5D
100
AcDbEntity
  8
0
100
AcDbCircle
 10
2513.446223
 20
637.809622
 30
0.0
 40
6.063513
100
AcDbArc
 50
57.457624
 51
117.843817
  0
LINE
  5
2E5E
100
AcDbEntity
  8
0
100
AcDbLine
 10
2383.914181
 20
852.700571
 30
0.0
 11
2497.314181
 21
852.700571
 31
0.0
  0
LINE
  5
2E5F
100
AcDbEntity
  8
0
100
AcDbLine
 10
2383.014181
 20
773.250571
 30
0.0
 11
2498.214181
 21
773.250571
 31
0.0
  0
LINE
  5
2E60
100
AcDbEntity
  8
0
100
AcDbLine
 10
2371.614181
 20
820.000571
 30
0.0
 11
2371.614181
 21
784.000571
 31
0.0
  0
LINE
  5
2E61
100
AcDbEntity
  8
0
100
AcDbLine
 10
2370.614181
 20
828.750571
 30
0.0
 11
2370.614181
 21
775.250571
 31
0.0
  0
LINE
  5
2E62
100
AcDbEntity
  8
0
100
AcDbLine
 10
2371.614181
 20
829.750571
 30
0.0
 11
2371.614181
 21
774.250571
 31
0.0
  0
LINE
  5
2E63
100
AcDbEntity
  8
0
100
AcDbLine
 10
2364.520434
 20
828.500571
 30
0.0
 11
2364.520434
 21
775.500571
 31
0.0
  0
ARC
  5
2E64
100
AcDbEntity
  8
0
100
AcDbCircle
 10
2367.782138
 20
780.612075
 30
0.0
 40
6.063513
100
AcDbArc
 50
237.457624
 51
297.843817
  0
LINE
  5
2E66
100
AcDbEntity
  8
0
100
AcDbLine
 10
2371.614181
 20
774.250571
 30
0.0
 11
2383.014181
 21
774.250571
 31
0.0
  0
LINE
  5
2E67
100
AcDbEntity
  8
0
100
AcDbLine
 10
2371.614181
 20
774.250571
 30
0.0
 11
2370.614181
 21
775.250571
 31
0.0
  0
LINE
  5
2E68
100
AcDbEntity
  8
0
100
AcDbLine
 10
2383.014181
 20
774.250571
 30
0.0
 11
2383.014181
 21
773.250571
 31
0.0
  0
ARC
  5
2E69
100
AcDbEntity
  8
0
100
AcDbCircle
 10
2367.782138
 20
823.389067
 30
0.0
 40
6.063513
100
AcDbArc
 50
62.156183
 51
122.542376
  0
LINE
  5
2E6A
100
AcDbEntity
  8
0
100
AcDbLine
 10
2371.614181
 20
829.750571
 30
0.0
 11
2383.914181
 21
829.750571
 31
0.0
  0
LINE
  5
2E6B
100
AcDbEntity
  8
0
100
AcDbLine
 10
2371.614181
 20
829.750571
 30
0.0
 11
2370.614181
 21
828.750571
 31
0.0
  0
LINE
  5
2E6C
100
AcDbEntity
  8
0
100
AcDbLine
 10
2516.707928
 20
828.500571
 30
0.0
 11
2516.707928
 21
775.500571
 31
0.0
  0
LINE
  5
2E6D
100
AcDbEntity
  8
0
100
AcDbLine
 10
2510.614181
 20
828.750571
 30
0.0
 11
2510.614181
 21
775.250571
 31
0.0
  0
LINE
  5
2E6E
100
AcDbEntity
  8
0
100
AcDbLine
 10
2509.614181
 20
829.750571
 30
0.0
 11
2509.614181
 21
774.250571
 31
0.0
  0
LINE
  5
2E6F
100
AcDbEntity
  8
0
100
AcDbLine
 10
2498.214181
 20
774.250571
 30
0.0
 11
2509.614181
 21
774.250571
 31
0.0
  0
LINE
  5
2E70
100
AcDbEntity
  8
0
100
AcDbLine
 10
2498.214181
 20
774.250571
 30
0.0
 11
2498.214181
 21
773.250571
 31
0.0
  0
LINE
  5
2E71
100
AcDbEntity
  8
0
100
AcDbLine
 10
2509.614181
 20
774.250571
 30
0.0
 11
2510.614181
 21
775.250571
 31
0.0
  0
ARC
  5
2E72
100
AcDbEntity
  8
0
100
AcDbCircle
 10
2513.446223
 20
780.612075
 30
0.0
 40
6.063513
100
AcDbArc
 50
242.156183
 51
302.542376
  0
LINE
  5
2E74
100
AcDbEntity
  8
0
100
AcDbLine
 10
2497.314181
 20
829.750571
 30
0.0
 11
2509.614181
 21
829.750571
 31
0.0
  0
LINE
  5
2E75
100
AcDbEntity
  8
0
100
AcDbLine
 10
2509.614181
 20
829.750571
 30
0.0
 11
2510.614181
 21
828.750571
 31
0.0
  0
ARC
  5
2E76
100
AcDbEntity
  8
0
100
AcDbCircle
 10
2513.446223
 20
823.389067
 30
0.0
 40
6.063513
100
AcDbArc
 50
57.457624
 51
117.843817
  0
LINE
  5
2E7D
100
AcDbEntity
  8
0
100
AcDbLine
 10
2695.182306
 20
811.571413
 30
0.0
 11
2657.368806
 21
811.571413
 31
0.0
  0
LINE
  5
2E7E
100
AcDbEntity
  8
0
100
AcDbLine
 10
2619.553056
 20
798.966913
 30
0.0
 11
2682.577806
 21
798.966913
 31
0.0
  0
LINE
  5
2E81
100
AcDbEntity
  8
0
100
AcDbLine
 10
2657.368806
 20
811.571413
 30
0.0
 11
2651.064306
 21
805.269163
 31
0.0
  0
LINE
  5
2E82
100
AcDbEntity
  8
0
100
AcDbLine
 10
2632.432056
 20
805.269163
 30
0.0
 11
2632.432056
 21
811.571413
 31
0.0
  0
LINE
  5
2E83
100
AcDbEntity
  8
0
100
AcDbLine
 10
2651.064306
 20
805.269163
 30
0.0
 11
2632.432056
 21
805.269163
 31
0.0
  0
LINE
  5
2E84
100
AcDbEntity
  8
0
100
AcDbLine
 10
2632.432056
 20
811.571413
 30
0.0
 11
2619.553056
 21
798.966913
 31
0.0
  0
LINE
  5
2E87
100
AcDbEntity
  8
0
100
AcDbLine
 10
2682.577806
 20
798.966913
 30
0.0
 11
2695.182306
 21
811.571413
 31
0.0
  0
LINE
  5
2E88
100
AcDbEntity
  8
0
100
AcDbLine
 10
2771.874094
 20
365.582816
 30
0.0
 11
2771.874094
 21
424.032724
 31
0.0
  0
LINE
  5
2E89
100
AcDbEntity
  8
0
100
AcDbLine
 10
2788.174094
 20
352.282724
 30
0.0
 11
2790.174094
 21
350.282724
 31
0.0
  0
LINE
  5
2E8A
100
AcDbEntity
  8
0
100
AcDbLine
 10
2779.438684
 20
352.282724
 30
0.0
 11
2788.174094
 21
352.282724
 31
0.0
  0
LINE
  5
2E8B
100
AcDbEntity
  8
0
100
AcDbLine
 10
2780.265856
 20
350.282724
 30
0.0
 11
2790.174094
 21
350.282724
 31
0.0
  0
LINE
  5
2E8C
100
AcDbEntity
  8
0
100
AcDbLine
 10
2763.439092
 20
375.232724
 30
0.0
 11
2771.874094
 21
375.232724
 31
0.0
  0
ARC
  5
2E8D
100
AcDbEntity
  8
0
100
AcDbCircle
 10
2750.674094
 20
424.032724
 30
0.0
 40
21.2
100
AcDbArc
 50
0.0
 51
90.0
  0
LINE
  5
2E8E
100
AcDbEntity
  8
0
100
AcDbLine
 10
1482.639842
 20
922.700571
 30
0.0
 11
1553.639842
 21
922.700571
 31
0.0
  0
ARC
  5
2E8F
100
AcDbEntity
  8
0
100
AcDbCircle
 10
1518.139842
 20
945.700571
 30
0.0
 40
10.0
100
AcDbArc
 50
288.392229
 51
251.646371
  0
ARC
  5
2E90
100
AcDbEntity
  8
0
100
AcDbCircle
 10
1518.139842
 20
945.700571
 30
0.0
 40
16.3
100
AcDbArc
 50
309.353409
 51
230.646591
  0
ARC
  5
2E91
100
AcDbEntity
  8
0
100
AcDbCircle
 10
1482.639842
 20
901.500571
 30
0.0
 40
21.2
100
AcDbArc
 50
90.0
 51
180.0
  0
ARC
  5
2E92
100
AcDbEntity
  8
0
100
AcDbCircle
 10
1533.54852
 20
926.910609
 30
0.0
 40
8.0
100
AcDbArc
 50
129.353409
 51
189.462322
  0
LINE
  5
2E93
100
AcDbEntity
  8
0
100
AcDbLine
 10
1512.139842
 20
934.700571
 30
0.0
 11
1524.139842
 21
934.700571
 31
0.0
  0
LINE
  5
2E94
100
AcDbEntity
  8
0
100
AcDbLine
 10
1510.139842
 20
922.700571
 30
0.0
 11
1526.139842
 21
922.700571
 31
0.0
  0
LINE
  5
2E95
100
AcDbEntity
  8
0
100
AcDbLine
 10
1514.995046
 20
936.211383
 30
0.0
 11
1521.295046
 21
936.211383
 31
0.0
  0
LINE
  5
2E96
100
AcDbEntity
  8
0
100
AcDbLine
 10
1510.139842
 20
922.700571
 30
0.0
 11
1512.139842
 21
934.700571
 31
0.0
  0
LINE
  5
2E97
100
AcDbEntity
  8
0
100
AcDbLine
 10
1512.139842
 20
934.700571
 30
0.0
 11
1514.995046
 21
936.211383
 31
0.0
  0
ARC
  5
2E98
100
AcDbEntity
  8
0
100
AcDbCircle
 10
1502.731165
 20
926.910609
 30
0.0
 40
8.0
100
AcDbArc
 50
350.537678
 51
50.646591
  0
LINE
  5
2E99
100
AcDbEntity
  8
0
100
AcDbLine
 10
1526.139842
 20
922.700571
 30
0.0
 11
1524.139842
 21
934.700571
 31
0.0
  0
LINE
  5
2E9A
100
AcDbEntity
  8
0
100
AcDbLine
 10
1521.295046
 20
936.211383
 30
0.0
 11
1524.139842
 21
934.700571
 31
0.0
  0
ARC
  5
2E9B
100
AcDbEntity
  8
0
100
AcDbCircle
 10
1553.639842
 20
901.500571
 30
0.0
 40
21.2
100
AcDbArc
 50
0.0
 51
90.0
  0
LINE
  5
2E9C
100
AcDbEntity
  8
0
100
AcDbLine
 10
2432.614181
 20
922.700571
 30
0.0
 11
2448.614181
 21
922.700571
 31
0.0
  0
LINE
  5
2E9D
100
AcDbEntity
  8
0
100
AcDbLine
 10
2437.469384
 20
936.211383
 30
0.0
 11
2443.769384
 21
936.211383
 31
0.0
  0
LINE
  5
2E9E
100
AcDbEntity
  8
0
100
AcDbLine
 10
2434.614181
 20
934.700571
 30
0.0
 11
2446.614181
 21
934.700571
 31
0.0
  0
LINE
  5
2E9F
100
AcDbEntity
  8
0
100
AcDbLine
 10
2405.114181
 20
922.700571
 30
0.0
 11
2476.114181
 21
922.700571
 31
0.0
  0
ARC
  5
2EA0
100
AcDbEntity
  8
0
100
AcDbCircle
 10
2440.614181
 20
945.700571
 30
0.0
 40
16.3
100
AcDbArc
 50
309.353409
 51
230.646591
  0
ARC
  5
2EA1
100
AcDbEntity
  8
0
100
AcDbCircle
 10
2440.614181
 20
945.700571
 30
0.0
 40
10.0
100
AcDbArc
 50
288.392229
 51
251.646371
  0
ARC
  5
2EA2
100
AcDbEntity
  8
0
100
AcDbCircle
 10
2405.114181
 20
901.500571
 30
0.0
 40
21.2
100
AcDbArc
 50
90.0
 51
180.0
  0
LINE
  5
2EA3
100
AcDbEntity
  8
0
100
AcDbLine
 10
2432.614181
 20
922.700571
 30
0.0
 11
2434.614181
 21
934.700571
 31
0.0
  0
ARC
  5
2EA4
100
AcDbEntity
  8
0
100
AcDbCircle
 10
2425.205504
 20
926.910609
 30
0.0
 40
8.0
100
AcDbArc
 50
350.537678
 51
50.646591
  0
LINE
  5
2EA5
100
AcDbEntity
  8
0
100
AcDbLine
 10
2434.614181
 20
934.700571
 30
0.0
 11
2437.469384
 21
936.211383
 31
0.0
  0
ARC
  5
2EA6
100
AcDbEntity
  8
0
100
AcDbCircle
 10
2476.114181
 20
901.500571
 30
0.0
 40
21.2
100
AcDbArc
 50
0.0
 51
90.0
  0
LINE
  5
2EA7
100
AcDbEntity
  8
0
100
AcDbLine
 10
2443.769384
 20
936.211383
 30
0.0
 11
2446.614181
 21
934.700571
 31
0.0
  0
LINE
  5
2EA8
100
AcDbEntity
  8
0
100
AcDbLine
 10
2448.614181
 20
922.700571
 30
0.0
 11
2446.614181
 21
934.700571
 31
0.0
  0
ARC
  5
2EA9
100
AcDbEntity
  8
0
100
AcDbCircle
 10
2456.022858
 20
926.910609
 30
0.0
 40
8.0
100
AcDbArc
 50
129.353409
 51
189.462322
  0
LINE
  5
2ED1
100
AcDbEntity
  8
0
100
AcDbLine
 10
482.096219
 20
384.532724
 30
0.0
 11
482.096219
 21
264.532724
 31
0.0
  0
LINE
  5
2ED2
100
AcDbEntity
  8
0
100
AcDbLine
 10
505.096219
 20
384.532724
 30
0.0
 11
505.096219
 21
264.532724
 31
0.0
  0
LINE
  5
2ED3
100
AcDbEntity
  8
0
100
AcDbLine
 10
482.096219
 20
264.532724
 30
0.0
 11
505.096219
 21
264.532724
 31
0.0
  0
LINE
  5
2ED4
100
AcDbEntity
  8
0
100
AcDbLine
 10
482.096219
 20
384.532724
 30
0.0
 11
505.096219
 21
384.532724
 31
0.0
  0
LINE
  5
2ED5
100
AcDbEntity
  8
0
100
AcDbLine
 10
542.096219
 20
298.032724
 30
0.0
 11
566.002472
 21
298.032724
 31
0.0
  0
LINE
  5
2ED6
100
AcDbEntity
  8
0
100
AcDbLine
 10
542.096219
 20
351.032724
 30
0.0
 11
566.002472
 21
351.032724
 31
0.0
  0
LINE
  5
2ED7
100
AcDbEntity
  8
0
100
AcDbLine
 10
510.096219
 20
302.532724
 30
0.0
 11
537.596219
 21
302.532724
 31
0.0
  0
ARC
  5
2ED8
100
AcDbEntity
  8
0
100
AcDbCircle
 10
510.096219
 20
297.532724
 30
0.0
 40
5.0
100
AcDbArc
 50
90.0
 51
180.0
  0
LINE
  5
2ED9
100
AcDbEntity
  8
0
100
AcDbLine
 10
542.096219
 20
298.032724
 30
0.0
 11
537.596219
 21
302.532724
 31
0.0
  0
LINE
  5
2EDA
100
AcDbEntity
  8
0
100
AcDbLine
 10
510.096219
 20
346.532724
 30
0.0
 11
537.596219
 21
346.532724
 31
0.0
  0
ARC
  5
2EDB
100
AcDbEntity
  8
0
100
AcDbCircle
 10
510.096219
 20
351.532724
 30
0.0
 40
5.0
100
AcDbArc
 50
180.0
 51
270.0
  0
LINE
  5
2EDC
100
AcDbEntity
  8
0
100
AcDbLine
 10
542.096219
 20
351.032724
 30
0.0
 11
537.596219
 21
346.532724
 31
0.0
  0
LINE
  5
2EE6
100
AcDbEntity
  8
0
100
AcDbLine
 10
542.096219
 20
351.032724
 30
0.0
 11
542.096219
 21
298.032724
 31
0.0
  0
LINE
  5
2EE7
100
AcDbEntity
  8
0
100
AcDbLine
 10
537.596219
 20
346.532724
 30
0.0
 11
537.596219
 21
302.532724
 31
0.0
  0
LINE
  5
2EE8
100
AcDbEntity
  8
0
100
AcDbLine
 10
742.096219
 20
351.032724
 30
0.0
 11
718.189966
 21
351.032724
 31
0.0
  0
LINE
  5
2EE9
100
AcDbEntity
  8
0
100
AcDbLine
 10
742.096219
 20
298.032724
 30
0.0
 11
718.189966
 21
298.032724
 31
0.0
  0
LINE
  5
2EEA
100
AcDbEntity
  8
0
100
AcDbLine
 10
746.596219
 20
346.532724
 30
0.0
 11
746.596219
 21
302.532724
 31
0.0
  0
LINE
  5
2EEB
100
AcDbEntity
  8
0
100
AcDbLine
 10
742.096219
 20
351.032724
 30
0.0
 11
742.096219
 21
298.032724
 31
0.0
  0
LINE
  5
2EEC
100
AcDbEntity
  8
0
100
AcDbLine
 10
779.096219
 20
384.532724
 30
0.0
 11
779.096219
 21
264.532724
 31
0.0
  0
LINE
  5
2EED
100
AcDbEntity
  8
0
100
AcDbLine
 10
802.096219
 20
384.532724
 30
0.0
 11
802.096219
 21
264.532724
 31
0.0
  0
LINE
  5
2EEE
100
AcDbEntity
  8
0
100
AcDbLine
 10
802.096219
 20
264.532724
 30
0.0
 11
779.096219
 21
264.532724
 31
0.0
  0
LINE
  5
2EEF
100
AcDbEntity
  8
0
100
AcDbLine
 10
774.096219
 20
302.532724
 30
0.0
 11
746.596219
 21
302.532724
 31
0.0
  0
ARC
  5
2EF0
100
AcDbEntity
  8
0
100
AcDbCircle
 10
774.096219
 20
297.532724
 30
0.0
 40
5.0
100
AcDbArc
 50
0.0
 51
90.0
  0
LINE
  5
2EF1
100
AcDbEntity
  8
0
100
AcDbLine
 10
742.096219
 20
298.032724
 30
0.0
 11
746.596219
 21
302.532724
 31
0.0
  0
LINE
  5
2EF2
100
AcDbEntity
  8
0
100
AcDbLine
 10
802.096219
 20
384.532724
 30
0.0
 11
779.096219
 21
384.532724
 31
0.0
  0
LINE
  5
2EF3
100
AcDbEntity
  8
0
100
AcDbLine
 10
774.096219
 20
346.532724
 30
0.0
 11
746.596219
 21
346.532724
 31
0.0
  0
ARC
  5
2EF4
100
AcDbEntity
  8
0
100
AcDbCircle
 10
774.096219
 20
351.532724
 30
0.0
 40
5.0
100
AcDbArc
 50
270.0
 51
0.0
  0
LINE
  5
2EF5
100
AcDbEntity
  8
0
100
AcDbLine
 10
742.096219
 20
351.032724
 30
0.0
 11
746.596219
 21
346.532724
 31
0.0
  0
LINE
  5
2EF6
100
AcDbEntity
  8
0
100
AcDbLine
 10
537.596219
 20
638.421126
 30
0.0
 11
537.596219
 21
594.421126
 31
0.0
  0
LINE
  5
2EF7
100
AcDbEntity
  8
0
100
AcDbLine
 10
542.096219
 20
642.921126
 30
0.0
 11
542.096219
 21
589.921126
 31
0.0
  0
LINE
  5
2EF8
100
AcDbEntity
  8
0
100
AcDbLine
 10
505.096219
 20
676.421126
 30
0.0
 11
505.096219
 21
556.421126
 31
0.0
  0
LINE
  5
2EF9
100
AcDbEntity
  8
0
100
AcDbLine
 10
482.096219
 20
676.421126
 30
0.0
 11
482.096219
 21
556.421126
 31
0.0
  0
LINE
  5
2EFA
100
AcDbEntity
  8
0
100
AcDbLine
 10
482.096219
 20
556.421126
 30
0.0
 11
505.096219
 21
556.421126
 31
0.0
  0
LINE
  5
2EFB
100
AcDbEntity
  8
0
100
AcDbLine
 10
510.096219
 20
594.421126
 30
0.0
 11
537.596219
 21
594.421126
 31
0.0
  0
ARC
  5
2EFC
100
AcDbEntity
  8
0
100
AcDbCircle
 10
510.096219
 20
589.421126
 30
0.0
 40
5.0
100
AcDbArc
 50
90.0
 51
180.0
  0
LINE
  5
2EFD
100
AcDbEntity
  8
0
100
AcDbLine
 10
542.096219
 20
589.921126
 30
0.0
 11
537.596219
 21
594.421126
 31
0.0
  0
LINE
  5
2EFE
100
AcDbEntity
  8
0
100
AcDbLine
 10
482.096219
 20
676.421126
 30
0.0
 11
505.096219
 21
676.421126
 31
0.0
  0
LINE
  5
2EFF
100
AcDbEntity
  8
0
100
AcDbLine
 10
510.096219
 20
638.421126
 30
0.0
 11
537.596219
 21
638.421126
 31
0.0
  0
ARC
  5
2F00
100
AcDbEntity
  8
0
100
AcDbCircle
 10
510.096219
 20
643.421126
 30
0.0
 40
5.0
100
AcDbArc
 50
180.0
 51
270.0
  0
LINE
  5
2F01
100
AcDbEntity
  8
0
100
AcDbLine
 10
542.096219
 20
642.921126
 30
0.0
 11
537.596219
 21
638.421126
 31
0.0
  0
LINE
  5
2F02
100
AcDbEntity
  8
0
100
AcDbLine
 10
542.096219
 20
642.921126
 30
0.0
 11
566.002472
 21
642.921126
 31
0.0
  0
LINE
  5
2F03
100
AcDbEntity
  8
0
100
AcDbLine
 10
542.096219
 20
589.921126
 30
0.0
 11
566.002472
 21
589.921126
 31
0.0
  0
LINE
  5
2F04
100
AcDbEntity
  8
0
100
AcDbLine
 10
802.096219
 20
676.421126
 30
0.0
 11
779.096219
 21
676.421126
 31
0.0
  0
LINE
  5
2F05
100
AcDbEntity
  8
0
100
AcDbLine
 10
779.096219
 20
676.421126
 30
0.0
 11
779.096219
 21
556.421126
 31
0.0
  0
LINE
  5
2F06
100
AcDbEntity
  8
0
100
AcDbLine
 10
742.096219
 20
642.921126
 30
0.0
 11
742.096219
 21
589.921126
 31
0.0
  0
LINE
  5
2F07
100
AcDbEntity
  8
0
100
AcDbLine
 10
746.596219
 20
638.421126
 30
0.0
 11
746.596219
 21
594.421126
 31
0.0
  0
LINE
  5
2F08
100
AcDbEntity
  8
0
100
AcDbLine
 10
742.096219
 20
642.921126
 30
0.0
 11
718.189966
 21
642.921126
 31
0.0
  0
LINE
  5
2F09
100
AcDbEntity
  8
0
100
AcDbLine
 10
774.096219
 20
638.421126
 30
0.0
 11
746.596219
 21
638.421126
 31
0.0
  0
LINE
  5
2F0A
100
AcDbEntity
  8
0
100
AcDbLine
 10
742.096219
 20
642.921126
 30
0.0
 11
746.596219
 21
638.421126
 31
0.0
  0
ARC
  5
2F0B
100
AcDbEntity
  8
0
100
AcDbCircle
 10
774.096219
 20
643.421126
 30
0.0
 40
5.0
100
AcDbArc
 50
270.0
 51
0.0
  0
LINE
  5
2F0C
100
AcDbEntity
  8
0
100
AcDbLine
 10
802.096219
 20
676.421126
 30
0.0
 11
802.096219
 21
556.421126
 31
0.0
  0
LINE
  5
2F0D
100
AcDbEntity
  8
0
100
AcDbLine
 10
802.096219
 20
556.421126
 30
0.0
 11
779.096219
 21
556.421126
 31
0.0
  0
LINE
  5
2F0E
100
AcDbEntity
  8
0
100
AcDbLine
 10
742.096219
 20
589.921126
 30
0.0
 11
718.189966
 21
589.921126
 31
0.0
  0
LINE
  5
2F0F
100
AcDbEntity
  8
0
100
AcDbLine
 10
774.096219
 20
594.421126
 30
0.0
 11
746.596219
 21
594.421126
 31
0.0
  0
LINE
  5
2F10
100
AcDbEntity
  8
0
100
AcDbLine
 10
742.096219
 20
589.921126
 30
0.0
 11
746.596219
 21
594.421126
 31
0.0
  0
ARC
  5
2F11
100
AcDbEntity
  8
0
100
AcDbCircle
 10
774.096219
 20
589.421126
 30
0.0
 40
5.0
100
AcDbArc
 50
0.0
 51
90.0
  0
LINE
  5
2F12
100
AcDbEntity
  8
0
100
AcDbLine
 10
537.596219
 20
824.000571
 30
0.0
 11
537.596219
 21
780.000571
 31
0.0
  0
LINE
  5
2F13
100
AcDbEntity
  8
0
100
AcDbLine
 10
542.096219
 20
828.500571
 30
0.0
 11
542.096219
 21
775.500571
 31
0.0
  0
LINE
  5
2F14
100
AcDbEntity
  8
0
100
AcDbLine
 10
505.096219
 20
862.000571
 30
0.0
 11
505.096219
 21
742.000571
 31
0.0
  0
LINE
  5
2F15
100
AcDbEntity
  8
0
100
AcDbLine
 10
482.096219
 20
862.000571
 30
0.0
 11
482.096219
 21
742.000571
 31
0.0
  0
LINE
  5
2F16
100
AcDbEntity
  8
0
100
AcDbLine
 10
482.096219
 20
742.000571
 30
0.0
 11
505.096219
 21
742.000571
 31
0.0
  0
LINE
  5
2F17
100
AcDbEntity
  8
0
100
AcDbLine
 10
510.096219
 20
780.000571
 30
0.0
 11
537.596219
 21
780.000571
 31
0.0
  0
ARC
  5
2F18
100
AcDbEntity
  8
0
100
AcDbCircle
 10
510.096219
 20
775.000571
 30
0.0
 40
5.0
100
AcDbArc
 50
90.0
 51
180.0
  0
LINE
  5
2F19
100
AcDbEntity
  8
0
100
AcDbLine
 10
542.096219
 20
775.500571
 30
0.0
 11
537.596219
 21
780.000571
 31
0.0
  0
LINE
  5
2F1A
100
AcDbEntity
  8
0
100
AcDbLine
 10
482.096219
 20
862.000571
 30
0.0
 11
505.096219
 21
862.000571
 31
0.0
  0
LINE
  5
2F1B
100
AcDbEntity
  8
0
100
AcDbLine
 10
510.096219
 20
824.000571
 30
0.0
 11
537.596219
 21
824.000571
 31
0.0
  0
ARC
  5
2F1C
100
AcDbEntity
  8
0
100
AcDbCircle
 10
510.096219
 20
829.000571
 30
0.0
 40
5.0
100
AcDbArc
 50
180.0
 51
270.0
  0
LINE
  5
2F1D
100
AcDbEntity
  8
0
100
AcDbLine
 10
542.096219
 20
828.500571
 30
0.0
 11
537.596219
 21
824.000571
 31
0.0
  0
LINE
  5
2F1E
100
AcDbEntity
  8
0
100
AcDbLine
 10
542.096219
 20
828.500571
 30
0.0
 11
566.002472
 21
828.500571
 31
0.0
  0
LINE
  5
2F1F
100
AcDbEntity
  8
0
100
AcDbLine
 10
542.096219
 20
775.500571
 30
0.0
 11
566.002472
 21
775.500571
 31
0.0
  0
LINE
  5
2F20
100
AcDbEntity
  8
0
100
AcDbLine
 10
802.096219
 20
862.000571
 30
0.0
 11
779.096219
 21
862.000571
 31
0.0
  0
LINE
  5
2F21
100
AcDbEntity
  8
0
100
AcDbLine
 10
779.096219
 20
862.000571
 30
0.0
 11
779.096219
 21
742.000571
 31
0.0
  0
LINE
  5
2F22
100
AcDbEntity
  8
0
100
AcDbLine
 10
742.096219
 20
828.500571
 30
0.0
 11
742.096219
 21
775.500571
 31
0.0
  0
LINE
  5
2F23
100
AcDbEntity
  8
0
100
AcDbLine
 10
746.596219
 20
824.000571
 30
0.0
 11
746.596219
 21
780.000571
 31
0.0
  0
LINE
  5
2F24
100
AcDbEntity
  8
0
100
AcDbLine
 10
742.096219
 20
828.500571
 30
0.0
 11
718.189966
 21
828.500571
 31
0.0
  0
LINE
  5
2F25
100
AcDbEntity
  8
0
100
AcDbLine
 10
774.096219
 20
824.000571
 30
0.0
 11
746.596219
 21
824.000571
 31
0.0
  0
LINE
  5
2F26
100
AcDbEntity
  8
0
100
AcDbLine
 10
742.096219
 20
828.500571
 30
0.0
 11
746.596219
 21
824.000571
 31
0.0
  0
ARC
  5
2F27
100
AcDbEntity
  8
0
100
AcDbCircle
 10
774.096219
 20
829.000571
 30
0.0
 40
5.0
100
AcDbArc
 50
270.0
 51
0.0
  0
LINE
  5
2F28
100
AcDbEntity
  8
0
100
AcDbLine
 10
802.096219
 20
862.000571
 30
0.0
 11
802.096219
 21
742.000571
 31
0.0
  0
LINE
  5
2F29
100
AcDbEntity
  8
0
100
AcDbLine
 10
802.096219
 20
742.000571
 30
0.0
 11
779.096219
 21
742.000571
 31
0.0
  0
LINE
  5
2F2A
100
AcDbEntity
  8
0
100
AcDbLine
 10
742.096219
 20
775.500571
 30
0.0
 11
718.189966
 21
775.500571
 31
0.0
  0
LINE
  5
2F2B
100
AcDbEntity
  8
0
100
AcDbLine
 10
774.096219
 20
780.000571
 30
0.0
 11
746.596219
 21
780.000571
 31
0.0
  0
LINE
  5
2F2C
100
AcDbEntity
  8
0
100
AcDbLine
 10
742.096219
 20
775.500571
 30
0.0
 11
746.596219
 21
780.000571
 31
0.0
  0
ARC
  5
2F2D
100
AcDbEntity
  8
0
100
AcDbCircle
 10
774.096219
 20
775.000571
 30
0.0
 40
5.0
100
AcDbArc
 50
0.0
 51
90.0
  0
LINE
  5
2F78
100
AcDbEntity
  8
0
100
AcDbLine
 10
1388.139842
 20
346.532724
 30
0.0
 11
1413.639842
 21
346.532724
 31
0.0
  0
LINE
  5
2F79
100
AcDbEntity
  8
0
100
AcDbLine
 10
1388.139842
 20
302.532724
 30
0.0
 11
1413.639842
 21
302.532724
 31
0.0
  0
LINE
  5
2F7A
100
AcDbEntity
  8
0
100
AcDbLine
 10
1383.139842
 20
392.032724
 30
0.0
 11
1383.139842
 21
257.032724
 31
0.0
  0
LINE
  5
2F7B
100
AcDbEntity
  8
0
100
AcDbLine
 10
1358.139842
 20
392.032724
 30
0.0
 11
1358.139842
 21
257.032724
 31
0.0
  0
LINE
  5
2F7C
100
AcDbEntity
  8
0
100
AcDbLine
 10
1358.139842
 20
257.032724
 30
0.0
 11
1383.139842
 21
257.032724
 31
0.0
  0
ARC
  5
2F7D
100
AcDbEntity
  8
0
100
AcDbCircle
 10
1388.139842
 20
297.532724
 30
0.0
 40
5.0
100
AcDbArc
 50
90.0
 51
180.0
  0
ARC
  5
2F7E
100
AcDbEntity
  8
0
100
AcDbCircle
 10
1388.139842
 20
351.532724
 30
0.0
 40
5.0
100
AcDbArc
 50
180.0
 51
270.0
  0
LINE
  5
2F7F
100
AcDbEntity
  8
0
100
AcDbLine
 10
1358.139842
 20
392.032724
 30
0.0
 11
1383.139842
 21
392.032724
 31
0.0
  0
LINE
  5
2F82
100
AcDbEntity
  8
0
100
AcDbLine
 10
1442.046096
 20
351.032724
 30
0.0
 11
1442.046096
 21
298.032724
 31
0.0
  0
LINE
  5
2F83
100
AcDbEntity
  8
0
100
AcDbLine
 10
1413.639842
 20
346.532724
 30
0.0
 11
1413.639842
 21
302.532724
 31
0.0
  0
LINE
  5
2F84
100
AcDbEntity
  8
0
100
AcDbLine
 10
1418.139842
 20
351.032724
 30
0.0
 11
1418.139842
 21
298.032724
 31
0.0
  0
LINE
  5
2F87
100
AcDbEntity
  8
0
100
AcDbLine
 10
1418.139842
 20
298.032724
 30
0.0
 11
1442.046096
 21
298.032724
 31
0.0
  0
LINE
  5
2F88
100
AcDbEntity
  8
0
100
AcDbLine
 10
1418.139842
 20
298.032724
 30
0.0
 11
1413.639842
 21
302.532724
 31
0.0
  0
LINE
  5
2F8B
100
AcDbEntity
  8
0
100
AcDbLine
 10
1418.139842
 20
351.032724
 30
0.0
 11
1442.046096
 21
351.032724
 31
0.0
  0
LINE
  5
2F8C
100
AcDbEntity
  8
0
100
AcDbLine
 10
1418.139842
 20
351.032724
 30
0.0
 11
1413.639842
 21
346.532724
 31
0.0
  0
LINE
  5
2F98
100
AcDbEntity
  8
0
100
AcDbLine
 10
1618.139842
 20
351.032724
 30
0.0
 11
1618.139842
 21
298.032724
 31
0.0
  0
LINE
  5
2F99
100
AcDbEntity
  8
0
100
AcDbLine
 10
1622.639842
 20
346.532724
 30
0.0
 11
1622.639842
 21
302.532724
 31
0.0
  0
LINE
  5
2F9A
100
AcDbEntity
  8
0
100
AcDbLine
 10
1653.139842
 20
392.032724
 30
0.0
 11
1653.139842
 21
257.032724
 31
0.0
  0
LINE
  5
2F9B
100
AcDbEntity
  8
0
100
AcDbLine
 10
1618.139842
 20
298.032724
 30
0.0
 11
1594.233589
 21
298.032724
 31
0.0
  0
LINE
  5
2F9C
100
AcDbEntity
  8
0
100
AcDbLine
 10
1648.139842
 20
302.532724
 30
0.0
 11
1622.639842
 21
302.532724
 31
0.0
  0
ARC
  5
2F9D
100
AcDbEntity
  8
0
100
AcDbCircle
 10
1648.139842
 20
297.532724
 30
0.0
 40
5.0
100
AcDbArc
 50
0.0
 51
90.0
  0
LINE
  5
2F9E
100
AcDbEntity
  8
0
100
AcDbLine
 10
1618.139842
 20
298.032724
 30
0.0
 11
1622.639842
 21
302.532724
 31
0.0
  0
LINE
  5
2F9F
100
AcDbEntity
  8
0
100
AcDbLine
 10
1618.139842
 20
351.032724
 30
0.0
 11
1594.233589
 21
351.032724
 31
0.0
  0
LINE
  5
2FA0
100
AcDbEntity
  8
0
100
AcDbLine
 10
1648.139842
 20
346.532724
 30
0.0
 11
1622.639842
 21
346.532724
 31
0.0
  0
ARC
  5
2FA1
100
AcDbEntity
  8
0
100
AcDbCircle
 10
1648.139842
 20
351.532724
 30
0.0
 40
5.0
100
AcDbArc
 50
270.0
 51
0.0
  0
LINE
  5
2FA2
100
AcDbEntity
  8
0
100
AcDbLine
 10
1618.139842
 20
351.032724
 30
0.0
 11
1622.639842
 21
346.532724
 31
0.0
  0
LINE
  5
2FA3
100
AcDbEntity
  8
0
100
AcDbLine
 10
1678.139842
 20
392.032724
 30
0.0
 11
1653.139842
 21
392.032724
 31
0.0
  0
LINE
  5
2FA4
100
AcDbEntity
  8
0
100
AcDbLine
 10
1678.139842
 20
392.032724
 30
0.0
 11
1678.139842
 21
257.032724
 31
0.0
  0
LINE
  5
2FA5
100
AcDbEntity
  8
0
100
AcDbLine
 10
1678.139842
 20
257.032724
 30
0.0
 11
1653.139842
 21
257.032724
 31
0.0
  0
LINE
  5
2FA6
100
AcDbEntity
  8
0
100
AcDbLine
 10
1358.139842
 20
683.921126
 30
0.0
 11
1383.139842
 21
683.921126
 31
0.0
  0
LINE
  5
2FA7
100
AcDbEntity
  8
0
100
AcDbLine
 10
1358.139842
 20
548.921126
 30
0.0
 11
1383.139842
 21
548.921126
 31
0.0
  0
LINE
  5
2FA8
100
AcDbEntity
  8
0
100
AcDbLine
 10
1358.139842
 20
683.921126
 30
0.0
 11
1358.139842
 21
548.921126
 31
0.0
  0
LINE
  5
2FA9
100
AcDbEntity
  8
0
100
AcDbLine
 10
1418.139842
 20
642.921126
 30
0.0
 11
1418.139842
 21
589.921126
 31
0.0
  0
LINE
  5
2FAA
100
AcDbEntity
  8
0
100
AcDbLine
 10
1413.639842
 20
638.421126
 30
0.0
 11
1413.639842
 21
594.421126
 31
0.0
  0
LINE
  5
2FAB
100
AcDbEntity
  8
0
100
AcDbLine
 10
1383.139842
 20
683.921126
 30
0.0
 11
1383.139842
 21
548.921126
 31
0.0
  0
LINE
  5
2FAC
100
AcDbEntity
  8
0
100
AcDbLine
 10
1388.139842
 20
594.421126
 30
0.0
 11
1413.639842
 21
594.421126
 31
0.0
  0
ARC
  5
2FAD
100
AcDbEntity
  8
0
100
AcDbCircle
 10
1388.139842
 20
589.421126
 30
0.0
 40
5.0
100
AcDbArc
 50
90.0
 51
180.0
  0
LINE
  5
2FAE
100
AcDbEntity
  8
0
100
AcDbLine
 10
1418.139842
 20
589.921126
 30
0.0
 11
1413.639842
 21
594.421126
 31
0.0
  0
LINE
  5
2FAF
100
AcDbEntity
  8
0
100
AcDbLine
 10
1388.139842
 20
638.421126
 30
0.0
 11
1413.639842
 21
638.421126
 31
0.0
  0
ARC
  5
2FB0
100
AcDbEntity
  8
0
100
AcDbCircle
 10
1388.139842
 20
643.421126
 30
0.0
 40
5.0
100
AcDbArc
 50
180.0
 51
270.0
  0
LINE
  5
2FB1
100
AcDbEntity
  8
0
100
AcDbLine
 10
1418.139842
 20
642.921126
 30
0.0
 11
1413.639842
 21
638.421126
 31
0.0
  0
LINE
  5
2FB2
100
AcDbEntity
  8
0
100
AcDbLine
 10
1418.139842
 20
589.921126
 30
0.0
 11
1442.046096
 21
589.921126
 31
0.0
  0
LINE
  5
2FB3
100
AcDbEntity
  8
0
100
AcDbLine
 10
1418.139842
 20
642.921126
 30
0.0
 11
1442.046096
 21
642.921126
 31
0.0
  0
LINE
  5
2FB4
100
AcDbEntity
  8
0
100
AcDbLine
 10
1618.139842
 20
642.921126
 30
0.0
 11
1594.233589
 21
642.921126
 31
0.0
  0
LINE
  5
2FB5
100
AcDbEntity
  8
0
100
AcDbLine
 10
1618.139842
 20
589.921126
 30
0.0
 11
1594.233589
 21
589.921126
 31
0.0
  0
LINE
  5
2FB6
100
AcDbEntity
  8
0
100
AcDbLine
 10
1678.139842
 20
683.921126
 30
0.0
 11
1678.139842
 21
548.921126
 31
0.0
  0
LINE
  5
2FB7
100
AcDbEntity
  8
0
100
AcDbLine
 10
1653.139842
 20
683.921126
 30
0.0
 11
1653.139842
 21
548.921126
 31
0.0
  0
LINE
  5
2FB8
100
AcDbEntity
  8
0
100
AcDbLine
 10
1622.639842
 20
638.421126
 30
0.0
 11
1622.639842
 21
594.421126
 31
0.0
  0
LINE
  5
2FB9
100
AcDbEntity
  8
0
100
AcDbLine
 10
1618.139842
 20
642.921126
 30
0.0
 11
1618.139842
 21
589.921126
 31
0.0
  0
LINE
  5
2FBA
100
AcDbEntity
  8
0
100
AcDbLine
 10
1678.139842
 20
548.921126
 30
0.0
 11
1653.139842
 21
548.921126
 31
0.0
  0
LINE
  5
2FBB
100
AcDbEntity
  8
0
100
AcDbLine
 10
1648.139842
 20
594.421126
 30
0.0
 11
1622.639842
 21
594.421126
 31
0.0
  0
LINE
  5
2FBC
100
AcDbEntity
  8
0
100
AcDbLine
 10
1618.139842
 20
589.921126
 30
0.0
 11
1622.639842
 21
594.421126
 31
0.0
  0
ARC
  5
2FBD
100
AcDbEntity
  8
0
100
AcDbCircle
 10
1648.139842
 20
589.421126
 30
0.0
 40
5.0
100
AcDbArc
 50
0.0
 51
90.0
  0
LINE
  5
2FBE
100
AcDbEntity
  8
0
100
AcDbLine
 10
1678.139842
 20
683.921126
 30
0.0
 11
1653.139842
 21
683.921126
 31
0.0
  0
LINE
  5
2FBF
100
AcDbEntity
  8
0
100
AcDbLine
 10
1648.139842
 20
638.421126
 30
0.0
 11
1622.639842
 21
638.421126
 31
0.0
  0
LINE
  5
2FC0
100
AcDbEntity
  8
0
100
AcDbLine
 10
1618.139842
 20
642.921126
 30
0.0
 11
1622.639842
 21
638.421126
 31
0.0
  0
ARC
  5
2FC1
100
AcDbEntity
  8
0
100
AcDbCircle
 10
1648.139842
 20
643.421126
 30
0.0
 40
5.0
100
AcDbArc
 50
270.0
 51
0.0
  0
LINE
  5
2FC2
100
AcDbEntity
  8
0
100
AcDbLine
 10
1358.139842
 20
869.500571
 30
0.0
 11
1383.139842
 21
869.500571
 31
0.0
  0
LINE
  5
2FC3
100
AcDbEntity
  8
0
100
AcDbLine
 10
1358.139842
 20
734.500571
 30
0.0
 11
1383.139842
 21
734.500571
 31
0.0
  0
LINE
  5
2FC4
100
AcDbEntity
  8
0
100
AcDbLine
 10
1358.139842
 20
869.500571
 30
0.0
 11
1358.139842
 21
734.500571
 31
0.0
  0
LINE
  5
2FC5
100
AcDbEntity
  8
0
100
AcDbLine
 10
1418.139842
 20
828.500571
 30
0.0
 11
1418.139842
 21
775.500571
 31
0.0
  0
LINE
  5
2FC6
100
AcDbEntity
  8
0
100
AcDbLine
 10
1413.639842
 20
824.000571
 30
0.0
 11
1413.639842
 21
780.000571
 31
0.0
  0
LINE
  5
2FC7
100
AcDbEntity
  8
0
100
AcDbLine
 10
1383.139842
 20
869.500571
 30
0.0
 11
1383.139842
 21
734.500571
 31
0.0
  0
LINE
  5
2FC8
100
AcDbEntity
  8
0
100
AcDbLine
 10
1388.139842
 20
780.000571
 30
0.0
 11
1413.639842
 21
780.000571
 31
0.0
  0
ARC
  5
2FC9
100
AcDbEntity
  8
0
100
AcDbCircle
 10
1388.139842
 20
775.000571
 30
0.0
 40
5.0
100
AcDbArc
 50
90.0
 51
180.0
  0
LINE
  5
2FCA
100
AcDbEntity
  8
0
100
AcDbLine
 10
1418.139842
 20
775.500571
 30
0.0
 11
1413.639842
 21
780.000571
 31
0.0
  0
LINE
  5
2FCB
100
AcDbEntity
  8
0
100
AcDbLine
 10
1388.139842
 20
824.000571
 30
0.0
 11
1413.639842
 21
824.000571
 31
0.0
  0
ARC
  5
2FCC
100
AcDbEntity
  8
0
100
AcDbCircle
 10
1388.139842
 20
829.000571
 30
0.0
 40
5.0
100
AcDbArc
 50
180.0
 51
270.0
  0
LINE
  5
2FCD
100
AcDbEntity
  8
0
100
AcDbLine
 10
1418.139842
 20
828.500571
 30
0.0
 11
1413.639842
 21
824.000571
 31
0.0
  0
LINE
  5
2FCE
100
AcDbEntity
  8
0
100
AcDbLine
 10
1418.139842
 20
775.500571
 30
0.0
 11
1442.046096
 21
775.500571
 31
0.0
  0
LINE
  5
2FCF
100
AcDbEntity
  8
0
100
AcDbLine
 10
1418.139842
 20
828.500571
 30
0.0
 11
1442.046096
 21
828.500571
 31
0.0
  0
LINE
  5
2FD0
100
AcDbEntity
  8
0
100
AcDbLine
 10
1618.139842
 20
828.500571
 30
0.0
 11
1594.233589
 21
828.500571
 31
0.0
  0
LINE
  5
2FD1
100
AcDbEntity
  8
0
100
AcDbLine
 10
1618.139842
 20
775.500571
 30
0.0
 11
1594.233589
 21
775.500571
 31
0.0
  0
LINE
  5
2FD2
100
AcDbEntity
  8
0
100
AcDbLine
 10
1678.139842
 20
869.500571
 30
0.0
 11
1678.139842
 21
734.500571
 31
0.0
  0
LINE
  5
2FD3
100
AcDbEntity
  8
0
100
AcDbLine
 10
1653.139842
 20
869.500571
 30
0.0
 11
1653.139842
 21
734.500571
 31
0.0
  0
LINE
  5
2FD4
100
AcDbEntity
  8
0
100
AcDbLine
 10
1622.639842
 20
824.000571
 30
0.0
 11
1622.639842
 21
780.000571
 31
0.0
  0
LINE
  5
2FD5
100
AcDbEntity
  8
0
100
AcDbLine
 10
1618.139842
 20
828.500571
 30
0.0
 11
1618.139842
 21
775.500571
 31
0.0
  0
LINE
  5
2FD6
100
AcDbEntity
  8
0
100
AcDbLine
 10
1678.139842
 20
734.500571
 30
0.0
 11
1653.139842
 21
734.500571
 31
0.0
  0
LINE
  5
2FD7
100
AcDbEntity
  8
0
100
AcDbLine
 10
1648.139842
 20
780.000571
 30
0.0
 11
1622.639842
 21
780.000571
 31
0.0
  0
LINE
  5
2FD8
100
AcDbEntity
  8
0
100
AcDbLine
 10
1618.139842
 20
775.500571
 30
0.0
 11
1622.639842
 21
780.000571
 31
0.0
  0
ARC
  5
2FD9
100
AcDbEntity
  8
0
100
AcDbCircle
 10
1648.139842
 20
775.000571
 30
0.0
 40
5.0
100
AcDbArc
 50
0.0
 51
90.0
  0
LINE
  5
2FDA
100
AcDbEntity
  8
0
100
AcDbLine
 10
1678.139842
 20
869.500571
 30
0.0
 11
1653.139842
 21
869.500571
 31
0.0
  0
LINE
  5
2FDB
100
AcDbEntity
  8
0
100
AcDbLine
 10
1648.139842
 20
824.000571
 30
0.0
 11
1622.639842
 21
824.000571
 31
0.0
  0
LINE
  5
2FDC
100
AcDbEntity
  8
0
100
AcDbLine
 10
1618.139842
 20
828.500571
 30
0.0
 11
1622.639842
 21
824.000571
 31
0.0
  0
ARC
  5
2FDD
100
AcDbEntity
  8
0
100
AcDbCircle
 10
1648.139842
 20
829.000571
 30
0.0
 40
5.0
100
AcDbArc
 50
270.0
 51
0.0
  0
LINE
  5
2FFE
100
AcDbEntity
  8
0
100
AcDbLine
 10
2312.614181
 20
351.032724
 30
0.0
 11
2364.520434
 21
351.032724
 31
0.0
  0
LINE
  5
2FFF
100
AcDbEntity
  8
0
100
AcDbLine
 10
2312.614181
 20
298.032724
 30
0.0
 11
2364.520434
 21
298.032724
 31
0.0
  0
LINE
  5
3000
100
AcDbEntity
  8
0
100
AcDbLine
 10
2280.614181
 20
394.532724
 30
0.0
 11
2280.614181
 21
254.532724
 31
0.0
  0
LINE
  5
3001
100
AcDbEntity
  8
0
100
AcDbLine
 10
2307.614181
 20
394.532724
 30
0.0
 11
2307.614181
 21
254.532724
 31
0.0
  0
LINE
  5
3002
100
AcDbEntity
  8
0
100
AcDbLine
 10
2280.614181
 20
254.532724
 30
0.0
 11
2307.614181
 21
254.532724
 31
0.0
  0
ARC
  5
3003
100
AcDbEntity
  8
0
100
AcDbCircle
 10
2312.614181
 20
293.032724
 30
0.0
 40
5.0
100
AcDbArc
 50
90.0
 51
180.0
  0
ARC
  5
3004
100
AcDbEntity
  8
0
100
AcDbCircle
 10
2312.614181
 20
356.032724
 30
0.0
 40
5.0
100
AcDbArc
 50
180.0
 51
270.0
  0
LINE
  5
3005
100
AcDbEntity
  8
0
100
AcDbLine
 10
2280.614181
 20
394.532724
 30
0.0
 11
2307.614181
 21
394.532724
 31
0.0
  0
LINE
  5
3009
100
AcDbEntity
  8
0
100
AcDbLine
 10
2364.520434
 20
351.032724
 30
0.0
 11
2364.520434
 21
298.032724
 31
0.0
  0
LINE
  5
3010
100
AcDbEntity
  8
0
100
AcDbLine
 10
2573.614181
 20
394.532724
 30
0.0
 11
2573.614181
 21
254.532724
 31
0.0
  0
LINE
  5
3011
100
AcDbEntity
  8
0
100
AcDbLine
 10
2600.614181
 20
394.532724
 30
0.0
 11
2600.614181
 21
254.532724
 31
0.0
  0
LINE
  5
3012
100
AcDbEntity
  8
0
100
AcDbLine
 10
2600.614181
 20
254.532724
 30
0.0
 11
2573.614181
 21
254.532724
 31
0.0
  0
ARC
  5
3013
100
AcDbEntity
  8
0
100
AcDbCircle
 10
2568.614181
 20
293.032724
 30
0.0
 40
5.0
100
AcDbArc
 50
360.0
 51
90.0
  0
ARC
  5
3014
100
AcDbEntity
  8
0
100
AcDbCircle
 10
2568.614181
 20
356.032724
 30
0.0
 40
5.0
100
AcDbArc
 50
270.0
 51
360.0
  0
LINE
  5
3015
100
AcDbEntity
  8
0
100
AcDbLine
 10
2600.614181
 20
394.532724
 30
0.0
 11
2573.614181
 21
394.532724
 31
0.0
  0
LINE
  5
3016
100
AcDbEntity
  8
0
100
AcDbLine
 10
2568.614181
 20
298.032724
 30
0.0
 11
2516.707928
 21
298.032724
 31
0.0
  0
LINE
  5
3017
100
AcDbEntity
  8
0
100
AcDbLine
 10
2568.614181
 20
351.032724
 30
0.0
 11
2516.707928
 21
351.032724
 31
0.0
  0
LINE
  5
3018
100
AcDbEntity
  8
0
100
AcDbLine
 10
2307.614181
 20
686.421126
 30
0.0
 11
2307.614181
 21
546.421126
 31
0.0
  0
LINE
  5
3019
100
AcDbEntity
  8
0
100
AcDbLine
 10
2280.614181
 20
686.421126
 30
0.0
 11
2280.614181
 21
546.421126
 31
0.0
  0
LINE
  5
301A
100
AcDbEntity
  8
0
100
AcDbLine
 10
2280.614181
 20
546.421126
 30
0.0
 11
2307.614181
 21
546.421126
 31
0.0
  0
ARC
  5
301B
100
AcDbEntity
  8
0
100
AcDbCircle
 10
2312.614181
 20
584.921126
 30
0.0
 40
5.0
100
AcDbArc
 50
90.0
 51
180.0
  0
ARC
  5
301C
100
AcDbEntity
  8
0
100
AcDbCircle
 10
2312.614181
 20
647.921126
 30
0.0
 40
5.0
100
AcDbArc
 50
180.0
 51
270.0
  0
LINE
  5
301D
100
AcDbEntity
  8
0
100
AcDbLine
 10
2280.614181
 20
686.421126
 30
0.0
 11
2307.614181
 21
686.421126
 31
0.0
  0
LINE
  5
301E
100
AcDbEntity
  8
0
100
AcDbLine
 10
2312.614181
 20
589.921126
 30
0.0
 11
2364.520434
 21
589.921126
 31
0.0
  0
LINE
  5
301F
100
AcDbEntity
  8
0
100
AcDbLine
 10
2312.614181
 20
642.921126
 30
0.0
 11
2364.520434
 21
642.921126
 31
0.0
  0
LINE
  5
3020
100
AcDbEntity
  8
0
100
AcDbLine
 10
2600.614181
 20
686.421126
 30
0.0
 11
2600.614181
 21
546.421126
 31
0.0
  0
LINE
  5
3021
100
AcDbEntity
  8
0
100
AcDbLine
 10
2573.614181
 20
686.421126
 30
0.0
 11
2573.614181
 21
546.421126
 31
0.0
  0
LINE
  5
3022
100
AcDbEntity
  8
0
100
AcDbLine
 10
2568.614181
 20
642.921126
 30
0.0
 11
2516.707928
 21
642.921126
 31
0.0
  0
LINE
  5
3023
100
AcDbEntity
  8
0
100
AcDbLine
 10
2568.614181
 20
589.921126
 30
0.0
 11
2516.707928
 21
589.921126
 31
0.0
  0
LINE
  5
3024
100
AcDbEntity
  8
0
100
AcDbLine
 10
2600.614181
 20
546.421126
 30
0.0
 11
2573.614181
 21
546.421126
 31
0.0
  0
ARC
  5
3025
100
AcDbEntity
  8
0
100
AcDbCircle
 10
2568.614181
 20
584.921126
 30
0.0
 40
5.0
100
AcDbArc
 50
360.0
 51
90.0
  0
ARC
  5
3026
100
AcDbEntity
  8
0
100
AcDbCircle
 10
2568.614181
 20
647.921126
 30
0.0
 40
5.0
100
AcDbArc
 50
270.0
 51
360.0
  0
LINE
  5
3027
100
AcDbEntity
  8
0
100
AcDbLine
 10
2600.614181
 20
686.421126
 30
0.0
 11
2573.614181
 21
686.421126
 31
0.0
  0
LINE
  5
3028
100
AcDbEntity
  8
0
100
AcDbLine
 10
2307.614181
 20
872.000571
 30
0.0
 11
2307.614181
 21
732.000571
 31
0.0
  0
LINE
  5
3029
100
AcDbEntity
  8
0
100
AcDbLine
 10
2280.614181
 20
872.000571
 30
0.0
 11
2280.614181
 21
732.000571
 31
0.0
  0
LINE
  5
302A
100
AcDbEntity
  8
0
100
AcDbLine
 10
2280.614181
 20
732.000571
 30
0.0
 11
2307.614181
 21
732.000571
 31
0.0
  0
ARC
  5
302B
100
AcDbEntity
  8
0
100
AcDbCircle
 10
2312.614181
 20
770.500571
 30
0.0
 40
5.0
100
AcDbArc
 50
90.0
 51
180.0
  0
ARC
  5
302C
100
AcDbEntity
  8
0
100
AcDbCircle
 10
2312.614181
 20
833.500571
 30
0.0
 40
5.0
100
AcDbArc
 50
180.0
 51
270.0
  0
LINE
  5
302D
100
AcDbEntity
  8
0
100
AcDbLine
 10
2280.614181
 20
872.000571
 30
0.0
 11
2307.614181
 21
872.000571
 31
0.0
  0
LINE
  5
302E
100
AcDbEntity
  8
0
100
AcDbLine
 10
2312.614181
 20
775.500571
 30
0.0
 11
2364.520434
 21
775.500571
 31
0.0
  0
LINE
  5
302F
100
AcDbEntity
  8
0
100
AcDbLine
 10
2312.614181
 20
828.500571
 30
0.0
 11
2364.520434
 21
828.500571
 31
0.0
  0
LINE
  5
3030
100
AcDbEntity
  8
0
100
AcDbLine
 10
2600.614181
 20
872.000571
 30
0.0
 11
2600.614181
 21
732.000571
 31
0.0
  0
LINE
  5
3031
100
AcDbEntity
  8
0
100
AcDbLine
 10
2573.614181
 20
872.000571
 30
0.0
 11
2573.614181
 21
732.000571
 31
0.0
  0
LINE
  5
3032
100
AcDbEntity
  8
0
100
AcDbLine
 10
2568.614181
 20
828.500571
 30
0.0
 11
2516.707928
 21
828.500571
 31
0.0
  0
LINE
  5
3033
100
AcDbEntity
  8
0
100
AcDbLine
 10
2568.614181
 20
775.500571
 30
0.0
 11
2516.707928
 21
775.500571
 31
0.0
  0
LINE
  5
3034
100
AcDbEntity
  8
0
100
AcDbLine
 10
2600.614181
 20
732.000571
 30
0.0
 11
2573.614181
 21
732.000571
 31
0.0
  0
ARC
  5
3035
100
AcDbEntity
  8
0
100
AcDbCircle
 10
2568.614181
 20
770.500571
 30
0.0
 40
5.0
100
AcDbArc
 50
360.0
 51
90.0
  0
ARC
  5
3036
100
AcDbEntity
  8
0
100
AcDbCircle
 10
2568.614181
 20
833.500571
 30
0.0
 40
5.0
100
AcDbArc
 50
270.0
 51
360.0
  0
LINE
  5
3037
100
AcDbEntity
  8
0
100
AcDbLine
 10
2600.614181
 20
872.000571
 30
0.0
 11
2573.614181
 21
872.000571
 31
0.0
  0
CIRCLE
  5
303D
100
AcDbEntity
  8
0
100
AcDbCircle
 10
309.981025
 20
324.532724
 30
0.0
 40
60.0
  0
CIRCLE
  5
3042
100
AcDbEntity
  8
0
100
AcDbCircle
 10
340.033063
 20
354.584763
 30
0.0
 40
9.5
  0
CIRCLE
  5
3043
100
AcDbEntity
  8
0
100
AcDbCircle
 10
340.033063
 20
294.480686
 30
0.0
 40
9.5
  0
CIRCLE
  5
3044
100
AcDbEntity
  8
0
100
AcDbCircle
 10
279.928987
 20
294.480686
 30
0.0
 40
9.5
  0
CIRCLE
  5
3045
100
AcDbEntity
  8
0
100
AcDbCircle
 10
279.928987
 20
354.584763
 30
0.0
 40
9.5
  0
LINE
  5
3046
100
AcDbEntity
  8
0
100
AcDbLine
 10
277.895047
 20
375.232724
 30
0.0
 11
253.281025
 21
375.232724
 31
0.0
  0
CIRCLE
  5
3047
100
AcDbEntity
  8
0
100
AcDbCircle
 10
905.839695
 20
324.532724
 30
0.0
 40
60.0
  0
CIRCLE
  5
3048
100
AcDbEntity
  8
0
100
AcDbCircle
 10
875.787657
 20
294.480686
 30
0.0
 40
9.5
  0
CIRCLE
  5
3049
100
AcDbEntity
  8
0
100
AcDbCircle
 10
875.787657
 20
354.584763
 30
0.0
 40
9.5
  0
CIRCLE
  5
304A
100
AcDbEntity
  8
0
100
AcDbCircle
 10
935.891733
 20
294.480686
 30
0.0
 40
9.5
  0
CIRCLE
  5
304B
100
AcDbEntity
  8
0
100
AcDbCircle
 10
935.891733
 20
354.584763
 30
0.0
 40
9.5
  0
LINE
  5
304C
100
AcDbEntity
  8
0
100
AcDbLine
 10
937.925673
 20
375.232724
 30
0.0
 11
962.539695
 21
375.232724
 31
0.0
  0
CIRCLE
  5
304D
100
AcDbEntity
  8
0
100
AcDbCircle
 10
1189.757909
 20
324.532724
 30
0.0
 40
67.5
  0
LINE
  5
3055
100
AcDbEntity
  8
0
100
AcDbLine
 10
1145.196042
 20
375.232724
 30
0.0
 11
1133.057909
 21
375.232724
 31
0.0
  0
CIRCLE
  5
3056
100
AcDbEntity
  8
0
100
AcDbCircle
 10
1787.811502
 20
324.532724
 30
0.0
 40
67.5
  0
LINE
  5
305B
100
AcDbEntity
  8
0
100
AcDbLine
 10
1832.373369
 20
375.232724
 30
0.0
 11
1844.511502
 21
375.232724
 31
0.0
  0
CIRCLE
  5
305C
100
AcDbEntity
  8
0
100
AcDbCircle
 10
2100.281278
 20
324.532724
 30
0.0
 40
70.0
  0
CIRCLE
  5
305D
100
AcDbEntity
  8
0
100
AcDbCircle
 10
1821.399074
 20
358.120297
 30
0.0
 40
11.5
  0
CIRCLE
  5
305E
100
AcDbEntity
  8
0
100
AcDbCircle
 10
1821.399074
 20
290.945152
 30
0.0
 40
11.5
  0
CIRCLE
  5
305F
100
AcDbEntity
  8
0
100
AcDbCircle
 10
1754.223929
 20
290.945152
 30
0.0
 40
11.5
  0
CIRCLE
  5
3060
100
AcDbEntity
  8
0
100
AcDbCircle
 10
1754.223929
 20
358.120297
 30
0.0
 40
11.5
  0
CIRCLE
  5
3061
100
AcDbEntity
  8
0
100
AcDbCircle
 10
1156.170337
 20
290.945152
 30
0.0
 40
11.5
  0
CIRCLE
  5
3062
100
AcDbEntity
  8
0
100
AcDbCircle
 10
1223.345481
 20
290.945152
 30
0.0
 40
11.5
  0
CIRCLE
  5
3063
100
AcDbEntity
  8
0
100
AcDbCircle
 10
1156.170337
 20
358.120297
 30
0.0
 40
11.5
  0
CIRCLE
  5
3064
100
AcDbEntity
  8
0
100
AcDbCircle
 10
1223.345481
 20
358.120297
 30
0.0
 40
11.5
  0
CIRCLE
  5
3068
100
AcDbEntity
  8
0
100
AcDbCircle
 10
2135.636617
 20
359.888064
 30
0.0
 40
11.5
  0
CIRCLE
  5
3069
100
AcDbEntity
  8
0
100
AcDbCircle
 10
2135.636617
 20
289.177385
 30
0.0
 40
11.5
  0
CIRCLE
  5
306A
100
AcDbEntity
  8
0
100
AcDbCircle
 10
2064.925939
 20
289.177385
 30
0.0
 40
11.5
  0
CIRCLE
  5
306B
100
AcDbEntity
  8
0
100
AcDbCircle
 10
2064.925939
 20
359.888064
 30
0.0
 40
11.5
  0
CIRCLE
  5
306C
100
AcDbEntity
  8
0
100
AcDbCircle
 10
2715.174094
 20
324.532724
 30
0.0
 40
70.0
  0
CIRCLE
  5
306D
100
AcDbEntity
  8
0
100
AcDbCircle
 10
2679.818755
 20
359.888064
 30
0.0
 40
11.5
  0
CIRCLE
  5
306E
100
AcDbEntity
  8
0
100
AcDbCircle
 10
2679.818755
 20
289.177385
 30
0.0
 40
11.5
  0
CIRCLE
  5
306F
100
AcDbEntity
  8
0
100
AcDbCircle
 10
2750.529433
 20
289.177385
 30
0.0
 40
11.5
  0
CIRCLE
  5
3070
100
AcDbEntity
  8
0
100
AcDbCircle
 10
2750.529433
 20
359.888064
 30
0.0
 40
11.5
  0
VIEWPORT
  5
41
100
AcDbEntity
 67
     1
  8
0
100
AcDbViewport
 10
117.358407
 20
73.5
 30
0.0
 40
234.716814
 41
147.0
 68
    -1
 69
     1
1001
ACAD
1000
MVIEW
1002
{
1070
    16
1010
0.0
1020
0.0
1030
0.0
1010
0.0
1020
0.0
1030
1.0
1040
0.0
1040
147.0
1040
117.358407
1040
73.5
1040
50.0
1040
0.0
1040
0.0
1070
     0
1070
   100
1070
     1
1070
     1
1070
     0
1070
     0
1070
     0
1070
     0
1040
0.0
1040
0.0
1040
0.0
1040
1.0
1040
1.0
1040
0.0
1040
0.0
1070
     0
1002
{
1002
}
1002
}
  0
ENDSEC
  0
SECTION
  2
OBJECTS
  0
DICTIONARY
  5
C
100
AcDbDictionary
  3
ACAD_GROUP
350
D
  3
ACAD_MLINESTYLE
350
E
  0
DICTIONARY
  5
D
102
{ACAD_REACTORS
330
C
102
}
100
AcDbDictionary
  0
DICTIONARY
  5
E
102
{ACAD_REACTORS
330
C
102
}
100
AcDbDictionary
  3
STANDARD
350
1B
  0
MLINESTYLE
  5
1B
102
{ACAD_REACTORS
330
E
102
}
100
AcDbMlineStyle
  2
STANDARD
 70
     0
  3

 62
     0
 51
90.0
 52
90.0
 71
     2
 49
0.5
 62
   256
  6
BYLAYER
 49
-0.5
 62
   256
  6
BYLAYER
  0
ENDSEC
  0
EOF
