  0
SECTION
  2
HEADER
  9
$ACADVER
  1
AC1012
  9
$DWGCODEPAGE
  3
dos932
  9
$INSBASE
 10
0.0
 20
0.0
 30
0.0
  9
$EXTMIN
 10
110.0
 20
50.0
 30
0.0
  9
$EXTMAX
 10
2860.0
 20
1910.0
 30
0.0
  9
$LIMMIN
 10
0.0
 20
0.0
  9
$LIMMAX
 10
2970.0
 20
2100.0
  9
$ORTHOMODE
 70
     0
  9
$REGENMODE
 70
     1
  9
$FILLMODE
 70
     1
  9
$QTEXTMODE
 70
     0
  9
$MIRRTEXT
 70
     1
  9
$DRAGMODE
 70
     2
  9
$LTSCALE
 40
40.0
  9
$OSMODE
 70
   163
  9
$ATTMODE
 70
     1
  9
$TEXTSIZE
 40
40.0
  9
$TRACEWID
 40
0.05
  9
$TEXTSTYLE
  7
STANDARD
  9
$CLAYER
  8
0
  9
$CELTYPE
  6
BYLAYER
  9
$CECOLOR
 62
   256
  9
$CELTSCALE
 40
1.0
  9
$DELOBJ
 70
     1
  9
$DISPSILH
 70
     0
  9
$DIMSCALE
 40
10.0
  9
$DIMASZ
 40
2.8
  9
$DIMEXO
 40
1.0
  9
$DIMDLI
 40
5.0
  9
$DIMRND
 40
0.1
  9
$DIMDLE
 40
0.0
  9
$DIMEXE
 40
1.0
  9
$DIMTP
 40
0.0
  9
$DIMTM
 40
0.0
  9
$DIMTXT
 40
2.5
  9
$DIMCEN
 40
0.0
  9
$DIMTSZ
 40
0.0
  9
$DIMTOL
 70
     0
  9
$DIMLIM
 70
     0
  9
$DIMTIH
 70
     0
  9
$DIMTOH
 70
     0
  9
$DIMSE1
 70
     0
  9
$DIMSE2
 70
     0
  9
$DIMTAD
 70
     3
  9
$DIMZIN
 70
     8
  9
$DIMBLK
  1

  9
$DIMASO
 70
     1
  9
$DIMSHO
 70
     1
  9
$DIMPOST
  1
 
  9
$DIMAPOST
  1

  9
$DIMALT
 70
     0
  9
$DIMALTD
 70
     2
  9
$DIMALTF
 40
1.0
  9
$DIMLFAC
 40
1.0
  9
$DIMTOFL
 70
     1
  9
$DIMTVP
 40
0.0
  9
$DIMTIX
 70
     0
  9
$DIMSOXD
 70
     0
  9
$DIMSAH
 70
     1
  9
$DIMBLK1
  1
_OPEN
  9
$DIMBLK2
  1
_OPEN
  9
$DIMSTYLE
  2
DIM1
  9
$DIMCLRD
 70
     2
  9
$DIMCLRE
 70
     2
  9
$DIMCLRT
 70
     2
  9
$DIMTFAC
 40
0.7
  9
$DIMGAP
 40
0.85
  9
$DIMJUST
 70
     0
  9
$DIMSD1
 70
     0
  9
$DIMSD2
 70
     0
  9
$DIMTOLJ
 70
     1
  9
$DIMTZIN
 70
     8
  9
$DIMALTZ
 70
     8
  9
$DIMALTTZ
 70
     8
  9
$DIMFIT
 70
     0
  9
$DIMUPT
 70
     0
  9
$DIMUNIT
 70
     2
  9
$DIMDEC
 70
     2
  9
$DIMTDEC
 70
     3
  9
$DIMALTU
 70
     2
  9
$DIMALTTD
 70
     3
  9
$DIMTXSTY
  7
DIM
  9
$DIMAUNIT
 70
     0
  9
$LUNITS
 70
     2
  9
$LUPREC
 70
     4
  9
$SKETCHINC
 40
0.1
  9
$FILLETRAD
 40
0.0
  9
$AUNITS
 70
     0
  9
$AUPREC
 70
     0
  9
$MENU
  1
C:\ACADR13\WIN\SUPPORT\ACAD.mnc
  9
$ELEVATION
 40
0.0
  9
$PELEVATION
 40
0.0
  9
$THICKNESS
 40
0.0
  9
$LIMCHECK
 70
     0
  9
$BLIPMODE
 70
     1
  9
$CHAMFERA
 40
0.0
  9
$CHAMFERB
 40
0.0
  9
$CHAMFERC
 40
0.0
  9
$CHAMFERD
 40
0.0
  9
$SKPOLY
 70
     0
  9
$TDCREATE
 40
2451564.566017593
  9
$TDUPDATE
 40
2451981.561874815
  9
$TDINDWG
 40
0.0549630440
  9
$TDUSRTIMER
 40
0.0549630440
  9
$USRTIMER
 70
     1
  9
$ANGBASE
 50
0.0
  9
$ANGDIR
 70
     0
  9
$PDMODE
 70
     0
  9
$PDSIZE
 40
0.0
  9
$PLINEWID
 40
0.0
  9
$COORDS
 70
     1
  9
$SPLFRAME
 70
     0
  9
$SPLINETYPE
 70
     6
  9
$SPLINESEGS
 70
     8
  9
$ATTDIA
 70
     0
  9
$ATTREQ
 70
     1
  9
$HANDLING
 70
     1
  9
$HANDSEED
  5
320C
  9
$SURFTAB1
 70
     6
  9
$SURFTAB2
 70
     6
  9
$SURFTYPE
 70
     6
  9
$SURFU
 70
     6
  9
$SURFV
 70
     6
  9
$UCSNAME
  2

  9
$UCSORG
 10
0.0
 20
0.0
 30
0.0
  9
$UCSXDIR
 10
1.0
 20
0.0
 30
0.0
  9
$UCSYDIR
 10
0.0
 20
1.0
 30
0.0
  9
$PUCSNAME
  2

  9
$PUCSORG
 10
0.0
 20
0.0
 30
0.0
  9
$PUCSXDIR
 10
1.0
 20
0.0
 30
0.0
  9
$PUCSYDIR
 10
0.0
 20
1.0
 30
0.0
  9
$USERI1
 70
     0
  9
$USERI2
 70
     0
  9
$USERI3
 70
     0
  9
$USERI4
 70
     0
  9
$USERI5
 70
     0
  9
$USERR1
 40
0.0
  9
$USERR2
 40
0.0
  9
$USERR3
 40
0.0
  9
$USERR4
 40
0.0
  9
$USERR5
 40
0.0
  9
$WORLDVIEW
 70
     1
  9
$SHADEDGE
 70
     3
  9
$SHADEDIF
 70
    70
  9
$TILEMODE
 70
     1
  9
$MAXACTVP
 70
    16
  9
$PINSBASE
 10
0.0
 20
0.0
 30
0.0
  9
$PLIMCHECK
 70
     0
  9
$PEXTMIN
 10
1.000000E+20
 20
1.000000E+20
 30
1.000000E+20
  9
$PEXTMAX
 10
-1.000000E+20
 20
-1.000000E+20
 30
-1.000000E+20
  9
$PLIMMIN
 10
0.0
 20
0.0
  9
$PLIMMAX
 10
20.0
 20
147.0
  9
$UNITMODE
 70
     0
  9
$VISRETAIN
 70
     0
  9
$PLINEGEN
 70
     0
  9
$PSLTSCALE
 70
     1
  9
$TREEDEPTH
 70
  3020
  9
$PICKSTYLE
 70
     1
  9
$CMLSTYLE
  2
STANDARD
  9
$CMLJUST
 70
     0
  9
$CMLSCALE
 40
1.0
  9
$SAVEIMAGES
 70
     1
  0
ENDSEC
  0
SECTION
  2
CLASSES
  0
CLASS
  1
LWPOLYLINE
  2
AcDbPolyline
  3
"AutoCAD"
 90
    32768
280
     0
281
     1
  0
ENDSEC
  0
SECTION
  2
TABLES
  0
TABLE
  2
VPORT
  5
8
100
AcDbSymbolTable
 70
     2
  0
VPORT
  5
320B
100
AcDbSymbolTableRecord
100
AcDbViewportTableRecord
  2
*ACTIVE
 70
     0
 10
0.0
 20
0.0
 11
1.0
 21
1.0
 12
1535.137322
 22
1088.779077
 13
0.0
 23
0.0
 14
1.0
 24
1.0
 15
0.0
 25
0.0
 16
0.0
 26
0.0
 36
1.0
 17
0.0
 27
0.0
 37
0.0
 40
2177.558155
 41
1.762063
 42
50.0
 43
0.0
 44
0.0
 50
0.0
 51
0.0
 71
     0
 72
   100
 73
     1
 74
     1
 75
     0
 76
     0
 77
     0
 78
     0
  0
ENDTAB
  0
TABLE
  2
LTYPE
  5
5
100
AcDbSymbolTable
 70
     1
  0
LTYPE
  5
12
100
AcDbSymbolTableRecord
100
AcDbLinetypeTableRecord
  2
BYBLOCK
 70
     0
  3

 72
    65
 73
     0
 40
0.0
  0
LTYPE
  5
13
100
AcDbSymbolTableRecord
100
AcDbLinetypeTableRecord
  2
BYLAYER
 70
     0
  3

 72
    65
 73
     0
 40
0.0
  0
LTYPE
  5
14
100
AcDbSymbolTableRecord
100
AcDbLinetypeTableRecord
  2
CONTINUOUS
 70
     0
  3
Solid line
 72
    65
 73
     0
 40
0.0
  0
ENDTAB
  0
TABLE
  2
LAYER
  5
2
100
AcDbSymbolTable
 70
     1
  0
LAYER
  5
F
100
AcDbSymbolTableRecord
100
AcDbLayerTableRecord
  2
0
 70
     0
 62
     7
  6
CONTINUOUS
  0
ENDTAB
  0
TABLE
  2
STYLE
  5
3
100
AcDbSymbolTable
 70
     3
  0
STYLE
  5
10
100
AcDbSymbolTableRecord
100
AcDbTextStyleTableRecord
  2
STANDARD
 70
     0
 40
0.0
 41
0.8
 50
0.0
 71
     0
 42
40.0
  3
simplex
  4
extfont
  0
STYLE
  5
237C
100
AcDbSymbolTableRecord
100
AcDbTextStyleTableRecord
  2
PTSH
 70
     0
 40
0.0
 41
0.9
 50
0.0
 71
     0
 42
4.0
  3
SIMPLEX
  4
EXTFONT
  0
STYLE
  5
2592
100
AcDbSymbolTableRecord
100
AcDbTextStyleTableRecord
  2
DIM
 70
     0
 40
0.0
 41
0.8
 50
0.0
 71
     0
 42
4.0
  3
simplex
  4
extfont
  0
ENDTAB
  0
TABLE
  2
VIEW
  5
6
100
AcDbSymbolTable
 70
     0
  0
ENDTAB
  0
TABLE
  2
UCS
  5
7
100
AcDbSymbolTable
 70
     0
  0
ENDTAB
  0
TABLE
  2
APPID
  5
9
100
AcDbSymbolTable
 70
     1
  0
APPID
  5
11
100
AcDbSymbolTableRecord
100
AcDbRegAppTableRecord
  2
ACAD
 70
     0
  0
ENDTAB
  0
TABLE
  2
DIMSTYLE
  5
A
100
AcDbSymbolTable
 70
     1
  0
DIMSTYLE
105
2237
100
AcDbSymbolTableRecord
100
AcDbDimStyleTableRecord
  2
DIM1
 70
     0
  3
 
  4

  5

  6
_OPEN
  7
_OPEN
 40
10.0
 41
2.8
 42
1.0
 43
5.0
 44
1.0
 45
0.1
 46
0.0
 47
0.0
 48
0.0
140
2.5
141
0.0
142
0.0
143
1.0
144
1.0
145
0.0
146
0.7
147
0.85
 71
     0
 72
     0
 73
     0
 74
     0
 75
     0
 76
     0
 77
     3
 78
     8
170
     0
171
     2
172
     1
173
     1
174
     0
175
     0
176
     2
177
     2
178
     2
270
     2
271
     2
272
     3
273
     2
274
     3
340
2592
275
     0
280
     0
281
     0
282
     0
283
     1
284
     8
285
     8
286
     8
287
     0
288
     0
  0
ENDTAB
  0
TABLE
  2
BLOCK_RECORD
  5
1
100
AcDbSymbolTable
 70
     1
  0
BLOCK_RECORD
  5
18
100
AcDbSymbolTableRecord
100
AcDbBlockTableRecord
  2
*MODEL_SPACE
  0
BLOCK_RECORD
  5
15
100
AcDbSymbolTableRecord
100
AcDbBlockTableRecord
  2
*PAPER_SPACE
  0
BLOCK_RECORD
  5
2448
100
AcDbSymbolTableRecord
100
AcDbBlockTableRecord
  2
_OPEN
  0
ENDTAB
  0
ENDSEC
  0
SECTION
  2
BLOCKS
  0
BLOCK
  5
3C
100
AcDbEntity
  8
0
100
AcDbBlockBegin
  2
*MODEL_SPACE
 70
     0
 10
0.0
 20
0.0
 30
0.0
  3
*MODEL_SPACE
  1

  0
ENDBLK
  5
3D
100
AcDbEntity
  8
0
100
AcDbBlockEnd
  0
BLOCK
  5
3A
100
AcDbEntity
 67
     1
  8
0
100
AcDbBlockBegin
  2
*PAPER_SPACE
 70
     0
 10
0.0
 20
0.0
 30
0.0
  3
*PAPER_SPACE
  1

  0
ENDBLK
  5
3B
100
AcDbEntity
 67
     1
  8
0
100
AcDbBlockEnd
  0
BLOCK
  5
2449
100
AcDbEntity
  8
0
 48
4.0
100
AcDbBlockBegin
  2
_OPEN
 70
     0
 10
0.0
 20
0.0
 30
0.0
  3
_OPEN
  1
H1111.DWG
  0
LINE
  5
244A
100
AcDbEntity
  8
0
  6
BYBLOCK
 62
     0
 48
4.0
100
AcDbLine
 10
-1.0
 20
0.166667
 30
0.0
 11
0.0
 21
0.0
 31
0.0
  0
LINE
  5
244B
100
AcDbEntity
  8
0
  6
BYBLOCK
 62
     0
 48
4.0
100
AcDbLine
 10
0.0
 20
0.0
 30
0.0
 11
-1.0
 21
-0.166667
 31
0.0
  0
LINE
  5
244C
100
AcDbEntity
  8
0
  6
BYBLOCK
 62
     0
 48
4.0
100
AcDbLine
 10
0.0
 20
0.0
 30
0.0
 11
-1.0
 21
0.0
 31
0.0
  0
ENDBLK
  5
244D
100
AcDbEntity
  8
0
 48
4.0
100
AcDbBlockEnd
  0
ENDSEC
  0
SECTION
  2
ENTITIES
  0
MTEXT
  5
ADA
100
AcDbEntity
  8
0
100
AcDbMText
 10
3801.392798
 20
498.463111
 30
0.0
 40
2.0
 41
472.264648
 71
     1
 72
     1
  1

  0
MTEXT
  5
ADB
100
AcDbEntity
  8
0
100
AcDbMText
 10
3890.499332
 20
578.507937
 30
0.0
 40
2.0
 41
454.443342
 71
     1
 72
     1
  1

  0
MTEXT
  5
ADC
100
AcDbEntity
  8
0
100
AcDbMText
 10
3837.035411
 20
-479.862464
 30
0.0
 40
2.0
 41
516.817915
 71
     1
 72
     1
  1

  0
TEXT
  5
2529
100
AcDbEntity
  8
0
  6
CONTINUOUS
100
AcDbText
 10
2699.666296
 20
78.536818
 30
0.0
 40
25.0
  1
HR260A
 41
0.9
  7
PTSH
 72
     1
 11
2763.416296
 21
91.036818
 31
0.0
100
AcDbText
 73
     2
  0
POLYLINE
  5
2563
100
AcDbEntity
  8
0
100
AcDb2dPolyline
 66
     1
 10
0.0
 20
0.0
 30
0.0
 70
     1
  0
VERTEX
  5
3206
100
AcDbEntity
  8
0
100
AcDbVertex
100
AcDb2dVertex
 10
110.0
 20
50.0
 30
0.0
  0
VERTEX
  5
3207
100
AcDbEntity
  8
0
100
AcDbVertex
100
AcDb2dVertex
 10
2860.0
 20
50.0
 30
0.0
  0
VERTEX
  5
3208
100
AcDbEntity
  8
0
100
AcDbVertex
100
AcDb2dVertex
 10
2860.0
 20
1910.0
 30
0.0
  0
VERTEX
  5
3209
100
AcDbEntity
  8
0
100
AcDbVertex
100
AcDb2dVertex
 10
110.0
 20
1910.0
 30
0.0
  0
SEQEND
  5
320A
100
AcDbEntity
  8
0
  0
LINE
  5
2AD6
100
AcDbEntity
  8
0
100
AcDbLine
 10
1491.346042
 20
911.578542
 30
0.0
 11
1586.746042
 21
911.578542
 31
0.0
  0
LINE
  5
2AD7
100
AcDbEntity
  8
0
100
AcDbLine
 10
1471.346042
 20
821.578542
 30
0.0
 11
1606.746042
 21
821.578542
 31
0.0
  0
LINE
  5
2AD8
100
AcDbEntity
  8
0
100
AcDbLine
 10
1471.546042
 20
821.578542
 30
0.0
 11
1606.546042
 21
821.578542
 31
0.0
  0
LINE
  5
2AD9
100
AcDbEntity
  8
0
100
AcDbLine
 10
1464.675207
 20
798.828542
 30
0.0
 11
1613.416877
 21
798.828542
 31
0.0
  0
LINE
  5
2ADA
100
AcDbEntity
  8
0
100
AcDbLine
 10
1465.252558
 20
742.328542
 30
0.0
 11
1612.839527
 21
742.328542
 31
0.0
  0
ARC
  5
2ADB
100
AcDbEntity
  8
0
100
AcDbCircle
 10
1539.046042
 20
590.77432
 30
0.0
 40
83.0
100
AcDbArc
 50
33.76488
 51
146.23512
  0
ARC
  5
2ADC
100
AcDbEntity
  8
0
100
AcDbCircle
 10
1539.046042
 20
590.77432
 30
0.0
 40
85.0
100
AcDbArc
 50
35.731292
 51
144.268708
  0
ARC
  5
2ADD
100
AcDbEntity
  8
0
100
AcDbCircle
 10
1539.046042
 20
590.77432
 30
0.0
 40
83.0
100
AcDbArc
 50
213.76488
 51
326.23512
  0
ARC
  5
2ADE
100
AcDbEntity
  8
0
100
AcDbCircle
 10
1539.046042
 20
590.77432
 30
0.0
 40
85.0
100
AcDbArc
 50
215.731292
 51
324.268708
  0
LINE
  5
2ADF
100
AcDbEntity
  8
0
100
AcDbLine
 10
1491.346042
 20
410.548673
 30
0.0
 11
1586.746042
 21
410.548673
 31
0.0
  0
LINE
  5
2AE0
100
AcDbEntity
  8
0
100
AcDbLine
 10
1471.346042
 20
320.548673
 30
0.0
 11
1606.746042
 21
320.548673
 31
0.0
  0
LINE
  5
2AE1
100
AcDbEntity
  8
0
100
AcDbLine
 10
1471.546042
 20
320.548673
 30
0.0
 11
1606.546042
 21
320.548673
 31
0.0
  0
LINE
  5
2AE2
100
AcDbEntity
  8
0
100
AcDbLine
 10
1464.675207
 20
297.798673
 30
0.0
 11
1613.416877
 21
297.798673
 31
0.0
  0
CIRCLE
  5
2AE3
100
AcDbEntity
  8
0
100
AcDbCircle
 10
1539.046042
 20
590.77432
 30
0.0
 40
67.7
  0
TEXT
  5
2AE4
100
AcDbEntity
  8
0
100
AcDbText
 10
1515.589066
 20
188.553956
 30
0.0
 40
20.0
  1
20A
 41
0.8
 11
1515.589066
 21
188.553956
 31
0.0
100
AcDbText
 73
     1
  0
LINE
  5
2AE5
100
AcDbEntity
  8
0
100
AcDbLine
 10
1465.252558
 20
241.298673
 30
0.0
 11
1612.839527
 21
241.298673
 31
0.0
  0
TEXT
  5
2AE6
100
AcDbEntity
  8
0
100
AcDbText
 10
1140.978359
 20
132.270721
 30
0.0
 40
35.0
  1
TLV  HR260A (ANSI･JPI1500lb)
100
AcDbText
  0
LINE
  5
2AE7
100
AcDbEntity
  8
0
100
AcDbLine
 10
573.770433
 20
911.578542
 30
0.0
 11
669.170433
 21
911.578542
 31
0.0
  0
LINE
  5
2AE8
100
AcDbEntity
  8
0
100
AcDbLine
 10
547.676948
 20
742.328542
 30
0.0
 11
695.263917
 21
742.328542
 31
0.0
  0
LINE
  5
2AE9
100
AcDbEntity
  8
0
100
AcDbLine
 10
547.099598
 20
798.828542
 30
0.0
 11
695.841267
 21
798.828542
 31
0.0
  0
LINE
  5
2AEA
100
AcDbEntity
  8
0
100
AcDbLine
 10
553.970433
 20
821.578542
 30
0.0
 11
688.970433
 21
821.578542
 31
0.0
  0
LINE
  5
2AEB
100
AcDbEntity
  8
0
100
AcDbLine
 10
553.770433
 20
821.578542
 30
0.0
 11
689.170433
 21
821.578542
 31
0.0
  0
ARC
  5
2AEC
100
AcDbEntity
  8
0
100
AcDbCircle
 10
621.470433
 20
590.77432
 30
0.0
 40
83.0
100
AcDbArc
 50
33.76488
 51
146.23512
  0
ARC
  5
2AED
100
AcDbEntity
  8
0
100
AcDbCircle
 10
621.470433
 20
590.77432
 30
0.0
 40
85.0
100
AcDbArc
 50
35.731292
 51
144.268708
  0
ARC
  5
2AEE
100
AcDbEntity
  8
0
100
AcDbCircle
 10
621.470433
 20
590.77432
 30
0.0
 40
83.0
100
AcDbArc
 50
213.76488
 51
326.23512
  0
ARC
  5
2AEF
100
AcDbEntity
  8
0
100
AcDbCircle
 10
621.470433
 20
590.77432
 30
0.0
 40
85.0
100
AcDbArc
 50
215.731292
 51
324.268708
  0
LINE
  5
2AF0
100
AcDbEntity
  8
0
100
AcDbLine
 10
547.099598
 20
297.798673
 30
0.0
 11
695.841267
 21
297.798673
 31
0.0
  0
LINE
  5
2AF1
100
AcDbEntity
  8
0
100
AcDbLine
 10
573.770433
 20
410.548673
 30
0.0
 11
669.170433
 21
410.548673
 31
0.0
  0
LINE
  5
2AF2
100
AcDbEntity
  8
0
100
AcDbLine
 10
553.970433
 20
320.548673
 30
0.0
 11
688.970433
 21
320.548673
 31
0.0
  0
LINE
  5
2AF3
100
AcDbEntity
  8
0
100
AcDbLine
 10
553.770433
 20
320.548673
 30
0.0
 11
689.170433
 21
320.548673
 31
0.0
  0
CIRCLE
  5
2AF4
100
AcDbEntity
  8
0
100
AcDbCircle
 10
621.470433
 20
590.77432
 30
0.0
 40
67.7
  0
LINE
  5
2AF5
100
AcDbEntity
  8
0
100
AcDbLine
 10
547.676948
 20
241.298673
 30
0.0
 11
695.263917
 21
241.298673
 31
0.0
  0
ARC
  5
2AF6
100
AcDbEntity
  8
0
100
AcDbCircle
 10
573.770433
 20
390.548673
 30
0.0
 40
20.0
100
AcDbArc
 50
90.0
 51
180.0
  0
ARC
  5
2AF7
100
AcDbEntity
  8
0
100
AcDbCircle
 10
336.111144
 20
390.548673
 30
0.0
 40
20.0
100
AcDbArc
 50
0.0
 51
90.0
  0
ARC
  5
2AF8
100
AcDbEntity
  8
0
100
AcDbCircle
 10
240.711144
 20
390.548673
 30
0.0
 40
20.0
100
AcDbArc
 50
90.0
 51
180.0
  0
TEXT
  5
2AF9
100
AcDbEntity
  8
0
100
AcDbText
 10
136.301159
 20
327.972567
 30
0.0
 40
25.0
  1
正面
100
AcDbText
  0
LINE
  5
2AFB
100
AcDbEntity
  8
0
100
AcDbLine
 10
373.411144
 20
295.798673
 30
0.0
 11
373.411144
 21
243.298673
 31
0.0
  0
LINE
  5
2AFE
100
AcDbEntity
  8
0
100
AcDbLine
 10
203.411144
 20
295.798673
 30
0.0
 11
203.411144
 21
243.298673
 31
0.0
  0
LINE
  5
2AFF
100
AcDbEntity
  8
0
100
AcDbLine
 10
235.178753
 20
241.298673
 30
0.0
 11
205.411144
 21
241.298673
 31
0.0
  0
LINE
  5
2B00
100
AcDbEntity
  8
0
100
AcDbLine
 10
234.146169
 20
243.298673
 30
0.0
 11
203.411144
 21
243.298673
 31
0.0
  0
LINE
  5
2B01
100
AcDbEntity
  8
0
100
AcDbLine
 10
203.411144
 20
243.298673
 30
0.0
 11
205.411144
 21
241.298673
 31
0.0
  0
LINE
  5
2B04
100
AcDbEntity
  8
0
100
AcDbLine
 10
373.411144
 20
243.298673
 30
0.0
 11
342.676119
 21
243.298673
 31
0.0
  0
LINE
  5
2B05
100
AcDbEntity
  8
0
100
AcDbLine
 10
371.411144
 20
241.298673
 30
0.0
 11
341.643535
 21
241.298673
 31
0.0
  0
LINE
  5
2B08
100
AcDbEntity
  8
0
100
AcDbLine
 10
373.411144
 20
243.298673
 30
0.0
 11
371.411144
 21
241.298673
 31
0.0
  0
LINE
  5
2B09
100
AcDbEntity
  8
0
100
AcDbLine
 10
220.711144
 20
320.548673
 30
0.0
 11
255.094482
 21
320.548673
 31
0.0
  0
LINE
  5
2B0A
100
AcDbEntity
  8
0
100
AcDbLine
 10
355.911144
 20
320.548673
 30
0.0
 11
321.727807
 21
320.548673
 31
0.0
  0
LINE
  5
2B0B
100
AcDbEntity
  8
0
100
AcDbLine
 10
220.711144
 20
320.548673
 30
0.0
 11
220.711144
 21
390.548673
 31
0.0
  0
LINE
  5
2B0C
100
AcDbEntity
  8
0
100
AcDbLine
 10
234.65068
 20
297.798673
 30
0.0
 11
205.411144
 21
297.798673
 31
0.0
  0
LINE
  5
2B0D
100
AcDbEntity
  8
0
100
AcDbLine
 10
233.664569
 20
295.798673
 30
0.0
 11
203.411144
 21
295.798673
 31
0.0
  0
LINE
  5
2B0E
100
AcDbEntity
  8
0
100
AcDbLine
 10
205.411144
 20
297.798673
 30
0.0
 11
203.411144
 21
295.798673
 31
0.0
  0
LINE
  5
2B0F
100
AcDbEntity
  8
0
100
AcDbLine
 10
220.911144
 20
298.798673
 30
0.0
 11
220.911144
 21
320.548673
 31
0.0
  0
LINE
  5
2B12
100
AcDbEntity
  8
0
100
AcDbLine
 10
356.111144
 20
320.548673
 30
0.0
 11
356.111144
 21
390.548673
 31
0.0
  0
LINE
  5
2B13
100
AcDbEntity
  8
0
100
AcDbLine
 10
373.411144
 20
295.798673
 30
0.0
 11
343.157719
 21
295.798673
 31
0.0
  0
LINE
  5
2B14
100
AcDbEntity
  8
0
100
AcDbLine
 10
371.411144
 20
297.798673
 30
0.0
 11
342.171608
 21
297.798673
 31
0.0
  0
LINE
  5
2B17
100
AcDbEntity
  8
0
100
AcDbLine
 10
371.411144
 20
297.798673
 30
0.0
 11
373.411144
 21
295.798673
 31
0.0
  0
LINE
  5
2B18
100
AcDbEntity
  8
0
100
AcDbLine
 10
355.911144
 20
298.798673
 30
0.0
 11
355.911144
 21
320.548673
 31
0.0
  0
LINE
  5
2B1B
100
AcDbEntity
  8
0
100
AcDbLine
 10
535.376686
 20
243.548673
 30
0.0
 11
535.376686
 21
296.548673
 31
0.0
  0
LINE
  5
2B1D
100
AcDbEntity
  8
0
100
AcDbLine
 10
546.127604
 20
243.982215
 30
0.0
 11
546.127604
 21
296.11513
 31
0.0
  0
ARC
  5
2B25
100
AcDbEntity
  8
0
100
AcDbCircle
 10
540.446313
 20
251.349412
 30
0.0
 40
9.303368
100
AcDbArc
 50
236.980541
 51
307.63799
  0
LINE
  5
2B26
100
AcDbEntity
  8
0
100
AcDbLine
 10
546.127604
 20
243.982215
 30
0.0
 11
547.676948
 21
241.298673
 31
0.0
  0
LINE
  5
2B28
100
AcDbEntity
  8
0
100
AcDbLine
 10
441.456014
 20
262.629415
 30
0.0
 11
394.187452
 21
262.629415
 31
0.0
  0
LINE
  5
2B29
100
AcDbEntity
  8
0
100
AcDbLine
 10
413.094202
 20
272.08279
 30
0.0
 11
417.822577
 21
267.356102
 31
0.0
  0
LINE
  5
2B2A
100
AcDbEntity
  8
0
100
AcDbLine
 10
384.734077
 20
272.08279
 30
0.0
 11
413.094202
 21
272.08279
 31
0.0
  0
LINE
  5
2B2B
100
AcDbEntity
  8
0
100
AcDbLine
 10
394.187452
 20
262.629415
 30
0.0
 11
384.734077
 21
272.08279
 31
0.0
  0
LINE
  5
2B2C
100
AcDbEntity
  8
0
100
AcDbLine
 10
431.796764
 20
272.08279
 30
0.0
 11
441.456014
 21
262.629415
 31
0.0
  0
LINE
  5
2B2D
100
AcDbEntity
  8
0
100
AcDbLine
 10
417.822577
 20
267.356102
 30
0.0
 11
431.796764
 21
267.356102
 31
0.0
  0
LINE
  5
2B2E
100
AcDbEntity
  8
0
100
AcDbLine
 10
431.796764
 20
267.356102
 30
0.0
 11
431.796764
 21
272.08279
 31
0.0
  0
LINE
  5
2B32
100
AcDbEntity
  8
0
100
AcDbLine
 10
553.770433
 20
320.548673
 30
0.0
 11
553.770433
 21
390.548673
 31
0.0
  0
ARC
  5
2B35
100
AcDbEntity
  8
0
100
AcDbCircle
 10
540.446313
 20
288.747933
 30
0.0
 40
9.303368
100
AcDbArc
 50
52.36201
 51
123.019459
  0
LINE
  5
2B36
100
AcDbEntity
  8
0
100
AcDbLine
 10
546.127604
 20
296.11513
 30
0.0
 11
547.099598
 21
297.798673
 31
0.0
  0
LINE
  5
2B37
100
AcDbEntity
  8
0
100
AcDbLine
 10
553.970433
 20
298.798673
 30
0.0
 11
553.970433
 21
320.548673
 31
0.0
  0
LINE
  5
2B38
100
AcDbEntity
  8
0
100
AcDbLine
 10
552.970433
 20
298.798673
 30
0.0
 11
553.970433
 21
298.798673
 31
0.0
  0
LINE
  5
2B39
100
AcDbEntity
  8
0
100
AcDbLine
 10
552.970433
 20
298.798673
 30
0.0
 11
551.970433
 21
297.798673
 31
0.0
  0
TEXT
  5
2B3A
100
AcDbEntity
  8
0
100
AcDbText
 10
136.301159
 20
570.755047
 30
0.0
 40
25.0
  1
平面
100
AcDbText
  0
TEXT
  5
2B3B
100
AcDbEntity
  8
0
100
AcDbText
 10
136.301159
 20
792.518861
 30
0.0
 40
25.0
  1
背面
100
AcDbText
  0
ARC
  5
2B3C
100
AcDbEntity
  8
0
100
AcDbCircle
 10
288.411144
 20
433.548673
 30
0.0
 40
16.3
100
AcDbArc
 50
81.921896
 51
98.078104
  0
LINE
  5
2B3D
100
AcDbEntity
  8
0
100
AcDbLine
 10
296.411144
 20
410.548673
 30
0.0
 11
280.411144
 21
410.548673
 31
0.0
  0
LINE
  5
2B3E
100
AcDbEntity
  8
0
100
AcDbLine
 10
336.111144
 20
410.548673
 30
0.0
 11
240.711144
 21
410.548673
 31
0.0
  0
LINE
  5
2B3F
100
AcDbEntity
  8
0
100
AcDbLine
 10
285.261144
 20
417.548673
 30
0.0
 11
285.261144
 21
448.696857
 31
0.0
  0
LINE
  5
2B40
100
AcDbEntity
  8
0
100
AcDbLine
 10
285.261144
 20
422.548673
 30
0.0
 11
282.411144
 21
422.548673
 31
0.0
  0
LINE
  5
2B41
100
AcDbEntity
  8
0
100
AcDbLine
 10
285.261144
 20
424.059484
 30
0.0
 11
285.255941
 21
424.059484
 31
0.0
  0
ARC
  5
2B42
100
AcDbEntity
  8
0
100
AcDbCircle
 10
284.261144
 20
417.548673
 30
0.0
 40
1.0
100
AcDbArc
 50
270.0
 51
0.0
  0
LINE
  5
2B43
100
AcDbEntity
  8
0
100
AcDbLine
 10
285.255941
 20
424.059484
 30
0.0
 11
282.411144
 21
422.548673
 31
0.0
  0
LINE
  5
2B44
100
AcDbEntity
  8
0
100
AcDbLine
 10
280.411144
 20
410.548673
 30
0.0
 11
282.411144
 21
422.548673
 31
0.0
  0
ARC
  5
2B45
100
AcDbEntity
  8
0
100
AcDbCircle
 10
286.261144
 20
448.696857
 30
0.0
 40
1.0
100
AcDbArc
 50
98.078104
 51
180.0
  0
LINE
  5
2B46
100
AcDbEntity
  8
0
100
AcDbLine
 10
291.561144
 20
417.548673
 30
0.0
 11
291.561144
 21
448.696857
 31
0.0
  0
LINE
  5
2B47
100
AcDbEntity
  8
0
100
AcDbLine
 10
294.411144
 20
422.548673
 30
0.0
 11
291.561144
 21
422.548673
 31
0.0
  0
ARC
  5
2B48
100
AcDbEntity
  8
0
100
AcDbCircle
 10
292.561144
 20
417.548673
 30
0.0
 40
1.0
100
AcDbArc
 50
180.0
 51
270.0
  0
LINE
  5
2B49
100
AcDbEntity
  8
0
100
AcDbLine
 10
294.411144
 20
422.548673
 30
0.0
 11
291.555941
 21
424.059484
 31
0.0
  0
LINE
  5
2B4A
100
AcDbEntity
  8
0
100
AcDbLine
 10
296.411144
 20
410.548673
 30
0.0
 11
294.411144
 21
422.548673
 31
0.0
  0
ARC
  5
2B4B
100
AcDbEntity
  8
0
100
AcDbCircle
 10
290.561144
 20
448.696857
 30
0.0
 40
1.0
100
AcDbArc
 50
0.0
 51
81.921896
  0
LINE
  5
2B4C
100
AcDbEntity
  8
0
100
AcDbLine
 10
552.470433
 20
541.135626
 30
0.0
 11
552.470433
 21
640.413015
 31
0.0
  0
LINE
  5
2B53
100
AcDbEntity
  8
0
100
AcDbLine
 10
420.430765
 20
595.650511
 30
0.0
 11
430.090015
 21
586.197136
 31
0.0
  0
LINE
  5
2B54
100
AcDbEntity
  8
0
100
AcDbLine
 10
382.821453
 20
586.197136
 30
0.0
 11
373.368078
 21
595.650511
 31
0.0
  0
LINE
  5
2B55
100
AcDbEntity
  8
0
100
AcDbLine
 10
430.090015
 20
586.197136
 30
0.0
 11
382.821453
 21
586.197136
 31
0.0
  0
LINE
  5
2B56
100
AcDbEntity
  8
0
100
AcDbLine
 10
401.728203
 20
595.650511
 30
0.0
 11
406.456578
 21
590.923823
 31
0.0
  0
LINE
  5
2B57
100
AcDbEntity
  8
0
100
AcDbLine
 10
373.368078
 20
595.650511
 30
0.0
 11
401.728203
 21
595.650511
 31
0.0
  0
LINE
  5
2B58
100
AcDbEntity
  8
0
100
AcDbLine
 10
406.456578
 20
590.923823
 30
0.0
 11
420.430765
 21
590.923823
 31
0.0
  0
LINE
  5
2B59
100
AcDbEntity
  8
0
100
AcDbLine
 10
420.430765
 20
590.923823
 30
0.0
 11
420.430765
 21
595.650511
 31
0.0
  0
LINE
  5
2B5D
100
AcDbEntity
  8
0
100
AcDbLine
 10
552.470433
 20
562.02432
 30
0.0
 11
547.676948
 21
562.02432
 31
0.0
  0
LINE
  5
2B5E
100
AcDbEntity
  8
0
100
AcDbLine
 10
547.099598
 20
618.52432
 30
0.0
 11
552.470433
 21
618.52432
 31
0.0
  0
LINE
  5
2B60
100
AcDbEntity
  8
0
100
AcDbLine
 10
535.376686
 20
564.27432
 30
0.0
 11
535.376686
 21
617.27432
 31
0.0
  0
LINE
  5
2B63
100
AcDbEntity
  8
0
100
AcDbLine
 10
546.127604
 20
564.707863
 30
0.0
 11
546.127604
 21
616.840778
 31
0.0
  0
ARC
  5
2B66
100
AcDbEntity
  8
0
100
AcDbCircle
 10
540.446313
 20
572.07506
 30
0.0
 40
9.303368
100
AcDbArc
 50
236.980541
 51
307.63799
  0
LINE
  5
2B67
100
AcDbEntity
  8
0
100
AcDbLine
 10
546.127604
 20
564.707863
 30
0.0
 11
547.676948
 21
562.02432
 31
0.0
  0
ARC
  5
2B6A
100
AcDbEntity
  8
0
100
AcDbCircle
 10
540.446313
 20
609.473581
 30
0.0
 40
9.303368
100
AcDbArc
 50
52.36201
 51
123.019459
  0
LINE
  5
2B6B
100
AcDbEntity
  8
0
100
AcDbLine
 10
546.127604
 20
616.840778
 30
0.0
 11
547.099598
 21
618.52432
 31
0.0
  0
LINE
  5
2B6C
100
AcDbEntity
  8
0
100
AcDbLine
 10
553.770433
 20
821.578542
 30
0.0
 11
553.770433
 21
891.578542
 31
0.0
  0
LINE
  5
2B76
100
AcDbEntity
  8
0
100
AcDbLine
 10
535.376686
 20
744.578542
 30
0.0
 11
535.376686
 21
797.578542
 31
0.0
  0
LINE
  5
2B77
100
AcDbEntity
  8
0
100
AcDbLine
 10
546.127604
 20
745.012084
 30
0.0
 11
546.127604
 21
797.144999
 31
0.0
  0
ARC
  5
2B7D
100
AcDbEntity
  8
0
100
AcDbCircle
 10
540.446313
 20
752.379281
 30
0.0
 40
9.303368
100
AcDbArc
 50
236.980541
 51
307.63799
  0
LINE
  5
2B7E
100
AcDbEntity
  8
0
100
AcDbLine
 10
546.127604
 20
745.012084
 30
0.0
 11
547.676948
 21
742.328542
 31
0.0
  0
ARC
  5
2B81
100
AcDbEntity
  8
0
100
AcDbCircle
 10
540.446313
 20
789.777802
 30
0.0
 40
9.303368
100
AcDbArc
 50
52.36201
 51
123.019459
  0
LINE
  5
2B82
100
AcDbEntity
  8
0
100
AcDbLine
 10
546.127604
 20
797.144999
 30
0.0
 11
547.099598
 21
798.828542
 31
0.0
  0
LINE
  5
2B83
100
AcDbEntity
  8
0
100
AcDbLine
 10
553.970433
 20
799.828542
 30
0.0
 11
553.970433
 21
821.578542
 31
0.0
  0
LINE
  5
2B84
100
AcDbEntity
  8
0
100
AcDbLine
 10
552.970433
 20
799.828542
 30
0.0
 11
553.970433
 21
799.828542
 31
0.0
  0
LINE
  5
2B85
100
AcDbEntity
  8
0
100
AcDbLine
 10
552.970433
 20
799.828542
 30
0.0
 11
551.970433
 21
798.828542
 31
0.0
  0
ARC
  5
2B86
100
AcDbEntity
  8
0
100
AcDbCircle
 10
573.770433
 20
891.578542
 30
0.0
 40
20.0
100
AcDbArc
 50
90.0
 51
180.0
  0
ARC
  5
2B87
100
AcDbEntity
  8
0
100
AcDbCircle
 10
1491.346042
 20
390.548673
 30
0.0
 40
20.0
100
AcDbArc
 50
90.0
 51
180.0
  0
ARC
  5
2B88
100
AcDbEntity
  8
0
100
AcDbCircle
 10
1157.9771
 20
393.513978
 30
0.0
 40
20.0
100
AcDbArc
 50
90.0
 51
180.0
  0
ARC
  5
2B89
100
AcDbEntity
  8
0
100
AcDbCircle
 10
1253.3771
 20
393.513978
 30
0.0
 40
20.0
100
AcDbArc
 50
0.0
 51
90.0
  0
ARC
  5
2B8A
100
AcDbEntity
  8
0
100
AcDbCircle
 10
852.685192
 20
390.548673
 30
0.0
 40
20.0
100
AcDbArc
 50
90.0
 51
180.0
  0
ARC
  5
2B8B
100
AcDbEntity
  8
0
100
AcDbCircle
 10
948.085192
 20
390.548673
 30
0.0
 40
20.0
100
AcDbArc
 50
0.0
 51
90.0
  0
ARC
  5
2B8C
100
AcDbEntity
  8
0
100
AcDbCircle
 10
669.170433
 20
390.548673
 30
0.0
 40
20.0
100
AcDbArc
 50
0.0
 51
90.0
  0
LINE
  5
2B8D
100
AcDbEntity
  8
0
100
AcDbLine
 10
696.813261
 20
296.11513
 30
0.0
 11
696.813261
 21
243.982215
 31
0.0
  0
LINE
  5
2B8E
100
AcDbEntity
  8
0
100
AcDbLine
 10
707.56418
 20
243.548673
 30
0.0
 11
707.56418
 21
296.548673
 31
0.0
  0
LINE
  5
2B8F
100
AcDbEntity
  8
0
100
AcDbLine
 10
707.56418
 20
243.548673
 30
0.0
 11
707.56418
 21
296.548673
 31
0.0
  0
TEXT
  5
2B95
100
AcDbEntity
  8
0
100
AcDbText
 10
605.532542
 20
185.198473
 30
0.0
 40
20.0
  1
15A
 41
0.8
 11
605.532542
 21
185.198473
 31
0.0
100
AcDbText
 73
     1
  0
ARC
  5
2B96
100
AcDbEntity
  8
0
100
AcDbCircle
 10
702.494553
 20
251.349412
 30
0.0
 40
9.303368
100
AcDbArc
 50
232.36201
 51
303.019459
  0
LINE
  5
2B97
100
AcDbEntity
  8
0
100
AcDbLine
 10
696.813261
 20
243.982215
 30
0.0
 11
695.263917
 21
241.298673
 31
0.0
  0
LINE
  5
2B9D
100
AcDbEntity
  8
0
100
AcDbLine
 10
689.170433
 20
320.548673
 30
0.0
 11
689.170433
 21
390.548673
 31
0.0
  0
LINE
  5
2B9E
100
AcDbEntity
  8
0
100
AcDbLine
 10
688.970433
 20
298.798673
 30
0.0
 11
688.970433
 21
320.548673
 31
0.0
  0
ARC
  5
2B9F
100
AcDbEntity
  8
0
100
AcDbCircle
 10
702.494553
 20
288.747933
 30
0.0
 40
9.303368
100
AcDbArc
 50
56.980541
 51
127.63799
  0
LINE
  5
2BA0
100
AcDbEntity
  8
0
100
AcDbLine
 10
689.970433
 20
298.798673
 30
0.0
 11
690.970433
 21
297.798673
 31
0.0
  0
LINE
  5
2BA1
100
AcDbEntity
  8
0
100
AcDbLine
 10
689.970433
 20
298.798673
 30
0.0
 11
688.970433
 21
298.798673
 31
0.0
  0
LINE
  5
2BA2
100
AcDbEntity
  8
0
100
AcDbLine
 10
696.813261
 20
296.11513
 30
0.0
 11
695.841267
 21
297.798673
 31
0.0
  0
LINE
  5
2BA8
100
AcDbEntity
  8
0
100
AcDbLine
 10
815.385192
 20
295.798673
 30
0.0
 11
815.385192
 21
243.298673
 31
0.0
  0
LINE
  5
2BA9
100
AcDbEntity
  8
0
100
AcDbLine
 10
985.385192
 20
295.798673
 30
0.0
 11
985.385192
 21
243.298673
 31
0.0
  0
LINE
  5
2BAD
100
AcDbEntity
  8
0
100
AcDbLine
 10
817.385192
 20
241.298673
 30
0.0
 11
847.152801
 21
241.298673
 31
0.0
  0
LINE
  5
2BAE
100
AcDbEntity
  8
0
100
AcDbLine
 10
846.120217
 20
243.298673
 30
0.0
 11
815.385192
 21
243.298673
 31
0.0
  0
LINE
  5
2BAF
100
AcDbEntity
  8
0
100
AcDbLine
 10
815.385192
 20
243.298673
 30
0.0
 11
817.385192
 21
241.298673
 31
0.0
  0
LINE
  5
2BB2
100
AcDbEntity
  8
0
100
AcDbLine
 10
953.617584
 20
241.298673
 30
0.0
 11
983.385192
 21
241.298673
 31
0.0
  0
LINE
  5
2BB3
100
AcDbEntity
  8
0
100
AcDbLine
 10
985.385192
 20
243.298673
 30
0.0
 11
954.650167
 21
243.298673
 31
0.0
  0
LINE
  5
2BB6
100
AcDbEntity
  8
0
100
AcDbLine
 10
985.385192
 20
243.298673
 30
0.0
 11
983.385192
 21
241.298673
 31
0.0
  0
LINE
  5
2BB7
100
AcDbEntity
  8
0
100
AcDbLine
 10
968.085192
 20
320.548673
 30
0.0
 11
933.701855
 21
320.548673
 31
0.0
  0
LINE
  5
2BB8
100
AcDbEntity
  8
0
100
AcDbLine
 10
832.885192
 20
320.548673
 30
0.0
 11
867.06853
 21
320.548673
 31
0.0
  0
LINE
  5
2BB9
100
AcDbEntity
  8
0
100
AcDbLine
 10
832.685192
 20
320.548673
 30
0.0
 11
832.685192
 21
390.548673
 31
0.0
  0
LINE
  5
2BBB
100
AcDbEntity
  8
0
100
AcDbLine
 10
817.385192
 20
297.798673
 30
0.0
 11
815.385192
 21
295.798673
 31
0.0
  0
LINE
  5
2BBC
100
AcDbEntity
  8
0
100
AcDbLine
 10
845.638617
 20
295.798673
 30
0.0
 11
815.385192
 21
295.798673
 31
0.0
  0
LINE
  5
2BBD
100
AcDbEntity
  8
0
100
AcDbLine
 10
817.385192
 20
297.798673
 30
0.0
 11
846.624728
 21
297.798673
 31
0.0
  0
LINE
  5
2BBE
100
AcDbEntity
  8
0
100
AcDbLine
 10
832.885192
 20
297.798673
 30
0.0
 11
832.885192
 21
320.548673
 31
0.0
  0
LINE
  5
2BC0
100
AcDbEntity
  8
0
100
AcDbLine
 10
968.085192
 20
320.548673
 30
0.0
 11
968.085192
 21
390.548673
 31
0.0
  0
LINE
  5
2BC1
100
AcDbEntity
  8
0
100
AcDbLine
 10
954.145656
 20
297.798673
 30
0.0
 11
983.385192
 21
297.798673
 31
0.0
  0
LINE
  5
2BC2
100
AcDbEntity
  8
0
100
AcDbLine
 10
985.385192
 20
295.798673
 30
0.0
 11
955.131768
 21
295.798673
 31
0.0
  0
LINE
  5
2BC5
100
AcDbEntity
  8
0
100
AcDbLine
 10
967.885192
 20
297.798673
 30
0.0
 11
967.885192
 21
320.548673
 31
0.0
  0
LINE
  5
2BC6
100
AcDbEntity
  8
0
100
AcDbLine
 10
983.385192
 20
297.798673
 30
0.0
 11
985.385192
 21
295.798673
 31
0.0
  0
LINE
  5
2BC7
100
AcDbEntity
  8
0
100
AcDbLine
 10
1290.6771
 20
298.763978
 30
0.0
 11
1290.6771
 21
246.263978
 31
0.0
  0
LINE
  5
2BCB
100
AcDbEntity
  8
0
100
AcDbLine
 10
1120.6771
 20
298.763978
 30
0.0
 11
1120.6771
 21
246.263978
 31
0.0
  0
LINE
  5
2BCC
100
AcDbEntity
  8
0
100
AcDbLine
 10
1147.380981
 20
244.263978
 30
0.0
 11
1122.6771
 21
244.263978
 31
0.0
  0
LINE
  5
2BCD
100
AcDbEntity
  8
0
100
AcDbLine
 10
1146.436594
 20
246.263978
 30
0.0
 11
1120.6771
 21
246.263978
 31
0.0
  0
LINE
  5
2BCE
100
AcDbEntity
  8
0
100
AcDbLine
 10
1120.6771
 20
246.263978
 30
0.0
 11
1122.6771
 21
244.263978
 31
0.0
  0
LINE
  5
2BD2
100
AcDbEntity
  8
0
100
AcDbLine
 10
1288.6771
 20
244.263978
 30
0.0
 11
1263.973219
 21
244.263978
 31
0.0
  0
LINE
  5
2BD3
100
AcDbEntity
  8
0
100
AcDbLine
 10
1290.6771
 20
246.263978
 30
0.0
 11
1264.917606
 21
246.263978
 31
0.0
  0
LINE
  5
2BD5
100
AcDbEntity
  8
0
100
AcDbLine
 10
1290.6771
 20
246.263978
 30
0.0
 11
1288.6771
 21
244.263978
 31
0.0
  0
LINE
  5
2BD6
100
AcDbEntity
  8
0
100
AcDbLine
 10
1137.9771
 20
323.513978
 30
0.0
 11
1164.753391
 21
323.513978
 31
0.0
  0
LINE
  5
2BD7
100
AcDbEntity
  8
0
100
AcDbLine
 10
1273.1771
 20
323.513978
 30
0.0
 11
1246.60081
 21
323.513978
 31
0.0
  0
LINE
  5
2BD8
100
AcDbEntity
  8
0
100
AcDbLine
 10
1137.9771
 20
323.513978
 30
0.0
 11
1137.9771
 21
393.513978
 31
0.0
  0
LINE
  5
2BD9
100
AcDbEntity
  8
0
100
AcDbLine
 10
1146.898384
 20
300.763978
 30
0.0
 11
1122.6771
 21
300.763978
 31
0.0
  0
LINE
  5
2BDA
100
AcDbEntity
  8
0
100
AcDbLine
 10
1145.99513
 20
298.763978
 30
0.0
 11
1120.6771
 21
298.763978
 31
0.0
  0
LINE
  5
2BDB
100
AcDbEntity
  8
0
100
AcDbLine
 10
1122.6771
 20
300.763978
 30
0.0
 11
1120.6771
 21
298.763978
 31
0.0
  0
LINE
  5
2BDF
100
AcDbEntity
  8
0
100
AcDbLine
 10
1138.1771
 20
301.763978
 30
0.0
 11
1138.1771
 21
323.513978
 31
0.0
  0
LINE
  5
2BE0
100
AcDbEntity
  8
0
100
AcDbLine
 10
1273.3771
 20
323.513978
 30
0.0
 11
1273.3771
 21
393.513978
 31
0.0
  0
LINE
  5
2BE3
100
AcDbEntity
  8
0
100
AcDbLine
 10
1288.6771
 20
300.763978
 30
0.0
 11
1264.455816
 21
300.763978
 31
0.0
  0
LINE
  5
2BE4
100
AcDbEntity
  8
0
100
AcDbLine
 10
1290.6771
 20
298.763978
 30
0.0
 11
1265.35907
 21
298.763978
 31
0.0
  0
LINE
  5
2BE6
100
AcDbEntity
  8
0
100
AcDbLine
 10
1288.6771
 20
300.763978
 30
0.0
 11
1290.6771
 21
298.763978
 31
0.0
  0
LINE
  5
2BE7
100
AcDbEntity
  8
0
100
AcDbLine
 10
1273.1771
 20
301.763978
 30
0.0
 11
1273.1771
 21
323.513978
 31
0.0
  0
LINE
  5
2BEA
100
AcDbEntity
  8
0
100
AcDbLine
 10
1452.952295
 20
243.548673
 30
0.0
 11
1452.952295
 21
296.548673
 31
0.0
  0
LINE
  5
2BEB
100
AcDbEntity
  8
0
100
AcDbLine
 10
1463.703214
 20
243.982215
 30
0.0
 11
1463.703214
 21
296.11513
 31
0.0
  0
LINE
  5
2BF2
100
AcDbEntity
  8
0
100
AcDbLine
 10
1463.703214
 20
243.982215
 30
0.0
 11
1465.252558
 21
241.298673
 31
0.0
  0
ARC
  5
2BF5
100
AcDbEntity
  8
0
100
AcDbCircle
 10
1458.021922
 20
251.349412
 30
0.0
 40
9.303368
100
AcDbArc
 50
236.980541
 51
307.63799
  0
LINE
  5
2BF7
100
AcDbEntity
  8
0
100
AcDbLine
 10
1359.558367
 20
262.629415
 30
0.0
 11
1312.289805
 21
262.629415
 31
0.0
  0
LINE
  5
2BF8
100
AcDbEntity
  8
0
100
AcDbLine
 10
1302.83643
 20
272.08279
 30
0.0
 11
1331.196555
 21
272.08279
 31
0.0
  0
LINE
  5
2BF9
100
AcDbEntity
  8
0
100
AcDbLine
 10
1312.289805
 20
262.629415
 30
0.0
 11
1302.83643
 21
272.08279
 31
0.0
  0
LINE
  5
2BFA
100
AcDbEntity
  8
0
100
AcDbLine
 10
1349.899117
 20
272.08279
 30
0.0
 11
1359.558367
 21
262.629415
 31
0.0
  0
LINE
  5
2BFB
100
AcDbEntity
  8
0
100
AcDbLine
 10
1335.92493
 20
267.356102
 30
0.0
 11
1349.899117
 21
267.356102
 31
0.0
  0
LINE
  5
2BFC
100
AcDbEntity
  8
0
100
AcDbLine
 10
1331.196555
 20
272.08279
 30
0.0
 11
1335.92493
 21
267.356102
 31
0.0
  0
LINE
  5
2BFD
100
AcDbEntity
  8
0
100
AcDbLine
 10
1349.899117
 20
267.356102
 30
0.0
 11
1349.899117
 21
272.08279
 31
0.0
  0
LINE
  5
2C01
100
AcDbEntity
  8
0
100
AcDbLine
 10
1471.346042
 20
320.548673
 30
0.0
 11
1471.346042
 21
390.548673
 31
0.0
  0
LINE
  5
2C02
100
AcDbEntity
  8
0
100
AcDbLine
 10
1463.703214
 20
296.11513
 30
0.0
 11
1464.675207
 21
297.798673
 31
0.0
  0
ARC
  5
2C05
100
AcDbEntity
  8
0
100
AcDbCircle
 10
1458.021922
 20
288.747933
 30
0.0
 40
9.303368
100
AcDbArc
 50
52.36201
 51
123.019459
  0
LINE
  5
2C06
100
AcDbEntity
  8
0
100
AcDbLine
 10
1471.546042
 20
298.798673
 30
0.0
 11
1471.546042
 21
320.548673
 31
0.0
  0
LINE
  5
2C07
100
AcDbEntity
  8
0
100
AcDbLine
 10
1470.546042
 20
298.798673
 30
0.0
 11
1469.546042
 21
297.798673
 31
0.0
  0
LINE
  5
2C08
100
AcDbEntity
  8
0
100
AcDbLine
 10
1470.546042
 20
298.798673
 30
0.0
 11
1471.546042
 21
298.798673
 31
0.0
  0
LINE
  5
2C0B
100
AcDbEntity
  8
0
100
AcDbLine
 10
690.470433
 20
541.135626
 30
0.0
 11
690.470433
 21
640.413015
 31
0.0
  0
ARC
  5
2C0C
100
AcDbEntity
  8
0
100
AcDbCircle
 10
621.470433
 20
433.548673
 30
0.0
 40
10.0
100
AcDbArc
 50
288.392229
 51
251.646371
  0
ARC
  5
2C0D
100
AcDbEntity
  8
0
100
AcDbCircle
 10
621.470433
 20
433.548673
 30
0.0
 40
16.3
100
AcDbArc
 50
309.353409
 51
230.646591
  0
ARC
  5
2C0E
100
AcDbEntity
  8
0
100
AcDbCircle
 10
636.87911
 20
414.758711
 30
0.0
 40
8.0
100
AcDbArc
 50
129.353409
 51
189.462322
  0
LINE
  5
2C0F
100
AcDbEntity
  8
0
100
AcDbLine
 10
615.470433
 20
422.548673
 30
0.0
 11
627.470433
 21
422.548673
 31
0.0
  0
LINE
  5
2C10
100
AcDbEntity
  8
0
100
AcDbLine
 10
618.325636
 20
424.059484
 30
0.0
 11
624.625636
 21
424.059484
 31
0.0
  0
ARC
  5
2C11
100
AcDbEntity
  8
0
100
AcDbCircle
 10
606.061756
 20
414.758711
 30
0.0
 40
8.0
100
AcDbArc
 50
350.537678
 51
50.646591
  0
LINE
  5
2C12
100
AcDbEntity
  8
0
100
AcDbLine
 10
615.470433
 20
422.548673
 30
0.0
 11
618.325636
 21
424.059484
 31
0.0
  0
LINE
  5
2C13
100
AcDbEntity
  8
0
100
AcDbLine
 10
624.625636
 20
424.059484
 30
0.0
 11
627.470433
 21
422.548673
 31
0.0
  0
LINE
  5
2C14
100
AcDbEntity
  8
0
100
AcDbLine
 10
613.470433
 20
410.548673
 30
0.0
 11
629.470433
 21
410.548673
 31
0.0
  0
LINE
  5
2C15
100
AcDbEntity
  8
0
100
AcDbLine
 10
613.470433
 20
410.548673
 30
0.0
 11
615.470433
 21
422.548673
 31
0.0
  0
LINE
  5
2C16
100
AcDbEntity
  8
0
100
AcDbLine
 10
629.470433
 20
410.548673
 30
0.0
 11
627.470433
 21
422.548673
 31
0.0
  0
ARC
  5
2C1A
100
AcDbEntity
  8
0
100
AcDbCircle
 10
608.320433
 20
590.77432
 30
0.0
 40
3.15
100
AcDbArc
 50
90.0
 51
270.0
  0
ARC
  5
2C1B
100
AcDbEntity
  8
0
100
AcDbCircle
 10
634.620433
 20
590.77432
 30
0.0
 40
3.15
100
AcDbArc
 50
270.0
 51
90.0
  0
LINE
  5
2C1C
100
AcDbEntity
  8
0
100
AcDbLine
 10
608.320433
 20
587.62432
 30
0.0
 11
634.620433
 21
587.62432
 31
0.0
  0
ARC
  5
2C1D
100
AcDbEntity
  8
0
100
AcDbCircle
 10
621.470433
 20
590.77432
 30
0.0
 40
6.0
100
AcDbArc
 50
211.668243
 51
328.331757
  0
ARC
  5
2C1E
100
AcDbEntity
  8
0
100
AcDbCircle
 10
621.470433
 20
590.77432
 30
0.0
 40
8.0
100
AcDbArc
 50
203.188038
 51
336.811962
  0
LINE
  5
2C1F
100
AcDbEntity
  8
0
100
AcDbLine
 10
608.320433
 20
593.92432
 30
0.0
 11
634.620433
 21
593.92432
 31
0.0
  0
ARC
  5
2C20
100
AcDbEntity
  8
0
100
AcDbCircle
 10
621.470433
 20
590.77432
 30
0.0
 40
8.0
100
AcDbArc
 50
23.188038
 51
156.811962
  0
ARC
  5
2C21
100
AcDbEntity
  8
0
100
AcDbCircle
 10
621.470433
 20
590.77432
 30
0.0
 40
6.0
100
AcDbArc
 50
31.668243
 51
148.331757
  0
LINE
  5
2C22
100
AcDbEntity
  8
0
100
AcDbLine
 10
696.813261
 20
616.840778
 30
0.0
 11
696.813261
 21
564.707863
 31
0.0
  0
LINE
  5
2C23
100
AcDbEntity
  8
0
100
AcDbLine
 10
707.56418
 20
564.27432
 30
0.0
 11
707.56418
 21
617.27432
 31
0.0
  0
ARC
  5
2C25
100
AcDbEntity
  8
0
100
AcDbCircle
 10
702.494553
 20
572.07506
 30
0.0
 40
9.303368
100
AcDbArc
 50
232.36201
 51
303.019459
  0
LINE
  5
2C26
100
AcDbEntity
  8
0
100
AcDbLine
 10
695.263917
 20
562.02432
 30
0.0
 11
690.470433
 21
562.02432
 31
0.0
  0
LINE
  5
2C27
100
AcDbEntity
  8
0
100
AcDbLine
 10
696.813261
 20
564.707863
 30
0.0
 11
695.263917
 21
562.02432
 31
0.0
  0
ARC
  5
2C28
100
AcDbEntity
  8
0
100
AcDbCircle
 10
702.494553
 20
609.473581
 30
0.0
 40
9.303368
100
AcDbArc
 50
56.980541
 51
127.63799
  0
LINE
  5
2C29
100
AcDbEntity
  8
0
100
AcDbLine
 10
690.470433
 20
618.52432
 30
0.0
 11
695.841267
 21
618.52432
 31
0.0
  0
LINE
  5
2C2A
100
AcDbEntity
  8
0
100
AcDbLine
 10
696.813261
 20
616.840778
 30
0.0
 11
695.841267
 21
618.52432
 31
0.0
  0
LINE
  5
2C35
100
AcDbEntity
  8
0
100
AcDbLine
 10
852.685192
 20
410.548673
 30
0.0
 11
948.085192
 21
410.548673
 31
0.0
  0
LINE
  5
2C36
100
AcDbEntity
  8
0
100
AcDbLine
 10
897.235192
 20
417.548673
 30
0.0
 11
897.235192
 21
448.696857
 31
0.0
  0
LINE
  5
2C37
100
AcDbEntity
  8
0
100
AcDbLine
 10
903.535192
 20
417.548673
 30
0.0
 11
903.535192
 21
448.696857
 31
0.0
  0
LINE
  5
2C38
100
AcDbEntity
  8
0
100
AcDbLine
 10
903.535192
 20
422.548673
 30
0.0
 11
906.385192
 21
422.548673
 31
0.0
  0
LINE
  5
2C39
100
AcDbEntity
  8
0
100
AcDbLine
 10
894.385192
 20
422.548673
 30
0.0
 11
897.235192
 21
422.548673
 31
0.0
  0
LINE
  5
2C3A
100
AcDbEntity
  8
0
100
AcDbLine
 10
903.535192
 20
424.059484
 30
0.0
 11
903.540396
 21
424.059484
 31
0.0
  0
ARC
  5
2C3B
100
AcDbEntity
  8
0
100
AcDbCircle
 10
904.535192
 20
417.548673
 30
0.0
 40
1.0
100
AcDbArc
 50
180.0
 51
270.0
  0
ARC
  5
2C3C
100
AcDbEntity
  8
0
100
AcDbCircle
 10
896.235192
 20
417.548673
 30
0.0
 40
1.0
100
AcDbArc
 50
270.0
 51
0.0
  0
LINE
  5
2C3D
100
AcDbEntity
  8
0
100
AcDbLine
 10
894.385192
 20
422.548673
 30
0.0
 11
897.240396
 21
424.059484
 31
0.0
  0
LINE
  5
2C3E
100
AcDbEntity
  8
0
100
AcDbLine
 10
903.540396
 20
424.059484
 30
0.0
 11
906.385192
 21
422.548673
 31
0.0
  0
LINE
  5
2C3F
100
AcDbEntity
  8
0
100
AcDbLine
 10
892.385192
 20
410.548673
 30
0.0
 11
908.385192
 21
410.548673
 31
0.0
  0
LINE
  5
2C40
100
AcDbEntity
  8
0
100
AcDbLine
 10
908.385192
 20
410.548673
 30
0.0
 11
906.385192
 21
422.548673
 31
0.0
  0
LINE
  5
2C41
100
AcDbEntity
  8
0
100
AcDbLine
 10
892.385192
 20
410.548673
 30
0.0
 11
894.385192
 21
422.548673
 31
0.0
  0
ARC
  5
2C42
100
AcDbEntity
  8
0
100
AcDbCircle
 10
900.385192
 20
433.548673
 30
0.0
 40
16.3
100
AcDbArc
 50
81.921896
 51
98.078104
  0
ARC
  5
2C43
100
AcDbEntity
  8
0
100
AcDbCircle
 10
902.535192
 20
448.696857
 30
0.0
 40
1.0
100
AcDbArc
 50
0.0
 51
81.921896
  0
ARC
  5
2C44
100
AcDbEntity
  8
0
100
AcDbCircle
 10
898.235192
 20
448.696857
 30
0.0
 40
1.0
100
AcDbArc
 50
98.078104
 51
180.0
  0
LINE
  5
2C45
100
AcDbEntity
  8
0
100
AcDbLine
 10
823.36167
 20
775.863939
 30
0.0
 11
813.70242
 21
766.410564
 31
0.0
  0
LINE
  5
2C46
100
AcDbEntity
  8
0
100
AcDbLine
 10
813.70242
 20
766.410564
 30
0.0
 11
860.970983
 21
766.410564
 31
0.0
  0
LINE
  5
2C47
100
AcDbEntity
  8
0
100
AcDbLine
 10
689.170433
 20
821.578542
 30
0.0
 11
689.170433
 21
891.578542
 31
0.0
  0
LINE
  5
2C4A
100
AcDbEntity
  8
0
100
AcDbLine
 10
696.813261
 20
797.144999
 30
0.0
 11
696.813261
 21
745.012084
 31
0.0
  0
LINE
  5
2C4B
100
AcDbEntity
  8
0
100
AcDbLine
 10
707.56418
 20
744.578542
 30
0.0
 11
707.56418
 21
797.578542
 31
0.0
  0
LINE
  5
2C4D
100
AcDbEntity
  8
0
100
AcDbLine
 10
696.813261
 20
745.012084
 30
0.0
 11
695.263917
 21
742.328542
 31
0.0
  0
ARC
  5
2C4E
100
AcDbEntity
  8
0
100
AcDbCircle
 10
702.494553
 20
752.379281
 30
0.0
 40
9.303368
100
AcDbArc
 50
232.36201
 51
303.019459
  0
LINE
  5
2C4F
100
AcDbEntity
  8
0
100
AcDbLine
 10
688.970433
 20
799.828542
 30
0.0
 11
688.970433
 21
821.578542
 31
0.0
  0
LINE
  5
2C50
100
AcDbEntity
  8
0
100
AcDbLine
 10
689.970433
 20
799.828542
 30
0.0
 11
690.970433
 21
798.828542
 31
0.0
  0
LINE
  5
2C51
100
AcDbEntity
  8
0
100
AcDbLine
 10
689.970433
 20
799.828542
 30
0.0
 11
688.970433
 21
799.828542
 31
0.0
  0
LINE
  5
2C52
100
AcDbEntity
  8
0
100
AcDbLine
 10
696.813261
 20
797.144999
 30
0.0
 11
695.841267
 21
798.828542
 31
0.0
  0
ARC
  5
2C53
100
AcDbEntity
  8
0
100
AcDbCircle
 10
702.494553
 20
789.777802
 30
0.0
 40
9.303368
100
AcDbArc
 50
56.980541
 51
127.63799
  0
LINE
  5
2C61
100
AcDbEntity
  8
0
100
AcDbLine
 10
613.470433
 20
911.578542
 30
0.0
 11
615.470433
 21
923.578542
 31
0.0
  0
ARC
  5
2C62
100
AcDbEntity
  8
0
100
AcDbCircle
 10
606.061756
 20
915.78858
 30
0.0
 40
8.0
100
AcDbArc
 50
350.537678
 51
50.646591
  0
LINE
  5
2C63
100
AcDbEntity
  8
0
100
AcDbLine
 10
629.470433
 20
911.578542
 30
0.0
 11
627.470433
 21
923.578542
 31
0.0
  0
ARC
  5
2C64
100
AcDbEntity
  8
0
100
AcDbCircle
 10
636.87911
 20
915.78858
 30
0.0
 40
8.0
100
AcDbArc
 50
129.353409
 51
189.462322
  0
ARC
  5
2C65
100
AcDbEntity
  8
0
100
AcDbCircle
 10
669.170433
 20
891.578542
 30
0.0
 40
20.0
100
AcDbArc
 50
0.0
 51
90.0
  0
LINE
  5
2C66
100
AcDbEntity
  8
0
100
AcDbLine
 10
613.470433
 20
911.578542
 30
0.0
 11
629.470433
 21
911.578542
 31
0.0
  0
ARC
  5
2C67
100
AcDbEntity
  8
0
100
AcDbCircle
 10
621.470433
 20
934.578542
 30
0.0
 40
16.3
100
AcDbArc
 50
309.353409
 51
230.646591
  0
ARC
  5
2C68
100
AcDbEntity
  8
0
100
AcDbCircle
 10
621.470433
 20
934.578542
 30
0.0
 40
10.0
100
AcDbArc
 50
288.392229
 51
251.646371
  0
LINE
  5
2C69
100
AcDbEntity
  8
0
100
AcDbLine
 10
615.470433
 20
923.578542
 30
0.0
 11
627.470433
 21
923.578542
 31
0.0
  0
LINE
  5
2C6A
100
AcDbEntity
  8
0
100
AcDbLine
 10
618.325636
 20
925.089353
 30
0.0
 11
624.625636
 21
925.089353
 31
0.0
  0
LINE
  5
2C6B
100
AcDbEntity
  8
0
100
AcDbLine
 10
615.470433
 20
923.578542
 30
0.0
 11
618.325636
 21
925.089353
 31
0.0
  0
LINE
  5
2C6C
100
AcDbEntity
  8
0
100
AcDbLine
 10
624.625636
 20
925.089353
 30
0.0
 11
627.470433
 21
923.578542
 31
0.0
  0
LINE
  5
2C6D
100
AcDbEntity
  8
0
100
AcDbLine
 10
860.970983
 20
766.410564
 30
0.0
 11
870.424358
 21
775.863939
 31
0.0
  0
LINE
  5
2C6E
100
AcDbEntity
  8
0
100
AcDbLine
 10
823.36167
 20
771.137252
 30
0.0
 11
823.36167
 21
775.863939
 31
0.0
  0
LINE
  5
2C6F
100
AcDbEntity
  8
0
100
AcDbLine
 10
842.064233
 20
775.863939
 30
0.0
 11
837.335858
 21
771.137252
 31
0.0
  0
LINE
  5
2C70
100
AcDbEntity
  8
0
100
AcDbLine
 10
837.335858
 20
771.137252
 30
0.0
 11
823.36167
 21
771.137252
 31
0.0
  0
LINE
  5
2C71
100
AcDbEntity
  8
0
100
AcDbLine
 10
870.424358
 20
775.863939
 30
0.0
 11
842.064233
 21
775.863939
 31
0.0
  0
LINE
  5
2C72
100
AcDbEntity
  8
0
100
AcDbLine
 10
1253.3771
 20
413.513978
 30
0.0
 11
1157.9771
 21
413.513978
 31
0.0
  0
LINE
  5
2C73
100
AcDbEntity
  8
0
100
AcDbLine
 10
1208.8271
 20
420.513978
 30
0.0
 11
1208.8271
 21
451.662163
 31
0.0
  0
LINE
  5
2C74
100
AcDbEntity
  8
0
100
AcDbLine
 10
1202.5271
 20
420.513978
 30
0.0
 11
1202.5271
 21
451.662163
 31
0.0
  0
LINE
  5
2C75
100
AcDbEntity
  8
0
100
AcDbLine
 10
1202.5271
 20
425.513978
 30
0.0
 11
1199.6771
 21
425.513978
 31
0.0
  0
LINE
  5
2C76
100
AcDbEntity
  8
0
100
AcDbLine
 10
1202.5271
 20
427.02479
 30
0.0
 11
1202.521897
 21
427.02479
 31
0.0
  0
ARC
  5
2C77
100
AcDbEntity
  8
0
100
AcDbCircle
 10
1201.5271
 20
420.513978
 30
0.0
 40
1.0
100
AcDbArc
 50
270.0
 51
0.0
  0
LINE
  5
2C78
100
AcDbEntity
  8
0
100
AcDbLine
 10
1202.521897
 20
427.02479
 30
0.0
 11
1199.6771
 21
425.513978
 31
0.0
  0
LINE
  5
2C79
100
AcDbEntity
  8
0
100
AcDbLine
 10
1211.6771
 20
425.513978
 30
0.0
 11
1208.8271
 21
425.513978
 31
0.0
  0
ARC
  5
2C7A
100
AcDbEntity
  8
0
100
AcDbCircle
 10
1209.8271
 20
420.513978
 30
0.0
 40
1.0
100
AcDbArc
 50
180.0
 51
270.0
  0
LINE
  5
2C7B
100
AcDbEntity
  8
0
100
AcDbLine
 10
1211.6771
 20
425.513978
 30
0.0
 11
1208.821897
 21
427.02479
 31
0.0
  0
LINE
  5
2C7C
100
AcDbEntity
  8
0
100
AcDbLine
 10
1213.6771
 20
413.513978
 30
0.0
 11
1197.6771
 21
413.513978
 31
0.0
  0
LINE
  5
2C7D
100
AcDbEntity
  8
0
100
AcDbLine
 10
1213.6771
 20
413.513978
 30
0.0
 11
1211.6771
 21
425.513978
 31
0.0
  0
LINE
  5
2C7E
100
AcDbEntity
  8
0
100
AcDbLine
 10
1197.6771
 20
413.513978
 30
0.0
 11
1199.6771
 21
425.513978
 31
0.0
  0
ARC
  5
2C7F
100
AcDbEntity
  8
0
100
AcDbCircle
 10
1205.6771
 20
436.513978
 30
0.0
 40
16.3
100
AcDbArc
 50
81.921896
 51
98.078104
  0
ARC
  5
2C80
100
AcDbEntity
  8
0
100
AcDbCircle
 10
1207.8271
 20
451.662163
 30
0.0
 40
1.0
100
AcDbArc
 50
0.0
 51
81.921896
  0
ARC
  5
2C81
100
AcDbEntity
  8
0
100
AcDbCircle
 10
1203.5271
 20
451.662163
 30
0.0
 40
1.0
100
AcDbArc
 50
98.078104
 51
180.0
  0
LINE
  5
2C82
100
AcDbEntity
  8
0
100
AcDbLine
 10
1470.046042
 20
541.135626
 30
0.0
 11
1470.046042
 21
640.413015
 31
0.0
  0
LINE
  5
2C89
100
AcDbEntity
  8
0
100
AcDbLine
 10
1341.074685
 20
595.650511
 30
0.0
 11
1350.733935
 21
586.197136
 31
0.0
  0
LINE
  5
2C8A
100
AcDbEntity
  8
0
100
AcDbLine
 10
1303.465373
 20
586.197136
 30
0.0
 11
1294.011998
 21
595.650511
 31
0.0
  0
LINE
  5
2C8B
100
AcDbEntity
  8
0
100
AcDbLine
 10
1350.733935
 20
586.197136
 30
0.0
 11
1303.465373
 21
586.197136
 31
0.0
  0
LINE
  5
2C8C
100
AcDbEntity
  8
0
100
AcDbLine
 10
1294.011998
 20
595.650511
 30
0.0
 11
1322.372123
 21
595.650511
 31
0.0
  0
LINE
  5
2C8D
100
AcDbEntity
  8
0
100
AcDbLine
 10
1327.100498
 20
590.923823
 30
0.0
 11
1341.074685
 21
590.923823
 31
0.0
  0
LINE
  5
2C8E
100
AcDbEntity
  8
0
100
AcDbLine
 10
1322.372123
 20
595.650511
 30
0.0
 11
1327.100498
 21
590.923823
 31
0.0
  0
LINE
  5
2C8F
100
AcDbEntity
  8
0
100
AcDbLine
 10
1341.074685
 20
590.923823
 30
0.0
 11
1341.074685
 21
595.650511
 31
0.0
  0
LINE
  5
2C93
100
AcDbEntity
  8
0
100
AcDbLine
 10
1463.703214
 20
564.707863
 30
0.0
 11
1465.252558
 21
562.02432
 31
0.0
  0
LINE
  5
2C94
100
AcDbEntity
  8
0
100
AcDbLine
 10
1463.703214
 20
616.840778
 30
0.0
 11
1464.675207
 21
618.52432
 31
0.0
  0
LINE
  5
2C95
100
AcDbEntity
  8
0
100
AcDbLine
 10
1424.546042
 20
568.77432
 30
0.0
 11
1424.546042
 21
612.77432
 31
0.0
  0
LINE
  5
2C96
100
AcDbEntity
  8
0
100
AcDbLine
 10
1429.046042
 20
564.27432
 30
0.0
 11
1429.046042
 21
617.27432
 31
0.0
  0
LINE
  5
2C97
100
AcDbEntity
  8
0
100
AcDbLine
 10
1452.952295
 20
564.27432
 30
0.0
 11
1452.952295
 21
617.27432
 31
0.0
  0
LINE
  5
2C99
100
AcDbEntity
  8
0
100
AcDbLine
 10
1463.703214
 20
564.707863
 30
0.0
 11
1463.703214
 21
616.840778
 31
0.0
  0
LINE
  5
2C9A
100
AcDbEntity
  8
0
100
AcDbLine
 10
1452.952295
 20
564.27432
 30
0.0
 11
1429.046042
 21
564.27432
 31
0.0
  0
LINE
  5
2C9B
100
AcDbEntity
  8
0
100
AcDbLine
 10
1429.046042
 20
564.27432
 30
0.0
 11
1424.546042
 21
568.77432
 31
0.0
  0
ARC
  5
2C9C
100
AcDbEntity
  8
0
100
AcDbCircle
 10
1458.021922
 20
572.07506
 30
0.0
 40
9.303368
100
AcDbArc
 50
236.980541
 51
307.63799
  0
LINE
  5
2C9D
100
AcDbEntity
  8
0
100
AcDbLine
 10
1452.952295
 20
617.27432
 30
0.0
 11
1429.046042
 21
617.27432
 31
0.0
  0
LINE
  5
2C9E
100
AcDbEntity
  8
0
100
AcDbLine
 10
1429.046042
 20
617.27432
 30
0.0
 11
1424.546042
 21
612.77432
 31
0.0
  0
ARC
  5
2C9F
100
AcDbEntity
  8
0
100
AcDbCircle
 10
1458.021922
 20
609.473581
 30
0.0
 40
9.303368
100
AcDbArc
 50
52.36201
 51
123.019459
  0
LINE
  5
2CA0
100
AcDbEntity
  8
0
100
AcDbLine
 10
1465.252558
 20
562.02432
 30
0.0
 11
1470.046042
 21
562.02432
 31
0.0
  0
LINE
  5
2CA1
100
AcDbEntity
  8
0
100
AcDbLine
 10
1470.046042
 20
618.52432
 30
0.0
 11
1464.675207
 21
618.52432
 31
0.0
  0
LINE
  5
2CA2
100
AcDbEntity
  8
0
100
AcDbLine
 10
1471.346042
 20
821.578542
 30
0.0
 11
1471.346042
 21
891.578542
 31
0.0
  0
LINE
  5
2CAC
100
AcDbEntity
  8
0
100
AcDbLine
 10
1424.546042
 20
749.078542
 30
0.0
 11
1424.546042
 21
793.078542
 31
0.0
  0
LINE
  5
2CAD
100
AcDbEntity
  8
0
100
AcDbLine
 10
1429.046042
 20
744.578542
 30
0.0
 11
1429.046042
 21
797.578542
 31
0.0
  0
LINE
  5
2CAE
100
AcDbEntity
  8
0
100
AcDbLine
 10
1452.952295
 20
744.578542
 30
0.0
 11
1452.952295
 21
797.578542
 31
0.0
  0
LINE
  5
2CAF
100
AcDbEntity
  8
0
100
AcDbLine
 10
1463.703214
 20
745.012084
 30
0.0
 11
1463.703214
 21
797.144999
 31
0.0
  0
LINE
  5
2CB1
100
AcDbEntity
  8
0
100
AcDbLine
 10
1463.703214
 20
745.012084
 30
0.0
 11
1465.252558
 21
742.328542
 31
0.0
  0
LINE
  5
2CB2
100
AcDbEntity
  8
0
100
AcDbLine
 10
1452.952295
 20
744.578542
 30
0.0
 11
1429.046042
 21
744.578542
 31
0.0
  0
LINE
  5
2CB3
100
AcDbEntity
  8
0
100
AcDbLine
 10
1429.046042
 20
744.578542
 30
0.0
 11
1424.546042
 21
749.078542
 31
0.0
  0
ARC
  5
2CB4
100
AcDbEntity
  8
0
100
AcDbCircle
 10
1458.021922
 20
752.379281
 30
0.0
 40
9.303368
100
AcDbArc
 50
236.980541
 51
307.63799
  0
LINE
  5
2CB5
100
AcDbEntity
  8
0
100
AcDbLine
 10
1463.703214
 20
797.144999
 30
0.0
 11
1464.675207
 21
798.828542
 31
0.0
  0
LINE
  5
2CB6
100
AcDbEntity
  8
0
100
AcDbLine
 10
1452.952295
 20
797.578542
 30
0.0
 11
1429.046042
 21
797.578542
 31
0.0
  0
LINE
  5
2CB7
100
AcDbEntity
  8
0
100
AcDbLine
 10
1429.046042
 20
797.578542
 30
0.0
 11
1424.546042
 21
793.078542
 31
0.0
  0
ARC
  5
2CB8
100
AcDbEntity
  8
0
100
AcDbCircle
 10
1458.021922
 20
789.777802
 30
0.0
 40
9.303368
100
AcDbArc
 50
52.36201
 51
123.019459
  0
LINE
  5
2CB9
100
AcDbEntity
  8
0
100
AcDbLine
 10
1471.546042
 20
799.828542
 30
0.0
 11
1471.546042
 21
821.578542
 31
0.0
  0
LINE
  5
2CBA
100
AcDbEntity
  8
0
100
AcDbLine
 10
1470.546042
 20
799.828542
 30
0.0
 11
1469.546042
 21
798.828542
 31
0.0
  0
LINE
  5
2CBB
100
AcDbEntity
  8
0
100
AcDbLine
 10
1470.546042
 20
799.828542
 30
0.0
 11
1471.546042
 21
799.828542
 31
0.0
  0
ARC
  5
2CBC
100
AcDbEntity
  8
0
100
AcDbCircle
 10
1491.346042
 20
891.578542
 30
0.0
 40
20.0
100
AcDbArc
 50
90.0
 51
180.0
  0
LINE
  5
2CBD
100
AcDbEntity
  8
0
100
AcDbLine
 10
533.568597
 20
1818.703902
 30
0.0
 11
628.968597
 21
1818.703902
 31
0.0
  0
LINE
  5
2CBE
100
AcDbEntity
  8
0
100
AcDbLine
 10
513.768597
 20
1728.703902
 30
0.0
 11
648.768597
 21
1728.703902
 31
0.0
  0
LINE
  5
2CBF
100
AcDbEntity
  8
0
100
AcDbLine
 10
512.768597
 20
1649.453902
 30
0.0
 11
649.768597
 21
1649.453902
 31
0.0
  0
LINE
  5
2CC0
100
AcDbEntity
  8
0
100
AcDbLine
 10
502.268597
 20
1705.953902
 30
0.0
 11
660.268597
 21
1705.953902
 31
0.0
  0
LINE
  5
2CC1
100
AcDbEntity
  8
0
100
AcDbLine
 10
648.968597
 20
1728.703902
 30
0.0
 11
513.568597
 21
1728.703902
 31
0.0
  0
ARC
  5
2CC2
100
AcDbEntity
  8
0
100
AcDbCircle
 10
581.268597
 20
1497.899681
 30
0.0
 40
83.0
100
AcDbArc
 50
33.76488
 51
146.23512
  0
ARC
  5
2CC3
100
AcDbEntity
  8
0
100
AcDbCircle
 10
581.268597
 20
1497.899681
 30
0.0
 40
85.0
100
AcDbArc
 50
35.731292
 51
144.268708
  0
ARC
  5
2CC4
100
AcDbEntity
  8
0
100
AcDbCircle
 10
581.268597
 20
1497.899681
 30
0.0
 40
83.0
100
AcDbArc
 50
213.76488
 51
326.23512
  0
ARC
  5
2CC5
100
AcDbEntity
  8
0
100
AcDbCircle
 10
581.268597
 20
1497.899681
 30
0.0
 40
85.0
100
AcDbArc
 50
215.731292
 51
324.268708
  0
LINE
  5
2CC6
100
AcDbEntity
  8
0
100
AcDbLine
 10
648.968597
 20
1227.674033
 30
0.0
 11
513.568597
 21
1227.674033
 31
0.0
  0
LINE
  5
2CC7
100
AcDbEntity
  8
0
100
AcDbLine
 10
502.268597
 20
1204.924033
 30
0.0
 11
660.268597
 21
1204.924033
 31
0.0
  0
LINE
  5
2CC8
100
AcDbEntity
  8
0
100
AcDbLine
 10
533.568597
 20
1317.674033
 30
0.0
 11
628.968597
 21
1317.674033
 31
0.0
  0
LINE
  5
2CC9
100
AcDbEntity
  8
0
100
AcDbLine
 10
513.768597
 20
1227.674033
 30
0.0
 11
648.768597
 21
1227.674033
 31
0.0
  0
CIRCLE
  5
2CCA
100
AcDbEntity
  8
0
100
AcDbCircle
 10
581.268597
 20
1497.899681
 30
0.0
 40
67.7
  0
TEXT
  5
2CCB
100
AcDbEntity
  8
0
100
AcDbText
 10
507.049369
 20
1098.739774
 30
0.0
 40
20.0
  1
15A,20A,25A
 41
0.8
 11
507.049369
 21
1098.739774
 31
0.0
100
AcDbText
 73
     1
  0
TEXT
  5
2CCC
100
AcDbEntity
  8
0
100
AcDbText
 10
382.666769
 20
1039.739147
 30
0.0
 40
35.0
  1
TLV  HR260A (SW)
100
AcDbText
  0
LINE
  5
2CCD
100
AcDbEntity
  8
0
100
AcDbLine
 10
512.768597
 20
1148.424033
 30
0.0
 11
649.768597
 21
1148.424033
 31
0.0
  0
TEXT
  5
2CCE
100
AcDbEntity
  8
0
100
AcDbText
 10
136.301159
 20
1488.667008
 30
0.0
 40
25.0
  1
平面
100
AcDbText
  0
TEXT
  5
2CCF
100
AcDbEntity
  8
0
100
AcDbText
 10
136.301159
 20
1249.271621
 30
0.0
 40
25.0
  1
正面
100
AcDbText
  0
LINE
  5
2CD0
100
AcDbEntity
  8
0
100
AcDbLine
 10
513.568597
 20
1227.674033
 30
0.0
 11
513.568597
 21
1297.674033
 31
0.0
  0
LINE
  5
2CD1
100
AcDbEntity
  8
0
100
AcDbLine
 10
392.267049
 20
1227.674033
 30
0.0
 11
392.267049
 21
1297.674033
 31
0.0
  0
LINE
  5
2CD2
100
AcDbEntity
  8
0
100
AcDbLine
 10
256.867049
 20
1227.674033
 30
0.0
 11
256.867049
 21
1297.674033
 31
0.0
  0
LINE
  5
2CD3
100
AcDbEntity
  8
0
100
AcDbLine
 10
409.567049
 20
1202.924033
 30
0.0
 11
374.205743
 21
1202.924033
 31
0.0
  0
LINE
  5
2CD4
100
AcDbEntity
  8
0
100
AcDbLine
 10
407.567049
 20
1204.924033
 30
0.0
 11
241.567049
 21
1204.924033
 31
0.0
  0
LINE
  5
2CD5
100
AcDbEntity
  8
0
100
AcDbLine
 10
409.567049
 20
1150.424033
 30
0.0
 11
374.205743
 21
1150.424033
 31
0.0
  0
LINE
  5
2CD6
100
AcDbEntity
  8
0
100
AcDbLine
 10
407.567049
 20
1148.424033
 30
0.0
 11
241.567049
 21
1148.424033
 31
0.0
  0
LINE
  5
2CD7
100
AcDbEntity
  8
0
100
AcDbLine
 10
256.867049
 20
1227.674033
 30
0.0
 11
392.267049
 21
1227.674033
 31
0.0
  0
LINE
  5
2CD8
100
AcDbEntity
  8
0
100
AcDbLine
 10
392.067049
 20
1227.674033
 30
0.0
 11
257.067049
 21
1227.674033
 31
0.0
  0
LINE
  5
2CD9
100
AcDbEntity
  8
0
100
AcDbLine
 10
257.067049
 20
1205.924033
 30
0.0
 11
257.067049
 21
1227.674033
 31
0.0
  0
LINE
  5
2CDA
100
AcDbEntity
  8
0
100
AcDbLine
 10
278.436798
 20
1202.924033
 30
0.0
 11
278.436798
 21
1150.424033
 31
0.0
  0
LINE
  5
2CDB
100
AcDbEntity
  8
0
100
AcDbLine
 10
239.567049
 20
1202.924033
 30
0.0
 11
239.567049
 21
1150.424033
 31
0.0
  0
LINE
  5
2CDC
100
AcDbEntity
  8
0
100
AcDbLine
 10
278.436798
 20
1150.424033
 30
0.0
 11
239.567049
 21
1150.424033
 31
0.0
  0
LINE
  5
2CDD
100
AcDbEntity
  8
0
100
AcDbLine
 10
239.567049
 20
1150.424033
 30
0.0
 11
241.567049
 21
1148.424033
 31
0.0
  0
LINE
  5
2CDE
100
AcDbEntity
  8
0
100
AcDbLine
 10
278.436798
 20
1150.424033
 30
0.0
 11
280.436798
 21
1148.424033
 31
0.0
  0
LINE
  5
2CDF
100
AcDbEntity
  8
0
100
AcDbLine
 10
278.436798
 20
1202.924033
 30
0.0
 11
239.567049
 21
1202.924033
 31
0.0
  0
LINE
  5
2CE0
100
AcDbEntity
  8
0
100
AcDbLine
 10
241.567049
 20
1204.924033
 30
0.0
 11
239.567049
 21
1202.924033
 31
0.0
  0
LINE
  5
2CE1
100
AcDbEntity
  8
0
100
AcDbLine
 10
280.436798
 20
1204.924033
 30
0.0
 11
278.436798
 21
1202.924033
 31
0.0
  0
LINE
  5
2CE2
100
AcDbEntity
  8
0
100
AcDbLine
 10
392.067049
 20
1205.924033
 30
0.0
 11
392.067049
 21
1227.674033
 31
0.0
  0
CIRCLE
  5
2CE3
100
AcDbEntity
  8
0
100
AcDbCircle
 10
324.567049
 20
1177.174033
 30
0.0
 40
27.75
  0
CIRCLE
  5
2CE4
100
AcDbEntity
  8
0
100
AcDbCircle
 10
324.567049
 20
1177.174033
 30
0.0
 40
26.75
  0
LINE
  5
2CE5
100
AcDbEntity
  8
0
100
AcDbLine
 10
374.205743
 20
1202.924033
 30
0.0
 11
374.205743
 21
1150.424033
 31
0.0
  0
LINE
  5
2CE6
100
AcDbEntity
  8
0
100
AcDbLine
 10
372.205743
 20
1148.424033
 30
0.0
 11
374.205743
 21
1150.424033
 31
0.0
  0
LINE
  5
2CE7
100
AcDbEntity
  8
0
100
AcDbLine
 10
372.205743
 20
1204.924033
 30
0.0
 11
374.205743
 21
1202.924033
 31
0.0
  0
LINE
  5
2CE8
100
AcDbEntity
  8
0
100
AcDbLine
 10
409.567049
 20
1202.924033
 30
0.0
 11
409.567049
 21
1150.424033
 31
0.0
  0
LINE
  5
2CE9
100
AcDbEntity
  8
0
100
AcDbLine
 10
409.567049
 20
1150.424033
 30
0.0
 11
407.567049
 21
1148.424033
 31
0.0
  0
LINE
  5
2CEA
100
AcDbEntity
  8
0
100
AcDbLine
 10
407.567049
 20
1204.924033
 30
0.0
 11
409.567049
 21
1202.924033
 31
0.0
  0
LINE
  5
2CEB
100
AcDbEntity
  8
0
100
AcDbLine
 10
483.979305
 20
1179.934784
 30
0.0
 11
493.638555
 21
1170.481409
 31
0.0
  0
LINE
  5
2CEC
100
AcDbEntity
  8
0
100
AcDbLine
 10
446.369992
 20
1170.481409
 30
0.0
 11
436.916617
 21
1179.934784
 31
0.0
  0
LINE
  5
2CED
100
AcDbEntity
  8
0
100
AcDbLine
 10
493.638555
 20
1170.481409
 30
0.0
 11
446.369992
 21
1170.481409
 31
0.0
  0
LINE
  5
2CEE
100
AcDbEntity
  8
0
100
AcDbLine
 10
470.005117
 20
1175.208096
 30
0.0
 11
483.979305
 21
1175.208096
 31
0.0
  0
LINE
  5
2CEF
100
AcDbEntity
  8
0
100
AcDbLine
 10
465.276742
 20
1179.934784
 30
0.0
 11
470.005117
 21
1175.208096
 31
0.0
  0
LINE
  5
2CF0
100
AcDbEntity
  8
0
100
AcDbLine
 10
436.916617
 20
1179.934784
 30
0.0
 11
465.276742
 21
1179.934784
 31
0.0
  0
LINE
  5
2CF1
100
AcDbEntity
  8
0
100
AcDbLine
 10
483.979305
 20
1175.208096
 30
0.0
 11
483.979305
 21
1179.934784
 31
0.0
  0
LINE
  5
2CF2
100
AcDbEntity
  8
0
100
AcDbLine
 10
513.768597
 20
1205.924033
 30
0.0
 11
513.768597
 21
1227.674033
 31
0.0
  0
LINE
  5
2CF3
100
AcDbEntity
  8
0
100
AcDbLine
 10
501.268597
 20
1150.424033
 30
0.0
 11
501.268597
 21
1177.174033
 31
0.0
  0
LINE
  5
2CF4
100
AcDbEntity
  8
0
100
AcDbLine
 10
512.768597
 20
1148.424033
 30
0.0
 11
511.768597
 21
1149.424033
 31
0.0
  0
LINE
  5
2CF5
100
AcDbEntity
  8
0
100
AcDbLine
 10
512.768597
 20
1148.424033
 30
0.0
 11
513.768597
 21
1148.424033
 31
0.0
  0
LINE
  5
2CF6
100
AcDbEntity
  8
0
100
AcDbLine
 10
501.268597
 20
1150.424033
 30
0.0
 11
502.268597
 21
1149.424033
 31
0.0
  0
LINE
  5
2CF7
100
AcDbEntity
  8
0
100
AcDbLine
 10
511.768597
 20
1149.424033
 30
0.0
 11
502.268597
 21
1149.424033
 31
0.0
  0
LINE
  5
2CF8
100
AcDbEntity
  8
0
100
AcDbLine
 10
512.768597
 20
1205.924033
 30
0.0
 11
513.768597
 21
1205.924033
 31
0.0
  0
LINE
  5
2CF9
100
AcDbEntity
  8
0
100
AcDbLine
 10
512.768597
 20
1205.924033
 30
0.0
 11
511.768597
 21
1204.924033
 31
0.0
  0
LINE
  5
2CFA
100
AcDbEntity
  8
0
100
AcDbLine
 10
501.268597
 20
1177.174033
 30
0.0
 11
501.268597
 21
1203.924033
 31
0.0
  0
LINE
  5
2CFB
100
AcDbEntity
  8
0
100
AcDbLine
 10
501.268597
 20
1203.924033
 30
0.0
 11
502.268597
 21
1204.924033
 31
0.0
  0
ARC
  5
2CFC
100
AcDbEntity
  8
0
100
AcDbCircle
 10
372.267049
 20
1297.674033
 30
0.0
 40
20.0
100
AcDbArc
 50
0.0
 51
90.0
  0
LINE
  5
2CFD
100
AcDbEntity
  8
0
100
AcDbLine
 10
372.267049
 20
1317.674033
 30
0.0
 11
276.867049
 21
1317.674033
 31
0.0
  0
ARC
  5
2CFE
100
AcDbEntity
  8
0
100
AcDbCircle
 10
276.867049
 20
1297.674033
 30
0.0
 40
20.0
100
AcDbArc
 50
90.0
 51
180.0
  0
LINE
  5
2CFF
100
AcDbEntity
  8
0
100
AcDbLine
 10
327.717049
 20
1324.674033
 30
0.0
 11
327.717049
 21
1355.822218
 31
0.0
  0
LINE
  5
2D00
100
AcDbEntity
  8
0
100
AcDbLine
 10
321.417049
 20
1324.674033
 30
0.0
 11
321.417049
 21
1355.822218
 31
0.0
  0
LINE
  5
2D01
100
AcDbEntity
  8
0
100
AcDbLine
 10
330.567049
 20
1329.674033
 30
0.0
 11
327.717049
 21
1329.674033
 31
0.0
  0
LINE
  5
2D02
100
AcDbEntity
  8
0
100
AcDbLine
 10
330.567049
 20
1329.674033
 30
0.0
 11
327.711845
 21
1331.184845
 31
0.0
  0
LINE
  5
2D03
100
AcDbEntity
  8
0
100
AcDbLine
 10
321.417049
 20
1329.674033
 30
0.0
 11
318.567049
 21
1329.674033
 31
0.0
  0
LINE
  5
2D04
100
AcDbEntity
  8
0
100
AcDbLine
 10
321.417049
 20
1331.184845
 30
0.0
 11
321.411845
 21
1331.184845
 31
0.0
  0
ARC
  5
2D05
100
AcDbEntity
  8
0
100
AcDbCircle
 10
320.417049
 20
1324.674033
 30
0.0
 40
1.0
100
AcDbArc
 50
270.0
 51
0.0
  0
LINE
  5
2D06
100
AcDbEntity
  8
0
100
AcDbLine
 10
321.411845
 20
1331.184845
 30
0.0
 11
318.567049
 21
1329.674033
 31
0.0
  0
ARC
  5
2D07
100
AcDbEntity
  8
0
100
AcDbCircle
 10
328.717049
 20
1324.674033
 30
0.0
 40
1.0
100
AcDbArc
 50
180.0
 51
270.0
  0
LINE
  5
2D08
100
AcDbEntity
  8
0
100
AcDbLine
 10
332.567049
 20
1317.674033
 30
0.0
 11
316.567049
 21
1317.674033
 31
0.0
  0
LINE
  5
2D09
100
AcDbEntity
  8
0
100
AcDbLine
 10
316.567049
 20
1317.674033
 30
0.0
 11
318.567049
 21
1329.674033
 31
0.0
  0
LINE
  5
2D0A
100
AcDbEntity
  8
0
100
AcDbLine
 10
332.567049
 20
1317.674033
 30
0.0
 11
330.567049
 21
1329.674033
 31
0.0
  0
ARC
  5
2D0B
100
AcDbEntity
  8
0
100
AcDbCircle
 10
324.567049
 20
1340.674033
 30
0.0
 40
16.3
100
AcDbArc
 50
81.921896
 51
98.078104
  0
ARC
  5
2D0C
100
AcDbEntity
  8
0
100
AcDbCircle
 10
322.417049
 20
1355.822218
 30
0.0
 40
1.0
100
AcDbArc
 50
98.078104
 51
180.0
  0
ARC
  5
2D0D
100
AcDbEntity
  8
0
100
AcDbCircle
 10
326.717049
 20
1355.822218
 30
0.0
 40
1.0
100
AcDbArc
 50
0.0
 51
81.921896
  0
ARC
  5
2D0E
100
AcDbEntity
  8
0
100
AcDbCircle
 10
581.268597
 20
1340.674033
 30
0.0
 40
16.3
100
AcDbArc
 50
309.353409
 51
230.646591
  0
ARC
  5
2D0F
100
AcDbEntity
  8
0
100
AcDbCircle
 10
533.568597
 20
1297.674033
 30
0.0
 40
20.0
100
AcDbArc
 50
90.0
 51
180.0
  0
LINE
  5
2D10
100
AcDbEntity
  8
0
100
AcDbLine
 10
575.268597
 20
1329.674033
 30
0.0
 11
578.1238
 21
1331.184845
 31
0.0
  0
LINE
  5
2D11
100
AcDbEntity
  8
0
100
AcDbLine
 10
573.268597
 20
1317.674033
 30
0.0
 11
589.268597
 21
1317.674033
 31
0.0
  0
LINE
  5
2D12
100
AcDbEntity
  8
0
100
AcDbLine
 10
575.268597
 20
1329.674033
 30
0.0
 11
587.268597
 21
1329.674033
 31
0.0
  0
ARC
  5
2D13
100
AcDbEntity
  8
0
100
AcDbCircle
 10
581.268597
 20
1340.674033
 30
0.0
 40
10.0
100
AcDbArc
 50
288.392229
 51
251.646371
  0
ARC
  5
2D14
100
AcDbEntity
  8
0
100
AcDbCircle
 10
565.85992
 20
1321.884071
 30
0.0
 40
8.0
100
AcDbArc
 50
350.537678
 51
50.646591
  0
LINE
  5
2D15
100
AcDbEntity
  8
0
100
AcDbLine
 10
573.268597
 20
1317.674033
 30
0.0
 11
575.268597
 21
1329.674033
 31
0.0
  0
ARC
  5
2D16
100
AcDbEntity
  8
0
100
AcDbCircle
 10
596.677274
 20
1321.884071
 30
0.0
 40
8.0
100
AcDbArc
 50
129.353409
 51
189.462322
  0
LINE
  5
2D17
100
AcDbEntity
  8
0
100
AcDbLine
 10
584.4238
 20
1331.184845
 30
0.0
 11
587.268597
 21
1329.674033
 31
0.0
  0
LINE
  5
2D18
100
AcDbEntity
  8
0
100
AcDbLine
 10
589.268597
 20
1317.674033
 30
0.0
 11
587.268597
 21
1329.674033
 31
0.0
  0
LINE
  5
2D19
100
AcDbEntity
  8
0
100
AcDbLine
 10
578.1238
 20
1331.184845
 30
0.0
 11
584.4238
 21
1331.184845
 31
0.0
  0
LINE
  5
2D1A
100
AcDbEntity
  8
0
100
AcDbLine
 10
474.009754
 20
1503.502505
 30
0.0
 11
483.669004
 21
1494.04913
 31
0.0
  0
LINE
  5
2D1B
100
AcDbEntity
  8
0
100
AcDbLine
 10
455.307191
 20
1503.502505
 30
0.0
 11
460.035566
 21
1498.775817
 31
0.0
  0
LINE
  5
2D1C
100
AcDbEntity
  8
0
100
AcDbLine
 10
436.400441
 20
1494.04913
 30
0.0
 11
426.947066
 21
1503.502505
 31
0.0
  0
LINE
  5
2D1D
100
AcDbEntity
  8
0
100
AcDbLine
 10
474.009754
 20
1498.775817
 30
0.0
 11
474.009754
 21
1503.502505
 31
0.0
  0
LINE
  5
2D1E
100
AcDbEntity
  8
0
100
AcDbLine
 10
483.669004
 20
1494.04913
 30
0.0
 11
436.400441
 21
1494.04913
 31
0.0
  0
LINE
  5
2D1F
100
AcDbEntity
  8
0
100
AcDbLine
 10
460.035566
 20
1498.775817
 30
0.0
 11
474.009754
 21
1498.775817
 31
0.0
  0
LINE
  5
2D20
100
AcDbEntity
  8
0
100
AcDbLine
 10
426.947066
 20
1503.502505
 30
0.0
 11
455.307191
 21
1503.502505
 31
0.0
  0
ARC
  5
2D21
100
AcDbEntity
  8
0
100
AcDbCircle
 10
594.418597
 20
1497.899681
 30
0.0
 40
3.15
100
AcDbArc
 50
270.0
 51
90.0
  0
ARC
  5
2D22
100
AcDbEntity
  8
0
100
AcDbCircle
 10
568.118597
 20
1497.899681
 30
0.0
 40
3.15
100
AcDbArc
 50
90.0
 51
270.0
  0
LINE
  5
2D23
100
AcDbEntity
  8
0
100
AcDbLine
 10
501.268597
 20
1497.899681
 30
0.0
 11
501.268597
 21
1524.649681
 31
0.0
  0
LINE
  5
2D24
100
AcDbEntity
  8
0
100
AcDbLine
 10
502.268597
 20
1525.649681
 30
0.0
 11
502.268597
 21
1470.149681
 31
0.0
  0
LINE
  5
2D25
100
AcDbEntity
  8
0
100
AcDbLine
 10
512.268597
 20
1448.260987
 30
0.0
 11
512.268597
 21
1547.538376
 31
0.0
  0
LINE
  5
2D26
100
AcDbEntity
  8
0
100
AcDbLine
 10
501.268597
 20
1471.149681
 30
0.0
 11
501.268597
 21
1497.899681
 31
0.0
  0
LINE
  5
2D27
100
AcDbEntity
  8
0
100
AcDbLine
 10
501.268597
 20
1471.149681
 30
0.0
 11
502.268597
 21
1470.149681
 31
0.0
  0
LINE
  5
2D28
100
AcDbEntity
  8
0
100
AcDbLine
 10
512.268597
 20
1470.149681
 30
0.0
 11
502.268597
 21
1470.149681
 31
0.0
  0
LINE
  5
2D29
100
AcDbEntity
  8
0
100
AcDbLine
 10
568.118597
 20
1494.749681
 30
0.0
 11
594.418597
 21
1494.749681
 31
0.0
  0
ARC
  5
2D2A
100
AcDbEntity
  8
0
100
AcDbCircle
 10
581.268597
 20
1497.899681
 30
0.0
 40
8.0
100
AcDbArc
 50
203.188038
 51
336.811962
  0
ARC
  5
2D2B
100
AcDbEntity
  8
0
100
AcDbCircle
 10
581.268597
 20
1497.899681
 30
0.0
 40
6.0
100
AcDbArc
 50
211.668243
 51
328.331757
  0
LINE
  5
2D2C
100
AcDbEntity
  8
0
100
AcDbLine
 10
502.268597
 20
1525.649681
 30
0.0
 11
501.268597
 21
1524.649681
 31
0.0
  0
LINE
  5
2D2D
100
AcDbEntity
  8
0
100
AcDbLine
 10
512.268597
 20
1525.649681
 30
0.0
 11
502.268597
 21
1525.649681
 31
0.0
  0
ARC
  5
2D2E
100
AcDbEntity
  8
0
100
AcDbCircle
 10
581.268597
 20
1497.899681
 30
0.0
 40
6.0
100
AcDbArc
 50
31.668243
 51
148.331757
  0
ARC
  5
2D2F
100
AcDbEntity
  8
0
100
AcDbCircle
 10
581.268597
 20
1497.899681
 30
0.0
 40
8.0
100
AcDbArc
 50
23.188038
 51
156.811962
  0
LINE
  5
2D30
100
AcDbEntity
  8
0
100
AcDbLine
 10
568.118597
 20
1501.049681
 30
0.0
 11
594.418597
 21
1501.049681
 31
0.0
  0
TEXT
  5
2D31
100
AcDbEntity
  8
0
100
AcDbText
 10
136.301159
 20
1713.817916
 30
0.0
 40
25.0
  1
背面
100
AcDbText
  0
LINE
  5
2D32
100
AcDbEntity
  8
0
100
AcDbLine
 10
513.768597
 20
1706.953902
 30
0.0
 11
513.768597
 21
1728.703902
 31
0.0
  0
LINE
  5
2D33
100
AcDbEntity
  8
0
100
AcDbLine
 10
501.268597
 20
1678.203902
 30
0.0
 11
501.268597
 21
1704.953902
 31
0.0
  0
LINE
  5
2D34
100
AcDbEntity
  8
0
100
AcDbLine
 10
512.768597
 20
1649.453902
 30
0.0
 11
513.768597
 21
1649.453902
 31
0.0
  0
LINE
  5
2D35
100
AcDbEntity
  8
0
100
AcDbLine
 10
512.768597
 20
1649.453902
 30
0.0
 11
511.768597
 21
1650.453902
 31
0.0
  0
LINE
  5
2D36
100
AcDbEntity
  8
0
100
AcDbLine
 10
501.268597
 20
1651.453902
 30
0.0
 11
502.268597
 21
1650.453902
 31
0.0
  0
LINE
  5
2D37
100
AcDbEntity
  8
0
100
AcDbLine
 10
511.768597
 20
1650.453902
 30
0.0
 11
502.268597
 21
1650.453902
 31
0.0
  0
LINE
  5
2D38
100
AcDbEntity
  8
0
100
AcDbLine
 10
501.268597
 20
1651.453902
 30
0.0
 11
501.268597
 21
1678.203902
 31
0.0
  0
LINE
  5
2D39
100
AcDbEntity
  8
0
100
AcDbLine
 10
512.768597
 20
1706.953902
 30
0.0
 11
511.768597
 21
1705.953902
 31
0.0
  0
LINE
  5
2D3A
100
AcDbEntity
  8
0
100
AcDbLine
 10
512.768597
 20
1706.953902
 30
0.0
 11
513.768597
 21
1706.953902
 31
0.0
  0
LINE
  5
2D3B
100
AcDbEntity
  8
0
100
AcDbLine
 10
501.268597
 20
1704.953902
 30
0.0
 11
502.268597
 21
1705.953902
 31
0.0
  0
LINE
  5
2D3C
100
AcDbEntity
  8
0
100
AcDbLine
 10
513.568597
 20
1728.703902
 30
0.0
 11
513.568597
 21
1798.703902
 31
0.0
  0
ARC
  5
2D3D
100
AcDbEntity
  8
0
100
AcDbCircle
 10
533.568597
 20
1798.703902
 30
0.0
 40
20.0
100
AcDbArc
 50
90.0
 51
180.0
  0
LINE
  5
2D3E
100
AcDbEntity
  8
0
100
AcDbLine
 10
589.268597
 20
1818.703902
 30
0.0
 11
587.268597
 21
1830.703902
 31
0.0
  0
ARC
  5
2D3F
100
AcDbEntity
  8
0
100
AcDbCircle
 10
596.677274
 20
1822.91394
 30
0.0
 40
8.0
100
AcDbArc
 50
129.353409
 51
189.462322
  0
LINE
  5
2D40
100
AcDbEntity
  8
0
100
AcDbLine
 10
573.268597
 20
1818.703902
 30
0.0
 11
575.268597
 21
1830.703902
 31
0.0
  0
ARC
  5
2D41
100
AcDbEntity
  8
0
100
AcDbCircle
 10
565.85992
 20
1822.91394
 30
0.0
 40
8.0
100
AcDbArc
 50
350.537678
 51
50.646591
  0
ARC
  5
2D42
100
AcDbEntity
  8
0
100
AcDbCircle
 10
581.268597
 20
1841.703902
 30
0.0
 40
16.3
100
AcDbArc
 50
309.353409
 51
230.646591
  0
LINE
  5
2D43
100
AcDbEntity
  8
0
100
AcDbLine
 10
573.268597
 20
1818.703902
 30
0.0
 11
589.268597
 21
1818.703902
 31
0.0
  0
LINE
  5
2D44
100
AcDbEntity
  8
0
100
AcDbLine
 10
575.268597
 20
1830.703902
 30
0.0
 11
578.1238
 21
1832.214714
 31
0.0
  0
ARC
  5
2D45
100
AcDbEntity
  8
0
100
AcDbCircle
 10
581.268597
 20
1841.703902
 30
0.0
 40
10.0
100
AcDbArc
 50
288.392229
 51
251.646371
  0
LINE
  5
2D46
100
AcDbEntity
  8
0
100
AcDbLine
 10
575.268597
 20
1830.703902
 30
0.0
 11
587.268597
 21
1830.703902
 31
0.0
  0
LINE
  5
2D47
100
AcDbEntity
  8
0
100
AcDbLine
 10
584.4238
 20
1832.214714
 30
0.0
 11
587.268597
 21
1830.703902
 31
0.0
  0
LINE
  5
2D48
100
AcDbEntity
  8
0
100
AcDbLine
 10
578.1238
 20
1832.214714
 30
0.0
 11
584.4238
 21
1832.214714
 31
0.0
  0
LINE
  5
2D49
100
AcDbEntity
  8
0
100
AcDbLine
 10
722.872089
 20
1227.674033
 30
0.0
 11
722.872089
 21
1297.674033
 31
0.0
  0
LINE
  5
2D4A
100
AcDbEntity
  8
0
100
AcDbLine
 10
858.272089
 20
1227.674033
 30
0.0
 11
858.272089
 21
1297.674033
 31
0.0
  0
LINE
  5
2D4B
100
AcDbEntity
  8
0
100
AcDbLine
 10
648.968597
 20
1227.674033
 30
0.0
 11
648.968597
 21
1297.674033
 31
0.0
  0
LINE
  5
2D4C
100
AcDbEntity
  8
0
100
AcDbLine
 10
723.072089
 20
1227.674033
 30
0.0
 11
858.072089
 21
1227.674033
 31
0.0
  0
LINE
  5
2D4D
100
AcDbEntity
  8
0
100
AcDbLine
 10
858.272089
 20
1227.674033
 30
0.0
 11
722.872089
 21
1227.674033
 31
0.0
  0
LINE
  5
2D4E
100
AcDbEntity
  8
0
100
AcDbLine
 10
707.572089
 20
1204.924033
 30
0.0
 11
873.572089
 21
1204.924033
 31
0.0
  0
LINE
  5
2D4F
100
AcDbEntity
  8
0
100
AcDbLine
 10
707.572089
 20
1148.424033
 30
0.0
 11
873.572089
 21
1148.424033
 31
0.0
  0
CIRCLE
  5
2D50
100
AcDbEntity
  8
0
100
AcDbCircle
 10
790.572089
 20
1177.174033
 30
0.0
 40
27.75
  0
CIRCLE
  5
2D51
100
AcDbEntity
  8
0
100
AcDbCircle
 10
790.572089
 20
1177.174033
 30
0.0
 40
26.75
  0
LINE
  5
2D52
100
AcDbEntity
  8
0
100
AcDbLine
 10
648.768597
 20
1205.924033
 30
0.0
 11
648.768597
 21
1227.674033
 31
0.0
  0
LINE
  5
2D53
100
AcDbEntity
  8
0
100
AcDbLine
 10
650.768597
 20
1149.424033
 30
0.0
 11
660.268597
 21
1149.424033
 31
0.0
  0
LINE
  5
2D54
100
AcDbEntity
  8
0
100
AcDbLine
 10
649.768597
 20
1148.424033
 30
0.0
 11
650.768597
 21
1149.424033
 31
0.0
  0
LINE
  5
2D55
100
AcDbEntity
  8
0
100
AcDbLine
 10
649.768597
 20
1148.424033
 30
0.0
 11
648.768597
 21
1148.424033
 31
0.0
  0
LINE
  5
2D56
100
AcDbEntity
  8
0
100
AcDbLine
 10
649.768597
 20
1205.924033
 30
0.0
 11
648.768597
 21
1205.924033
 31
0.0
  0
LINE
  5
2D57
100
AcDbEntity
  8
0
100
AcDbLine
 10
649.768597
 20
1205.924033
 30
0.0
 11
650.768597
 21
1204.924033
 31
0.0
  0
LINE
  5
2D58
100
AcDbEntity
  8
0
100
AcDbLine
 10
661.268597
 20
1150.424033
 30
0.0
 11
661.268597
 21
1177.174033
 31
0.0
  0
LINE
  5
2D59
100
AcDbEntity
  8
0
100
AcDbLine
 10
661.268597
 20
1150.424033
 30
0.0
 11
660.268597
 21
1149.424033
 31
0.0
  0
LINE
  5
2D5A
100
AcDbEntity
  8
0
100
AcDbLine
 10
661.268597
 20
1177.174033
 30
0.0
 11
661.268597
 21
1203.924033
 31
0.0
  0
LINE
  5
2D5B
100
AcDbEntity
  8
0
100
AcDbLine
 10
661.268597
 20
1203.924033
 30
0.0
 11
660.268597
 21
1204.924033
 31
0.0
  0
LINE
  5
2D5C
100
AcDbEntity
  8
0
100
AcDbLine
 10
723.072089
 20
1205.924033
 30
0.0
 11
723.072089
 21
1227.674033
 31
0.0
  0
LINE
  5
2D5D
100
AcDbEntity
  8
0
100
AcDbLine
 10
705.572089
 20
1202.924033
 30
0.0
 11
705.572089
 21
1150.424033
 31
0.0
  0
LINE
  5
2D5E
100
AcDbEntity
  8
0
100
AcDbLine
 10
740.933394
 20
1202.924033
 30
0.0
 11
740.933394
 21
1150.424033
 31
0.0
  0
LINE
  5
2D5F
100
AcDbEntity
  8
0
100
AcDbLine
 10
740.933394
 20
1150.424033
 30
0.0
 11
705.572089
 21
1150.424033
 31
0.0
  0
LINE
  5
2D60
100
AcDbEntity
  8
0
100
AcDbLine
 10
705.572089
 20
1150.424033
 30
0.0
 11
707.572089
 21
1148.424033
 31
0.0
  0
LINE
  5
2D61
100
AcDbEntity
  8
0
100
AcDbLine
 10
742.933394
 20
1148.424033
 30
0.0
 11
740.933394
 21
1150.424033
 31
0.0
  0
LINE
  5
2D62
100
AcDbEntity
  8
0
100
AcDbLine
 10
740.933394
 20
1202.924033
 30
0.0
 11
705.572089
 21
1202.924033
 31
0.0
  0
LINE
  5
2D63
100
AcDbEntity
  8
0
100
AcDbLine
 10
707.572089
 20
1204.924033
 30
0.0
 11
705.572089
 21
1202.924033
 31
0.0
  0
LINE
  5
2D64
100
AcDbEntity
  8
0
100
AcDbLine
 10
742.933394
 20
1204.924033
 30
0.0
 11
740.933394
 21
1202.924033
 31
0.0
  0
LINE
  5
2D65
100
AcDbEntity
  8
0
100
AcDbLine
 10
858.072089
 20
1205.924033
 30
0.0
 11
858.072089
 21
1227.674033
 31
0.0
  0
LINE
  5
2D66
100
AcDbEntity
  8
0
100
AcDbLine
 10
875.572089
 20
1202.924033
 30
0.0
 11
840.210784
 21
1202.924033
 31
0.0
  0
LINE
  5
2D67
100
AcDbEntity
  8
0
100
AcDbLine
 10
875.572089
 20
1150.424033
 30
0.0
 11
840.210784
 21
1150.424033
 31
0.0
  0
LINE
  5
2D68
100
AcDbEntity
  8
0
100
AcDbLine
 10
840.210784
 20
1202.924033
 30
0.0
 11
840.210784
 21
1150.424033
 31
0.0
  0
LINE
  5
2D69
100
AcDbEntity
  8
0
100
AcDbLine
 10
840.210784
 20
1150.424033
 30
0.0
 11
838.210784
 21
1148.424033
 31
0.0
  0
LINE
  5
2D6A
100
AcDbEntity
  8
0
100
AcDbLine
 10
838.210784
 20
1204.924033
 30
0.0
 11
840.210784
 21
1202.924033
 31
0.0
  0
LINE
  5
2D6B
100
AcDbEntity
  8
0
100
AcDbLine
 10
875.572089
 20
1202.924033
 30
0.0
 11
875.572089
 21
1150.424033
 31
0.0
  0
LINE
  5
2D6C
100
AcDbEntity
  8
0
100
AcDbLine
 10
875.572089
 20
1150.424033
 30
0.0
 11
873.572089
 21
1148.424033
 31
0.0
  0
LINE
  5
2D6D
100
AcDbEntity
  8
0
100
AcDbLine
 10
873.572089
 20
1204.924033
 30
0.0
 11
875.572089
 21
1202.924033
 31
0.0
  0
LINE
  5
2D6E
100
AcDbEntity
  8
0
100
AcDbLine
 10
742.872089
 20
1317.674033
 30
0.0
 11
838.272089
 21
1317.674033
 31
0.0
  0
LINE
  5
2D6F
100
AcDbEntity
  8
0
100
AcDbLine
 10
782.572089
 20
1317.674033
 30
0.0
 11
798.572089
 21
1317.674033
 31
0.0
  0
LINE
  5
2D70
100
AcDbEntity
  8
0
100
AcDbLine
 10
798.572089
 20
1317.674033
 30
0.0
 11
796.572089
 21
1329.674033
 31
0.0
  0
ARC
  5
2D71
100
AcDbEntity
  8
0
100
AcDbCircle
 10
628.968597
 20
1297.674033
 30
0.0
 40
20.0
100
AcDbArc
 50
0.0
 51
90.0
  0
LINE
  5
2D72
100
AcDbEntity
  8
0
100
AcDbLine
 10
793.722089
 20
1324.674033
 30
0.0
 11
793.722089
 21
1355.822218
 31
0.0
  0
LINE
  5
2D73
100
AcDbEntity
  8
0
100
AcDbLine
 10
787.422089
 20
1324.674033
 30
0.0
 11
787.422089
 21
1355.822218
 31
0.0
  0
ARC
  5
2D74
100
AcDbEntity
  8
0
100
AcDbCircle
 10
742.872089
 20
1297.674033
 30
0.0
 40
20.0
100
AcDbArc
 50
90.0
 51
180.0
  0
LINE
  5
2D75
100
AcDbEntity
  8
0
100
AcDbLine
 10
793.727292
 20
1331.184845
 30
0.0
 11
796.572089
 21
1329.674033
 31
0.0
  0
LINE
  5
2D76
100
AcDbEntity
  8
0
100
AcDbLine
 10
793.722089
 20
1331.184845
 30
0.0
 11
793.727292
 21
1331.184845
 31
0.0
  0
ARC
  5
2D77
100
AcDbEntity
  8
0
100
AcDbCircle
 10
794.722089
 20
1324.674033
 30
0.0
 40
1.0
100
AcDbArc
 50
180.0
 51
270.0
  0
LINE
  5
2D78
100
AcDbEntity
  8
0
100
AcDbLine
 10
793.722089
 20
1329.674033
 30
0.0
 11
796.572089
 21
1329.674033
 31
0.0
  0
LINE
  5
2D79
100
AcDbEntity
  8
0
100
AcDbLine
 10
784.572089
 20
1329.674033
 30
0.0
 11
787.427292
 21
1331.184845
 31
0.0
  0
LINE
  5
2D7A
100
AcDbEntity
  8
0
100
AcDbLine
 10
784.572089
 20
1329.674033
 30
0.0
 11
787.422089
 21
1329.674033
 31
0.0
  0
ARC
  5
2D7B
100
AcDbEntity
  8
0
100
AcDbCircle
 10
786.422089
 20
1324.674033
 30
0.0
 40
1.0
100
AcDbArc
 50
270.0
 51
0.0
  0
LINE
  5
2D7C
100
AcDbEntity
  8
0
100
AcDbLine
 10
782.572089
 20
1317.674033
 30
0.0
 11
784.572089
 21
1329.674033
 31
0.0
  0
ARC
  5
2D7D
100
AcDbEntity
  8
0
100
AcDbCircle
 10
792.722089
 20
1355.822218
 30
0.0
 40
1.0
100
AcDbArc
 50
0.0
 51
81.921896
  0
ARC
  5
2D7E
100
AcDbEntity
  8
0
100
AcDbCircle
 10
790.572089
 20
1340.674033
 30
0.0
 40
16.3
100
AcDbArc
 50
81.921896
 51
98.078104
  0
ARC
  5
2D7F
100
AcDbEntity
  8
0
100
AcDbCircle
 10
788.422089
 20
1355.822218
 30
0.0
 40
1.0
100
AcDbArc
 50
98.078104
 51
180.0
  0
LINE
  5
2D80
100
AcDbEntity
  8
0
100
AcDbLine
 10
661.268597
 20
1497.899681
 30
0.0
 11
661.268597
 21
1524.649681
 31
0.0
  0
LINE
  5
2D81
100
AcDbEntity
  8
0
100
AcDbLine
 10
660.268597
 20
1525.649681
 30
0.0
 11
660.268597
 21
1470.149681
 31
0.0
  0
LINE
  5
2D82
100
AcDbEntity
  8
0
100
AcDbLine
 10
650.268597
 20
1448.260987
 30
0.0
 11
650.268597
 21
1547.538376
 31
0.0
  0
LINE
  5
2D83
100
AcDbEntity
  8
0
100
AcDbLine
 10
660.268597
 20
1470.149681
 30
0.0
 11
650.268597
 21
1470.149681
 31
0.0
  0
LINE
  5
2D84
100
AcDbEntity
  8
0
100
AcDbLine
 10
661.268597
 20
1471.149681
 30
0.0
 11
661.268597
 21
1497.899681
 31
0.0
  0
LINE
  5
2D85
100
AcDbEntity
  8
0
100
AcDbLine
 10
661.268597
 20
1471.149681
 30
0.0
 11
660.268597
 21
1470.149681
 31
0.0
  0
LINE
  5
2D86
100
AcDbEntity
  8
0
100
AcDbLine
 10
660.268597
 20
1525.649681
 30
0.0
 11
650.268597
 21
1525.649681
 31
0.0
  0
LINE
  5
2D87
100
AcDbEntity
  8
0
100
AcDbLine
 10
660.268597
 20
1525.649681
 30
0.0
 11
661.268597
 21
1524.649681
 31
0.0
  0
ARC
  5
2D88
100
AcDbEntity
  8
0
100
AcDbCircle
 10
838.272089
 20
1297.674033
 30
0.0
 40
20.0
100
AcDbArc
 50
0.0
 51
90.0
  0
LINE
  5
2D89
100
AcDbEntity
  8
0
100
AcDbLine
 10
648.768597
 20
1706.953902
 30
0.0
 11
648.768597
 21
1728.703902
 31
0.0
  0
LINE
  5
2D8A
100
AcDbEntity
  8
0
100
AcDbLine
 10
725.858396
 20
1678.918274
 30
0.0
 11
735.311771
 21
1688.371649
 31
0.0
  0
LINE
  5
2D8B
100
AcDbEntity
  8
0
100
AcDbLine
 10
735.311771
 20
1688.371649
 30
0.0
 11
706.951646
 21
1688.371649
 31
0.0
  0
LINE
  5
2D8C
100
AcDbEntity
  8
0
100
AcDbLine
 10
650.768597
 20
1650.453902
 30
0.0
 11
660.268597
 21
1650.453902
 31
0.0
  0
LINE
  5
2D8D
100
AcDbEntity
  8
0
100
AcDbLine
 10
649.768597
 20
1649.453902
 30
0.0
 11
648.768597
 21
1649.453902
 31
0.0
  0
LINE
  5
2D8E
100
AcDbEntity
  8
0
100
AcDbLine
 10
649.768597
 20
1649.453902
 30
0.0
 11
650.768597
 21
1650.453902
 31
0.0
  0
LINE
  5
2D8F
100
AcDbEntity
  8
0
100
AcDbLine
 10
649.768597
 20
1706.953902
 30
0.0
 11
650.768597
 21
1705.953902
 31
0.0
  0
LINE
  5
2D90
100
AcDbEntity
  8
0
100
AcDbLine
 10
649.768597
 20
1706.953902
 30
0.0
 11
648.768597
 21
1706.953902
 31
0.0
  0
LINE
  5
2D91
100
AcDbEntity
  8
0
100
AcDbLine
 10
688.249083
 20
1688.371649
 30
0.0
 11
678.589833
 21
1678.918274
 31
0.0
  0
LINE
  5
2D92
100
AcDbEntity
  8
0
100
AcDbLine
 10
661.268597
 20
1678.203902
 30
0.0
 11
661.268597
 21
1704.953902
 31
0.0
  0
LINE
  5
2D93
100
AcDbEntity
  8
0
100
AcDbLine
 10
678.589833
 20
1678.918274
 30
0.0
 11
725.858396
 21
1678.918274
 31
0.0
  0
LINE
  5
2D94
100
AcDbEntity
  8
0
100
AcDbLine
 10
661.268597
 20
1651.453902
 30
0.0
 11
660.268597
 21
1650.453902
 31
0.0
  0
LINE
  5
2D95
100
AcDbEntity
  8
0
100
AcDbLine
 10
661.268597
 20
1651.453902
 30
0.0
 11
661.268597
 21
1678.203902
 31
0.0
  0
LINE
  5
2D96
100
AcDbEntity
  8
0
100
AcDbLine
 10
661.268597
 20
1704.953902
 30
0.0
 11
660.268597
 21
1705.953902
 31
0.0
  0
LINE
  5
2D97
100
AcDbEntity
  8
0
100
AcDbLine
 10
702.223271
 20
1683.644961
 30
0.0
 11
688.249083
 21
1683.644961
 31
0.0
  0
LINE
  5
2D98
100
AcDbEntity
  8
0
100
AcDbLine
 10
688.249083
 20
1683.644961
 30
0.0
 11
688.249083
 21
1688.371649
 31
0.0
  0
LINE
  5
2D99
100
AcDbEntity
  8
0
100
AcDbLine
 10
706.951646
 20
1688.371649
 30
0.0
 11
702.223271
 21
1683.644961
 31
0.0
  0
LINE
  5
2D9A
100
AcDbEntity
  8
0
100
AcDbLine
 10
648.968597
 20
1728.703902
 30
0.0
 11
648.968597
 21
1798.703902
 31
0.0
  0
ARC
  5
2D9B
100
AcDbEntity
  8
0
100
AcDbCircle
 10
628.968597
 20
1798.703902
 30
0.0
 40
20.0
100
AcDbArc
 50
0.0
 51
90.0
  0
ARC
  5
2D9C
100
AcDbEntity
  8
0
100
AcDbCircle
 10
2387.880304
 20
789.777802
 30
0.0
 40
9.303368
100
AcDbArc
 50
52.36201
 51
123.019459
  0
ARC
  5
2D9D
100
AcDbEntity
  8
0
100
AcDbCircle
 10
2387.880304
 20
752.379281
 30
0.0
 40
9.303368
100
AcDbArc
 50
236.980541
 51
307.63799
  0
ARC
  5
2D9E
100
AcDbEntity
  8
0
100
AcDbCircle
 10
2387.880304
 20
572.07506
 30
0.0
 40
9.303368
100
AcDbArc
 50
236.980541
 51
307.63799
  0
ARC
  5
2D9F
100
AcDbEntity
  8
0
100
AcDbCircle
 10
2387.880304
 20
609.473581
 30
0.0
 40
9.303368
100
AcDbArc
 50
52.36201
 51
123.019459
  0
ARC
  5
2DA0
100
AcDbEntity
  8
0
100
AcDbCircle
 10
2387.880304
 20
288.747933
 30
0.0
 40
9.303368
100
AcDbArc
 50
52.36201
 51
123.019459
  0
ARC
  5
2DA1
100
AcDbEntity
  8
0
100
AcDbCircle
 10
2387.880304
 20
251.349412
 30
0.0
 40
9.303368
100
AcDbArc
 50
236.980541
 51
307.63799
  0
ARC
  5
2DA2
100
AcDbEntity
  8
0
100
AcDbCircle
 10
2183.259566
 20
390.548673
 30
0.0
 40
20.0
100
AcDbArc
 50
0.0
 51
90.0
  0
ARC
  5
2DA3
100
AcDbEntity
  8
0
100
AcDbCircle
 10
2087.859566
 20
390.548673
 30
0.0
 40
20.0
100
AcDbArc
 50
90.0
 51
180.0
  0
ARC
  5
2DA4
100
AcDbEntity
  8
0
100
AcDbCircle
 10
1777.295706
 20
390.548673
 30
0.0
 40
20.0
100
AcDbArc
 50
90.0
 51
180.0
  0
ARC
  5
2DA5
100
AcDbEntity
  8
0
100
AcDbCircle
 10
1872.695706
 20
390.548673
 30
0.0
 40
20.0
100
AcDbArc
 50
0.0
 51
90.0
  0
ARC
  5
2DA6
100
AcDbEntity
  8
0
100
AcDbCircle
 10
1586.746042
 20
390.548673
 30
0.0
 40
20.0
100
AcDbArc
 50
0.0
 51
90.0
  0
LINE
  5
2DA7
100
AcDbEntity
  8
0
100
AcDbLine
 10
1625.139789
 20
243.548673
 30
0.0
 11
1625.139789
 21
296.548673
 31
0.0
  0
LINE
  5
2DA9
100
AcDbEntity
  8
0
100
AcDbLine
 10
1649.046042
 20
243.548673
 30
0.0
 11
1649.046042
 21
296.548673
 31
0.0
  0
LINE
  5
2DAA
100
AcDbEntity
  8
0
100
AcDbLine
 10
1653.546042
 20
248.048673
 30
0.0
 11
1653.546042
 21
292.048673
 31
0.0
  0
LINE
  5
2DAB
100
AcDbEntity
  8
0
100
AcDbLine
 10
1614.388871
 20
296.11513
 30
0.0
 11
1614.388871
 21
243.982215
 31
0.0
  0
LINE
  5
2DAE
100
AcDbEntity
  8
0
100
AcDbLine
 10
1625.139789
 20
243.548673
 30
0.0
 11
1649.046042
 21
243.548673
 31
0.0
  0
ARC
  5
2DAF
100
AcDbEntity
  8
0
100
AcDbCircle
 10
1620.070162
 20
251.349412
 30
0.0
 40
9.303368
100
AcDbArc
 50
232.36201
 51
303.019459
  0
LINE
  5
2DB0
100
AcDbEntity
  8
0
100
AcDbLine
 10
1614.388871
 20
243.982215
 30
0.0
 11
1612.839527
 21
241.298673
 31
0.0
  0
LINE
  5
2DB2
100
AcDbEntity
  8
0
100
AcDbLine
 10
1649.046042
 20
243.548673
 30
0.0
 11
1653.546042
 21
248.048673
 31
0.0
  0
LINE
  5
2DB5
100
AcDbEntity
  8
0
100
AcDbLine
 10
1625.139789
 20
296.548673
 30
0.0
 11
1649.046042
 21
296.548673
 31
0.0
  0
LINE
  5
2DB6
100
AcDbEntity
  8
0
100
AcDbLine
 10
1606.746042
 20
320.548673
 30
0.0
 11
1606.746042
 21
390.548673
 31
0.0
  0
LINE
  5
2DB7
100
AcDbEntity
  8
0
100
AcDbLine
 10
1607.546042
 20
298.798673
 30
0.0
 11
1606.546042
 21
298.798673
 31
0.0
  0
LINE
  5
2DB8
100
AcDbEntity
  8
0
100
AcDbLine
 10
1607.546042
 20
298.798673
 30
0.0
 11
1608.546042
 21
297.798673
 31
0.0
  0
LINE
  5
2DB9
100
AcDbEntity
  8
0
100
AcDbLine
 10
1606.546042
 20
298.798673
 30
0.0
 11
1606.546042
 21
320.548673
 31
0.0
  0
ARC
  5
2DBA
100
AcDbEntity
  8
0
100
AcDbCircle
 10
1620.070162
 20
288.747933
 30
0.0
 40
9.303368
100
AcDbArc
 50
56.980541
 51
127.63799
  0
LINE
  5
2DBB
100
AcDbEntity
  8
0
100
AcDbLine
 10
1614.388871
 20
296.11513
 30
0.0
 11
1613.416877
 21
297.798673
 31
0.0
  0
LINE
  5
2DBD
100
AcDbEntity
  8
0
100
AcDbLine
 10
1649.046042
 20
296.548673
 30
0.0
 11
1653.546042
 21
292.048673
 31
0.0
  0
LINE
  5
2DC3
100
AcDbEntity
  8
0
100
AcDbLine
 10
1739.995706
 20
295.798673
 30
0.0
 11
1739.995706
 21
243.298673
 31
0.0
  0
LINE
  5
2DC4
100
AcDbEntity
  8
0
100
AcDbLine
 10
1909.995706
 20
295.798673
 30
0.0
 11
1909.995706
 21
243.298673
 31
0.0
  0
LINE
  5
2DC6
100
AcDbEntity
  8
0
100
AcDbLine
 10
1741.995706
 20
241.298673
 30
0.0
 11
1766.699587
 21
241.298673
 31
0.0
  0
LINE
  5
2DC7
100
AcDbEntity
  8
0
100
AcDbLine
 10
1765.755201
 20
243.298673
 30
0.0
 11
1739.995706
 21
243.298673
 31
0.0
  0
LINE
  5
2DC8
100
AcDbEntity
  8
0
100
AcDbLine
 10
1739.995706
 20
243.298673
 30
0.0
 11
1741.995706
 21
241.298673
 31
0.0
  0
LINE
  5
2DCB
100
AcDbEntity
  8
0
100
AcDbLine
 10
1883.291825
 20
241.298673
 30
0.0
 11
1907.995706
 21
241.298673
 31
0.0
  0
LINE
  5
2DCC
100
AcDbEntity
  8
0
100
AcDbLine
 10
1884.236212
 20
243.298673
 30
0.0
 11
1909.995706
 21
243.298673
 31
0.0
  0
LINE
  5
2DCF
100
AcDbEntity
  8
0
100
AcDbLine
 10
1909.995706
 20
243.298673
 30
0.0
 11
1907.995706
 21
241.298673
 31
0.0
  0
LINE
  5
2DD0
100
AcDbEntity
  8
0
100
AcDbLine
 10
1757.495706
 20
320.548673
 30
0.0
 11
1784.071997
 21
320.548673
 31
0.0
  0
LINE
  5
2DD1
100
AcDbEntity
  8
0
100
AcDbLine
 10
1892.695706
 20
320.548673
 30
0.0
 11
1865.919416
 21
320.548673
 31
0.0
  0
LINE
  5
2DD2
100
AcDbEntity
  8
0
100
AcDbLine
 10
1757.295706
 20
320.548673
 30
0.0
 11
1757.295706
 21
390.548673
 31
0.0
  0
LINE
  5
2DD4
100
AcDbEntity
  8
0
100
AcDbLine
 10
1741.995706
 20
297.798673
 30
0.0
 11
1739.995706
 21
295.798673
 31
0.0
  0
LINE
  5
2DD5
100
AcDbEntity
  8
0
100
AcDbLine
 10
1739.995706
 20
295.798673
 30
0.0
 11
1765.313737
 21
295.798673
 31
0.0
  0
LINE
  5
2DD7
100
AcDbEntity
  8
0
100
AcDbLine
 10
1741.995706
 20
297.798673
 30
0.0
 11
1766.21699
 21
297.798673
 31
0.0
  0
LINE
  5
2DD8
100
AcDbEntity
  8
0
100
AcDbLine
 10
1757.495706
 20
297.798673
 30
0.0
 11
1757.495706
 21
320.548673
 31
0.0
  0
LINE
  5
2DDA
100
AcDbEntity
  8
0
100
AcDbLine
 10
1892.695706
 20
320.548673
 30
0.0
 11
1892.695706
 21
390.548673
 31
0.0
  0
LINE
  5
2DDB
100
AcDbEntity
  8
0
100
AcDbLine
 10
1883.774423
 20
297.798673
 30
0.0
 11
1907.995706
 21
297.798673
 31
0.0
  0
LINE
  5
2DDC
100
AcDbEntity
  8
0
100
AcDbLine
 10
1884.677676
 20
295.798673
 30
0.0
 11
1909.995706
 21
295.798673
 31
0.0
  0
LINE
  5
2DE0
100
AcDbEntity
  8
0
100
AcDbLine
 10
1907.995706
 20
297.798673
 30
0.0
 11
1909.995706
 21
295.798673
 31
0.0
  0
LINE
  5
2DE1
100
AcDbEntity
  8
0
100
AcDbLine
 10
1892.495706
 20
297.798673
 30
0.0
 11
1892.495706
 21
320.548673
 31
0.0
  0
LINE
  5
2DE5
100
AcDbEntity
  8
0
100
AcDbLine
 10
2050.559566
 20
295.798673
 30
0.0
 11
2050.559566
 21
243.298673
 31
0.0
  0
LINE
  5
2DE6
100
AcDbEntity
  8
0
100
AcDbLine
 10
2066.830478
 20
241.298673
 30
0.0
 11
2052.559566
 21
241.298673
 31
0.0
  0
LINE
  5
2DE7
100
AcDbEntity
  8
0
100
AcDbLine
 10
2050.559566
 20
243.298673
 30
0.0
 11
2066.027648
 21
243.298673
 31
0.0
  0
LINE
  5
2DE8
100
AcDbEntity
  8
0
100
AcDbLine
 10
2050.559566
 20
243.298673
 30
0.0
 11
2052.559566
 21
241.298673
 31
0.0
  0
LINE
  5
2DEA
100
AcDbEntity
  8
0
100
AcDbLine
 10
2066.420666
 20
297.798673
 30
0.0
 11
2052.559566
 21
297.798673
 31
0.0
  0
LINE
  5
2DEB
100
AcDbEntity
  8
0
100
AcDbLine
 10
2065.651143
 20
295.798673
 30
0.0
 11
2050.559566
 21
295.798673
 31
0.0
  0
LINE
  5
2DEC
100
AcDbEntity
  8
0
100
AcDbLine
 10
2052.559566
 20
297.798673
 30
0.0
 11
2050.559566
 21
295.798673
 31
0.0
  0
LINE
  5
2DED
100
AcDbEntity
  8
0
100
AcDbLine
 10
2067.859566
 20
320.548673
 30
0.0
 11
2067.859566
 21
390.548673
 31
0.0
  0
LINE
  5
2DEF
100
AcDbEntity
  8
0
100
AcDbLine
 10
2067.859566
 20
320.548673
 30
0.0
 11
2080.78731
 21
320.548673
 31
0.0
  0
LINE
  5
2DF0
100
AcDbEntity
  8
0
100
AcDbLine
 10
2068.059566
 20
301.576438
 30
0.0
 11
2068.059566
 21
320.548673
 31
0.0
  0
LINE
  5
2DF1
100
AcDbEntity
  8
0
100
AcDbLine
 10
2277.994615
 20
267.427075
 30
0.0
 11
2287.653865
 21
257.9737
 31
0.0
  0
LINE
  5
2DF2
100
AcDbEntity
  8
0
100
AcDbLine
 10
2240.385302
 20
257.9737
 30
0.0
 11
2230.931927
 21
267.427075
 31
0.0
  0
LINE
  5
2DF3
100
AcDbEntity
  8
0
100
AcDbLine
 10
2382.810677
 20
243.548673
 30
0.0
 11
2382.810677
 21
296.548673
 31
0.0
  0
LINE
  5
2DF6
100
AcDbEntity
  8
0
100
AcDbLine
 10
2220.559566
 20
295.798673
 30
0.0
 11
2220.559566
 21
243.298673
 31
0.0
  0
LINE
  5
2DF7
100
AcDbEntity
  8
0
100
AcDbLine
 10
2287.653865
 20
257.9737
 30
0.0
 11
2240.385302
 21
257.9737
 31
0.0
  0
LINE
  5
2DF8
100
AcDbEntity
  8
0
100
AcDbLine
 10
2218.559566
 20
241.298673
 30
0.0
 11
2204.288653
 21
241.298673
 31
0.0
  0
LINE
  5
2DF9
100
AcDbEntity
  8
0
100
AcDbLine
 10
2205.091483
 20
243.298673
 30
0.0
 11
2220.559566
 21
243.298673
 31
0.0
  0
LINE
  5
2DFB
100
AcDbEntity
  8
0
100
AcDbLine
 10
2220.559566
 20
243.298673
 30
0.0
 11
2218.559566
 21
241.298673
 31
0.0
  0
LINE
  5
2DFF
100
AcDbEntity
  8
0
100
AcDbLine
 10
2203.259566
 20
320.548673
 30
0.0
 11
2203.259566
 21
390.548673
 31
0.0
  0
LINE
  5
2E00
100
AcDbEntity
  8
0
100
AcDbLine
 10
2218.559566
 20
297.798673
 30
0.0
 11
2204.698466
 21
297.798673
 31
0.0
  0
LINE
  5
2E01
100
AcDbEntity
  8
0
100
AcDbLine
 10
2220.559566
 20
295.798673
 30
0.0
 11
2205.467988
 21
295.798673
 31
0.0
  0
LINE
  5
2E02
100
AcDbEntity
  8
0
100
AcDbLine
 10
2190.331821
 20
320.548673
 30
0.0
 11
2203.259566
 21
320.548673
 31
0.0
  0
LINE
  5
2E03
100
AcDbEntity
  8
0
100
AcDbLine
 10
2203.059566
 20
301.576438
 30
0.0
 11
2203.059566
 21
320.548673
 31
0.0
  0
LINE
  5
2E04
100
AcDbEntity
  8
0
100
AcDbLine
 10
2218.559566
 20
297.798673
 30
0.0
 11
2220.559566
 21
295.798673
 31
0.0
  0
LINE
  5
2E05
100
AcDbEntity
  8
0
100
AcDbLine
 10
2230.931927
 20
267.427075
 30
0.0
 11
2259.292052
 21
267.427075
 31
0.0
  0
LINE
  5
2E06
100
AcDbEntity
  8
0
100
AcDbLine
 10
2264.020427
 20
262.700387
 30
0.0
 11
2277.994615
 21
262.700387
 31
0.0
  0
LINE
  5
2E07
100
AcDbEntity
  8
0
100
AcDbLine
 10
2259.292052
 20
267.427075
 30
0.0
 11
2264.020427
 21
262.700387
 31
0.0
  0
LINE
  5
2E08
100
AcDbEntity
  8
0
100
AcDbLine
 10
2277.994615
 20
262.700387
 30
0.0
 11
2277.994615
 21
267.427075
 31
0.0
  0
LINE
  5
2E0D
100
AcDbEntity
  8
0
100
AcDbLine
 10
1608.046042
 20
541.135626
 30
0.0
 11
1608.046042
 21
640.413015
 31
0.0
  0
ARC
  5
2E10
100
AcDbEntity
  8
0
100
AcDbCircle
 10
1539.046042
 20
433.548673
 30
0.0
 40
10.0
100
AcDbArc
 50
288.392229
 51
251.646371
  0
ARC
  5
2E11
100
AcDbEntity
  8
0
100
AcDbCircle
 10
1539.046042
 20
433.548673
 30
0.0
 40
16.3
100
AcDbArc
 50
309.353409
 51
230.646591
  0
LINE
  5
2E12
100
AcDbEntity
  8
0
100
AcDbLine
 10
1531.046042
 20
410.548673
 30
0.0
 11
1547.046042
 21
410.548673
 31
0.0
  0
LINE
  5
2E13
100
AcDbEntity
  8
0
100
AcDbLine
 10
1547.046042
 20
410.548673
 30
0.0
 11
1545.046042
 21
422.548673
 31
0.0
  0
ARC
  5
2E14
100
AcDbEntity
  8
0
100
AcDbCircle
 10
1523.637365
 20
414.758711
 30
0.0
 40
8.0
100
AcDbArc
 50
350.537678
 51
50.646591
  0
LINE
  5
2E15
100
AcDbEntity
  8
0
100
AcDbLine
 10
1535.901246
 20
424.059484
 30
0.0
 11
1542.201246
 21
424.059484
 31
0.0
  0
LINE
  5
2E16
100
AcDbEntity
  8
0
100
AcDbLine
 10
1533.046042
 20
422.548673
 30
0.0
 11
1535.901246
 21
424.059484
 31
0.0
  0
LINE
  5
2E17
100
AcDbEntity
  8
0
100
AcDbLine
 10
1542.201246
 20
424.059484
 30
0.0
 11
1545.046042
 21
422.548673
 31
0.0
  0
LINE
  5
2E18
100
AcDbEntity
  8
0
100
AcDbLine
 10
1533.046042
 20
422.548673
 30
0.0
 11
1545.046042
 21
422.548673
 31
0.0
  0
LINE
  5
2E19
100
AcDbEntity
  8
0
100
AcDbLine
 10
1531.046042
 20
410.548673
 30
0.0
 11
1533.046042
 21
422.548673
 31
0.0
  0
ARC
  5
2E1A
100
AcDbEntity
  8
0
100
AcDbCircle
 10
1554.454719
 20
414.758711
 30
0.0
 40
8.0
100
AcDbArc
 50
129.353409
 51
189.462322
  0
LINE
  5
2E1C
100
AcDbEntity
  8
0
100
AcDbLine
 10
1625.139789
 20
564.27432
 30
0.0
 11
1649.046042
 21
564.27432
 31
0.0
  0
LINE
  5
2E1D
100
AcDbEntity
  8
0
100
AcDbLine
 10
1625.139789
 20
617.27432
 30
0.0
 11
1649.046042
 21
617.27432
 31
0.0
  0
ARC
  5
2E1E
100
AcDbEntity
  8
0
100
AcDbCircle
 10
1525.896042
 20
590.77432
 30
0.0
 40
3.15
100
AcDbArc
 50
90.0
 51
270.0
  0
ARC
  5
2E1F
100
AcDbEntity
  8
0
100
AcDbCircle
 10
1552.196042
 20
590.77432
 30
0.0
 40
3.15
100
AcDbArc
 50
270.0
 51
90.0
  0
LINE
  5
2E20
100
AcDbEntity
  8
0
100
AcDbLine
 10
1525.896042
 20
587.62432
 30
0.0
 11
1552.196042
 21
587.62432
 31
0.0
  0
ARC
  5
2E21
100
AcDbEntity
  8
0
100
AcDbCircle
 10
1539.046042
 20
590.77432
 30
0.0
 40
8.0
100
AcDbArc
 50
203.188038
 51
336.811962
  0
ARC
  5
2E22
100
AcDbEntity
  8
0
100
AcDbCircle
 10
1539.046042
 20
590.77432
 30
0.0
 40
6.0
100
AcDbArc
 50
211.668243
 51
328.331757
  0
LINE
  5
2E23
100
AcDbEntity
  8
0
100
AcDbLine
 10
1525.896042
 20
593.92432
 30
0.0
 11
1552.196042
 21
593.92432
 31
0.0
  0
ARC
  5
2E24
100
AcDbEntity
  8
0
100
AcDbCircle
 10
1539.046042
 20
590.77432
 30
0.0
 40
8.0
100
AcDbArc
 50
23.188038
 51
156.811962
  0
ARC
  5
2E25
100
AcDbEntity
  8
0
100
AcDbCircle
 10
1539.046042
 20
590.77432
 30
0.0
 40
6.0
100
AcDbArc
 50
31.668243
 51
148.331757
  0
LINE
  5
2E26
100
AcDbEntity
  8
0
100
AcDbLine
 10
1625.139789
 20
564.27432
 30
0.0
 11
1625.139789
 21
617.27432
 31
0.0
  0
LINE
  5
2E28
100
AcDbEntity
  8
0
100
AcDbLine
 10
1614.388871
 20
616.840778
 30
0.0
 11
1614.388871
 21
564.707863
 31
0.0
  0
LINE
  5
2E29
100
AcDbEntity
  8
0
100
AcDbLine
 10
1608.046042
 20
562.02432
 30
0.0
 11
1612.839527
 21
562.02432
 31
0.0
  0
ARC
  5
2E2A
100
AcDbEntity
  8
0
100
AcDbCircle
 10
1620.070162
 20
572.07506
 30
0.0
 40
9.303368
100
AcDbArc
 50
232.36201
 51
303.019459
  0
LINE
  5
2E2B
100
AcDbEntity
  8
0
100
AcDbLine
 10
1614.388871
 20
564.707863
 30
0.0
 11
1612.839527
 21
562.02432
 31
0.0
  0
LINE
  5
2E2C
100
AcDbEntity
  8
0
100
AcDbLine
 10
1613.416877
 20
618.52432
 30
0.0
 11
1608.046042
 21
618.52432
 31
0.0
  0
ARC
  5
2E2D
100
AcDbEntity
  8
0
100
AcDbCircle
 10
1620.070162
 20
609.473581
 30
0.0
 40
9.303368
100
AcDbArc
 50
56.980541
 51
127.63799
  0
LINE
  5
2E2E
100
AcDbEntity
  8
0
100
AcDbLine
 10
1614.388871
 20
616.840778
 30
0.0
 11
1613.416877
 21
618.52432
 31
0.0
  0
LINE
  5
2E32
100
AcDbEntity
  8
0
100
AcDbLine
 10
1649.046042
 20
564.27432
 30
0.0
 11
1649.046042
 21
617.27432
 31
0.0
  0
LINE
  5
2E33
100
AcDbEntity
  8
0
100
AcDbLine
 10
1653.546042
 20
568.77432
 30
0.0
 11
1653.546042
 21
612.77432
 31
0.0
  0
LINE
  5
2E34
100
AcDbEntity
  8
0
100
AcDbLine
 10
1649.046042
 20
564.27432
 30
0.0
 11
1653.546042
 21
568.77432
 31
0.0
  0
LINE
  5
2E35
100
AcDbEntity
  8
0
100
AcDbLine
 10
1649.046042
 20
617.27432
 30
0.0
 11
1653.546042
 21
612.77432
 31
0.0
  0
LINE
  5
2E39
100
AcDbEntity
  8
0
100
AcDbLine
 10
1777.295706
 20
410.548673
 30
0.0
 11
1872.695706
 21
410.548673
 31
0.0
  0
LINE
  5
2E3A
100
AcDbEntity
  8
0
100
AcDbLine
 10
1828.145706
 20
417.548673
 30
0.0
 11
1828.145706
 21
448.696857
 31
0.0
  0
LINE
  5
2E3B
100
AcDbEntity
  8
0
100
AcDbLine
 10
1821.845706
 20
417.548673
 30
0.0
 11
1821.845706
 21
448.696857
 31
0.0
  0
LINE
  5
2E3C
100
AcDbEntity
  8
0
100
AcDbLine
 10
1828.15091
 20
424.059484
 30
0.0
 11
1830.995706
 21
422.548673
 31
0.0
  0
ARC
  5
2E3D
100
AcDbEntity
  8
0
100
AcDbCircle
 10
1829.145706
 20
417.548673
 30
0.0
 40
1.0
100
AcDbArc
 50
180.0
 51
270.0
  0
LINE
  5
2E3E
100
AcDbEntity
  8
0
100
AcDbLine
 10
1828.145706
 20
424.059484
 30
0.0
 11
1828.15091
 21
424.059484
 31
0.0
  0
LINE
  5
2E3F
100
AcDbEntity
  8
0
100
AcDbLine
 10
1828.145706
 20
422.548673
 30
0.0
 11
1830.995706
 21
422.548673
 31
0.0
  0
LINE
  5
2E40
100
AcDbEntity
  8
0
100
AcDbLine
 10
1818.995706
 20
422.548673
 30
0.0
 11
1821.85091
 21
424.059484
 31
0.0
  0
ARC
  5
2E41
100
AcDbEntity
  8
0
100
AcDbCircle
 10
1820.845706
 20
417.548673
 30
0.0
 40
1.0
100
AcDbArc
 50
270.0
 51
0.0
  0
LINE
  5
2E42
100
AcDbEntity
  8
0
100
AcDbLine
 10
1818.995706
 20
422.548673
 30
0.0
 11
1821.845706
 21
422.548673
 31
0.0
  0
LINE
  5
2E43
100
AcDbEntity
  8
0
100
AcDbLine
 10
1816.995706
 20
410.548673
 30
0.0
 11
1832.995706
 21
410.548673
 31
0.0
  0
LINE
  5
2E44
100
AcDbEntity
  8
0
100
AcDbLine
 10
1832.995706
 20
410.548673
 30
0.0
 11
1830.995706
 21
422.548673
 31
0.0
  0
LINE
  5
2E45
100
AcDbEntity
  8
0
100
AcDbLine
 10
1816.995706
 20
410.548673
 30
0.0
 11
1818.995706
 21
422.548673
 31
0.0
  0
ARC
  5
2E46
100
AcDbEntity
  8
0
100
AcDbCircle
 10
1827.145706
 20
448.696857
 30
0.0
 40
1.0
100
AcDbArc
 50
0.0
 51
81.921896
  0
ARC
  5
2E47
100
AcDbEntity
  8
0
100
AcDbCircle
 10
1822.845706
 20
448.696857
 30
0.0
 40
1.0
100
AcDbArc
 50
98.078104
 51
180.0
  0
ARC
  5
2E48
100
AcDbEntity
  8
0
100
AcDbCircle
 10
1824.995706
 20
433.548673
 30
0.0
 40
16.3
100
AcDbArc
 50
81.921896
 51
98.078104
  0
LINE
  5
2E49
100
AcDbEntity
  8
0
100
AcDbLine
 10
1741.676012
 20
780.519654
 30
0.0
 11
1732.016762
 21
771.066279
 31
0.0
  0
LINE
  5
2E4A
100
AcDbEntity
  8
0
100
AcDbLine
 10
1732.016762
 20
771.066279
 30
0.0
 11
1779.285325
 21
771.066279
 31
0.0
  0
LINE
  5
2E4B
100
AcDbEntity
  8
0
100
AcDbLine
 10
1606.746042
 20
821.578542
 30
0.0
 11
1606.746042
 21
891.578542
 31
0.0
  0
LINE
  5
2E4C
100
AcDbEntity
  8
0
100
AcDbLine
 10
1625.139789
 20
744.578542
 30
0.0
 11
1649.046042
 21
744.578542
 31
0.0
  0
LINE
  5
2E4D
100
AcDbEntity
  8
0
100
AcDbLine
 10
1625.139789
 20
797.578542
 30
0.0
 11
1649.046042
 21
797.578542
 31
0.0
  0
LINE
  5
2E4E
100
AcDbEntity
  8
0
100
AcDbLine
 10
1625.139789
 20
744.578542
 30
0.0
 11
1625.139789
 21
797.578542
 31
0.0
  0
LINE
  5
2E50
100
AcDbEntity
  8
0
100
AcDbLine
 10
1614.388871
 20
797.144999
 30
0.0
 11
1614.388871
 21
745.012084
 31
0.0
  0
ARC
  5
2E51
100
AcDbEntity
  8
0
100
AcDbCircle
 10
1620.070162
 20
752.379281
 30
0.0
 40
9.303368
100
AcDbArc
 50
232.36201
 51
303.019459
  0
LINE
  5
2E52
100
AcDbEntity
  8
0
100
AcDbLine
 10
1614.388871
 20
745.012084
 30
0.0
 11
1612.839527
 21
742.328542
 31
0.0
  0
LINE
  5
2E53
100
AcDbEntity
  8
0
100
AcDbLine
 10
1606.546042
 20
799.828542
 30
0.0
 11
1606.546042
 21
821.578542
 31
0.0
  0
ARC
  5
2E54
100
AcDbEntity
  8
0
100
AcDbCircle
 10
1620.070162
 20
789.777802
 30
0.0
 40
9.303368
100
AcDbArc
 50
56.980541
 51
127.63799
  0
LINE
  5
2E55
100
AcDbEntity
  8
0
100
AcDbLine
 10
1614.388871
 20
797.144999
 30
0.0
 11
1613.416877
 21
798.828542
 31
0.0
  0
LINE
  5
2E56
100
AcDbEntity
  8
0
100
AcDbLine
 10
1607.546042
 20
799.828542
 30
0.0
 11
1606.546042
 21
799.828542
 31
0.0
  0
LINE
  5
2E57
100
AcDbEntity
  8
0
100
AcDbLine
 10
1607.546042
 20
799.828542
 30
0.0
 11
1608.546042
 21
798.828542
 31
0.0
  0
LINE
  5
2E58
100
AcDbEntity
  8
0
100
AcDbLine
 10
1649.046042
 20
744.578542
 30
0.0
 11
1649.046042
 21
797.578542
 31
0.0
  0
LINE
  5
2E59
100
AcDbEntity
  8
0
100
AcDbLine
 10
1653.546042
 20
749.078542
 30
0.0
 11
1653.546042
 21
793.078542
 31
0.0
  0
LINE
  5
2E5D
100
AcDbEntity
  8
0
100
AcDbLine
 10
1649.046042
 20
744.578542
 30
0.0
 11
1653.546042
 21
749.078542
 31
0.0
  0
LINE
  5
2E61
100
AcDbEntity
  8
0
100
AcDbLine
 10
1649.046042
 20
797.578542
 30
0.0
 11
1653.546042
 21
793.078542
 31
0.0
  0
ARC
  5
2E65
100
AcDbEntity
  8
0
100
AcDbCircle
 10
1523.637365
 20
915.78858
 30
0.0
 40
8.0
100
AcDbArc
 50
350.537678
 51
50.646591
  0
LINE
  5
2E66
100
AcDbEntity
  8
0
100
AcDbLine
 10
1531.046042
 20
911.578542
 30
0.0
 11
1533.046042
 21
923.578542
 31
0.0
  0
ARC
  5
2E67
100
AcDbEntity
  8
0
100
AcDbCircle
 10
1554.454719
 20
915.78858
 30
0.0
 40
8.0
100
AcDbArc
 50
129.353409
 51
189.462322
  0
LINE
  5
2E68
100
AcDbEntity
  8
0
100
AcDbLine
 10
1547.046042
 20
911.578542
 30
0.0
 11
1545.046042
 21
923.578542
 31
0.0
  0
ARC
  5
2E69
100
AcDbEntity
  8
0
100
AcDbCircle
 10
1586.746042
 20
891.578542
 30
0.0
 40
20.0
100
AcDbArc
 50
0.0
 51
90.0
  0
LINE
  5
2E6A
100
AcDbEntity
  8
0
100
AcDbLine
 10
1531.046042
 20
911.578542
 30
0.0
 11
1547.046042
 21
911.578542
 31
0.0
  0
ARC
  5
2E6B
100
AcDbEntity
  8
0
100
AcDbCircle
 10
1539.046042
 20
934.578542
 30
0.0
 40
10.0
100
AcDbArc
 50
288.392229
 51
251.646371
  0
ARC
  5
2E6C
100
AcDbEntity
  8
0
100
AcDbCircle
 10
1539.046042
 20
934.578542
 30
0.0
 40
16.3
100
AcDbArc
 50
309.353409
 51
230.646591
  0
LINE
  5
2E6D
100
AcDbEntity
  8
0
100
AcDbLine
 10
1542.201246
 20
925.089353
 30
0.0
 11
1545.046042
 21
923.578542
 31
0.0
  0
LINE
  5
2E6E
100
AcDbEntity
  8
0
100
AcDbLine
 10
1533.046042
 20
923.578542
 30
0.0
 11
1545.046042
 21
923.578542
 31
0.0
  0
LINE
  5
2E6F
100
AcDbEntity
  8
0
100
AcDbLine
 10
1535.901246
 20
925.089353
 30
0.0
 11
1542.201246
 21
925.089353
 31
0.0
  0
LINE
  5
2E70
100
AcDbEntity
  8
0
100
AcDbLine
 10
1533.046042
 20
923.578542
 30
0.0
 11
1535.901246
 21
925.089353
 31
0.0
  0
LINE
  5
2E71
100
AcDbEntity
  8
0
100
AcDbLine
 10
1788.7387
 20
780.519654
 30
0.0
 11
1760.378575
 21
780.519654
 31
0.0
  0
LINE
  5
2E72
100
AcDbEntity
  8
0
100
AcDbLine
 10
1755.6502
 20
775.792967
 30
0.0
 11
1741.676012
 21
775.792967
 31
0.0
  0
LINE
  5
2E73
100
AcDbEntity
  8
0
100
AcDbLine
 10
1741.676012
 20
775.792967
 30
0.0
 11
1741.676012
 21
780.519654
 31
0.0
  0
LINE
  5
2E74
100
AcDbEntity
  8
0
100
AcDbLine
 10
1760.378575
 20
780.519654
 30
0.0
 11
1755.6502
 21
775.792967
 31
0.0
  0
LINE
  5
2E75
100
AcDbEntity
  8
0
100
AcDbLine
 10
1779.285325
 20
771.066279
 30
0.0
 11
1788.7387
 21
780.519654
 31
0.0
  0
LINE
  5
2E76
100
AcDbEntity
  8
0
100
AcDbLine
 10
2183.259566
 20
410.548673
 30
0.0
 11
2087.859566
 21
410.548673
 31
0.0
  0
LINE
  5
2E77
100
AcDbEntity
  8
0
100
AcDbLine
 10
2132.409566
 20
417.548673
 30
0.0
 11
2132.409566
 21
448.696857
 31
0.0
  0
LINE
  5
2E78
100
AcDbEntity
  8
0
100
AcDbLine
 10
2138.709566
 20
417.548673
 30
0.0
 11
2138.709566
 21
448.696857
 31
0.0
  0
LINE
  5
2E79
100
AcDbEntity
  8
0
100
AcDbLine
 10
2143.559566
 20
410.548673
 30
0.0
 11
2127.559566
 21
410.548673
 31
0.0
  0
LINE
  5
2E7A
100
AcDbEntity
  8
0
100
AcDbLine
 10
2132.404362
 20
424.059484
 30
0.0
 11
2129.559566
 21
422.548673
 31
0.0
  0
ARC
  5
2E7B
100
AcDbEntity
  8
0
100
AcDbCircle
 10
2131.409566
 20
417.548673
 30
0.0
 40
1.0
100
AcDbArc
 50
270.0
 51
0.0
  0
LINE
  5
2E7C
100
AcDbEntity
  8
0
100
AcDbLine
 10
2132.409566
 20
424.059484
 30
0.0
 11
2132.404362
 21
424.059484
 31
0.0
  0
LINE
  5
2E7D
100
AcDbEntity
  8
0
100
AcDbLine
 10
2132.409566
 20
422.548673
 30
0.0
 11
2129.559566
 21
422.548673
 31
0.0
  0
LINE
  5
2E7E
100
AcDbEntity
  8
0
100
AcDbLine
 10
2127.559566
 20
410.548673
 30
0.0
 11
2129.559566
 21
422.548673
 31
0.0
  0
LINE
  5
2E7F
100
AcDbEntity
  8
0
100
AcDbLine
 10
2141.559566
 20
422.548673
 30
0.0
 11
2138.704362
 21
424.059484
 31
0.0
  0
ARC
  5
2E80
100
AcDbEntity
  8
0
100
AcDbCircle
 10
2139.709566
 20
417.548673
 30
0.0
 40
1.0
100
AcDbArc
 50
180.0
 51
270.0
  0
LINE
  5
2E81
100
AcDbEntity
  8
0
100
AcDbLine
 10
2141.559566
 20
422.548673
 30
0.0
 11
2138.709566
 21
422.548673
 31
0.0
  0
LINE
  5
2E82
100
AcDbEntity
  8
0
100
AcDbLine
 10
2143.559566
 20
410.548673
 30
0.0
 11
2141.559566
 21
422.548673
 31
0.0
  0
ARC
  5
2E83
100
AcDbEntity
  8
0
100
AcDbCircle
 10
2135.559566
 20
433.548673
 30
0.0
 40
16.3
100
AcDbArc
 50
81.921896
 51
98.078104
  0
ARC
  5
2E84
100
AcDbEntity
  8
0
100
AcDbCircle
 10
2133.409566
 20
448.696857
 30
0.0
 40
1.0
100
AcDbArc
 50
98.078104
 51
180.0
  0
ARC
  5
2E85
100
AcDbEntity
  8
0
100
AcDbCircle
 10
2137.709566
 20
448.696857
 30
0.0
 40
1.0
100
AcDbArc
 50
0.0
 51
81.921896
  0
LINE
  5
2E89
100
AcDbEntity
  8
0
100
AcDbLine
 10
2265.555289
 20
595.650511
 30
0.0
 11
2275.214539
 21
586.197136
 31
0.0
  0
LINE
  5
2E8A
100
AcDbEntity
  8
0
100
AcDbLine
 10
2227.945976
 20
586.197136
 30
0.0
 11
2218.492601
 21
595.650511
 31
0.0
  0
LINE
  5
2E8B
100
AcDbEntity
  8
0
100
AcDbLine
 10
2275.214539
 20
586.197136
 30
0.0
 11
2227.945976
 21
586.197136
 31
0.0
  0
LINE
  5
2E8C
100
AcDbEntity
  8
0
100
AcDbLine
 10
2246.852726
 20
595.650511
 30
0.0
 11
2251.581101
 21
590.923823
 31
0.0
  0
LINE
  5
2E8D
100
AcDbEntity
  8
0
100
AcDbLine
 10
2218.492601
 20
595.650511
 30
0.0
 11
2246.852726
 21
595.650511
 31
0.0
  0
LINE
  5
2E8E
100
AcDbEntity
  8
0
100
AcDbLine
 10
2251.581101
 20
590.923823
 30
0.0
 11
2265.555289
 21
590.923823
 31
0.0
  0
LINE
  5
2E8F
100
AcDbEntity
  8
0
100
AcDbLine
 10
2265.555289
 20
590.923823
 30
0.0
 11
2265.555289
 21
595.650511
 31
0.0
  0
LINE
  5
2E95
100
AcDbEntity
  8
0
100
AcDbLine
 10
2382.810677
 20
564.27432
 30
0.0
 11
2382.810677
 21
617.27432
 31
0.0
  0
LINE
  5
2E97
100
AcDbEntity
  8
0
100
AcDbLine
 10
2382.810677
 20
744.578542
 30
0.0
 11
2382.810677
 21
797.578542
 31
0.0
  0
ARC
  5
2EA1
100
AcDbEntity
  8
0
100
AcDbCircle
 10
2703.738243
 20
390.548673
 30
0.0
 40
20.0
100
AcDbArc
 50
90.0
 51
180.0
  0
ARC
  5
2EA2
100
AcDbEntity
  8
0
100
AcDbCircle
 10
2799.138243
 20
390.548673
 30
0.0
 40
20.0
100
AcDbArc
 50
0.0
 51
90.0
  0
ARC
  5
2EA3
100
AcDbEntity
  8
0
100
AcDbCircle
 10
2516.604424
 20
390.548673
 30
0.0
 40
20.0
100
AcDbArc
 50
0.0
 51
90.0
  0
ARC
  5
2EA4
100
AcDbEntity
  8
0
100
AcDbCircle
 10
2421.204424
 20
390.548673
 30
0.0
 40
20.0
100
AcDbArc
 50
90.0
 51
180.0
  0
LINE
  5
2EA5
100
AcDbEntity
  8
0
100
AcDbLine
 10
2819.138243
 20
320.548673
 30
0.0
 11
2806.210499
 21
320.548673
 31
0.0
  0
LINE
  5
2EA6
100
AcDbEntity
  8
0
100
AcDbLine
 10
2806.210499
 20
320.548673
 30
0.0
 11
2818.938243
 21
320.548673
 31
0.0
  0
LINE
  5
2EAA
100
AcDbEntity
  8
0
100
AcDbLine
 10
2394.533589
 20
297.798673
 30
0.0
 11
2394.533589
 21
242.298673
 31
0.0
  0
LINE
  5
2EAB
100
AcDbEntity
  8
0
100
AcDbLine
 10
2393.561595
 20
243.982215
 30
0.0
 11
2393.561595
 21
296.11513
 31
0.0
  0
LINE
  5
2EAC
100
AcDbEntity
  8
0
100
AcDbLine
 10
2543.275259
 20
297.798673
 30
0.0
 11
2543.275259
 21
242.298673
 31
0.0
  0
LINE
  5
2EAD
100
AcDbEntity
  8
0
100
AcDbLine
 10
2544.247253
 20
296.11513
 30
0.0
 11
2544.247253
 21
243.982215
 31
0.0
  0
LINE
  5
2EAE
100
AcDbEntity
  8
0
100
AcDbLine
 10
2554.998171
 20
243.548673
 30
0.0
 11
2554.998171
 21
296.548673
 31
0.0
  0
LINE
  5
2EAF
100
AcDbEntity
  8
0
100
AcDbLine
 10
2399.904424
 20
241.298673
 30
0.0
 11
2537.904424
 21
241.298673
 31
0.0
  0
LINE
  5
2EB0
100
AcDbEntity
  8
0
100
AcDbLine
 10
2398.904424
 20
242.298673
 30
0.0
 11
2394.533589
 21
242.298673
 31
0.0
  0
LINE
  5
2EB1
100
AcDbEntity
  8
0
100
AcDbLine
 10
2393.561595
 20
243.982215
 30
0.0
 11
2394.533589
 21
242.298673
 31
0.0
  0
ARC
  5
2EB2
100
AcDbEntity
  8
0
100
AcDbCircle
 10
2398.904424
 20
241.298673
 30
0.0
 40
1.0
100
AcDbArc
 50
360.0
 51
90.0
  0
TEXT
  5
2EB3
100
AcDbEntity
  8
0
100
AcDbText
 10
2453.480599
 20
198.620439
 30
0.0
 40
20.0
  1
25A
 41
0.8
 11
2453.480599
 21
198.620439
 31
0.0
100
AcDbText
 73
     1
  0
ARC
  5
2EB4
100
AcDbEntity
  8
0
100
AcDbCircle
 10
2549.928544
 20
251.349412
 30
0.0
 40
9.303368
100
AcDbArc
 50
232.36201
 51
303.019459
  0
LINE
  5
2EB5
100
AcDbEntity
  8
0
100
AcDbLine
 10
2544.247253
 20
243.982215
 30
0.0
 11
2543.275259
 21
242.298673
 31
0.0
  0
ARC
  5
2EB6
100
AcDbEntity
  8
0
100
AcDbCircle
 10
2538.904424
 20
241.298673
 30
0.0
 40
1.0
100
AcDbArc
 50
90.0
 51
180.0
  0
LINE
  5
2EB7
100
AcDbEntity
  8
0
100
AcDbLine
 10
2538.904424
 20
242.298673
 30
0.0
 11
2543.275259
 21
242.298673
 31
0.0
  0
LINE
  5
2EB8
100
AcDbEntity
  8
0
100
AcDbLine
 10
2401.404424
 20
320.548673
 30
0.0
 11
2536.404424
 21
320.548673
 31
0.0
  0
LINE
  5
2EB9
100
AcDbEntity
  8
0
100
AcDbLine
 10
2394.533589
 20
297.798673
 30
0.0
 11
2543.275259
 21
297.798673
 31
0.0
  0
LINE
  5
2EBA
100
AcDbEntity
  8
0
100
AcDbLine
 10
2401.204424
 20
320.548673
 30
0.0
 11
2536.604424
 21
320.548673
 31
0.0
  0
LINE
  5
2EBB
100
AcDbEntity
  8
0
100
AcDbLine
 10
2401.204424
 20
320.548673
 30
0.0
 11
2401.204424
 21
390.548673
 31
0.0
  0
LINE
  5
2EBC
100
AcDbEntity
  8
0
100
AcDbLine
 10
2393.561595
 20
296.11513
 30
0.0
 11
2394.533589
 21
297.798673
 31
0.0
  0
LINE
  5
2EBD
100
AcDbEntity
  8
0
100
AcDbLine
 10
2399.904424
 20
298.798673
 30
0.0
 11
2401.404424
 21
298.798673
 31
0.0
  0
ARC
  5
2EBE
100
AcDbEntity
  8
0
100
AcDbCircle
 10
2398.904424
 20
298.798673
 30
0.0
 40
1.0
100
AcDbArc
 50
270.0
 51
0.0
  0
LINE
  5
2EBF
100
AcDbEntity
  8
0
100
AcDbLine
 10
2401.404424
 20
298.798673
 30
0.0
 11
2401.404424
 21
320.548673
 31
0.0
  0
LINE
  5
2EC0
100
AcDbEntity
  8
0
100
AcDbLine
 10
2400.404424
 20
298.798673
 30
0.0
 11
2401.404424
 21
298.798673
 31
0.0
  0
LINE
  5
2EC1
100
AcDbEntity
  8
0
100
AcDbLine
 10
2536.604424
 20
320.548673
 30
0.0
 11
2536.604424
 21
390.548673
 31
0.0
  0
ARC
  5
2EC2
100
AcDbEntity
  8
0
100
AcDbCircle
 10
2549.928544
 20
288.747933
 30
0.0
 40
9.303368
100
AcDbArc
 50
56.980541
 51
127.63799
  0
LINE
  5
2EC3
100
AcDbEntity
  8
0
100
AcDbLine
 10
2544.247253
 20
296.11513
 30
0.0
 11
2543.275259
 21
297.798673
 31
0.0
  0
ARC
  5
2EC4
100
AcDbEntity
  8
0
100
AcDbCircle
 10
2538.904424
 20
298.798673
 30
0.0
 40
1.0
100
AcDbArc
 50
180.0
 51
270.0
  0
LINE
  5
2EC5
100
AcDbEntity
  8
0
100
AcDbLine
 10
2536.404424
 20
298.798673
 30
0.0
 11
2536.404424
 21
320.548673
 31
0.0
  0
LINE
  5
2EC6
100
AcDbEntity
  8
0
100
AcDbLine
 10
2537.404424
 20
298.798673
 30
0.0
 11
2536.404424
 21
298.798673
 31
0.0
  0
LINE
  5
2EC7
100
AcDbEntity
  8
0
100
AcDbLine
 10
2537.904424
 20
298.798673
 30
0.0
 11
2536.404424
 21
298.798673
 31
0.0
  0
LINE
  5
2ECA
100
AcDbEntity
  8
0
100
AcDbLine
 10
2666.438243
 20
295.798673
 30
0.0
 11
2666.438243
 21
243.298673
 31
0.0
  0
LINE
  5
2ECD
100
AcDbEntity
  8
0
100
AcDbLine
 10
2668.438243
 20
241.298673
 30
0.0
 11
2682.709155
 21
241.298673
 31
0.0
  0
LINE
  5
2ECE
100
AcDbEntity
  8
0
100
AcDbLine
 10
2666.438243
 20
243.298673
 30
0.0
 11
2681.906326
 21
243.298673
 31
0.0
  0
LINE
  5
2ECF
100
AcDbEntity
  8
0
100
AcDbLine
 10
2666.438243
 20
243.298673
 30
0.0
 11
2668.438243
 21
241.298673
 31
0.0
  0
LINE
  5
2ED2
100
AcDbEntity
  8
0
100
AcDbLine
 10
2683.938243
 20
320.548673
 30
0.0
 11
2696.665987
 21
320.548673
 31
0.0
  0
LINE
  5
2ED3
100
AcDbEntity
  8
0
100
AcDbLine
 10
2696.665987
 20
320.548673
 30
0.0
 11
2683.738243
 21
320.548673
 31
0.0
  0
LINE
  5
2ED4
100
AcDbEntity
  8
0
100
AcDbLine
 10
2683.738243
 20
320.548673
 30
0.0
 11
2683.738243
 21
390.548673
 31
0.0
  0
LINE
  5
2ED8
100
AcDbEntity
  8
0
100
AcDbLine
 10
2668.438243
 20
297.798673
 30
0.0
 11
2666.438243
 21
295.798673
 31
0.0
  0
LINE
  5
2ED9
100
AcDbEntity
  8
0
100
AcDbLine
 10
2666.438243
 20
295.798673
 30
0.0
 11
2681.529821
 21
295.798673
 31
0.0
  0
LINE
  5
2EDA
100
AcDbEntity
  8
0
100
AcDbLine
 10
2668.438243
 20
297.798673
 30
0.0
 11
2682.299343
 21
297.798673
 31
0.0
  0
LINE
  5
2EDB
100
AcDbEntity
  8
0
100
AcDbLine
 10
2683.938243
 20
301.576438
 30
0.0
 11
2683.938243
 21
320.548673
 31
0.0
  0
LINE
  5
2EDE
100
AcDbEntity
  8
0
100
AcDbLine
 10
2836.438243
 20
295.798673
 30
0.0
 11
2836.438243
 21
243.298673
 31
0.0
  0
LINE
  5
2EDF
100
AcDbEntity
  8
0
100
AcDbLine
 10
2820.167331
 20
241.298673
 30
0.0
 11
2834.438243
 21
241.298673
 31
0.0
  0
LINE
  5
2EE0
100
AcDbEntity
  8
0
100
AcDbLine
 10
2820.97016
 20
243.298673
 30
0.0
 11
2836.438243
 21
243.298673
 31
0.0
  0
LINE
  5
2EE2
100
AcDbEntity
  8
0
100
AcDbLine
 10
2836.438243
 20
243.298673
 30
0.0
 11
2834.438243
 21
241.298673
 31
0.0
  0
LINE
  5
2EE3
100
AcDbEntity
  8
0
100
AcDbLine
 10
2819.138243
 20
320.548673
 30
0.0
 11
2819.138243
 21
390.548673
 31
0.0
  0
LINE
  5
2EE4
100
AcDbEntity
  8
0
100
AcDbLine
 10
2834.438243
 20
297.798673
 30
0.0
 11
2836.438243
 21
295.798673
 31
0.0
  0
LINE
  5
2EE5
100
AcDbEntity
  8
0
100
AcDbLine
 10
2821.346665
 20
295.798673
 30
0.0
 11
2836.438243
 21
295.798673
 31
0.0
  0
LINE
  5
2EE6
100
AcDbEntity
  8
0
100
AcDbLine
 10
2820.577143
 20
297.798673
 30
0.0
 11
2834.438243
 21
297.798673
 31
0.0
  0
LINE
  5
2EE7
100
AcDbEntity
  8
0
100
AcDbLine
 10
2818.938243
 20
301.576438
 30
0.0
 11
2818.938243
 21
320.548673
 31
0.0
  0
CIRCLE
  5
2EEA
100
AcDbEntity
  8
0
100
AcDbCircle
 10
2468.904424
 20
590.77432
 30
0.0
 40
67.7
  0
LINE
  5
2EEB
100
AcDbEntity
  8
0
100
AcDbLine
 10
2399.904424
 20
541.135626
 30
0.0
 11
2399.904424
 21
640.413015
 31
0.0
  0
LINE
  5
2EEC
100
AcDbEntity
  8
0
100
AcDbLine
 10
2537.904424
 20
541.135626
 30
0.0
 11
2537.904424
 21
640.413015
 31
0.0
  0
ARC
  5
2EED
100
AcDbEntity
  8
0
100
AcDbCircle
 10
2468.904424
 20
590.77432
 30
0.0
 40
85.0
100
AcDbArc
 50
215.731292
 51
324.268708
  0
ARC
  5
2EEE
100
AcDbEntity
  8
0
100
AcDbCircle
 10
2468.904424
 20
590.77432
 30
0.0
 40
83.0
100
AcDbArc
 50
213.76488
 51
326.23512
  0
LINE
  5
2EEF
100
AcDbEntity
  8
0
100
AcDbLine
 10
2421.204424
 20
410.548673
 30
0.0
 11
2516.604424
 21
410.548673
 31
0.0
  0
ARC
  5
2EF0
100
AcDbEntity
  8
0
100
AcDbCircle
 10
2468.904424
 20
433.548673
 30
0.0
 40
16.3
100
AcDbArc
 50
309.353409
 51
230.646591
  0
ARC
  5
2EF1
100
AcDbEntity
  8
0
100
AcDbCircle
 10
2468.904424
 20
433.548673
 30
0.0
 40
10.0
100
AcDbArc
 50
288.392229
 51
251.646371
  0
LINE
  5
2EF2
100
AcDbEntity
  8
0
100
AcDbLine
 10
2462.904424
 20
422.548673
 30
0.0
 11
2474.904424
 21
422.548673
 31
0.0
  0
LINE
  5
2EF3
100
AcDbEntity
  8
0
100
AcDbLine
 10
2472.059627
 20
424.059484
 30
0.0
 11
2474.904424
 21
422.548673
 31
0.0
  0
LINE
  5
2EF4
100
AcDbEntity
  8
0
100
AcDbLine
 10
2460.904424
 20
410.548673
 30
0.0
 11
2476.904424
 21
410.548673
 31
0.0
  0
LINE
  5
2EF5
100
AcDbEntity
  8
0
100
AcDbLine
 10
2465.759627
 20
424.059484
 30
0.0
 11
2472.059627
 21
424.059484
 31
0.0
  0
LINE
  5
2EF6
100
AcDbEntity
  8
0
100
AcDbLine
 10
2462.904424
 20
422.548673
 30
0.0
 11
2465.759627
 21
424.059484
 31
0.0
  0
ARC
  5
2EF7
100
AcDbEntity
  8
0
100
AcDbCircle
 10
2453.495747
 20
414.758711
 30
0.0
 40
8.0
100
AcDbArc
 50
350.537678
 51
50.646591
  0
LINE
  5
2EF8
100
AcDbEntity
  8
0
100
AcDbLine
 10
2460.904424
 20
410.548673
 30
0.0
 11
2462.904424
 21
422.548673
 31
0.0
  0
ARC
  5
2EF9
100
AcDbEntity
  8
0
100
AcDbCircle
 10
2484.313101
 20
414.758711
 30
0.0
 40
8.0
100
AcDbArc
 50
129.353409
 51
189.462322
  0
LINE
  5
2EFA
100
AcDbEntity
  8
0
100
AcDbLine
 10
2476.904424
 20
410.548673
 30
0.0
 11
2474.904424
 21
422.548673
 31
0.0
  0
ARC
  5
2EFB
100
AcDbEntity
  8
0
100
AcDbCircle
 10
2468.904424
 20
590.77432
 30
0.0
 40
85.0
100
AcDbArc
 50
35.731292
 51
144.268708
  0
ARC
  5
2EFC
100
AcDbEntity
  8
0
100
AcDbCircle
 10
2468.904424
 20
590.77432
 30
0.0
 40
83.0
100
AcDbArc
 50
33.76488
 51
146.23512
  0
LINE
  5
2EFD
100
AcDbEntity
  8
0
100
AcDbLine
 10
2393.561595
 20
564.707863
 30
0.0
 11
2393.561595
 21
616.840778
 31
0.0
  0
LINE
  5
2EFF
100
AcDbEntity
  8
0
100
AcDbLine
 10
2393.561595
 20
564.707863
 30
0.0
 11
2394.533589
 21
563.02432
 31
0.0
  0
LINE
  5
2F00
100
AcDbEntity
  8
0
100
AcDbLine
 10
2394.533589
 20
618.52432
 30
0.0
 11
2399.904424
 21
618.52432
 31
0.0
  0
LINE
  5
2F01
100
AcDbEntity
  8
0
100
AcDbLine
 10
2393.561595
 20
616.840778
 30
0.0
 11
2394.533589
 21
618.52432
 31
0.0
  0
ARC
  5
2F02
100
AcDbEntity
  8
0
100
AcDbCircle
 10
2482.054424
 20
590.77432
 30
0.0
 40
3.15
100
AcDbArc
 50
270.0
 51
90.0
  0
ARC
  5
2F03
100
AcDbEntity
  8
0
100
AcDbCircle
 10
2455.754424
 20
590.77432
 30
0.0
 40
3.15
100
AcDbArc
 50
90.0
 51
270.0
  0
ARC
  5
2F04
100
AcDbEntity
  8
0
100
AcDbCircle
 10
2468.904424
 20
590.77432
 30
0.0
 40
6.0
100
AcDbArc
 50
211.668243
 51
328.331757
  0
ARC
  5
2F05
100
AcDbEntity
  8
0
100
AcDbCircle
 10
2468.904424
 20
590.77432
 30
0.0
 40
8.0
100
AcDbArc
 50
203.188038
 51
336.811962
  0
LINE
  5
2F06
100
AcDbEntity
  8
0
100
AcDbLine
 10
2455.754424
 20
587.62432
 30
0.0
 11
2482.054424
 21
587.62432
 31
0.0
  0
ARC
  5
2F07
100
AcDbEntity
  8
0
100
AcDbCircle
 10
2468.904424
 20
590.77432
 30
0.0
 40
6.0
100
AcDbArc
 50
31.668243
 51
148.331757
  0
ARC
  5
2F08
100
AcDbEntity
  8
0
100
AcDbCircle
 10
2468.904424
 20
590.77432
 30
0.0
 40
8.0
100
AcDbArc
 50
23.188038
 51
156.811962
  0
LINE
  5
2F09
100
AcDbEntity
  8
0
100
AcDbLine
 10
2455.754424
 20
593.92432
 30
0.0
 11
2482.054424
 21
593.92432
 31
0.0
  0
ARC
  5
2F0A
100
AcDbEntity
  8
0
100
AcDbCircle
 10
2549.928544
 20
572.07506
 30
0.0
 40
9.303368
100
AcDbArc
 50
232.36201
 51
303.019459
  0
ARC
  5
2F0B
100
AcDbEntity
  8
0
100
AcDbCircle
 10
2549.928544
 20
609.473581
 30
0.0
 40
9.303368
100
AcDbArc
 50
56.980541
 51
127.63799
  0
LINE
  5
2F0C
100
AcDbEntity
  8
0
100
AcDbLine
 10
2544.247253
 20
616.840778
 30
0.0
 11
2544.247253
 21
564.707863
 31
0.0
  0
LINE
  5
2F0E
100
AcDbEntity
  8
0
100
AcDbLine
 10
2544.247253
 20
564.707863
 30
0.0
 11
2543.275259
 21
563.02432
 31
0.0
  0
LINE
  5
2F0F
100
AcDbEntity
  8
0
100
AcDbLine
 10
2543.275259
 20
618.52432
 30
0.0
 11
2537.904424
 21
618.52432
 31
0.0
  0
LINE
  5
2F10
100
AcDbEntity
  8
0
100
AcDbLine
 10
2544.247253
 20
616.840778
 30
0.0
 11
2543.275259
 21
618.52432
 31
0.0
  0
LINE
  5
2F11
100
AcDbEntity
  8
0
100
AcDbLine
 10
2554.998171
 20
564.27432
 30
0.0
 11
2554.998171
 21
617.27432
 31
0.0
  0
ARC
  5
2F15
100
AcDbEntity
  8
0
100
AcDbCircle
 10
2751.438243
 20
433.548673
 30
0.0
 40
16.3
100
AcDbArc
 50
81.921896
 51
98.078104
  0
LINE
  5
2F16
100
AcDbEntity
  8
0
100
AcDbLine
 10
2703.738243
 20
410.548673
 30
0.0
 11
2799.138243
 21
410.548673
 31
0.0
  0
LINE
  5
2F17
100
AcDbEntity
  8
0
100
AcDbLine
 10
2743.438243
 20
410.548673
 30
0.0
 11
2759.438243
 21
410.548673
 31
0.0
  0
LINE
  5
2F18
100
AcDbEntity
  8
0
100
AcDbLine
 10
2748.288243
 20
417.548673
 30
0.0
 11
2748.288243
 21
448.696857
 31
0.0
  0
LINE
  5
2F19
100
AcDbEntity
  8
0
100
AcDbLine
 10
2745.438243
 20
422.548673
 30
0.0
 11
2748.293446
 21
424.059484
 31
0.0
  0
ARC
  5
2F1A
100
AcDbEntity
  8
0
100
AcDbCircle
 10
2747.288243
 20
417.548673
 30
0.0
 40
1.0
100
AcDbArc
 50
270.0
 51
0.0
  0
LINE
  5
2F1B
100
AcDbEntity
  8
0
100
AcDbLine
 10
2745.438243
 20
422.548673
 30
0.0
 11
2748.288243
 21
422.548673
 31
0.0
  0
LINE
  5
2F1C
100
AcDbEntity
  8
0
100
AcDbLine
 10
2743.438243
 20
410.548673
 30
0.0
 11
2745.438243
 21
422.548673
 31
0.0
  0
ARC
  5
2F1D
100
AcDbEntity
  8
0
100
AcDbCircle
 10
2749.288243
 20
448.696857
 30
0.0
 40
1.0
100
AcDbArc
 50
98.078104
 51
180.0
  0
LINE
  5
2F1E
100
AcDbEntity
  8
0
100
AcDbLine
 10
2754.588243
 20
417.548673
 30
0.0
 11
2754.588243
 21
448.696857
 31
0.0
  0
LINE
  5
2F1F
100
AcDbEntity
  8
0
100
AcDbLine
 10
2754.593446
 20
424.059484
 30
0.0
 11
2757.438243
 21
422.548673
 31
0.0
  0
ARC
  5
2F20
100
AcDbEntity
  8
0
100
AcDbCircle
 10
2755.588243
 20
417.548673
 30
0.0
 40
1.0
100
AcDbArc
 50
180.0
 51
270.0
  0
LINE
  5
2F21
100
AcDbEntity
  8
0
100
AcDbLine
 10
2754.588243
 20
424.059484
 30
0.0
 11
2754.593446
 21
424.059484
 31
0.0
  0
LINE
  5
2F22
100
AcDbEntity
  8
0
100
AcDbLine
 10
2754.588243
 20
422.548673
 30
0.0
 11
2757.438243
 21
422.548673
 31
0.0
  0
LINE
  5
2F23
100
AcDbEntity
  8
0
100
AcDbLine
 10
2759.438243
 20
410.548673
 30
0.0
 11
2757.438243
 21
422.548673
 31
0.0
  0
ARC
  5
2F24
100
AcDbEntity
  8
0
100
AcDbCircle
 10
2753.588243
 20
448.696857
 30
0.0
 40
1.0
100
AcDbArc
 50
0.0
 51
81.921896
  0
LINE
  5
2F2B
100
AcDbEntity
  8
0
100
AcDbLine
 10
2401.204424
 20
821.578542
 30
0.0
 11
2401.204424
 21
891.578542
 31
0.0
  0
LINE
  5
2F2C
100
AcDbEntity
  8
0
100
AcDbLine
 10
2536.604424
 20
821.578542
 30
0.0
 11
2536.604424
 21
891.578542
 31
0.0
  0
LINE
  5
2F2D
100
AcDbEntity
  8
0
100
AcDbLine
 10
2394.533589
 20
798.828542
 30
0.0
 11
2543.275259
 21
798.828542
 31
0.0
  0
LINE
  5
2F2E
100
AcDbEntity
  8
0
100
AcDbLine
 10
2399.904424
 20
742.328542
 30
0.0
 11
2537.904424
 21
742.328542
 31
0.0
  0
LINE
  5
2F2F
100
AcDbEntity
  8
0
100
AcDbLine
 10
2401.404424
 20
821.578542
 30
0.0
 11
2536.404424
 21
821.578542
 31
0.0
  0
LINE
  5
2F30
100
AcDbEntity
  8
0
100
AcDbLine
 10
2401.204424
 20
821.578542
 30
0.0
 11
2536.604424
 21
821.578542
 31
0.0
  0
LINE
  5
2F31
100
AcDbEntity
  8
0
100
AcDbLine
 10
2394.533589
 20
798.828542
 30
0.0
 11
2394.533589
 21
743.328542
 31
0.0
  0
LINE
  5
2F32
100
AcDbEntity
  8
0
100
AcDbLine
 10
2393.561595
 20
745.012084
 30
0.0
 11
2393.561595
 21
797.144999
 31
0.0
  0
LINE
  5
2F33
100
AcDbEntity
  8
0
100
AcDbLine
 10
2398.904424
 20
743.328542
 30
0.0
 11
2394.533589
 21
743.328542
 31
0.0
  0
LINE
  5
2F34
100
AcDbEntity
  8
0
100
AcDbLine
 10
2393.561595
 20
745.012084
 30
0.0
 11
2394.533589
 21
743.328542
 31
0.0
  0
ARC
  5
2F35
100
AcDbEntity
  8
0
100
AcDbCircle
 10
2398.904424
 20
742.328542
 30
0.0
 40
1.0
100
AcDbArc
 50
360.0
 51
90.0
  0
LINE
  5
2F36
100
AcDbEntity
  8
0
100
AcDbLine
 10
2401.404424
 20
799.828542
 30
0.0
 11
2401.404424
 21
821.578542
 31
0.0
  0
LINE
  5
2F37
100
AcDbEntity
  8
0
100
AcDbLine
 10
2393.561595
 20
797.144999
 30
0.0
 11
2394.533589
 21
798.828542
 31
0.0
  0
LINE
  5
2F38
100
AcDbEntity
  8
0
100
AcDbLine
 10
2399.904424
 20
799.828542
 30
0.0
 11
2401.404424
 21
799.828542
 31
0.0
  0
ARC
  5
2F39
100
AcDbEntity
  8
0
100
AcDbCircle
 10
2398.904424
 20
799.828542
 30
0.0
 40
1.0
100
AcDbArc
 50
270.0
 51
0.0
  0
LINE
  5
2F3A
100
AcDbEntity
  8
0
100
AcDbLine
 10
2400.404424
 20
799.828542
 30
0.0
 11
2401.404424
 21
799.828542
 31
0.0
  0
LINE
  5
2F3B
100
AcDbEntity
  8
0
100
AcDbLine
 10
2543.275259
 20
798.828542
 30
0.0
 11
2543.275259
 21
743.328542
 31
0.0
  0
LINE
  5
2F3C
100
AcDbEntity
  8
0
100
AcDbLine
 10
2544.247253
 20
797.144999
 30
0.0
 11
2544.247253
 21
745.012084
 31
0.0
  0
LINE
  5
2F3D
100
AcDbEntity
  8
0
100
AcDbLine
 10
2554.998171
 20
744.578542
 30
0.0
 11
2554.998171
 21
797.578542
 31
0.0
  0
ARC
  5
2F3E
100
AcDbEntity
  8
0
100
AcDbCircle
 10
2549.928544
 20
752.379281
 30
0.0
 40
9.303368
100
AcDbArc
 50
232.36201
 51
303.019459
  0
LINE
  5
2F3F
100
AcDbEntity
  8
0
100
AcDbLine
 10
2544.247253
 20
745.012084
 30
0.0
 11
2543.275259
 21
743.328542
 31
0.0
  0
ARC
  5
2F40
100
AcDbEntity
  8
0
100
AcDbCircle
 10
2538.904424
 20
742.328542
 30
0.0
 40
1.0
100
AcDbArc
 50
90.0
 51
180.0
  0
LINE
  5
2F41
100
AcDbEntity
  8
0
100
AcDbLine
 10
2538.904424
 20
743.328542
 30
0.0
 11
2543.275259
 21
743.328542
 31
0.0
  0
ARC
  5
2F42
100
AcDbEntity
  8
0
100
AcDbCircle
 10
2549.928544
 20
789.777802
 30
0.0
 40
9.303368
100
AcDbArc
 50
56.980541
 51
127.63799
  0
LINE
  5
2F43
100
AcDbEntity
  8
0
100
AcDbLine
 10
2536.404424
 20
799.828542
 30
0.0
 11
2536.404424
 21
821.578542
 31
0.0
  0
LINE
  5
2F44
100
AcDbEntity
  8
0
100
AcDbLine
 10
2544.247253
 20
797.144999
 30
0.0
 11
2543.275259
 21
798.828542
 31
0.0
  0
ARC
  5
2F45
100
AcDbEntity
  8
0
100
AcDbCircle
 10
2538.904424
 20
799.828542
 30
0.0
 40
1.0
100
AcDbArc
 50
180.0
 51
270.0
  0
LINE
  5
2F46
100
AcDbEntity
  8
0
100
AcDbLine
 10
2537.404424
 20
799.828542
 30
0.0
 11
2536.404424
 21
799.828542
 31
0.0
  0
LINE
  5
2F47
100
AcDbEntity
  8
0
100
AcDbLine
 10
2537.904424
 20
799.828542
 30
0.0
 11
2536.404424
 21
799.828542
 31
0.0
  0
LINE
  5
2F48
100
AcDbEntity
  8
0
100
AcDbLine
 10
2421.204424
 20
911.578542
 30
0.0
 11
2516.604424
 21
911.578542
 31
0.0
  0
LINE
  5
2F49
100
AcDbEntity
  8
0
100
AcDbLine
 10
2476.904424
 20
911.578542
 30
0.0
 11
2474.904424
 21
923.578542
 31
0.0
  0
ARC
  5
2F4A
100
AcDbEntity
  8
0
100
AcDbCircle
 10
2484.313101
 20
915.78858
 30
0.0
 40
8.0
100
AcDbArc
 50
129.353409
 51
189.462322
  0
ARC
  5
2F4B
100
AcDbEntity
  8
0
100
AcDbCircle
 10
2421.204424
 20
891.578542
 30
0.0
 40
20.0
100
AcDbArc
 50
90.0
 51
180.0
  0
LINE
  5
2F4C
100
AcDbEntity
  8
0
100
AcDbLine
 10
2460.904424
 20
911.578542
 30
0.0
 11
2462.904424
 21
923.578542
 31
0.0
  0
ARC
  5
2F4D
100
AcDbEntity
  8
0
100
AcDbCircle
 10
2453.495747
 20
915.78858
 30
0.0
 40
8.0
100
AcDbArc
 50
350.537678
 51
50.646591
  0
LINE
  5
2F4E
100
AcDbEntity
  8
0
100
AcDbLine
 10
2460.904424
 20
911.578542
 30
0.0
 11
2476.904424
 21
911.578542
 31
0.0
  0
LINE
  5
2F4F
100
AcDbEntity
  8
0
100
AcDbLine
 10
2462.904424
 20
923.578542
 30
0.0
 11
2474.904424
 21
923.578542
 31
0.0
  0
LINE
  5
2F50
100
AcDbEntity
  8
0
100
AcDbLine
 10
2472.059627
 20
925.089353
 30
0.0
 11
2474.904424
 21
923.578542
 31
0.0
  0
ARC
  5
2F51
100
AcDbEntity
  8
0
100
AcDbCircle
 10
2468.904424
 20
934.578542
 30
0.0
 40
16.3
100
AcDbArc
 50
309.353409
 51
230.646591
  0
ARC
  5
2F52
100
AcDbEntity
  8
0
100
AcDbCircle
 10
2468.904424
 20
934.578542
 30
0.0
 40
10.0
100
AcDbArc
 50
288.392229
 51
251.646371
  0
LINE
  5
2F53
100
AcDbEntity
  8
0
100
AcDbLine
 10
2465.759627
 20
925.089353
 30
0.0
 11
2472.059627
 21
925.089353
 31
0.0
  0
LINE
  5
2F54
100
AcDbEntity
  8
0
100
AcDbLine
 10
2462.904424
 20
923.578542
 30
0.0
 11
2465.759627
 21
925.089353
 31
0.0
  0
ARC
  5
2F55
100
AcDbEntity
  8
0
100
AcDbCircle
 10
2516.604424
 20
891.578542
 30
0.0
 40
20.0
100
AcDbArc
 50
0.0
 51
90.0
  0
LINE
  5
2F56
100
AcDbEntity
  8
0
100
AcDbLine
 10
2712.244171
 20
766.410654
 30
0.0
 11
2721.697546
 21
775.864029
 31
0.0
  0
LINE
  5
2F57
100
AcDbEntity
  8
0
100
AcDbLine
 10
2674.634858
 20
771.137341
 30
0.0
 11
2674.634858
 21
775.864029
 31
0.0
  0
LINE
  5
2F58
100
AcDbEntity
  8
0
100
AcDbLine
 10
2693.337421
 20
775.864029
 30
0.0
 11
2688.609046
 21
771.137341
 31
0.0
  0
LINE
  5
2F59
100
AcDbEntity
  8
0
100
AcDbLine
 10
2674.634858
 20
775.864029
 30
0.0
 11
2664.975608
 21
766.410654
 31
0.0
  0
LINE
  5
2F5E
100
AcDbEntity
  8
0
100
AcDbLine
 10
2664.975608
 20
766.410654
 30
0.0
 11
2712.244171
 21
766.410654
 31
0.0
  0
LINE
  5
2F5F
100
AcDbEntity
  8
0
100
AcDbLine
 10
2688.609046
 20
771.137341
 30
0.0
 11
2674.634858
 21
771.137341
 31
0.0
  0
LINE
  5
2F63
100
AcDbEntity
  8
0
100
AcDbLine
 10
2721.697546
 20
775.864029
 30
0.0
 11
2693.337421
 21
775.864029
 31
0.0
  0
ARC
  5
2FAC
100
AcDbEntity
  8
0
100
AcDbCircle
 10
485.370433
 20
243.048673
 30
0.0
 40
5.0
100
AcDbArc
 50
90.0
 51
180.0
  0
LINE
  5
2FAE
100
AcDbEntity
  8
0
100
AcDbLine
 10
451.470433
 20
270.048673
 30
0.0
 11
451.470433
 21
209.548673
 31
0.0
  0
LINE
  5
2FB0
100
AcDbEntity
  8
0
100
AcDbLine
 10
511.470433
 20
243.548673
 30
0.0
 11
506.970433
 21
248.048673
 31
0.0
  0
LINE
  5
2FB1
100
AcDbEntity
  8
0
100
AcDbLine
 10
511.470433
 20
296.548673
 30
0.0
 11
511.470433
 21
243.548673
 31
0.0
  0
LINE
  5
2FB2
100
AcDbEntity
  8
0
100
AcDbLine
 10
480.370433
 20
330.548673
 30
0.0
 11
480.370433
 21
209.548673
 31
0.0
  0
LINE
  5
2FB3
100
AcDbEntity
  8
0
100
AcDbLine
 10
480.370433
 20
209.548673
 30
0.0
 11
451.470433
 21
209.548673
 31
0.0
  0
LINE
  5
2FB4
100
AcDbEntity
  8
0
100
AcDbLine
 10
535.376686
 20
243.548673
 30
0.0
 11
511.470433
 21
243.548673
 31
0.0
  0
LINE
  5
2FB5
100
AcDbEntity
  8
0
100
AcDbLine
 10
480.370433
 20
330.548673
 30
0.0
 11
451.470433
 21
330.548673
 31
0.0
  0
LINE
  5
2FB6
100
AcDbEntity
  8
0
100
AcDbLine
 10
451.470433
 20
330.548673
 30
0.0
 11
451.470433
 21
270.048673
 31
0.0
  0
LINE
  5
2FB7
100
AcDbEntity
  8
0
100
AcDbLine
 10
535.376686
 20
296.548673
 30
0.0
 11
511.470433
 21
296.548673
 31
0.0
  0
LINE
  5
2FB8
100
AcDbEntity
  8
0
100
AcDbLine
 10
506.970433
 20
292.048673
 30
0.0
 11
506.970433
 21
248.048673
 31
0.0
  0
LINE
  5
2FB9
100
AcDbEntity
  8
0
100
AcDbLine
 10
506.970433
 20
248.048673
 30
0.0
 11
485.370433
 21
248.048673
 31
0.0
  0
LINE
  5
2FBA
100
AcDbEntity
  8
0
100
AcDbLine
 10
506.970433
 20
292.048673
 30
0.0
 11
485.370433
 21
292.048673
 31
0.0
  0
ARC
  5
2FBB
100
AcDbEntity
  8
0
100
AcDbCircle
 10
485.370433
 20
297.048673
 30
0.0
 40
5.0
100
AcDbArc
 50
180.0
 51
270.0
  0
LINE
  5
2FBC
100
AcDbEntity
  8
0
100
AcDbLine
 10
511.470433
 20
296.548673
 30
0.0
 11
506.970433
 21
292.048673
 31
0.0
  0
LINE
  5
2FC5
100
AcDbEntity
  8
0
100
AcDbLine
 10
762.570433
 20
330.548673
 30
0.0
 11
762.570433
 21
209.548673
 31
0.0
  0
LINE
  5
2FC6
100
AcDbEntity
  8
0
100
AcDbLine
 10
791.470433
 20
270.048673
 30
0.0
 11
791.470433
 21
209.548673
 31
0.0
  0
LINE
  5
2FC7
100
AcDbEntity
  8
0
100
AcDbLine
 10
762.570433
 20
209.548673
 30
0.0
 11
791.470433
 21
209.548673
 31
0.0
  0
LINE
  5
2FC8
100
AcDbEntity
  8
0
100
AcDbLine
 10
791.470433
 20
330.548673
 30
0.0
 11
791.470433
 21
270.048673
 31
0.0
  0
LINE
  5
2FC9
100
AcDbEntity
  8
0
100
AcDbLine
 10
735.970433
 20
292.048673
 30
0.0
 11
757.570433
 21
292.048673
 31
0.0
  0
LINE
  5
2FCA
100
AcDbEntity
  8
0
100
AcDbLine
 10
735.970433
 20
248.048673
 30
0.0
 11
757.570433
 21
248.048673
 31
0.0
  0
ARC
  5
2FCB
100
AcDbEntity
  8
0
100
AcDbCircle
 10
757.570433
 20
243.048673
 30
0.0
 40
5.0
100
AcDbArc
 50
0.0
 51
90.0
  0
ARC
  5
2FCC
100
AcDbEntity
  8
0
100
AcDbCircle
 10
757.570433
 20
297.048673
 30
0.0
 40
5.0
100
AcDbArc
 50
270.0
 51
0.0
  0
LINE
  5
2FCD
100
AcDbEntity
  8
0
100
AcDbLine
 10
735.970433
 20
292.048673
 30
0.0
 11
735.970433
 21
248.048673
 31
0.0
  0
LINE
  5
2FCE
100
AcDbEntity
  8
0
100
AcDbLine
 10
731.470433
 20
296.548673
 30
0.0
 11
731.470433
 21
243.548673
 31
0.0
  0
LINE
  5
2FCF
100
AcDbEntity
  8
0
100
AcDbLine
 10
731.470433
 20
243.548673
 30
0.0
 11
735.970433
 21
248.048673
 31
0.0
  0
LINE
  5
2FD0
100
AcDbEntity
  8
0
100
AcDbLine
 10
731.470433
 20
296.548673
 30
0.0
 11
735.970433
 21
292.048673
 31
0.0
  0
LINE
  5
2FD1
100
AcDbEntity
  8
0
100
AcDbLine
 10
762.570433
 20
330.548673
 30
0.0
 11
791.470433
 21
330.548673
 31
0.0
  0
LINE
  5
2FD2
100
AcDbEntity
  8
0
100
AcDbLine
 10
707.56418
 20
296.548673
 30
0.0
 11
731.470433
 21
296.548673
 31
0.0
  0
LINE
  5
2FD3
100
AcDbEntity
  8
0
100
AcDbLine
 10
707.56418
 20
243.548673
 30
0.0
 11
731.470433
 21
243.548673
 31
0.0
  0
LINE
  5
2FD4
100
AcDbEntity
  8
0
100
AcDbLine
 10
480.370433
 20
651.27432
 30
0.0
 11
480.370433
 21
530.27432
 31
0.0
  0
LINE
  5
2FD5
100
AcDbEntity
  8
0
100
AcDbLine
 10
451.470433
 20
590.77432
 30
0.0
 11
451.470433
 21
530.27432
 31
0.0
  0
LINE
  5
2FD6
100
AcDbEntity
  8
0
100
AcDbLine
 10
480.370433
 20
530.27432
 30
0.0
 11
451.470433
 21
530.27432
 31
0.0
  0
LINE
  5
2FD7
100
AcDbEntity
  8
0
100
AcDbLine
 10
451.470433
 20
651.27432
 30
0.0
 11
451.470433
 21
590.77432
 31
0.0
  0
LINE
  5
2FD8
100
AcDbEntity
  8
0
100
AcDbLine
 10
506.970433
 20
612.77432
 30
0.0
 11
485.370433
 21
612.77432
 31
0.0
  0
LINE
  5
2FD9
100
AcDbEntity
  8
0
100
AcDbLine
 10
506.970433
 20
568.77432
 30
0.0
 11
485.370433
 21
568.77432
 31
0.0
  0
ARC
  5
2FDA
100
AcDbEntity
  8
0
100
AcDbCircle
 10
485.370433
 20
563.77432
 30
0.0
 40
5.0
100
AcDbArc
 50
90.0
 51
180.0
  0
ARC
  5
2FDB
100
AcDbEntity
  8
0
100
AcDbCircle
 10
485.370433
 20
617.77432
 30
0.0
 40
5.0
100
AcDbArc
 50
180.0
 51
270.0
  0
LINE
  5
2FDC
100
AcDbEntity
  8
0
100
AcDbLine
 10
506.970433
 20
612.77432
 30
0.0
 11
506.970433
 21
568.77432
 31
0.0
  0
LINE
  5
2FDD
100
AcDbEntity
  8
0
100
AcDbLine
 10
511.470433
 20
617.27432
 30
0.0
 11
511.470433
 21
564.27432
 31
0.0
  0
LINE
  5
2FDE
100
AcDbEntity
  8
0
100
AcDbLine
 10
511.470433
 20
564.27432
 30
0.0
 11
506.970433
 21
568.77432
 31
0.0
  0
LINE
  5
2FDF
100
AcDbEntity
  8
0
100
AcDbLine
 10
511.470433
 20
617.27432
 30
0.0
 11
506.970433
 21
612.77432
 31
0.0
  0
LINE
  5
2FE0
100
AcDbEntity
  8
0
100
AcDbLine
 10
480.370433
 20
651.27432
 30
0.0
 11
451.470433
 21
651.27432
 31
0.0
  0
LINE
  5
2FE1
100
AcDbEntity
  8
0
100
AcDbLine
 10
535.376686
 20
617.27432
 30
0.0
 11
511.470433
 21
617.27432
 31
0.0
  0
LINE
  5
2FE2
100
AcDbEntity
  8
0
100
AcDbLine
 10
535.376686
 20
564.27432
 30
0.0
 11
511.470433
 21
564.27432
 31
0.0
  0
LINE
  5
2FE3
100
AcDbEntity
  8
0
100
AcDbLine
 10
762.570433
 20
651.27432
 30
0.0
 11
791.470433
 21
651.27432
 31
0.0
  0
LINE
  5
2FE4
100
AcDbEntity
  8
0
100
AcDbLine
 10
762.570433
 20
530.27432
 30
0.0
 11
791.470433
 21
530.27432
 31
0.0
  0
LINE
  5
2FE5
100
AcDbEntity
  8
0
100
AcDbLine
 10
762.570433
 20
651.27432
 30
0.0
 11
762.570433
 21
530.27432
 31
0.0
  0
LINE
  5
2FE6
100
AcDbEntity
  8
0
100
AcDbLine
 10
707.56418
 20
564.27432
 30
0.0
 11
731.470433
 21
564.27432
 31
0.0
  0
LINE
  5
2FE7
100
AcDbEntity
  8
0
100
AcDbLine
 10
707.56418
 20
617.27432
 30
0.0
 11
731.470433
 21
617.27432
 31
0.0
  0
LINE
  5
2FE8
100
AcDbEntity
  8
0
100
AcDbLine
 10
731.470433
 20
617.27432
 30
0.0
 11
731.470433
 21
564.27432
 31
0.0
  0
LINE
  5
2FE9
100
AcDbEntity
  8
0
100
AcDbLine
 10
735.970433
 20
612.77432
 30
0.0
 11
735.970433
 21
568.77432
 31
0.0
  0
ARC
  5
2FEA
100
AcDbEntity
  8
0
100
AcDbCircle
 10
757.570433
 20
563.77432
 30
0.0
 40
5.0
100
AcDbArc
 50
0.0
 51
90.0
  0
LINE
  5
2FEB
100
AcDbEntity
  8
0
100
AcDbLine
 10
731.470433
 20
564.27432
 30
0.0
 11
735.970433
 21
568.77432
 31
0.0
  0
LINE
  5
2FEC
100
AcDbEntity
  8
0
100
AcDbLine
 10
735.970433
 20
568.77432
 30
0.0
 11
757.570433
 21
568.77432
 31
0.0
  0
ARC
  5
2FED
100
AcDbEntity
  8
0
100
AcDbCircle
 10
757.570433
 20
617.77432
 30
0.0
 40
5.0
100
AcDbArc
 50
270.0
 51
0.0
  0
LINE
  5
2FEE
100
AcDbEntity
  8
0
100
AcDbLine
 10
731.470433
 20
617.27432
 30
0.0
 11
735.970433
 21
612.77432
 31
0.0
  0
LINE
  5
2FEF
100
AcDbEntity
  8
0
100
AcDbLine
 10
735.970433
 20
612.77432
 30
0.0
 11
757.570433
 21
612.77432
 31
0.0
  0
LINE
  5
2FF0
100
AcDbEntity
  8
0
100
AcDbLine
 10
791.470433
 20
590.77432
 30
0.0
 11
791.470433
 21
530.27432
 31
0.0
  0
LINE
  5
2FF1
100
AcDbEntity
  8
0
100
AcDbLine
 10
791.470433
 20
651.27432
 30
0.0
 11
791.470433
 21
590.77432
 31
0.0
  0
LINE
  5
2FF2
100
AcDbEntity
  8
0
100
AcDbLine
 10
480.370433
 20
831.578542
 30
0.0
 11
480.370433
 21
710.578542
 31
0.0
  0
LINE
  5
2FF3
100
AcDbEntity
  8
0
100
AcDbLine
 10
451.470433
 20
771.078542
 30
0.0
 11
451.470433
 21
710.578542
 31
0.0
  0
LINE
  5
2FF4
100
AcDbEntity
  8
0
100
AcDbLine
 10
480.370433
 20
710.578542
 30
0.0
 11
451.470433
 21
710.578542
 31
0.0
  0
LINE
  5
2FF5
100
AcDbEntity
  8
0
100
AcDbLine
 10
451.470433
 20
831.578542
 30
0.0
 11
451.470433
 21
771.078542
 31
0.0
  0
LINE
  5
2FF6
100
AcDbEntity
  8
0
100
AcDbLine
 10
506.970433
 20
793.078542
 30
0.0
 11
485.370433
 21
793.078542
 31
0.0
  0
LINE
  5
2FF7
100
AcDbEntity
  8
0
100
AcDbLine
 10
506.970433
 20
749.078542
 30
0.0
 11
485.370433
 21
749.078542
 31
0.0
  0
ARC
  5
2FF8
100
AcDbEntity
  8
0
100
AcDbCircle
 10
485.370433
 20
744.078542
 30
0.0
 40
5.0
100
AcDbArc
 50
90.0
 51
180.0
  0
ARC
  5
2FF9
100
AcDbEntity
  8
0
100
AcDbCircle
 10
485.370433
 20
798.078542
 30
0.0
 40
5.0
100
AcDbArc
 50
180.0
 51
270.0
  0
LINE
  5
2FFA
100
AcDbEntity
  8
0
100
AcDbLine
 10
506.970433
 20
793.078542
 30
0.0
 11
506.970433
 21
749.078542
 31
0.0
  0
LINE
  5
2FFB
100
AcDbEntity
  8
0
100
AcDbLine
 10
511.470433
 20
797.578542
 30
0.0
 11
511.470433
 21
744.578542
 31
0.0
  0
LINE
  5
2FFC
100
AcDbEntity
  8
0
100
AcDbLine
 10
511.470433
 20
744.578542
 30
0.0
 11
506.970433
 21
749.078542
 31
0.0
  0
LINE
  5
2FFD
100
AcDbEntity
  8
0
100
AcDbLine
 10
511.470433
 20
797.578542
 30
0.0
 11
506.970433
 21
793.078542
 31
0.0
  0
LINE
  5
2FFE
100
AcDbEntity
  8
0
100
AcDbLine
 10
480.370433
 20
831.578542
 30
0.0
 11
451.470433
 21
831.578542
 31
0.0
  0
LINE
  5
2FFF
100
AcDbEntity
  8
0
100
AcDbLine
 10
535.376686
 20
797.578542
 30
0.0
 11
511.470433
 21
797.578542
 31
0.0
  0
LINE
  5
3000
100
AcDbEntity
  8
0
100
AcDbLine
 10
535.376686
 20
744.578542
 30
0.0
 11
511.470433
 21
744.578542
 31
0.0
  0
LINE
  5
3001
100
AcDbEntity
  8
0
100
AcDbLine
 10
762.570433
 20
831.578542
 30
0.0
 11
791.470433
 21
831.578542
 31
0.0
  0
LINE
  5
3002
100
AcDbEntity
  8
0
100
AcDbLine
 10
762.570433
 20
710.578542
 30
0.0
 11
791.470433
 21
710.578542
 31
0.0
  0
LINE
  5
3003
100
AcDbEntity
  8
0
100
AcDbLine
 10
762.570433
 20
831.578542
 30
0.0
 11
762.570433
 21
710.578542
 31
0.0
  0
LINE
  5
3004
100
AcDbEntity
  8
0
100
AcDbLine
 10
707.56418
 20
744.578542
 30
0.0
 11
731.470433
 21
744.578542
 31
0.0
  0
LINE
  5
3005
100
AcDbEntity
  8
0
100
AcDbLine
 10
707.56418
 20
797.578542
 30
0.0
 11
731.470433
 21
797.578542
 31
0.0
  0
LINE
  5
3006
100
AcDbEntity
  8
0
100
AcDbLine
 10
731.470433
 20
797.578542
 30
0.0
 11
731.470433
 21
744.578542
 31
0.0
  0
LINE
  5
3007
100
AcDbEntity
  8
0
100
AcDbLine
 10
735.970433
 20
793.078542
 30
0.0
 11
735.970433
 21
749.078542
 31
0.0
  0
ARC
  5
3008
100
AcDbEntity
  8
0
100
AcDbCircle
 10
757.570433
 20
744.078542
 30
0.0
 40
5.0
100
AcDbArc
 50
0.0
 51
90.0
  0
LINE
  5
3009
100
AcDbEntity
  8
0
100
AcDbLine
 10
731.470433
 20
744.578542
 30
0.0
 11
735.970433
 21
749.078542
 31
0.0
  0
LINE
  5
300A
100
AcDbEntity
  8
0
100
AcDbLine
 10
735.970433
 20
749.078542
 30
0.0
 11
757.570433
 21
749.078542
 31
0.0
  0
ARC
  5
300B
100
AcDbEntity
  8
0
100
AcDbCircle
 10
757.570433
 20
798.078542
 30
0.0
 40
5.0
100
AcDbArc
 50
270.0
 51
0.0
  0
LINE
  5
300C
100
AcDbEntity
  8
0
100
AcDbLine
 10
731.470433
 20
797.578542
 30
0.0
 11
735.970433
 21
793.078542
 31
0.0
  0
LINE
  5
300D
100
AcDbEntity
  8
0
100
AcDbLine
 10
735.970433
 20
793.078542
 30
0.0
 11
757.570433
 21
793.078542
 31
0.0
  0
LINE
  5
300E
100
AcDbEntity
  8
0
100
AcDbLine
 10
791.470433
 20
771.078542
 30
0.0
 11
791.470433
 21
710.578542
 31
0.0
  0
LINE
  5
300F
100
AcDbEntity
  8
0
100
AcDbLine
 10
791.470433
 20
831.578542
 30
0.0
 11
791.470433
 21
771.078542
 31
0.0
  0
CIRCLE
  5
3010
100
AcDbEntity
  8
0
100
AcDbCircle
 10
288.411144
 20
270.048673
 30
0.0
 40
60.5
  0
CIRCLE
  5
3016
100
AcDbEntity
  8
0
100
AcDbCircle
 10
317.579299
 20
299.216827
 30
0.0
 40
11.5
  0
CIRCLE
  5
3017
100
AcDbEntity
  8
0
100
AcDbCircle
 10
317.579299
 20
240.880518
 30
0.0
 40
11.5
  0
CIRCLE
  5
3018
100
AcDbEntity
  8
0
100
AcDbCircle
 10
259.242989
 20
240.880518
 30
0.0
 40
11.5
  0
CIRCLE
  5
3019
100
AcDbEntity
  8
0
100
AcDbCircle
 10
259.242989
 20
299.216827
 30
0.0
 40
11.5
  0
LINE
  5
301A
100
AcDbEntity
  8
0
100
AcDbLine
 10
255.094482
 20
320.548673
 30
0.0
 11
220.911144
 21
320.548673
 31
0.0
  0
LINE
  5
301B
100
AcDbEntity
  8
0
100
AcDbLine
 10
321.727807
 20
320.548673
 30
0.0
 11
356.111144
 21
320.548673
 31
0.0
  0
CIRCLE
  5
301C
100
AcDbEntity
  8
0
100
AcDbCircle
 10
929.553347
 20
240.880518
 30
0.0
 40
11.5
  0
CIRCLE
  5
301D
100
AcDbEntity
  8
0
100
AcDbCircle
 10
929.553347
 20
299.216827
 30
0.0
 40
11.5
  0
CIRCLE
  5
301E
100
AcDbEntity
  8
0
100
AcDbCircle
 10
900.385192
 20
270.048673
 30
0.0
 40
60.5
  0
CIRCLE
  5
301F
100
AcDbEntity
  8
0
100
AcDbCircle
 10
871.217038
 20
240.880518
 30
0.0
 40
11.5
  0
CIRCLE
  5
3020
100
AcDbEntity
  8
0
100
AcDbCircle
 10
871.217038
 20
299.216827
 30
0.0
 40
11.5
  0
LINE
  5
3021
100
AcDbEntity
  8
0
100
AcDbLine
 10
933.701855
 20
320.548673
 30
0.0
 11
967.885192
 21
320.548673
 31
0.0
  0
LINE
  5
3022
100
AcDbEntity
  8
0
100
AcDbLine
 10
867.06853
 20
320.548673
 30
0.0
 11
832.685192
 21
320.548673
 31
0.0
  0
ARC
  5
30A2
100
AcDbEntity
  8
0
100
AcDbCircle
 10
1405.946042
 20
243.048673
 30
0.0
 40
5.0
100
AcDbArc
 50
90.0
 51
180.0
  0
LINE
  5
30A3
100
AcDbEntity
  8
0
100
AcDbLine
 10
1369.046042
 20
270.048673
 30
0.0
 11
1369.046042
 21
205.048673
 31
0.0
  0
LINE
  5
30A4
100
AcDbEntity
  8
0
100
AcDbLine
 10
1400.946042
 20
335.048673
 30
0.0
 11
1400.946042
 21
205.048673
 31
0.0
  0
LINE
  5
30A5
100
AcDbEntity
  8
0
100
AcDbLine
 10
1429.046042
 20
296.548673
 30
0.0
 11
1429.046042
 21
243.548673
 31
0.0
  0
LINE
  5
30A6
100
AcDbEntity
  8
0
100
AcDbLine
 10
1429.046042
 20
243.548673
 30
0.0
 11
1424.546042
 21
248.048673
 31
0.0
  0
LINE
  5
30A9
100
AcDbEntity
  8
0
100
AcDbLine
 10
1400.946042
 20
205.048673
 30
0.0
 11
1369.046042
 21
205.048673
 31
0.0
  0
LINE
  5
30AA
100
AcDbEntity
  8
0
100
AcDbLine
 10
1452.952295
 20
243.548673
 30
0.0
 11
1429.046042
 21
243.548673
 31
0.0
  0
LINE
  5
30AD
100
AcDbEntity
  8
0
100
AcDbLine
 10
1369.046042
 20
335.048673
 30
0.0
 11
1369.046042
 21
270.048673
 31
0.0
  0
ARC
  5
30AE
100
AcDbEntity
  8
0
100
AcDbCircle
 10
1405.946042
 20
297.048673
 30
0.0
 40
5.0
100
AcDbArc
 50
180.0
 51
270.0
  0
LINE
  5
30B1
100
AcDbEntity
  8
0
100
AcDbLine
 10
1424.546042
 20
292.048673
 30
0.0
 11
1424.546042
 21
248.048673
 31
0.0
  0
LINE
  5
30B2
100
AcDbEntity
  8
0
100
AcDbLine
 10
1424.546042
 20
248.048673
 30
0.0
 11
1405.946042
 21
248.048673
 31
0.0
  0
LINE
  5
30B4
100
AcDbEntity
  8
0
100
AcDbLine
 10
1452.952295
 20
296.548673
 30
0.0
 11
1429.046042
 21
296.548673
 31
0.0
  0
LINE
  5
30B5
100
AcDbEntity
  8
0
100
AcDbLine
 10
1424.546042
 20
292.048673
 30
0.0
 11
1405.946042
 21
292.048673
 31
0.0
  0
LINE
  5
30B6
100
AcDbEntity
  8
0
100
AcDbLine
 10
1429.046042
 20
296.548673
 30
0.0
 11
1424.546042
 21
292.048673
 31
0.0
  0
LINE
  5
30B9
100
AcDbEntity
  8
0
100
AcDbLine
 10
1400.946042
 20
335.048673
 30
0.0
 11
1369.046042
 21
335.048673
 31
0.0
  0
LINE
  5
30BB
100
AcDbEntity
  8
0
100
AcDbLine
 10
1677.146042
 20
335.048673
 30
0.0
 11
1677.146042
 21
205.048673
 31
0.0
  0
LINE
  5
30BC
100
AcDbEntity
  8
0
100
AcDbLine
 10
1709.046042
 20
270.048673
 30
0.0
 11
1709.046042
 21
205.048673
 31
0.0
  0
LINE
  5
30BD
100
AcDbEntity
  8
0
100
AcDbLine
 10
1677.146042
 20
205.048673
 30
0.0
 11
1709.046042
 21
205.048673
 31
0.0
  0
LINE
  5
30BE
100
AcDbEntity
  8
0
100
AcDbLine
 10
1709.046042
 20
335.048673
 30
0.0
 11
1709.046042
 21
270.048673
 31
0.0
  0
ARC
  5
30BF
100
AcDbEntity
  8
0
100
AcDbCircle
 10
1672.146042
 20
243.048673
 30
0.0
 40
5.0
100
AcDbArc
 50
0.0
 51
90.0
  0
ARC
  5
30C0
100
AcDbEntity
  8
0
100
AcDbCircle
 10
1672.146042
 20
297.048673
 30
0.0
 40
5.0
100
AcDbArc
 50
270.0
 51
0.0
  0
LINE
  5
30C1
100
AcDbEntity
  8
0
100
AcDbLine
 10
1677.146042
 20
335.048673
 30
0.0
 11
1709.046042
 21
335.048673
 31
0.0
  0
LINE
  5
30C2
100
AcDbEntity
  8
0
100
AcDbLine
 10
1653.546042
 20
292.048673
 30
0.0
 11
1672.146042
 21
292.048673
 31
0.0
  0
LINE
  5
30C3
100
AcDbEntity
  8
0
100
AcDbLine
 10
1653.546042
 20
248.048673
 30
0.0
 11
1672.146042
 21
248.048673
 31
0.0
  0
LINE
  5
30C4
100
AcDbEntity
  8
0
100
AcDbLine
 10
1400.946042
 20
655.77432
 30
0.0
 11
1400.946042
 21
525.77432
 31
0.0
  0
LINE
  5
30C5
100
AcDbEntity
  8
0
100
AcDbLine
 10
1369.046042
 20
590.77432
 30
0.0
 11
1369.046042
 21
525.77432
 31
0.0
  0
LINE
  5
30C6
100
AcDbEntity
  8
0
100
AcDbLine
 10
1400.946042
 20
525.77432
 30
0.0
 11
1369.046042
 21
525.77432
 31
0.0
  0
LINE
  5
30C7
100
AcDbEntity
  8
0
100
AcDbLine
 10
1369.046042
 20
655.77432
 30
0.0
 11
1369.046042
 21
590.77432
 31
0.0
  0
ARC
  5
30C8
100
AcDbEntity
  8
0
100
AcDbCircle
 10
1405.946042
 20
563.77432
 30
0.0
 40
5.0
100
AcDbArc
 50
90.0
 51
180.0
  0
ARC
  5
30C9
100
AcDbEntity
  8
0
100
AcDbCircle
 10
1405.946042
 20
617.77432
 30
0.0
 40
5.0
100
AcDbArc
 50
180.0
 51
270.0
  0
LINE
  5
30CA
100
AcDbEntity
  8
0
100
AcDbLine
 10
1400.946042
 20
655.77432
 30
0.0
 11
1369.046042
 21
655.77432
 31
0.0
  0
LINE
  5
30CB
100
AcDbEntity
  8
0
100
AcDbLine
 10
1424.546042
 20
612.77432
 30
0.0
 11
1405.946042
 21
612.77432
 31
0.0
  0
LINE
  5
30CC
100
AcDbEntity
  8
0
100
AcDbLine
 10
1424.546042
 20
568.77432
 30
0.0
 11
1405.946042
 21
568.77432
 31
0.0
  0
LINE
  5
30CD
100
AcDbEntity
  8
0
100
AcDbLine
 10
1709.046042
 20
590.77432
 30
0.0
 11
1709.046042
 21
525.77432
 31
0.0
  0
LINE
  5
30CE
100
AcDbEntity
  8
0
100
AcDbLine
 10
1677.146042
 20
655.77432
 30
0.0
 11
1677.146042
 21
525.77432
 31
0.0
  0
LINE
  5
30CF
100
AcDbEntity
  8
0
100
AcDbLine
 10
1677.146042
 20
525.77432
 30
0.0
 11
1709.046042
 21
525.77432
 31
0.0
  0
LINE
  5
30D0
100
AcDbEntity
  8
0
100
AcDbLine
 10
1709.046042
 20
655.77432
 30
0.0
 11
1709.046042
 21
590.77432
 31
0.0
  0
ARC
  5
30D1
100
AcDbEntity
  8
0
100
AcDbCircle
 10
1672.146042
 20
563.77432
 30
0.0
 40
5.0
100
AcDbArc
 50
0.0
 51
90.0
  0
ARC
  5
30D2
100
AcDbEntity
  8
0
100
AcDbCircle
 10
1672.146042
 20
617.77432
 30
0.0
 40
5.0
100
AcDbArc
 50
270.0
 51
0.0
  0
LINE
  5
30D3
100
AcDbEntity
  8
0
100
AcDbLine
 10
1677.146042
 20
655.77432
 30
0.0
 11
1709.046042
 21
655.77432
 31
0.0
  0
LINE
  5
30D4
100
AcDbEntity
  8
0
100
AcDbLine
 10
1653.546042
 20
568.77432
 30
0.0
 11
1672.146042
 21
568.77432
 31
0.0
  0
LINE
  5
30D5
100
AcDbEntity
  8
0
100
AcDbLine
 10
1653.546042
 20
612.77432
 30
0.0
 11
1672.146042
 21
612.77432
 31
0.0
  0
LINE
  5
30D6
100
AcDbEntity
  8
0
100
AcDbLine
 10
1400.946042
 20
836.078542
 30
0.0
 11
1400.946042
 21
706.078542
 31
0.0
  0
LINE
  5
30D7
100
AcDbEntity
  8
0
100
AcDbLine
 10
1369.046042
 20
771.078542
 30
0.0
 11
1369.046042
 21
706.078542
 31
0.0
  0
LINE
  5
30D8
100
AcDbEntity
  8
0
100
AcDbLine
 10
1400.946042
 20
706.078542
 30
0.0
 11
1369.046042
 21
706.078542
 31
0.0
  0
LINE
  5
30D9
100
AcDbEntity
  8
0
100
AcDbLine
 10
1369.046042
 20
836.078542
 30
0.0
 11
1369.046042
 21
771.078542
 31
0.0
  0
ARC
  5
30DA
100
AcDbEntity
  8
0
100
AcDbCircle
 10
1405.946042
 20
744.078542
 30
0.0
 40
5.0
100
AcDbArc
 50
90.0
 51
180.0
  0
ARC
  5
30DB
100
AcDbEntity
  8
0
100
AcDbCircle
 10
1405.946042
 20
798.078542
 30
0.0
 40
5.0
100
AcDbArc
 50
180.0
 51
270.0
  0
LINE
  5
30DC
100
AcDbEntity
  8
0
100
AcDbLine
 10
1400.946042
 20
836.078542
 30
0.0
 11
1369.046042
 21
836.078542
 31
0.0
  0
LINE
  5
30DD
100
AcDbEntity
  8
0
100
AcDbLine
 10
1424.546042
 20
793.078542
 30
0.0
 11
1405.946042
 21
793.078542
 31
0.0
  0
LINE
  5
30DE
100
AcDbEntity
  8
0
100
AcDbLine
 10
1424.546042
 20
749.078542
 30
0.0
 11
1405.946042
 21
749.078542
 31
0.0
  0
LINE
  5
30DF
100
AcDbEntity
  8
0
100
AcDbLine
 10
1709.046042
 20
771.078542
 30
0.0
 11
1709.046042
 21
706.078542
 31
0.0
  0
LINE
  5
30E0
100
AcDbEntity
  8
0
100
AcDbLine
 10
1677.146042
 20
836.078542
 30
0.0
 11
1677.146042
 21
706.078542
 31
0.0
  0
LINE
  5
30E1
100
AcDbEntity
  8
0
100
AcDbLine
 10
1677.146042
 20
706.078542
 30
0.0
 11
1709.046042
 21
706.078542
 31
0.0
  0
LINE
  5
30E2
100
AcDbEntity
  8
0
100
AcDbLine
 10
1709.046042
 20
836.078542
 30
0.0
 11
1709.046042
 21
771.078542
 31
0.0
  0
ARC
  5
30E3
100
AcDbEntity
  8
0
100
AcDbCircle
 10
1672.146042
 20
744.078542
 30
0.0
 40
5.0
100
AcDbArc
 50
0.0
 51
90.0
  0
ARC
  5
30E4
100
AcDbEntity
  8
0
100
AcDbCircle
 10
1672.146042
 20
798.078542
 30
0.0
 40
5.0
100
AcDbArc
 50
270.0
 51
0.0
  0
LINE
  5
30E5
100
AcDbEntity
  8
0
100
AcDbLine
 10
1677.146042
 20
836.078542
 30
0.0
 11
1709.046042
 21
836.078542
 31
0.0
  0
LINE
  5
30E6
100
AcDbEntity
  8
0
100
AcDbLine
 10
1653.546042
 20
749.078542
 30
0.0
 11
1672.146042
 21
749.078542
 31
0.0
  0
LINE
  5
30E7
100
AcDbEntity
  8
0
100
AcDbLine
 10
1653.546042
 20
793.078542
 30
0.0
 11
1672.146042
 21
793.078542
 31
0.0
  0
CIRCLE
  5
30E8
100
AcDbEntity
  8
0
100
AcDbCircle
 10
1205.6771
 20
273.013978
 30
0.0
 40
65.0
  0
CIRCLE
  5
30EB
100
AcDbEntity
  8
0
100
AcDbCircle
 10
1237.107996
 20
304.444875
 30
0.0
 40
11.5
  0
CIRCLE
  5
30EC
100
AcDbEntity
  8
0
100
AcDbCircle
 10
1174.246204
 20
304.444875
 30
0.0
 40
11.5
  0
CIRCLE
  5
30ED
100
AcDbEntity
  8
0
100
AcDbCircle
 10
1174.246204
 20
241.583082
 30
0.0
 40
11.5
  0
CIRCLE
  5
30EE
100
AcDbEntity
  8
0
100
AcDbCircle
 10
1237.107996
 20
241.583082
 30
0.0
 40
11.5
  0
LINE
  5
30EF
100
AcDbEntity
  8
0
100
AcDbLine
 10
1164.753391
 20
323.513978
 30
0.0
 11
1138.1771
 21
323.513978
 31
0.0
  0
LINE
  5
30F0
100
AcDbEntity
  8
0
100
AcDbLine
 10
1246.60081
 20
323.513978
 30
0.0
 11
1273.3771
 21
323.513978
 31
0.0
  0
CIRCLE
  5
30F1
100
AcDbEntity
  8
0
100
AcDbCircle
 10
1824.995706
 20
270.048673
 30
0.0
 40
65.0
  0
CIRCLE
  5
30F2
100
AcDbEntity
  8
0
100
AcDbCircle
 10
1793.56481
 20
301.479569
 30
0.0
 40
11.5
  0
CIRCLE
  5
30F3
100
AcDbEntity
  8
0
100
AcDbCircle
 10
1856.426603
 20
301.479569
 30
0.0
 40
11.5
  0
CIRCLE
  5
30F4
100
AcDbEntity
  8
0
100
AcDbCircle
 10
1793.56481
 20
238.617776
 30
0.0
 40
11.5
  0
CIRCLE
  5
30F5
100
AcDbEntity
  8
0
100
AcDbCircle
 10
1856.426603
 20
238.617776
 30
0.0
 40
11.5
  0
LINE
  5
30F6
100
AcDbEntity
  8
0
100
AcDbLine
 10
1784.071997
 20
320.548673
 30
0.0
 11
1757.295706
 21
320.548673
 31
0.0
  0
LINE
  5
30F7
100
AcDbEntity
  8
0
100
AcDbLine
 10
1865.919416
 20
320.548673
 30
0.0
 11
1892.495706
 21
320.548673
 31
0.0
  0
LINE
  5
3140
100
AcDbEntity
  8
0
100
AcDbLine
 10
2298.904424
 20
270.048673
 30
0.0
 11
2298.904424
 21
195.548673
 31
0.0
  0
LINE
  5
3141
100
AcDbEntity
  8
0
100
AcDbLine
 10
2334.304424
 20
344.548673
 30
0.0
 11
2334.304424
 21
195.548673
 31
0.0
  0
LINE
  5
3144
100
AcDbEntity
  8
0
100
AcDbLine
 10
2382.810677
 20
243.548673
 30
0.0
 11
2339.304424
 21
243.548673
 31
0.0
  0
LINE
  5
3145
100
AcDbEntity
  8
0
100
AcDbLine
 10
2334.304424
 20
195.548673
 30
0.0
 11
2298.904424
 21
195.548673
 31
0.0
  0
ARC
  5
3146
100
AcDbEntity
  8
0
100
AcDbCircle
 10
2339.304424
 20
238.548673
 30
0.0
 40
5.0
100
AcDbArc
 50
90.0
 51
180.0
  0
LINE
  5
3147
100
AcDbEntity
  8
0
100
AcDbLine
 10
2298.904424
 20
344.548673
 30
0.0
 11
2298.904424
 21
270.048673
 31
0.0
  0
LINE
  5
3148
100
AcDbEntity
  8
0
100
AcDbLine
 10
2382.810677
 20
296.548673
 30
0.0
 11
2339.304424
 21
296.548673
 31
0.0
  0
ARC
  5
3149
100
AcDbEntity
  8
0
100
AcDbCircle
 10
2339.304424
 20
301.548673
 30
0.0
 40
5.0
100
AcDbArc
 50
180.0
 51
270.0
  0
LINE
  5
3152
100
AcDbEntity
  8
0
100
AcDbLine
 10
2334.304424
 20
344.548673
 30
0.0
 11
2298.904424
 21
344.548673
 31
0.0
  0
LINE
  5
3153
100
AcDbEntity
  8
0
100
AcDbLine
 10
2603.504424
 20
344.548673
 30
0.0
 11
2603.504424
 21
195.548673
 31
0.0
  0
LINE
  5
3154
100
AcDbEntity
  8
0
100
AcDbLine
 10
2638.904424
 20
270.048673
 30
0.0
 11
2638.904424
 21
195.548673
 31
0.0
  0
LINE
  5
3155
100
AcDbEntity
  8
0
100
AcDbLine
 10
2603.504424
 20
195.548673
 30
0.0
 11
2638.904424
 21
195.548673
 31
0.0
  0
LINE
  5
3156
100
AcDbEntity
  8
0
100
AcDbLine
 10
2638.904424
 20
344.548673
 30
0.0
 11
2638.904424
 21
270.048673
 31
0.0
  0
ARC
  5
3157
100
AcDbEntity
  8
0
100
AcDbCircle
 10
2598.504424
 20
238.548673
 30
0.0
 40
5.0
100
AcDbArc
 50
360.0
 51
90.0
  0
ARC
  5
3158
100
AcDbEntity
  8
0
100
AcDbCircle
 10
2598.504424
 20
301.548673
 30
0.0
 40
5.0
100
AcDbArc
 50
270.0
 51
360.0
  0
LINE
  5
3159
100
AcDbEntity
  8
0
100
AcDbLine
 10
2603.504424
 20
344.548673
 30
0.0
 11
2638.904424
 21
344.548673
 31
0.0
  0
LINE
  5
315A
100
AcDbEntity
  8
0
100
AcDbLine
 10
2554.998171
 20
296.548673
 30
0.0
 11
2598.504424
 21
296.548673
 31
0.0
  0
LINE
  5
315B
100
AcDbEntity
  8
0
100
AcDbLine
 10
2554.998171
 20
243.548673
 30
0.0
 11
2598.504424
 21
243.548673
 31
0.0
  0
LINE
  5
315C
100
AcDbEntity
  8
0
100
AcDbLine
 10
2334.304424
 20
665.27432
 30
0.0
 11
2334.304424
 21
516.27432
 31
0.0
  0
LINE
  5
315D
100
AcDbEntity
  8
0
100
AcDbLine
 10
2298.904424
 20
590.77432
 30
0.0
 11
2298.904424
 21
516.27432
 31
0.0
  0
LINE
  5
315E
100
AcDbEntity
  8
0
100
AcDbLine
 10
2334.304424
 20
516.27432
 30
0.0
 11
2298.904424
 21
516.27432
 31
0.0
  0
LINE
  5
315F
100
AcDbEntity
  8
0
100
AcDbLine
 10
2298.904424
 20
665.27432
 30
0.0
 11
2298.904424
 21
590.77432
 31
0.0
  0
ARC
  5
3160
100
AcDbEntity
  8
0
100
AcDbCircle
 10
2339.304424
 20
559.27432
 30
0.0
 40
5.0
100
AcDbArc
 50
90.0
 51
180.0
  0
ARC
  5
3161
100
AcDbEntity
  8
0
100
AcDbCircle
 10
2339.304424
 20
622.27432
 30
0.0
 40
5.0
100
AcDbArc
 50
180.0
 51
270.0
  0
LINE
  5
3162
100
AcDbEntity
  8
0
100
AcDbLine
 10
2334.304424
 20
665.27432
 30
0.0
 11
2298.904424
 21
665.27432
 31
0.0
  0
LINE
  5
3163
100
AcDbEntity
  8
0
100
AcDbLine
 10
2382.810677
 20
617.27432
 30
0.0
 11
2339.304424
 21
617.27432
 31
0.0
  0
LINE
  5
3164
100
AcDbEntity
  8
0
100
AcDbLine
 10
2382.810677
 20
564.27432
 30
0.0
 11
2339.304424
 21
564.27432
 31
0.0
  0
LINE
  5
3165
100
AcDbEntity
  8
0
100
AcDbLine
 10
2638.904424
 20
590.77432
 30
0.0
 11
2638.904424
 21
516.27432
 31
0.0
  0
LINE
  5
3166
100
AcDbEntity
  8
0
100
AcDbLine
 10
2603.504424
 20
665.27432
 30
0.0
 11
2603.504424
 21
516.27432
 31
0.0
  0
LINE
  5
3167
100
AcDbEntity
  8
0
100
AcDbLine
 10
2603.504424
 20
516.27432
 30
0.0
 11
2638.904424
 21
516.27432
 31
0.0
  0
LINE
  5
3168
100
AcDbEntity
  8
0
100
AcDbLine
 10
2638.904424
 20
665.27432
 30
0.0
 11
2638.904424
 21
590.77432
 31
0.0
  0
ARC
  5
3169
100
AcDbEntity
  8
0
100
AcDbCircle
 10
2598.504424
 20
559.27432
 30
0.0
 40
5.0
100
AcDbArc
 50
360.0
 51
90.0
  0
ARC
  5
316A
100
AcDbEntity
  8
0
100
AcDbCircle
 10
2598.504424
 20
622.27432
 30
0.0
 40
5.0
100
AcDbArc
 50
270.0
 51
360.0
  0
LINE
  5
316B
100
AcDbEntity
  8
0
100
AcDbLine
 10
2603.504424
 20
665.27432
 30
0.0
 11
2638.904424
 21
665.27432
 31
0.0
  0
LINE
  5
316C
100
AcDbEntity
  8
0
100
AcDbLine
 10
2554.998171
 20
564.27432
 30
0.0
 11
2598.504424
 21
564.27432
 31
0.0
  0
LINE
  5
316D
100
AcDbEntity
  8
0
100
AcDbLine
 10
2554.998171
 20
617.27432
 30
0.0
 11
2598.504424
 21
617.27432
 31
0.0
  0
LINE
  5
316E
100
AcDbEntity
  8
0
100
AcDbLine
 10
2334.304424
 20
845.578542
 30
0.0
 11
2334.304424
 21
696.578542
 31
0.0
  0
LINE
  5
316F
100
AcDbEntity
  8
0
100
AcDbLine
 10
2298.904424
 20
771.078542
 30
0.0
 11
2298.904424
 21
696.578542
 31
0.0
  0
LINE
  5
3170
100
AcDbEntity
  8
0
100
AcDbLine
 10
2334.304424
 20
696.578542
 30
0.0
 11
2298.904424
 21
696.578542
 31
0.0
  0
LINE
  5
3171
100
AcDbEntity
  8
0
100
AcDbLine
 10
2298.904424
 20
845.578542
 30
0.0
 11
2298.904424
 21
771.078542
 31
0.0
  0
ARC
  5
3172
100
AcDbEntity
  8
0
100
AcDbCircle
 10
2339.304424
 20
739.578542
 30
0.0
 40
5.0
100
AcDbArc
 50
90.0
 51
180.0
  0
ARC
  5
3173
100
AcDbEntity
  8
0
100
AcDbCircle
 10
2339.304424
 20
802.578542
 30
0.0
 40
5.0
100
AcDbArc
 50
180.0
 51
270.0
  0
LINE
  5
3174
100
AcDbEntity
  8
0
100
AcDbLine
 10
2334.304424
 20
845.578542
 30
0.0
 11
2298.904424
 21
845.578542
 31
0.0
  0
LINE
  5
3175
100
AcDbEntity
  8
0
100
AcDbLine
 10
2382.810677
 20
797.578542
 30
0.0
 11
2339.304424
 21
797.578542
 31
0.0
  0
LINE
  5
3176
100
AcDbEntity
  8
0
100
AcDbLine
 10
2382.810677
 20
744.578542
 30
0.0
 11
2339.304424
 21
744.578542
 31
0.0
  0
LINE
  5
3177
100
AcDbEntity
  8
0
100
AcDbLine
 10
2638.904424
 20
771.078542
 30
0.0
 11
2638.904424
 21
696.578542
 31
0.0
  0
LINE
  5
3178
100
AcDbEntity
  8
0
100
AcDbLine
 10
2603.504424
 20
845.578542
 30
0.0
 11
2603.504424
 21
696.578542
 31
0.0
  0
LINE
  5
3179
100
AcDbEntity
  8
0
100
AcDbLine
 10
2603.504424
 20
696.578542
 30
0.0
 11
2638.904424
 21
696.578542
 31
0.0
  0
LINE
  5
317A
100
AcDbEntity
  8
0
100
AcDbLine
 10
2638.904424
 20
845.578542
 30
0.0
 11
2638.904424
 21
771.078542
 31
0.0
  0
ARC
  5
317B
100
AcDbEntity
  8
0
100
AcDbCircle
 10
2598.504424
 20
739.578542
 30
0.0
 40
5.0
100
AcDbArc
 50
360.0
 51
90.0
  0
ARC
  5
317C
100
AcDbEntity
  8
0
100
AcDbCircle
 10
2598.504424
 20
802.578542
 30
0.0
 40
5.0
100
AcDbArc
 50
270.0
 51
360.0
  0
LINE
  5
317D
100
AcDbEntity
  8
0
100
AcDbLine
 10
2603.504424
 20
845.578542
 30
0.0
 11
2638.904424
 21
845.578542
 31
0.0
  0
LINE
  5
317E
100
AcDbEntity
  8
0
100
AcDbLine
 10
2554.998171
 20
744.578542
 30
0.0
 11
2598.504424
 21
744.578542
 31
0.0
  0
LINE
  5
317F
100
AcDbEntity
  8
0
100
AcDbLine
 10
2554.998171
 20
797.578542
 30
0.0
 11
2598.504424
 21
797.578542
 31
0.0
  0
LINE
  5
31D7
100
AcDbEntity
  8
0
100
AcDbLine
 10
2394.533589
 20
563.02432
 30
0.0
 11
2399.904424
 21
563.02432
 31
0.0
  0
LINE
  5
31D8
100
AcDbEntity
  8
0
100
AcDbLine
 10
2543.275259
 20
563.02432
 30
0.0
 11
2537.904424
 21
563.02432
 31
0.0
  0
LINE
  5
31D9
100
AcDbEntity
  8
0
100
AcDbLine
 10
2543.275259
 20
618.52432
 30
0.0
 11
2543.275259
 21
563.02432
 31
0.0
  0
LINE
  5
31DA
100
AcDbEntity
  8
0
100
AcDbLine
 10
2394.533589
 20
618.52432
 30
0.0
 11
2394.533589
 21
563.02432
 31
0.0
  0
CIRCLE
  5
31DB
100
AcDbEntity
  8
0
100
AcDbCircle
 10
2135.559566
 20
270.048673
 30
0.0
 40
74.5
  0
CIRCLE
  5
31DE
100
AcDbEntity
  8
0
100
AcDbCircle
 10
2171.48059
 20
305.969697
 30
0.0
 40
13.0
  0
CIRCLE
  5
31DF
100
AcDbEntity
  8
0
100
AcDbCircle
 10
2099.638541
 20
305.969697
 30
0.0
 40
13.0
  0
CIRCLE
  5
31E0
100
AcDbEntity
  8
0
100
AcDbCircle
 10
2099.638541
 20
234.127648
 30
0.0
 40
13.0
  0
CIRCLE
  5
31E1
100
AcDbEntity
  8
0
100
AcDbCircle
 10
2171.48059
 20
234.127648
 30
0.0
 40
13.0
  0
CIRCLE
  5
31E2
100
AcDbEntity
  8
0
100
AcDbCircle
 10
2787.359267
 20
234.127648
 30
0.0
 40
13.0
  0
CIRCLE
  5
31E3
100
AcDbEntity
  8
0
100
AcDbCircle
 10
2787.359267
 20
305.969697
 30
0.0
 40
13.0
  0
CIRCLE
  5
31E4
100
AcDbEntity
  8
0
100
AcDbCircle
 10
2751.438243
 20
270.048673
 30
0.0
 40
74.5
  0
CIRCLE
  5
31E5
100
AcDbEntity
  8
0
100
AcDbCircle
 10
2715.517218
 20
234.127648
 30
0.0
 40
13.0
  0
CIRCLE
  5
31E6
100
AcDbEntity
  8
0
100
AcDbCircle
 10
2715.517218
 20
305.969697
 30
0.0
 40
13.0
  0
VIEWPORT
  5
41
100
AcDbEntity
 67
     1
  8
0
100
AcDbViewport
 10
117.358407
 20
73.5
 30
0.0
 40
234.716814
 41
147.0
 68
    -1
 69
     1
1001
ACAD
1000
MVIEW
1002
{
1070
    16
1010
0.0
1020
0.0
1030
0.0
1010
0.0
1020
0.0
1030
1.0
1040
0.0
1040
147.0
1040
117.358407
1040
73.5
1040
50.0
1040
0.0
1040
0.0
1070
     0
1070
   100
1070
     1
1070
     1
1070
     0
1070
     0
1070
     0
1070
     0
1040
0.0
1040
0.0
1040
0.0
1040
1.0
1040
1.0
1040
0.0
1040
0.0
1070
     0
1002
{
1002
}
1002
}
  0
ENDSEC
  0
SECTION
  2
OBJECTS
  0
DICTIONARY
  5
C
100
AcDbDictionary
  3
ACAD_GROUP
350
D
  3
ACAD_MLINESTYLE
350
E
  0
DICTIONARY
  5
D
102
{ACAD_REACTORS
330
C
102
}
100
AcDbDictionary
  0
DICTIONARY
  5
E
102
{ACAD_REACTORS
330
C
102
}
100
AcDbDictionary
  3
STANDARD
350
1B
  0
MLINESTYLE
  5
1B
102
{ACAD_REACTORS
330
E
102
}
100
AcDbMlineStyle
  2
STANDARD
 70
     0
  3

 62
     0
 51
90.0
 52
90.0
 71
     2
 49
0.5
 62
   256
  6
BYLAYER
 49
-0.5
 62
   256
  6
BYLAYER
  0
ENDSEC
  0
EOF
