  0
SECTION
  2
HEADER
  9
$ACADVER
  1
AC1012
  9
$DWGCODEPAGE
  3
dos932
  9
$INSBASE
 10
0.0
 20
0.0
 30
0.0
  9
$EXTMIN
 10
110.0
 20
50.0
 30
0.0
  9
$EXTMAX
 10
2860.0
 20
1910.0
 30
0.0
  9
$LIMMIN
 10
0.0
 20
0.0
  9
$LIMMAX
 10
2970.0
 20
2100.0
  9
$ORTHOMODE
 70
     0
  9
$REGENMODE
 70
     1
  9
$FILLMODE
 70
     1
  9
$QTEXTMODE
 70
     0
  9
$MIRRTEXT
 70
     1
  9
$DRAGMODE
 70
     2
  9
$LTSCALE
 40
40.0
  9
$OSMODE
 70
   163
  9
$ATTMODE
 70
     1
  9
$TEXTSIZE
 40
40.0
  9
$TRACEWID
 40
0.05
  9
$TEXTSTYLE
  7
STANDARD
  9
$CLAYER
  8
0
  9
$CELTYPE
  6
BYLAYER
  9
$CECOLOR
 62
   256
  9
$CELTSCALE
 40
1.0
  9
$DELOBJ
 70
     1
  9
$DISPSILH
 70
     0
  9
$DIMSCALE
 40
10.0
  9
$DIMASZ
 40
2.8
  9
$DIMEXO
 40
1.0
  9
$DIMDLI
 40
5.0
  9
$DIMRND
 40
0.1
  9
$DIMDLE
 40
0.0
  9
$DIMEXE
 40
1.0
  9
$DIMTP
 40
0.0
  9
$DIMTM
 40
0.0
  9
$DIMTXT
 40
2.5
  9
$DIMCEN
 40
0.0
  9
$DIMTSZ
 40
0.0
  9
$DIMTOL
 70
     0
  9
$DIMLIM
 70
     0
  9
$DIMTIH
 70
     0
  9
$DIMTOH
 70
     0
  9
$DIMSE1
 70
     0
  9
$DIMSE2
 70
     0
  9
$DIMTAD
 70
     3
  9
$DIMZIN
 70
     8
  9
$DIMBLK
  1

  9
$DIMASO
 70
     1
  9
$DIMSHO
 70
     1
  9
$DIMPOST
  1
 
  9
$DIMAPOST
  1

  9
$DIMALT
 70
     0
  9
$DIMALTD
 70
     2
  9
$DIMALTF
 40
1.0
  9
$DIMLFAC
 40
1.0
  9
$DIMTOFL
 70
     1
  9
$DIMTVP
 40
0.0
  9
$DIMTIX
 70
     0
  9
$DIMSOXD
 70
     0
  9
$DIMSAH
 70
     1
  9
$DIMBLK1
  1
_OPEN
  9
$DIMBLK2
  1
_OPEN
  9
$DIMSTYLE
  2
DIM1
  9
$DIMCLRD
 70
     2
  9
$DIMCLRE
 70
     2
  9
$DIMCLRT
 70
     2
  9
$DIMTFAC
 40
0.7
  9
$DIMGAP
 40
0.85
  9
$DIMJUST
 70
     0
  9
$DIMSD1
 70
     0
  9
$DIMSD2
 70
     0
  9
$DIMTOLJ
 70
     1
  9
$DIMTZIN
 70
     8
  9
$DIMALTZ
 70
     8
  9
$DIMALTTZ
 70
     8
  9
$DIMFIT
 70
     0
  9
$DIMUPT
 70
     0
  9
$DIMUNIT
 70
     2
  9
$DIMDEC
 70
     2
  9
$DIMTDEC
 70
     3
  9
$DIMALTU
 70
     2
  9
$DIMALTTD
 70
     3
  9
$DIMTXSTY
  7
DIM
  9
$DIMAUNIT
 70
     0
  9
$LUNITS
 70
     2
  9
$LUPREC
 70
     4
  9
$SKETCHINC
 40
0.1
  9
$FILLETRAD
 40
0.0
  9
$AUNITS
 70
     0
  9
$AUPREC
 70
     0
  9
$MENU
  1
C:\ACADR13\WIN\SUPPORT\ACAD.mnc
  9
$ELEVATION
 40
0.0
  9
$PELEVATION
 40
0.0
  9
$THICKNESS
 40
0.0
  9
$LIMCHECK
 70
     0
  9
$BLIPMODE
 70
     1
  9
$CHAMFERA
 40
0.0
  9
$CHAMFERB
 40
0.0
  9
$CHAMFERC
 40
0.0
  9
$CHAMFERD
 40
0.0
  9
$SKPOLY
 70
     0
  9
$TDCREATE
 40
2451564.572557546
  9
$TDUPDATE
 40
2451981.561911342
  9
$TDINDWG
 40
0.2632189352
  9
$TDUSRTIMER
 40
0.2632189352
  9
$USRTIMER
 70
     1
  9
$ANGBASE
 50
0.0
  9
$ANGDIR
 70
     0
  9
$PDMODE
 70
     0
  9
$PDSIZE
 40
0.0
  9
$PLINEWID
 40
0.0
  9
$COORDS
 70
     1
  9
$SPLFRAME
 70
     0
  9
$SPLINETYPE
 70
     6
  9
$SPLINESEGS
 70
     8
  9
$ATTDIA
 70
     0
  9
$ATTREQ
 70
     1
  9
$HANDLING
 70
     1
  9
$HANDSEED
  5
365F
  9
$SURFTAB1
 70
     6
  9
$SURFTAB2
 70
     6
  9
$SURFTYPE
 70
     6
  9
$SURFU
 70
     6
  9
$SURFV
 70
     6
  9
$UCSNAME
  2

  9
$UCSORG
 10
0.0
 20
0.0
 30
0.0
  9
$UCSXDIR
 10
1.0
 20
0.0
 30
0.0
  9
$UCSYDIR
 10
0.0
 20
1.0
 30
0.0
  9
$PUCSNAME
  2

  9
$PUCSORG
 10
0.0
 20
0.0
 30
0.0
  9
$PUCSXDIR
 10
1.0
 20
0.0
 30
0.0
  9
$PUCSYDIR
 10
0.0
 20
1.0
 30
0.0
  9
$USERI1
 70
     0
  9
$USERI2
 70
     0
  9
$USERI3
 70
     0
  9
$USERI4
 70
     0
  9
$USERI5
 70
     0
  9
$USERR1
 40
0.0
  9
$USERR2
 40
0.0
  9
$USERR3
 40
0.0
  9
$USERR4
 40
0.0
  9
$USERR5
 40
0.0
  9
$WORLDVIEW
 70
     1
  9
$SHADEDGE
 70
     3
  9
$SHADEDIF
 70
    70
  9
$TILEMODE
 70
     1
  9
$MAXACTVP
 70
    16
  9
$PINSBASE
 10
0.0
 20
0.0
 30
0.0
  9
$PLIMCHECK
 70
     0
  9
$PEXTMIN
 10
1.000000E+20
 20
1.000000E+20
 30
1.000000E+20
  9
$PEXTMAX
 10
-1.000000E+20
 20
-1.000000E+20
 30
-1.000000E+20
  9
$PLIMMIN
 10
0.0
 20
0.0
  9
$PLIMMAX
 10
20.0
 20
147.0
  9
$UNITMODE
 70
     0
  9
$VISRETAIN
 70
     0
  9
$PLINEGEN
 70
     0
  9
$PSLTSCALE
 70
     1
  9
$TREEDEPTH
 70
  3020
  9
$PICKSTYLE
 70
     1
  9
$CMLSTYLE
  2
STANDARD
  9
$CMLJUST
 70
     0
  9
$CMLSCALE
 40
1.0
  9
$SAVEIMAGES
 70
     1
  0
ENDSEC
  0
SECTION
  2
CLASSES
  0
CLASS
  1
LWPOLYLINE
  2
AcDbPolyline
  3
"AutoCAD"
 90
    32768
280
     0
281
     1
  0
ENDSEC
  0
SECTION
  2
TABLES
  0
TABLE
  2
VPORT
  5
8
100
AcDbSymbolTable
 70
     2
  0
VPORT
  5
365E
100
AcDbSymbolTableRecord
100
AcDbViewportTableRecord
  2
*ACTIVE
 70
     0
 10
0.0
 20
0.0
 11
1.0
 21
1.0
 12
1918.497577
 22
1088.779078
 13
0.0
 23
0.0
 14
1.0
 24
1.0
 15
0.0
 25
0.0
 16
0.0
 26
0.0
 36
1.0
 17
0.0
 27
0.0
 37
0.0
 40
2177.558156
 41
1.762063
 42
50.0
 43
0.0
 44
0.0
 50
0.0
 51
0.0
 71
     0
 72
   100
 73
     1
 74
     1
 75
     0
 76
     0
 77
     0
 78
     0
  0
ENDTAB
  0
TABLE
  2
LTYPE
  5
5
100
AcDbSymbolTable
 70
     1
  0
LTYPE
  5
12
100
AcDbSymbolTableRecord
100
AcDbLinetypeTableRecord
  2
BYBLOCK
 70
     0
  3

 72
    65
 73
     0
 40
0.0
  0
LTYPE
  5
13
100
AcDbSymbolTableRecord
100
AcDbLinetypeTableRecord
  2
BYLAYER
 70
     0
  3

 72
    65
 73
     0
 40
0.0
  0
LTYPE
  5
14
100
AcDbSymbolTableRecord
100
AcDbLinetypeTableRecord
  2
CONTINUOUS
 70
     0
  3
Solid line
 72
    65
 73
     0
 40
0.0
  0
ENDTAB
  0
TABLE
  2
LAYER
  5
2
100
AcDbSymbolTable
 70
     1
  0
LAYER
  5
F
100
AcDbSymbolTableRecord
100
AcDbLayerTableRecord
  2
0
 70
     0
 62
     7
  6
CONTINUOUS
  0
ENDTAB
  0
TABLE
  2
STYLE
  5
3
100
AcDbSymbolTable
 70
     3
  0
STYLE
  5
10
100
AcDbSymbolTableRecord
100
AcDbTextStyleTableRecord
  2
STANDARD
 70
     0
 40
0.0
 41
0.8
 50
0.0
 71
     0
 42
40.0
  3
simplex
  4
extfont
  0
STYLE
  5
237C
100
AcDbSymbolTableRecord
100
AcDbTextStyleTableRecord
  2
PTSH
 70
     0
 40
0.0
 41
0.9
 50
0.0
 71
     0
 42
4.0
  3
SIMPLEX
  4
EXTFONT
  0
STYLE
  5
2592
100
AcDbSymbolTableRecord
100
AcDbTextStyleTableRecord
  2
DIM
 70
     0
 40
0.0
 41
0.8
 50
0.0
 71
     0
 42
4.0
  3
simplex
  4
extfont
  0
ENDTAB
  0
TABLE
  2
VIEW
  5
6
100
AcDbSymbolTable
 70
     0
  0
ENDTAB
  0
TABLE
  2
UCS
  5
7
100
AcDbSymbolTable
 70
     0
  0
ENDTAB
  0
TABLE
  2
APPID
  5
9
100
AcDbSymbolTable
 70
     1
  0
APPID
  5
11
100
AcDbSymbolTableRecord
100
AcDbRegAppTableRecord
  2
ACAD
 70
     0
  0
ENDTAB
  0
TABLE
  2
DIMSTYLE
  5
A
100
AcDbSymbolTable
 70
     1
  0
DIMSTYLE
105
2237
100
AcDbSymbolTableRecord
100
AcDbDimStyleTableRecord
  2
DIM1
 70
     0
  3
 
  4

  5

  6
_OPEN
  7
_OPEN
 40
10.0
 41
2.8
 42
1.0
 43
5.0
 44
1.0
 45
0.1
 46
0.0
 47
0.0
 48
0.0
140
2.5
141
0.0
142
0.0
143
1.0
144
1.0
145
0.0
146
0.7
147
0.85
 71
     0
 72
     0
 73
     0
 74
     0
 75
     0
 76
     0
 77
     3
 78
     8
170
     0
171
     2
172
     1
173
     1
174
     0
175
     0
176
     2
177
     2
178
     2
270
     2
271
     2
272
     3
273
     2
274
     3
340
2592
275
     0
280
     0
281
     0
282
     0
283
     1
284
     8
285
     8
286
     8
287
     0
288
     0
  0
ENDTAB
  0
TABLE
  2
BLOCK_RECORD
  5
1
100
AcDbSymbolTable
 70
     1
  0
BLOCK_RECORD
  5
18
100
AcDbSymbolTableRecord
100
AcDbBlockTableRecord
  2
*MODEL_SPACE
  0
BLOCK_RECORD
  5
15
100
AcDbSymbolTableRecord
100
AcDbBlockTableRecord
  2
*PAPER_SPACE
  0
BLOCK_RECORD
  5
2448
100
AcDbSymbolTableRecord
100
AcDbBlockTableRecord
  2
_OPEN
  0
ENDTAB
  0
ENDSEC
  0
SECTION
  2
BLOCKS
  0
BLOCK
  5
3C
100
AcDbEntity
  8
0
100
AcDbBlockBegin
  2
*MODEL_SPACE
 70
     0
 10
0.0
 20
0.0
 30
0.0
  3
*MODEL_SPACE
  1

  0
ENDBLK
  5
3D
100
AcDbEntity
  8
0
100
AcDbBlockEnd
  0
BLOCK
  5
3A
100
AcDbEntity
 67
     1
  8
0
100
AcDbBlockBegin
  2
*PAPER_SPACE
 70
     0
 10
0.0
 20
0.0
 30
0.0
  3
*PAPER_SPACE
  1

  0
ENDBLK
  5
3B
100
AcDbEntity
 67
     1
  8
0
100
AcDbBlockEnd
  0
BLOCK
  5
2449
100
AcDbEntity
  8
0
 48
4.0
100
AcDbBlockBegin
  2
_OPEN
 70
     0
 10
0.0
 20
0.0
 30
0.0
  3
_OPEN
  1
H1111.DWG
  0
LINE
  5
244A
100
AcDbEntity
  8
0
  6
BYBLOCK
 62
     0
 48
4.0
100
AcDbLine
 10
-1.0
 20
0.166667
 30
0.0
 11
0.0
 21
0.0
 31
0.0
  0
LINE
  5
244B
100
AcDbEntity
  8
0
  6
BYBLOCK
 62
     0
 48
4.0
100
AcDbLine
 10
0.0
 20
0.0
 30
0.0
 11
-1.0
 21
-0.166667
 31
0.0
  0
LINE
  5
244C
100
AcDbEntity
  8
0
  6
BYBLOCK
 62
     0
 48
4.0
100
AcDbLine
 10
0.0
 20
0.0
 30
0.0
 11
-1.0
 21
0.0
 31
0.0
  0
ENDBLK
  5
244D
100
AcDbEntity
  8
0
 48
4.0
100
AcDbBlockEnd
  0
ENDSEC
  0
SECTION
  2
ENTITIES
  0
MTEXT
  5
ADA
100
AcDbEntity
  8
0
100
AcDbMText
 10
3801.392798
 20
498.463111
 30
0.0
 40
2.0
 41
472.264648
 71
     1
 72
     1
  1

  0
MTEXT
  5
ADB
100
AcDbEntity
  8
0
100
AcDbMText
 10
3890.499332
 20
578.507937
 30
0.0
 40
2.0
 41
454.443342
 71
     1
 72
     1
  1

  0
MTEXT
  5
ADC
100
AcDbEntity
  8
0
100
AcDbMText
 10
3837.035411
 20
-479.862464
 30
0.0
 40
2.0
 41
516.817915
 71
     1
 72
     1
  1

  0
TEXT
  5
2529
100
AcDbEntity
  8
0
  6
CONTINUOUS
100
AcDbText
 10
2737.050017
 20
75.645164
 30
0.0
 40
20.0
  1
HR80A
 41
0.9
  7
PTSH
 72
     1
 11
2779.478588
 21
85.645164
 31
0.0
100
AcDbText
 73
     2
  0
POLYLINE
  5
2563
100
AcDbEntity
  8
0
100
AcDb2dPolyline
 66
     1
 10
0.0
 20
0.0
 30
0.0
 70
     1
  0
VERTEX
  5
3659
100
AcDbEntity
  8
0
100
AcDbVertex
100
AcDb2dVertex
 10
110.0
 20
50.0
 30
0.0
  0
VERTEX
  5
365A
100
AcDbEntity
  8
0
100
AcDbVertex
100
AcDb2dVertex
 10
2860.0
 20
50.0
 30
0.0
  0
VERTEX
  5
365B
100
AcDbEntity
  8
0
100
AcDbVertex
100
AcDb2dVertex
 10
2860.0
 20
1910.0
 30
0.0
  0
VERTEX
  5
365C
100
AcDbEntity
  8
0
100
AcDbVertex
100
AcDb2dVertex
 10
110.0
 20
1910.0
 30
0.0
  0
SEQEND
  5
365D
100
AcDbEntity
  8
0
  0
LINE
  5
2CE7
100
AcDbEntity
  8
0
100
AcDbLine
 10
1476.878559
 20
924.653714
 30
0.0
 11
1416.878559
 21
924.653714
 31
0.0
  0
ARC
  5
2CE8
100
AcDbEntity
  8
0
100
AcDbCircle
 10
1429.020048
 20
879.153714
 30
0.0
 40
3.0
100
AcDbArc
 50
90.0
 51
180.0
  0
ARC
  5
2CE9
100
AcDbEntity
  8
0
100
AcDbCircle
 10
1429.020048
 20
858.153714
 30
0.0
 40
3.0
100
AcDbArc
 50
180.0
 51
270.0
  0
LINE
  5
2CEA
100
AcDbEntity
  8
0
100
AcDbLine
 10
1491.878559
 20
884.153714
 30
0.0
 11
1401.878559
 21
884.153714
 31
0.0
  0
LINE
  5
2CEB
100
AcDbEntity
  8
0
100
AcDbLine
 10
1492.020048
 20
884.153714
 30
0.0
 11
1402.020048
 21
884.153714
 31
0.0
  0
LINE
  5
2CEC
100
AcDbEntity
  8
0
100
AcDbLine
 10
1468.020048
 20
842.653714
 30
0.0
 11
1426.020048
 21
842.653714
 31
0.0
  0
LINE
  5
2CED
100
AcDbEntity
  8
0
100
AcDbLine
 10
1501.161536
 20
809.653714
 30
0.0
 11
1392.878559
 21
809.653714
 31
0.0
  0
LINE
  5
2CEE
100
AcDbEntity
  8
0
100
AcDbLine
 10
1468.020048
 20
658.219109
 30
0.0
 11
1426.020048
 21
658.219109
 31
0.0
  0
CIRCLE
  5
2CEF
100
AcDbEntity
  8
0
100
AcDbCircle
 10
1447.020048
 20
612.219109
 30
0.0
 40
45.0
  0
LINE
  5
2CF0
100
AcDbEntity
  8
0
100
AcDbLine
 10
1417.020048
 20
454.467165
 30
0.0
 11
1477.020048
 21
454.467165
 31
0.0
  0
LINE
  5
2CF1
100
AcDbEntity
  8
0
100
AcDbLine
 10
1402.020048
 20
413.967165
 30
0.0
 11
1492.020048
 21
413.967165
 31
0.0
  0
LINE
  5
2CF2
100
AcDbEntity
  8
0
100
AcDbLine
 10
1401.878559
 20
413.967165
 30
0.0
 11
1491.878559
 21
413.967165
 31
0.0
  0
LINE
  5
2CF3
100
AcDbEntity
  8
0
100
AcDbLine
 10
1409.801484
 20
396.967165
 30
0.0
 11
1483.955634
 21
396.967165
 31
0.0
  0
LINE
  5
2CF4
100
AcDbEntity
  8
0
100
AcDbLine
 10
1425.878559
 20
372.467165
 30
0.0
 11
1467.878559
 21
372.467165
 31
0.0
  0
LINE
  5
2CF5
100
AcDbEntity
  8
0
100
AcDbLine
 10
1392.878559
 20
339.467165
 30
0.0
 11
1501.161536
 21
339.467165
 31
0.0
  0
TEXT
  5
2CF6
100
AcDbEntity
  8
0
100
AcDbText
 10
1417.723468
 20
269.254576
 30
0.0
 40
20.0
  1
40A
 41
0.8
 11
1417.723468
 21
269.254576
 31
0.0
100
AcDbText
 73
     1
  0
TEXT
  5
2CF7
100
AcDbEntity
  8
0
100
AcDbText
 10
1210.307505
 20
207.14214
 30
0.0
 40
35.0
  1
TLV  HR80A (JIS40K)
100
AcDbText
  0
TEXT
  5
2CF8
100
AcDbEntity
  8
0
100
AcDbText
 10
1342.43467
 20
1130.337458
 30
0.0
 40
35.0
  1
TLV  HR80A (JIS40K)
100
AcDbText
  0
TEXT
  5
2CF9
100
AcDbEntity
  8
0
100
AcDbText
 10
167.157307
 20
442.989394
 30
0.0
 40
25.0
  1
正面
100
AcDbText
  0
LINE
  5
2CFD
100
AcDbEntity
  8
0
100
AcDbLine
 10
341.776938
 20
454.467165
 30
0.0
 11
281.776938
 21
454.467165
 31
0.0
  0
LINE
  5
2CFF
100
AcDbEntity
  8
0
100
AcDbLine
 10
266.776938
 20
417.967128
 30
0.0
 11
266.776938
 21
439.467165
 31
0.0
  0
ARC
  5
2D00
100
AcDbEntity
  8
0
100
AcDbCircle
 10
281.776938
 20
439.467165
 30
0.0
 40
15.0
100
AcDbArc
 50
90.0
 51
180.0
  0
ARC
  5
2D02
100
AcDbEntity
  8
0
100
AcDbCircle
 10
341.776938
 20
439.467165
 30
0.0
 40
15.0
100
AcDbArc
 50
0.0
 51
90.0
  0
LINE
  5
2D03
100
AcDbEntity
  8
0
100
AcDbLine
 10
356.776938
 20
439.467165
 30
0.0
 11
356.776938
 21
418.204619
 31
0.0
  0
TEXT
  5
2D04
100
AcDbEntity
  8
0
100
AcDbText
 10
167.157307
 20
758.597488
 30
0.0
 40
25.0
  1
背面
100
AcDbText
  0
TEXT
  5
2D05
100
AcDbEntity
  8
0
100
AcDbText
 10
167.157307
 20
591.265988
 30
0.0
 40
25.0
  1
平面
100
AcDbText
  0
ARC
  5
2D06
100
AcDbEntity
  8
0
100
AcDbCircle
 10
822.937377
 20
439.467165
 30
0.0
 40
15.0
100
AcDbArc
 50
0.0
 51
90.0
  0
ARC
  5
2D0A
100
AcDbEntity
  8
0
100
AcDbCircle
 10
617.047458
 20
439.467165
 30
0.0
 40
15.0
100
AcDbArc
 50
0.0
 51
90.0
  0
ARC
  5
2D0B
100
AcDbEntity
  8
0
100
AcDbCircle
 10
624.82735
 20
384.467165
 30
0.0
 40
5.0
100
AcDbArc
 50
90.0
 51
150.59345
  0
LINE
  5
2D0C
100
AcDbEntity
  8
0
100
AcDbLine
 10
541.905969
 20
413.967165
 30
0.0
 11
631.905969
 21
413.967165
 31
0.0
  0
LINE
  5
2D0D
100
AcDbEntity
  8
0
100
AcDbLine
 10
542.047458
 20
413.967165
 30
0.0
 11
632.047458
 21
413.967165
 31
0.0
  0
LINE
  5
2D0E
100
AcDbEntity
  8
0
100
AcDbLine
 10
549.828894
 20
396.967165
 30
0.0
 11
623.983044
 21
396.967165
 31
0.0
  0
LINE
  5
2D0F
100
AcDbEntity
  8
0
100
AcDbLine
 10
532.905969
 20
339.467165
 30
0.0
 11
641.188946
 21
339.467165
 31
0.0
  0
TEXT
  5
2D13
100
AcDbEntity
  8
0
100
AcDbText
 10
558.923279
 20
281.222173
 30
0.0
 40
20.0
  1
32A
 41
0.8
 11
558.923279
 21
281.222173
 31
0.0
100
AcDbText
 73
     1
  0
LINE
  5
2D17
100
AcDbEntity
  8
0
100
AcDbLine
 10
465.051684
 20
363.597981
 30
0.0
 11
417.783121
 21
363.597981
 31
0.0
  0
LINE
  5
2D18
100
AcDbEntity
  8
0
100
AcDbLine
 10
436.689871
 20
373.051356
 30
0.0
 11
441.418246
 21
368.324669
 31
0.0
  0
LINE
  5
2D19
100
AcDbEntity
  8
0
100
AcDbLine
 10
417.783121
 20
363.597981
 30
0.0
 11
408.329746
 21
373.051356
 31
0.0
  0
LINE
  5
2D1A
100
AcDbEntity
  8
0
100
AcDbLine
 10
408.329746
 20
373.051356
 30
0.0
 11
436.689871
 21
373.051356
 31
0.0
  0
LINE
  5
2D1B
100
AcDbEntity
  8
0
100
AcDbLine
 10
455.392434
 20
373.051356
 30
0.0
 11
465.051684
 21
363.597981
 31
0.0
  0
LINE
  5
2D1C
100
AcDbEntity
  8
0
100
AcDbLine
 10
455.392434
 20
368.324669
 30
0.0
 11
455.392434
 21
373.051356
 31
0.0
  0
LINE
  5
2D1D
100
AcDbEntity
  8
0
100
AcDbLine
 10
441.418246
 20
368.324669
 30
0.0
 11
455.392434
 21
368.324669
 31
0.0
  0
LINE
  5
2D21
100
AcDbEntity
  8
0
100
AcDbLine
 10
541.905969
 20
413.967165
 30
0.0
 11
541.905969
 21
394.467165
 31
0.0
  0
LINE
  5
2D22
100
AcDbEntity
  8
0
100
AcDbLine
 10
565.905969
 20
372.467165
 30
0.0
 11
607.905969
 21
372.467165
 31
0.0
  0
LINE
  5
2D23
100
AcDbEntity
  8
0
100
AcDbLine
 10
551.905969
 20
382.467165
 30
0.0
 11
551.905969
 21
350.467165
 31
0.0
  0
LINE
  5
2D24
100
AcDbEntity
  8
0
100
AcDbLine
 10
536.905969
 20
382.467165
 30
0.0
 11
536.905969
 21
350.467165
 31
0.0
  0
LINE
  5
2D25
100
AcDbEntity
  8
0
100
AcDbLine
 10
536.905969
 20
382.467165
 30
0.0
 11
536.905969
 21
350.467165
 31
0.0
  0
LINE
  5
2D26
100
AcDbEntity
  8
0
100
AcDbLine
 10
532.905969
 20
339.467165
 30
0.0
 11
532.905969
 21
389.467165
 31
0.0
  0
LINE
  5
2D27
100
AcDbEntity
  8
0
100
AcDbLine
 10
522.496605
 20
341.467165
 30
0.0
 11
522.496605
 21
387.467165
 31
0.0
  0
LINE
  5
2D28
100
AcDbEntity
  8
0
100
AcDbLine
 10
551.905969
 20
350.467165
 30
0.0
 11
536.905969
 21
350.467165
 31
0.0
  0
ARC
  5
2D29
100
AcDbEntity
  8
0
100
AcDbCircle
 10
533.435276
 20
370.310756
 30
0.0
 40
30.848132
100
AcDbArc
 50
249.23122
 51
269.016844
  0
ARC
  5
2D2A
100
AcDbEntity
  8
0
100
AcDbCircle
 10
536.905969
 20
394.467165
 30
0.0
 40
5.0
100
AcDbArc
 50
270.0
 51
0.0
  0
LINE
  5
2D2B
100
AcDbEntity
  8
0
100
AcDbLine
 10
551.905969
 20
382.467165
 30
0.0
 11
536.905969
 21
382.467165
 31
0.0
  0
LINE
  5
2D2C
100
AcDbEntity
  8
0
100
AcDbLine
 10
532.905969
 20
389.467165
 30
0.0
 11
536.905969
 21
389.467165
 31
0.0
  0
ARC
  5
2D2D
100
AcDbEntity
  8
0
100
AcDbCircle
 10
533.435276
 20
358.623575
 30
0.0
 40
30.848132
100
AcDbArc
 50
90.983156
 51
110.76878
  0
ARC
  5
2D2E
100
AcDbEntity
  8
0
100
AcDbCircle
 10
548.984589
 20
384.467165
 30
0.0
 40
5.0
100
AcDbArc
 50
29.40655
 51
90.0
  0
ARC
  5
2D2F
100
AcDbEntity
  8
0
100
AcDbCircle
 10
565.905969
 20
367.467165
 30
0.0
 40
5.0
100
AcDbArc
 50
90.0
 51
135.596747
  0
LINE
  5
2D30
100
AcDbEntity
  8
0
100
AcDbLine
 10
553.340377
 20
386.922182
 30
0.0
 11
560.360294
 21
374.467165
 31
0.0
  0
ARC
  5
2D31
100
AcDbEntity
  8
0
100
AcDbCircle
 10
607.905969
 20
367.467165
 30
0.0
 40
5.0
100
AcDbArc
 50
44.403253
 51
90.0
  0
LINE
  5
2D32
100
AcDbEntity
  8
0
100
AcDbLine
 10
620.471562
 20
386.922182
 30
0.0
 11
613.451644
 21
374.467165
 31
0.0
  0
LINE
  5
2D33
100
AcDbEntity
  8
0
100
AcDbLine
 10
557.047458
 20
454.467165
 30
0.0
 11
617.047458
 21
454.467165
 31
0.0
  0
LINE
  5
2D34
100
AcDbEntity
  8
0
100
AcDbLine
 10
542.047458
 20
439.467165
 30
0.0
 11
542.047458
 21
413.967165
 31
0.0
  0
ARC
  5
2D35
100
AcDbEntity
  8
0
100
AcDbCircle
 10
557.047458
 20
439.467165
 30
0.0
 40
15.0
100
AcDbArc
 50
90.0
 51
180.0
  0
CIRCLE
  5
2D36
100
AcDbEntity
  8
0
100
AcDbCircle
 10
587.047458
 20
418.967165
 30
0.0
 40
3.0
  0
LINE
  5
2D3B
100
AcDbEntity
  8
0
100
AcDbLine
 10
631.905969
 20
413.967165
 30
0.0
 11
631.905969
 21
394.467165
 31
0.0
  0
LINE
  5
2D3F
100
AcDbEntity
  8
0
100
AcDbLine
 10
636.905969
 20
382.467165
 30
0.0
 11
636.905969
 21
350.467165
 31
0.0
  0
LINE
  5
2D40
100
AcDbEntity
  8
0
100
AcDbLine
 10
621.905969
 20
382.467165
 30
0.0
 11
621.905969
 21
350.467165
 31
0.0
  0
LINE
  5
2D41
100
AcDbEntity
  8
0
100
AcDbLine
 10
651.598311
 20
341.467165
 30
0.0
 11
651.598311
 21
387.467165
 31
0.0
  0
LINE
  5
2D42
100
AcDbEntity
  8
0
100
AcDbLine
 10
641.188946
 20
339.467165
 30
0.0
 11
641.188946
 21
389.467165
 31
0.0
  0
ARC
  5
2D43
100
AcDbEntity
  8
0
100
AcDbCircle
 10
640.65964
 20
370.310756
 30
0.0
 40
30.848132
100
AcDbArc
 50
270.983156
 51
290.76878
  0
LINE
  5
2D44
100
AcDbEntity
  8
0
100
AcDbLine
 10
621.905969
 20
350.467165
 30
0.0
 11
636.905969
 21
350.467165
 31
0.0
  0
ARC
  5
2D45
100
AcDbEntity
  8
0
100
AcDbCircle
 10
640.65964
 20
358.623575
 30
0.0
 40
30.848132
100
AcDbArc
 50
69.23122
 51
89.016844
  0
LINE
  5
2D46
100
AcDbEntity
  8
0
100
AcDbLine
 10
636.905969
 20
389.467165
 30
0.0
 11
641.188946
 21
389.467165
 31
0.0
  0
ARC
  5
2D47
100
AcDbEntity
  8
0
100
AcDbCircle
 10
636.905969
 20
394.467165
 30
0.0
 40
5.0
100
AcDbArc
 50
180.0
 51
270.0
  0
LINE
  5
2D48
100
AcDbEntity
  8
0
100
AcDbLine
 10
621.905969
 20
382.467165
 30
0.0
 11
636.905969
 21
382.467165
 31
0.0
  0
LINE
  5
2D4B
100
AcDbEntity
  8
0
100
AcDbLine
 10
632.047458
 20
413.967165
 30
0.0
 11
632.047458
 21
439.467165
 31
0.0
  0
LINE
  5
2D4E
100
AcDbEntity
  8
0
100
AcDbLine
 10
762.937377
 20
454.467165
 30
0.0
 11
822.937377
 21
454.467165
 31
0.0
  0
LINE
  5
2D4F
100
AcDbEntity
  8
0
100
AcDbLine
 10
747.937377
 20
439.467165
 30
0.0
 11
747.937377
 21
418.204619
 31
0.0
  0
ARC
  5
2D50
100
AcDbEntity
  8
0
100
AcDbCircle
 10
762.937377
 20
439.467165
 30
0.0
 40
15.0
100
AcDbArc
 50
90.0
 51
180.0
  0
LINE
  5
2D52
100
AcDbEntity
  8
0
100
AcDbLine
 10
1210.145731
 20
454.467165
 30
0.0
 11
1150.145731
 21
454.467165
 31
0.0
  0
LINE
  5
2D54
100
AcDbEntity
  8
0
100
AcDbLine
 10
837.937377
 20
417.967128
 30
0.0
 11
837.937377
 21
439.467165
 31
0.0
  0
LINE
  5
2D56
100
AcDbEntity
  8
0
100
AcDbLine
 10
1135.145731
 20
430.514467
 30
0.0
 11
1135.145731
 21
439.467165
 31
0.0
  0
ARC
  5
2D57
100
AcDbEntity
  8
0
100
AcDbCircle
 10
1150.145731
 20
439.467165
 30
0.0
 40
15.0
100
AcDbArc
 50
90.0
 51
180.0
  0
LINE
  5
2D5D
100
AcDbEntity
  8
0
100
AcDbLine
 10
1317.01472
 20
365.795278
 30
0.0
 11
1326.67397
 21
356.341903
 31
0.0
  0
LINE
  5
2D5E
100
AcDbEntity
  8
0
100
AcDbLine
 10
1317.01472
 20
361.06859
 30
0.0
 11
1317.01472
 21
365.795278
 31
0.0
  0
LINE
  5
2D5F
100
AcDbEntity
  8
0
100
AcDbLine
 10
1279.405407
 20
356.341903
 30
0.0
 11
1269.952032
 21
365.795278
 31
0.0
  0
LINE
  5
2D60
100
AcDbEntity
  8
0
100
AcDbLine
 10
1298.312157
 20
365.795278
 30
0.0
 11
1303.040532
 21
361.06859
 31
0.0
  0
LINE
  5
2D61
100
AcDbEntity
  8
0
100
AcDbLine
 10
1326.67397
 20
356.341903
 30
0.0
 11
1279.405407
 21
356.341903
 31
0.0
  0
LINE
  5
2D62
100
AcDbEntity
  8
0
100
AcDbLine
 10
1303.040532
 20
361.06859
 30
0.0
 11
1317.01472
 21
361.06859
 31
0.0
  0
LINE
  5
2D63
100
AcDbEntity
  8
0
100
AcDbLine
 10
1269.952032
 20
365.795278
 30
0.0
 11
1298.312157
 21
365.795278
 31
0.0
  0
LINE
  5
2D64
100
AcDbEntity
  8
0
100
AcDbLine
 10
1225.145731
 20
439.467165
 30
0.0
 11
1225.145731
 21
430.706987
 31
0.0
  0
ARC
  5
2D65
100
AcDbEntity
  8
0
100
AcDbCircle
 10
1210.145731
 20
439.467165
 30
0.0
 40
15.0
100
AcDbArc
 50
0.0
 51
90.0
  0
LINE
  5
2D66
100
AcDbEntity
  8
0
100
AcDbLine
 10
1401.878559
 20
413.967165
 30
0.0
 11
1401.878559
 21
394.467165
 31
0.0
  0
LINE
  5
2D6C
100
AcDbEntity
  8
0
100
AcDbLine
 10
1411.878559
 20
382.467165
 30
0.0
 11
1411.878559
 21
350.467165
 31
0.0
  0
LINE
  5
2D6D
100
AcDbEntity
  8
0
100
AcDbLine
 10
1396.878559
 20
382.467165
 30
0.0
 11
1396.878559
 21
350.467165
 31
0.0
  0
LINE
  5
2D6E
100
AcDbEntity
  8
0
100
AcDbLine
 10
1396.878559
 20
382.467165
 30
0.0
 11
1396.878559
 21
350.467165
 31
0.0
  0
LINE
  5
2D6F
100
AcDbEntity
  8
0
100
AcDbLine
 10
1382.469195
 20
341.467165
 30
0.0
 11
1382.469195
 21
387.467165
 31
0.0
  0
LINE
  5
2D70
100
AcDbEntity
  8
0
100
AcDbLine
 10
1392.878559
 20
339.467165
 30
0.0
 11
1392.878559
 21
389.467165
 31
0.0
  0
LINE
  5
2D71
100
AcDbEntity
  8
0
100
AcDbLine
 10
1411.878559
 20
350.467165
 30
0.0
 11
1396.878559
 21
350.467165
 31
0.0
  0
ARC
  5
2D72
100
AcDbEntity
  8
0
100
AcDbCircle
 10
1391.018952
 20
357.87722
 30
0.0
 40
18.503736
100
AcDbArc
 50
242.480159
 51
275.767906
  0
ARC
  5
2D73
100
AcDbEntity
  8
0
100
AcDbCircle
 10
1396.878559
 20
394.467165
 30
0.0
 40
5.0
100
AcDbArc
 50
270.0
 51
0.0
  0
LINE
  5
2D74
100
AcDbEntity
  8
0
100
AcDbLine
 10
1411.878559
 20
382.467165
 30
0.0
 11
1396.878559
 21
382.467165
 31
0.0
  0
LINE
  5
2D75
100
AcDbEntity
  8
0
100
AcDbLine
 10
1392.878559
 20
389.467165
 30
0.0
 11
1396.878559
 21
389.467165
 31
0.0
  0
ARC
  5
2D76
100
AcDbEntity
  8
0
100
AcDbCircle
 10
1391.018952
 20
371.057111
 30
0.0
 40
18.503736
100
AcDbArc
 50
84.232094
 51
117.519841
  0
ARC
  5
2D77
100
AcDbEntity
  8
0
100
AcDbCircle
 10
1408.957179
 20
384.467165
 30
0.0
 40
5.0
100
AcDbArc
 50
29.40655
 51
90.0
  0
ARC
  5
2D78
100
AcDbEntity
  8
0
100
AcDbCircle
 10
1425.878559
 20
367.467165
 30
0.0
 40
5.0
100
AcDbArc
 50
90.0
 51
135.596747
  0
LINE
  5
2D79
100
AcDbEntity
  8
0
100
AcDbLine
 10
1413.312967
 20
386.922182
 30
0.0
 11
1420.332884
 21
374.467165
 31
0.0
  0
LINE
  5
2D7B
100
AcDbEntity
  8
0
100
AcDbLine
 10
1402.020048
 20
439.467165
 30
0.0
 11
1402.020048
 21
413.967165
 31
0.0
  0
ARC
  5
2D7C
100
AcDbEntity
  8
0
100
AcDbCircle
 10
1417.020048
 20
439.467165
 30
0.0
 40
15.0
100
AcDbArc
 50
90.0
 51
180.0
  0
CIRCLE
  5
2D7D
100
AcDbEntity
  8
0
100
AcDbCircle
 10
587.047458
 20
612.219109
 30
0.0
 40
45.0
  0
LINE
  5
2D7E
100
AcDbEntity
  8
0
100
AcDbLine
 10
522.496605
 20
589.219109
 30
0.0
 11
522.496605
 21
635.219109
 31
0.0
  0
LINE
  5
2D7F
100
AcDbEntity
  8
0
100
AcDbLine
 10
532.905969
 20
587.219109
 30
0.0
 11
532.905969
 21
637.219109
 31
0.0
  0
LINE
  5
2D85
100
AcDbEntity
  8
0
100
AcDbLine
 10
454.223313
 20
607.88838
 30
0.0
 11
406.954751
 21
607.88838
 31
0.0
  0
LINE
  5
2D86
100
AcDbEntity
  8
0
100
AcDbLine
 10
425.861501
 20
617.341755
 30
0.0
 11
430.589876
 21
612.615067
 31
0.0
  0
LINE
  5
2D87
100
AcDbEntity
  8
0
100
AcDbLine
 10
406.954751
 20
607.88838
 30
0.0
 11
397.501376
 21
617.341755
 31
0.0
  0
LINE
  5
2D88
100
AcDbEntity
  8
0
100
AcDbLine
 10
397.501376
 20
617.341755
 30
0.0
 11
425.861501
 21
617.341755
 31
0.0
  0
LINE
  5
2D89
100
AcDbEntity
  8
0
100
AcDbLine
 10
444.564063
 20
617.341755
 30
0.0
 11
454.223313
 21
607.88838
 31
0.0
  0
LINE
  5
2D8A
100
AcDbEntity
  8
0
100
AcDbLine
 10
444.564063
 20
612.615067
 30
0.0
 11
444.564063
 21
617.341755
 31
0.0
  0
LINE
  5
2D8B
100
AcDbEntity
  8
0
100
AcDbLine
 10
430.589876
 20
612.615067
 30
0.0
 11
444.564063
 21
612.615067
 31
0.0
  0
LINE
  5
2D8D
100
AcDbEntity
  8
0
100
AcDbLine
 10
549.630884
 20
587.219109
 30
0.0
 11
532.905969
 21
587.219109
 31
0.0
  0
LINE
  5
2D8E
100
AcDbEntity
  8
0
100
AcDbLine
 10
537.421852
 20
593.009737
 30
0.0
 11
546.353478
 21
593.009737
 31
0.0
  0
ARC
  5
2D8F
100
AcDbEntity
  8
0
100
AcDbCircle
 10
533.435276
 20
618.0627
 30
0.0
 40
30.848132
100
AcDbArc
 50
249.23122
 51
269.016844
  0
ARC
  5
2D90
100
AcDbEntity
  8
0
100
AcDbCircle
 10
538.188946
 20
588.219109
 30
0.0
 40
1.0
100
AcDbArc
 50
180.0
 51
270.0
  0
LINE
  5
2D91
100
AcDbEntity
  8
0
100
AcDbLine
 10
537.188946
 20
591.009737
 30
0.0
 11
537.188946
 21
588.219109
 31
0.0
  0
ARC
  5
2D92
100
AcDbEntity
  8
0
100
AcDbCircle
 10
535.188946
 20
591.009737
 30
0.0
 40
2.0
100
AcDbArc
 50
0.0
 51
90.0
  0
LINE
  5
2D96
100
AcDbEntity
  8
0
100
AcDbLine
 10
608.047458
 20
658.219109
 30
0.0
 11
566.047458
 21
658.219109
 31
0.0
  0
LINE
  5
2D97
100
AcDbEntity
  8
0
100
AcDbLine
 10
566.047458
 20
652.018607
 30
0.0
 11
566.047458
 21
658.219109
 31
0.0
  0
LINE
  5
2D98
100
AcDbEntity
  8
0
100
AcDbLine
 10
549.630884
 20
637.219109
 30
0.0
 11
532.905969
 21
637.219109
 31
0.0
  0
LINE
  5
2D99
100
AcDbEntity
  8
0
100
AcDbLine
 10
537.421852
 20
631.428482
 30
0.0
 11
546.353478
 21
631.428482
 31
0.0
  0
ARC
  5
2D9A
100
AcDbEntity
  8
0
100
AcDbCircle
 10
533.435276
 20
606.375519
 30
0.0
 40
30.848132
100
AcDbArc
 50
90.983156
 51
110.76878
  0
ARC
  5
2D9B
100
AcDbEntity
  8
0
100
AcDbCircle
 10
538.188946
 20
636.219109
 30
0.0
 40
1.0
100
AcDbArc
 50
90.0
 51
180.0
  0
LINE
  5
2D9C
100
AcDbEntity
  8
0
100
AcDbLine
 10
537.188946
 20
633.428482
 30
0.0
 11
537.188946
 21
636.219109
 31
0.0
  0
ARC
  5
2D9D
100
AcDbEntity
  8
0
100
AcDbCircle
 10
535.188946
 20
633.428482
 30
0.0
 40
2.0
100
AcDbArc
 50
270.0
 51
0.0
  0
LINE
  5
2D9E
100
AcDbEntity
  8
0
100
AcDbLine
 10
608.047458
 20
652.018607
 30
0.0
 11
608.047458
 21
658.219109
 31
0.0
  0
LINE
  5
2D9F
100
AcDbEntity
  8
0
100
AcDbLine
 10
651.598311
 20
589.219109
 30
0.0
 11
651.598311
 21
635.219109
 31
0.0
  0
LINE
  5
2DA0
100
AcDbEntity
  8
0
100
AcDbLine
 10
641.188946
 20
587.219109
 30
0.0
 11
641.188946
 21
637.219109
 31
0.0
  0
ARC
  5
2DA6
100
AcDbEntity
  8
0
100
AcDbCircle
 10
640.65964
 20
618.0627
 30
0.0
 40
30.848132
100
AcDbArc
 50
270.983156
 51
290.76878
  0
LINE
  5
2DA7
100
AcDbEntity
  8
0
100
AcDbLine
 10
636.905969
 20
591.009737
 30
0.0
 11
636.905969
 21
588.219109
 31
0.0
  0
LINE
  5
2DA8
100
AcDbEntity
  8
0
100
AcDbLine
 10
636.673063
 20
593.009737
 30
0.0
 11
627.741438
 21
593.009737
 31
0.0
  0
LINE
  5
2DA9
100
AcDbEntity
  8
0
100
AcDbLine
 10
641.188946
 20
587.219109
 30
0.0
 11
624.464032
 21
587.219109
 31
0.0
  0
ARC
  5
2DAA
100
AcDbEntity
  8
0
100
AcDbCircle
 10
638.905969
 20
591.009737
 30
0.0
 40
2.0
100
AcDbArc
 50
90.0
 51
180.0
  0
ARC
  5
2DAB
100
AcDbEntity
  8
0
100
AcDbCircle
 10
635.905969
 20
588.219109
 30
0.0
 40
1.0
100
AcDbArc
 50
270.0
 51
0.0
  0
ARC
  5
2DAE
100
AcDbEntity
  8
0
100
AcDbCircle
 10
640.65964
 20
606.375519
 30
0.0
 40
30.848132
100
AcDbArc
 50
69.23122
 51
89.016844
  0
LINE
  5
2DAF
100
AcDbEntity
  8
0
100
AcDbLine
 10
636.905969
 20
633.428482
 30
0.0
 11
636.905969
 21
636.219109
 31
0.0
  0
LINE
  5
2DB0
100
AcDbEntity
  8
0
100
AcDbLine
 10
636.673063
 20
631.428482
 30
0.0
 11
627.741438
 21
631.428482
 31
0.0
  0
LINE
  5
2DB1
100
AcDbEntity
  8
0
100
AcDbLine
 10
641.188946
 20
637.219109
 30
0.0
 11
624.464032
 21
637.219109
 31
0.0
  0
ARC
  5
2DB2
100
AcDbEntity
  8
0
100
AcDbCircle
 10
638.905969
 20
633.428482
 30
0.0
 40
2.0
100
AcDbArc
 50
180.0
 51
270.0
  0
ARC
  5
2DB3
100
AcDbEntity
  8
0
100
AcDbCircle
 10
635.905969
 20
636.219109
 30
0.0
 40
1.0
100
AcDbArc
 50
0.0
 51
90.0
  0
ARC
  5
2DB6
100
AcDbEntity
  8
0
100
AcDbCircle
 10
616.905969
 20
909.653714
 30
0.0
 40
15.0
100
AcDbArc
 50
0.0
 51
90.0
  0
ARC
  5
2DB7
100
AcDbEntity
  8
0
100
AcDbCircle
 10
624.968838
 20
854.653714
 30
0.0
 40
5.0
100
AcDbArc
 50
90.0
 51
150.59345
  0
LINE
  5
2DB8
100
AcDbEntity
  8
0
100
AcDbLine
 10
624.124533
 20
867.153714
 30
0.0
 11
612.87058
 21
867.153714
 31
0.0
  0
LINE
  5
2DB9
100
AcDbEntity
  8
0
100
AcDbLine
 10
631.905969
 20
884.153714
 30
0.0
 11
541.905969
 21
884.153714
 31
0.0
  0
LINE
  5
2DBA
100
AcDbEntity
  8
0
100
AcDbLine
 10
632.047458
 20
884.153714
 30
0.0
 11
542.047458
 21
884.153714
 31
0.0
  0
LINE
  5
2DBB
100
AcDbEntity
  8
0
100
AcDbLine
 10
641.188946
 20
809.653714
 30
0.0
 11
532.905969
 21
809.653714
 31
0.0
  0
ARC
  5
2DBC
100
AcDbEntity
  8
0
100
AcDbCircle
 10
556.905969
 20
909.653714
 30
0.0
 40
15.0
100
AcDbArc
 50
90.0
 51
180.0
  0
LINE
  5
2DC6
100
AcDbEntity
  8
0
100
AcDbLine
 10
552.047458
 20
852.653714
 30
0.0
 11
552.047458
 21
820.653714
 31
0.0
  0
LINE
  5
2DC7
100
AcDbEntity
  8
0
100
AcDbLine
 10
537.047458
 20
852.653714
 30
0.0
 11
537.047458
 21
820.653714
 31
0.0
  0
LINE
  5
2DC8
100
AcDbEntity
  8
0
100
AcDbLine
 10
522.496605
 20
811.653714
 30
0.0
 11
522.496605
 21
857.653714
 31
0.0
  0
LINE
  5
2DC9
100
AcDbEntity
  8
0
100
AcDbLine
 10
532.905969
 20
809.653714
 30
0.0
 11
532.905969
 21
859.653714
 31
0.0
  0
LINE
  5
2DCA
100
AcDbEntity
  8
0
100
AcDbLine
 10
552.047458
 20
820.653714
 30
0.0
 11
537.047458
 21
820.653714
 31
0.0
  0
ARC
  5
2DCB
100
AcDbEntity
  8
0
100
AcDbCircle
 10
533.435276
 20
840.497304
 30
0.0
 40
30.848132
100
AcDbArc
 50
249.23122
 51
269.016844
  0
ARC
  5
2DCC
100
AcDbEntity
  8
0
100
AcDbCircle
 10
569.047458
 20
879.153714
 30
0.0
 40
3.0
100
AcDbArc
 50
90.0
 51
180.0
  0
ARC
  5
2DCD
100
AcDbEntity
  8
0
100
AcDbCircle
 10
569.047458
 20
858.153714
 30
0.0
 40
3.0
100
AcDbArc
 50
180.0
 51
270.0
  0
LINE
  5
2DCE
100
AcDbEntity
  8
0
100
AcDbLine
 10
608.047458
 20
842.653714
 30
0.0
 11
566.047458
 21
842.653714
 31
0.0
  0
LINE
  5
2DCF
100
AcDbEntity
  8
0
100
AcDbLine
 10
566.047458
 20
858.153714
 30
0.0
 11
566.047458
 21
879.153714
 31
0.0
  0
LINE
  5
2DD0
100
AcDbEntity
  8
0
100
AcDbLine
 10
542.047458
 20
884.153714
 30
0.0
 11
542.047458
 21
864.653714
 31
0.0
  0
ARC
  5
2DD1
100
AcDbEntity
  8
0
100
AcDbCircle
 10
537.047458
 20
864.653714
 30
0.0
 40
5.0
100
AcDbArc
 50
270.0
 51
0.0
  0
LINE
  5
2DD2
100
AcDbEntity
  8
0
100
AcDbLine
 10
552.047458
 20
852.653714
 30
0.0
 11
537.047458
 21
852.653714
 31
0.0
  0
ARC
  5
2DD3
100
AcDbEntity
  8
0
100
AcDbCircle
 10
533.435276
 20
828.810124
 30
0.0
 40
30.848132
100
AcDbArc
 50
90.983156
 51
110.76878
  0
LINE
  5
2DD4
100
AcDbEntity
  8
0
100
AcDbLine
 10
537.047458
 20
859.653714
 30
0.0
 11
532.905969
 21
859.653714
 31
0.0
  0
ARC
  5
2DD5
100
AcDbEntity
  8
0
100
AcDbCircle
 10
549.126077
 20
854.653714
 30
0.0
 40
5.0
100
AcDbArc
 50
29.40655
 51
90.0
  0
LINE
  5
2DD6
100
AcDbEntity
  8
0
100
AcDbLine
 10
561.224335
 20
867.153714
 30
0.0
 11
549.970383
 21
867.153714
 31
0.0
  0
ARC
  5
2DD7
100
AcDbEntity
  8
0
100
AcDbCircle
 10
566.047458
 20
837.653714
 30
0.0
 40
5.0
100
AcDbArc
 50
90.0
 51
135.596747
  0
LINE
  5
2DD8
100
AcDbEntity
  8
0
100
AcDbLine
 10
553.481865
 20
857.10873
 30
0.0
 11
560.501783
 21
844.653714
 31
0.0
  0
LINE
  5
2DD9
100
AcDbEntity
  8
0
100
AcDbLine
 10
541.905969
 20
884.153714
 30
0.0
 11
541.905969
 21
909.653714
 31
0.0
  0
LINE
  5
2DDA
100
AcDbEntity
  8
0
100
AcDbLine
 10
608.047458
 20
858.153714
 30
0.0
 11
608.047458
 21
879.153714
 31
0.0
  0
LINE
  5
2DDB
100
AcDbEntity
  8
0
100
AcDbLine
 10
569.047458
 20
855.153714
 30
0.0
 11
605.047458
 21
855.153714
 31
0.0
  0
ARC
  5
2DDC
100
AcDbEntity
  8
0
100
AcDbCircle
 10
605.047458
 20
858.153714
 30
0.0
 40
3.0
100
AcDbArc
 50
270.0
 51
0.0
  0
ARC
  5
2DDD
100
AcDbEntity
  8
0
100
AcDbCircle
 10
608.047458
 20
837.653714
 30
0.0
 40
5.0
100
AcDbArc
 50
44.403253
 51
90.0
  0
LINE
  5
2DDE
100
AcDbEntity
  8
0
100
AcDbLine
 10
620.61305
 20
857.10873
 30
0.0
 11
613.593133
 21
844.653714
 31
0.0
  0
LINE
  5
2DDF
100
AcDbEntity
  8
0
100
AcDbLine
 10
569.047458
 20
882.153714
 30
0.0
 11
605.047458
 21
882.153714
 31
0.0
  0
CIRCLE
  5
2DE0
100
AcDbEntity
  8
0
100
AcDbCircle
 10
586.905969
 20
889.153714
 30
0.0
 40
3.0
  0
ARC
  5
2DE1
100
AcDbEntity
  8
0
100
AcDbCircle
 10
605.047458
 20
879.153714
 30
0.0
 40
3.0
100
AcDbArc
 50
0.0
 51
90.0
  0
LINE
  5
2DE2
100
AcDbEntity
  8
0
100
AcDbLine
 10
616.905969
 20
924.653714
 30
0.0
 11
556.905969
 21
924.653714
 31
0.0
  0
LINE
  5
2DE3
100
AcDbEntity
  8
0
100
AcDbLine
 10
716.372163
 20
835.65344
 30
0.0
 11
763.640725
 21
835.65344
 31
0.0
  0
LINE
  5
2DE4
100
AcDbEntity
  8
0
100
AcDbLine
 10
740.0056
 20
840.380128
 30
0.0
 11
726.031413
 21
840.380128
 31
0.0
  0
LINE
  5
2DE5
100
AcDbEntity
  8
0
100
AcDbLine
 10
726.031413
 20
845.106815
 30
0.0
 11
716.372163
 21
835.65344
 31
0.0
  0
LINE
  5
2DE6
100
AcDbEntity
  8
0
100
AcDbLine
 10
726.031413
 20
840.380128
 30
0.0
 11
726.031413
 21
845.106815
 31
0.0
  0
LINE
  5
2DE7
100
AcDbEntity
  8
0
100
AcDbLine
 10
637.047458
 20
852.653714
 30
0.0
 11
637.047458
 21
820.653714
 31
0.0
  0
LINE
  5
2DE8
100
AcDbEntity
  8
0
100
AcDbLine
 10
637.047458
 20
852.653714
 30
0.0
 11
637.047458
 21
820.653714
 31
0.0
  0
LINE
  5
2DE9
100
AcDbEntity
  8
0
100
AcDbLine
 10
622.047458
 20
852.653714
 30
0.0
 11
622.047458
 21
820.653714
 31
0.0
  0
LINE
  5
2DEA
100
AcDbEntity
  8
0
100
AcDbLine
 10
640.905969
 20
809.653714
 30
0.0
 11
640.905969
 21
859.653714
 31
0.0
  0
LINE
  5
2DEB
100
AcDbEntity
  8
0
100
AcDbLine
 10
651.598311
 20
811.653714
 30
0.0
 11
651.598311
 21
857.653714
 31
0.0
  0
ARC
  5
2DEF
100
AcDbEntity
  8
0
100
AcDbCircle
 10
640.65964
 20
840.497304
 30
0.0
 40
30.848132
100
AcDbArc
 50
270.983156
 51
290.76878
  0
LINE
  5
2DF0
100
AcDbEntity
  8
0
100
AcDbLine
 10
622.047458
 20
820.653714
 30
0.0
 11
637.047458
 21
820.653714
 31
0.0
  0
LINE
  5
2DF5
100
AcDbEntity
  8
0
100
AcDbLine
 10
632.047458
 20
884.153714
 30
0.0
 11
632.047458
 21
864.653714
 31
0.0
  0
ARC
  5
2DF6
100
AcDbEntity
  8
0
100
AcDbCircle
 10
640.65964
 20
828.810124
 30
0.0
 40
30.848132
100
AcDbArc
 50
69.23122
 51
89.016844
  0
LINE
  5
2DF7
100
AcDbEntity
  8
0
100
AcDbLine
 10
641.188946
 20
859.653714
 30
0.0
 11
637.047458
 21
859.653714
 31
0.0
  0
ARC
  5
2DF8
100
AcDbEntity
  8
0
100
AcDbCircle
 10
637.047458
 20
864.653714
 30
0.0
 40
5.0
100
AcDbArc
 50
180.0
 51
270.0
  0
LINE
  5
2DF9
100
AcDbEntity
  8
0
100
AcDbLine
 10
622.047458
 20
852.653714
 30
0.0
 11
637.047458
 21
852.653714
 31
0.0
  0
LINE
  5
2DFA
100
AcDbEntity
  8
0
100
AcDbLine
 10
631.905969
 20
909.653714
 30
0.0
 11
631.905969
 21
884.153714
 31
0.0
  0
LINE
  5
2DFD
100
AcDbEntity
  8
0
100
AcDbLine
 10
744.733975
 20
845.106815
 30
0.0
 11
740.0056
 21
840.380128
 31
0.0
  0
LINE
  5
2DFE
100
AcDbEntity
  8
0
100
AcDbLine
 10
763.640725
 20
835.65344
 30
0.0
 11
773.0941
 21
845.106815
 31
0.0
  0
LINE
  5
2DFF
100
AcDbEntity
  8
0
100
AcDbLine
 10
773.0941
 20
845.106815
 30
0.0
 11
744.733975
 21
845.106815
 31
0.0
  0
LINE
  5
2E02
100
AcDbEntity
  8
0
100
AcDbLine
 10
1382.469195
 20
589.219109
 30
0.0
 11
1382.469195
 21
635.219109
 31
0.0
  0
LINE
  5
2E03
100
AcDbEntity
  8
0
100
AcDbLine
 10
1392.878559
 20
587.219109
 30
0.0
 11
1392.878559
 21
637.219109
 31
0.0
  0
LINE
  5
2E06
100
AcDbEntity
  8
0
100
AcDbLine
 10
1321.365681
 20
603.050912
 30
0.0
 11
1274.097118
 21
603.050912
 31
0.0
  0
LINE
  5
2E07
100
AcDbEntity
  8
0
100
AcDbLine
 10
1264.643743
 20
612.504287
 30
0.0
 11
1293.003868
 21
612.504287
 31
0.0
  0
LINE
  5
2E08
100
AcDbEntity
  8
0
100
AcDbLine
 10
1274.097118
 20
603.050912
 30
0.0
 11
1264.643743
 21
612.504287
 31
0.0
  0
LINE
  5
2E09
100
AcDbEntity
  8
0
100
AcDbLine
 10
1311.706431
 20
612.504287
 30
0.0
 11
1321.365681
 21
603.050912
 31
0.0
  0
LINE
  5
2E0A
100
AcDbEntity
  8
0
100
AcDbLine
 10
1311.706431
 20
607.7776
 30
0.0
 11
1311.706431
 21
612.504287
 31
0.0
  0
LINE
  5
2E0B
100
AcDbEntity
  8
0
100
AcDbLine
 10
1293.003868
 20
612.504287
 30
0.0
 11
1297.732243
 21
607.7776
 31
0.0
  0
LINE
  5
2E0C
100
AcDbEntity
  8
0
100
AcDbLine
 10
1297.732243
 20
607.7776
 30
0.0
 11
1311.706431
 21
607.7776
 31
0.0
  0
LINE
  5
2E11
100
AcDbEntity
  8
0
100
AcDbLine
 10
1409.603474
 20
587.219109
 30
0.0
 11
1392.878559
 21
587.219109
 31
0.0
  0
LINE
  5
2E12
100
AcDbEntity
  8
0
100
AcDbLine
 10
1397.394443
 20
593.009737
 30
0.0
 11
1406.326068
 21
593.009737
 31
0.0
  0
ARC
  5
2E13
100
AcDbEntity
  8
0
100
AcDbCircle
 10
1391.018952
 20
605.629164
 30
0.0
 40
18.503736
100
AcDbArc
 50
242.480159
 51
275.767906
  0
ARC
  5
2E14
100
AcDbEntity
  8
0
100
AcDbCircle
 10
1398.161536
 20
588.219109
 30
0.0
 40
1.0
100
AcDbArc
 50
180.0
 51
270.0
  0
LINE
  5
2E15
100
AcDbEntity
  8
0
100
AcDbLine
 10
1397.161536
 20
591.009737
 30
0.0
 11
1397.161536
 21
588.219109
 31
0.0
  0
ARC
  5
2E16
100
AcDbEntity
  8
0
100
AcDbCircle
 10
1395.161536
 20
591.009737
 30
0.0
 40
2.0
100
AcDbArc
 50
0.0
 51
90.0
  0
LINE
  5
2E1A
100
AcDbEntity
  8
0
100
AcDbLine
 10
1426.020048
 20
652.018607
 30
0.0
 11
1426.020048
 21
658.219109
 31
0.0
  0
LINE
  5
2E1B
100
AcDbEntity
  8
0
100
AcDbLine
 10
1409.603474
 20
637.219109
 30
0.0
 11
1392.878559
 21
637.219109
 31
0.0
  0
LINE
  5
2E1C
100
AcDbEntity
  8
0
100
AcDbLine
 10
1397.394443
 20
631.428482
 30
0.0
 11
1406.326068
 21
631.428482
 31
0.0
  0
ARC
  5
2E1D
100
AcDbEntity
  8
0
100
AcDbCircle
 10
1391.018952
 20
618.809055
 30
0.0
 40
18.503736
100
AcDbArc
 50
84.232094
 51
117.519841
  0
ARC
  5
2E1E
100
AcDbEntity
  8
0
100
AcDbCircle
 10
1398.161536
 20
636.219109
 30
0.0
 40
1.0
100
AcDbArc
 50
90.0
 51
180.0
  0
ARC
  5
2E1F
100
AcDbEntity
  8
0
100
AcDbCircle
 10
1395.161536
 20
633.428482
 30
0.0
 40
2.0
100
AcDbArc
 50
270.0
 51
0.0
  0
LINE
  5
2E20
100
AcDbEntity
  8
0
100
AcDbLine
 10
1397.161536
 20
633.428482
 30
0.0
 11
1397.161536
 21
636.219109
 31
0.0
  0
ARC
  5
2E22
100
AcDbEntity
  8
0
100
AcDbCircle
 10
1416.878559
 20
909.653714
 30
0.0
 40
15.0
100
AcDbArc
 50
90.0
 51
180.0
  0
LINE
  5
2E23
100
AcDbEntity
  8
0
100
AcDbLine
 10
1412.020048
 20
852.653714
 30
0.0
 11
1412.020048
 21
820.653714
 31
0.0
  0
LINE
  5
2E24
100
AcDbEntity
  8
0
100
AcDbLine
 10
1397.020048
 20
852.653714
 30
0.0
 11
1397.020048
 21
820.653714
 31
0.0
  0
LINE
  5
2E25
100
AcDbEntity
  8
0
100
AcDbLine
 10
1382.469195
 20
811.653714
 30
0.0
 11
1382.469195
 21
857.653714
 31
0.0
  0
LINE
  5
2E26
100
AcDbEntity
  8
0
100
AcDbLine
 10
1392.878559
 20
809.653714
 30
0.0
 11
1392.878559
 21
859.653714
 31
0.0
  0
LINE
  5
2E2A
100
AcDbEntity
  8
0
100
AcDbLine
 10
1412.020048
 20
820.653714
 30
0.0
 11
1397.020048
 21
820.653714
 31
0.0
  0
ARC
  5
2E2B
100
AcDbEntity
  8
0
100
AcDbCircle
 10
1391.018952
 20
828.063768
 30
0.0
 40
18.503736
100
AcDbArc
 50
242.480159
 51
275.767906
  0
LINE
  5
2E2F
100
AcDbEntity
  8
0
100
AcDbLine
 10
1402.020048
 20
884.153714
 30
0.0
 11
1402.020048
 21
864.653714
 31
0.0
  0
LINE
  5
2E30
100
AcDbEntity
  8
0
100
AcDbLine
 10
1426.020048
 20
858.153714
 30
0.0
 11
1426.020048
 21
879.153714
 31
0.0
  0
ARC
  5
2E31
100
AcDbEntity
  8
0
100
AcDbCircle
 10
1397.020048
 20
864.653714
 30
0.0
 40
5.0
100
AcDbArc
 50
270.0
 51
0.0
  0
LINE
  5
2E32
100
AcDbEntity
  8
0
100
AcDbLine
 10
1412.020048
 20
852.653714
 30
0.0
 11
1397.020048
 21
852.653714
 31
0.0
  0
ARC
  5
2E33
100
AcDbEntity
  8
0
100
AcDbCircle
 10
1391.018952
 20
841.243659
 30
0.0
 40
18.503736
100
AcDbArc
 50
84.232094
 51
117.519841
  0
LINE
  5
2E34
100
AcDbEntity
  8
0
100
AcDbLine
 10
1397.020048
 20
859.653714
 30
0.0
 11
1392.878559
 21
859.653714
 31
0.0
  0
ARC
  5
2E35
100
AcDbEntity
  8
0
100
AcDbCircle
 10
1409.098667
 20
854.653714
 30
0.0
 40
5.0
100
AcDbArc
 50
29.40655
 51
90.0
  0
LINE
  5
2E36
100
AcDbEntity
  8
0
100
AcDbLine
 10
1421.196925
 20
867.153714
 30
0.0
 11
1409.942973
 21
867.153714
 31
0.0
  0
ARC
  5
2E37
100
AcDbEntity
  8
0
100
AcDbCircle
 10
1426.020048
 20
837.653714
 30
0.0
 40
5.0
100
AcDbArc
 50
90.0
 51
135.596747
  0
LINE
  5
2E38
100
AcDbEntity
  8
0
100
AcDbLine
 10
1413.454455
 20
857.10873
 30
0.0
 11
1420.474373
 21
844.653714
 31
0.0
  0
LINE
  5
2E39
100
AcDbEntity
  8
0
100
AcDbLine
 10
1401.878559
 20
884.153714
 30
0.0
 11
1401.878559
 21
909.653714
 31
0.0
  0
LINE
  5
2E3A
100
AcDbEntity
  8
0
100
AcDbLine
 10
520.001879
 20
1655.850019
 30
0.0
 11
430.001879
 21
1655.850019
 31
0.0
  0
LINE
  5
2E3B
100
AcDbEntity
  8
0
100
AcDbLine
 10
520.143368
 20
1655.850019
 30
0.0
 11
430.143368
 21
1655.850019
 31
0.0
  0
LINE
  5
2E3C
100
AcDbEntity
  8
0
100
AcDbLine
 10
505.001879
 20
1696.350019
 30
0.0
 11
445.001879
 21
1696.350019
 31
0.0
  0
LINE
  5
2E3D
100
AcDbEntity
  8
0
100
AcDbLine
 10
508.70896
 20
1628.805036
 30
0.0
 11
501.689043
 21
1616.350019
 31
0.0
  0
LINE
  5
2E3E
100
AcDbEntity
  8
0
100
AcDbLine
 10
512.220443
 20
1638.850019
 30
0.0
 11
500.96649
 21
1638.850019
 31
0.0
  0
LINE
  5
2E3F
100
AcDbEntity
  8
0
100
AcDbLine
 10
528.143368
 20
1581.350019
 30
0.0
 11
422.143368
 21
1581.350019
 31
0.0
  0
CIRCLE
  5
2E40
100
AcDbEntity
  8
0
100
AcDbCircle
 10
475.284856
 20
1461.008794
 30
0.0
 40
45.0
  0
LINE
  5
2E41
100
AcDbEntity
  8
0
100
AcDbLine
 10
438.066293
 20
1286.263541
 30
0.0
 11
512.220443
 21
1286.263541
 31
0.0
  0
LINE
  5
2E42
100
AcDbEntity
  8
0
100
AcDbLine
 10
445.284856
 20
1343.763541
 30
0.0
 11
505.284856
 21
1343.763541
 31
0.0
  0
LINE
  5
2E43
100
AcDbEntity
  8
0
100
AcDbLine
 10
430.143368
 20
1303.263541
 30
0.0
 11
520.143368
 21
1303.263541
 31
0.0
  0
LINE
  5
2E44
100
AcDbEntity
  8
0
100
AcDbLine
 10
430.284856
 20
1303.263541
 30
0.0
 11
520.284856
 21
1303.263541
 31
0.0
  0
LINE
  5
2E45
100
AcDbEntity
  8
0
100
AcDbLine
 10
422.143368
 20
1228.763541
 30
0.0
 11
528.143368
 21
1228.763541
 31
0.0
  0
LINE
  5
2E46
100
AcDbEntity
  8
0
100
AcDbLine
 10
508.70896
 20
1276.218558
 30
0.0
 11
501.689043
 21
1263.763541
 31
0.0
  0
TEXT
  5
2E47
100
AcDbEntity
  8
0
100
AcDbText
 10
219.243908
 20
1124.761357
 30
0.0
 40
35.0
  1
TLV  HR80A (PT･SW)
100
AcDbText
  0
ARC
  5
2E48
100
AcDbEntity
  8
0
100
AcDbCircle
 10
493.143368
 20
1650.850019
 30
0.0
 40
3.0
100
AcDbArc
 50
0.0
 51
90.0
  0
ARC
  5
2E49
100
AcDbEntity
  8
0
100
AcDbCircle
 10
457.143368
 20
1650.850019
 30
0.0
 40
3.0
100
AcDbArc
 50
90.0
 51
180.0
  0
LINE
  5
2E4A
100
AcDbEntity
  8
0
100
AcDbLine
 10
430.143368
 20
1655.850019
 30
0.0
 11
430.143368
 21
1636.350019
 31
0.0
  0
LINE
  5
2E4B
100
AcDbEntity
  8
0
100
AcDbLine
 10
340.850593
 20
1303.263541
 30
0.0
 11
250.709104
 21
1303.263541
 31
0.0
  0
CIRCLE
  5
2E4C
100
AcDbEntity
  8
0
100
AcDbCircle
 10
295.850593
 20
1253.763541
 30
0.0
 40
25.0
  0
CIRCLE
  5
2E4D
100
AcDbEntity
  8
0
100
AcDbCircle
 10
295.850593
 20
1253.763541
 30
0.0
 40
23.0
  0
LINE
  5
2E4E
100
AcDbEntity
  8
0
100
AcDbLine
 10
290.446932
 20
1286.263541
 30
0.0
 11
265.513145
 21
1286.263541
 31
0.0
  0
LINE
  5
2E4F
100
AcDbEntity
  8
0
100
AcDbLine
 10
325.709104
 20
1343.763541
 30
0.0
 11
265.709104
 21
1343.763541
 31
0.0
  0
TEXT
  5
2E50
100
AcDbEntity
  8
0
100
AcDbText
 10
147.937239
 20
1290.083951
 30
0.0
 40
25.0
  1
正面
100
AcDbText
  0
ARC
  5
2E51
100
AcDbEntity
  8
0
100
AcDbCircle
 10
257.121802
 20
1282.121405
 30
0.0
 40
5.0
100
AcDbArc
 50
0.0
 51
70.528779
  0
LINE
  5
2E52
100
AcDbEntity
  8
0
100
AcDbLine
 10
249.850593
 20
1275.263541
 30
0.0
 11
249.850593
 21
1300.263541
 31
0.0
  0
LINE
  5
2E53
100
AcDbEntity
  8
0
100
AcDbLine
 10
270.850593
 20
1238.763541
 30
0.0
 11
270.850593
 21
1268.763541
 31
0.0
  0
LINE
  5
2E54
100
AcDbEntity
  8
0
100
AcDbLine
 10
275.138277
 20
1239.763541
 30
0.0
 11
275.138277
 21
1239.763541
 31
0.0
  0
LINE
  5
2E55
100
AcDbEntity
  8
0
100
AcDbLine
 10
275.138277
 20
1239.763541
 30
0.0
 11
275.138277
 21
1239.763541
 31
0.0
  0
LINE
  5
2E56
100
AcDbEntity
  8
0
100
AcDbLine
 10
275.138277
 20
1239.763541
 30
0.0
 11
275.138277
 21
1239.763541
 31
0.0
  0
LINE
  5
2E57
100
AcDbEntity
  8
0
100
AcDbLine
 10
271.850593
 20
1237.763541
 30
0.0
 11
274.426307
 21
1237.763541
 31
0.0
  0
ARC
  5
2E58
100
AcDbEntity
  8
0
100
AcDbCircle
 10
271.850593
 20
1238.763541
 30
0.0
 40
1.0
100
AcDbArc
 50
180.0
 51
270.0
  0
ARC
  5
2E59
100
AcDbEntity
  8
0
100
AcDbCircle
 10
274.426307
 20
1232.763541
 30
0.0
 40
5.0
100
AcDbArc
 50
44.427004
 51
90.0
  0
LINE
  5
2E5A
100
AcDbEntity
  8
0
100
AcDbLine
 10
250.850593
 20
1274.263541
 30
0.0
 11
265.850593
 21
1274.263541
 31
0.0
  0
ARC
  5
2E5B
100
AcDbEntity
  8
0
100
AcDbCircle
 10
270.850593
 20
1271.763541
 30
0.0
 40
10.0
100
AcDbArc
 50
180.0
 51
250.528779
  0
ARC
  5
2E5C
100
AcDbEntity
  8
0
100
AcDbCircle
 10
250.850593
 20
1275.263541
 30
0.0
 40
1.0
100
AcDbArc
 50
180.0
 51
270.0
  0
ARC
  5
2E5D
100
AcDbEntity
  8
0
100
AcDbCircle
 10
265.850593
 20
1257.621405
 30
0.0
 40
5.0
100
AcDbArc
 50
0.0
 51
70.528779
  0
LINE
  5
2E5E
100
AcDbEntity
  8
0
100
AcDbLine
 10
271.850593
 20
1269.763541
 30
0.0
 11
274.426307
 21
1269.763541
 31
0.0
  0
ARC
  5
2E5F
100
AcDbEntity
  8
0
100
AcDbCircle
 10
271.850593
 20
1268.763541
 30
0.0
 40
1.0
100
AcDbArc
 50
90.0
 51
180.0
  0
ARC
  5
2E60
100
AcDbEntity
  8
0
100
AcDbCircle
 10
265.850593
 20
1269.263541
 30
0.0
 40
5.0
100
AcDbArc
 50
27.960203
 51
90.0
  0
LINE
  5
2E61
100
AcDbEntity
  8
0
100
AcDbLine
 10
260.850593
 20
1274.263541
 30
0.0
 11
260.850593
 21
1271.763541
 31
0.0
  0
ARC
  5
2E62
100
AcDbEntity
  8
0
100
AcDbCircle
 10
274.426307
 20
1274.763541
 30
0.0
 40
5.0
100
AcDbArc
 50
270.0
 51
315.572996
  0
LINE
  5
2E63
100
AcDbEntity
  8
0
100
AcDbLine
 10
250.709104
 20
1303.263541
 30
0.0
 11
250.709104
 21
1328.763541
 31
0.0
  0
ARC
  5
2E64
100
AcDbEntity
  8
0
100
AcDbCircle
 10
250.850593
 20
1300.263541
 30
0.0
 40
1.0
100
AcDbArc
 50
90.0
 51
180.0
  0
LINE
  5
2E65
100
AcDbEntity
  8
0
100
AcDbLine
 10
250.850593
 20
1301.263541
 30
0.0
 11
256.106747
 21
1301.263541
 31
0.0
  0
ARC
  5
2E66
100
AcDbEntity
  8
0
100
AcDbCircle
 10
256.106747
 20
1302.263541
 30
0.0
 40
1.0
100
AcDbArc
 50
270.0
 51
0.0
  0
LINE
  5
2E67
100
AcDbEntity
  8
0
100
AcDbLine
 10
250.850593
 20
1303.263541
 30
0.0
 11
250.850593
 21
1301.263541
 31
0.0
  0
ARC
  5
2E68
100
AcDbEntity
  8
0
100
AcDbCircle
 10
262.121802
 20
1296.263541
 30
0.0
 40
10.0
100
AcDbArc
 50
180.0
 51
250.528779
  0
ARC
  5
2E69
100
AcDbEntity
  8
0
100
AcDbCircle
 10
265.709104
 20
1328.763541
 30
0.0
 40
15.0
100
AcDbArc
 50
90.0
 51
180.0
  0
TEXT
  5
2E6A
100
AcDbEntity
  8
0
100
AcDbText
 10
460.680616
 20
1182.494029
 30
0.0
 40
20.0
  1
15.20,25A
 41
0.8
 11
460.680616
 21
1182.494029
 31
0.0
100
AcDbText
 73
     1
  0
LINE
  5
2E6B
100
AcDbEntity
  8
0
100
AcDbLine
 10
400.229427
 20
1262.149776
 30
0.0
 11
409.888677
 21
1252.696401
 31
0.0
  0
LINE
  5
2E6C
100
AcDbEntity
  8
0
100
AcDbLine
 10
409.888677
 20
1252.696401
 30
0.0
 11
362.620114
 21
1252.696401
 31
0.0
  0
ARC
  5
2E6D
100
AcDbEntity
  8
0
100
AcDbCircle
 10
335.850593
 20
1282.121405
 30
0.0
 40
5.0
100
AcDbArc
 50
109.471221
 51
180.0
  0
LINE
  5
2E6E
100
AcDbEntity
  8
0
100
AcDbLine
 10
320.850593
 20
1238.763541
 30
0.0
 11
320.850593
 21
1268.763541
 31
0.0
  0
LINE
  5
2E6F
100
AcDbEntity
  8
0
100
AcDbLine
 10
316.562908
 20
1239.763541
 30
0.0
 11
316.562908
 21
1239.763541
 31
0.0
  0
LINE
  5
2E70
100
AcDbEntity
  8
0
100
AcDbLine
 10
316.562908
 20
1239.763541
 30
0.0
 11
316.562908
 21
1239.763541
 31
0.0
  0
LINE
  5
2E71
100
AcDbEntity
  8
0
100
AcDbLine
 10
316.562908
 20
1239.763541
 30
0.0
 11
316.562908
 21
1239.763541
 31
0.0
  0
ARC
  5
2E72
100
AcDbEntity
  8
0
100
AcDbCircle
 10
317.274878
 20
1232.763541
 30
0.0
 40
5.0
100
AcDbArc
 50
90.0
 51
135.572996
  0
LINE
  5
2E73
100
AcDbEntity
  8
0
100
AcDbLine
 10
319.850593
 20
1237.763541
 30
0.0
 11
317.274878
 21
1237.763541
 31
0.0
  0
ARC
  5
2E74
100
AcDbEntity
  8
0
100
AcDbCircle
 10
319.850593
 20
1238.763541
 30
0.0
 40
1.0
100
AcDbArc
 50
270.0
 51
0.0
  0
ARC
  5
2E75
100
AcDbEntity
  8
0
100
AcDbCircle
 10
320.850593
 20
1271.763541
 30
0.0
 40
10.0
100
AcDbArc
 50
289.471221
 51
0.0
  0
ARC
  5
2E76
100
AcDbEntity
  8
0
100
AcDbCircle
 10
325.850593
 20
1257.621405
 30
0.0
 40
5.0
100
AcDbArc
 50
109.471221
 51
180.0
  0
ARC
  5
2E77
100
AcDbEntity
  8
0
100
AcDbCircle
 10
317.274878
 20
1274.763541
 30
0.0
 40
5.0
100
AcDbArc
 50
224.427004
 51
270.0
  0
LINE
  5
2E78
100
AcDbEntity
  8
0
100
AcDbLine
 10
319.850593
 20
1269.763541
 30
0.0
 11
317.274878
 21
1269.763541
 31
0.0
  0
ARC
  5
2E79
100
AcDbEntity
  8
0
100
AcDbCircle
 10
319.850593
 20
1268.763541
 30
0.0
 40
1.0
100
AcDbArc
 50
0.0
 51
90.0
  0
LINE
  5
2E7A
100
AcDbEntity
  8
0
100
AcDbLine
 10
330.850593
 20
1282.121405
 30
0.0
 11
330.850593
 21
1271.763541
 31
0.0
  0
LINE
  5
2E7B
100
AcDbEntity
  8
0
100
AcDbLine
 10
353.166739
 20
1262.149776
 30
0.0
 11
381.526864
 21
1262.149776
 31
0.0
  0
LINE
  5
2E7C
100
AcDbEntity
  8
0
100
AcDbLine
 10
362.620114
 20
1252.696401
 30
0.0
 11
353.166739
 21
1262.149776
 31
0.0
  0
LINE
  5
2E7D
100
AcDbEntity
  8
0
100
AcDbLine
 10
400.229427
 20
1257.423088
 30
0.0
 11
400.229427
 21
1262.149776
 31
0.0
  0
LINE
  5
2E7E
100
AcDbEntity
  8
0
100
AcDbLine
 10
381.526864
 20
1262.149776
 30
0.0
 11
386.255239
 21
1257.423088
 31
0.0
  0
LINE
  5
2E7F
100
AcDbEntity
  8
0
100
AcDbLine
 10
386.255239
 20
1257.423088
 30
0.0
 11
400.229427
 21
1257.423088
 31
0.0
  0
ARC
  5
2E80
100
AcDbEntity
  8
0
100
AcDbCircle
 10
325.709104
 20
1328.763541
 30
0.0
 40
15.0
100
AcDbArc
 50
0.0
 51
90.0
  0
ARC
  5
2E81
100
AcDbEntity
  8
0
100
AcDbCircle
 10
330.850593
 20
1296.263541
 30
0.0
 40
10.0
100
AcDbArc
 50
289.471221
 51
0.0
  0
LINE
  5
2E82
100
AcDbEntity
  8
0
100
AcDbLine
 10
301.254253
 20
1286.263541
 30
0.0
 11
326.188041
 21
1286.263541
 31
0.0
  0
LINE
  5
2E83
100
AcDbEntity
  8
0
100
AcDbLine
 10
340.709104
 20
1328.763541
 30
0.0
 11
340.709104
 21
1303.263541
 31
0.0
  0
LINE
  5
2E84
100
AcDbEntity
  8
0
100
AcDbLine
 10
340.850593
 20
1303.263541
 30
0.0
 11
340.850593
 21
1296.263541
 31
0.0
  0
LINE
  5
2E85
100
AcDbEntity
  8
0
100
AcDbLine
 10
430.143368
 20
1303.263541
 30
0.0
 11
430.143368
 21
1283.763541
 31
0.0
  0
ARC
  5
2E86
100
AcDbEntity
  8
0
100
AcDbCircle
 10
454.143368
 20
1256.763541
 30
0.0
 40
5.0
100
AcDbArc
 50
90.0
 51
135.596747
  0
LINE
  5
2E87
100
AcDbEntity
  8
0
100
AcDbLine
 10
420.143368
 20
1253.763541
 30
0.0
 11
420.143368
 21
1230.763541
 31
0.0
  0
LINE
  5
2E88
100
AcDbEntity
  8
0
100
AcDbLine
 10
425.143368
 20
1271.763541
 30
0.0
 11
425.143368
 21
1239.763541
 31
0.0
  0
LINE
  5
2E89
100
AcDbEntity
  8
0
100
AcDbLine
 10
425.143368
 20
1271.763541
 30
0.0
 11
425.143368
 21
1239.763541
 31
0.0
  0
LINE
  5
2E8A
100
AcDbEntity
  8
0
100
AcDbLine
 10
440.143368
 20
1271.763541
 30
0.0
 11
440.143368
 21
1239.763541
 31
0.0
  0
LINE
  5
2E8B
100
AcDbEntity
  8
0
100
AcDbLine
 10
422.143368
 20
1228.763541
 30
0.0
 11
422.143368
 21
1278.763541
 31
0.0
  0
LINE
  5
2E8C
100
AcDbEntity
  8
0
100
AcDbLine
 10
422.143368
 20
1228.763541
 30
0.0
 11
420.143368
 21
1230.763541
 31
0.0
  0
LINE
  5
2E8D
100
AcDbEntity
  8
0
100
AcDbLine
 10
440.143368
 20
1239.763541
 30
0.0
 11
425.143368
 21
1239.763541
 31
0.0
  0
LINE
  5
2E8E
100
AcDbEntity
  8
0
100
AcDbLine
 10
422.143368
 20
1278.763541
 30
0.0
 11
425.143368
 21
1278.763541
 31
0.0
  0
LINE
  5
2E8F
100
AcDbEntity
  8
0
100
AcDbLine
 10
422.143368
 20
1278.763541
 30
0.0
 11
420.143368
 21
1276.763541
 31
0.0
  0
LINE
  5
2E90
100
AcDbEntity
  8
0
100
AcDbLine
 10
420.143368
 20
1276.763541
 30
0.0
 11
420.143368
 21
1253.763541
 31
0.0
  0
ARC
  5
2E91
100
AcDbEntity
  8
0
100
AcDbCircle
 10
437.221987
 20
1273.763541
 30
0.0
 40
5.0
100
AcDbArc
 50
29.40655
 51
90.0
  0
ARC
  5
2E92
100
AcDbEntity
  8
0
100
AcDbCircle
 10
425.143368
 20
1283.763541
 30
0.0
 40
5.0
100
AcDbArc
 50
270.0
 51
0.0
  0
LINE
  5
2E93
100
AcDbEntity
  8
0
100
AcDbLine
 10
440.143368
 20
1271.763541
 30
0.0
 11
425.143368
 21
1271.763541
 31
0.0
  0
LINE
  5
2E94
100
AcDbEntity
  8
0
100
AcDbLine
 10
441.577775
 20
1276.218558
 30
0.0
 11
448.597693
 21
1263.763541
 31
0.0
  0
LINE
  5
2E95
100
AcDbEntity
  8
0
100
AcDbLine
 10
454.143368
 20
1261.763541
 30
0.0
 11
496.143368
 21
1261.763541
 31
0.0
  0
ARC
  5
2E96
100
AcDbEntity
  8
0
100
AcDbCircle
 10
496.143368
 20
1256.763541
 30
0.0
 40
5.0
100
AcDbArc
 50
44.403253
 51
90.0
  0
LINE
  5
2E97
100
AcDbEntity
  8
0
100
AcDbLine
 10
430.284856
 20
1328.763541
 30
0.0
 11
430.284856
 21
1303.263541
 31
0.0
  0
ARC
  5
2E98
100
AcDbEntity
  8
0
100
AcDbCircle
 10
445.284856
 20
1328.763541
 30
0.0
 40
15.0
100
AcDbArc
 50
90.0
 51
180.0
  0
CIRCLE
  5
2E99
100
AcDbEntity
  8
0
100
AcDbCircle
 10
475.284856
 20
1308.263541
 30
0.0
 40
3.0
  0
TEXT
  5
2E9A
100
AcDbEntity
  8
0
100
AcDbText
 10
147.937239
 20
1438.360544
 30
0.0
 40
25.0
  1
平面
100
AcDbText
  0
TEXT
  5
2E9B
100
AcDbEntity
  8
0
100
AcDbText
 10
147.937239
 20
1605.692045
 30
0.0
 40
25.0
  1
背面
100
AcDbText
  0
LINE
  5
2E9C
100
AcDbEntity
  8
0
100
AcDbLine
 10
496.284856
 20
1500.808291
 30
0.0
 11
496.284856
 21
1507.008794
 31
0.0
  0
LINE
  5
2E9D
100
AcDbEntity
  8
0
100
AcDbLine
 10
454.284856
 20
1500.808291
 30
0.0
 11
454.284856
 21
1507.008794
 31
0.0
  0
LINE
  5
2E9E
100
AcDbEntity
  8
0
100
AcDbLine
 10
393.351692
 20
1465.322067
 30
0.0
 11
403.010942
 21
1455.868692
 31
0.0
  0
LINE
  5
2E9F
100
AcDbEntity
  8
0
100
AcDbLine
 10
403.010942
 20
1455.868692
 30
0.0
 11
355.74238
 21
1455.868692
 31
0.0
  0
LINE
  5
2EA0
100
AcDbEntity
  8
0
100
AcDbLine
 10
346.289005
 20
1465.322067
 30
0.0
 11
374.64913
 21
1465.322067
 31
0.0
  0
LINE
  5
2EA1
100
AcDbEntity
  8
0
100
AcDbLine
 10
355.74238
 20
1455.868692
 30
0.0
 11
346.289005
 21
1465.322067
 31
0.0
  0
LINE
  5
2EA2
100
AcDbEntity
  8
0
100
AcDbLine
 10
393.351692
 20
1460.59538
 30
0.0
 11
393.351692
 21
1465.322067
 31
0.0
  0
LINE
  5
2EA3
100
AcDbEntity
  8
0
100
AcDbLine
 10
374.64913
 20
1465.322067
 30
0.0
 11
379.377505
 21
1460.59538
 31
0.0
  0
LINE
  5
2EA4
100
AcDbEntity
  8
0
100
AcDbLine
 10
379.377505
 20
1460.59538
 30
0.0
 11
393.351692
 21
1460.59538
 31
0.0
  0
LINE
  5
2EA5
100
AcDbEntity
  8
0
100
AcDbLine
 10
422.143368
 20
1436.008794
 30
0.0
 11
422.143368
 21
1486.008794
 31
0.0
  0
LINE
  5
2EA6
100
AcDbEntity
  8
0
100
AcDbLine
 10
420.143368
 20
1461.008794
 30
0.0
 11
420.143368
 21
1484.008794
 31
0.0
  0
LINE
  5
2EA7
100
AcDbEntity
  8
0
100
AcDbLine
 10
437.868282
 20
1436.008794
 30
0.0
 11
422.143368
 21
1436.008794
 31
0.0
  0
ARC
  5
2EA8
100
AcDbEntity
  8
0
100
AcDbCircle
 10
423.426344
 20
1439.799421
 30
0.0
 40
2.0
100
AcDbArc
 50
0.0
 51
90.0
  0
LINE
  5
2EA9
100
AcDbEntity
  8
0
100
AcDbLine
 10
420.143368
 20
1438.008794
 30
0.0
 11
420.143368
 21
1461.008794
 31
0.0
  0
LINE
  5
2EAA
100
AcDbEntity
  8
0
100
AcDbLine
 10
422.143368
 20
1436.008794
 30
0.0
 11
420.143368
 21
1438.008794
 31
0.0
  0
ARC
  5
2EAB
100
AcDbEntity
  8
0
100
AcDbCircle
 10
426.426344
 20
1437.008794
 30
0.0
 40
1.0
100
AcDbArc
 50
180.0
 51
270.0
  0
LINE
  5
2EAC
100
AcDbEntity
  8
0
100
AcDbLine
 10
425.659251
 20
1441.799421
 30
0.0
 11
434.590876
 21
1441.799421
 31
0.0
  0
LINE
  5
2EAD
100
AcDbEntity
  8
0
100
AcDbLine
 10
425.426344
 20
1439.799421
 30
0.0
 11
425.426344
 21
1437.008794
 31
0.0
  0
LINE
  5
2EAE
100
AcDbEntity
  8
0
100
AcDbLine
 10
437.868282
 20
1486.008794
 30
0.0
 11
422.143368
 21
1486.008794
 31
0.0
  0
ARC
  5
2EAF
100
AcDbEntity
  8
0
100
AcDbCircle
 10
423.426344
 20
1482.218167
 30
0.0
 40
2.0
100
AcDbArc
 50
270.0
 51
0.0
  0
LINE
  5
2EB0
100
AcDbEntity
  8
0
100
AcDbLine
 10
422.143368
 20
1486.008794
 30
0.0
 11
420.143368
 21
1484.008794
 31
0.0
  0
ARC
  5
2EB1
100
AcDbEntity
  8
0
100
AcDbCircle
 10
426.426344
 20
1485.008794
 30
0.0
 40
1.0
100
AcDbArc
 50
90.0
 51
180.0
  0
LINE
  5
2EB2
100
AcDbEntity
  8
0
100
AcDbLine
 10
425.659251
 20
1480.218167
 30
0.0
 11
434.590876
 21
1480.218167
 31
0.0
  0
LINE
  5
2EB3
100
AcDbEntity
  8
0
100
AcDbLine
 10
425.426344
 20
1482.218167
 30
0.0
 11
425.426344
 21
1485.008794
 31
0.0
  0
LINE
  5
2EB4
100
AcDbEntity
  8
0
100
AcDbLine
 10
496.284856
 20
1507.008794
 30
0.0
 11
454.284856
 21
1507.008794
 31
0.0
  0
ARC
  5
2EB5
100
AcDbEntity
  8
0
100
AcDbCircle
 10
454.143368
 20
1609.350019
 30
0.0
 40
5.0
100
AcDbArc
 50
90.0
 51
135.596747
  0
LINE
  5
2EB6
100
AcDbEntity
  8
0
100
AcDbLine
 10
420.143368
 20
1629.350019
 30
0.0
 11
420.143368
 21
1606.350019
 31
0.0
  0
LINE
  5
2EB7
100
AcDbEntity
  8
0
100
AcDbLine
 10
422.143368
 20
1581.350019
 30
0.0
 11
422.143368
 21
1631.350019
 31
0.0
  0
LINE
  5
2EB8
100
AcDbEntity
  8
0
100
AcDbLine
 10
425.143368
 20
1624.350019
 30
0.0
 11
425.143368
 21
1592.350019
 31
0.0
  0
LINE
  5
2EB9
100
AcDbEntity
  8
0
100
AcDbLine
 10
440.143368
 20
1624.350019
 30
0.0
 11
440.143368
 21
1592.350019
 31
0.0
  0
LINE
  5
2EBA
100
AcDbEntity
  8
0
100
AcDbLine
 10
422.143368
 20
1581.350019
 30
0.0
 11
420.143368
 21
1583.350019
 31
0.0
  0
LINE
  5
2EBB
100
AcDbEntity
  8
0
100
AcDbLine
 10
420.143368
 20
1606.350019
 30
0.0
 11
420.143368
 21
1583.350019
 31
0.0
  0
LINE
  5
2EBC
100
AcDbEntity
  8
0
100
AcDbLine
 10
440.143368
 20
1592.350019
 30
0.0
 11
425.143368
 21
1592.350019
 31
0.0
  0
LINE
  5
2EBD
100
AcDbEntity
  8
0
100
AcDbLine
 10
425.143368
 20
1631.350019
 30
0.0
 11
422.143368
 21
1631.350019
 31
0.0
  0
LINE
  5
2EBE
100
AcDbEntity
  8
0
100
AcDbLine
 10
422.143368
 20
1631.350019
 30
0.0
 11
420.143368
 21
1629.350019
 31
0.0
  0
LINE
  5
2EBF
100
AcDbEntity
  8
0
100
AcDbLine
 10
440.143368
 20
1624.350019
 30
0.0
 11
425.143368
 21
1624.350019
 31
0.0
  0
ARC
  5
2EC0
100
AcDbEntity
  8
0
100
AcDbCircle
 10
425.143368
 20
1636.350019
 30
0.0
 40
5.0
100
AcDbArc
 50
270.0
 51
0.0
  0
LINE
  5
2EC1
100
AcDbEntity
  8
0
100
AcDbLine
 10
441.577775
 20
1628.805036
 30
0.0
 11
448.597693
 21
1616.350019
 31
0.0
  0
LINE
  5
2EC2
100
AcDbEntity
  8
0
100
AcDbLine
 10
449.320245
 20
1638.850019
 30
0.0
 11
438.066293
 21
1638.850019
 31
0.0
  0
ARC
  5
2EC3
100
AcDbEntity
  8
0
100
AcDbCircle
 10
437.221987
 20
1626.350019
 30
0.0
 40
5.0
100
AcDbArc
 50
29.40655
 51
90.0
  0
LINE
  5
2EC4
100
AcDbEntity
  8
0
100
AcDbLine
 10
496.143368
 20
1614.350019
 30
0.0
 11
454.143368
 21
1614.350019
 31
0.0
  0
ARC
  5
2EC5
100
AcDbEntity
  8
0
100
AcDbCircle
 10
496.143368
 20
1609.350019
 30
0.0
 40
5.0
100
AcDbArc
 50
44.403253
 51
90.0
  0
LINE
  5
2EC6
100
AcDbEntity
  8
0
100
AcDbLine
 10
457.143368
 20
1626.850019
 30
0.0
 11
493.143368
 21
1626.850019
 31
0.0
  0
ARC
  5
2EC7
100
AcDbEntity
  8
0
100
AcDbCircle
 10
457.143368
 20
1629.850019
 30
0.0
 40
3.0
100
AcDbArc
 50
180.0
 51
270.0
  0
LINE
  5
2EC8
100
AcDbEntity
  8
0
100
AcDbLine
 10
454.143368
 20
1629.850019
 30
0.0
 11
454.143368
 21
1650.850019
 31
0.0
  0
ARC
  5
2EC9
100
AcDbEntity
  8
0
100
AcDbCircle
 10
493.143368
 20
1629.850019
 30
0.0
 40
3.0
100
AcDbArc
 50
270.0
 51
0.0
  0
LINE
  5
2ECA
100
AcDbEntity
  8
0
100
AcDbLine
 10
496.143368
 20
1629.850019
 30
0.0
 11
496.143368
 21
1650.850019
 31
0.0
  0
ARC
  5
2ECB
100
AcDbEntity
  8
0
100
AcDbCircle
 10
445.001879
 20
1681.350019
 30
0.0
 40
15.0
100
AcDbArc
 50
90.0
 51
180.0
  0
LINE
  5
2ECC
100
AcDbEntity
  8
0
100
AcDbLine
 10
430.001879
 20
1655.850019
 30
0.0
 11
430.001879
 21
1681.350019
 31
0.0
  0
CIRCLE
  5
2ECD
100
AcDbEntity
  8
0
100
AcDbCircle
 10
475.001879
 20
1660.850019
 30
0.0
 40
3.0
  0
LINE
  5
2ECE
100
AcDbEntity
  8
0
100
AcDbLine
 10
457.143368
 20
1653.850019
 30
0.0
 11
493.143368
 21
1653.850019
 31
0.0
  0
LINE
  5
2ECF
100
AcDbEntity
  8
0
100
AcDbLine
 10
520.143368
 20
1655.850019
 30
0.0
 11
520.143368
 21
1636.350019
 31
0.0
  0
LINE
  5
2ED0
100
AcDbEntity
  8
0
100
AcDbLine
 10
1030.750419
 20
1259.731164
 30
0.0
 11
1040.409669
 21
1250.277789
 31
0.0
  0
LINE
  5
2ED1
100
AcDbEntity
  8
0
100
AcDbLine
 10
1040.409669
 20
1250.277789
 30
0.0
 11
993.141107
 21
1250.277789
 31
0.0
  0
LINE
  5
2ED2
100
AcDbEntity
  8
0
100
AcDbLine
 10
1050.280678
 20
1499.405533
 30
0.0
 11
1003.012116
 21
1499.405533
 31
0.0
  0
LINE
  5
2ED3
100
AcDbEntity
  8
0
100
AcDbLine
 10
1026.647241
 20
1504.13222
 30
0.0
 11
1040.621428
 21
1504.13222
 31
0.0
  0
LINE
  5
2ED4
100
AcDbEntity
  8
0
100
AcDbLine
 10
616.264523
 20
1286.263541
 30
0.0
 11
591.330736
 21
1286.263541
 31
0.0
  0
CIRCLE
  5
2ED5
100
AcDbEntity
  8
0
100
AcDbCircle
 10
621.668184
 20
1253.763541
 30
0.0
 40
25.0
  0
CIRCLE
  5
2ED6
100
AcDbEntity
  8
0
100
AcDbCircle
 10
621.668184
 20
1253.763541
 30
0.0
 40
23.0
  0
LINE
  5
2ED7
100
AcDbEntity
  8
0
100
AcDbLine
 10
576.668184
 20
1303.263541
 30
0.0
 11
666.809672
 21
1303.263541
 31
0.0
  0
LINE
  5
2ED8
100
AcDbEntity
  8
0
100
AcDbLine
 10
591.809672
 20
1343.763541
 30
0.0
 11
651.809672
 21
1343.763541
 31
0.0
  0
ARC
  5
2ED9
100
AcDbEntity
  8
0
100
AcDbCircle
 10
581.668184
 20
1282.121405
 30
0.0
 40
5.0
100
AcDbArc
 50
0.0
 51
70.528779
  0
LINE
  5
2EDA
100
AcDbEntity
  8
0
100
AcDbLine
 10
520.143368
 20
1303.263541
 30
0.0
 11
520.143368
 21
1283.763541
 31
0.0
  0
LINE
  5
2EDB
100
AcDbEntity
  8
0
100
AcDbLine
 10
510.143368
 20
1271.763541
 30
0.0
 11
510.143368
 21
1239.763541
 31
0.0
  0
LINE
  5
2EDC
100
AcDbEntity
  8
0
100
AcDbLine
 10
530.143368
 20
1253.763541
 30
0.0
 11
530.143368
 21
1230.763541
 31
0.0
  0
LINE
  5
2EDD
100
AcDbEntity
  8
0
100
AcDbLine
 10
525.143368
 20
1271.763541
 30
0.0
 11
525.143368
 21
1239.763541
 31
0.0
  0
LINE
  5
2EDE
100
AcDbEntity
  8
0
100
AcDbLine
 10
528.143368
 20
1228.763541
 30
0.0
 11
528.143368
 21
1278.763541
 31
0.0
  0
LINE
  5
2EDF
100
AcDbEntity
  8
0
100
AcDbLine
 10
528.143368
 20
1228.763541
 30
0.0
 11
530.143368
 21
1230.763541
 31
0.0
  0
LINE
  5
2EE0
100
AcDbEntity
  8
0
100
AcDbLine
 10
510.143368
 20
1239.763541
 30
0.0
 11
525.143368
 21
1239.763541
 31
0.0
  0
LINE
  5
2EE1
100
AcDbEntity
  8
0
100
AcDbLine
 10
528.143368
 20
1278.763541
 30
0.0
 11
530.143368
 21
1276.763541
 31
0.0
  0
ARC
  5
2EE2
100
AcDbEntity
  8
0
100
AcDbCircle
 10
513.064748
 20
1273.763541
 30
0.0
 40
5.0
100
AcDbArc
 50
90.0
 51
150.59345
  0
LINE
  5
2EE3
100
AcDbEntity
  8
0
100
AcDbLine
 10
525.143368
 20
1278.763541
 30
0.0
 11
528.143368
 21
1278.763541
 31
0.0
  0
ARC
  5
2EE4
100
AcDbEntity
  8
0
100
AcDbCircle
 10
525.143368
 20
1283.763541
 30
0.0
 40
5.0
100
AcDbArc
 50
180.0
 51
270.0
  0
LINE
  5
2EE5
100
AcDbEntity
  8
0
100
AcDbLine
 10
510.143368
 20
1271.763541
 30
0.0
 11
525.143368
 21
1271.763541
 31
0.0
  0
LINE
  5
2EE6
100
AcDbEntity
  8
0
100
AcDbLine
 10
530.143368
 20
1276.763541
 30
0.0
 11
530.143368
 21
1253.763541
 31
0.0
  0
LINE
  5
2EE7
100
AcDbEntity
  8
0
100
AcDbLine
 10
596.668184
 20
1238.763541
 30
0.0
 11
596.668184
 21
1268.763541
 31
0.0
  0
LINE
  5
2EE8
100
AcDbEntity
  8
0
100
AcDbLine
 10
597.668184
 20
1237.763541
 30
0.0
 11
600.243898
 21
1237.763541
 31
0.0
  0
LINE
  5
2EE9
100
AcDbEntity
  8
0
100
AcDbLine
 10
600.955868
 20
1239.763541
 30
0.0
 11
600.955868
 21
1239.763541
 31
0.0
  0
LINE
  5
2EEA
100
AcDbEntity
  8
0
100
AcDbLine
 10
600.955868
 20
1239.763541
 30
0.0
 11
600.955868
 21
1239.763541
 31
0.0
  0
LINE
  5
2EEB
100
AcDbEntity
  8
0
100
AcDbLine
 10
600.955868
 20
1239.763541
 30
0.0
 11
600.955868
 21
1239.763541
 31
0.0
  0
ARC
  5
2EEC
100
AcDbEntity
  8
0
100
AcDbCircle
 10
600.243898
 20
1232.763541
 30
0.0
 40
5.0
100
AcDbArc
 50
44.427004
 51
90.0
  0
ARC
  5
2EED
100
AcDbEntity
  8
0
100
AcDbCircle
 10
597.668184
 20
1238.763541
 30
0.0
 40
1.0
100
AcDbArc
 50
180.0
 51
270.0
  0
LINE
  5
2EEE
100
AcDbEntity
  8
0
100
AcDbLine
 10
597.668184
 20
1269.763541
 30
0.0
 11
600.243898
 21
1269.763541
 31
0.0
  0
ARC
  5
2EEF
100
AcDbEntity
  8
0
100
AcDbCircle
 10
600.243898
 20
1274.763541
 30
0.0
 40
5.0
100
AcDbArc
 50
270.0
 51
315.572996
  0
ARC
  5
2EF0
100
AcDbEntity
  8
0
100
AcDbCircle
 10
597.668184
 20
1268.763541
 30
0.0
 40
1.0
100
AcDbArc
 50
90.0
 51
180.0
  0
ARC
  5
2EF1
100
AcDbEntity
  8
0
100
AcDbCircle
 10
596.668184
 20
1271.763541
 30
0.0
 40
10.0
100
AcDbArc
 50
180.0
 51
250.528779
  0
ARC
  5
2EF2
100
AcDbEntity
  8
0
100
AcDbCircle
 10
591.668184
 20
1257.621405
 30
0.0
 40
5.0
100
AcDbArc
 50
360.0
 51
70.528779
  0
LINE
  5
2EF3
100
AcDbEntity
  8
0
100
AcDbLine
 10
586.668184
 20
1282.121405
 30
0.0
 11
586.668184
 21
1271.763541
 31
0.0
  0
LINE
  5
2EF4
100
AcDbEntity
  8
0
100
AcDbLine
 10
520.284856
 20
1303.263541
 30
0.0
 11
520.284856
 21
1328.763541
 31
0.0
  0
ARC
  5
2EF5
100
AcDbEntity
  8
0
100
AcDbCircle
 10
505.284856
 20
1328.763541
 30
0.0
 40
15.0
100
AcDbArc
 50
0.0
 51
90.0
  0
LINE
  5
2EF6
100
AcDbEntity
  8
0
100
AcDbLine
 10
576.809672
 20
1328.763541
 30
0.0
 11
576.809672
 21
1303.263541
 31
0.0
  0
ARC
  5
2EF7
100
AcDbEntity
  8
0
100
AcDbCircle
 10
586.668184
 20
1296.263541
 30
0.0
 40
10.0
100
AcDbArc
 50
180.0
 51
250.528779
  0
LINE
  5
2EF8
100
AcDbEntity
  8
0
100
AcDbLine
 10
576.668184
 20
1303.263541
 30
0.0
 11
576.668184
 21
1296.263541
 31
0.0
  0
ARC
  5
2EF9
100
AcDbEntity
  8
0
100
AcDbCircle
 10
591.809672
 20
1328.763541
 30
0.0
 40
15.0
100
AcDbArc
 50
90.0
 51
180.0
  0
ARC
  5
2EFA
100
AcDbEntity
  8
0
100
AcDbCircle
 10
660.396974
 20
1282.121405
 30
0.0
 40
5.0
100
AcDbArc
 50
109.471221
 51
180.0
  0
LINE
  5
2EFB
100
AcDbEntity
  8
0
100
AcDbLine
 10
667.668184
 20
1275.263541
 30
0.0
 11
667.668184
 21
1300.263541
 31
0.0
  0
LINE
  5
2EFC
100
AcDbEntity
  8
0
100
AcDbLine
 10
666.668184
 20
1274.263541
 30
0.0
 11
651.668184
 21
1274.263541
 31
0.0
  0
LINE
  5
2EFD
100
AcDbEntity
  8
0
100
AcDbLine
 10
646.668184
 20
1238.763541
 30
0.0
 11
646.668184
 21
1268.763541
 31
0.0
  0
LINE
  5
2EFE
100
AcDbEntity
  8
0
100
AcDbLine
 10
642.380499
 20
1239.763541
 30
0.0
 11
642.380499
 21
1239.763541
 31
0.0
  0
LINE
  5
2EFF
100
AcDbEntity
  8
0
100
AcDbLine
 10
642.380499
 20
1239.763541
 30
0.0
 11
642.380499
 21
1239.763541
 31
0.0
  0
LINE
  5
2F00
100
AcDbEntity
  8
0
100
AcDbLine
 10
642.380499
 20
1239.763541
 30
0.0
 11
642.380499
 21
1239.763541
 31
0.0
  0
LINE
  5
2F01
100
AcDbEntity
  8
0
100
AcDbLine
 10
645.668184
 20
1237.763541
 30
0.0
 11
643.092469
 21
1237.763541
 31
0.0
  0
ARC
  5
2F02
100
AcDbEntity
  8
0
100
AcDbCircle
 10
643.092469
 20
1232.763541
 30
0.0
 40
5.0
100
AcDbArc
 50
90.0
 51
135.572996
  0
ARC
  5
2F03
100
AcDbEntity
  8
0
100
AcDbCircle
 10
645.668184
 20
1238.763541
 30
0.0
 40
1.0
100
AcDbArc
 50
270.0
 51
0.0
  0
LINE
  5
2F04
100
AcDbEntity
  8
0
100
AcDbLine
 10
645.668184
 20
1269.763541
 30
0.0
 11
643.092469
 21
1269.763541
 31
0.0
  0
ARC
  5
2F05
100
AcDbEntity
  8
0
100
AcDbCircle
 10
643.092469
 20
1274.763541
 30
0.0
 40
5.0
100
AcDbArc
 50
224.427004
 51
270.0
  0
ARC
  5
2F06
100
AcDbEntity
  8
0
100
AcDbCircle
 10
645.668184
 20
1268.763541
 30
0.0
 40
1.0
100
AcDbArc
 50
0.0
 51
90.0
  0
ARC
  5
2F07
100
AcDbEntity
  8
0
100
AcDbCircle
 10
646.668184
 20
1271.763541
 30
0.0
 40
10.0
100
AcDbArc
 50
289.471221
 51
0.0
  0
ARC
  5
2F08
100
AcDbEntity
  8
0
100
AcDbCircle
 10
651.668184
 20
1257.621405
 30
0.0
 40
5.0
100
AcDbArc
 50
109.471221
 51
180.0
  0
LINE
  5
2F09
100
AcDbEntity
  8
0
100
AcDbLine
 10
656.668184
 20
1274.263541
 30
0.0
 11
656.668184
 21
1271.763541
 31
0.0
  0
ARC
  5
2F0A
100
AcDbEntity
  8
0
100
AcDbCircle
 10
651.668184
 20
1269.263541
 30
0.0
 40
5.0
100
AcDbArc
 50
90.0
 51
152.039797
  0
ARC
  5
2F0B
100
AcDbEntity
  8
0
100
AcDbCircle
 10
666.668184
 20
1275.263541
 30
0.0
 40
1.0
100
AcDbArc
 50
270.0
 51
0.0
  0
ARC
  5
2F0C
100
AcDbEntity
  8
0
100
AcDbCircle
 10
651.809672
 20
1328.763541
 30
0.0
 40
15.0
100
AcDbArc
 50
0.0
 51
90.0
  0
ARC
  5
2F0D
100
AcDbEntity
  8
0
100
AcDbCircle
 10
655.396974
 20
1296.263541
 30
0.0
 40
10.0
100
AcDbArc
 50
289.471221
 51
0.0
  0
LINE
  5
2F0E
100
AcDbEntity
  8
0
100
AcDbLine
 10
627.071844
 20
1286.263541
 30
0.0
 11
652.005632
 21
1286.263541
 31
0.0
  0
LINE
  5
2F0F
100
AcDbEntity
  8
0
100
AcDbLine
 10
666.809672
 20
1303.263541
 30
0.0
 11
666.809672
 21
1328.763541
 31
0.0
  0
LINE
  5
2F10
100
AcDbEntity
  8
0
100
AcDbLine
 10
666.668184
 20
1303.263541
 30
0.0
 11
666.668184
 21
1301.263541
 31
0.0
  0
LINE
  5
2F11
100
AcDbEntity
  8
0
100
AcDbLine
 10
666.668184
 20
1301.263541
 30
0.0
 11
661.412029
 21
1301.263541
 31
0.0
  0
ARC
  5
2F12
100
AcDbEntity
  8
0
100
AcDbCircle
 10
666.668184
 20
1300.263541
 30
0.0
 40
1.0
100
AcDbArc
 50
0.0
 51
90.0
  0
ARC
  5
2F13
100
AcDbEntity
  8
0
100
AcDbCircle
 10
661.412029
 20
1302.263541
 30
0.0
 40
1.0
100
AcDbArc
 50
180.0
 51
270.0
  0
LINE
  5
2F15
100
AcDbEntity
  8
0
100
AcDbLine
 10
966.49484
 20
1303.263541
 30
0.0
 11
950.752317
 21
1303.263541
 31
0.0
  0
LINE
  5
2F16
100
AcDbEntity
  8
0
100
AcDbLine
 10
951.353351
 20
1343.763541
 30
0.0
 11
891.353351
 21
1343.763541
 31
0.0
  0
LINE
  5
2F17
100
AcDbEntity
  8
0
100
AcDbLine
 10
875.49484
 20
1288.263541
 30
0.0
 11
875.49484
 21
1300.263541
 31
0.0
  0
LINE
  5
2F1C
100
AcDbEntity
  8
0
100
AcDbLine
 10
876.353351
 20
1303.263541
 30
0.0
 11
876.353351
 21
1328.763541
 31
0.0
  0
ARC
  5
2F1D
100
AcDbEntity
  8
0
100
AcDbCircle
 10
881.750994
 20
1302.263541
 30
0.0
 40
1.0
100
AcDbArc
 50
270.0
 51
0.0
  0
ARC
  5
2F1E
100
AcDbEntity
  8
0
100
AcDbCircle
 10
876.49484
 20
1300.263541
 30
0.0
 40
1.0
100
AcDbArc
 50
90.0
 51
180.0
  0
LINE
  5
2F1F
100
AcDbEntity
  8
0
100
AcDbLine
 10
876.49484
 20
1301.263541
 30
0.0
 11
881.750994
 21
1301.263541
 31
0.0
  0
ARC
  5
2F20
100
AcDbEntity
  8
0
100
AcDbCircle
 10
887.766049
 20
1296.263541
 30
0.0
 40
10.0
100
AcDbArc
 50
180.0
 51
204.4445
  0
LINE
  5
2F21
100
AcDbEntity
  8
0
100
AcDbLine
 10
876.49484
 20
1303.263541
 30
0.0
 11
876.49484
 21
1301.263541
 31
0.0
  0
ARC
  5
2F23
100
AcDbEntity
  8
0
100
AcDbCircle
 10
891.353351
 20
1328.763541
 30
0.0
 40
15.0
100
AcDbArc
 50
90.0
 51
180.0
  0
LINE
  5
2F26
100
AcDbEntity
  8
0
100
AcDbLine
 10
983.687732
 20
1259.731164
 30
0.0
 11
1012.047857
 21
1259.731164
 31
0.0
  0
LINE
  5
2F27
100
AcDbEntity
  8
0
100
AcDbLine
 10
993.141107
 20
1250.277789
 30
0.0
 11
983.687732
 21
1259.731164
 31
0.0
  0
LINE
  5
2F28
100
AcDbEntity
  8
0
100
AcDbLine
 10
1030.750419
 20
1255.004477
 30
0.0
 11
1030.750419
 21
1259.731164
 31
0.0
  0
LINE
  5
2F29
100
AcDbEntity
  8
0
100
AcDbLine
 10
1012.047857
 20
1259.731164
 30
0.0
 11
1016.776232
 21
1255.004477
 31
0.0
  0
LINE
  5
2F2A
100
AcDbEntity
  8
0
100
AcDbLine
 10
1016.776232
 20
1255.004477
 30
0.0
 11
1030.750419
 21
1255.004477
 31
0.0
  0
LINE
  5
2F2B
100
AcDbEntity
  8
0
100
AcDbLine
 10
966.353351
 20
1328.763541
 30
0.0
 11
966.353351
 21
1303.263541
 31
0.0
  0
ARC
  5
2F2C
100
AcDbEntity
  8
0
100
AcDbCircle
 10
956.49484
 20
1296.263541
 30
0.0
 40
10.0
100
AcDbArc
 50
329.67215
 51
0.0
  0
LINE
  5
2F2D
100
AcDbEntity
  8
0
100
AcDbLine
 10
966.49484
 20
1303.263541
 30
0.0
 11
966.49484
 21
1296.263541
 31
0.0
  0
ARC
  5
2F2F
100
AcDbEntity
  8
0
100
AcDbCircle
 10
951.353351
 20
1328.763541
 30
0.0
 40
15.0
100
AcDbArc
 50
0.0
 51
90.0
  0
LINE
  5
2F30
100
AcDbEntity
  8
0
100
AcDbLine
 10
528.143368
 20
1436.008794
 30
0.0
 11
528.143368
 21
1486.008794
 31
0.0
  0
LINE
  5
2F31
100
AcDbEntity
  8
0
100
AcDbLine
 10
530.143368
 20
1461.008794
 30
0.0
 11
530.143368
 21
1484.008794
 31
0.0
  0
LINE
  5
2F32
100
AcDbEntity
  8
0
100
AcDbLine
 10
528.143368
 20
1436.008794
 30
0.0
 11
530.143368
 21
1438.008794
 31
0.0
  0
ARC
  5
2F33
100
AcDbEntity
  8
0
100
AcDbCircle
 10
524.143368
 20
1437.008794
 30
0.0
 40
1.0
100
AcDbArc
 50
270.0
 51
0.0
  0
ARC
  5
2F34
100
AcDbEntity
  8
0
100
AcDbCircle
 10
527.143368
 20
1439.799421
 30
0.0
 40
2.0
100
AcDbArc
 50
90.0
 51
180.0
  0
LINE
  5
2F35
100
AcDbEntity
  8
0
100
AcDbLine
 10
528.143368
 20
1436.008794
 30
0.0
 11
512.70143
 21
1436.008794
 31
0.0
  0
LINE
  5
2F36
100
AcDbEntity
  8
0
100
AcDbLine
 10
524.910461
 20
1441.799421
 30
0.0
 11
515.978836
 21
1441.799421
 31
0.0
  0
LINE
  5
2F37
100
AcDbEntity
  8
0
100
AcDbLine
 10
525.143368
 20
1439.799421
 30
0.0
 11
525.143368
 21
1437.008794
 31
0.0
  0
LINE
  5
2F38
100
AcDbEntity
  8
0
100
AcDbLine
 10
530.143368
 20
1438.008794
 30
0.0
 11
530.143368
 21
1461.008794
 31
0.0
  0
LINE
  5
2F39
100
AcDbEntity
  8
0
100
AcDbLine
 10
530.143368
 20
1484.008794
 30
0.0
 11
528.143368
 21
1486.008794
 31
0.0
  0
ARC
  5
2F3A
100
AcDbEntity
  8
0
100
AcDbCircle
 10
527.143368
 20
1482.218167
 30
0.0
 40
2.0
100
AcDbArc
 50
180.0
 51
270.0
  0
ARC
  5
2F3B
100
AcDbEntity
  8
0
100
AcDbCircle
 10
524.143368
 20
1485.008794
 30
0.0
 40
1.0
100
AcDbArc
 50
0.0
 51
90.0
  0
LINE
  5
2F3C
100
AcDbEntity
  8
0
100
AcDbLine
 10
528.143368
 20
1486.008794
 30
0.0
 11
512.70143
 21
1486.008794
 31
0.0
  0
LINE
  5
2F3D
100
AcDbEntity
  8
0
100
AcDbLine
 10
524.910461
 20
1480.218167
 30
0.0
 11
515.978836
 21
1480.218167
 31
0.0
  0
LINE
  5
2F3E
100
AcDbEntity
  8
0
100
AcDbLine
 10
525.143368
 20
1482.218167
 30
0.0
 11
525.143368
 21
1485.008794
 31
0.0
  0
LINE
  5
2F3F
100
AcDbEntity
  8
0
100
AcDbLine
 10
542.926687
 20
1602.386541
 30
0.0
 11
590.195249
 21
1602.386541
 31
0.0
  0
LINE
  5
2F40
100
AcDbEntity
  8
0
100
AcDbLine
 10
566.560124
 20
1607.113229
 30
0.0
 11
552.585937
 21
1607.113229
 31
0.0
  0
LINE
  5
2F41
100
AcDbEntity
  8
0
100
AcDbLine
 10
530.143368
 20
1629.350019
 30
0.0
 11
530.143368
 21
1606.350019
 31
0.0
  0
LINE
  5
2F42
100
AcDbEntity
  8
0
100
AcDbLine
 10
510.143368
 20
1624.350019
 30
0.0
 11
510.143368
 21
1592.350019
 31
0.0
  0
LINE
  5
2F43
100
AcDbEntity
  8
0
100
AcDbLine
 10
525.143368
 20
1624.350019
 30
0.0
 11
525.143368
 21
1592.350019
 31
0.0
  0
LINE
  5
2F44
100
AcDbEntity
  8
0
100
AcDbLine
 10
525.143368
 20
1624.350019
 30
0.0
 11
525.143368
 21
1592.350019
 31
0.0
  0
LINE
  5
2F45
100
AcDbEntity
  8
0
100
AcDbLine
 10
528.143368
 20
1581.350019
 30
0.0
 11
528.143368
 21
1631.350019
 31
0.0
  0
LINE
  5
2F46
100
AcDbEntity
  8
0
100
AcDbLine
 10
528.143368
 20
1581.350019
 30
0.0
 11
530.143368
 21
1583.350019
 31
0.0
  0
LINE
  5
2F47
100
AcDbEntity
  8
0
100
AcDbLine
 10
510.143368
 20
1592.350019
 30
0.0
 11
525.143368
 21
1592.350019
 31
0.0
  0
LINE
  5
2F48
100
AcDbEntity
  8
0
100
AcDbLine
 10
552.585937
 20
1611.839916
 30
0.0
 11
542.926687
 21
1602.386541
 31
0.0
  0
LINE
  5
2F49
100
AcDbEntity
  8
0
100
AcDbLine
 10
552.585937
 20
1607.113229
 30
0.0
 11
552.585937
 21
1611.839916
 31
0.0
  0
LINE
  5
2F4A
100
AcDbEntity
  8
0
100
AcDbLine
 10
530.143368
 20
1606.350019
 30
0.0
 11
530.143368
 21
1583.350019
 31
0.0
  0
LINE
  5
2F4B
100
AcDbEntity
  8
0
100
AcDbLine
 10
528.143368
 20
1631.350019
 30
0.0
 11
530.143368
 21
1629.350019
 31
0.0
  0
LINE
  5
2F4C
100
AcDbEntity
  8
0
100
AcDbLine
 10
528.143368
 20
1631.350019
 30
0.0
 11
525.143368
 21
1631.350019
 31
0.0
  0
LINE
  5
2F4D
100
AcDbEntity
  8
0
100
AcDbLine
 10
510.143368
 20
1624.350019
 30
0.0
 11
525.143368
 21
1624.350019
 31
0.0
  0
ARC
  5
2F4E
100
AcDbEntity
  8
0
100
AcDbCircle
 10
513.064748
 20
1626.350019
 30
0.0
 40
5.0
100
AcDbArc
 50
90.0
 51
150.59345
  0
ARC
  5
2F4F
100
AcDbEntity
  8
0
100
AcDbCircle
 10
525.143368
 20
1636.350019
 30
0.0
 40
5.0
100
AcDbArc
 50
180.0
 51
270.0
  0
LINE
  5
2F50
100
AcDbEntity
  8
0
100
AcDbLine
 10
599.648624
 20
1611.839916
 30
0.0
 11
571.288499
 21
1611.839916
 31
0.0
  0
LINE
  5
2F51
100
AcDbEntity
  8
0
100
AcDbLine
 10
571.288499
 20
1611.839916
 30
0.0
 11
566.560124
 21
1607.113229
 31
0.0
  0
LINE
  5
2F52
100
AcDbEntity
  8
0
100
AcDbLine
 10
590.195249
 20
1602.386541
 30
0.0
 11
599.648624
 21
1611.839916
 31
0.0
  0
LINE
  5
2F53
100
AcDbEntity
  8
0
100
AcDbLine
 10
1003.012116
 20
1499.405533
 30
0.0
 11
993.558741
 21
1508.858908
 31
0.0
  0
LINE
  5
2F54
100
AcDbEntity
  8
0
100
AcDbLine
 10
1021.918866
 20
1508.858908
 30
0.0
 11
1026.647241
 21
1504.13222
 31
0.0
  0
LINE
  5
2F55
100
AcDbEntity
  8
0
100
AcDbLine
 10
993.558741
 20
1508.858908
 30
0.0
 11
1021.918866
 21
1508.858908
 31
0.0
  0
TEXT
  5
2F5A
100
AcDbEntity
  8
0
100
AcDbText
 10
1127.208303
 20
1182.494029
 30
0.0
 40
20.0
  1
15A
 41
0.8
 11
1127.208303
 21
1182.494029
 31
0.0
100
AcDbText
 73
     1
  0
LINE
  5
2F5D
100
AcDbEntity
  8
0
100
AcDbLine
 10
1116.646026
 20
1343.763541
 30
0.0
 11
1176.646026
 21
1343.763541
 31
0.0
  0
CIRCLE
  5
2F5E
100
AcDbEntity
  8
0
100
AcDbCircle
 10
1146.646026
 20
1308.263541
 30
0.0
 40
3.0
  0
LINE
  5
2F5F
100
AcDbEntity
  8
0
100
AcDbLine
 10
1109.427462
 20
1286.263541
 30
0.0
 11
1183.581612
 21
1286.263541
 31
0.0
  0
LINE
  5
2F60
100
AcDbEntity
  8
0
100
AcDbLine
 10
1101.504537
 20
1303.263541
 30
0.0
 11
1191.504537
 21
1303.263541
 31
0.0
  0
LINE
  5
2F61
100
AcDbEntity
  8
0
100
AcDbLine
 10
1101.646026
 20
1303.263541
 30
0.0
 11
1191.646026
 21
1303.263541
 31
0.0
  0
LINE
  5
2F62
100
AcDbEntity
  8
0
100
AcDbLine
 10
1125.504537
 20
1261.763541
 30
0.0
 11
1167.504537
 21
1261.763541
 31
0.0
  0
LINE
  5
2F63
100
AcDbEntity
  8
0
100
AcDbLine
 10
1092.504537
 20
1228.763541
 30
0.0
 11
1200.787514
 21
1228.763541
 31
0.0
  0
LINE
  5
2F64
100
AcDbEntity
  8
0
100
AcDbLine
 10
1101.504537
 20
1303.263541
 30
0.0
 11
1101.504537
 21
1283.763541
 31
0.0
  0
LINE
  5
2F66
100
AcDbEntity
  8
0
100
AcDbLine
 10
1092.504537
 20
1278.763541
 30
0.0
 11
1096.504537
 21
1278.763541
 31
0.0
  0
LINE
  5
2F68
100
AcDbEntity
  8
0
100
AcDbLine
 10
1091.504537
 20
1229.763541
 30
0.0
 11
1091.504537
 21
1277.763541
 31
0.0
  0
LINE
  5
2F6C
100
AcDbEntity
  8
0
100
AcDbLine
 10
1091.504537
 20
1229.763541
 30
0.0
 11
1092.504537
 21
1228.763541
 31
0.0
  0
LINE
  5
2F6E
100
AcDbEntity
  8
0
100
AcDbLine
 10
1091.504537
 20
1277.763541
 30
0.0
 11
1092.504537
 21
1278.763541
 31
0.0
  0
LINE
  5
2F71
100
AcDbEntity
  8
0
100
AcDbLine
 10
1111.504537
 20
1271.763541
 30
0.0
 11
1111.504537
 21
1239.763541
 31
0.0
  0
LINE
  5
2F72
100
AcDbEntity
  8
0
100
AcDbLine
 10
1096.504537
 20
1271.763541
 30
0.0
 11
1096.504537
 21
1239.763541
 31
0.0
  0
LINE
  5
2F73
100
AcDbEntity
  8
0
100
AcDbLine
 10
1096.504537
 20
1271.763541
 30
0.0
 11
1096.504537
 21
1239.763541
 31
0.0
  0
LINE
  5
2F74
100
AcDbEntity
  8
0
100
AcDbLine
 10
1111.504537
 20
1239.763541
 30
0.0
 11
1096.504537
 21
1239.763541
 31
0.0
  0
ARC
  5
2F75
100
AcDbEntity
  8
0
100
AcDbCircle
 10
1108.583157
 20
1273.763541
 30
0.0
 40
5.0
100
AcDbArc
 50
29.40655
 51
90.0
  0
LINE
  5
2F76
100
AcDbEntity
  8
0
100
AcDbLine
 10
1112.938945
 20
1276.218558
 30
0.0
 11
1119.958862
 21
1263.763541
 31
0.0
  0
LINE
  5
2F77
100
AcDbEntity
  8
0
100
AcDbLine
 10
1111.504537
 20
1271.763541
 30
0.0
 11
1096.504537
 21
1271.763541
 31
0.0
  0
ARC
  5
2F78
100
AcDbEntity
  8
0
100
AcDbCircle
 10
1096.504537
 20
1283.763541
 30
0.0
 40
5.0
100
AcDbArc
 50
270.0
 51
0.0
  0
ARC
  5
2F79
100
AcDbEntity
  8
0
100
AcDbCircle
 10
1125.504537
 20
1256.763541
 30
0.0
 40
5.0
100
AcDbArc
 50
90.0
 51
135.596747
  0
LINE
  5
2F7B
100
AcDbEntity
  8
0
100
AcDbLine
 10
1101.646026
 20
1328.763541
 30
0.0
 11
1101.646026
 21
1303.263541
 31
0.0
  0
ARC
  5
2F7C
100
AcDbEntity
  8
0
100
AcDbCircle
 10
1116.646026
 20
1328.763541
 30
0.0
 40
15.0
100
AcDbArc
 50
90.0
 51
180.0
  0
LINE
  5
2F7D
100
AcDbEntity
  8
0
100
AcDbLine
 10
1191.504537
 20
1303.263541
 30
0.0
 11
1191.504537
 21
1283.763541
 31
0.0
  0
LINE
  5
2F7F
100
AcDbEntity
  8
0
100
AcDbLine
 10
1196.504537
 20
1278.763541
 30
0.0
 11
1200.787514
 21
1278.763541
 31
0.0
  0
LINE
  5
2F80
100
AcDbEntity
  8
0
100
AcDbLine
 10
1196.504537
 20
1271.763541
 30
0.0
 11
1196.504537
 21
1239.763541
 31
0.0
  0
LINE
  5
2F81
100
AcDbEntity
  8
0
100
AcDbLine
 10
1181.504537
 20
1271.763541
 30
0.0
 11
1181.504537
 21
1239.763541
 31
0.0
  0
LINE
  5
2F82
100
AcDbEntity
  8
0
100
AcDbLine
 10
1181.504537
 20
1239.763541
 30
0.0
 11
1196.504537
 21
1239.763541
 31
0.0
  0
LINE
  5
2F83
100
AcDbEntity
  8
0
100
AcDbLine
 10
1180.07013
 20
1276.218558
 30
0.0
 11
1173.050212
 21
1263.763541
 31
0.0
  0
ARC
  5
2F84
100
AcDbEntity
  8
0
100
AcDbCircle
 10
1167.504537
 20
1256.763541
 30
0.0
 40
5.0
100
AcDbArc
 50
44.403253
 51
90.0
  0
ARC
  5
2F85
100
AcDbEntity
  8
0
100
AcDbCircle
 10
1184.425918
 20
1273.763541
 30
0.0
 40
5.0
100
AcDbArc
 50
90.0
 51
150.59345
  0
ARC
  5
2F86
100
AcDbEntity
  8
0
100
AcDbCircle
 10
1196.504537
 20
1283.763541
 30
0.0
 40
5.0
100
AcDbArc
 50
180.0
 51
270.0
  0
LINE
  5
2F87
100
AcDbEntity
  8
0
100
AcDbLine
 10
1181.504537
 20
1271.763541
 30
0.0
 11
1196.504537
 21
1271.763541
 31
0.0
  0
LINE
  5
2F89
100
AcDbEntity
  8
0
100
AcDbLine
 10
1201.787514
 20
1229.763541
 30
0.0
 11
1201.787514
 21
1277.763541
 31
0.0
  0
LINE
  5
2F8B
100
AcDbEntity
  8
0
100
AcDbLine
 10
1201.787514
 20
1229.763541
 30
0.0
 11
1200.787514
 21
1228.763541
 31
0.0
  0
LINE
  5
2F8E
100
AcDbEntity
  8
0
100
AcDbLine
 10
1201.787514
 20
1277.763541
 30
0.0
 11
1200.787514
 21
1278.763541
 31
0.0
  0
LINE
  5
2F92
100
AcDbEntity
  8
0
100
AcDbLine
 10
1191.646026
 20
1303.263541
 30
0.0
 11
1191.646026
 21
1328.763541
 31
0.0
  0
ARC
  5
2F93
100
AcDbEntity
  8
0
100
AcDbCircle
 10
1176.646026
 20
1328.763541
 30
0.0
 40
15.0
100
AcDbArc
 50
0.0
 51
90.0
  0
ARC
  5
2F96
100
AcDbEntity
  8
0
100
AcDbCircle
 10
1354.881288
 20
1328.763541
 30
0.0
 40
15.0
100
AcDbArc
 50
0.0
 51
90.0
  0
LINE
  5
2F97
100
AcDbEntity
  8
0
100
AcDbLine
 10
1279.7398
 20
1303.263541
 30
0.0
 11
1295.482322
 21
1303.263541
 31
0.0
  0
LINE
  5
2F9C
100
AcDbEntity
  8
0
100
AcDbLine
 10
1294.881288
 20
1343.763541
 30
0.0
 11
1354.881288
 21
1343.763541
 31
0.0
  0
LINE
  5
2F9D
100
AcDbEntity
  8
0
100
AcDbLine
 10
1279.881288
 20
1328.763541
 30
0.0
 11
1279.881288
 21
1303.263541
 31
0.0
  0
ARC
  5
2F9F
100
AcDbEntity
  8
0
100
AcDbCircle
 10
1289.7398
 20
1296.263541
 30
0.0
 40
10.0
100
AcDbArc
 50
180.0
 51
210.32785
  0
LINE
  5
2FA0
100
AcDbEntity
  8
0
100
AcDbLine
 10
1279.7398
 20
1303.263541
 30
0.0
 11
1279.7398
 21
1296.263541
 31
0.0
  0
ARC
  5
2FA1
100
AcDbEntity
  8
0
100
AcDbCircle
 10
1294.881288
 20
1328.763541
 30
0.0
 40
15.0
100
AcDbArc
 50
90.0
 51
180.0
  0
LINE
  5
2FA2
100
AcDbEntity
  8
0
100
AcDbLine
 10
1370.7398
 20
1288.263541
 30
0.0
 11
1370.7398
 21
1300.263541
 31
0.0
  0
LINE
  5
2FA5
100
AcDbEntity
  8
0
100
AcDbLine
 10
1369.881288
 20
1303.263541
 30
0.0
 11
1369.881288
 21
1328.763541
 31
0.0
  0
ARC
  5
2FA6
100
AcDbEntity
  8
0
100
AcDbCircle
 10
1364.483646
 20
1302.263541
 30
0.0
 40
1.0
100
AcDbArc
 50
180.0
 51
270.0
  0
ARC
  5
2FA7
100
AcDbEntity
  8
0
100
AcDbCircle
 10
1369.7398
 20
1300.263541
 30
0.0
 40
1.0
100
AcDbArc
 50
0.0
 51
90.0
  0
LINE
  5
2FA8
100
AcDbEntity
  8
0
100
AcDbLine
 10
1369.7398
 20
1301.263541
 30
0.0
 11
1364.483646
 21
1301.263541
 31
0.0
  0
ARC
  5
2FAA
100
AcDbEntity
  8
0
100
AcDbCircle
 10
1358.468591
 20
1296.263541
 30
0.0
 40
10.0
100
AcDbArc
 50
335.5555
 51
0.0
  0
LINE
  5
2FAB
100
AcDbEntity
  8
0
100
AcDbLine
 10
1369.7398
 20
1303.263541
 30
0.0
 11
1369.7398
 21
1301.263541
 31
0.0
  0
LINE
  5
2FAC
100
AcDbEntity
  8
0
100
AcDbLine
 10
1040.621428
 20
1508.858908
 30
0.0
 11
1050.280678
 21
1499.405533
 31
0.0
  0
LINE
  5
2FAD
100
AcDbEntity
  8
0
100
AcDbLine
 10
1040.621428
 20
1504.13222
 30
0.0
 11
1040.621428
 21
1508.858908
 31
0.0
  0
LINE
  5
2FAE
100
AcDbEntity
  8
0
100
AcDbLine
 10
1206.866752
 20
1486.015485
 30
0.0
 11
1206.866752
 21
1517.015485
 31
0.0
  0
LINE
  5
2FAF
100
AcDbEntity
  8
0
100
AcDbLine
 10
1201.787514
 20
1477.515485
 30
0.0
 11
1201.787514
 21
1525.515485
 31
0.0
  0
CIRCLE
  5
2FB1
100
AcDbEntity
  8
0
100
AcDbCircle
 10
1146.646026
 20
1501.515485
 30
0.0
 40
45.0
  0
LINE
  5
2FB4
100
AcDbEntity
  8
0
100
AcDbLine
 10
1091.504537
 20
1477.515485
 30
0.0
 11
1091.504537
 21
1525.515485
 31
0.0
  0
ARC
  5
2FB7
100
AcDbEntity
  8
0
100
AcDbCircle
 10
1094.787514
 20
1480.306112
 30
0.0
 40
2.0
100
AcDbArc
 50
0.0
 51
90.0
  0
LINE
  5
2FB8
100
AcDbEntity
  8
0
100
AcDbLine
 10
1109.229452
 20
1476.515485
 30
0.0
 11
1092.504537
 21
1476.515485
 31
0.0
  0
LINE
  5
2FBE
100
AcDbEntity
  8
0
100
AcDbLine
 10
1091.504537
 20
1477.515485
 30
0.0
 11
1092.504537
 21
1476.515485
 31
0.0
  0
ARC
  5
2FBF
100
AcDbEntity
  8
0
100
AcDbCircle
 10
1097.787514
 20
1477.515485
 30
0.0
 40
1.0
100
AcDbArc
 50
180.0
 51
270.0
  0
LINE
  5
2FC0
100
AcDbEntity
  8
0
100
AcDbLine
 10
1096.787514
 20
1480.306112
 30
0.0
 11
1096.787514
 21
1477.515485
 31
0.0
  0
LINE
  5
2FC1
100
AcDbEntity
  8
0
100
AcDbLine
 10
1097.02042
 20
1482.306112
 30
0.0
 11
1105.952046
 21
1482.306112
 31
0.0
  0
LINE
  5
2FC2
100
AcDbEntity
  8
0
100
AcDbLine
 10
1200.787514
 20
1476.515485
 30
0.0
 11
1184.0626
 21
1476.515485
 31
0.0
  0
LINE
  5
2FC3
100
AcDbEntity
  8
0
100
AcDbLine
 10
1196.271631
 20
1482.306112
 30
0.0
 11
1187.340006
 21
1482.306112
 31
0.0
  0
ARC
  5
2FC4
100
AcDbEntity
  8
0
100
AcDbCircle
 10
1198.504537
 20
1480.306112
 30
0.0
 40
2.0
100
AcDbArc
 50
90.0
 51
180.0
  0
ARC
  5
2FC5
100
AcDbEntity
  8
0
100
AcDbCircle
 10
1195.504537
 20
1477.515485
 30
0.0
 40
1.0
100
AcDbArc
 50
270.0
 51
0.0
  0
LINE
  5
2FC6
100
AcDbEntity
  8
0
100
AcDbLine
 10
1196.504537
 20
1480.306112
 30
0.0
 11
1196.504537
 21
1477.515485
 31
0.0
  0
LINE
  5
2FCA
100
AcDbEntity
  8
0
100
AcDbLine
 10
1201.787514
 20
1477.515485
 30
0.0
 11
1200.787514
 21
1476.515485
 31
0.0
  0
ARC
  5
2FCB
100
AcDbEntity
  8
0
100
AcDbCircle
 10
1196.925646
 20
1493.482541
 30
0.0
 40
12.433122
100
AcDbArc
 50
293.01933
 51
323.088714
  0
LINE
  5
2FCD
100
AcDbEntity
  8
0
100
AcDbLine
 10
1167.646026
 20
1547.515485
 30
0.0
 11
1125.646026
 21
1547.515485
 31
0.0
  0
ARC
  5
2FCE
100
AcDbEntity
  8
0
100
AcDbCircle
 10
1094.787514
 20
1522.724858
 30
0.0
 40
2.0
100
AcDbArc
 50
270.0
 51
0.0
  0
LINE
  5
2FCF
100
AcDbEntity
  8
0
100
AcDbLine
 10
1109.229452
 20
1526.515485
 30
0.0
 11
1092.504537
 21
1526.515485
 31
0.0
  0
LINE
  5
2FD3
100
AcDbEntity
  8
0
100
AcDbLine
 10
1091.504537
 20
1525.515485
 30
0.0
 11
1092.504537
 21
1526.515485
 31
0.0
  0
LINE
  5
2FD5
100
AcDbEntity
  8
0
100
AcDbLine
 10
1125.646026
 20
1541.314982
 30
0.0
 11
1125.646026
 21
1547.515485
 31
0.0
  0
ARC
  5
2FD6
100
AcDbEntity
  8
0
100
AcDbCircle
 10
1097.787514
 20
1525.515485
 30
0.0
 40
1.0
100
AcDbArc
 50
90.0
 51
180.0
  0
LINE
  5
2FD7
100
AcDbEntity
  8
0
100
AcDbLine
 10
1096.787514
 20
1522.724858
 30
0.0
 11
1096.787514
 21
1525.515485
 31
0.0
  0
LINE
  5
2FD8
100
AcDbEntity
  8
0
100
AcDbLine
 10
1097.02042
 20
1520.724858
 30
0.0
 11
1105.952046
 21
1520.724858
 31
0.0
  0
LINE
  5
2FD9
100
AcDbEntity
  8
0
100
AcDbLine
 10
1200.787514
 20
1526.515485
 30
0.0
 11
1184.0626
 21
1526.515485
 31
0.0
  0
LINE
  5
2FDA
100
AcDbEntity
  8
0
100
AcDbLine
 10
1167.646026
 20
1541.314982
 30
0.0
 11
1167.646026
 21
1547.515485
 31
0.0
  0
ARC
  5
2FDB
100
AcDbEntity
  8
0
100
AcDbCircle
 10
1198.504537
 20
1522.724858
 30
0.0
 40
2.0
100
AcDbArc
 50
180.0
 51
270.0
  0
LINE
  5
2FDC
100
AcDbEntity
  8
0
100
AcDbLine
 10
1196.271631
 20
1520.724858
 30
0.0
 11
1187.340006
 21
1520.724858
 31
0.0
  0
ARC
  5
2FDD
100
AcDbEntity
  8
0
100
AcDbCircle
 10
1195.504537
 20
1525.515485
 30
0.0
 40
1.0
100
AcDbArc
 50
0.0
 51
90.0
  0
LINE
  5
2FDE
100
AcDbEntity
  8
0
100
AcDbLine
 10
1196.504537
 20
1522.724858
 30
0.0
 11
1196.504537
 21
1525.515485
 31
0.0
  0
LINE
  5
2FE0
100
AcDbEntity
  8
0
100
AcDbLine
 10
1201.787514
 20
1525.515485
 30
0.0
 11
1200.787514
 21
1526.515485
 31
0.0
  0
ARC
  5
2FE1
100
AcDbEntity
  8
0
100
AcDbCircle
 10
1196.925646
 20
1509.548429
 30
0.0
 40
12.433122
100
AcDbArc
 50
36.911286
 51
66.98067
  0
ARC
  5
2FE4
100
AcDbEntity
  8
0
100
AcDbCircle
 10
505.001879
 20
1681.350019
 30
0.0
 40
15.0
100
AcDbArc
 50
0.0
 51
90.0
  0
LINE
  5
2FE5
100
AcDbEntity
  8
0
100
AcDbLine
 10
520.001879
 20
1681.350019
 30
0.0
 11
520.001879
 21
1655.850019
 31
0.0
  0
LINE
  5
2FE6
100
AcDbEntity
  8
0
100
AcDbLine
 10
1244.655886
 20
1723.322373
 30
0.0
 11
1291.924449
 21
1723.322373
 31
0.0
  0
LINE
  5
2FE7
100
AcDbEntity
  8
0
100
AcDbLine
 10
1268.289324
 20
1728.049061
 30
0.0
 11
1254.315136
 21
1728.049061
 31
0.0
  0
ARC
  5
2FE8
100
AcDbEntity
  8
0
100
AcDbCircle
 10
1176.504537
 20
1798.950089
 30
0.0
 40
15.0
100
AcDbArc
 50
0.0
 51
90.0
  0
ARC
  5
2FE9
100
AcDbEntity
  8
0
100
AcDbCircle
 10
1116.504537
 20
1798.950089
 30
0.0
 40
15.0
100
AcDbArc
 50
90.0
 51
180.0
  0
LINE
  5
2FEA
100
AcDbEntity
  8
0
100
AcDbLine
 10
1128.646026
 20
1744.450089
 30
0.0
 11
1164.646026
 21
1744.450089
 31
0.0
  0
CIRCLE
  5
2FEB
100
AcDbEntity
  8
0
100
AcDbCircle
 10
1146.504537
 20
1778.450089
 30
0.0
 40
3.0
  0
LINE
  5
2FEC
100
AcDbEntity
  8
0
100
AcDbLine
 10
1128.646026
 20
1771.450089
 30
0.0
 11
1164.646026
 21
1771.450089
 31
0.0
  0
LINE
  5
2FED
100
AcDbEntity
  8
0
100
AcDbLine
 10
1191.646026
 20
1773.450089
 30
0.0
 11
1101.646026
 21
1773.450089
 31
0.0
  0
LINE
  5
2FEE
100
AcDbEntity
  8
0
100
AcDbLine
 10
1191.504537
 20
1773.450089
 30
0.0
 11
1101.504537
 21
1773.450089
 31
0.0
  0
LINE
  5
2FEF
100
AcDbEntity
  8
0
100
AcDbLine
 10
1167.646026
 20
1731.950089
 30
0.0
 11
1125.646026
 21
1731.950089
 31
0.0
  0
LINE
  5
2FF0
100
AcDbEntity
  8
0
100
AcDbLine
 10
1200.787514
 20
1698.950089
 30
0.0
 11
1092.504537
 21
1698.950089
 31
0.0
  0
LINE
  5
2FF1
100
AcDbEntity
  8
0
100
AcDbLine
 10
1111.646026
 20
1741.950089
 30
0.0
 11
1111.646026
 21
1709.950089
 31
0.0
  0
LINE
  5
2FF3
100
AcDbEntity
  8
0
100
AcDbLine
 10
1096.646026
 20
1741.950089
 30
0.0
 11
1096.646026
 21
1709.950089
 31
0.0
  0
LINE
  5
2FF4
100
AcDbEntity
  8
0
100
AcDbLine
 10
1091.504537
 20
1699.950089
 30
0.0
 11
1091.504537
 21
1747.950089
 31
0.0
  0
LINE
  5
2FFB
100
AcDbEntity
  8
0
100
AcDbLine
 10
1091.504537
 20
1699.950089
 30
0.0
 11
1092.504537
 21
1698.950089
 31
0.0
  0
LINE
  5
2FFD
100
AcDbEntity
  8
0
100
AcDbLine
 10
1111.646026
 20
1709.950089
 30
0.0
 11
1096.646026
 21
1709.950089
 31
0.0
  0
LINE
  5
2FFE
100
AcDbEntity
  8
0
100
AcDbLine
 10
1096.646026
 20
1748.950089
 30
0.0
 11
1092.504537
 21
1748.950089
 31
0.0
  0
LINE
  5
3000
100
AcDbEntity
  8
0
100
AcDbLine
 10
1091.504537
 20
1747.950089
 30
0.0
 11
1092.504537
 21
1748.950089
 31
0.0
  0
LINE
  5
3004
100
AcDbEntity
  8
0
100
AcDbLine
 10
1101.646026
 20
1773.450089
 30
0.0
 11
1101.646026
 21
1753.950089
 31
0.0
  0
LINE
  5
3005
100
AcDbEntity
  8
0
100
AcDbLine
 10
1125.646026
 20
1747.450089
 30
0.0
 11
1125.646026
 21
1768.450089
 31
0.0
  0
ARC
  5
3006
100
AcDbEntity
  8
0
100
AcDbCircle
 10
1108.724645
 20
1743.950089
 30
0.0
 40
5.0
100
AcDbArc
 50
29.40655
 51
90.0
  0
LINE
  5
3007
100
AcDbEntity
  8
0
100
AcDbLine
 10
1120.822903
 20
1756.450089
 30
0.0
 11
1109.568951
 21
1756.450089
 31
0.0
  0
ARC
  5
3008
100
AcDbEntity
  8
0
100
AcDbCircle
 10
1096.646026
 20
1753.950089
 30
0.0
 40
5.0
100
AcDbArc
 50
270.0
 51
0.0
  0
LINE
  5
3009
100
AcDbEntity
  8
0
100
AcDbLine
 10
1111.646026
 20
1741.950089
 30
0.0
 11
1096.646026
 21
1741.950089
 31
0.0
  0
LINE
  5
300A
100
AcDbEntity
  8
0
100
AcDbLine
 10
1113.080433
 20
1746.405106
 30
0.0
 11
1120.100351
 21
1733.950089
 31
0.0
  0
ARC
  5
300B
100
AcDbEntity
  8
0
100
AcDbCircle
 10
1128.646026
 20
1747.450089
 30
0.0
 40
3.0
100
AcDbArc
 50
180.0
 51
270.0
  0
ARC
  5
300C
100
AcDbEntity
  8
0
100
AcDbCircle
 10
1125.646026
 20
1726.950089
 30
0.0
 40
5.0
100
AcDbArc
 50
90.0
 51
135.596747
  0
LINE
  5
300D
100
AcDbEntity
  8
0
100
AcDbLine
 10
1101.504537
 20
1773.450089
 30
0.0
 11
1101.504537
 21
1798.950089
 31
0.0
  0
ARC
  5
300E
100
AcDbEntity
  8
0
100
AcDbCircle
 10
1128.646026
 20
1768.450089
 30
0.0
 40
3.0
100
AcDbArc
 50
90.0
 51
180.0
  0
LINE
  5
300F
100
AcDbEntity
  8
0
100
AcDbLine
 10
1254.315136
 20
1732.775748
 30
0.0
 11
1244.655886
 21
1723.322373
 31
0.0
  0
LINE
  5
3010
100
AcDbEntity
  8
0
100
AcDbLine
 10
1254.315136
 20
1728.049061
 30
0.0
 11
1254.315136
 21
1732.775748
 31
0.0
  0
LINE
  5
3011
100
AcDbEntity
  8
0
100
AcDbLine
 10
1181.646026
 20
1741.950089
 30
0.0
 11
1181.646026
 21
1709.950089
 31
0.0
  0
LINE
  5
3013
100
AcDbEntity
  8
0
100
AcDbLine
 10
1196.646026
 20
1741.950089
 30
0.0
 11
1196.646026
 21
1709.950089
 31
0.0
  0
LINE
  5
3014
100
AcDbEntity
  8
0
100
AcDbLine
 10
1196.646026
 20
1741.950089
 30
0.0
 11
1196.646026
 21
1709.950089
 31
0.0
  0
LINE
  5
3015
100
AcDbEntity
  8
0
100
AcDbLine
 10
1201.787514
 20
1699.950089
 30
0.0
 11
1201.787514
 21
1747.950089
 31
0.0
  0
LINE
  5
3018
100
AcDbEntity
  8
0
100
AcDbLine
 10
1181.646026
 20
1709.950089
 30
0.0
 11
1196.646026
 21
1709.950089
 31
0.0
  0
LINE
  5
301C
100
AcDbEntity
  8
0
100
AcDbLine
 10
1201.787514
 20
1699.950089
 30
0.0
 11
1200.787514
 21
1698.950089
 31
0.0
  0
LINE
  5
301F
100
AcDbEntity
  8
0
100
AcDbLine
 10
1200.787514
 20
1748.950089
 30
0.0
 11
1196.646026
 21
1748.950089
 31
0.0
  0
LINE
  5
3020
100
AcDbEntity
  8
0
100
AcDbLine
 10
1191.646026
 20
1773.450089
 30
0.0
 11
1191.646026
 21
1753.950089
 31
0.0
  0
LINE
  5
3021
100
AcDbEntity
  8
0
100
AcDbLine
 10
1167.646026
 20
1747.450089
 30
0.0
 11
1167.646026
 21
1768.450089
 31
0.0
  0
LINE
  5
3022
100
AcDbEntity
  8
0
100
AcDbLine
 10
1183.723101
 20
1756.450089
 30
0.0
 11
1172.469148
 21
1756.450089
 31
0.0
  0
LINE
  5
3023
100
AcDbEntity
  8
0
100
AcDbLine
 10
1180.211618
 20
1746.405106
 30
0.0
 11
1173.191701
 21
1733.950089
 31
0.0
  0
ARC
  5
3024
100
AcDbEntity
  8
0
100
AcDbCircle
 10
1164.646026
 20
1747.450089
 30
0.0
 40
3.0
100
AcDbArc
 50
270.0
 51
0.0
  0
ARC
  5
3025
100
AcDbEntity
  8
0
100
AcDbCircle
 10
1167.646026
 20
1726.950089
 30
0.0
 40
5.0
100
AcDbArc
 50
44.403253
 51
90.0
  0
ARC
  5
3026
100
AcDbEntity
  8
0
100
AcDbCircle
 10
1196.646026
 20
1753.950089
 30
0.0
 40
5.0
100
AcDbArc
 50
180.0
 51
270.0
  0
ARC
  5
3027
100
AcDbEntity
  8
0
100
AcDbCircle
 10
1184.567406
 20
1743.950089
 30
0.0
 40
5.0
100
AcDbArc
 50
90.0
 51
150.59345
  0
LINE
  5
3028
100
AcDbEntity
  8
0
100
AcDbLine
 10
1181.646026
 20
1741.950089
 30
0.0
 11
1196.646026
 21
1741.950089
 31
0.0
  0
ARC
  5
3029
100
AcDbEntity
  8
0
100
AcDbCircle
 10
1164.646026
 20
1768.450089
 30
0.0
 40
3.0
100
AcDbArc
 50
0.0
 51
90.0
  0
LINE
  5
302A
100
AcDbEntity
  8
0
100
AcDbLine
 10
1191.504537
 20
1798.950089
 30
0.0
 11
1191.504537
 21
1773.450089
 31
0.0
  0
LINE
  5
302B
100
AcDbEntity
  8
0
100
AcDbLine
 10
1201.787514
 20
1747.950089
 30
0.0
 11
1200.787514
 21
1748.950089
 31
0.0
  0
LINE
  5
3030
100
AcDbEntity
  8
0
100
AcDbLine
 10
1176.504537
 20
1813.950089
 30
0.0
 11
1116.504537
 21
1813.950089
 31
0.0
  0
LINE
  5
3031
100
AcDbEntity
  8
0
100
AcDbLine
 10
1273.017699
 20
1732.775748
 30
0.0
 11
1268.289324
 21
1728.049061
 31
0.0
  0
LINE
  5
3032
100
AcDbEntity
  8
0
100
AcDbLine
 10
1291.924449
 20
1723.322373
 30
0.0
 11
1301.377824
 21
1732.775748
 31
0.0
  0
LINE
  5
3033
100
AcDbEntity
  8
0
100
AcDbLine
 10
1301.377824
 20
1732.775748
 30
0.0
 11
1273.017699
 21
1732.775748
 31
0.0
  0
LINE
  5
3034
100
AcDbEntity
  8
0
100
AcDbLine
 10
2431.265963
 20
924.653714
 30
0.0
 11
2371.265963
 21
924.653714
 31
0.0
  0
LINE
  5
3035
100
AcDbEntity
  8
0
100
AcDbLine
 10
2383.407452
 20
882.153714
 30
0.0
 11
2419.407452
 21
882.153714
 31
0.0
  0
LINE
  5
3036
100
AcDbEntity
  8
0
100
AcDbLine
 10
2383.407452
 20
855.153714
 30
0.0
 11
2419.407452
 21
855.153714
 31
0.0
  0
LINE
  5
3037
100
AcDbEntity
  8
0
100
AcDbLine
 10
2446.265963
 20
884.153714
 30
0.0
 11
2356.265963
 21
884.153714
 31
0.0
  0
LINE
  5
3038
100
AcDbEntity
  8
0
100
AcDbLine
 10
2446.407452
 20
884.153714
 30
0.0
 11
2356.407452
 21
884.153714
 31
0.0
  0
LINE
  5
3039
100
AcDbEntity
  8
0
100
AcDbLine
 10
2422.407452
 20
842.653714
 30
0.0
 11
2380.407452
 21
842.653714
 31
0.0
  0
LINE
  5
303A
100
AcDbEntity
  8
0
100
AcDbLine
 10
2422.407452
 20
658.219109
 30
0.0
 11
2380.407452
 21
658.219109
 31
0.0
  0
CIRCLE
  5
303B
100
AcDbEntity
  8
0
100
AcDbCircle
 10
2401.407452
 20
612.219109
 30
0.0
 40
45.0
  0
LINE
  5
303C
100
AcDbEntity
  8
0
100
AcDbLine
 10
2455.54894
 20
809.653714
 30
0.0
 11
2347.265963
 21
809.653714
 31
0.0
  0
LINE
  5
303D
100
AcDbEntity
  8
0
100
AcDbLine
 10
2371.407452
 20
454.467165
 30
0.0
 11
2431.407452
 21
454.467165
 31
0.0
  0
LINE
  5
303E
100
AcDbEntity
  8
0
100
AcDbLine
 10
2356.265963
 20
413.967165
 30
0.0
 11
2446.265963
 21
413.967165
 31
0.0
  0
LINE
  5
303F
100
AcDbEntity
  8
0
100
AcDbLine
 10
2364.188888
 20
396.967165
 30
0.0
 11
2438.343038
 21
396.967165
 31
0.0
  0
LINE
  5
3040
100
AcDbEntity
  8
0
100
AcDbLine
 10
2356.407452
 20
413.967165
 30
0.0
 11
2446.407452
 21
413.967165
 31
0.0
  0
LINE
  5
3041
100
AcDbEntity
  8
0
100
AcDbLine
 10
2380.265963
 20
372.467165
 30
0.0
 11
2422.265963
 21
372.467165
 31
0.0
  0
LINE
  5
3042
100
AcDbEntity
  8
0
100
AcDbLine
 10
2347.265963
 20
339.467165
 30
0.0
 11
2455.54894
 21
339.467165
 31
0.0
  0
ARC
  5
3043
100
AcDbEntity
  8
0
100
AcDbCircle
 10
1644.377541
 20
439.467165
 30
0.0
 40
15.0
100
AcDbArc
 50
90.0
 51
180.0
  0
LINE
  5
304C
100
AcDbEntity
  8
0
100
AcDbLine
 10
1491.878559
 20
413.967165
 30
0.0
 11
1491.878559
 21
394.467165
 31
0.0
  0
LINE
  5
304D
100
AcDbEntity
  8
0
100
AcDbLine
 10
1480.444152
 20
386.922182
 30
0.0
 11
1473.424234
 21
374.467165
 31
0.0
  0
ARC
  5
304E
100
AcDbEntity
  8
0
100
AcDbCircle
 10
1467.878559
 20
367.467165
 30
0.0
 40
5.0
100
AcDbArc
 50
44.403253
 51
90.0
  0
LINE
  5
304F
100
AcDbEntity
  8
0
100
AcDbLine
 10
1481.878559
 20
382.467165
 30
0.0
 11
1481.878559
 21
350.467165
 31
0.0
  0
LINE
  5
3050
100
AcDbEntity
  8
0
100
AcDbLine
 10
1496.878559
 20
382.467165
 30
0.0
 11
1496.878559
 21
350.467165
 31
0.0
  0
LINE
  5
3051
100
AcDbEntity
  8
0
100
AcDbLine
 10
1511.026226
 20
341.467165
 30
0.0
 11
1511.026226
 21
387.467165
 31
0.0
  0
LINE
  5
3052
100
AcDbEntity
  8
0
100
AcDbLine
 10
1501.161536
 20
339.467165
 30
0.0
 11
1501.161536
 21
389.467165
 31
0.0
  0
ARC
  5
3053
100
AcDbEntity
  8
0
100
AcDbCircle
 10
1503.021143
 20
357.87722
 30
0.0
 40
18.503736
100
AcDbArc
 50
264.232094
 51
297.519841
  0
LINE
  5
3054
100
AcDbEntity
  8
0
100
AcDbLine
 10
1481.878559
 20
350.467165
 30
0.0
 11
1496.878559
 21
350.467165
 31
0.0
  0
ARC
  5
3055
100
AcDbEntity
  8
0
100
AcDbCircle
 10
1503.021143
 20
371.057111
 30
0.0
 40
18.503736
100
AcDbArc
 50
62.480159
 51
95.767906
  0
ARC
  5
3056
100
AcDbEntity
  8
0
100
AcDbCircle
 10
1484.79994
 20
384.467165
 30
0.0
 40
5.0
100
AcDbArc
 50
90.0
 51
150.59345
  0
LINE
  5
3057
100
AcDbEntity
  8
0
100
AcDbLine
 10
1496.878559
 20
389.467165
 30
0.0
 11
1501.161536
 21
389.467165
 31
0.0
  0
ARC
  5
3058
100
AcDbEntity
  8
0
100
AcDbCircle
 10
1496.878559
 20
394.467165
 30
0.0
 40
5.0
100
AcDbArc
 50
180.0
 51
270.0
  0
LINE
  5
3059
100
AcDbEntity
  8
0
100
AcDbLine
 10
1481.878559
 20
382.467165
 30
0.0
 11
1496.878559
 21
382.467165
 31
0.0
  0
ARC
  5
305A
100
AcDbEntity
  8
0
100
AcDbCircle
 10
1477.020048
 20
439.467165
 30
0.0
 40
15.0
100
AcDbArc
 50
0.0
 51
90.0
  0
CIRCLE
  5
305B
100
AcDbEntity
  8
0
100
AcDbCircle
 10
1447.020048
 20
418.967165
 30
0.0
 40
3.0
  0
LINE
  5
305C
100
AcDbEntity
  8
0
100
AcDbLine
 10
1492.020048
 20
413.967165
 30
0.0
 11
1492.020048
 21
439.467165
 31
0.0
  0
LINE
  5
3061
100
AcDbEntity
  8
0
100
AcDbLine
 10
1629.377541
 20
439.467165
 30
0.0
 11
1629.377541
 21
430.706987
 31
0.0
  0
LINE
  5
3064
100
AcDbEntity
  8
0
100
AcDbLine
 10
1644.377541
 20
454.467165
 30
0.0
 11
1704.377541
 21
454.467165
 31
0.0
  0
LINE
  5
3065
100
AcDbEntity
  8
0
100
AcDbLine
 10
1719.377541
 20
430.514467
 30
0.0
 11
1719.377541
 21
439.467165
 31
0.0
  0
ARC
  5
3066
100
AcDbEntity
  8
0
100
AcDbCircle
 10
1704.377541
 20
439.467165
 30
0.0
 40
15.0
100
AcDbArc
 50
0.0
 51
90.0
  0
LINE
  5
306A
100
AcDbEntity
  8
0
100
AcDbLine
 10
2134.960636
 20
454.467165
 30
0.0
 11
2074.960636
 21
454.467165
 31
0.0
  0
LINE
  5
306B
100
AcDbEntity
  8
0
100
AcDbLine
 10
2059.960636
 20
433.521463
 30
0.0
 11
2059.960636
 21
439.467165
 31
0.0
  0
ARC
  5
306D
100
AcDbEntity
  8
0
100
AcDbCircle
 10
2074.960636
 20
439.467165
 30
0.0
 40
15.0
100
AcDbArc
 50
90.0
 51
180.0
  0
LINE
  5
306E
100
AcDbEntity
  8
0
100
AcDbLine
 10
2149.960636
 20
439.467165
 30
0.0
 11
2149.960636
 21
433.705622
 31
0.0
  0
ARC
  5
3070
100
AcDbEntity
  8
0
100
AcDbCircle
 10
2134.960636
 20
439.467165
 30
0.0
 40
15.0
100
AcDbArc
 50
0.0
 51
90.0
  0
LINE
  5
3076
100
AcDbEntity
  8
0
100
AcDbLine
 10
2221.185655
 20
353.923169
 30
0.0
 11
2211.73228
 21
363.376544
 31
0.0
  0
LINE
  5
3077
100
AcDbEntity
  8
0
100
AcDbLine
 10
2211.73228
 20
363.376544
 30
0.0
 11
2240.092405
 21
363.376544
 31
0.0
  0
LINE
  5
3078
100
AcDbEntity
  8
0
100
AcDbLine
 10
2268.454217
 20
353.923169
 30
0.0
 11
2221.185655
 21
353.923169
 31
0.0
  0
LINE
  5
3079
100
AcDbEntity
  8
0
100
AcDbLine
 10
2244.82078
 20
358.649856
 30
0.0
 11
2258.794967
 21
358.649856
 31
0.0
  0
LINE
  5
307A
100
AcDbEntity
  8
0
100
AcDbLine
 10
2240.092405
 20
363.376544
 30
0.0
 11
2244.82078
 21
358.649856
 31
0.0
  0
LINE
  5
307B
100
AcDbEntity
  8
0
100
AcDbLine
 10
2258.794967
 20
363.376544
 30
0.0
 11
2268.454217
 21
353.923169
 31
0.0
  0
LINE
  5
307C
100
AcDbEntity
  8
0
100
AcDbLine
 10
2258.794967
 20
358.649856
 30
0.0
 11
2258.794967
 21
363.376544
 31
0.0
  0
LINE
  5
307D
100
AcDbEntity
  8
0
100
AcDbLine
 10
2356.265963
 20
413.967165
 30
0.0
 11
2356.265963
 21
394.467165
 31
0.0
  0
ARC
  5
307F
100
AcDbEntity
  8
0
100
AcDbCircle
 10
2346.160621
 20
367.568563
 30
0.0
 40
25.222161
100
AcDbArc
 50
241.506392
 51
270.2393
  0
ARC
  5
3080
100
AcDbEntity
  8
0
100
AcDbCircle
 10
2346.160621
 20
361.365768
 30
0.0
 40
25.222161
100
AcDbArc
 50
89.7607
 51
118.493608
  0
LINE
  5
3081
100
AcDbEntity
  8
0
100
AcDbLine
 10
2334.128119
 20
345.401554
 30
0.0
 11
2334.128119
 21
383.532777
 31
0.0
  0
LINE
  5
3082
100
AcDbEntity
  8
0
100
AcDbLine
 10
2331.856599
 20
341.467165
 30
0.0
 11
2331.856599
 21
387.467165
 31
0.0
  0
LINE
  5
3083
100
AcDbEntity
  8
0
100
AcDbLine
 10
2331.856599
 20
341.467165
 30
0.0
 11
2314.532196
 21
336.182837
 31
0.0
  0
LINE
  5
3085
100
AcDbEntity
  8
0
100
AcDbLine
 10
2334.128119
 20
345.401554
 30
0.0
 11
2331.856599
 21
341.467165
 31
0.0
  0
LINE
  5
3086
100
AcDbEntity
  8
0
100
AcDbLine
 10
2331.856599
 20
387.467165
 30
0.0
 11
2314.532196
 21
392.751493
 31
0.0
  0
LINE
  5
3087
100
AcDbEntity
  8
0
100
AcDbLine
 10
2334.128119
 20
383.532777
 30
0.0
 11
2331.856599
 21
387.467165
 31
0.0
  0
LINE
  5
3088
100
AcDbEntity
  8
0
100
AcDbLine
 10
2351.265963
 20
382.467165
 30
0.0
 11
2351.265963
 21
350.467165
 31
0.0
  0
LINE
  5
3089
100
AcDbEntity
  8
0
100
AcDbLine
 10
2351.265963
 20
382.467165
 30
0.0
 11
2351.265963
 21
350.467165
 31
0.0
  0
LINE
  5
308A
100
AcDbEntity
  8
0
100
AcDbLine
 10
2366.265963
 20
382.467165
 30
0.0
 11
2366.265963
 21
350.467165
 31
0.0
  0
LINE
  5
308B
100
AcDbEntity
  8
0
100
AcDbLine
 10
2346.265963
 20
340.467165
 30
0.0
 11
2346.265963
 21
388.467165
 31
0.0
  0
LINE
  5
308C
100
AcDbEntity
  8
0
100
AcDbLine
 10
2366.265963
 20
350.467165
 30
0.0
 11
2351.265963
 21
350.467165
 31
0.0
  0
LINE
  5
308D
100
AcDbEntity
  8
0
100
AcDbLine
 10
2346.265963
 20
340.467165
 30
0.0
 11
2347.265963
 21
339.467165
 31
0.0
  0
ARC
  5
308E
100
AcDbEntity
  8
0
100
AcDbCircle
 10
2363.344583
 20
384.467165
 30
0.0
 40
5.0
100
AcDbArc
 50
29.40655
 51
90.0
  0
LINE
  5
308F
100
AcDbEntity
  8
0
100
AcDbLine
 10
2366.265963
 20
382.467165
 30
0.0
 11
2351.265963
 21
382.467165
 31
0.0
  0
ARC
  5
3090
100
AcDbEntity
  8
0
100
AcDbCircle
 10
2351.265963
 20
394.467165
 30
0.0
 40
5.0
100
AcDbArc
 50
270.0
 51
0.0
  0
LINE
  5
3091
100
AcDbEntity
  8
0
100
AcDbLine
 10
2347.265963
 20
389.467165
 30
0.0
 11
2351.265963
 21
389.467165
 31
0.0
  0
LINE
  5
3092
100
AcDbEntity
  8
0
100
AcDbLine
 10
2346.265963
 20
388.467165
 30
0.0
 11
2347.265963
 21
389.467165
 31
0.0
  0
ARC
  5
3093
100
AcDbEntity
  8
0
100
AcDbCircle
 10
2380.265963
 20
367.467165
 30
0.0
 40
5.0
100
AcDbArc
 50
90.0
 51
135.596747
  0
LINE
  5
3094
100
AcDbEntity
  8
0
100
AcDbLine
 10
2367.700371
 20
386.922182
 30
0.0
 11
2374.720288
 21
374.467165
 31
0.0
  0
LINE
  5
3095
100
AcDbEntity
  8
0
100
AcDbLine
 10
2356.407452
 20
439.467165
 30
0.0
 11
2356.407452
 21
413.967165
 31
0.0
  0
ARC
  5
3096
100
AcDbEntity
  8
0
100
AcDbCircle
 10
2371.407452
 20
439.467165
 30
0.0
 40
15.0
100
AcDbArc
 50
90.0
 51
180.0
  0
LINE
  5
309A
100
AcDbEntity
  8
0
100
AcDbLine
 10
1511.570901
 20
589.219109
 30
0.0
 11
1511.570901
 21
635.219109
 31
0.0
  0
LINE
  5
309B
100
AcDbEntity
  8
0
100
AcDbLine
 10
1501.161536
 20
587.219109
 30
0.0
 11
1501.161536
 21
637.219109
 31
0.0
  0
ARC
  5
309E
100
AcDbEntity
  8
0
100
AcDbCircle
 10
1503.021143
 20
605.629164
 30
0.0
 40
18.503736
100
AcDbArc
 50
264.232094
 51
297.519841
  0
LINE
  5
309F
100
AcDbEntity
  8
0
100
AcDbLine
 10
1496.645653
 20
593.009737
 30
0.0
 11
1487.714028
 21
593.009737
 31
0.0
  0
LINE
  5
30A0
100
AcDbEntity
  8
0
100
AcDbLine
 10
1501.161536
 20
587.219109
 30
0.0
 11
1484.436622
 21
587.219109
 31
0.0
  0
ARC
  5
30A1
100
AcDbEntity
  8
0
100
AcDbCircle
 10
1498.878559
 20
591.009737
 30
0.0
 40
2.0
100
AcDbArc
 50
90.0
 51
180.0
  0
ARC
  5
30A2
100
AcDbEntity
  8
0
100
AcDbCircle
 10
1495.878559
 20
588.219109
 30
0.0
 40
1.0
100
AcDbArc
 50
270.0
 51
0.0
  0
LINE
  5
30A3
100
AcDbEntity
  8
0
100
AcDbLine
 10
1496.878559
 20
591.009737
 30
0.0
 11
1496.878559
 21
588.219109
 31
0.0
  0
LINE
  5
30A8
100
AcDbEntity
  8
0
100
AcDbLine
 10
1468.020048
 20
652.018607
 30
0.0
 11
1468.020048
 21
658.219109
 31
0.0
  0
ARC
  5
30A9
100
AcDbEntity
  8
0
100
AcDbCircle
 10
1503.021143
 20
618.809055
 30
0.0
 40
18.503736
100
AcDbArc
 50
62.480159
 51
95.767906
  0
LINE
  5
30AA
100
AcDbEntity
  8
0
100
AcDbLine
 10
1501.161536
 20
637.219109
 30
0.0
 11
1484.436622
 21
637.219109
 31
0.0
  0
LINE
  5
30AB
100
AcDbEntity
  8
0
100
AcDbLine
 10
1496.645653
 20
631.428482
 30
0.0
 11
1487.714028
 21
631.428482
 31
0.0
  0
ARC
  5
30AC
100
AcDbEntity
  8
0
100
AcDbCircle
 10
1495.878559
 20
636.219109
 30
0.0
 40
1.0
100
AcDbArc
 50
0.0
 51
90.0
  0
ARC
  5
30AD
100
AcDbEntity
  8
0
100
AcDbCircle
 10
1498.878559
 20
633.428482
 30
0.0
 40
2.0
100
AcDbArc
 50
180.0
 51
270.0
  0
LINE
  5
30AE
100
AcDbEntity
  8
0
100
AcDbLine
 10
1496.878559
 20
633.428482
 30
0.0
 11
1496.878559
 21
636.219109
 31
0.0
  0
ARC
  5
30B2
100
AcDbEntity
  8
0
100
AcDbCircle
 10
1476.878559
 20
909.653714
 30
0.0
 40
15.0
100
AcDbArc
 50
0.0
 51
90.0
  0
LINE
  5
30B5
100
AcDbEntity
  8
0
100
AcDbLine
 10
1497.020048
 20
852.653714
 30
0.0
 11
1497.020048
 21
820.653714
 31
0.0
  0
LINE
  5
30B6
100
AcDbEntity
  8
0
100
AcDbLine
 10
1497.020048
 20
852.653714
 30
0.0
 11
1497.020048
 21
820.653714
 31
0.0
  0
LINE
  5
30B7
100
AcDbEntity
  8
0
100
AcDbLine
 10
1482.020048
 20
852.653714
 30
0.0
 11
1482.020048
 21
820.653714
 31
0.0
  0
LINE
  5
30B8
100
AcDbEntity
  8
0
100
AcDbLine
 10
1511.570901
 20
811.653714
 30
0.0
 11
1511.570901
 21
857.653714
 31
0.0
  0
LINE
  5
30B9
100
AcDbEntity
  8
0
100
AcDbLine
 10
1501.161536
 20
809.653714
 30
0.0
 11
1501.161536
 21
859.653714
 31
0.0
  0
ARC
  5
30BA
100
AcDbEntity
  8
0
100
AcDbCircle
 10
1503.021143
 20
828.063768
 30
0.0
 40
18.503736
100
AcDbArc
 50
264.232094
 51
297.519841
  0
LINE
  5
30BB
100
AcDbEntity
  8
0
100
AcDbLine
 10
1482.020048
 20
820.653714
 30
0.0
 11
1497.020048
 21
820.653714
 31
0.0
  0
LINE
  5
30BC
100
AcDbEntity
  8
0
100
AcDbLine
 10
1484.097123
 20
867.153714
 30
0.0
 11
1472.84317
 21
867.153714
 31
0.0
  0
LINE
  5
30BD
100
AcDbEntity
  8
0
100
AcDbLine
 10
1480.58564
 20
857.10873
 30
0.0
 11
1473.565723
 21
844.653714
 31
0.0
  0
LINE
  5
30BE
100
AcDbEntity
  8
0
100
AcDbLine
 10
1468.020048
 20
858.153714
 30
0.0
 11
1468.020048
 21
879.153714
 31
0.0
  0
LINE
  5
30BF
100
AcDbEntity
  8
0
100
AcDbLine
 10
1429.020048
 20
855.153714
 30
0.0
 11
1465.020048
 21
855.153714
 31
0.0
  0
ARC
  5
30C0
100
AcDbEntity
  8
0
100
AcDbCircle
 10
1465.020048
 20
858.153714
 30
0.0
 40
3.0
100
AcDbArc
 50
270.0
 51
0.0
  0
ARC
  5
30C1
100
AcDbEntity
  8
0
100
AcDbCircle
 10
1468.020048
 20
837.653714
 30
0.0
 40
5.0
100
AcDbArc
 50
44.403253
 51
90.0
  0
LINE
  5
30C2
100
AcDbEntity
  8
0
100
AcDbLine
 10
1429.020048
 20
882.153714
 30
0.0
 11
1465.020048
 21
882.153714
 31
0.0
  0
CIRCLE
  5
30C3
100
AcDbEntity
  8
0
100
AcDbCircle
 10
1446.878559
 20
889.153714
 30
0.0
 40
3.0
  0
ARC
  5
30C4
100
AcDbEntity
  8
0
100
AcDbCircle
 10
1465.020048
 20
879.153714
 30
0.0
 40
3.0
100
AcDbArc
 50
0.0
 51
90.0
  0
LINE
  5
30C5
100
AcDbEntity
  8
0
100
AcDbLine
 10
1492.020048
 20
884.153714
 30
0.0
 11
1492.020048
 21
864.653714
 31
0.0
  0
ARC
  5
30C6
100
AcDbEntity
  8
0
100
AcDbCircle
 10
1503.021143
 20
841.243659
 30
0.0
 40
18.503736
100
AcDbArc
 50
62.480159
 51
95.767906
  0
LINE
  5
30C7
100
AcDbEntity
  8
0
100
AcDbLine
 10
1501.161536
 20
859.653714
 30
0.0
 11
1497.020048
 21
859.653714
 31
0.0
  0
ARC
  5
30C8
100
AcDbEntity
  8
0
100
AcDbCircle
 10
1497.020048
 20
864.653714
 30
0.0
 40
5.0
100
AcDbArc
 50
180.0
 51
270.0
  0
ARC
  5
30C9
100
AcDbEntity
  8
0
100
AcDbCircle
 10
1484.941428
 20
854.653714
 30
0.0
 40
5.0
100
AcDbArc
 50
90.0
 51
150.59345
  0
LINE
  5
30CA
100
AcDbEntity
  8
0
100
AcDbLine
 10
1482.020048
 20
852.653714
 30
0.0
 11
1497.020048
 21
852.653714
 31
0.0
  0
LINE
  5
30CB
100
AcDbEntity
  8
0
100
AcDbLine
 10
1491.878559
 20
909.653714
 30
0.0
 11
1491.878559
 21
884.153714
 31
0.0
  0
LINE
  5
30CD
100
AcDbEntity
  8
0
100
AcDbLine
 10
1573.832614
 20
825.978628
 30
0.0
 11
1621.101176
 21
825.978628
 31
0.0
  0
LINE
  5
30CE
100
AcDbEntity
  8
0
100
AcDbLine
 10
1597.466051
 20
830.705315
 30
0.0
 11
1583.491864
 21
830.705315
 31
0.0
  0
LINE
  5
30D0
100
AcDbEntity
  8
0
100
AcDbLine
 10
1583.491864
 20
835.432003
 30
0.0
 11
1573.832614
 21
825.978628
 31
0.0
  0
LINE
  5
30D1
100
AcDbEntity
  8
0
100
AcDbLine
 10
1583.491864
 20
830.705315
 30
0.0
 11
1583.491864
 21
835.432003
 31
0.0
  0
LINE
  5
30D2
100
AcDbEntity
  8
0
100
AcDbLine
 10
1630.554551
 20
835.432003
 30
0.0
 11
1602.194426
 21
835.432003
 31
0.0
  0
LINE
  5
30D3
100
AcDbEntity
  8
0
100
AcDbLine
 10
1621.101176
 20
825.978628
 30
0.0
 11
1630.554551
 21
835.432003
 31
0.0
  0
LINE
  5
30D4
100
AcDbEntity
  8
0
100
AcDbLine
 10
1602.194426
 20
835.432003
 30
0.0
 11
1597.466051
 21
830.705315
 31
0.0
  0
LINE
  5
30D9
100
AcDbEntity
  8
0
100
AcDbLine
 10
2334.128119
 20
593.153498
 30
0.0
 11
2334.128119
 21
631.284721
 31
0.0
  0
LINE
  5
30DA
100
AcDbEntity
  8
0
100
AcDbLine
 10
2331.856599
 20
589.219109
 30
0.0
 11
2331.856599
 21
635.219109
 31
0.0
  0
LINE
  5
30DB
100
AcDbEntity
  8
0
100
AcDbLine
 10
2346.265963
 20
588.219109
 30
0.0
 11
2346.265963
 21
636.219109
 31
0.0
  0
LINE
  5
30E0
100
AcDbEntity
  8
0
100
AcDbLine
 10
2221.024482
 20
603.050912
 30
0.0
 11
2211.571107
 21
612.504287
 31
0.0
  0
LINE
  5
30E1
100
AcDbEntity
  8
0
100
AcDbLine
 10
2211.571107
 20
612.504287
 30
0.0
 11
2239.931232
 21
612.504287
 31
0.0
  0
LINE
  5
30E2
100
AcDbEntity
  8
0
100
AcDbLine
 10
2268.293044
 20
603.050912
 30
0.0
 11
2221.024482
 21
603.050912
 31
0.0
  0
LINE
  5
30E3
100
AcDbEntity
  8
0
100
AcDbLine
 10
2244.659607
 20
607.7776
 30
0.0
 11
2258.633794
 21
607.7776
 31
0.0
  0
LINE
  5
30E4
100
AcDbEntity
  8
0
100
AcDbLine
 10
2239.931232
 20
612.504287
 30
0.0
 11
2244.659607
 21
607.7776
 31
0.0
  0
LINE
  5
30E5
100
AcDbEntity
  8
0
100
AcDbLine
 10
2258.633794
 20
612.504287
 30
0.0
 11
2268.293044
 21
603.050912
 31
0.0
  0
LINE
  5
30E6
100
AcDbEntity
  8
0
100
AcDbLine
 10
2258.633794
 20
607.7776
 30
0.0
 11
2258.633794
 21
612.504287
 31
0.0
  0
ARC
  5
30E7
100
AcDbEntity
  8
0
100
AcDbCircle
 10
2346.160621
 20
615.320507
 30
0.0
 40
25.222161
100
AcDbArc
 50
241.506392
 51
270.2393
  0
LINE
  5
30EA
100
AcDbEntity
  8
0
100
AcDbLine
 10
2334.128119
 20
593.153498
 30
0.0
 11
2331.856599
 21
589.219109
 31
0.0
  0
LINE
  5
30EB
100
AcDbEntity
  8
0
100
AcDbLine
 10
2346.265963
 20
588.219109
 30
0.0
 11
2347.265963
 21
587.219109
 31
0.0
  0
ARC
  5
30EC
100
AcDbEntity
  8
0
100
AcDbCircle
 10
2349.54894
 20
591.009737
 30
0.0
 40
2.0
100
AcDbArc
 50
0.0
 51
90.0
  0
LINE
  5
30ED
100
AcDbEntity
  8
0
100
AcDbLine
 10
2351.54894
 20
591.009737
 30
0.0
 11
2351.54894
 21
588.219109
 31
0.0
  0
ARC
  5
30EE
100
AcDbEntity
  8
0
100
AcDbCircle
 10
2352.54894
 20
588.219109
 30
0.0
 40
1.0
100
AcDbArc
 50
180.0
 51
270.0
  0
LINE
  5
30EF
100
AcDbEntity
  8
0
100
AcDbLine
 10
2363.990878
 20
587.219109
 30
0.0
 11
2347.265963
 21
587.219109
 31
0.0
  0
LINE
  5
30F0
100
AcDbEntity
  8
0
100
AcDbLine
 10
2351.781846
 20
593.009737
 30
0.0
 11
2360.713472
 21
593.009737
 31
0.0
  0
ARC
  5
30F3
100
AcDbEntity
  8
0
100
AcDbCircle
 10
2346.160621
 20
609.117712
 30
0.0
 40
25.222161
100
AcDbArc
 50
89.7607
 51
118.493608
  0
LINE
  5
30F6
100
AcDbEntity
  8
0
100
AcDbLine
 10
2334.128119
 20
631.284721
 30
0.0
 11
2331.856599
 21
635.219109
 31
0.0
  0
LINE
  5
30F7
100
AcDbEntity
  8
0
100
AcDbLine
 10
2380.407452
 20
652.018607
 30
0.0
 11
2380.407452
 21
658.219109
 31
0.0
  0
LINE
  5
30F8
100
AcDbEntity
  8
0
100
AcDbLine
 10
2346.265963
 20
636.219109
 30
0.0
 11
2347.265963
 21
637.219109
 31
0.0
  0
ARC
  5
30F9
100
AcDbEntity
  8
0
100
AcDbCircle
 10
2352.54894
 20
636.219109
 30
0.0
 40
1.0
100
AcDbArc
 50
90.0
 51
180.0
  0
ARC
  5
30FA
100
AcDbEntity
  8
0
100
AcDbCircle
 10
2349.54894
 20
633.428482
 30
0.0
 40
2.0
100
AcDbArc
 50
270.0
 51
0.0
  0
LINE
  5
30FB
100
AcDbEntity
  8
0
100
AcDbLine
 10
2351.54894
 20
633.428482
 30
0.0
 11
2351.54894
 21
636.219109
 31
0.0
  0
LINE
  5
30FC
100
AcDbEntity
  8
0
100
AcDbLine
 10
2351.781846
 20
631.428482
 30
0.0
 11
2360.713472
 21
631.428482
 31
0.0
  0
LINE
  5
30FD
100
AcDbEntity
  8
0
100
AcDbLine
 10
2363.990878
 20
637.219109
 30
0.0
 11
2347.265963
 21
637.219109
 31
0.0
  0
ARC
  5
30FE
100
AcDbEntity
  8
0
100
AcDbCircle
 10
2371.265963
 20
909.653714
 30
0.0
 40
15.0
100
AcDbArc
 50
90.0
 51
180.0
  0
LINE
  5
3101
100
AcDbEntity
  8
0
100
AcDbLine
 10
2366.407452
 20
852.653714
 30
0.0
 11
2366.407452
 21
820.653714
 31
0.0
  0
LINE
  5
3102
100
AcDbEntity
  8
0
100
AcDbLine
 10
2351.407452
 20
852.653714
 30
0.0
 11
2351.407452
 21
820.653714
 31
0.0
  0
LINE
  5
3103
100
AcDbEntity
  8
0
100
AcDbLine
 10
2334.128119
 20
815.588102
 30
0.0
 11
2334.128119
 21
853.719325
 31
0.0
  0
LINE
  5
3104
100
AcDbEntity
  8
0
100
AcDbLine
 10
2331.856599
 20
811.653714
 30
0.0
 11
2331.856599
 21
857.653714
 31
0.0
  0
LINE
  5
3105
100
AcDbEntity
  8
0
100
AcDbLine
 10
2346.265963
 20
810.653714
 30
0.0
 11
2346.265963
 21
858.653714
 31
0.0
  0
ARC
  5
3106
100
AcDbEntity
  8
0
100
AcDbCircle
 10
2346.160621
 20
837.755111
 30
0.0
 40
25.222161
100
AcDbArc
 50
241.506392
 51
270.2393
  0
LINE
  5
3109
100
AcDbEntity
  8
0
100
AcDbLine
 10
2334.128119
 20
815.588102
 30
0.0
 11
2331.856599
 21
811.653714
 31
0.0
  0
LINE
  5
310A
100
AcDbEntity
  8
0
100
AcDbLine
 10
2366.407452
 20
820.653714
 30
0.0
 11
2351.407452
 21
820.653714
 31
0.0
  0
LINE
  5
310B
100
AcDbEntity
  8
0
100
AcDbLine
 10
2346.265963
 20
810.653714
 30
0.0
 11
2347.265963
 21
809.653714
 31
0.0
  0
ARC
  5
310C
100
AcDbEntity
  8
0
100
AcDbCircle
 10
2346.160621
 20
831.552316
 30
0.0
 40
25.222161
100
AcDbArc
 50
89.7607
 51
118.493608
  0
LINE
  5
310F
100
AcDbEntity
  8
0
100
AcDbLine
 10
2334.128119
 20
853.719325
 30
0.0
 11
2331.856599
 21
857.653714
 31
0.0
  0
LINE
  5
3110
100
AcDbEntity
  8
0
100
AcDbLine
 10
2380.407452
 20
858.153714
 30
0.0
 11
2380.407452
 21
879.153714
 31
0.0
  0
LINE
  5
3111
100
AcDbEntity
  8
0
100
AcDbLine
 10
2356.407452
 20
884.153714
 30
0.0
 11
2356.407452
 21
864.653714
 31
0.0
  0
ARC
  5
3112
100
AcDbEntity
  8
0
100
AcDbCircle
 10
2363.486071
 20
854.653714
 30
0.0
 40
5.0
100
AcDbArc
 50
29.40655
 51
90.0
  0
LINE
  5
3113
100
AcDbEntity
  8
0
100
AcDbLine
 10
2375.584329
 20
867.153714
 30
0.0
 11
2364.330377
 21
867.153714
 31
0.0
  0
LINE
  5
3114
100
AcDbEntity
  8
0
100
AcDbLine
 10
2366.407452
 20
852.653714
 30
0.0
 11
2351.407452
 21
852.653714
 31
0.0
  0
LINE
  5
3115
100
AcDbEntity
  8
0
100
AcDbLine
 10
2346.265963
 20
858.653714
 30
0.0
 11
2347.265963
 21
859.653714
 31
0.0
  0
LINE
  5
3116
100
AcDbEntity
  8
0
100
AcDbLine
 10
2351.407452
 20
859.653714
 30
0.0
 11
2347.265963
 21
859.653714
 31
0.0
  0
ARC
  5
3117
100
AcDbEntity
  8
0
100
AcDbCircle
 10
2351.407452
 20
864.653714
 30
0.0
 40
5.0
100
AcDbArc
 50
270.0
 51
0.0
  0
ARC
  5
3118
100
AcDbEntity
  8
0
100
AcDbCircle
 10
2383.407452
 20
858.153714
 30
0.0
 40
3.0
100
AcDbArc
 50
180.0
 51
270.0
  0
ARC
  5
3119
100
AcDbEntity
  8
0
100
AcDbCircle
 10
2380.407452
 20
837.653714
 30
0.0
 40
5.0
100
AcDbArc
 50
90.0
 51
135.596747
  0
LINE
  5
311A
100
AcDbEntity
  8
0
100
AcDbLine
 10
2367.841859
 20
857.10873
 30
0.0
 11
2374.861777
 21
844.653714
 31
0.0
  0
LINE
  5
311B
100
AcDbEntity
  8
0
100
AcDbLine
 10
2356.265963
 20
884.153714
 30
0.0
 11
2356.265963
 21
909.653714
 31
0.0
  0
ARC
  5
311C
100
AcDbEntity
  8
0
100
AcDbCircle
 10
2383.407452
 20
879.153714
 30
0.0
 40
3.0
100
AcDbArc
 50
90.0
 51
180.0
  0
LINE
  5
311D
100
AcDbEntity
  8
0
100
AcDbLine
 10
2594.017626
 20
454.467165
 30
0.0
 11
2654.017626
 21
454.467165
 31
0.0
  0
TEXT
  5
3122
100
AcDbEntity
  8
0
100
AcDbText
 10
2393.642577
 20
269.254576
 30
0.0
 40
20.0
  1
50A
 41
0.8
 11
2393.642577
 21
269.254576
 31
0.0
100
AcDbText
 73
     1
  0
LINE
  5
3124
100
AcDbEntity
  8
0
100
AcDbLine
 10
2470.958305
 20
387.467165
 30
0.0
 11
2487.999731
 21
392.665179
 31
0.0
  0
LINE
  5
3125
100
AcDbEntity
  8
0
100
AcDbLine
 10
2470.958305
 20
341.467165
 30
0.0
 11
2487.999731
 21
336.269152
 31
0.0
  0
LINE
  5
3126
100
AcDbEntity
  8
0
100
AcDbLine
 10
2446.265963
 20
413.967165
 30
0.0
 11
2446.265963
 21
394.467165
 31
0.0
  0
LINE
  5
3127
100
AcDbEntity
  8
0
100
AcDbLine
 10
2436.265963
 20
350.467165
 30
0.0
 11
2451.265963
 21
350.467165
 31
0.0
  0
LINE
  5
3128
100
AcDbEntity
  8
0
100
AcDbLine
 10
2436.265963
 20
382.467165
 30
0.0
 11
2451.265963
 21
382.467165
 31
0.0
  0
LINE
  5
3129
100
AcDbEntity
  8
0
100
AcDbLine
 10
2436.265963
 20
382.467165
 30
0.0
 11
2436.265963
 21
350.467165
 31
0.0
  0
ARC
  5
312A
100
AcDbEntity
  8
0
100
AcDbCircle
 10
2439.187344
 20
384.467165
 30
0.0
 40
5.0
100
AcDbArc
 50
90.0
 51
150.59345
  0
ARC
  5
312B
100
AcDbEntity
  8
0
100
AcDbCircle
 10
2422.265963
 20
367.467165
 30
0.0
 40
5.0
100
AcDbArc
 50
44.403253
 51
90.0
  0
LINE
  5
312C
100
AcDbEntity
  8
0
100
AcDbLine
 10
2434.831556
 20
386.922182
 30
0.0
 11
2427.811638
 21
374.467165
 31
0.0
  0
LINE
  5
312D
100
AcDbEntity
  8
0
100
AcDbLine
 10
2468.686784
 20
345.401554
 30
0.0
 11
2468.686784
 21
383.532777
 31
0.0
  0
LINE
  5
312E
100
AcDbEntity
  8
0
100
AcDbLine
 10
2470.958305
 20
341.467165
 30
0.0
 11
2470.958305
 21
387.467165
 31
0.0
  0
LINE
  5
312F
100
AcDbEntity
  8
0
100
AcDbLine
 10
2456.54894
 20
340.467165
 30
0.0
 11
2456.54894
 21
388.467165
 31
0.0
  0
LINE
  5
3130
100
AcDbEntity
  8
0
100
AcDbLine
 10
2451.265963
 20
382.467165
 30
0.0
 11
2451.265963
 21
350.467165
 31
0.0
  0
LINE
  5
3131
100
AcDbEntity
  8
0
100
AcDbLine
 10
2468.686784
 20
345.401554
 30
0.0
 11
2470.958305
 21
341.467165
 31
0.0
  0
ARC
  5
3132
100
AcDbEntity
  8
0
100
AcDbCircle
 10
2456.654282
 20
367.568563
 30
0.0
 40
25.222161
100
AcDbArc
 50
269.7607
 51
298.493608
  0
LINE
  5
3133
100
AcDbEntity
  8
0
100
AcDbLine
 10
2456.54894
 20
340.467165
 30
0.0
 11
2455.54894
 21
339.467165
 31
0.0
  0
LINE
  5
3134
100
AcDbEntity
  8
0
100
AcDbLine
 10
2468.686784
 20
383.532777
 30
0.0
 11
2470.958305
 21
387.467165
 31
0.0
  0
LINE
  5
3135
100
AcDbEntity
  8
0
100
AcDbLine
 10
2456.54894
 20
388.467165
 30
0.0
 11
2455.54894
 21
389.467165
 31
0.0
  0
ARC
  5
3136
100
AcDbEntity
  8
0
100
AcDbCircle
 10
2456.654282
 20
361.365768
 30
0.0
 40
25.222161
100
AcDbArc
 50
61.506392
 51
90.2393
  0
ARC
  5
3137
100
AcDbEntity
  8
0
100
AcDbCircle
 10
2451.265963
 20
394.467165
 30
0.0
 40
5.0
100
AcDbArc
 50
180.0
 51
270.0
  0
LINE
  5
3138
100
AcDbEntity
  8
0
100
AcDbLine
 10
2451.265963
 20
389.467165
 30
0.0
 11
2455.54894
 21
389.467165
 31
0.0
  0
ARC
  5
3139
100
AcDbEntity
  8
0
100
AcDbCircle
 10
2431.407452
 20
439.467165
 30
0.0
 40
15.0
100
AcDbArc
 50
0.0
 51
90.0
  0
CIRCLE
  5
313A
100
AcDbEntity
  8
0
100
AcDbCircle
 10
2401.407452
 20
418.967165
 30
0.0
 40
3.0
  0
LINE
  5
313B
100
AcDbEntity
  8
0
100
AcDbLine
 10
2446.407452
 20
413.967165
 30
0.0
 11
2446.407452
 21
439.467165
 31
0.0
  0
LINE
  5
3140
100
AcDbEntity
  8
0
100
AcDbLine
 10
2579.017626
 20
439.467165
 30
0.0
 11
2579.017626
 21
433.705622
 31
0.0
  0
ARC
  5
3142
100
AcDbEntity
  8
0
100
AcDbCircle
 10
2594.017626
 20
439.467165
 30
0.0
 40
15.0
100
AcDbArc
 50
90.0
 51
180.0
  0
LINE
  5
3144
100
AcDbEntity
  8
0
100
AcDbLine
 10
2669.017626
 20
433.521463
 30
0.0
 11
2669.017626
 21
439.467165
 31
0.0
  0
ARC
  5
3146
100
AcDbEntity
  8
0
100
AcDbCircle
 10
2654.017626
 20
439.467165
 30
0.0
 40
15.0
100
AcDbArc
 50
0.0
 51
90.0
  0
LINE
  5
3149
100
AcDbEntity
  8
0
100
AcDbLine
 10
2456.54894
 20
588.219109
 30
0.0
 11
2456.54894
 21
636.219109
 31
0.0
  0
LINE
  5
314A
100
AcDbEntity
  8
0
100
AcDbLine
 10
2468.686784
 20
593.153498
 30
0.0
 11
2468.686784
 21
631.284721
 31
0.0
  0
LINE
  5
314B
100
AcDbEntity
  8
0
100
AcDbLine
 10
2470.958305
 20
589.219109
 30
0.0
 11
2470.958305
 21
635.219109
 31
0.0
  0
LINE
  5
314F
100
AcDbEntity
  8
0
100
AcDbLine
 10
2451.033057
 20
593.009737
 30
0.0
 11
2442.101432
 21
593.009737
 31
0.0
  0
LINE
  5
3150
100
AcDbEntity
  8
0
100
AcDbLine
 10
2455.54894
 20
587.219109
 30
0.0
 11
2438.824026
 21
587.219109
 31
0.0
  0
LINE
  5
3151
100
AcDbEntity
  8
0
100
AcDbLine
 10
2468.686784
 20
593.153498
 30
0.0
 11
2470.958305
 21
589.219109
 31
0.0
  0
ARC
  5
3152
100
AcDbEntity
  8
0
100
AcDbCircle
 10
2456.654282
 20
615.320507
 30
0.0
 40
25.222161
100
AcDbArc
 50
269.7607
 51
298.493608
  0
LINE
  5
3153
100
AcDbEntity
  8
0
100
AcDbLine
 10
2456.54894
 20
588.219109
 30
0.0
 11
2455.54894
 21
587.219109
 31
0.0
  0
LINE
  5
3154
100
AcDbEntity
  8
0
100
AcDbLine
 10
2451.265963
 20
591.009737
 30
0.0
 11
2451.265963
 21
588.219109
 31
0.0
  0
ARC
  5
3155
100
AcDbEntity
  8
0
100
AcDbCircle
 10
2450.265963
 20
588.219109
 30
0.0
 40
1.0
100
AcDbArc
 50
270.0
 51
0.0
  0
ARC
  5
3156
100
AcDbEntity
  8
0
100
AcDbCircle
 10
2453.265963
 20
591.009737
 30
0.0
 40
2.0
100
AcDbArc
 50
90.0
 51
180.0
  0
LINE
  5
315B
100
AcDbEntity
  8
0
100
AcDbLine
 10
2451.033057
 20
631.428482
 30
0.0
 11
2442.101432
 21
631.428482
 31
0.0
  0
LINE
  5
315C
100
AcDbEntity
  8
0
100
AcDbLine
 10
2455.54894
 20
637.219109
 30
0.0
 11
2438.824026
 21
637.219109
 31
0.0
  0
LINE
  5
315D
100
AcDbEntity
  8
0
100
AcDbLine
 10
2422.407452
 20
652.018607
 30
0.0
 11
2422.407452
 21
658.219109
 31
0.0
  0
LINE
  5
315E
100
AcDbEntity
  8
0
100
AcDbLine
 10
2468.686784
 20
631.284721
 30
0.0
 11
2470.958305
 21
635.219109
 31
0.0
  0
LINE
  5
315F
100
AcDbEntity
  8
0
100
AcDbLine
 10
2456.54894
 20
636.219109
 30
0.0
 11
2455.54894
 21
637.219109
 31
0.0
  0
ARC
  5
3160
100
AcDbEntity
  8
0
100
AcDbCircle
 10
2456.654282
 20
609.117712
 30
0.0
 40
25.222161
100
AcDbArc
 50
61.506392
 51
90.2393
  0
ARC
  5
3161
100
AcDbEntity
  8
0
100
AcDbCircle
 10
2450.265963
 20
636.219109
 30
0.0
 40
1.0
100
AcDbArc
 50
0.0
 51
90.0
  0
LINE
  5
3162
100
AcDbEntity
  8
0
100
AcDbLine
 10
2451.265963
 20
633.428482
 30
0.0
 11
2451.265963
 21
636.219109
 31
0.0
  0
ARC
  5
3163
100
AcDbEntity
  8
0
100
AcDbCircle
 10
2453.265963
 20
633.428482
 30
0.0
 40
2.0
100
AcDbArc
 50
180.0
 51
270.0
  0
ARC
  5
3167
100
AcDbEntity
  8
0
100
AcDbCircle
 10
2431.265963
 20
909.653714
 30
0.0
 40
15.0
100
AcDbArc
 50
0.0
 51
90.0
  0
LINE
  5
316A
100
AcDbEntity
  8
0
100
AcDbLine
 10
2468.686784
 20
815.588102
 30
0.0
 11
2468.686784
 21
853.719325
 31
0.0
  0
LINE
  5
316B
100
AcDbEntity
  8
0
100
AcDbLine
 10
2470.958305
 20
811.653714
 30
0.0
 11
2470.958305
 21
857.653714
 31
0.0
  0
LINE
  5
316C
100
AcDbEntity
  8
0
100
AcDbLine
 10
2456.54894
 20
810.653714
 30
0.0
 11
2456.54894
 21
858.653714
 31
0.0
  0
LINE
  5
316D
100
AcDbEntity
  8
0
100
AcDbLine
 10
2451.407452
 20
852.653714
 30
0.0
 11
2451.407452
 21
820.653714
 31
0.0
  0
LINE
  5
316E
100
AcDbEntity
  8
0
100
AcDbLine
 10
2451.407452
 20
852.653714
 30
0.0
 11
2451.407452
 21
820.653714
 31
0.0
  0
LINE
  5
316F
100
AcDbEntity
  8
0
100
AcDbLine
 10
2436.407452
 20
852.653714
 30
0.0
 11
2436.407452
 21
820.653714
 31
0.0
  0
LINE
  5
3170
100
AcDbEntity
  8
0
100
AcDbLine
 10
2436.407452
 20
820.653714
 30
0.0
 11
2451.407452
 21
820.653714
 31
0.0
  0
LINE
  5
3171
100
AcDbEntity
  8
0
100
AcDbLine
 10
2468.686784
 20
815.588102
 30
0.0
 11
2470.958305
 21
811.653714
 31
0.0
  0
ARC
  5
3172
100
AcDbEntity
  8
0
100
AcDbCircle
 10
2456.654282
 20
837.755111
 30
0.0
 40
25.222161
100
AcDbArc
 50
269.7607
 51
298.493608
  0
LINE
  5
3173
100
AcDbEntity
  8
0
100
AcDbLine
 10
2456.54894
 20
810.653714
 30
0.0
 11
2455.54894
 21
809.653714
 31
0.0
  0
LINE
  5
3174
100
AcDbEntity
  8
0
100
AcDbLine
 10
2436.407452
 20
852.653714
 30
0.0
 11
2451.407452
 21
852.653714
 31
0.0
  0
LINE
  5
3175
100
AcDbEntity
  8
0
100
AcDbLine
 10
2422.407452
 20
858.153714
 30
0.0
 11
2422.407452
 21
879.153714
 31
0.0
  0
LINE
  5
3176
100
AcDbEntity
  8
0
100
AcDbLine
 10
2438.484527
 20
867.153714
 30
0.0
 11
2427.230574
 21
867.153714
 31
0.0
  0
ARC
  5
3177
100
AcDbEntity
  8
0
100
AcDbCircle
 10
2419.407452
 20
858.153714
 30
0.0
 40
3.0
100
AcDbArc
 50
270.0
 51
0.0
  0
ARC
  5
3178
100
AcDbEntity
  8
0
100
AcDbCircle
 10
2439.328832
 20
854.653714
 30
0.0
 40
5.0
100
AcDbArc
 50
90.0
 51
150.59345
  0
ARC
  5
3179
100
AcDbEntity
  8
0
100
AcDbCircle
 10
2422.407452
 20
837.653714
 30
0.0
 40
5.0
100
AcDbArc
 50
44.403253
 51
90.0
  0
LINE
  5
317A
100
AcDbEntity
  8
0
100
AcDbLine
 10
2434.973044
 20
857.10873
 30
0.0
 11
2427.953127
 21
844.653714
 31
0.0
  0
CIRCLE
  5
317B
100
AcDbEntity
  8
0
100
AcDbCircle
 10
2401.265963
 20
889.153714
 30
0.0
 40
3.0
  0
ARC
  5
317C
100
AcDbEntity
  8
0
100
AcDbCircle
 10
2419.407452
 20
879.153714
 30
0.0
 40
3.0
100
AcDbArc
 50
0.0
 51
90.0
  0
LINE
  5
317D
100
AcDbEntity
  8
0
100
AcDbLine
 10
2446.407452
 20
884.153714
 30
0.0
 11
2446.407452
 21
864.653714
 31
0.0
  0
LINE
  5
317E
100
AcDbEntity
  8
0
100
AcDbLine
 10
2468.686784
 20
853.719325
 30
0.0
 11
2470.958305
 21
857.653714
 31
0.0
  0
ARC
  5
317F
100
AcDbEntity
  8
0
100
AcDbCircle
 10
2456.654282
 20
831.552316
 30
0.0
 40
25.222161
100
AcDbArc
 50
61.506392
 51
90.2393
  0
LINE
  5
3180
100
AcDbEntity
  8
0
100
AcDbLine
 10
2456.54894
 20
858.653714
 30
0.0
 11
2455.54894
 21
859.653714
 31
0.0
  0
ARC
  5
3181
100
AcDbEntity
  8
0
100
AcDbCircle
 10
2451.407452
 20
864.653714
 30
0.0
 40
5.0
100
AcDbArc
 50
180.0
 51
270.0
  0
LINE
  5
3182
100
AcDbEntity
  8
0
100
AcDbLine
 10
2455.54894
 20
859.653714
 30
0.0
 11
2451.407452
 21
859.653714
 31
0.0
  0
LINE
  5
3183
100
AcDbEntity
  8
0
100
AcDbLine
 10
2446.265963
 20
909.653714
 30
0.0
 11
2446.265963
 21
884.153714
 31
0.0
  0
LINE
  5
3185
100
AcDbEntity
  8
0
100
AcDbLine
 10
2530.441894
 20
833.234829
 30
0.0
 11
2577.710457
 21
833.234829
 31
0.0
  0
LINE
  5
3186
100
AcDbEntity
  8
0
100
AcDbLine
 10
2558.803707
 20
842.688204
 30
0.0
 11
2554.075332
 21
837.961517
 31
0.0
  0
LINE
  5
3188
100
AcDbEntity
  8
0
100
AcDbLine
 10
2540.101144
 20
842.688204
 30
0.0
 11
2530.441894
 21
833.234829
 31
0.0
  0
LINE
  5
3189
100
AcDbEntity
  8
0
100
AcDbLine
 10
2540.101144
 20
837.961517
 30
0.0
 11
2540.101144
 21
842.688204
 31
0.0
  0
LINE
  5
318A
100
AcDbEntity
  8
0
100
AcDbLine
 10
2554.075332
 20
837.961517
 30
0.0
 11
2540.101144
 21
837.961517
 31
0.0
  0
LINE
  5
318B
100
AcDbEntity
  8
0
100
AcDbLine
 10
2587.163832
 20
842.688204
 30
0.0
 11
2558.803707
 21
842.688204
 31
0.0
  0
LINE
  5
318C
100
AcDbEntity
  8
0
100
AcDbLine
 10
2577.710457
 20
833.234829
 30
0.0
 11
2587.163832
 21
842.688204
 31
0.0
  0
LINE
  5
3195
100
AcDbEntity
  8
0
100
AcDbLine
 10
1972.523187
 20
1343.763541
 30
0.0
 11
2032.523187
 21
1343.763541
 31
0.0
  0
LINE
  5
3196
100
AcDbEntity
  8
0
100
AcDbLine
 10
1957.381699
 20
1303.263541
 30
0.0
 11
1968.473735
 21
1303.263541
 31
0.0
  0
LINE
  5
31A2
100
AcDbEntity
  8
0
100
AcDbLine
 10
1550.335292
 20
1292.286261
 30
0.0
 11
1550.335292
 21
1300.263541
 31
0.0
  0
LINE
  5
31A6
100
AcDbEntity
  8
0
100
AcDbLine
 10
1626.193803
 20
1343.763541
 30
0.0
 11
1566.193803
 21
1343.763541
 31
0.0
  0
LINE
  5
31A7
100
AcDbEntity
  8
0
100
AcDbLine
 10
1551.193803
 20
1303.263541
 30
0.0
 11
1551.193803
 21
1328.763541
 31
0.0
  0
LINE
  5
31A8
100
AcDbEntity
  8
0
100
AcDbLine
 10
1562.427328
 20
1303.263541
 30
0.0
 11
1551.193803
 21
1303.263541
 31
0.0
  0
LINE
  5
31A9
100
AcDbEntity
  8
0
100
AcDbLine
 10
1551.335292
 20
1303.263541
 30
0.0
 11
1551.335292
 21
1301.263541
 31
0.0
  0
LINE
  5
31AA
100
AcDbEntity
  8
0
100
AcDbLine
 10
1551.335292
 20
1301.263541
 30
0.0
 11
1556.591446
 21
1301.263541
 31
0.0
  0
ARC
  5
31AB
100
AcDbEntity
  8
0
100
AcDbCircle
 10
1551.335292
 20
1300.263541
 30
0.0
 40
1.0
100
AcDbArc
 50
90.0
 51
180.0
  0
ARC
  5
31AC
100
AcDbEntity
  8
0
100
AcDbCircle
 10
1556.591446
 20
1302.263541
 30
0.0
 40
1.0
100
AcDbArc
 50
270.0
 51
0.0
  0
ARC
  5
31AD
100
AcDbEntity
  8
0
100
AcDbCircle
 10
1562.606501
 20
1296.263541
 30
0.0
 40
10.0
100
AcDbArc
 50
180.0
 51
187.606974
  0
ARC
  5
31AE
100
AcDbEntity
  8
0
100
AcDbCircle
 10
1566.193803
 20
1328.763541
 30
0.0
 40
15.0
100
AcDbArc
 50
90.0
 51
180.0
  0
LINE
  5
31AF
100
AcDbEntity
  8
0
100
AcDbLine
 10
1641.193803
 20
1328.763541
 30
0.0
 11
1641.193803
 21
1303.263541
 31
0.0
  0
LINE
  5
31B0
100
AcDbEntity
  8
0
100
AcDbLine
 10
1641.335292
 20
1303.263541
 30
0.0
 11
1630.243255
 21
1303.263541
 31
0.0
  0
LINE
  5
31B1
100
AcDbEntity
  8
0
100
AcDbLine
 10
1641.335292
 20
1303.263541
 30
0.0
 11
1641.335292
 21
1296.263541
 31
0.0
  0
ARC
  5
31B2
100
AcDbEntity
  8
0
100
AcDbCircle
 10
1631.335292
 20
1296.263541
 30
0.0
 40
10.0
100
AcDbArc
 50
345.722318
 51
0.0
  0
ARC
  5
31B4
100
AcDbEntity
  8
0
100
AcDbCircle
 10
1626.193803
 20
1328.763541
 30
0.0
 40
15.0
100
AcDbArc
 50
0.0
 51
90.0
  0
LINE
  5
31B6
100
AcDbEntity
  8
0
100
AcDbLine
 10
1706.779105
 20
1257.312431
 30
0.0
 11
1716.438355
 21
1247.859056
 31
0.0
  0
LINE
  5
31B7
100
AcDbEntity
  8
0
100
AcDbLine
 10
1716.438355
 20
1247.859056
 30
0.0
 11
1669.169793
 21
1247.859056
 31
0.0
  0
LINE
  5
31B8
100
AcDbEntity
  8
0
100
AcDbLine
 10
1659.716418
 20
1257.312431
 30
0.0
 11
1688.076543
 21
1257.312431
 31
0.0
  0
LINE
  5
31B9
100
AcDbEntity
  8
0
100
AcDbLine
 10
1669.169793
 20
1247.859056
 30
0.0
 11
1659.716418
 21
1257.312431
 31
0.0
  0
LINE
  5
31BA
100
AcDbEntity
  8
0
100
AcDbLine
 10
1706.779105
 20
1252.585743
 30
0.0
 11
1706.779105
 21
1257.312431
 31
0.0
  0
LINE
  5
31BB
100
AcDbEntity
  8
0
100
AcDbLine
 10
1688.076543
 20
1257.312431
 30
0.0
 11
1692.804918
 21
1252.585743
 31
0.0
  0
LINE
  5
31BC
100
AcDbEntity
  8
0
100
AcDbLine
 10
1692.804918
 20
1252.585743
 30
0.0
 11
1706.779105
 21
1252.585743
 31
0.0
  0
TEXT
  5
31C6
100
AcDbEntity
  8
0
100
AcDbText
 10
1803.630578
 20
1186.580885
 30
0.0
 40
20.0
  1
20A
 41
0.8
 11
1803.630578
 21
1186.580885
 31
0.0
100
AcDbText
 73
     1
  0
ARC
  5
31C8
100
AcDbEntity
  8
0
100
AcDbCircle
 10
1856.789275
 20
1328.763541
 30
0.0
 40
15.0
100
AcDbArc
 50
0.0
 51
90.0
  0
ARC
  5
31C9
100
AcDbEntity
  8
0
100
AcDbCircle
 10
1876.647787
 20
1283.763541
 30
0.0
 40
5.0
100
AcDbArc
 50
180.0
 51
270.0
  0
LINE
  5
31CA
100
AcDbEntity
  8
0
100
AcDbLine
 10
1861.647787
 20
1239.763541
 30
0.0
 11
1876.647787
 21
1239.763541
 31
0.0
  0
LINE
  5
31CB
100
AcDbEntity
  8
0
100
AcDbLine
 10
1861.647787
 20
1271.763541
 30
0.0
 11
1876.647787
 21
1271.763541
 31
0.0
  0
LINE
  5
31CC
100
AcDbEntity
  8
0
100
AcDbLine
 10
1772.647787
 20
1228.763541
 30
0.0
 11
1880.930763
 21
1228.763541
 31
0.0
  0
LINE
  5
31CD
100
AcDbEntity
  8
0
100
AcDbLine
 10
1871.647787
 20
1303.263541
 30
0.0
 11
1871.647787
 21
1283.763541
 31
0.0
  0
LINE
  5
31CE
100
AcDbEntity
  8
0
100
AcDbLine
 10
1781.647787
 20
1303.263541
 30
0.0
 11
1781.647787
 21
1283.763541
 31
0.0
  0
LINE
  5
31CF
100
AcDbEntity
  8
0
100
AcDbLine
 10
1805.647787
 20
1261.763541
 30
0.0
 11
1847.647787
 21
1261.763541
 31
0.0
  0
LINE
  5
31D0
100
AcDbEntity
  8
0
100
AcDbLine
 10
1791.647787
 20
1271.763541
 30
0.0
 11
1791.647787
 21
1239.763541
 31
0.0
  0
LINE
  5
31D1
100
AcDbEntity
  8
0
100
AcDbLine
 10
1776.647787
 20
1271.763541
 30
0.0
 11
1776.647787
 21
1239.763541
 31
0.0
  0
LINE
  5
31D2
100
AcDbEntity
  8
0
100
AcDbLine
 10
1776.647787
 20
1271.763541
 30
0.0
 11
1776.647787
 21
1239.763541
 31
0.0
  0
LINE
  5
31D3
100
AcDbEntity
  8
0
100
AcDbLine
 10
1771.647787
 20
1229.763541
 30
0.0
 11
1771.647787
 21
1277.763541
 31
0.0
  0
LINE
  5
31D4
100
AcDbEntity
  8
0
100
AcDbLine
 10
1771.647787
 20
1229.763541
 30
0.0
 11
1772.647787
 21
1228.763541
 31
0.0
  0
LINE
  5
31D5
100
AcDbEntity
  8
0
100
AcDbLine
 10
1791.647787
 20
1239.763541
 30
0.0
 11
1776.647787
 21
1239.763541
 31
0.0
  0
LINE
  5
31D6
100
AcDbEntity
  8
0
100
AcDbLine
 10
1793.082194
 20
1276.218558
 30
0.0
 11
1800.102112
 21
1263.763541
 31
0.0
  0
ARC
  5
31D7
100
AcDbEntity
  8
0
100
AcDbCircle
 10
1788.726406
 20
1273.763541
 30
0.0
 40
5.0
100
AcDbArc
 50
29.40655
 51
90.0
  0
LINE
  5
31D8
100
AcDbEntity
  8
0
100
AcDbLine
 10
1772.647787
 20
1278.763541
 30
0.0
 11
1776.647787
 21
1278.763541
 31
0.0
  0
LINE
  5
31D9
100
AcDbEntity
  8
0
100
AcDbLine
 10
1771.647787
 20
1277.763541
 30
0.0
 11
1772.647787
 21
1278.763541
 31
0.0
  0
ARC
  5
31DA
100
AcDbEntity
  8
0
100
AcDbCircle
 10
1776.647787
 20
1283.763541
 30
0.0
 40
5.0
100
AcDbArc
 50
270.0
 51
0.0
  0
LINE
  5
31DB
100
AcDbEntity
  8
0
100
AcDbLine
 10
1791.647787
 20
1271.763541
 30
0.0
 11
1776.647787
 21
1271.763541
 31
0.0
  0
ARC
  5
31DC
100
AcDbEntity
  8
0
100
AcDbCircle
 10
1805.647787
 20
1256.763541
 30
0.0
 40
5.0
100
AcDbArc
 50
90.0
 51
135.596747
  0
LINE
  5
31DD
100
AcDbEntity
  8
0
100
AcDbLine
 10
1861.647787
 20
1271.763541
 30
0.0
 11
1861.647787
 21
1239.763541
 31
0.0
  0
ARC
  5
31DE
100
AcDbEntity
  8
0
100
AcDbCircle
 10
1864.569167
 20
1273.763541
 30
0.0
 40
5.0
100
AcDbArc
 50
90.0
 51
150.59345
  0
ARC
  5
31DF
100
AcDbEntity
  8
0
100
AcDbCircle
 10
1847.647787
 20
1256.763541
 30
0.0
 40
5.0
100
AcDbArc
 50
44.403253
 51
90.0
  0
LINE
  5
31E0
100
AcDbEntity
  8
0
100
AcDbLine
 10
1860.213379
 20
1276.218558
 30
0.0
 11
1853.193462
 21
1263.763541
 31
0.0
  0
LINE
  5
31E1
100
AcDbEntity
  8
0
100
AcDbLine
 10
1796.789275
 20
1343.763541
 30
0.0
 11
1856.789275
 21
1343.763541
 31
0.0
  0
LINE
  5
31E2
100
AcDbEntity
  8
0
100
AcDbLine
 10
1781.789275
 20
1303.263541
 30
0.0
 11
1871.789275
 21
1303.263541
 31
0.0
  0
LINE
  5
31E3
100
AcDbEntity
  8
0
100
AcDbLine
 10
1781.647787
 20
1303.263541
 30
0.0
 11
1871.647787
 21
1303.263541
 31
0.0
  0
LINE
  5
31E4
100
AcDbEntity
  8
0
100
AcDbLine
 10
1789.570712
 20
1286.263541
 30
0.0
 11
1863.724862
 21
1286.263541
 31
0.0
  0
LINE
  5
31E5
100
AcDbEntity
  8
0
100
AcDbLine
 10
1781.789275
 20
1328.763541
 30
0.0
 11
1781.789275
 21
1303.263541
 31
0.0
  0
ARC
  5
31E6
100
AcDbEntity
  8
0
100
AcDbCircle
 10
1796.789275
 20
1328.763541
 30
0.0
 40
15.0
100
AcDbArc
 50
90.0
 51
180.0
  0
LINE
  5
31E7
100
AcDbEntity
  8
0
100
AcDbLine
 10
1871.789275
 20
1303.263541
 30
0.0
 11
1871.789275
 21
1328.763541
 31
0.0
  0
CIRCLE
  5
31E8
100
AcDbEntity
  8
0
100
AcDbCircle
 10
1826.789275
 20
1308.263541
 30
0.0
 40
3.0
  0
LINE
  5
31EB
100
AcDbEntity
  8
0
100
AcDbLine
 10
1881.930763
 20
1229.763541
 30
0.0
 11
1881.930763
 21
1277.763541
 31
0.0
  0
LINE
  5
31EC
100
AcDbEntity
  8
0
100
AcDbLine
 10
1876.647787
 20
1271.763541
 30
0.0
 11
1876.647787
 21
1239.763541
 31
0.0
  0
LINE
  5
31EF
100
AcDbEntity
  8
0
100
AcDbLine
 10
1881.930763
 20
1229.763541
 30
0.0
 11
1880.930763
 21
1228.763541
 31
0.0
  0
LINE
  5
31F2
100
AcDbEntity
  8
0
100
AcDbLine
 10
1881.930763
 20
1277.763541
 30
0.0
 11
1880.930763
 21
1278.763541
 31
0.0
  0
LINE
  5
31F4
100
AcDbEntity
  8
0
100
AcDbLine
 10
1876.647787
 20
1278.763541
 30
0.0
 11
1880.930763
 21
1278.763541
 31
0.0
  0
LINE
  5
31F8
100
AcDbEntity
  8
0
100
AcDbLine
 10
1957.523187
 20
1328.763541
 30
0.0
 11
1957.523187
 21
1303.263541
 31
0.0
  0
LINE
  5
31FA
100
AcDbEntity
  8
0
100
AcDbLine
 10
1957.381699
 20
1303.263541
 30
0.0
 11
1957.381699
 21
1296.263541
 31
0.0
  0
ARC
  5
31FB
100
AcDbEntity
  8
0
100
AcDbCircle
 10
1967.381699
 20
1296.263541
 30
0.0
 40
10.0
100
AcDbArc
 50
180.0
 51
194.277682
  0
ARC
  5
31FC
100
AcDbEntity
  8
0
100
AcDbCircle
 10
1972.523187
 20
1328.763541
 30
0.0
 40
15.0
100
AcDbArc
 50
90.0
 51
180.0
  0
LINE
  5
3202
100
AcDbEntity
  8
0
100
AcDbLine
 10
1710.153215
 20
1506.440174
 30
0.0
 11
1719.812465
 21
1496.986799
 31
0.0
  0
LINE
  5
3203
100
AcDbEntity
  8
0
100
AcDbLine
 10
1719.812465
 20
1496.986799
 30
0.0
 11
1672.543902
 21
1496.986799
 31
0.0
  0
LINE
  5
3204
100
AcDbEntity
  8
0
100
AcDbLine
 10
1663.090527
 20
1506.440174
 30
0.0
 11
1691.450652
 21
1506.440174
 31
0.0
  0
LINE
  5
3205
100
AcDbEntity
  8
0
100
AcDbLine
 10
1672.543902
 20
1496.986799
 30
0.0
 11
1663.090527
 21
1506.440174
 31
0.0
  0
LINE
  5
3206
100
AcDbEntity
  8
0
100
AcDbLine
 10
1710.153215
 20
1501.713486
 30
0.0
 11
1710.153215
 21
1506.440174
 31
0.0
  0
LINE
  5
3207
100
AcDbEntity
  8
0
100
AcDbLine
 10
1691.450652
 20
1506.440174
 30
0.0
 11
1696.179027
 21
1501.713486
 31
0.0
  0
LINE
  5
3208
100
AcDbEntity
  8
0
100
AcDbLine
 10
1696.179027
 20
1501.713486
 30
0.0
 11
1710.153215
 21
1501.713486
 31
0.0
  0
LINE
  5
3211
100
AcDbEntity
  8
0
100
AcDbLine
 10
1881.930763
 20
1477.515485
 30
0.0
 11
1881.930763
 21
1525.515485
 31
0.0
  0
LINE
  5
3215
100
AcDbEntity
  8
0
100
AcDbLine
 10
1771.647787
 20
1477.515485
 30
0.0
 11
1771.647787
 21
1525.515485
 31
0.0
  0
CIRCLE
  5
3216
100
AcDbEntity
  8
0
100
AcDbCircle
 10
1826.789275
 20
1501.515485
 30
0.0
 40
45.0
  0
LINE
  5
3217
100
AcDbEntity
  8
0
100
AcDbLine
 10
1876.41488
 20
1482.306112
 30
0.0
 11
1867.483255
 21
1482.306112
 31
0.0
  0
LINE
  5
3218
100
AcDbEntity
  8
0
100
AcDbLine
 10
1880.930763
 20
1476.515485
 30
0.0
 11
1864.205849
 21
1476.515485
 31
0.0
  0
LINE
  5
3219
100
AcDbEntity
  8
0
100
AcDbLine
 10
1771.647787
 20
1477.515485
 30
0.0
 11
1772.647787
 21
1476.515485
 31
0.0
  0
LINE
  5
321A
100
AcDbEntity
  8
0
100
AcDbLine
 10
1777.16367
 20
1482.306112
 30
0.0
 11
1786.095295
 21
1482.306112
 31
0.0
  0
ARC
  5
321B
100
AcDbEntity
  8
0
100
AcDbCircle
 10
1777.930763
 20
1477.515485
 30
0.0
 40
1.0
100
AcDbArc
 50
180.0
 51
270.0
  0
LINE
  5
321C
100
AcDbEntity
  8
0
100
AcDbLine
 10
1776.930763
 20
1480.306112
 30
0.0
 11
1776.930763
 21
1477.515485
 31
0.0
  0
ARC
  5
321D
100
AcDbEntity
  8
0
100
AcDbCircle
 10
1774.930763
 20
1480.306112
 30
0.0
 40
2.0
100
AcDbArc
 50
0.0
 51
90.0
  0
LINE
  5
321E
100
AcDbEntity
  8
0
100
AcDbLine
 10
1789.372701
 20
1476.515485
 30
0.0
 11
1772.647787
 21
1476.515485
 31
0.0
  0
LINE
  5
3222
100
AcDbEntity
  8
0
100
AcDbLine
 10
1881.930763
 20
1477.515485
 30
0.0
 11
1880.930763
 21
1476.515485
 31
0.0
  0
LINE
  5
3224
100
AcDbEntity
  8
0
100
AcDbLine
 10
1876.647787
 20
1480.306112
 30
0.0
 11
1876.647787
 21
1477.515485
 31
0.0
  0
ARC
  5
3225
100
AcDbEntity
  8
0
100
AcDbCircle
 10
1875.647787
 20
1477.515485
 30
0.0
 40
1.0
100
AcDbArc
 50
270.0
 51
0.0
  0
ARC
  5
3226
100
AcDbEntity
  8
0
100
AcDbCircle
 10
1878.647787
 20
1480.306112
 30
0.0
 40
2.0
100
AcDbArc
 50
90.0
 51
180.0
  0
LINE
  5
3229
100
AcDbEntity
  8
0
100
AcDbLine
 10
1876.41488
 20
1520.724858
 30
0.0
 11
1867.483255
 21
1520.724858
 31
0.0
  0
LINE
  5
322A
100
AcDbEntity
  8
0
100
AcDbLine
 10
1880.930763
 20
1526.515485
 30
0.0
 11
1864.205849
 21
1526.515485
 31
0.0
  0
LINE
  5
322B
100
AcDbEntity
  8
0
100
AcDbLine
 10
1847.789275
 20
1547.515485
 30
0.0
 11
1805.789275
 21
1547.515485
 31
0.0
  0
LINE
  5
322C
100
AcDbEntity
  8
0
100
AcDbLine
 10
1805.789275
 20
1541.314982
 30
0.0
 11
1805.789275
 21
1547.515485
 31
0.0
  0
LINE
  5
322D
100
AcDbEntity
  8
0
100
AcDbLine
 10
1771.647787
 20
1525.515485
 30
0.0
 11
1772.647787
 21
1526.515485
 31
0.0
  0
LINE
  5
322E
100
AcDbEntity
  8
0
100
AcDbLine
 10
1777.16367
 20
1520.724858
 30
0.0
 11
1786.095295
 21
1520.724858
 31
0.0
  0
ARC
  5
322F
100
AcDbEntity
  8
0
100
AcDbCircle
 10
1777.930763
 20
1525.515485
 30
0.0
 40
1.0
100
AcDbArc
 50
90.0
 51
180.0
  0
LINE
  5
3230
100
AcDbEntity
  8
0
100
AcDbLine
 10
1776.930763
 20
1522.724858
 30
0.0
 11
1776.930763
 21
1525.515485
 31
0.0
  0
ARC
  5
3231
100
AcDbEntity
  8
0
100
AcDbCircle
 10
1774.930763
 20
1522.724858
 30
0.0
 40
2.0
100
AcDbArc
 50
270.0
 51
0.0
  0
LINE
  5
3232
100
AcDbEntity
  8
0
100
AcDbLine
 10
1789.372701
 20
1526.515485
 30
0.0
 11
1772.647787
 21
1526.515485
 31
0.0
  0
LINE
  5
3233
100
AcDbEntity
  8
0
100
AcDbLine
 10
1847.789275
 20
1541.314982
 30
0.0
 11
1847.789275
 21
1547.515485
 31
0.0
  0
LINE
  5
3235
100
AcDbEntity
  8
0
100
AcDbLine
 10
1881.930763
 20
1525.515485
 30
0.0
 11
1880.930763
 21
1526.515485
 31
0.0
  0
LINE
  5
3237
100
AcDbEntity
  8
0
100
AcDbLine
 10
1876.647787
 20
1522.724858
 30
0.0
 11
1876.647787
 21
1525.515485
 31
0.0
  0
ARC
  5
3238
100
AcDbEntity
  8
0
100
AcDbCircle
 10
1875.647787
 20
1525.515485
 30
0.0
 40
1.0
100
AcDbArc
 50
0.0
 51
90.0
  0
ARC
  5
3239
100
AcDbEntity
  8
0
100
AcDbCircle
 10
1878.647787
 20
1522.724858
 30
0.0
 40
2.0
100
AcDbArc
 50
180.0
 51
270.0
  0
ARC
  5
323C
100
AcDbEntity
  8
0
100
AcDbCircle
 10
2283.252342
 20
1328.763541
 30
0.0
 40
15.0
100
AcDbArc
 50
90.0
 51
180.0
  0
LINE
  5
3240
100
AcDbEntity
  8
0
100
AcDbLine
 10
2048.381699
 20
1292.286261
 30
0.0
 11
2048.381699
 21
1300.263541
 31
0.0
  0
LINE
  5
3244
100
AcDbEntity
  8
0
100
AcDbLine
 10
2036.289662
 20
1303.263541
 30
0.0
 11
2047.523187
 21
1303.263541
 31
0.0
  0
LINE
  5
3245
100
AcDbEntity
  8
0
100
AcDbLine
 10
2047.523187
 20
1303.263541
 30
0.0
 11
2047.523187
 21
1328.763541
 31
0.0
  0
LINE
  5
3246
100
AcDbEntity
  8
0
100
AcDbLine
 10
2047.381699
 20
1303.263541
 30
0.0
 11
2047.381699
 21
1301.263541
 31
0.0
  0
ARC
  5
3247
100
AcDbEntity
  8
0
100
AcDbCircle
 10
2036.110489
 20
1296.263541
 30
0.0
 40
10.0
100
AcDbArc
 50
352.393026
 51
0.0
  0
LINE
  5
3248
100
AcDbEntity
  8
0
100
AcDbLine
 10
2047.381699
 20
1301.263541
 30
0.0
 11
2042.125544
 21
1301.263541
 31
0.0
  0
ARC
  5
3249
100
AcDbEntity
  8
0
100
AcDbCircle
 10
2047.381699
 20
1300.263541
 30
0.0
 40
1.0
100
AcDbArc
 50
0.0
 51
90.0
  0
ARC
  5
324A
100
AcDbEntity
  8
0
100
AcDbCircle
 10
2042.125544
 20
1302.263541
 30
0.0
 40
1.0
100
AcDbArc
 50
180.0
 51
270.0
  0
ARC
  5
324B
100
AcDbEntity
  8
0
100
AcDbCircle
 10
2032.523187
 20
1328.763541
 30
0.0
 40
15.0
100
AcDbArc
 50
0.0
 51
90.0
  0
LINE
  5
324C
100
AcDbEntity
  8
0
100
AcDbLine
 10
2268.252342
 20
1303.263541
 30
0.0
 11
2268.252342
 21
1328.763541
 31
0.0
  0
LINE
  5
324D
100
AcDbEntity
  8
0
100
AcDbLine
 10
2268.39383
 20
1303.263541
 30
0.0
 11
2268.39383
 21
1301.263541
 31
0.0
  0
ARC
  5
324E
100
AcDbEntity
  8
0
100
AcDbCircle
 10
2268.39383
 20
1300.263541
 30
0.0
 40
1.0
100
AcDbArc
 50
90.0
 51
180.0
  0
LINE
  5
324F
100
AcDbEntity
  8
0
100
AcDbLine
 10
2267.39383
 20
1299.687391
 30
0.0
 11
2267.39383
 21
1300.263541
 31
0.0
  0
LINE
  5
3250
100
AcDbEntity
  8
0
100
AcDbLine
 10
2268.39383
 20
1301.263541
 30
0.0
 11
2269.023232
 21
1301.263541
 31
0.0
  0
LINE
  5
3251
100
AcDbEntity
  8
0
100
AcDbLine
 10
2271.266048
 20
1303.263541
 30
0.0
 11
2268.252342
 21
1303.263541
 31
0.0
  0
LINE
  5
3252
100
AcDbEntity
  8
0
100
AcDbLine
 10
2457.086139
 20
1191.263541
 30
0.0
 11
2457.086139
 21
1253.763541
 31
0.0
  0
LINE
  5
3257
100
AcDbEntity
  8
0
100
AcDbLine
 10
2343.252342
 20
1343.763541
 30
0.0
 11
2283.252342
 21
1343.763541
 31
0.0
  0
LINE
  5
3258
100
AcDbEntity
  8
0
100
AcDbLine
 10
2358.252342
 20
1328.763541
 30
0.0
 11
2358.252342
 21
1303.263541
 31
0.0
  0
LINE
  5
3259
100
AcDbEntity
  8
0
100
AcDbLine
 10
2358.39383
 20
1303.263541
 30
0.0
 11
2355.521612
 21
1303.263541
 31
0.0
  0
LINE
  5
325A
100
AcDbEntity
  8
0
100
AcDbLine
 10
2358.39383
 20
1303.263541
 30
0.0
 11
2358.39383
 21
1300.667698
 31
0.0
  0
ARC
  5
325B
100
AcDbEntity
  8
0
100
AcDbCircle
 10
2343.252342
 20
1328.763541
 30
0.0
 40
15.0
100
AcDbArc
 50
0.0
 51
90.0
  0
LINE
  5
325D
100
AcDbEntity
  8
0
100
AcDbLine
 10
2442.13527
 20
1247.859056
 30
0.0
 11
2394.866708
 21
1247.859056
 31
0.0
  0
LINE
  5
325E
100
AcDbEntity
  8
0
100
AcDbLine
 10
2385.413333
 20
1257.312431
 30
0.0
 11
2413.773458
 21
1257.312431
 31
0.0
  0
LINE
  5
325F
100
AcDbEntity
  8
0
100
AcDbLine
 10
2394.866708
 20
1247.859056
 30
0.0
 11
2385.413333
 21
1257.312431
 31
0.0
  0
LINE
  5
3260
100
AcDbEntity
  8
0
100
AcDbLine
 10
2432.47602
 20
1257.312431
 30
0.0
 11
2442.13527
 21
1247.859056
 31
0.0
  0
LINE
  5
3261
100
AcDbEntity
  8
0
100
AcDbLine
 10
2432.47602
 20
1252.585743
 30
0.0
 11
2432.47602
 21
1257.312431
 31
0.0
  0
LINE
  5
3262
100
AcDbEntity
  8
0
100
AcDbLine
 10
2413.773458
 20
1257.312431
 30
0.0
 11
2418.501833
 21
1252.585743
 31
0.0
  0
LINE
  5
3263
100
AcDbEntity
  8
0
100
AcDbLine
 10
2418.501833
 20
1252.585743
 30
0.0
 11
2432.47602
 21
1252.585743
 31
0.0
  0
LINE
  5
3269
100
AcDbEntity
  8
0
100
AcDbLine
 10
2441.037083
 20
1494.568065
 30
0.0
 11
2393.768521
 21
1494.568065
 31
0.0
  0
LINE
  5
326A
100
AcDbEntity
  8
0
100
AcDbLine
 10
2384.315146
 20
1504.02144
 30
0.0
 11
2412.675271
 21
1504.02144
 31
0.0
  0
LINE
  5
326B
100
AcDbEntity
  8
0
100
AcDbLine
 10
2393.768521
 20
1494.568065
 30
0.0
 11
2384.315146
 21
1504.02144
 31
0.0
  0
LINE
  5
326C
100
AcDbEntity
  8
0
100
AcDbLine
 10
2431.377833
 20
1504.02144
 30
0.0
 11
2441.037083
 21
1494.568065
 31
0.0
  0
LINE
  5
326D
100
AcDbEntity
  8
0
100
AcDbLine
 10
2431.377833
 20
1499.294753
 30
0.0
 11
2431.377833
 21
1504.02144
 31
0.0
  0
LINE
  5
326E
100
AcDbEntity
  8
0
100
AcDbLine
 10
2412.675271
 20
1504.02144
 30
0.0
 11
2417.403646
 21
1499.294753
 31
0.0
  0
LINE
  5
326F
100
AcDbEntity
  8
0
100
AcDbLine
 10
2417.403646
 20
1499.294753
 30
0.0
 11
2431.377833
 21
1499.294753
 31
0.0
  0
LINE
  5
3270
100
AcDbEntity
  8
0
100
AcDbLine
 10
2457.086139
 20
1439.015485
 30
0.0
 11
2457.086139
 21
1501.515485
 31
0.0
  0
ARC
  5
3282
100
AcDbEntity
  8
0
100
AcDbCircle
 10
1856.647787
 20
1798.950089
 30
0.0
 40
15.0
100
AcDbArc
 50
0.0
 51
90.0
  0
ARC
  5
3283
100
AcDbEntity
  8
0
100
AcDbCircle
 10
1796.647787
 20
1798.950089
 30
0.0
 40
15.0
100
AcDbArc
 50
90.0
 51
180.0
  0
ARC
  5
3284
100
AcDbEntity
  8
0
100
AcDbCircle
 10
1876.789275
 20
1753.950089
 30
0.0
 40
5.0
100
AcDbArc
 50
180.0
 51
270.0
  0
LINE
  5
3285
100
AcDbEntity
  8
0
100
AcDbLine
 10
1861.789275
 20
1709.950089
 30
0.0
 11
1876.789275
 21
1709.950089
 31
0.0
  0
LINE
  5
3286
100
AcDbEntity
  8
0
100
AcDbLine
 10
1861.789275
 20
1741.950089
 30
0.0
 11
1876.789275
 21
1741.950089
 31
0.0
  0
LINE
  5
3287
100
AcDbEntity
  8
0
100
AcDbLine
 10
1880.930763
 20
1698.950089
 30
0.0
 11
1772.647787
 21
1698.950089
 31
0.0
  0
LINE
  5
3288
100
AcDbEntity
  8
0
100
AcDbLine
 10
1861.789275
 20
1741.950089
 30
0.0
 11
1861.789275
 21
1709.950089
 31
0.0
  0
LINE
  5
3289
100
AcDbEntity
  8
0
100
AcDbLine
 10
1791.789275
 20
1741.950089
 30
0.0
 11
1791.789275
 21
1709.950089
 31
0.0
  0
LINE
  5
328A
100
AcDbEntity
  8
0
100
AcDbLine
 10
1776.789275
 20
1741.950089
 30
0.0
 11
1776.789275
 21
1709.950089
 31
0.0
  0
LINE
  5
328B
100
AcDbEntity
  8
0
100
AcDbLine
 10
1771.647787
 20
1699.950089
 30
0.0
 11
1771.647787
 21
1747.950089
 31
0.0
  0
LINE
  5
328C
100
AcDbEntity
  8
0
100
AcDbLine
 10
1791.789275
 20
1709.950089
 30
0.0
 11
1776.789275
 21
1709.950089
 31
0.0
  0
LINE
  5
328D
100
AcDbEntity
  8
0
100
AcDbLine
 10
1771.647787
 20
1699.950089
 30
0.0
 11
1772.647787
 21
1698.950089
 31
0.0
  0
LINE
  5
328E
100
AcDbEntity
  8
0
100
AcDbLine
 10
1808.789275
 20
1771.450089
 30
0.0
 11
1844.789275
 21
1771.450089
 31
0.0
  0
LINE
  5
328F
100
AcDbEntity
  8
0
100
AcDbLine
 10
1808.789275
 20
1744.450089
 30
0.0
 11
1844.789275
 21
1744.450089
 31
0.0
  0
LINE
  5
3290
100
AcDbEntity
  8
0
100
AcDbLine
 10
1871.647787
 20
1773.450089
 30
0.0
 11
1781.647787
 21
1773.450089
 31
0.0
  0
LINE
  5
3291
100
AcDbEntity
  8
0
100
AcDbLine
 10
1871.789275
 20
1773.450089
 30
0.0
 11
1781.789275
 21
1773.450089
 31
0.0
  0
LINE
  5
3292
100
AcDbEntity
  8
0
100
AcDbLine
 10
1847.789275
 20
1731.950089
 30
0.0
 11
1805.789275
 21
1731.950089
 31
0.0
  0
LINE
  5
3293
100
AcDbEntity
  8
0
100
AcDbLine
 10
1805.789275
 20
1747.450089
 30
0.0
 11
1805.789275
 21
1768.450089
 31
0.0
  0
LINE
  5
3294
100
AcDbEntity
  8
0
100
AcDbLine
 10
1781.789275
 20
1773.450089
 30
0.0
 11
1781.789275
 21
1753.950089
 31
0.0
  0
LINE
  5
3295
100
AcDbEntity
  8
0
100
AcDbLine
 10
1800.966152
 20
1756.450089
 30
0.0
 11
1789.7122
 21
1756.450089
 31
0.0
  0
LINE
  5
3296
100
AcDbEntity
  8
0
100
AcDbLine
 10
1793.223683
 20
1746.405106
 30
0.0
 11
1800.2436
 21
1733.950089
 31
0.0
  0
ARC
  5
3297
100
AcDbEntity
  8
0
100
AcDbCircle
 10
1776.789275
 20
1753.950089
 30
0.0
 40
5.0
100
AcDbArc
 50
270.0
 51
0.0
  0
LINE
  5
3298
100
AcDbEntity
  8
0
100
AcDbLine
 10
1771.647787
 20
1747.950089
 30
0.0
 11
1772.647787
 21
1748.950089
 31
0.0
  0
LINE
  5
3299
100
AcDbEntity
  8
0
100
AcDbLine
 10
1776.789275
 20
1748.950089
 30
0.0
 11
1772.647787
 21
1748.950089
 31
0.0
  0
ARC
  5
329A
100
AcDbEntity
  8
0
100
AcDbCircle
 10
1788.867894
 20
1743.950089
 30
0.0
 40
5.0
100
AcDbArc
 50
29.40655
 51
90.0
  0
LINE
  5
329B
100
AcDbEntity
  8
0
100
AcDbLine
 10
1791.789275
 20
1741.950089
 30
0.0
 11
1776.789275
 21
1741.950089
 31
0.0
  0
ARC
  5
329C
100
AcDbEntity
  8
0
100
AcDbCircle
 10
1808.789275
 20
1747.450089
 30
0.0
 40
3.0
100
AcDbArc
 50
180.0
 51
270.0
  0
ARC
  5
329D
100
AcDbEntity
  8
0
100
AcDbCircle
 10
1805.789275
 20
1726.950089
 30
0.0
 40
5.0
100
AcDbArc
 50
90.0
 51
135.596747
  0
LINE
  5
329E
100
AcDbEntity
  8
0
100
AcDbLine
 10
1781.647787
 20
1773.450089
 30
0.0
 11
1781.647787
 21
1798.950089
 31
0.0
  0
ARC
  5
329F
100
AcDbEntity
  8
0
100
AcDbCircle
 10
1808.789275
 20
1768.450089
 30
0.0
 40
3.0
100
AcDbArc
 50
90.0
 51
180.0
  0
LINE
  5
32A0
100
AcDbEntity
  8
0
100
AcDbLine
 10
1847.789275
 20
1747.450089
 30
0.0
 11
1847.789275
 21
1768.450089
 31
0.0
  0
LINE
  5
32A1
100
AcDbEntity
  8
0
100
AcDbLine
 10
1871.789275
 20
1773.450089
 30
0.0
 11
1871.789275
 21
1753.950089
 31
0.0
  0
ARC
  5
32A2
100
AcDbEntity
  8
0
100
AcDbCircle
 10
1844.789275
 20
1747.450089
 30
0.0
 40
3.0
100
AcDbArc
 50
270.0
 51
0.0
  0
ARC
  5
32A3
100
AcDbEntity
  8
0
100
AcDbCircle
 10
1864.710656
 20
1743.950089
 30
0.0
 40
5.0
100
AcDbArc
 50
90.0
 51
150.59345
  0
LINE
  5
32A4
100
AcDbEntity
  8
0
100
AcDbLine
 10
1863.86635
 20
1756.450089
 30
0.0
 11
1852.612397
 21
1756.450089
 31
0.0
  0
ARC
  5
32A5
100
AcDbEntity
  8
0
100
AcDbCircle
 10
1847.789275
 20
1726.950089
 30
0.0
 40
5.0
100
AcDbArc
 50
44.403253
 51
90.0
  0
LINE
  5
32A6
100
AcDbEntity
  8
0
100
AcDbLine
 10
1860.354867
 20
1746.405106
 30
0.0
 11
1853.33495
 21
1733.950089
 31
0.0
  0
ARC
  5
32A7
100
AcDbEntity
  8
0
100
AcDbCircle
 10
1844.789275
 20
1768.450089
 30
0.0
 40
3.0
100
AcDbArc
 50
0.0
 51
90.0
  0
CIRCLE
  5
32A8
100
AcDbEntity
  8
0
100
AcDbCircle
 10
1826.647787
 20
1778.450089
 30
0.0
 40
3.0
  0
LINE
  5
32A9
100
AcDbEntity
  8
0
100
AcDbLine
 10
1871.647787
 20
1798.950089
 30
0.0
 11
1871.647787
 21
1773.450089
 31
0.0
  0
LINE
  5
32AA
100
AcDbEntity
  8
0
100
AcDbLine
 10
1948.051603
 20
1730.357137
 30
0.0
 11
1938.392353
 21
1720.903762
 31
0.0
  0
LINE
  5
32AB
100
AcDbEntity
  8
0
100
AcDbLine
 10
1966.754165
 20
1730.357137
 30
0.0
 11
1962.02579
 21
1725.63045
 31
0.0
  0
LINE
  5
32AC
100
AcDbEntity
  8
0
100
AcDbLine
 10
1948.051603
 20
1725.63045
 30
0.0
 11
1948.051603
 21
1730.357137
 31
0.0
  0
LINE
  5
32AD
100
AcDbEntity
  8
0
100
AcDbLine
 10
1985.660915
 20
1720.903762
 30
0.0
 11
1995.11429
 21
1730.357137
 31
0.0
  0
LINE
  5
32AF
100
AcDbEntity
  8
0
100
AcDbLine
 10
1881.930763
 20
1699.950089
 30
0.0
 11
1881.930763
 21
1747.950089
 31
0.0
  0
LINE
  5
32B2
100
AcDbEntity
  8
0
100
AcDbLine
 10
1876.789275
 20
1741.950089
 30
0.0
 11
1876.789275
 21
1709.950089
 31
0.0
  0
LINE
  5
32B3
100
AcDbEntity
  8
0
100
AcDbLine
 10
1876.789275
 20
1741.950089
 30
0.0
 11
1876.789275
 21
1709.950089
 31
0.0
  0
LINE
  5
32B7
100
AcDbEntity
  8
0
100
AcDbLine
 10
1881.930763
 20
1699.950089
 30
0.0
 11
1880.930763
 21
1698.950089
 31
0.0
  0
LINE
  5
32BB
100
AcDbEntity
  8
0
100
AcDbLine
 10
1938.392353
 20
1720.903762
 30
0.0
 11
1985.660915
 21
1720.903762
 31
0.0
  0
LINE
  5
32BC
100
AcDbEntity
  8
0
100
AcDbLine
 10
1962.02579
 20
1725.63045
 30
0.0
 11
1948.051603
 21
1725.63045
 31
0.0
  0
LINE
  5
32BE
100
AcDbEntity
  8
0
100
AcDbLine
 10
1881.930763
 20
1747.950089
 30
0.0
 11
1880.930763
 21
1748.950089
 31
0.0
  0
LINE
  5
32C0
100
AcDbEntity
  8
0
100
AcDbLine
 10
1880.930763
 20
1748.950089
 30
0.0
 11
1876.789275
 21
1748.950089
 31
0.0
  0
LINE
  5
32C3
100
AcDbEntity
  8
0
100
AcDbLine
 10
1995.11429
 20
1730.357137
 30
0.0
 11
1966.754165
 21
1730.357137
 31
0.0
  0
LINE
  5
32C4
100
AcDbEntity
  8
0
100
AcDbLine
 10
1856.647787
 20
1813.950089
 30
0.0
 11
1796.647787
 21
1813.950089
 31
0.0
  0
TEXT
  5
32CE
100
AcDbEntity
  8
0
100
AcDbText
 10
2550.988994
 20
1177.191223
 30
0.0
 40
20.0
  1
25A
 41
0.8
 11
2550.988994
 21
1177.191223
 31
0.0
100
AcDbText
 73
     1
  0
ARC
  5
32D0
100
AcDbEntity
  8
0
100
AcDbCircle
 10
2597.086139
 20
1328.763541
 30
0.0
 40
15.0
100
AcDbArc
 50
0.0
 51
90.0
  0
ARC
  5
32D1
100
AcDbEntity
  8
0
100
AcDbCircle
 10
2604.866031
 20
1273.763541
 30
0.0
 40
5.0
100
AcDbArc
 50
90.0
 51
150.59345
  0
LINE
  5
32D2
100
AcDbEntity
  8
0
100
AcDbLine
 10
2529.867576
 20
1286.263541
 30
0.0
 11
2604.021726
 21
1286.263541
 31
0.0
  0
LINE
  5
32D3
100
AcDbEntity
  8
0
100
AcDbLine
 10
2521.944651
 20
1303.263541
 30
0.0
 11
2611.944651
 21
1303.263541
 31
0.0
  0
LINE
  5
32D4
100
AcDbEntity
  8
0
100
AcDbLine
 10
2522.086139
 20
1303.263541
 30
0.0
 11
2612.086139
 21
1303.263541
 31
0.0
  0
LINE
  5
32D5
100
AcDbEntity
  8
0
100
AcDbLine
 10
2601.944651
 20
1239.763541
 30
0.0
 11
2616.944651
 21
1239.763541
 31
0.0
  0
LINE
  5
32D6
100
AcDbEntity
  8
0
100
AcDbLine
 10
2601.944651
 20
1271.763541
 30
0.0
 11
2616.944651
 21
1271.763541
 31
0.0
  0
LINE
  5
32D7
100
AcDbEntity
  8
0
100
AcDbLine
 10
2512.944651
 20
1228.763541
 30
0.0
 11
2621.227627
 21
1228.763541
 31
0.0
  0
LINE
  5
32D8
100
AcDbEntity
  8
0
100
AcDbLine
 10
2521.944651
 20
1303.263541
 30
0.0
 11
2521.944651
 21
1283.763541
 31
0.0
  0
LINE
  5
32D9
100
AcDbEntity
  8
0
100
AcDbLine
 10
2545.944651
 20
1261.763541
 30
0.0
 11
2587.944651
 21
1261.763541
 31
0.0
  0
LINE
  5
32DA
100
AcDbEntity
  8
0
100
AcDbLine
 10
2531.944651
 20
1271.763541
 30
0.0
 11
2531.944651
 21
1239.763541
 31
0.0
  0
LINE
  5
32DC
100
AcDbEntity
  8
0
100
AcDbLine
 10
2516.944651
 20
1271.763541
 30
0.0
 11
2516.944651
 21
1239.763541
 31
0.0
  0
LINE
  5
32DD
100
AcDbEntity
  8
0
100
AcDbLine
 10
2516.944651
 20
1271.763541
 30
0.0
 11
2516.944651
 21
1239.763541
 31
0.0
  0
LINE
  5
32DE
100
AcDbEntity
  8
0
100
AcDbLine
 10
2511.944651
 20
1229.763541
 30
0.0
 11
2511.944651
 21
1277.763541
 31
0.0
  0
LINE
  5
32DF
100
AcDbEntity
  8
0
100
AcDbLine
 10
2531.944651
 20
1239.763541
 30
0.0
 11
2516.944651
 21
1239.763541
 31
0.0
  0
LINE
  5
32E1
100
AcDbEntity
  8
0
100
AcDbLine
 10
2511.944651
 20
1229.763541
 30
0.0
 11
2512.944651
 21
1228.763541
 31
0.0
  0
LINE
  5
32E2
100
AcDbEntity
  8
0
100
AcDbLine
 10
2531.944651
 20
1271.763541
 30
0.0
 11
2516.944651
 21
1271.763541
 31
0.0
  0
LINE
  5
32E3
100
AcDbEntity
  8
0
100
AcDbLine
 10
2512.944651
 20
1278.763541
 30
0.0
 11
2516.944651
 21
1278.763541
 31
0.0
  0
LINE
  5
32E4
100
AcDbEntity
  8
0
100
AcDbLine
 10
2511.944651
 20
1277.763541
 30
0.0
 11
2512.944651
 21
1278.763541
 31
0.0
  0
ARC
  5
32E5
100
AcDbEntity
  8
0
100
AcDbCircle
 10
2516.944651
 20
1283.763541
 30
0.0
 40
5.0
100
AcDbArc
 50
270.0
 51
0.0
  0
ARC
  5
32E7
100
AcDbEntity
  8
0
100
AcDbCircle
 10
2529.02327
 20
1273.763541
 30
0.0
 40
5.0
100
AcDbArc
 50
29.40655
 51
90.0
  0
ARC
  5
32E8
100
AcDbEntity
  8
0
100
AcDbCircle
 10
2545.944651
 20
1256.763541
 30
0.0
 40
5.0
100
AcDbArc
 50
90.0
 51
135.596747
  0
LINE
  5
32E9
100
AcDbEntity
  8
0
100
AcDbLine
 10
2533.379058
 20
1276.218558
 30
0.0
 11
2540.398976
 21
1263.763541
 31
0.0
  0
LINE
  5
32EA
100
AcDbEntity
  8
0
100
AcDbLine
 10
2601.944651
 20
1271.763541
 30
0.0
 11
2601.944651
 21
1239.763541
 31
0.0
  0
ARC
  5
32EB
100
AcDbEntity
  8
0
100
AcDbCircle
 10
2587.944651
 20
1256.763541
 30
0.0
 40
5.0
100
AcDbArc
 50
44.403253
 51
90.0
  0
LINE
  5
32EC
100
AcDbEntity
  8
0
100
AcDbLine
 10
2600.510243
 20
1276.218558
 30
0.0
 11
2593.490326
 21
1263.763541
 31
0.0
  0
LINE
  5
32ED
100
AcDbEntity
  8
0
100
AcDbLine
 10
2537.086139
 20
1343.763541
 30
0.0
 11
2597.086139
 21
1343.763541
 31
0.0
  0
LINE
  5
32EE
100
AcDbEntity
  8
0
100
AcDbLine
 10
2522.086139
 20
1328.763541
 30
0.0
 11
2522.086139
 21
1303.263541
 31
0.0
  0
ARC
  5
32EF
100
AcDbEntity
  8
0
100
AcDbCircle
 10
2537.086139
 20
1328.763541
 30
0.0
 40
15.0
100
AcDbArc
 50
90.0
 51
180.0
  0
CIRCLE
  5
32F0
100
AcDbEntity
  8
0
100
AcDbCircle
 10
2567.086139
 20
1308.263541
 30
0.0
 40
3.0
  0
LINE
  5
32F1
100
AcDbEntity
  8
0
100
AcDbLine
 10
2611.944651
 20
1303.263541
 30
0.0
 11
2611.944651
 21
1283.763541
 31
0.0
  0
LINE
  5
32F6
100
AcDbEntity
  8
0
100
AcDbLine
 10
2616.944651
 20
1271.763541
 30
0.0
 11
2616.944651
 21
1239.763541
 31
0.0
  0
LINE
  5
32F7
100
AcDbEntity
  8
0
100
AcDbLine
 10
2622.227627
 20
1229.763541
 30
0.0
 11
2622.227627
 21
1277.763541
 31
0.0
  0
LINE
  5
32F9
100
AcDbEntity
  8
0
100
AcDbLine
 10
2622.227627
 20
1229.763541
 30
0.0
 11
2621.227627
 21
1228.763541
 31
0.0
  0
LINE
  5
32FB
100
AcDbEntity
  8
0
100
AcDbLine
 10
2622.227627
 20
1277.763541
 30
0.0
 11
2621.227627
 21
1278.763541
 31
0.0
  0
ARC
  5
32FC
100
AcDbEntity
  8
0
100
AcDbCircle
 10
2616.944651
 20
1283.763541
 30
0.0
 40
5.0
100
AcDbArc
 50
180.0
 51
270.0
  0
LINE
  5
32FD
100
AcDbEntity
  8
0
100
AcDbLine
 10
2616.944651
 20
1278.763541
 30
0.0
 11
2621.227627
 21
1278.763541
 31
0.0
  0
LINE
  5
3300
100
AcDbEntity
  8
0
100
AcDbLine
 10
2612.086139
 20
1303.263541
 30
0.0
 11
2612.086139
 21
1328.763541
 31
0.0
  0
ARC
  5
3303
100
AcDbEntity
  8
0
100
AcDbCircle
 10
2804.092709
 20
1328.763541
 30
0.0
 40
15.0
100
AcDbArc
 50
0.0
 51
90.0
  0
LINE
  5
3308
100
AcDbEntity
  8
0
100
AcDbLine
 10
2744.092709
 20
1343.763541
 30
0.0
 11
2804.092709
 21
1343.763541
 31
0.0
  0
LINE
  5
3309
100
AcDbEntity
  8
0
100
AcDbLine
 10
2729.092709
 20
1328.763541
 30
0.0
 11
2729.092709
 21
1303.263541
 31
0.0
  0
LINE
  5
330A
100
AcDbEntity
  8
0
100
AcDbLine
 10
2728.951221
 20
1303.263541
 30
0.0
 11
2731.823439
 21
1303.263541
 31
0.0
  0
LINE
  5
330B
100
AcDbEntity
  8
0
100
AcDbLine
 10
2728.951221
 20
1303.263541
 30
0.0
 11
2728.951221
 21
1300.667698
 31
0.0
  0
ARC
  5
330C
100
AcDbEntity
  8
0
100
AcDbCircle
 10
2744.092709
 20
1328.763541
 30
0.0
 40
15.0
100
AcDbArc
 50
90.0
 51
180.0
  0
LINE
  5
330D
100
AcDbEntity
  8
0
100
AcDbLine
 10
2819.092709
 20
1303.263541
 30
0.0
 11
2819.092709
 21
1328.763541
 31
0.0
  0
LINE
  5
330E
100
AcDbEntity
  8
0
100
AcDbLine
 10
2816.079002
 20
1303.263541
 30
0.0
 11
2819.092709
 21
1303.263541
 31
0.0
  0
LINE
  5
330F
100
AcDbEntity
  8
0
100
AcDbLine
 10
2818.951221
 20
1303.263541
 30
0.0
 11
2818.951221
 21
1301.263541
 31
0.0
  0
LINE
  5
3310
100
AcDbEntity
  8
0
100
AcDbLine
 10
2819.951221
 20
1299.687391
 30
0.0
 11
2819.951221
 21
1300.263541
 31
0.0
  0
LINE
  5
3311
100
AcDbEntity
  8
0
100
AcDbLine
 10
2818.951221
 20
1301.263541
 30
0.0
 11
2818.321819
 21
1301.263541
 31
0.0
  0
ARC
  5
3312
100
AcDbEntity
  8
0
100
AcDbCircle
 10
2818.951221
 20
1300.263541
 30
0.0
 40
1.0
100
AcDbArc
 50
0.0
 51
90.0
  0
LINE
  5
3313
100
AcDbEntity
  8
0
100
AcDbLine
 10
2621.286139
 20
1513.515485
 30
0.0
 11
2621.286139
 21
1489.515485
 31
0.0
  0
LINE
  5
3315
100
AcDbEntity
  8
0
100
AcDbLine
 10
2622.227627
 20
1477.515485
 30
0.0
 11
2622.227627
 21
1525.515485
 31
0.0
  0
LINE
  5
3317
100
AcDbEntity
  8
0
100
AcDbLine
 10
2511.944651
 20
1477.515485
 30
0.0
 11
2511.944651
 21
1525.515485
 31
0.0
  0
CIRCLE
  5
3318
100
AcDbEntity
  8
0
100
AcDbCircle
 10
2567.086139
 20
1501.515485
 30
0.0
 40
45.0
  0
LINE
  5
331B
100
AcDbEntity
  8
0
100
AcDbLine
 10
2517.460534
 20
1482.306112
 30
0.0
 11
2526.392159
 21
1482.306112
 31
0.0
  0
LINE
  5
331C
100
AcDbEntity
  8
0
100
AcDbLine
 10
2529.669565
 20
1476.515485
 30
0.0
 11
2512.944651
 21
1476.515485
 31
0.0
  0
LINE
  5
331D
100
AcDbEntity
  8
0
100
AcDbLine
 10
2511.944651
 20
1477.515485
 30
0.0
 11
2512.944651
 21
1476.515485
 31
0.0
  0
ARC
  5
331F
100
AcDbEntity
  8
0
100
AcDbCircle
 10
2518.227627
 20
1477.515485
 30
0.0
 40
1.0
100
AcDbArc
 50
180.0
 51
270.0
  0
LINE
  5
3320
100
AcDbEntity
  8
0
100
AcDbLine
 10
2517.227627
 20
1480.306112
 30
0.0
 11
2517.227627
 21
1477.515485
 31
0.0
  0
ARC
  5
3321
100
AcDbEntity
  8
0
100
AcDbCircle
 10
2515.227627
 20
1480.306112
 30
0.0
 40
2.0
100
AcDbArc
 50
0.0
 51
90.0
  0
ARC
  5
3324
100
AcDbEntity
  8
0
100
AcDbCircle
 10
2615.944651
 20
1477.515485
 30
0.0
 40
1.0
100
AcDbArc
 50
270.0
 51
0.0
  0
LINE
  5
3325
100
AcDbEntity
  8
0
100
AcDbLine
 10
2616.944651
 20
1480.306112
 30
0.0
 11
2616.944651
 21
1477.515485
 31
0.0
  0
LINE
  5
3326
100
AcDbEntity
  8
0
100
AcDbLine
 10
2622.227627
 20
1477.515485
 30
0.0
 11
2621.227627
 21
1476.515485
 31
0.0
  0
ARC
  5
3327
100
AcDbEntity
  8
0
100
AcDbCircle
 10
2618.944651
 20
1480.306112
 30
0.0
 40
2.0
100
AcDbArc
 50
90.0
 51
180.0
  0
LINE
  5
3328
100
AcDbEntity
  8
0
100
AcDbLine
 10
2616.711744
 20
1482.306112
 30
0.0
 11
2607.780119
 21
1482.306112
 31
0.0
  0
LINE
  5
3329
100
AcDbEntity
  8
0
100
AcDbLine
 10
2621.227627
 20
1476.515485
 30
0.0
 11
2604.502713
 21
1476.515485
 31
0.0
  0
LINE
  5
332D
100
AcDbEntity
  8
0
100
AcDbLine
 10
2588.086139
 20
1547.515485
 30
0.0
 11
2546.086139
 21
1547.515485
 31
0.0
  0
LINE
  5
332E
100
AcDbEntity
  8
0
100
AcDbLine
 10
2546.086139
 20
1541.314982
 30
0.0
 11
2546.086139
 21
1547.515485
 31
0.0
  0
LINE
  5
332F
100
AcDbEntity
  8
0
100
AcDbLine
 10
2517.460534
 20
1520.724858
 30
0.0
 11
2526.392159
 21
1520.724858
 31
0.0
  0
LINE
  5
3330
100
AcDbEntity
  8
0
100
AcDbLine
 10
2529.669565
 20
1526.515485
 30
0.0
 11
2512.944651
 21
1526.515485
 31
0.0
  0
LINE
  5
3331
100
AcDbEntity
  8
0
100
AcDbLine
 10
2511.944651
 20
1525.515485
 30
0.0
 11
2512.944651
 21
1526.515485
 31
0.0
  0
ARC
  5
3333
100
AcDbEntity
  8
0
100
AcDbCircle
 10
2518.227627
 20
1525.515485
 30
0.0
 40
1.0
100
AcDbArc
 50
90.0
 51
180.0
  0
LINE
  5
3334
100
AcDbEntity
  8
0
100
AcDbLine
 10
2517.227627
 20
1522.724858
 30
0.0
 11
2517.227627
 21
1525.515485
 31
0.0
  0
ARC
  5
3335
100
AcDbEntity
  8
0
100
AcDbCircle
 10
2515.227627
 20
1522.724858
 30
0.0
 40
2.0
100
AcDbArc
 50
270.0
 51
0.0
  0
LINE
  5
3336
100
AcDbEntity
  8
0
100
AcDbLine
 10
2588.086139
 20
1541.314982
 30
0.0
 11
2588.086139
 21
1547.515485
 31
0.0
  0
ARC
  5
3339
100
AcDbEntity
  8
0
100
AcDbCircle
 10
2618.944651
 20
1522.724858
 30
0.0
 40
2.0
100
AcDbArc
 50
180.0
 51
270.0
  0
ARC
  5
333A
100
AcDbEntity
  8
0
100
AcDbCircle
 10
2615.944651
 20
1525.515485
 30
0.0
 40
1.0
100
AcDbArc
 50
0.0
 51
90.0
  0
LINE
  5
333B
100
AcDbEntity
  8
0
100
AcDbLine
 10
2616.944651
 20
1522.724858
 30
0.0
 11
2616.944651
 21
1525.515485
 31
0.0
  0
LINE
  5
333C
100
AcDbEntity
  8
0
100
AcDbLine
 10
2622.227627
 20
1525.515485
 30
0.0
 11
2621.227627
 21
1526.515485
 31
0.0
  0
LINE
  5
333D
100
AcDbEntity
  8
0
100
AcDbLine
 10
2616.711744
 20
1520.724858
 30
0.0
 11
2607.780119
 21
1520.724858
 31
0.0
  0
LINE
  5
333E
100
AcDbEntity
  8
0
100
AcDbLine
 10
2621.227627
 20
1526.515485
 30
0.0
 11
2604.502713
 21
1526.515485
 31
0.0
  0
LINE
  5
3341
100
AcDbEntity
  8
0
100
AcDbLine
 10
2693.503792
 20
1725.741107
 30
0.0
 11
2740.772355
 21
1725.741107
 31
0.0
  0
LINE
  5
3342
100
AcDbEntity
  8
0
100
AcDbLine
 10
2717.13723
 20
1730.467795
 30
0.0
 11
2703.163042
 21
1730.467795
 31
0.0
  0
ARC
  5
3343
100
AcDbEntity
  8
0
100
AcDbCircle
 10
2596.944651
 20
1798.950089
 30
0.0
 40
15.0
100
AcDbArc
 50
0.0
 51
90.0
  0
ARC
  5
3344
100
AcDbEntity
  8
0
100
AcDbCircle
 10
2536.944651
 20
1798.950089
 30
0.0
 40
15.0
100
AcDbArc
 50
90.0
 51
180.0
  0
LINE
  5
3345
100
AcDbEntity
  8
0
100
AcDbLine
 10
2604.163214
 20
1756.450089
 30
0.0
 11
2592.909261
 21
1756.450089
 31
0.0
  0
ARC
  5
3346
100
AcDbEntity
  8
0
100
AcDbCircle
 10
2605.00752
 20
1743.950089
 30
0.0
 40
5.0
100
AcDbArc
 50
90.0
 51
150.59345
  0
LINE
  5
3347
100
AcDbEntity
  8
0
100
AcDbLine
 10
2612.086139
 20
1773.450089
 30
0.0
 11
2522.086139
 21
1773.450089
 31
0.0
  0
LINE
  5
3348
100
AcDbEntity
  8
0
100
AcDbLine
 10
2611.944651
 20
1773.450089
 30
0.0
 11
2521.944651
 21
1773.450089
 31
0.0
  0
LINE
  5
3349
100
AcDbEntity
  8
0
100
AcDbLine
 10
2602.086139
 20
1709.950089
 30
0.0
 11
2617.086139
 21
1709.950089
 31
0.0
  0
LINE
  5
334A
100
AcDbEntity
  8
0
100
AcDbLine
 10
2602.086139
 20
1741.950089
 30
0.0
 11
2617.086139
 21
1741.950089
 31
0.0
  0
LINE
  5
334B
100
AcDbEntity
  8
0
100
AcDbLine
 10
2621.227627
 20
1698.950089
 30
0.0
 11
2512.944651
 21
1698.950089
 31
0.0
  0
LINE
  5
334C
100
AcDbEntity
  8
0
100
AcDbLine
 10
2532.086139
 20
1741.950089
 30
0.0
 11
2532.086139
 21
1709.950089
 31
0.0
  0
LINE
  5
334D
100
AcDbEntity
  8
0
100
AcDbLine
 10
2602.086139
 20
1741.950089
 30
0.0
 11
2602.086139
 21
1709.950089
 31
0.0
  0
LINE
  5
334E
100
AcDbEntity
  8
0
100
AcDbLine
 10
2517.086139
 20
1741.950089
 30
0.0
 11
2517.086139
 21
1709.950089
 31
0.0
  0
LINE
  5
334F
100
AcDbEntity
  8
0
100
AcDbLine
 10
2505.133362
 20
1705.450089
 30
0.0
 11
2505.133362
 21
1742.450089
 31
0.0
  0
LINE
  5
3350
100
AcDbEntity
  8
0
100
AcDbLine
 10
2511.944651
 20
1699.950089
 30
0.0
 11
2511.944651
 21
1747.950089
 31
0.0
  0
LINE
  5
3351
100
AcDbEntity
  8
0
100
AcDbLine
 10
2532.086139
 20
1709.950089
 30
0.0
 11
2517.086139
 21
1709.950089
 31
0.0
  0
LINE
  5
3352
100
AcDbEntity
  8
0
100
AcDbLine
 10
2511.944651
 20
1699.950089
 30
0.0
 11
2512.944651
 21
1698.950089
 31
0.0
  0
ARC
  5
3353
100
AcDbEntity
  8
0
100
AcDbCircle
 10
2511.833312
 20
1715.621104
 30
0.0
 40
12.179445
100
AcDbArc
 50
236.625917
 51
270.523777
  0
LINE
  5
3354
100
AcDbEntity
  8
0
100
AcDbLine
 10
2549.086139
 20
1744.450089
 30
0.0
 11
2585.086139
 21
1744.450089
 31
0.0
  0
LINE
  5
3355
100
AcDbEntity
  8
0
100
AcDbLine
 10
2549.086139
 20
1771.450089
 30
0.0
 11
2585.086139
 21
1771.450089
 31
0.0
  0
LINE
  5
3356
100
AcDbEntity
  8
0
100
AcDbLine
 10
2588.086139
 20
1731.950089
 30
0.0
 11
2546.086139
 21
1731.950089
 31
0.0
  0
LINE
  5
3357
100
AcDbEntity
  8
0
100
AcDbLine
 10
2546.086139
 20
1747.450089
 30
0.0
 11
2546.086139
 21
1768.450089
 31
0.0
  0
LINE
  5
3358
100
AcDbEntity
  8
0
100
AcDbLine
 10
2522.086139
 20
1773.450089
 30
0.0
 11
2522.086139
 21
1753.950089
 31
0.0
  0
LINE
  5
3359
100
AcDbEntity
  8
0
100
AcDbLine
 10
2532.086139
 20
1741.950089
 30
0.0
 11
2517.086139
 21
1741.950089
 31
0.0
  0
LINE
  5
335A
100
AcDbEntity
  8
0
100
AcDbLine
 10
2511.944651
 20
1747.950089
 30
0.0
 11
2512.944651
 21
1748.950089
 31
0.0
  0
ARC
  5
335B
100
AcDbEntity
  8
0
100
AcDbCircle
 10
2511.833312
 20
1732.279074
 30
0.0
 40
12.179445
100
AcDbArc
 50
89.476223
 51
123.374083
  0
ARC
  5
335C
100
AcDbEntity
  8
0
100
AcDbCircle
 10
2517.086139
 20
1753.950089
 30
0.0
 40
5.0
100
AcDbArc
 50
270.0
 51
0.0
  0
LINE
  5
335D
100
AcDbEntity
  8
0
100
AcDbLine
 10
2517.086139
 20
1748.950089
 30
0.0
 11
2512.944651
 21
1748.950089
 31
0.0
  0
ARC
  5
335E
100
AcDbEntity
  8
0
100
AcDbCircle
 10
2549.086139
 20
1747.450089
 30
0.0
 40
3.0
100
AcDbArc
 50
180.0
 51
270.0
  0
LINE
  5
335F
100
AcDbEntity
  8
0
100
AcDbLine
 10
2541.263016
 20
1756.450089
 30
0.0
 11
2530.009064
 21
1756.450089
 31
0.0
  0
ARC
  5
3360
100
AcDbEntity
  8
0
100
AcDbCircle
 10
2529.164758
 20
1743.950089
 30
0.0
 40
5.0
100
AcDbArc
 50
29.40655
 51
90.0
  0
ARC
  5
3361
100
AcDbEntity
  8
0
100
AcDbCircle
 10
2546.086139
 20
1726.950089
 30
0.0
 40
5.0
100
AcDbArc
 50
90.0
 51
135.596747
  0
LINE
  5
3362
100
AcDbEntity
  8
0
100
AcDbLine
 10
2533.520547
 20
1746.405106
 30
0.0
 11
2540.540464
 21
1733.950089
 31
0.0
  0
LINE
  5
3363
100
AcDbEntity
  8
0
100
AcDbLine
 10
2521.944651
 20
1773.450089
 30
0.0
 11
2521.944651
 21
1798.950089
 31
0.0
  0
ARC
  5
3364
100
AcDbEntity
  8
0
100
AcDbCircle
 10
2549.086139
 20
1768.450089
 30
0.0
 40
3.0
100
AcDbArc
 50
90.0
 51
180.0
  0
LINE
  5
3365
100
AcDbEntity
  8
0
100
AcDbLine
 10
2588.086139
 20
1747.450089
 30
0.0
 11
2588.086139
 21
1768.450089
 31
0.0
  0
ARC
  5
3366
100
AcDbEntity
  8
0
100
AcDbCircle
 10
2585.086139
 20
1747.450089
 30
0.0
 40
3.0
100
AcDbArc
 50
270.0
 51
0.0
  0
ARC
  5
3367
100
AcDbEntity
  8
0
100
AcDbCircle
 10
2588.086139
 20
1726.950089
 30
0.0
 40
5.0
100
AcDbArc
 50
44.403253
 51
90.0
  0
LINE
  5
3368
100
AcDbEntity
  8
0
100
AcDbLine
 10
2600.651731
 20
1746.405106
 30
0.0
 11
2593.631814
 21
1733.950089
 31
0.0
  0
CIRCLE
  5
3369
100
AcDbEntity
  8
0
100
AcDbCircle
 10
2566.944651
 20
1778.450089
 30
0.0
 40
3.0
  0
ARC
  5
336A
100
AcDbEntity
  8
0
100
AcDbCircle
 10
2585.086139
 20
1768.450089
 30
0.0
 40
3.0
100
AcDbArc
 50
0.0
 51
90.0
  0
LINE
  5
336B
100
AcDbEntity
  8
0
100
AcDbLine
 10
2703.163042
 20
1735.194482
 30
0.0
 11
2693.503792
 21
1725.741107
 31
0.0
  0
LINE
  5
336C
100
AcDbEntity
  8
0
100
AcDbLine
 10
2617.086139
 20
1741.950089
 30
0.0
 11
2617.086139
 21
1709.950089
 31
0.0
  0
LINE
  5
336D
100
AcDbEntity
  8
0
100
AcDbLine
 10
2617.086139
 20
1741.950089
 30
0.0
 11
2617.086139
 21
1709.950089
 31
0.0
  0
LINE
  5
336E
100
AcDbEntity
  8
0
100
AcDbLine
 10
2629.038916
 20
1705.450089
 30
0.0
 11
2629.038916
 21
1742.450089
 31
0.0
  0
LINE
  5
336F
100
AcDbEntity
  8
0
100
AcDbLine
 10
2622.227627
 20
1699.950089
 30
0.0
 11
2622.227627
 21
1747.950089
 31
0.0
  0
ARC
  5
3373
100
AcDbEntity
  8
0
100
AcDbCircle
 10
2622.338966
 20
1715.621104
 30
0.0
 40
12.179445
100
AcDbArc
 50
269.476223
 51
303.374083
  0
LINE
  5
3374
100
AcDbEntity
  8
0
100
AcDbLine
 10
2622.227627
 20
1699.950089
 30
0.0
 11
2621.227627
 21
1698.950089
 31
0.0
  0
LINE
  5
3379
100
AcDbEntity
  8
0
100
AcDbLine
 10
2612.086139
 20
1773.450089
 30
0.0
 11
2612.086139
 21
1753.950089
 31
0.0
  0
ARC
  5
337A
100
AcDbEntity
  8
0
100
AcDbCircle
 10
2622.338966
 20
1732.279074
 30
0.0
 40
12.179445
100
AcDbArc
 50
56.625917
 51
90.523777
  0
LINE
  5
337B
100
AcDbEntity
  8
0
100
AcDbLine
 10
2622.227627
 20
1747.950089
 30
0.0
 11
2621.227627
 21
1748.950089
 31
0.0
  0
LINE
  5
337C
100
AcDbEntity
  8
0
100
AcDbLine
 10
2621.227627
 20
1748.950089
 30
0.0
 11
2617.086139
 21
1748.950089
 31
0.0
  0
ARC
  5
337D
100
AcDbEntity
  8
0
100
AcDbCircle
 10
2617.086139
 20
1753.950089
 30
0.0
 40
5.0
100
AcDbArc
 50
180.0
 51
270.0
  0
LINE
  5
337E
100
AcDbEntity
  8
0
100
AcDbLine
 10
2611.944651
 20
1798.950089
 30
0.0
 11
2611.944651
 21
1773.450089
 31
0.0
  0
LINE
  5
3380
100
AcDbEntity
  8
0
100
AcDbLine
 10
2703.163042
 20
1730.467795
 30
0.0
 11
2703.163042
 21
1735.194482
 31
0.0
  0
LINE
  5
3382
100
AcDbEntity
  8
0
100
AcDbLine
 10
2596.944651
 20
1813.950089
 30
0.0
 11
2536.944651
 21
1813.950089
 31
0.0
  0
LINE
  5
3383
100
AcDbEntity
  8
0
100
AcDbLine
 10
2740.772355
 20
1725.741107
 30
0.0
 11
2750.22573
 21
1735.194482
 31
0.0
  0
LINE
  5
3384
100
AcDbEntity
  8
0
100
AcDbLine
 10
2750.22573
 20
1735.194482
 30
0.0
 11
2721.865605
 21
1735.194482
 31
0.0
  0
LINE
  5
3385
100
AcDbEntity
  8
0
100
AcDbLine
 10
2721.865605
 20
1735.194482
 30
0.0
 11
2717.13723
 21
1730.467795
 31
0.0
  0
LINE
  5
33AE
100
AcDbEntity
  8
0
100
AcDbLine
 10
1056.646026
 20
1781.450089
 30
0.0
 11
1056.646026
 21
1666.450089
 31
0.0
  0
LINE
  5
33AF
100
AcDbEntity
  8
0
100
AcDbLine
 10
1076.646026
 20
1781.450089
 30
0.0
 11
1076.646026
 21
1666.450089
 31
0.0
  0
LINE
  5
33B1
100
AcDbEntity
  8
0
100
AcDbLine
 10
1076.646026
 20
1666.450089
 30
0.0
 11
1056.646026
 21
1666.450089
 31
0.0
  0
LINE
  5
33B2
100
AcDbEntity
  8
0
100
AcDbLine
 10
1091.504537
 20
1701.950089
 30
0.0
 11
1081.646026
 21
1701.950089
 31
0.0
  0
ARC
  5
33B3
100
AcDbEntity
  8
0
100
AcDbCircle
 10
1081.646026
 20
1696.950089
 30
0.0
 40
5.0
100
AcDbArc
 50
90.0
 51
180.0
  0
LINE
  5
33B9
100
AcDbEntity
  8
0
100
AcDbLine
 10
1076.646026
 20
1781.450089
 30
0.0
 11
1056.646026
 21
1781.450089
 31
0.0
  0
LINE
  5
33BA
100
AcDbEntity
  8
0
100
AcDbLine
 10
1091.504537
 20
1745.950089
 30
0.0
 11
1081.646026
 21
1745.950089
 31
0.0
  0
ARC
  5
33BB
100
AcDbEntity
  8
0
100
AcDbCircle
 10
1081.646026
 20
1750.950089
 30
0.0
 40
5.0
100
AcDbArc
 50
180.0
 51
270.0
  0
LINE
  5
33C0
100
AcDbEntity
  8
0
100
AcDbLine
 10
1216.363049
 20
1781.450089
 30
0.0
 11
1216.363049
 21
1666.450089
 31
0.0
  0
LINE
  5
33C1
100
AcDbEntity
  8
0
100
AcDbLine
 10
1236.363049
 20
1781.450089
 30
0.0
 11
1236.363049
 21
1666.450089
 31
0.0
  0
ARC
  5
33C2
100
AcDbEntity
  8
0
100
AcDbCircle
 10
1211.363049
 20
1696.950089
 30
0.0
 40
5.0
100
AcDbArc
 50
0.0
 51
90.0
  0
LINE
  5
33C3
100
AcDbEntity
  8
0
100
AcDbLine
 10
1216.363049
 20
1666.450089
 30
0.0
 11
1236.363049
 21
1666.450089
 31
0.0
  0
ARC
  5
33C4
100
AcDbEntity
  8
0
100
AcDbCircle
 10
1211.363049
 20
1750.950089
 30
0.0
 40
5.0
100
AcDbArc
 50
270.0
 51
0.0
  0
LINE
  5
33C5
100
AcDbEntity
  8
0
100
AcDbLine
 10
1216.363049
 20
1781.450089
 30
0.0
 11
1236.363049
 21
1781.450089
 31
0.0
  0
LINE
  5
33C6
100
AcDbEntity
  8
0
100
AcDbLine
 10
1201.504537
 20
1701.950089
 30
0.0
 11
1211.363049
 21
1701.950089
 31
0.0
  0
LINE
  5
33C7
100
AcDbEntity
  8
0
100
AcDbLine
 10
1201.504537
 20
1745.950089
 30
0.0
 11
1211.363049
 21
1745.950089
 31
0.0
  0
LINE
  5
33C8
100
AcDbEntity
  8
0
100
AcDbLine
 10
1076.646026
 20
1559.015485
 30
0.0
 11
1076.646026
 21
1444.015485
 31
0.0
  0
LINE
  5
33C9
100
AcDbEntity
  8
0
100
AcDbLine
 10
1056.646026
 20
1559.015485
 30
0.0
 11
1056.646026
 21
1444.015485
 31
0.0
  0
ARC
  5
33CA
100
AcDbEntity
  8
0
100
AcDbCircle
 10
1081.646026
 20
1474.515485
 30
0.0
 40
5.0
100
AcDbArc
 50
90.0
 51
180.0
  0
LINE
  5
33CB
100
AcDbEntity
  8
0
100
AcDbLine
 10
1076.646026
 20
1444.015485
 30
0.0
 11
1056.646026
 21
1444.015485
 31
0.0
  0
ARC
  5
33CC
100
AcDbEntity
  8
0
100
AcDbCircle
 10
1081.646026
 20
1528.515485
 30
0.0
 40
5.0
100
AcDbArc
 50
180.0
 51
270.0
  0
LINE
  5
33CD
100
AcDbEntity
  8
0
100
AcDbLine
 10
1076.646026
 20
1559.015485
 30
0.0
 11
1056.646026
 21
1559.015485
 31
0.0
  0
LINE
  5
33CE
100
AcDbEntity
  8
0
100
AcDbLine
 10
1091.504537
 20
1479.515485
 30
0.0
 11
1081.646026
 21
1479.515485
 31
0.0
  0
LINE
  5
33CF
100
AcDbEntity
  8
0
100
AcDbLine
 10
1091.504537
 20
1523.515485
 30
0.0
 11
1081.646026
 21
1523.515485
 31
0.0
  0
LINE
  5
33D0
100
AcDbEntity
  8
0
100
AcDbLine
 10
1236.363049
 20
1559.015485
 30
0.0
 11
1236.363049
 21
1444.015485
 31
0.0
  0
LINE
  5
33D1
100
AcDbEntity
  8
0
100
AcDbLine
 10
1216.363049
 20
1559.015485
 30
0.0
 11
1216.363049
 21
1444.015485
 31
0.0
  0
LINE
  5
33D2
100
AcDbEntity
  8
0
100
AcDbLine
 10
1216.363049
 20
1444.015485
 30
0.0
 11
1236.363049
 21
1444.015485
 31
0.0
  0
LINE
  5
33D3
100
AcDbEntity
  8
0
100
AcDbLine
 10
1201.504537
 20
1479.515485
 30
0.0
 11
1211.363049
 21
1479.515485
 31
0.0
  0
ARC
  5
33D4
100
AcDbEntity
  8
0
100
AcDbCircle
 10
1211.363049
 20
1474.515485
 30
0.0
 40
5.0
100
AcDbArc
 50
0.0
 51
90.0
  0
ARC
  5
33D5
100
AcDbEntity
  8
0
100
AcDbCircle
 10
1211.363049
 20
1528.515485
 30
0.0
 40
5.0
100
AcDbArc
 50
270.0
 51
0.0
  0
LINE
  5
33D6
100
AcDbEntity
  8
0
100
AcDbLine
 10
1201.504537
 20
1523.515485
 30
0.0
 11
1211.363049
 21
1523.515485
 31
0.0
  0
LINE
  5
33D7
100
AcDbEntity
  8
0
100
AcDbLine
 10
1216.363049
 20
1559.015485
 30
0.0
 11
1236.363049
 21
1559.015485
 31
0.0
  0
LINE
  5
33D8
100
AcDbEntity
  8
0
100
AcDbLine
 10
1076.646026
 20
1311.263541
 30
0.0
 11
1076.646026
 21
1196.263541
 31
0.0
  0
LINE
  5
33D9
100
AcDbEntity
  8
0
100
AcDbLine
 10
1056.646026
 20
1311.263541
 30
0.0
 11
1056.646026
 21
1196.263541
 31
0.0
  0
ARC
  5
33DA
100
AcDbEntity
  8
0
100
AcDbCircle
 10
1081.646026
 20
1226.763541
 30
0.0
 40
5.0
100
AcDbArc
 50
90.0
 51
180.0
  0
LINE
  5
33DB
100
AcDbEntity
  8
0
100
AcDbLine
 10
1076.646026
 20
1196.263541
 30
0.0
 11
1056.646026
 21
1196.263541
 31
0.0
  0
ARC
  5
33DC
100
AcDbEntity
  8
0
100
AcDbCircle
 10
1081.646026
 20
1280.763541
 30
0.0
 40
5.0
100
AcDbArc
 50
180.0
 51
270.0
  0
LINE
  5
33DD
100
AcDbEntity
  8
0
100
AcDbLine
 10
1076.646026
 20
1311.263541
 30
0.0
 11
1056.646026
 21
1311.263541
 31
0.0
  0
LINE
  5
33DE
100
AcDbEntity
  8
0
100
AcDbLine
 10
1091.504537
 20
1231.763541
 30
0.0
 11
1081.646026
 21
1231.763541
 31
0.0
  0
LINE
  5
33DF
100
AcDbEntity
  8
0
100
AcDbLine
 10
1091.504537
 20
1275.763541
 30
0.0
 11
1081.646026
 21
1275.763541
 31
0.0
  0
LINE
  5
33E0
100
AcDbEntity
  8
0
100
AcDbLine
 10
1236.363049
 20
1311.263541
 30
0.0
 11
1236.363049
 21
1196.263541
 31
0.0
  0
LINE
  5
33E1
100
AcDbEntity
  8
0
100
AcDbLine
 10
1216.363049
 20
1311.263541
 30
0.0
 11
1216.363049
 21
1196.263541
 31
0.0
  0
LINE
  5
33E2
100
AcDbEntity
  8
0
100
AcDbLine
 10
1216.363049
 20
1196.263541
 30
0.0
 11
1236.363049
 21
1196.263541
 31
0.0
  0
LINE
  5
33E3
100
AcDbEntity
  8
0
100
AcDbLine
 10
1201.504537
 20
1231.763541
 30
0.0
 11
1211.363049
 21
1231.763541
 31
0.0
  0
ARC
  5
33E4
100
AcDbEntity
  8
0
100
AcDbCircle
 10
1211.363049
 20
1226.763541
 30
0.0
 40
5.0
100
AcDbArc
 50
0.0
 51
90.0
  0
ARC
  5
33E5
100
AcDbEntity
  8
0
100
AcDbCircle
 10
1211.363049
 20
1280.763541
 30
0.0
 40
5.0
100
AcDbArc
 50
270.0
 51
0.0
  0
LINE
  5
33E6
100
AcDbEntity
  8
0
100
AcDbLine
 10
1201.504537
 20
1275.763541
 30
0.0
 11
1211.363049
 21
1275.763541
 31
0.0
  0
LINE
  5
33E7
100
AcDbEntity
  8
0
100
AcDbLine
 10
1216.363049
 20
1311.263541
 30
0.0
 11
1236.363049
 21
1311.263541
 31
0.0
  0
LINE
  5
3413
100
AcDbEntity
  8
0
100
AcDbLine
 10
1731.789275
 20
1783.950089
 30
0.0
 11
1731.789275
 21
1663.950089
 31
0.0
  0
LINE
  5
3414
100
AcDbEntity
  8
0
100
AcDbLine
 10
1751.789275
 20
1783.950089
 30
0.0
 11
1751.789275
 21
1663.950089
 31
0.0
  0
LINE
  5
341B
100
AcDbEntity
  8
0
100
AcDbLine
 10
1771.647787
 20
1701.950089
 30
0.0
 11
1756.789275
 21
1701.950089
 31
0.0
  0
LINE
  5
341C
100
AcDbEntity
  8
0
100
AcDbLine
 10
1751.789275
 20
1663.950089
 30
0.0
 11
1731.789275
 21
1663.950089
 31
0.0
  0
ARC
  5
341D
100
AcDbEntity
  8
0
100
AcDbCircle
 10
1756.789275
 20
1696.950089
 30
0.0
 40
5.0
100
AcDbArc
 50
90.0
 51
180.0
  0
LINE
  5
3423
100
AcDbEntity
  8
0
100
AcDbLine
 10
1771.647787
 20
1745.950089
 30
0.0
 11
1756.789275
 21
1745.950089
 31
0.0
  0
ARC
  5
3424
100
AcDbEntity
  8
0
100
AcDbCircle
 10
1756.789275
 20
1750.950089
 30
0.0
 40
5.0
100
AcDbArc
 50
180.0
 51
270.0
  0
LINE
  5
3425
100
AcDbEntity
  8
0
100
AcDbLine
 10
1751.789275
 20
1783.950089
 30
0.0
 11
1731.789275
 21
1783.950089
 31
0.0
  0
LINE
  5
342B
100
AcDbEntity
  8
0
100
AcDbLine
 10
1901.789275
 20
1783.950089
 30
0.0
 11
1901.789275
 21
1663.950089
 31
0.0
  0
LINE
  5
342C
100
AcDbEntity
  8
0
100
AcDbLine
 10
1921.789275
 20
1783.950089
 30
0.0
 11
1921.789275
 21
1663.950089
 31
0.0
  0
LINE
  5
342D
100
AcDbEntity
  8
0
100
AcDbLine
 10
1901.789275
 20
1663.950089
 30
0.0
 11
1921.789275
 21
1663.950089
 31
0.0
  0
LINE
  5
342E
100
AcDbEntity
  8
0
100
AcDbLine
 10
1881.930763
 20
1701.950089
 30
0.0
 11
1896.789275
 21
1701.950089
 31
0.0
  0
ARC
  5
342F
100
AcDbEntity
  8
0
100
AcDbCircle
 10
1896.789275
 20
1696.950089
 30
0.0
 40
5.0
100
AcDbArc
 50
0.0
 51
90.0
  0
ARC
  5
3430
100
AcDbEntity
  8
0
100
AcDbCircle
 10
1896.789275
 20
1750.950089
 30
0.0
 40
5.0
100
AcDbArc
 50
270.0
 51
0.0
  0
LINE
  5
3431
100
AcDbEntity
  8
0
100
AcDbLine
 10
1881.930763
 20
1745.950089
 30
0.0
 11
1896.789275
 21
1745.950089
 31
0.0
  0
LINE
  5
3432
100
AcDbEntity
  8
0
100
AcDbLine
 10
1901.789275
 20
1783.950089
 30
0.0
 11
1921.789275
 21
1783.950089
 31
0.0
  0
LINE
  5
3433
100
AcDbEntity
  8
0
100
AcDbLine
 10
1751.789275
 20
1561.515485
 30
0.0
 11
1751.789275
 21
1441.515485
 31
0.0
  0
LINE
  5
3434
100
AcDbEntity
  8
0
100
AcDbLine
 10
1731.789275
 20
1561.515485
 30
0.0
 11
1731.789275
 21
1441.515485
 31
0.0
  0
LINE
  5
3435
100
AcDbEntity
  8
0
100
AcDbLine
 10
1751.789275
 20
1441.515485
 30
0.0
 11
1731.789275
 21
1441.515485
 31
0.0
  0
LINE
  5
3436
100
AcDbEntity
  8
0
100
AcDbLine
 10
1771.647787
 20
1479.515485
 30
0.0
 11
1756.789275
 21
1479.515485
 31
0.0
  0
ARC
  5
3437
100
AcDbEntity
  8
0
100
AcDbCircle
 10
1756.789275
 20
1474.515485
 30
0.0
 40
5.0
100
AcDbArc
 50
90.0
 51
180.0
  0
ARC
  5
3438
100
AcDbEntity
  8
0
100
AcDbCircle
 10
1756.789275
 20
1528.515485
 30
0.0
 40
5.0
100
AcDbArc
 50
180.0
 51
270.0
  0
LINE
  5
3439
100
AcDbEntity
  8
0
100
AcDbLine
 10
1771.647787
 20
1523.515485
 30
0.0
 11
1756.789275
 21
1523.515485
 31
0.0
  0
LINE
  5
343A
100
AcDbEntity
  8
0
100
AcDbLine
 10
1751.789275
 20
1561.515485
 30
0.0
 11
1731.789275
 21
1561.515485
 31
0.0
  0
LINE
  5
343B
100
AcDbEntity
  8
0
100
AcDbLine
 10
1921.789275
 20
1561.515485
 30
0.0
 11
1921.789275
 21
1441.515485
 31
0.0
  0
LINE
  5
343C
100
AcDbEntity
  8
0
100
AcDbLine
 10
1901.789275
 20
1561.515485
 30
0.0
 11
1901.789275
 21
1441.515485
 31
0.0
  0
LINE
  5
343D
100
AcDbEntity
  8
0
100
AcDbLine
 10
1881.930763
 20
1479.515485
 30
0.0
 11
1896.789275
 21
1479.515485
 31
0.0
  0
LINE
  5
343E
100
AcDbEntity
  8
0
100
AcDbLine
 10
1901.789275
 20
1441.515485
 30
0.0
 11
1921.789275
 21
1441.515485
 31
0.0
  0
ARC
  5
343F
100
AcDbEntity
  8
0
100
AcDbCircle
 10
1896.789275
 20
1474.515485
 30
0.0
 40
5.0
100
AcDbArc
 50
0.0
 51
90.0
  0
LINE
  5
3440
100
AcDbEntity
  8
0
100
AcDbLine
 10
1881.930763
 20
1523.515485
 30
0.0
 11
1896.789275
 21
1523.515485
 31
0.0
  0
ARC
  5
3441
100
AcDbEntity
  8
0
100
AcDbCircle
 10
1896.789275
 20
1528.515485
 30
0.0
 40
5.0
100
AcDbArc
 50
270.0
 51
0.0
  0
LINE
  5
3442
100
AcDbEntity
  8
0
100
AcDbLine
 10
1901.789275
 20
1561.515485
 30
0.0
 11
1921.789275
 21
1561.515485
 31
0.0
  0
LINE
  5
3443
100
AcDbEntity
  8
0
100
AcDbLine
 10
1751.789275
 20
1313.763541
 30
0.0
 11
1751.789275
 21
1193.763541
 31
0.0
  0
LINE
  5
3444
100
AcDbEntity
  8
0
100
AcDbLine
 10
1731.789275
 20
1313.763541
 30
0.0
 11
1731.789275
 21
1193.763541
 31
0.0
  0
LINE
  5
3445
100
AcDbEntity
  8
0
100
AcDbLine
 10
1751.789275
 20
1193.763541
 30
0.0
 11
1731.789275
 21
1193.763541
 31
0.0
  0
LINE
  5
3446
100
AcDbEntity
  8
0
100
AcDbLine
 10
1771.647787
 20
1231.763541
 30
0.0
 11
1756.789275
 21
1231.763541
 31
0.0
  0
ARC
  5
3447
100
AcDbEntity
  8
0
100
AcDbCircle
 10
1756.789275
 20
1226.763541
 30
0.0
 40
5.0
100
AcDbArc
 50
90.0
 51
180.0
  0
ARC
  5
3448
100
AcDbEntity
  8
0
100
AcDbCircle
 10
1756.789275
 20
1280.763541
 30
0.0
 40
5.0
100
AcDbArc
 50
180.0
 51
270.0
  0
LINE
  5
3449
100
AcDbEntity
  8
0
100
AcDbLine
 10
1771.647787
 20
1275.763541
 30
0.0
 11
1756.789275
 21
1275.763541
 31
0.0
  0
LINE
  5
344A
100
AcDbEntity
  8
0
100
AcDbLine
 10
1751.789275
 20
1313.763541
 30
0.0
 11
1731.789275
 21
1313.763541
 31
0.0
  0
LINE
  5
344B
100
AcDbEntity
  8
0
100
AcDbLine
 10
1921.789275
 20
1313.763541
 30
0.0
 11
1921.789275
 21
1193.763541
 31
0.0
  0
LINE
  5
344C
100
AcDbEntity
  8
0
100
AcDbLine
 10
1901.789275
 20
1313.763541
 30
0.0
 11
1901.789275
 21
1193.763541
 31
0.0
  0
LINE
  5
344D
100
AcDbEntity
  8
0
100
AcDbLine
 10
1881.930763
 20
1231.763541
 30
0.0
 11
1896.789275
 21
1231.763541
 31
0.0
  0
LINE
  5
344E
100
AcDbEntity
  8
0
100
AcDbLine
 10
1901.789275
 20
1193.763541
 30
0.0
 11
1921.789275
 21
1193.763541
 31
0.0
  0
ARC
  5
344F
100
AcDbEntity
  8
0
100
AcDbCircle
 10
1896.789275
 20
1226.763541
 30
0.0
 40
5.0
100
AcDbArc
 50
0.0
 51
90.0
  0
LINE
  5
3450
100
AcDbEntity
  8
0
100
AcDbLine
 10
1881.930763
 20
1275.763541
 30
0.0
 11
1896.789275
 21
1275.763541
 31
0.0
  0
ARC
  5
3451
100
AcDbEntity
  8
0
100
AcDbCircle
 10
1896.789275
 20
1280.763541
 30
0.0
 40
5.0
100
AcDbArc
 50
270.0
 51
0.0
  0
LINE
  5
3452
100
AcDbEntity
  8
0
100
AcDbLine
 10
1901.789275
 20
1313.763541
 30
0.0
 11
1921.789275
 21
1313.763541
 31
0.0
  0
LINE
  5
3493
100
AcDbEntity
  8
0
100
AcDbLine
 10
2479.086139
 20
1788.950089
 30
0.0
 11
2479.086139
 21
1658.950089
 31
0.0
  0
LINE
  5
3494
100
AcDbEntity
  8
0
100
AcDbLine
 10
2457.086139
 20
1788.950089
 30
0.0
 11
2457.086139
 21
1658.950089
 31
0.0
  0
LINE
  5
3496
100
AcDbEntity
  8
0
100
AcDbLine
 10
2479.086139
 20
1658.950089
 30
0.0
 11
2457.086139
 21
1658.950089
 31
0.0
  0
LINE
  5
3497
100
AcDbEntity
  8
0
100
AcDbLine
 10
2505.133362
 20
1705.450089
 30
0.0
 11
2483.086139
 21
1705.450089
 31
0.0
  0
ARC
  5
3498
100
AcDbEntity
  8
0
100
AcDbCircle
 10
2483.086139
 20
1701.450089
 30
0.0
 40
4.0
100
AcDbArc
 50
90.0
 51
180.0
  0
LINE
  5
349C
100
AcDbEntity
  8
0
100
AcDbLine
 10
2505.133362
 20
1742.450089
 30
0.0
 11
2483.086139
 21
1742.450089
 31
0.0
  0
ARC
  5
349D
100
AcDbEntity
  8
0
100
AcDbCircle
 10
2483.086139
 20
1746.450089
 30
0.0
 40
4.0
100
AcDbArc
 50
180.0
 51
270.0
  0
LINE
  5
349E
100
AcDbEntity
  8
0
100
AcDbLine
 10
2479.086139
 20
1788.950089
 30
0.0
 11
2457.086139
 21
1788.950089
 31
0.0
  0
ARC
  5
34A1
100
AcDbEntity
  8
0
100
AcDbCircle
 10
2651.086139
 20
1701.450089
 30
0.0
 40
4.0
100
AcDbArc
 50
0.0
 51
90.0
  0
LINE
  5
34A2
100
AcDbEntity
  8
0
100
AcDbLine
 10
2677.086139
 20
1788.950089
 30
0.0
 11
2677.086139
 21
1658.950089
 31
0.0
  0
LINE
  5
34A3
100
AcDbEntity
  8
0
100
AcDbLine
 10
2655.086139
 20
1788.950089
 30
0.0
 11
2655.086139
 21
1658.950089
 31
0.0
  0
LINE
  5
34A4
100
AcDbEntity
  8
0
100
AcDbLine
 10
2655.086139
 20
1658.950089
 30
0.0
 11
2677.086139
 21
1658.950089
 31
0.0
  0
ARC
  5
34A5
100
AcDbEntity
  8
0
100
AcDbCircle
 10
2651.086139
 20
1746.450089
 30
0.0
 40
4.0
100
AcDbArc
 50
270.0
 51
0.0
  0
LINE
  5
34A6
100
AcDbEntity
  8
0
100
AcDbLine
 10
2655.086139
 20
1788.950089
 30
0.0
 11
2677.086139
 21
1788.950089
 31
0.0
  0
LINE
  5
34A7
100
AcDbEntity
  8
0
100
AcDbLine
 10
2629.038916
 20
1705.450089
 30
0.0
 11
2651.086139
 21
1705.450089
 31
0.0
  0
LINE
  5
34A8
100
AcDbEntity
  8
0
100
AcDbLine
 10
2629.038916
 20
1742.450089
 30
0.0
 11
2651.086139
 21
1742.450089
 31
0.0
  0
ARC
  5
34A9
100
AcDbEntity
  8
0
100
AcDbCircle
 10
2483.086139
 20
1479.015485
 30
0.0
 40
4.0
100
AcDbArc
 50
90.0
 51
180.0
  0
LINE
  5
34AA
100
AcDbEntity
  8
0
100
AcDbLine
 10
2457.086139
 20
1566.515485
 30
0.0
 11
2457.086139
 21
1436.515485
 31
0.0
  0
LINE
  5
34AB
100
AcDbEntity
  8
0
100
AcDbLine
 10
2479.086139
 20
1566.515485
 30
0.0
 11
2479.086139
 21
1436.515485
 31
0.0
  0
LINE
  5
34AC
100
AcDbEntity
  8
0
100
AcDbLine
 10
2479.086139
 20
1436.515485
 30
0.0
 11
2457.086139
 21
1436.515485
 31
0.0
  0
ARC
  5
34AD
100
AcDbEntity
  8
0
100
AcDbCircle
 10
2483.086139
 20
1524.015485
 30
0.0
 40
4.0
100
AcDbArc
 50
180.0
 51
270.0
  0
LINE
  5
34AE
100
AcDbEntity
  8
0
100
AcDbLine
 10
2479.086139
 20
1566.515485
 30
0.0
 11
2457.086139
 21
1566.515485
 31
0.0
  0
LINE
  5
34AF
100
AcDbEntity
  8
0
100
AcDbLine
 10
2505.133362
 20
1483.015485
 30
0.0
 11
2483.086139
 21
1483.015485
 31
0.0
  0
LINE
  5
34B0
100
AcDbEntity
  8
0
100
AcDbLine
 10
2505.133362
 20
1520.015485
 30
0.0
 11
2483.086139
 21
1520.015485
 31
0.0
  0
LINE
  5
34B1
100
AcDbEntity
  8
0
100
AcDbLine
 10
2655.086139
 20
1566.515485
 30
0.0
 11
2655.086139
 21
1436.515485
 31
0.0
  0
LINE
  5
34B2
100
AcDbEntity
  8
0
100
AcDbLine
 10
2677.086139
 20
1566.515485
 30
0.0
 11
2677.086139
 21
1436.515485
 31
0.0
  0
ARC
  5
34B3
100
AcDbEntity
  8
0
100
AcDbCircle
 10
2651.086139
 20
1479.015485
 30
0.0
 40
4.0
100
AcDbArc
 50
0.0
 51
90.0
  0
LINE
  5
34B4
100
AcDbEntity
  8
0
100
AcDbLine
 10
2629.038916
 20
1483.015485
 30
0.0
 11
2651.086139
 21
1483.015485
 31
0.0
  0
LINE
  5
34B5
100
AcDbEntity
  8
0
100
AcDbLine
 10
2655.086139
 20
1436.515485
 30
0.0
 11
2677.086139
 21
1436.515485
 31
0.0
  0
LINE
  5
34B6
100
AcDbEntity
  8
0
100
AcDbLine
 10
2629.038916
 20
1520.015485
 30
0.0
 11
2651.086139
 21
1520.015485
 31
0.0
  0
ARC
  5
34B7
100
AcDbEntity
  8
0
100
AcDbCircle
 10
2651.086139
 20
1524.015485
 30
0.0
 40
4.0
100
AcDbArc
 50
270.0
 51
0.0
  0
LINE
  5
34B8
100
AcDbEntity
  8
0
100
AcDbLine
 10
2655.086139
 20
1566.515485
 30
0.0
 11
2677.086139
 21
1566.515485
 31
0.0
  0
ARC
  5
34B9
100
AcDbEntity
  8
0
100
AcDbCircle
 10
2483.086139
 20
1231.263541
 30
0.0
 40
4.0
100
AcDbArc
 50
90.0
 51
180.0
  0
LINE
  5
34BA
100
AcDbEntity
  8
0
100
AcDbLine
 10
2457.086139
 20
1318.763541
 30
0.0
 11
2457.086139
 21
1188.763541
 31
0.0
  0
LINE
  5
34BB
100
AcDbEntity
  8
0
100
AcDbLine
 10
2479.086139
 20
1318.763541
 30
0.0
 11
2479.086139
 21
1188.763541
 31
0.0
  0
LINE
  5
34BC
100
AcDbEntity
  8
0
100
AcDbLine
 10
2479.086139
 20
1188.763541
 30
0.0
 11
2457.086139
 21
1188.763541
 31
0.0
  0
ARC
  5
34BD
100
AcDbEntity
  8
0
100
AcDbCircle
 10
2483.086139
 20
1276.263541
 30
0.0
 40
4.0
100
AcDbArc
 50
180.0
 51
270.0
  0
LINE
  5
34BE
100
AcDbEntity
  8
0
100
AcDbLine
 10
2479.086139
 20
1318.763541
 30
0.0
 11
2457.086139
 21
1318.763541
 31
0.0
  0
LINE
  5
34BF
100
AcDbEntity
  8
0
100
AcDbLine
 10
2505.133362
 20
1235.263541
 30
0.0
 11
2483.086139
 21
1235.263541
 31
0.0
  0
LINE
  5
34C0
100
AcDbEntity
  8
0
100
AcDbLine
 10
2505.133362
 20
1272.263541
 30
0.0
 11
2483.086139
 21
1272.263541
 31
0.0
  0
LINE
  5
34C1
100
AcDbEntity
  8
0
100
AcDbLine
 10
2655.086139
 20
1318.763541
 30
0.0
 11
2655.086139
 21
1188.763541
 31
0.0
  0
LINE
  5
34C2
100
AcDbEntity
  8
0
100
AcDbLine
 10
2677.086139
 20
1318.763541
 30
0.0
 11
2677.086139
 21
1188.763541
 31
0.0
  0
ARC
  5
34C3
100
AcDbEntity
  8
0
100
AcDbCircle
 10
2651.086139
 20
1231.263541
 30
0.0
 40
4.0
100
AcDbArc
 50
0.0
 51
90.0
  0
LINE
  5
34C4
100
AcDbEntity
  8
0
100
AcDbLine
 10
2629.038916
 20
1235.263541
 30
0.0
 11
2651.086139
 21
1235.263541
 31
0.0
  0
LINE
  5
34C5
100
AcDbEntity
  8
0
100
AcDbLine
 10
2655.086139
 20
1188.763541
 30
0.0
 11
2677.086139
 21
1188.763541
 31
0.0
  0
LINE
  5
34C6
100
AcDbEntity
  8
0
100
AcDbLine
 10
2629.038916
 20
1272.263541
 30
0.0
 11
2651.086139
 21
1272.263541
 31
0.0
  0
ARC
  5
34C7
100
AcDbEntity
  8
0
100
AcDbCircle
 10
2651.086139
 20
1276.263541
 30
0.0
 40
4.0
100
AcDbArc
 50
270.0
 51
0.0
  0
LINE
  5
34C8
100
AcDbEntity
  8
0
100
AcDbLine
 10
2655.086139
 20
1318.763541
 30
0.0
 11
2677.086139
 21
1318.763541
 31
0.0
  0
ARC
  5
34C9
100
AcDbEntity
  8
0
100
AcDbCircle
 10
2511.833312
 20
1509.84447
 30
0.0
 40
12.179445
100
AcDbArc
 50
89.476223
 51
123.374083
  0
LINE
  5
34CA
100
AcDbEntity
  8
0
100
AcDbLine
 10
2505.133362
 20
1483.015485
 30
0.0
 11
2505.133362
 21
1520.015485
 31
0.0
  0
ARC
  5
34CB
100
AcDbEntity
  8
0
100
AcDbCircle
 10
2511.833312
 20
1493.1865
 30
0.0
 40
12.179445
100
AcDbArc
 50
236.625917
 51
270.523777
  0
ARC
  5
34CC
100
AcDbEntity
  8
0
100
AcDbCircle
 10
2622.338966
 20
1493.1865
 30
0.0
 40
12.179445
100
AcDbArc
 50
269.476223
 51
303.374083
  0
ARC
  5
34CD
100
AcDbEntity
  8
0
100
AcDbCircle
 10
2622.338966
 20
1509.84447
 30
0.0
 40
12.179445
100
AcDbArc
 50
56.625917
 51
90.523777
  0
LINE
  5
34CE
100
AcDbEntity
  8
0
100
AcDbLine
 10
2629.038916
 20
1483.015485
 30
0.0
 11
2629.038916
 21
1520.015485
 31
0.0
  0
ARC
  5
34CF
100
AcDbEntity
  8
0
100
AcDbCircle
 10
2511.833312
 20
1262.092526
 30
0.0
 40
12.179445
100
AcDbArc
 50
89.476223
 51
123.374083
  0
LINE
  5
34D0
100
AcDbEntity
  8
0
100
AcDbLine
 10
2505.133362
 20
1235.263541
 30
0.0
 11
2505.133362
 21
1272.263541
 31
0.0
  0
ARC
  5
34D1
100
AcDbEntity
  8
0
100
AcDbCircle
 10
2511.833312
 20
1245.434556
 30
0.0
 40
12.179445
100
AcDbArc
 50
236.625917
 51
270.523777
  0
ARC
  5
34D2
100
AcDbEntity
  8
0
100
AcDbCircle
 10
2622.338966
 20
1245.434556
 30
0.0
 40
12.179445
100
AcDbArc
 50
269.476223
 51
303.374083
  0
ARC
  5
34D3
100
AcDbEntity
  8
0
100
AcDbCircle
 10
2622.338966
 20
1262.092526
 30
0.0
 40
12.179445
100
AcDbArc
 50
56.625917
 51
90.523777
  0
LINE
  5
34D4
100
AcDbEntity
  8
0
100
AcDbLine
 10
2629.038916
 20
1235.263541
 30
0.0
 11
2629.038916
 21
1272.263541
 31
0.0
  0
LINE
  5
34F0
100
AcDbEntity
  8
0
100
AcDbLine
 10
477.047458
 20
434.467165
 30
0.0
 11
477.047458
 21
294.467165
 31
0.0
  0
LINE
  5
34F1
100
AcDbEntity
  8
0
100
AcDbLine
 10
501.047458
 20
434.467165
 30
0.0
 11
501.047458
 21
294.467165
 31
0.0
  0
LINE
  5
34F2
100
AcDbEntity
  8
0
100
AcDbLine
 10
522.496605
 20
341.467165
 30
0.0
 11
503.807394
 21
339.688729
 31
0.0
  0
LINE
  5
34F3
100
AcDbEntity
  8
0
100
AcDbLine
 10
477.047458
 20
294.467165
 30
0.0
 11
501.047458
 21
294.467165
 31
0.0
  0
ARC
  5
34F4
100
AcDbEntity
  8
0
100
AcDbCircle
 10
504.047458
 20
336.69835
 30
0.0
 40
3.0
100
AcDbArc
 50
94.58978
 51
180.0
  0
LINE
  5
34F8
100
AcDbEntity
  8
0
100
AcDbLine
 10
522.496605
 20
387.467165
 30
0.0
 11
503.807394
 21
389.245602
 31
0.0
  0
ARC
  5
34F9
100
AcDbEntity
  8
0
100
AcDbCircle
 10
504.047458
 20
392.235981
 30
0.0
 40
3.0
100
AcDbArc
 50
180.0
 51
265.41022
  0
LINE
  5
34FA
100
AcDbEntity
  8
0
100
AcDbLine
 10
477.047458
 20
434.467165
 30
0.0
 11
501.047458
 21
434.467165
 31
0.0
  0
LINE
  5
34FE
100
AcDbEntity
  8
0
100
AcDbLine
 10
673.047458
 20
434.467165
 30
0.0
 11
673.047458
 21
294.467165
 31
0.0
  0
LINE
  5
34FF
100
AcDbEntity
  8
0
100
AcDbLine
 10
697.047458
 20
434.467165
 30
0.0
 11
697.047458
 21
294.467165
 31
0.0
  0
LINE
  5
3500
100
AcDbEntity
  8
0
100
AcDbLine
 10
697.047458
 20
294.467165
 30
0.0
 11
673.047458
 21
294.467165
 31
0.0
  0
LINE
  5
3501
100
AcDbEntity
  8
0
100
AcDbLine
 10
651.598311
 20
341.467165
 30
0.0
 11
670.287521
 21
339.688729
 31
0.0
  0
ARC
  5
3502
100
AcDbEntity
  8
0
100
AcDbCircle
 10
670.047458
 20
336.69835
 30
0.0
 40
3.0
100
AcDbArc
 50
0.0
 51
85.41022
  0
LINE
  5
3503
100
AcDbEntity
  8
0
100
AcDbLine
 10
651.598311
 20
387.467165
 30
0.0
 11
670.287521
 21
389.245602
 31
0.0
  0
ARC
  5
3504
100
AcDbEntity
  8
0
100
AcDbCircle
 10
670.047458
 20
392.235981
 30
0.0
 40
3.0
100
AcDbArc
 50
274.58978
 51
0.0
  0
LINE
  5
3505
100
AcDbEntity
  8
0
100
AcDbLine
 10
697.047458
 20
434.467165
 30
0.0
 11
673.047458
 21
434.467165
 31
0.0
  0
LINE
  5
3506
100
AcDbEntity
  8
0
100
AcDbLine
 10
501.047458
 20
682.219109
 30
0.0
 11
501.047458
 21
542.219109
 31
0.0
  0
LINE
  5
3507
100
AcDbEntity
  8
0
100
AcDbLine
 10
477.047458
 20
682.219109
 30
0.0
 11
477.047458
 21
542.219109
 31
0.0
  0
LINE
  5
3508
100
AcDbEntity
  8
0
100
AcDbLine
 10
477.047458
 20
542.219109
 30
0.0
 11
501.047458
 21
542.219109
 31
0.0
  0
LINE
  5
3509
100
AcDbEntity
  8
0
100
AcDbLine
 10
522.496605
 20
589.219109
 30
0.0
 11
503.807394
 21
587.440673
 31
0.0
  0
ARC
  5
350A
100
AcDbEntity
  8
0
100
AcDbCircle
 10
504.047458
 20
584.450294
 30
0.0
 40
3.0
100
AcDbArc
 50
94.58978
 51
180.0
  0
LINE
  5
350B
100
AcDbEntity
  8
0
100
AcDbLine
 10
522.496605
 20
635.219109
 30
0.0
 11
503.807394
 21
636.997546
 31
0.0
  0
ARC
  5
350C
100
AcDbEntity
  8
0
100
AcDbCircle
 10
504.047458
 20
639.987925
 30
0.0
 40
3.0
100
AcDbArc
 50
180.0
 51
265.41022
  0
LINE
  5
350D
100
AcDbEntity
  8
0
100
AcDbLine
 10
477.047458
 20
682.219109
 30
0.0
 11
501.047458
 21
682.219109
 31
0.0
  0
LINE
  5
350E
100
AcDbEntity
  8
0
100
AcDbLine
 10
697.047458
 20
682.219109
 30
0.0
 11
697.047458
 21
542.219109
 31
0.0
  0
LINE
  5
350F
100
AcDbEntity
  8
0
100
AcDbLine
 10
673.047458
 20
682.219109
 30
0.0
 11
673.047458
 21
542.219109
 31
0.0
  0
ARC
  5
3510
100
AcDbEntity
  8
0
100
AcDbCircle
 10
670.047458
 20
639.987925
 30
0.0
 40
3.0
100
AcDbArc
 50
274.58978
 51
0.0
  0
ARC
  5
3511
100
AcDbEntity
  8
0
100
AcDbCircle
 10
670.047458
 20
584.450294
 30
0.0
 40
3.0
100
AcDbArc
 50
0.0
 51
85.41022
  0
LINE
  5
3512
100
AcDbEntity
  8
0
100
AcDbLine
 10
651.598311
 20
589.219109
 30
0.0
 11
670.287521
 21
587.440673
 31
0.0
  0
LINE
  5
3513
100
AcDbEntity
  8
0
100
AcDbLine
 10
651.598311
 20
635.219109
 30
0.0
 11
670.287521
 21
636.997546
 31
0.0
  0
LINE
  5
3514
100
AcDbEntity
  8
0
100
AcDbLine
 10
697.047458
 20
542.219109
 30
0.0
 11
673.047458
 21
542.219109
 31
0.0
  0
LINE
  5
3515
100
AcDbEntity
  8
0
100
AcDbLine
 10
697.047458
 20
682.219109
 30
0.0
 11
673.047458
 21
682.219109
 31
0.0
  0
LINE
  5
3516
100
AcDbEntity
  8
0
100
AcDbLine
 10
501.047458
 20
904.653714
 30
0.0
 11
501.047458
 21
764.653714
 31
0.0
  0
LINE
  5
3517
100
AcDbEntity
  8
0
100
AcDbLine
 10
477.047458
 20
904.653714
 30
0.0
 11
477.047458
 21
764.653714
 31
0.0
  0
LINE
  5
3518
100
AcDbEntity
  8
0
100
AcDbLine
 10
477.047458
 20
764.653714
 30
0.0
 11
501.047458
 21
764.653714
 31
0.0
  0
LINE
  5
3519
100
AcDbEntity
  8
0
100
AcDbLine
 10
522.496605
 20
811.653714
 30
0.0
 11
503.807394
 21
809.875277
 31
0.0
  0
ARC
  5
351A
100
AcDbEntity
  8
0
100
AcDbCircle
 10
504.047458
 20
806.884898
 30
0.0
 40
3.0
100
AcDbArc
 50
94.58978
 51
180.0
  0
LINE
  5
351B
100
AcDbEntity
  8
0
100
AcDbLine
 10
522.496605
 20
857.653714
 30
0.0
 11
503.807394
 21
859.43215
 31
0.0
  0
ARC
  5
351C
100
AcDbEntity
  8
0
100
AcDbCircle
 10
504.047458
 20
862.422529
 30
0.0
 40
3.0
100
AcDbArc
 50
180.0
 51
265.41022
  0
LINE
  5
351D
100
AcDbEntity
  8
0
100
AcDbLine
 10
477.047458
 20
904.653714
 30
0.0
 11
501.047458
 21
904.653714
 31
0.0
  0
LINE
  5
351E
100
AcDbEntity
  8
0
100
AcDbLine
 10
697.047458
 20
904.653714
 30
0.0
 11
697.047458
 21
764.653714
 31
0.0
  0
LINE
  5
351F
100
AcDbEntity
  8
0
100
AcDbLine
 10
673.047458
 20
904.653714
 30
0.0
 11
673.047458
 21
764.653714
 31
0.0
  0
ARC
  5
3520
100
AcDbEntity
  8
0
100
AcDbCircle
 10
670.047458
 20
862.422529
 30
0.0
 40
3.0
100
AcDbArc
 50
274.58978
 51
0.0
  0
ARC
  5
3521
100
AcDbEntity
  8
0
100
AcDbCircle
 10
670.047458
 20
806.884898
 30
0.0
 40
3.0
100
AcDbArc
 50
0.0
 51
85.41022
  0
LINE
  5
3522
100
AcDbEntity
  8
0
100
AcDbLine
 10
651.598311
 20
811.653714
 30
0.0
 11
670.287521
 21
809.875277
 31
0.0
  0
LINE
  5
3523
100
AcDbEntity
  8
0
100
AcDbLine
 10
651.598311
 20
857.653714
 30
0.0
 11
670.287521
 21
859.43215
 31
0.0
  0
LINE
  5
3524
100
AcDbEntity
  8
0
100
AcDbLine
 10
697.047458
 20
764.653714
 30
0.0
 11
673.047458
 21
764.653714
 31
0.0
  0
LINE
  5
3525
100
AcDbEntity
  8
0
100
AcDbLine
 10
697.047458
 20
904.653714
 30
0.0
 11
673.047458
 21
904.653714
 31
0.0
  0
LINE
  5
353B
100
AcDbEntity
  8
0
100
AcDbLine
 10
1336.770048
 20
284.467165
 30
0.0
 11
1360.770048
 21
284.467165
 31
0.0
  0
LINE
  5
353C
100
AcDbEntity
  8
0
100
AcDbLine
 10
1336.770048
 20
444.467165
 30
0.0
 11
1360.770048
 21
444.467165
 31
0.0
  0
LINE
  5
353D
100
AcDbEntity
  8
0
100
AcDbLine
 10
1336.770048
 20
444.467165
 30
0.0
 11
1336.770048
 21
284.467165
 31
0.0
  0
LINE
  5
353E
100
AcDbEntity
  8
0
100
AcDbLine
 10
1360.770048
 20
444.467165
 30
0.0
 11
1360.770048
 21
284.467165
 31
0.0
  0
LINE
  5
353F
100
AcDbEntity
  8
0
100
AcDbLine
 10
1382.469195
 20
387.467165
 30
0.0
 11
1363.529984
 21
389.245602
 31
0.0
  0
LINE
  5
3543
100
AcDbEntity
  8
0
100
AcDbLine
 10
1382.469195
 20
341.467165
 30
0.0
 11
1363.529984
 21
339.688729
 31
0.0
  0
ARC
  5
3544
100
AcDbEntity
  8
0
100
AcDbCircle
 10
1363.770048
 20
336.69835
 30
0.0
 40
3.0
100
AcDbArc
 50
94.58978
 51
180.0
  0
ARC
  5
354C
100
AcDbEntity
  8
0
100
AcDbCircle
 10
1363.770048
 20
392.235981
 30
0.0
 40
3.0
100
AcDbArc
 50
180.0
 51
265.41022
  0
LINE
  5
354D
100
AcDbEntity
  8
0
100
AcDbLine
 10
1533.270048
 20
444.467165
 30
0.0
 11
1533.270048
 21
284.467165
 31
0.0
  0
LINE
  5
354E
100
AcDbEntity
  8
0
100
AcDbLine
 10
1557.270048
 20
444.467165
 30
0.0
 11
1557.270048
 21
284.467165
 31
0.0
  0
LINE
  5
354F
100
AcDbEntity
  8
0
100
AcDbLine
 10
1511.570901
 20
341.467165
 30
0.0
 11
1530.510111
 21
339.688729
 31
0.0
  0
LINE
  5
3550
100
AcDbEntity
  8
0
100
AcDbLine
 10
1511.570901
 20
387.467165
 30
0.0
 11
1530.510111
 21
389.245602
 31
0.0
  0
LINE
  5
3551
100
AcDbEntity
  8
0
100
AcDbLine
 10
1557.270048
 20
284.467165
 30
0.0
 11
1533.270048
 21
284.467165
 31
0.0
  0
ARC
  5
3552
100
AcDbEntity
  8
0
100
AcDbCircle
 10
1530.270048
 20
336.69835
 30
0.0
 40
3.0
100
AcDbArc
 50
0.0
 51
85.41022
  0
ARC
  5
3553
100
AcDbEntity
  8
0
100
AcDbCircle
 10
1530.270048
 20
392.235981
 30
0.0
 40
3.0
100
AcDbArc
 50
274.58978
 51
0.0
  0
LINE
  5
3554
100
AcDbEntity
  8
0
100
AcDbLine
 10
1557.270048
 20
444.467165
 30
0.0
 11
1533.270048
 21
444.467165
 31
0.0
  0
LINE
  5
3555
100
AcDbEntity
  8
0
100
AcDbLine
 10
1360.770048
 20
692.219109
 30
0.0
 11
1360.770048
 21
532.219109
 31
0.0
  0
LINE
  5
3556
100
AcDbEntity
  8
0
100
AcDbLine
 10
1336.770048
 20
692.219109
 30
0.0
 11
1336.770048
 21
532.219109
 31
0.0
  0
LINE
  5
3557
100
AcDbEntity
  8
0
100
AcDbLine
 10
1382.469195
 20
589.219109
 30
0.0
 11
1363.529984
 21
587.440673
 31
0.0
  0
LINE
  5
3558
100
AcDbEntity
  8
0
100
AcDbLine
 10
1382.469195
 20
635.219109
 30
0.0
 11
1363.529984
 21
636.997546
 31
0.0
  0
LINE
  5
3559
100
AcDbEntity
  8
0
100
AcDbLine
 10
1336.770048
 20
532.219109
 30
0.0
 11
1360.770048
 21
532.219109
 31
0.0
  0
ARC
  5
355A
100
AcDbEntity
  8
0
100
AcDbCircle
 10
1363.770048
 20
584.450294
 30
0.0
 40
3.0
100
AcDbArc
 50
94.58978
 51
180.0
  0
ARC
  5
355B
100
AcDbEntity
  8
0
100
AcDbCircle
 10
1363.770048
 20
639.987925
 30
0.0
 40
3.0
100
AcDbArc
 50
180.0
 51
265.41022
  0
LINE
  5
355C
100
AcDbEntity
  8
0
100
AcDbLine
 10
1336.770048
 20
692.219109
 30
0.0
 11
1360.770048
 21
692.219109
 31
0.0
  0
LINE
  5
355D
100
AcDbEntity
  8
0
100
AcDbLine
 10
1557.270048
 20
692.219109
 30
0.0
 11
1557.270048
 21
532.219109
 31
0.0
  0
LINE
  5
355E
100
AcDbEntity
  8
0
100
AcDbLine
 10
1533.270048
 20
692.219109
 30
0.0
 11
1533.270048
 21
532.219109
 31
0.0
  0
LINE
  5
355F
100
AcDbEntity
  8
0
100
AcDbLine
 10
1557.270048
 20
532.219109
 30
0.0
 11
1533.270048
 21
532.219109
 31
0.0
  0
LINE
  5
3560
100
AcDbEntity
  8
0
100
AcDbLine
 10
1511.570901
 20
589.219109
 30
0.0
 11
1530.510111
 21
587.440673
 31
0.0
  0
ARC
  5
3561
100
AcDbEntity
  8
0
100
AcDbCircle
 10
1530.270048
 20
584.450294
 30
0.0
 40
3.0
100
AcDbArc
 50
0.0
 51
85.41022
  0
LINE
  5
3562
100
AcDbEntity
  8
0
100
AcDbLine
 10
1511.570901
 20
635.219109
 30
0.0
 11
1530.510111
 21
636.997546
 31
0.0
  0
ARC
  5
3563
100
AcDbEntity
  8
0
100
AcDbCircle
 10
1530.270048
 20
639.987925
 30
0.0
 40
3.0
100
AcDbArc
 50
274.58978
 51
0.0
  0
LINE
  5
3564
100
AcDbEntity
  8
0
100
AcDbLine
 10
1557.270048
 20
692.219109
 30
0.0
 11
1533.270048
 21
692.219109
 31
0.0
  0
LINE
  5
3565
100
AcDbEntity
  8
0
100
AcDbLine
 10
1360.770048
 20
914.653714
 30
0.0
 11
1360.770048
 21
754.653714
 31
0.0
  0
LINE
  5
3566
100
AcDbEntity
  8
0
100
AcDbLine
 10
1336.770048
 20
914.653714
 30
0.0
 11
1336.770048
 21
754.653714
 31
0.0
  0
LINE
  5
3567
100
AcDbEntity
  8
0
100
AcDbLine
 10
1382.469195
 20
811.653714
 30
0.0
 11
1363.529984
 21
809.875277
 31
0.0
  0
LINE
  5
3568
100
AcDbEntity
  8
0
100
AcDbLine
 10
1382.469195
 20
857.653714
 30
0.0
 11
1363.529984
 21
859.43215
 31
0.0
  0
LINE
  5
3569
100
AcDbEntity
  8
0
100
AcDbLine
 10
1336.770048
 20
754.653714
 30
0.0
 11
1360.770048
 21
754.653714
 31
0.0
  0
ARC
  5
356A
100
AcDbEntity
  8
0
100
AcDbCircle
 10
1363.770048
 20
806.884898
 30
0.0
 40
3.0
100
AcDbArc
 50
94.58978
 51
180.0
  0
ARC
  5
356B
100
AcDbEntity
  8
0
100
AcDbCircle
 10
1363.770048
 20
862.422529
 30
0.0
 40
3.0
100
AcDbArc
 50
180.0
 51
265.41022
  0
LINE
  5
356C
100
AcDbEntity
  8
0
100
AcDbLine
 10
1336.770048
 20
914.653714
 30
0.0
 11
1360.770048
 21
914.653714
 31
0.0
  0
LINE
  5
356D
100
AcDbEntity
  8
0
100
AcDbLine
 10
1557.270048
 20
914.653714
 30
0.0
 11
1557.270048
 21
754.653714
 31
0.0
  0
LINE
  5
356E
100
AcDbEntity
  8
0
100
AcDbLine
 10
1533.270048
 20
914.653714
 30
0.0
 11
1533.270048
 21
754.653714
 31
0.0
  0
LINE
  5
356F
100
AcDbEntity
  8
0
100
AcDbLine
 10
1557.270048
 20
754.653714
 30
0.0
 11
1533.270048
 21
754.653714
 31
0.0
  0
LINE
  5
3570
100
AcDbEntity
  8
0
100
AcDbLine
 10
1511.570901
 20
811.653714
 30
0.0
 11
1530.510111
 21
809.875277
 31
0.0
  0
ARC
  5
3571
100
AcDbEntity
  8
0
100
AcDbCircle
 10
1530.270048
 20
806.884898
 30
0.0
 40
3.0
100
AcDbArc
 50
0.0
 51
85.41022
  0
LINE
  5
3572
100
AcDbEntity
  8
0
100
AcDbLine
 10
1511.570901
 20
857.653714
 30
0.0
 11
1530.510111
 21
859.43215
 31
0.0
  0
ARC
  5
3573
100
AcDbEntity
  8
0
100
AcDbCircle
 10
1530.270048
 20
862.422529
 30
0.0
 40
3.0
100
AcDbArc
 50
274.58978
 51
0.0
  0
LINE
  5
3574
100
AcDbEntity
  8
0
100
AcDbLine
 10
1557.270048
 20
914.653714
 30
0.0
 11
1533.270048
 21
914.653714
 31
0.0
  0
LINE
  5
359E
100
AcDbEntity
  8
0
100
AcDbLine
 10
2286.407452
 20
446.967165
 30
0.0
 11
2286.407452
 21
281.967165
 31
0.0
  0
LINE
  5
359F
100
AcDbEntity
  8
0
100
AcDbLine
 10
2312.407452
 20
446.967165
 30
0.0
 11
2312.407452
 21
281.967165
 31
0.0
  0
LINE
  5
35A0
100
AcDbEntity
  8
0
100
AcDbLine
 10
2286.407452
 20
446.967165
 30
0.0
 11
2312.407452
 21
446.967165
 31
0.0
  0
LINE
  5
35A1
100
AcDbEntity
  8
0
100
AcDbLine
 10
2286.407452
 20
281.967165
 30
0.0
 11
2312.407452
 21
281.967165
 31
0.0
  0
ARC
  5
35A3
100
AcDbEntity
  8
0
100
AcDbCircle
 10
2315.407452
 20
395.620975
 30
0.0
 40
3.0
100
AcDbArc
 50
180.0
 51
253.037129
  0
ARC
  5
35A4
100
AcDbEntity
  8
0
100
AcDbCircle
 10
2315.407452
 20
333.313355
 30
0.0
 40
3.0
100
AcDbArc
 50
106.962871
 51
180.0
  0
LINE
  5
35A5
100
AcDbEntity
  8
0
100
AcDbLine
 10
2490.124475
 20
446.967165
 30
0.0
 11
2490.124475
 21
281.967165
 31
0.0
  0
LINE
  5
35A6
100
AcDbEntity
  8
0
100
AcDbLine
 10
2516.124475
 20
446.967165
 30
0.0
 11
2516.124475
 21
281.967165
 31
0.0
  0
LINE
  5
35A7
100
AcDbEntity
  8
0
100
AcDbLine
 10
2516.124475
 20
281.967165
 30
0.0
 11
2490.124475
 21
281.967165
 31
0.0
  0
LINE
  5
35AA
100
AcDbEntity
  8
0
100
AcDbLine
 10
2516.124475
 20
446.967165
 30
0.0
 11
2490.124475
 21
446.967165
 31
0.0
  0
ARC
  5
35AB
100
AcDbEntity
  8
0
100
AcDbCircle
 10
2487.124475
 20
395.534661
 30
0.0
 40
3.0
100
AcDbArc
 50
286.962871
 51
0.0
  0
ARC
  5
35AC
100
AcDbEntity
  8
0
100
AcDbCircle
 10
2487.124475
 20
333.39967
 30
0.0
 40
3.0
100
AcDbArc
 50
0.0
 51
73.037129
  0
LINE
  5
35AD
100
AcDbEntity
  8
0
100
AcDbLine
 10
2312.407452
 20
694.719109
 30
0.0
 11
2312.407452
 21
529.719109
 31
0.0
  0
LINE
  5
35AE
100
AcDbEntity
  8
0
100
AcDbLine
 10
2286.407452
 20
694.719109
 30
0.0
 11
2286.407452
 21
529.719109
 31
0.0
  0
LINE
  5
35AF
100
AcDbEntity
  8
0
100
AcDbLine
 10
2286.407452
 20
529.719109
 30
0.0
 11
2312.407452
 21
529.719109
 31
0.0
  0
LINE
  5
35B0
100
AcDbEntity
  8
0
100
AcDbLine
 10
2331.856599
 20
589.219109
 30
0.0
 11
2314.532196
 21
583.934781
 31
0.0
  0
ARC
  5
35B1
100
AcDbEntity
  8
0
100
AcDbCircle
 10
2315.407452
 20
581.065299
 30
0.0
 40
3.0
100
AcDbArc
 50
106.962871
 51
180.0
  0
LINE
  5
35B2
100
AcDbEntity
  8
0
100
AcDbLine
 10
2331.856599
 20
635.219109
 30
0.0
 11
2314.532196
 21
640.503437
 31
0.0
  0
ARC
  5
35B3
100
AcDbEntity
  8
0
100
AcDbCircle
 10
2315.407452
 20
643.372919
 30
0.0
 40
3.0
100
AcDbArc
 50
180.0
 51
253.037129
  0
LINE
  5
35B4
100
AcDbEntity
  8
0
100
AcDbLine
 10
2286.407452
 20
694.719109
 30
0.0
 11
2312.407452
 21
694.719109
 31
0.0
  0
LINE
  5
35B5
100
AcDbEntity
  8
0
100
AcDbLine
 10
2516.124475
 20
694.719109
 30
0.0
 11
2516.124475
 21
529.719109
 31
0.0
  0
LINE
  5
35B6
100
AcDbEntity
  8
0
100
AcDbLine
 10
2490.124475
 20
694.719109
 30
0.0
 11
2490.124475
 21
529.719109
 31
0.0
  0
LINE
  5
35B7
100
AcDbEntity
  8
0
100
AcDbLine
 10
2516.124475
 20
529.719109
 30
0.0
 11
2490.124475
 21
529.719109
 31
0.0
  0
LINE
  5
35B8
100
AcDbEntity
  8
0
100
AcDbLine
 10
2470.958305
 20
635.219109
 30
0.0
 11
2487.999731
 21
640.417123
 31
0.0
  0
LINE
  5
35B9
100
AcDbEntity
  8
0
100
AcDbLine
 10
2470.958305
 20
589.219109
 30
0.0
 11
2487.999731
 21
584.021096
 31
0.0
  0
ARC
  5
35BA
100
AcDbEntity
  8
0
100
AcDbCircle
 10
2487.124475
 20
581.151614
 30
0.0
 40
3.0
100
AcDbArc
 50
0.0
 51
73.037129
  0
ARC
  5
35BB
100
AcDbEntity
  8
0
100
AcDbCircle
 10
2487.124475
 20
643.286605
 30
0.0
 40
3.0
100
AcDbArc
 50
286.962871
 51
0.0
  0
LINE
  5
35BC
100
AcDbEntity
  8
0
100
AcDbLine
 10
2516.124475
 20
694.719109
 30
0.0
 11
2490.124475
 21
694.719109
 31
0.0
  0
LINE
  5
35BD
100
AcDbEntity
  8
0
100
AcDbLine
 10
2312.407452
 20
917.153714
 30
0.0
 11
2312.407452
 21
752.153714
 31
0.0
  0
LINE
  5
35BE
100
AcDbEntity
  8
0
100
AcDbLine
 10
2286.407452
 20
917.153714
 30
0.0
 11
2286.407452
 21
752.153714
 31
0.0
  0
LINE
  5
35BF
100
AcDbEntity
  8
0
100
AcDbLine
 10
2286.407452
 20
752.153714
 30
0.0
 11
2312.407452
 21
752.153714
 31
0.0
  0
LINE
  5
35C0
100
AcDbEntity
  8
0
100
AcDbLine
 10
2331.856599
 20
811.653714
 30
0.0
 11
2314.532196
 21
806.369386
 31
0.0
  0
ARC
  5
35C1
100
AcDbEntity
  8
0
100
AcDbCircle
 10
2315.407452
 20
803.499904
 30
0.0
 40
3.0
100
AcDbArc
 50
106.962871
 51
180.0
  0
LINE
  5
35C2
100
AcDbEntity
  8
0
100
AcDbLine
 10
2331.856599
 20
857.653714
 30
0.0
 11
2314.532196
 21
862.938042
 31
0.0
  0
ARC
  5
35C3
100
AcDbEntity
  8
0
100
AcDbCircle
 10
2315.407452
 20
865.807524
 30
0.0
 40
3.0
100
AcDbArc
 50
180.0
 51
253.037129
  0
LINE
  5
35C4
100
AcDbEntity
  8
0
100
AcDbLine
 10
2286.407452
 20
917.153714
 30
0.0
 11
2312.407452
 21
917.153714
 31
0.0
  0
LINE
  5
35C5
100
AcDbEntity
  8
0
100
AcDbLine
 10
2516.124475
 20
917.153714
 30
0.0
 11
2516.124475
 21
752.153714
 31
0.0
  0
LINE
  5
35C6
100
AcDbEntity
  8
0
100
AcDbLine
 10
2490.124475
 20
917.153714
 30
0.0
 11
2490.124475
 21
752.153714
 31
0.0
  0
LINE
  5
35C7
100
AcDbEntity
  8
0
100
AcDbLine
 10
2516.124475
 20
752.153714
 30
0.0
 11
2490.124475
 21
752.153714
 31
0.0
  0
LINE
  5
35C8
100
AcDbEntity
  8
0
100
AcDbLine
 10
2470.958305
 20
857.653714
 30
0.0
 11
2487.999731
 21
862.851727
 31
0.0
  0
LINE
  5
35C9
100
AcDbEntity
  8
0
100
AcDbLine
 10
2470.958305
 20
811.653714
 30
0.0
 11
2487.999731
 21
806.4557
 31
0.0
  0
ARC
  5
35CA
100
AcDbEntity
  8
0
100
AcDbCircle
 10
2487.124475
 20
803.586218
 30
0.0
 40
3.0
100
AcDbArc
 50
0.0
 51
73.037129
  0
ARC
  5
35CB
100
AcDbEntity
  8
0
100
AcDbCircle
 10
2487.124475
 20
865.72121
 30
0.0
 40
3.0
100
AcDbArc
 50
286.962871
 51
0.0
  0
LINE
  5
35CC
100
AcDbEntity
  8
0
100
AcDbLine
 10
2516.124475
 20
917.153714
 30
0.0
 11
2490.124475
 21
917.153714
 31
0.0
  0
CIRCLE
  5
35D3
100
AcDbEntity
  8
0
100
AcDbCircle
 10
921.49484
 20
1253.763541
 30
0.0
 40
57.5
  0
CIRCLE
  5
35D7
100
AcDbEntity
  8
0
100
AcDbCircle
 10
949.779111
 20
1282.047812
 30
0.0
 40
9.5
  0
CIRCLE
  5
35D8
100
AcDbEntity
  8
0
100
AcDbCircle
 10
893.210568
 20
1282.047812
 30
0.0
 40
9.5
  0
CIRCLE
  5
35D9
100
AcDbEntity
  8
0
100
AcDbCircle
 10
893.210568
 20
1225.47927
 30
0.0
 40
9.5
  0
CIRCLE
  5
35DA
100
AcDbEntity
  8
0
100
AcDbCircle
 10
949.779111
 20
1225.47927
 30
0.0
 40
9.5
  0
LINE
  5
35DB
100
AcDbEntity
  8
0
100
AcDbLine
 10
892.237362
 20
1303.263541
 30
0.0
 11
876.353351
 21
1303.263541
 31
0.0
  0
CIRCLE
  5
35DC
100
AcDbEntity
  8
0
100
AcDbCircle
 10
1324.7398
 20
1253.763541
 30
0.0
 40
57.5
  0
CIRCLE
  5
35DD
100
AcDbEntity
  8
0
100
AcDbCircle
 10
1353.024071
 20
1282.047812
 30
0.0
 40
9.5
  0
CIRCLE
  5
35DE
100
AcDbEntity
  8
0
100
AcDbCircle
 10
1296.455529
 20
1225.47927
 30
0.0
 40
9.5
  0
CIRCLE
  5
35DF
100
AcDbEntity
  8
0
100
AcDbCircle
 10
1353.024071
 20
1225.47927
 30
0.0
 40
9.5
  0
CIRCLE
  5
35E0
100
AcDbEntity
  8
0
100
AcDbCircle
 10
1296.455529
 20
1282.047812
 30
0.0
 40
9.5
  0
LINE
  5
35E1
100
AcDbEntity
  8
0
100
AcDbLine
 10
1353.997278
 20
1303.263541
 30
0.0
 11
1369.881288
 21
1303.263541
 31
0.0
  0
CIRCLE
  5
35E2
100
AcDbEntity
  8
0
100
AcDbCircle
 10
1596.335292
 20
1253.763541
 30
0.0
 40
60.0
  0
CIRCLE
  5
35E6
100
AcDbEntity
  8
0
100
AcDbCircle
 10
1566.283254
 20
1223.711503
 30
0.0
 40
9.5
  0
CIRCLE
  5
35E7
100
AcDbEntity
  8
0
100
AcDbCircle
 10
1566.283254
 20
1283.815579
 30
0.0
 40
9.5
  0
CIRCLE
  5
35E8
100
AcDbEntity
  8
0
100
AcDbCircle
 10
1626.38733
 20
1283.815579
 30
0.0
 40
9.5
  0
CIRCLE
  5
35E9
100
AcDbEntity
  8
0
100
AcDbCircle
 10
1626.38733
 20
1223.711503
 30
0.0
 40
9.5
  0
CIRCLE
  5
35EA
100
AcDbEntity
  8
0
100
AcDbCircle
 10
2002.381699
 20
1253.763541
 30
0.0
 40
60.0
  0
CIRCLE
  5
35EB
100
AcDbEntity
  8
0
100
AcDbCircle
 10
1972.32966
 20
1223.711503
 30
0.0
 40
9.5
  0
CIRCLE
  5
35EC
100
AcDbEntity
  8
0
100
AcDbCircle
 10
2032.433737
 20
1223.711503
 30
0.0
 40
9.5
  0
CIRCLE
  5
35ED
100
AcDbEntity
  8
0
100
AcDbCircle
 10
1972.32966
 20
1283.815579
 30
0.0
 40
9.5
  0
CIRCLE
  5
35EE
100
AcDbEntity
  8
0
100
AcDbCircle
 10
2032.433737
 20
1283.815579
 30
0.0
 40
9.5
  0
CIRCLE
  5
35EF
100
AcDbEntity
  8
0
100
AcDbCircle
 10
2313.39383
 20
1253.763541
 30
0.0
 40
65.0
  0
CIRCLE
  5
35F3
100
AcDbEntity
  8
0
100
AcDbCircle
 10
2279.806258
 20
1287.351113
 30
0.0
 40
9.5
  0
CIRCLE
  5
35F4
100
AcDbEntity
  8
0
100
AcDbCircle
 10
2279.806258
 20
1220.175969
 30
0.0
 40
9.5
  0
CIRCLE
  5
35F5
100
AcDbEntity
  8
0
100
AcDbCircle
 10
2346.981402
 20
1220.175969
 30
0.0
 40
9.5
  0
CIRCLE
  5
35F6
100
AcDbEntity
  8
0
100
AcDbCircle
 10
2346.981402
 20
1287.351113
 30
0.0
 40
9.5
  0
CIRCLE
  5
35F8
100
AcDbEntity
  8
0
100
AcDbCircle
 10
2773.951221
 20
1253.763541
 30
0.0
 40
65.0
  0
CIRCLE
  5
35F9
100
AcDbEntity
  8
0
100
AcDbCircle
 10
2740.363648
 20
1220.175969
 30
0.0
 40
9.5
  0
CIRCLE
  5
35FA
100
AcDbEntity
  8
0
100
AcDbCircle
 10
2807.538793
 20
1220.175969
 30
0.0
 40
9.5
  0
CIRCLE
  5
35FB
100
AcDbEntity
  8
0
100
AcDbCircle
 10
2740.363648
 20
1287.351113
 30
0.0
 40
9.5
  0
CIRCLE
  5
35FC
100
AcDbEntity
  8
0
100
AcDbCircle
 10
2807.538793
 20
1287.351113
 30
0.0
 40
9.5
  0
CIRCLE
  5
35FE
100
AcDbEntity
  8
0
100
AcDbCircle
 10
311.918426
 20
364.467165
 30
0.0
 40
70.0
  0
CIRCLE
  5
3602
100
AcDbEntity
  8
0
100
AcDbCircle
 10
274.831773
 20
401.626689
 30
0.0
 40
9.5
  0
CIRCLE
  5
3603
100
AcDbEntity
  8
0
100
AcDbCircle
 10
274.758903
 20
327.380512
 30
0.0
 40
9.5
  0
CIRCLE
  5
3604
100
AcDbEntity
  8
0
100
AcDbCircle
 10
349.07795
 20
327.380512
 30
0.0
 40
9.5
  0
CIRCLE
  5
3605
100
AcDbEntity
  8
0
100
AcDbCircle
 10
349.005079
 20
401.626689
 30
0.0
 40
9.5
  0
CIRCLE
  5
3606
100
AcDbEntity
  8
0
100
AcDbCircle
 10
792.795888
 20
364.467165
 30
0.0
 40
70.0
  0
CIRCLE
  5
3607
100
AcDbEntity
  8
0
100
AcDbCircle
 10
755.709235
 20
401.626689
 30
0.0
 40
9.5
  0
CIRCLE
  5
3608
100
AcDbEntity
  8
0
100
AcDbCircle
 10
755.636365
 20
327.380512
 30
0.0
 40
9.5
  0
CIRCLE
  5
3609
100
AcDbEntity
  8
0
100
AcDbCircle
 10
829.882541
 20
401.626689
 30
0.0
 40
9.5
  0
CIRCLE
  5
360A
100
AcDbEntity
  8
0
100
AcDbCircle
 10
829.955412
 20
327.380512
 30
0.0
 40
9.5
  0
CIRCLE
  5
360B
100
AcDbEntity
  8
0
100
AcDbCircle
 10
1180.28722
 20
364.467165
 30
0.0
 40
80.0
  0
CIRCLE
  5
360F
100
AcDbEntity
  8
0
100
AcDbCircle
 10
1222.713626
 20
406.893572
 30
0.0
 40
11.5
  0
CIRCLE
  5
3610
100
AcDbEntity
  8
0
100
AcDbCircle
 10
1222.713626
 20
322.040759
 30
0.0
 40
11.5
  0
CIRCLE
  5
3611
100
AcDbEntity
  8
0
100
AcDbCircle
 10
1137.860813
 20
322.040759
 30
0.0
 40
11.5
  0
CIRCLE
  5
3612
100
AcDbEntity
  8
0
100
AcDbCircle
 10
1137.860813
 20
406.893572
 30
0.0
 40
11.5
  0
CIRCLE
  5
3613
100
AcDbEntity
  8
0
100
AcDbCircle
 10
1674.236052
 20
364.467165
 30
0.0
 40
80.0
  0
CIRCLE
  5
3614
100
AcDbEntity
  8
0
100
AcDbCircle
 10
1631.809645
 20
406.893572
 30
0.0
 40
11.5
  0
CIRCLE
  5
3615
100
AcDbEntity
  8
0
100
AcDbCircle
 10
1631.809645
 20
322.040759
 30
0.0
 40
11.5
  0
CIRCLE
  5
3616
100
AcDbEntity
  8
0
100
AcDbCircle
 10
1716.662459
 20
406.893572
 30
0.0
 40
11.5
  0
CIRCLE
  5
3617
100
AcDbEntity
  8
0
100
AcDbCircle
 10
1716.662459
 20
322.040759
 30
0.0
 40
11.5
  0
CIRCLE
  5
3618
100
AcDbEntity
  8
0
100
AcDbCircle
 10
2105.102124
 20
364.467165
 30
0.0
 40
82.5
  0
CIRCLE
  5
3624
100
AcDbEntity
  8
0
100
AcDbCircle
 10
2129.976547
 20
424.519335
 30
0.0
 40
9.5
  0
CIRCLE
  5
3625
100
AcDbEntity
  8
0
100
AcDbCircle
 10
2165.154294
 20
389.341589
 30
0.0
 40
9.5
  0
CIRCLE
  5
3626
100
AcDbEntity
  8
0
100
AcDbCircle
 10
2165.154294
 20
339.592742
 30
0.0
 40
9.5
  0
CIRCLE
  5
3627
100
AcDbEntity
  8
0
100
AcDbCircle
 10
2129.976547
 20
304.414996
 30
0.0
 40
9.5
  0
CIRCLE
  5
3628
100
AcDbEntity
  8
0
100
AcDbCircle
 10
2080.227701
 20
304.414996
 30
0.0
 40
9.5
  0
CIRCLE
  5
3629
100
AcDbEntity
  8
0
100
AcDbCircle
 10
2045.049955
 20
339.592742
 30
0.0
 40
9.5
  0
CIRCLE
  5
362A
100
AcDbEntity
  8
0
100
AcDbCircle
 10
2045.049955
 20
389.341589
 30
0.0
 40
9.5
  0
CIRCLE
  5
362B
100
AcDbEntity
  8
0
100
AcDbCircle
 10
2080.227701
 20
424.519335
 30
0.0
 40
9.5
  0
CIRCLE
  5
362C
100
AcDbEntity
  8
0
100
AcDbCircle
 10
2623.876137
 20
364.467165
 30
0.0
 40
82.5
  0
CIRCLE
  5
362D
100
AcDbEntity
  8
0
100
AcDbCircle
 10
2599.001714
 20
304.414996
 30
0.0
 40
9.5
  0
CIRCLE
  5
362E
100
AcDbEntity
  8
0
100
AcDbCircle
 10
2648.75056
 20
304.414996
 30
0.0
 40
9.5
  0
CIRCLE
  5
362F
100
AcDbEntity
  8
0
100
AcDbCircle
 10
2563.823968
 20
339.592742
 30
0.0
 40
9.5
  0
CIRCLE
  5
3630
100
AcDbEntity
  8
0
100
AcDbCircle
 10
2563.823968
 20
389.341589
 30
0.0
 40
9.5
  0
CIRCLE
  5
3631
100
AcDbEntity
  8
0
100
AcDbCircle
 10
2683.928307
 20
339.592742
 30
0.0
 40
9.5
  0
CIRCLE
  5
3632
100
AcDbEntity
  8
0
100
AcDbCircle
 10
2683.928307
 20
389.341589
 30
0.0
 40
9.5
  0
CIRCLE
  5
3633
100
AcDbEntity
  8
0
100
AcDbCircle
 10
2648.75056
 20
424.519335
 30
0.0
 40
9.5
  0
CIRCLE
  5
3634
100
AcDbEntity
  8
0
100
AcDbCircle
 10
2599.001714
 20
424.519335
 30
0.0
 40
9.5
  0
VIEWPORT
  5
41
100
AcDbEntity
 67
     1
  8
0
100
AcDbViewport
 10
117.358407
 20
73.5
 30
0.0
 40
234.716814
 41
147.0
 68
    -1
 69
     1
1001
ACAD
1000
MVIEW
1002
{
1070
    16
1010
0.0
1020
0.0
1030
0.0
1010
0.0
1020
0.0
1030
1.0
1040
0.0
1040
147.0
1040
117.358407
1040
73.5
1040
50.0
1040
0.0
1040
0.0
1070
     0
1070
   100
1070
     1
1070
     1
1070
     0
1070
     0
1070
     0
1070
     0
1040
0.0
1040
0.0
1040
0.0
1040
1.0
1040
1.0
1040
0.0
1040
0.0
1070
     0
1002
{
1002
}
1002
}
  0
ENDSEC
  0
SECTION
  2
OBJECTS
  0
DICTIONARY
  5
C
100
AcDbDictionary
  3
ACAD_GROUP
350
D
  3
ACAD_MLINESTYLE
350
E
  0
DICTIONARY
  5
D
102
{ACAD_REACTORS
330
C
102
}
100
AcDbDictionary
  0
DICTIONARY
  5
E
102
{ACAD_REACTORS
330
C
102
}
100
AcDbDictionary
  3
STANDARD
350
1B
  0
MLINESTYLE
  5
1B
102
{ACAD_REACTORS
330
E
102
}
100
AcDbMlineStyle
  2
STANDARD
 70
     0
  3

 62
     0
 51
90.0
 52
90.0
 71
     2
 49
0.5
 62
   256
  6
BYLAYER
 49
-0.5
 62
   256
  6
BYLAYER
  0
ENDSEC
  0
EOF
