  0
SECTION
  2
HEADER
  9
$ACADVER
  1
AC1012
  9
$DWGCODEPAGE
  3
dos932
  9
$INSBASE
 10
0.0
 20
0.0
 30
0.0
  9
$EXTMIN
 10
66.0
 20
30.0
 30
0.0
  9
$EXTMAX
 10
1716.0
 20
1146.0
 30
0.0
  9
$LIMMIN
 10
0.0
 20
0.0
  9
$LIMMAX
 10
1782.0
 20
1260.0
  9
$ORTHOMODE
 70
     0
  9
$REGENMODE
 70
     1
  9
$FILLMODE
 70
     1
  9
$QTEXTMODE
 70
     0
  9
$MIRRTEXT
 70
     1
  9
$DRAGMODE
 70
     2
  9
$LTSCALE
 40
24.0
  9
$OSMODE
 70
   163
  9
$ATTMODE
 70
     1
  9
$TEXTSIZE
 40
24.0
  9
$TRACEWID
 40
0.05
  9
$TEXTSTYLE
  7
STANDARD
  9
$CLAYER
  8
0
  9
$CELTYPE
  6
BYLAYER
  9
$CECOLOR
 62
   256
  9
$CELTSCALE
 40
1.0
  9
$DELOBJ
 70
     1
  9
$DISPSILH
 70
     0
  9
$DIMSCALE
 40
6.0
  9
$DIMASZ
 40
2.8
  9
$DIMEXO
 40
1.0
  9
$DIMDLI
 40
5.0
  9
$DIMRND
 40
0.1
  9
$DIMDLE
 40
0.0
  9
$DIMEXE
 40
1.0
  9
$DIMTP
 40
0.0
  9
$DIMTM
 40
0.0
  9
$DIMTXT
 40
2.5
  9
$DIMCEN
 40
0.0
  9
$DIMTSZ
 40
0.0
  9
$DIMTOL
 70
     0
  9
$DIMLIM
 70
     0
  9
$DIMTIH
 70
     0
  9
$DIMTOH
 70
     0
  9
$DIMSE1
 70
     0
  9
$DIMSE2
 70
     0
  9
$DIMTAD
 70
     3
  9
$DIMZIN
 70
     8
  9
$DIMBLK
  1

  9
$DIMASO
 70
     1
  9
$DIMSHO
 70
     1
  9
$DIMPOST
  1

  9
$DIMAPOST
  1

  9
$DIMALT
 70
     0
  9
$DIMALTD
 70
     2
  9
$DIMALTF
 40
1.0
  9
$DIMLFAC
 40
1.0
  9
$DIMTOFL
 70
     1
  9
$DIMTVP
 40
0.0
  9
$DIMTIX
 70
     0
  9
$DIMSOXD
 70
     0
  9
$DIMSAH
 70
     1
  9
$DIMBLK1
  1
_OPEN
  9
$DIMBLK2
  1
_OPEN
  9
$DIMSTYLE
  2
DIM1
  9
$DIMCLRD
 70
     2
  9
$DIMCLRE
 70
     2
  9
$DIMCLRT
 70
     2
  9
$DIMTFAC
 40
0.7
  9
$DIMGAP
 40
0.85
  9
$DIMJUST
 70
     0
  9
$DIMSD1
 70
     0
  9
$DIMSD2
 70
     0
  9
$DIMTOLJ
 70
     1
  9
$DIMTZIN
 70
     8
  9
$DIMALTZ
 70
     8
  9
$DIMALTTZ
 70
     8
  9
$DIMFIT
 70
     3
  9
$DIMUPT
 70
     0
  9
$DIMUNIT
 70
     2
  9
$DIMDEC
 70
     2
  9
$DIMTDEC
 70
     3
  9
$DIMALTU
 70
     2
  9
$DIMALTTD
 70
     3
  9
$DIMTXSTY
  7
DIM
  9
$DIMAUNIT
 70
     0
  9
$LUNITS
 70
     2
  9
$LUPREC
 70
     4
  9
$SKETCHINC
 40
0.1
  9
$FILLETRAD
 40
0.0
  9
$AUNITS
 70
     0
  9
$AUPREC
 70
     0
  9
$MENU
  1
C:\ACADR13\WIN\SUPPORT\ACAD.mnc
  9
$ELEVATION
 40
0.0
  9
$PELEVATION
 40
0.0
  9
$THICKNESS
 40
0.0
  9
$LIMCHECK
 70
     0
  9
$BLIPMODE
 70
     1
  9
$CHAMFERA
 40
0.0
  9
$CHAMFERB
 40
0.0
  9
$CHAMFERC
 40
0.0
  9
$CHAMFERD
 40
0.0
  9
$SKPOLY
 70
     0
  9
$TDCREATE
 40
2451564.585216146
  9
$TDUPDATE
 40
2451981.559167384
  9
$TDINDWG
 40
0.0019629398
  9
$TDUSRTIMER
 40
0.0019629398
  9
$USRTIMER
 70
     1
  9
$ANGBASE
 50
0.0
  9
$ANGDIR
 70
     0
  9
$PDMODE
 70
     0
  9
$PDSIZE
 40
0.0
  9
$PLINEWID
 40
0.0
  9
$COORDS
 70
     1
  9
$SPLFRAME
 70
     0
  9
$SPLINETYPE
 70
     6
  9
$SPLINESEGS
 70
     8
  9
$ATTDIA
 70
     0
  9
$ATTREQ
 70
     1
  9
$HANDLING
 70
     1
  9
$HANDSEED
  5
3203
  9
$SURFTAB1
 70
     6
  9
$SURFTAB2
 70
     6
  9
$SURFTYPE
 70
     6
  9
$SURFU
 70
     6
  9
$SURFV
 70
     6
  9
$UCSNAME
  2

  9
$UCSORG
 10
0.0
 20
0.0
 30
0.0
  9
$UCSXDIR
 10
1.0
 20
0.0
 30
0.0
  9
$UCSYDIR
 10
0.0
 20
1.0
 30
0.0
  9
$PUCSNAME
  2

  9
$PUCSORG
 10
0.0
 20
0.0
 30
0.0
  9
$PUCSXDIR
 10
1.0
 20
0.0
 30
0.0
  9
$PUCSYDIR
 10
0.0
 20
1.0
 30
0.0
  9
$USERI1
 70
     0
  9
$USERI2
 70
     0
  9
$USERI3
 70
     0
  9
$USERI4
 70
     0
  9
$USERI5
 70
     0
  9
$USERR1
 40
0.0
  9
$USERR2
 40
0.0
  9
$USERR3
 40
0.0
  9
$USERR4
 40
0.0
  9
$USERR5
 40
0.0
  9
$WORLDVIEW
 70
     1
  9
$SHADEDGE
 70
     3
  9
$SHADEDIF
 70
    70
  9
$TILEMODE
 70
     1
  9
$MAXACTVP
 70
    16
  9
$PINSBASE
 10
0.0
 20
0.0
 30
0.0
  9
$PLIMCHECK
 70
     0
  9
$PEXTMIN
 10
1.000000E+20
 20
1.000000E+20
 30
1.000000E+20
  9
$PEXTMAX
 10
-1.000000E+20
 20
-1.000000E+20
 30
-1.000000E+20
  9
$PLIMMIN
 10
0.0
 20
0.0
  9
$PLIMMAX
 10
20.0
 20
147.0
  9
$UNITMODE
 70
     0
  9
$VISRETAIN
 70
     0
  9
$PLINEGEN
 70
     0
  9
$PSLTSCALE
 70
     1
  9
$TREEDEPTH
 70
  3020
  9
$PICKSTYLE
 70
     1
  9
$CMLSTYLE
  2
STANDARD
  9
$CMLJUST
 70
     0
  9
$CMLSCALE
 40
1.0
  9
$SAVEIMAGES
 70
     1
  0
ENDSEC
  0
SECTION
  2
CLASSES
  0
CLASS
  1
LWPOLYLINE
  2
AcDbPolyline
  3
"AutoCAD"
 90
    32768
280
     0
281
     1
  0
ENDSEC
  0
SECTION
  2
TABLES
  0
TABLE
  2
VPORT
  5
8
100
AcDbSymbolTable
 70
     2
  0
VPORT
  5
3202
100
AcDbSymbolTableRecord
100
AcDbViewportTableRecord
  2
*ACTIVE
 70
     0
 10
0.0
 20
0.0
 11
1.0
 21
1.0
 12
1151.098546
 22
653.267447
 13
0.0
 23
0.0
 14
1.0
 24
1.0
 15
0.0
 25
0.0
 16
0.0
 26
0.0
 36
1.0
 17
0.0
 27
0.0
 37
0.0
 40
1306.534894
 41
1.762063
 42
50.0
 43
0.0
 44
0.0
 50
0.0
 51
0.0
 71
     0
 72
   100
 73
     1
 74
     1
 75
     0
 76
     0
 77
     0
 78
     0
  0
ENDTAB
  0
TABLE
  2
LTYPE
  5
5
100
AcDbSymbolTable
 70
     1
  0
LTYPE
  5
12
100
AcDbSymbolTableRecord
100
AcDbLinetypeTableRecord
  2
BYBLOCK
 70
     0
  3

 72
    65
 73
     0
 40
0.0
  0
LTYPE
  5
13
100
AcDbSymbolTableRecord
100
AcDbLinetypeTableRecord
  2
BYLAYER
 70
     0
  3

 72
    65
 73
     0
 40
0.0
  0
LTYPE
  5
14
100
AcDbSymbolTableRecord
100
AcDbLinetypeTableRecord
  2
CONTINUOUS
 70
     0
  3
Solid line
 72
    65
 73
     0
 40
0.0
  0
ENDTAB
  0
TABLE
  2
LAYER
  5
2
100
AcDbSymbolTable
 70
     1
  0
LAYER
  5
F
100
AcDbSymbolTableRecord
100
AcDbLayerTableRecord
  2
0
 70
     0
 62
     7
  6
CONTINUOUS
  0
ENDTAB
  0
TABLE
  2
STYLE
  5
3
100
AcDbSymbolTable
 70
     3
  0
STYLE
  5
10
100
AcDbSymbolTableRecord
100
AcDbTextStyleTableRecord
  2
STANDARD
 70
     0
 40
0.0
 41
0.8
 50
0.0
 71
     0
 42
24.0
  3
simplex
  4
extfont
  0
STYLE
  5
237C
100
AcDbSymbolTableRecord
100
AcDbTextStyleTableRecord
  2
PTSH
 70
     0
 40
0.0
 41
0.9
 50
0.0
 71
     0
 42
4.0
  3
SIMPLEX
  4
EXTFONT
  0
STYLE
  5
2592
100
AcDbSymbolTableRecord
100
AcDbTextStyleTableRecord
  2
DIM
 70
     0
 40
0.0
 41
0.8
 50
0.0
 71
     0
 42
4.0
  3
simplex
  4
extfont
  0
ENDTAB
  0
TABLE
  2
VIEW
  5
6
100
AcDbSymbolTable
 70
     0
  0
ENDTAB
  0
TABLE
  2
UCS
  5
7
100
AcDbSymbolTable
 70
     0
  0
ENDTAB
  0
TABLE
  2
APPID
  5
9
100
AcDbSymbolTable
 70
     1
  0
APPID
  5
11
100
AcDbSymbolTableRecord
100
AcDbRegAppTableRecord
  2
ACAD
 70
     0
  0
ENDTAB
  0
TABLE
  2
DIMSTYLE
  5
A
100
AcDbSymbolTable
 70
     1
  0
DIMSTYLE
105
2237
100
AcDbSymbolTableRecord
100
AcDbDimStyleTableRecord
  2
DIM1
 70
     0
  3

  4

  5

  6
_OPEN
  7
_OPEN
 40
6.0
 41
2.8
 42
1.0
 43
5.0
 44
1.0
 45
0.1
 46
0.0
 47
0.0
 48
0.0
140
2.5
141
0.0
142
0.0
143
1.0
144
1.0
145
0.0
146
0.7
147
0.85
 71
     0
 72
     0
 73
     0
 74
     0
 75
     0
 76
     0
 77
     3
 78
     8
170
     0
171
     2
172
     1
173
     1
174
     0
175
     0
176
     2
177
     2
178
     2
270
     2
271
     2
272
     3
273
     2
274
     3
340
2592
275
     0
280
     0
281
     0
282
     0
283
     1
284
     8
285
     8
286
     8
287
     3
288
     0
  0
ENDTAB
  0
TABLE
  2
BLOCK_RECORD
  5
1
100
AcDbSymbolTable
 70
     1
  0
BLOCK_RECORD
  5
18
100
AcDbSymbolTableRecord
100
AcDbBlockTableRecord
  2
*MODEL_SPACE
  0
BLOCK_RECORD
  5
15
100
AcDbSymbolTableRecord
100
AcDbBlockTableRecord
  2
*PAPER_SPACE
  0
BLOCK_RECORD
  5
2448
100
AcDbSymbolTableRecord
100
AcDbBlockTableRecord
  2
_OPEN
  0
ENDTAB
  0
ENDSEC
  0
SECTION
  2
BLOCKS
  0
BLOCK
  5
3C
100
AcDbEntity
  8
0
100
AcDbBlockBegin
  2
*MODEL_SPACE
 70
     0
 10
0.0
 20
0.0
 30
0.0
  3
*MODEL_SPACE
  1

  0
ENDBLK
  5
3D
100
AcDbEntity
  8
0
100
AcDbBlockEnd
  0
BLOCK
  5
3A
100
AcDbEntity
 67
     1
  8
0
100
AcDbBlockBegin
  2
*PAPER_SPACE
 70
     0
 10
0.0
 20
0.0
 30
0.0
  3
*PAPER_SPACE
  1

  0
ENDBLK
  5
3B
100
AcDbEntity
 67
     1
  8
0
100
AcDbBlockEnd
  0
BLOCK
  5
2449
100
AcDbEntity
  8
0
 48
4.0
100
AcDbBlockBegin
  2
_OPEN
 70
     0
 10
0.0
 20
0.0
 30
0.0
  3
_OPEN
  1
H1111.DWG
  0
LINE
  5
244A
100
AcDbEntity
  8
0
  6
BYBLOCK
 62
     0
 48
4.0
100
AcDbLine
 10
-1.0
 20
0.166667
 30
0.0
 11
0.0
 21
0.0
 31
0.0
  0
LINE
  5
244B
100
AcDbEntity
  8
0
  6
BYBLOCK
 62
     0
 48
4.0
100
AcDbLine
 10
0.0
 20
0.0
 30
0.0
 11
-1.0
 21
-0.166667
 31
0.0
  0
LINE
  5
244C
100
AcDbEntity
  8
0
  6
BYBLOCK
 62
     0
 48
4.0
100
AcDbLine
 10
0.0
 20
0.0
 30
0.0
 11
-1.0
 21
0.0
 31
0.0
  0
ENDBLK
  5
244D
100
AcDbEntity
  8
0
 48
4.0
100
AcDbBlockEnd
  0
ENDSEC
  0
SECTION
  2
ENTITIES
  0
MTEXT
  5
ADA
100
AcDbEntity
  8
0
100
AcDbMText
 10
2280.835679
 20
299.077867
 30
0.0
 40
1.2
 41
283.358789
 71
     1
 72
     1
  1

  0
MTEXT
  5
ADB
100
AcDbEntity
  8
0
100
AcDbMText
 10
2334.299599
 20
347.104762
 30
0.0
 40
1.2
 41
272.666005
 71
     1
 72
     1
  1

  0
MTEXT
  5
ADC
100
AcDbEntity
  8
0
100
AcDbMText
 10
2302.221247
 20
-287.917478
 30
0.0
 40
1.2
 41
310.090749
 71
     1
 72
     1
  1

  0
TEXT
  5
2529
100
AcDbEntity
  8
0
  6
CONTINUOUS
100
AcDbText
 10
1618.40932
 20
45.451614
 30
0.0
 40
20.0
  1
L5S-F
 41
0.9
  7
PTSH
 72
     1
 11
1659.552177
 21
55.451614
 31
0.0
100
AcDbText
 73
     2
  0
POLYLINE
  5
2563
100
AcDbEntity
  8
0
100
AcDb2dPolyline
 66
     1
 10
0.0
 20
0.0
 30
0.0
 70
     1
  0
VERTEX
  5
31DF
100
AcDbEntity
  8
0
100
AcDbVertex
100
AcDb2dVertex
 10
66.0
 20
30.0
 30
0.0
  0
VERTEX
  5
31E0
100
AcDbEntity
  8
0
100
AcDbVertex
100
AcDb2dVertex
 10
1716.0
 20
30.0
 30
0.0
  0
VERTEX
  5
31E1
100
AcDbEntity
  8
0
100
AcDbVertex
100
AcDb2dVertex
 10
1716.0
 20
1146.0
 30
0.0
  0
VERTEX
  5
31E2
100
AcDbEntity
  8
0
100
AcDbVertex
100
AcDb2dVertex
 10
66.0
 20
1146.0
 30
0.0
  0
SEQEND
  5
31E3
100
AcDbEntity
  8
0
  0
LINE
  5
2BD4
100
AcDbEntity
  8
0
100
AcDbLine
 10
887.364885
 20
747.528721
 30
0.0
 11
861.363692
 21
747.528721
 31
0.0
  0
ARC
  5
2BD5
100
AcDbEntity
  8
0
100
AcDbCircle
 10
874.364289
 20
715.228721
 30
0.0
 40
30.0
100
AcDbArc
 50
64.319447
 51
115.680553
  0
LINE
  5
2BD6
100
AcDbEntity
  8
0
100
AcDbLine
 10
879.364289
 20
703.528721
 30
0.0
 11
902.364289
 21
703.528721
 31
0.0
  0
LINE
  5
2BD7
100
AcDbEntity
  8
0
100
AcDbLine
 10
881.364289
 20
715.028721
 30
0.0
 11
891.164289
 21
715.028721
 31
0.0
  0
ARC
  5
2BD8
100
AcDbEntity
  8
0
100
AcDbCircle
 10
890.86047
 20
727.354336
 30
0.0
 40
17.881484
100
AcDbArc
 50
101.273133
 51
113.60754
  0
LINE
  5
2BD9
100
AcDbEntity
  8
0
100
AcDbLine
 10
902.066703
 20
684.028721
 30
0.0
 11
874.497415
 21
656.459433
 31
0.0
  0
LINE
  5
2BDA
100
AcDbEntity
  8
0
100
AcDbLine
 10
905.164289
 20
728.528721
 30
0.0
 11
843.564289
 21
728.528721
 31
0.0
  0
LINE
  5
2BDB
100
AcDbEntity
  8
0
100
AcDbLine
 10
905.164289
 20
718.528721
 30
0.0
 11
843.564289
 21
718.528721
 31
0.0
  0
LINE
  5
2BDC
100
AcDbEntity
  8
0
100
AcDbLine
 10
902.364289
 20
684.028721
 30
0.0
 11
846.364289
 21
684.028721
 31
0.0
  0
LINE
  5
2BDD
100
AcDbEntity
  8
0
100
AcDbLine
 10
903.164289
 20
733.028721
 30
0.0
 11
845.564289
 21
733.028721
 31
0.0
  0
LINE
  5
2BDE
100
AcDbEntity
  8
0
100
AcDbLine
 10
903.164289
 20
742.028721
 30
0.0
 11
845.564289
 21
742.028721
 31
0.0
  0
LINE
  5
2BDF
100
AcDbEntity
  8
0
100
AcDbLine
 10
851.064289
 20
557.304267
 30
0.0
 11
897.664289
 21
557.304267
 31
0.0
  0
ARC
  5
2BE0
100
AcDbEntity
  8
0
100
AcDbCircle
 10
895.001112
 20
549.678799
 30
0.0
 40
11.5
100
AcDbArc
 50
190.657381
 51
262.15933
  0
LINE
  5
2BE1
100
AcDbEntity
  8
0
100
AcDbLine
 10
851.064289
 20
501.304267
 30
0.0
 11
897.664289
 21
501.304267
 31
0.0
  0
CIRCLE
  5
2BE2
100
AcDbEntity
  8
0
100
AcDbCircle
 10
874.364289
 20
529.304267
 30
0.0
 40
17.0
  0
ARC
  5
2BE3
100
AcDbEntity
  8
0
100
AcDbCircle
 10
895.001112
 20
508.929735
 30
0.0
 40
11.5
100
AcDbArc
 50
97.84067
 51
169.342619
  0
LINE
  5
2BE4
100
AcDbEntity
  8
0
100
AcDbLine
 10
861.363692
 20
398.092621
 30
0.0
 11
887.364885
 21
398.092621
 31
0.0
  0
ARC
  5
2BE5
100
AcDbEntity
  8
0
100
AcDbCircle
 10
874.364289
 20
365.792621
 30
0.0
 40
30.0
100
AcDbArc
 50
64.319447
 51
115.680553
  0
LINE
  5
2BE6
100
AcDbEntity
  8
0
100
AcDbLine
 10
902.364289
 20
354.092621
 30
0.0
 11
879.364289
 21
354.092621
 31
0.0
  0
LINE
  5
2BE7
100
AcDbEntity
  8
0
100
AcDbLine
 10
881.364289
 20
365.592621
 30
0.0
 11
891.164289
 21
365.592621
 31
0.0
  0
ARC
  5
2BE8
100
AcDbEntity
  8
0
100
AcDbCircle
 10
890.86047
 20
377.918236
 30
0.0
 40
17.881484
100
AcDbArc
 50
101.273133
 51
113.60754
  0
LINE
  5
2BE9
100
AcDbEntity
  8
0
100
AcDbLine
 10
874.231162
 20
307.023333
 30
0.0
 11
901.80045
 21
334.592621
 31
0.0
  0
LINE
  5
2BEA
100
AcDbEntity
  8
0
100
AcDbLine
 10
882.268156
 20
303.039511
 30
0.0
 11
897.117398
 21
317.888753
 31
0.0
  0
LINE
  5
2BEB
100
AcDbEntity
  8
0
100
AcDbLine
 10
875.904195
 20
306.575045
 30
0.0
 11
893.581864
 21
324.252714
 31
0.0
  0
ARC
  5
2BEC
100
AcDbEntity
  8
0
100
AcDbCircle
 10
881.078738
 20
319.078171
 30
0.0
 40
12.182091
100
AcDbArc
 50
295.179294
 51
334.820706
  0
LINE
  5
2BED
100
AcDbEntity
  8
0
100
AcDbLine
 10
878.025515
 20
307.282152
 30
0.0
 11
892.874758
 21
322.131394
 31
0.0
  0
ARC
  5
2BEE
100
AcDbEntity
  8
0
100
AcDbCircle
 10
894.064175
 20
306.092734
 30
0.0
 40
12.182091
100
AcDbArc
 50
115.179294
 51
154.820706
  0
LINE
  5
2BEF
100
AcDbEntity
  8
0
100
AcDbLine
 10
843.564289
 20
379.092621
 30
0.0
 11
905.164289
 21
379.092621
 31
0.0
  0
LINE
  5
2BF0
100
AcDbEntity
  8
0
100
AcDbLine
 10
843.564289
 20
369.092621
 30
0.0
 11
905.164289
 21
369.092621
 31
0.0
  0
LINE
  5
2BF1
100
AcDbEntity
  8
0
100
AcDbLine
 10
846.364289
 20
334.592621
 30
0.0
 11
902.364289
 21
334.592621
 31
0.0
  0
LINE
  5
2BF2
100
AcDbEntity
  8
0
100
AcDbLine
 10
845.564289
 20
383.592621
 30
0.0
 11
903.164289
 21
383.592621
 31
0.0
  0
LINE
  5
2BF3
100
AcDbEntity
  8
0
100
AcDbLine
 10
845.564289
 20
392.592621
 30
0.0
 11
903.164289
 21
392.592621
 31
0.0
  0
TEXT
  5
2BF4
100
AcDbEntity
  8
0
100
AcDbText
 10
868.176018
 20
249.797249
 30
0.0
 40
20.0
  1
20A
 41
0.8
 11
868.176018
 21
249.797249
 31
0.0
100
AcDbText
 73
     1
  0
TEXT
  5
2BF5
100
AcDbEntity
  8
0
100
AcDbText
 10
577.992209
 20
185.428424
 30
0.0
 40
30.0
  1
TLV  L5S,L21S,L32S (JIS10K)
 72
     4
 11
893.563637
 21
198.285566
 31
0.0
100
AcDbText
  0
LINE
  5
2BF6
100
AcDbEntity
  8
0
100
AcDbLine
 10
805.864289
 20
579.304267
 30
0.0
 11
805.864289
 21
479.304267
 31
0.0
  0
LINE
  5
2BF7
100
AcDbEntity
  8
0
100
AcDbLine
 10
791.864289
 20
479.304267
 30
0.0
 11
791.864289
 21
529.304267
 31
0.0
  0
LINE
  5
2BF8
100
AcDbEntity
  8
0
100
AcDbLine
 10
425.05014
 20
581.631696
 30
0.0
 11
425.05014
 21
486.631696
 31
0.0
  0
LINE
  5
2BF9
100
AcDbEntity
  8
0
100
AcDbLine
 10
437.05014
 20
486.631696
 30
0.0
 11
437.05014
 21
534.131696
 31
0.0
  0
LINE
  5
2BFA
100
AcDbEntity
  8
0
100
AcDbLine
 10
309.05014
 20
581.631696
 30
0.0
 11
309.05014
 21
486.631696
 31
0.0
  0
LINE
  5
2BFB
100
AcDbEntity
  8
0
100
AcDbLine
 10
297.05014
 20
486.631696
 30
0.0
 11
297.05014
 21
534.131696
 31
0.0
  0
LINE
  5
2BFC
100
AcDbEntity
  8
0
100
AcDbLine
 10
311.525631
 20
337.59238
 30
0.0
 11
325.298946
 21
337.727413
 31
0.0
  0
LINE
  5
2BFD
100
AcDbEntity
  8
0
100
AcDbLine
 10
311.525631
 20
370.592861
 30
0.0
 11
325.298946
 21
370.457828
 31
0.0
  0
CIRCLE
  5
2BFE
100
AcDbEntity
  8
0
100
AcDbCircle
 10
192.66986
 20
354.092621
 30
0.0
 40
47.5
  0
LINE
  5
2BFF
100
AcDbEntity
  8
0
100
AcDbLine
 10
165.663764
 20
393.168454
 30
0.0
 11
165.663764
 21
398.401621
 31
0.0
  0
LINE
  5
2C00
100
AcDbEntity
  8
0
100
AcDbLine
 10
172.164764
 20
398.401621
 30
0.0
 11
172.164764
 21
396.938752
 31
0.0
  0
TEXT
  5
2C01
100
AcDbEntity
  8
0
100
AcDbText
 10
83.218672
 20
341.267552
 30
0.0
 40
20.0
  1
正面
100
AcDbText
  0
CIRCLE
  5
2C02
100
AcDbEntity
  8
0
100
AcDbCircle
 10
167.921123
 20
329.343883
 30
0.0
 40
7.5
  0
CIRCLE
  5
2C03
100
AcDbEntity
  8
0
100
AcDbCircle
 10
167.921123
 20
378.841358
 30
0.0
 40
7.5
  0
ARC
  5
2C04
100
AcDbEntity
  8
0
100
AcDbCircle
 10
166.66986
 20
392.192621
 30
0.0
 40
2.0
100
AcDbArc
 50
120.201881
 51
171.814059
  0
ARC
  5
2C05
100
AcDbEntity
  8
0
100
AcDbCircle
 10
168.914264
 20
391.10186
 30
0.0
 40
7.990761
100
AcDbArc
 50
65.997136
 51
114.002864
  0
ARC
  5
2C06
100
AcDbEntity
  8
0
100
AcDbCircle
 10
175.414264
 20
391.106563
 30
0.0
 40
7.986057
100
AcDbArc
 50
78.545837
 51
114.010036
  0
LINE
  5
2C07
100
AcDbEntity
  8
0
100
AcDbLine
 10
166.860764
 20
399.092621
 30
0.0
 11
177.467764
 21
399.092621
 31
0.0
  0
LINE
  5
2C08
100
AcDbEntity
  8
0
100
AcDbLine
 10
165.663764
 20
398.401621
 30
0.0
 11
166.860764
 21
399.092621
 31
0.0
  0
LINE
  5
2C09
100
AcDbEntity
  8
0
100
AcDbLine
 10
297.05014
 20
354.092621
 30
0.0
 11
297.05014
 21
401.592621
 31
0.0
  0
LINE
  5
2C0A
100
AcDbEntity
  8
0
100
AcDbLine
 10
219.675957
 20
398.401621
 30
0.0
 11
219.675957
 21
393.168454
 31
0.0
  0
LINE
  5
2C0B
100
AcDbEntity
  8
0
100
AcDbLine
 10
213.176957
 20
398.401621
 30
0.0
 11
213.176957
 21
396.937795
 31
0.0
  0
LINE
  5
2C0C
100
AcDbEntity
  8
0
100
AcDbLine
 10
309.05014
 20
401.592621
 30
0.0
 11
309.05014
 21
306.592621
 31
0.0
  0
CIRCLE
  5
2C0D
100
AcDbEntity
  8
0
100
AcDbCircle
 10
217.418598
 20
329.343883
 30
0.0
 40
7.5
  0
POLYLINE
  5
2C0E
100
AcDbEntity
  8
0
100
AcDb2dPolyline
 66
     1
 10
0.0
 20
0.0
 30
0.0
  0
VERTEX
  5
31E4
100
AcDbEntity
  8
0
100
AcDbVertex
100
AcDb2dVertex
 10
202.021457
 20
305.698761
 30
0.0
  0
VERTEX
  5
31E5
100
AcDbEntity
  8
0
100
AcDbVertex
100
AcDb2dVertex
 10
194.318263
 20
302.665938
 30
0.0
  0
SEQEND
  5
31E6
100
AcDbEntity
  8
0
  0
POLYLINE
  5
2C0F
100
AcDbEntity
  8
0
100
AcDb2dPolyline
 66
     1
 10
0.0
 20
0.0
 30
0.0
  0
VERTEX
  5
31E7
100
AcDbEntity
  8
0
100
AcDbVertex
100
AcDb2dVertex
 10
196.501164
 20
306.747387
 30
0.0
  0
VERTEX
  5
31E8
100
AcDbEntity
  8
0
100
AcDbVertex
100
AcDb2dVertex
 10
194.318263
 20
305.887958
 30
0.0
  0
SEQEND
  5
31E9
100
AcDbEntity
  8
0
  0
POLYLINE
  5
2C10
100
AcDbEntity
  8
0
100
AcDb2dPolyline
 66
     1
 10
0.0
 20
0.0
 30
0.0
  0
VERTEX
  5
31EA
100
AcDbEntity
  8
0
100
AcDbVertex
100
AcDb2dVertex
 10
196.501164
 20
306.747387
 30
0.0
  0
VERTEX
  5
31EB
100
AcDbEntity
  8
0
100
AcDbVertex
100
AcDb2dVertex
 10
194.318263
 20
305.887958
 30
0.0
  0
SEQEND
  5
31EC
100
AcDbEntity
  8
0
  0
POLYLINE
  5
2C11
100
AcDbEntity
  8
0
100
AcDb2dPolyline
 66
     1
 10
0.0
 20
0.0
 30
0.0
  0
VERTEX
  5
31ED
100
AcDbEntity
  8
0
100
AcDbVertex
100
AcDb2dVertex
 10
202.021457
 20
305.698761
 30
0.0
  0
VERTEX
  5
31EE
100
AcDbEntity
  8
0
100
AcDbVertex
100
AcDb2dVertex
 10
194.318263
 20
302.665938
 30
0.0
  0
SEQEND
  5
31EF
100
AcDbEntity
  8
0
  0
LINE
  5
2C12
100
AcDbEntity
  8
0
100
AcDbLine
 10
191.021457
 20
302.665938
 30
0.0
 11
194.318263
 21
302.665938
 31
0.0
  0
LINE
  5
2C13
100
AcDbEntity
  8
0
100
AcDbLine
 10
182.355593
 20
307.073998
 30
0.0
 11
183.318263
 21
305.698761
 31
0.0
  0
POLYLINE
  5
2C14
100
AcDbEntity
  8
0
100
AcDb2dPolyline
 66
     1
 10
0.0
 20
0.0
 30
0.0
  0
VERTEX
  5
31F0
100
AcDbEntity
  8
0
100
AcDbVertex
100
AcDb2dVertex
 10
191.021457
 20
302.665938
 30
0.0
  0
VERTEX
  5
31F1
100
AcDbEntity
  8
0
100
AcDbVertex
100
AcDb2dVertex
 10
183.318263
 20
305.698761
 30
0.0
  0
SEQEND
  5
31F2
100
AcDbEntity
  8
0
  0
POLYLINE
  5
2C15
100
AcDbEntity
  8
0
100
AcDb2dPolyline
 66
     1
 10
0.0
 20
0.0
 30
0.0
  0
VERTEX
  5
31F3
100
AcDbEntity
  8
0
100
AcDbVertex
100
AcDb2dVertex
 10
191.021457
 20
305.887958
 30
0.0
  0
VERTEX
  5
31F4
100
AcDbEntity
  8
0
100
AcDbVertex
100
AcDb2dVertex
 10
188.838556
 20
306.747387
 30
0.0
  0
SEQEND
  5
31F5
100
AcDbEntity
  8
0
  0
LINE
  5
2C16
100
AcDbEntity
  8
0
100
AcDbLine
 10
191.021457
 20
305.887958
 30
0.0
 11
194.318263
 21
305.887958
 31
0.0
  0
LINE
  5
2C17
100
AcDbEntity
  8
0
100
AcDbLine
 10
183.318263
 20
307.023333
 30
0.0
 11
183.318263
 21
305.698761
 31
0.0
  0
LINE
  5
2C18
100
AcDbEntity
  8
0
100
AcDbLine
 10
194.318263
 20
305.887958
 30
0.0
 11
194.318263
 21
302.665938
 31
0.0
  0
LINE
  5
2C19
100
AcDbEntity
  8
0
100
AcDbLine
 10
191.021457
 20
305.887958
 30
0.0
 11
191.021457
 21
302.665938
 31
0.0
  0
LINE
  5
2C1A
100
AcDbEntity
  8
0
100
AcDbLine
 10
182.355593
 20
307.073998
 30
0.0
 11
183.318263
 21
305.698761
 31
0.0
  0
LINE
  5
2C1B
100
AcDbEntity
  8
0
100
AcDbLine
 10
183.318263
 20
307.023333
 30
0.0
 11
183.318263
 21
305.698761
 31
0.0
  0
POLYLINE
  5
2C1C
100
AcDbEntity
  8
0
100
AcDb2dPolyline
 66
     1
 10
0.0
 20
0.0
 30
0.0
  0
VERTEX
  5
31F6
100
AcDbEntity
  8
0
100
AcDbVertex
100
AcDb2dVertex
 10
191.021457
 20
305.887958
 30
0.0
  0
VERTEX
  5
31F7
100
AcDbEntity
  8
0
100
AcDbVertex
100
AcDb2dVertex
 10
188.838556
 20
306.747387
 30
0.0
  0
SEQEND
  5
31F8
100
AcDbEntity
  8
0
  0
ARC
  5
2C1D
100
AcDbEntity
  8
0
100
AcDbCircle
 10
182.66986
 20
308.023333
 30
0.0
 40
1.0
100
AcDbArc
 50
188.156913
 51
270.0
  0
LINE
  5
2C1E
100
AcDbEntity
  8
0
100
AcDbLine
 10
191.021457
 20
305.887958
 30
0.0
 11
191.021457
 21
302.665938
 31
0.0
  0
LINE
  5
2C1F
100
AcDbEntity
  8
0
100
AcDbLine
 10
194.318263
 20
305.887958
 30
0.0
 11
194.318263
 21
302.665938
 31
0.0
  0
LINE
  5
2C20
100
AcDbEntity
  8
0
100
AcDbLine
 10
191.021457
 20
305.887958
 30
0.0
 11
194.318263
 21
305.887958
 31
0.0
  0
POLYLINE
  5
2C21
100
AcDbEntity
  8
0
100
AcDb2dPolyline
 66
     1
 10
0.0
 20
0.0
 30
0.0
  0
VERTEX
  5
31F9
100
AcDbEntity
  8
0
100
AcDbVertex
100
AcDb2dVertex
 10
191.021457
 20
302.665938
 30
0.0
  0
VERTEX
  5
31FA
100
AcDbEntity
  8
0
100
AcDbVertex
100
AcDb2dVertex
 10
183.318263
 20
305.698761
 30
0.0
  0
SEQEND
  5
31FB
100
AcDbEntity
  8
0
  0
LINE
  5
2C22
100
AcDbEntity
  8
0
100
AcDbLine
 10
191.021457
 20
302.665938
 30
0.0
 11
194.318263
 21
302.665938
 31
0.0
  0
LINE
  5
2C23
100
AcDbEntity
  8
0
100
AcDbLine
 10
186.287687
 20
307.023333
 30
0.0
 11
182.66986
 21
307.023333
 31
0.0
  0
LINE
  5
2C24
100
AcDbEntity
  8
0
100
AcDbLine
 10
202.021457
 20
305.698761
 30
0.0
 11
202.984127
 21
307.073998
 31
0.0
  0
LINE
  5
2C25
100
AcDbEntity
  8
0
100
AcDbLine
 10
202.021457
 20
307.023333
 30
0.0
 11
202.021457
 21
305.698761
 31
0.0
  0
LINE
  5
2C26
100
AcDbEntity
  8
0
100
AcDbLine
 10
202.66986
 20
307.023333
 30
0.0
 11
199.052033
 21
307.023333
 31
0.0
  0
LINE
  5
2C27
100
AcDbEntity
  8
0
100
AcDbLine
 10
202.021457
 20
305.698761
 30
0.0
 11
202.984127
 21
307.073998
 31
0.0
  0
LINE
  5
2C28
100
AcDbEntity
  8
0
100
AcDbLine
 10
202.021457
 20
307.023333
 30
0.0
 11
202.021457
 21
305.698761
 31
0.0
  0
ARC
  5
2C29
100
AcDbEntity
  8
0
100
AcDbCircle
 10
202.66986
 20
308.023333
 30
0.0
 40
1.0
100
AcDbArc
 50
270.0
 51
351.843087
  0
CIRCLE
  5
2C2A
100
AcDbEntity
  8
0
100
AcDbCircle
 10
217.418598
 20
378.841358
 30
0.0
 40
7.5
  0
ARC
  5
2C2B
100
AcDbEntity
  8
0
100
AcDbCircle
 10
218.66986
 20
392.192621
 30
0.0
 40
2.0
100
AcDbArc
 50
8.185941
 51
59.798119
  0
LINE
  5
2C2C
100
AcDbEntity
  8
0
100
AcDbLine
 10
284.256836
 20
351.614877
 30
0.0
 11
290.696336
 21
345.312627
 31
0.0
  0
LINE
  5
2C2D
100
AcDbEntity
  8
0
100
AcDbLine
 10
259.183961
 20
345.312627
 30
0.0
 11
252.881711
 21
351.614877
 31
0.0
  0
LINE
  5
2C2E
100
AcDbEntity
  8
0
100
AcDbLine
 10
297.05014
 20
306.592621
 30
0.0
 11
297.05014
 21
354.092621
 31
0.0
  0
LINE
  5
2C2F
100
AcDbEntity
  8
0
100
AcDbLine
 10
290.696336
 20
345.312627
 30
0.0
 11
259.183961
 21
345.312627
 31
0.0
  0
LINE
  5
2C30
100
AcDbEntity
  8
0
100
AcDbLine
 10
309.05014
 20
306.592621
 30
0.0
 11
297.05014
 21
306.592621
 31
0.0
  0
ARC
  5
2C31
100
AcDbEntity
  8
0
100
AcDbCircle
 10
311.55014
 20
335.0925
 30
0.0
 40
2.5
100
AcDbArc
 50
90.561705
 51
180.0
  0
LINE
  5
2C32
100
AcDbEntity
  8
0
100
AcDbLine
 10
274.940711
 20
348.463752
 30
0.0
 11
284.256836
 21
348.463752
 31
0.0
  0
LINE
  5
2C33
100
AcDbEntity
  8
0
100
AcDbLine
 10
252.881711
 20
351.614877
 30
0.0
 11
271.788461
 21
351.614877
 31
0.0
  0
LINE
  5
2C34
100
AcDbEntity
  8
0
100
AcDbLine
 10
271.788461
 20
351.614877
 30
0.0
 11
274.940711
 21
348.463752
 31
0.0
  0
ARC
  5
2C35
100
AcDbEntity
  8
0
100
AcDbCircle
 10
311.55014
 20
373.092741
 30
0.0
 40
2.5
100
AcDbArc
 50
180.0
 51
269.438295
  0
LINE
  5
2C36
100
AcDbEntity
  8
0
100
AcDbLine
 10
284.256836
 20
348.463752
 30
0.0
 11
284.256836
 21
351.614877
 31
0.0
  0
ARC
  5
2C37
100
AcDbEntity
  8
0
100
AcDbCircle
 10
216.426457
 20
391.106563
 30
0.0
 40
7.986057
100
AcDbArc
 50
65.989964
 51
114.010036
  0
LINE
  5
2C38
100
AcDbEntity
  8
0
100
AcDbLine
 10
207.872957
 20
399.092621
 30
0.0
 11
218.479957
 21
399.092621
 31
0.0
  0
ARC
  5
2C39
100
AcDbEntity
  8
0
100
AcDbCircle
 10
209.926457
 20
391.10186
 30
0.0
 40
7.990761
100
AcDbArc
 50
65.997136
 51
101.453227
  0
LINE
  5
2C3A
100
AcDbEntity
  8
0
100
AcDbLine
 10
218.479957
 20
399.092621
 30
0.0
 11
219.675957
 21
398.401621
 31
0.0
  0
LINE
  5
2C3B
100
AcDbEntity
  8
0
100
AcDbLine
 10
297.05014
 20
401.592621
 30
0.0
 11
309.05014
 21
401.592621
 31
0.0
  0
LINE
  5
2C3C
100
AcDbEntity
  8
0
100
AcDbLine
 10
309.05014
 20
486.631696
 30
0.0
 11
297.05014
 21
486.631696
 31
0.0
  0
TEXT
  5
2C3D
100
AcDbEntity
  8
0
100
AcDbText
 10
348.348873
 20
249.797249
 30
0.0
 40
20.0
  1
15A
 41
0.8
 11
348.348873
 21
249.797249
 31
0.0
100
AcDbText
 73
     1
  0
LINE
  5
2C3E
100
AcDbEntity
  8
0
100
AcDbLine
 10
437.05014
 20
354.092621
 30
0.0
 11
437.05014
 21
401.592621
 31
0.0
  0
LINE
  5
2C3F
100
AcDbEntity
  8
0
100
AcDbLine
 10
350.295543
 20
398.401621
 30
0.0
 11
350.295543
 21
392.592621
 31
0.0
  0
LINE
  5
2C40
100
AcDbEntity
  8
0
100
AcDbLine
 10
354.049543
 20
392.592621
 30
0.0
 11
354.049543
 21
398.401621
 31
0.0
  0
LINE
  5
2C41
100
AcDbEntity
  8
0
100
AcDbLine
 10
342.791543
 20
398.401621
 30
0.0
 11
342.791543
 21
392.592621
 31
0.0
  0
LINE
  5
2C42
100
AcDbEntity
  8
0
100
AcDbLine
 10
339.038543
 20
398.401621
 30
0.0
 11
339.038543
 21
392.592621
 31
0.0
  0
LINE
  5
2C43
100
AcDbEntity
  8
0
100
AcDbLine
 10
395.061736
 20
392.592621
 30
0.0
 11
395.061736
 21
398.401621
 31
0.0
  0
LINE
  5
2C44
100
AcDbEntity
  8
0
100
AcDbLine
 10
391.307736
 20
398.401621
 30
0.0
 11
391.307736
 21
392.592621
 31
0.0
  0
LINE
  5
2C45
100
AcDbEntity
  8
0
100
AcDbLine
 10
383.803736
 20
398.401621
 30
0.0
 11
383.803736
 21
392.592621
 31
0.0
  0
LINE
  5
2C46
100
AcDbEntity
  8
0
100
AcDbLine
 10
380.050736
 20
398.401621
 30
0.0
 11
380.050736
 21
392.592621
 31
0.0
  0
LINE
  5
2C47
100
AcDbEntity
  8
0
100
AcDbLine
 10
425.05014
 20
401.592621
 30
0.0
 11
425.05014
 21
306.592621
 31
0.0
  0
LINE
  5
2C48
100
AcDbEntity
  8
0
100
AcDbLine
 10
336.25014
 20
379.092621
 30
0.0
 11
397.85014
 21
379.092621
 31
0.0
  0
LINE
  5
2C49
100
AcDbEntity
  8
0
100
AcDbLine
 10
336.25014
 20
369.092621
 30
0.0
 11
397.85014
 21
369.092621
 31
0.0
  0
LINE
  5
2C4A
100
AcDbEntity
  8
0
100
AcDbLine
 10
338.25014
 20
383.592621
 30
0.0
 11
395.85014
 21
383.592621
 31
0.0
  0
LINE
  5
2C4B
100
AcDbEntity
  8
0
100
AcDbLine
 10
338.25014
 20
392.592621
 30
0.0
 11
395.85014
 21
392.592621
 31
0.0
  0
LINE
  5
2C4C
100
AcDbEntity
  8
0
100
AcDbLine
 10
395.05014
 20
354.092621
 30
0.0
 11
372.05014
 21
354.092621
 31
0.0
  0
LINE
  5
2C4D
100
AcDbEntity
  8
0
100
AcDbLine
 10
385.85014
 20
361.592621
 30
0.0
 11
388.45014
 21
361.592621
 31
0.0
  0
LINE
  5
2C4E
100
AcDbEntity
  8
0
100
AcDbLine
 10
339.05014
 20
334.592621
 30
0.0
 11
395.05014
 21
334.592621
 31
0.0
  0
LINE
  5
2C4F
100
AcDbEntity
  8
0
100
AcDbLine
 10
366.917013
 20
307.023333
 30
0.0
 11
394.486301
 21
334.592621
 31
0.0
  0
LINE
  5
2C50
100
AcDbEntity
  8
0
100
AcDbLine
 10
374.954007
 20
303.039511
 30
0.0
 11
389.803249
 21
317.888753
 31
0.0
  0
LINE
  5
2C51
100
AcDbEntity
  8
0
100
AcDbLine
 10
386.954803
 20
322.504967
 30
0.0
 11
390.176823
 21
319.282947
 31
0.0
  0
ARC
  5
2C52
100
AcDbEntity
  8
0
100
AcDbCircle
 10
386.665594
 20
319.761353
 30
0.0
 40
3.54367
100
AcDbArc
 50
277.758785
 51
337.758785
  0
LINE
  5
2C53
100
AcDbEntity
  8
0
100
AcDbLine
 10
338.05014
 20
335.592621
 30
0.0
 11
338.05014
 21
369.092621
 31
0.0
  0
LINE
  5
2C54
100
AcDbEntity
  8
0
100
AcDbLine
 10
339.05014
 20
334.592621
 30
0.0
 11
339.05014
 21
369.092621
 31
0.0
  0
LINE
  5
2C55
100
AcDbEntity
  8
0
100
AcDbLine
 10
332.299772
 20
370.455123
 30
0.0
 11
332.299772
 21
337.730118
 31
0.0
  0
LINE
  5
2C56
100
AcDbEntity
  8
0
100
AcDbLine
 10
325.298946
 20
370.457828
 30
0.0
 11
325.298946
 21
337.727413
 31
0.0
  0
ARC
  5
2C57
100
AcDbEntity
  8
0
100
AcDbCircle
 10
360.221292
 20
344.842621
 30
0.0
 40
26.687435
100
AcDbArc
 50
159.720195
 51
200.279805
  0
LINE
  5
2C58
100
AcDbEntity
  8
0
100
AcDbLine
 10
339.347725
 20
334.592621
 30
0.0
 11
366.917013
 21
307.023333
 31
0.0
  0
LINE
  5
2C59
100
AcDbEntity
  8
0
100
AcDbLine
 10
333.533857
 20
335.592621
 30
0.0
 11
338.05014
 21
335.592621
 31
0.0
  0
ARC
  5
2C5A
100
AcDbEntity
  8
0
100
AcDbCircle
 10
328.796902
 20
344.087405
 30
0.0
 40
7.258457
100
AcDbArc
 50
241.189482
 51
298.854798
  0
LINE
  5
2C5B
100
AcDbEntity
  8
0
100
AcDbLine
 10
332.299772
 20
337.730118
 30
0.0
 11
333.533857
 21
335.592621
 31
0.0
  0
LINE
  5
2C5C
100
AcDbEntity
  8
0
100
AcDbLine
 10
338.05014
 20
335.592621
 30
0.0
 11
339.05014
 21
334.592621
 31
0.0
  0
LINE
  5
2C5D
100
AcDbEntity
  8
0
100
AcDbLine
 10
368.590046
 20
306.575045
 30
0.0
 11
386.267716
 21
324.252714
 31
0.0
  0
LINE
  5
2C5E
100
AcDbEntity
  8
0
100
AcDbLine
 10
370.00426
 20
307.989258
 30
0.0
 11
370.711366
 21
307.282152
 31
0.0
  0
LINE
  5
2C5F
100
AcDbEntity
  8
0
100
AcDbLine
 10
366.917013
 20
307.023333
 30
0.0
 11
368.590046
 21
306.575045
 31
0.0
  0
ARC
  5
2C60
100
AcDbEntity
  8
0
100
AcDbCircle
 10
373.849022
 20
305.409552
 30
0.0
 40
3.54367
100
AcDbArc
 50
97.758785
 51
157.758785
  0
LINE
  5
2C61
100
AcDbEntity
  8
0
100
AcDbLine
 10
370.337793
 20
305.887958
 30
0.0
 11
373.559813
 21
302.665938
 31
0.0
  0
LINE
  5
2C62
100
AcDbEntity
  8
0
100
AcDbLine
 10
370.711366
 20
307.282152
 30
0.0
 11
385.560609
 21
322.131394
 31
0.0
  0
LINE
  5
2C63
100
AcDbEntity
  8
0
100
AcDbLine
 10
370.711366
 20
307.282152
 30
0.0
 11
370.337793
 21
305.887958
 31
0.0
  0
LINE
  5
2C64
100
AcDbEntity
  8
0
100
AcDbLine
 10
373.370616
 20
308.920781
 30
0.0
 11
375.725468
 21
311.275632
 31
0.0
  0
LINE
  5
2C65
100
AcDbEntity
  8
0
100
AcDbLine
 10
375.725468
 20
311.275632
 30
0.0
 11
378.947487
 21
308.053612
 31
0.0
  0
ARC
  5
2C66
100
AcDbEntity
  8
0
100
AcDbCircle
 10
373.764589
 20
319.078171
 30
0.0
 40
12.182091
100
AcDbArc
 50
295.179294
 51
334.820706
  0
ARC
  5
2C67
100
AcDbEntity
  8
0
100
AcDbCircle
 10
373.081408
 20
306.177166
 30
0.0
 40
3.54367
100
AcDbArc
 50
292.241215
 51
352.241215
  0
LINE
  5
2C68
100
AcDbEntity
  8
0
100
AcDbLine
 10
373.370616
 20
308.920781
 30
0.0
 11
376.592636
 21
305.698761
 31
0.0
  0
LINE
  5
2C69
100
AcDbEntity
  8
0
100
AcDbLine
 10
374.954007
 20
303.039511
 30
0.0
 11
373.559813
 21
302.665938
 31
0.0
  0
LINE
  5
2C6A
100
AcDbEntity
  8
0
100
AcDbLine
 10
376.592636
 20
305.698761
 30
0.0
 11
378.947487
 21
308.053612
 31
0.0
  0
LINE
  5
2C6B
100
AcDbEntity
  8
0
100
AcDbLine
 10
381.567128
 20
317.117293
 30
0.0
 11
384.789148
 21
313.895273
 31
0.0
  0
LINE
  5
2C6C
100
AcDbEntity
  8
0
100
AcDbLine
 10
381.567128
 20
317.117293
 30
0.0
 11
383.92198
 21
319.472144
 31
0.0
  0
ARC
  5
2C6D
100
AcDbEntity
  8
0
100
AcDbCircle
 10
386.750026
 20
306.092734
 30
0.0
 40
12.182091
100
AcDbArc
 50
115.179294
 51
154.820706
  0
ARC
  5
2C6E
100
AcDbEntity
  8
0
100
AcDbCircle
 10
387.433208
 20
318.993738
 30
0.0
 40
3.54367
100
AcDbArc
 50
112.241215
 51
172.241215
  0
LINE
  5
2C6F
100
AcDbEntity
  8
0
100
AcDbLine
 10
383.92198
 20
319.472144
 30
0.0
 11
387.143999
 21
316.250124
 31
0.0
  0
LINE
  5
2C70
100
AcDbEntity
  8
0
100
AcDbLine
 10
385.560609
 20
322.131394
 30
0.0
 11
386.954803
 21
322.504967
 31
0.0
  0
LINE
  5
2C71
100
AcDbEntity
  8
0
100
AcDbLine
 10
384.853502
 20
322.838501
 30
0.0
 11
385.560609
 21
322.131394
 31
0.0
  0
LINE
  5
2C72
100
AcDbEntity
  8
0
100
AcDbLine
 10
384.789148
 20
313.895273
 30
0.0
 11
387.143999
 21
316.250124
 31
0.0
  0
LINE
  5
2C73
100
AcDbEntity
  8
0
100
AcDbLine
 10
385.819428
 20
325.925747
 30
0.0
 11
386.267716
 21
324.252714
 31
0.0
  0
LINE
  5
2C74
100
AcDbEntity
  8
0
100
AcDbLine
 10
362.05014
 20
354.092621
 30
0.0
 11
339.05014
 21
354.092621
 31
0.0
  0
LINE
  5
2C75
100
AcDbEntity
  8
0
100
AcDbLine
 10
360.05014
 20
365.592621
 30
0.0
 11
350.25014
 21
365.592621
 31
0.0
  0
LINE
  5
2C76
100
AcDbEntity
  8
0
100
AcDbLine
 10
336.25014
 20
379.092621
 30
0.0
 11
336.25014
 21
369.092621
 31
0.0
  0
LINE
  5
2C77
100
AcDbEntity
  8
0
100
AcDbLine
 10
333.533857
 20
372.592621
 30
0.0
 11
336.25014
 21
372.592621
 31
0.0
  0
ARC
  5
2C78
100
AcDbEntity
  8
0
100
AcDbCircle
 10
360.221292
 20
363.342621
 30
0.0
 40
26.687435
100
AcDbArc
 50
159.720195
 51
200.279805
  0
ARC
  5
2C79
100
AcDbEntity
  8
0
100
AcDbCircle
 10
328.796902
 20
364.097836
 30
0.0
 40
7.258457
100
AcDbArc
 50
61.145202
 51
118.810518
  0
LINE
  5
2C7A
100
AcDbEntity
  8
0
100
AcDbLine
 10
332.299772
 20
370.455123
 30
0.0
 11
333.533857
 21
372.592621
 31
0.0
  0
ARC
  5
2C7B
100
AcDbEntity
  8
0
100
AcDbCircle
 10
348.25014
 20
363.592621
 30
0.0
 40
2.0
100
AcDbArc
 50
270.0
 51
0.0
  0
ARC
  5
2C7C
100
AcDbEntity
  8
0
100
AcDbCircle
 10
345.65014
 20
363.592621
 30
0.0
 40
2.0
100
AcDbArc
 50
180.0
 51
270.0
  0
LINE
  5
2C7D
100
AcDbEntity
  8
0
100
AcDbLine
 10
348.25014
 20
361.592621
 30
0.0
 11
345.65014
 21
361.592621
 31
0.0
  0
LINE
  5
2C7E
100
AcDbEntity
  8
0
100
AcDbLine
 10
343.65014
 20
369.092621
 30
0.0
 11
343.65014
 21
363.592621
 31
0.0
  0
LINE
  5
2C7F
100
AcDbEntity
  8
0
100
AcDbLine
 10
350.25014
 20
365.592621
 30
0.0
 11
350.25014
 21
363.592621
 31
0.0
  0
LINE
  5
2C80
100
AcDbEntity
  8
0
100
AcDbLine
 10
338.25014
 20
394.192621
 30
0.0
 11
339.038543
 21
394.192621
 31
0.0
  0
ARC
  5
2C81
100
AcDbEntity
  8
0
100
AcDbCircle
 10
338.25014
 20
392.192621
 30
0.0
 40
2.0
100
AcDbArc
 50
90.0
 51
180.0
  0
ARC
  5
2C82
100
AcDbEntity
  8
0
100
AcDbCircle
 10
338.25014
 20
390.592621
 30
0.0
 40
2.0
100
AcDbArc
 50
90.0
 51
180.0
  0
ARC
  5
2C83
100
AcDbEntity
  8
0
100
AcDbCircle
 10
338.25014
 20
385.592621
 30
0.0
 40
2.0
100
AcDbArc
 50
180.0
 51
270.0
  0
LINE
  5
2C84
100
AcDbEntity
  8
0
100
AcDbLine
 10
336.25014
 20
392.192621
 30
0.0
 11
336.25014
 21
385.592621
 31
0.0
  0
LINE
  5
2C85
100
AcDbEntity
  8
0
100
AcDbLine
 10
342.544043
 20
379.092621
 30
0.0
 11
342.544043
 21
383.592621
 31
0.0
  0
LINE
  5
2C86
100
AcDbEntity
  8
0
100
AcDbLine
 10
344.05014
 20
390.592621
 30
0.0
 11
344.05014
 21
385.592621
 31
0.0
  0
ARC
  5
2C87
100
AcDbEntity
  8
0
100
AcDbCircle
 10
346.05014
 20
390.592621
 30
0.0
 40
2.0
100
AcDbArc
 50
90.0
 51
180.0
  0
ARC
  5
2C88
100
AcDbEntity
  8
0
100
AcDbCircle
 10
346.05014
 20
385.592621
 30
0.0
 40
2.0
100
AcDbArc
 50
180.0
 51
270.0
  0
LINE
  5
2C89
100
AcDbEntity
  8
0
100
AcDbLine
 10
350.544043
 20
383.592621
 30
0.0
 11
350.544043
 21
379.092621
 31
0.0
  0
LINE
  5
2C8A
100
AcDbEntity
  8
0
100
AcDbLine
 10
372.05014
 20
363.590043
 30
0.0
 11
362.05014
 21
363.590043
 31
0.0
  0
LINE
  5
2C8B
100
AcDbEntity
  8
0
100
AcDbLine
 10
362.05014
 20
354.092621
 30
0.0
 11
360.05014
 21
365.592621
 31
0.0
  0
LINE
  5
2C8C
100
AcDbEntity
  8
0
100
AcDbLine
 10
362.05014
 20
354.092621
 30
0.0
 11
362.05014
 21
369.092621
 31
0.0
  0
ARC
  5
2C8D
100
AcDbEntity
  8
0
100
AcDbCircle
 10
360.05014
 20
367.592621
 30
0.0
 40
2.0
100
AcDbArc
 50
270.0
 51
352.819244
  0
ARC
  5
2C8E
100
AcDbEntity
  8
0
100
AcDbCircle
 10
360.05014
 20
367.092621
 30
0.0
 40
2.0
100
AcDbArc
 50
7.180756
 51
90.0
  0
LINE
  5
2C8F
100
AcDbEntity
  8
0
100
AcDbLine
 10
372.05014
 20
369.092621
 30
0.0
 11
372.05014
 21
354.092621
 31
0.0
  0
LINE
  5
2C90
100
AcDbEntity
  8
0
100
AcDbLine
 10
374.05014
 20
365.592621
 30
0.0
 11
372.05014
 21
354.092621
 31
0.0
  0
ARC
  5
2C91
100
AcDbEntity
  8
0
100
AcDbCircle
 10
385.85014
 20
363.592621
 30
0.0
 40
2.0
100
AcDbArc
 50
180.0
 51
270.0
  0
ARC
  5
2C92
100
AcDbEntity
  8
0
100
AcDbCircle
 10
374.05014
 20
367.092621
 30
0.0
 40
2.0
100
AcDbArc
 50
90.0
 51
172.819244
  0
ARC
  5
2C93
100
AcDbEntity
  8
0
100
AcDbCircle
 10
374.05014
 20
367.592621
 30
0.0
 40
2.0
100
AcDbArc
 50
187.180756
 51
270.0
  0
LINE
  5
2C94
100
AcDbEntity
  8
0
100
AcDbLine
 10
374.05014
 20
365.592621
 30
0.0
 11
383.85014
 21
365.592621
 31
0.0
  0
LINE
  5
2C95
100
AcDbEntity
  8
0
100
AcDbLine
 10
383.85014
 20
365.592621
 30
0.0
 11
383.85014
 21
363.592621
 31
0.0
  0
ARC
  5
2C96
100
AcDbEntity
  8
0
100
AcDbCircle
 10
367.05014
 20
365.792621
 30
0.0
 40
30.0
100
AcDbArc
 50
64.319447
 51
115.680553
  0
ARC
  5
2C97
100
AcDbEntity
  8
0
100
AcDbCircle
 10
350.553958
 20
377.918236
 30
0.0
 40
17.881484
100
AcDbArc
 50
66.39246
 51
78.726867
  0
ARC
  5
2C98
100
AcDbEntity
  8
0
100
AcDbCircle
 10
383.546322
 20
377.918236
 30
0.0
 40
17.881484
100
AcDbArc
 50
101.273133
 51
113.60754
  0
LINE
  5
2C99
100
AcDbEntity
  8
0
100
AcDbLine
 10
383.556236
 20
379.092621
 30
0.0
 11
383.556236
 21
383.592621
 31
0.0
  0
LINE
  5
2C9A
100
AcDbEntity
  8
0
100
AcDbLine
 10
408.801334
 20
370.457828
 30
0.0
 11
408.801334
 21
337.727413
 31
0.0
  0
LINE
  5
2C9B
100
AcDbEntity
  8
0
100
AcDbLine
 10
401.800508
 20
370.455123
 30
0.0
 11
401.800508
 21
337.730118
 31
0.0
  0
LINE
  5
2C9C
100
AcDbEntity
  8
0
100
AcDbLine
 10
396.05014
 20
335.592621
 30
0.0
 11
396.05014
 21
369.092621
 31
0.0
  0
ARC
  5
2C9D
100
AcDbEntity
  8
0
100
AcDbCircle
 10
373.878988
 20
344.842621
 30
0.0
 40
26.687435
100
AcDbArc
 50
339.720195
 51
20.279805
  0
LINE
  5
2C9E
100
AcDbEntity
  8
0
100
AcDbLine
 10
395.05014
 20
334.592621
 30
0.0
 11
395.05014
 21
369.092621
 31
0.0
  0
LINE
  5
2C9F
100
AcDbEntity
  8
0
100
AcDbLine
 10
437.05014
 20
306.592621
 30
0.0
 11
437.05014
 21
354.092621
 31
0.0
  0
LINE
  5
2CA0
100
AcDbEntity
  8
0
100
AcDbLine
 10
422.574648
 20
337.59238
 30
0.0
 11
408.801334
 21
337.727413
 31
0.0
  0
LINE
  5
2CA1
100
AcDbEntity
  8
0
100
AcDbLine
 10
389.803249
 20
317.888753
 30
0.0
 11
390.176823
 21
319.282947
 31
0.0
  0
ARC
  5
2CA2
100
AcDbEntity
  8
0
100
AcDbCircle
 10
405.303378
 20
344.087405
 30
0.0
 40
7.258457
100
AcDbArc
 50
241.145202
 51
298.810518
  0
LINE
  5
2CA3
100
AcDbEntity
  8
0
100
AcDbLine
 10
401.800508
 20
337.730118
 30
0.0
 11
400.566423
 21
335.592621
 31
0.0
  0
LINE
  5
2CA4
100
AcDbEntity
  8
0
100
AcDbLine
 10
396.05014
 20
335.592621
 30
0.0
 11
400.566423
 21
335.592621
 31
0.0
  0
LINE
  5
2CA5
100
AcDbEntity
  8
0
100
AcDbLine
 10
395.05014
 20
334.592621
 30
0.0
 11
396.05014
 21
335.592621
 31
0.0
  0
LINE
  5
2CA6
100
AcDbEntity
  8
0
100
AcDbLine
 10
425.05014
 20
306.592621
 30
0.0
 11
437.05014
 21
306.592621
 31
0.0
  0
ARC
  5
2CA7
100
AcDbEntity
  8
0
100
AcDbCircle
 10
422.55014
 20
335.0925
 30
0.0
 40
2.5
100
AcDbArc
 50
0.0
 51
89.438295
  0
LINE
  5
2CA8
100
AcDbEntity
  8
0
100
AcDbLine
 10
422.574648
 20
370.592861
 30
0.0
 11
408.801334
 21
370.457828
 31
0.0
  0
LINE
  5
2CA9
100
AcDbEntity
  8
0
100
AcDbLine
 10
397.85014
 20
379.092621
 30
0.0
 11
397.85014
 21
369.092621
 31
0.0
  0
ARC
  5
2CAA
100
AcDbEntity
  8
0
100
AcDbCircle
 10
405.303378
 20
364.097836
 30
0.0
 40
7.258457
100
AcDbArc
 50
61.189482
 51
118.854798
  0
ARC
  5
2CAB
100
AcDbEntity
  8
0
100
AcDbCircle
 10
388.45014
 20
363.592621
 30
0.0
 40
2.0
100
AcDbArc
 50
270.0
 51
0.0
  0
LINE
  5
2CAC
100
AcDbEntity
  8
0
100
AcDbLine
 10
390.45014
 20
369.092621
 30
0.0
 11
390.45014
 21
363.592621
 31
0.0
  0
ARC
  5
2CAD
100
AcDbEntity
  8
0
100
AcDbCircle
 10
373.878988
 20
363.342621
 30
0.0
 40
26.687435
100
AcDbArc
 50
339.720195
 51
20.279805
  0
LINE
  5
2CAE
100
AcDbEntity
  8
0
100
AcDbLine
 10
401.800508
 20
370.455123
 30
0.0
 11
400.566423
 21
372.592621
 31
0.0
  0
LINE
  5
2CAF
100
AcDbEntity
  8
0
100
AcDbLine
 10
397.85014
 20
372.592621
 30
0.0
 11
400.566423
 21
372.592621
 31
0.0
  0
LINE
  5
2CB0
100
AcDbEntity
  8
0
100
AcDbLine
 10
391.556236
 20
383.592621
 30
0.0
 11
391.556236
 21
379.092621
 31
0.0
  0
LINE
  5
2CB1
100
AcDbEntity
  8
0
100
AcDbLine
 10
390.05014
 20
390.592621
 30
0.0
 11
390.05014
 21
385.592621
 31
0.0
  0
ARC
  5
2CB2
100
AcDbEntity
  8
0
100
AcDbCircle
 10
388.05014
 20
390.592621
 30
0.0
 40
2.0
100
AcDbArc
 50
0.0
 51
90.0
  0
ARC
  5
2CB3
100
AcDbEntity
  8
0
100
AcDbCircle
 10
388.05014
 20
385.592621
 30
0.0
 40
2.0
100
AcDbArc
 50
270.0
 51
0.0
  0
ARC
  5
2CB4
100
AcDbEntity
  8
0
100
AcDbCircle
 10
395.85014
 20
390.592621
 30
0.0
 40
2.0
100
AcDbArc
 50
360.0
 51
90.0
  0
ARC
  5
2CB5
100
AcDbEntity
  8
0
100
AcDbCircle
 10
395.85014
 20
392.192621
 30
0.0
 40
2.0
100
AcDbArc
 50
0.0
 51
90.0
  0
ARC
  5
2CB6
100
AcDbEntity
  8
0
100
AcDbCircle
 10
395.85014
 20
385.592621
 30
0.0
 40
2.0
100
AcDbArc
 50
270.0
 51
0.0
  0
LINE
  5
2CB7
100
AcDbEntity
  8
0
100
AcDbLine
 10
395.061736
 20
394.192621
 30
0.0
 11
395.85014
 21
394.192621
 31
0.0
  0
LINE
  5
2CB8
100
AcDbEntity
  8
0
100
AcDbLine
 10
397.85014
 20
392.192621
 30
0.0
 11
397.85014
 21
385.592621
 31
0.0
  0
ARC
  5
2CB9
100
AcDbEntity
  8
0
100
AcDbCircle
 10
422.55014
 20
373.092741
 30
0.0
 40
2.5
100
AcDbArc
 50
270.561705
 51
0.0
  0
LINE
  5
2CBA
100
AcDbEntity
  8
0
100
AcDbLine
 10
393.864736
 20
399.092621
 30
0.0
 11
381.246736
 21
399.092621
 31
0.0
  0
ARC
  5
2CBB
100
AcDbEntity
  8
0
100
AcDbCircle
 10
387.555736
 20
385.587141
 30
0.0
 40
13.352467
100
AcDbArc
 50
73.680297
 51
106.319703
  0
LINE
  5
2CBC
100
AcDbEntity
  8
0
100
AcDbLine
 10
352.852543
 20
399.092621
 30
0.0
 11
340.234543
 21
399.092621
 31
0.0
  0
ARC
  5
2CBD
100
AcDbEntity
  8
0
100
AcDbCircle
 10
352.172043
 20
395.398662
 30
0.0
 40
3.541047
100
AcDbArc
 50
57.999406
 51
122.000594
  0
ARC
  5
2CBE
100
AcDbEntity
  8
0
100
AcDbCircle
 10
346.543543
 20
385.587141
 30
0.0
 40
13.352467
100
AcDbArc
 50
73.680297
 51
106.319703
  0
ARC
  5
2CBF
100
AcDbEntity
  8
0
100
AcDbCircle
 10
340.915043
 20
395.398662
 30
0.0
 40
3.541047
100
AcDbArc
 50
57.999406
 51
122.000594
  0
LINE
  5
2CC0
100
AcDbEntity
  8
0
100
AcDbLine
 10
340.234543
 20
399.092621
 30
0.0
 11
339.038543
 21
398.401621
 31
0.0
  0
LINE
  5
2CC1
100
AcDbEntity
  8
0
100
AcDbLine
 10
354.049543
 20
398.092621
 30
0.0
 11
380.050736
 21
398.092621
 31
0.0
  0
LINE
  5
2CC2
100
AcDbEntity
  8
0
100
AcDbLine
 10
354.049543
 20
398.401621
 30
0.0
 11
352.852543
 21
399.092621
 31
0.0
  0
ARC
  5
2CC3
100
AcDbEntity
  8
0
100
AcDbCircle
 10
381.927236
 20
395.398662
 30
0.0
 40
3.541047
100
AcDbArc
 50
57.999406
 51
122.000594
  0
LINE
  5
2CC4
100
AcDbEntity
  8
0
100
AcDbLine
 10
381.246736
 20
399.092621
 30
0.0
 11
380.050736
 21
398.401621
 31
0.0
  0
LINE
  5
2CC5
100
AcDbEntity
  8
0
100
AcDbLine
 10
395.061736
 20
398.401621
 30
0.0
 11
393.864736
 21
399.092621
 31
0.0
  0
ARC
  5
2CC6
100
AcDbEntity
  8
0
100
AcDbCircle
 10
393.184236
 20
395.398662
 30
0.0
 40
3.541047
100
AcDbArc
 50
57.999406
 51
122.000594
  0
LINE
  5
2CC7
100
AcDbEntity
  8
0
100
AcDbLine
 10
437.05014
 20
401.592621
 30
0.0
 11
425.05014
 21
401.592621
 31
0.0
  0
LINE
  5
2CC8
100
AcDbEntity
  8
0
100
AcDbLine
 10
425.05014
 20
486.631696
 30
0.0
 11
437.05014
 21
486.631696
 31
0.0
  0
LINE
  5
2CC9
100
AcDbEntity
  8
0
100
AcDbLine
 10
524.791707
 20
398.401621
 30
0.0
 11
524.791707
 21
396.938752
 31
0.0
  0
LINE
  5
2CCA
100
AcDbEntity
  8
0
100
AcDbLine
 10
531.292707
 20
393.168454
 30
0.0
 11
531.292707
 21
398.401621
 31
0.0
  0
LINE
  5
2CCB
100
AcDbEntity
  8
0
100
AcDbLine
 10
483.779514
 20
398.401621
 30
0.0
 11
483.779514
 21
396.937795
 31
0.0
  0
LINE
  5
2CCC
100
AcDbEntity
  8
0
100
AcDbLine
 10
477.280514
 20
398.401621
 30
0.0
 11
477.280514
 21
393.168454
 31
0.0
  0
CIRCLE
  5
2CCD
100
AcDbEntity
  8
0
100
AcDbCircle
 10
504.28661
 20
354.092621
 30
0.0
 40
47.5
  0
LINE
  5
2CCE
100
AcDbEntity
  8
0
100
AcDbLine
 10
515.144214
 20
307.850189
 30
0.0
 11
513.638207
 21
305.698761
 31
0.0
  0
CIRCLE
  5
2CCF
100
AcDbEntity
  8
0
100
AcDbCircle
 10
479.537873
 20
329.343883
 30
0.0
 40
7.5
  0
ELLIPSE
  5
2CD0
100
AcDbEntity
  8
0
100
AcDbEllipse
 10
504.28661
 20
310.763806
 30
0.0
 11
-10.49290910814761
 21
0.0
 31
0.0
210
0.0
220
0.0
230
1.0
 40
0.706971
 41
0.4491936574518531
 42
2.692398996137939
  0
LINE
  5
2CD1
100
AcDbEntity
  8
0
100
AcDbLine
 10
494.935014
 20
305.698761
 30
0.0
 11
502.638207
 21
302.665938
 31
0.0
  0
LINE
  5
2CD2
100
AcDbEntity
  8
0
100
AcDbLine
 10
494.935014
 20
305.698761
 30
0.0
 11
493.429007
 21
307.850189
 31
0.0
  0
LINE
  5
2CD3
100
AcDbEntity
  8
0
100
AcDbLine
 10
505.935014
 20
302.665938
 30
0.0
 11
502.638207
 21
302.665938
 31
0.0
  0
LINE
  5
2CD4
100
AcDbEntity
  8
0
100
AcDbLine
 10
505.935014
 20
302.665938
 30
0.0
 11
513.638207
 21
305.698761
 31
0.0
  0
CIRCLE
  5
2CD5
100
AcDbEntity
  8
0
100
AcDbCircle
 10
479.537873
 20
378.841358
 30
0.0
 40
7.5
  0
ARC
  5
2CD6
100
AcDbEntity
  8
0
100
AcDbCircle
 10
478.28661
 20
392.192621
 30
0.0
 40
2.0
100
AcDbArc
 50
120.201881
 51
171.814059
  0
CIRCLE
  5
2CD7
100
AcDbEntity
  8
0
100
AcDbCircle
 10
529.035348
 20
329.343883
 30
0.0
 40
7.5
  0
CIRCLE
  5
2CD8
100
AcDbEntity
  8
0
100
AcDbCircle
 10
529.035348
 20
378.841358
 30
0.0
 40
7.5
  0
ARC
  5
2CD9
100
AcDbEntity
  8
0
100
AcDbCircle
 10
530.28661
 20
392.192621
 30
0.0
 40
2.0
100
AcDbArc
 50
8.185941
 51
59.798119
  0
ARC
  5
2CDA
100
AcDbEntity
  8
0
100
AcDbCircle
 10
480.530014
 20
391.106563
 30
0.0
 40
7.986057
100
AcDbArc
 50
65.989964
 51
114.010036
  0
LINE
  5
2CDB
100
AcDbEntity
  8
0
100
AcDbLine
 10
489.083514
 20
399.092621
 30
0.0
 11
478.476514
 21
399.092621
 31
0.0
  0
LINE
  5
2CDC
100
AcDbEntity
  8
0
100
AcDbLine
 10
478.476514
 20
399.092621
 30
0.0
 11
477.280514
 21
398.401621
 31
0.0
  0
ARC
  5
2CDD
100
AcDbEntity
  8
0
100
AcDbCircle
 10
487.030014
 20
391.10186
 30
0.0
 40
7.990761
100
AcDbArc
 50
78.546773
 51
114.002864
  0
LINE
  5
2CDE
100
AcDbEntity
  8
0
100
AcDbLine
 10
531.292707
 20
398.401621
 30
0.0
 11
530.095707
 21
399.092621
 31
0.0
  0
LINE
  5
2CDF
100
AcDbEntity
  8
0
100
AcDbLine
 10
530.095707
 20
399.092621
 30
0.0
 11
519.488707
 21
399.092621
 31
0.0
  0
ARC
  5
2CE0
100
AcDbEntity
  8
0
100
AcDbCircle
 10
521.542207
 20
391.106563
 30
0.0
 40
7.986057
100
AcDbArc
 50
65.989964
 51
101.454163
  0
ARC
  5
2CE1
100
AcDbEntity
  8
0
100
AcDbCircle
 10
528.042207
 20
391.10186
 30
0.0
 40
7.990761
100
AcDbArc
 50
65.997136
 51
114.002864
  0
LINE
  5
2CE2
100
AcDbEntity
  8
0
100
AcDbLine
 10
752.365088
 20
349.528658
 30
0.0
 11
746.062838
 21
355.830908
 31
0.0
  0
LINE
  5
2CE3
100
AcDbEntity
  8
0
100
AcDbLine
 10
746.062838
 20
355.830908
 30
0.0
 11
764.969588
 21
355.830908
 31
0.0
  0
LINE
  5
2CE4
100
AcDbEntity
  8
0
100
AcDbLine
 10
713.56026
 20
398.401621
 30
0.0
 11
713.56026
 21
396.171959
 31
0.0
  0
LINE
  5
2CE5
100
AcDbEntity
  8
0
100
AcDbLine
 10
659.548066
 20
396.171959
 30
0.0
 11
659.548066
 21
398.401621
 31
0.0
  0
CIRCLE
  5
2CE6
100
AcDbEntity
  8
0
100
AcDbCircle
 10
686.554163
 20
354.092621
 30
0.0
 40
50.0
  0
CIRCLE
  5
2CE7
100
AcDbEntity
  8
0
100
AcDbCircle
 10
660.037659
 20
327.576116
 30
0.0
 40
7.5
  0
CIRCLE
  5
2CE8
100
AcDbEntity
  8
0
100
AcDbCircle
 10
660.037659
 20
380.609125
 30
0.0
 40
7.5
  0
CIRCLE
  5
2CE9
100
AcDbEntity
  8
0
100
AcDbCircle
 10
713.070667
 20
327.576116
 30
0.0
 40
7.5
  0
POLYLINE
  5
2CEA
100
AcDbEntity
  8
0
100
AcDb2dPolyline
 66
     1
 10
0.0
 20
0.0
 30
0.0
  0
VERTEX
  5
31FC
100
AcDbEntity
  8
0
100
AcDbVertex
100
AcDb2dVertex
 10
692.830904
 20
304.48816
 30
0.0
  0
VERTEX
  5
31FD
100
AcDbEntity
  8
0
100
AcDbVertex
100
AcDb2dVertex
 10
688.202566
 20
302.665938
 30
0.0
  0
SEQEND
  5
31FE
100
AcDbEntity
  8
0
  0
LINE
  5
2CEB
100
AcDbEntity
  8
0
100
AcDbLine
 10
684.90576
 20
302.665938
 30
0.0
 11
688.202566
 21
302.665938
 31
0.0
  0
LINE
  5
2CEC
100
AcDbEntity
  8
0
100
AcDbLine
 10
684.90576
 20
304.1198
 30
0.0
 11
684.90576
 21
302.665938
 31
0.0
  0
LINE
  5
2CED
100
AcDbEntity
  8
0
100
AcDbLine
 10
688.202566
 20
304.1198
 30
0.0
 11
688.202566
 21
302.665938
 31
0.0
  0
POLYLINE
  5
2CEE
100
AcDbEntity
  8
0
100
AcDb2dPolyline
 66
     1
 10
0.0
 20
0.0
 30
0.0
  0
VERTEX
  5
31FF
100
AcDbEntity
  8
0
100
AcDbVertex
100
AcDb2dVertex
 10
684.90576
 20
302.665938
 30
0.0
  0
VERTEX
  5
3200
100
AcDbEntity
  8
0
100
AcDbVertex
100
AcDb2dVertex
 10
680.277422
 20
304.48816
 30
0.0
  0
SEQEND
  5
3201
100
AcDbEntity
  8
0
  0
CIRCLE
  5
2CEF
100
AcDbEntity
  8
0
100
AcDbCircle
 10
713.070667
 20
380.609125
 30
0.0
 40
7.5
  0
LINE
  5
2CF0
100
AcDbEntity
  8
0
100
AcDbLine
 10
659.548066
 20
398.401621
 30
0.0
 11
660.745066
 21
399.092621
 31
0.0
  0
ARC
  5
2CF1
100
AcDbEntity
  8
0
100
AcDbCircle
 10
662.798566
 20
391.10186
 30
0.0
 40
7.990761
100
AcDbArc
 50
78.294045
 51
114.002864
  0
LINE
  5
2CF2
100
AcDbEntity
  8
0
100
AcDbLine
 10
660.745066
 20
399.092621
 30
0.0
 11
664.759668
 21
399.092621
 31
0.0
  0
LINE
  5
2CF3
100
AcDbEntity
  8
0
100
AcDbLine
 10
712.36426
 20
399.092621
 30
0.0
 11
713.56026
 21
398.401621
 31
0.0
  0
ARC
  5
2CF4
100
AcDbEntity
  8
0
100
AcDbCircle
 10
710.31076
 20
391.106563
 30
0.0
 40
7.986057
100
AcDbArc
 50
65.989964
 51
101.717061
  0
LINE
  5
2CF5
100
AcDbEntity
  8
0
100
AcDbLine
 10
708.348658
 20
399.092621
 30
0.0
 11
712.36426
 21
399.092621
 31
0.0
  0
LINE
  5
2CF6
100
AcDbEntity
  8
0
100
AcDbLine
 10
850.105692
 20
398.401621
 30
0.0
 11
850.105692
 21
392.592621
 31
0.0
  0
LINE
  5
2CF7
100
AcDbEntity
  8
0
100
AcDbLine
 10
857.609692
 20
398.401621
 30
0.0
 11
857.609692
 21
392.592621
 31
0.0
  0
LINE
  5
2CF8
100
AcDbEntity
  8
0
100
AcDbLine
 10
861.363692
 20
392.592621
 30
0.0
 11
861.363692
 21
398.401621
 31
0.0
  0
LINE
  5
2CF9
100
AcDbEntity
  8
0
100
AcDbLine
 10
846.352692
 20
398.401621
 30
0.0
 11
846.352692
 21
392.592621
 31
0.0
  0
LINE
  5
2CFA
100
AcDbEntity
  8
0
100
AcDbLine
 10
791.864289
 20
354.092621
 30
0.0
 11
791.864289
 21
404.092621
 31
0.0
  0
LINE
  5
2CFB
100
AcDbEntity
  8
0
100
AcDbLine
 10
805.864289
 20
404.092621
 30
0.0
 11
805.864289
 21
304.092621
 31
0.0
  0
LINE
  5
2CFC
100
AcDbEntity
  8
0
100
AcDbLine
 10
809.700492
 20
335.790826
 30
0.0
 11
824.917297
 21
336.414465
 31
0.0
  0
LINE
  5
2CFD
100
AcDbEntity
  8
0
100
AcDbLine
 10
809.700492
 20
372.394415
 30
0.0
 11
824.917297
 21
371.770776
 31
0.0
  0
LINE
  5
2CFE
100
AcDbEntity
  8
0
100
AcDbLine
 10
791.864289
 20
304.092621
 30
0.0
 11
791.864289
 21
354.092621
 31
0.0
  0
LINE
  5
2CFF
100
AcDbEntity
  8
0
100
AcDbLine
 10
805.864289
 20
304.092621
 30
0.0
 11
791.864289
 21
304.092621
 31
0.0
  0
ARC
  5
2D00
100
AcDbEntity
  8
0
100
AcDbCircle
 10
809.864289
 20
331.794181
 30
0.0
 40
4.0
100
AcDbArc
 50
92.346874
 51
180.0
  0
LINE
  5
2D01
100
AcDbEntity
  8
0
100
AcDbLine
 10
777.437963
 20
355.830908
 30
0.0
 11
783.877463
 21
349.528658
 31
0.0
  0
LINE
  5
2D02
100
AcDbEntity
  8
0
100
AcDbLine
 10
783.877463
 20
349.528658
 30
0.0
 11
752.365088
 21
349.528658
 31
0.0
  0
LINE
  5
2D03
100
AcDbEntity
  8
0
100
AcDbLine
 10
764.969588
 20
355.830908
 30
0.0
 11
768.121838
 21
352.679783
 31
0.0
  0
LINE
  5
2D04
100
AcDbEntity
  8
0
100
AcDbLine
 10
777.437963
 20
352.679783
 30
0.0
 11
777.437963
 21
355.830908
 31
0.0
  0
LINE
  5
2D05
100
AcDbEntity
  8
0
100
AcDbLine
 10
768.121838
 20
352.679783
 30
0.0
 11
777.437963
 21
352.679783
 31
0.0
  0
ARC
  5
2D06
100
AcDbEntity
  8
0
100
AcDbCircle
 10
809.864289
 20
376.39106
 30
0.0
 40
4.0
100
AcDbArc
 50
180.0
 51
267.653126
  0
LINE
  5
2D07
100
AcDbEntity
  8
0
100
AcDbLine
 10
824.917297
 20
371.770776
 30
0.0
 11
824.917297
 21
336.414465
 31
0.0
  0
LINE
  5
2D08
100
AcDbEntity
  8
0
100
AcDbLine
 10
827.823948
 20
338.092621
 30
0.0
 11
827.823948
 21
370.092621
 31
0.0
  0
LINE
  5
2D09
100
AcDbEntity
  8
0
100
AcDbLine
 10
839.407469
 20
370.097538
 30
0.0
 11
839.407469
 21
338.087703
 31
0.0
  0
LINE
  5
2D0A
100
AcDbEntity
  8
0
100
AcDbLine
 10
832.823948
 20
338.092621
 30
0.0
 11
832.823948
 21
370.092621
 31
0.0
  0
LINE
  5
2D0B
100
AcDbEntity
  8
0
100
AcDbLine
 10
845.364289
 20
335.592621
 30
0.0
 11
845.364289
 21
369.092621
 31
0.0
  0
ARC
  5
2D0C
100
AcDbEntity
  8
0
100
AcDbCircle
 10
867.535441
 20
344.842621
 30
0.0
 40
26.687435
100
AcDbArc
 50
159.720195
 51
200.279805
  0
LINE
  5
2D0D
100
AcDbEntity
  8
0
100
AcDbLine
 10
846.364289
 20
334.592621
 30
0.0
 11
846.364289
 21
369.092621
 31
0.0
  0
LINE
  5
2D0E
100
AcDbEntity
  8
0
100
AcDbLine
 10
846.661874
 20
334.592621
 30
0.0
 11
874.231162
 21
307.023333
 31
0.0
  0
ARC
  5
2D0F
100
AcDbEntity
  8
0
100
AcDbCircle
 10
836.12226
 20
346.861375
 30
0.0
 40
9.36856
100
AcDbArc
 50
249.386522
 51
290.527885
  0
LINE
  5
2D10
100
AcDbEntity
  8
0
100
AcDbLine
 10
827.823948
 20
338.092621
 30
0.0
 11
832.823948
 21
338.092621
 31
0.0
  0
LINE
  5
2D11
100
AcDbEntity
  8
0
100
AcDbLine
 10
827.823948
 20
338.092621
 30
0.0
 11
824.917297
 21
336.414465
 31
0.0
  0
LINE
  5
2D12
100
AcDbEntity
  8
0
100
AcDbLine
 10
840.848006
 20
335.592621
 30
0.0
 11
845.364289
 21
335.592621
 31
0.0
  0
LINE
  5
2D13
100
AcDbEntity
  8
0
100
AcDbLine
 10
839.407469
 20
338.087703
 30
0.0
 11
840.848006
 21
335.592621
 31
0.0
  0
LINE
  5
2D14
100
AcDbEntity
  8
0
100
AcDbLine
 10
845.364289
 20
335.592621
 30
0.0
 11
846.364289
 21
334.592621
 31
0.0
  0
LINE
  5
2D15
100
AcDbEntity
  8
0
100
AcDbLine
 10
874.231162
 20
307.023333
 30
0.0
 11
875.904195
 21
306.575045
 31
0.0
  0
LINE
  5
2D16
100
AcDbEntity
  8
0
100
AcDbLine
 10
880.684765
 20
308.920781
 30
0.0
 11
883.906785
 21
305.698761
 31
0.0
  0
ARC
  5
2D17
100
AcDbEntity
  8
0
100
AcDbCircle
 10
881.163171
 20
305.409552
 30
0.0
 40
3.54367
100
AcDbArc
 50
97.758785
 51
157.758785
  0
LINE
  5
2D18
100
AcDbEntity
  8
0
100
AcDbLine
 10
883.039616
 20
311.275632
 30
0.0
 11
886.261636
 21
308.053612
 31
0.0
  0
LINE
  5
2D19
100
AcDbEntity
  8
0
100
AcDbLine
 10
883.906785
 20
305.698761
 30
0.0
 11
886.261636
 21
308.053612
 31
0.0
  0
ARC
  5
2D1A
100
AcDbEntity
  8
0
100
AcDbCircle
 10
880.395556
 20
306.177166
 30
0.0
 40
3.54367
100
AcDbArc
 50
292.241215
 51
352.241215
  0
LINE
  5
2D1B
100
AcDbEntity
  8
0
100
AcDbLine
 10
882.268156
 20
303.039511
 30
0.0
 11
880.873962
 21
302.665938
 31
0.0
  0
LINE
  5
2D1C
100
AcDbEntity
  8
0
100
AcDbLine
 10
878.025515
 20
307.282152
 30
0.0
 11
877.651942
 21
305.887958
 31
0.0
  0
LINE
  5
2D1D
100
AcDbEntity
  8
0
100
AcDbLine
 10
877.318408
 20
307.989258
 30
0.0
 11
878.025515
 21
307.282152
 31
0.0
  0
LINE
  5
2D1E
100
AcDbEntity
  8
0
100
AcDbLine
 10
877.651942
 20
305.887958
 30
0.0
 11
880.873962
 21
302.665938
 31
0.0
  0
LINE
  5
2D1F
100
AcDbEntity
  8
0
100
AcDbLine
 10
880.684765
 20
308.920781
 30
0.0
 11
883.039616
 21
311.275632
 31
0.0
  0
ARC
  5
2D20
100
AcDbEntity
  8
0
100
AcDbCircle
 10
853.364289
 20
390.592621
 30
0.0
 40
2.0
100
AcDbArc
 50
90.0
 51
180.0
  0
ARC
  5
2D21
100
AcDbEntity
  8
0
100
AcDbCircle
 10
853.364289
 20
385.592621
 30
0.0
 40
2.0
100
AcDbArc
 50
180.0
 51
270.0
  0
ARC
  5
2D22
100
AcDbEntity
  8
0
100
AcDbCircle
 10
852.964289
 20
363.592621
 30
0.0
 40
2.0
100
AcDbArc
 50
180.0
 51
270.0
  0
LINE
  5
2D23
100
AcDbEntity
  8
0
100
AcDbLine
 10
869.364289
 20
354.092621
 30
0.0
 11
846.364289
 21
354.092621
 31
0.0
  0
LINE
  5
2D24
100
AcDbEntity
  8
0
100
AcDbLine
 10
843.564289
 20
379.092621
 30
0.0
 11
843.564289
 21
369.092621
 31
0.0
  0
ARC
  5
2D25
100
AcDbEntity
  8
0
100
AcDbCircle
 10
836.12226
 20
361.323866
 30
0.0
 40
9.36856
100
AcDbArc
 50
69.472115
 51
110.613478
  0
LINE
  5
2D26
100
AcDbEntity
  8
0
100
AcDbLine
 10
827.823948
 20
370.092621
 30
0.0
 11
832.823948
 21
370.092621
 31
0.0
  0
LINE
  5
2D27
100
AcDbEntity
  8
0
100
AcDbLine
 10
827.823948
 20
370.092621
 30
0.0
 11
824.917297
 21
371.770776
 31
0.0
  0
LINE
  5
2D28
100
AcDbEntity
  8
0
100
AcDbLine
 10
850.964289
 20
369.092621
 30
0.0
 11
850.964289
 21
363.592621
 31
0.0
  0
ARC
  5
2D29
100
AcDbEntity
  8
0
100
AcDbCircle
 10
867.535441
 20
363.342621
 30
0.0
 40
26.687435
100
AcDbArc
 50
159.720195
 51
200.279805
  0
LINE
  5
2D2A
100
AcDbEntity
  8
0
100
AcDbLine
 10
840.848006
 20
372.592621
 30
0.0
 11
843.564289
 21
372.592621
 31
0.0
  0
LINE
  5
2D2B
100
AcDbEntity
  8
0
100
AcDbLine
 10
839.407469
 20
370.097538
 30
0.0
 11
840.848006
 21
372.592621
 31
0.0
  0
LINE
  5
2D2C
100
AcDbEntity
  8
0
100
AcDbLine
 10
849.858192
 20
379.092621
 30
0.0
 11
849.858192
 21
383.592621
 31
0.0
  0
LINE
  5
2D2D
100
AcDbEntity
  8
0
100
AcDbLine
 10
851.364289
 20
390.592621
 30
0.0
 11
851.364289
 21
385.592621
 31
0.0
  0
ARC
  5
2D2E
100
AcDbEntity
  8
0
100
AcDbCircle
 10
845.564289
 20
392.192621
 30
0.0
 40
2.0
100
AcDbArc
 50
90.0
 51
180.0
  0
ARC
  5
2D2F
100
AcDbEntity
  8
0
100
AcDbCircle
 10
845.564289
 20
390.592621
 30
0.0
 40
2.0
100
AcDbArc
 50
90.0
 51
180.0
  0
ARC
  5
2D30
100
AcDbEntity
  8
0
100
AcDbCircle
 10
845.564289
 20
385.592621
 30
0.0
 40
2.0
100
AcDbArc
 50
180.0
 51
270.0
  0
LINE
  5
2D31
100
AcDbEntity
  8
0
100
AcDbLine
 10
843.564289
 20
392.192621
 30
0.0
 11
843.564289
 21
385.592621
 31
0.0
  0
LINE
  5
2D32
100
AcDbEntity
  8
0
100
AcDbLine
 10
845.564289
 20
394.192621
 30
0.0
 11
846.352692
 21
394.192621
 31
0.0
  0
LINE
  5
2D33
100
AcDbEntity
  8
0
100
AcDbLine
 10
879.364289
 20
363.590043
 30
0.0
 11
869.364289
 21
363.590043
 31
0.0
  0
ARC
  5
2D34
100
AcDbEntity
  8
0
100
AcDbCircle
 10
867.364289
 20
367.592621
 30
0.0
 40
2.0
100
AcDbArc
 50
270.0
 51
352.819244
  0
ARC
  5
2D35
100
AcDbEntity
  8
0
100
AcDbCircle
 10
867.364289
 20
367.092621
 30
0.0
 40
2.0
100
AcDbArc
 50
7.180756
 51
90.0
  0
LINE
  5
2D36
100
AcDbEntity
  8
0
100
AcDbLine
 10
869.364289
 20
354.092621
 30
0.0
 11
867.364289
 21
365.592621
 31
0.0
  0
LINE
  5
2D37
100
AcDbEntity
  8
0
100
AcDbLine
 10
869.364289
 20
354.092621
 30
0.0
 11
869.364289
 21
369.092621
 31
0.0
  0
LINE
  5
2D38
100
AcDbEntity
  8
0
100
AcDbLine
 10
867.364289
 20
365.592621
 30
0.0
 11
857.564289
 21
365.592621
 31
0.0
  0
LINE
  5
2D39
100
AcDbEntity
  8
0
100
AcDbLine
 10
857.564289
 20
365.592621
 30
0.0
 11
857.564289
 21
363.592621
 31
0.0
  0
LINE
  5
2D3A
100
AcDbEntity
  8
0
100
AcDbLine
 10
855.564289
 20
361.592621
 30
0.0
 11
852.964289
 21
361.592621
 31
0.0
  0
ARC
  5
2D3B
100
AcDbEntity
  8
0
100
AcDbCircle
 10
855.564289
 20
363.592621
 30
0.0
 40
2.0
100
AcDbArc
 50
270.0
 51
0.0
  0
LINE
  5
2D3C
100
AcDbEntity
  8
0
100
AcDbLine
 10
879.364289
 20
369.092621
 30
0.0
 11
879.364289
 21
354.092621
 31
0.0
  0
LINE
  5
2D3D
100
AcDbEntity
  8
0
100
AcDbLine
 10
881.364289
 20
365.592621
 30
0.0
 11
879.364289
 21
354.092621
 31
0.0
  0
ARC
  5
2D3E
100
AcDbEntity
  8
0
100
AcDbCircle
 10
881.364289
 20
367.092621
 30
0.0
 40
2.0
100
AcDbArc
 50
90.0
 51
172.819244
  0
ARC
  5
2D3F
100
AcDbEntity
  8
0
100
AcDbCircle
 10
881.364289
 20
367.592621
 30
0.0
 40
2.0
100
AcDbArc
 50
187.180756
 51
270.0
  0
LINE
  5
2D40
100
AcDbEntity
  8
0
100
AcDbLine
 10
857.858192
 20
383.592621
 30
0.0
 11
857.858192
 21
379.092621
 31
0.0
  0
ARC
  5
2D41
100
AcDbEntity
  8
0
100
AcDbCircle
 10
857.868107
 20
377.918236
 30
0.0
 40
17.881484
100
AcDbArc
 50
66.39246
 51
78.726867
  0
LINE
  5
2D42
100
AcDbEntity
  8
0
100
AcDbLine
 10
791.864289
 20
404.092621
 30
0.0
 11
805.864289
 21
404.092621
 31
0.0
  0
LINE
  5
2D43
100
AcDbEntity
  8
0
100
AcDbLine
 10
805.864289
 20
479.304267
 30
0.0
 11
791.864289
 21
479.304267
 31
0.0
  0
ARC
  5
2D44
100
AcDbEntity
  8
0
100
AcDbCircle
 10
853.857692
 20
385.587141
 30
0.0
 40
13.352467
100
AcDbArc
 50
73.680297
 51
106.319703
  0
LINE
  5
2D45
100
AcDbEntity
  8
0
100
AcDbLine
 10
860.166692
 20
399.092621
 30
0.0
 11
847.548692
 21
399.092621
 31
0.0
  0
LINE
  5
2D46
100
AcDbEntity
  8
0
100
AcDbLine
 10
847.548692
 20
399.092621
 30
0.0
 11
846.352692
 21
398.401621
 31
0.0
  0
ARC
  5
2D47
100
AcDbEntity
  8
0
100
AcDbCircle
 10
848.229192
 20
395.398662
 30
0.0
 40
3.541047
100
AcDbArc
 50
57.999406
 51
122.000594
  0
ARC
  5
2D48
100
AcDbEntity
  8
0
100
AcDbCircle
 10
859.486192
 20
395.398662
 30
0.0
 40
3.541047
100
AcDbArc
 50
57.999406
 51
122.000594
  0
LINE
  5
2D49
100
AcDbEntity
  8
0
100
AcDbLine
 10
861.363692
 20
398.401621
 30
0.0
 11
860.166692
 21
399.092621
 31
0.0
  0
LINE
  5
2D4A
100
AcDbEntity
  8
0
100
AcDbLine
 10
311.525631
 20
718.144281
 30
0.0
 11
325.298946
 21
718.009248
 31
0.0
  0
LINE
  5
2D4B
100
AcDbEntity
  8
0
100
AcDbLine
 10
311.525631
 20
685.1438
 30
0.0
 11
325.298946
 21
685.278833
 31
0.0
  0
LINE
  5
2D4C
100
AcDbEntity
  8
0
100
AcDbLine
 10
311.525631
 20
517.631456
 30
0.0
 11
325.298946
 21
517.766489
 31
0.0
  0
LINE
  5
2D4D
100
AcDbEntity
  8
0
100
AcDbLine
 10
311.525631
 20
550.631937
 30
0.0
 11
325.298946
 21
550.496904
 31
0.0
  0
LINE
  5
2D4E
100
AcDbEntity
  8
0
100
AcDbLine
 10
309.05014
 20
749.14404
 30
0.0
 11
309.05014
 21
654.14404
 31
0.0
  0
LINE
  5
2D4F
100
AcDbEntity
  8
0
100
AcDbLine
 10
297.05014
 20
654.14404
 30
0.0
 11
297.05014
 21
701.64404
 31
0.0
  0
TEXT
  5
2D50
100
AcDbEntity
  8
0
100
AcDbText
 10
83.218672
 20
692.23865
 30
0.0
 40
20.0
  1
背面
100
AcDbText
  0
TEXT
  5
2D51
100
AcDbEntity
  8
0
100
AcDbText
 10
83.218672
 20
531.556195
 30
0.0
 40
20.0
  1
平面
100
AcDbText
  0
LINE
  5
2D52
100
AcDbEntity
  8
0
100
AcDbLine
 10
250.745734
 20
522.385914
 30
0.0
 11
244.443484
 21
528.688164
 31
0.0
  0
LINE
  5
2D53
100
AcDbEntity
  8
0
100
AcDbLine
 10
244.443484
 20
528.688164
 30
0.0
 11
263.350234
 21
528.688164
 31
0.0
  0
LINE
  5
2D54
100
AcDbEntity
  8
0
100
AcDbLine
 10
297.05014
 20
534.131696
 30
0.0
 11
297.05014
 21
581.631696
 31
0.0
  0
LINE
  5
2D55
100
AcDbEntity
  8
0
100
AcDbLine
 10
263.350234
 20
528.688164
 30
0.0
 11
266.502484
 21
525.537039
 31
0.0
  0
LINE
  5
2D56
100
AcDbEntity
  8
0
100
AcDbLine
 10
282.258109
 20
522.385914
 30
0.0
 11
250.745734
 21
522.385914
 31
0.0
  0
LINE
  5
2D57
100
AcDbEntity
  8
0
100
AcDbLine
 10
275.818609
 20
528.688164
 30
0.0
 11
282.258109
 21
522.385914
 31
0.0
  0
LINE
  5
2D58
100
AcDbEntity
  8
0
100
AcDbLine
 10
275.818609
 20
525.537039
 30
0.0
 11
275.818609
 21
528.688164
 31
0.0
  0
LINE
  5
2D59
100
AcDbEntity
  8
0
100
AcDbLine
 10
266.502484
 20
525.537039
 30
0.0
 11
275.818609
 21
525.537039
 31
0.0
  0
ARC
  5
2D5A
100
AcDbEntity
  8
0
100
AcDbCircle
 10
311.55014
 20
515.131576
 30
0.0
 40
2.5
100
AcDbArc
 50
90.561705
 51
180.0
  0
ARC
  5
2D5B
100
AcDbEntity
  8
0
100
AcDbCircle
 10
311.55014
 20
553.131817
 30
0.0
 40
2.5
100
AcDbArc
 50
180.0
 51
269.438295
  0
LINE
  5
2D5C
100
AcDbEntity
  8
0
100
AcDbLine
 10
297.05014
 20
581.631696
 30
0.0
 11
309.05014
 21
581.631696
 31
0.0
  0
LINE
  5
2D5D
100
AcDbEntity
  8
0
100
AcDbLine
 10
309.05014
 20
654.14404
 30
0.0
 11
297.05014
 21
654.14404
 31
0.0
  0
ARC
  5
2D5E
100
AcDbEntity
  8
0
100
AcDbCircle
 10
311.55014
 20
682.64392
 30
0.0
 40
2.5
100
AcDbArc
 50
90.561705
 51
180.0
  0
LINE
  5
2D5F
100
AcDbEntity
  8
0
100
AcDbLine
 10
297.05014
 20
701.64404
 30
0.0
 11
297.05014
 21
749.14404
 31
0.0
  0
ARC
  5
2D60
100
AcDbEntity
  8
0
100
AcDbCircle
 10
311.55014
 20
720.644161
 30
0.0
 40
2.5
100
AcDbArc
 50
180.0
 51
269.438295
  0
LINE
  5
2D61
100
AcDbEntity
  8
0
100
AcDbLine
 10
297.05014
 20
749.14404
 30
0.0
 11
309.05014
 21
749.14404
 31
0.0
  0
LINE
  5
2D62
100
AcDbEntity
  8
0
100
AcDbLine
 10
338.05014
 20
683.14404
 30
0.0
 11
338.05014
 21
716.64404
 31
0.0
  0
LINE
  5
2D63
100
AcDbEntity
  8
0
100
AcDbLine
 10
339.05014
 20
682.14404
 30
0.0
 11
339.05014
 21
716.64404
 31
0.0
  0
LINE
  5
2D64
100
AcDbEntity
  8
0
100
AcDbLine
 10
401.800508
 20
718.006543
 30
0.0
 11
401.800508
 21
685.281538
 31
0.0
  0
LINE
  5
2D65
100
AcDbEntity
  8
0
100
AcDbLine
 10
408.801334
 20
718.009248
 30
0.0
 11
408.801334
 21
685.278833
 31
0.0
  0
LINE
  5
2D66
100
AcDbEntity
  8
0
100
AcDbLine
 10
396.05014
 20
683.14404
 30
0.0
 11
396.05014
 21
716.64404
 31
0.0
  0
LINE
  5
2D67
100
AcDbEntity
  8
0
100
AcDbLine
 10
395.05014
 20
682.14404
 30
0.0
 11
395.05014
 21
716.64404
 31
0.0
  0
ARC
  5
2D68
100
AcDbEntity
  8
0
100
AcDbCircle
 10
373.878988
 20
692.39404
 30
0.0
 40
26.687435
100
AcDbArc
 50
339.720195
 51
20.279805
  0
LINE
  5
2D69
100
AcDbEntity
  8
0
100
AcDbLine
 10
425.05014
 20
749.14404
 30
0.0
 11
425.05014
 21
654.14404
 31
0.0
  0
LINE
  5
2D6A
100
AcDbEntity
  8
0
100
AcDbLine
 10
437.05014
 20
654.14404
 30
0.0
 11
437.05014
 21
701.64404
 31
0.0
  0
LINE
  5
2D6B
100
AcDbEntity
  8
0
100
AcDbLine
 10
325.298946
 20
718.009248
 30
0.0
 11
325.298946
 21
685.278833
 31
0.0
  0
LINE
  5
2D6C
100
AcDbEntity
  8
0
100
AcDbLine
 10
332.299772
 20
718.006543
 30
0.0
 11
332.299772
 21
685.281538
 31
0.0
  0
ARC
  5
2D6D
100
AcDbEntity
  8
0
100
AcDbCircle
 10
360.221292
 20
692.39404
 30
0.0
 40
26.687435
100
AcDbArc
 50
159.720195
 51
200.279805
  0
LINE
  5
2D6E
100
AcDbEntity
  8
0
100
AcDbLine
 10
343.75014
 20
562.131696
 30
0.0
 11
390.35014
 21
562.131696
 31
0.0
  0
LINE
  5
2D6F
100
AcDbEntity
  8
0
100
AcDbLine
 10
396.880497
 20
526.631696
 30
0.0
 11
386.118146
 21
525.149654
 31
0.0
  0
LINE
  5
2D70
100
AcDbEntity
  8
0
100
AcDbLine
 10
383.803236
 20
520.1256
 30
0.0
 11
391.309236
 21
520.1256
 31
0.0
  0
LINE
  5
2D71
100
AcDbEntity
  8
0
100
AcDbLine
 10
396.880497
 20
541.631696
 30
0.0
 11
386.118146
 21
543.113739
 31
0.0
  0
CIRCLE
  5
2D72
100
AcDbEntity
  8
0
100
AcDbCircle
 10
387.556236
 20
554.637793
 30
0.0
 40
6.30876
  0
LINE
  5
2D73
100
AcDbEntity
  8
0
100
AcDbLine
 10
391.309236
 20
548.137793
 30
0.0
 11
383.803236
 21
548.137793
 31
0.0
  0
LINE
  5
2D74
100
AcDbEntity
  8
0
100
AcDbLine
 10
383.803236
 20
561.137793
 30
0.0
 11
391.309236
 21
561.137793
 31
0.0
  0
LINE
  5
2D75
100
AcDbEntity
  8
0
100
AcDbLine
 10
343.75014
 20
506.131696
 30
0.0
 11
390.35014
 21
506.131696
 31
0.0
  0
LINE
  5
2D76
100
AcDbEntity
  8
0
100
AcDbLine
 10
391.309236
 20
507.1256
 30
0.0
 11
383.803236
 21
507.1256
 31
0.0
  0
CIRCLE
  5
2D77
100
AcDbEntity
  8
0
100
AcDbCircle
 10
387.556236
 20
513.6256
 30
0.0
 40
6.30876
  0
CIRCLE
  5
2D78
100
AcDbEntity
  8
0
100
AcDbCircle
 10
367.05014
 20
534.131696
 30
0.0
 40
17.0
  0
ARC
  5
2D79
100
AcDbEntity
  8
0
100
AcDbCircle
 10
346.413317
 20
554.506228
 30
0.0
 40
11.5
100
AcDbArc
 50
277.84067
 51
349.342619
  0
LINE
  5
2D7A
100
AcDbEntity
  8
0
100
AcDbLine
 10
336.25014
 20
534.131696
 30
0.0
 11
338.30548
 21
557.151508
 31
0.0
  0
ARC
  5
2D7B
100
AcDbEntity
  8
0
100
AcDbCircle
 10
387.686963
 20
554.506228
 30
0.0
 40
11.5
100
AcDbArc
 50
190.657381
 51
262.15933
  0
LINE
  5
2D7C
100
AcDbEntity
  8
0
100
AcDbLine
 10
331.435693
 20
550.898715
 30
0.0
 11
331.435693
 21
517.364678
 31
0.0
  0
LINE
  5
2D7D
100
AcDbEntity
  8
0
100
AcDbLine
 10
325.298946
 20
550.496904
 30
0.0
 11
325.298946
 21
517.766489
 31
0.0
  0
ARC
  5
2D7E
100
AcDbEntity
  8
0
100
AcDbCircle
 10
344.945659
 20
550.730517
 30
0.0
 40
11.411802
100
AcDbArc
 50
148.763493
 51
211.236507
  0
LINE
  5
2D7F
100
AcDbEntity
  8
0
100
AcDbLine
 10
350.297043
 20
507.1256
 30
0.0
 11
354.050043
 21
513.6256
 31
0.0
  0
ARC
  5
2D80
100
AcDbEntity
  8
0
100
AcDbCircle
 10
346.413317
 20
513.757165
 30
0.0
 40
11.5
100
AcDbArc
 50
10.657381
 51
82.15933
  0
CIRCLE
  5
2D81
100
AcDbEntity
  8
0
100
AcDbCircle
 10
346.544043
 20
513.6256
 30
0.0
 40
6.30876
  0
LINE
  5
2D82
100
AcDbEntity
  8
0
100
AcDbLine
 10
354.050043
 20
513.6256
 30
0.0
 11
350.297043
 21
520.1256
 31
0.0
  0
LINE
  5
2D83
100
AcDbEntity
  8
0
100
AcDbLine
 10
338.30548
 20
511.111885
 30
0.0
 11
336.25014
 21
534.131696
 31
0.0
  0
ARC
  5
2D84
100
AcDbEntity
  8
0
100
AcDbCircle
 10
344.945659
 20
517.532876
 30
0.0
 40
11.411802
100
AcDbArc
 50
148.763493
 51
211.236507
  0
LINE
  5
2D85
100
AcDbEntity
  8
0
100
AcDbLine
 10
333.533857
 20
511.615036
 30
0.0
 11
338.260556
 21
511.615036
 31
0.0
  0
LINE
  5
2D86
100
AcDbEntity
  8
0
100
AcDbLine
 10
331.435693
 20
517.364678
 30
0.0
 11
333.533857
 21
511.615036
 31
0.0
  0
ARC
  5
2D87
100
AcDbEntity
  8
0
100
AcDbCircle
 10
328.796902
 20
524.126481
 30
0.0
 40
7.258457
100
AcDbArc
 50
241.189482
 51
291.318194
  0
LINE
  5
2D88
100
AcDbEntity
  8
0
100
AcDbLine
 10
350.297043
 20
520.1256
 30
0.0
 11
342.791043
 21
520.1256
 31
0.0
  0
LINE
  5
2D89
100
AcDbEntity
  8
0
100
AcDbLine
 10
338.30548
 20
511.111885
 30
0.0
 11
343.75014
 21
506.131696
 31
0.0
  0
LINE
  5
2D8A
100
AcDbEntity
  8
0
100
AcDbLine
 10
339.038043
 20
513.6256
 30
0.0
 11
342.791043
 21
507.1256
 31
0.0
  0
LINE
  5
2D8B
100
AcDbEntity
  8
0
100
AcDbLine
 10
342.791043
 20
507.1256
 30
0.0
 11
350.297043
 21
507.1256
 31
0.0
  0
LINE
  5
2D8C
100
AcDbEntity
  8
0
100
AcDbLine
 10
342.791043
 20
520.1256
 30
0.0
 11
339.038043
 21
513.6256
 31
0.0
  0
ARC
  5
2D8D
100
AcDbEntity
  8
0
100
AcDbCircle
 10
368.841383
 20
534.131696
 30
0.0
 40
35.307526
100
AcDbArc
 50
162.391407
 51
197.608593
  0
LINE
  5
2D8E
100
AcDbEntity
  8
0
100
AcDbLine
 10
337.219783
 20
526.631696
 30
0.0
 11
347.982133
 21
525.149654
 31
0.0
  0
LINE
  5
2D8F
100
AcDbEntity
  8
0
100
AcDbLine
 10
337.219783
 20
541.631696
 30
0.0
 11
347.982133
 21
543.113739
 31
0.0
  0
ARC
  5
2D90
100
AcDbEntity
  8
0
100
AcDbCircle
 10
387.686963
 20
513.757165
 30
0.0
 40
11.5
100
AcDbArc
 50
97.84067
 51
169.342619
  0
LINE
  5
2D91
100
AcDbEntity
  8
0
100
AcDbLine
 10
359.55014
 20
506.131696
 30
0.0
 11
357.714949
 21
515.883925
 31
0.0
  0
LINE
  5
2D92
100
AcDbEntity
  8
0
100
AcDbLine
 10
383.803236
 20
507.1256
 30
0.0
 11
380.050236
 21
513.6256
 31
0.0
  0
LINE
  5
2D93
100
AcDbEntity
  8
0
100
AcDbLine
 10
374.55014
 20
506.131696
 30
0.0
 11
376.38533
 21
515.883925
 31
0.0
  0
LINE
  5
2D94
100
AcDbEntity
  8
0
100
AcDbLine
 10
380.050236
 20
513.6256
 30
0.0
 11
383.803236
 21
520.1256
 31
0.0
  0
LINE
  5
2D95
100
AcDbEntity
  8
0
100
AcDbLine
 10
354.050043
 20
554.637793
 30
0.0
 11
350.297043
 21
561.137793
 31
0.0
  0
CIRCLE
  5
2D96
100
AcDbEntity
  8
0
100
AcDbCircle
 10
346.544043
 20
554.637793
 30
0.0
 40
6.30876
  0
LINE
  5
2D97
100
AcDbEntity
  8
0
100
AcDbLine
 10
350.297043
 20
548.137793
 30
0.0
 11
354.050043
 21
554.637793
 31
0.0
  0
LINE
  5
2D98
100
AcDbEntity
  8
0
100
AcDbLine
 10
333.533857
 20
556.648357
 30
0.0
 11
338.260556
 21
556.648357
 31
0.0
  0
LINE
  5
2D99
100
AcDbEntity
  8
0
100
AcDbLine
 10
331.435693
 20
550.898715
 30
0.0
 11
333.533857
 21
556.648357
 31
0.0
  0
ARC
  5
2D9A
100
AcDbEntity
  8
0
100
AcDbCircle
 10
328.796902
 20
544.136912
 30
0.0
 40
7.258457
100
AcDbArc
 50
68.681806
 51
118.810518
  0
LINE
  5
2D9B
100
AcDbEntity
  8
0
100
AcDbLine
 10
342.791043
 20
561.137793
 30
0.0
 11
339.038043
 21
554.637793
 31
0.0
  0
LINE
  5
2D9C
100
AcDbEntity
  8
0
100
AcDbLine
 10
338.30548
 20
557.151508
 30
0.0
 11
343.75014
 21
562.131696
 31
0.0
  0
LINE
  5
2D9D
100
AcDbEntity
  8
0
100
AcDbLine
 10
342.791043
 20
548.137793
 30
0.0
 11
350.297043
 21
548.137793
 31
0.0
  0
LINE
  5
2D9E
100
AcDbEntity
  8
0
100
AcDbLine
 10
339.038043
 20
554.637793
 30
0.0
 11
342.791043
 21
548.137793
 31
0.0
  0
LINE
  5
2D9F
100
AcDbEntity
  8
0
100
AcDbLine
 10
350.297043
 20
561.137793
 30
0.0
 11
342.791043
 21
561.137793
 31
0.0
  0
LINE
  5
2DA0
100
AcDbEntity
  8
0
100
AcDbLine
 10
359.55014
 20
562.131696
 30
0.0
 11
357.714949
 21
552.379468
 31
0.0
  0
LINE
  5
2DA1
100
AcDbEntity
  8
0
100
AcDbLine
 10
374.55014
 20
562.131696
 30
0.0
 11
376.38533
 21
552.379468
 31
0.0
  0
LINE
  5
2DA2
100
AcDbEntity
  8
0
100
AcDbLine
 10
380.050236
 20
554.637793
 30
0.0
 11
383.803236
 21
561.137793
 31
0.0
  0
LINE
  5
2DA3
100
AcDbEntity
  8
0
100
AcDbLine
 10
383.803236
 20
548.137793
 30
0.0
 11
380.050236
 21
554.637793
 31
0.0
  0
LINE
  5
2DA4
100
AcDbEntity
  8
0
100
AcDbLine
 10
437.05014
 20
534.131696
 30
0.0
 11
437.05014
 21
581.631696
 31
0.0
  0
LINE
  5
2DA5
100
AcDbEntity
  8
0
100
AcDbLine
 10
402.664587
 20
550.898715
 30
0.0
 11
402.664587
 21
517.364678
 31
0.0
  0
LINE
  5
2DA6
100
AcDbEntity
  8
0
100
AcDbLine
 10
408.801334
 20
550.496904
 30
0.0
 11
408.801334
 21
517.766489
 31
0.0
  0
LINE
  5
2DA7
100
AcDbEntity
  8
0
100
AcDbLine
 10
397.85014
 20
534.131696
 30
0.0
 11
395.7948
 21
557.151508
 31
0.0
  0
ARC
  5
2DA8
100
AcDbEntity
  8
0
100
AcDbCircle
 10
389.154621
 20
550.730517
 30
0.0
 40
11.411802
100
AcDbArc
 50
328.763493
 51
31.236507
  0
LINE
  5
2DA9
100
AcDbEntity
  8
0
100
AcDbLine
 10
422.574648
 20
517.631456
 30
0.0
 11
408.801334
 21
517.766489
 31
0.0
  0
ARC
  5
2DAA
100
AcDbEntity
  8
0
100
AcDbCircle
 10
389.154621
 20
517.532876
 30
0.0
 40
11.411802
100
AcDbArc
 50
328.763493
 51
31.236507
  0
LINE
  5
2DAB
100
AcDbEntity
  8
0
100
AcDbLine
 10
395.7948
 20
511.111885
 30
0.0
 11
397.85014
 21
534.131696
 31
0.0
  0
ARC
  5
2DAC
100
AcDbEntity
  8
0
100
AcDbCircle
 10
405.303378
 20
524.126481
 30
0.0
 40
7.258457
100
AcDbArc
 50
248.681806
 51
298.810518
  0
LINE
  5
2DAD
100
AcDbEntity
  8
0
100
AcDbLine
 10
395.839724
 20
511.615036
 30
0.0
 11
400.566423
 21
511.615036
 31
0.0
  0
LINE
  5
2DAE
100
AcDbEntity
  8
0
100
AcDbLine
 10
395.7948
 20
511.111885
 30
0.0
 11
390.35014
 21
506.131696
 31
0.0
  0
LINE
  5
2DAF
100
AcDbEntity
  8
0
100
AcDbLine
 10
395.062236
 20
513.6256
 30
0.0
 11
391.309236
 21
507.1256
 31
0.0
  0
LINE
  5
2DB0
100
AcDbEntity
  8
0
100
AcDbLine
 10
391.309236
 20
520.1256
 30
0.0
 11
395.062236
 21
513.6256
 31
0.0
  0
LINE
  5
2DB1
100
AcDbEntity
  8
0
100
AcDbLine
 10
402.664587
 20
517.364678
 30
0.0
 11
400.566423
 21
511.615036
 31
0.0
  0
ARC
  5
2DB2
100
AcDbEntity
  8
0
100
AcDbCircle
 10
365.258897
 20
534.131696
 30
0.0
 40
35.307526
100
AcDbArc
 50
342.391407
 51
17.608593
  0
ARC
  5
2DB3
100
AcDbEntity
  8
0
100
AcDbCircle
 10
422.55014
 20
515.131576
 30
0.0
 40
2.5
100
AcDbArc
 50
0.0
 51
89.438295
  0
LINE
  5
2DB4
100
AcDbEntity
  8
0
100
AcDbLine
 10
422.574648
 20
550.631937
 30
0.0
 11
408.801334
 21
550.496904
 31
0.0
  0
ARC
  5
2DB5
100
AcDbEntity
  8
0
100
AcDbCircle
 10
405.303378
 20
544.136912
 30
0.0
 40
7.258457
100
AcDbArc
 50
61.189482
 51
111.318194
  0
LINE
  5
2DB6
100
AcDbEntity
  8
0
100
AcDbLine
 10
395.839724
 20
556.648357
 30
0.0
 11
400.566423
 21
556.648357
 31
0.0
  0
LINE
  5
2DB7
100
AcDbEntity
  8
0
100
AcDbLine
 10
391.309236
 20
561.137793
 30
0.0
 11
395.062236
 21
554.637793
 31
0.0
  0
LINE
  5
2DB8
100
AcDbEntity
  8
0
100
AcDbLine
 10
395.7948
 20
557.151508
 30
0.0
 11
390.35014
 21
562.131696
 31
0.0
  0
LINE
  5
2DB9
100
AcDbEntity
  8
0
100
AcDbLine
 10
395.062236
 20
554.637793
 30
0.0
 11
391.309236
 21
548.137793
 31
0.0
  0
LINE
  5
2DBA
100
AcDbEntity
  8
0
100
AcDbLine
 10
402.664587
 20
550.898715
 30
0.0
 11
400.566423
 21
556.648357
 31
0.0
  0
ARC
  5
2DBB
100
AcDbEntity
  8
0
100
AcDbCircle
 10
422.55014
 20
553.131817
 30
0.0
 40
2.5
100
AcDbArc
 50
270.561705
 51
0.0
  0
LINE
  5
2DBC
100
AcDbEntity
  8
0
100
AcDbLine
 10
437.05014
 20
581.631696
 30
0.0
 11
425.05014
 21
581.631696
 31
0.0
  0
LINE
  5
2DBD
100
AcDbEntity
  8
0
100
AcDbLine
 10
395.05014
 20
682.14404
 30
0.0
 11
339.05014
 21
682.14404
 31
0.0
  0
LINE
  5
2DBE
100
AcDbEntity
  8
0
100
AcDbLine
 10
394.752554
 20
682.14404
 30
0.0
 11
367.183266
 21
654.574752
 31
0.0
  0
LINE
  5
2DBF
100
AcDbEntity
  8
0
100
AcDbLine
 10
365.510234
 20
654.126465
 30
0.0
 11
347.832564
 21
671.804134
 31
0.0
  0
LINE
  5
2DC0
100
AcDbEntity
  8
0
100
AcDbLine
 10
363.388913
 20
654.833572
 30
0.0
 11
348.539671
 21
669.682814
 31
0.0
  0
ARC
  5
2DC1
100
AcDbEntity
  8
0
100
AcDbCircle
 10
360.33569
 20
666.629591
 30
0.0
 40
12.182091
100
AcDbArc
 50
205.179294
 51
244.820706
  0
LINE
  5
2DC2
100
AcDbEntity
  8
0
100
AcDbLine
 10
359.146273
 20
650.590931
 30
0.0
 11
344.29703
 21
665.440173
 31
0.0
  0
LINE
  5
2DC3
100
AcDbEntity
  8
0
100
AcDbLine
 10
367.183266
 20
654.574752
 30
0.0
 11
339.613978
 21
682.14404
 31
0.0
  0
ARC
  5
2DC4
100
AcDbEntity
  8
0
100
AcDbCircle
 10
347.350253
 20
653.644154
 30
0.0
 40
12.182091
100
AcDbArc
 50
25.179294
 51
64.820706
  0
ARC
  5
2DC5
100
AcDbEntity
  8
0
100
AcDbCircle
 10
346.667071
 20
666.545158
 30
0.0
 40
3.54367
100
AcDbArc
 50
7.758785
 51
67.758785
  0
LINE
  5
2DC6
100
AcDbEntity
  8
0
100
AcDbLine
 10
347.145477
 20
670.056387
 30
0.0
 11
343.923457
 21
666.834367
 31
0.0
  0
LINE
  5
2DC7
100
AcDbEntity
  8
0
100
AcDbLine
 10
350.1783
 20
667.023564
 30
0.0
 11
346.95628
 21
663.801544
 31
0.0
  0
LINE
  5
2DC8
100
AcDbEntity
  8
0
100
AcDbLine
 10
352.533151
 20
664.668713
 30
0.0
 11
349.311131
 21
661.446693
 31
0.0
  0
LINE
  5
2DC9
100
AcDbEntity
  8
0
100
AcDbLine
 10
349.311131
 20
661.446693
 30
0.0
 11
346.95628
 21
663.801544
 31
0.0
  0
LINE
  5
2DCA
100
AcDbEntity
  8
0
100
AcDbLine
 10
344.29703
 20
665.440173
 30
0.0
 11
343.923457
 21
666.834367
 31
0.0
  0
ARC
  5
2DCB
100
AcDbEntity
  8
0
100
AcDbCircle
 10
347.434686
 20
667.312773
 30
0.0
 40
3.54367
100
AcDbArc
 50
202.241215
 51
262.241215
  0
LINE
  5
2DCC
100
AcDbEntity
  8
0
100
AcDbLine
 10
352.533151
 20
664.668713
 30
0.0
 11
350.1783
 21
667.023564
 31
0.0
  0
LINE
  5
2DCD
100
AcDbEntity
  8
0
100
AcDbLine
 10
338.05014
 20
683.14404
 30
0.0
 11
333.533857
 21
683.14404
 31
0.0
  0
ARC
  5
2DCE
100
AcDbEntity
  8
0
100
AcDbCircle
 10
328.796902
 20
691.638825
 30
0.0
 40
7.258457
100
AcDbArc
 50
241.189482
 51
298.854798
  0
LINE
  5
2DCF
100
AcDbEntity
  8
0
100
AcDbLine
 10
332.299772
 20
685.281538
 30
0.0
 11
333.533857
 21
683.14404
 31
0.0
  0
LINE
  5
2DD0
100
AcDbEntity
  8
0
100
AcDbLine
 10
348.280852
 20
673.477167
 30
0.0
 11
347.832564
 21
671.804134
 31
0.0
  0
LINE
  5
2DD1
100
AcDbEntity
  8
0
100
AcDbLine
 10
348.539671
 20
669.682814
 30
0.0
 11
347.145477
 21
670.056387
 31
0.0
  0
LINE
  5
2DD2
100
AcDbEntity
  8
0
100
AcDbLine
 10
349.246778
 20
670.389921
 30
0.0
 11
348.539671
 21
669.682814
 31
0.0
  0
LINE
  5
2DD3
100
AcDbEntity
  8
0
100
AcDbLine
 10
339.05014
 20
682.14404
 30
0.0
 11
338.05014
 21
683.14404
 31
0.0
  0
LINE
  5
2DD4
100
AcDbEntity
  8
0
100
AcDbLine
 10
360.729663
 20
656.472201
 30
0.0
 11
358.374812
 21
658.827052
 31
0.0
  0
LINE
  5
2DD5
100
AcDbEntity
  8
0
100
AcDbLine
 10
358.374812
 20
658.827052
 30
0.0
 11
355.152792
 21
655.605032
 31
0.0
  0
ARC
  5
2DD6
100
AcDbEntity
  8
0
100
AcDbCircle
 10
360.251258
 20
652.960972
 30
0.0
 40
3.54367
100
AcDbArc
 50
22.241215
 51
82.241215
  0
LINE
  5
2DD7
100
AcDbEntity
  8
0
100
AcDbLine
 10
363.762486
 20
653.439378
 30
0.0
 11
360.540466
 21
650.217358
 31
0.0
  0
ARC
  5
2DD8
100
AcDbEntity
  8
0
100
AcDbCircle
 10
361.018872
 20
653.728586
 30
0.0
 40
3.54367
100
AcDbArc
 50
187.758785
 51
247.758785
  0
LINE
  5
2DD9
100
AcDbEntity
  8
0
100
AcDbLine
 10
360.729663
 20
656.472201
 30
0.0
 11
357.507643
 21
653.250181
 31
0.0
  0
LINE
  5
2DDA
100
AcDbEntity
  8
0
100
AcDbLine
 10
359.146273
 20
650.590931
 30
0.0
 11
360.540466
 21
650.217358
 31
0.0
  0
LINE
  5
2DDB
100
AcDbEntity
  8
0
100
AcDbLine
 10
357.507643
 20
653.250181
 30
0.0
 11
355.152792
 21
655.605032
 31
0.0
  0
LINE
  5
2DDC
100
AcDbEntity
  8
0
100
AcDbLine
 10
363.388913
 20
654.833572
 30
0.0
 11
363.762486
 21
653.439378
 31
0.0
  0
LINE
  5
2DDD
100
AcDbEntity
  8
0
100
AcDbLine
 10
364.09602
 20
655.540678
 30
0.0
 11
363.388913
 21
654.833572
 31
0.0
  0
LINE
  5
2DDE
100
AcDbEntity
  8
0
100
AcDbLine
 10
367.183266
 20
654.574752
 30
0.0
 11
365.510234
 21
654.126465
 31
0.0
  0
LINE
  5
2DDF
100
AcDbEntity
  8
0
100
AcDbLine
 10
422.574648
 20
685.1438
 30
0.0
 11
408.801334
 21
685.278833
 31
0.0
  0
ARC
  5
2DE0
100
AcDbEntity
  8
0
100
AcDbCircle
 10
405.303378
 20
691.638825
 30
0.0
 40
7.258457
100
AcDbArc
 50
241.145202
 51
298.810518
  0
LINE
  5
2DE1
100
AcDbEntity
  8
0
100
AcDbLine
 10
401.800508
 20
685.281538
 30
0.0
 11
400.566423
 21
683.14404
 31
0.0
  0
LINE
  5
2DE2
100
AcDbEntity
  8
0
100
AcDbLine
 10
400.566423
 20
683.14404
 30
0.0
 11
396.05014
 21
683.14404
 31
0.0
  0
LINE
  5
2DE3
100
AcDbEntity
  8
0
100
AcDbLine
 10
396.05014
 20
683.14404
 30
0.0
 11
395.05014
 21
682.14404
 31
0.0
  0
LINE
  5
2DE4
100
AcDbEntity
  8
0
100
AcDbLine
 10
425.05014
 20
654.14404
 30
0.0
 11
437.05014
 21
654.14404
 31
0.0
  0
ARC
  5
2DE5
100
AcDbEntity
  8
0
100
AcDbCircle
 10
422.55014
 20
682.64392
 30
0.0
 40
2.5
100
AcDbArc
 50
0.0
 51
89.438295
  0
LINE
  5
2DE6
100
AcDbEntity
  8
0
100
AcDbLine
 10
465.531401
 20
703.556047
 30
0.0
 11
456.215276
 21
703.556047
 31
0.0
  0
LINE
  5
2DE7
100
AcDbEntity
  8
0
100
AcDbLine
 10
449.775776
 20
700.404922
 30
0.0
 11
481.288151
 21
700.404922
 31
0.0
  0
LINE
  5
2DE8
100
AcDbEntity
  8
0
100
AcDbLine
 10
397.85014
 20
726.64404
 30
0.0
 11
336.25014
 21
726.64404
 31
0.0
  0
LINE
  5
2DE9
100
AcDbEntity
  8
0
100
AcDbLine
 10
397.85014
 20
716.64404
 30
0.0
 11
336.25014
 21
716.64404
 31
0.0
  0
LINE
  5
2DEA
100
AcDbEntity
  8
0
100
AcDbLine
 10
395.85014
 20
731.14404
 30
0.0
 11
338.25014
 21
731.14404
 31
0.0
  0
LINE
  5
2DEB
100
AcDbEntity
  8
0
100
AcDbLine
 10
395.85014
 20
740.14404
 30
0.0
 11
338.25014
 21
740.14404
 31
0.0
  0
LINE
  5
2DEC
100
AcDbEntity
  8
0
100
AcDbLine
 10
372.05014
 20
701.64404
 30
0.0
 11
395.05014
 21
701.64404
 31
0.0
  0
LINE
  5
2DED
100
AcDbEntity
  8
0
100
AcDbLine
 10
385.85014
 20
709.14404
 30
0.0
 11
388.45014
 21
709.14404
 31
0.0
  0
LINE
  5
2DEE
100
AcDbEntity
  8
0
100
AcDbLine
 10
381.247736
 20
746.64404
 30
0.0
 11
393.865736
 21
746.64404
 31
0.0
  0
ARC
  5
2DEF
100
AcDbEntity
  8
0
100
AcDbCircle
 10
387.556736
 20
733.138561
 30
0.0
 40
13.352467
100
AcDbArc
 50
73.680297
 51
106.319703
  0
LINE
  5
2DF0
100
AcDbEntity
  8
0
100
AcDbLine
 10
339.038543
 20
740.14404
 30
0.0
 11
339.038543
 21
745.95304
 31
0.0
  0
LINE
  5
2DF1
100
AcDbEntity
  8
0
100
AcDbLine
 10
342.792543
 20
745.95304
 30
0.0
 11
342.792543
 21
740.14404
 31
0.0
  0
ARC
  5
2DF2
100
AcDbEntity
  8
0
100
AcDbCircle
 10
338.25014
 20
739.74404
 30
0.0
 40
2.0
100
AcDbArc
 50
90.0
 51
180.0
  0
ARC
  5
2DF3
100
AcDbEntity
  8
0
100
AcDbCircle
 10
367.05014
 20
713.34404
 30
0.0
 40
30.0
100
AcDbArc
 50
64.319447
 51
115.680553
  0
LINE
  5
2DF4
100
AcDbEntity
  8
0
100
AcDbLine
 10
350.296543
 20
745.95304
 30
0.0
 11
350.296543
 21
740.14404
 31
0.0
  0
LINE
  5
2DF5
100
AcDbEntity
  8
0
100
AcDbLine
 10
354.049543
 20
745.95304
 30
0.0
 11
354.049543
 21
740.14404
 31
0.0
  0
ARC
  5
2DF6
100
AcDbEntity
  8
0
100
AcDbCircle
 10
350.553958
 20
725.469656
 30
0.0
 40
17.881484
100
AcDbArc
 50
66.39246
 51
78.726867
  0
LINE
  5
2DF7
100
AcDbEntity
  8
0
100
AcDbLine
 10
383.804736
 20
745.95304
 30
0.0
 11
383.804736
 21
740.14404
 31
0.0
  0
LINE
  5
2DF8
100
AcDbEntity
  8
0
100
AcDbLine
 10
380.050736
 20
740.14404
 30
0.0
 11
380.050736
 21
745.95304
 31
0.0
  0
ARC
  5
2DF9
100
AcDbEntity
  8
0
100
AcDbCircle
 10
383.546322
 20
725.469656
 30
0.0
 40
17.881484
100
AcDbArc
 50
101.273133
 51
113.60754
  0
LINE
  5
2DFA
100
AcDbEntity
  8
0
100
AcDbLine
 10
339.05014
 20
701.64404
 30
0.0
 11
362.05014
 21
701.64404
 31
0.0
  0
LINE
  5
2DFB
100
AcDbEntity
  8
0
100
AcDbLine
 10
360.05014
 20
713.14404
 30
0.0
 11
350.25014
 21
713.14404
 31
0.0
  0
LINE
  5
2DFC
100
AcDbEntity
  8
0
100
AcDbLine
 10
336.25014
 20
726.64404
 30
0.0
 11
336.25014
 21
716.64404
 31
0.0
  0
ARC
  5
2DFD
100
AcDbEntity
  8
0
100
AcDbCircle
 10
360.221292
 20
710.89404
 30
0.0
 40
26.687435
100
AcDbArc
 50
159.720195
 51
200.279805
  0
ARC
  5
2DFE
100
AcDbEntity
  8
0
100
AcDbCircle
 10
348.25014
 20
711.14404
 30
0.0
 40
2.0
100
AcDbArc
 50
270.0
 51
0.0
  0
ARC
  5
2DFF
100
AcDbEntity
  8
0
100
AcDbCircle
 10
345.65014
 20
711.14404
 30
0.0
 40
2.0
100
AcDbArc
 50
180.0
 51
270.0
  0
LINE
  5
2E00
100
AcDbEntity
  8
0
100
AcDbLine
 10
348.25014
 20
709.14404
 30
0.0
 11
345.65014
 21
709.14404
 31
0.0
  0
LINE
  5
2E01
100
AcDbEntity
  8
0
100
AcDbLine
 10
343.65014
 20
716.64404
 30
0.0
 11
343.65014
 21
711.14404
 31
0.0
  0
LINE
  5
2E02
100
AcDbEntity
  8
0
100
AcDbLine
 10
350.25014
 20
713.14404
 30
0.0
 11
350.25014
 21
711.14404
 31
0.0
  0
LINE
  5
2E03
100
AcDbEntity
  8
0
100
AcDbLine
 10
336.25014
 20
720.14404
 30
0.0
 11
333.533857
 21
720.14404
 31
0.0
  0
ARC
  5
2E04
100
AcDbEntity
  8
0
100
AcDbCircle
 10
328.796902
 20
711.649256
 30
0.0
 40
7.258457
100
AcDbArc
 50
61.145202
 51
118.810518
  0
LINE
  5
2E05
100
AcDbEntity
  8
0
100
AcDbLine
 10
332.299772
 20
718.006543
 30
0.0
 11
333.533857
 21
720.14404
 31
0.0
  0
LINE
  5
2E06
100
AcDbEntity
  8
0
100
AcDbLine
 10
339.038543
 20
741.74404
 30
0.0
 11
338.25014
 21
741.74404
 31
0.0
  0
ARC
  5
2E07
100
AcDbEntity
  8
0
100
AcDbCircle
 10
338.25014
 20
738.14404
 30
0.0
 40
2.0
100
AcDbArc
 50
90.0
 51
180.0
  0
ARC
  5
2E08
100
AcDbEntity
  8
0
100
AcDbCircle
 10
338.25014
 20
733.14404
 30
0.0
 40
2.0
100
AcDbArc
 50
180.0
 51
270.0
  0
LINE
  5
2E09
100
AcDbEntity
  8
0
100
AcDbLine
 10
336.25014
 20
739.74404
 30
0.0
 11
336.25014
 21
733.14404
 31
0.0
  0
LINE
  5
2E0A
100
AcDbEntity
  8
0
100
AcDbLine
 10
342.544043
 20
731.14404
 30
0.0
 11
342.544043
 21
726.64404
 31
0.0
  0
LINE
  5
2E0B
100
AcDbEntity
  8
0
100
AcDbLine
 10
344.05014
 20
738.14404
 30
0.0
 11
344.05014
 21
733.14404
 31
0.0
  0
ARC
  5
2E0C
100
AcDbEntity
  8
0
100
AcDbCircle
 10
346.05014
 20
738.14404
 30
0.0
 40
2.0
100
AcDbArc
 50
90.0
 51
180.0
  0
ARC
  5
2E0D
100
AcDbEntity
  8
0
100
AcDbCircle
 10
346.05014
 20
733.14404
 30
0.0
 40
2.0
100
AcDbArc
 50
180.0
 51
270.0
  0
LINE
  5
2E0E
100
AcDbEntity
  8
0
100
AcDbLine
 10
350.544043
 20
726.64404
 30
0.0
 11
350.544043
 21
731.14404
 31
0.0
  0
LINE
  5
2E0F
100
AcDbEntity
  8
0
100
AcDbLine
 10
362.05014
 20
711.141463
 30
0.0
 11
372.05014
 21
711.141463
 31
0.0
  0
LINE
  5
2E10
100
AcDbEntity
  8
0
100
AcDbLine
 10
362.05014
 20
716.64404
 30
0.0
 11
362.05014
 21
701.64404
 31
0.0
  0
LINE
  5
2E11
100
AcDbEntity
  8
0
100
AcDbLine
 10
360.05014
 20
713.14404
 30
0.0
 11
362.05014
 21
701.64404
 31
0.0
  0
ARC
  5
2E12
100
AcDbEntity
  8
0
100
AcDbCircle
 10
360.05014
 20
714.64404
 30
0.0
 40
2.0
100
AcDbArc
 50
7.180756
 51
90.0
  0
ARC
  5
2E13
100
AcDbEntity
  8
0
100
AcDbCircle
 10
360.05014
 20
715.14404
 30
0.0
 40
2.0
100
AcDbArc
 50
270.0
 51
352.819244
  0
ARC
  5
2E14
100
AcDbEntity
  8
0
100
AcDbCircle
 10
374.05014
 20
715.14404
 30
0.0
 40
2.0
100
AcDbArc
 50
187.180756
 51
270.0
  0
ARC
  5
2E15
100
AcDbEntity
  8
0
100
AcDbCircle
 10
374.05014
 20
714.64404
 30
0.0
 40
2.0
100
AcDbArc
 50
90.0
 51
172.819244
  0
LINE
  5
2E16
100
AcDbEntity
  8
0
100
AcDbLine
 10
372.05014
 20
701.64404
 30
0.0
 11
374.05014
 21
713.14404
 31
0.0
  0
LINE
  5
2E17
100
AcDbEntity
  8
0
100
AcDbLine
 10
372.05014
 20
701.64404
 30
0.0
 11
372.05014
 21
716.64404
 31
0.0
  0
ARC
  5
2E18
100
AcDbEntity
  8
0
100
AcDbCircle
 10
385.85014
 20
711.14404
 30
0.0
 40
2.0
100
AcDbArc
 50
180.0
 51
270.0
  0
LINE
  5
2E19
100
AcDbEntity
  8
0
100
AcDbLine
 10
374.05014
 20
713.14404
 30
0.0
 11
383.85014
 21
713.14404
 31
0.0
  0
LINE
  5
2E1A
100
AcDbEntity
  8
0
100
AcDbLine
 10
383.85014
 20
713.14404
 30
0.0
 11
383.85014
 21
711.14404
 31
0.0
  0
LINE
  5
2E1B
100
AcDbEntity
  8
0
100
AcDbLine
 10
383.556236
 20
731.14404
 30
0.0
 11
383.556236
 21
726.64404
 31
0.0
  0
LINE
  5
2E1C
100
AcDbEntity
  8
0
100
AcDbLine
 10
340.235543
 20
746.64404
 30
0.0
 11
352.853543
 21
746.64404
 31
0.0
  0
ARC
  5
2E1D
100
AcDbEntity
  8
0
100
AcDbCircle
 10
352.173043
 20
742.950082
 30
0.0
 40
3.541047
100
AcDbArc
 50
57.999406
 51
122.000594
  0
ARC
  5
2E1E
100
AcDbEntity
  8
0
100
AcDbCircle
 10
346.544543
 20
733.138561
 30
0.0
 40
13.352467
100
AcDbArc
 50
73.680297
 51
106.319703
  0
LINE
  5
2E1F
100
AcDbEntity
  8
0
100
AcDbLine
 10
339.038543
 20
745.95304
 30
0.0
 11
340.235543
 21
746.64404
 31
0.0
  0
ARC
  5
2E20
100
AcDbEntity
  8
0
100
AcDbCircle
 10
340.916043
 20
742.950082
 30
0.0
 40
3.541047
100
AcDbArc
 50
57.999406
 51
122.000594
  0
LINE
  5
2E21
100
AcDbEntity
  8
0
100
AcDbLine
 10
380.050736
 20
745.64404
 30
0.0
 11
354.049543
 21
745.64404
 31
0.0
  0
LINE
  5
2E22
100
AcDbEntity
  8
0
100
AcDbLine
 10
352.853543
 20
746.64404
 30
0.0
 11
354.049543
 21
745.95304
 31
0.0
  0
ARC
  5
2E23
100
AcDbEntity
  8
0
100
AcDbCircle
 10
381.928236
 20
742.950082
 30
0.0
 40
3.541047
100
AcDbArc
 50
57.999406
 51
122.000594
  0
LINE
  5
2E24
100
AcDbEntity
  8
0
100
AcDbLine
 10
380.050736
 20
745.95304
 30
0.0
 11
381.247736
 21
746.64404
 31
0.0
  0
LINE
  5
2E25
100
AcDbEntity
  8
0
100
AcDbLine
 10
437.05014
 20
701.64404
 30
0.0
 11
437.05014
 21
749.14404
 31
0.0
  0
LINE
  5
2E26
100
AcDbEntity
  8
0
100
AcDbLine
 10
391.308736
 20
745.95304
 30
0.0
 11
391.308736
 21
740.14404
 31
0.0
  0
LINE
  5
2E27
100
AcDbEntity
  8
0
100
AcDbLine
 10
395.061736
 20
745.95304
 30
0.0
 11
395.061736
 21
740.14404
 31
0.0
  0
ARC
  5
2E28
100
AcDbEntity
  8
0
100
AcDbCircle
 10
395.85014
 20
739.74404
 30
0.0
 40
2.0
100
AcDbArc
 50
0.0
 51
90.0
  0
LINE
  5
2E29
100
AcDbEntity
  8
0
100
AcDbLine
 10
422.574648
 20
718.144281
 30
0.0
 11
408.801334
 21
718.009248
 31
0.0
  0
LINE
  5
2E2A
100
AcDbEntity
  8
0
100
AcDbLine
 10
397.85014
 20
726.64404
 30
0.0
 11
397.85014
 21
716.64404
 31
0.0
  0
ARC
  5
2E2B
100
AcDbEntity
  8
0
100
AcDbCircle
 10
373.878988
 20
710.89404
 30
0.0
 40
26.687435
100
AcDbArc
 50
339.720195
 51
20.279805
  0
ARC
  5
2E2C
100
AcDbEntity
  8
0
100
AcDbCircle
 10
388.45014
 20
711.14404
 30
0.0
 40
2.0
100
AcDbArc
 50
270.0
 51
0.0
  0
LINE
  5
2E2D
100
AcDbEntity
  8
0
100
AcDbLine
 10
390.45014
 20
716.64404
 30
0.0
 11
390.45014
 21
711.14404
 31
0.0
  0
ARC
  5
2E2E
100
AcDbEntity
  8
0
100
AcDbCircle
 10
405.303378
 20
711.649256
 30
0.0
 40
7.258457
100
AcDbArc
 50
61.189482
 51
118.854798
  0
LINE
  5
2E2F
100
AcDbEntity
  8
0
100
AcDbLine
 10
391.556236
 20
726.64404
 30
0.0
 11
391.556236
 21
731.14404
 31
0.0
  0
LINE
  5
2E30
100
AcDbEntity
  8
0
100
AcDbLine
 10
390.05014
 20
738.14404
 30
0.0
 11
390.05014
 21
733.14404
 31
0.0
  0
ARC
  5
2E31
100
AcDbEntity
  8
0
100
AcDbCircle
 10
388.05014
 20
738.14404
 30
0.0
 40
2.0
100
AcDbArc
 50
0.0
 51
90.0
  0
ARC
  5
2E32
100
AcDbEntity
  8
0
100
AcDbCircle
 10
388.05014
 20
733.14404
 30
0.0
 40
2.0
100
AcDbArc
 50
270.0
 51
0.0
  0
LINE
  5
2E33
100
AcDbEntity
  8
0
100
AcDbLine
 10
401.800508
 20
718.006543
 30
0.0
 11
400.566423
 21
720.14404
 31
0.0
  0
LINE
  5
2E34
100
AcDbEntity
  8
0
100
AcDbLine
 10
400.566423
 20
720.14404
 30
0.0
 11
397.85014
 21
720.14404
 31
0.0
  0
ARC
  5
2E35
100
AcDbEntity
  8
0
100
AcDbCircle
 10
395.85014
 20
738.14404
 30
0.0
 40
2.0
100
AcDbArc
 50
0.0
 51
90.0
  0
ARC
  5
2E36
100
AcDbEntity
  8
0
100
AcDbCircle
 10
395.85014
 20
733.14404
 30
0.0
 40
2.0
100
AcDbArc
 50
270.0
 51
0.0
  0
LINE
  5
2E37
100
AcDbEntity
  8
0
100
AcDbLine
 10
397.85014
 20
739.74404
 30
0.0
 11
397.85014
 21
733.14404
 31
0.0
  0
LINE
  5
2E38
100
AcDbEntity
  8
0
100
AcDbLine
 10
395.85014
 20
741.74404
 30
0.0
 11
395.061736
 21
741.74404
 31
0.0
  0
LINE
  5
2E39
100
AcDbEntity
  8
0
100
AcDbLine
 10
456.215276
 20
706.707172
 30
0.0
 11
449.775776
 21
700.404922
 31
0.0
  0
LINE
  5
2E3A
100
AcDbEntity
  8
0
100
AcDbLine
 10
456.215276
 20
703.556047
 30
0.0
 11
456.215276
 21
706.707172
 31
0.0
  0
ARC
  5
2E3B
100
AcDbEntity
  8
0
100
AcDbCircle
 10
422.55014
 20
720.644161
 30
0.0
 40
2.5
100
AcDbArc
 50
270.561705
 51
0.0
  0
ARC
  5
2E3C
100
AcDbEntity
  8
0
100
AcDbCircle
 10
393.185236
 20
742.950082
 30
0.0
 40
3.541047
100
AcDbArc
 50
57.999406
 51
122.000594
  0
LINE
  5
2E3D
100
AcDbEntity
  8
0
100
AcDbLine
 10
393.865736
 20
746.64404
 30
0.0
 11
395.061736
 21
745.95304
 31
0.0
  0
LINE
  5
2E3E
100
AcDbEntity
  8
0
100
AcDbLine
 10
437.05014
 20
749.14404
 30
0.0
 11
425.05014
 21
749.14404
 31
0.0
  0
LINE
  5
2E3F
100
AcDbEntity
  8
0
100
AcDbLine
 10
487.590401
 20
706.707172
 30
0.0
 11
468.683651
 21
706.707172
 31
0.0
  0
LINE
  5
2E40
100
AcDbEntity
  8
0
100
AcDbLine
 10
468.683651
 20
706.707172
 30
0.0
 11
465.531401
 21
703.556047
 31
0.0
  0
LINE
  5
2E41
100
AcDbEntity
  8
0
100
AcDbLine
 10
481.288151
 20
700.404922
 30
0.0
 11
487.590401
 21
706.707172
 31
0.0
  0
LINE
  5
2E42
100
AcDbEntity
  8
0
100
AcDbLine
 10
839.407469
 20
719.533638
 30
0.0
 11
839.407469
 21
687.523803
 31
0.0
  0
LINE
  5
2E43
100
AcDbEntity
  8
0
100
AcDbLine
 10
832.823948
 20
687.528721
 30
0.0
 11
832.823948
 21
719.528721
 31
0.0
  0
LINE
  5
2E44
100
AcDbEntity
  8
0
100
AcDbLine
 10
845.364289
 20
685.028721
 30
0.0
 11
845.364289
 21
718.528721
 31
0.0
  0
LINE
  5
2E45
100
AcDbEntity
  8
0
100
AcDbLine
 10
846.364289
 20
684.028721
 30
0.0
 11
846.364289
 21
718.528721
 31
0.0
  0
LINE
  5
2E46
100
AcDbEntity
  8
0
100
AcDbLine
 10
827.823948
 20
687.528721
 30
0.0
 11
827.823948
 21
719.528721
 31
0.0
  0
LINE
  5
2E47
100
AcDbEntity
  8
0
100
AcDbLine
 10
824.917297
 20
721.206876
 30
0.0
 11
824.917297
 21
685.850565
 31
0.0
  0
ARC
  5
2E48
100
AcDbEntity
  8
0
100
AcDbCircle
 10
867.535441
 20
694.278721
 30
0.0
 40
26.687435
100
AcDbArc
 50
159.720195
 51
200.279805
  0
LINE
  5
2E49
100
AcDbEntity
  8
0
100
AcDbLine
 10
805.864289
 20
753.528721
 30
0.0
 11
805.864289
 21
653.528721
 31
0.0
  0
LINE
  5
2E4A
100
AcDbEntity
  8
0
100
AcDbLine
 10
791.864289
 20
653.528721
 30
0.0
 11
791.864289
 21
703.528721
 31
0.0
  0
LINE
  5
2E4B
100
AcDbEntity
  8
0
100
AcDbLine
 10
750.255537
 20
524.49393
 30
0.0
 11
743.953287
 21
530.79618
 31
0.0
  0
LINE
  5
2E4C
100
AcDbEntity
  8
0
100
AcDbLine
 10
743.953287
 20
530.79618
 30
0.0
 11
762.860037
 21
530.79618
 31
0.0
  0
LINE
  5
2E4D
100
AcDbEntity
  8
0
100
AcDbLine
 10
809.700492
 20
547.606062
 30
0.0
 11
824.917297
 21
546.982422
 31
0.0
  0
LINE
  5
2E4E
100
AcDbEntity
  8
0
100
AcDbLine
 10
809.700492
 20
511.002472
 30
0.0
 11
824.917297
 21
511.626111
 31
0.0
  0
LINE
  5
2E4F
100
AcDbEntity
  8
0
100
AcDbLine
 10
791.864289
 20
529.304267
 30
0.0
 11
791.864289
 21
579.304267
 31
0.0
  0
LINE
  5
2E50
100
AcDbEntity
  8
0
100
AcDbLine
 10
762.860037
 20
530.79618
 30
0.0
 11
766.012287
 21
527.645055
 31
0.0
  0
LINE
  5
2E51
100
AcDbEntity
  8
0
100
AcDbLine
 10
781.767912
 20
524.49393
 30
0.0
 11
750.255537
 21
524.49393
 31
0.0
  0
LINE
  5
2E52
100
AcDbEntity
  8
0
100
AcDbLine
 10
775.328412
 20
530.79618
 30
0.0
 11
781.767912
 21
524.49393
 31
0.0
  0
LINE
  5
2E53
100
AcDbEntity
  8
0
100
AcDbLine
 10
775.328412
 20
527.645055
 30
0.0
 11
775.328412
 21
530.79618
 31
0.0
  0
LINE
  5
2E54
100
AcDbEntity
  8
0
100
AcDbLine
 10
766.012287
 20
527.645055
 30
0.0
 11
775.328412
 21
527.645055
 31
0.0
  0
ARC
  5
2E55
100
AcDbEntity
  8
0
100
AcDbCircle
 10
809.864289
 20
507.005827
 30
0.0
 40
4.0
100
AcDbArc
 50
92.346874
 51
180.0
  0
ARC
  5
2E56
100
AcDbEntity
  8
0
100
AcDbCircle
 10
809.864289
 20
551.602707
 30
0.0
 40
4.0
100
AcDbArc
 50
180.0
 51
267.653126
  0
LINE
  5
2E57
100
AcDbEntity
  8
0
100
AcDbLine
 10
791.864289
 20
579.304267
 30
0.0
 11
805.864289
 21
579.304267
 31
0.0
  0
LINE
  5
2E58
100
AcDbEntity
  8
0
100
AcDbLine
 10
857.611192
 20
543.310364
 30
0.0
 11
861.364192
 21
549.810364
 31
0.0
  0
ARC
  5
2E59
100
AcDbEntity
  8
0
100
AcDbCircle
 10
853.727466
 20
549.678799
 30
0.0
 40
11.5
100
AcDbArc
 50
277.84067
 51
349.342619
  0
LINE
  5
2E5A
100
AcDbEntity
  8
0
100
AcDbLine
 10
843.564289
 20
529.304267
 30
0.0
 11
845.619629
 21
552.324078
 31
0.0
  0
ARC
  5
2E5B
100
AcDbEntity
  8
0
100
AcDbCircle
 10
852.259808
 20
545.903087
 30
0.0
 40
11.411802
100
AcDbArc
 50
148.763493
 51
211.236507
  0
LINE
  5
2E5C
100
AcDbEntity
  8
0
100
AcDbLine
 10
838.570065
 20
545.578641
 30
0.0
 11
838.570065
 21
513.029893
 31
0.0
  0
LINE
  5
2E5D
100
AcDbEntity
  8
0
100
AcDbLine
 10
824.917297
 20
546.982422
 30
0.0
 11
824.917297
 21
511.626111
 31
0.0
  0
LINE
  5
2E5E
100
AcDbEntity
  8
0
100
AcDbLine
 10
827.823948
 20
513.304267
 30
0.0
 11
827.823948
 21
545.304267
 31
0.0
  0
LINE
  5
2E5F
100
AcDbEntity
  8
0
100
AcDbLine
 10
832.823948
 20
513.304267
 30
0.0
 11
832.823948
 21
545.304267
 31
0.0
  0
LINE
  5
2E60
100
AcDbEntity
  8
0
100
AcDbLine
 10
846.352192
 20
549.810364
 30
0.0
 11
850.105192
 21
543.310364
 31
0.0
  0
CIRCLE
  5
2E61
100
AcDbEntity
  8
0
100
AcDbCircle
 10
853.858192
 20
549.810364
 30
0.0
 40
6.30876
  0
LINE
  5
2E62
100
AcDbEntity
  8
0
100
AcDbLine
 10
850.105192
 20
543.310364
 30
0.0
 11
857.611192
 21
543.310364
 31
0.0
  0
LINE
  5
2E63
100
AcDbEntity
  8
0
100
AcDbLine
 10
857.611192
 20
515.29817
 30
0.0
 11
850.105192
 21
515.29817
 31
0.0
  0
LINE
  5
2E64
100
AcDbEntity
  8
0
100
AcDbLine
 10
850.105192
 20
502.29817
 30
0.0
 11
857.611192
 21
502.29817
 31
0.0
  0
LINE
  5
2E65
100
AcDbEntity
  8
0
100
AcDbLine
 10
844.533932
 20
521.804267
 30
0.0
 11
855.296282
 21
520.322225
 31
0.0
  0
CIRCLE
  5
2E66
100
AcDbEntity
  8
0
100
AcDbCircle
 10
853.858192
 20
508.79817
 30
0.0
 40
6.30876
  0
LINE
  5
2E67
100
AcDbEntity
  8
0
100
AcDbLine
 10
844.533932
 20
536.804267
 30
0.0
 11
855.296282
 21
538.286309
 31
0.0
  0
ARC
  5
2E68
100
AcDbEntity
  8
0
100
AcDbCircle
 10
876.155532
 20
529.304267
 30
0.0
 40
35.307526
100
AcDbArc
 50
162.391407
 51
197.608593
  0
LINE
  5
2E69
100
AcDbEntity
  8
0
100
AcDbLine
 10
845.619629
 20
506.284455
 30
0.0
 11
843.564289
 21
529.304267
 31
0.0
  0
ARC
  5
2E6A
100
AcDbEntity
  8
0
100
AcDbCircle
 10
836.12226
 20
522.073021
 30
0.0
 40
9.36856
100
AcDbArc
 50
249.386522
 51
285.14595
  0
LINE
  5
2E6B
100
AcDbEntity
  8
0
100
AcDbLine
 10
827.823948
 20
513.304267
 30
0.0
 11
824.917297
 21
511.626111
 31
0.0
  0
LINE
  5
2E6C
100
AcDbEntity
  8
0
100
AcDbLine
 10
827.823948
 20
513.304267
 30
0.0
 11
832.823948
 21
513.304267
 31
0.0
  0
LINE
  5
2E6D
100
AcDbEntity
  8
0
100
AcDbLine
 10
838.570065
 20
513.029893
 30
0.0
 11
840.848006
 21
506.787606
 31
0.0
  0
LINE
  5
2E6E
100
AcDbEntity
  8
0
100
AcDbLine
 10
840.848006
 20
506.787606
 30
0.0
 11
845.574705
 21
506.787606
 31
0.0
  0
ARC
  5
2E6F
100
AcDbEntity
  8
0
100
AcDbCircle
 10
852.259808
 20
512.705447
 30
0.0
 40
11.411802
100
AcDbArc
 50
148.763493
 51
211.236507
  0
LINE
  5
2E70
100
AcDbEntity
  8
0
100
AcDbLine
 10
845.619629
 20
506.284455
 30
0.0
 11
851.064289
 21
501.304267
 31
0.0
  0
LINE
  5
2E71
100
AcDbEntity
  8
0
100
AcDbLine
 10
846.352192
 20
508.79817
 30
0.0
 11
850.105192
 21
502.29817
 31
0.0
  0
LINE
  5
2E72
100
AcDbEntity
  8
0
100
AcDbLine
 10
850.105192
 20
515.29817
 30
0.0
 11
846.352192
 21
508.79817
 31
0.0
  0
ARC
  5
2E73
100
AcDbEntity
  8
0
100
AcDbCircle
 10
853.727466
 20
508.929735
 30
0.0
 40
11.5
100
AcDbArc
 50
10.657381
 51
82.15933
  0
LINE
  5
2E74
100
AcDbEntity
  8
0
100
AcDbLine
 10
866.864289
 20
501.304267
 30
0.0
 11
865.029098
 21
511.056495
 31
0.0
  0
LINE
  5
2E75
100
AcDbEntity
  8
0
100
AcDbLine
 10
857.611192
 20
502.29817
 30
0.0
 11
861.364192
 21
508.79817
 31
0.0
  0
LINE
  5
2E76
100
AcDbEntity
  8
0
100
AcDbLine
 10
861.364192
 20
508.79817
 30
0.0
 11
857.611192
 21
515.29817
 31
0.0
  0
LINE
  5
2E77
100
AcDbEntity
  8
0
100
AcDbLine
 10
881.864289
 20
501.304267
 30
0.0
 11
883.699479
 21
511.056495
 31
0.0
  0
LINE
  5
2E78
100
AcDbEntity
  8
0
100
AcDbLine
 10
857.611192
 20
556.310364
 30
0.0
 11
850.105192
 21
556.310364
 31
0.0
  0
ARC
  5
2E79
100
AcDbEntity
  8
0
100
AcDbCircle
 10
836.12226
 20
536.535513
 30
0.0
 40
9.36856
100
AcDbArc
 50
74.85405
 51
110.613478
  0
LINE
  5
2E7A
100
AcDbEntity
  8
0
100
AcDbLine
 10
827.823948
 20
545.304267
 30
0.0
 11
824.917297
 21
546.982422
 31
0.0
  0
LINE
  5
2E7B
100
AcDbEntity
  8
0
100
AcDbLine
 10
827.823948
 20
545.304267
 30
0.0
 11
832.823948
 21
545.304267
 31
0.0
  0
LINE
  5
2E7C
100
AcDbEntity
  8
0
100
AcDbLine
 10
838.570065
 20
545.578641
 30
0.0
 11
840.848006
 21
551.820927
 31
0.0
  0
LINE
  5
2E7D
100
AcDbEntity
  8
0
100
AcDbLine
 10
840.848006
 20
551.820927
 30
0.0
 11
845.574705
 21
551.820927
 31
0.0
  0
LINE
  5
2E7E
100
AcDbEntity
  8
0
100
AcDbLine
 10
850.105192
 20
556.310364
 30
0.0
 11
846.352192
 21
549.810364
 31
0.0
  0
LINE
  5
2E7F
100
AcDbEntity
  8
0
100
AcDbLine
 10
845.619629
 20
552.324078
 30
0.0
 11
851.064289
 21
557.304267
 31
0.0
  0
LINE
  5
2E80
100
AcDbEntity
  8
0
100
AcDbLine
 10
866.864289
 20
557.304267
 30
0.0
 11
865.029098
 21
547.552038
 31
0.0
  0
LINE
  5
2E81
100
AcDbEntity
  8
0
100
AcDbLine
 10
861.364192
 20
549.810364
 30
0.0
 11
857.611192
 21
556.310364
 31
0.0
  0
LINE
  5
2E82
100
AcDbEntity
  8
0
100
AcDbLine
 10
881.864289
 20
557.304267
 30
0.0
 11
883.699479
 21
547.552038
 31
0.0
  0
LINE
  5
2E83
100
AcDbEntity
  8
0
100
AcDbLine
 10
809.700492
 20
685.226926
 30
0.0
 11
824.917297
 21
685.850565
 31
0.0
  0
LINE
  5
2E84
100
AcDbEntity
  8
0
100
AcDbLine
 10
805.864289
 20
653.528721
 30
0.0
 11
791.864289
 21
653.528721
 31
0.0
  0
ARC
  5
2E85
100
AcDbEntity
  8
0
100
AcDbCircle
 10
809.864289
 20
681.230281
 30
0.0
 40
4.0
100
AcDbArc
 50
92.346874
 51
180.0
  0
LINE
  5
2E86
100
AcDbEntity
  8
0
100
AcDbLine
 10
866.460421
 20
652.475611
 30
0.0
 11
851.611179
 21
667.324854
 31
0.0
  0
LINE
  5
2E87
100
AcDbEntity
  8
0
100
AcDbLine
 10
854.459626
 20
671.941067
 30
0.0
 11
851.237606
 21
668.719047
 31
0.0
  0
ARC
  5
2E88
100
AcDbEntity
  8
0
100
AcDbCircle
 10
854.748835
 20
669.197453
 30
0.0
 40
3.54367
100
AcDbArc
 50
202.241215
 51
262.241215
  0
LINE
  5
2E89
100
AcDbEntity
  8
0
100
AcDbLine
 10
874.497415
 20
656.459433
 30
0.0
 11
846.928127
 21
684.028721
 31
0.0
  0
LINE
  5
2E8A
100
AcDbEntity
  8
0
100
AcDbLine
 10
851.611179
 20
667.324854
 30
0.0
 11
851.237606
 21
668.719047
 31
0.0
  0
ARC
  5
2E8B
100
AcDbEntity
  8
0
100
AcDbCircle
 10
836.12226
 20
696.297475
 30
0.0
 40
9.36856
100
AcDbArc
 50
249.386522
 51
290.527885
  0
LINE
  5
2E8C
100
AcDbEntity
  8
0
100
AcDbLine
 10
827.823948
 20
687.528721
 30
0.0
 11
824.917297
 21
685.850565
 31
0.0
  0
LINE
  5
2E8D
100
AcDbEntity
  8
0
100
AcDbLine
 10
827.823948
 20
687.528721
 30
0.0
 11
832.823948
 21
687.528721
 31
0.0
  0
LINE
  5
2E8E
100
AcDbEntity
  8
0
100
AcDbLine
 10
839.407469
 20
687.523803
 30
0.0
 11
840.848006
 21
685.028721
 31
0.0
  0
LINE
  5
2E8F
100
AcDbEntity
  8
0
100
AcDbLine
 10
846.364289
 20
684.028721
 30
0.0
 11
845.364289
 21
685.028721
 31
0.0
  0
LINE
  5
2E90
100
AcDbEntity
  8
0
100
AcDbLine
 10
845.364289
 20
685.028721
 30
0.0
 11
840.848006
 21
685.028721
 31
0.0
  0
LINE
  5
2E91
100
AcDbEntity
  8
0
100
AcDbLine
 10
872.824383
 20
656.011145
 30
0.0
 11
855.146713
 21
673.688815
 31
0.0
  0
LINE
  5
2E92
100
AcDbEntity
  8
0
100
AcDbLine
 10
870.703062
 20
656.718252
 30
0.0
 11
855.85382
 21
671.567494
 31
0.0
  0
LINE
  5
2E93
100
AcDbEntity
  8
0
100
AcDbLine
 10
859.8473
 20
666.553393
 30
0.0
 11
857.492449
 21
668.908244
 31
0.0
  0
LINE
  5
2E94
100
AcDbEntity
  8
0
100
AcDbLine
 10
857.492449
 20
668.908244
 30
0.0
 11
854.270429
 21
665.686224
 31
0.0
  0
ARC
  5
2E95
100
AcDbEntity
  8
0
100
AcDbCircle
 10
867.565407
 20
654.845652
 30
0.0
 40
3.54367
100
AcDbArc
 50
22.241215
 51
82.241215
  0
LINE
  5
2E96
100
AcDbEntity
  8
0
100
AcDbLine
 10
871.076635
 20
655.324058
 30
0.0
 11
867.854615
 21
652.102038
 31
0.0
  0
LINE
  5
2E97
100
AcDbEntity
  8
0
100
AcDbLine
 10
865.688961
 20
660.711732
 30
0.0
 11
862.466941
 21
657.489712
 31
0.0
  0
ARC
  5
2E98
100
AcDbEntity
  8
0
100
AcDbCircle
 10
867.649839
 20
668.514271
 30
0.0
 40
12.182091
100
AcDbArc
 50
205.179294
 51
244.820706
  0
LINE
  5
2E99
100
AcDbEntity
  8
0
100
AcDbLine
 10
868.043812
 20
658.356881
 30
0.0
 11
865.688961
 21
660.711732
 31
0.0
  0
LINE
  5
2E9A
100
AcDbEntity
  8
0
100
AcDbLine
 10
868.043812
 20
658.356881
 30
0.0
 11
864.821792
 21
655.134861
 31
0.0
  0
ARC
  5
2E9B
100
AcDbEntity
  8
0
100
AcDbCircle
 10
868.333021
 20
655.613267
 30
0.0
 40
3.54367
100
AcDbArc
 50
187.758785
 51
247.758785
  0
LINE
  5
2E9C
100
AcDbEntity
  8
0
100
AcDbLine
 10
866.460421
 20
652.475611
 30
0.0
 11
867.854615
 21
652.102038
 31
0.0
  0
LINE
  5
2E9D
100
AcDbEntity
  8
0
100
AcDbLine
 10
864.821792
 20
655.134861
 30
0.0
 11
862.466941
 21
657.489712
 31
0.0
  0
LINE
  5
2E9E
100
AcDbEntity
  8
0
100
AcDbLine
 10
859.8473
 20
666.553393
 30
0.0
 11
856.62528
 21
663.331373
 31
0.0
  0
LINE
  5
2E9F
100
AcDbEntity
  8
0
100
AcDbLine
 10
856.62528
 20
663.331373
 30
0.0
 11
854.270429
 21
665.686224
 31
0.0
  0
ARC
  5
2EA0
100
AcDbEntity
  8
0
100
AcDbCircle
 10
854.664402
 20
655.528834
 30
0.0
 40
12.182091
100
AcDbArc
 50
25.179294
 51
64.820706
  0
LINE
  5
2EA1
100
AcDbEntity
  8
0
100
AcDbLine
 10
870.703062
 20
656.718252
 30
0.0
 11
871.076635
 21
655.324058
 31
0.0
  0
LINE
  5
2EA2
100
AcDbEntity
  8
0
100
AcDbLine
 10
871.410169
 20
657.425359
 30
0.0
 11
870.703062
 21
656.718252
 31
0.0
  0
LINE
  5
2EA3
100
AcDbEntity
  8
0
100
AcDbLine
 10
874.497415
 20
656.459433
 30
0.0
 11
872.824383
 21
656.011145
 31
0.0
  0
LINE
  5
2EA4
100
AcDbEntity
  8
0
100
AcDbLine
 10
855.595001
 20
675.361847
 30
0.0
 11
855.146713
 21
673.688815
 31
0.0
  0
ARC
  5
2EA5
100
AcDbEntity
  8
0
100
AcDbCircle
 10
853.98122
 20
668.429839
 30
0.0
 40
3.54367
100
AcDbArc
 50
7.758785
 51
67.758785
  0
LINE
  5
2EA6
100
AcDbEntity
  8
0
100
AcDbLine
 10
855.85382
 20
671.567494
 30
0.0
 11
854.459626
 21
671.941067
 31
0.0
  0
LINE
  5
2EA7
100
AcDbEntity
  8
0
100
AcDbLine
 10
856.560927
 20
672.274601
 30
0.0
 11
855.85382
 21
671.567494
 31
0.0
  0
LINE
  5
2EA8
100
AcDbEntity
  8
0
100
AcDbLine
 10
809.700492
 20
721.830516
 30
0.0
 11
824.917297
 21
721.206876
 31
0.0
  0
LINE
  5
2EA9
100
AcDbEntity
  8
0
100
AcDbLine
 10
791.864289
 20
703.528721
 30
0.0
 11
791.864289
 21
753.528721
 31
0.0
  0
ARC
  5
2EAA
100
AcDbEntity
  8
0
100
AcDbCircle
 10
809.864289
 20
725.827161
 30
0.0
 40
4.0
100
AcDbArc
 50
180.0
 51
267.653126
  0
LINE
  5
2EAB
100
AcDbEntity
  8
0
100
AcDbLine
 10
791.864289
 20
753.528721
 30
0.0
 11
805.864289
 21
753.528721
 31
0.0
  0
ARC
  5
2EAC
100
AcDbEntity
  8
0
100
AcDbCircle
 10
853.364289
 20
740.028721
 30
0.0
 40
2.0
100
AcDbArc
 50
90.0
 51
180.0
  0
ARC
  5
2EAD
100
AcDbEntity
  8
0
100
AcDbCircle
 10
845.564289
 20
741.628721
 30
0.0
 40
2.0
100
AcDbArc
 50
90.0
 51
180.0
  0
ARC
  5
2EAE
100
AcDbEntity
  8
0
100
AcDbCircle
 10
845.564289
 20
740.028721
 30
0.0
 40
2.0
100
AcDbArc
 50
90.0
 51
180.0
  0
ARC
  5
2EAF
100
AcDbEntity
  8
0
100
AcDbCircle
 10
852.964289
 20
713.028721
 30
0.0
 40
2.0
100
AcDbArc
 50
180.0
 51
270.0
  0
ARC
  5
2EB0
100
AcDbEntity
  8
0
100
AcDbCircle
 10
853.364289
 20
735.028721
 30
0.0
 40
2.0
100
AcDbArc
 50
180.0
 51
270.0
  0
LINE
  5
2EB1
100
AcDbEntity
  8
0
100
AcDbLine
 10
846.364289
 20
703.528721
 30
0.0
 11
869.364289
 21
703.528721
 31
0.0
  0
LINE
  5
2EB2
100
AcDbEntity
  8
0
100
AcDbLine
 10
850.964289
 20
718.528721
 30
0.0
 11
850.964289
 21
713.028721
 31
0.0
  0
ARC
  5
2EB3
100
AcDbEntity
  8
0
100
AcDbCircle
 10
867.535441
 20
712.778721
 30
0.0
 40
26.687435
100
AcDbArc
 50
159.720195
 51
200.279805
  0
ARC
  5
2EB4
100
AcDbEntity
  8
0
100
AcDbCircle
 10
836.12226
 20
710.759967
 30
0.0
 40
9.36856
100
AcDbArc
 50
69.472115
 51
110.613478
  0
LINE
  5
2EB5
100
AcDbEntity
  8
0
100
AcDbLine
 10
827.823948
 20
719.528721
 30
0.0
 11
824.917297
 21
721.206876
 31
0.0
  0
LINE
  5
2EB6
100
AcDbEntity
  8
0
100
AcDbLine
 10
827.823948
 20
719.528721
 30
0.0
 11
832.823948
 21
719.528721
 31
0.0
  0
LINE
  5
2EB7
100
AcDbEntity
  8
0
100
AcDbLine
 10
849.858192
 20
733.028721
 30
0.0
 11
849.858192
 21
728.528721
 31
0.0
  0
LINE
  5
2EB8
100
AcDbEntity
  8
0
100
AcDbLine
 10
851.364289
 20
740.028721
 30
0.0
 11
851.364289
 21
735.028721
 31
0.0
  0
LINE
  5
2EB9
100
AcDbEntity
  8
0
100
AcDbLine
 10
843.564289
 20
728.528721
 30
0.0
 11
843.564289
 21
718.528721
 31
0.0
  0
LINE
  5
2EBA
100
AcDbEntity
  8
0
100
AcDbLine
 10
839.407469
 20
719.533638
 30
0.0
 11
840.848006
 21
722.028721
 31
0.0
  0
LINE
  5
2EBB
100
AcDbEntity
  8
0
100
AcDbLine
 10
843.564289
 20
722.028721
 30
0.0
 11
840.848006
 21
722.028721
 31
0.0
  0
ARC
  5
2EBC
100
AcDbEntity
  8
0
100
AcDbCircle
 10
845.564289
 20
735.028721
 30
0.0
 40
2.0
100
AcDbArc
 50
180.0
 51
270.0
  0
LINE
  5
2EBD
100
AcDbEntity
  8
0
100
AcDbLine
 10
843.564289
 20
741.628721
 30
0.0
 11
843.564289
 21
735.028721
 31
0.0
  0
LINE
  5
2EBE
100
AcDbEntity
  8
0
100
AcDbLine
 10
869.364289
 20
718.528721
 30
0.0
 11
869.364289
 21
703.528721
 31
0.0
  0
ARC
  5
2EBF
100
AcDbEntity
  8
0
100
AcDbCircle
 10
867.364289
 20
716.528721
 30
0.0
 40
2.0
100
AcDbArc
 50
7.180756
 51
90.0
  0
LINE
  5
2EC0
100
AcDbEntity
  8
0
100
AcDbLine
 10
879.364289
 20
703.528721
 30
0.0
 11
879.364289
 21
718.528721
 31
0.0
  0
ARC
  5
2EC1
100
AcDbEntity
  8
0
100
AcDbCircle
 10
881.364289
 20
716.528721
 30
0.0
 40
2.0
100
AcDbArc
 50
90.0
 51
172.819244
  0
LINE
  5
2EC2
100
AcDbEntity
  8
0
100
AcDbLine
 10
869.364289
 20
713.026143
 30
0.0
 11
879.364289
 21
713.026143
 31
0.0
  0
ARC
  5
2EC3
100
AcDbEntity
  8
0
100
AcDbCircle
 10
867.364289
 20
717.028721
 30
0.0
 40
2.0
100
AcDbArc
 50
270.0
 51
352.819244
  0
LINE
  5
2EC4
100
AcDbEntity
  8
0
100
AcDbLine
 10
867.364289
 20
715.028721
 30
0.0
 11
869.364289
 21
703.528721
 31
0.0
  0
LINE
  5
2EC5
100
AcDbEntity
  8
0
100
AcDbLine
 10
867.364289
 20
715.028721
 30
0.0
 11
857.564289
 21
715.028721
 31
0.0
  0
LINE
  5
2EC6
100
AcDbEntity
  8
0
100
AcDbLine
 10
857.564289
 20
715.028721
 30
0.0
 11
857.564289
 21
713.028721
 31
0.0
  0
LINE
  5
2EC7
100
AcDbEntity
  8
0
100
AcDbLine
 10
855.564289
 20
711.028721
 30
0.0
 11
852.964289
 21
711.028721
 31
0.0
  0
ARC
  5
2EC8
100
AcDbEntity
  8
0
100
AcDbCircle
 10
855.564289
 20
713.028721
 30
0.0
 40
2.0
100
AcDbArc
 50
270.0
 51
0.0
  0
LINE
  5
2EC9
100
AcDbEntity
  8
0
100
AcDbLine
 10
879.364289
 20
703.528721
 30
0.0
 11
881.364289
 21
715.028721
 31
0.0
  0
ARC
  5
2ECA
100
AcDbEntity
  8
0
100
AcDbCircle
 10
881.364289
 20
717.028721
 30
0.0
 40
2.0
100
AcDbArc
 50
187.180756
 51
270.0
  0
LINE
  5
2ECB
100
AcDbEntity
  8
0
100
AcDbLine
 10
857.858192
 20
728.528721
 30
0.0
 11
857.858192
 21
733.028721
 31
0.0
  0
ARC
  5
2ECC
100
AcDbEntity
  8
0
100
AcDbCircle
 10
853.858692
 20
735.023241
 30
0.0
 40
13.352467
100
AcDbArc
 50
73.680297
 51
106.319703
  0
LINE
  5
2ECD
100
AcDbEntity
  8
0
100
AcDbLine
 10
847.549692
 20
748.528721
 30
0.0
 11
860.167692
 21
748.528721
 31
0.0
  0
LINE
  5
2ECE
100
AcDbEntity
  8
0
100
AcDbLine
 10
850.106692
 20
747.837721
 30
0.0
 11
850.106692
 21
742.028721
 31
0.0
  0
LINE
  5
2ECF
100
AcDbEntity
  8
0
100
AcDbLine
 10
846.352692
 20
742.028721
 30
0.0
 11
846.352692
 21
747.837721
 31
0.0
  0
LINE
  5
2ED0
100
AcDbEntity
  8
0
100
AcDbLine
 10
846.352692
 20
747.837721
 30
0.0
 11
847.549692
 21
748.528721
 31
0.0
  0
LINE
  5
2ED1
100
AcDbEntity
  8
0
100
AcDbLine
 10
846.352692
 20
743.628721
 30
0.0
 11
845.564289
 21
743.628721
 31
0.0
  0
ARC
  5
2ED2
100
AcDbEntity
  8
0
100
AcDbCircle
 10
848.230192
 20
744.834762
 30
0.0
 40
3.541047
100
AcDbArc
 50
57.999406
 51
122.000594
  0
LINE
  5
2ED3
100
AcDbEntity
  8
0
100
AcDbLine
 10
857.610692
 20
747.837721
 30
0.0
 11
857.610692
 21
742.028721
 31
0.0
  0
LINE
  5
2ED4
100
AcDbEntity
  8
0
100
AcDbLine
 10
861.363692
 20
747.837721
 30
0.0
 11
861.363692
 21
742.028721
 31
0.0
  0
ARC
  5
2ED5
100
AcDbEntity
  8
0
100
AcDbCircle
 10
859.487192
 20
744.834762
 30
0.0
 40
3.541047
100
AcDbArc
 50
57.999406
 51
122.000594
  0
LINE
  5
2ED6
100
AcDbEntity
  8
0
100
AcDbLine
 10
860.167692
 20
748.528721
 30
0.0
 11
861.363692
 21
747.837721
 31
0.0
  0
ARC
  5
2ED7
100
AcDbEntity
  8
0
100
AcDbCircle
 10
857.868107
 20
727.354336
 30
0.0
 40
17.881484
100
AcDbArc
 50
66.39246
 51
78.726867
  0
LINE
  5
2ED8
100
AcDbEntity
  8
0
100
AcDbLine
 10
1540.45011
 20
588.04475
 30
0.0
 11
1540.45011
 21
463.04475
 31
0.0
  0
LINE
  5
2ED9
100
AcDbEntity
  8
0
100
AcDbLine
 10
1554.45011
 20
463.04475
 30
0.0
 11
1554.45011
 21
525.54475
 31
0.0
  0
LINE
  5
2EDA
100
AcDbEntity
  8
0
100
AcDbLine
 10
1358.45011
 20
588.04475
 30
0.0
 11
1358.45011
 21
463.04475
 31
0.0
  0
LINE
  5
2EDB
100
AcDbEntity
  8
0
100
AcDbLine
 10
1344.45011
 20
463.04475
 30
0.0
 11
1344.45011
 21
525.54475
 31
0.0
  0
LINE
  5
2EDC
100
AcDbEntity
  8
0
100
AcDbLine
 10
942.864289
 20
579.304267
 30
0.0
 11
942.864289
 21
479.304267
 31
0.0
  0
LINE
  5
2EDD
100
AcDbEntity
  8
0
100
AcDbLine
 10
956.864289
 20
479.304267
 30
0.0
 11
956.864289
 21
529.304267
 31
0.0
  0
LINE
  5
2EDE
100
AcDbEntity
  8
0
100
AcDbLine
 10
1477.45011
 20
354.092621
 30
0.0
 11
1454.45011
 21
354.092621
 31
0.0
  0
LINE
  5
2EDF
100
AcDbEntity
  8
0
100
AcDbLine
 10
1456.45011
 20
365.592621
 30
0.0
 11
1466.25011
 21
365.592621
 31
0.0
  0
ARC
  5
2EE0
100
AcDbEntity
  8
0
100
AcDbCircle
 10
1465.946291
 20
377.918236
 30
0.0
 40
17.881484
100
AcDbArc
 50
101.273133
 51
113.60754
  0
LINE
  5
2EE1
100
AcDbEntity
  8
0
100
AcDbLine
 10
1418.65011
 20
369.092621
 30
0.0
 11
1480.25011
 21
369.092621
 31
0.0
  0
LINE
  5
2EE2
100
AcDbEntity
  8
0
100
AcDbLine
 10
1418.65011
 20
379.092621
 30
0.0
 11
1480.25011
 21
379.092621
 31
0.0
  0
LINE
  5
2EE3
100
AcDbEntity
  8
0
100
AcDbLine
 10
1420.65011
 20
392.592621
 30
0.0
 11
1478.25011
 21
392.592621
 31
0.0
  0
LINE
  5
2EE4
100
AcDbEntity
  8
0
100
AcDbLine
 10
1420.65011
 20
383.592621
 30
0.0
 11
1478.25011
 21
383.592621
 31
0.0
  0
ARC
  5
2EE5
100
AcDbEntity
  8
0
100
AcDbCircle
 10
1449.45011
 20
365.792621
 30
0.0
 40
30.0
100
AcDbArc
 50
64.319447
 51
115.680553
  0
LINE
  5
2EE6
100
AcDbEntity
  8
0
100
AcDbLine
 10
1436.449513
 20
398.092621
 30
0.0
 11
1462.450706
 21
398.092621
 31
0.0
  0
ARC
  5
2EE7
100
AcDbEntity
  8
0
100
AcDbCircle
 10
1469.149996
 20
306.092734
 30
0.0
 40
12.182091
100
AcDbArc
 50
115.179294
 51
154.820706
  0
LINE
  5
2EE8
100
AcDbEntity
  8
0
100
AcDbLine
 10
1457.353977
 20
303.039511
 30
0.0
 11
1472.203219
 21
317.888753
 31
0.0
  0
LINE
  5
2EE9
100
AcDbEntity
  8
0
100
AcDbLine
 10
1458.992606
 20
305.698761
 30
0.0
 11
1461.347457
 21
308.053612
 31
0.0
  0
LINE
  5
2EEA
100
AcDbEntity
  8
0
100
AcDbLine
 10
1458.125437
 20
311.275632
 30
0.0
 11
1461.347457
 21
308.053612
 31
0.0
  0
LINE
  5
2EEB
100
AcDbEntity
  8
0
100
AcDbLine
 10
1421.45011
 20
334.592621
 30
0.0
 11
1477.45011
 21
334.592621
 31
0.0
  0
LINE
  5
2EEC
100
AcDbEntity
  8
0
100
AcDbLine
 10
1449.316983
 20
307.023333
 30
0.0
 11
1476.886271
 21
334.592621
 31
0.0
  0
LINE
  5
2EED
100
AcDbEntity
  8
0
100
AcDbLine
 10
1450.990016
 20
306.575045
 30
0.0
 11
1468.667685
 21
324.252714
 31
0.0
  0
LINE
  5
2EEE
100
AcDbEntity
  8
0
100
AcDbLine
 10
1453.111336
 20
307.282152
 30
0.0
 11
1467.960579
 21
322.131394
 31
0.0
  0
TEXT
  5
2EEF
100
AcDbEntity
  8
0
100
AcDbText
 10
1450.88379
 20
249.797249
 30
0.0
 40
20.0
  1
25A
 41
0.8
 11
1450.88379
 21
249.797249
 31
0.0
100
AcDbText
 73
     1
  0
CIRCLE
  5
2EF0
100
AcDbEntity
  8
0
100
AcDbCircle
 10
1228.440588
 20
354.092621
 30
0.0
 40
62.5
  0
CIRCLE
  5
2EF1
100
AcDbEntity
  8
0
100
AcDbCircle
 10
1024.416894
 20
354.092621
 30
0.0
 40
50.0
  0
LINE
  5
2EF2
100
AcDbEntity
  8
0
100
AcDbLine
 10
997.410797
 20
398.401621
 30
0.0
 11
997.410797
 21
396.171959
 31
0.0
  0
LINE
  5
2EF3
100
AcDbEntity
  8
0
100
AcDbLine
 10
956.864289
 20
354.092621
 30
0.0
 11
956.864289
 21
404.092621
 31
0.0
  0
LINE
  5
2EF4
100
AcDbEntity
  8
0
100
AcDbLine
 10
891.117885
 20
398.401621
 30
0.0
 11
891.117885
 21
392.592621
 31
0.0
  0
LINE
  5
2EF5
100
AcDbEntity
  8
0
100
AcDbLine
 10
887.364885
 20
398.401621
 30
0.0
 11
887.364885
 21
392.592621
 31
0.0
  0
LINE
  5
2EF6
100
AcDbEntity
  8
0
100
AcDbLine
 10
902.375885
 20
392.592621
 30
0.0
 11
902.375885
 21
398.401621
 31
0.0
  0
LINE
  5
2EF7
100
AcDbEntity
  8
0
100
AcDbLine
 10
898.621885
 20
398.401621
 30
0.0
 11
898.621885
 21
392.592621
 31
0.0
  0
LINE
  5
2EF8
100
AcDbEntity
  8
0
100
AcDbLine
 10
942.864289
 20
404.092621
 30
0.0
 11
942.864289
 21
304.092621
 31
0.0
  0
LINE
  5
2EF9
100
AcDbEntity
  8
0
100
AcDbLine
 10
942.864289
 20
304.092621
 30
0.0
 11
956.864289
 21
304.092621
 31
0.0
  0
LINE
  5
2EFA
100
AcDbEntity
  8
0
100
AcDbLine
 10
909.321108
 20
370.097538
 30
0.0
 11
909.321108
 21
338.087703
 31
0.0
  0
LINE
  5
2EFB
100
AcDbEntity
  8
0
100
AcDbLine
 10
915.90463
 20
338.092621
 30
0.0
 11
915.90463
 21
370.092621
 31
0.0
  0
LINE
  5
2EFC
100
AcDbEntity
  8
0
100
AcDbLine
 10
903.364289
 20
335.592621
 30
0.0
 11
903.364289
 21
369.092621
 31
0.0
  0
ARC
  5
2EFD
100
AcDbEntity
  8
0
100
AcDbCircle
 10
881.193137
 20
344.842621
 30
0.0
 40
26.687435
100
AcDbArc
 50
339.720195
 51
20.279805
  0
LINE
  5
2EFE
100
AcDbEntity
  8
0
100
AcDbLine
 10
920.90463
 20
338.092621
 30
0.0
 11
920.90463
 21
370.092621
 31
0.0
  0
LINE
  5
2EFF
100
AcDbEntity
  8
0
100
AcDbLine
 10
923.81128
 20
371.770776
 30
0.0
 11
923.81128
 21
336.414465
 31
0.0
  0
LINE
  5
2F00
100
AcDbEntity
  8
0
100
AcDbLine
 10
902.364289
 20
334.592621
 30
0.0
 11
902.364289
 21
369.092621
 31
0.0
  0
LINE
  5
2F01
100
AcDbEntity
  8
0
100
AcDbLine
 10
920.90463
 20
338.092621
 30
0.0
 11
923.81128
 21
336.414465
 31
0.0
  0
LINE
  5
2F02
100
AcDbEntity
  8
0
100
AcDbLine
 10
894.268951
 20
322.504967
 30
0.0
 11
897.490971
 21
319.282947
 31
0.0
  0
ARC
  5
2F03
100
AcDbEntity
  8
0
100
AcDbCircle
 10
893.979743
 20
319.761353
 30
0.0
 40
3.54367
100
AcDbArc
 50
277.758785
 51
337.758785
  0
ARC
  5
2F04
100
AcDbEntity
  8
0
100
AcDbCircle
 10
894.747357
 20
318.993738
 30
0.0
 40
3.54367
100
AcDbArc
 50
112.241215
 51
172.241215
  0
LINE
  5
2F05
100
AcDbEntity
  8
0
100
AcDbLine
 10
888.881277
 20
317.117293
 30
0.0
 11
892.103297
 21
313.895273
 31
0.0
  0
LINE
  5
2F06
100
AcDbEntity
  8
0
100
AcDbLine
 10
891.236128
 20
319.472144
 30
0.0
 11
894.458148
 21
316.250124
 31
0.0
  0
LINE
  5
2F07
100
AcDbEntity
  8
0
100
AcDbLine
 10
888.881277
 20
317.117293
 30
0.0
 11
891.236128
 21
319.472144
 31
0.0
  0
LINE
  5
2F08
100
AcDbEntity
  8
0
100
AcDbLine
 10
892.874758
 20
322.131394
 30
0.0
 11
894.268951
 21
322.504967
 31
0.0
  0
LINE
  5
2F09
100
AcDbEntity
  8
0
100
AcDbLine
 10
892.167651
 20
322.838501
 30
0.0
 11
892.874758
 21
322.131394
 31
0.0
  0
LINE
  5
2F0A
100
AcDbEntity
  8
0
100
AcDbLine
 10
892.103297
 20
313.895273
 30
0.0
 11
894.458148
 21
316.250124
 31
0.0
  0
LINE
  5
2F0B
100
AcDbEntity
  8
0
100
AcDbLine
 10
897.117398
 20
317.888753
 30
0.0
 11
897.490971
 21
319.282947
 31
0.0
  0
LINE
  5
2F0C
100
AcDbEntity
  8
0
100
AcDbLine
 10
903.364289
 20
335.592621
 30
0.0
 11
907.880572
 21
335.592621
 31
0.0
  0
LINE
  5
2F0D
100
AcDbEntity
  8
0
100
AcDbLine
 10
893.133577
 20
325.925747
 30
0.0
 11
893.581864
 21
324.252714
 31
0.0
  0
LINE
  5
2F0E
100
AcDbEntity
  8
0
100
AcDbLine
 10
902.364289
 20
334.592621
 30
0.0
 11
903.364289
 21
335.592621
 31
0.0
  0
LINE
  5
2F0F
100
AcDbEntity
  8
0
100
AcDbLine
 10
920.90463
 20
338.092621
 30
0.0
 11
915.90463
 21
338.092621
 31
0.0
  0
LINE
  5
2F10
100
AcDbEntity
  8
0
100
AcDbLine
 10
909.321108
 20
338.087703
 30
0.0
 11
907.880572
 21
335.592621
 31
0.0
  0
ARC
  5
2F11
100
AcDbEntity
  8
0
100
AcDbCircle
 10
912.606318
 20
346.861375
 30
0.0
 40
9.36856
100
AcDbArc
 50
249.472115
 51
290.613478
  0
ARC
  5
2F12
100
AcDbEntity
  8
0
100
AcDbCircle
 10
938.864289
 20
331.794181
 30
0.0
 40
4.0
100
AcDbArc
 50
0.0
 51
87.653126
  0
LINE
  5
2F13
100
AcDbEntity
  8
0
100
AcDbLine
 10
939.028086
 20
335.790826
 30
0.0
 11
923.81128
 21
336.414465
 31
0.0
  0
LINE
  5
2F14
100
AcDbEntity
  8
0
100
AcDbLine
 10
920.90463
 20
370.092621
 30
0.0
 11
923.81128
 21
371.770776
 31
0.0
  0
LINE
  5
2F15
100
AcDbEntity
  8
0
100
AcDbLine
 10
905.164289
 20
379.092621
 30
0.0
 11
905.164289
 21
369.092621
 31
0.0
  0
ARC
  5
2F16
100
AcDbEntity
  8
0
100
AcDbCircle
 10
895.764289
 20
363.592621
 30
0.0
 40
2.0
100
AcDbArc
 50
270.0
 51
0.0
  0
LINE
  5
2F17
100
AcDbEntity
  8
0
100
AcDbLine
 10
891.164289
 20
365.592621
 30
0.0
 11
891.164289
 21
363.592621
 31
0.0
  0
LINE
  5
2F18
100
AcDbEntity
  8
0
100
AcDbLine
 10
893.164289
 20
361.592621
 30
0.0
 11
895.764289
 21
361.592621
 31
0.0
  0
ARC
  5
2F19
100
AcDbEntity
  8
0
100
AcDbCircle
 10
893.164289
 20
363.592621
 30
0.0
 40
2.0
100
AcDbArc
 50
180.0
 51
270.0
  0
LINE
  5
2F1A
100
AcDbEntity
  8
0
100
AcDbLine
 10
897.764289
 20
369.092621
 30
0.0
 11
897.764289
 21
363.592621
 31
0.0
  0
LINE
  5
2F1B
100
AcDbEntity
  8
0
100
AcDbLine
 10
920.90463
 20
370.092621
 30
0.0
 11
915.90463
 21
370.092621
 31
0.0
  0
ARC
  5
2F1C
100
AcDbEntity
  8
0
100
AcDbCircle
 10
881.193137
 20
363.342621
 30
0.0
 40
26.687435
100
AcDbArc
 50
339.720195
 51
20.279805
  0
LINE
  5
2F1D
100
AcDbEntity
  8
0
100
AcDbLine
 10
905.164289
 20
372.592621
 30
0.0
 11
907.880572
 21
372.592621
 31
0.0
  0
LINE
  5
2F1E
100
AcDbEntity
  8
0
100
AcDbLine
 10
909.321108
 20
370.097538
 30
0.0
 11
907.880572
 21
372.592621
 31
0.0
  0
ARC
  5
2F1F
100
AcDbEntity
  8
0
100
AcDbCircle
 10
912.606318
 20
361.323866
 30
0.0
 40
9.36856
100
AcDbArc
 50
69.386522
 51
110.527885
  0
ARC
  5
2F20
100
AcDbEntity
  8
0
100
AcDbCircle
 10
903.164289
 20
390.592621
 30
0.0
 40
2.0
100
AcDbArc
 50
360.0
 51
90.0
  0
ARC
  5
2F21
100
AcDbEntity
  8
0
100
AcDbCircle
 10
903.164289
 20
392.192621
 30
0.0
 40
2.0
100
AcDbArc
 50
0.0
 51
90.0
  0
ARC
  5
2F22
100
AcDbEntity
  8
0
100
AcDbCircle
 10
903.164289
 20
385.592621
 30
0.0
 40
2.0
100
AcDbArc
 50
270.0
 51
0.0
  0
ARC
  5
2F23
100
AcDbEntity
  8
0
100
AcDbCircle
 10
895.364289
 20
390.592621
 30
0.0
 40
2.0
100
AcDbArc
 50
0.0
 51
90.0
  0
ARC
  5
2F24
100
AcDbEntity
  8
0
100
AcDbCircle
 10
895.364289
 20
385.592621
 30
0.0
 40
2.0
100
AcDbArc
 50
270.0
 51
0.0
  0
LINE
  5
2F25
100
AcDbEntity
  8
0
100
AcDbLine
 10
890.870385
 20
379.092621
 30
0.0
 11
890.870385
 21
383.592621
 31
0.0
  0
LINE
  5
2F26
100
AcDbEntity
  8
0
100
AcDbLine
 10
898.870385
 20
383.592621
 30
0.0
 11
898.870385
 21
379.092621
 31
0.0
  0
LINE
  5
2F27
100
AcDbEntity
  8
0
100
AcDbLine
 10
897.364289
 20
390.592621
 30
0.0
 11
897.364289
 21
385.592621
 31
0.0
  0
LINE
  5
2F28
100
AcDbEntity
  8
0
100
AcDbLine
 10
902.375885
 20
394.192621
 30
0.0
 11
903.164289
 21
394.192621
 31
0.0
  0
LINE
  5
2F29
100
AcDbEntity
  8
0
100
AcDbLine
 10
905.164289
 20
392.192621
 30
0.0
 11
905.164289
 21
385.592621
 31
0.0
  0
ARC
  5
2F2A
100
AcDbEntity
  8
0
100
AcDbCircle
 10
938.864289
 20
376.39106
 30
0.0
 40
4.0
100
AcDbArc
 50
272.346874
 51
0.0
  0
LINE
  5
2F2B
100
AcDbEntity
  8
0
100
AcDbLine
 10
939.028086
 20
372.394415
 30
0.0
 11
923.81128
 21
371.770776
 31
0.0
  0
LINE
  5
2F2C
100
AcDbEntity
  8
0
100
AcDbLine
 10
956.864289
 20
304.092621
 30
0.0
 11
956.864289
 21
354.092621
 31
0.0
  0
CIRCLE
  5
2F2D
100
AcDbEntity
  8
0
100
AcDbCircle
 10
997.900389
 20
327.576116
 30
0.0
 40
7.5
  0
CIRCLE
  5
2F2E
100
AcDbEntity
  8
0
100
AcDbCircle
 10
997.900389
 20
380.609125
 30
0.0
 40
7.5
  0
LINE
  5
2F2F
100
AcDbEntity
  8
0
100
AcDbLine
 10
942.864289
 20
479.304267
 30
0.0
 11
956.864289
 21
479.304267
 31
0.0
  0
LINE
  5
2F30
100
AcDbEntity
  8
0
100
AcDbLine
 10
956.864289
 20
404.092621
 30
0.0
 11
942.864289
 21
404.092621
 31
0.0
  0
ARC
  5
2F31
100
AcDbEntity
  8
0
100
AcDbCircle
 10
894.869885
 20
385.587141
 30
0.0
 40
13.352467
100
AcDbArc
 50
73.680297
 51
106.319703
  0
LINE
  5
2F32
100
AcDbEntity
  8
0
100
AcDbLine
 10
901.178885
 20
399.092621
 30
0.0
 11
888.560885
 21
399.092621
 31
0.0
  0
LINE
  5
2F33
100
AcDbEntity
  8
0
100
AcDbLine
 10
888.560885
 20
399.092621
 30
0.0
 11
887.364885
 21
398.401621
 31
0.0
  0
ARC
  5
2F34
100
AcDbEntity
  8
0
100
AcDbCircle
 10
889.241385
 20
395.398662
 30
0.0
 40
3.541047
100
AcDbArc
 50
57.999406
 51
122.000594
  0
LINE
  5
2F35
100
AcDbEntity
  8
0
100
AcDbLine
 10
902.375885
 20
398.401621
 30
0.0
 11
901.178885
 21
399.092621
 31
0.0
  0
ARC
  5
2F36
100
AcDbEntity
  8
0
100
AcDbCircle
 10
900.498385
 20
395.398662
 30
0.0
 40
3.541047
100
AcDbArc
 50
57.999406
 51
122.000594
  0
LINE
  5
2F37
100
AcDbEntity
  8
0
100
AcDbLine
 10
998.606797
 20
399.092621
 30
0.0
 11
997.410797
 21
398.401621
 31
0.0
  0
ARC
  5
2F38
100
AcDbEntity
  8
0
100
AcDbCircle
 10
1000.660297
 20
391.106563
 30
0.0
 40
7.986057
100
AcDbArc
 50
78.282939
 51
114.010036
  0
LINE
  5
2F39
100
AcDbEntity
  8
0
100
AcDbLine
 10
1002.622399
 20
399.092621
 30
0.0
 11
998.606797
 21
399.092621
 31
0.0
  0
LINE
  5
2F3A
100
AcDbEntity
  8
0
100
AcDbLine
 10
1051.42299
 20
396.171959
 30
0.0
 11
1051.42299
 21
398.401621
 31
0.0
  0
CIRCLE
  5
2F3B
100
AcDbEntity
  8
0
100
AcDbCircle
 10
1050.933398
 20
327.576116
 30
0.0
 40
7.5
  0
LINE
  5
2F3C
100
AcDbEntity
  8
0
100
AcDbLine
 10
1026.065297
 20
302.665938
 30
0.0
 11
1022.768491
 21
302.665938
 31
0.0
  0
ELLIPSE
  5
2F3D
100
AcDbEntity
  8
0
100
AcDbEllipse
 10
1024.416894
 20
310.763806
 30
0.0
 11
-10.49290910814761
 21
0.0
 31
0.0
210
0.0
220
0.0
230
1.0
 40
0.706971
 41
1.036700699045886
 42
2.104891954543906
  0
LINE
  5
2F3E
100
AcDbEntity
  8
0
100
AcDbLine
 10
1018.140153
 20
304.48816
 30
0.0
 11
1022.768491
 21
302.665938
 31
0.0
  0
LINE
  5
2F3F
100
AcDbEntity
  8
0
100
AcDbLine
 10
1026.065297
 20
302.665938
 30
0.0
 11
1030.693634
 21
304.48816
 31
0.0
  0
CIRCLE
  5
2F40
100
AcDbEntity
  8
0
100
AcDbCircle
 10
1050.933398
 20
380.609125
 30
0.0
 40
7.5
  0
LINE
  5
2F41
100
AcDbEntity
  8
0
100
AcDbLine
 10
1051.42299
 20
398.401621
 30
0.0
 11
1050.22599
 21
399.092621
 31
0.0
  0
ARC
  5
2F42
100
AcDbEntity
  8
0
100
AcDbCircle
 10
1048.17249
 20
391.10186
 30
0.0
 40
7.990761
100
AcDbArc
 50
65.997136
 51
101.705955
  0
LINE
  5
2F43
100
AcDbEntity
  8
0
100
AcDbLine
 10
1050.22599
 20
399.092621
 30
0.0
 11
1046.211388
 21
399.092621
 31
0.0
  0
LINE
  5
2F44
100
AcDbEntity
  8
0
100
AcDbLine
 10
1358.45011
 20
416.592621
 30
0.0
 11
1358.45011
 21
291.592621
 31
0.0
  0
LINE
  5
2F45
100
AcDbEntity
  8
0
100
AcDbLine
 10
1344.45011
 20
291.592621
 30
0.0
 11
1344.45011
 21
354.092621
 31
0.0
  0
LINE
  5
2F46
100
AcDbEntity
  8
0
100
AcDbLine
 10
1358.45011
 20
291.592621
 30
0.0
 11
1344.45011
 21
291.592621
 31
0.0
  0
LINE
  5
2F47
100
AcDbEntity
  8
0
100
AcDbLine
 10
1320.218901
 20
348.463752
 30
0.0
 11
1329.535026
 21
348.463752
 31
0.0
  0
LINE
  5
2F48
100
AcDbEntity
  8
0
100
AcDbLine
 10
1335.974526
 20
345.312627
 30
0.0
 11
1304.462151
 21
345.312627
 31
0.0
  0
CIRCLE
  5
2F49
100
AcDbEntity
  8
0
100
AcDbCircle
 10
1260.260393
 20
385.912426
 30
0.0
 40
9.5
  0
CIRCLE
  5
2F4A
100
AcDbEntity
  8
0
100
AcDbCircle
 10
1260.260393
 20
322.272815
 30
0.0
 40
9.5
  0
CIRCLE
  5
2F4B
100
AcDbEntity
  8
0
100
AcDbCircle
 10
1196.620783
 20
322.272815
 30
0.0
 40
9.5
  0
CIRCLE
  5
2F4C
100
AcDbEntity
  8
0
100
AcDbCircle
 10
1196.620783
 20
385.912426
 30
0.0
 40
9.5
  0
LINE
  5
2F4D
100
AcDbEntity
  8
0
100
AcDbLine
 10
1304.462151
 20
345.312627
 30
0.0
 11
1298.159901
 21
351.614877
 31
0.0
  0
LINE
  5
2F4E
100
AcDbEntity
  8
0
100
AcDbLine
 10
1298.159901
 20
351.614877
 30
0.0
 11
1317.066651
 21
351.614877
 31
0.0
  0
LINE
  5
2F4F
100
AcDbEntity
  8
0
100
AcDbLine
 10
1317.066651
 20
351.614877
 30
0.0
 11
1320.218901
 21
348.463752
 31
0.0
  0
LINE
  5
2F50
100
AcDbEntity
  8
0
100
AcDbLine
 10
1425.191513
 20
398.401621
 30
0.0
 11
1425.191513
 21
392.592621
 31
0.0
  0
LINE
  5
2F51
100
AcDbEntity
  8
0
100
AcDbLine
 10
1421.438513
 20
398.401621
 30
0.0
 11
1421.438513
 21
392.592621
 31
0.0
  0
LINE
  5
2F52
100
AcDbEntity
  8
0
100
AcDbLine
 10
1432.695513
 20
398.401621
 30
0.0
 11
1432.695513
 21
392.592621
 31
0.0
  0
LINE
  5
2F53
100
AcDbEntity
  8
0
100
AcDbLine
 10
1436.449513
 20
392.592621
 30
0.0
 11
1436.449513
 21
398.401621
 31
0.0
  0
LINE
  5
2F54
100
AcDbEntity
  8
0
100
AcDbLine
 10
1344.45011
 20
354.092621
 30
0.0
 11
1344.45011
 21
416.592621
 31
0.0
  0
LINE
  5
2F55
100
AcDbEntity
  8
0
100
AcDbLine
 10
1361.977258
 20
330.405376
 30
0.0
 11
1401.164994
 21
335.070583
 31
0.0
  0
LINE
  5
2F56
100
AcDbEntity
  8
0
100
AcDbLine
 10
1361.977258
 20
377.779865
 30
0.0
 11
1401.164994
 21
373.114658
 31
0.0
  0
LINE
  5
2F57
100
AcDbEntity
  8
0
100
AcDbLine
 10
1329.535026
 20
351.614877
 30
0.0
 11
1335.974526
 21
345.312627
 31
0.0
  0
ARC
  5
2F58
100
AcDbEntity
  8
0
100
AcDbCircle
 10
1362.45011
 20
326.433423
 30
0.0
 40
4.0
100
AcDbArc
 50
96.788975
 51
180.0
  0
LINE
  5
2F59
100
AcDbEntity
  8
0
100
AcDbLine
 10
1329.535026
 20
348.463752
 30
0.0
 11
1329.535026
 21
351.614877
 31
0.0
  0
ARC
  5
2F5A
100
AcDbEntity
  8
0
100
AcDbCircle
 10
1362.45011
 20
381.751818
 30
0.0
 40
4.0
100
AcDbArc
 50
180.0
 51
263.211025
  0
LINE
  5
2F5B
100
AcDbEntity
  8
0
100
AcDbLine
 10
1401.164994
 20
373.114658
 30
0.0
 11
1401.164994
 21
335.070583
 31
0.0
  0
LINE
  5
2F5C
100
AcDbEntity
  8
0
100
AcDbLine
 10
1402.909768
 20
370.092621
 30
0.0
 11
1402.909768
 21
338.092621
 31
0.0
  0
LINE
  5
2F5D
100
AcDbEntity
  8
0
100
AcDbLine
 10
1414.631141
 20
370.336304
 30
0.0
 11
1414.631141
 21
337.848937
 31
0.0
  0
LINE
  5
2F5E
100
AcDbEntity
  8
0
100
AcDbLine
 10
1407.909768
 20
370.092621
 30
0.0
 11
1407.909768
 21
338.092621
 31
0.0
  0
LINE
  5
2F5F
100
AcDbEntity
  8
0
100
AcDbLine
 10
1420.45011
 20
335.592621
 30
0.0
 11
1420.45011
 21
369.092621
 31
0.0
  0
ARC
  5
2F60
100
AcDbEntity
  8
0
100
AcDbCircle
 10
1442.621262
 20
344.842621
 30
0.0
 40
26.687435
100
AcDbArc
 50
159.720195
 51
200.279805
  0
LINE
  5
2F61
100
AcDbEntity
  8
0
100
AcDbLine
 10
1421.45011
 20
334.592621
 30
0.0
 11
1421.45011
 21
369.092621
 31
0.0
  0
LINE
  5
2F62
100
AcDbEntity
  8
0
100
AcDbLine
 10
1421.747695
 20
334.592621
 30
0.0
 11
1449.316983
 21
307.023333
 31
0.0
  0
LINE
  5
2F63
100
AcDbEntity
  8
0
100
AcDbLine
 10
1407.909768
 20
338.092621
 30
0.0
 11
1402.909768
 21
338.092621
 31
0.0
  0
LINE
  5
2F64
100
AcDbEntity
  8
0
100
AcDbLine
 10
1402.909768
 20
338.092621
 30
0.0
 11
1401.164994
 21
335.070583
 31
0.0
  0
ARC
  5
2F65
100
AcDbEntity
  8
0
100
AcDbCircle
 10
1411.621167
 20
347.644264
 30
0.0
 40
10.24736
100
AcDbArc
 50
248.765804
 51
287.081501
  0
LINE
  5
2F66
100
AcDbEntity
  8
0
100
AcDbLine
 10
1415.933826
 20
335.592621
 30
0.0
 11
1420.45011
 21
335.592621
 31
0.0
  0
LINE
  5
2F67
100
AcDbEntity
  8
0
100
AcDbLine
 10
1414.631141
 20
337.848937
 30
0.0
 11
1415.933826
 21
335.592621
 31
0.0
  0
LINE
  5
2F68
100
AcDbEntity
  8
0
100
AcDbLine
 10
1420.45011
 20
335.592621
 30
0.0
 11
1421.45011
 21
334.592621
 31
0.0
  0
ARC
  5
2F69
100
AcDbEntity
  8
0
100
AcDbCircle
 10
1455.481377
 20
306.177166
 30
0.0
 40
3.54367
100
AcDbArc
 50
292.241215
 51
352.241215
  0
LINE
  5
2F6A
100
AcDbEntity
  8
0
100
AcDbLine
 10
1457.353977
 20
303.039511
 30
0.0
 11
1455.959783
 21
302.665938
 31
0.0
  0
LINE
  5
2F6B
100
AcDbEntity
  8
0
100
AcDbLine
 10
1455.770586
 20
308.920781
 30
0.0
 11
1458.992606
 21
305.698761
 31
0.0
  0
LINE
  5
2F6C
100
AcDbEntity
  8
0
100
AcDbLine
 10
1455.770586
 20
308.920781
 30
0.0
 11
1458.125437
 21
311.275632
 31
0.0
  0
LINE
  5
2F6D
100
AcDbEntity
  8
0
100
AcDbLine
 10
1453.111336
 20
307.282152
 30
0.0
 11
1452.737763
 21
305.887958
 31
0.0
  0
LINE
  5
2F6E
100
AcDbEntity
  8
0
100
AcDbLine
 10
1452.404229
 20
307.989258
 30
0.0
 11
1453.111336
 21
307.282152
 31
0.0
  0
LINE
  5
2F6F
100
AcDbEntity
  8
0
100
AcDbLine
 10
1449.316983
 20
307.023333
 30
0.0
 11
1450.990016
 21
306.575045
 31
0.0
  0
LINE
  5
2F70
100
AcDbEntity
  8
0
100
AcDbLine
 10
1452.737763
 20
305.887958
 30
0.0
 11
1455.959783
 21
302.665938
 31
0.0
  0
ARC
  5
2F71
100
AcDbEntity
  8
0
100
AcDbCircle
 10
1456.248992
 20
305.409552
 30
0.0
 40
3.54367
100
AcDbArc
 50
97.758785
 51
157.758785
  0
LINE
  5
2F72
100
AcDbEntity
  8
0
100
AcDbLine
 10
1444.45011
 20
354.092621
 30
0.0
 11
1421.45011
 21
354.092621
 31
0.0
  0
LINE
  5
2F73
100
AcDbEntity
  8
0
100
AcDbLine
 10
1402.909768
 20
370.092621
 30
0.0
 11
1401.164994
 21
373.114658
 31
0.0
  0
LINE
  5
2F74
100
AcDbEntity
  8
0
100
AcDbLine
 10
1418.65011
 20
379.092621
 30
0.0
 11
1418.65011
 21
369.092621
 31
0.0
  0
LINE
  5
2F75
100
AcDbEntity
  8
0
100
AcDbLine
 10
1407.909768
 20
370.092621
 30
0.0
 11
1402.909768
 21
370.092621
 31
0.0
  0
ARC
  5
2F76
100
AcDbEntity
  8
0
100
AcDbCircle
 10
1442.621262
 20
363.342621
 30
0.0
 40
26.687435
100
AcDbArc
 50
159.720195
 51
200.279805
  0
LINE
  5
2F77
100
AcDbEntity
  8
0
100
AcDbLine
 10
1417.58815
 20
354.092621
 30
0.0
 11
1420.45011
 21
354.092621
 31
0.0
  0
LINE
  5
2F78
100
AcDbEntity
  8
0
100
AcDbLine
 10
1414.631141
 20
370.336304
 30
0.0
 11
1415.933826
 21
372.592621
 31
0.0
  0
ARC
  5
2F79
100
AcDbEntity
  8
0
100
AcDbCircle
 10
1411.621167
 20
360.540977
 30
0.0
 40
10.24736
100
AcDbArc
 50
72.918499
 51
111.234196
  0
LINE
  5
2F7A
100
AcDbEntity
  8
0
100
AcDbLine
 10
1415.933826
 20
372.592621
 30
0.0
 11
1418.65011
 21
372.592621
 31
0.0
  0
LINE
  5
2F7B
100
AcDbEntity
  8
0
100
AcDbLine
 10
1418.65011
 20
392.192621
 30
0.0
 11
1418.65011
 21
385.592621
 31
0.0
  0
LINE
  5
2F7C
100
AcDbEntity
  8
0
100
AcDbLine
 10
1424.944013
 20
379.092621
 30
0.0
 11
1424.944013
 21
383.592621
 31
0.0
  0
ARC
  5
2F7D
100
AcDbEntity
  8
0
100
AcDbCircle
 10
1420.65011
 20
385.592621
 30
0.0
 40
2.0
100
AcDbArc
 50
180.0
 51
270.0
  0
ARC
  5
2F7E
100
AcDbEntity
  8
0
100
AcDbCircle
 10
1420.65011
 20
390.592621
 30
0.0
 40
2.0
100
AcDbArc
 50
90.0
 51
180.0
  0
ARC
  5
2F7F
100
AcDbEntity
  8
0
100
AcDbCircle
 10
1420.65011
 20
392.192621
 30
0.0
 40
2.0
100
AcDbArc
 50
90.0
 51
180.0
  0
LINE
  5
2F80
100
AcDbEntity
  8
0
100
AcDbLine
 10
1420.65011
 20
394.192621
 30
0.0
 11
1421.438513
 21
394.192621
 31
0.0
  0
LINE
  5
2F81
100
AcDbEntity
  8
0
100
AcDbLine
 10
1444.45011
 20
354.092621
 30
0.0
 11
1442.45011
 21
365.592621
 31
0.0
  0
ARC
  5
2F82
100
AcDbEntity
  8
0
100
AcDbCircle
 10
1442.45011
 20
367.092621
 30
0.0
 40
2.0
100
AcDbArc
 50
7.180756
 51
90.0
  0
ARC
  5
2F83
100
AcDbEntity
  8
0
100
AcDbCircle
 10
1442.45011
 20
367.592621
 30
0.0
 40
2.0
100
AcDbArc
 50
270.0
 51
352.819244
  0
LINE
  5
2F84
100
AcDbEntity
  8
0
100
AcDbLine
 10
1442.45011
 20
365.592621
 30
0.0
 11
1432.65011
 21
365.592621
 31
0.0
  0
LINE
  5
2F85
100
AcDbEntity
  8
0
100
AcDbLine
 10
1430.65011
 20
361.592621
 30
0.0
 11
1428.05011
 21
361.592621
 31
0.0
  0
ARC
  5
2F86
100
AcDbEntity
  8
0
100
AcDbCircle
 10
1428.05011
 20
363.592621
 30
0.0
 40
2.0
100
AcDbArc
 50
180.0
 51
270.0
  0
LINE
  5
2F87
100
AcDbEntity
  8
0
100
AcDbLine
 10
1426.05011
 20
369.092621
 30
0.0
 11
1426.05011
 21
363.592621
 31
0.0
  0
ARC
  5
2F88
100
AcDbEntity
  8
0
100
AcDbCircle
 10
1430.65011
 20
363.592621
 30
0.0
 40
2.0
100
AcDbArc
 50
270.0
 51
0.0
  0
LINE
  5
2F89
100
AcDbEntity
  8
0
100
AcDbLine
 10
1432.65011
 20
365.592621
 30
0.0
 11
1432.65011
 21
363.592621
 31
0.0
  0
LINE
  5
2F8A
100
AcDbEntity
  8
0
100
AcDbLine
 10
1456.45011
 20
365.592621
 30
0.0
 11
1454.45011
 21
354.092621
 31
0.0
  0
LINE
  5
2F8B
100
AcDbEntity
  8
0
100
AcDbLine
 10
1454.45011
 20
369.092621
 30
0.0
 11
1454.45011
 21
354.092621
 31
0.0
  0
ARC
  5
2F8C
100
AcDbEntity
  8
0
100
AcDbCircle
 10
1456.45011
 20
367.592621
 30
0.0
 40
2.0
100
AcDbArc
 50
187.180756
 51
270.0
  0
ARC
  5
2F8D
100
AcDbEntity
  8
0
100
AcDbCircle
 10
1456.45011
 20
367.092621
 30
0.0
 40
2.0
100
AcDbArc
 50
90.0
 51
172.819244
  0
LINE
  5
2F8E
100
AcDbEntity
  8
0
100
AcDbLine
 10
1444.45011
 20
354.092621
 30
0.0
 11
1444.45011
 21
369.092621
 31
0.0
  0
LINE
  5
2F8F
100
AcDbEntity
  8
0
100
AcDbLine
 10
1454.45011
 20
357.590043
 30
0.0
 11
1444.45011
 21
357.590043
 31
0.0
  0
LINE
  5
2F90
100
AcDbEntity
  8
0
100
AcDbLine
 10
1426.45011
 20
390.592621
 30
0.0
 11
1426.45011
 21
385.592621
 31
0.0
  0
LINE
  5
2F91
100
AcDbEntity
  8
0
100
AcDbLine
 10
1432.944013
 20
383.592621
 30
0.0
 11
1432.944013
 21
379.092621
 31
0.0
  0
ARC
  5
2F92
100
AcDbEntity
  8
0
100
AcDbCircle
 10
1428.45011
 20
385.592621
 30
0.0
 40
2.0
100
AcDbArc
 50
180.0
 51
270.0
  0
ARC
  5
2F93
100
AcDbEntity
  8
0
100
AcDbCircle
 10
1428.45011
 20
390.592621
 30
0.0
 40
2.0
100
AcDbArc
 50
90.0
 51
180.0
  0
ARC
  5
2F94
100
AcDbEntity
  8
0
100
AcDbCircle
 10
1432.953928
 20
377.918236
 30
0.0
 40
17.881484
100
AcDbArc
 50
66.39246
 51
78.726867
  0
LINE
  5
2F95
100
AcDbEntity
  8
0
100
AcDbLine
 10
1344.45011
 20
416.592621
 30
0.0
 11
1358.45011
 21
416.592621
 31
0.0
  0
LINE
  5
2F96
100
AcDbEntity
  8
0
100
AcDbLine
 10
1358.45011
 20
463.04475
 30
0.0
 11
1344.45011
 21
463.04475
 31
0.0
  0
ARC
  5
2F97
100
AcDbEntity
  8
0
100
AcDbCircle
 10
1428.943513
 20
385.587141
 30
0.0
 40
13.352467
100
AcDbArc
 50
73.680297
 51
106.319703
  0
LINE
  5
2F98
100
AcDbEntity
  8
0
100
AcDbLine
 10
1435.252513
 20
399.092621
 30
0.0
 11
1422.634513
 21
399.092621
 31
0.0
  0
LINE
  5
2F99
100
AcDbEntity
  8
0
100
AcDbLine
 10
1422.634513
 20
399.092621
 30
0.0
 11
1421.438513
 21
398.401621
 31
0.0
  0
ARC
  5
2F9A
100
AcDbEntity
  8
0
100
AcDbCircle
 10
1423.315013
 20
395.398662
 30
0.0
 40
3.541047
100
AcDbArc
 50
57.999406
 51
122.000594
  0
ARC
  5
2F9B
100
AcDbEntity
  8
0
100
AcDbCircle
 10
1434.572013
 20
395.398662
 30
0.0
 40
3.541047
100
AcDbArc
 50
57.999406
 51
122.000594
  0
LINE
  5
2F9C
100
AcDbEntity
  8
0
100
AcDbLine
 10
1436.449513
 20
398.401621
 30
0.0
 11
1435.252513
 21
399.092621
 31
0.0
  0
LINE
  5
2F9D
100
AcDbEntity
  8
0
100
AcDbLine
 10
1540.45011
 20
416.592621
 30
0.0
 11
1540.45011
 21
291.592621
 31
0.0
  0
LINE
  5
2F9E
100
AcDbEntity
  8
0
100
AcDbLine
 10
1554.45011
 20
291.592621
 30
0.0
 11
1554.45011
 21
354.092621
 31
0.0
  0
CIRCLE
  5
2F9F
100
AcDbEntity
  8
0
100
AcDbCircle
 10
1638.462495
 20
354.092621
 30
0.0
 40
62.5
  0
LINE
  5
2FA0
100
AcDbEntity
  8
0
100
AcDbLine
 10
1540.45011
 20
291.592621
 30
0.0
 11
1554.45011
 21
291.592621
 31
0.0
  0
CIRCLE
  5
2FA1
100
AcDbEntity
  8
0
100
AcDbCircle
 10
1606.64269
 20
385.912426
 30
0.0
 40
9.5
  0
CIRCLE
  5
2FA2
100
AcDbEntity
  8
0
100
AcDbCircle
 10
1606.64269
 20
322.272815
 30
0.0
 40
9.5
  0
LINE
  5
2FA3
100
AcDbEntity
  8
0
100
AcDbLine
 10
1554.45011
 20
354.092621
 30
0.0
 11
1554.45011
 21
416.592621
 31
0.0
  0
LINE
  5
2FA4
100
AcDbEntity
  8
0
100
AcDbLine
 10
1462.450706
 20
398.401621
 30
0.0
 11
1462.450706
 21
392.592621
 31
0.0
  0
LINE
  5
2FA5
100
AcDbEntity
  8
0
100
AcDbLine
 10
1466.203706
 20
398.401621
 30
0.0
 11
1466.203706
 21
392.592621
 31
0.0
  0
LINE
  5
2FA6
100
AcDbEntity
  8
0
100
AcDbLine
 10
1477.461706
 20
392.592621
 30
0.0
 11
1477.461706
 21
398.401621
 31
0.0
  0
LINE
  5
2FA7
100
AcDbEntity
  8
0
100
AcDbLine
 10
1473.707706
 20
398.401621
 30
0.0
 11
1473.707706
 21
392.592621
 31
0.0
  0
LINE
  5
2FA8
100
AcDbEntity
  8
0
100
AcDbLine
 10
1536.922961
 20
330.405376
 30
0.0
 11
1497.735225
 21
335.070583
 31
0.0
  0
LINE
  5
2FA9
100
AcDbEntity
  8
0
100
AcDbLine
 10
1536.922961
 20
377.779865
 30
0.0
 11
1497.735225
 21
373.114658
 31
0.0
  0
LINE
  5
2FAA
100
AcDbEntity
  8
0
100
AcDbLine
 10
1484.269078
 20
370.336304
 30
0.0
 11
1484.269078
 21
337.848937
 31
0.0
  0
LINE
  5
2FAB
100
AcDbEntity
  8
0
100
AcDbLine
 10
1490.990451
 20
370.092621
 30
0.0
 11
1490.990451
 21
338.092621
 31
0.0
  0
LINE
  5
2FAC
100
AcDbEntity
  8
0
100
AcDbLine
 10
1495.990451
 20
370.092621
 30
0.0
 11
1495.990451
 21
338.092621
 31
0.0
  0
LINE
  5
2FAD
100
AcDbEntity
  8
0
100
AcDbLine
 10
1497.735225
 20
373.114658
 30
0.0
 11
1497.735225
 21
335.070583
 31
0.0
  0
LINE
  5
2FAE
100
AcDbEntity
  8
0
100
AcDbLine
 10
1478.45011
 20
335.592621
 30
0.0
 11
1478.45011
 21
369.092621
 31
0.0
  0
ARC
  5
2FAF
100
AcDbEntity
  8
0
100
AcDbCircle
 10
1456.278958
 20
344.842621
 30
0.0
 40
26.687435
100
AcDbArc
 50
339.720195
 51
20.279805
  0
LINE
  5
2FB0
100
AcDbEntity
  8
0
100
AcDbLine
 10
1477.45011
 20
334.592621
 30
0.0
 11
1477.45011
 21
369.092621
 31
0.0
  0
LINE
  5
2FB1
100
AcDbEntity
  8
0
100
AcDbLine
 10
1490.990451
 20
338.092621
 30
0.0
 11
1495.990451
 21
338.092621
 31
0.0
  0
ARC
  5
2FB2
100
AcDbEntity
  8
0
100
AcDbCircle
 10
1469.833178
 20
318.993738
 30
0.0
 40
3.54367
100
AcDbArc
 50
112.241215
 51
172.241215
  0
LINE
  5
2FB3
100
AcDbEntity
  8
0
100
AcDbLine
 10
1469.354772
 20
322.504967
 30
0.0
 11
1472.576792
 21
319.282947
 31
0.0
  0
ARC
  5
2FB4
100
AcDbEntity
  8
0
100
AcDbCircle
 10
1456.164559
 20
319.078171
 30
0.0
 40
12.182091
100
AcDbArc
 50
295.179294
 51
334.820706
  0
ARC
  5
2FB5
100
AcDbEntity
  8
0
100
AcDbCircle
 10
1469.065564
 20
319.761353
 30
0.0
 40
3.54367
100
AcDbArc
 50
277.758785
 51
337.758785
  0
LINE
  5
2FB6
100
AcDbEntity
  8
0
100
AcDbLine
 10
1467.189118
 20
313.895273
 30
0.0
 11
1469.543969
 21
316.250124
 31
0.0
  0
LINE
  5
2FB7
100
AcDbEntity
  8
0
100
AcDbLine
 10
1463.967098
 20
317.117293
 30
0.0
 11
1466.321949
 21
319.472144
 31
0.0
  0
LINE
  5
2FB8
100
AcDbEntity
  8
0
100
AcDbLine
 10
1463.967098
 20
317.117293
 30
0.0
 11
1467.189118
 21
313.895273
 31
0.0
  0
LINE
  5
2FB9
100
AcDbEntity
  8
0
100
AcDbLine
 10
1466.321949
 20
319.472144
 30
0.0
 11
1469.543969
 21
316.250124
 31
0.0
  0
LINE
  5
2FBA
100
AcDbEntity
  8
0
100
AcDbLine
 10
1472.203219
 20
317.888753
 30
0.0
 11
1472.576792
 21
319.282947
 31
0.0
  0
LINE
  5
2FBB
100
AcDbEntity
  8
0
100
AcDbLine
 10
1467.960579
 20
322.131394
 30
0.0
 11
1469.354772
 21
322.504967
 31
0.0
  0
LINE
  5
2FBC
100
AcDbEntity
  8
0
100
AcDbLine
 10
1467.253472
 20
322.838501
 30
0.0
 11
1467.960579
 21
322.131394
 31
0.0
  0
LINE
  5
2FBD
100
AcDbEntity
  8
0
100
AcDbLine
 10
1477.45011
 20
334.592621
 30
0.0
 11
1478.45011
 21
335.592621
 31
0.0
  0
LINE
  5
2FBE
100
AcDbEntity
  8
0
100
AcDbLine
 10
1468.219398
 20
325.925747
 30
0.0
 11
1468.667685
 21
324.252714
 31
0.0
  0
LINE
  5
2FBF
100
AcDbEntity
  8
0
100
AcDbLine
 10
1478.45011
 20
335.592621
 30
0.0
 11
1482.966393
 21
335.592621
 31
0.0
  0
ARC
  5
2FC0
100
AcDbEntity
  8
0
100
AcDbCircle
 10
1487.279052
 20
347.644264
 30
0.0
 40
10.24736
100
AcDbArc
 50
252.918499
 51
291.234196
  0
LINE
  5
2FC1
100
AcDbEntity
  8
0
100
AcDbLine
 10
1484.269078
 20
337.848937
 30
0.0
 11
1482.966393
 21
335.592621
 31
0.0
  0
LINE
  5
2FC2
100
AcDbEntity
  8
0
100
AcDbLine
 10
1495.990451
 20
338.092621
 30
0.0
 11
1497.735225
 21
335.070583
 31
0.0
  0
LINE
  5
2FC3
100
AcDbEntity
  8
0
100
AcDbLine
 10
1490.990451
 20
370.092621
 30
0.0
 11
1495.990451
 21
370.092621
 31
0.0
  0
LINE
  5
2FC4
100
AcDbEntity
  8
0
100
AcDbLine
 10
1480.25011
 20
379.092621
 30
0.0
 11
1480.25011
 21
369.092621
 31
0.0
  0
LINE
  5
2FC5
100
AcDbEntity
  8
0
100
AcDbLine
 10
1468.25011
 20
361.592621
 30
0.0
 11
1470.85011
 21
361.592621
 31
0.0
  0
ARC
  5
2FC6
100
AcDbEntity
  8
0
100
AcDbCircle
 10
1468.25011
 20
363.592621
 30
0.0
 40
2.0
100
AcDbArc
 50
180.0
 51
270.0
  0
LINE
  5
2FC7
100
AcDbEntity
  8
0
100
AcDbLine
 10
1466.25011
 20
365.592621
 30
0.0
 11
1466.25011
 21
363.592621
 31
0.0
  0
ARC
  5
2FC8
100
AcDbEntity
  8
0
100
AcDbCircle
 10
1470.85011
 20
363.592621
 30
0.0
 40
2.0
100
AcDbArc
 50
270.0
 51
0.0
  0
LINE
  5
2FC9
100
AcDbEntity
  8
0
100
AcDbLine
 10
1472.85011
 20
369.092621
 30
0.0
 11
1472.85011
 21
363.592621
 31
0.0
  0
ARC
  5
2FCA
100
AcDbEntity
  8
0
100
AcDbCircle
 10
1456.278958
 20
363.342621
 30
0.0
 40
26.687435
100
AcDbArc
 50
339.720195
 51
20.279805
  0
LINE
  5
2FCB
100
AcDbEntity
  8
0
100
AcDbLine
 10
1481.31207
 20
354.092621
 30
0.0
 11
1478.45011
 21
354.092621
 31
0.0
  0
LINE
  5
2FCC
100
AcDbEntity
  8
0
100
AcDbLine
 10
1481.31207
 20
354.092621
 30
0.0
 11
1481.31207
 21
354.092621
 31
0.0
  0
LINE
  5
2FCD
100
AcDbEntity
  8
0
100
AcDbLine
 10
1484.269078
 20
370.336304
 30
0.0
 11
1482.966393
 21
372.592621
 31
0.0
  0
ARC
  5
2FCE
100
AcDbEntity
  8
0
100
AcDbCircle
 10
1487.279052
 20
360.540977
 30
0.0
 40
10.24736
100
AcDbArc
 50
68.765804
 51
107.081501
  0
LINE
  5
2FCF
100
AcDbEntity
  8
0
100
AcDbLine
 10
1480.25011
 20
372.592621
 30
0.0
 11
1482.966393
 21
372.592621
 31
0.0
  0
LINE
  5
2FD0
100
AcDbEntity
  8
0
100
AcDbLine
 10
1477.461706
 20
394.192621
 30
0.0
 11
1478.25011
 21
394.192621
 31
0.0
  0
LINE
  5
2FD1
100
AcDbEntity
  8
0
100
AcDbLine
 10
1472.45011
 20
390.592621
 30
0.0
 11
1472.45011
 21
385.592621
 31
0.0
  0
ARC
  5
2FD2
100
AcDbEntity
  8
0
100
AcDbCircle
 10
1470.45011
 20
385.592621
 30
0.0
 40
2.0
100
AcDbArc
 50
270.0
 51
0.0
  0
LINE
  5
2FD3
100
AcDbEntity
  8
0
100
AcDbLine
 10
1465.956206
 20
379.092621
 30
0.0
 11
1465.956206
 21
383.592621
 31
0.0
  0
LINE
  5
2FD4
100
AcDbEntity
  8
0
100
AcDbLine
 10
1473.956206
 20
383.592621
 30
0.0
 11
1473.956206
 21
379.092621
 31
0.0
  0
ARC
  5
2FD5
100
AcDbEntity
  8
0
100
AcDbCircle
 10
1470.45011
 20
390.592621
 30
0.0
 40
2.0
100
AcDbArc
 50
0.0
 51
90.0
  0
ARC
  5
2FD6
100
AcDbEntity
  8
0
100
AcDbCircle
 10
1478.25011
 20
392.192621
 30
0.0
 40
2.0
100
AcDbArc
 50
0.0
 51
90.0
  0
ARC
  5
2FD7
100
AcDbEntity
  8
0
100
AcDbCircle
 10
1478.25011
 20
390.592621
 30
0.0
 40
2.0
100
AcDbArc
 50
360.0
 51
90.0
  0
ARC
  5
2FD8
100
AcDbEntity
  8
0
100
AcDbCircle
 10
1478.25011
 20
385.592621
 30
0.0
 40
2.0
100
AcDbArc
 50
270.0
 51
0.0
  0
LINE
  5
2FD9
100
AcDbEntity
  8
0
100
AcDbLine
 10
1480.25011
 20
392.192621
 30
0.0
 11
1480.25011
 21
385.592621
 31
0.0
  0
LINE
  5
2FDA
100
AcDbEntity
  8
0
100
AcDbLine
 10
1495.990451
 20
370.092621
 30
0.0
 11
1497.735225
 21
373.114658
 31
0.0
  0
ARC
  5
2FDB
100
AcDbEntity
  8
0
100
AcDbCircle
 10
1536.45011
 20
326.433423
 30
0.0
 40
4.0
100
AcDbArc
 50
0.0
 51
83.211025
  0
ARC
  5
2FDC
100
AcDbEntity
  8
0
100
AcDbCircle
 10
1536.45011
 20
381.751818
 30
0.0
 40
4.0
100
AcDbArc
 50
276.788975
 51
0.0
  0
ARC
  5
2FDD
100
AcDbEntity
  8
0
100
AcDbCircle
 10
1469.955706
 20
385.587141
 30
0.0
 40
13.352467
100
AcDbArc
 50
73.680297
 51
106.319703
  0
LINE
  5
2FDE
100
AcDbEntity
  8
0
100
AcDbLine
 10
1476.264706
 20
399.092621
 30
0.0
 11
1463.646706
 21
399.092621
 31
0.0
  0
ARC
  5
2FDF
100
AcDbEntity
  8
0
100
AcDbCircle
 10
1464.327206
 20
395.398662
 30
0.0
 40
3.541047
100
AcDbArc
 50
57.999406
 51
122.000594
  0
LINE
  5
2FE0
100
AcDbEntity
  8
0
100
AcDbLine
 10
1463.646706
 20
399.092621
 30
0.0
 11
1462.450706
 21
398.401621
 31
0.0
  0
LINE
  5
2FE1
100
AcDbEntity
  8
0
100
AcDbLine
 10
1477.461706
 20
398.401621
 30
0.0
 11
1476.264706
 21
399.092621
 31
0.0
  0
ARC
  5
2FE2
100
AcDbEntity
  8
0
100
AcDbCircle
 10
1475.584206
 20
395.398662
 30
0.0
 40
3.541047
100
AcDbArc
 50
57.999406
 51
122.000594
  0
LINE
  5
2FE3
100
AcDbEntity
  8
0
100
AcDbLine
 10
1554.45011
 20
416.592621
 30
0.0
 11
1540.45011
 21
416.592621
 31
0.0
  0
LINE
  5
2FE4
100
AcDbEntity
  8
0
100
AcDbLine
 10
1540.45011
 20
463.04475
 30
0.0
 11
1554.45011
 21
463.04475
 31
0.0
  0
CIRCLE
  5
2FE5
100
AcDbEntity
  8
0
100
AcDbCircle
 10
1670.2823
 20
385.912426
 30
0.0
 40
9.5
  0
CIRCLE
  5
2FE6
100
AcDbEntity
  8
0
100
AcDbCircle
 10
1670.2823
 20
322.272815
 30
0.0
 40
9.5
  0
LINE
  5
2FE7
100
AcDbEntity
  8
0
100
AcDbLine
 10
1454.45011
 20
703.528779
 30
0.0
 11
1477.45011
 21
703.528779
 31
0.0
  0
LINE
  5
2FE8
100
AcDbEntity
  8
0
100
AcDbLine
 10
1456.45011
 20
715.028779
 30
0.0
 11
1466.25011
 21
715.028779
 31
0.0
  0
ARC
  5
2FE9
100
AcDbEntity
  8
0
100
AcDbCircle
 10
1465.946291
 20
727.354394
 30
0.0
 40
17.881484
100
AcDbArc
 50
101.273133
 51
113.60754
  0
LINE
  5
2FEA
100
AcDbEntity
  8
0
100
AcDbLine
 10
1478.25011
 20
733.028779
 30
0.0
 11
1420.65011
 21
733.028779
 31
0.0
  0
LINE
  5
2FEB
100
AcDbEntity
  8
0
100
AcDbLine
 10
1478.25011
 20
742.028779
 30
0.0
 11
1420.65011
 21
742.028779
 31
0.0
  0
LINE
  5
2FEC
100
AcDbEntity
  8
0
100
AcDbLine
 10
1480.25011
 20
728.528779
 30
0.0
 11
1418.65011
 21
728.528779
 31
0.0
  0
LINE
  5
2FED
100
AcDbEntity
  8
0
100
AcDbLine
 10
1480.25011
 20
718.528779
 30
0.0
 11
1418.65011
 21
718.528779
 31
0.0
  0
LINE
  5
2FEE
100
AcDbEntity
  8
0
100
AcDbLine
 10
1462.450706
 20
747.528779
 30
0.0
 11
1436.449513
 21
747.528779
 31
0.0
  0
ARC
  5
2FEF
100
AcDbEntity
  8
0
100
AcDbCircle
 10
1449.45011
 20
715.228779
 30
0.0
 40
30.0
100
AcDbArc
 50
64.319447
 51
115.680553
  0
LINE
  5
2FF0
100
AcDbEntity
  8
0
100
AcDbLine
 10
1477.45011
 20
684.028779
 30
0.0
 11
1421.45011
 21
684.028779
 31
0.0
  0
LINE
  5
2FF1
100
AcDbEntity
  8
0
100
AcDbLine
 10
1477.152524
 20
684.028779
 30
0.0
 11
1449.583236
 21
656.459491
 31
0.0
  0
ARC
  5
2FF2
100
AcDbEntity
  8
0
100
AcDbCircle
 10
1470.086932
 20
545.919282
 30
0.0
 40
11.5
100
AcDbArc
 50
190.657381
 51
262.15933
  0
LINE
  5
2FF3
100
AcDbEntity
  8
0
100
AcDbLine
 10
1426.15011
 20
553.54475
 30
0.0
 11
1472.75011
 21
553.54475
 31
0.0
  0
LINE
  5
2FF4
100
AcDbEntity
  8
0
100
AcDbLine
 10
1426.15011
 20
497.54475
 30
0.0
 11
1472.75011
 21
497.54475
 31
0.0
  0
CIRCLE
  5
2FF5
100
AcDbEntity
  8
0
100
AcDbCircle
 10
1449.45011
 20
525.54475
 30
0.0
 40
17.0
  0
ARC
  5
2FF6
100
AcDbEntity
  8
0
100
AcDbCircle
 10
1470.086932
 20
505.170218
 30
0.0
 40
11.5
100
AcDbArc
 50
97.84067
 51
169.342619
  0
LINE
  5
2FF7
100
AcDbEntity
  8
0
100
AcDbLine
 10
923.81128
 20
721.206876
 30
0.0
 11
923.81128
 21
685.850565
 31
0.0
  0
LINE
  5
2FF8
100
AcDbEntity
  8
0
100
AcDbLine
 10
920.90463
 20
687.528721
 30
0.0
 11
920.90463
 21
719.528721
 31
0.0
  0
LINE
  5
2FF9
100
AcDbEntity
  8
0
100
AcDbLine
 10
909.321108
 20
719.533638
 30
0.0
 11
909.321108
 21
687.523803
 31
0.0
  0
LINE
  5
2FFA
100
AcDbEntity
  8
0
100
AcDbLine
 10
915.90463
 20
687.528721
 30
0.0
 11
915.90463
 21
719.528721
 31
0.0
  0
LINE
  5
2FFB
100
AcDbEntity
  8
0
100
AcDbLine
 10
903.364289
 20
685.028721
 30
0.0
 11
903.364289
 21
718.528721
 31
0.0
  0
LINE
  5
2FFC
100
AcDbEntity
  8
0
100
AcDbLine
 10
902.364289
 20
684.028721
 30
0.0
 11
902.364289
 21
718.528721
 31
0.0
  0
ARC
  5
2FFD
100
AcDbEntity
  8
0
100
AcDbCircle
 10
881.193137
 20
694.278721
 30
0.0
 40
26.687435
100
AcDbArc
 50
339.720195
 51
20.279805
  0
LINE
  5
2FFE
100
AcDbEntity
  8
0
100
AcDbLine
 10
942.864289
 20
753.528721
 30
0.0
 11
942.864289
 21
653.528721
 31
0.0
  0
LINE
  5
2FFF
100
AcDbEntity
  8
0
100
AcDbLine
 10
956.864289
 20
653.528721
 30
0.0
 11
956.864289
 21
703.528721
 31
0.0
  0
LINE
  5
3000
100
AcDbEntity
  8
0
100
AcDbLine
 10
956.864289
 20
579.304267
 30
0.0
 11
942.864289
 21
579.304267
 31
0.0
  0
LINE
  5
3001
100
AcDbEntity
  8
0
100
AcDbLine
 10
905.164289
 20
529.304267
 30
0.0
 11
903.108948
 21
552.324078
 31
0.0
  0
CIRCLE
  5
3002
100
AcDbEntity
  8
0
100
AcDbCircle
 10
894.870385
 20
549.810364
 30
0.0
 40
6.30876
  0
LINE
  5
3003
100
AcDbEntity
  8
0
100
AcDbLine
 10
891.117385
 20
543.310364
 30
0.0
 11
887.364385
 21
549.810364
 31
0.0
  0
LINE
  5
3004
100
AcDbEntity
  8
0
100
AcDbLine
 10
902.376385
 20
549.810364
 30
0.0
 11
898.623385
 21
543.310364
 31
0.0
  0
ARC
  5
3005
100
AcDbEntity
  8
0
100
AcDbCircle
 10
896.468769
 20
545.903087
 30
0.0
 40
11.411802
100
AcDbArc
 50
328.763493
 51
31.236507
  0
LINE
  5
3006
100
AcDbEntity
  8
0
100
AcDbLine
 10
910.158512
 20
545.578641
 30
0.0
 11
910.158512
 21
513.029893
 31
0.0
  0
LINE
  5
3007
100
AcDbEntity
  8
0
100
AcDbLine
 10
915.90463
 20
513.304267
 30
0.0
 11
915.90463
 21
545.304267
 31
0.0
  0
LINE
  5
3008
100
AcDbEntity
  8
0
100
AcDbLine
 10
920.90463
 20
513.304267
 30
0.0
 11
920.90463
 21
545.304267
 31
0.0
  0
LINE
  5
3009
100
AcDbEntity
  8
0
100
AcDbLine
 10
923.81128
 20
546.982422
 30
0.0
 11
923.81128
 21
511.626111
 31
0.0
  0
LINE
  5
300A
100
AcDbEntity
  8
0
100
AcDbLine
 10
920.90463
 20
513.304267
 30
0.0
 11
923.81128
 21
511.626111
 31
0.0
  0
ARC
  5
300B
100
AcDbEntity
  8
0
100
AcDbCircle
 10
872.573046
 20
529.304267
 30
0.0
 40
35.307526
100
AcDbArc
 50
342.391407
 51
17.608593
  0
LINE
  5
300C
100
AcDbEntity
  8
0
100
AcDbLine
 10
904.194646
 20
521.804267
 30
0.0
 11
893.432295
 21
520.322225
 31
0.0
  0
LINE
  5
300D
100
AcDbEntity
  8
0
100
AcDbLine
 10
903.108948
 20
506.284455
 30
0.0
 11
905.164289
 21
529.304267
 31
0.0
  0
LINE
  5
300E
100
AcDbEntity
  8
0
100
AcDbLine
 10
903.153873
 20
506.787606
 30
0.0
 11
907.880572
 21
506.787606
 31
0.0
  0
LINE
  5
300F
100
AcDbEntity
  8
0
100
AcDbLine
 10
903.108948
 20
506.284455
 30
0.0
 11
897.664289
 21
501.304267
 31
0.0
  0
LINE
  5
3010
100
AcDbEntity
  8
0
100
AcDbLine
 10
891.117385
 20
515.29817
 30
0.0
 11
898.623385
 21
515.29817
 31
0.0
  0
LINE
  5
3011
100
AcDbEntity
  8
0
100
AcDbLine
 10
898.623385
 20
502.29817
 30
0.0
 11
891.117385
 21
502.29817
 31
0.0
  0
CIRCLE
  5
3012
100
AcDbEntity
  8
0
100
AcDbCircle
 10
894.870385
 20
508.79817
 30
0.0
 40
6.30876
  0
LINE
  5
3013
100
AcDbEntity
  8
0
100
AcDbLine
 10
891.117385
 20
502.29817
 30
0.0
 11
887.364385
 21
508.79817
 31
0.0
  0
LINE
  5
3014
100
AcDbEntity
  8
0
100
AcDbLine
 10
887.364385
 20
508.79817
 30
0.0
 11
891.117385
 21
515.29817
 31
0.0
  0
LINE
  5
3015
100
AcDbEntity
  8
0
100
AcDbLine
 10
902.376385
 20
508.79817
 30
0.0
 11
898.623385
 21
502.29817
 31
0.0
  0
LINE
  5
3016
100
AcDbEntity
  8
0
100
AcDbLine
 10
898.623385
 20
515.29817
 30
0.0
 11
902.376385
 21
508.79817
 31
0.0
  0
ARC
  5
3017
100
AcDbEntity
  8
0
100
AcDbCircle
 10
912.606318
 20
522.073021
 30
0.0
 40
9.36856
100
AcDbArc
 50
254.85405
 51
290.613478
  0
LINE
  5
3018
100
AcDbEntity
  8
0
100
AcDbLine
 10
910.158512
 20
513.029893
 30
0.0
 11
907.880572
 21
506.787606
 31
0.0
  0
LINE
  5
3019
100
AcDbEntity
  8
0
100
AcDbLine
 10
920.90463
 20
513.304267
 30
0.0
 11
915.90463
 21
513.304267
 31
0.0
  0
ARC
  5
301A
100
AcDbEntity
  8
0
100
AcDbCircle
 10
896.468769
 20
512.705447
 30
0.0
 40
11.411802
100
AcDbArc
 50
328.763493
 51
31.236507
  0
LINE
  5
301B
100
AcDbEntity
  8
0
100
AcDbLine
 10
898.623385
 20
543.310364
 30
0.0
 11
891.117385
 21
543.310364
 31
0.0
  0
LINE
  5
301C
100
AcDbEntity
  8
0
100
AcDbLine
 10
904.194646
 20
536.804267
 30
0.0
 11
893.432295
 21
538.286309
 31
0.0
  0
ARC
  5
301D
100
AcDbEntity
  8
0
100
AcDbCircle
 10
938.864289
 20
507.005827
 30
0.0
 40
4.0
100
AcDbArc
 50
0.0
 51
87.653126
  0
LINE
  5
301E
100
AcDbEntity
  8
0
100
AcDbLine
 10
939.028086
 20
511.002472
 30
0.0
 11
923.81128
 21
511.626111
 31
0.0
  0
LINE
  5
301F
100
AcDbEntity
  8
0
100
AcDbLine
 10
920.90463
 20
545.304267
 30
0.0
 11
923.81128
 21
546.982422
 31
0.0
  0
LINE
  5
3020
100
AcDbEntity
  8
0
100
AcDbLine
 10
903.153873
 20
551.820927
 30
0.0
 11
907.880572
 21
551.820927
 31
0.0
  0
LINE
  5
3021
100
AcDbEntity
  8
0
100
AcDbLine
 10
891.117385
 20
556.310364
 30
0.0
 11
898.623385
 21
556.310364
 31
0.0
  0
LINE
  5
3022
100
AcDbEntity
  8
0
100
AcDbLine
 10
887.364385
 20
549.810364
 30
0.0
 11
891.117385
 21
556.310364
 31
0.0
  0
LINE
  5
3023
100
AcDbEntity
  8
0
100
AcDbLine
 10
898.623385
 20
556.310364
 30
0.0
 11
902.376385
 21
549.810364
 31
0.0
  0
LINE
  5
3024
100
AcDbEntity
  8
0
100
AcDbLine
 10
903.108948
 20
552.324078
 30
0.0
 11
897.664289
 21
557.304267
 31
0.0
  0
ARC
  5
3025
100
AcDbEntity
  8
0
100
AcDbCircle
 10
912.606318
 20
536.535513
 30
0.0
 40
9.36856
100
AcDbArc
 50
69.386522
 51
105.14595
  0
LINE
  5
3026
100
AcDbEntity
  8
0
100
AcDbLine
 10
910.158512
 20
545.578641
 30
0.0
 11
907.880572
 21
551.820927
 31
0.0
  0
LINE
  5
3027
100
AcDbEntity
  8
0
100
AcDbLine
 10
920.90463
 20
545.304267
 30
0.0
 11
915.90463
 21
545.304267
 31
0.0
  0
ARC
  5
3028
100
AcDbEntity
  8
0
100
AcDbCircle
 10
938.864289
 20
551.602707
 30
0.0
 40
4.0
100
AcDbArc
 50
272.346874
 51
0.0
  0
LINE
  5
3029
100
AcDbEntity
  8
0
100
AcDbLine
 10
939.028086
 20
547.606062
 30
0.0
 11
923.81128
 21
546.982422
 31
0.0
  0
LINE
  5
302A
100
AcDbEntity
  8
0
100
AcDbLine
 10
956.864289
 20
529.304267
 30
0.0
 11
956.864289
 21
579.304267
 31
0.0
  0
LINE
  5
302B
100
AcDbEntity
  8
0
100
AcDbLine
 10
942.864289
 20
653.528721
 30
0.0
 11
956.864289
 21
653.528721
 31
0.0
  0
LINE
  5
302C
100
AcDbEntity
  8
0
100
AcDbLine
 10
920.90463
 20
687.528721
 30
0.0
 11
923.81128
 21
685.850565
 31
0.0
  0
LINE
  5
302D
100
AcDbEntity
  8
0
100
AcDbLine
 10
907.880572
 20
685.028721
 30
0.0
 11
903.364289
 21
685.028721
 31
0.0
  0
LINE
  5
302E
100
AcDbEntity
  8
0
100
AcDbLine
 10
903.364289
 20
685.028721
 30
0.0
 11
902.364289
 21
684.028721
 31
0.0
  0
ARC
  5
302F
100
AcDbEntity
  8
0
100
AcDbCircle
 10
912.606318
 20
696.297475
 30
0.0
 40
9.36856
100
AcDbArc
 50
249.472115
 51
290.613478
  0
LINE
  5
3030
100
AcDbEntity
  8
0
100
AcDbLine
 10
909.321108
 20
687.523803
 30
0.0
 11
907.880572
 21
685.028721
 31
0.0
  0
LINE
  5
3031
100
AcDbEntity
  8
0
100
AcDbLine
 10
920.90463
 20
687.528721
 30
0.0
 11
915.90463
 21
687.528721
 31
0.0
  0
ARC
  5
3032
100
AcDbEntity
  8
0
100
AcDbCircle
 10
938.864289
 20
681.230281
 30
0.0
 40
4.0
100
AcDbArc
 50
0.0
 51
87.653126
  0
LINE
  5
3033
100
AcDbEntity
  8
0
100
AcDbLine
 10
939.028086
 20
685.226926
 30
0.0
 11
923.81128
 21
685.850565
 31
0.0
  0
LINE
  5
3034
100
AcDbEntity
  8
0
100
AcDbLine
 10
956.864289
 20
753.528721
 30
0.0
 11
942.864289
 21
753.528721
 31
0.0
  0
ARC
  5
3035
100
AcDbEntity
  8
0
100
AcDbCircle
 10
903.164289
 20
741.628721
 30
0.0
 40
2.0
100
AcDbArc
 50
0.0
 51
90.0
  0
ARC
  5
3036
100
AcDbEntity
  8
0
100
AcDbCircle
 10
903.164289
 20
740.028721
 30
0.0
 40
2.0
100
AcDbArc
 50
0.0
 51
90.0
  0
ARC
  5
3037
100
AcDbEntity
  8
0
100
AcDbCircle
 10
895.364289
 20
740.028721
 30
0.0
 40
2.0
100
AcDbArc
 50
0.0
 51
90.0
  0
LINE
  5
3038
100
AcDbEntity
  8
0
100
AcDbLine
 10
920.90463
 20
719.528721
 30
0.0
 11
923.81128
 21
721.206876
 31
0.0
  0
ARC
  5
3039
100
AcDbEntity
  8
0
100
AcDbCircle
 10
881.193137
 20
712.778721
 30
0.0
 40
26.687435
100
AcDbArc
 50
339.720195
 51
20.279805
  0
LINE
  5
303A
100
AcDbEntity
  8
0
100
AcDbLine
 10
897.764289
 20
718.528721
 30
0.0
 11
897.764289
 21
713.028721
 31
0.0
  0
ARC
  5
303B
100
AcDbEntity
  8
0
100
AcDbCircle
 10
893.164289
 20
713.028721
 30
0.0
 40
2.0
100
AcDbArc
 50
180.0
 51
270.0
  0
LINE
  5
303C
100
AcDbEntity
  8
0
100
AcDbLine
 10
891.164289
 20
715.028721
 30
0.0
 11
891.164289
 21
713.028721
 31
0.0
  0
LINE
  5
303D
100
AcDbEntity
  8
0
100
AcDbLine
 10
893.164289
 20
711.028721
 30
0.0
 11
895.764289
 21
711.028721
 31
0.0
  0
ARC
  5
303E
100
AcDbEntity
  8
0
100
AcDbCircle
 10
895.764289
 20
713.028721
 30
0.0
 40
2.0
100
AcDbArc
 50
270.0
 51
0.0
  0
ARC
  5
303F
100
AcDbEntity
  8
0
100
AcDbCircle
 10
903.164289
 20
735.028721
 30
0.0
 40
2.0
100
AcDbArc
 50
270.0
 51
0.0
  0
LINE
  5
3040
100
AcDbEntity
  8
0
100
AcDbLine
 10
890.870385
 20
733.028721
 30
0.0
 11
890.870385
 21
728.528721
 31
0.0
  0
LINE
  5
3041
100
AcDbEntity
  8
0
100
AcDbLine
 10
898.870385
 20
728.528721
 30
0.0
 11
898.870385
 21
733.028721
 31
0.0
  0
LINE
  5
3042
100
AcDbEntity
  8
0
100
AcDbLine
 10
897.364289
 20
740.028721
 30
0.0
 11
897.364289
 21
735.028721
 31
0.0
  0
ARC
  5
3043
100
AcDbEntity
  8
0
100
AcDbCircle
 10
895.364289
 20
735.028721
 30
0.0
 40
2.0
100
AcDbArc
 50
270.0
 51
0.0
  0
ARC
  5
3044
100
AcDbEntity
  8
0
100
AcDbCircle
 10
912.606318
 20
710.759967
 30
0.0
 40
9.36856
100
AcDbArc
 50
69.386522
 51
110.527885
  0
LINE
  5
3045
100
AcDbEntity
  8
0
100
AcDbLine
 10
905.164289
 20
728.528721
 30
0.0
 11
905.164289
 21
718.528721
 31
0.0
  0
LINE
  5
3046
100
AcDbEntity
  8
0
100
AcDbLine
 10
909.321108
 20
719.533638
 30
0.0
 11
907.880572
 21
722.028721
 31
0.0
  0
LINE
  5
3047
100
AcDbEntity
  8
0
100
AcDbLine
 10
907.880572
 20
722.028721
 30
0.0
 11
905.164289
 21
722.028721
 31
0.0
  0
LINE
  5
3048
100
AcDbEntity
  8
0
100
AcDbLine
 10
905.164289
 20
741.628721
 30
0.0
 11
905.164289
 21
735.028721
 31
0.0
  0
LINE
  5
3049
100
AcDbEntity
  8
0
100
AcDbLine
 10
920.90463
 20
719.528721
 30
0.0
 11
915.90463
 21
719.528721
 31
0.0
  0
ARC
  5
304A
100
AcDbEntity
  8
0
100
AcDbCircle
 10
938.864289
 20
725.827161
 30
0.0
 40
4.0
100
AcDbArc
 50
272.346874
 51
0.0
  0
LINE
  5
304B
100
AcDbEntity
  8
0
100
AcDbLine
 10
939.028086
 20
721.830516
 30
0.0
 11
923.81128
 21
721.206876
 31
0.0
  0
LINE
  5
304C
100
AcDbEntity
  8
0
100
AcDbLine
 10
898.622885
 20
747.837721
 30
0.0
 11
898.622885
 21
742.028721
 31
0.0
  0
LINE
  5
304D
100
AcDbEntity
  8
0
100
AcDbLine
 10
902.375885
 20
747.837721
 30
0.0
 11
902.375885
 21
742.028721
 31
0.0
  0
LINE
  5
304E
100
AcDbEntity
  8
0
100
AcDbLine
 10
891.118885
 20
747.837721
 30
0.0
 11
891.118885
 21
742.028721
 31
0.0
  0
LINE
  5
304F
100
AcDbEntity
  8
0
100
AcDbLine
 10
887.364885
 20
742.028721
 30
0.0
 11
887.364885
 21
747.837721
 31
0.0
  0
LINE
  5
3050
100
AcDbEntity
  8
0
100
AcDbLine
 10
888.561885
 20
748.528721
 30
0.0
 11
901.179885
 21
748.528721
 31
0.0
  0
ARC
  5
3051
100
AcDbEntity
  8
0
100
AcDbCircle
 10
894.870885
 20
735.023241
 30
0.0
 40
13.352467
100
AcDbArc
 50
73.680297
 51
106.319703
  0
ARC
  5
3052
100
AcDbEntity
  8
0
100
AcDbCircle
 10
889.242385
 20
744.834762
 30
0.0
 40
3.541047
100
AcDbArc
 50
57.999406
 51
122.000594
  0
LINE
  5
3053
100
AcDbEntity
  8
0
100
AcDbLine
 10
887.364885
 20
747.837721
 30
0.0
 11
888.561885
 21
748.528721
 31
0.0
  0
ARC
  5
3054
100
AcDbEntity
  8
0
100
AcDbCircle
 10
900.499385
 20
744.834762
 30
0.0
 40
3.541047
100
AcDbArc
 50
57.999406
 51
122.000594
  0
LINE
  5
3055
100
AcDbEntity
  8
0
100
AcDbLine
 10
901.179885
 20
748.528721
 30
0.0
 11
902.375885
 21
747.837721
 31
0.0
  0
LINE
  5
3056
100
AcDbEntity
  8
0
100
AcDbLine
 10
903.164289
 20
743.628721
 30
0.0
 11
902.375885
 21
743.628721
 31
0.0
  0
LINE
  5
3057
100
AcDbEntity
  8
0
100
AcDbLine
 10
956.864289
 20
703.528721
 30
0.0
 11
956.864289
 21
753.528721
 31
0.0
  0
LINE
  5
3058
100
AcDbEntity
  8
0
100
AcDbLine
 10
1008.195762
 20
710.923203
 30
0.0
 11
989.289012
 21
710.923203
 31
0.0
  0
LINE
  5
3059
100
AcDbEntity
  8
0
100
AcDbLine
 10
970.381137
 20
704.620953
 30
0.0
 11
1001.893512
 21
704.620953
 31
0.0
  0
LINE
  5
305A
100
AcDbEntity
  8
0
100
AcDbLine
 10
976.820637
 20
710.923203
 30
0.0
 11
970.381137
 21
704.620953
 31
0.0
  0
LINE
  5
305B
100
AcDbEntity
  8
0
100
AcDbLine
 10
976.820637
 20
707.772078
 30
0.0
 11
976.820637
 21
710.923203
 31
0.0
  0
LINE
  5
305C
100
AcDbEntity
  8
0
100
AcDbLine
 10
986.136762
 20
707.772078
 30
0.0
 11
976.820637
 21
707.772078
 31
0.0
  0
LINE
  5
305D
100
AcDbEntity
  8
0
100
AcDbLine
 10
989.289012
 20
710.923203
 30
0.0
 11
986.136762
 21
707.772078
 31
0.0
  0
LINE
  5
305E
100
AcDbEntity
  8
0
100
AcDbLine
 10
1001.893512
 20
704.620953
 30
0.0
 11
1008.195762
 21
710.923203
 31
0.0
  0
LINE
  5
305F
100
AcDbEntity
  8
0
100
AcDbLine
 10
1420.45011
 20
685.028779
 30
0.0
 11
1420.45011
 21
718.528779
 31
0.0
  0
LINE
  5
3060
100
AcDbEntity
  8
0
100
AcDbLine
 10
1421.45011
 20
684.028779
 30
0.0
 11
1421.45011
 21
718.528779
 31
0.0
  0
LINE
  5
3061
100
AcDbEntity
  8
0
100
AcDbLine
 10
1401.164994
 20
722.550816
 30
0.0
 11
1401.164994
 21
684.506741
 31
0.0
  0
LINE
  5
3062
100
AcDbEntity
  8
0
100
AcDbLine
 10
1402.909768
 20
719.528779
 30
0.0
 11
1402.909768
 21
687.528779
 31
0.0
  0
LINE
  5
3063
100
AcDbEntity
  8
0
100
AcDbLine
 10
1407.909768
 20
719.528779
 30
0.0
 11
1407.909768
 21
687.528779
 31
0.0
  0
LINE
  5
3064
100
AcDbEntity
  8
0
100
AcDbLine
 10
1414.631141
 20
719.772462
 30
0.0
 11
1414.631141
 21
687.285095
 31
0.0
  0
ARC
  5
3065
100
AcDbEntity
  8
0
100
AcDbCircle
 10
1442.621262
 20
694.278779
 30
0.0
 40
26.687435
100
AcDbArc
 50
159.720195
 51
200.279805
  0
LINE
  5
3066
100
AcDbEntity
  8
0
100
AcDbLine
 10
1358.45011
 20
766.028779
 30
0.0
 11
1358.45011
 21
641.028779
 31
0.0
  0
LINE
  5
3067
100
AcDbEntity
  8
0
100
AcDbLine
 10
1344.45011
 20
641.028779
 30
0.0
 11
1344.45011
 21
703.528779
 31
0.0
  0
LINE
  5
3068
100
AcDbEntity
  8
0
100
AcDbLine
 10
1318.109349
 20
521.321008
 30
0.0
 11
1327.425474
 21
521.321008
 31
0.0
  0
LINE
  5
3069
100
AcDbEntity
  8
0
100
AcDbLine
 10
1333.864974
 20
518.169883
 30
0.0
 11
1302.352599
 21
518.169883
 31
0.0
  0
LINE
  5
306A
100
AcDbEntity
  8
0
100
AcDbLine
 10
1302.352599
 20
518.169883
 30
0.0
 11
1296.050349
 21
524.472133
 31
0.0
  0
LINE
  5
306B
100
AcDbEntity
  8
0
100
AcDbLine
 10
1296.050349
 20
524.472133
 30
0.0
 11
1314.957099
 21
524.472133
 31
0.0
  0
LINE
  5
306C
100
AcDbEntity
  8
0
100
AcDbLine
 10
1314.957099
 20
524.472133
 30
0.0
 11
1318.109349
 21
521.321008
 31
0.0
  0
LINE
  5
306D
100
AcDbEntity
  8
0
100
AcDbLine
 10
1361.977258
 20
549.231994
 30
0.0
 11
1401.164994
 21
544.566787
 31
0.0
  0
LINE
  5
306E
100
AcDbEntity
  8
0
100
AcDbLine
 10
1361.977258
 20
501.857506
 30
0.0
 11
1401.164994
 21
506.522712
 31
0.0
  0
LINE
  5
306F
100
AcDbEntity
  8
0
100
AcDbLine
 10
1344.45011
 20
525.54475
 30
0.0
 11
1344.45011
 21
588.04475
 31
0.0
  0
LINE
  5
3070
100
AcDbEntity
  8
0
100
AcDbLine
 10
1327.425474
 20
524.472133
 30
0.0
 11
1333.864974
 21
518.169883
 31
0.0
  0
LINE
  5
3071
100
AcDbEntity
  8
0
100
AcDbLine
 10
1327.425474
 20
521.321008
 30
0.0
 11
1327.425474
 21
524.472133
 31
0.0
  0
ARC
  5
3072
100
AcDbEntity
  8
0
100
AcDbCircle
 10
1362.45011
 20
497.885553
 30
0.0
 40
4.0
100
AcDbArc
 50
96.788975
 51
180.0
  0
LINE
  5
3073
100
AcDbEntity
  8
0
100
AcDbLine
 10
1344.45011
 20
588.04475
 30
0.0
 11
1358.45011
 21
588.04475
 31
0.0
  0
ARC
  5
3074
100
AcDbEntity
  8
0
100
AcDbCircle
 10
1362.45011
 20
553.203947
 30
0.0
 40
4.0
100
AcDbArc
 50
180.0
 51
263.211025
  0
LINE
  5
3075
100
AcDbEntity
  8
0
100
AcDbLine
 10
1456.95011
 20
553.54475
 30
0.0
 11
1458.7853
 21
543.792522
 31
0.0
  0
LINE
  5
3076
100
AcDbEntity
  8
0
100
AcDbLine
 10
1432.697013
 20
539.550847
 30
0.0
 11
1436.450013
 21
546.050847
 31
0.0
  0
CIRCLE
  5
3077
100
AcDbEntity
  8
0
100
AcDbCircle
 10
1428.944013
 20
546.050847
 30
0.0
 40
6.30876
  0
LINE
  5
3078
100
AcDbEntity
  8
0
100
AcDbLine
 10
1418.65011
 20
525.54475
 30
0.0
 11
1420.70545
 21
548.564561
 31
0.0
  0
LINE
  5
3079
100
AcDbEntity
  8
0
100
AcDbLine
 10
1421.438013
 20
546.050847
 30
0.0
 11
1425.191013
 21
539.550847
 31
0.0
  0
LINE
  5
307A
100
AcDbEntity
  8
0
100
AcDbLine
 10
1414.064694
 20
542.939388
 30
0.0
 11
1415.933826
 21
548.06141
 31
0.0
  0
ARC
  5
307B
100
AcDbEntity
  8
0
100
AcDbCircle
 10
1427.345629
 20
542.14357
 30
0.0
 40
11.411802
100
AcDbArc
 50
148.763493
 51
211.236507
  0
LINE
  5
307C
100
AcDbEntity
  8
0
100
AcDbLine
 10
1441.95011
 20
553.54475
 30
0.0
 11
1440.114919
 21
543.792522
 31
0.0
  0
LINE
  5
307D
100
AcDbEntity
  8
0
100
AcDbLine
 10
1419.619752
 20
533.04475
 30
0.0
 11
1430.382103
 21
534.526792
 31
0.0
  0
LINE
  5
307E
100
AcDbEntity
  8
0
100
AcDbLine
 10
1425.191013
 20
539.550847
 30
0.0
 11
1432.697013
 21
539.550847
 31
0.0
  0
CIRCLE
  5
307F
100
AcDbEntity
  8
0
100
AcDbCircle
 10
1428.944013
 20
505.038653
 30
0.0
 40
6.30876
  0
LINE
  5
3080
100
AcDbEntity
  8
0
100
AcDbLine
 10
1420.70545
 20
502.524938
 30
0.0
 11
1426.15011
 21
497.54475
 31
0.0
  0
LINE
  5
3081
100
AcDbEntity
  8
0
100
AcDbLine
 10
1425.191013
 20
498.538653
 30
0.0
 11
1432.697013
 21
498.538653
 31
0.0
  0
LINE
  5
3082
100
AcDbEntity
  8
0
100
AcDbLine
 10
1432.697013
 20
511.538653
 30
0.0
 11
1425.191013
 21
511.538653
 31
0.0
  0
LINE
  5
3083
100
AcDbEntity
  8
0
100
AcDbLine
 10
1419.619752
 20
518.04475
 30
0.0
 11
1430.382103
 21
516.562708
 31
0.0
  0
LINE
  5
3084
100
AcDbEntity
  8
0
100
AcDbLine
 10
1414.064694
 20
542.939388
 30
0.0
 11
1414.064694
 21
508.150112
 31
0.0
  0
LINE
  5
3085
100
AcDbEntity
  8
0
100
AcDbLine
 10
1407.909768
 20
509.54475
 30
0.0
 11
1407.909768
 21
541.54475
 31
0.0
  0
LINE
  5
3086
100
AcDbEntity
  8
0
100
AcDbLine
 10
1402.909768
 20
509.54475
 30
0.0
 11
1402.909768
 21
541.54475
 31
0.0
  0
LINE
  5
3087
100
AcDbEntity
  8
0
100
AcDbLine
 10
1401.164994
 20
506.522712
 30
0.0
 11
1401.164994
 21
544.566787
 31
0.0
  0
LINE
  5
3088
100
AcDbEntity
  8
0
100
AcDbLine
 10
1420.70545
 20
502.524938
 30
0.0
 11
1418.65011
 21
525.54475
 31
0.0
  0
ARC
  5
3089
100
AcDbEntity
  8
0
100
AcDbCircle
 10
1451.241353
 20
525.54475
 30
0.0
 40
35.307526
100
AcDbArc
 50
162.391407
 51
197.608593
  0
ARC
  5
308A
100
AcDbEntity
  8
0
100
AcDbCircle
 10
1412.336485
 20
514.802063
 30
0.0
 40
6.872784
100
AcDbArc
 50
229.902246
 51
284.563737
  0
LINE
  5
308B
100
AcDbEntity
  8
0
100
AcDbLine
 10
1407.909768
 20
509.54475
 30
0.0
 11
1402.909768
 21
509.54475
 31
0.0
  0
LINE
  5
308C
100
AcDbEntity
  8
0
100
AcDbLine
 10
1402.909768
 20
509.54475
 30
0.0
 11
1401.164994
 21
506.522712
 31
0.0
  0
LINE
  5
308D
100
AcDbEntity
  8
0
100
AcDbLine
 10
1421.438013
 20
505.038653
 30
0.0
 11
1425.191013
 21
498.538653
 31
0.0
  0
LINE
  5
308E
100
AcDbEntity
  8
0
100
AcDbLine
 10
1425.191013
 20
511.538653
 30
0.0
 11
1421.438013
 21
505.038653
 31
0.0
  0
LINE
  5
308F
100
AcDbEntity
  8
0
100
AcDbLine
 10
1415.933826
 20
503.028089
 30
0.0
 11
1420.660526
 21
503.028089
 31
0.0
  0
LINE
  5
3090
100
AcDbEntity
  8
0
100
AcDbLine
 10
1414.064694
 20
508.150112
 30
0.0
 11
1415.933826
 21
503.028089
 31
0.0
  0
ARC
  5
3091
100
AcDbEntity
  8
0
100
AcDbCircle
 10
1427.345629
 20
508.94593
 30
0.0
 40
11.411802
100
AcDbArc
 50
148.763493
 51
211.236507
  0
ARC
  5
3092
100
AcDbEntity
  8
0
100
AcDbCircle
 10
1412.336485
 20
536.287437
 30
0.0
 40
6.872784
100
AcDbArc
 50
75.436263
 51
130.097754
  0
LINE
  5
3093
100
AcDbEntity
  8
0
100
AcDbLine
 10
1407.909768
 20
541.54475
 30
0.0
 11
1402.909768
 21
541.54475
 31
0.0
  0
LINE
  5
3094
100
AcDbEntity
  8
0
100
AcDbLine
 10
1402.909768
 20
541.54475
 30
0.0
 11
1401.164994
 21
544.566787
 31
0.0
  0
LINE
  5
3095
100
AcDbEntity
  8
0
100
AcDbLine
 10
1436.450013
 20
505.038653
 30
0.0
 11
1432.697013
 21
511.538653
 31
0.0
  0
LINE
  5
3096
100
AcDbEntity
  8
0
100
AcDbLine
 10
1432.697013
 20
498.538653
 30
0.0
 11
1436.450013
 21
505.038653
 31
0.0
  0
LINE
  5
3097
100
AcDbEntity
  8
0
100
AcDbLine
 10
1441.95011
 20
497.54475
 30
0.0
 11
1440.114919
 21
507.296978
 31
0.0
  0
ARC
  5
3098
100
AcDbEntity
  8
0
100
AcDbCircle
 10
1428.813287
 20
505.170218
 30
0.0
 40
11.5
100
AcDbArc
 50
10.657381
 51
82.15933
  0
LINE
  5
3099
100
AcDbEntity
  8
0
100
AcDbLine
 10
1456.95011
 20
497.54475
 30
0.0
 11
1458.7853
 21
507.296978
 31
0.0
  0
ARC
  5
309A
100
AcDbEntity
  8
0
100
AcDbCircle
 10
1428.813287
 20
545.919282
 30
0.0
 40
11.5
100
AcDbArc
 50
277.84067
 51
349.342619
  0
LINE
  5
309B
100
AcDbEntity
  8
0
100
AcDbLine
 10
1420.70545
 20
548.564561
 30
0.0
 11
1426.15011
 21
553.54475
 31
0.0
  0
LINE
  5
309C
100
AcDbEntity
  8
0
100
AcDbLine
 10
1432.697013
 20
552.550847
 30
0.0
 11
1425.191013
 21
552.550847
 31
0.0
  0
LINE
  5
309D
100
AcDbEntity
  8
0
100
AcDbLine
 10
1425.191013
 20
552.550847
 30
0.0
 11
1421.438013
 21
546.050847
 31
0.0
  0
LINE
  5
309E
100
AcDbEntity
  8
0
100
AcDbLine
 10
1415.933826
 20
548.06141
 30
0.0
 11
1420.660526
 21
548.06141
 31
0.0
  0
LINE
  5
309F
100
AcDbEntity
  8
0
100
AcDbLine
 10
1436.450013
 20
546.050847
 30
0.0
 11
1432.697013
 21
552.550847
 31
0.0
  0
LINE
  5
30A0
100
AcDbEntity
  8
0
100
AcDbLine
 10
1361.977258
 20
679.841534
 30
0.0
 11
1401.164994
 21
684.506741
 31
0.0
  0
LINE
  5
30A1
100
AcDbEntity
  8
0
100
AcDbLine
 10
1358.45011
 20
641.028779
 30
0.0
 11
1344.45011
 21
641.028779
 31
0.0
  0
ARC
  5
30A2
100
AcDbEntity
  8
0
100
AcDbCircle
 10
1362.45011
 20
675.869581
 30
0.0
 40
4.0
100
AcDbArc
 50
96.788975
 51
180.0
  0
LINE
  5
30A3
100
AcDbEntity
  8
0
100
AcDbLine
 10
1449.583236
 20
656.459491
 30
0.0
 11
1422.013948
 21
684.028779
 31
0.0
  0
LINE
  5
30A4
100
AcDbEntity
  8
0
100
AcDbLine
 10
1407.909768
 20
687.528779
 30
0.0
 11
1402.909768
 21
687.528779
 31
0.0
  0
LINE
  5
30A5
100
AcDbEntity
  8
0
100
AcDbLine
 10
1402.909768
 20
687.528779
 30
0.0
 11
1401.164994
 21
684.506741
 31
0.0
  0
ARC
  5
30A6
100
AcDbEntity
  8
0
100
AcDbCircle
 10
1411.621167
 20
697.080422
 30
0.0
 40
10.24736
100
AcDbArc
 50
248.765804
 51
287.081501
  0
LINE
  5
30A7
100
AcDbEntity
  8
0
100
AcDbLine
 10
1414.631141
 20
687.285095
 30
0.0
 11
1415.933826
 21
685.028779
 31
0.0
  0
LINE
  5
30A8
100
AcDbEntity
  8
0
100
AcDbLine
 10
1421.45011
 20
684.028779
 30
0.0
 11
1420.45011
 21
685.028779
 31
0.0
  0
LINE
  5
30A9
100
AcDbEntity
  8
0
100
AcDbLine
 10
1420.45011
 20
685.028779
 30
0.0
 11
1415.933826
 21
685.028779
 31
0.0
  0
LINE
  5
30AA
100
AcDbEntity
  8
0
100
AcDbLine
 10
1434.933121
 20
666.553451
 30
0.0
 11
1432.57827
 21
668.908302
 31
0.0
  0
LINE
  5
30AB
100
AcDbEntity
  8
0
100
AcDbLine
 10
1445.788883
 20
656.71831
 30
0.0
 11
1430.939641
 21
671.567552
 31
0.0
  0
LINE
  5
30AC
100
AcDbEntity
  8
0
100
AcDbLine
 10
1447.910203
 20
656.011203
 30
0.0
 11
1430.232534
 21
673.688872
 31
0.0
  0
LINE
  5
30AD
100
AcDbEntity
  8
0
100
AcDbLine
 10
1426.697
 20
667.324911
 30
0.0
 11
1426.323427
 21
668.719105
 31
0.0
  0
LINE
  5
30AE
100
AcDbEntity
  8
0
100
AcDbLine
 10
1432.57827
 20
668.908302
 30
0.0
 11
1429.35625
 21
665.686282
 31
0.0
  0
LINE
  5
30AF
100
AcDbEntity
  8
0
100
AcDbLine
 10
1441.546242
 20
652.475669
 30
0.0
 11
1442.940436
 21
652.102096
 31
0.0
  0
LINE
  5
30B0
100
AcDbEntity
  8
0
100
AcDbLine
 10
1443.129633
 20
658.356939
 30
0.0
 11
1440.774782
 21
660.71179
 31
0.0
  0
LINE
  5
30B1
100
AcDbEntity
  8
0
100
AcDbLine
 10
1443.129633
 20
658.356939
 30
0.0
 11
1439.907613
 21
655.134919
 31
0.0
  0
LINE
  5
30B2
100
AcDbEntity
  8
0
100
AcDbLine
 10
1434.933121
 20
666.553451
 30
0.0
 11
1431.711101
 21
663.331431
 31
0.0
  0
LINE
  5
30B3
100
AcDbEntity
  8
0
100
AcDbLine
 10
1441.546242
 20
652.475669
 30
0.0
 11
1426.697
 21
667.324911
 31
0.0
  0
ARC
  5
30B4
100
AcDbEntity
  8
0
100
AcDbCircle
 10
1442.73566
 20
668.514329
 30
0.0
 40
12.182091
100
AcDbArc
 50
205.179294
 51
244.820706
  0
LINE
  5
30B5
100
AcDbEntity
  8
0
100
AcDbLine
 10
1431.711101
 20
663.331431
 30
0.0
 11
1429.35625
 21
665.686282
 31
0.0
  0
ARC
  5
30B6
100
AcDbEntity
  8
0
100
AcDbCircle
 10
1429.834656
 20
669.197511
 30
0.0
 40
3.54367
100
AcDbArc
 50
202.241215
 51
262.241215
  0
ARC
  5
30B7
100
AcDbEntity
  8
0
100
AcDbCircle
 10
1443.418842
 20
655.613324
 30
0.0
 40
3.54367
100
AcDbArc
 50
187.758785
 51
247.758785
  0
LINE
  5
30B8
100
AcDbEntity
  8
0
100
AcDbLine
 10
1440.774782
 20
660.71179
 30
0.0
 11
1437.552762
 21
657.48977
 31
0.0
  0
LINE
  5
30B9
100
AcDbEntity
  8
0
100
AcDbLine
 10
1439.907613
 20
655.134919
 30
0.0
 11
1437.552762
 21
657.48977
 31
0.0
  0
ARC
  5
30BA
100
AcDbEntity
  8
0
100
AcDbCircle
 10
1429.750223
 20
655.528892
 30
0.0
 40
12.182091
100
AcDbArc
 50
25.179294
 51
64.820706
  0
LINE
  5
30BB
100
AcDbEntity
  8
0
100
AcDbLine
 10
1446.162456
 20
655.324116
 30
0.0
 11
1442.940436
 21
652.102096
 31
0.0
  0
ARC
  5
30BC
100
AcDbEntity
  8
0
100
AcDbCircle
 10
1442.651228
 20
654.84571
 30
0.0
 40
3.54367
100
AcDbArc
 50
22.241215
 51
82.241215
  0
LINE
  5
30BD
100
AcDbEntity
  8
0
100
AcDbLine
 10
1449.583236
 20
656.459491
 30
0.0
 11
1447.910203
 21
656.011203
 31
0.0
  0
LINE
  5
30BE
100
AcDbEntity
  8
0
100
AcDbLine
 10
1446.49599
 20
657.425416
 30
0.0
 11
1445.788883
 21
656.71831
 31
0.0
  0
LINE
  5
30BF
100
AcDbEntity
  8
0
100
AcDbLine
 10
1445.788883
 20
656.71831
 30
0.0
 11
1446.162456
 21
655.324116
 31
0.0
  0
LINE
  5
30C0
100
AcDbEntity
  8
0
100
AcDbLine
 10
1429.545447
 20
671.941125
 30
0.0
 11
1426.323427
 21
668.719105
 31
0.0
  0
ARC
  5
30C1
100
AcDbEntity
  8
0
100
AcDbCircle
 10
1429.067041
 20
668.429896
 30
0.0
 40
3.54367
100
AcDbArc
 50
7.758785
 51
67.758785
  0
LINE
  5
30C2
100
AcDbEntity
  8
0
100
AcDbLine
 10
1431.646747
 20
672.274659
 30
0.0
 11
1430.939641
 21
671.567552
 31
0.0
  0
LINE
  5
30C3
100
AcDbEntity
  8
0
100
AcDbLine
 10
1430.939641
 20
671.567552
 30
0.0
 11
1429.545447
 21
671.941125
 31
0.0
  0
LINE
  5
30C4
100
AcDbEntity
  8
0
100
AcDbLine
 10
1430.680822
 20
675.361905
 30
0.0
 11
1430.232534
 21
673.688872
 31
0.0
  0
LINE
  5
30C5
100
AcDbEntity
  8
0
100
AcDbLine
 10
1361.977258
 20
727.216023
 30
0.0
 11
1401.164994
 21
722.550816
 31
0.0
  0
LINE
  5
30C6
100
AcDbEntity
  8
0
100
AcDbLine
 10
1344.45011
 20
703.528779
 30
0.0
 11
1344.45011
 21
766.028779
 31
0.0
  0
ARC
  5
30C7
100
AcDbEntity
  8
0
100
AcDbCircle
 10
1362.45011
 20
731.187976
 30
0.0
 40
4.0
100
AcDbArc
 50
180.0
 51
263.211025
  0
LINE
  5
30C8
100
AcDbEntity
  8
0
100
AcDbLine
 10
1344.45011
 20
766.028779
 30
0.0
 11
1358.45011
 21
766.028779
 31
0.0
  0
ARC
  5
30C9
100
AcDbEntity
  8
0
100
AcDbCircle
 10
1420.65011
 20
740.028779
 30
0.0
 40
2.0
100
AcDbArc
 50
90.0
 51
180.0
  0
ARC
  5
30CA
100
AcDbEntity
  8
0
100
AcDbCircle
 10
1420.65011
 20
741.628779
 30
0.0
 40
2.0
100
AcDbArc
 50
90.0
 51
180.0
  0
ARC
  5
30CB
100
AcDbEntity
  8
0
100
AcDbCircle
 10
1428.45011
 20
740.028779
 30
0.0
 40
2.0
100
AcDbArc
 50
90.0
 51
180.0
  0
LINE
  5
30CC
100
AcDbEntity
  8
0
100
AcDbLine
 10
1421.45011
 20
703.528779
 30
0.0
 11
1444.45011
 21
703.528779
 31
0.0
  0
ARC
  5
30CD
100
AcDbEntity
  8
0
100
AcDbCircle
 10
1442.621262
 20
712.778779
 30
0.0
 40
26.687435
100
AcDbArc
 50
159.720195
 51
200.279805
  0
LINE
  5
30CE
100
AcDbEntity
  8
0
100
AcDbLine
 10
1417.58815
 20
703.528779
 30
0.0
 11
1417.58815
 21
703.528779
 31
0.0
  0
LINE
  5
30CF
100
AcDbEntity
  8
0
100
AcDbLine
 10
1417.58815
 20
703.528779
 30
0.0
 11
1420.45011
 21
703.528779
 31
0.0
  0
LINE
  5
30D0
100
AcDbEntity
  8
0
100
AcDbLine
 10
1407.909768
 20
719.528779
 30
0.0
 11
1402.909768
 21
719.528779
 31
0.0
  0
LINE
  5
30D1
100
AcDbEntity
  8
0
100
AcDbLine
 10
1402.909768
 20
719.528779
 30
0.0
 11
1401.164994
 21
722.550816
 31
0.0
  0
LINE
  5
30D2
100
AcDbEntity
  8
0
100
AcDbLine
 10
1418.65011
 20
741.628779
 30
0.0
 11
1418.65011
 21
735.028779
 31
0.0
  0
ARC
  5
30D3
100
AcDbEntity
  8
0
100
AcDbCircle
 10
1411.621167
 20
709.977135
 30
0.0
 40
10.24736
100
AcDbArc
 50
72.918499
 51
111.234196
  0
LINE
  5
30D4
100
AcDbEntity
  8
0
100
AcDbLine
 10
1418.65011
 20
728.528779
 30
0.0
 11
1418.65011
 21
718.528779
 31
0.0
  0
LINE
  5
30D5
100
AcDbEntity
  8
0
100
AcDbLine
 10
1414.631141
 20
719.772462
 30
0.0
 11
1415.933826
 21
722.028779
 31
0.0
  0
LINE
  5
30D6
100
AcDbEntity
  8
0
100
AcDbLine
 10
1418.65011
 20
722.028779
 30
0.0
 11
1415.933826
 21
722.028779
 31
0.0
  0
ARC
  5
30D7
100
AcDbEntity
  8
0
100
AcDbCircle
 10
1420.65011
 20
735.028779
 30
0.0
 40
2.0
100
AcDbArc
 50
180.0
 51
270.0
  0
LINE
  5
30D8
100
AcDbEntity
  8
0
100
AcDbLine
 10
1424.944013
 20
733.028779
 30
0.0
 11
1424.944013
 21
728.528779
 31
0.0
  0
LINE
  5
30D9
100
AcDbEntity
  8
0
100
AcDbLine
 10
1454.45011
 20
703.528779
 30
0.0
 11
1454.45011
 21
718.528779
 31
0.0
  0
ARC
  5
30DA
100
AcDbEntity
  8
0
100
AcDbCircle
 10
1456.45011
 20
716.528779
 30
0.0
 40
2.0
100
AcDbArc
 50
90.0
 51
172.819244
  0
LINE
  5
30DB
100
AcDbEntity
  8
0
100
AcDbLine
 10
1426.05011
 20
718.528779
 30
0.0
 11
1426.05011
 21
713.028779
 31
0.0
  0
LINE
  5
30DC
100
AcDbEntity
  8
0
100
AcDbLine
 10
1444.45011
 20
718.528779
 30
0.0
 11
1444.45011
 21
703.528779
 31
0.0
  0
ARC
  5
30DD
100
AcDbEntity
  8
0
100
AcDbCircle
 10
1442.45011
 20
716.528779
 30
0.0
 40
2.0
100
AcDbArc
 50
7.180756
 51
90.0
  0
LINE
  5
30DE
100
AcDbEntity
  8
0
100
AcDbLine
 10
1442.45011
 20
715.028779
 30
0.0
 11
1444.45011
 21
703.528779
 31
0.0
  0
ARC
  5
30DF
100
AcDbEntity
  8
0
100
AcDbCircle
 10
1442.45011
 20
717.028779
 30
0.0
 40
2.0
100
AcDbArc
 50
270.0
 51
352.819244
  0
LINE
  5
30E0
100
AcDbEntity
  8
0
100
AcDbLine
 10
1442.45011
 20
715.028779
 30
0.0
 11
1432.65011
 21
715.028779
 31
0.0
  0
ARC
  5
30E1
100
AcDbEntity
  8
0
100
AcDbCircle
 10
1428.05011
 20
713.028779
 30
0.0
 40
2.0
100
AcDbArc
 50
180.0
 51
270.0
  0
LINE
  5
30E2
100
AcDbEntity
  8
0
100
AcDbLine
 10
1432.65011
 20
715.028779
 30
0.0
 11
1432.65011
 21
713.028779
 31
0.0
  0
ARC
  5
30E3
100
AcDbEntity
  8
0
100
AcDbCircle
 10
1430.65011
 20
713.028779
 30
0.0
 40
2.0
100
AcDbArc
 50
270.0
 51
0.0
  0
LINE
  5
30E4
100
AcDbEntity
  8
0
100
AcDbLine
 10
1430.65011
 20
711.028779
 30
0.0
 11
1428.05011
 21
711.028779
 31
0.0
  0
LINE
  5
30E5
100
AcDbEntity
  8
0
100
AcDbLine
 10
1454.45011
 20
703.528779
 30
0.0
 11
1456.45011
 21
715.028779
 31
0.0
  0
ARC
  5
30E6
100
AcDbEntity
  8
0
100
AcDbCircle
 10
1456.45011
 20
717.028779
 30
0.0
 40
2.0
100
AcDbArc
 50
187.180756
 51
270.0
  0
LINE
  5
30E7
100
AcDbEntity
  8
0
100
AcDbLine
 10
1444.45011
 20
707.026201
 30
0.0
 11
1454.45011
 21
707.026201
 31
0.0
  0
LINE
  5
30E8
100
AcDbEntity
  8
0
100
AcDbLine
 10
1426.45011
 20
740.028779
 30
0.0
 11
1426.45011
 21
735.028779
 31
0.0
  0
LINE
  5
30E9
100
AcDbEntity
  8
0
100
AcDbLine
 10
1432.944013
 20
728.528779
 30
0.0
 11
1432.944013
 21
733.028779
 31
0.0
  0
ARC
  5
30EA
100
AcDbEntity
  8
0
100
AcDbCircle
 10
1428.45011
 20
735.028779
 30
0.0
 40
2.0
100
AcDbArc
 50
180.0
 51
270.0
  0
LINE
  5
30EB
100
AcDbEntity
  8
0
100
AcDbLine
 10
1422.635513
 20
748.528779
 30
0.0
 11
1435.253513
 21
748.528779
 31
0.0
  0
ARC
  5
30EC
100
AcDbEntity
  8
0
100
AcDbCircle
 10
1428.944513
 20
735.023299
 30
0.0
 40
13.352467
100
AcDbArc
 50
73.680297
 51
106.319703
  0
ARC
  5
30ED
100
AcDbEntity
  8
0
100
AcDbCircle
 10
1423.316013
 20
744.83482
 30
0.0
 40
3.541047
100
AcDbArc
 50
57.999406
 51
122.000594
  0
LINE
  5
30EE
100
AcDbEntity
  8
0
100
AcDbLine
 10
1421.438513
 20
747.837779
 30
0.0
 11
1422.635513
 21
748.528779
 31
0.0
  0
LINE
  5
30EF
100
AcDbEntity
  8
0
100
AcDbLine
 10
1421.438513
 20
742.028779
 30
0.0
 11
1421.438513
 21
747.837779
 31
0.0
  0
LINE
  5
30F0
100
AcDbEntity
  8
0
100
AcDbLine
 10
1421.438513
 20
743.628779
 30
0.0
 11
1420.65011
 21
743.628779
 31
0.0
  0
LINE
  5
30F1
100
AcDbEntity
  8
0
100
AcDbLine
 10
1425.192513
 20
747.837779
 30
0.0
 11
1425.192513
 21
742.028779
 31
0.0
  0
ARC
  5
30F2
100
AcDbEntity
  8
0
100
AcDbCircle
 10
1434.573013
 20
744.83482
 30
0.0
 40
3.541047
100
AcDbArc
 50
57.999406
 51
122.000594
  0
LINE
  5
30F3
100
AcDbEntity
  8
0
100
AcDbLine
 10
1432.696513
 20
747.837779
 30
0.0
 11
1432.696513
 21
742.028779
 31
0.0
  0
LINE
  5
30F4
100
AcDbEntity
  8
0
100
AcDbLine
 10
1436.449513
 20
747.837779
 30
0.0
 11
1436.449513
 21
742.028779
 31
0.0
  0
LINE
  5
30F5
100
AcDbEntity
  8
0
100
AcDbLine
 10
1435.253513
 20
748.528779
 30
0.0
 11
1436.449513
 21
747.837779
 31
0.0
  0
ARC
  5
30F6
100
AcDbEntity
  8
0
100
AcDbCircle
 10
1432.953928
 20
727.354394
 30
0.0
 40
17.881484
100
AcDbArc
 50
66.39246
 51
78.726867
  0
LINE
  5
30F7
100
AcDbEntity
  8
0
100
AcDbLine
 10
1540.45011
 20
766.028779
 30
0.0
 11
1540.45011
 21
641.028779
 31
0.0
  0
LINE
  5
30F8
100
AcDbEntity
  8
0
100
AcDbLine
 10
1554.45011
 20
641.028779
 30
0.0
 11
1554.45011
 21
703.528779
 31
0.0
  0
LINE
  5
30F9
100
AcDbEntity
  8
0
100
AcDbLine
 10
1478.45011
 20
685.028779
 30
0.0
 11
1478.45011
 21
718.528779
 31
0.0
  0
LINE
  5
30FA
100
AcDbEntity
  8
0
100
AcDbLine
 10
1477.45011
 20
684.028779
 30
0.0
 11
1477.45011
 21
718.528779
 31
0.0
  0
LINE
  5
30FB
100
AcDbEntity
  8
0
100
AcDbLine
 10
1490.990451
 20
719.528779
 30
0.0
 11
1490.990451
 21
687.528779
 31
0.0
  0
LINE
  5
30FC
100
AcDbEntity
  8
0
100
AcDbLine
 10
1484.269078
 20
719.772462
 30
0.0
 11
1484.269078
 21
687.285095
 31
0.0
  0
LINE
  5
30FD
100
AcDbEntity
  8
0
100
AcDbLine
 10
1495.990451
 20
719.528779
 30
0.0
 11
1495.990451
 21
687.528779
 31
0.0
  0
LINE
  5
30FE
100
AcDbEntity
  8
0
100
AcDbLine
 10
1497.735225
 20
722.550816
 30
0.0
 11
1497.735225
 21
684.506741
 31
0.0
  0
ARC
  5
30FF
100
AcDbEntity
  8
0
100
AcDbCircle
 10
1456.278958
 20
694.278779
 30
0.0
 40
26.687435
100
AcDbArc
 50
339.720195
 51
20.279805
  0
LINE
  5
3100
100
AcDbEntity
  8
0
100
AcDbLine
 10
1536.922961
 20
501.857506
 30
0.0
 11
1497.735225
 21
506.522712
 31
0.0
  0
LINE
  5
3101
100
AcDbEntity
  8
0
100
AcDbLine
 10
1536.922961
 20
549.231994
 30
0.0
 11
1497.735225
 21
544.566787
 31
0.0
  0
CIRCLE
  5
3102
100
AcDbEntity
  8
0
100
AcDbCircle
 10
1469.956206
 20
546.050847
 30
0.0
 40
6.30876
  0
LINE
  5
3103
100
AcDbEntity
  8
0
100
AcDbLine
 10
1466.203206
 20
539.550847
 30
0.0
 11
1462.450206
 21
546.050847
 31
0.0
  0
LINE
  5
3104
100
AcDbEntity
  8
0
100
AcDbLine
 10
1477.462206
 20
546.050847
 30
0.0
 11
1473.709206
 21
539.550847
 31
0.0
  0
LINE
  5
3105
100
AcDbEntity
  8
0
100
AcDbLine
 10
1480.25011
 20
525.54475
 30
0.0
 11
1478.194769
 21
548.564561
 31
0.0
  0
LINE
  5
3106
100
AcDbEntity
  8
0
100
AcDbLine
 10
1484.835525
 20
542.939388
 30
0.0
 11
1482.966393
 21
548.06141
 31
0.0
  0
ARC
  5
3107
100
AcDbEntity
  8
0
100
AcDbCircle
 10
1471.55459
 20
542.14357
 30
0.0
 40
11.411802
100
AcDbArc
 50
328.763493
 51
31.236507
  0
LINE
  5
3108
100
AcDbEntity
  8
0
100
AcDbLine
 10
1490.990451
 20
541.54475
 30
0.0
 11
1495.990451
 21
541.54475
 31
0.0
  0
LINE
  5
3109
100
AcDbEntity
  8
0
100
AcDbLine
 10
1490.990451
 20
509.54475
 30
0.0
 11
1495.990451
 21
509.54475
 31
0.0
  0
LINE
  5
310A
100
AcDbEntity
  8
0
100
AcDbLine
 10
1490.990451
 20
509.54475
 30
0.0
 11
1490.990451
 21
541.54475
 31
0.0
  0
LINE
  5
310B
100
AcDbEntity
  8
0
100
AcDbLine
 10
1484.835525
 20
542.939388
 30
0.0
 11
1484.835525
 21
508.150112
 31
0.0
  0
LINE
  5
310C
100
AcDbEntity
  8
0
100
AcDbLine
 10
1478.194769
 20
502.524938
 30
0.0
 11
1480.25011
 21
525.54475
 31
0.0
  0
ARC
  5
310D
100
AcDbEntity
  8
0
100
AcDbCircle
 10
1447.658866
 20
525.54475
 30
0.0
 40
35.307526
100
AcDbArc
 50
342.391407
 51
17.608593
  0
LINE
  5
310E
100
AcDbEntity
  8
0
100
AcDbLine
 10
1478.194769
 20
502.524938
 30
0.0
 11
1472.75011
 21
497.54475
 31
0.0
  0
LINE
  5
310F
100
AcDbEntity
  8
0
100
AcDbLine
 10
1479.280467
 20
518.04475
 30
0.0
 11
1468.518116
 21
516.562708
 31
0.0
  0
LINE
  5
3110
100
AcDbEntity
  8
0
100
AcDbLine
 10
1466.203206
 20
498.538653
 30
0.0
 11
1462.450206
 21
505.038653
 31
0.0
  0
CIRCLE
  5
3111
100
AcDbEntity
  8
0
100
AcDbCircle
 10
1469.956206
 20
505.038653
 30
0.0
 40
6.30876
  0
LINE
  5
3112
100
AcDbEntity
  8
0
100
AcDbLine
 10
1477.462206
 20
505.038653
 30
0.0
 11
1473.709206
 21
498.538653
 31
0.0
  0
LINE
  5
3113
100
AcDbEntity
  8
0
100
AcDbLine
 10
1473.709206
 20
498.538653
 30
0.0
 11
1466.203206
 21
498.538653
 31
0.0
  0
LINE
  5
3114
100
AcDbEntity
  8
0
100
AcDbLine
 10
1466.203206
 20
511.538653
 30
0.0
 11
1473.709206
 21
511.538653
 31
0.0
  0
LINE
  5
3115
100
AcDbEntity
  8
0
100
AcDbLine
 10
1462.450206
 20
505.038653
 30
0.0
 11
1466.203206
 21
511.538653
 31
0.0
  0
LINE
  5
3116
100
AcDbEntity
  8
0
100
AcDbLine
 10
1473.709206
 20
511.538653
 30
0.0
 11
1477.462206
 21
505.038653
 31
0.0
  0
ARC
  5
3117
100
AcDbEntity
  8
0
100
AcDbCircle
 10
1486.563734
 20
514.802063
 30
0.0
 40
6.872784
100
AcDbArc
 50
255.436263
 51
310.097754
  0
LINE
  5
3118
100
AcDbEntity
  8
0
100
AcDbLine
 10
1478.239693
 20
503.028089
 30
0.0
 11
1482.966393
 21
503.028089
 31
0.0
  0
LINE
  5
3119
100
AcDbEntity
  8
0
100
AcDbLine
 10
1484.835525
 20
508.150112
 30
0.0
 11
1482.966393
 21
503.028089
 31
0.0
  0
ARC
  5
311A
100
AcDbEntity
  8
0
100
AcDbCircle
 10
1471.55459
 20
508.94593
 30
0.0
 40
11.411802
100
AcDbArc
 50
328.763493
 51
31.236507
  0
LINE
  5
311B
100
AcDbEntity
  8
0
100
AcDbLine
 10
1479.280467
 20
533.04475
 30
0.0
 11
1468.518116
 21
534.526792
 31
0.0
  0
LINE
  5
311C
100
AcDbEntity
  8
0
100
AcDbLine
 10
1473.709206
 20
539.550847
 30
0.0
 11
1466.203206
 21
539.550847
 31
0.0
  0
ARC
  5
311D
100
AcDbEntity
  8
0
100
AcDbCircle
 10
1486.563734
 20
536.287437
 30
0.0
 40
6.872784
100
AcDbArc
 50
49.902246
 51
104.563737
  0
LINE
  5
311E
100
AcDbEntity
  8
0
100
AcDbLine
 10
1497.735225
 20
506.522712
 30
0.0
 11
1497.735225
 21
544.566787
 31
0.0
  0
LINE
  5
311F
100
AcDbEntity
  8
0
100
AcDbLine
 10
1495.990451
 20
509.54475
 30
0.0
 11
1495.990451
 21
541.54475
 31
0.0
  0
LINE
  5
3120
100
AcDbEntity
  8
0
100
AcDbLine
 10
1495.990451
 20
509.54475
 30
0.0
 11
1497.735225
 21
506.522712
 31
0.0
  0
LINE
  5
3121
100
AcDbEntity
  8
0
100
AcDbLine
 10
1495.990451
 20
541.54475
 30
0.0
 11
1497.735225
 21
544.566787
 31
0.0
  0
LINE
  5
3122
100
AcDbEntity
  8
0
100
AcDbLine
 10
1478.194769
 20
548.564561
 30
0.0
 11
1472.75011
 21
553.54475
 31
0.0
  0
LINE
  5
3123
100
AcDbEntity
  8
0
100
AcDbLine
 10
1466.203206
 20
552.550847
 30
0.0
 11
1473.709206
 21
552.550847
 31
0.0
  0
LINE
  5
3124
100
AcDbEntity
  8
0
100
AcDbLine
 10
1462.450206
 20
546.050847
 30
0.0
 11
1466.203206
 21
552.550847
 31
0.0
  0
LINE
  5
3125
100
AcDbEntity
  8
0
100
AcDbLine
 10
1473.709206
 20
552.550847
 30
0.0
 11
1477.462206
 21
546.050847
 31
0.0
  0
LINE
  5
3126
100
AcDbEntity
  8
0
100
AcDbLine
 10
1478.239693
 20
548.06141
 30
0.0
 11
1482.966393
 21
548.06141
 31
0.0
  0
LINE
  5
3127
100
AcDbEntity
  8
0
100
AcDbLine
 10
1554.45011
 20
525.54475
 30
0.0
 11
1554.45011
 21
588.04475
 31
0.0
  0
ARC
  5
3128
100
AcDbEntity
  8
0
100
AcDbCircle
 10
1536.45011
 20
497.885553
 30
0.0
 40
4.0
100
AcDbArc
 50
0.0
 51
83.211025
  0
ARC
  5
3129
100
AcDbEntity
  8
0
100
AcDbCircle
 10
1536.45011
 20
553.203947
 30
0.0
 40
4.0
100
AcDbArc
 50
276.788975
 51
0.0
  0
LINE
  5
312A
100
AcDbEntity
  8
0
100
AcDbLine
 10
1554.45011
 20
588.04475
 30
0.0
 11
1540.45011
 21
588.04475
 31
0.0
  0
LINE
  5
312B
100
AcDbEntity
  8
0
100
AcDbLine
 10
1536.922961
 20
679.841534
 30
0.0
 11
1497.735225
 21
684.506741
 31
0.0
  0
LINE
  5
312C
100
AcDbEntity
  8
0
100
AcDbLine
 10
1490.990451
 20
687.528779
 30
0.0
 11
1495.990451
 21
687.528779
 31
0.0
  0
LINE
  5
312D
100
AcDbEntity
  8
0
100
AcDbLine
 10
1478.45011
 20
685.028779
 30
0.0
 11
1477.45011
 21
684.028779
 31
0.0
  0
ARC
  5
312E
100
AcDbEntity
  8
0
100
AcDbCircle
 10
1487.279052
 20
697.080422
 30
0.0
 40
10.24736
100
AcDbArc
 50
252.918499
 51
291.234196
  0
LINE
  5
312F
100
AcDbEntity
  8
0
100
AcDbLine
 10
1484.269078
 20
687.285095
 30
0.0
 11
1482.966393
 21
685.028779
 31
0.0
  0
LINE
  5
3130
100
AcDbEntity
  8
0
100
AcDbLine
 10
1482.966393
 20
685.028779
 30
0.0
 11
1478.45011
 21
685.028779
 31
0.0
  0
LINE
  5
3131
100
AcDbEntity
  8
0
100
AcDbLine
 10
1495.990451
 20
687.528779
 30
0.0
 11
1497.735225
 21
684.506741
 31
0.0
  0
LINE
  5
3132
100
AcDbEntity
  8
0
100
AcDbLine
 10
1540.45011
 20
641.028779
 30
0.0
 11
1554.45011
 21
641.028779
 31
0.0
  0
ARC
  5
3133
100
AcDbEntity
  8
0
100
AcDbCircle
 10
1536.45011
 20
675.869581
 30
0.0
 40
4.0
100
AcDbArc
 50
0.0
 51
83.211025
  0
LINE
  5
3134
100
AcDbEntity
  8
0
100
AcDbLine
 10
1608.812593
 20
710.923203
 30
0.0
 11
1589.905843
 21
710.923203
 31
0.0
  0
LINE
  5
3135
100
AcDbEntity
  8
0
100
AcDbLine
 10
1570.997968
 20
704.620953
 30
0.0
 11
1602.510343
 21
704.620953
 31
0.0
  0
LINE
  5
3136
100
AcDbEntity
  8
0
100
AcDbLine
 10
1536.922961
 20
727.216023
 30
0.0
 11
1497.735225
 21
722.550816
 31
0.0
  0
ARC
  5
3137
100
AcDbEntity
  8
0
100
AcDbCircle
 10
1470.45011
 20
740.028779
 30
0.0
 40
2.0
100
AcDbArc
 50
0.0
 51
90.0
  0
ARC
  5
3138
100
AcDbEntity
  8
0
100
AcDbCircle
 10
1478.25011
 20
741.628779
 30
0.0
 40
2.0
100
AcDbArc
 50
0.0
 51
90.0
  0
ARC
  5
3139
100
AcDbEntity
  8
0
100
AcDbCircle
 10
1478.25011
 20
740.028779
 30
0.0
 40
2.0
100
AcDbArc
 50
0.0
 51
90.0
  0
LINE
  5
313A
100
AcDbEntity
  8
0
100
AcDbLine
 10
1490.990451
 20
719.528779
 30
0.0
 11
1495.990451
 21
719.528779
 31
0.0
  0
ARC
  5
313B
100
AcDbEntity
  8
0
100
AcDbCircle
 10
1456.278958
 20
712.778779
 30
0.0
 40
26.687435
100
AcDbArc
 50
339.720195
 51
20.279805
  0
LINE
  5
313C
100
AcDbEntity
  8
0
100
AcDbLine
 10
1472.85011
 20
718.528779
 30
0.0
 11
1472.85011
 21
713.028779
 31
0.0
  0
ARC
  5
313D
100
AcDbEntity
  8
0
100
AcDbCircle
 10
1468.25011
 20
713.028779
 30
0.0
 40
2.0
100
AcDbArc
 50
180.0
 51
270.0
  0
LINE
  5
313E
100
AcDbEntity
  8
0
100
AcDbLine
 10
1466.25011
 20
715.028779
 30
0.0
 11
1466.25011
 21
713.028779
 31
0.0
  0
ARC
  5
313F
100
AcDbEntity
  8
0
100
AcDbCircle
 10
1470.85011
 20
713.028779
 30
0.0
 40
2.0
100
AcDbArc
 50
270.0
 51
0.0
  0
LINE
  5
3140
100
AcDbEntity
  8
0
100
AcDbLine
 10
1468.25011
 20
711.028779
 30
0.0
 11
1470.85011
 21
711.028779
 31
0.0
  0
LINE
  5
3141
100
AcDbEntity
  8
0
100
AcDbLine
 10
1481.31207
 20
703.528779
 30
0.0
 11
1478.45011
 21
703.528779
 31
0.0
  0
LINE
  5
3142
100
AcDbEntity
  8
0
100
AcDbLine
 10
1472.45011
 20
740.028779
 30
0.0
 11
1472.45011
 21
735.028779
 31
0.0
  0
LINE
  5
3143
100
AcDbEntity
  8
0
100
AcDbLine
 10
1465.956206
 20
733.028779
 30
0.0
 11
1465.956206
 21
728.528779
 31
0.0
  0
ARC
  5
3144
100
AcDbEntity
  8
0
100
AcDbCircle
 10
1470.45011
 20
735.028779
 30
0.0
 40
2.0
100
AcDbArc
 50
270.0
 51
0.0
  0
LINE
  5
3145
100
AcDbEntity
  8
0
100
AcDbLine
 10
1473.956206
 20
728.528779
 30
0.0
 11
1473.956206
 21
733.028779
 31
0.0
  0
LINE
  5
3146
100
AcDbEntity
  8
0
100
AcDbLine
 10
1480.25011
 20
741.628779
 30
0.0
 11
1480.25011
 21
735.028779
 31
0.0
  0
LINE
  5
3147
100
AcDbEntity
  8
0
100
AcDbLine
 10
1480.25011
 20
728.528779
 30
0.0
 11
1480.25011
 21
718.528779
 31
0.0
  0
LINE
  5
3148
100
AcDbEntity
  8
0
100
AcDbLine
 10
1484.269078
 20
719.772462
 30
0.0
 11
1482.966393
 21
722.028779
 31
0.0
  0
ARC
  5
3149
100
AcDbEntity
  8
0
100
AcDbCircle
 10
1487.279052
 20
709.977135
 30
0.0
 40
10.24736
100
AcDbArc
 50
68.765804
 51
107.081501
  0
ARC
  5
314A
100
AcDbEntity
  8
0
100
AcDbCircle
 10
1478.25011
 20
735.028779
 30
0.0
 40
2.0
100
AcDbArc
 50
270.0
 51
0.0
  0
LINE
  5
314B
100
AcDbEntity
  8
0
100
AcDbLine
 10
1482.966393
 20
722.028779
 30
0.0
 11
1480.25011
 21
722.028779
 31
0.0
  0
LINE
  5
314C
100
AcDbEntity
  8
0
100
AcDbLine
 10
1495.990451
 20
719.528779
 30
0.0
 11
1497.735225
 21
722.550816
 31
0.0
  0
LINE
  5
314D
100
AcDbEntity
  8
0
100
AcDbLine
 10
1478.25011
 20
743.628779
 30
0.0
 11
1477.461706
 21
743.628779
 31
0.0
  0
LINE
  5
314E
100
AcDbEntity
  8
0
100
AcDbLine
 10
1463.647706
 20
748.528779
 30
0.0
 11
1476.265706
 21
748.528779
 31
0.0
  0
ARC
  5
314F
100
AcDbEntity
  8
0
100
AcDbCircle
 10
1469.956706
 20
735.023299
 30
0.0
 40
13.352467
100
AcDbArc
 50
73.680297
 51
106.319703
  0
LINE
  5
3150
100
AcDbEntity
  8
0
100
AcDbLine
 10
1462.450706
 20
742.028779
 30
0.0
 11
1462.450706
 21
747.837779
 31
0.0
  0
LINE
  5
3151
100
AcDbEntity
  8
0
100
AcDbLine
 10
1462.450706
 20
747.837779
 30
0.0
 11
1463.647706
 21
748.528779
 31
0.0
  0
LINE
  5
3152
100
AcDbEntity
  8
0
100
AcDbLine
 10
1466.204706
 20
747.837779
 30
0.0
 11
1466.204706
 21
742.028779
 31
0.0
  0
ARC
  5
3153
100
AcDbEntity
  8
0
100
AcDbCircle
 10
1464.328206
 20
744.83482
 30
0.0
 40
3.541047
100
AcDbArc
 50
57.999406
 51
122.000594
  0
ARC
  5
3154
100
AcDbEntity
  8
0
100
AcDbCircle
 10
1475.585206
 20
744.83482
 30
0.0
 40
3.541047
100
AcDbArc
 50
57.999406
 51
122.000594
  0
LINE
  5
3155
100
AcDbEntity
  8
0
100
AcDbLine
 10
1476.265706
 20
748.528779
 30
0.0
 11
1477.461706
 21
747.837779
 31
0.0
  0
LINE
  5
3156
100
AcDbEntity
  8
0
100
AcDbLine
 10
1477.461706
 20
747.837779
 30
0.0
 11
1477.461706
 21
742.028779
 31
0.0
  0
LINE
  5
3157
100
AcDbEntity
  8
0
100
AcDbLine
 10
1473.708706
 20
747.837779
 30
0.0
 11
1473.708706
 21
742.028779
 31
0.0
  0
LINE
  5
3158
100
AcDbEntity
  8
0
100
AcDbLine
 10
1554.45011
 20
703.528779
 30
0.0
 11
1554.45011
 21
766.028779
 31
0.0
  0
ARC
  5
3159
100
AcDbEntity
  8
0
100
AcDbCircle
 10
1536.45011
 20
731.187976
 30
0.0
 40
4.0
100
AcDbArc
 50
276.788975
 51
0.0
  0
LINE
  5
315A
100
AcDbEntity
  8
0
100
AcDbLine
 10
1586.753593
 20
707.772078
 30
0.0
 11
1577.437468
 21
707.772078
 31
0.0
  0
LINE
  5
315B
100
AcDbEntity
  8
0
100
AcDbLine
 10
1577.437468
 20
710.923203
 30
0.0
 11
1570.997968
 21
704.620953
 31
0.0
  0
LINE
  5
315C
100
AcDbEntity
  8
0
100
AcDbLine
 10
1577.437468
 20
707.772078
 30
0.0
 11
1577.437468
 21
710.923203
 31
0.0
  0
LINE
  5
315D
100
AcDbEntity
  8
0
100
AcDbLine
 10
1589.905843
 20
710.923203
 30
0.0
 11
1586.753593
 21
707.772078
 31
0.0
  0
LINE
  5
315E
100
AcDbEntity
  8
0
100
AcDbLine
 10
1554.45011
 20
766.028779
 30
0.0
 11
1540.45011
 21
766.028779
 31
0.0
  0
LINE
  5
315F
100
AcDbEntity
  8
0
100
AcDbLine
 10
1602.510343
 20
704.620953
 30
0.0
 11
1608.812593
 21
710.923203
 31
0.0
  0
VIEWPORT
  5
41
100
AcDbEntity
 67
     1
  8
0
100
AcDbViewport
 10
117.358407
 20
73.5
 30
0.0
 40
234.716814
 41
147.0
 68
    -1
 69
     1
1001
ACAD
1000
MVIEW
1002
{
1070
    16
1010
0.0
1020
0.0
1030
0.0
1010
0.0
1020
0.0
1030
1.0
1040
0.0
1040
147.0
1040
117.358407
1040
73.5
1040
50.0
1040
0.0
1040
0.0
1070
     0
1070
   100
1070
     1
1070
     1
1070
     0
1070
     0
1070
     0
1070
     0
1040
0.0
1040
0.0
1040
0.0
1040
1.0
1040
1.0
1040
0.0
1040
0.0
1070
     0
1002
{
1002
}
1002
}
  0
ENDSEC
  0
SECTION
  2
OBJECTS
  0
DICTIONARY
  5
C
100
AcDbDictionary
  3
ACAD_GROUP
350
D
  3
ACAD_MLINESTYLE
350
E
  0
DICTIONARY
  5
D
102
{ACAD_REACTORS
330
C
102
}
100
AcDbDictionary
  0
DICTIONARY
  5
E
102
{ACAD_REACTORS
330
C
102
}
100
AcDbDictionary
  3
STANDARD
350
1B
  0
MLINESTYLE
  5
1B
102
{ACAD_REACTORS
330
E
102
}
100
AcDbMlineStyle
  2
STANDARD
 70
     0
  3

 62
     0
 51
90.0
 52
90.0
 71
     2
 49
0.5
 62
   256
  6
BYLAYER
 49
-0.5
 62
   256
  6
BYLAYER
  0
ENDSEC
  0
EOF
