  0
SECTION
  2
HEADER
  9
$ACADVER
  1
AC1012
  9
$DWGCODEPAGE
  3
dos932
  9
$INSBASE
 10
0.0
 20
0.0
 30
0.0
  9
$EXTMIN
 10
33.0
 20
15.0
 30
0.0
  9
$EXTMAX
 10
858.0
 20
573.0
 30
0.0
  9
$LIMMIN
 10
0.0
 20
0.0
  9
$LIMMAX
 10
891.0
 20
630.0
  9
$ORTHOMODE
 70
     1
  9
$REGENMODE
 70
     1
  9
$FILLMODE
 70
     1
  9
$QTEXTMODE
 70
     0
  9
$MIRRTEXT
 70
     1
  9
$DRAGMODE
 70
     2
  9
$LTSCALE
 40
12.0
  9
$OSMODE
 70
     0
  9
$ATTMODE
 70
     1
  9
$TEXTSIZE
 40
12.0
  9
$TRACEWID
 40
0.05
  9
$TEXTSTYLE
  7
STANDARD
  9
$CLAYER
  8
0
  9
$CELTYPE
  6
BYLAYER
  9
$CECOLOR
 62
   256
  9
$CELTSCALE
 40
1.0
  9
$DELOBJ
 70
     1
  9
$DISPSILH
 70
     0
  9
$DIMSCALE
 40
3.0
  9
$DIMASZ
 40
2.799999999999999
  9
$DIMEXO
 40
1.0
  9
$DIMDLI
 40
5.0
  9
$DIMRND
 40
0.1
  9
$DIMDLE
 40
0.0
  9
$DIMEXE
 40
1.0
  9
$DIMTP
 40
0.0
  9
$DIMTM
 40
0.0
  9
$DIMTXT
 40
2.5
  9
$DIMCEN
 40
0.0
  9
$DIMTSZ
 40
0.0
  9
$DIMTOL
 70
     0
  9
$DIMLIM
 70
     0
  9
$DIMTIH
 70
     0
  9
$DIMTOH
 70
     0
  9
$DIMSE1
 70
     0
  9
$DIMSE2
 70
     0
  9
$DIMTAD
 70
     3
  9
$DIMZIN
 70
     8
  9
$DIMBLK
  1

  9
$DIMASO
 70
     1
  9
$DIMSHO
 70
     1
  9
$DIMPOST
  1

  9
$DIMAPOST
  1

  9
$DIMALT
 70
     0
  9
$DIMALTD
 70
     2
  9
$DIMALTF
 40
1.0
  9
$DIMLFAC
 40
1.0
  9
$DIMTOFL
 70
     1
  9
$DIMTVP
 40
0.0
  9
$DIMTIX
 70
     0
  9
$DIMSOXD
 70
     0
  9
$DIMSAH
 70
     1
  9
$DIMBLK1
  1
OPEN
  9
$DIMBLK2
  1
OPEN
  9
$DIMSTYLE
  2
DIM1
  9
$DIMCLRD
 70
     2
  9
$DIMCLRE
 70
     2
  9
$DIMCLRT
 70
     2
  9
$DIMTFAC
 40
0.7
  9
$DIMGAP
 40
0.85
  9
$DIMJUST
 70
     0
  9
$DIMSD1
 70
     0
  9
$DIMSD2
 70
     0
  9
$DIMTOLJ
 70
     1
  9
$DIMTZIN
 70
     8
  9
$DIMALTZ
 70
     8
  9
$DIMALTTZ
 70
     8
  9
$DIMFIT
 70
     3
  9
$DIMUPT
 70
     0
  9
$DIMUNIT
 70
     2
  9
$DIMDEC
 70
     2
  9
$DIMTDEC
 70
     3
  9
$DIMALTU
 70
     2
  9
$DIMALTTD
 70
     3
  9
$DIMTXSTY
  7
DIM
  9
$DIMAUNIT
 70
     0
  9
$LUNITS
 70
     2
  9
$LUPREC
 70
     4
  9
$SKETCHINC
 40
0.1
  9
$FILLETRAD
 40
0.0
  9
$AUNITS
 70
     0
  9
$AUPREC
 70
     0
  9
$MENU
  1
C:\ACADR13\WIN\SUPPORT\ACAD.mnc
  9
$ELEVATION
 40
0.0
  9
$PELEVATION
 40
0.0
  9
$THICKNESS
 40
0.0
  9
$LIMCHECK
 70
     0
  9
$BLIPMODE
 70
     0
  9
$CHAMFERA
 40
0.0
  9
$CHAMFERB
 40
0.0
  9
$CHAMFERC
 40
0.0
  9
$CHAMFERD
 40
0.0
  9
$SKPOLY
 70
     0
  9
$TDCREATE
 40
2451564.587411898
  9
$TDUPDATE
 40
2452129.434563981
  9
$TDINDWG
 40
0.0095554167
  9
$TDUSRTIMER
 40
0.0095554167
  9
$USRTIMER
 70
     1
  9
$ANGBASE
 50
0.0
  9
$ANGDIR
 70
     0
  9
$PDMODE
 70
     0
  9
$PDSIZE
 40
0.0
  9
$PLINEWID
 40
0.0
  9
$COORDS
 70
     2
  9
$SPLFRAME
 70
     0
  9
$SPLINETYPE
 70
     6
  9
$SPLINESEGS
 70
     8
  9
$ATTDIA
 70
     0
  9
$ATTREQ
 70
     1
  9
$HANDLING
 70
-16383
  9
$HANDSEED
  5
32EC
  9
$SURFTAB1
 70
     6
  9
$SURFTAB2
 70
     6
  9
$SURFTYPE
 70
     6
  9
$SURFU
 70
     6
  9
$SURFV
 70
     6
  9
$UCSNAME
  2

  9
$UCSORG
 10
0.0
 20
0.0
 30
0.0
  9
$UCSXDIR
 10
1.0
 20
0.0
 30
0.0
  9
$UCSYDIR
 10
0.0
 20
1.0
 30
0.0
  9
$PUCSNAME
  2

  9
$PUCSORG
 10
0.0
 20
0.0
 30
0.0
  9
$PUCSXDIR
 10
1.0
 20
0.0
 30
0.0
  9
$PUCSYDIR
 10
0.0
 20
1.0
 30
0.0
  9
$USERI1
 70
     0
  9
$USERI2
 70
     0
  9
$USERI3
 70
     0
  9
$USERI4
 70
     0
  9
$USERI5
 70
     0
  9
$USERR1
 40
0.0
  9
$USERR2
 40
0.0
  9
$USERR3
 40
0.0
  9
$USERR4
 40
0.0
  9
$USERR5
 40
0.0
  9
$WORLDVIEW
 70
     1
  9
$SHADEDGE
 70
     3
  9
$SHADEDIF
 70
    70
  9
$TILEMODE
 70
     1
  9
$MAXACTVP
 70
    16
  9
$PINSBASE
 10
0.0
 20
0.0
 30
0.0
  9
$PLIMCHECK
 70
     0
  9
$PEXTMIN
 10
1.000000000000000E+20
 20
1.000000000000000E+20
 30
1.000000000000000E+20
  9
$PEXTMAX
 10
-1.000000000000000E+20
 20
-1.000000000000000E+20
 30
-1.000000000000000E+20
  9
$PLIMMIN
 10
0.0
 20
0.0
  9
$PLIMMAX
 10
20.0
 20
147.0
  9
$UNITMODE
 70
     0
  9
$VISRETAIN
 70
     0
  9
$PLINEGEN
 70
     0
  9
$PSLTSCALE
 70
     1
  9
$TREEDEPTH
 70
  3020
  9
$PICKSTYLE
 70
     1
  9
$CMLSTYLE
  2
STANDARD
  9
$CMLJUST
 70
     0
  9
$CMLSCALE
 40
1.0
  9
$SAVEIMAGES
 70
     1
  0
ENDSEC
  0
SECTION
  2
CLASSES
  0
CLASS
  1
LWPOLYLINE
  2
AcDbPolyline
  3
AutoCAD 2000
 90
    32768
280
     0
281
     1
  0
CLASS
  1
ACDBDICTIONARYWDFLT
  2
AcDbDictionaryWithDefault
  3
AutoCAD 2000
 90
    32768
280
     0
281
     0
  0
CLASS
  1
ACDBPLACEHOLDER
  2
AcDbPlaceHolder
  3
AutoCAD 2000
 90
    32768
280
     0
281
     0
  0
CLASS
  1
LAYOUT
  2
AcDbLayout
  3
AutoCAD 2000
 90
    32768
280
     0
281
     0
  0
CLASS
  1
LONG_TRANSACTION
  2
AcDbLongTransaction
  3
AutoCAD 2000
 90
    32768
280
     0
281
     0
  0
CLASS
  1
LWPOLYLINE
  2
AcDbPolyline
  3
AutoCAD 2000
 90
    32768
280
     0
281
     1
  0
CLASS
  1
HATCH
  2
AcDbHatch
  3
AutoCAD 2000
 90
    32768
280
     0
281
     1
  0
CLASS
  1
XRECORD
  2
AcDbXrecord
  3
AutoCAD 2000
 90
    32768
280
     0
281
     0
  0
ENDSEC
  0
SECTION
  2
TABLES
  0
TABLE
  2
VPORT
  5
8
330
0
100
AcDbSymbolTable
 70
     3
  0
VPORT
  5
32AC
330
8
100
AcDbSymbolTableRecord
100
AcDbViewportTableRecord
  2
*ACTIVE
 70
     0
 10
0.0
 20
0.0
 11
1.0
 21
1.0
 12
648.4728233466624
 22
326.6337234047421
 13
0.0
 23
0.0
 14
1.0
 24
1.0
 15
0.0
 25
0.0
 16
0.0
 26
0.0
 36
1.0
 17
0.0
 27
0.0
 37
0.0
 40
653.2674468094843
 41
1.98532110091743
 42
50.0
 43
0.0
 44
0.0
 50
0.0
 51
0.0
 71
     0
 72
   100
 73
     1
 74
     1
 75
     0
 76
     0
 77
     0
 78
     0
  0
ENDTAB
  0
TABLE
  2
LTYPE
  5
5
330
0
100
AcDbSymbolTable
 70
     1
  0
LTYPE
  5
12
330
5
100
AcDbSymbolTableRecord
100
AcDbLinetypeTableRecord
  2
BYBLOCK
 70
     0
  3

 72
    65
 73
     0
 40
0.0
  0
LTYPE
  5
13
330
5
100
AcDbSymbolTableRecord
100
AcDbLinetypeTableRecord
  2
BYLAYER
 70
     0
  3

 72
    65
 73
     0
 40
0.0
  0
LTYPE
  5
14
330
5
100
AcDbSymbolTableRecord
100
AcDbLinetypeTableRecord
  2
CONTINUOUS
 70
     0
  3
Solid line
 72
    65
 73
     0
 40
0.0
  0
ENDTAB
  0
TABLE
  2
LAYER
  5
2
330
0
100
AcDbSymbolTable
 70
     1
  0
LAYER
  5
F
330
2
100
AcDbSymbolTableRecord
100
AcDbLayerTableRecord
  2
0
 70
     0
 62
     7
  6
CONTINUOUS
  0
ENDTAB
  0
TABLE
  2
STYLE
  5
3
330
0
100
AcDbSymbolTable
 70
     3
  0
STYLE
  5
10
330
3
100
AcDbSymbolTableRecord
100
AcDbTextStyleTableRecord
  2
STANDARD
 70
     0
 40
0.0
 41
0.8
 50
0.0
 71
     0
 42
12.0
  3
simplex
  4
extfont
  0
STYLE
  5
237C
330
3
100
AcDbSymbolTableRecord
100
AcDbTextStyleTableRecord
  2
PTSH
 70
     0
 40
0.0
 41
0.9
 50
0.0
 71
     0
 42
4.0
  3
SIMPLEX
  4
EXTFONT
  0
STYLE
  5
2592
330
3
100
AcDbSymbolTableRecord
100
AcDbTextStyleTableRecord
  2
DIM
 70
     0
 40
0.0
 41
0.8
 50
0.0
 71
     0
 42
4.0
  3
simplex
  4
extfont
  0
ENDTAB
  0
TABLE
  2
VIEW
  5
6
330
0
100
AcDbSymbolTable
 70
     0
  0
ENDTAB
  0
TABLE
  2
UCS
  5
7
330
0
100
AcDbSymbolTable
 70
     0
  0
ENDTAB
  0
TABLE
  2
APPID
  5
9
330
0
100
AcDbSymbolTable
 70
     1
  0
APPID
  5
11
330
9
100
AcDbSymbolTableRecord
100
AcDbRegAppTableRecord
  2
ACAD
 70
     0
  0
ENDTAB
  0
TABLE
  2
DIMSTYLE
  5
A
330
0
100
AcDbSymbolTable
 70
     1
  0
DIMSTYLE
105
2237
330
A
100
AcDbSymbolTableRecord
100
AcDbDimStyleTableRecord
  2
DIM1
 70
     0
  3

  4

  5

  6
OPEN
  7
OPEN
 40
3.0
 41
2.799999999999999
 42
1.0
 43
5.0
 44
1.0
 45
0.1
 46
0.0
 47
0.0
 48
0.0
140
2.5
141
0.0
142
0.0
143
1.0
144
1.0
145
0.0
146
0.7
147
0.85
 71
     0
 72
     0
 73
     0
 74
     0
 75
     0
 76
     0
 77
     3
 78
     8
170
     0
171
     2
172
     1
173
     1
174
     0
175
     0
176
     2
177
     2
178
     2
270
     2
271
     2
272
     3
273
     2
274
     3
340
2592
275
     0
280
     0
281
     0
282
     0
283
     1
284
     8
285
     8
286
     8
287
     3
288
     0
  0
ENDTAB
  0
TABLE
  2
BLOCK_RECORD
  5
1
330
0
100
AcDbSymbolTable
 70
     1
  0
BLOCK_RECORD
  5
18
102
{ACAD_XDICTIONARY
360
32AF
102
}
330
1
100
AcDbSymbolTableRecord
100
AcDbBlockTableRecord
  2
*MODEL_SPACE
  0
BLOCK_RECORD
  5
15
102
{ACAD_XDICTIONARY
360
32AD
102
}
330
1
100
AcDbSymbolTableRecord
100
AcDbBlockTableRecord
  2
*PAPER_SPACE
  0
BLOCK_RECORD
  5
2448
330
1
100
AcDbSymbolTableRecord
100
AcDbBlockTableRecord
  2
_OPEN
  0
ENDTAB
  0
ENDSEC
  0
SECTION
  2
BLOCKS
  0
BLOCK
  5
3C
330
18
100
AcDbEntity
  8
0
100
AcDbBlockBegin
  2
*MODEL_SPACE
 70
     0
 10
0.0
 20
0.0
 30
0.0
  3
*MODEL_SPACE
  1

  0
ENDBLK
  5
3D
330
18
100
AcDbEntity
  8
0
100
AcDbBlockEnd
  0
BLOCK
  5
3A
330
15
100
AcDbEntity
 67
     1
  8
0
100
AcDbBlockBegin
  2
*PAPER_SPACE
 70
     0
 10
0.0
 20
0.0
 30
0.0
  3
*PAPER_SPACE
  1

  0
ENDBLK
  5
3B
330
15
100
AcDbEntity
 67
     1
  8
0
100
AcDbBlockEnd
  0
BLOCK
  5
2449
330
2448
100
AcDbEntity
  8
0
 48
4.0
100
AcDbBlockBegin
  2
_OPEN
 70
     0
 10
0.0
 20
0.0
 30
0.0
  3
_OPEN
  1
H1111.DWG
  0
LINE
  5
244A
330
2448
100
AcDbEntity
  8
0
  6
BYBLOCK
 62
     0
 48
4.0
100
AcDbLine
 10
-1.0
 20
0.1666666666666666
 30
0.0
 11
0.0
 21
0.0
 31
0.0
  0
LINE
  5
244B
330
2448
100
AcDbEntity
  8
0
  6
BYBLOCK
 62
     0
 48
4.0
100
AcDbLine
 10
0.0
 20
0.0
 30
0.0
 11
-1.0
 21
-0.1666666666666666
 31
0.0
  0
LINE
  5
244C
330
2448
100
AcDbEntity
  8
0
  6
BYBLOCK
 62
     0
 48
4.0
100
AcDbLine
 10
0.0
 20
0.0
 30
0.0
 11
-1.0
 21
0.0
 31
0.0
  0
ENDBLK
  5
244D
330
2448
100
AcDbEntity
  8
0
 48
4.0
100
AcDbBlockEnd
  0
ENDSEC
  0
SECTION
  2
ENTITIES
  0
MTEXT
  5
ADA
330
18
100
AcDbEntity
  8
0
100
AcDbMText
 10
1140.417839315123
 20
149.5389334086683
 30
0.0
 40
0.6000000000000001
 41
141.6793945462386
 71
     1
 72
     1
  1

1001
ACAD
1000
MTEXTBEGIN
1070
    73
1070
     1
1070
    44
1040
1.0
1070
    74
1070
     0
1000
MTEXTEND
  0
MTEXT
  5
ADB
330
18
100
AcDbEntity
  8
0
100
AcDbMText
 10
1167.149799500743
 20
173.5523811986972
 30
0.0
 40
0.6000000000000001
 41
136.333002509114
 71
     1
 72
     1
  1

1001
ACAD
1000
MTEXTBEGIN
1070
    73
1070
     1
1070
    44
1040
1.0
1070
    74
1070
     0
1000
MTEXTEND
  0
MTEXT
  5
ADC
330
18
100
AcDbEntity
  8
0
100
AcDbMText
 10
1151.110623389371
 20
-143.958739216478
 30
0.0
 40
0.6000000000000001
 41
155.0453746390494
 71
     1
 72
     1
  1

1001
ACAD
1000
MTEXTBEGIN
1070
    73
1070
     1
1070
    44
1040
1.0
1070
    74
1070
     0
1000
MTEXTEND
  0
TEXT
  5
2529
330
18
100
AcDbEntity
  8
0
  6
CONTINUOUS
100
AcDbText
 10
809.5358191075845
 20
21.69354825399841
 30
0.0
 40
8.0
  1
LA13_21
 41
0.9
  7
PTSH
 72
     1
 11
830.7929619647275
 21
25.69354825399841
 31
0.0
100
AcDbText
 73
     2
  0
POLYLINE
  5
2563
330
18
100
AcDbEntity
  8
0
100
AcDb2dPolyline
 66
     1
 10
0.0
 20
0.0
 30
0.0
 70
     1
  0
VERTEX
  5
32B1
330
2563
100
AcDbEntity
  8
0
100
AcDbVertex
100
AcDb2dVertex
 10
33.0
 20
15.0
 30
0.0
  0
VERTEX
  5
32B2
330
2563
100
AcDbEntity
  8
0
100
AcDbVertex
100
AcDb2dVertex
 10
858.0
 20
15.0
 30
0.0
  0
VERTEX
  5
32B3
330
2563
100
AcDbEntity
  8
0
100
AcDbVertex
100
AcDb2dVertex
 10
858.0
 20
573.0
 30
0.0
  0
VERTEX
  5
32B4
330
2563
100
AcDbEntity
  8
0
100
AcDbVertex
100
AcDb2dVertex
 10
33.0
 20
573.0
 30
0.0
  0
SEQEND
  5
32B5
330
2563
100
AcDbEntity
  8
0
  0
LINE
  5
2882
330
18
100
AcDbEntity
  8
0
100
AcDbLine
 10
453.6449297817748
 20
485.2997892416854
 30
0.0
 11
412.6449297817748
 21
485.2997892416854
 31
0.0
  0
LINE
  5
2883
330
18
100
AcDbEntity
  8
0
100
AcDbLine
 10
433.1449297817748
 20
425.2997892416853
 30
0.0
 11
453.6449297817748
 21
425.2997892416853
 31
0.0
  0
LINE
  5
2884
330
18
100
AcDbEntity
  8
0
100
AcDbLine
 10
445.9019713369366
 20
483.1347257322242
 30
0.0
 11
443.137888226613
 21
483.1347257322242
 31
0.0
  0
LINE
  5
2885
330
18
100
AcDbEntity
  8
0
100
AcDbLine
 10
445.9019713369366
 20
427.4648527511465
 30
0.0
 11
443.137888226613
 21
427.4648527511465
 31
0.0
  0
LINE
  5
2886
330
18
100
AcDbEntity
  8
0
100
AcDbLine
 10
453.6449297817748
 20
290.4439008158181
 30
0.0
 11
433.1449297817748
 21
290.4439008158181
 31
0.0
  0
LINE
  5
2887
330
18
100
AcDbEntity
  8
0
100
AcDbLine
 10
417.3949297817748
 20
246.443900815818
 30
0.0
 11
448.8949297817748
 21
246.443900815818
 31
0.0
  0
LINE
  5
2888
330
18
100
AcDbEntity
  8
0
100
AcDbLine
 10
417.3949297817748
 20
266.4439008158181
 30
0.0
 11
448.8949297817748
 21
266.4439008158181
 31
0.0
  0
LINE
  5
2889
330
18
100
AcDbEntity
  8
0
100
AcDbLine
 10
416.1449297817748
 20
266.943900815818
 30
0.0
 11
450.1449297817749
 21
266.943900815818
 31
0.0
  0
LINE
  5
288A
330
18
100
AcDbEntity
  8
0
100
AcDbLine
 10
433.1449297817748
 20
230.4439008158181
 30
0.0
 11
453.6449297817748
 21
230.4439008158181
 31
0.0
  0
LINE
  5
288B
330
18
100
AcDbEntity
  8
0
100
AcDbLine
 10
417.1449297817749
 20
333.1794254443768
 30
0.0
 11
449.1449297817748
 21
333.1794254443768
 31
0.0
  0
POLYLINE
  5
288C
330
18
100
AcDbEntity
  8
0
100
AcDb2dPolyline
 66
     1
 10
0.0
 20
0.0
 30
0.0
  0
VERTEX
  5
32B6
330
288C
100
AcDbEntity
  8
0
100
AcDbVertex
100
AcDb2dVertex
 10
434.8518404693536
 20
335.4935497525587
 30
0.0
  0
VERTEX
  5
32B7
330
288C
100
AcDbEntity
  8
0
100
AcDbVertex
100
AcDb2dVertex
 10
451.938019094196
 20
345.358259581033
 30
0.0
  0
SEQEND
  5
32B8
330
288C
100
AcDbEntity
  8
0
  0
LINE
  5
288D
330
18
100
AcDbEntity
  8
0
100
AcDbLine
 10
445.9019713369366
 20
288.2788373063569
 30
0.0
 11
443.137888226613
 21
288.2788373063569
 31
0.0
  0
LINE
  5
288E
330
18
100
AcDbEntity
  8
0
100
AcDbLine
 10
445.9019713369366
 20
232.6089643252791
 30
0.0
 11
443.137888226613
 21
232.6089643252791
 31
0.0
  0
CIRCLE
  5
288F
330
18
100
AcDbEntity
  8
0
100
AcDbCircle
 10
433.1449297817748
 20
358.1794254443768
 30
0.0
 40
15.1455
  0
POLYLINE
  5
2890
330
18
100
AcDbEntity
  8
0
100
AcDb2dPolyline
 66
     1
 10
0.0
 20
0.0
 30
0.0
  0
VERTEX
  5
32B9
330
2890
100
AcDbEntity
  8
0
100
AcDbVertex
100
AcDb2dVertex
 10
451.938019094196
 20
371.0005913077204
 30
0.0
  0
VERTEX
  5
32BA
330
2890
100
AcDbEntity
  8
0
100
AcDbVertex
100
AcDb2dVertex
 10
434.8518404693536
 20
380.865301136195
 30
0.0
  0
SEQEND
  5
32BB
330
2890
100
AcDbEntity
  8
0
  0
CIRCLE
  5
2891
330
18
100
AcDbEntity
  8
0
100
AcDbCircle
 10
433.1449297817748
 20
358.1794254443768
 30
0.0
 40
20.5
  0
LINE
  5
2892
330
18
100
AcDbEntity
  8
0
100
AcDbLine
 10
458.1449297817748
 20
468.2997892416854
 30
0.0
 11
408.1449297817748
 21
468.2997892416854
 31
0.0
  0
LINE
  5
2893
330
18
100
AcDbEntity
  8
0
100
AcDbLine
 10
458.1449297817748
 20
463.2997892416853
 30
0.0
 11
408.1449297817748
 21
463.2997892416853
 31
0.0
  0
LINE
  5
2894
330
18
100
AcDbEntity
  8
0
100
AcDbLine
 10
408.1449297817748
 20
457.2997892416854
 30
0.0
 11
458.1449297817748
 21
457.2997892416854
 31
0.0
  0
LINE
  5
2895
330
18
100
AcDbEntity
  8
0
100
AcDbLine
 10
409.1449297817749
 20
440.7997892416854
 30
0.0
 11
457.1449297817748
 21
440.7997892416854
 31
0.0
  0
LINE
  5
2896
330
18
100
AcDbEntity
  8
0
100
AcDbLine
 10
409.1449297817749
 20
245.943900815818
 30
0.0
 11
457.1449297817748
 21
245.943900815818
 31
0.0
  0
LINE
  5
2897
330
18
100
AcDbEntity
  8
0
100
AcDbLine
 10
458.1449297817748
 20
268.4439008158181
 30
0.0
 11
408.1449297817748
 21
268.4439008158181
 31
0.0
  0
LINE
  5
2898
330
18
100
AcDbEntity
  8
0
100
AcDbLine
 10
458.1449297817748
 20
273.443900815818
 30
0.0
 11
408.1449297817748
 21
273.443900815818
 31
0.0
  0
TEXT
  5
2899
330
18
100
AcDbEntity
  8
0
100
AcDbText
 10
405.2891488411947
 20
163.2325914233949
 30
0.0
 40
10.0
  1
20A,25A
 41
0.8
 11
405.2891488411947
 21
163.2325914233949
 31
0.0
100
AcDbText
 73
     1
  0
CIRCLE
  5
289A
330
18
100
AcDbEntity
  8
0
100
AcDbCircle
 10
433.1449297817748
 20
358.1794254443768
 30
0.0
 40
25.0
  0
LINE
  5
289B
330
18
100
AcDbEntity
  8
0
100
AcDbLine
 10
113.3041722993207
 20
266.9439008158183
 30
0.0
 11
163.3041722993207
 21
266.9439008158178
 31
0.0
  0
LINE
  5
289C
330
18
100
AcDbEntity
  8
0
100
AcDbLine
 10
113.3041722993207
 20
271.9439008158183
 30
0.0
 11
163.3041722993207
 21
271.9439008158178
 31
0.0
  0
LINE
  5
289D
330
18
100
AcDbEntity
  8
0
100
AcDbLine
 10
119.9738695194987
 20
261.4439008158192
 30
0.0
 11
163.3041722993207
 21
261.4439008158178
 31
0.0
  0
LINE
  5
289E
330
18
100
AcDbEntity
  8
0
100
AcDbLine
 10
113.3041722993198
 20
244.4439008158185
 30
0.0
 11
162.3041722993207
 21
244.443900815818
 31
0.0
  0
TEXT
  5
289F
330
18
100
AcDbEntity
  8
0
100
AcDbText
 10
156.9764749564069
 20
163.2325914233949
 30
0.0
 40
10.0
  1
8A,10A,15A
 41
0.8
 11
156.9764749564069
 21
163.2325914233949
 31
0.0
100
AcDbText
 73
     1
  0
TEXT
  5
28A0
330
18
100
AcDbEntity
  8
0
100
AcDbText
 10
212.8201806651826
 20
101.839145687396
 30
0.0
 40
15.0
  1
TLV  LA13(L) (PT)
100
AcDbText
  0
TEXT
  5
28A1
330
18
100
AcDbEntity
  8
0
100
AcDbText
 10
55.86351188050776
 20
245.3622197622455
 30
0.0
 40
10.0
  1
正面
100
AcDbText
  0
LINE
  5
28A2
330
18
100
AcDbEntity
  8
0
100
AcDbLine
 10
113.3041722993207
 20
271.9439008158183
 30
0.0
 11
113.3041722993207
 21
261.4439008158183
 31
0.0
  0
LINE
  5
28A3
330
18
100
AcDbEntity
  8
0
100
AcDbLine
 10
113.3041722993207
 20
265.4439008158181
 30
0.0
 11
119.9738695194987
 21
265.4439008158181
 31
0.0
  0
LINE
  5
28A4
330
18
100
AcDbEntity
  8
0
100
AcDbLine
 10
113.3041722993198
 20
244.4439008158185
 30
0.0
 11
113.3041722993207
 21
265.4439008158181
 31
0.0
  0
LINE
  5
28A5
330
18
100
AcDbEntity
  8
0
100
AcDbLine
 10
119.9738695194978
 20
244.443900815818
 30
0.0
 11
119.9738695194978
 21
265.4439008158181
 31
0.0
  0
ARC
  5
28A6
330
18
100
AcDbEntity
  8
0
100
AcDbCircle
 10
131.5541722993225
 20
249.3882065236002
 30
0.0
 40
18.94430570778217
100
AcDbArc
 50
252.6086979539674
 51
287.3913020460271
  0
LINE
  5
28A7
330
18
100
AcDbEntity
  8
0
100
AcDbLine
 10
126.304172299267
 20
230.4439008158181
 30
0.0
 11
150.3185026157666
 21
230.4439008158181
 31
0.0
  0
LINE
  5
28A8
330
18
100
AcDbEntity
  8
0
100
AcDbLine
 10
125.8917964728684
 20
231.3099262196024
 30
0.0
 11
125.8917964728684
 21
244.4439008158178
 31
0.0
  0
LINE
  5
28A9
330
18
100
AcDbEntity
  8
0
100
AcDbLine
 10
124.8041722992934
 20
231.3099262196024
 30
0.0
 11
124.8041722992934
 21
244.4439008158178
 31
0.0
  0
LINE
  5
28AA
330
18
100
AcDbEntity
  8
0
100
AcDbLine
 10
125.8917964728675
 20
231.3099262196022
 30
0.0
 11
124.804172299267
 21
231.3099262196024
 31
0.0
  0
LINE
  5
28AB
330
18
100
AcDbEntity
  8
0
100
AcDbLine
 10
126.304172299267
 20
230.4439008158178
 30
0.0
 11
124.804172299267
 21
231.3099262196024
 31
0.0
  0
LINE
  5
28AC
330
18
100
AcDbEntity
  8
0
100
AcDbLine
 10
150.7249838078337
 20
231.3099262196024
 30
0.0
 11
150.7249838078337
 21
244.443900815818
 31
0.0
  0
LINE
  5
28AD
330
18
100
AcDbEntity
  8
0
100
AcDbLine
 10
137.2165481257748
 20
231.3099262196026
 30
0.0
 11
137.2165481257748
 21
244.443900815818
 31
0.0
  0
LINE
  5
28AE
330
18
100
AcDbEntity
  8
0
100
AcDbLine
 10
139.3917964728675
 20
231.3099262196024
 30
0.0
 11
139.3917964728675
 21
244.443900815818
 31
0.0
  0
LINE
  5
28AF
330
18
100
AcDbEntity
  8
0
100
AcDbLine
 10
151.8041722993216
 20
231.3099262196026
 30
0.0
 11
151.8041722993216
 21
244.443900815818
 31
0.0
  0
ARC
  5
28B0
330
18
100
AcDbEntity
  8
0
100
AcDbCircle
 10
145.0541722992934
 20
249.3882065234249
 30
0.0
 40
18.944305707607
100
AcDbArc
 50
252.6086979538904
 51
287.3913020461094
  0
LINE
  5
28B1
330
18
100
AcDbEntity
  8
0
100
AcDbLine
 10
139.3917964728675
 20
231.3099262196024
 30
0.0
 11
137.2165481257748
 21
231.3099262196026
 31
0.0
  0
LINE
  5
28B2
330
18
100
AcDbEntity
  8
0
100
AcDbLine
 10
151.8041722993198
 20
231.3099262196022
 30
0.0
 11
150.7165481257193
 21
231.3099262196024
 31
0.0
  0
LINE
  5
28B3
330
18
100
AcDbEntity
  8
0
100
AcDbLine
 10
150.3185026157675
 20
230.4439008158181
 30
0.0
 11
151.8185026157675
 21
231.3099262196026
 31
0.0
  0
LINE
  5
28B4
330
18
100
AcDbEntity
  8
0
100
AcDbLine
 10
126.304172299267
 20
285.943900815818
 30
0.0
 11
150.3185026157666
 21
285.943900815818
 31
0.0
  0
ARC
  5
28B5
330
18
100
AcDbEntity
  8
0
100
AcDbCircle
 10
131.5541722993225
 20
266.9995951080359
 30
0.0
 40
18.94430570778217
100
AcDbArc
 50
72.60869795397283
 51
107.3913020460325
  0
LINE
  5
28B6
330
18
100
AcDbEntity
  8
0
100
AcDbLine
 10
124.8041722992934
 20
285.0778754120337
 30
0.0
 11
124.8041722992934
 21
271.9439008158183
 31
0.0
  0
LINE
  5
28B7
330
18
100
AcDbEntity
  8
0
100
AcDbLine
 10
125.8917964728684
 20
285.0778754120337
 30
0.0
 11
125.8917964728684
 21
271.9439008158183
 31
0.0
  0
LINE
  5
28B8
330
18
100
AcDbEntity
  8
0
100
AcDbLine
 10
126.304172299267
 20
285.9439008158183
 30
0.0
 11
124.804172299267
 21
285.0778754120337
 31
0.0
  0
LINE
  5
28B9
330
18
100
AcDbEntity
  8
0
100
AcDbLine
 10
125.8917964728675
 20
285.077875412034
 30
0.0
 11
124.804172299267
 21
285.0778754120337
 31
0.0
  0
LINE
  5
28BA
330
18
100
AcDbEntity
  8
0
100
AcDbLine
 10
151.8041722993216
 20
285.0778754120335
 30
0.0
 11
151.8041722993216
 21
271.9439008158181
 31
0.0
  0
LINE
  5
28BB
330
18
100
AcDbEntity
  8
0
100
AcDbLine
 10
139.3917964728675
 20
285.0778754120337
 30
0.0
 11
139.3917964728675
 21
271.9439008158181
 31
0.0
  0
LINE
  5
28BC
330
18
100
AcDbEntity
  8
0
100
AcDbLine
 10
137.2165481257748
 20
285.0778754120335
 30
0.0
 11
137.2165481257748
 21
271.9439008158181
 31
0.0
  0
LINE
  5
28BD
330
18
100
AcDbEntity
  8
0
100
AcDbLine
 10
150.7249838078337
 20
285.0778754120337
 30
0.0
 11
150.7249838078337
 21
271.9439008158181
 31
0.0
  0
ARC
  5
28BE
330
18
100
AcDbEntity
  8
0
100
AcDbCircle
 10
145.0541722992934
 20
266.9995951082112
 30
0.0
 40
18.944305707607
100
AcDbArc
 50
72.60869795389051
 51
107.3913020461094
  0
LINE
  5
28BF
330
18
100
AcDbEntity
  8
0
100
AcDbLine
 10
139.3917964728675
 20
285.0778754120337
 30
0.0
 11
137.2165481257748
 21
285.0778754120335
 31
0.0
  0
LINE
  5
28C0
330
18
100
AcDbEntity
  8
0
100
AcDbLine
 10
150.3185026157675
 20
285.943900815818
 30
0.0
 11
151.8185026157675
 21
285.0778754120335
 31
0.0
  0
LINE
  5
28C1
330
18
100
AcDbEntity
  8
0
100
AcDbLine
 10
151.8041722993198
 20
285.077875412034
 30
0.0
 11
150.7165481257193
 21
285.0778754120337
 31
0.0
  0
LINE
  5
28C2
330
18
100
AcDbEntity
  8
0
100
AcDbLine
 10
193.216809102321
 20
192.1568651855166
 30
0.0
 11
193.216809102321
 21
207.2822651855167
 31
0.0
  0
LINE
  5
28C3
330
18
100
AcDbEntity
  8
0
100
AcDbLine
 10
198.2586091023208
 20
222.4085651855166
 30
0.0
 11
198.2586091023208
 21
197.1986651855164
 31
0.0
  0
LINE
  5
28C4
330
18
100
AcDbEntity
  8
0
100
AcDbLine
 10
198.2586091023208
 20
197.1986651855164
 30
0.0
 11
193.216809102321
 21
192.1568651855166
 31
0.0
  0
LINE
  5
28C5
330
18
100
AcDbEntity
  8
0
100
AcDbLine
 10
195.7377091023209
 20
209.8040651855168
 30
0.0
 11
195.7377091023209
 21
217.256965185517
 31
0.0
  0
LINE
  5
28C6
330
18
100
AcDbEntity
  8
0
100
AcDbLine
 10
193.216809102321
 20
207.2822651855167
 30
0.0
 11
195.7377091023209
 21
209.8040651855168
 31
0.0
  0
LINE
  5
28C7
330
18
100
AcDbEntity
  8
0
100
AcDbLine
 10
193.216809102321
 20
217.256965185517
 30
0.0
 11
198.2586091023208
 21
222.4085651855166
 31
0.0
  0
LINE
  5
28C8
330
18
100
AcDbEntity
  8
0
100
AcDbLine
 10
195.7377091023209
 20
217.256965185517
 30
0.0
 11
193.216809102321
 21
217.256965185517
 31
0.0
  0
LINE
  5
28C9
330
18
100
AcDbEntity
  8
0
100
AcDbLine
 10
223.7616882515708
 20
261.4439008158183
 30
0.0
 11
215.7616882515708
 21
261.4439008158181
 31
0.0
  0
LINE
  5
28CA
330
18
100
AcDbEntity
  8
0
100
AcDbLine
 10
223.7616882515708
 20
266.9439008158183
 30
0.0
 11
173.7616882515708
 21
266.9439008158178
 31
0.0
  0
LINE
  5
28CB
330
18
100
AcDbEntity
  8
0
100
AcDbLine
 10
223.7616882515708
 20
271.9439008158183
 30
0.0
 11
173.7616882515708
 21
271.9439008158178
 31
0.0
  0
LINE
  5
28CC
330
18
100
AcDbEntity
  8
0
100
AcDbLine
 10
163.3041722993207
 20
271.9439008158178
 30
0.0
 11
163.3041722993207
 21
261.4439008158178
 31
0.0
  0
LINE
  5
28CD
330
18
100
AcDbEntity
  8
0
100
AcDbLine
 10
173.7616882515708
 20
271.9439008158178
 30
0.0
 11
173.7616882515708
 21
261.4439008158178
 31
0.0
  0
LINE
  5
28CE
330
18
100
AcDbEntity
  8
0
100
AcDbLine
 10
198.7616882515708
 20
230.4439008158181
 30
0.0
 11
185.2616882515708
 21
230.4439008158181
 31
0.0
  0
ARC
  5
28CF
330
18
100
AcDbEntity
  8
0
100
AcDbCircle
 10
187.0701273006475
 20
237.1981218753583
 30
0.0
 40
6.754221063058524
100
AcDbArc
 50
240.8097490360997
 51
299.3338353856834
  0
LINE
  5
28D0
330
18
100
AcDbEntity
  8
0
100
AcDbLine
 10
214.5116882515708
 20
244.9439008158181
 30
0.0
 11
183.0116882515708
 21
244.9439008158181
 31
0.0
  0
LINE
  5
28D1
330
18
100
AcDbEntity
  8
0
100
AcDbLine
 10
222.7616882515708
 20
244.4439008158183
 30
0.0
 11
174.7616882515708
 21
244.443900815818
 31
0.0
  0
LINE
  5
28D2
330
18
100
AcDbEntity
  8
0
100
AcDbLine
 10
214.5116882515708
 20
264.943900815818
 30
0.0
 11
183.0116882515708
 21
264.943900815818
 31
0.0
  0
LINE
  5
28D3
330
18
100
AcDbEntity
  8
0
100
AcDbLine
 10
215.7616882515708
 20
265.4439008158181
 30
0.0
 11
181.7616882515708
 21
265.4439008158181
 31
0.0
  0
LINE
  5
28D4
330
18
100
AcDbEntity
  8
0
100
AcDbLine
 10
162.3041722993207
 20
261.4439008158181
 30
0.0
 11
162.3041722993207
 21
244.443900815818
 31
0.0
  0
LINE
  5
28D5
330
18
100
AcDbEntity
  8
0
100
AcDbLine
 10
183.0116882515708
 20
244.9439008158181
 30
0.0
 11
183.0116882515708
 21
264.943900815818
 31
0.0
  0
LINE
  5
28D6
330
18
100
AcDbEntity
  8
0
100
AcDbLine
 10
181.7616882515708
 20
244.443900815818
 30
0.0
 11
181.7616882515708
 21
265.4439008158181
 31
0.0
  0
LINE
  5
28D7
330
18
100
AcDbEntity
  8
0
100
AcDbLine
 10
174.7616882515708
 20
261.4439008158181
 30
0.0
 11
174.7616882515708
 21
244.443900815818
 31
0.0
  0
LINE
  5
28D8
330
18
100
AcDbEntity
  8
0
100
AcDbLine
 10
183.7616882515708
 20
231.3099262196024
 30
0.0
 11
183.7616882515708
 21
244.443900815818
 31
0.0
  0
LINE
  5
28D9
330
18
100
AcDbEntity
  8
0
100
AcDbLine
 10
185.2616882515708
 20
230.4439008158181
 30
0.0
 11
183.7616882515708
 21
231.3099262196024
 31
0.0
  0
LINE
  5
28DA
330
18
100
AcDbEntity
  8
0
100
AcDbLine
 10
181.7616882515708
 20
261.4439008158181
 30
0.0
 11
173.7616882515708
 21
261.4439008158178
 31
0.0
  0
LINE
  5
28DB
330
18
100
AcDbEntity
  8
0
100
AcDbLine
 10
214.5116882515708
 20
244.9439008158181
 30
0.0
 11
214.5116882515708
 21
264.943900815818
 31
0.0
  0
LINE
  5
28DC
330
18
100
AcDbEntity
  8
0
100
AcDbLine
 10
215.7616882515708
 20
244.443900815818
 30
0.0
 11
215.7616882515708
 21
265.4439008158181
 31
0.0
  0
LINE
  5
28DD
330
18
100
AcDbEntity
  8
0
100
AcDbLine
 10
222.7616882515708
 20
261.4439008158183
 30
0.0
 11
222.7616882515708
 21
244.4439008158183
 31
0.0
  0
LINE
  5
28DE
330
18
100
AcDbEntity
  8
0
100
AcDbLine
 10
205.3790023493916
 20
231.3099262196026
 30
0.0
 11
207.1443741537509
 21
231.3099262196026
 31
0.0
  0
LINE
  5
28DF
330
18
100
AcDbEntity
  8
0
100
AcDbLine
 10
212.2616882515708
 20
230.4439008158181
 30
0.0
 11
198.7616882515708
 21
230.4439008158181
 31
0.0
  0
LINE
  5
28E0
330
18
100
AcDbEntity
  8
0
100
AcDbLine
 10
205.3790023493916
 20
231.3099262196026
 30
0.0
 11
205.3790023493916
 21
244.443900815818
 31
0.0
  0
LINE
  5
28E1
330
18
100
AcDbEntity
  8
0
100
AcDbLine
 10
190.3790023493916
 20
231.3099262196026
 30
0.0
 11
190.3790023493907
 21
244.443900815818
 31
0.0
  0
LINE
  5
28E2
330
18
100
AcDbEntity
  8
0
100
AcDbLine
 10
192.14437415375
 20
231.3099262196026
 30
0.0
 11
192.14437415375
 21
244.443900815818
 31
0.0
  0
ARC
  5
28E3
330
18
100
AcDbEntity
  8
0
100
AcDbCircle
 10
198.7616882515708
 20
256.1584154678023
 30
0.0
 40
25.71451465198432
100
AcDbArc
 50
255.087850776133
 51
284.9121492238681
  0
LINE
  5
28E4
330
18
100
AcDbEntity
  8
0
100
AcDbLine
 10
190.3790023493907
 20
231.3099262196026
 30
0.0
 11
192.14437415375
 21
231.3099262196026
 31
0.0
  0
LINE
  5
28E5
330
18
100
AcDbEntity
  8
0
100
AcDbLine
 10
207.1443741537509
 20
231.3099262196026
 30
0.0
 11
207.14437415375
 21
244.443900815818
 31
0.0
  0
LINE
  5
28E6
330
18
100
AcDbEntity
  8
0
100
AcDbLine
 10
213.7616882515708
 20
231.3099262196026
 30
0.0
 11
213.7616882515708
 21
244.443900815818
 31
0.0
  0
ARC
  5
28E7
330
18
100
AcDbEntity
  8
0
100
AcDbCircle
 10
210.4530312026604
 20
237.1972890052329
 30
0.0
 40
6.753388189414803
100
AcDbArc
 50
240.6643153306912
 51
299.3356846693104
  0
LINE
  5
28E8
330
18
100
AcDbEntity
  8
0
100
AcDbLine
 10
212.2616882515708
 20
230.4439008158181
 30
0.0
 11
213.7616882515708
 21
231.3099262196026
 31
0.0
  0
ARC
  5
28E9
330
18
100
AcDbEntity
  8
0
100
AcDbCircle
 10
187.0701273006475
 20
279.1896797562776
 30
0.0
 40
6.754221063058524
100
AcDbArc
 50
60.66616461431742
 51
119.1902509639011
  0
LINE
  5
28EA
330
18
100
AcDbEntity
  8
0
100
AcDbLine
 10
212.2616882515708
 20
285.9439008158183
 30
0.0
 11
185.2616882515708
 21
285.943900815818
 31
0.0
  0
LINE
  5
28EB
330
18
100
AcDbEntity
  8
0
100
AcDbLine
 10
183.7616882515708
 20
285.0778754120335
 30
0.0
 11
183.7616882515708
 21
271.9439008158181
 31
0.0
  0
LINE
  5
28EC
330
18
100
AcDbEntity
  8
0
100
AcDbLine
 10
185.2616882515708
 20
285.943900815818
 30
0.0
 11
183.7616882515708
 21
285.0778754120335
 31
0.0
  0
LINE
  5
28ED
330
18
100
AcDbEntity
  8
0
100
AcDbLine
 10
205.3790023493907
 20
285.0778754120337
 30
0.0
 11
207.14437415375
 21
285.0778754120337
 31
0.0
  0
LINE
  5
28EE
330
18
100
AcDbEntity
  8
0
100
AcDbLine
 10
205.3790023493907
 20
285.0778754120337
 30
0.0
 11
205.3790023493907
 21
271.9439008158183
 31
0.0
  0
LINE
  5
28EF
330
18
100
AcDbEntity
  8
0
100
AcDbLine
 10
192.14437415375
 20
285.0778754120337
 30
0.0
 11
192.14437415375
 21
271.9439008158181
 31
0.0
  0
LINE
  5
28F0
330
18
100
AcDbEntity
  8
0
100
AcDbLine
 10
190.3790023493907
 20
285.0778754120337
 30
0.0
 11
190.3790023493907
 21
271.9439008158181
 31
0.0
  0
ARC
  5
28F1
330
18
100
AcDbEntity
  8
0
100
AcDbCircle
 10
198.7616882515708
 20
260.2293861638338
 30
0.0
 40
25.71451465198432
100
AcDbArc
 50
75.08785077613275
 51
104.9121492238679
  0
LINE
  5
28F2
330
18
100
AcDbEntity
  8
0
100
AcDbLine
 10
190.3790023493907
 20
285.0778754120337
 30
0.0
 11
192.14437415375
 21
285.0778754120337
 31
0.0
  0
LINE
  5
28F3
330
18
100
AcDbEntity
  8
0
100
AcDbLine
 10
207.14437415375
 20
285.0778754120337
 30
0.0
 11
207.14437415375
 21
271.9439008158183
 31
0.0
  0
LINE
  5
28F4
330
18
100
AcDbEntity
  8
0
100
AcDbLine
 10
213.7616882515708
 20
285.0778754120337
 30
0.0
 11
213.7616882515708
 21
271.9439008158183
 31
0.0
  0
ARC
  5
28F5
330
18
100
AcDbEntity
  8
0
100
AcDbCircle
 10
210.4530312026604
 20
279.1905126264032
 30
0.0
 40
6.753388189414803
100
AcDbArc
 50
60.66431533069046
 51
119.3356846693095
  0
LINE
  5
28F6
330
18
100
AcDbEntity
  8
0
100
AcDbLine
 10
212.2616882515708
 20
285.9439008158183
 30
0.0
 11
213.7616882515708
 21
285.0778754120337
 31
0.0
  0
LINE
  5
28F7
330
18
100
AcDbEntity
  8
0
100
AcDbLine
 10
223.7616882515708
 20
271.9439008158183
 30
0.0
 11
223.7616882515708
 21
261.4439008158183
 31
0.0
  0
LINE
  5
28F8
330
18
100
AcDbEntity
  8
0
100
AcDbLine
 10
284.2192712889723
 20
271.9439008158183
 30
0.0
 11
284.2192712889723
 21
261.4439008158183
 31
0.0
  0
LINE
  5
28F9
330
18
100
AcDbEntity
  8
0
100
AcDbLine
 10
234.2192712889723
 20
271.9439008158178
 30
0.0
 11
234.2192712889723
 21
261.4439008158178
 31
0.0
  0
LINE
  5
28FA
330
18
100
AcDbEntity
  8
0
100
AcDbLine
 10
271.219271289026
 20
230.4439008158181
 30
0.0
 11
247.2049409725264
 21
230.4439008158181
 31
0.0
  0
LINE
  5
28FB
330
18
100
AcDbEntity
  8
0
100
AcDbLine
 10
277.5495740687943
 20
261.4439008158192
 30
0.0
 11
234.2192712889723
 21
261.4439008158178
 31
0.0
  0
LINE
  5
28FC
330
18
100
AcDbEntity
  8
0
100
AcDbLine
 10
258.1316471154254
 20
231.3099262196024
 30
0.0
 11
260.3068954625182
 21
231.3099262196026
 31
0.0
  0
LINE
  5
28FD
330
18
100
AcDbEntity
  8
0
100
AcDbLine
 10
284.2192712889732
 20
244.4439008158185
 30
0.0
 11
235.2192712889723
 21
244.443900815818
 31
0.0
  0
LINE
  5
28FE
330
18
100
AcDbEntity
  8
0
100
AcDbLine
 10
284.2192712889723
 20
266.9439008158183
 30
0.0
 11
234.2192712889723
 21
266.9439008158178
 31
0.0
  0
LINE
  5
28FF
330
18
100
AcDbEntity
  8
0
100
AcDbLine
 10
235.2192712889723
 20
261.4439008158181
 30
0.0
 11
235.2192712889723
 21
244.443900815818
 31
0.0
  0
LINE
  5
2900
330
18
100
AcDbEntity
  8
0
100
AcDbLine
 10
245.7192712889713
 20
231.3099262196026
 30
0.0
 11
245.7192712889713
 21
244.443900815818
 31
0.0
  0
LINE
  5
2901
330
18
100
AcDbEntity
  8
0
100
AcDbLine
 10
258.1316471154254
 20
231.3099262196024
 30
0.0
 11
258.1316471154254
 21
244.443900815818
 31
0.0
  0
LINE
  5
2902
330
18
100
AcDbEntity
  8
0
100
AcDbLine
 10
246.7984597804593
 20
231.3099262196024
 30
0.0
 11
246.7984597804593
 21
244.443900815818
 31
0.0
  0
ARC
  5
2903
330
18
100
AcDbEntity
  8
0
100
AcDbCircle
 10
252.4692712889996
 20
249.3882065234249
 30
0.0
 40
18.944305707607
100
AcDbArc
 50
252.6086979538904
 51
287.3913020461094
  0
LINE
  5
2904
330
18
100
AcDbEntity
  8
0
100
AcDbLine
 10
247.2049409725254
 20
230.4439008158181
 30
0.0
 11
245.7049409725255
 21
231.3099262196026
 31
0.0
  0
LINE
  5
2905
330
18
100
AcDbEntity
  8
0
100
AcDbLine
 10
245.7192712889732
 20
231.3099262196022
 30
0.0
 11
246.8068954625737
 21
231.3099262196024
 31
0.0
  0
LINE
  5
2906
330
18
100
AcDbEntity
  8
0
100
AcDbLine
 10
284.2192712889732
 20
244.4439008158185
 30
0.0
 11
284.2192712889723
 21
265.4439008158181
 31
0.0
  0
LINE
  5
2907
330
18
100
AcDbEntity
  8
0
100
AcDbLine
 10
277.5495740687952
 20
244.443900815818
 30
0.0
 11
277.5495740687952
 21
265.4439008158181
 31
0.0
  0
LINE
  5
2908
330
18
100
AcDbEntity
  8
0
100
AcDbLine
 10
260.3068954625182
 20
231.3099262196026
 30
0.0
 11
260.3068954625182
 21
244.443900815818
 31
0.0
  0
LINE
  5
2909
330
18
100
AcDbEntity
  8
0
100
AcDbLine
 10
272.7192712889995
 20
231.3099262196024
 30
0.0
 11
272.7192712889995
 21
244.4439008158178
 31
0.0
  0
LINE
  5
290A
330
18
100
AcDbEntity
  8
0
100
AcDbLine
 10
271.6316471154245
 20
231.3099262196024
 30
0.0
 11
271.6316471154245
 21
244.4439008158178
 31
0.0
  0
ARC
  5
290B
330
18
100
AcDbEntity
  8
0
100
AcDbCircle
 10
265.9692712889705
 20
249.3882065236002
 30
0.0
 40
18.94430570778217
100
AcDbArc
 50
252.6086979539728
 51
287.3913020460325
  0
LINE
  5
290C
330
18
100
AcDbEntity
  8
0
100
AcDbLine
 10
271.219271289026
 20
230.4439008158178
 30
0.0
 11
272.7192712890259
 21
231.3099262196024
 31
0.0
  0
LINE
  5
290D
330
18
100
AcDbEntity
  8
0
100
AcDbLine
 10
271.6316471154255
 20
231.3099262196022
 30
0.0
 11
272.7192712890259
 21
231.3099262196024
 31
0.0
  0
LINE
  5
290E
330
18
100
AcDbEntity
  8
0
100
AcDbLine
 10
284.2192712889723
 20
265.4439008158181
 30
0.0
 11
277.5495740687943
 21
265.4439008158181
 31
0.0
  0
LINE
  5
290F
330
18
100
AcDbEntity
  8
0
100
AcDbLine
 10
271.219271289026
 20
285.943900815818
 30
0.0
 11
247.2049409725264
 21
285.943900815818
 31
0.0
  0
LINE
  5
2910
330
18
100
AcDbEntity
  8
0
100
AcDbLine
 10
258.1316471154254
 20
285.0778754120337
 30
0.0
 11
260.3068954625182
 21
285.0778754120335
 31
0.0
  0
LINE
  5
2911
330
18
100
AcDbEntity
  8
0
100
AcDbLine
 10
284.2192712889723
 20
271.9439008158183
 30
0.0
 11
234.2192712889723
 21
271.9439008158178
 31
0.0
  0
LINE
  5
2912
330
18
100
AcDbEntity
  8
0
100
AcDbLine
 10
245.7192712889713
 20
285.0778754120335
 30
0.0
 11
245.7192712889713
 21
271.9439008158181
 31
0.0
  0
LINE
  5
2913
330
18
100
AcDbEntity
  8
0
100
AcDbLine
 10
258.1316471154254
 20
285.0778754120337
 30
0.0
 11
258.1316471154254
 21
271.9439008158181
 31
0.0
  0
LINE
  5
2914
330
18
100
AcDbEntity
  8
0
100
AcDbLine
 10
246.7984597804593
 20
285.0778754120337
 30
0.0
 11
246.7984597804593
 21
271.9439008158181
 31
0.0
  0
ARC
  5
2915
330
18
100
AcDbEntity
  8
0
100
AcDbCircle
 10
252.4692712889996
 20
266.9995951082112
 30
0.0
 40
18.944305707607
100
AcDbArc
 50
72.6086979538905
 51
107.3913020461094
  0
LINE
  5
2916
330
18
100
AcDbEntity
  8
0
100
AcDbLine
 10
245.7192712889732
 20
285.077875412034
 30
0.0
 11
246.8068954625737
 21
285.0778754120337
 31
0.0
  0
LINE
  5
2917
330
18
100
AcDbEntity
  8
0
100
AcDbLine
 10
247.2049409725254
 20
285.943900815818
 30
0.0
 11
245.7049409725255
 21
285.0778754120335
 31
0.0
  0
LINE
  5
2918
330
18
100
AcDbEntity
  8
0
100
AcDbLine
 10
260.3068954625182
 20
285.0778754120335
 30
0.0
 11
260.3068954625182
 21
271.9439008158181
 31
0.0
  0
LINE
  5
2919
330
18
100
AcDbEntity
  8
0
100
AcDbLine
 10
271.6316471154245
 20
285.0778754120337
 30
0.0
 11
271.6316471154245
 21
271.9439008158183
 31
0.0
  0
LINE
  5
291A
330
18
100
AcDbEntity
  8
0
100
AcDbLine
 10
272.7192712889995
 20
285.0778754120337
 30
0.0
 11
272.7192712889995
 21
271.9439008158183
 31
0.0
  0
ARC
  5
291B
330
18
100
AcDbEntity
  8
0
100
AcDbCircle
 10
265.9692712889705
 20
266.9995951080359
 30
0.0
 40
18.94430570778217
100
AcDbArc
 50
72.6086979539674
 51
107.3913020460271
  0
LINE
  5
291C
330
18
100
AcDbEntity
  8
0
100
AcDbLine
 10
271.6316471154255
 20
285.077875412034
 30
0.0
 11
272.7192712890259
 21
285.0778754120337
 31
0.0
  0
LINE
  5
291D
330
18
100
AcDbEntity
  8
0
100
AcDbLine
 10
271.219271289026
 20
285.9439008158183
 30
0.0
 11
272.7192712890259
 21
285.0778754120337
 31
0.0
  0
LINE
  5
291E
330
18
100
AcDbEntity
  8
0
100
AcDbLine
 10
429.2062092336161
 20
218.9699186767008
 30
0.0
 11
434.2480092336159
 21
224.1215186767004
 31
0.0
  0
LINE
  5
291F
330
18
100
AcDbEntity
  8
0
100
AcDbLine
 10
434.2480092336159
 20
224.1215186767004
 30
0.0
 11
434.2480092336159
 21
198.9116186767002
 31
0.0
  0
LINE
  5
2920
330
18
100
AcDbEntity
  8
0
100
AcDbLine
 10
429.2062092336161
 20
193.8698186767004
 30
0.0
 11
429.2062092336161
 21
208.9952186767005
 31
0.0
  0
LINE
  5
2921
330
18
100
AcDbEntity
  8
0
100
AcDbLine
 10
434.2480092336159
 20
198.9116186767002
 30
0.0
 11
429.2062092336161
 21
193.8698186767004
 31
0.0
  0
LINE
  5
2922
330
18
100
AcDbEntity
  8
0
100
AcDbLine
 10
431.727109233616
 20
218.9699186767008
 30
0.0
 11
429.2062092336161
 21
218.9699186767008
 31
0.0
  0
LINE
  5
2923
330
18
100
AcDbEntity
  8
0
100
AcDbLine
 10
429.2062092336161
 20
208.9952186767005
 30
0.0
 11
431.727109233616
 21
211.5170186767006
 31
0.0
  0
LINE
  5
2924
330
18
100
AcDbEntity
  8
0
100
AcDbLine
 10
431.727109233616
 20
211.5170186767006
 30
0.0
 11
431.727109233616
 21
218.9699186767008
 31
0.0
  0
LINE
  5
2925
330
18
100
AcDbEntity
  8
0
100
AcDbLine
 10
390.8934893268238
 20
262.443900815818
 30
0.0
 11
347.5631865470008
 21
262.443900815818
 31
0.0
  0
ARC
  5
2926
330
18
100
AcDbEntity
  8
0
100
AcDbCircle
 10
376.1434893268246
 20
248.3814519917034
 30
0.0
 40
17.93755117588504
100
AcDbArc
 50
241.5580305378415
 51
298.4419694621562
  0
LINE
  5
2927
330
18
100
AcDbEntity
  8
0
100
AcDbLine
 10
347.6434893268228
 20
230.4439008158183
 30
0.0
 11
384.1434893268256
 21
230.4439008158178
 31
0.0
  0
LINE
  5
2928
330
18
100
AcDbEntity
  8
0
100
AcDbLine
 10
347.6434893268228
 20
290.4439008158178
 30
0.0
 11
384.1434893268256
 21
290.4439008158183
 31
0.0
  0
ARC
  5
2929
330
18
100
AcDbEntity
  8
0
100
AcDbCircle
 10
376.1434893268246
 20
272.5063496399327
 30
0.0
 40
17.93755117588504
100
AcDbArc
 50
61.55803053784376
 51
118.4419694621584
  0
LINE
  5
292A
330
18
100
AcDbEntity
  8
0
100
AcDbLine
 10
389.8934893268237
 20
245.943900815818
 30
0.0
 11
340.8934893268246
 21
245.9439008158178
 31
0.0
  0
LINE
  5
292B
330
18
100
AcDbEntity
  8
0
100
AcDbLine
 10
340.8934893268237
 20
273.443900815818
 30
0.0
 11
390.8934893268238
 21
273.443900815818
 31
0.0
  0
LINE
  5
292C
330
18
100
AcDbEntity
  8
0
100
AcDbLine
 10
340.8934893268237
 20
268.4439008158181
 30
0.0
 11
390.8934893268238
 21
268.4439008158181
 31
0.0
  0
LINE
  5
292D
330
18
100
AcDbEntity
  8
0
100
AcDbLine
 10
340.8934893268237
 20
273.443900815818
 30
0.0
 11
340.8934893268237
 21
262.443900815818
 31
0.0
  0
LINE
  5
292E
330
18
100
AcDbEntity
  8
0
100
AcDbLine
 10
347.5631865470008
 20
266.943900815818
 30
0.0
 11
340.8934893268237
 21
266.943900815818
 31
0.0
  0
LINE
  5
292F
330
18
100
AcDbEntity
  8
0
100
AcDbLine
 10
340.8934893268237
 20
266.943900815818
 30
0.0
 11
340.8934893268246
 21
245.9439008158178
 31
0.0
  0
LINE
  5
2930
330
18
100
AcDbEntity
  8
0
100
AcDbLine
 10
347.5631865470008
 20
266.943900815818
 30
0.0
 11
347.5631865470008
 21
245.943900815818
 31
0.0
  0
ARC
  5
2931
330
18
100
AcDbEntity
  8
0
100
AcDbCircle
 10
355.6434893268246
 20
248.381451991703
 30
0.0
 40
17.93755117588464
100
AcDbArc
 50
241.5580305378398
 51
298.4419694621569
  0
LINE
  5
2932
330
18
100
AcDbEntity
  8
0
100
AcDbLine
 10
347.1004000144025
 20
232.6089643252791
 30
0.0
 11
347.1004000144025
 21
245.9439008158183
 31
0.0
  0
LINE
  5
2933
330
18
100
AcDbEntity
  8
0
100
AcDbLine
 10
345.3934893268237
 20
231.7429389214946
 30
0.0
 11
345.3934893268229
 21
245.943900815818
 31
0.0
  0
LINE
  5
2934
330
18
100
AcDbEntity
  8
0
100
AcDbLine
 10
347.6434893268237
 20
230.4439008158181
 30
0.0
 11
345.3934893268237
 21
231.7429389214946
 31
0.0
  0
LINE
  5
2935
330
18
100
AcDbEntity
  8
0
100
AcDbLine
 10
345.3934893268237
 20
231.7429389214946
 30
0.0
 11
347.1004000144025
 21
232.6089643252791
 31
0.0
  0
LINE
  5
2936
330
18
100
AcDbEntity
  8
0
100
AcDbLine
 10
364.1865786392449
 20
232.6089643252791
 30
0.0
 11
364.1865786392441
 21
245.9439008158183
 31
0.0
  0
LINE
  5
2937
330
18
100
AcDbEntity
  8
0
100
AcDbLine
 10
367.6004000144034
 20
232.6089643252791
 30
0.0
 11
367.6004000144034
 21
245.9439008158183
 31
0.0
  0
LINE
  5
2938
330
18
100
AcDbEntity
  8
0
100
AcDbLine
 10
364.1865786392449
 20
232.6089643252791
 30
0.0
 11
367.6004000144025
 21
232.6089643252789
 31
0.0
  0
ARC
  5
2939
330
18
100
AcDbEntity
  8
0
100
AcDbCircle
 10
355.6434893268246
 20
272.5063496399332
 30
0.0
 40
17.93755117588464
100
AcDbArc
 50
61.55803053784307
 51
118.4419694621601
  0
LINE
  5
293A
330
18
100
AcDbEntity
  8
0
100
AcDbLine
 10
347.1004000144025
 20
288.2788373063569
 30
0.0
 11
347.1004000144025
 21
273.443900815818
 31
0.0
  0
LINE
  5
293B
330
18
100
AcDbEntity
  8
0
100
AcDbLine
 10
345.3934893268237
 20
289.1448627101415
 30
0.0
 11
345.3934893268237
 21
273.443900815818
 31
0.0
  0
LINE
  5
293C
330
18
100
AcDbEntity
  8
0
100
AcDbLine
 10
345.3934893268237
 20
289.1448627101415
 30
0.0
 11
347.1004000144025
 21
288.2788373063569
 31
0.0
  0
LINE
  5
293D
330
18
100
AcDbEntity
  8
0
100
AcDbLine
 10
347.6434893268237
 20
290.4439008158181
 30
0.0
 11
345.3934893268237
 21
289.1448627101415
 31
0.0
  0
LINE
  5
293E
330
18
100
AcDbEntity
  8
0
100
AcDbLine
 10
367.6004000144034
 20
288.2788373063569
 30
0.0
 11
367.6004000144034
 21
273.443900815818
 31
0.0
  0
LINE
  5
293F
330
18
100
AcDbEntity
  8
0
100
AcDbLine
 10
364.1865786392449
 20
288.2788373063569
 30
0.0
 11
364.1865786392449
 21
273.443900815818
 31
0.0
  0
LINE
  5
2940
330
18
100
AcDbEntity
  8
0
100
AcDbLine
 10
364.1865786392449
 20
288.2788373063569
 30
0.0
 11
367.6004000144025
 21
288.2788373063572
 31
0.0
  0
LINE
  5
2941
330
18
100
AcDbEntity
  8
0
100
AcDbLine
 10
390.8934893268238
 20
273.443900815818
 30
0.0
 11
390.8934893268238
 21
262.443900815818
 31
0.0
  0
LINE
  5
2942
330
18
100
AcDbEntity
  8
0
100
AcDbLine
 10
408.1449297817748
 20
273.443900815818
 30
0.0
 11
408.1449297817748
 21
262.443900815818
 31
0.0
  0
LINE
  5
2943
330
18
100
AcDbEntity
  8
0
100
AcDbLine
 10
408.1449297817748
 20
262.443900815818
 30
0.0
 11
416.1449297817748
 21
262.443900815818
 31
0.0
  0
LINE
  5
2944
330
18
100
AcDbEntity
  8
0
100
AcDbLine
 10
412.6449297817748
 20
230.4439008158181
 30
0.0
 11
410.3949297817748
 21
231.7429389214948
 31
0.0
  0
ARC
  5
2945
330
18
100
AcDbEntity
  8
0
100
AcDbCircle
 10
415.3914090041939
 20
237.291807237613
 30
0.0
 40
6.847906421794997
100
AcDbArc
 50
223.1441105637501
 51
316.85588943625
  0
LINE
  5
2946
330
18
100
AcDbEntity
  8
0
100
AcDbLine
 10
389.8934893268237
 20
262.443900815818
 30
0.0
 11
389.8934893268237
 21
245.943900815818
 31
0.0
  0
LINE
  5
2947
330
18
100
AcDbEntity
  8
0
100
AcDbLine
 10
409.1449297817749
 20
262.443900815818
 30
0.0
 11
409.1449297817749
 21
245.943900815818
 31
0.0
  0
LINE
  5
2948
330
18
100
AcDbEntity
  8
0
100
AcDbLine
 10
386.3934893268256
 20
231.7429389214946
 30
0.0
 11
386.3934893268246
 21
245.943900815818
 31
0.0
  0
LINE
  5
2949
330
18
100
AcDbEntity
  8
0
100
AcDbLine
 10
384.686578639245
 20
232.6089643252791
 30
0.0
 11
384.6865786392459
 21
245.9439008158183
 31
0.0
  0
LINE
  5
294A
330
18
100
AcDbEntity
  8
0
100
AcDbLine
 10
384.1434893268256
 20
230.4439008158181
 30
0.0
 11
386.3934893268256
 21
231.7429389214946
 31
0.0
  0
LINE
  5
294B
330
18
100
AcDbEntity
  8
0
100
AcDbLine
 10
386.3934893268246
 20
231.7429389214942
 30
0.0
 11
384.686578639245
 21
232.6089643252791
 31
0.0
  0
LINE
  5
294C
330
18
100
AcDbEntity
  8
0
100
AcDbLine
 10
410.3949297817748
 20
231.7429389214948
 30
0.0
 11
410.3949297817748
 21
245.943900815818
 31
0.0
  0
LINE
  5
294D
330
18
100
AcDbEntity
  8
0
100
AcDbLine
 10
416.1449297817748
 20
266.943900815818
 30
0.0
 11
416.1449297817748
 21
245.943900815818
 31
0.0
  0
LINE
  5
294E
330
18
100
AcDbEntity
  8
0
100
AcDbLine
 10
417.3949297817748
 20
266.4439008158181
 30
0.0
 11
417.3949297817748
 21
246.443900815818
 31
0.0
  0
ARC
  5
294F
330
18
100
AcDbEntity
  8
0
100
AcDbCircle
 10
433.1449297817748
 20
254.5879312388062
 30
0.0
 40
24.14403042298818
100
AcDbArc
 50
245.5506033676939
 51
294.4493966323061
  0
LINE
  5
2950
330
18
100
AcDbEntity
  8
0
100
AcDbLine
 10
412.6449297817748
 20
230.4439008158181
 30
0.0
 11
433.1449297817748
 21
230.4439008158181
 31
0.0
  0
LINE
  5
2951
330
18
100
AcDbEntity
  8
0
100
AcDbLine
 10
423.1519713369366
 20
232.6089643252791
 30
0.0
 11
423.1519713369366
 21
245.943900815818
 31
0.0
  0
LINE
  5
2952
330
18
100
AcDbEntity
  8
0
100
AcDbLine
 10
420.387888226613
 20
232.6089643252791
 30
0.0
 11
420.387888226613
 21
245.943900815818
 31
0.0
  0
LINE
  5
2953
330
18
100
AcDbEntity
  8
0
100
AcDbLine
 10
423.1519713369366
 20
232.6089643252791
 30
0.0
 11
420.387888226613
 21
232.6089643252791
 31
0.0
  0
LINE
  5
2954
330
18
100
AcDbEntity
  8
0
100
AcDbLine
 10
443.137888226613
 20
232.6089643252791
 30
0.0
 11
443.137888226613
 21
245.943900815818
 31
0.0
  0
LINE
  5
2955
330
18
100
AcDbEntity
  8
0
100
AcDbLine
 10
412.6449297817748
 20
290.4439008158181
 30
0.0
 11
410.3949297817748
 21
289.1448627101415
 31
0.0
  0
ARC
  5
2956
330
18
100
AcDbEntity
  8
0
100
AcDbCircle
 10
415.3914090041939
 20
283.5959943940231
 30
0.0
 40
6.847906421794997
100
AcDbArc
 50
43.14411056374982
 51
136.8558894362499
  0
LINE
  5
2957
330
18
100
AcDbEntity
  8
0
100
AcDbLine
 10
386.3934893268256
 20
289.1448627101415
 30
0.0
 11
386.3934893268256
 21
273.443900815818
 31
0.0
  0
LINE
  5
2958
330
18
100
AcDbEntity
  8
0
100
AcDbLine
 10
384.686578639245
 20
288.2788373063569
 30
0.0
 11
384.686578639245
 21
273.443900815818
 31
0.0
  0
LINE
  5
2959
330
18
100
AcDbEntity
  8
0
100
AcDbLine
 10
384.1434893268256
 20
290.4439008158181
 30
0.0
 11
386.3934893268256
 21
289.1448627101415
 31
0.0
  0
LINE
  5
295A
330
18
100
AcDbEntity
  8
0
100
AcDbLine
 10
386.3934893268246
 20
289.1448627101419
 30
0.0
 11
384.686578639245
 21
288.2788373063569
 31
0.0
  0
LINE
  5
295B
330
18
100
AcDbEntity
  8
0
100
AcDbLine
 10
410.3949297817748
 20
289.1448627101415
 30
0.0
 11
410.3949297817748
 21
273.443900815818
 31
0.0
  0
ARC
  5
295C
330
18
100
AcDbEntity
  8
0
100
AcDbCircle
 10
433.1449297817748
 20
266.2998703928299
 30
0.0
 40
24.14403042298818
100
AcDbArc
 50
65.5506033676959
 51
114.4493966323041
  0
LINE
  5
295D
330
18
100
AcDbEntity
  8
0
100
AcDbLine
 10
433.1449297817748
 20
290.4439008158181
 30
0.0
 11
412.6449297817748
 21
290.4439008158181
 31
0.0
  0
LINE
  5
295E
330
18
100
AcDbEntity
  8
0
100
AcDbLine
 10
420.387888226613
 20
288.2788373063569
 30
0.0
 11
420.387888226613
 21
273.443900815818
 31
0.0
  0
LINE
  5
295F
330
18
100
AcDbEntity
  8
0
100
AcDbLine
 10
423.1519713369366
 20
288.2788373063569
 30
0.0
 11
423.1519713369366
 21
273.443900815818
 31
0.0
  0
LINE
  5
2960
330
18
100
AcDbEntity
  8
0
100
AcDbLine
 10
423.1519713369366
 20
288.2788373063569
 30
0.0
 11
420.387888226613
 21
288.2788373063569
 31
0.0
  0
LINE
  5
2961
330
18
100
AcDbEntity
  8
0
100
AcDbLine
 10
443.137888226613
 20
288.2788373063569
 30
0.0
 11
443.137888226613
 21
273.443900815818
 31
0.0
  0
TEXT
  5
2962
330
18
100
AcDbEntity
  8
0
100
AcDbText
 10
58.27024195335707
 20
347.301508551319
 30
0.0
 40
10.0
  1
平面
100
AcDbText
  0
TEXT
  5
2963
330
18
100
AcDbEntity
  8
0
100
AcDbText
 10
55.86351188050776
 20
443.740522400519
 30
0.0
 40
10.0
  1
背面
100
AcDbText
  0
POLYLINE
  5
2964
330
18
100
AcDbEntity
  8
0
100
AcDb2dPolyline
 66
     1
 10
0.0
 20
0.0
 30
0.0
  0
VERTEX
  5
32BC
330
2964
100
AcDbEntity
  8
0
100
AcDbVertex
100
AcDb2dVertex
 10
197.674064078024
 20
373.1399426031223
 30
0.0
  0
VERTEX
  5
32BD
330
2964
100
AcDbEntity
  8
0
100
AcDbVertex
100
AcDb2dVertex
 10
186.3493124251176
 20
366.6015941878115
 30
0.0
  0
SEQEND
  5
32BE
330
2964
100
AcDbEntity
  8
0
  0
CIRCLE
  5
2965
330
18
100
AcDbEntity
  8
0
100
AcDbCircle
 10
198.7616882515708
 20
358.1794254443768
 30
0.0
 40
23.0
  0
CIRCLE
  5
2966
330
18
100
AcDbEntity
  8
0
100
AcDbCircle
 10
198.7616882515708
 20
358.1794254443768
 30
0.0
 40
13.5
  0
POLYLINE
  5
2967
330
18
100
AcDbEntity
  8
0
100
AcDb2dPolyline
 66
     1
 10
0.0
 20
0.0
 30
0.0
  0
VERTEX
  5
32BF
330
2967
100
AcDbEntity
  8
0
100
AcDbVertex
100
AcDb2dVertex
 10
211.174064078024
 20
366.601594187811
 30
0.0
  0
VERTEX
  5
32C0
330
2967
100
AcDbEntity
  8
0
100
AcDbVertex
100
AcDb2dVertex
 10
199.8493124251176
 20
373.1399426031223
 30
0.0
  0
SEQEND
  5
32C1
330
2967
100
AcDbEntity
  8
0
  0
POLYLINE
  5
2968
330
18
100
AcDbEntity
  8
0
100
AcDb2dPolyline
 66
     1
 10
0.0
 20
0.0
 30
0.0
  0
VERTEX
  5
32C2
330
2968
100
AcDbEntity
  8
0
100
AcDbVertex
100
AcDb2dVertex
 10
186.3493124251176
 20
349.7572567009426
 30
0.0
  0
VERTEX
  5
32C3
330
2968
100
AcDbEntity
  8
0
100
AcDbVertex
100
AcDb2dVertex
 10
197.674064078024
 20
343.2189082856314
 30
0.0
  0
SEQEND
  5
32C4
330
2968
100
AcDbEntity
  8
0
  0
LINE
  5
2969
330
18
100
AcDbEntity
  8
0
100
AcDbLine
 10
182.7616882515699
 20
335.1794254443768
 30
0.0
 11
214.7616882515699
 21
335.1794254443768
 31
0.0
  0
LINE
  5
296A
330
18
100
AcDbEntity
  8
0
100
AcDbLine
 10
181.7616882515699
 20
342.6874920595482
 30
0.0
 11
181.7616882515699
 21
336.1794254443768
 31
0.0
  0
ARC
  5
296B
330
18
100
AcDbEntity
  8
0
100
AcDbCircle
 10
182.7616882515699
 20
336.1794254443768
 30
0.0
 40
1.0
100
AcDbArc
 50
180.0
 51
270.0
  0
POLYLINE
  5
296C
330
18
100
AcDbEntity
  8
0
100
AcDb2dPolyline
 66
     1
 10
0.0
 20
0.0
 30
0.0
  0
VERTEX
  5
32C5
330
296C
100
AcDbEntity
  8
0
100
AcDbVertex
100
AcDb2dVertex
 10
185.2616882515708
 20
364.7177738596878
 30
0.0
  0
VERTEX
  5
32C6
330
296C
100
AcDbEntity
  8
0
100
AcDbVertex
100
AcDb2dVertex
 10
185.2616882515708
 20
351.6410770290658
 30
0.0
  0
SEQEND
  5
32C7
330
296C
100
AcDbEntity
  8
0
  0
ARC
  5
296D
330
18
100
AcDbEntity
  8
0
100
AcDbCircle
 10
198.7616882515708
 20
358.1794254443768
 30
0.0
 40
15.0
100
AcDbArc
 50
205.8419327631606
 51
214.1580672368326
  0
ARC
  5
296E
330
18
100
AcDbEntity
  8
0
100
AcDbCircle
 10
198.7616882515708
 20
358.1794254443768
 30
0.0
 40
15.0
100
AcDbArc
 50
145.8419327631664
 51
154.1580672368394
  0
POLYLINE
  5
296F
330
18
100
AcDbEntity
  8
0
100
AcDb2dPolyline
 66
     1
 10
0.0
 20
0.0
 30
0.0
  0
VERTEX
  5
32C8
330
296F
100
AcDbEntity
  8
0
100
AcDbVertex
100
AcDb2dVertex
 10
199.8493124251176
 20
343.2189082856314
 30
0.0
  0
VERTEX
  5
32C9
330
296F
100
AcDbEntity
  8
0
100
AcDbVertex
100
AcDb2dVertex
 10
211.174064078024
 20
349.7572567009421
 30
0.0
  0
SEQEND
  5
32CA
330
296F
100
AcDbEntity
  8
0
  0
ARC
  5
2970
330
18
100
AcDbEntity
  8
0
100
AcDbCircle
 10
198.7616882515708
 20
358.1794254443768
 30
0.0
 40
15.0
100
AcDbArc
 50
265.841932763167
 51
274.1580672368333
  0
LINE
  5
2971
330
18
100
AcDbEntity
  8
0
100
AcDbLine
 10
215.7616882515699
 20
342.687492059546
 30
0.0
 11
215.7616882515699
 21
336.1794254443768
 31
0.0
  0
ARC
  5
2972
330
18
100
AcDbEntity
  8
0
100
AcDbCircle
 10
214.7616882515699
 20
336.1794254443768
 30
0.0
 40
1.0
100
AcDbArc
 50
270.0
 51
0.0
  0
CIRCLE
  5
2973
330
18
100
AcDbEntity
  8
0
100
AcDbCircle
 10
198.7616882515708
 20
358.1794254443768
 30
0.0
 40
7.474999999999999
  0
POLYLINE
  5
2974
330
18
100
AcDbEntity
  8
0
100
AcDb2dPolyline
 66
     1
 10
0.0
 20
0.0
 30
0.0
  0
VERTEX
  5
32CB
330
2974
100
AcDbEntity
  8
0
100
AcDbVertex
100
AcDb2dVertex
 10
212.2616882515708
 20
351.6410770290658
 30
0.0
  0
VERTEX
  5
32CC
330
2974
100
AcDbEntity
  8
0
100
AcDbVertex
100
AcDb2dVertex
 10
212.2616882515708
 20
364.7177738596878
 30
0.0
  0
SEQEND
  5
32CD
330
2974
100
AcDbEntity
  8
0
  0
ARC
  5
2975
330
18
100
AcDbEntity
  8
0
100
AcDbCircle
 10
198.7616882515708
 20
358.1794254443768
 30
0.0
 40
15.0
100
AcDbArc
 50
325.841932763166
 51
334.1580672368394
  0
ARC
  5
2976
330
18
100
AcDbEntity
  8
0
100
AcDbCircle
 10
198.7616882515708
 20
358.1794254443768
 30
0.0
 40
15.0
100
AcDbArc
 50
25.84193276316057
 51
34.15806723683234
  0
ARC
  5
2977
330
18
100
AcDbEntity
  8
0
100
AcDbCircle
 10
198.7616882515708
 20
358.1794254443768
 30
0.0
 40
15.0
100
AcDbArc
 50
85.84193276316712
 51
94.1580672368333
  0
LINE
  5
2978
330
18
100
AcDbEntity
  8
0
100
AcDbLine
 10
173.7616882515708
 20
456.2997892416854
 30
0.0
 11
223.7616882515708
 21
456.2997892416854
 31
0.0
  0
LINE
  5
2979
330
18
100
AcDbEntity
  8
0
100
AcDbLine
 10
173.7616882515708
 20
466.7997892416853
 30
0.0
 11
223.7616882515708
 21
466.7997892416853
 31
0.0
  0
LINE
  5
297A
330
18
100
AcDbEntity
  8
0
100
AcDbLine
 10
173.7616882515708
 20
461.7997892416854
 30
0.0
 11
223.7616882515708
 21
461.7997892416854
 31
0.0
  0
LINE
  5
297B
330
18
100
AcDbEntity
  8
0
100
AcDbLine
 10
213.7616882515708
 20
479.9337638379008
 30
0.0
 11
213.7616882515708
 21
466.7997892416853
 31
0.0
  0
LINE
  5
297C
330
18
100
AcDbEntity
  8
0
100
AcDbLine
 10
205.3790023493916
 20
479.9337638379008
 30
0.0
 11
205.3790023493916
 21
466.7997892416853
 31
0.0
  0
LINE
  5
297D
330
18
100
AcDbEntity
  8
0
100
AcDbLine
 10
207.14437415375
 20
479.9337638379008
 30
0.0
 11
207.14437415375
 21
466.7997892416853
 31
0.0
  0
LINE
  5
297E
330
18
100
AcDbEntity
  8
0
100
AcDbLine
 10
183.7616882515708
 20
479.9337638379008
 30
0.0
 11
183.7616882515708
 21
466.7997892416853
 31
0.0
  0
LINE
  5
297F
330
18
100
AcDbEntity
  8
0
100
AcDbLine
 10
190.3790023493907
 20
479.9337638379008
 30
0.0
 11
190.3790023493907
 21
466.7997892416853
 31
0.0
  0
LINE
  5
2980
330
18
100
AcDbEntity
  8
0
100
AcDbLine
 10
192.14437415375
 20
479.9337638379008
 30
0.0
 11
192.14437415375
 21
466.7997892416853
 31
0.0
  0
LINE
  5
2981
330
18
100
AcDbEntity
  8
0
100
AcDbLine
 10
185.2616882515708
 20
425.2997892416853
 30
0.0
 11
198.7616882515708
 21
425.2997892416853
 31
0.0
  0
ARC
  5
2982
330
18
100
AcDbEntity
  8
0
100
AcDbCircle
 10
187.0703453004812
 20
432.0531774311
 30
0.0
 40
6.753388189414803
100
AcDbArc
 50
240.6643153306899
 51
299.3356846693091
  0
LINE
  5
2983
330
18
100
AcDbEntity
  8
0
100
AcDbLine
 10
174.7616882515708
 20
439.2997892416854
 30
0.0
 11
222.7616882515708
 21
439.2997892416854
 31
0.0
  0
LINE
  5
2984
330
18
100
AcDbEntity
  8
0
100
AcDbLine
 10
174.7616882515708
 20
456.2997892416854
 30
0.0
 11
174.7616882515708
 21
439.2997892416854
 31
0.0
  0
LINE
  5
2985
330
18
100
AcDbEntity
  8
0
100
AcDbLine
 10
183.7616882515708
 20
426.1658146454699
 30
0.0
 11
183.7616882515708
 21
439.2997892416854
 31
0.0
  0
LINE
  5
2986
330
18
100
AcDbEntity
  8
0
100
AcDbLine
 10
185.2616882515708
 20
425.2997892416853
 30
0.0
 11
183.7616882515708
 21
426.1658146454699
 31
0.0
  0
LINE
  5
2987
330
18
100
AcDbEntity
  8
0
100
AcDbLine
 10
173.7616882515708
 20
466.7997892416853
 30
0.0
 11
173.7616882515708
 21
456.2997892416854
 31
0.0
  0
LINE
  5
2988
330
18
100
AcDbEntity
  8
0
100
AcDbLine
 10
222.7616882515708
 20
456.2997892416854
 30
0.0
 11
222.7616882515708
 21
439.2997892416854
 31
0.0
  0
LINE
  5
2989
330
18
100
AcDbEntity
  8
0
100
AcDbLine
 10
207.14437415375
 20
426.1658146454699
 30
0.0
 11
205.3790023493916
 21
426.1658146454699
 31
0.0
  0
LINE
  5
298A
330
18
100
AcDbEntity
  8
0
100
AcDbLine
 10
198.7616882515708
 20
425.2997892416853
 30
0.0
 11
212.2616882515708
 21
425.2997892416853
 31
0.0
  0
LINE
  5
298B
330
18
100
AcDbEntity
  8
0
100
AcDbLine
 10
205.3790023493916
 20
426.1658146454699
 30
0.0
 11
205.3790023493916
 21
439.2997892416854
 31
0.0
  0
LINE
  5
298C
330
18
100
AcDbEntity
  8
0
100
AcDbLine
 10
190.3790023493907
 20
426.1658146454699
 30
0.0
 11
190.3790023493907
 21
439.2997892416854
 31
0.0
  0
LINE
  5
298D
330
18
100
AcDbEntity
  8
0
100
AcDbLine
 10
192.14437415375
 20
426.1658146454699
 30
0.0
 11
192.14437415375
 21
439.2997892416854
 31
0.0
  0
ARC
  5
298E
330
18
100
AcDbEntity
  8
0
100
AcDbCircle
 10
198.7616882515708
 20
451.0143038936696
 30
0.0
 40
25.71451465198432
100
AcDbArc
 50
255.0878507761323
 51
284.9121492238674
  0
LINE
  5
298F
330
18
100
AcDbEntity
  8
0
100
AcDbLine
 10
192.14437415375
 20
426.1658146454699
 30
0.0
 11
190.3790023493907
 21
426.1658146454699
 31
0.0
  0
LINE
  5
2990
330
18
100
AcDbEntity
  8
0
100
AcDbLine
 10
207.14437415375
 20
426.1658146454699
 30
0.0
 11
207.14437415375
 21
439.2997892416854
 31
0.0
  0
LINE
  5
2991
330
18
100
AcDbEntity
  8
0
100
AcDbLine
 10
213.7616882515708
 20
426.1658146454699
 30
0.0
 11
213.7616882515708
 21
439.2997892416854
 31
0.0
  0
ARC
  5
2992
330
18
100
AcDbEntity
  8
0
100
AcDbCircle
 10
210.4532492024941
 20
432.0540103012258
 30
0.0
 40
6.754221063058524
100
AcDbArc
 50
240.666164614317
 51
299.1902509639007
  0
LINE
  5
2993
330
18
100
AcDbEntity
  8
0
100
AcDbLine
 10
212.2616882515708
 20
425.2997892416853
 30
0.0
 11
213.7616882515708
 21
426.1658146454699
 31
0.0
  0
LINE
  5
2994
330
18
100
AcDbEntity
  8
0
100
AcDbLine
 10
185.2616882515708
 20
480.7997892416854
 30
0.0
 11
198.7616882515708
 21
480.7997892416854
 31
0.0
  0
ARC
  5
2995
330
18
100
AcDbEntity
  8
0
100
AcDbCircle
 10
187.0703453004812
 20
474.0464010522705
 30
0.0
 40
6.753388189414803
100
AcDbArc
 50
60.66431533069081
 51
119.33568466931
  0
LINE
  5
2996
330
18
100
AcDbEntity
  8
0
100
AcDbLine
 10
185.2616882515708
 20
480.7997892416854
 30
0.0
 11
183.7616882515708
 21
479.9337638379008
 31
0.0
  0
LINE
  5
2997
330
18
100
AcDbEntity
  8
0
100
AcDbLine
 10
207.14437415375
 20
479.9337638379008
 30
0.0
 11
205.3790023493916
 21
479.9337638379008
 31
0.0
  0
LINE
  5
2998
330
18
100
AcDbEntity
  8
0
100
AcDbLine
 10
198.7616882515708
 20
480.7997892416854
 30
0.0
 11
212.2616882515708
 21
480.7997892416854
 31
0.0
  0
ARC
  5
2999
330
18
100
AcDbEntity
  8
0
100
AcDbCircle
 10
198.7616882515708
 20
455.0852745897011
 30
0.0
 40
25.71451465198432
100
AcDbArc
 50
75.08785077613255
 51
104.9121492238676
  0
LINE
  5
299A
330
18
100
AcDbEntity
  8
0
100
AcDbLine
 10
192.14437415375
 20
479.9337638379008
 30
0.0
 11
190.3790023493907
 21
479.9337638379008
 31
0.0
  0
ARC
  5
299B
330
18
100
AcDbEntity
  8
0
100
AcDbCircle
 10
210.4532492024941
 20
474.0455681821449
 30
0.0
 40
6.754221063058524
100
AcDbArc
 50
60.80974903609927
 51
119.333835385683
  0
LINE
  5
299C
330
18
100
AcDbEntity
  8
0
100
AcDbLine
 10
212.2616882515708
 20
480.7997892416854
 30
0.0
 11
213.7616882515708
 21
479.9337638379008
 31
0.0
  0
LINE
  5
299D
330
18
100
AcDbEntity
  8
0
100
AcDbLine
 10
223.7616882515708
 20
466.7997892416853
 30
0.0
 11
223.7616882515708
 21
456.2997892416854
 31
0.0
  0
ARC
  5
299E
330
18
100
AcDbEntity
  8
0
100
AcDbCircle
 10
433.1449297817748
 20
358.1794254443768
 30
0.0
 40
22.74999999999999
100
AcDbArc
 50
145.6971090549424
 51
154.3028909450629
  0
ARC
  5
299F
330
18
100
AcDbEntity
  8
0
100
AcDbCircle
 10
433.1449297817748
 20
358.1794254443768
 30
0.0
 40
22.74999999999999
100
AcDbArc
 50
205.697109054937
 51
214.302890945057
  0
POLYLINE
  5
29A0
330
18
100
AcDbEntity
  8
0
100
AcDb2dPolyline
 66
     1
 10
0.0
 20
0.0
 30
0.0
  0
VERTEX
  5
32CE
330
29A0
100
AcDbEntity
  8
0
100
AcDbVertex
100
AcDb2dVertex
 10
414.3518404693536
 20
345.3582595810333
 30
0.0
  0
VERTEX
  5
32CF
330
29A0
100
AcDbEntity
  8
0
100
AcDbVertex
100
AcDb2dVertex
 10
431.438019094196
 20
335.4935497525587
 30
0.0
  0
SEQEND
  5
32D0
330
29A0
100
AcDbEntity
  8
0
  0
ARC
  5
29A1
330
18
100
AcDbEntity
  8
0
100
AcDbCircle
 10
417.1449297817749
 20
334.1794254443768
 30
0.0
 40
1.0
100
AcDbArc
 50
180.0
 51
270.0
  0
LINE
  5
29A2
330
18
100
AcDbEntity
  8
0
100
AcDbLine
 10
416.1449297817748
 20
339.8491226645535
 30
0.0
 11
416.1449297817748
 21
334.1794254443768
 31
0.0
  0
ARC
  5
29A3
330
18
100
AcDbEntity
  8
0
100
AcDbCircle
 10
433.1449297817748
 20
358.1794254443768
 30
0.0
 40
22.74999999999999
100
AcDbArc
 50
265.6971090549429
 51
274.3028909450569
  0
POLYLINE
  5
29A4
330
18
100
AcDbEntity
  8
0
100
AcDb2dPolyline
 66
     1
 10
0.0
 20
0.0
 30
0.0
  0
VERTEX
  5
32D1
330
29A4
100
AcDbEntity
  8
0
100
AcDbVertex
100
AcDb2dVertex
 10
412.6449297817748
 20
368.0441352728514
 30
0.0
  0
VERTEX
  5
32D2
330
29A4
100
AcDbEntity
  8
0
100
AcDbVertex
100
AcDb2dVertex
 10
412.6449297817748
 20
348.3147156159025
 30
0.0
  0
SEQEND
  5
32D3
330
29A4
100
AcDbEntity
  8
0
  0
POLYLINE
  5
29A5
330
18
100
AcDbEntity
  8
0
100
AcDb2dPolyline
 66
     1
 10
0.0
 20
0.0
 30
0.0
  0
VERTEX
  5
32D4
330
29A5
100
AcDbEntity
  8
0
100
AcDbVertex
100
AcDb2dVertex
 10
431.438019094196
 20
380.865301136195
 30
0.0
  0
VERTEX
  5
32D5
330
29A5
100
AcDbEntity
  8
0
100
AcDbVertex
100
AcDb2dVertex
 10
414.3518404693536
 20
371.0005913077206
 30
0.0
  0
SEQEND
  5
32D6
330
29A5
100
AcDbEntity
  8
0
  0
ARC
  5
29A6
330
18
100
AcDbEntity
  8
0
100
AcDbCircle
 10
433.1449297817748
 20
358.1794254443768
 30
0.0
 40
22.74999999999999
100
AcDbArc
 50
85.69710905494302
 51
94.30289094505754
  0
LINE
  5
29A7
330
18
100
AcDbEntity
  8
0
100
AcDbLine
 10
423.1519713369366
 20
483.1347257322242
 30
0.0
 11
423.1519713369366
 21
468.2997892416854
 31
0.0
  0
LINE
  5
29A8
330
18
100
AcDbEntity
  8
0
100
AcDbLine
 10
420.387888226613
 20
483.1347257322242
 30
0.0
 11
420.387888226613
 21
468.2997892416854
 31
0.0
  0
LINE
  5
29A9
330
18
100
AcDbEntity
  8
0
100
AcDbLine
 10
410.3949297817748
 20
484.0007511360088
 30
0.0
 11
410.3949297817748
 21
468.2997892416854
 31
0.0
  0
LINE
  5
29AA
330
18
100
AcDbEntity
  8
0
100
AcDbLine
 10
443.137888226613
 20
483.1347257322242
 30
0.0
 11
443.137888226613
 21
468.2997892416854
 31
0.0
  0
LINE
  5
29AB
330
18
100
AcDbEntity
  8
0
100
AcDbLine
 10
412.6449297817748
 20
425.2997892416853
 30
0.0
 11
410.3949297817748
 21
426.5988273473622
 31
0.0
  0
ARC
  5
29AC
330
18
100
AcDbEntity
  8
0
100
AcDbCircle
 10
415.3914090041939
 20
432.1476956634803
 30
0.0
 40
6.847906421794997
100
AcDbArc
 50
223.1441105637501
 51
316.85588943625
  0
LINE
  5
29AD
330
18
100
AcDbEntity
  8
0
100
AcDbLine
 10
409.1449297817749
 20
457.2997892416854
 30
0.0
 11
409.1449297817749
 21
440.7997892416854
 31
0.0
  0
LINE
  5
29AE
330
18
100
AcDbEntity
  8
0
100
AcDbLine
 10
410.3949297817748
 20
426.5988273473622
 30
0.0
 11
410.3949297817748
 21
440.7997892416854
 31
0.0
  0
LINE
  5
29AF
330
18
100
AcDbEntity
  8
0
100
AcDbLine
 10
408.1449297817748
 20
468.2997892416854
 30
0.0
 11
408.1449297817748
 21
457.2997892416854
 31
0.0
  0
ARC
  5
29B0
330
18
100
AcDbEntity
  8
0
100
AcDbCircle
 10
433.1449297817748
 20
449.4438196646735
 30
0.0
 40
24.14403042298818
100
AcDbArc
 50
245.5506033676939
 51
294.4493966323061
  0
LINE
  5
29B1
330
18
100
AcDbEntity
  8
0
100
AcDbLine
 10
412.6449297817748
 20
425.2997892416853
 30
0.0
 11
433.1449297817748
 21
425.2997892416853
 31
0.0
  0
LINE
  5
29B2
330
18
100
AcDbEntity
  8
0
100
AcDbLine
 10
420.387888226613
 20
427.4648527511465
 30
0.0
 11
420.387888226613
 21
440.7997892416854
 31
0.0
  0
LINE
  5
29B3
330
18
100
AcDbEntity
  8
0
100
AcDbLine
 10
423.1519713369366
 20
427.4648527511465
 30
0.0
 11
423.1519713369366
 21
440.7997892416854
 31
0.0
  0
LINE
  5
29B4
330
18
100
AcDbEntity
  8
0
100
AcDbLine
 10
423.1519713369366
 20
427.4648527511465
 30
0.0
 11
420.387888226613
 21
427.4648527511465
 31
0.0
  0
LINE
  5
29B5
330
18
100
AcDbEntity
  8
0
100
AcDbLine
 10
443.137888226613
 20
427.4648527511465
 30
0.0
 11
443.137888226613
 21
440.7997892416854
 31
0.0
  0
LINE
  5
29B6
330
18
100
AcDbEntity
  8
0
100
AcDbLine
 10
412.6449297817748
 20
485.2997892416854
 30
0.0
 11
410.3949297817748
 21
484.0007511360088
 31
0.0
  0
ARC
  5
29B7
330
18
100
AcDbEntity
  8
0
100
AcDbCircle
 10
415.3914090041939
 20
478.4518828198904
 30
0.0
 40
6.847906421794997
100
AcDbArc
 50
43.14411056374982
 51
136.8558894362499
  0
ARC
  5
29B8
330
18
100
AcDbEntity
  8
0
100
AcDbCircle
 10
433.1449297817748
 20
461.1557588186972
 30
0.0
 40
24.14403042298818
100
AcDbArc
 50
65.5506033676959
 51
114.4493966323041
  0
LINE
  5
29B9
330
18
100
AcDbEntity
  8
0
100
AcDbLine
 10
423.1519713369366
 20
483.1347257322242
 30
0.0
 11
420.387888226613
 21
483.1347257322242
 31
0.0
  0
TEXT
  5
29BA
330
18
100
AcDbEntity
  8
0
100
AcDbText
 10
625.3896442515806
 20
104.2459461888368
 30
0.0
 40
15.0
  1
TLV  LA21 (PT)
100
AcDbText
  0
LINE
  5
29BB
330
18
100
AcDbEntity
  8
0
100
AcDbLine
 10
521.0651309201725
 20
290.4439008158178
 30
0.0
 11
484.5651309201698
 21
290.4439008158183
 31
0.0
  0
LINE
  5
29BC
330
18
100
AcDbEntity
  8
0
100
AcDbLine
 10
477.8151309201716
 20
262.443900815818
 30
0.0
 11
521.1454336999945
 21
262.443900815818
 31
0.0
  0
LINE
  5
29BD
330
18
100
AcDbEntity
  8
0
100
AcDbLine
 10
478.8151309201716
 20
245.943900815818
 30
0.0
 11
527.8151309201708
 21
245.9439008158178
 31
0.0
  0
LINE
  5
29BE
330
18
100
AcDbEntity
  8
0
100
AcDbLine
 10
527.8151309201716
 20
268.4439008158181
 30
0.0
 11
477.8151309201716
 21
268.4439008158181
 31
0.0
  0
LINE
  5
29BF
330
18
100
AcDbEntity
  8
0
100
AcDbLine
 10
527.8151309201716
 20
273.443900815818
 30
0.0
 11
477.8151309201716
 21
273.443900815818
 31
0.0
  0
LINE
  5
29C0
330
18
100
AcDbEntity
  8
0
100
AcDbLine
 10
521.0651309201725
 20
230.4439008158183
 30
0.0
 11
484.5651309201698
 21
230.4439008158178
 31
0.0
  0
ARC
  5
29C1
330
18
100
AcDbEntity
  8
0
100
AcDbCircle
 10
513.0651309201708
 20
272.5063496399332
 30
0.0
 40
17.93755117588464
100
AcDbArc
 50
61.55803053783986
 51
118.4419694621569
  0
ARC
  5
29C2
330
18
100
AcDbEntity
  8
0
100
AcDbCircle
 10
513.0651309201708
 20
248.381451991703
 30
0.0
 40
17.93755117588464
100
AcDbArc
 50
241.558030537843
 51
298.4419694621601
  0
LINE
  5
29C3
330
18
100
AcDbEntity
  8
0
100
AcDbLine
 10
477.8151309201716
 20
273.443900815818
 30
0.0
 11
477.8151309201716
 21
262.443900815818
 31
0.0
  0
LINE
  5
29C4
330
18
100
AcDbEntity
  8
0
100
AcDbLine
 10
458.1449297817748
 20
273.443900815818
 30
0.0
 11
458.1449297817748
 21
262.443900815818
 31
0.0
  0
LINE
  5
29C5
330
18
100
AcDbEntity
  8
0
100
AcDbLine
 10
478.8151309201716
 20
262.443900815818
 30
0.0
 11
478.8151309201716
 21
245.943900815818
 31
0.0
  0
LINE
  5
29C6
330
18
100
AcDbEntity
  8
0
100
AcDbLine
 10
457.1449297817748
 20
262.443900815818
 30
0.0
 11
457.1449297817748
 21
245.943900815818
 31
0.0
  0
LINE
  5
29C7
330
18
100
AcDbEntity
  8
0
100
AcDbLine
 10
450.1449297817749
 20
266.943900815818
 30
0.0
 11
450.1449297817749
 21
245.943900815818
 31
0.0
  0
LINE
  5
29C8
330
18
100
AcDbEntity
  8
0
100
AcDbLine
 10
448.8949297817748
 20
266.4439008158181
 30
0.0
 11
448.8949297817748
 21
246.443900815818
 31
0.0
  0
LINE
  5
29C9
330
18
100
AcDbEntity
  8
0
100
AcDbLine
 10
455.8949297817748
 20
231.7429389214948
 30
0.0
 11
455.8949297817748
 21
245.943900815818
 31
0.0
  0
LINE
  5
29CA
330
18
100
AcDbEntity
  8
0
100
AcDbLine
 10
445.9019713369366
 20
232.6089643252791
 30
0.0
 11
445.9019713369366
 21
245.943900815818
 31
0.0
  0
LINE
  5
29CB
330
18
100
AcDbEntity
  8
0
100
AcDbLine
 10
453.6449297817748
 20
230.4439008158181
 30
0.0
 11
455.8949297817748
 21
231.7429389214948
 31
0.0
  0
ARC
  5
29CC
330
18
100
AcDbEntity
  8
0
100
AcDbCircle
 10
450.8984505593558
 20
237.291807237613
 30
0.0
 40
6.847906421794997
100
AcDbArc
 50
223.1441105637498
 51
316.8558894362499
  0
LINE
  5
29CD
330
18
100
AcDbEntity
  8
0
100
AcDbLine
 10
450.1449297817749
 20
262.443900815818
 30
0.0
 11
458.1449297817748
 21
262.443900815818
 31
0.0
  0
ARC
  5
29CE
330
18
100
AcDbEntity
  8
0
100
AcDbCircle
 10
492.5651309201708
 20
248.3814519917034
 30
0.0
 40
17.93755117588504
100
AcDbArc
 50
241.5580305378437
 51
298.4419694621584
  0
LINE
  5
29CF
330
18
100
AcDbEntity
  8
0
100
AcDbLine
 10
482.3151309201698
 20
231.7429389214946
 30
0.0
 11
482.3151309201707
 21
245.943900815818
 31
0.0
  0
LINE
  5
29D0
330
18
100
AcDbEntity
  8
0
100
AcDbLine
 10
484.0220416077504
 20
232.6089643252791
 30
0.0
 11
484.0220416077495
 21
245.9439008158183
 31
0.0
  0
LINE
  5
29D1
330
18
100
AcDbEntity
  8
0
100
AcDbLine
 10
482.3151309201707
 20
231.7429389214942
 30
0.0
 11
484.0220416077504
 21
232.6089643252791
 31
0.0
  0
LINE
  5
29D2
330
18
100
AcDbEntity
  8
0
100
AcDbLine
 10
484.5651309201698
 20
230.4439008158181
 30
0.0
 11
482.3151309201698
 21
231.7429389214946
 31
0.0
  0
LINE
  5
29D3
330
18
100
AcDbEntity
  8
0
100
AcDbLine
 10
501.1082202325919
 20
232.6089643252791
 30
0.0
 11
501.1082202325919
 21
245.9439008158183
 31
0.0
  0
LINE
  5
29D4
330
18
100
AcDbEntity
  8
0
100
AcDbLine
 10
504.5220416077504
 20
232.6089643252791
 30
0.0
 11
504.5220416077513
 21
245.9439008158183
 31
0.0
  0
LINE
  5
29D5
330
18
100
AcDbEntity
  8
0
100
AcDbLine
 10
504.5220416077504
 20
232.6089643252791
 30
0.0
 11
501.1082202325929
 21
232.6089643252789
 31
0.0
  0
LINE
  5
29D6
330
18
100
AcDbEntity
  8
0
100
AcDbLine
 10
455.8949297817748
 20
289.1448627101415
 30
0.0
 11
455.8949297817748
 21
273.443900815818
 31
0.0
  0
LINE
  5
29D7
330
18
100
AcDbEntity
  8
0
100
AcDbLine
 10
445.9019713369366
 20
288.2788373063569
 30
0.0
 11
445.9019713369366
 21
273.443900815818
 31
0.0
  0
LINE
  5
29D8
330
18
100
AcDbEntity
  8
0
100
AcDbLine
 10
453.6449297817748
 20
290.4439008158181
 30
0.0
 11
455.8949297817748
 21
289.1448627101415
 31
0.0
  0
ARC
  5
29D9
330
18
100
AcDbEntity
  8
0
100
AcDbCircle
 10
450.8984505593558
 20
283.5959943940231
 30
0.0
 40
6.847906421794997
100
AcDbArc
 50
43.14411056375014
 51
136.85588943625
  0
ARC
  5
29DA
330
18
100
AcDbEntity
  8
0
100
AcDbCircle
 10
492.5651309201708
 20
272.5063496399327
 30
0.0
 40
17.93755117588504
100
AcDbArc
 50
61.55803053784154
 51
118.4419694621562
  0
LINE
  5
29DB
330
18
100
AcDbEntity
  8
0
100
AcDbLine
 10
482.3151309201698
 20
289.1448627101415
 30
0.0
 11
482.3151309201698
 21
273.443900815818
 31
0.0
  0
LINE
  5
29DC
330
18
100
AcDbEntity
  8
0
100
AcDbLine
 10
484.0220416077504
 20
288.2788373063569
 30
0.0
 11
484.0220416077504
 21
273.443900815818
 31
0.0
  0
LINE
  5
29DD
330
18
100
AcDbEntity
  8
0
100
AcDbLine
 10
484.5651309201698
 20
290.4439008158181
 30
0.0
 11
482.3151309201698
 21
289.1448627101415
 31
0.0
  0
LINE
  5
29DE
330
18
100
AcDbEntity
  8
0
100
AcDbLine
 10
482.3151309201707
 20
289.1448627101419
 30
0.0
 11
484.0220416077504
 21
288.2788373063569
 31
0.0
  0
LINE
  5
29DF
330
18
100
AcDbEntity
  8
0
100
AcDbLine
 10
501.1082202325919
 20
288.2788373063569
 30
0.0
 11
501.1082202325919
 21
273.443900815818
 31
0.0
  0
LINE
  5
29E0
330
18
100
AcDbEntity
  8
0
100
AcDbLine
 10
504.5220416077504
 20
288.2788373063569
 30
0.0
 11
504.5220416077504
 21
273.443900815818
 31
0.0
  0
LINE
  5
29E1
330
18
100
AcDbEntity
  8
0
100
AcDbLine
 10
504.5220416077504
 20
288.2788373063569
 30
0.0
 11
501.1082202325929
 21
288.2788373063572
 31
0.0
  0
LINE
  5
29E2
330
18
100
AcDbEntity
  8
0
100
AcDbLine
 10
527.8151309201716
 20
273.443900815818
 30
0.0
 11
527.8151309201716
 21
262.443900815818
 31
0.0
  0
LINE
  5
29E3
330
18
100
AcDbEntity
  8
0
100
AcDbLine
 10
527.8151309201716
 20
266.943900815818
 30
0.0
 11
527.8151309201708
 21
245.9439008158178
 31
0.0
  0
LINE
  5
29E4
330
18
100
AcDbEntity
  8
0
100
AcDbLine
 10
521.1454336999945
 20
266.943900815818
 30
0.0
 11
521.1454336999945
 21
245.943900815818
 31
0.0
  0
LINE
  5
29E5
330
18
100
AcDbEntity
  8
0
100
AcDbLine
 10
521.6082202325928
 20
232.6089643252791
 30
0.0
 11
521.6082202325928
 21
245.9439008158183
 31
0.0
  0
LINE
  5
29E6
330
18
100
AcDbEntity
  8
0
100
AcDbLine
 10
523.3151309201717
 20
231.7429389214946
 30
0.0
 11
523.3151309201725
 21
245.943900815818
 31
0.0
  0
LINE
  5
29E7
330
18
100
AcDbEntity
  8
0
100
AcDbLine
 10
523.3151309201717
 20
231.7429389214946
 30
0.0
 11
521.6082202325928
 21
232.6089643252791
 31
0.0
  0
LINE
  5
29E8
330
18
100
AcDbEntity
  8
0
100
AcDbLine
 10
521.0651309201717
 20
230.4439008158181
 30
0.0
 11
523.3151309201717
 21
231.7429389214946
 31
0.0
  0
LINE
  5
29E9
330
18
100
AcDbEntity
  8
0
100
AcDbLine
 10
521.1454336999945
 20
266.943900815818
 30
0.0
 11
527.8151309201716
 21
266.943900815818
 31
0.0
  0
LINE
  5
29EA
330
18
100
AcDbEntity
  8
0
100
AcDbLine
 10
521.6082202325928
 20
288.2788373063569
 30
0.0
 11
521.6082202325928
 21
273.443900815818
 31
0.0
  0
LINE
  5
29EB
330
18
100
AcDbEntity
  8
0
100
AcDbLine
 10
523.3151309201717
 20
289.1448627101415
 30
0.0
 11
523.3151309201717
 21
273.443900815818
 31
0.0
  0
LINE
  5
29EC
330
18
100
AcDbEntity
  8
0
100
AcDbLine
 10
521.0651309201717
 20
290.4439008158181
 30
0.0
 11
523.3151309201717
 21
289.1448627101415
 31
0.0
  0
LINE
  5
29ED
330
18
100
AcDbEntity
  8
0
100
AcDbLine
 10
523.3151309201717
 20
289.1448627101415
 30
0.0
 11
521.6082202325928
 21
288.2788373063569
 31
0.0
  0
TEXT
  5
29EE
330
18
100
AcDbEntity
  8
0
100
AcDbText
 10
686.4521041100765
 20
163.2325914233949
 30
0.0
 40
10.0
  1
15A
 41
0.8
 11
686.4521041100765
 21
163.2325914233949
 31
0.0
100
AcDbText
 73
     1
  0
LINE
  5
29EF
330
18
100
AcDbEntity
  8
0
100
AcDbLine
 10
696.7542104872443
 20
189.8837408286583
 30
0.0
 11
696.7542104872443
 21
205.0091408286584
 31
0.0
  0
LINE
  5
29F0
330
18
100
AcDbEntity
  8
0
100
AcDbLine
 10
701.796010487244
 20
220.1354408286583
 30
0.0
 11
701.796010487244
 21
194.9255408286581
 31
0.0
  0
LINE
  5
29F1
330
18
100
AcDbEntity
  8
0
100
AcDbLine
 10
701.796010487244
 20
194.9255408286581
 30
0.0
 11
696.7542104872443
 21
189.8837408286583
 31
0.0
  0
LINE
  5
29F2
330
18
100
AcDbEntity
  8
0
100
AcDbLine
 10
699.2751104872442
 20
207.5309408286585
 30
0.0
 11
699.2751104872442
 21
214.9838408286587
 31
0.0
  0
LINE
  5
29F3
330
18
100
AcDbEntity
  8
0
100
AcDbLine
 10
696.7542104872443
 20
205.0091408286584
 30
0.0
 11
699.2751104872442
 21
207.5309408286585
 31
0.0
  0
LINE
  5
29F4
330
18
100
AcDbEntity
  8
0
100
AcDbLine
 10
699.2751104872442
 20
214.9838408286587
 30
0.0
 11
696.7542104872443
 21
214.9838408286587
 31
0.0
  0
LINE
  5
29F5
330
18
100
AcDbEntity
  8
0
100
AcDbLine
 10
696.7542104872443
 20
214.9838408286587
 30
0.0
 11
701.796010487244
 21
220.1354408286583
 31
0.0
  0
LINE
  5
29F6
330
18
100
AcDbEntity
  8
0
100
AcDbLine
 10
662.522508883369
 20
271.9439008158181
 30
0.0
 11
615.522508883369
 21
271.9439008158181
 31
0.0
  0
LINE
  5
29F7
330
18
100
AcDbEntity
  8
0
100
AcDbLine
 10
662.022508883369
 20
244.443900815818
 30
0.0
 11
616.022508883369
 21
244.443900815818
 31
0.0
  0
LINE
  5
29F8
330
18
100
AcDbEntity
  8
0
100
AcDbLine
 10
662.022508883369
 20
266.943900815818
 30
0.0
 11
616.022508883369
 21
266.943900815818
 31
0.0
  0
LINE
  5
29F9
330
18
100
AcDbEntity
  8
0
100
AcDbLine
 10
615.522508883369
 20
271.9439008158181
 30
0.0
 11
615.522508883369
 21
267.443900815818
 31
0.0
  0
LINE
  5
29FA
330
18
100
AcDbEntity
  8
0
100
AcDbLine
 10
615.7586066147528
 20
266.4439008158181
 30
0.0
 11
615.7586066147528
 21
246.443900815818
 31
0.0
  0
LINE
  5
29FB
330
18
100
AcDbEntity
  8
0
100
AcDbLine
 10
616.022508883369
 20
244.443900815818
 30
0.0
 11
616.022508883369
 21
266.4439008158181
 31
0.0
  0
LINE
  5
29FC
330
18
100
AcDbEntity
  8
0
100
AcDbLine
 10
616.022508883369
 20
246.4439008158183
 30
0.0
 11
615.7586066147528
 21
246.443900815818
 31
0.0
  0
LINE
  5
29FD
330
18
100
AcDbEntity
  8
0
100
AcDbLine
 10
616.022508883369
 20
266.4439008158183
 30
0.0
 11
615.7586066147528
 21
266.4439008158181
 31
0.0
  0
LINE
  5
29FE
330
18
100
AcDbEntity
  8
0
100
AcDbLine
 10
616.522508883369
 20
266.943900815818
 30
0.0
 11
616.022508883369
 21
266.4439008158181
 31
0.0
  0
LINE
  5
29FF
330
18
100
AcDbEntity
  8
0
100
AcDbLine
 10
616.022508883369
 20
266.943900815818
 30
0.0
 11
615.522508883369
 21
267.443900815818
 31
0.0
  0
LINE
  5
2A00
330
18
100
AcDbEntity
  8
0
100
AcDbLine
 10
651.0225088833717
 20
230.4439008158181
 30
0.0
 11
627.0225088833317
 21
230.4439008158181
 31
0.0
  0
ARC
  5
2A01
330
18
100
AcDbEntity
  8
0
100
AcDbCircle
 10
632.2725088833717
 20
249.3882065235927
 30
0.0
 40
18.94430570777452
100
AcDbArc
 50
252.6086979539631
 51
287.3913020460314
  0
LINE
  5
2A02
330
18
100
AcDbEntity
  8
0
100
AcDbLine
 10
625.522508883329
 20
244.4439008158192
 30
0.0
 11
625.522508883329
 21
231.3099262196037
 31
0.0
  0
LINE
  5
2A03
330
18
100
AcDbEntity
  8
0
100
AcDbLine
 10
626.6101330569186
 20
231.3099262196026
 30
0.0
 11
626.6101330569186
 21
244.443900815818
 31
0.0
  0
LINE
  5
2A04
330
18
100
AcDbEntity
  8
0
100
AcDbLine
 10
627.0225088833289
 20
230.4439008158192
 30
0.0
 11
625.522508883329
 21
231.3099262196037
 31
0.0
  0
LINE
  5
2A05
330
18
100
AcDbEntity
  8
0
100
AcDbLine
 10
625.5225088833699
 20
231.3099262196028
 30
0.0
 11
626.6101330569186
 21
231.3099262196026
 31
0.0
  0
LINE
  5
2A06
330
18
100
AcDbEntity
  8
0
100
AcDbLine
 10
637.934884709824
 20
231.3099262195903
 30
0.0
 11
637.934884709824
 21
244.4439008158058
 31
0.0
  0
LINE
  5
2A07
330
18
100
AcDbEntity
  8
0
100
AcDbLine
 10
651.434884709814
 20
231.3099262196028
 30
0.0
 11
651.434884709814
 21
244.4439008158183
 31
0.0
  0
LINE
  5
2A08
330
18
100
AcDbEntity
  8
0
100
AcDbLine
 10
640.1101330569413
 20
231.3099262196026
 30
0.0
 11
640.1101330569413
 21
244.443900815818
 31
0.0
  0
LINE
  5
2A09
330
18
100
AcDbEntity
  8
0
100
AcDbLine
 10
652.5225088833717
 20
244.443900815818
 30
0.0
 11
652.5225088833717
 21
231.3099262196026
 31
0.0
  0
ARC
  5
2A0A
330
18
100
AcDbEntity
  8
0
100
AcDbCircle
 10
645.7725088833817
 20
249.3882065235245
 30
0.0
 40
18.94430570770644
100
AcDbArc
 50
252.6086979539383
 51
287.3913020460642
  0
LINE
  5
2A0B
330
18
100
AcDbEntity
  8
0
100
AcDbLine
 10
637.934884709823
 20
231.3099262196026
 30
0.0
 11
640.1101330569413
 21
231.3099262196026
 31
0.0
  0
LINE
  5
2A0C
330
18
100
AcDbEntity
  8
0
100
AcDbLine
 10
651.0225088833717
 20
230.4439008158181
 30
0.0
 11
652.5225088833717
 21
231.3099262196026
 31
0.0
  0
LINE
  5
2A0D
330
18
100
AcDbEntity
  8
0
100
AcDbLine
 10
651.4348847098131
 20
231.3099262196022
 30
0.0
 11
652.5225088833708
 21
231.3099262196022
 31
0.0
  0
LINE
  5
2A0E
330
18
100
AcDbEntity
  8
0
100
AcDbLine
 10
651.0225088833717
 20
285.943900815818
 30
0.0
 11
627.0225088833317
 21
285.943900815818
 31
0.0
  0
ARC
  5
2A0F
330
18
100
AcDbEntity
  8
0
100
AcDbCircle
 10
632.2725088833717
 20
266.9995951080434
 30
0.0
 40
18.94430570777452
100
AcDbArc
 50
72.60869795396853
 51
107.3913020460368
  0
LINE
  5
2A10
330
18
100
AcDbEntity
  8
0
100
AcDbLine
 10
626.6101330569186
 20
285.0778754120335
 30
0.0
 11
626.6101330569186
 21
271.9439008158181
 31
0.0
  0
LINE
  5
2A11
330
18
100
AcDbEntity
  8
0
100
AcDbLine
 10
625.522508883329
 20
271.9439008158169
 30
0.0
 11
625.522508883329
 21
285.0778754120324
 31
0.0
  0
LINE
  5
2A12
330
18
100
AcDbEntity
  8
0
100
AcDbLine
 10
625.5225088833699
 20
285.0778754120333
 30
0.0
 11
626.6101330569186
 21
285.0778754120335
 31
0.0
  0
LINE
  5
2A13
330
18
100
AcDbEntity
  8
0
100
AcDbLine
 10
627.0225088833289
 20
285.9439008158169
 30
0.0
 11
625.522508883329
 21
285.0778754120324
 31
0.0
  0
LINE
  5
2A14
330
18
100
AcDbEntity
  8
0
100
AcDbLine
 10
637.934884709824
 20
285.0778754120458
 30
0.0
 11
637.934884709824
 21
271.9439008158303
 31
0.0
  0
LINE
  5
2A15
330
18
100
AcDbEntity
  8
0
100
AcDbLine
 10
640.1101330569413
 20
285.0778754120335
 30
0.0
 11
640.1101330569413
 21
271.9439008158181
 31
0.0
  0
LINE
  5
2A16
330
18
100
AcDbEntity
  8
0
100
AcDbLine
 10
651.434884709814
 20
285.0778754120333
 30
0.0
 11
651.434884709814
 21
271.9439008158178
 31
0.0
  0
LINE
  5
2A17
330
18
100
AcDbEntity
  8
0
100
AcDbLine
 10
652.5225088833717
 20
271.9439008158181
 30
0.0
 11
652.5225088833717
 21
285.0778754120335
 31
0.0
  0
ARC
  5
2A18
330
18
100
AcDbEntity
  8
0
100
AcDbCircle
 10
645.7725088833817
 20
266.9995951081116
 30
0.0
 40
18.94430570770644
100
AcDbArc
 50
72.60869795393574
 51
107.3913020460617
  0
LINE
  5
2A19
330
18
100
AcDbEntity
  8
0
100
AcDbLine
 10
637.934884709823
 20
285.0778754120335
 30
0.0
 11
640.1101330569413
 21
285.0778754120335
 31
0.0
  0
LINE
  5
2A1A
330
18
100
AcDbEntity
  8
0
100
AcDbLine
 10
651.4348847098131
 20
285.077875412034
 30
0.0
 11
652.5225088833708
 21
285.077875412034
 31
0.0
  0
LINE
  5
2A1B
330
18
100
AcDbEntity
  8
0
100
AcDbLine
 10
651.0225088833717
 20
285.943900815818
 30
0.0
 11
652.5225088833717
 21
285.0778754120335
 31
0.0
  0
LINE
  5
2A1C
330
18
100
AcDbEntity
  8
0
100
AcDbLine
 10
675.9022579143243
 20
271.9439008158181
 30
0.0
 11
675.9022579143243
 21
267.443900815818
 31
0.0
  0
LINE
  5
2A1D
330
18
100
AcDbEntity
  8
0
100
AcDbLine
 10
722.9022579143243
 20
271.9439008158181
 30
0.0
 11
722.9022579143243
 21
267.443900815818
 31
0.0
  0
LINE
  5
2A1E
330
18
100
AcDbEntity
  8
0
100
AcDbLine
 10
662.522508883369
 20
271.9439008158181
 30
0.0
 11
662.522508883369
 21
267.443900815818
 31
0.0
  0
LINE
  5
2A1F
330
18
100
AcDbEntity
  8
0
100
AcDbLine
 10
676.4022579143243
 20
244.443900815818
 30
0.0
 11
722.4022579143243
 21
244.443900815818
 31
0.0
  0
LINE
  5
2A20
330
18
100
AcDbEntity
  8
0
100
AcDbLine
 10
676.4022579143243
 20
266.943900815818
 30
0.0
 11
722.4022579143243
 21
266.943900815818
 31
0.0
  0
ARC
  5
2A21
330
18
100
AcDbEntity
  8
0
100
AcDbCircle
 10
687.7109149632347
 20
237.1972890052331
 30
0.0
 40
6.753388189414994
100
AcDbArc
 50
240.6643153306914
 51
299.3356846693085
  0
LINE
  5
2A22
330
18
100
AcDbEntity
  8
0
100
AcDbLine
 10
685.9022579143243
 20
230.4439008158181
 30
0.0
 11
699.4022579143242
 21
230.4439008158181
 31
0.0
  0
LINE
  5
2A23
330
18
100
AcDbEntity
  8
0
100
AcDbLine
 10
682.4022579143242
 20
246.443900815818
 30
0.0
 11
716.4022579143242
 21
246.443900815818
 31
0.0
  0
LINE
  5
2A24
330
18
100
AcDbEntity
  8
0
100
AcDbLine
 10
682.4022579143242
 20
266.4439008158181
 30
0.0
 11
716.4022579143242
 21
266.4439008158181
 31
0.0
  0
LINE
  5
2A25
330
18
100
AcDbEntity
  8
0
100
AcDbLine
 10
676.4022579143243
 20
244.443900815818
 30
0.0
 11
676.4022579143243
 21
266.4439008158181
 31
0.0
  0
LINE
  5
2A26
330
18
100
AcDbEntity
  8
0
100
AcDbLine
 10
682.4022579143242
 20
266.4439008158181
 30
0.0
 11
682.4022579143242
 21
246.443900815818
 31
0.0
  0
LINE
  5
2A27
330
18
100
AcDbEntity
  8
0
100
AcDbLine
 10
662.022508883369
 20
244.443900815818
 30
0.0
 11
662.022508883369
 21
266.4439008158181
 31
0.0
  0
LINE
  5
2A28
330
18
100
AcDbEntity
  8
0
100
AcDbLine
 10
684.4022579143243
 20
244.443900815818
 30
0.0
 11
684.4022579143243
 21
231.3099262196026
 31
0.0
  0
LINE
  5
2A29
330
18
100
AcDbEntity
  8
0
100
AcDbLine
 10
685.9022579143243
 20
230.4439008158181
 30
0.0
 11
684.4022579143243
 21
231.3099262196026
 31
0.0
  0
LINE
  5
2A2A
330
18
100
AcDbEntity
  8
0
100
AcDbLine
 10
661.522508883369
 20
266.943900815818
 30
0.0
 11
662.022508883369
 21
266.4439008158181
 31
0.0
  0
LINE
  5
2A2B
330
18
100
AcDbEntity
  8
0
100
AcDbLine
 10
662.022508883369
 20
266.943900815818
 30
0.0
 11
662.522508883369
 21
267.443900815818
 31
0.0
  0
LINE
  5
2A2C
330
18
100
AcDbEntity
  8
0
100
AcDbLine
 10
676.9022579143243
 20
266.943900815818
 30
0.0
 11
676.4022579143243
 21
266.4439008158181
 31
0.0
  0
LINE
  5
2A2D
330
18
100
AcDbEntity
  8
0
100
AcDbLine
 10
676.4022579143243
 20
266.943900815818
 30
0.0
 11
675.9022579143243
 21
267.443900815818
 31
0.0
  0
LINE
  5
2A2E
330
18
100
AcDbEntity
  8
0
100
AcDbLine
 10
716.4022579143242
 20
266.4439008158181
 30
0.0
 11
716.4022579143242
 21
246.443900815818
 31
0.0
  0
LINE
  5
2A2F
330
18
100
AcDbEntity
  8
0
100
AcDbLine
 10
722.4022579143243
 20
244.443900815818
 30
0.0
 11
722.4022579143243
 21
266.4439008158181
 31
0.0
  0
LINE
  5
2A30
330
18
100
AcDbEntity
  8
0
100
AcDbLine
 10
707.7849438165035
 20
231.3099262196026
 30
0.0
 11
706.0195720121441
 21
231.3099262196026
 31
0.0
  0
LINE
  5
2A31
330
18
100
AcDbEntity
  8
0
100
AcDbLine
 10
699.4022579143242
 20
230.4439008158181
 30
0.0
 11
712.9022579143243
 21
230.4439008158181
 31
0.0
  0
LINE
  5
2A32
330
18
100
AcDbEntity
  8
0
100
AcDbLine
 10
706.0195720121441
 20
231.3099262196026
 30
0.0
 11
706.0195720121441
 21
244.443900815818
 31
0.0
  0
LINE
  5
2A33
330
18
100
AcDbEntity
  8
0
100
AcDbLine
 10
692.7849438165035
 20
231.3099262196026
 30
0.0
 11
692.7849438165035
 21
244.443900815818
 31
0.0
  0
LINE
  5
2A34
330
18
100
AcDbEntity
  8
0
100
AcDbLine
 10
691.0195720121442
 20
231.3099262196026
 30
0.0
 11
691.0195720121442
 21
244.443900815818
 31
0.0
  0
ARC
  5
2A35
330
18
100
AcDbEntity
  8
0
100
AcDbCircle
 10
699.4022579143242
 20
256.1584154678014
 30
0.0
 40
25.71451465198336
100
AcDbArc
 50
255.0878507761322
 51
284.9121492238677
  0
LINE
  5
2A36
330
18
100
AcDbEntity
  8
0
100
AcDbLine
 10
692.7849438165035
 20
231.3099262196026
 30
0.0
 11
691.0195720121442
 21
231.3099262196026
 31
0.0
  0
LINE
  5
2A37
330
18
100
AcDbEntity
  8
0
100
AcDbLine
 10
714.4022579143243
 20
244.443900815818
 30
0.0
 11
714.4022579143243
 21
231.3099262196026
 31
0.0
  0
LINE
  5
2A38
330
18
100
AcDbEntity
  8
0
100
AcDbLine
 10
707.7849438165035
 20
231.3099262196026
 30
0.0
 11
707.7849438165035
 21
244.443900815818
 31
0.0
  0
LINE
  5
2A39
330
18
100
AcDbEntity
  8
0
100
AcDbLine
 10
712.9022579143243
 20
230.4439008158181
 30
0.0
 11
714.4022579143243
 21
231.3099262196026
 31
0.0
  0
ARC
  5
2A3A
330
18
100
AcDbEntity
  8
0
100
AcDbCircle
 10
711.0936008654139
 20
237.1972890052331
 30
0.0
 40
6.753388189414994
100
AcDbArc
 50
240.6643153306915
 51
299.3356846693085
  0
LINE
  5
2A3B
330
18
100
AcDbEntity
  8
0
100
AcDbLine
 10
721.9022579143243
 20
266.943900815818
 30
0.0
 11
722.4022579143243
 21
266.4439008158181
 31
0.0
  0
LINE
  5
2A3C
330
18
100
AcDbEntity
  8
0
100
AcDbLine
 10
722.4022579143243
 20
266.943900815818
 30
0.0
 11
722.9022579143243
 21
267.443900815818
 31
0.0
  0
LINE
  5
2A3D
330
18
100
AcDbEntity
  8
0
100
AcDbLine
 10
675.9022579143243
 20
271.9439008158181
 30
0.0
 11
722.9022579143243
 21
271.9439008158181
 31
0.0
  0
ARC
  5
2A3E
330
18
100
AcDbEntity
  8
0
100
AcDbCircle
 10
687.7109149632347
 20
279.190512626403
 30
0.0
 40
6.753388189414994
100
AcDbArc
 50
60.66431533069146
 51
119.3356846693085
  0
LINE
  5
2A3F
330
18
100
AcDbEntity
  8
0
100
AcDbLine
 10
685.9022579143243
 20
285.943900815818
 30
0.0
 11
712.9022579143243
 21
285.943900815818
 31
0.0
  0
LINE
  5
2A40
330
18
100
AcDbEntity
  8
0
100
AcDbLine
 10
684.4022579143243
 20
271.9439008158181
 30
0.0
 11
684.4022579143243
 21
285.0778754120335
 31
0.0
  0
LINE
  5
2A41
330
18
100
AcDbEntity
  8
0
100
AcDbLine
 10
685.9022579143243
 20
285.943900815818
 30
0.0
 11
684.4022579143243
 21
285.0778754120335
 31
0.0
  0
LINE
  5
2A42
330
18
100
AcDbEntity
  8
0
100
AcDbLine
 10
707.7849438165035
 20
285.0778754120335
 30
0.0
 11
706.0195720121441
 21
285.0778754120335
 31
0.0
  0
LINE
  5
2A43
330
18
100
AcDbEntity
  8
0
100
AcDbLine
 10
706.0195720121441
 20
285.0778754120335
 30
0.0
 11
706.0195720121441
 21
271.9439008158181
 31
0.0
  0
LINE
  5
2A44
330
18
100
AcDbEntity
  8
0
100
AcDbLine
 10
691.0195720121442
 20
285.0778754120335
 30
0.0
 11
691.0195720121442
 21
271.9439008158181
 31
0.0
  0
LINE
  5
2A45
330
18
100
AcDbEntity
  8
0
100
AcDbLine
 10
692.7849438165035
 20
285.0778754120335
 30
0.0
 11
692.7849438165035
 21
271.9439008158181
 31
0.0
  0
ARC
  5
2A46
330
18
100
AcDbEntity
  8
0
100
AcDbCircle
 10
699.4022579143242
 20
260.2293861638347
 30
0.0
 40
25.71451465198336
100
AcDbArc
 50
75.08785077613224
 51
104.9121492238677
  0
LINE
  5
2A47
330
18
100
AcDbEntity
  8
0
100
AcDbLine
 10
692.7849438165035
 20
285.0778754120335
 30
0.0
 11
691.0195720121442
 21
285.0778754120335
 31
0.0
  0
LINE
  5
2A48
330
18
100
AcDbEntity
  8
0
100
AcDbLine
 10
714.4022579143243
 20
271.9439008158181
 30
0.0
 11
714.4022579143243
 21
285.0778754120335
 31
0.0
  0
LINE
  5
2A49
330
18
100
AcDbEntity
  8
0
100
AcDbLine
 10
707.7849438165035
 20
285.0778754120335
 30
0.0
 11
707.7849438165035
 21
271.9439008158181
 31
0.0
  0
LINE
  5
2A4A
330
18
100
AcDbEntity
  8
0
100
AcDbLine
 10
712.9022579143243
 20
285.943900815818
 30
0.0
 11
714.4022579143243
 21
285.0778754120335
 31
0.0
  0
ARC
  5
2A4B
330
18
100
AcDbEntity
  8
0
100
AcDbCircle
 10
711.0936008654139
 20
279.190512626403
 30
0.0
 40
6.753388189414994
100
AcDbArc
 50
60.66431533069146
 51
119.3356846693084
  0
LINE
  5
2A4C
330
18
100
AcDbEntity
  8
0
100
AcDbLine
 10
782.3173895290824
 20
271.9439008158181
 30
0.0
 11
782.3173895290824
 21
267.443900815818
 31
0.0
  0
LINE
  5
2A4D
330
18
100
AcDbEntity
  8
0
100
AcDbLine
 10
735.3173895290824
 20
271.9439008158181
 30
0.0
 11
735.3173895290824
 21
267.443900815818
 31
0.0
  0
LINE
  5
2A4E
330
18
100
AcDbEntity
  8
0
100
AcDbLine
 10
746.8173895290797
 20
230.4439008158181
 30
0.0
 11
770.8173895291197
 21
230.4439008158181
 31
0.0
  0
LINE
  5
2A4F
330
18
100
AcDbEntity
  8
0
100
AcDbLine
 10
759.9050137026283
 20
231.3099262196026
 30
0.0
 11
757.7297653555101
 21
231.3099262196026
 31
0.0
  0
LINE
  5
2A50
330
18
100
AcDbEntity
  8
0
100
AcDbLine
 10
735.8173895290824
 20
244.443900815818
 30
0.0
 11
781.8173895290824
 21
244.443900815818
 31
0.0
  0
LINE
  5
2A51
330
18
100
AcDbEntity
  8
0
100
AcDbLine
 10
735.8173895290824
 20
266.943900815818
 30
0.0
 11
781.8173895290824
 21
266.943900815818
 31
0.0
  0
LINE
  5
2A52
330
18
100
AcDbEntity
  8
0
100
AcDbLine
 10
735.8173895290824
 20
244.443900815818
 30
0.0
 11
735.8173895290824
 21
266.4439008158181
 31
0.0
  0
LINE
  5
2A53
330
18
100
AcDbEntity
  8
0
100
AcDbLine
 10
745.3173895290797
 20
244.443900815818
 30
0.0
 11
745.3173895290797
 21
231.3099262196026
 31
0.0
  0
LINE
  5
2A54
330
18
100
AcDbEntity
  8
0
100
AcDbLine
 10
746.4050137026374
 20
231.3099262196028
 30
0.0
 11
746.4050137026374
 21
244.4439008158183
 31
0.0
  0
LINE
  5
2A55
330
18
100
AcDbEntity
  8
0
100
AcDbLine
 10
757.7297653555101
 20
231.3099262196026
 30
0.0
 11
757.7297653555101
 21
244.443900815818
 31
0.0
  0
ARC
  5
2A56
330
18
100
AcDbEntity
  8
0
100
AcDbCircle
 10
752.0673895290697
 20
249.3882065235245
 30
0.0
 40
18.94430570770644
100
AcDbArc
 50
252.6086979539357
 51
287.3913020460617
  0
LINE
  5
2A57
330
18
100
AcDbEntity
  8
0
100
AcDbLine
 10
746.8173895290797
 20
230.4439008158181
 30
0.0
 11
745.3173895290797
 21
231.3099262196026
 31
0.0
  0
LINE
  5
2A58
330
18
100
AcDbEntity
  8
0
100
AcDbLine
 10
746.4050137026383
 20
231.3099262196022
 30
0.0
 11
745.3173895290806
 21
231.3099262196022
 31
0.0
  0
LINE
  5
2A59
330
18
100
AcDbEntity
  8
0
100
AcDbLine
 10
736.3173895290824
 20
266.943900815818
 30
0.0
 11
735.8173895290824
 21
266.4439008158181
 31
0.0
  0
LINE
  5
2A5A
330
18
100
AcDbEntity
  8
0
100
AcDbLine
 10
735.8173895290824
 20
266.943900815818
 30
0.0
 11
735.3173895290824
 21
267.443900815818
 31
0.0
  0
LINE
  5
2A5B
330
18
100
AcDbEntity
  8
0
100
AcDbLine
 10
781.8173895290824
 20
244.443900815818
 30
0.0
 11
781.8173895290824
 21
266.4439008158181
 31
0.0
  0
LINE
  5
2A5C
330
18
100
AcDbEntity
  8
0
100
AcDbLine
 10
782.0812917976986
 20
266.4439008158181
 30
0.0
 11
782.0812917976986
 21
246.443900815818
 31
0.0
  0
LINE
  5
2A5D
330
18
100
AcDbEntity
  8
0
100
AcDbLine
 10
772.3173895291225
 20
244.4439008158192
 30
0.0
 11
772.3173895291225
 21
231.3099262196037
 31
0.0
  0
LINE
  5
2A5E
330
18
100
AcDbEntity
  8
0
100
AcDbLine
 10
759.9050137026274
 20
231.3099262195903
 30
0.0
 11
759.9050137026274
 21
244.4439008158058
 31
0.0
  0
LINE
  5
2A5F
330
18
100
AcDbEntity
  8
0
100
AcDbLine
 10
771.2297653555329
 20
231.3099262196026
 30
0.0
 11
771.2297653555329
 21
244.443900815818
 31
0.0
  0
ARC
  5
2A60
330
18
100
AcDbEntity
  8
0
100
AcDbCircle
 10
765.5673895290797
 20
249.3882065235927
 30
0.0
 40
18.94430570777452
100
AcDbArc
 50
252.6086979539685
 51
287.3913020460367
  0
LINE
  5
2A61
330
18
100
AcDbEntity
  8
0
100
AcDbLine
 10
770.8173895291224
 20
230.4439008158192
 30
0.0
 11
772.3173895291225
 21
231.3099262196037
 31
0.0
  0
LINE
  5
2A62
330
18
100
AcDbEntity
  8
0
100
AcDbLine
 10
772.3173895290815
 20
231.3099262196028
 30
0.0
 11
771.2297653555329
 21
231.3099262196026
 31
0.0
  0
LINE
  5
2A63
330
18
100
AcDbEntity
  8
0
100
AcDbLine
 10
781.8173895290824
 20
246.4439008158183
 30
0.0
 11
782.0812917976986
 21
246.443900815818
 31
0.0
  0
LINE
  5
2A64
330
18
100
AcDbEntity
  8
0
100
AcDbLine
 10
781.8173895290824
 20
266.4439008158183
 30
0.0
 11
782.0812917976986
 21
266.4439008158181
 31
0.0
  0
LINE
  5
2A65
330
18
100
AcDbEntity
  8
0
100
AcDbLine
 10
781.3173895290824
 20
266.943900815818
 30
0.0
 11
781.8173895290824
 21
266.4439008158181
 31
0.0
  0
LINE
  5
2A66
330
18
100
AcDbEntity
  8
0
100
AcDbLine
 10
781.8173895290824
 20
266.943900815818
 30
0.0
 11
782.3173895290824
 21
267.443900815818
 31
0.0
  0
LINE
  5
2A67
330
18
100
AcDbEntity
  8
0
100
AcDbLine
 10
746.8173895290797
 20
285.943900815818
 30
0.0
 11
770.8173895291197
 21
285.943900815818
 31
0.0
  0
LINE
  5
2A68
330
18
100
AcDbEntity
  8
0
100
AcDbLine
 10
759.9050137026283
 20
285.0778754120335
 30
0.0
 11
757.7297653555101
 21
285.0778754120335
 31
0.0
  0
LINE
  5
2A69
330
18
100
AcDbEntity
  8
0
100
AcDbLine
 10
735.3173895290824
 20
271.9439008158181
 30
0.0
 11
782.3173895290824
 21
271.9439008158181
 31
0.0
  0
LINE
  5
2A6A
330
18
100
AcDbEntity
  8
0
100
AcDbLine
 10
745.3173895290797
 20
271.9439008158181
 30
0.0
 11
745.3173895290797
 21
285.0778754120335
 31
0.0
  0
LINE
  5
2A6B
330
18
100
AcDbEntity
  8
0
100
AcDbLine
 10
746.4050137026374
 20
285.0778754120333
 30
0.0
 11
746.4050137026374
 21
271.9439008158178
 31
0.0
  0
LINE
  5
2A6C
330
18
100
AcDbEntity
  8
0
100
AcDbLine
 10
757.7297653555101
 20
285.0778754120335
 30
0.0
 11
757.7297653555101
 21
271.9439008158181
 31
0.0
  0
ARC
  5
2A6D
330
18
100
AcDbEntity
  8
0
100
AcDbCircle
 10
752.0673895290697
 20
266.9995951081116
 30
0.0
 40
18.94430570770644
100
AcDbArc
 50
72.60869795393829
 51
107.3913020460642
  0
LINE
  5
2A6E
330
18
100
AcDbEntity
  8
0
100
AcDbLine
 10
746.4050137026383
 20
285.077875412034
 30
0.0
 11
745.3173895290806
 21
285.077875412034
 31
0.0
  0
LINE
  5
2A6F
330
18
100
AcDbEntity
  8
0
100
AcDbLine
 10
746.8173895290797
 20
285.943900815818
 30
0.0
 11
745.3173895290797
 21
285.0778754120335
 31
0.0
  0
LINE
  5
2A70
330
18
100
AcDbEntity
  8
0
100
AcDbLine
 10
772.3173895291225
 20
271.9439008158169
 30
0.0
 11
772.3173895291225
 21
285.0778754120324
 31
0.0
  0
LINE
  5
2A71
330
18
100
AcDbEntity
  8
0
100
AcDbLine
 10
759.9050137026274
 20
285.0778754120458
 30
0.0
 11
759.9050137026274
 21
271.9439008158303
 31
0.0
  0
LINE
  5
2A72
330
18
100
AcDbEntity
  8
0
100
AcDbLine
 10
771.2297653555329
 20
285.0778754120335
 30
0.0
 11
771.2297653555329
 21
271.9439008158181
 31
0.0
  0
ARC
  5
2A73
330
18
100
AcDbEntity
  8
0
100
AcDbCircle
 10
765.5673895290797
 20
266.9995951080434
 30
0.0
 40
18.94430570777452
100
AcDbArc
 50
72.60869795396316
 51
107.3913020460314
  0
LINE
  5
2A74
330
18
100
AcDbEntity
  8
0
100
AcDbLine
 10
772.3173895290815
 20
285.0778754120333
 30
0.0
 11
771.2297653555329
 21
285.0778754120335
 31
0.0
  0
LINE
  5
2A75
330
18
100
AcDbEntity
  8
0
100
AcDbLine
 10
770.8173895291224
 20
285.9439008158169
 30
0.0
 11
772.3173895291225
 21
285.0778754120324
 31
0.0
  0
ARC
  5
2A76
330
18
100
AcDbEntity
  8
0
100
AcDbCircle
 10
433.1449297817748
 20
358.1794254443768
 30
0.0
 40
22.74999999999999
100
AcDbArc
 50
25.69710905493708
 51
34.30289094505688
  0
ARC
  5
2A77
330
18
100
AcDbEntity
  8
0
100
AcDbCircle
 10
433.1449297817748
 20
358.1794254443768
 30
0.0
 40
22.74999999999999
100
AcDbArc
 50
325.6971090549431
 51
334.3028909450629
  0
ARC
  5
2A78
330
18
100
AcDbEntity
  8
0
100
AcDbCircle
 10
449.1449297817748
 20
334.1794254443768
 30
0.0
 40
1.0
100
AcDbArc
 50
270.0
 51
0.0
  0
LINE
  5
2A79
330
18
100
AcDbEntity
  8
0
100
AcDbLine
 10
450.1449297817749
 20
339.8491226645532
 30
0.0
 11
450.1449297817749
 21
334.1794254443768
 31
0.0
  0
POLYLINE
  5
2A7A
330
18
100
AcDbEntity
  8
0
100
AcDb2dPolyline
 66
     1
 10
0.0
 20
0.0
 30
0.0
  0
VERTEX
  5
32D7
330
2A7A
100
AcDbEntity
  8
0
100
AcDbVertex
100
AcDb2dVertex
 10
453.6449297817748
 20
348.3147156159022
 30
0.0
  0
VERTEX
  5
32D8
330
2A7A
100
AcDbEntity
  8
0
100
AcDbVertex
100
AcDb2dVertex
 10
453.6449297817748
 20
368.0441352728514
 30
0.0
  0
SEQEND
  5
32D9
330
2A7A
100
AcDbEntity
  8
0
  0
LINE
  5
2A7B
330
18
100
AcDbEntity
  8
0
100
AcDbLine
 10
455.8949297817748
 20
484.0007511360088
 30
0.0
 11
455.8949297817748
 21
468.2997892416854
 31
0.0
  0
LINE
  5
2A7C
330
18
100
AcDbEntity
  8
0
100
AcDbLine
 10
445.9019713369366
 20
483.1347257322242
 30
0.0
 11
445.9019713369366
 21
468.2997892416854
 31
0.0
  0
LINE
  5
2A7D
330
18
100
AcDbEntity
  8
0
100
AcDbLine
 10
457.1449297817748
 20
457.2997892416854
 30
0.0
 11
457.1449297817748
 21
440.7997892416854
 31
0.0
  0
LINE
  5
2A7E
330
18
100
AcDbEntity
  8
0
100
AcDbLine
 10
455.8949297817748
 20
426.5988273473622
 30
0.0
 11
455.8949297817748
 21
440.7997892416854
 31
0.0
  0
LINE
  5
2A7F
330
18
100
AcDbEntity
  8
0
100
AcDbLine
 10
445.9019713369366
 20
427.4648527511465
 30
0.0
 11
445.9019713369366
 21
440.7997892416854
 31
0.0
  0
ARC
  5
2A80
330
18
100
AcDbEntity
  8
0
100
AcDbCircle
 10
450.8984505593558
 20
432.1476956634803
 30
0.0
 40
6.847906421794997
100
AcDbArc
 50
223.1441105637498
 51
316.8558894362499
  0
LINE
  5
2A81
330
18
100
AcDbEntity
  8
0
100
AcDbLine
 10
453.6449297817748
 20
425.2997892416853
 30
0.0
 11
455.8949297817748
 21
426.5988273473622
 31
0.0
  0
LINE
  5
2A82
330
18
100
AcDbEntity
  8
0
100
AcDbLine
 10
458.1449297817748
 20
468.2997892416854
 30
0.0
 11
458.1449297817748
 21
457.2997892416854
 31
0.0
  0
ARC
  5
2A83
330
18
100
AcDbEntity
  8
0
100
AcDbCircle
 10
450.8984505593558
 20
478.4518828198904
 30
0.0
 40
6.847906421794997
100
AcDbArc
 50
43.14411056375014
 51
136.85588943625
  0
LINE
  5
2A84
330
18
100
AcDbEntity
  8
0
100
AcDbLine
 10
453.6449297817748
 20
485.2997892416854
 30
0.0
 11
455.8949297817748
 21
484.0007511360088
 31
0.0
  0
POLYLINE
  5
2A85
330
18
100
AcDbEntity
  8
0
100
AcDb2dPolyline
 66
     1
 10
0.0
 20
0.0
 30
0.0
  0
VERTEX
  5
32DA
330
2A85
100
AcDbEntity
  8
0
100
AcDbVertex
100
AcDb2dVertex
 10
698.3146337407775
 20
373.1399426031223
 30
0.0
  0
VERTEX
  5
32DB
330
2A85
100
AcDbEntity
  8
0
100
AcDbVertex
100
AcDb2dVertex
 10
686.9898820878711
 20
366.6015941878115
 30
0.0
  0
SEQEND
  5
32DC
330
2A85
100
AcDbEntity
  8
0
  0
CIRCLE
  5
2A86
330
18
100
AcDbEntity
  8
0
100
AcDbCircle
 10
699.4022579143242
 20
358.1794254443768
 30
0.0
 40
23.0
  0
CIRCLE
  5
2A87
330
18
100
AcDbEntity
  8
0
100
AcDbCircle
 10
699.4022579143242
 20
358.1794254443768
 30
0.0
 40
13.5
  0
POLYLINE
  5
2A88
330
18
100
AcDbEntity
  8
0
100
AcDb2dPolyline
 66
     1
 10
0.0
 20
0.0
 30
0.0
  0
VERTEX
  5
32DD
330
2A88
100
AcDbEntity
  8
0
100
AcDbVertex
100
AcDb2dVertex
 10
711.8146337407774
 20
366.601594187811
 30
0.0
  0
VERTEX
  5
32DE
330
2A88
100
AcDbEntity
  8
0
100
AcDbVertex
100
AcDb2dVertex
 10
700.4898820878711
 20
373.1399426031223
 30
0.0
  0
SEQEND
  5
32DF
330
2A88
100
AcDbEntity
  8
0
  0
POLYLINE
  5
2A89
330
18
100
AcDbEntity
  8
0
100
AcDb2dPolyline
 66
     1
 10
0.0
 20
0.0
 30
0.0
  0
VERTEX
  5
32E0
330
2A89
100
AcDbEntity
  8
0
100
AcDbVertex
100
AcDb2dVertex
 10
686.9898820878711
 20
349.7572567009426
 30
0.0
  0
VERTEX
  5
32E1
330
2A89
100
AcDbEntity
  8
0
100
AcDbVertex
100
AcDb2dVertex
 10
698.3146337407775
 20
343.2189082856314
 30
0.0
  0
SEQEND
  5
32E2
330
2A89
100
AcDbEntity
  8
0
  0
POLYLINE
  5
2A8A
330
18
100
AcDbEntity
  8
0
100
AcDb2dPolyline
 66
     1
 10
0.0
 20
0.0
 30
0.0
  0
VERTEX
  5
32E3
330
2A8A
100
AcDbEntity
  8
0
100
AcDbVertex
100
AcDb2dVertex
 10
685.9022579143243
 20
364.7177738596878
 30
0.0
  0
VERTEX
  5
32E4
330
2A8A
100
AcDbEntity
  8
0
100
AcDbVertex
100
AcDb2dVertex
 10
685.9022579143243
 20
351.6410770290658
 30
0.0
  0
SEQEND
  5
32E5
330
2A8A
100
AcDbEntity
  8
0
  0
ARC
  5
2A8B
330
18
100
AcDbEntity
  8
0
100
AcDbCircle
 10
699.4022579143242
 20
358.1794254443768
 30
0.0
 40
15.0
100
AcDbArc
 50
205.8419327631606
 51
214.1580672368326
  0
ARC
  5
2A8C
330
18
100
AcDbEntity
  8
0
100
AcDbCircle
 10
699.4022579143242
 20
358.1794254443768
 30
0.0
 40
15.0
100
AcDbArc
 50
145.8419327631664
 51
154.1580672368394
  0
POLYLINE
  5
2A8D
330
18
100
AcDbEntity
  8
0
100
AcDb2dPolyline
 66
     1
 10
0.0
 20
0.0
 30
0.0
  0
VERTEX
  5
32E6
330
2A8D
100
AcDbEntity
  8
0
100
AcDbVertex
100
AcDb2dVertex
 10
700.4898820878711
 20
343.2189082856314
 30
0.0
  0
VERTEX
  5
32E7
330
2A8D
100
AcDbEntity
  8
0
100
AcDbVertex
100
AcDb2dVertex
 10
711.8146337407774
 20
349.7572567009421
 30
0.0
  0
SEQEND
  5
32E8
330
2A8D
100
AcDbEntity
  8
0
  0
ARC
  5
2A8E
330
18
100
AcDbEntity
  8
0
100
AcDbCircle
 10
699.4022579143242
 20
358.1794254443768
 30
0.0
 40
15.0
100
AcDbArc
 50
265.841932763167
 51
274.1580672368333
  0
CIRCLE
  5
2A8F
330
18
100
AcDbEntity
  8
0
100
AcDbCircle
 10
699.4022579143242
 20
358.1794254443768
 30
0.0
 40
7.474999999999999
  0
POLYLINE
  5
2A90
330
18
100
AcDbEntity
  8
0
100
AcDb2dPolyline
 66
     1
 10
0.0
 20
0.0
 30
0.0
  0
VERTEX
  5
32E9
330
2A90
100
AcDbEntity
  8
0
100
AcDbVertex
100
AcDb2dVertex
 10
712.9022579143243
 20
351.6410770290658
 30
0.0
  0
VERTEX
  5
32EA
330
2A90
100
AcDbEntity
  8
0
100
AcDbVertex
100
AcDb2dVertex
 10
712.9022579143243
 20
364.7177738596878
 30
0.0
  0
SEQEND
  5
32EB
330
2A90
100
AcDbEntity
  8
0
  0
ARC
  5
2A91
330
18
100
AcDbEntity
  8
0
100
AcDbCircle
 10
699.4022579143242
 20
358.1794254443768
 30
0.0
 40
15.0
100
AcDbArc
 50
325.841932763166
 51
334.1580672368394
  0
ARC
  5
2A92
330
18
100
AcDbEntity
  8
0
100
AcDbCircle
 10
699.4022579143242
 20
358.1794254443768
 30
0.0
 40
15.0
100
AcDbArc
 50
25.84193276316057
 51
34.15806723683234
  0
ARC
  5
2A93
330
18
100
AcDbEntity
  8
0
100
AcDbCircle
 10
699.4022579143242
 20
358.1794254443768
 30
0.0
 40
15.0
100
AcDbArc
 50
85.84193276316712
 51
94.1580672368333
  0
LINE
  5
2A94
330
18
100
AcDbEntity
  8
0
100
AcDbLine
 10
707.7849438165035
 20
479.9337638379008
 30
0.0
 11
707.7849438165035
 21
466.7997892416853
 31
0.0
  0
LINE
  5
2A95
330
18
100
AcDbEntity
  8
0
100
AcDbLine
 10
706.0195720121441
 20
479.9337638379008
 30
0.0
 11
706.0195720121441
 21
466.7997892416853
 31
0.0
  0
LINE
  5
2A96
330
18
100
AcDbEntity
  8
0
100
AcDbLine
 10
714.4022579143243
 20
466.7997892416853
 30
0.0
 11
714.4022579143243
 21
479.9337638379008
 31
0.0
  0
LINE
  5
2A97
330
18
100
AcDbEntity
  8
0
100
AcDbLine
 10
684.4022579143243
 20
466.7997892416853
 30
0.0
 11
684.4022579143243
 21
479.9337638379008
 31
0.0
  0
LINE
  5
2A98
330
18
100
AcDbEntity
  8
0
100
AcDbLine
 10
691.0195720121442
 20
479.9337638379008
 30
0.0
 11
691.0195720121442
 21
466.7997892416853
 31
0.0
  0
LINE
  5
2A99
330
18
100
AcDbEntity
  8
0
100
AcDbLine
 10
692.7849438165035
 20
479.9337638379008
 30
0.0
 11
692.7849438165035
 21
466.7997892416853
 31
0.0
  0
LINE
  5
2A9A
330
18
100
AcDbEntity
  8
0
100
AcDbLine
 10
676.4022579143243
 20
439.2997892416854
 30
0.0
 11
722.4022579143243
 21
439.2997892416854
 31
0.0
  0
LINE
  5
2A9B
330
18
100
AcDbEntity
  8
0
100
AcDbLine
 10
675.9022579143243
 20
466.7997892416853
 30
0.0
 11
722.9022579143243
 21
466.7997892416853
 31
0.0
  0
LINE
  5
2A9C
330
18
100
AcDbEntity
  8
0
100
AcDbLine
 10
676.4022579143243
 20
461.7997892416854
 30
0.0
 11
722.4022579143243
 21
461.7997892416854
 31
0.0
  0
LINE
  5
2A9D
330
18
100
AcDbEntity
  8
0
100
AcDbLine
 10
685.9022579143243
 20
425.2997892416853
 30
0.0
 11
699.4022579143242
 21
425.2997892416853
 31
0.0
  0
ARC
  5
2A9E
330
18
100
AcDbEntity
  8
0
100
AcDbCircle
 10
687.7109149632347
 20
432.0531774311005
 30
0.0
 40
6.753388189414994
100
AcDbArc
 50
240.6643153306914
 51
299.3356846693085
  0
LINE
  5
2A9F
330
18
100
AcDbEntity
  8
0
100
AcDbLine
 10
676.4022579143243
 20
439.2997892416854
 30
0.0
 11
676.4022579143243
 21
461.2997892416854
 31
0.0
  0
LINE
  5
2AA0
330
18
100
AcDbEntity
  8
0
100
AcDbLine
 10
684.4022579143243
 20
439.2997892416854
 30
0.0
 11
684.4022579143243
 21
426.1658146454699
 31
0.0
  0
LINE
  5
2AA1
330
18
100
AcDbEntity
  8
0
100
AcDbLine
 10
685.9022579143243
 20
425.2997892416853
 30
0.0
 11
684.4022579143243
 21
426.1658146454699
 31
0.0
  0
LINE
  5
2AA2
330
18
100
AcDbEntity
  8
0
100
AcDbLine
 10
675.9022579143243
 20
466.7997892416853
 30
0.0
 11
675.9022579143243
 21
462.2997892416853
 31
0.0
  0
LINE
  5
2AA3
330
18
100
AcDbEntity
  8
0
100
AcDbLine
 10
676.4022579143243
 20
461.7997892416854
 30
0.0
 11
675.9022579143243
 21
462.2997892416853
 31
0.0
  0
LINE
  5
2AA4
330
18
100
AcDbEntity
  8
0
100
AcDbLine
 10
676.9022579143243
 20
461.7997892416854
 30
0.0
 11
676.4022579143243
 21
461.2997892416854
 31
0.0
  0
LINE
  5
2AA5
330
18
100
AcDbEntity
  8
0
100
AcDbLine
 10
722.4022579143243
 20
439.2997892416854
 30
0.0
 11
722.4022579143243
 21
461.2997892416854
 31
0.0
  0
LINE
  5
2AA6
330
18
100
AcDbEntity
  8
0
100
AcDbLine
 10
707.7849438165035
 20
426.1658146454699
 30
0.0
 11
706.0195720121441
 21
426.1658146454699
 31
0.0
  0
LINE
  5
2AA7
330
18
100
AcDbEntity
  8
0
100
AcDbLine
 10
699.4022579143242
 20
425.2997892416853
 30
0.0
 11
712.9022579143243
 21
425.2997892416853
 31
0.0
  0
LINE
  5
2AA8
330
18
100
AcDbEntity
  8
0
100
AcDbLine
 10
706.0195720121441
 20
426.1658146454699
 30
0.0
 11
706.0195720121441
 21
439.2997892416854
 31
0.0
  0
LINE
  5
2AA9
330
18
100
AcDbEntity
  8
0
100
AcDbLine
 10
691.0195720121442
 20
426.1658146454699
 30
0.0
 11
691.0195720121442
 21
439.2997892416854
 31
0.0
  0
LINE
  5
2AAA
330
18
100
AcDbEntity
  8
0
100
AcDbLine
 10
692.7849438165035
 20
426.1658146454699
 30
0.0
 11
692.7849438165035
 21
439.2997892416854
 31
0.0
  0
ARC
  5
2AAB
330
18
100
AcDbEntity
  8
0
100
AcDbCircle
 10
699.4022579143242
 20
451.0143038936687
 30
0.0
 40
25.71451465198336
100
AcDbArc
 50
255.0878507761322
 51
284.9121492238677
  0
LINE
  5
2AAC
330
18
100
AcDbEntity
  8
0
100
AcDbLine
 10
692.7849438165035
 20
426.1658146454699
 30
0.0
 11
691.0195720121442
 21
426.1658146454699
 31
0.0
  0
LINE
  5
2AAD
330
18
100
AcDbEntity
  8
0
100
AcDbLine
 10
707.7849438165035
 20
426.1658146454699
 30
0.0
 11
707.7849438165035
 21
439.2997892416854
 31
0.0
  0
LINE
  5
2AAE
330
18
100
AcDbEntity
  8
0
100
AcDbLine
 10
714.4022579143243
 20
439.2997892416854
 30
0.0
 11
714.4022579143243
 21
426.1658146454699
 31
0.0
  0
LINE
  5
2AAF
330
18
100
AcDbEntity
  8
0
100
AcDbLine
 10
712.9022579143243
 20
425.2997892416853
 30
0.0
 11
714.4022579143243
 21
426.1658146454699
 31
0.0
  0
ARC
  5
2AB0
330
18
100
AcDbEntity
  8
0
100
AcDbCircle
 10
711.0936008654139
 20
432.0531774311005
 30
0.0
 40
6.753388189414994
100
AcDbArc
 50
240.6643153306915
 51
299.3356846693085
  0
LINE
  5
2AB1
330
18
100
AcDbEntity
  8
0
100
AcDbLine
 10
721.9022579143243
 20
461.7997892416854
 30
0.0
 11
722.4022579143243
 21
461.2997892416854
 31
0.0
  0
LINE
  5
2AB2
330
18
100
AcDbEntity
  8
0
100
AcDbLine
 10
722.9022579143243
 20
466.7997892416853
 30
0.0
 11
722.9022579143243
 21
462.2997892416853
 31
0.0
  0
LINE
  5
2AB3
330
18
100
AcDbEntity
  8
0
100
AcDbLine
 10
722.4022579143243
 20
461.7997892416854
 30
0.0
 11
722.9022579143243
 21
462.2997892416853
 31
0.0
  0
ARC
  5
2AB4
330
18
100
AcDbEntity
  8
0
100
AcDbCircle
 10
687.7109149632347
 20
474.0464010522702
 30
0.0
 40
6.753388189414994
100
AcDbArc
 50
60.66431533069146
 51
119.3356846693085
  0
LINE
  5
2AB5
330
18
100
AcDbEntity
  8
0
100
AcDbLine
 10
685.9022579143243
 20
480.7997892416854
 30
0.0
 11
712.9022579143243
 21
480.7997892416854
 31
0.0
  0
LINE
  5
2AB6
330
18
100
AcDbEntity
  8
0
100
AcDbLine
 10
685.9022579143243
 20
480.7997892416854
 30
0.0
 11
684.4022579143243
 21
479.9337638379008
 31
0.0
  0
LINE
  5
2AB7
330
18
100
AcDbEntity
  8
0
100
AcDbLine
 10
707.7849438165035
 20
479.9337638379008
 30
0.0
 11
706.0195720121441
 21
479.9337638379008
 31
0.0
  0
ARC
  5
2AB8
330
18
100
AcDbEntity
  8
0
100
AcDbCircle
 10
699.4022579143242
 20
455.085274589702
 30
0.0
 40
25.71451465198336
100
AcDbArc
 50
75.08785077613224
 51
104.9121492238677
  0
LINE
  5
2AB9
330
18
100
AcDbEntity
  8
0
100
AcDbLine
 10
692.7849438165035
 20
479.9337638379008
 30
0.0
 11
691.0195720121442
 21
479.9337638379008
 31
0.0
  0
LINE
  5
2ABA
330
18
100
AcDbEntity
  8
0
100
AcDbLine
 10
712.9022579143243
 20
480.7997892416854
 30
0.0
 11
714.4022579143243
 21
479.9337638379008
 31
0.0
  0
ARC
  5
2ABB
330
18
100
AcDbEntity
  8
0
100
AcDbCircle
 10
711.0936008654139
 20
474.0464010522702
 30
0.0
 40
6.753388189414994
100
AcDbArc
 50
60.66431533069146
 51
119.3356846693084
  0
VIEWPORT
  5
41
330
15
100
AcDbEntity
 67
     1
  8
0
100
AcDbViewport
 10
117.358407079646
 20
73.5
 30
0.0
 40
234.716814159292
 41
147.0
 68
     1
 69
     1
1001
ACAD
1000
MVIEW
1002
{
1070
    16
1010
0.0
1020
0.0
1030
0.0
1010
0.0
1020
0.0
1030
1.0
1040
0.0
1040
147.0
1040
117.358407079646
1040
73.5
1040
50.0
1040
0.0
1040
0.0
1070
     0
1070
   100
1070
     1
1070
     1
1070
     0
1070
     0
1070
     0
1070
     0
1040
0.0
1040
0.0
1040
0.0
1040
1.0
1040
1.0
1040
0.0
1040
0.0
1070
     0
1002
{
1002
}
1002
}
  0
ENDSEC
  0
SECTION
  2
OBJECTS
  0
DICTIONARY
  5
C
330
0
100
AcDbDictionary
  3
ACAD_GROUP
350
D
  3
ACAD_LAYOUT
350
323D
  3
ACAD_MLINESTYLE
350
E
  3
ACAD_PLOTSETTINGS
350
323E
1001
ACAD
1000
TREAT_AS_HARD
1070
     0
  0
DICTIONARY
  5
32AF
330
18
100
AcDbDictionary
  3
ACAD_LAYOUTSELFREF
350
32B0
  0
DICTIONARY
  5
32AD
330
15
100
AcDbDictionary
  3
ACAD_LAYOUTSELFREF
350
32AE
  0
DICTIONARY
  5
D
102
{ACAD_REACTORS
330
C
102
}
330
C
100
AcDbDictionary
1001
ACAD
1000
TREAT_AS_HARD
1070
     0
  0
DICTIONARY
  5
323D
102
{ACAD_REACTORS
330
C
102
}
330
C
100
AcDbDictionary
1001
ACAD
1000
TREAT_AS_HARD
1070
     0
  0
DICTIONARY
  5
E
102
{ACAD_REACTORS
330
C
102
}
330
C
100
AcDbDictionary
  3
STANDARD
350
1B
1001
ACAD
1000
TREAT_AS_HARD
1070
     0
  0
DICTIONARY
  5
323E
102
{ACAD_REACTORS
330
C
102
}
330
C
100
AcDbDictionary
1001
ACAD
1000
TREAT_AS_HARD
1070
     0
  0
XRECORD
  5
32B0
102
{ACAD_REACTORS
330
32AF
102
}
330
32AF
100
AcDbXrecord
340
18
  0
XRECORD
  5
32AE
102
{ACAD_REACTORS
330
32AD
102
}
330
32AD
100
AcDbXrecord
340
15
  0
MLINESTYLE
  5
1B
102
{ACAD_REACTORS
330
E
102
}
330
E
100
AcDbMlineStyle
  2
STANDARD
 70
     0
  3

 62
     0
 51
90.0
 52
90.0
 71
     2
 49
0.5
 62
   256
  6
BYLAYER
 49
-0.5
 62
   256
  6
BYLAYER
  0
ENDSEC
  0
EOF
