  0
SECTION
  2
HEADER
  9
$ACADVER
  1
AC1012
  9
$DWGCODEPAGE
  3
dos932
  9
$INSBASE
 10
0.0
 20
0.0
 30
0.0
  9
$EXTMIN
 10
19.76525700502702
 20
8.986267980404932
 30
-0.0000000349181948
  9
$EXTMAX
 10
514.8347454843981
 20
343.8083504496705
 30
0.0000000814935746
  9
$LIMMIN
 10
0.0
 20
0.0
  9
$LIMMAX
 10
534.6
 20
378.0
  9
$ORTHOMODE
 70
     1
  9
$REGENMODE
 70
     1
  9
$FILLMODE
 70
     1
  9
$QTEXTMODE
 70
     0
  9
$MIRRTEXT
 70
     1
  9
$DRAGMODE
 70
     2
  9
$LTSCALE
 40
7.199999999999999
  9
$OSMODE
 70
   163
  9
$ATTMODE
 70
     1
  9
$TEXTSIZE
 40
7.199999999999999
  9
$TRACEWID
 40
0.05
  9
$TEXTSTYLE
  7
STANDARD
  9
$CLAYER
  8
0
  9
$CELTYPE
  6
BYLAYER
  9
$CECOLOR
 62
   256
  9
$CELTSCALE
 40
1.0
  9
$DELOBJ
 70
     1
  9
$DISPSILH
 70
     0
  9
$DIMSCALE
 40
1.799999999999999
  9
$DIMASZ
 40
2.799999999999999
  9
$DIMEXO
 40
1.0
  9
$DIMDLI
 40
5.0
  9
$DIMRND
 40
0.1
  9
$DIMDLE
 40
0.0
  9
$DIMEXE
 40
1.0
  9
$DIMTP
 40
0.0
  9
$DIMTM
 40
0.0
  9
$DIMTXT
 40
2.5
  9
$DIMCEN
 40
0.0
  9
$DIMTSZ
 40
0.0
  9
$DIMTOL
 70
     0
  9
$DIMLIM
 70
     0
  9
$DIMTIH
 70
     0
  9
$DIMTOH
 70
     0
  9
$DIMSE1
 70
     0
  9
$DIMSE2
 70
     0
  9
$DIMTAD
 70
     3
  9
$DIMZIN
 70
     8
  9
$DIMBLK
  1

  9
$DIMASO
 70
     1
  9
$DIMSHO
 70
     1
  9
$DIMPOST
  1
 
  9
$DIMAPOST
  1

  9
$DIMALT
 70
     0
  9
$DIMALTD
 70
     2
  9
$DIMALTF
 40
1.0
  9
$DIMLFAC
 40
1.0
  9
$DIMTOFL
 70
     1
  9
$DIMTVP
 40
0.0
  9
$DIMTIX
 70
     0
  9
$DIMSOXD
 70
     0
  9
$DIMSAH
 70
     1
  9
$DIMBLK1
  1
OPEN
  9
$DIMBLK2
  1
OPEN
  9
$DIMSTYLE
  2
DIM1
  9
$DIMCLRD
 70
     2
  9
$DIMCLRE
 70
     2
  9
$DIMCLRT
 70
     2
  9
$DIMTFAC
 40
0.7
  9
$DIMGAP
 40
0.85
  9
$DIMJUST
 70
     0
  9
$DIMSD1
 70
     0
  9
$DIMSD2
 70
     0
  9
$DIMTOLJ
 70
     1
  9
$DIMTZIN
 70
     8
  9
$DIMALTZ
 70
     8
  9
$DIMALTTZ
 70
     8
  9
$DIMFIT
 70
     3
  9
$DIMUPT
 70
     0
  9
$DIMUNIT
 70
     2
  9
$DIMDEC
 70
     2
  9
$DIMTDEC
 70
     3
  9
$DIMALTU
 70
     2
  9
$DIMALTTD
 70
     3
  9
$DIMTXSTY
  7
DIM
  9
$DIMAUNIT
 70
     0
  9
$LUNITS
 70
     2
  9
$LUPREC
 70
     4
  9
$SKETCHINC
 40
0.1
  9
$FILLETRAD
 40
2.0
  9
$AUNITS
 70
     0
  9
$AUPREC
 70
     0
  9
$MENU
  1
C:\ACADR13\WIN\SUPPORT\ACAD.mnc
  9
$ELEVATION
 40
0.0
  9
$PELEVATION
 40
0.0
  9
$THICKNESS
 40
0.0
  9
$LIMCHECK
 70
     0
  9
$BLIPMODE
 70
     0
  9
$CHAMFERA
 40
0.0
  9
$CHAMFERB
 40
0.0
  9
$CHAMFERC
 40
0.0
  9
$CHAMFERD
 40
0.0
  9
$SKPOLY
 70
     0
  9
$TDCREATE
 40
2451564.587411898
  9
$TDUPDATE
 40
2452536.627056921
  9
$TDINDWG
 40
0.1655546181
  9
$TDUSRTIMER
 40
0.1655546181
  9
$USRTIMER
 70
     1
  9
$ANGBASE
 50
0.0
  9
$ANGDIR
 70
     0
  9
$PDMODE
 70
     0
  9
$PDSIZE
 40
0.0
  9
$PLINEWID
 40
0.0
  9
$COORDS
 70
     2
  9
$SPLFRAME
 70
     0
  9
$SPLINETYPE
 70
     6
  9
$SPLINESEGS
 70
     8
  9
$ATTDIA
 70
     0
  9
$ATTREQ
 70
     1
  9
$HANDLING
 70
 22529
  9
$HANDSEED
  5
60A0
  9
$SURFTAB1
 70
     6
  9
$SURFTAB2
 70
     6
  9
$SURFTYPE
 70
     6
  9
$SURFU
 70
     6
  9
$SURFV
 70
     6
  9
$UCSNAME
  2

  9
$UCSORG
 10
0.0
 20
0.0
 30
0.0
  9
$UCSXDIR
 10
1.0
 20
0.0
 30
0.0
  9
$UCSYDIR
 10
0.0
 20
1.0
 30
0.0
  9
$PUCSNAME
  2

  9
$PUCSORG
 10
0.0
 20
0.0
 30
0.0
  9
$PUCSXDIR
 10
1.0
 20
0.0
 30
0.0
  9
$PUCSYDIR
 10
0.0
 20
1.0
 30
0.0
  9
$USERI1
 70
     0
  9
$USERI2
 70
     0
  9
$USERI3
 70
     0
  9
$USERI4
 70
     0
  9
$USERI5
 70
     0
  9
$USERR1
 40
0.0
  9
$USERR2
 40
0.0
  9
$USERR3
 40
0.0
  9
$USERR4
 40
0.0
  9
$USERR5
 40
0.0
  9
$WORLDVIEW
 70
     1
  9
$SHADEDGE
 70
     3
  9
$SHADEDIF
 70
    70
  9
$TILEMODE
 70
     1
  9
$MAXACTVP
 70
    16
  9
$PINSBASE
 10
0.0
 20
0.0
 30
0.0
  9
$PLIMCHECK
 70
     0
  9
$PEXTMIN
 10
1.000000000000000E+20
 20
1.000000000000000E+20
 30
1.000000000000000E+20
  9
$PEXTMAX
 10
-1.000000000000000E+20
 20
-1.000000000000000E+20
 30
-1.000000000000000E+20
  9
$PLIMMIN
 10
0.0
 20
0.0
  9
$PLIMMAX
 10
20.0
 20
147.0
  9
$UNITMODE
 70
     0
  9
$VISRETAIN
 70
     0
  9
$PLINEGEN
 70
     0
  9
$PSLTSCALE
 70
     1
  9
$TREEDEPTH
 70
  3020
  9
$PICKSTYLE
 70
     1
  9
$CMLSTYLE
  2
STANDARD
  9
$CMLJUST
 70
     0
  9
$CMLSCALE
 40
1.0
  9
$SAVEIMAGES
 70
     1
  0
ENDSEC
  0
SECTION
  2
CLASSES
  0
CLASS
  1
LWPOLYLINE
  2
AcDbPolyline
  3
AutoCAD 2000
 90
    32768
280
     0
281
     1
  0
CLASS
  1
HATCH
  2
AcDbHatch
  3
AutoCAD 2000
 90
    32768
280
     0
281
     1
  0
CLASS
  1
ACDBDICTIONARYWDFLT
  2
AcDbDictionaryWithDefault
  3
AutoCAD 2000
 90
    32768
280
     0
281
     0
  0
CLASS
  1
ACDBPLACEHOLDER
  2
AcDbPlaceHolder
  3
AutoCAD 2000
 90
    32768
280
     0
281
     0
  0
CLASS
  1
LAYOUT
  2
AcDbLayout
  3
AutoCAD 2000
 90
    32768
280
     0
281
     0
  0
CLASS
  1
DICTIONARYVAR
  2
AcDbDictionaryVar
  3
AutoCAD 2000
 90
    32768
280
     0
281
     0
  0
CLASS
  1
LONG_TRANSACTION
  2
AcDbLongTransaction
  3
AutoCAD 2000
 90
    32768
280
     0
281
     0
  0
CLASS
  1
LWPOLYLINE
  2
AcDbPolyline
  3
AutoCAD 2000
 90
    32768
280
     0
281
     1
  0
CLASS
  1
HATCH
  2
AcDbHatch
  3
AutoCAD 2000
 90
    32768
280
     0
281
     1
  0
CLASS
  1
XRECORD
  2
AcDbXrecord
  3
AutoCAD 2000
 90
    32768
280
     0
281
     0
  0
ENDSEC
  0
SECTION
  2
TABLES
  0
TABLE
  2
VPORT
  5
8
330
0
100
AcDbSymbolTable
 70
     3
  0
VPORT
  5
6027
330
8
100
AcDbSymbolTableRecord
100
AcDbViewportTableRecord
  2
*ACTIVE
 70
     0
 10
0.0
 20
0.0
 11
1.0
 21
1.0
 12
267.3
 22
188.9999999999999
 13
0.0
 23
0.0
 14
1.0
 24
1.0
 15
0.0
 25
0.0
 16
0.0
 26
0.0
 36
1.0
 17
0.0
 27
0.0
 37
0.0
 40
452.2445574121547
 41
1.19054054054054
 42
50.0
 43
0.0
 44
0.0
 50
0.0
 51
0.0
 71
     0
 72
   100
 73
     1
 74
     1
 75
     0
 76
     0
 77
     0
 78
     0
  0
ENDTAB
  0
TABLE
  2
LTYPE
  5
5
330
0
100
AcDbSymbolTable
 70
     5
  0
LTYPE
  5
12
330
5
100
AcDbSymbolTableRecord
100
AcDbLinetypeTableRecord
  2
BYBLOCK
 70
     0
  3

 72
    65
 73
     0
 40
0.0
  0
LTYPE
  5
13
330
5
100
AcDbSymbolTableRecord
100
AcDbLinetypeTableRecord
  2
BYLAYER
 70
     0
  3

 72
    65
 73
     0
 40
0.0
  0
LTYPE
  5
14
330
5
100
AcDbSymbolTableRecord
100
AcDbLinetypeTableRecord
  2
CONTINUOUS
 70
     0
  3
Solid line
 72
    65
 73
     0
 40
0.0
  0
ENDTAB
  0
TABLE
  2
LAYER
  5
2
330
0
100
AcDbSymbolTable
 70
    15
  0
LAYER
  5
F
330
2
100
AcDbSymbolTableRecord
100
AcDbLayerTableRecord
  2
0
 70
     0
 62
     7
  6
CONTINUOUS
  0
ENDTAB
  0
TABLE
  2
STYLE
  5
3
330
0
100
AcDbSymbolTable
 70
     3
  0
STYLE
  5
10
330
3
100
AcDbSymbolTableRecord
100
AcDbTextStyleTableRecord
  2
STANDARD
 70
     0
 40
0.0
 41
0.8
 50
0.0
 71
     0
 42
7.199999999999999
  3
simplex
  4
extfont
  0
STYLE
  5
237C
330
3
100
AcDbSymbolTableRecord
100
AcDbTextStyleTableRecord
  2
PTSH
 70
     0
 40
0.0
 41
0.9
 50
0.0
 71
     0
 42
4.0
  3
SIMPLEX
  4
EXTFONT
  0
STYLE
  5
2592
330
3
100
AcDbSymbolTableRecord
100
AcDbTextStyleTableRecord
  2
DIM
 70
     0
 40
0.0
 41
0.8
 50
0.0
 71
     0
 42
4.0
  3
simplex
  4
extfont
  0
ENDTAB
  0
TABLE
  2
VIEW
  5
6
330
0
100
AcDbSymbolTable
 70
     0
  0
ENDTAB
  0
TABLE
  2
UCS
  5
7
330
0
100
AcDbSymbolTable
 70
     0
  0
ENDTAB
  0
TABLE
  2
APPID
  5
9
330
0
100
AcDbSymbolTable
 70
     2
  0
APPID
  5
11
330
9
100
AcDbSymbolTableRecord
100
AcDbRegAppTableRecord
  2
ACAD
 70
     0
  0
APPID
  5
5F73
330
9
100
AcDbSymbolTableRecord
100
AcDbRegAppTableRecord
  2
DCO15
 70
     0
  0
ENDTAB
  0
TABLE
  2
DIMSTYLE
  5
A
330
0
100
AcDbSymbolTable
 70
     6
  0
DIMSTYLE
105
2237
330
A
100
AcDbSymbolTableRecord
100
AcDbDimStyleTableRecord
  2
DIM1
 70
     0
  3
 
  4

  5

  6
OPEN
  7
OPEN
 40
1.799999999999999
 41
2.799999999999999
 42
1.0
 43
5.0
 44
1.0
 45
0.1
 46
0.0
 47
0.0
 48
0.0
140
2.5
141
0.0
142
0.0
143
1.0
144
1.0
145
0.0
146
0.7
147
0.85
 71
     0
 72
     0
 73
     0
 74
     0
 75
     0
 76
     0
 77
     3
 78
     8
170
     0
171
     2
172
     1
173
     1
174
     0
175
     0
176
     2
177
     2
178
     2
270
     2
271
     2
272
     3
273
     2
274
     3
340
2592
275
     0
280
     0
281
     0
282
     0
283
     1
284
     8
285
     8
286
     8
287
     3
288
     0
  0
ENDTAB
  0
TABLE
  2
BLOCK_RECORD
  5
1
330
0
100
AcDbSymbolTable
 70
     6
  0
BLOCK_RECORD
  5
18
102
{ACAD_XDICTIONARY
360
602A
102
}
330
1
100
AcDbSymbolTableRecord
100
AcDbBlockTableRecord
  2
*MODEL_SPACE
  0
BLOCK_RECORD
  5
15
102
{ACAD_XDICTIONARY
360
6028
102
}
330
1
100
AcDbSymbolTableRecord
100
AcDbBlockTableRecord
  2
*PAPER_SPACE
  0
BLOCK_RECORD
  5
2448
330
1
100
AcDbSymbolTableRecord
100
AcDbBlockTableRecord
  2
_OPEN
  0
BLOCK_RECORD
  5
3621
330
1
100
AcDbSymbolTableRecord
100
AcDbBlockTableRecord
  2
YA
  0
BLOCK_RECORD
  5
5F41
330
1
100
AcDbSymbolTableRecord
100
AcDbBlockTableRecord
  2
00000
  0
ENDTAB
  0
ENDSEC
  0
SECTION
  2
BLOCKS
  0
BLOCK
  5
3C
330
18
100
AcDbEntity
  8
0
100
AcDbBlockBegin
  2
*MODEL_SPACE
 70
     0
 10
0.0
 20
0.0
 30
0.0
  3
*MODEL_SPACE
  1

  0
ENDBLK
  5
3D
330
18
100
AcDbEntity
  8
0
100
AcDbBlockEnd
  0
BLOCK
  5
3A
330
15
100
AcDbEntity
 67
     1
  8
0
100
AcDbBlockBegin
  2
*PAPER_SPACE
 70
     0
 10
0.0
 20
0.0
 30
0.0
  3
*PAPER_SPACE
  1

  0
ENDBLK
  5
3B
330
15
100
AcDbEntity
 67
     1
  8
0
100
AcDbBlockEnd
  0
BLOCK
  5
2449
330
2448
100
AcDbEntity
  8
0
 48
4.0
100
AcDbBlockBegin
  2
_OPEN
 70
     0
 10
0.0
 20
0.0
 30
0.0
  3
_OPEN
  1
H1111.DWG
  0
LINE
  5
244A
330
2448
100
AcDbEntity
  8
0
  6
BYBLOCK
 62
     0
 48
4.0
100
AcDbLine
 10
-1.0
 20
0.1666666666666666
 30
0.0
 11
0.0
 21
0.0
 31
0.0
  0
LINE
  5
244B
330
2448
100
AcDbEntity
  8
0
  6
BYBLOCK
 62
     0
 48
4.0
100
AcDbLine
 10
0.0
 20
0.0
 30
0.0
 11
-1.0
 21
-0.1666666666666666
 31
0.0
  0
LINE
  5
244C
330
2448
100
AcDbEntity
  8
0
  6
BYBLOCK
 62
     0
 48
4.0
100
AcDbLine
 10
0.0
 20
0.0
 30
0.0
 11
-1.0
 21
0.0
 31
0.0
  0
ENDBLK
  5
244D
330
2448
100
AcDbEntity
  8
0
 48
4.0
100
AcDbBlockEnd
  0
BLOCK
  5
3629
330
3621
100
AcDbEntity
  8
0
100
AcDbBlockBegin
  2
YA
 70
     0
 10
0.0
 20
0.0
 30
0.0
  3
YA
  1

  0
LINE
  5
3622
330
3621
100
AcDbEntity
  8
0
100
AcDbLine
 10
-16.80650000000002
 20
2.80099999999993
 30
0.0
 11
-8.403500000000008
 21
2.80099999999993
 31
0.0
  0
LINE
  5
3623
330
3621
100
AcDbEntity
  8
0
100
AcDbLine
 10
-8.403500000000008
 20
2.80099999999993
 30
0.0
 11
-7.002499999999997
 21
1.400499999999965
 31
0.0
  0
LINE
  5
3624
330
3621
100
AcDbEntity
  8
0
100
AcDbLine
 10
-7.002499999999997
 20
1.400499999999965
 30
0.0
 11
-2.861999999999966
 21
1.400499999999965
 31
0.0
  0
LINE
  5
3625
330
3621
100
AcDbEntity
  8
0
100
AcDbLine
 10
-2.861999999999966
 20
1.400499999999965
 30
0.0
 11
-2.861999999999966
 21
2.80099999999993
 31
0.0
  0
LINE
  5
3626
330
3621
100
AcDbEntity
  8
0
100
AcDbLine
 10
-2.861999999999966
 20
2.80099999999993
 30
0.0
 11
0.0
 21
0.0
 31
0.0
  0
LINE
  5
3627
330
3621
100
AcDbEntity
  8
0
100
AcDbLine
 10
0.0
 20
0.0
 30
0.0
 11
-14.00549999999998
 21
0.0
 31
0.0
  0
LINE
  5
3628
330
3621
100
AcDbEntity
  8
0
100
AcDbLine
 10
-14.00549999999998
 20
0.0
 30
0.0
 11
-16.80650000000002
 21
2.80099999999993
 31
0.0
  0
ENDBLK
  5
362A
330
3621
100
AcDbEntity
  8
0
100
AcDbBlockEnd
  0
BLOCK
  5
5F45
330
5F41
100
AcDbEntity
  8
0
100
AcDbBlockBegin
  2
00000
 70
     0
 10
0.0
 20
0.0
 30
0.0
  3
00000
  1

  0
MTEXT
  5
5F42
330
5F41
100
AcDbEntity
  8
0
100
AcDbMText
 10
380.1392797717078
 20
49.84631113622277
 30
0.0
 40
0.2
 41
47.22646484874622
 71
     1
 72
     1
  1

1001
ACAD
1000
MTEXTBEGIN
1070
    73
1070
     1
1070
    44
1040
1.0
1070
    74
1070
     0
1000
MTEXTEND
  0
MTEXT
  5
5F43
330
5F41
100
AcDbEntity
  8
0
100
AcDbMText
 10
389.0499331669145
 20
57.85079373289909
 30
0.0
 40
0.2
 41
45.44433416970469
 71
     1
 72
     1
  1

1001
ACAD
1000
MTEXTBEGIN
1070
    73
1070
     1
1070
    44
1040
1.0
1070
    74
1070
     0
1000
MTEXTEND
  0
MTEXT
  5
5F44
330
5F41
100
AcDbEntity
  8
0
100
AcDbMText
 10
383.7035411297904
 20
-47.98624640549269
 30
0.0
 40
0.2
 41
51.68179154634981
 71
     1
 72
     1
  1

1001
ACAD
1000
MTEXTBEGIN
1070
    73
1070
     1
1070
    44
1040
1.0
1070
    74
1070
     0
1000
MTEXTEND
  0
ENDBLK
  5
5F46
330
5F41
100
AcDbEntity
  8
0
100
AcDbBlockEnd
  0
ENDSEC
  0
SECTION
  2
ENTITIES
  0
MTEXT
  5
ADA
330
18
100
AcDbEntity
  8
0
100
AcDbMText
 10
684.2507035890734
 20
89.72336004520091
 30
0.0
 40
0.3599999999999997
 41
85.00763672774311
 71
     1
 72
     1
  1

1001
ACAD
1000
MTEXTBEGIN
1070
    73
1070
     1
1070
    44
1040
1.0
1070
    74
1070
     0
1000
MTEXTEND
  0
MTEXT
  5
ADB
330
18
100
AcDbEntity
  8
0
100
AcDbMText
 10
700.2898797004455
 20
104.1314287192182
 30
0.0
 40
0.3599999999999997
 41
81.79980150546837
 71
     1
 72
     1
  1

1001
ACAD
1000
MTEXTBEGIN
1070
    73
1070
     1
1070
    44
1040
1.0
1070
    74
1070
     0
1000
MTEXTEND
  0
MTEXT
  5
ADC
330
18
100
AcDbEntity
  8
0
100
AcDbMText
 10
690.666374033622
 20
-86.37524352988677
 30
0.0
 40
0.3599999999999997
 41
93.02722478342959
 71
     1
 72
     1
  1

1001
ACAD
1000
MTEXTBEGIN
1070
    73
1070
     1
1070
    44
1040
1.0
1070
    74
1070
     0
1000
MTEXTEND
  0
TEXT
  5
2529
330
18
100
AcDbEntity
  8
0
  6
CONTINUOUS
100
AcDbText
 10
486.128571428571
 20
12.59999999999998
 30
0.0
 40
5.399999999999999
  1
LV13L
 41
0.9
  7
PTSH
 72
     2
 11
505.7999999999995
 21
15.29999999999998
 31
0.0
100
AcDbText
 73
     2
  0
POLYLINE
  5
2563
330
18
100
AcDbEntity
  8
0
100
AcDb2dPolyline
 66
     1
 10
0.0
 20
0.0
 30
0.0
 70
     1
  0
VERTEX
  5
602C
330
2563
100
AcDbEntity
  8
0
100
AcDbVertex
100
AcDb2dVertex
 10
19.79999999999998
 20
8.999999999999991
 30
0.0
  0
VERTEX
  5
602D
330
2563
100
AcDbEntity
  8
0
100
AcDbVertex
100
AcDb2dVertex
 10
514.7999999999996
 20
8.999999999999991
 30
0.0
  0
VERTEX
  5
602E
330
2563
100
AcDbEntity
  8
0
100
AcDbVertex
100
AcDb2dVertex
 10
514.7999999999996
 20
343.7999999999997
 30
0.0
  0
VERTEX
  5
602F
330
2563
100
AcDbEntity
  8
0
100
AcDbVertex
100
AcDb2dVertex
 10
19.79999999999998
 20
343.7999999999997
 30
0.0
  0
SEQEND
  5
6030
330
2563
100
AcDbEntity
  8
0
  0
TEXT
  5
28A0
330
18
100
AcDbEntity
  8
0
100
AcDbText
 10
230.8799999999998
 20
32.84999999999999
 30
0.0
 40
6.299999999999994
  1
TLV  LV13L (PT)
 72
     1
 11
267.2999999999998
 21
35.99999999999999
 31
0.0
100
AcDbText
 73
     2
  0
TEXT
  5
598C
330
18
100
AcDbEntity
  8
0
100
AcDbText
 10
32.61742058568938
 20
92.52573086260612
 30
0.0
 40
6.299999999999998
  1
正面
100
AcDbText
  0
TEXT
  5
598D
330
18
100
AcDbEntity
  8
0
100
AcDbText
 10
33.82078562211404
 20
200.2059723964626
 30
0.0
 40
6.299999999999998
  1
平面
100
AcDbText
  0
TEXT
  5
598E
330
18
100
AcDbEntity
  8
0
100
AcDbText
 10
33.97336357531378
 20
277.1705358531805
 30
0.0
 40
6.299999999999998
  1
背面
100
AcDbText
  0
TEXT
  5
598F
330
18
100
AcDbEntity
  8
0
100
AcDbText
 10
406.7563708702386
 20
41.03783751861286
 30
0.0
 40
4.5
  1
20A
 41
0.8
 72
     1
 11
411.5563708702386
 21
43.28783751861286
 31
0.0
100
AcDbText
 73
     2
  0
POLYLINE
  5
5A67
330
18
100
AcDbEntity
  8
0
100
AcDb2dPolyline
 66
     1
 10
0.0
 20
0.0
 30
0.0
  0
VERTEX
  5
6031
330
5A67
100
AcDbEntity
  8
0
100
AcDbVertex
100
AcDb2dVertex
 10
344.5558059664574
 20
93.38430243406618
 30
0.0
  0
VERTEX
  5
6032
330
5A67
100
AcDbEntity
  8
0
100
AcDbVertex
100
AcDb2dVertex
 10
336.3095947152221
 20
107.6671592911518
 30
0.0
  0
SEQEND
  5
6033
330
5A67
100
AcDbEntity
  8
0
  0
ARC
  5
5A68
330
18
100
AcDbEntity
  8
0
100
AcDbCircle
 10
326.5762938802904
 20
92.52573086260614
 30
0.0
 40
18.0
100
AcDbArc
 50
177.2660444507327
 51
182.7339555492672
  0
ARC
  5
5A69
330
18
100
AcDbEntity
  8
0
100
AcDbCircle
 10
326.5762938802904
 20
92.52573086260614
 30
0.0
 40
18.0
100
AcDbArc
 50
117.2660444507327
 51
122.7339555492673
  0
POLYLINE
  5
5A6A
330
18
100
AcDbEntity
  8
0
100
AcDb2dPolyline
 66
     1
 10
0.0
 20
0.0
 30
0.0
  0
VERTEX
  5
6034
330
5A6A
100
AcDbEntity
  8
0
100
AcDbVertex
100
AcDb2dVertex
 10
316.842993045357
 20
107.6671592911489
 30
0.0
  0
VERTEX
  5
6035
330
5A6A
100
AcDbEntity
  8
0
100
AcDbVertex
100
AcDb2dVertex
 10
308.5967817941217
 20
93.38430243406333
 30
0.0
  0
SEQEND
  5
6036
330
5A6A
100
AcDbEntity
  8
0
  0
POLYLINE
  5
5A70
330
18
100
AcDbEntity
  8
0
100
AcDb2dPolyline
 66
     1
 10
0.0
 20
0.0
 30
0.0
  0
VERTEX
  5
6037
330
5A70
100
AcDbEntity
  8
0
100
AcDbVertex
100
AcDb2dVertex
 10
334.8225051315258
 20
108.5257308626061
 30
0.0
  0
VERTEX
  5
6038
330
5A70
100
AcDbEntity
  8
0
100
AcDbVertex
100
AcDb2dVertex
 10
318.3300826290551
 20
108.5257308626061
 30
0.0
  0
SEQEND
  5
6039
330
5A70
100
AcDbEntity
  8
0
  0
ARC
  5
5A71
330
18
100
AcDbEntity
  8
0
100
AcDbCircle
 10
326.5762938802904
 20
92.52573086260614
 30
0.0
 40
18.0
100
AcDbArc
 50
57.26604445074221
 51
62.73395554926703
  0
ARC
  5
5A72
330
18
100
AcDbEntity
  8
0
100
AcDbCircle
 10
326.5762938802904
 20
92.52573086260614
 30
0.0
 40
18.0
100
AcDbArc
 50
357.2660444507421
 51
2.733955549276509
  0
POLYLINE
  5
5A77
330
18
100
AcDbEntity
  8
0
100
AcDb2dPolyline
 66
     1
 10
0.0
 20
0.0
 30
0.0
  0
VERTEX
  5
603A
330
5A77
100
AcDbEntity
  8
0
100
AcDbVertex
100
AcDb2dVertex
 10
336.3095947152255
 20
77.38430243406617
 30
0.0
  0
VERTEX
  5
603B
330
5A77
100
AcDbEntity
  8
0
100
AcDbVertex
100
AcDb2dVertex
 10
344.5558059664607
 20
91.66715929115179
 30
0.0
  0
SEQEND
  5
603C
330
5A77
100
AcDbEntity
  8
0
  0
CIRCLE
  5
5A78
330
18
100
AcDbEntity
  8
0
100
AcDbCircle
 10
326.5762938802904
 20
92.52573086260614
 30
0.0
 40
16.0
  0
ARC
  5
5A79
330
18
100
AcDbEntity
  8
0
100
AcDbCircle
 10
326.5762938802904
 20
92.52573086260614
 30
0.0
 40
18.0
100
AcDbArc
 50
237.2660444507328
 51
242.7339555492671
  0
POLYLINE
  5
5A7A
330
18
100
AcDbEntity
  8
0
100
AcDb2dPolyline
 66
     1
 10
0.0
 20
0.0
 30
0.0
  0
VERTEX
  5
603D
330
5A7A
100
AcDbEntity
  8
0
100
AcDbVertex
100
AcDb2dVertex
 10
308.5967817941217
 20
91.66715929114895
 30
0.0
  0
VERTEX
  5
603E
330
5A7A
100
AcDbEntity
  8
0
100
AcDbVertex
100
AcDb2dVertex
 10
316.8429930453571
 20
77.38430243406327
 30
0.0
  0
SEQEND
  5
603F
330
5A7A
100
AcDbEntity
  8
0
  0
POLYLINE
  5
5A7B
330
18
100
AcDbEntity
  8
0
100
AcDb2dPolyline
 66
     1
 10
0.0
 20
0.0
 30
0.0
  0
VERTEX
  5
6040
330
5A7B
100
AcDbEntity
  8
0
100
AcDbVertex
100
AcDb2dVertex
 10
318.3300826290551
 20
76.52573086260614
 30
0.0
  0
VERTEX
  5
6041
330
5A7B
100
AcDbEntity
  8
0
100
AcDbVertex
100
AcDb2dVertex
 10
334.8225051315257
 20
76.52573086260614
 30
0.0
  0
SEQEND
  5
6042
330
5A7B
100
AcDbEntity
  8
0
  0
ARC
  5
5A7C
330
18
100
AcDbEntity
  8
0
100
AcDbCircle
 10
326.5762938802904
 20
92.52573086260614
 30
0.0
 40
18.0
100
AcDbArc
 50
297.2660444507327
 51
302.7339555492766
  0
LINE
  5
5A7E
330
18
100
AcDbEntity
  8
0
100
AcDbLine
 10
371.5563708702386
 20
76.5260808626061
 30
0.0
 11
371.5563708702386
 21
108.5260808626061
 31
0.0
  0
ARC
  5
5A7F
330
18
100
AcDbEntity
  8
0
100
AcDbCircle
 10
389.38607766854
 20
100.525905862609
 30
0.0
 40
17.83487821881256
100
AcDbArc
 50
156.3962235583821
 51
203.6037764416177
  0
INSERT
  5
5A80
330
18
100
AcDbEntity
  8
0
100
AcDbBlockReference
  2
YA
 10
368.3063708702386
 20
92.52573086260611
 30
0.0
 41
0.5140837528113959
 42
0.5140837528113959
 43
0.5140837528113959
  0
LINE
  5
5A81
330
18
100
AcDbEntity
  8
0
100
AcDbLine
 10
373.043330636624
 20
93.3846524340662
 30
0.0
 11
373.043330636624
 21
91.66750929115181
 31
0.0
  0
LINE
  5
5A83
330
18
100
AcDbEntity
  8
0
100
AcDbLine
 10
373.0433306366241
 20
93.3846524340662
 30
0.0
 11
387.0694111038531
 21
93.3846524340662
 31
0.0
  0
LINE
  5
5A84
330
18
100
AcDbEntity
  8
0
100
AcDbLine
 10
373.043330636624
 20
91.66750929115181
 30
0.0
 11
387.0694111038532
 21
91.66750929115181
 31
0.0
  0
LINE
  5
5A85
330
18
100
AcDbEntity
  8
0
100
AcDbLine
 10
391.5563708702386
 20
76.52608086260613
 30
0.0
 11
371.5563708702386
 21
76.5260808626061
 31
0.0
  0
LINE
  5
5A86
330
18
100
AcDbEntity
  8
0
100
AcDbLine
 10
386.5563708702387
 20
108.5260808626061
 30
0.0
 11
371.5563708702386
 21
108.5260808626061
 31
0.0
  0
LINE
  5
5A90
330
18
100
AcDbEntity
  8
0
100
AcDbLine
 10
437.5563708702387
 20
117.5168810477764
 30
0.0
 11
437.5563708702386
 21
124.5769176134651
 31
0.0
  0
LINE
  5
5A91
330
18
100
AcDbEntity
  8
0
100
AcDbLine
 10
385.5563708702386
 20
117.5168810477764
 30
0.0
 11
385.5563708702386
 21
124.5769176134651
 31
0.0
  0
LINE
  5
5A92
330
18
100
AcDbEntity
  8
0
100
AcDbLine
 10
429.6374088601969
 20
95.02573086260609
 30
0.0
 11
393.4753328802804
 21
95.02573086260609
 31
0.0
  0
LINE
  5
5A93
330
18
100
AcDbEntity
  8
0
100
AcDbLine
 10
434.5563708702386
 20
105.025730862606
 30
0.0
 11
388.5563708702386
 21
105.0257308626061
 31
0.0
  0
LINE
  5
5A94
330
18
100
AcDbEntity
  8
0
100
AcDbLine
 10
434.5652206850682
 20
114.5257308626061
 30
0.0
 11
388.547521055409
 21
114.5257308626061
 31
0.0
  0
LINE
  5
5A95
330
18
100
AcDbEntity
  8
0
100
AcDbLine
 10
388.5563708702386
 20
105.0257308626061
 30
0.0
 11
388.5563708702387
 21
114.5257308626061
 31
0.0
  0
LINE
  5
5A96
330
18
100
AcDbEntity
  8
0
100
AcDbLine
 10
388.5563708702386
 20
105.0257308626061
 30
0.0
 11
391.5876161675484
 21
96.3650300131499
 31
0.0
  0
ARC
  5
5A97
330
18
100
AcDbEntity
  8
0
100
AcDbCircle
 10
393.4753328802804
 20
97.02573086260612
 30
0.0
 40
2.0
100
AcDbArc
 50
199.2900462191887
 51
241.3315448024691
  0
ARC
  5
5A98
330
18
100
AcDbEntity
  8
0
100
AcDbCircle
 10
386.5563708702387
 20
110.5257308626061
 30
0.0
 40
2.0
100
AcDbArc
 50
270.0
 51
359.9999999999996
  0
LINE
  5
5A99
330
18
100
AcDbEntity
  8
0
100
AcDbLine
 10
388.547521055409
 20
114.5257308626061
 30
0.0
 11
385.5563708702386
 21
117.5168810477764
 31
0.0
  0
LINE
  5
5A9A
330
18
100
AcDbEntity
  8
0
100
AcDbLine
 10
434.5563708702386
 20
105.025730862606
 30
0.0
 11
434.5563708702386
 21
114.5257308626061
 31
0.0
  0
LINE
  5
5A9B
330
18
100
AcDbEntity
  8
0
100
AcDbLine
 10
434.5563708702386
 20
105.0257308626061
 30
0.0
 11
431.5251255729289
 21
96.3650300131499
 31
0.0
  0
ARC
  5
5A9C
330
18
100
AcDbEntity
  8
0
100
AcDbCircle
 10
429.6374088601969
 20
97.02573086260612
 30
0.0
 40
2.0
100
AcDbArc
 50
298.668455197531
 51
340.7099537808113
  0
LINE
  5
5A9E
330
18
100
AcDbEntity
  8
0
100
AcDbLine
 10
434.5652206850682
 20
114.5257308626061
 30
0.0
 11
437.5563708702387
 21
117.5168810477764
 31
0.0
  0
LINE
  5
5A9F
330
18
100
AcDbEntity
  8
0
100
AcDbLine
 10
436.6075576210977
 20
125.5257308626061
 30
0.0
 11
386.5051841193796
 21
125.5257308626061
 31
0.0
  0
LINE
  5
5AA0
330
18
100
AcDbEntity
  8
0
100
AcDbLine
 10
436.5563708702386
 20
127.5257308626061
 30
0.0
 11
386.5563708702385
 21
127.525730862606
 31
0.0
  0
LINE
  5
5AA1
330
18
100
AcDbEntity
  8
0
100
AcDbLine
 10
434.5563708702384
 20
133.5257308626061
 30
0.0
 11
388.5563708702385
 21
133.525730862606
 31
0.0
  0
LINE
  5
5AA2
330
18
100
AcDbEntity
  8
0
100
AcDbLine
 10
396.1316545483261
 20
142.5257308626061
 30
0.0
 11
426.9810871921513
 21
142.5257308626061
 31
0.0
  0
ARC
  5
5AA3
330
18
100
AcDbEntity
  8
0
100
AcDbCircle
 10
425.4230212877052
 20
136.0374490158203
 30
0.0
 40
6.488281846785682
100
AcDbArc
 50
69.56810408723899
 51
129.5720767242649
  0
LINE
  5
5AA4
330
18
100
AcDbEntity
  8
0
100
AcDbLine
 10
421.2896717051719
 20
141.0387710962208
 30
0.0
 11
419.802582121474
 21
141.0387710962207
 31
0.0
  0
ARC
  5
5AA5
330
18
100
AcDbEntity
  8
0
100
AcDbCircle
 10
397.689720452772
 20
136.0374490158204
 30
0.0
 40
6.488281846785682
100
AcDbArc
 50
50.42792327573506
 51
110.4318959127609
  0
LINE
  5
5AA6
330
18
100
AcDbEntity
  8
0
100
AcDbLine
 10
393.5563708702386
 20
133.525730862606
 30
0.0
 11
393.5563708702386
 21
141.0387710962206
 31
0.0
  0
LINE
  5
5AA7
330
18
100
AcDbEntity
  8
0
100
AcDbLine
 10
386.5563708702386
 20
125.5257308626061
 30
0.0
 11
386.5563708702385
 21
131.525730862606
 31
0.0
  0
LINE
  5
5AA8
330
18
100
AcDbEntity
  8
0
100
AcDbLine
 10
386.5051841193796
 20
125.5257308626061
 30
0.0
 11
385.5563708702386
 21
124.5769176134651
 31
0.0
  0
LINE
  5
5AA9
330
18
100
AcDbEntity
  8
0
100
AcDbLine
 10
393.5563708702386
 20
141.0387710962207
 30
0.0
 11
396.1316545483261
 21
142.5257308626061
 31
0.0
  0
LINE
  5
5AAA
330
18
100
AcDbEntity
  8
0
100
AcDbLine
 10
403.3101596190033
 20
141.0387710962207
 30
0.0
 11
403.3101596190032
 21
133.525730862606
 31
0.0
  0
LINE
  5
5AAB
330
18
100
AcDbEntity
  8
0
100
AcDbLine
 10
401.8230700353052
 20
141.0387710962208
 30
0.0
 11
401.8230700353052
 21
133.525730862606
 31
0.0
  0
LINE
  5
5AAC
330
18
100
AcDbEntity
  8
0
100
AcDbLine
 10
419.802582121474
 20
141.0387710962207
 30
0.0
 11
419.802582121474
 21
133.5257308626061
 31
0.0
  0
ARC
  5
5AAD
330
18
100
AcDbEntity
  8
0
100
AcDbCircle
 10
411.5563708702387
 20
118.9168037974451
 30
0.0
 40
23.60892706516101
100
AcDbArc
 50
69.55649628873778
 51
110.4435037112625
  0
LINE
  5
5AAE
330
18
100
AcDbEntity
  8
0
100
AcDbLine
 10
401.8230700353052
 20
141.0387710962208
 30
0.0
 11
403.3101596190033
 21
141.0387710962207
 31
0.0
  0
LINE
  5
5AAF
330
18
100
AcDbEntity
  8
0
100
AcDbLine
 10
421.289671705172
 20
141.0387710962208
 30
0.0
 11
421.289671705172
 21
133.525730862606
 31
0.0
  0
LINE
  5
5AB0
330
18
100
AcDbEntity
  8
0
100
AcDbLine
 10
429.5563708702387
 20
133.5257308626061
 30
0.0
 11
429.5563708702387
 21
141.0387710962207
 31
0.0
  0
LINE
  5
5AB1
330
18
100
AcDbEntity
  8
0
100
AcDbLine
 10
436.5563708702387
 20
125.5257308626061
 30
0.0
 11
436.5563708702384
 21
131.5257308626062
 31
0.0
  0
LINE
  5
5AB2
330
18
100
AcDbEntity
  8
0
100
AcDbLine
 10
436.6075576210977
 20
125.5257308626061
 30
0.0
 11
437.5563708702386
 21
124.5769176134651
 31
0.0
  0
LINE
  5
5AB3
330
18
100
AcDbEntity
  8
0
100
AcDbLine
 10
429.5563708702387
 20
141.0387710962207
 30
0.0
 11
426.9810871921513
 21
142.5257308626061
 31
0.0
  0
LINE
  5
5AB5
330
18
100
AcDbEntity
  8
0
100
AcDbLine
 10
388.5563708702385
 20
76.52608086260612
 30
0.0
 11
388.5563708702385
 21
108.5260808626061
 31
0.0
  0
ARC
  5
5AB6
330
18
100
AcDbEntity
  8
0
100
AcDbCircle
 10
370.6012042960775
 20
100.5259058626091
 30
0.0
 40
17.94991186592132
100
AcDbArc
 50
336.5565738239308
 51
23.44342617606784
  0
LINE
  5
5AB9
330
18
100
AcDbEntity
  8
0
100
AcDbLine
 10
387.0694111038531
 20
93.3846524340662
 30
0.0
 11
387.0694111038531
 21
91.66750929115181
 31
0.0
  0
LINE
  5
5AC9
330
18
100
AcDbEntity
  8
0
100
AcDbLine
 10
310.5759438802904
 20
88.23915000149087
 30
0.0
 11
310.5759438802904
 21
65.52573086260611
 31
0.0
  0
LINE
  5
5ACD
330
18
100
AcDbEntity
  8
0
100
AcDbLine
 10
373.043330636624
 20
107.6671592911518
 30
0.0
 11
387.0694111038532
 21
107.6671592911518
 31
0.0
  0
LINE
  5
5ACE
330
18
100
AcDbEntity
  8
0
100
AcDbLine
 10
373.043330636624
 20
108.5260808626061
 30
0.0
 11
373.043330636624
 21
107.6671592911518
 31
0.0
  0
LINE
  5
5ACF
330
18
100
AcDbEntity
  8
0
100
AcDbLine
 10
387.0694111038532
 20
108.5260808626061
 30
0.0
 11
387.0694111038532
 21
107.6671592911518
 31
0.0
  0
LINE
  5
5AD0
330
18
100
AcDbEntity
  8
0
100
AcDbLine
 10
373.043330636624
 20
76.52538086260611
 30
0.0
 11
373.043330636624
 21
77.38430243406037
 31
0.0
  0
LINE
  5
5AD1
330
18
100
AcDbEntity
  8
0
100
AcDbLine
 10
387.0694111038532
 20
76.52538086260611
 30
0.0
 11
387.0694111038532
 21
77.38430243406037
 31
0.0
  0
LINE
  5
5AD2
330
18
100
AcDbEntity
  8
0
100
AcDbLine
 10
373.043330636624
 20
77.38430243406035
 30
0.0
 11
387.0694111038532
 21
77.38430243406039
 31
0.0
  0
ARC
  5
5AD3
330
18
100
AcDbEntity
  8
0
100
AcDbCircle
 10
389.38607766854
 20
84.52555586260322
 30
0.0
 40
17.83487821881256
100
AcDbArc
 50
156.3962235583822
 51
203.6037764416177
  0
ARC
  5
5AD4
330
18
100
AcDbEntity
  8
0
100
AcDbCircle
 10
370.6012042960775
 20
84.52555586260302
 30
0.0
 40
17.94991186592132
100
AcDbArc
 50
336.5565738239321
 51
23.44342617606919
  0
LINE
  5
5AD6
330
18
100
AcDbEntity
  8
0
100
AcDbLine
 10
310.5762938802904
 20
65.52573086260608
 30
0.0
 11
342.5762938802904
 21
65.52573086260614
 31
0.0
  0
ARC
  5
5AD7
330
18
100
AcDbEntity
  8
0
100
AcDbCircle
 10
334.5762938802904
 20
83.41829613227778
 30
0.0
 40
17.89256526967169
100
AcDbArc
 50
246.4763069438204
 51
293.5236930561794
  0
ARC
  5
5AD8
330
18
100
AcDbEntity
  8
0
100
AcDbCircle
 10
318.5762938802904
 20
83.41829613227778
 30
0.0
 40
17.89256526967169
100
AcDbArc
 50
246.4763069438205
 51
293.5236930561795
  0
LINE
  5
5AD9
330
18
100
AcDbEntity
  8
0
100
AcDbLine
 10
311.4348654517475
 20
67.0126906289914
 30
0.0
 11
311.4348654517477
 21
86.75145420000999
 31
0.0
  0
LINE
  5
5ADB
330
18
100
AcDbEntity
  8
0
100
AcDbLine
 10
310.5762938802903
 20
67.01269062899138
 30
0.0
 11
311.4348654517476
 21
67.0126906289914
 31
0.0
  0
LINE
  5
5ADC
330
18
100
AcDbEntity
  8
0
100
AcDbLine
 10
325.7177223088333
 20
67.0126906289914
 30
0.0
 11
325.7177223088333
 21
76.52573086260614
 31
0.0
  0
LINE
  5
5ADD
330
18
100
AcDbEntity
  8
0
100
AcDbLine
 10
327.4348654517476
 20
67.0126906289914
 30
0.0
 11
327.4348654517475
 21
76.52573086260614
 31
0.0
  0
LINE
  5
5ADE
330
18
100
AcDbEntity
  8
0
100
AcDbLine
 10
327.4348654517475
 20
67.0126906289914
 30
0.0
 11
325.7177223088333
 21
67.0126906289914
 31
0.0
  0
LINE
  5
5ADF
330
18
100
AcDbEntity
  8
0
100
AcDbLine
 10
341.7177223088333
 20
67.0126906289914
 30
0.0
 11
341.7177223088331
 21
86.75145420000998
 31
0.0
  0
LINE
  5
5AE0
330
18
100
AcDbEntity
  8
0
100
AcDbLine
 10
342.5762938802904
 20
65.52573086260614
 30
0.0
 11
342.5762938802903
 21
88.23854378370803
 31
0.0
  0
LINE
  5
5AE1
330
18
100
AcDbEntity
  8
0
100
AcDbLine
 10
342.5762938802905
 20
67.01269062899138
 30
0.0
 11
341.7177223088332
 21
67.0126906289914
 31
0.0
  0
ARC
  5
5AEF
330
18
100
AcDbEntity
  8
0
100
AcDbCircle
 10
397.689720452772
 20
72.01401270939183
 30
0.0
 40
6.488281846785682
100
AcDbArc
 50
249.568104087239
 51
309.5720767242648
  0
LINE
  5
5AF0
330
18
100
AcDbEntity
  8
0
100
AcDbLine
 10
396.1316545483261
 20
65.52573086260608
 30
0.0
 11
426.9810871921513
 21
65.52573086260614
 31
0.0
  0
LINE
  5
5AF1
330
18
100
AcDbEntity
  8
0
100
AcDbLine
 10
393.5563708702386
 20
93.5160891709207
 30
0.0
 11
393.5563708702386
 21
67.01269062899157
 31
0.0
  0
LINE
  5
5AF2
330
18
100
AcDbEntity
  8
0
100
AcDbLine
 10
393.5563708702386
 20
67.01269062899152
 30
0.0
 11
396.1316545483261
 21
65.52573086260608
 31
0.0
  0
ARC
  5
5AF3
330
18
100
AcDbEntity
  8
0
100
AcDbCircle
 10
425.4230212877052
 20
72.01401270939186
 30
0.0
 40
6.488281846785682
100
AcDbArc
 50
230.427923275735
 51
290.431895912761
  0
ARC
  5
5AF4
330
18
100
AcDbEntity
  8
0
100
AcDbCircle
 10
411.5563708702387
 20
89.13465792776708
 30
0.0
 40
23.60892706516101
100
AcDbArc
 50
249.5564962887374
 51
290.4435037112622
  0
LINE
  5
5AF5
330
18
100
AcDbEntity
  8
0
100
AcDbLine
 10
401.8230700353052
 20
67.01269062899135
 30
0.0
 11
401.8230700353052
 21
95.02573086260609
 31
0.0
  0
LINE
  5
5AF6
330
18
100
AcDbEntity
  8
0
100
AcDbLine
 10
403.3101596190033
 20
67.01269062899147
 30
0.0
 11
403.310159619003
 21
95.02573086260609
 31
0.0
  0
LINE
  5
5AF7
330
18
100
AcDbEntity
  8
0
100
AcDbLine
 10
401.8230700353052
 20
67.0126906289914
 30
0.0
 11
403.3101596190033
 21
67.01269062899152
 31
0.0
  0
LINE
  5
5AF8
330
18
100
AcDbEntity
  8
0
100
AcDbLine
 10
421.289671705172
 20
67.01269062899135
 30
0.0
 11
421.289671705172
 21
95.02573086260609
 31
0.0
  0
LINE
  5
5AF9
330
18
100
AcDbEntity
  8
0
100
AcDbLine
 10
419.802582121474
 20
67.01269062899147
 30
0.0
 11
419.802582121474
 21
95.02573086260609
 31
0.0
  0
LINE
  5
5AFA
330
18
100
AcDbEntity
  8
0
100
AcDbLine
 10
421.2896717051719
 20
67.0126906289914
 30
0.0
 11
419.802582121474
 21
67.01269062899152
 31
0.0
  0
LINE
  5
5AFB
330
18
100
AcDbEntity
  8
0
100
AcDbLine
 10
429.5563708702388
 20
93.51608917092077
 30
0.0
 11
429.5563708702387
 21
67.01269062899147
 31
0.0
  0
LINE
  5
5AFC
330
18
100
AcDbEntity
  8
0
100
AcDbLine
 10
429.5563708702387
 20
67.01269062899152
 30
0.0
 11
426.9810871921513
 21
65.52573086260614
 31
0.0
  0
ARC
  5
5AFD
330
18
100
AcDbEntity
  8
0
100
AcDbCircle
 10
391.5563708702386
 20
74.52608086260614
 30
0.0
 40
2.0
100
AcDbArc
 50
0.0
 51
90.0
  0
ARC
  5
5AFF
330
18
100
AcDbEntity
  8
0
100
AcDbCircle
 10
391.5563708702386
 20
93.5160891709207
 30
0.0
 40
2.0
100
AcDbArc
 50
0.0
 51
61.33154480246915
  0
ARC
  5
5B00
330
18
100
AcDbEntity
  8
0
100
AcDbCircle
 10
431.5563708702387
 20
93.51608917092075
 30
0.0
 40
2.0
100
AcDbArc
 50
118.6684551975326
 51
179.9999999999996
  0
ARC
  5
5B01
330
18
100
AcDbEntity
  8
0
100
AcDbCircle
 10
318.5762938802904
 20
124.6331655929344
 30
0.0
 40
17.89256526967169
100
AcDbArc
 50
66.47630694382044
 51
113.5236930561794
  0
LINE
  5
5B02
330
18
100
AcDbEntity
  8
0
100
AcDbLine
 10
310.5762938802904
 20
142.5257308626061
 30
0.0
 11
342.5762938802904
 21
142.5257308626061
 31
0.0
  0
LINE
  5
5B03
330
18
100
AcDbEntity
  8
0
100
AcDbLine
 10
310.5762938802903
 20
141.0387710962208
 30
0.0
 11
311.4348654517476
 21
141.0387710962208
 31
0.0
  0
ARC
  5
5B04
330
18
100
AcDbEntity
  8
0
100
AcDbCircle
 10
334.5762938802904
 20
124.6331655929344
 30
0.0
 40
17.89256526967169
100
AcDbArc
 50
66.47630694382058
 51
113.5236930561795
  0
LINE
  5
5B05
330
18
100
AcDbEntity
  8
0
100
AcDbLine
 10
327.4348654517475
 20
141.0387710962208
 30
0.0
 11
325.7177223088333
 21
141.0387710962208
 31
0.0
  0
LINE
  5
5B06
330
18
100
AcDbEntity
  8
0
100
AcDbLine
 10
342.5762938802905
 20
141.0387710962208
 30
0.0
 11
341.7177223088332
 21
141.0387710962208
 31
0.0
  0
LINE
  5
5B07
330
18
100
AcDbEntity
  8
0
100
AcDbLine
 10
342.5762938802904
 20
142.5257308626061
 30
0.0
 11
342.5762938802904
 21
133.5257308626061
 31
0.0
  0
LINE
  5
5B08
330
18
100
AcDbEntity
  8
0
100
AcDbLine
 10
341.7177223088333
 20
141.0387710962208
 30
0.0
 11
341.7177223088332
 21
133.525730862606
 31
0.0
  0
LINE
  5
5B09
330
18
100
AcDbEntity
  8
0
100
AcDbLine
 10
327.4348654517476
 20
141.0387710962208
 30
0.0
 11
327.4348654517475
 21
133.5257308626061
 31
0.0
  0
LINE
  5
5B0A
330
18
100
AcDbEntity
  8
0
100
AcDbLine
 10
325.7177223088333
 20
141.0387710962208
 30
0.0
 11
325.7177223088333
 21
133.5257308626061
 31
0.0
  0
LINE
  5
5B0B
330
18
100
AcDbEntity
  8
0
100
AcDbLine
 10
310.5759438802904
 20
133.5257308626061
 30
0.0
 11
310.5759438802904
 21
142.5257308626061
 31
0.0
  0
LINE
  5
5B0C
330
18
100
AcDbEntity
  8
0
100
AcDbLine
 10
311.4348654517475
 20
141.0387710962208
 30
0.0
 11
311.4348654517475
 21
133.5257308626061
 31
0.0
  0
LINE
  5
5B0D
330
18
100
AcDbEntity
  8
0
100
AcDbLine
 10
351.5762938802906
 20
125.5257308626061
 30
0.0
 11
351.5762938802903
 21
131.5257308626062
 31
0.0
  0
LINE
  5
5B0E
330
18
100
AcDbEntity
  8
0
100
AcDbLine
 10
301.5762938802905
 20
125.5257308626061
 30
0.0
 11
301.5762938802903
 21
131.525730862606
 31
0.0
  0
LINE
  5
5B0F
330
18
100
AcDbEntity
  8
0
100
AcDbLine
 10
351.5762938802905
 20
127.5257308626061
 30
0.0
 11
301.5762938802905
 21
127.525730862606
 31
0.0
  0
LINE
  5
5B10
330
18
100
AcDbEntity
  8
0
100
AcDbLine
 10
351.6274806311496
 20
125.5257308626061
 30
0.0
 11
301.5251071294315
 21
125.5257308626061
 31
0.0
  0
LINE
  5
5B11
330
18
100
AcDbEntity
  8
0
100
AcDbLine
 10
349.5851436951201
 20
114.5257308626061
 30
0.0
 11
303.5674440654609
 21
114.5257308626061
 31
0.0
  0
LINE
  5
5B12
330
18
100
AcDbEntity
  8
0
100
AcDbLine
 10
303.5674440654609
 20
114.5257308626061
 30
0.0
 11
300.5762938802905
 21
117.5168810477764
 31
0.0
  0
LINE
  5
5B13
330
18
100
AcDbEntity
  8
0
100
AcDbLine
 10
300.5762938802905
 20
117.5168810477764
 30
0.0
 11
300.5762938802905
 21
124.5769176134651
 31
0.0
  0
LINE
  5
5B14
330
18
100
AcDbEntity
  8
0
100
AcDbLine
 10
301.5251071294315
 20
125.5257308626061
 30
0.0
 11
300.5762938802905
 21
124.5769176134651
 31
0.0
  0
LINE
  5
5B15
330
18
100
AcDbEntity
  8
0
100
AcDbLine
 10
349.5851436951201
 20
114.5257308626061
 30
0.0
 11
352.5762938802906
 21
117.5168810477764
 31
0.0
  0
LINE
  5
5B16
330
18
100
AcDbEntity
  8
0
100
AcDbLine
 10
352.5762938802906
 20
117.5168810477764
 30
0.0
 11
352.5762938802905
 21
124.5769176134651
 31
0.0
  0
LINE
  5
5B17
330
18
100
AcDbEntity
  8
0
100
AcDbLine
 10
351.6274806311496
 20
125.5257308626061
 30
0.0
 11
352.5762938802905
 21
124.5769176134651
 31
0.0
  0
LINE
  5
5B18
330
18
100
AcDbEntity
  8
0
100
AcDbLine
 10
349.5762938802903
 20
133.5257308626061
 30
0.0
 11
303.5762938802903
 21
133.525730862606
 31
0.0
  0
LINE
  5
5B19
330
18
100
AcDbEntity
  8
0
100
AcDbLine
 10
303.5762938802905
 20
105.0257308626061
 30
0.0
 11
303.5762938802906
 21
114.5257308626061
 31
0.0
  0
LINE
  5
5B1A
330
18
100
AcDbEntity
  8
0
100
AcDbLine
 10
349.5762938802905
 20
105.025730862606
 30
0.0
 11
337.8346241294881
 21
105.025730862606
 31
0.0
  0
LINE
  5
5B1B
330
18
100
AcDbEntity
  8
0
100
AcDbLine
 10
349.5762938802905
 20
105.0257308626061
 30
0.0
 11
346.5450485829807
 21
96.36503001314986
 31
0.0
  0
LINE
  5
5B1C
330
18
100
AcDbEntity
  8
0
100
AcDbLine
 10
349.5762938802905
 20
105.025730862606
 30
0.0
 11
349.5762938802905
 21
114.5257308626061
 31
0.0
  0
LINE
  5
5B1D
330
18
100
AcDbEntity
  8
0
100
AcDbLine
 10
303.5762938802905
 20
105.0257308626061
 30
0.0
 11
306.6075391776004
 21
96.36503001314988
 31
0.0
  0
LINE
  5
5B1E
330
18
100
AcDbEntity
  8
0
100
AcDbLine
 10
344.6573318702486
 20
95.02573086260609
 30
0.0
 11
343.6081268213844
 21
95.02573086260609
 31
0.0
  0
ARC
  5
5B1F
330
18
100
AcDbEntity
  8
0
100
AcDbCircle
 10
308.4952558903324
 20
97.0257308626061
 30
0.0
 40
2.0
100
AcDbArc
 50
199.2900462191891
 51
270.0
  0
ARC
  5
5B20
330
18
100
AcDbEntity
  8
0
100
AcDbCircle
 10
344.6573318702486
 20
97.02573086260608
 30
0.0
 40
2.0
100
AcDbArc
 50
270.0
 51
340.7099537808109
  0
LINE
  5
5B21
330
18
100
AcDbEntity
  8
0
100
AcDbLine
 10
309.5444609391964
 20
95.02573086260609
 30
0.0
 11
308.4952558903324
 21
95.02573086260609
 31
0.0
  0
LINE
  5
5B22
330
18
100
AcDbEntity
  8
0
100
AcDbLine
 10
315.3179636310927
 20
105.025730862606
 30
0.0
 11
303.5762938802905
 21
105.0257308626061
 31
0.0
  0
CIRCLE
  5
5B2D
330
18
100
AcDbEntity
  8
0
100
AcDbCircle
 10
411.5563708702386
 20
200.2059723964626
 30
0.0
 40
26.0
  0
ARC
  5
5B5C
330
18
100
AcDbEntity
  8
0
100
AcDbCircle
 10
378.0446527170308
 20
186.339321978996
 30
0.0
 40
6.488281846785682
100
AcDbArc
 50
140.427923275735
 51
200.4318959127609
  0
LINE
  5
5B5D
330
18
100
AcDbEntity
  8
0
100
AcDbLine
 10
371.5563708702451
 20
184.7812560745501
 30
0.0
 11
371.5563708702451
 21
215.6306887183752
 31
0.0
  0
POLYLINE
  5
5B5E
330
18
100
AcDbEntity
  8
0
100
AcDb2dPolyline
 66
     1
 10
0.0
 20
0.0
 30
0.0
  0
VERTEX
  5
6043
330
5B5E
100
AcDbEntity
  8
0
100
AcDbVertex
100
AcDb2dVertex
 10
421.2896717051736
 20
185.0645439679227
 30
0.0
  0
VERTEX
  5
6044
330
5B5E
100
AcDbEntity
  8
0
100
AcDbVertex
100
AcDb2dVertex
 10
429.5358829564088
 20
199.3474008250083
 30
0.0
  0
SEQEND
  5
6045
330
5B5E
100
AcDbEntity
  8
0
  0
POLYLINE
  5
5B5F
330
18
100
AcDbEntity
  8
0
100
AcDb2dPolyline
 66
     1
 10
0.0
 20
0.0
 30
0.0
  0
VERTEX
  5
6046
330
5B5F
100
AcDbEntity
  8
0
100
AcDbVertex
100
AcDb2dVertex
 10
393.5768587840699
 20
199.3474008250054
 30
0.0
  0
VERTEX
  5
6047
330
5B5F
100
AcDbEntity
  8
0
100
AcDbVertex
100
AcDb2dVertex
 10
401.8230700353052
 20
185.0645439679198
 30
0.0
  0
SEQEND
  5
6048
330
5B5F
100
AcDbEntity
  8
0
  0
CIRCLE
  5
5B60
330
18
100
AcDbEntity
  8
0
100
AcDbCircle
 10
411.5563708702386
 20
200.2059723964626
 30
0.0
 40
16.0
  0
LINE
  5
5B65
330
18
100
AcDbEntity
  8
0
100
AcDbLine
 10
373.0433306366306
 20
182.2059723964626
 30
0.0
 11
387.0694111038466
 21
182.2059723964626
 31
0.0
  0
LINE
  5
5B66
330
18
100
AcDbEntity
  8
0
100
AcDbLine
 10
373.0433306366305
 20
182.2059723964626
 30
0.0
 11
371.5563708702451
 21
184.78125607455
 31
0.0
  0
POLYLINE
  5
5B67
330
18
100
AcDbEntity
  8
0
100
AcDb2dPolyline
 66
     1
 10
0.0
 20
0.0
 30
0.0
  0
VERTEX
  5
6049
330
5B67
100
AcDbEntity
  8
0
100
AcDbVertex
100
AcDb2dVertex
 10
403.3101596190032
 20
184.2059723964626
 30
0.0
  0
VERTEX
  5
604A
330
5B67
100
AcDbEntity
  8
0
100
AcDbVertex
100
AcDb2dVertex
 10
419.8025821214739
 20
184.2059723964626
 30
0.0
  0
SEQEND
  5
604B
330
5B67
100
AcDbEntity
  8
0
  0
ARC
  5
5B68
330
18
100
AcDbEntity
  8
0
100
AcDbCircle
 10
411.5563708702386
 20
200.2059723964626
 30
0.0
 40
18.0
100
AcDbArc
 50
237.2660444507328
 51
242.7339555492671
  0
ARC
  5
5B69
330
18
100
AcDbEntity
  8
0
100
AcDbCircle
 10
411.5563708702386
 20
200.2059723964626
 30
0.0
 40
18.0
100
AcDbArc
 50
297.2660444507327
 51
302.7339555492766
  0
POLYLINE
  5
5B70
330
18
100
AcDbEntity
  8
0
100
AcDb2dPolyline
 66
     1
 10
0.0
 20
0.0
 30
0.0
  0
VERTEX
  5
604C
330
5B70
100
AcDbEntity
  8
0
100
AcDbVertex
100
AcDb2dVertex
 10
401.8230700353051
 20
215.3474008250054
 30
0.0
  0
VERTEX
  5
604D
330
5B70
100
AcDbEntity
  8
0
100
AcDbVertex
100
AcDb2dVertex
 10
393.5768587840699
 20
201.0645439679198
 30
0.0
  0
SEQEND
  5
604E
330
5B70
100
AcDbEntity
  8
0
  0
LINE
  5
5B71
330
18
100
AcDbEntity
  8
0
100
AcDbLine
 10
373.0433306366305
 20
218.2059723964626
 30
0.0
 11
387.0694111038466
 21
218.2059723964626
 31
0.0
  0
LINE
  5
5B72
330
18
100
AcDbEntity
  8
0
100
AcDbLine
 10
373.0433306366303
 20
209.939273231396
 30
0.0
 11
387.0694111038467
 21
209.939273231396
 31
0.0
  0
LINE
  5
5B73
330
18
100
AcDbEntity
  8
0
100
AcDbLine
 10
373.0433306366305
 20
208.452183647698
 30
0.0
 11
386.8987148583692
 21
208.4521836476979
 31
0.0
  0
LINE
  5
5B74
330
18
100
AcDbEntity
  8
0
100
AcDbLine
 10
373.0433306366305
 20
191.9597611452273
 30
0.0
 11
386.8987148583692
 21
191.9597611452273
 31
0.0
  0
LINE
  5
5B75
330
18
100
AcDbEntity
  8
0
100
AcDbLine
 10
373.0433306366303
 20
190.4726715615293
 30
0.0
 11
387.0694111038467
 21
190.4726715615292
 31
0.0
  0
ARC
  5
5B76
330
18
100
AcDbEntity
  8
0
100
AcDbCircle
 10
395.1652979354061
 20
200.2059723964627
 30
0.0
 40
23.60892706516101
100
AcDbArc
 50
159.5564962887377
 51
200.4435037112625
  0
LINE
  5
5B77
330
18
100
AcDbEntity
  8
0
100
AcDbLine
 10
373.0433306366304
 20
190.4726715615293
 30
0.0
 11
373.0433306366305
 21
191.9597611452273
 31
0.0
  0
ARC
  5
5B78
330
18
100
AcDbEntity
  8
0
100
AcDbCircle
 10
378.0446527170308
 20
214.0726228139292
 30
0.0
 40
6.488281846785682
100
AcDbArc
 50
159.568104087239
 51
219.5720767242649
  0
LINE
  5
5B79
330
18
100
AcDbEntity
  8
0
100
AcDbLine
 10
373.0433306366304
 20
209.939273231396
 30
0.0
 11
373.0433306366305
 21
208.452183647698
 31
0.0
  0
LINE
  5
5B7A
330
18
100
AcDbEntity
  8
0
100
AcDbLine
 10
373.0433306366305
 20
218.2059723964626
 30
0.0
 11
371.5563708702451
 21
215.6306887183752
 31
0.0
  0
ARC
  5
5B7B
330
18
100
AcDbEntity
  8
0
100
AcDbCircle
 10
411.5563708702386
 20
200.2059723964626
 30
0.0
 40
18.0
100
AcDbArc
 50
177.2660444507327
 51
182.7339555492672
  0
POLYLINE
  5
5B7C
330
18
100
AcDbEntity
  8
0
100
AcDb2dPolyline
 66
     1
 10
0.0
 20
0.0
 30
0.0
  0
VERTEX
  5
604F
330
5B7C
100
AcDbEntity
  8
0
100
AcDbVertex
100
AcDb2dVertex
 10
429.5358829564055
 20
201.0645439679227
 30
0.0
  0
VERTEX
  5
6050
330
5B7C
100
AcDbEntity
  8
0
100
AcDbVertex
100
AcDb2dVertex
 10
421.2896717051703
 20
215.3474008250083
 30
0.0
  0
SEQEND
  5
6051
330
5B7C
100
AcDbEntity
  8
0
  0
POLYLINE
  5
5B7D
330
18
100
AcDbEntity
  8
0
100
AcDb2dPolyline
 66
     1
 10
0.0
 20
0.0
 30
0.0
  0
VERTEX
  5
6052
330
5B7D
100
AcDbEntity
  8
0
100
AcDbVertex
100
AcDb2dVertex
 10
419.802582121474
 20
216.2059723964626
 30
0.0
  0
VERTEX
  5
6053
330
5B7D
100
AcDbEntity
  8
0
100
AcDbVertex
100
AcDb2dVertex
 10
403.3101596190032
 20
216.2059723964626
 30
0.0
  0
SEQEND
  5
6054
330
5B7D
100
AcDbEntity
  8
0
  0
ARC
  5
5B7E
330
18
100
AcDbEntity
  8
0
100
AcDbCircle
 10
411.5563708702386
 20
200.2059723964626
 30
0.0
 40
18.0
100
AcDbArc
 50
117.2660444507327
 51
122.7339555492673
  0
ARC
  5
5B7F
330
18
100
AcDbEntity
  8
0
100
AcDbCircle
 10
411.5563708702386
 20
200.2059723964626
 30
0.0
 40
18.0
100
AcDbArc
 50
57.26604445074221
 51
62.73395554926703
  0
ARC
  5
5B80
330
18
100
AcDbEntity
  8
0
100
AcDbCircle
 10
411.5563708702386
 20
200.2059723964626
 30
0.0
 40
18.0
100
AcDbArc
 50
357.2660444507421
 51
2.733955549276509
  0
CIRCLE
  5
5B87
330
18
100
AcDbEntity
  8
0
100
AcDbCircle
 10
411.5563708702386
 20
200.2059723964626
 30
0.0
 40
25.0
  0
LINE
  5
5B8A
330
18
100
AcDbEntity
  8
0
100
AcDbLine
 10
388.556370870232
 20
184.7812560745501
 30
0.0
 11
388.556370870232
 21
188.0816167434928
 31
0.0
  0
ARC
  5
5B8B
330
18
100
AcDbEntity
  8
0
100
AcDbCircle
 10
382.0680890234463
 20
186.339321978996
 30
0.0
 40
6.488281846785682
100
AcDbArc
 50
339.568104087239
 51
39.57207672426492
  0
LINE
  5
5B8C
330
18
100
AcDbEntity
  8
0
100
AcDbLine
 10
387.0694111038466
 20
182.2059723964626
 30
0.0
 11
388.556370870232
 21
184.78125607455
 31
0.0
  0
LINE
  5
5B8E
330
18
100
AcDbEntity
  8
0
100
AcDbLine
 10
387.0694111038467
 20
190.4726715615293
 30
0.0
 11
387.0694111038466
 21
191.4659036668072
 31
0.0
  0
LINE
  5
5B8F
330
18
100
AcDbEntity
  8
0
100
AcDbLine
 10
387.0694111038466
 20
218.2059723964626
 30
0.0
 11
388.556370870232
 21
215.6306887183752
 31
0.0
  0
LINE
  5
5B90
330
18
100
AcDbEntity
  8
0
100
AcDbLine
 10
387.0694111038467
 20
209.939273231396
 30
0.0
 11
387.0694111038466
 21
208.946041126118
 31
0.0
  0
ARC
  5
5B91
330
18
100
AcDbEntity
  8
0
100
AcDbCircle
 10
382.0680890234463
 20
214.0726228139292
 30
0.0
 40
6.488281846785682
100
AcDbArc
 50
320.427923275735
 51
20.43189591276099
  0
LINE
  5
5B92
330
18
100
AcDbEntity
  8
0
100
AcDbLine
 10
388.2242040915377
 20
216.2059723964626
 30
0.0
 11
391.0624693383193
 21
216.2059723964626
 31
0.0
  0
LINE
  5
5B93
330
18
100
AcDbEntity
  8
0
100
AcDbLine
 10
388.2242040915377
 20
184.2059723964626
 30
0.0
 11
391.0624693383193
 21
184.2059723964626
 31
0.0
  0
LINE
  5
5B96
330
18
100
AcDbEntity
  8
0
100
AcDbLine
 10
388.5563708702386
 20
212.3303280494448
 30
0.0
 11
388.5563708702385
 21
213.6552440645905
 31
0.0
  0
LINE
  5
5B97
330
18
100
AcDbEntity
  8
0
100
AcDbLine
 10
388.556370870232
 20
212.3303280494323
 30
0.0
 11
388.556370870232
 21
215.6306887183752
 31
0.0
  0
ARC
  5
5B9A
330
18
100
AcDbEntity
  8
0
100
AcDbCircle
 10
452.5115374443995
 20
285.1707108531836
 30
0.0
 40
17.94991186592132
100
AcDbArc
 50
156.5565738239321
 51
203.4434261760692
  0
LINE
  5
5B9B
330
18
100
AcDbEntity
  8
0
100
AcDbLine
 10
434.5563708702385
 20
261.1708858531806
 30
0.0
 11
434.5563708702385
 21
293.1708858531806
 31
0.0
  0
LINE
  5
5B9C
330
18
100
AcDbEntity
  8
0
100
AcDbLine
 10
388.5563708702385
 20
289.6705358531805
 30
0.0
 11
391.5876161675482
 21
281.0098350037243
 31
0.0
  0
LINE
  5
5B9D
330
18
100
AcDbEntity
  8
0
100
AcDbLine
 10
434.5563708702385
 20
289.6705358531805
 30
0.0
 11
431.5251255729287
 21
281.0098350037243
 31
0.0
  0
ARC
  5
5B9E
330
18
100
AcDbEntity
  8
0
100
AcDbCircle
 10
433.726664071937
 20
285.1707108531834
 30
0.0
 40
17.83487821881256
100
AcDbArc
 50
336.3962235583822
 51
23.6037764416178
  0
LINE
  5
5B9F
330
18
100
AcDbEntity
  8
0
100
AcDbLine
 10
451.5563708702385
 20
261.1708858531806
 30
0.0
 11
451.5563708702385
 21
293.1708858531806
 31
0.0
  0
ARC
  5
5BA0
330
18
100
AcDbEntity
  8
0
100
AcDbCircle
 10
452.5115374443995
 20
269.1703608531775
 30
0.0
 40
17.94991186592132
100
AcDbArc
 50
156.5565738239308
 51
203.4434261760678
  0
LINE
  5
5BA1
330
18
100
AcDbEntity
  8
0
100
AcDbLine
 10
431.5563708702384
 20
261.1708858531806
 30
0.0
 11
451.5563708702385
 21
261.1708858531806
 31
0.0
  0
INSERT
  5
5BA2
330
18
100
AcDbEntity
  8
0
100
AcDbBlockReference
  2
YA
 10
454.8063708702384
 20
277.1705358531805
 30
0.0
 41
-0.5140837528113959
 42
0.5140837528113959
 43
0.5140837528113959
  0
LINE
  5
5BA3
330
18
100
AcDbEntity
  8
0
100
AcDbLine
 10
436.0433306366238
 20
261.1701858531805
 30
0.0
 11
436.0433306366238
 21
262.0291074246348
 31
0.0
  0
LINE
  5
5BA4
330
18
100
AcDbEntity
  8
0
100
AcDbLine
 10
450.0694111038531
 20
261.1701858531805
 30
0.0
 11
450.0694111038531
 21
262.0291074246348
 31
0.0
  0
LINE
  5
5BA5
330
18
100
AcDbEntity
  8
0
100
AcDbLine
 10
450.0694111038531
 20
262.0291074246348
 30
0.0
 11
436.0433306366238
 21
262.0291074246348
 31
0.0
  0
LINE
  5
5BA6
330
18
100
AcDbEntity
  8
0
100
AcDbLine
 10
450.069411103853
 20
276.3123142817263
 30
0.0
 11
436.0433306366238
 21
276.3123142817263
 31
0.0
  0
LINE
  5
5BA7
330
18
100
AcDbEntity
  8
0
100
AcDbLine
 10
450.0694111038529
 20
278.0294574246406
 30
0.0
 11
436.0433306366239
 21
278.0294574246406
 31
0.0
  0
ARC
  5
5BA8
330
18
100
AcDbEntity
  8
0
100
AcDbCircle
 10
433.726664071937
 20
269.1703608531776
 30
0.0
 40
17.83487821881256
100
AcDbArc
 50
336.3962235583822
 51
23.60377644161778
  0
LINE
  5
5BA9
330
18
100
AcDbEntity
  8
0
100
AcDbLine
 10
450.0694111038531
 20
278.0294574246406
 30
0.0
 11
450.0694111038531
 21
276.3123142817263
 31
0.0
  0
LINE
  5
5BAA
330
18
100
AcDbEntity
  8
0
100
AcDbLine
 10
436.0433306366239
 20
278.0294574246406
 30
0.0
 11
436.0433306366239
 21
276.3123142817263
 31
0.0
  0
ARC
  5
5BAB
330
18
100
AcDbEntity
  8
0
100
AcDbCircle
 10
411.5563708702384
 20
273.7794629183415
 30
0.0
 40
23.60892706516101
100
AcDbArc
 50
249.5564962887377
 51
290.4435037112625
  0
LINE
  5
5BAC
330
18
100
AcDbEntity
  8
0
100
AcDbLine
 10
426.9810871921509
 20
250.1705358531805
 30
0.0
 11
396.1316545483258
 21
250.1705358531806
 31
0.0
  0
LINE
  5
5BAD
330
18
100
AcDbEntity
  8
0
100
AcDbLine
 10
393.4753328802802
 20
279.6705358531805
 30
0.0
 11
429.6374088601967
 21
279.6705358531805
 31
0.0
  0
ARC
  5
5BAE
330
18
100
AcDbEntity
  8
0
100
AcDbCircle
 10
431.5563708702384
 20
259.1708858531806
 30
0.0
 40
2.0
100
AcDbArc
 50
90.0
 51
180.0
  0
LINE
  5
5BAF
330
18
100
AcDbEntity
  8
0
100
AcDbLine
 10
419.8025821214738
 20
251.6574956195659
 30
0.0
 11
419.802582121474
 21
279.6705358531805
 31
0.0
  0
LINE
  5
5BB0
330
18
100
AcDbEntity
  8
0
100
AcDbLine
 10
421.2896717051718
 20
251.6574956195658
 30
0.0
 11
421.2896717051719
 21
279.6705358531805
 31
0.0
  0
LINE
  5
5BB1
330
18
100
AcDbEntity
  8
0
100
AcDbLine
 10
429.5563708702385
 20
278.1608941614952
 30
0.0
 11
429.5563708702385
 21
251.657495619566
 31
0.0
  0
ARC
  5
5BB2
330
18
100
AcDbEntity
  8
0
100
AcDbCircle
 10
425.4230212877051
 20
256.6588176999663
 30
0.0
 40
6.488281846785682
100
AcDbArc
 50
230.427923275735
 51
290.4318959127609
  0
LINE
  5
5BB3
330
18
100
AcDbEntity
  8
0
100
AcDbLine
 10
429.5563708702385
 20
251.6574956195659
 30
0.0
 11
426.9810871921509
 21
250.1705358531805
 31
0.0
  0
LINE
  5
5BB4
330
18
100
AcDbEntity
  8
0
100
AcDbLine
 10
421.2896717051718
 20
251.6574956195658
 30
0.0
 11
419.8025821214738
 21
251.6574956195659
 31
0.0
  0
ARC
  5
5BB5
330
18
100
AcDbEntity
  8
0
100
AcDbCircle
 10
431.5563708702385
 20
278.1608941614952
 30
0.0
 40
2.0
100
AcDbArc
 50
118.6684551975308
 51
180.0
  0
ARC
  5
5BB6
330
18
100
AcDbEntity
  8
0
100
AcDbCircle
 10
429.6374088601967
 20
281.6705358531805
 30
0.0
 40
2.0
100
AcDbArc
 50
298.6684551975308
 51
340.7099537808113
  0
LINE
  5
5BB7
330
18
100
AcDbEntity
  8
0
100
AcDbLine
 10
393.5563708702382
 20
278.1608941614952
 30
0.0
 11
393.5563708702384
 21
251.6574956195659
 31
0.0
  0
LINE
  5
5BB8
330
18
100
AcDbEntity
  8
0
100
AcDbLine
 10
403.310159619003
 20
251.6574956195659
 30
0.0
 11
403.3101596190031
 21
279.6705358531805
 31
0.0
  0
LINE
  5
5BB9
330
18
100
AcDbEntity
  8
0
100
AcDbLine
 10
401.8230700353051
 20
251.6574956195658
 30
0.0
 11
401.8230700353051
 21
279.6705358531805
 31
0.0
  0
ARC
  5
5BBA
330
18
100
AcDbEntity
  8
0
100
AcDbCircle
 10
397.6897204527718
 20
256.6588176999663
 30
0.0
 40
6.488281846785682
100
AcDbArc
 50
249.568104087239
 51
309.5720767242648
  0
LINE
  5
5BBB
330
18
100
AcDbEntity
  8
0
100
AcDbLine
 10
401.8230700353051
 20
251.6574956195658
 30
0.0
 11
403.310159619003
 21
251.6574956195659
 31
0.0
  0
LINE
  5
5BBC
330
18
100
AcDbEntity
  8
0
100
AcDbLine
 10
393.5563708702384
 20
251.6574956195659
 30
0.0
 11
396.1316545483258
 21
250.1705358531806
 31
0.0
  0
ARC
  5
5BBD
330
18
100
AcDbEntity
  8
0
100
AcDbCircle
 10
391.5563708702383
 20
278.1608941614952
 30
0.0
 40
2.0
100
AcDbArc
 50
0.0000000000004141
 51
61.33154480246733
  0
ARC
  5
5BBE
330
18
100
AcDbEntity
  8
0
100
AcDbCircle
 10
393.4753328802802
 20
281.6705358531805
 30
0.0
 40
2.0
100
AcDbArc
 50
199.2900462191887
 51
241.3315448024689
  0
LINE
  5
5BBF
330
18
100
AcDbEntity
  8
0
100
AcDbLine
 10
388.5563708702388
 20
318.1705358531806
 30
0.0
 11
434.5563708702385
 21
318.1705358531806
 31
0.0
  0
LINE
  5
5BC0
330
18
100
AcDbEntity
  8
0
100
AcDbLine
 10
386.5563708702385
 20
312.1705358531805
 30
0.0
 11
436.5563708702385
 21
312.1705358531805
 31
0.0
  0
LINE
  5
5BC1
330
18
100
AcDbEntity
  8
0
100
AcDbLine
 10
386.5051841193793
 20
310.1705358531805
 30
0.0
 11
436.6075576210975
 21
310.1705358531805
 31
0.0
  0
LINE
  5
5BC2
330
18
100
AcDbEntity
  8
0
100
AcDbLine
 10
434.565220685068
 20
299.1705358531806
 30
0.0
 11
437.5563708702385
 21
302.1616860383509
 31
0.0
  0
ARC
  5
5BC3
330
18
100
AcDbEntity
  8
0
100
AcDbCircle
 10
436.5563708702384
 20
295.1705358531805
 30
0.0
 40
2.0
100
AcDbArc
 50
180.0000000000004
 51
270.0
  0
LINE
  5
5BC4
330
18
100
AcDbEntity
  8
0
100
AcDbLine
 10
437.5563708702385
 20
302.1616860383509
 30
0.0
 11
437.5563708702385
 21
309.2217226040396
 31
0.0
  0
LINE
  5
5BC5
330
18
100
AcDbEntity
  8
0
100
AcDbLine
 10
450.0694111038531
 20
292.3119642817263
 30
0.0
 11
436.0433306366238
 21
292.3119642817263
 31
0.0
  0
LINE
  5
5BC6
330
18
100
AcDbEntity
  8
0
100
AcDbLine
 10
436.5563708702384
 20
293.1708858531806
 30
0.0
 11
451.5563708702385
 21
293.1708858531806
 31
0.0
  0
LINE
  5
5BC7
330
18
100
AcDbEntity
  8
0
100
AcDbLine
 10
450.0694111038531
 20
293.1708858531806
 30
0.0
 11
450.0694111038531
 21
292.3119642817263
 31
0.0
  0
LINE
  5
5BC8
330
18
100
AcDbEntity
  8
0
100
AcDbLine
 10
436.0433306366238
 20
293.1708858531806
 30
0.0
 11
436.0433306366238
 21
292.3119642817263
 31
0.0
  0
LINE
  5
5BC9
330
18
100
AcDbEntity
  8
0
100
AcDbLine
 10
436.5563708702384
 20
310.1705358531805
 30
0.0
 11
436.5563708702386
 21
316.1705358531805
 31
0.0
  0
LINE
  5
5BCA
330
18
100
AcDbEntity
  8
0
100
AcDbLine
 10
436.6075576210975
 20
310.1705358531805
 30
0.0
 11
437.5563708702385
 21
309.2217226040396
 31
0.0
  0
LINE
  5
5BCB
330
18
100
AcDbEntity
  8
0
100
AcDbLine
 10
393.5563708702384
 20
325.6835760867951
 30
0.0
 11
396.1316545483258
 21
327.1705358531805
 31
0.0
  0
ARC
  5
5BCC
330
18
100
AcDbEntity
  8
0
100
AcDbCircle
 10
411.5563708702384
 20
303.5616087880196
 30
0.0
 40
23.60892706516101
100
AcDbArc
 50
69.55649628873747
 51
110.4435037112622
  0
LINE
  5
5BCD
330
18
100
AcDbEntity
  8
0
100
AcDbLine
 10
429.5563708702385
 20
325.6835760867951
 30
0.0
 11
426.9810871921509
 21
327.1705358531806
 31
0.0
  0
ARC
  5
5BCE
330
18
100
AcDbEntity
  8
0
100
AcDbCircle
 10
425.4230212877051
 20
320.6822540063948
 30
0.0
 40
6.488281846785682
100
AcDbArc
 50
69.56810408723907
 51
129.5720767242649
  0
ARC
  5
5BCF
330
18
100
AcDbEntity
  8
0
100
AcDbCircle
 10
397.6897204527718
 20
320.6822540063948
 30
0.0
 40
6.488281846785682
100
AcDbArc
 50
50.42792327573509
 51
110.4318959127609
  0
LINE
  5
5BD0
330
18
100
AcDbEntity
  8
0
100
AcDbLine
 10
388.5475210554088
 20
299.1705358531806
 30
0.0
 11
434.565220685068
 21
299.1705358531806
 31
0.0
  0
LINE
  5
5BD1
330
18
100
AcDbEntity
  8
0
100
AcDbLine
 10
388.5563708702385
 20
289.6705358531805
 30
0.0
 11
434.5563708702385
 21
289.6705358531805
 31
0.0
  0
LINE
  5
5BD2
330
18
100
AcDbEntity
  8
0
100
AcDbLine
 10
434.5563708702385
 20
289.6705358531805
 30
0.0
 11
434.5563708702384
 21
299.1705358531806
 31
0.0
  0
LINE
  5
5BD3
330
18
100
AcDbEntity
  8
0
100
AcDbLine
 10
429.5563708702385
 20
318.1705358531806
 30
0.0
 11
429.5563708702385
 21
325.6835760867951
 31
0.0
  0
LINE
  5
5BD4
330
18
100
AcDbEntity
  8
0
100
AcDbLine
 10
421.2896717051718
 20
325.6835760867953
 30
0.0
 11
419.8025821214738
 21
325.6835760867951
 31
0.0
  0
LINE
  5
5BD5
330
18
100
AcDbEntity
  8
0
100
AcDbLine
 10
421.2896717051718
 20
325.6835760867953
 30
0.0
 11
421.2896717051718
 21
318.1705358531806
 31
0.0
  0
LINE
  5
5BD6
330
18
100
AcDbEntity
  8
0
100
AcDbLine
 10
419.8025821214738
 20
325.6835760867952
 30
0.0
 11
419.8025821214738
 21
318.1705358531806
 31
0.0
  0
LINE
  5
5BD7
330
18
100
AcDbEntity
  8
0
100
AcDbLine
 10
385.5563708702384
 20
302.1616860383509
 30
0.0
 11
385.5563708702384
 21
309.2217226040396
 31
0.0
  0
LINE
  5
5BD8
330
18
100
AcDbEntity
  8
0
100
AcDbLine
 10
388.5563708702385
 20
289.6705358531805
 30
0.0
 11
388.5563708702385
 21
299.1705358531806
 31
0.0
  0
LINE
  5
5BD9
330
18
100
AcDbEntity
  8
0
100
AcDbLine
 10
388.5475210554088
 20
299.1705358531806
 30
0.0
 11
385.5563708702384
 21
302.1616860383509
 31
0.0
  0
LINE
  5
5BDA
330
18
100
AcDbEntity
  8
0
100
AcDbLine
 10
401.8230700353051
 20
325.6835760867953
 30
0.0
 11
401.8230700353051
 21
318.1705358531806
 31
0.0
  0
LINE
  5
5BDB
330
18
100
AcDbEntity
  8
0
100
AcDbLine
 10
403.310159619003
 20
325.6835760867952
 30
0.0
 11
403.310159619003
 21
318.1705358531806
 31
0.0
  0
LINE
  5
5BDC
330
18
100
AcDbEntity
  8
0
100
AcDbLine
 10
401.8230700353051
 20
325.6835760867953
 30
0.0
 11
403.310159619003
 21
325.6835760867951
 31
0.0
  0
LINE
  5
5BDD
330
18
100
AcDbEntity
  8
0
100
AcDbLine
 10
386.5563708702384
 20
310.1705358531805
 30
0.0
 11
386.5563708702388
 21
316.1705358531806
 31
0.0
  0
LINE
  5
5BDE
330
18
100
AcDbEntity
  8
0
100
AcDbLine
 10
386.5051841193793
 20
310.1705358531805
 30
0.0
 11
385.5563708702384
 21
309.2217226040396
 31
0.0
  0
LINE
  5
5BDF
330
18
100
AcDbEntity
  8
0
100
AcDbLine
 10
393.5563708702384
 20
318.1705358531806
 30
0.0
 11
393.5563708702384
 21
325.6835760867952
 31
0.0
  0
LINE
  5
5BE0
330
18
100
AcDbEntity
  8
0
100
AcDbLine
 10
426.9810871921509
 20
327.1705358531806
 30
0.0
 11
396.1316545483258
 21
327.1705358531805
 31
0.0
  0
ARC
  5
5BF8
330
18
100
AcDbEntity
  8
0
100
AcDbCircle
 10
388.5563708702388
 20
316.1705358531806
 30
0.0
 40
2.0
100
AcDbArc
 50
90.0
 51
179.9999999999967
  0
ARC
  5
5BF9
330
18
100
AcDbEntity
  8
0
100
AcDbCircle
 10
434.5563708702385
 20
316.1705358531806
 30
0.0
 40
2.0
100
AcDbArc
 50
359.9999999999983
 51
90.0
  0
ARC
  5
5BFA
330
18
100
AcDbEntity
  8
0
100
AcDbCircle
 10
388.5563708702385
 20
131.525730862606
 30
0.0
 40
2.0
100
AcDbArc
 50
90.00000000000003
 51
180.0000000000016
  0
ARC
  5
5BFB
330
18
100
AcDbEntity
  8
0
100
AcDbCircle
 10
434.5563708702384
 20
131.5257308626061
 30
0.0
 40
2.0
100
AcDbArc
 50
0.0000000000032569
 51
90.0
  0
ARC
  5
5BFC
330
18
100
AcDbEntity
  8
0
100
AcDbCircle
 10
303.5762938802903
 20
131.525730862606
 30
0.0
 40
2.0
100
AcDbArc
 50
90.00000000000003
 51
180.0000000000016
  0
ARC
  5
5BFD
330
18
100
AcDbEntity
  8
0
100
AcDbCircle
 10
349.5762938802903
 20
131.5257308626061
 30
0.0
 40
2.0
100
AcDbArc
 50
0.0000000000032569
 51
90.0
  0
LINE
  5
5BFE
330
18
100
AcDbEntity
  8
0
100
AcDbLine
 10
457.6297874962385
 20
105.0257308626061
 30
0.0
 11
460.6610327935483
 21
96.36503001314986
 31
0.0
  0
POLYLINE
  5
5C00
330
18
100
AcDbEntity
  8
0
100
AcDb2dPolyline
 66
     1
 10
0.0
 20
0.0
 30
0.0
  0
VERTEX
  5
6055
330
5C00
100
AcDbEntity
  8
0
100
AcDbVertex
100
AcDb2dVertex
 10
490.3630883311721
 20
107.6671592911489
 30
0.0
  0
VERTEX
  5
6056
330
5C00
100
AcDbEntity
  8
0
100
AcDbVertex
100
AcDb2dVertex
 10
498.6092995824073
 20
93.38430243406333
 30
0.0
  0
SEQEND
  5
6057
330
5C00
100
AcDbEntity
  8
0
  0
CIRCLE
  5
5C01
330
18
100
AcDbEntity
  8
0
100
AcDbCircle
 10
480.6297874962386
 20
92.52573086260614
 30
0.0
 40
16.0
  0
LINE
  5
5C02
330
18
100
AcDbEntity
  8
0
100
AcDbLine
 10
503.6297874962385
 20
105.0257308626061
 30
0.0
 11
500.5985421989286
 21
96.36503001314988
 31
0.0
  0
POLYLINE
  5
5C03
330
18
100
AcDbEntity
  8
0
100
AcDb2dPolyline
 66
     1
 10
0.0
 20
0.0
 30
0.0
  0
VERTEX
  5
6058
330
5C03
100
AcDbEntity
  8
0
100
AcDbVertex
100
AcDb2dVertex
 10
462.6502754100717
 20
93.38430243406618
 30
0.0
  0
VERTEX
  5
6059
330
5C03
100
AcDbEntity
  8
0
100
AcDbVertex
100
AcDb2dVertex
 10
470.896486661307
 20
107.6671592911518
 30
0.0
  0
SEQEND
  5
605A
330
5C03
100
AcDbEntity
  8
0
  0
ARC
  5
5C04
330
18
100
AcDbEntity
  8
0
100
AcDbCircle
 10
480.6297874962386
 20
92.52573086260614
 30
0.0
 40
18.0
100
AcDbArc
 50
297.2660444507328
 51
302.7339555492671
  0
LINE
  5
5C05
330
18
100
AcDbEntity
  8
0
100
AcDbLine
 10
496.6297874962387
 20
65.52573086260608
 30
0.0
 11
464.6297874962386
 21
65.52573086260614
 31
0.0
  0
ARC
  5
5C06
330
18
100
AcDbEntity
  8
0
100
AcDbCircle
 10
488.6297874962386
 20
83.41829613227778
 30
0.0
 40
17.89256526967169
100
AcDbArc
 50
246.4763069438204
 51
293.5236930561794
  0
LINE
  5
5C07
330
18
100
AcDbEntity
  8
0
100
AcDbLine
 10
496.6301374962386
 20
88.23915000149087
 30
0.0
 11
496.6301374962386
 21
65.52573086260611
 31
0.0
  0
LINE
  5
5C08
330
18
100
AcDbEntity
  8
0
100
AcDbLine
 10
495.7712159247815
 20
67.0126906289914
 30
0.0
 11
495.7712159247813
 21
86.75145420000999
 31
0.0
  0
LINE
  5
5C09
330
18
100
AcDbEntity
  8
0
100
AcDbLine
 10
496.6297874962387
 20
67.01269062899138
 30
0.0
 11
495.7712159247814
 21
67.0126906289914
 31
0.0
  0
POLYLINE
  5
5C0A
330
18
100
AcDbEntity
  8
0
100
AcDb2dPolyline
 66
     1
 10
0.0
 20
0.0
 30
0.0
  0
VERTEX
  5
605B
330
5C0A
100
AcDbEntity
  8
0
100
AcDbVertex
100
AcDb2dVertex
 10
498.6092995824073
 20
91.66715929114895
 30
0.0
  0
VERTEX
  5
605C
330
5C0A
100
AcDbEntity
  8
0
100
AcDbVertex
100
AcDb2dVertex
 10
490.363088331172
 20
77.38430243406327
 30
0.0
  0
SEQEND
  5
605D
330
5C0A
100
AcDbEntity
  8
0
  0
ARC
  5
5C0B
330
18
100
AcDbEntity
  8
0
100
AcDbCircle
 10
480.6297874962386
 20
92.52573086260614
 30
0.0
 40
18.0
100
AcDbArc
 50
357.2660444507327
 51
2.733955549267219
  0
ARC
  5
5C0C
330
18
100
AcDbEntity
  8
0
100
AcDbCircle
 10
498.7108254861967
 20
97.0257308626061
 30
0.0
 40
2.0
100
AcDbArc
 50
270.0
 51
340.7099537808108
  0
LINE
  5
5C0D
330
18
100
AcDbEntity
  8
0
100
AcDbLine
 10
497.6616204373327
 20
95.02573086260609
 30
0.0
 11
498.7108254861967
 21
95.02573086260609
 31
0.0
  0
POLYLINE
  5
5C0E
330
18
100
AcDbEntity
  8
0
100
AcDb2dPolyline
 66
     1
 10
0.0
 20
0.0
 30
0.0
  0
VERTEX
  5
605E
330
5C0E
100
AcDbEntity
  8
0
100
AcDbVertex
100
AcDb2dVertex
 10
470.8964866613036
 20
77.38430243406617
 30
0.0
  0
VERTEX
  5
605F
330
5C0E
100
AcDbEntity
  8
0
100
AcDbVertex
100
AcDb2dVertex
 10
462.6502754100683
 20
91.66715929115179
 30
0.0
  0
SEQEND
  5
6060
330
5C0E
100
AcDbEntity
  8
0
  0
ARC
  5
5C0F
330
18
100
AcDbEntity
  8
0
100
AcDbCircle
 10
480.6297874962386
 20
92.52573086260614
 30
0.0
 40
18.0
100
AcDbArc
 50
237.2660444507233
 51
242.7339555492672
  0
LINE
  5
5C10
330
18
100
AcDbEntity
  8
0
100
AcDbLine
 10
465.4883590676957
 20
67.0126906289914
 30
0.0
 11
465.4883590676959
 21
86.75145420000998
 31
0.0
  0
LINE
  5
5C11
330
18
100
AcDbEntity
  8
0
100
AcDbLine
 10
464.6297874962386
 20
65.52573086260614
 30
0.0
 11
464.6297874962388
 21
88.23854378370803
 31
0.0
  0
POLYLINE
  5
5C12
330
18
100
AcDbEntity
  8
0
100
AcDb2dPolyline
 66
     1
 10
0.0
 20
0.0
 30
0.0
  0
VERTEX
  5
6061
330
5C12
100
AcDbEntity
  8
0
100
AcDbVertex
100
AcDb2dVertex
 10
488.875998747474
 20
76.52573086260614
 30
0.0
  0
VERTEX
  5
6062
330
5C12
100
AcDbEntity
  8
0
100
AcDbVertex
100
AcDb2dVertex
 10
472.3835762450034
 20
76.52573086260614
 30
0.0
  0
SEQEND
  5
6063
330
5C12
100
AcDbEntity
  8
0
  0
ARC
  5
5C13
330
18
100
AcDbEntity
  8
0
100
AcDbCircle
 10
472.6297874962386
 20
83.41829613227778
 30
0.0
 40
17.89256526967169
100
AcDbArc
 50
246.4763069438205
 51
293.5236930561795
  0
LINE
  5
5C14
330
18
100
AcDbEntity
  8
0
100
AcDbLine
 10
481.4883590676958
 20
67.0126906289914
 30
0.0
 11
481.4883590676958
 21
76.52573086260614
 31
0.0
  0
LINE
  5
5C15
330
18
100
AcDbEntity
  8
0
100
AcDbLine
 10
479.7712159247815
 20
67.0126906289914
 30
0.0
 11
479.7712159247815
 21
76.52573086260614
 31
0.0
  0
LINE
  5
5C16
330
18
100
AcDbEntity
  8
0
100
AcDbLine
 10
479.7712159247815
 20
67.0126906289914
 30
0.0
 11
481.4883590676958
 21
67.0126906289914
 31
0.0
  0
LINE
  5
5C17
330
18
100
AcDbEntity
  8
0
100
AcDbLine
 10
464.6297874962385
 20
67.01269062899138
 30
0.0
 11
465.4883590676958
 21
67.0126906289914
 31
0.0
  0
ARC
  5
5C18
330
18
100
AcDbEntity
  8
0
100
AcDbCircle
 10
480.6297874962386
 20
92.52573086260614
 30
0.0
 40
18.0
100
AcDbArc
 50
177.2660444507235
 51
182.7339555492578
  0
LINE
  5
5C19
330
18
100
AcDbEntity
  8
0
100
AcDbLine
 10
462.5487495062804
 20
95.02573086260609
 30
0.0
 11
463.5979545551447
 21
95.02573086260609
 31
0.0
  0
ARC
  5
5C1A
330
18
100
AcDbEntity
  8
0
100
AcDbCircle
 10
462.5487495062804
 20
97.02573086260608
 30
0.0
 40
2.0
100
AcDbArc
 50
199.2900462191891
 51
270.0
  0
LINE
  5
5C1B
330
18
100
AcDbEntity
  8
0
100
AcDbLine
 10
496.6297874962387
 20
142.5257308626061
 30
0.0
 11
464.6297874962386
 21
142.5257308626061
 31
0.0
  0
ARC
  5
5C1C
330
18
100
AcDbEntity
  8
0
100
AcDbCircle
 10
480.6297874962386
 20
92.52573086260614
 30
0.0
 40
18.0
100
AcDbArc
 50
57.26604445073268
 51
62.73395554926723
  0
ARC
  5
5C1D
330
18
100
AcDbEntity
  8
0
100
AcDbCircle
 10
488.6297874962386
 20
124.6331655929344
 30
0.0
 40
17.89256526967169
100
AcDbArc
 50
66.47630694382058
 51
113.5236930561795
  0
LINE
  5
5C1E
330
18
100
AcDbEntity
  8
0
100
AcDbLine
 10
455.6297874962386
 20
127.5257308626061
 30
0.0
 11
505.6297874962386
 21
127.525730862606
 31
0.0
  0
LINE
  5
5C1F
330
18
100
AcDbEntity
  8
0
100
AcDbLine
 10
455.5786007453795
 20
125.5257308626061
 30
0.0
 11
505.6809742470975
 21
125.5257308626061
 31
0.0
  0
LINE
  5
5C20
330
18
100
AcDbEntity
  8
0
100
AcDbLine
 10
457.6209376814089
 20
114.5257308626061
 30
0.0
 11
503.6386373110682
 21
114.5257308626061
 31
0.0
  0
LINE
  5
5C21
330
18
100
AcDbEntity
  8
0
100
AcDbLine
 10
457.6297874962388
 20
133.5257308626061
 30
0.0
 11
503.6297874962387
 21
133.525730862606
 31
0.0
  0
LINE
  5
5C22
330
18
100
AcDbEntity
  8
0
100
AcDbLine
 10
496.6301374962386
 20
133.5257308626061
 30
0.0
 11
496.6301374962386
 21
142.5257308626061
 31
0.0
  0
LINE
  5
5C23
330
18
100
AcDbEntity
  8
0
100
AcDbLine
 10
506.6297874962386
 20
117.5168810477764
 30
0.0
 11
506.6297874962385
 21
124.5769176134651
 31
0.0
  0
LINE
  5
5C24
330
18
100
AcDbEntity
  8
0
100
AcDbLine
 10
491.8881177454364
 20
105.025730862606
 30
0.0
 11
503.6297874962385
 21
105.0257308626061
 31
0.0
  0
LINE
  5
5C25
330
18
100
AcDbEntity
  8
0
100
AcDbLine
 10
503.6297874962385
 20
105.0257308626061
 30
0.0
 11
503.6297874962385
 21
114.5257308626061
 31
0.0
  0
LINE
  5
5C26
330
18
100
AcDbEntity
  8
0
100
AcDbLine
 10
503.6386373110682
 20
114.5257308626061
 30
0.0
 11
506.6297874962386
 21
117.5168810477764
 31
0.0
  0
LINE
  5
5C27
330
18
100
AcDbEntity
  8
0
100
AcDbLine
 10
505.6297874962385
 20
125.5257308626061
 30
0.0
 11
505.6297874962387
 21
131.525730862606
 31
0.0
  0
LINE
  5
5C28
330
18
100
AcDbEntity
  8
0
100
AcDbLine
 10
505.6809742470975
 20
125.5257308626061
 30
0.0
 11
506.6297874962385
 21
124.5769176134651
 31
0.0
  0
ARC
  5
5C29
330
18
100
AcDbEntity
  8
0
100
AcDbCircle
 10
503.6297874962387
 20
131.525730862606
 30
0.0
 40
2.0
100
AcDbArc
 50
359.9999999999983
 51
89.99999999999998
  0
LINE
  5
5C2A
330
18
100
AcDbEntity
  8
0
100
AcDbLine
 10
496.6297874962387
 20
141.0387710962208
 30
0.0
 11
495.7712159247814
 21
141.0387710962208
 31
0.0
  0
LINE
  5
5C2B
330
18
100
AcDbEntity
  8
0
100
AcDbLine
 10
495.7712159247815
 20
141.0387710962208
 30
0.0
 11
495.7712159247815
 21
133.5257308626061
 31
0.0
  0
ARC
  5
5C2C
330
18
100
AcDbEntity
  8
0
100
AcDbCircle
 10
472.6297874962386
 20
124.6331655929344
 30
0.0
 40
17.89256526967169
100
AcDbArc
 50
66.47630694382041
 51
113.5236930561794
  0
LINE
  5
5C2D
330
18
100
AcDbEntity
  8
0
100
AcDbLine
 10
464.6297874962386
 20
142.5257308626061
 30
0.0
 11
464.6297874962386
 21
133.5257308626061
 31
0.0
  0
LINE
  5
5C2E
330
18
100
AcDbEntity
  8
0
100
AcDbLine
 10
457.6297874962385
 20
105.025730862606
 30
0.0
 11
469.3714572470409
 21
105.025730862606
 31
0.0
  0
POLYLINE
  5
5C2F
330
18
100
AcDbEntity
  8
0
100
AcDb2dPolyline
 66
     1
 10
0.0
 20
0.0
 30
0.0
  0
VERTEX
  5
6064
330
5C2F
100
AcDbEntity
  8
0
100
AcDbVertex
100
AcDb2dVertex
 10
472.3835762450033
 20
108.5257308626061
 30
0.0
  0
VERTEX
  5
6065
330
5C2F
100
AcDbEntity
  8
0
100
AcDbVertex
100
AcDb2dVertex
 10
488.875998747474
 20
108.5257308626061
 30
0.0
  0
SEQEND
  5
6066
330
5C2F
100
AcDbEntity
  8
0
  0
ARC
  5
5C30
330
18
100
AcDbEntity
  8
0
100
AcDbCircle
 10
480.6297874962386
 20
92.52573086260614
 30
0.0
 40
18.0
100
AcDbArc
 50
117.2660444507329
 51
122.7339555492577
  0
LINE
  5
5C31
330
18
100
AcDbEntity
  8
0
100
AcDbLine
 10
479.7712159247815
 20
141.0387710962208
 30
0.0
 11
481.4883590676958
 21
141.0387710962208
 31
0.0
  0
LINE
  5
5C32
330
18
100
AcDbEntity
  8
0
100
AcDbLine
 10
479.7712159247815
 20
141.0387710962208
 30
0.0
 11
479.7712159247815
 21
133.5257308626061
 31
0.0
  0
LINE
  5
5C33
330
18
100
AcDbEntity
  8
0
100
AcDbLine
 10
481.4883590676958
 20
141.0387710962208
 30
0.0
 11
481.4883590676958
 21
133.5257308626061
 31
0.0
  0
LINE
  5
5C34
330
18
100
AcDbEntity
  8
0
100
AcDbLine
 10
464.6297874962385
 20
141.0387710962208
 30
0.0
 11
465.4883590676958
 21
141.0387710962208
 31
0.0
  0
LINE
  5
5C35
330
18
100
AcDbEntity
  8
0
100
AcDbLine
 10
465.4883590676957
 20
141.0387710962208
 30
0.0
 11
465.4883590676958
 21
133.525730862606
 31
0.0
  0
LINE
  5
5C36
330
18
100
AcDbEntity
  8
0
100
AcDbLine
 10
454.6297874962385
 20
117.5168810477764
 30
0.0
 11
454.6297874962386
 21
124.5769176134651
 31
0.0
  0
LINE
  5
5C37
330
18
100
AcDbEntity
  8
0
100
AcDbLine
 10
457.6297874962385
 20
105.025730862606
 30
0.0
 11
457.6297874962385
 21
114.5257308626061
 31
0.0
  0
LINE
  5
5C38
330
18
100
AcDbEntity
  8
0
100
AcDbLine
 10
457.6209376814089
 20
114.5257308626061
 30
0.0
 11
454.6297874962385
 21
117.5168810477764
 31
0.0
  0
LINE
  5
5C39
330
18
100
AcDbEntity
  8
0
100
AcDbLine
 10
455.6297874962385
 20
125.5257308626061
 30
0.0
 11
455.6297874962388
 21
131.5257308626062
 31
0.0
  0
LINE
  5
5C3A
330
18
100
AcDbEntity
  8
0
100
AcDbLine
 10
455.5786007453795
 20
125.5257308626061
 30
0.0
 11
454.6297874962386
 21
124.5769176134651
 31
0.0
  0
ARC
  5
5C3B
330
18
100
AcDbEntity
  8
0
100
AcDbCircle
 10
457.6297874962388
 20
131.5257308626061
 30
0.0
 40
2.0
100
AcDbArc
 50
90.0
 51
179.9999999999967
  0
CIRCLE
  5
5C3C
330
18
100
AcDbEntity
  8
0
100
AcDbCircle
 10
85.69907885138134
 20
92.52573086260614
 30
0.0
 40
16.0
  0
ARC
  5
5C3D
330
18
100
AcDbEntity
  8
0
100
AcDbCircle
 10
93.69907885138132
 20
90.41829613227779
 30
0.0
 40
17.89256526967169
100
AcDbArc
 50
246.4763069438204
 51
293.5236930561794
  0
POLYLINE
  5
5C3E
330
18
100
AcDbEntity
  8
0
100
AcDb2dPolyline
 66
     1
 10
0.0
 20
0.0
 30
0.0
  0
VERTEX
  5
6067
330
5C3E
100
AcDbEntity
  8
0
100
AcDbVertex
100
AcDb2dVertex
 10
77.45286760014602
 20
76.52573086260614
 30
0.0
  0
VERTEX
  5
6068
330
5C3E
100
AcDbEntity
  8
0
100
AcDbVertex
100
AcDb2dVertex
 10
93.94529010261663
 20
76.52573086260614
 30
0.0
  0
SEQEND
  5
6069
330
5C3E
100
AcDbEntity
  8
0
  0
LINE
  5
5C3F
330
18
100
AcDbEntity
  8
0
100
AcDbLine
 10
69.69907885138127
 20
72.52573086260608
 30
0.0
 11
101.6990788513813
 21
72.52573086260614
 31
0.0
  0
LINE
  5
5C40
330
18
100
AcDbEntity
  8
0
100
AcDbLine
 10
108.6990788513812
 20
133.5257308626061
 30
0.0
 11
62.69907885138128
 21
133.525730862606
 31
0.0
  0
LINE
  5
5C41
330
18
100
AcDbEntity
  8
0
100
AcDbLine
 10
108.707928666211
 20
114.5257308626061
 30
0.0
 11
62.69022903655184
 21
114.5257308626061
 31
0.0
  0
LINE
  5
5C42
330
18
100
AcDbEntity
  8
0
100
AcDbLine
 10
110.7502656022405
 20
125.5257308626061
 30
0.0
 11
60.64789210052243
 21
125.5257308626061
 31
0.0
  0
LINE
  5
5C43
330
18
100
AcDbEntity
  8
0
100
AcDbLine
 10
110.6990788513813
 20
127.5257308626061
 30
0.0
 11
60.69907885138139
 21
127.525730862606
 31
0.0
  0
ARC
  5
5C44
330
18
100
AcDbEntity
  8
0
100
AcDbCircle
 10
93.69907885138132
 20
124.6331655929344
 30
0.0
 40
17.89256526967169
100
AcDbArc
 50
66.47630694382058
 51
113.5236930561795
  0
POLYLINE
  5
5C45
330
18
100
AcDbEntity
  8
0
100
AcDb2dPolyline
 66
     1
 10
0.0
 20
0.0
 30
0.0
  0
VERTEX
  5
606A
330
5C45
100
AcDbEntity
  8
0
100
AcDbVertex
100
AcDb2dVertex
 10
93.94529010261669
 20
108.5257308626061
 30
0.0
  0
VERTEX
  5
606B
330
5C45
100
AcDbEntity
  8
0
100
AcDbVertex
100
AcDb2dVertex
 10
77.45286760014602
 20
108.5257308626061
 30
0.0
  0
SEQEND
  5
606C
330
5C45
100
AcDbEntity
  8
0
  0
LINE
  5
5C46
330
18
100
AcDbEntity
  8
0
100
AcDbLine
 10
69.69907885138127
 20
142.5257308626061
 30
0.0
 11
101.6990788513813
 21
142.5257308626061
 31
0.0
  0
LINE
  5
5C47
330
18
100
AcDbEntity
  8
0
100
AcDbLine
 10
62.69907885138144
 20
105.0257308626061
 30
0.0
 11
65.73032414869129
 21
96.36503001314988
 31
0.0
  0
POLYLINE
  5
5C48
330
18
100
AcDbEntity
  8
0
100
AcDb2dPolyline
 66
     1
 10
0.0
 20
0.0
 30
0.0
  0
VERTEX
  5
606D
330
5C48
100
AcDbEntity
  8
0
100
AcDbVertex
100
AcDb2dVertex
 10
75.96577801644793
 20
107.6671592911489
 30
0.0
  0
VERTEX
  5
606E
330
5C48
100
AcDbEntity
  8
0
100
AcDbVertex
100
AcDb2dVertex
 10
67.71956676521267
 20
93.38430243406333
 30
0.0
  0
SEQEND
  5
606F
330
5C48
100
AcDbEntity
  8
0
  0
LINE
  5
5C49
330
18
100
AcDbEntity
  8
0
100
AcDbLine
 10
70.55765042283844
 20
74.01269062899141
 30
0.0
 11
70.5576504228386
 21
86.75145420000999
 31
0.0
  0
LINE
  5
5C4A
330
18
100
AcDbEntity
  8
0
100
AcDbLine
 10
69.6987288513813
 20
88.23915000149087
 30
0.0
 11
69.6987288513813
 21
72.52573086260611
 31
0.0
  0
ARC
  5
5C4B
330
18
100
AcDbEntity
  8
0
100
AcDbCircle
 10
85.69907885138134
 20
92.52573086260614
 30
0.0
 40
18.0
100
AcDbArc
 50
237.2660444507328
 51
242.7339555492671
  0
ARC
  5
5C4C
330
18
100
AcDbEntity
  8
0
100
AcDbCircle
 10
77.69907885138133
 20
90.41829613227779
 30
0.0
 40
17.89256526967169
100
AcDbArc
 50
246.4763069438205
 51
293.5236930561795
  0
LINE
  5
5C4D
330
18
100
AcDbEntity
  8
0
100
AcDbLine
 10
69.69907885138121
 20
74.01269062899138
 30
0.0
 11
70.55765042283855
 21
74.01269062899141
 31
0.0
  0
LINE
  5
5C4E
330
18
100
AcDbEntity
  8
0
100
AcDbLine
 10
86.55765042283844
 20
74.01269062899141
 30
0.0
 11
84.84050727992423
 21
74.01269062899141
 31
0.0
  0
LINE
  5
5C4F
330
18
100
AcDbEntity
  8
0
100
AcDbLine
 10
86.55765042283849
 20
74.01269062899141
 30
0.0
 11
86.55765042283844
 21
76.52573086260614
 31
0.0
  0
LINE
  5
5C50
330
18
100
AcDbEntity
  8
0
100
AcDbLine
 10
84.84050727992423
 20
74.01269062899141
 30
0.0
 11
84.84050727992423
 21
76.52573086260614
 31
0.0
  0
POLYLINE
  5
5C51
330
18
100
AcDbEntity
  8
0
100
AcDb2dPolyline
 66
     1
 10
0.0
 20
0.0
 30
0.0
  0
VERTEX
  5
6070
330
5C51
100
AcDbEntity
  8
0
100
AcDbVertex
100
AcDb2dVertex
 10
67.71956676521267
 20
91.66715929114895
 30
0.0
  0
VERTEX
  5
6071
330
5C51
100
AcDbEntity
  8
0
100
AcDbVertex
100
AcDb2dVertex
 10
75.96577801644798
 20
77.38430243406327
 30
0.0
  0
SEQEND
  5
6072
330
5C51
100
AcDbEntity
  8
0
  0
ARC
  5
5C52
330
18
100
AcDbEntity
  8
0
100
AcDbCircle
 10
67.61804086142331
 20
97.0257308626061
 30
0.0
 40
2.0
100
AcDbArc
 50
199.2900462191891
 51
270.0
  0
ARC
  5
5C53
330
18
100
AcDbEntity
  8
0
100
AcDbCircle
 10
85.69907885138134
 20
92.52573086260614
 30
0.0
 40
18.0
100
AcDbArc
 50
177.2660444507327
 51
182.7339555492672
  0
LINE
  5
5C54
330
18
100
AcDbEntity
  8
0
100
AcDbLine
 10
68.66724591028736
 20
95.02573086260609
 30
0.0
 11
67.61804086142331
 21
95.02573086260609
 31
0.0
  0
LINE
  5
5C55
330
18
100
AcDbEntity
  8
0
100
AcDbLine
 10
69.6987288513813
 20
133.5257308626061
 30
0.0
 11
69.6987288513813
 21
142.5257308626061
 31
0.0
  0
ARC
  5
5C56
330
18
100
AcDbEntity
  8
0
100
AcDbCircle
 10
77.69907885138133
 20
124.6331655929344
 30
0.0
 40
17.89256526967169
100
AcDbArc
 50
66.47630694382044
 51
113.5236930561794
  0
ARC
  5
5C57
330
18
100
AcDbEntity
  8
0
100
AcDbCircle
 10
62.69907885138128
 20
131.525730862606
 30
0.0
 40
2.0
100
AcDbArc
 50
90.00000000000003
 51
180.0000000000016
  0
LINE
  5
5C58
330
18
100
AcDbEntity
  8
0
100
AcDbLine
 10
62.69022903655184
 20
114.5257308626061
 30
0.0
 11
59.69907885138138
 21
117.5168810477764
 31
0.0
  0
LINE
  5
5C59
330
18
100
AcDbEntity
  8
0
100
AcDbLine
 10
59.69907885138138
 20
117.5168810477764
 30
0.0
 11
59.69907885138145
 21
124.5769176134651
 31
0.0
  0
LINE
  5
5C5A
330
18
100
AcDbEntity
  8
0
100
AcDbLine
 10
60.69907885138144
 20
125.5257308626061
 30
0.0
 11
60.69907885138127
 21
131.525730862606
 31
0.0
  0
LINE
  5
5C5B
330
18
100
AcDbEntity
  8
0
100
AcDbLine
 10
60.64789210052243
 20
125.5257308626061
 30
0.0
 11
59.69907885138145
 21
124.5769176134651
 31
0.0
  0
LINE
  5
5C5C
330
18
100
AcDbEntity
  8
0
100
AcDbLine
 10
74.44074860218359
 20
105.025730862606
 30
0.0
 11
62.69907885138144
 21
105.0257308626061
 31
0.0
  0
LINE
  5
5C5D
330
18
100
AcDbEntity
  8
0
100
AcDbLine
 10
62.69907885138144
 20
105.0257308626061
 30
0.0
 11
62.6990788513815
 21
114.5257308626061
 31
0.0
  0
ARC
  5
5C5E
330
18
100
AcDbEntity
  8
0
100
AcDbCircle
 10
85.69907885138134
 20
92.52573086260614
 30
0.0
 40
18.0
100
AcDbArc
 50
117.2660444507327
 51
122.7339555492673
  0
LINE
  5
5C5F
330
18
100
AcDbEntity
  8
0
100
AcDbLine
 10
70.55765042283844
 20
141.0387710962208
 30
0.0
 11
70.55765042283844
 21
133.5257308626061
 31
0.0
  0
LINE
  5
5C60
330
18
100
AcDbEntity
  8
0
100
AcDbLine
 10
69.69907885138121
 20
141.0387710962208
 30
0.0
 11
70.55765042283855
 21
141.0387710962208
 31
0.0
  0
LINE
  5
5C61
330
18
100
AcDbEntity
  8
0
100
AcDbLine
 10
84.84050727992423
 20
141.0387710962208
 30
0.0
 11
84.84050727992423
 21
133.5257308626061
 31
0.0
  0
LINE
  5
5C62
330
18
100
AcDbEntity
  8
0
100
AcDbLine
 10
86.55765042283849
 20
141.0387710962208
 30
0.0
 11
86.55765042283844
 21
133.5257308626061
 31
0.0
  0
LINE
  5
5C63
330
18
100
AcDbEntity
  8
0
100
AcDbLine
 10
86.55765042283844
 20
141.0387710962208
 30
0.0
 11
84.84050727992423
 21
141.0387710962208
 31
0.0
  0
POLYLINE
  5
5C64
330
18
100
AcDbEntity
  8
0
100
AcDb2dPolyline
 66
     1
 10
0.0
 20
0.0
 30
0.0
  0
VERTEX
  5
6073
330
5C64
100
AcDbEntity
  8
0
100
AcDbVertex
100
AcDb2dVertex
 10
103.6785909375483
 20
93.38430243406618
 30
0.0
  0
VERTEX
  5
6074
330
5C64
100
AcDbEntity
  8
0
100
AcDbVertex
100
AcDb2dVertex
 10
95.43237968631302
 20
107.6671592911518
 30
0.0
  0
SEQEND
  5
6075
330
5C64
100
AcDbEntity
  8
0
  0
LINE
  5
5C65
330
18
100
AcDbEntity
  8
0
100
AcDbLine
 10
108.6990788513814
 20
105.0257308626061
 30
0.0
 11
105.6678335540715
 21
96.36503001314986
 31
0.0
  0
LINE
  5
5C67
330
18
100
AcDbEntity
  8
0
100
AcDbLine
 10
132.6791558413294
 20
76.5260808626061
 30
0.0
 11
132.6791558413294
 21
108.5260808626061
 31
0.0
  0
ARC
  5
5C68
330
18
100
AcDbEntity
  8
0
100
AcDbCircle
 10
150.5088626396309
 20
100.525905862609
 30
0.0
 40
17.83487821881256
100
AcDbArc
 50
156.3962235583821
 51
203.6037764416177
  0
LINE
  5
5C6A
330
18
100
AcDbEntity
  8
0
100
AcDbLine
 10
147.6791558413295
 20
105.0257308626061
 30
0.0
 11
150.7104011386392
 21
96.3650300131499
 31
0.0
  0
LINE
  5
5C6B
330
18
100
AcDbEntity
  8
0
100
AcDbLine
 10
193.6791558413295
 20
105.0257308626061
 30
0.0
 11
190.6479105440197
 21
96.3650300131499
 31
0.0
  0
LINE
  5
5C6C
330
18
100
AcDbEntity
  8
0
100
AcDbLine
 10
147.6791558413294
 20
76.52608086260612
 30
0.0
 11
147.6791558413294
 21
108.5260808626061
 31
0.0
  0
ARC
  5
5C6D
330
18
100
AcDbEntity
  8
0
100
AcDbCircle
 10
129.7239892671684
 20
100.5259058626091
 30
0.0
 40
17.94991186592132
100
AcDbArc
 50
336.5565738239308
 51
23.44342617606784
  0
LINE
  5
5C6E
330
18
100
AcDbEntity
  8
0
100
AcDbLine
 10
216.7525724673294
 20
105.0257308626061
 30
0.0
 11
219.7838177646393
 21
96.36503001314986
 31
0.0
  0
POLYLINE
  5
5C6F
330
18
100
AcDbEntity
  8
0
100
AcDb2dPolyline
 66
     1
 10
0.0
 20
0.0
 30
0.0
  0
VERTEX
  5
6076
330
5C6F
100
AcDbEntity
  8
0
100
AcDbVertex
100
AcDb2dVertex
 10
249.4858733022629
 20
107.6671592911489
 30
0.0
  0
VERTEX
  5
6077
330
5C6F
100
AcDbEntity
  8
0
100
AcDbVertex
100
AcDb2dVertex
 10
257.7320845534982
 20
93.38430243406333
 30
0.0
  0
SEQEND
  5
6078
330
5C6F
100
AcDbEntity
  8
0
  0
CIRCLE
  5
5C70
330
18
100
AcDbEntity
  8
0
100
AcDbCircle
 10
239.7525724673295
 20
92.52573086260614
 30
0.0
 40
16.0
  0
LINE
  5
5C71
330
18
100
AcDbEntity
  8
0
100
AcDbLine
 10
262.7525724673294
 20
105.0257308626061
 30
0.0
 11
259.7213271700196
 21
96.36503001314988
 31
0.0
  0
POLYLINE
  5
5C72
330
18
100
AcDbEntity
  8
0
100
AcDb2dPolyline
 66
     1
 10
0.0
 20
0.0
 30
0.0
  0
VERTEX
  5
6079
330
5C72
100
AcDbEntity
  8
0
100
AcDbVertex
100
AcDb2dVertex
 10
221.7730603811625
 20
93.38430243406618
 30
0.0
  0
VERTEX
  5
607A
330
5C72
100
AcDbEntity
  8
0
100
AcDbVertex
100
AcDb2dVertex
 10
230.0192716323978
 20
107.6671592911518
 30
0.0
  0
SEQEND
  5
607B
330
5C72
100
AcDbEntity
  8
0
  0
ARC
  5
5C73
330
18
100
AcDbEntity
  8
0
100
AcDbCircle
 10
190.6791558413296
 20
93.51608917092075
 30
0.0
 40
2.0
100
AcDbArc
 50
118.6684551975326
 51
179.9999999999996
  0
LINE
  5
5C74
330
18
100
AcDbEntity
  8
0
100
AcDbLine
 10
150.6791558413295
 20
76.52608086260613
 30
0.0
 11
132.6791558413294
 21
76.5260808626061
 31
0.0
  0
LINE
  5
5C75
330
18
100
AcDbEntity
  8
0
100
AcDbLine
 10
134.166115607715
 20
93.3846524340662
 30
0.0
 11
146.192196074944
 21
93.3846524340662
 31
0.0
  0
LINE
  5
5C76
330
18
100
AcDbEntity
  8
0
100
AcDbLine
 10
134.1661156077149
 20
91.66750929115181
 30
0.0
 11
146.1921960749441
 21
91.66750929115181
 31
0.0
  0
LINE
  5
5C77
330
18
100
AcDbEntity
  8
0
100
AcDbLine
 10
134.1661156077149
 20
77.38430243406035
 30
0.0
 11
146.1921960749441
 21
77.38430243406039
 31
0.0
  0
LINE
  5
5C78
330
18
100
AcDbEntity
  8
0
100
AcDbLine
 10
101.6990788513813
 20
72.52573086260614
 30
0.0
 11
101.6990788513812
 21
88.23854378370803
 31
0.0
  0
LINE
  5
5C79
330
18
100
AcDbEntity
  8
0
100
AcDbLine
 10
100.8405072799242
 20
74.01269062899141
 30
0.0
 11
100.840507279924
 21
86.75145420000998
 31
0.0
  0
ARC
  5
5C7A
330
18
100
AcDbEntity
  8
0
100
AcDbCircle
 10
85.69907885138134
 20
92.52573086260614
 30
0.0
 40
18.0
100
AcDbArc
 50
297.2660444507327
 51
302.7339555492766
  0
LINE
  5
5C7B
330
18
100
AcDbEntity
  8
0
100
AcDbLine
 10
101.6990788513814
 20
74.01269062899138
 30
0.0
 11
100.8405072799241
 21
74.01269062899141
 31
0.0
  0
POLYLINE
  5
5C7C
330
18
100
AcDbEntity
  8
0
100
AcDb2dPolyline
 66
     1
 10
0.0
 20
0.0
 30
0.0
  0
VERTEX
  5
607C
330
5C7C
100
AcDbEntity
  8
0
100
AcDbVertex
100
AcDb2dVertex
 10
95.43237968631638
 20
77.38430243406617
 30
0.0
  0
VERTEX
  5
607D
330
5C7C
100
AcDbEntity
  8
0
100
AcDbVertex
100
AcDb2dVertex
 10
103.6785909375516
 20
91.66715929115179
 30
0.0
  0
SEQEND
  5
607E
330
5C7C
100
AcDbEntity
  8
0
  0
ARC
  5
5C7D
330
18
100
AcDbEntity
  8
0
100
AcDbCircle
 10
103.7801168413395
 20
97.02573086260608
 30
0.0
 40
2.0
100
AcDbArc
 50
270.0
 51
340.7099537808109
  0
LINE
  5
5C7E
330
18
100
AcDbEntity
  8
0
100
AcDbLine
 10
103.7801168413395
 20
95.02573086260609
 30
0.0
 11
102.7309117924752
 21
95.02573086260609
 31
0.0
  0
ARC
  5
5C7F
330
18
100
AcDbEntity
  8
0
100
AcDbCircle
 10
85.69907885138134
 20
92.52573086260614
 30
0.0
 40
18.0
100
AcDbArc
 50
357.2660444507421
 51
2.733955549276509
  0
LINE
  5
5C80
330
18
100
AcDbEntity
  8
0
100
AcDbLine
 10
134.1661156077149
 20
76.52538086260611
 30
0.0
 11
134.1661156077149
 21
77.38430243406037
 31
0.0
  0
INSERT
  5
5C81
330
18
100
AcDbEntity
  8
0
100
AcDbBlockReference
  2
YA
 10
129.4291558413295
 20
92.52573086260611
 30
0.0
 41
0.5140837528113959
 42
0.5140837528113959
 43
0.5140837528113959
  0
ARC
  5
5C82
330
18
100
AcDbEntity
  8
0
100
AcDbCircle
 10
150.5088626396309
 20
84.52555586260322
 30
0.0
 40
17.83487821881256
100
AcDbArc
 50
156.3962235583822
 51
203.6037764416177
  0
LINE
  5
5C83
330
18
100
AcDbEntity
  8
0
100
AcDbLine
 10
134.1661156077149
 20
93.3846524340662
 30
0.0
 11
134.1661156077148
 21
91.66750929115181
 31
0.0
  0
ARC
  5
5C84
330
18
100
AcDbEntity
  8
0
100
AcDbCircle
 10
170.6791558413295
 20
96.13465792776707
 30
0.0
 40
23.60892706516101
100
AcDbArc
 50
249.5564962887374
 51
290.4435037112622
  0
LINE
  5
5C85
330
18
100
AcDbEntity
  8
0
100
AcDbLine
 10
188.7601938312877
 20
95.02573086260609
 30
0.0
 11
152.5981178513712
 21
95.02573086260609
 31
0.0
  0
LINE
  5
5C86
330
18
100
AcDbEntity
  8
0
100
AcDbLine
 10
155.254439519417
 20
72.52573086260608
 30
0.0
 11
186.1038721632421
 21
72.52573086260614
 31
0.0
  0
LINE
  5
5C87
330
18
100
AcDbEntity
  8
0
100
AcDbLine
 10
160.9458550063961
 20
74.01269062899135
 30
0.0
 11
160.9458550063961
 21
95.02573086260609
 31
0.0
  0
LINE
  5
5C88
330
18
100
AcDbEntity
  8
0
100
AcDbLine
 10
162.4329445900942
 20
74.01269062899146
 30
0.0
 11
162.432944590094
 21
95.02573086260609
 31
0.0
  0
LINE
  5
5C89
330
18
100
AcDbEntity
  8
0
100
AcDbLine
 10
146.1921960749441
 20
76.52538086260611
 30
0.0
 11
146.1921960749441
 21
77.38430243406037
 31
0.0
  0
LINE
  5
5C8A
330
18
100
AcDbEntity
  8
0
100
AcDbLine
 10
152.6791558413294
 20
93.5160891709207
 30
0.0
 11
152.6791558413295
 21
74.01269062899157
 31
0.0
  0
ARC
  5
5C8B
330
18
100
AcDbEntity
  8
0
100
AcDbCircle
 10
150.6791558413295
 20
74.52608086260614
 30
0.0
 40
2.0
100
AcDbArc
 50
0.0
 51
90.0
  0
LINE
  5
5C8C
330
18
100
AcDbEntity
  8
0
100
AcDbLine
 10
152.6791558413295
 20
74.01269062899152
 30
0.0
 11
155.254439519417
 21
72.52573086260608
 31
0.0
  0
ARC
  5
5C8D
330
18
100
AcDbEntity
  8
0
100
AcDbCircle
 10
156.8125054238628
 20
79.01401270939183
 30
0.0
 40
6.488281846785682
100
AcDbArc
 50
249.568104087239
 51
309.5720767242648
  0
LINE
  5
5C8E
330
18
100
AcDbEntity
  8
0
100
AcDbLine
 10
160.9458550063961
 20
74.01269062899141
 30
0.0
 11
162.4329445900942
 21
74.01269062899152
 31
0.0
  0
ARC
  5
5C8F
330
18
100
AcDbEntity
  8
0
100
AcDbCircle
 10
152.5981178513712
 20
97.02573086260612
 30
0.0
 40
2.0
100
AcDbArc
 50
199.2900462191887
 51
241.3315448024691
  0
ARC
  5
5C90
330
18
100
AcDbEntity
  8
0
100
AcDbCircle
 10
129.7239892671684
 20
84.52555586260302
 30
0.0
 40
17.94991186592132
100
AcDbArc
 50
336.5565738239321
 51
23.44342617606919
  0
LINE
  5
5C91
330
18
100
AcDbEntity
  8
0
100
AcDbLine
 10
146.192196074944
 20
93.3846524340662
 30
0.0
 11
146.192196074944
 21
91.66750929115181
 31
0.0
  0
ARC
  5
5C92
330
18
100
AcDbEntity
  8
0
100
AcDbCircle
 10
150.6791558413294
 20
93.5160891709207
 30
0.0
 40
2.0
100
AcDbArc
 50
0.0
 51
61.33154480246915
  0
LINE
  5
5C93
330
18
100
AcDbEntity
  8
0
100
AcDbLine
 10
188.6791558413297
 20
93.51608917092077
 30
0.0
 11
188.6791558413295
 21
74.01269062899146
 31
0.0
  0
LINE
  5
5C94
330
18
100
AcDbEntity
  8
0
100
AcDbLine
 10
180.4124566762629
 20
74.01269062899135
 30
0.0
 11
180.4124566762629
 21
95.02573086260609
 31
0.0
  0
LINE
  5
5C95
330
18
100
AcDbEntity
  8
0
100
AcDbLine
 10
178.9253670925648
 20
74.01269062899146
 30
0.0
 11
178.9253670925648
 21
95.02573086260609
 31
0.0
  0
ARC
  5
5C96
330
18
100
AcDbEntity
  8
0
100
AcDbCircle
 10
184.5458062587961
 20
79.01401270939186
 30
0.0
 40
6.488281846785682
100
AcDbArc
 50
230.427923275735
 51
290.431895912761
  0
LINE
  5
5C97
330
18
100
AcDbEntity
  8
0
100
AcDbLine
 10
188.6791558413295
 20
74.01269062899152
 30
0.0
 11
186.1038721632421
 21
72.52573086260614
 31
0.0
  0
LINE
  5
5C98
330
18
100
AcDbEntity
  8
0
100
AcDbLine
 10
180.4124566762628
 20
74.01269062899141
 30
0.0
 11
178.9253670925648
 21
74.01269062899152
 31
0.0
  0
POLYLINE
  5
5C99
330
18
100
AcDbEntity
  8
0
100
AcDb2dPolyline
 66
     1
 10
0.0
 20
0.0
 30
0.0
  0
VERTEX
  5
607F
330
5C99
100
AcDbEntity
  8
0
100
AcDbVertex
100
AcDb2dVertex
 10
247.9987837185648
 20
76.52573086260614
 30
0.0
  0
VERTEX
  5
6080
330
5C99
100
AcDbEntity
  8
0
100
AcDbVertex
100
AcDb2dVertex
 10
231.5063612160942
 20
76.52573086260614
 30
0.0
  0
SEQEND
  5
6081
330
5C99
100
AcDbEntity
  8
0
  0
LINE
  5
5C9A
330
18
100
AcDbEntity
  8
0
100
AcDbLine
 10
238.8940008958724
 20
74.01269062899141
 30
0.0
 11
240.6111440387866
 21
74.01269062899141
 31
0.0
  0
LINE
  5
5C9B
330
18
100
AcDbEntity
  8
0
100
AcDbLine
 10
255.7525724673296
 20
72.52573086260608
 30
0.0
 11
223.7525724673295
 21
72.52573086260614
 31
0.0
  0
ARC
  5
5C9C
330
18
100
AcDbEntity
  8
0
100
AcDbCircle
 10
188.7601938312877
 20
97.02573086260612
 30
0.0
 40
2.0
100
AcDbArc
 50
298.668455197531
 51
340.7099537808113
  0
ARC
  5
5C9D
330
18
100
AcDbEntity
  8
0
100
AcDbCircle
 10
239.7525724673295
 20
92.52573086260614
 30
0.0
 40
18.0
100
AcDbArc
 50
237.2660444507233
 51
242.7339555492672
  0
LINE
  5
5C9E
330
18
100
AcDbEntity
  8
0
100
AcDbLine
 10
224.6111440387867
 20
74.01269062899141
 30
0.0
 11
224.6111440387868
 21
86.75145420000998
 31
0.0
  0
LINE
  5
5C9F
330
18
100
AcDbEntity
  8
0
100
AcDbLine
 10
223.7525724673295
 20
72.52573086260614
 30
0.0
 11
223.7525724673296
 21
88.23854378370803
 31
0.0
  0
ARC
  5
5CA0
330
18
100
AcDbEntity
  8
0
100
AcDbCircle
 10
231.7525724673295
 20
90.41829613227779
 30
0.0
 40
17.89256526967169
100
AcDbArc
 50
246.4763069438205
 51
293.5236930561795
  0
LINE
  5
5CA1
330
18
100
AcDbEntity
  8
0
100
AcDbLine
 10
223.7525724673294
 20
74.01269062899138
 30
0.0
 11
224.6111440387867
 21
74.01269062899141
 31
0.0
  0
LINE
  5
5CA2
330
18
100
AcDbEntity
  8
0
100
AcDbLine
 10
238.8940008958724
 20
74.01269062899141
 30
0.0
 11
238.8940008958724
 21
76.52573086260614
 31
0.0
  0
POLYLINE
  5
5CA3
330
18
100
AcDbEntity
  8
0
100
AcDb2dPolyline
 66
     1
 10
0.0
 20
0.0
 30
0.0
  0
VERTEX
  5
6082
330
5CA3
100
AcDbEntity
  8
0
100
AcDbVertex
100
AcDb2dVertex
 10
230.0192716323945
 20
77.38430243406617
 30
0.0
  0
VERTEX
  5
6083
330
5CA3
100
AcDbEntity
  8
0
100
AcDbVertex
100
AcDb2dVertex
 10
221.7730603811592
 20
91.66715929115179
 30
0.0
  0
SEQEND
  5
6084
330
5CA3
100
AcDbEntity
  8
0
  0
ARC
  5
5CA4
330
18
100
AcDbEntity
  8
0
100
AcDbCircle
 10
221.6715344773713
 20
97.02573086260608
 30
0.0
 40
2.0
100
AcDbArc
 50
199.2900462191891
 51
270.0
  0
ARC
  5
5CA5
330
18
100
AcDbEntity
  8
0
100
AcDbCircle
 10
239.7525724673295
 20
92.52573086260614
 30
0.0
 40
18.0
100
AcDbArc
 50
177.2660444507235
 51
182.7339555492578
  0
LINE
  5
5CA6
330
18
100
AcDbEntity
  8
0
100
AcDbLine
 10
221.6715344773713
 20
95.02573086260609
 30
0.0
 11
222.7207395262356
 21
95.02573086260609
 31
0.0
  0
LINE
  5
5CA7
330
18
100
AcDbEntity
  8
0
100
AcDbLine
 10
255.7529224673296
 20
88.23915000149087
 30
0.0
 11
255.7529224673296
 21
72.52573086260611
 31
0.0
  0
LINE
  5
5CA8
330
18
100
AcDbEntity
  8
0
100
AcDbLine
 10
254.8940008958724
 20
74.01269062899141
 30
0.0
 11
254.8940008958723
 21
86.75145420000999
 31
0.0
  0
ARC
  5
5CA9
330
18
100
AcDbEntity
  8
0
100
AcDbCircle
 10
239.7525724673295
 20
92.52573086260614
 30
0.0
 40
18.0
100
AcDbArc
 50
297.2660444507328
 51
302.7339555492671
  0
ARC
  5
5CAA
330
18
100
AcDbEntity
  8
0
100
AcDbCircle
 10
247.7525724673295
 20
90.41829613227779
 30
0.0
 40
17.89256526967169
100
AcDbArc
 50
246.4763069438204
 51
293.5236930561794
  0
LINE
  5
5CAB
330
18
100
AcDbEntity
  8
0
100
AcDbLine
 10
240.6111440387866
 20
74.01269062899141
 30
0.0
 11
240.6111440387866
 21
76.52573086260614
 31
0.0
  0
LINE
  5
5CAC
330
18
100
AcDbEntity
  8
0
100
AcDbLine
 10
255.7525724673296
 20
74.01269062899138
 30
0.0
 11
254.8940008958723
 21
74.01269062899141
 31
0.0
  0
POLYLINE
  5
5CAD
330
18
100
AcDbEntity
  8
0
100
AcDb2dPolyline
 66
     1
 10
0.0
 20
0.0
 30
0.0
  0
VERTEX
  5
6085
330
5CAD
100
AcDbEntity
  8
0
100
AcDbVertex
100
AcDb2dVertex
 10
257.7320845534982
 20
91.66715929114895
 30
0.0
  0
VERTEX
  5
6086
330
5CAD
100
AcDbEntity
  8
0
100
AcDbVertex
100
AcDb2dVertex
 10
249.4858733022629
 20
77.38430243406327
 30
0.0
  0
SEQEND
  5
6087
330
5CAD
100
AcDbEntity
  8
0
  0
ARC
  5
5CAE
330
18
100
AcDbEntity
  8
0
100
AcDbCircle
 10
257.8336104572875
 20
97.0257308626061
 30
0.0
 40
2.0
100
AcDbArc
 50
270.0
 51
340.7099537808108
  0
ARC
  5
5CAF
330
18
100
AcDbEntity
  8
0
100
AcDbCircle
 10
239.7525724673295
 20
92.52573086260614
 30
0.0
 40
18.0
100
AcDbArc
 50
357.2660444507327
 51
2.733955549267219
  0
LINE
  5
5CB0
330
18
100
AcDbEntity
  8
0
100
AcDbLine
 10
256.7844054084235
 20
95.02573086260609
 30
0.0
 11
257.8336104572875
 21
95.02573086260609
 31
0.0
  0
LINE
  5
5CB1
330
18
100
AcDbEntity
  8
0
100
AcDbLine
 10
160.9458550063959
 20
258.6574956195657
 30
0.0
 11
160.9458550063959
 21
279.6705358531805
 31
0.0
  0
LINE
  5
5CB2
330
18
100
AcDbEntity
  8
0
100
AcDbLine
 10
162.432944590094
 20
258.6574956195659
 30
0.0
 11
162.432944590094
 21
279.6705358531805
 31
0.0
  0
LINE
  5
5CB3
330
18
100
AcDbEntity
  8
0
100
AcDbLine
 10
152.6791558413291
 20
278.1608941614952
 30
0.0
 11
152.6791558413293
 21
258.6574956195659
 31
0.0
  0
LINE
  5
5CB4
330
18
100
AcDbEntity
  8
0
100
AcDbLine
 10
188.6791558413294
 20
278.1608941614952
 30
0.0
 11
188.6791558413293
 21
258.657495619566
 31
0.0
  0
LINE
  5
5CB5
330
18
100
AcDbEntity
  8
0
100
AcDbLine
 10
180.4124566762627
 20
258.6574956195657
 30
0.0
 11
180.4124566762627
 21
279.6705358531805
 31
0.0
  0
LINE
  5
5CB6
330
18
100
AcDbEntity
  8
0
100
AcDbLine
 10
178.9253670925646
 20
258.6574956195659
 30
0.0
 11
178.9253670925648
 21
279.6705358531805
 31
0.0
  0
ARC
  5
5CB7
330
18
100
AcDbEntity
  8
0
100
AcDbCircle
 10
190.8494490430279
 20
269.1703608531776
 30
0.0
 40
17.83487821881256
100
AcDbArc
 50
336.3962235583822
 51
23.60377644161778
  0
ARC
  5
5CB8
330
18
100
AcDbEntity
  8
0
100
AcDbCircle
 10
211.6343224154904
 20
269.1703608531775
 30
0.0
 40
17.94991186592132
100
AcDbArc
 50
156.5565738239308
 51
203.4434261760678
  0
LINE
  5
5CB9
330
18
100
AcDbEntity
  8
0
100
AcDbLine
 10
208.6791558413294
 20
261.1708858531806
 30
0.0
 11
208.6791558413294
 21
293.1708858531806
 31
0.0
  0
LINE
  5
5CBA
330
18
100
AcDbEntity
  8
0
100
AcDbLine
 10
193.6791558413294
 20
261.1708858531806
 30
0.0
 11
193.6791558413294
 21
293.1708858531806
 31
0.0
  0
ARC
  5
5CBB
330
18
100
AcDbEntity
  8
0
100
AcDbCircle
 10
190.6791558413293
 20
259.1708858531806
 30
0.0
 40
2.0
100
AcDbArc
 50
90.0
 51
180.0
  0
LINE
  5
5CBC
330
18
100
AcDbEntity
  8
0
100
AcDbLine
 10
193.6791558413295
 20
105.025730862606
 30
0.0
 11
147.6791558413295
 21
105.0257308626061
 31
0.0
  0
LINE
  5
5CBD
330
18
100
AcDbEntity
  8
0
100
AcDbLine
 10
193.6880056561591
 20
114.5257308626061
 30
0.0
 11
147.6703060264999
 21
114.5257308626061
 31
0.0
  0
LINE
  5
5CBE
330
18
100
AcDbEntity
  8
0
100
AcDbLine
 10
193.6791558413293
 20
133.5257308626061
 30
0.0
 11
147.6791558413294
 21
133.525730862606
 31
0.0
  0
LINE
  5
5CBF
330
18
100
AcDbEntity
  8
0
100
AcDbLine
 10
195.7303425921885
 20
125.5257308626061
 30
0.0
 11
145.6279690904705
 21
125.5257308626061
 31
0.0
  0
LINE
  5
5CC0
330
18
100
AcDbEntity
  8
0
100
AcDbLine
 10
195.6791558413294
 20
127.5257308626061
 30
0.0
 11
145.6791558413294
 21
127.525730862606
 31
0.0
  0
CIRCLE
  5
5CC1
330
18
100
AcDbEntity
  8
0
100
AcDbCircle
 10
170.6791558413294
 20
200.2059723964626
 30
0.0
 40
25.0
  0
CIRCLE
  5
5CC2
330
18
100
AcDbEntity
  8
0
100
AcDbCircle
 10
170.6791558413294
 20
200.2059723964626
 30
0.0
 40
26.0
  0
ARC
  5
5CC3
330
18
100
AcDbEntity
  8
0
100
AcDbCircle
 10
139.1674376881217
 20
186.339321978996
 30
0.0
 40
6.488281846785682
100
AcDbArc
 50
140.427923275735
 51
200.4318959127609
  0
LINE
  5
5CC4
330
18
100
AcDbEntity
  8
0
100
AcDbLine
 10
132.679155841336
 20
184.7812560745501
 30
0.0
 11
132.679155841336
 21
215.6306887183752
 31
0.0
  0
POLYLINE
  5
5CC5
330
18
100
AcDbEntity
  8
0
100
AcDb2dPolyline
 66
     1
 10
0.0
 20
0.0
 30
0.0
  0
VERTEX
  5
6088
330
5CC5
100
AcDbEntity
  8
0
100
AcDbVertex
100
AcDb2dVertex
 10
180.4124566762645
 20
185.0645439679227
 30
0.0
  0
VERTEX
  5
6089
330
5CC5
100
AcDbEntity
  8
0
100
AcDbVertex
100
AcDb2dVertex
 10
188.6586679274997
 20
199.3474008250083
 30
0.0
  0
SEQEND
  5
608A
330
5CC5
100
AcDbEntity
  8
0
  0
POLYLINE
  5
5CC6
330
18
100
AcDbEntity
  8
0
100
AcDb2dPolyline
 66
     1
 10
0.0
 20
0.0
 30
0.0
  0
VERTEX
  5
608B
330
5CC6
100
AcDbEntity
  8
0
100
AcDbVertex
100
AcDb2dVertex
 10
152.6996437551608
 20
199.3474008250054
 30
0.0
  0
VERTEX
  5
608C
330
5CC6
100
AcDbEntity
  8
0
100
AcDbVertex
100
AcDb2dVertex
 10
160.9458550063961
 20
185.0645439679198
 30
0.0
  0
SEQEND
  5
608D
330
5CC6
100
AcDbEntity
  8
0
  0
CIRCLE
  5
5CC7
330
18
100
AcDbEntity
  8
0
100
AcDbCircle
 10
170.6791558413294
 20
200.2059723964626
 30
0.0
 40
16.0
  0
ARC
  5
5CC8
330
18
100
AcDbEntity
  8
0
100
AcDbCircle
 10
141.1908739945371
 20
186.339321978996
 30
0.0
 40
6.488281846785682
100
AcDbArc
 50
339.568104087239
 51
39.57207672426492
  0
LINE
  5
5CC9
330
18
100
AcDbEntity
  8
0
100
AcDbLine
 10
147.6791558413229
 20
184.7812560745501
 30
0.0
 11
147.6791558413229
 21
188.0816167434928
 31
0.0
  0
LINE
  5
5CCA
330
18
100
AcDbEntity
  8
0
100
AcDbLine
 10
134.1661156077215
 20
182.2059723964626
 30
0.0
 11
146.1921960749374
 21
182.2059723964626
 31
0.0
  0
LINE
  5
5CCB
330
18
100
AcDbEntity
  8
0
100
AcDbLine
 10
145.6791558413295
 20
108.5260808626061
 30
0.0
 11
132.6791558413294
 21
108.5260808626061
 31
0.0
  0
LINE
  5
5CCC
330
18
100
AcDbEntity
  8
0
100
AcDbLine
 10
134.1661156077149
 20
107.6671592911518
 30
0.0
 11
146.1921960749441
 21
107.6671592911518
 31
0.0
  0
LINE
  5
5CCD
330
18
100
AcDbEntity
  8
0
100
AcDbLine
 10
101.6990788513813
 20
142.5257308626061
 30
0.0
 11
101.6990788513813
 21
133.5257308626061
 31
0.0
  0
LINE
  5
5CCE
330
18
100
AcDbEntity
  8
0
100
AcDbLine
 10
111.6990788513815
 20
117.5168810477764
 30
0.0
 11
111.6990788513814
 21
124.5769176134651
 31
0.0
  0
LINE
  5
5CCF
330
18
100
AcDbEntity
  8
0
100
AcDbLine
 10
108.6990788513814
 20
105.025730862606
 30
0.0
 11
96.95740910057907
 21
105.025730862606
 31
0.0
  0
ARC
  5
5CD0
330
18
100
AcDbEntity
  8
0
100
AcDbCircle
 10
85.69907885138134
 20
92.52573086260614
 30
0.0
 40
18.0
100
AcDbArc
 50
57.26604445074221
 51
62.73395554926703
  0
LINE
  5
5CD1
330
18
100
AcDbEntity
  8
0
100
AcDbLine
 10
108.6990788513814
 20
105.025730862606
 30
0.0
 11
108.6990788513814
 21
114.5257308626061
 31
0.0
  0
LINE
  5
5CD2
330
18
100
AcDbEntity
  8
0
100
AcDbLine
 10
108.707928666211
 20
114.5257308626061
 30
0.0
 11
111.6990788513815
 21
117.5168810477764
 31
0.0
  0
LINE
  5
5CD3
330
18
100
AcDbEntity
  8
0
100
AcDbLine
 10
110.6990788513815
 20
125.5257308626061
 30
0.0
 11
110.6990788513812
 21
131.5257308626062
 31
0.0
  0
LINE
  5
5CD4
330
18
100
AcDbEntity
  8
0
100
AcDbLine
 10
110.7502656022405
 20
125.5257308626061
 30
0.0
 11
111.6990788513814
 21
124.5769176134651
 31
0.0
  0
LINE
  5
5CD5
330
18
100
AcDbEntity
  8
0
100
AcDbLine
 10
100.8405072799242
 20
141.0387710962208
 30
0.0
 11
100.8405072799241
 21
133.525730862606
 31
0.0
  0
LINE
  5
5CD6
330
18
100
AcDbEntity
  8
0
100
AcDbLine
 10
101.6990788513814
 20
141.0387710962208
 30
0.0
 11
100.8405072799241
 21
141.0387710962208
 31
0.0
  0
ARC
  5
5CD7
330
18
100
AcDbEntity
  8
0
100
AcDbCircle
 10
108.6990788513812
 20
131.5257308626061
 30
0.0
 40
2.0
100
AcDbArc
 50
0.0000000000032569
 51
90.0
  0
LINE
  5
5CD8
330
18
100
AcDbEntity
  8
0
100
AcDbLine
 10
134.1661156077149
 20
108.5260808626061
 30
0.0
 11
134.1661156077149
 21
107.6671592911518
 31
0.0
  0
LINE
  5
5CD9
330
18
100
AcDbEntity
  8
0
100
AcDbLine
 10
134.1661156077214
 20
182.2059723964626
 30
0.0
 11
132.679155841336
 21
184.78125607455
 31
0.0
  0
ARC
  5
5CDA
330
18
100
AcDbEntity
  8
0
100
AcDbCircle
 10
170.6791558413295
 20
118.9168037974451
 30
0.0
 40
23.60892706516101
100
AcDbArc
 50
69.55649628873778
 51
110.4435037112625
  0
ARC
  5
5CDB
330
18
100
AcDbEntity
  8
0
100
AcDbCircle
 10
184.5458062587961
 20
136.0374490158203
 30
0.0
 40
6.488281846785682
100
AcDbArc
 50
69.56810408723899
 51
129.5720767242649
  0
LINE
  5
5CDC
330
18
100
AcDbEntity
  8
0
100
AcDbLine
 10
188.6791558413295
 20
141.0387710962207
 30
0.0
 11
186.1038721632421
 21
142.5257308626061
 31
0.0
  0
LINE
  5
5CDD
330
18
100
AcDbEntity
  8
0
100
AcDbLine
 10
152.6791558413295
 20
141.0387710962207
 30
0.0
 11
155.254439519417
 21
142.5257308626061
 31
0.0
  0
ARC
  5
5CDE
330
18
100
AcDbEntity
  8
0
100
AcDbCircle
 10
156.8125054238628
 20
136.0374490158204
 30
0.0
 40
6.488281846785682
100
AcDbArc
 50
50.42792327573506
 51
110.4318959127609
  0
LINE
  5
5CDF
330
18
100
AcDbEntity
  8
0
100
AcDbLine
 10
144.6791558413294
 20
117.5168810477764
 30
0.0
 11
144.6791558413295
 21
124.5769176134651
 31
0.0
  0
LINE
  5
5CE0
330
18
100
AcDbEntity
  8
0
100
AcDbLine
 10
147.6791558413295
 20
105.0257308626061
 30
0.0
 11
147.6791558413296
 21
114.5257308626061
 31
0.0
  0
ARC
  5
5CE1
330
18
100
AcDbEntity
  8
0
100
AcDbCircle
 10
145.6791558413295
 20
110.5257308626061
 30
0.0
 40
2.0
100
AcDbArc
 50
270.0
 51
359.9999999999996
  0
LINE
  5
5CE2
330
18
100
AcDbEntity
  8
0
100
AcDbLine
 10
146.1921960749441
 20
108.5260808626061
 30
0.0
 11
146.1921960749441
 21
107.6671592911518
 31
0.0
  0
LINE
  5
5CE3
330
18
100
AcDbEntity
  8
0
100
AcDbLine
 10
147.6703060264999
 20
114.5257308626061
 30
0.0
 11
144.6791558413294
 21
117.5168810477764
 31
0.0
  0
LINE
  5
5CE4
330
18
100
AcDbEntity
  8
0
100
AcDbLine
 10
145.6791558413295
 20
125.5257308626061
 30
0.0
 11
145.6791558413294
 21
131.525730862606
 31
0.0
  0
LINE
  5
5CE5
330
18
100
AcDbEntity
  8
0
100
AcDbLine
 10
145.6279690904705
 20
125.5257308626061
 30
0.0
 11
144.6791558413295
 21
124.5769176134651
 31
0.0
  0
ARC
  5
5CE6
330
18
100
AcDbEntity
  8
0
100
AcDbCircle
 10
147.6791558413294
 20
131.525730862606
 30
0.0
 40
2.0
100
AcDbArc
 50
90.00000000000003
 51
180.0000000000016
  0
LINE
  5
5CE7
330
18
100
AcDbEntity
  8
0
100
AcDbLine
 10
152.6791558413295
 20
133.525730862606
 30
0.0
 11
152.6791558413295
 21
141.0387710962206
 31
0.0
  0
LINE
  5
5CE8
330
18
100
AcDbEntity
  8
0
100
AcDbLine
 10
162.4329445900942
 20
141.0387710962207
 30
0.0
 11
162.4329445900941
 21
133.525730862606
 31
0.0
  0
LINE
  5
5CE9
330
18
100
AcDbEntity
  8
0
100
AcDbLine
 10
160.9458550063961
 20
141.0387710962208
 30
0.0
 11
160.9458550063961
 21
133.525730862606
 31
0.0
  0
LINE
  5
5CEA
330
18
100
AcDbEntity
  8
0
100
AcDbLine
 10
160.9458550063961
 20
141.0387710962208
 30
0.0
 11
162.4329445900942
 21
141.0387710962207
 31
0.0
  0
LINE
  5
5CEB
330
18
100
AcDbEntity
  8
0
100
AcDbLine
 10
180.4124566762629
 20
141.0387710962208
 30
0.0
 11
180.4124566762629
 21
133.525730862606
 31
0.0
  0
LINE
  5
5CEC
330
18
100
AcDbEntity
  8
0
100
AcDbLine
 10
178.9253670925648
 20
141.0387710962207
 30
0.0
 11
178.9253670925648
 21
133.5257308626061
 31
0.0
  0
LINE
  5
5CED
330
18
100
AcDbEntity
  8
0
100
AcDbLine
 10
180.4124566762628
 20
141.0387710962208
 30
0.0
 11
178.9253670925648
 21
141.0387710962207
 31
0.0
  0
LINE
  5
5CEE
330
18
100
AcDbEntity
  8
0
100
AcDbLine
 10
188.6791558413295
 20
133.5257308626061
 30
0.0
 11
188.6791558413295
 21
141.0387710962207
 31
0.0
  0
POLYLINE
  5
5CEF
330
18
100
AcDbEntity
  8
0
100
AcDb2dPolyline
 66
     1
 10
0.0
 20
0.0
 30
0.0
  0
VERTEX
  5
608E
330
5CEF
100
AcDbEntity
  8
0
100
AcDbVertex
100
AcDb2dVertex
 10
162.4329445900941
 20
184.2059723964626
 30
0.0
  0
VERTEX
  5
608F
330
5CEF
100
AcDbEntity
  8
0
100
AcDbVertex
100
AcDb2dVertex
 10
178.9253670925647
 20
184.2059723964626
 30
0.0
  0
SEQEND
  5
6090
330
5CEF
100
AcDbEntity
  8
0
  0
LINE
  5
5CF0
330
18
100
AcDbEntity
  8
0
100
AcDbLine
 10
155.254439519417
 20
142.5257308626061
 30
0.0
 11
186.1038721632421
 21
142.5257308626061
 31
0.0
  0
LINE
  5
5CF1
330
18
100
AcDbEntity
  8
0
100
AcDbLine
 10
146.1921960749374
 20
182.2059723964626
 30
0.0
 11
147.6791558413228
 21
184.78125607455
 31
0.0
  0
LINE
  5
5CF2
330
18
100
AcDbEntity
  8
0
100
AcDbLine
 10
147.3469890626286
 20
184.2059723964626
 30
0.0
 11
150.1852543094102
 21
184.2059723964626
 31
0.0
  0
ARC
  5
5CF3
330
18
100
AcDbEntity
  8
0
100
AcDbCircle
 10
170.6791558413294
 20
200.2059723964626
 30
0.0
 40
18.0
100
AcDbArc
 50
237.2660444507328
 51
242.7339555492671
  0
ARC
  5
5CF4
330
18
100
AcDbEntity
  8
0
100
AcDbCircle
 10
170.6791558413294
 20
200.2059723964626
 30
0.0
 40
18.0
100
AcDbArc
 50
297.2660444507327
 51
302.7339555492766
  0
LINE
  5
5CF5
330
18
100
AcDbEntity
  8
0
100
AcDbLine
 10
134.1661156077214
 20
191.9597611452273
 30
0.0
 11
146.0214998294601
 21
191.9597611452273
 31
0.0
  0
LINE
  5
5CF6
330
18
100
AcDbEntity
  8
0
100
AcDbLine
 10
134.1661156077212
 20
190.4726715615293
 30
0.0
 11
146.1921960749376
 21
190.4726715615292
 31
0.0
  0
LINE
  5
5CF7
330
18
100
AcDbEntity
  8
0
100
AcDbLine
 10
134.1661156077214
 20
208.452183647698
 30
0.0
 11
146.0214998294601
 21
208.4521836476979
 31
0.0
  0
LINE
  5
5CF8
330
18
100
AcDbEntity
  8
0
100
AcDbLine
 10
134.1661156077214
 20
218.2059723964626
 30
0.0
 11
146.1921960749374
 21
218.2059723964626
 31
0.0
  0
LINE
  5
5CF9
330
18
100
AcDbEntity
  8
0
100
AcDbLine
 10
134.1661156077212
 20
209.939273231396
 30
0.0
 11
146.1921960749376
 21
209.939273231396
 31
0.0
  0
ARC
  5
5CFA
330
18
100
AcDbEntity
  8
0
100
AcDbCircle
 10
156.2880829064969
 20
200.2059723964627
 30
0.0
 40
23.60892706516101
100
AcDbArc
 50
159.5564962887377
 51
200.4435037112625
  0
LINE
  5
5CFB
330
18
100
AcDbEntity
  8
0
100
AcDbLine
 10
134.1661156077213
 20
190.4726715615293
 30
0.0
 11
134.1661156077214
 21
191.9597611452273
 31
0.0
  0
ARC
  5
5CFC
330
18
100
AcDbEntity
  8
0
100
AcDbCircle
 10
139.1674376881217
 20
214.0726228139292
 30
0.0
 40
6.488281846785682
100
AcDbArc
 50
159.568104087239
 51
219.5720767242649
  0
LINE
  5
5CFD
330
18
100
AcDbEntity
  8
0
100
AcDbLine
 10
134.1661156077214
 20
218.2059723964626
 30
0.0
 11
132.679155841336
 21
215.6306887183752
 31
0.0
  0
LINE
  5
5CFE
330
18
100
AcDbEntity
  8
0
100
AcDbLine
 10
134.1661156077213
 20
209.939273231396
 30
0.0
 11
134.1661156077214
 21
208.452183647698
 31
0.0
  0
POLYLINE
  5
5CFF
330
18
100
AcDbEntity
  8
0
100
AcDb2dPolyline
 66
     1
 10
0.0
 20
0.0
 30
0.0
  0
VERTEX
  5
6091
330
5CFF
100
AcDbEntity
  8
0
100
AcDbVertex
100
AcDb2dVertex
 10
178.9253670925648
 20
216.2059723964626
 30
0.0
  0
VERTEX
  5
6092
330
5CFF
100
AcDbEntity
  8
0
100
AcDbVertex
100
AcDb2dVertex
 10
162.4329445900941
 20
216.2059723964626
 30
0.0
  0
SEQEND
  5
6093
330
5CFF
100
AcDbEntity
  8
0
  0
POLYLINE
  5
5D00
330
18
100
AcDbEntity
  8
0
100
AcDb2dPolyline
 66
     1
 10
0.0
 20
0.0
 30
0.0
  0
VERTEX
  5
6094
330
5D00
100
AcDbEntity
  8
0
100
AcDbVertex
100
AcDb2dVertex
 10
160.945855006396
 20
215.3474008250054
 30
0.0
  0
VERTEX
  5
6095
330
5D00
100
AcDbEntity
  8
0
100
AcDbVertex
100
AcDb2dVertex
 10
152.6996437551608
 20
201.0645439679198
 30
0.0
  0
SEQEND
  5
6096
330
5D00
100
AcDbEntity
  8
0
  0
LINE
  5
5D01
330
18
100
AcDbEntity
  8
0
100
AcDbLine
 10
146.1921960749376
 20
190.4726715615293
 30
0.0
 11
146.1921960749374
 21
191.4659036668072
 31
0.0
  0
ARC
  5
5D02
330
18
100
AcDbEntity
  8
0
100
AcDbCircle
 10
170.6791558413294
 20
200.2059723964626
 30
0.0
 40
18.0
100
AcDbArc
 50
177.2660444507327
 51
182.7339555492672
  0
LINE
  5
5D03
330
18
100
AcDbEntity
  8
0
100
AcDbLine
 10
146.1921960749374
 20
218.2059723964626
 30
0.0
 11
147.6791558413228
 21
215.6306887183752
 31
0.0
  0
LINE
  5
5D04
330
18
100
AcDbEntity
  8
0
100
AcDbLine
 10
146.1921960749376
 20
209.939273231396
 30
0.0
 11
146.1921960749374
 21
208.946041126118
 31
0.0
  0
LINE
  5
5D05
330
18
100
AcDbEntity
  8
0
100
AcDbLine
 10
147.6791558413295
 20
212.3303280494448
 30
0.0
 11
147.6791558413294
 21
213.6552440645905
 31
0.0
  0
LINE
  5
5D06
330
18
100
AcDbEntity
  8
0
100
AcDbLine
 10
147.6791558413229
 20
212.3303280494323
 30
0.0
 11
147.6791558413228
 21
215.6306887183752
 31
0.0
  0
ARC
  5
5D07
330
18
100
AcDbEntity
  8
0
100
AcDbCircle
 10
141.1908739945371
 20
214.0726228139292
 30
0.0
 40
6.488281846785682
100
AcDbArc
 50
320.427923275735
 51
20.43189591276099
  0
LINE
  5
5D08
330
18
100
AcDbEntity
  8
0
100
AcDbLine
 10
147.3469890626286
 20
216.2059723964626
 30
0.0
 11
150.1852543094102
 21
216.2059723964626
 31
0.0
  0
ARC
  5
5D09
330
18
100
AcDbEntity
  8
0
100
AcDbCircle
 10
170.6791558413294
 20
200.2059723964626
 30
0.0
 40
18.0
100
AcDbArc
 50
117.2660444507327
 51
122.7339555492673
  0
POLYLINE
  5
5D0A
330
18
100
AcDbEntity
  8
0
100
AcDb2dPolyline
 66
     1
 10
0.0
 20
0.0
 30
0.0
  0
VERTEX
  5
6097
330
5D0A
100
AcDbEntity
  8
0
100
AcDbVertex
100
AcDb2dVertex
 10
188.6586679274964
 20
201.0645439679227
 30
0.0
  0
VERTEX
  5
6098
330
5D0A
100
AcDbEntity
  8
0
100
AcDbVertex
100
AcDb2dVertex
 10
180.4124566762611
 20
215.3474008250083
 30
0.0
  0
SEQEND
  5
6099
330
5D0A
100
AcDbEntity
  8
0
  0
ARC
  5
5D0B
330
18
100
AcDbEntity
  8
0
100
AcDbCircle
 10
170.6791558413294
 20
200.2059723964626
 30
0.0
 40
18.0
100
AcDbArc
 50
357.2660444507421
 51
2.733955549276509
  0
ARC
  5
5D0C
330
18
100
AcDbEntity
  8
0
100
AcDbCircle
 10
170.6791558413294
 20
200.2059723964626
 30
0.0
 40
18.0
100
AcDbArc
 50
57.26604445074221
 51
62.73395554926703
  0
ARC
  5
5D0D
330
18
100
AcDbEntity
  8
0
100
AcDbCircle
 10
170.6791558413293
 20
280.7794629183415
 30
0.0
 40
23.60892706516101
100
AcDbArc
 50
249.5564962887377
 51
290.4435037112625
  0
LINE
  5
5D0E
330
18
100
AcDbEntity
  8
0
100
AcDbLine
 10
186.1038721632418
 20
257.1705358531805
 30
0.0
 11
155.2544395194167
 21
257.1705358531805
 31
0.0
  0
LINE
  5
5D0F
330
18
100
AcDbEntity
  8
0
100
AcDbLine
 10
152.6791558413293
 20
258.657495619566
 30
0.0
 11
155.2544395194167
 21
257.1705358531805
 31
0.0
  0
ARC
  5
5D10
330
18
100
AcDbEntity
  8
0
100
AcDbCircle
 10
156.8125054238627
 20
263.6588176999663
 30
0.0
 40
6.488281846785682
100
AcDbArc
 50
249.568104087239
 51
309.5720767242648
  0
LINE
  5
5D11
330
18
100
AcDbEntity
  8
0
100
AcDbLine
 10
160.945855006396
 20
258.6574956195659
 30
0.0
 11
162.432944590094
 21
258.657495619566
 31
0.0
  0
LINE
  5
5D12
330
18
100
AcDbEntity
  8
0
100
AcDbLine
 10
188.6791558413293
 20
258.657495619566
 30
0.0
 11
186.1038721632418
 21
257.1705358531805
 31
0.0
  0
ARC
  5
5D13
330
18
100
AcDbEntity
  8
0
100
AcDbCircle
 10
184.545806258796
 20
263.6588176999663
 30
0.0
 40
6.488281846785682
100
AcDbArc
 50
230.427923275735
 51
290.4318959127609
  0
LINE
  5
5D14
330
18
100
AcDbEntity
  8
0
100
AcDbLine
 10
180.4124566762627
 20
258.6574956195659
 30
0.0
 11
178.9253670925646
 21
258.657495619566
 31
0.0
  0
LINE
  5
5D15
330
18
100
AcDbEntity
  8
0
100
AcDbLine
 10
238.8940008958724
 20
141.0387710962208
 30
0.0
 11
240.6111440387866
 21
141.0387710962208
 31
0.0
  0
POLYLINE
  5
5D16
330
18
100
AcDbEntity
  8
0
100
AcDb2dPolyline
 66
     1
 10
0.0
 20
0.0
 30
0.0
  0
VERTEX
  5
609A
330
5D16
100
AcDbEntity
  8
0
100
AcDbVertex
100
AcDb2dVertex
 10
231.5063612160942
 20
108.5257308626061
 30
0.0
  0
VERTEX
  5
609B
330
5D16
100
AcDbEntity
  8
0
100
AcDbVertex
100
AcDb2dVertex
 10
247.9987837185648
 20
108.5257308626061
 30
0.0
  0
SEQEND
  5
609C
330
5D16
100
AcDbEntity
  8
0
  0
LINE
  5
5D17
330
18
100
AcDbEntity
  8
0
100
AcDbLine
 10
255.7525724673296
 20
142.5257308626061
 30
0.0
 11
223.7525724673295
 21
142.5257308626061
 31
0.0
  0
LINE
  5
5D18
330
18
100
AcDbEntity
  8
0
100
AcDbLine
 10
214.7525724673295
 20
127.5257308626061
 30
0.0
 11
264.7525724673295
 21
127.525730862606
 31
0.0
  0
LINE
  5
5D19
330
18
100
AcDbEntity
  8
0
100
AcDbLine
 10
214.7013857164703
 20
125.5257308626061
 30
0.0
 11
264.8037592181884
 21
125.5257308626061
 31
0.0
  0
LINE
  5
5D1A
330
18
100
AcDbEntity
  8
0
100
AcDbLine
 10
216.7437226524998
 20
114.5257308626061
 30
0.0
 11
262.761422282159
 21
114.5257308626061
 31
0.0
  0
LINE
  5
5D1B
330
18
100
AcDbEntity
  8
0
100
AcDbLine
 10
216.7525724673296
 20
133.5257308626061
 30
0.0
 11
262.7525724673296
 21
133.525730862606
 31
0.0
  0
ARC
  5
5D1C
330
18
100
AcDbEntity
  8
0
100
AcDbCircle
 10
231.7525724673295
 20
124.6331655929344
 30
0.0
 40
17.89256526967169
100
AcDbArc
 50
66.47630694382041
 51
113.5236930561794
  0
LINE
  5
5D1D
330
18
100
AcDbEntity
  8
0
100
AcDbLine
 10
223.7525724673295
 20
142.5257308626061
 30
0.0
 11
223.7525724673295
 21
133.5257308626061
 31
0.0
  0
ARC
  5
5D1E
330
18
100
AcDbEntity
  8
0
100
AcDbCircle
 10
216.7525724673296
 20
131.5257308626061
 30
0.0
 40
2.0
100
AcDbArc
 50
90.0
 51
179.9999999999967
  0
LINE
  5
5D1F
330
18
100
AcDbEntity
  8
0
100
AcDbLine
 10
214.7013857164703
 20
125.5257308626061
 30
0.0
 11
213.7525724673294
 21
124.5769176134651
 31
0.0
  0
LINE
  5
5D20
330
18
100
AcDbEntity
  8
0
100
AcDbLine
 10
216.7437226524998
 20
114.5257308626061
 30
0.0
 11
213.7525724673293
 21
117.5168810477764
 31
0.0
  0
LINE
  5
5D21
330
18
100
AcDbEntity
  8
0
100
AcDbLine
 10
196.6791558413295
 20
117.5168810477764
 30
0.0
 11
196.6791558413295
 21
124.5769176134651
 31
0.0
  0
LINE
  5
5D22
330
18
100
AcDbEntity
  8
0
100
AcDbLine
 10
213.7525724673293
 20
117.5168810477764
 30
0.0
 11
213.7525724673294
 21
124.5769176134651
 31
0.0
  0
LINE
  5
5D23
330
18
100
AcDbEntity
  8
0
100
AcDbLine
 10
193.6791558413295
 20
105.025730862606
 30
0.0
 11
193.6791558413295
 21
114.5257308626061
 31
0.0
  0
LINE
  5
5D24
330
18
100
AcDbEntity
  8
0
100
AcDbLine
 10
193.6880056561591
 20
114.5257308626061
 30
0.0
 11
196.6791558413295
 21
117.5168810477764
 31
0.0
  0
LINE
  5
5D25
330
18
100
AcDbEntity
  8
0
100
AcDbLine
 10
195.6791558413295
 20
125.5257308626061
 30
0.0
 11
195.6791558413293
 21
131.5257308626062
 31
0.0
  0
LINE
  5
5D26
330
18
100
AcDbEntity
  8
0
100
AcDbLine
 10
195.7303425921885
 20
125.5257308626061
 30
0.0
 11
196.6791558413295
 21
124.5769176134651
 31
0.0
  0
ARC
  5
5D27
330
18
100
AcDbEntity
  8
0
100
AcDbCircle
 10
193.6791558413293
 20
131.5257308626061
 30
0.0
 40
2.0
100
AcDbArc
 50
0.0000000000032569
 51
90.0
  0
LINE
  5
5D28
330
18
100
AcDbEntity
  8
0
100
AcDbLine
 10
216.7525724673294
 20
105.025730862606
 30
0.0
 11
228.4942422181318
 21
105.025730862606
 31
0.0
  0
LINE
  5
5D29
330
18
100
AcDbEntity
  8
0
100
AcDbLine
 10
216.7525724673294
 20
105.025730862606
 30
0.0
 11
216.7525724673294
 21
114.5257308626061
 31
0.0
  0
ARC
  5
5D2A
330
18
100
AcDbEntity
  8
0
100
AcDbCircle
 10
239.7525724673295
 20
92.52573086260614
 30
0.0
 40
18.0
100
AcDbArc
 50
117.2660444507329
 51
122.7339555492577
  0
LINE
  5
5D2B
330
18
100
AcDbEntity
  8
0
100
AcDbLine
 10
214.7525724673294
 20
125.5257308626061
 30
0.0
 11
214.7525724673296
 21
131.5257308626062
 31
0.0
  0
LINE
  5
5D2C
330
18
100
AcDbEntity
  8
0
100
AcDbLine
 10
223.7525724673294
 20
141.0387710962208
 30
0.0
 11
224.6111440387867
 21
141.0387710962208
 31
0.0
  0
LINE
  5
5D2D
330
18
100
AcDbEntity
  8
0
100
AcDbLine
 10
224.6111440387867
 20
141.0387710962208
 30
0.0
 11
224.6111440387867
 21
133.525730862606
 31
0.0
  0
LINE
  5
5D2E
330
18
100
AcDbEntity
  8
0
100
AcDbLine
 10
238.8940008958724
 20
141.0387710962208
 30
0.0
 11
238.8940008958724
 21
133.5257308626061
 31
0.0
  0
LINE
  5
5D2F
330
18
100
AcDbEntity
  8
0
100
AcDbLine
 10
255.7529224673296
 20
133.5257308626061
 30
0.0
 11
255.7529224673296
 21
142.5257308626061
 31
0.0
  0
ARC
  5
5D30
330
18
100
AcDbEntity
  8
0
100
AcDbCircle
 10
247.7525724673295
 20
124.6331655929344
 30
0.0
 40
17.89256526967169
100
AcDbArc
 50
66.47630694382058
 51
113.5236930561795
  0
LINE
  5
5D31
330
18
100
AcDbEntity
  8
0
100
AcDbLine
 10
265.7525724673295
 20
117.5168810477764
 30
0.0
 11
265.7525724673294
 21
124.5769176134651
 31
0.0
  0
LINE
  5
5D32
330
18
100
AcDbEntity
  8
0
100
AcDbLine
 10
251.0109027165273
 20
105.025730862606
 30
0.0
 11
262.7525724673294
 21
105.0257308626061
 31
0.0
  0
ARC
  5
5D33
330
18
100
AcDbEntity
  8
0
100
AcDbCircle
 10
239.7525724673295
 20
92.52573086260614
 30
0.0
 40
18.0
100
AcDbArc
 50
57.26604445073268
 51
62.73395554926723
  0
LINE
  5
5D34
330
18
100
AcDbEntity
  8
0
100
AcDbLine
 10
262.7525724673294
 20
105.0257308626061
 30
0.0
 11
262.7525724673294
 21
114.5257308626061
 31
0.0
  0
LINE
  5
5D35
330
18
100
AcDbEntity
  8
0
100
AcDbLine
 10
262.761422282159
 20
114.5257308626061
 30
0.0
 11
265.7525724673295
 21
117.5168810477764
 31
0.0
  0
LINE
  5
5D36
330
18
100
AcDbEntity
  8
0
100
AcDbLine
 10
240.6111440387866
 20
141.0387710962208
 30
0.0
 11
240.6111440387866
 21
133.5257308626061
 31
0.0
  0
LINE
  5
5D37
330
18
100
AcDbEntity
  8
0
100
AcDbLine
 10
264.7525724673294
 20
125.5257308626061
 30
0.0
 11
264.7525724673296
 21
131.525730862606
 31
0.0
  0
LINE
  5
5D38
330
18
100
AcDbEntity
  8
0
100
AcDbLine
 10
264.8037592181884
 20
125.5257308626061
 30
0.0
 11
265.7525724673294
 21
124.5769176134651
 31
0.0
  0
LINE
  5
5D39
330
18
100
AcDbEntity
  8
0
100
AcDbLine
 10
255.7525724673296
 20
141.0387710962208
 30
0.0
 11
254.8940008958723
 21
141.0387710962208
 31
0.0
  0
LINE
  5
5D3A
330
18
100
AcDbEntity
  8
0
100
AcDbLine
 10
254.8940008958724
 20
141.0387710962208
 30
0.0
 11
254.8940008958724
 21
133.5257308626061
 31
0.0
  0
ARC
  5
5D3B
330
18
100
AcDbEntity
  8
0
100
AcDbCircle
 10
262.7525724673296
 20
131.525730862606
 30
0.0
 40
2.0
100
AcDbArc
 50
359.9999999999983
 51
89.99999999999998
  0
LINE
  5
5D3C
330
18
100
AcDbEntity
  8
0
100
AcDbLine
 10
190.6791558413293
 20
261.1708858531806
 30
0.0
 11
208.6791558413294
 21
261.1708858531806
 31
0.0
  0
LINE
  5
5D3D
330
18
100
AcDbEntity
  8
0
100
AcDbLine
 10
207.1921960749439
 20
262.0291074246348
 30
0.0
 11
195.1661156077147
 21
262.0291074246348
 31
0.0
  0
LINE
  5
5D3E
330
18
100
AcDbEntity
  8
0
100
AcDbLine
 10
195.1661156077147
 20
261.1701858531805
 30
0.0
 11
195.1661156077147
 21
262.0291074246348
 31
0.0
  0
LINE
  5
5D3F
330
18
100
AcDbEntity
  8
0
100
AcDbLine
 10
207.1921960749439
 20
261.1701858531805
 30
0.0
 11
207.1921960749439
 21
262.0291074246348
 31
0.0
  0
ARC
  5
5D40
330
18
100
AcDbEntity
  8
0
100
AcDbCircle
 10
190.6791558413294
 20
278.1608941614952
 30
0.0
 40
2.0
100
AcDbArc
 50
118.6684551975308
 51
180.0
  0
LINE
  5
5D41
330
18
100
AcDbEntity
  8
0
100
AcDbLine
 10
147.6791558413297
 20
318.1705358531806
 30
0.0
 11
193.6791558413294
 21
318.1705358531806
 31
0.0
  0
LINE
  5
5D42
330
18
100
AcDbEntity
  8
0
100
AcDbLine
 10
147.6791558413293
 20
289.6705358531805
 30
0.0
 11
193.6791558413293
 21
289.6705358531805
 31
0.0
  0
LINE
  5
5D43
330
18
100
AcDbEntity
  8
0
100
AcDbLine
 10
147.6703060264997
 20
299.1705358531806
 30
0.0
 11
193.6880056561589
 21
299.1705358531806
 31
0.0
  0
LINE
  5
5D44
330
18
100
AcDbEntity
  8
0
100
AcDbLine
 10
145.6279690904702
 20
310.1705358531805
 30
0.0
 11
195.7303425921883
 21
310.1705358531805
 31
0.0
  0
LINE
  5
5D45
330
18
100
AcDbEntity
  8
0
100
AcDbLine
 10
145.6791558413294
 20
312.1705358531805
 30
0.0
 11
195.6791558413294
 21
312.1705358531805
 31
0.0
  0
ARC
  5
5D46
330
18
100
AcDbEntity
  8
0
100
AcDbCircle
 10
147.6791558413297
 20
316.1705358531806
 30
0.0
 40
2.0
100
AcDbArc
 50
90.0
 51
179.9999999999967
  0
LINE
  5
5D47
330
18
100
AcDbEntity
  8
0
100
AcDbLine
 10
152.5981178513711
 20
279.6705358531805
 30
0.0
 11
188.7601938312876
 21
279.6705358531805
 31
0.0
  0
LINE
  5
5D48
330
18
100
AcDbEntity
  8
0
100
AcDbLine
 10
147.6791558413293
 20
289.6705358531805
 30
0.0
 11
147.6791558413293
 21
299.1705358531806
 31
0.0
  0
ARC
  5
5D49
330
18
100
AcDbEntity
  8
0
100
AcDbCircle
 10
152.5981178513711
 20
281.6705358531805
 30
0.0
 40
2.0
100
AcDbArc
 50
199.2900462191887
 51
241.3315448024689
  0
LINE
  5
5D4A
330
18
100
AcDbEntity
  8
0
100
AcDbLine
 10
147.6791558413293
 20
289.6705358531805
 30
0.0
 11
150.710401138639
 21
281.0098350037243
 31
0.0
  0
ARC
  5
5D4B
330
18
100
AcDbEntity
  8
0
100
AcDbCircle
 10
150.6791558413292
 20
278.1608941614952
 30
0.0
 40
2.0
100
AcDbArc
 50
0.0000000000004141
 51
61.33154480246733
  0
LINE
  5
5D4C
330
18
100
AcDbEntity
  8
0
100
AcDbLine
 10
144.6791558413293
 20
302.1616860383509
 30
0.0
 11
144.6791558413293
 21
309.2217226040396
 31
0.0
  0
LINE
  5
5D4D
330
18
100
AcDbEntity
  8
0
100
AcDbLine
 10
147.6703060264997
 20
299.1705358531806
 30
0.0
 11
144.6791558413293
 21
302.1616860383509
 31
0.0
  0
LINE
  5
5D4E
330
18
100
AcDbEntity
  8
0
100
AcDbLine
 10
145.6279690904702
 20
310.1705358531805
 30
0.0
 11
144.6791558413293
 21
309.2217226040396
 31
0.0
  0
LINE
  5
5D4F
330
18
100
AcDbEntity
  8
0
100
AcDbLine
 10
145.6791558413293
 20
310.1705358531805
 30
0.0
 11
145.6791558413297
 21
316.1705358531806
 31
0.0
  0
ARC
  5
5D50
330
18
100
AcDbEntity
  8
0
100
AcDbCircle
 10
170.6791558413293
 20
303.5616087880196
 30
0.0
 40
23.60892706516101
100
AcDbArc
 50
69.55649628873747
 51
110.4435037112622
  0
LINE
  5
5D51
330
18
100
AcDbEntity
  8
0
100
AcDbLine
 10
186.1038721632418
 20
327.1705358531806
 30
0.0
 11
155.2544395194167
 21
327.1705358531805
 31
0.0
  0
ARC
  5
5D52
330
18
100
AcDbEntity
  8
0
100
AcDbCircle
 10
156.8125054238627
 20
320.6822540063948
 30
0.0
 40
6.488281846785682
100
AcDbArc
 50
50.42792327573509
 51
110.4318959127609
  0
LINE
  5
5D53
330
18
100
AcDbEntity
  8
0
100
AcDbLine
 10
152.6791558413293
 20
318.1705358531806
 30
0.0
 11
152.6791558413293
 21
325.6835760867952
 31
0.0
  0
LINE
  5
5D54
330
18
100
AcDbEntity
  8
0
100
AcDbLine
 10
152.6791558413293
 20
325.6835760867951
 30
0.0
 11
155.2544395194167
 21
327.1705358531805
 31
0.0
  0
LINE
  5
5D55
330
18
100
AcDbEntity
  8
0
100
AcDbLine
 10
160.945855006396
 20
325.6835760867953
 30
0.0
 11
162.432944590094
 21
325.6835760867951
 31
0.0
  0
LINE
  5
5D56
330
18
100
AcDbEntity
  8
0
100
AcDbLine
 10
162.432944590094
 20
325.6835760867952
 30
0.0
 11
162.432944590094
 21
318.1705358531806
 31
0.0
  0
LINE
  5
5D57
330
18
100
AcDbEntity
  8
0
100
AcDbLine
 10
160.9458550063959
 20
325.6835760867953
 30
0.0
 11
160.9458550063959
 21
318.1705358531806
 31
0.0
  0
ARC
  5
5D58
330
18
100
AcDbEntity
  8
0
100
AcDbCircle
 10
184.545806258796
 20
320.6822540063948
 30
0.0
 40
6.488281846785682
100
AcDbArc
 50
69.56810408723907
 51
129.5720767242649
  0
LINE
  5
5D59
330
18
100
AcDbEntity
  8
0
100
AcDbLine
 10
180.4124566762627
 20
325.6835760867953
 30
0.0
 11
180.4124566762627
 21
318.1705358531806
 31
0.0
  0
LINE
  5
5D5A
330
18
100
AcDbEntity
  8
0
100
AcDbLine
 10
178.9253670925646
 20
325.6835760867952
 30
0.0
 11
178.9253670925647
 21
318.1705358531806
 31
0.0
  0
LINE
  5
5D5B
330
18
100
AcDbEntity
  8
0
100
AcDbLine
 10
180.4124566762627
 20
325.6835760867953
 30
0.0
 11
178.9253670925646
 21
325.6835760867951
 31
0.0
  0
LINE
  5
5D5C
330
18
100
AcDbEntity
  8
0
100
AcDbLine
 10
188.6791558413293
 20
318.1705358531806
 30
0.0
 11
188.6791558413293
 21
325.6835760867951
 31
0.0
  0
LINE
  5
5D5D
330
18
100
AcDbEntity
  8
0
100
AcDbLine
 10
188.6791558413293
 20
325.6835760867951
 30
0.0
 11
186.1038721632418
 21
327.1705358531806
 31
0.0
  0
ARC
  5
5D5E
330
18
100
AcDbEntity
  8
0
100
AcDbCircle
 10
193.6791558413294
 20
316.1705358531806
 30
0.0
 40
2.0
100
AcDbArc
 50
359.9999999999983
 51
90.0
  0
INSERT
  5
5D5F
330
18
100
AcDbEntity
  8
0
100
AcDbBlockReference
  2
YA
 10
211.9291558413293
 20
277.1705358531805
 30
0.0
 41
-0.5140837528113959
 42
0.5140837528113959
 43
0.5140837528113959
  0
ARC
  5
5D60
330
18
100
AcDbEntity
  8
0
100
AcDbCircle
 10
195.6791558413293
 20
295.1705358531805
 30
0.0
 40
2.0
100
AcDbArc
 50
180.0000000000004
 51
270.0
  0
LINE
  5
5D61
330
18
100
AcDbEntity
  8
0
100
AcDbLine
 10
193.6791558413293
 20
289.6705358531805
 30
0.0
 11
193.6791558413293
 21
299.1705358531806
 31
0.0
  0
LINE
  5
5D62
330
18
100
AcDbEntity
  8
0
100
AcDbLine
 10
195.6791558413293
 20
293.1708858531806
 30
0.0
 11
208.6791558413294
 21
293.1708858531806
 31
0.0
  0
LINE
  5
5D63
330
18
100
AcDbEntity
  8
0
100
AcDbLine
 10
207.1921960749439
 20
292.3119642817263
 30
0.0
 11
195.1661156077147
 21
292.3119642817263
 31
0.0
  0
LINE
  5
5D64
330
18
100
AcDbEntity
  8
0
100
AcDbLine
 10
207.1921960749438
 20
278.0294574246406
 30
0.0
 11
195.1661156077148
 21
278.0294574246406
 31
0.0
  0
LINE
  5
5D65
330
18
100
AcDbEntity
  8
0
100
AcDbLine
 10
207.1921960749439
 20
276.3123142817263
 30
0.0
 11
195.1661156077147
 21
276.3123142817263
 31
0.0
  0
ARC
  5
5D66
330
18
100
AcDbEntity
  8
0
100
AcDbCircle
 10
211.6343224154904
 20
285.1707108531836
 30
0.0
 40
17.94991186592132
100
AcDbArc
 50
156.5565738239321
 51
203.4434261760692
  0
LINE
  5
5D67
330
18
100
AcDbEntity
  8
0
100
AcDbLine
 10
193.6791558413293
 20
289.6705358531805
 30
0.0
 11
190.6479105440196
 21
281.0098350037243
 31
0.0
  0
LINE
  5
5D68
330
18
100
AcDbEntity
  8
0
100
AcDbLine
 10
195.1661156077148
 20
278.0294574246406
 30
0.0
 11
195.1661156077148
 21
276.3123142817263
 31
0.0
  0
ARC
  5
5D69
330
18
100
AcDbEntity
  8
0
100
AcDbCircle
 10
188.7601938312876
 20
281.6705358531805
 30
0.0
 40
2.0
100
AcDbArc
 50
298.6684551975308
 51
340.7099537808113
  0
LINE
  5
5D6A
330
18
100
AcDbEntity
  8
0
100
AcDbLine
 10
195.1661156077147
 20
293.1708858531806
 30
0.0
 11
195.1661156077147
 21
292.3119642817263
 31
0.0
  0
ARC
  5
5D6B
330
18
100
AcDbEntity
  8
0
100
AcDbCircle
 10
190.8494490430279
 20
285.1707108531834
 30
0.0
 40
17.83487821881256
100
AcDbArc
 50
336.3962235583822
 51
23.6037764416178
  0
LINE
  5
5D6C
330
18
100
AcDbEntity
  8
0
100
AcDbLine
 10
207.1921960749439
 20
278.0294574246406
 30
0.0
 11
207.192196074944
 21
276.3123142817263
 31
0.0
  0
LINE
  5
5D6D
330
18
100
AcDbEntity
  8
0
100
AcDbLine
 10
207.1921960749439
 20
293.1708858531806
 30
0.0
 11
207.1921960749439
 21
292.3119642817263
 31
0.0
  0
LINE
  5
5D6E
330
18
100
AcDbEntity
  8
0
100
AcDbLine
 10
196.6791558413294
 20
302.1616860383509
 30
0.0
 11
196.6791558413293
 21
309.2217226040396
 31
0.0
  0
LINE
  5
5D6F
330
18
100
AcDbEntity
  8
0
100
AcDbLine
 10
193.6880056561589
 20
299.1705358531806
 30
0.0
 11
196.6791558413294
 21
302.1616860383509
 31
0.0
  0
LINE
  5
5D70
330
18
100
AcDbEntity
  8
0
100
AcDbLine
 10
195.7303425921883
 20
310.1705358531805
 30
0.0
 11
196.6791558413293
 21
309.2217226040396
 31
0.0
  0
LINE
  5
5D71
330
18
100
AcDbEntity
  8
0
100
AcDbLine
 10
195.6791558413293
 20
310.1705358531805
 30
0.0
 11
195.6791558413294
 21
316.1705358531805
 31
0.0
  0
TEXT
  5
5D72
330
18
100
AcDbEntity
  8
0
100
AcDbText
 10
166.2220129841866
 20
41.03783751861286
 30
0.0
 40
4.5
  1
15A
 41
0.8
 72
     1
 11
170.6791558413295
 21
43.28783751861286
 31
0.0
100
AcDbText
 73
     2
  0
INSERT
  5
5F47
330
18
100
AcDbEntity
  8
0
100
AcDbBlockReference
  2
00000
 10
0.0
 20
0.0
 30
0.0
  0
VIEWPORT
  5
41
330
15
100
AcDbEntity
 67
     1
  8
0
100
AcDbViewport
 10
117.358407079646
 20
73.5
 30
0.0
 40
234.716814159292
 41
147.0
 68
     1
 69
     1
1001
ACAD
1000
MVIEW
1002
{
1070
    16
1010
0.0
1020
0.0
1030
0.0
1010
0.0
1020
0.0
1030
1.0
1040
0.0
1040
147.0
1040
117.358407079646
1040
73.5
1040
50.0
1040
0.0
1040
0.0
1070
     0
1070
   100
1070
     1
1070
     1
1070
     0
1070
     0
1070
     0
1070
     0
1040
0.0
1040
0.0
1040
0.0
1040
1.0
1040
1.0
1040
0.0
1040
0.0
1070
     0
1002
{
1002
}
1002
}
  0
ENDSEC
  0
SECTION
  2
OBJECTS
  0
DICTIONARY
  5
C
330
0
100
AcDbDictionary
  3
ACAD_GROUP
350
D
  3
ACAD_LAYOUT
350
5F1F
  3
ACAD_MLINESTYLE
350
E
  3
ACAD_PLOTSETTINGS
350
5F20
  3
DWGPROPS
350
5F82
1001
ACAD
1000
TREAT_AS_HARD
1070
     0
  0
DICTIONARY
  5
602A
330
18
100
AcDbDictionary
  3
ACAD_LAYOUTSELFREF
350
602B
  0
DICTIONARY
  5
6028
330
15
100
AcDbDictionary
  3
ACAD_LAYOUTSELFREF
350
6029
  0
DICTIONARY
  5
D
102
{ACAD_REACTORS
330
C
102
}
330
C
100
AcDbDictionary
1001
ACAD
1000
TREAT_AS_HARD
1070
     0
  0
DICTIONARY
  5
5F1F
102
{ACAD_REACTORS
330
C
102
}
330
C
100
AcDbDictionary
1001
ACAD
1000
TREAT_AS_HARD
1070
     0
  0
DICTIONARY
  5
E
102
{ACAD_REACTORS
330
C
102
}
330
C
100
AcDbDictionary
  3
STANDARD
350
1B
1001
ACAD
1000
TREAT_AS_HARD
1070
     0
  0
DICTIONARY
  5
5F20
102
{ACAD_REACTORS
330
C
102
}
330
C
100
AcDbDictionary
1001
ACAD
1000
TREAT_AS_HARD
1070
     0
  0
XRECORD
  5
5F82
102
{ACAD_REACTORS
330
C
102
}
330
C
100
AcDbXrecord
  1
DWGPROPS COOKIE
  2

  3

  4

  6

  7

  8
nakaot
  9

300
=
301
=
302
=
303
=
304
=
305
=
306
=
307
=
308
=
309
=
 40
0.1655423148148148
 41
2451564.587411898
 42
2452536.627056921
  1

 90
        0
  0
XRECORD
  5
602B
102
{ACAD_REACTORS
330
602A
102
}
330
602A
100
AcDbXrecord
340
18
  0
XRECORD
  5
6029
102
{ACAD_REACTORS
330
6028
102
}
330
6028
100
AcDbXrecord
340
15
  0
MLINESTYLE
  5
1B
102
{ACAD_REACTORS
330
E
102
}
330
E
100
AcDbMlineStyle
  2
STANDARD
 70
     0
  3

 62
     0
 51
90.0
 52
90.0
 71
     2
 49
0.5
 62
   256
  6
BYLAYER
 49
-0.5
 62
   256
  6
BYLAYER
  0
ENDSEC
  0
EOF
