  0
SECTION
  2
HEADER
  9
$ACADVER
  1
AC1012
  9
$DWGCODEPAGE
  3
dos932
  9
$INSBASE
 10
0.0
 20
0.0
 30
0.0
  9
$EXTMIN
 10
19.8
 20
9.0
 30
0.0
  9
$EXTMAX
 10
514.8
 20
343.8
 30
0.0
  9
$LIMMIN
 10
0.0
 20
0.0
  9
$LIMMAX
 10
534.6
 20
378.0
  9
$ORTHOMODE
 70
     1
  9
$REGENMODE
 70
     1
  9
$FILLMODE
 70
     1
  9
$QTEXTMODE
 70
     0
  9
$MIRRTEXT
 70
     1
  9
$DRAGMODE
 70
     2
  9
$LTSCALE
 40
7.2
  9
$OSMODE
 70
   163
  9
$ATTMODE
 70
     1
  9
$TEXTSIZE
 40
7.2
  9
$TRACEWID
 40
0.05
  9
$TEXTSTYLE
  7
STANDARD
  9
$CLAYER
  8
0
  9
$CELTYPE
  6
BYLAYER
  9
$CECOLOR
 62
   256
  9
$CELTSCALE
 40
1.0
  9
$DELOBJ
 70
     1
  9
$DISPSILH
 70
     0
  9
$DIMSCALE
 40
1.8
  9
$DIMASZ
 40
2.8
  9
$DIMEXO
 40
1.0
  9
$DIMDLI
 40
5.0
  9
$DIMRND
 40
0.1
  9
$DIMDLE
 40
0.0
  9
$DIMEXE
 40
1.0
  9
$DIMTP
 40
0.0
  9
$DIMTM
 40
0.0
  9
$DIMTXT
 40
2.5
  9
$DIMCEN
 40
0.0
  9
$DIMTSZ
 40
0.0
  9
$DIMTOL
 70
     0
  9
$DIMLIM
 70
     0
  9
$DIMTIH
 70
     0
  9
$DIMTOH
 70
     0
  9
$DIMSE1
 70
     0
  9
$DIMSE2
 70
     0
  9
$DIMTAD
 70
     3
  9
$DIMZIN
 70
     8
  9
$DIMBLK
  1

  9
$DIMASO
 70
     1
  9
$DIMSHO
 70
     1
  9
$DIMPOST
  1
 
  9
$DIMAPOST
  1

  9
$DIMALT
 70
     0
  9
$DIMALTD
 70
     2
  9
$DIMALTF
 40
1.0
  9
$DIMLFAC
 40
1.0
  9
$DIMTOFL
 70
     1
  9
$DIMTVP
 40
0.0
  9
$DIMTIX
 70
     0
  9
$DIMSOXD
 70
     0
  9
$DIMSAH
 70
     1
  9
$DIMBLK1
  1
_OPEN
  9
$DIMBLK2
  1
_OPEN
  9
$DIMSTYLE
  2
DIM1
  9
$DIMCLRD
 70
     2
  9
$DIMCLRE
 70
     2
  9
$DIMCLRT
 70
     2
  9
$DIMTFAC
 40
0.7
  9
$DIMGAP
 40
0.85
  9
$DIMJUST
 70
     0
  9
$DIMSD1
 70
     0
  9
$DIMSD2
 70
     0
  9
$DIMTOLJ
 70
     1
  9
$DIMTZIN
 70
     8
  9
$DIMALTZ
 70
     8
  9
$DIMALTTZ
 70
     8
  9
$DIMFIT
 70
     3
  9
$DIMUPT
 70
     0
  9
$DIMUNIT
 70
     2
  9
$DIMDEC
 70
     2
  9
$DIMTDEC
 70
     3
  9
$DIMALTU
 70
     2
  9
$DIMALTTD
 70
     3
  9
$DIMTXSTY
  7
DIM
  9
$DIMAUNIT
 70
     0
  9
$LUNITS
 70
     2
  9
$LUPREC
 70
     4
  9
$SKETCHINC
 40
0.1
  9
$FILLETRAD
 40
2.0
  9
$AUNITS
 70
     0
  9
$AUPREC
 70
     0
  9
$MENU
  1
C:\ACADR13\WIN\SUPPORT\ACAD.mnc
  9
$ELEVATION
 40
0.0
  9
$PELEVATION
 40
0.0
  9
$THICKNESS
 40
0.0
  9
$LIMCHECK
 70
     0
  9
$BLIPMODE
 70
     1
  9
$CHAMFERA
 40
0.0
  9
$CHAMFERB
 40
0.0
  9
$CHAMFERC
 40
0.0
  9
$CHAMFERD
 40
0.0
  9
$SKPOLY
 70
     0
  9
$TDCREATE
 40
2451564.587411898
  9
$TDUPDATE
 40
2451981.559102824
  9
$TDINDWG
 40
0.3521999074
  9
$TDUSRTIMER
 40
0.3521999074
  9
$USRTIMER
 70
     1
  9
$ANGBASE
 50
0.0
  9
$ANGDIR
 70
     0
  9
$PDMODE
 70
     0
  9
$PDSIZE
 40
0.0
  9
$PLINEWID
 40
0.0
  9
$COORDS
 70
     1
  9
$SPLFRAME
 70
     0
  9
$SPLINETYPE
 70
     6
  9
$SPLINESEGS
 70
     8
  9
$ATTDIA
 70
     0
  9
$ATTREQ
 70
     1
  9
$HANDLING
 70
     1
  9
$HANDSEED
  5
57B6
  9
$SURFTAB1
 70
     6
  9
$SURFTAB2
 70
     6
  9
$SURFTYPE
 70
     6
  9
$SURFU
 70
     6
  9
$SURFV
 70
     6
  9
$UCSNAME
  2

  9
$UCSORG
 10
0.0
 20
0.0
 30
0.0
  9
$UCSXDIR
 10
1.0
 20
0.0
 30
0.0
  9
$UCSYDIR
 10
0.0
 20
1.0
 30
0.0
  9
$PUCSNAME
  2

  9
$PUCSORG
 10
0.0
 20
0.0
 30
0.0
  9
$PUCSXDIR
 10
1.0
 20
0.0
 30
0.0
  9
$PUCSYDIR
 10
0.0
 20
1.0
 30
0.0
  9
$USERI1
 70
     0
  9
$USERI2
 70
     0
  9
$USERI3
 70
     0
  9
$USERI4
 70
     0
  9
$USERI5
 70
     0
  9
$USERR1
 40
0.0
  9
$USERR2
 40
0.0
  9
$USERR3
 40
0.0
  9
$USERR4
 40
0.0
  9
$USERR5
 40
0.0
  9
$WORLDVIEW
 70
     1
  9
$SHADEDGE
 70
     3
  9
$SHADEDIF
 70
    70
  9
$TILEMODE
 70
     1
  9
$MAXACTVP
 70
    16
  9
$PINSBASE
 10
0.0
 20
0.0
 30
0.0
  9
$PLIMCHECK
 70
     0
  9
$PEXTMIN
 10
1.000000E+20
 20
1.000000E+20
 30
1.000000E+20
  9
$PEXTMAX
 10
-1.000000E+20
 20
-1.000000E+20
 30
-1.000000E+20
  9
$PLIMMIN
 10
0.0
 20
0.0
  9
$PLIMMAX
 10
20.0
 20
147.0
  9
$UNITMODE
 70
     0
  9
$VISRETAIN
 70
     0
  9
$PLINEGEN
 70
     0
  9
$PSLTSCALE
 70
     1
  9
$TREEDEPTH
 70
  3020
  9
$PICKSTYLE
 70
     1
  9
$CMLSTYLE
  2
STANDARD
  9
$CMLJUST
 70
     0
  9
$CMLSCALE
 40
1.0
  9
$SAVEIMAGES
 70
     1
  0
ENDSEC
  0
SECTION
  2
CLASSES
  0
CLASS
  1
LWPOLYLINE
  2
AcDbPolyline
  3
"AutoCAD"
 90
    32768
280
     0
281
     1
  0
CLASS
  1
HATCH
  2
AcDbHatch
  3
"ACAD_SEDONA"
 90
    32768
280
     0
281
     1
  0
ENDSEC
  0
SECTION
  2
TABLES
  0
TABLE
  2
VPORT
  5
8
100
AcDbSymbolTable
 70
     2
  0
VPORT
  5
57B5
100
AcDbSymbolTableRecord
100
AcDbViewportTableRecord
  2
*ACTIVE
 70
     0
 10
0.0
 20
0.0
 11
1.0
 21
1.0
 12
356.038732
 22
202.057864
 13
0.0
 23
0.0
 14
1.0
 24
1.0
 15
0.0
 25
0.0
 16
0.0
 26
0.0
 36
1.0
 17
0.0
 27
0.0
 37
0.0
 40
404.115728
 41
1.762063
 42
50.0
 43
0.0
 44
0.0
 50
0.0
 51
0.0
 71
     0
 72
   100
 73
     1
 74
     1
 75
     0
 76
     0
 77
     0
 78
     0
  0
ENDTAB
  0
TABLE
  2
LTYPE
  5
5
100
AcDbSymbolTable
 70
     1
  0
LTYPE
  5
12
100
AcDbSymbolTableRecord
100
AcDbLinetypeTableRecord
  2
BYBLOCK
 70
     0
  3

 72
    65
 73
     0
 40
0.0
  0
LTYPE
  5
13
100
AcDbSymbolTableRecord
100
AcDbLinetypeTableRecord
  2
BYLAYER
 70
     0
  3

 72
    65
 73
     0
 40
0.0
  0
LTYPE
  5
14
100
AcDbSymbolTableRecord
100
AcDbLinetypeTableRecord
  2
CONTINUOUS
 70
     0
  3
Solid line
 72
    65
 73
     0
 40
0.0
  0
ENDTAB
  0
TABLE
  2
LAYER
  5
2
100
AcDbSymbolTable
 70
     1
  0
LAYER
  5
F
100
AcDbSymbolTableRecord
100
AcDbLayerTableRecord
  2
0
 70
     0
 62
     7
  6
CONTINUOUS
  0
ENDTAB
  0
TABLE
  2
STYLE
  5
3
100
AcDbSymbolTable
 70
     3
  0
STYLE
  5
10
100
AcDbSymbolTableRecord
100
AcDbTextStyleTableRecord
  2
STANDARD
 70
     0
 40
0.0
 41
0.8
 50
0.0
 71
     0
 42
7.2
  3
simplex
  4
extfont
  0
STYLE
  5
237C
100
AcDbSymbolTableRecord
100
AcDbTextStyleTableRecord
  2
PTSH
 70
     0
 40
0.0
 41
0.9
 50
0.0
 71
     0
 42
4.0
  3
SIMPLEX
  4
EXTFONT
  0
STYLE
  5
2592
100
AcDbSymbolTableRecord
100
AcDbTextStyleTableRecord
  2
DIM
 70
     0
 40
0.0
 41
0.8
 50
0.0
 71
     0
 42
4.0
  3
simplex
  4
extfont
  0
ENDTAB
  0
TABLE
  2
VIEW
  5
6
100
AcDbSymbolTable
 70
     0
  0
ENDTAB
  0
TABLE
  2
UCS
  5
7
100
AcDbSymbolTable
 70
     0
  0
ENDTAB
  0
TABLE
  2
APPID
  5
9
100
AcDbSymbolTable
 70
     1
  0
APPID
  5
11
100
AcDbSymbolTableRecord
100
AcDbRegAppTableRecord
  2
ACAD
 70
     0
  0
ENDTAB
  0
TABLE
  2
DIMSTYLE
  5
A
100
AcDbSymbolTable
 70
     1
  0
DIMSTYLE
105
2237
100
AcDbSymbolTableRecord
100
AcDbDimStyleTableRecord
  2
DIM1
 70
     0
  3
 
  4

  5

  6
_OPEN
  7
_OPEN
 40
1.8
 41
2.8
 42
1.0
 43
5.0
 44
1.0
 45
0.1
 46
0.0
 47
0.0
 48
0.0
140
2.5
141
0.0
142
0.0
143
1.0
144
1.0
145
0.0
146
0.7
147
0.85
 71
     0
 72
     0
 73
     0
 74
     0
 75
     0
 76
     0
 77
     3
 78
     8
170
     0
171
     2
172
     1
173
     1
174
     0
175
     0
176
     2
177
     2
178
     2
270
     2
271
     2
272
     3
273
     2
274
     3
340
2592
275
     0
280
     0
281
     0
282
     0
283
     1
284
     8
285
     8
286
     8
287
     3
288
     0
  0
ENDTAB
  0
TABLE
  2
BLOCK_RECORD
  5
1
100
AcDbSymbolTable
 70
     2
  0
BLOCK_RECORD
  5
18
100
AcDbSymbolTableRecord
100
AcDbBlockTableRecord
  2
*MODEL_SPACE
  0
BLOCK_RECORD
  5
15
100
AcDbSymbolTableRecord
100
AcDbBlockTableRecord
  2
*PAPER_SPACE
  0
BLOCK_RECORD
  5
2448
100
AcDbSymbolTableRecord
100
AcDbBlockTableRecord
  2
_OPEN
  0
BLOCK_RECORD
  5
3621
100
AcDbSymbolTableRecord
100
AcDbBlockTableRecord
  2
YA
  0
ENDTAB
  0
ENDSEC
  0
SECTION
  2
BLOCKS
  0
BLOCK
  5
3C
100
AcDbEntity
  8
0
100
AcDbBlockBegin
  2
*MODEL_SPACE
 70
     0
 10
0.0
 20
0.0
 30
0.0
  3
*MODEL_SPACE
  1

  0
ENDBLK
  5
3D
100
AcDbEntity
  8
0
100
AcDbBlockEnd
  0
BLOCK
  5
3A
100
AcDbEntity
 67
     1
  8
0
100
AcDbBlockBegin
  2
*PAPER_SPACE
 70
     0
 10
0.0
 20
0.0
 30
0.0
  3
*PAPER_SPACE
  1

  0
ENDBLK
  5
3B
100
AcDbEntity
 67
     1
  8
0
100
AcDbBlockEnd
  0
BLOCK
  5
2449
100
AcDbEntity
  8
0
 48
4.0
100
AcDbBlockBegin
  2
_OPEN
 70
     0
 10
0.0
 20
0.0
 30
0.0
  3
_OPEN
  1
H1111.DWG
  0
LINE
  5
244A
100
AcDbEntity
  8
0
  6
BYBLOCK
 62
     0
 48
4.0
100
AcDbLine
 10
-1.0
 20
0.166667
 30
0.0
 11
0.0
 21
0.0
 31
0.0
  0
LINE
  5
244B
100
AcDbEntity
  8
0
  6
BYBLOCK
 62
     0
 48
4.0
100
AcDbLine
 10
0.0
 20
0.0
 30
0.0
 11
-1.0
 21
-0.166667
 31
0.0
  0
LINE
  5
244C
100
AcDbEntity
  8
0
  6
BYBLOCK
 62
     0
 48
4.0
100
AcDbLine
 10
0.0
 20
0.0
 30
0.0
 11
-1.0
 21
0.0
 31
0.0
  0
ENDBLK
  5
244D
100
AcDbEntity
  8
0
 48
4.0
100
AcDbBlockEnd
  0
BLOCK
  5
3629
100
AcDbEntity
  8
0
100
AcDbBlockBegin
  2
YA
 70
     0
 10
0.0
 20
0.0
 30
0.0
  3
YA
  1

  0
LINE
  5
3622
100
AcDbEntity
  8
0
100
AcDbLine
 10
-16.8065
 20
2.801
 30
0.0
 11
-8.4035
 21
2.801
 31
0.0
  0
LINE
  5
3623
100
AcDbEntity
  8
0
100
AcDbLine
 10
-8.4035
 20
2.801
 30
0.0
 11
-7.0025
 21
1.4005
 31
0.0
  0
LINE
  5
3624
100
AcDbEntity
  8
0
100
AcDbLine
 10
-7.0025
 20
1.4005
 30
0.0
 11
-2.862
 21
1.4005
 31
0.0
  0
LINE
  5
3625
100
AcDbEntity
  8
0
100
AcDbLine
 10
-2.862
 20
1.4005
 30
0.0
 11
-2.862
 21
2.801
 31
0.0
  0
LINE
  5
3626
100
AcDbEntity
  8
0
100
AcDbLine
 10
-2.862
 20
2.801
 30
0.0
 11
0.0
 21
0.0
 31
0.0
  0
LINE
  5
3627
100
AcDbEntity
  8
0
100
AcDbLine
 10
0.0
 20
0.0
 30
0.0
 11
-14.0055
 21
0.0
 31
0.0
  0
LINE
  5
3628
100
AcDbEntity
  8
0
100
AcDbLine
 10
-14.0055
 20
0.0
 30
0.0
 11
-16.8065
 21
2.801
 31
0.0
  0
ENDBLK
  5
362A
100
AcDbEntity
  8
0
100
AcDbBlockEnd
  0
ENDSEC
  0
SECTION
  2
ENTITIES
  0
MTEXT
  5
ADA
100
AcDbEntity
  8
0
100
AcDbMText
 10
684.250704
 20
89.72336
 30
0.0
 40
0.36
 41
85.007637
 71
     1
 72
     1
  1

  0
MTEXT
  5
ADB
100
AcDbEntity
  8
0
100
AcDbMText
 10
700.28988
 20
104.131429
 30
0.0
 40
0.36
 41
81.799802
 71
     1
 72
     1
  1

  0
MTEXT
  5
ADC
100
AcDbEntity
  8
0
100
AcDbMText
 10
690.666374
 20
-86.375244
 30
0.0
 40
0.36
 41
93.027225
 71
     1
 72
     1
  1

  0
TEXT
  5
2529
100
AcDbEntity
  8
0
  6
CONTINUOUS
100
AcDbText
 10
485.665714
 20
12.6
 30
0.0
 40
5.4
  1
LV13N
 41
0.9
  7
PTSH
 72
     2
 11
505.8
 21
15.3
 31
0.0
100
AcDbText
 73
     2
  0
POLYLINE
  5
2563
100
AcDbEntity
  8
0
100
AcDb2dPolyline
 66
     1
 10
0.0
 20
0.0
 30
0.0
 70
     1
  0
VERTEX
  5
5744
100
AcDbEntity
  8
0
100
AcDbVertex
100
AcDb2dVertex
 10
19.8
 20
9.0
 30
0.0
  0
VERTEX
  5
5745
100
AcDbEntity
  8
0
100
AcDbVertex
100
AcDb2dVertex
 10
514.8
 20
9.0
 30
0.0
  0
VERTEX
  5
5746
100
AcDbEntity
  8
0
100
AcDbVertex
100
AcDb2dVertex
 10
514.8
 20
343.8
 30
0.0
  0
VERTEX
  5
5747
100
AcDbEntity
  8
0
100
AcDbVertex
100
AcDb2dVertex
 10
19.8
 20
343.8
 30
0.0
  0
SEQEND
  5
5748
100
AcDbEntity
  8
0
  0
TEXT
  5
28A0
100
AcDbEntity
  8
0
100
AcDbText
 10
230.13
 20
32.85
 30
0.0
 40
6.3
  1
TLV  LV13N (PT)
 72
     1
 11
267.3
 21
36.0
 31
0.0
100
AcDbText
 73
     2
  0
INSERT
  5
4E00
100
AcDbEntity
  8
0
100
AcDbBlockReference
  2
YA
 10
359.469339
 20
92.525731
 30
0.0
 41
0.514084
 42
0.514084
 43
0.514084
  0
TEXT
  5
4E4F
100
AcDbEntity
  8
0
100
AcDbText
 10
397.919339
 20
62.683286
 30
0.0
 40
4.5
  1
20A
 41
0.8
 72
     1
 11
402.719339
 21
64.933286
 31
0.0
100
AcDbText
 73
     2
  0
TEXT
  5
4F73
100
AcDbEntity
  8
0
100
AcDbText
 10
32.617421
 20
92.525731
 30
0.0
 40
6.3
  1
正面
100
AcDbText
  0
TEXT
  5
4F74
100
AcDbEntity
  8
0
100
AcDbText
 10
33.820786
 20
200.205972
 30
0.0
 40
6.3
  1
平面
100
AcDbText
  0
TEXT
  5
4F75
100
AcDbEntity
  8
0
100
AcDbText
 10
33.973364
 20
277.170536
 30
0.0
 40
6.3
  1
背面
100
AcDbText
  0
TEXT
  5
5004
100
AcDbEntity
  8
0
100
AcDbText
 10
166.222013
 20
62.683286
 30
0.0
 40
4.5
  1
15A
 41
0.8
 72
     1
 11
170.679156
 21
64.933286
 31
0.0
100
AcDbText
 73
     2
  0
LINE
  5
52B1
100
AcDbEntity
  8
0
100
AcDbLine
 10
377.719339
 20
108.526081
 30
0.0
 11
362.719339
 21
108.526081
 31
0.0
  0
LINE
  5
52B2
100
AcDbEntity
  8
0
100
AcDbLine
 10
442.719339
 20
76.526081
 30
0.0
 11
362.719339
 21
76.526081
 31
0.0
  0
LINE
  5
52B3
100
AcDbEntity
  8
0
100
AcDbLine
 10
362.719339
 20
76.526081
 30
0.0
 11
362.719339
 21
108.526081
 31
0.0
  0
LINE
  5
52B5
100
AcDbEntity
  8
0
100
AcDbLine
 10
427.719339
 20
127.526081
 30
0.0
 11
377.719339
 21
127.526081
 31
0.0
  0
LINE
  5
52B6
100
AcDbEntity
  8
0
100
AcDbLine
 10
377.719339
 20
125.526081
 30
0.0
 11
377.719339
 21
131.526081
 31
0.0
  0
LINE
  5
52B7
100
AcDbEntity
  8
0
100
AcDbLine
 10
427.719339
 20
125.526081
 30
0.0
 11
427.719339
 21
131.526081
 31
0.0
  0
LINE
  5
52B8
100
AcDbEntity
  8
0
100
AcDbLine
 10
427.770525
 20
125.526081
 30
0.0
 11
377.668152
 21
125.526081
 31
0.0
  0
LINE
  5
52B9
100
AcDbEntity
  8
0
100
AcDbLine
 10
425.728188
 20
114.526081
 30
0.0
 11
379.710489
 21
114.526081
 31
0.0
  0
LINE
  5
52BA
100
AcDbEntity
  8
0
100
AcDbLine
 10
376.719339
 20
117.517231
 30
0.0
 11
376.719339
 21
124.577268
 31
0.0
  0
LINE
  5
52BC
100
AcDbEntity
  8
0
100
AcDbLine
 10
379.719339
 20
105.026081
 30
0.0
 11
379.719339
 21
114.526081
 31
0.0
  0
LINE
  5
52BD
100
AcDbEntity
  8
0
100
AcDbLine
 10
425.719339
 20
105.026081
 30
0.0
 11
425.719339
 21
114.526081
 31
0.0
  0
LINE
  5
52BE
100
AcDbEntity
  8
0
100
AcDbLine
 10
425.719339
 20
105.026081
 30
0.0
 11
379.719339
 21
105.026081
 31
0.0
  0
LINE
  5
52BF
100
AcDbEntity
  8
0
100
AcDbLine
 10
420.800377
 20
95.026081
 30
0.0
 11
384.638301
 21
95.026081
 31
0.0
  0
LINE
  5
52C1
100
AcDbEntity
  8
0
100
AcDbLine
 10
379.719339
 20
105.026081
 30
0.0
 11
382.750584
 21
96.36538
 31
0.0
  0
ARC
  5
52C2
100
AcDbEntity
  8
0
100
AcDbCircle
 10
384.638301
 20
97.026081
 30
0.0
 40
2.0
100
AcDbArc
 50
199.290046
 51
270.0
  0
LINE
  5
52C3
100
AcDbEntity
  8
0
100
AcDbLine
 10
379.710489
 20
114.526081
 30
0.0
 11
376.719339
 21
117.517231
 31
0.0
  0
LINE
  5
52C4
100
AcDbEntity
  8
0
100
AcDbLine
 10
377.668152
 20
125.526081
 30
0.0
 11
376.719339
 21
124.577268
 31
0.0
  0
LINE
  5
52C5
100
AcDbEntity
  8
0
100
AcDbLine
 10
428.719339
 20
117.517231
 30
0.0
 11
428.719339
 21
124.577268
 31
0.0
  0
LINE
  5
52C6
100
AcDbEntity
  8
0
100
AcDbLine
 10
425.728188
 20
114.526081
 30
0.0
 11
428.719339
 21
117.517231
 31
0.0
  0
LINE
  5
52C7
100
AcDbEntity
  8
0
100
AcDbLine
 10
427.770525
 20
125.526081
 30
0.0
 11
428.719339
 21
124.577268
 31
0.0
  0
LINE
  5
52C8
100
AcDbEntity
  8
0
100
AcDbLine
 10
425.719339
 20
105.026081
 30
0.0
 11
422.688093
 21
96.36538
 31
0.0
  0
ARC
  5
52C9
100
AcDbEntity
  8
0
100
AcDbCircle
 10
420.800377
 20
97.026081
 30
0.0
 40
2.0
100
AcDbArc
 50
270.0
 51
340.709954
  0
CIRCLE
  5
52CC
100
AcDbEntity
  8
0
100
AcDbCircle
 10
402.719339
 20
200.205972
 30
0.0
 40
26.0
  0
POLYLINE
  5
52CD
100
AcDbEntity
  8
0
100
AcDb2dPolyline
 66
     1
 10
0.0
 20
0.0
 30
0.0
  0
VERTEX
  5
5749
100
AcDbEntity
  8
0
100
AcDbVertex
100
AcDb2dVertex
 10
307.43952
 20
107.667509
 30
0.0
  0
VERTEX
  5
574A
100
AcDbEntity
  8
0
100
AcDbVertex
100
AcDb2dVertex
 10
299.193308
 20
93.384652
 30
0.0
  0
SEQEND
  5
574B
100
AcDbEntity
  8
0
  0
CIRCLE
  5
52CE
100
AcDbEntity
  8
0
100
AcDbCircle
 10
317.17282
 20
92.526081
 30
0.0
 40
16.0
  0
ARC
  5
52CF
100
AcDbEntity
  8
0
100
AcDbCircle
 10
317.17282
 20
92.526081
 30
0.0
 40
18.0
100
AcDbArc
 50
57.266044
 51
62.733956
  0
POLYLINE
  5
52D0
100
AcDbEntity
  8
0
100
AcDb2dPolyline
 66
     1
 10
0.0
 20
0.0
 30
0.0
  0
VERTEX
  5
574C
100
AcDbEntity
  8
0
100
AcDbVertex
100
AcDb2dVertex
 10
325.419032
 20
108.526081
 30
0.0
  0
VERTEX
  5
574D
100
AcDbEntity
  8
0
100
AcDbVertex
100
AcDb2dVertex
 10
308.926609
 20
108.526081
 30
0.0
  0
SEQEND
  5
574E
100
AcDbEntity
  8
0
  0
POLYLINE
  5
52D1
100
AcDbEntity
  8
0
100
AcDb2dPolyline
 66
     1
 10
0.0
 20
0.0
 30
0.0
  0
VERTEX
  5
574F
100
AcDbEntity
  8
0
100
AcDbVertex
100
AcDb2dVertex
 10
335.152333
 20
93.384652
 30
0.0
  0
VERTEX
  5
5750
100
AcDbEntity
  8
0
100
AcDbVertex
100
AcDb2dVertex
 10
326.906121
 20
107.667509
 30
0.0
  0
SEQEND
  5
5751
100
AcDbEntity
  8
0
  0
POLYLINE
  5
52D2
100
AcDbEntity
  8
0
100
AcDb2dPolyline
 66
     1
 10
0.0
 20
0.0
 30
0.0
  0
VERTEX
  5
5752
100
AcDbEntity
  8
0
100
AcDbVertex
100
AcDb2dVertex
 10
326.906121
 20
77.384652
 30
0.0
  0
VERTEX
  5
5753
100
AcDbEntity
  8
0
100
AcDbVertex
100
AcDb2dVertex
 10
335.152333
 20
91.667509
 30
0.0
  0
SEQEND
  5
5754
100
AcDbEntity
  8
0
  0
POLYLINE
  5
52D3
100
AcDbEntity
  8
0
100
AcDb2dPolyline
 66
     1
 10
0.0
 20
0.0
 30
0.0
  0
VERTEX
  5
5755
100
AcDbEntity
  8
0
100
AcDbVertex
100
AcDb2dVertex
 10
308.926609
 20
76.526081
 30
0.0
  0
VERTEX
  5
5756
100
AcDbEntity
  8
0
100
AcDbVertex
100
AcDb2dVertex
 10
325.419032
 20
76.526081
 30
0.0
  0
SEQEND
  5
5757
100
AcDbEntity
  8
0
  0
POLYLINE
  5
52D4
100
AcDbEntity
  8
0
100
AcDb2dPolyline
 66
     1
 10
0.0
 20
0.0
 30
0.0
  0
VERTEX
  5
5758
100
AcDbEntity
  8
0
100
AcDbVertex
100
AcDb2dVertex
 10
299.193308
 20
91.667509
 30
0.0
  0
VERTEX
  5
5759
100
AcDbEntity
  8
0
100
AcDbVertex
100
AcDb2dVertex
 10
307.43952
 20
77.384652
 30
0.0
  0
SEQEND
  5
575A
100
AcDbEntity
  8
0
  0
ARC
  5
52D5
100
AcDbEntity
  8
0
100
AcDbCircle
 10
317.17282
 20
92.526081
 30
0.0
 40
18.0
100
AcDbArc
 50
117.266044
 51
122.733956
  0
ARC
  5
52D6
100
AcDbEntity
  8
0
100
AcDbCircle
 10
317.17282
 20
92.526081
 30
0.0
 40
18.0
100
AcDbArc
 50
177.266044
 51
182.733956
  0
ARC
  5
52D7
100
AcDbEntity
  8
0
100
AcDbCircle
 10
317.17282
 20
92.526081
 30
0.0
 40
18.0
100
AcDbArc
 50
237.266044
 51
242.733956
  0
ARC
  5
52D8
100
AcDbEntity
  8
0
100
AcDbCircle
 10
317.17282
 20
92.526081
 30
0.0
 40
18.0
100
AcDbArc
 50
297.266044
 51
302.733956
  0
ARC
  5
52D9
100
AcDbEntity
  8
0
100
AcDbCircle
 10
317.17282
 20
92.526081
 30
0.0
 40
18.0
100
AcDbArc
 50
357.266044
 51
2.733956
  0
LINE
  5
52DA
100
AcDbEntity
  8
0
100
AcDbLine
 10
441.232379
 20
218.205972
 30
0.0
 11
421.481002
 21
218.205972
 31
0.0
  0
LINE
  5
52DB
100
AcDbEntity
  8
0
100
AcDbLine
 10
441.232379
 20
182.205972
 30
0.0
 11
421.481002
 21
182.205972
 31
0.0
  0
LINE
  5
52DC
100
AcDbEntity
  8
0
100
AcDbLine
 10
387.294622
 20
142.526081
 30
0.0
 11
418.144055
 21
142.526081
 31
0.0
  0
LINE
  5
52DD
100
AcDbEntity
  8
0
100
AcDbLine
 10
364.206298
 20
93.384652
 30
0.0
 11
441.232379
 21
93.384652
 31
0.0
  0
LINE
  5
52DE
100
AcDbEntity
  8
0
100
AcDbLine
 10
364.206298
 20
91.667509
 30
0.0
 11
441.232379
 21
91.667509
 31
0.0
  0
LINE
  5
52EE
100
AcDbEntity
  8
0
100
AcDbLine
 10
412.452639
 20
141.039121
 30
0.0
 11
412.452639
 21
133.526081
 31
0.0
  0
LINE
  5
52EF
100
AcDbEntity
  8
0
100
AcDbLine
 10
410.96555
 20
141.039121
 30
0.0
 11
410.96555
 21
133.526081
 31
0.0
  0
LINE
  5
530F
100
AcDbEntity
  8
0
100
AcDbLine
 10
420.719339
 20
141.039121
 30
0.0
 11
418.144055
 21
142.526081
 31
0.0
  0
ARC
  5
5313
100
AcDbEntity
  8
0
100
AcDbCircle
 10
402.719339
 20
118.917154
 30
0.0
 40
23.608927
100
AcDbArc
 50
69.556496
 51
110.443504
  0
ARC
  5
5315
100
AcDbEntity
  8
0
100
AcDbCircle
 10
416.585989
 20
136.037799
 30
0.0
 40
6.488282
100
AcDbArc
 50
69.568104
 51
129.572077
  0
LINE
  5
5316
100
AcDbEntity
  8
0
100
AcDbLine
 10
412.452639
 20
141.039121
 30
0.0
 11
410.96555
 21
141.039121
 31
0.0
  0
ARC
  5
5317
100
AcDbEntity
  8
0
100
AcDbCircle
 10
388.852688
 20
136.037799
 30
0.0
 40
6.488282
100
AcDbArc
 50
50.427923
 51
110.431896
  0
LINE
  5
5318
100
AcDbEntity
  8
0
100
AcDbLine
 10
392.986038
 20
141.039121
 30
0.0
 11
394.473127
 21
141.039121
 31
0.0
  0
LINE
  5
5319
100
AcDbEntity
  8
0
100
AcDbLine
 10
384.719339
 20
141.039121
 30
0.0
 11
387.294622
 21
142.526081
 31
0.0
  0
ARC
  5
531A
100
AcDbEntity
  8
0
100
AcDbCircle
 10
436.231057
 20
214.072623
 30
0.0
 40
6.488282
100
AcDbArc
 50
320.427923
 51
20.431896
  0
ARC
  5
531B
100
AcDbEntity
  8
0
100
AcDbCircle
 10
419.110412
 20
200.205972
 30
0.0
 40
23.608927
100
AcDbArc
 50
339.556496
 51
20.443504
  0
ARC
  5
531C
100
AcDbEntity
  8
0
100
AcDbCircle
 10
436.231057
 20
186.339322
 30
0.0
 40
6.488282
100
AcDbArc
 50
339.568104
 51
39.572077
  0
LINE
  5
531D
100
AcDbEntity
  8
0
100
AcDbLine
 10
441.232379
 20
182.205972
 30
0.0
 11
442.719339
 21
184.781256
 31
0.0
  0
LINE
  5
531E
100
AcDbEntity
  8
0
100
AcDbLine
 10
441.232379
 20
190.472672
 30
0.0
 11
441.232379
 21
191.959761
 31
0.0
  0
LINE
  5
531F
100
AcDbEntity
  8
0
100
AcDbLine
 10
441.232379
 20
209.939273
 30
0.0
 11
441.232379
 21
208.452184
 31
0.0
  0
LINE
  5
5320
100
AcDbEntity
  8
0
100
AcDbLine
 10
441.232379
 20
218.205972
 30
0.0
 11
442.719339
 21
215.630689
 31
0.0
  0
LINE
  5
5321
100
AcDbEntity
  8
0
100
AcDbLine
 10
442.719339
 20
184.781256
 30
0.0
 11
442.719339
 21
215.630689
 31
0.0
  0
ARC
  5
532B
100
AcDbEntity
  8
0
100
AcDbCircle
 10
377.719339
 20
110.526081
 30
0.0
 40
2.0
100
AcDbArc
 50
270.0
 51
360.0
  0
ARC
  5
532C
100
AcDbEntity
  8
0
100
AcDbCircle
 10
427.719339
 20
110.526081
 30
0.0
 40
2.0
100
AcDbArc
 50
180.0
 51
270.0
  0
LINE
  5
532D
100
AcDbEntity
  8
0
100
AcDbLine
 10
427.719339
 20
108.526081
 30
0.0
 11
442.719339
 21
108.526081
 31
0.0
  0
LINE
  5
532E
100
AcDbEntity
  8
0
100
AcDbLine
 10
392.986038
 20
141.039121
 30
0.0
 11
392.986038
 21
133.526081
 31
0.0
  0
LINE
  5
532F
100
AcDbEntity
  8
0
100
AcDbLine
 10
394.473127
 20
141.039121
 30
0.0
 11
394.473127
 21
133.526081
 31
0.0
  0
LINE
  5
5330
100
AcDbEntity
  8
0
100
AcDbLine
 10
441.232379
 20
209.939273
 30
0.0
 11
426.828732
 21
209.939273
 31
0.0
  0
LINE
  5
5331
100
AcDbEntity
  8
0
100
AcDbLine
 10
441.232379
 20
208.452184
 30
0.0
 11
427.376995
 21
208.452184
 31
0.0
  0
LINE
  5
5332
100
AcDbEntity
  8
0
100
AcDbLine
 10
441.232379
 20
191.959761
 30
0.0
 11
427.376995
 21
191.959761
 31
0.0
  0
LINE
  5
5333
100
AcDbEntity
  8
0
100
AcDbLine
 10
441.232379
 20
190.472672
 30
0.0
 11
426.828732
 21
190.472672
 31
0.0
  0
LINE
  5
5334
100
AcDbEntity
  8
0
100
AcDbLine
 10
420.719339
 20
133.526081
 30
0.0
 11
420.719339
 21
141.039121
 31
0.0
  0
LINE
  5
5335
100
AcDbEntity
  8
0
100
AcDbLine
 10
384.719339
 20
133.526081
 30
0.0
 11
384.719339
 21
141.039121
 31
0.0
  0
LINE
  5
5337
100
AcDbEntity
  8
0
100
AcDbLine
 10
425.719339
 20
133.526081
 30
0.0
 11
379.719339
 21
133.526081
 31
0.0
  0
POLYLINE
  5
5338
100
AcDbEntity
  8
0
100
AcDb2dPolyline
 66
     1
 10
0.0
 20
0.0
 30
0.0
  0
VERTEX
  5
575B
100
AcDbEntity
  8
0
100
AcDbVertex
100
AcDb2dVertex
 10
392.986038
 20
215.347401
 30
0.0
  0
VERTEX
  5
575C
100
AcDbEntity
  8
0
100
AcDbVertex
100
AcDb2dVertex
 10
384.739827
 20
201.064544
 30
0.0
  0
SEQEND
  5
575D
100
AcDbEntity
  8
0
  0
POLYLINE
  5
5339
100
AcDbEntity
  8
0
100
AcDb2dPolyline
 66
     1
 10
0.0
 20
0.0
 30
0.0
  0
VERTEX
  5
575E
100
AcDbEntity
  8
0
100
AcDbVertex
100
AcDb2dVertex
 10
420.698851
 20
201.064544
 30
0.0
  0
VERTEX
  5
575F
100
AcDbEntity
  8
0
100
AcDbVertex
100
AcDb2dVertex
 10
412.452639
 20
215.347401
 30
0.0
  0
SEQEND
  5
5760
100
AcDbEntity
  8
0
  0
CIRCLE
  5
533A
100
AcDbEntity
  8
0
100
AcDbCircle
 10
402.719339
 20
200.205972
 30
0.0
 40
16.0
  0
POLYLINE
  5
533B
100
AcDbEntity
  8
0
100
AcDb2dPolyline
 66
     1
 10
0.0
 20
0.0
 30
0.0
  0
VERTEX
  5
5761
100
AcDbEntity
  8
0
100
AcDbVertex
100
AcDb2dVertex
 10
394.473127
 20
184.205972
 30
0.0
  0
VERTEX
  5
5762
100
AcDbEntity
  8
0
100
AcDbVertex
100
AcDb2dVertex
 10
410.96555
 20
184.205972
 30
0.0
  0
SEQEND
  5
5763
100
AcDbEntity
  8
0
  0
POLYLINE
  5
533C
100
AcDbEntity
  8
0
100
AcDb2dPolyline
 66
     1
 10
0.0
 20
0.0
 30
0.0
  0
VERTEX
  5
5764
100
AcDbEntity
  8
0
100
AcDbVertex
100
AcDb2dVertex
 10
384.739827
 20
199.347401
 30
0.0
  0
VERTEX
  5
5765
100
AcDbEntity
  8
0
100
AcDbVertex
100
AcDb2dVertex
 10
392.986038
 20
185.064544
 30
0.0
  0
SEQEND
  5
5766
100
AcDbEntity
  8
0
  0
ARC
  5
533D
100
AcDbEntity
  8
0
100
AcDbCircle
 10
402.719339
 20
200.205972
 30
0.0
 40
18.0
100
AcDbArc
 50
237.266044
 51
242.733956
  0
ARC
  5
533E
100
AcDbEntity
  8
0
100
AcDbCircle
 10
402.719339
 20
200.205972
 30
0.0
 40
18.0
100
AcDbArc
 50
177.266044
 51
182.733956
  0
POLYLINE
  5
533F
100
AcDbEntity
  8
0
100
AcDb2dPolyline
 66
     1
 10
0.0
 20
0.0
 30
0.0
  0
VERTEX
  5
5767
100
AcDbEntity
  8
0
100
AcDbVertex
100
AcDb2dVertex
 10
412.452639
 20
185.064544
 30
0.0
  0
VERTEX
  5
5768
100
AcDbEntity
  8
0
100
AcDbVertex
100
AcDb2dVertex
 10
420.698851
 20
199.347401
 30
0.0
  0
SEQEND
  5
5769
100
AcDbEntity
  8
0
  0
ARC
  5
5340
100
AcDbEntity
  8
0
100
AcDbCircle
 10
402.719339
 20
200.205972
 30
0.0
 40
18.0
100
AcDbArc
 50
297.266044
 51
302.733956
  0
ARC
  5
5341
100
AcDbEntity
  8
0
100
AcDbCircle
 10
402.719339
 20
200.205972
 30
0.0
 40
18.0
100
AcDbArc
 50
357.266044
 51
2.733956
  0
POLYLINE
  5
5342
100
AcDbEntity
  8
0
100
AcDb2dPolyline
 66
     1
 10
0.0
 20
0.0
 30
0.0
  0
VERTEX
  5
576A
100
AcDbEntity
  8
0
100
AcDbVertex
100
AcDb2dVertex
 10
410.96555
 20
216.205972
 30
0.0
  0
VERTEX
  5
576B
100
AcDbEntity
  8
0
100
AcDbVertex
100
AcDb2dVertex
 10
394.473127
 20
216.205972
 30
0.0
  0
SEQEND
  5
576C
100
AcDbEntity
  8
0
  0
ARC
  5
5343
100
AcDbEntity
  8
0
100
AcDbCircle
 10
402.719339
 20
200.205972
 30
0.0
 40
18.0
100
AcDbArc
 50
117.266044
 51
122.733956
  0
ARC
  5
5344
100
AcDbEntity
  8
0
100
AcDbCircle
 10
402.719339
 20
200.205972
 30
0.0
 40
18.0
100
AcDbArc
 50
57.266044
 51
62.733956
  0
LINE
  5
5345
100
AcDbEntity
  8
0
100
AcDbLine
 10
362.719339
 20
184.781256
 30
0.0
 11
362.719339
 21
215.630689
 31
0.0
  0
ARC
  5
5346
100
AcDbEntity
  8
0
100
AcDbCircle
 10
369.20762
 20
214.072623
 30
0.0
 40
6.488282
100
AcDbArc
 50
159.568104
 51
219.572077
  0
LINE
  5
5347
100
AcDbEntity
  8
0
100
AcDbLine
 10
364.206298
 20
182.205972
 30
0.0
 11
383.957676
 21
182.205972
 31
0.0
  0
LINE
  5
5348
100
AcDbEntity
  8
0
100
AcDbLine
 10
364.206298
 20
190.472672
 30
0.0
 11
378.609945
 21
190.472672
 31
0.0
  0
LINE
  5
5349
100
AcDbEntity
  8
0
100
AcDbLine
 10
364.206298
 20
191.959761
 30
0.0
 11
378.061683
 21
191.959761
 31
0.0
  0
LINE
  5
534A
100
AcDbEntity
  8
0
100
AcDbLine
 10
364.206298
 20
208.452184
 30
0.0
 11
378.061683
 21
208.452184
 31
0.0
  0
LINE
  5
534B
100
AcDbEntity
  8
0
100
AcDbLine
 10
364.206298
 20
209.939273
 30
0.0
 11
378.609945
 21
209.939273
 31
0.0
  0
ARC
  5
534C
100
AcDbEntity
  8
0
100
AcDbCircle
 10
386.328266
 20
200.205972
 30
0.0
 40
23.608927
100
AcDbArc
 50
159.556496
 51
200.443504
  0
ARC
  5
534D
100
AcDbEntity
  8
0
100
AcDbCircle
 10
369.20762
 20
186.339322
 30
0.0
 40
6.488282
100
AcDbArc
 50
140.427923
 51
200.431896
  0
LINE
  5
534E
100
AcDbEntity
  8
0
100
AcDbLine
 10
364.206298
 20
182.205972
 30
0.0
 11
362.719339
 21
184.781256
 31
0.0
  0
LINE
  5
534F
100
AcDbEntity
  8
0
100
AcDbLine
 10
364.206298
 20
190.472672
 30
0.0
 11
364.206298
 21
191.959761
 31
0.0
  0
LINE
  5
5350
100
AcDbEntity
  8
0
100
AcDbLine
 10
364.206298
 20
209.939273
 30
0.0
 11
364.206298
 21
208.452184
 31
0.0
  0
LINE
  5
5351
100
AcDbEntity
  8
0
100
AcDbLine
 10
364.206298
 20
218.205972
 30
0.0
 11
383.957676
 21
218.205972
 31
0.0
  0
LINE
  5
5352
100
AcDbEntity
  8
0
100
AcDbLine
 10
364.206298
 20
218.205972
 30
0.0
 11
362.719339
 21
215.630689
 31
0.0
  0
LINE
  5
5353
100
AcDbEntity
  8
0
100
AcDbLine
 10
301.17282
 20
142.526081
 30
0.0
 11
333.17282
 21
142.526081
 31
0.0
  0
LINE
  5
5354
100
AcDbEntity
  8
0
100
AcDbLine
 10
340.17282
 20
133.526081
 30
0.0
 11
294.17282
 21
133.526081
 31
0.0
  0
LINE
  5
5355
100
AcDbEntity
  8
0
100
AcDbLine
 10
342.17282
 20
127.526081
 30
0.0
 11
292.17282
 21
127.526081
 31
0.0
  0
LINE
  5
5356
100
AcDbEntity
  8
0
100
AcDbLine
 10
342.224007
 20
125.526081
 30
0.0
 11
292.121634
 21
125.526081
 31
0.0
  0
LINE
  5
5357
100
AcDbEntity
  8
0
100
AcDbLine
 10
291.17282
 20
117.517231
 30
0.0
 11
291.17282
 21
124.577268
 31
0.0
  0
LINE
  5
5358
100
AcDbEntity
  8
0
100
AcDbLine
 10
294.163971
 20
114.526081
 30
0.0
 11
291.17282
 21
117.517231
 31
0.0
  0
LINE
  5
5359
100
AcDbEntity
  8
0
100
AcDbLine
 10
292.17282
 20
125.526081
 30
0.0
 11
292.17282
 21
131.526081
 31
0.0
  0
LINE
  5
535A
100
AcDbEntity
  8
0
100
AcDbLine
 10
292.121634
 20
125.526081
 30
0.0
 11
291.17282
 21
124.577268
 31
0.0
  0
LINE
  5
535B
100
AcDbEntity
  8
0
100
AcDbLine
 10
294.17282
 20
105.026081
 30
0.0
 11
294.17282
 21
114.526081
 31
0.0
  0
LINE
  5
535C
100
AcDbEntity
  8
0
100
AcDbLine
 10
340.18167
 20
114.526081
 30
0.0
 11
294.163971
 21
114.526081
 31
0.0
  0
LINE
  5
535D
100
AcDbEntity
  8
0
100
AcDbLine
 10
343.17282
 20
117.517231
 30
0.0
 11
343.17282
 21
124.577268
 31
0.0
  0
LINE
  5
535E
100
AcDbEntity
  8
0
100
AcDbLine
 10
340.18167
 20
114.526081
 30
0.0
 11
343.17282
 21
117.517231
 31
0.0
  0
LINE
  5
535F
100
AcDbEntity
  8
0
100
AcDbLine
 10
342.224007
 20
125.526081
 30
0.0
 11
343.17282
 21
124.577268
 31
0.0
  0
LINE
  5
5360
100
AcDbEntity
  8
0
100
AcDbLine
 10
342.17282
 20
125.526081
 30
0.0
 11
342.17282
 21
131.526081
 31
0.0
  0
LINE
  5
5361
100
AcDbEntity
  8
0
100
AcDbLine
 10
340.17282
 20
105.026081
 30
0.0
 11
328.431151
 21
105.026081
 31
0.0
  0
LINE
  5
5362
100
AcDbEntity
  8
0
100
AcDbLine
 10
333.17282
 20
142.526081
 30
0.0
 11
333.17282
 21
133.526081
 31
0.0
  0
LINE
  5
5363
100
AcDbEntity
  8
0
100
AcDbLine
 10
318.031392
 20
141.039121
 30
0.0
 11
318.031392
 21
133.526081
 31
0.0
  0
LINE
  5
5364
100
AcDbEntity
  8
0
100
AcDbLine
 10
332.314249
 20
141.039121
 30
0.0
 11
332.314249
 21
133.526081
 31
0.0
  0
LINE
  5
5365
100
AcDbEntity
  8
0
100
AcDbLine
 10
333.17282
 20
141.039121
 30
0.0
 11
332.314249
 21
141.039121
 31
0.0
  0
ARC
  5
5366
100
AcDbEntity
  8
0
100
AcDbCircle
 10
325.17282
 20
124.633516
 30
0.0
 40
17.892565
100
AcDbArc
 50
66.476307
 51
113.523693
  0
LINE
  5
5367
100
AcDbEntity
  8
0
100
AcDbLine
 10
301.17282
 20
142.526081
 30
0.0
 11
301.17282
 21
133.526081
 31
0.0
  0
LINE
  5
5368
100
AcDbEntity
  8
0
100
AcDbLine
 10
302.031392
 20
141.039121
 30
0.0
 11
302.031392
 21
133.526081
 31
0.0
  0
LINE
  5
5369
100
AcDbEntity
  8
0
100
AcDbLine
 10
316.314249
 20
141.039121
 30
0.0
 11
316.314249
 21
133.526081
 31
0.0
  0
ARC
  5
536B
100
AcDbEntity
  8
0
100
AcDbCircle
 10
309.17282
 20
124.633516
 30
0.0
 40
17.892565
100
AcDbArc
 50
66.476307
 51
113.523693
  0
LINE
  5
536C
100
AcDbEntity
  8
0
100
AcDbLine
 10
301.17282
 20
141.039121
 30
0.0
 11
302.031392
 21
141.039121
 31
0.0
  0
LINE
  5
536D
100
AcDbEntity
  8
0
100
AcDbLine
 10
318.031392
 20
141.039121
 30
0.0
 11
316.314249
 21
141.039121
 31
0.0
  0
LINE
  5
536E
100
AcDbEntity
  8
0
100
AcDbLine
 10
340.17282
 20
105.026081
 30
0.0
 11
340.17282
 21
114.526081
 31
0.0
  0
LINE
  5
536F
100
AcDbEntity
  8
0
100
AcDbLine
 10
294.17282
 20
105.026081
 30
0.0
 11
297.204066
 21
96.36538
 31
0.0
  0
ARC
  5
5371
100
AcDbEntity
  8
0
100
AcDbCircle
 10
335.253858
 20
97.026081
 30
0.0
 40
2.0
100
AcDbArc
 50
270.0
 51
340.709954
  0
ARC
  5
5372
100
AcDbEntity
  8
0
100
AcDbCircle
 10
299.091782
 20
97.026081
 30
0.0
 40
2.0
100
AcDbArc
 50
199.290046
 51
270.0
  0
LINE
  5
5373
100
AcDbEntity
  8
0
100
AcDbLine
 10
299.091782
 20
95.026081
 30
0.0
 11
300.140988
 21
95.026081
 31
0.0
  0
LINE
  5
5374
100
AcDbEntity
  8
0
100
AcDbLine
 10
334.204653
 20
95.026081
 30
0.0
 11
335.253858
 21
95.026081
 31
0.0
  0
LINE
  5
5378
100
AcDbEntity
  8
0
100
AcDbLine
 10
305.91449
 20
105.026081
 30
0.0
 11
294.17282
 21
105.026081
 31
0.0
  0
ARC
  5
5379
100
AcDbEntity
  8
0
100
AcDbCircle
 10
466.968425
 20
124.633516
 30
0.0
 40
17.892565
100
AcDbArc
 50
66.476307
 51
113.523693
  0
LINE
  5
537A
100
AcDbEntity
  8
0
100
AcDbLine
 10
490.968425
 20
142.526081
 30
0.0
 11
458.968425
 21
142.526081
 31
0.0
  0
LINE
  5
537B
100
AcDbEntity
  8
0
100
AcDbLine
 10
451.959575
 20
114.526081
 30
0.0
 11
497.977275
 21
114.526081
 31
0.0
  0
LINE
  5
537C
100
AcDbEntity
  8
0
100
AcDbLine
 10
449.917238
 20
125.526081
 30
0.0
 11
500.019612
 21
125.526081
 31
0.0
  0
LINE
  5
537D
100
AcDbEntity
  8
0
100
AcDbLine
 10
449.968425
 20
127.526081
 30
0.0
 11
499.968425
 21
127.526081
 31
0.0
  0
LINE
  5
537E
100
AcDbEntity
  8
0
100
AcDbLine
 10
451.968425
 20
133.526081
 30
0.0
 11
497.968425
 21
133.526081
 31
0.0
  0
POLYLINE
  5
537F
100
AcDbEntity
  8
0
100
AcDb2dPolyline
 66
     1
 10
0.0
 20
0.0
 30
0.0
  0
VERTEX
  5
576D
100
AcDbEntity
  8
0
100
AcDbVertex
100
AcDb2dVertex
 10
466.722214
 20
108.526081
 30
0.0
  0
VERTEX
  5
576E
100
AcDbEntity
  8
0
100
AcDbVertex
100
AcDb2dVertex
 10
483.214636
 20
108.526081
 30
0.0
  0
SEQEND
  5
576F
100
AcDbEntity
  8
0
  0
POLYLINE
  5
5380
100
AcDbEntity
  8
0
100
AcDb2dPolyline
 66
     1
 10
0.0
 20
0.0
 30
0.0
  0
VERTEX
  5
5770
100
AcDbEntity
  8
0
100
AcDbVertex
100
AcDb2dVertex
 10
483.214636
 20
76.526081
 30
0.0
  0
VERTEX
  5
5771
100
AcDbEntity
  8
0
100
AcDbVertex
100
AcDb2dVertex
 10
466.722214
 20
76.526081
 30
0.0
  0
SEQEND
  5
5772
100
AcDbEntity
  8
0
  0
CIRCLE
  5
5381
100
AcDbEntity
  8
0
100
AcDbCircle
 10
474.968425
 20
92.526081
 30
0.0
 40
16.0
  0
LINE
  5
5382
100
AcDbEntity
  8
0
100
AcDbLine
 10
497.968425
 20
105.026081
 30
0.0
 11
494.93718
 21
96.36538
 31
0.0
  0
POLYLINE
  5
5383
100
AcDbEntity
  8
0
100
AcDb2dPolyline
 66
     1
 10
0.0
 20
0.0
 30
0.0
  0
VERTEX
  5
5773
100
AcDbEntity
  8
0
100
AcDbVertex
100
AcDb2dVertex
 10
484.701726
 20
107.667509
 30
0.0
  0
VERTEX
  5
5774
100
AcDbEntity
  8
0
100
AcDbVertex
100
AcDb2dVertex
 10
492.947937
 20
93.384652
 30
0.0
  0
SEQEND
  5
5775
100
AcDbEntity
  8
0
  0
POLYLINE
  5
5384
100
AcDbEntity
  8
0
100
AcDb2dPolyline
 66
     1
 10
0.0
 20
0.0
 30
0.0
  0
VERTEX
  5
5776
100
AcDbEntity
  8
0
100
AcDbVertex
100
AcDb2dVertex
 10
492.947937
 20
91.667509
 30
0.0
  0
VERTEX
  5
5777
100
AcDbEntity
  8
0
100
AcDbVertex
100
AcDb2dVertex
 10
484.701726
 20
77.384652
 30
0.0
  0
SEQEND
  5
5778
100
AcDbEntity
  8
0
  0
ARC
  5
5385
100
AcDbEntity
  8
0
100
AcDbCircle
 10
474.968425
 20
92.526081
 30
0.0
 40
18.0
100
AcDbArc
 50
297.266044
 51
302.733956
  0
LINE
  5
5386
100
AcDbEntity
  8
0
100
AcDbLine
 10
493.049463
 20
95.026081
 30
0.0
 11
492.000258
 21
95.026081
 31
0.0
  0
ARC
  5
5387
100
AcDbEntity
  8
0
100
AcDbCircle
 10
493.049463
 20
97.026081
 30
0.0
 40
2.0
100
AcDbArc
 50
270.0
 51
340.709954
  0
ARC
  5
5388
100
AcDbEntity
  8
0
100
AcDbCircle
 10
474.968425
 20
92.526081
 30
0.0
 40
18.0
100
AcDbArc
 50
357.266044
 51
2.733956
  0
LINE
  5
538A
100
AcDbEntity
  8
0
100
AcDbLine
 10
474.109853
 20
141.039121
 30
0.0
 11
474.109853
 21
133.526081
 31
0.0
  0
LINE
  5
538B
100
AcDbEntity
  8
0
100
AcDbLine
 10
475.826996
 20
141.039121
 30
0.0
 11
475.826996
 21
133.526081
 31
0.0
  0
LINE
  5
538C
100
AcDbEntity
  8
0
100
AcDbLine
 10
490.968425
 20
142.526081
 30
0.0
 11
490.968425
 21
133.526081
 31
0.0
  0
LINE
  5
538D
100
AcDbEntity
  8
0
100
AcDbLine
 10
490.109853
 20
141.039121
 30
0.0
 11
490.109853
 21
133.526081
 31
0.0
  0
LINE
  5
538E
100
AcDbEntity
  8
0
100
AcDbLine
 10
486.226755
 20
105.026081
 30
0.0
 11
497.968425
 21
105.026081
 31
0.0
  0
LINE
  5
538F
100
AcDbEntity
  8
0
100
AcDbLine
 10
497.977275
 20
114.526081
 30
0.0
 11
500.968425
 21
117.517231
 31
0.0
  0
LINE
  5
5390
100
AcDbEntity
  8
0
100
AcDbLine
 10
497.968425
 20
105.026081
 30
0.0
 11
497.968425
 21
114.526081
 31
0.0
  0
LINE
  5
5391
100
AcDbEntity
  8
0
100
AcDbLine
 10
499.968425
 20
125.526081
 30
0.0
 11
499.968425
 21
131.526081
 31
0.0
  0
LINE
  5
5392
100
AcDbEntity
  8
0
100
AcDbLine
 10
500.019612
 20
125.526081
 30
0.0
 11
500.968425
 21
124.577268
 31
0.0
  0
LINE
  5
5393
100
AcDbEntity
  8
0
100
AcDbLine
 10
500.968425
 20
117.517231
 30
0.0
 11
500.968425
 21
124.577268
 31
0.0
  0
ARC
  5
5394
100
AcDbEntity
  8
0
100
AcDbCircle
 10
474.968425
 20
92.526081
 30
0.0
 40
18.0
100
AcDbArc
 50
57.266044
 51
62.733956
  0
ARC
  5
5395
100
AcDbEntity
  8
0
100
AcDbCircle
 10
482.968425
 20
124.633516
 30
0.0
 40
17.892565
100
AcDbArc
 50
66.476307
 51
113.523693
  0
LINE
  5
5396
100
AcDbEntity
  8
0
100
AcDbLine
 10
490.968425
 20
141.039121
 30
0.0
 11
490.109853
 21
141.039121
 31
0.0
  0
LINE
  5
5397
100
AcDbEntity
  8
0
100
AcDbLine
 10
474.109853
 20
141.039121
 30
0.0
 11
475.826996
 21
141.039121
 31
0.0
  0
LINE
  5
5398
100
AcDbEntity
  8
0
100
AcDbLine
 10
451.968425
 20
105.026081
 30
0.0
 11
454.99967
 21
96.36538
 31
0.0
  0
POLYLINE
  5
5399
100
AcDbEntity
  8
0
100
AcDb2dPolyline
 66
     1
 10
0.0
 20
0.0
 30
0.0
  0
VERTEX
  5
5779
100
AcDbEntity
  8
0
100
AcDbVertex
100
AcDb2dVertex
 10
456.988913
 20
93.384652
 30
0.0
  0
VERTEX
  5
577A
100
AcDbEntity
  8
0
100
AcDbVertex
100
AcDb2dVertex
 10
465.235124
 20
107.667509
 30
0.0
  0
SEQEND
  5
577B
100
AcDbEntity
  8
0
  0
POLYLINE
  5
539A
100
AcDbEntity
  8
0
100
AcDb2dPolyline
 66
     1
 10
0.0
 20
0.0
 30
0.0
  0
VERTEX
  5
577C
100
AcDbEntity
  8
0
100
AcDbVertex
100
AcDb2dVertex
 10
465.235124
 20
77.384652
 30
0.0
  0
VERTEX
  5
577D
100
AcDbEntity
  8
0
100
AcDbVertex
100
AcDb2dVertex
 10
456.988913
 20
91.667509
 30
0.0
  0
SEQEND
  5
577E
100
AcDbEntity
  8
0
  0
ARC
  5
539B
100
AcDbEntity
  8
0
100
AcDbCircle
 10
474.968425
 20
92.526081
 30
0.0
 40
18.0
100
AcDbArc
 50
237.266044
 51
242.733956
  0
LINE
  5
539D
100
AcDbEntity
  8
0
100
AcDbLine
 10
457.936592
 20
95.026081
 30
0.0
 11
456.887387
 21
95.026081
 31
0.0
  0
ARC
  5
539E
100
AcDbEntity
  8
0
100
AcDbCircle
 10
456.887387
 20
97.026081
 30
0.0
 40
2.0
100
AcDbArc
 50
199.290046
 51
270.0
  0
ARC
  5
539F
100
AcDbEntity
  8
0
100
AcDbCircle
 10
474.968425
 20
92.526081
 30
0.0
 40
18.0
100
AcDbArc
 50
177.266044
 51
182.733956
  0
LINE
  5
53A0
100
AcDbEntity
  8
0
100
AcDbLine
 10
458.968425
 20
142.526081
 30
0.0
 11
458.968425
 21
133.526081
 31
0.0
  0
LINE
  5
53A1
100
AcDbEntity
  8
0
100
AcDbLine
 10
459.826996
 20
141.039121
 30
0.0
 11
459.826996
 21
133.526081
 31
0.0
  0
LINE
  5
53A2
100
AcDbEntity
  8
0
100
AcDbLine
 10
451.959575
 20
114.526081
 30
0.0
 11
448.968425
 21
117.517231
 31
0.0
  0
LINE
  5
53A3
100
AcDbEntity
  8
0
100
AcDbLine
 10
451.968425
 20
105.026081
 30
0.0
 11
463.710095
 21
105.026081
 31
0.0
  0
ARC
  5
53A4
100
AcDbEntity
  8
0
100
AcDbCircle
 10
474.968425
 20
92.526081
 30
0.0
 40
18.0
100
AcDbArc
 50
117.266044
 51
122.733956
  0
LINE
  5
53A5
100
AcDbEntity
  8
0
100
AcDbLine
 10
451.968425
 20
105.026081
 30
0.0
 11
451.968425
 21
114.526081
 31
0.0
  0
LINE
  5
53A6
100
AcDbEntity
  8
0
100
AcDbLine
 10
449.968425
 20
125.526081
 30
0.0
 11
449.968425
 21
131.526081
 31
0.0
  0
LINE
  5
53A7
100
AcDbEntity
  8
0
100
AcDbLine
 10
449.917238
 20
125.526081
 30
0.0
 11
448.968425
 21
124.577268
 31
0.0
  0
LINE
  5
53A8
100
AcDbEntity
  8
0
100
AcDbLine
 10
448.968425
 20
117.517231
 30
0.0
 11
448.968425
 21
124.577268
 31
0.0
  0
LINE
  5
53A9
100
AcDbEntity
  8
0
100
AcDbLine
 10
458.968425
 20
141.039121
 30
0.0
 11
459.826996
 21
141.039121
 31
0.0
  0
LINE
  5
53AB
100
AcDbEntity
  8
0
100
AcDbLine
 10
384.719339
 20
324.825005
 30
0.0
 11
387.294622
 21
326.311964
 31
0.0
  0
ARC
  5
53AC
100
AcDbEntity
  8
0
100
AcDbCircle
 10
388.852688
 20
319.823682
 30
0.0
 40
6.488282
100
AcDbArc
 50
50.427923
 51
110.431896
  0
LINE
  5
53AD
100
AcDbEntity
  8
0
100
AcDbLine
 10
379.719339
 20
317.311964
 30
0.0
 11
425.719339
 21
317.311964
 31
0.0
  0
LINE
  5
53AE
100
AcDbEntity
  8
0
100
AcDbLine
 10
377.719339
 20
311.311964
 30
0.0
 11
427.719339
 21
311.311964
 31
0.0
  0
LINE
  5
53AF
100
AcDbEntity
  8
0
100
AcDbLine
 10
384.638301
 20
278.811964
 30
0.0
 11
420.800377
 21
278.811964
 31
0.0
  0
LINE
  5
53B0
100
AcDbEntity
  8
0
100
AcDbLine
 10
379.710489
 20
298.311964
 30
0.0
 11
425.728188
 21
298.311964
 31
0.0
  0
LINE
  5
53B1
100
AcDbEntity
  8
0
100
AcDbLine
 10
377.668152
 20
309.311964
 30
0.0
 11
427.770525
 21
309.311964
 31
0.0
  0
LINE
  5
53B2
100
AcDbEntity
  8
0
100
AcDbLine
 10
379.719339
 20
288.811964
 30
0.0
 11
425.719339
 21
288.811964
 31
0.0
  0
LINE
  5
53B3
100
AcDbEntity
  8
0
100
AcDbLine
 10
441.232379
 20
275.453393
 30
0.0
 11
364.206298
 21
275.453393
 31
0.0
  0
LINE
  5
53B4
100
AcDbEntity
  8
0
100
AcDbLine
 10
441.232379
 20
277.170536
 30
0.0
 11
364.206298
 21
277.170536
 31
0.0
  0
LINE
  5
53B5
100
AcDbEntity
  8
0
100
AcDbLine
 10
362.719339
 20
260.311964
 30
0.0
 11
442.719339
 21
260.311964
 31
0.0
  0
LINE
  5
53B6
100
AcDbEntity
  8
0
100
AcDbLine
 10
425.719339
 20
288.811964
 30
0.0
 11
422.688093
 21
280.151263
 31
0.0
  0
INSERT
  5
53BA
100
AcDbEntity
  8
0
100
AcDbBlockReference
  2
YA
 10
445.969339
 20
276.311614
 30
0.0
 41
-0.514084
 42
0.514084
 43
0.514084
  0
ARC
  5
53BC
100
AcDbEntity
  8
0
100
AcDbCircle
 10
420.800377
 20
280.811964
 30
0.0
 40
2.0
100
AcDbArc
 50
270.0
 51
340.709954
  0
LINE
  5
53BD
100
AcDbEntity
  8
0
100
AcDbLine
 10
427.719339
 20
292.311964
 30
0.0
 11
442.719339
 21
292.311964
 31
0.0
  0
LINE
  5
53BE
100
AcDbEntity
  8
0
100
AcDbLine
 10
392.986038
 20
324.825005
 30
0.0
 11
392.986038
 21
317.311964
 31
0.0
  0
LINE
  5
53BF
100
AcDbEntity
  8
0
100
AcDbLine
 10
394.473127
 20
324.825005
 30
0.0
 11
394.473127
 21
317.311964
 31
0.0
  0
LINE
  5
53C0
100
AcDbEntity
  8
0
100
AcDbLine
 10
412.452639
 20
324.825005
 30
0.0
 11
412.452639
 21
317.311964
 31
0.0
  0
LINE
  5
53C1
100
AcDbEntity
  8
0
100
AcDbLine
 10
410.96555
 20
324.825005
 30
0.0
 11
410.96555
 21
317.311964
 31
0.0
  0
LINE
  5
53C2
100
AcDbEntity
  8
0
100
AcDbLine
 10
420.719339
 20
317.311964
 30
0.0
 11
420.719339
 21
324.825005
 31
0.0
  0
LINE
  5
53C3
100
AcDbEntity
  8
0
100
AcDbLine
 10
425.728188
 20
298.311964
 30
0.0
 11
428.719339
 21
301.303114
 31
0.0
  0
LINE
  5
53C4
100
AcDbEntity
  8
0
100
AcDbLine
 10
425.719339
 20
288.811964
 30
0.0
 11
425.719339
 21
298.311964
 31
0.0
  0
ARC
  5
53C5
100
AcDbEntity
  8
0
100
AcDbCircle
 10
427.719339
 20
294.311964
 30
0.0
 40
2.0
100
AcDbArc
 50
180.0
 51
270.0
  0
LINE
  5
53C6
100
AcDbEntity
  8
0
100
AcDbLine
 10
427.719339
 20
309.311964
 30
0.0
 11
427.719339
 21
315.311964
 31
0.0
  0
LINE
  5
53C7
100
AcDbEntity
  8
0
100
AcDbLine
 10
427.770525
 20
309.311964
 30
0.0
 11
428.719339
 21
308.363151
 31
0.0
  0
LINE
  5
53C8
100
AcDbEntity
  8
0
100
AcDbLine
 10
428.719339
 20
301.303114
 30
0.0
 11
428.719339
 21
308.363151
 31
0.0
  0
LINE
  5
53C9
100
AcDbEntity
  8
0
100
AcDbLine
 10
412.452639
 20
324.825005
 30
0.0
 11
410.96555
 21
324.825005
 31
0.0
  0
LINE
  5
53CA
100
AcDbEntity
  8
0
100
AcDbLine
 10
418.144055
 20
326.311964
 30
0.0
 11
387.294622
 21
326.311964
 31
0.0
  0
ARC
  5
53CB
100
AcDbEntity
  8
0
100
AcDbCircle
 10
416.585989
 20
319.823682
 30
0.0
 40
6.488282
100
AcDbArc
 50
69.568104
 51
129.572077
  0
LINE
  5
53CC
100
AcDbEntity
  8
0
100
AcDbLine
 10
420.719339
 20
324.825005
 30
0.0
 11
418.144055
 21
326.311964
 31
0.0
  0
ARC
  5
53CD
100
AcDbEntity
  8
0
100
AcDbCircle
 10
402.719339
 20
302.703037
 30
0.0
 40
23.608927
100
AcDbArc
 50
69.556496
 51
110.443504
  0
LINE
  5
53CE
100
AcDbEntity
  8
0
100
AcDbLine
 10
392.986038
 20
324.825005
 30
0.0
 11
394.473127
 21
324.825005
 31
0.0
  0
LINE
  5
53D1
100
AcDbEntity
  8
0
100
AcDbLine
 10
379.719339
 20
288.811964
 30
0.0
 11
382.750584
 21
280.151263
 31
0.0
  0
ARC
  5
53D3
100
AcDbEntity
  8
0
100
AcDbCircle
 10
384.638301
 20
280.811964
 30
0.0
 40
2.0
100
AcDbArc
 50
199.290046
 51
270.0
  0
LINE
  5
53D5
100
AcDbEntity
  8
0
100
AcDbLine
 10
384.719339
 20
317.311964
 30
0.0
 11
384.719339
 21
324.825005
 31
0.0
  0
LINE
  5
53D6
100
AcDbEntity
  8
0
100
AcDbLine
 10
379.710489
 20
298.311964
 30
0.0
 11
376.719339
 21
301.303114
 31
0.0
  0
LINE
  5
53D7
100
AcDbEntity
  8
0
100
AcDbLine
 10
377.719339
 20
292.311964
 30
0.0
 11
362.719339
 21
292.311964
 31
0.0
  0
LINE
  5
53D8
100
AcDbEntity
  8
0
100
AcDbLine
 10
379.719339
 20
288.811964
 30
0.0
 11
379.719339
 21
298.311964
 31
0.0
  0
ARC
  5
53D9
100
AcDbEntity
  8
0
100
AcDbCircle
 10
377.719339
 20
294.311964
 30
0.0
 40
2.0
100
AcDbArc
 50
270.0
 51
360.0
  0
LINE
  5
53DA
100
AcDbEntity
  8
0
100
AcDbLine
 10
377.719339
 20
309.311964
 30
0.0
 11
377.719339
 21
315.311964
 31
0.0
  0
LINE
  5
53DB
100
AcDbEntity
  8
0
100
AcDbLine
 10
377.668152
 20
309.311964
 30
0.0
 11
376.719339
 21
308.363151
 31
0.0
  0
LINE
  5
53DC
100
AcDbEntity
  8
0
100
AcDbLine
 10
376.719339
 20
301.303114
 30
0.0
 11
376.719339
 21
308.363151
 31
0.0
  0
ARC
  5
53E0
100
AcDbEntity
  8
0
100
AcDbCircle
 10
93.132638
 20
124.633516
 30
0.0
 40
17.892565
100
AcDbArc
 50
66.476307
 51
113.523693
  0
LINE
  5
53E1
100
AcDbEntity
  8
0
100
AcDbLine
 10
69.132638
 20
142.526081
 30
0.0
 11
101.132638
 21
142.526081
 31
0.0
  0
LINE
  5
53E2
100
AcDbEntity
  8
0
100
AcDbLine
 10
108.141488
 20
114.526081
 30
0.0
 11
62.123788
 21
114.526081
 31
0.0
  0
LINE
  5
53E3
100
AcDbEntity
  8
0
100
AcDbLine
 10
110.183824
 20
125.526081
 30
0.0
 11
60.081451
 21
125.526081
 31
0.0
  0
LINE
  5
53E4
100
AcDbEntity
  8
0
100
AcDbLine
 10
110.132638
 20
127.526081
 30
0.0
 11
60.132638
 21
127.526081
 31
0.0
  0
LINE
  5
53E5
100
AcDbEntity
  8
0
100
AcDbLine
 10
108.132638
 20
133.526081
 30
0.0
 11
62.132638
 21
133.526081
 31
0.0
  0
POLYLINE
  5
53E6
100
AcDbEntity
  8
0
100
AcDb2dPolyline
 66
     1
 10
0.0
 20
0.0
 30
0.0
  0
VERTEX
  5
577F
100
AcDbEntity
  8
0
100
AcDbVertex
100
AcDb2dVertex
 10
93.378849
 20
108.526081
 30
0.0
  0
VERTEX
  5
5780
100
AcDbEntity
  8
0
100
AcDbVertex
100
AcDb2dVertex
 10
76.886426
 20
108.526081
 30
0.0
  0
SEQEND
  5
5781
100
AcDbEntity
  8
0
  0
POLYLINE
  5
53E7
100
AcDbEntity
  8
0
100
AcDb2dPolyline
 66
     1
 10
0.0
 20
0.0
 30
0.0
  0
VERTEX
  5
5782
100
AcDbEntity
  8
0
100
AcDbVertex
100
AcDb2dVertex
 10
76.886426
 20
76.526081
 30
0.0
  0
VERTEX
  5
5783
100
AcDbEntity
  8
0
100
AcDbVertex
100
AcDb2dVertex
 10
93.378849
 20
76.526081
 30
0.0
  0
SEQEND
  5
5784
100
AcDbEntity
  8
0
  0
CIRCLE
  5
53E8
100
AcDbEntity
  8
0
100
AcDbCircle
 10
85.132638
 20
92.526081
 30
0.0
 40
16.0
  0
LINE
  5
53E9
100
AcDbEntity
  8
0
100
AcDbLine
 10
62.132638
 20
105.026081
 30
0.0
 11
65.163883
 21
96.36538
 31
0.0
  0
POLYLINE
  5
53EA
100
AcDbEntity
  8
0
100
AcDb2dPolyline
 66
     1
 10
0.0
 20
0.0
 30
0.0
  0
VERTEX
  5
5785
100
AcDbEntity
  8
0
100
AcDbVertex
100
AcDb2dVertex
 10
75.399337
 20
107.667509
 30
0.0
  0
VERTEX
  5
5786
100
AcDbEntity
  8
0
100
AcDbVertex
100
AcDb2dVertex
 10
67.153126
 20
93.384652
 30
0.0
  0
SEQEND
  5
5787
100
AcDbEntity
  8
0
  0
POLYLINE
  5
53EB
100
AcDbEntity
  8
0
100
AcDb2dPolyline
 66
     1
 10
0.0
 20
0.0
 30
0.0
  0
VERTEX
  5
5788
100
AcDbEntity
  8
0
100
AcDbVertex
100
AcDb2dVertex
 10
67.153126
 20
91.667509
 30
0.0
  0
VERTEX
  5
5789
100
AcDbEntity
  8
0
100
AcDbVertex
100
AcDb2dVertex
 10
75.399337
 20
77.384652
 30
0.0
  0
SEQEND
  5
578A
100
AcDbEntity
  8
0
  0
ARC
  5
53EC
100
AcDbEntity
  8
0
100
AcDbCircle
 10
85.132638
 20
92.526081
 30
0.0
 40
18.0
100
AcDbArc
 50
237.266044
 51
242.733956
  0
LINE
  5
53ED
100
AcDbEntity
  8
0
100
AcDbLine
 10
67.0516
 20
95.026081
 30
0.0
 11
68.100805
 21
95.026081
 31
0.0
  0
ARC
  5
53EE
100
AcDbEntity
  8
0
100
AcDbCircle
 10
67.0516
 20
97.026081
 30
0.0
 40
2.0
100
AcDbArc
 50
199.290046
 51
270.0
  0
ARC
  5
53EF
100
AcDbEntity
  8
0
100
AcDbCircle
 10
85.132638
 20
92.526081
 30
0.0
 40
18.0
100
AcDbArc
 50
177.266044
 51
182.733956
  0
LINE
  5
53F1
100
AcDbEntity
  8
0
100
AcDbLine
 10
85.991209
 20
141.039121
 30
0.0
 11
85.991209
 21
133.526081
 31
0.0
  0
LINE
  5
53F2
100
AcDbEntity
  8
0
100
AcDbLine
 10
84.274066
 20
141.039121
 30
0.0
 11
84.274066
 21
133.526081
 31
0.0
  0
LINE
  5
53F3
100
AcDbEntity
  8
0
100
AcDbLine
 10
69.132638
 20
142.526081
 30
0.0
 11
69.132638
 21
133.526081
 31
0.0
  0
LINE
  5
53F4
100
AcDbEntity
  8
0
100
AcDbLine
 10
69.991209
 20
141.039121
 30
0.0
 11
69.991209
 21
133.526081
 31
0.0
  0
LINE
  5
53F5
100
AcDbEntity
  8
0
100
AcDbLine
 10
73.874307
 20
105.026081
 30
0.0
 11
62.132638
 21
105.026081
 31
0.0
  0
LINE
  5
53F6
100
AcDbEntity
  8
0
100
AcDbLine
 10
62.123788
 20
114.526081
 30
0.0
 11
59.132638
 21
117.517231
 31
0.0
  0
LINE
  5
53F7
100
AcDbEntity
  8
0
100
AcDbLine
 10
62.132638
 20
105.026081
 30
0.0
 11
62.132638
 21
114.526081
 31
0.0
  0
LINE
  5
53F8
100
AcDbEntity
  8
0
100
AcDbLine
 10
60.132638
 20
125.526081
 30
0.0
 11
60.132638
 21
131.526081
 31
0.0
  0
LINE
  5
53F9
100
AcDbEntity
  8
0
100
AcDbLine
 10
60.081451
 20
125.526081
 30
0.0
 11
59.132638
 21
124.577268
 31
0.0
  0
LINE
  5
53FA
100
AcDbEntity
  8
0
100
AcDbLine
 10
59.132638
 20
117.517231
 30
0.0
 11
59.132638
 21
124.577268
 31
0.0
  0
ARC
  5
53FB
100
AcDbEntity
  8
0
100
AcDbCircle
 10
85.132638
 20
92.526081
 30
0.0
 40
18.0
100
AcDbArc
 50
117.266044
 51
122.733956
  0
ARC
  5
53FC
100
AcDbEntity
  8
0
100
AcDbCircle
 10
77.132638
 20
124.633516
 30
0.0
 40
17.892565
100
AcDbArc
 50
66.476307
 51
113.523693
  0
LINE
  5
53FD
100
AcDbEntity
  8
0
100
AcDbLine
 10
69.132638
 20
141.039121
 30
0.0
 11
69.991209
 21
141.039121
 31
0.0
  0
LINE
  5
53FE
100
AcDbEntity
  8
0
100
AcDbLine
 10
85.991209
 20
141.039121
 30
0.0
 11
84.274066
 21
141.039121
 31
0.0
  0
LINE
  5
5400
100
AcDbEntity
  8
0
100
AcDbLine
 10
188.679156
 20
141.039121
 30
0.0
 11
186.103872
 21
142.526081
 31
0.0
  0
ARC
  5
5401
100
AcDbEntity
  8
0
100
AcDbCircle
 10
184.545806
 20
136.037799
 30
0.0
 40
6.488282
100
AcDbArc
 50
69.568104
 51
129.572077
  0
LINE
  5
5402
100
AcDbEntity
  8
0
100
AcDbLine
 10
193.679156
 20
133.526081
 30
0.0
 11
147.679156
 21
133.526081
 31
0.0
  0
LINE
  5
5403
100
AcDbEntity
  8
0
100
AcDbLine
 10
195.679156
 20
127.526081
 30
0.0
 11
145.679156
 21
127.526081
 31
0.0
  0
LINE
  5
5404
100
AcDbEntity
  8
0
100
AcDbLine
 10
188.760194
 20
95.026081
 30
0.0
 11
152.598118
 21
95.026081
 31
0.0
  0
LINE
  5
5405
100
AcDbEntity
  8
0
100
AcDbLine
 10
193.688006
 20
114.526081
 30
0.0
 11
147.670306
 21
114.526081
 31
0.0
  0
LINE
  5
5406
100
AcDbEntity
  8
0
100
AcDbLine
 10
195.730343
 20
125.526081
 30
0.0
 11
145.627969
 21
125.526081
 31
0.0
  0
LINE
  5
5407
100
AcDbEntity
  8
0
100
AcDbLine
 10
193.679156
 20
105.026081
 30
0.0
 11
147.679156
 21
105.026081
 31
0.0
  0
LINE
  5
5408
100
AcDbEntity
  8
0
100
AcDbLine
 10
134.166116
 20
91.667509
 30
0.0
 11
207.192196
 21
91.667509
 31
0.0
  0
LINE
  5
5409
100
AcDbEntity
  8
0
100
AcDbLine
 10
134.166116
 20
93.384652
 30
0.0
 11
207.192196
 21
93.384652
 31
0.0
  0
LINE
  5
540A
100
AcDbEntity
  8
0
100
AcDbLine
 10
208.679156
 20
76.526081
 30
0.0
 11
132.679156
 21
76.526081
 31
0.0
  0
LINE
  5
540B
100
AcDbEntity
  8
0
100
AcDbLine
 10
147.679156
 20
105.026081
 30
0.0
 11
150.710401
 21
96.36538
 31
0.0
  0
LINE
  5
540C
100
AcDbEntity
  8
0
100
AcDbLine
 10
108.132638
 20
105.026081
 30
0.0
 11
105.101392
 21
96.36538
 31
0.0
  0
POLYLINE
  5
540E
100
AcDbEntity
  8
0
100
AcDb2dPolyline
 66
     1
 10
0.0
 20
0.0
 30
0.0
  0
VERTEX
  5
578B
100
AcDbEntity
  8
0
100
AcDbVertex
100
AcDb2dVertex
 10
103.11215
 20
93.384652
 30
0.0
  0
VERTEX
  5
578C
100
AcDbEntity
  8
0
100
AcDbVertex
100
AcDb2dVertex
 10
94.865939
 20
107.667509
 30
0.0
  0
SEQEND
  5
578D
100
AcDbEntity
  8
0
  0
LINE
  5
540F
100
AcDbEntity
  8
0
100
AcDbLine
 10
132.679156
 20
76.526081
 30
0.0
 11
132.679156
 21
108.526081
 31
0.0
  0
POLYLINE
  5
5410
100
AcDbEntity
  8
0
100
AcDb2dPolyline
 66
     1
 10
0.0
 20
0.0
 30
0.0
  0
VERTEX
  5
578E
100
AcDbEntity
  8
0
100
AcDbVertex
100
AcDb2dVertex
 10
94.865939
 20
77.384652
 30
0.0
  0
VERTEX
  5
578F
100
AcDbEntity
  8
0
100
AcDbVertex
100
AcDb2dVertex
 10
103.11215
 20
91.667509
 30
0.0
  0
SEQEND
  5
5790
100
AcDbEntity
  8
0
  0
ARC
  5
5411
100
AcDbEntity
  8
0
100
AcDbCircle
 10
85.132638
 20
92.526081
 30
0.0
 40
18.0
100
AcDbArc
 50
297.266044
 51
302.733956
  0
LINE
  5
5413
100
AcDbEntity
  8
0
100
AcDbLine
 10
102.164471
 20
95.026081
 30
0.0
 11
103.213676
 21
95.026081
 31
0.0
  0
ARC
  5
5414
100
AcDbEntity
  8
0
100
AcDbCircle
 10
103.213676
 20
97.026081
 30
0.0
 40
2.0
100
AcDbArc
 50
270.0
 51
340.709954
  0
ARC
  5
5415
100
AcDbEntity
  8
0
100
AcDbCircle
 10
85.132638
 20
92.526081
 30
0.0
 40
18.0
100
AcDbArc
 50
357.266044
 51
2.733956
  0
INSERT
  5
5417
100
AcDbEntity
  8
0
100
AcDbBlockReference
  2
YA
 10
129.429156
 20
92.525731
 30
0.0
 41
0.514084
 42
0.514084
 43
0.514084
  0
ARC
  5
5419
100
AcDbEntity
  8
0
100
AcDbCircle
 10
152.598118
 20
97.026081
 30
0.0
 40
2.0
100
AcDbArc
 50
199.290046
 51
270.0
  0
LINE
  5
541A
100
AcDbEntity
  8
0
100
AcDbLine
 10
145.679156
 20
108.526081
 30
0.0
 11
132.679156
 21
108.526081
 31
0.0
  0
LINE
  5
541B
100
AcDbEntity
  8
0
100
AcDbLine
 10
101.132638
 20
142.526081
 30
0.0
 11
101.132638
 21
133.526081
 31
0.0
  0
LINE
  5
541C
100
AcDbEntity
  8
0
100
AcDbLine
 10
100.274066
 20
141.039121
 30
0.0
 11
100.274066
 21
133.526081
 31
0.0
  0
LINE
  5
541D
100
AcDbEntity
  8
0
100
AcDbLine
 10
108.141488
 20
114.526081
 30
0.0
 11
111.132638
 21
117.517231
 31
0.0
  0
LINE
  5
541E
100
AcDbEntity
  8
0
100
AcDbLine
 10
108.132638
 20
105.026081
 30
0.0
 11
96.390968
 21
105.026081
 31
0.0
  0
ARC
  5
541F
100
AcDbEntity
  8
0
100
AcDbCircle
 10
85.132638
 20
92.526081
 30
0.0
 40
18.0
100
AcDbArc
 50
57.266044
 51
62.733956
  0
LINE
  5
5420
100
AcDbEntity
  8
0
100
AcDbLine
 10
108.132638
 20
105.026081
 30
0.0
 11
108.132638
 21
114.526081
 31
0.0
  0
LINE
  5
5421
100
AcDbEntity
  8
0
100
AcDbLine
 10
110.132638
 20
125.526081
 30
0.0
 11
110.132638
 21
131.526081
 31
0.0
  0
LINE
  5
5422
100
AcDbEntity
  8
0
100
AcDbLine
 10
110.183824
 20
125.526081
 30
0.0
 11
111.132638
 21
124.577268
 31
0.0
  0
LINE
  5
5423
100
AcDbEntity
  8
0
100
AcDbLine
 10
111.132638
 20
117.517231
 30
0.0
 11
111.132638
 21
124.577268
 31
0.0
  0
LINE
  5
5424
100
AcDbEntity
  8
0
100
AcDbLine
 10
101.132638
 20
141.039121
 30
0.0
 11
100.274066
 21
141.039121
 31
0.0
  0
LINE
  5
5425
100
AcDbEntity
  8
0
100
AcDbLine
 10
180.412457
 20
141.039121
 30
0.0
 11
180.412457
 21
133.526081
 31
0.0
  0
LINE
  5
5426
100
AcDbEntity
  8
0
100
AcDbLine
 10
178.925367
 20
141.039121
 30
0.0
 11
178.925367
 21
133.526081
 31
0.0
  0
LINE
  5
5427
100
AcDbEntity
  8
0
100
AcDbLine
 10
160.945855
 20
141.039121
 30
0.0
 11
160.945855
 21
133.526081
 31
0.0
  0
LINE
  5
5428
100
AcDbEntity
  8
0
100
AcDbLine
 10
162.432945
 20
141.039121
 30
0.0
 11
162.432945
 21
133.526081
 31
0.0
  0
LINE
  5
5429
100
AcDbEntity
  8
0
100
AcDbLine
 10
152.679156
 20
133.526081
 30
0.0
 11
152.679156
 21
141.039121
 31
0.0
  0
LINE
  5
542A
100
AcDbEntity
  8
0
100
AcDbLine
 10
147.670306
 20
114.526081
 30
0.0
 11
144.679156
 21
117.517231
 31
0.0
  0
LINE
  5
542B
100
AcDbEntity
  8
0
100
AcDbLine
 10
147.679156
 20
105.026081
 30
0.0
 11
147.679156
 21
114.526081
 31
0.0
  0
ARC
  5
542C
100
AcDbEntity
  8
0
100
AcDbCircle
 10
145.679156
 20
110.526081
 30
0.0
 40
2.0
100
AcDbArc
 50
270.0
 51
360.0
  0
LINE
  5
542D
100
AcDbEntity
  8
0
100
AcDbLine
 10
145.679156
 20
125.526081
 30
0.0
 11
145.679156
 21
131.526081
 31
0.0
  0
LINE
  5
542E
100
AcDbEntity
  8
0
100
AcDbLine
 10
145.627969
 20
125.526081
 30
0.0
 11
144.679156
 21
124.577268
 31
0.0
  0
LINE
  5
542F
100
AcDbEntity
  8
0
100
AcDbLine
 10
144.679156
 20
117.517231
 30
0.0
 11
144.679156
 21
124.577268
 31
0.0
  0
LINE
  5
5430
100
AcDbEntity
  8
0
100
AcDbLine
 10
160.945855
 20
141.039121
 30
0.0
 11
162.432945
 21
141.039121
 31
0.0
  0
LINE
  5
5431
100
AcDbEntity
  8
0
100
AcDbLine
 10
155.25444
 20
142.526081
 30
0.0
 11
186.103872
 21
142.526081
 31
0.0
  0
ARC
  5
5432
100
AcDbEntity
  8
0
100
AcDbCircle
 10
156.812505
 20
136.037799
 30
0.0
 40
6.488282
100
AcDbArc
 50
50.427923
 51
110.431896
  0
LINE
  5
5433
100
AcDbEntity
  8
0
100
AcDbLine
 10
152.679156
 20
141.039121
 30
0.0
 11
155.25444
 21
142.526081
 31
0.0
  0
ARC
  5
5434
100
AcDbEntity
  8
0
100
AcDbCircle
 10
170.679156
 20
118.917154
 30
0.0
 40
23.608927
100
AcDbArc
 50
69.556496
 51
110.443504
  0
LINE
  5
5435
100
AcDbEntity
  8
0
100
AcDbLine
 10
180.412457
 20
141.039121
 30
0.0
 11
178.925367
 21
141.039121
 31
0.0
  0
POLYLINE
  5
5436
100
AcDbEntity
  8
0
100
AcDb2dPolyline
 66
     1
 10
0.0
 20
0.0
 30
0.0
  0
VERTEX
  5
5791
100
AcDbEntity
  8
0
100
AcDbVertex
100
AcDb2dVertex
 10
224.94873
 20
93.384652
 30
0.0
  0
VERTEX
  5
5792
100
AcDbEntity
  8
0
100
AcDbVertex
100
AcDb2dVertex
 10
233.194941
 20
107.667509
 30
0.0
  0
SEQEND
  5
5793
100
AcDbEntity
  8
0
  0
LINE
  5
5437
100
AcDbEntity
  8
0
100
AcDbLine
 10
219.928242
 20
105.026081
 30
0.0
 11
222.959487
 21
96.36538
 31
0.0
  0
POLYLINE
  5
5438
100
AcDbEntity
  8
0
100
AcDb2dPolyline
 66
     1
 10
0.0
 20
0.0
 30
0.0
  0
VERTEX
  5
5794
100
AcDbEntity
  8
0
100
AcDbVertex
100
AcDb2dVertex
 10
252.661543
 20
107.667509
 30
0.0
  0
VERTEX
  5
5795
100
AcDbEntity
  8
0
100
AcDbVertex
100
AcDb2dVertex
 10
260.907754
 20
93.384652
 30
0.0
  0
SEQEND
  5
5796
100
AcDbEntity
  8
0
  0
LINE
  5
5439
100
AcDbEntity
  8
0
100
AcDbLine
 10
265.928242
 20
105.026081
 30
0.0
 11
262.896997
 21
96.36538
 31
0.0
  0
CIRCLE
  5
543A
100
AcDbEntity
  8
0
100
AcDbCircle
 10
242.928242
 20
92.526081
 30
0.0
 40
16.0
  0
LINE
  5
543D
100
AcDbEntity
  8
0
100
AcDbLine
 10
193.679156
 20
105.026081
 30
0.0
 11
190.647911
 21
96.36538
 31
0.0
  0
ARC
  5
543F
100
AcDbEntity
  8
0
100
AcDbCircle
 10
188.760194
 20
97.026081
 30
0.0
 40
2.0
100
AcDbArc
 50
270.0
 51
340.709954
  0
POLYLINE
  5
5441
100
AcDbEntity
  8
0
100
AcDb2dPolyline
 66
     1
 10
0.0
 20
0.0
 30
0.0
  0
VERTEX
  5
5797
100
AcDbEntity
  8
0
100
AcDbVertex
100
AcDb2dVertex
 10
251.174453
 20
76.526081
 30
0.0
  0
VERTEX
  5
5798
100
AcDbEntity
  8
0
100
AcDbVertex
100
AcDb2dVertex
 10
234.682031
 20
76.526081
 30
0.0
  0
SEQEND
  5
5799
100
AcDbEntity
  8
0
  0
POLYLINE
  5
5442
100
AcDbEntity
  8
0
100
AcDb2dPolyline
 66
     1
 10
0.0
 20
0.0
 30
0.0
  0
VERTEX
  5
579A
100
AcDbEntity
  8
0
100
AcDbVertex
100
AcDb2dVertex
 10
233.194941
 20
77.384652
 30
0.0
  0
VERTEX
  5
579B
100
AcDbEntity
  8
0
100
AcDbVertex
100
AcDb2dVertex
 10
224.94873
 20
91.667509
 30
0.0
  0
SEQEND
  5
579C
100
AcDbEntity
  8
0
  0
ARC
  5
5443
100
AcDbEntity
  8
0
100
AcDbCircle
 10
242.928242
 20
92.526081
 30
0.0
 40
18.0
100
AcDbArc
 50
237.266044
 51
242.733956
  0
ARC
  5
5444
100
AcDbEntity
  8
0
100
AcDbCircle
 10
242.928242
 20
92.526081
 30
0.0
 40
18.0
100
AcDbArc
 50
177.266044
 51
182.733956
  0
ARC
  5
5445
100
AcDbEntity
  8
0
100
AcDbCircle
 10
224.847204
 20
97.026081
 30
0.0
 40
2.0
100
AcDbArc
 50
199.290046
 51
270.0
  0
LINE
  5
5446
100
AcDbEntity
  8
0
100
AcDbLine
 10
225.896409
 20
95.026081
 30
0.0
 11
224.847204
 21
95.026081
 31
0.0
  0
POLYLINE
  5
5448
100
AcDbEntity
  8
0
100
AcDb2dPolyline
 66
     1
 10
0.0
 20
0.0
 30
0.0
  0
VERTEX
  5
579D
100
AcDbEntity
  8
0
100
AcDbVertex
100
AcDb2dVertex
 10
260.907754
 20
91.667509
 30
0.0
  0
VERTEX
  5
579E
100
AcDbEntity
  8
0
100
AcDbVertex
100
AcDb2dVertex
 10
252.661543
 20
77.384652
 30
0.0
  0
SEQEND
  5
579F
100
AcDbEntity
  8
0
  0
ARC
  5
5449
100
AcDbEntity
  8
0
100
AcDbCircle
 10
242.928242
 20
92.526081
 30
0.0
 40
18.0
100
AcDbArc
 50
297.266044
 51
302.733956
  0
ARC
  5
544B
100
AcDbEntity
  8
0
100
AcDbCircle
 10
242.928242
 20
92.526081
 30
0.0
 40
18.0
100
AcDbArc
 50
357.266044
 51
2.733956
  0
ARC
  5
544C
100
AcDbEntity
  8
0
100
AcDbCircle
 10
261.00928
 20
97.026081
 30
0.0
 40
2.0
100
AcDbArc
 50
270.0
 51
340.709954
  0
LINE
  5
544D
100
AcDbEntity
  8
0
100
AcDbLine
 10
261.00928
 20
95.026081
 30
0.0
 11
259.960075
 21
95.026081
 31
0.0
  0
LINE
  5
544E
100
AcDbEntity
  8
0
100
AcDbLine
 10
219.928242
 20
105.026081
 30
0.0
 11
231.669912
 21
105.026081
 31
0.0
  0
LINE
  5
544F
100
AcDbEntity
  8
0
100
AcDbLine
 10
219.928242
 20
133.526081
 30
0.0
 11
265.928242
 21
133.526081
 31
0.0
  0
LINE
  5
5450
100
AcDbEntity
  8
0
100
AcDbLine
 10
217.928242
 20
127.526081
 30
0.0
 11
267.928242
 21
127.526081
 31
0.0
  0
LINE
  5
5451
100
AcDbEntity
  8
0
100
AcDbLine
 10
217.877055
 20
125.526081
 30
0.0
 11
267.979429
 21
125.526081
 31
0.0
  0
LINE
  5
5452
100
AcDbEntity
  8
0
100
AcDbLine
 10
219.919392
 20
114.526081
 30
0.0
 11
265.937092
 21
114.526081
 31
0.0
  0
LINE
  5
5453
100
AcDbEntity
  8
0
100
AcDbLine
 10
188.679156
 20
133.526081
 30
0.0
 11
188.679156
 21
141.039121
 31
0.0
  0
LINE
  5
5454
100
AcDbEntity
  8
0
100
AcDbLine
 10
193.688006
 20
114.526081
 30
0.0
 11
196.679156
 21
117.517231
 31
0.0
  0
LINE
  5
5455
100
AcDbEntity
  8
0
100
AcDbLine
 10
195.679156
 20
108.526081
 30
0.0
 11
208.679156
 21
108.526081
 31
0.0
  0
LINE
  5
5456
100
AcDbEntity
  8
0
100
AcDbLine
 10
193.679156
 20
105.026081
 30
0.0
 11
193.679156
 21
114.526081
 31
0.0
  0
ARC
  5
5457
100
AcDbEntity
  8
0
100
AcDbCircle
 10
195.679156
 20
110.526081
 30
0.0
 40
2.0
100
AcDbArc
 50
180.0
 51
270.0
  0
LINE
  5
5458
100
AcDbEntity
  8
0
100
AcDbLine
 10
195.679156
 20
125.526081
 30
0.0
 11
195.679156
 21
131.526081
 31
0.0
  0
LINE
  5
5459
100
AcDbEntity
  8
0
100
AcDbLine
 10
195.730343
 20
125.526081
 30
0.0
 11
196.679156
 21
124.577268
 31
0.0
  0
LINE
  5
545A
100
AcDbEntity
  8
0
100
AcDbLine
 10
196.679156
 20
117.517231
 30
0.0
 11
196.679156
 21
124.577268
 31
0.0
  0
LINE
  5
545B
100
AcDbEntity
  8
0
100
AcDbLine
 10
219.919392
 20
114.526081
 30
0.0
 11
216.928242
 21
117.517231
 31
0.0
  0
LINE
  5
545C
100
AcDbEntity
  8
0
100
AcDbLine
 10
219.928242
 20
105.026081
 30
0.0
 11
219.928242
 21
114.526081
 31
0.0
  0
LINE
  5
545D
100
AcDbEntity
  8
0
100
AcDbLine
 10
217.928242
 20
125.526081
 30
0.0
 11
217.928242
 21
131.526081
 31
0.0
  0
LINE
  5
545E
100
AcDbEntity
  8
0
100
AcDbLine
 10
216.928242
 20
117.517231
 30
0.0
 11
216.928242
 21
124.577268
 31
0.0
  0
LINE
  5
545F
100
AcDbEntity
  8
0
100
AcDbLine
 10
217.877055
 20
125.526081
 30
0.0
 11
216.928242
 21
124.577268
 31
0.0
  0
LINE
  5
5460
100
AcDbEntity
  8
0
100
AcDbLine
 10
227.786814
 20
141.039121
 30
0.0
 11
227.786814
 21
133.526081
 31
0.0
  0
LINE
  5
5461
100
AcDbEntity
  8
0
100
AcDbLine
 10
226.928242
 20
142.526081
 30
0.0
 11
226.928242
 21
133.526081
 31
0.0
  0
LINE
  5
5462
100
AcDbEntity
  8
0
100
AcDbLine
 10
258.069671
 20
141.039121
 30
0.0
 11
258.069671
 21
133.526081
 31
0.0
  0
LINE
  5
5463
100
AcDbEntity
  8
0
100
AcDbLine
 10
258.928242
 20
142.526081
 30
0.0
 11
258.928242
 21
133.526081
 31
0.0
  0
LINE
  5
5464
100
AcDbEntity
  8
0
100
AcDbLine
 10
243.786814
 20
141.039121
 30
0.0
 11
243.786814
 21
133.526081
 31
0.0
  0
LINE
  5
5465
100
AcDbEntity
  8
0
100
AcDbLine
 10
242.069671
 20
141.039121
 30
0.0
 11
242.069671
 21
133.526081
 31
0.0
  0
POLYLINE
  5
5466
100
AcDbEntity
  8
0
100
AcDb2dPolyline
 66
     1
 10
0.0
 20
0.0
 30
0.0
  0
VERTEX
  5
57A0
100
AcDbEntity
  8
0
100
AcDbVertex
100
AcDb2dVertex
 10
234.682031
 20
108.526081
 30
0.0
  0
VERTEX
  5
57A1
100
AcDbEntity
  8
0
100
AcDbVertex
100
AcDb2dVertex
 10
251.174453
 20
108.526081
 30
0.0
  0
SEQEND
  5
57A2
100
AcDbEntity
  8
0
  0
ARC
  5
5467
100
AcDbEntity
  8
0
100
AcDbCircle
 10
242.928242
 20
92.526081
 30
0.0
 40
18.0
100
AcDbArc
 50
117.266044
 51
122.733956
  0
LINE
  5
5468
100
AcDbEntity
  8
0
100
AcDbLine
 10
265.937092
 20
114.526081
 30
0.0
 11
268.928242
 21
117.517231
 31
0.0
  0
LINE
  5
5469
100
AcDbEntity
  8
0
100
AcDbLine
 10
254.186572
 20
105.026081
 30
0.0
 11
265.928242
 21
105.026081
 31
0.0
  0
ARC
  5
546A
100
AcDbEntity
  8
0
100
AcDbCircle
 10
242.928242
 20
92.526081
 30
0.0
 40
18.0
100
AcDbArc
 50
57.266044
 51
62.733956
  0
LINE
  5
546B
100
AcDbEntity
  8
0
100
AcDbLine
 10
265.928242
 20
105.026081
 30
0.0
 11
265.928242
 21
114.526081
 31
0.0
  0
LINE
  5
546C
100
AcDbEntity
  8
0
100
AcDbLine
 10
267.928242
 20
125.526081
 30
0.0
 11
267.928242
 21
131.526081
 31
0.0
  0
LINE
  5
546D
100
AcDbEntity
  8
0
100
AcDbLine
 10
268.928242
 20
117.517231
 30
0.0
 11
268.928242
 21
124.577268
 31
0.0
  0
LINE
  5
546E
100
AcDbEntity
  8
0
100
AcDbLine
 10
267.979429
 20
125.526081
 30
0.0
 11
268.928242
 21
124.577268
 31
0.0
  0
ARC
  5
546F
100
AcDbEntity
  8
0
100
AcDbCircle
 10
250.928242
 20
124.633516
 30
0.0
 40
17.892565
100
AcDbArc
 50
66.476307
 51
113.523693
  0
LINE
  5
5470
100
AcDbEntity
  8
0
100
AcDbLine
 10
258.928242
 20
142.526081
 30
0.0
 11
226.928242
 21
142.526081
 31
0.0
  0
ARC
  5
5471
100
AcDbEntity
  8
0
100
AcDbCircle
 10
234.928242
 20
124.633516
 30
0.0
 40
17.892565
100
AcDbArc
 50
66.476307
 51
113.523693
  0
LINE
  5
5472
100
AcDbEntity
  8
0
100
AcDbLine
 10
226.928242
 20
141.039121
 30
0.0
 11
227.786814
 21
141.039121
 31
0.0
  0
LINE
  5
5473
100
AcDbEntity
  8
0
100
AcDbLine
 10
242.069671
 20
141.039121
 30
0.0
 11
243.786814
 21
141.039121
 31
0.0
  0
LINE
  5
5474
100
AcDbEntity
  8
0
100
AcDbLine
 10
258.928242
 20
141.039121
 30
0.0
 11
258.069671
 21
141.039121
 31
0.0
  0
LINE
  5
5475
100
AcDbEntity
  8
0
100
AcDbLine
 10
195.679156
 20
309.311964
 30
0.0
 11
195.679156
 21
315.311964
 31
0.0
  0
LINE
  5
5476
100
AcDbEntity
  8
0
100
AcDbLine
 10
145.679156
 20
309.311964
 30
0.0
 11
145.679156
 21
315.311964
 31
0.0
  0
LINE
  5
5477
100
AcDbEntity
  8
0
100
AcDbLine
 10
132.679156
 20
260.311964
 30
0.0
 11
208.679156
 21
260.311964
 31
0.0
  0
LINE
  5
5478
100
AcDbEntity
  8
0
100
AcDbLine
 10
207.192196
 20
277.170536
 30
0.0
 11
134.166116
 21
277.170536
 31
0.0
  0
LINE
  5
5479
100
AcDbEntity
  8
0
100
AcDbLine
 10
207.192196
 20
275.453393
 30
0.0
 11
134.166116
 21
275.453393
 31
0.0
  0
LINE
  5
547A
100
AcDbEntity
  8
0
100
AcDbLine
 10
147.679156
 20
288.811964
 30
0.0
 11
193.679156
 21
288.811964
 31
0.0
  0
LINE
  5
547B
100
AcDbEntity
  8
0
100
AcDbLine
 10
145.627969
 20
309.311964
 30
0.0
 11
195.730343
 21
309.311964
 31
0.0
  0
LINE
  5
547C
100
AcDbEntity
  8
0
100
AcDbLine
 10
147.670306
 20
298.311964
 30
0.0
 11
193.688006
 21
298.311964
 31
0.0
  0
LINE
  5
547D
100
AcDbEntity
  8
0
100
AcDbLine
 10
152.598118
 20
278.811964
 30
0.0
 11
188.760194
 21
278.811964
 31
0.0
  0
LINE
  5
547E
100
AcDbEntity
  8
0
100
AcDbLine
 10
145.679156
 20
311.311964
 30
0.0
 11
195.679156
 21
311.311964
 31
0.0
  0
POLYLINE
  5
547F
100
AcDbEntity
  8
0
100
AcDb2dPolyline
 66
     1
 10
0.0
 20
0.0
 30
0.0
  0
VERTEX
  5
57A3
100
AcDbEntity
  8
0
100
AcDbVertex
100
AcDb2dVertex
 10
180.412457
 20
185.064544
 30
0.0
  0
VERTEX
  5
57A4
100
AcDbEntity
  8
0
100
AcDbVertex
100
AcDb2dVertex
 10
188.658668
 20
199.347401
 30
0.0
  0
SEQEND
  5
57A5
100
AcDbEntity
  8
0
  0
CIRCLE
  5
5480
100
AcDbEntity
  8
0
100
AcDbCircle
 10
170.679156
 20
200.205972
 30
0.0
 40
16.0
  0
POLYLINE
  5
5481
100
AcDbEntity
  8
0
100
AcDb2dPolyline
 66
     1
 10
0.0
 20
0.0
 30
0.0
  0
VERTEX
  5
57A6
100
AcDbEntity
  8
0
100
AcDbVertex
100
AcDb2dVertex
 10
188.658668
 20
201.064544
 30
0.0
  0
VERTEX
  5
57A7
100
AcDbEntity
  8
0
100
AcDbVertex
100
AcDb2dVertex
 10
180.412457
 20
215.347401
 30
0.0
  0
SEQEND
  5
57A8
100
AcDbEntity
  8
0
  0
CIRCLE
  5
5482
100
AcDbEntity
  8
0
100
AcDbCircle
 10
170.679156
 20
200.205972
 30
0.0
 40
26.0
  0
LINE
  5
5483
100
AcDbEntity
  8
0
100
AcDbLine
 10
134.166116
 20
218.205972
 30
0.0
 11
151.917493
 21
218.205972
 31
0.0
  0
LINE
  5
5484
100
AcDbEntity
  8
0
100
AcDbLine
 10
134.166116
 20
209.939273
 30
0.0
 11
146.569762
 21
209.939273
 31
0.0
  0
LINE
  5
5485
100
AcDbEntity
  8
0
100
AcDbLine
 10
134.166116
 20
208.452184
 30
0.0
 11
146.0215
 21
208.452184
 31
0.0
  0
LINE
  5
5486
100
AcDbEntity
  8
0
100
AcDbLine
 10
134.166116
 20
191.959761
 30
0.0
 11
146.0215
 21
191.959761
 31
0.0
  0
LINE
  5
5487
100
AcDbEntity
  8
0
100
AcDbLine
 10
134.166116
 20
190.472672
 30
0.0
 11
146.569762
 21
190.472672
 31
0.0
  0
LINE
  5
5488
100
AcDbEntity
  8
0
100
AcDbLine
 10
134.166116
 20
182.205972
 30
0.0
 11
151.917493
 21
182.205972
 31
0.0
  0
ARC
  5
5489
100
AcDbEntity
  8
0
100
AcDbCircle
 10
156.288083
 20
200.205972
 30
0.0
 40
23.608927
100
AcDbArc
 50
159.556496
 51
200.443504
  0
LINE
  5
548A
100
AcDbEntity
  8
0
100
AcDbLine
 10
132.679156
 20
184.781256
 30
0.0
 11
132.679156
 21
215.630689
 31
0.0
  0
ARC
  5
548B
100
AcDbEntity
  8
0
100
AcDbCircle
 10
139.167438
 20
186.339322
 30
0.0
 40
6.488282
100
AcDbArc
 50
140.427923
 51
200.431896
  0
LINE
  5
548C
100
AcDbEntity
  8
0
100
AcDbLine
 10
134.166116
 20
182.205972
 30
0.0
 11
132.679156
 21
184.781256
 31
0.0
  0
LINE
  5
548D
100
AcDbEntity
  8
0
100
AcDbLine
 10
134.166116
 20
190.472672
 30
0.0
 11
134.166116
 21
191.959761
 31
0.0
  0
ARC
  5
548E
100
AcDbEntity
  8
0
100
AcDbCircle
 10
139.167438
 20
214.072623
 30
0.0
 40
6.488282
100
AcDbArc
 50
159.568104
 51
219.572077
  0
LINE
  5
548F
100
AcDbEntity
  8
0
100
AcDbLine
 10
134.166116
 20
209.939273
 30
0.0
 11
134.166116
 21
208.452184
 31
0.0
  0
LINE
  5
5490
100
AcDbEntity
  8
0
100
AcDbLine
 10
134.166116
 20
218.205972
 30
0.0
 11
132.679156
 21
215.630689
 31
0.0
  0
POLYLINE
  5
5491
100
AcDbEntity
  8
0
100
AcDb2dPolyline
 66
     1
 10
0.0
 20
0.0
 30
0.0
  0
VERTEX
  5
57A9
100
AcDbEntity
  8
0
100
AcDbVertex
100
AcDb2dVertex
 10
160.945855
 20
215.347401
 30
0.0
  0
VERTEX
  5
57AA
100
AcDbEntity
  8
0
100
AcDbVertex
100
AcDb2dVertex
 10
152.699644
 20
201.064544
 30
0.0
  0
SEQEND
  5
57AB
100
AcDbEntity
  8
0
  0
ARC
  5
5492
100
AcDbEntity
  8
0
100
AcDbCircle
 10
170.679156
 20
200.205972
 30
0.0
 40
18.0
100
AcDbArc
 50
237.266044
 51
242.733956
  0
POLYLINE
  5
5493
100
AcDbEntity
  8
0
100
AcDb2dPolyline
 66
     1
 10
0.0
 20
0.0
 30
0.0
  0
VERTEX
  5
57AC
100
AcDbEntity
  8
0
100
AcDbVertex
100
AcDb2dVertex
 10
152.699644
 20
199.347401
 30
0.0
  0
VERTEX
  5
57AD
100
AcDbEntity
  8
0
100
AcDbVertex
100
AcDb2dVertex
 10
160.945855
 20
185.064544
 30
0.0
  0
SEQEND
  5
57AE
100
AcDbEntity
  8
0
  0
ARC
  5
5494
100
AcDbEntity
  8
0
100
AcDbCircle
 10
170.679156
 20
200.205972
 30
0.0
 40
18.0
100
AcDbArc
 50
177.266044
 51
182.733956
  0
POLYLINE
  5
5495
100
AcDbEntity
  8
0
100
AcDb2dPolyline
 66
     1
 10
0.0
 20
0.0
 30
0.0
  0
VERTEX
  5
57AF
100
AcDbEntity
  8
0
100
AcDbVertex
100
AcDb2dVertex
 10
162.432945
 20
184.205972
 30
0.0
  0
VERTEX
  5
57B0
100
AcDbEntity
  8
0
100
AcDbVertex
100
AcDb2dVertex
 10
178.925367
 20
184.205972
 30
0.0
  0
SEQEND
  5
57B1
100
AcDbEntity
  8
0
  0
ARC
  5
5496
100
AcDbEntity
  8
0
100
AcDbCircle
 10
170.679156
 20
200.205972
 30
0.0
 40
18.0
100
AcDbArc
 50
297.266044
 51
302.733956
  0
ARC
  5
5497
100
AcDbEntity
  8
0
100
AcDbCircle
 10
170.679156
 20
200.205972
 30
0.0
 40
18.0
100
AcDbArc
 50
117.266044
 51
122.733956
  0
POLYLINE
  5
5498
100
AcDbEntity
  8
0
100
AcDb2dPolyline
 66
     1
 10
0.0
 20
0.0
 30
0.0
  0
VERTEX
  5
57B2
100
AcDbEntity
  8
0
100
AcDbVertex
100
AcDb2dVertex
 10
178.925367
 20
216.205972
 30
0.0
  0
VERTEX
  5
57B3
100
AcDbEntity
  8
0
100
AcDbVertex
100
AcDb2dVertex
 10
162.432945
 20
216.205972
 30
0.0
  0
SEQEND
  5
57B4
100
AcDbEntity
  8
0
  0
ARC
  5
5499
100
AcDbEntity
  8
0
100
AcDbCircle
 10
170.679156
 20
200.205972
 30
0.0
 40
18.0
100
AcDbArc
 50
57.266044
 51
62.733956
  0
LINE
  5
549A
100
AcDbEntity
  8
0
100
AcDbLine
 10
145.679156
 20
292.311964
 30
0.0
 11
132.679156
 21
292.311964
 31
0.0
  0
LINE
  5
549C
100
AcDbEntity
  8
0
100
AcDbLine
 10
132.679156
 20
260.311964
 30
0.0
 11
132.679156
 21
292.311964
 31
0.0
  0
LINE
  5
549F
100
AcDbEntity
  8
0
100
AcDbLine
 10
147.679156
 20
288.811964
 30
0.0
 11
147.679156
 21
298.311964
 31
0.0
  0
LINE
  5
54A0
100
AcDbEntity
  8
0
100
AcDbLine
 10
147.679156
 20
288.811964
 30
0.0
 11
150.710401
 21
280.151263
 31
0.0
  0
ARC
  5
54A1
100
AcDbEntity
  8
0
100
AcDbCircle
 10
145.679156
 20
294.311964
 30
0.0
 40
2.0
100
AcDbArc
 50
270.0
 51
360.0
  0
ARC
  5
54A2
100
AcDbEntity
  8
0
100
AcDbCircle
 10
152.598118
 20
280.811964
 30
0.0
 40
2.0
100
AcDbArc
 50
199.290046
 51
270.0
  0
LINE
  5
54A3
100
AcDbEntity
  8
0
100
AcDbLine
 10
144.679156
 20
301.303114
 30
0.0
 11
144.679156
 21
308.363151
 31
0.0
  0
LINE
  5
54A4
100
AcDbEntity
  8
0
100
AcDbLine
 10
147.670306
 20
298.311964
 30
0.0
 11
144.679156
 21
301.303114
 31
0.0
  0
LINE
  5
54A5
100
AcDbEntity
  8
0
100
AcDbLine
 10
145.627969
 20
309.311964
 30
0.0
 11
144.679156
 21
308.363151
 31
0.0
  0
ARC
  5
54A6
100
AcDbEntity
  8
0
100
AcDbCircle
 10
185.070229
 20
200.205972
 30
0.0
 40
23.608927
100
AcDbArc
 50
339.556496
 51
20.443504
  0
LINE
  5
54A7
100
AcDbEntity
  8
0
100
AcDbLine
 10
208.679156
 20
184.781256
 30
0.0
 11
208.679156
 21
215.630689
 31
0.0
  0
ARC
  5
54A8
100
AcDbEntity
  8
0
100
AcDbCircle
 10
202.190874
 20
186.339322
 30
0.0
 40
6.488282
100
AcDbArc
 50
339.568104
 51
39.572077
  0
LINE
  5
54A9
100
AcDbEntity
  8
0
100
AcDbLine
 10
207.192196
 20
182.205972
 30
0.0
 11
189.440819
 21
182.205972
 31
0.0
  0
LINE
  5
54AA
100
AcDbEntity
  8
0
100
AcDbLine
 10
207.192196
 20
182.205972
 30
0.0
 11
208.679156
 21
184.781256
 31
0.0
  0
LINE
  5
54AB
100
AcDbEntity
  8
0
100
AcDbLine
 10
207.192196
 20
190.472672
 30
0.0
 11
194.788549
 21
190.472672
 31
0.0
  0
LINE
  5
54AC
100
AcDbEntity
  8
0
100
AcDbLine
 10
207.192196
 20
191.959761
 30
0.0
 11
195.336812
 21
191.959761
 31
0.0
  0
ARC
  5
54AD
100
AcDbEntity
  8
0
100
AcDbCircle
 10
170.679156
 20
200.205972
 30
0.0
 40
18.0
100
AcDbArc
 50
357.266044
 51
2.733956
  0
LINE
  5
54AE
100
AcDbEntity
  8
0
100
AcDbLine
 10
207.192196
 20
190.472672
 30
0.0
 11
207.192196
 21
191.959761
 31
0.0
  0
LINE
  5
54AF
100
AcDbEntity
  8
0
100
AcDbLine
 10
207.192196
 20
218.205972
 30
0.0
 11
189.440819
 21
218.205972
 31
0.0
  0
LINE
  5
54B0
100
AcDbEntity
  8
0
100
AcDbLine
 10
207.192196
 20
208.452184
 30
0.0
 11
195.336812
 21
208.452184
 31
0.0
  0
LINE
  5
54B1
100
AcDbEntity
  8
0
100
AcDbLine
 10
207.192196
 20
209.939273
 30
0.0
 11
194.788549
 21
209.939273
 31
0.0
  0
ARC
  5
54B2
100
AcDbEntity
  8
0
100
AcDbCircle
 10
202.190874
 20
214.072623
 30
0.0
 40
6.488282
100
AcDbArc
 50
320.427923
 51
20.431896
  0
LINE
  5
54B3
100
AcDbEntity
  8
0
100
AcDbLine
 10
207.192196
 20
209.939273
 30
0.0
 11
207.192196
 21
208.452184
 31
0.0
  0
LINE
  5
54B4
100
AcDbEntity
  8
0
100
AcDbLine
 10
207.192196
 20
218.205972
 30
0.0
 11
208.679156
 21
215.630689
 31
0.0
  0
INSERT
  5
54B9
100
AcDbEntity
  8
0
100
AcDbBlockReference
  2
YA
 10
211.929156
 20
276.311614
 30
0.0
 41
-0.514084
 42
0.514084
 43
0.514084
  0
LINE
  5
54BA
100
AcDbEntity
  8
0
100
AcDbLine
 10
193.679156
 20
288.811964
 30
0.0
 11
193.679156
 21
298.311964
 31
0.0
  0
LINE
  5
54BB
100
AcDbEntity
  8
0
100
AcDbLine
 10
195.679156
 20
292.311964
 30
0.0
 11
208.679156
 21
292.311964
 31
0.0
  0
LINE
  5
54BC
100
AcDbEntity
  8
0
100
AcDbLine
 10
193.679156
 20
288.811964
 30
0.0
 11
190.647911
 21
280.151263
 31
0.0
  0
ARC
  5
54BD
100
AcDbEntity
  8
0
100
AcDbCircle
 10
188.760194
 20
280.811964
 30
0.0
 40
2.0
100
AcDbArc
 50
270.0
 51
340.709954
  0
ARC
  5
54BE
100
AcDbEntity
  8
0
100
AcDbCircle
 10
195.679156
 20
294.311964
 30
0.0
 40
2.0
100
AcDbArc
 50
180.0
 51
270.0
  0
LINE
  5
54BF
100
AcDbEntity
  8
0
100
AcDbLine
 10
196.679156
 20
301.303114
 30
0.0
 11
196.679156
 21
308.363151
 31
0.0
  0
LINE
  5
54C0
100
AcDbEntity
  8
0
100
AcDbLine
 10
193.688006
 20
298.311964
 30
0.0
 11
196.679156
 21
301.303114
 31
0.0
  0
LINE
  5
54C1
100
AcDbEntity
  8
0
100
AcDbLine
 10
195.730343
 20
309.311964
 30
0.0
 11
196.679156
 21
308.363151
 31
0.0
  0
ARC
  5
54C2
100
AcDbEntity
  8
0
100
AcDbCircle
 10
184.545806
 20
319.823682
 30
0.0
 40
6.488282
100
AcDbArc
 50
69.568104
 51
129.572077
  0
LINE
  5
54C3
100
AcDbEntity
  8
0
100
AcDbLine
 10
188.679156
 20
324.825005
 30
0.0
 11
186.103872
 21
326.311964
 31
0.0
  0
LINE
  5
54C4
100
AcDbEntity
  8
0
100
AcDbLine
 10
147.679156
 20
317.311964
 30
0.0
 11
193.679156
 21
317.311964
 31
0.0
  0
LINE
  5
54C5
100
AcDbEntity
  8
0
100
AcDbLine
 10
186.103872
 20
326.311964
 30
0.0
 11
155.25444
 21
326.311964
 31
0.0
  0
LINE
  5
54C6
100
AcDbEntity
  8
0
100
AcDbLine
 10
160.945855
 20
324.825005
 30
0.0
 11
162.432945
 21
324.825005
 31
0.0
  0
LINE
  5
54C7
100
AcDbEntity
  8
0
100
AcDbLine
 10
160.945855
 20
324.825005
 30
0.0
 11
160.945855
 21
317.311964
 31
0.0
  0
LINE
  5
54C8
100
AcDbEntity
  8
0
100
AcDbLine
 10
152.679156
 20
317.311964
 30
0.0
 11
152.679156
 21
324.825005
 31
0.0
  0
ARC
  5
54C9
100
AcDbEntity
  8
0
100
AcDbCircle
 10
156.812505
 20
319.823682
 30
0.0
 40
6.488282
100
AcDbArc
 50
50.427923
 51
110.431896
  0
LINE
  5
54CA
100
AcDbEntity
  8
0
100
AcDbLine
 10
152.679156
 20
324.825005
 30
0.0
 11
155.25444
 21
326.311964
 31
0.0
  0
ARC
  5
54CB
100
AcDbEntity
  8
0
100
AcDbCircle
 10
170.679156
 20
302.703037
 30
0.0
 40
23.608927
100
AcDbArc
 50
69.556496
 51
110.443504
  0
LINE
  5
54CC
100
AcDbEntity
  8
0
100
AcDbLine
 10
162.432945
 20
324.825005
 30
0.0
 11
162.432945
 21
317.311964
 31
0.0
  0
LINE
  5
54CD
100
AcDbEntity
  8
0
100
AcDbLine
 10
180.412457
 20
324.825005
 30
0.0
 11
180.412457
 21
317.311964
 31
0.0
  0
LINE
  5
54CE
100
AcDbEntity
  8
0
100
AcDbLine
 10
178.925367
 20
324.825005
 30
0.0
 11
178.925367
 21
317.311964
 31
0.0
  0
LINE
  5
54CF
100
AcDbEntity
  8
0
100
AcDbLine
 10
180.412457
 20
324.825005
 30
0.0
 11
178.925367
 21
324.825005
 31
0.0
  0
LINE
  5
54D0
100
AcDbEntity
  8
0
100
AcDbLine
 10
188.679156
 20
317.311964
 30
0.0
 11
188.679156
 21
324.825005
 31
0.0
  0
LINE
  5
54D1
100
AcDbEntity
  8
0
100
AcDbLine
 10
340.17282
 20
105.026081
 30
0.0
 11
337.141575
 21
96.36538
 31
0.0
  0
LINE
  5
554F
100
AcDbEntity
  8
0
100
AcDbLine
 10
362.719339
 20
76.525731
 30
0.0
 11
362.719339
 21
108.525731
 31
0.0
  0
ARC
  5
5550
100
AcDbEntity
  8
0
100
AcDbCircle
 10
380.611904
 20
84.525731
 30
0.0
 40
17.892565
100
AcDbArc
 50
156.476307
 51
203.523693
  0
LINE
  5
5551
100
AcDbEntity
  8
0
100
AcDbLine
 10
362.719339
 20
76.525731
 30
0.0
 11
371.719339
 21
76.525731
 31
0.0
  0
LINE
  5
5552
100
AcDbEntity
  8
0
100
AcDbLine
 10
364.206298
 20
77.384302
 30
0.0
 11
441.232379
 21
77.384302
 31
0.0
  0
LINE
  5
5553
100
AcDbEntity
  8
0
100
AcDbLine
 10
364.206298
 20
76.525731
 30
0.0
 11
364.206298
 21
77.384302
 31
0.0
  0
ARC
  5
5554
100
AcDbEntity
  8
0
100
AcDbCircle
 10
380.611904
 20
100.525731
 30
0.0
 40
17.892565
100
AcDbArc
 50
156.476307
 51
203.523693
  0
LINE
  5
5557
100
AcDbEntity
  8
0
100
AcDbLine
 10
364.206298
 20
93.384302
 30
0.0
 11
364.206298
 21
91.667159
 31
0.0
  0
LINE
  5
5559
100
AcDbEntity
  8
0
100
AcDbLine
 10
364.206298
 20
107.667159
 30
0.0
 11
379.719339
 21
107.667159
 31
0.0
  0
LINE
  5
555A
100
AcDbEntity
  8
0
100
AcDbLine
 10
364.206298
 20
108.525731
 30
0.0
 11
364.206298
 21
107.667159
 31
0.0
  0
ARC
  5
555B
100
AcDbEntity
  8
0
100
AcDbCircle
 10
424.826773
 20
100.525731
 30
0.0
 40
17.892565
100
AcDbArc
 50
336.476307
 51
23.523693
  0
LINE
  5
555C
100
AcDbEntity
  8
0
100
AcDbLine
 10
442.719339
 20
76.525731
 30
0.0
 11
442.719339
 21
108.525731
 31
0.0
  0
LINE
  5
555D
100
AcDbEntity
  8
0
100
AcDbLine
 10
442.719339
 20
76.526081
 30
0.0
 11
442.719339
 21
108.526081
 31
0.0
  0
ARC
  5
555E
100
AcDbEntity
  8
0
100
AcDbCircle
 10
424.826773
 20
84.525731
 30
0.0
 40
17.892565
100
AcDbArc
 50
336.476307
 51
23.523693
  0
LINE
  5
555F
100
AcDbEntity
  8
0
100
AcDbLine
 10
441.232379
 20
76.525731
 30
0.0
 11
441.232379
 21
77.384302
 31
0.0
  0
LINE
  5
5560
100
AcDbEntity
  8
0
100
AcDbLine
 10
441.232379
 20
93.384302
 30
0.0
 11
441.232379
 21
91.667159
 31
0.0
  0
LINE
  5
5561
100
AcDbEntity
  8
0
100
AcDbLine
 10
441.232379
 20
108.525731
 30
0.0
 11
441.232379
 21
107.667159
 31
0.0
  0
LINE
  5
5562
100
AcDbEntity
  8
0
100
AcDbLine
 10
425.719339
 20
107.667159
 30
0.0
 11
441.232379
 21
107.667159
 31
0.0
  0
LINE
  5
5565
100
AcDbEntity
  8
0
100
AcDbLine
 10
362.719339
 20
260.311614
 30
0.0
 11
362.719339
 21
292.311614
 31
0.0
  0
ARC
  5
5566
100
AcDbEntity
  8
0
100
AcDbCircle
 10
380.611904
 20
284.311614
 30
0.0
 40
17.892565
100
AcDbArc
 50
156.476307
 51
203.523693
  0
LINE
  5
5567
100
AcDbEntity
  8
0
100
AcDbLine
 10
362.719339
 20
260.311964
 30
0.0
 11
362.719339
 21
292.311964
 31
0.0
  0
ARC
  5
5568
100
AcDbEntity
  8
0
100
AcDbCircle
 10
380.611904
 20
268.311614
 30
0.0
 40
17.892565
100
AcDbArc
 50
156.476307
 51
203.523693
  0
LINE
  5
5569
100
AcDbEntity
  8
0
100
AcDbLine
 10
364.206298
 20
260.311614
 30
0.0
 11
364.206298
 21
261.170186
 31
0.0
  0
LINE
  5
556A
100
AcDbEntity
  8
0
100
AcDbLine
 10
364.206298
 20
277.170186
 30
0.0
 11
364.206298
 21
275.453043
 31
0.0
  0
LINE
  5
556B
100
AcDbEntity
  8
0
100
AcDbLine
 10
364.206298
 20
292.311614
 30
0.0
 11
364.206298
 21
291.453043
 31
0.0
  0
LINE
  5
556C
100
AcDbEntity
  8
0
100
AcDbLine
 10
364.206298
 20
291.453043
 30
0.0
 11
379.719339
 21
291.453043
 31
0.0
  0
LINE
  5
556D
100
AcDbEntity
  8
0
100
AcDbLine
 10
364.206298
 20
261.170186
 30
0.0
 11
441.232379
 21
261.170186
 31
0.0
  0
LINE
  5
556E
100
AcDbEntity
  8
0
100
AcDbLine
 10
425.719339
 20
291.453043
 30
0.0
 11
441.232379
 21
291.453043
 31
0.0
  0
LINE
  5
556F
100
AcDbEntity
  8
0
100
AcDbLine
 10
441.232379
 20
292.311614
 30
0.0
 11
441.232379
 21
291.453043
 31
0.0
  0
ARC
  5
5570
100
AcDbEntity
  8
0
100
AcDbCircle
 10
424.826773
 20
284.311614
 30
0.0
 40
17.892565
100
AcDbArc
 50
336.476307
 51
23.523693
  0
ARC
  5
5571
100
AcDbEntity
  8
0
100
AcDbCircle
 10
424.826773
 20
268.311614
 30
0.0
 40
17.892565
100
AcDbArc
 50
336.476307
 51
23.523693
  0
LINE
  5
5572
100
AcDbEntity
  8
0
100
AcDbLine
 10
441.232379
 20
260.311614
 30
0.0
 11
441.232379
 21
261.170186
 31
0.0
  0
LINE
  5
5573
100
AcDbEntity
  8
0
100
AcDbLine
 10
442.719339
 20
260.311964
 30
0.0
 11
442.719339
 21
292.311964
 31
0.0
  0
LINE
  5
5574
100
AcDbEntity
  8
0
100
AcDbLine
 10
441.232379
 20
277.170186
 30
0.0
 11
441.232379
 21
275.453043
 31
0.0
  0
LINE
  5
5575
100
AcDbEntity
  8
0
100
AcDbLine
 10
132.679156
 20
260.311964
 30
0.0
 11
132.679156
 21
292.311964
 31
0.0
  0
ARC
  5
5576
100
AcDbEntity
  8
0
100
AcDbCircle
 10
150.571721
 20
284.311614
 30
0.0
 40
17.892565
100
AcDbArc
 50
156.476307
 51
203.523693
  0
LINE
  5
5577
100
AcDbEntity
  8
0
100
AcDbLine
 10
132.679156
 20
260.311614
 30
0.0
 11
132.679156
 21
292.311614
 31
0.0
  0
ARC
  5
5578
100
AcDbEntity
  8
0
100
AcDbCircle
 10
150.571721
 20
268.311614
 30
0.0
 40
17.892565
100
AcDbArc
 50
156.476307
 51
203.523693
  0
LINE
  5
5579
100
AcDbEntity
  8
0
100
AcDbLine
 10
134.166116
 20
260.311614
 30
0.0
 11
134.166116
 21
261.170186
 31
0.0
  0
LINE
  5
557A
100
AcDbEntity
  8
0
100
AcDbLine
 10
134.166116
 20
277.170186
 30
0.0
 11
134.166116
 21
275.453043
 31
0.0
  0
LINE
  5
557B
100
AcDbEntity
  8
0
100
AcDbLine
 10
134.166116
 20
292.311614
 30
0.0
 11
134.166116
 21
291.453043
 31
0.0
  0
LINE
  5
557C
100
AcDbEntity
  8
0
100
AcDbLine
 10
134.166116
 20
291.453043
 30
0.0
 11
147.679156
 21
291.453043
 31
0.0
  0
LINE
  5
557D
100
AcDbEntity
  8
0
100
AcDbLine
 10
134.166116
 20
261.170186
 30
0.0
 11
207.192196
 21
261.170186
 31
0.0
  0
LINE
  5
557E
100
AcDbEntity
  8
0
100
AcDbLine
 10
132.679156
 20
76.525731
 30
0.0
 11
132.679156
 21
108.525731
 31
0.0
  0
ARC
  5
557F
100
AcDbEntity
  8
0
100
AcDbCircle
 10
150.571721
 20
100.525731
 30
0.0
 40
17.892565
100
AcDbArc
 50
156.476307
 51
203.523693
  0
LINE
  5
5580
100
AcDbEntity
  8
0
100
AcDbLine
 10
132.679156
 20
76.526081
 30
0.0
 11
132.679156
 21
108.526081
 31
0.0
  0
ARC
  5
5581
100
AcDbEntity
  8
0
100
AcDbCircle
 10
150.571721
 20
84.525731
 30
0.0
 40
17.892565
100
AcDbArc
 50
156.476307
 51
203.523693
  0
LINE
  5
5582
100
AcDbEntity
  8
0
100
AcDbLine
 10
134.166116
 20
76.525731
 30
0.0
 11
134.166116
 21
77.384302
 31
0.0
  0
LINE
  5
5583
100
AcDbEntity
  8
0
100
AcDbLine
 10
134.166116
 20
93.384302
 30
0.0
 11
134.166116
 21
91.667159
 31
0.0
  0
LINE
  5
5584
100
AcDbEntity
  8
0
100
AcDbLine
 10
134.166116
 20
108.525731
 30
0.0
 11
134.166116
 21
107.667159
 31
0.0
  0
LINE
  5
5586
100
AcDbEntity
  8
0
100
AcDbLine
 10
134.166116
 20
107.667159
 30
0.0
 11
147.679156
 21
107.667159
 31
0.0
  0
LINE
  5
5587
100
AcDbEntity
  8
0
100
AcDbLine
 10
134.166116
 20
77.384302
 30
0.0
 11
207.192196
 21
77.384302
 31
0.0
  0
LINE
  5
5588
100
AcDbEntity
  8
0
100
AcDbLine
 10
208.679156
 20
76.526081
 30
0.0
 11
208.679156
 21
108.526081
 31
0.0
  0
ARC
  5
5589
100
AcDbEntity
  8
0
100
AcDbCircle
 10
190.786591
 20
100.525731
 30
0.0
 40
17.892565
100
AcDbArc
 50
336.476307
 51
23.523693
  0
LINE
  5
558A
100
AcDbEntity
  8
0
100
AcDbLine
 10
208.679156
 20
76.525731
 30
0.0
 11
208.679156
 21
108.525731
 31
0.0
  0
LINE
  5
558B
100
AcDbEntity
  8
0
100
AcDbLine
 10
208.679156
 20
76.526081
 30
0.0
 11
208.679156
 21
108.526081
 31
0.0
  0
ARC
  5
558C
100
AcDbEntity
  8
0
100
AcDbCircle
 10
190.786591
 20
84.525731
 30
0.0
 40
17.892565
100
AcDbArc
 50
336.476307
 51
23.523693
  0
LINE
  5
558D
100
AcDbEntity
  8
0
100
AcDbLine
 10
207.192196
 20
76.525731
 30
0.0
 11
207.192196
 21
77.384302
 31
0.0
  0
LINE
  5
558E
100
AcDbEntity
  8
0
100
AcDbLine
 10
207.192196
 20
93.384302
 30
0.0
 11
207.192196
 21
91.667159
 31
0.0
  0
LINE
  5
558F
100
AcDbEntity
  8
0
100
AcDbLine
 10
207.192196
 20
108.525731
 30
0.0
 11
207.192196
 21
107.667159
 31
0.0
  0
LINE
  5
5590
100
AcDbEntity
  8
0
100
AcDbLine
 10
207.192196
 20
107.667159
 30
0.0
 11
193.679156
 21
107.667159
 31
0.0
  0
LINE
  5
5591
100
AcDbEntity
  8
0
100
AcDbLine
 10
208.679156
 20
260.311614
 30
0.0
 11
208.679156
 21
292.311614
 31
0.0
  0
ARC
  5
5592
100
AcDbEntity
  8
0
100
AcDbCircle
 10
190.786591
 20
284.311614
 30
0.0
 40
17.892565
100
AcDbArc
 50
336.476307
 51
23.523693
  0
LINE
  5
5593
100
AcDbEntity
  8
0
100
AcDbLine
 10
208.679156
 20
260.311964
 30
0.0
 11
208.679156
 21
292.311964
 31
0.0
  0
LINE
  5
5594
100
AcDbEntity
  8
0
100
AcDbLine
 10
208.679156
 20
260.311964
 30
0.0
 11
208.679156
 21
292.311964
 31
0.0
  0
ARC
  5
5595
100
AcDbEntity
  8
0
100
AcDbCircle
 10
190.786591
 20
268.311614
 30
0.0
 40
17.892565
100
AcDbArc
 50
336.476307
 51
23.523693
  0
LINE
  5
5596
100
AcDbEntity
  8
0
100
AcDbLine
 10
207.192196
 20
260.311614
 30
0.0
 11
207.192196
 21
261.170186
 31
0.0
  0
LINE
  5
5597
100
AcDbEntity
  8
0
100
AcDbLine
 10
207.192196
 20
277.170186
 30
0.0
 11
207.192196
 21
275.453043
 31
0.0
  0
LINE
  5
5598
100
AcDbEntity
  8
0
100
AcDbLine
 10
207.192196
 20
292.311614
 30
0.0
 11
207.192196
 21
291.453043
 31
0.0
  0
LINE
  5
559B
100
AcDbEntity
  8
0
100
AcDbLine
 10
207.192196
 20
291.453043
 30
0.0
 11
193.679156
 21
291.453043
 31
0.0
  0
CIRCLE
  5
55CE
100
AcDbEntity
  8
0
100
AcDbCircle
 10
402.719339
 20
200.205972
 30
0.0
 40
25.0
  0
CIRCLE
  5
55CF
100
AcDbEntity
  8
0
100
AcDbCircle
 10
170.679156
 20
200.205972
 30
0.0
 40
25.0
  0
ARC
  5
55D1
100
AcDbEntity
  8
0
100
AcDbCircle
 10
379.719339
 20
315.311964
 30
0.0
 40
2.0
100
AcDbArc
 50
90.0
 51
180.0
  0
ARC
  5
55D2
100
AcDbEntity
  8
0
100
AcDbCircle
 10
425.719339
 20
315.311964
 30
0.0
 40
2.0
100
AcDbArc
 50
360.0
 51
90.0
  0
ARC
  5
55D3
100
AcDbEntity
  8
0
100
AcDbCircle
 10
147.679156
 20
315.311964
 30
0.0
 40
2.0
100
AcDbArc
 50
90.0
 51
180.0
  0
ARC
  5
55D4
100
AcDbEntity
  8
0
100
AcDbCircle
 10
193.679156
 20
315.311964
 30
0.0
 40
2.0
100
AcDbArc
 50
360.0
 51
90.0
  0
ARC
  5
55D5
100
AcDbEntity
  8
0
100
AcDbCircle
 10
451.968425
 20
131.526081
 30
0.0
 40
2.0
100
AcDbArc
 50
90.0
 51
180.0
  0
ARC
  5
55D6
100
AcDbEntity
  8
0
100
AcDbCircle
 10
497.968425
 20
131.526081
 30
0.0
 40
2.0
100
AcDbArc
 50
360.0
 51
90.0
  0
ARC
  5
55D7
100
AcDbEntity
  8
0
100
AcDbCircle
 10
379.719339
 20
131.526081
 30
0.0
 40
2.0
100
AcDbArc
 50
90.0
 51
180.0
  0
ARC
  5
55D8
100
AcDbEntity
  8
0
100
AcDbCircle
 10
425.719339
 20
131.526081
 30
0.0
 40
2.0
100
AcDbArc
 50
0.0
 51
90.0
  0
ARC
  5
55D9
100
AcDbEntity
  8
0
100
AcDbCircle
 10
294.17282
 20
131.526081
 30
0.0
 40
2.0
100
AcDbArc
 50
90.0
 51
180.0
  0
ARC
  5
55DA
100
AcDbEntity
  8
0
100
AcDbCircle
 10
340.17282
 20
131.526081
 30
0.0
 40
2.0
100
AcDbArc
 50
0.0
 51
90.0
  0
ARC
  5
55DB
100
AcDbEntity
  8
0
100
AcDbCircle
 10
62.132638
 20
131.526081
 30
0.0
 40
2.0
100
AcDbArc
 50
90.0
 51
180.0
  0
ARC
  5
55DC
100
AcDbEntity
  8
0
100
AcDbCircle
 10
108.132638
 20
131.526081
 30
0.0
 40
2.0
100
AcDbArc
 50
0.0
 51
90.0
  0
ARC
  5
55DD
100
AcDbEntity
  8
0
100
AcDbCircle
 10
147.679156
 20
131.526081
 30
0.0
 40
2.0
100
AcDbArc
 50
90.0
 51
180.0
  0
ARC
  5
55DE
100
AcDbEntity
  8
0
100
AcDbCircle
 10
193.679156
 20
131.526081
 30
0.0
 40
2.0
100
AcDbArc
 50
0.0
 51
90.0
  0
ARC
  5
55DF
100
AcDbEntity
  8
0
100
AcDbCircle
 10
219.928242
 20
131.526081
 30
0.0
 40
2.0
100
AcDbArc
 50
90.0
 51
180.0
  0
ARC
  5
55E0
100
AcDbEntity
  8
0
100
AcDbCircle
 10
265.928242
 20
131.526081
 30
0.0
 40
2.0
100
AcDbArc
 50
360.0
 51
90.0
  0
VIEWPORT
  5
41
100
AcDbEntity
 67
     1
  8
0
100
AcDbViewport
 10
117.358407
 20
73.5
 30
0.0
 40
234.716814
 41
147.0
 68
    -1
 69
     1
1001
ACAD
1000
MVIEW
1002
{
1070
    16
1010
0.0
1020
0.0
1030
0.0
1010
0.0
1020
0.0
1030
1.0
1040
0.0
1040
147.0
1040
117.358407
1040
73.5
1040
50.0
1040
0.0
1040
0.0
1070
     0
1070
   100
1070
     1
1070
     1
1070
     0
1070
     0
1070
     0
1070
     0
1040
0.0
1040
0.0
1040
0.0
1040
1.0
1040
1.0
1040
0.0
1040
0.0
1070
     0
1002
{
1002
}
1002
}
  0
ENDSEC
  0
SECTION
  2
OBJECTS
  0
DICTIONARY
  5
C
100
AcDbDictionary
  3
ACAD_GROUP
350
D
  3
ACAD_MLINESTYLE
350
E
  0
DICTIONARY
  5
D
102
{ACAD_REACTORS
330
C
102
}
100
AcDbDictionary
  0
DICTIONARY
  5
E
102
{ACAD_REACTORS
330
C
102
}
100
AcDbDictionary
  3
STANDARD
350
1B
  0
MLINESTYLE
  5
1B
102
{ACAD_REACTORS
330
E
102
}
100
AcDbMlineStyle
  2
STANDARD
 70
     0
  3

 62
     0
 51
90.0
 52
90.0
 71
     2
 49
0.5
 62
   256
  6
BYLAYER
 49
-0.5
 62
   256
  6
BYLAYER
  0
ENDSEC
  0
EOF
