  0
SECTION
  2
HEADER
  9
$ACADVER
  1
AC1012
  9
$DWGCODEPAGE
  3
dos932
  9
$INSBASE
 10
0.0
 20
0.0
 30
0.0
  9
$EXTMIN
 10
33.0
 20
15.0
 30
0.0
  9
$EXTMAX
 10
858.0
 20
573.0
 30
0.0
  9
$LIMMIN
 10
0.0
 20
0.0
  9
$LIMMAX
 10
891.0
 20
630.0
  9
$ORTHOMODE
 70
     1
  9
$REGENMODE
 70
     1
  9
$FILLMODE
 70
     1
  9
$QTEXTMODE
 70
     0
  9
$MIRRTEXT
 70
     1
  9
$DRAGMODE
 70
     2
  9
$LTSCALE
 40
12.0
  9
$OSMODE
 70
     0
  9
$ATTMODE
 70
     1
  9
$TEXTSIZE
 40
12.0
  9
$TRACEWID
 40
0.05
  9
$TEXTSTYLE
  7
STANDARD
  9
$CLAYER
  8
0
  9
$CELTYPE
  6
BYLAYER
  9
$CECOLOR
 62
   256
  9
$CELTSCALE
 40
1.0
  9
$DELOBJ
 70
     1
  9
$DISPSILH
 70
     0
  9
$DIMSCALE
 40
3.0
  9
$DIMASZ
 40
2.799999999999999
  9
$DIMEXO
 40
1.0
  9
$DIMDLI
 40
5.0
  9
$DIMRND
 40
0.1
  9
$DIMDLE
 40
0.0
  9
$DIMEXE
 40
1.0
  9
$DIMTP
 40
0.0
  9
$DIMTM
 40
0.0
  9
$DIMTXT
 40
2.5
  9
$DIMCEN
 40
0.0
  9
$DIMTSZ
 40
0.0
  9
$DIMTOL
 70
     0
  9
$DIMLIM
 70
     0
  9
$DIMTIH
 70
     0
  9
$DIMTOH
 70
     0
  9
$DIMSE1
 70
     0
  9
$DIMSE2
 70
     0
  9
$DIMTAD
 70
     3
  9
$DIMZIN
 70
     8
  9
$DIMBLK
  1

  9
$DIMASO
 70
     1
  9
$DIMSHO
 70
     1
  9
$DIMPOST
  1

  9
$DIMAPOST
  1

  9
$DIMALT
 70
     0
  9
$DIMALTD
 70
     2
  9
$DIMALTF
 40
1.0
  9
$DIMLFAC
 40
1.0
  9
$DIMTOFL
 70
     1
  9
$DIMTVP
 40
0.0
  9
$DIMTIX
 70
     0
  9
$DIMSOXD
 70
     0
  9
$DIMSAH
 70
     1
  9
$DIMBLK1
  1
OPEN
  9
$DIMBLK2
  1
OPEN
  9
$DIMSTYLE
  2
DIM1
  9
$DIMCLRD
 70
     2
  9
$DIMCLRE
 70
     2
  9
$DIMCLRT
 70
     2
  9
$DIMTFAC
 40
0.7
  9
$DIMGAP
 40
0.85
  9
$DIMJUST
 70
     0
  9
$DIMSD1
 70
     0
  9
$DIMSD2
 70
     0
  9
$DIMTOLJ
 70
     1
  9
$DIMTZIN
 70
     8
  9
$DIMALTZ
 70
     8
  9
$DIMALTTZ
 70
     8
  9
$DIMFIT
 70
     3
  9
$DIMUPT
 70
     0
  9
$DIMUNIT
 70
     2
  9
$DIMDEC
 70
     2
  9
$DIMTDEC
 70
     3
  9
$DIMALTU
 70
     2
  9
$DIMALTTD
 70
     3
  9
$DIMTXSTY
  7
DIM
  9
$DIMAUNIT
 70
     0
  9
$LUNITS
 70
     2
  9
$LUPREC
 70
     4
  9
$SKETCHINC
 40
0.1
  9
$FILLETRAD
 40
0.0
  9
$AUNITS
 70
     0
  9
$AUPREC
 70
     0
  9
$MENU
  1
C:\ACADR13\WIN\SUPPORT\ACAD.mnc
  9
$ELEVATION
 40
0.0
  9
$PELEVATION
 40
0.0
  9
$THICKNESS
 40
0.0
  9
$LIMCHECK
 70
     0
  9
$BLIPMODE
 70
     0
  9
$CHAMFERA
 40
0.0
  9
$CHAMFERB
 40
0.0
  9
$CHAMFERC
 40
0.0
  9
$CHAMFERD
 40
0.0
  9
$SKPOLY
 70
     0
  9
$TDCREATE
 40
2451564.587411898
  9
$TDUPDATE
 40
2452129.439313507
  9
$TDINDWG
 40
0.1175550694
  9
$TDUSRTIMER
 40
0.1175550694
  9
$USRTIMER
 70
     1
  9
$ANGBASE
 50
0.0
  9
$ANGDIR
 70
     0
  9
$PDMODE
 70
     0
  9
$PDSIZE
 40
0.0
  9
$PLINEWID
 40
0.0
  9
$COORDS
 70
     2
  9
$SPLFRAME
 70
     0
  9
$SPLINETYPE
 70
     6
  9
$SPLINESEGS
 70
     8
  9
$ATTDIA
 70
     0
  9
$ATTREQ
 70
     1
  9
$HANDLING
 70
-16383
  9
$HANDSEED
  5
37ED
  9
$SURFTAB1
 70
     6
  9
$SURFTAB2
 70
     6
  9
$SURFTYPE
 70
     6
  9
$SURFU
 70
     6
  9
$SURFV
 70
     6
  9
$UCSNAME
  2

  9
$UCSORG
 10
0.0
 20
0.0
 30
0.0
  9
$UCSXDIR
 10
1.0
 20
0.0
 30
0.0
  9
$UCSYDIR
 10
0.0
 20
1.0
 30
0.0
  9
$PUCSNAME
  2

  9
$PUCSORG
 10
0.0
 20
0.0
 30
0.0
  9
$PUCSXDIR
 10
1.0
 20
0.0
 30
0.0
  9
$PUCSYDIR
 10
0.0
 20
1.0
 30
0.0
  9
$USERI1
 70
     0
  9
$USERI2
 70
     0
  9
$USERI3
 70
     0
  9
$USERI4
 70
     0
  9
$USERI5
 70
     0
  9
$USERR1
 40
0.0
  9
$USERR2
 40
0.0
  9
$USERR3
 40
0.0
  9
$USERR4
 40
0.0
  9
$USERR5
 40
0.0
  9
$WORLDVIEW
 70
     1
  9
$SHADEDGE
 70
     3
  9
$SHADEDIF
 70
    70
  9
$TILEMODE
 70
     1
  9
$MAXACTVP
 70
    16
  9
$PINSBASE
 10
0.0
 20
0.0
 30
0.0
  9
$PLIMCHECK
 70
     0
  9
$PEXTMIN
 10
1.000000000000000E+20
 20
1.000000000000000E+20
 30
1.000000000000000E+20
  9
$PEXTMAX
 10
-1.000000000000000E+20
 20
-1.000000000000000E+20
 30
-1.000000000000000E+20
  9
$PLIMMIN
 10
0.0
 20
0.0
  9
$PLIMMAX
 10
20.0
 20
147.0
  9
$UNITMODE
 70
     0
  9
$VISRETAIN
 70
     0
  9
$PLINEGEN
 70
     0
  9
$PSLTSCALE
 70
     1
  9
$TREEDEPTH
 70
  3020
  9
$PICKSTYLE
 70
     1
  9
$CMLSTYLE
  2
STANDARD
  9
$CMLJUST
 70
     0
  9
$CMLSCALE
 40
1.0
  9
$SAVEIMAGES
 70
     1
  0
ENDSEC
  0
SECTION
  2
CLASSES
  0
CLASS
  1
LWPOLYLINE
  2
AcDbPolyline
  3
AutoCAD 2000
 90
    32768
280
     0
281
     1
  0
CLASS
  1
ACDBDICTIONARYWDFLT
  2
AcDbDictionaryWithDefault
  3
AutoCAD 2000
 90
    32768
280
     0
281
     0
  0
CLASS
  1
ACDBPLACEHOLDER
  2
AcDbPlaceHolder
  3
AutoCAD 2000
 90
    32768
280
     0
281
     0
  0
CLASS
  1
LAYOUT
  2
AcDbLayout
  3
AutoCAD 2000
 90
    32768
280
     0
281
     0
  0
CLASS
  1
LONG_TRANSACTION
  2
AcDbLongTransaction
  3
AutoCAD 2000
 90
    32768
280
     0
281
     0
  0
CLASS
  1
LWPOLYLINE
  2
AcDbPolyline
  3
AutoCAD 2000
 90
    32768
280
     0
281
     1
  0
CLASS
  1
HATCH
  2
AcDbHatch
  3
AutoCAD 2000
 90
    32768
280
     0
281
     1
  0
CLASS
  1
XRECORD
  2
AcDbXrecord
  3
AutoCAD 2000
 90
    32768
280
     0
281
     0
  0
ENDSEC
  0
SECTION
  2
TABLES
  0
TABLE
  2
VPORT
  5
8
330
0
100
AcDbSymbolTable
 70
     3
  0
VPORT
  5
37AD
330
8
100
AcDbSymbolTableRecord
100
AcDbViewportTableRecord
  2
*ACTIVE
 70
     0
 10
0.0
 20
0.0
 11
1.0
 21
1.0
 12
656.4392431069157
 22
330.6463840048697
 13
0.0
 23
0.0
 14
1.0
 24
1.0
 15
0.0
 25
0.0
 16
0.0
 26
0.0
 36
1.0
 17
0.0
 27
0.0
 37
0.0
 40
661.2927680097394
 41
1.985321100917431
 42
50.0
 43
0.0
 44
0.0
 50
0.0
 51
0.0
 71
     0
 72
   100
 73
     1
 74
     1
 75
     0
 76
     0
 77
     0
 78
     0
  0
ENDTAB
  0
TABLE
  2
LTYPE
  5
5
330
0
100
AcDbSymbolTable
 70
     1
  0
LTYPE
  5
12
330
5
100
AcDbSymbolTableRecord
100
AcDbLinetypeTableRecord
  2
BYBLOCK
 70
     0
  3

 72
    65
 73
     0
 40
0.0
  0
LTYPE
  5
13
330
5
100
AcDbSymbolTableRecord
100
AcDbLinetypeTableRecord
  2
BYLAYER
 70
     0
  3

 72
    65
 73
     0
 40
0.0
  0
LTYPE
  5
14
330
5
100
AcDbSymbolTableRecord
100
AcDbLinetypeTableRecord
  2
CONTINUOUS
 70
     0
  3
Solid line
 72
    65
 73
     0
 40
0.0
  0
ENDTAB
  0
TABLE
  2
LAYER
  5
2
330
0
100
AcDbSymbolTable
 70
     1
  0
LAYER
  5
F
330
2
100
AcDbSymbolTableRecord
100
AcDbLayerTableRecord
  2
0
 70
     0
 62
     7
  6
CONTINUOUS
  0
ENDTAB
  0
TABLE
  2
STYLE
  5
3
330
0
100
AcDbSymbolTable
 70
     3
  0
STYLE
  5
10
330
3
100
AcDbSymbolTableRecord
100
AcDbTextStyleTableRecord
  2
STANDARD
 70
     0
 40
0.0
 41
0.8
 50
0.0
 71
     0
 42
12.0
  3
simplex
  4
extfont
  0
STYLE
  5
237C
330
3
100
AcDbSymbolTableRecord
100
AcDbTextStyleTableRecord
  2
PTSH
 70
     0
 40
0.0
 41
0.9
 50
0.0
 71
     0
 42
4.0
  3
SIMPLEX
  4
EXTFONT
  0
STYLE
  5
2592
330
3
100
AcDbSymbolTableRecord
100
AcDbTextStyleTableRecord
  2
DIM
 70
     0
 40
0.0
 41
0.8
 50
0.0
 71
     0
 42
4.0
  3
simplex
  4
extfont
  0
ENDTAB
  0
TABLE
  2
VIEW
  5
6
330
0
100
AcDbSymbolTable
 70
     0
  0
ENDTAB
  0
TABLE
  2
UCS
  5
7
330
0
100
AcDbSymbolTable
 70
     0
  0
ENDTAB
  0
TABLE
  2
APPID
  5
9
330
0
100
AcDbSymbolTable
 70
     1
  0
APPID
  5
11
330
9
100
AcDbSymbolTableRecord
100
AcDbRegAppTableRecord
  2
ACAD
 70
     0
  0
ENDTAB
  0
TABLE
  2
DIMSTYLE
  5
A
330
0
100
AcDbSymbolTable
 70
     1
  0
DIMSTYLE
105
2237
330
A
100
AcDbSymbolTableRecord
100
AcDbDimStyleTableRecord
  2
DIM1
 70
     0
  3

  4

  5

  6
OPEN
  7
OPEN
 40
3.0
 41
2.799999999999999
 42
1.0
 43
5.0
 44
1.0
 45
0.1
 46
0.0
 47
0.0
 48
0.0
140
2.5
141
0.0
142
0.0
143
1.0
144
1.0
145
0.0
146
0.7
147
0.85
 71
     0
 72
     0
 73
     0
 74
     0
 75
     0
 76
     0
 77
     3
 78
     8
170
     0
171
     2
172
     1
173
     1
174
     0
175
     0
176
     2
177
     2
178
     2
270
     2
271
     2
272
     3
273
     2
274
     3
340
2592
275
     0
280
     0
281
     0
282
     0
283
     1
284
     8
285
     8
286
     8
287
     3
288
     0
  0
ENDTAB
  0
TABLE
  2
BLOCK_RECORD
  5
1
330
0
100
AcDbSymbolTable
 70
     2
  0
BLOCK_RECORD
  5
18
102
{ACAD_XDICTIONARY
360
37B0
102
}
330
1
100
AcDbSymbolTableRecord
100
AcDbBlockTableRecord
  2
*MODEL_SPACE
  0
BLOCK_RECORD
  5
15
102
{ACAD_XDICTIONARY
360
37AE
102
}
330
1
100
AcDbSymbolTableRecord
100
AcDbBlockTableRecord
  2
*PAPER_SPACE
  0
BLOCK_RECORD
  5
2448
330
1
100
AcDbSymbolTableRecord
100
AcDbBlockTableRecord
  2
_OPEN
  0
BLOCK_RECORD
  5
3621
330
1
100
AcDbSymbolTableRecord
100
AcDbBlockTableRecord
  2
YA
  0
ENDTAB
  0
ENDSEC
  0
SECTION
  2
BLOCKS
  0
BLOCK
  5
3C
330
18
100
AcDbEntity
  8
0
100
AcDbBlockBegin
  2
*MODEL_SPACE
 70
     0
 10
0.0
 20
0.0
 30
0.0
  3
*MODEL_SPACE
  1

  0
ENDBLK
  5
3D
330
18
100
AcDbEntity
  8
0
100
AcDbBlockEnd
  0
BLOCK
  5
3A
330
15
100
AcDbEntity
 67
     1
  8
0
100
AcDbBlockBegin
  2
*PAPER_SPACE
 70
     0
 10
0.0
 20
0.0
 30
0.0
  3
*PAPER_SPACE
  1

  0
ENDBLK
  5
3B
330
15
100
AcDbEntity
 67
     1
  8
0
100
AcDbBlockEnd
  0
BLOCK
  5
2449
330
2448
100
AcDbEntity
  8
0
 48
4.0
100
AcDbBlockBegin
  2
_OPEN
 70
     0
 10
0.0
 20
0.0
 30
0.0
  3
_OPEN
  1
H1111.DWG
  0
LINE
  5
244A
330
2448
100
AcDbEntity
  8
0
  6
BYBLOCK
 62
     0
 48
4.0
100
AcDbLine
 10
-1.0
 20
0.1666666666666666
 30
0.0
 11
0.0
 21
0.0
 31
0.0
  0
LINE
  5
244B
330
2448
100
AcDbEntity
  8
0
  6
BYBLOCK
 62
     0
 48
4.0
100
AcDbLine
 10
0.0
 20
0.0
 30
0.0
 11
-1.0
 21
-0.1666666666666666
 31
0.0
  0
LINE
  5
244C
330
2448
100
AcDbEntity
  8
0
  6
BYBLOCK
 62
     0
 48
4.0
100
AcDbLine
 10
0.0
 20
0.0
 30
0.0
 11
-1.0
 21
0.0
 31
0.0
  0
ENDBLK
  5
244D
330
2448
100
AcDbEntity
  8
0
 48
4.0
100
AcDbBlockEnd
  0
BLOCK
  5
3629
330
3621
100
AcDbEntity
  8
0
100
AcDbBlockBegin
  2
YA
 70
     0
 10
0.0
 20
0.0
 30
0.0
  3
YA
  1

  0
LINE
  5
3622
330
3621
100
AcDbEntity
  8
0
100
AcDbLine
 10
-16.80650000000002
 20
2.80099999999993
 30
0.0
 11
-8.403500000000008
 21
2.80099999999993
 31
0.0
  0
LINE
  5
3623
330
3621
100
AcDbEntity
  8
0
100
AcDbLine
 10
-8.403500000000008
 20
2.80099999999993
 30
0.0
 11
-7.002499999999997
 21
1.400499999999965
 31
0.0
  0
LINE
  5
3624
330
3621
100
AcDbEntity
  8
0
100
AcDbLine
 10
-7.002499999999997
 20
1.400499999999965
 30
0.0
 11
-2.861999999999966
 21
1.400499999999965
 31
0.0
  0
LINE
  5
3625
330
3621
100
AcDbEntity
  8
0
100
AcDbLine
 10
-2.861999999999966
 20
1.400499999999965
 30
0.0
 11
-2.861999999999966
 21
2.80099999999993
 31
0.0
  0
LINE
  5
3626
330
3621
100
AcDbEntity
  8
0
100
AcDbLine
 10
-2.861999999999966
 20
2.80099999999993
 30
0.0
 11
0.0
 21
0.0
 31
0.0
  0
LINE
  5
3627
330
3621
100
AcDbEntity
  8
0
100
AcDbLine
 10
0.0
 20
0.0
 30
0.0
 11
-14.00549999999998
 21
0.0
 31
0.0
  0
LINE
  5
3628
330
3621
100
AcDbEntity
  8
0
100
AcDbLine
 10
-14.00549999999998
 20
0.0
 30
0.0
 11
-16.80650000000002
 21
2.80099999999993
 31
0.0
  0
ENDBLK
  5
362A
330
3621
100
AcDbEntity
  8
0
100
AcDbBlockEnd
  0
ENDSEC
  0
SECTION
  2
ENTITIES
  0
MTEXT
  5
ADA
330
18
100
AcDbEntity
  8
0
100
AcDbMText
 10
1140.417839315123
 20
149.5389334086683
 30
0.0
 40
0.6000000000000001
 41
141.6793945462386
 71
     1
 72
     1
  1

1001
ACAD
1000
MTEXTBEGIN
1070
    73
1070
     1
1070
    44
1040
1.0
1070
    74
1070
     0
1000
MTEXTEND
  0
MTEXT
  5
ADB
330
18
100
AcDbEntity
  8
0
100
AcDbMText
 10
1167.149799500743
 20
173.5523811986972
 30
0.0
 40
0.6000000000000001
 41
136.333002509114
 71
     1
 72
     1
  1

1001
ACAD
1000
MTEXTBEGIN
1070
    73
1070
     1
1070
    44
1040
1.0
1070
    74
1070
     0
1000
MTEXTEND
  0
MTEXT
  5
ADC
330
18
100
AcDbEntity
  8
0
100
AcDbMText
 10
1151.110623389371
 20
-143.958739216478
 30
0.0
 40
0.6000000000000001
 41
155.0453746390494
 71
     1
 72
     1
  1

1001
ACAD
1000
MTEXTBEGIN
1070
    73
1070
     1
1070
    44
1040
1.0
1070
    74
1070
     0
1000
MTEXTEND
  0
TEXT
  5
2529
330
18
100
AcDbEntity
  8
0
  6
CONTINUOUS
100
AcDbText
 10
778.9714285714285
 20
21.0
 30
0.0
 40
9.0
  1
LV5_13_21
 41
0.9
  7
PTSH
 72
     2
 11
843.0
 21
25.5
 31
0.0
100
AcDbText
 73
     2
  0
POLYLINE
  5
2563
330
18
100
AcDbEntity
  8
0
100
AcDb2dPolyline
 66
     1
 10
0.0
 20
0.0
 30
0.0
 70
     1
  0
VERTEX
  5
37B2
330
2563
100
AcDbEntity
  8
0
100
AcDbVertex
100
AcDb2dVertex
 10
33.0
 20
15.0
 30
0.0
  0
VERTEX
  5
37B3
330
2563
100
AcDbEntity
  8
0
100
AcDbVertex
100
AcDb2dVertex
 10
858.0
 20
15.0
 30
0.0
  0
VERTEX
  5
37B4
330
2563
100
AcDbEntity
  8
0
100
AcDbVertex
100
AcDb2dVertex
 10
858.0
 20
573.0
 30
0.0
  0
VERTEX
  5
37B5
330
2563
100
AcDbEntity
  8
0
100
AcDbVertex
100
AcDb2dVertex
 10
33.0
 20
573.0
 30
0.0
  0
SEQEND
  5
37B6
330
2563
100
AcDbEntity
  8
0
  0
TEXT
  5
28A0
330
18
100
AcDbEntity
  8
0
100
AcDbText
 10
211.8364764402795
 20
134.4603587864969
 30
0.0
 40
9.0
  1
 LV5,LV5C,LV13,LV13C <C3771>
 72
     1
 11
319.5793335831367
 21
138.9603587864969
 31
0.0
100
AcDbText
 73
     2
  0
TEXT
  5
28A1
330
18
100
AcDbEntity
  8
0
100
AcDbText
 10
55.86351188050776
 20
230.3622197622455
 30
0.0
 40
10.5
  1
正面
100
AcDbText
  0
TEXT
  5
2962
330
18
100
AcDbEntity
  8
0
100
AcDbText
 10
58.27024195335707
 20
347.301508551319
 30
0.0
 40
10.5
  1
平面
100
AcDbText
  0
TEXT
  5
2963
330
18
100
AcDbEntity
  8
0
100
AcDbText
 10
55.86351188050776
 20
443.740522400519
 30
0.0
 40
10.5
  1
背面
100
AcDbText
  0
TEXT
  5
29BA
330
18
100
AcDbEntity
  8
0
100
AcDbText
 10
591.9050728046888
 20
136.8671592879377
 30
0.0
 40
9.0
  1
LV5,LV5C,LV21,LV21C <SCS13A>
 72
     1
 11
698.9622156618316
 21
141.3671592879377
 31
0.0
100
AcDbText
 73
     2
  0
LINE
  5
3305
330
18
100
AcDbEntity
  8
0
100
AcDbLine
 10
163.9571653470898
 20
256.9439008158179
 30
0.0
 11
172.0160910009924
 21
256.9439008158179
 31
0.0
  0
LINE
  5
3306
330
18
100
AcDbEntity
  8
0
100
AcDbLine
 10
163.9571653470898
 20
235.9439008158179
 30
0.0
 11
172.0160910009924
 21
235.9439008158179
 31
0.0
  0
LINE
  5
3307
330
18
100
AcDbEntity
  8
0
100
AcDbLine
 10
122.0160910009924
 20
229.443900815818
 30
0.0
 11
172.0160910009924
 21
229.443900815818
 31
0.0
  0
LINE
  5
3308
330
18
100
AcDbEntity
  8
0
100
AcDbLine
 10
122.0160910009924
 20
234.443900815818
 30
0.0
 11
172.0160910009924
 21
234.443900815818
 31
0.0
  0
LINE
  5
330B
330
18
100
AcDbEntity
  8
0
100
AcDbLine
 10
123.0160910009924
 20
239.943900815818
 30
0.0
 11
123.0160910009924
 21
256.9439008158179
 31
0.0
  0
LINE
  5
330C
330
18
100
AcDbEntity
  8
0
100
AcDbLine
 10
163.9571653470898
 20
256.9439008158179
 30
0.0
 11
163.9571653470898
 21
235.9439008158179
 31
0.0
  0
LINE
  5
330D
330
18
100
AcDbEntity
  8
0
100
AcDbLine
 10
122.0160910009924
 20
239.943900815818
 30
0.0
 11
163.9571653470898
 21
239.943900815818
 31
0.0
  0
ARC
  5
330E
330
18
100
AcDbEntity
  8
0
100
AcDbCircle
 10
140.2660910009927
 20
234.3882065236013
 30
0.0
 40
18.94430570778333
100
AcDbArc
 50
252.6086979539712
 51
287.3913020460284
  0
LINE
  5
330F
330
18
100
AcDbEntity
  8
0
100
AcDbLine
 10
135.0160910009924
 20
215.4439008158179
 30
0.0
 11
159.0160910009928
 21
215.443900815818
 31
0.0
  0
LINE
  5
3310
330
18
100
AcDbEntity
  8
0
100
AcDbLine
 10
133.5160910009926
 20
216.3099262196022
 30
0.0
 11
133.5160910009926
 21
229.443900815818
 31
0.0
  0
LINE
  5
3311
330
18
100
AcDbEntity
  8
0
100
AcDbLine
 10
134.6037151745397
 20
216.3099262196023
 30
0.0
 11
134.6037151745393
 21
229.443900815818
 31
0.0
  0
LINE
  5
3312
330
18
100
AcDbEntity
  8
0
100
AcDbLine
 10
135.0160910009924
 20
215.4439008158179
 30
0.0
 11
133.5160910009923
 21
216.3099262196024
 31
0.0
  0
LINE
  5
3313
330
18
100
AcDbEntity
  8
0
100
AcDbLine
 10
133.5160910009926
 20
216.3099262196022
 30
0.0
 11
134.6037151745397
 21
216.3099262196023
 31
0.0
  0
LINE
  5
3314
330
18
100
AcDbEntity
  8
0
100
AcDbLine
 10
122.0160910009924
 20
229.443900815818
 30
0.0
 11
122.0160910009924
 21
239.943900815818
 31
0.0
  0
LINE
  5
3315
330
18
100
AcDbEntity
  8
0
100
AcDbLine
 10
145.9284668274458
 20
216.3099262196024
 30
0.0
 11
145.9284668274457
 21
229.443900815818
 31
0.0
  0
LINE
  5
3316
330
18
100
AcDbEntity
  8
0
100
AcDbLine
 10
148.1037151745397
 20
216.3099262196024
 30
0.0
 11
148.1037151745397
 21
229.443900815818
 31
0.0
  0
LINE
  5
3317
330
18
100
AcDbEntity
  8
0
100
AcDbLine
 10
159.4284668274456
 20
216.3099262196023
 30
0.0
 11
159.4284668274458
 21
229.443900815818
 31
0.0
  0
LINE
  5
3318
330
18
100
AcDbEntity
  8
0
100
AcDbLine
 10
160.5160910009924
 20
216.3099262196022
 30
0.0
 11
160.5160910009924
 21
229.443900815818
 31
0.0
  0
LINE
  5
3319
330
18
100
AcDbEntity
  8
0
100
AcDbLine
 10
145.9284668274455
 20
216.3099262196024
 30
0.0
 11
145.9284668274455
 21
229.443900815818
 31
0.0
  0
LINE
  5
331A
330
18
100
AcDbEntity
  8
0
100
AcDbLine
 10
148.1037151745395
 20
216.3099262196024
 30
0.0
 11
148.1037151745395
 21
229.443900815818
 31
0.0
  0
ARC
  5
331B
330
18
100
AcDbEntity
  8
0
100
AcDbCircle
 10
153.7660910009924
 20
234.3882065236013
 30
0.0
 40
18.94430570778333
100
AcDbArc
 50
252.6086979539716
 51
287.3913020460287
  0
LINE
  5
331C
330
18
100
AcDbEntity
  8
0
100
AcDbLine
 10
145.9284668274458
 20
216.3099262196024
 30
0.0
 11
148.1037151745397
 21
216.3099262196024
 31
0.0
  0
LINE
  5
331D
330
18
100
AcDbEntity
  8
0
100
AcDbLine
 10
148.1037151745395
 20
216.3099262196024
 30
0.0
 11
145.9284668274455
 21
216.3099262196024
 31
0.0
  0
LINE
  5
331E
330
18
100
AcDbEntity
  8
0
100
AcDbLine
 10
160.5160910009924
 20
216.3099262196022
 30
0.0
 11
159.4284668274456
 21
216.3099262196023
 31
0.0
  0
LINE
  5
331F
330
18
100
AcDbEntity
  8
0
100
AcDbLine
 10
159.0160910009928
 20
215.443900815818
 30
0.0
 11
160.5160910009929
 21
216.3099262196024
 31
0.0
  0
ARC
  5
3320
330
18
100
AcDbEntity
  8
0
100
AcDbCircle
 10
140.2660910009927
 20
251.9995951080346
 30
0.0
 40
18.94430570778333
100
AcDbArc
 50
72.6086979539716
 51
107.3913020460287
  0
LINE
  5
3321
330
18
100
AcDbEntity
  8
0
100
AcDbLine
 10
135.0160910009924
 20
270.943900815818
 30
0.0
 11
159.0160910009928
 21
270.943900815818
 31
0.0
  0
LINE
  5
3322
330
18
100
AcDbEntity
  8
0
100
AcDbLine
 10
123.0160910009924
 20
256.9439008158179
 30
0.0
 11
163.9571653470898
 21
256.9439008158179
 31
0.0
  0
LINE
  5
3323
330
18
100
AcDbEntity
  8
0
100
AcDbLine
 10
133.5160910009926
 20
270.0778754120336
 30
0.0
 11
134.6037151745397
 21
270.0778754120336
 31
0.0
  0
LINE
  5
3324
330
18
100
AcDbEntity
  8
0
100
AcDbLine
 10
135.0160910009924
 20
270.943900815818
 30
0.0
 11
133.5160910009923
 21
270.0778754120334
 31
0.0
  0
LINE
  5
3325
330
18
100
AcDbEntity
  8
0
100
AcDbLine
 10
134.6037151745397
 20
270.0778754120336
 30
0.0
 11
134.6037151745393
 21
256.9439008158179
 31
0.0
  0
LINE
  5
3326
330
18
100
AcDbEntity
  8
0
100
AcDbLine
 10
133.5160910009926
 20
270.0778754120336
 30
0.0
 11
133.5160910009926
 21
256.9439008158179
 31
0.0
  0
ARC
  5
3327
330
18
100
AcDbEntity
  8
0
100
AcDbCircle
 10
153.7660910009924
 20
251.9995951080346
 30
0.0
 40
18.94430570778333
100
AcDbArc
 50
72.60869795397124
 51
107.3913020460284
  0
LINE
  5
3328
330
18
100
AcDbEntity
  8
0
100
AcDbLine
 10
148.1037151745395
 20
270.0778754120334
 30
0.0
 11
145.9284668274455
 21
270.0778754120334
 31
0.0
  0
LINE
  5
3329
330
18
100
AcDbEntity
  8
0
100
AcDbLine
 10
145.9284668274458
 20
270.0778754120334
 30
0.0
 11
148.1037151745397
 21
270.0778754120334
 31
0.0
  0
LINE
  5
332A
330
18
100
AcDbEntity
  8
0
100
AcDbLine
 10
148.1037151745395
 20
270.0778754120334
 30
0.0
 11
148.1037151745395
 21
256.9439008158179
 31
0.0
  0
LINE
  5
332B
330
18
100
AcDbEntity
  8
0
100
AcDbLine
 10
145.9284668274455
 20
270.0778754120334
 30
0.0
 11
145.9284668274455
 21
256.9439008158179
 31
0.0
  0
LINE
  5
332C
330
18
100
AcDbEntity
  8
0
100
AcDbLine
 10
148.1037151745397
 20
270.0778754120334
 30
0.0
 11
148.1037151745397
 21
256.9439008158179
 31
0.0
  0
LINE
  5
332D
330
18
100
AcDbEntity
  8
0
100
AcDbLine
 10
145.9284668274458
 20
270.0778754120334
 30
0.0
 11
145.9284668274457
 21
256.9439008158179
 31
0.0
  0
LINE
  5
332E
330
18
100
AcDbEntity
  8
0
100
AcDbLine
 10
159.0160910009928
 20
270.943900815818
 30
0.0
 11
160.5160910009929
 21
270.0778754120334
 31
0.0
  0
LINE
  5
332F
330
18
100
AcDbEntity
  8
0
100
AcDbLine
 10
160.5160910009924
 20
270.0778754120336
 30
0.0
 11
159.4284668274456
 21
270.0778754120336
 31
0.0
  0
LINE
  5
3330
330
18
100
AcDbEntity
  8
0
100
AcDbLine
 10
160.5160910009924
 20
270.0778754120336
 30
0.0
 11
160.5160910009924
 21
256.9439008158179
 31
0.0
  0
LINE
  5
3331
330
18
100
AcDbEntity
  8
0
100
AcDbLine
 10
159.4284668274456
 20
270.0778754120336
 30
0.0
 11
159.4284668274458
 21
256.9439008158179
 31
0.0
  0
LINE
  5
3332
330
18
100
AcDbEntity
  8
0
100
AcDbLine
 10
172.0160910009924
 20
256.9439008158179
 30
0.0
 11
172.0160910009924
 21
235.9439008158179
 31
0.0
  0
LINE
  5
3333
330
18
100
AcDbEntity
  8
0
100
AcDbLine
 10
239.7728337855358
 20
239.943900815818
 30
0.0
 11
239.7728337855358
 21
256.9439008158179
 31
0.0
  0
LINE
  5
3334
330
18
100
AcDbEntity
  8
0
100
AcDbLine
 10
232.7728337855357
 20
256.9439008158179
 30
0.0
 11
232.7728337855357
 21
235.9439008158179
 31
0.0
  0
LINE
  5
3335
330
18
100
AcDbEntity
  8
0
100
AcDbLine
 10
231.5228337855358
 20
256.443900815818
 30
0.0
 11
231.5228337855358
 21
236.443900815818
 31
0.0
  0
LINE
  5
3336
330
18
100
AcDbEntity
  8
0
100
AcDbLine
 10
198.7728337855358
 20
256.9439008158179
 30
0.0
 11
198.7728337855358
 21
235.9439008158179
 31
0.0
  0
LINE
  5
3337
330
18
100
AcDbEntity
  8
0
100
AcDbLine
 10
200.0228337855357
 20
256.443900815818
 30
0.0
 11
200.0228337855357
 21
236.443900815818
 31
0.0
  0
LINE
  5
3338
330
18
100
AcDbEntity
  8
0
100
AcDbLine
 10
191.7728337855358
 20
239.943900815818
 30
0.0
 11
191.7728337855358
 21
256.9439008158179
 31
0.0
  0
LINE
  5
3339
330
18
100
AcDbEntity
  8
0
100
AcDbLine
 10
172.0160910009924
 20
229.443900815818
 30
0.0
 11
172.0160910009924
 21
239.943900815818
 31
0.0
  0
LINE
  5
333A
330
18
100
AcDbEntity
  8
0
100
AcDbLine
 10
231.5228337855358
 20
236.443900815818
 30
0.0
 11
200.0228337855357
 21
236.443900815818
 31
0.0
  0
LINE
  5
333B
330
18
100
AcDbEntity
  8
0
100
AcDbLine
 10
232.7728337855357
 20
235.9439008158179
 30
0.0
 11
198.7728337855358
 21
235.9439008158179
 31
0.0
  0
LINE
  5
333C
330
18
100
AcDbEntity
  8
0
100
AcDbLine
 10
229.2728337855357
 20
215.443900815818
 30
0.0
 11
202.2728337855357
 21
215.443900815818
 31
0.0
  0
ARC
  5
333D
330
18
100
AcDbEntity
  8
0
100
AcDbCircle
 10
215.7728337855358
 20
241.1584154678023
 30
0.0
 40
25.71451465198432
100
AcDbArc
 50
255.0878507761325
 51
284.9121492238676
  0
LINE
  5
333E
330
18
100
AcDbEntity
  8
0
100
AcDbLine
 10
240.7728337855358
 20
234.443900815818
 30
0.0
 11
190.7728337855358
 21
234.443900815818
 31
0.0
  0
LINE
  5
333F
330
18
100
AcDbEntity
  8
0
100
AcDbLine
 10
240.7728337855358
 20
229.443900815818
 30
0.0
 11
190.7728337855358
 21
229.443900815818
 31
0.0
  0
LINE
  5
3340
330
18
100
AcDbEntity
  8
0
100
AcDbLine
 10
200.7728337855358
 20
216.3099262196024
 30
0.0
 11
200.7728337855358
 21
229.443900815818
 31
0.0
  0
LINE
  5
3341
330
18
100
AcDbEntity
  8
0
100
AcDbLine
 10
207.3901478833561
 20
216.3099262196024
 30
0.0
 11
207.3901478833561
 21
229.443900815818
 31
0.0
  0
LINE
  5
3342
330
18
100
AcDbEntity
  8
0
100
AcDbLine
 10
209.1555196877154
 20
216.3099262196024
 30
0.0
 11
209.1555196877154
 21
229.443900815818
 31
0.0
  0
ARC
  5
3343
330
18
100
AcDbEntity
  8
0
100
AcDbCircle
 10
204.0812728346125
 20
222.1981218753584
 30
0.0
 40
6.754221063058524
100
AcDbArc
 50
240.8097490360992
 51
299.333835385683
  0
LINE
  5
3344
330
18
100
AcDbEntity
  8
0
100
AcDbLine
 10
202.2728337855357
 20
215.443900815818
 30
0.0
 11
200.7728337855358
 21
216.3099262196024
 31
0.0
  0
LINE
  5
3345
330
18
100
AcDbEntity
  8
0
100
AcDbLine
 10
207.3901478833561
 20
216.3099262196024
 30
0.0
 11
209.1555196877154
 21
216.3099262196024
 31
0.0
  0
LINE
  5
3346
330
18
100
AcDbEntity
  8
0
100
AcDbLine
 10
190.7728337855358
 20
229.443900815818
 30
0.0
 11
190.7728337855358
 21
239.943900815818
 31
0.0
  0
LINE
  5
3347
330
18
100
AcDbEntity
  8
0
100
AcDbLine
 10
198.7728337855358
 20
239.943900815818
 30
0.0
 11
190.7728337855358
 21
239.943900815818
 31
0.0
  0
LINE
  5
3348
330
18
100
AcDbEntity
  8
0
100
AcDbLine
 10
222.3901478833561
 20
216.3099262196024
 30
0.0
 11
222.3901478833561
 21
229.443900815818
 31
0.0
  0
LINE
  5
3349
330
18
100
AcDbEntity
  8
0
100
AcDbLine
 10
224.1555196877159
 20
216.3099262196024
 30
0.0
 11
224.1555196877159
 21
229.443900815818
 31
0.0
  0
LINE
  5
334A
330
18
100
AcDbEntity
  8
0
100
AcDbLine
 10
230.7728337855357
 20
216.3099262196024
 30
0.0
 11
230.7728337855357
 21
229.443900815818
 31
0.0
  0
LINE
  5
334B
330
18
100
AcDbEntity
  8
0
100
AcDbLine
 10
222.3901478833561
 20
216.3099262196024
 30
0.0
 11
224.1555196877159
 21
216.3099262196024
 31
0.0
  0
ARC
  5
334C
330
18
100
AcDbEntity
  8
0
100
AcDbCircle
 10
227.4641767366258
 20
222.1972890052327
 30
0.0
 40
6.753388189414803
100
AcDbArc
 50
240.6643153306908
 51
299.33568466931
  0
LINE
  5
334D
330
18
100
AcDbEntity
  8
0
100
AcDbLine
 10
229.2728337855357
 20
215.443900815818
 30
0.0
 11
230.7728337855357
 21
216.3099262196024
 31
0.0
  0
LINE
  5
334E
330
18
100
AcDbEntity
  8
0
100
AcDbLine
 10
240.7728337855358
 20
239.943900815818
 30
0.0
 11
232.7728337855357
 21
239.943900815818
 31
0.0
  0
LINE
  5
334F
330
18
100
AcDbEntity
  8
0
100
AcDbLine
 10
240.7728337855358
 20
229.443900815818
 30
0.0
 11
240.7728337855358
 21
239.943900815818
 31
0.0
  0
LINE
  5
3350
330
18
100
AcDbEntity
  8
0
100
AcDbLine
 10
229.2728337855357
 20
270.943900815818
 30
0.0
 11
202.2728337855357
 21
270.943900815818
 31
0.0
  0
ARC
  5
3351
330
18
100
AcDbEntity
  8
0
100
AcDbCircle
 10
215.7728337855358
 20
245.2293861638336
 30
0.0
 40
25.71451465198432
100
AcDbArc
 50
75.08785077613232
 51
104.9121492238674
  0
LINE
  5
3352
330
18
100
AcDbEntity
  8
0
100
AcDbLine
 10
231.5228337855358
 20
256.443900815818
 30
0.0
 11
200.0228337855357
 21
256.443900815818
 31
0.0
  0
LINE
  5
3353
330
18
100
AcDbEntity
  8
0
100
AcDbLine
 10
239.7728337855358
 20
256.9439008158179
 30
0.0
 11
191.7728337855358
 21
256.9439008158179
 31
0.0
  0
ARC
  5
3354
330
18
100
AcDbEntity
  8
0
100
AcDbCircle
 10
204.0812728346125
 20
264.1896797562775
 30
0.0
 40
6.754221063058524
100
AcDbArc
 50
60.66616461431697
 51
119.1902509639007
  0
LINE
  5
3355
330
18
100
AcDbEntity
  8
0
100
AcDbLine
 10
202.2728337855357
 20
270.943900815818
 30
0.0
 11
200.7728337855358
 21
270.0778754120335
 31
0.0
  0
LINE
  5
3356
330
18
100
AcDbEntity
  8
0
100
AcDbLine
 10
200.7728337855358
 20
270.0778754120335
 30
0.0
 11
200.7728337855358
 21
256.9439008158179
 31
0.0
  0
LINE
  5
3357
330
18
100
AcDbEntity
  8
0
100
AcDbLine
 10
207.3901478833561
 20
270.0778754120335
 30
0.0
 11
209.1555196877154
 21
270.0778754120334
 31
0.0
  0
LINE
  5
3358
330
18
100
AcDbEntity
  8
0
100
AcDbLine
 10
209.1555196877154
 20
270.0778754120334
 30
0.0
 11
209.1555196877154
 21
256.9439008158179
 31
0.0
  0
LINE
  5
3359
330
18
100
AcDbEntity
  8
0
100
AcDbLine
 10
207.3901478833561
 20
270.0778754120335
 30
0.0
 11
207.3901478833561
 21
256.9439008158179
 31
0.0
  0
ARC
  5
335A
330
18
100
AcDbEntity
  8
0
100
AcDbCircle
 10
227.4641767366258
 20
264.1905126264031
 30
0.0
 40
6.753388189414803
100
AcDbArc
 50
60.66431533068993
 51
119.3356846693091
  0
LINE
  5
335B
330
18
100
AcDbEntity
  8
0
100
AcDbLine
 10
229.2728337855357
 20
270.943900815818
 30
0.0
 11
230.7728337855357
 21
270.0778754120334
 31
0.0
  0
LINE
  5
335C
330
18
100
AcDbEntity
  8
0
100
AcDbLine
 10
222.3901478833561
 20
270.0778754120334
 30
0.0
 11
224.1555196877159
 21
270.0778754120334
 31
0.0
  0
LINE
  5
335D
330
18
100
AcDbEntity
  8
0
100
AcDbLine
 10
230.7728337855357
 20
270.0778754120334
 30
0.0
 11
230.7728337855357
 21
256.9439008158179
 31
0.0
  0
LINE
  5
335E
330
18
100
AcDbEntity
  8
0
100
AcDbLine
 10
224.1555196877154
 20
270.0778754120334
 30
0.0
 11
224.1555196877154
 21
256.9439008158179
 31
0.0
  0
LINE
  5
335F
330
18
100
AcDbEntity
  8
0
100
AcDbLine
 10
222.3901478833561
 20
270.0778754120334
 30
0.0
 11
222.3901478833561
 21
256.9439008158179
 31
0.0
  0
LINE
  5
3360
330
18
100
AcDbEntity
  8
0
100
AcDbLine
 10
267.5885022239817
 20
256.9439008158179
 30
0.0
 11
267.5885022239817
 21
235.9439008158179
 31
0.0
  0
LINE
  5
3361
330
18
100
AcDbEntity
  8
0
100
AcDbLine
 10
308.5295765700791
 20
239.943900815818
 30
0.0
 11
308.5295765700791
 21
256.9439008158179
 31
0.0
  0
LINE
  5
3362
330
18
100
AcDbEntity
  8
0
100
AcDbLine
 10
259.5295765700791
 20
256.9439008158179
 30
0.0
 11
259.5295765700791
 21
235.9439008158179
 31
0.0
  0
LINE
  5
3363
330
18
100
AcDbEntity
  8
0
100
AcDbLine
 10
309.5295765700791
 20
229.443900815818
 30
0.0
 11
259.5295765700791
 21
229.443900815818
 31
0.0
  0
LINE
  5
3364
330
18
100
AcDbEntity
  8
0
100
AcDbLine
 10
309.5295765700791
 20
234.443900815818
 30
0.0
 11
259.5295765700791
 21
234.443900815818
 31
0.0
  0
LINE
  5
3365
330
18
100
AcDbEntity
  8
0
100
AcDbLine
 10
309.5295765700791
 20
239.943900815818
 30
0.0
 11
267.5885022239817
 21
239.943900815818
 31
0.0
  0
LINE
  5
3366
330
18
100
AcDbEntity
  8
0
100
AcDbLine
 10
259.5295765700791
 20
229.443900815818
 30
0.0
 11
259.5295765700791
 21
239.943900815818
 31
0.0
  0
LINE
  5
3367
330
18
100
AcDbEntity
  8
0
100
AcDbLine
 10
267.5885022239817
 20
235.9439008158179
 30
0.0
 11
259.5295765700791
 21
235.9439008158179
 31
0.0
  0
LINE
  5
3368
330
18
100
AcDbEntity
  8
0
100
AcDbLine
 10
283.4419523965321
 20
216.3099262196024
 30
0.0
 11
283.4419523965321
 21
229.443900815818
 31
0.0
  0
LINE
  5
3369
330
18
100
AcDbEntity
  8
0
100
AcDbLine
 10
285.617200743626
 20
216.3099262196024
 30
0.0
 11
285.617200743626
 21
229.443900815818
 31
0.0
  0
LINE
  5
336A
330
18
100
AcDbEntity
  8
0
100
AcDbLine
 10
271.0295765700791
 20
216.3099262196022
 30
0.0
 11
271.0295765700791
 21
229.443900815818
 31
0.0
  0
LINE
  5
336B
330
18
100
AcDbEntity
  8
0
100
AcDbLine
 10
272.1172007436259
 20
216.3099262196023
 30
0.0
 11
272.1172007436257
 21
229.443900815818
 31
0.0
  0
LINE
  5
336C
330
18
100
AcDbEntity
  8
0
100
AcDbLine
 10
296.9419523965318
 20
216.3099262196023
 30
0.0
 11
296.9419523965323
 21
229.443900815818
 31
0.0
  0
LINE
  5
336D
330
18
100
AcDbEntity
  8
0
100
AcDbLine
 10
298.0295765700789
 20
216.3099262196022
 30
0.0
 11
298.0295765700789
 21
229.443900815818
 31
0.0
  0
LINE
  5
336E
330
18
100
AcDbEntity
  8
0
100
AcDbLine
 10
283.4419523965318
 20
216.3099262196024
 30
0.0
 11
283.4419523965318
 21
229.443900815818
 31
0.0
  0
LINE
  5
336F
330
18
100
AcDbEntity
  8
0
100
AcDbLine
 10
285.6172007436257
 20
216.3099262196024
 30
0.0
 11
285.617200743626
 21
229.443900815818
 31
0.0
  0
ARC
  5
3370
330
18
100
AcDbEntity
  8
0
100
AcDbCircle
 10
291.2795765700786
 20
234.3882065236013
 30
0.0
 40
18.94430570778333
100
AcDbArc
 50
252.6086979539716
 51
287.3913020460287
  0
LINE
  5
3371
330
18
100
AcDbEntity
  8
0
100
AcDbLine
 10
296.5295765700791
 20
215.4439008158179
 30
0.0
 11
272.5295765700786
 21
215.443900815818
 31
0.0
  0
ARC
  5
3372
330
18
100
AcDbEntity
  8
0
100
AcDbCircle
 10
277.7795765700791
 20
234.3882065236013
 30
0.0
 40
18.94430570778333
100
AcDbArc
 50
252.6086979539712
 51
287.3913020460284
  0
LINE
  5
3373
330
18
100
AcDbEntity
  8
0
100
AcDbLine
 10
272.5295765700786
 20
215.443900815818
 30
0.0
 11
271.0295765700787
 21
216.3099262196024
 31
0.0
  0
LINE
  5
3374
330
18
100
AcDbEntity
  8
0
100
AcDbLine
 10
271.0295765700791
 20
216.3099262196022
 30
0.0
 11
272.1172007436259
 21
216.3099262196023
 31
0.0
  0
LINE
  5
3375
330
18
100
AcDbEntity
  8
0
100
AcDbLine
 10
283.4419523965321
 20
216.3099262196024
 30
0.0
 11
285.617200743626
 21
216.3099262196024
 31
0.0
  0
LINE
  5
3376
330
18
100
AcDbEntity
  8
0
100
AcDbLine
 10
285.6172007436257
 20
216.3099262196024
 30
0.0
 11
283.4419523965318
 21
216.3099262196024
 31
0.0
  0
LINE
  5
3377
330
18
100
AcDbEntity
  8
0
100
AcDbLine
 10
298.0295765700789
 20
216.3099262196022
 30
0.0
 11
296.9419523965318
 21
216.3099262196023
 31
0.0
  0
LINE
  5
3378
330
18
100
AcDbEntity
  8
0
100
AcDbLine
 10
296.5295765700791
 20
215.4439008158179
 30
0.0
 11
298.0295765700791
 21
216.3099262196024
 31
0.0
  0
LINE
  5
3379
330
18
100
AcDbEntity
  8
0
100
AcDbLine
 10
309.5295765700791
 20
229.443900815818
 30
0.0
 11
309.5295765700791
 21
239.943900815818
 31
0.0
  0
LINE
  5
337A
330
18
100
AcDbEntity
  8
0
100
AcDbLine
 10
308.5295765700791
 20
256.9439008158179
 30
0.0
 11
267.5885022239817
 21
256.9439008158179
 31
0.0
  0
LINE
  5
337B
330
18
100
AcDbEntity
  8
0
100
AcDbLine
 10
267.5885022239817
 20
256.9439008158179
 30
0.0
 11
259.5295765700791
 21
256.9439008158179
 31
0.0
  0
ARC
  5
337C
330
18
100
AcDbEntity
  8
0
100
AcDbCircle
 10
291.2795765700786
 20
251.9995951080346
 30
0.0
 40
18.94430570778333
100
AcDbArc
 50
72.60869795397124
 51
107.3913020460284
  0
LINE
  5
337D
330
18
100
AcDbEntity
  8
0
100
AcDbLine
 10
296.5295765700791
 20
270.943900815818
 30
0.0
 11
272.5295765700786
 21
270.943900815818
 31
0.0
  0
LINE
  5
337E
330
18
100
AcDbEntity
  8
0
100
AcDbLine
 10
285.6172007436257
 20
270.0778754120334
 30
0.0
 11
283.4419523965318
 21
270.0778754120334
 31
0.0
  0
LINE
  5
337F
330
18
100
AcDbEntity
  8
0
100
AcDbLine
 10
285.6172007436257
 20
270.0778754120334
 30
0.0
 11
285.617200743626
 21
256.9439008158179
 31
0.0
  0
LINE
  5
3380
330
18
100
AcDbEntity
  8
0
100
AcDbLine
 10
283.4419523965318
 20
270.0778754120334
 30
0.0
 11
283.4419523965318
 21
256.9439008158179
 31
0.0
  0
LINE
  5
3381
330
18
100
AcDbEntity
  8
0
100
AcDbLine
 10
272.5295765700786
 20
270.943900815818
 30
0.0
 11
271.0295765700787
 21
270.0778754120334
 31
0.0
  0
ARC
  5
3382
330
18
100
AcDbEntity
  8
0
100
AcDbCircle
 10
277.7795765700791
 20
251.9995951080346
 30
0.0
 40
18.94430570778333
100
AcDbArc
 50
72.6086979539716
 51
107.3913020460287
  0
LINE
  5
3383
330
18
100
AcDbEntity
  8
0
100
AcDbLine
 10
283.4419523965321
 20
270.0778754120334
 30
0.0
 11
285.617200743626
 21
270.0778754120334
 31
0.0
  0
LINE
  5
3384
330
18
100
AcDbEntity
  8
0
100
AcDbLine
 10
272.1172007436259
 20
270.0778754120336
 30
0.0
 11
272.1172007436257
 21
256.9439008158179
 31
0.0
  0
LINE
  5
3385
330
18
100
AcDbEntity
  8
0
100
AcDbLine
 10
285.617200743626
 20
270.0778754120334
 30
0.0
 11
285.617200743626
 21
256.9439008158179
 31
0.0
  0
LINE
  5
3386
330
18
100
AcDbEntity
  8
0
100
AcDbLine
 10
283.4419523965321
 20
270.0778754120334
 30
0.0
 11
283.4419523965321
 21
256.9439008158179
 31
0.0
  0
LINE
  5
3387
330
18
100
AcDbEntity
  8
0
100
AcDbLine
 10
271.0295765700791
 20
270.0778754120336
 30
0.0
 11
271.0295765700791
 21
256.9439008158179
 31
0.0
  0
LINE
  5
3388
330
18
100
AcDbEntity
  8
0
100
AcDbLine
 10
271.0295765700791
 20
270.0778754120336
 30
0.0
 11
272.1172007436259
 21
270.0778754120336
 31
0.0
  0
LINE
  5
3389
330
18
100
AcDbEntity
  8
0
100
AcDbLine
 10
296.5295765700791
 20
270.943900815818
 30
0.0
 11
298.0295765700791
 21
270.0778754120334
 31
0.0
  0
LINE
  5
338A
330
18
100
AcDbEntity
  8
0
100
AcDbLine
 10
298.0295765700789
 20
270.0778754120336
 30
0.0
 11
296.9419523965318
 21
270.0778754120336
 31
0.0
  0
LINE
  5
338B
330
18
100
AcDbEntity
  8
0
100
AcDbLine
 10
298.0295765700789
 20
270.0778754120336
 30
0.0
 11
298.0295765700789
 21
256.9439008158179
 31
0.0
  0
LINE
  5
338C
330
18
100
AcDbEntity
  8
0
100
AcDbLine
 10
296.9419523965318
 20
270.0778754120336
 30
0.0
 11
296.9419523965323
 21
256.9439008158179
 31
0.0
  0
LINE
  5
338D
330
18
100
AcDbEntity
  8
0
100
AcDbLine
 10
351.0201562138261
 20
243.4439008158179
 30
0.0
 11
351.0201562138261
 21
259.9439008158179
 31
0.0
  0
LINE
  5
338E
330
18
100
AcDbEntity
  8
0
100
AcDbLine
 10
391.9612305599234
 20
259.9439008158179
 30
0.0
 11
391.9612305599234
 21
238.943900815818
 31
0.0
  0
LINE
  5
338F
330
18
100
AcDbEntity
  8
0
100
AcDbLine
 10
400.0201562138263
 20
259.9439008158179
 30
0.0
 11
400.0201562138263
 21
238.943900815818
 31
0.0
  0
LINE
  5
3390
330
18
100
AcDbEntity
  8
0
100
AcDbLine
 10
350.0201562138261
 20
243.4439008158179
 30
0.0
 11
391.9612305599232
 21
243.4439008158179
 31
0.0
  0
LINE
  5
3391
330
18
100
AcDbEntity
  8
0
100
AcDbLine
 10
393.2701562138261
 20
215.443900815818
 30
0.0
 11
356.7701562138261
 21
215.443900815818
 31
0.0
  0
ARC
  5
3392
330
18
100
AcDbEntity
  8
0
100
AcDbCircle
 10
364.7701562138261
 20
233.3814519917033
 30
0.0
 40
17.93755117588541
100
AcDbArc
 50
241.5580305378417
 51
298.4419694621577
  0
LINE
  5
3393
330
18
100
AcDbEntity
  8
0
100
AcDbLine
 10
400.020156213826
 20
237.443900815818
 30
0.0
 11
350.0201562138261
 21
237.443900815818
 31
0.0
  0
LINE
  5
3394
330
18
100
AcDbEntity
  8
0
100
AcDbLine
 10
400.020156213826
 20
232.443900815818
 30
0.0
 11
350.0201562138261
 21
232.443900815818
 31
0.0
  0
LINE
  5
3395
330
18
100
AcDbEntity
  8
0
100
AcDbLine
 10
356.2270669014051
 20
217.6089643252791
 30
0.0
 11
356.2270669014051
 21
232.443900815818
 31
0.0
  0
LINE
  5
3396
330
18
100
AcDbEntity
  8
0
100
AcDbLine
 10
354.5201562138261
 20
216.7429389214948
 30
0.0
 11
354.5201562138261
 21
232.443900815818
 31
0.0
  0
LINE
  5
3397
330
18
100
AcDbEntity
  8
0
100
AcDbLine
 10
356.2270669014051
 20
217.6089643252791
 30
0.0
 11
354.5201562138261
 21
217.6089643252791
 31
0.0
  0
LINE
  5
3398
330
18
100
AcDbEntity
  8
0
100
AcDbLine
 10
356.7701562138261
 20
215.443900815818
 30
0.0
 11
354.5201562138261
 21
216.7429389214948
 31
0.0
  0
LINE
  5
3399
330
18
100
AcDbEntity
  8
0
100
AcDbLine
 10
350.0201562138261
 20
232.443900815818
 30
0.0
 11
350.0201562138261
 21
243.4439008158179
 31
0.0
  0
LINE
  5
339A
330
18
100
AcDbEntity
  8
0
100
AcDbLine
 10
391.9612305599234
 20
238.943900815818
 30
0.0
 11
400.0201562138263
 21
238.943900815818
 31
0.0
  0
LINE
  5
339B
330
18
100
AcDbEntity
  8
0
100
AcDbLine
 10
393.8132455262471
 20
217.6089643252791
 30
0.0
 11
393.8132455262469
 21
232.443900815818
 31
0.0
  0
LINE
  5
339C
330
18
100
AcDbEntity
  8
0
100
AcDbLine
 10
395.5201562138261
 20
216.7429389214948
 30
0.0
 11
395.5201562138261
 21
232.443900815818
 31
0.0
  0
LINE
  5
339D
330
18
100
AcDbEntity
  8
0
100
AcDbLine
 10
376.7270669014051
 20
217.6089643252791
 30
0.0
 11
376.7270669014051
 21
232.443900815818
 31
0.0
  0
LINE
  5
339E
330
18
100
AcDbEntity
  8
0
100
AcDbLine
 10
373.3132455262471
 20
217.6089643252791
 30
0.0
 11
373.3132455262471
 21
232.443900815818
 31
0.0
  0
ARC
  5
339F
330
18
100
AcDbEntity
  8
0
100
AcDbCircle
 10
385.2701562138261
 20
233.3814519917033
 30
0.0
 40
17.93755117588541
100
AcDbArc
 50
241.5580305378421
 51
298.4419694621582
  0
LINE
  5
33A0
330
18
100
AcDbEntity
  8
0
100
AcDbLine
 10
373.3132455262471
 20
217.6089643252791
 30
0.0
 11
376.7270669014051
 21
217.6089643252791
 31
0.0
  0
LINE
  5
33A1
330
18
100
AcDbEntity
  8
0
100
AcDbLine
 10
393.8132455262471
 20
217.6089643252791
 30
0.0
 11
395.5201562138261
 21
217.6089643252791
 31
0.0
  0
LINE
  5
33A2
330
18
100
AcDbEntity
  8
0
100
AcDbLine
 10
393.2701562138261
 20
215.443900815818
 30
0.0
 11
395.5201562138261
 21
216.7429389214948
 31
0.0
  0
LINE
  5
33A3
330
18
100
AcDbEntity
  8
0
100
AcDbLine
 10
400.020156213826
 20
232.443900815818
 30
0.0
 11
400.020156213826
 21
243.4439008158179
 31
0.0
  0
ARC
  5
33A4
330
18
100
AcDbEntity
  8
0
100
AcDbCircle
 10
364.7701562138261
 20
257.5063496399326
 30
0.0
 40
17.93755117588541
100
AcDbArc
 50
61.5580305378422
 51
118.4419694621583
  0
LINE
  5
33A5
330
18
100
AcDbEntity
  8
0
100
AcDbLine
 10
393.2701562138261
 20
275.4439008158179
 30
0.0
 11
356.7701562138261
 21
275.4439008158179
 31
0.0
  0
LINE
  5
33A6
330
18
100
AcDbEntity
  8
0
100
AcDbLine
 10
351.0201562138261
 20
259.9439008158179
 30
0.0
 11
400.0201562138263
 21
259.9439008158179
 31
0.0
  0
LINE
  5
33A7
330
18
100
AcDbEntity
  8
0
100
AcDbLine
 10
356.2270669014051
 20
273.2788373063568
 30
0.0
 11
356.2270669014051
 21
259.9439008158179
 31
0.0
  0
LINE
  5
33A8
330
18
100
AcDbEntity
  8
0
100
AcDbLine
 10
354.5201562138261
 20
274.1448627101411
 30
0.0
 11
354.5201562138261
 21
259.9439008158179
 31
0.0
  0
LINE
  5
33A9
330
18
100
AcDbEntity
  8
0
100
AcDbLine
 10
356.7701562138261
 20
275.4439008158179
 30
0.0
 11
354.5201562138261
 21
274.1448627101411
 31
0.0
  0
LINE
  5
33AA
330
18
100
AcDbEntity
  8
0
100
AcDbLine
 10
356.2270669014051
 20
273.2788373063568
 30
0.0
 11
354.5201562138261
 21
273.2788373063568
 31
0.0
  0
LINE
  5
33AB
330
18
100
AcDbEntity
  8
0
100
AcDbLine
 10
393.8132455262471
 20
273.2788373063568
 30
0.0
 11
393.8132455262469
 21
259.9439008158179
 31
0.0
  0
LINE
  5
33AC
330
18
100
AcDbEntity
  8
0
100
AcDbLine
 10
395.5201562138261
 20
274.1448627101411
 30
0.0
 11
395.5201562138261
 21
259.9439008158179
 31
0.0
  0
LINE
  5
33AD
330
18
100
AcDbEntity
  8
0
100
AcDbLine
 10
373.3132455262471
 20
273.2788373063568
 30
0.0
 11
373.3132455262471
 21
259.9439008158179
 31
0.0
  0
LINE
  5
33AE
330
18
100
AcDbEntity
  8
0
100
AcDbLine
 10
376.7270669014051
 20
273.2788373063568
 30
0.0
 11
376.7270669014051
 21
259.9439008158179
 31
0.0
  0
ARC
  5
33AF
330
18
100
AcDbEntity
  8
0
100
AcDbCircle
 10
385.2701562138261
 20
257.5063496399326
 30
0.0
 40
17.93755117588541
100
AcDbArc
 50
61.55803053784172
 51
118.4419694621577
  0
LINE
  5
33B0
330
18
100
AcDbEntity
  8
0
100
AcDbLine
 10
373.3132455262471
 20
273.2788373063568
 30
0.0
 11
376.7270669014051
 21
273.2788373063568
 31
0.0
  0
LINE
  5
33B1
330
18
100
AcDbEntity
  8
0
100
AcDbLine
 10
393.2701562138261
 20
275.4439008158179
 30
0.0
 11
395.5201562138261
 21
274.1448627101411
 31
0.0
  0
LINE
  5
33B2
330
18
100
AcDbEntity
  8
0
100
AcDbLine
 10
393.8132455262471
 20
273.2788373063568
 30
0.0
 11
395.5201562138261
 21
273.2788373063568
 31
0.0
  0
CIRCLE
  5
33B3
330
18
100
AcDbEntity
  8
0
100
AcDbCircle
 10
215.7728337855355
 20
358.1794254443768
 30
0.0
 40
7.474999999999999
  0
ARC
  5
33B4
330
18
100
AcDbEntity
  8
0
100
AcDbCircle
 10
215.7728337855355
 20
358.1794254443768
 30
0.0
 40
15.0
100
AcDbArc
 50
355.8419327631671
 51
4.158067236833285
  0
ARC
  5
33B5
330
18
100
AcDbEntity
  8
0
100
AcDbCircle
 10
215.7728337855355
 20
358.1794254443768
 30
0.0
 40
15.0
100
AcDbArc
 50
175.8419327631671
 51
184.1580672368333
  0
CIRCLE
  5
33B6
330
18
100
AcDbEntity
  8
0
100
AcDbCircle
 10
215.7728337855355
 20
358.1794254443768
 30
0.0
 40
13.5
  0
ARC
  5
33B7
330
18
100
AcDbEntity
  8
0
100
AcDbCircle
 10
215.7728337855355
 20
358.1794254443768
 30
0.0
 40
25.0
100
AcDbArc
 50
312.8436430435962
 51
227.1563569564036
  0
CIRCLE
  5
33B8
330
18
100
AcDbEntity
  8
0
100
AcDbCircle
 10
215.7728337855355
 20
358.1794254443768
 30
0.0
 40
24.0
  0
POLYLINE
  5
33B9
330
18
100
AcDbEntity
  8
0
100
AcDb2dPolyline
 66
     1
 10
0.0
 20
0.0
 30
0.0
  0
VERTEX
  5
37B7
330
33B9
100
AcDbEntity
  8
0
100
AcDbVertex
100
AcDb2dVertex
 10
209.2344853702245
 20
344.6794254443768
 30
0.0
  0
VERTEX
  5
37B8
330
33B9
100
AcDbEntity
  8
0
100
AcDbVertex
100
AcDb2dVertex
 10
222.3111822008466
 20
344.6794254443768
 30
0.0
  0
SEQEND
  5
37B9
330
33B9
100
AcDbEntity
  8
0
  0
LINE
  5
33BA
330
18
100
AcDbEntity
  8
0
100
AcDbLine
 10
199.7728337855355
 20
333.1794254443768
 30
0.0
 11
231.7728337855355
 21
333.1794254443768
 31
0.0
  0
LINE
  5
33BB
330
18
100
AcDbEntity
  8
0
100
AcDbLine
 10
198.7728337855355
 20
341.2383510982795
 30
0.0
 11
198.7728337855355
 21
334.1794254443768
 31
0.0
  0
ARC
  5
33BC
330
18
100
AcDbEntity
  8
0
100
AcDbCircle
 10
199.7728337855355
 20
334.1794254443768
 30
0.0
 40
1.0
100
AcDbArc
 50
180.0
 51
270.0
  0
POLYLINE
  5
33BD
330
18
100
AcDbEntity
  8
0
100
AcDb2dPolyline
 66
     1
 10
0.0
 20
0.0
 30
0.0
  0
VERTEX
  5
37BA
330
33BD
100
AcDbEntity
  8
0
100
AcDbVertex
100
AcDb2dVertex
 10
200.8123166267901
 20
357.0918012708299
 30
0.0
  0
VERTEX
  5
37BB
330
33BD
100
AcDbEntity
  8
0
100
AcDbVertex
100
AcDb2dVertex
 10
207.3506650421009
 20
345.767049617924
 30
0.0
  0
SEQEND
  5
37BC
330
33BD
100
AcDbEntity
  8
0
  0
ARC
  5
33BE
330
18
100
AcDbEntity
  8
0
100
AcDbCircle
 10
215.7728337855355
 20
358.1794254443768
 30
0.0
 40
15.0
100
AcDbArc
 50
235.841932763166
 51
244.1580672368393
  0
LINE
  5
33BF
330
18
100
AcDbEntity
  8
0
100
AcDbLine
 10
232.7728337855355
 20
341.2383510982795
 30
0.0
 11
232.7728337855355
 21
334.1794254443768
 31
0.0
  0
ARC
  5
33C0
330
18
100
AcDbEntity
  8
0
100
AcDbCircle
 10
231.7728337855355
 20
334.1794254443768
 30
0.0
 40
1.0
100
AcDbArc
 50
270.0
 51
0.0
  0
ARC
  5
33C1
330
18
100
AcDbEntity
  8
0
100
AcDbCircle
 10
215.7728337855355
 20
358.1794254443768
 30
0.0
 40
15.0
100
AcDbArc
 50
295.8419327631605
 51
304.1580672368323
  0
POLYLINE
  5
33C2
330
18
100
AcDbEntity
  8
0
100
AcDb2dPolyline
 66
     1
 10
0.0
 20
0.0
 30
0.0
  0
VERTEX
  5
37BD
330
33C2
100
AcDbEntity
  8
0
100
AcDbVertex
100
AcDb2dVertex
 10
224.19500252897
 20
345.7670496179237
 30
0.0
  0
VERTEX
  5
37BE
330
33C2
100
AcDbEntity
  8
0
100
AcDbVertex
100
AcDb2dVertex
 10
230.733350944281
 20
357.0918012708299
 30
0.0
  0
SEQEND
  5
37BF
330
33C2
100
AcDbEntity
  8
0
  0
POLYLINE
  5
33C3
330
18
100
AcDbEntity
  8
0
100
AcDb2dPolyline
 66
     1
 10
0.0
 20
0.0
 30
0.0
  0
VERTEX
  5
37C0
330
33C3
100
AcDbEntity
  8
0
100
AcDbVertex
100
AcDb2dVertex
 10
222.3111822008466
 20
371.6794254443768
 30
0.0
  0
VERTEX
  5
37C1
330
33C3
100
AcDbEntity
  8
0
100
AcDbVertex
100
AcDb2dVertex
 10
209.2344853702245
 20
371.6794254443768
 30
0.0
  0
SEQEND
  5
37C2
330
33C3
100
AcDbEntity
  8
0
  0
POLYLINE
  5
33C4
330
18
100
AcDbEntity
  8
0
100
AcDb2dPolyline
 66
     1
 10
0.0
 20
0.0
 30
0.0
  0
VERTEX
  5
37C3
330
33C4
100
AcDbEntity
  8
0
100
AcDbVertex
100
AcDb2dVertex
 10
207.3506650421013
 20
370.5918012708299
 30
0.0
  0
VERTEX
  5
37C4
330
33C4
100
AcDbEntity
  8
0
100
AcDbVertex
100
AcDb2dVertex
 10
200.8123166267901
 20
359.2670496179238
 30
0.0
  0
SEQEND
  5
37C5
330
33C4
100
AcDbEntity
  8
0
  0
ARC
  5
33C5
330
18
100
AcDbEntity
  8
0
100
AcDbCircle
 10
215.7728337855355
 20
358.1794254443768
 30
0.0
 40
15.0
100
AcDbArc
 50
115.8419327631605
 51
124.1580672368326
  0
ARC
  5
33C6
330
18
100
AcDbEntity
  8
0
100
AcDbCircle
 10
215.7728337855355
 20
358.1794254443768
 30
0.0
 40
15.0
100
AcDbArc
 50
55.84193276316644
 51
64.1580672368394
  0
POLYLINE
  5
33C7
330
18
100
AcDbEntity
  8
0
100
AcDb2dPolyline
 66
     1
 10
0.0
 20
0.0
 30
0.0
  0
VERTEX
  5
37C6
330
33C7
100
AcDbEntity
  8
0
100
AcDbVertex
100
AcDb2dVertex
 10
230.733350944281
 20
359.2670496179239
 30
0.0
  0
VERTEX
  5
37C7
330
33C7
100
AcDbEntity
  8
0
100
AcDbVertex
100
AcDb2dVertex
 10
224.1950025289702
 20
370.5918012708299
 30
0.0
  0
SEQEND
  5
37C8
330
33C7
100
AcDbEntity
  8
0
  0
LINE
  5
33C8
330
18
100
AcDbEntity
  8
0
100
AcDbLine
 10
222.3901478833561
 20
426.1658146454698
 30
0.0
 11
222.3901478833561
 21
439.2997892416853
 31
0.0
  0
LINE
  5
33C9
330
18
100
AcDbEntity
  8
0
100
AcDbLine
 10
224.1555196877154
 20
426.1658146454698
 30
0.0
 11
224.1555196877154
 21
439.2997892416853
 31
0.0
  0
LINE
  5
33CA
330
18
100
AcDbEntity
  8
0
100
AcDbLine
 10
230.7728337855357
 20
426.1658146454698
 30
0.0
 11
230.7728337855357
 21
439.2997892416853
 31
0.0
  0
LINE
  5
33CB
330
18
100
AcDbEntity
  8
0
100
AcDbLine
 10
207.3901478833558
 20
426.1658146454698
 30
0.0
 11
207.3901478833558
 21
439.2997892416853
 31
0.0
  0
LINE
  5
33CC
330
18
100
AcDbEntity
  8
0
100
AcDbLine
 10
200.7728337855358
 20
426.1658146454698
 30
0.0
 11
200.7728337855358
 21
439.2997892416853
 31
0.0
  0
LINE
  5
33CD
330
18
100
AcDbEntity
  8
0
100
AcDbLine
 10
209.1555196877154
 20
426.1658146454698
 30
0.0
 11
209.1555196877154
 21
439.2997892416853
 31
0.0
  0
LINE
  5
33CE
330
18
100
AcDbEntity
  8
0
100
AcDbLine
 10
202.2728337855357
 20
425.2997892416853
 30
0.0
 11
229.2728337855357
 21
425.2997892416853
 31
0.0
  0
ARC
  5
33CF
330
18
100
AcDbEntity
  8
0
100
AcDbCircle
 10
215.7728337855358
 20
451.0143038936698
 30
0.0
 40
25.71451465198432
100
AcDbArc
 50
255.0878507761323
 51
284.9121492238674
  0
ARC
  5
33D0
330
18
100
AcDbEntity
  8
0
100
AcDbCircle
 10
204.0814908344457
 20
432.0531774311001
 30
0.0
 40
6.753388189414803
100
AcDbArc
 50
240.6643153306899
 51
299.3356846693091
  0
LINE
  5
33D1
330
18
100
AcDbEntity
  8
0
100
AcDbLine
 10
202.2728337855357
 20
425.2997892416853
 30
0.0
 11
200.7728337855358
 21
426.1658146454698
 31
0.0
  0
LINE
  5
33D2
330
18
100
AcDbEntity
  8
0
100
AcDbLine
 10
209.1555196877154
 20
426.1658146454698
 30
0.0
 11
207.3901478833556
 21
426.1658146454698
 31
0.0
  0
LINE
  5
33D3
330
18
100
AcDbEntity
  8
0
100
AcDbLine
 10
224.1555196877154
 20
426.1658146454698
 30
0.0
 11
222.3901478833561
 21
426.1658146454698
 31
0.0
  0
LINE
  5
33D4
330
18
100
AcDbEntity
  8
0
100
AcDbLine
 10
229.2728337855357
 20
425.2997892416853
 30
0.0
 11
230.7728337855357
 21
426.1658146454698
 31
0.0
  0
ARC
  5
33D5
330
18
100
AcDbEntity
  8
0
100
AcDbCircle
 10
227.464394736459
 20
432.0540103012257
 30
0.0
 40
6.754221063058524
100
AcDbArc
 50
240.666164614317
 51
299.1902509639007
  0
LINE
  5
33D6
330
18
100
AcDbEntity
  8
0
100
AcDbLine
 10
239.7728337855358
 20
449.7997892416853
 30
0.0
 11
239.7728337855358
 21
466.7997892416853
 31
0.0
  0
LINE
  5
33D7
330
18
100
AcDbEntity
  8
0
100
AcDbLine
 10
191.7728337855358
 20
449.7997892416853
 30
0.0
 11
191.7728337855358
 21
466.7997892416853
 31
0.0
  0
LINE
  5
33D8
330
18
100
AcDbEntity
  8
0
100
AcDbLine
 10
190.7728337855358
 20
449.7997892416853
 30
0.0
 11
240.7728337855358
 21
449.7997892416853
 31
0.0
  0
LINE
  5
33D9
330
18
100
AcDbEntity
  8
0
100
AcDbLine
 10
190.7728337855355
 20
444.2997892416853
 30
0.0
 11
240.7728337855358
 21
444.2997892416853
 31
0.0
  0
LINE
  5
33DA
330
18
100
AcDbEntity
  8
0
100
AcDbLine
 10
190.7728337855355
 20
439.2997892416853
 30
0.0
 11
240.7728337855358
 21
439.2997892416853
 31
0.0
  0
LINE
  5
33DB
330
18
100
AcDbEntity
  8
0
100
AcDbLine
 10
190.7728337855355
 20
439.2997892416853
 30
0.0
 11
190.7728337855358
 21
449.7997892416853
 31
0.0
  0
LINE
  5
33DC
330
18
100
AcDbEntity
  8
0
100
AcDbLine
 10
240.7728337855358
 20
439.2997892416853
 30
0.0
 11
240.7728337855358
 21
449.7997892416853
 31
0.0
  0
ARC
  5
33DD
330
18
100
AcDbEntity
  8
0
100
AcDbCircle
 10
215.7728337855358
 20
455.085274589701
 30
0.0
 40
25.71451465198432
100
AcDbArc
 50
75.08785077613255
 51
104.9121492238676
  0
LINE
  5
33DE
330
18
100
AcDbEntity
  8
0
100
AcDbLine
 10
215.7728337855358
 20
480.7997892416853
 30
0.0
 11
229.2728337855357
 21
480.7997892416853
 31
0.0
  0
LINE
  5
33DF
330
18
100
AcDbEntity
  8
0
100
AcDbLine
 10
191.7728337855358
 20
466.7997892416853
 30
0.0
 11
239.7728337855358
 21
466.7997892416853
 31
0.0
  0
ARC
  5
33E0
330
18
100
AcDbEntity
  8
0
100
AcDbCircle
 10
204.0814908344457
 20
474.0464010522704
 30
0.0
 40
6.753388189414803
100
AcDbArc
 50
60.66431533069081
 51
119.33568466931
  0
LINE
  5
33E1
330
18
100
AcDbEntity
  8
0
100
AcDbLine
 10
202.2728337855357
 20
480.7997892416853
 30
0.0
 11
215.7728337855358
 21
480.7997892416853
 31
0.0
  0
LINE
  5
33E2
330
18
100
AcDbEntity
  8
0
100
AcDbLine
 10
202.2728337855357
 20
480.7997892416853
 30
0.0
 11
200.7728337855358
 21
479.933763837901
 31
0.0
  0
LINE
  5
33E3
330
18
100
AcDbEntity
  8
0
100
AcDbLine
 10
200.7728337855358
 20
479.933763837901
 30
0.0
 11
200.7728337855358
 21
466.7997892416853
 31
0.0
  0
LINE
  5
33E4
330
18
100
AcDbEntity
  8
0
100
AcDbLine
 10
209.1555196877154
 20
479.933763837901
 30
0.0
 11
207.3901478833558
 21
479.933763837901
 31
0.0
  0
LINE
  5
33E5
330
18
100
AcDbEntity
  8
0
100
AcDbLine
 10
207.3901478833558
 20
479.933763837901
 30
0.0
 11
207.3901478833558
 21
466.7997892416853
 31
0.0
  0
LINE
  5
33E6
330
18
100
AcDbEntity
  8
0
100
AcDbLine
 10
209.1555196877154
 20
479.933763837901
 30
0.0
 11
209.1555196877154
 21
466.7997892416853
 31
0.0
  0
LINE
  5
33E7
330
18
100
AcDbEntity
  8
0
100
AcDbLine
 10
224.1555196877154
 20
479.933763837901
 30
0.0
 11
222.3901478833561
 21
479.933763837901
 31
0.0
  0
LINE
  5
33E8
330
18
100
AcDbEntity
  8
0
100
AcDbLine
 10
229.2728337855357
 20
480.7997892416853
 30
0.0
 11
230.7728337855357
 21
479.933763837901
 31
0.0
  0
ARC
  5
33E9
330
18
100
AcDbEntity
  8
0
100
AcDbCircle
 10
227.4643947364593
 20
474.0455681821448
 30
0.0
 40
6.754221063058524
100
AcDbArc
 50
60.80974903609927
 51
119.333835385683
  0
LINE
  5
33EA
330
18
100
AcDbEntity
  8
0
100
AcDbLine
 10
224.1555196877154
 20
479.933763837901
 30
0.0
 11
224.1555196877154
 21
466.7997892416853
 31
0.0
  0
LINE
  5
33EB
330
18
100
AcDbEntity
  8
0
100
AcDbLine
 10
222.3901478833561
 20
479.933763837901
 30
0.0
 11
222.3901478833561
 21
466.7997892416853
 31
0.0
  0
LINE
  5
33EC
330
18
100
AcDbEntity
  8
0
100
AcDbLine
 10
230.7728337855357
 20
479.933763837901
 30
0.0
 11
230.7728337855357
 21
466.7997892416853
 31
0.0
  0
LINE
  5
33EF
330
18
100
AcDbEntity
  8
0
100
AcDbLine
 10
453.7698574432072
 20
273.278837306357
 30
0.0
 11
456.533940553531
 21
273.278837306357
 31
0.0
  0
LINE
  5
33F0
330
18
100
AcDbEntity
  8
0
100
AcDbLine
 10
464.2768989983692
 20
275.443900815818
 30
0.0
 11
443.7768989983692
 21
275.443900815818
 31
0.0
  0
LINE
  5
33F1
330
18
100
AcDbEntity
  8
0
100
AcDbLine
 10
459.5268989983692
 20
259.4439008158181
 30
0.0
 11
428.0268989983692
 21
259.4439008158181
 31
0.0
  0
LINE
  5
33F2
330
18
100
AcDbEntity
  8
0
100
AcDbLine
 10
459.5268989983692
 20
239.4439008158181
 30
0.0
 11
428.0268989983692
 21
239.4439008158181
 31
0.0
  0
LINE
  5
33F3
330
18
100
AcDbEntity
  8
0
100
AcDbLine
 10
467.7768989983692
 20
259.9439008158181
 30
0.0
 11
419.7768989983692
 21
259.9439008158181
 31
0.0
  0
LINE
  5
33F4
330
18
100
AcDbEntity
  8
0
100
AcDbLine
 10
418.7768989983692
 20
237.4439008158181
 30
0.0
 11
468.7768989983692
 21
237.4439008158181
 31
0.0
  0
LINE
  5
33F5
330
18
100
AcDbEntity
  8
0
100
AcDbLine
 10
418.7768989983692
 20
232.4439008158181
 30
0.0
 11
468.7768989983692
 21
232.4439008158181
 31
0.0
  0
LINE
  5
33F6
330
18
100
AcDbEntity
  8
0
100
AcDbLine
 10
460.7768989983692
 20
238.9439008158181
 30
0.0
 11
426.7768989983692
 21
238.9439008158181
 31
0.0
  0
LINE
  5
33F7
330
18
100
AcDbEntity
  8
0
100
AcDbLine
 10
453.7698574432072
 20
217.6089643252792
 30
0.0
 11
456.5339405535312
 21
217.6089643252792
 31
0.0
  0
LINE
  5
33F8
330
18
100
AcDbEntity
  8
0
100
AcDbLine
 10
423.2768989983692
 20
215.4439008158181
 30
0.0
 11
464.2768989983692
 21
215.4439008158181
 31
0.0
  0
LINE
  5
33F9
330
18
100
AcDbEntity
  8
0
100
AcDbLine
 10
426.7768989983692
 20
238.9439008158181
 30
0.0
 11
426.7768989983692
 21
259.9439008158181
 31
0.0
  0
LINE
  5
33FA
330
18
100
AcDbEntity
  8
0
100
AcDbLine
 10
428.0268989983692
 20
239.4439008158181
 30
0.0
 11
428.0268989983692
 21
259.4439008158181
 31
0.0
  0
LINE
  5
33FB
330
18
100
AcDbEntity
  8
0
100
AcDbLine
 10
419.7768989983692
 20
243.4439008158181
 30
0.0
 11
419.7768989983692
 21
259.9439008158181
 31
0.0
  0
LINE
  5
33FC
330
18
100
AcDbEntity
  8
0
100
AcDbLine
 10
426.7768989983692
 20
243.4439008158181
 30
0.0
 11
418.7768989983692
 21
243.4439008158181
 31
0.0
  0
LINE
  5
33FD
330
18
100
AcDbEntity
  8
0
100
AcDbLine
 10
418.7768989983692
 20
232.4439008158181
 30
0.0
 11
418.7768989983692
 21
243.4439008158181
 31
0.0
  0
LINE
  5
33FE
330
18
100
AcDbEntity
  8
0
100
AcDbLine
 10
431.0198574432072
 20
217.6089643252792
 30
0.0
 11
431.0198574432072
 21
232.4439008158181
 31
0.0
  0
LINE
  5
33FF
330
18
100
AcDbEntity
  8
0
100
AcDbLine
 10
433.7839405535312
 20
217.6089643252792
 30
0.0
 11
433.7839405535312
 21
232.4439008158181
 31
0.0
  0
LINE
  5
3400
330
18
100
AcDbEntity
  8
0
100
AcDbLine
 10
453.7698574432072
 20
217.6089643252792
 30
0.0
 11
453.7698574432072
 21
232.4439008158181
 31
0.0
  0
LINE
  5
3401
330
18
100
AcDbEntity
  8
0
100
AcDbLine
 10
421.0268989983692
 20
216.7429389214947
 30
0.0
 11
421.0268989983692
 21
232.4439008158181
 31
0.0
  0
ARC
  5
3402
330
18
100
AcDbEntity
  8
0
100
AcDbCircle
 10
443.7768989983692
 20
239.5879312388063
 30
0.0
 40
24.14403042298818
100
AcDbArc
 50
245.5506033676958
 51
294.4493966323041
  0
LINE
  5
3403
330
18
100
AcDbEntity
  8
0
100
AcDbLine
 10
431.0198574432072
 20
217.6089643252792
 30
0.0
 11
433.7839405535312
 21
217.6089643252792
 31
0.0
  0
LINE
  5
3404
330
18
100
AcDbEntity
  8
0
100
AcDbLine
 10
423.2768989983692
 20
215.4439008158181
 30
0.0
 11
421.0268989983692
 21
216.7429389214947
 31
0.0
  0
ARC
  5
3405
330
18
100
AcDbEntity
  8
0
100
AcDbCircle
 10
426.0233782207883
 20
222.291807237613
 30
0.0
 40
6.847906421794997
100
AcDbArc
 50
223.1441105637501
 51
316.8558894362501
  0
LINE
  5
3406
330
18
100
AcDbEntity
  8
0
100
AcDbLine
 10
453.7698574432072
 20
273.278837306357
 30
0.0
 11
453.7698574432072
 21
259.9439008158181
 31
0.0
  0
LINE
  5
3407
330
18
100
AcDbEntity
  8
0
100
AcDbLine
 10
431.0198574432072
 20
273.278837306357
 30
0.0
 11
431.0198574432072
 21
259.9439008158181
 31
0.0
  0
LINE
  5
3408
330
18
100
AcDbEntity
  8
0
100
AcDbLine
 10
433.7839405535312
 20
273.278837306357
 30
0.0
 11
433.7839405535312
 21
259.9439008158181
 31
0.0
  0
LINE
  5
3409
330
18
100
AcDbEntity
  8
0
100
AcDbLine
 10
421.0268989983692
 20
274.1448627101413
 30
0.0
 11
421.0268989983692
 21
259.9439008158181
 31
0.0
  0
ARC
  5
340A
330
18
100
AcDbEntity
  8
0
100
AcDbCircle
 10
443.7768989983692
 20
251.2998703928299
 30
0.0
 40
24.14403042298818
100
AcDbArc
 50
65.5506033676939
 51
114.4493966323061
  0
LINE
  5
340B
330
18
100
AcDbEntity
  8
0
100
AcDbLine
 10
443.7768989983692
 20
275.443900815818
 30
0.0
 11
423.2768989983692
 21
275.443900815818
 31
0.0
  0
LINE
  5
340C
330
18
100
AcDbEntity
  8
0
100
AcDbLine
 10
431.0198574432072
 20
273.278837306357
 30
0.0
 11
433.7839405535312
 21
273.278837306357
 31
0.0
  0
LINE
  5
340D
330
18
100
AcDbEntity
  8
0
100
AcDbLine
 10
423.2768989983692
 20
275.443900815818
 30
0.0
 11
421.0268989983692
 21
274.1448627101413
 31
0.0
  0
ARC
  5
340E
330
18
100
AcDbEntity
  8
0
100
AcDbCircle
 10
426.0233782207881
 20
268.5959943940231
 30
0.0
 40
6.847906421794997
100
AcDbArc
 50
43.14411056374982
 51
136.8558894362499
  0
LINE
  5
340F
330
18
100
AcDbEntity
  8
0
100
AcDbLine
 10
467.7768989983692
 20
243.4439008158181
 30
0.0
 11
467.7768989983692
 21
259.9439008158181
 31
0.0
  0
LINE
  5
3410
330
18
100
AcDbEntity
  8
0
100
AcDbLine
 10
460.7768989983692
 20
238.9439008158181
 30
0.0
 11
460.7768989983692
 21
259.9439008158181
 31
0.0
  0
LINE
  5
3411
330
18
100
AcDbEntity
  8
0
100
AcDbLine
 10
459.5268989983692
 20
239.4439008158181
 30
0.0
 11
459.5268989983692
 21
259.4439008158181
 31
0.0
  0
LINE
  5
3412
330
18
100
AcDbEntity
  8
0
100
AcDbLine
 10
466.5268989983692
 20
216.7429389214947
 30
0.0
 11
466.5268989983692
 21
232.4439008158181
 31
0.0
  0
LINE
  5
3413
330
18
100
AcDbEntity
  8
0
100
AcDbLine
 10
456.5339405535312
 20
217.6089643252792
 30
0.0
 11
456.5339405535312
 21
232.4439008158181
 31
0.0
  0
LINE
  5
3414
330
18
100
AcDbEntity
  8
0
100
AcDbLine
 10
464.2768989983692
 20
215.4439008158181
 30
0.0
 11
466.5268989983692
 21
216.7429389214947
 31
0.0
  0
ARC
  5
3415
330
18
100
AcDbEntity
  8
0
100
AcDbCircle
 10
461.5304197759503
 20
222.291807237613
 30
0.0
 40
6.847906421794997
100
AcDbArc
 50
223.1441105637498
 51
316.8558894362498
  0
LINE
  5
3416
330
18
100
AcDbEntity
  8
0
100
AcDbLine
 10
468.7768989983692
 20
232.4439008158181
 30
0.0
 11
468.7768989983692
 21
243.4439008158181
 31
0.0
  0
LINE
  5
3417
330
18
100
AcDbEntity
  8
0
100
AcDbLine
 10
468.7768989983692
 20
243.4439008158181
 30
0.0
 11
460.7768989983692
 21
243.4439008158181
 31
0.0
  0
LINE
  5
3418
330
18
100
AcDbEntity
  8
0
100
AcDbLine
 10
466.5268989983692
 20
274.1448627101413
 30
0.0
 11
466.5268989983692
 21
259.9439008158181
 31
0.0
  0
LINE
  5
3419
330
18
100
AcDbEntity
  8
0
100
AcDbLine
 10
456.533940553531
 20
273.278837306357
 30
0.0
 11
456.533940553531
 21
259.9439008158181
 31
0.0
  0
LINE
  5
341A
330
18
100
AcDbEntity
  8
0
100
AcDbLine
 10
464.2768989983692
 20
275.443900815818
 30
0.0
 11
466.5268989983692
 21
274.1448627101413
 31
0.0
  0
ARC
  5
341B
330
18
100
AcDbEntity
  8
0
100
AcDbCircle
 10
461.5304197759501
 20
268.5959943940231
 30
0.0
 40
6.847906421794997
100
AcDbArc
 50
43.14411056375014
 51
136.85588943625
  0
LINE
  5
341C
330
18
100
AcDbEntity
  8
0
100
AcDbLine
 10
495.592567436815
 20
259.9439008158179
 30
0.0
 11
495.592567436815
 21
238.943900815818
 31
0.0
  0
LINE
  5
341D
330
18
100
AcDbEntity
  8
0
100
AcDbLine
 10
536.5336417829123
 20
243.4439008158179
 30
0.0
 11
536.5336417829123
 21
259.9439008158179
 31
0.0
  0
LINE
  5
341E
330
18
100
AcDbEntity
  8
0
100
AcDbLine
 10
487.5336417829121
 20
259.9439008158179
 30
0.0
 11
487.5336417829121
 21
238.943900815818
 31
0.0
  0
ARC
  5
341F
330
18
100
AcDbEntity
  8
0
100
AcDbCircle
 10
502.2836417829124
 20
233.3814519917033
 30
0.0
 40
17.93755117588541
100
AcDbArc
 50
241.5580305378417
 51
298.4419694621577
  0
LINE
  5
3420
330
18
100
AcDbEntity
  8
0
100
AcDbLine
 10
494.2836417829123
 20
215.443900815818
 30
0.0
 11
530.7836417829123
 21
215.443900815818
 31
0.0
  0
LINE
  5
3421
330
18
100
AcDbEntity
  8
0
100
AcDbLine
 10
537.5336417829124
 20
243.4439008158179
 30
0.0
 11
495.5925674368152
 21
243.4439008158179
 31
0.0
  0
LINE
  5
3422
330
18
100
AcDbEntity
  8
0
100
AcDbLine
 10
487.5336417829124
 20
232.443900815818
 30
0.0
 11
537.5336417829124
 21
232.443900815818
 31
0.0
  0
LINE
  5
3423
330
18
100
AcDbEntity
  8
0
100
AcDbLine
 10
487.5336417829124
 20
237.443900815818
 30
0.0
 11
537.5336417829124
 21
237.443900815818
 31
0.0
  0
LINE
  5
3424
330
18
100
AcDbEntity
  8
0
100
AcDbLine
 10
493.7405524704913
 20
217.6089643252791
 30
0.0
 11
493.7405524704916
 21
232.443900815818
 31
0.0
  0
LINE
  5
3425
330
18
100
AcDbEntity
  8
0
100
AcDbLine
 10
492.0336417829124
 20
216.7429389214948
 30
0.0
 11
492.0336417829124
 21
232.443900815818
 31
0.0
  0
LINE
  5
3426
330
18
100
AcDbEntity
  8
0
100
AcDbLine
 10
494.2836417829123
 20
215.443900815818
 30
0.0
 11
492.0336417829124
 21
216.7429389214948
 31
0.0
  0
LINE
  5
3427
330
18
100
AcDbEntity
  8
0
100
AcDbLine
 10
493.7405524704913
 20
217.6089643252791
 30
0.0
 11
492.0336417829124
 21
217.6089643252791
 31
0.0
  0
LINE
  5
3428
330
18
100
AcDbEntity
  8
0
100
AcDbLine
 10
495.592567436815
 20
238.943900815818
 30
0.0
 11
487.5336417829121
 21
238.943900815818
 31
0.0
  0
LINE
  5
3429
330
18
100
AcDbEntity
  8
0
100
AcDbLine
 10
487.5336417829124
 20
232.443900815818
 30
0.0
 11
487.5336417829124
 21
243.4439008158179
 31
0.0
  0
LINE
  5
342A
330
18
100
AcDbEntity
  8
0
100
AcDbLine
 10
514.2405524704913
 20
217.6089643252791
 30
0.0
 11
514.2405524704913
 21
232.443900815818
 31
0.0
  0
LINE
  5
342B
330
18
100
AcDbEntity
  8
0
100
AcDbLine
 10
510.8267310953333
 20
217.6089643252791
 30
0.0
 11
510.8267310953333
 21
232.443900815818
 31
0.0
  0
LINE
  5
342C
330
18
100
AcDbEntity
  8
0
100
AcDbLine
 10
531.3267310953333
 20
217.6089643252791
 30
0.0
 11
531.3267310953333
 21
232.443900815818
 31
0.0
  0
LINE
  5
342D
330
18
100
AcDbEntity
  8
0
100
AcDbLine
 10
533.0336417829123
 20
216.7429389214948
 30
0.0
 11
533.0336417829123
 21
232.443900815818
 31
0.0
  0
ARC
  5
342E
330
18
100
AcDbEntity
  8
0
100
AcDbCircle
 10
522.7836417829123
 20
233.3814519917033
 30
0.0
 40
17.93755117588541
100
AcDbArc
 50
241.5580305378421
 51
298.4419694621582
  0
LINE
  5
342F
330
18
100
AcDbEntity
  8
0
100
AcDbLine
 10
514.2405524704913
 20
217.6089643252791
 30
0.0
 11
510.8267310953333
 21
217.6089643252791
 31
0.0
  0
LINE
  5
3430
330
18
100
AcDbEntity
  8
0
100
AcDbLine
 10
530.7836417829123
 20
215.443900815818
 30
0.0
 11
533.0336417829123
 21
216.7429389214948
 31
0.0
  0
LINE
  5
3431
330
18
100
AcDbEntity
  8
0
100
AcDbLine
 10
531.3267310953333
 20
217.6089643252791
 30
0.0
 11
533.0336417829123
 21
217.6089643252791
 31
0.0
  0
LINE
  5
3432
330
18
100
AcDbEntity
  8
0
100
AcDbLine
 10
537.5336417829124
 20
232.443900815818
 30
0.0
 11
537.5336417829124
 21
243.4439008158179
 31
0.0
  0
ARC
  5
3433
330
18
100
AcDbEntity
  8
0
100
AcDbCircle
 10
502.2836417829124
 20
257.5063496399326
 30
0.0
 40
17.93755117588541
100
AcDbArc
 50
61.5580305378422
 51
118.4419694621583
  0
LINE
  5
3434
330
18
100
AcDbEntity
  8
0
100
AcDbLine
 10
536.5336417829123
 20
259.9439008158179
 30
0.0
 11
487.5336417829121
 21
259.9439008158179
 31
0.0
  0
LINE
  5
3435
330
18
100
AcDbEntity
  8
0
100
AcDbLine
 10
494.2836417829123
 20
275.4439008158179
 30
0.0
 11
530.7836417829123
 21
275.4439008158179
 31
0.0
  0
LINE
  5
3436
330
18
100
AcDbEntity
  8
0
100
AcDbLine
 10
492.0336417829124
 20
274.1448627101411
 30
0.0
 11
492.0336417829124
 21
259.9439008158179
 31
0.0
  0
LINE
  5
3437
330
18
100
AcDbEntity
  8
0
100
AcDbLine
 10
493.7405524704913
 20
273.2788373063568
 30
0.0
 11
493.7405524704916
 21
259.9439008158179
 31
0.0
  0
LINE
  5
3438
330
18
100
AcDbEntity
  8
0
100
AcDbLine
 10
493.7405524704913
 20
273.2788373063568
 30
0.0
 11
492.0336417829124
 21
273.2788373063568
 31
0.0
  0
LINE
  5
3439
330
18
100
AcDbEntity
  8
0
100
AcDbLine
 10
494.2836417829123
 20
275.4439008158179
 30
0.0
 11
492.0336417829124
 21
274.1448627101411
 31
0.0
  0
LINE
  5
343A
330
18
100
AcDbEntity
  8
0
100
AcDbLine
 10
510.8267310953333
 20
273.2788373063568
 30
0.0
 11
510.8267310953333
 21
259.9439008158179
 31
0.0
  0
LINE
  5
343B
330
18
100
AcDbEntity
  8
0
100
AcDbLine
 10
514.2405524704913
 20
273.2788373063568
 30
0.0
 11
514.2405524704913
 21
259.9439008158179
 31
0.0
  0
LINE
  5
343C
330
18
100
AcDbEntity
  8
0
100
AcDbLine
 10
531.3267310953333
 20
273.2788373063568
 30
0.0
 11
531.3267310953333
 21
259.9439008158179
 31
0.0
  0
LINE
  5
343D
330
18
100
AcDbEntity
  8
0
100
AcDbLine
 10
533.0336417829123
 20
274.1448627101411
 30
0.0
 11
533.0336417829123
 21
259.9439008158179
 31
0.0
  0
ARC
  5
343E
330
18
100
AcDbEntity
  8
0
100
AcDbCircle
 10
522.7836417829123
 20
257.5063496399326
 30
0.0
 40
17.93755117588541
100
AcDbArc
 50
61.55803053784172
 51
118.4419694621578
  0
LINE
  5
343F
330
18
100
AcDbEntity
  8
0
100
AcDbLine
 10
514.2405524704913
 20
273.2788373063568
 30
0.0
 11
510.8267310953333
 21
273.2788373063568
 31
0.0
  0
LINE
  5
3440
330
18
100
AcDbEntity
  8
0
100
AcDbLine
 10
530.7836417829123
 20
275.4439008158179
 30
0.0
 11
533.0336417829123
 21
274.1448627101411
 31
0.0
  0
LINE
  5
3441
330
18
100
AcDbEntity
  8
0
100
AcDbLine
 10
531.3267310953333
 20
273.2788373063568
 30
0.0
 11
533.0336417829123
 21
273.2788373063568
 31
0.0
  0
CIRCLE
  5
3442
330
18
100
AcDbEntity
  8
0
100
AcDbCircle
 10
443.7768989983692
 20
358.1794254443768
 30
0.0
 40
15.1455
  0
ARC
  5
3443
330
18
100
AcDbEntity
  8
0
100
AcDbCircle
 10
443.7768989983692
 20
358.1794254443768
 30
0.0
 40
22.74999999999999
100
AcDbArc
 50
55.69710905494313
 51
64.30289094506291
  0
ARC
  5
3444
330
18
100
AcDbEntity
  8
0
100
AcDbCircle
 10
443.7768989983692
 20
358.1794254443768
 30
0.0
 40
22.74999999999999
100
AcDbArc
 50
295.697109054937
 51
304.3028909450569
  0
LINE
  5
3445
330
18
100
AcDbEntity
  8
0
100
AcDbLine
 10
427.7768989983692
 20
333.1794254443768
 30
0.0
 11
459.7768989983689
 21
333.1794254443768
 31
0.0
  0
ARC
  5
3446
330
18
100
AcDbEntity
  8
0
100
AcDbCircle
 10
443.7768989983692
 20
358.1794254443768
 30
0.0
 40
25.0
100
AcDbArc
 50
312.8436430435963
 51
227.1563569564037
  0
CIRCLE
  5
3447
330
18
100
AcDbEntity
  8
0
100
AcDbCircle
 10
443.7768989983692
 20
358.1794254443768
 30
0.0
 40
20.5
  0
CIRCLE
  5
3448
330
18
100
AcDbEntity
  8
0
100
AcDbCircle
 10
443.7768989983692
 20
358.1794254443768
 30
0.0
 40
24.0
  0
ARC
  5
3449
330
18
100
AcDbEntity
  8
0
100
AcDbCircle
 10
443.7768989983692
 20
358.1794254443768
 30
0.0
 40
22.74999999999999
100
AcDbArc
 50
175.697109054943
 51
184.3028909450575
  0
LINE
  5
344A
330
18
100
AcDbEntity
  8
0
100
AcDbLine
 10
426.7768989983692
 20
341.2383510982795
 30
0.0
 11
426.7768989983692
 21
334.1794254443768
 31
0.0
  0
POLYLINE
  5
344B
330
18
100
AcDbEntity
  8
0
100
AcDb2dPolyline
 66
     1
 10
0.0
 20
0.0
 30
0.0
  0
VERTEX
  5
37C9
330
344B
100
AcDbEntity
  8
0
100
AcDbVertex
100
AcDb2dVertex
 10
421.091023306551
 20
356.4725147567978
 30
0.0
  0
VERTEX
  5
37CA
330
344B
100
AcDbEntity
  8
0
100
AcDbVertex
100
AcDb2dVertex
 10
430.9557331350254
 20
339.3863361319561
 30
0.0
  0
SEQEND
  5
37CB
330
344B
100
AcDbEntity
  8
0
  0
POLYLINE
  5
344C
330
18
100
AcDbEntity
  8
0
100
AcDb2dPolyline
 66
     1
 10
0.0
 20
0.0
 30
0.0
  0
VERTEX
  5
37CC
330
344C
100
AcDbEntity
  8
0
100
AcDbVertex
100
AcDb2dVertex
 10
433.9121891698946
 20
337.6794254443769
 30
0.0
  0
VERTEX
  5
37CD
330
344C
100
AcDbEntity
  8
0
100
AcDbVertex
100
AcDb2dVertex
 10
453.6416088268436
 20
337.6794254443769
 30
0.0
  0
SEQEND
  5
37CE
330
344C
100
AcDbEntity
  8
0
  0
ARC
  5
344D
330
18
100
AcDbEntity
  8
0
100
AcDbCircle
 10
443.7768989983692
 20
358.1794254443768
 30
0.0
 40
22.74999999999999
100
AcDbArc
 50
235.6971090549424
 51
244.3028909450629
  0
ARC
  5
344E
330
18
100
AcDbEntity
  8
0
100
AcDbCircle
 10
427.7768989983692
 20
334.1794254443768
 30
0.0
 40
1.0
100
AcDbArc
 50
180.0
 51
270.0
  0
POLYLINE
  5
344F
330
18
100
AcDbEntity
  8
0
100
AcDb2dPolyline
 66
     1
 10
0.0
 20
0.0
 30
0.0
  0
VERTEX
  5
37CF
330
344F
100
AcDbEntity
  8
0
100
AcDbVertex
100
AcDb2dVertex
 10
430.9557331350256
 20
376.9725147567978
 30
0.0
  0
VERTEX
  5
37D0
330
344F
100
AcDbEntity
  8
0
100
AcDbVertex
100
AcDb2dVertex
 10
421.091023306551
 20
359.8863361319561
 30
0.0
  0
SEQEND
  5
37D1
330
344F
100
AcDbEntity
  8
0
  0
POLYLINE
  5
3450
330
18
100
AcDbEntity
  8
0
100
AcDb2dPolyline
 66
     1
 10
0.0
 20
0.0
 30
0.0
  0
VERTEX
  5
37D2
330
3450
100
AcDbEntity
  8
0
100
AcDbVertex
100
AcDb2dVertex
 10
453.6416088268437
 20
378.6794254443768
 30
0.0
  0
VERTEX
  5
37D3
330
3450
100
AcDbEntity
  8
0
100
AcDbVertex
100
AcDb2dVertex
 10
433.9121891698946
 20
378.6794254443768
 30
0.0
  0
SEQEND
  5
37D4
330
3450
100
AcDbEntity
  8
0
  0
ARC
  5
3451
330
18
100
AcDbEntity
  8
0
100
AcDbCircle
 10
443.7768989983692
 20
358.1794254443768
 30
0.0
 40
22.74999999999999
100
AcDbArc
 50
115.697109054937
 51
124.3028909450568
  0
ARC
  5
3452
330
18
100
AcDbEntity
  8
0
100
AcDbCircle
 10
443.7768989983692
 20
358.1794254443768
 30
0.0
 40
22.74999999999999
100
AcDbArc
 50
355.697109054943
 51
4.302890945056976
  0
LINE
  5
3453
330
18
100
AcDbEntity
  8
0
100
AcDbLine
 10
460.7768989983692
 20
341.2383510982795
 30
0.0
 11
460.7768989983689
 21
334.1794254443768
 31
0.0
  0
POLYLINE
  5
3454
330
18
100
AcDbEntity
  8
0
100
AcDb2dPolyline
 66
     1
 10
0.0
 20
0.0
 30
0.0
  0
VERTEX
  5
37D5
330
3454
100
AcDbEntity
  8
0
100
AcDbVertex
100
AcDb2dVertex
 10
456.5980648617128
 20
339.3863361319558
 30
0.0
  0
VERTEX
  5
37D6
330
3454
100
AcDbEntity
  8
0
100
AcDbVertex
100
AcDb2dVertex
 10
466.4627746901873
 20
356.4725147567978
 30
0.0
  0
SEQEND
  5
37D7
330
3454
100
AcDbEntity
  8
0
  0
ARC
  5
3455
330
18
100
AcDbEntity
  8
0
100
AcDbCircle
 10
459.7768989983689
 20
334.1794254443768
 30
0.0
 40
1.0
100
AcDbArc
 50
270.0
 51
0.0
  0
POLYLINE
  5
3456
330
18
100
AcDbEntity
  8
0
100
AcDb2dPolyline
 66
     1
 10
0.0
 20
0.0
 30
0.0
  0
VERTEX
  5
37D8
330
3456
100
AcDbEntity
  8
0
100
AcDbVertex
100
AcDb2dVertex
 10
466.4627746901873
 20
359.8863361319558
 30
0.0
  0
VERTEX
  5
37D9
330
3456
100
AcDbEntity
  8
0
100
AcDbVertex
100
AcDb2dVertex
 10
456.598064861713
 20
376.9725147567978
 30
0.0
  0
SEQEND
  5
37DA
330
3456
100
AcDbEntity
  8
0
  0
LINE
  5
3457
330
18
100
AcDbEntity
  8
0
100
AcDbLine
 10
464.2768989983692
 20
485.2997892416854
 30
0.0
 11
443.7768989983692
 21
485.2997892416854
 31
0.0
  0
LINE
  5
3458
330
18
100
AcDbEntity
  8
0
100
AcDbLine
 10
453.7698574432072
 20
483.1347257322242
 30
0.0
 11
456.533940553531
 21
483.1347257322242
 31
0.0
  0
LINE
  5
3459
330
18
100
AcDbEntity
  8
0
100
AcDbLine
 10
418.7768989983692
 20
447.2997892416854
 30
0.0
 11
468.7768989983692
 21
447.2997892416854
 31
0.0
  0
LINE
  5
345A
330
18
100
AcDbEntity
  8
0
100
AcDbLine
 10
467.7768989983692
 20
469.7997892416854
 30
0.0
 11
419.7768989983692
 21
469.7997892416854
 31
0.0
  0
LINE
  5
345B
330
18
100
AcDbEntity
  8
0
100
AcDbLine
 10
468.7768989983692
 20
453.2997892416854
 30
0.0
 11
418.7768989983692
 21
453.2997892416854
 31
0.0
  0
LINE
  5
345C
330
18
100
AcDbEntity
  8
0
100
AcDbLine
 10
453.7698574432072
 20
427.4648527511465
 30
0.0
 11
456.5339405535312
 21
427.4648527511465
 31
0.0
  0
LINE
  5
345D
330
18
100
AcDbEntity
  8
0
100
AcDbLine
 10
423.2768989983692
 20
425.2997892416853
 30
0.0
 11
464.2768989983692
 21
425.2997892416853
 31
0.0
  0
LINE
  5
345E
330
18
100
AcDbEntity
  8
0
100
AcDbLine
 10
418.7768989983692
 20
442.2997892416853
 30
0.0
 11
468.7768989983692
 21
442.2997892416853
 31
0.0
  0
LINE
  5
345F
330
18
100
AcDbEntity
  8
0
100
AcDbLine
 10
453.7698574432072
 20
427.4648527511465
 30
0.0
 11
453.7698574432072
 21
442.2997892416853
 31
0.0
  0
LINE
  5
3460
330
18
100
AcDbEntity
  8
0
100
AcDbLine
 10
433.7839405535312
 20
427.4648527511465
 30
0.0
 11
433.7839405535312
 21
442.2997892416853
 31
0.0
  0
LINE
  5
3461
330
18
100
AcDbEntity
  8
0
100
AcDbLine
 10
431.0198574432072
 20
427.4648527511465
 30
0.0
 11
431.0198574432072
 21
442.2997892416853
 31
0.0
  0
LINE
  5
3462
330
18
100
AcDbEntity
  8
0
100
AcDbLine
 10
421.0268989983692
 20
426.5988273473619
 30
0.0
 11
421.0268989983692
 21
442.2997892416853
 31
0.0
  0
ARC
  5
3463
330
18
100
AcDbEntity
  8
0
100
AcDbCircle
 10
443.7768989983692
 20
449.4438196646735
 30
0.0
 40
24.14403042298818
100
AcDbArc
 50
245.5506033676958
 51
294.4493966323041
  0
LINE
  5
3464
330
18
100
AcDbEntity
  8
0
100
AcDbLine
 10
431.0198574432072
 20
427.4648527511465
 30
0.0
 11
433.7839405535312
 21
427.4648527511465
 31
0.0
  0
LINE
  5
3465
330
18
100
AcDbEntity
  8
0
100
AcDbLine
 10
423.2768989983692
 20
425.2997892416853
 30
0.0
 11
421.0268989983692
 21
426.5988273473619
 31
0.0
  0
ARC
  5
3466
330
18
100
AcDbEntity
  8
0
100
AcDbCircle
 10
426.0233782207883
 20
432.1476956634803
 30
0.0
 40
6.847906421794997
100
AcDbArc
 50
223.1441105637501
 51
316.8558894362501
  0
LINE
  5
3467
330
18
100
AcDbEntity
  8
0
100
AcDbLine
 10
453.7698574432072
 20
483.1347257322242
 30
0.0
 11
453.7698574432072
 21
469.7997892416854
 31
0.0
  0
LINE
  5
3468
330
18
100
AcDbEntity
  8
0
100
AcDbLine
 10
433.7839405535312
 20
483.1347257322242
 30
0.0
 11
433.7839405535312
 21
469.7997892416854
 31
0.0
  0
LINE
  5
3469
330
18
100
AcDbEntity
  8
0
100
AcDbLine
 10
431.0198574432072
 20
483.1347257322242
 30
0.0
 11
431.0198574432072
 21
469.7997892416854
 31
0.0
  0
LINE
  5
346A
330
18
100
AcDbEntity
  8
0
100
AcDbLine
 10
421.0268989983692
 20
484.0007511360085
 30
0.0
 11
421.0268989983692
 21
469.7997892416854
 31
0.0
  0
LINE
  5
346B
330
18
100
AcDbEntity
  8
0
100
AcDbLine
 10
419.7768989983692
 20
453.2997892416854
 30
0.0
 11
419.7768989983692
 21
469.7997892416854
 31
0.0
  0
LINE
  5
346C
330
18
100
AcDbEntity
  8
0
100
AcDbLine
 10
418.7768989983692
 20
442.2997892416853
 30
0.0
 11
418.7768989983692
 21
453.2997892416854
 31
0.0
  0
ARC
  5
346D
330
18
100
AcDbEntity
  8
0
100
AcDbCircle
 10
443.7768989983692
 20
461.1557588186972
 30
0.0
 40
24.14403042298818
100
AcDbArc
 50
65.5506033676939
 51
114.4493966323061
  0
LINE
  5
346E
330
18
100
AcDbEntity
  8
0
100
AcDbLine
 10
443.7768989983692
 20
485.2997892416854
 30
0.0
 11
423.2768989983692
 21
485.2997892416854
 31
0.0
  0
LINE
  5
346F
330
18
100
AcDbEntity
  8
0
100
AcDbLine
 10
431.0198574432072
 20
483.1347257322242
 30
0.0
 11
433.7839405535312
 21
483.1347257322242
 31
0.0
  0
ARC
  5
3470
330
18
100
AcDbEntity
  8
0
100
AcDbCircle
 10
426.0233782207881
 20
478.4518828198904
 30
0.0
 40
6.847906421794997
100
AcDbArc
 50
43.14411056374982
 51
136.8558894362499
  0
LINE
  5
3471
330
18
100
AcDbEntity
  8
0
100
AcDbLine
 10
423.2768989983692
 20
485.2997892416854
 30
0.0
 11
421.0268989983692
 21
484.0007511360085
 31
0.0
  0
LINE
  5
3472
330
18
100
AcDbEntity
  8
0
100
AcDbLine
 10
456.5339405535312
 20
427.4648527511465
 30
0.0
 11
456.5339405535312
 21
442.2997892416853
 31
0.0
  0
LINE
  5
3473
330
18
100
AcDbEntity
  8
0
100
AcDbLine
 10
466.5268989983692
 20
426.5988273473619
 30
0.0
 11
466.5268989983692
 21
442.2997892416853
 31
0.0
  0
LINE
  5
3474
330
18
100
AcDbEntity
  8
0
100
AcDbLine
 10
464.2768989983692
 20
425.2997892416853
 30
0.0
 11
466.5268989983692
 21
426.5988273473619
 31
0.0
  0
ARC
  5
3475
330
18
100
AcDbEntity
  8
0
100
AcDbCircle
 10
461.5304197759503
 20
432.1476956634803
 30
0.0
 40
6.847906421794997
100
AcDbArc
 50
223.1441105637498
 51
316.8558894362498
  0
LINE
  5
3476
330
18
100
AcDbEntity
  8
0
100
AcDbLine
 10
466.5268989983692
 20
484.0007511360085
 30
0.0
 11
466.5268989983692
 21
469.7997892416854
 31
0.0
  0
LINE
  5
3477
330
18
100
AcDbEntity
  8
0
100
AcDbLine
 10
456.533940553531
 20
483.1347257322242
 30
0.0
 11
456.533940553531
 21
469.7997892416854
 31
0.0
  0
LINE
  5
3478
330
18
100
AcDbEntity
  8
0
100
AcDbLine
 10
467.7768989983692
 20
453.2997892416854
 30
0.0
 11
467.7768989983692
 21
469.7997892416854
 31
0.0
  0
LINE
  5
3479
330
18
100
AcDbEntity
  8
0
100
AcDbLine
 10
468.7768989983692
 20
442.2997892416853
 30
0.0
 11
468.7768989983692
 21
453.2997892416854
 31
0.0
  0
ARC
  5
347A
330
18
100
AcDbEntity
  8
0
100
AcDbCircle
 10
461.5304197759501
 20
478.4518828198904
 30
0.0
 40
6.847906421794997
100
AcDbArc
 50
43.14411056375014
 51
136.85588943625
  0
LINE
  5
347B
330
18
100
AcDbEntity
  8
0
100
AcDbLine
 10
464.2768989983692
 20
485.2997892416854
 30
0.0
 11
466.5268989983692
 21
484.0007511360085
 31
0.0
  0
LINE
  5
3558
330
18
100
AcDbEntity
  8
0
100
AcDbLine
 10
670.6566606637458
 20
257.05988513314
 30
0.0
 11
670.6566606637458
 21
235.0598851331401
 31
0.0
  0
LINE
  5
3559
330
18
100
AcDbEntity
  8
0
100
AcDbLine
 10
624.6566606637458
 20
257.05988513314
 30
0.0
 11
624.6566606637458
 21
235.05988513314
 31
0.0
  0
LINE
  5
355A
330
18
100
AcDbEntity
  8
0
100
AcDbLine
 10
625.1566606637459
 20
234.55988513314
 30
0.0
 11
624.6566606637458
 21
235.05988513314
 31
0.0
  0
LINE
  5
355B
330
18
100
AcDbEntity
  8
0
100
AcDbLine
 10
624.1566606637459
 20
229.55988513314
 30
0.0
 11
671.1566606637459
 21
229.55988513314
 31
0.0
  0
LINE
  5
355C
330
18
100
AcDbEntity
  8
0
100
AcDbLine
 10
624.6566606637458
 20
234.55988513314
 30
0.0
 11
670.6566606637458
 21
234.55988513314
 31
0.0
  0
LINE
  5
355D
330
18
100
AcDbEntity
  8
0
100
AcDbLine
 10
624.1566606637459
 20
229.55988513314
 30
0.0
 11
624.1566606637459
 21
234.05988513314
 31
0.0
  0
LINE
  5
355E
330
18
100
AcDbEntity
  8
0
100
AcDbLine
 10
624.6566606637458
 20
234.55988513314
 30
0.0
 11
624.1566606637459
 21
234.05988513314
 31
0.0
  0
LINE
  5
355F
330
18
100
AcDbEntity
  8
0
100
AcDbLine
 10
646.5690364901988
 20
216.4259105369244
 30
0.0
 11
646.5690364901988
 21
229.55988513314
 31
0.0
  0
LINE
  5
3560
330
18
100
AcDbEntity
  8
0
100
AcDbLine
 10
646.569036490199
 20
216.4259105369245
 30
0.0
 11
646.5690364901989
 21
229.55988513314
 31
0.0
  0
LINE
  5
3561
330
18
100
AcDbEntity
  8
0
100
AcDbLine
 10
635.244284837293
 20
216.4259105369243
 30
0.0
 11
635.2442848372926
 21
229.55988513314
 31
0.0
  0
LINE
  5
3562
330
18
100
AcDbEntity
  8
0
100
AcDbLine
 10
634.1566606637459
 20
216.4259105369243
 30
0.0
 11
634.1566606637459
 21
229.55988513314
 31
0.0
  0
LINE
  5
3563
330
18
100
AcDbEntity
  8
0
100
AcDbLine
 10
648.7442848372928
 20
216.4259105369245
 30
0.0
 11
648.7442848372928
 21
229.55988513314
 31
0.0
  0
LINE
  5
3564
330
18
100
AcDbEntity
  8
0
100
AcDbLine
 10
661.1566606637457
 20
216.4259105369243
 30
0.0
 11
661.1566606637457
 21
229.55988513314
 31
0.0
  0
LINE
  5
3565
330
18
100
AcDbEntity
  8
0
100
AcDbLine
 10
660.0690364901988
 20
216.4259105369243
 30
0.0
 11
660.0690364901991
 21
229.55988513314
 31
0.0
  0
LINE
  5
3566
330
18
100
AcDbEntity
  8
0
100
AcDbLine
 10
648.7442848372929
 20
216.4259105369244
 30
0.0
 11
648.7442848372929
 21
229.55988513314
 31
0.0
  0
ARC
  5
3567
330
18
100
AcDbEntity
  8
0
100
AcDbCircle
 10
640.906660663746
 20
234.5041908409233
 30
0.0
 40
18.94430570778333
100
AcDbArc
 50
252.6086979539712
 51
287.3913020460284
  0
LINE
  5
3568
330
18
100
AcDbEntity
  8
0
100
AcDbLine
 10
635.6566606637457
 20
215.5598851331399
 30
0.0
 11
659.6566606637461
 21
215.55988513314
 31
0.0
  0
LINE
  5
3569
330
18
100
AcDbEntity
  8
0
100
AcDbLine
 10
634.1566606637459
 20
216.4259105369243
 30
0.0
 11
635.244284837293
 21
216.4259105369243
 31
0.0
  0
LINE
  5
356A
330
18
100
AcDbEntity
  8
0
100
AcDbLine
 10
635.6566606637457
 20
215.5598851331399
 30
0.0
 11
634.1566606637456
 21
216.4259105369244
 31
0.0
  0
ARC
  5
356B
330
18
100
AcDbEntity
  8
0
100
AcDbCircle
 10
654.4066606637457
 20
234.5041908409233
 30
0.0
 40
18.94430570778333
100
AcDbArc
 50
252.6086979539716
 51
287.3913020460287
  0
LINE
  5
356C
330
18
100
AcDbEntity
  8
0
100
AcDbLine
 10
659.6566606637461
 20
215.55988513314
 30
0.0
 11
661.1566606637461
 21
216.4259105369244
 31
0.0
  0
LINE
  5
356D
330
18
100
AcDbEntity
  8
0
100
AcDbLine
 10
661.1566606637457
 20
216.4259105369243
 30
0.0
 11
660.0690364901988
 21
216.4259105369243
 31
0.0
  0
LINE
  5
356E
330
18
100
AcDbEntity
  8
0
100
AcDbLine
 10
648.7442848372928
 20
216.4259105369245
 30
0.0
 11
646.5690364901988
 21
216.4259105369244
 31
0.0
  0
LINE
  5
356F
330
18
100
AcDbEntity
  8
0
100
AcDbLine
 10
646.569036490199
 20
216.4259105369245
 30
0.0
 11
648.7442848372929
 21
216.4259105369244
 31
0.0
  0
LINE
  5
3570
330
18
100
AcDbEntity
  8
0
100
AcDbLine
 10
670.6566606637458
 20
234.55988513314
 30
0.0
 11
671.1566606637459
 21
234.05988513314
 31
0.0
  0
LINE
  5
3571
330
18
100
AcDbEntity
  8
0
100
AcDbLine
 10
671.1566606637459
 20
229.55988513314
 30
0.0
 11
671.1566606637459
 21
234.05988513314
 31
0.0
  0
LINE
  5
3572
330
18
100
AcDbEntity
  8
0
100
AcDbLine
 10
670.1566606637459
 20
234.55988513314
 30
0.0
 11
670.6566606637458
 21
235.05988513314
 31
0.0
  0
LINE
  5
3573
330
18
100
AcDbEntity
  8
0
100
AcDbLine
 10
624.6566606637458
 20
257.05988513314
 30
0.0
 11
670.6566606637458
 21
257.05988513314
 31
0.0
  0
LINE
  5
3574
330
18
100
AcDbEntity
  8
0
100
AcDbLine
 10
635.6566606637457
 20
271.05988513314
 30
0.0
 11
634.1566606637456
 21
270.1938597293554
 31
0.0
  0
ARC
  5
3575
330
18
100
AcDbEntity
  8
0
100
AcDbCircle
 10
640.906660663746
 20
252.1155794253567
 30
0.0
 40
18.94430570778333
100
AcDbArc
 50
72.6086979539716
 51
107.3913020460287
  0
LINE
  5
3576
330
18
100
AcDbEntity
  8
0
100
AcDbLine
 10
659.6566606637461
 20
271.05988513314
 30
0.0
 11
661.1566606637461
 21
270.1938597293554
 31
0.0
  0
ARC
  5
3577
330
18
100
AcDbEntity
  8
0
100
AcDbCircle
 10
654.4066606637457
 20
252.1155794253567
 30
0.0
 40
18.94430570778333
100
AcDbArc
 50
72.60869795397124
 51
107.3913020460284
  0
LINE
  5
3578
330
18
100
AcDbEntity
  8
0
100
AcDbLine
 10
634.1566606637459
 20
270.1938597293557
 30
0.0
 11
635.244284837293
 21
270.1938597293557
 31
0.0
  0
LINE
  5
3579
330
18
100
AcDbEntity
  8
0
100
AcDbLine
 10
634.1566606637459
 20
270.1938597293557
 30
0.0
 11
634.1566606637459
 21
257.05988513314
 31
0.0
  0
LINE
  5
357A
330
18
100
AcDbEntity
  8
0
100
AcDbLine
 10
635.244284837293
 20
270.1938597293557
 30
0.0
 11
635.2442848372926
 21
257.05988513314
 31
0.0
  0
LINE
  5
357B
330
18
100
AcDbEntity
  8
0
100
AcDbLine
 10
646.569036490199
 20
270.1938597293554
 30
0.0
 11
646.5690364901989
 21
257.05988513314
 31
0.0
  0
LINE
  5
357C
330
18
100
AcDbEntity
  8
0
100
AcDbLine
 10
646.5690364901988
 20
270.1938597293554
 30
0.0
 11
646.5690364901988
 21
257.05988513314
 31
0.0
  0
LINE
  5
357D
330
18
100
AcDbEntity
  8
0
100
AcDbLine
 10
661.1566606637457
 20
270.1938597293557
 30
0.0
 11
660.0690364901988
 21
270.1938597293557
 31
0.0
  0
LINE
  5
357E
330
18
100
AcDbEntity
  8
0
100
AcDbLine
 10
660.0690364901988
 20
270.1938597293557
 30
0.0
 11
660.0690364901991
 21
257.05988513314
 31
0.0
  0
LINE
  5
357F
330
18
100
AcDbEntity
  8
0
100
AcDbLine
 10
661.1566606637457
 20
270.1938597293557
 30
0.0
 11
661.1566606637457
 21
257.05988513314
 31
0.0
  0
LINE
  5
3580
330
18
100
AcDbEntity
  8
0
100
AcDbLine
 10
648.7442848372929
 20
270.1938597293554
 30
0.0
 11
648.7442848372929
 21
257.05988513314
 31
0.0
  0
LINE
  5
3581
330
18
100
AcDbEntity
  8
0
100
AcDbLine
 10
648.7442848372928
 20
270.1938597293554
 30
0.0
 11
648.7442848372928
 21
257.05988513314
 31
0.0
  0
LINE
  5
3582
330
18
100
AcDbEntity
  8
0
100
AcDbLine
 10
646.569036490199
 20
270.1938597293554
 30
0.0
 11
648.7442848372929
 21
270.1938597293554
 31
0.0
  0
LINE
  5
3583
330
18
100
AcDbEntity
  8
0
100
AcDbLine
 10
648.7442848372928
 20
270.1938597293554
 30
0.0
 11
646.5690364901988
 21
270.1938597293554
 31
0.0
  0
LINE
  5
3584
330
18
100
AcDbEntity
  8
0
100
AcDbLine
 10
635.6566606637457
 20
271.05988513314
 30
0.0
 11
659.6566606637461
 21
271.05988513314
 31
0.0
  0
LINE
  5
3585
330
18
100
AcDbEntity
  8
0
100
AcDbLine
 10
733.413403448289
 20
254.9439008158179
 30
0.0
 11
733.413403448289
 21
234.9439008158178
 31
0.0
  0
LINE
  5
3586
330
18
100
AcDbEntity
  8
0
100
AcDbLine
 10
739.413403448289
 20
256.9439008158179
 30
0.0
 11
739.413403448289
 21
234.9439008158179
 31
0.0
  0
LINE
  5
3587
330
18
100
AcDbEntity
  8
0
100
AcDbLine
 10
699.413403448289
 20
254.9439008158179
 30
0.0
 11
699.413403448289
 21
234.9439008158179
 31
0.0
  0
LINE
  5
3588
330
18
100
AcDbEntity
  8
0
100
AcDbLine
 10
693.413403448289
 20
256.9439008158179
 30
0.0
 11
693.413403448289
 21
234.9439008158181
 31
0.0
  0
LINE
  5
3589
330
18
100
AcDbEntity
  8
0
100
AcDbLine
 10
733.413403448289
 20
234.9439008158178
 30
0.0
 11
699.413403448289
 21
234.9439008158179
 31
0.0
  0
LINE
  5
358A
330
18
100
AcDbEntity
  8
0
100
AcDbLine
 10
739.913403448289
 20
229.443900815818
 30
0.0
 11
692.913403448289
 21
229.443900815818
 31
0.0
  0
LINE
  5
358B
330
18
100
AcDbEntity
  8
0
100
AcDbLine
 10
739.413403448289
 20
234.4439008158179
 30
0.0
 11
693.413403448289
 21
234.4439008158179
 31
0.0
  0
ARC
  5
358C
330
18
100
AcDbEntity
  8
0
100
AcDbCircle
 10
716.413403448289
 20
241.1584154678014
 30
0.0
 40
25.71451465198336
100
AcDbArc
 50
255.0878507761322
 51
284.9121492238677
  0
LINE
  5
358D
330
18
100
AcDbEntity
  8
0
100
AcDbLine
 10
729.913403448289
 20
215.4439008158179
 30
0.0
 11
702.913403448289
 21
215.4439008158179
 31
0.0
  0
LINE
  5
358E
330
18
100
AcDbEntity
  8
0
100
AcDbLine
 10
709.7960893504687
 20
216.3099262196025
 30
0.0
 11
709.7960893504687
 21
229.443900815818
 31
0.0
  0
LINE
  5
358F
330
18
100
AcDbEntity
  8
0
100
AcDbLine
 10
701.413403448289
 20
229.443900815818
 30
0.0
 11
701.413403448289
 21
216.3099262196025
 31
0.0
  0
LINE
  5
3590
330
18
100
AcDbEntity
  8
0
100
AcDbLine
 10
708.0307175461091
 20
216.3099262196025
 30
0.0
 11
708.0307175461091
 21
229.443900815818
 31
0.0
  0
LINE
  5
3591
330
18
100
AcDbEntity
  8
0
100
AcDbLine
 10
702.913403448289
 20
215.4439008158179
 30
0.0
 11
701.413403448289
 21
216.3099262196025
 31
0.0
  0
ARC
  5
3592
330
18
100
AcDbEntity
  8
0
100
AcDbCircle
 10
704.722060497199
 20
222.1972890052331
 30
0.0
 40
6.753388189414994
100
AcDbArc
 50
240.6643153306914
 51
299.3356846693084
  0
LINE
  5
3593
330
18
100
AcDbEntity
  8
0
100
AcDbLine
 10
708.0307175461091
 20
216.3099262196025
 30
0.0
 11
709.7960893504687
 21
216.3099262196025
 31
0.0
  0
LINE
  5
3594
330
18
100
AcDbEntity
  8
0
100
AcDbLine
 10
693.413403448289
 20
234.4439008158179
 30
0.0
 11
692.913403448289
 21
233.9439008158179
 31
0.0
  0
LINE
  5
3595
330
18
100
AcDbEntity
  8
0
100
AcDbLine
 10
692.913403448289
 20
229.443900815818
 30
0.0
 11
692.913403448289
 21
233.9439008158179
 31
0.0
  0
LINE
  5
3596
330
18
100
AcDbEntity
  8
0
100
AcDbLine
 10
693.913403448289
 20
234.4439008158179
 30
0.0
 11
693.413403448289
 21
234.9439008158179
 31
0.0
  0
LINE
  5
3597
330
18
100
AcDbEntity
  8
0
100
AcDbLine
 10
731.413403448289
 20
229.443900815818
 30
0.0
 11
731.413403448289
 21
216.3099262196025
 31
0.0
  0
LINE
  5
3598
330
18
100
AcDbEntity
  8
0
100
AcDbLine
 10
724.7960893504687
 20
216.3099262196025
 30
0.0
 11
724.7960893504687
 21
229.443900815818
 31
0.0
  0
LINE
  5
3599
330
18
100
AcDbEntity
  8
0
100
AcDbLine
 10
723.0307175461091
 20
216.3099262196025
 30
0.0
 11
723.0307175461091
 21
229.443900815818
 31
0.0
  0
LINE
  5
359A
330
18
100
AcDbEntity
  8
0
100
AcDbLine
 10
729.913403448289
 20
215.4439008158179
 30
0.0
 11
731.413403448289
 21
216.3099262196025
 31
0.0
  0
ARC
  5
359B
330
18
100
AcDbEntity
  8
0
100
AcDbCircle
 10
728.1047463993789
 20
222.1972890052331
 30
0.0
 40
6.753388189414994
100
AcDbArc
 50
240.6643153306914
 51
299.3356846693085
  0
LINE
  5
359C
330
18
100
AcDbEntity
  8
0
100
AcDbLine
 10
723.0307175461091
 20
216.3099262196025
 30
0.0
 11
724.7960893504687
 21
216.3099262196025
 31
0.0
  0
LINE
  5
359D
330
18
100
AcDbEntity
  8
0
100
AcDbLine
 10
739.413403448289
 20
234.4439008158179
 30
0.0
 11
739.913403448289
 21
233.9439008158179
 31
0.0
  0
LINE
  5
359E
330
18
100
AcDbEntity
  8
0
100
AcDbLine
 10
739.913403448289
 20
229.443900815818
 30
0.0
 11
739.913403448289
 21
233.9439008158179
 31
0.0
  0
LINE
  5
359F
330
18
100
AcDbEntity
  8
0
100
AcDbLine
 10
738.913403448289
 20
234.4439008158179
 30
0.0
 11
739.413403448289
 21
234.9439008158179
 31
0.0
  0
LINE
  5
35A0
330
18
100
AcDbEntity
  8
0
100
AcDbLine
 10
729.913403448289
 20
270.943900815818
 30
0.0
 11
731.413403448289
 21
270.0778754120335
 31
0.0
  0
ARC
  5
35A1
330
18
100
AcDbEntity
  8
0
100
AcDbCircle
 10
728.1047463993789
 20
264.190512626403
 30
0.0
 40
6.753388189414994
100
AcDbArc
 50
60.66431533069149
 51
119.3356846693085
  0
ARC
  5
35A2
330
18
100
AcDbEntity
  8
0
100
AcDbCircle
 10
716.413403448289
 20
245.2293861638346
 30
0.0
 40
25.71451465198336
100
AcDbArc
 50
75.08785077613227
 51
104.9121492238677
  0
LINE
  5
35A3
330
18
100
AcDbEntity
  8
0
100
AcDbLine
 10
702.913403448289
 20
270.943900815818
 30
0.0
 11
701.413403448289
 21
270.0778754120335
 31
0.0
  0
ARC
  5
35A4
330
18
100
AcDbEntity
  8
0
100
AcDbCircle
 10
704.722060497199
 20
264.190512626403
 30
0.0
 40
6.753388189414994
100
AcDbArc
 50
60.66431533069152
 51
119.3356846693085
  0
LINE
  5
35A5
330
18
100
AcDbEntity
  8
0
100
AcDbLine
 10
733.413403448289
 20
254.9439008158179
 30
0.0
 11
699.413403448289
 21
254.9439008158178
 31
0.0
  0
LINE
  5
35A6
330
18
100
AcDbEntity
  8
0
100
AcDbLine
 10
739.413403448289
 20
256.9439008158179
 30
0.0
 11
693.413403448289
 21
256.9439008158179
 31
0.0
  0
LINE
  5
35A7
330
18
100
AcDbEntity
  8
0
100
AcDbLine
 10
701.413403448289
 20
256.9439008158179
 30
0.0
 11
701.413403448289
 21
270.0778754120335
 31
0.0
  0
LINE
  5
35A8
330
18
100
AcDbEntity
  8
0
100
AcDbLine
 10
708.0307175461091
 20
270.0778754120335
 30
0.0
 11
709.7960893504687
 21
270.0778754120335
 31
0.0
  0
LINE
  5
35A9
330
18
100
AcDbEntity
  8
0
100
AcDbLine
 10
708.0307175461091
 20
270.0778754120335
 30
0.0
 11
708.0307175461091
 21
256.9439008158179
 31
0.0
  0
LINE
  5
35AA
330
18
100
AcDbEntity
  8
0
100
AcDbLine
 10
709.7960893504687
 20
270.0778754120335
 30
0.0
 11
709.7960893504687
 21
256.9439008158179
 31
0.0
  0
LINE
  5
35AB
330
18
100
AcDbEntity
  8
0
100
AcDbLine
 10
723.0307175461091
 20
270.0778754120335
 30
0.0
 11
724.7960893504687
 21
270.0778754120335
 31
0.0
  0
LINE
  5
35AC
330
18
100
AcDbEntity
  8
0
100
AcDbLine
 10
731.413403448289
 20
256.9439008158179
 30
0.0
 11
731.413403448289
 21
270.0778754120335
 31
0.0
  0
LINE
  5
35AD
330
18
100
AcDbEntity
  8
0
100
AcDbLine
 10
723.0307175461091
 20
270.0778754120335
 30
0.0
 11
723.0307175461091
 21
256.9439008158179
 31
0.0
  0
LINE
  5
35AE
330
18
100
AcDbEntity
  8
0
100
AcDbLine
 10
724.7960893504687
 20
270.0778754120335
 30
0.0
 11
724.7960893504687
 21
256.9439008158179
 31
0.0
  0
LINE
  5
35AF
330
18
100
AcDbEntity
  8
0
100
AcDbLine
 10
729.913403448289
 20
270.943900815818
 30
0.0
 11
716.413403448289
 21
270.943900815818
 31
0.0
  0
LINE
  5
35B0
330
18
100
AcDbEntity
  8
0
100
AcDbLine
 10
716.413403448289
 20
270.943900815818
 30
0.0
 11
702.913403448289
 21
270.943900815818
 31
0.0
  0
LINE
  5
35B1
330
18
100
AcDbEntity
  8
0
100
AcDbLine
 10
762.1701462328322
 20
257.05988513314
 30
0.0
 11
762.1701462328322
 21
235.0598851331401
 31
0.0
  0
LINE
  5
35B2
330
18
100
AcDbEntity
  8
0
100
AcDbLine
 10
808.1701462328322
 20
257.05988513314
 30
0.0
 11
808.1701462328322
 21
235.05988513314
 31
0.0
  0
LINE
  5
35B3
330
18
100
AcDbEntity
  8
0
100
AcDbLine
 10
808.6701462328321
 20
229.55988513314
 30
0.0
 11
761.6701462328322
 21
229.55988513314
 31
0.0
  0
LINE
  5
35B4
330
18
100
AcDbEntity
  8
0
100
AcDbLine
 10
808.1701462328322
 20
234.55988513314
 30
0.0
 11
762.1701462328322
 21
234.55988513314
 31
0.0
  0
ARC
  5
35B5
330
18
100
AcDbEntity
  8
0
100
AcDbCircle
 10
778.4201462328324
 20
234.5041908409233
 30
0.0
 40
18.94430570778333
100
AcDbArc
 50
252.6086979539712
 51
287.3913020460284
  0
LINE
  5
35B6
330
18
100
AcDbEntity
  8
0
100
AcDbLine
 10
797.1701462328324
 20
215.5598851331399
 30
0.0
 11
773.1701462328319
 21
215.55988513314
 31
0.0
  0
LINE
  5
35B7
330
18
100
AcDbEntity
  8
0
100
AcDbLine
 10
772.7577704063792
 20
216.4259105369243
 30
0.0
 11
772.757770406379
 21
229.55988513314
 31
0.0
  0
LINE
  5
35B8
330
18
100
AcDbEntity
  8
0
100
AcDbLine
 10
771.6701462328324
 20
216.4259105369243
 30
0.0
 11
771.6701462328324
 21
229.55988513314
 31
0.0
  0
LINE
  5
35B9
330
18
100
AcDbEntity
  8
0
100
AcDbLine
 10
771.6701462328324
 20
216.4259105369243
 30
0.0
 11
772.7577704063792
 21
216.4259105369243
 31
0.0
  0
LINE
  5
35BA
330
18
100
AcDbEntity
  8
0
100
AcDbLine
 10
773.1701462328319
 20
215.55988513314
 30
0.0
 11
771.6701462328319
 21
216.4259105369244
 31
0.0
  0
LINE
  5
35BB
330
18
100
AcDbEntity
  8
0
100
AcDbLine
 10
762.6701462328322
 20
234.55988513314
 30
0.0
 11
762.1701462328322
 21
235.05988513314
 31
0.0
  0
LINE
  5
35BC
330
18
100
AcDbEntity
  8
0
100
AcDbLine
 10
761.6701462328322
 20
229.55988513314
 30
0.0
 11
761.6701462328322
 21
234.05988513314
 31
0.0
  0
LINE
  5
35BD
330
18
100
AcDbEntity
  8
0
100
AcDbLine
 10
762.1701462328322
 20
234.55988513314
 30
0.0
 11
761.6701462328322
 21
234.05988513314
 31
0.0
  0
LINE
  5
35BE
330
18
100
AcDbEntity
  8
0
100
AcDbLine
 10
786.257770406379
 20
216.4259105369245
 30
0.0
 11
786.257770406379
 21
229.55988513314
 31
0.0
  0
LINE
  5
35BF
330
18
100
AcDbEntity
  8
0
100
AcDbLine
 10
784.0825220592851
 20
216.4259105369244
 30
0.0
 11
784.0825220592851
 21
229.55988513314
 31
0.0
  0
LINE
  5
35C0
330
18
100
AcDbEntity
  8
0
100
AcDbLine
 10
798.6701462328321
 20
216.4259105369243
 30
0.0
 11
798.6701462328321
 21
229.55988513314
 31
0.0
  0
LINE
  5
35C1
330
18
100
AcDbEntity
  8
0
100
AcDbLine
 10
797.5825220592851
 20
216.4259105369243
 30
0.0
 11
797.5825220592853
 21
229.55988513314
 31
0.0
  0
LINE
  5
35C2
330
18
100
AcDbEntity
  8
0
100
AcDbLine
 10
786.2577704063794
 20
216.4259105369244
 30
0.0
 11
786.2577704063794
 21
229.55988513314
 31
0.0
  0
LINE
  5
35C3
330
18
100
AcDbEntity
  8
0
100
AcDbLine
 10
784.0825220592853
 20
216.4259105369245
 30
0.0
 11
784.0825220592853
 21
229.55988513314
 31
0.0
  0
LINE
  5
35C4
330
18
100
AcDbEntity
  8
0
100
AcDbLine
 10
797.1701462328324
 20
215.5598851331399
 30
0.0
 11
798.6701462328326
 21
216.4259105369244
 31
0.0
  0
LINE
  5
35C5
330
18
100
AcDbEntity
  8
0
100
AcDbLine
 10
798.6701462328321
 20
216.4259105369243
 30
0.0
 11
797.5825220592851
 21
216.4259105369243
 31
0.0
  0
LINE
  5
35C6
330
18
100
AcDbEntity
  8
0
100
AcDbLine
 10
786.257770406379
 20
216.4259105369245
 30
0.0
 11
784.0825220592851
 21
216.4259105369244
 31
0.0
  0
LINE
  5
35C7
330
18
100
AcDbEntity
  8
0
100
AcDbLine
 10
784.0825220592853
 20
216.4259105369245
 30
0.0
 11
786.2577704063794
 21
216.4259105369244
 31
0.0
  0
ARC
  5
35C8
330
18
100
AcDbEntity
  8
0
100
AcDbCircle
 10
791.9201462328321
 20
234.5041908409233
 30
0.0
 40
18.94430570778333
100
AcDbArc
 50
252.6086979539716
 51
287.3913020460287
  0
LINE
  5
35C9
330
18
100
AcDbEntity
  8
0
100
AcDbLine
 10
807.6701462328321
 20
234.55988513314
 30
0.0
 11
808.1701462328322
 21
235.05988513314
 31
0.0
  0
LINE
  5
35CA
330
18
100
AcDbEntity
  8
0
100
AcDbLine
 10
808.6701462328321
 20
229.55988513314
 30
0.0
 11
808.6701462328321
 21
234.05988513314
 31
0.0
  0
LINE
  5
35CB
330
18
100
AcDbEntity
  8
0
100
AcDbLine
 10
808.1701462328322
 20
234.55988513314
 30
0.0
 11
808.6701462328321
 21
234.05988513314
 31
0.0
  0
LINE
  5
35CC
330
18
100
AcDbEntity
  8
0
100
AcDbLine
 10
797.1701462328324
 20
271.05988513314
 30
0.0
 11
798.6701462328326
 21
270.1938597293554
 31
0.0
  0
ARC
  5
35CD
330
18
100
AcDbEntity
  8
0
100
AcDbCircle
 10
778.4201462328324
 20
252.1155794253567
 30
0.0
 40
18.94430570778333
100
AcDbArc
 50
72.6086979539716
 51
107.3913020460287
  0
LINE
  5
35CE
330
18
100
AcDbEntity
  8
0
100
AcDbLine
 10
773.1701462328319
 20
271.05988513314
 30
0.0
 11
771.6701462328319
 21
270.1938597293554
 31
0.0
  0
ARC
  5
35CF
330
18
100
AcDbEntity
  8
0
100
AcDbCircle
 10
791.9201462328321
 20
252.1155794253567
 30
0.0
 40
18.94430570778333
100
AcDbArc
 50
72.60869795397124
 51
107.3913020460284
  0
LINE
  5
35D0
330
18
100
AcDbEntity
  8
0
100
AcDbLine
 10
808.1701462328322
 20
257.05988513314
 30
0.0
 11
762.1701462328322
 21
257.05988513314
 31
0.0
  0
LINE
  5
35D1
330
18
100
AcDbEntity
  8
0
100
AcDbLine
 10
771.6701462328324
 20
270.1938597293557
 30
0.0
 11
772.7577704063792
 21
270.1938597293557
 31
0.0
  0
LINE
  5
35D2
330
18
100
AcDbEntity
  8
0
100
AcDbLine
 10
771.6701462328324
 20
270.1938597293557
 30
0.0
 11
771.6701462328324
 21
257.05988513314
 31
0.0
  0
LINE
  5
35D3
330
18
100
AcDbEntity
  8
0
100
AcDbLine
 10
772.7577704063792
 20
270.1938597293557
 30
0.0
 11
772.757770406379
 21
257.05988513314
 31
0.0
  0
LINE
  5
35D4
330
18
100
AcDbEntity
  8
0
100
AcDbLine
 10
797.5825220592851
 20
270.1938597293557
 30
0.0
 11
797.5825220592853
 21
257.05988513314
 31
0.0
  0
LINE
  5
35D5
330
18
100
AcDbEntity
  8
0
100
AcDbLine
 10
798.6701462328321
 20
270.1938597293557
 30
0.0
 11
798.6701462328321
 21
257.05988513314
 31
0.0
  0
LINE
  5
35D6
330
18
100
AcDbEntity
  8
0
100
AcDbLine
 10
798.6701462328321
 20
270.1938597293557
 30
0.0
 11
797.5825220592851
 21
270.1938597293557
 31
0.0
  0
LINE
  5
35D7
330
18
100
AcDbEntity
  8
0
100
AcDbLine
 10
784.0825220592853
 20
270.1938597293554
 30
0.0
 11
784.0825220592853
 21
257.05988513314
 31
0.0
  0
LINE
  5
35D8
330
18
100
AcDbEntity
  8
0
100
AcDbLine
 10
786.2577704063794
 20
270.1938597293554
 30
0.0
 11
786.2577704063794
 21
257.05988513314
 31
0.0
  0
LINE
  5
35D9
330
18
100
AcDbEntity
  8
0
100
AcDbLine
 10
784.0825220592853
 20
270.1938597293554
 30
0.0
 11
786.2577704063794
 21
270.1938597293554
 31
0.0
  0
LINE
  5
35DA
330
18
100
AcDbEntity
  8
0
100
AcDbLine
 10
784.0825220592851
 20
270.1938597293554
 30
0.0
 11
784.0825220592851
 21
257.05988513314
 31
0.0
  0
LINE
  5
35DB
330
18
100
AcDbEntity
  8
0
100
AcDbLine
 10
786.257770406379
 20
270.1938597293554
 30
0.0
 11
786.257770406379
 21
257.05988513314
 31
0.0
  0
LINE
  5
35DC
330
18
100
AcDbEntity
  8
0
100
AcDbLine
 10
786.257770406379
 20
270.1938597293554
 30
0.0
 11
784.0825220592851
 21
270.1938597293554
 31
0.0
  0
LINE
  5
35DD
330
18
100
AcDbEntity
  8
0
100
AcDbLine
 10
797.1701462328324
 20
271.05988513314
 30
0.0
 11
773.1701462328319
 21
271.05988513314
 31
0.0
  0
ARC
  5
35DE
330
18
100
AcDbEntity
  8
0
100
AcDbCircle
 10
716.413403448289
 20
358.1794254443768
 30
0.0
 40
15.0
100
AcDbArc
 50
175.8419327631671
 51
184.1580672368332
  0
ARC
  5
35DF
330
18
100
AcDbEntity
  8
0
100
AcDbCircle
 10
716.413403448289
 20
358.1794254443768
 30
0.0
 40
15.0
100
AcDbArc
 50
355.8419327631671
 51
4.158067236833362
  0
CIRCLE
  5
35E0
330
18
100
AcDbEntity
  8
0
100
AcDbCircle
 10
716.413403448289
 20
358.1794254443768
 30
0.0
 40
7.474999999999999
  0
CIRCLE
  5
35E1
330
18
100
AcDbEntity
  8
0
100
AcDbCircle
 10
716.413403448289
 20
358.1794254443768
 30
0.0
 40
13.5
  0
CIRCLE
  5
35E2
330
18
100
AcDbEntity
  8
0
100
AcDbCircle
 10
716.413403448289
 20
358.1794254443768
 30
0.0
 40
23.0
  0
POLYLINE
  5
35E3
330
18
100
AcDbEntity
  8
0
100
AcDb2dPolyline
 66
     1
 10
0.0
 20
0.0
 30
0.0
  0
VERTEX
  5
37DB
330
35E3
100
AcDbEntity
  8
0
100
AcDbVertex
100
AcDb2dVertex
 10
709.875055032978
 20
344.6794254443768
 30
0.0
  0
VERTEX
  5
37DC
330
35E3
100
AcDbEntity
  8
0
100
AcDbVertex
100
AcDb2dVertex
 10
722.9517518636001
 20
344.6794254443768
 30
0.0
  0
SEQEND
  5
37DD
330
35E3
100
AcDbEntity
  8
0
  0
POLYLINE
  5
35E4
330
18
100
AcDbEntity
  8
0
100
AcDb2dPolyline
 66
     1
 10
0.0
 20
0.0
 30
0.0
  0
VERTEX
  5
37DE
330
35E4
100
AcDbEntity
  8
0
100
AcDbVertex
100
AcDb2dVertex
 10
701.4528862895436
 20
357.0918012708298
 30
0.0
  0
VERTEX
  5
37DF
330
35E4
100
AcDbEntity
  8
0
100
AcDbVertex
100
AcDb2dVertex
 10
707.9912347048543
 20
345.7670496179238
 30
0.0
  0
SEQEND
  5
37E0
330
35E4
100
AcDbEntity
  8
0
  0
ARC
  5
35E5
330
18
100
AcDbEntity
  8
0
100
AcDbCircle
 10
716.413403448289
 20
358.1794254443768
 30
0.0
 40
15.0
100
AcDbArc
 50
235.8419327631664
 51
244.1580672368393
  0
ARC
  5
35E6
330
18
100
AcDbEntity
  8
0
100
AcDbCircle
 10
716.413403448289
 20
358.1794254443768
 30
0.0
 40
15.0
100
AcDbArc
 50
295.8419327631606
 51
304.1580672368326
  0
POLYLINE
  5
35E7
330
18
100
AcDbEntity
  8
0
100
AcDb2dPolyline
 66
     1
 10
0.0
 20
0.0
 30
0.0
  0
VERTEX
  5
37E1
330
35E7
100
AcDbEntity
  8
0
100
AcDbVertex
100
AcDb2dVertex
 10
724.8355721917232
 20
345.7670496179238
 30
0.0
  0
VERTEX
  5
37E2
330
35E7
100
AcDbEntity
  8
0
100
AcDbVertex
100
AcDb2dVertex
 10
731.3739206070344
 20
357.0918012708299
 30
0.0
  0
SEQEND
  5
37E3
330
35E7
100
AcDbEntity
  8
0
  0
POLYLINE
  5
35E8
330
18
100
AcDbEntity
  8
0
100
AcDb2dPolyline
 66
     1
 10
0.0
 20
0.0
 30
0.0
  0
VERTEX
  5
37E4
330
35E8
100
AcDbEntity
  8
0
100
AcDbVertex
100
AcDb2dVertex
 10
722.9517518636001
 20
371.6794254443768
 30
0.0
  0
VERTEX
  5
37E5
330
35E8
100
AcDbEntity
  8
0
100
AcDbVertex
100
AcDb2dVertex
 10
709.875055032978
 20
371.6794254443768
 30
0.0
  0
SEQEND
  5
37E6
330
35E8
100
AcDbEntity
  8
0
  0
POLYLINE
  5
35E9
330
18
100
AcDbEntity
  8
0
100
AcDb2dPolyline
 66
     1
 10
0.0
 20
0.0
 30
0.0
  0
VERTEX
  5
37E7
330
35E9
100
AcDbEntity
  8
0
100
AcDbVertex
100
AcDb2dVertex
 10
707.9912347048548
 20
370.59180127083
 30
0.0
  0
VERTEX
  5
37E8
330
35E9
100
AcDbEntity
  8
0
100
AcDbVertex
100
AcDb2dVertex
 10
701.4528862895436
 20
359.2670496179238
 30
0.0
  0
SEQEND
  5
37E9
330
35E9
100
AcDbEntity
  8
0
  0
ARC
  5
35EA
330
18
100
AcDbEntity
  8
0
100
AcDbCircle
 10
716.413403448289
 20
358.1794254443768
 30
0.0
 40
15.0
100
AcDbArc
 50
115.8419327631605
 51
124.1580672368323
  0
ARC
  5
35EB
330
18
100
AcDbEntity
  8
0
100
AcDbCircle
 10
716.413403448289
 20
358.1794254443768
 30
0.0
 40
15.0
100
AcDbArc
 50
55.84193276316611
 51
64.15806723683939
  0
POLYLINE
  5
35EC
330
18
100
AcDbEntity
  8
0
100
AcDb2dPolyline
 66
     1
 10
0.0
 20
0.0
 30
0.0
  0
VERTEX
  5
37EA
330
35EC
100
AcDbEntity
  8
0
100
AcDbVertex
100
AcDb2dVertex
 10
731.3739206070344
 20
359.2670496179238
 30
0.0
  0
VERTEX
  5
37EB
330
35EC
100
AcDbEntity
  8
0
100
AcDbVertex
100
AcDb2dVertex
 10
724.8355721917237
 20
370.5918012708297
 30
0.0
  0
SEQEND
  5
37EC
330
35EC
100
AcDbEntity
  8
0
  0
LINE
  5
35ED
330
18
100
AcDbEntity
  8
0
100
AcDbLine
 10
724.7960893504687
 20
426.1658146454698
 30
0.0
 11
724.7960893504687
 21
439.2997892416853
 31
0.0
  0
LINE
  5
35EE
330
18
100
AcDbEntity
  8
0
100
AcDbLine
 10
731.413403448289
 20
439.2997892416853
 30
0.0
 11
731.413403448289
 21
426.1658146454698
 31
0.0
  0
LINE
  5
35EF
330
18
100
AcDbEntity
  8
0
100
AcDbLine
 10
709.7960893504687
 20
426.1658146454698
 30
0.0
 11
709.7960893504687
 21
439.2997892416853
 31
0.0
  0
LINE
  5
35F0
330
18
100
AcDbEntity
  8
0
100
AcDbLine
 10
701.413403448289
 20
439.2997892416853
 30
0.0
 11
701.413403448289
 21
426.1658146454698
 31
0.0
  0
LINE
  5
35F1
330
18
100
AcDbEntity
  8
0
100
AcDbLine
 10
708.0307175461091
 20
426.1658146454698
 30
0.0
 11
708.0307175461091
 21
439.2997892416853
 31
0.0
  0
LINE
  5
35F2
330
18
100
AcDbEntity
  8
0
100
AcDbLine
 10
723.0307175461091
 20
426.1658146454698
 30
0.0
 11
723.0307175461091
 21
439.2997892416853
 31
0.0
  0
ARC
  5
35F3
330
18
100
AcDbEntity
  8
0
100
AcDbCircle
 10
716.413403448289
 20
451.0143038936687
 30
0.0
 40
25.71451465198336
100
AcDbArc
 50
255.0878507761322
 51
284.9121492238677
  0
LINE
  5
35F4
330
18
100
AcDbEntity
  8
0
100
AcDbLine
 10
729.913403448289
 20
425.2997892416853
 30
0.0
 11
702.913403448289
 21
425.2997892416853
 31
0.0
  0
LINE
  5
35F5
330
18
100
AcDbEntity
  8
0
100
AcDbLine
 10
702.913403448289
 20
425.2997892416853
 30
0.0
 11
701.413403448289
 21
426.1658146454698
 31
0.0
  0
ARC
  5
35F6
330
18
100
AcDbEntity
  8
0
100
AcDbCircle
 10
704.722060497199
 20
432.0531774311004
 30
0.0
 40
6.753388189414994
100
AcDbArc
 50
240.6643153306914
 51
299.3356846693084
  0
LINE
  5
35F7
330
18
100
AcDbEntity
  8
0
100
AcDbLine
 10
708.0307175461091
 20
426.1658146454698
 30
0.0
 11
709.7960893504687
 21
426.1658146454698
 31
0.0
  0
ARC
  5
35F8
330
18
100
AcDbEntity
  8
0
100
AcDbCircle
 10
728.1047463993789
 20
432.0531774311004
 30
0.0
 40
6.753388189414994
100
AcDbArc
 50
240.6643153306914
 51
299.3356846693085
  0
LINE
  5
35F9
330
18
100
AcDbEntity
  8
0
100
AcDbLine
 10
729.913403448289
 20
425.2997892416853
 30
0.0
 11
731.413403448289
 21
426.1658146454698
 31
0.0
  0
LINE
  5
35FA
330
18
100
AcDbEntity
  8
0
100
AcDbLine
 10
723.0307175461091
 20
426.1658146454698
 30
0.0
 11
724.7960893504687
 21
426.1658146454698
 31
0.0
  0
LINE
  5
35FB
330
18
100
AcDbEntity
  8
0
100
AcDbLine
 10
739.413403448289
 20
466.7997892416853
 30
0.0
 11
739.413403448289
 21
444.7997892416853
 31
0.0
  0
LINE
  5
35FC
330
18
100
AcDbEntity
  8
0
100
AcDbLine
 10
693.413403448289
 20
466.7997892416853
 30
0.0
 11
693.413403448289
 21
444.7997892416855
 31
0.0
  0
LINE
  5
35FD
330
18
100
AcDbEntity
  8
0
100
AcDbLine
 10
739.913403448289
 20
439.2997892416853
 30
0.0
 11
692.913403448289
 21
439.2997892416853
 31
0.0
  0
LINE
  5
35FE
330
18
100
AcDbEntity
  8
0
100
AcDbLine
 10
739.413403448289
 20
444.2997892416853
 30
0.0
 11
693.413403448289
 21
444.2997892416853
 31
0.0
  0
LINE
  5
35FF
330
18
100
AcDbEntity
  8
0
100
AcDbLine
 10
692.913403448289
 20
439.2997892416853
 30
0.0
 11
692.913403448289
 21
443.7997892416853
 31
0.0
  0
LINE
  5
3600
330
18
100
AcDbEntity
  8
0
100
AcDbLine
 10
693.413403448289
 20
444.2997892416853
 30
0.0
 11
692.913403448289
 21
443.7997892416853
 31
0.0
  0
LINE
  5
3601
330
18
100
AcDbEntity
  8
0
100
AcDbLine
 10
693.913403448289
 20
444.2997892416853
 30
0.0
 11
693.413403448289
 21
444.7997892416853
 31
0.0
  0
LINE
  5
3602
330
18
100
AcDbEntity
  8
0
100
AcDbLine
 10
739.913403448289
 20
439.2997892416853
 30
0.0
 11
739.913403448289
 21
443.7997892416853
 31
0.0
  0
LINE
  5
3603
330
18
100
AcDbEntity
  8
0
100
AcDbLine
 10
739.413403448289
 20
444.2997892416853
 30
0.0
 11
739.913403448289
 21
443.7997892416853
 31
0.0
  0
LINE
  5
3604
330
18
100
AcDbEntity
  8
0
100
AcDbLine
 10
738.913403448289
 20
444.2997892416853
 30
0.0
 11
739.413403448289
 21
444.7997892416853
 31
0.0
  0
ARC
  5
3605
330
18
100
AcDbEntity
  8
0
100
AcDbCircle
 10
716.413403448289
 20
455.085274589702
 30
0.0
 40
25.71451465198336
100
AcDbArc
 50
75.08785077613227
 51
104.9121492238677
  0
LINE
  5
3606
330
18
100
AcDbEntity
  8
0
100
AcDbLine
 10
729.913403448289
 20
480.7997892416853
 30
0.0
 11
716.413403448289
 21
480.7997892416853
 31
0.0
  0
LINE
  5
3607
330
18
100
AcDbEntity
  8
0
100
AcDbLine
 10
739.413403448289
 20
466.7997892416853
 30
0.0
 11
693.413403448289
 21
466.7997892416853
 31
0.0
  0
LINE
  5
3608
330
18
100
AcDbEntity
  8
0
100
AcDbLine
 10
702.913403448289
 20
480.7997892416853
 30
0.0
 11
701.413403448289
 21
479.9337638379009
 31
0.0
  0
ARC
  5
3609
330
18
100
AcDbEntity
  8
0
100
AcDbCircle
 10
704.722060497199
 20
474.0464010522703
 30
0.0
 40
6.753388189414994
100
AcDbArc
 50
60.66431533069152
 51
119.3356846693085
  0
LINE
  5
360A
330
18
100
AcDbEntity
  8
0
100
AcDbLine
 10
701.413403448289
 20
466.7997892416853
 30
0.0
 11
701.413403448289
 21
479.9337638379009
 31
0.0
  0
LINE
  5
360B
330
18
100
AcDbEntity
  8
0
100
AcDbLine
 10
708.0307175461091
 20
479.9337638379009
 30
0.0
 11
709.7960893504687
 21
479.9337638379009
 31
0.0
  0
LINE
  5
360C
330
18
100
AcDbEntity
  8
0
100
AcDbLine
 10
708.0307175461091
 20
479.9337638379009
 30
0.0
 11
708.0307175461091
 21
466.7997892416853
 31
0.0
  0
LINE
  5
360D
330
18
100
AcDbEntity
  8
0
100
AcDbLine
 10
709.7960893504687
 20
479.9337638379009
 30
0.0
 11
709.7960893504687
 21
466.7997892416853
 31
0.0
  0
LINE
  5
360E
330
18
100
AcDbEntity
  8
0
100
AcDbLine
 10
716.413403448289
 20
480.7997892416853
 30
0.0
 11
702.913403448289
 21
480.7997892416853
 31
0.0
  0
ARC
  5
360F
330
18
100
AcDbEntity
  8
0
100
AcDbCircle
 10
728.1047463993789
 20
474.0464010522703
 30
0.0
 40
6.753388189414994
100
AcDbArc
 50
60.66431533069149
 51
119.3356846693085
  0
LINE
  5
3610
330
18
100
AcDbEntity
  8
0
100
AcDbLine
 10
729.913403448289
 20
480.7997892416853
 30
0.0
 11
731.413403448289
 21
479.9337638379009
 31
0.0
  0
LINE
  5
3611
330
18
100
AcDbEntity
  8
0
100
AcDbLine
 10
723.0307175461091
 20
479.9337638379009
 30
0.0
 11
724.7960893504687
 21
479.9337638379009
 31
0.0
  0
LINE
  5
3612
330
18
100
AcDbEntity
  8
0
100
AcDbLine
 10
723.0307175461091
 20
479.9337638379009
 30
0.0
 11
723.0307175461091
 21
466.7997892416853
 31
0.0
  0
LINE
  5
3613
330
18
100
AcDbEntity
  8
0
100
AcDbLine
 10
724.7960893504687
 20
479.9337638379009
 30
0.0
 11
724.7960893504687
 21
466.7997892416853
 31
0.0
  0
LINE
  5
3614
330
18
100
AcDbEntity
  8
0
100
AcDbLine
 10
731.413403448289
 20
466.7997892416853
 30
0.0
 11
731.413403448289
 21
479.9337638379009
 31
0.0
  0
INSERT
  5
3630
330
18
100
AcDbEntity
  8
0
100
AcDbBlockReference
  2
YA
 10
215.7728337855358
 20
275.4439008158179
 30
0.0
 41
0.8568062546856607
 42
0.8568062546856607
 43
0.8568062546856607
 50
270.0
  0
TEXT
  5
3632
330
18
100
AcDbEntity
  8
0
100
AcDbText
 10
191.2014052141072
 20
182.4993849627198
 30
0.0
 40
7.5
  1
8A,10A,15A
 41
0.8
 72
     1
 11
215.7728337855358
 21
186.2493849627199
 31
0.0
100
AcDbText
 73
     2
  0
TEXT
  5
3633
330
18
100
AcDbEntity
  8
0
100
AcDbText
 10
425.4911847126549
 20
182.4993849627199
 30
0.0
 40
7.5
  1
20A,25A
 41
0.8
 72
     1
 11
443.7768989983692
 21
186.24938496272
 31
0.0
100
AcDbText
 73
     2
  0
TEXT
  5
3634
330
18
100
AcDbEntity
  8
0
100
AcDbText
 10
691.8419748768605
 20
182.4993849627198
 30
0.0
 40
7.5
  1
8A,10A,15A
 41
0.8
 72
     1
 11
716.413403448289
 21
186.2493849627198
 31
0.0
100
AcDbText
 73
     2
  0
INSERT
  5
3635
330
18
100
AcDbEntity
  8
0
100
AcDbBlockReference
  2
YA
 10
443.7768989983691
 20
279.9439008158181
 30
0.0
 41
0.8568062546856607
 42
0.8568062546856607
 43
0.8568062546856607
 50
270.0
  0
INSERT
  5
3636
330
18
100
AcDbEntity
  8
0
100
AcDbBlockReference
  2
YA
 10
716.413403448289
 20
275.443900815818
 30
0.0
 41
0.8568062546856607
 42
0.8568062546856607
 43
0.8568062546856607
 50
270.0
  0
TEXT
  5
3678
330
18
100
AcDbEntity
  8
0
100
AcDbText
 10
314.8
 20
56.13884602972792
 30
0.0
 40
10.5
  1
TLV  LV5(C),LV13(C),LV21(C) (PT)
 72
     1
 11
445.5
 21
61.38884602972791
 31
0.0
100
AcDbText
 73
     2
  0
VIEWPORT
  5
41
330
15
100
AcDbEntity
 67
     1
  8
0
100
AcDbViewport
 10
117.358407079646
 20
73.5
 30
0.0
 40
234.716814159292
 41
147.0
 68
     1
 69
     1
1001
ACAD
1000
MVIEW
1002
{
1070
    16
1010
0.0
1020
0.0
1030
0.0
1010
0.0
1020
0.0
1030
1.0
1040
0.0
1040
147.0
1040
117.358407079646
1040
73.5
1040
50.0
1040
0.0
1040
0.0
1070
     0
1070
   100
1070
     1
1070
     1
1070
     0
1070
     0
1070
     0
1070
     0
1040
0.0
1040
0.0
1040
0.0
1040
1.0
1040
1.0
1040
0.0
1040
0.0
1070
     0
1002
{
1002
}
1002
}
  0
ENDSEC
  0
SECTION
  2
OBJECTS
  0
DICTIONARY
  5
C
330
0
100
AcDbDictionary
  3
ACAD_GROUP
350
D
  3
ACAD_LAYOUT
350
373E
  3
ACAD_MLINESTYLE
350
E
  3
ACAD_PLOTSETTINGS
350
373F
1001
ACAD
1000
TREAT_AS_HARD
1070
     0
  0
DICTIONARY
  5
37B0
330
18
100
AcDbDictionary
  3
ACAD_LAYOUTSELFREF
350
37B1
  0
DICTIONARY
  5
37AE
330
15
100
AcDbDictionary
  3
ACAD_LAYOUTSELFREF
350
37AF
  0
DICTIONARY
  5
D
102
{ACAD_REACTORS
330
C
102
}
330
C
100
AcDbDictionary
1001
ACAD
1000
TREAT_AS_HARD
1070
     0
  0
DICTIONARY
  5
373E
102
{ACAD_REACTORS
330
C
102
}
330
C
100
AcDbDictionary
1001
ACAD
1000
TREAT_AS_HARD
1070
     0
  0
DICTIONARY
  5
E
102
{ACAD_REACTORS
330
C
102
}
330
C
100
AcDbDictionary
  3
STANDARD
350
1B
1001
ACAD
1000
TREAT_AS_HARD
1070
     0
  0
DICTIONARY
  5
373F
102
{ACAD_REACTORS
330
C
102
}
330
C
100
AcDbDictionary
1001
ACAD
1000
TREAT_AS_HARD
1070
     0
  0
XRECORD
  5
37B1
102
{ACAD_REACTORS
330
37B0
102
}
330
37B0
100
AcDbXrecord
340
18
  0
XRECORD
  5
37AF
102
{ACAD_REACTORS
330
37AE
102
}
330
37AE
100
AcDbXrecord
340
15
  0
MLINESTYLE
  5
1B
102
{ACAD_REACTORS
330
E
102
}
330
E
100
AcDbMlineStyle
  2
STANDARD
 70
     0
  3

 62
     0
 51
90.0
 52
90.0
 71
     2
 49
0.5
 62
   256
  6
BYLAYER
 49
-0.5
 62
   256
  6
BYLAYER
  0
ENDSEC
  0
EOF
