  0
SECTION
  2
HEADER
  9
$ACADVER
  1
AC1012
  9
$DWGCODEPAGE
  3
dos932
  9
$INSBASE
 10
0.0
 20
0.0
 30
0.0
  9
$EXTMIN
 10
44.0
 20
20.0
 30
0.0
  9
$EXTMAX
 10
1144.0
 20
764.0
 30
0.0
  9
$LIMMIN
 10
0.0
 20
0.0
  9
$LIMMAX
 10
1188.0
 20
840.0
  9
$ORTHOMODE
 70
     1
  9
$REGENMODE
 70
     1
  9
$FILLMODE
 70
     1
  9
$QTEXTMODE
 70
     0
  9
$MIRRTEXT
 70
     1
  9
$DRAGMODE
 70
     2
  9
$LTSCALE
 40
16.0
  9
$OSMODE
 70
   163
  9
$ATTMODE
 70
     1
  9
$TEXTSIZE
 40
16.0
  9
$TRACEWID
 40
0.05
  9
$TEXTSTYLE
  7
STANDARD
  9
$CLAYER
  8
0
  9
$CELTYPE
  6
BYLAYER
  9
$CECOLOR
 62
   256
  9
$CELTSCALE
 40
1.0
  9
$DELOBJ
 70
     1
  9
$DISPSILH
 70
     0
  9
$DIMSCALE
 40
4.0
  9
$DIMASZ
 40
2.8
  9
$DIMEXO
 40
1.0
  9
$DIMDLI
 40
5.0
  9
$DIMRND
 40
0.1
  9
$DIMDLE
 40
0.0
  9
$DIMEXE
 40
1.0
  9
$DIMTP
 40
0.0
  9
$DIMTM
 40
0.0
  9
$DIMTXT
 40
2.5
  9
$DIMCEN
 40
0.0
  9
$DIMTSZ
 40
0.0
  9
$DIMTOL
 70
     0
  9
$DIMLIM
 70
     0
  9
$DIMTIH
 70
     0
  9
$DIMTOH
 70
     0
  9
$DIMSE1
 70
     0
  9
$DIMSE2
 70
     0
  9
$DIMTAD
 70
     3
  9
$DIMZIN
 70
     8
  9
$DIMBLK
  1

  9
$DIMASO
 70
     1
  9
$DIMSHO
 70
     1
  9
$DIMPOST
  1
 
  9
$DIMAPOST
  1

  9
$DIMALT
 70
     0
  9
$DIMALTD
 70
     2
  9
$DIMALTF
 40
1.0
  9
$DIMLFAC
 40
1.0
  9
$DIMTOFL
 70
     1
  9
$DIMTVP
 40
0.0
  9
$DIMTIX
 70
     0
  9
$DIMSOXD
 70
     0
  9
$DIMSAH
 70
     1
  9
$DIMBLK1
  1
_OPEN
  9
$DIMBLK2
  1
_OPEN
  9
$DIMSTYLE
  2
DIM1
  9
$DIMCLRD
 70
     2
  9
$DIMCLRE
 70
     2
  9
$DIMCLRT
 70
     2
  9
$DIMTFAC
 40
0.7
  9
$DIMGAP
 40
0.85
  9
$DIMJUST
 70
     0
  9
$DIMSD1
 70
     0
  9
$DIMSD2
 70
     0
  9
$DIMTOLJ
 70
     1
  9
$DIMTZIN
 70
     8
  9
$DIMALTZ
 70
     8
  9
$DIMALTTZ
 70
     8
  9
$DIMFIT
 70
     0
  9
$DIMUPT
 70
     0
  9
$DIMUNIT
 70
     2
  9
$DIMDEC
 70
     2
  9
$DIMTDEC
 70
     3
  9
$DIMALTU
 70
     2
  9
$DIMALTTD
 70
     3
  9
$DIMTXSTY
  7
DIM
  9
$DIMAUNIT
 70
     0
  9
$LUNITS
 70
     2
  9
$LUPREC
 70
     4
  9
$SKETCHINC
 40
0.1
  9
$FILLETRAD
 40
2.0
  9
$AUNITS
 70
     0
  9
$AUPREC
 70
     0
  9
$MENU
  1
C:\ACADR13\WIN\SUPPORT\ACAD.mnc
  9
$ELEVATION
 40
0.0
  9
$PELEVATION
 40
0.0
  9
$THICKNESS
 40
0.0
  9
$LIMCHECK
 70
     0
  9
$BLIPMODE
 70
     1
  9
$CHAMFERA
 40
0.0
  9
$CHAMFERB
 40
0.0
  9
$CHAMFERC
 40
0.0
  9
$CHAMFERD
 40
0.0
  9
$SKPOLY
 70
     0
  9
$TDCREATE
 40
2451564.587411898
  9
$TDUPDATE
 40
2451982.659089618
  9
$TDINDWG
 40
0.2415527083
  9
$TDUSRTIMER
 40
0.2415527083
  9
$USRTIMER
 70
     1
  9
$ANGBASE
 50
0.0
  9
$ANGDIR
 70
     0
  9
$PDMODE
 70
     0
  9
$PDSIZE
 40
0.0
  9
$PLINEWID
 40
0.0
  9
$COORDS
 70
     1
  9
$SPLFRAME
 70
     0
  9
$SPLINETYPE
 70
     6
  9
$SPLINESEGS
 70
     8
  9
$ATTDIA
 70
     0
  9
$ATTREQ
 70
     1
  9
$HANDLING
 70
     1
  9
$HANDSEED
  5
6DB9
  9
$SURFTAB1
 70
     6
  9
$SURFTAB2
 70
     6
  9
$SURFTYPE
 70
     6
  9
$SURFU
 70
     6
  9
$SURFV
 70
     6
  9
$UCSNAME
  2

  9
$UCSORG
 10
0.0
 20
0.0
 30
0.0
  9
$UCSXDIR
 10
1.0
 20
0.0
 30
0.0
  9
$UCSYDIR
 10
0.0
 20
1.0
 30
0.0
  9
$PUCSNAME
  2

  9
$PUCSORG
 10
0.0
 20
0.0
 30
0.0
  9
$PUCSXDIR
 10
1.0
 20
0.0
 30
0.0
  9
$PUCSYDIR
 10
0.0
 20
1.0
 30
0.0
  9
$USERI1
 70
     0
  9
$USERI2
 70
     0
  9
$USERI3
 70
     0
  9
$USERI4
 70
     0
  9
$USERI5
 70
     0
  9
$USERR1
 40
0.0
  9
$USERR2
 40
0.0
  9
$USERR3
 40
0.0
  9
$USERR4
 40
0.0
  9
$USERR5
 40
0.0
  9
$WORLDVIEW
 70
     1
  9
$SHADEDGE
 70
     3
  9
$SHADEDIF
 70
    70
  9
$TILEMODE
 70
     1
  9
$MAXACTVP
 70
    16
  9
$PINSBASE
 10
0.0
 20
0.0
 30
0.0
  9
$PLIMCHECK
 70
     0
  9
$PEXTMIN
 10
1.000000E+20
 20
1.000000E+20
 30
1.000000E+20
  9
$PEXTMAX
 10
-1.000000E+20
 20
-1.000000E+20
 30
-1.000000E+20
  9
$PLIMMIN
 10
0.0
 20
0.0
  9
$PLIMMAX
 10
20.0
 20
147.0
  9
$UNITMODE
 70
     0
  9
$VISRETAIN
 70
     0
  9
$PLINEGEN
 70
     0
  9
$PSLTSCALE
 70
     1
  9
$TREEDEPTH
 70
  3020
  9
$PICKSTYLE
 70
     1
  9
$CMLSTYLE
  2
STANDARD
  9
$CMLJUST
 70
     0
  9
$CMLSCALE
 40
1.0
  9
$SAVEIMAGES
 70
     1
  0
ENDSEC
  0
SECTION
  2
CLASSES
  0
CLASS
  1
LWPOLYLINE
  2
AcDbPolyline
  3
"AutoCAD"
 90
    32768
280
     0
281
     1
  0
ENDSEC
  0
SECTION
  2
TABLES
  0
TABLE
  2
VPORT
  5
8
100
AcDbSymbolTable
 70
     2
  0
VPORT
  5
6DB8
100
AcDbSymbolTableRecord
100
AcDbViewportTableRecord
  2
*ACTIVE
 70
     0
 10
0.0
 20
0.0
 11
1.0
 21
1.0
 12
797.085427
 22
452.359152
 13
0.0
 23
0.0
 14
1.0
 24
1.0
 15
0.0
 25
0.0
 16
0.0
 26
0.0
 36
1.0
 17
0.0
 27
0.0
 37
0.0
 40
904.718304
 41
1.762063
 42
50.0
 43
0.0
 44
0.0
 50
0.0
 51
0.0
 71
     0
 72
   100
 73
     1
 74
     1
 75
     0
 76
     0
 77
     0
 78
     0
  0
ENDTAB
  0
TABLE
  2
LTYPE
  5
5
100
AcDbSymbolTable
 70
     5
  0
LTYPE
  5
12
100
AcDbSymbolTableRecord
100
AcDbLinetypeTableRecord
  2
BYBLOCK
 70
     0
  3

 72
    65
 73
     0
 40
0.0
  0
LTYPE
  5
13
100
AcDbSymbolTableRecord
100
AcDbLinetypeTableRecord
  2
BYLAYER
 70
     0
  3

 72
    65
 73
     0
 40
0.0
  0
LTYPE
  5
14
100
AcDbSymbolTableRecord
100
AcDbLinetypeTableRecord
  2
CONTINUOUS
 70
     0
  3
Solid line
 72
    65
 73
     0
 40
0.0
  0
ENDTAB
  0
TABLE
  2
LAYER
  5
2
100
AcDbSymbolTable
 70
    14
  0
LAYER
  5
F
100
AcDbSymbolTableRecord
100
AcDbLayerTableRecord
  2
0
 70
     0
 62
     7
  6
CONTINUOUS
  0
ENDTAB
  0
TABLE
  2
STYLE
  5
3
100
AcDbSymbolTable
 70
     3
  0
STYLE
  5
10
100
AcDbSymbolTableRecord
100
AcDbTextStyleTableRecord
  2
STANDARD
 70
     0
 40
0.0
 41
0.8
 50
0.0
 71
     0
 42
16.0
  3
simplex
  4
extfont
  0
STYLE
  5
237C
100
AcDbSymbolTableRecord
100
AcDbTextStyleTableRecord
  2
PTSH
 70
     0
 40
0.0
 41
0.9
 50
0.0
 71
     0
 42
4.0
  3
SIMPLEX
  4
EXTFONT
  0
STYLE
  5
2592
100
AcDbSymbolTableRecord
100
AcDbTextStyleTableRecord
  2
DIM
 70
     0
 40
0.0
 41
0.8
 50
0.0
 71
     0
 42
4.0
  3
simplex
  4
extfont
  0
ENDTAB
  0
TABLE
  2
VIEW
  5
6
100
AcDbSymbolTable
 70
     0
  0
ENDTAB
  0
TABLE
  2
UCS
  5
7
100
AcDbSymbolTable
 70
     0
  0
ENDTAB
  0
TABLE
  2
APPID
  5
9
100
AcDbSymbolTable
 70
     1
  0
APPID
  5
11
100
AcDbSymbolTableRecord
100
AcDbRegAppTableRecord
  2
ACAD
 70
     0
  0
ENDTAB
  0
TABLE
  2
DIMSTYLE
  5
A
100
AcDbSymbolTable
 70
     6
  0
DIMSTYLE
105
2237
100
AcDbSymbolTableRecord
100
AcDbDimStyleTableRecord
  2
DIM1
 70
     0
  3
 
  4

  5

  6
_OPEN
  7
_OPEN
 40
4.0
 41
2.8
 42
1.0
 43
5.0
 44
1.0
 45
0.1
 46
0.0
 47
0.0
 48
0.0
140
2.5
141
0.0
142
0.0
143
1.0
144
1.0
145
0.0
146
0.7
147
0.85
 71
     0
 72
     0
 73
     0
 74
     0
 75
     0
 76
     0
 77
     3
 78
     8
170
     0
171
     2
172
     1
173
     1
174
     0
175
     0
176
     2
177
     2
178
     2
270
     2
271
     2
272
     3
273
     2
274
     3
340
2592
275
     0
280
     0
281
     0
282
     0
283
     1
284
     8
285
     8
286
     8
287
     0
288
     0
  0
ENDTAB
  0
TABLE
  2
BLOCK_RECORD
  5
1
100
AcDbSymbolTable
 70
     3
  0
BLOCK_RECORD
  5
18
100
AcDbSymbolTableRecord
100
AcDbBlockTableRecord
  2
*MODEL_SPACE
  0
BLOCK_RECORD
  5
15
100
AcDbSymbolTableRecord
100
AcDbBlockTableRecord
  2
*PAPER_SPACE
  0
BLOCK_RECORD
  5
2448
100
AcDbSymbolTableRecord
100
AcDbBlockTableRecord
  2
_OPEN
  0
BLOCK_RECORD
  5
6D8E
100
AcDbSymbolTableRecord
100
AcDbBlockTableRecord
  2
00000
  0
ENDTAB
  0
ENDSEC
  0
SECTION
  2
BLOCKS
  0
BLOCK
  5
3C
100
AcDbEntity
  8
0
100
AcDbBlockBegin
  2
*MODEL_SPACE
 70
     0
 10
0.0
 20
0.0
 30
0.0
  3
*MODEL_SPACE
  1

  0
ENDBLK
  5
3D
100
AcDbEntity
  8
0
100
AcDbBlockEnd
  0
BLOCK
  5
3A
100
AcDbEntity
 67
     1
  8
0
100
AcDbBlockBegin
  2
*PAPER_SPACE
 70
     0
 10
0.0
 20
0.0
 30
0.0
  3
*PAPER_SPACE
  1

  0
ENDBLK
  5
3B
100
AcDbEntity
 67
     1
  8
0
100
AcDbBlockEnd
  0
BLOCK
  5
2449
100
AcDbEntity
  8
0
 48
4.0
100
AcDbBlockBegin
  2
_OPEN
 70
     0
 10
0.0
 20
0.0
 30
0.0
  3
_OPEN
  1
H1111.DWG
  0
LINE
  5
244A
100
AcDbEntity
  8
0
  6
BYBLOCK
 62
     0
 48
4.0
100
AcDbLine
 10
-1.0
 20
0.166667
 30
0.0
 11
0.0
 21
0.0
 31
0.0
  0
LINE
  5
244B
100
AcDbEntity
  8
0
  6
BYBLOCK
 62
     0
 48
4.0
100
AcDbLine
 10
0.0
 20
0.0
 30
0.0
 11
-1.0
 21
-0.166667
 31
0.0
  0
LINE
  5
244C
100
AcDbEntity
  8
0
  6
BYBLOCK
 62
     0
 48
4.0
100
AcDbLine
 10
0.0
 20
0.0
 30
0.0
 11
-1.0
 21
0.0
 31
0.0
  0
ENDBLK
  5
244D
100
AcDbEntity
  8
0
 48
4.0
100
AcDbBlockEnd
  0
BLOCK
  5
6D92
100
AcDbEntity
  8
0
100
AcDbBlockBegin
  2
00000
 70
     0
 10
0.0
 20
0.0
 30
0.0
  3
00000
  1

  0
MTEXT
  5
6D8F
100
AcDbEntity
  8
0
100
AcDbMText
 10
380.13928
 20
49.846311
 30
0.0
 40
0.2
 41
47.226465
 71
     1
 72
     1
  1

  0
MTEXT
  5
6D90
100
AcDbEntity
  8
0
100
AcDbMText
 10
389.049933
 20
57.850794
 30
0.0
 40
0.2
 41
45.444334
 71
     1
 72
     1
  1

  0
MTEXT
  5
6D91
100
AcDbEntity
  8
0
100
AcDbMText
 10
383.703541
 20
-47.986246
 30
0.0
 40
0.2
 41
51.681792
 71
     1
 72
     1
  1

  0
ENDBLK
  5
6D93
100
AcDbEntity
  8
0
100
AcDbBlockEnd
  0
ENDSEC
  0
SECTION
  2
ENTITIES
  0
MTEXT
  5
ADA
100
AcDbEntity
  8
0
100
AcDbMText
 10
1520.557119
 20
199.385245
 30
0.0
 40
0.8
 41
188.905859
 71
     1
 72
     1
  1

  0
MTEXT
  5
ADB
100
AcDbEntity
  8
0
100
AcDbMText
 10
1556.199733
 20
231.403175
 30
0.0
 40
0.8
 41
181.777337
 71
     1
 72
     1
  1

  0
MTEXT
  5
ADC
100
AcDbEntity
  8
0
100
AcDbMText
 10
1534.814165
 20
-191.944986
 30
0.0
 40
0.8
 41
206.727166
 71
     1
 72
     1
  1

  0
TEXT
  5
2529
100
AcDbEntity
  8
0
  6
CONTINUOUS
100
AcDbText
 10
1061.771429
 20
28.0
 30
0.0
 40
12.0
  1
MBS33M
 41
0.9
  7
PTSH
 72
     2
 11
1124.0
 21
34.0
 31
0.0
100
AcDbText
 73
     2
  0
POLYLINE
  5
2563
100
AcDbEntity
  8
0
100
AcDb2dPolyline
 66
     1
 10
0.0
 20
0.0
 30
0.0
 70
     1
  0
VERTEX
  5
6DB0
100
AcDbEntity
  8
0
100
AcDbVertex
100
AcDb2dVertex
 10
44.0
 20
20.0
 30
0.0
  0
VERTEX
  5
6DB1
100
AcDbEntity
  8
0
100
AcDbVertex
100
AcDb2dVertex
 10
1144.0
 20
20.0
 30
0.0
  0
VERTEX
  5
6DB2
100
AcDbEntity
  8
0
100
AcDbVertex
100
AcDb2dVertex
 10
1144.0
 20
764.0
 30
0.0
  0
VERTEX
  5
6DB3
100
AcDbEntity
  8
0
100
AcDbVertex
100
AcDb2dVertex
 10
44.0
 20
764.0
 30
0.0
  0
SEQEND
  5
6DB4
100
AcDbEntity
  8
0
  0
TEXT
  5
4CFF
100
AcDbEntity
  8
0
100
AcDbText
 10
206.493047
 20
260.428569
 30
0.0
 40
14.0
  1
正面
100
AcDbText
  0
TEXT
  5
4D02
100
AcDbEntity
  8
0
100
AcDbText
 10
206.493047
 20
637.857143
 30
0.0
 40
14.0
  1
平面
100
AcDbText
  0
TEXT
  5
4D10
100
AcDbEntity
  8
0
100
AcDbText
 10
510.177778
 20
70.666667
 30
0.0
 40
18.666667
  1
TLV MBS33M
 72
     4
 11
594.0
 21
80.0
 31
0.0
100
AcDbText
  0
LINE
  5
60BD
100
AcDbEntity
  8
0
100
AcDbLine
 10
588.75
 20
324.226964
 30
0.0
 11
588.75
 21
357.969106
 31
0.0
  0
LINE
  5
60BE
100
AcDbEntity
  8
0
100
AcDbLine
 10
599.25
 20
357.969106
 30
0.0
 11
599.25
 21
324.226964
 31
0.0
  0
ARC
  5
60C4
100
AcDbEntity
  8
0
100
AcDbCircle
 10
594.0
 20
261.469106
 30
0.0
 40
50.25
100
AcDbArc
 50
290.0
 51
267.610209
  0
POINT
  5
60CB
100
AcDbEntity
  8
0
  6
BYBLOCK
100
AcDbPoint
 10
543.75
 20
261.469106
 30
0.0
  0
POINT
  5
60CC
100
AcDbEntity
  8
0
  6
BYBLOCK
100
AcDbPoint
 10
543.75
 20
261.469106
 30
0.0
  0
LINE
  5
60DE
100
AcDbEntity
  8
0
100
AcDbLine
 10
596.5
 20
151.469106
 30
0.0
 11
591.5
 21
151.469106
 31
0.0
  0
LINE
  5
60E0
100
AcDbEntity
  8
0
100
AcDbLine
 10
602.234348
 20
155.376256
 30
0.0
 11
585.765652
 21
155.376256
 31
0.0
  0
LINE
  5
60E1
100
AcDbEntity
  8
0
100
AcDbLine
 10
591.5
 20
151.469106
 30
0.0
 11
591.5
 21
154.469106
 31
0.0
  0
POINT
  5
60E2
100
AcDbEntity
  8
0
  6
BYBLOCK
100
AcDbPoint
 10
591.5
 20
151.469106
 30
0.0
  0
LINE
  5
60EA
100
AcDbEntity
  8
0
100
AcDbLine
 10
586.956569
 20
154.469106
 30
0.0
 11
585.765652
 21
155.376256
 31
0.0
  0
LINE
  5
60EB
100
AcDbEntity
  8
0
100
AcDbLine
 10
596.5
 20
154.469106
 30
0.0
 11
596.5
 21
151.469106
 31
0.0
  0
CIRCLE
  5
60F1
100
AcDbEntity
  8
0
100
AcDbCircle
 10
594.0
 20
261.469106
 30
0.0
 40
39.75
  0
ARC
  5
60F5
100
AcDbEntity
  8
0
100
AcDbCircle
 10
615.296757
 20
198.711249
 30
0.0
 40
26.546757
100
AcDbArc
 50
106.864488
 51
180.0
  0
ARC
  5
60F6
100
AcDbEntity
  8
0
100
AcDbCircle
 10
615.331715
 20
198.711249
 30
0.0
 40
16.081715
100
AcDbArc
 50
104.937117
 51
180.0
  0
LINE
  5
60F9
100
AcDbEntity
  8
0
100
AcDbLine
 10
584.75
 20
186.469106
 30
0.0
 11
584.75
 21
189.469106
 31
0.0
  0
LINE
  5
60FA
100
AcDbEntity
  8
0
100
AcDbLine
 10
603.25
 20
189.469106
 30
0.0
 11
603.25
 21
186.469106
 31
0.0
  0
LINE
  5
60FE
100
AcDbEntity
  8
0
100
AcDbLine
 10
602.77118
 20
172.554859
 30
0.0
 11
585.22882
 21
172.554859
 31
0.0
  0
LINE
  5
6103
100
AcDbEntity
  8
0
100
AcDbLine
 10
585.22882
 20
172.554859
 30
0.0
 11
585.22882
 21
174.466728
 31
0.0
  0
LINE
  5
610E
100
AcDbEntity
  8
0
100
AcDbLine
 10
584.75
 20
189.469106
 30
0.0
 11
603.25
 21
189.469106
 31
0.0
  0
LINE
  5
610F
100
AcDbEntity
  8
0
100
AcDbLine
 10
588.75
 20
194.469106
 30
0.0
 11
599.25
 21
194.469106
 31
0.0
  0
LINE
  5
6110
100
AcDbEntity
  8
0
100
AcDbLine
 10
588.75
 20
198.711249
 30
0.0
 11
588.75
 21
194.469106
 31
0.0
  0
LINE
  5
6111
100
AcDbEntity
  8
0
100
AcDbLine
 10
584.75
 20
189.469106
 30
0.0
 11
588.75
 21
194.469106
 31
0.0
  0
LINE
  5
6112
100
AcDbEntity
  8
0
100
AcDbLine
 10
599.25
 20
198.711249
 30
0.0
 11
599.25
 21
194.469106
 31
0.0
  0
LINE
  5
6113
100
AcDbEntity
  8
0
100
AcDbLine
 10
599.25
 20
194.469106
 30
0.0
 11
603.25
 21
189.469106
 31
0.0
  0
LINE
  5
6114
100
AcDbEntity
  8
0
100
AcDbLine
 10
603.25
 20
189.469106
 30
0.0
 11
603.25
 21
189.469106
 31
0.0
  0
ARC
  5
6117
100
AcDbEntity
  8
0
100
AcDbCircle
 10
615.331715
 20
324.226964
 30
0.0
 40
16.081715
100
AcDbArc
 50
180.0
 51
255.062883
  0
ARC
  5
6118
100
AcDbEntity
  8
0
100
AcDbCircle
 10
615.296757
 20
324.226964
 30
0.0
 40
26.546757
100
AcDbArc
 50
180.0
 51
208.216828
  0
LINE
  5
613D
100
AcDbEntity
  8
0
100
AcDbLine
 10
609.588458
 20
468.969106
 30
0.0
 11
609.588458
 21
423.469106
 31
0.0
  0
LINE
  5
613E
100
AcDbEntity
  8
0
100
AcDbLine
 10
578.411543
 20
468.969106
 30
0.0
 11
578.411543
 21
423.469106
 31
0.0
  0
LINE
  5
614F
100
AcDbEntity
  8
0
100
AcDbLine
 10
609.0
 20
405.737056
 30
0.0
 11
609.0
 21
387.201157
 31
0.0
  0
LINE
  5
6151
100
AcDbEntity
  8
0
100
AcDbLine
 10
601.79423
 20
405.737056
 30
0.0
 11
601.79423
 21
387.201157
 31
0.0
  0
LINE
  5
6169
100
AcDbEntity
  8
0
100
AcDbLine
 10
599.25
 20
349.469106
 30
0.0
 11
588.75
 21
349.469106
 31
0.0
  0
LINE
  5
616A
100
AcDbEntity
  8
0
100
AcDbLine
 10
588.75
 20
345.469106
 30
0.0
 11
599.25
 21
345.469106
 31
0.0
  0
LINE
  5
61AE
100
AcDbEntity
  8
0
100
AcDbLine
 10
602.331
 20
382.613106
 30
0.0
 11
585.669
 21
382.613106
 31
0.0
  0
LINE
  5
61AF
100
AcDbEntity
  8
0
100
AcDbLine
 10
601.475
 20
383.469106
 30
0.0
 11
586.525
 21
383.469106
 31
0.0
  0
LINE
  5
61B1
100
AcDbEntity
  8
0
100
AcDbLine
 10
601.475
 20
385.469106
 30
0.0
 11
582.602885
 21
385.469106
 31
0.0
  0
ARC
  5
61B2
100
AcDbEntity
  8
0
100
AcDbCircle
 10
594.0
 20
403.872153
 30
0.0
 40
18.403046
100
AcDbArc
 50
244.942389
 51
295.057611
  0
POINT
  5
61D8
100
AcDbEntity
  8
0
  6
BYBLOCK
100
AcDbPoint
 10
592.5
 20
385.469106
 30
0.0
  0
LINE
  5
61DB
100
AcDbEntity
  8
0
100
AcDbLine
 10
602.331
 20
382.613106
 30
0.0
 11
602.331
 21
381.469106
 31
0.0
  0
LINE
  5
61DD
100
AcDbEntity
  8
0
100
AcDbLine
 10
605.397115
 20
385.469106
 30
0.0
 11
601.475
 21
385.469106
 31
0.0
  0
ARC
  5
61DE
100
AcDbEntity
  8
0
100
AcDbCircle
 10
605.397115
 20
390.08236
 30
0.0
 40
4.613254
100
AcDbArc
 50
218.649092
 51
321.350908
  0
LINE
  5
61DF
100
AcDbEntity
  8
0
100
AcDbLine
 10
605.197342
 20
381.469106
 30
0.0
 11
582.802658
 21
381.469106
 31
0.0
  0
LINE
  5
61E1
100
AcDbEntity
  8
0
100
AcDbLine
 10
601.475
 20
385.469106
 30
0.0
 11
601.475
 21
383.469106
 31
0.0
  0
LINE
  5
61E2
100
AcDbEntity
  8
0
100
AcDbLine
 10
601.475
 20
383.469106
 30
0.0
 11
602.331
 21
382.613106
 31
0.0
  0
LINE
  5
61E8
100
AcDbEntity
  8
0
100
AcDbLine
 10
609.588458
 20
423.469106
 30
0.0
 11
578.411543
 21
423.469106
 31
0.0
  0
LINE
  5
61E9
100
AcDbEntity
  8
0
100
AcDbLine
 10
578.411543
 20
430.469106
 30
0.0
 11
609.588458
 21
430.469106
 31
0.0
  0
POINT
  5
61F0
100
AcDbEntity
  8
0
  6
BYBLOCK
100
AcDbPoint
 10
578.411543
 20
423.469106
 30
0.0
  0
POINT
  5
61F1
100
AcDbEntity
  8
0
  6
BYBLOCK
100
AcDbPoint
 10
578.411543
 20
423.469106
 30
0.0
  0
POINT
  5
61F2
100
AcDbEntity
  8
0
  6
BYBLOCK
100
AcDbPoint
 10
578.411543
 20
423.469106
 30
0.0
  0
POINT
  5
61F3
100
AcDbEntity
  8
0
  6
BYBLOCK
100
AcDbPoint
 10
578.411543
 20
423.469106
 30
0.0
  0
POINT
  5
61F4
100
AcDbEntity
  8
0
  6
BYBLOCK
100
AcDbPoint
 10
578.411543
 20
423.469106
 30
0.0
  0
POINT
  5
61F5
100
AcDbEntity
  8
0
  6
BYBLOCK
100
AcDbPoint
 10
578.411543
 20
423.469106
 30
0.0
  0
LINE
  5
61F6
100
AcDbEntity
  8
0
100
AcDbLine
 10
579.0
 20
423.469106
 30
0.0
 11
579.0
 21
411.469106
 31
0.0
  0
LINE
  5
61F7
100
AcDbEntity
  8
0
100
AcDbLine
 10
586.20577
 20
423.469106
 30
0.0
 11
586.20577
 21
411.469106
 31
0.0
  0
LINE
  5
61F8
100
AcDbEntity
  8
0
100
AcDbLine
 10
601.79423
 20
423.469106
 30
0.0
 11
601.79423
 21
411.469106
 31
0.0
  0
LINE
  5
61F9
100
AcDbEntity
  8
0
100
AcDbLine
 10
609.0
 20
423.469106
 30
0.0
 11
609.0
 21
411.469106
 31
0.0
  0
ARC
  5
61FA
100
AcDbEntity
  8
0
100
AcDbCircle
 10
594.0
 20
441.344117
 30
0.0
 40
30.875011
100
AcDbArc
 50
255.377781
 51
284.622219
  0
LINE
  5
61FB
100
AcDbEntity
  8
0
100
AcDbLine
 10
582.602511
 20
410.469106
 30
0.0
 11
605.397115
 21
410.469106
 31
0.0
  0
LINE
  5
61FC
100
AcDbEntity
  8
0
100
AcDbLine
 10
582.602885
 20
407.469106
 30
0.0
 11
605.397115
 21
407.469106
 31
0.0
  0
ARC
  5
61FD
100
AcDbEntity
  8
0
100
AcDbCircle
 10
594.0
 20
389.06606
 30
0.0
 40
18.403046
100
AcDbArc
 50
64.942389
 51
115.057611
  0
LINE
  5
61FE
100
AcDbEntity
  8
0
100
AcDbLine
 10
602.75
 20
407.969106
 30
0.0
 11
594.0
 21
407.969106
 31
0.0
  0
LINE
  5
6206
100
AcDbEntity
  8
0
100
AcDbLine
 10
585.25
 20
407.969106
 30
0.0
 11
594.0
 21
407.969106
 31
0.0
  0
POINT
  5
6207
100
AcDbEntity
  8
0
  6
BYBLOCK
100
AcDbPoint
 10
582.602885
 20
410.469106
 30
0.0
  0
LINE
  5
6209
100
AcDbEntity
  8
0
100
AcDbLine
 10
585.25
 20
410.469106
 30
0.0
 11
585.25
 21
407.969106
 31
0.0
  0
ARC
  5
620A
100
AcDbEntity
  8
0
100
AcDbCircle
 10
582.602885
 20
417.459497
 30
0.0
 40
6.99039
100
AcDbArc
 50
238.975442
 51
301.024558
  0
ARC
  5
6210
100
AcDbEntity
  8
0
100
AcDbCircle
 10
605.397115
 20
417.459497
 30
0.0
 40
6.99039
100
AcDbArc
 50
238.975442
 51
301.024558
  0
ARC
  5
6211
100
AcDbEntity
  8
0
100
AcDbCircle
 10
605.397115
 20
402.855853
 30
0.0
 40
4.613254
100
AcDbArc
 50
38.649092
 51
141.350908
  0
LINE
  5
6212
100
AcDbEntity
  8
0
100
AcDbLine
 10
602.75
 20
407.969106
 30
0.0
 11
603.25
 21
407.469106
 31
0.0
  0
LINE
  5
6213
100
AcDbEntity
  8
0
100
AcDbLine
 10
602.75
 20
407.969106
 30
0.0
 11
602.75
 21
410.469106
 31
0.0
  0
POINT
  5
6215
100
AcDbEntity
  8
0
  6
BYBLOCK
100
AcDbPoint
 10
579.0
 20
423.469106
 30
0.0
  0
ARC
  5
621F
100
AcDbEntity
  8
0
100
AcDbCircle
 10
613.000001
 20
481.769107
 30
0.0
 40
2.0
100
AcDbArc
 50
90.0
 51
180.0
  0
LINE
  5
6220
100
AcDbEntity
  8
0
100
AcDbLine
 10
576.5
 20
508.269106
 30
0.0
 11
622.0
 21
508.269106
 31
0.0
  0
LINE
  5
6221
100
AcDbEntity
  8
0
100
AcDbLine
 10
622.017638
 20
515.388836
 30
0.0
 11
611.157753
 21
518.298736
 31
0.0
  0
LINE
  5
6222
100
AcDbEntity
  8
0
100
AcDbLine
 10
607.0
 20
487.269106
 30
0.0
 11
612.0
 21
488.019106
 31
0.0
  0
LINE
  5
6223
100
AcDbEntity
  8
0
100
AcDbLine
 10
578.299038
 20
488.019106
 30
0.0
 11
612.0
 21
488.019106
 31
0.0
  0
LINE
  5
6224
100
AcDbEntity
  8
0
100
AcDbLine
 10
607.0
 20
503.269106
 30
0.0
 11
612.0
 21
502.519106
 31
0.0
  0
LINE
  5
6225
100
AcDbEntity
  8
0
100
AcDbLine
 10
578.299038
 20
502.519106
 30
0.0
 11
612.0
 21
502.519106
 31
0.0
  0
LINE
  5
6226
100
AcDbEntity
  8
0
100
AcDbLine
 10
577.0
 20
479.969106
 30
0.0
 11
577.0
 21
487.269106
 31
0.0
  0
LINE
  5
6227
100
AcDbEntity
  8
0
100
AcDbLine
 10
607.0
 20
487.269106
 30
0.0
 11
607.0
 21
479.969106
 31
0.0
  0
LINE
  5
6228
100
AcDbEntity
  8
0
100
AcDbLine
 10
577.0
 20
479.969106
 30
0.0
 11
611.0
 21
479.969106
 31
0.0
  0
ARC
  5
6229
100
AcDbEntity
  8
0
100
AcDbCircle
 10
578.500001
 20
474.969106
 30
0.0
 40
1.0
100
AcDbArc
 50
90.0
 51
180.0
  0
LINE
  5
622A
100
AcDbEntity
  8
0
100
AcDbLine
 10
585.5
 20
477.469106
 30
0.0
 11
578.0
 21
477.469106
 31
0.0
  0
ARC
  5
622B
100
AcDbEntity
  8
0
100
AcDbCircle
 10
578.500001
 20
469.969106
 30
0.0
 40
1.0
100
AcDbArc
 50
180.0
 51
270.0
  0
LINE
  5
622C
100
AcDbEntity
  8
0
100
AcDbLine
 10
577.5
 20
469.969106
 30
0.0
 11
577.5
 21
474.969106
 31
0.0
  0
POINT
  5
622D
100
AcDbEntity
  8
0
  6
BYBLOCK
100
AcDbPoint
 10
577.0
 20
479.969106
 30
0.0
  0
POINT
  5
622E
100
AcDbEntity
  8
0
  6
BYBLOCK
100
AcDbPoint
 10
577.0
 20
479.969106
 30
0.0
  0
POINT
  5
622F
100
AcDbEntity
  8
0
  6
BYBLOCK
100
AcDbPoint
 10
577.0
 20
479.969106
 30
0.0
  0
POINT
  5
6230
100
AcDbEntity
  8
0
  6
BYBLOCK
100
AcDbPoint
 10
577.0
 20
479.969106
 30
0.0
  0
LINE
  5
6231
100
AcDbEntity
  8
0
100
AcDbLine
 10
578.25
 20
477.469106
 30
0.0
 11
578.25
 21
475.937351
 31
0.0
  0
LINE
  5
6232
100
AcDbEntity
  8
0
100
AcDbLine
 10
578.0
 20
479.969106
 30
0.0
 11
578.0
 21
477.469106
 31
0.0
  0
ARC
  5
6233
100
AcDbEntity
  8
0
100
AcDbCircle
 10
594.000001
 20
500.80244
 30
0.0
 40
24.833333
100
AcDbArc
 50
249.98404
 51
290.01596
  0
LINE
  5
6234
100
AcDbEntity
  8
0
100
AcDbLine
 10
578.5
 20
475.969106
 30
0.0
 11
609.5
 21
475.969106
 31
0.0
  0
LINE
  5
6235
100
AcDbEntity
  8
0
100
AcDbLine
 10
609.5
 20
468.969106
 30
0.0
 11
578.5
 21
468.969106
 31
0.0
  0
LINE
  5
6236
100
AcDbEntity
  8
0
100
AcDbLine
 10
585.5
 20
477.469106
 30
0.0
 11
585.5
 21
479.969106
 31
0.0
  0
LINE
  5
6237
100
AcDbEntity
  8
0
100
AcDbLine
 10
610.5
 20
474.969106
 30
0.0
 11
610.5
 21
469.969106
 31
0.0
  0
ARC
  5
6238
100
AcDbEntity
  8
0
100
AcDbCircle
 10
609.500001
 20
469.969106
 30
0.0
 40
1.0
100
AcDbArc
 50
270.0
 51
0.0
  0
LINE
  5
6239
100
AcDbEntity
  8
0
100
AcDbLine
 10
610.0
 20
477.469106
 30
0.0
 11
602.5
 21
477.469106
 31
0.0
  0
LINE
  5
623A
100
AcDbEntity
  8
0
100
AcDbLine
 10
602.5
 20
477.469106
 30
0.0
 11
602.5
 21
479.969106
 31
0.0
  0
LINE
  5
623B
100
AcDbEntity
  8
0
100
AcDbLine
 10
611.0
 20
479.969106
 30
0.0
 11
611.0
 21
481.769106
 31
0.0
  0
LINE
  5
623C
100
AcDbEntity
  8
0
100
AcDbLine
 10
609.75
 20
477.469106
 30
0.0
 11
609.75
 21
475.937351
 31
0.0
  0
ARC
  5
623D
100
AcDbEntity
  8
0
100
AcDbCircle
 10
609.500001
 20
474.969106
 30
0.0
 40
1.0
100
AcDbArc
 50
0.0
 51
90.0
  0
LINE
  5
623E
100
AcDbEntity
  8
0
100
AcDbLine
 10
610.0
 20
479.969106
 30
0.0
 11
610.0
 21
477.469106
 31
0.0
  0
ARC
  5
623F
100
AcDbEntity
  8
0
100
AcDbCircle
 10
578.500001
 20
516.469107
 30
0.0
 40
2.0
100
AcDbArc
 50
90.0
 51
180.0
  0
LINE
  5
6240
100
AcDbEntity
  8
0
100
AcDbLine
 10
577.0
 20
487.269106
 30
0.0
 11
607.0
 21
487.269106
 31
0.0
  0
LINE
  5
6241
100
AcDbEntity
  8
0
100
AcDbLine
 10
577.0
 20
503.269106
 30
0.0
 11
607.0
 21
503.269106
 31
0.0
  0
LINE
  5
6242
100
AcDbEntity
  8
0
100
AcDbLine
 10
577.0
 20
503.269106
 30
0.0
 11
577.0
 21
508.269106
 31
0.0
  0
LINE
  5
6243
100
AcDbEntity
  8
0
100
AcDbLine
 10
578.299038
 20
488.019106
 30
0.0
 11
578.299038
 21
502.519106
 31
0.0
  0
LINE
  5
6244
100
AcDbEntity
  8
0
100
AcDbLine
 10
577.0
 20
487.269106
 30
0.0
 11
578.299038
 21
488.019106
 31
0.0
  0
LINE
  5
6245
100
AcDbEntity
  8
0
100
AcDbLine
 10
577.0
 20
503.269106
 30
0.0
 11
578.299038
 21
502.519106
 31
0.0
  0
POINT
  5
6246
100
AcDbEntity
  8
0
  6
BYBLOCK
100
AcDbPoint
 10
576.5
 20
516.469106
 30
0.0
  0
LINE
  5
6247
100
AcDbEntity
  8
0
100
AcDbLine
 10
576.5
 20
516.469106
 30
0.0
 11
576.5
 21
508.269106
 31
0.0
  0
LINE
  5
6248
100
AcDbEntity
  8
0
100
AcDbLine
 10
607.0
 20
503.269106
 30
0.0
 11
607.0
 21
518.469106
 31
0.0
  0
LINE
  5
6249
100
AcDbEntity
  8
0
100
AcDbLine
 10
583.299038
 20
490.419106
 30
0.0
 11
606.0
 21
490.419106
 31
0.0
  0
LINE
  5
624A
100
AcDbEntity
  8
0
100
AcDbLine
 10
583.299038
 20
491.419106
 30
0.0
 11
606.0
 21
491.419106
 31
0.0
  0
LINE
  5
624B
100
AcDbEntity
  8
0
100
AcDbLine
 10
583.299038
 20
496.219106
 30
0.0
 11
606.0
 21
496.219106
 31
0.0
  0
LINE
  5
624C
100
AcDbEntity
  8
0
100
AcDbLine
 10
583.299038
 20
493.319106
 30
0.0
 11
606.0
 21
493.319106
 31
0.0
  0
LINE
  5
624D
100
AcDbEntity
  8
0
100
AcDbLine
 10
583.299038
 20
494.319106
 30
0.0
 11
606.0
 21
494.319106
 31
0.0
  0
LINE
  5
624E
100
AcDbEntity
  8
0
100
AcDbLine
 10
583.299038
 20
497.219106
 30
0.0
 11
606.0
 21
497.219106
 31
0.0
  0
LINE
  5
624F
100
AcDbEntity
  8
0
100
AcDbLine
 10
583.299038
 20
499.119106
 30
0.0
 11
606.0
 21
499.119106
 31
0.0
  0
LINE
  5
6254
100
AcDbEntity
  8
0
100
AcDbLine
 10
583.299038
 20
500.119106
 30
0.0
 11
606.0
 21
500.119106
 31
0.0
  0
LINE
  5
6255
100
AcDbEntity
  8
0
100
AcDbLine
 10
583.299038
 20
494.319106
 30
0.0
 11
582.299038
 21
493.819106
 31
0.0
  0
LINE
  5
6256
100
AcDbEntity
  8
0
100
AcDbLine
 10
582.299038
 20
493.819106
 30
0.0
 11
583.299038
 21
493.319106
 31
0.0
  0
LINE
  5
6257
100
AcDbEntity
  8
0
100
AcDbLine
 10
583.299038
 20
491.419106
 30
0.0
 11
582.299038
 21
490.919106
 31
0.0
  0
LINE
  5
6258
100
AcDbEntity
  8
0
100
AcDbLine
 10
582.299038
 20
490.919106
 30
0.0
 11
583.299038
 21
490.419106
 31
0.0
  0
LINE
  5
6259
100
AcDbEntity
  8
0
100
AcDbLine
 10
583.299038
 20
497.219106
 30
0.0
 11
582.299038
 21
496.719106
 31
0.0
  0
LINE
  5
625A
100
AcDbEntity
  8
0
100
AcDbLine
 10
582.299038
 20
496.719106
 30
0.0
 11
583.299038
 21
496.219106
 31
0.0
  0
LINE
  5
625B
100
AcDbEntity
  8
0
100
AcDbLine
 10
582.299038
 20
499.619106
 30
0.0
 11
583.299038
 21
499.119106
 31
0.0
  0
LINE
  5
625C
100
AcDbEntity
  8
0
100
AcDbLine
 10
583.299038
 20
500.119106
 30
0.0
 11
582.299038
 21
499.619106
 31
0.0
  0
LINE
  5
625D
100
AcDbEntity
  8
0
100
AcDbLine
 10
607.0
 20
493.819106
 30
0.0
 11
606.0
 21
494.319106
 31
0.0
  0
LINE
  5
625E
100
AcDbEntity
  8
0
100
AcDbLine
 10
606.0
 20
493.319106
 30
0.0
 11
607.0
 21
493.819106
 31
0.0
  0
LINE
  5
625F
100
AcDbEntity
  8
0
100
AcDbLine
 10
607.0
 20
490.919106
 30
0.0
 11
606.0
 21
491.419106
 31
0.0
  0
LINE
  5
6260
100
AcDbEntity
  8
0
100
AcDbLine
 10
606.0
 20
490.419106
 30
0.0
 11
607.0
 21
490.919106
 31
0.0
  0
LINE
  5
6261
100
AcDbEntity
  8
0
100
AcDbLine
 10
607.0
 20
499.619106
 30
0.0
 11
606.0
 21
500.119106
 31
0.0
  0
LINE
  5
6262
100
AcDbEntity
  8
0
100
AcDbLine
 10
606.0
 20
499.119106
 30
0.0
 11
607.0
 21
499.619106
 31
0.0
  0
LINE
  5
6263
100
AcDbEntity
  8
0
100
AcDbLine
 10
607.0
 20
496.719106
 30
0.0
 11
606.0
 21
497.219106
 31
0.0
  0
LINE
  5
6264
100
AcDbEntity
  8
0
100
AcDbLine
 10
606.0
 20
496.219106
 30
0.0
 11
607.0
 21
496.719106
 31
0.0
  0
LINE
  5
6265
100
AcDbEntity
  8
0
100
AcDbLine
 10
578.5
 20
518.469106
 30
0.0
 11
609.863658
 21
518.469106
 31
0.0
  0
POINT
  5
6266
100
AcDbEntity
  8
0
  6
BYBLOCK
100
AcDbPoint
 10
578.500001
 20
518.469107
 30
0.0
  0
POINT
  5
6267
100
AcDbEntity
  8
0
  6
BYBLOCK
100
AcDbPoint
 10
578.500001
 20
518.469107
 30
0.0
  0
ARC
  5
6268
100
AcDbEntity
  8
0
100
AcDbCircle
 10
609.863658
 20
513.469107
 30
0.0
 40
5.0
100
AcDbArc
 50
74.999992
 51
90.0
  0
LINE
  5
6269
100
AcDbEntity
  8
0
100
AcDbLine
 10
638.5
 20
483.769106
 30
0.0
 11
638.5
 21
508.769106
 31
0.0
  0
LINE
  5
626A
100
AcDbEntity
  8
0
100
AcDbLine
 10
648.5
 20
484.269106
 30
0.0
 11
648.5
 21
508.269106
 31
0.0
  0
LINE
  5
626B
100
AcDbEntity
  8
0
100
AcDbLine
 10
643.5
 20
484.269106
 30
0.0
 11
643.5
 21
508.269106
 31
0.0
  0
ARC
  5
626C
100
AcDbEntity
  8
0
100
AcDbCircle
 10
619.250001
 20
484.476214
 30
0.0
 40
0.75
100
AcDbArc
 50
289.471221
 51
0.0
  0
LINE
  5
626D
100
AcDbEntity
  8
0
100
AcDbLine
 10
619.5
 20
483.769106
 30
0.0
 11
619.5
 21
491.269106
 31
0.0
  0
LINE
  5
626E
100
AcDbEntity
  8
0
100
AcDbLine
 10
613.0
 20
483.769106
 30
0.0
 11
616.912785
 21
498.371814
 31
0.0
  0
LINE
  5
626F
100
AcDbEntity
  8
0
100
AcDbLine
 10
618.06632
 20
498.813156
 30
0.0
 11
614.035278
 21
483.769106
 31
0.0
  0
LINE
  5
6270
100
AcDbEntity
  8
0
100
AcDbLine
 10
643.5
 20
484.269106
 30
0.0
 11
648.5
 21
484.269106
 31
0.0
  0
LINE
  5
6272
100
AcDbEntity
  8
0
100
AcDbLine
 10
613.0
 20
483.769106
 30
0.0
 11
638.5
 21
483.769106
 31
0.0
  0
LINE
  5
627A
100
AcDbEntity
  8
0
100
AcDbLine
 10
643.5
 20
508.269106
 30
0.0
 11
648.5
 21
508.269106
 31
0.0
  0
LINE
  5
627B
100
AcDbEntity
  8
0
100
AcDbLine
 10
643.5
 20
506.269106
 30
0.0
 11
648.5
 21
506.269106
 31
0.0
  0
LINE
  5
627C
100
AcDbEntity
  8
0
100
AcDbLine
 10
643.5
 20
504.269106
 30
0.0
 11
648.5
 21
504.269106
 31
0.0
  0
LINE
  5
627D
100
AcDbEntity
  8
0
100
AcDbLine
 10
643.5
 20
502.769106
 30
0.0
 11
648.5
 21
502.769106
 31
0.0
  0
LINE
  5
627E
100
AcDbEntity
  8
0
100
AcDbLine
 10
643.5
 20
501.769106
 30
0.0
 11
648.5
 21
501.769106
 31
0.0
  0
LINE
  5
627F
100
AcDbEntity
  8
0
100
AcDbLine
 10
643.5
 20
499.269106
 30
0.0
 11
648.5
 21
499.269106
 31
0.0
  0
LINE
  5
6280
100
AcDbEntity
  8
0
100
AcDbLine
 10
643.5
 20
486.269106
 30
0.0
 11
648.5
 21
486.269106
 31
0.0
  0
LINE
  5
6281
100
AcDbEntity
  8
0
100
AcDbLine
 10
643.5
 20
488.269106
 30
0.0
 11
648.5
 21
488.269106
 31
0.0
  0
LINE
  5
6282
100
AcDbEntity
  8
0
100
AcDbLine
 10
643.5
 20
489.769106
 30
0.0
 11
648.5
 21
489.769106
 31
0.0
  0
LINE
  5
6283
100
AcDbEntity
  8
0
100
AcDbLine
 10
643.5
 20
490.769106
 30
0.0
 11
648.5
 21
490.769106
 31
0.0
  0
LINE
  5
6284
100
AcDbEntity
  8
0
100
AcDbLine
 10
643.5
 20
493.269106
 30
0.0
 11
648.5
 21
493.269106
 31
0.0
  0
LINE
  5
6286
100
AcDbEntity
  8
0
100
AcDbLine
 10
628.5
 20
508.769106
 30
0.0
 11
629.156163
 21
501.269106
 31
0.0
  0
LINE
  5
6287
100
AcDbEntity
  8
0
100
AcDbLine
 10
623.5
 20
509.769106
 30
0.0
 11
623.5
 21
500.269106
 31
0.0
  0
LINE
  5
6288
100
AcDbEntity
  8
0
100
AcDbLine
 10
638.5
 20
491.269106
 30
0.0
 11
619.5
 21
491.269106
 31
0.0
  0
LINE
  5
6289
100
AcDbEntity
  8
0
100
AcDbLine
 10
638.5
 20
501.269106
 30
0.0
 11
623.5
 21
501.269106
 31
0.0
  0
LINE
  5
628A
100
AcDbEntity
  8
0
100
AcDbLine
 10
612.0
 20
488.019106
 30
0.0
 11
612.0
 21
502.519106
 31
0.0
  0
LINE
  5
628B
100
AcDbEntity
  8
0
100
AcDbLine
 10
620.0
 20
490.769106
 30
0.0
 11
620.0
 21
484.476214
 31
0.0
  0
LINE
  5
628C
100
AcDbEntity
  8
0
100
AcDbLine
 10
620.0
 20
490.769106
 30
0.0
 11
619.5
 21
491.269106
 31
0.0
  0
LINE
  5
628D
100
AcDbEntity
  8
0
100
AcDbLine
 10
623.5
 20
500.269106
 30
0.0
 11
618.06632
 21
498.813156
 31
0.0
  0
LINE
  5
628E
100
AcDbEntity
  8
0
100
AcDbLine
 10
623.5
 20
500.269106
 30
0.0
 11
618.670325
 21
499.846566
 31
0.0
  0
ARC
  5
628F
100
AcDbEntity
  8
0
100
AcDbCircle
 10
618.844638
 20
497.854176
 30
0.0
 40
2.0
100
AcDbArc
 50
94.999991
 51
164.999993
  0
LINE
  5
6290
100
AcDbEntity
  8
0
100
AcDbLine
 10
639.5
 20
487.269106
 30
0.0
 11
639.5
 21
505.269106
 31
0.0
  0
LINE
  5
6291
100
AcDbEntity
  8
0
100
AcDbLine
 10
643.5
 20
487.269106
 30
0.0
 11
639.5
 21
487.269106
 31
0.0
  0
LINE
  5
6292
100
AcDbEntity
  8
0
100
AcDbLine
 10
638.5
 20
486.269106
 30
0.0
 11
639.5
 21
487.269106
 31
0.0
  0
LINE
  5
6295
100
AcDbEntity
  8
0
100
AcDbLine
 10
643.5
 20
505.269106
 30
0.0
 11
639.5
 21
505.269106
 31
0.0
  0
LINE
  5
6296
100
AcDbEntity
  8
0
100
AcDbLine
 10
638.5
 20
506.269106
 30
0.0
 11
639.5
 21
505.269106
 31
0.0
  0
LINE
  5
6298
100
AcDbEntity
  8
0
100
AcDbLine
 10
628.062558
 20
513.769106
 30
0.0
 11
624.5
 21
514.723689
 31
0.0
  0
ARC
  5
6299
100
AcDbEntity
  8
0
100
AcDbCircle
 10
621.500001
 20
513.456985
 30
0.0
 40
2.0
100
AcDbArc
 50
0.0
 51
74.999994
  0
LINE
  5
629A
100
AcDbEntity
  8
0
100
AcDbLine
 10
623.5
 20
513.456984
 30
0.0
 11
623.5
 21
509.769106
 31
0.0
  0
LINE
  5
629B
100
AcDbEntity
  8
0
100
AcDbLine
 10
622.0
 20
509.769106
 30
0.0
 11
622.0
 21
508.269106
 31
0.0
  0
LINE
  5
629C
100
AcDbEntity
  8
0
100
AcDbLine
 10
624.5
 20
509.769106
 30
0.0
 11
622.0
 21
509.769106
 31
0.0
  0
LINE
  5
629D
100
AcDbEntity
  8
0
100
AcDbLine
 10
624.5
 20
509.769106
 30
0.0
 11
624.5
 21
514.723691
 31
0.0
  0
LINE
  5
629E
100
AcDbEntity
  8
0
100
AcDbLine
 10
638.5
 20
508.769106
 30
0.0
 11
628.5
 21
508.769106
 31
0.0
  0
LINE
  5
629F
100
AcDbEntity
  8
0
100
AcDbLine
 10
628.062558
 20
513.769106
 30
0.0
 11
628.5
 21
508.769106
 31
0.0
  0
POINT
  5
62A0
100
AcDbEntity
  8
0
  6
BYBLOCK
100
AcDbPoint
 10
648.5
 20
508.269106
 30
0.0
  0
ARC
  5
631B
100
AcDbEntity
  8
0
100
AcDbCircle
 10
582.602885
 20
402.855853
 30
0.0
 40
4.613254
100
AcDbArc
 50
38.649092
 51
141.350908
  0
ARC
  5
631C
100
AcDbEntity
  8
0
100
AcDbCircle
 10
582.602885
 20
390.08236
 30
0.0
 40
4.613254
100
AcDbArc
 50
218.649092
 51
321.350908
  0
LINE
  5
631D
100
AcDbEntity
  8
0
100
AcDbLine
 10
586.20577
 20
405.737056
 30
0.0
 11
586.20577
 21
387.201157
 31
0.0
  0
LINE
  5
631E
100
AcDbEntity
  8
0
100
AcDbLine
 10
579.0
 20
405.737056
 30
0.0
 11
579.0
 21
387.201157
 31
0.0
  0
LINE
  5
6320
100
AcDbEntity
  8
0
100
AcDbLine
 10
581.298294
 20
380.394561
 30
0.0
 11
582.802658
 21
381.469106
 31
0.0
  0
LINE
  5
6322
100
AcDbEntity
  8
0
100
AcDbLine
 10
586.525
 20
385.469106
 30
0.0
 11
586.525
 21
383.469106
 31
0.0
  0
LINE
  5
6323
100
AcDbEntity
  8
0
100
AcDbLine
 10
586.525
 20
383.469106
 30
0.0
 11
585.669
 21
382.613106
 31
0.0
  0
LINE
  5
6324
100
AcDbEntity
  8
0
100
AcDbLine
 10
585.25
 20
407.969106
 30
0.0
 11
584.75
 21
407.469106
 31
0.0
  0
LINE
  5
6325
100
AcDbEntity
  8
0
100
AcDbLine
 10
585.669
 20
382.613106
 30
0.0
 11
585.669
 21
381.469106
 31
0.0
  0
LINE
  5
6339
100
AcDbEntity
  8
0
100
AcDbLine
 10
758.594533
 20
357.969106
 30
0.0
 11
758.594533
 21
216.469106
 31
0.0
  0
LINE
  5
633A
100
AcDbEntity
  8
0
100
AcDbLine
 10
769.094533
 20
357.969106
 30
0.0
 11
769.094533
 21
216.469106
 31
0.0
  0
LINE
  5
6359
100
AcDbEntity
  8
0
100
AcDbLine
 10
745.594533
 20
194.469106
 30
0.0
 11
756.094533
 21
194.469106
 31
0.0
  0
LINE
  5
635B
100
AcDbEntity
  8
0
100
AcDbLine
 10
753.344533
 20
151.469106
 30
0.0
 11
748.344533
 21
151.469106
 31
0.0
  0
LINE
  5
6361
100
AcDbEntity
  8
0
100
AcDbLine
 10
741.594533
 20
189.469106
 30
0.0
 11
760.094533
 21
189.469106
 31
0.0
  0
LINE
  5
6362
100
AcDbEntity
  8
0
100
AcDbLine
 10
741.594533
 20
189.469106
 30
0.0
 11
745.594533
 21
194.469106
 31
0.0
  0
POINT
  5
6364
100
AcDbEntity
  8
0
  6
BYBLOCK
100
AcDbPoint
 10
748.344533
 20
151.469106
 30
0.0
  0
LINE
  5
6365
100
AcDbEntity
  8
0
100
AcDbLine
 10
748.344533
 20
151.469106
 30
0.0
 11
748.344533
 21
154.469106
 31
0.0
  0
LINE
  5
636F
100
AcDbEntity
  8
0
100
AcDbLine
 10
741.594533
 20
186.469106
 30
0.0
 11
741.594533
 21
189.469106
 31
0.0
  0
LINE
  5
6379
100
AcDbEntity
  8
0
100
AcDbLine
 10
753.344533
 20
154.469106
 30
0.0
 11
753.344533
 21
151.469106
 31
0.0
  0
LINE
  5
637C
100
AcDbEntity
  8
0
100
AcDbLine
 10
760.094533
 20
189.469106
 30
0.0
 11
760.094533
 21
186.469106
 31
0.0
  0
LINE
  5
637D
100
AcDbEntity
  8
0
100
AcDbLine
 10
760.094533
 20
189.469106
 30
0.0
 11
760.094533
 21
189.469106
 31
0.0
  0
LINE
  5
638E
100
AcDbEntity
  8
0
100
AcDbLine
 10
760.344533
 20
186.469106
 30
0.0
 11
741.344533
 21
186.469106
 31
0.0
  0
LINE
  5
6390
100
AcDbEntity
  8
0
100
AcDbLine
 10
760.344533
 20
174.469106
 30
0.0
 11
741.344533
 21
174.469106
 31
0.0
  0
LINE
  5
63A3
100
AcDbEntity
  8
0
100
AcDbLine
 10
745.594533
 20
194.469106
 30
0.0
 11
745.594533
 21
306.469106
 31
0.0
  0
LINE
  5
63A4
100
AcDbEntity
  8
0
100
AcDbLine
 10
756.094533
 20
194.469106
 30
0.0
 11
756.094533
 21
306.469106
 31
0.0
  0
LINE
  5
63A5
100
AcDbEntity
  8
0
100
AcDbLine
 10
760.094533
 20
189.469106
 30
0.0
 11
756.094533
 21
194.469106
 31
0.0
  0
ARC
  5
63A7
100
AcDbEntity
  8
0
100
AcDbCircle
 10
750.844533
 20
306.469106
 30
0.0
 40
5.25
100
AcDbArc
 50
0.0
 51
180.0
  0
LINE
  5
6401
100
AcDbEntity
  8
0
100
AcDbLine
 10
756.094533
 20
306.469106
 30
0.0
 11
758.594533
 21
289.538623
 31
0.0
  0
LINE
  5
6402
100
AcDbEntity
  8
0
100
AcDbLine
 10
758.594533
 20
216.469106
 30
0.0
 11
756.094533
 21
233.399589
 31
0.0
  0
ARC
  5
6404
100
AcDbEntity
  8
0
100
AcDbCircle
 10
763.844533
 20
216.469106
 30
0.0
 40
5.25
100
AcDbArc
 50
180.0
 51
360.0
  0
LINE
  5
6406
100
AcDbEntity
  8
0
100
AcDbLine
 10
774.844533
 20
357.969106
 30
0.0
 11
752.844533
 21
357.969106
 31
0.0
  0
LINE
  5
6408
100
AcDbEntity
  8
0
100
AcDbLine
 10
772.175533
 20
382.613106
 30
0.0
 11
755.513533
 21
382.613106
 31
0.0
  0
LINE
  5
6409
100
AcDbEntity
  8
0
100
AcDbLine
 10
771.319533
 20
383.469106
 30
0.0
 11
756.369533
 21
383.469106
 31
0.0
  0
LINE
  5
640A
100
AcDbEntity
  8
0
100
AcDbLine
 10
774.844533
 20
381.469106
 30
0.0
 11
752.844533
 21
381.469106
 31
0.0
  0
LINE
  5
640E
100
AcDbEntity
  8
0
100
AcDbLine
 10
750.344533
 20
407.469106
 30
0.0
 11
777.344533
 21
407.469106
 31
0.0
  0
ARC
  5
640F
100
AcDbEntity
  8
0
100
AcDbCircle
 10
763.844534
 20
500.80244
 30
0.0
 40
24.833333
100
AcDbArc
 50
249.98404
 51
290.01596
  0
LINE
  5
6410
100
AcDbEntity
  8
0
100
AcDbLine
 10
746.344533
 20
508.269106
 30
0.0
 11
751.344533
 21
508.269106
 31
0.0
  0
LINE
  5
6411
100
AcDbEntity
  8
0
100
AcDbLine
 10
748.143571
 20
488.019106
 30
0.0
 11
753.205572
 21
488.019106
 31
0.0
  0
LINE
  5
6412
100
AcDbEntity
  8
0
100
AcDbLine
 10
748.143571
 20
502.519106
 30
0.0
 11
751.344533
 21
502.519106
 31
0.0
  0
LINE
  5
6413
100
AcDbEntity
  8
0
100
AcDbLine
 10
746.844533
 20
479.969106
 30
0.0
 11
780.844533
 21
479.969106
 31
0.0
  0
LINE
  5
6414
100
AcDbEntity
  8
0
100
AcDbLine
 10
748.344533
 20
475.969106
 30
0.0
 11
779.344533
 21
475.969106
 31
0.0
  0
LINE
  5
6415
100
AcDbEntity
  8
0
100
AcDbLine
 10
779.344533
 20
468.969106
 30
0.0
 11
748.344533
 21
468.969106
 31
0.0
  0
LINE
  5
6416
100
AcDbEntity
  8
0
100
AcDbLine
 10
746.844533
 20
487.269106
 30
0.0
 11
753.832041
 21
487.269106
 31
0.0
  0
LINE
  5
6417
100
AcDbEntity
  8
0
100
AcDbLine
 10
746.844533
 20
503.269106
 30
0.0
 11
751.344533
 21
503.269106
 31
0.0
  0
LINE
  5
6424
100
AcDbEntity
  8
0
100
AcDbLine
 10
748.344533
 20
518.469106
 30
0.0
 11
779.344533
 21
518.469106
 31
0.0
  0
LINE
  5
6426
100
AcDbEntity
  8
0
100
AcDbLine
 10
772.594533
 20
407.969106
 30
0.0
 11
763.844533
 21
407.969106
 31
0.0
  0
LINE
  5
6427
100
AcDbEntity
  8
0
100
AcDbLine
 10
779.432991
 20
423.469106
 30
0.0
 11
748.256076
 21
423.469106
 31
0.0
  0
LINE
  5
6428
100
AcDbEntity
  8
0
100
AcDbLine
 10
748.256076
 20
430.469106
 30
0.0
 11
779.432991
 21
430.469106
 31
0.0
  0
LINE
  5
6429
100
AcDbEntity
  8
0
100
AcDbLine
 10
750.344533
 20
410.469106
 30
0.0
 11
777.344533
 21
410.469106
 31
0.0
  0
LINE
  5
642A
100
AcDbEntity
  8
0
100
AcDbLine
 10
746.344533
 20
516.469106
 30
0.0
 11
746.344533
 21
508.269106
 31
0.0
  0
LINE
  5
6435
100
AcDbEntity
  8
0
100
AcDbLine
 10
755.513533
 20
382.613106
 30
0.0
 11
755.513533
 21
381.469106
 31
0.0
  0
LINE
  5
6436
100
AcDbEntity
  8
0
100
AcDbLine
 10
756.369533
 20
383.469106
 30
0.0
 11
755.513533
 21
382.613106
 31
0.0
  0
LINE
  5
6437
100
AcDbEntity
  8
0
100
AcDbLine
 10
756.369533
 20
385.469106
 30
0.0
 11
756.369533
 21
383.469106
 31
0.0
  0
POINT
  5
6438
100
AcDbEntity
  8
0
  6
BYBLOCK
100
AcDbPoint
 10
762.344533
 20
385.469106
 30
0.0
  0
LINE
  5
6439
100
AcDbEntity
  8
0
100
AcDbLine
 10
748.256076
 20
468.969106
 30
0.0
 11
748.256076
 21
423.469106
 31
0.0
  0
POINT
  5
643C
100
AcDbEntity
  8
0
  6
BYBLOCK
100
AcDbPoint
 10
748.256076
 20
423.469106
 30
0.0
  0
POINT
  5
643D
100
AcDbEntity
  8
0
  6
BYBLOCK
100
AcDbPoint
 10
748.256076
 20
423.469106
 30
0.0
  0
POINT
  5
643E
100
AcDbEntity
  8
0
  6
BYBLOCK
100
AcDbPoint
 10
748.256076
 20
423.469106
 30
0.0
  0
POINT
  5
643F
100
AcDbEntity
  8
0
  6
BYBLOCK
100
AcDbPoint
 10
748.256076
 20
423.469106
 30
0.0
  0
POINT
  5
6440
100
AcDbEntity
  8
0
  6
BYBLOCK
100
AcDbPoint
 10
748.256076
 20
423.469106
 30
0.0
  0
POINT
  5
6441
100
AcDbEntity
  8
0
  6
BYBLOCK
100
AcDbPoint
 10
748.256076
 20
423.469106
 30
0.0
  0
POINT
  5
6442
100
AcDbEntity
  8
0
  6
BYBLOCK
100
AcDbPoint
 10
748.844533
 20
423.469106
 30
0.0
  0
LINE
  5
6444
100
AcDbEntity
  8
0
100
AcDbLine
 10
755.094533
 20
407.969106
 30
0.0
 11
754.594533
 21
407.469106
 31
0.0
  0
LINE
  5
6445
100
AcDbEntity
  8
0
100
AcDbLine
 10
755.094533
 20
407.969106
 30
0.0
 11
763.844533
 21
407.969106
 31
0.0
  0
LINE
  5
6446
100
AcDbEntity
  8
0
100
AcDbLine
 10
755.094533
 20
410.469106
 30
0.0
 11
755.094533
 21
407.969106
 31
0.0
  0
POINT
  5
6447
100
AcDbEntity
  8
0
  6
BYBLOCK
100
AcDbPoint
 10
752.447418
 20
410.469106
 30
0.0
  0
LINE
  5
6449
100
AcDbEntity
  8
0
100
AcDbLine
 10
746.844533
 20
479.969106
 30
0.0
 11
746.844533
 21
487.269106
 31
0.0
  0
LINE
  5
644A
100
AcDbEntity
  8
0
100
AcDbLine
 10
755.344533
 20
477.469106
 30
0.0
 11
747.844533
 21
477.469106
 31
0.0
  0
ARC
  5
644B
100
AcDbEntity
  8
0
100
AcDbCircle
 10
748.344534
 20
474.969106
 30
0.0
 40
1.0
100
AcDbArc
 50
90.0
 51
180.0
  0
POINT
  5
644C
100
AcDbEntity
  8
0
  6
BYBLOCK
100
AcDbPoint
 10
746.844533
 20
479.969106
 30
0.0
  0
POINT
  5
644D
100
AcDbEntity
  8
0
  6
BYBLOCK
100
AcDbPoint
 10
746.844533
 20
479.969106
 30
0.0
  0
POINT
  5
644E
100
AcDbEntity
  8
0
  6
BYBLOCK
100
AcDbPoint
 10
746.844533
 20
479.969106
 30
0.0
  0
POINT
  5
644F
100
AcDbEntity
  8
0
  6
BYBLOCK
100
AcDbPoint
 10
746.844533
 20
479.969106
 30
0.0
  0
LINE
  5
6450
100
AcDbEntity
  8
0
100
AcDbLine
 10
748.094533
 20
477.469106
 30
0.0
 11
748.094533
 21
475.937351
 31
0.0
  0
LINE
  5
6451
100
AcDbEntity
  8
0
100
AcDbLine
 10
747.844533
 20
479.969106
 30
0.0
 11
747.844533
 21
477.469106
 31
0.0
  0
ARC
  5
6452
100
AcDbEntity
  8
0
100
AcDbCircle
 10
748.344534
 20
469.969106
 30
0.0
 40
1.0
100
AcDbArc
 50
180.0
 51
270.0
  0
LINE
  5
6453
100
AcDbEntity
  8
0
100
AcDbLine
 10
747.344533
 20
469.969106
 30
0.0
 11
747.344533
 21
474.969106
 31
0.0
  0
LINE
  5
6454
100
AcDbEntity
  8
0
100
AcDbLine
 10
755.344533
 20
477.469106
 30
0.0
 11
755.344533
 21
479.969106
 31
0.0
  0
LINE
  5
645D
100
AcDbEntity
  8
0
100
AcDbLine
 10
746.844533
 20
503.269106
 30
0.0
 11
746.844533
 21
508.269106
 31
0.0
  0
LINE
  5
645E
100
AcDbEntity
  8
0
100
AcDbLine
 10
746.844533
 20
487.269106
 30
0.0
 11
748.143571
 21
488.019106
 31
0.0
  0
LINE
  5
6460
100
AcDbEntity
  8
0
100
AcDbLine
 10
746.844533
 20
503.269106
 30
0.0
 11
748.143571
 21
502.519106
 31
0.0
  0
LINE
  5
6472
100
AcDbEntity
  8
0
100
AcDbLine
 10
772.175533
 20
382.613106
 30
0.0
 11
772.175533
 21
381.469106
 31
0.0
  0
LINE
  5
6474
100
AcDbEntity
  8
0
100
AcDbLine
 10
771.319533
 20
385.469106
 30
0.0
 11
771.319533
 21
383.469106
 31
0.0
  0
LINE
  5
6475
100
AcDbEntity
  8
0
100
AcDbLine
 10
771.319533
 20
383.469106
 30
0.0
 11
772.175533
 21
382.613106
 31
0.0
  0
LINE
  5
6477
100
AcDbEntity
  8
0
100
AcDbLine
 10
779.432991
 20
468.969106
 30
0.0
 11
779.432991
 21
423.469106
 31
0.0
  0
LINE
  5
647A
100
AcDbEntity
  8
0
100
AcDbLine
 10
772.594533
 20
407.969106
 30
0.0
 11
773.094533
 21
407.469106
 31
0.0
  0
LINE
  5
647B
100
AcDbEntity
  8
0
100
AcDbLine
 10
772.594533
 20
407.969106
 30
0.0
 11
772.594533
 21
410.469106
 31
0.0
  0
LINE
  5
6482
100
AcDbEntity
  8
0
100
AcDbLine
 10
779.844533
 20
477.469106
 30
0.0
 11
772.344533
 21
477.469106
 31
0.0
  0
LINE
  5
6483
100
AcDbEntity
  8
0
100
AcDbLine
 10
772.344533
 20
477.469106
 30
0.0
 11
772.344533
 21
479.969106
 31
0.0
  0
LINE
  5
6485
100
AcDbEntity
  8
0
100
AcDbLine
 10
779.594533
 20
477.469106
 30
0.0
 11
779.594533
 21
475.937351
 31
0.0
  0
ARC
  5
6486
100
AcDbEntity
  8
0
100
AcDbCircle
 10
779.344534
 20
474.969106
 30
0.0
 40
1.0
100
AcDbArc
 50
0.0
 51
90.0
  0
LINE
  5
6487
100
AcDbEntity
  8
0
100
AcDbLine
 10
779.844533
 20
479.969106
 30
0.0
 11
779.844533
 21
477.469106
 31
0.0
  0
ARC
  5
6488
100
AcDbEntity
  8
0
100
AcDbCircle
 10
779.344534
 20
469.969106
 30
0.0
 40
1.0
100
AcDbArc
 50
270.0
 51
0.0
  0
LINE
  5
6489
100
AcDbEntity
  8
0
100
AcDbLine
 10
780.344533
 20
474.969106
 30
0.0
 11
780.344533
 21
469.969106
 31
0.0
  0
LINE
  5
64B3
100
AcDbEntity
  8
0
100
AcDbLine
 10
750.344533
 20
385.469106
 30
0.0
 11
777.344533
 21
385.469106
 31
0.0
  0
LINE
  5
64B5
100
AcDbEntity
  8
0
100
AcDbLine
 10
763.844533
 20
405.737056
 30
0.0
 11
763.844533
 21
387.201157
 31
0.0
  0
LINE
  5
64B6
100
AcDbEntity
  8
0
100
AcDbLine
 10
750.844533
 20
185.535598
 30
0.0
 11
750.844533
 21
175.402614
 31
0.0
  0
POINT
  5
64BA
100
AcDbEntity
  8
0
  6
BYBLOCK
100
AcDbPoint
 10
762.344533
 20
410.469106
 30
0.0
  0
LINE
  5
64BB
100
AcDbEntity
  8
0
100
AcDbLine
 10
750.344533
 20
423.469106
 30
0.0
 11
750.344533
 21
410.469106
 31
0.0
  0
LINE
  5
64BD
100
AcDbEntity
  8
0
100
AcDbLine
 10
763.844533
 20
423.469106
 30
0.0
 11
763.844533
 21
412.201157
 31
0.0
  0
LINE
  5
64BE
100
AcDbEntity
  8
0
100
AcDbLine
 10
763.844533
 20
380.394561
 30
0.0
 11
763.844533
 21
359.043652
 31
0.0
  0
LINE
  5
64D1
100
AcDbEntity
  8
0
100
AcDbLine
 10
769.094533
 20
349.469106
 30
0.0
 11
758.594533
 21
349.469106
 31
0.0
  0
LINE
  5
64D2
100
AcDbEntity
  8
0
100
AcDbLine
 10
758.594533
 20
345.469106
 30
0.0
 11
769.094533
 21
345.469106
 31
0.0
  0
ARC
  5
64D7
100
AcDbEntity
  8
0
100
AcDbCircle
 10
757.094533
 20
424.487893
 30
0.0
 40
14.018786
100
AcDbArc
 50
241.216797
 51
298.783203
  0
LINE
  5
64D8
100
AcDbEntity
  8
0
100
AcDbLine
 10
777.344533
 20
423.469106
 30
0.0
 11
777.344533
 21
410.469106
 31
0.0
  0
ARC
  5
64D9
100
AcDbEntity
  8
0
100
AcDbCircle
 10
770.594533
 20
424.487893
 30
0.0
 40
14.018786
100
AcDbArc
 50
241.216797
 51
298.783203
  0
ARC
  5
64DA
100
AcDbEntity
  8
0
100
AcDbCircle
 10
757.094533
 20
399.487893
 30
0.0
 40
14.018786
100
AcDbArc
 50
241.216797
 51
298.783203
  0
ARC
  5
64DB
100
AcDbEntity
  8
0
100
AcDbCircle
 10
770.594533
 20
399.487893
 30
0.0
 40
14.018786
100
AcDbArc
 50
241.216797
 51
298.783203
  0
LINE
  5
64DC
100
AcDbEntity
  8
0
100
AcDbLine
 10
750.344533
 20
407.469106
 30
0.0
 11
750.344533
 21
385.469106
 31
0.0
  0
LINE
  5
64DD
100
AcDbEntity
  8
0
100
AcDbLine
 10
777.344533
 20
407.469106
 30
0.0
 11
777.344533
 21
385.469106
 31
0.0
  0
ARC
  5
64DE
100
AcDbEntity
  8
0
100
AcDbCircle
 10
757.094533
 20
393.45032
 30
0.0
 40
14.018786
100
AcDbArc
 50
61.216797
 51
118.783203
  0
ARC
  5
64DF
100
AcDbEntity
  8
0
100
AcDbCircle
 10
770.594533
 20
393.45032
 30
0.0
 40
14.018786
100
AcDbArc
 50
61.216797
 51
118.783203
  0
LINE
  5
64E2
100
AcDbEntity
  8
0
100
AcDbLine
 10
752.844533
 20
357.969106
 30
0.0
 11
752.844533
 21
381.469106
 31
0.0
  0
ARC
  5
64E8
100
AcDbEntity
  8
0
100
AcDbCircle
 10
769.344533
 20
366.780283
 30
0.0
 40
14.683275
100
AcDbArc
 50
68.001901
 51
111.998099
  0
LINE
  5
64E9
100
AcDbEntity
  8
0
100
AcDbLine
 10
774.844533
 20
357.969106
 30
0.0
 11
774.844533
 21
381.469106
 31
0.0
  0
ARC
  5
64EB
100
AcDbEntity
  8
0
100
AcDbCircle
 10
758.344533
 20
366.780283
 30
0.0
 40
14.683275
100
AcDbArc
 50
68.001901
 51
111.998099
  0
LINE
  5
64ED
100
AcDbEntity
  8
0
100
AcDbLine
 10
581.298294
 20
359.043652
 30
0.0
 11
581.298294
 21
380.394561
 31
0.0
  0
LINE
  5
64EE
100
AcDbEntity
  8
0
100
AcDbLine
 10
587.649147
 20
359.043652
 30
0.0
 11
587.649147
 21
380.394561
 31
0.0
  0
LINE
  5
64F6
100
AcDbEntity
  8
0
100
AcDbLine
 10
600.350853
 20
380.394561
 30
0.0
 11
600.350853
 21
359.043652
 31
0.0
  0
ARC
  5
64F7
100
AcDbEntity
  8
0
100
AcDbCircle
 10
594.0
 20
362.431636
 30
0.0
 40
19.052559
100
AcDbArc
 50
70.528779
 51
109.471221
  0
ARC
  5
64F9
100
AcDbEntity
  8
0
100
AcDbCircle
 10
584.473721
 20
376.239927
 30
0.0
 40
5.229179
100
AcDbArc
 50
52.608974
 51
127.391026
  0
ARC
  5
64FB
100
AcDbEntity
  8
0
100
AcDbCircle
 10
758.344533
 20
372.65793
 30
0.0
 40
14.683275
100
AcDbArc
 50
248.001901
 51
291.998099
  0
ARC
  5
64FC
100
AcDbEntity
  8
0
100
AcDbCircle
 10
769.344533
 20
372.65793
 30
0.0
 40
14.683275
100
AcDbArc
 50
248.001901
 51
291.998099
  0
LINE
  5
64FD
100
AcDbEntity
  8
0
100
AcDbLine
 10
606.701706
 20
380.394561
 30
0.0
 11
605.197342
 21
381.469106
 31
0.0
  0
ARC
  5
64FE
100
AcDbEntity
  8
0
100
AcDbCircle
 10
603.526279
 20
376.239927
 30
0.0
 40
5.229179
100
AcDbArc
 50
52.608974
 51
127.391026
  0
LINE
  5
64FF
100
AcDbEntity
  8
0
100
AcDbLine
 10
606.701706
 20
359.043652
 30
0.0
 11
606.701706
 21
380.394561
 31
0.0
  0
LINE
  5
6500
100
AcDbEntity
  8
0
100
AcDbLine
 10
605.197342
 20
357.969106
 30
0.0
 11
582.802658
 21
357.969106
 31
0.0
  0
ARC
  5
6501
100
AcDbEntity
  8
0
100
AcDbCircle
 10
594.0
 20
377.006577
 30
0.0
 40
19.052559
100
AcDbArc
 50
250.528779
 51
289.471221
  0
LINE
  5
6502
100
AcDbEntity
  8
0
100
AcDbLine
 10
581.298294
 20
359.043652
 30
0.0
 11
582.802658
 21
357.969106
 31
0.0
  0
ARC
  5
6503
100
AcDbEntity
  8
0
100
AcDbCircle
 10
584.473721
 20
363.198286
 30
0.0
 40
5.229179
100
AcDbArc
 50
232.608974
 51
307.391026
  0
LINE
  5
6504
100
AcDbEntity
  8
0
100
AcDbLine
 10
606.701706
 20
359.043652
 30
0.0
 11
605.197342
 21
357.969106
 31
0.0
  0
ARC
  5
6505
100
AcDbEntity
  8
0
100
AcDbCircle
 10
603.526279
 20
363.198286
 30
0.0
 40
5.229179
100
AcDbArc
 50
232.608974
 51
307.391026
  0
LINE
  5
6515
100
AcDbEntity
  8
0
100
AcDbLine
 10
588.515172
 20
175.410154
 30
0.0
 11
588.515172
 21
185.528059
 31
0.0
  0
LINE
  5
6516
100
AcDbEntity
  8
0
100
AcDbLine
 10
599.484828
 20
175.410154
 30
0.0
 11
599.484828
 21
185.528059
 31
0.0
  0
LINE
  5
6517
100
AcDbEntity
  8
0
100
AcDbLine
 10
583.030345
 20
175.410154
 30
0.0
 11
583.030345
 21
185.528059
 31
0.0
  0
ARC
  5
6518
100
AcDbEntity
  8
0
100
AcDbCircle
 10
594.0
 20
170.014624
 30
0.0
 40
16.454483
100
AcDbArc
 50
70.528779
 51
109.471221
  0
ARC
  5
651B
100
AcDbEntity
  8
0
100
AcDbCircle
 10
585.772759
 20
182.002593
 30
0.0
 40
4.466514
100
AcDbArc
 50
52.121121
 51
127.878879
  0
LINE
  5
651E
100
AcDbEntity
  8
0
100
AcDbLine
 10
584.096866
 20
174.469106
 30
0.0
 11
603.903134
 21
174.469106
 31
0.0
  0
LINE
  5
6522
100
AcDbEntity
  8
0
100
AcDbLine
 10
603.903134
 20
186.469106
 30
0.0
 11
584.096866
 21
186.469106
 31
0.0
  0
LINE
  5
6523
100
AcDbEntity
  8
0
100
AcDbLine
 10
584.096866
 20
186.469106
 30
0.0
 11
583.030345
 21
185.528059
 31
0.0
  0
LINE
  5
6525
100
AcDbEntity
  8
0
100
AcDbLine
 10
603.903134
 20
186.469106
 30
0.0
 11
604.969655
 21
185.528059
 31
0.0
  0
LINE
  5
6526
100
AcDbEntity
  8
0
100
AcDbLine
 10
604.969655
 20
175.410154
 30
0.0
 11
604.969655
 21
185.528059
 31
0.0
  0
ARC
  5
6527
100
AcDbEntity
  8
0
100
AcDbCircle
 10
602.227241
 20
182.002593
 30
0.0
 40
4.466514
100
AcDbArc
 50
52.121121
 51
127.878879
  0
LINE
  5
6528
100
AcDbEntity
  8
0
100
AcDbLine
 10
584.096866
 20
174.469106
 30
0.0
 11
583.030345
 21
175.410154
 31
0.0
  0
ARC
  5
6529
100
AcDbEntity
  8
0
100
AcDbCircle
 10
585.772759
 20
178.93562
 30
0.0
 40
4.466514
100
AcDbArc
 50
232.121121
 51
307.878879
  0
ARC
  5
652A
100
AcDbEntity
  8
0
100
AcDbCircle
 10
594.0
 20
190.923589
 30
0.0
 40
16.454483
100
AcDbArc
 50
250.528779
 51
289.471221
  0
ARC
  5
652B
100
AcDbEntity
  8
0
100
AcDbCircle
 10
602.227241
 20
178.93562
 30
0.0
 40
4.466514
100
AcDbArc
 50
232.121121
 51
307.878879
  0
LINE
  5
652C
100
AcDbEntity
  8
0
100
AcDbLine
 10
603.903134
 20
174.469106
 30
0.0
 11
604.969655
 21
175.410154
 31
0.0
  0
LINE
  5
65B5
100
AcDbEntity
  8
0
100
AcDbLine
 10
586.956569
 20
154.469106
 30
0.0
 11
601.043431
 21
154.469106
 31
0.0
  0
LINE
  5
65BD
100
AcDbEntity
  8
0
100
AcDbLine
 10
585.22882
 20
172.554859
 30
0.0
 11
585.765652
 21
155.376256
 31
0.0
  0
LINE
  5
65CE
100
AcDbEntity
  8
0
100
AcDbLine
 10
602.77118
 20
172.554859
 30
0.0
 11
602.234348
 21
155.376256
 31
0.0
  0
LINE
  5
65CF
100
AcDbEntity
  8
0
100
AcDbLine
 10
601.043431
 20
154.469106
 30
0.0
 11
602.234348
 21
155.376256
 31
0.0
  0
LINE
  5
65D6
100
AcDbEntity
  8
0
100
AcDbLine
 10
602.77118
 20
172.554859
 30
0.0
 11
602.77118
 21
174.466728
 31
0.0
  0
LINE
  5
65D7
100
AcDbEntity
  8
0
100
AcDbLine
 10
741.344533
 20
186.469106
 30
0.0
 11
741.344533
 21
174.469106
 31
0.0
  0
ARC
  5
65DA
100
AcDbEntity
  8
0
100
AcDbCircle
 10
746.103714
 20
173.964274
 30
0.0
 40
12.504836
100
AcDbArc
 50
67.629939
 51
112.370061
  0
LINE
  5
65DB
100
AcDbEntity
  8
0
100
AcDbLine
 10
760.344533
 20
186.469106
 30
0.0
 11
760.344533
 21
174.469106
 31
0.0
  0
ARC
  5
65DC
100
AcDbEntity
  8
0
100
AcDbCircle
 10
755.585353
 20
173.964274
 30
0.0
 40
12.504836
100
AcDbArc
 50
67.629939
 51
112.370061
  0
ARC
  5
65DD
100
AcDbEntity
  8
0
100
AcDbCircle
 10
746.103714
 20
186.973939
 30
0.0
 40
12.504836
100
AcDbArc
 50
247.629939
 51
292.370061
  0
ARC
  5
65DE
100
AcDbEntity
  8
0
100
AcDbCircle
 10
755.585353
 20
186.973939
 30
0.0
 40
12.504836
100
AcDbArc
 50
247.629939
 51
292.370061
  0
LINE
  5
65E0
100
AcDbEntity
  8
0
100
AcDbLine
 10
742.073353
 20
172.554859
 30
0.0
 11
742.610185
 21
155.376256
 31
0.0
  0
LINE
  5
65E1
100
AcDbEntity
  8
0
100
AcDbLine
 10
759.615713
 20
172.554859
 30
0.0
 11
742.073353
 21
172.554859
 31
0.0
  0
LINE
  5
65E2
100
AcDbEntity
  8
0
100
AcDbLine
 10
742.073353
 20
172.554859
 30
0.0
 11
742.073353
 21
174.466728
 31
0.0
  0
LINE
  5
65E3
100
AcDbEntity
  8
0
100
AcDbLine
 10
759.615713
 20
172.554859
 30
0.0
 11
759.078881
 21
155.376256
 31
0.0
  0
LINE
  5
65E4
100
AcDbEntity
  8
0
100
AcDbLine
 10
759.615713
 20
172.554859
 30
0.0
 11
759.615713
 21
174.466728
 31
0.0
  0
LINE
  5
65E5
100
AcDbEntity
  8
0
100
AcDbLine
 10
743.801102
 20
154.469106
 30
0.0
 11
757.887964
 21
154.469106
 31
0.0
  0
LINE
  5
65E6
100
AcDbEntity
  8
0
100
AcDbLine
 10
759.078881
 20
155.376256
 30
0.0
 11
742.610185
 21
155.376256
 31
0.0
  0
LINE
  5
65E7
100
AcDbEntity
  8
0
100
AcDbLine
 10
757.887964
 20
154.469106
 30
0.0
 11
759.078881
 21
155.376256
 31
0.0
  0
LINE
  5
65E8
100
AcDbEntity
  8
0
100
AcDbLine
 10
743.801102
 20
154.469106
 30
0.0
 11
742.610185
 21
155.376256
 31
0.0
  0
CIRCLE
  5
65F8
100
AcDbEntity
  8
0
100
AcDbCircle
 10
763.844533
 20
496.269106
 30
0.0
 40
12.0
  0
LINE
  5
65FA
100
AcDbEntity
  8
0
100
AcDbLine
 10
754.844533
 20
513.769106
 30
0.0
 11
761.844533
 21
513.769106
 31
0.0
  0
LINE
  5
65FB
100
AcDbEntity
  8
0
100
AcDbLine
 10
751.344533
 20
514.723691
 30
0.0
 11
776.344533
 21
514.723691
 31
0.0
  0
LINE
  5
6660
100
AcDbEntity
  8
0
100
AcDbLine
 10
751.344533
 20
514.723691
 30
0.0
 11
751.344533
 21
491.269106
 31
0.0
  0
ARC
  5
6661
100
AcDbEntity
  8
0
100
AcDbCircle
 10
763.844533
 20
496.269106
 30
0.0
 40
13.462912
100
AcDbArc
 50
21.801409
 51
68.198591
  0
LINE
  5
6662
100
AcDbEntity
  8
0
100
AcDbLine
 10
776.344533
 20
514.723691
 30
0.0
 11
776.344533
 21
491.269106
 31
0.0
  0
LINE
  5
6663
100
AcDbEntity
  8
0
100
AcDbLine
 10
758.844533
 20
508.769106
 30
0.0
 11
768.844533
 21
508.769106
 31
0.0
  0
LINE
  5
6664
100
AcDbEntity
  8
0
100
AcDbLine
 10
758.844533
 20
483.769106
 30
0.0
 11
768.844533
 21
483.769106
 31
0.0
  0
ARC
  5
6665
100
AcDbEntity
  8
0
100
AcDbCircle
 10
763.844533
 20
496.269106
 30
0.0
 40
13.462912
100
AcDbArc
 50
111.801409
 51
158.198591
  0
ARC
  5
6666
100
AcDbEntity
  8
0
100
AcDbCircle
 10
763.844533
 20
496.269106
 30
0.0
 40
13.462912
100
AcDbArc
 50
201.801409
 51
248.198591
  0
ARC
  5
6667
100
AcDbEntity
  8
0
100
AcDbCircle
 10
763.844533
 20
496.269106
 30
0.0
 40
13.462912
100
AcDbArc
 50
291.801409
 51
338.198591
  0
LINE
  5
66EA
100
AcDbEntity
  8
0
100
AcDbLine
 10
576.5
 20
653.357143
 30
0.0
 11
576.5
 21
622.357143
 31
0.0
  0
LINE
  5
670A
100
AcDbEntity
  8
0
100
AcDbLine
 10
607.0
 20
621.557143
 30
0.0
 11
607.0
 21
654.157143
 31
0.0
  0
LINE
  5
670B
100
AcDbEntity
  8
0
100
AcDbLine
 10
643.5
 20
646.857143
 30
0.0
 11
639.5
 21
646.857143
 31
0.0
  0
LINE
  5
670C
100
AcDbEntity
  8
0
100
AcDbLine
 10
643.5
 20
628.857143
 30
0.0
 11
639.5
 21
628.857143
 31
0.0
  0
LINE
  5
6726
100
AcDbEntity
  8
0
100
AcDbLine
 10
638.5
 20
650.357143
 30
0.0
 11
629.156163
 21
650.357143
 31
0.0
  0
LINE
  5
672F
100
AcDbEntity
  8
0
100
AcDbLine
 10
623.5
 20
649.857143
 30
0.0
 11
623.5
 21
625.857143
 31
0.0
  0
LINE
  5
6733
100
AcDbEntity
  8
0
100
AcDbLine
 10
638.5
 20
647.857143
 30
0.0
 11
639.5
 21
646.857143
 31
0.0
  0
LINE
  5
6735
100
AcDbEntity
  8
0
100
AcDbLine
 10
639.5
 20
628.857143
 30
0.0
 11
639.5
 21
646.857143
 31
0.0
  0
LINE
  5
6736
100
AcDbEntity
  8
0
100
AcDbLine
 10
638.5
 20
627.857143
 30
0.0
 11
639.5
 21
628.857143
 31
0.0
  0
LINE
  5
6737
100
AcDbEntity
  8
0
100
AcDbLine
 10
638.5
 20
625.357143
 30
0.0
 11
638.5
 21
650.357143
 31
0.0
  0
LINE
  5
6738
100
AcDbEntity
  8
0
100
AcDbLine
 10
643.5
 20
649.857143
 30
0.0
 11
648.5
 21
649.857143
 31
0.0
  0
POINT
  5
6739
100
AcDbEntity
  8
0
  6
BYBLOCK
100
AcDbPoint
 10
648.5
 20
649.857143
 30
0.0
  0
LINE
  5
6743
100
AcDbEntity
  8
0
100
AcDbLine
 10
643.5
 20
625.857143
 30
0.0
 11
648.5
 21
625.857143
 31
0.0
  0
LINE
  5
6745
100
AcDbEntity
  8
0
100
AcDbLine
 10
648.5
 20
625.857143
 30
0.0
 11
648.5
 21
649.857143
 31
0.0
  0
LINE
  5
6746
100
AcDbEntity
  8
0
100
AcDbLine
 10
643.5
 20
625.857143
 30
0.0
 11
643.5
 21
649.857143
 31
0.0
  0
LINE
  5
677A
100
AcDbEntity
  8
0
100
AcDbLine
 10
624.5
 20
650.357143
 30
0.0
 11
629.156163
 21
650.357143
 31
0.0
  0
LINE
  5
6784
100
AcDbEntity
  8
0
100
AcDbLine
 10
628.7
 20
632.857143
 30
0.0
 11
628.7
 21
642.857143
 31
0.0
  0
LINE
  5
678C
100
AcDbEntity
  8
0
100
AcDbLine
 10
628.7
 20
642.857143
 30
0.0
 11
638.5
 21
642.857143
 31
0.0
  0
LINE
  5
678D
100
AcDbEntity
  8
0
100
AcDbLine
 10
628.7
 20
632.857143
 30
0.0
 11
638.5
 21
632.857143
 31
0.0
  0
LINE
  5
6790
100
AcDbEntity
  8
0
100
AcDbLine
 10
628.062558
 20
650.357143
 30
0.0
 11
628.062558
 21
625.357143
 31
0.0
  0
LINE
  5
6791
100
AcDbEntity
  8
0
100
AcDbLine
 10
624.5
 20
650.357143
 30
0.0
 11
624.5
 21
625.357143
 31
0.0
  0
LINE
  5
6793
100
AcDbEntity
  8
0
100
AcDbLine
 10
607.0
 20
655.357143
 30
0.0
 11
623.5
 21
649.857143
 31
0.0
  0
LINE
  5
6794
100
AcDbEntity
  8
0
100
AcDbLine
 10
623.5
 20
647.857143
 30
0.0
 11
624.5
 21
647.857143
 31
0.0
  0
CIRCLE
  5
6795
100
AcDbEntity
  8
0
100
AcDbCircle
 10
594.0
 20
637.857143
 30
0.0
 40
3.25
  0
LINE
  5
6797
100
AcDbEntity
  8
0
100
AcDbLine
 10
629.156163
 20
625.357143
 30
0.0
 11
629.156163
 21
632.857143
 31
0.0
  0
LINE
  5
679E
100
AcDbEntity
  8
0
100
AcDbLine
 10
607.0
 20
620.357143
 30
0.0
 11
623.5
 21
625.857143
 31
0.0
  0
LINE
  5
679F
100
AcDbEntity
  8
0
100
AcDbLine
 10
624.5
 20
625.357143
 30
0.0
 11
629.156163
 21
625.357143
 31
0.0
  0
LINE
  5
67A0
100
AcDbEntity
  8
0
100
AcDbLine
 10
638.5
 20
625.357143
 30
0.0
 11
629.156163
 21
625.357143
 31
0.0
  0
LINE
  5
67A1
100
AcDbEntity
  8
0
100
AcDbLine
 10
623.5
 20
627.857143
 30
0.0
 11
624.5
 21
627.857143
 31
0.0
  0
LINE
  5
67A8
100
AcDbEntity
  8
0
100
AcDbLine
 10
629.156163
 20
642.857143
 30
0.0
 11
629.156163
 21
650.357143
 31
0.0
  0
LINE
  5
68F0
100
AcDbEntity
  8
0
100
AcDbLine
 10
780.844533
 20
487.269106
 30
0.0
 11
779.545496
 21
488.019106
 31
0.0
  0
LINE
  5
68F1
100
AcDbEntity
  8
0
100
AcDbLine
 10
779.545496
 20
488.019106
 30
0.0
 11
779.545496
 21
502.519106
 31
0.0
  0
LINE
  5
68F2
100
AcDbEntity
  8
0
100
AcDbLine
 10
779.545496
 20
488.019106
 30
0.0
 11
774.483494
 21
488.019106
 31
0.0
  0
LINE
  5
68F3
100
AcDbEntity
  8
0
100
AcDbLine
 10
780.844533
 20
487.269106
 30
0.0
 11
773.857025
 21
487.269106
 31
0.0
  0
LINE
  5
68F4
100
AcDbEntity
  8
0
100
AcDbLine
 10
780.844533
 20
479.969106
 30
0.0
 11
780.844533
 21
487.269106
 31
0.0
  0
LINE
  5
68F5
100
AcDbEntity
  8
0
100
AcDbLine
 10
780.844533
 20
503.269106
 30
0.0
 11
779.545496
 21
502.519106
 31
0.0
  0
LINE
  5
68FA
100
AcDbEntity
  8
0
100
AcDbLine
 10
780.844533
 20
503.269106
 30
0.0
 11
780.844533
 21
508.269106
 31
0.0
  0
LINE
  5
68FB
100
AcDbEntity
  8
0
100
AcDbLine
 10
781.344533
 20
516.469106
 30
0.0
 11
781.344533
 21
508.269106
 31
0.0
  0
LINE
  5
68FC
100
AcDbEntity
  8
0
100
AcDbLine
 10
781.344533
 20
508.269106
 30
0.0
 11
776.344533
 21
508.269106
 31
0.0
  0
LINE
  5
68FD
100
AcDbEntity
  8
0
100
AcDbLine
 10
780.844533
 20
503.269106
 30
0.0
 11
776.344533
 21
503.269106
 31
0.0
  0
LINE
  5
68FE
100
AcDbEntity
  8
0
100
AcDbLine
 10
779.545496
 20
502.519106
 30
0.0
 11
776.344533
 21
502.519106
 31
0.0
  0
ARC
  5
68FF
100
AcDbEntity
  8
0
100
AcDbCircle
 10
748.344533
 20
516.469106
 30
0.0
 40
2.0
100
AcDbArc
 50
90.0
 51
180.0
  0
ARC
  5
6900
100
AcDbEntity
  8
0
100
AcDbCircle
 10
779.344533
 20
516.469106
 30
0.0
 40
2.0
100
AcDbArc
 50
0.0
 51
90.0
  0
LINE
  5
6901
100
AcDbEntity
  8
0
100
AcDbLine
 10
578.5
 20
655.357143
 30
0.0
 11
607.0
 21
655.357143
 31
0.0
  0
LINE
  5
6902
100
AcDbEntity
  8
0
100
AcDbLine
 10
578.5
 20
620.357143
 30
0.0
 11
607.0
 21
620.357143
 31
0.0
  0
ARC
  5
6903
100
AcDbEntity
  8
0
100
AcDbCircle
 10
578.5
 20
653.357143
 30
0.0
 40
2.0
100
AcDbArc
 50
90.0
 51
180.0
  0
ARC
  5
6904
100
AcDbEntity
  8
0
100
AcDbCircle
 10
578.5
 20
622.357143
 30
0.0
 40
2.0
100
AcDbArc
 50
180.0
 51
270.0
  0
LINE
  5
6907
100
AcDbEntity
  8
0
100
AcDbLine
 10
429.405467
 20
357.969106
 30
0.0
 11
429.405467
 21
216.469106
 31
0.0
  0
LINE
  5
6908
100
AcDbEntity
  8
0
100
AcDbLine
 10
418.905467
 20
357.969106
 30
0.0
 11
418.905467
 21
216.469106
 31
0.0
  0
LINE
  5
6909
100
AcDbEntity
  8
0
100
AcDbLine
 10
431.905467
 20
194.469106
 30
0.0
 11
431.905467
 21
306.469106
 31
0.0
  0
LINE
  5
690A
100
AcDbEntity
  8
0
100
AcDbLine
 10
442.405467
 20
194.469106
 30
0.0
 11
442.405467
 21
306.469106
 31
0.0
  0
LINE
  5
690B
100
AcDbEntity
  8
0
100
AcDbLine
 10
439.655467
 20
151.469106
 30
0.0
 11
439.655467
 21
154.469106
 31
0.0
  0
LINE
  5
690C
100
AcDbEntity
  8
0
100
AcDbLine
 10
434.655467
 20
154.469106
 30
0.0
 11
434.655467
 21
151.469106
 31
0.0
  0
LINE
  5
690D
100
AcDbEntity
  8
0
100
AcDbLine
 10
434.655467
 20
151.469106
 30
0.0
 11
439.655467
 21
151.469106
 31
0.0
  0
POINT
  5
690E
100
AcDbEntity
  8
0
  6
BYBLOCK
100
AcDbPoint
 10
439.655467
 20
151.469106
 30
0.0
  0
LINE
  5
690F
100
AcDbEntity
  8
0
100
AcDbLine
 10
427.905467
 20
189.469106
 30
0.0
 11
431.905467
 21
194.469106
 31
0.0
  0
LINE
  5
6910
100
AcDbEntity
  8
0
100
AcDbLine
 10
427.655467
 20
186.469106
 30
0.0
 11
446.655467
 21
186.469106
 31
0.0
  0
LINE
  5
6911
100
AcDbEntity
  8
0
100
AcDbLine
 10
446.405467
 20
189.469106
 30
0.0
 11
427.905467
 21
189.469106
 31
0.0
  0
LINE
  5
6912
100
AcDbEntity
  8
0
100
AcDbLine
 10
428.921119
 20
155.376256
 30
0.0
 11
445.389815
 21
155.376256
 31
0.0
  0
LINE
  5
6913
100
AcDbEntity
  8
0
100
AcDbLine
 10
444.198898
 20
154.469106
 30
0.0
 11
430.112036
 21
154.469106
 31
0.0
  0
LINE
  5
6914
100
AcDbEntity
  8
0
100
AcDbLine
 10
428.384287
 20
172.554859
 30
0.0
 11
445.926647
 21
172.554859
 31
0.0
  0
LINE
  5
6915
100
AcDbEntity
  8
0
100
AcDbLine
 10
427.655467
 20
174.469106
 30
0.0
 11
446.655467
 21
174.469106
 31
0.0
  0
ARC
  5
6916
100
AcDbEntity
  8
0
100
AcDbCircle
 10
432.414647
 20
186.973939
 30
0.0
 40
12.504836
100
AcDbArc
 50
247.629939
 51
292.370061
  0
ARC
  5
6917
100
AcDbEntity
  8
0
100
AcDbCircle
 10
432.414647
 20
173.964274
 30
0.0
 40
12.504836
100
AcDbArc
 50
67.629939
 51
112.370061
  0
LINE
  5
6918
100
AcDbEntity
  8
0
100
AcDbLine
 10
437.155467
 20
185.535598
 30
0.0
 11
437.155467
 21
175.402614
 31
0.0
  0
LINE
  5
6919
100
AcDbEntity
  8
0
100
AcDbLine
 10
446.655467
 20
186.469106
 30
0.0
 11
446.655467
 21
174.469106
 31
0.0
  0
ARC
  5
691A
100
AcDbEntity
  8
0
100
AcDbCircle
 10
441.896286
 20
186.973939
 30
0.0
 40
12.504836
100
AcDbArc
 50
247.629939
 51
292.370061
  0
LINE
  5
691B
100
AcDbEntity
  8
0
100
AcDbLine
 10
445.926647
 20
172.554859
 30
0.0
 11
445.926647
 21
174.466728
 31
0.0
  0
LINE
  5
691C
100
AcDbEntity
  8
0
100
AcDbLine
 10
444.198898
 20
154.469106
 30
0.0
 11
445.389815
 21
155.376256
 31
0.0
  0
LINE
  5
691D
100
AcDbEntity
  8
0
100
AcDbLine
 10
445.926647
 20
172.554859
 30
0.0
 11
445.389815
 21
155.376256
 31
0.0
  0
LINE
  5
691E
100
AcDbEntity
  8
0
100
AcDbLine
 10
446.405467
 20
189.469106
 30
0.0
 11
442.405467
 21
194.469106
 31
0.0
  0
ARC
  5
691F
100
AcDbEntity
  8
0
100
AcDbCircle
 10
441.896286
 20
173.964274
 30
0.0
 40
12.504836
100
AcDbArc
 50
67.629939
 51
112.370061
  0
LINE
  5
6920
100
AcDbEntity
  8
0
100
AcDbLine
 10
446.405467
 20
186.469106
 30
0.0
 11
446.405467
 21
189.469106
 31
0.0
  0
LINE
  5
6921
100
AcDbEntity
  8
0
100
AcDbLine
 10
442.405467
 20
194.469106
 30
0.0
 11
431.905467
 21
194.469106
 31
0.0
  0
LINE
  5
6922
100
AcDbEntity
  8
0
100
AcDbLine
 10
427.655467
 20
186.469106
 30
0.0
 11
427.655467
 21
174.469106
 31
0.0
  0
LINE
  5
6923
100
AcDbEntity
  8
0
100
AcDbLine
 10
428.384287
 20
172.554859
 30
0.0
 11
428.384287
 21
174.466728
 31
0.0
  0
LINE
  5
6924
100
AcDbEntity
  8
0
100
AcDbLine
 10
430.112036
 20
154.469106
 30
0.0
 11
428.921119
 21
155.376256
 31
0.0
  0
LINE
  5
6925
100
AcDbEntity
  8
0
100
AcDbLine
 10
428.384287
 20
172.554859
 30
0.0
 11
428.921119
 21
155.376256
 31
0.0
  0
LINE
  5
6926
100
AcDbEntity
  8
0
100
AcDbLine
 10
427.905467
 20
189.469106
 30
0.0
 11
427.905467
 21
186.469106
 31
0.0
  0
LINE
  5
6927
100
AcDbEntity
  8
0
100
AcDbLine
 10
427.905467
 20
189.469106
 30
0.0
 11
427.905467
 21
189.469106
 31
0.0
  0
LINE
  5
6928
100
AcDbEntity
  8
0
100
AcDbLine
 10
429.405467
 20
216.469106
 30
0.0
 11
431.905467
 21
233.399589
 31
0.0
  0
ARC
  5
6929
100
AcDbEntity
  8
0
100
AcDbCircle
 10
424.155467
 20
216.469106
 30
0.0
 40
5.25
100
AcDbArc
 50
180.0
 51
0.0
  0
ARC
  5
692A
100
AcDbEntity
  8
0
100
AcDbCircle
 10
408.655467
 20
516.469106
 30
0.0
 40
2.0
100
AcDbArc
 50
90.0
 51
180.0
  0
LINE
  5
692B
100
AcDbEntity
  8
0
100
AcDbLine
 10
407.155467
 20
503.269106
 30
0.0
 11
441.155467
 21
503.269106
 31
0.0
  0
LINE
  5
692C
100
AcDbEntity
  8
0
100
AcDbLine
 10
406.655467
 20
508.269106
 30
0.0
 11
441.655467
 21
508.269106
 31
0.0
  0
LINE
  5
692D
100
AcDbEntity
  8
0
100
AcDbLine
 10
407.155467
 20
503.269106
 30
0.0
 11
408.454504
 21
502.519106
 31
0.0
  0
LINE
  5
692E
100
AcDbEntity
  8
0
100
AcDbLine
 10
407.155467
 20
487.269106
 30
0.0
 11
441.155467
 21
487.269106
 31
0.0
  0
LINE
  5
692F
100
AcDbEntity
  8
0
100
AcDbLine
 10
407.155467
 20
487.269106
 30
0.0
 11
408.454504
 21
488.019106
 31
0.0
  0
LINE
  5
6930
100
AcDbEntity
  8
0
100
AcDbLine
 10
441.155467
 20
479.969106
 30
0.0
 11
407.155467
 21
479.969106
 31
0.0
  0
LINE
  5
6931
100
AcDbEntity
  8
0
100
AcDbLine
 10
408.155467
 20
477.469106
 30
0.0
 11
415.655467
 21
477.469106
 31
0.0
  0
ARC
  5
6932
100
AcDbEntity
  8
0
100
AcDbCircle
 10
408.655466
 20
474.969106
 30
0.0
 40
1.0
100
AcDbArc
 50
90.0
 51
180.0
  0
ARC
  5
6933
100
AcDbEntity
  8
0
100
AcDbCircle
 10
408.655466
 20
469.969106
 30
0.0
 40
1.0
100
AcDbArc
 50
180.0
 51
270.0
  0
LINE
  5
6934
100
AcDbEntity
  8
0
100
AcDbLine
 10
408.405467
 20
477.469106
 30
0.0
 11
408.405467
 21
475.937351
 31
0.0
  0
LINE
  5
6935
100
AcDbEntity
  8
0
100
AcDbLine
 10
439.905467
 20
477.469106
 30
0.0
 11
439.905467
 21
475.937351
 31
0.0
  0
ARC
  5
6936
100
AcDbEntity
  8
0
100
AcDbCircle
 10
424.155466
 20
500.80244
 30
0.0
 40
24.833333
100
AcDbArc
 50
249.98404
 51
290.01596
  0
LINE
  5
6938
100
AcDbEntity
  8
0
100
AcDbLine
 10
413.155467
 20
357.969106
 30
0.0
 11
413.155467
 21
381.469106
 31
0.0
  0
LINE
  5
6939
100
AcDbEntity
  8
0
100
AcDbLine
 10
424.155467
 20
380.394561
 30
0.0
 11
424.155467
 21
359.043652
 31
0.0
  0
LINE
  5
693A
100
AcDbEntity
  8
0
100
AcDbLine
 10
435.155467
 20
357.969106
 30
0.0
 11
435.155467
 21
381.469106
 31
0.0
  0
LINE
  5
693B
100
AcDbEntity
  8
0
100
AcDbLine
 10
431.905467
 20
306.469106
 30
0.0
 11
429.405467
 21
289.538623
 31
0.0
  0
ARC
  5
693C
100
AcDbEntity
  8
0
100
AcDbCircle
 10
437.155467
 20
306.469106
 30
0.0
 40
5.25
100
AcDbArc
 50
0.0
 51
180.0
  0
LINE
  5
693D
100
AcDbEntity
  8
0
100
AcDbLine
 10
413.155467
 20
357.969106
 30
0.0
 11
435.155467
 21
357.969106
 31
0.0
  0
ARC
  5
693E
100
AcDbEntity
  8
0
100
AcDbCircle
 10
429.655467
 20
372.65793
 30
0.0
 40
14.683275
100
AcDbArc
 50
248.001901
 51
291.998099
  0
LINE
  5
693F
100
AcDbEntity
  8
0
100
AcDbLine
 10
418.905467
 20
349.469106
 30
0.0
 11
429.405467
 21
349.469106
 31
0.0
  0
ARC
  5
6940
100
AcDbEntity
  8
0
100
AcDbCircle
 10
418.655467
 20
372.65793
 30
0.0
 40
14.683275
100
AcDbArc
 50
248.001901
 51
291.998099
  0
LINE
  5
6941
100
AcDbEntity
  8
0
100
AcDbLine
 10
429.405467
 20
345.469106
 30
0.0
 11
418.905467
 21
345.469106
 31
0.0
  0
LINE
  5
6942
100
AcDbEntity
  8
0
100
AcDbLine
 10
410.655467
 20
423.469106
 30
0.0
 11
410.655467
 21
410.469106
 31
0.0
  0
LINE
  5
6943
100
AcDbEntity
  8
0
100
AcDbLine
 10
424.155467
 20
423.469106
 30
0.0
 11
424.155467
 21
412.201157
 31
0.0
  0
LINE
  5
6944
100
AcDbEntity
  8
0
100
AcDbLine
 10
437.655467
 20
423.469106
 30
0.0
 11
437.655467
 21
410.469106
 31
0.0
  0
LINE
  5
6945
100
AcDbEntity
  8
0
100
AcDbLine
 10
432.905467
 20
407.969106
 30
0.0
 11
424.155467
 21
407.969106
 31
0.0
  0
ARC
  5
6946
100
AcDbEntity
  8
0
100
AcDbCircle
 10
430.905467
 20
424.487893
 30
0.0
 40
14.018786
100
AcDbArc
 50
241.216797
 51
298.783203
  0
LINE
  5
6947
100
AcDbEntity
  8
0
100
AcDbLine
 10
437.655467
 20
410.469106
 30
0.0
 11
410.655467
 21
410.469106
 31
0.0
  0
ARC
  5
6948
100
AcDbEntity
  8
0
100
AcDbCircle
 10
430.905467
 20
393.45032
 30
0.0
 40
14.018786
100
AcDbArc
 50
61.216797
 51
118.783203
  0
LINE
  5
6949
100
AcDbEntity
  8
0
100
AcDbLine
 10
437.655467
 20
407.469106
 30
0.0
 11
410.655467
 21
407.469106
 31
0.0
  0
LINE
  5
694A
100
AcDbEntity
  8
0
100
AcDbLine
 10
415.824467
 20
382.613106
 30
0.0
 11
432.486467
 21
382.613106
 31
0.0
  0
LINE
  5
694B
100
AcDbEntity
  8
0
100
AcDbLine
 10
416.680467
 20
383.469106
 30
0.0
 11
431.630467
 21
383.469106
 31
0.0
  0
ARC
  5
694C
100
AcDbEntity
  8
0
100
AcDbCircle
 10
430.905467
 20
399.487893
 30
0.0
 40
14.018786
100
AcDbArc
 50
241.216797
 51
298.783203
  0
LINE
  5
694D
100
AcDbEntity
  8
0
100
AcDbLine
 10
437.655467
 20
385.469106
 30
0.0
 11
410.655467
 21
385.469106
 31
0.0
  0
LINE
  5
694E
100
AcDbEntity
  8
0
100
AcDbLine
 10
413.155467
 20
381.469106
 30
0.0
 11
435.155467
 21
381.469106
 31
0.0
  0
ARC
  5
694F
100
AcDbEntity
  8
0
100
AcDbCircle
 10
429.655467
 20
366.780283
 30
0.0
 40
14.683275
100
AcDbArc
 50
68.001901
 51
111.998099
  0
LINE
  5
6950
100
AcDbEntity
  8
0
100
AcDbLine
 10
437.655467
 20
407.469106
 30
0.0
 11
437.655467
 21
385.469106
 31
0.0
  0
LINE
  5
6951
100
AcDbEntity
  8
0
100
AcDbLine
 10
432.486467
 20
382.613106
 30
0.0
 11
432.486467
 21
381.469106
 31
0.0
  0
LINE
  5
6952
100
AcDbEntity
  8
0
100
AcDbLine
 10
431.630467
 20
383.469106
 30
0.0
 11
432.486467
 21
382.613106
 31
0.0
  0
LINE
  5
6953
100
AcDbEntity
  8
0
100
AcDbLine
 10
431.630467
 20
385.469106
 30
0.0
 11
431.630467
 21
383.469106
 31
0.0
  0
LINE
  5
6954
100
AcDbEntity
  8
0
100
AcDbLine
 10
432.905467
 20
407.969106
 30
0.0
 11
433.405467
 21
407.469106
 31
0.0
  0
LINE
  5
6955
100
AcDbEntity
  8
0
100
AcDbLine
 10
432.905467
 20
410.469106
 30
0.0
 11
432.905467
 21
407.969106
 31
0.0
  0
POINT
  5
6956
100
AcDbEntity
  8
0
  6
BYBLOCK
100
AcDbPoint
 10
435.552582
 20
410.469106
 30
0.0
  0
LINE
  5
6957
100
AcDbEntity
  8
0
100
AcDbLine
 10
424.155467
 20
405.737056
 30
0.0
 11
424.155467
 21
387.201157
 31
0.0
  0
LINE
  5
6958
100
AcDbEntity
  8
0
100
AcDbLine
 10
410.655467
 20
407.469106
 30
0.0
 11
410.655467
 21
385.469106
 31
0.0
  0
ARC
  5
6959
100
AcDbEntity
  8
0
100
AcDbCircle
 10
417.405467
 20
399.487893
 30
0.0
 40
14.018786
100
AcDbArc
 50
241.216797
 51
298.783203
  0
ARC
  5
695A
100
AcDbEntity
  8
0
100
AcDbCircle
 10
418.655467
 20
366.780283
 30
0.0
 40
14.683275
100
AcDbArc
 50
68.001901
 51
111.998099
  0
POINT
  5
695B
100
AcDbEntity
  8
0
  6
BYBLOCK
100
AcDbPoint
 10
425.655467
 20
385.469106
 30
0.0
  0
LINE
  5
695C
100
AcDbEntity
  8
0
100
AcDbLine
 10
415.824467
 20
382.613106
 30
0.0
 11
415.824467
 21
381.469106
 31
0.0
  0
LINE
  5
695D
100
AcDbEntity
  8
0
100
AcDbLine
 10
416.680467
 20
385.469106
 30
0.0
 11
416.680467
 21
383.469106
 31
0.0
  0
LINE
  5
695E
100
AcDbEntity
  8
0
100
AcDbLine
 10
416.680467
 20
383.469106
 30
0.0
 11
415.824467
 21
382.613106
 31
0.0
  0
LINE
  5
695F
100
AcDbEntity
  8
0
100
AcDbLine
 10
415.405467
 20
407.969106
 30
0.0
 11
424.155467
 21
407.969106
 31
0.0
  0
ARC
  5
6960
100
AcDbEntity
  8
0
100
AcDbCircle
 10
417.405467
 20
424.487893
 30
0.0
 40
14.018786
100
AcDbArc
 50
241.216797
 51
298.783203
  0
ARC
  5
6961
100
AcDbEntity
  8
0
100
AcDbCircle
 10
417.405467
 20
393.45032
 30
0.0
 40
14.018786
100
AcDbArc
 50
61.216797
 51
118.783203
  0
POINT
  5
6962
100
AcDbEntity
  8
0
  6
BYBLOCK
100
AcDbPoint
 10
425.655467
 20
410.469106
 30
0.0
  0
LINE
  5
6963
100
AcDbEntity
  8
0
100
AcDbLine
 10
415.405467
 20
407.969106
 30
0.0
 11
414.905467
 21
407.469106
 31
0.0
  0
LINE
  5
6964
100
AcDbEntity
  8
0
100
AcDbLine
 10
415.405467
 20
407.969106
 30
0.0
 11
415.405467
 21
410.469106
 31
0.0
  0
LINE
  5
6965
100
AcDbEntity
  8
0
100
AcDbLine
 10
439.655467
 20
475.969106
 30
0.0
 11
408.655467
 21
475.969106
 31
0.0
  0
LINE
  5
6966
100
AcDbEntity
  8
0
100
AcDbLine
 10
408.655467
 20
468.969106
 30
0.0
 11
439.655467
 21
468.969106
 31
0.0
  0
LINE
  5
6967
100
AcDbEntity
  8
0
100
AcDbLine
 10
408.567009
 20
423.469106
 30
0.0
 11
439.743924
 21
423.469106
 31
0.0
  0
LINE
  5
6968
100
AcDbEntity
  8
0
100
AcDbLine
 10
439.743924
 20
430.469106
 30
0.0
 11
408.567009
 21
430.469106
 31
0.0
  0
LINE
  5
6969
100
AcDbEntity
  8
0
100
AcDbLine
 10
439.743924
 20
468.969106
 30
0.0
 11
439.743924
 21
423.469106
 31
0.0
  0
POINT
  5
696A
100
AcDbEntity
  8
0
  6
BYBLOCK
100
AcDbPoint
 10
439.743924
 20
423.469106
 30
0.0
  0
POINT
  5
696B
100
AcDbEntity
  8
0
  6
BYBLOCK
100
AcDbPoint
 10
439.743924
 20
423.469106
 30
0.0
  0
POINT
  5
696C
100
AcDbEntity
  8
0
  6
BYBLOCK
100
AcDbPoint
 10
439.743924
 20
423.469106
 30
0.0
  0
POINT
  5
696D
100
AcDbEntity
  8
0
  6
BYBLOCK
100
AcDbPoint
 10
439.743924
 20
423.469106
 30
0.0
  0
POINT
  5
696E
100
AcDbEntity
  8
0
  6
BYBLOCK
100
AcDbPoint
 10
439.743924
 20
423.469106
 30
0.0
  0
POINT
  5
696F
100
AcDbEntity
  8
0
  6
BYBLOCK
100
AcDbPoint
 10
439.743924
 20
423.469106
 30
0.0
  0
POINT
  5
6970
100
AcDbEntity
  8
0
  6
BYBLOCK
100
AcDbPoint
 10
439.155467
 20
423.469106
 30
0.0
  0
ARC
  5
6971
100
AcDbEntity
  8
0
100
AcDbCircle
 10
439.655466
 20
474.969106
 30
0.0
 40
1.0
100
AcDbArc
 50
0.0
 51
90.0
  0
ARC
  5
6972
100
AcDbEntity
  8
0
100
AcDbCircle
 10
439.655466
 20
469.969106
 30
0.0
 40
1.0
100
AcDbArc
 50
270.0
 51
0.0
  0
LINE
  5
6973
100
AcDbEntity
  8
0
100
AcDbLine
 10
440.655467
 20
469.969106
 30
0.0
 11
440.655467
 21
474.969106
 31
0.0
  0
LINE
  5
6974
100
AcDbEntity
  8
0
100
AcDbLine
 10
408.567009
 20
468.969106
 30
0.0
 11
408.567009
 21
423.469106
 31
0.0
  0
LINE
  5
6975
100
AcDbEntity
  8
0
100
AcDbLine
 10
439.655467
 20
518.469106
 30
0.0
 11
408.655467
 21
518.469106
 31
0.0
  0
LINE
  5
697B
100
AcDbEntity
  8
0
100
AcDbLine
 10
441.155467
 20
503.269106
 30
0.0
 11
439.856429
 21
502.519106
 31
0.0
  0
LINE
  5
697D
100
AcDbEntity
  8
0
100
AcDbLine
 10
441.155467
 20
487.269106
 30
0.0
 11
439.856429
 21
488.019106
 31
0.0
  0
LINE
  5
697E
100
AcDbEntity
  8
0
100
AcDbLine
 10
439.856429
 20
488.019106
 30
0.0
 11
439.856429
 21
502.519106
 31
0.0
  0
LINE
  5
6982
100
AcDbEntity
  8
0
100
AcDbLine
 10
432.655467
 20
477.469106
 30
0.0
 11
440.155467
 21
477.469106
 31
0.0
  0
POINT
  5
6983
100
AcDbEntity
  8
0
  6
BYBLOCK
100
AcDbPoint
 10
441.155467
 20
479.969106
 30
0.0
  0
POINT
  5
6984
100
AcDbEntity
  8
0
  6
BYBLOCK
100
AcDbPoint
 10
441.155467
 20
479.969106
 30
0.0
  0
POINT
  5
6985
100
AcDbEntity
  8
0
  6
BYBLOCK
100
AcDbPoint
 10
441.155467
 20
479.969106
 30
0.0
  0
POINT
  5
6986
100
AcDbEntity
  8
0
  6
BYBLOCK
100
AcDbPoint
 10
441.155467
 20
479.969106
 30
0.0
  0
LINE
  5
6987
100
AcDbEntity
  8
0
100
AcDbLine
 10
440.155467
 20
479.969106
 30
0.0
 11
440.155467
 21
477.469106
 31
0.0
  0
LINE
  5
6988
100
AcDbEntity
  8
0
100
AcDbLine
 10
432.655467
 20
477.469106
 30
0.0
 11
432.655467
 21
479.969106
 31
0.0
  0
LINE
  5
6989
100
AcDbEntity
  8
0
100
AcDbLine
 10
441.155467
 20
479.969106
 30
0.0
 11
441.155467
 21
487.269106
 31
0.0
  0
ARC
  5
698A
100
AcDbEntity
  8
0
100
AcDbCircle
 10
439.655467
 20
516.469106
 30
0.0
 40
2.0
100
AcDbArc
 50
0.0
 51
90.0
  0
LINE
  5
698B
100
AcDbEntity
  8
0
100
AcDbLine
 10
441.655467
 20
516.469106
 30
0.0
 11
441.655467
 21
508.269106
 31
0.0
  0
LINE
  5
698C
100
AcDbEntity
  8
0
100
AcDbLine
 10
441.155467
 20
503.269106
 30
0.0
 11
441.155467
 21
508.269106
 31
0.0
  0
LINE
  5
6992
100
AcDbEntity
  8
0
100
AcDbLine
 10
408.454504
 20
502.519106
 30
0.0
 11
439.856429
 21
502.519106
 31
0.0
  0
LINE
  5
6993
100
AcDbEntity
  8
0
100
AcDbLine
 10
408.454504
 20
488.019106
 30
0.0
 11
439.856429
 21
488.019106
 31
0.0
  0
LINE
  5
6994
100
AcDbEntity
  8
0
100
AcDbLine
 10
408.454504
 20
488.019106
 30
0.0
 11
408.454504
 21
502.519106
 31
0.0
  0
LINE
  5
6995
100
AcDbEntity
  8
0
100
AcDbLine
 10
415.655467
 20
477.469106
 30
0.0
 11
415.655467
 21
479.969106
 31
0.0
  0
LINE
  5
6998
100
AcDbEntity
  8
0
100
AcDbLine
 10
407.655467
 20
474.969106
 30
0.0
 11
407.655467
 21
469.969106
 31
0.0
  0
LINE
  5
6999
100
AcDbEntity
  8
0
100
AcDbLine
 10
407.155467
 20
479.969106
 30
0.0
 11
407.155467
 21
487.269106
 31
0.0
  0
LINE
  5
699A
100
AcDbEntity
  8
0
100
AcDbLine
 10
408.155467
 20
479.969106
 30
0.0
 11
408.155467
 21
477.469106
 31
0.0
  0
LINE
  5
699F
100
AcDbEntity
  8
0
100
AcDbLine
 10
406.655467
 20
516.469106
 30
0.0
 11
406.655467
 21
508.269106
 31
0.0
  0
LINE
  5
69A0
100
AcDbEntity
  8
0
100
AcDbLine
 10
407.155467
 20
503.269106
 30
0.0
 11
407.155467
 21
508.269106
 31
0.0
  0
LINE
  5
69A1
100
AcDbEntity
  8
0
100
AcDbLine
 10
643.5
 20
627.857143
 30
0.0
 11
648.5
 21
627.857143
 31
0.0
  0
LINE
  5
69A2
100
AcDbEntity
  8
0
100
AcDbLine
 10
643.5
 20
632.357143
 30
0.0
 11
648.5
 21
632.357143
 31
0.0
  0
LINE
  5
69A3
100
AcDbEntity
  8
0
100
AcDbLine
 10
643.5
 20
631.357143
 30
0.0
 11
648.5
 21
631.357143
 31
0.0
  0
LINE
  5
69A4
100
AcDbEntity
  8
0
100
AcDbLine
 10
643.5
 20
629.857143
 30
0.0
 11
648.5
 21
629.857143
 31
0.0
  0
LINE
  5
69A5
100
AcDbEntity
  8
0
100
AcDbLine
 10
643.5
 20
634.857143
 30
0.0
 11
648.5
 21
634.857143
 31
0.0
  0
LINE
  5
69A6
100
AcDbEntity
  8
0
100
AcDbLine
 10
643.5
 20
640.857143
 30
0.0
 11
648.5
 21
640.857143
 31
0.0
  0
LINE
  5
69A7
100
AcDbEntity
  8
0
100
AcDbLine
 10
643.5
 20
643.357143
 30
0.0
 11
648.5
 21
643.357143
 31
0.0
  0
LINE
  5
69A8
100
AcDbEntity
  8
0
100
AcDbLine
 10
643.5
 20
644.357143
 30
0.0
 11
648.5
 21
644.357143
 31
0.0
  0
LINE
  5
69A9
100
AcDbEntity
  8
0
100
AcDbLine
 10
643.5
 20
645.857143
 30
0.0
 11
648.5
 21
645.857143
 31
0.0
  0
LINE
  5
69AA
100
AcDbEntity
  8
0
100
AcDbLine
 10
643.5
 20
647.857143
 30
0.0
 11
648.5
 21
647.857143
 31
0.0
  0
LINE
  5
69B7
100
AcDbEntity
  8
0
100
AcDbLine
 10
748.143571
 20
488.019106
 30
0.0
 11
748.143571
 21
502.519106
 31
0.0
  0
LINE
  5
69B8
100
AcDbEntity
  8
0
100
AcDbLine
 10
748.143571
 20
488.019106
 30
0.0
 11
748.143571
 21
502.519106
 31
0.0
  0
LINE
  5
6A1B
100
AcDbEntity
  8
0
100
AcDbLine
 10
754.844533
 20
509.769106
 30
0.0
 11
761.844533
 21
509.769106
 31
0.0
  0
LINE
  5
6A1D
100
AcDbEntity
  8
0
100
AcDbLine
 10
761.844533
 20
513.769106
 30
0.0
 11
761.844533
 21
509.769106
 31
0.0
  0
LINE
  5
6A1E
100
AcDbEntity
  8
0
100
AcDbLine
 10
765.844533
 20
513.769106
 30
0.0
 11
765.844533
 21
509.769106
 31
0.0
  0
LINE
  5
6A1F
100
AcDbEntity
  8
0
100
AcDbLine
 10
754.844533
 20
513.769106
 30
0.0
 11
754.844533
 21
509.769106
 31
0.0
  0
LINE
  5
6A20
100
AcDbEntity
  8
0
100
AcDbLine
 10
772.844533
 20
513.769106
 30
0.0
 11
772.844533
 21
509.769106
 31
0.0
  0
LINE
  5
6A21
100
AcDbEntity
  8
0
100
AcDbLine
 10
754.844533
 20
512.814521
 30
0.0
 11
761.844533
 21
512.814521
 31
0.0
  0
LINE
  5
6A22
100
AcDbEntity
  8
0
100
AcDbLine
 10
765.844533
 20
513.769106
 30
0.0
 11
772.844533
 21
513.769106
 31
0.0
  0
LINE
  5
6A23
100
AcDbEntity
  8
0
100
AcDbLine
 10
765.844533
 20
512.814521
 30
0.0
 11
772.844533
 21
512.814521
 31
0.0
  0
LINE
  5
6A24
100
AcDbEntity
  8
0
100
AcDbLine
 10
765.844533
 20
509.769106
 30
0.0
 11
772.844533
 21
509.769106
 31
0.0
  0
CIRCLE
  5
6D33
100
AcDbEntity
  8
0
100
AcDbCircle
 10
763.844533
 20
496.269106
 30
0.0
 40
6.0
  0
LINE
  5
6D48
100
AcDbEntity
  8
0
100
AcDbLine
 10
748.143571
 20
500.119106
 30
0.0
 11
747.493571
 21
499.619106
 31
0.0
  0
LINE
  5
6D49
100
AcDbEntity
  8
0
100
AcDbLine
 10
747.493571
 20
499.619106
 30
0.0
 11
748.143571
 21
499.119106
 31
0.0
  0
LINE
  5
6D4A
100
AcDbEntity
  8
0
100
AcDbLine
 10
748.143571
 20
497.219106
 30
0.0
 11
747.493571
 21
496.719106
 31
0.0
  0
LINE
  5
6D4B
100
AcDbEntity
  8
0
100
AcDbLine
 10
747.493571
 20
496.719106
 30
0.0
 11
748.143571
 21
496.219106
 31
0.0
  0
LINE
  5
6D4C
100
AcDbEntity
  8
0
100
AcDbLine
 10
748.143571
 20
494.319106
 30
0.0
 11
747.493571
 21
493.819106
 31
0.0
  0
LINE
  5
6D4D
100
AcDbEntity
  8
0
100
AcDbLine
 10
747.493571
 20
493.819106
 30
0.0
 11
748.143571
 21
493.319106
 31
0.0
  0
LINE
  5
6D4E
100
AcDbEntity
  8
0
100
AcDbLine
 10
748.143571
 20
491.419106
 30
0.0
 11
747.493571
 21
490.919106
 31
0.0
  0
LINE
  5
6D4F
100
AcDbEntity
  8
0
100
AcDbLine
 10
747.493571
 20
490.919106
 30
0.0
 11
748.143571
 21
490.419106
 31
0.0
  0
LINE
  5
6D51
100
AcDbEntity
  8
0
100
AcDbLine
 10
780.195496
 20
490.919106
 30
0.0
 11
779.545496
 21
490.419106
 31
0.0
  0
LINE
  5
6D52
100
AcDbEntity
  8
0
100
AcDbLine
 10
779.545496
 20
491.419106
 30
0.0
 11
780.195496
 21
490.919106
 31
0.0
  0
LINE
  5
6D53
100
AcDbEntity
  8
0
100
AcDbLine
 10
780.195496
 20
493.819106
 30
0.0
 11
779.545496
 21
493.319106
 31
0.0
  0
LINE
  5
6D54
100
AcDbEntity
  8
0
100
AcDbLine
 10
779.545496
 20
494.319106
 30
0.0
 11
780.195496
 21
493.819106
 31
0.0
  0
LINE
  5
6D55
100
AcDbEntity
  8
0
100
AcDbLine
 10
780.195496
 20
496.719106
 30
0.0
 11
779.545496
 21
496.219106
 31
0.0
  0
LINE
  5
6D56
100
AcDbEntity
  8
0
100
AcDbLine
 10
779.545496
 20
497.219106
 30
0.0
 11
780.195496
 21
496.719106
 31
0.0
  0
LINE
  5
6D57
100
AcDbEntity
  8
0
100
AcDbLine
 10
780.195496
 20
499.619106
 30
0.0
 11
779.545496
 21
499.119106
 31
0.0
  0
LINE
  5
6D58
100
AcDbEntity
  8
0
100
AcDbLine
 10
779.545496
 20
500.119106
 30
0.0
 11
780.195496
 21
499.619106
 31
0.0
  0
LINE
  5
6D59
100
AcDbEntity
  8
0
100
AcDbLine
 10
407.804504
 20
490.919106
 30
0.0
 11
408.454504
 21
490.419106
 31
0.0
  0
LINE
  5
6D5A
100
AcDbEntity
  8
0
100
AcDbLine
 10
408.454504
 20
491.419106
 30
0.0
 11
407.804504
 21
490.919106
 31
0.0
  0
LINE
  5
6D5B
100
AcDbEntity
  8
0
100
AcDbLine
 10
407.804504
 20
493.819106
 30
0.0
 11
408.454504
 21
493.319106
 31
0.0
  0
LINE
  5
6D5C
100
AcDbEntity
  8
0
100
AcDbLine
 10
408.454504
 20
494.319106
 30
0.0
 11
407.804504
 21
493.819106
 31
0.0
  0
LINE
  5
6D5D
100
AcDbEntity
  8
0
100
AcDbLine
 10
407.804504
 20
496.719106
 30
0.0
 11
408.454504
 21
496.219106
 31
0.0
  0
LINE
  5
6D5E
100
AcDbEntity
  8
0
100
AcDbLine
 10
408.454504
 20
497.219106
 30
0.0
 11
407.804504
 21
496.719106
 31
0.0
  0
LINE
  5
6D5F
100
AcDbEntity
  8
0
100
AcDbLine
 10
407.804504
 20
499.619106
 30
0.0
 11
408.454504
 21
499.119106
 31
0.0
  0
LINE
  5
6D60
100
AcDbEntity
  8
0
100
AcDbLine
 10
408.454504
 20
500.119106
 30
0.0
 11
407.804504
 21
499.619106
 31
0.0
  0
LINE
  5
6D61
100
AcDbEntity
  8
0
100
AcDbLine
 10
439.856429
 20
500.119106
 30
0.0
 11
440.506429
 21
499.619106
 31
0.0
  0
LINE
  5
6D62
100
AcDbEntity
  8
0
100
AcDbLine
 10
440.506429
 20
499.619106
 30
0.0
 11
439.856429
 21
499.119106
 31
0.0
  0
LINE
  5
6D63
100
AcDbEntity
  8
0
100
AcDbLine
 10
439.856429
 20
497.219106
 30
0.0
 11
440.506429
 21
496.719106
 31
0.0
  0
LINE
  5
6D64
100
AcDbEntity
  8
0
100
AcDbLine
 10
440.506429
 20
496.719106
 30
0.0
 11
439.856429
 21
496.219106
 31
0.0
  0
LINE
  5
6D65
100
AcDbEntity
  8
0
100
AcDbLine
 10
439.856429
 20
494.319106
 30
0.0
 11
440.506429
 21
493.819106
 31
0.0
  0
LINE
  5
6D66
100
AcDbEntity
  8
0
100
AcDbLine
 10
440.506429
 20
493.819106
 30
0.0
 11
439.856429
 21
493.319106
 31
0.0
  0
LINE
  5
6D67
100
AcDbEntity
  8
0
100
AcDbLine
 10
439.856429
 20
491.419106
 30
0.0
 11
440.506429
 21
490.919106
 31
0.0
  0
LINE
  5
6D68
100
AcDbEntity
  8
0
100
AcDbLine
 10
440.506429
 20
490.919106
 30
0.0
 11
439.856429
 21
490.419106
 31
0.0
  0
INSERT
  5
6D94
100
AcDbEntity
  8
0
100
AcDbBlockReference
  2
00000
 10
0.0
 20
0.0
 30
0.0
  0
VIEWPORT
  5
41
100
AcDbEntity
 67
     1
  8
0
100
AcDbViewport
 10
117.358407
 20
73.5
 30
0.0
 40
234.716814
 41
147.0
 68
    -1
 69
     1
1001
ACAD
1000
MVIEW
1002
{
1070
    16
1010
0.0
1020
0.0
1030
0.0
1010
0.0
1020
0.0
1030
1.0
1040
0.0
1040
147.0
1040
117.358407
1040
73.5
1040
50.0
1040
0.0
1040
0.0
1070
     0
1070
   100
1070
     1
1070
     1
1070
     0
1070
     0
1070
     0
1070
     0
1040
0.0
1040
0.0
1040
0.0
1040
1.0
1040
1.0
1040
0.0
1040
0.0
1070
     0
1002
{
1002
}
1002
}
  0
ENDSEC
  0
SECTION
  2
OBJECTS
  0
DICTIONARY
  5
C
100
AcDbDictionary
  3
ACAD_GROUP
350
D
  3
ACAD_MLINESTYLE
350
E
  0
DICTIONARY
  5
D
102
{ACAD_REACTORS
330
C
102
}
100
AcDbDictionary
  0
DICTIONARY
  5
E
102
{ACAD_REACTORS
330
C
102
}
100
AcDbDictionary
  3
STANDARD
350
1B
  0
MLINESTYLE
  5
1B
102
{ACAD_REACTORS
330
E
102
}
100
AcDbMlineStyle
  2
STANDARD
 70
     0
  3

 62
     0
 51
90.0
 52
90.0
 71
     2
 49
0.5
 62
   256
  6
BYLAYER
 49
-0.5
 62
   256
  6
BYLAYER
  0
ENDSEC
  0
EOF
