  0
SECTION
  2
HEADER
  9
$ACADVER
  1
AC1009
  9
$INSBASE
 10
0.0
 20
0.0
 30
0.0
  9
$EXTMIN
 10
77.0
 20
35.0
 30
0.0
  9
$EXTMAX
 10
2002.0
 20
1337.0
 30
0.0
  9
$LIMMIN
 10
0.0
 20
0.0
  9
$LIMMAX
 10
2079.0
 20
1470.0
  9
$ORTHOMODE
 70
     1
  9
$REGENMODE
 70
     1
  9
$FILLMODE
 70
     1
  9
$QTEXTMODE
 70
     0
  9
$MIRRTEXT
 70
     1
  9
$DRAGMODE
 70
     2
  9
$LTSCALE
 40
28.0
  9
$OSMODE
 70
   163
  9
$ATTMODE
 70
     1
  9
$TEXTSIZE
 40
28.0
  9
$TRACEWID
 40
0.05
  9
$TEXTSTYLE
  7
STANDARD
  9
$CLAYER
  8
0
  9
$CELTYPE
  6
BYLAYER
  9
$CECOLOR
 62
   256
  9
$DIMSCALE
 40
7.0
  9
$DIMASZ
 40
2.7999999999999989
  9
$DIMEXO
 40
1.0
  9
$DIMDLI
 40
5.0
  9
$DIMRND
 40
0.1
  9
$DIMDLE
 40
0.0
  9
$DIMEXE
 40
1.0
  9
$DIMTP
 40
0.0
  9
$DIMTM
 40
0.0
  9
$DIMTXT
 40
2.5
  9
$DIMCEN
 40
0.0
  9
$DIMTSZ
 40
0.0
  9
$DIMTOL
 70
     0
  9
$DIMLIM
 70
     0
  9
$DIMTIH
 70
     0
  9
$DIMTOH
 70
     0
  9
$DIMSE1
 70
     0
  9
$DIMSE2
 70
     0
  9
$DIMTAD
 70
     3
  9
$DIMZIN
 70
     8
  9
$DIMBLK
  1

  9
$DIMASO
 70
     1
  9
$DIMSHO
 70
     1
  9
$DIMPOST
  1

  9
$DIMAPOST
  1

  9
$DIMALT
 70
     0
  9
$DIMALTD
 70
     2
  9
$DIMALTF
 40
1.0
  9
$DIMLFAC
 40
1.0
  9
$DIMTOFL
 70
     1
  9
$DIMTVP
 40
0.0
  9
$DIMTIX
 70
     0
  9
$DIMSOXD
 70
     0
  9
$DIMSAH
 70
     1
  9
$DIMBLK1
  1
OPEN
  9
$DIMBLK2
  1
OPEN
  9
$DIMSTYLE
  2
DIM1
  9
$DIMCLRD
 70
     2
  9
$DIMCLRE
 70
     2
  9
$DIMCLRT
 70
     2
  9
$DIMTFAC
 40
0.7
  9
$DIMGAP
 40
0.85
  9
$LUNITS
 70
     2
  9
$LUPREC
 70
     4
  9
$SKETCHINC
 40
0.1
  9
$FILLETRAD
 40
0.0
  9
$AUNITS
 70
     0
  9
$AUPREC
 70
     0
  9
$MENU
  1
C:\ACADR13\WIN\SUPPORT\ACAD.mnc
  9
$ELEVATION
 40
0.0
  9
$PELEVATION
 40
0.0
  9
$THICKNESS
 40
0.0
  9
$LIMCHECK
 70
     0
  9
$BLIPMODE
 70
     0
  9
$CHAMFERA
 40
0.0
  9
$CHAMFERB
 40
0.0
  9
$SKPOLY
 70
     0
  9
$TDCREATE
 40
2451564.3677891549
  9
$TDUPDATE
 40
2455615.545888959
  9
$TDINDWG
 40
0.4654023843
  9
$TDUSRTIMER
 40
0.4654023843
  9
$USRTIMER
 70
     1
  9
$ANGBASE
 50
0.0
  9
$ANGDIR
 70
     0
  9
$PDMODE
 70
     0
  9
$PDSIZE
 40
0.0
  9
$PLINEWID
 40
0.0
  9
$COORDS
 70
     0
  9
$SPLFRAME
 70
     0
  9
$SPLINETYPE
 70
     6
  9
$SPLINESEGS
 70
     8
  9
$ATTDIA
 70
     0
  9
$ATTREQ
 70
     1
  9
$HANDLING
 70
     1
  9
$HANDSEED
  5
586A
  9
$SURFTAB1
 70
     6
  9
$SURFTAB2
 70
     6
  9
$SURFTYPE
 70
     6
  9
$SURFU
 70
     6
  9
$SURFV
 70
     6
  9
$UCSNAME
  2

  9
$UCSORG
 10
0.0
 20
0.0
 30
0.0
  9
$UCSXDIR
 10
1.0
 20
0.0
 30
0.0
  9
$UCSYDIR
 10
0.0
 20
1.0
 30
0.0
  9
$PUCSNAME
  2

  9
$PUCSORG
 10
0.0
 20
0.0
 30
0.0
  9
$PUCSXDIR
 10
1.0
 20
0.0
 30
0.0
  9
$PUCSYDIR
 10
0.0
 20
1.0
 30
0.0
  9
$USERI1
 70
     0
  9
$USERI2
 70
     0
  9
$USERI3
 70
     0
  9
$USERI4
 70
     0
  9
$USERI5
 70
     0
  9
$USERR1
 40
0.0
  9
$USERR2
 40
0.0
  9
$USERR3
 40
0.0
  9
$USERR4
 40
0.0
  9
$USERR5
 40
0.0
  9
$WORLDVIEW
 70
     1
  9
$SHADEDGE
 70
     3
  9
$SHADEDIF
 70
    70
  9
$TILEMODE
 70
     1
  9
$MAXACTVP
 70
    16
  9
$PLIMCHECK
 70
     0
  9
$PEXTMIN
 10
1.0000000000000000E+020
 20
1.0000000000000000E+020
 30
1.0000000000000000E+020
  9
$PEXTMAX
 10
-1.0000000000000000E+020
 20
-1.0000000000000000E+020
 30
-1.0000000000000000E+020
  9
$PLIMMIN
 10
0.0
 20
0.0
  9
$PLIMMAX
 10
20.0
 20
147.0
  9
$UNITMODE
 70
     0
  9
$VISRETAIN
 70
     0
  9
$PLINEGEN
 70
     0
  9
$PSLTSCALE
 70
     1
  0
ENDSEC
  0
SECTION
  2
TABLES
  0
TABLE
  2
VPORT
 70
     1
  0
VPORT
  2
*ACTIVE
 70
     0
 10
0.0
 20
0.0
 11
1.0
 21
1.0
 12
1039.5
 22
735.00000000000011
 13
0.0
 23
0.0
 14
1.0
 24
1.0
 15
0.0
 25
0.0
 16
0.0
 26
0.0
 36
1.0
 17
0.0
 27
0.0
 37
0.0
 40
1610.236880492728
 41
1.299065420560747
 42
50.0
 43
0.0
 44
0.0
 50
0.0
 51
0.0
 71
     0
 72
   100
 73
     1
 74
     1
 75
     0
 76
     0
 77
     0
 78
     0
  0
ENDTAB
  0
TABLE
  2
LTYPE
 70
     1
  0
LTYPE
  2
CONTINUOUS
 70
     0
  3
Solid line
 72
    65
 73
     0
 40
0.0
  0
ENDTAB
  0
TABLE
  2
LAYER
 70
     1
  0
LAYER
  2
0
 70
     0
 62
     7
  6
CONTINUOUS
  0
ENDTAB
  0
TABLE
  2
STYLE
 70
     3
  0
STYLE
  2
STANDARD
 70
     0
 40
0.0
 41
0.8
 50
0.0
 71
     0
 42
28.0
  3
simplex
  4
extfont
  0
STYLE
  2
PTSH
 70
     0
 40
0.0
 41
0.9
 50
0.0
 71
     0
 42
4.0
  3
SIMPLEX
  4
EXTFONT
  0
STYLE
  2
DIM
 70
     0
 40
0.0
 41
0.8
 50
0.0
 71
     0
 42
4.0
  3
simplex
  4
extfont
  0
ENDTAB
  0
TABLE
  2
VIEW
 70
     0
  0
ENDTAB
  0
TABLE
  2
UCS
 70
     0
  0
ENDTAB
  0
TABLE
  2
APPID
 70
     4
  0
APPID
  2
ACAD
 70
     0
  0
APPID
  2
ACAD_MLEADERVER
 70
     0
  0
APPID
  2
ACAD_PSEXT
 70
     0
  0
APPID
  2
ACAD_EXEMPT_FROM_CAD_STANDARDS
 70
     0
  0
ENDTAB
  0
TABLE
  2
DIMSTYLE
 70
     1
  0
DIMSTYLE
  2
DIM1
 70
     0
  3

  4

  5

  6
OPEN
  7
OPEN
 40
7.0
 41
2.7999999999999989
 42
1.0
 43
5.0
 44
1.0
 45
0.1
 46
0.0
 47
0.0
 48
0.0
140
2.5
141
0.0
142
0.0
143
1.0
144
1.0
145
0.0
146
0.7
147
0.85
 71
     0
 72
     0
 73
     0
 74
     0
 75
     0
 76
     0
 77
     3
 78
     8
170
     0
171
     2
172
     1
173
     1
174
     0
175
     0
176
     2
177
     2
178
     2
  0
ENDTAB
  0
ENDSEC
  0
SECTION
  2
BLOCKS
  0
BLOCK
  8
0
  2
$MODEL_SPACE
 70
     0
 10
0.0
 20
0.0
 30
0.0
  3
$MODEL_SPACE
  1

  0
ENDBLK
  5
3D
  8
0
  0
BLOCK
 67
     1
  8
0
  2
$PAPER_SPACE
 70
     0
 10
0.0
 20
0.0
 30
0.0
  3
$PAPER_SPACE
  1

  0
ENDBLK
  5
3B
 67
     1
  8
0
  0
BLOCK
  8
0
  2
_OPEN
 70
     0
 10
0.0
 20
0.0
 30
0.0
  3
_OPEN
  1
H1111.DWG
  0
LINE
  5
244A
  8
0
  6
BYBLOCK
 62
     0
 10
-1.0
 20
0.1666666666666666
 30
0.0
 11
0.0
 21
0.0
 31
0.0
  0
LINE
  5
244B
  8
0
  6
BYBLOCK
 62
     0
 10
0.0
 20
0.0
 30
0.0
 11
-1.0
 21
-0.1666666666666666
 31
0.0
  0
LINE
  5
244C
  8
0
  6
BYBLOCK
 62
     0
 10
0.0
 20
0.0
 30
0.0
 11
-1.0
 21
0.0
 31
0.0
  0
ENDBLK
  5
244D
  8
0
  0
ENDSEC
  0
SECTION
  2
ENTITIES
  0
TEXT
  5
2529
  8
0
  6
CONTINUOUS
 10
1818.5
 20
47.32388710294299
 30
0.0
 40
21.0
  1
P46SRW-F
 41
0.9
  7
PTSH
 72
     2
 11
1967.0
 21
57.82388710294299
 31
0.0
 73
     2
  0
POLYLINE
  5
2563
  8
0
 66
     1
 10
0.0
 20
0.0
 30
0.0
 70
     1
  0
VERTEX
  5
3776
  8
0
 10
77.0
 20
35.0
 30
0.0
  0
VERTEX
  5
3777
  8
0
 10
2002.0
 20
35.0
 30
0.0
  0
VERTEX
  5
3778
  8
0
 10
2002.0
 20
1337.0
 30
0.0
  0
VERTEX
  5
3779
  8
0
 10
77.0
 20
1337.0
 30
0.0
  0
SEQEND
  5
377A
  8
0
  0
TEXT
  5
3151
  8
0
 10
794.48981980425924
 20
97.075446799743077
 30
0.0
 40
24.5
  1
TLV  P46SRW (JIS20K)
  0
LINE
  5
3154
  8
0
 10
709.85666295306089
 20
469.6855780811922
 30
0.0
 11
679.57425927531631
 21
467.29284275367309
 31
0.0
  0
LINE
  5
3155
  8
0
 10
679.57425927531676
 20
421.39447398756778
 30
0.0
 11
709.85653744459432
 21
419.0027076560371
 31
0.0
  0
LINE
  5
3156
  8
0
 10
709.85666295306055
 20
277.45401799396302
 30
0.0
 11
679.57425927531631
 21
275.06128266644328
 31
0.0
  0
LINE
  5
3157
  8
0
 10
679.57425927531676
 20
229.162913900338
 30
0.0
 11
709.85653744459376
 21
226.77114756880769
 31
0.0
  0
ARC
  5
3158
  8
0
 10
390.28671441960341
 20
961.60945232519998
 30
0.0
 40
5.5
 50
90.000000000000057
 51
180.0
  0
CIRCLE
  5
3159
  8
0
 10
386.21690926620892
 20
936.92925747859442
 30
0.0
 40
7.5
  0
CIRCLE
  5
315A
  8
0
 10
386.21690926620892
 20
873.28964717180554
 30
0.0
 40
7.5
  0
CIRCLE
  5
315B
  8
0
 10
418.03671441960341
 20
905.10945232519998
 30
0.0
 40
62.5
  0
TEXT
  5
3167
  8
0
 10
1328.9729249306949
 20
785.40119137100407
 30
0.0
 40
17.5
  1
32
 41
0.8
 72
     4
 11
1340.3062582640291
 21
794.15119137100419
 31
0.0
  0
CIRCLE
  5
3174
  8
0
 10
1145.890872134712
 20
940.93339106453686
 30
0.0
 40
7.5
  0
CIRCLE
  5
3177
  8
0
 10
1075.1801940160569
 20
940.93339106453686
 30
0.0
 40
7.5
  0
CIRCLE
  5
3178
  8
0
 10
1110.5355330753839
 20
905.57805200520943
 30
0.0
 40
67.5
  0
LINE
  5
317A
  8
0
 10
1192.3523611085279
 20
905.93192302222906
 30
0.0
 11
1211.259111108528
 21
905.93192302222906
 31
0.0
  0
LINE
  5
317B
  8
0
 10
1230.1669861085279
 20
899.62967302222944
 30
0.0
 11
1198.6546111085279
 21
899.62967302222944
 31
0.0
  0
CIRCLE
  5
317C
  8
0
 10
1075.1801940160569
 20
870.22271294588188
 30
0.0
 40
7.5
  0
CIRCLE
  5
317D
  8
0
 10
1145.8908721347109
 20
870.22271294588188
 30
0.0
 40
7.5
  0
LINE
  5
317E
  8
0
 10
1198.6546111085279
 20
899.62967302222944
 30
0.0
 11
1192.3523611085279
 21
905.93192302222906
 31
0.0
  0
LINE
  5
317F
  8
0
 10
1261.2189033798979
 20
932.07034572982116
 30
0.0
 11
1291.501307057642
 21
929.67761040230198
 31
0.0
  0
LINE
  5
3180
  8
0
 10
1291.501307057641
 20
883.77924163619673
 30
0.0
 11
1261.2190288883639
 21
881.3874753046656
 31
0.0
  0
LINE
  5
3182
  8
0
 10
1257.5339775674449
 20
839.22842601924913
 30
0.0
 11
1239.533977567444
 21
839.22842601924913
 31
0.0
  0
LINE
  5
3184
  8
0
 10
1214.4113611085279
 20
902.78079802222965
 30
0.0
 11
1223.7274861085291
 21
902.78079802222965
 31
0.0
  0
LINE
  5
3185
  8
0
 10
1211.259111108528
 20
905.93192302222906
 30
0.0
 11
1214.4113611085279
 21
902.78079802222965
 31
0.0
  0
LINE
  5
3186
  8
0
 10
1223.7274861085291
 20
902.78079802222965
 30
0.0
 11
1223.7274861085291
 21
905.93192302222906
 31
0.0
  0
LINE
  5
3187
  8
0
 10
1223.7274861085291
 20
905.93192302222906
 30
0.0
 11
1230.1669861085279
 21
899.62967302222944
 31
0.0
  0
LINE
  5
318C
  8
0
 10
1292.0368646749021
 20
884.70685463967118
 30
0.0
 11
1292.0368646749021
 21
928.74999739882685
 31
0.0
  0
ARC
  5
318F
  8
0
 10
1296.267607567763
 20
891.72382321392524
 30
0.0
 40
8.1937191431952066
 50
238.91295215464891
 51
301.37795941388538
  0
LINE
  5
3190
  8
0
 10
1292.0368646749021
 20
884.70685463967175
 30
0.0
 11
1291.501307057641
 21
883.77924163619673
 31
0.0
  0
ARC
  5
31A3
  8
0
 10
1296.2676075677621
 20
921.7330288241576
 30
0.0
 40
8.1937191435503394
 50
58.622040587618109
 51
121.0870478438391
  0
LINE
  5
31A4
  8
0
 10
1292.0368646749021
 20
928.74999739882685
 30
0.0
 11
1291.501307057642
 21
929.67761040230198
 31
0.0
  0
LINE
  5
31AE
  8
0
 10
1190.8548633140131
 20
1079.526311261907
 30
0.0
 11
1209.7616133140129
 21
1079.526311261907
 31
0.0
  0
LINE
  5
31AF
  8
0
 10
1228.6694883140131
 20
1073.2240612619071
 30
0.0
 11
1197.157113314013
 21
1073.2240612619071
 31
0.0
  0
ARC
  5
31B0
  8
0
 10
1082.785533075385
 20
962.07805200520932
 30
0.0
 40
5.5
 50
90.000000000000057
 51
151.66069756700131
  0
LINE
  5
31B1
  8
0
 10
1083.84752078522
 20
967.57805200520954
 30
0.0
 11
1082.785533075385
 21
967.57805200520954
 31
0.0
  0
ARC
  5
31B2
  8
0
 10
1138.2855330753839
 20
962.07805200520932
 30
0.0
 40
5.5
 50
28.33930243299864
 51
90.0
  0
LINE
  5
31B3
  8
0
 10
1138.2855330753839
 20
967.57805200520954
 30
0.0
 11
1137.2235453655489
 21
967.57805200520954
 31
0.0
  0
LINE
  5
31B4
  8
0
 10
1197.157113314013
 20
1073.2240612619071
 30
0.0
 11
1190.8548633140131
 21
1079.526311261907
 31
0.0
  0
LINE
  5
31BA
  8
0
 10
1292.0368646749021
 20
1056.957822994907
 30
0.0
 11
1292.0368646749021
 21
1101.0009657540629
 31
0.0
  0
LINE
  5
31BB
  8
0
 10
1291.501307057641
 20
1056.0302099914329
 30
0.0
 11
1261.2190288883639
 21
1053.6384436599019
 31
0.0
  0
LINE
  5
31BC
  8
0
 10
1239.533977567444
 20
974.22842601924913
 30
0.0
 11
1257.5339775674449
 21
974.22842601924913
 31
0.0
  0
LINE
  5
31BD
  8
0
 10
1257.5339775674449
 20
1011.479394374485
 30
0.0
 11
1239.533977567444
 21
1011.479394374485
 31
0.0
  0
ARC
  5
31C2
  8
0
 10
1296.2676344765159
 20
1063.974888792437
 30
0.0
 40
8.1938162977400193
 50
238.91314204485059
 51
301.3777676720228
  0
LINE
  5
31C3
  8
0
 10
1292.0368646749021
 20
1056.9578229949079
 30
0.0
 11
1291.501307057641
 21
1056.0302099914329
 31
0.0
  0
LINE
  5
31C5
  8
0
 10
1261.2189033798979
 20
1104.3213140850571
 30
0.0
 11
1291.501307057642
 21
1101.9285787575379
 31
0.0
  0
LINE
  5
31C7
  8
0
 10
1212.913863314013
 20
1076.3751862619069
 30
0.0
 11
1222.229988314014
 21
1076.3751862619069
 31
0.0
  0
LINE
  5
31C8
  8
0
 10
1209.7616133140129
 20
1079.526311261907
 30
0.0
 11
1212.913863314013
 21
1076.3751862619069
 31
0.0
  0
LINE
  5
31C9
  8
0
 10
1222.229988314014
 20
1076.3751862619069
 30
0.0
 11
1222.229988314014
 21
1079.526311261907
 31
0.0
  0
LINE
  5
31CA
  8
0
 10
1222.229988314014
 20
1079.526311261907
 30
0.0
 11
1228.6694883140131
 21
1073.2240612619071
 31
0.0
  0
LINE
  5
31CD
  8
0
 10
1239.533977567444
 20
1146.4793943744851
 30
0.0
 11
1257.5339775674449
 21
1146.4793943744851
 31
0.0
  0
ARC
  5
31D6
  8
0
 10
1296.2676344765159
 20
1093.9838999565329
 30
0.0
 40
8.1938162977400193
 50
58.622232327977137
 51
121.0868579551494
  0
LINE
  5
31D7
  8
0
 10
1292.0368646749021
 20
1101.0009657540629
 30
0.0
 11
1291.501307057642
 21
1101.9285787575379
 31
0.0
  0
CIRCLE
  5
3215
  8
0
 10
434.43992711617909
 20
289.23520429568453
 30
0.0
 40
7.5
  0
CIRCLE
  5
3216
  8
0
 10
397.3168211038855
 20
252.1120982833904
 30
0.0
 40
70.0
  0
CIRCLE
  5
3217
  8
0
 10
360.19371509159191
 20
289.23520429568453
 30
0.0
 40
7.5
  0
CIRCLE
  5
3218
  8
0
 10
1574.7211966373959
 20
940.93339106453686
 30
0.0
 40
7.5
  0
CIRCLE
  5
3219
  8
0
 10
1504.0105185187399
 20
940.93339106453686
 30
0.0
 40
7.5
  0
CIRCLE
  5
321C
  8
0
 10
1539.365857578068
 20
905.57805200520943
 30
0.0
 40
67.5
  0
CIRCLE
  5
321E
  8
0
 10
360.193715091591
 20
214.98899227109681
 30
0.0
 40
7.5
  0
LINE
  5
321F
  8
0
 10
1431.533977567444
 20
839.22842601924913
 30
0.0
 11
1449.533977567444
 21
839.22842601924913
 31
0.0
  0
LINE
  5
3222
  8
0
 10
1397.0310904599869
 20
884.70685463967118
 30
0.0
 11
1397.0310904599869
 21
928.7499973988273
 31
0.0
  0
LINE
  5
3223
  8
0
 10
1397.5666480772479
 20
883.77924163619673
 30
0.0
 11
1427.8489262465239
 21
881.38747530466594
 31
0.0
  0
ARC
  5
3232
  8
0
 10
1392.8002937496169
 20
891.72401766006851
 30
0.0
 40
8.1939134520266901
 50
238.62242406382089
 51
301.0866680709475
  0
LINE
  5
3234
  8
0
 10
1397.0310904599869
 20
884.70685463967209
 30
0.0
 11
1397.5666480772479
 21
883.77924163619673
 31
0.0
  0
LINE
  5
3236
  8
0
 10
1427.849051754991
 20
932.07034572982127
 30
0.0
 11
1397.566648077247
 21
929.67761040230198
 31
0.0
  0
ARC
  5
323C
  8
0
 10
1392.800293749618
 20
921.73283437843224
 30
0.0
 40
8.193913452024816
 50
58.913331929050429
 51
121.3775759361923
  0
LINE
  5
323E
  8
0
 10
1397.0310904599869
 20
928.74999739882685
 30
0.0
 11
1397.5666480772479
 21
929.67761040230243
 31
0.0
  0
CIRCLE
  5
3241
  8
0
 10
1504.010518518741
 20
870.22271294588188
 30
0.0
 40
7.5
  0
CIRCLE
  5
3242
  8
0
 10
1574.721196637395
 20
870.22271294588188
 30
0.0
 40
7.5
  0
LINE
  5
3243
  8
0
 10
539.5415887655131
 20
182.1120982833904
 30
0.0
 11
521.54158876551298
 21
182.1120982833904
 31
0.0
  0
CIRCLE
  5
3244
  8
0
 10
434.43992711617909
 20
214.98899227109681
 30
0.0
 40
7.5
  0
LINE
  5
3246
  8
0
 10
476.66971820231532
 20
252.41928419295209
 30
0.0
 11
495.57646820231543
 21
252.41928419295209
 31
0.0
  0
LINE
  5
3247
  8
0
 10
482.97196820231511
 20
246.1170341929523
 30
0.0
 11
476.66971820231532
 21
252.41928419295209
 31
0.0
  0
LINE
  5
3248
  8
0
 10
498.72871820231552
 20
249.26815919295271
 30
0.0
 11
508.04484320231592
 21
249.26815919295271
 31
0.0
  0
LINE
  5
3249
  8
0
 10
514.48434320231524
 20
246.1170341929523
 30
0.0
 11
482.97196820231511
 21
246.1170341929523
 31
0.0
  0
LINE
  5
324A
  8
0
 10
495.57646820231543
 20
252.41928419295209
 30
0.0
 11
498.72871820231552
 21
249.26815919295271
 31
0.0
  0
LINE
  5
324B
  8
0
 10
508.04484320231592
 20
249.26815919295271
 30
0.0
 11
508.04484320231592
 21
252.41928419295209
 31
0.0
  0
LINE
  5
324C
  8
0
 10
508.04484320231592
 20
252.41928419295209
 30
0.0
 11
514.48434320231524
 21
246.1170341929523
 31
0.0
  0
TEXT
  5
324D
  8
0
 10
604.71676396036003
 20
129.89909538186021
 30
0.0
 40
17.5
  1
40
 41
0.8
 72
     4
 11
616.0500972936934
 21
138.64909538186021
 31
0.0
  0
LINE
  5
3256
  8
0
 10
574.04447587297125
 20
230.09052690381259
 30
0.0
 11
574.04447587297125
 21
274.13366966296832
 31
0.0
  0
LINE
  5
3258
  8
0
 10
573.50891825571034
 20
229.162913900338
 30
0.0
 11
543.22664008643324
 21
226.77114756880809
 31
0.0
  0
ARC
  5
325A
  8
0
 10
578.27524567458465
 20
237.10759270134261
 30
0.0
 40
8.1938162977400193
 50
238.91314204485059
 51
301.3777676720228
  0
LINE
  5
325B
  8
0
 10
574.04447587297091
 20
230.0905269038131
 30
0.0
 11
573.50891825571034
 21
229.162913900338
 31
0.0
  0
LINE
  5
325F
  8
0
 10
543.22651457796655
 20
277.45401799396222
 30
0.0
 11
573.5089182557108
 21
275.06128266644328
 31
0.0
  0
ARC
  5
3263
  8
0
 10
578.27524567458522
 20
267.11660386543872
 30
0.0
 40
8.1938162977400193
 50
58.622232327977137
 51
121.0868579551494
  0
LINE
  5
3264
  8
0
 10
574.04447587297125
 20
274.13366966296832
 30
0.0
 11
573.5089182557108
 21
275.06128266644328
 31
0.0
  0
LINE
  5
326D
  8
0
 10
679.03870165805574
 20
230.09052690381259
 30
0.0
 11
679.03870165805608
 21
274.13366966296871
 31
0.0
  0
LINE
  5
3290
  8
0
 10
679.03870165805608
 20
230.0905269038135
 30
0.0
 11
679.57425927531676
 21
229.162913900338
 31
0.0
  0
ARC
  5
3291
  8
0
 10
674.80793185644234
 20
237.10759270134261
 30
0.0
 40
8.1938162977400193
 50
238.62223232797709
 51
301.08685795514941
  0
ARC
  5
3299
  8
0
 10
674.80793185644234
 20
267.11660386543917
 30
0.0
 40
8.1938162977400193
 50
58.913142044850552
 51
121.3777676720228
  0
LINE
  5
329A
  8
0
 10
679.03870165805608
 20
274.13366966296832
 30
0.0
 11
679.57425927531676
 21
275.06128266644367
 31
0.0
  0
LINE
  5
329E
  8
0
 10
1511.615857578068
 20
967.57805200520954
 30
0.0
 11
1512.677845287903
 21
967.57805200520954
 31
0.0
  0
LINE
  5
32A4
  8
0
 10
1397.0310904599869
 20
1056.957822994907
 30
0.0
 11
1397.0310904599869
 21
1101.0009657540629
 31
0.0
  0
LINE
  5
32A5
  8
0
 10
1431.533977567444
 20
1011.479394374485
 30
0.0
 11
1449.533977567444
 21
1011.479394374485
 31
0.0
  0
LINE
  5
32A6
  8
0
 10
1449.533977567444
 20
974.22842601924913
 30
0.0
 11
1431.533977567444
 21
974.22842601924913
 31
0.0
  0
LINE
  5
32A9
  8
0
 10
1397.5666480772479
 20
1056.0302099914329
 30
0.0
 11
1427.8489262465239
 21
1053.638443659901
 31
0.0
  0
ARC
  5
32AB
  8
0
 10
1392.800320658373
 20
1063.974888792437
 30
0.0
 40
8.1938162977400193
 50
238.62223232797709
 51
301.08685795514941
  0
LINE
  5
32AD
  8
0
 10
1397.0310904599869
 20
1056.9578229949079
 30
0.0
 11
1397.5666480772479
 21
1056.0302099914329
 31
0.0
  0
ARC
  5
32AF
  8
0
 10
1511.615857578068
 20
962.07805200520932
 30
0.0
 40
5.5
 50
90.0
 51
151.66069756700131
  0
LINE
  5
32B1
  8
0
 10
1449.533977567444
 20
1146.4793943744851
 30
0.0
 11
1431.533977567444
 21
1146.4793943744851
 31
0.0
  0
LINE
  5
32B2
  8
0
 10
1427.849051754991
 20
1104.3213140850571
 30
0.0
 11
1397.566648077247
 21
1101.9285787575379
 31
0.0
  0
ARC
  5
32B7
  8
0
 10
1392.800320658373
 20
1093.9838999565341
 30
0.0
 40
8.1938162977400193
 50
58.913142044850552
 51
121.3777676720228
  0
LINE
  5
32B9
  8
0
 10
1397.0310904599869
 20
1101.0009657540629
 30
0.0
 11
1397.5666480772479
 21
1101.9285787575379
 31
0.0
  0
LINE
  5
32BC
  8
0
 10
1566.0538698682331
 20
967.57805200520954
 30
0.0
 11
1567.115857578068
 21
967.57805200520954
 31
0.0
  0
ARC
  5
32BD
  8
0
 10
1567.115857578068
 20
962.07805200520932
 30
0.0
 40
5.5
 50
28.339302432998618
 51
89.999999999999943
  0
LINE
  5
32D6
  8
0
 10
1486.1912963650771
 20
1249.4363201875381
 30
0.0
 11
1483.039046365076
 21
1246.285195187538
 31
0.0
  0
LINE
  5
32D7
  8
0
 10
1467.2834213650769
 20
1243.134070187539
 30
0.0
 11
1498.795796365077
 21
1243.134070187539
 31
0.0
  0
LINE
  5
32D8
  8
0
 10
1473.722921365076
 20
1249.4363201875381
 30
0.0
 11
1467.2834213650769
 21
1243.134070187539
 31
0.0
  0
LINE
  5
32D9
  8
0
 10
1473.722921365076
 20
1246.285195187538
 30
0.0
 11
1473.722921365076
 21
1249.4363201875381
 31
0.0
  0
LINE
  5
32DA
  8
0
 10
1483.039046365076
 20
1246.285195187538
 30
0.0
 11
1473.722921365076
 21
1246.285195187538
 31
0.0
  0
LINE
  5
32DB
  8
0
 10
1505.098046365076
 20
1249.4363201875381
 30
0.0
 11
1486.1912963650771
 21
1249.4363201875381
 31
0.0
  0
LINE
  5
32DC
  8
0
 10
1498.795796365077
 20
1243.134070187539
 30
0.0
 11
1505.098046365076
 21
1249.4363201875381
 31
0.0
  0
LINE
  5
32DF
  8
0
 10
521.54158876551355
 20
514.34365837062023
 30
0.0
 11
539.54158876551355
 21
514.34365837062023
 31
0.0
  0
LINE
  5
32E0
  8
0
 10
539.54158876551355
 20
374.34365837062018
 30
0.0
 11
521.54158876551355
 21
374.34365837062018
 31
0.0
  0
LINE
  5
32E1
  8
0
 10
521.54158876551298
 20
322.11209828339042
 30
0.0
 11
539.5415887655131
 21
322.11209828339042
 31
0.0
  0
LINE
  5
32E2
  8
0
 10
521.54158876551355
 20
374.34365837062018
 30
0.0
 11
521.54158876551355
 21
444.34365837062018
 31
0.0
  0
LINE
  5
32E3
  8
0
 10
521.54158876551355
 20
444.34365837062018
 30
0.0
 11
521.54158876551355
 21
514.34365837062023
 31
0.0
  0
LINE
  5
32E4
  8
0
 10
467.68476372420167
 20
445.46821992311698
 30
0.0
 11
486.59151372420177
 21
445.46821992311698
 31
0.0
  0
LINE
  5
32E5
  8
0
 10
505.49938872420171
 20
439.16596992311719
 30
0.0
 11
473.9870137242014
 21
439.16596992311719
 31
0.0
  0
LINE
  5
32E6
  8
0
 10
473.9870137242014
 20
439.16596992311719
 30
0.0
 11
467.68476372420167
 21
445.46821992311698
 31
0.0
  0
LINE
  5
32E7
  8
0
 10
499.05988872420221
 20
445.46821992311698
 30
0.0
 11
505.49938872420171
 21
439.16596992311719
 31
0.0
  0
LINE
  5
32E8
  8
0
 10
486.59151372420177
 20
445.46821992311698
 30
0.0
 11
489.74376372420193
 21
442.31709492311762
 31
0.0
  0
LINE
  5
32E9
  8
0
 10
499.05988872420221
 20
442.31709492311762
 30
0.0
 11
499.05988872420221
 21
445.46821992311698
 31
0.0
  0
LINE
  5
32EA
  8
0
 10
489.74376372420193
 20
442.31709492311762
 30
0.0
 11
499.05988872420221
 21
442.31709492311762
 31
0.0
  0
LINE
  5
32F3
  8
0
 10
574.04447587297125
 20
422.3220869910424
 30
0.0
 11
574.04447587297125
 21
466.36522975019813
 31
0.0
  0
LINE
  5
32F4
  8
0
 10
573.50891825571034
 20
421.39447398756778
 30
0.0
 11
543.22664008643358
 21
419.00270765603659
 31
0.0
  0
ARC
  5
32F9
  8
0
 10
578.27524567458465
 20
429.33915278857239
 30
0.0
 40
8.1938162977400193
 50
238.91314204485059
 51
301.3777676720228
  0
LINE
  5
32FA
  8
0
 10
574.04447587297091
 20
422.3220869910428
 30
0.0
 11
573.50891825571034
 21
421.39447398756778
 31
0.0
  0
LINE
  5
3301
  8
0
 10
543.22651457796701
 20
469.68557808119198
 30
0.0
 11
573.5089182557108
 21
467.29284275367309
 31
0.0
  0
ARC
  5
3303
  8
0
 10
578.27524567458522
 20
459.34816395266847
 30
0.0
 40
8.1938162977400193
 50
58.622232327977137
 51
121.0868579551494
  0
LINE
  5
3304
  8
0
 10
574.04447587297125
 20
466.36522975019813
 30
0.0
 11
573.5089182557108
 21
467.29284275367309
 31
0.0
  0
LINE
  5
330A
  8
0
 10
679.03870165805574
 20
422.3220869910424
 30
0.0
 11
679.03870165805608
 21
466.36522975019852
 31
0.0
  0
LINE
  5
330E
  8
0
 10
679.03870165805608
 20
422.32208699104319
 30
0.0
 11
679.57425927531676
 21
421.39447398756778
 31
0.0
  0
ARC
  5
330F
  8
0
 10
674.80793185644234
 20
429.33915278857239
 30
0.0
 40
8.1938162977400193
 50
238.62223232797709
 51
301.08685795514941
  0
ARC
  5
3313
  8
0
 10
674.80793185644234
 20
459.34816395266893
 30
0.0
 40
8.1938162977400193
 50
58.913142044850552
 51
121.3777676720228
  0
LINE
  5
3314
  8
0
 10
679.03870165805608
 20
466.36522975019813
 30
0.0
 11
679.57425927531676
 21
467.29284275367348
 31
0.0
  0
LINE
  5
345D
  8
0
 10
384.78671441960341
 20
961.60945232519998
 30
0.0
 11
384.78671441960341
 21
958.03097441215414
 31
0.0
  0
LINE
  5
3480
  8
0
 10
1492.7678247379711
 20
470.08064832610819
 30
0.0
 11
1457.485421060228
 21
467.29284275367309
 31
0.0
  0
LINE
  5
3481
  8
0
 10
1457.485421060228
 20
421.39447398756778
 30
0.0
 11
1492.7676992295051
 21
418.60779576761149
 31
0.0
  0
LINE
  5
3482
  8
0
 10
1492.7678247379711
 20
283.24340153183431
 30
0.0
 11
1457.485421060228
 21
280.45559595939949
 31
0.0
  0
LINE
  5
3483
  8
0
 10
1457.485421060228
 20
234.5572271932943
 30
0.0
 11
1492.7676992295051
 21
231.77054897333801
 31
0.0
  0
LINE
  5
3486
  8
0
 10
1294.452750550425
 20
257.50641157634669
 30
0.0
 11
1294.452750550425
 21
335.00641157634658
 31
0.0
  0
CIRCLE
  5
3488
  8
0
 10
859.0643176365611
 20
289.23520429568453
 30
0.0
 40
7.5
  0
CIRCLE
  5
3489
  8
0
 10
784.81810561197381
 20
289.23520429568453
 30
0.0
 40
7.5
  0
CIRCLE
  5
348A
  8
0
 10
821.94121162426745
 20
252.1120982833904
 30
0.0
 40
70.0
  0
CIRCLE
  5
348B
  8
0
 10
1163.1650648108989
 20
257.50641157634669
 30
0.0
 40
77.5
  0
LINE
  5
348F
  8
0
 10
713.54158876551401
 20
182.1120982833904
 30
0.0
 11
731.54158876551401
 21
182.1120982833904
 31
0.0
  0
CIRCLE
  5
3492
  8
0
 10
784.81810561197381
 20
214.98899227109681
 30
0.0
 40
7.5
  0
CIRCLE
  5
3493
  8
0
 10
859.06431763656201
 20
214.98899227109681
 30
0.0
 40
7.5
  0
CIRCLE
  5
3494
  8
0
 10
1120.7386579397059
 20
215.0800047051539
 30
0.0
 40
7.5
  0
LINE
  5
3495
  8
0
 10
1312.452750550425
 20
180.00641157634661
 30
0.0
 11
1294.452750550425
 21
180.00641157634661
 31
0.0
  0
CIRCLE
  5
3496
  8
0
 10
1205.591471682091
 20
215.0800047051539
 30
0.0
 40
7.5
  0
LINE
  5
3497
  8
0
 10
1294.452750550425
 20
180.00641157634661
 30
0.0
 11
1294.452750550425
 21
257.50641157634669
 31
0.0
  0
LINE
  5
3498
  8
0
 10
1254.2344344738669
 20
259.90180151128197
 30
0.0
 11
1273.141184473867
 21
259.90180151128197
 31
0.0
  0
LINE
  5
3499
  8
0
 10
1292.049059473866
 20
253.59955151128219
 30
0.0
 11
1260.536684473866
 21
253.59955151128219
 31
0.0
  0
LINE
  5
349A
  8
0
 10
1260.536684473866
 20
253.59955151128219
 30
0.0
 11
1254.2344344738669
 21
259.90180151128197
 31
0.0
  0
LINE
  5
349B
  8
0
 10
1276.2934344738669
 20
256.75067651128262
 30
0.0
 11
1285.609559473867
 21
256.75067651128262
 31
0.0
  0
LINE
  5
349C
  8
0
 10
1273.141184473867
 20
259.90180151128197
 30
0.0
 11
1276.2934344738669
 21
256.75067651128262
 31
0.0
  0
LINE
  5
349D
  8
0
 10
1285.609559473867
 20
256.75067651128262
 30
0.0
 11
1285.609559473867
 21
259.90180151128197
 31
0.0
  0
LINE
  5
349E
  8
0
 10
1285.609559473867
 20
259.90180151128197
 30
0.0
 11
1292.049059473866
 21
253.59955151128219
 31
0.0
  0
TEXT
  5
349F
  8
0
 10
1375.9590139276349
 20
130.10364466843561
 30
0.0
 40
17.5
  1
50
 41
0.8
 72
     4
 11
1387.292347260968
 21
138.85364466843561
 31
0.0
  0
ARC
  5
34A8
  8
0
 10
1356.186407459496
 20
242.5019059942988
 30
0.0
 40
8.1938162977400193
 50
238.91314204485059
 51
301.3777676720228
  0
LINE
  5
34A9
  8
0
 10
1351.9556376578821
 20
235.4848401967692
 30
0.0
 11
1351.4200800406211
 21
234.5572271932943
 31
0.0
  0
LINE
  5
34AC
  8
0
 10
1351.4200800406211
 20
234.5572271932943
 30
0.0
 11
1316.1378018713449
 21
231.77054897333801
 31
0.0
  0
LINE
  5
34AF
  8
0
 10
1316.137676362878
 20
283.24340153183419
 30
0.0
 11
1351.4200800406211
 21
280.45559595939949
 31
0.0
  0
LINE
  5
34B2
  8
0
 10
1351.9556376578821
 20
235.4848401967688
 30
0.0
 11
1351.9556376578821
 21
279.52798295592447
 31
0.0
  0
ARC
  5
34B6
  8
0
 10
1356.186407459496
 20
272.51091715839488
 30
0.0
 40
8.1938162977400193
 50
58.622232327977137
 51
121.0868579551494
  0
LINE
  5
34B7
  8
0
 10
1351.9556376578821
 20
279.52798295592447
 30
0.0
 11
1351.4200800406211
 21
280.45559595939949
 31
0.0
  0
LINE
  5
34BC
  8
0
 10
1456.9498634429669
 20
235.48484019676971
 30
0.0
 11
1457.485421060228
 21
234.5572271932943
 31
0.0
  0
ARC
  5
34BF
  8
0
 10
1452.7190936413531
 20
242.5019059942988
 30
0.0
 40
8.1938162977400193
 50
238.62223232797709
 51
301.08685795514941
  0
LINE
  5
34E4
  8
0
 10
1456.9498634429669
 20
235.4848401967688
 30
0.0
 11
1456.9498634429669
 21
279.52798295592493
 31
0.0
  0
LINE
  5
34E8
  8
0
 10
1456.9498634429669
 20
279.52798295592447
 30
0.0
 11
1457.485421060228
 21
280.45559595939989
 31
0.0
  0
ARC
  5
34E9
  8
0
 10
1452.7190936413531
 20
272.51091715839539
 30
0.0
 40
8.1938162977400193
 50
58.913142044850552
 51
121.3777676720228
  0
LINE
  5
34EA
  8
0
 10
731.54158876551435
 20
374.34365837062018
 30
0.0
 11
731.54158876551435
 21
444.34365837062018
 31
0.0
  0
LINE
  5
34EC
  8
0
 10
731.54158876551401
 20
322.11209828339042
 30
0.0
 11
713.54158876551401
 21
322.11209828339042
 31
0.0
  0
LINE
  5
34ED
  8
0
 10
713.54158876551446
 20
374.34365837062018
 30
0.0
 11
731.54158876551435
 21
374.34365837062018
 31
0.0
  0
LINE
  5
34EE
  8
0
 10
731.54158876551435
 20
444.34365837062018
 30
0.0
 11
731.54158876551435
 21
514.34365837062023
 31
0.0
  0
LINE
  5
34F0
  8
0
 10
731.54158876551435
 20
514.34365837062023
 30
0.0
 11
713.54158876551446
 21
514.34365837062023
 31
0.0
  0
CIRCLE
  5
34F2
  8
0
 10
1120.7386579397059
 20
299.93281844753938
 30
0.0
 40
7.5
  0
LINE
  5
34F5
  8
0
 10
781.92794677526479
 20
631.83977187473602
 30
0.0
 11
763.02119677526468
 21
631.83977187473602
 31
0.0
  0
LINE
  5
34F6
  8
0
 10
744.11332177526492
 20
625.53752187473629
 30
0.0
 11
775.62569677526506
 21
625.53752187473629
 31
0.0
  0
LINE
  5
34FA
  8
0
 10
750.55282177526442
 20
631.83977187473602
 30
0.0
 11
744.11332177526492
 21
625.53752187473629
 31
0.0
  0
LINE
  5
34FB
  8
0
 10
763.02119677526468
 20
631.83977187473602
 30
0.0
 11
759.8689467752647
 21
628.68864687473615
 31
0.0
  0
LINE
  5
34FC
  8
0
 10
750.55282177526442
 20
628.68864687473615
 30
0.0
 11
750.55282177526442
 21
631.83977187473602
 31
0.0
  0
LINE
  5
34FD
  8
0
 10
759.8689467752647
 20
628.68864687473615
 30
0.0
 11
750.55282177526442
 21
628.68864687473615
 31
0.0
  0
LINE
  5
34FE
  8
0
 10
775.62569677526506
 20
625.53752187473629
 30
0.0
 11
781.92794677526479
 21
631.83977187473602
 31
0.0
  0
LINE
  5
3501
  8
0
 10
1294.452750550425
 20
521.84365837061966
 30
0.0
 11
1312.452750550425
 21
521.84365837061966
 31
0.0
  0
LINE
  5
3502
  8
0
 10
1312.452750550425
 20
366.84365837061978
 30
0.0
 11
1294.452750550425
 21
366.84365837061978
 31
0.0
  0
LINE
  5
3503
  8
0
 10
1294.452750550425
 20
335.00641157634658
 30
0.0
 11
1312.452750550425
 21
335.00641157634658
 31
0.0
  0
LINE
  5
3504
  8
0
 10
1294.452750550425
 20
366.84365837061978
 30
0.0
 11
1294.452750550425
 21
444.34365837061978
 31
0.0
  0
CIRCLE
  5
3505
  8
0
 10
1205.591471682091
 20
299.93281844753938
 30
0.0
 40
7.5
  0
LINE
  5
3506
  8
0
 10
1294.452750550425
 20
444.34365837061978
 30
0.0
 11
1294.452750550425
 21
521.84365837061966
 31
0.0
  0
LINE
  5
3507
  8
0
 10
1249.741951853315
 20
440.97871322636593
 30
0.0
 11
1268.6487018533151
 21
440.97871322636593
 31
0.0
  0
LINE
  5
3508
  8
0
 10
1287.5565768533149
 20
434.6764632263662
 30
0.0
 11
1256.0442018533149
 21
434.6764632263662
 31
0.0
  0
LINE
  5
3509
  8
0
 10
1256.0442018533149
 20
434.6764632263662
 30
0.0
 11
1249.741951853315
 21
440.97871322636593
 31
0.0
  0
LINE
  5
350A
  8
0
 10
1281.117076853315
 20
440.97871322636593
 30
0.0
 11
1287.5565768533149
 21
434.6764632263662
 31
0.0
  0
LINE
  5
350B
  8
0
 10
1268.6487018533151
 20
440.97871322636593
 30
0.0
 11
1271.8009518533149
 21
437.82758822636652
 31
0.0
  0
LINE
  5
350C
  8
0
 10
1281.117076853315
 20
437.82758822636652
 30
0.0
 11
1281.117076853315
 21
440.97871322636593
 31
0.0
  0
LINE
  5
350D
  8
0
 10
1271.8009518533149
 20
437.82758822636652
 30
0.0
 11
1281.117076853315
 21
437.82758822636652
 31
0.0
  0
LINE
  5
351A
  8
0
 10
1351.9556376578821
 20
422.3220869910424
 30
0.0
 11
1351.9556376578821
 21
466.36522975019813
 31
0.0
  0
LINE
  5
351B
  8
0
 10
1351.4200800406211
 20
421.39447398756778
 30
0.0
 11
1316.1378018713449
 21
418.60779576761109
 31
0.0
  0
LINE
  5
3522
  8
0
 10
1351.9556376578821
 20
422.3220869910428
 30
0.0
 11
1351.4200800406211
 21
421.39447398756778
 31
0.0
  0
ARC
  5
3523
  8
0
 10
1356.186407459496
 20
429.33915278857239
 30
0.0
 40
8.1938162977400193
 50
238.91314204485059
 51
301.3777676720228
  0
LINE
  5
3528
  8
0
 10
1316.137676362878
 20
470.08064832610779
 30
0.0
 11
1351.4200800406211
 21
467.29284275367309
 31
0.0
  0
LINE
  5
352C
  8
0
 10
1351.9556376578821
 20
466.36522975019813
 30
0.0
 11
1351.4200800406211
 21
467.29284275367309
 31
0.0
  0
ARC
  5
352D
  8
0
 10
1356.186407459496
 20
459.34816395266847
 30
0.0
 40
8.1938162977400193
 50
58.622232327977137
 51
121.0868579551494
  0
LINE
  5
3531
  8
0
 10
1456.9498634429669
 20
422.3220869910424
 30
0.0
 11
1456.9498634429669
 21
466.36522975019852
 31
0.0
  0
LINE
  5
3536
  8
0
 10
1456.9498634429669
 20
422.32208699104319
 30
0.0
 11
1457.485421060228
 21
421.39447398756778
 31
0.0
  0
ARC
  5
3537
  8
0
 10
1452.7190936413531
 20
429.33915278857239
 30
0.0
 40
8.1938162977400193
 50
238.62223232797709
 51
301.08685795514941
  0
LINE
  5
353B
  8
0
 10
1456.9498634429669
 20
466.36522975019813
 30
0.0
 11
1457.485421060228
 21
467.29284275367348
 31
0.0
  0
ARC
  5
353C
  8
0
 10
1452.7190936413531
 20
459.34816395266893
 30
0.0
 40
8.1938162977400193
 50
58.913142044850552
 51
121.3777676720228
  0
LINE
  5
3595
  8
0
 10
1514.452750550425
 20
257.50641157634669
 30
0.0
 11
1514.452750550425
 21
335.00641157634658
 31
0.0
  0
CIRCLE
  5
3597
  8
0
 10
1619.9160662996139
 20
257.50641157634669
 30
0.0
 40
77.5
  0
LINE
  5
3598
  8
0
 10
1514.452750550425
 20
180.00641157634661
 30
0.0
 11
1514.452750550425
 21
257.50641157634669
 31
0.0
  0
LINE
  5
3599
  8
0
 10
1496.452750550425
 20
180.00641157634661
 30
0.0
 11
1514.452750550425
 21
180.00641157634661
 31
0.0
  0
CIRCLE
  5
359C
  8
0
 10
1577.4896594284221
 20
215.0800047051539
 30
0.0
 40
7.5
  0
CIRCLE
  5
359D
  8
0
 10
1662.3424731708069
 20
215.0800047051539
 30
0.0
 40
7.5
  0
LINE
  5
359E
  8
0
 10
1514.452750550425
 20
366.84365837061978
 30
0.0
 11
1514.452750550425
 21
444.34365837061978
 31
0.0
  0
LINE
  5
35A0
  8
0
 10
1514.452750550425
 20
335.00641157634658
 30
0.0
 11
1496.452750550425
 21
335.00641157634658
 31
0.0
  0
LINE
  5
35A1
  8
0
 10
1496.452750550425
 20
366.84365837061978
 30
0.0
 11
1514.452750550425
 21
366.84365837061978
 31
0.0
  0
CIRCLE
  5
35A2
  8
0
 10
1577.4896594284221
 20
299.93281844753938
 30
0.0
 40
7.5
  0
LINE
  5
35A3
  8
0
 10
1514.452750550425
 20
444.34365837061978
 30
0.0
 11
1514.452750550425
 21
521.84365837061966
 31
0.0
  0
LINE
  5
35A5
  8
0
 10
1514.452750550425
 20
521.84365837061966
 30
0.0
 11
1496.452750550425
 21
521.84365837061966
 31
0.0
  0
CIRCLE
  5
35A7
  8
0
 10
1662.3424731708069
 20
299.93281844753938
 30
0.0
 40
7.5
  0
LINE
  5
35AA
  8
0
 10
1562.487647872855
 20
634.83277633923672
 30
0.0
 11
1543.5808978728539
 21
634.83277633923672
 31
0.0
  0
LINE
  5
35AB
  8
0
 10
1524.673022872855
 20
628.53052633923699
 30
0.0
 11
1556.185397872855
 21
628.53052633923699
 31
0.0
  0
LINE
  5
35AF
  8
0
 10
1531.112522872854
 20
634.83277633923672
 30
0.0
 11
1524.673022872855
 21
628.53052633923699
 31
0.0
  0
LINE
  5
35B0
  8
0
 10
1543.5808978728539
 20
634.83277633923672
 30
0.0
 11
1540.4286478728541
 21
631.68165133923685
 31
0.0
  0
LINE
  5
35B1
  8
0
 10
1531.112522872854
 20
631.68165133923685
 30
0.0
 11
1531.112522872854
 21
634.83277633923672
 31
0.0
  0
LINE
  5
35B2
  8
0
 10
1540.4286478728541
 20
631.68165133923685
 30
0.0
 11
1531.112522872854
 21
631.68165133923685
 31
0.0
  0
LINE
  5
35B3
  8
0
 10
1556.185397872855
 20
628.53052633923699
 30
0.0
 11
1562.487647872855
 21
634.83277633923672
 31
0.0
  0
ARC
  5
35C0
  8
0
 10
715.57005453089448
 20
1092.3649262624849
 30
0.0
 40
8.1938162977400193
 50
58.913142044850552
 51
121.3777676720228
  0
ARC
  5
35C1
  8
0
 10
715.57005453089448
 20
1062.3559150983881
 30
0.0
 40
8.1938162977400193
 50
238.62223232797709
 51
301.08685795514941
  0
ARC
  5
35C2
  8
0
 10
715.5699550249368
 20
920.11359838655812
 30
0.0
 40
8.1941755652750636
 50
58.913844195665071
 51
121.37705867414969
  0
ARC
  5
35C3
  8
0
 10
715.56995502493589
 20
890.10530626384548
 30
0.0
 40
8.1941755652781172
 50
238.62294132587061
 51
301.08615580432968
  0
CIRCLE
  5
35C4
  8
0
 10
449.85651957299791
 20
873.28964717180554
 30
0.0
 40
7.5
  0
LINE
  5
35C5
  8
0
 10
445.78671441960341
 20
967.10945232519998
 30
0.0
 11
425.92658133863318
 21
967.10945232519998
 31
0.0
  0
LINE
  5
35C6
  8
0
 10
410.14684750057347
 20
967.10945232519998
 30
0.0
 11
390.28671441960341
 21
967.10945232519998
 31
0.0
  0
CIRCLE
  5
35C7
  8
0
 10
449.85651957299791
 20
936.92925747859442
 30
0.0
 40
7.5
  0
ARC
  5
35C8
  8
0
 10
445.78671441960341
 20
961.60945232519998
 30
0.0
 40
5.5
 50
0.000000000000007
 51
90.0
  0
LINE
  5
35C9
  8
0
 10
451.28671441960341
 20
961.60945232519998
 30
0.0
 11
451.28671441960341
 21
958.03097441215414
 31
0.0
  0
LINE
  5
35CA
  8
0
 10
514.39566990636729
 20
893.62610306917168
 30
0.0
 11
508.09341990636761
 21
899.92835306917141
 31
0.0
  0
LINE
  5
35CB
  8
0
 10
508.09341990636761
 20
899.92835306917141
 30
0.0
 11
527.00016990636766
 21
899.92835306917141
 31
0.0
  0
LINE
  5
35CC
  8
0
 10
539.46854490636815
 20
899.92835306917141
 30
0.0
 11
545.90804490636765
 21
893.62610306917168
 31
0.0
  0
LINE
  5
35CD
  8
0
 10
545.90804490636765
 20
893.62610306917168
 30
0.0
 11
514.39566990636729
 21
893.62610306917168
 31
0.0
  0
LINE
  5
35CE
  8
0
 10
527.00016990636766
 20
899.92835306917141
 30
0.0
 11
530.15241990636775
 21
896.777228069172
 31
0.0
  0
LINE
  5
35CF
  8
0
 10
530.15241990636775
 20
896.777228069172
 30
0.0
 11
539.46854490636815
 21
896.777228069172
 31
0.0
  0
LINE
  5
35D0
  8
0
 10
539.46854490636815
 20
896.777228069172
 30
0.0
 11
539.46854490636815
 21
899.92835306917141
 31
0.0
  0
LINE
  5
35DA
  8
0
 10
578.3037114399657
 20
842.60945232519998
 30
0.0
 11
562.3037114399657
 21
842.60945232519998
 31
0.0
  0
TEXT
  5
35DB
  8
0
 10
645.70532095332464
 20
784.22528325737494
 30
0.0
 40
17.5
  1
25
 41
0.8
 72
     4
 11
657.03865428665813
 21
792.97528325737494
 31
0.0
  0
LINE
  5
35F7
  8
0
 10
614.80659854742362
 20
883.08788094562215
 30
0.0
 11
614.80659854742362
 21
927.13102370477782
 31
0.0
  0
LINE
  5
35F9
  8
0
 10
614.2710409301626
 20
882.16026794214747
 30
0.0
 11
581.98876276088595
 21
879.61053685524689
 31
0.0
  0
LINE
  5
35FE
  8
0
 10
614.80659854742305
 20
883.0878809456226
 30
0.0
 11
614.2710409301626
 21
882.16026794214747
 31
0.0
  0
ARC
  5
35FF
  8
0
 10
619.03726884310231
 20
890.10458722254646
 30
0.0
 40
8.1934570315203672
 50
238.91243983262899
 51
301.3784767316352
  0
LINE
  5
3600
  8
0
 10
581.98863725241915
 20
930.60940013373806
 30
0.0
 11
614.27104093016305
 21
928.05863670825295
 31
0.0
  0
LINE
  5
3602
  8
0
 10
562.3037114399657
 20
967.60945232519998
 30
0.0
 11
578.3037114399657
 21
967.60945232519998
 31
0.0
  0
LINE
  5
3604
  8
0
 10
614.80659854742362
 20
927.13102370477782
 30
0.0
 11
614.27104093016305
 21
928.05863670825295
 31
0.0
  0
ARC
  5
3605
  8
0
 10
619.03726884310197
 20
920.11431742785635
 30
0.0
 40
8.1934570315179496
 50
58.621523268354807
 51
121.0875601673755
  0
LINE
  5
3625
  8
0
 10
547.24339826260984
 20
1069.776195525078
 30
0.0
 11
515.7310232626096
 21
1069.776195525078
 31
0.0
  0
LINE
  5
3626
  8
0
 10
528.33552326260985
 20
1076.078445525078
 30
0.0
 11
531.48777326260995
 21
1072.927320525079
 31
0.0
  0
LINE
  5
3627
  8
0
 10
515.7310232626096
 20
1069.776195525078
 30
0.0
 11
509.42877326260981
 21
1076.078445525078
 31
0.0
  0
LINE
  5
3628
  8
0
 10
509.42877326260981
 20
1076.078445525078
 30
0.0
 11
528.33552326260985
 21
1076.078445525078
 31
0.0
  0
LINE
  5
3629
  8
0
 10
540.80389826261035
 20
1076.078445525078
 30
0.0
 11
547.24339826260984
 21
1069.776195525078
 31
0.0
  0
LINE
  5
362A
  8
0
 10
531.48777326260995
 20
1072.927320525079
 30
0.0
 11
540.80389826261035
 21
1072.927320525079
 31
0.0
  0
LINE
  5
362B
  8
0
 10
540.80389826261035
 20
1072.927320525079
 30
0.0
 11
540.80389826261035
 21
1076.078445525078
 31
0.0
  0
LINE
  5
3632
  8
0
 10
562.3037114399657
 20
1077.3604206804359
 30
0.0
 11
562.3037114399657
 21
1139.8604206804359
 31
0.0
  0
LINE
  5
3634
  8
0
 10
614.80659854742362
 20
1055.3388493008581
 30
0.0
 11
614.80659854742362
 21
1099.381992060014
 31
0.0
  0
LINE
  5
3638
  8
0
 10
562.3037114399657
 20
1014.8604206804361
 30
0.0
 11
562.3037114399657
 21
1077.3604206804359
 31
0.0
  0
LINE
  5
3639
  8
0
 10
578.3037114399657
 20
1014.8604206804361
 30
0.0
 11
562.3037114399657
 21
1014.8604206804361
 31
0.0
  0
LINE
  5
363A
  8
0
 10
614.2710409301626
 20
1054.411236297384
 30
0.0
 11
581.98876276088595
 21
1051.8615052104831
 31
0.0
  0
ARC
  5
3640
  8
0
 10
619.03736834903702
 20
1062.3559150983881
 30
0.0
 40
8.1938162977400193
 50
238.91314204485059
 51
301.3777676720228
  0
LINE
  5
3641
  8
0
 10
614.80659854742305
 20
1055.338849300859
 30
0.0
 11
614.2710409301626
 21
1054.411236297384
 31
0.0
  0
LINE
  5
364B
  8
0
 10
581.98863725241904
 20
1102.860368488974
 30
0.0
 11
614.27104093016305
 21
1100.309605063489
 31
0.0
  0
LINE
  5
364D
  8
0
 10
562.3037114399657
 20
1139.8604206804359
 30
0.0
 11
578.3037114399657
 21
1139.8604206804359
 31
0.0
  0
ARC
  5
364F
  8
0
 10
619.03736834903737
 20
1092.364926262484
 30
0.0
 40
8.1938162977400193
 50
58.622232327977137
 51
121.0868579551494
  0
LINE
  5
3650
  8
0
 10
614.80659854742362
 20
1099.381992060014
 30
0.0
 11
614.27104093016305
 21
1100.309605063489
 31
0.0
  0
CIRCLE
  5
3672
  8
0
 10
843.36311043763453
 20
936.92925747859442
 30
0.0
 40
7.5
  0
CIRCLE
  5
3673
  8
0
 10
843.36311043763453
 20
873.28964717180554
 30
0.0
 40
7.5
  0
CIRCLE
  5
3674
  8
0
 10
875.18291559102909
 20
905.10945232519998
 30
0.0
 40
62.5
  0
LINE
  5
3677
  8
0
 10
756.30371143996581
 20
842.60945232519998
 30
0.0
 11
772.30371143996581
 21
842.60945232519998
 31
0.0
  0
LINE
  5
3678
  8
0
 10
719.80082433250789
 20
883.08788094562215
 30
0.0
 11
719.80082433250845
 21
927.13102370477827
 31
0.0
  0
LINE
  5
367A
  8
0
 10
720.33638194976902
 20
882.16026794214747
 30
0.0
 11
752.61866011904556
 21
879.61053685524689
 31
0.0
  0
LINE
  5
367B
  8
0
 10
719.80082433250845
 20
883.08788094562306
 30
0.0
 11
720.33638194976902
 21
882.16026794214747
 31
0.0
  0
LINE
  5
367D
  8
0
 10
752.61878562751235
 20
930.60940013373806
 30
0.0
 11
720.33638194976857
 21
928.05863670825295
 31
0.0
  0
LINE
  5
367E
  8
0
 10
719.80082433250845
 20
927.13102370477782
 30
0.0
 11
720.33638194976902
 21
928.05863670825318
 31
0.0
  0
LINE
  5
3680
  8
0
 10
772.30371143996581
 20
967.60945232519998
 30
0.0
 11
756.30371143996581
 21
967.60945232519998
 31
0.0
  0
CIRCLE
  5
3681
  8
0
 10
907.00272074442375
 20
873.28964717180554
 30
0.0
 40
7.5
  0
LINE
  5
3682
  8
0
 10
847.43291559102909
 20
967.10945232519998
 30
0.0
 11
867.29304867199926
 21
967.10945232519998
 31
0.0
  0
LINE
  5
3683
  8
0
 10
841.93291559102897
 20
961.60945232519998
 30
0.0
 11
841.93291559102897
 21
958.03097441215414
 31
0.0
  0
ARC
  5
3684
  8
0
 10
847.43291559102909
 20
961.60945232519998
 30
0.0
 40
5.5
 50
90.0
 51
180.0
  0
CIRCLE
  5
3685
  8
0
 10
907.00272074442375
 20
936.92925747859442
 30
0.0
 40
7.5
  0
LINE
  5
3686
  8
0
 10
883.07278251005903
 20
967.10945232519998
 30
0.0
 11
902.93291559102909
 21
967.10945232519998
 31
0.0
  0
LINE
  5
3687
  8
0
 10
908.43291559102909
 20
961.60945232519998
 30
0.0
 11
908.43291559102909
 21
958.03097441215414
 31
0.0
  0
ARC
  5
3688
  8
0
 10
902.93291559102909
 20
961.60945232519998
 30
0.0
 40
5.5
 50
0.0
 51
89.999999999999943
  0
LINE
  5
3689
  8
0
 10
772.30371143996581
 20
1077.3604206804359
 30
0.0
 11
772.30371143996581
 21
1139.8604206804359
 31
0.0
  0
LINE
  5
368B
  8
0
 10
719.80082433250789
 20
1055.3388493008581
 30
0.0
 11
719.80082433250845
 21
1099.381992060014
 31
0.0
  0
LINE
  5
368C
  8
0
 10
772.30371143996581
 20
1014.8604206804361
 30
0.0
 11
772.30371143996581
 21
1077.3604206804359
 31
0.0
  0
LINE
  5
368D
  8
0
 10
756.30371143996581
 20
1014.8604206804361
 30
0.0
 11
772.30371143996581
 21
1014.8604206804361
 31
0.0
  0
LINE
  5
368E
  8
0
 10
720.33638194976902
 20
1054.411236297384
 30
0.0
 11
752.61866011904556
 21
1051.8615052104831
 31
0.0
  0
LINE
  5
368F
  8
0
 10
719.80082433250845
 20
1055.338849300859
 30
0.0
 11
720.33638194976902
 21
1054.411236297384
 31
0.0
  0
LINE
  5
3691
  8
0
 10
752.61878562751235
 20
1102.860368488974
 30
0.0
 11
720.33638194976857
 21
1100.309605063489
 31
0.0
  0
LINE
  5
3692
  8
0
 10
719.80082433250845
 20
1099.381992060014
 30
0.0
 11
720.33638194976902
 21
1100.309605063489
 31
0.0
  0
LINE
  5
3694
  8
0
 10
772.30371143996581
 20
1139.8604206804359
 30
0.0
 11
756.30371143996581
 21
1139.8604206804359
 31
0.0
  0
LINE
  5
36C5
  8
0
 10
794.66305305047445
 20
1245.768431298369
 30
0.0
 11
788.22355305047495
 21
1239.4661812983691
 31
0.0
  0
LINE
  5
36C6
  8
0
 10
788.22355305047495
 20
1239.4661812983691
 30
0.0
 11
819.7359280504752
 21
1239.4661812983691
 31
0.0
  0
LINE
  5
36CF
  8
0
 10
819.7359280504752
 20
1239.4661812983691
 30
0.0
 11
826.03817805047493
 21
1245.768431298369
 31
0.0
  0
LINE
  5
36D0
  8
0
 10
826.03817805047493
 20
1245.768431298369
 30
0.0
 11
807.13142805047471
 21
1245.768431298369
 31
0.0
  0
LINE
  5
36D1
  8
0
 10
807.13142805047471
 20
1245.768431298369
 30
0.0
 11
803.97917805047484
 21
1242.6173062983689
 31
0.0
  0
LINE
  5
36D2
  8
0
 10
794.66305305047445
 20
1242.6173062983689
 30
0.0
 11
794.66305305047445
 21
1245.768431298369
 31
0.0
  0
LINE
  5
36D3
  8
0
 10
803.97917805047484
 20
1242.6173062983689
 30
0.0
 11
794.66305305047445
 21
1242.6173062983689
 31
0.0
  0
TEXT
  5
36DB
  8
0
 10
795.32994393428635
 20
768.05931478540185
 30
0.0
 40
24.5
  1
TLV  P46SRW (JIS20K)
  0
LINE
  5
36DF
  8
0
 10
578.3037114399657
 20
967.60945232519998
 30
0.0
 11
578.3037114399657
 21
842.60945232519998
 31
0.0
  0
LINE
  5
36E0
  8
0
 10
756.30371143996581
 20
967.60945232519998
 30
0.0
 11
756.30371143996581
 21
842.60945232519998
 31
0.0
  0
LINE
  5
36E1
  8
0
 10
578.3037114399657
 20
1139.8604206804359
 30
0.0
 11
578.3037114399657
 21
1014.8604206804361
 31
0.0
  0
LINE
  5
36E2
  8
0
 10
756.30371143996581
 20
1139.8604206804359
 30
0.0
 11
756.30371143996581
 21
1014.8604206804361
 31
0.0
  0
ARC
  5
36E9
  8
0
 10
582.30371143996558
 20
1106.8479402132621
 30
0.0
 40
4.0
 50
180.0
 51
265.48221471166551
  0
ARC
  5
36EA
  8
0
 10
582.30371143996592
 20
1047.8739235712501
 30
0.0
 40
4.0
 50
94.515981910995166
 51
180.0
  0
ARC
  5
36EB
  8
0
 10
752.30371143996581
 20
1106.8479402132621
 30
0.0
 40
4.0
 50
274.51778528833438
 51
0.0
  0
ARC
  5
36EC
  8
0
 10
752.30371143996581
 20
1047.8739235712501
 30
0.0
 40
4.0
 50
0.0
 51
85.48401808900644
  0
ARC
  5
36ED
  8
0
 10
582.3037114399657
 20
934.59697185802622
 30
0.0
 40
4.0
 50
180.0
 51
265.48221471166551
  0
ARC
  5
36EE
  8
0
 10
582.30371143996592
 20
875.62295521601436
 30
0.0
 40
4.0
 50
94.515981910995166
 51
180.0
  0
ARC
  5
36EF
  8
0
 10
752.30371143996581
 20
934.59697185802622
 30
0.0
 40
4.0
 50
274.51778528833432
 51
0.0
  0
ARC
  5
36F0
  8
0
 10
752.30371143996581
 20
875.62295521601425
 30
0.0
 40
4.0
 50
0.0
 51
85.484018089006554
  0
LINE
  5
36F1
  8
0
 10
1257.5339775674449
 20
974.22842601924913
 30
0.0
 11
1257.5339775674449
 21
839.22842601924913
 31
0.0
  0
LINE
  5
36F2
  8
0
 10
1257.5339775674449
 20
1146.4793943744851
 30
0.0
 11
1257.5339775674449
 21
1011.479394374485
 31
0.0
  0
LINE
  5
36F5
  8
0
 10
1431.533977567444
 20
1146.4793943744851
 30
0.0
 11
1431.533977567444
 21
1011.479394374485
 31
0.0
  0
LINE
  5
36F6
  8
0
 10
1431.533977567444
 20
974.22842601924913
 30
0.0
 11
1431.533977567444
 21
839.22842601924913
 31
0.0
  0
ARC
  5
36FB
  8
0
 10
1261.5339775674449
 20
1108.3088858093449
 30
0.0
 40
4.0
 50
180.0
 51
265.4822147116659
  0
ARC
  5
36FC
  8
0
 10
1261.5339775674449
 20
1049.6508620206689
 30
0.0
 40
4.0
 50
94.515981910996544
 51
180.0
  0
ARC
  5
36FD
  8
0
 10
1427.5339775674449
 20
1108.3088858093449
 30
0.0
 40
4.0
 50
274.51778528833461
 51
0.0
  0
ARC
  5
36FE
  8
0
 10
1427.5339775674449
 20
1049.6508620206689
 30
0.0
 40
4.0
 50
0.0
 51
85.484018089003214
  0
ARC
  5
36FF
  8
0
 10
1261.5339775674449
 20
936.0579174541092
 30
0.0
 40
4.0
 50
180.0
 51
265.48221471166551
  0
ARC
  5
3700
  8
0
 10
1261.5339775674449
 20
877.39989366543296
 30
0.0
 40
4.0
 50
94.515981910996686
 51
180.0
  0
ARC
  5
3701
  8
0
 10
1427.5339775674449
 20
936.05791745410954
 30
0.0
 40
4.0
 50
274.5177852883341
 51
0.0
  0
ARC
  5
3702
  8
0
 10
1427.5339775674449
 20
877.39989366543307
 30
0.0
 40
4.0
 50
0.0
 51
85.484018089003584
  0
LINE
  5
3703
  8
0
 10
539.5415887655131
 20
322.11209828339042
 30
0.0
 11
539.5415887655131
 21
182.1120982833904
 31
0.0
  0
LINE
  5
3704
  8
0
 10
539.54158876551355
 20
514.34365837062023
 30
0.0
 11
539.54158876551355
 21
374.34365837062018
 31
0.0
  0
LINE
  5
3707
  8
0
 10
713.54158876551446
 20
514.34365837062023
 30
0.0
 11
713.54158876551446
 21
374.34365837062018
 31
0.0
  0
LINE
  5
3708
  8
0
 10
713.54158876551401
 20
322.11209828339042
 30
0.0
 11
713.54158876551401
 21
182.1120982833904
 31
0.0
  0
ARC
  5
370D
  8
0
 10
543.54158876551355
 20
473.67314980548002
 30
0.0
 40
4.0
 50
180.0
 51
265.4822147116663
  0
ARC
  5
370E
  8
0
 10
543.54158876551355
 20
415.015126016804
 30
0.0
 40
4.0
 50
94.515981910995862
 51
180.0
  0
ARC
  5
370F
  8
0
 10
709.54158876551435
 20
473.67314980548042
 30
0.0
 40
4.0
 50
274.51778528833432
 51
0.0
  0
ARC
  5
3710
  8
0
 10
709.54158876551435
 20
415.01512601680429
 30
0.0
 40
4.0
 50
0.0
 51
85.484018089005005
  0
ARC
  5
3711
  8
0
 10
543.5415887655131
 20
281.44158971825033
 30
0.0
 40
4.0
 50
180.0
 51
265.48221471166647
  0
ARC
  5
3712
  8
0
 10
543.5415887655131
 20
222.78356592957539
 30
0.0
 40
4.0
 50
94.515981910994142
 51
180.0
  0
ARC
  5
3713
  8
0
 10
709.54158876551401
 20
281.44158971825112
 30
0.0
 40
4.0
 50
274.51778528833438
 51
0.0
  0
ARC
  5
3714
  8
0
 10
709.54158876551401
 20
222.78356592957499
 30
0.0
 40
4.0
 50
0.0
 51
85.484018089005048
  0
LINE
  5
3718
  8
0
 10
1496.452750550425
 20
521.84365837061966
 30
0.0
 11
1496.452750550425
 21
366.84365837061978
 31
0.0
  0
LINE
  5
3719
  8
0
 10
1312.452750550425
 20
521.84365837061966
 30
0.0
 11
1312.452750550425
 21
366.84365837061978
 31
0.0
  0
LINE
  5
371A
  8
0
 10
1312.452750550425
 20
335.00641157634658
 30
0.0
 11
1312.452750550425
 21
180.00641157634661
 31
0.0
  0
LINE
  5
371B
  8
0
 10
1496.452750550425
 20
335.00641157634658
 30
0.0
 11
1496.452750550425
 21
180.00641157634661
 31
0.0
  0
ARC
  5
3720
  8
0
 10
1492.452750550425
 20
474.06822005039641
 30
0.0
 40
4.0
 50
274.51778528833432
 51
0.0
  0
ARC
  5
3721
  8
0
 10
1492.452750550425
 20
414.62021412837868
 30
0.0
 40
4.0
 50
0.0
 51
85.484018089003456
  0
ARC
  5
3722
  8
0
 10
1316.452750550425
 20
414.62021412837839
 30
0.0
 40
4.0
 50
94.515981910996615
 51
180.0
  0
ARC
  5
3723
  8
0
 10
1316.452750550425
 20
474.06822005039578
 30
0.0
 40
4.0
 50
180.0
 51
265.48221471166551
  0
ARC
  5
3724
  8
0
 10
1492.452750550425
 20
287.2309732561223
 30
0.0
 40
4.0
 50
274.51778528833438
 51
0.0
  0
ARC
  5
3725
  8
0
 10
1492.452750550425
 20
227.78296733410539
 30
0.0
 40
4.0
 50
0.0
 51
85.484018089003328
  0
ARC
  5
3726
  8
0
 10
1316.452750550425
 20
227.78296733410519
 30
0.0
 40
4.0
 50
94.515981910996544
 51
180.0
  0
ARC
  5
3727
  8
0
 10
1316.452750550425
 20
287.2309732561223
 30
0.0
 40
4.0
 50
180.0
 51
265.48221471166551
  0
TEXT
  5
3830
  8
0
 10
1313.1062582640279
 20
756.44771958479123
 30
0.0
 40
17.5
  1
1 1/4
 41
0.8
 72
     4
 11
1340.3062582640291
 21
763.94771958479123
 31
0.0
  0
TEXT
  5
3831
  8
0
 10
589.18343062702672
 20
100.94562359564721
 30
0.0
 40
17.5
  1
1 1/2
 41
0.8
 72
     4
 11
616.0500972936934
 21
108.44562359564721
 31
0.0
  0
TEXT
  5
3832
  8
0
 10
1382.625680594301
 20
99.900172882222705
 30
0.0
 40
17.5
  1
2
 41
0.8
 72
     4
 11
1387.292347260968
 21
108.65017288222271
 31
0.0
  0
TEXT
  5
3833
  8
0
 10
655.3719876199915
 20
754.02181147116198
 30
0.0
 40
17.5
  1
1
 41
0.8
 72
     4
 11
657.03865428665813
 21
762.77181147116187
 31
0.0
  0
POLYLINE
  5
4E35
  8
0
 66
     1
 10
0.0
 20
0.0
 30
0.0
  0
VERTEX
  5
5822
  8
0
 10
655.31413263168395
 20
1049.8604206804359
 30
0.0
  0
VERTEX
  5
5823
  8
0
 10
679.29329024824744
 20
1049.8604206804359
 30
0.0
  0
SEQEND
  5
5824
  8
0
  0
POLYLINE
  5
4E36
  8
0
 66
     1
 10
0.0
 20
0.0
 30
0.0
  0
VERTEX
  5
5825
  8
0
 10
679.29329024824744
 20
1104.8604206804359
 30
0.0
  0
VERTEX
  5
5826
  8
0
 10
655.31413263168395
 20
1104.8604206804359
 30
0.0
  0
SEQEND
  5
5827
  8
0
  0
POLYLINE
  5
4E37
  8
0
 66
     1
 10
0.0
 20
0.0
 30
0.0
  0
VERTEX
  5
5828
  8
0
 10
637.49322343175299
 20
1073.9937005090831
 30
0.0
  0
VERTEX
  5
5829
  8
0
 10
649.48280224003418
 20
1053.227140851789
 30
0.0
  0
SEQEND
  5
582A
  8
0
  0
POLYLINE
  5
4E38
  8
0
 66
     1
 10
0.0
 20
0.0
 30
0.0
  0
VERTEX
  5
582B
  8
0
 10
697.11419944817885
 20
1080.7271408517879
 30
0.0
  0
VERTEX
  5
582C
  8
0
 10
685.12462063989676
 20
1101.493700509084
 30
0.0
  0
SEQEND
  5
582D
  8
0
  0
POLYLINE
  5
4E39
  8
0
 66
     1
 10
0.0
 20
0.0
 30
0.0
  0
VERTEX
  5
582E
  8
0
 10
649.48280224003497
 20
1101.493700509084
 30
0.0
  0
VERTEX
  5
582F
  8
0
 10
637.49322343175265
 20
1080.7271408517879
 30
0.0
  0
SEQEND
  5
5830
  8
0
  0
ARC
  5
4E3A
  8
0
 10
667.30371143996581
 20
1077.3604206804359
 30
0.0
 40
30.0
 50
113.5564643090994
 51
126.4435356908958
  0
POLYLINE
  5
4E3B
  8
0
 66
     1
 10
0.0
 20
0.0
 30
0.0
  0
VERTEX
  5
5831
  8
0
 10
685.12462063989733
 20
1053.227140851789
 30
0.0
  0
VERTEX
  5
5832
  8
0
 10
697.11419944817862
 20
1073.9937005090831
 30
0.0
  0
SEQEND
  5
5833
  8
0
  0
ARC
  5
4E3C
  8
0
 10
667.30371143996581
 20
1077.3604206804359
 30
0.0
 40
30.0
 50
173.55646430909721
 51
186.44353569090279
  0
ARC
  5
4E3D
  8
0
 10
667.30371143996581
 20
1077.3604206804359
 30
0.0
 40
30.0
 50
233.55646430910409
 51
246.4435356909006
  0
ARC
  5
4E3E
  8
0
 10
667.30371143996581
 20
1077.3604206804359
 30
0.0
 40
30.0
 50
293.5564643090994
 51
306.44353569089583
  0
ARC
  5
4E3F
  8
0
 10
667.30371143996581
 20
1077.3604206804359
 30
0.0
 40
30.0
 50
353.55646430909718
 51
6.443535690902813
  0
ARC
  5
4E40
  8
0
 10
667.30371143996581
 20
1077.3604206804359
 30
0.0
 40
30.0
 50
53.55646430910415
 51
66.443535690900589
  0
CIRCLE
  5
4E41
  8
0
 10
667.30371143996581
 20
1077.3604206804359
 30
0.0
 40
27.5
  0
CIRCLE
  5
4E42
  8
0
 10
667.30371143996581
 20
1077.3604206804359
 30
0.0
 40
20.0
  0
CIRCLE
  5
4E43
  8
0
 10
667.30371143996581
 20
1077.3604206804359
 30
0.0
 40
0.9979999999985125
  0
CIRCLE
  5
4E44
  8
0
 10
667.30371143996581
 20
1077.3604206804359
 30
0.0
 40
31.0
  0
CIRCLE
  5
4E45
  8
0
 10
667.30371143996581
 20
1077.3604206804359
 30
0.0
 40
32.5
  0
ARC
  5
4E46
  8
0
 10
687.93734007678825
 20
1088.610420680435
 30
0.0
 40
23.364643706271782
 50
331.21679720616908
 51
28.783202793834011
  0
LINE
  5
4E47
  8
0
 10
711.30198378305988
 20
1077.3604206804359
 30
0.0
 11
711.30198378305988
 21
1099.3604206804359
 31
0.0
  0
ARC
  5
4E48
  8
0
 10
632.30198378305988
 20
1077.3604206804359
 30
0.0
 40
5.0
 50
92.565098703631094
 51
267.43490129636888
  0
ARC
  5
4E49
  8
0
 10
646.65580217177126
 20
1088.610420680433
 30
0.0
 40
23.355156461323499
 50
151.20401005320559
 51
208.7959899467798
  0
LINE
  5
4E4A
  8
0
 10
623.30198378306
 20
1077.3604206804359
 30
0.0
 11
623.30198378306
 21
1099.3604206804359
 31
0.0
  0
LINE
  5
4E4B
  8
0
 10
626.18873512900814
 20
1054.8604206804359
 30
0.0
 11
623.30198378306
 21
1055.3604206804359
 31
0.0
  0
ARC
  5
4E4C
  8
0
 10
646.66662748932572
 20
1066.110420680435
 30
0.0
 40
23.364643706265749
 50
151.2167972061545
 51
208.78320279383399
  0
LINE
  5
4E4D
  8
0
 10
623.30198378306
 20
1077.3604206804359
 30
0.0
 11
623.30198378306
 21
1055.3604206804359
 31
0.0
  0
LINE
  5
4E4E
  8
0
 10
627.30198378306
 20
1077.3604206804359
 30
0.0
 11
626.18873512900814
 21
1077.3604206804359
 31
0.0
  0
LINE
  5
4E4F
  8
0
 10
643.85163264084815
 20
1054.8604206804359
 30
0.0
 11
626.18873512900814
 21
1054.8604206804359
 31
0.0
  0
LINE
  5
4E50
  8
0
 10
699.8037114399657
 20
1077.3604206804359
 30
0.0
 11
708.41523243711265
 21
1077.3604206804359
 31
0.0
  0
LINE
  5
4E51
  8
0
 10
708.41523243711231
 20
1054.8604206804359
 30
0.0
 11
690.75579023908313
 21
1054.8604206804359
 31
0.0
  0
LINE
  5
4E52
  8
0
 10
708.41523243711231
 20
1054.8604206804359
 30
0.0
 11
711.30198378306045
 21
1055.3604206804359
 31
0.0
  0
ARC
  5
4E53
  8
0
 10
687.93734007679564
 20
1066.110420680435
 30
0.0
 40
23.364643706264541
 50
331.21679720616601
 51
28.783202793845419
  0
LINE
  5
4E54
  8
0
 10
711.30198378305988
 20
1077.3604206804359
 30
0.0
 11
711.30198378305988
 21
1055.3604206804359
 31
0.0
  0
LINE
  5
4E55
  8
0
 10
623.30198378306
 20
1099.3604206804359
 30
0.0
 11
626.18873512900814
 21
1099.860420680435
 31
0.0
  0
LINE
  5
4E56
  8
0
 10
643.85163264084918
 20
1099.8604206804359
 30
0.0
 11
626.18873512900814
 21
1099.8604206804359
 31
0.0
  0
LINE
  5
4E57
  8
0
 10
708.41523243711356
 20
1099.8604206804359
 30
0.0
 11
690.75579023908313
 21
1099.8604206804359
 31
0.0
  0
LINE
  5
4E58
  8
0
 10
711.30198378305988
 20
1099.3604206804359
 30
0.0
 11
708.41523243711185
 21
1099.8604206804359
 31
0.0
  0
LINE
  5
4E59
  8
0
 10
632.07821146163155
 20
1082.355410765327
 30
0.0
 11
632.71570580878665
 21
1082.355410765327
 31
0.0
  0
ARC
  5
4E5A
  8
0
 10
632.71570580878665
 20
1085.355410765327
 30
0.0
 40
3.0
 50
270.0
 51
346.98471465986279
  0
LINE
  5
4E5B
  8
0
 10
632.07821146163155
 20
1072.3654305955449
 30
0.0
 11
632.71570580878665
 21
1072.3654305955449
 31
0.0
  0
ARC
  5
4E5C
  8
0
 10
632.71570580878665
 20
1069.365430595544
 30
0.0
 40
3.0
 50
13.015285340137289
 51
90.0
  0
POLYLINE
  5
4E8C
  8
0
 66
     1
 10
0.0
 20
0.0
 30
0.0
  0
VERTEX
  5
5834
  8
0
 10
614.55200995723169
 20
416.84365837062018
 30
0.0
  0
VERTEX
  5
5835
  8
0
 10
638.5311675737953
 20
416.84365837062018
 30
0.0
  0
SEQEND
  5
5836
  8
0
  0
POLYLINE
  5
4E8D
  8
0
 66
     1
 10
0.0
 20
0.0
 30
0.0
  0
VERTEX
  5
5837
  8
0
 10
638.5311675737953
 20
471.84365837062018
 30
0.0
  0
VERTEX
  5
5838
  8
0
 10
614.55200995723169
 20
471.84365837062018
 30
0.0
  0
SEQEND
  5
5839
  8
0
  0
POLYLINE
  5
4E8E
  8
0
 66
     1
 10
0.0
 20
0.0
 30
0.0
  0
VERTEX
  5
583A
  8
0
 10
596.73110075730074
 20
440.97693819926752
 30
0.0
  0
VERTEX
  5
583B
  8
0
 10
608.72067956558203
 20
420.21037854197277
 30
0.0
  0
SEQEND
  5
583C
  8
0
  0
POLYLINE
  5
4E8F
  8
0
 66
     1
 10
0.0
 20
0.0
 30
0.0
  0
VERTEX
  5
583D
  8
0
 10
656.35207677372659
 20
447.71037854197232
 30
0.0
  0
VERTEX
  5
583E
  8
0
 10
644.36249796544462
 20
468.47693819926798
 30
0.0
  0
SEQEND
  5
583F
  8
0
  0
POLYLINE
  5
4E90
  8
0
 66
     1
 10
0.0
 20
0.0
 30
0.0
  0
VERTEX
  5
5840
  8
0
 10
608.72067956558271
 20
468.47693819926798
 30
0.0
  0
VERTEX
  5
5841
  8
0
 10
596.7311007573004
 20
447.71037854197237
 30
0.0
  0
SEQEND
  5
5842
  8
0
  0
ARC
  5
4E91
  8
0
 10
626.54158876551355
 20
444.34365837062018
 30
0.0
 40
30.0
 50
113.5564643091007
 51
126.4435356908939
  0
POLYLINE
  5
4E92
  8
0
 66
     1
 10
0.0
 20
0.0
 30
0.0
  0
VERTEX
  5
5843
  8
0
 10
644.36249796544496
 20
420.21037854197277
 30
0.0
  0
VERTEX
  5
5844
  8
0
 10
656.35207677372625
 20
440.97693819926729
 30
0.0
  0
SEQEND
  5
5845
  8
0
  0
ARC
  5
4E93
  8
0
 10
626.54158876551355
 20
444.34365837062018
 30
0.0
 40
30.0
 50
173.5564643091036
 51
186.44353569090279
  0
ARC
  5
4E94
  8
0
 10
626.54158876551355
 20
444.34365837062018
 30
0.0
 40
30.0
 50
233.5564643091061
 51
246.44353569089921
  0
ARC
  5
4E95
  8
0
 10
626.54158876551355
 20
444.34365837062018
 30
0.0
 40
30.0
 50
293.5564643091007
 51
306.4435356908939
  0
ARC
  5
4E96
  8
0
 10
626.54158876551355
 20
444.34365837062018
 30
0.0
 40
30.0
 50
353.55646430909718
 51
6.4435356908963408
  0
ARC
  5
4E97
  8
0
 10
626.54158876551355
 20
444.34365837062018
 30
0.0
 40
30.0
 50
53.55646430910609
 51
66.443535690899296
  0
CIRCLE
  5
4E98
  8
0
 10
626.54158876551355
 20
444.34365837062018
 30
0.0
 40
27.5
  0
CIRCLE
  5
4E99
  8
0
 10
626.54158876551355
 20
444.34365837062018
 30
0.0
 40
20.0
  0
CIRCLE
  5
4E9A
  8
0
 10
626.54158876551355
 20
444.34365837062018
 30
0.0
 40
0.9979999999985125
  0
CIRCLE
  5
4E9B
  8
0
 10
626.54158876551355
 20
444.34365837062018
 30
0.0
 40
31.0
  0
CIRCLE
  5
4E9C
  8
0
 10
626.54158876551355
 20
444.34365837062018
 30
0.0
 40
32.5
  0
ARC
  5
4E9D
  8
0
 10
647.1752174023361
 20
455.59365837061932
 30
0.0
 40
23.364643706271782
 50
331.21679720616629
 51
28.78320279383972
  0
LINE
  5
4E9E
  8
0
 10
670.53986110860774
 20
444.34365837062018
 30
0.0
 11
670.53986110860774
 21
466.34365837062018
 31
0.0
  0
ARC
  5
4E9F
  8
0
 10
591.53986110860774
 20
444.34365837062018
 30
0.0
 40
5.0
 50
92.565098703631094
 51
267.43490129636888
  0
ARC
  5
4EA0
  8
0
 10
605.893679497319
 20
455.59365837061739
 30
0.0
 40
23.355156461323499
 50
151.20401005320559
 51
208.7959899467798
  0
LINE
  5
4EA1
  8
0
 10
582.53986110860774
 20
444.34365837062018
 30
0.0
 11
582.53986110860774
 21
466.34365837062018
 31
0.0
  0
LINE
  5
4EA2
  8
0
 10
585.42661245455577
 20
421.84365837062057
 30
0.0
 11
582.53986110860774
 21
422.34365837062069
 31
0.0
  0
ARC
  5
4EA3
  8
0
 10
605.90450481487346
 20
433.09365837061932
 30
0.0
 40
23.364643706265749
 50
151.2167972061545
 51
208.78320279383971
  0
LINE
  5
4EA4
  8
0
 10
582.53986110860774
 20
444.34365837062018
 30
0.0
 11
582.53986110860774
 21
422.34365837062018
 31
0.0
  0
LINE
  5
4EA5
  8
0
 10
586.53986110860774
 20
444.34365837062018
 30
0.0
 11
585.42661245455577
 21
444.34365837062018
 31
0.0
  0
LINE
  5
4EA6
  8
0
 10
603.08950996639589
 20
421.84365837062057
 30
0.0
 11
585.42661245455577
 21
421.84365837062018
 31
0.0
  0
LINE
  5
4EA7
  8
0
 10
659.04158876551355
 20
444.34365837062018
 30
0.0
 11
667.65310976266051
 21
444.34365837062069
 31
0.0
  0
LINE
  5
4EA8
  8
0
 10
667.65310976266005
 20
421.84365837062057
 30
0.0
 11
649.99366756463075
 21
421.84365837062029
 31
0.0
  0
LINE
  5
4EA9
  8
0
 10
667.65310976266005
 20
421.84365837062057
 30
0.0
 11
670.53986110860808
 21
422.34365837062069
 31
0.0
  0
ARC
  5
4EAA
  8
0
 10
647.17521740234338
 20
433.09365837061881
 30
0.0
 40
23.364643706264541
 50
331.21679720616032
 51
28.783202793845419
  0
LINE
  5
4EAB
  8
0
 10
670.53986110860774
 20
444.34365837062018
 30
0.0
 11
670.53986110860774
 21
422.34365837062018
 31
0.0
  0
LINE
  5
4EAC
  8
0
 10
582.53986110860774
 20
466.34365837061972
 30
0.0
 11
585.42661245455577
 21
466.84365837061972
 31
0.0
  0
LINE
  5
4EAD
  8
0
 10
603.08950996639692
 20
466.84365837062057
 30
0.0
 11
585.42661245455577
 21
466.84365837062018
 31
0.0
  0
LINE
  5
4EAE
  8
0
 10
667.65310976266142
 20
466.84365837062018
 30
0.0
 11
649.99366756463075
 21
466.84365837062018
 31
0.0
  0
LINE
  5
4EAF
  8
0
 10
670.53986110860774
 20
466.34365837062018
 30
0.0
 11
667.6531097626596
 21
466.84365837062018
 31
0.0
  0
LINE
  5
4EB0
  8
0
 10
591.3160887871793
 20
449.33864845551159
 30
0.0
 11
591.95358313433439
 21
449.33864845551159
 31
0.0
  0
ARC
  5
4EB1
  8
0
 10
591.95358313433439
 20
452.33864845551159
 30
0.0
 40
3.0
 50
270.0
 51
346.98471465986279
  0
LINE
  5
4EB2
  8
0
 10
591.3160887871793
 20
439.34866828572888
 30
0.0
 11
591.95358313433439
 21
439.34866828572888
 31
0.0
  0
ARC
  5
4EB3
  8
0
 10
591.95358313433439
 20
436.34866828572882
 30
0.0
 40
3.0
 50
13.015285340137289
 51
90.0
  0
POLYLINE
  5
4EE3
  8
0
 66
     1
 10
0.0
 20
0.0
 30
0.0
  0
VERTEX
  5
5846
  8
0
 10
1332.544398759163
 20
1051.4793943744851
 30
0.0
  0
VERTEX
  5
5847
  8
0
 10
1356.523556375726
 20
1051.4793943744851
 30
0.0
  0
SEQEND
  5
5848
  8
0
  0
POLYLINE
  5
4EE4
  8
0
 66
     1
 10
0.0
 20
0.0
 30
0.0
  0
VERTEX
  5
5849
  8
0
 10
1356.523556375726
 20
1106.4793943744851
 30
0.0
  0
VERTEX
  5
584A
  8
0
 10
1332.544398759163
 20
1106.4793943744851
 30
0.0
  0
SEQEND
  5
584B
  8
0
  0
POLYLINE
  5
4EE5
  8
0
 66
     1
 10
0.0
 20
0.0
 30
0.0
  0
VERTEX
  5
584C
  8
0
 10
1314.7234895592319
 20
1075.612674203132
 30
0.0
  0
VERTEX
  5
584D
  8
0
 10
1326.713068367513
 20
1054.846114545838
 30
0.0
  0
SEQEND
  5
584E
  8
0
  0
POLYLINE
  5
4EE6
  8
0
 66
     1
 10
0.0
 20
0.0
 30
0.0
  0
VERTEX
  5
584F
  8
0
 10
1374.344465575658
 20
1082.3461145458371
 30
0.0
  0
VERTEX
  5
5850
  8
0
 10
1362.354886767376
 20
1103.1126742031331
 30
0.0
  0
SEQEND
  5
5851
  8
0
  0
POLYLINE
  5
4EE7
  8
0
 66
     1
 10
0.0
 20
0.0
 30
0.0
  0
VERTEX
  5
5852
  8
0
 10
1326.7130683675141
 20
1103.1126742031331
 30
0.0
  0
VERTEX
  5
5853
  8
0
 10
1314.7234895592319
 20
1082.3461145458371
 30
0.0
  0
SEQEND
  5
5854
  8
0
  0
ARC
  5
4EE8
  8
0
 10
1344.5339775674449
 20
1078.9793943744851
 30
0.0
 40
30.0
 50
113.5564643090994
 51
126.4435356908958
  0
POLYLINE
  5
4EE9
  8
0
 66
     1
 10
0.0
 20
0.0
 30
0.0
  0
VERTEX
  5
5855
  8
0
 10
1362.354886767376
 20
1054.846114545838
 30
0.0
  0
VERTEX
  5
5856
  8
0
 10
1374.344465575658
 20
1075.612674203132
 30
0.0
  0
SEQEND
  5
5857
  8
0
  0
ARC
  5
4EEA
  8
0
 10
1344.5339775674449
 20
1078.9793943744851
 30
0.0
 40
30.0
 50
173.5564643090965
 51
186.4435356909035
  0
ARC
  5
4EEB
  8
0
 10
1344.5339775674449
 20
1078.9793943744851
 30
0.0
 40
30.0
 50
233.55646430910409
 51
246.4435356909006
  0
ARC
  5
4EEC
  8
0
 10
1344.5339775674449
 20
1078.9793943744851
 30
0.0
 40
30.0
 50
293.5564643090994
 51
306.44353569089583
  0
ARC
  5
4EED
  8
0
 10
1344.5339775674449
 20
1078.9793943744851
 30
0.0
 40
30.0
 50
353.55646430909638
 51
6.4435356909035431
  0
ARC
  5
4EEE
  8
0
 10
1344.5339775674449
 20
1078.9793943744851
 30
0.0
 40
30.0
 50
53.55646430910415
 51
66.443535690900589
  0
CIRCLE
  5
4EEF
  8
0
 10
1344.5339775674449
 20
1078.9793943744851
 30
0.0
 40
27.5
  0
CIRCLE
  5
4EF0
  8
0
 10
1344.5339775674449
 20
1078.9793943744851
 30
0.0
 40
20.0
  0
CIRCLE
  5
4EF1
  8
0
 10
1344.5339775674449
 20
1078.9793943744851
 30
0.0
 40
0.9979999999985125
  0
CIRCLE
  5
4EF2
  8
0
 10
1344.5339775674449
 20
1078.9793943744851
 30
0.0
 40
31.0
  0
CIRCLE
  5
4EF3
  8
0
 10
1344.5339775674449
 20
1078.9793943744851
 30
0.0
 40
32.5
  0
ARC
  5
4EF4
  8
0
 10
1365.167606204267
 20
1090.2293943744839
 30
0.0
 40
23.364643706271782
 50
331.21679720616601
 51
28.783202793834011
  0
LINE
  5
4EF5
  8
0
 10
1388.5322499105389
 20
1078.9793943744851
 30
0.0
 11
1388.5322499105389
 21
1100.9793943744851
 31
0.0
  0
ARC
  5
4EF6
  8
0
 10
1309.5322499105389
 20
1078.9793943744851
 30
0.0
 40
5.0
 50
92.565098703631094
 51
267.43490129636888
  0
ARC
  5
4EF7
  8
0
 10
1323.8860682992499
 20
1090.2293943744819
 30
0.0
 40
23.355156461323499
 50
151.20401005320559
 51
208.7959899467767
  0
LINE
  5
4EF8
  8
0
 10
1300.5322499105389
 20
1078.9793943744851
 30
0.0
 11
1300.5322499105389
 21
1100.9793943744851
 31
0.0
  0
LINE
  5
4EF9
  8
0
 10
1303.419001256487
 20
1056.479394374486
 30
0.0
 11
1300.5322499105389
 21
1056.979394374486
 31
0.0
  0
ARC
  5
4EFA
  8
0
 10
1323.8968936168039
 20
1067.7293943744839
 30
0.0
 40
23.364643706265749
 50
151.2167972061545
 51
208.78320279383399
  0
LINE
  5
4EFB
  8
0
 10
1300.5322499105389
 20
1078.9793943744851
 30
0.0
 11
1300.5322499105389
 21
1056.9793943744851
 31
0.0
  0
LINE
  5
4EFC
  8
0
 10
1304.5322499105389
 20
1078.9793943744851
 30
0.0
 11
1303.419001256487
 21
1078.9793943744851
 31
0.0
  0
LINE
  5
4EFD
  8
0
 10
1321.0818987683269
 20
1056.479394374486
 30
0.0
 11
1303.419001256487
 21
1056.4793943744851
 31
0.0
  0
LINE
  5
4EFE
  8
0
 10
1377.033977567444
 20
1078.9793943744851
 30
0.0
 11
1385.645498564591
 21
1078.979394374486
 31
0.0
  0
LINE
  5
4EFF
  8
0
 10
1385.645498564591
 20
1056.479394374486
 30
0.0
 11
1367.986056366562
 21
1056.4793943744851
 31
0.0
  0
LINE
  5
4F00
  8
0
 10
1385.645498564591
 20
1056.479394374486
 30
0.0
 11
1388.5322499105389
 21
1056.979394374486
 31
0.0
  0
ARC
  5
4F01
  8
0
 10
1365.167606204275
 20
1067.7293943744839
 30
0.0
 40
23.364643706264541
 50
331.21679720616601
 51
28.783202793845419
  0
LINE
  5
4F02
  8
0
 10
1388.5322499105389
 20
1078.9793943744851
 30
0.0
 11
1388.5322499105389
 21
1056.9793943744851
 31
0.0
  0
LINE
  5
4F03
  8
0
 10
1300.5322499105389
 20
1100.9793943744851
 30
0.0
 11
1303.419001256487
 21
1101.4793943744851
 31
0.0
  0
LINE
  5
4F04
  8
0
 10
1321.0818987683281
 20
1101.479394374486
 30
0.0
 11
1303.419001256487
 21
1101.4793943744851
 31
0.0
  0
LINE
  5
4F05
  8
0
 10
1385.6454985645919
 20
1101.4793943744851
 30
0.0
 11
1367.986056366562
 21
1101.4793943744851
 31
0.0
  0
LINE
  5
4F06
  8
0
 10
1388.5322499105389
 20
1100.9793943744851
 30
0.0
 11
1385.6454985645901
 21
1101.4793943744851
 31
0.0
  0
LINE
  5
4F07
  8
0
 10
1309.30847758911
 20
1083.9743844593761
 30
0.0
 11
1309.9459719362651
 21
1083.9743844593761
 31
0.0
  0
ARC
  5
4F08
  8
0
 10
1309.9459719362651
 20
1086.9743844593761
 30
0.0
 40
3.0
 50
270.0
 51
346.98471465986421
  0
LINE
  5
4F09
  8
0
 10
1309.30847758911
 20
1073.9844042895941
 30
0.0
 11
1309.9459719362651
 21
1073.9844042895941
 31
0.0
  0
ARC
  5
4F0A
  8
0
 10
1309.9459719362651
 20
1070.9844042895929
 30
0.0
 40
3.0
 50
13.01528534013582
 51
90.0
  0
POLYLINE
  5
4F3A
  8
0
 66
     1
 10
0.0
 20
0.0
 30
0.0
  0
VERTEX
  5
5858
  8
0
 10
1392.463171742143
 20
416.84365837062018
 30
0.0
  0
VERTEX
  5
5859
  8
0
 10
1416.442329358706
 20
416.84365837062018
 30
0.0
  0
SEQEND
  5
585A
  8
0
  0
POLYLINE
  5
4F3B
  8
0
 66
     1
 10
0.0
 20
0.0
 30
0.0
  0
VERTEX
  5
585B
  8
0
 10
1416.442329358706
 20
471.84365837062018
 30
0.0
  0
VERTEX
  5
585C
  8
0
 10
1392.463171742143
 20
471.84365837062018
 30
0.0
  0
SEQEND
  5
585D
  8
0
  0
POLYLINE
  5
4F3C
  8
0
 66
     1
 10
0.0
 20
0.0
 30
0.0
  0
VERTEX
  5
585E
  8
0
 10
1374.6422625422119
 20
440.97693819926752
 30
0.0
  0
VERTEX
  5
585F
  8
0
 10
1386.631841350493
 20
420.21037854197277
 30
0.0
  0
SEQEND
  5
5860
  8
0
  0
POLYLINE
  5
4F3D
  8
0
 66
     1
 10
0.0
 20
0.0
 30
0.0
  0
VERTEX
  5
5861
  8
0
 10
1434.263238558638
 20
447.71037854197232
 30
0.0
  0
VERTEX
  5
5862
  8
0
 10
1422.273659750356
 20
468.47693819926798
 30
0.0
  0
SEQEND
  5
5863
  8
0
  0
POLYLINE
  5
4F3E
  8
0
 66
     1
 10
0.0
 20
0.0
 30
0.0
  0
VERTEX
  5
5864
  8
0
 10
1386.6318413504939
 20
468.47693819926798
 30
0.0
  0
VERTEX
  5
5865
  8
0
 10
1374.642262542211
 20
447.71037854197237
 30
0.0
  0
SEQEND
  5
5866
  8
0
  0
ARC
  5
4F3F
  8
0
 10
1404.452750550425
 20
444.34365837062018
 30
0.0
 40
30.0
 50
113.5564643091007
 51
126.4435356908939
  0
POLYLINE
  5
4F40
  8
0
 66
     1
 10
0.0
 20
0.0
 30
0.0
  0
VERTEX
  5
5867
  8
0
 10
1422.273659750356
 20
420.21037854197277
 30
0.0
  0
VERTEX
  5
5868
  8
0
 10
1434.2632385586371
 20
440.97693819926729
 30
0.0
  0
SEQEND
  5
5869
  8
0
  0
ARC
  5
4F41
  8
0
 10
1404.452750550425
 20
444.34365837062018
 30
0.0
 40
30.0
 50
173.55646430910289
 51
186.4435356909035
  0
ARC
  5
4F42
  8
0
 10
1404.452750550425
 20
444.34365837062018
 30
0.0
 40
30.0
 50
233.5564643091061
 51
246.44353569089921
  0
ARC
  5
4F43
  8
0
 10
1404.452750550425
 20
444.34365837062018
 30
0.0
 40
30.0
 50
293.5564643091007
 51
306.4435356908939
  0
ARC
  5
4F44
  8
0
 10
1404.452750550425
 20
444.34365837062018
 30
0.0
 40
30.0
 50
353.55646430909638
 51
6.4435356908970718
  0
ARC
  5
4F45
  8
0
 10
1404.452750550425
 20
444.34365837062018
 30
0.0
 40
30.0
 50
53.55646430910609
 51
66.443535690899296
  0
CIRCLE
  5
4F46
  8
0
 10
1404.452750550425
 20
444.34365837062018
 30
0.0
 40
27.5
  0
CIRCLE
  5
4F47
  8
0
 10
1404.452750550425
 20
444.34365837062018
 30
0.0
 40
20.0
  0
CIRCLE
  5
4F48
  8
0
 10
1404.452750550425
 20
444.34365837062018
 30
0.0
 40
0.9979999999985125
  0
CIRCLE
  5
4F49
  8
0
 10
1404.452750550425
 20
444.34365837062018
 30
0.0
 40
31.0
  0
CIRCLE
  5
4F4A
  8
0
 10
1404.452750550425
 20
444.34365837062018
 30
0.0
 40
32.5
  0
ARC
  5
4F4B
  8
0
 10
1425.0863791872471
 20
455.59365837061932
 30
0.0
 40
23.364643706271782
 50
331.21679720616322
 51
28.78320279383972
  0
LINE
  5
4F4C
  8
0
 10
1448.4510228935189
 20
444.34365837062018
 30
0.0
 11
1448.4510228935189
 21
466.34365837062018
 31
0.0
  0
ARC
  5
4F4D
  8
0
 10
1369.4510228935189
 20
444.34365837062018
 30
0.0
 40
5.0
 50
92.565098703631094
 51
267.43490129636888
  0
ARC
  5
4F4E
  8
0
 10
1383.80484128223
 20
455.59365837061739
 30
0.0
 40
23.355156461323499
 50
151.20401005320559
 51
208.7959899467767
  0
LINE
  5
4F4F
  8
0
 10
1360.4510228935189
 20
444.34365837062018
 30
0.0
 11
1360.4510228935189
 21
466.34365837062018
 31
0.0
  0
LINE
  5
4F50
  8
0
 10
1363.3377742394671
 20
421.84365837062057
 30
0.0
 11
1360.4510228935189
 21
422.34365837062069
 31
0.0
  0
ARC
  5
4F51
  8
0
 10
1383.815666599784
 20
433.09365837061932
 30
0.0
 40
23.364643706265749
 50
151.2167972061545
 51
208.78320279383971
  0
LINE
  5
4F52
  8
0
 10
1360.4510228935189
 20
444.34365837062018
 30
0.0
 11
1360.4510228935189
 21
422.34365837062018
 31
0.0
  0
LINE
  5
4F53
  8
0
 10
1364.4510228935189
 20
444.34365837062018
 30
0.0
 11
1363.3377742394671
 21
444.34365837062018
 31
0.0
  0
LINE
  5
4F54
  8
0
 10
1381.000671751307
 20
421.84365837062057
 30
0.0
 11
1363.3377742394671
 21
421.84365837062018
 31
0.0
  0
LINE
  5
4F55
  8
0
 10
1436.952750550425
 20
444.34365837062018
 30
0.0
 11
1445.5642715475719
 21
444.34365837062069
 31
0.0
  0
LINE
  5
4F56
  8
0
 10
1445.564271547571
 20
421.84365837062057
 30
0.0
 11
1427.9048293495421
 21
421.84365837062029
 31
0.0
  0
LINE
  5
4F57
  8
0
 10
1445.564271547571
 20
421.84365837062057
 30
0.0
 11
1448.4510228935189
 21
422.34365837062069
 31
0.0
  0
ARC
  5
4F58
  8
0
 10
1425.086379187255
 20
433.09365837061881
 30
0.0
 40
23.364643706264541
 50
331.21679720616032
 51
28.783202793845419
  0
LINE
  5
4F59
  8
0
 10
1448.4510228935189
 20
444.34365837062018
 30
0.0
 11
1448.4510228935189
 21
422.34365837062018
 31
0.0
  0
LINE
  5
4F5A
  8
0
 10
1360.4510228935189
 20
466.34365837061972
 30
0.0
 11
1363.3377742394671
 21
466.84365837061972
 31
0.0
  0
LINE
  5
4F5B
  8
0
 10
1381.0006717513079
 20
466.84365837062057
 30
0.0
 11
1363.3377742394671
 21
466.84365837062018
 31
0.0
  0
LINE
  5
4F5C
  8
0
 10
1445.5642715475719
 20
466.84365837062018
 30
0.0
 11
1427.9048293495421
 21
466.84365837062018
 31
0.0
  0
LINE
  5
4F5D
  8
0
 10
1448.4510228935189
 20
466.34365837062018
 30
0.0
 11
1445.564271547571
 21
466.84365837062018
 31
0.0
  0
LINE
  5
4F5E
  8
0
 10
1369.22725057209
 20
449.33864845551159
 30
0.0
 11
1369.864744919246
 21
449.33864845551159
 31
0.0
  0
ARC
  5
4F5F
  8
0
 10
1369.864744919246
 20
452.33864845551159
 30
0.0
 40
3.0
 50
270.0
 51
346.98471465986421
  0
LINE
  5
4F60
  8
0
 10
1369.22725057209
 20
439.34866828572888
 30
0.0
 11
1369.864744919246
 21
439.34866828572888
 31
0.0
  0
ARC
  5
4F61
  8
0
 10
1369.864744919246
 20
436.34866828572882
 30
0.0
 40
3.0
 50
13.01528534013582
 51
90.0
  0
LINE
  5
4FE7
  8
0
 10
562.3037114399657
 20
967.60945232519998
 30
0.0
 11
562.3037114399657
 21
842.60945232519998
 31
0.0
  0
LINE
  5
4FE8
  8
0
 10
772.30371143996581
 20
967.60945232519998
 30
0.0
 11
772.30371143996581
 21
842.60945232519998
 31
0.0
  0
LINE
  5
5088
  8
0
 10
1386.2356294048991
 20
932.70918813278263
 30
0.0
 11
1379.8906678396349
 21
932.7091881327824
 31
0.0
  0
LINE
  5
5089
  8
0
 10
1386.2356294048991
 20
919.71880707601565
 30
0.0
 11
1302.832217560556
 21
919.71880707601531
 31
0.0
  0
LINE
  5
508A
  8
0
 10
1386.2356294048991
 20
893.73804496248272
 30
0.0
 11
1302.832217560556
 21
893.73804496248272
 31
0.0
  0
LINE
  5
508B
  8
0
 10
1386.2356294049
 20
880.74766390571597
 30
0.0
 11
1372.6677933922369
 21
880.74766390571597
 31
0.0
  0
LINE
  5
508F
  8
0
 10
1300.5339234827279
 20
928.72842601924924
 30
0.0
 11
1300.5339234827279
 21
884.7284260192489
 31
0.0
  0
LINE
  5
5090
  8
0
 10
1388.5339234827279
 20
928.72842601924924
 30
0.0
 11
1388.5339234827279
 21
884.7284260192489
 31
0.0
  0
LINE
  5
5095
  8
0
 10
1302.832217560556
 20
932.70918813278217
 30
0.0
 11
1300.5339234827279
 21
928.72842601924924
 31
0.0
  0
LINE
  5
5096
  8
0
 10
1302.832217560556
 20
880.74766390571597
 30
0.0
 11
1300.5339234827279
 21
884.7284260192489
 31
0.0
  0
LINE
  5
509E
  8
0
 10
1375.5341234827281
 20
947.72842601924901
 30
0.0
 11
1313.533723482728
 21
947.72842601924901
 31
0.0
  0
LINE
  5
509F
  8
0
 10
1317.5341234827281
 20
951.72842601924913
 30
0.0
 11
1317.5341234827281
 21
947.72842601924935
 31
0.0
  0
LINE
  5
50A0
  8
0
 10
1371.5341234827281
 20
951.72842601924913
 30
0.0
 11
1371.5341234827281
 21
947.72842601924935
 31
0.0
  0
LINE
  5
50A1
  8
0
 10
1374.5341234827281
 20
960.49637521168017
 30
0.0
 11
1374.5341234827281
 21
953.46047682681785
 31
0.0
  0
LINE
  5
50A2
  8
0
 10
1372.0341234827281
 20
961.93975088465436
 30
0.0
 11
1374.5341234827281
 21
960.49637521168017
 31
0.0
  0
ARC
  5
50A3
  8
0
 10
1320.284123482729
 20
968.93975088465322
 30
0.0
 40
3.2999999999999989
 50
89.999999999986969
 51
179.99999999998701
  0
LINE
  5
50A4
  8
0
 10
1316.984123482729
 20
968.93975088465368
 30
0.0
 11
1316.984123482727
 21
961.92842601924895
 31
0.0
  0
LINE
  5
50A5
  8
0
 10
1368.7841234827299
 20
972.23975088464533
 30
0.0
 11
1320.2841234827299
 21
972.23975088465306
 31
0.0
  0
ARC
  5
50A6
  8
0
 10
1368.784123482729
 20
968.93975088464538
 30
0.0
 40
3.2999999999999989
 50
359.99999999998698
 51
89.999999999986969
  0
LINE
  5
50A7
  8
0
 10
1372.084123482729
 20
968.93975088464504
 30
0.0
 11
1372.084123482728
 21
961.92842601924906
 31
0.0
  0
LINE
  5
50A8
  8
0
 10
1364.5341234827281
 20
972.2397508846492
 30
0.0
 11
1324.5341234827281
 21
972.2397508846492
 31
0.0
  0
LINE
  5
50A9
  8
0
 10
1324.5341234827281
 20
972.73875088464945
 30
0.0
 11
1364.5341234827281
 21
972.73875088464945
 31
0.0
  0
LINE
  5
50AA
  8
0
 10
1324.5341234827281
 20
972.2397508846492
 30
0.0
 11
1324.5341234827281
 21
972.73875088464945
 31
0.0
  0
ARC
  5
50AB
  8
0
 10
1344.5336234827289
 20
972.73875088464945
 30
0.0
 40
0.9975000000000022
 50
0.0
 51
180.0
  0
LINE
  5
50AC
  8
0
 10
1364.5341234827281
 20
972.73875088464945
 30
0.0
 11
1364.5341234827281
 21
972.2397508846492
 31
0.0
  0
LINE
  5
50AD
  8
0
 10
1342.5339234827279
 20
947.72842601924901
 30
0.0
 11
1342.5339234827279
 21
944.72842601924913
 31
0.0
  0
LINE
  5
50AE
  8
0
 10
1346.5339234827279
 20
947.72842601924901
 30
0.0
 11
1346.5339234827279
 21
944.72842601924913
 31
0.0
  0
LINE
  5
50AF
  8
0
 10
1375.5339234827279
 20
941.22842601924913
 30
0.0
 11
1313.5339234827279
 21
941.22842601924913
 31
0.0
  0
LINE
  5
50B0
  8
0
 10
1342.5339234827279
 20
944.72842601924913
 30
0.0
 11
1313.5339234827279
 21
944.72842601924913
 31
0.0
  0
LINE
  5
50B1
  8
0
 10
1375.5339234827279
 20
944.72842601924913
 30
0.0
 11
1346.5339234827279
 21
944.72842601924913
 31
0.0
  0
LINE
  5
50B2
  8
0
 10
1342.5339234827279
 20
946.22842601924913
 30
0.0
 11
1312.0339234827279
 21
946.22842601924913
 31
0.0
  0
LINE
  5
50B3
  8
0
 10
1377.0339234827279
 20
946.22842601924913
 30
0.0
 11
1346.5339234827279
 21
946.22842601924913
 31
0.0
  0
LINE
  5
50B4
  8
0
 10
1312.0339234827279
 20
941.22842601924913
 30
0.0
 11
1312.0339234827279
 21
935.71142601924896
 31
0.0
  0
LINE
  5
50B5
  8
0
 10
1377.0339234827279
 20
935.70842601924915
 30
0.0
 11
1377.0339234827279
 21
941.22842601924913
 31
0.0
  0
LINE
  5
50B6
  8
0
 10
1377.0339234827279
 20
941.22842601924913
 30
0.0
 11
1375.5339234827279
 21
941.22842601924913
 31
0.0
  0
LINE
  5
50B7
  8
0
 10
1375.5339234827279
 20
941.22842601924913
 30
0.0
 11
1375.5339234827279
 21
944.72842601924913
 31
0.0
  0
LINE
  5
50B8
  8
0
 10
1375.5339234827279
 20
944.72842601924913
 30
0.0
 11
1377.0339234827279
 21
944.72842601924913
 31
0.0
  0
LINE
  5
50B9
  8
0
 10
1377.0339234827279
 20
944.72842601924913
 30
0.0
 11
1377.0339234827279
 21
946.22842601924913
 31
0.0
  0
LINE
  5
50BA
  8
0
 10
1377.0339234827279
 20
946.22842601924913
 30
0.0
 11
1375.5339234827279
 21
947.72842601924901
 31
0.0
  0
LINE
  5
50BB
  8
0
 10
1313.5339234827279
 20
947.72842601924901
 30
0.0
 11
1312.0339234827279
 21
946.22842601924913
 31
0.0
  0
LINE
  5
50BC
  8
0
 10
1312.0339234827279
 20
946.22842601924913
 30
0.0
 11
1312.0339234827279
 21
944.72842601924913
 31
0.0
  0
LINE
  5
50BD
  8
0
 10
1312.0339234827279
 20
944.72842601924913
 30
0.0
 11
1313.5339234827279
 21
944.72842601924913
 31
0.0
  0
LINE
  5
50BE
  8
0
 10
1313.5339234827279
 20
944.72842601924913
 30
0.0
 11
1313.5339234827279
 21
941.22842601924913
 31
0.0
  0
LINE
  5
50BF
  8
0
 10
1313.5339234827279
 20
941.22842601924913
 30
0.0
 11
1312.0339234827279
 21
941.22842601924913
 31
0.0
  0
LINE
  5
50C0
  8
0
 10
1312.0339234827279
 20
941.22842601924913
 30
0.0
 11
1312.0439136371231
 21
935.71386079293893
 31
0.0
  0
CIRCLE
  5
50C1
  8
0
 10
1344.5339234827279
 20
924.71842601924925
 30
0.0
 40
1.5
  0
ARC
  5
50C2
  8
0
 10
1309.0439185599209
 20
935.70842601924835
 30
0.0
 40
3.0
 50
269.99999999999352
 51
0.1037965884674247
  0
ARC
  5
50C3
  8
0
 10
1380.0235886460271
 20
935.70624202939962
 30
0.0
 40
2.9999999999999991
 50
179.8926775174096
 51
267.46056827053712
  0
ARC
  5
50C4
  8
0
 10
1330.2741629478469
 20
939.43910346048665
 30
0.0
 40
19.264806140576152
 50
203.02364624776459
 51
242.67173276093939
  0
ARC
  5
50C5
  8
0
 10
1358.793684017608
 20
939.43910346048665
 30
0.0
 40
19.264806140576152
 50
297.32826723906049
 51
336.9763537522345
  0
LINE
  5
50C6
  8
0
 10
1314.5341234827281
 20
960.48505034627487
 30
0.0
 11
1314.5341234827281
 21
953.1718016922232
 31
0.0
  0
LINE
  5
50C7
  8
0
 10
1374.5341234827281
 20
960.4850503462751
 30
0.0
 11
1374.5341234827281
 21
953.1718016922232
 31
0.0
  0
LINE
  5
50C8
  8
0
 10
1317.0341234827281
 20
951.72842601924913
 30
0.0
 11
1372.0341234827281
 21
951.72842601924913
 31
0.0
  0
LINE
  5
50C9
  8
0
 10
1317.0341234827281
 20
961.92842601924895
 30
0.0
 11
1372.0341234827281
 21
961.92842601924906
 31
0.0
  0
LINE
  5
50CA
  8
0
 10
1356.5237022910089
 20
960.4850503462751
 30
0.0
 11
1356.5237022910089
 21
953.1718016922232
 31
0.0
  0
LINE
  5
50CB
  8
0
 10
1362.3550326826589
 20
960.48505034627533
 30
0.0
 11
1362.3550326826589
 21
953.1718016922232
 31
0.0
  0
LINE
  5
50CC
  8
0
 10
1332.5445446744459
 20
960.4850503462751
 30
0.0
 11
1332.5445446744459
 21
953.1718016922232
 31
0.0
  0
LINE
  5
50CD
  8
0
 10
1326.7132142827959
 20
960.4850503462751
 30
0.0
 11
1326.7132142827959
 21
953.17180169222297
 31
0.0
  0
LINE
  5
50CE
  8
0
 10
1372.0341234827281
 20
961.92842601924906
 30
0.0
 11
1374.5341234827281
 21
960.4850503462751
 31
0.0
  0
LINE
  5
50CF
  8
0
 10
1372.0341234827281
 20
951.72842601924913
 30
0.0
 11
1374.5341234827281
 21
953.1718016922232
 31
0.0
  0
LINE
  5
50D0
  8
0
 10
1362.3550326826589
 20
953.1718016922232
 30
0.0
 11
1356.5237022910089
 21
953.1718016922232
 31
0.0
  0
LINE
  5
50D1
  8
0
 10
1332.5445446744459
 20
953.1718016922232
 30
0.0
 11
1326.7132142827959
 21
953.1718016922232
 31
0.0
  0
ARC
  5
50D2
  8
0
 10
1368.4445780826929
 20
965.29586833130338
 30
0.0
 40
13.56744467642805
 50
243.33103023467851
 51
296.66896976532138
  0
ARC
  5
50D3
  8
0
 10
1344.5341234827281
 20
1002.246574573343
 30
0.0
 40
50.518148554094068
 50
256.27086732458361
 51
283.72913267541628
  0
ARC
  5
50D4
  8
0
 10
1320.6236688827621
 20
965.29586833130304
 30
0.0
 40
13.56744467642805
 50
243.33103023467851
 51
296.66896976532138
  0
LINE
  5
50D5
  8
0
 10
1317.0341234827281
 20
961.92842601924895
 30
0.0
 11
1314.5341234827281
 21
960.48505034627487
 31
0.0
  0
LINE
  5
50D6
  8
0
 10
1317.0341234827281
 20
951.72842601924913
 30
0.0
 11
1314.5341234827281
 21
953.1718016922232
 31
0.0
  0
LINE
  5
50D7
  8
0
 10
1362.3550326826589
 20
960.48505034627533
 30
0.0
 11
1356.5237022910089
 21
960.4850503462751
 31
0.0
  0
LINE
  5
50D8
  8
0
 10
1332.5445446744459
 20
960.4850503462751
 30
0.0
 11
1326.7132142827959
 21
960.4850503462751
 31
0.0
  0
ARC
  5
50D9
  8
0
 10
1368.4445780826929
 20
948.36098370719503
 30
0.0
 40
13.56744467642805
 50
63.331030234678487
 51
116.66896976532151
  0
ARC
  5
50DA
  8
0
 10
1344.5341234827281
 20
911.41027746515499
 30
0.0
 40
50.518148554094068
 50
76.27086732458362
 51
103.72913267541639
  0
ARC
  5
50DB
  8
0
 10
1320.6236688827621
 20
948.36098370719492
 30
0.0
 40
13.56744467642805
 50
63.331030234678487
 51
116.66896976532151
  0
CIRCLE
  5
50DC
  8
0
 10
1344.5341234827281
 20
965.42792601924396
 30
0.0
 40
1.5494999999999659
  0
LINE
  5
50DD
  8
0
 10
1309.1115358682659
 20
932.7091881327824
 30
0.0
 11
1302.832217560556
 21
932.70918813278217
 31
0.0
  0
LINE
  5
50DE
  8
0
 10
1386.2356294049
 20
932.70918813278217
 30
0.0
 11
1388.5339234827279
 21
928.72842601924924
 31
0.0
  0
LINE
  5
50DF
  8
0
 10
1386.2356294049
 20
880.74766390571597
 30
0.0
 11
1388.5339234827279
 21
884.7284260192489
 31
0.0
  0
ARC
  5
50E3
  8
0
 10
1338.395082623997
 20
906.72842601924924
 30
0.0
 40
37.861159141268992
 50
159.93379403894309
 51
200.06620596105691
  0
ARC
  5
50E5
  8
0
 10
1310.8610735472309
 20
887.2428544340994
 30
0.0
 40
10.3271500645029
 50
141.0278052837325
 51
201.0278052837298
  0
ARC
  5
50E6
  8
0
 10
1378.2067734182251
 20
887.2428544340994
 30
0.0
 40
10.3271500645029
 50
338.97219471627022
 51
38.972194716267438
  0
ARC
  5
50E7
  8
0
 10
1310.8610735472309
 20
926.21399760439886
 30
0.0
 40
10.3271500645029
 50
158.9721947162702
 51
218.97219471627631
  0
ARC
  5
50E8
  8
0
 10
1350.672764341459
 20
906.72842601924924
 30
0.0
 40
37.861159141268992
 50
339.93379403894312
 51
20.06620596105688
  0
ARC
  5
50E9
  8
0
 10
1378.2067734182251
 20
926.21399760439886
 30
0.0
 40
10.3271500645029
 50
321.02780528372369
 51
21.027805283729752
  0
LINE
  5
50EA
  8
0
 10
1304.5339234827279
 20
933.72842601924901
 30
0.0
 11
1304.5339234827279
 21
932.70918813278217
 31
0.0
  0
LINE
  5
50EB
  8
0
 10
1311.2977153564409
 20
933.72842601924901
 30
0.0
 11
1304.5339234827279
 21
933.72842601924901
 31
0.0
  0
LINE
  5
50EC
  8
0
 10
1375.1082311454529
 20
875.19511835653145
 30
0.0
 11
1351.066231145453
 21
851.15411835653163
 31
0.0
  0
LINE
  5
50ED
  8
0
 10
1326.9506855962679
 20
887.09866390571585
 30
0.0
 11
1351.074231145453
 21
862.97511835653177
 31
0.0
  0
LINE
  5
50EE
  8
0
 10
1372.6677933922369
 20
880.74766390571597
 30
0.0
 11
1372.6677933922369
 21
887.09866390571585
 31
0.0
  0
LINE
  5
50EF
  8
0
 10
1372.6677933922369
 20
887.09866390571585
 30
0.0
 11
1326.9506855962679
 21
887.09866390571585
 31
0.0
  0
LINE
  5
50F0
  8
0
 10
1326.9506855962679
 20
887.09866390571585
 30
0.0
 11
1324.301685596269
 21
880.74766390571597
 31
0.0
  0
LINE
  5
50F1
  8
0
 10
1346.836231145453
 20
856.79911835653161
 30
0.0
 11
1363.1072311454529
 21
873.07011835653145
 31
0.0
  0
LINE
  5
50F2
  8
0
 10
1363.1072311454529
 20
873.07011835653145
 30
0.0
 11
1364.048231145453
 21
872.12911835653176
 31
0.0
  0
LINE
  5
50F3
  8
0
 10
1364.048231145453
 20
872.12911835653176
 30
0.0
 11
1372.6677933922369
 21
880.74766390571597
 31
0.0
  0
LINE
  5
50F4
  8
0
 10
1324.301685596269
 20
880.74766390571597
 30
0.0
 11
1346.836231145453
 21
858.2131183565316
 31
0.0
  0
LINE
  5
50F5
  8
0
 10
1346.836231145453
 20
858.2131183565316
 30
0.0
 11
1346.836231145453
 21
858.2131183565316
 31
0.0
  0
LINE
  5
50F6
  8
0
 10
1346.836231145453
 20
858.2131183565316
 30
0.0
 11
1346.931231145453
 21
858.1031183565317
 31
0.0
  0
LINE
  5
50F7
  8
0
 10
1346.931231145453
 20
858.1031183565317
 30
0.0
 11
1347.0122311454529
 21
857.97411835653156
 31
0.0
  0
LINE
  5
50F8
  8
0
 10
1347.0122311454529
 20
857.97411835653156
 30
0.0
 11
1347.075231145453
 21
857.8281183565316
 31
0.0
  0
LINE
  5
50F9
  8
0
 10
1347.075231145453
 20
857.8281183565316
 30
0.0
 11
1347.115231145453
 21
857.6701183565317
 31
0.0
  0
LINE
  5
50FA
  8
0
 10
1347.115231145453
 20
857.6701183565317
 30
0.0
 11
1347.1292311454531
 21
857.50611835653172
 31
0.0
  0
LINE
  5
50FB
  8
0
 10
1347.1292311454531
 20
857.50611835653172
 30
0.0
 11
1347.115231145453
 21
857.34111835653175
 31
0.0
  0
LINE
  5
50FC
  8
0
 10
1347.115231145453
 20
857.34111835653175
 30
0.0
 11
1347.075231145453
 21
857.18311835653174
 31
0.0
  0
LINE
  5
50FD
  8
0
 10
1347.075231145453
 20
857.18311835653174
 30
0.0
 11
1347.0122311454529
 21
857.03811835653164
 31
0.0
  0
LINE
  5
50FE
  8
0
 10
1347.0122311454529
 20
857.03811835653164
 30
0.0
 11
1346.836231145453
 21
856.79911835653161
 31
0.0
  0
LINE
  5
50FF
  8
0
 10
1346.836231145453
 20
856.79911835653161
 30
0.0
 11
1346.836231145453
 21
856.79911835653161
 31
0.0
  0
LINE
  5
5100
  8
0
 10
1346.836231145453
 20
856.79911835653161
 30
0.0
 11
1346.836231145453
 21
856.79911835653161
 31
0.0
  0
LINE
  5
5101
  8
0
 10
1346.836231145453
 20
856.79911835653161
 30
0.0
 11
1346.741231145453
 21
856.68911835653171
 31
0.0
  0
LINE
  5
5102
  8
0
 10
1346.741231145453
 20
856.68911835653171
 30
0.0
 11
1346.6592311454531
 21
856.56011835653158
 31
0.0
  0
LINE
  5
5103
  8
0
 10
1346.6592311454531
 20
856.56011835653158
 30
0.0
 11
1346.596231145453
 21
856.41411835653162
 31
0.0
  0
LINE
  5
5104
  8
0
 10
1346.596231145453
 20
856.41411835653162
 30
0.0
 11
1346.556231145453
 21
856.25611835653183
 31
0.0
  0
LINE
  5
5105
  8
0
 10
1346.556231145453
 20
856.25611835653183
 30
0.0
 11
1346.5432311454531
 21
856.09211835653184
 31
0.0
  0
LINE
  5
5106
  8
0
 10
1346.5432311454531
 20
856.09211835653184
 30
0.0
 11
1346.556231145453
 21
855.92711835653176
 31
0.0
  0
LINE
  5
5107
  8
0
 10
1346.556231145453
 20
855.92711835653176
 30
0.0
 11
1346.596231145453
 21
855.76911835653152
 31
0.0
  0
LINE
  5
5108
  8
0
 10
1346.596231145453
 20
855.76911835653152
 30
0.0
 11
1346.6592311454531
 21
855.62411835653165
 31
0.0
  0
LINE
  5
5109
  8
0
 10
1346.6592311454531
 20
855.62411835653165
 30
0.0
 11
1346.836231145453
 21
855.38511835653151
 31
0.0
  0
LINE
  5
510A
  8
0
 10
1346.836231145453
 20
855.38511835653151
 30
0.0
 11
1351.066231145453
 21
851.15411835653163
 31
0.0
  0
LINE
  5
510B
  8
0
 10
1351.066231145453
 20
851.15411835653163
 30
0.0
 11
1352.481231145453
 21
851.15411835653163
 31
0.0
  0
LINE
  5
510C
  8
0
 10
1352.481231145453
 20
851.15411835653163
 30
0.0
 11
1375.1082311454529
 21
873.78111835653181
 31
0.0
  0
LINE
  5
510D
  8
0
 10
1375.1082311454529
 20
873.78111835653181
 30
0.0
 11
1375.1082311454529
 21
875.19511835653145
 31
0.0
  0
LINE
  5
510E
  8
0
 10
1375.1082311454529
 20
875.19511835653145
 30
0.0
 11
1372.526231145453
 21
877.77811835653165
 31
0.0
  0
LINE
  5
510F
  8
0
 10
1372.526231145453
 20
877.77811835653165
 30
0.0
 11
1372.526231145453
 21
877.77811835653165
 31
0.0
  0
LINE
  5
5110
  8
0
 10
1372.526231145453
 20
877.77811835653165
 30
0.0
 11
1372.336231145453
 21
877.99811835653156
 31
0.0
  0
LINE
  5
5111
  8
0
 10
1372.336231145453
 20
877.99811835653156
 30
0.0
 11
1372.172231145453
 21
878.25611835653172
 31
0.0
  0
LINE
  5
5112
  8
0
 10
1372.172231145453
 20
878.25611835653172
 30
0.0
 11
1372.047231145453
 21
878.54711835653166
 31
0.0
  0
LINE
  5
5113
  8
0
 10
1372.047231145453
 20
878.54711835653166
 30
0.0
 11
1371.9672311454531
 21
878.86311835653157
 31
0.0
  0
LINE
  5
5114
  8
0
 10
1371.9672311454531
 20
878.86311835653157
 30
0.0
 11
1371.940231145453
 21
879.19211835653164
 31
0.0
  0
LINE
  5
5115
  8
0
 10
1371.940231145453
 20
879.19211835653164
 30
0.0
 11
1371.9672311454531
 21
879.52111835653147
 31
0.0
  0
LINE
  5
5116
  8
0
 10
1371.9672311454531
 20
879.52111835653147
 30
0.0
 11
1372.047231145453
 21
879.83711835653173
 31
0.0
  0
LINE
  5
5117
  8
0
 10
1372.047231145453
 20
879.83711835653173
 30
0.0
 11
1372.172231145453
 21
880.12811835653179
 31
0.0
  0
LINE
  5
5118
  8
0
 10
1372.172231145453
 20
880.12811835653179
 30
0.0
 11
1372.6677933922369
 21
880.74766390571597
 31
0.0
  0
LINE
  5
5119
  8
0
 10
1372.526231145453
 20
880.60611835653174
 30
0.0
 11
1372.6002311454531
 21
880.68111835653167
 31
0.0
  0
ARC
  5
511A
  8
0
 10
1382.2229417795929
 20
844.03940772238388
 30
0.0
 40
24.880184541946139
 50
118.96177275989569
 51
151.0382272401084
  0
LINE
  5
511B
  8
0
 10
1354.2001695503091
 20
851.20252990666529
 30
0.0
 11
1375.0598195953121
 21
872.06217995166833
 31
0.0
  0
LINE
  5
511C
  8
0
 10
1359.857023799801
 20
845.54567565717286
 30
0.0
 11
1380.7166738448041
 21
866.4053257021759
 31
0.0
  0
ARC
  5
511D
  8
0
 10
1352.6939016154799
 20
873.56844788649801
 30
0.0
 40
24.880184542003899
 50
298.96177275993301
 51
331.03822724006881
  0
LINE
  5
511E
  8
0
 10
1360.4541991436031
 20
856.08703931076286
 30
0.0
 11
1364.7415332039011
 21
851.79970525046554
 31
0.0
  0
ARC
  5
511F
  8
0
 10
1356.3706117976681
 20
851.48731464720117
 30
0.0
 40
6.666680248538392
 50
289.97817380300648
 51
346.26958135680968
  0
LINE
  5
5120
  8
0
 10
1364.7415332039011
 20
851.79970525046554
 30
0.0
 11
1362.846779954172
 21
849.9049520007369
 31
0.0
  0
LINE
  5
5121
  8
0
 10
1360.4541991436031
 20
856.08703931076286
 30
0.0
 11
1358.559445893874
 21
854.19228606103468
 31
0.0
  0
LINE
  5
5122
  8
0
 10
1354.3769462456089
 20
851.37930660196514
 30
0.0
 11
1353.541682818247
 21
852.21457002932789
 31
0.0
  0
LINE
  5
5123
  8
0
 10
1359.8570237998019
 20
845.54567565717241
 30
0.0
 11
1357.986224430367
 21
845.04439647693152
 31
0.0
  0
LINE
  5
5124
  8
0
 10
1353.698890370069
 20
849.33173053722919
 30
0.0
 11
1357.986224430367
 21
845.04439647693152
 31
0.0
  0
LINE
  5
5125
  8
0
 10
1354.20016955031
 20
851.20252990666484
 30
0.0
 11
1353.698890370069
 21
849.33173053722919
 31
0.0
  0
LINE
  5
5126
  8
0
 10
1358.559445893874
 20
854.19228606103468
 30
0.0
 11
1362.846779954172
 21
849.9049520007369
 31
0.0
  0
ARC
  5
5127
  8
0
 10
1360.1418085403409
 20
847.71611790452823
 30
0.0
 40
6.666680248538392
 50
103.73041864319811
 51
160.02182619730939
  0
LINE
  5
5128
  8
0
 10
1375.0598195953121
 20
872.06217995166833
 30
0.0
 11
1376.93061896475
 21
872.56345913190978
 31
0.0
  0
LINE
  5
5129
  8
0
 10
1380.7166738448041
 20
866.4053257021759
 30
0.0
 11
1381.217953025046
 21
868.27612507161325
 31
0.0
  0
ARC
  5
512A
  8
0
 10
1374.7750348547761
 20
869.89173770431023
 30
0.0
 40
6.666680248538392
 50
283.73041864319799
 51
340.02182619700147
  0
LINE
  5
512B
  8
0
 10
1376.93061896475
 20
872.56345913190978
 30
0.0
 11
1381.217953025046
 21
868.27612507161325
 31
0.0
  0
LINE
  5
512C
  8
0
 10
1370.175310191215
 20
865.80815035837475
 30
0.0
 11
1372.0700634409441
 21
867.70290360810429
 31
0.0
  0
LINE
  5
512D
  8
0
 10
1370.175310191215
 20
865.80815035837475
 30
0.0
 11
1374.462644251513
 21
861.52081629807742
 31
0.0
  0
LINE
  5
512E
  8
0
 10
1376.3573975012421
 20
863.41556954780594
 30
0.0
 11
1374.462644251513
 21
861.52081629807651
 31
0.0
  0
ARC
  5
512F
  8
0
 10
1378.5462315974489
 20
866.12054096163797
 30
0.0
 40
6.666680248538392
 50
109.9781738026946
 51
166.2695813568005
  0
LINE
  5
5130
  8
0
 10
1372.0700634409441
 20
867.70290360810429
 30
0.0
 11
1376.3573975012421
 21
863.41556954780594
 31
0.0
  0
LINE
  5
5131
  8
0
 10
1374.8830429000191
 20
871.88540325637575
 30
0.0
 11
1374.0477794726589
 21
872.72066668373589
 31
0.0
  0
LINE
  5
513A
  8
0
 10
709.0052173621375
 20
931.09021443873337
 30
0.0
 11
702.66025579687289
 21
931.09021443873326
 31
0.0
  0
LINE
  5
513B
  8
0
 10
631.88112382550366
 20
931.09021443873326
 30
0.0
 11
625.60180551779388
 21
931.09021443873303
 31
0.0
  0
LINE
  5
513C
  8
0
 10
709.0052173621375
 20
918.0998333819665
 30
0.0
 11
625.60180551779376
 21
918.09983338196616
 31
0.0
  0
LINE
  5
513D
  8
0
 10
709.0052173621375
 20
892.11907126843346
 30
0.0
 11
625.60180551779376
 21
892.11907126843346
 31
0.0
  0
LINE
  5
513E
  8
0
 10
709.0052173621375
 20
879.12869021166682
 30
0.0
 11
695.43738134947455
 21
879.12869021166671
 31
0.0
  0
LINE
  5
513F
  8
0
 10
627.30351143996575
 20
932.10945232519975
 30
0.0
 11
627.30351143996575
 21
931.09021443873303
 31
0.0
  0
LINE
  5
5140
  8
0
 10
711.30351143996563
 20
927.1094523252001
 30
0.0
 11
711.30351143996575
 21
883.10945232519975
 31
0.0
  0
LINE
  5
5141
  8
0
 10
623.30351143996563
 20
927.1094523252001
 30
0.0
 11
623.30351143996575
 21
883.10945232519975
 31
0.0
  0
LINE
  5
5142
  8
0
 10
634.0673033136793
 20
932.10945232519975
 30
0.0
 11
627.30351143996575
 21
932.10945232519975
 31
0.0
  0
LINE
  5
5143
  8
0
 10
625.60180551779388
 20
931.09021443873303
 30
0.0
 11
623.30351143996563
 21
927.1094523252001
 31
0.0
  0
LINE
  5
5144
  8
0
 10
625.60180551779388
 20
879.12869021166682
 30
0.0
 11
623.30351143996563
 21
883.10945232519975
 31
0.0
  0
LINE
  5
5145
  8
0
 10
698.3037114399657
 20
946.10945232519987
 30
0.0
 11
636.3033114399658
 21
946.10945232519987
 31
0.0
  0
LINE
  5
5146
  8
0
 10
640.30371143996581
 20
950.10945232519998
 30
0.0
 11
640.30371143996581
 21
946.10945232520021
 31
0.0
  0
LINE
  5
5147
  8
0
 10
694.30371143996581
 20
950.10945232519998
 30
0.0
 11
694.30371143996581
 21
946.10945232520021
 31
0.0
  0
LINE
  5
5148
  8
0
 10
697.30371143996581
 20
958.87740151763103
 30
0.0
 11
697.30371143996547
 21
951.84150313276882
 31
0.0
  0
LINE
  5
5149
  8
0
 10
694.8037114399657
 20
960.32077719060533
 30
0.0
 11
697.30371143996581
 21
958.87740151763103
 31
0.0
  0
ARC
  5
514A
  8
0
 10
643.05371143996683
 20
967.32077719060396
 30
0.0
 40
3.2999999999999989
 50
89.999999999986969
 51
179.99999999998701
  0
LINE
  5
514B
  8
0
 10
639.75371143996676
 20
967.32077719060464
 30
0.0
 11
639.75371143996563
 21
960.3094523251998
 31
0.0
  0
LINE
  5
514C
  8
0
 10
691.5537114399674
 20
970.62077719059641
 30
0.0
 11
643.05371143996729
 21
970.62077719060403
 31
0.0
  0
ARC
  5
514D
  8
0
 10
691.55371143996683
 20
967.32077719059623
 30
0.0
 40
3.2999999999999989
 50
359.99999999998698
 51
89.999999999986969
  0
LINE
  5
514E
  8
0
 10
694.85371143996679
 20
967.32077719059589
 30
0.0
 11
694.85371143996565
 21
960.30945232520003
 31
0.0
  0
LINE
  5
514F
  8
0
 10
687.3037114399657
 20
970.62077719060005
 30
0.0
 11
647.30371143996581
 21
970.62077719060005
 31
0.0
  0
LINE
  5
5150
  8
0
 10
647.30371143996581
 20
971.11977719060019
 30
0.0
 11
687.3037114399657
 21
971.11977719060019
 31
0.0
  0
LINE
  5
5151
  8
0
 10
647.30371143996581
 20
970.62077719060005
 30
0.0
 11
647.30371143996581
 21
971.11977719060019
 31
0.0
  0
ARC
  5
5152
  8
0
 10
667.30321143996719
 20
971.11977719060019
 30
0.0
 40
0.9975000000000022
 50
0.0
 51
180.0
  0
LINE
  5
5153
  8
0
 10
687.3037114399657
 20
971.11977719060019
 30
0.0
 11
687.3037114399657
 21
970.62077719060005
 31
0.0
  0
LINE
  5
5154
  8
0
 10
665.30351143996575
 20
946.10945232519987
 30
0.0
 11
665.30351143996575
 21
943.10945232519987
 31
0.0
  0
LINE
  5
5155
  8
0
 10
669.30351143996575
 20
946.10945232519987
 30
0.0
 11
669.30351143996575
 21
943.10945232519987
 31
0.0
  0
LINE
  5
5156
  8
0
 10
698.30351143996575
 20
939.60945232519987
 30
0.0
 11
636.30351143996575
 21
939.60945232519987
 31
0.0
  0
LINE
  5
5157
  8
0
 10
665.30351143996575
 20
943.10945232519987
 30
0.0
 11
636.30351143996575
 21
943.10945232519987
 31
0.0
  0
LINE
  5
5158
  8
0
 10
698.30351143996575
 20
943.10945232519987
 30
0.0
 11
669.30351143996575
 21
943.10945232519987
 31
0.0
  0
LINE
  5
5159
  8
0
 10
665.30351143996575
 20
944.60945232519998
 30
0.0
 11
634.80351143996575
 21
944.60945232519998
 31
0.0
  0
LINE
  5
515A
  8
0
 10
699.80351143996575
 20
944.60945232519998
 30
0.0
 11
669.30351143996575
 21
944.60945232519998
 31
0.0
  0
LINE
  5
515B
  8
0
 10
634.80351143996575
 20
939.60945232519987
 30
0.0
 11
634.80351143996575
 21
934.09245232519993
 31
0.0
  0
LINE
  5
515C
  8
0
 10
699.80351143996575
 20
934.0894523252
 30
0.0
 11
699.80351143996575
 21
939.60945232519987
 31
0.0
  0
LINE
  5
515D
  8
0
 10
699.80351143996575
 20
939.60945232519987
 30
0.0
 11
698.30351143996575
 21
939.60945232519987
 31
0.0
  0
LINE
  5
515E
  8
0
 10
698.30351143996575
 20
939.60945232519987
 30
0.0
 11
698.30351143996575
 21
943.10945232519987
 31
0.0
  0
LINE
  5
515F
  8
0
 10
698.30351143996575
 20
943.10945232519987
 30
0.0
 11
699.80351143996575
 21
943.10945232519987
 31
0.0
  0
LINE
  5
5160
  8
0
 10
699.80351143996575
 20
943.10945232519987
 30
0.0
 11
699.80351143996575
 21
944.60945232519998
 31
0.0
  0
LINE
  5
5161
  8
0
 10
699.80351143996575
 20
944.60945232519998
 30
0.0
 11
698.30351143996575
 21
946.10945232519987
 31
0.0
  0
LINE
  5
5162
  8
0
 10
636.30351143996575
 20
946.10945232519987
 30
0.0
 11
634.80351143996575
 21
944.60945232519998
 31
0.0
  0
LINE
  5
5163
  8
0
 10
634.80351143996575
 20
944.60945232519998
 30
0.0
 11
634.80351143996575
 21
943.10945232519987
 31
0.0
  0
LINE
  5
5164
  8
0
 10
634.80351143996575
 20
943.10945232519987
 30
0.0
 11
636.30351143996575
 21
943.10945232519987
 31
0.0
  0
LINE
  5
5165
  8
0
 10
636.30351143996575
 20
943.10945232519987
 30
0.0
 11
636.30351143996575
 21
939.60945232519987
 31
0.0
  0
LINE
  5
5166
  8
0
 10
636.30351143996575
 20
939.60945232519987
 30
0.0
 11
634.80351143996575
 21
939.60945232519987
 31
0.0
  0
LINE
  5
5167
  8
0
 10
634.80351143996575
 20
939.60945232519987
 30
0.0
 11
634.81350159436124
 21
934.09488709888967
 31
0.0
  0
CIRCLE
  5
5168
  8
0
 10
667.30351143996575
 20
923.09945232519999
 30
0.0
 40
1.5
  0
ARC
  5
5169
  8
0
 10
631.81350651715945
 20
934.08945232519909
 30
0.0
 40
3.0
 50
269.99999999999352
 51
0.1037965884674245
  0
ARC
  5
516A
  8
0
 10
702.79317660326456
 20
934.08726833535036
 30
0.0
 40
2.9999999999999991
 50
179.8926775174096
 51
267.46056827053712
  0
ARC
  5
516B
  8
0
 10
653.04375090508529
 20
937.8201297664375
 30
0.0
 40
19.264806140576152
 50
203.02364624776541
 51
242.67173276093959
  0
ARC
  5
516C
  8
0
 10
681.56327197484597
 20
937.8201297664375
 30
0.0
 40
19.264806140576152
 50
297.32826723906038
 51
336.97635375223462
  0
LINE
  5
516D
  8
0
 10
637.3037114399657
 20
958.86607665222584
 30
0.0
 11
637.3037114399657
 21
951.55282799817405
 31
0.0
  0
LINE
  5
516E
  8
0
 10
697.30371143996581
 20
958.86607665222596
 30
0.0
 11
697.30371143996581
 21
951.55282799817405
 31
0.0
  0
LINE
  5
516F
  8
0
 10
639.80371143996581
 20
950.10945232519998
 30
0.0
 11
694.8037114399657
 21
950.10945232519998
 31
0.0
  0
LINE
  5
5170
  8
0
 10
639.80371143996581
 20
960.3094523251998
 30
0.0
 11
694.8037114399657
 21
960.30945232520003
 31
0.0
  0
LINE
  5
5171
  8
0
 10
679.29329024824744
 20
958.86607665222596
 30
0.0
 11
679.29329024824744
 21
951.55282799817405
 31
0.0
  0
LINE
  5
5172
  8
0
 10
685.1246206398971
 20
958.86607665222607
 30
0.0
 11
685.1246206398971
 21
951.55282799817405
 31
0.0
  0
LINE
  5
5173
  8
0
 10
655.31413263168395
 20
958.86607665222596
 30
0.0
 11
655.31413263168395
 21
951.55282799817405
 31
0.0
  0
LINE
  5
5174
  8
0
 10
649.48280224003418
 20
958.86607665222596
 30
0.0
 11
649.48280224003418
 21
951.55282799817383
 31
0.0
  0
LINE
  5
5175
  8
0
 10
694.8037114399657
 20
960.30945232520003
 30
0.0
 11
697.30371143996581
 21
958.86607665222596
 31
0.0
  0
LINE
  5
5176
  8
0
 10
694.8037114399657
 20
950.10945232519998
 30
0.0
 11
697.30371143996581
 21
951.55282799817405
 31
0.0
  0
LINE
  5
5177
  8
0
 10
685.1246206398971
 20
951.55282799817405
 30
0.0
 11
679.29329024824744
 21
951.55282799817405
 31
0.0
  0
LINE
  5
5178
  8
0
 10
655.31413263168383
 20
951.55282799817405
 30
0.0
 11
649.48280224003418
 21
951.55282799817405
 31
0.0
  0
ARC
  5
5179
  8
0
 10
691.21416603993146
 20
963.67689463725424
 30
0.0
 40
13.56744467642805
 50
243.33103023467859
 51
296.66896976532138
  0
ARC
  5
517A
  8
0
 10
667.30371143996581
 20
1000.6276008792941
 30
0.0
 40
50.518148554094068
 50
256.27086732458361
 51
283.72913267541639
  0
ARC
  5
517B
  8
0
 10
643.39325684000005
 20
963.67689463725389
 30
0.0
 40
13.56744467642805
 50
243.33103023467859
 51
296.66896976532138
  0
LINE
  5
517C
  8
0
 10
639.80371143996581
 20
960.3094523251998
 30
0.0
 11
637.3037114399657
 21
958.86607665222584
 31
0.0
  0
LINE
  5
517D
  8
0
 10
639.80371143996581
 20
950.10945232519998
 30
0.0
 11
637.3037114399657
 21
951.55282799817405
 31
0.0
  0
LINE
  5
517E
  8
0
 10
685.1246206398971
 20
958.86607665222607
 30
0.0
 11
679.29329024824744
 21
958.86607665222596
 31
0.0
  0
LINE
  5
517F
  8
0
 10
655.31413263168383
 20
958.86607665222596
 30
0.0
 11
649.48280224003418
 21
958.86607665222596
 31
0.0
  0
ARC
  5
5180
  8
0
 10
691.21416603993146
 20
946.74201001314611
 30
0.0
 40
13.56744467642805
 50
63.3310302346786
 51
116.66896976532141
  0
ARC
  5
5181
  8
0
 10
667.30371143996604
 20
909.79130377110585
 30
0.0
 40
50.518148554094068
 50
76.270867324583634
 51
103.7291326754163
  0
ARC
  5
5182
  8
0
 10
643.39325684000005
 20
946.74201001314566
 30
0.0
 40
13.56744467642805
 50
63.3310302346786
 51
116.66896976532141
  0
CIRCLE
  5
5183
  8
0
 10
667.30371143996604
 20
963.80895232519492
 30
0.0
 40
1.5494999999999659
  0
LINE
  5
5184
  8
0
 10
709.0052173621375
 20
931.09021443873303
 30
0.0
 11
711.30351143996575
 21
927.1094523252001
 31
0.0
  0
LINE
  5
5185
  8
0
 10
709.0052173621375
 20
879.12869021166682
 30
0.0
 11
711.30351143996575
 21
883.10945232519975
 31
0.0
  0
ARC
  5
5186
  8
0
 10
661.16467058123465
 20
905.10945232519998
 30
0.0
 40
37.861159141268992
 50
159.93379403894309
 51
200.06620596105691
  0
ARC
  5
5187
  8
0
 10
633.63066150446843
 20
885.62388074005025
 30
0.0
 40
10.3271500645029
 50
141.0278052837314
 51
201.02780528372961
  0
ARC
  5
5188
  8
0
 10
700.97636137546294
 20
885.62388074005025
 30
0.0
 40
10.3271500645029
 50
338.97219471627039
 51
38.972194716268611
  0
ARC
  5
5189
  8
0
 10
633.63066150446843
 20
924.5950239103496
 30
0.0
 40
10.3271500645029
 50
158.97219471627039
 51
218.9721947162767
  0
ARC
  5
518A
  8
0
 10
673.44235229869673
 20
905.10945232519998
 30
0.0
 40
37.861159141268992
 50
339.93379403894312
 51
20.06620596105688
  0
ARC
  5
518B
  8
0
 10
700.97636137546294
 20
924.5950239103496
 30
0.0
 40
10.3271500645029
 50
321.02780528372318
 51
21.027805283729592
  0
LINE
  5
518C
  8
0
 10
697.87781910269086
 20
873.57614466248242
 30
0.0
 11
673.83581910269072
 21
849.53514466248248
 31
0.0
  0
LINE
  5
518D
  8
0
 10
649.72027355350644
 20
885.47969021166671
 30
0.0
 11
673.84381910269065
 21
861.35614466248262
 31
0.0
  0
LINE
  5
518E
  8
0
 10
695.43738134947455
 20
879.12869021166682
 30
0.0
 11
695.43738134947455
 21
885.47969021166671
 31
0.0
  0
LINE
  5
518F
  8
0
 10
695.43738134947455
 20
885.47969021166671
 30
0.0
 11
649.72027355350644
 21
885.47969021166671
 31
0.0
  0
LINE
  5
5190
  8
0
 10
649.72027355350644
 20
885.47969021166671
 30
0.0
 11
647.07127355350644
 21
879.12869021166682
 31
0.0
  0
LINE
  5
5191
  8
0
 10
669.6058191026907
 20
855.18014466248246
 30
0.0
 11
685.87681910269055
 21
871.45114466248242
 31
0.0
  0
LINE
  5
5192
  8
0
 10
685.87681910269055
 20
871.45114466248242
 30
0.0
 11
686.81781910269058
 21
870.51014466248262
 31
0.0
  0
LINE
  5
5193
  8
0
 10
686.81781910269058
 20
870.51014466248262
 30
0.0
 11
695.43738134947455
 21
879.12869021166682
 31
0.0
  0
LINE
  5
5194
  8
0
 10
647.07127355350644
 20
879.12869021166682
 30
0.0
 11
669.6058191026907
 21
856.59414466248245
 31
0.0
  0
LINE
  5
5195
  8
0
 10
669.6058191026907
 20
856.59414466248245
 30
0.0
 11
669.6058191026907
 21
856.59414466248245
 31
0.0
  0
LINE
  5
5196
  8
0
 10
669.6058191026907
 20
856.59414466248245
 30
0.0
 11
669.70081910269073
 21
856.48414466248255
 31
0.0
  0
LINE
  5
5197
  8
0
 10
669.70081910269073
 20
856.48414466248255
 30
0.0
 11
669.78181910269075
 21
856.35514466248242
 31
0.0
  0
LINE
  5
5198
  8
0
 10
669.78181910269075
 20
856.35514466248242
 30
0.0
 11
669.84481910269074
 21
856.20914466248234
 31
0.0
  0
LINE
  5
5199
  8
0
 10
669.84481910269074
 20
856.20914466248234
 30
0.0
 11
669.8848191026907
 21
856.05114466248256
 31
0.0
  0
LINE
  5
519A
  8
0
 10
669.8848191026907
 20
856.05114466248256
 30
0.0
 11
669.89881910269082
 21
855.88714466248246
 31
0.0
  0
LINE
  5
519B
  8
0
 10
669.89881910269082
 20
855.88714466248246
 30
0.0
 11
669.8848191026907
 21
855.72214466248261
 31
0.0
  0
LINE
  5
519C
  8
0
 10
669.8848191026907
 20
855.72214466248261
 30
0.0
 11
669.84481910269074
 21
855.56414466248248
 31
0.0
  0
LINE
  5
519D
  8
0
 10
669.84481910269074
 20
855.56414466248248
 30
0.0
 11
669.78181910269075
 21
855.41914466248249
 31
0.0
  0
LINE
  5
519E
  8
0
 10
669.78181910269075
 20
855.41914466248249
 30
0.0
 11
669.6058191026907
 21
855.18014466248246
 31
0.0
  0
LINE
  5
519F
  8
0
 10
669.6058191026907
 20
855.18014466248246
 30
0.0
 11
669.6058191026907
 21
855.18014466248246
 31
0.0
  0
LINE
  5
51A0
  8
0
 10
669.6058191026907
 20
855.18014466248246
 30
0.0
 11
669.6058191026907
 21
855.18014466248246
 31
0.0
  0
LINE
  5
51A1
  8
0
 10
669.6058191026907
 20
855.18014466248246
 30
0.0
 11
669.51081910269056
 21
855.07014466248256
 31
0.0
  0
LINE
  5
51A2
  8
0
 10
669.51081910269056
 20
855.07014466248256
 30
0.0
 11
669.4288191026908
 21
854.94114466248254
 31
0.0
  0
LINE
  5
51A3
  8
0
 10
669.4288191026908
 20
854.94114466248254
 30
0.0
 11
669.36581910269069
 21
854.79514466248247
 31
0.0
  0
LINE
  5
51A4
  8
0
 10
669.36581910269069
 20
854.79514466248247
 30
0.0
 11
669.32581910269073
 21
854.63714466248257
 31
0.0
  0
LINE
  5
51A5
  8
0
 10
669.32581910269073
 20
854.63714466248257
 30
0.0
 11
669.3128191026907
 21
854.47314466248258
 31
0.0
  0
LINE
  5
51A6
  8
0
 10
669.3128191026907
 20
854.47314466248258
 30
0.0
 11
669.32581910269073
 21
854.30814466248262
 31
0.0
  0
LINE
  5
51A7
  8
0
 10
669.32581910269073
 20
854.30814466248262
 30
0.0
 11
669.36581910269069
 21
854.15014466248238
 31
0.0
  0
LINE
  5
51A8
  8
0
 10
669.36581910269069
 20
854.15014466248238
 30
0.0
 11
669.4288191026908
 21
854.00514466248262
 31
0.0
  0
LINE
  5
51A9
  8
0
 10
669.4288191026908
 20
854.00514466248262
 30
0.0
 11
669.6058191026907
 21
853.76614466248236
 31
0.0
  0
LINE
  5
51AA
  8
0
 10
669.6058191026907
 20
853.76614466248236
 30
0.0
 11
673.83581910269072
 21
849.53514466248248
 31
0.0
  0
LINE
  5
51AB
  8
0
 10
673.83581910269072
 20
849.53514466248248
 30
0.0
 11
675.25081910269057
 21
849.53514466248248
 31
0.0
  0
LINE
  5
51AC
  8
0
 10
675.25081910269057
 20
849.53514466248248
 30
0.0
 11
697.87781910269086
 21
872.16214466248255
 31
0.0
  0
LINE
  5
51AD
  8
0
 10
697.87781910269086
 20
872.16214466248255
 30
0.0
 11
697.87781910269086
 21
873.57614466248242
 31
0.0
  0
LINE
  5
51AE
  8
0
 10
697.87781910269086
 20
873.57614466248242
 30
0.0
 11
695.29581910269064
 21
876.1591446624825
 31
0.0
  0
LINE
  5
51AF
  8
0
 10
695.29581910269064
 20
876.1591446624825
 30
0.0
 11
695.29581910269064
 21
876.1591446624825
 31
0.0
  0
LINE
  5
51B0
  8
0
 10
695.29581910269064
 20
876.1591446624825
 30
0.0
 11
695.10581910269059
 21
876.37914466248253
 31
0.0
  0
LINE
  5
51B1
  8
0
 10
695.10581910269059
 20
876.37914466248253
 30
0.0
 11
694.94181910269072
 21
876.63714466248246
 31
0.0
  0
LINE
  5
51B2
  8
0
 10
694.94181910269072
 20
876.63714466248246
 30
0.0
 11
694.81681910269072
 21
876.92814466248251
 31
0.0
  0
LINE
  5
51B3
  8
0
 10
694.81681910269072
 20
876.92814466248251
 30
0.0
 11
694.73681910269079
 21
877.24414466248243
 31
0.0
  0
LINE
  5
51B4
  8
0
 10
694.73681910269079
 20
877.24414466248243
 30
0.0
 11
694.70981910269074
 21
877.57314466248238
 31
0.0
  0
LINE
  5
51B5
  8
0
 10
694.70981910269074
 20
877.57314466248238
 30
0.0
 11
694.73681910269079
 21
877.90214466248244
 31
0.0
  0
LINE
  5
51B6
  8
0
 10
694.73681910269079
 20
877.90214466248244
 30
0.0
 11
694.81681910269072
 21
878.21814466248247
 31
0.0
  0
LINE
  5
51B7
  8
0
 10
694.81681910269072
 20
878.21814466248247
 30
0.0
 11
694.94181910269072
 21
878.50914466248275
 31
0.0
  0
LINE
  5
51B8
  8
0
 10
694.94181910269072
 20
878.50914466248275
 30
0.0
 11
695.43738134947455
 21
879.12869021166682
 31
0.0
  0
LINE
  5
51B9
  8
0
 10
695.29581910269064
 20
878.98714466248248
 30
0.0
 11
695.36981910269083
 21
879.06214466248252
 31
0.0
  0
ARC
  5
51BA
  8
0
 10
704.99252973683133
 20
842.42043402833485
 30
0.0
 40
24.880184541946139
 50
118.96177275989599
 51
151.0382272401076
  0
LINE
  5
51BB
  8
0
 10
676.96975750754655
 20
849.58355621261614
 30
0.0
 11
697.82940755254958
 21
870.44320625761907
 31
0.0
  0
LINE
  5
51BC
  8
0
 10
682.62661175703897
 20
843.92670196312383
 30
0.0
 11
703.48626180204201
 21
864.78635200812676
 31
0.0
  0
ARC
  5
51BD
  8
0
 10
675.46348957271812
 20
871.94947419244897
 30
0.0
 40
24.880184542003899
 50
298.96177275993313
 51
331.03822724006909
  0
LINE
  5
51BE
  8
0
 10
683.22378710084047
 20
854.46806561671383
 30
0.0
 11
687.51112116113882
 21
850.18073155641639
 31
0.0
  0
ARC
  5
51BF
  8
0
 10
679.14019975490589
 20
849.86834095315214
 30
0.0
 40
6.666680248538392
 50
289.97817380300688
 51
346.26958135680837
  0
LINE
  5
51C0
  8
0
 10
687.51112116113882
 20
850.18073155641639
 30
0.0
 11
685.61636791141018
 21
848.28597830668775
 31
0.0
  0
LINE
  5
51C1
  8
0
 10
683.22378710084047
 20
854.46806561671383
 30
0.0
 11
681.32903385111194
 21
852.57331236698553
 31
0.0
  0
LINE
  5
51C2
  8
0
 10
677.14653420284731
 20
849.76033290791599
 30
0.0
 11
676.31127077548479
 21
850.59559633527874
 31
0.0
  0
LINE
  5
51C3
  8
0
 10
682.62661175703988
 20
843.92670196312315
 30
0.0
 11
680.75581238760469
 21
843.42542278288226
 31
0.0
  0
LINE
  5
51C4
  8
0
 10
676.46847832730646
 20
847.71275684318005
 30
0.0
 11
680.75581238760469
 21
843.42542278288226
 31
0.0
  0
LINE
  5
51C5
  8
0
 10
676.96975750754746
 20
849.58355621261558
 30
0.0
 11
676.46847832730646
 21
847.71275684318005
 31
0.0
  0
LINE
  5
51C6
  8
0
 10
681.32903385111194
 20
852.57331236698553
 30
0.0
 11
685.61636791141018
 21
848.28597830668775
 31
0.0
  0
ARC
  5
51C7
  8
0
 10
682.91139649757895
 20
846.09714421047897
 30
0.0
 40
6.666680248538392
 50
103.73041864319831
 51
160.02182619731039
  0
LINE
  5
51C8
  8
0
 10
697.82940755254958
 20
870.44320625761907
 30
0.0
 11
699.7002069219875
 21
870.94448543786064
 31
0.0
  0
LINE
  5
51C9
  8
0
 10
703.48626180204201
 20
864.78635200812676
 30
0.0
 11
703.98754098228392
 21
866.65715137756411
 31
0.0
  0
ARC
  5
51CA
  8
0
 10
697.54462281201404
 20
868.27276401026097
 30
0.0
 40
6.666680248538392
 50
283.73041864319828
 51
340.02182619700181
  0
LINE
  5
51CB
  8
0
 10
699.7002069219875
 20
870.94448543786064
 30
0.0
 11
703.98754098228392
 21
866.65715137756411
 31
0.0
  0
LINE
  5
51CC
  8
0
 10
692.94489814845235
 20
864.1891766643256
 30
0.0
 11
694.83965139818201
 21
866.08392991405515
 31
0.0
  0
LINE
  5
51CD
  8
0
 10
692.94489814845235
 20
864.1891766643256
 30
0.0
 11
697.2322322087507
 21
859.90184260402827
 31
0.0
  0
LINE
  5
51CE
  8
0
 10
699.12698545848025
 20
861.79659585375691
 30
0.0
 11
697.2322322087507
 21
859.90184260402737
 31
0.0
  0
ARC
  5
51CF
  8
0
 10
701.31581955468698
 20
864.50156726758894
 30
0.0
 40
6.666680248538392
 50
109.9781738026948
 51
166.26958135680161
  0
LINE
  5
51D0
  8
0
 10
694.83965139818201
 20
866.08392991405515
 30
0.0
 11
699.12698545848025
 21
861.79659585375691
 31
0.0
  0
LINE
  5
51D1
  8
0
 10
697.6526308572569
 20
870.26642956232661
 30
0.0
 11
696.81736742989733
 21
871.10169298968674
 31
0.0
  0
LINE
  5
51D2
  8
0
 10
647.07127355350633
 20
879.12869021166671
 30
0.0
 11
625.60180551779376
 21
879.12869021166682
 31
0.0
  0
ARC
  5
51D3
  8
0
 10
619.0374678549947
 20
1252.380611045792
 30
0.0
 40
8.1941755652750636
 50
58.622941325846902
 51
121.0861558043366
  0
ARC
  5
51D4
  8
0
 10
619.03746785499573
 20
1222.37231892308
 30
0.0
 40
8.1941755652781172
 50
238.91384419566489
 51
301.37705867412552
  0
LINE
  5
51D5
  8
0
 10
756.30371143996581
 20
1174.8764649844341
 30
0.0
 11
772.30371143996581
 21
1174.8764649844341
 31
0.0
  0
LINE
  5
51D6
  8
0
 10
719.80082433250789
 20
1215.354893604856
 30
0.0
 11
719.80082433250789
 21
1259.3980363640119
 31
0.0
  0
LINE
  5
51D7
  8
0
 10
720.33638194976902
 20
1214.4272806013821
 30
0.0
 11
752.61866011904556
 21
1211.877549514481
 31
0.0
  0
LINE
  5
51D8
  8
0
 10
719.80082433250845
 20
1215.3548936048569
 30
0.0
 11
720.33638194976902
 21
1214.4272806013821
 31
0.0
  0
ARC
  5
51D9
  8
0
 10
715.57015403682919
 20
1222.3715998817811
 30
0.0
 40
8.1934570315203672
 50
238.6215232683613
 51
301.08756016737641
  0
LINE
  5
51DA
  8
0
 10
752.61878562751235
 20
1262.8764127929719
 30
0.0
 11
720.33638194976857
 21
1260.3256493674869
 31
0.0
  0
LINE
  5
51DB
  8
0
 10
772.30371143996581
 20
1299.8764649844341
 30
0.0
 11
756.30371143996592
 21
1299.8764649844341
 31
0.0
  0
LINE
  5
51DC
  8
0
 10
719.80082433250789
 20
1259.3980363640119
 30
0.0
 11
720.33638194976857
 21
1260.3256493674869
 31
0.0
  0
ARC
  5
51DD
  8
0
 10
715.57015403682954
 20
1252.38133008709
 30
0.0
 40
8.1934570315179496
 50
58.912439832622312
 51
121.3784767316415
  0
LINE
  5
51DE
  8
0
 10
578.3037114399657
 20
1174.8764649844341
 30
0.0
 11
562.3037114399657
 21
1174.8764649844341
 31
0.0
  0
LINE
  5
51DF
  8
0
 10
614.80659854742362
 20
1215.354893604856
 30
0.0
 11
614.80659854742305
 21
1259.3980363640119
 31
0.0
  0
LINE
  5
51E0
  8
0
 10
614.2710409301626
 20
1214.4272806013821
 30
0.0
 11
581.98876276088595
 21
1211.877549514481
 31
0.0
  0
LINE
  5
51E1
  8
0
 10
614.80659854742305
 20
1215.3548936048569
 30
0.0
 11
614.2710409301626
 21
1214.4272806013821
 31
0.0
  0
LINE
  5
51E2
  8
0
 10
581.98863725241927
 20
1262.8764127929719
 30
0.0
 11
614.27104093016305
 21
1260.3256493674869
 31
0.0
  0
LINE
  5
51E3
  8
0
 10
614.80659854742305
 20
1259.3980363640119
 30
0.0
 11
614.2710409301626
 21
1260.3256493674869
 31
0.0
  0
LINE
  5
51E4
  8
0
 10
562.3037114399657
 20
1299.8764649844341
 30
0.0
 11
578.3037114399657
 21
1299.8764649844341
 31
0.0
  0
LINE
  5
51E5
  8
0
 10
756.30371143996592
 20
1299.8764649844341
 30
0.0
 11
756.30371143996581
 21
1174.8764649844341
 31
0.0
  0
LINE
  5
51E6
  8
0
 10
578.3037114399657
 20
1299.8764649844341
 30
0.0
 11
578.3037114399657
 21
1174.8764649844341
 31
0.0
  0
ARC
  5
51E7
  8
0
 10
752.30371143996592
 20
1266.86398451726
 30
0.0
 40
4.0
 50
274.51778528834092
 51
0.000000000000007
  0
ARC
  5
51E8
  8
0
 10
752.3037114399657
 20
1207.8899678752491
 30
0.0
 40
4.0
 50
0.000000000000007
 51
85.484018089006625
  0
ARC
  5
51E9
  8
0
 10
582.3037114399657
 20
1266.86398451726
 30
0.0
 40
4.0
 50
180.0
 51
265.48221471167221
  0
ARC
  5
51EA
  8
0
 10
582.3037114399657
 20
1207.8899678752491
 30
0.0
 40
4.0
 50
94.515981910993361
 51
180.0
  0
LINE
  5
51EB
  8
0
 10
772.30371143996581
 20
1299.8764649844341
 30
0.0
 11
772.30371143996581
 21
1174.8764649844341
 31
0.0
  0
LINE
  5
51EC
  8
0
 10
562.3037114399657
 20
1299.8764649844341
 30
0.0
 11
562.3037114399657
 21
1174.8764649844341
 31
0.0
  0
LINE
  5
51ED
  8
0
 10
625.60220551779412
 20
1263.3572270979671
 30
0.0
 11
631.94716708305873
 21
1263.3572270979671
 31
0.0
  0
LINE
  5
51EE
  8
0
 10
702.72629905442795
 20
1263.3572270979671
 30
0.0
 11
709.00561736213763
 21
1263.3572270979671
 31
0.0
  0
LINE
  5
51EF
  8
0
 10
625.60220551779412
 20
1250.3668460412009
 30
0.0
 11
709.00561736213774
 21
1250.3668460412
 31
0.0
  0
LINE
  5
51F0
  8
0
 10
625.60220551779412
 20
1224.3860839276681
 30
0.0
 11
709.00561736213774
 21
1224.3860839276681
 31
0.0
  0
LINE
  5
51F1
  8
0
 10
625.602205517794
 20
1211.395702870901
 30
0.0
 11
639.17004153045696
 21
1211.395702870901
 31
0.0
  0
LINE
  5
51F2
  8
0
 10
687.53614932642529
 20
1211.395702870901
 30
0.0
 11
709.00561736213774
 21
1211.395702870901
 31
0.0
  0
LINE
  5
51F3
  8
0
 10
707.30391143996565
 20
1264.3764649844341
 30
0.0
 11
707.30391143996565
 21
1263.3572270979671
 31
0.0
  0
LINE
  5
51F4
  8
0
 10
623.30391143996599
 20
1259.3764649844341
 30
0.0
 11
623.30391143996587
 21
1215.3764649844341
 31
0.0
  0
LINE
  5
51F5
  8
0
 10
711.30391143996599
 20
1259.3764649844341
 30
0.0
 11
711.30391143996587
 21
1215.3764649844341
 31
0.0
  0
LINE
  5
51F6
  8
0
 10
700.54011956625232
 20
1264.3764649844341
 30
0.0
 11
707.30391143996565
 21
1264.3764649844341
 31
0.0
  0
LINE
  5
51F7
  8
0
 10
709.00561736213763
 20
1263.3572270979671
 30
0.0
 11
711.30391143996599
 21
1259.3764649844341
 31
0.0
  0
LINE
  5
51F8
  8
0
 10
709.00561736213763
 20
1211.395702870901
 30
0.0
 11
711.30391143996599
 21
1215.3764649844341
 31
0.0
  0
LINE
  5
51F9
  8
0
 10
636.30371143996592
 20
1278.3764649844341
 30
0.0
 11
698.30411143996582
 21
1278.3764649844341
 31
0.0
  0
LINE
  5
51FA
  8
0
 10
694.30371143996581
 20
1282.3764649844341
 30
0.0
 11
694.30371143996581
 21
1278.3764649844341
 31
0.0
  0
LINE
  5
51FB
  8
0
 10
640.30371143996581
 20
1282.3764649844341
 30
0.0
 11
640.30371143996581
 21
1278.3764649844341
 31
0.0
  0
LINE
  5
51FC
  8
0
 10
637.3037114399657
 20
1291.144414176865
 30
0.0
 11
637.30371143996604
 21
1284.1085157920029
 31
0.0
  0
LINE
  5
51FD
  8
0
 10
639.80371143996581
 20
1292.5877898498391
 30
0.0
 11
637.3037114399657
 21
1291.144414176865
 31
0.0
  0
ARC
  5
51FE
  8
0
 10
691.55371143996467
 20
1299.5877898498379
 30
0.0
 40
3.2999999999999989
 50
0.0000000000130346
 51
90.000000000013031
  0
LINE
  5
51FF
  8
0
 10
694.85371143996485
 20
1299.5877898498391
 30
0.0
 11
694.85371143996599
 21
1292.5764649844341
 31
0.0
  0
LINE
  5
5200
  8
0
 10
643.0537114399641
 20
1302.8877898498311
 30
0.0
 11
691.55371143996422
 21
1302.8877898498381
 31
0.0
  0
ARC
  5
5201
  8
0
 10
643.05371143996479
 20
1299.58778984983
 30
0.0
 40
3.2999999999999989
 50
90.000000000013031
 51
180.00000000001299
  0
LINE
  5
5202
  8
0
 10
639.75371143996483
 20
1299.58778984983
 30
0.0
 11
639.75371143996585
 21
1292.5764649844341
 31
0.0
  0
LINE
  5
5203
  8
0
 10
647.30371143996581
 20
1302.887789849834
 30
0.0
 11
687.3037114399657
 21
1302.887789849834
 31
0.0
  0
LINE
  5
5204
  8
0
 10
687.3037114399657
 20
1303.386789849834
 30
0.0
 11
647.30371143996581
 21
1303.386789849834
 31
0.0
  0
LINE
  5
5205
  8
0
 10
687.3037114399657
 20
1302.887789849834
 30
0.0
 11
687.3037114399657
 21
1303.386789849834
 31
0.0
  0
ARC
  5
5206
  8
0
 10
667.30421143996432
 20
1303.386789849834
 30
0.0
 40
0.9975000000000022
 50
0.000000000000007
 51
180.0
  0
LINE
  5
5207
  8
0
 10
647.30371143996581
 20
1303.386789849834
 30
0.0
 11
647.30371143996581
 21
1302.887789849834
 31
0.0
  0
LINE
  5
5208
  8
0
 10
669.30391143996587
 20
1278.3764649844341
 30
0.0
 11
669.30391143996587
 21
1275.3764649844341
 31
0.0
  0
LINE
  5
5209
  8
0
 10
665.30391143996587
 20
1278.3764649844341
 30
0.0
 11
665.30391143996587
 21
1275.3764649844341
 31
0.0
  0
LINE
  5
520A
  8
0
 10
636.30391143996587
 20
1271.8764649844341
 30
0.0
 11
698.30391143996587
 21
1271.8764649844341
 31
0.0
  0
LINE
  5
520B
  8
0
 10
669.30391143996587
 20
1275.3764649844341
 30
0.0
 11
698.30391143996587
 21
1275.3764649844341
 31
0.0
  0
LINE
  5
520C
  8
0
 10
636.30391143996587
 20
1275.3764649844341
 30
0.0
 11
665.30391143996587
 21
1275.3764649844341
 31
0.0
  0
LINE
  5
520D
  8
0
 10
669.30391143996587
 20
1276.8764649844341
 30
0.0
 11
699.80391143996576
 21
1276.8764649844341
 31
0.0
  0
LINE
  5
520E
  8
0
 10
634.80391143996576
 20
1276.8764649844341
 30
0.0
 11
665.30391143996587
 21
1276.8764649844341
 31
0.0
  0
LINE
  5
520F
  8
0
 10
699.80391143996576
 20
1271.8764649844341
 30
0.0
 11
699.80391143996576
 21
1266.359464984434
 31
0.0
  0
LINE
  5
5210
  8
0
 10
634.80391143996576
 20
1266.3564649844341
 30
0.0
 11
634.80391143996576
 21
1271.8764649844341
 31
0.0
  0
LINE
  5
5211
  8
0
 10
634.80391143996576
 20
1271.8764649844341
 30
0.0
 11
636.30391143996587
 21
1271.8764649844341
 31
0.0
  0
LINE
  5
5212
  8
0
 10
636.30391143996587
 20
1271.8764649844341
 30
0.0
 11
636.30391143996587
 21
1275.3764649844341
 31
0.0
  0
LINE
  5
5213
  8
0
 10
636.30391143996587
 20
1275.3764649844341
 30
0.0
 11
634.80391143996576
 21
1275.3764649844341
 31
0.0
  0
LINE
  5
5214
  8
0
 10
634.80391143996576
 20
1275.3764649844341
 30
0.0
 11
634.80391143996576
 21
1276.8764649844341
 31
0.0
  0
LINE
  5
5215
  8
0
 10
634.80391143996576
 20
1276.8764649844341
 30
0.0
 11
636.30391143996587
 21
1278.3764649844341
 31
0.0
  0
LINE
  5
5216
  8
0
 10
698.30391143996587
 20
1278.3764649844341
 30
0.0
 11
699.80391143996576
 21
1276.8764649844341
 31
0.0
  0
LINE
  5
5217
  8
0
 10
699.80391143996576
 20
1276.8764649844341
 30
0.0
 11
699.80391143996576
 21
1275.3764649844341
 31
0.0
  0
LINE
  5
5218
  8
0
 10
699.80391143996576
 20
1275.3764649844341
 30
0.0
 11
698.30391143996587
 21
1275.3764649844341
 31
0.0
  0
LINE
  5
5219
  8
0
 10
698.30391143996587
 20
1275.3764649844341
 30
0.0
 11
698.30391143996587
 21
1271.8764649844341
 31
0.0
  0
LINE
  5
521A
  8
0
 10
698.30391143996587
 20
1271.8764649844341
 30
0.0
 11
699.80391143996576
 21
1271.8764649844341
 31
0.0
  0
LINE
  5
521B
  8
0
 10
699.80391143996576
 20
1271.8764649844341
 30
0.0
 11
699.79392128557038
 21
1266.3618997581241
 31
0.0
  0
CIRCLE
  5
521C
  8
0
 10
667.30391143996576
 20
1255.3664649844341
 30
0.0
 40
1.5
  0
ARC
  5
521D
  8
0
 10
702.79391636277205
 20
1266.3564649844329
 30
0.0
 40
3.0
 50
179.8962034115325
 51
270.00000000001302
  0
ARC
  5
521E
  8
0
 10
631.81424627666695
 20
1266.354280994585
 30
0.0
 40
2.9999999999999991
 50
272.53943172946288
 51
0.1073224825920576
  0
ARC
  5
521F
  8
0
 10
681.56367197484622
 20
1270.087142425672
 30
0.0
 40
19.264806140576152
 50
297.32826723906652
 51
336.97635375223263
  0
ARC
  5
5220
  8
0
 10
653.04415090508553
 20
1270.087142425672
 30
0.0
 40
19.264806140576152
 50
203.0236462477674
 51
242.67173276093359
  0
LINE
  5
5221
  8
0
 10
697.30371143996581
 20
1291.13308931146
 30
0.0
 11
697.30371143996581
 21
1283.8198406574079
 31
0.0
  0
LINE
  5
5222
  8
0
 10
637.3037114399657
 20
1291.13308931146
 30
0.0
 11
637.3037114399657
 21
1283.8198406574079
 31
0.0
  0
LINE
  5
5223
  8
0
 10
694.8037114399657
 20
1282.3764649844341
 30
0.0
 11
639.80371143996581
 21
1282.3764649844341
 31
0.0
  0
LINE
  5
5224
  8
0
 10
694.8037114399657
 20
1292.5764649844341
 30
0.0
 11
639.80371143996581
 21
1292.5764649844341
 31
0.0
  0
LINE
  5
5225
  8
0
 10
655.31413263168395
 20
1291.13308931146
 30
0.0
 11
655.31413263168395
 21
1283.8198406574079
 31
0.0
  0
LINE
  5
5226
  8
0
 10
649.48280224003452
 20
1291.13308931146
 30
0.0
 11
649.48280224003452
 21
1283.8198406574079
 31
0.0
  0
LINE
  5
5227
  8
0
 10
679.29329024824744
 20
1291.13308931146
 30
0.0
 11
679.29329024824744
 21
1283.8198406574079
 31
0.0
  0
LINE
  5
5228
  8
0
 10
685.12462063989733
 20
1291.13308931146
 30
0.0
 11
685.12462063989733
 21
1283.8198406574079
 31
0.0
  0
LINE
  5
5229
  8
0
 10
639.80371143996581
 20
1292.5764649844341
 30
0.0
 11
637.3037114399657
 21
1291.13308931146
 31
0.0
  0
LINE
  5
522A
  8
0
 10
639.80371143996581
 20
1282.3764649844341
 30
0.0
 11
637.3037114399657
 21
1283.8198406574079
 31
0.0
  0
LINE
  5
522B
  8
0
 10
649.48280224003452
 20
1283.8198406574079
 30
0.0
 11
655.31413263168395
 21
1283.8198406574079
 31
0.0
  0
LINE
  5
522C
  8
0
 10
679.29329024824767
 20
1283.8198406574079
 30
0.0
 11
685.12462063989733
 21
1283.8198406574079
 31
0.0
  0
ARC
  5
522D
  8
0
 10
643.39325684000005
 20
1295.9439072964881
 30
0.0
 40
13.56744467642805
 50
243.33103023467879
 51
296.66896976532132
  0
ARC
  5
522E
  8
0
 10
667.30371143996581
 20
1332.8946135385279
 30
0.0
 40
50.518148554094068
 50
256.27086732458361
 51
283.72913267541639
  0
ARC
  5
522F
  8
0
 10
691.21416603993146
 20
1295.9439072964881
 30
0.0
 40
13.56744467642805
 50
243.33103023467879
 51
296.66896976532132
  0
LINE
  5
5230
  8
0
 10
694.8037114399657
 20
1292.5764649844341
 30
0.0
 11
697.30371143996581
 21
1291.13308931146
 31
0.0
  0
LINE
  5
5231
  8
0
 10
694.8037114399657
 20
1282.3764649844341
 30
0.0
 11
697.30371143996581
 21
1283.8198406574079
 31
0.0
  0
LINE
  5
5232
  8
0
 10
649.48280224003452
 20
1291.13308931146
 30
0.0
 11
655.31413263168395
 21
1291.13308931146
 31
0.0
  0
LINE
  5
5233
  8
0
 10
679.29329024824767
 20
1291.13308931146
 30
0.0
 11
685.12462063989733
 21
1291.13308931146
 31
0.0
  0
ARC
  5
5234
  8
0
 10
643.39325684000005
 20
1279.0090226723801
 30
0.0
 40
13.56744467642805
 50
63.331030234678771
 51
116.66896976532119
  0
ARC
  5
5235
  8
0
 10
667.30371143996547
 20
1242.05831643034
 30
0.0
 40
50.518148554094068
 50
76.270867324583548
 51
103.72913267541639
  0
ARC
  5
5236
  8
0
 10
691.21416603993146
 20
1279.0090226723801
 30
0.0
 40
13.56744467642805
 50
63.331030234678771
 51
116.66896976532119
  0
CIRCLE
  5
5237
  8
0
 10
667.30371143996547
 20
1296.075964984429
 30
0.0
 40
1.5494999999999659
  0
LINE
  5
5238
  8
0
 10
625.60220551779412
 20
1263.3572270979671
 30
0.0
 11
623.30391143996565
 21
1259.3764649844341
 31
0.0
  0
LINE
  5
5239
  8
0
 10
625.60220551779412
 20
1211.395702870901
 30
0.0
 11
623.30391143996565
 21
1215.3764649844341
 31
0.0
  0
ARC
  5
523A
  8
0
 10
673.44275229869675
 20
1237.3764649844341
 30
0.0
 40
37.861159141268992
 50
339.93379403894681
 51
20.066205961053289
  0
ARC
  5
523B
  8
0
 10
700.97676137546318
 20
1217.890893399285
 30
0.0
 40
10.3271500645029
 50
338.97219471627039
 51
38.972194716268397
  0
ARC
  5
523C
  8
0
 10
633.63106150446845
 20
1217.890893399285
 30
0.0
 40
10.3271500645029
 50
141.0278052837316
 51
201.02780528372949
  0
ARC
  5
523D
  8
0
 10
700.97676137546318
 20
1256.8620365695831
 30
0.0
 40
10.3271500645029
 50
321.02780528372813
 51
21.027805283729592
  0
ARC
  5
523E
  8
0
 10
661.16507058123489
 20
1237.3764649844341
 30
0.0
 40
37.861159141268992
 50
159.9337940389467
 51
200.06620596106049
  0
ARC
  5
523F
  8
0
 10
633.63106150446845
 20
1256.8620365695831
 30
0.0
 40
10.3271500645029
 50
158.97219471627039
 51
218.9721947162719
  0
LINE
  5
5240
  8
0
 10
636.72960377724075
 20
1205.843157321716
 30
0.0
 11
660.7716037772409
 21
1181.8021573217161
 31
0.0
  0
LINE
  5
5241
  8
0
 10
684.88714932642506
 20
1217.7467028709009
 30
0.0
 11
660.76360377724075
 21
1193.6231573217169
 31
0.0
  0
LINE
  5
5242
  8
0
 10
639.17004153045696
 20
1211.395702870901
 30
0.0
 11
639.17004153045696
 21
1217.7467028709009
 31
0.0
  0
LINE
  5
5243
  8
0
 10
639.17004153045696
 20
1217.7467028709009
 30
0.0
 11
684.88714932642506
 21
1217.7467028709009
 31
0.0
  0
LINE
  5
5244
  8
0
 10
684.88714932642506
 20
1217.7467028709009
 30
0.0
 11
687.53614932642506
 21
1211.395702870901
 31
0.0
  0
LINE
  5
5245
  8
0
 10
665.00160377724092
 20
1187.447157321717
 30
0.0
 11
648.73060377724084
 21
1203.7181573217169
 31
0.0
  0
LINE
  5
5246
  8
0
 10
648.73060377724084
 20
1203.7181573217169
 30
0.0
 11
647.78960377724093
 21
1202.7771573217169
 31
0.0
  0
LINE
  5
5247
  8
0
 10
647.78960377724093
 20
1202.7771573217169
 30
0.0
 11
639.17004153045696
 21
1211.395702870901
 31
0.0
  0
LINE
  5
5248
  8
0
 10
687.53614932642506
 20
1211.395702870901
 30
0.0
 11
665.00160377724092
 21
1188.8611573217161
 31
0.0
  0
LINE
  5
5249
  8
0
 10
665.00160377724092
 20
1188.8611573217161
 30
0.0
 11
665.00160377724092
 21
1188.8611573217161
 31
0.0
  0
LINE
  5
524A
  8
0
 10
665.00160377724092
 20
1188.8611573217161
 30
0.0
 11
664.90660377724078
 21
1188.7511573217171
 31
0.0
  0
LINE
  5
524B
  8
0
 10
664.90660377724078
 20
1188.7511573217171
 30
0.0
 11
664.82560377724064
 21
1188.6221573217169
 31
0.0
  0
LINE
  5
524C
  8
0
 10
664.82560377724064
 20
1188.6221573217169
 30
0.0
 11
664.76260377724088
 21
1188.476157321717
 31
0.0
  0
LINE
  5
524D
  8
0
 10
664.76260377724088
 20
1188.476157321717
 30
0.0
 11
664.72260377724092
 21
1188.3181573217171
 31
0.0
  0
LINE
  5
524E
  8
0
 10
664.72260377724092
 20
1188.3181573217171
 30
0.0
 11
664.7086037772408
 21
1188.1541573217171
 31
0.0
  0
LINE
  5
524F
  8
0
 10
664.7086037772408
 20
1188.1541573217171
 30
0.0
 11
664.72260377724092
 21
1187.9891573217169
 31
0.0
  0
LINE
  5
5250
  8
0
 10
664.72260377724092
 20
1187.9891573217169
 30
0.0
 11
664.76260377724088
 21
1187.831157321717
 31
0.0
  0
LINE
  5
5251
  8
0
 10
664.76260377724088
 20
1187.831157321717
 30
0.0
 11
664.82560377724064
 21
1187.6861573217161
 31
0.0
  0
LINE
  5
5252
  8
0
 10
664.82560377724064
 20
1187.6861573217161
 30
0.0
 11
665.00160377724092
 21
1187.447157321717
 31
0.0
  0
LINE
  5
5253
  8
0
 10
665.00160377724092
 20
1187.447157321717
 30
0.0
 11
665.00160377724092
 21
1187.447157321717
 31
0.0
  0
LINE
  5
5254
  8
0
 10
665.00160377724092
 20
1187.447157321717
 30
0.0
 11
665.00160377724092
 21
1187.447157321717
 31
0.0
  0
LINE
  5
5255
  8
0
 10
665.00160377724092
 20
1187.447157321717
 30
0.0
 11
665.09660377724094
 21
1187.3371573217171
 31
0.0
  0
LINE
  5
5256
  8
0
 10
665.09660377724094
 20
1187.3371573217171
 30
0.0
 11
665.17860377724082
 21
1187.208157321717
 31
0.0
  0
LINE
  5
5257
  8
0
 10
665.17860377724082
 20
1187.208157321717
 30
0.0
 11
665.24160377724093
 21
1187.062157321717
 31
0.0
  0
LINE
  5
5258
  8
0
 10
665.24160377724093
 20
1187.062157321717
 30
0.0
 11
665.28160377724078
 21
1186.9041573217171
 31
0.0
  0
LINE
  5
5259
  8
0
 10
665.28160377724078
 20
1186.9041573217171
 30
0.0
 11
665.29460377724081
 21
1186.7401573217171
 31
0.0
  0
LINE
  5
525A
  8
0
 10
665.29460377724081
 20
1186.7401573217171
 30
0.0
 11
665.28160377724078
 21
1186.5751573217169
 31
0.0
  0
LINE
  5
525B
  8
0
 10
665.28160377724078
 20
1186.5751573217169
 30
0.0
 11
665.24160377724093
 21
1186.417157321717
 31
0.0
  0
LINE
  5
525C
  8
0
 10
665.24160377724093
 20
1186.417157321717
 30
0.0
 11
665.17860377724082
 21
1186.272157321717
 31
0.0
  0
LINE
  5
525D
  8
0
 10
665.17860377724082
 20
1186.272157321717
 30
0.0
 11
665.00160377724092
 21
1186.033157321717
 31
0.0
  0
LINE
  5
525E
  8
0
 10
665.00160377724092
 20
1186.033157321717
 30
0.0
 11
660.7716037772409
 21
1181.8021573217161
 31
0.0
  0
LINE
  5
525F
  8
0
 10
660.7716037772409
 20
1181.8021573217161
 30
0.0
 11
659.35660377724093
 21
1181.8021573217161
 31
0.0
  0
LINE
  5
5260
  8
0
 10
659.35660377724093
 20
1181.8021573217161
 30
0.0
 11
636.72960377724075
 21
1204.429157321717
 31
0.0
  0
LINE
  5
5261
  8
0
 10
636.72960377724075
 20
1204.429157321717
 30
0.0
 11
636.72960377724075
 21
1205.843157321716
 31
0.0
  0
LINE
  5
5262
  8
0
 10
636.72960377724075
 20
1205.843157321716
 30
0.0
 11
639.31160377724075
 21
1208.4261573217159
 31
0.0
  0
LINE
  5
5263
  8
0
 10
639.31160377724075
 20
1208.4261573217159
 30
0.0
 11
639.31160377724075
 21
1208.4261573217159
 31
0.0
  0
LINE
  5
5264
  8
0
 10
639.31160377724075
 20
1208.4261573217159
 30
0.0
 11
639.50160377724092
 21
1208.6461573217171
 31
0.0
  0
LINE
  5
5265
  8
0
 10
639.50160377724092
 20
1208.6461573217171
 30
0.0
 11
639.6656037772409
 21
1208.9041573217171
 31
0.0
  0
LINE
  5
5266
  8
0
 10
639.6656037772409
 20
1208.9041573217171
 30
0.0
 11
639.7906037772409
 21
1209.195157321717
 31
0.0
  0
LINE
  5
5267
  8
0
 10
639.7906037772409
 20
1209.195157321717
 30
0.0
 11
639.87060377724083
 21
1209.5111573217171
 31
0.0
  0
LINE
  5
5268
  8
0
 10
639.87060377724083
 20
1209.5111573217171
 30
0.0
 11
639.89760377724076
 21
1209.840157321717
 31
0.0
  0
LINE
  5
5269
  8
0
 10
639.89760377724076
 20
1209.840157321717
 30
0.0
 11
639.87060377724083
 21
1210.169157321717
 31
0.0
  0
LINE
  5
526A
  8
0
 10
639.87060377724083
 20
1210.169157321717
 30
0.0
 11
639.7906037772409
 21
1210.485157321717
 31
0.0
  0
LINE
  5
526B
  8
0
 10
639.7906037772409
 20
1210.485157321717
 30
0.0
 11
639.6656037772409
 21
1210.7761573217169
 31
0.0
  0
LINE
  5
526C
  8
0
 10
639.6656037772409
 20
1210.7761573217169
 30
0.0
 11
639.17004153045696
 21
1211.395702870901
 31
0.0
  0
LINE
  5
526D
  8
0
 10
639.31160377724075
 20
1211.254157321717
 30
0.0
 11
639.23760377724068
 21
1211.329157321717
 31
0.0
  0
ARC
  5
526E
  8
0
 10
629.61489314310029
 20
1174.687446687569
 30
0.0
 40
24.880184541946139
 50
28.961772759894771
 51
61.038227240104128
  0
LINE
  5
526F
  8
0
 10
657.63766537238496
 20
1181.8505688718501
 30
0.0
 11
636.77801532738204
 21
1202.7102189168529
 31
0.0
  0
LINE
  5
5270
  8
0
 10
651.98081112289265
 20
1176.1937146223579
 30
0.0
 11
631.12116107788961
 21
1197.0533646673609
 31
0.0
  0
ARC
  5
5271
  8
0
 10
659.1439333072135
 20
1204.2164868516829
 30
0.0
 40
24.880184542003899
 50
208.9617727599298
 51
241.03822724007281
  0
LINE
  5
5272
  8
0
 10
651.38363577909104
 20
1186.7350782759479
 30
0.0
 11
647.09630171879269
 21
1182.447744215651
 31
0.0
  0
ARC
  5
5273
  8
0
 10
655.46722312502561
 20
1182.1353536123861
 30
0.0
 40
6.666680248538392
 50
193.73041864319239
 51
250.0218261969994
  0
LINE
  5
5274
  8
0
 10
647.09630171879269
 20
1182.447744215651
 30
0.0
 11
648.99105496852144
 21
1180.5529909659219
 31
0.0
  0
LINE
  5
5275
  8
0
 10
651.38363577909104
 20
1186.7350782759479
 30
0.0
 11
653.27838902881967
 21
1184.8403250262199
 31
0.0
  0
LINE
  5
5276
  8
0
 10
657.4608886770842
 20
1182.02734556715
 30
0.0
 11
658.29615210444672
 21
1182.862608994513
 31
0.0
  0
LINE
  5
5277
  8
0
 10
651.98081112289174
 20
1176.193714622357
 30
0.0
 11
653.85161049232693
 21
1175.692435442116
 31
0.0
  0
LINE
  5
5278
  8
0
 10
658.13894455262516
 20
1179.979769502414
 30
0.0
 11
653.85161049232693
 21
1175.692435442116
 31
0.0
  0
LINE
  5
5279
  8
0
 10
657.63766537238405
 20
1181.8505688718501
 30
0.0
 11
658.13894455262516
 21
1179.979769502414
 31
0.0
  0
LINE
  5
527A
  8
0
 10
653.27838902881967
 20
1184.8403250262199
 30
0.0
 11
648.99105496852144
 21
1180.5529909659219
 31
0.0
  0
ARC
  5
527B
  8
0
 10
651.69602638235256
 20
1178.364156869713
 30
0.0
 40
6.666680248538392
 50
19.978173802688271
 51
76.26958135680178
  0
LINE
  5
527C
  8
0
 10
636.77801532738204
 20
1202.7102189168529
 30
0.0
 11
634.90721595794412
 21
1203.211498097095
 31
0.0
  0
LINE
  5
527D
  8
0
 10
631.12116107788961
 20
1197.0533646673609
 30
0.0
 11
630.6198818976477
 21
1198.9241640367979
 31
0.0
  0
ARC
  5
527E
  8
0
 10
637.06280006791746
 20
1200.539776669495
 30
0.0
 40
6.666680248538392
 50
199.97817380299901
 51
256.26958135680178
  0
LINE
  5
527F
  8
0
 10
634.90721595794412
 20
1203.211498097095
 30
0.0
 11
630.6198818976477
 21
1198.9241640367979
 31
0.0
  0
LINE
  5
5280
  8
0
 10
641.66252473147915
 20
1196.45618932356
 30
0.0
 11
639.76777148174961
 21
1198.3509425732891
 31
0.0
  0
LINE
  5
5281
  8
0
 10
641.66252473147915
 20
1196.45618932356
 30
0.0
 11
637.37519067118092
 21
1192.168855263262
 31
0.0
  0
LINE
  5
5282
  8
0
 10
635.48043742145137
 20
1194.0636085129911
 30
0.0
 11
637.37519067118092
 21
1192.168855263262
 31
0.0
  0
ARC
  5
5283
  8
0
 10
633.29160332524452
 20
1196.7685799268229
 30
0.0
 40
6.666680248538392
 50
13.73041864319875
 51
70.021826197305103
  0
LINE
  5
5284
  8
0
 10
639.76777148174961
 20
1198.3509425732891
 30
0.0
 11
635.48043742145137
 21
1194.0636085129911
 31
0.0
  0
LINE
  5
5285
  8
0
 10
636.95479202267461
 20
1202.533442221561
 30
0.0
 11
637.79005545003417
 21
1203.3687056489209
 31
0.0
  0
LINE
  5
5288
  8
0
 10
1324.301685596269
 20
880.74766390571597
 30
0.0
 11
1302.832217560556
 21
880.74766390571597
 31
0.0
  0
LINE
  5
5289
  8
0
 10
1239.533977567444
 20
974.22842601924913
 30
0.0
 11
1239.533977567444
 21
839.22842601924913
 31
0.0
  0
LINE
  5
528A
  8
0
 10
1449.533977567444
 20
974.22842601924913
 30
0.0
 11
1449.533977567444
 21
839.22842601924913
 31
0.0
  0
LINE
  5
528C
  8
0
 10
1239.533977567444
 20
1146.4793943744851
 30
0.0
 11
1239.533977567444
 21
1011.479394374485
 31
0.0
  0
LINE
  5
528D
  8
0
 10
1449.533977567444
 20
1146.4793943744851
 30
0.0
 11
1449.533977567444
 21
1011.479394374485
 31
0.0
  0
LINE
  5
528E
  8
0
 10
1427.848943585557
 20
1264.968689257166
 30
0.0
 11
1397.5665399078141
 21
1262.5759539296471
 31
0.0
  0
LINE
  5
528F
  8
0
 10
1397.5665399078141
 20
1216.6775851635409
 30
0.0
 11
1427.848818077091
 21
1214.2858188320099
 31
0.0
  0
LINE
  5
5290
  8
0
 10
1431.5338693980109
 20
1172.126769546594
 30
0.0
 11
1449.5338693980109
 21
1172.126769546594
 31
0.0
  0
LINE
  5
5291
  8
0
 10
1397.0309822905531
 20
1217.6051981670159
 30
0.0
 11
1397.0309822905531
 21
1261.6483409261721
 31
0.0
  0
ARC
  5
5292
  8
0
 10
1392.8002393976919
 20
1224.6221667412699
 30
0.0
 40
8.1937191431952066
 50
238.62204058611491
 51
301.08704784534842
  0
LINE
  5
5293
  8
0
 10
1397.0309822905531
 20
1217.6051981670171
 30
0.0
 11
1397.5665399078141
 21
1216.6775851635409
 31
0.0
  0
ARC
  5
5294
  8
0
 10
1392.8002393976931
 20
1254.6313723515029
 30
0.0
 40
8.1937191435503394
 50
58.912952156170519
 51
121.3779594123877
  0
LINE
  5
5295
  8
0
 10
1397.0309822905531
 20
1261.6483409261721
 30
0.0
 11
1397.5665399078141
 21
1262.5759539296471
 31
0.0
  0
LINE
  5
5296
  8
0
 10
1449.5338693980109
 20
1307.126769546594
 30
0.0
 11
1431.5338693980109
 21
1307.126769546594
 31
0.0
  0
LINE
  5
5297
  8
0
 10
1257.5338693980109
 20
1172.126769546594
 30
0.0
 11
1239.5338693980109
 21
1172.126769546594
 31
0.0
  0
LINE
  5
5298
  8
0
 10
1292.0367565054689
 20
1217.6051981670159
 30
0.0
 11
1292.036756505468
 21
1261.6483409261721
 31
0.0
  0
LINE
  5
5299
  8
0
 10
1291.5011988882079
 20
1216.6775851635409
 30
0.0
 11
1261.218920718931
 21
1214.285818832011
 31
0.0
  0
ARC
  5
529A
  8
0
 10
1296.267553215838
 20
1224.6223611874129
 30
0.0
 40
8.1939134520266901
 50
238.91333192905199
 51
301.37757593618142
  0
LINE
  5
529B
  8
0
 10
1292.036756505468
 20
1217.6051981670171
 30
0.0
 11
1291.5011988882079
 21
1216.6775851635409
 31
0.0
  0
LINE
  5
529C
  8
0
 10
1261.2187952104639
 20
1264.968689257166
 30
0.0
 11
1291.5011988882079
 21
1262.5759539296471
 31
0.0
  0
ARC
  5
529D
  8
0
 10
1296.2675532158371
 20
1254.6311779057769
 30
0.0
 40
8.193913452024816
 50
58.622424063814691
 51
121.08666807094841
  0
LINE
  5
529E
  8
0
 10
1292.036756505468
 20
1261.6483409261721
 30
0.0
 11
1291.5011988882079
 21
1262.5759539296471
 31
0.0
  0
LINE
  5
529F
  8
0
 10
1239.5338693980109
 20
1307.126769546594
 30
0.0
 11
1257.5338693980109
 21
1307.126769546594
 31
0.0
  0
LINE
  5
52A0
  8
0
 10
1431.5338693980109
 20
1307.126769546594
 30
0.0
 11
1431.5338693980109
 21
1172.126769546594
 31
0.0
  0
LINE
  5
52A1
  8
0
 10
1257.5338693980109
 20
1307.126769546594
 30
0.0
 11
1257.5338693980109
 21
1172.126769546594
 31
0.0
  0
ARC
  5
52A2
  8
0
 10
1427.5338693980109
 20
1268.9562609814541
 30
0.0
 40
4.0
 50
274.51778528834092
 51
0.000000000000007
  0
ARC
  5
52A3
  8
0
 10
1427.5338693980109
 20
1210.2982371927781
 30
0.0
 40
4.0
 50
0.000000000000007
 51
85.484018088993636
  0
ARC
  5
52A4
  8
0
 10
1261.5338693980109
 20
1268.9562609814541
 30
0.0
 40
4.0
 50
180.0
 51
265.4822147116592
  0
ARC
  5
52A5
  8
0
 10
1261.5338693980109
 20
1210.2982371927781
 30
0.0
 40
4.0
 50
94.515981911006335
 51
180.0
  0
LINE
  5
52A6
  8
0
 10
1302.832217560556
 20
1265.6075316601271
 30
0.0
 11
1309.1771791258211
 21
1265.6075316601271
 31
0.0
  0
LINE
  5
52A7
  8
0
 10
1379.9563110971901
 20
1265.6075316601271
 30
0.0
 11
1386.2356294049
 21
1265.6075316601271
 31
0.0
  0
LINE
  5
52A8
  8
0
 10
1302.832217560556
 20
1252.61715060336
 30
0.0
 11
1386.2356294049
 21
1252.61715060336
 31
0.0
  0
LINE
  5
52A9
  8
0
 10
1302.832217560556
 20
1226.6363884898269
 30
0.0
 11
1386.2356294049
 21
1226.6363884898269
 31
0.0
  0
LINE
  5
52AA
  8
0
 10
1302.832217560556
 20
1213.646007433061
 30
0.0
 11
1316.4000535732191
 21
1213.646007433061
 31
0.0
  0
LINE
  5
52AB
  8
0
 10
1364.7661613691871
 20
1213.646007433061
 30
0.0
 11
1386.2356294049
 21
1213.646007433061
 31
0.0
  0
LINE
  5
52AC
  8
0
 10
1384.5339234827279
 20
1266.626769546594
 30
0.0
 11
1384.5339234827279
 21
1265.6075316601271
 31
0.0
  0
LINE
  5
52AD
  8
0
 10
1300.5339234827279
 20
1261.626769546594
 30
0.0
 11
1300.5339234827279
 21
1217.626769546594
 31
0.0
  0
LINE
  5
52AE
  8
0
 10
1388.5339234827279
 20
1261.626769546594
 30
0.0
 11
1388.5339234827279
 21
1217.626769546594
 31
0.0
  0
LINE
  5
52AF
  8
0
 10
1377.770131609014
 20
1266.626769546594
 30
0.0
 11
1384.5339234827279
 21
1266.626769546594
 31
0.0
  0
LINE
  5
52B0
  8
0
 10
1386.2356294049
 20
1265.6075316601271
 30
0.0
 11
1388.5339234827279
 21
1261.626769546594
 31
0.0
  0
LINE
  5
52B1
  8
0
 10
1386.2356294049
 20
1213.646007433061
 30
0.0
 11
1388.5339234827279
 21
1217.626769546594
 31
0.0
  0
LINE
  5
52B2
  8
0
 10
1313.533723482728
 20
1280.626769546594
 30
0.0
 11
1375.5341234827281
 21
1280.626769546594
 31
0.0
  0
LINE
  5
52B3
  8
0
 10
1371.533723482728
 20
1284.626769546594
 30
0.0
 11
1371.533723482728
 21
1280.626769546594
 31
0.0
  0
LINE
  5
52B4
  8
0
 10
1317.533723482728
 20
1284.626769546594
 30
0.0
 11
1317.533723482728
 21
1280.626769546594
 31
0.0
  0
LINE
  5
52B5
  8
0
 10
1314.533723482728
 20
1293.3947187390249
 30
0.0
 11
1314.533723482728
 21
1286.3588203541631
 31
0.0
  0
LINE
  5
52B6
  8
0
 10
1317.033723482728
 20
1294.838094411999
 30
0.0
 11
1314.533723482728
 21
1293.3947187390249
 31
0.0
  0
ARC
  5
52B7
  8
0
 10
1368.7837234827271
 20
1301.8380944119981
 30
0.0
 40
3.2999999999999989
 50
0.0000000000130346
 51
90.000000000026048
  0
LINE
  5
52B8
  8
0
 10
1372.083723482727
 20
1301.8380944119981
 30
0.0
 11
1372.0837234827279
 21
1294.8267695465941
 31
0.0
  0
LINE
  5
52B9
  8
0
 10
1320.2837234827259
 20
1305.1380944119901
 30
0.0
 11
1368.7837234827259
 21
1305.1380944119981
 31
0.0
  0
ARC
  5
52BA
  8
0
 10
1320.2837234827271
 20
1301.8380944119899
 30
0.0
 40
3.2999999999999989
 50
90.000000000026048
 51
180.00000000001299
  0
LINE
  5
52BB
  8
0
 10
1316.9837234827271
 20
1301.8380944119899
 30
0.0
 11
1316.983723482728
 21
1294.8267695465941
 31
0.0
  0
LINE
  5
52BC
  8
0
 10
1324.533723482728
 20
1305.138094411994
 30
0.0
 11
1364.533723482728
 21
1305.138094411994
 31
0.0
  0
LINE
  5
52BD
  8
0
 10
1364.533723482728
 20
1305.637094411994
 30
0.0
 11
1324.533723482728
 21
1305.637094411994
 31
0.0
  0
LINE
  5
52BE
  8
0
 10
1364.533723482728
 20
1305.138094411994
 30
0.0
 11
1364.533723482728
 21
1305.637094411994
 31
0.0
  0
ARC
  5
52BF
  8
0
 10
1344.534223482726
 20
1305.637094411994
 30
0.0
 40
0.9975000000000022
 50
0.000000000000007
 51
180.0
  0
LINE
  5
52C0
  8
0
 10
1324.533723482728
 20
1305.637094411994
 30
0.0
 11
1324.533723482728
 21
1305.138094411994
 31
0.0
  0
LINE
  5
52C1
  8
0
 10
1346.5339234827279
 20
1280.626769546594
 30
0.0
 11
1346.5339234827279
 21
1277.626769546594
 31
0.0
  0
LINE
  5
52C2
  8
0
 10
1342.5339234827279
 20
1280.626769546594
 30
0.0
 11
1342.5339234827279
 21
1277.626769546594
 31
0.0
  0
LINE
  5
52C3
  8
0
 10
1313.5339234827279
 20
1274.126769546594
 30
0.0
 11
1375.5339234827279
 21
1274.126769546594
 31
0.0
  0
LINE
  5
52C4
  8
0
 10
1346.5339234827279
 20
1277.626769546594
 30
0.0
 11
1375.5339234827279
 21
1277.626769546594
 31
0.0
  0
LINE
  5
52C5
  8
0
 10
1313.5339234827279
 20
1277.626769546594
 30
0.0
 11
1342.5339234827279
 21
1277.626769546594
 31
0.0
  0
LINE
  5
52C6
  8
0
 10
1346.5339234827279
 20
1279.126769546594
 30
0.0
 11
1377.0339234827279
 21
1279.126769546594
 31
0.0
  0
LINE
  5
52C7
  8
0
 10
1312.0339234827279
 20
1279.126769546594
 30
0.0
 11
1342.5339234827279
 21
1279.126769546594
 31
0.0
  0
LINE
  5
52C8
  8
0
 10
1377.0339234827279
 20
1274.126769546594
 30
0.0
 11
1377.0339234827279
 21
1268.609769546594
 31
0.0
  0
LINE
  5
52C9
  8
0
 10
1312.0339234827279
 20
1268.606769546594
 30
0.0
 11
1312.0339234827279
 21
1274.126769546594
 31
0.0
  0
LINE
  5
52CA
  8
0
 10
1312.0339234827279
 20
1274.126769546594
 30
0.0
 11
1313.5339234827279
 21
1274.126769546594
 31
0.0
  0
LINE
  5
52CB
  8
0
 10
1313.5339234827279
 20
1274.126769546594
 30
0.0
 11
1313.5339234827279
 21
1277.626769546594
 31
0.0
  0
LINE
  5
52CC
  8
0
 10
1313.5339234827279
 20
1277.626769546594
 30
0.0
 11
1312.0339234827279
 21
1277.626769546594
 31
0.0
  0
LINE
  5
52CD
  8
0
 10
1312.0339234827279
 20
1277.626769546594
 30
0.0
 11
1312.0339234827279
 21
1279.126769546594
 31
0.0
  0
LINE
  5
52CE
  8
0
 10
1312.0339234827279
 20
1279.126769546594
 30
0.0
 11
1313.5339234827279
 21
1280.626769546594
 31
0.0
  0
LINE
  5
52CF
  8
0
 10
1375.5339234827279
 20
1280.626769546594
 30
0.0
 11
1377.0339234827279
 21
1279.126769546594
 31
0.0
  0
LINE
  5
52D0
  8
0
 10
1377.0339234827279
 20
1279.126769546594
 30
0.0
 11
1377.0339234827279
 21
1277.626769546594
 31
0.0
  0
LINE
  5
52D1
  8
0
 10
1377.0339234827279
 20
1277.626769546594
 30
0.0
 11
1375.5339234827279
 21
1277.626769546594
 31
0.0
  0
LINE
  5
52D2
  8
0
 10
1375.5339234827279
 20
1277.626769546594
 30
0.0
 11
1375.5339234827279
 21
1274.126769546594
 31
0.0
  0
LINE
  5
52D3
  8
0
 10
1375.5339234827279
 20
1274.126769546594
 30
0.0
 11
1377.0339234827279
 21
1274.126769546594
 31
0.0
  0
LINE
  5
52D4
  8
0
 10
1377.0339234827279
 20
1274.126769546594
 30
0.0
 11
1377.0239333283321
 21
1268.612204320284
 31
0.0
  0
CIRCLE
  5
52D5
  8
0
 10
1344.5339234827279
 20
1257.616769546594
 30
0.0
 40
1.5
  0
ARC
  5
52D6
  8
0
 10
1380.023928405534
 20
1268.6067695465929
 30
0.0
 40
3.0
 50
179.89620341153261
 51
270.0
  0
ARC
  5
52D7
  8
0
 10
1309.044258319429
 20
1268.604585556744
 30
0.0
 40
2.9999999999999991
 50
272.53943172946288
 51
0.1073224825920576
  0
ARC
  5
52D8
  8
0
 10
1358.793684017608
 20
1272.3374469878311
 30
0.0
 40
19.264806140576152
 50
297.32826723905492
 51
336.9763537522378
  0
ARC
  5
52D9
  8
0
 10
1330.2741629478469
 20
1272.3374469878311
 30
0.0
 40
19.264806140576152
 50
203.02364624776229
 51
242.67173276094519
  0
LINE
  5
52DA
  8
0
 10
1374.533723482728
 20
1293.38339387362
 30
0.0
 11
1374.533723482728
 21
1286.0701452195681
 31
0.0
  0
LINE
  5
52DB
  8
0
 10
1314.533723482728
 20
1293.38339387362
 30
0.0
 11
1314.533723482728
 21
1286.0701452195681
 31
0.0
  0
LINE
  5
52DC
  8
0
 10
1372.033723482728
 20
1284.626769546594
 30
0.0
 11
1317.033723482728
 21
1284.626769546594
 31
0.0
  0
LINE
  5
52DD
  8
0
 10
1372.033723482728
 20
1294.8267695465941
 30
0.0
 11
1317.033723482728
 21
1294.8267695465941
 31
0.0
  0
LINE
  5
52DE
  8
0
 10
1332.544144674446
 20
1293.38339387362
 30
0.0
 11
1332.544144674446
 21
1286.0701452195681
 31
0.0
  0
LINE
  5
52DF
  8
0
 10
1326.712814282796
 20
1293.38339387362
 30
0.0
 11
1326.712814282796
 21
1286.0701452195681
 31
0.0
  0
LINE
  5
52E0
  8
0
 10
1356.5233022910099
 20
1293.38339387362
 30
0.0
 11
1356.5233022910099
 21
1286.0701452195681
 31
0.0
  0
LINE
  5
52E1
  8
0
 10
1362.354632682659
 20
1293.38339387362
 30
0.0
 11
1362.354632682659
 21
1286.0701452195681
 31
0.0
  0
LINE
  5
52E2
  8
0
 10
1317.033723482728
 20
1294.8267695465941
 30
0.0
 11
1314.533723482728
 21
1293.38339387362
 31
0.0
  0
LINE
  5
52E3
  8
0
 10
1317.033723482728
 20
1284.626769546594
 30
0.0
 11
1314.533723482728
 21
1286.0701452195681
 31
0.0
  0
LINE
  5
52E4
  8
0
 10
1326.712814282796
 20
1286.0701452195681
 30
0.0
 11
1332.544144674446
 21
1286.0701452195681
 31
0.0
  0
LINE
  5
52E5
  8
0
 10
1356.5233022910099
 20
1286.0701452195681
 30
0.0
 11
1362.354632682659
 21
1286.0701452195681
 31
0.0
  0
ARC
  5
52E6
  8
0
 10
1320.623268882762
 20
1298.194211858648
 30
0.0
 40
13.56744467642805
 50
243.33103023467879
 51
296.66896976532132
  0
ARC
  5
52E7
  8
0
 10
1344.533723482728
 20
1335.1449181006881
 30
0.0
 40
50.518148554094068
 50
256.27086732458361
 51
283.72913267541639
  0
ARC
  5
52E8
  8
0
 10
1368.444178082693
 20
1298.194211858648
 30
0.0
 40
13.56744467642805
 50
243.33103023467879
 51
296.66896976532132
  0
LINE
  5
52E9
  8
0
 10
1372.033723482728
 20
1294.8267695465941
 30
0.0
 11
1374.533723482728
 21
1293.38339387362
 31
0.0
  0
LINE
  5
52EA
  8
0
 10
1372.033723482728
 20
1284.626769546594
 30
0.0
 11
1374.533723482728
 21
1286.0701452195681
 31
0.0
  0
LINE
  5
52EB
  8
0
 10
1326.712814282796
 20
1293.38339387362
 30
0.0
 11
1332.544144674446
 21
1293.38339387362
 31
0.0
  0
LINE
  5
52EC
  8
0
 10
1356.5233022910099
 20
1293.38339387362
 30
0.0
 11
1362.354632682659
 21
1293.38339387362
 31
0.0
  0
ARC
  5
52ED
  8
0
 10
1320.623268882762
 20
1281.25932723454
 30
0.0
 40
13.56744467642805
 50
63.331030234678757
 51
116.66896976532119
  0
ARC
  5
52EE
  8
0
 10
1344.5337234827271
 20
1244.3086209925
 30
0.0
 40
50.518148554094068
 50
76.270867324583548
 51
103.72913267541639
  0
ARC
  5
52EF
  8
0
 10
1368.444178082693
 20
1281.25932723454
 30
0.0
 40
13.56744467642805
 50
63.331030234678757
 51
116.66896976532119
  0
CIRCLE
  5
52F0
  8
0
 10
1344.5337234827271
 20
1298.3262695465889
 30
0.0
 40
1.5494999999999659
  0
LINE
  5
52F1
  8
0
 10
1302.832217560556
 20
1265.6075316601271
 30
0.0
 11
1300.5339234827279
 21
1261.626769546594
 31
0.0
  0
LINE
  5
52F2
  8
0
 10
1302.832217560556
 20
1213.646007433061
 30
0.0
 11
1300.5339234827279
 21
1217.626769546594
 31
0.0
  0
ARC
  5
52F3
  8
0
 10
1350.672764341459
 20
1239.626769546594
 30
0.0
 40
37.861159141268992
 50
339.93379403894681
 51
20.066205961053289
  0
ARC
  5
52F4
  8
0
 10
1378.2067734182251
 20
1220.141197961444
 30
0.0
 40
10.3271500645029
 50
338.97219471627039
 51
38.972194716274771
  0
ARC
  5
52F5
  8
0
 10
1310.8610735472309
 20
1220.141197961444
 30
0.0
 40
10.3271500645029
 50
141.0278052837252
 51
201.02780528372961
  0
ARC
  5
52F6
  8
0
 10
1378.2067734182251
 20
1259.1123411317431
 30
0.0
 40
10.3271500645029
 50
321.02780528372011
 51
21.027805283729609
  0
ARC
  5
52F7
  8
0
 10
1338.395082623997
 20
1239.626769546594
 30
0.0
 40
37.861159141268992
 50
159.9337940389467
 51
200.066205961056
  0
ARC
  5
52F8
  8
0
 10
1310.8610735472309
 20
1259.1123411317431
 30
0.0
 40
10.3271500645029
 50
158.97219471627039
 51
218.97219471628
  0
LINE
  5
52F9
  8
0
 10
1313.9596158200029
 20
1208.093461883876
 30
0.0
 11
1338.0016158200031
 21
1184.052461883876
 31
0.0
  0
LINE
  5
52FA
  8
0
 10
1362.117161369187
 20
1219.9970074330611
 30
0.0
 11
1337.993615820003
 21
1195.873461883876
 31
0.0
  0
LINE
  5
52FB
  8
0
 10
1316.4000535732191
 20
1213.646007433061
 30
0.0
 11
1316.4000535732191
 21
1219.9970074330611
 31
0.0
  0
LINE
  5
52FC
  8
0
 10
1316.4000535732191
 20
1219.9970074330611
 30
0.0
 11
1362.117161369187
 21
1219.9970074330611
 31
0.0
  0
LINE
  5
52FD
  8
0
 10
1362.117161369187
 20
1219.9970074330611
 30
0.0
 11
1364.7661613691871
 21
1213.646007433061
 31
0.0
  0
LINE
  5
52FE
  8
0
 10
1342.2316158200031
 20
1189.697461883876
 30
0.0
 11
1325.9606158200031
 21
1205.968461883876
 31
0.0
  0
LINE
  5
52FF
  8
0
 10
1325.9606158200031
 20
1205.968461883876
 30
0.0
 11
1325.0196158200031
 21
1205.027461883876
 31
0.0
  0
LINE
  5
5300
  8
0
 10
1325.0196158200031
 20
1205.027461883876
 30
0.0
 11
1316.4000535732191
 21
1213.646007433061
 31
0.0
  0
LINE
  5
5301
  8
0
 10
1364.7661613691871
 20
1213.646007433061
 30
0.0
 11
1342.2316158200031
 21
1191.111461883876
 31
0.0
  0
LINE
  5
5302
  8
0
 10
1342.2316158200031
 20
1191.111461883876
 30
0.0
 11
1342.2316158200031
 21
1191.111461883876
 31
0.0
  0
LINE
  5
5303
  8
0
 10
1342.2316158200031
 20
1191.111461883876
 30
0.0
 11
1342.136615820003
 21
1191.0014618838759
 31
0.0
  0
LINE
  5
5304
  8
0
 10
1342.136615820003
 20
1191.0014618838759
 30
0.0
 11
1342.0556158200029
 21
1190.872461883876
 31
0.0
  0
LINE
  5
5305
  8
0
 10
1342.0556158200029
 20
1190.872461883876
 30
0.0
 11
1341.992615820003
 21
1190.726461883876
 31
0.0
  0
LINE
  5
5306
  8
0
 10
1341.992615820003
 20
1190.726461883876
 30
0.0
 11
1341.9526158200031
 21
1190.5684618838759
 31
0.0
  0
LINE
  5
5307
  8
0
 10
1341.9526158200031
 20
1190.5684618838759
 30
0.0
 11
1341.938615820003
 21
1190.4044618838759
 31
0.0
  0
LINE
  5
5308
  8
0
 10
1341.938615820003
 20
1190.4044618838759
 30
0.0
 11
1341.9526158200031
 21
1190.2394618838759
 31
0.0
  0
LINE
  5
5309
  8
0
 10
1341.9526158200031
 20
1190.2394618838759
 30
0.0
 11
1341.992615820003
 21
1190.081461883876
 31
0.0
  0
LINE
  5
530A
  8
0
 10
1341.992615820003
 20
1190.081461883876
 30
0.0
 11
1342.0556158200029
 21
1189.9364618838761
 31
0.0
  0
LINE
  5
530B
  8
0
 10
1342.0556158200029
 20
1189.9364618838761
 30
0.0
 11
1342.2316158200031
 21
1189.697461883876
 31
0.0
  0
LINE
  5
530C
  8
0
 10
1342.2316158200031
 20
1189.697461883876
 30
0.0
 11
1342.2316158200031
 21
1189.697461883876
 31
0.0
  0
LINE
  5
530D
  8
0
 10
1342.2316158200031
 20
1189.697461883876
 30
0.0
 11
1342.2316158200031
 21
1189.697461883876
 31
0.0
  0
LINE
  5
530E
  8
0
 10
1342.2316158200031
 20
1189.697461883876
 30
0.0
 11
1342.3266158200031
 21
1189.5874618838759
 31
0.0
  0
LINE
  5
530F
  8
0
 10
1342.3266158200031
 20
1189.5874618838759
 30
0.0
 11
1342.408615820003
 21
1189.458461883876
 31
0.0
  0
LINE
  5
5310
  8
0
 10
1342.408615820003
 20
1189.458461883876
 30
0.0
 11
1342.4716158200031
 21
1189.312461883876
 31
0.0
  0
LINE
  5
5311
  8
0
 10
1342.4716158200031
 20
1189.312461883876
 30
0.0
 11
1342.511615820003
 21
1189.1544618838759
 31
0.0
  0
LINE
  5
5312
  8
0
 10
1342.511615820003
 20
1189.1544618838759
 30
0.0
 11
1342.524615820003
 21
1188.9904618838759
 31
0.0
  0
LINE
  5
5313
  8
0
 10
1342.524615820003
 20
1188.9904618838759
 30
0.0
 11
1342.511615820003
 21
1188.825461883876
 31
0.0
  0
LINE
  5
5314
  8
0
 10
1342.511615820003
 20
1188.825461883876
 30
0.0
 11
1342.4716158200031
 21
1188.6674618838761
 31
0.0
  0
LINE
  5
5315
  8
0
 10
1342.4716158200031
 20
1188.6674618838761
 30
0.0
 11
1342.408615820003
 21
1188.5224618838761
 31
0.0
  0
LINE
  5
5316
  8
0
 10
1342.408615820003
 20
1188.5224618838761
 30
0.0
 11
1342.2316158200031
 21
1188.283461883876
 31
0.0
  0
LINE
  5
5317
  8
0
 10
1342.2316158200031
 20
1188.283461883876
 30
0.0
 11
1338.0016158200031
 21
1184.052461883876
 31
0.0
  0
LINE
  5
5318
  8
0
 10
1338.0016158200031
 20
1184.052461883876
 30
0.0
 11
1336.5866158200031
 21
1184.052461883876
 31
0.0
  0
LINE
  5
5319
  8
0
 10
1336.5866158200031
 20
1184.052461883876
 30
0.0
 11
1313.9596158200029
 21
1206.679461883876
 31
0.0
  0
LINE
  5
531A
  8
0
 10
1313.9596158200029
 20
1206.679461883876
 30
0.0
 11
1313.9596158200029
 21
1208.093461883876
 31
0.0
  0
LINE
  5
531B
  8
0
 10
1313.9596158200029
 20
1208.093461883876
 30
0.0
 11
1316.541615820003
 21
1210.6764618838761
 31
0.0
  0
LINE
  5
531C
  8
0
 10
1316.541615820003
 20
1210.6764618838761
 30
0.0
 11
1316.541615820003
 21
1210.6764618838761
 31
0.0
  0
LINE
  5
531D
  8
0
 10
1316.541615820003
 20
1210.6764618838761
 30
0.0
 11
1316.7316158200031
 21
1210.8964618838761
 31
0.0
  0
LINE
  5
531E
  8
0
 10
1316.7316158200031
 20
1210.8964618838761
 30
0.0
 11
1316.8956158200031
 21
1211.1544618838759
 31
0.0
  0
LINE
  5
531F
  8
0
 10
1316.8956158200031
 20
1211.1544618838759
 30
0.0
 11
1317.0206158200031
 21
1211.4454618838761
 31
0.0
  0
LINE
  5
5320
  8
0
 10
1317.0206158200031
 20
1211.4454618838761
 30
0.0
 11
1317.100615820003
 21
1211.761461883877
 31
0.0
  0
LINE
  5
5321
  8
0
 10
1317.100615820003
 20
1211.761461883877
 30
0.0
 11
1317.127615820003
 21
1212.0904618838761
 31
0.0
  0
LINE
  5
5322
  8
0
 10
1317.127615820003
 20
1212.0904618838761
 30
0.0
 11
1317.100615820003
 21
1212.419461883876
 31
0.0
  0
LINE
  5
5323
  8
0
 10
1317.100615820003
 20
1212.419461883876
 30
0.0
 11
1317.0206158200031
 21
1212.735461883876
 31
0.0
  0
LINE
  5
5324
  8
0
 10
1317.0206158200031
 20
1212.735461883876
 30
0.0
 11
1316.8956158200031
 21
1213.0264618838769
 31
0.0
  0
LINE
  5
5325
  8
0
 10
1316.8956158200031
 20
1213.0264618838769
 30
0.0
 11
1316.4000535732191
 21
1213.646007433061
 31
0.0
  0
LINE
  5
5326
  8
0
 10
1316.541615820003
 20
1213.504461883876
 30
0.0
 11
1316.4676158200029
 21
1213.5794618838761
 31
0.0
  0
ARC
  5
5327
  8
0
 10
1306.844905185862
 20
1176.937751249729
 30
0.0
 40
24.880184541946139
 50
28.961772759888319
 51
61.038227240104192
  0
LINE
  5
5328
  8
0
 10
1334.867677415147
 20
1184.1008734340101
 30
0.0
 11
1314.008027370144
 21
1204.9605234790131
 31
0.0
  0
LINE
  5
5329
  8
0
 10
1329.2108231656539
 20
1178.4440191845181
 30
0.0
 11
1308.3511731206511
 21
1199.3036692295209
 31
0.0
  0
ARC
  5
532A
  8
0
 10
1336.373945349975
 20
1206.4667914138431
 30
0.0
 40
24.880184542003899
 50
208.96177275993199
 51
241.03822724007281
  0
LINE
  5
532B
  8
0
 10
1328.613647821853
 20
1188.9853828381081
 30
0.0
 11
1324.326313761555
 21
1184.6980487778101
 31
0.0
  0
ARC
  5
532C
  8
0
 10
1332.6972351677871
 20
1184.3856581745461
 30
0.0
 40
6.666680248538392
 50
193.73041864318921
 51
250.02182619698721
  0
LINE
  5
532D
  8
0
 10
1324.326313761555
 20
1184.6980487778101
 30
0.0
 11
1326.2210670112829
 21
1182.8032955280819
 31
0.0
  0
LINE
  5
532E
  8
0
 10
1328.613647821853
 20
1188.9853828381081
 30
0.0
 11
1330.5084010715809
 21
1187.0906295883799
 31
0.0
  0
LINE
  5
532F
  8
0
 10
1334.690900719846
 20
1184.2776501293099
 30
0.0
 11
1335.526164147208
 21
1185.112913556673
 31
0.0
  0
LINE
  5
5330
  8
0
 10
1329.210823165653
 20
1178.4440191845169
 30
0.0
 11
1331.0816225350891
 21
1177.9427400042759
 31
0.0
  0
LINE
  5
5331
  8
0
 10
1335.3689565953871
 20
1182.230074064574
 30
0.0
 11
1331.0816225350891
 21
1177.9427400042759
 31
0.0
  0
LINE
  5
5332
  8
0
 10
1334.8676774151461
 20
1184.1008734340101
 30
0.0
 11
1335.3689565953871
 21
1182.230074064574
 31
0.0
  0
LINE
  5
5333
  8
0
 10
1330.5084010715809
 20
1187.0906295883799
 30
0.0
 11
1326.2210670112829
 21
1182.8032955280819
 31
0.0
  0
ARC
  5
5334
  8
0
 10
1328.926038425114
 20
1180.614461431873
 30
0.0
 40
6.666680248538392
 50
19.978173802691082
 51
76.269581356814456
  0
LINE
  5
5335
  8
0
 10
1314.008027370144
 20
1204.9605234790131
 30
0.0
 11
1312.137228000706
 21
1205.461802659255
 31
0.0
  0
LINE
  5
5336
  8
0
 10
1308.3511731206511
 20
1199.3036692295209
 30
0.0
 11
1307.8498939404089
 21
1201.1744685989579
 31
0.0
  0
ARC
  5
5337
  8
0
 10
1314.2928121106791
 20
1202.790081231655
 30
0.0
 40
6.666680248538392
 50
199.97817380299901
 51
256.26958135681451
  0
LINE
  5
5338
  8
0
 10
1312.137228000706
 20
1205.461802659255
 30
0.0
 11
1307.8498939404089
 21
1201.1744685989579
 31
0.0
  0
LINE
  5
5339
  8
0
 10
1318.8925367742411
 20
1198.70649388572
 30
0.0
 11
1316.9977835245111
 21
1200.6012471354491
 31
0.0
  0
LINE
  5
533A
  8
0
 10
1318.8925367742411
 20
1198.70649388572
 30
0.0
 11
1314.6052027139431
 21
1194.419159825422
 31
0.0
  0
LINE
  5
533B
  8
0
 10
1312.7104494642131
 20
1196.313913075151
 30
0.0
 11
1314.6052027139431
 21
1194.419159825421
 31
0.0
  0
ARC
  5
533C
  8
0
 10
1310.521615368006
 20
1199.0188844889831
 30
0.0
 40
6.666680248538392
 50
13.7304186431957
 51
70.021826197292881
  0
LINE
  5
533D
  8
0
 10
1316.9977835245111
 20
1200.6012471354491
 30
0.0
 11
1312.7104494642131
 21
1196.313913075151
 31
0.0
  0
LINE
  5
533E
  8
0
 10
1314.1848040654361
 20
1204.783746783721
 30
0.0
 11
1315.020067492796
 21
1205.6190102110811
 31
0.0
  0
LINE
  5
533F
  8
0
 10
1449.5338693980109
 20
1307.126769546594
 30
0.0
 11
1449.5338693980109
 21
1172.126769546594
 31
0.0
  0
LINE
  5
5340
  8
0
 10
1239.5338693980109
 20
1307.126769546594
 30
0.0
 11
1239.5338693980109
 21
1172.126769546594
 31
0.0
  0
LINE
  5
5344
  8
0
 10
521.54158876551298
 20
322.11209828339042
 30
0.0
 11
521.54158876551298
 21
182.1120982833904
 31
0.0
  0
LINE
  5
5345
  8
0
 10
731.54158876551401
 20
322.11209828339042
 30
0.0
 11
731.54158876551401
 21
182.1120982833904
 31
0.0
  0
LINE
  5
5348
  8
0
 10
668.24329468768542
 20
278.09286039692381
 30
0.0
 11
661.89833312242081
 21
278.0928603969237
 31
0.0
  0
LINE
  5
5349
  8
0
 10
591.11920115105147
 20
278.0928603969237
 30
0.0
 11
584.83988284334191
 21
278.09286039692358
 31
0.0
  0
LINE
  5
534A
  8
0
 10
668.24329468768542
 20
265.10247934015689
 30
0.0
 11
584.8398828433418
 21
265.10247934015672
 31
0.0
  0
LINE
  5
534B
  8
0
 10
668.24329468768542
 20
239.12171722662401
 30
0.0
 11
584.8398828433418
 21
239.12171722662401
 31
0.0
  0
LINE
  5
534C
  8
0
 10
668.24329468768553
 20
226.13133616985741
 30
0.0
 11
654.67545867502258
 21
226.13133616985709
 31
0.0
  0
LINE
  5
534D
  8
0
 10
606.30935087905425
 20
226.13133616985709
 30
0.0
 11
584.8398828433418
 21
226.13133616985741
 31
0.0
  0
LINE
  5
534E
  8
0
 10
586.54158876551378
 20
279.11209828339031
 30
0.0
 11
586.54158876551378
 21
278.09286039692358
 31
0.0
  0
LINE
  5
534F
  8
0
 10
670.54158876551355
 20
274.11209828339071
 30
0.0
 11
670.54158876551355
 21
230.1120982833902
 31
0.0
  0
LINE
  5
5350
  8
0
 10
582.54158876551355
 20
274.11209828339048
 30
0.0
 11
582.54158876551355
 21
230.1120982833902
 31
0.0
  0
LINE
  5
5351
  8
0
 10
593.30538063922722
 20
279.11209828339031
 30
0.0
 11
586.54158876551378
 21
279.11209828339031
 31
0.0
  0
LINE
  5
5352
  8
0
 10
584.83988284334191
 20
278.09286039692358
 30
0.0
 11
582.54158876551355
 21
274.11209828339048
 31
0.0
  0
LINE
  5
5353
  8
0
 10
584.83988284334191
 20
226.13133616985729
 30
0.0
 11
582.54158876551355
 21
230.11209828339031
 31
0.0
  0
LINE
  5
5354
  8
0
 10
657.5417887655135
 20
293.11209828339042
 30
0.0
 11
595.54138876551372
 21
293.11209828339042
 31
0.0
  0
LINE
  5
5355
  8
0
 10
599.54178876551373
 20
297.11209828339042
 30
0.0
 11
599.54178876551373
 21
293.11209828339071
 31
0.0
  0
LINE
  5
5356
  8
0
 10
653.54178876551373
 20
297.11209828339042
 30
0.0
 11
653.54178876551373
 21
293.11209828339071
 31
0.0
  0
LINE
  5
5357
  8
0
 10
656.54178876551373
 20
305.88004747582158
 30
0.0
 11
656.5417887655135
 21
298.84414909095932
 31
0.0
  0
LINE
  5
5358
  8
0
 10
654.04178876551373
 20
307.32342314879571
 30
0.0
 11
656.54178876551373
 21
305.88004747582158
 31
0.0
  0
ARC
  5
5359
  8
0
 10
602.29178876551475
 20
314.32342314879452
 30
0.0
 40
3.2999999999999989
 50
89.999999999986969
 51
179.99999999998701
  0
LINE
  5
535A
  8
0
 10
598.99178876551457
 20
314.32342314879497
 30
0.0
 11
598.99178876551355
 21
307.3120982833903
 31
0.0
  0
LINE
  5
535B
  8
0
 10
650.79178876551532
 20
317.62342314878669
 30
0.0
 11
602.29178876551532
 21
317.62342314879447
 31
0.0
  0
ARC
  5
535C
  8
0
 10
650.79178876551475
 20
314.32342314878679
 30
0.0
 40
3.2999999999999989
 50
359.99999999998698
 51
89.999999999986969
  0
LINE
  5
535D
  8
0
 10
654.09178876551471
 20
314.32342314878628
 30
0.0
 11
654.09178876551368
 21
307.31209828339053
 31
0.0
  0
LINE
  5
535E
  8
0
 10
646.54178876551373
 20
317.62342314879061
 30
0.0
 11
606.54178876551373
 21
317.62342314879061
 31
0.0
  0
LINE
  5
535F
  8
0
 10
606.54178876551373
 20
318.12242314879057
 30
0.0
 11
646.54178876551373
 21
318.12242314879057
 31
0.0
  0
LINE
  5
5360
  8
0
 10
606.54178876551373
 20
317.62342314879061
 30
0.0
 11
606.54178876551373
 21
318.12242314879057
 31
0.0
  0
ARC
  5
5361
  8
0
 10
626.54128876551522
 20
318.12242314879057
 30
0.0
 40
0.9975000000000022
 50
0.0
 51
180.0
  0
LINE
  5
5362
  8
0
 10
646.54178876551373
 20
318.12242314879057
 30
0.0
 11
646.54178876551373
 21
317.62342314879061
 31
0.0
  0
LINE
  5
5363
  8
0
 10
624.54158876551355
 20
293.11209828339042
 30
0.0
 11
624.54158876551355
 21
290.11209828339042
 31
0.0
  0
LINE
  5
5364
  8
0
 10
628.54158876551355
 20
293.11209828339042
 30
0.0
 11
628.54158876551355
 21
290.11209828339042
 31
0.0
  0
LINE
  5
5365
  8
0
 10
657.54158876551355
 20
286.61209828339048
 30
0.0
 11
595.54158876551355
 21
286.61209828339048
 31
0.0
  0
LINE
  5
5366
  8
0
 10
624.54158876551355
 20
290.11209828339042
 30
0.0
 11
595.54158876551355
 21
290.11209828339042
 31
0.0
  0
LINE
  5
5367
  8
0
 10
657.54158876551355
 20
290.11209828339042
 30
0.0
 11
628.54158876551355
 21
290.11209828339042
 31
0.0
  0
LINE
  5
5368
  8
0
 10
624.54158876551355
 20
291.61209828339042
 30
0.0
 11
594.04158876551355
 21
291.61209828339042
 31
0.0
  0
LINE
  5
5369
  8
0
 10
659.04158876551367
 20
291.61209828339042
 30
0.0
 11
628.54158876551355
 21
291.61209828339042
 31
0.0
  0
LINE
  5
536A
  8
0
 10
594.04158876551355
 20
286.61209828339048
 30
0.0
 11
594.04158876551355
 21
281.09509828339043
 31
0.0
  0
LINE
  5
536B
  8
0
 10
659.04158876551367
 20
281.09209828339038
 30
0.0
 11
659.04158876551367
 21
286.61209828339048
 31
0.0
  0
LINE
  5
536C
  8
0
 10
659.04158876551367
 20
286.61209828339048
 30
0.0
 11
657.54158876551355
 21
286.61209828339048
 31
0.0
  0
LINE
  5
536D
  8
0
 10
657.54158876551355
 20
286.61209828339048
 30
0.0
 11
657.54158876551355
 21
290.11209828339042
 31
0.0
  0
LINE
  5
536E
  8
0
 10
657.54158876551355
 20
290.11209828339042
 30
0.0
 11
659.04158876551367
 21
290.11209828339042
 31
0.0
  0
LINE
  5
536F
  8
0
 10
659.04158876551367
 20
290.11209828339042
 30
0.0
 11
659.04158876551367
 21
291.61209828339042
 31
0.0
  0
LINE
  5
5370
  8
0
 10
659.04158876551367
 20
291.61209828339042
 30
0.0
 11
657.54158876551355
 21
293.11209828339042
 31
0.0
  0
LINE
  5
5371
  8
0
 10
595.54158876551355
 20
293.11209828339042
 30
0.0
 11
594.04158876551355
 21
291.61209828339042
 31
0.0
  0
LINE
  5
5372
  8
0
 10
594.04158876551355
 20
291.61209828339042
 30
0.0
 11
594.04158876551355
 21
290.11209828339042
 31
0.0
  0
LINE
  5
5373
  8
0
 10
594.04158876551355
 20
290.11209828339042
 30
0.0
 11
595.54158876551355
 21
290.11209828339042
 31
0.0
  0
LINE
  5
5374
  8
0
 10
595.54158876551355
 20
290.11209828339042
 30
0.0
 11
595.54158876551355
 21
286.61209828339048
 31
0.0
  0
LINE
  5
5375
  8
0
 10
595.54158876551355
 20
286.61209828339048
 30
0.0
 11
594.04158876551355
 21
286.61209828339048
 31
0.0
  0
LINE
  5
5376
  8
0
 10
594.04158876551355
 20
286.61209828339048
 30
0.0
 11
594.05157891990905
 21
281.09753305708023
 31
0.0
  0
CIRCLE
  5
5377
  8
0
 10
626.54158876551355
 20
270.10209828339038
 30
0.0
 40
1.5
  0
ARC
  5
5378
  8
0
 10
591.05158384270726
 20
281.09209828338948
 30
0.0
 40
3.0
 50
269.99999999999352
 51
0.1037965884674245
  0
ARC
  5
5379
  8
0
 10
662.03125392881259
 20
281.08991429354091
 30
0.0
 40
2.9999999999999991
 50
179.89267751741119
 51
267.46056827053718
  0
ARC
  5
537A
  8
0
 10
612.28182823063332
 20
284.82277572462789
 30
0.0
 40
19.264806140576152
 50
203.0236462477651
 51
242.6717327609403
  0
ARC
  5
537B
  8
0
 10
640.80134930039401
 20
284.82277572462789
 30
0.0
 40
19.264806140576152
 50
297.3282672390597
 51
336.9763537522349
  0
LINE
  5
537C
  8
0
 10
596.54178876551373
 20
305.86872261041623
 30
0.0
 11
596.54178876551373
 21
298.55547395636449
 31
0.0
  0
LINE
  5
537D
  8
0
 10
656.54178876551373
 20
305.8687226104164
 30
0.0
 11
656.54178876551373
 21
298.55547395636449
 31
0.0
  0
LINE
  5
537E
  8
0
 10
599.04178876551373
 20
297.11209828339042
 30
0.0
 11
654.04178876551373
 21
297.11209828339042
 31
0.0
  0
LINE
  5
537F
  8
0
 10
599.04178876551373
 20
307.3120982833903
 30
0.0
 11
654.04178876551373
 21
307.31209828339053
 31
0.0
  0
LINE
  5
5380
  8
0
 10
638.53136757379536
 20
305.8687226104164
 30
0.0
 11
638.53136757379536
 21
298.55547395636449
 31
0.0
  0
LINE
  5
5381
  8
0
 10
644.36269796544502
 20
305.86872261041663
 30
0.0
 11
644.36269796544502
 21
298.55547395636449
 31
0.0
  0
LINE
  5
5382
  8
0
 10
614.55220995723187
 20
305.8687226104164
 30
0.0
 11
614.55220995723187
 21
298.55547395636449
 31
0.0
  0
LINE
  5
5383
  8
0
 10
608.72087956558221
 20
305.8687226104164
 30
0.0
 11
608.72087956558221
 21
298.55547395636432
 31
0.0
  0
LINE
  5
5384
  8
0
 10
654.04178876551373
 20
307.31209828339053
 30
0.0
 11
656.54178876551373
 21
305.8687226104164
 31
0.0
  0
LINE
  5
5385
  8
0
 10
654.04178876551373
 20
297.11209828339042
 30
0.0
 11
656.54178876551373
 21
298.55547395636449
 31
0.0
  0
LINE
  5
5386
  8
0
 10
644.36269796544502
 20
298.55547395636449
 30
0.0
 11
638.53136757379536
 21
298.55547395636449
 31
0.0
  0
LINE
  5
5387
  8
0
 10
614.55220995723175
 20
298.55547395636449
 30
0.0
 11
608.72087956558221
 21
298.55547395636449
 31
0.0
  0
ARC
  5
5388
  8
0
 10
650.45224336547949
 20
310.67954059544468
 30
0.0
 40
13.56744467642805
 50
243.33103023467791
 51
296.66896976532217
  0
ARC
  5
5389
  8
0
 10
626.54178876551373
 20
347.63024683748449
 30
0.0
 40
50.518148554094068
 50
256.27086732458332
 51
283.72913267541668
  0
ARC
  5
538A
  8
0
 10
602.63133416554786
 20
310.67954059544451
 30
0.0
 40
13.56744467642805
 50
243.33103023467791
 51
296.66896976532217
  0
LINE
  5
538B
  8
0
 10
599.04178876551373
 20
307.3120982833903
 30
0.0
 11
596.54178876551373
 21
305.86872261041623
 31
0.0
  0
LINE
  5
538C
  8
0
 10
599.04178876551373
 20
297.11209828339042
 30
0.0
 11
596.54178876551373
 21
298.55547395636449
 31
0.0
  0
LINE
  5
538D
  8
0
 10
644.36269796544502
 20
305.86872261041663
 30
0.0
 11
638.53136757379536
 21
305.8687226104164
 31
0.0
  0
LINE
  5
538E
  8
0
 10
614.55220995723175
 20
305.8687226104164
 30
0.0
 11
608.72087956558221
 21
305.8687226104164
 31
0.0
  0
ARC
  5
538F
  8
0
 10
650.45224336547949
 20
293.74465597133639
 30
0.0
 40
13.56744467642805
 50
63.331030234677847
 51
116.6689697653221
  0
ARC
  5
5390
  8
0
 10
626.54178876551396
 20
256.7939497292964
 30
0.0
 40
50.518148554094068
 50
76.27086732458325
 51
103.72913267541669
  0
ARC
  5
5391
  8
0
 10
602.63133416554786
 20
293.74465597133621
 30
0.0
 40
13.56744467642805
 50
63.331030234677847
 51
116.6689697653221
  0
CIRCLE
  5
5392
  8
0
 10
626.54178876551396
 20
310.81159828338542
 30
0.0
 40
1.5494999999999659
  0
LINE
  5
5393
  8
0
 10
668.24329468768542
 20
278.09286039692358
 30
0.0
 11
670.54158876551378
 21
274.11209828339048
 31
0.0
  0
LINE
  5
5394
  8
0
 10
668.24329468768542
 20
226.13133616985729
 30
0.0
 11
670.54158876551378
 21
230.11209828339031
 31
0.0
  0
ARC
  5
5395
  8
0
 10
620.40274790678268
 20
252.1120982833904
 30
0.0
 40
37.861159141268992
 50
159.93379403894161
 51
200.06620596105839
  0
ARC
  5
5396
  8
0
 10
592.86873883001635
 20
232.62652669824081
 30
0.0
 40
10.3271500645029
 50
141.02780528373009
 51
201.0278052837298
  0
ARC
  5
5397
  8
0
 10
660.21443870101098
 20
232.62652669824081
 30
0.0
 40
10.3271500645029
 50
338.97219471627028
 51
38.972194716269883
  0
ARC
  5
5398
  8
0
 10
592.86873883001635
 20
271.59766986854009
 30
0.0
 40
10.3271500645029
 50
158.9721947162702
 51
218.97219471627801
  0
ARC
  5
5399
  8
0
 10
632.68042962424465
 20
252.1120982833904
 30
0.0
 40
37.861159141268992
 50
339.93379403894158
 51
20.066205961058401
  0
ARC
  5
539A
  8
0
 10
660.21443870101098
 20
271.59766986854009
 30
0.0
 40
10.3271500645029
 50
321.02780528372199
 51
21.027805283729741
  0
LINE
  5
539B
  8
0
 10
657.11589642823867
 20
220.57879062067289
 30
0.0
 11
633.07389642823864
 21
196.53779062067289
 31
0.0
  0
LINE
  5
539C
  8
0
 10
608.95835087905436
 20
232.48233616985729
 30
0.0
 11
633.08189642823868
 21
208.35879062067309
 31
0.0
  0
LINE
  5
539D
  8
0
 10
654.67545867502258
 20
226.13133616985741
 30
0.0
 11
654.67545867502258
 21
232.48233616985729
 31
0.0
  0
LINE
  5
539E
  8
0
 10
654.67545867502258
 20
232.48233616985729
 30
0.0
 11
608.95835087905436
 21
232.48233616985729
 31
0.0
  0
LINE
  5
539F
  8
0
 10
608.95835087905436
 20
232.48233616985729
 30
0.0
 11
606.30935087905436
 21
226.13133616985741
 31
0.0
  0
LINE
  5
53A0
  8
0
 10
628.84389642823862
 20
202.1827906206729
 30
0.0
 11
645.11489642823858
 21
218.45379062067281
 31
0.0
  0
LINE
  5
53A1
  8
0
 10
645.11489642823858
 20
218.45379062067281
 30
0.0
 11
646.05589642823861
 21
217.51279062067309
 31
0.0
  0
LINE
  5
53A2
  8
0
 10
646.05589642823861
 20
217.51279062067309
 30
0.0
 11
654.67545867502258
 21
226.13133616985741
 31
0.0
  0
LINE
  5
53A3
  8
0
 10
606.30935087905436
 20
226.13133616985741
 30
0.0
 11
628.84389642823862
 21
203.59679062067289
 31
0.0
  0
LINE
  5
53A4
  8
0
 10
628.84389642823862
 20
203.59679062067289
 30
0.0
 11
628.84389642823862
 21
203.59679062067289
 31
0.0
  0
LINE
  5
53A5
  8
0
 10
628.84389642823862
 20
203.59679062067289
 30
0.0
 11
628.93889642823865
 21
203.48679062067299
 31
0.0
  0
LINE
  5
53A6
  8
0
 10
628.93889642823865
 20
203.48679062067299
 30
0.0
 11
629.01989642823878
 21
203.3577906206728
 31
0.0
  0
LINE
  5
53A7
  8
0
 10
629.01989642823878
 20
203.3577906206728
 30
0.0
 11
629.08289642823866
 21
203.2117906206729
 31
0.0
  0
LINE
  5
53A8
  8
0
 10
629.08289642823866
 20
203.2117906206729
 30
0.0
 11
629.12289642823862
 21
203.053790620673
 31
0.0
  0
LINE
  5
53A9
  8
0
 10
629.12289642823862
 20
203.053790620673
 30
0.0
 11
629.13689642823874
 21
202.88979062067301
 31
0.0
  0
LINE
  5
53AA
  8
0
 10
629.13689642823874
 20
202.88979062067301
 30
0.0
 11
629.12289642823862
 21
202.7247906206731
 31
0.0
  0
LINE
  5
53AB
  8
0
 10
629.12289642823862
 20
202.7247906206731
 30
0.0
 11
629.08289642823866
 21
202.56679062067289
 31
0.0
  0
LINE
  5
53AC
  8
0
 10
629.08289642823866
 20
202.56679062067289
 30
0.0
 11
629.01989642823878
 21
202.42179062067291
 31
0.0
  0
LINE
  5
53AD
  8
0
 10
629.01989642823878
 20
202.42179062067291
 30
0.0
 11
628.84389642823862
 21
202.1827906206729
 31
0.0
  0
LINE
  5
53AE
  8
0
 10
628.84389642823862
 20
202.1827906206729
 30
0.0
 11
628.84389642823862
 21
202.1827906206729
 31
0.0
  0
LINE
  5
53AF
  8
0
 10
628.84389642823862
 20
202.1827906206729
 30
0.0
 11
628.84389642823862
 21
202.1827906206729
 31
0.0
  0
LINE
  5
53B0
  8
0
 10
628.84389642823862
 20
202.1827906206729
 30
0.0
 11
628.7488964282386
 21
202.072790620673
 31
0.0
  0
LINE
  5
53B1
  8
0
 10
628.7488964282386
 20
202.072790620673
 30
0.0
 11
628.6668964282386
 21
201.9437906206729
 31
0.0
  0
LINE
  5
53B2
  8
0
 10
628.6668964282386
 20
201.9437906206729
 30
0.0
 11
628.6038964282385
 21
201.79779062067291
 31
0.0
  0
LINE
  5
53B3
  8
0
 10
628.6038964282385
 20
201.79779062067291
 30
0.0
 11
628.56389642823865
 21
201.63979062067301
 31
0.0
  0
LINE
  5
53B4
  8
0
 10
628.56389642823865
 20
201.63979062067301
 30
0.0
 11
628.55089642823873
 21
201.475790620673
 31
0.0
  0
LINE
  5
53B5
  8
0
 10
628.55089642823873
 20
201.475790620673
 30
0.0
 11
628.56389642823865
 21
201.31079062067309
 31
0.0
  0
LINE
  5
53B6
  8
0
 10
628.56389642823865
 20
201.31079062067309
 30
0.0
 11
628.6038964282385
 21
201.1527906206729
 31
0.0
  0
LINE
  5
53B7
  8
0
 10
628.6038964282385
 20
201.1527906206729
 30
0.0
 11
628.6668964282386
 21
201.00779062067289
 31
0.0
  0
LINE
  5
53B8
  8
0
 10
628.6668964282386
 20
201.00779062067289
 30
0.0
 11
628.84389642823862
 21
200.76879062067289
 31
0.0
  0
LINE
  5
53B9
  8
0
 10
628.84389642823862
 20
200.76879062067289
 30
0.0
 11
633.07389642823864
 21
196.53779062067289
 31
0.0
  0
LINE
  5
53BA
  8
0
 10
633.07389642823864
 20
196.53779062067289
 30
0.0
 11
634.4888964282386
 21
196.53779062067289
 31
0.0
  0
LINE
  5
53BB
  8
0
 10
634.4888964282386
 20
196.53779062067289
 30
0.0
 11
657.11589642823867
 21
219.1647906206731
 31
0.0
  0
LINE
  5
53BC
  8
0
 10
657.11589642823867
 20
219.1647906206731
 30
0.0
 11
657.11589642823867
 21
220.57879062067289
 31
0.0
  0
LINE
  5
53BD
  8
0
 10
657.11589642823867
 20
220.57879062067289
 30
0.0
 11
654.53389642823856
 21
223.161790620673
 31
0.0
  0
LINE
  5
53BE
  8
0
 10
654.53389642823856
 20
223.161790620673
 30
0.0
 11
654.53389642823856
 21
223.161790620673
 31
0.0
  0
LINE
  5
53BF
  8
0
 10
654.53389642823856
 20
223.161790620673
 30
0.0
 11
654.34389642823862
 21
223.381790620673
 31
0.0
  0
LINE
  5
53C0
  8
0
 10
654.34389642823862
 20
223.381790620673
 30
0.0
 11
654.17989642823864
 21
223.63979062067301
 31
0.0
  0
LINE
  5
53C1
  8
0
 10
654.17989642823864
 20
223.63979062067301
 30
0.0
 11
654.05489642823864
 21
223.93079062067289
 31
0.0
  0
LINE
  5
53C2
  8
0
 10
654.05489642823864
 20
223.93079062067289
 30
0.0
 11
653.97489642823871
 21
224.24679062067301
 31
0.0
  0
LINE
  5
53C3
  8
0
 10
653.97489642823871
 20
224.24679062067301
 30
0.0
 11
653.94789642823866
 21
224.5757906206729
 31
0.0
  0
LINE
  5
53C4
  8
0
 10
653.94789642823866
 20
224.5757906206729
 30
0.0
 11
653.97489642823871
 21
224.90479062067291
 31
0.0
  0
LINE
  5
53C5
  8
0
 10
653.97489642823871
 20
224.90479062067291
 30
0.0
 11
654.05489642823864
 21
225.22079062067289
 31
0.0
  0
LINE
  5
53C6
  8
0
 10
654.05489642823864
 20
225.22079062067289
 30
0.0
 11
654.17989642823864
 21
225.51179062067311
 31
0.0
  0
LINE
  5
53C7
  8
0
 10
654.17989642823864
 20
225.51179062067311
 30
0.0
 11
654.67545867502258
 21
226.13133616985741
 31
0.0
  0
LINE
  5
53C8
  8
0
 10
654.53389642823856
 20
225.98979062067289
 30
0.0
 11
654.60789642823875
 21
226.06479062067299
 31
0.0
  0
ARC
  5
53C9
  8
0
 10
664.23060706237925
 20
189.42307998652529
 30
0.0
 40
24.880184541946139
 50
118.9617727598944
 51
151.03822724010499
  0
LINE
  5
53CA
  8
0
 10
636.20783483309435
 20
196.58620217080659
 30
0.0
 11
657.06748487809739
 21
217.44585221580959
 31
0.0
  0
LINE
  5
53CB
  8
0
 10
641.86468908258678
 20
190.9293479213141
 30
0.0
 11
662.72433912758993
 21
211.7889979663172
 31
0.0
  0
ARC
  5
53CC
  8
0
 10
634.70156689826604
 20
218.95212015063939
 30
0.0
 40
24.880184542003899
 50
298.96177275993227
 51
331.0382272400675
  0
LINE
  5
53CD
  8
0
 10
642.4618644263885
 20
201.4707115749041
 30
0.0
 11
646.74919848668674
 21
197.1833775146068
 31
0.0
  0
ARC
  5
53CE
  8
0
 10
638.37827708045393
 20
196.87098691134261
 30
0.0
 40
6.666680248538392
 50
289.97817380300751
 51
346.26958135680837
  0
LINE
  5
53CF
  8
0
 10
646.74919848668674
 20
197.1833775146068
 30
0.0
 11
644.85444523695799
 21
195.28862426487819
 31
0.0
  0
LINE
  5
53D0
  8
0
 10
642.4618644263885
 20
201.4707115749041
 30
0.0
 11
640.56711117665975
 21
199.575958325176
 31
0.0
  0
LINE
  5
53D1
  8
0
 10
636.38461152839523
 20
196.76297886610641
 30
0.0
 11
635.54934810103282
 21
197.5982422934693
 31
0.0
  0
LINE
  5
53D2
  8
0
 10
641.86468908258769
 20
190.92934792131371
 30
0.0
 11
639.99388971315261
 21
190.42806874107271
 31
0.0
  0
LINE
  5
53D3
  8
0
 10
635.70655565285426
 20
194.71540280137049
 30
0.0
 11
639.99388971315261
 21
190.42806874107271
 31
0.0
  0
LINE
  5
53D4
  8
0
 10
636.20783483309526
 20
196.5862021708061
 30
0.0
 11
635.70655565285426
 21
194.71540280137049
 31
0.0
  0
LINE
  5
53D5
  8
0
 10
640.56711117665975
 20
199.575958325176
 30
0.0
 11
644.85444523695799
 21
195.28862426487819
 31
0.0
  0
ARC
  5
53D6
  8
0
 10
642.14947382312687
 20
193.0997901686695
 30
0.0
 40
6.666680248538392
 50
103.7304186431987
 51
160.0218261973119
  0
LINE
  5
53D7
  8
0
 10
657.06748487809739
 20
217.44585221580959
 30
0.0
 11
658.93828424753531
 21
217.94713139605111
 31
0.0
  0
LINE
  5
53D8
  8
0
 10
662.72433912758993
 20
211.7889979663172
 30
0.0
 11
663.22561830783184
 21
213.65979733575469
 31
0.0
  0
ARC
  5
53D9
  8
0
 10
656.78270013756185
 20
215.2754099684515
 30
0.0
 40
6.666680248538392
 50
283.73041864319867
 51
340.02182619700039
  0
LINE
  5
53DA
  8
0
 10
658.93828424753531
 20
217.94713139605111
 30
0.0
 11
663.22561830783184
 21
213.65979733575469
 31
0.0
  0
LINE
  5
53DB
  8
0
 10
652.18297547400039
 20
211.1918226225161
 30
0.0
 11
654.07772872372993
 21
213.08657587224559
 31
0.0
  0
LINE
  5
53DC
  8
0
 10
652.18297547400039
 20
211.1918226225161
 30
0.0
 11
656.47030953429862
 21
206.90448856221869
 31
0.0
  0
LINE
  5
53DD
  8
0
 10
658.36506278402805
 20
208.79924181194741
 30
0.0
 11
656.47030953429862
 21
206.90448856221781
 31
0.0
  0
ARC
  5
53DE
  8
0
 10
660.55389688023502
 20
211.50421322577941
 30
0.0
 40
6.666680248538392
 50
109.9781738026942
 51
166.26958135680169
  0
LINE
  5
53DF
  8
0
 10
654.07772872372993
 20
213.08657587224559
 30
0.0
 11
658.36506278402805
 21
208.79924181194741
 31
0.0
  0
LINE
  5
53E0
  8
0
 10
656.89070818280493
 20
217.26907552051711
 30
0.0
 11
656.05544475544525
 21
218.10433894787721
 31
0.0
  0
LINE
  5
5425
  8
0
 10
543.22651457796655
 20
659.79438997888053
 30
0.0
 11
573.5089182557108
 21
657.40165465136079
 31
0.0
  0
LINE
  5
5426
  8
0
 10
573.50891825571034
 20
611.50328588525554
 30
0.0
 11
543.22664008643324
 21
609.1115195537252
 31
0.0
  0
LINE
  5
5427
  8
0
 10
713.54158876551401
 20
564.45247026830793
 30
0.0
 11
731.54158876551401
 21
564.45247026830793
 31
0.0
  0
LINE
  5
5428
  8
0
 10
679.03870165805574
 20
612.4308988887301
 30
0.0
 11
679.03870165805574
 21
656.47404164788577
 31
0.0
  0
LINE
  5
5429
  8
0
 10
679.57425927531676
 20
611.50328588525554
 30
0.0
 11
709.85653744459376
 21
609.11151955372566
 31
0.0
  0
ARC
  5
542A
  8
0
 10
674.80793185644234
 20
619.44796468626009
 30
0.0
 40
8.1938162977400193
 50
238.622232327983
 51
301.08685795514521
  0
LINE
  5
542B
  8
0
 10
679.03870165805608
 20
612.43089888873055
 30
0.0
 11
679.57425927531676
 21
611.50328588525554
 31
0.0
  0
LINE
  5
542C
  8
0
 10
709.85666295306055
 20
659.79438997887974
 30
0.0
 11
679.57425927531631
 21
657.40165465136079
 31
0.0
  0
ARC
  5
542D
  8
0
 10
674.80793185644188
 20
649.45697585035623
 30
0.0
 40
8.1938162977400193
 50
58.91314204485478
 51
121.377767672017
  0
LINE
  5
542E
  8
0
 10
679.03870165805574
 20
656.47404164788577
 30
0.0
 11
679.57425927531631
 21
657.40165465136079
 31
0.0
  0
LINE
  5
542F
  8
0
 10
574.04447587297125
 20
612.4308988887301
 30
0.0
 11
574.04447587297091
 21
656.47404164788622
 31
0.0
  0
LINE
  5
5430
  8
0
 10
574.04447587297091
 20
612.43089888873089
 30
0.0
 11
573.50891825571034
 21
611.50328588525554
 31
0.0
  0
ARC
  5
5431
  8
0
 10
578.27524567458465
 20
619.44796468626009
 30
0.0
 40
8.1938162977400193
 50
238.91314204485479
 51
301.377767672017
  0
ARC
  5
5432
  8
0
 10
578.27524567458465
 20
649.45697585035657
 30
0.0
 40
8.1938162977400193
 50
58.622232327983021
 51
121.08685795514521
  0
LINE
  5
5433
  8
0
 10
574.04447587297091
 20
656.47404164788577
 30
0.0
 11
573.50891825571034
 21
657.40165465136124
 31
0.0
  0
LINE
  5
5434
  8
0
 10
731.54158876551401
 20
704.45247026830793
 30
0.0
 11
713.54158876551401
 21
704.45247026830793
 31
0.0
  0
LINE
  5
5435
  8
0
 10
539.5415887655131
 20
564.45247026830793
 30
0.0
 11
521.54158876551298
 21
564.45247026830793
 31
0.0
  0
LINE
  5
5436
  8
0
 10
521.54158876551298
 20
704.45247026830793
 30
0.0
 11
539.5415887655131
 21
704.45247026830793
 31
0.0
  0
LINE
  5
5437
  8
0
 10
713.54158876551401
 20
704.45247026830793
 30
0.0
 11
713.54158876551401
 21
564.45247026830793
 31
0.0
  0
LINE
  5
5438
  8
0
 10
539.5415887655131
 20
704.45247026830793
 30
0.0
 11
539.5415887655131
 21
564.45247026830793
 31
0.0
  0
ARC
  5
5439
  8
0
 10
709.54158876551401
 20
663.78196170316767
 30
0.0
 40
4.0
 50
274.5177852883279
 51
0.000000000000007
  0
ARC
  5
543A
  8
0
 10
709.54158876551401
 20
605.1239379144929
 30
0.0
 40
4.0
 50
0.000000000000007
 51
85.484018089006625
  0
ARC
  5
543B
  8
0
 10
543.5415887655131
 20
663.78196170316846
 30
0.0
 40
4.0
 50
180.0
 51
265.4822147116592
  0
ARC
  5
543C
  8
0
 10
543.5415887655131
 20
605.12393791449244
 30
0.0
 40
4.0
 50
94.515981910993361
 51
180.0
  0
LINE
  5
543D
  8
0
 10
731.54158876551401
 20
704.45247026830793
 30
0.0
 11
731.54158876551401
 21
564.45247026830793
 31
0.0
  0
LINE
  5
543E
  8
0
 10
521.54158876551298
 20
704.45247026830793
 30
0.0
 11
521.54158876551298
 21
564.45247026830793
 31
0.0
  0
LINE
  5
543F
  8
0
 10
584.83988284334157
 20
660.43323238184132
 30
0.0
 11
591.1848444086063
 21
660.43323238184121
 31
0.0
  0
LINE
  5
5440
  8
0
 10
661.96397637997552
 20
660.43323238184121
 30
0.0
 11
668.24329468768508
 21
660.43323238184109
 31
0.0
  0
LINE
  5
5441
  8
0
 10
584.83988284334157
 20
647.44285132507434
 30
0.0
 11
668.24329468768519
 21
647.44285132507423
 31
0.0
  0
LINE
  5
5442
  8
0
 10
584.83988284334157
 20
621.46208921154152
 30
0.0
 11
668.24329468768519
 21
621.46208921154152
 31
0.0
  0
LINE
  5
5443
  8
0
 10
584.83988284334146
 20
608.47170815477489
 30
0.0
 11
598.40771885600452
 21
608.47170815477455
 31
0.0
  0
LINE
  5
5444
  8
0
 10
646.77382665197285
 20
608.47170815477455
 30
0.0
 11
668.24329468768519
 21
608.47170815477489
 31
0.0
  0
LINE
  5
5445
  8
0
 10
666.54158876551332
 20
661.45247026830782
 30
0.0
 11
666.54158876551332
 21
660.43323238184109
 31
0.0
  0
LINE
  5
5446
  8
0
 10
582.54158876551355
 20
656.45247026830805
 30
0.0
 11
582.54158876551344
 21
612.45247026830771
 31
0.0
  0
LINE
  5
5447
  8
0
 10
670.54158876551355
 20
656.45247026830805
 30
0.0
 11
670.54158876551344
 21
612.45247026830771
 31
0.0
  0
LINE
  5
5448
  8
0
 10
659.77779689179977
 20
661.45247026830782
 30
0.0
 11
666.54158876551332
 21
661.45247026830782
 31
0.0
  0
LINE
  5
5449
  8
0
 10
668.24329468768508
 20
660.43323238184109
 30
0.0
 11
670.54158876551355
 21
656.45247026830805
 31
0.0
  0
LINE
  5
544A
  8
0
 10
668.24329468768508
 20
608.47170815477466
 30
0.0
 11
670.54158876551355
 21
612.45247026830782
 31
0.0
  0
LINE
  5
544B
  8
0
 10
595.54138876551349
 20
675.45247026830793
 30
0.0
 11
657.54178876551339
 21
675.45247026830793
 31
0.0
  0
LINE
  5
544C
  8
0
 10
653.54138876551326
 20
679.45247026830793
 30
0.0
 11
653.54138876551326
 21
675.45247026830805
 31
0.0
  0
LINE
  5
544D
  8
0
 10
599.54138876551326
 20
679.45247026830793
 30
0.0
 11
599.54138876551326
 21
675.45247026830805
 31
0.0
  0
LINE
  5
544E
  8
0
 10
596.54138876551337
 20
688.22041946073909
 30
0.0
 11
596.54138876551349
 21
681.18452107587666
 31
0.0
  0
LINE
  5
544F
  8
0
 10
599.04138876551326
 20
689.66379513371305
 30
0.0
 11
596.54138876551337
 21
688.22041946073909
 31
0.0
  0
ARC
  5
5450
  8
0
 10
650.79138876551235
 20
696.66379513371203
 30
0.0
 40
3.2999999999999989
 50
0.0000000000130346
 51
90.000000000013031
  0
LINE
  5
5451
  8
0
 10
654.09138876551242
 20
696.66379513371248
 30
0.0
 11
654.09138876551356
 21
689.65247026830775
 31
0.0
  0
LINE
  5
5452
  8
0
 10
602.29138876551178
 20
699.96379513370425
 30
0.0
 11
650.79138876551167
 21
699.96379513371198
 31
0.0
  0
ARC
  5
5453
  8
0
 10
602.29138876551235
 20
696.6637951337043
 30
0.0
 40
3.2999999999999989
 50
90.000000000013031
 51
180.00000000001299
  0
LINE
  5
5454
  8
0
 10
598.9913887655124
 20
696.66379513370384
 30
0.0
 11
598.99138876551342
 21
689.65247026830798
 31
0.0
  0
LINE
  5
5455
  8
0
 10
606.54138876551326
 20
699.963795133708
 30
0.0
 11
646.54138876551337
 21
699.963795133708
 31
0.0
  0
LINE
  5
5456
  8
0
 10
646.54138876551337
 20
700.46279513370814
 30
0.0
 11
606.54138876551326
 21
700.46279513370814
 31
0.0
  0
LINE
  5
5457
  8
0
 10
646.54138876551337
 20
699.963795133708
 30
0.0
 11
646.54138876551337
 21
700.46279513370814
 31
0.0
  0
ARC
  5
5458
  8
0
 10
626.54188876551177
 20
700.46279513370814
 30
0.0
 40
0.9975000000000022
 50
0.000000000000007
 51
180.0
  0
LINE
  5
5459
  8
0
 10
606.54138876551326
 20
700.46279513370814
 30
0.0
 11
606.54138876551326
 21
699.963795133708
 31
0.0
  0
LINE
  5
545A
  8
0
 10
628.54158876551344
 20
675.45247026830793
 30
0.0
 11
628.54158876551344
 21
672.45247026830793
 31
0.0
  0
LINE
  5
545B
  8
0
 10
624.54158876551344
 20
675.45247026830793
 30
0.0
 11
624.54158876551344
 21
672.45247026830793
 31
0.0
  0
LINE
  5
545C
  8
0
 10
595.54158876551344
 20
668.95247026830793
 30
0.0
 11
657.54158876551344
 21
668.95247026830793
 31
0.0
  0
LINE
  5
545D
  8
0
 10
628.54158876551344
 20
672.45247026830793
 30
0.0
 11
657.54158876551344
 21
672.45247026830793
 31
0.0
  0
LINE
  5
545E
  8
0
 10
595.54158876551344
 20
672.45247026830793
 30
0.0
 11
624.54158876551344
 21
672.45247026830793
 31
0.0
  0
LINE
  5
545F
  8
0
 10
628.54158876551344
 20
673.95247026830793
 30
0.0
 11
659.04158876551344
 21
673.95247026830793
 31
0.0
  0
LINE
  5
5460
  8
0
 10
594.04158876551344
 20
673.95247026830793
 30
0.0
 11
624.54158876551344
 21
673.95247026830793
 31
0.0
  0
LINE
  5
5461
  8
0
 10
659.04158876551344
 20
668.95247026830793
 30
0.0
 11
659.04158876551344
 21
663.43547026830777
 31
0.0
  0
LINE
  5
5462
  8
0
 10
594.04158876551344
 20
663.43247026830795
 30
0.0
 11
594.04158876551344
 21
668.95247026830793
 31
0.0
  0
LINE
  5
5463
  8
0
 10
594.04158876551344
 20
668.95247026830793
 30
0.0
 11
595.54158876551344
 21
668.95247026830793
 31
0.0
  0
LINE
  5
5464
  8
0
 10
595.54158876551344
 20
668.95247026830793
 30
0.0
 11
595.54158876551344
 21
672.45247026830793
 31
0.0
  0
LINE
  5
5465
  8
0
 10
595.54158876551344
 20
672.45247026830793
 30
0.0
 11
594.04158876551344
 21
672.45247026830793
 31
0.0
  0
LINE
  5
5466
  8
0
 10
594.04158876551344
 20
672.45247026830793
 30
0.0
 11
594.04158876551344
 21
673.95247026830793
 31
0.0
  0
LINE
  5
5467
  8
0
 10
594.04158876551344
 20
673.95247026830793
 30
0.0
 11
595.54158876551344
 21
675.45247026830793
 31
0.0
  0
LINE
  5
5468
  8
0
 10
657.54158876551344
 20
675.45247026830793
 30
0.0
 11
659.04158876551344
 21
673.95247026830793
 31
0.0
  0
LINE
  5
5469
  8
0
 10
659.04158876551344
 20
673.95247026830793
 30
0.0
 11
659.04158876551344
 21
672.45247026830793
 31
0.0
  0
LINE
  5
546A
  8
0
 10
659.04158876551344
 20
672.45247026830793
 30
0.0
 11
657.54158876551344
 21
672.45247026830793
 31
0.0
  0
LINE
  5
546B
  8
0
 10
657.54158876551344
 20
672.45247026830793
 30
0.0
 11
657.54158876551344
 21
668.95247026830793
 31
0.0
  0
LINE
  5
546C
  8
0
 10
657.54158876551344
 20
668.95247026830793
 30
0.0
 11
659.04158876551344
 21
668.95247026830793
 31
0.0
  0
LINE
  5
546D
  8
0
 10
659.04158876551344
 20
668.95247026830793
 30
0.0
 11
659.03159861111794
 21
663.43790504199774
 31
0.0
  0
CIRCLE
  5
546E
  8
0
 10
626.54158876551344
 20
652.44247026830794
 30
0.0
 40
1.5
  0
ARC
  5
546F
  8
0
 10
662.03159368831973
 20
663.43247026830704
 30
0.0
 40
3.0
 50
179.8962034115325
 51
270.00000000001302
  0
ARC
  5
5470
  8
0
 10
591.05192360221452
 20
663.43028627845842
 30
0.0
 40
2.9999999999999991
 50
272.53943172946288
 51
0.1073224825888007
  0
ARC
  5
5471
  8
0
 10
640.80134930039367
 20
667.16314770954546
 30
0.0
 40
19.264806140576152
 50
297.32826723905441
 51
336.97635375223263
  0
ARC
  5
5472
  8
0
 10
612.28182823063298
 20
667.16314770954546
 30
0.0
 40
19.264806140576152
 50
203.02364624776729
 51
242.67173276094559
  0
LINE
  5
5473
  8
0
 10
656.54138876551326
 20
688.20909459533357
 30
0.0
 11
656.54138876551326
 21
680.895845941282
 31
0.0
  0
LINE
  5
5474
  8
0
 10
596.54138876551337
 20
688.20909459533391
 30
0.0
 11
596.54138876551337
 21
680.895845941282
 31
0.0
  0
LINE
  5
5475
  8
0
 10
654.04138876551337
 20
679.45247026830793
 30
0.0
 11
599.04138876551326
 21
679.45247026830793
 31
0.0
  0
LINE
  5
5476
  8
0
 10
654.04138876551337
 20
689.65247026830775
 30
0.0
 11
599.04138876551326
 21
689.65247026830798
 31
0.0
  0
LINE
  5
5477
  8
0
 10
614.55180995723163
 20
688.20909459533391
 30
0.0
 11
614.55180995723163
 21
680.895845941282
 31
0.0
  0
LINE
  5
5478
  8
0
 10
608.72047956558208
 20
688.20909459533414
 30
0.0
 11
608.72047956558208
 21
680.895845941282
 31
0.0
  0
LINE
  5
5479
  8
0
 10
638.53096757379512
 20
688.20909459533391
 30
0.0
 11
638.53096757379512
 21
680.895845941282
 31
0.0
  0
LINE
  5
547A
  8
0
 10
644.3622979654449
 20
688.20909459533391
 30
0.0
 11
644.3622979654449
 21
680.89584594128166
 31
0.0
  0
LINE
  5
547B
  8
0
 10
599.04138876551326
 20
689.65247026830798
 30
0.0
 11
596.54138876551337
 21
688.20909459533391
 31
0.0
  0
LINE
  5
547C
  8
0
 10
599.04138876551326
 20
679.45247026830793
 30
0.0
 11
596.54138876551337
 21
680.895845941282
 31
0.0
  0
LINE
  5
547D
  8
0
 10
608.72047956558208
 20
680.895845941282
 30
0.0
 11
614.55180995723163
 21
680.895845941282
 31
0.0
  0
LINE
  5
547E
  8
0
 10
638.53096757379535
 20
680.895845941282
 30
0.0
 11
644.3622979654449
 21
680.895845941282
 31
0.0
  0
ARC
  5
547F
  8
0
 10
602.63093416554761
 20
693.01991258036207
 30
0.0
 40
13.56744467642805
 50
243.33103023467839
 51
296.66896976532172
  0
ARC
  5
5480
  8
0
 10
626.54138876551326
 20
729.97061882240189
 30
0.0
 40
50.518148554094068
 50
256.27086732458361
 51
283.72913267541651
  0
ARC
  5
5481
  8
0
 10
650.45184336547914
 20
693.01991258036185
 30
0.0
 40
13.56744467642805
 50
243.33103023467839
 51
296.66896976532172
  0
LINE
  5
5482
  8
0
 10
654.04138876551337
 20
689.65247026830775
 30
0.0
 11
656.54138876551326
 21
688.20909459533357
 31
0.0
  0
LINE
  5
5483
  8
0
 10
654.04138876551337
 20
679.45247026830793
 30
0.0
 11
656.54138876551326
 21
680.895845941282
 31
0.0
  0
LINE
  5
5484
  8
0
 10
608.72047956558208
 20
688.20909459533414
 30
0.0
 11
614.55180995723163
 21
688.20909459533391
 31
0.0
  0
LINE
  5
5485
  8
0
 10
638.53096757379535
 20
688.20909459533391
 30
0.0
 11
644.3622979654449
 21
688.20909459533391
 31
0.0
  0
ARC
  5
5486
  8
0
 10
602.63093416554761
 20
676.08502795625395
 30
0.0
 40
13.56744467642805
 50
63.331030234678352
 51
116.66896976532161
  0
ARC
  5
5487
  8
0
 10
626.54138876551315
 20
639.1343217142138
 30
0.0
 40
50.518148554094068
 50
76.270867324583534
 51
103.72913267541639
  0
ARC
  5
5488
  8
0
 10
650.45184336547914
 20
676.08502795625373
 30
0.0
 40
13.56744467642805
 50
63.331030234678352
 51
116.66896976532161
  0
CIRCLE
  5
5489
  8
0
 10
626.54138876551315
 20
693.15197026830276
 30
0.0
 40
1.5494999999999659
  0
LINE
  5
548A
  8
0
 10
584.83988284334157
 20
660.43323238184109
 30
0.0
 11
582.54158876551321
 21
656.45247026830805
 31
0.0
  0
LINE
  5
548B
  8
0
 10
584.83988284334157
 20
608.47170815477466
 30
0.0
 11
582.54158876551321
 21
612.45247026830782
 31
0.0
  0
ARC
  5
548C
  8
0
 10
632.68042962424443
 20
634.45247026830793
 30
0.0
 40
37.861159141268992
 50
339.93379403893942
 51
20.066205961060628
  0
ARC
  5
548D
  8
0
 10
660.21443870101075
 20
614.96689868315832
 30
0.0
 40
10.3271500645029
 50
338.97219471627039
 51
38.972194716268689
  0
ARC
  5
548E
  8
0
 10
592.86873883001601
 20
614.96689868315832
 30
0.0
 40
10.3271500645029
 50
141.02780528373131
 51
201.02780528372961
  0
ARC
  5
548F
  8
0
 10
660.21443870101075
 20
653.93804185345755
 30
0.0
 40
10.3271500645029
 50
321.02780528371812
 51
21.027805283729609
  0
ARC
  5
5490
  8
0
 10
620.40274790678245
 20
634.45247026830793
 30
0.0
 40
37.861159141268992
 50
159.93379403893931
 51
200.0662059610606
  0
ARC
  5
5491
  8
0
 10
592.86873883001601
 20
653.93804185345755
 30
0.0
 40
10.3271500645029
 50
158.97219471627039
 51
218.9721947162819
  0
LINE
  5
5492
  8
0
 10
595.96728110278832
 20
602.91916260559026
 30
0.0
 11
620.00928110278835
 21
578.87816260559043
 31
0.0
  0
LINE
  5
5493
  8
0
 10
644.12482665197274
 20
614.82270815477466
 30
0.0
 11
620.00128110278843
 21
590.69916260559046
 31
0.0
  0
LINE
  5
5494
  8
0
 10
598.40771885600452
 20
608.47170815477489
 30
0.0
 11
598.40771885600452
 21
614.82270815477466
 31
0.0
  0
LINE
  5
5495
  8
0
 10
598.40771885600452
 20
614.82270815477466
 30
0.0
 11
644.12482665197274
 21
614.82270815477466
 31
0.0
  0
LINE
  5
5496
  8
0
 10
644.12482665197274
 20
614.82270815477466
 30
0.0
 11
646.77382665197274
 21
608.47170815477489
 31
0.0
  0
LINE
  5
5497
  8
0
 10
624.23928110278837
 20
584.52316260559041
 30
0.0
 11
607.96828110278852
 21
600.79416260559026
 31
0.0
  0
LINE
  5
5498
  8
0
 10
607.96828110278852
 20
600.79416260559026
 30
0.0
 11
607.02728110278838
 21
599.85316260559046
 31
0.0
  0
LINE
  5
5499
  8
0
 10
607.02728110278838
 20
599.85316260559046
 30
0.0
 11
598.40771885600452
 21
608.47170815477489
 31
0.0
  0
LINE
  5
549A
  8
0
 10
646.77382665197274
 20
608.47170815477489
 30
0.0
 11
624.23928110278837
 21
585.9371626055904
 31
0.0
  0
LINE
  5
549B
  8
0
 10
624.23928110278837
 20
585.9371626055904
 30
0.0
 11
624.23928110278837
 21
585.9371626055904
 31
0.0
  0
LINE
  5
549C
  8
0
 10
624.23928110278837
 20
585.9371626055904
 30
0.0
 11
624.14428110278845
 21
585.8271626055905
 31
0.0
  0
LINE
  5
549D
  8
0
 10
624.14428110278845
 20
585.8271626055905
 30
0.0
 11
624.06328110278832
 21
585.69816260559037
 31
0.0
  0
LINE
  5
549E
  8
0
 10
624.06328110278832
 20
585.69816260559037
 30
0.0
 11
624.00028110278845
 21
585.55216260559041
 31
0.0
  0
LINE
  5
549F
  8
0
 10
624.00028110278845
 20
585.55216260559041
 30
0.0
 11
623.96028110278849
 21
585.39416260559051
 31
0.0
  0
LINE
  5
54A0
  8
0
 10
623.96028110278849
 20
585.39416260559051
 30
0.0
 11
623.94628110278825
 21
585.23016260559052
 31
0.0
  0
LINE
  5
54A1
  8
0
 10
623.94628110278825
 20
585.23016260559052
 30
0.0
 11
623.96028110278849
 21
585.06516260559044
 31
0.0
  0
LINE
  5
54A2
  8
0
 10
623.96028110278849
 20
585.06516260559044
 30
0.0
 11
624.00028110278845
 21
584.90716260559043
 31
0.0
  0
LINE
  5
54A3
  8
0
 10
624.00028110278845
 20
584.90716260559043
 30
0.0
 11
624.06328110278832
 21
584.76216260559045
 31
0.0
  0
LINE
  5
54A4
  8
0
 10
624.06328110278832
 20
584.76216260559045
 30
0.0
 11
624.23928110278837
 21
584.52316260559041
 31
0.0
  0
LINE
  5
54A5
  8
0
 10
624.23928110278837
 20
584.52316260559041
 30
0.0
 11
624.23928110278837
 21
584.52316260559041
 31
0.0
  0
LINE
  5
54A6
  8
0
 10
624.23928110278837
 20
584.52316260559041
 30
0.0
 11
624.23928110278837
 21
584.52316260559041
 31
0.0
  0
LINE
  5
54A7
  8
0
 10
624.23928110278837
 20
584.52316260559041
 30
0.0
 11
624.33428110278851
 21
584.4131626055904
 31
0.0
  0
LINE
  5
54A8
  8
0
 10
624.33428110278851
 20
584.4131626055904
 30
0.0
 11
624.41628110278839
 21
584.28416260559027
 31
0.0
  0
LINE
  5
54A9
  8
0
 10
624.41628110278839
 20
584.28416260559027
 30
0.0
 11
624.47928110278849
 21
584.13816260559042
 31
0.0
  0
LINE
  5
54AA
  8
0
 10
624.47928110278849
 20
584.13816260559042
 30
0.0
 11
624.51928110278845
 21
583.98016260559052
 31
0.0
  0
LINE
  5
54AB
  8
0
 10
624.51928110278845
 20
583.98016260559052
 30
0.0
 11
624.53228110278826
 21
583.81616260559053
 31
0.0
  0
LINE
  5
54AC
  8
0
 10
624.53228110278826
 20
583.81616260559053
 30
0.0
 11
624.51928110278845
 21
583.65116260559046
 31
0.0
  0
LINE
  5
54AD
  8
0
 10
624.51928110278845
 20
583.65116260559046
 30
0.0
 11
624.47928110278849
 21
583.49316260559044
 31
0.0
  0
LINE
  5
54AE
  8
0
 10
624.47928110278849
 20
583.49316260559044
 30
0.0
 11
624.41628110278839
 21
583.34816260559035
 31
0.0
  0
LINE
  5
54AF
  8
0
 10
624.41628110278839
 20
583.34816260559035
 30
0.0
 11
624.23928110278837
 21
583.10916260559043
 31
0.0
  0
LINE
  5
54B0
  8
0
 10
624.23928110278837
 20
583.10916260559043
 30
0.0
 11
620.00928110278835
 21
578.87816260559043
 31
0.0
  0
LINE
  5
54B1
  8
0
 10
620.00928110278835
 20
578.87816260559043
 30
0.0
 11
618.5942811027885
 21
578.87816260559043
 31
0.0
  0
LINE
  5
54B2
  8
0
 10
618.5942811027885
 20
578.87816260559043
 30
0.0
 11
595.96728110278832
 21
601.50516260559061
 31
0.0
  0
LINE
  5
54B3
  8
0
 10
595.96728110278832
 20
601.50516260559061
 30
0.0
 11
595.96728110278832
 21
602.91916260559026
 31
0.0
  0
LINE
  5
54B4
  8
0
 10
595.96728110278832
 20
602.91916260559026
 30
0.0
 11
598.54928110278843
 21
605.50216260559046
 31
0.0
  0
LINE
  5
54B5
  8
0
 10
598.54928110278843
 20
605.50216260559046
 30
0.0
 11
598.54928110278843
 21
605.50216260559046
 31
0.0
  0
LINE
  5
54B6
  8
0
 10
598.54928110278843
 20
605.50216260559046
 30
0.0
 11
598.73928110278837
 21
605.72216260559048
 31
0.0
  0
LINE
  5
54B7
  8
0
 10
598.73928110278837
 20
605.72216260559048
 30
0.0
 11
598.90328110278836
 21
605.98016260559052
 31
0.0
  0
LINE
  5
54B8
  8
0
 10
598.90328110278836
 20
605.98016260559052
 30
0.0
 11
599.02828110278836
 21
606.27116260559046
 31
0.0
  0
LINE
  5
54B9
  8
0
 10
599.02828110278836
 20
606.27116260559046
 30
0.0
 11
599.1082811027884
 21
606.58716260559049
 31
0.0
  0
LINE
  5
54BA
  8
0
 10
599.1082811027884
 20
606.58716260559049
 30
0.0
 11
599.13528110278844
 21
606.91616260559044
 31
0.0
  0
LINE
  5
54BB
  8
0
 10
599.13528110278844
 20
606.91616260559044
 30
0.0
 11
599.1082811027884
 21
607.24516260559039
 31
0.0
  0
LINE
  5
54BC
  8
0
 10
599.1082811027884
 20
607.24516260559039
 30
0.0
 11
599.02828110278836
 21
607.56116260559043
 31
0.0
  0
LINE
  5
54BD
  8
0
 10
599.02828110278836
 20
607.56116260559043
 30
0.0
 11
598.90328110278836
 21
607.85216260559059
 31
0.0
  0
LINE
  5
54BE
  8
0
 10
598.90328110278836
 20
607.85216260559059
 30
0.0
 11
598.40771885600452
 21
608.47170815477489
 31
0.0
  0
LINE
  5
54BF
  8
0
 10
598.54928110278843
 20
608.33016260559043
 30
0.0
 11
598.47528110278824
 21
608.40516260559036
 31
0.0
  0
ARC
  5
54C0
  8
0
 10
588.85257046864785
 20
571.76345197144281
 30
0.0
 40
24.880184541946139
 50
28.961772759897411
 51
61.038227240104412
  0
LINE
  5
54C1
  8
0
 10
616.87534269793264
 20
578.92657415572398
 30
0.0
 11
596.0156926529296
 21
599.78622420072713
 31
0.0
  0
LINE
  5
54C2
  8
0
 10
611.21848844844021
 20
573.26971990623156
 30
0.0
 11
590.35883840343706
 21
594.12936995123471
 31
0.0
  0
ARC
  5
54C3
  8
0
 10
618.38161063276095
 20
601.29249213555693
 30
0.0
 40
24.880184542003899
 50
208.9617727599323
 51
241.03822724007301
  0
LINE
  5
54C4
  8
0
 10
610.6213131046386
 20
583.81108355982155
 30
0.0
 11
606.33397904434037
 21
579.52374949952434
 31
0.0
  0
ARC
  5
54C5
  8
0
 10
614.70490045057306
 20
579.21135889625998
 30
0.0
 40
6.666680248538392
 50
193.73041864319239
 51
250.02182619698709
  0
LINE
  5
54C6
  8
0
 10
606.33397904434037
 20
579.52374949952434
 30
0.0
 11
608.228732294069
 21
577.6289962497957
 31
0.0
  0
LINE
  5
54C7
  8
0
 10
610.6213131046386
 20
583.81108355982155
 30
0.0
 11
612.51606635436724
 21
581.91633031009349
 31
0.0
  0
LINE
  5
54C8
  8
0
 10
616.69856600263188
 20
579.10335085102395
 30
0.0
 11
617.53382942999417
 21
579.93861427838681
 31
0.0
  0
LINE
  5
54C9
  8
0
 10
611.2184884484393
 20
573.26971990623122
 30
0.0
 11
613.08928781787449
 21
572.76844072599022
 31
0.0
  0
LINE
  5
54CA
  8
0
 10
617.37662187817273
 20
577.055774786288
 30
0.0
 11
613.08928781787449
 21
572.76844072599022
 31
0.0
  0
LINE
  5
54CB
  8
0
 10
616.87534269793173
 20
578.92657415572364
 30
0.0
 11
617.37662187817273
 21
577.055774786288
 31
0.0
  0
LINE
  5
54CC
  8
0
 10
612.51606635436724
 20
581.91633031009349
 30
0.0
 11
608.228732294069
 21
577.6289962497957
 31
0.0
  0
ARC
  5
54CD
  8
0
 10
610.93370370790012
 20
575.44016215358704
 30
0.0
 40
6.666680248538392
 50
19.978173802688119
 51
76.269581356801766
  0
LINE
  5
54CE
  8
0
 10
596.0156926529296
 20
599.78622420072713
 30
0.0
 11
594.14489328349168
 21
600.28750338096859
 31
0.0
  0
LINE
  5
54CF
  8
0
 10
590.35883840343706
 20
594.12936995123471
 30
0.0
 11
589.85755922319515
 21
596.00016932067206
 31
0.0
  0
ARC
  5
54D0
  8
0
 10
596.30047739346514
 20
597.61578195336904
 30
0.0
 40
6.666680248538392
 50
199.97817380299921
 51
256.26958135680178
  0
LINE
  5
54D1
  8
0
 10
594.14489328349168
 20
600.28750338096859
 30
0.0
 11
589.85755922319515
 21
596.00016932067206
 31
0.0
  0
LINE
  5
54D2
  8
0
 10
600.9002020570266
 20
593.53219460743355
 30
0.0
 11
599.00544880729717
 21
595.4269478571631
 31
0.0
  0
LINE
  5
54D3
  8
0
 10
600.9002020570266
 20
593.53219460743355
 30
0.0
 11
596.61286799672837
 21
589.24486054713623
 31
0.0
  0
LINE
  5
54D4
  8
0
 10
594.71811474699894
 20
591.13961379686475
 30
0.0
 11
596.61286799672837
 21
589.2448605471352
 31
0.0
  0
ARC
  5
54D5
  8
0
 10
592.52928065079197
 20
593.84458521069678
 30
0.0
 40
6.666680248538392
 50
13.730418643198719
 51
70.02182619730516
  0
LINE
  5
54D6
  8
0
 10
599.00544880729717
 20
595.4269478571631
 30
0.0
 11
594.71811474699894
 21
591.13961379686475
 31
0.0
  0
LINE
  5
54D7
  8
0
 10
596.19246934822206
 20
599.60944750543445
 30
0.0
 11
597.02773277558185
 21
600.44471093279469
 31
0.0
  0
LINE
  5
5574
  8
0
 10
1446.1544564725959
 20
283.48717368988002
 30
0.0
 11
1439.809494907332
 21
283.48717368987991
 31
0.0
  0
LINE
  5
5575
  8
0
 10
1369.030362935963
 20
283.48717368987991
 30
0.0
 11
1362.7510446282531
 21
283.4871736898798
 31
0.0
  0
LINE
  5
5576
  8
0
 10
1446.1544564725959
 20
270.49679263311322
 30
0.0
 11
1362.7510446282531
 21
270.49679263311288
 31
0.0
  0
LINE
  5
5577
  8
0
 10
1446.1544564725959
 20
244.5160305195802
 30
0.0
 11
1362.7510446282531
 21
244.5160305195802
 31
0.0
  0
LINE
  5
5578
  8
0
 10
1446.1544564725959
 20
231.52564946281359
 30
0.0
 11
1432.5866204599331
 21
231.52564946281359
 31
0.0
  0
LINE
  5
5579
  8
0
 10
1384.2205126639651
 20
231.52564946281359
 30
0.0
 11
1362.7510446282531
 21
231.52564946281359
 31
0.0
  0
LINE
  5
557A
  8
0
 10
1364.452750550425
 20
284.50641157634652
 30
0.0
 11
1364.452750550425
 21
283.4871736898798
 31
0.0
  0
LINE
  5
557B
  8
0
 10
1448.452750550425
 20
279.50641157634692
 30
0.0
 11
1448.452750550425
 21
235.50641157634641
 31
0.0
  0
LINE
  5
557C
  8
0
 10
1360.452750550425
 20
279.50641157634681
 30
0.0
 11
1360.452750550425
 21
235.50641157634641
 31
0.0
  0
LINE
  5
557D
  8
0
 10
1371.216542424138
 20
284.50641157634652
 30
0.0
 11
1364.452750550425
 21
284.50641157634652
 31
0.0
  0
LINE
  5
557E
  8
0
 10
1362.7510446282531
 20
283.4871736898798
 30
0.0
 11
1360.452750550425
 21
279.50641157634681
 31
0.0
  0
LINE
  5
557F
  8
0
 10
1362.7510446282531
 20
231.5256494628135
 30
0.0
 11
1360.452750550425
 21
235.50641157634649
 31
0.0
  0
LINE
  5
5580
  8
0
 10
1435.452950550424
 20
298.50641157634658
 30
0.0
 11
1373.452550550425
 21
298.50641157634658
 31
0.0
  0
LINE
  5
5581
  8
0
 10
1377.4529505504249
 20
302.50641157634658
 30
0.0
 11
1377.4529505504249
 21
298.50641157634692
 31
0.0
  0
LINE
  5
5582
  8
0
 10
1431.4529505504249
 20
302.50641157634658
 30
0.0
 11
1431.4529505504249
 21
298.50641157634692
 31
0.0
  0
LINE
  5
5583
  8
0
 10
1434.4529505504249
 20
311.2743607687778
 30
0.0
 11
1434.4529505504249
 21
304.23846238391548
 31
0.0
  0
LINE
  5
5584
  8
0
 10
1431.9529505504249
 20
312.71773644175192
 30
0.0
 11
1434.4529505504249
 21
311.2743607687778
 31
0.0
  0
ARC
  5
5585
  8
0
 10
1380.2029505504261
 20
319.71773644175067
 30
0.0
 40
3.2999999999999989
 50
89.999999999986969
 51
179.99999999998701
  0
LINE
  5
5586
  8
0
 10
1376.9029505504261
 20
319.71773644175119
 30
0.0
 11
1376.9029505504241
 21
312.7064115763464
 31
0.0
  0
LINE
  5
5587
  8
0
 10
1428.7029505504261
 20
323.0177364417429
 30
0.0
 11
1380.2029505504261
 21
323.01773644175069
 31
0.0
  0
ARC
  5
5588
  8
0
 10
1428.7029505504261
 20
319.717736441743
 30
0.0
 40
3.2999999999999989
 50
359.99999999998698
 51
89.999999999986969
  0
LINE
  5
5589
  8
0
 10
1432.002950550426
 20
319.71773644174249
 30
0.0
 11
1432.0029505504251
 21
312.70641157634668
 31
0.0
  0
LINE
  5
558A
  8
0
 10
1424.452950550424
 20
323.01773644174682
 30
0.0
 11
1384.4529505504249
 21
323.01773644174682
 31
0.0
  0
LINE
  5
558B
  8
0
 10
1384.4529505504249
 20
323.51673644174679
 30
0.0
 11
1424.452950550424
 21
323.51673644174679
 31
0.0
  0
LINE
  5
558C
  8
0
 10
1384.4529505504249
 20
323.01773644174682
 30
0.0
 11
1384.4529505504249
 21
323.51673644174679
 31
0.0
  0
ARC
  5
558D
  8
0
 10
1404.452450550426
 20
323.51673644174679
 30
0.0
 40
0.9975000000000022
 50
0.0
 51
180.0
  0
LINE
  5
558E
  8
0
 10
1424.452950550424
 20
323.51673644174679
 30
0.0
 11
1424.452950550424
 21
323.01773644174682
 31
0.0
  0
LINE
  5
558F
  8
0
 10
1402.4527505504241
 20
298.50641157634658
 30
0.0
 11
1402.4527505504241
 21
295.50641157634658
 31
0.0
  0
LINE
  5
5590
  8
0
 10
1406.452750550425
 20
298.50641157634658
 30
0.0
 11
1406.452750550425
 21
295.50641157634658
 31
0.0
  0
LINE
  5
5591
  8
0
 10
1435.452750550425
 20
292.00641157634658
 30
0.0
 11
1373.452750550425
 21
292.00641157634658
 31
0.0
  0
LINE
  5
5592
  8
0
 10
1402.4527505504241
 20
295.50641157634658
 30
0.0
 11
1373.452750550425
 21
295.50641157634658
 31
0.0
  0
LINE
  5
5593
  8
0
 10
1435.452750550425
 20
295.50641157634658
 30
0.0
 11
1406.452750550425
 21
295.50641157634658
 31
0.0
  0
LINE
  5
5594
  8
0
 10
1402.4527505504241
 20
297.00641157634669
 30
0.0
 11
1371.9527505504241
 21
297.00641157634669
 31
0.0
  0
LINE
  5
5595
  8
0
 10
1436.952750550425
 20
297.00641157634669
 30
0.0
 11
1406.452750550425
 21
297.00641157634669
 31
0.0
  0
LINE
  5
5596
  8
0
 10
1371.9527505504241
 20
292.00641157634658
 30
0.0
 11
1371.9527505504241
 21
286.48941157634658
 31
0.0
  0
LINE
  5
5597
  8
0
 10
1436.952750550425
 20
286.48641157634671
 30
0.0
 11
1436.952750550425
 21
292.00641157634658
 31
0.0
  0
LINE
  5
5598
  8
0
 10
1436.952750550425
 20
292.00641157634658
 30
0.0
 11
1435.452750550425
 21
292.00641157634658
 31
0.0
  0
LINE
  5
5599
  8
0
 10
1435.452750550425
 20
292.00641157634658
 30
0.0
 11
1435.452750550425
 21
295.50641157634658
 31
0.0
  0
LINE
  5
559A
  8
0
 10
1435.452750550425
 20
295.50641157634658
 30
0.0
 11
1436.952750550425
 21
295.50641157634658
 31
0.0
  0
LINE
  5
559B
  8
0
 10
1436.952750550425
 20
295.50641157634658
 30
0.0
 11
1436.952750550425
 21
297.00641157634669
 31
0.0
  0
LINE
  5
559C
  8
0
 10
1436.952750550425
 20
297.00641157634669
 30
0.0
 11
1435.452750550425
 21
298.50641157634658
 31
0.0
  0
LINE
  5
559D
  8
0
 10
1373.452750550425
 20
298.50641157634658
 30
0.0
 11
1371.9527505504241
 21
297.00641157634669
 31
0.0
  0
LINE
  5
559E
  8
0
 10
1371.9527505504241
 20
297.00641157634669
 30
0.0
 11
1371.9527505504241
 21
295.50641157634658
 31
0.0
  0
LINE
  5
559F
  8
0
 10
1371.9527505504241
 20
295.50641157634658
 30
0.0
 11
1373.452750550425
 21
295.50641157634658
 31
0.0
  0
LINE
  5
55A0
  8
0
 10
1373.452750550425
 20
295.50641157634658
 30
0.0
 11
1373.452750550425
 21
292.00641157634658
 31
0.0
  0
LINE
  5
55A1
  8
0
 10
1373.452750550425
 20
292.00641157634658
 30
0.0
 11
1371.9527505504241
 21
292.00641157634658
 31
0.0
  0
LINE
  5
55A2
  8
0
 10
1371.9527505504241
 20
292.00641157634658
 30
0.0
 11
1371.9627407048199
 21
286.49184635003638
 31
0.0
  0
CIRCLE
  5
55A3
  8
0
 10
1404.452750550425
 20
275.4964115763467
 30
0.0
 40
1.5
  0
ARC
  5
55A4
  8
0
 10
1368.962745627618
 20
286.48641157634569
 30
0.0
 40
3.0
 50
269.99999999999352
 51
0.1037965884674245
  0
ARC
  5
55A5
  8
0
 10
1439.942415713723
 20
286.48422758649713
 30
0.0
 40
2.9999999999999991
 50
179.89267751741119
 51
267.46056827053718
  0
ARC
  5
55A6
  8
0
 10
1390.192990015544
 20
290.21708901758421
 30
0.0
 40
19.264806140576152
 50
203.0236462477649
 51
242.6717327609403
  0
ARC
  5
55A7
  8
0
 10
1418.7125110853051
 20
290.21708901758421
 30
0.0
 40
19.264806140576152
 50
297.3282672390597
 51
336.9763537522349
  0
LINE
  5
55A8
  8
0
 10
1374.4529505504249
 20
311.26303590337238
 30
0.0
 11
1374.4529505504249
 21
303.94978724932071
 31
0.0
  0
LINE
  5
55A9
  8
0
 10
1434.4529505504249
 20
311.26303590337261
 30
0.0
 11
1434.4529505504249
 21
303.94978724932071
 31
0.0
  0
LINE
  5
55AA
  8
0
 10
1376.952950550424
 20
302.50641157634658
 30
0.0
 11
1431.9529505504249
 21
302.50641157634658
 31
0.0
  0
LINE
  5
55AB
  8
0
 10
1376.952950550424
 20
312.7064115763464
 30
0.0
 11
1431.9529505504249
 21
312.70641157634668
 31
0.0
  0
LINE
  5
55AC
  8
0
 10
1416.442529358706
 20
311.26303590337261
 30
0.0
 11
1416.442529358706
 21
303.94978724932071
 31
0.0
  0
LINE
  5
55AD
  8
0
 10
1422.273859750356
 20
311.26303590337278
 30
0.0
 11
1422.273859750356
 21
303.94978724932071
 31
0.0
  0
LINE
  5
55AE
  8
0
 10
1392.463371742143
 20
311.26303590337261
 30
0.0
 11
1392.463371742143
 21
303.94978724932071
 31
0.0
  0
LINE
  5
55AF
  8
0
 10
1386.632041350493
 20
311.26303590337261
 30
0.0
 11
1386.632041350493
 21
303.94978724932048
 31
0.0
  0
LINE
  5
55B0
  8
0
 10
1431.9529505504249
 20
312.70641157634668
 30
0.0
 11
1434.4529505504249
 21
311.26303590337261
 31
0.0
  0
LINE
  5
55B1
  8
0
 10
1431.9529505504249
 20
302.50641157634658
 30
0.0
 11
1434.4529505504249
 21
303.94978724932071
 31
0.0
  0
LINE
  5
55B2
  8
0
 10
1422.273859750356
 20
303.94978724932071
 30
0.0
 11
1416.442529358706
 21
303.94978724932071
 31
0.0
  0
LINE
  5
55B3
  8
0
 10
1392.463371742143
 20
303.94978724932071
 30
0.0
 11
1386.632041350493
 21
303.94978724932071
 31
0.0
  0
ARC
  5
55B4
  8
0
 10
1428.36340515039
 20
316.07385388840089
 30
0.0
 40
13.56744467642805
 50
243.33103023467791
 51
296.66896976532217
  0
ARC
  5
55B5
  8
0
 10
1404.4529505504249
 20
353.0245601304407
 30
0.0
 40
50.518148554094068
 50
256.27086732458332
 51
283.72913267541668
  0
ARC
  5
55B6
  8
0
 10
1380.5424959504589
 20
316.07385388840072
 30
0.0
 40
13.56744467642805
 50
243.33103023467791
 51
296.66896976532217
  0
LINE
  5
55B7
  8
0
 10
1376.952950550424
 20
312.7064115763464
 30
0.0
 11
1374.4529505504249
 21
311.26303590337238
 31
0.0
  0
LINE
  5
55B8
  8
0
 10
1376.952950550424
 20
302.50641157634658
 30
0.0
 11
1374.4529505504249
 21
303.94978724932071
 31
0.0
  0
LINE
  5
55B9
  8
0
 10
1422.273859750356
 20
311.26303590337278
 30
0.0
 11
1416.442529358706
 21
311.26303590337261
 31
0.0
  0
LINE
  5
55BA
  8
0
 10
1392.463371742143
 20
311.26303590337261
 30
0.0
 11
1386.632041350493
 21
311.26303590337261
 31
0.0
  0
ARC
  5
55BB
  8
0
 10
1428.36340515039
 20
299.1389692642926
 30
0.0
 40
13.56744467642805
 50
63.331030234677847
 51
116.6689697653221
  0
ARC
  5
55BC
  8
0
 10
1404.4529505504249
 20
262.18826302225261
 30
0.0
 40
50.518148554094068
 50
76.27086732458325
 51
103.72913267541669
  0
ARC
  5
55BD
  8
0
 10
1380.5424959504589
 20
299.13896926429243
 30
0.0
 40
13.56744467642805
 50
63.331030234677847
 51
116.6689697653221
  0
CIRCLE
  5
55BE
  8
0
 10
1404.4529505504249
 20
316.20591157634158
 30
0.0
 40
1.5494999999999659
  0
LINE
  5
55BF
  8
0
 10
1446.1544564725959
 20
283.4871736898798
 30
0.0
 11
1448.452750550425
 21
279.50641157634681
 31
0.0
  0
LINE
  5
55C0
  8
0
 10
1446.1544564725959
 20
231.5256494628135
 30
0.0
 11
1448.452750550425
 21
235.50641157634649
 31
0.0
  0
ARC
  5
55C1
  8
0
 10
1398.3139096916941
 20
257.50641157634669
 30
0.0
 40
37.861159141268992
 50
159.93379403894161
 51
200.06620596105839
  0
ARC
  5
55C2
  8
0
 10
1370.7799006149271
 20
238.02083999119699
 30
0.0
 40
10.3271500645029
 50
141.0278052837306
 51
201.0278052837298
  0
ARC
  5
55C3
  8
0
 10
1438.125600485922
 20
238.02083999119699
 30
0.0
 40
10.3271500645029
 50
338.97219471627028
 51
38.972194716269357
  0
ARC
  5
55C4
  8
0
 10
1370.7799006149271
 20
276.99198316149619
 30
0.0
 40
10.3271500645029
 50
158.9721947162702
 51
218.97219471627801
  0
ARC
  5
55C5
  8
0
 10
1410.5915914091549
 20
257.50641157634669
 30
0.0
 40
37.861159141268992
 50
339.93379403894158
 51
20.066205961058401
  0
ARC
  5
55C6
  8
0
 10
1438.125600485922
 20
276.99198316149619
 30
0.0
 40
10.3271500645029
 50
321.02780528372199
 51
21.027805283729741
  0
LINE
  5
55C7
  8
0
 10
1435.02705821315
 20
225.9731039136291
 30
0.0
 11
1410.9850582131501
 21
201.93210391362911
 31
0.0
  0
LINE
  5
55C8
  8
0
 10
1386.869512663965
 20
237.8766494628135
 30
0.0
 11
1410.9930582131501
 21
213.7531039136293
 31
0.0
  0
LINE
  5
55C9
  8
0
 10
1432.5866204599331
 20
231.52564946281359
 30
0.0
 11
1432.5866204599331
 21
237.8766494628135
 31
0.0
  0
LINE
  5
55CA
  8
0
 10
1432.5866204599331
 20
237.8766494628135
 30
0.0
 11
1386.869512663965
 21
237.8766494628135
 31
0.0
  0
LINE
  5
55CB
  8
0
 10
1386.869512663965
 20
237.8766494628135
 30
0.0
 11
1384.2205126639651
 21
231.52564946281359
 31
0.0
  0
LINE
  5
55CC
  8
0
 10
1406.7550582131501
 20
207.57710391362909
 30
0.0
 11
1423.02605821315
 21
223.8481039136291
 31
0.0
  0
LINE
  5
55CD
  8
0
 10
1423.02605821315
 20
223.8481039136291
 30
0.0
 11
1423.96705821315
 21
222.9071039136293
 31
0.0
  0
LINE
  5
55CE
  8
0
 10
1423.96705821315
 20
222.9071039136293
 30
0.0
 11
1432.5866204599331
 21
231.52564946281359
 31
0.0
  0
LINE
  5
55CF
  8
0
 10
1384.2205126639651
 20
231.52564946281359
 30
0.0
 11
1406.7550582131501
 21
208.9911039136291
 31
0.0
  0
LINE
  5
55D0
  8
0
 10
1406.7550582131501
 20
208.9911039136291
 30
0.0
 11
1406.7550582131501
 21
208.9911039136291
 31
0.0
  0
LINE
  5
55D1
  8
0
 10
1406.7550582131501
 20
208.9911039136291
 30
0.0
 11
1406.8500582131501
 21
208.8811039136292
 31
0.0
  0
LINE
  5
55D2
  8
0
 10
1406.8500582131501
 20
208.8811039136292
 30
0.0
 11
1406.93105821315
 21
208.7521039136291
 31
0.0
  0
LINE
  5
55D3
  8
0
 10
1406.93105821315
 20
208.7521039136291
 30
0.0
 11
1406.9940582131501
 21
208.60610391362911
 31
0.0
  0
LINE
  5
55D4
  8
0
 10
1406.9940582131501
 20
208.60610391362911
 30
0.0
 11
1407.03405821315
 21
208.44810391362921
 31
0.0
  0
LINE
  5
55D5
  8
0
 10
1407.03405821315
 20
208.44810391362921
 30
0.0
 11
1407.048058213149
 21
208.2841039136292
 31
0.0
  0
LINE
  5
55D6
  8
0
 10
1407.048058213149
 20
208.2841039136292
 30
0.0
 11
1407.03405821315
 21
208.1191039136292
 31
0.0
  0
LINE
  5
55D7
  8
0
 10
1407.03405821315
 20
208.1191039136292
 30
0.0
 11
1406.9940582131501
 21
207.9611039136291
 31
0.0
  0
LINE
  5
55D8
  8
0
 10
1406.9940582131501
 20
207.9611039136291
 30
0.0
 11
1406.93105821315
 21
207.81610391362921
 31
0.0
  0
LINE
  5
55D9
  8
0
 10
1406.93105821315
 20
207.81610391362921
 30
0.0
 11
1406.7550582131501
 21
207.57710391362909
 31
0.0
  0
LINE
  5
55DA
  8
0
 10
1406.7550582131501
 20
207.57710391362909
 30
0.0
 11
1406.7550582131501
 21
207.57710391362909
 31
0.0
  0
LINE
  5
55DB
  8
0
 10
1406.7550582131501
 20
207.57710391362909
 30
0.0
 11
1406.7550582131501
 21
207.57710391362909
 31
0.0
  0
LINE
  5
55DC
  8
0
 10
1406.7550582131501
 20
207.57710391362909
 30
0.0
 11
1406.66005821315
 21
207.46710391362919
 31
0.0
  0
LINE
  5
55DD
  8
0
 10
1406.66005821315
 20
207.46710391362919
 30
0.0
 11
1406.5780582131499
 21
207.33810391362911
 31
0.0
  0
LINE
  5
55DE
  8
0
 10
1406.5780582131499
 20
207.33810391362911
 30
0.0
 11
1406.51505821315
 21
207.1921039136291
 31
0.0
  0
LINE
  5
55DF
  8
0
 10
1406.51505821315
 20
207.1921039136291
 30
0.0
 11
1406.4750582131501
 21
207.0341039136292
 31
0.0
  0
LINE
  5
55E0
  8
0
 10
1406.4750582131501
 20
207.0341039136292
 30
0.0
 11
1406.4620582131499
 21
206.87010391362921
 31
0.0
  0
LINE
  5
55E1
  8
0
 10
1406.4620582131499
 20
206.87010391362921
 30
0.0
 11
1406.4750582131501
 21
206.7051039136293
 31
0.0
  0
LINE
  5
55E2
  8
0
 10
1406.4750582131501
 20
206.7051039136293
 30
0.0
 11
1406.51505821315
 21
206.5471039136292
 31
0.0
  0
LINE
  5
55E3
  8
0
 10
1406.51505821315
 20
206.5471039136292
 30
0.0
 11
1406.5780582131499
 21
206.40210391362919
 31
0.0
  0
LINE
  5
55E4
  8
0
 10
1406.5780582131499
 20
206.40210391362919
 30
0.0
 11
1406.7550582131501
 21
206.1631039136291
 31
0.0
  0
LINE
  5
55E5
  8
0
 10
1406.7550582131501
 20
206.1631039136291
 30
0.0
 11
1410.9850582131501
 21
201.93210391362911
 31
0.0
  0
LINE
  5
55E6
  8
0
 10
1410.9850582131501
 20
201.93210391362911
 30
0.0
 11
1412.40005821315
 21
201.93210391362911
 31
0.0
  0
LINE
  5
55E7
  8
0
 10
1412.40005821315
 20
201.93210391362911
 30
0.0
 11
1435.02705821315
 21
224.55910391362929
 31
0.0
  0
LINE
  5
55E8
  8
0
 10
1435.02705821315
 20
224.55910391362929
 30
0.0
 11
1435.02705821315
 21
225.9731039136291
 31
0.0
  0
LINE
  5
55E9
  8
0
 10
1435.02705821315
 20
225.9731039136291
 30
0.0
 11
1432.4450582131501
 21
228.5561039136291
 31
0.0
  0
LINE
  5
55EA
  8
0
 10
1432.4450582131501
 20
228.5561039136291
 30
0.0
 11
1432.4450582131501
 21
228.5561039136291
 31
0.0
  0
LINE
  5
55EB
  8
0
 10
1432.4450582131501
 20
228.5561039136291
 30
0.0
 11
1432.2550582131501
 21
228.77610391362921
 31
0.0
  0
LINE
  5
55EC
  8
0
 10
1432.2550582131501
 20
228.77610391362921
 30
0.0
 11
1432.0910582131501
 21
229.0341039136292
 31
0.0
  0
LINE
  5
55ED
  8
0
 10
1432.0910582131501
 20
229.0341039136292
 30
0.0
 11
1431.9660582131501
 21
229.32510391362919
 31
0.0
  0
LINE
  5
55EE
  8
0
 10
1431.9660582131501
 20
229.32510391362919
 30
0.0
 11
1431.8860582131499
 21
229.64110391362919
 31
0.0
  0
LINE
  5
55EF
  8
0
 10
1431.8860582131499
 20
229.64110391362919
 30
0.0
 11
1431.8590582131501
 21
229.97010391362909
 31
0.0
  0
LINE
  5
55F0
  8
0
 10
1431.8590582131501
 20
229.97010391362909
 30
0.0
 11
1431.8860582131499
 21
230.2991039136291
 31
0.0
  0
LINE
  5
55F1
  8
0
 10
1431.8860582131499
 20
230.2991039136291
 30
0.0
 11
1431.9660582131501
 21
230.6151039136291
 31
0.0
  0
LINE
  5
55F2
  8
0
 10
1431.9660582131501
 20
230.6151039136291
 30
0.0
 11
1432.0910582131501
 21
230.90610391362929
 31
0.0
  0
LINE
  5
55F3
  8
0
 10
1432.0910582131501
 20
230.90610391362929
 30
0.0
 11
1432.5866204599331
 21
231.52564946281359
 31
0.0
  0
LINE
  5
55F4
  8
0
 10
1432.4450582131501
 20
231.38410391362919
 30
0.0
 11
1432.5190582131499
 21
231.45910391362921
 31
0.0
  0
ARC
  5
55F5
  8
0
 10
1442.14176884729
 20
194.81739327948151
 30
0.0
 40
24.880184541946139
 50
118.9617727598944
 51
151.0382272401109
  0
LINE
  5
55F6
  8
0
 10
1414.1189966180059
 20
201.9805154637628
 30
0.0
 11
1434.9786466630089
 21
222.84016550876581
 31
0.0
  0
LINE
  5
55F7
  8
0
 10
1419.7758508674981
 20
196.3236612142704
 30
0.0
 11
1440.6355009125009
 21
217.18331125927341
 31
0.0
  0
ARC
  5
55F8
  8
0
 10
1412.612728683177
 20
224.3464334435956
 30
0.0
 40
24.880184542003899
 50
298.96177275993227
 51
331.0382272400675
  0
LINE
  5
55F9
  8
0
 10
1420.3730262112999
 20
206.8650248678604
 30
0.0
 11
1424.6603602715979
 21
202.57769080756299
 31
0.0
  0
ARC
  5
55FA
  8
0
 10
1416.2894388653649
 20
202.2653002042988
 30
0.0
 40
6.666680248538392
 50
289.97817380300751
 51
346.26958135680849
  0
LINE
  5
55FB
  8
0
 10
1424.6603602715979
 20
202.57769080756299
 30
0.0
 11
1422.7656070218691
 21
200.68293755783441
 31
0.0
  0
LINE
  5
55FC
  8
0
 10
1420.3730262112999
 20
206.8650248678604
 30
0.0
 11
1418.4782729615711
 21
204.97027161813219
 31
0.0
  0
LINE
  5
55FD
  8
0
 10
1414.295773313306
 20
202.15729215906259
 30
0.0
 11
1413.460509885944
 21
202.99255558642551
 31
0.0
  0
LINE
  5
55FE
  8
0
 10
1419.775850867499
 20
196.32366121426989
 30
0.0
 11
1417.9050514980629
 21
195.82238203402889
 31
0.0
  0
LINE
  5
55FF
  8
0
 10
1413.6177174377649
 20
200.1097160943267
 30
0.0
 11
1417.9050514980629
 21
195.82238203402889
 31
0.0
  0
LINE
  5
5600
  8
0
 10
1414.1189966180059
 20
201.98051546376229
 30
0.0
 11
1413.6177174377649
 21
200.1097160943267
 31
0.0
  0
LINE
  5
5601
  8
0
 10
1418.4782729615711
 20
204.97027161813219
 30
0.0
 11
1422.7656070218691
 21
200.68293755783441
 31
0.0
  0
ARC
  5
5602
  8
0
 10
1420.060635608038
 20
198.49410346162571
 30
0.0
 40
6.666680248538392
 50
103.7304186431987
 51
160.0218261973117
  0
LINE
  5
5603
  8
0
 10
1434.9786466630089
 20
222.84016550876581
 30
0.0
 11
1436.8494460324471
 21
223.34144468900729
 31
0.0
  0
LINE
  5
5604
  8
0
 10
1440.6355009125009
 20
217.18331125927341
 30
0.0
 11
1441.136780092743
 21
219.0541106287109
 31
0.0
  0
ARC
  5
5605
  8
0
 10
1434.6938619224729
 20
220.66972326140771
 30
0.0
 40
6.666680248538392
 50
283.73041864319867
 51
340.02182619700039
  0
LINE
  5
5606
  8
0
 10
1436.8494460324471
 20
223.34144468900729
 30
0.0
 11
1441.136780092743
 21
219.0541106287109
 31
0.0
  0
LINE
  5
5607
  8
0
 10
1430.094137258912
 20
216.5861359154722
 30
0.0
 11
1431.9888905086409
 21
218.4808891652018
 31
0.0
  0
LINE
  5
5608
  8
0
 10
1430.094137258912
 20
216.5861359154722
 30
0.0
 11
1434.38147131921
 21
212.2988018551749
 31
0.0
  0
LINE
  5
5609
  8
0
 10
1436.2762245689389
 20
214.1935551049036
 30
0.0
 11
1434.38147131921
 21
212.29880185517399
 31
0.0
  0
ARC
  5
560A
  8
0
 10
1438.465058665146
 20
216.89852651873559
 30
0.0
 40
6.666680248538392
 50
109.9781738026942
 51
166.26958135680161
  0
LINE
  5
560B
  8
0
 10
1431.9888905086409
 20
218.4808891652018
 30
0.0
 11
1436.2762245689389
 21
214.1935551049036
 31
0.0
  0
LINE
  5
560C
  8
0
 10
1434.8018699677159
 20
222.6633888134732
 30
0.0
 11
1433.966606540356
 21
223.49865224083339
 31
0.0
  0
LINE
  5
560D
  8
0
 10
1316.137676362878
 20
654.67137579070982
 30
0.0
 11
1351.4200800406211
 21
651.88357021827505
 31
0.0
  0
LINE
  5
560E
  8
0
 10
1351.4200800406211
 20
605.98520145216969
 30
0.0
 11
1316.137801871344
 21
603.19852323221346
 31
0.0
  0
LINE
  5
560F
  8
0
 10
1514.452750550425
 20
628.93438583522209
 30
0.0
 11
1514.452750550425
 21
706.4343858352222
 31
0.0
  0
LINE
  5
5610
  8
0
 10
1496.452750550425
 20
551.4343858352222
 30
0.0
 11
1514.452750550425
 21
551.4343858352222
 31
0.0
  0
LINE
  5
5611
  8
0
 10
1514.452750550425
 20
551.4343858352222
 30
0.0
 11
1514.452750550425
 21
628.93438583522209
 31
0.0
  0
ARC
  5
5612
  8
0
 10
1452.7190936413531
 20
613.92988025317425
 30
0.0
 40
8.1938162977400193
 50
238.62223232797189
 51
301.0868579551564
  0
LINE
  5
5613
  8
0
 10
1456.9498634429669
 20
606.91281445564482
 30
0.0
 11
1457.485421060228
 21
605.98520145216969
 31
0.0
  0
LINE
  5
5614
  8
0
 10
1457.485421060228
 20
605.98520145216969
 30
0.0
 11
1492.7676992295039
 21
603.19852323221346
 31
0.0
  0
LINE
  5
5615
  8
0
 10
1492.7678247379711
 20
654.67137579070982
 30
0.0
 11
1457.485421060228
 21
651.88357021827505
 31
0.0
  0
LINE
  5
5616
  8
0
 10
1456.9498634429669
 20
606.91281445564437
 30
0.0
 11
1456.9498634429669
 21
650.95595721480004
 31
0.0
  0
ARC
  5
5617
  8
0
 10
1452.7190936413531
 20
643.93889141727038
 30
0.0
 40
8.1938162977400193
 50
58.913142044843632
 51
121.3777676720281
  0
LINE
  5
5618
  8
0
 10
1456.9498634429669
 20
650.95595721480004
 30
0.0
 11
1457.485421060228
 21
651.88357021827505
 31
0.0
  0
LINE
  5
5619
  8
0
 10
1351.9556376578821
 20
606.91281445564528
 30
0.0
 11
1351.4200800406211
 21
605.98520145216969
 31
0.0
  0
ARC
  5
561A
  8
0
 10
1356.186407459496
 20
613.92988025317425
 30
0.0
 40
8.1938162977400193
 50
238.9131420448436
 51
301.37776767202809
  0
LINE
  5
561B
  8
0
 10
1351.9556376578821
 20
606.91281445564437
 30
0.0
 11
1351.9556376578821
 21
650.95595721480038
 31
0.0
  0
LINE
  5
561C
  8
0
 10
1351.9556376578821
 20
650.95595721480004
 30
0.0
 11
1351.4200800406211
 21
651.88357021827551
 31
0.0
  0
ARC
  5
561D
  8
0
 10
1356.186407459496
 20
643.93889141727095
 30
0.0
 40
8.1938162977400193
 50
58.622232327971894
 51
121.0868579551563
  0
LINE
  5
561E
  8
0
 10
1514.452750550425
 20
706.4343858352222
 30
0.0
 11
1496.452750550425
 21
706.4343858352222
 31
0.0
  0
LINE
  5
561F
  8
0
 10
1294.452750550425
 20
628.93438583522209
 30
0.0
 11
1294.452750550425
 21
706.4343858352222
 31
0.0
  0
LINE
  5
5620
  8
0
 10
1294.452750550425
 20
551.4343858352222
 30
0.0
 11
1294.452750550425
 21
628.93438583522209
 31
0.0
  0
LINE
  5
5621
  8
0
 10
1312.452750550425
 20
551.4343858352222
 30
0.0
 11
1294.452750550425
 21
551.4343858352222
 31
0.0
  0
LINE
  5
5622
  8
0
 10
1294.452750550425
 20
706.4343858352222
 30
0.0
 11
1312.452750550425
 21
706.4343858352222
 31
0.0
  0
LINE
  5
5623
  8
0
 10
1496.452750550425
 20
706.4343858352222
 30
0.0
 11
1496.452750550425
 21
551.4343858352222
 31
0.0
  0
LINE
  5
5624
  8
0
 10
1312.452750550425
 20
706.4343858352222
 30
0.0
 11
1312.452750550425
 21
551.4343858352222
 31
0.0
  0
ARC
  5
5625
  8
0
 10
1316.452750550425
 20
658.65894751499775
 30
0.0
 40
4.0
 50
180.0
 51
265.4822147116592
  0
ARC
  5
5626
  8
0
 10
1316.452750550425
 20
599.21094159298093
 30
0.0
 40
4.0
 50
94.515981911006364
 51
180.0
  0
ARC
  5
5627
  8
0
 10
1492.4527505504241
 20
599.21094159298082
 30
0.0
 40
4.0
 50
0.000000000000007
 51
85.484018088993651
  0
ARC
  5
5628
  8
0
 10
1492.452750550425
 20
658.65894751499775
 30
0.0
 40
4.0
 50
274.51778528834092
 51
0.000000000000007
  0
LINE
  5
5629
  8
0
 10
1362.7510446282531
 20
654.91514794875548
 30
0.0
 11
1369.096006193517
 21
654.91514794875536
 31
0.0
  0
LINE
  5
562A
  8
0
 10
1439.8751381648869
 20
654.91514794875536
 30
0.0
 11
1446.1544564725959
 21
654.91514794875525
 31
0.0
  0
LINE
  5
562B
  8
0
 10
1362.7510446282531
 20
641.92476689198861
 30
0.0
 11
1446.1544564725959
 21
641.9247668919885
 31
0.0
  0
LINE
  5
562C
  8
0
 10
1362.7510446282531
 20
615.94400477845568
 30
0.0
 11
1446.1544564725959
 21
615.94400477845568
 31
0.0
  0
LINE
  5
562D
  8
0
 10
1362.7510446282531
 20
602.95362372168915
 30
0.0
 11
1376.3188806409159
 21
602.95362372168915
 31
0.0
  0
LINE
  5
562E
  8
0
 10
1424.6849884368839
 20
602.95362372168915
 30
0.0
 11
1446.1544564725959
 21
602.95362372168915
 31
0.0
  0
LINE
  5
562F
  8
0
 10
1444.4527505504241
 20
655.93438583522209
 30
0.0
 11
1444.4527505504241
 21
654.91514794875525
 31
0.0
  0
LINE
  5
5630
  8
0
 10
1360.452750550425
 20
650.93438583522243
 30
0.0
 11
1360.452750550425
 21
606.93438583522186
 31
0.0
  0
LINE
  5
5631
  8
0
 10
1448.452750550425
 20
650.93438583522232
 30
0.0
 11
1448.452750550425
 21
606.93438583522186
 31
0.0
  0
LINE
  5
5632
  8
0
 10
1437.6889586767111
 20
655.93438583522209
 30
0.0
 11
1444.4527505504241
 21
655.93438583522209
 31
0.0
  0
LINE
  5
5633
  8
0
 10
1446.1544564725959
 20
654.91514794875525
 30
0.0
 11
1448.452750550425
 21
650.93438583522232
 31
0.0
  0
LINE
  5
5634
  8
0
 10
1446.1544564725959
 20
602.95362372168904
 30
0.0
 11
1448.452750550425
 21
606.93438583522209
 31
0.0
  0
LINE
  5
5635
  8
0
 10
1373.452550550425
 20
669.9343858352222
 30
0.0
 11
1435.452950550424
 21
669.9343858352222
 31
0.0
  0
LINE
  5
5636
  8
0
 10
1431.452550550425
 20
673.9343858352222
 30
0.0
 11
1431.452550550425
 21
669.93438583522243
 31
0.0
  0
LINE
  5
5637
  8
0
 10
1377.452550550425
 20
673.9343858352222
 30
0.0
 11
1377.452550550425
 21
669.93438583522243
 31
0.0
  0
LINE
  5
5638
  8
0
 10
1374.452550550425
 20
682.70233502765325
 30
0.0
 11
1374.452550550425
 21
675.66643664279104
 31
0.0
  0
LINE
  5
5639
  8
0
 10
1376.952550550425
 20
684.14571070062743
 30
0.0
 11
1374.452550550425
 21
682.70233502765325
 31
0.0
  0
ARC
  5
563A
  8
0
 10
1428.7025505504239
 20
691.14571070062618
 30
0.0
 40
3.2999999999999989
 50
0.0000000000130346
 51
90.000000000026048
  0
LINE
  5
563B
  8
0
 10
1432.0025505504229
 20
691.14571070062675
 30
0.0
 11
1432.002550550425
 21
684.13438583522202
 31
0.0
  0
LINE
  5
563C
  8
0
 10
1380.202550550423
 20
694.44571070061852
 30
0.0
 11
1428.702550550423
 21
694.44571070062625
 31
0.0
  0
ARC
  5
563D
  8
0
 10
1380.202550550423
 20
691.14571070061845
 30
0.0
 40
3.2999999999999989
 50
90.000000000026048
 51
180.00000000001299
  0
LINE
  5
563E
  8
0
 10
1376.902550550423
 20
691.14571070061811
 30
0.0
 11
1376.9025505504239
 21
684.13438583522225
 31
0.0
  0
LINE
  5
563F
  8
0
 10
1384.452550550425
 20
694.44571070062239
 30
0.0
 11
1424.452550550425
 21
694.44571070062239
 31
0.0
  0
LINE
  5
5640
  8
0
 10
1424.452550550425
 20
694.94471070062241
 30
0.0
 11
1384.452550550425
 21
694.94471070062241
 31
0.0
  0
LINE
  5
5641
  8
0
 10
1424.452550550425
 20
694.44571070062239
 30
0.0
 11
1424.452550550425
 21
694.94471070062241
 31
0.0
  0
ARC
  5
5642
  8
0
 10
1404.4530505504231
 20
694.94471070062241
 30
0.0
 40
0.9975000000000022
 50
0.000000000000007
 51
180.0
  0
LINE
  5
5643
  8
0
 10
1384.452550550425
 20
694.94471070062241
 30
0.0
 11
1384.452550550425
 21
694.44571070062239
 31
0.0
  0
LINE
  5
5644
  8
0
 10
1406.452750550425
 20
669.9343858352222
 30
0.0
 11
1406.452750550425
 21
666.93438583522209
 31
0.0
  0
LINE
  5
5645
  8
0
 10
1402.4527505504241
 20
669.9343858352222
 30
0.0
 11
1402.4527505504241
 21
666.93438583522209
 31
0.0
  0
LINE
  5
5646
  8
0
 10
1373.452750550425
 20
663.4343858352222
 30
0.0
 11
1435.452750550425
 21
663.4343858352222
 31
0.0
  0
LINE
  5
5647
  8
0
 10
1406.452750550425
 20
666.93438583522209
 30
0.0
 11
1435.452750550425
 21
666.93438583522209
 31
0.0
  0
LINE
  5
5648
  8
0
 10
1373.452750550425
 20
666.93438583522209
 30
0.0
 11
1402.4527505504241
 21
666.93438583522209
 31
0.0
  0
LINE
  5
5649
  8
0
 10
1406.452750550425
 20
668.4343858352222
 30
0.0
 11
1436.952750550425
 21
668.4343858352222
 31
0.0
  0
LINE
  5
564A
  8
0
 10
1371.9527505504241
 20
668.4343858352222
 30
0.0
 11
1402.4527505504241
 21
668.4343858352222
 31
0.0
  0
LINE
  5
564B
  8
0
 10
1436.952750550425
 20
663.4343858352222
 30
0.0
 11
1436.952750550425
 21
657.91738583522215
 31
0.0
  0
LINE
  5
564C
  8
0
 10
1371.9527505504241
 20
657.91438583522222
 30
0.0
 11
1371.9527505504241
 21
663.4343858352222
 31
0.0
  0
LINE
  5
564D
  8
0
 10
1371.9527505504241
 20
663.4343858352222
 30
0.0
 11
1373.452750550425
 21
663.4343858352222
 31
0.0
  0
LINE
  5
564E
  8
0
 10
1373.452750550425
 20
663.4343858352222
 30
0.0
 11
1373.452750550425
 21
666.93438583522209
 31
0.0
  0
LINE
  5
564F
  8
0
 10
1373.452750550425
 20
666.93438583522209
 30
0.0
 11
1371.9527505504241
 21
666.93438583522209
 31
0.0
  0
LINE
  5
5650
  8
0
 10
1371.9527505504241
 20
666.93438583522209
 30
0.0
 11
1371.9527505504241
 21
668.4343858352222
 31
0.0
  0
LINE
  5
5651
  8
0
 10
1371.9527505504241
 20
668.4343858352222
 30
0.0
 11
1373.452750550425
 21
669.9343858352222
 31
0.0
  0
LINE
  5
5652
  8
0
 10
1435.452750550425
 20
669.9343858352222
 30
0.0
 11
1436.952750550425
 21
668.4343858352222
 31
0.0
  0
LINE
  5
5653
  8
0
 10
1436.952750550425
 20
668.4343858352222
 30
0.0
 11
1436.952750550425
 21
666.93438583522209
 31
0.0
  0
LINE
  5
5654
  8
0
 10
1436.952750550425
 20
666.93438583522209
 30
0.0
 11
1435.452750550425
 21
666.93438583522209
 31
0.0
  0
LINE
  5
5655
  8
0
 10
1435.452750550425
 20
666.93438583522209
 30
0.0
 11
1435.452750550425
 21
663.4343858352222
 31
0.0
  0
LINE
  5
5656
  8
0
 10
1435.452750550425
 20
663.4343858352222
 30
0.0
 11
1436.952750550425
 21
663.4343858352222
 31
0.0
  0
LINE
  5
5657
  8
0
 10
1436.952750550425
 20
663.4343858352222
 30
0.0
 11
1436.9427603960289
 21
657.91982060891189
 31
0.0
  0
CIRCLE
  5
5658
  8
0
 10
1404.452750550425
 20
646.9243858352221
 30
0.0
 40
1.5
  0
ARC
  5
5659
  8
0
 10
1439.942755473231
 20
657.91438583522131
 30
0.0
 40
3.0
 50
179.89620341153261
 51
270.0
  0
ARC
  5
565A
  8
0
 10
1368.9630853871261
 20
657.91220184537269
 30
0.0
 40
2.9999999999999991
 50
272.53943172946288
 51
0.1073224825888007
  0
ARC
  5
565B
  8
0
 10
1418.7125110853051
 20
661.64506327645972
 30
0.0
 40
19.264806140576152
 50
297.32826723905441
 51
336.9763537522378
  0
ARC
  5
565C
  8
0
 10
1390.192990015544
 20
661.64506327645972
 30
0.0
 40
19.264806140576152
 50
203.02364624776229
 51
242.67173276094559
  0
LINE
  5
565D
  8
0
 10
1434.452550550425
 20
682.69101016224795
 30
0.0
 11
1434.452550550425
 21
675.37776150819616
 31
0.0
  0
LINE
  5
565E
  8
0
 10
1374.452550550425
 20
682.69101016224806
 30
0.0
 11
1374.452550550425
 21
675.37776150819616
 31
0.0
  0
LINE
  5
565F
  8
0
 10
1431.952550550425
 20
673.9343858352222
 30
0.0
 11
1376.952550550425
 21
673.9343858352222
 31
0.0
  0
LINE
  5
5660
  8
0
 10
1431.952550550425
 20
684.13438583522202
 30
0.0
 11
1376.952550550425
 21
684.13438583522225
 31
0.0
  0
LINE
  5
5661
  8
0
 10
1392.4629717421431
 20
682.69101016224806
 30
0.0
 11
1392.4629717421431
 21
675.37776150819616
 31
0.0
  0
LINE
  5
5662
  8
0
 10
1386.6316413504931
 20
682.6910101622484
 30
0.0
 11
1386.6316413504931
 21
675.37776150819616
 31
0.0
  0
LINE
  5
5663
  8
0
 10
1416.442129358707
 20
682.69101016224806
 30
0.0
 11
1416.442129358707
 21
675.37776150819616
 31
0.0
  0
LINE
  5
5664
  8
0
 10
1422.2734597503561
 20
682.69101016224806
 30
0.0
 11
1422.2734597503561
 21
675.37776150819604
 31
0.0
  0
LINE
  5
5665
  8
0
 10
1376.952550550425
 20
684.13438583522225
 30
0.0
 11
1374.452550550425
 21
682.69101016224806
 31
0.0
  0
LINE
  5
5666
  8
0
 10
1376.952550550425
 20
673.9343858352222
 30
0.0
 11
1374.452550550425
 21
675.37776150819616
 31
0.0
  0
LINE
  5
5667
  8
0
 10
1386.6316413504931
 20
675.37776150819616
 30
0.0
 11
1392.4629717421431
 21
675.37776150819616
 31
0.0
  0
LINE
  5
5668
  8
0
 10
1416.442129358707
 20
675.37776150819616
 30
0.0
 11
1422.2734597503561
 21
675.37776150819616
 31
0.0
  0
ARC
  5
5669
  8
0
 10
1380.542095950459
 20
687.50182814727646
 30
0.0
 40
13.56744467642805
 50
243.33103023467839
 51
296.66896976532172
  0
ARC
  5
566A
  8
0
 10
1404.452550550425
 20
724.45253438931627
 30
0.0
 40
50.518148554094068
 50
256.27086732458361
 51
283.72913267541651
  0
ARC
  5
566B
  8
0
 10
1428.3630051503901
 20
687.50182814727623
 30
0.0
 40
13.56744467642805
 50
243.33103023467839
 51
296.66896976532172
  0
LINE
  5
566C
  8
0
 10
1431.952550550425
 20
684.13438583522202
 30
0.0
 11
1434.452550550425
 21
682.69101016224795
 31
0.0
  0
LINE
  5
566D
  8
0
 10
1431.952550550425
 20
673.9343858352222
 30
0.0
 11
1434.452550550425
 21
675.37776150819616
 31
0.0
  0
LINE
  5
566E
  8
0
 10
1386.6316413504931
 20
682.6910101622484
 30
0.0
 11
1392.4629717421431
 21
682.69101016224806
 31
0.0
  0
LINE
  5
566F
  8
0
 10
1416.442129358707
 20
682.69101016224806
 30
0.0
 11
1422.2734597503561
 21
682.69101016224806
 31
0.0
  0
ARC
  5
5670
  8
0
 10
1380.542095950459
 20
670.56694352316822
 30
0.0
 40
13.56744467642805
 50
63.331030234678352
 51
116.66896976532161
  0
ARC
  5
5671
  8
0
 10
1404.4525505504239
 20
633.61623728112818
 30
0.0
 40
50.518148554094068
 50
76.270867324583534
 51
103.72913267541639
  0
ARC
  5
5672
  8
0
 10
1428.3630051503901
 20
670.56694352316799
 30
0.0
 40
13.56744467642805
 50
63.331030234678352
 51
116.66896976532161
  0
CIRCLE
  5
5673
  8
0
 10
1404.4525505504239
 20
687.63388583521714
 30
0.0
 40
1.5494999999999659
  0
LINE
  5
5674
  8
0
 10
1362.7510446282531
 20
654.91514794875525
 30
0.0
 11
1360.452750550425
 21
650.93438583522232
 31
0.0
  0
LINE
  5
5675
  8
0
 10
1362.7510446282531
 20
602.95362372168904
 30
0.0
 11
1360.452750550425
 21
606.93438583522209
 31
0.0
  0
ARC
  5
5676
  8
0
 10
1410.5915914091549
 20
628.93438583522209
 30
0.0
 40
37.861159141268992
 50
339.93379403894392
 51
20.066205961056159
  0
ARC
  5
5677
  8
0
 10
1438.125600485922
 20
609.44881425007259
 30
0.0
 40
10.3271500645029
 50
338.97219471627039
 51
38.972194716276768
  0
ARC
  5
5678
  8
0
 10
1370.7799006149271
 20
609.44881425007259
 30
0.0
 40
10.3271500645029
 50
141.02780528372321
 51
201.02780528372961
  0
ARC
  5
5679
  8
0
 10
1438.125600485922
 20
648.41995742037182
 30
0.0
 40
10.3271500645029
 50
321.02780528371812
 51
21.027805283729609
  0
ARC
  5
567A
  8
0
 10
1398.3139096916941
 20
628.93438583522209
 30
0.0
 40
37.861159141268992
 50
159.9337940389438
 51
200.06620596105611
  0
ARC
  5
567B
  8
0
 10
1370.7799006149271
 20
648.41995742037182
 30
0.0
 40
10.3271500645029
 50
158.97219471627039
 51
218.9721947162819
  0
LINE
  5
567C
  8
0
 10
1373.8784428877
 20
597.40107817250464
 30
0.0
 11
1397.9204428876999
 21
573.3600781725047
 31
0.0
  0
LINE
  5
567D
  8
0
 10
1422.0359884368841
 20
609.30462372168904
 30
0.0
 11
1397.9124428876989
 21
585.18107817250484
 31
0.0
  0
LINE
  5
567E
  8
0
 10
1376.3188806409159
 20
602.95362372168915
 30
0.0
 11
1376.3188806409159
 21
609.30462372168904
 31
0.0
  0
LINE
  5
567F
  8
0
 10
1376.3188806409159
 20
609.30462372168904
 30
0.0
 11
1422.0359884368841
 21
609.30462372168904
 31
0.0
  0
LINE
  5
5680
  8
0
 10
1422.0359884368841
 20
609.30462372168904
 30
0.0
 11
1424.6849884368839
 21
602.95362372168915
 31
0.0
  0
LINE
  5
5681
  8
0
 10
1402.150442887699
 20
579.00507817250468
 30
0.0
 11
1385.8794428877
 21
595.27607817250464
 31
0.0
  0
LINE
  5
5682
  8
0
 10
1385.8794428877
 20
595.27607817250464
 30
0.0
 11
1384.9384428876999
 21
594.33507817250484
 31
0.0
  0
LINE
  5
5683
  8
0
 10
1384.9384428876999
 20
594.33507817250484
 30
0.0
 11
1376.3188806409159
 21
602.95362372168915
 31
0.0
  0
LINE
  5
5684
  8
0
 10
1424.6849884368839
 20
602.95362372168915
 30
0.0
 11
1402.150442887699
 21
580.41907817250456
 31
0.0
  0
LINE
  5
5685
  8
0
 10
1402.150442887699
 20
580.41907817250456
 30
0.0
 11
1402.150442887699
 21
580.41907817250456
 31
0.0
  0
LINE
  5
5686
  8
0
 10
1402.150442887699
 20
580.41907817250456
 30
0.0
 11
1402.055442887699
 21
580.30907817250466
 31
0.0
  0
LINE
  5
5687
  8
0
 10
1402.055442887699
 20
580.30907817250466
 30
0.0
 11
1401.9744428877
 21
580.18007817250464
 31
0.0
  0
LINE
  5
5688
  8
0
 10
1401.9744428877
 20
580.18007817250464
 30
0.0
 11
1401.911442887699
 21
580.03407817250456
 31
0.0
  0
LINE
  5
5689
  8
0
 10
1401.911442887699
 20
580.03407817250456
 30
0.0
 11
1401.871442887699
 21
579.87607817250466
 31
0.0
  0
LINE
  5
568A
  8
0
 10
1401.871442887699
 20
579.87607817250466
 30
0.0
 11
1401.8574428877
 21
579.71207817250468
 31
0.0
  0
LINE
  5
568B
  8
0
 10
1401.8574428877
 20
579.71207817250468
 30
0.0
 11
1401.871442887699
 21
579.54707817250483
 31
0.0
  0
LINE
  5
568C
  8
0
 10
1401.871442887699
 20
579.54707817250483
 30
0.0
 11
1401.911442887699
 21
579.38907817250458
 31
0.0
  0
LINE
  5
568D
  8
0
 10
1401.911442887699
 20
579.38907817250458
 30
0.0
 11
1401.9744428877
 21
579.24407817250471
 31
0.0
  0
LINE
  5
568E
  8
0
 10
1401.9744428877
 20
579.24407817250471
 30
0.0
 11
1402.150442887699
 21
579.00507817250468
 31
0.0
  0
LINE
  5
568F
  8
0
 10
1402.150442887699
 20
579.00507817250468
 30
0.0
 11
1402.150442887699
 21
579.00507817250468
 31
0.0
  0
LINE
  5
5690
  8
0
 10
1402.150442887699
 20
579.00507817250468
 30
0.0
 11
1402.150442887699
 21
579.00507817250468
 31
0.0
  0
LINE
  5
5691
  8
0
 10
1402.150442887699
 20
579.00507817250468
 30
0.0
 11
1402.2454428876999
 21
578.89507817250478
 31
0.0
  0
LINE
  5
5692
  8
0
 10
1402.2454428876999
 20
578.89507817250478
 30
0.0
 11
1402.3274428876989
 21
578.76607817250465
 31
0.0
  0
LINE
  5
5693
  8
0
 10
1402.3274428876989
 20
578.76607817250465
 30
0.0
 11
1402.3904428876999
 21
578.62007817250469
 31
0.0
  0
LINE
  5
5694
  8
0
 10
1402.3904428876999
 20
578.62007817250469
 30
0.0
 11
1402.430442887699
 21
578.46207817250468
 31
0.0
  0
LINE
  5
5695
  8
0
 10
1402.430442887699
 20
578.46207817250468
 30
0.0
 11
1402.4434428876989
 21
578.2980781725048
 31
0.0
  0
LINE
  5
5696
  8
0
 10
1402.4434428876989
 20
578.2980781725048
 30
0.0
 11
1402.430442887699
 21
578.13307817250484
 31
0.0
  0
LINE
  5
5697
  8
0
 10
1402.430442887699
 20
578.13307817250484
 30
0.0
 11
1402.3904428876999
 21
577.97507817250471
 31
0.0
  0
LINE
  5
5698
  8
0
 10
1402.3904428876999
 20
577.97507817250471
 30
0.0
 11
1402.3274428876989
 21
577.83007817250473
 31
0.0
  0
LINE
  5
5699
  8
0
 10
1402.3274428876989
 20
577.83007817250473
 30
0.0
 11
1402.150442887699
 21
577.59107817250469
 31
0.0
  0
LINE
  5
569A
  8
0
 10
1402.150442887699
 20
577.59107817250469
 30
0.0
 11
1397.9204428876999
 21
573.3600781725047
 31
0.0
  0
LINE
  5
569B
  8
0
 10
1397.9204428876999
 20
573.3600781725047
 30
0.0
 11
1396.505442887699
 21
573.3600781725047
 31
0.0
  0
LINE
  5
569C
  8
0
 10
1396.505442887699
 20
573.3600781725047
 30
0.0
 11
1373.8784428877
 21
595.98707817250477
 31
0.0
  0
LINE
  5
569D
  8
0
 10
1373.8784428877
 20
595.98707817250477
 30
0.0
 11
1373.8784428877
 21
597.40107817250464
 31
0.0
  0
LINE
  5
569E
  8
0
 10
1373.8784428877
 20
597.40107817250464
 30
0.0
 11
1376.4604428876989
 21
599.98407817250472
 31
0.0
  0
LINE
  5
569F
  8
0
 10
1376.4604428876989
 20
599.98407817250472
 30
0.0
 11
1376.4604428876989
 21
599.98407817250472
 31
0.0
  0
LINE
  5
56A0
  8
0
 10
1376.4604428876989
 20
599.98407817250472
 30
0.0
 11
1376.650442887699
 21
600.20407817250475
 31
0.0
  0
LINE
  5
56A1
  8
0
 10
1376.650442887699
 20
600.20407817250475
 30
0.0
 11
1376.8144428876999
 21
600.46207817250479
 31
0.0
  0
LINE
  5
56A2
  8
0
 10
1376.8144428876999
 20
600.46207817250479
 30
0.0
 11
1376.939442887699
 21
600.75307817250473
 31
0.0
  0
LINE
  5
56A3
  8
0
 10
1376.939442887699
 20
600.75307817250473
 30
0.0
 11
1377.0194428876989
 21
601.06907817250465
 31
0.0
  0
LINE
  5
56A4
  8
0
 10
1377.0194428876989
 20
601.06907817250465
 30
0.0
 11
1377.0464428877001
 21
601.39807817250471
 31
0.0
  0
LINE
  5
56A5
  8
0
 10
1377.0464428877001
 20
601.39807817250471
 30
0.0
 11
1377.0194428876989
 21
601.72707817250455
 31
0.0
  0
LINE
  5
56A6
  8
0
 10
1377.0194428876989
 20
601.72707817250455
 30
0.0
 11
1376.939442887699
 21
602.04307817250458
 31
0.0
  0
LINE
  5
56A7
  8
0
 10
1376.939442887699
 20
602.04307817250458
 30
0.0
 11
1376.8144428876999
 21
602.33407817250475
 31
0.0
  0
LINE
  5
56A8
  8
0
 10
1376.8144428876999
 20
602.33407817250475
 30
0.0
 11
1376.3188806409159
 21
602.95362372168915
 31
0.0
  0
LINE
  5
56A9
  8
0
 10
1376.4604428876989
 20
602.81207817250458
 30
0.0
 11
1376.3864428877
 21
602.88707817250474
 31
0.0
  0
ARC
  5
56AA
  8
0
 10
1366.7637322535591
 20
566.24536753835696
 30
0.0
 40
24.880184541946139
 50
28.961772759885701
 51
61.038227240104412
  0
LINE
  5
56AB
  8
0
 10
1394.7865044828441
 20
573.40848972263836
 30
0.0
 11
1373.926854437841
 21
594.26813976764129
 31
0.0
  0
LINE
  5
56AC
  8
0
 10
1389.129650233351
 20
567.75163547314594
 30
0.0
 11
1368.2700001883479
 21
588.61128551814886
 31
0.0
  0
ARC
  5
56AD
  8
0
 10
1396.292772417672
 20
595.77440770247108
 30
0.0
 40
24.880184542003899
 50
208.9617727599323
 51
241.03822724007301
  0
LINE
  5
56AE
  8
0
 10
1388.53247488955
 20
578.29299912673594
 30
0.0
 11
1384.2451408292511
 21
574.00566506643861
 31
0.0
  0
ARC
  5
56AF
  8
0
 10
1392.6160622354839
 20
573.69327446317425
 30
0.0
 40
6.666680248538392
 50
193.7304186431893
 51
250.02182619698709
  0
LINE
  5
56B0
  8
0
 10
1384.2451408292511
 20
574.00566506643861
 30
0.0
 11
1386.13989407898
 21
572.11091181670986
 31
0.0
  0
LINE
  5
56B1
  8
0
 10
1388.53247488955
 20
578.29299912673594
 30
0.0
 11
1390.427228139278
 21
576.39824587700775
 31
0.0
  0
LINE
  5
56B2
  8
0
 10
1394.6097277875431
 20
573.58526641793821
 30
0.0
 11
1395.444991214905
 21
574.42052984530096
 31
0.0
  0
LINE
  5
56B3
  8
0
 10
1389.12965023335
 20
567.75163547314537
 30
0.0
 11
1391.0004496027859
 21
567.25035629290437
 31
0.0
  0
LINE
  5
56B4
  8
0
 10
1395.2877836630839
 20
571.53769035320215
 30
0.0
 11
1391.0004496027859
 21
567.25035629290437
 31
0.0
  0
LINE
  5
56B5
  8
0
 10
1394.7865044828429
 20
573.40848972263791
 30
0.0
 11
1395.2877836630839
 21
571.53769035320215
 31
0.0
  0
LINE
  5
56B6
  8
0
 10
1390.427228139278
 20
576.39824587700775
 30
0.0
 11
1386.13989407898
 21
572.11091181670986
 31
0.0
  0
ARC
  5
56B7
  8
0
 10
1388.8448654928111
 20
569.92207772050119
 30
0.0
 40
6.666680248538392
 50
19.97817380268814
 51
76.269581356789104
  0
LINE
  5
56B8
  8
0
 10
1373.926854437841
 20
594.26813976764129
 30
0.0
 11
1372.0560550684031
 21
594.76941894788285
 31
0.0
  0
LINE
  5
56B9
  8
0
 10
1368.2700001883479
 20
588.61128551814886
 30
0.0
 11
1367.768721008106
 21
590.48208488758644
 31
0.0
  0
ARC
  5
56BA
  8
0
 10
1374.2116391783759
 20
592.09769752028319
 30
0.0
 40
6.666680248538392
 50
199.97817380299921
 51
256.2695813567891
  0
LINE
  5
56BB
  8
0
 10
1372.0560550684031
 20
594.76941894788285
 30
0.0
 11
1367.768721008106
 21
590.48208488758644
 31
0.0
  0
LINE
  5
56BC
  8
0
 10
1378.8113638419379
 20
588.01411017434782
 30
0.0
 11
1376.9166105922079
 21
589.90886342407725
 31
0.0
  0
LINE
  5
56BD
  8
0
 10
1378.8113638419379
 20
588.01411017434782
 30
0.0
 11
1374.524029781639
 21
583.72677611405049
 31
0.0
  0
LINE
  5
56BE
  8
0
 10
1372.6292765319099
 20
585.62152936377913
 30
0.0
 11
1374.524029781639
 21
583.72677611404958
 31
0.0
  0
ARC
  5
56BF
  8
0
 10
1370.4404424357031
 20
588.32650077761105
 30
0.0
 40
6.666680248538392
 50
13.73041864319565
 51
70.021826197317395
  0
LINE
  5
56C0
  8
0
 10
1376.9166105922079
 20
589.90886342407725
 30
0.0
 11
1372.6292765319099
 21
585.62152936377913
 31
0.0
  0
LINE
  5
56C1
  8
0
 10
1374.1036311331329
 20
594.09136307234883
 30
0.0
 11
1374.9388945604931
 21
594.92662649970885
 31
0.0
  0
VIEWPORT
  5
41
 67
     1
  8
0
 10
117.358407079646
 20
73.5
 30
0.0
 40
234.716814159292
 41
147.0
 68
     1
 69
     1
1001
ACAD
1000
MVIEW
1002
{
1070
    16
1010
0.0
1020
0.0
1030
0.0
1010
0.0
1020
0.0
1030
1.0
1040
0.0
1040
147.0
1040
117.358407079646
1040
73.5
1040
50.0
1040
0.0
1040
0.0
1070
     0
1070
   100
1070
     1
1070
     1
1070
     0
1070
     0
1070
     0
1070
     0
1040
0.0
1040
0.0
1040
0.0
1040
1.0
1040
1.0
1040
0.0
1040
0.0
1070
     0
1002
{
1002
}
1002
}
  0
ENDSEC
  0
EOF
