  0
SECTION
  2
HEADER
  9
$ACADVER
  1
AC1012
  9
$DWGCODEPAGE
  3
dos932
  9
$INSBASE
 10
0.0
 20
0.0
 30
0.0
  9
$EXTMIN
 10
33.0
 20
15.0
 30
0.0
  9
$EXTMAX
 10
858.0
 20
573.0
 30
0.0
  9
$LIMMIN
 10
0.0
 20
0.0
  9
$LIMMAX
 10
891.0
 20
630.0
  9
$ORTHOMODE
 70
     1
  9
$REGENMODE
 70
     1
  9
$FILLMODE
 70
     1
  9
$QTEXTMODE
 70
     0
  9
$MIRRTEXT
 70
     1
  9
$DRAGMODE
 70
     2
  9
$LTSCALE
 40
12.0
  9
$OSMODE
 70
   439
  9
$ATTMODE
 70
     1
  9
$TEXTSIZE
 40
12.0
  9
$TRACEWID
 40
0.05
  9
$TEXTSTYLE
  7
STANDARD
  9
$CLAYER
  8
0
  9
$CELTYPE
  6
BYLAYER
  9
$CECOLOR
 62
   256
  9
$CELTSCALE
 40
1.0
  9
$DELOBJ
 70
     1
  9
$DISPSILH
 70
     0
  9
$DIMSCALE
 40
3.0
  9
$DIMASZ
 40
2.8
  9
$DIMEXO
 40
1.0
  9
$DIMDLI
 40
5.0
  9
$DIMRND
 40
0.1
  9
$DIMDLE
 40
0.0
  9
$DIMEXE
 40
1.0
  9
$DIMTP
 40
0.0
  9
$DIMTM
 40
0.0
  9
$DIMTXT
 40
2.5
  9
$DIMCEN
 40
0.0
  9
$DIMTSZ
 40
0.0
  9
$DIMTOL
 70
     0
  9
$DIMLIM
 70
     0
  9
$DIMTIH
 70
     0
  9
$DIMTOH
 70
     0
  9
$DIMSE1
 70
     0
  9
$DIMSE2
 70
     0
  9
$DIMTAD
 70
     3
  9
$DIMZIN
 70
     8
  9
$DIMBLK
  1

  9
$DIMASO
 70
     1
  9
$DIMSHO
 70
     1
  9
$DIMPOST
  1
 
  9
$DIMAPOST
  1

  9
$DIMALT
 70
     0
  9
$DIMALTD
 70
     2
  9
$DIMALTF
 40
1.0
  9
$DIMLFAC
 40
1.0
  9
$DIMTOFL
 70
     1
  9
$DIMTVP
 40
0.0
  9
$DIMTIX
 70
     0
  9
$DIMSOXD
 70
     0
  9
$DIMSAH
 70
     1
  9
$DIMBLK1
  1
_OPEN
  9
$DIMBLK2
  1
_OPEN
  9
$DIMSTYLE
  2
DIM1
  9
$DIMCLRD
 70
     2
  9
$DIMCLRE
 70
     2
  9
$DIMCLRT
 70
     2
  9
$DIMTFAC
 40
0.7
  9
$DIMGAP
 40
0.85
  9
$DIMJUST
 70
     0
  9
$DIMSD1
 70
     0
  9
$DIMSD2
 70
     0
  9
$DIMTOLJ
 70
     1
  9
$DIMTZIN
 70
     8
  9
$DIMALTZ
 70
     8
  9
$DIMALTTZ
 70
     8
  9
$DIMFIT
 70
     0
  9
$DIMUPT
 70
     0
  9
$DIMUNIT
 70
     2
  9
$DIMDEC
 70
     2
  9
$DIMTDEC
 70
     3
  9
$DIMALTU
 70
     2
  9
$DIMALTTD
 70
     3
  9
$DIMTXSTY
  7
DIM
  9
$DIMAUNIT
 70
     0
  9
$LUNITS
 70
     2
  9
$LUPREC
 70
     4
  9
$SKETCHINC
 40
0.1
  9
$FILLETRAD
 40
3.0
  9
$AUNITS
 70
     0
  9
$AUPREC
 70
     0
  9
$MENU
  1
C:\ACADR13\WIN\SUPPORT\ACAD.mnc
  9
$ELEVATION
 40
0.0
  9
$PELEVATION
 40
0.0
  9
$THICKNESS
 40
0.0
  9
$LIMCHECK
 70
     0
  9
$BLIPMODE
 70
     1
  9
$CHAMFERA
 40
0.0
  9
$CHAMFERB
 40
0.0
  9
$CHAMFERC
 40
0.0
  9
$CHAMFERD
 40
0.0
  9
$SKPOLY
 70
     0
  9
$TDCREATE
 40
2451575.433535382
  9
$TDUPDATE
 40
2451967.653644560
  9
$TDINDWG
 40
0.6304846528
  9
$TDUSRTIMER
 40
0.6304846528
  9
$USRTIMER
 70
     1
  9
$ANGBASE
 50
0.0
  9
$ANGDIR
 70
     0
  9
$PDMODE
 70
     0
  9
$PDSIZE
 40
0.0
  9
$PLINEWID
 40
0.0
  9
$COORDS
 70
     2
  9
$SPLFRAME
 70
     0
  9
$SPLINETYPE
 70
     6
  9
$SPLINESEGS
 70
     8
  9
$ATTDIA
 70
     0
  9
$ATTREQ
 70
     1
  9
$HANDLING
 70
     1
  9
$HANDSEED
  5
461C
  9
$SURFTAB1
 70
     6
  9
$SURFTAB2
 70
     6
  9
$SURFTYPE
 70
     6
  9
$SURFU
 70
     6
  9
$SURFV
 70
     6
  9
$UCSNAME
  2

  9
$UCSORG
 10
0.0
 20
0.0
 30
0.0
  9
$UCSXDIR
 10
1.0
 20
0.0
 30
0.0
  9
$UCSYDIR
 10
0.0
 20
1.0
 30
0.0
  9
$PUCSNAME
  2

  9
$PUCSORG
 10
0.0
 20
0.0
 30
0.0
  9
$PUCSXDIR
 10
1.0
 20
0.0
 30
0.0
  9
$PUCSYDIR
 10
0.0
 20
1.0
 30
0.0
  9
$USERI1
 70
     0
  9
$USERI2
 70
     0
  9
$USERI3
 70
     0
  9
$USERI4
 70
     0
  9
$USERI5
 70
     0
  9
$USERR1
 40
0.0
  9
$USERR2
 40
0.0
  9
$USERR3
 40
0.0
  9
$USERR4
 40
0.0
  9
$USERR5
 40
0.0
  9
$WORLDVIEW
 70
     1
  9
$SHADEDGE
 70
     3
  9
$SHADEDIF
 70
    70
  9
$TILEMODE
 70
     1
  9
$MAXACTVP
 70
    16
  9
$PINSBASE
 10
0.0
 20
0.0
 30
0.0
  9
$PLIMCHECK
 70
     0
  9
$PEXTMIN
 10
1.000000E+20
 20
1.000000E+20
 30
1.000000E+20
  9
$PEXTMAX
 10
-1.000000E+20
 20
-1.000000E+20
 30
-1.000000E+20
  9
$PLIMMIN
 10
0.0
 20
0.0
  9
$PLIMMAX
 10
20.0
 20
147.0
  9
$UNITMODE
 70
     0
  9
$VISRETAIN
 70
     0
  9
$PLINEGEN
 70
     0
  9
$PSLTSCALE
 70
     1
  9
$TREEDEPTH
 70
  3020
  9
$PICKSTYLE
 70
     1
  9
$CMLSTYLE
  2
STANDARD
  9
$CMLJUST
 70
     0
  9
$CMLSCALE
 40
1.0
  9
$SAVEIMAGES
 70
     1
  0
ENDSEC
  0
SECTION
  2
CLASSES
  0
CLASS
  1
LWPOLYLINE
  2
AcDbPolyline
  3
"AutoCAD"
 90
    32768
280
     0
281
     1
  0
ENDSEC
  0
SECTION
  2
TABLES
  0
TABLE
  2
VPORT
  5
8
100
AcDbSymbolTable
 70
     2
  0
VPORT
  5
461B
100
AcDbSymbolTableRecord
100
AcDbViewportTableRecord
  2
*ACTIVE
 70
     0
 10
0.0
 20
0.0
 11
1.0
 21
1.0
 12
460.541196
 22
326.633723
 13
0.0
 23
0.0
 14
1.0
 24
1.0
 15
0.0
 25
0.0
 16
0.0
 26
0.0
 36
1.0
 17
0.0
 27
0.0
 37
0.0
 40
653.267444
 41
1.762063
 42
50.0
 43
0.0
 44
0.0
 50
0.0
 51
0.0
 71
     0
 72
   100
 73
     1
 74
     1
 75
     0
 76
     0
 77
     0
 78
     2
  0
ENDTAB
  0
TABLE
  2
LTYPE
  5
5
100
AcDbSymbolTable
 70
     5
  0
LTYPE
  5
12
100
AcDbSymbolTableRecord
100
AcDbLinetypeTableRecord
  2
BYBLOCK
 70
     0
  3

 72
    65
 73
     0
 40
0.0
  0
LTYPE
  5
13
100
AcDbSymbolTableRecord
100
AcDbLinetypeTableRecord
  2
BYLAYER
 70
     0
  3

 72
    65
 73
     0
 40
0.0
  0
LTYPE
  5
14
100
AcDbSymbolTableRecord
100
AcDbLinetypeTableRecord
  2
CONTINUOUS
 70
     0
  3
Solid line
 72
    65
 73
     0
 40
0.0
  0
ENDTAB
  0
TABLE
  2
LAYER
  5
2
100
AcDbSymbolTable
 70
     3
  0
LAYER
  5
F
100
AcDbSymbolTableRecord
100
AcDbLayerTableRecord
  2
0
 70
     0
 62
     7
  6
CONTINUOUS
  0
ENDTAB
  0
TABLE
  2
STYLE
  5
3
100
AcDbSymbolTable
 70
     3
  0
STYLE
  5
10
100
AcDbSymbolTableRecord
100
AcDbTextStyleTableRecord
  2
STANDARD
 70
     0
 40
0.0
 41
0.8
 50
0.0
 71
     0
 42
12.0
  3
simplex
  4
extfont
  0
STYLE
  5
237C
100
AcDbSymbolTableRecord
100
AcDbTextStyleTableRecord
  2
PTSH
 70
     0
 40
0.0
 41
0.9
 50
0.0
 71
     0
 42
4.0
  3
SIMPLEX
  4
EXTFONT
  0
STYLE
  5
2592
100
AcDbSymbolTableRecord
100
AcDbTextStyleTableRecord
  2
DIM
 70
     0
 40
0.0
 41
0.8
 50
0.0
 71
     0
 42
4.0
  3
simplex
  4
extfont
  0
ENDTAB
  0
TABLE
  2
VIEW
  5
6
100
AcDbSymbolTable
 70
     0
  0
ENDTAB
  0
TABLE
  2
UCS
  5
7
100
AcDbSymbolTable
 70
     0
  0
ENDTAB
  0
TABLE
  2
APPID
  5
9
100
AcDbSymbolTable
 70
     1
  0
APPID
  5
11
100
AcDbSymbolTableRecord
100
AcDbRegAppTableRecord
  2
ACAD
 70
     0
  0
ENDTAB
  0
TABLE
  2
DIMSTYLE
  5
A
100
AcDbSymbolTable
 70
     1
  0
DIMSTYLE
105
2237
100
AcDbSymbolTableRecord
100
AcDbDimStyleTableRecord
  2
DIM1
 70
     0
  3
 
  4

  5

  6
_OPEN
  7
_OPEN
 40
3.0
 41
2.8
 42
1.0
 43
5.0
 44
1.0
 45
0.1
 46
0.0
 47
0.0
 48
0.0
140
2.5
141
0.0
142
0.0
143
1.0
144
1.0
145
0.0
146
0.7
147
0.85
 71
     0
 72
     0
 73
     0
 74
     0
 75
     0
 76
     0
 77
     3
 78
     8
170
     0
171
     2
172
     1
173
     1
174
     0
175
     0
176
     2
177
     2
178
     2
270
     2
271
     2
272
     3
273
     2
274
     3
340
2592
275
     0
280
     0
281
     0
282
     0
283
     1
284
     8
285
     8
286
     8
287
     0
288
     0
  0
ENDTAB
  0
TABLE
  2
BLOCK_RECORD
  5
1
100
AcDbSymbolTable
 70
     1
  0
BLOCK_RECORD
  5
18
100
AcDbSymbolTableRecord
100
AcDbBlockTableRecord
  2
*MODEL_SPACE
  0
BLOCK_RECORD
  5
15
100
AcDbSymbolTableRecord
100
AcDbBlockTableRecord
  2
*PAPER_SPACE
  0
BLOCK_RECORD
  5
2448
100
AcDbSymbolTableRecord
100
AcDbBlockTableRecord
  2
_OPEN
  0
ENDTAB
  0
ENDSEC
  0
SECTION
  2
BLOCKS
  0
BLOCK
  5
3C
100
AcDbEntity
  8
0
100
AcDbBlockBegin
  2
*MODEL_SPACE
 70
     0
 10
0.0
 20
0.0
 30
0.0
  3
*MODEL_SPACE
  1

  0
ENDBLK
  5
3D
100
AcDbEntity
  8
0
100
AcDbBlockEnd
  0
BLOCK
  5
3A
100
AcDbEntity
 67
     1
  8
0
100
AcDbBlockBegin
  2
*PAPER_SPACE
 70
     0
 10
0.0
 20
0.0
 30
0.0
  3
*PAPER_SPACE
  1

  0
ENDBLK
  5
3B
100
AcDbEntity
 67
     1
  8
0
100
AcDbBlockEnd
  0
BLOCK
  5
2449
100
AcDbEntity
  8
0
 48
4.0
100
AcDbBlockBegin
  2
_OPEN
 70
     0
 10
0.0
 20
0.0
 30
0.0
  3
_OPEN
  1
H1111.DWG
  0
LINE
  5
244A
100
AcDbEntity
  8
0
  6
BYBLOCK
 62
     0
 48
4.0
100
AcDbLine
 10
-1.0
 20
0.166667
 30
0.0
 11
0.0
 21
0.0
 31
0.0
  0
LINE
  5
244B
100
AcDbEntity
  8
0
  6
BYBLOCK
 62
     0
 48
4.0
100
AcDbLine
 10
0.0
 20
0.0
 30
0.0
 11
-1.0
 21
-0.166667
 31
0.0
  0
LINE
  5
244C
100
AcDbEntity
  8
0
  6
BYBLOCK
 62
     0
 48
4.0
100
AcDbLine
 10
0.0
 20
0.0
 30
0.0
 11
-1.0
 21
0.0
 31
0.0
  0
ENDBLK
  5
244D
100
AcDbEntity
  8
0
 48
4.0
100
AcDbBlockEnd
  0
ENDSEC
  0
SECTION
  2
ENTITIES
  0
MTEXT
  5
ADA
100
AcDbEntity
  8
0
100
AcDbMText
 10
1140.417839
 20
149.538933
 30
0.0
 40
0.6
 41
141.679395
 71
     1
 72
     1
  1

  0
MTEXT
  5
ADB
100
AcDbEntity
  8
0
100
AcDbMText
 10
1167.1498
 20
173.552381
 30
0.0
 40
0.6
 41
136.333003
 71
     1
 72
     1
  1

  0
MTEXT
  5
ADC
100
AcDbEntity
  8
0
100
AcDbMText
 10
1151.110623
 20
-143.958739
 30
0.0
 40
0.6
 41
155.045375
 71
     1
 72
     1
  1

  0
TEXT
  5
2529
100
AcDbEntity
  8
0
  6
CONTINUOUS
100
AcDbText
 10
825.64419
 20
23.209679
 30
0.0
 40
7.0
  1
RT3A
 41
0.9
  7
PTSH
 72
     1
 11
836.89419
 21
26.709679
 31
0.0
100
AcDbText
 73
     2
  0
POLYLINE
  5
2563
100
AcDbEntity
  8
0
100
AcDb2dPolyline
 66
     1
 10
0.0
 20
0.0
 30
0.0
 70
     1
  0
VERTEX
  5
4574
100
AcDbEntity
  8
0
100
AcDbVertex
100
AcDb2dVertex
 10
33.0
 20
15.0
 30
0.0
  0
VERTEX
  5
4575
100
AcDbEntity
  8
0
100
AcDbVertex
100
AcDb2dVertex
 10
858.0
 20
15.0
 30
0.0
  0
VERTEX
  5
4576
100
AcDbEntity
  8
0
100
AcDbVertex
100
AcDb2dVertex
 10
858.0
 20
573.0
 30
0.0
  0
VERTEX
  5
4577
100
AcDbEntity
  8
0
100
AcDbVertex
100
AcDb2dVertex
 10
33.0
 20
573.0
 30
0.0
  0
SEQEND
  5
4578
100
AcDbEntity
  8
0
  0
TEXT
  5
3F80
100
AcDbEntity
  8
0
100
AcDbText
 10
364.192349
 20
73.017189
 30
0.0
 40
13.0
  1
TLV  RT3A (PT)
 72
     4
 11
436.559016
 21
78.588618
 31
0.0
100
AcDbText
  0
LINE
  5
3F81
100
AcDbEntity
  8
0
100
AcDbLine
 10
406.891852
 20
196.692441
 30
0.0
 11
387.891852
 21
197.355936
 31
0.0
  0
LINE
  5
3F82
100
AcDbEntity
  8
0
100
AcDbLine
 10
406.891852
 20
223.692441
 30
0.0
 11
387.891852
 21
223.028946
 31
0.0
  0
TEXT
  5
3F83
100
AcDbEntity
  8
0
100
AcDbText
 10
189.532626
 20
138.588408
 30
0.0
 40
5.0
  1
15A
 41
0.8
 72
     4
 11
194.485007
 21
141.088408
 31
0.0
100
AcDbText
  0
LINE
  5
3F84
100
AcDbEntity
  8
0
100
AcDbLine
 10
170.59851
 20
195.192441
 30
0.0
 11
170.59851
 21
225.192441
 31
0.0
  0
LINE
  5
3F85
100
AcDbEntity
  8
0
100
AcDbLine
 10
105.024371
 20
208.740351
 30
0.0
 11
100.990931
 21
212.773791
 31
0.0
  0
LINE
  5
3F86
100
AcDbEntity
  8
0
100
AcDbLine
 10
147.59851
 20
220.942441
 30
0.0
 11
147.59851
 21
199.442441
 31
0.0
  0
LINE
  5
3F87
100
AcDbEntity
  8
0
100
AcDbLine
 10
152.59851
 20
220.942441
 30
0.0
 11
152.59851
 21
199.442441
 31
0.0
  0
LINE
  5
3F88
100
AcDbEntity
  8
0
100
AcDbLine
 10
168.59851
 20
220.942441
 30
0.0
 11
168.59851
 21
199.442441
 31
0.0
  0
LINE
  5
3F89
100
AcDbEntity
  8
0
100
AcDbLine
 10
132.59851
 20
220.418629
 30
0.0
 11
132.59851
 21
199.966252
 31
0.0
  0
ARC
  5
3F8A
100
AcDbEntity
  8
0
100
AcDbCircle
 10
191.094445
 20
210.192441
 30
0.0
 40
20.495935
100
AcDbArc
 50
156.275831
 51
203.724169
  0
LINE
  5
3F8B
100
AcDbEntity
  8
0
100
AcDbLine
 10
121.071011
 20
212.773791
 30
0.0
 11
125.192291
 21
208.740351
 31
0.0
  0
LINE
  5
3F8C
100
AcDbEntity
  8
0
100
AcDbLine
 10
228.59851
 20
226.849877
 30
0.0
 11
228.59851
 21
193.231924
 31
0.0
  0
LINE
  5
3F8D
100
AcDbEntity
  8
0
100
AcDbLine
 10
189.59851
 20
224.192441
 30
0.0
 11
189.59851
 21
196.192441
 31
0.0
  0
ARC
  5
3F8E
100
AcDbEntity
  8
0
100
AcDbCircle
 10
179.566361
 20
209.769263
 30
0.0
 40
21.48585
100
AcDbArc
 50
333.892758
 51
28.364344
  0
ARC
  5
3F8F
100
AcDbEntity
  8
0
100
AcDbCircle
 10
169.102575
 20
210.192441
 30
0.0
 40
20.495935
100
AcDbArc
 50
336.275831
 51
23.724169
  0
CIRCLE
  5
3F90
100
AcDbEntity
  8
0
100
AcDbCircle
 10
75.800337
 20
210.192441
 30
0.0
 40
10.226188
  0
CIRCLE
  5
3F91
100
AcDbEntity
  8
0
100
AcDbCircle
 10
75.800337
 20
210.192441
 30
0.0
 40
10.75
  0
POLYLINE
  5
3F92
100
AcDbEntity
  8
0
100
AcDb2dPolyline
 66
     1
 10
0.0
 20
0.0
 30
0.0
  0
VERTEX
  5
4579
100
AcDbEntity
  8
0
100
AcDbVertex
100
AcDb2dVertex
 10
91.800337
 20
201.94623
 30
0.0
  0
VERTEX
  5
457A
100
AcDbEntity
  8
0
100
AcDbVertex
100
AcDb2dVertex
 10
91.800337
 20
218.438652
 30
0.0
  0
SEQEND
  5
457B
100
AcDbEntity
  8
0
  0
LINE
  5
3F93
100
AcDbEntity
  8
0
100
AcDbLine
 10
91.800337
 20
226.849877
 30
0.0
 11
91.800337
 21
193.231924
 31
0.0
  0
POLYLINE
  5
3F94
100
AcDbEntity
  8
0
100
AcDb2dPolyline
 66
     1
 10
0.0
 20
0.0
 30
0.0
  0
VERTEX
  5
457C
100
AcDbEntity
  8
0
100
AcDbVertex
100
AcDb2dVertex
 10
59.800337
 20
218.438652
 30
0.0
  0
VERTEX
  5
457D
100
AcDbEntity
  8
0
100
AcDbVertex
100
AcDb2dVertex
 10
59.800337
 20
201.94623
 30
0.0
  0
SEQEND
  5
457E
100
AcDbEntity
  8
0
  0
LINE
  5
3F95
100
AcDbEntity
  8
0
100
AcDbLine
 10
59.800337
 20
226.849877
 30
0.0
 11
59.800337
 21
193.231924
 31
0.0
  0
CIRCLE
  5
3F96
100
AcDbEntity
  8
0
100
AcDbCircle
 10
75.800337
 20
210.192441
 30
0.0
 40
15.0
  0
LINE
  5
3F97
100
AcDbEntity
  8
0
100
AcDbLine
 10
147.59851
 20
199.442441
 30
0.0
 11
132.59851
 21
199.966252
 31
0.0
  0
ARC
  5
3F98
100
AcDbEntity
  8
0
100
AcDbCircle
 10
69.050337
 20
184.349751
 30
0.0
 40
9.15731
100
AcDbArc
 50
231.804631
 51
308.195369
  0
LINE
  5
3F99
100
AcDbEntity
  8
0
100
AcDbLine
 10
62.800337
 20
175.192441
 30
0.0
 11
62.300337
 21
177.152958
 31
0.0
  0
ARC
  5
3F9A
100
AcDbEntity
  8
0
100
AcDbCircle
 10
82.550337
 20
184.349751
 30
0.0
 40
9.15731
100
AcDbArc
 50
231.804631
 51
308.195369
  0
LINE
  5
3F9B
100
AcDbEntity
  8
0
100
AcDbLine
 10
88.800337
 20
175.192441
 30
0.0
 11
89.300337
 21
177.152958
 31
0.0
  0
LINE
  5
3F9C
100
AcDbEntity
  8
0
100
AcDbLine
 10
62.800337
 20
175.192441
 30
0.0
 11
88.800337
 21
175.192441
 31
0.0
  0
ARC
  5
3F9D
100
AcDbEntity
  8
0
100
AcDbCircle
 10
82.550337
 20
183.035131
 30
0.0
 40
9.15731
100
AcDbArc
 50
51.804631
 51
128.195369
  0
POLYLINE
  5
3F9E
100
AcDbEntity
  8
0
100
AcDb2dPolyline
 66
     1
 10
0.0
 20
0.0
 30
0.0
  0
VERTEX
  5
457F
100
AcDbEntity
  8
0
100
AcDbVertex
100
AcDb2dVertex
 10
76.658909
 20
192.212929
 30
0.0
  0
VERTEX
  5
4580
100
AcDbEntity
  8
0
100
AcDbVertex
100
AcDb2dVertex
 10
90.941765
 20
200.45914
 30
0.0
  0
SEQEND
  5
4581
100
AcDbEntity
  8
0
  0
POLYLINE
  5
3F9F
100
AcDbEntity
  8
0
100
AcDb2dPolyline
 66
     1
 10
0.0
 20
0.0
 30
0.0
  0
VERTEX
  5
4582
100
AcDbEntity
  8
0
100
AcDbVertex
100
AcDb2dVertex
 10
60.658909
 20
200.45914
 30
0.0
  0
VERTEX
  5
4583
100
AcDbEntity
  8
0
100
AcDbVertex
100
AcDb2dVertex
 10
74.941765
 20
192.212929
 30
0.0
  0
SEQEND
  5
4584
100
AcDbEntity
  8
0
  0
ARC
  5
3FA0
100
AcDbEntity
  8
0
100
AcDbCircle
 10
69.050337
 20
183.035131
 30
0.0
 40
9.15731
100
AcDbArc
 50
51.804631
 51
128.195369
  0
LINE
  5
3FA1
100
AcDbEntity
  8
0
100
AcDbLine
 10
62.300337
 20
190.231924
 30
0.0
 11
63.387961
 21
190.231924
 31
0.0
  0
LINE
  5
3FA2
100
AcDbEntity
  8
0
100
AcDbLine
 10
62.300337
 20
177.152958
 30
0.0
 11
63.387961
 21
177.152958
 31
0.0
  0
LINE
  5
3FA3
100
AcDbEntity
  8
0
100
AcDbLine
 10
62.300337
 20
177.152958
 30
0.0
 11
62.300337
 21
190.731924
 31
0.0
  0
LINE
  5
3FA4
100
AcDbEntity
  8
0
100
AcDbLine
 10
63.387961
 20
177.152958
 30
0.0
 11
63.387961
 21
190.231924
 31
0.0
  0
ARC
  5
3FA5
100
AcDbEntity
  8
0
100
AcDbCircle
 10
75.800337
 20
210.192441
 30
0.0
 40
18.0
100
AcDbArc
 50
267.266044
 51
272.733956
  0
LINE
  5
3FA6
100
AcDbEntity
  8
0
100
AcDbLine
 10
74.712713
 20
190.231924
 30
0.0
 11
76.887961
 21
190.231924
 31
0.0
  0
LINE
  5
3FA7
100
AcDbEntity
  8
0
100
AcDbLine
 10
74.712713
 20
177.152958
 30
0.0
 11
76.887961
 21
177.152958
 31
0.0
  0
LINE
  5
3FA8
100
AcDbEntity
  8
0
100
AcDbLine
 10
74.712713
 20
177.152958
 30
0.0
 11
74.712713
 21
190.231924
 31
0.0
  0
LINE
  5
3FA9
100
AcDbEntity
  8
0
100
AcDbLine
 10
76.887961
 20
177.152958
 30
0.0
 11
76.887961
 21
190.231924
 31
0.0
  0
LINE
  5
3FAA
100
AcDbEntity
  8
0
100
AcDbLine
 10
62.300337
 20
190.731924
 30
0.0
 11
59.800337
 21
193.231924
 31
0.0
  0
ARC
  5
3FAB
100
AcDbEntity
  8
0
100
AcDbCircle
 10
75.800337
 20
210.192441
 30
0.0
 40
18.0
100
AcDbArc
 50
207.266044
 51
212.733956
  0
LINE
  5
3FAC
100
AcDbEntity
  8
0
100
AcDbLine
 10
88.212713
 20
190.231924
 30
0.0
 11
89.300337
 21
190.231924
 31
0.0
  0
LINE
  5
3FAD
100
AcDbEntity
  8
0
100
AcDbLine
 10
88.212713
 20
177.152958
 30
0.0
 11
89.300337
 21
177.152958
 31
0.0
  0
LINE
  5
3FAE
100
AcDbEntity
  8
0
100
AcDbLine
 10
89.300337
 20
177.152958
 30
0.0
 11
89.300337
 21
190.731924
 31
0.0
  0
LINE
  5
3FAF
100
AcDbEntity
  8
0
100
AcDbLine
 10
88.212713
 20
177.152958
 30
0.0
 11
88.212713
 21
190.231924
 31
0.0
  0
LINE
  5
3FB0
100
AcDbEntity
  8
0
100
AcDbLine
 10
89.300337
 20
190.731924
 30
0.0
 11
91.800337
 21
193.231924
 31
0.0
  0
LINE
  5
3FB1
100
AcDbEntity
  8
0
100
AcDbLine
 10
125.192291
 20
208.740351
 30
0.0
 11
105.024371
 21
208.740351
 31
0.0
  0
ARC
  5
3FB2
100
AcDbEntity
  8
0
100
AcDbCircle
 10
75.800337
 20
210.192441
 30
0.0
 40
18.0
100
AcDbArc
 50
327.266044
 51
332.733956
  0
ARC
  5
3FB3
100
AcDbEntity
  8
0
100
AcDbCircle
 10
200.907167
 20
178.898383
 30
0.0
 40
3.705942
100
AcDbArc
 50
208.097938
 51
331.902062
  0
LINE
  5
3FB4
100
AcDbEntity
  8
0
100
AcDbLine
 10
199.59851
 20
175.192441
 30
0.0
 11
197.637993
 21
177.152958
 31
0.0
  0
LINE
  5
3FB5
100
AcDbEntity
  8
0
100
AcDbLine
 10
225.59851
 20
175.192441
 30
0.0
 11
227.559027
 21
177.152958
 31
0.0
  0
ARC
  5
3FB6
100
AcDbEntity
  8
0
100
AcDbCircle
 10
224.289853
 20
178.898383
 30
0.0
 40
3.705942
100
AcDbArc
 50
208.097938
 51
331.902062
  0
ARC
  5
3FB7
100
AcDbEntity
  8
0
100
AcDbCircle
 10
212.59851
 20
187.075435
 30
0.0
 40
11.882994
100
AcDbArc
 50
236.617388
 51
303.382612
  0
LINE
  5
3FB8
100
AcDbEntity
  8
0
100
AcDbLine
 10
207.237426
 20
147.805387
 30
0.0
 11
207.237426
 21
167.973307
 31
0.0
  0
LINE
  5
3FB9
100
AcDbEntity
  8
0
100
AcDbLine
 10
211.270866
 20
159.906427
 30
0.0
 11
209.254146
 21
157.888987
 31
0.0
  0
LINE
  5
3FBA
100
AcDbEntity
  8
0
100
AcDbLine
 10
209.254146
 20
157.888987
 30
0.0
 11
209.254146
 21
151.926667
 31
0.0
  0
LINE
  5
3FBB
100
AcDbEntity
  8
0
100
AcDbLine
 10
209.254146
 20
151.926667
 30
0.0
 11
211.270866
 21
151.926667
 31
0.0
  0
LINE
  5
3FBC
100
AcDbEntity
  8
0
100
AcDbLine
 10
211.270866
 20
151.926667
 30
0.0
 11
207.237426
 21
147.805387
 31
0.0
  0
LINE
  5
3FBD
100
AcDbEntity
  8
0
100
AcDbLine
 10
199.59851
 20
175.192441
 30
0.0
 11
225.59851
 21
175.192441
 31
0.0
  0
LINE
  5
3FBE
100
AcDbEntity
  8
0
100
AcDbLine
 10
211.270866
 20
172.006747
 30
0.0
 11
211.270866
 21
159.906427
 31
0.0
  0
LINE
  5
3FBF
100
AcDbEntity
  8
0
100
AcDbLine
 10
207.237426
 20
167.973307
 30
0.0
 11
211.270866
 21
172.006747
 31
0.0
  0
ARC
  5
3FC0
100
AcDbEntity
  8
0
100
AcDbCircle
 10
193.59851
 20
196.192441
 30
0.0
 40
3.0
100
AcDbArc
 50
0.0
 51
90.0
  0
ARC
  5
3FC1
100
AcDbEntity
  8
0
100
AcDbCircle
 10
183.800592
 20
196.32579
 30
0.0
 40
5.797918
100
AcDbArc
 50
314.52845
 51
45.47155
  0
LINE
  5
3FC2
100
AcDbEntity
  8
0
100
AcDbLine
 10
189.59851
 20
195.192441
 30
0.0
 11
187.866459
 21
192.192441
 31
0.0
  0
ARC
  5
3FC3
100
AcDbEntity
  8
0
100
AcDbCircle
 10
176.396429
 20
196.32579
 30
0.0
 40
5.797918
100
AcDbArc
 50
134.52845
 51
225.47155
  0
LINE
  5
3FC4
100
AcDbEntity
  8
0
100
AcDbLine
 10
170.59851
 20
195.192441
 30
0.0
 11
172.330561
 21
192.192441
 31
0.0
  0
LINE
  5
3FC5
100
AcDbEntity
  8
0
100
AcDbLine
 10
187.866459
 20
192.192441
 30
0.0
 11
172.330561
 21
192.192441
 31
0.0
  0
LINE
  5
3FC6
100
AcDbEntity
  8
0
100
AcDbLine
 10
147.59851
 20
199.442441
 30
0.0
 11
170.59851
 21
199.442441
 31
0.0
  0
LINE
  5
3FC7
100
AcDbEntity
  8
0
100
AcDbLine
 10
168.59851
 20
205.161288
 30
0.0
 11
152.59851
 21
205.161288
 31
0.0
  0
LINE
  5
3FC8
100
AcDbEntity
  8
0
100
AcDbLine
 10
168.59851
 20
204.480776
 30
0.0
 11
152.59851
 21
204.480776
 31
0.0
  0
ARC
  5
3FC9
100
AcDbEntity
  8
0
100
AcDbCircle
 10
192.59851
 20
196.192441
 30
0.0
 40
3.0
100
AcDbArc
 50
90.0
 51
180.0
  0
LINE
  5
3FCA
100
AcDbEntity
  8
0
100
AcDbLine
 10
192.59851
 20
199.192441
 30
0.0
 11
193.59851
 21
199.192441
 31
0.0
  0
LINE
  5
3FCB
100
AcDbEntity
  8
0
100
AcDbLine
 10
187.866459
 20
200.45914
 30
0.0
 11
187.866459
 21
201.94623
 31
0.0
  0
LINE
  5
3FCC
100
AcDbEntity
  8
0
100
AcDbLine
 10
172.330561
 20
201.94623
 30
0.0
 11
172.330561
 21
200.45914
 31
0.0
  0
LINE
  5
3FCD
100
AcDbEntity
  8
0
100
AcDbLine
 10
187.866459
 20
201.94623
 30
0.0
 11
172.330561
 21
201.94623
 31
0.0
  0
LINE
  5
3FCE
100
AcDbEntity
  8
0
100
AcDbLine
 10
187.866459
 20
200.45914
 30
0.0
 11
172.330561
 21
200.45914
 31
0.0
  0
LINE
  5
3FCF
100
AcDbEntity
  8
0
100
AcDbLine
 10
196.59851
 20
196.192441
 30
0.0
 11
196.59851
 21
193.231924
 31
0.0
  0
ARC
  5
3FD0
100
AcDbEntity
  8
0
100
AcDbCircle
 10
224.289853
 20
188.486498
 30
0.0
 40
3.705942
100
AcDbArc
 50
28.097938
 51
151.902062
  0
LINE
  5
3FD1
100
AcDbEntity
  8
0
100
AcDbLine
 10
197.637993
 20
192.192441
 30
0.0
 11
227.559027
 21
192.192441
 31
0.0
  0
LINE
  5
3FD2
100
AcDbEntity
  8
0
100
AcDbLine
 10
221.020679
 20
177.152958
 30
0.0
 11
221.020679
 21
190.231924
 31
0.0
  0
LINE
  5
3FD3
100
AcDbEntity
  8
0
100
AcDbLine
 10
219.136858
 20
177.152958
 30
0.0
 11
219.136858
 21
190.231924
 31
0.0
  0
LINE
  5
3FD4
100
AcDbEntity
  8
0
100
AcDbLine
 10
206.060162
 20
177.152958
 30
0.0
 11
206.060162
 21
190.231924
 31
0.0
  0
LINE
  5
3FD5
100
AcDbEntity
  8
0
100
AcDbLine
 10
204.176341
 20
177.152958
 30
0.0
 11
204.176341
 21
190.231924
 31
0.0
  0
LINE
  5
3FD6
100
AcDbEntity
  8
0
100
AcDbLine
 10
219.136858
 20
177.152958
 30
0.0
 11
221.020679
 21
177.152958
 31
0.0
  0
LINE
  5
3FD7
100
AcDbEntity
  8
0
100
AcDbLine
 10
204.176341
 20
177.152958
 30
0.0
 11
206.060162
 21
177.152958
 31
0.0
  0
LINE
  5
3FD8
100
AcDbEntity
  8
0
100
AcDbLine
 10
219.136858
 20
190.231924
 30
0.0
 11
221.020679
 21
190.231924
 31
0.0
  0
LINE
  5
3FD9
100
AcDbEntity
  8
0
100
AcDbLine
 10
204.176341
 20
190.231924
 30
0.0
 11
206.060162
 21
190.231924
 31
0.0
  0
ARC
  5
3FDA
100
AcDbEntity
  8
0
100
AcDbCircle
 10
212.59851
 20
180.309447
 30
0.0
 40
11.882994
100
AcDbArc
 50
56.617388
 51
123.382612
  0
LINE
  5
3FDB
100
AcDbEntity
  8
0
100
AcDbLine
 10
197.637993
 20
177.152958
 30
0.0
 11
197.637993
 21
192.192441
 31
0.0
  0
LINE
  5
3FDC
100
AcDbEntity
  8
0
100
AcDbLine
 10
197.637993
 20
192.192441
 30
0.0
 11
196.59851
 21
193.231924
 31
0.0
  0
ARC
  5
3FDD
100
AcDbEntity
  8
0
100
AcDbCircle
 10
200.907167
 20
188.486498
 30
0.0
 40
3.705942
100
AcDbArc
 50
28.097938
 51
151.902062
  0
LINE
  5
3FDE
100
AcDbEntity
  8
0
100
AcDbLine
 10
227.559027
 20
177.152958
 30
0.0
 11
227.559027
 21
192.192441
 31
0.0
  0
LINE
  5
3FDF
100
AcDbEntity
  8
0
100
AcDbLine
 10
227.559027
 20
192.192441
 30
0.0
 11
228.59851
 21
193.231924
 31
0.0
  0
LINE
  5
3FE0
100
AcDbEntity
  8
0
100
AcDbLine
 10
147.59851
 20
220.942441
 30
0.0
 11
132.59851
 21
220.418629
 31
0.0
  0
LINE
  5
3FE1
100
AcDbEntity
  8
0
100
AcDbLine
 10
93.800337
 20
248.192441
 30
0.0
 11
93.800337
 21
243.192441
 31
0.0
  0
LINE
  5
3FE2
100
AcDbEntity
  8
0
100
AcDbLine
 10
57.800337
 20
248.192441
 30
0.0
 11
57.800337
 21
243.192441
 31
0.0
  0
POLYLINE
  5
3FE3
100
AcDbEntity
  8
0
100
AcDb2dPolyline
 66
     1
 10
0.0
 20
0.0
 30
0.0
  0
VERTEX
  5
4585
100
AcDbEntity
  8
0
100
AcDbVertex
100
AcDb2dVertex
 10
90.941765
 20
219.925742
 30
0.0
  0
VERTEX
  5
4586
100
AcDbEntity
  8
0
100
AcDbVertex
100
AcDb2dVertex
 10
76.658909
 20
228.171953
 30
0.0
  0
SEQEND
  5
4587
100
AcDbEntity
  8
0
  0
LINE
  5
3FE4
100
AcDbEntity
  8
0
100
AcDbLine
 10
57.800337
 20
238.192441
 30
0.0
 11
93.800337
 21
238.192441
 31
0.0
  0
LINE
  5
3FE5
100
AcDbEntity
  8
0
100
AcDbLine
 10
93.800337
 20
243.192441
 30
0.0
 11
57.800337
 21
243.192441
 31
0.0
  0
LINE
  5
3FE6
100
AcDbEntity
  8
0
100
AcDbLine
 10
57.800337
 20
238.192441
 30
0.0
 11
59.800337
 21
226.849877
 31
0.0
  0
POLYLINE
  5
3FE7
100
AcDbEntity
  8
0
100
AcDb2dPolyline
 66
     1
 10
0.0
 20
0.0
 30
0.0
  0
VERTEX
  5
4588
100
AcDbEntity
  8
0
100
AcDbVertex
100
AcDb2dVertex
 10
74.941765
 20
228.171953
 30
0.0
  0
VERTEX
  5
4589
100
AcDbEntity
  8
0
100
AcDbVertex
100
AcDb2dVertex
 10
60.658909
 20
219.925742
 30
0.0
  0
SEQEND
  5
458A
100
AcDbEntity
  8
0
  0
ARC
  5
3FE8
100
AcDbEntity
  8
0
100
AcDbCircle
 10
75.800337
 20
210.192441
 30
0.0
 40
18.0
100
AcDbArc
 50
147.266044
 51
152.733956
  0
ARC
  5
3FE9
100
AcDbEntity
  8
0
100
AcDbCircle
 10
75.800337
 20
210.192441
 30
0.0
 40
18.0
100
AcDbArc
 50
87.266044
 51
92.733956
  0
LINE
  5
3FEA
100
AcDbEntity
  8
0
100
AcDbLine
 10
57.800337
 20
243.192441
 30
0.0
 11
57.800337
 21
238.192441
 31
0.0
  0
LINE
  5
3FEB
100
AcDbEntity
  8
0
100
AcDbLine
 10
93.800337
 20
238.192441
 30
0.0
 11
91.800337
 21
226.849877
 31
0.0
  0
LINE
  5
3FEC
100
AcDbEntity
  8
0
100
AcDbLine
 10
100.990931
 20
212.773791
 30
0.0
 11
113.091251
 21
212.773791
 31
0.0
  0
ARC
  5
3FED
100
AcDbEntity
  8
0
100
AcDbCircle
 10
75.800337
 20
210.192441
 30
0.0
 40
18.0
100
AcDbArc
 50
27.266044
 51
32.733956
  0
LINE
  5
3FEE
100
AcDbEntity
  8
0
100
AcDbLine
 10
121.071011
 20
210.757071
 30
0.0
 11
121.071011
 21
212.773791
 31
0.0
  0
LINE
  5
3FEF
100
AcDbEntity
  8
0
100
AcDbLine
 10
113.091251
 20
212.773791
 30
0.0
 11
115.108691
 21
210.757071
 31
0.0
  0
LINE
  5
3FF0
100
AcDbEntity
  8
0
100
AcDbLine
 10
115.108691
 20
210.757071
 30
0.0
 11
121.071011
 21
210.757071
 31
0.0
  0
LINE
  5
3FF1
100
AcDbEntity
  8
0
100
AcDbLine
 10
93.800337
 20
243.192441
 30
0.0
 11
93.800337
 21
238.192441
 31
0.0
  0
LINE
  5
3FF2
100
AcDbEntity
  8
0
100
AcDbLine
 10
64.300337
 20
269.192441
 30
0.0
 11
87.300337
 21
269.192441
 31
0.0
  0
ARC
  5
3FF3
100
AcDbEntity
  8
0
100
AcDbCircle
 10
75.674088
 20
253.088002
 30
0.0
 40
15.816268
100
AcDbArc
 50
65.501978
 51
114.498022
  0
LINE
  5
3FF4
100
AcDbEntity
  8
0
100
AcDbLine
 10
89.050337
 20
251.192441
 30
0.0
 11
62.550337
 21
251.192441
 31
0.0
  0
LINE
  5
3FF5
100
AcDbEntity
  8
0
100
AcDbLine
 10
93.800337
 20
248.192441
 30
0.0
 11
57.800337
 21
248.192441
 31
0.0
  0
LINE
  5
3FF6
100
AcDbEntity
  8
0
100
AcDbLine
 10
92.800337
 20
249.192441
 30
0.0
 11
58.800337
 21
249.192441
 31
0.0
  0
LINE
  5
3FF7
100
AcDbEntity
  8
0
100
AcDbLine
 10
62.599007
 20
268.903766
 30
0.0
 11
62.599007
 21
251.192441
 31
0.0
  0
LINE
  5
3FF8
100
AcDbEntity
  8
0
100
AcDbLine
 10
75.800337
 20
267.584746
 30
0.0
 11
75.800337
 21
251.192441
 31
0.0
  0
LINE
  5
3FF9
100
AcDbEntity
  8
0
100
AcDbLine
 10
69.115685
 20
267.584746
 30
0.0
 11
69.115685
 21
251.192441
 31
0.0
  0
TEXT
  5
3FFA
100
AcDbEntity
  8
0
100
AcDbText
 10
34.773624
 20
206.790298
 30
0.0
 40
8.0
  1
正面
100
AcDbText
  0
LINE
  5
3FFB
100
AcDbEntity
  8
0
100
AcDbLine
 10
58.800337
 20
249.192441
 30
0.0
 11
57.800337
 21
248.192441
 31
0.0
  0
ARC
  5
3FFC
100
AcDbEntity
  8
0
100
AcDbCircle
 10
60.550337
 20
251.192441
 30
0.0
 40
2.0
100
AcDbArc
 50
270.0
 51
0.0
  0
ARC
  5
3FFD
100
AcDbEntity
  8
0
100
AcDbCircle
 10
65.857346
 20
264.019916
 30
0.0
 40
4.753089
100
AcDbArc
 50
46.723456
 51
133.276544
  0
LINE
  5
3FFE
100
AcDbEntity
  8
0
100
AcDbLine
 10
64.300337
 20
269.192441
 30
0.0
 11
62.599007
 21
268.903766
 31
0.0
  0
LINE
  5
3FFF
100
AcDbEntity
  8
0
100
AcDbLine
 10
82.23249
 20
267.584746
 30
0.0
 11
82.23249
 21
251.192441
 31
0.0
  0
LINE
  5
4000
100
AcDbEntity
  8
0
100
AcDbLine
 10
89.001667
 20
268.903766
 30
0.0
 11
89.001667
 21
251.192441
 31
0.0
  0
LINE
  5
4001
100
AcDbEntity
  8
0
100
AcDbLine
 10
93.800337
 20
248.192441
 30
0.0
 11
92.800337
 21
249.192441
 31
0.0
  0
ARC
  5
4002
100
AcDbEntity
  8
0
100
AcDbCircle
 10
91.050337
 20
251.192441
 30
0.0
 40
2.0
100
AcDbArc
 50
180.0
 51
270.0
  0
ARC
  5
4003
100
AcDbEntity
  8
0
100
AcDbCircle
 10
85.617079
 20
263.761177
 30
0.0
 40
5.028738
100
AcDbArc
 50
47.697147
 51
132.302853
  0
LINE
  5
4004
100
AcDbEntity
  8
0
100
AcDbLine
 10
87.300337
 20
269.192441
 30
0.0
 11
89.001667
 21
268.903766
 31
0.0
  0
LINE
  5
4005
100
AcDbEntity
  8
0
100
AcDbLine
 10
194.59851
 20
248.192441
 30
0.0
 11
194.59851
 21
243.192441
 31
0.0
  0
LINE
  5
4006
100
AcDbEntity
  8
0
100
AcDbLine
 10
230.59851
 20
248.192441
 30
0.0
 11
230.59851
 21
243.192441
 31
0.0
  0
ARC
  5
4007
100
AcDbEntity
  8
0
100
AcDbCircle
 10
193.59851
 20
224.192441
 30
0.0
 40
3.0
100
AcDbArc
 50
270.0
 51
0.0
  0
ARC
  5
4008
100
AcDbEntity
  8
0
100
AcDbCircle
 10
183.800592
 20
224.059091
 30
0.0
 40
5.797918
100
AcDbArc
 50
314.52845
 51
45.47155
  0
LINE
  5
4009
100
AcDbEntity
  8
0
100
AcDbLine
 10
189.59851
 20
225.192441
 30
0.0
 11
187.866459
 21
228.192441
 31
0.0
  0
ARC
  5
400A
100
AcDbEntity
  8
0
100
AcDbCircle
 10
176.396429
 20
224.059091
 30
0.0
 40
5.797918
100
AcDbArc
 50
134.52845
 51
225.47155
  0
LINE
  5
400B
100
AcDbEntity
  8
0
100
AcDbLine
 10
170.59851
 20
225.192441
 30
0.0
 11
172.330561
 21
228.192441
 31
0.0
  0
LINE
  5
400C
100
AcDbEntity
  8
0
100
AcDbLine
 10
147.59851
 20
220.942441
 30
0.0
 11
170.59851
 21
220.942441
 31
0.0
  0
LINE
  5
400D
100
AcDbEntity
  8
0
100
AcDbLine
 10
168.59851
 20
215.904106
 30
0.0
 11
152.59851
 21
215.904106
 31
0.0
  0
LINE
  5
400E
100
AcDbEntity
  8
0
100
AcDbLine
 10
168.59851
 20
215.223594
 30
0.0
 11
152.59851
 21
215.223594
 31
0.0
  0
ARC
  5
400F
100
AcDbEntity
  8
0
100
AcDbCircle
 10
192.59851
 20
224.192441
 30
0.0
 40
3.0
100
AcDbArc
 50
180.0
 51
270.0
  0
LINE
  5
4010
100
AcDbEntity
  8
0
100
AcDbLine
 10
192.59851
 20
221.192441
 30
0.0
 11
193.59851
 21
221.192441
 31
0.0
  0
LINE
  5
4011
100
AcDbEntity
  8
0
100
AcDbLine
 10
187.866459
 20
218.438652
 30
0.0
 11
187.866459
 21
219.925742
 31
0.0
  0
LINE
  5
4012
100
AcDbEntity
  8
0
100
AcDbLine
 10
172.330561
 20
219.925742
 30
0.0
 11
172.330561
 21
218.438652
 31
0.0
  0
LINE
  5
4013
100
AcDbEntity
  8
0
100
AcDbLine
 10
187.866459
 20
219.925742
 30
0.0
 11
172.330561
 21
219.925742
 31
0.0
  0
LINE
  5
4014
100
AcDbEntity
  8
0
100
AcDbLine
 10
187.866459
 20
218.438652
 30
0.0
 11
172.330561
 21
218.438652
 31
0.0
  0
LINE
  5
4015
100
AcDbEntity
  8
0
100
AcDbLine
 10
187.866459
 20
228.192441
 30
0.0
 11
172.330561
 21
228.192441
 31
0.0
  0
LINE
  5
4016
100
AcDbEntity
  8
0
100
AcDbLine
 10
194.59851
 20
238.192441
 30
0.0
 11
196.59851
 21
226.849877
 31
0.0
  0
LINE
  5
4017
100
AcDbEntity
  8
0
100
AcDbLine
 10
230.59851
 20
238.192441
 30
0.0
 11
228.59851
 21
226.849877
 31
0.0
  0
LINE
  5
4018
100
AcDbEntity
  8
0
100
AcDbLine
 10
196.59851
 20
226.849877
 30
0.0
 11
196.59851
 21
224.192441
 31
0.0
  0
LINE
  5
4019
100
AcDbEntity
  8
0
100
AcDbLine
 10
194.59851
 20
238.192441
 30
0.0
 11
230.59851
 21
238.192441
 31
0.0
  0
LINE
  5
401A
100
AcDbEntity
  8
0
100
AcDbLine
 10
230.59851
 20
243.192441
 30
0.0
 11
194.59851
 21
243.192441
 31
0.0
  0
LINE
  5
401B
100
AcDbEntity
  8
0
100
AcDbLine
 10
194.59851
 20
243.192441
 30
0.0
 11
194.59851
 21
238.192441
 31
0.0
  0
LINE
  5
401C
100
AcDbEntity
  8
0
100
AcDbLine
 10
230.59851
 20
243.192441
 30
0.0
 11
230.59851
 21
238.192441
 31
0.0
  0
LINE
  5
401D
100
AcDbEntity
  8
0
100
AcDbLine
 10
200.59851
 20
268.903766
 30
0.0
 11
200.59851
 21
251.192441
 31
0.0
  0
LINE
  5
401E
100
AcDbEntity
  8
0
100
AcDbLine
 10
224.59851
 20
268.903766
 30
0.0
 11
224.59851
 21
251.192441
 31
0.0
  0
LINE
  5
401F
100
AcDbEntity
  8
0
100
AcDbLine
 10
212.59851
 20
267.584746
 30
0.0
 11
212.59851
 21
251.192441
 31
0.0
  0
LINE
  5
4020
100
AcDbEntity
  8
0
100
AcDbLine
 10
230.59851
 20
248.192441
 30
0.0
 11
194.59851
 21
248.192441
 31
0.0
  0
LINE
  5
4021
100
AcDbEntity
  8
0
100
AcDbLine
 10
225.84851
 20
251.192441
 30
0.0
 11
199.34851
 21
251.192441
 31
0.0
  0
LINE
  5
4022
100
AcDbEntity
  8
0
100
AcDbLine
 10
229.59851
 20
249.192441
 30
0.0
 11
195.59851
 21
249.192441
 31
0.0
  0
ARC
  5
4023
100
AcDbEntity
  8
0
100
AcDbCircle
 10
197.34851
 20
251.192441
 30
0.0
 40
2.0
100
AcDbArc
 50
270.0
 51
0.0
  0
LINE
  5
4024
100
AcDbEntity
  8
0
100
AcDbLine
 10
195.59851
 20
249.192441
 30
0.0
 11
194.59851
 21
248.192441
 31
0.0
  0
ARC
  5
4025
100
AcDbEntity
  8
0
100
AcDbCircle
 10
227.84851
 20
251.192441
 30
0.0
 40
2.0
100
AcDbArc
 50
180.0
 51
270.0
  0
LINE
  5
4026
100
AcDbEntity
  8
0
100
AcDbLine
 10
230.59851
 20
248.192441
 30
0.0
 11
229.59851
 21
249.192441
 31
0.0
  0
ARC
  5
4027
100
AcDbEntity
  8
0
100
AcDbCircle
 10
222.586727
 20
231.960804
 30
0.0
 40
36.997698
100
AcDbArc
 50
86.882953
 51
105.662398
  0
LINE
  5
4028
100
AcDbEntity
  8
0
100
AcDbLine
 10
224.09851
 20
269.192441
 30
0.0
 11
201.09851
 21
269.192441
 31
0.0
  0
LINE
  5
4029
100
AcDbEntity
  8
0
100
AcDbLine
 10
201.09851
 20
269.192441
 30
0.0
 11
200.59851
 21
268.903766
 31
0.0
  0
ARC
  5
402A
100
AcDbEntity
  8
0
100
AcDbCircle
 10
202.610293
 20
231.960804
 30
0.0
 40
36.997698
100
AcDbArc
 50
74.337602
 51
93.117047
  0
LINE
  5
402B
100
AcDbEntity
  8
0
100
AcDbLine
 10
224.09851
 20
269.192441
 30
0.0
 11
224.59851
 21
268.903766
 31
0.0
  0
LINE
  5
402C
100
AcDbEntity
  8
0
100
AcDbLine
 10
281.149518
 20
226.849877
 30
0.0
 11
281.149518
 21
193.231924
 31
0.0
  0
LINE
  5
402D
100
AcDbEntity
  8
0
100
AcDbLine
 10
249.149518
 20
226.849877
 30
0.0
 11
249.149518
 21
193.231924
 31
0.0
  0
CIRCLE
  5
402E
100
AcDbEntity
  8
0
100
AcDbCircle
 10
331.947204
 20
210.192441
 30
0.0
 40
13.5
  0
CIRCLE
  5
402F
100
AcDbEntity
  8
0
100
AcDbCircle
 10
331.947204
 20
210.192441
 30
0.0
 40
12.836505
  0
CIRCLE
  5
4030
100
AcDbEntity
  8
0
100
AcDbCircle
 10
331.947204
 20
210.192441
 30
0.0
 40
18.5
  0
POLYLINE
  5
4031
100
AcDbEntity
  8
0
100
AcDb2dPolyline
 66
     1
 10
0.0
 20
0.0
 30
0.0
  0
VERTEX
  5
458B
100
AcDbEntity
  8
0
100
AcDbVertex
100
AcDb2dVertex
 10
312.947204
 20
219.136713
 30
0.0
  0
VERTEX
  5
458C
100
AcDbEntity
  8
0
100
AcDbVertex
100
AcDb2dVertex
 10
312.947204
 20
201.248169
 30
0.0
  0
SEQEND
  5
458D
100
AcDbEntity
  8
0
  0
POLYLINE
  5
4032
100
AcDbEntity
  8
0
100
AcDb2dPolyline
 66
     1
 10
0.0
 20
0.0
 30
0.0
  0
VERTEX
  5
458E
100
AcDbEntity
  8
0
100
AcDbVertex
100
AcDb2dVertex
 10
350.947204
 20
201.248169
 30
0.0
  0
VERTEX
  5
458F
100
AcDbEntity
  8
0
100
AcDbVertex
100
AcDb2dVertex
 10
350.947204
 20
219.136713
 30
0.0
  0
SEQEND
  5
4590
100
AcDbEntity
  8
0
  0
LINE
  5
4033
100
AcDbEntity
  8
0
100
AcDbLine
 10
387.891852
 20
223.028946
 30
0.0
 11
387.891852
 21
197.355936
 31
0.0
  0
ARC
  5
4034
100
AcDbEntity
  8
0
100
AcDbCircle
 10
258.399518
 20
184.349751
 30
0.0
 40
9.15731
100
AcDbArc
 50
231.804631
 51
308.195369
  0
LINE
  5
4035
100
AcDbEntity
  8
0
100
AcDbLine
 10
252.149518
 20
175.192441
 30
0.0
 11
251.649518
 21
177.152958
 31
0.0
  0
ARC
  5
4036
100
AcDbEntity
  8
0
100
AcDbCircle
 10
271.899518
 20
184.349751
 30
0.0
 40
9.15731
100
AcDbArc
 50
231.804631
 51
308.195369
  0
LINE
  5
4037
100
AcDbEntity
  8
0
100
AcDbLine
 10
278.149518
 20
175.192441
 30
0.0
 11
278.649518
 21
177.152958
 31
0.0
  0
LINE
  5
4038
100
AcDbEntity
  8
0
100
AcDbLine
 10
252.149518
 20
175.192441
 30
0.0
 11
278.149518
 21
175.192441
 31
0.0
  0
ARC
  5
4039
100
AcDbEntity
  8
0
100
AcDbCircle
 10
271.899518
 20
183.035131
 30
0.0
 40
9.15731
100
AcDbArc
 50
51.804631
 51
128.195369
  0
ARC
  5
403A
100
AcDbEntity
  8
0
100
AcDbCircle
 10
258.399518
 20
183.035131
 30
0.0
 40
9.15731
100
AcDbArc
 50
51.804631
 51
128.195369
  0
LINE
  5
403B
100
AcDbEntity
  8
0
100
AcDbLine
 10
251.649518
 20
190.231924
 30
0.0
 11
252.737142
 21
190.231924
 31
0.0
  0
LINE
  5
403C
100
AcDbEntity
  8
0
100
AcDbLine
 10
251.649518
 20
177.152958
 30
0.0
 11
252.737142
 21
177.152958
 31
0.0
  0
LINE
  5
403D
100
AcDbEntity
  8
0
100
AcDbLine
 10
252.737142
 20
177.152958
 30
0.0
 11
252.737142
 21
190.231924
 31
0.0
  0
LINE
  5
403E
100
AcDbEntity
  8
0
100
AcDbLine
 10
251.649518
 20
177.152958
 30
0.0
 11
251.649518
 21
190.731924
 31
0.0
  0
LINE
  5
403F
100
AcDbEntity
  8
0
100
AcDbLine
 10
264.061894
 20
190.231924
 30
0.0
 11
266.237142
 21
190.231924
 31
0.0
  0
LINE
  5
4040
100
AcDbEntity
  8
0
100
AcDbLine
 10
264.061894
 20
177.152958
 30
0.0
 11
266.237142
 21
177.152958
 31
0.0
  0
LINE
  5
4041
100
AcDbEntity
  8
0
100
AcDbLine
 10
266.237142
 20
177.152958
 30
0.0
 11
266.237142
 21
190.231924
 31
0.0
  0
LINE
  5
4042
100
AcDbEntity
  8
0
100
AcDbLine
 10
264.061894
 20
177.152958
 30
0.0
 11
264.061894
 21
190.231924
 31
0.0
  0
LINE
  5
4043
100
AcDbEntity
  8
0
100
AcDbLine
 10
251.649518
 20
190.731924
 30
0.0
 11
249.149518
 21
193.231924
 31
0.0
  0
LINE
  5
4044
100
AcDbEntity
  8
0
100
AcDbLine
 10
278.649518
 20
190.731924
 30
0.0
 11
281.149518
 21
193.231924
 31
0.0
  0
LINE
  5
4045
100
AcDbEntity
  8
0
100
AcDbLine
 10
278.649518
 20
177.152958
 30
0.0
 11
278.649518
 21
190.731924
 31
0.0
  0
LINE
  5
4046
100
AcDbEntity
  8
0
100
AcDbLine
 10
277.561894
 20
177.152958
 30
0.0
 11
277.561894
 21
190.231924
 31
0.0
  0
LINE
  5
4047
100
AcDbEntity
  8
0
100
AcDbLine
 10
277.561894
 20
190.231924
 30
0.0
 11
278.649518
 21
190.231924
 31
0.0
  0
LINE
  5
4048
100
AcDbEntity
  8
0
100
AcDbLine
 10
277.561894
 20
177.152958
 30
0.0
 11
278.649518
 21
177.152958
 31
0.0
  0
LINE
  5
4049
100
AcDbEntity
  8
0
100
AcDbLine
 10
315.947204
 20
171.593209
 30
0.0
 11
315.947204
 21
186.766239
 31
0.0
  0
LINE
  5
404A
100
AcDbEntity
  8
0
100
AcDbLine
 10
317.80819
 20
171.593209
 30
0.0
 11
317.80819
 21
186.766239
 31
0.0
  0
LINE
  5
404B
100
AcDbEntity
  8
0
100
AcDbLine
 10
330.086219
 20
171.593209
 30
0.0
 11
330.086219
 21
186.766239
 31
0.0
  0
LINE
  5
404C
100
AcDbEntity
  8
0
100
AcDbLine
 10
333.80819
 20
171.593209
 30
0.0
 11
333.80819
 21
186.766239
 31
0.0
  0
LINE
  5
404D
100
AcDbEntity
  8
0
100
AcDbLine
 10
347.947204
 20
171.593209
 30
0.0
 11
347.947204
 21
186.766239
 31
0.0
  0
LINE
  5
404E
100
AcDbEntity
  8
0
100
AcDbLine
 10
346.086219
 20
171.593209
 30
0.0
 11
346.086219
 21
186.766239
 31
0.0
  0
ARC
  5
404F
100
AcDbEntity
  8
0
100
AcDbCircle
 10
339.947204
 20
178.241875
 30
0.0
 40
9.049434
100
AcDbArc
 50
227.282309
 51
312.717691
  0
LINE
  5
4050
100
AcDbEntity
  8
0
100
AcDbLine
 10
346.947204
 20
169.192441
 30
0.0
 11
331.947204
 21
169.192441
 31
0.0
  0
LINE
  5
4051
100
AcDbEntity
  8
0
100
AcDbLine
 10
317.80819
 20
171.593209
 30
0.0
 11
315.947204
 21
171.593209
 31
0.0
  0
LINE
  5
4052
100
AcDbEntity
  8
0
100
AcDbLine
 10
316.947204
 20
169.192441
 30
0.0
 11
315.947204
 21
171.593209
 31
0.0
  0
LINE
  5
4053
100
AcDbEntity
  8
0
100
AcDbLine
 10
333.80819
 20
171.593209
 30
0.0
 11
330.086219
 21
171.593209
 31
0.0
  0
ARC
  5
4054
100
AcDbEntity
  8
0
100
AcDbCircle
 10
323.947204
 20
178.241875
 30
0.0
 40
9.049434
100
AcDbArc
 50
227.282309
 51
312.717691
  0
LINE
  5
4055
100
AcDbEntity
  8
0
100
AcDbLine
 10
316.947204
 20
169.192441
 30
0.0
 11
331.947204
 21
169.192441
 31
0.0
  0
LINE
  5
4056
100
AcDbEntity
  8
0
100
AcDbLine
 10
347.947204
 20
171.593209
 30
0.0
 11
346.086219
 21
171.593209
 31
0.0
  0
LINE
  5
4057
100
AcDbEntity
  8
0
100
AcDbLine
 10
346.947204
 20
169.192441
 30
0.0
 11
347.947204
 21
171.593209
 31
0.0
  0
ARC
  5
4058
100
AcDbEntity
  8
0
100
AcDbCircle
 10
339.947204
 20
180.117573
 30
0.0
 40
9.049434
100
AcDbArc
 50
47.282309
 51
132.717691
  0
POLYLINE
  5
4059
100
AcDbEntity
  8
0
100
AcDb2dPolyline
 66
     1
 10
0.0
 20
0.0
 30
0.0
  0
VERTEX
  5
4591
100
AcDbEntity
  8
0
100
AcDbVertex
100
AcDb2dVertex
 10
333.701238
 20
189.265822
 30
0.0
  0
VERTEX
  5
4592
100
AcDbEntity
  8
0
100
AcDbVertex
100
AcDb2dVertex
 10
349.193171
 20
198.210094
 30
0.0
  0
SEQEND
  5
4593
100
AcDbEntity
  8
0
  0
LINE
  5
405A
100
AcDbEntity
  8
0
100
AcDbLine
 10
315.947204
 20
189.192441
 30
0.0
 11
315.947204
 21
197.490735
 31
0.0
  0
POLYLINE
  5
405B
100
AcDbEntity
  8
0
100
AcDb2dPolyline
 66
     1
 10
0.0
 20
0.0
 30
0.0
  0
VERTEX
  5
4594
100
AcDbEntity
  8
0
100
AcDbVertex
100
AcDb2dVertex
 10
314.701238
 20
198.210094
 30
0.0
  0
VERTEX
  5
4595
100
AcDbEntity
  8
0
100
AcDbVertex
100
AcDb2dVertex
 10
330.193171
 20
189.265822
 30
0.0
  0
SEQEND
  5
4596
100
AcDbEntity
  8
0
  0
LINE
  5
405C
100
AcDbEntity
  8
0
100
AcDbLine
 10
317.80819
 20
186.766239
 30
0.0
 11
315.947204
 21
186.766239
 31
0.0
  0
LINE
  5
405D
100
AcDbEntity
  8
0
100
AcDbLine
 10
315.947204
 20
186.766239
 30
0.0
 11
315.947204
 21
189.192441
 31
0.0
  0
ARC
  5
405E
100
AcDbEntity
  8
0
100
AcDbCircle
 10
323.947204
 20
180.117573
 30
0.0
 40
9.049434
100
AcDbArc
 50
47.282309
 51
132.717691
  0
LINE
  5
405F
100
AcDbEntity
  8
0
100
AcDbLine
 10
333.80819
 20
186.766239
 30
0.0
 11
330.086219
 21
186.766239
 31
0.0
  0
ARC
  5
4060
100
AcDbEntity
  8
0
100
AcDbCircle
 10
331.947204
 20
210.192441
 30
0.0
 40
21.0
100
AcDbArc
 50
265.208765
 51
274.791235
  0
ARC
  5
4061
100
AcDbEntity
  8
0
100
AcDbCircle
 10
331.947204
 20
210.192441
 30
0.0
 40
21.0
100
AcDbArc
 50
205.208765
 51
214.791235
  0
LINE
  5
4062
100
AcDbEntity
  8
0
100
AcDbLine
 10
347.947204
 20
197.490735
 30
0.0
 11
347.947204
 21
189.192441
 31
0.0
  0
LINE
  5
4063
100
AcDbEntity
  8
0
100
AcDbLine
 10
347.947204
 20
186.766239
 30
0.0
 11
347.947204
 21
189.192441
 31
0.0
  0
LINE
  5
4064
100
AcDbEntity
  8
0
100
AcDbLine
 10
347.947204
 20
186.766239
 30
0.0
 11
346.086219
 21
186.766239
 31
0.0
  0
LINE
  5
4065
100
AcDbEntity
  8
0
100
AcDbLine
 10
371.797492
 20
208.541255
 30
0.0
 11
377.759812
 21
208.541255
 31
0.0
  0
LINE
  5
4066
100
AcDbEntity
  8
0
100
AcDbLine
 10
381.881092
 20
206.524535
 30
0.0
 11
361.713172
 21
206.524535
 31
0.0
  0
ARC
  5
4067
100
AcDbEntity
  8
0
100
AcDbCircle
 10
331.947204
 20
210.192441
 30
0.0
 40
21.0
100
AcDbArc
 50
325.208765
 51
334.791235
  0
LINE
  5
4068
100
AcDbEntity
  8
0
100
AcDbLine
 10
361.713172
 20
206.524535
 30
0.0
 11
357.679732
 21
210.557975
 31
0.0
  0
LINE
  5
4069
100
AcDbEntity
  8
0
100
AcDbLine
 10
357.679732
 20
210.557975
 30
0.0
 11
369.780052
 21
210.557975
 31
0.0
  0
LINE
  5
406A
100
AcDbEntity
  8
0
100
AcDbLine
 10
369.780052
 20
210.557975
 30
0.0
 11
371.797492
 21
208.541255
 31
0.0
  0
LINE
  5
406B
100
AcDbEntity
  8
0
100
AcDbLine
 10
377.759812
 20
208.541255
 30
0.0
 11
377.759812
 21
210.557975
 31
0.0
  0
LINE
  5
406C
100
AcDbEntity
  8
0
100
AcDbLine
 10
377.759812
 20
210.557975
 30
0.0
 11
381.881092
 21
206.524535
 31
0.0
  0
LINE
  5
406D
100
AcDbEntity
  8
0
100
AcDbLine
 10
283.149518
 20
248.192441
 30
0.0
 11
283.149518
 21
243.192441
 31
0.0
  0
LINE
  5
406E
100
AcDbEntity
  8
0
100
AcDbLine
 10
247.149518
 20
248.192441
 30
0.0
 11
247.149518
 21
243.192441
 31
0.0
  0
LINE
  5
406F
100
AcDbEntity
  8
0
100
AcDbLine
 10
283.149518
 20
238.192441
 30
0.0
 11
281.149518
 21
226.849877
 31
0.0
  0
LINE
  5
4070
100
AcDbEntity
  8
0
100
AcDbLine
 10
247.149518
 20
238.192441
 30
0.0
 11
249.149518
 21
226.849877
 31
0.0
  0
LINE
  5
4071
100
AcDbEntity
  8
0
100
AcDbLine
 10
247.149518
 20
238.192441
 30
0.0
 11
283.149518
 21
238.192441
 31
0.0
  0
LINE
  5
4072
100
AcDbEntity
  8
0
100
AcDbLine
 10
283.149518
 20
243.192441
 30
0.0
 11
247.149518
 21
243.192441
 31
0.0
  0
LINE
  5
4073
100
AcDbEntity
  8
0
100
AcDbLine
 10
247.149518
 20
243.192441
 30
0.0
 11
247.149518
 21
238.192441
 31
0.0
  0
LINE
  5
4074
100
AcDbEntity
  8
0
100
AcDbLine
 10
283.149518
 20
243.192441
 30
0.0
 11
283.149518
 21
238.192441
 31
0.0
  0
LINE
  5
4075
100
AcDbEntity
  8
0
100
AcDbLine
 10
278.350848
 20
268.903766
 30
0.0
 11
278.350848
 21
251.192441
 31
0.0
  0
LINE
  5
4076
100
AcDbEntity
  8
0
100
AcDbLine
 10
251.948188
 20
268.903766
 30
0.0
 11
251.948188
 21
251.192441
 31
0.0
  0
LINE
  5
4077
100
AcDbEntity
  8
0
100
AcDbLine
 10
258.464866
 20
267.584746
 30
0.0
 11
258.464866
 21
251.192441
 31
0.0
  0
LINE
  5
4078
100
AcDbEntity
  8
0
100
AcDbLine
 10
271.581671
 20
267.584746
 30
0.0
 11
271.581671
 21
251.192441
 31
0.0
  0
LINE
  5
4079
100
AcDbEntity
  8
0
100
AcDbLine
 10
265.149518
 20
267.584746
 30
0.0
 11
265.149518
 21
251.192441
 31
0.0
  0
LINE
  5
407A
100
AcDbEntity
  8
0
100
AcDbLine
 10
283.149518
 20
248.192441
 30
0.0
 11
247.149518
 21
248.192441
 31
0.0
  0
LINE
  5
407B
100
AcDbEntity
  8
0
100
AcDbLine
 10
282.149518
 20
249.192441
 30
0.0
 11
248.149518
 21
249.192441
 31
0.0
  0
LINE
  5
407C
100
AcDbEntity
  8
0
100
AcDbLine
 10
278.399518
 20
251.192441
 30
0.0
 11
251.899518
 21
251.192441
 31
0.0
  0
ARC
  5
407D
100
AcDbEntity
  8
0
100
AcDbCircle
 10
249.899518
 20
251.192441
 30
0.0
 40
2.0
100
AcDbArc
 50
270.0
 51
0.0
  0
LINE
  5
407E
100
AcDbEntity
  8
0
100
AcDbLine
 10
248.149518
 20
249.192441
 30
0.0
 11
247.149518
 21
248.192441
 31
0.0
  0
LINE
  5
407F
100
AcDbEntity
  8
0
100
AcDbLine
 10
283.149518
 20
248.192441
 30
0.0
 11
282.149518
 21
249.192441
 31
0.0
  0
ARC
  5
4080
100
AcDbEntity
  8
0
100
AcDbCircle
 10
280.399518
 20
251.192441
 30
0.0
 40
2.0
100
AcDbArc
 50
180.0
 51
270.0
  0
LINE
  5
4081
100
AcDbEntity
  8
0
100
AcDbLine
 10
253.649518
 20
269.192441
 30
0.0
 11
276.649518
 21
269.192441
 31
0.0
  0
ARC
  5
4082
100
AcDbEntity
  8
0
100
AcDbCircle
 10
265.023269
 20
253.088002
 30
0.0
 40
15.816268
100
AcDbArc
 50
65.501978
 51
114.498022
  0
ARC
  5
4083
100
AcDbEntity
  8
0
100
AcDbCircle
 10
255.206527
 20
264.019916
 30
0.0
 40
4.753089
100
AcDbArc
 50
46.723456
 51
133.276544
  0
LINE
  5
4084
100
AcDbEntity
  8
0
100
AcDbLine
 10
253.649518
 20
269.192441
 30
0.0
 11
251.948188
 21
268.903766
 31
0.0
  0
ARC
  5
4085
100
AcDbEntity
  8
0
100
AcDbCircle
 10
274.96626
 20
263.761177
 30
0.0
 40
5.028738
100
AcDbArc
 50
47.697147
 51
132.302853
  0
LINE
  5
4086
100
AcDbEntity
  8
0
100
AcDbLine
 10
276.649518
 20
269.192441
 30
0.0
 11
278.350848
 21
268.903766
 31
0.0
  0
LINE
  5
4087
100
AcDbEntity
  8
0
100
AcDbLine
 10
313.947204
 20
245.192441
 30
0.0
 11
313.947204
 21
240.192441
 31
0.0
  0
LINE
  5
4088
100
AcDbEntity
  8
0
100
AcDbLine
 10
349.947204
 20
245.192441
 30
0.0
 11
349.947204
 21
240.192441
 31
0.0
  0
POLYLINE
  5
4089
100
AcDbEntity
  8
0
100
AcDb2dPolyline
 66
     1
 10
0.0
 20
0.0
 30
0.0
  0
VERTEX
  5
4597
100
AcDbEntity
  8
0
100
AcDbVertex
100
AcDb2dVertex
 10
349.193171
 20
222.174788
 30
0.0
  0
VERTEX
  5
4598
100
AcDbEntity
  8
0
100
AcDbVertex
100
AcDb2dVertex
 10
333.701238
 20
231.11906
 30
0.0
  0
SEQEND
  5
4599
100
AcDbEntity
  8
0
  0
LINE
  5
408A
100
AcDbEntity
  8
0
100
AcDbLine
 10
313.947204
 20
240.192441
 30
0.0
 11
349.947204
 21
240.192441
 31
0.0
  0
LINE
  5
408B
100
AcDbEntity
  8
0
100
AcDbLine
 10
313.947204
 20
235.192441
 30
0.0
 11
349.947204
 21
235.192441
 31
0.0
  0
POLYLINE
  5
408C
100
AcDbEntity
  8
0
100
AcDb2dPolyline
 66
     1
 10
0.0
 20
0.0
 30
0.0
  0
VERTEX
  5
459A
100
AcDbEntity
  8
0
100
AcDbVertex
100
AcDb2dVertex
 10
330.193171
 20
231.11906
 30
0.0
  0
VERTEX
  5
459B
100
AcDbEntity
  8
0
100
AcDbVertex
100
AcDb2dVertex
 10
314.701238
 20
222.174788
 30
0.0
  0
SEQEND
  5
459C
100
AcDbEntity
  8
0
  0
LINE
  5
408D
100
AcDbEntity
  8
0
100
AcDbLine
 10
313.947204
 20
235.192441
 30
0.0
 11
315.947204
 21
223.849877
 31
0.0
  0
LINE
  5
408E
100
AcDbEntity
  8
0
100
AcDbLine
 10
315.947204
 20
222.894147
 30
0.0
 11
315.947204
 21
223.849877
 31
0.0
  0
ARC
  5
408F
100
AcDbEntity
  8
0
100
AcDbCircle
 10
331.947204
 20
210.192441
 30
0.0
 40
21.0
100
AcDbArc
 50
145.208765
 51
154.791235
  0
LINE
  5
4090
100
AcDbEntity
  8
0
100
AcDbLine
 10
313.947204
 20
240.192441
 30
0.0
 11
313.947204
 21
235.192441
 31
0.0
  0
ARC
  5
4091
100
AcDbEntity
  8
0
100
AcDbCircle
 10
331.947204
 20
210.192441
 30
0.0
 40
21.0
100
AcDbArc
 50
85.208765
 51
94.791235
  0
LINE
  5
4092
100
AcDbEntity
  8
0
100
AcDbLine
 10
349.947204
 20
235.192441
 30
0.0
 11
347.947204
 21
223.849877
 31
0.0
  0
ARC
  5
4093
100
AcDbEntity
  8
0
100
AcDbCircle
 10
331.947204
 20
210.192441
 30
0.0
 40
21.0
100
AcDbArc
 50
25.208765
 51
34.791235
  0
LINE
  5
4094
100
AcDbEntity
  8
0
100
AcDbLine
 10
347.947204
 20
223.849877
 30
0.0
 11
347.947204
 21
222.894147
 31
0.0
  0
LINE
  5
4095
100
AcDbEntity
  8
0
100
AcDbLine
 10
349.947204
 20
240.192441
 30
0.0
 11
349.947204
 21
235.192441
 31
0.0
  0
ARC
  5
4096
100
AcDbEntity
  8
0
100
AcDbCircle
 10
347.197204
 20
248.192441
 30
0.0
 40
2.0
100
AcDbArc
 50
180.0
 51
270.0
  0
LINE
  5
4097
100
AcDbEntity
  8
0
100
AcDbLine
 10
349.947204
 20
245.192441
 30
0.0
 11
313.947204
 21
245.192441
 31
0.0
  0
LINE
  5
4098
100
AcDbEntity
  8
0
100
AcDbLine
 10
348.947204
 20
246.192441
 30
0.0
 11
314.947204
 21
246.192441
 31
0.0
  0
LINE
  5
4099
100
AcDbEntity
  8
0
100
AcDbLine
 10
345.148535
 20
265.903766
 30
0.0
 11
345.148535
 21
248.192441
 31
0.0
  0
LINE
  5
409A
100
AcDbEntity
  8
0
100
AcDbLine
 10
338.379358
 20
264.584746
 30
0.0
 11
338.379358
 21
248.192441
 31
0.0
  0
LINE
  5
409B
100
AcDbEntity
  8
0
100
AcDbLine
 10
331.947204
 20
264.584746
 30
0.0
 11
331.947204
 21
248.192441
 31
0.0
  0
LINE
  5
409C
100
AcDbEntity
  8
0
100
AcDbLine
 10
318.745874
 20
265.903766
 30
0.0
 11
318.745874
 21
248.192441
 31
0.0
  0
LINE
  5
409D
100
AcDbEntity
  8
0
100
AcDbLine
 10
325.262553
 20
264.584746
 30
0.0
 11
325.262553
 21
248.192441
 31
0.0
  0
LINE
  5
409E
100
AcDbEntity
  8
0
100
AcDbLine
 10
314.947204
 20
246.192441
 30
0.0
 11
313.947204
 21
245.192441
 31
0.0
  0
ARC
  5
409F
100
AcDbEntity
  8
0
100
AcDbCircle
 10
316.697204
 20
248.192441
 30
0.0
 40
2.0
100
AcDbArc
 50
270.0
 51
0.0
  0
LINE
  5
40A0
100
AcDbEntity
  8
0
100
AcDbLine
 10
345.197204
 20
248.192441
 30
0.0
 11
318.697204
 21
248.192441
 31
0.0
  0
LINE
  5
40A1
100
AcDbEntity
  8
0
100
AcDbLine
 10
343.447204
 20
266.192441
 30
0.0
 11
345.148535
 21
265.903766
 31
0.0
  0
ARC
  5
40A2
100
AcDbEntity
  8
0
100
AcDbCircle
 10
322.004213
 20
261.019916
 30
0.0
 40
4.753089
100
AcDbArc
 50
46.723456
 51
133.276544
  0
LINE
  5
40A3
100
AcDbEntity
  8
0
100
AcDbLine
 10
320.447204
 20
266.192441
 30
0.0
 11
318.745874
 21
265.903766
 31
0.0
  0
ARC
  5
40A4
100
AcDbEntity
  8
0
100
AcDbCircle
 10
331.820955
 20
250.088002
 30
0.0
 40
15.816268
100
AcDbArc
 50
65.501978
 51
114.498022
  0
ARC
  5
40A5
100
AcDbEntity
  8
0
100
AcDbCircle
 10
341.763946
 20
260.761177
 30
0.0
 40
5.028738
100
AcDbArc
 50
47.697147
 51
132.302853
  0
LINE
  5
40A6
100
AcDbEntity
  8
0
100
AcDbLine
 10
320.447204
 20
266.192441
 30
0.0
 11
343.447204
 21
266.192441
 31
0.0
  0
LINE
  5
40A7
100
AcDbEntity
  8
0
100
AcDbLine
 10
349.947204
 20
245.192441
 30
0.0
 11
348.947204
 21
246.192441
 31
0.0
  0
ARC
  5
40A8
100
AcDbEntity
  8
0
100
AcDbCircle
 10
817.29721
 20
258.761177
 30
0.0
 40
5.028738
100
AcDbArc
 50
47.697147
 51
132.302853
  0
LINE
  5
40A9
100
AcDbEntity
  8
0
100
AcDbLine
 10
838.613952
 20
264.192441
 30
0.0
 11
815.613952
 21
264.192441
 31
0.0
  0
LINE
  5
40AA
100
AcDbEntity
  8
0
100
AcDbLine
 10
840.363952
 20
246.192441
 30
0.0
 11
813.863952
 21
246.192441
 31
0.0
  0
LINE
  5
40AB
100
AcDbEntity
  8
0
100
AcDbLine
 10
809.113952
 20
238.192441
 30
0.0
 11
845.113952
 21
238.192441
 31
0.0
  0
LINE
  5
40AC
100
AcDbEntity
  8
0
100
AcDbLine
 10
845.113952
 20
243.192441
 30
0.0
 11
809.113952
 21
243.192441
 31
0.0
  0
LINE
  5
40AD
100
AcDbEntity
  8
0
100
AcDbLine
 10
844.113952
 20
244.192441
 30
0.0
 11
810.113952
 21
244.192441
 31
0.0
  0
LINE
  5
40AE
100
AcDbEntity
  8
0
100
AcDbLine
 10
845.113952
 20
238.192441
 30
0.0
 11
809.113952
 21
238.192441
 31
0.0
  0
LINE
  5
40AF
100
AcDbEntity
  8
0
100
AcDbLine
 10
809.113952
 20
233.192441
 30
0.0
 11
845.113952
 21
233.192441
 31
0.0
  0
LINE
  5
40B0
100
AcDbEntity
  8
0
100
AcDbLine
 10
811.113952
 20
189.192441
 30
0.0
 11
843.113952
 21
189.192441
 31
0.0
  0
LINE
  5
40B1
100
AcDbEntity
  8
0
100
AcDbLine
 10
808.113952
 20
158.192441
 30
0.0
 11
827.113952
 21
158.192441
 31
0.0
  0
ARC
  5
40B2
100
AcDbEntity
  8
0
100
AcDbCircle
 10
816.863952
 20
169.156727
 30
0.0
 40
10.964286
100
AcDbArc
 50
222.904763
 51
317.095237
  0
ARC
  5
40B3
100
AcDbEntity
  8
0
100
AcDbCircle
 10
816.863952
 20
166.969825
 30
0.0
 40
10.964286
100
AcDbArc
 50
42.904763
 51
137.095237
  0
LINE
  5
40B4
100
AcDbEntity
  8
0
100
AcDbLine
 10
763.247538
 20
125.647217
 30
0.0
 11
763.247538
 21
145.815137
 31
0.0
  0
LINE
  5
40B5
100
AcDbEntity
  8
0
100
AcDbLine
 10
767.280978
 20
149.848577
 30
0.0
 11
767.280978
 21
137.748257
 31
0.0
  0
LINE
  5
40B6
100
AcDbEntity
  8
0
100
AcDbLine
 10
477.208531
 20
143.063398
 30
0.0
 11
473.175091
 21
138.942118
 31
0.0
  0
LINE
  5
40B7
100
AcDbEntity
  8
0
100
AcDbLine
 10
473.175091
 20
138.942118
 30
0.0
 11
473.175091
 21
159.110038
 31
0.0
  0
TEXT
  5
40B8
100
AcDbEntity
  8
0
100
AcDbText
 10
455.260377
 20
129.118372
 30
0.0
 40
5.0
  1
20A
 41
0.8
 72
     4
 11
460.59371
 21
131.618372
 31
0.0
100
AcDbText
  0
LINE
  5
40B9
100
AcDbEntity
  8
0
100
AcDbLine
 10
767.280978
 20
137.748257
 30
0.0
 11
765.264258
 21
135.730817
 31
0.0
  0
LINE
  5
40BA
100
AcDbEntity
  8
0
100
AcDbLine
 10
765.264258
 20
129.768497
 30
0.0
 11
767.280978
 21
129.768497
 31
0.0
  0
LINE
  5
40BB
100
AcDbEntity
  8
0
100
AcDbLine
 10
767.280978
 20
129.768497
 30
0.0
 11
763.247538
 21
125.647217
 31
0.0
  0
TEXT
  5
40BC
100
AcDbEntity
  8
0
100
AcDbText
 10
738.385109
 20
117.280826
 30
0.0
 40
5.0
  1
25A
 41
0.8
 72
     4
 11
743.718443
 21
119.780826
 31
0.0
100
AcDbText
  0
LINE
  5
40BD
100
AcDbEntity
  8
0
100
AcDbLine
 10
765.264258
 20
135.730817
 30
0.0
 11
765.264258
 21
129.768497
 31
0.0
  0
ARC
  5
40BE
100
AcDbEntity
  8
0
100
AcDbCircle
 10
591.209945
 20
259.019916
 30
0.0
 40
4.753089
100
AcDbArc
 50
46.723456
 51
133.276544
  0
LINE
  5
40BF
100
AcDbEntity
  8
0
100
AcDbLine
 10
587.902936
 20
246.192441
 30
0.0
 11
614.402936
 21
246.192441
 31
0.0
  0
LINE
  5
40C0
100
AcDbEntity
  8
0
100
AcDbLine
 10
589.652936
 20
264.192441
 30
0.0
 11
612.652936
 21
264.192441
 31
0.0
  0
POLYLINE
  5
40C1
100
AcDbEntity
  8
0
100
AcDb2dPolyline
 66
     1
 10
0.0
 20
0.0
 30
0.0
  0
VERTEX
  5
459D
100
AcDbEntity
  8
0
100
AcDbVertex
100
AcDb2dVertex
 10
597.81319
 20
235.977051
 30
0.0
  0
VERTEX
  5
459E
100
AcDbEntity
  8
0
100
AcDbVertex
100
AcDb2dVertex
 10
580.492682
 20
225.977051
 30
0.0
  0
SEQEND
  5
459F
100
AcDbEntity
  8
0
  0
LINE
  5
40C2
100
AcDbEntity
  8
0
100
AcDbLine
 10
619.152936
 20
238.192441
 30
0.0
 11
583.152936
 21
238.192441
 31
0.0
  0
LINE
  5
40C3
100
AcDbEntity
  8
0
100
AcDbLine
 10
583.152936
 20
238.192441
 30
0.0
 11
619.152936
 21
238.192441
 31
0.0
  0
LINE
  5
40C4
100
AcDbEntity
  8
0
100
AcDbLine
 10
583.152936
 20
243.192441
 30
0.0
 11
619.152936
 21
243.192441
 31
0.0
  0
LINE
  5
40C5
100
AcDbEntity
  8
0
100
AcDbLine
 10
584.152936
 20
244.192441
 30
0.0
 11
618.152936
 21
244.192441
 31
0.0
  0
POLYLINE
  5
40C6
100
AcDbEntity
  8
0
100
AcDb2dPolyline
 66
     1
 10
0.0
 20
0.0
 30
0.0
  0
VERTEX
  5
45A0
100
AcDbEntity
  8
0
100
AcDbVertex
100
AcDb2dVertex
 10
580.492682
 20
194.407831
 30
0.0
  0
VERTEX
  5
45A1
100
AcDbEntity
  8
0
100
AcDbVertex
100
AcDb2dVertex
 10
597.81319
 20
184.407831
 30
0.0
  0
SEQEND
  5
45A2
100
AcDbEntity
  8
0
  0
LINE
  5
40C7
100
AcDbEntity
  8
0
100
AcDbLine
 10
601.152936
 20
158.192441
 30
0.0
 11
582.152936
 21
158.192441
 31
0.0
  0
ARC
  5
40C8
100
AcDbEntity
  8
0
100
AcDbCircle
 10
590.902936
 20
169.156727
 30
0.0
 40
10.964286
100
AcDbArc
 50
222.904763
 51
317.095237
  0
ARC
  5
40C9
100
AcDbEntity
  8
0
100
AcDbCircle
 10
590.902936
 20
166.969825
 30
0.0
 40
10.964286
100
AcDbArc
 50
42.904763
 51
137.095237
  0
CIRCLE
  5
40CA
100
AcDbEntity
  8
0
100
AcDbCircle
 10
601.152936
 20
210.192441
 30
0.0
 40
16.3125
  0
CIRCLE
  5
40CB
100
AcDbEntity
  8
0
100
AcDbCircle
 10
601.152936
 20
210.192441
 30
0.0
 40
17.0
  0
CIRCLE
  5
40CC
100
AcDbEntity
  8
0
100
AcDbCircle
 10
601.152936
 20
210.192441
 30
0.0
 40
23.0
  0
POLYLINE
  5
40CD
100
AcDbEntity
  8
0
100
AcDb2dPolyline
 66
     1
 10
0.0
 20
0.0
 30
0.0
  0
VERTEX
  5
45A3
100
AcDbEntity
  8
0
100
AcDbVertex
100
AcDb2dVertex
 10
577.152936
 20
220.192441
 30
0.0
  0
VERTEX
  5
45A4
100
AcDbEntity
  8
0
100
AcDbVertex
100
AcDb2dVertex
 10
577.152936
 20
200.192441
 30
0.0
  0
SEQEND
  5
45A5
100
AcDbEntity
  8
0
  0
LINE
  5
40CE
100
AcDbEntity
  8
0
100
AcDbLine
 10
545.236126
 20
223.849877
 30
0.0
 11
545.236126
 21
189.192441
 31
0.0
  0
LINE
  5
40CF
100
AcDbEntity
  8
0
100
AcDbLine
 10
513.236126
 20
189.192441
 30
0.0
 11
513.236126
 21
223.849877
 31
0.0
  0
POLYLINE
  5
40D0
100
AcDbEntity
  8
0
100
AcDb2dPolyline
 66
     1
 10
0.0
 20
0.0
 30
0.0
  0
VERTEX
  5
45A6
100
AcDbEntity
  8
0
100
AcDbVertex
100
AcDb2dVertex
 10
548.236126
 20
201.248169
 30
0.0
  0
VERTEX
  5
45A7
100
AcDbEntity
  8
0
100
AcDbVertex
100
AcDb2dVertex
 10
548.236126
 20
219.136713
 30
0.0
  0
SEQEND
  5
45A8
100
AcDbEntity
  8
0
  0
ARC
  5
40D1
100
AcDbEntity
  8
0
100
AcDbCircle
 10
529.236126
 20
210.192441
 30
0.0
 40
18.5
100
AcDbArc
 50
329.867278
 51
30.132722
  0
POLYLINE
  5
40D2
100
AcDbEntity
  8
0
100
AcDb2dPolyline
 66
     1
 10
0.0
 20
0.0
 30
0.0
  0
VERTEX
  5
45A9
100
AcDbEntity
  8
0
100
AcDbVertex
100
AcDb2dVertex
 10
510.236126
 20
219.136713
 30
0.0
  0
VERTEX
  5
45AA
100
AcDbEntity
  8
0
100
AcDbVertex
100
AcDb2dVertex
 10
510.236126
 20
201.248169
 30
0.0
  0
SEQEND
  5
45AB
100
AcDbEntity
  8
0
  0
ARC
  5
40D3
100
AcDbEntity
  8
0
100
AcDbCircle
 10
529.236126
 20
210.192441
 30
0.0
 40
18.5
100
AcDbArc
 50
149.867278
 51
210.132722
  0
ARC
  5
40D4
100
AcDbEntity
  8
0
100
AcDbCircle
 10
422.640495
 20
210.192441
 30
0.0
 40
29.251358
100
AcDbArc
 50
342.195332
 51
17.804668
  0
ARC
  5
40D5
100
AcDbEntity
  8
0
100
AcDbCircle
 10
462.14321
 20
210.192441
 30
0.0
 40
29.251358
100
AcDbArc
 50
162.195332
 51
197.804668
  0
LINE
  5
40D6
100
AcDbEntity
  8
0
100
AcDbLine
 10
432.891852
 20
191.692441
 30
0.0
 11
432.891852
 21
228.692441
 31
0.0
  0
LINE
  5
40D7
100
AcDbEntity
  8
0
100
AcDbLine
 10
451.891852
 20
191.692441
 30
0.0
 11
451.891852
 21
228.692441
 31
0.0
  0
LINE
  5
40D8
100
AcDbEntity
  8
0
100
AcDbLine
 10
430.391852
 20
223.692441
 30
0.0
 11
430.391852
 21
196.692441
 31
0.0
  0
LINE
  5
40D9
100
AcDbEntity
  8
0
100
AcDbLine
 10
413.391852
 20
223.692441
 30
0.0
 11
413.391852
 21
196.692441
 31
0.0
  0
LINE
  5
40DA
100
AcDbEntity
  8
0
100
AcDbLine
 10
406.891852
 20
223.692441
 30
0.0
 11
406.891852
 21
196.692441
 31
0.0
  0
ARC
  5
40DB
100
AcDbEntity
  8
0
100
AcDbCircle
 10
446.362738
 20
209.856423
 30
0.0
 40
20.344312
100
AcDbArc
 50
313.907802
 51
47.984941
  0
LINE
  5
40DC
100
AcDbEntity
  8
0
100
AcDbLine
 10
490.891852
 20
223.849877
 30
0.0
 11
490.891852
 21
189.192441
 31
0.0
  0
LINE
  5
40DD
100
AcDbEntity
  8
0
100
AcDbLine
 10
515.097111
 20
186.766239
 30
0.0
 11
513.236126
 21
186.766239
 31
0.0
  0
LINE
  5
40DE
100
AcDbEntity
  8
0
100
AcDbLine
 10
514.236126
 20
169.192441
 30
0.0
 11
529.236126
 21
169.192441
 31
0.0
  0
LINE
  5
40DF
100
AcDbEntity
  8
0
100
AcDbLine
 10
515.097111
 20
171.593209
 30
0.0
 11
513.236126
 21
171.593209
 31
0.0
  0
LINE
  5
40E0
100
AcDbEntity
  8
0
100
AcDbLine
 10
513.236126
 20
171.593209
 30
0.0
 11
513.236126
 21
186.766239
 31
0.0
  0
LINE
  5
40E1
100
AcDbEntity
  8
0
100
AcDbLine
 10
464.579808
 20
171.593209
 30
0.0
 11
464.579808
 21
186.766239
 31
0.0
  0
LINE
  5
40E2
100
AcDbEntity
  8
0
100
AcDbLine
 10
467.803129
 20
171.593209
 30
0.0
 11
467.803129
 21
186.766239
 31
0.0
  0
LINE
  5
40E3
100
AcDbEntity
  8
0
100
AcDbLine
 10
481.980576
 20
171.593209
 30
0.0
 11
481.980576
 21
186.766239
 31
0.0
  0
LINE
  5
40E4
100
AcDbEntity
  8
0
100
AcDbLine
 10
485.203897
 20
171.593209
 30
0.0
 11
485.203897
 21
186.766239
 31
0.0
  0
LINE
  5
40E5
100
AcDbEntity
  8
0
100
AcDbLine
 10
492.292621
 20
171.593209
 30
0.0
 11
492.292621
 21
186.766239
 31
0.0
  0
LINE
  5
40E6
100
AcDbEntity
  8
0
100
AcDbLine
 10
457.491084
 20
171.593209
 30
0.0
 11
457.491084
 21
186.766239
 31
0.0
  0
LINE
  5
40E7
100
AcDbEntity
  8
0
100
AcDbLine
 10
459.891852
 20
169.192441
 30
0.0
 11
474.891852
 21
169.192441
 31
0.0
  0
ARC
  5
40E8
100
AcDbEntity
  8
0
100
AcDbCircle
 10
461.035446
 20
173.09521
 30
0.0
 40
3.849482
100
AcDbArc
 50
202.965873
 51
337.034127
  0
LINE
  5
40E9
100
AcDbEntity
  8
0
100
AcDbLine
 10
459.891852
 20
169.192441
 30
0.0
 11
457.491084
 21
171.593209
 31
0.0
  0
LINE
  5
40EA
100
AcDbEntity
  8
0
100
AcDbLine
 10
473.175091
 20
159.110038
 30
0.0
 11
477.208531
 21
163.143478
 31
0.0
  0
LINE
  5
40EB
100
AcDbEntity
  8
0
100
AcDbLine
 10
477.208531
 20
163.143478
 30
0.0
 11
477.208531
 21
151.043158
 31
0.0
  0
LINE
  5
40EC
100
AcDbEntity
  8
0
100
AcDbLine
 10
475.191811
 20
149.025718
 30
0.0
 11
475.191811
 21
143.063398
 31
0.0
  0
LINE
  5
40ED
100
AcDbEntity
  8
0
100
AcDbLine
 10
475.191811
 20
143.063398
 30
0.0
 11
477.208531
 21
143.063398
 31
0.0
  0
LINE
  5
40EE
100
AcDbEntity
  8
0
100
AcDbLine
 10
477.208531
 20
151.043158
 30
0.0
 11
475.191811
 21
149.025718
 31
0.0
  0
ARC
  5
40EF
100
AcDbEntity
  8
0
100
AcDbCircle
 10
488.748259
 20
173.009175
 30
0.0
 40
3.816734
100
AcDbArc
 50
201.776618
 51
338.223382
  0
LINE
  5
40F0
100
AcDbEntity
  8
0
100
AcDbLine
 10
489.891852
 20
169.192441
 30
0.0
 11
492.292621
 21
171.593209
 31
0.0
  0
ARC
  5
40F1
100
AcDbEntity
  8
0
100
AcDbCircle
 10
474.891852
 20
180.858225
 30
0.0
 40
11.665784
100
AcDbArc
 50
232.580165
 51
307.419835
  0
LINE
  5
40F2
100
AcDbEntity
  8
0
100
AcDbLine
 10
467.803129
 20
171.593209
 30
0.0
 11
464.579808
 21
171.593209
 31
0.0
  0
LINE
  5
40F3
100
AcDbEntity
  8
0
100
AcDbLine
 10
485.203897
 20
171.593209
 30
0.0
 11
481.980576
 21
171.593209
 31
0.0
  0
LINE
  5
40F4
100
AcDbEntity
  8
0
100
AcDbLine
 10
489.891852
 20
169.192441
 30
0.0
 11
474.891852
 21
169.192441
 31
0.0
  0
LINE
  5
40F5
100
AcDbEntity
  8
0
100
AcDbLine
 10
514.236126
 20
169.192441
 30
0.0
 11
513.236126
 21
171.593209
 31
0.0
  0
ARC
  5
40F6
100
AcDbEntity
  8
0
100
AcDbCircle
 10
461.035446
 20
185.264238
 30
0.0
 40
3.849482
100
AcDbArc
 50
22.965873
 51
157.034127
  0
ARC
  5
40F7
100
AcDbEntity
  8
0
100
AcDbCircle
 10
440.73007
 20
193.737958
 30
0.0
 40
7.838218
100
AcDbArc
 50
145.211049
 51
214.788951
  0
ARC
  5
40F8
100
AcDbEntity
  8
0
100
AcDbCircle
 10
444.053635
 20
193.737958
 30
0.0
 40
7.838218
100
AcDbArc
 50
325.211049
 51
34.788951
  0
ARC
  5
40F9
100
AcDbEntity
  8
0
100
AcDbCircle
 10
454.891852
 20
193.692441
 30
0.0
 40
3.0
100
AcDbArc
 50
90.0
 51
180.0
  0
ARC
  5
40FA
100
AcDbEntity
  8
0
100
AcDbCircle
 10
455.891852
 20
193.692441
 30
0.0
 40
3.0
100
AcDbArc
 50
0.0
 51
90.0
  0
LINE
  5
40FB
100
AcDbEntity
  8
0
100
AcDbLine
 10
450.490844
 20
189.265822
 30
0.0
 11
434.292861
 21
189.265822
 31
0.0
  0
LINE
  5
40FC
100
AcDbEntity
  8
0
100
AcDbLine
 10
432.891852
 20
191.692441
 30
0.0
 11
434.292861
 21
189.265822
 31
0.0
  0
LINE
  5
40FD
100
AcDbEntity
  8
0
100
AcDbLine
 10
451.891852
 20
191.692441
 30
0.0
 11
450.490844
 21
189.265822
 31
0.0
  0
LINE
  5
40FE
100
AcDbEntity
  8
0
100
AcDbLine
 10
458.891852
 20
189.192441
 30
0.0
 11
458.891852
 21
193.692441
 31
0.0
  0
LINE
  5
40FF
100
AcDbEntity
  8
0
100
AcDbLine
 10
457.491084
 20
177.934111
 30
0.0
 11
457.495766
 21
177.934111
 31
0.0
  0
LINE
  5
4100
100
AcDbEntity
  8
0
100
AcDbLine
 10
457.491084
 20
186.766239
 30
0.0
 11
458.891852
 21
189.192441
 31
0.0
  0
LINE
  5
4101
100
AcDbEntity
  8
0
100
AcDbLine
 10
406.891852
 20
196.692441
 30
0.0
 11
432.891852
 21
196.692441
 31
0.0
  0
LINE
  5
4102
100
AcDbEntity
  8
0
100
AcDbLine
 10
413.391852
 20
202.892465
 30
0.0
 11
430.391852
 21
202.892465
 31
0.0
  0
LINE
  5
4103
100
AcDbEntity
  8
0
100
AcDbLine
 10
413.391852
 20
204.007782
 30
0.0
 11
430.391852
 21
204.007782
 31
0.0
  0
LINE
  5
4104
100
AcDbEntity
  8
0
100
AcDbLine
 10
450.490844
 20
201.248169
 30
0.0
 11
434.292861
 21
201.248169
 31
0.0
  0
LINE
  5
4105
100
AcDbEntity
  8
0
100
AcDbLine
 10
450.490844
 20
198.210094
 30
0.0
 11
434.292861
 21
198.210094
 31
0.0
  0
LINE
  5
4106
100
AcDbEntity
  8
0
100
AcDbLine
 10
434.292861
 20
198.210094
 30
0.0
 11
434.292861
 21
201.248169
 31
0.0
  0
LINE
  5
4107
100
AcDbEntity
  8
0
100
AcDbLine
 10
450.490844
 20
198.210094
 30
0.0
 11
450.490844
 21
201.248169
 31
0.0
  0
LINE
  5
4108
100
AcDbEntity
  8
0
100
AcDbLine
 10
454.891852
 20
196.692441
 30
0.0
 11
455.891852
 21
196.692441
 31
0.0
  0
ARC
  5
4109
100
AcDbEntity
  8
0
100
AcDbCircle
 10
488.748259
 20
185.350273
 30
0.0
 40
3.816734
100
AcDbArc
 50
21.776618
 51
158.223382
  0
LINE
  5
410A
100
AcDbEntity
  8
0
100
AcDbLine
 10
467.803129
 20
186.766239
 30
0.0
 11
464.579808
 21
186.766239
 31
0.0
  0
LINE
  5
410B
100
AcDbEntity
  8
0
100
AcDbLine
 10
485.203897
 20
186.766239
 30
0.0
 11
481.980576
 21
186.766239
 31
0.0
  0
ARC
  5
410C
100
AcDbEntity
  8
0
100
AcDbCircle
 10
474.891852
 20
177.501223
 30
0.0
 40
11.665784
100
AcDbArc
 50
52.580165
 51
127.419835
  0
LINE
  5
410D
100
AcDbEntity
  8
0
100
AcDbLine
 10
513.236126
 20
186.766239
 30
0.0
 11
513.236126
 21
189.192441
 31
0.0
  0
LINE
  5
410E
100
AcDbEntity
  8
0
100
AcDbLine
 10
492.287939
 20
177.934111
 30
0.0
 11
492.292621
 21
177.934111
 31
0.0
  0
LINE
  5
410F
100
AcDbEntity
  8
0
100
AcDbLine
 10
492.292621
 20
186.766239
 30
0.0
 11
490.891852
 21
189.192441
 31
0.0
  0
ARC
  5
4110
100
AcDbEntity
  8
0
100
AcDbCircle
 10
529.236126
 20
210.192441
 30
0.0
 40
21.0
100
AcDbArc
 50
205.208765
 51
214.791235
  0
POLYLINE
  5
4111
100
AcDbEntity
  8
0
100
AcDb2dPolyline
 66
     1
 10
0.0
 20
0.0
 30
0.0
  0
VERTEX
  5
45AC
100
AcDbEntity
  8
0
100
AcDbVertex
100
AcDb2dVertex
 10
511.990159
 20
198.210094
 30
0.0
  0
VERTEX
  5
45AD
100
AcDbEntity
  8
0
100
AcDbVertex
100
AcDb2dVertex
 10
513.236126
 20
197.490735
 30
0.0
  0
SEQEND
  5
45AE
100
AcDbEntity
  8
0
  0
LINE
  5
4112
100
AcDbEntity
  8
0
100
AcDbLine
 10
580.652936
 20
181.398212
 30
0.0
 11
580.652936
 21
161.692441
 31
0.0
  0
LINE
  5
4113
100
AcDbEntity
  8
0
100
AcDbLine
 10
515.097111
 20
171.593209
 30
0.0
 11
515.097111
 21
186.766239
 31
0.0
  0
LINE
  5
4114
100
AcDbEntity
  8
0
100
AcDbLine
 10
527.37514
 20
171.593209
 30
0.0
 11
527.37514
 21
186.766239
 31
0.0
  0
LINE
  5
4115
100
AcDbEntity
  8
0
100
AcDbLine
 10
531.097111
 20
171.593209
 30
0.0
 11
531.097111
 21
186.766239
 31
0.0
  0
LINE
  5
4116
100
AcDbEntity
  8
0
100
AcDbLine
 10
543.37514
 20
171.593209
 30
0.0
 11
543.37514
 21
186.766239
 31
0.0
  0
LINE
  5
4117
100
AcDbEntity
  8
0
100
AcDbLine
 10
545.236126
 20
171.593209
 30
0.0
 11
545.236126
 21
186.766239
 31
0.0
  0
LINE
  5
4118
100
AcDbEntity
  8
0
100
AcDbLine
 10
545.236126
 20
171.593209
 30
0.0
 11
543.37514
 21
171.593209
 31
0.0
  0
LINE
  5
4119
100
AcDbEntity
  8
0
100
AcDbLine
 10
544.236126
 20
169.192441
 30
0.0
 11
529.236126
 21
169.192441
 31
0.0
  0
ARC
  5
411A
100
AcDbEntity
  8
0
100
AcDbCircle
 10
537.236126
 20
178.241875
 30
0.0
 40
9.049434
100
AcDbArc
 50
227.282309
 51
312.717691
  0
ARC
  5
411B
100
AcDbEntity
  8
0
100
AcDbCircle
 10
521.236126
 20
178.241875
 30
0.0
 40
9.049434
100
AcDbArc
 50
227.282309
 51
312.717691
  0
LINE
  5
411C
100
AcDbEntity
  8
0
100
AcDbLine
 10
531.097111
 20
171.593209
 30
0.0
 11
527.37514
 21
171.593209
 31
0.0
  0
LINE
  5
411D
100
AcDbEntity
  8
0
100
AcDbLine
 10
544.236126
 20
169.192441
 30
0.0
 11
545.236126
 21
171.593209
 31
0.0
  0
LINE
  5
411E
100
AcDbEntity
  8
0
100
AcDbLine
 10
582.152936
 20
158.192441
 30
0.0
 11
580.652936
 21
161.692441
 31
0.0
  0
LINE
  5
411F
100
AcDbEntity
  8
0
100
AcDbLine
 10
582.871747
 20
174.434111
 30
0.0
 11
580.652936
 21
174.434111
 31
0.0
  0
LINE
  5
4120
100
AcDbEntity
  8
0
100
AcDbLine
 10
582.871747
 20
161.692441
 30
0.0
 11
580.652936
 21
161.692441
 31
0.0
  0
LINE
  5
4121
100
AcDbEntity
  8
0
100
AcDbLine
 10
582.871747
 20
161.692441
 30
0.0
 11
582.871747
 21
174.434111
 31
0.0
  0
LINE
  5
4122
100
AcDbEntity
  8
0
100
AcDbLine
 10
545.236126
 20
186.766239
 30
0.0
 11
543.37514
 21
186.766239
 31
0.0
  0
ARC
  5
4123
100
AcDbEntity
  8
0
100
AcDbCircle
 10
537.236126
 20
180.117573
 30
0.0
 40
9.049434
100
AcDbArc
 50
47.282309
 51
132.717691
  0
ARC
  5
4124
100
AcDbEntity
  8
0
100
AcDbCircle
 10
521.236126
 20
180.117573
 30
0.0
 40
9.049434
100
AcDbArc
 50
47.282309
 51
132.717691
  0
LINE
  5
4125
100
AcDbEntity
  8
0
100
AcDbLine
 10
531.097111
 20
186.766239
 30
0.0
 11
527.37514
 21
186.766239
 31
0.0
  0
LINE
  5
4126
100
AcDbEntity
  8
0
100
AcDbLine
 10
545.236126
 20
186.766239
 30
0.0
 11
545.236126
 21
189.192441
 31
0.0
  0
ARC
  5
4127
100
AcDbEntity
  8
0
100
AcDbCircle
 10
529.236126
 20
210.192441
 30
0.0
 40
21.0
100
AcDbArc
 50
325.208765
 51
334.791235
  0
POLYLINE
  5
4128
100
AcDbEntity
  8
0
100
AcDb2dPolyline
 66
     1
 10
0.0
 20
0.0
 30
0.0
  0
VERTEX
  5
45AF
100
AcDbEntity
  8
0
100
AcDbVertex
100
AcDb2dVertex
 10
545.236126
 20
197.490735
 30
0.0
  0
VERTEX
  5
45B0
100
AcDbEntity
  8
0
100
AcDbVertex
100
AcDb2dVertex
 10
546.482092
 20
198.210094
 30
0.0
  0
SEQEND
  5
45B1
100
AcDbEntity
  8
0
  0
LINE
  5
4129
100
AcDbEntity
  8
0
100
AcDbLine
 10
589.526003
 20
189.192441
 30
0.0
 11
585.152936
 21
189.192441
 31
0.0
  0
LINE
  5
412A
100
AcDbEntity
  8
0
100
AcDbLine
 10
585.152936
 20
191.717232
 30
0.0
 11
585.152936
 21
189.192441
 31
0.0
  0
LINE
  5
412B
100
AcDbEntity
  8
0
100
AcDbLine
 10
580.652936
 20
181.398212
 30
0.0
 11
585.152936
 21
189.192441
 31
0.0
  0
ARC
  5
412C
100
AcDbEntity
  8
0
100
AcDbCircle
 10
601.152936
 20
210.192441
 30
0.0
 40
26.0
100
AcDbArc
 50
202.619865
 51
217.380135
  0
ARC
  5
412D
100
AcDbEntity
  8
0
100
AcDbCircle
 10
513.986126
 20
248.192441
 30
0.0
 40
2.0
100
AcDbArc
 50
270.0
 51
0.0
  0
LINE
  5
412E
100
AcDbEntity
  8
0
100
AcDbLine
 10
546.236126
 20
246.192441
 30
0.0
 11
512.236126
 21
246.192441
 31
0.0
  0
LINE
  5
412F
100
AcDbEntity
  8
0
100
AcDbLine
 10
547.236126
 20
245.192441
 30
0.0
 11
511.236126
 21
245.192441
 31
0.0
  0
LINE
  5
4130
100
AcDbEntity
  8
0
100
AcDbLine
 10
511.236126
 20
235.192441
 30
0.0
 11
547.236126
 21
235.192441
 31
0.0
  0
LINE
  5
4131
100
AcDbEntity
  8
0
100
AcDbLine
 10
511.236126
 20
240.192441
 30
0.0
 11
547.236126
 21
240.192441
 31
0.0
  0
LINE
  5
4132
100
AcDbEntity
  8
0
100
AcDbLine
 10
511.236126
 20
245.192441
 30
0.0
 11
511.236126
 21
240.192441
 31
0.0
  0
LINE
  5
4133
100
AcDbEntity
  8
0
100
AcDbLine
 10
492.891852
 20
245.192441
 30
0.0
 11
492.891852
 21
240.192441
 31
0.0
  0
LINE
  5
4134
100
AcDbEntity
  8
0
100
AcDbLine
 10
456.891852
 20
245.192441
 30
0.0
 11
456.891852
 21
240.192441
 31
0.0
  0
LINE
  5
4135
100
AcDbEntity
  8
0
100
AcDbLine
 10
456.891852
 20
235.192441
 30
0.0
 11
492.891852
 21
235.192441
 31
0.0
  0
LINE
  5
4136
100
AcDbEntity
  8
0
100
AcDbLine
 10
456.891852
 20
240.192441
 30
0.0
 11
492.891852
 21
240.192441
 31
0.0
  0
LINE
  5
4137
100
AcDbEntity
  8
0
100
AcDbLine
 10
456.891852
 20
235.192441
 30
0.0
 11
458.298775
 21
227.213385
 31
0.0
  0
ARC
  5
4138
100
AcDbEntity
  8
0
100
AcDbCircle
 10
444.053635
 20
226.646924
 30
0.0
 40
7.838218
100
AcDbArc
 50
325.211049
 51
34.788951
  0
ARC
  5
4139
100
AcDbEntity
  8
0
100
AcDbCircle
 10
440.73007
 20
226.646924
 30
0.0
 40
7.838218
100
AcDbArc
 50
145.211049
 51
214.788951
  0
LINE
  5
413A
100
AcDbEntity
  8
0
100
AcDbLine
 10
406.891852
 20
223.692441
 30
0.0
 11
432.891852
 21
223.692441
 31
0.0
  0
LINE
  5
413B
100
AcDbEntity
  8
0
100
AcDbLine
 10
413.391852
 20
216.377099
 30
0.0
 11
430.391852
 21
216.377099
 31
0.0
  0
LINE
  5
413C
100
AcDbEntity
  8
0
100
AcDbLine
 10
413.391852
 20
217.492417
 30
0.0
 11
430.391852
 21
217.492417
 31
0.0
  0
ARC
  5
413D
100
AcDbEntity
  8
0
100
AcDbCircle
 10
454.891852
 20
226.692441
 30
0.0
 40
3.0
100
AcDbArc
 50
180.0
 51
270.0
  0
ARC
  5
413E
100
AcDbEntity
  8
0
100
AcDbCircle
 10
455.344352
 20
226.692441
 30
0.0
 40
3.0
100
AcDbArc
 50
270.0
 51
10.0
  0
LINE
  5
413F
100
AcDbEntity
  8
0
100
AcDbLine
 10
454.891852
 20
223.692441
 30
0.0
 11
455.344352
 21
223.692441
 31
0.0
  0
LINE
  5
4140
100
AcDbEntity
  8
0
100
AcDbLine
 10
450.490844
 20
222.174788
 30
0.0
 11
434.292861
 21
222.174788
 31
0.0
  0
LINE
  5
4141
100
AcDbEntity
  8
0
100
AcDbLine
 10
450.490844
 20
219.136713
 30
0.0
 11
434.292861
 21
219.136713
 31
0.0
  0
LINE
  5
4142
100
AcDbEntity
  8
0
100
AcDbLine
 10
434.292861
 20
219.136713
 30
0.0
 11
434.292861
 21
222.174788
 31
0.0
  0
LINE
  5
4143
100
AcDbEntity
  8
0
100
AcDbLine
 10
450.490844
 20
219.136713
 30
0.0
 11
450.490844
 21
222.174788
 31
0.0
  0
LINE
  5
4144
100
AcDbEntity
  8
0
100
AcDbLine
 10
450.490844
 20
231.11906
 30
0.0
 11
434.292861
 21
231.11906
 31
0.0
  0
LINE
  5
4145
100
AcDbEntity
  8
0
100
AcDbLine
 10
432.891852
 20
228.692441
 30
0.0
 11
434.292861
 21
231.11906
 31
0.0
  0
LINE
  5
4146
100
AcDbEntity
  8
0
100
AcDbLine
 10
451.891852
 20
228.692441
 30
0.0
 11
450.490844
 21
231.11906
 31
0.0
  0
LINE
  5
4147
100
AcDbEntity
  8
0
100
AcDbLine
 10
456.891852
 20
240.192441
 30
0.0
 11
456.891852
 21
235.192441
 31
0.0
  0
LINE
  5
4148
100
AcDbEntity
  8
0
100
AcDbLine
 10
511.236126
 20
235.192441
 30
0.0
 11
513.236126
 21
223.849877
 31
0.0
  0
LINE
  5
4149
100
AcDbEntity
  8
0
100
AcDbLine
 10
492.891852
 20
235.192441
 30
0.0
 11
490.891852
 21
223.849877
 31
0.0
  0
POLYLINE
  5
414A
100
AcDbEntity
  8
0
100
AcDb2dPolyline
 66
     1
 10
0.0
 20
0.0
 30
0.0
  0
VERTEX
  5
45B2
100
AcDbEntity
  8
0
100
AcDbVertex
100
AcDb2dVertex
 10
513.236126
 20
222.894147
 30
0.0
  0
VERTEX
  5
45B3
100
AcDbEntity
  8
0
100
AcDbVertex
100
AcDb2dVertex
 10
511.990159
 20
222.174788
 30
0.0
  0
SEQEND
  5
45B4
100
AcDbEntity
  8
0
  0
ARC
  5
414B
100
AcDbEntity
  8
0
100
AcDbCircle
 10
529.236126
 20
210.192441
 30
0.0
 40
21.0
100
AcDbArc
 50
145.208765
 51
154.791235
  0
LINE
  5
414C
100
AcDbEntity
  8
0
100
AcDbLine
 10
511.236126
 20
240.192441
 30
0.0
 11
511.236126
 21
235.192441
 31
0.0
  0
LINE
  5
414D
100
AcDbEntity
  8
0
100
AcDbLine
 10
492.891852
 20
240.192441
 30
0.0
 11
492.891852
 21
235.192441
 31
0.0
  0
LINE
  5
414E
100
AcDbEntity
  8
0
100
AcDbLine
 10
491.891852
 20
246.192441
 30
0.0
 11
457.891852
 21
246.192441
 31
0.0
  0
LINE
  5
414F
100
AcDbEntity
  8
0
100
AcDbLine
 10
492.891852
 20
245.192441
 30
0.0
 11
456.891852
 21
245.192441
 31
0.0
  0
ARC
  5
4150
100
AcDbEntity
  8
0
100
AcDbCircle
 10
459.641852
 20
248.192441
 30
0.0
 40
2.0
100
AcDbArc
 50
270.0
 51
0.0
  0
LINE
  5
4151
100
AcDbEntity
  8
0
100
AcDbLine
 10
457.891852
 20
246.192441
 30
0.0
 11
456.891852
 21
245.192441
 31
0.0
  0
LINE
  5
4152
100
AcDbEntity
  8
0
100
AcDbLine
 10
462.891852
 20
265.903766
 30
0.0
 11
462.891852
 21
248.192441
 31
0.0
  0
LINE
  5
4153
100
AcDbEntity
  8
0
100
AcDbLine
 10
474.891852
 20
264.584746
 30
0.0
 11
474.891852
 21
248.192441
 31
0.0
  0
LINE
  5
4154
100
AcDbEntity
  8
0
100
AcDbLine
 10
486.891852
 20
265.903766
 30
0.0
 11
486.891852
 21
248.192441
 31
0.0
  0
ARC
  5
4155
100
AcDbEntity
  8
0
100
AcDbCircle
 10
490.141852
 20
248.192441
 30
0.0
 40
2.0
100
AcDbArc
 50
180.0
 51
270.0
  0
LINE
  5
4156
100
AcDbEntity
  8
0
100
AcDbLine
 10
488.141852
 20
248.192441
 30
0.0
 11
461.641852
 21
248.192441
 31
0.0
  0
LINE
  5
4157
100
AcDbEntity
  8
0
100
AcDbLine
 10
512.236126
 20
246.192441
 30
0.0
 11
511.236126
 21
245.192441
 31
0.0
  0
LINE
  5
4158
100
AcDbEntity
  8
0
100
AcDbLine
 10
492.891852
 20
245.192441
 30
0.0
 11
491.891852
 21
246.192441
 31
0.0
  0
ARC
  5
4159
100
AcDbEntity
  8
0
100
AcDbCircle
 10
464.903636
 20
228.960804
 30
0.0
 40
36.997698
100
AcDbArc
 50
74.337602
 51
93.117047
  0
LINE
  5
415A
100
AcDbEntity
  8
0
100
AcDbLine
 10
486.391852
 20
266.192441
 30
0.0
 11
463.391852
 21
266.192441
 31
0.0
  0
LINE
  5
415B
100
AcDbEntity
  8
0
100
AcDbLine
 10
463.391852
 20
266.192441
 30
0.0
 11
462.891852
 21
265.903766
 31
0.0
  0
LINE
  5
415C
100
AcDbEntity
  8
0
100
AcDbLine
 10
486.391852
 20
266.192441
 30
0.0
 11
486.891852
 21
265.903766
 31
0.0
  0
ARC
  5
415D
100
AcDbEntity
  8
0
100
AcDbCircle
 10
484.880069
 20
228.960804
 30
0.0
 40
36.997698
100
AcDbArc
 50
86.882953
 51
105.662398
  0
ARC
  5
415E
100
AcDbEntity
  8
0
100
AcDbCircle
 10
585.902936
 20
246.192441
 30
0.0
 40
2.0
100
AcDbArc
 50
270.0
 51
0.0
  0
LINE
  5
415F
100
AcDbEntity
  8
0
100
AcDbLine
 10
547.236126
 20
245.192441
 30
0.0
 11
547.236126
 21
240.192441
 31
0.0
  0
LINE
  5
4160
100
AcDbEntity
  8
0
100
AcDbLine
 10
547.236126
 20
235.192441
 30
0.0
 11
545.236126
 21
223.849877
 31
0.0
  0
POLYLINE
  5
4161
100
AcDbEntity
  8
0
100
AcDb2dPolyline
 66
     1
 10
0.0
 20
0.0
 30
0.0
  0
VERTEX
  5
45B5
100
AcDbEntity
  8
0
100
AcDbVertex
100
AcDb2dVertex
 10
546.482092
 20
222.174788
 30
0.0
  0
VERTEX
  5
45B6
100
AcDbEntity
  8
0
100
AcDbVertex
100
AcDb2dVertex
 10
545.236126
 20
222.894147
 30
0.0
  0
SEQEND
  5
45B7
100
AcDbEntity
  8
0
  0
ARC
  5
4162
100
AcDbEntity
  8
0
100
AcDbCircle
 10
529.236126
 20
210.192441
 30
0.0
 40
21.0
100
AcDbArc
 50
25.208765
 51
34.791235
  0
LINE
  5
4163
100
AcDbEntity
  8
0
100
AcDbLine
 10
547.236126
 20
240.192441
 30
0.0
 11
547.236126
 21
235.192441
 31
0.0
  0
ARC
  5
4164
100
AcDbEntity
  8
0
100
AcDbCircle
 10
601.152936
 20
210.192441
 30
0.0
 40
26.0
100
AcDbArc
 50
142.619865
 51
157.380135
  0
LINE
  5
4165
100
AcDbEntity
  8
0
100
AcDbLine
 10
583.152936
 20
238.192441
 30
0.0
 11
583.152936
 21
233.192441
 31
0.0
  0
LINE
  5
4166
100
AcDbEntity
  8
0
100
AcDbLine
 10
583.152936
 20
243.192441
 30
0.0
 11
583.152936
 21
238.192441
 31
0.0
  0
LINE
  5
4167
100
AcDbEntity
  8
0
100
AcDbLine
 10
592.990105
 20
233.192441
 30
0.0
 11
583.152936
 21
233.192441
 31
0.0
  0
LINE
  5
4168
100
AcDbEntity
  8
0
100
AcDbLine
 10
583.152936
 20
243.192441
 30
0.0
 11
584.152936
 21
244.192441
 31
0.0
  0
LINE
  5
4169
100
AcDbEntity
  8
0
100
AcDbLine
 10
583.152936
 20
233.192441
 30
0.0
 11
584.061854
 21
228.037713
 31
0.0
  0
LINE
  5
416A
100
AcDbEntity
  8
0
100
AcDbLine
 10
529.236126
 20
264.584746
 30
0.0
 11
529.236126
 21
248.192441
 31
0.0
  0
LINE
  5
416B
100
AcDbEntity
  8
0
100
AcDbLine
 10
535.668279
 20
264.584746
 30
0.0
 11
535.668279
 21
248.192441
 31
0.0
  0
LINE
  5
416C
100
AcDbEntity
  8
0
100
AcDbLine
 10
542.437456
 20
265.903766
 30
0.0
 11
542.437456
 21
248.192441
 31
0.0
  0
LINE
  5
416D
100
AcDbEntity
  8
0
100
AcDbLine
 10
522.551474
 20
264.584746
 30
0.0
 11
522.551474
 21
248.192441
 31
0.0
  0
LINE
  5
416E
100
AcDbEntity
  8
0
100
AcDbLine
 10
516.034795
 20
265.903766
 30
0.0
 11
516.034795
 21
248.192441
 31
0.0
  0
ARC
  5
416F
100
AcDbEntity
  8
0
100
AcDbCircle
 10
544.486126
 20
248.192441
 30
0.0
 40
2.0
100
AcDbArc
 50
180.0
 51
270.0
  0
LINE
  5
4170
100
AcDbEntity
  8
0
100
AcDbLine
 10
542.486126
 20
248.192441
 30
0.0
 11
515.986126
 21
248.192441
 31
0.0
  0
LINE
  5
4171
100
AcDbEntity
  8
0
100
AcDbLine
 10
547.236126
 20
245.192441
 30
0.0
 11
546.236126
 21
246.192441
 31
0.0
  0
ARC
  5
4172
100
AcDbEntity
  8
0
100
AcDbCircle
 10
539.052868
 20
260.761177
 30
0.0
 40
5.028738
100
AcDbArc
 50
47.697147
 51
132.302853
  0
LINE
  5
4173
100
AcDbEntity
  8
0
100
AcDbLine
 10
540.736126
 20
266.192441
 30
0.0
 11
542.437456
 21
265.903766
 31
0.0
  0
ARC
  5
4174
100
AcDbEntity
  8
0
100
AcDbCircle
 10
519.293134
 20
261.019916
 30
0.0
 40
4.753089
100
AcDbArc
 50
46.723456
 51
133.276544
  0
LINE
  5
4175
100
AcDbEntity
  8
0
100
AcDbLine
 10
517.736126
 20
266.192441
 30
0.0
 11
516.034795
 21
265.903766
 31
0.0
  0
LINE
  5
4176
100
AcDbEntity
  8
0
100
AcDbLine
 10
517.736126
 20
266.192441
 30
0.0
 11
540.736126
 21
266.192441
 31
0.0
  0
ARC
  5
4177
100
AcDbEntity
  8
0
100
AcDbCircle
 10
529.109876
 20
250.088002
 30
0.0
 40
15.816268
100
AcDbArc
 50
65.501978
 51
114.498022
  0
LINE
  5
4178
100
AcDbEntity
  8
0
100
AcDbLine
 10
587.951605
 20
263.903766
 30
0.0
 11
587.951605
 21
246.192441
 31
0.0
  0
LINE
  5
4179
100
AcDbEntity
  8
0
100
AcDbLine
 10
589.652936
 20
264.192441
 30
0.0
 11
587.951605
 21
263.903766
 31
0.0
  0
POLYLINE
  5
417A
100
AcDbEntity
  8
0
100
AcDb2dPolyline
 66
     1
 10
0.0
 20
0.0
 30
0.0
  0
VERTEX
  5
45B8
100
AcDbEntity
  8
0
100
AcDbVertex
100
AcDb2dVertex
 10
803.113952
 20
220.192441
 30
0.0
  0
VERTEX
  5
45B9
100
AcDbEntity
  8
0
100
AcDbVertex
100
AcDb2dVertex
 10
803.113952
 20
200.192441
 30
0.0
  0
SEQEND
  5
45BA
100
AcDbEntity
  8
0
  0
LINE
  5
417B
100
AcDbEntity
  8
0
100
AcDbLine
 10
811.113952
 20
221.849877
 30
0.0
 11
811.113952
 21
189.192441
 31
0.0
  0
ARC
  5
417C
100
AcDbEntity
  8
0
100
AcDbCircle
 10
827.113952
 20
210.192441
 30
0.0
 40
23.0
100
AcDbArc
 50
136.660405
 51
225.92079
  0
LINE
  5
417D
100
AcDbEntity
  8
0
100
AcDbLine
 10
717.40292
 20
233.192441
 30
0.0
 11
717.40292
 21
187.192441
 31
0.0
  0
LINE
  5
417E
100
AcDbEntity
  8
0
100
AcDbLine
 10
739.40292
 20
233.192441
 30
0.0
 11
739.40292
 21
187.192441
 31
0.0
  0
LINE
  5
417F
100
AcDbEntity
  8
0
100
AcDbLine
 10
661.40292
 20
226.504941
 30
0.0
 11
661.40292
 21
210.192441
 31
0.0
  0
ARC
  5
4180
100
AcDbEntity
  8
0
100
AcDbCircle
 10
737.874758
 20
211.784143
 30
0.0
 40
20.344312
100
AcDbArc
 50
313.907802
 51
47.984941
  0
LINE
  5
4181
100
AcDbEntity
  8
0
100
AcDbLine
 10
683.40292
 20
227.192441
 30
0.0
 11
683.40292
 21
193.192441
 31
0.0
  0
LINE
  5
4182
100
AcDbEntity
  8
0
100
AcDbLine
 10
691.90292
 20
227.192441
 30
0.0
 11
691.90292
 21
193.192441
 31
0.0
  0
LINE
  5
4183
100
AcDbEntity
  8
0
100
AcDbLine
 10
712.90292
 20
227.192441
 30
0.0
 11
712.90292
 21
193.192441
 31
0.0
  0
ARC
  5
4184
100
AcDbEntity
  8
0
100
AcDbCircle
 10
747.136459
 20
210.192441
 30
0.0
 40
29.733539
100
AcDbArc
 50
160.34714
 51
199.65286
  0
LINE
  5
4185
100
AcDbEntity
  8
0
100
AcDbLine
 10
782.40292
 20
221.849877
 30
0.0
 11
782.40292
 21
189.192441
 31
0.0
  0
ARC
  5
4186
100
AcDbEntity
  8
0
100
AcDbCircle
 10
709.669381
 20
210.192441
 30
0.0
 40
29.733539
100
AcDbArc
 50
340.34714
 51
19.65286
  0
POLYLINE
  5
4187
100
AcDbEntity
  8
0
100
AcDb2dPolyline
 66
     1
 10
0.0
 20
0.0
 30
0.0
  0
VERTEX
  5
45BB
100
AcDbEntity
  8
0
100
AcDbVertex
100
AcDb2dVertex
 10
625.152936
 20
200.192441
 30
0.0
  0
VERTEX
  5
45BC
100
AcDbEntity
  8
0
100
AcDbVertex
100
AcDb2dVertex
 10
625.152936
 20
220.192441
 30
0.0
  0
SEQEND
  5
45BD
100
AcDbEntity
  8
0
  0
LINE
  5
4188
100
AcDbEntity
  8
0
100
AcDbLine
 10
691.90292
 20
201.20206
 30
0.0
 11
712.90292
 21
201.20206
 31
0.0
  0
LINE
  5
4189
100
AcDbEntity
  8
0
100
AcDbLine
 10
691.90292
 20
202.192441
 30
0.0
 11
712.90292
 21
202.192441
 31
0.0
  0
LINE
  5
418A
100
AcDbEntity
  8
0
100
AcDbLine
 10
717.40292
 20
193.192441
 30
0.0
 11
683.40292
 21
193.192441
 31
0.0
  0
LINE
  5
418B
100
AcDbEntity
  8
0
100
AcDbLine
 10
621.652936
 20
181.398212
 30
0.0
 11
621.652936
 21
161.692441
 31
0.0
  0
ARC
  5
418C
100
AcDbEntity
  8
0
100
AcDbCircle
 10
611.402936
 20
166.969825
 30
0.0
 40
10.964286
100
AcDbArc
 50
42.904763
 51
137.095237
  0
LINE
  5
418D
100
AcDbEntity
  8
0
100
AcDbLine
 10
620.152936
 20
158.192441
 30
0.0
 11
621.652936
 21
161.692441
 31
0.0
  0
ARC
  5
418E
100
AcDbEntity
  8
0
100
AcDbCircle
 10
611.402936
 20
169.156727
 30
0.0
 40
10.964286
100
AcDbArc
 50
222.904763
 51
317.095237
  0
LINE
  5
418F
100
AcDbEntity
  8
0
100
AcDbLine
 10
620.152936
 20
158.192441
 30
0.0
 11
601.152936
 21
158.192441
 31
0.0
  0
LINE
  5
4190
100
AcDbEntity
  8
0
100
AcDbLine
 10
619.434125
 20
174.4755
 30
0.0
 11
621.652936
 21
174.4755
 31
0.0
  0
LINE
  5
4191
100
AcDbEntity
  8
0
100
AcDbLine
 10
619.434125
 20
161.692441
 30
0.0
 11
621.652936
 21
161.692441
 31
0.0
  0
LINE
  5
4192
100
AcDbEntity
  8
0
100
AcDbLine
 10
619.434125
 20
161.692441
 30
0.0
 11
619.434125
 21
174.434111
 31
0.0
  0
LINE
  5
4193
100
AcDbEntity
  8
0
100
AcDbLine
 10
603.371747
 20
174.434111
 30
0.0
 11
598.934125
 21
174.434111
 31
0.0
  0
LINE
  5
4194
100
AcDbEntity
  8
0
100
AcDbLine
 10
603.371747
 20
161.692441
 30
0.0
 11
598.934125
 21
161.692441
 31
0.0
  0
LINE
  5
4195
100
AcDbEntity
  8
0
100
AcDbLine
 10
603.371747
 20
161.692441
 30
0.0
 11
603.371747
 21
174.434111
 31
0.0
  0
LINE
  5
4196
100
AcDbEntity
  8
0
100
AcDbLine
 10
598.934125
 20
161.692441
 30
0.0
 11
598.934125
 21
174.434111
 31
0.0
  0
LINE
  5
4197
100
AcDbEntity
  8
0
100
AcDbLine
 10
646.727006
 20
207.433349
 30
0.0
 11
652.689326
 21
207.433349
 31
0.0
  0
LINE
  5
4198
100
AcDbEntity
  8
0
100
AcDbLine
 10
656.810606
 20
205.416629
 30
0.0
 11
636.642686
 21
205.416629
 31
0.0
  0
POLYLINE
  5
4199
100
AcDbEntity
  8
0
100
AcDb2dPolyline
 66
     1
 10
0.0
 20
0.0
 30
0.0
  0
VERTEX
  5
45BE
100
AcDbEntity
  8
0
100
AcDbVertex
100
AcDb2dVertex
 10
604.492682
 20
184.407831
 30
0.0
  0
VERTEX
  5
45BF
100
AcDbEntity
  8
0
100
AcDbVertex
100
AcDb2dVertex
 10
621.81319
 20
194.407831
 30
0.0
  0
SEQEND
  5
45C0
100
AcDbEntity
  8
0
  0
LINE
  5
419A
100
AcDbEntity
  8
0
100
AcDbLine
 10
617.152936
 20
189.192441
 30
0.0
 11
612.779869
 21
189.192441
 31
0.0
  0
LINE
  5
419B
100
AcDbEntity
  8
0
100
AcDbLine
 10
617.152936
 20
191.717232
 30
0.0
 11
617.152936
 21
189.192441
 31
0.0
  0
LINE
  5
419C
100
AcDbEntity
  8
0
100
AcDbLine
 10
621.652936
 20
181.398212
 30
0.0
 11
617.152936
 21
189.192441
 31
0.0
  0
ARC
  5
419D
100
AcDbEntity
  8
0
100
AcDbCircle
 10
601.152936
 20
210.192441
 30
0.0
 40
26.0
100
AcDbArc
 50
262.619865
 51
277.380135
  0
ARC
  5
419E
100
AcDbEntity
  8
0
100
AcDbCircle
 10
601.152936
 20
210.192441
 30
0.0
 40
26.0
100
AcDbArc
 50
322.619865
 51
337.380135
  0
LINE
  5
419F
100
AcDbEntity
  8
0
100
AcDbLine
 10
644.709566
 20
209.450069
 30
0.0
 11
646.727006
 21
207.433349
 31
0.0
  0
LINE
  5
41A0
100
AcDbEntity
  8
0
100
AcDbLine
 10
636.642686
 20
205.416629
 30
0.0
 11
632.609246
 21
209.450069
 31
0.0
  0
LINE
  5
41A1
100
AcDbEntity
  8
0
100
AcDbLine
 10
632.609246
 20
209.450069
 30
0.0
 11
644.709566
 21
209.450069
 31
0.0
  0
LINE
  5
41A2
100
AcDbEntity
  8
0
100
AcDbLine
 10
683.40292
 20
193.192441
 30
0.0
 11
661.40292
 21
193.879941
 31
0.0
  0
LINE
  5
41A3
100
AcDbEntity
  8
0
100
AcDbLine
 10
652.689326
 20
209.450069
 30
0.0
 11
656.810606
 21
205.416629
 31
0.0
  0
LINE
  5
41A4
100
AcDbEntity
  8
0
100
AcDbLine
 10
661.40292
 20
210.192441
 30
0.0
 11
661.40292
 21
193.879941
 31
0.0
  0
LINE
  5
41A5
100
AcDbEntity
  8
0
100
AcDbLine
 10
652.689326
 20
207.433349
 30
0.0
 11
652.689326
 21
209.450069
 31
0.0
  0
LINE
  5
41A6
100
AcDbEntity
  8
0
100
AcDbLine
 10
788.90292
 20
177.934111
 30
0.0
 11
788.90292
 21
161.692441
 31
0.0
  0
LINE
  5
41A7
100
AcDbEntity
  8
0
100
AcDbLine
 10
806.613952
 20
181.398212
 30
0.0
 11
806.613952
 21
161.692441
 31
0.0
  0
LINE
  5
41A8
100
AcDbEntity
  8
0
100
AcDbLine
 10
743.90292
 20
177.934111
 30
0.0
 11
743.90292
 21
161.692441
 31
0.0
  0
ARC
  5
41A9
100
AcDbEntity
  8
0
100
AcDbCircle
 10
748.204877
 20
172.587425
 30
0.0
 40
5.406494
100
AcDbArc
 50
19.972432
 51
81.469716
  0
ARC
  5
41AA
100
AcDbEntity
  8
0
100
AcDbCircle
 10
784.600964
 20
172.587425
 30
0.0
 40
5.406494
100
AcDbArc
 50
98.530284
 51
160.027568
  0
ARC
  5
41AB
100
AcDbEntity
  8
0
100
AcDbCircle
 10
766.40292
 20
163.898396
 30
0.0
 40
14.035714
100
AcDbArc
 50
48.645512
 51
131.354488
  0
LINE
  5
41AC
100
AcDbEntity
  8
0
100
AcDbLine
 10
763.247538
 20
145.815137
 30
0.0
 11
767.280978
 21
149.848577
 31
0.0
  0
ARC
  5
41AD
100
AcDbEntity
  8
0
100
AcDbCircle
 10
766.40292
 20
172.228155
 30
0.0
 40
14.035714
100
AcDbArc
 50
228.645512
 51
311.354488
  0
LINE
  5
41AE
100
AcDbEntity
  8
0
100
AcDbLine
 10
766.40292
 20
158.192441
 30
0.0
 11
785.40292
 21
158.192441
 31
0.0
  0
LINE
  5
41AF
100
AcDbEntity
  8
0
100
AcDbLine
 10
747.40292
 20
158.192441
 30
0.0
 11
743.90292
 21
161.692441
 31
0.0
  0
ARC
  5
41B0
100
AcDbEntity
  8
0
100
AcDbCircle
 10
748.204877
 20
163.539126
 30
0.0
 40
5.406494
100
AcDbArc
 50
261.469716
 51
340.027568
  0
LINE
  5
41B1
100
AcDbEntity
  8
0
100
AcDbLine
 10
747.40292
 20
158.192441
 30
0.0
 11
766.40292
 21
158.192441
 31
0.0
  0
LINE
  5
41B2
100
AcDbEntity
  8
0
100
AcDbLine
 10
757.129302
 20
161.692441
 30
0.0
 11
757.129302
 21
174.434111
 31
0.0
  0
LINE
  5
41B3
100
AcDbEntity
  8
0
100
AcDbLine
 10
753.286209
 20
161.692441
 30
0.0
 11
753.286209
 21
174.434111
 31
0.0
  0
LINE
  5
41B4
100
AcDbEntity
  8
0
100
AcDbLine
 10
753.286209
 20
161.692441
 30
0.0
 11
757.129302
 21
161.692441
 31
0.0
  0
LINE
  5
41B5
100
AcDbEntity
  8
0
100
AcDbLine
 10
753.286209
 20
174.434111
 30
0.0
 11
757.129302
 21
174.434111
 31
0.0
  0
LINE
  5
41B6
100
AcDbEntity
  8
0
100
AcDbLine
 10
785.40292
 20
158.192441
 30
0.0
 11
788.90292
 21
161.692441
 31
0.0
  0
LINE
  5
41B7
100
AcDbEntity
  8
0
100
AcDbLine
 10
808.113952
 20
158.192441
 30
0.0
 11
806.613952
 21
161.692441
 31
0.0
  0
ARC
  5
41B8
100
AcDbEntity
  8
0
100
AcDbCircle
 10
784.600964
 20
163.539126
 30
0.0
 40
5.406494
100
AcDbArc
 50
199.972432
 51
278.530284
  0
LINE
  5
41B9
100
AcDbEntity
  8
0
100
AcDbLine
 10
779.519632
 20
161.692441
 30
0.0
 11
779.519632
 21
174.434111
 31
0.0
  0
LINE
  5
41BA
100
AcDbEntity
  8
0
100
AcDbLine
 10
775.676539
 20
161.692441
 30
0.0
 11
775.676539
 21
174.434111
 31
0.0
  0
LINE
  5
41BB
100
AcDbEntity
  8
0
100
AcDbLine
 10
775.676539
 20
161.692441
 30
0.0
 11
779.519632
 21
161.692441
 31
0.0
  0
LINE
  5
41BC
100
AcDbEntity
  8
0
100
AcDbLine
 10
775.676539
 20
174.434111
 30
0.0
 11
779.519632
 21
174.434111
 31
0.0
  0
LINE
  5
41BD
100
AcDbEntity
  8
0
100
AcDbLine
 10
808.832763
 20
161.692441
 30
0.0
 11
808.832763
 21
174.434111
 31
0.0
  0
LINE
  5
41BE
100
AcDbEntity
  8
0
100
AcDbLine
 10
808.832763
 20
174.4755
 30
0.0
 11
806.613952
 21
174.4755
 31
0.0
  0
LINE
  5
41BF
100
AcDbEntity
  8
0
100
AcDbLine
 10
808.832763
 20
161.692441
 30
0.0
 11
806.613952
 21
161.692441
 31
0.0
  0
ARC
  5
41C0
100
AcDbEntity
  8
0
100
AcDbCircle
 10
731.005779
 20
189.300136
 30
0.0
 40
8.397141
100
AcDbArc
 50
322.535773
 51
37.464227
  0
ARC
  5
41C1
100
AcDbEntity
  8
0
100
AcDbCircle
 10
748.093519
 20
191.192441
 30
0.0
 40
3.0
100
AcDbArc
 50
330.0
 51
90.0
  0
ARC
  5
41C2
100
AcDbEntity
  8
0
100
AcDbCircle
 10
725.800061
 20
189.300136
 30
0.0
 40
8.397141
100
AcDbArc
 50
142.535773
 51
217.464227
  0
LINE
  5
41C3
100
AcDbEntity
  8
0
100
AcDbLine
 10
737.67087
 20
184.192441
 30
0.0
 11
739.40292
 21
187.192441
 31
0.0
  0
LINE
  5
41C4
100
AcDbEntity
  8
0
100
AcDbLine
 10
719.134971
 20
184.192441
 30
0.0
 11
717.40292
 21
187.192441
 31
0.0
  0
LINE
  5
41C5
100
AcDbEntity
  8
0
100
AcDbLine
 10
719.134971
 20
184.192441
 30
0.0
 11
737.67087
 21
184.192441
 31
0.0
  0
LINE
  5
41C6
100
AcDbEntity
  8
0
100
AcDbLine
 10
743.90292
 20
177.934111
 30
0.0
 11
750.691595
 21
189.692441
 31
0.0
  0
LINE
  5
41C7
100
AcDbEntity
  8
0
100
AcDbLine
 10
743.90292
 20
177.934111
 30
0.0
 11
749.006834
 21
177.934111
 31
0.0
  0
LINE
  5
41C8
100
AcDbEntity
  8
0
100
AcDbLine
 10
737.67087
 20
200.192441
 30
0.0
 11
737.67087
 21
194.407831
 31
0.0
  0
LINE
  5
41C9
100
AcDbEntity
  8
0
100
AcDbLine
 10
719.134971
 20
194.407831
 30
0.0
 11
719.134971
 21
200.192441
 31
0.0
  0
LINE
  5
41CA
100
AcDbEntity
  8
0
100
AcDbLine
 10
719.134971
 20
200.192441
 30
0.0
 11
737.67087
 21
200.192441
 31
0.0
  0
LINE
  5
41CB
100
AcDbEntity
  8
0
100
AcDbLine
 10
719.134971
 20
194.407831
 30
0.0
 11
737.67087
 21
194.407831
 31
0.0
  0
LINE
  5
41CC
100
AcDbEntity
  8
0
100
AcDbLine
 10
748.093519
 20
194.192441
 30
0.0
 11
739.40292
 21
194.192441
 31
0.0
  0
POLYLINE
  5
41CD
100
AcDbEntity
  8
0
100
AcDb2dPolyline
 66
     1
 10
0.0
 20
0.0
 30
0.0
  0
VERTEX
  5
45C1
100
AcDbEntity
  8
0
100
AcDbVertex
100
AcDb2dVertex
 10
806.453698
 20
194.407831
 30
0.0
  0
VERTEX
  5
45C2
100
AcDbEntity
  8
0
100
AcDbVertex
100
AcDb2dVertex
 10
811.113952
 20
191.717232
 30
0.0
  0
SEQEND
  5
45C3
100
AcDbEntity
  8
0
  0
LINE
  5
41CE
100
AcDbEntity
  8
0
100
AcDbLine
 10
783.799007
 20
177.934111
 30
0.0
 11
788.90292
 21
177.934111
 31
0.0
  0
LINE
  5
41CF
100
AcDbEntity
  8
0
100
AcDbLine
 10
788.90292
 20
177.934111
 30
0.0
 11
782.40292
 21
189.192441
 31
0.0
  0
LINE
  5
41D0
100
AcDbEntity
  8
0
100
AcDbLine
 10
806.613952
 20
181.398212
 30
0.0
 11
811.113952
 21
189.192441
 31
0.0
  0
ARC
  5
41D1
100
AcDbEntity
  8
0
100
AcDbCircle
 10
827.113952
 20
210.192441
 30
0.0
 40
26.0
100
AcDbArc
 50
202.619865
 51
217.380135
  0
LINE
  5
41D2
100
AcDbEntity
  8
0
100
AcDbLine
 10
691.90292
 20
219.182822
 30
0.0
 11
712.90292
 21
219.182822
 31
0.0
  0
LINE
  5
41D3
100
AcDbEntity
  8
0
100
AcDbLine
 10
691.90292
 20
218.192441
 30
0.0
 11
712.90292
 21
218.192441
 31
0.0
  0
LINE
  5
41D4
100
AcDbEntity
  8
0
100
AcDbLine
 10
717.40292
 20
227.192441
 30
0.0
 11
683.40292
 21
227.192441
 31
0.0
  0
ARC
  5
41D5
100
AcDbEntity
  8
0
100
AcDbCircle
 10
616.402936
 20
246.192441
 30
0.0
 40
2.0
100
AcDbArc
 50
180.0
 51
270.0
  0
POLYLINE
  5
41D6
100
AcDbEntity
  8
0
100
AcDb2dPolyline
 66
     1
 10
0.0
 20
0.0
 30
0.0
  0
VERTEX
  5
45C4
100
AcDbEntity
  8
0
100
AcDbVertex
100
AcDb2dVertex
 10
621.81319
 20
225.977051
 30
0.0
  0
VERTEX
  5
45C5
100
AcDbEntity
  8
0
100
AcDbVertex
100
AcDb2dVertex
 10
604.492682
 20
235.977051
 30
0.0
  0
SEQEND
  5
45C6
100
AcDbEntity
  8
0
  0
ARC
  5
41D7
100
AcDbEntity
  8
0
100
AcDbCircle
 10
601.152936
 20
210.192441
 30
0.0
 40
26.0
100
AcDbArc
 50
22.619865
 51
37.380135
  0
LINE
  5
41D8
100
AcDbEntity
  8
0
100
AcDbLine
 10
618.152936
 20
244.192441
 30
0.0
 11
619.152936
 21
243.192441
 31
0.0
  0
LINE
  5
41D9
100
AcDbEntity
  8
0
100
AcDbLine
 10
619.152936
 20
238.192441
 30
0.0
 11
619.152936
 21
233.192441
 31
0.0
  0
LINE
  5
41DA
100
AcDbEntity
  8
0
100
AcDbLine
 10
619.152936
 20
233.192441
 30
0.0
 11
618.244018
 21
228.037713
 31
0.0
  0
LINE
  5
41DB
100
AcDbEntity
  8
0
100
AcDbLine
 10
619.152936
 20
243.192441
 30
0.0
 11
619.152936
 21
238.192441
 31
0.0
  0
ARC
  5
41DC
100
AcDbEntity
  8
0
100
AcDbCircle
 10
601.152936
 20
210.192441
 30
0.0
 40
26.0
100
AcDbArc
 50
82.619865
 51
97.380135
  0
LINE
  5
41DD
100
AcDbEntity
  8
0
100
AcDbLine
 10
619.152936
 20
233.192441
 30
0.0
 11
609.315767
 21
233.192441
 31
0.0
  0
LINE
  5
41DE
100
AcDbEntity
  8
0
100
AcDbLine
 10
683.40292
 20
227.192441
 30
0.0
 11
661.40292
 21
226.504941
 31
0.0
  0
LINE
  5
41DF
100
AcDbEntity
  8
0
100
AcDbLine
 10
614.354266
 20
263.903766
 30
0.0
 11
614.354266
 21
246.192441
 31
0.0
  0
LINE
  5
41E0
100
AcDbEntity
  8
0
100
AcDbLine
 10
594.468284
 20
262.584746
 30
0.0
 11
594.468284
 21
246.192441
 31
0.0
  0
LINE
  5
41E1
100
AcDbEntity
  8
0
100
AcDbLine
 10
607.585089
 20
262.584746
 30
0.0
 11
607.585089
 21
246.192441
 31
0.0
  0
LINE
  5
41E2
100
AcDbEntity
  8
0
100
AcDbLine
 10
601.152936
 20
262.584746
 30
0.0
 11
601.152936
 21
246.192441
 31
0.0
  0
LINE
  5
41E3
100
AcDbEntity
  8
0
100
AcDbLine
 10
612.652936
 20
264.192441
 30
0.0
 11
614.354266
 21
263.903766
 31
0.0
  0
ARC
  5
41E4
100
AcDbEntity
  8
0
100
AcDbCircle
 10
601.026687
 20
248.088002
 30
0.0
 40
15.816268
100
AcDbArc
 50
65.501978
 51
114.498022
  0
ARC
  5
41E5
100
AcDbEntity
  8
0
100
AcDbCircle
 10
610.969678
 20
258.761177
 30
0.0
 40
5.028738
100
AcDbArc
 50
47.697147
 51
132.302853
  0
ARC
  5
41E6
100
AcDbEntity
  8
0
100
AcDbCircle
 10
811.863952
 20
246.192441
 30
0.0
 40
2.0
100
AcDbArc
 50
270.0
 51
0.0
  0
ARC
  5
41E7
100
AcDbEntity
  8
0
100
AcDbCircle
 10
751.15292
 20
246.192441
 30
0.0
 40
2.0
100
AcDbArc
 50
270.0
 51
0.0
  0
ARC
  5
41E8
100
AcDbEntity
  8
0
100
AcDbCircle
 10
781.65292
 20
246.192441
 30
0.0
 40
2.0
100
AcDbArc
 50
180.0
 51
270.0
  0
LINE
  5
41E9
100
AcDbEntity
  8
0
100
AcDbLine
 10
748.40292
 20
238.192441
 30
0.0
 11
784.40292
 21
238.192441
 31
0.0
  0
LINE
  5
41EA
100
AcDbEntity
  8
0
100
AcDbLine
 10
784.40292
 20
238.192441
 30
0.0
 11
748.40292
 21
238.192441
 31
0.0
  0
LINE
  5
41EB
100
AcDbEntity
  8
0
100
AcDbLine
 10
748.40292
 20
233.192441
 30
0.0
 11
784.40292
 21
233.192441
 31
0.0
  0
LINE
  5
41EC
100
AcDbEntity
  8
0
100
AcDbLine
 10
784.40292
 20
243.192441
 30
0.0
 11
748.40292
 21
243.192441
 31
0.0
  0
LINE
  5
41ED
100
AcDbEntity
  8
0
100
AcDbLine
 10
783.40292
 20
244.192441
 30
0.0
 11
749.40292
 21
244.192441
 31
0.0
  0
ARC
  5
41EE
100
AcDbEntity
  8
0
100
AcDbCircle
 10
745.40292
 20
229.192441
 30
0.0
 40
3.0
100
AcDbArc
 50
270.0
 51
0.0
  0
ARC
  5
41EF
100
AcDbEntity
  8
0
100
AcDbCircle
 10
731.005779
 20
231.084746
 30
0.0
 40
8.397141
100
AcDbArc
 50
322.535773
 51
37.464227
  0
ARC
  5
41F0
100
AcDbEntity
  8
0
100
AcDbCircle
 10
742.40292
 20
229.192441
 30
0.0
 40
3.0
100
AcDbArc
 50
180.0
 51
270.0
  0
ARC
  5
41F1
100
AcDbEntity
  8
0
100
AcDbCircle
 10
725.800061
 20
231.084746
 30
0.0
 40
8.397141
100
AcDbArc
 50
142.535773
 51
217.464227
  0
LINE
  5
41F2
100
AcDbEntity
  8
0
100
AcDbLine
 10
737.67087
 20
225.977051
 30
0.0
 11
737.67087
 21
220.192441
 31
0.0
  0
LINE
  5
41F3
100
AcDbEntity
  8
0
100
AcDbLine
 10
719.134971
 20
220.192441
 30
0.0
 11
719.134971
 21
225.977051
 31
0.0
  0
LINE
  5
41F4
100
AcDbEntity
  8
0
100
AcDbLine
 10
719.134971
 20
220.192441
 30
0.0
 11
737.67087
 21
220.192441
 31
0.0
  0
LINE
  5
41F5
100
AcDbEntity
  8
0
100
AcDbLine
 10
719.134971
 20
225.977051
 30
0.0
 11
737.67087
 21
225.977051
 31
0.0
  0
LINE
  5
41F6
100
AcDbEntity
  8
0
100
AcDbLine
 10
742.40292
 20
226.192441
 30
0.0
 11
745.40292
 21
226.192441
 31
0.0
  0
LINE
  5
41F7
100
AcDbEntity
  8
0
100
AcDbLine
 10
737.67087
 20
236.192441
 30
0.0
 11
739.40292
 21
233.192441
 31
0.0
  0
LINE
  5
41F8
100
AcDbEntity
  8
0
100
AcDbLine
 10
719.134971
 20
236.192441
 30
0.0
 11
717.40292
 21
233.192441
 31
0.0
  0
LINE
  5
41F9
100
AcDbEntity
  8
0
100
AcDbLine
 10
719.134971
 20
236.192441
 30
0.0
 11
737.67087
 21
236.192441
 31
0.0
  0
LINE
  5
41FA
100
AcDbEntity
  8
0
100
AcDbLine
 10
748.40292
 20
243.192441
 30
0.0
 11
748.40292
 21
238.192441
 31
0.0
  0
LINE
  5
41FB
100
AcDbEntity
  8
0
100
AcDbLine
 10
748.40292
 20
238.192441
 30
0.0
 11
748.40292
 21
229.192441
 31
0.0
  0
LINE
  5
41FC
100
AcDbEntity
  8
0
100
AcDbLine
 10
749.40292
 20
244.192441
 30
0.0
 11
748.40292
 21
243.192441
 31
0.0
  0
POLYLINE
  5
41FD
100
AcDbEntity
  8
0
100
AcDb2dPolyline
 66
     1
 10
0.0
 20
0.0
 30
0.0
  0
VERTEX
  5
45C7
100
AcDbEntity
  8
0
100
AcDbVertex
100
AcDb2dVertex
 10
810.02287
 20
228.037713
 30
0.0
  0
VERTEX
  5
45C8
100
AcDbEntity
  8
0
100
AcDbVertex
100
AcDb2dVertex
 10
806.453698
 20
225.977051
 30
0.0
  0
SEQEND
  5
45C9
100
AcDbEntity
  8
0
  0
LINE
  5
41FE
100
AcDbEntity
  8
0
100
AcDbLine
 10
809.113952
 20
233.192441
 30
0.0
 11
811.113952
 21
221.849877
 31
0.0
  0
LINE
  5
41FF
100
AcDbEntity
  8
0
100
AcDbLine
 10
784.40292
 20
233.192441
 30
0.0
 11
782.40292
 21
221.849877
 31
0.0
  0
ARC
  5
4200
100
AcDbEntity
  8
0
100
AcDbCircle
 10
827.113952
 20
210.192441
 30
0.0
 40
26.0
100
AcDbArc
 50
142.619865
 51
157.380135
  0
LINE
  5
4201
100
AcDbEntity
  8
0
100
AcDbLine
 10
784.40292
 20
243.192441
 30
0.0
 11
784.40292
 21
238.192441
 31
0.0
  0
LINE
  5
4202
100
AcDbEntity
  8
0
100
AcDbLine
 10
784.40292
 20
238.192441
 30
0.0
 11
784.40292
 21
233.192441
 31
0.0
  0
LINE
  5
4203
100
AcDbEntity
  8
0
100
AcDbLine
 10
784.40292
 20
243.192441
 30
0.0
 11
783.40292
 21
244.192441
 31
0.0
  0
LINE
  5
4204
100
AcDbEntity
  8
0
100
AcDbLine
 10
810.113952
 20
244.192441
 30
0.0
 11
809.113952
 21
243.192441
 31
0.0
  0
LINE
  5
4205
100
AcDbEntity
  8
0
100
AcDbLine
 10
809.113952
 20
238.192441
 30
0.0
 11
809.113952
 21
233.192441
 31
0.0
  0
LINE
  5
4206
100
AcDbEntity
  8
0
100
AcDbLine
 10
809.113952
 20
243.192441
 30
0.0
 11
809.113952
 21
238.192441
 31
0.0
  0
ARC
  5
4207
100
AcDbEntity
  8
0
100
AcDbCircle
 10
776.391137
 20
226.960804
 30
0.0
 40
36.997698
100
AcDbArc
 50
86.882953
 51
105.662398
  0
LINE
  5
4208
100
AcDbEntity
  8
0
100
AcDbLine
 10
777.90292
 20
264.192441
 30
0.0
 11
754.90292
 21
264.192441
 31
0.0
  0
LINE
  5
4209
100
AcDbEntity
  8
0
100
AcDbLine
 10
779.65292
 20
246.192441
 30
0.0
 11
753.15292
 21
246.192441
 31
0.0
  0
LINE
  5
420A
100
AcDbEntity
  8
0
100
AcDbLine
 10
754.40292
 20
263.903766
 30
0.0
 11
754.40292
 21
246.192441
 31
0.0
  0
LINE
  5
420B
100
AcDbEntity
  8
0
100
AcDbLine
 10
766.40292
 20
262.584746
 30
0.0
 11
766.40292
 21
246.192441
 31
0.0
  0
LINE
  5
420C
100
AcDbEntity
  8
0
100
AcDbLine
 10
754.90292
 20
264.192441
 30
0.0
 11
754.40292
 21
263.903766
 31
0.0
  0
ARC
  5
420D
100
AcDbEntity
  8
0
100
AcDbCircle
 10
756.414704
 20
226.960804
 30
0.0
 40
36.997698
100
AcDbArc
 50
74.337602
 51
93.117047
  0
LINE
  5
420E
100
AcDbEntity
  8
0
100
AcDbLine
 10
813.912622
 20
263.903766
 30
0.0
 11
813.912622
 21
246.192441
 31
0.0
  0
LINE
  5
420F
100
AcDbEntity
  8
0
100
AcDbLine
 10
778.40292
 20
263.903766
 30
0.0
 11
778.40292
 21
246.192441
 31
0.0
  0
LINE
  5
4210
100
AcDbEntity
  8
0
100
AcDbLine
 10
777.90292
 20
264.192441
 30
0.0
 11
778.40292
 21
263.903766
 31
0.0
  0
LINE
  5
4211
100
AcDbEntity
  8
0
100
AcDbLine
 10
815.613952
 20
264.192441
 30
0.0
 11
813.912622
 21
263.903766
 31
0.0
  0
POLYLINE
  5
4212
100
AcDbEntity
  8
0
100
AcDb2dPolyline
 66
     1
 10
0.0
 20
0.0
 30
0.0
  0
VERTEX
  5
45CA
100
AcDbEntity
  8
0
100
AcDbVertex
100
AcDb2dVertex
 10
851.113952
 20
200.192441
 30
0.0
  0
VERTEX
  5
45CB
100
AcDbEntity
  8
0
100
AcDbVertex
100
AcDb2dVertex
 10
851.113952
 20
220.192441
 30
0.0
  0
SEQEND
  5
45CC
100
AcDbEntity
  8
0
  0
LINE
  5
4213
100
AcDbEntity
  8
0
100
AcDbLine
 10
843.113952
 20
221.849877
 30
0.0
 11
843.113952
 21
189.192441
 31
0.0
  0
ARC
  5
4214
100
AcDbEntity
  8
0
100
AcDbCircle
 10
827.113952
 20
210.192441
 30
0.0
 40
23.0
100
AcDbArc
 50
314.07921
 51
43.339595
  0
ARC
  5
4215
100
AcDbEntity
  8
0
100
AcDbCircle
 10
837.363952
 20
166.969825
 30
0.0
 40
10.964286
100
AcDbArc
 50
42.904763
 51
137.095237
  0
LINE
  5
4216
100
AcDbEntity
  8
0
100
AcDbLine
 10
847.613952
 20
181.398212
 30
0.0
 11
847.613952
 21
161.692441
 31
0.0
  0
LINE
  5
4217
100
AcDbEntity
  8
0
100
AcDbLine
 10
846.113952
 20
158.192441
 30
0.0
 11
847.613952
 21
161.692441
 31
0.0
  0
ARC
  5
4218
100
AcDbEntity
  8
0
100
AcDbCircle
 10
837.363952
 20
169.156727
 30
0.0
 40
10.964286
100
AcDbArc
 50
222.904763
 51
317.095237
  0
LINE
  5
4219
100
AcDbEntity
  8
0
100
AcDbLine
 10
827.113952
 20
158.192441
 30
0.0
 11
846.113952
 21
158.192441
 31
0.0
  0
LINE
  5
421A
100
AcDbEntity
  8
0
100
AcDbLine
 10
845.395141
 20
174.434111
 30
0.0
 11
847.613952
 21
174.434111
 31
0.0
  0
LINE
  5
421B
100
AcDbEntity
  8
0
100
AcDbLine
 10
845.395141
 20
161.692441
 30
0.0
 11
847.613952
 21
161.692441
 31
0.0
  0
LINE
  5
421C
100
AcDbEntity
  8
0
100
AcDbLine
 10
845.395141
 20
161.692441
 30
0.0
 11
845.395141
 21
174.434111
 31
0.0
  0
LINE
  5
421D
100
AcDbEntity
  8
0
100
AcDbLine
 10
824.895141
 20
174.434111
 30
0.0
 11
829.332763
 21
174.434111
 31
0.0
  0
LINE
  5
421E
100
AcDbEntity
  8
0
100
AcDbLine
 10
824.895141
 20
161.692441
 30
0.0
 11
829.332763
 21
161.692441
 31
0.0
  0
LINE
  5
421F
100
AcDbEntity
  8
0
100
AcDbLine
 10
824.895141
 20
161.692441
 30
0.0
 11
824.895141
 21
174.434111
 31
0.0
  0
LINE
  5
4220
100
AcDbEntity
  8
0
100
AcDbLine
 10
829.332763
 20
161.692441
 30
0.0
 11
829.332763
 21
174.434111
 31
0.0
  0
POLYLINE
  5
4221
100
AcDbEntity
  8
0
100
AcDb2dPolyline
 66
     1
 10
0.0
 20
0.0
 30
0.0
  0
VERTEX
  5
45CD
100
AcDbEntity
  8
0
100
AcDbVertex
100
AcDb2dVertex
 10
843.113952
 20
191.717232
 30
0.0
  0
VERTEX
  5
45CE
100
AcDbEntity
  8
0
100
AcDbVertex
100
AcDb2dVertex
 10
847.774206
 20
194.407831
 30
0.0
  0
SEQEND
  5
45CF
100
AcDbEntity
  8
0
  0
LINE
  5
4222
100
AcDbEntity
  8
0
100
AcDbLine
 10
847.613952
 20
181.398212
 30
0.0
 11
843.113952
 21
189.192441
 31
0.0
  0
ARC
  5
4223
100
AcDbEntity
  8
0
100
AcDbCircle
 10
827.113952
 20
210.192441
 30
0.0
 40
26.0
100
AcDbArc
 50
322.619865
 51
337.380135
  0
ARC
  5
4224
100
AcDbEntity
  8
0
100
AcDbCircle
 10
842.363952
 20
246.192441
 30
0.0
 40
2.0
100
AcDbArc
 50
180.0
 51
270.0
  0
POLYLINE
  5
4225
100
AcDbEntity
  8
0
100
AcDb2dPolyline
 66
     1
 10
0.0
 20
0.0
 30
0.0
  0
VERTEX
  5
45D0
100
AcDbEntity
  8
0
100
AcDbVertex
100
AcDb2dVertex
 10
847.774206
 20
225.977051
 30
0.0
  0
VERTEX
  5
45D1
100
AcDbEntity
  8
0
100
AcDbVertex
100
AcDb2dVertex
 10
844.205035
 20
228.037713
 30
0.0
  0
SEQEND
  5
45D2
100
AcDbEntity
  8
0
  0
LINE
  5
4226
100
AcDbEntity
  8
0
100
AcDbLine
 10
845.113952
 20
233.192441
 30
0.0
 11
843.113952
 21
221.849877
 31
0.0
  0
ARC
  5
4227
100
AcDbEntity
  8
0
100
AcDbCircle
 10
827.113952
 20
210.192441
 30
0.0
 40
26.0
100
AcDbArc
 50
22.619865
 51
37.380135
  0
LINE
  5
4228
100
AcDbEntity
  8
0
100
AcDbLine
 10
845.113952
 20
243.192441
 30
0.0
 11
844.113952
 21
244.192441
 31
0.0
  0
LINE
  5
4229
100
AcDbEntity
  8
0
100
AcDbLine
 10
845.113952
 20
238.192441
 30
0.0
 11
845.113952
 21
233.192441
 31
0.0
  0
LINE
  5
422A
100
AcDbEntity
  8
0
100
AcDbLine
 10
845.113952
 20
243.192441
 30
0.0
 11
845.113952
 21
238.192441
 31
0.0
  0
LINE
  5
422B
100
AcDbEntity
  8
0
100
AcDbLine
 10
840.315283
 20
263.903766
 30
0.0
 11
840.315283
 21
246.192441
 31
0.0
  0
LINE
  5
422C
100
AcDbEntity
  8
0
100
AcDbLine
 10
820.681799
 20
262.584746
 30
0.0
 11
820.681799
 21
246.192441
 31
0.0
  0
LINE
  5
422D
100
AcDbEntity
  8
0
100
AcDbLine
 10
833.798604
 20
262.584746
 30
0.0
 11
833.798604
 21
246.192441
 31
0.0
  0
LINE
  5
422E
100
AcDbEntity
  8
0
100
AcDbLine
 10
827.113952
 20
262.584746
 30
0.0
 11
827.113952
 21
246.192441
 31
0.0
  0
LINE
  5
422F
100
AcDbEntity
  8
0
100
AcDbLine
 10
838.613952
 20
264.192441
 30
0.0
 11
840.315283
 21
263.903766
 31
0.0
  0
ARC
  5
4230
100
AcDbEntity
  8
0
100
AcDbCircle
 10
827.240201
 20
248.088002
 30
0.0
 40
15.816268
100
AcDbArc
 50
65.501978
 51
114.498022
  0
ARC
  5
4231
100
AcDbEntity
  8
0
100
AcDbCircle
 10
837.056943
 20
259.019916
 30
0.0
 40
4.753089
100
AcDbArc
 50
46.723456
 51
133.276544
  0
LINE
  5
4232
100
AcDbEntity
  8
0
100
AcDbLine
 10
390.891852
 20
418.291558
 30
0.0
 11
405.891852
 21
418.291558
 31
0.0
  0
ARC
  5
4233
100
AcDbEntity
  8
0
100
AcDbCircle
 10
405.891852
 20
429.957342
 30
0.0
 40
11.665784
100
AcDbArc
 50
232.580165
 51
307.419835
  0
ARC
  5
4234
100
AcDbEntity
  8
0
100
AcDbCircle
 10
405.891852
 20
426.60034
 30
0.0
 40
11.665784
100
AcDbArc
 50
52.580165
 51
127.419835
  0
LINE
  5
4235
100
AcDbEntity
  8
0
100
AcDbLine
 10
423.891852
 20
484.291558
 30
0.0
 11
387.891852
 21
484.291558
 31
0.0
  0
LINE
  5
4236
100
AcDbEntity
  8
0
100
AcDbLine
 10
394.391852
 20
515.291558
 30
0.0
 11
417.391852
 21
515.291558
 31
0.0
  0
LINE
  5
4237
100
AcDbEntity
  8
0
100
AcDbLine
 10
387.891852
 20
494.291558
 30
0.0
 11
423.891852
 21
494.291558
 31
0.0
  0
LINE
  5
4238
100
AcDbEntity
  8
0
100
AcDbLine
 10
392.641852
 20
497.291558
 30
0.0
 11
419.141852
 21
497.291558
 31
0.0
  0
LINE
  5
4239
100
AcDbEntity
  8
0
100
AcDbLine
 10
388.891852
 20
495.291558
 30
0.0
 11
422.891852
 21
495.291558
 31
0.0
  0
LINE
  5
423A
100
AcDbEntity
  8
0
100
AcDbLine
 10
423.891852
 20
489.291558
 30
0.0
 11
387.891852
 21
489.291558
 31
0.0
  0
ARC
  5
423B
100
AcDbEntity
  8
0
100
AcDbCircle
 10
395.903636
 20
478.059921
 30
0.0
 40
36.997698
100
AcDbArc
 50
74.337602
 51
93.117047
  0
LINE
  5
423C
100
AcDbEntity
  8
0
100
AcDbLine
 10
406.891852
 20
315.666948
 30
0.0
 11
387.891852
 21
316.330442
 31
0.0
  0
LINE
  5
423D
100
AcDbEntity
  8
0
100
AcDbLine
 10
406.891852
 20
342.666948
 30
0.0
 11
387.891852
 21
342.003453
 31
0.0
  0
LINE
  5
423E
100
AcDbEntity
  8
0
100
AcDbLine
 10
162.59851
 20
518.002882
 30
0.0
 11
162.59851
 21
500.291558
 31
0.0
  0
LINE
  5
423F
100
AcDbEntity
  8
0
100
AcDbLine
 10
150.59851
 20
516.683862
 30
0.0
 11
150.59851
 21
500.291558
 31
0.0
  0
LINE
  5
4240
100
AcDbEntity
  8
0
100
AcDbLine
 10
138.59851
 20
518.002882
 30
0.0
 11
138.59851
 21
500.291558
 31
0.0
  0
LINE
  5
4241
100
AcDbEntity
  8
0
100
AcDbLine
 10
393.891852
 20
515.002882
 30
0.0
 11
393.891852
 21
497.291558
 31
0.0
  0
LINE
  5
4242
100
AcDbEntity
  8
0
100
AcDbLine
 10
170.59851
 20
314.166948
 30
0.0
 11
170.59851
 21
344.166948
 31
0.0
  0
ARC
  5
4243
100
AcDbEntity
  8
0
100
AcDbCircle
 10
186.186967
 20
337.166948
 30
0.0
 40
15.588457
100
AcDbArc
 50
152.733956
 51
207.266044
  0
LINE
  5
4244
100
AcDbEntity
  8
0
100
AcDbLine
 10
132.59851
 20
339.393136
 30
0.0
 11
132.59851
 21
318.940759
 31
0.0
  0
LINE
  5
4245
100
AcDbEntity
  8
0
100
AcDbLine
 10
168.59851
 20
339.916948
 30
0.0
 11
168.59851
 21
318.416948
 31
0.0
  0
LINE
  5
4246
100
AcDbEntity
  8
0
100
AcDbLine
 10
152.59851
 20
339.916948
 30
0.0
 11
152.59851
 21
318.416948
 31
0.0
  0
LINE
  5
4247
100
AcDbEntity
  8
0
100
AcDbLine
 10
147.59851
 20
339.916948
 30
0.0
 11
147.59851
 21
318.416948
 31
0.0
  0
CIRCLE
  5
4248
100
AcDbEntity
  8
0
100
AcDbCircle
 10
212.59851
 20
329.166948
 30
0.0
 40
18.0
  0
CIRCLE
  5
4249
100
AcDbEntity
  8
0
100
AcDbCircle
 10
212.59851
 20
329.166948
 30
0.0
 40
17.0
  0
LINE
  5
424A
100
AcDbEntity
  8
0
100
AcDbLine
 10
189.59851
 20
314.166948
 30
0.0
 11
189.59851
 21
344.166948
 31
0.0
  0
ARC
  5
424B
100
AcDbEntity
  8
0
100
AcDbCircle
 10
174.010053
 20
337.166948
 30
0.0
 40
15.588457
100
AcDbArc
 50
332.733956
 51
27.266044
  0
CIRCLE
  5
424C
100
AcDbEntity
  8
0
100
AcDbCircle
 10
212.59851
 20
329.166948
 30
0.0
 40
13.25
  0
CIRCLE
  5
424D
100
AcDbEntity
  8
0
100
AcDbCircle
 10
212.59851
 20
329.166948
 30
0.0
 40
11.5
  0
POLYLINE
  5
424E
100
AcDbEntity
  8
0
100
AcDb2dPolyline
 66
     1
 10
0.0
 20
0.0
 30
0.0
  0
VERTEX
  5
45D3
100
AcDbEntity
  8
0
100
AcDbVertex
100
AcDb2dVertex
 10
205.015231
 20
340.032323
 30
0.0
  0
VERTEX
  5
45D4
100
AcDbEntity
  8
0
100
AcDbVertex
100
AcDb2dVertex
 10
199.39718
 20
330.301572
 30
0.0
  0
SEQEND
  5
45D5
100
AcDbEntity
  8
0
  0
POLYLINE
  5
424F
100
AcDbEntity
  8
0
100
AcDb2dPolyline
 66
     1
 10
0.0
 20
0.0
 30
0.0
  0
VERTEX
  5
45D6
100
AcDbEntity
  8
0
100
AcDbVertex
100
AcDb2dVertex
 10
225.799841
 20
330.301572
 30
0.0
  0
VERTEX
  5
45D7
100
AcDbEntity
  8
0
100
AcDbVertex
100
AcDb2dVertex
 10
220.181789
 20
340.032323
 30
0.0
  0
SEQEND
  5
45D8
100
AcDbEntity
  8
0
  0
TEXT
  5
4250
100
AcDbEntity
  8
0
100
AcDbText
 10
34.773624
 20
325.930588
 30
0.0
 40
8.0
  1
平面
100
AcDbText
  0
LINE
  5
4251
100
AcDbEntity
  8
0
100
AcDbLine
 10
147.59851
 20
318.416948
 30
0.0
 11
132.59851
 21
318.940759
 31
0.0
  0
LINE
  5
4252
100
AcDbEntity
  8
0
100
AcDbLine
 10
98.773497
 20
331.588778
 30
0.0
 11
110.873817
 21
331.588778
 31
0.0
  0
LINE
  5
4253
100
AcDbEntity
  8
0
100
AcDbLine
 10
122.974857
 20
327.555338
 30
0.0
 11
102.806937
 21
327.555338
 31
0.0
  0
LINE
  5
4254
100
AcDbEntity
  8
0
100
AcDbLine
 10
102.806937
 20
327.555338
 30
0.0
 11
98.773497
 21
331.588778
 31
0.0
  0
LINE
  5
4255
100
AcDbEntity
  8
0
100
AcDbLine
 10
118.853577
 20
329.572058
 30
0.0
 11
118.853577
 21
331.588778
 31
0.0
  0
LINE
  5
4256
100
AcDbEntity
  8
0
100
AcDbLine
 10
118.853577
 20
331.588778
 30
0.0
 11
122.974857
 21
327.555338
 31
0.0
  0
LINE
  5
4257
100
AcDbEntity
  8
0
100
AcDbLine
 10
110.873817
 20
331.588778
 30
0.0
 11
112.891257
 21
329.572058
 31
0.0
  0
LINE
  5
4258
100
AcDbEntity
  8
0
100
AcDbLine
 10
112.891257
 20
329.572058
 30
0.0
 11
118.853577
 21
329.572058
 31
0.0
  0
LINE
  5
4259
100
AcDbEntity
  8
0
100
AcDbLine
 10
192.59851
 20
318.166948
 30
0.0
 11
198.350703
 21
318.166948
 31
0.0
  0
ARC
  5
425A
100
AcDbEntity
  8
0
100
AcDbCircle
 10
174.010053
 20
321.166948
 30
0.0
 40
15.588457
100
AcDbArc
 50
332.733956
 51
27.266044
  0
ARC
  5
425B
100
AcDbEntity
  8
0
100
AcDbCircle
 10
186.186967
 20
321.166948
 30
0.0
 40
15.588457
100
AcDbArc
 50
152.733956
 51
207.266044
  0
LINE
  5
425C
100
AcDbEntity
  8
0
100
AcDbLine
 10
187.866459
 20
313.166948
 30
0.0
 11
187.866459
 21
314.025519
 31
0.0
  0
LINE
  5
425D
100
AcDbEntity
  8
0
100
AcDbLine
 10
189.59851
 20
314.166948
 30
0.0
 11
187.866459
 21
313.166948
 31
0.0
  0
LINE
  5
425E
100
AcDbEntity
  8
0
100
AcDbLine
 10
172.330561
 20
314.025519
 30
0.0
 11
172.330561
 21
313.166948
 31
0.0
  0
LINE
  5
425F
100
AcDbEntity
  8
0
100
AcDbLine
 10
170.59851
 20
314.166948
 30
0.0
 11
172.330561
 21
313.166948
 31
0.0
  0
LINE
  5
4260
100
AcDbEntity
  8
0
100
AcDbLine
 10
187.866459
 20
314.025519
 30
0.0
 11
172.330561
 21
314.025519
 31
0.0
  0
LINE
  5
4261
100
AcDbEntity
  8
0
100
AcDbLine
 10
187.866459
 20
313.166948
 30
0.0
 11
172.330561
 21
313.166948
 31
0.0
  0
LINE
  5
4262
100
AcDbEntity
  8
0
100
AcDbLine
 10
147.59851
 20
318.416948
 30
0.0
 11
170.59851
 21
318.416948
 31
0.0
  0
LINE
  5
4263
100
AcDbEntity
  8
0
100
AcDbLine
 10
168.59851
 20
323.455283
 30
0.0
 11
152.59851
 21
323.455283
 31
0.0
  0
LINE
  5
4264
100
AcDbEntity
  8
0
100
AcDbLine
 10
168.59851
 20
324.135795
 30
0.0
 11
152.59851
 21
324.135795
 31
0.0
  0
ARC
  5
4265
100
AcDbEntity
  8
0
100
AcDbCircle
 10
192.59851
 20
315.166948
 30
0.0
 40
3.0
100
AcDbArc
 50
90.0
 51
180.0
  0
LINE
  5
4266
100
AcDbEntity
  8
0
100
AcDbLine
 10
187.866459
 20
328.308376
 30
0.0
 11
187.866459
 21
330.025519
 31
0.0
  0
LINE
  5
4267
100
AcDbEntity
  8
0
100
AcDbLine
 10
172.330561
 20
330.025519
 30
0.0
 11
172.330561
 21
328.308376
 31
0.0
  0
LINE
  5
4268
100
AcDbEntity
  8
0
100
AcDbLine
 10
187.866459
 20
328.308376
 30
0.0
 11
172.330561
 21
328.308376
 31
0.0
  0
LINE
  5
4269
100
AcDbEntity
  8
0
100
AcDbLine
 10
187.866459
 20
330.025519
 30
0.0
 11
172.330561
 21
330.025519
 31
0.0
  0
POLYLINE
  5
426A
100
AcDbEntity
  8
0
100
AcDb2dPolyline
 66
     1
 10
0.0
 20
0.0
 30
0.0
  0
VERTEX
  5
45D9
100
AcDbEntity
  8
0
100
AcDbVertex
100
AcDb2dVertex
 10
220.181789
 20
318.301572
 30
0.0
  0
VERTEX
  5
45DA
100
AcDbEntity
  8
0
100
AcDbVertex
100
AcDb2dVertex
 10
225.799841
 20
328.032323
 30
0.0
  0
SEQEND
  5
45DB
100
AcDbEntity
  8
0
  0
POLYLINE
  5
426B
100
AcDbEntity
  8
0
100
AcDb2dPolyline
 66
     1
 10
0.0
 20
0.0
 30
0.0
  0
VERTEX
  5
45DC
100
AcDbEntity
  8
0
100
AcDbVertex
100
AcDb2dVertex
 10
206.980459
 20
317.166948
 30
0.0
  0
VERTEX
  5
45DD
100
AcDbEntity
  8
0
100
AcDbVertex
100
AcDb2dVertex
 10
218.216561
 20
317.166948
 30
0.0
  0
SEQEND
  5
45DE
100
AcDbEntity
  8
0
  0
POLYLINE
  5
426C
100
AcDbEntity
  8
0
100
AcDb2dPolyline
 66
     1
 10
0.0
 20
0.0
 30
0.0
  0
VERTEX
  5
45DF
100
AcDbEntity
  8
0
100
AcDbVertex
100
AcDb2dVertex
 10
199.39718
 20
328.032323
 30
0.0
  0
VERTEX
  5
45E0
100
AcDbEntity
  8
0
100
AcDbVertex
100
AcDb2dVertex
 10
205.015231
 20
318.301572
 30
0.0
  0
SEQEND
  5
45E1
100
AcDbEntity
  8
0
  0
LINE
  5
426D
100
AcDbEntity
  8
0
100
AcDbLine
 10
147.59851
 20
339.916948
 30
0.0
 11
132.59851
 21
339.393136
 31
0.0
  0
LINE
  5
426E
100
AcDbEntity
  8
0
100
AcDbLine
 10
192.59851
 20
340.166948
 30
0.0
 11
198.350703
 21
340.166948
 31
0.0
  0
LINE
  5
426F
100
AcDbEntity
  8
0
100
AcDbLine
 10
147.59851
 20
339.916948
 30
0.0
 11
170.59851
 21
339.916948
 31
0.0
  0
LINE
  5
4270
100
AcDbEntity
  8
0
100
AcDbLine
 10
168.59851
 20
334.1981
 30
0.0
 11
152.59851
 21
334.1981
 31
0.0
  0
LINE
  5
4271
100
AcDbEntity
  8
0
100
AcDbLine
 10
168.59851
 20
334.878612
 30
0.0
 11
152.59851
 21
334.878612
 31
0.0
  0
ARC
  5
4272
100
AcDbEntity
  8
0
100
AcDbCircle
 10
192.59851
 20
343.166948
 30
0.0
 40
3.0
100
AcDbArc
 50
180.0
 51
270.0
  0
LINE
  5
4273
100
AcDbEntity
  8
0
100
AcDbLine
 10
187.866459
 20
344.308376
 30
0.0
 11
187.866459
 21
345.166948
 31
0.0
  0
LINE
  5
4274
100
AcDbEntity
  8
0
100
AcDbLine
 10
189.59851
 20
344.166948
 30
0.0
 11
187.866459
 21
345.166948
 31
0.0
  0
LINE
  5
4275
100
AcDbEntity
  8
0
100
AcDbLine
 10
172.330561
 20
345.166948
 30
0.0
 11
172.330561
 21
344.308376
 31
0.0
  0
LINE
  5
4276
100
AcDbEntity
  8
0
100
AcDbLine
 10
170.59851
 20
344.166948
 30
0.0
 11
172.330561
 21
345.166948
 31
0.0
  0
LINE
  5
4277
100
AcDbEntity
  8
0
100
AcDbLine
 10
187.866459
 20
344.308376
 30
0.0
 11
172.330561
 21
344.308376
 31
0.0
  0
LINE
  5
4278
100
AcDbEntity
  8
0
100
AcDbLine
 10
187.866459
 20
345.166948
 30
0.0
 11
172.330561
 21
345.166948
 31
0.0
  0
POLYLINE
  5
4279
100
AcDbEntity
  8
0
100
AcDb2dPolyline
 66
     1
 10
0.0
 20
0.0
 30
0.0
  0
VERTEX
  5
45E2
100
AcDbEntity
  8
0
100
AcDbVertex
100
AcDb2dVertex
 10
218.216561
 20
341.166948
 30
0.0
  0
VERTEX
  5
45E3
100
AcDbEntity
  8
0
100
AcDbVertex
100
AcDb2dVertex
 10
206.980459
 20
341.166948
 30
0.0
  0
SEQEND
  5
45E4
100
AcDbEntity
  8
0
  0
LINE
  5
427A
100
AcDbEntity
  8
0
100
AcDbLine
 10
387.891852
 20
342.003453
 30
0.0
 11
387.891852
 21
316.330442
 31
0.0
  0
LINE
  5
427B
100
AcDbEntity
  8
0
100
AcDbLine
 10
381.151492
 20
327.555338
 30
0.0
 11
360.983572
 21
327.555338
 31
0.0
  0
LINE
  5
427C
100
AcDbEntity
  8
0
100
AcDbLine
 10
371.067892
 20
329.572058
 30
0.0
 11
377.030212
 21
329.572058
 31
0.0
  0
LINE
  5
427D
100
AcDbEntity
  8
0
100
AcDbLine
 10
356.950132
 20
331.588778
 30
0.0
 11
369.050452
 21
331.588778
 31
0.0
  0
LINE
  5
427E
100
AcDbEntity
  8
0
100
AcDbLine
 10
360.983572
 20
327.555338
 30
0.0
 11
356.950132
 21
331.588778
 31
0.0
  0
LINE
  5
427F
100
AcDbEntity
  8
0
100
AcDbLine
 10
369.050452
 20
331.588778
 30
0.0
 11
371.067892
 21
329.572058
 31
0.0
  0
LINE
  5
4280
100
AcDbEntity
  8
0
100
AcDbLine
 10
377.030212
 20
331.588778
 30
0.0
 11
381.151492
 21
327.555338
 31
0.0
  0
LINE
  5
4281
100
AcDbEntity
  8
0
100
AcDbLine
 10
377.030212
 20
329.572058
 30
0.0
 11
377.030212
 21
331.588778
 31
0.0
  0
LINE
  5
4282
100
AcDbEntity
  8
0
100
AcDbLine
 10
237.833087
 20
458.417094
 30
0.0
 11
258.001007
 21
458.417094
 31
0.0
  0
LINE
  5
4283
100
AcDbEntity
  8
0
100
AcDbLine
 10
262.034447
 20
462.450534
 30
0.0
 11
249.934127
 21
462.450534
 31
0.0
  0
LINE
  5
4284
100
AcDbEntity
  8
0
100
AcDbLine
 10
165.559027
 20
426.252075
 30
0.0
 11
165.559027
 21
441.291558
 31
0.0
  0
LINE
  5
4285
100
AcDbEntity
  8
0
100
AcDbLine
 10
157.136858
 20
426.252075
 30
0.0
 11
157.136858
 21
439.33104
 31
0.0
  0
LINE
  5
4286
100
AcDbEntity
  8
0
100
AcDbLine
 10
159.020679
 20
426.252075
 30
0.0
 11
159.020679
 21
439.33104
 31
0.0
  0
LINE
  5
4287
100
AcDbEntity
  8
0
100
AcDbLine
 10
142.176341
 20
426.252075
 30
0.0
 11
142.176341
 21
439.33104
 31
0.0
  0
LINE
  5
4288
100
AcDbEntity
  8
0
100
AcDbLine
 10
144.060162
 20
426.252075
 30
0.0
 11
144.060162
 21
439.33104
 31
0.0
  0
LINE
  5
4289
100
AcDbEntity
  8
0
100
AcDbLine
 10
135.637993
 20
426.252075
 30
0.0
 11
135.637993
 21
441.291558
 31
0.0
  0
ARC
  5
428A
100
AcDbEntity
  8
0
100
AcDbCircle
 10
138.907167
 20
427.9975
 30
0.0
 40
3.705942
100
AcDbArc
 50
208.097938
 51
331.902062
  0
LINE
  5
428B
100
AcDbEntity
  8
0
100
AcDbLine
 10
137.59851
 20
424.291558
 30
0.0
 11
135.637993
 21
426.252075
 31
0.0
  0
TEXT
  5
428C
100
AcDbEntity
  8
0
100
AcDbText
 10
34.773624
 20
458.267322
 30
0.0
 40
8.0
  1
背面
100
AcDbText
  0
ARC
  5
428D
100
AcDbEntity
  8
0
100
AcDbCircle
 10
162.289853
 20
427.9975
 30
0.0
 40
3.705942
100
AcDbArc
 50
208.097938
 51
331.902062
  0
LINE
  5
428E
100
AcDbEntity
  8
0
100
AcDbLine
 10
163.59851
 20
424.291558
 30
0.0
 11
165.559027
 21
426.252075
 31
0.0
  0
LINE
  5
428F
100
AcDbEntity
  8
0
100
AcDbLine
 10
159.020679
 20
426.252075
 30
0.0
 11
157.136858
 21
426.252075
 31
0.0
  0
LINE
  5
4290
100
AcDbEntity
  8
0
100
AcDbLine
 10
144.060162
 20
426.252075
 30
0.0
 11
142.176341
 21
426.252075
 31
0.0
  0
ARC
  5
4291
100
AcDbEntity
  8
0
100
AcDbCircle
 10
150.59851
 20
436.174552
 30
0.0
 40
11.882994
100
AcDbArc
 50
236.617388
 51
303.382612
  0
LINE
  5
4292
100
AcDbEntity
  8
0
100
AcDbLine
 10
163.59851
 20
424.291558
 30
0.0
 11
137.59851
 21
424.291558
 31
0.0
  0
ARC
  5
4293
100
AcDbEntity
  8
0
100
AcDbCircle
 10
135.34851
 20
500.291558
 30
0.0
 40
2.0
100
AcDbArc
 50
270.0
 51
0.0
  0
LINE
  5
4294
100
AcDbEntity
  8
0
100
AcDbLine
 10
132.59851
 20
492.291558
 30
0.0
 11
168.59851
 21
492.291558
 31
0.0
  0
LINE
  5
4295
100
AcDbEntity
  8
0
100
AcDbLine
 10
133.59851
 20
498.291558
 30
0.0
 11
167.59851
 21
498.291558
 31
0.0
  0
LINE
  5
4296
100
AcDbEntity
  8
0
100
AcDbLine
 10
132.59851
 20
497.291558
 30
0.0
 11
168.59851
 21
497.291558
 31
0.0
  0
LINE
  5
4297
100
AcDbEntity
  8
0
100
AcDbLine
 10
168.59851
 20
487.291558
 30
0.0
 11
132.59851
 21
487.291558
 31
0.0
  0
ARC
  5
4298
100
AcDbEntity
  8
0
100
AcDbCircle
 10
138.907167
 20
437.585615
 30
0.0
 40
3.705942
100
AcDbArc
 50
28.097938
 51
151.902062
  0
LINE
  5
4299
100
AcDbEntity
  8
0
100
AcDbLine
 10
165.559027
 20
441.291558
 30
0.0
 11
135.637993
 21
441.291558
 31
0.0
  0
LINE
  5
429A
100
AcDbEntity
  8
0
100
AcDbLine
 10
134.59851
 20
475.948994
 30
0.0
 11
134.59851
 21
442.33104
 31
0.0
  0
LINE
  5
429B
100
AcDbEntity
  8
0
100
AcDbLine
 10
135.637993
 20
441.291558
 30
0.0
 11
134.59851
 21
442.33104
 31
0.0
  0
LINE
  5
429C
100
AcDbEntity
  8
0
100
AcDbLine
 10
132.59851
 20
492.291558
 30
0.0
 11
132.59851
 21
487.291558
 31
0.0
  0
LINE
  5
429D
100
AcDbEntity
  8
0
100
AcDbLine
 10
132.59851
 20
487.291558
 30
0.0
 11
134.59851
 21
475.948994
 31
0.0
  0
LINE
  5
429E
100
AcDbEntity
  8
0
100
AcDbLine
 10
132.59851
 20
497.291558
 30
0.0
 11
132.59851
 21
492.291558
 31
0.0
  0
LINE
  5
429F
100
AcDbEntity
  8
0
100
AcDbLine
 10
132.59851
 20
497.291558
 30
0.0
 11
133.59851
 21
498.291558
 31
0.0
  0
LINE
  5
42A0
100
AcDbEntity
  8
0
100
AcDbLine
 10
192.59851
 20
444.291558
 30
0.0
 11
192.59851
 21
474.291558
 31
0.0
  0
ARC
  5
42A1
100
AcDbEntity
  8
0
100
AcDbCircle
 10
186.800592
 20
473.158208
 30
0.0
 40
5.797918
100
AcDbArc
 50
314.52845
 51
45.47155
  0
LINE
  5
42A2
100
AcDbEntity
  8
0
100
AcDbLine
 10
173.59851
 20
473.291558
 30
0.0
 11
173.59851
 21
445.291558
 31
0.0
  0
ARC
  5
42A3
100
AcDbEntity
  8
0
100
AcDbCircle
 10
169.59851
 20
473.291558
 30
0.0
 40
3.0
100
AcDbArc
 50
180.0
 51
270.0
  0
ARC
  5
42A4
100
AcDbEntity
  8
0
100
AcDbCircle
 10
170.59851
 20
473.291558
 30
0.0
 40
3.0
100
AcDbArc
 50
270.0
 51
0.0
  0
ARC
  5
42A5
100
AcDbEntity
  8
0
100
AcDbCircle
 10
179.396429
 20
473.158208
 30
0.0
 40
5.797918
100
AcDbArc
 50
134.52845
 51
225.47155
  0
LINE
  5
42A6
100
AcDbEntity
  8
0
100
AcDbLine
 10
215.59851
 20
470.041558
 30
0.0
 11
192.59851
 21
470.041558
 31
0.0
  0
LINE
  5
42A7
100
AcDbEntity
  8
0
100
AcDbLine
 10
215.59851
 20
448.541558
 30
0.0
 11
192.59851
 21
448.541558
 31
0.0
  0
ARC
  5
42A8
100
AcDbEntity
  8
0
100
AcDbCircle
 10
172.102575
 20
459.291558
 30
0.0
 40
20.495935
100
AcDbArc
 50
336.275831
 51
23.724169
  0
ARC
  5
42A9
100
AcDbEntity
  8
0
100
AcDbCircle
 10
183.630659
 20
458.86838
 30
0.0
 40
21.48585
100
AcDbArc
 50
151.635656
 51
206.107242
  0
ARC
  5
42AA
100
AcDbEntity
  8
0
100
AcDbCircle
 10
194.094445
 20
459.291558
 30
0.0
 40
20.495935
100
AcDbArc
 50
156.275831
 51
203.724169
  0
ARC
  5
42AB
100
AcDbEntity
  8
0
100
AcDbCircle
 10
162.289853
 20
437.585615
 30
0.0
 40
3.705942
100
AcDbArc
 50
28.097938
 51
151.902062
  0
LINE
  5
42AC
100
AcDbEntity
  8
0
100
AcDbLine
 10
159.020679
 20
439.33104
 30
0.0
 11
157.136858
 21
439.33104
 31
0.0
  0
LINE
  5
42AD
100
AcDbEntity
  8
0
100
AcDbLine
 10
144.060162
 20
439.33104
 30
0.0
 11
142.176341
 21
439.33104
 31
0.0
  0
ARC
  5
42AE
100
AcDbEntity
  8
0
100
AcDbCircle
 10
150.59851
 20
429.408564
 30
0.0
 40
11.882994
100
AcDbArc
 50
56.617388
 51
123.382612
  0
LINE
  5
42AF
100
AcDbEntity
  8
0
100
AcDbLine
 10
175.330561
 20
449.558257
 30
0.0
 11
175.330561
 21
451.045346
 31
0.0
  0
LINE
  5
42B0
100
AcDbEntity
  8
0
100
AcDbLine
 10
190.866459
 20
451.045346
 30
0.0
 11
190.866459
 21
449.558257
 31
0.0
  0
ARC
  5
42B1
100
AcDbEntity
  8
0
100
AcDbCircle
 10
186.800592
 20
445.424907
 30
0.0
 40
5.797918
100
AcDbArc
 50
314.52845
 51
45.47155
  0
LINE
  5
42B2
100
AcDbEntity
  8
0
100
AcDbLine
 10
192.59851
 20
444.291558
 30
0.0
 11
190.866459
 21
441.291558
 31
0.0
  0
LINE
  5
42B3
100
AcDbEntity
  8
0
100
AcDbLine
 10
175.330561
 20
441.291558
 30
0.0
 11
190.866459
 21
441.291558
 31
0.0
  0
LINE
  5
42B4
100
AcDbEntity
  8
0
100
AcDbLine
 10
175.330561
 20
449.558257
 30
0.0
 11
190.866459
 21
449.558257
 31
0.0
  0
LINE
  5
42B5
100
AcDbEntity
  8
0
100
AcDbLine
 10
175.330561
 20
451.045346
 30
0.0
 11
190.866459
 21
451.045346
 31
0.0
  0
LINE
  5
42B6
100
AcDbEntity
  8
0
100
AcDbLine
 10
166.59851
 20
445.291558
 30
0.0
 11
166.59851
 21
442.33104
 31
0.0
  0
LINE
  5
42B7
100
AcDbEntity
  8
0
100
AcDbLine
 10
165.559027
 20
441.291558
 30
0.0
 11
166.59851
 21
442.33104
 31
0.0
  0
ARC
  5
42B8
100
AcDbEntity
  8
0
100
AcDbCircle
 10
170.59851
 20
445.291558
 30
0.0
 40
3.0
100
AcDbArc
 50
0.0
 51
90.0
  0
ARC
  5
42B9
100
AcDbEntity
  8
0
100
AcDbCircle
 10
169.59851
 20
445.291558
 30
0.0
 40
3.0
100
AcDbArc
 50
90.0
 51
180.0
  0
LINE
  5
42BA
100
AcDbEntity
  8
0
100
AcDbLine
 10
170.59851
 20
448.291558
 30
0.0
 11
169.59851
 21
448.291558
 31
0.0
  0
ARC
  5
42BB
100
AcDbEntity
  8
0
100
AcDbCircle
 10
179.396429
 20
445.424907
 30
0.0
 40
5.797918
100
AcDbArc
 50
134.52845
 51
225.47155
  0
LINE
  5
42BC
100
AcDbEntity
  8
0
100
AcDbLine
 10
173.59851
 20
444.291558
 30
0.0
 11
175.330561
 21
441.291558
 31
0.0
  0
LINE
  5
42BD
100
AcDbEntity
  8
0
100
AcDbLine
 10
190.866459
 20
469.024858
 30
0.0
 11
190.866459
 21
467.537769
 31
0.0
  0
LINE
  5
42BE
100
AcDbEntity
  8
0
100
AcDbLine
 10
175.330561
 20
467.537769
 30
0.0
 11
175.330561
 21
469.024858
 31
0.0
  0
LINE
  5
42BF
100
AcDbEntity
  8
0
100
AcDbLine
 10
175.330561
 20
467.537769
 30
0.0
 11
190.866459
 21
467.537769
 31
0.0
  0
LINE
  5
42C0
100
AcDbEntity
  8
0
100
AcDbLine
 10
175.330561
 20
469.024858
 30
0.0
 11
190.866459
 21
469.024858
 31
0.0
  0
LINE
  5
42C1
100
AcDbEntity
  8
0
100
AcDbLine
 10
170.59851
 20
470.291558
 30
0.0
 11
169.59851
 21
470.291558
 31
0.0
  0
LINE
  5
42C2
100
AcDbEntity
  8
0
100
AcDbLine
 10
230.59851
 20
469.517746
 30
0.0
 11
230.59851
 21
449.065369
 31
0.0
  0
LINE
  5
42C3
100
AcDbEntity
  8
0
100
AcDbLine
 10
194.59851
 20
470.041558
 30
0.0
 11
194.59851
 21
448.541558
 31
0.0
  0
LINE
  5
42C4
100
AcDbEntity
  8
0
100
AcDbLine
 10
210.59851
 20
470.041558
 30
0.0
 11
210.59851
 21
448.541558
 31
0.0
  0
LINE
  5
42C5
100
AcDbEntity
  8
0
100
AcDbLine
 10
215.59851
 20
470.041558
 30
0.0
 11
215.59851
 21
448.541558
 31
0.0
  0
LINE
  5
42C6
100
AcDbEntity
  8
0
100
AcDbLine
 10
215.59851
 20
448.541558
 30
0.0
 11
230.59851
 21
449.065369
 31
0.0
  0
LINE
  5
42C7
100
AcDbEntity
  8
0
100
AcDbLine
 10
194.59851
 20
453.579893
 30
0.0
 11
210.59851
 21
453.579893
 31
0.0
  0
LINE
  5
42C8
100
AcDbEntity
  8
0
100
AcDbLine
 10
194.59851
 20
454.260405
 30
0.0
 11
210.59851
 21
454.260405
 31
0.0
  0
LINE
  5
42C9
100
AcDbEntity
  8
0
100
AcDbLine
 10
215.59851
 20
470.041558
 30
0.0
 11
230.59851
 21
469.517746
 31
0.0
  0
LINE
  5
42CA
100
AcDbEntity
  8
0
100
AcDbLine
 10
194.59851
 20
464.322711
 30
0.0
 11
210.59851
 21
464.322711
 31
0.0
  0
LINE
  5
42CB
100
AcDbEntity
  8
0
100
AcDbLine
 10
194.59851
 20
465.003222
 30
0.0
 11
210.59851
 21
465.003222
 31
0.0
  0
LINE
  5
42CC
100
AcDbEntity
  8
0
100
AcDbLine
 10
249.934127
 20
462.450534
 30
0.0
 11
247.916687
 21
460.433814
 31
0.0
  0
LINE
  5
42CD
100
AcDbEntity
  8
0
100
AcDbLine
 10
241.954367
 20
462.450534
 30
0.0
 11
237.833087
 21
458.417094
 31
0.0
  0
LINE
  5
42CE
100
AcDbEntity
  8
0
100
AcDbLine
 10
241.954367
 20
460.433814
 30
0.0
 11
241.954367
 21
462.450534
 31
0.0
  0
LINE
  5
42CF
100
AcDbEntity
  8
0
100
AcDbLine
 10
247.916687
 20
460.433814
 30
0.0
 11
241.954367
 21
460.433814
 31
0.0
  0
LINE
  5
42D0
100
AcDbEntity
  8
0
100
AcDbLine
 10
168.59851
 20
492.291558
 30
0.0
 11
168.59851
 21
487.291558
 31
0.0
  0
LINE
  5
42D1
100
AcDbEntity
  8
0
100
AcDbLine
 10
192.59851
 20
474.291558
 30
0.0
 11
190.866459
 21
477.291558
 31
0.0
  0
LINE
  5
42D2
100
AcDbEntity
  8
0
100
AcDbLine
 10
175.330561
 20
477.291558
 30
0.0
 11
190.866459
 21
477.291558
 31
0.0
  0
LINE
  5
42D3
100
AcDbEntity
  8
0
100
AcDbLine
 10
168.59851
 20
487.291558
 30
0.0
 11
166.59851
 21
475.948994
 31
0.0
  0
LINE
  5
42D4
100
AcDbEntity
  8
0
100
AcDbLine
 10
166.59851
 20
475.948994
 30
0.0
 11
166.59851
 21
473.291558
 31
0.0
  0
LINE
  5
42D5
100
AcDbEntity
  8
0
100
AcDbLine
 10
173.59851
 20
474.291558
 30
0.0
 11
175.330561
 21
477.291558
 31
0.0
  0
ARC
  5
42D6
100
AcDbEntity
  8
0
100
AcDbCircle
 10
165.84851
 20
500.291558
 30
0.0
 40
2.0
100
AcDbArc
 50
180.0
 51
270.0
  0
LINE
  5
42D7
100
AcDbEntity
  8
0
100
AcDbLine
 10
137.34851
 20
500.291558
 30
0.0
 11
163.84851
 21
500.291558
 31
0.0
  0
LINE
  5
42D8
100
AcDbEntity
  8
0
100
AcDbLine
 10
168.59851
 20
497.291558
 30
0.0
 11
168.59851
 21
492.291558
 31
0.0
  0
LINE
  5
42D9
100
AcDbEntity
  8
0
100
AcDbLine
 10
167.59851
 20
498.291558
 30
0.0
 11
168.59851
 21
497.291558
 31
0.0
  0
LINE
  5
42DA
100
AcDbEntity
  8
0
100
AcDbLine
 10
389.891852
 20
472.948994
 30
0.0
 11
389.891852
 21
438.291558
 31
0.0
  0
LINE
  5
42DB
100
AcDbEntity
  8
0
100
AcDbLine
 10
388.491084
 20
420.692326
 30
0.0
 11
388.491084
 21
435.865356
 31
0.0
  0
LINE
  5
42DC
100
AcDbEntity
  8
0
100
AcDbLine
 10
395.579808
 20
420.692326
 30
0.0
 11
395.579808
 21
435.865356
 31
0.0
  0
LINE
  5
42DD
100
AcDbEntity
  8
0
100
AcDbLine
 10
398.803129
 20
420.692326
 30
0.0
 11
398.803129
 21
435.865356
 31
0.0
  0
LINE
  5
42DE
100
AcDbEntity
  8
0
100
AcDbLine
 10
390.891852
 20
418.291558
 30
0.0
 11
388.491084
 21
420.692326
 31
0.0
  0
LINE
  5
42DF
100
AcDbEntity
  8
0
100
AcDbLine
 10
395.579808
 20
420.692326
 30
0.0
 11
398.803129
 21
420.692326
 31
0.0
  0
ARC
  5
42E0
100
AcDbEntity
  8
0
100
AcDbCircle
 10
392.035446
 20
422.108292
 30
0.0
 40
3.816734
100
AcDbArc
 50
201.776618
 51
338.223382
  0
LINE
  5
42E1
100
AcDbEntity
  8
0
100
AcDbLine
 10
388.491084
 20
435.865356
 30
0.0
 11
389.891852
 21
438.291558
 31
0.0
  0
LINE
  5
42E2
100
AcDbEntity
  8
0
100
AcDbLine
 10
395.579808
 20
435.865356
 30
0.0
 11
398.803129
 21
435.865356
 31
0.0
  0
ARC
  5
42E3
100
AcDbEntity
  8
0
100
AcDbCircle
 10
392.035446
 20
434.44939
 30
0.0
 40
3.816734
100
AcDbArc
 50
21.776618
 51
158.223382
  0
LINE
  5
42E4
100
AcDbEntity
  8
0
100
AcDbLine
 10
388.495766
 20
427.033227
 30
0.0
 11
388.491084
 21
427.033227
 31
0.0
  0
LINE
  5
42E5
100
AcDbEntity
  8
0
100
AcDbLine
 10
258.001007
 20
458.417094
 30
0.0
 11
262.034447
 21
462.450534
 31
0.0
  0
LINE
  5
42E6
100
AcDbEntity
  8
0
100
AcDbLine
 10
387.891852
 20
494.291558
 30
0.0
 11
387.891852
 21
489.291558
 31
0.0
  0
LINE
  5
42E7
100
AcDbEntity
  8
0
100
AcDbLine
 10
387.891852
 20
484.291558
 30
0.0
 11
389.891852
 21
472.948994
 31
0.0
  0
LINE
  5
42E8
100
AcDbEntity
  8
0
100
AcDbLine
 10
387.891852
 20
489.291558
 30
0.0
 11
387.891852
 21
484.291558
 31
0.0
  0
ARC
  5
42E9
100
AcDbEntity
  8
0
100
AcDbCircle
 10
390.641852
 20
497.291558
 30
0.0
 40
2.0
100
AcDbArc
 50
270.0
 51
0.0
  0
LINE
  5
42EA
100
AcDbEntity
  8
0
100
AcDbLine
 10
387.891852
 20
494.291558
 30
0.0
 11
388.891852
 21
495.291558
 31
0.0
  0
ARC
  5
42EB
100
AcDbEntity
  8
0
100
AcDbCircle
 10
160.586727
 20
481.059921
 30
0.0
 40
36.997698
100
AcDbArc
 50
86.882953
 51
105.662398
  0
LINE
  5
42EC
100
AcDbEntity
  8
0
100
AcDbLine
 10
162.09851
 20
518.291558
 30
0.0
 11
162.59851
 21
518.002882
 31
0.0
  0
LINE
  5
42ED
100
AcDbEntity
  8
0
100
AcDbLine
 10
139.09851
 20
518.291558
 30
0.0
 11
138.59851
 21
518.002882
 31
0.0
  0
ARC
  5
42EE
100
AcDbEntity
  8
0
100
AcDbCircle
 10
140.610293
 20
481.059921
 30
0.0
 40
36.997698
100
AcDbArc
 50
74.337602
 51
93.117047
  0
LINE
  5
42EF
100
AcDbEntity
  8
0
100
AcDbLine
 10
139.09851
 20
518.291558
 30
0.0
 11
162.09851
 21
518.291558
 31
0.0
  0
LINE
  5
42F0
100
AcDbEntity
  8
0
100
AcDbLine
 10
394.391852
 20
515.291558
 30
0.0
 11
393.891852
 21
515.002882
 31
0.0
  0
LINE
  5
42F1
100
AcDbEntity
  8
0
100
AcDbLine
 10
695.90292
 20
513.002882
 30
0.0
 11
695.90292
 21
495.291558
 31
0.0
  0
LINE
  5
42F2
100
AcDbEntity
  8
0
100
AcDbLine
 10
683.90292
 20
511.683862
 30
0.0
 11
683.90292
 21
495.291558
 31
0.0
  0
LINE
  5
42F3
100
AcDbEntity
  8
0
100
AcDbLine
 10
671.90292
 20
513.002882
 30
0.0
 11
671.90292
 21
495.291558
 31
0.0
  0
LINE
  5
42F4
100
AcDbEntity
  8
0
100
AcDbLine
 10
405.891852
 20
513.683862
 30
0.0
 11
405.891852
 21
497.291558
 31
0.0
  0
LINE
  5
42F5
100
AcDbEntity
  8
0
100
AcDbLine
 10
417.891852
 20
515.002882
 30
0.0
 11
417.891852
 21
497.291558
 31
0.0
  0
POLYLINE
  5
42F6
100
AcDbEntity
  8
0
100
AcDb2dPolyline
 66
     1
 10
0.0
 20
0.0
 30
0.0
  0
VERTEX
  5
45E5
100
AcDbEntity
  8
0
100
AcDbVertex
100
AcDb2dVertex
 10
467.308573
 20
340.032323
 30
0.0
  0
VERTEX
  5
45E6
100
AcDbEntity
  8
0
100
AcDbVertex
100
AcDb2dVertex
 10
461.690522
 20
330.301572
 30
0.0
  0
SEQEND
  5
45E7
100
AcDbEntity
  8
0
  0
POLYLINE
  5
42F7
100
AcDbEntity
  8
0
100
AcDb2dPolyline
 66
     1
 10
0.0
 20
0.0
 30
0.0
  0
VERTEX
  5
45E8
100
AcDbEntity
  8
0
100
AcDbVertex
100
AcDb2dVertex
 10
488.093183
 20
330.301572
 30
0.0
  0
VERTEX
  5
45E9
100
AcDbEntity
  8
0
100
AcDbVertex
100
AcDb2dVertex
 10
482.475132
 20
340.032323
 30
0.0
  0
SEQEND
  5
45EA
100
AcDbEntity
  8
0
  0
CIRCLE
  5
42F8
100
AcDbEntity
  8
0
100
AcDbCircle
 10
474.891852
 20
329.166948
 30
0.0
 40
11.5
  0
CIRCLE
  5
42F9
100
AcDbEntity
  8
0
100
AcDbCircle
 10
474.891852
 20
329.166948
 30
0.0
 40
13.25
  0
LINE
  5
42FA
100
AcDbEntity
  8
0
100
AcDbLine
 10
413.391852
 20
342.666948
 30
0.0
 11
413.391852
 21
315.666948
 31
0.0
  0
LINE
  5
42FB
100
AcDbEntity
  8
0
100
AcDbLine
 10
406.891852
 20
342.666948
 30
0.0
 11
406.891852
 21
315.666948
 31
0.0
  0
LINE
  5
42FC
100
AcDbEntity
  8
0
100
AcDbLine
 10
430.391852
 20
342.666948
 30
0.0
 11
430.391852
 21
315.666948
 31
0.0
  0
CIRCLE
  5
42FD
100
AcDbEntity
  8
0
100
AcDbCircle
 10
474.891852
 20
329.166948
 30
0.0
 40
17.0
  0
CIRCLE
  5
42FE
100
AcDbEntity
  8
0
100
AcDbCircle
 10
474.891852
 20
329.166948
 30
0.0
 40
18.0
  0
LINE
  5
42FF
100
AcDbEntity
  8
0
100
AcDbLine
 10
432.891852
 20
310.666948
 30
0.0
 11
432.891852
 21
347.666948
 31
0.0
  0
LINE
  5
4300
100
AcDbEntity
  8
0
100
AcDbLine
 10
451.891852
 20
310.666948
 30
0.0
 11
451.891852
 21
347.666948
 31
0.0
  0
ARC
  5
4301
100
AcDbEntity
  8
0
100
AcDbCircle
 10
429.778208
 20
338.666948
 30
0.0
 40
22.113644
100
AcDbArc
 50
339.49556
 51
20.50444
  0
ARC
  5
4302
100
AcDbEntity
  8
0
100
AcDbCircle
 10
455.005497
 20
338.666948
 30
0.0
 40
22.113644
100
AcDbArc
 50
159.49556
 51
200.50444
  0
LINE
  5
4303
100
AcDbEntity
  8
0
100
AcDbLine
 10
454.891852
 20
315.666948
 30
0.0
 11
462.985972
 21
315.666948
 31
0.0
  0
ARC
  5
4304
100
AcDbEntity
  8
0
100
AcDbCircle
 10
454.891852
 20
312.666948
 30
0.0
 40
3.0
100
AcDbArc
 50
90.0
 51
180.0
  0
ARC
  5
4305
100
AcDbEntity
  8
0
100
AcDbCircle
 10
429.778208
 20
319.666948
 30
0.0
 40
22.113644
100
AcDbArc
 50
339.49556
 51
20.50444
  0
ARC
  5
4306
100
AcDbEntity
  8
0
100
AcDbCircle
 10
455.005497
 20
319.666948
 30
0.0
 40
22.113644
100
AcDbArc
 50
159.49556
 51
200.50444
  0
LINE
  5
4307
100
AcDbEntity
  8
0
100
AcDbLine
 10
450.490844
 20
310.166948
 30
0.0
 11
434.292861
 21
310.166948
 31
0.0
  0
LINE
  5
4308
100
AcDbEntity
  8
0
100
AcDbLine
 10
450.490844
 20
311.920981
 30
0.0
 11
434.292861
 21
311.920981
 31
0.0
  0
LINE
  5
4309
100
AcDbEntity
  8
0
100
AcDbLine
 10
432.891852
 20
310.666948
 30
0.0
 11
434.292861
 21
310.166948
 31
0.0
  0
LINE
  5
430A
100
AcDbEntity
  8
0
100
AcDbLine
 10
434.292861
 20
310.166948
 30
0.0
 11
434.292861
 21
311.920981
 31
0.0
  0
LINE
  5
430B
100
AcDbEntity
  8
0
100
AcDbLine
 10
451.891852
 20
310.666948
 30
0.0
 11
450.490844
 21
310.166948
 31
0.0
  0
LINE
  5
430C
100
AcDbEntity
  8
0
100
AcDbLine
 10
450.490844
 20
310.166948
 30
0.0
 11
450.490844
 21
311.920981
 31
0.0
  0
LINE
  5
430D
100
AcDbEntity
  8
0
100
AcDbLine
 10
406.891852
 20
315.666948
 30
0.0
 11
432.891852
 21
315.666948
 31
0.0
  0
LINE
  5
430E
100
AcDbEntity
  8
0
100
AcDbLine
 10
413.391852
 20
322.982289
 30
0.0
 11
430.391852
 21
322.982289
 31
0.0
  0
LINE
  5
430F
100
AcDbEntity
  8
0
100
AcDbLine
 10
413.391852
 20
321.866972
 30
0.0
 11
430.391852
 21
321.866972
 31
0.0
  0
LINE
  5
4310
100
AcDbEntity
  8
0
100
AcDbLine
 10
450.490844
 20
330.920981
 30
0.0
 11
434.292861
 21
330.920981
 31
0.0
  0
LINE
  5
4311
100
AcDbEntity
  8
0
100
AcDbLine
 10
450.490844
 20
327.412914
 30
0.0
 11
434.292861
 21
327.412914
 31
0.0
  0
LINE
  5
4312
100
AcDbEntity
  8
0
100
AcDbLine
 10
434.292861
 20
327.412914
 30
0.0
 11
434.292861
 21
330.920981
 31
0.0
  0
LINE
  5
4313
100
AcDbEntity
  8
0
100
AcDbLine
 10
450.490844
 20
327.412914
 30
0.0
 11
450.490844
 21
330.920981
 31
0.0
  0
POLYLINE
  5
4314
100
AcDbEntity
  8
0
100
AcDb2dPolyline
 66
     1
 10
0.0
 20
0.0
 30
0.0
  0
VERTEX
  5
45EB
100
AcDbEntity
  8
0
100
AcDbVertex
100
AcDb2dVertex
 10
469.273801
 20
317.166948
 30
0.0
  0
VERTEX
  5
45EC
100
AcDbEntity
  8
0
100
AcDbVertex
100
AcDb2dVertex
 10
480.509904
 20
317.166948
 30
0.0
  0
SEQEND
  5
45ED
100
AcDbEntity
  8
0
  0
POLYLINE
  5
4315
100
AcDbEntity
  8
0
100
AcDb2dPolyline
 66
     1
 10
0.0
 20
0.0
 30
0.0
  0
VERTEX
  5
45EE
100
AcDbEntity
  8
0
100
AcDbVertex
100
AcDb2dVertex
 10
461.690522
 20
328.032323
 30
0.0
  0
VERTEX
  5
45EF
100
AcDbEntity
  8
0
100
AcDbVertex
100
AcDb2dVertex
 10
467.308573
 20
318.301572
 30
0.0
  0
SEQEND
  5
45F0
100
AcDbEntity
  8
0
  0
POLYLINE
  5
4316
100
AcDbEntity
  8
0
100
AcDb2dPolyline
 66
     1
 10
0.0
 20
0.0
 30
0.0
  0
VERTEX
  5
45F1
100
AcDbEntity
  8
0
100
AcDbVertex
100
AcDb2dVertex
 10
482.475132
 20
318.301572
 30
0.0
  0
VERTEX
  5
45F2
100
AcDbEntity
  8
0
100
AcDbVertex
100
AcDb2dVertex
 10
488.093183
 20
328.032323
 30
0.0
  0
SEQEND
  5
45F3
100
AcDbEntity
  8
0
  0
LINE
  5
4317
100
AcDbEntity
  8
0
100
AcDbLine
 10
454.891852
 20
342.666948
 30
0.0
 11
462.985972
 21
342.666948
 31
0.0
  0
LINE
  5
4318
100
AcDbEntity
  8
0
100
AcDbLine
 10
406.891852
 20
342.666948
 30
0.0
 11
432.891852
 21
342.666948
 31
0.0
  0
LINE
  5
4319
100
AcDbEntity
  8
0
100
AcDbLine
 10
413.391852
 20
336.466923
 30
0.0
 11
430.391852
 21
336.466923
 31
0.0
  0
LINE
  5
431A
100
AcDbEntity
  8
0
100
AcDbLine
 10
413.391852
 20
335.351606
 30
0.0
 11
430.391852
 21
335.351606
 31
0.0
  0
LINE
  5
431B
100
AcDbEntity
  8
0
100
AcDbLine
 10
450.490844
 20
348.166948
 30
0.0
 11
434.292861
 21
348.166948
 31
0.0
  0
LINE
  5
431C
100
AcDbEntity
  8
0
100
AcDbLine
 10
450.490844
 20
346.412914
 30
0.0
 11
434.292861
 21
346.412914
 31
0.0
  0
LINE
  5
431D
100
AcDbEntity
  8
0
100
AcDbLine
 10
432.891852
 20
347.666948
 30
0.0
 11
434.292861
 21
348.166948
 31
0.0
  0
LINE
  5
431E
100
AcDbEntity
  8
0
100
AcDbLine
 10
434.292861
 20
346.412914
 30
0.0
 11
434.292861
 21
348.166948
 31
0.0
  0
LINE
  5
431F
100
AcDbEntity
  8
0
100
AcDbLine
 10
451.891852
 20
347.666948
 30
0.0
 11
450.490844
 21
348.166948
 31
0.0
  0
LINE
  5
4320
100
AcDbEntity
  8
0
100
AcDbLine
 10
450.490844
 20
346.412914
 30
0.0
 11
450.490844
 21
348.166948
 31
0.0
  0
ARC
  5
4321
100
AcDbEntity
  8
0
100
AcDbCircle
 10
454.891852
 20
345.666948
 30
0.0
 40
3.0
100
AcDbArc
 50
180.0
 51
270.0
  0
POLYLINE
  5
4322
100
AcDbEntity
  8
0
100
AcDb2dPolyline
 66
     1
 10
0.0
 20
0.0
 30
0.0
  0
VERTEX
  5
45F4
100
AcDbEntity
  8
0
100
AcDbVertex
100
AcDb2dVertex
 10
480.509904
 20
341.166948
 30
0.0
  0
VERTEX
  5
45F5
100
AcDbEntity
  8
0
100
AcDbVertex
100
AcDb2dVertex
 10
469.273801
 20
341.166948
 30
0.0
  0
SEQEND
  5
45F6
100
AcDbEntity
  8
0
  0
LINE
  5
4323
100
AcDbEntity
  8
0
100
AcDbLine
 10
739.40292
 20
352.166948
 30
0.0
 11
739.40292
 21
306.166948
 31
0.0
  0
LINE
  5
4324
100
AcDbEntity
  8
0
100
AcDbLine
 10
717.40292
 20
352.166948
 30
0.0
 11
717.40292
 21
306.166948
 31
0.0
  0
LINE
  5
4325
100
AcDbEntity
  8
0
100
AcDbLine
 10
661.40292
 20
345.479448
 30
0.0
 11
661.40292
 21
329.166948
 31
0.0
  0
CIRCLE
  5
4326
100
AcDbEntity
  8
0
100
AcDbCircle
 10
766.40292
 20
329.166948
 30
0.0
 40
18.0
  0
CIRCLE
  5
4327
100
AcDbEntity
  8
0
100
AcDbCircle
 10
766.40292
 20
329.166948
 30
0.0
 40
17.0
  0
LINE
  5
4328
100
AcDbEntity
  8
0
100
AcDbLine
 10
712.90292
 20
346.166948
 30
0.0
 11
712.90292
 21
312.166948
 31
0.0
  0
LINE
  5
4329
100
AcDbEntity
  8
0
100
AcDbLine
 10
691.90292
 20
346.166948
 30
0.0
 11
691.90292
 21
312.166948
 31
0.0
  0
LINE
  5
432A
100
AcDbEntity
  8
0
100
AcDbLine
 10
683.40292
 20
346.166948
 30
0.0
 11
683.40292
 21
312.166948
 31
0.0
  0
LINE
  5
432B
100
AcDbEntity
  8
0
100
AcDbLine
 10
719.134971
 20
325.827202
 30
0.0
 11
719.134971
 21
332.506693
 31
0.0
  0
CIRCLE
  5
432C
100
AcDbEntity
  8
0
100
AcDbCircle
 10
766.40292
 20
329.166948
 30
0.0
 40
13.25
  0
CIRCLE
  5
432D
100
AcDbEntity
  8
0
100
AcDbCircle
 10
766.40292
 20
329.166948
 30
0.0
 40
11.5
  0
LINE
  5
432E
100
AcDbEntity
  8
0
100
AcDbLine
 10
737.67087
 20
332.506693
 30
0.0
 11
737.67087
 21
325.827202
 31
0.0
  0
POLYLINE
  5
432F
100
AcDbEntity
  8
0
100
AcDb2dPolyline
 66
     1
 10
0.0
 20
0.0
 30
0.0
  0
VERTEX
  5
45F7
100
AcDbEntity
  8
0
100
AcDbVertex
100
AcDb2dVertex
 10
758.819641
 20
340.032323
 30
0.0
  0
VERTEX
  5
45F8
100
AcDbEntity
  8
0
100
AcDbVertex
100
AcDb2dVertex
 10
753.20159
 20
330.301572
 30
0.0
  0
SEQEND
  5
45F9
100
AcDbEntity
  8
0
  0
POLYLINE
  5
4330
100
AcDbEntity
  8
0
100
AcDb2dPolyline
 66
     1
 10
0.0
 20
0.0
 30
0.0
  0
VERTEX
  5
45FA
100
AcDbEntity
  8
0
100
AcDbVertex
100
AcDb2dVertex
 10
779.604251
 20
330.301572
 30
0.0
  0
VERTEX
  5
45FB
100
AcDbEntity
  8
0
100
AcDbVertex
100
AcDb2dVertex
 10
773.9862
 20
340.032323
 30
0.0
  0
SEQEND
  5
45FC
100
AcDbEntity
  8
0
  0
POLYLINE
  5
4331
100
AcDbEntity
  8
0
100
AcDb2dPolyline
 66
     1
 10
0.0
 20
0.0
 30
0.0
  0
VERTEX
  5
45FD
100
AcDbEntity
  8
0
100
AcDbVertex
100
AcDb2dVertex
 10
788.90292
 20
331.195804
 30
0.0
  0
VERTEX
  5
45FE
100
AcDbEntity
  8
0
100
AcDbVertex
100
AcDb2dVertex
 10
779.519632
 20
347.448137
 30
0.0
  0
SEQEND
  5
45FF
100
AcDbEntity
  8
0
  0
ARC
  5
4332
100
AcDbEntity
  8
0
100
AcDbCircle
 10
766.40292
 20
329.166948
 30
0.0
 40
20.5
100
AcDbArc
 50
231.30526
 51
128.69474
  0
LINE
  5
4333
100
AcDbEntity
  8
0
100
AcDbLine
 10
691.90292
 20
321.166948
 30
0.0
 11
712.90292
 21
321.166948
 31
0.0
  0
LINE
  5
4334
100
AcDbEntity
  8
0
100
AcDbLine
 10
691.90292
 20
320.176566
 30
0.0
 11
712.90292
 21
320.176566
 31
0.0
  0
LINE
  5
4335
100
AcDbEntity
  8
0
100
AcDbLine
 10
717.40292
 20
312.166948
 30
0.0
 11
683.40292
 21
312.166948
 31
0.0
  0
LINE
  5
4336
100
AcDbEntity
  8
0
100
AcDbLine
 10
650.471892
 20
331.588778
 30
0.0
 11
654.593172
 21
327.555338
 31
0.0
  0
LINE
  5
4337
100
AcDbEntity
  8
0
100
AcDbLine
 10
654.593172
 20
327.555338
 30
0.0
 11
634.425252
 21
327.555338
 31
0.0
  0
LINE
  5
4338
100
AcDbEntity
  8
0
100
AcDbLine
 10
644.509572
 20
329.572058
 30
0.0
 11
650.471892
 21
329.572058
 31
0.0
  0
LINE
  5
4339
100
AcDbEntity
  8
0
100
AcDbLine
 10
642.492132
 20
331.588778
 30
0.0
 11
644.509572
 21
329.572058
 31
0.0
  0
LINE
  5
433A
100
AcDbEntity
  8
0
100
AcDbLine
 10
650.471892
 20
329.572058
 30
0.0
 11
650.471892
 21
331.588778
 31
0.0
  0
LINE
  5
433B
100
AcDbEntity
  8
0
100
AcDbLine
 10
634.425252
 20
327.555338
 30
0.0
 11
630.391812
 21
331.588778
 31
0.0
  0
LINE
  5
433C
100
AcDbEntity
  8
0
100
AcDbLine
 10
630.391812
 20
331.588778
 30
0.0
 11
642.492132
 21
331.588778
 31
0.0
  0
LINE
  5
433D
100
AcDbEntity
  8
0
100
AcDbLine
 10
661.40292
 20
329.166948
 30
0.0
 11
661.40292
 21
312.854448
 31
0.0
  0
LINE
  5
433E
100
AcDbEntity
  8
0
100
AcDbLine
 10
683.40292
 20
312.166948
 30
0.0
 11
661.40292
 21
312.854448
 31
0.0
  0
POLYLINE
  5
433F
100
AcDbEntity
  8
0
100
AcDb2dPolyline
 66
     1
 10
0.0
 20
0.0
 30
0.0
  0
VERTEX
  5
4600
100
AcDbEntity
  8
0
100
AcDbVertex
100
AcDb2dVertex
 10
760.784869
 20
317.166948
 30
0.0
  0
VERTEX
  5
4601
100
AcDbEntity
  8
0
100
AcDbVertex
100
AcDb2dVertex
 10
772.020972
 20
317.166948
 30
0.0
  0
SEQEND
  5
4602
100
AcDbEntity
  8
0
  0
POLYLINE
  5
4340
100
AcDbEntity
  8
0
100
AcDb2dPolyline
 66
     1
 10
0.0
 20
0.0
 30
0.0
  0
VERTEX
  5
4603
100
AcDbEntity
  8
0
100
AcDbVertex
100
AcDb2dVertex
 10
757.129302
 20
308.666948
 30
0.0
  0
VERTEX
  5
4604
100
AcDbEntity
  8
0
100
AcDbVertex
100
AcDb2dVertex
 10
775.676539
 20
308.666948
 30
0.0
  0
SEQEND
  5
4605
100
AcDbEntity
  8
0
  0
ARC
  5
4341
100
AcDbEntity
  8
0
100
AcDbCircle
 10
716.88626
 20
317.166948
 30
0.0
 40
22.51666
100
AcDbArc
 50
337.380135
 51
22.619865
  0
ARC
  5
4342
100
AcDbEntity
  8
0
100
AcDbCircle
 10
739.897302
 20
317.166948
 30
0.0
 40
22.496097
100
AcDbArc
 50
157.358311
 51
202.641689
  0
LINE
  5
4343
100
AcDbEntity
  8
0
100
AcDbLine
 10
737.67087
 20
305.166948
 30
0.0
 11
739.40292
 21
306.166948
 31
0.0
  0
LINE
  5
4344
100
AcDbEntity
  8
0
100
AcDbLine
 10
737.67087
 20
308.506693
 30
0.0
 11
737.67087
 21
305.166948
 31
0.0
  0
LINE
  5
4345
100
AcDbEntity
  8
0
100
AcDbLine
 10
719.134971
 20
305.166948
 30
0.0
 11
719.134971
 21
308.506693
 31
0.0
  0
LINE
  5
4346
100
AcDbEntity
  8
0
100
AcDbLine
 10
719.134971
 20
305.166948
 30
0.0
 11
717.40292
 21
306.166948
 31
0.0
  0
LINE
  5
4347
100
AcDbEntity
  8
0
100
AcDbLine
 10
719.134971
 20
308.506693
 30
0.0
 11
737.67087
 21
308.506693
 31
0.0
  0
LINE
  5
4348
100
AcDbEntity
  8
0
100
AcDbLine
 10
719.134971
 20
305.166948
 30
0.0
 11
737.67087
 21
305.166948
 31
0.0
  0
POLYLINE
  5
4349
100
AcDbEntity
  8
0
100
AcDb2dPolyline
 66
     1
 10
0.0
 20
0.0
 30
0.0
  0
VERTEX
  5
4606
100
AcDbEntity
  8
0
100
AcDbVertex
100
AcDb2dVertex
 10
751.969164
 20
313.166948
 30
0.0
  0
VERTEX
  5
4607
100
AcDbEntity
  8
0
100
AcDbVertex
100
AcDb2dVertex
 10
753.286209
 20
310.885758
 30
0.0
  0
SEQEND
  5
4608
100
AcDbEntity
  8
0
  0
ARC
  5
434A
100
AcDbEntity
  8
0
100
AcDbCircle
 10
742.40292
 20
310.166948
 30
0.0
 40
3.0
100
AcDbArc
 50
90.0
 51
180.0
  0
ARC
  5
434B
100
AcDbEntity
  8
0
100
AcDbCircle
 10
766.40292
 20
329.166948
 30
0.0
 40
22.5
100
AcDbArc
 50
234.340647
 51
245.659353
  0
LINE
  5
434C
100
AcDbEntity
  8
0
100
AcDbLine
 10
742.40292
 20
313.166948
 30
0.0
 11
758.156709
 21
313.166948
 31
0.0
  0
LINE
  5
434D
100
AcDbEntity
  8
0
100
AcDbLine
 10
719.134971
 20
325.827202
 30
0.0
 11
737.67087
 21
325.827202
 31
0.0
  0
POLYLINE
  5
434E
100
AcDbEntity
  8
0
100
AcDb2dPolyline
 66
     1
 10
0.0
 20
0.0
 30
0.0
  0
VERTEX
  5
4609
100
AcDbEntity
  8
0
100
AcDbVertex
100
AcDb2dVertex
 10
753.20159
 20
328.032323
 30
0.0
  0
VERTEX
  5
460A
100
AcDbEntity
  8
0
100
AcDbVertex
100
AcDb2dVertex
 10
758.819641
 20
318.301572
 30
0.0
  0
SEQEND
  5
460B
100
AcDbEntity
  8
0
  0
POLYLINE
  5
434F
100
AcDbEntity
  8
0
100
AcDb2dPolyline
 66
     1
 10
0.0
 20
0.0
 30
0.0
  0
VERTEX
  5
460C
100
AcDbEntity
  8
0
100
AcDbVertex
100
AcDb2dVertex
 10
779.519632
 20
310.885758
 30
0.0
  0
VERTEX
  5
460D
100
AcDbEntity
  8
0
100
AcDbVertex
100
AcDb2dVertex
 10
788.90292
 20
327.138091
 30
0.0
  0
SEQEND
  5
460E
100
AcDbEntity
  8
0
  0
ARC
  5
4350
100
AcDbEntity
  8
0
100
AcDbCircle
 10
766.40292
 20
329.166948
 30
0.0
 40
22.5
100
AcDbArc
 50
294.340647
 51
305.659353
  0
ARC
  5
4351
100
AcDbEntity
  8
0
100
AcDbCircle
 10
766.40292
 20
329.166948
 30
0.0
 40
22.5
100
AcDbArc
 50
354.340647
 51
5.659353
  0
POLYLINE
  5
4352
100
AcDbEntity
  8
0
100
AcDb2dPolyline
 66
     1
 10
0.0
 20
0.0
 30
0.0
  0
VERTEX
  5
460F
100
AcDbEntity
  8
0
100
AcDbVertex
100
AcDb2dVertex
 10
773.9862
 20
318.301572
 30
0.0
  0
VERTEX
  5
4610
100
AcDbEntity
  8
0
100
AcDbVertex
100
AcDb2dVertex
 10
779.604251
 20
328.032323
 30
0.0
  0
SEQEND
  5
4611
100
AcDbEntity
  8
0
  0
LINE
  5
4353
100
AcDbEntity
  8
0
100
AcDbLine
 10
691.90292
 20
337.166948
 30
0.0
 11
712.90292
 21
337.166948
 31
0.0
  0
LINE
  5
4354
100
AcDbEntity
  8
0
100
AcDbLine
 10
691.90292
 20
338.157329
 30
0.0
 11
712.90292
 21
338.157329
 31
0.0
  0
LINE
  5
4355
100
AcDbEntity
  8
0
100
AcDbLine
 10
717.40292
 20
346.166948
 30
0.0
 11
683.40292
 21
346.166948
 31
0.0
  0
LINE
  5
4356
100
AcDbEntity
  8
0
100
AcDbLine
 10
683.40292
 20
346.166948
 30
0.0
 11
661.40292
 21
345.479448
 31
0.0
  0
POLYLINE
  5
4357
100
AcDbEntity
  8
0
100
AcDb2dPolyline
 66
     1
 10
0.0
 20
0.0
 30
0.0
  0
VERTEX
  5
4612
100
AcDbEntity
  8
0
100
AcDbVertex
100
AcDb2dVertex
 10
775.676539
 20
349.666948
 30
0.0
  0
VERTEX
  5
4613
100
AcDbEntity
  8
0
100
AcDbVertex
100
AcDb2dVertex
 10
757.129302
 20
349.666948
 30
0.0
  0
SEQEND
  5
4614
100
AcDbEntity
  8
0
  0
POLYLINE
  5
4358
100
AcDbEntity
  8
0
100
AcDb2dPolyline
 66
     1
 10
0.0
 20
0.0
 30
0.0
  0
VERTEX
  5
4615
100
AcDbEntity
  8
0
100
AcDbVertex
100
AcDb2dVertex
 10
772.020972
 20
341.166948
 30
0.0
  0
VERTEX
  5
4616
100
AcDbEntity
  8
0
100
AcDbVertex
100
AcDb2dVertex
 10
760.784869
 20
341.166948
 30
0.0
  0
SEQEND
  5
4617
100
AcDbEntity
  8
0
  0
ARC
  5
4359
100
AcDbEntity
  8
0
100
AcDbCircle
 10
716.88626
 20
341.166948
 30
0.0
 40
22.51666
100
AcDbArc
 50
337.380135
 51
22.619865
  0
ARC
  5
435A
100
AcDbEntity
  8
0
100
AcDbCircle
 10
766.40292
 20
329.166948
 30
0.0
 40
22.5
100
AcDbArc
 50
114.340647
 51
125.659353
  0
ARC
  5
435B
100
AcDbEntity
  8
0
100
AcDbCircle
 10
739.919581
 20
341.166948
 30
0.0
 40
22.51666
100
AcDbArc
 50
157.380135
 51
202.619865
  0
LINE
  5
435C
100
AcDbEntity
  8
0
100
AcDbLine
 10
719.134971
 20
332.506693
 30
0.0
 11
737.67087
 21
332.506693
 31
0.0
  0
POLYLINE
  5
435D
100
AcDbEntity
  8
0
100
AcDb2dPolyline
 66
     1
 10
0.0
 20
0.0
 30
0.0
  0
VERTEX
  5
4618
100
AcDbEntity
  8
0
100
AcDbVertex
100
AcDb2dVertex
 10
753.286209
 20
347.448137
 30
0.0
  0
VERTEX
  5
4619
100
AcDbEntity
  8
0
100
AcDbVertex
100
AcDb2dVertex
 10
751.969164
 20
345.166948
 30
0.0
  0
SEQEND
  5
461A
100
AcDbEntity
  8
0
  0
ARC
  5
435E
100
AcDbEntity
  8
0
100
AcDbCircle
 10
742.40292
 20
348.166948
 30
0.0
 40
3.0
100
AcDbArc
 50
180.0
 51
270.0
  0
LINE
  5
435F
100
AcDbEntity
  8
0
100
AcDbLine
 10
742.40292
 20
345.166948
 30
0.0
 11
758.156709
 21
345.166948
 31
0.0
  0
LINE
  5
4360
100
AcDbEntity
  8
0
100
AcDbLine
 10
737.67087
 20
353.166948
 30
0.0
 11
739.40292
 21
352.166948
 31
0.0
  0
LINE
  5
4361
100
AcDbEntity
  8
0
100
AcDbLine
 10
737.67087
 20
353.166948
 30
0.0
 11
737.67087
 21
349.827202
 31
0.0
  0
LINE
  5
4362
100
AcDbEntity
  8
0
100
AcDbLine
 10
719.134971
 20
349.827202
 30
0.0
 11
719.134971
 21
353.166948
 31
0.0
  0
LINE
  5
4363
100
AcDbEntity
  8
0
100
AcDbLine
 10
719.134971
 20
353.166948
 30
0.0
 11
717.40292
 21
352.166948
 31
0.0
  0
LINE
  5
4364
100
AcDbEntity
  8
0
100
AcDbLine
 10
719.134971
 20
349.827202
 30
0.0
 11
737.67087
 21
349.827202
 31
0.0
  0
LINE
  5
4365
100
AcDbEntity
  8
0
100
AcDbLine
 10
719.134971
 20
353.166948
 30
0.0
 11
737.67087
 21
353.166948
 31
0.0
  0
ARC
  5
4366
100
AcDbEntity
  8
0
100
AcDbCircle
 10
766.40292
 20
329.166948
 30
0.0
 40
22.5
100
AcDbArc
 50
54.340647
 51
65.659353
  0
LINE
  5
4367
100
AcDbEntity
  8
0
100
AcDbLine
 10
421.891852
 20
438.291558
 30
0.0
 11
421.891852
 21
442.791558
 31
0.0
  0
LINE
  5
4368
100
AcDbEntity
  8
0
100
AcDbLine
 10
412.980576
 20
420.692326
 30
0.0
 11
412.980576
 21
435.865356
 31
0.0
  0
LINE
  5
4369
100
AcDbEntity
  8
0
100
AcDbLine
 10
416.203897
 20
420.692326
 30
0.0
 11
416.203897
 21
435.865356
 31
0.0
  0
LINE
  5
436A
100
AcDbEntity
  8
0
100
AcDbLine
 10
423.292621
 20
420.692326
 30
0.0
 11
423.292621
 21
435.865356
 31
0.0
  0
LINE
  5
436B
100
AcDbEntity
  8
0
100
AcDbLine
 10
412.980576
 20
420.692326
 30
0.0
 11
416.203897
 21
420.692326
 31
0.0
  0
LINE
  5
436C
100
AcDbEntity
  8
0
100
AcDbLine
 10
420.891852
 20
418.291558
 30
0.0
 11
405.891852
 21
418.291558
 31
0.0
  0
LINE
  5
436D
100
AcDbEntity
  8
0
100
AcDbLine
 10
420.891852
 20
418.291558
 30
0.0
 11
423.292621
 21
420.692326
 31
0.0
  0
ARC
  5
436E
100
AcDbEntity
  8
0
100
AcDbCircle
 10
419.748259
 20
422.194327
 30
0.0
 40
3.849482
100
AcDbArc
 50
202.965873
 51
337.034127
  0
LINE
  5
436F
100
AcDbEntity
  8
0
100
AcDbLine
 10
412.980576
 20
435.865356
 30
0.0
 11
416.203897
 21
435.865356
 31
0.0
  0
ARC
  5
4370
100
AcDbEntity
  8
0
100
AcDbCircle
 10
419.748259
 20
434.363355
 30
0.0
 40
3.849482
100
AcDbArc
 50
22.965873
 51
157.034127
  0
LINE
  5
4371
100
AcDbEntity
  8
0
100
AcDbLine
 10
423.292621
 20
435.865356
 30
0.0
 11
421.891852
 21
438.291558
 31
0.0
  0
LINE
  5
4372
100
AcDbEntity
  8
0
100
AcDbLine
 10
423.292621
 20
427.033227
 30
0.0
 11
423.287939
 21
427.033227
 31
0.0
  0
LINE
  5
4373
100
AcDbEntity
  8
0
100
AcDbLine
 10
499.335885
 20
459.525004
 30
0.0
 11
519.503805
 21
459.525004
 31
0.0
  0
LINE
  5
4374
100
AcDbEntity
  8
0
100
AcDbLine
 10
523.537245
 20
463.558444
 30
0.0
 11
511.436925
 21
463.558444
 31
0.0
  0
LINE
  5
4375
100
AcDbEntity
  8
0
100
AcDbLine
 10
473.891852
 20
472.791558
 30
0.0
 11
492.891852
 21
472.128063
 31
0.0
  0
ARC
  5
4376
100
AcDbEntity
  8
0
100
AcDbCircle
 10
440.053635
 20
475.74604
 30
0.0
 40
7.838218
100
AcDbArc
 50
325.211049
 51
34.788951
  0
ARC
  5
4377
100
AcDbEntity
  8
0
100
AcDbCircle
 10
425.439353
 20
475.791558
 30
0.0
 40
3.0
100
AcDbArc
 50
170.0
 51
270.0
  0
ARC
  5
4378
100
AcDbEntity
  8
0
100
AcDbCircle
 10
425.891852
 20
475.791558
 30
0.0
 40
3.0
100
AcDbArc
 50
270.0
 51
0.0
  0
ARC
  5
4379
100
AcDbEntity
  8
0
100
AcDbCircle
 10
436.73007
 20
475.74604
 30
0.0
 40
7.838218
100
AcDbArc
 50
145.211049
 51
214.788951
  0
LINE
  5
437A
100
AcDbEntity
  8
0
100
AcDbLine
 10
428.891852
 20
440.791558
 30
0.0
 11
428.891852
 21
477.791558
 31
0.0
  0
ARC
  5
437B
100
AcDbEntity
  8
0
100
AcDbCircle
 10
434.420967
 20
458.95554
 30
0.0
 40
20.344312
100
AcDbArc
 50
132.015059
 51
226.092198
  0
LINE
  5
437C
100
AcDbEntity
  8
0
100
AcDbLine
 10
450.391852
 20
472.791558
 30
0.0
 11
450.391852
 21
445.791558
 31
0.0
  0
LINE
  5
437D
100
AcDbEntity
  8
0
100
AcDbLine
 10
467.391852
 20
472.791558
 30
0.0
 11
467.391852
 21
445.791558
 31
0.0
  0
LINE
  5
437E
100
AcDbEntity
  8
0
100
AcDbLine
 10
447.891852
 20
440.791558
 30
0.0
 11
447.891852
 21
477.791558
 31
0.0
  0
LINE
  5
437F
100
AcDbEntity
  8
0
100
AcDbLine
 10
473.891852
 20
472.791558
 30
0.0
 11
473.891852
 21
445.791558
 31
0.0
  0
LINE
  5
4380
100
AcDbEntity
  8
0
100
AcDbLine
 10
467.391852
 20
466.591533
 30
0.0
 11
450.391852
 21
466.591533
 31
0.0
  0
LINE
  5
4381
100
AcDbEntity
  8
0
100
AcDbLine
 10
467.391852
 20
465.476216
 30
0.0
 11
450.391852
 21
465.476216
 31
0.0
  0
LINE
  5
4382
100
AcDbEntity
  8
0
100
AcDbLine
 10
467.391852
 20
453.106899
 30
0.0
 11
450.391852
 21
453.106899
 31
0.0
  0
LINE
  5
4383
100
AcDbEntity
  8
0
100
AcDbLine
 10
467.391852
 20
451.991582
 30
0.0
 11
450.391852
 21
451.991582
 31
0.0
  0
LINE
  5
4384
100
AcDbEntity
  8
0
100
AcDbLine
 10
473.891852
 20
445.791558
 30
0.0
 11
447.891852
 21
445.791558
 31
0.0
  0
ARC
  5
4385
100
AcDbEntity
  8
0
100
AcDbCircle
 10
458.14321
 20
459.291558
 30
0.0
 40
29.251358
100
AcDbArc
 50
162.195332
 51
197.804668
  0
ARC
  5
4386
100
AcDbEntity
  8
0
100
AcDbCircle
 10
418.640495
 20
459.291558
 30
0.0
 40
29.251358
100
AcDbArc
 50
342.195332
 51
17.804668
  0
LINE
  5
4387
100
AcDbEntity
  8
0
100
AcDbLine
 10
430.292861
 20
438.364939
 30
0.0
 11
446.490844
 21
438.364939
 31
0.0
  0
LINE
  5
4388
100
AcDbEntity
  8
0
100
AcDbLine
 10
430.292861
 20
447.309211
 30
0.0
 11
446.490844
 21
447.309211
 31
0.0
  0
LINE
  5
4389
100
AcDbEntity
  8
0
100
AcDbLine
 10
430.292861
 20
450.347286
 30
0.0
 11
446.490844
 21
450.347286
 31
0.0
  0
LINE
  5
438A
100
AcDbEntity
  8
0
100
AcDbLine
 10
425.891852
 20
445.791558
 30
0.0
 11
424.891852
 21
445.791558
 31
0.0
  0
LINE
  5
438B
100
AcDbEntity
  8
0
100
AcDbLine
 10
430.292861
 20
447.309211
 30
0.0
 11
430.292861
 21
450.347286
 31
0.0
  0
LINE
  5
438C
100
AcDbEntity
  8
0
100
AcDbLine
 10
428.891852
 20
440.791558
 30
0.0
 11
430.292861
 21
438.364939
 31
0.0
  0
ARC
  5
438D
100
AcDbEntity
  8
0
100
AcDbCircle
 10
424.891852
 20
442.791558
 30
0.0
 40
3.0
100
AcDbArc
 50
90.0
 51
180.0
  0
ARC
  5
438E
100
AcDbEntity
  8
0
100
AcDbCircle
 10
425.891852
 20
442.791558
 30
0.0
 40
3.0
100
AcDbArc
 50
0.0
 51
90.0
  0
ARC
  5
438F
100
AcDbEntity
  8
0
100
AcDbCircle
 10
436.73007
 20
442.837075
 30
0.0
 40
7.838218
100
AcDbArc
 50
145.211049
 51
214.788951
  0
LINE
  5
4390
100
AcDbEntity
  8
0
100
AcDbLine
 10
446.490844
 20
447.309211
 30
0.0
 11
446.490844
 21
450.347286
 31
0.0
  0
LINE
  5
4391
100
AcDbEntity
  8
0
100
AcDbLine
 10
447.891852
 20
440.791558
 30
0.0
 11
446.490844
 21
438.364939
 31
0.0
  0
ARC
  5
4392
100
AcDbEntity
  8
0
100
AcDbCircle
 10
440.053635
 20
442.837075
 30
0.0
 40
7.838218
100
AcDbArc
 50
325.211049
 51
34.788951
  0
LINE
  5
4393
100
AcDbEntity
  8
0
100
AcDbLine
 10
430.292861
 20
468.23583
 30
0.0
 11
446.490844
 21
468.23583
 31
0.0
  0
LINE
  5
4394
100
AcDbEntity
  8
0
100
AcDbLine
 10
430.292861
 20
471.273904
 30
0.0
 11
446.490844
 21
471.273904
 31
0.0
  0
LINE
  5
4395
100
AcDbEntity
  8
0
100
AcDbLine
 10
430.292861
 20
468.23583
 30
0.0
 11
430.292861
 21
471.273904
 31
0.0
  0
LINE
  5
4396
100
AcDbEntity
  8
0
100
AcDbLine
 10
446.490844
 20
468.23583
 30
0.0
 11
446.490844
 21
471.273904
 31
0.0
  0
LINE
  5
4397
100
AcDbEntity
  8
0
100
AcDbLine
 10
492.891852
 20
472.128063
 30
0.0
 11
492.891852
 21
446.455052
 31
0.0
  0
LINE
  5
4398
100
AcDbEntity
  8
0
100
AcDbLine
 10
473.891852
 20
445.791558
 30
0.0
 11
492.891852
 21
446.455052
 31
0.0
  0
LINE
  5
4399
100
AcDbEntity
  8
0
100
AcDbLine
 10
509.419485
 20
461.541724
 30
0.0
 11
503.457165
 21
461.541724
 31
0.0
  0
LINE
  5
439A
100
AcDbEntity
  8
0
100
AcDbLine
 10
503.457165
 20
461.541724
 30
0.0
 11
503.457165
 21
463.558444
 31
0.0
  0
LINE
  5
439B
100
AcDbEntity
  8
0
100
AcDbLine
 10
503.457165
 20
463.558444
 30
0.0
 11
499.335885
 21
459.525004
 31
0.0
  0
LINE
  5
439C
100
AcDbEntity
  8
0
100
AcDbLine
 10
511.436925
 20
463.558444
 30
0.0
 11
509.419485
 21
461.541724
 31
0.0
  0
LINE
  5
439D
100
AcDbEntity
  8
0
100
AcDbLine
 10
473.891852
 20
472.791558
 30
0.0
 11
447.891852
 21
472.791558
 31
0.0
  0
LINE
  5
439E
100
AcDbEntity
  8
0
100
AcDbLine
 10
423.891852
 20
494.291558
 30
0.0
 11
423.891852
 21
489.291558
 31
0.0
  0
LINE
  5
439F
100
AcDbEntity
  8
0
100
AcDbLine
 10
430.292861
 20
480.218176
 30
0.0
 11
446.490844
 21
480.218176
 31
0.0
  0
LINE
  5
43A0
100
AcDbEntity
  8
0
100
AcDbLine
 10
428.891852
 20
477.791558
 30
0.0
 11
430.292861
 21
480.218176
 31
0.0
  0
LINE
  5
43A1
100
AcDbEntity
  8
0
100
AcDbLine
 10
425.891852
 20
472.791558
 30
0.0
 11
425.439353
 21
472.791558
 31
0.0
  0
LINE
  5
43A2
100
AcDbEntity
  8
0
100
AcDbLine
 10
423.891852
 20
484.291558
 30
0.0
 11
422.48493
 21
476.312502
 31
0.0
  0
LINE
  5
43A3
100
AcDbEntity
  8
0
100
AcDbLine
 10
423.891852
 20
489.291558
 30
0.0
 11
423.891852
 21
484.291558
 31
0.0
  0
LINE
  5
43A4
100
AcDbEntity
  8
0
100
AcDbLine
 10
447.891852
 20
477.791558
 30
0.0
 11
446.490844
 21
480.218176
 31
0.0
  0
ARC
  5
43A5
100
AcDbEntity
  8
0
100
AcDbCircle
 10
421.141852
 20
497.291558
 30
0.0
 40
2.0
100
AcDbArc
 50
180.0
 51
270.0
  0
LINE
  5
43A6
100
AcDbEntity
  8
0
100
AcDbLine
 10
422.891852
 20
495.291558
 30
0.0
 11
423.891852
 21
494.291558
 31
0.0
  0
LINE
  5
43A7
100
AcDbEntity
  8
0
100
AcDbLine
 10
519.503805
 20
459.525004
 30
0.0
 11
523.537245
 21
463.558444
 31
0.0
  0
LINE
  5
43A8
100
AcDbEntity
  8
0
100
AcDbLine
 10
667.90292
 20
470.948994
 30
0.0
 11
667.90292
 21
438.291558
 31
0.0
  0
LINE
  5
43A9
100
AcDbEntity
  8
0
100
AcDbLine
 10
710.90292
 20
482.291558
 30
0.0
 11
710.90292
 21
436.291558
 31
0.0
  0
LINE
  5
43AA
100
AcDbEntity
  8
0
100
AcDbLine
 10
732.90292
 20
482.291558
 30
0.0
 11
732.90292
 21
436.291558
 31
0.0
  0
LINE
  5
43AB
100
AcDbEntity
  8
0
100
AcDbLine
 10
706.40292
 20
427.033227
 30
0.0
 11
699.614245
 21
438.791558
 31
0.0
  0
ARC
  5
43AC
100
AcDbEntity
  8
0
100
AcDbCircle
 10
719.300061
 20
438.399253
 30
0.0
 40
8.397141
100
AcDbArc
 50
142.535773
 51
217.464227
  0
ARC
  5
43AD
100
AcDbEntity
  8
0
100
AcDbCircle
 10
724.505779
 20
438.399253
 30
0.0
 40
8.397141
100
AcDbArc
 50
322.535773
 51
37.464227
  0
LINE
  5
43AE
100
AcDbEntity
  8
0
100
AcDbLine
 10
670.786209
 20
410.791558
 30
0.0
 11
670.786209
 21
423.533227
 31
0.0
  0
LINE
  5
43AF
100
AcDbEntity
  8
0
100
AcDbLine
 10
674.629302
 20
410.791558
 30
0.0
 11
674.629302
 21
423.533227
 31
0.0
  0
LINE
  5
43B0
100
AcDbEntity
  8
0
100
AcDbLine
 10
693.176539
 20
410.791558
 30
0.0
 11
693.176539
 21
423.533227
 31
0.0
  0
LINE
  5
43B1
100
AcDbEntity
  8
0
100
AcDbLine
 10
697.019632
 20
410.791558
 30
0.0
 11
697.019632
 21
423.533227
 31
0.0
  0
LINE
  5
43B2
100
AcDbEntity
  8
0
100
AcDbLine
 10
706.40292
 20
427.033227
 30
0.0
 11
706.40292
 21
410.791558
 31
0.0
  0
LINE
  5
43B3
100
AcDbEntity
  8
0
100
AcDbLine
 10
661.40292
 20
427.033227
 30
0.0
 11
661.40292
 21
410.791558
 31
0.0
  0
ARC
  5
43B4
100
AcDbEntity
  8
0
100
AcDbCircle
 10
683.90292
 20
421.327272
 30
0.0
 40
14.035714
100
AcDbArc
 50
228.645512
 51
311.354488
  0
LINE
  5
43B5
100
AcDbEntity
  8
0
100
AcDbLine
 10
683.90292
 20
407.291558
 30
0.0
 11
664.90292
 21
407.291558
 31
0.0
  0
LINE
  5
43B6
100
AcDbEntity
  8
0
100
AcDbLine
 10
674.629302
 20
410.791558
 30
0.0
 11
670.786209
 21
410.791558
 31
0.0
  0
LINE
  5
43B7
100
AcDbEntity
  8
0
100
AcDbLine
 10
664.90292
 20
407.291558
 30
0.0
 11
661.40292
 21
410.791558
 31
0.0
  0
ARC
  5
43B8
100
AcDbEntity
  8
0
100
AcDbCircle
 10
665.704877
 20
412.638243
 30
0.0
 40
5.406494
100
AcDbArc
 50
261.469716
 51
340.027568
  0
LINE
  5
43B9
100
AcDbEntity
  8
0
100
AcDbLine
 10
702.90292
 20
407.291558
 30
0.0
 11
706.40292
 21
410.791558
 31
0.0
  0
LINE
  5
43BA
100
AcDbEntity
  8
0
100
AcDbLine
 10
697.019632
 20
410.791558
 30
0.0
 11
693.176539
 21
410.791558
 31
0.0
  0
ARC
  5
43BB
100
AcDbEntity
  8
0
100
AcDbCircle
 10
702.100964
 20
412.638243
 30
0.0
 40
5.406494
100
AcDbArc
 50
199.972432
 51
278.530284
  0
LINE
  5
43BC
100
AcDbEntity
  8
0
100
AcDbLine
 10
683.90292
 20
407.291558
 30
0.0
 11
702.90292
 21
407.291558
 31
0.0
  0
ARC
  5
43BD
100
AcDbEntity
  8
0
100
AcDbCircle
 10
683.90292
 20
412.997513
 30
0.0
 40
14.035714
100
AcDbArc
 50
48.645512
 51
131.354488
  0
LINE
  5
43BE
100
AcDbEntity
  8
0
100
AcDbLine
 10
674.629302
 20
423.533227
 30
0.0
 11
670.786209
 21
423.533227
 31
0.0
  0
LINE
  5
43BF
100
AcDbEntity
  8
0
100
AcDbLine
 10
661.40292
 20
427.033227
 30
0.0
 11
667.90292
 21
438.291558
 31
0.0
  0
LINE
  5
43C0
100
AcDbEntity
  8
0
100
AcDbLine
 10
666.506834
 20
427.033227
 30
0.0
 11
661.40292
 21
427.033227
 31
0.0
  0
ARC
  5
43C1
100
AcDbEntity
  8
0
100
AcDbCircle
 10
665.704877
 20
421.686542
 30
0.0
 40
5.406494
100
AcDbArc
 50
19.972432
 51
81.469716
  0
LINE
  5
43C2
100
AcDbEntity
  8
0
100
AcDbLine
 10
706.40292
 20
427.033227
 30
0.0
 11
701.299007
 21
427.033227
 31
0.0
  0
LINE
  5
43C3
100
AcDbEntity
  8
0
100
AcDbLine
 10
697.019632
 20
423.533227
 30
0.0
 11
693.176539
 21
423.533227
 31
0.0
  0
ARC
  5
43C4
100
AcDbEntity
  8
0
100
AcDbCircle
 10
702.100964
 20
421.686542
 30
0.0
 40
5.406494
100
AcDbArc
 50
98.530284
 51
160.027568
  0
LINE
  5
43C5
100
AcDbEntity
  8
0
100
AcDbLine
 10
731.17087
 20
433.291558
 30
0.0
 11
732.90292
 21
436.291558
 31
0.0
  0
LINE
  5
43C6
100
AcDbEntity
  8
0
100
AcDbLine
 10
712.634971
 20
433.291558
 30
0.0
 11
710.90292
 21
436.291558
 31
0.0
  0
LINE
  5
43C7
100
AcDbEntity
  8
0
100
AcDbLine
 10
731.17087
 20
433.291558
 30
0.0
 11
712.634971
 21
433.291558
 31
0.0
  0
ARC
  5
43C8
100
AcDbEntity
  8
0
100
AcDbCircle
 10
707.90292
 20
478.291558
 30
0.0
 40
3.0
100
AcDbArc
 50
270.0
 51
0.0
  0
LINE
  5
43C9
100
AcDbEntity
  8
0
100
AcDbLine
 10
702.212321
 20
443.291558
 30
0.0
 11
710.90292
 21
443.291558
 31
0.0
  0
ARC
  5
43CA
100
AcDbEntity
  8
0
100
AcDbCircle
 10
712.431083
 20
460.883259
 30
0.0
 40
20.344312
100
AcDbArc
 50
132.015059
 51
226.092198
  0
LINE
  5
43CB
100
AcDbEntity
  8
0
100
AcDbLine
 10
665.90292
 20
482.291558
 30
0.0
 11
667.90292
 21
470.948994
 31
0.0
  0
ARC
  5
43CC
100
AcDbEntity
  8
0
100
AcDbCircle
 10
702.212321
 20
440.291558
 30
0.0
 40
3.0
100
AcDbArc
 50
90.0
 51
210.0
  0
LINE
  5
43CD
100
AcDbEntity
  8
0
100
AcDbLine
 10
701.90292
 20
492.291558
 30
0.0
 11
701.90292
 21
487.291558
 31
0.0
  0
LINE
  5
43CE
100
AcDbEntity
  8
0
100
AcDbLine
 10
665.90292
 20
492.291558
 30
0.0
 11
665.90292
 21
487.291558
 31
0.0
  0
LINE
  5
43CF
100
AcDbEntity
  8
0
100
AcDbLine
 10
701.90292
 20
482.291558
 30
0.0
 11
665.90292
 21
482.291558
 31
0.0
  0
LINE
  5
43D0
100
AcDbEntity
  8
0
100
AcDbLine
 10
701.90292
 20
487.291558
 30
0.0
 11
665.90292
 21
487.291558
 31
0.0
  0
LINE
  5
43D1
100
AcDbEntity
  8
0
100
AcDbLine
 10
665.90292
 20
487.291558
 30
0.0
 11
701.90292
 21
487.291558
 31
0.0
  0
LINE
  5
43D2
100
AcDbEntity
  8
0
100
AcDbLine
 10
665.90292
 20
487.291558
 30
0.0
 11
665.90292
 21
482.291558
 31
0.0
  0
LINE
  5
43D3
100
AcDbEntity
  8
0
100
AcDbLine
 10
701.90292
 20
487.291558
 30
0.0
 11
701.90292
 21
478.291558
 31
0.0
  0
LINE
  5
43D4
100
AcDbEntity
  8
0
100
AcDbLine
 10
707.90292
 20
475.291558
 30
0.0
 11
704.90292
 21
475.291558
 31
0.0
  0
ARC
  5
43D5
100
AcDbEntity
  8
0
100
AcDbCircle
 10
704.90292
 20
478.291558
 30
0.0
 40
3.0
100
AcDbArc
 50
180.0
 51
270.0
  0
LINE
  5
43D6
100
AcDbEntity
  8
0
100
AcDbLine
 10
670.65292
 20
495.291558
 30
0.0
 11
697.15292
 21
495.291558
 31
0.0
  0
LINE
  5
43D7
100
AcDbEntity
  8
0
100
AcDbLine
 10
665.90292
 20
492.291558
 30
0.0
 11
701.90292
 21
492.291558
 31
0.0
  0
LINE
  5
43D8
100
AcDbEntity
  8
0
100
AcDbLine
 10
666.90292
 20
493.291558
 30
0.0
 11
700.90292
 21
493.291558
 31
0.0
  0
LINE
  5
43D9
100
AcDbEntity
  8
0
100
AcDbLine
 10
665.90292
 20
492.291558
 30
0.0
 11
666.90292
 21
493.291558
 31
0.0
  0
ARC
  5
43DA
100
AcDbEntity
  8
0
100
AcDbCircle
 10
668.65292
 20
495.291558
 30
0.0
 40
2.0
100
AcDbArc
 50
270.0
 51
0.0
  0
LINE
  5
43DB
100
AcDbEntity
  8
0
100
AcDbLine
 10
700.90292
 20
493.291558
 30
0.0
 11
701.90292
 21
492.291558
 31
0.0
  0
ARC
  5
43DC
100
AcDbEntity
  8
0
100
AcDbCircle
 10
699.15292
 20
495.291558
 30
0.0
 40
2.0
100
AcDbArc
 50
180.0
 51
270.0
  0
LINE
  5
43DD
100
AcDbEntity
  8
0
100
AcDbLine
 10
788.90292
 20
475.604058
 30
0.0
 11
788.90292
 21
459.291558
 31
0.0
  0
LINE
  5
43DE
100
AcDbEntity
  8
0
100
AcDbLine
 10
766.90292
 20
476.291558
 30
0.0
 11
766.90292
 21
442.291558
 31
0.0
  0
LINE
  5
43DF
100
AcDbEntity
  8
0
100
AcDbLine
 10
758.40292
 20
476.291558
 30
0.0
 11
758.40292
 21
442.291558
 31
0.0
  0
LINE
  5
43E0
100
AcDbEntity
  8
0
100
AcDbLine
 10
737.40292
 20
476.291558
 30
0.0
 11
737.40292
 21
442.291558
 31
0.0
  0
LINE
  5
43E1
100
AcDbEntity
  8
0
100
AcDbLine
 10
712.634971
 20
475.076167
 30
0.0
 11
712.634971
 21
469.291558
 31
0.0
  0
LINE
  5
43E2
100
AcDbEntity
  8
0
100
AcDbLine
 10
731.17087
 20
469.291558
 30
0.0
 11
731.17087
 21
475.076167
 31
0.0
  0
LINE
  5
43E3
100
AcDbEntity
  8
0
100
AcDbLine
 10
732.90292
 20
442.291558
 30
0.0
 11
766.90292
 21
442.291558
 31
0.0
  0
ARC
  5
43E4
100
AcDbEntity
  8
0
100
AcDbCircle
 10
703.169381
 20
459.291558
 30
0.0
 40
29.733539
100
AcDbArc
 50
340.34714
 51
19.65286
  0
ARC
  5
43E5
100
AcDbEntity
  8
0
100
AcDbCircle
 10
740.636459
 20
459.291558
 30
0.0
 40
29.733539
100
AcDbArc
 50
160.34714
 51
199.65286
  0
LINE
  5
43E6
100
AcDbEntity
  8
0
100
AcDbLine
 10
758.40292
 20
450.301177
 30
0.0
 11
737.40292
 21
450.301177
 31
0.0
  0
LINE
  5
43E7
100
AcDbEntity
  8
0
100
AcDbLine
 10
758.40292
 20
451.291558
 30
0.0
 11
737.40292
 21
451.291558
 31
0.0
  0
LINE
  5
43E8
100
AcDbEntity
  8
0
100
AcDbLine
 10
731.17087
 20
443.506948
 30
0.0
 11
731.17087
 21
449.291558
 31
0.0
  0
LINE
  5
43E9
100
AcDbEntity
  8
0
100
AcDbLine
 10
712.634971
 20
449.291558
 30
0.0
 11
712.634971
 21
443.506948
 31
0.0
  0
LINE
  5
43EA
100
AcDbEntity
  8
0
100
AcDbLine
 10
731.17087
 20
449.291558
 30
0.0
 11
712.634971
 21
449.291558
 31
0.0
  0
LINE
  5
43EB
100
AcDbEntity
  8
0
100
AcDbLine
 10
731.17087
 20
443.506948
 30
0.0
 11
712.634971
 21
443.506948
 31
0.0
  0
LINE
  5
43EC
100
AcDbEntity
  8
0
100
AcDbLine
 10
758.40292
 20
467.291558
 30
0.0
 11
737.40292
 21
467.291558
 31
0.0
  0
LINE
  5
43ED
100
AcDbEntity
  8
0
100
AcDbLine
 10
758.40292
 20
468.281939
 30
0.0
 11
737.40292
 21
468.281939
 31
0.0
  0
LINE
  5
43EE
100
AcDbEntity
  8
0
100
AcDbLine
 10
731.17087
 20
469.291558
 30
0.0
 11
712.634971
 21
469.291558
 31
0.0
  0
LINE
  5
43EF
100
AcDbEntity
  8
0
100
AcDbLine
 10
788.90292
 20
459.291558
 30
0.0
 11
788.90292
 21
442.979058
 31
0.0
  0
LINE
  5
43F0
100
AcDbEntity
  8
0
100
AcDbLine
 10
766.90292
 20
442.291558
 30
0.0
 11
788.90292
 21
442.979058
 31
0.0
  0
LINE
  5
43F1
100
AcDbEntity
  8
0
100
AcDbLine
 10
816.228553
 20
461.74082
 30
0.0
 11
820.261993
 21
465.77426
 31
0.0
  0
LINE
  5
43F2
100
AcDbEntity
  8
0
100
AcDbLine
 10
808.161673
 20
465.77426
 30
0.0
 11
806.144233
 21
463.75754
 31
0.0
  0
LINE
  5
43F3
100
AcDbEntity
  8
0
100
AcDbLine
 10
800.181913
 20
465.77426
 30
0.0
 11
796.060633
 21
461.74082
 31
0.0
  0
LINE
  5
43F4
100
AcDbEntity
  8
0
100
AcDbLine
 10
800.181913
 20
463.75754
 30
0.0
 11
800.181913
 21
465.77426
 31
0.0
  0
LINE
  5
43F5
100
AcDbEntity
  8
0
100
AcDbLine
 10
806.144233
 20
463.75754
 30
0.0
 11
800.181913
 21
463.75754
 31
0.0
  0
LINE
  5
43F6
100
AcDbEntity
  8
0
100
AcDbLine
 10
820.261993
 20
465.77426
 30
0.0
 11
808.161673
 21
465.77426
 31
0.0
  0
LINE
  5
43F7
100
AcDbEntity
  8
0
100
AcDbLine
 10
796.060633
 20
461.74082
 30
0.0
 11
816.228553
 21
461.74082
 31
0.0
  0
LINE
  5
43F8
100
AcDbEntity
  8
0
100
AcDbLine
 10
732.90292
 20
476.291558
 30
0.0
 11
766.90292
 21
476.291558
 31
0.0
  0
ARC
  5
43F9
100
AcDbEntity
  8
0
100
AcDbCircle
 10
724.505779
 20
480.183862
 30
0.0
 40
8.397141
100
AcDbArc
 50
322.535773
 51
37.464227
  0
LINE
  5
43FA
100
AcDbEntity
  8
0
100
AcDbLine
 10
731.17087
 20
485.291558
 30
0.0
 11
732.90292
 21
482.291558
 31
0.0
  0
LINE
  5
43FB
100
AcDbEntity
  8
0
100
AcDbLine
 10
712.634971
 20
485.291558
 30
0.0
 11
710.90292
 21
482.291558
 31
0.0
  0
ARC
  5
43FC
100
AcDbEntity
  8
0
100
AcDbCircle
 10
719.300061
 20
480.183862
 30
0.0
 40
8.397141
100
AcDbArc
 50
142.535773
 51
217.464227
  0
LINE
  5
43FD
100
AcDbEntity
  8
0
100
AcDbLine
 10
731.17087
 20
475.076167
 30
0.0
 11
712.634971
 21
475.076167
 31
0.0
  0
LINE
  5
43FE
100
AcDbEntity
  8
0
100
AcDbLine
 10
731.17087
 20
485.291558
 30
0.0
 11
712.634971
 21
485.291558
 31
0.0
  0
LINE
  5
43FF
100
AcDbEntity
  8
0
100
AcDbLine
 10
766.90292
 20
476.291558
 30
0.0
 11
788.90292
 21
475.604058
 31
0.0
  0
ARC
  5
4400
100
AcDbEntity
  8
0
100
AcDbCircle
 10
415.880069
 20
478.059921
 30
0.0
 40
36.997698
100
AcDbArc
 50
86.882953
 51
105.662398
  0
LINE
  5
4401
100
AcDbEntity
  8
0
100
AcDbLine
 10
417.391852
 20
515.291558
 30
0.0
 11
417.891852
 21
515.002882
 31
0.0
  0
ARC
  5
4402
100
AcDbEntity
  8
0
100
AcDbCircle
 10
673.914704
 20
476.059921
 30
0.0
 40
36.997698
100
AcDbArc
 50
74.337602
 51
93.117047
  0
LINE
  5
4403
100
AcDbEntity
  8
0
100
AcDbLine
 10
672.40292
 20
513.291558
 30
0.0
 11
695.40292
 21
513.291558
 31
0.0
  0
LINE
  5
4404
100
AcDbEntity
  8
0
100
AcDbLine
 10
672.40292
 20
513.291558
 30
0.0
 11
671.90292
 21
513.002882
 31
0.0
  0
ARC
  5
4405
100
AcDbEntity
  8
0
100
AcDbCircle
 10
693.891137
 20
476.059921
 30
0.0
 40
36.997698
100
AcDbArc
 50
86.882953
 51
105.662398
  0
LINE
  5
4406
100
AcDbEntity
  8
0
100
AcDbLine
 10
695.40292
 20
513.291558
 30
0.0
 11
695.90292
 21
513.002882
 31
0.0
  0
VIEWPORT
  5
41
100
AcDbEntity
 67
     1
  8
0
100
AcDbViewport
 10
117.358407
 20
73.5
 30
0.0
 40
234.716814
 41
147.0
 68
    -1
 69
     1
1001
ACAD
1000
MVIEW
1002
{
1070
    16
1010
0.0
1020
0.0
1030
0.0
1010
0.0
1020
0.0
1030
1.0
1040
0.0
1040
147.0
1040
117.358407
1040
73.5
1040
50.0
1040
0.0
1040
0.0
1070
     0
1070
   100
1070
     1
1070
     1
1070
     0
1070
     0
1070
     0
1070
     0
1040
0.0
1040
0.0
1040
0.0
1040
1.0
1040
1.0
1040
0.0
1040
0.0
1070
     0
1002
{
1002
}
1002
}
  0
ENDSEC
  0
SECTION
  2
OBJECTS
  0
DICTIONARY
  5
C
100
AcDbDictionary
  3
ACAD_GROUP
350
D
  3
ACAD_MLINESTYLE
350
E
  0
DICTIONARY
  5
D
102
{ACAD_REACTORS
330
C
102
}
100
AcDbDictionary
  0
DICTIONARY
  5
E
102
{ACAD_REACTORS
330
C
102
}
100
AcDbDictionary
  3
STANDARD
350
1B
  0
MLINESTYLE
  5
1B
102
{ACAD_REACTORS
330
E
102
}
100
AcDbMlineStyle
  2
STANDARD
 70
     0
  3

 62
     0
 51
90.0
 52
90.0
 71
     2
 49
0.5
 62
   256
  6
BYLAYER
 49
-0.5
 62
   256
  6
BYLAYER
  0
ENDSEC
  0
EOF
