  0
SECTION
  2
HEADER
  9
$ACADVER
  1
AC1012
  9
$DWGCODEPAGE
  3
dos932
  9
$INSBASE
 10
0.0
 20
0.0
 30
0.0
  9
$EXTMIN
 10
33.0
 20
15.0
 30
0.0
  9
$EXTMAX
 10
858.0
 20
573.0
 30
0.0
  9
$LIMMIN
 10
0.0
 20
0.0
  9
$LIMMAX
 10
891.0
 20
630.0
  9
$ORTHOMODE
 70
     1
  9
$REGENMODE
 70
     1
  9
$FILLMODE
 70
     1
  9
$QTEXTMODE
 70
     0
  9
$MIRRTEXT
 70
     1
  9
$DRAGMODE
 70
     2
  9
$LTSCALE
 40
12.0
  9
$OSMODE
 70
   163
  9
$ATTMODE
 70
     1
  9
$TEXTSIZE
 40
12.0
  9
$TRACEWID
 40
0.05
  9
$TEXTSTYLE
  7
STANDARD
  9
$CLAYER
  8
0
  9
$CELTYPE
  6
BYLAYER
  9
$CECOLOR
 62
   256
  9
$CELTSCALE
 40
1.0
  9
$DELOBJ
 70
     1
  9
$DISPSILH
 70
     0
  9
$DIMSCALE
 40
3.0
  9
$DIMASZ
 40
2.8
  9
$DIMEXO
 40
1.0
  9
$DIMDLI
 40
5.0
  9
$DIMRND
 40
0.1
  9
$DIMDLE
 40
0.0
  9
$DIMEXE
 40
1.0
  9
$DIMTP
 40
0.0
  9
$DIMTM
 40
0.0
  9
$DIMTXT
 40
2.5
  9
$DIMCEN
 40
0.0
  9
$DIMTSZ
 40
0.0
  9
$DIMTOL
 70
     0
  9
$DIMLIM
 70
     0
  9
$DIMTIH
 70
     0
  9
$DIMTOH
 70
     0
  9
$DIMSE1
 70
     0
  9
$DIMSE2
 70
     0
  9
$DIMTAD
 70
     3
  9
$DIMZIN
 70
     8
  9
$DIMBLK
  1

  9
$DIMASO
 70
     1
  9
$DIMSHO
 70
     1
  9
$DIMPOST
  1
 
  9
$DIMAPOST
  1

  9
$DIMALT
 70
     0
  9
$DIMALTD
 70
     2
  9
$DIMALTF
 40
1.0
  9
$DIMLFAC
 40
1.0
  9
$DIMTOFL
 70
     1
  9
$DIMTVP
 40
0.0
  9
$DIMTIX
 70
     0
  9
$DIMSOXD
 70
     0
  9
$DIMSAH
 70
     1
  9
$DIMBLK1
  1
_OPEN
  9
$DIMBLK2
  1
_OPEN
  9
$DIMSTYLE
  2
DIM1
  9
$DIMCLRD
 70
     2
  9
$DIMCLRE
 70
     2
  9
$DIMCLRT
 70
     2
  9
$DIMTFAC
 40
0.7
  9
$DIMGAP
 40
0.85
  9
$DIMJUST
 70
     0
  9
$DIMSD1
 70
     0
  9
$DIMSD2
 70
     0
  9
$DIMTOLJ
 70
     1
  9
$DIMTZIN
 70
     8
  9
$DIMALTZ
 70
     8
  9
$DIMALTTZ
 70
     8
  9
$DIMFIT
 70
     0
  9
$DIMUPT
 70
     0
  9
$DIMUNIT
 70
     2
  9
$DIMDEC
 70
     2
  9
$DIMTDEC
 70
     3
  9
$DIMALTU
 70
     2
  9
$DIMALTTD
 70
     3
  9
$DIMTXSTY
  7
DIM
  9
$DIMAUNIT
 70
     0
  9
$LUNITS
 70
     2
  9
$LUPREC
 70
     4
  9
$SKETCHINC
 40
0.1
  9
$FILLETRAD
 40
0.0
  9
$AUNITS
 70
     0
  9
$AUPREC
 70
     0
  9
$MENU
  1
C:\ACADR13\WIN\SUPPORT\ACAD.mnc
  9
$ELEVATION
 40
0.0
  9
$PELEVATION
 40
0.0
  9
$THICKNESS
 40
0.0
  9
$LIMCHECK
 70
     0
  9
$BLIPMODE
 70
     1
  9
$CHAMFERA
 40
0.0
  9
$CHAMFERB
 40
0.0
  9
$CHAMFERC
 40
0.0
  9
$CHAMFERD
 40
0.0
  9
$SKPOLY
 70
     0
  9
$TDCREATE
 40
2451575.679443611
  9
$TDUPDATE
 40
2451967.653604235
  9
$TDINDWG
 40
0.1199953009
  9
$TDUSRTIMER
 40
0.1199953009
  9
$USRTIMER
 70
     1
  9
$ANGBASE
 50
0.0
  9
$ANGDIR
 70
     0
  9
$PDMODE
 70
     0
  9
$PDSIZE
 40
0.0
  9
$PLINEWID
 40
0.0
  9
$COORDS
 70
     1
  9
$SPLFRAME
 70
     0
  9
$SPLINETYPE
 70
     6
  9
$SPLINESEGS
 70
     8
  9
$ATTDIA
 70
     0
  9
$ATTREQ
 70
     1
  9
$HANDLING
 70
     1
  9
$HANDSEED
  5
3C1F
  9
$SURFTAB1
 70
     6
  9
$SURFTAB2
 70
     6
  9
$SURFTYPE
 70
     6
  9
$SURFU
 70
     6
  9
$SURFV
 70
     6
  9
$UCSNAME
  2

  9
$UCSORG
 10
0.0
 20
0.0
 30
0.0
  9
$UCSXDIR
 10
1.0
 20
0.0
 30
0.0
  9
$UCSYDIR
 10
0.0
 20
1.0
 30
0.0
  9
$PUCSNAME
  2

  9
$PUCSORG
 10
0.0
 20
0.0
 30
0.0
  9
$PUCSXDIR
 10
1.0
 20
0.0
 30
0.0
  9
$PUCSYDIR
 10
0.0
 20
1.0
 30
0.0
  9
$USERI1
 70
     0
  9
$USERI2
 70
     0
  9
$USERI3
 70
     0
  9
$USERI4
 70
     0
  9
$USERI5
 70
     0
  9
$USERR1
 40
0.0
  9
$USERR2
 40
0.0
  9
$USERR3
 40
0.0
  9
$USERR4
 40
0.0
  9
$USERR5
 40
0.0
  9
$WORLDVIEW
 70
     1
  9
$SHADEDGE
 70
     3
  9
$SHADEDIF
 70
    70
  9
$TILEMODE
 70
     1
  9
$MAXACTVP
 70
    16
  9
$PINSBASE
 10
0.0
 20
0.0
 30
0.0
  9
$PLIMCHECK
 70
     0
  9
$PEXTMIN
 10
1.000000E+20
 20
1.000000E+20
 30
1.000000E+20
  9
$PEXTMAX
 10
-1.000000E+20
 20
-1.000000E+20
 30
-1.000000E+20
  9
$PLIMMIN
 10
0.0
 20
0.0
  9
$PLIMMAX
 10
20.0
 20
147.0
  9
$UNITMODE
 70
     0
  9
$VISRETAIN
 70
     0
  9
$PLINEGEN
 70
     0
  9
$PSLTSCALE
 70
     1
  9
$TREEDEPTH
 70
  3020
  9
$PICKSTYLE
 70
     1
  9
$CMLSTYLE
  2
STANDARD
  9
$CMLJUST
 70
     0
  9
$CMLSCALE
 40
1.0
  9
$SAVEIMAGES
 70
     1
  0
ENDSEC
  0
SECTION
  2
CLASSES
  0
CLASS
  1
LWPOLYLINE
  2
AcDbPolyline
  3
"AutoCAD"
 90
    32768
280
     0
281
     1
  0
ENDSEC
  0
SECTION
  2
TABLES
  0
TABLE
  2
VPORT
  5
8
100
AcDbSymbolTable
 70
     2
  0
VPORT
  5
3C1E
100
AcDbSymbolTableRecord
100
AcDbViewportTableRecord
  2
*ACTIVE
 70
     0
 10
0.0
 20
0.0
 11
1.0
 21
1.0
 12
452.287141
 22
303.828604
 13
0.0
 23
0.0
 14
1.0
 24
1.0
 15
0.0
 25
0.0
 16
0.0
 26
0.0
 36
1.0
 17
0.0
 27
0.0
 37
0.0
 40
623.995305
 41
1.762063
 42
50.0
 43
0.0
 44
0.0
 50
0.0
 51
0.0
 71
     0
 72
   100
 73
     1
 74
     1
 75
     0
 76
     0
 77
     0
 78
     0
  0
ENDTAB
  0
TABLE
  2
LTYPE
  5
5
100
AcDbSymbolTable
 70
     5
  0
LTYPE
  5
12
100
AcDbSymbolTableRecord
100
AcDbLinetypeTableRecord
  2
BYBLOCK
 70
     0
  3

 72
    65
 73
     0
 40
0.0
  0
LTYPE
  5
13
100
AcDbSymbolTableRecord
100
AcDbLinetypeTableRecord
  2
BYLAYER
 70
     0
  3

 72
    65
 73
     0
 40
0.0
  0
LTYPE
  5
14
100
AcDbSymbolTableRecord
100
AcDbLinetypeTableRecord
  2
CONTINUOUS
 70
     0
  3
Solid line
 72
    65
 73
     0
 40
0.0
  0
ENDTAB
  0
TABLE
  2
LAYER
  5
2
100
AcDbSymbolTable
 70
     3
  0
LAYER
  5
F
100
AcDbSymbolTableRecord
100
AcDbLayerTableRecord
  2
0
 70
     0
 62
     7
  6
CONTINUOUS
  0
ENDTAB
  0
TABLE
  2
STYLE
  5
3
100
AcDbSymbolTable
 70
     3
  0
STYLE
  5
10
100
AcDbSymbolTableRecord
100
AcDbTextStyleTableRecord
  2
STANDARD
 70
     0
 40
0.0
 41
0.8
 50
0.0
 71
     0
 42
12.0
  3
simplex
  4
extfont
  0
STYLE
  5
237C
100
AcDbSymbolTableRecord
100
AcDbTextStyleTableRecord
  2
PTSH
 70
     0
 40
0.0
 41
0.9
 50
0.0
 71
     0
 42
4.0
  3
SIMPLEX
  4
EXTFONT
  0
STYLE
  5
2592
100
AcDbSymbolTableRecord
100
AcDbTextStyleTableRecord
  2
DIM
 70
     0
 40
0.0
 41
0.8
 50
0.0
 71
     0
 42
4.0
  3
simplex
  4
extfont
  0
ENDTAB
  0
TABLE
  2
VIEW
  5
6
100
AcDbSymbolTable
 70
     0
  0
ENDTAB
  0
TABLE
  2
UCS
  5
7
100
AcDbSymbolTable
 70
     0
  0
ENDTAB
  0
TABLE
  2
APPID
  5
9
100
AcDbSymbolTable
 70
     1
  0
APPID
  5
11
100
AcDbSymbolTableRecord
100
AcDbRegAppTableRecord
  2
ACAD
 70
     0
  0
ENDTAB
  0
TABLE
  2
DIMSTYLE
  5
A
100
AcDbSymbolTable
 70
     1
  0
DIMSTYLE
105
2237
100
AcDbSymbolTableRecord
100
AcDbDimStyleTableRecord
  2
DIM1
 70
     0
  3
 
  4

  5

  6
_OPEN
  7
_OPEN
 40
3.0
 41
2.8
 42
1.0
 43
5.0
 44
1.0
 45
0.1
 46
0.0
 47
0.0
 48
0.0
140
2.5
141
0.0
142
0.0
143
1.0
144
1.0
145
0.0
146
0.7
147
0.85
 71
     0
 72
     0
 73
     0
 74
     0
 75
     0
 76
     0
 77
     3
 78
     8
170
     0
171
     2
172
     1
173
     1
174
     0
175
     0
176
     2
177
     2
178
     2
270
     2
271
     2
272
     3
273
     2
274
     3
340
2592
275
     0
280
     0
281
     0
282
     0
283
     1
284
     8
285
     8
286
     8
287
     0
288
     0
  0
ENDTAB
  0
TABLE
  2
BLOCK_RECORD
  5
1
100
AcDbSymbolTable
 70
     1
  0
BLOCK_RECORD
  5
18
100
AcDbSymbolTableRecord
100
AcDbBlockTableRecord
  2
*MODEL_SPACE
  0
BLOCK_RECORD
  5
15
100
AcDbSymbolTableRecord
100
AcDbBlockTableRecord
  2
*PAPER_SPACE
  0
BLOCK_RECORD
  5
2448
100
AcDbSymbolTableRecord
100
AcDbBlockTableRecord
  2
_OPEN
  0
ENDTAB
  0
ENDSEC
  0
SECTION
  2
BLOCKS
  0
BLOCK
  5
3C
100
AcDbEntity
  8
0
100
AcDbBlockBegin
  2
*MODEL_SPACE
 70
     0
 10
0.0
 20
0.0
 30
0.0
  3
*MODEL_SPACE
  1

  0
ENDBLK
  5
3D
100
AcDbEntity
  8
0
100
AcDbBlockEnd
  0
BLOCK
  5
3A
100
AcDbEntity
 67
     1
  8
0
100
AcDbBlockBegin
  2
*PAPER_SPACE
 70
     0
 10
0.0
 20
0.0
 30
0.0
  3
*PAPER_SPACE
  1

  0
ENDBLK
  5
3B
100
AcDbEntity
 67
     1
  8
0
100
AcDbBlockEnd
  0
BLOCK
  5
2449
100
AcDbEntity
  8
0
 48
4.0
100
AcDbBlockBegin
  2
_OPEN
 70
     0
 10
0.0
 20
0.0
 30
0.0
  3
_OPEN
  1
H1111.DWG
  0
LINE
  5
244A
100
AcDbEntity
  8
0
  6
BYBLOCK
 62
     0
 48
4.0
100
AcDbLine
 10
-1.0
 20
0.166667
 30
0.0
 11
0.0
 21
0.0
 31
0.0
  0
LINE
  5
244B
100
AcDbEntity
  8
0
  6
BYBLOCK
 62
     0
 48
4.0
100
AcDbLine
 10
0.0
 20
0.0
 30
0.0
 11
-1.0
 21
-0.166667
 31
0.0
  0
LINE
  5
244C
100
AcDbEntity
  8
0
  6
BYBLOCK
 62
     0
 48
4.0
100
AcDbLine
 10
0.0
 20
0.0
 30
0.0
 11
-1.0
 21
0.0
 31
0.0
  0
ENDBLK
  5
244D
100
AcDbEntity
  8
0
 48
4.0
100
AcDbBlockEnd
  0
ENDSEC
  0
SECTION
  2
ENTITIES
  0
MTEXT
  5
ADA
100
AcDbEntity
  8
0
100
AcDbMText
 10
1140.417839
 20
149.538933
 30
0.0
 40
0.6
 41
141.679395
 71
     1
 72
     1
  1

  0
MTEXT
  5
ADB
100
AcDbEntity
  8
0
100
AcDbMText
 10
1167.1498
 20
173.552381
 30
0.0
 40
0.6
 41
136.333003
 71
     1
 72
     1
  1

  0
MTEXT
  5
ADC
100
AcDbEntity
  8
0
100
AcDbMText
 10
1151.110623
 20
-143.958739
 30
0.0
 40
0.6
 41
155.045375
 71
     1
 72
     1
  1

  0
TEXT
  5
2529
100
AcDbEntity
  8
0
  6
CONTINUOUS
100
AcDbText
 10
838.192323
 20
21.146855
 30
0.0
 40
5.0
  1
SA3
 41
0.9
  7
PTSH
 72
     1
 11
844.192323
 21
23.646855
 31
0.0
100
AcDbText
 73
     2
  0
POLYLINE
  5
2563
100
AcDbEntity
  8
0
100
AcDb2dPolyline
 66
     1
 10
0.0
 20
0.0
 30
0.0
 70
     1
  0
VERTEX
  5
3BC4
100
AcDbEntity
  8
0
100
AcDbVertex
100
AcDb2dVertex
 10
33.0
 20
15.0
 30
0.0
  0
VERTEX
  5
3BC5
100
AcDbEntity
  8
0
100
AcDbVertex
100
AcDb2dVertex
 10
858.0
 20
15.0
 30
0.0
  0
VERTEX
  5
3BC6
100
AcDbEntity
  8
0
100
AcDbVertex
100
AcDb2dVertex
 10
858.0
 20
573.0
 30
0.0
  0
VERTEX
  5
3BC7
100
AcDbEntity
  8
0
100
AcDbVertex
100
AcDb2dVertex
 10
33.0
 20
573.0
 30
0.0
  0
SEQEND
  5
3BC8
100
AcDbEntity
  8
0
  0
LINE
  5
29F1
100
AcDbEntity
  8
0
100
AcDbLine
 10
181.71965
 20
547.132898
 30
0.0
 11
174.876012
 21
544.642017
 31
0.0
  0
ARC
  5
29F2
100
AcDbEntity
  8
0
100
AcDbCircle
 10
188.902073
 20
513.715363
 30
0.0
 40
30.926654
100
AcDbArc
 50
77.62585
 51
102.37415
  0
ARC
  5
29F3
100
AcDbEntity
  8
0
100
AcDbCircle
 10
188.902073
 20
505.368436
 30
0.0
 40
17.530917
100
AcDbArc
 50
67.787568
 51
112.212432
  0
ARC
  5
29F4
100
AcDbEntity
  8
0
100
AcDbCircle
 10
188.902073
 20
530.430269
 30
0.0
 40
17.530917
100
AcDbArc
 50
247.787568
 51
292.212432
  0
LINE
  5
29F5
100
AcDbEntity
  8
0
100
AcDbLine
 10
204.632612
 20
512.899353
 30
0.0
 11
173.171534
 21
512.899353
 31
0.0
  0
LINE
  5
29F6
100
AcDbEntity
  8
0
100
AcDbLine
 10
204.902073
 20
522.899353
 30
0.0
 11
172.902073
 21
522.899353
 31
0.0
  0
ARC
  5
29F7
100
AcDbEntity
  8
0
100
AcDbCircle
 10
188.902073
 20
563.826007
 30
0.0
 40
30.926654
100
AcDbArc
 50
257.62585
 51
282.37415
  0
LINE
  5
29F8
100
AcDbEntity
  8
0
100
AcDbLine
 10
204.902073
 20
532.899353
 30
0.0
 11
172.902073
 21
532.899353
 31
0.0
  0
LINE
  5
29F9
100
AcDbEntity
  8
0
100
AcDbLine
 10
204.902073
 20
532.899353
 30
0.0
 11
172.902073
 21
532.899353
 31
0.0
  0
LINE
  5
29FA
100
AcDbEntity
  8
0
100
AcDbLine
 10
172.902073
 20
541.822939
 30
0.0
 11
172.902073
 21
514.141993
 31
0.0
  0
LINE
  5
29FB
100
AcDbEntity
  8
0
100
AcDbLine
 10
182.274656
 20
521.598358
 30
0.0
 11
182.274656
 21
514.200347
 31
0.0
  0
ARC
  5
29FC
100
AcDbEntity
  8
0
100
AcDbCircle
 10
177.588364
 20
521.990059
 30
0.0
 40
9.090707
100
AcDbArc
 50
238.968883
 51
301.031117
  0
ARC
  5
29FD
100
AcDbEntity
  8
0
100
AcDbCircle
 10
175.902073
 20
514.141993
 30
0.0
 40
3.0
100
AcDbArc
 50
180.0
 51
225.0
  0
ARC
  5
29FE
100
AcDbEntity
  8
0
100
AcDbCircle
 10
177.588364
 20
513.808646
 30
0.0
 40
9.090707
100
AcDbArc
 50
58.968883
 51
121.031117
  0
LINE
  5
29FF
100
AcDbEntity
  8
0
100
AcDbLine
 10
182.274656
 20
543.923562
 30
0.0
 11
182.274656
 21
533.617808
 31
0.0
  0
ARC
  5
2A00
100
AcDbEntity
  8
0
100
AcDbCircle
 10
177.588364
 20
548.542293
 30
0.0
 40
15.642941
100
AcDbArc
 50
252.567701
 51
287.432299
  0
ARC
  5
2A01
100
AcDbEntity
  8
0
100
AcDbCircle
 10
175.902073
 20
541.822939
 30
0.0
 40
3.0
100
AcDbArc
 50
110.0
 51
180.0
  0
ARC
  5
2A02
100
AcDbEntity
  8
0
100
AcDbCircle
 10
177.588364
 20
528.999076
 30
0.0
 40
15.642941
100
AcDbArc
 50
72.567701
 51
102.68749
  0
ARC
  5
2A03
100
AcDbEntity
  8
0
100
AcDbCircle
 10
188.902073
 20
527.399353
 30
0.0
 40
21.0
100
AcDbArc
 50
70.0
 51
110.0
  0
LINE
  5
2A04
100
AcDbEntity
  8
0
100
AcDbLine
 10
204.902073
 20
547.899353
 30
0.0
 11
193.45729
 21
547.899353
 31
0.0
  0
LINE
  5
2A05
100
AcDbEntity
  8
0
100
AcDbLine
 10
197.402073
 20
503.399353
 30
0.0
 11
180.402073
 21
503.399353
 31
0.0
  0
LINE
  5
2A06
100
AcDbEntity
  8
0
100
AcDbLine
 10
197.402073
 20
505.399353
 30
0.0
 11
180.402073
 21
505.399353
 31
0.0
  0
LINE
  5
2A07
100
AcDbEntity
  8
0
100
AcDbLine
 10
173.780753
 20
512.020673
 30
0.0
 11
179.816286
 21
505.985139
 31
0.0
  0
LINE
  5
2A08
100
AcDbEntity
  8
0
100
AcDbLine
 10
180.402073
 20
503.399353
 30
0.0
 11
180.402073
 21
504.570925
 31
0.0
  0
ARC
  5
2A09
100
AcDbEntity
  8
0
100
AcDbCircle
 10
178.402073
 20
504.570925
 30
0.0
 40
2.0
100
AcDbArc
 50
0.0
 51
45.0
  0
LINE
  5
2A0A
100
AcDbEntity
  8
0
100
AcDbLine
 10
204.902073
 20
547.899353
 30
0.0
 11
204.902073
 21
514.141993
 31
0.0
  0
LINE
  5
2A0B
100
AcDbEntity
  8
0
100
AcDbLine
 10
211.902073
 20
546.649353
 30
0.0
 11
211.902073
 21
535.149353
 31
0.0
  0
LINE
  5
2A0C
100
AcDbEntity
  8
0
100
AcDbLine
 10
221.902073
 20
538.149353
 30
0.0
 11
221.902073
 21
543.649353
 31
0.0
  0
LINE
  5
2A0D
100
AcDbEntity
  8
0
100
AcDbLine
 10
222.902073
 20
539.149353
 30
0.0
 11
222.902073
 21
542.649353
 31
0.0
  0
ARC
  5
2A0E
100
AcDbEntity
  8
0
100
AcDbCircle
 10
204.72387
 20
540.899353
 30
0.0
 40
6.928203
100
AcDbArc
 50
330.0
 51
30.0
  0
LINE
  5
2A0F
100
AcDbEntity
  8
0
100
AcDbLine
 10
215.402073
 20
538.149353
 30
0.0
 11
215.402073
 21
543.649353
 31
0.0
  0
LINE
  5
2A10
100
AcDbEntity
  8
0
100
AcDbLine
 10
214.402073
 20
538.149353
 30
0.0
 11
214.402073
 21
543.649353
 31
0.0
  0
LINE
  5
2A11
100
AcDbEntity
  8
0
100
AcDbLine
 10
195.52949
 20
543.923562
 30
0.0
 11
195.52949
 21
533.617808
 31
0.0
  0
ARC
  5
2A12
100
AcDbEntity
  8
0
100
AcDbCircle
 10
212.080276
 20
540.899353
 30
0.0
 40
6.928203
100
AcDbArc
 50
150.0
 51
210.0
  0
LINE
  5
2A13
100
AcDbEntity
  8
0
100
AcDbLine
 10
195.52949
 20
521.598358
 30
0.0
 11
195.52949
 21
514.200347
 31
0.0
  0
LINE
  5
2A14
100
AcDbEntity
  8
0
100
AcDbLine
 10
204.023393
 20
512.020673
 30
0.0
 11
197.987859
 21
505.985139
 31
0.0
  0
LINE
  5
2A15
100
AcDbEntity
  8
0
100
AcDbLine
 10
197.402073
 20
503.399353
 30
0.0
 11
197.402073
 21
504.570925
 31
0.0
  0
ARC
  5
2A16
100
AcDbEntity
  8
0
100
AcDbCircle
 10
199.402073
 20
504.570925
 30
0.0
 40
2.0
100
AcDbArc
 50
135.0
 51
180.0
  0
ARC
  5
2A17
100
AcDbEntity
  8
0
100
AcDbCircle
 10
200.215781
 20
521.990059
 30
0.0
 40
9.090707
100
AcDbArc
 50
238.968883
 51
301.031117
  0
ARC
  5
2A18
100
AcDbEntity
  8
0
100
AcDbCircle
 10
201.902073
 20
514.141993
 30
0.0
 40
3.0
100
AcDbArc
 50
315.0
 51
0.0
  0
LINE
  5
2A19
100
AcDbEntity
  8
0
100
AcDbLine
 10
215.402073
 20
538.149353
 30
0.0
 11
221.902073
 21
538.149353
 31
0.0
  0
LINE
  5
2A1A
100
AcDbEntity
  8
0
100
AcDbLine
 10
222.902073
 20
539.149353
 30
0.0
 11
221.902073
 21
538.149353
 31
0.0
  0
ARC
  5
2A1B
100
AcDbEntity
  8
0
100
AcDbCircle
 10
200.215781
 20
513.808646
 30
0.0
 40
9.090707
100
AcDbArc
 50
58.968883
 51
121.031117
  0
LINE
  5
2A1C
100
AcDbEntity
  8
0
100
AcDbLine
 10
210.72387
 20
537.435251
 30
0.0
 11
206.080276
 21
537.435251
 31
0.0
  0
LINE
  5
2A1D
100
AcDbEntity
  8
0
100
AcDbLine
 10
210.72387
 20
533.971149
 30
0.0
 11
206.080276
 21
533.971149
 31
0.0
  0
ARC
  5
2A1E
100
AcDbEntity
  8
0
100
AcDbCircle
 10
209.571946
 20
535.7032
 30
0.0
 40
2.080127
100
AcDbArc
 50
326.373571
 51
56.373571
  0
LINE
  5
2A1F
100
AcDbEntity
  8
0
100
AcDbLine
 10
211.902073
 20
535.149353
 30
0.0
 11
210.72387
 21
533.971149
 31
0.0
  0
LINE
  5
2A20
100
AcDbEntity
  8
0
100
AcDbLine
 10
211.902073
 20
538.149353
 30
0.0
 11
214.402073
 21
538.149353
 31
0.0
  0
LINE
  5
2A21
100
AcDbEntity
  8
0
100
AcDbLine
 10
214.402073
 20
538.399353
 30
0.0
 11
215.402073
 21
538.399353
 31
0.0
  0
ARC
  5
2A22
100
AcDbEntity
  8
0
100
AcDbCircle
 10
207.2322
 20
535.7032
 30
0.0
 40
2.080127
100
AcDbArc
 50
123.626429
 51
213.626429
  0
ARC
  5
2A23
100
AcDbEntity
  8
0
100
AcDbCircle
 10
200.215781
 20
548.542293
 30
0.0
 40
15.642941
100
AcDbArc
 50
252.567701
 51
287.432299
  0
LINE
  5
2A24
100
AcDbEntity
  8
0
100
AcDbLine
 10
204.902073
 20
535.149353
 30
0.0
 11
206.080276
 21
533.971149
 31
0.0
  0
LINE
  5
2A25
100
AcDbEntity
  8
0
100
AcDbLine
 10
215.402073
 20
543.649353
 30
0.0
 11
221.902073
 21
543.649353
 31
0.0
  0
LINE
  5
2A26
100
AcDbEntity
  8
0
100
AcDbLine
 10
221.902073
 20
543.649353
 30
0.0
 11
222.902073
 21
542.649353
 31
0.0
  0
LINE
  5
2A27
100
AcDbEntity
  8
0
100
AcDbLine
 10
210.72387
 20
544.363454
 30
0.0
 11
206.080276
 21
544.363454
 31
0.0
  0
LINE
  5
2A28
100
AcDbEntity
  8
0
100
AcDbLine
 10
210.72387
 20
547.827556
 30
0.0
 11
206.080276
 21
547.827556
 31
0.0
  0
ARC
  5
2A29
100
AcDbEntity
  8
0
100
AcDbCircle
 10
209.571946
 20
546.095505
 30
0.0
 40
2.080127
100
AcDbArc
 50
303.626429
 51
33.626429
  0
LINE
  5
2A2A
100
AcDbEntity
  8
0
100
AcDbLine
 10
211.902073
 20
543.649353
 30
0.0
 11
214.402073
 21
543.649353
 31
0.0
  0
LINE
  5
2A2B
100
AcDbEntity
  8
0
100
AcDbLine
 10
214.402073
 20
543.399353
 30
0.0
 11
215.402073
 21
543.399353
 31
0.0
  0
LINE
  5
2A2C
100
AcDbEntity
  8
0
100
AcDbLine
 10
211.902073
 20
546.649353
 30
0.0
 11
210.72387
 21
547.827556
 31
0.0
  0
LINE
  5
2A2D
100
AcDbEntity
  8
0
100
AcDbLine
 10
196.084496
 20
547.132898
 30
0.0
 11
202.928133
 21
544.642017
 31
0.0
  0
ARC
  5
2A2E
100
AcDbEntity
  8
0
100
AcDbCircle
 10
207.2322
 20
546.095505
 30
0.0
 40
2.080127
100
AcDbArc
 50
146.373571
 51
236.373571
  0
ARC
  5
2A2F
100
AcDbEntity
  8
0
100
AcDbCircle
 10
200.215781
 20
528.999076
 30
0.0
 40
15.642941
100
AcDbArc
 50
72.567701
 51
107.432299
  0
LINE
  5
2A30
100
AcDbEntity
  8
0
100
AcDbLine
 10
204.902073
 20
546.649353
 30
0.0
 11
206.080276
 21
547.827556
 31
0.0
  0
LINE
  5
2A31
100
AcDbEntity
  8
0
100
AcDbLine
 10
193.821357
 20
503.399353
 30
0.0
 11
193.352607
 21
495.899353
 31
0.0
  0
LINE
  5
2A32
100
AcDbEntity
  8
0
100
AcDbLine
 10
184.038073
 20
503.399353
 30
0.0
 11
184.506823
 21
495.899353
 31
0.0
  0
LINE
  5
2A33
100
AcDbEntity
  8
0
100
AcDbLine
 10
193.352607
 20
495.899353
 30
0.0
 11
188.902073
 21
495.899353
 31
0.0
  0
LINE
  5
2A34
100
AcDbEntity
  8
0
100
AcDbLine
 10
188.902073
 20
495.899353
 30
0.0
 11
184.506823
 21
495.899353
 31
0.0
  0
LINE
  5
2A37
100
AcDbEntity
  8
0
100
AcDbLine
 10
172.902073
 20
459.842045
 30
0.0
 11
171.72387
 21
461.020248
 31
0.0
  0
LINE
  5
2A38
100
AcDbEntity
  8
0
100
AcDbLine
 10
165.902073
 20
459.842045
 30
0.0
 11
167.080276
 21
461.020248
 31
0.0
  0
LINE
  5
2A39
100
AcDbEntity
  8
0
100
AcDbLine
 10
163.402073
 20
457.520248
 30
0.0
 11
162.402073
 21
457.520248
 31
0.0
  0
LINE
  5
2A3A
100
AcDbEntity
  8
0
100
AcDbLine
 10
165.902073
 20
457.770248
 30
0.0
 11
163.402073
 21
457.770248
 31
0.0
  0
LINE
  5
2A3B
100
AcDbEntity
  8
0
100
AcDbLine
 10
171.72387
 20
461.020248
 30
0.0
 11
167.080276
 21
461.020248
 31
0.0
  0
LINE
  5
2A3C
100
AcDbEntity
  8
0
100
AcDbLine
 10
172.902073
 20
450.198451
 30
0.0
 11
171.72387
 21
449.020248
 31
0.0
  0
ARC
  5
2A3D
100
AcDbEntity
  8
0
100
AcDbCircle
 10
167.339895
 20
452.020248
 30
0.0
 40
5.312178
100
AcDbArc
 50
325.615753
 51
34.384247
  0
LINE
  5
2A3E
100
AcDbEntity
  8
0
100
AcDbLine
 10
163.402073
 20
452.520248
 30
0.0
 11
162.402073
 21
452.520248
 31
0.0
  0
LINE
  5
2A3F
100
AcDbEntity
  8
0
100
AcDbLine
 10
165.902073
 20
452.270248
 30
0.0
 11
163.402073
 21
452.270248
 31
0.0
  0
LINE
  5
2A40
100
AcDbEntity
  8
0
100
AcDbLine
 10
165.902073
 20
450.198451
 30
0.0
 11
167.080276
 21
449.020248
 31
0.0
  0
ARC
  5
2A41
100
AcDbEntity
  8
0
100
AcDbCircle
 10
171.464251
 20
452.020248
 30
0.0
 40
5.312178
100
AcDbArc
 50
145.615753
 51
214.384247
  0
LINE
  5
2A42
100
AcDbEntity
  8
0
100
AcDbLine
 10
171.72387
 20
455.020248
 30
0.0
 11
167.080276
 21
455.020248
 31
0.0
  0
LINE
  5
2A43
100
AcDbEntity
  8
0
100
AcDbLine
 10
171.72387
 20
449.020248
 30
0.0
 11
167.080276
 21
449.020248
 31
0.0
  0
ARC
  5
2A44
100
AcDbEntity
  8
0
100
AcDbCircle
 10
167.339895
 20
458.020248
 30
0.0
 40
5.312178
100
AcDbArc
 50
325.615753
 51
34.384247
  0
ARC
  5
2A45
100
AcDbEntity
  8
0
100
AcDbCircle
 10
171.464251
 20
458.020248
 30
0.0
 40
5.312178
100
AcDbArc
 50
145.615753
 51
214.384247
  0
LINE
  5
2A46
100
AcDbEntity
  8
0
100
AcDbLine
 10
172.902073
 20
461.647665
 30
0.0
 11
172.902073
 21
448.392831
 31
0.0
  0
LINE
  5
2A47
100
AcDbEntity
  8
0
100
AcDbLine
 10
165.902073
 20
450.198451
 30
0.0
 11
165.902073
 21
459.842045
 31
0.0
  0
LINE
  5
2A48
100
AcDbEntity
  8
0
100
AcDbLine
 10
162.402073
 20
452.270248
 30
0.0
 11
162.402073
 21
457.770248
 31
0.0
  0
LINE
  5
2A49
100
AcDbEntity
  8
0
100
AcDbLine
 10
163.402073
 20
452.270248
 30
0.0
 11
163.402073
 21
457.770248
 31
0.0
  0
LINE
  5
2A4A
100
AcDbEntity
  8
0
100
AcDbLine
 10
155.902073
 20
457.770248
 30
0.0
 11
154.902073
 21
456.770248
 31
0.0
  0
LINE
  5
2A4B
100
AcDbEntity
  8
0
100
AcDbLine
 10
154.902073
 20
453.270248
 30
0.0
 11
155.902073
 21
452.270248
 31
0.0
  0
LINE
  5
2A4C
100
AcDbEntity
  8
0
100
AcDbLine
 10
154.902073
 20
453.270248
 30
0.0
 11
154.902073
 21
456.770248
 31
0.0
  0
LINE
  5
2A4D
100
AcDbEntity
  8
0
100
AcDbLine
 10
155.902073
 20
452.270248
 30
0.0
 11
155.902073
 21
457.770248
 31
0.0
  0
LINE
  5
2A4E
100
AcDbEntity
  8
0
100
AcDbLine
 10
162.402073
 20
457.770248
 30
0.0
 11
155.902073
 21
457.770248
 31
0.0
  0
LINE
  5
2A4F
100
AcDbEntity
  8
0
100
AcDbLine
 10
162.402073
 20
452.270248
 30
0.0
 11
155.902073
 21
452.270248
 31
0.0
  0
LINE
  5
2A50
100
AcDbEntity
  8
0
100
AcDbLine
 10
172.902073
 20
461.647665
 30
0.0
 11
182.274656
 21
471.020248
 31
0.0
  0
LINE
  5
2A51
100
AcDbEntity
  8
0
100
AcDbLine
 10
182.274656
 20
439.020248
 30
0.0
 11
172.902073
 21
448.392831
 31
0.0
  0
LINE
  5
2A52
100
AcDbEntity
  8
0
100
AcDbLine
 10
204.902073
 20
461.647665
 30
0.0
 11
204.902073
 21
448.392831
 31
0.0
  0
LINE
  5
2A53
100
AcDbEntity
  8
0
100
AcDbLine
 10
182.274656
 20
471.020248
 30
0.0
 11
195.52949
 21
471.020248
 31
0.0
  0
POLYLINE
  5
2A54
100
AcDbEntity
  8
0
100
AcDb2dPolyline
 66
     1
 10
0.0
 20
0.0
 30
0.0
  0
VERTEX
  5
3BC9
100
AcDbEntity
  8
0
100
AcDbVertex
100
AcDb2dVertex
 10
172.902073
 20
448.392831
 30
0.0
 42
0.058922
  0
VERTEX
  5
3BCA
100
AcDbEntity
  8
0
100
AcDbVertex
100
AcDb2dVertex
 10
177.496695
 20
448.936162
 30
0.0
 42
0.072496
  0
VERTEX
  5
3BCB
100
AcDbEntity
  8
0
100
AcDbVertex
100
AcDb2dVertex
 10
180.994757
 20
450.333956
 30
0.0
 42
0.106647
  0
VERTEX
  5
3BCC
100
AcDbEntity
  8
0
100
AcDbVertex
100
AcDb2dVertex
 10
183.603585
 20
452.703569
 30
0.0
 42
0.156489
  0
VERTEX
  5
3BCD
100
AcDbEntity
  8
0
100
AcDbVertex
100
AcDb2dVertex
 10
184.346856
 20
455.020248
 30
0.0
 42
0.156489
  0
VERTEX
  5
3BCE
100
AcDbEntity
  8
0
100
AcDbVertex
100
AcDb2dVertex
 10
183.603585
 20
457.336927
 30
0.0
 42
0.106647
  0
VERTEX
  5
3BCF
100
AcDbEntity
  8
0
100
AcDbVertex
100
AcDb2dVertex
 10
180.994757
 20
459.706539
 30
0.0
 42
0.072496
  0
VERTEX
  5
3BD0
100
AcDbEntity
  8
0
100
AcDbVertex
100
AcDb2dVertex
 10
177.496695
 20
461.104333
 30
0.0
 42
0.058922
  0
VERTEX
  5
3BD1
100
AcDbEntity
  8
0
100
AcDbVertex
100
AcDb2dVertex
 10
172.902073
 20
461.647665
 30
0.0
 42
0.058922
  0
SEQEND
  5
3BD2
100
AcDbEntity
  8
0
  0
LINE
  5
2A55
100
AcDbEntity
  8
0
100
AcDbLine
 10
182.274656
 20
439.020248
 30
0.0
 11
195.52949
 21
439.020248
 31
0.0
  0
LINE
  5
2A56
100
AcDbEntity
  8
0
100
AcDbLine
 10
195.52949
 20
471.020248
 30
0.0
 11
204.902073
 21
461.647665
 31
0.0
  0
LINE
  5
2A57
100
AcDbEntity
  8
0
100
AcDbLine
 10
195.52949
 20
439.020248
 30
0.0
 11
204.902073
 21
448.392831
 31
0.0
  0
LINE
  5
2A5C
100
AcDbEntity
  8
0
100
AcDbLine
 10
172.902073
 20
411.774755
 30
0.0
 11
171.72387
 21
412.952958
 31
0.0
  0
ARC
  5
2A5D
100
AcDbEntity
  8
0
100
AcDbCircle
 10
177.588364
 20
394.124479
 30
0.0
 40
15.642941
100
AcDbArc
 50
72.567701
 51
107.432299
  0
ARC
  5
2A5E
100
AcDbEntity
  8
0
100
AcDbCircle
 10
170.571946
 20
411.220907
 30
0.0
 40
2.080127
100
AcDbArc
 50
303.626429
 51
33.626429
  0
LINE
  5
2A5F
100
AcDbEntity
  8
0
100
AcDbLine
 10
181.71965
 20
412.2583
 30
0.0
 11
174.876012
 21
409.76742
 31
0.0
  0
LINE
  5
2A60
100
AcDbEntity
  8
0
100
AcDbLine
 10
165.902073
 20
411.774755
 30
0.0
 11
167.080276
 21
412.952958
 31
0.0
  0
LINE
  5
2A61
100
AcDbEntity
  8
0
100
AcDbLine
 10
163.402073
 20
408.524755
 30
0.0
 11
162.402073
 21
408.524755
 31
0.0
  0
LINE
  5
2A62
100
AcDbEntity
  8
0
100
AcDbLine
 10
165.902073
 20
408.774755
 30
0.0
 11
163.402073
 21
408.774755
 31
0.0
  0
ARC
  5
2A63
100
AcDbEntity
  8
0
100
AcDbCircle
 10
168.2322
 20
411.220907
 30
0.0
 40
2.080127
100
AcDbArc
 50
146.373571
 51
236.373571
  0
LINE
  5
2A64
100
AcDbEntity
  8
0
100
AcDbLine
 10
167.080276
 20
412.952958
 30
0.0
 11
171.72387
 21
412.952958
 31
0.0
  0
LINE
  5
2A65
100
AcDbEntity
  8
0
100
AcDbLine
 10
167.080276
 20
409.488857
 30
0.0
 11
171.72387
 21
409.488857
 31
0.0
  0
LINE
  5
2A66
100
AcDbEntity
  8
0
100
AcDbLine
 10
155.902073
 20
408.774755
 30
0.0
 11
154.902073
 21
407.774755
 31
0.0
  0
LINE
  5
2A67
100
AcDbEntity
  8
0
100
AcDbLine
 10
162.402073
 20
408.774755
 30
0.0
 11
155.902073
 21
408.774755
 31
0.0
  0
LINE
  5
2A68
100
AcDbEntity
  8
0
100
AcDbLine
 10
172.902073
 20
400.274755
 30
0.0
 11
171.72387
 21
399.096552
 31
0.0
  0
ARC
  5
2A69
100
AcDbEntity
  8
0
100
AcDbCircle
 10
177.588364
 20
413.667696
 30
0.0
 40
15.642941
100
AcDbArc
 50
252.567701
 51
287.432299
  0
ARC
  5
2A6A
100
AcDbEntity
  8
0
100
AcDbCircle
 10
170.571946
 20
400.828603
 30
0.0
 40
2.080127
100
AcDbArc
 50
326.373571
 51
56.373571
  0
LINE
  5
2A6B
100
AcDbEntity
  8
0
100
AcDbLine
 10
163.402073
 20
403.524755
 30
0.0
 11
162.402073
 21
403.524755
 31
0.0
  0
LINE
  5
2A6C
100
AcDbEntity
  8
0
100
AcDbLine
 10
165.902073
 20
403.274755
 30
0.0
 11
163.402073
 21
403.274755
 31
0.0
  0
LINE
  5
2A6D
100
AcDbEntity
  8
0
100
AcDbLine
 10
165.902073
 20
400.274755
 30
0.0
 11
167.080276
 21
399.096552
 31
0.0
  0
ARC
  5
2A6E
100
AcDbEntity
  8
0
100
AcDbCircle
 10
168.2322
 20
400.828603
 30
0.0
 40
2.080127
100
AcDbArc
 50
123.626429
 51
213.626429
  0
LINE
  5
2A6F
100
AcDbEntity
  8
0
100
AcDbLine
 10
167.080276
 20
399.096552
 30
0.0
 11
171.72387
 21
399.096552
 31
0.0
  0
LINE
  5
2A70
100
AcDbEntity
  8
0
100
AcDbLine
 10
167.080276
 20
402.560653
 30
0.0
 11
171.72387
 21
402.560653
 31
0.0
  0
ARC
  5
2A71
100
AcDbEntity
  8
0
100
AcDbCircle
 10
177.588364
 20
378.934048
 30
0.0
 40
9.090707
100
AcDbArc
 50
58.968883
 51
121.031117
  0
LINE
  5
2A72
100
AcDbEntity
  8
0
100
AcDbLine
 10
154.902073
 20
404.274755
 30
0.0
 11
155.902073
 21
403.274755
 31
0.0
  0
LINE
  5
2A73
100
AcDbEntity
  8
0
100
AcDbLine
 10
162.402073
 20
403.274755
 30
0.0
 11
155.902073
 21
403.274755
 31
0.0
  0
ARC
  5
2A74
100
AcDbEntity
  8
0
100
AcDbCircle
 10
175.902073
 20
379.267396
 30
0.0
 40
3.0
100
AcDbArc
 50
180.0
 51
225.0
  0
ARC
  5
2A75
100
AcDbEntity
  8
0
100
AcDbCircle
 10
177.588364
 20
387.115462
 30
0.0
 40
9.090707
100
AcDbArc
 50
238.968883
 51
301.031117
  0
ARC
  5
2A76
100
AcDbEntity
  8
0
100
AcDbCircle
 10
178.402073
 20
369.696328
 30
0.0
 40
2.0
100
AcDbArc
 50
0.0
 51
45.0
  0
LINE
  5
2A77
100
AcDbEntity
  8
0
100
AcDbLine
 10
180.402073
 20
368.524755
 30
0.0
 11
180.402073
 21
369.696328
 31
0.0
  0
LINE
  5
2A78
100
AcDbEntity
  8
0
100
AcDbLine
 10
173.780753
 20
377.146075
 30
0.0
 11
179.816286
 21
371.110541
 31
0.0
  0
LINE
  5
2A79
100
AcDbEntity
  8
0
100
AcDbLine
 10
182.274656
 20
386.723761
 30
0.0
 11
182.274656
 21
379.325749
 31
0.0
  0
ARC
  5
2A7A
100
AcDbEntity
  8
0
100
AcDbCircle
 10
165.72387
 20
406.024755
 30
0.0
 40
6.928203
100
AcDbArc
 50
330.0
 51
30.0
  0
LINE
  5
2A7B
100
AcDbEntity
  8
0
100
AcDbLine
 10
182.274656
 20
409.048965
 30
0.0
 11
182.274656
 21
398.74321
 31
0.0
  0
LINE
  5
2A7C
100
AcDbEntity
  8
0
100
AcDbLine
 10
163.402073
 20
403.274755
 30
0.0
 11
163.402073
 21
408.774755
 31
0.0
  0
LINE
  5
2A7D
100
AcDbEntity
  8
0
100
AcDbLine
 10
162.402073
 20
403.274755
 30
0.0
 11
162.402073
 21
408.774755
 31
0.0
  0
ARC
  5
2A7E
100
AcDbEntity
  8
0
100
AcDbCircle
 10
173.080276
 20
406.024755
 30
0.0
 40
6.928203
100
AcDbArc
 50
150.0
 51
210.0
  0
LINE
  5
2A7F
100
AcDbEntity
  8
0
100
AcDbLine
 10
154.902073
 20
404.274755
 30
0.0
 11
154.902073
 21
407.774755
 31
0.0
  0
LINE
  5
2A80
100
AcDbEntity
  8
0
100
AcDbLine
 10
155.902073
 20
403.274755
 30
0.0
 11
155.902073
 21
408.774755
 31
0.0
  0
LINE
  5
2A81
100
AcDbEntity
  8
0
100
AcDbLine
 10
165.902073
 20
411.774755
 30
0.0
 11
165.902073
 21
400.274755
 31
0.0
  0
LINE
  5
2A82
100
AcDbEntity
  8
0
100
AcDbLine
 10
172.902073
 20
413.024755
 30
0.0
 11
172.902073
 21
379.267396
 31
0.0
  0
ARC
  5
2A83
100
AcDbEntity
  8
0
100
AcDbCircle
 10
199.402073
 20
369.696328
 30
0.0
 40
2.0
100
AcDbArc
 50
135.0
 51
180.0
  0
LINE
  5
2A84
100
AcDbEntity
  8
0
100
AcDbLine
 10
197.402073
 20
368.524755
 30
0.0
 11
197.402073
 21
369.696328
 31
0.0
  0
LINE
  5
2A85
100
AcDbEntity
  8
0
100
AcDbLine
 10
204.023393
 20
377.146075
 30
0.0
 11
197.987859
 21
371.110541
 31
0.0
  0
LINE
  5
2A86
100
AcDbEntity
  8
0
100
AcDbLine
 10
180.402073
 20
370.524755
 30
0.0
 11
197.402073
 21
370.524755
 31
0.0
  0
LINE
  5
2A87
100
AcDbEntity
  8
0
100
AcDbLine
 10
180.402073
 20
368.524755
 30
0.0
 11
197.402073
 21
368.524755
 31
0.0
  0
LINE
  5
2A88
100
AcDbEntity
  8
0
100
AcDbLine
 10
172.902073
 20
413.024755
 30
0.0
 11
184.346856
 21
413.024755
 31
0.0
  0
ARC
  5
2A89
100
AcDbEntity
  8
0
100
AcDbCircle
 10
188.902073
 20
392.524755
 30
0.0
 40
21.0
100
AcDbArc
 50
70.0
 51
110.0
  0
ARC
  5
2A8A
100
AcDbEntity
  8
0
100
AcDbCircle
 10
200.215781
 20
394.124479
 30
0.0
 40
15.642941
100
AcDbArc
 50
77.31251
 51
107.432299
  0
ARC
  5
2A8B
100
AcDbEntity
  8
0
100
AcDbCircle
 10
201.902073
 20
406.948342
 30
0.0
 40
3.0
100
AcDbArc
 50
0.0
 51
70.0
  0
ARC
  5
2A8C
100
AcDbEntity
  8
0
100
AcDbCircle
 10
200.215781
 20
413.667696
 30
0.0
 40
15.642941
100
AcDbArc
 50
252.567701
 51
287.432299
  0
LINE
  5
2A8D
100
AcDbEntity
  8
0
100
AcDbLine
 10
195.52949
 20
409.048965
 30
0.0
 11
195.52949
 21
398.74321
 31
0.0
  0
ARC
  5
2A8E
100
AcDbEntity
  8
0
100
AcDbCircle
 10
200.215781
 20
378.934048
 30
0.0
 40
9.090707
100
AcDbArc
 50
58.968883
 51
121.031117
  0
ARC
  5
2A8F
100
AcDbEntity
  8
0
100
AcDbCircle
 10
201.902073
 20
379.267396
 30
0.0
 40
3.0
100
AcDbArc
 50
315.0
 51
0.0
  0
ARC
  5
2A90
100
AcDbEntity
  8
0
100
AcDbCircle
 10
200.215781
 20
387.115462
 30
0.0
 40
9.090707
100
AcDbArc
 50
238.968883
 51
301.031117
  0
LINE
  5
2A91
100
AcDbEntity
  8
0
100
AcDbLine
 10
195.52949
 20
386.723761
 30
0.0
 11
195.52949
 21
379.325749
 31
0.0
  0
LINE
  5
2A92
100
AcDbEntity
  8
0
100
AcDbLine
 10
204.902073
 20
406.948342
 30
0.0
 11
204.902073
 21
379.267396
 31
0.0
  0
LINE
  5
2A93
100
AcDbEntity
  8
0
100
AcDbLine
 10
172.902073
 20
398.024755
 30
0.0
 11
204.902073
 21
398.024755
 31
0.0
  0
LINE
  5
2A94
100
AcDbEntity
  8
0
100
AcDbLine
 10
172.902073
 20
398.024755
 30
0.0
 11
204.902073
 21
398.024755
 31
0.0
  0
ARC
  5
2A95
100
AcDbEntity
  8
0
100
AcDbCircle
 10
188.902073
 20
428.951409
 30
0.0
 40
30.926654
100
AcDbArc
 50
257.62585
 51
282.37415
  0
LINE
  5
2A96
100
AcDbEntity
  8
0
100
AcDbLine
 10
172.902073
 20
388.024755
 30
0.0
 11
204.902073
 21
388.024755
 31
0.0
  0
LINE
  5
2A97
100
AcDbEntity
  8
0
100
AcDbLine
 10
173.171534
 20
378.024755
 30
0.0
 11
204.632612
 21
378.024755
 31
0.0
  0
ARC
  5
2A98
100
AcDbEntity
  8
0
100
AcDbCircle
 10
188.902073
 20
395.555672
 30
0.0
 40
17.530917
100
AcDbArc
 50
247.787568
 51
292.212432
  0
ARC
  5
2A99
100
AcDbEntity
  8
0
100
AcDbCircle
 10
188.902073
 20
370.493838
 30
0.0
 40
17.530917
100
AcDbArc
 50
67.787568
 51
112.212432
  0
ARC
  5
2A9A
100
AcDbEntity
  8
0
100
AcDbCircle
 10
188.902073
 20
378.840766
 30
0.0
 40
30.926654
100
AcDbArc
 50
77.62585
 51
102.37415
  0
LINE
  5
2A9B
100
AcDbEntity
  8
0
100
AcDbLine
 10
196.084496
 20
412.2583
 30
0.0
 11
202.928133
 21
409.76742
 31
0.0
  0
TEXT
  5
2A9C
100
AcDbEntity
  8
0
100
AcDbText
 10
184.412521
 20
346.365823
 30
0.0
 40
5.0
  1
6A
 41
0.8
100
AcDbText
  0
ARC
  5
2A9D
100
AcDbEntity
  8
0
100
AcDbCircle
 10
469.195735
 20
369.696328
 30
0.0
 40
2.0
100
AcDbArc
 50
135.0
 51
180.0
  0
LINE
  5
2A9E
100
AcDbEntity
  8
0
100
AcDbLine
 10
467.195735
 20
368.524755
 30
0.0
 11
467.195735
 21
369.696328
 31
0.0
  0
LINE
  5
2A9F
100
AcDbEntity
  8
0
100
AcDbLine
 10
473.817055
 20
377.146075
 30
0.0
 11
467.781521
 21
371.110541
 31
0.0
  0
LINE
  5
2AA0
100
AcDbEntity
  8
0
100
AcDbLine
 10
450.195735
 20
370.524755
 30
0.0
 11
467.195735
 21
370.524755
 31
0.0
  0
LINE
  5
2AA1
100
AcDbEntity
  8
0
100
AcDbLine
 10
450.195735
 20
368.524755
 30
0.0
 11
467.195735
 21
368.524755
 31
0.0
  0
LINE
  5
2AA5
100
AcDbEntity
  8
0
100
AcDbLine
 10
442.695735
 20
413.024755
 30
0.0
 11
454.140518
 21
413.024755
 31
0.0
  0
ARC
  5
2AA6
100
AcDbEntity
  8
0
100
AcDbCircle
 10
458.695735
 20
392.524755
 30
0.0
 40
21.0
100
AcDbArc
 50
70.0
 51
110.0
  0
ARC
  5
2AA7
100
AcDbEntity
  8
0
100
AcDbCircle
 10
470.009443
 20
394.124479
 30
0.0
 40
15.642941
100
AcDbArc
 50
77.31251
 51
107.432299
  0
ARC
  5
2AA8
100
AcDbEntity
  8
0
100
AcDbCircle
 10
471.695735
 20
406.948342
 30
0.0
 40
3.0
100
AcDbArc
 50
0.0
 51
70.0
  0
ARC
  5
2AA9
100
AcDbEntity
  8
0
100
AcDbCircle
 10
470.009443
 20
413.667696
 30
0.0
 40
15.642941
100
AcDbArc
 50
252.567701
 51
287.432299
  0
LINE
  5
2AAA
100
AcDbEntity
  8
0
100
AcDbLine
 10
465.323152
 20
409.048965
 30
0.0
 11
465.323152
 21
398.74321
 31
0.0
  0
ARC
  5
2AAB
100
AcDbEntity
  8
0
100
AcDbCircle
 10
470.009443
 20
378.934048
 30
0.0
 40
9.090707
100
AcDbArc
 50
58.968883
 51
121.031117
  0
ARC
  5
2AAC
100
AcDbEntity
  8
0
100
AcDbCircle
 10
471.695735
 20
379.267396
 30
0.0
 40
3.0
100
AcDbArc
 50
315.0
 51
0.0
  0
ARC
  5
2AAD
100
AcDbEntity
  8
0
100
AcDbCircle
 10
470.009443
 20
387.115462
 30
0.0
 40
9.090707
100
AcDbArc
 50
238.968883
 51
301.031117
  0
LINE
  5
2AAE
100
AcDbEntity
  8
0
100
AcDbLine
 10
465.323152
 20
386.723761
 30
0.0
 11
465.323152
 21
379.325749
 31
0.0
  0
LINE
  5
2AAF
100
AcDbEntity
  8
0
100
AcDbLine
 10
474.695735
 20
406.948342
 30
0.0
 11
474.695735
 21
379.267396
 31
0.0
  0
LINE
  5
2AB0
100
AcDbEntity
  8
0
100
AcDbLine
 10
442.695735
 20
398.024755
 30
0.0
 11
474.695735
 21
398.024755
 31
0.0
  0
LINE
  5
2AB1
100
AcDbEntity
  8
0
100
AcDbLine
 10
442.695735
 20
398.024755
 30
0.0
 11
474.695735
 21
398.024755
 31
0.0
  0
ARC
  5
2AB2
100
AcDbEntity
  8
0
100
AcDbCircle
 10
458.695735
 20
428.951409
 30
0.0
 40
30.926654
100
AcDbArc
 50
257.62585
 51
282.37415
  0
LINE
  5
2AB3
100
AcDbEntity
  8
0
100
AcDbLine
 10
442.695735
 20
388.024755
 30
0.0
 11
474.695735
 21
388.024755
 31
0.0
  0
LINE
  5
2AB4
100
AcDbEntity
  8
0
100
AcDbLine
 10
442.965195
 20
378.024755
 30
0.0
 11
474.426274
 21
378.024755
 31
0.0
  0
ARC
  5
2AB5
100
AcDbEntity
  8
0
100
AcDbCircle
 10
458.695735
 20
395.555672
 30
0.0
 40
17.530917
100
AcDbArc
 50
247.787568
 51
292.212432
  0
ARC
  5
2AB6
100
AcDbEntity
  8
0
100
AcDbCircle
 10
458.695735
 20
370.493838
 30
0.0
 40
17.530917
100
AcDbArc
 50
67.787568
 51
112.212432
  0
ARC
  5
2AB7
100
AcDbEntity
  8
0
100
AcDbCircle
 10
458.695735
 20
378.840766
 30
0.0
 40
30.926654
100
AcDbArc
 50
77.62585
 51
102.37415
  0
LINE
  5
2AB8
100
AcDbEntity
  8
0
100
AcDbLine
 10
465.878158
 20
412.2583
 30
0.0
 11
472.721795
 21
409.76742
 31
0.0
  0
ARC
  5
2AB9
100
AcDbEntity
  8
0
100
AcDbCircle
 10
435.517531
 20
406.024755
 30
0.0
 40
6.928203
100
AcDbArc
 50
330.0
 51
30.0
  0
LINE
  5
2ABA
100
AcDbEntity
  8
0
100
AcDbLine
 10
452.068318
 20
409.048965
 30
0.0
 11
452.068318
 21
398.74321
 31
0.0
  0
LINE
  5
2ABB
100
AcDbEntity
  8
0
100
AcDbLine
 10
433.195735
 20
403.274755
 30
0.0
 11
433.195735
 21
408.774755
 31
0.0
  0
LINE
  5
2ABC
100
AcDbEntity
  8
0
100
AcDbLine
 10
432.195735
 20
403.274755
 30
0.0
 11
432.195735
 21
408.774755
 31
0.0
  0
ARC
  5
2ABD
100
AcDbEntity
  8
0
100
AcDbCircle
 10
442.873938
 20
406.024755
 30
0.0
 40
6.928203
100
AcDbArc
 50
150.0
 51
210.0
  0
LINE
  5
2ABE
100
AcDbEntity
  8
0
100
AcDbLine
 10
424.695735
 20
404.274755
 30
0.0
 11
424.695735
 21
407.774755
 31
0.0
  0
LINE
  5
2ABF
100
AcDbEntity
  8
0
100
AcDbLine
 10
425.695735
 20
403.274755
 30
0.0
 11
425.695735
 21
408.774755
 31
0.0
  0
LINE
  5
2AC0
100
AcDbEntity
  8
0
100
AcDbLine
 10
435.695735
 20
411.774755
 30
0.0
 11
435.695735
 21
400.274755
 31
0.0
  0
LINE
  5
2AC1
100
AcDbEntity
  8
0
100
AcDbLine
 10
442.695735
 20
413.024755
 30
0.0
 11
442.695735
 21
379.267396
 31
0.0
  0
LINE
  5
2AC3
100
AcDbEntity
  8
0
100
AcDbLine
 10
452.068318
 20
386.723761
 30
0.0
 11
452.068318
 21
379.325749
 31
0.0
  0
LINE
  5
2AC4
100
AcDbEntity
  8
0
100
AcDbLine
 10
443.574414
 20
377.146075
 30
0.0
 11
449.609948
 21
371.110541
 31
0.0
  0
LINE
  5
2AC5
100
AcDbEntity
  8
0
100
AcDbLine
 10
450.195735
 20
368.524755
 30
0.0
 11
450.195735
 21
369.696328
 31
0.0
  0
ARC
  5
2AC6
100
AcDbEntity
  8
0
100
AcDbCircle
 10
448.195735
 20
369.696328
 30
0.0
 40
2.0
100
AcDbArc
 50
0.0
 51
45.0
  0
ARC
  5
2AC7
100
AcDbEntity
  8
0
100
AcDbCircle
 10
447.382026
 20
387.115462
 30
0.0
 40
9.090707
100
AcDbArc
 50
238.968883
 51
301.031117
  0
ARC
  5
2AC8
100
AcDbEntity
  8
0
100
AcDbCircle
 10
445.695735
 20
379.267396
 30
0.0
 40
3.0
100
AcDbArc
 50
180.0
 51
225.0
  0
LINE
  5
2AC9
100
AcDbEntity
  8
0
100
AcDbLine
 10
432.195735
 20
403.274755
 30
0.0
 11
425.695735
 21
403.274755
 31
0.0
  0
LINE
  5
2ACA
100
AcDbEntity
  8
0
100
AcDbLine
 10
424.695735
 20
404.274755
 30
0.0
 11
425.695735
 21
403.274755
 31
0.0
  0
ARC
  5
2ACB
100
AcDbEntity
  8
0
100
AcDbCircle
 10
447.382026
 20
378.934048
 30
0.0
 40
9.090707
100
AcDbArc
 50
58.968883
 51
121.031117
  0
LINE
  5
2ACC
100
AcDbEntity
  8
0
100
AcDbLine
 10
436.873938
 20
399.096552
 30
0.0
 11
441.517531
 21
399.096552
 31
0.0
  0
LINE
  5
2ACD
100
AcDbEntity
  8
0
100
AcDbLine
 10
436.873938
 20
402.560653
 30
0.0
 11
441.517531
 21
402.560653
 31
0.0
  0
ARC
  5
2ACE
100
AcDbEntity
  8
0
100
AcDbCircle
 10
438.025862
 20
400.828603
 30
0.0
 40
2.080127
100
AcDbArc
 50
123.626429
 51
213.626429
  0
LINE
  5
2ACF
100
AcDbEntity
  8
0
100
AcDbLine
 10
435.695735
 20
400.274755
 30
0.0
 11
436.873938
 21
399.096552
 31
0.0
  0
LINE
  5
2AD0
100
AcDbEntity
  8
0
100
AcDbLine
 10
435.695735
 20
403.274755
 30
0.0
 11
433.195735
 21
403.274755
 31
0.0
  0
LINE
  5
2AD1
100
AcDbEntity
  8
0
100
AcDbLine
 10
433.195735
 20
403.524755
 30
0.0
 11
432.195735
 21
403.524755
 31
0.0
  0
ARC
  5
2AD2
100
AcDbEntity
  8
0
100
AcDbCircle
 10
440.365607
 20
400.828603
 30
0.0
 40
2.080127
100
AcDbArc
 50
326.373571
 51
56.373571
  0
ARC
  5
2AD3
100
AcDbEntity
  8
0
100
AcDbCircle
 10
447.382026
 20
413.667696
 30
0.0
 40
15.642941
100
AcDbArc
 50
252.567701
 51
287.432299
  0
LINE
  5
2AD4
100
AcDbEntity
  8
0
100
AcDbLine
 10
442.695735
 20
400.274755
 30
0.0
 11
441.517531
 21
399.096552
 31
0.0
  0
LINE
  5
2AD5
100
AcDbEntity
  8
0
100
AcDbLine
 10
432.195735
 20
408.774755
 30
0.0
 11
425.695735
 21
408.774755
 31
0.0
  0
LINE
  5
2AD6
100
AcDbEntity
  8
0
100
AcDbLine
 10
425.695735
 20
408.774755
 30
0.0
 11
424.695735
 21
407.774755
 31
0.0
  0
LINE
  5
2AD7
100
AcDbEntity
  8
0
100
AcDbLine
 10
436.873938
 20
412.952958
 30
0.0
 11
441.517531
 21
412.952958
 31
0.0
  0
LINE
  5
2AD8
100
AcDbEntity
  8
0
100
AcDbLine
 10
436.873938
 20
409.488857
 30
0.0
 11
441.517531
 21
409.488857
 31
0.0
  0
ARC
  5
2AD9
100
AcDbEntity
  8
0
100
AcDbCircle
 10
438.025862
 20
411.220907
 30
0.0
 40
2.080127
100
AcDbArc
 50
146.373571
 51
236.373571
  0
LINE
  5
2ADA
100
AcDbEntity
  8
0
100
AcDbLine
 10
435.695735
 20
408.774755
 30
0.0
 11
433.195735
 21
408.774755
 31
0.0
  0
LINE
  5
2ADB
100
AcDbEntity
  8
0
100
AcDbLine
 10
433.195735
 20
408.524755
 30
0.0
 11
432.195735
 21
408.524755
 31
0.0
  0
LINE
  5
2ADC
100
AcDbEntity
  8
0
100
AcDbLine
 10
435.695735
 20
411.774755
 30
0.0
 11
436.873938
 21
412.952958
 31
0.0
  0
ARC
  5
2ADD
100
AcDbEntity
  8
0
100
AcDbCircle
 10
440.365607
 20
411.220907
 30
0.0
 40
2.080127
100
AcDbArc
 50
303.626429
 51
33.626429
  0
LINE
  5
2ADE
100
AcDbEntity
  8
0
100
AcDbLine
 10
451.513312
 20
412.2583
 30
0.0
 11
444.669674
 21
409.76742
 31
0.0
  0
ARC
  5
2ADF
100
AcDbEntity
  8
0
100
AcDbCircle
 10
447.382026
 20
394.124479
 30
0.0
 40
15.642941
100
AcDbArc
 50
72.567701
 51
107.432299
  0
LINE
  5
2AE0
100
AcDbEntity
  8
0
100
AcDbLine
 10
442.695735
 20
411.774755
 30
0.0
 11
441.517531
 21
412.952958
 31
0.0
  0
TEXT
  5
2AE1
100
AcDbEntity
  8
0
100
AcDbText
 10
455.791578
 20
346.339177
 30
0.0
 40
5.0
  1
8A
 41
0.8
100
AcDbText
  0
LINE
  5
2AE3
100
AcDbEntity
  8
0
100
AcDbLine
 10
474.695735
 20
461.647665
 30
0.0
 11
474.695735
 21
448.392831
 31
0.0
  0
LINE
  5
2AE4
100
AcDbEntity
  8
0
100
AcDbLine
 10
452.068318
 20
471.020248
 30
0.0
 11
465.323152
 21
471.020248
 31
0.0
  0
POLYLINE
  5
2AE5
100
AcDbEntity
  8
0
100
AcDb2dPolyline
 66
     1
 10
0.0
 20
0.0
 30
0.0
  0
VERTEX
  5
3BD3
100
AcDbEntity
  8
0
100
AcDbVertex
100
AcDb2dVertex
 10
442.695735
 20
448.392831
 30
0.0
 42
0.058922
  0
VERTEX
  5
3BD4
100
AcDbEntity
  8
0
100
AcDbVertex
100
AcDb2dVertex
 10
447.290357
 20
448.936162
 30
0.0
 42
0.072496
  0
VERTEX
  5
3BD5
100
AcDbEntity
  8
0
100
AcDbVertex
100
AcDb2dVertex
 10
450.788418
 20
450.333956
 30
0.0
 42
0.106647
  0
VERTEX
  5
3BD6
100
AcDbEntity
  8
0
100
AcDbVertex
100
AcDb2dVertex
 10
453.397246
 20
452.703569
 30
0.0
 42
0.156489
  0
VERTEX
  5
3BD7
100
AcDbEntity
  8
0
100
AcDbVertex
100
AcDb2dVertex
 10
454.140518
 20
455.020248
 30
0.0
 42
0.156489
  0
VERTEX
  5
3BD8
100
AcDbEntity
  8
0
100
AcDbVertex
100
AcDb2dVertex
 10
453.397246
 20
457.336927
 30
0.0
 42
0.106647
  0
VERTEX
  5
3BD9
100
AcDbEntity
  8
0
100
AcDbVertex
100
AcDb2dVertex
 10
450.788418
 20
459.706539
 30
0.0
 42
0.072496
  0
VERTEX
  5
3BDA
100
AcDbEntity
  8
0
100
AcDbVertex
100
AcDb2dVertex
 10
447.290357
 20
461.104333
 30
0.0
 42
0.058922
  0
VERTEX
  5
3BDB
100
AcDbEntity
  8
0
100
AcDbVertex
100
AcDb2dVertex
 10
442.695735
 20
461.647665
 30
0.0
 42
0.058922
  0
SEQEND
  5
3BDC
100
AcDbEntity
  8
0
  0
LINE
  5
2AE6
100
AcDbEntity
  8
0
100
AcDbLine
 10
452.068318
 20
439.020248
 30
0.0
 11
465.323152
 21
439.020248
 31
0.0
  0
LINE
  5
2AE7
100
AcDbEntity
  8
0
100
AcDbLine
 10
465.323152
 20
471.020248
 30
0.0
 11
474.695735
 21
461.647665
 31
0.0
  0
LINE
  5
2AE8
100
AcDbEntity
  8
0
100
AcDbLine
 10
465.323152
 20
439.020248
 30
0.0
 11
474.695735
 21
448.392831
 31
0.0
  0
LINE
  5
2AE9
100
AcDbEntity
  8
0
100
AcDbLine
 10
452.068318
 20
439.020248
 30
0.0
 11
442.695735
 21
448.392831
 31
0.0
  0
LINE
  5
2AEA
100
AcDbEntity
  8
0
100
AcDbLine
 10
442.695735
 20
461.647665
 30
0.0
 11
452.068318
 21
471.020248
 31
0.0
  0
LINE
  5
2AEB
100
AcDbEntity
  8
0
100
AcDbLine
 10
432.195735
 20
457.770248
 30
0.0
 11
425.695735
 21
457.770248
 31
0.0
  0
LINE
  5
2AEC
100
AcDbEntity
  8
0
100
AcDbLine
 10
432.195735
 20
452.270248
 30
0.0
 11
425.695735
 21
452.270248
 31
0.0
  0
LINE
  5
2AED
100
AcDbEntity
  8
0
100
AcDbLine
 10
424.695735
 20
453.270248
 30
0.0
 11
424.695735
 21
456.770248
 31
0.0
  0
LINE
  5
2AEE
100
AcDbEntity
  8
0
100
AcDbLine
 10
425.695735
 20
452.270248
 30
0.0
 11
425.695735
 21
457.770248
 31
0.0
  0
LINE
  5
2AEF
100
AcDbEntity
  8
0
100
AcDbLine
 10
424.695735
 20
453.270248
 30
0.0
 11
425.695735
 21
452.270248
 31
0.0
  0
LINE
  5
2AF0
100
AcDbEntity
  8
0
100
AcDbLine
 10
425.695735
 20
457.770248
 30
0.0
 11
424.695735
 21
456.770248
 31
0.0
  0
ARC
  5
2AF1
100
AcDbEntity
  8
0
100
AcDbCircle
 10
437.133557
 20
458.020248
 30
0.0
 40
5.312178
100
AcDbArc
 50
325.615753
 51
34.384247
  0
ARC
  5
2AF2
100
AcDbEntity
  8
0
100
AcDbCircle
 10
441.257912
 20
458.020248
 30
0.0
 40
5.312178
100
AcDbArc
 50
145.615753
 51
214.384247
  0
LINE
  5
2AF3
100
AcDbEntity
  8
0
100
AcDbLine
 10
442.695735
 20
461.647665
 30
0.0
 11
442.695735
 21
448.392831
 31
0.0
  0
LINE
  5
2AF4
100
AcDbEntity
  8
0
100
AcDbLine
 10
435.695735
 20
450.198451
 30
0.0
 11
435.695735
 21
459.842045
 31
0.0
  0
LINE
  5
2AF5
100
AcDbEntity
  8
0
100
AcDbLine
 10
432.195735
 20
452.270248
 30
0.0
 11
432.195735
 21
457.770248
 31
0.0
  0
LINE
  5
2AF6
100
AcDbEntity
  8
0
100
AcDbLine
 10
433.195735
 20
452.270248
 30
0.0
 11
433.195735
 21
457.770248
 31
0.0
  0
LINE
  5
2AF7
100
AcDbEntity
  8
0
100
AcDbLine
 10
441.517531
 20
455.020248
 30
0.0
 11
436.873938
 21
455.020248
 31
0.0
  0
LINE
  5
2AF8
100
AcDbEntity
  8
0
100
AcDbLine
 10
441.517531
 20
449.020248
 30
0.0
 11
436.873938
 21
449.020248
 31
0.0
  0
ARC
  5
2AF9
100
AcDbEntity
  8
0
100
AcDbCircle
 10
441.257912
 20
452.020248
 30
0.0
 40
5.312178
100
AcDbArc
 50
145.615753
 51
214.384247
  0
LINE
  5
2AFA
100
AcDbEntity
  8
0
100
AcDbLine
 10
435.695735
 20
450.198451
 30
0.0
 11
436.873938
 21
449.020248
 31
0.0
  0
LINE
  5
2AFB
100
AcDbEntity
  8
0
100
AcDbLine
 10
435.695735
 20
452.270248
 30
0.0
 11
433.195735
 21
452.270248
 31
0.0
  0
LINE
  5
2AFC
100
AcDbEntity
  8
0
100
AcDbLine
 10
433.195735
 20
452.520248
 30
0.0
 11
432.195735
 21
452.520248
 31
0.0
  0
ARC
  5
2AFD
100
AcDbEntity
  8
0
100
AcDbCircle
 10
437.133557
 20
452.020248
 30
0.0
 40
5.312178
100
AcDbArc
 50
325.615753
 51
34.384247
  0
LINE
  5
2AFE
100
AcDbEntity
  8
0
100
AcDbLine
 10
442.695735
 20
450.198451
 30
0.0
 11
441.517531
 21
449.020248
 31
0.0
  0
LINE
  5
2AFF
100
AcDbEntity
  8
0
100
AcDbLine
 10
441.517531
 20
461.020248
 30
0.0
 11
436.873938
 21
461.020248
 31
0.0
  0
LINE
  5
2B00
100
AcDbEntity
  8
0
100
AcDbLine
 10
435.695735
 20
457.770248
 30
0.0
 11
433.195735
 21
457.770248
 31
0.0
  0
LINE
  5
2B01
100
AcDbEntity
  8
0
100
AcDbLine
 10
433.195735
 20
457.520248
 30
0.0
 11
432.195735
 21
457.520248
 31
0.0
  0
LINE
  5
2B02
100
AcDbEntity
  8
0
100
AcDbLine
 10
435.695735
 20
459.842045
 30
0.0
 11
436.873938
 21
461.020248
 31
0.0
  0
LINE
  5
2B03
100
AcDbEntity
  8
0
100
AcDbLine
 10
442.695735
 20
459.842045
 30
0.0
 11
441.517531
 21
461.020248
 31
0.0
  0
LINE
  5
2B04
100
AcDbEntity
  8
0
100
AcDbLine
 10
474.695735
 20
546.649353
 30
0.0
 11
475.873938
 21
547.827556
 31
0.0
  0
ARC
  5
2B05
100
AcDbEntity
  8
0
100
AcDbCircle
 10
470.009443
 20
528.999076
 30
0.0
 40
15.642941
100
AcDbArc
 50
72.567701
 51
107.432299
  0
LINE
  5
2B06
100
AcDbEntity
  8
0
100
AcDbLine
 10
465.878158
 20
547.132898
 30
0.0
 11
472.721795
 21
544.642017
 31
0.0
  0
ARC
  5
2B07
100
AcDbEntity
  8
0
100
AcDbCircle
 10
477.025862
 20
546.095505
 30
0.0
 40
2.080127
100
AcDbArc
 50
146.373571
 51
236.373571
  0
LINE
  5
2B08
100
AcDbEntity
  8
0
100
AcDbLine
 10
481.695735
 20
546.649353
 30
0.0
 11
480.517531
 21
547.827556
 31
0.0
  0
LINE
  5
2B09
100
AcDbEntity
  8
0
100
AcDbLine
 10
484.195735
 20
543.399353
 30
0.0
 11
485.195735
 21
543.399353
 31
0.0
  0
LINE
  5
2B0A
100
AcDbEntity
  8
0
100
AcDbLine
 10
481.695735
 20
543.649353
 30
0.0
 11
484.195735
 21
543.649353
 31
0.0
  0
ARC
  5
2B0B
100
AcDbEntity
  8
0
100
AcDbCircle
 10
479.365607
 20
546.095505
 30
0.0
 40
2.080127
100
AcDbArc
 50
303.626429
 51
33.626429
  0
LINE
  5
2B0C
100
AcDbEntity
  8
0
100
AcDbLine
 10
480.517531
 20
544.363454
 30
0.0
 11
475.873938
 21
544.363454
 31
0.0
  0
LINE
  5
2B0D
100
AcDbEntity
  8
0
100
AcDbLine
 10
480.517531
 20
547.827556
 30
0.0
 11
475.873938
 21
547.827556
 31
0.0
  0
LINE
  5
2B0E
100
AcDbEntity
  8
0
100
AcDbLine
 10
491.695735
 20
543.649353
 30
0.0
 11
492.695735
 21
542.649353
 31
0.0
  0
LINE
  5
2B0F
100
AcDbEntity
  8
0
100
AcDbLine
 10
485.195735
 20
543.649353
 30
0.0
 11
491.695735
 21
543.649353
 31
0.0
  0
LINE
  5
2B10
100
AcDbEntity
  8
0
100
AcDbLine
 10
474.695735
 20
535.149353
 30
0.0
 11
475.873938
 21
533.971149
 31
0.0
  0
ARC
  5
2B11
100
AcDbEntity
  8
0
100
AcDbCircle
 10
470.009443
 20
548.542293
 30
0.0
 40
15.642941
100
AcDbArc
 50
252.567701
 51
287.432299
  0
ARC
  5
2B12
100
AcDbEntity
  8
0
100
AcDbCircle
 10
477.025862
 20
535.7032
 30
0.0
 40
2.080127
100
AcDbArc
 50
123.626429
 51
213.626429
  0
LINE
  5
2B13
100
AcDbEntity
  8
0
100
AcDbLine
 10
484.195735
 20
538.399353
 30
0.0
 11
485.195735
 21
538.399353
 31
0.0
  0
LINE
  5
2B14
100
AcDbEntity
  8
0
100
AcDbLine
 10
481.695735
 20
538.149353
 30
0.0
 11
484.195735
 21
538.149353
 31
0.0
  0
LINE
  5
2B15
100
AcDbEntity
  8
0
100
AcDbLine
 10
481.695735
 20
535.149353
 30
0.0
 11
480.517531
 21
533.971149
 31
0.0
  0
ARC
  5
2B16
100
AcDbEntity
  8
0
100
AcDbCircle
 10
479.365607
 20
535.7032
 30
0.0
 40
2.080127
100
AcDbArc
 50
326.373571
 51
56.373571
  0
LINE
  5
2B17
100
AcDbEntity
  8
0
100
AcDbLine
 10
480.517531
 20
537.435251
 30
0.0
 11
475.873938
 21
537.435251
 31
0.0
  0
LINE
  5
2B18
100
AcDbEntity
  8
0
100
AcDbLine
 10
480.517531
 20
533.971149
 30
0.0
 11
475.873938
 21
533.971149
 31
0.0
  0
ARC
  5
2B19
100
AcDbEntity
  8
0
100
AcDbCircle
 10
470.009443
 20
513.808646
 30
0.0
 40
9.090707
100
AcDbArc
 50
58.968883
 51
121.031117
  0
LINE
  5
2B1A
100
AcDbEntity
  8
0
100
AcDbLine
 10
492.695735
 20
539.149353
 30
0.0
 11
491.695735
 21
538.149353
 31
0.0
  0
LINE
  5
2B1B
100
AcDbEntity
  8
0
100
AcDbLine
 10
485.195735
 20
538.149353
 30
0.0
 11
491.695735
 21
538.149353
 31
0.0
  0
ARC
  5
2B1C
100
AcDbEntity
  8
0
100
AcDbCircle
 10
471.695735
 20
514.141993
 30
0.0
 40
3.0
100
AcDbArc
 50
315.0
 51
0.0
  0
ARC
  5
2B1D
100
AcDbEntity
  8
0
100
AcDbCircle
 10
470.009443
 20
521.990059
 30
0.0
 40
9.090707
100
AcDbArc
 50
238.968883
 51
301.031117
  0
ARC
  5
2B1E
100
AcDbEntity
  8
0
100
AcDbCircle
 10
469.195735
 20
504.570925
 30
0.0
 40
2.0
100
AcDbArc
 50
135.0
 51
180.0
  0
LINE
  5
2B1F
100
AcDbEntity
  8
0
100
AcDbLine
 10
467.195735
 20
503.399353
 30
0.0
 11
467.195735
 21
504.570925
 31
0.0
  0
LINE
  5
2B20
100
AcDbEntity
  8
0
100
AcDbLine
 10
473.817055
 20
512.020673
 30
0.0
 11
467.781521
 21
505.985139
 31
0.0
  0
LINE
  5
2B21
100
AcDbEntity
  8
0
100
AcDbLine
 10
465.323152
 20
521.598358
 30
0.0
 11
465.323152
 21
514.200347
 31
0.0
  0
LINE
  5
2B22
100
AcDbEntity
  8
0
100
AcDbLine
 10
465.751985
 20
503.399353
 30
0.0
 11
465.283235
 21
495.899353
 31
0.0
  0
LINE
  5
2B23
100
AcDbEntity
  8
0
100
AcDbLine
 10
474.695735
 20
547.899353
 30
0.0
 11
474.695735
 21
514.141993
 31
0.0
  0
LINE
  5
2B24
100
AcDbEntity
  8
0
100
AcDbLine
 10
481.695735
 20
546.649353
 30
0.0
 11
481.695735
 21
535.149353
 31
0.0
  0
LINE
  5
2B25
100
AcDbEntity
  8
0
100
AcDbLine
 10
491.695735
 20
538.149353
 30
0.0
 11
491.695735
 21
543.649353
 31
0.0
  0
LINE
  5
2B26
100
AcDbEntity
  8
0
100
AcDbLine
 10
492.695735
 20
539.149353
 30
0.0
 11
492.695735
 21
542.649353
 31
0.0
  0
ARC
  5
2B27
100
AcDbEntity
  8
0
100
AcDbCircle
 10
474.517531
 20
540.899353
 30
0.0
 40
6.928203
100
AcDbArc
 50
330.0
 51
30.0
  0
LINE
  5
2B28
100
AcDbEntity
  8
0
100
AcDbLine
 10
485.195735
 20
538.149353
 30
0.0
 11
485.195735
 21
543.649353
 31
0.0
  0
LINE
  5
2B29
100
AcDbEntity
  8
0
100
AcDbLine
 10
484.195735
 20
538.149353
 30
0.0
 11
484.195735
 21
543.649353
 31
0.0
  0
LINE
  5
2B2A
100
AcDbEntity
  8
0
100
AcDbLine
 10
465.323152
 20
543.923562
 30
0.0
 11
465.323152
 21
533.617808
 31
0.0
  0
ARC
  5
2B2B
100
AcDbEntity
  8
0
100
AcDbCircle
 10
481.873938
 20
540.899353
 30
0.0
 40
6.928203
100
AcDbArc
 50
150.0
 51
210.0
  0
LINE
  5
2B2C
100
AcDbEntity
  8
0
100
AcDbLine
 10
451.513312
 20
547.132898
 30
0.0
 11
444.669674
 21
544.642017
 31
0.0
  0
ARC
  5
2B2D
100
AcDbEntity
  8
0
100
AcDbCircle
 10
458.695735
 20
513.715363
 30
0.0
 40
30.926654
100
AcDbArc
 50
77.62585
 51
102.37415
  0
ARC
  5
2B2E
100
AcDbEntity
  8
0
100
AcDbCircle
 10
458.695735
 20
505.368436
 30
0.0
 40
17.530917
100
AcDbArc
 50
67.787568
 51
112.212432
  0
ARC
  5
2B2F
100
AcDbEntity
  8
0
100
AcDbCircle
 10
458.695735
 20
530.430269
 30
0.0
 40
17.530917
100
AcDbArc
 50
247.787568
 51
292.212432
  0
LINE
  5
2B30
100
AcDbEntity
  8
0
100
AcDbLine
 10
474.426274
 20
512.899353
 30
0.0
 11
442.965195
 21
512.899353
 31
0.0
  0
LINE
  5
2B31
100
AcDbEntity
  8
0
100
AcDbLine
 10
474.695735
 20
522.899353
 30
0.0
 11
442.695735
 21
522.899353
 31
0.0
  0
ARC
  5
2B32
100
AcDbEntity
  8
0
100
AcDbCircle
 10
458.695735
 20
563.826007
 30
0.0
 40
30.926654
100
AcDbArc
 50
257.62585
 51
282.37415
  0
LINE
  5
2B33
100
AcDbEntity
  8
0
100
AcDbLine
 10
474.695735
 20
532.899353
 30
0.0
 11
442.695735
 21
532.899353
 31
0.0
  0
LINE
  5
2B34
100
AcDbEntity
  8
0
100
AcDbLine
 10
474.695735
 20
532.899353
 30
0.0
 11
442.695735
 21
532.899353
 31
0.0
  0
LINE
  5
2B35
100
AcDbEntity
  8
0
100
AcDbLine
 10
442.695735
 20
541.822939
 30
0.0
 11
442.695735
 21
514.141993
 31
0.0
  0
LINE
  5
2B36
100
AcDbEntity
  8
0
100
AcDbLine
 10
452.068318
 20
521.598358
 30
0.0
 11
452.068318
 21
514.200347
 31
0.0
  0
ARC
  5
2B37
100
AcDbEntity
  8
0
100
AcDbCircle
 10
447.382026
 20
521.990059
 30
0.0
 40
9.090707
100
AcDbArc
 50
238.968883
 51
301.031117
  0
ARC
  5
2B38
100
AcDbEntity
  8
0
100
AcDbCircle
 10
445.695735
 20
514.141993
 30
0.0
 40
3.0
100
AcDbArc
 50
180.0
 51
225.0
  0
ARC
  5
2B39
100
AcDbEntity
  8
0
100
AcDbCircle
 10
447.382026
 20
513.808646
 30
0.0
 40
9.090707
100
AcDbArc
 50
58.968883
 51
121.031117
  0
LINE
  5
2B3A
100
AcDbEntity
  8
0
100
AcDbLine
 10
452.068318
 20
543.923562
 30
0.0
 11
452.068318
 21
533.617808
 31
0.0
  0
ARC
  5
2B3B
100
AcDbEntity
  8
0
100
AcDbCircle
 10
447.382026
 20
548.542293
 30
0.0
 40
15.642941
100
AcDbArc
 50
252.567701
 51
287.432299
  0
ARC
  5
2B3C
100
AcDbEntity
  8
0
100
AcDbCircle
 10
445.695735
 20
541.822939
 30
0.0
 40
3.0
100
AcDbArc
 50
110.0
 51
180.0
  0
ARC
  5
2B3D
100
AcDbEntity
  8
0
100
AcDbCircle
 10
447.382026
 20
528.999076
 30
0.0
 40
15.642941
100
AcDbArc
 50
72.567701
 51
102.68749
  0
ARC
  5
2B3E
100
AcDbEntity
  8
0
100
AcDbCircle
 10
458.695735
 20
527.399353
 30
0.0
 40
21.0
100
AcDbArc
 50
70.0
 51
110.0
  0
LINE
  5
2B3F
100
AcDbEntity
  8
0
100
AcDbLine
 10
474.695735
 20
547.899353
 30
0.0
 11
463.250951
 21
547.899353
 31
0.0
  0
LINE
  5
2B40
100
AcDbEntity
  8
0
100
AcDbLine
 10
465.283235
 20
495.899353
 30
0.0
 11
458.695735
 21
495.899353
 31
0.0
  0
LINE
  5
2B41
100
AcDbEntity
  8
0
100
AcDbLine
 10
458.695735
 20
495.899353
 30
0.0
 11
452.108235
 21
495.899353
 31
0.0
  0
LINE
  5
2B42
100
AcDbEntity
  8
0
100
AcDbLine
 10
451.639485
 20
503.399353
 30
0.0
 11
452.108235
 21
495.899353
 31
0.0
  0
LINE
  5
2B43
100
AcDbEntity
  8
0
100
AcDbLine
 10
467.195735
 20
503.399353
 30
0.0
 11
450.195735
 21
503.399353
 31
0.0
  0
LINE
  5
2B44
100
AcDbEntity
  8
0
100
AcDbLine
 10
467.195735
 20
505.399353
 30
0.0
 11
450.195735
 21
505.399353
 31
0.0
  0
LINE
  5
2B45
100
AcDbEntity
  8
0
100
AcDbLine
 10
443.574414
 20
512.020673
 30
0.0
 11
449.609948
 21
505.985139
 31
0.0
  0
LINE
  5
2B46
100
AcDbEntity
  8
0
100
AcDbLine
 10
450.195735
 20
503.399353
 30
0.0
 11
450.195735
 21
504.570925
 31
0.0
  0
ARC
  5
2B47
100
AcDbEntity
  8
0
100
AcDbCircle
 10
448.195735
 20
504.570925
 30
0.0
 40
2.0
100
AcDbArc
 50
0.0
 51
45.0
  0
ARC
  5
2B49
100
AcDbEntity
  8
0
100
AcDbCircle
 10
763.812557
 20
546.095505
 30
0.0
 40
2.080127
100
AcDbArc
 50
146.373571
 51
236.373571
  0
ARC
  5
2B4A
100
AcDbEntity
  8
0
100
AcDbCircle
 10
766.152303
 20
546.095505
 30
0.0
 40
2.080127
100
AcDbArc
 50
303.626429
 51
33.626429
  0
LINE
  5
2B4B
100
AcDbEntity
  8
0
100
AcDbLine
 10
752.664853
 20
547.132898
 30
0.0
 11
759.50849
 21
544.642017
 31
0.0
  0
LINE
  5
2B4C
100
AcDbEntity
  8
0
100
AcDbLine
 10
738.300007
 20
547.132898
 30
0.0
 11
731.456369
 21
544.642017
 31
0.0
  0
LINE
  5
2B4D
100
AcDbEntity
  8
0
100
AcDbLine
 10
761.48243
 20
547.899353
 30
0.0
 11
761.48243
 21
514.141993
 31
0.0
  0
LINE
  5
2B4E
100
AcDbEntity
  8
0
100
AcDbLine
 10
768.48243
 20
546.649353
 30
0.0
 11
768.48243
 21
535.149353
 31
0.0
  0
LINE
  5
2B4F
100
AcDbEntity
  8
0
100
AcDbLine
 10
755.48243
 20
505.399353
 30
0.0
 11
755.48243
 21
506.485139
 31
0.0
  0
LINE
  5
2B50
100
AcDbEntity
  8
0
100
AcDbLine
 10
735.48243
 20
505.399353
 30
0.0
 11
735.48243
 21
506.485139
 31
0.0
  0
LINE
  5
2B51
100
AcDbEntity
  8
0
100
AcDbLine
 10
755.48243
 20
505.399353
 30
0.0
 11
735.48243
 21
505.399353
 31
0.0
  0
LINE
  5
2B52
100
AcDbEntity
  8
0
100
AcDbLine
 10
753.81343
 20
505.399353
 30
0.0
 11
753.21968
 21
495.899353
 31
0.0
  0
LINE
  5
2B53
100
AcDbEntity
  8
0
100
AcDbLine
 10
737.15143
 20
505.399353
 30
0.0
 11
737.74518
 21
495.899353
 31
0.0
  0
LINE
  5
2B54
100
AcDbEntity
  8
0
100
AcDbLine
 10
745.48243
 20
495.899353
 30
0.0
 11
737.74518
 21
495.899353
 31
0.0
  0
LINE
  5
2B55
100
AcDbEntity
  8
0
100
AcDbLine
 10
753.21968
 20
495.899353
 30
0.0
 11
745.48243
 21
495.899353
 31
0.0
  0
ARC
  5
2B56
100
AcDbEntity
  8
0
100
AcDbCircle
 10
756.796138
 20
548.542293
 30
0.0
 40
15.642941
100
AcDbArc
 50
252.567701
 51
287.432299
  0
LINE
  5
2B57
100
AcDbEntity
  8
0
100
AcDbLine
 10
755.48243
 20
506.899353
 30
0.0
 11
735.48243
 21
506.899353
 31
0.0
  0
ARC
  5
2B58
100
AcDbEntity
  8
0
100
AcDbCircle
 10
756.796138
 20
521.990059
 30
0.0
 40
9.090707
100
AcDbArc
 50
238.968883
 51
301.031117
  0
ARC
  5
2B59
100
AcDbEntity
  8
0
100
AcDbCircle
 10
756.796138
 20
513.808646
 30
0.0
 40
9.090707
100
AcDbArc
 50
58.968883
 51
121.031117
  0
LINE
  5
2B5A
100
AcDbEntity
  8
0
100
AcDbLine
 10
761.212969
 20
512.899353
 30
0.0
 11
729.751891
 21
512.899353
 31
0.0
  0
LINE
  5
2B5B
100
AcDbEntity
  8
0
100
AcDbLine
 10
761.48243
 20
522.899353
 30
0.0
 11
729.48243
 21
522.899353
 31
0.0
  0
LINE
  5
2B5C
100
AcDbEntity
  8
0
100
AcDbLine
 10
761.48243
 20
532.899353
 30
0.0
 11
729.48243
 21
532.899353
 31
0.0
  0
LINE
  5
2B5D
100
AcDbEntity
  8
0
100
AcDbLine
 10
761.48243
 20
532.899353
 30
0.0
 11
729.48243
 21
532.899353
 31
0.0
  0
ARC
  5
2B5E
100
AcDbEntity
  8
0
100
AcDbCircle
 10
756.796138
 20
528.999076
 30
0.0
 40
15.642941
100
AcDbArc
 50
72.567701
 51
107.432299
  0
LINE
  5
2B5F
100
AcDbEntity
  8
0
100
AcDbLine
 10
729.48243
 20
541.822939
 30
0.0
 11
729.48243
 21
514.141993
 31
0.0
  0
ARC
  5
2B60
100
AcDbEntity
  8
0
100
AcDbCircle
 10
732.48243
 20
514.141993
 30
0.0
 40
3.0
100
AcDbArc
 50
180.0
 51
225.0
  0
ARC
  5
2B61
100
AcDbEntity
  8
0
100
AcDbCircle
 10
734.168721
 20
521.990059
 30
0.0
 40
9.090707
100
AcDbArc
 50
238.968883
 51
301.031117
  0
ARC
  5
2B62
100
AcDbEntity
  8
0
100
AcDbCircle
 10
734.168721
 20
513.808646
 30
0.0
 40
9.090707
100
AcDbArc
 50
58.968883
 51
121.031117
  0
LINE
  5
2B63
100
AcDbEntity
  8
0
100
AcDbLine
 10
752.109847
 20
521.598358
 30
0.0
 11
752.109847
 21
514.200347
 31
0.0
  0
LINE
  5
2B64
100
AcDbEntity
  8
0
100
AcDbLine
 10
738.855013
 20
521.598358
 30
0.0
 11
738.855013
 21
514.200347
 31
0.0
  0
ARC
  5
2B65
100
AcDbEntity
  8
0
100
AcDbCircle
 10
745.48243
 20
530.430269
 30
0.0
 40
17.530917
100
AcDbArc
 50
247.787568
 51
292.212432
  0
LINE
  5
2B66
100
AcDbEntity
  8
0
100
AcDbLine
 10
730.361109
 20
512.020673
 30
0.0
 11
735.189537
 21
507.192246
 31
0.0
  0
ARC
  5
2B67
100
AcDbEntity
  8
0
100
AcDbCircle
 10
734.48243
 20
506.485139
 30
0.0
 40
1.0
100
AcDbArc
 50
0.0
 51
45.0
  0
ARC
  5
2B68
100
AcDbEntity
  8
0
100
AcDbCircle
 10
745.48243
 20
505.368436
 30
0.0
 40
17.530917
100
AcDbArc
 50
67.787568
 51
112.212432
  0
ARC
  5
2B69
100
AcDbEntity
  8
0
100
AcDbCircle
 10
734.168721
 20
548.542293
 30
0.0
 40
15.642941
100
AcDbArc
 50
252.567701
 51
287.432299
  0
ARC
  5
2B6A
100
AcDbEntity
  8
0
100
AcDbCircle
 10
732.48243
 20
541.822939
 30
0.0
 40
3.0
100
AcDbArc
 50
110.0
 51
180.0
  0
LINE
  5
2B6B
100
AcDbEntity
  8
0
100
AcDbLine
 10
752.109847
 20
543.923562
 30
0.0
 11
752.109847
 21
533.617808
 31
0.0
  0
LINE
  5
2B6C
100
AcDbEntity
  8
0
100
AcDbLine
 10
738.855013
 20
543.923562
 30
0.0
 11
738.855013
 21
533.617808
 31
0.0
  0
ARC
  5
2B6D
100
AcDbEntity
  8
0
100
AcDbCircle
 10
745.48243
 20
563.826007
 30
0.0
 40
30.926654
100
AcDbArc
 50
257.62585
 51
282.37415
  0
ARC
  5
2B6E
100
AcDbEntity
  8
0
100
AcDbCircle
 10
745.48243
 20
513.715363
 30
0.0
 40
30.926654
100
AcDbArc
 50
77.62585
 51
102.37415
  0
ARC
  5
2B6F
100
AcDbEntity
  8
0
100
AcDbCircle
 10
734.168721
 20
528.999076
 30
0.0
 40
15.642941
100
AcDbArc
 50
72.567701
 51
102.68749
  0
LINE
  5
2B70
100
AcDbEntity
  8
0
100
AcDbLine
 10
760.60375
 20
512.020673
 30
0.0
 11
755.775323
 21
507.192246
 31
0.0
  0
ARC
  5
2B71
100
AcDbEntity
  8
0
100
AcDbCircle
 10
756.48243
 20
506.485139
 30
0.0
 40
1.0
100
AcDbArc
 50
135.0
 51
180.0
  0
ARC
  5
2B72
100
AcDbEntity
  8
0
100
AcDbCircle
 10
758.48243
 20
514.141993
 30
0.0
 40
3.0
100
AcDbArc
 50
315.0
 51
0.0
  0
LINE
  5
2B73
100
AcDbEntity
  8
0
100
AcDbLine
 10
771.98243
 20
543.649353
 30
0.0
 11
778.48243
 21
543.649353
 31
0.0
  0
LINE
  5
2B74
100
AcDbEntity
  8
0
100
AcDbLine
 10
771.98243
 20
538.149353
 30
0.0
 11
778.48243
 21
538.149353
 31
0.0
  0
ARC
  5
2B75
100
AcDbEntity
  8
0
100
AcDbCircle
 10
763.812557
 20
535.7032
 30
0.0
 40
2.080127
100
AcDbArc
 50
123.626429
 51
213.626429
  0
ARC
  5
2B76
100
AcDbEntity
  8
0
100
AcDbCircle
 10
766.152303
 20
535.7032
 30
0.0
 40
2.080127
100
AcDbArc
 50
326.373571
 51
56.373571
  0
LINE
  5
2B77
100
AcDbEntity
  8
0
100
AcDbLine
 10
767.304227
 20
533.971149
 30
0.0
 11
762.660633
 21
533.971149
 31
0.0
  0
LINE
  5
2B78
100
AcDbEntity
  8
0
100
AcDbLine
 10
761.48243
 20
535.149353
 30
0.0
 11
762.660633
 21
533.971149
 31
0.0
  0
LINE
  5
2B79
100
AcDbEntity
  8
0
100
AcDbLine
 10
768.48243
 20
535.149353
 30
0.0
 11
767.304227
 21
533.971149
 31
0.0
  0
LINE
  5
2B7A
100
AcDbEntity
  8
0
100
AcDbLine
 10
767.304227
 20
544.363454
 30
0.0
 11
762.660633
 21
544.363454
 31
0.0
  0
LINE
  5
2B7B
100
AcDbEntity
  8
0
100
AcDbLine
 10
767.304227
 20
537.435251
 30
0.0
 11
762.660633
 21
537.435251
 31
0.0
  0
ARC
  5
2B7C
100
AcDbEntity
  8
0
100
AcDbCircle
 10
768.660633
 20
540.899353
 30
0.0
 40
6.928203
100
AcDbArc
 50
150.0
 51
210.0
  0
LINE
  5
2B7D
100
AcDbEntity
  8
0
100
AcDbLine
 10
771.98243
 20
538.149353
 30
0.0
 11
771.98243
 21
543.649353
 31
0.0
  0
LINE
  5
2B7E
100
AcDbEntity
  8
0
100
AcDbLine
 10
770.98243
 20
538.149353
 30
0.0
 11
770.98243
 21
543.649353
 31
0.0
  0
ARC
  5
2B7F
100
AcDbEntity
  8
0
100
AcDbCircle
 10
761.304227
 20
540.899353
 30
0.0
 40
6.928203
100
AcDbArc
 50
330.0
 51
30.0
  0
LINE
  5
2B80
100
AcDbEntity
  8
0
100
AcDbLine
 10
770.98243
 20
538.399353
 30
0.0
 11
771.98243
 21
538.399353
 31
0.0
  0
LINE
  5
2B81
100
AcDbEntity
  8
0
100
AcDbLine
 10
768.48243
 20
538.149353
 30
0.0
 11
770.98243
 21
538.149353
 31
0.0
  0
LINE
  5
2B82
100
AcDbEntity
  8
0
100
AcDbLine
 10
770.98243
 20
543.399353
 30
0.0
 11
771.98243
 21
543.399353
 31
0.0
  0
LINE
  5
2B83
100
AcDbEntity
  8
0
100
AcDbLine
 10
768.48243
 20
543.649353
 30
0.0
 11
770.98243
 21
543.649353
 31
0.0
  0
LINE
  5
2B84
100
AcDbEntity
  8
0
100
AcDbLine
 10
779.48243
 20
539.149353
 30
0.0
 11
779.48243
 21
542.649353
 31
0.0
  0
LINE
  5
2B85
100
AcDbEntity
  8
0
100
AcDbLine
 10
778.48243
 20
538.149353
 30
0.0
 11
778.48243
 21
543.649353
 31
0.0
  0
LINE
  5
2B86
100
AcDbEntity
  8
0
100
AcDbLine
 10
779.48243
 20
539.149353
 30
0.0
 11
778.48243
 21
538.149353
 31
0.0
  0
LINE
  5
2B87
100
AcDbEntity
  8
0
100
AcDbLine
 10
778.48243
 20
543.649353
 30
0.0
 11
779.48243
 21
542.649353
 31
0.0
  0
ARC
  5
2B88
100
AcDbEntity
  8
0
100
AcDbCircle
 10
745.48243
 20
527.399353
 30
0.0
 40
21.0
100
AcDbArc
 50
70.0
 51
110.0
  0
LINE
  5
2B89
100
AcDbEntity
  8
0
100
AcDbLine
 10
761.48243
 20
547.899353
 30
0.0
 11
750.037647
 21
547.899353
 31
0.0
  0
LINE
  5
2B8A
100
AcDbEntity
  8
0
100
AcDbLine
 10
767.304227
 20
547.827556
 30
0.0
 11
762.660633
 21
547.827556
 31
0.0
  0
LINE
  5
2B8B
100
AcDbEntity
  8
0
100
AcDbLine
 10
761.48243
 20
546.649353
 30
0.0
 11
762.660633
 21
547.827556
 31
0.0
  0
LINE
  5
2B8C
100
AcDbEntity
  8
0
100
AcDbLine
 10
768.48243
 20
546.649353
 30
0.0
 11
767.304227
 21
547.827556
 31
0.0
  0
LINE
  5
2B8E
100
AcDbEntity
  8
0
100
AcDbLine
 10
752.109847
 20
471.020248
 30
0.0
 11
761.48243
 21
461.647665
 31
0.0
  0
LINE
  5
2B8F
100
AcDbEntity
  8
0
100
AcDbLine
 10
752.109847
 20
439.020248
 30
0.0
 11
761.48243
 21
448.392831
 31
0.0
  0
LINE
  5
2B90
100
AcDbEntity
  8
0
100
AcDbLine
 10
738.855013
 20
439.020248
 30
0.0
 11
729.48243
 21
448.392831
 31
0.0
  0
LINE
  5
2B91
100
AcDbEntity
  8
0
100
AcDbLine
 10
738.855013
 20
439.020248
 30
0.0
 11
752.109847
 21
439.020248
 31
0.0
  0
LINE
  5
2B92
100
AcDbEntity
  8
0
100
AcDbLine
 10
729.48243
 20
461.647665
 30
0.0
 11
738.855013
 21
471.020248
 31
0.0
  0
POLYLINE
  5
2B93
100
AcDbEntity
  8
0
100
AcDb2dPolyline
 66
     1
 10
0.0
 20
0.0
 30
0.0
  0
VERTEX
  5
3BDD
100
AcDbEntity
  8
0
100
AcDbVertex
100
AcDb2dVertex
 10
729.48243
 20
448.392831
 30
0.0
 42
0.058922
  0
VERTEX
  5
3BDE
100
AcDbEntity
  8
0
100
AcDbVertex
100
AcDb2dVertex
 10
734.077052
 20
448.936162
 30
0.0
 42
0.072496
  0
VERTEX
  5
3BDF
100
AcDbEntity
  8
0
100
AcDbVertex
100
AcDb2dVertex
 10
737.575114
 20
450.333956
 30
0.0
 42
0.106647
  0
VERTEX
  5
3BE0
100
AcDbEntity
  8
0
100
AcDbVertex
100
AcDb2dVertex
 10
740.183942
 20
452.703569
 30
0.0
 42
0.156489
  0
VERTEX
  5
3BE1
100
AcDbEntity
  8
0
100
AcDbVertex
100
AcDb2dVertex
 10
740.927213
 20
455.020248
 30
0.0
 42
0.156489
  0
VERTEX
  5
3BE2
100
AcDbEntity
  8
0
100
AcDbVertex
100
AcDb2dVertex
 10
740.183942
 20
457.336927
 30
0.0
 42
0.106647
  0
VERTEX
  5
3BE3
100
AcDbEntity
  8
0
100
AcDbVertex
100
AcDb2dVertex
 10
737.575114
 20
459.706539
 30
0.0
 42
0.072496
  0
VERTEX
  5
3BE4
100
AcDbEntity
  8
0
100
AcDbVertex
100
AcDb2dVertex
 10
734.077052
 20
461.104333
 30
0.0
 42
0.058922
  0
VERTEX
  5
3BE5
100
AcDbEntity
  8
0
100
AcDbVertex
100
AcDb2dVertex
 10
729.48243
 20
461.647665
 30
0.0
 42
0.058922
  0
SEQEND
  5
3BE6
100
AcDbEntity
  8
0
  0
LINE
  5
2B94
100
AcDbEntity
  8
0
100
AcDbLine
 10
711.48243
 20
453.270248
 30
0.0
 11
711.48243
 21
456.770248
 31
0.0
  0
ARC
  5
2B95
100
AcDbEntity
  8
0
100
AcDbCircle
 10
723.920252
 20
458.020248
 30
0.0
 40
5.312178
100
AcDbArc
 50
325.615753
 51
34.384247
  0
ARC
  5
2B96
100
AcDbEntity
  8
0
100
AcDbCircle
 10
728.044608
 20
458.020248
 30
0.0
 40
5.312178
100
AcDbArc
 50
145.615753
 51
214.384247
  0
LINE
  5
2B97
100
AcDbEntity
  8
0
100
AcDbLine
 10
729.48243
 20
461.647665
 30
0.0
 11
729.48243
 21
448.392831
 31
0.0
  0
LINE
  5
2B98
100
AcDbEntity
  8
0
100
AcDbLine
 10
722.48243
 20
450.198451
 30
0.0
 11
722.48243
 21
459.842045
 31
0.0
  0
LINE
  5
2B99
100
AcDbEntity
  8
0
100
AcDbLine
 10
718.98243
 20
452.270248
 30
0.0
 11
718.98243
 21
457.770248
 31
0.0
  0
LINE
  5
2B9A
100
AcDbEntity
  8
0
100
AcDbLine
 10
719.98243
 20
452.270248
 30
0.0
 11
719.98243
 21
457.770248
 31
0.0
  0
LINE
  5
2B9B
100
AcDbEntity
  8
0
100
AcDbLine
 10
712.48243
 20
452.270248
 30
0.0
 11
712.48243
 21
457.770248
 31
0.0
  0
LINE
  5
2B9C
100
AcDbEntity
  8
0
100
AcDbLine
 10
722.48243
 20
450.198451
 30
0.0
 11
723.660633
 21
449.020248
 31
0.0
  0
ARC
  5
2B9D
100
AcDbEntity
  8
0
100
AcDbCircle
 10
728.044608
 20
452.020248
 30
0.0
 40
5.312178
100
AcDbArc
 50
145.615753
 51
214.384247
  0
LINE
  5
2B9E
100
AcDbEntity
  8
0
100
AcDbLine
 10
718.98243
 20
452.270248
 30
0.0
 11
712.48243
 21
452.270248
 31
0.0
  0
LINE
  5
2B9F
100
AcDbEntity
  8
0
100
AcDbLine
 10
711.48243
 20
453.270248
 30
0.0
 11
712.48243
 21
452.270248
 31
0.0
  0
LINE
  5
2BA0
100
AcDbEntity
  8
0
100
AcDbLine
 10
722.48243
 20
452.270248
 30
0.0
 11
719.98243
 21
452.270248
 31
0.0
  0
LINE
  5
2BA1
100
AcDbEntity
  8
0
100
AcDbLine
 10
719.98243
 20
452.520248
 30
0.0
 11
718.98243
 21
452.520248
 31
0.0
  0
ARC
  5
2BA2
100
AcDbEntity
  8
0
100
AcDbCircle
 10
723.920252
 20
452.020248
 30
0.0
 40
5.312178
100
AcDbArc
 50
325.615753
 51
34.384247
  0
LINE
  5
2BA3
100
AcDbEntity
  8
0
100
AcDbLine
 10
729.48243
 20
450.198451
 30
0.0
 11
728.304227
 21
449.020248
 31
0.0
  0
LINE
  5
2BA4
100
AcDbEntity
  8
0
100
AcDbLine
 10
728.304227
 20
449.020248
 30
0.0
 11
723.660633
 21
449.020248
 31
0.0
  0
LINE
  5
2BA5
100
AcDbEntity
  8
0
100
AcDbLine
 10
728.304227
 20
455.020248
 30
0.0
 11
723.660633
 21
455.020248
 31
0.0
  0
LINE
  5
2BA6
100
AcDbEntity
  8
0
100
AcDbLine
 10
722.48243
 20
459.842045
 30
0.0
 11
723.660633
 21
461.020248
 31
0.0
  0
LINE
  5
2BA7
100
AcDbEntity
  8
0
100
AcDbLine
 10
718.98243
 20
457.770248
 30
0.0
 11
712.48243
 21
457.770248
 31
0.0
  0
LINE
  5
2BA8
100
AcDbEntity
  8
0
100
AcDbLine
 10
712.48243
 20
457.770248
 30
0.0
 11
711.48243
 21
456.770248
 31
0.0
  0
LINE
  5
2BA9
100
AcDbEntity
  8
0
100
AcDbLine
 10
722.48243
 20
457.770248
 30
0.0
 11
719.98243
 21
457.770248
 31
0.0
  0
LINE
  5
2BAA
100
AcDbEntity
  8
0
100
AcDbLine
 10
719.98243
 20
457.520248
 30
0.0
 11
718.98243
 21
457.520248
 31
0.0
  0
LINE
  5
2BAB
100
AcDbEntity
  8
0
100
AcDbLine
 10
729.48243
 20
459.842045
 30
0.0
 11
728.304227
 21
461.020248
 31
0.0
  0
LINE
  5
2BAC
100
AcDbEntity
  8
0
100
AcDbLine
 10
728.304227
 20
461.020248
 30
0.0
 11
723.660633
 21
461.020248
 31
0.0
  0
LINE
  5
2BAD
100
AcDbEntity
  8
0
100
AcDbLine
 10
738.855013
 20
471.020248
 30
0.0
 11
752.109847
 21
471.020248
 31
0.0
  0
LINE
  5
2BAE
100
AcDbEntity
  8
0
100
AcDbLine
 10
761.48243
 20
461.647665
 30
0.0
 11
761.48243
 21
448.392831
 31
0.0
  0
LINE
  5
2BB0
100
AcDbEntity
  8
0
100
AcDbLine
 10
752.664853
 20
412.2583
 30
0.0
 11
759.50849
 21
409.76742
 31
0.0
  0
ARC
  5
2BB1
100
AcDbEntity
  8
0
100
AcDbCircle
 10
727.152303
 20
411.220907
 30
0.0
 40
2.080127
100
AcDbArc
 50
303.626429
 51
33.626429
  0
LINE
  5
2BB2
100
AcDbEntity
  8
0
100
AcDbLine
 10
738.300007
 20
412.2583
 30
0.0
 11
731.456369
 21
409.76742
 31
0.0
  0
ARC
  5
2BB3
100
AcDbEntity
  8
0
100
AcDbCircle
 10
724.812557
 20
411.220907
 30
0.0
 40
2.080127
100
AcDbArc
 50
146.373571
 51
236.373571
  0
LINE
  5
2BB4
100
AcDbEntity
  8
0
100
AcDbLine
 10
722.48243
 20
411.774755
 30
0.0
 11
722.48243
 21
400.274755
 31
0.0
  0
LINE
  5
2BB5
100
AcDbEntity
  8
0
100
AcDbLine
 10
729.48243
 20
413.024755
 30
0.0
 11
729.48243
 21
379.267396
 31
0.0
  0
LINE
  5
2BB6
100
AcDbEntity
  8
0
100
AcDbLine
 10
729.48243
 20
398.024755
 30
0.0
 11
761.48243
 21
398.024755
 31
0.0
  0
LINE
  5
2BB7
100
AcDbEntity
  8
0
100
AcDbLine
 10
729.48243
 20
398.024755
 30
0.0
 11
761.48243
 21
398.024755
 31
0.0
  0
ARC
  5
2BB8
100
AcDbEntity
  8
0
100
AcDbCircle
 10
745.48243
 20
428.951409
 30
0.0
 40
30.926654
100
AcDbArc
 50
257.62585
 51
282.37415
  0
LINE
  5
2BB9
100
AcDbEntity
  8
0
100
AcDbLine
 10
729.48243
 20
388.024755
 30
0.0
 11
761.48243
 21
388.024755
 31
0.0
  0
LINE
  5
2BBA
100
AcDbEntity
  8
0
100
AcDbLine
 10
729.751891
 20
378.024755
 30
0.0
 11
761.212969
 21
378.024755
 31
0.0
  0
ARC
  5
2BBB
100
AcDbEntity
  8
0
100
AcDbCircle
 10
745.48243
 20
395.555672
 30
0.0
 40
17.530917
100
AcDbArc
 50
247.787568
 51
292.212432
  0
ARC
  5
2BBC
100
AcDbEntity
  8
0
100
AcDbCircle
 10
745.48243
 20
370.493838
 30
0.0
 40
17.530917
100
AcDbArc
 50
67.787568
 51
112.212432
  0
LINE
  5
2BBD
100
AcDbEntity
  8
0
100
AcDbLine
 10
735.48243
 20
370.524755
 30
0.0
 11
755.48243
 21
370.524755
 31
0.0
  0
LINE
  5
2BBE
100
AcDbEntity
  8
0
100
AcDbLine
 10
735.48243
 20
372.024755
 30
0.0
 11
755.48243
 21
372.024755
 31
0.0
  0
ARC
  5
2BC0
100
AcDbEntity
  8
0
100
AcDbCircle
 10
745.48243
 20
378.840766
 30
0.0
 40
30.926654
100
AcDbArc
 50
77.62585
 51
102.37415
  0
LINE
  5
2BC1
100
AcDbEntity
  8
0
100
AcDbLine
 10
735.48243
 20
370.524755
 30
0.0
 11
735.48243
 21
371.610541
 31
0.0
  0
LINE
  5
2BC4
100
AcDbEntity
  8
0
100
AcDbLine
 10
738.855013
 20
386.723761
 30
0.0
 11
738.855013
 21
379.325749
 31
0.0
  0
ARC
  5
2BC5
100
AcDbEntity
  8
0
100
AcDbCircle
 10
734.168721
 20
387.115462
 30
0.0
 40
9.090707
100
AcDbArc
 50
238.968883
 51
301.031117
  0
LINE
  5
2BC6
100
AcDbEntity
  8
0
100
AcDbLine
 10
730.361109
 20
377.146075
 30
0.0
 11
735.189537
 21
372.317648
 31
0.0
  0
ARC
  5
2BC7
100
AcDbEntity
  8
0
100
AcDbCircle
 10
734.48243
 20
371.610541
 30
0.0
 40
1.0
100
AcDbArc
 50
0.0
 51
45.0
  0
ARC
  5
2BC8
100
AcDbEntity
  8
0
100
AcDbCircle
 10
732.48243
 20
379.267396
 30
0.0
 40
3.0
100
AcDbArc
 50
180.0
 51
225.0
  0
ARC
  5
2BC9
100
AcDbEntity
  8
0
100
AcDbCircle
 10
734.168721
 20
378.934048
 30
0.0
 40
9.090707
100
AcDbArc
 50
58.968883
 51
121.031117
  0
LINE
  5
2BCA
100
AcDbEntity
  8
0
100
AcDbLine
 10
723.660633
 20
409.488857
 30
0.0
 11
728.304227
 21
409.488857
 31
0.0
  0
LINE
  5
2BCB
100
AcDbEntity
  8
0
100
AcDbLine
 10
723.660633
 20
399.096552
 30
0.0
 11
728.304227
 21
399.096552
 31
0.0
  0
LINE
  5
2BCC
100
AcDbEntity
  8
0
100
AcDbLine
 10
723.660633
 20
402.560653
 30
0.0
 11
728.304227
 21
402.560653
 31
0.0
  0
ARC
  5
2BCD
100
AcDbEntity
  8
0
100
AcDbCircle
 10
724.812557
 20
400.828603
 30
0.0
 40
2.080127
100
AcDbArc
 50
123.626429
 51
213.626429
  0
LINE
  5
2BCE
100
AcDbEntity
  8
0
100
AcDbLine
 10
722.48243
 20
400.274755
 30
0.0
 11
723.660633
 21
399.096552
 31
0.0
  0
LINE
  5
2BCF
100
AcDbEntity
  8
0
100
AcDbLine
 10
718.98243
 20
403.274755
 30
0.0
 11
712.48243
 21
403.274755
 31
0.0
  0
LINE
  5
2BD0
100
AcDbEntity
  8
0
100
AcDbLine
 10
718.98243
 20
408.774755
 30
0.0
 11
712.48243
 21
408.774755
 31
0.0
  0
LINE
  5
2BD1
100
AcDbEntity
  8
0
100
AcDbLine
 10
711.48243
 20
404.274755
 30
0.0
 11
711.48243
 21
407.774755
 31
0.0
  0
LINE
  5
2BD2
100
AcDbEntity
  8
0
100
AcDbLine
 10
712.48243
 20
403.274755
 30
0.0
 11
712.48243
 21
408.774755
 31
0.0
  0
LINE
  5
2BD3
100
AcDbEntity
  8
0
100
AcDbLine
 10
711.48243
 20
404.274755
 30
0.0
 11
712.48243
 21
403.274755
 31
0.0
  0
LINE
  5
2BD4
100
AcDbEntity
  8
0
100
AcDbLine
 10
712.48243
 20
408.774755
 30
0.0
 11
711.48243
 21
407.774755
 31
0.0
  0
LINE
  5
2BD5
100
AcDbEntity
  8
0
100
AcDbLine
 10
719.98243
 20
403.274755
 30
0.0
 11
719.98243
 21
408.774755
 31
0.0
  0
LINE
  5
2BD6
100
AcDbEntity
  8
0
100
AcDbLine
 10
718.98243
 20
403.274755
 30
0.0
 11
718.98243
 21
408.774755
 31
0.0
  0
ARC
  5
2BD7
100
AcDbEntity
  8
0
100
AcDbCircle
 10
729.660633
 20
406.024755
 30
0.0
 40
6.928203
100
AcDbArc
 50
150.0
 51
210.0
  0
LINE
  5
2BD8
100
AcDbEntity
  8
0
100
AcDbLine
 10
719.98243
 20
403.524755
 30
0.0
 11
718.98243
 21
403.524755
 31
0.0
  0
LINE
  5
2BD9
100
AcDbEntity
  8
0
100
AcDbLine
 10
722.48243
 20
403.274755
 30
0.0
 11
719.98243
 21
403.274755
 31
0.0
  0
LINE
  5
2BDA
100
AcDbEntity
  8
0
100
AcDbLine
 10
719.98243
 20
408.524755
 30
0.0
 11
718.98243
 21
408.524755
 31
0.0
  0
LINE
  5
2BDB
100
AcDbEntity
  8
0
100
AcDbLine
 10
722.48243
 20
408.774755
 30
0.0
 11
719.98243
 21
408.774755
 31
0.0
  0
ARC
  5
2BDC
100
AcDbEntity
  8
0
100
AcDbCircle
 10
727.152303
 20
400.828603
 30
0.0
 40
2.080127
100
AcDbArc
 50
326.373571
 51
56.373571
  0
LINE
  5
2BDD
100
AcDbEntity
  8
0
100
AcDbLine
 10
738.855013
 20
409.048965
 30
0.0
 11
738.855013
 21
398.74321
 31
0.0
  0
ARC
  5
2BDE
100
AcDbEntity
  8
0
100
AcDbCircle
 10
734.168721
 20
413.667696
 30
0.0
 40
15.642941
100
AcDbArc
 50
252.567701
 51
287.432299
  0
LINE
  5
2BDF
100
AcDbEntity
  8
0
100
AcDbLine
 10
729.48243
 20
400.274755
 30
0.0
 11
728.304227
 21
399.096552
 31
0.0
  0
ARC
  5
2BE0
100
AcDbEntity
  8
0
100
AcDbCircle
 10
734.168721
 20
394.124479
 30
0.0
 40
15.642941
100
AcDbArc
 50
72.567701
 51
107.432299
  0
ARC
  5
2BE1
100
AcDbEntity
  8
0
100
AcDbCircle
 10
722.304227
 20
406.024755
 30
0.0
 40
6.928203
100
AcDbArc
 50
330.0
 51
30.0
  0
LINE
  5
2BE2
100
AcDbEntity
  8
0
100
AcDbLine
 10
755.48243
 20
370.524755
 30
0.0
 11
755.48243
 21
371.610541
 31
0.0
  0
LINE
  5
2BE4
100
AcDbEntity
  8
0
100
AcDbLine
 10
761.48243
 20
406.948342
 30
0.0
 11
761.48243
 21
379.267396
 31
0.0
  0
LINE
  5
2BE5
100
AcDbEntity
  8
0
100
AcDbLine
 10
752.109847
 20
386.723761
 30
0.0
 11
752.109847
 21
379.325749
 31
0.0
  0
ARC
  5
2BE6
100
AcDbEntity
  8
0
100
AcDbCircle
 10
758.48243
 20
379.267396
 30
0.0
 40
3.0
100
AcDbArc
 50
315.0
 51
0.0
  0
ARC
  5
2BE7
100
AcDbEntity
  8
0
100
AcDbCircle
 10
756.796138
 20
387.115462
 30
0.0
 40
9.090707
100
AcDbArc
 50
238.968883
 51
301.031117
  0
LINE
  5
2BE8
100
AcDbEntity
  8
0
100
AcDbLine
 10
760.60375
 20
377.146075
 30
0.0
 11
755.775323
 21
372.317648
 31
0.0
  0
ARC
  5
2BE9
100
AcDbEntity
  8
0
100
AcDbCircle
 10
756.48243
 20
371.610541
 30
0.0
 40
1.0
100
AcDbArc
 50
135.0
 51
180.0
  0
ARC
  5
2BEA
100
AcDbEntity
  8
0
100
AcDbCircle
 10
756.796138
 20
378.934048
 30
0.0
 40
9.090707
100
AcDbArc
 50
58.968883
 51
121.031117
  0
LINE
  5
2BEB
100
AcDbEntity
  8
0
100
AcDbLine
 10
752.109847
 20
409.048965
 30
0.0
 11
752.109847
 21
398.74321
 31
0.0
  0
ARC
  5
2BEC
100
AcDbEntity
  8
0
100
AcDbCircle
 10
756.796138
 20
413.667696
 30
0.0
 40
15.642941
100
AcDbArc
 50
252.567701
 51
287.432299
  0
ARC
  5
2BED
100
AcDbEntity
  8
0
100
AcDbCircle
 10
758.48243
 20
406.948342
 30
0.0
 40
3.0
100
AcDbArc
 50
0.0
 51
70.0
  0
ARC
  5
2BEE
100
AcDbEntity
  8
0
100
AcDbCircle
 10
756.796138
 20
394.124479
 30
0.0
 40
15.642941
100
AcDbArc
 50
77.31251
 51
107.432299
  0
ARC
  5
2BEF
100
AcDbEntity
  8
0
100
AcDbCircle
 10
745.48243
 20
392.524755
 30
0.0
 40
21.0
100
AcDbArc
 50
70.0
 51
110.0
  0
LINE
  5
2BF0
100
AcDbEntity
  8
0
100
AcDbLine
 10
723.660633
 20
412.952958
 30
0.0
 11
728.304227
 21
412.952958
 31
0.0
  0
LINE
  5
2BF1
100
AcDbEntity
  8
0
100
AcDbLine
 10
722.48243
 20
411.774755
 30
0.0
 11
723.660633
 21
412.952958
 31
0.0
  0
LINE
  5
2BF2
100
AcDbEntity
  8
0
100
AcDbLine
 10
729.48243
 20
413.024755
 30
0.0
 11
740.927213
 21
413.024755
 31
0.0
  0
LINE
  5
2BF3
100
AcDbEntity
  8
0
100
AcDbLine
 10
729.48243
 20
411.774755
 30
0.0
 11
728.304227
 21
412.952958
 31
0.0
  0
TEXT
  5
2BF4
100
AcDbEntity
  8
0
100
AcDbText
 10
737.981905
 20
346.339177
 30
0.0
 40
5.0
  1
10A
 41
0.8
100
AcDbText
  0
LINE
  5
2BF5
100
AcDbEntity
  8
0
100
AcDbLine
 10
309.070101
 20
131.829049
 30
0.0
 11
309.070101
 21
98.07169
 31
0.0
  0
ARC
  5
2BF6
100
AcDbEntity
  8
0
100
AcDbCircle
 10
336.38381
 20
112.928773
 30
0.0
 40
15.642941
100
AcDbArc
 50
77.31251
 51
107.432299
  0
ARC
  5
2BF7
100
AcDbEntity
  8
0
100
AcDbCircle
 10
313.756393
 20
112.928773
 30
0.0
 40
15.642941
100
AcDbArc
 50
72.567701
 51
107.432299
  0
ARC
  5
2BF8
100
AcDbEntity
  8
0
100
AcDbCircle
 10
325.070101
 20
97.645059
 30
0.0
 40
30.926654
100
AcDbArc
 50
77.62585
 51
102.37415
  0
ARC
  5
2BF9
100
AcDbEntity
  8
0
100
AcDbCircle
 10
338.070101
 20
125.752636
 30
0.0
 40
3.0
100
AcDbArc
 50
0.0
 51
70.0
  0
LINE
  5
2BFA
100
AcDbEntity
  8
0
100
AcDbLine
 10
302.070101
 20
130.579049
 30
0.0
 11
302.070101
 21
119.079049
 31
0.0
  0
ARC
  5
2BFB
100
AcDbEntity
  8
0
100
AcDbCircle
 10
301.891898
 20
124.829049
 30
0.0
 40
6.928203
100
AcDbArc
 50
330.0
 51
30.0
  0
ARC
  5
2BFC
100
AcDbEntity
  8
0
100
AcDbCircle
 10
309.248304
 20
124.829049
 30
0.0
 40
6.928203
100
AcDbArc
 50
150.0
 51
210.0
  0
LINE
  5
2C01
100
AcDbEntity
  8
0
100
AcDbLine
 10
309.070101
 20
116.829049
 30
0.0
 11
341.070101
 21
116.829049
 31
0.0
  0
ARC
  5
2C02
100
AcDbEntity
  8
0
100
AcDbCircle
 10
313.756393
 20
132.47199
 30
0.0
 40
15.642941
100
AcDbArc
 50
252.567701
 51
287.432299
  0
LINE
  5
2C03
100
AcDbEntity
  8
0
100
AcDbLine
 10
309.339562
 20
96.829049
 30
0.0
 11
340.80064
 21
96.829049
 31
0.0
  0
LINE
  5
2C04
100
AcDbEntity
  8
0
100
AcDbLine
 10
314.070101
 20
91.829049
 30
0.0
 11
336.070101
 21
91.829049
 31
0.0
  0
LINE
  5
2C05
100
AcDbEntity
  8
0
100
AcDbLine
 10
314.070101
 20
90.829049
 30
0.0
 11
336.070101
 21
90.829049
 31
0.0
  0
LINE
  5
2C06
100
AcDbEntity
  8
0
100
AcDbLine
 10
309.070101
 20
116.829049
 30
0.0
 11
341.070101
 21
116.829049
 31
0.0
  0
LINE
  5
2C07
100
AcDbEntity
  8
0
100
AcDbLine
 10
309.070101
 20
106.829049
 30
0.0
 11
341.070101
 21
106.829049
 31
0.0
  0
ARC
  5
2C08
100
AcDbEntity
  8
0
100
AcDbCircle
 10
313.756393
 20
97.738342
 30
0.0
 40
9.090707
100
AcDbArc
 50
58.968883
 51
121.031117
  0
ARC
  5
2C09
100
AcDbEntity
  8
0
100
AcDbCircle
 10
313.756393
 20
105.919756
 30
0.0
 40
9.090707
100
AcDbArc
 50
238.968883
 51
301.031117
  0
LINE
  5
2C0A
100
AcDbEntity
  8
0
100
AcDbLine
 10
309.948781
 20
95.950369
 30
0.0
 11
313.484315
 21
92.414835
 31
0.0
  0
ARC
  5
2C0B
100
AcDbEntity
  8
0
100
AcDbCircle
 10
312.070101
 20
91.000622
 30
0.0
 40
2.0
100
AcDbArc
 50
0.0
 51
45.0
  0
LINE
  5
2C0C
100
AcDbEntity
  8
0
100
AcDbLine
 10
314.070101
 20
91.000622
 30
0.0
 11
314.070101
 21
90.829049
 31
0.0
  0
ARC
  5
2C0D
100
AcDbEntity
  8
0
100
AcDbCircle
 10
312.070101
 20
98.07169
 30
0.0
 40
3.0
100
AcDbArc
 50
180.0
 51
225.0
  0
LINE
  5
2C0E
100
AcDbEntity
  8
0
100
AcDbLine
 10
298.570101
 20
127.579049
 30
0.0
 11
292.070101
 21
127.579049
 31
0.0
  0
LINE
  5
2C0F
100
AcDbEntity
  8
0
100
AcDbLine
 10
298.570101
 20
122.079049
 30
0.0
 11
292.070101
 21
122.079049
 31
0.0
  0
LINE
  5
2C10
100
AcDbEntity
  8
0
100
AcDbLine
 10
292.070101
 20
122.079049
 30
0.0
 11
292.070101
 21
127.579049
 31
0.0
  0
LINE
  5
2C11
100
AcDbEntity
  8
0
100
AcDbLine
 10
291.070101
 20
123.079049
 30
0.0
 11
292.070101
 21
122.079049
 31
0.0
  0
LINE
  5
2C12
100
AcDbEntity
  8
0
100
AcDbLine
 10
291.070101
 20
123.079049
 30
0.0
 11
291.070101
 21
126.579049
 31
0.0
  0
LINE
  5
2C13
100
AcDbEntity
  8
0
100
AcDbLine
 10
292.070101
 20
127.579049
 30
0.0
 11
291.070101
 21
126.579049
 31
0.0
  0
LINE
  5
2C14
100
AcDbEntity
  8
0
100
AcDbLine
 10
309.070101
 20
119.079049
 30
0.0
 11
307.891898
 21
117.900846
 31
0.0
  0
LINE
  5
2C15
100
AcDbEntity
  8
0
100
AcDbLine
 10
302.070101
 20
119.079049
 30
0.0
 11
303.248304
 21
117.900846
 31
0.0
  0
LINE
  5
2C16
100
AcDbEntity
  8
0
100
AcDbLine
 10
303.248304
 20
117.900846
 30
0.0
 11
307.891898
 21
117.900846
 31
0.0
  0
LINE
  5
2C17
100
AcDbEntity
  8
0
100
AcDbLine
 10
303.248304
 20
121.364947
 30
0.0
 11
307.891898
 21
121.364947
 31
0.0
  0
LINE
  5
2C18
100
AcDbEntity
  8
0
100
AcDbLine
 10
298.570101
 20
122.079049
 30
0.0
 11
298.570101
 21
127.579049
 31
0.0
  0
LINE
  5
2C19
100
AcDbEntity
  8
0
100
AcDbLine
 10
299.570101
 20
122.079049
 30
0.0
 11
299.570101
 21
127.579049
 31
0.0
  0
LINE
  5
2C1A
100
AcDbEntity
  8
0
100
AcDbLine
 10
302.070101
 20
122.079049
 30
0.0
 11
299.570101
 21
122.079049
 31
0.0
  0
LINE
  5
2C1B
100
AcDbEntity
  8
0
100
AcDbLine
 10
299.570101
 20
122.329049
 30
0.0
 11
298.570101
 21
122.329049
 31
0.0
  0
ARC
  5
2C1C
100
AcDbEntity
  8
0
100
AcDbCircle
 10
304.400228
 20
119.632896
 30
0.0
 40
2.080127
100
AcDbArc
 50
123.626429
 51
213.626429
  0
LINE
  5
2C1D
100
AcDbEntity
  8
0
100
AcDbLine
 10
302.070101
 20
127.579049
 30
0.0
 11
299.570101
 21
127.579049
 31
0.0
  0
LINE
  5
2C1E
100
AcDbEntity
  8
0
100
AcDbLine
 10
299.570101
 20
127.329049
 30
0.0
 11
298.570101
 21
127.329049
 31
0.0
  0
ARC
  5
2C1F
100
AcDbEntity
  8
0
100
AcDbCircle
 10
306.739974
 20
119.632896
 30
0.0
 40
2.080127
100
AcDbArc
 50
326.373571
 51
56.373571
  0
LINE
  5
2C20
100
AcDbEntity
  8
0
100
AcDbLine
 10
341.070101
 20
125.752636
 30
0.0
 11
341.070101
 21
98.07169
 31
0.0
  0
ARC
  5
2C21
100
AcDbEntity
  8
0
100
AcDbCircle
 10
325.070101
 20
114.359966
 30
0.0
 40
17.530917
100
AcDbArc
 50
247.787568
 51
292.212432
  0
ARC
  5
2C22
100
AcDbEntity
  8
0
100
AcDbCircle
 10
336.38381
 20
105.919756
 30
0.0
 40
9.090707
100
AcDbArc
 50
238.968883
 51
301.031117
  0
LINE
  5
2C23
100
AcDbEntity
  8
0
100
AcDbLine
 10
340.191421
 20
95.950369
 30
0.0
 11
336.655888
 21
92.414835
 31
0.0
  0
ARC
  5
2C24
100
AcDbEntity
  8
0
100
AcDbCircle
 10
338.070101
 20
91.000622
 30
0.0
 40
2.0
100
AcDbArc
 50
135.0
 51
180.0
  0
LINE
  5
2C25
100
AcDbEntity
  8
0
100
AcDbLine
 10
336.070101
 20
91.000622
 30
0.0
 11
336.070101
 21
90.829049
 31
0.0
  0
ARC
  5
2C26
100
AcDbEntity
  8
0
100
AcDbCircle
 10
338.070101
 20
98.07169
 30
0.0
 40
3.0
100
AcDbArc
 50
315.0
 51
0.0
  0
ARC
  5
2C27
100
AcDbEntity
  8
0
100
AcDbCircle
 10
325.070101
 20
89.298132
 30
0.0
 40
17.530917
100
AcDbArc
 50
67.787568
 51
112.212432
  0
LINE
  5
2C28
100
AcDbEntity
  8
0
100
AcDbLine
 10
318.442684
 20
105.528055
 30
0.0
 11
318.442684
 21
98.130043
 31
0.0
  0
LINE
  5
2C29
100
AcDbEntity
  8
0
100
AcDbLine
 10
331.697518
 20
105.528055
 30
0.0
 11
331.697518
 21
98.130043
 31
0.0
  0
ARC
  5
2C2A
100
AcDbEntity
  8
0
100
AcDbCircle
 10
336.38381
 20
97.738342
 30
0.0
 40
9.090707
100
AcDbArc
 50
58.968883
 51
121.031117
  0
LINE
  5
2C2B
100
AcDbEntity
  8
0
100
AcDbLine
 10
318.442684
 20
127.853258
 30
0.0
 11
318.442684
 21
117.547504
 31
0.0
  0
LINE
  5
2C2C
100
AcDbEntity
  8
0
100
AcDbLine
 10
331.697518
 20
127.853258
 30
0.0
 11
331.697518
 21
117.547504
 31
0.0
  0
ARC
  5
2C2D
100
AcDbEntity
  8
0
100
AcDbCircle
 10
325.070101
 20
147.755703
 30
0.0
 40
30.926654
100
AcDbArc
 50
257.62585
 51
282.37415
  0
ARC
  5
2C2E
100
AcDbEntity
  8
0
100
AcDbCircle
 10
336.38381
 20
132.47199
 30
0.0
 40
15.642941
100
AcDbArc
 50
252.567701
 51
287.432299
  0
ARC
  5
2C2F
100
AcDbEntity
  8
0
100
AcDbCircle
 10
325.070101
 20
111.329049
 30
0.0
 40
21.0
100
AcDbArc
 50
70.0
 51
110.0
  0
LINE
  5
2C30
100
AcDbEntity
  8
0
100
AcDbLine
 10
309.070101
 20
131.829049
 30
0.0
 11
320.514884
 21
131.829049
 31
0.0
  0
LINE
  5
2C31
100
AcDbEntity
  8
0
100
AcDbLine
 10
303.248304
 20
128.29315
 30
0.0
 11
307.891898
 21
128.29315
 31
0.0
  0
LINE
  5
2C32
100
AcDbEntity
  8
0
100
AcDbLine
 10
303.248304
 20
131.757252
 30
0.0
 11
307.891898
 21
131.757252
 31
0.0
  0
ARC
  5
2C33
100
AcDbEntity
  8
0
100
AcDbCircle
 10
304.400228
 20
130.025201
 30
0.0
 40
2.080127
100
AcDbArc
 50
146.373571
 51
236.373571
  0
LINE
  5
2C34
100
AcDbEntity
  8
0
100
AcDbLine
 10
302.070101
 20
130.579049
 30
0.0
 11
303.248304
 21
131.757252
 31
0.0
  0
LINE
  5
2C35
100
AcDbEntity
  8
0
100
AcDbLine
 10
317.887678
 20
131.062594
 30
0.0
 11
311.044041
 21
128.571714
 31
0.0
  0
ARC
  5
2C36
100
AcDbEntity
  8
0
100
AcDbCircle
 10
306.739974
 20
130.025201
 30
0.0
 40
2.080127
100
AcDbArc
 50
303.626429
 51
33.626429
  0
LINE
  5
2C37
100
AcDbEntity
  8
0
100
AcDbLine
 10
309.070101
 20
130.579049
 30
0.0
 11
307.891898
 21
131.757252
 31
0.0
  0
LINE
  5
2C38
100
AcDbEntity
  8
0
100
AcDbLine
 10
332.252524
 20
131.062594
 30
0.0
 11
339.096162
 21
128.571714
 31
0.0
  0
TEXT
  5
2C39
100
AcDbEntity
  8
0
100
AcDbText
 10
319.904224
 20
65.687017
 30
0.0
 40
5.0
  1
15A
 41
0.8
100
AcDbText
  0
LINE
  5
2C3A
100
AcDbEntity
  8
0
100
AcDbLine
 10
331.697518
 20
158.001385
 30
0.0
 11
341.070101
 21
167.373968
 31
0.0
  0
LINE
  5
2C3B
100
AcDbEntity
  8
0
100
AcDbLine
 10
318.442684
 20
158.001385
 30
0.0
 11
309.070101
 21
167.373968
 31
0.0
  0
LINE
  5
2C3C
100
AcDbEntity
  8
0
100
AcDbLine
 10
318.442684
 20
158.001385
 30
0.0
 11
331.697518
 21
158.001385
 31
0.0
  0
LINE
  5
2C3D
100
AcDbEntity
  8
0
100
AcDbLine
 10
318.442684
 20
190.001385
 30
0.0
 11
331.697518
 21
190.001385
 31
0.0
  0
POLYLINE
  5
2C3E
100
AcDbEntity
  8
0
100
AcDb2dPolyline
 66
     1
 10
0.0
 20
0.0
 30
0.0
  0
VERTEX
  5
3BE7
100
AcDbEntity
  8
0
100
AcDbVertex
100
AcDb2dVertex
 10
309.070101
 20
167.373968
 30
0.0
 42
0.058922
  0
VERTEX
  5
3BE8
100
AcDbEntity
  8
0
100
AcDbVertex
100
AcDb2dVertex
 10
313.664723
 20
167.917299
 30
0.0
 42
0.072496
  0
VERTEX
  5
3BE9
100
AcDbEntity
  8
0
100
AcDbVertex
100
AcDb2dVertex
 10
317.162785
 20
169.315093
 30
0.0
 42
0.106647
  0
VERTEX
  5
3BEA
100
AcDbEntity
  8
0
100
AcDbVertex
100
AcDb2dVertex
 10
319.771613
 20
171.684706
 30
0.0
 42
0.156489
  0
VERTEX
  5
3BEB
100
AcDbEntity
  8
0
100
AcDbVertex
100
AcDb2dVertex
 10
320.514884
 20
174.001385
 30
0.0
 42
0.156489
  0
VERTEX
  5
3BEC
100
AcDbEntity
  8
0
100
AcDbVertex
100
AcDb2dVertex
 10
319.771613
 20
176.318064
 30
0.0
 42
0.106647
  0
VERTEX
  5
3BED
100
AcDbEntity
  8
0
100
AcDbVertex
100
AcDb2dVertex
 10
317.162785
 20
178.687676
 30
0.0
 42
0.072496
  0
VERTEX
  5
3BEE
100
AcDbEntity
  8
0
100
AcDbVertex
100
AcDb2dVertex
 10
313.664723
 20
180.08547
 30
0.0
 42
0.058922
  0
VERTEX
  5
3BEF
100
AcDbEntity
  8
0
100
AcDbVertex
100
AcDb2dVertex
 10
309.070101
 20
180.628802
 30
0.0
 42
0.058922
  0
SEQEND
  5
3BF0
100
AcDbEntity
  8
0
  0
LINE
  5
2C3F
100
AcDbEntity
  8
0
100
AcDbLine
 10
309.070101
 20
180.628802
 30
0.0
 11
309.070101
 21
167.373968
 31
0.0
  0
LINE
  5
2C40
100
AcDbEntity
  8
0
100
AcDbLine
 10
298.570101
 20
171.251385
 30
0.0
 11
292.070101
 21
171.251385
 31
0.0
  0
LINE
  5
2C41
100
AcDbEntity
  8
0
100
AcDbLine
 10
298.570101
 20
176.751385
 30
0.0
 11
292.070101
 21
176.751385
 31
0.0
  0
LINE
  5
2C42
100
AcDbEntity
  8
0
100
AcDbLine
 10
291.070101
 20
172.251385
 30
0.0
 11
291.070101
 21
175.751385
 31
0.0
  0
LINE
  5
2C43
100
AcDbEntity
  8
0
100
AcDbLine
 10
292.070101
 20
171.251385
 30
0.0
 11
292.070101
 21
176.751385
 31
0.0
  0
LINE
  5
2C44
100
AcDbEntity
  8
0
100
AcDbLine
 10
291.070101
 20
172.251385
 30
0.0
 11
292.070101
 21
171.251385
 31
0.0
  0
LINE
  5
2C45
100
AcDbEntity
  8
0
100
AcDbLine
 10
292.070101
 20
176.751385
 30
0.0
 11
291.070101
 21
175.751385
 31
0.0
  0
ARC
  5
2C46
100
AcDbEntity
  8
0
100
AcDbCircle
 10
303.507923
 20
171.001385
 30
0.0
 40
5.312178
100
AcDbArc
 50
325.615753
 51
34.384247
  0
ARC
  5
2C47
100
AcDbEntity
  8
0
100
AcDbCircle
 10
307.632279
 20
171.001385
 30
0.0
 40
5.312178
100
AcDbArc
 50
145.615753
 51
214.384247
  0
LINE
  5
2C48
100
AcDbEntity
  8
0
100
AcDbLine
 10
302.070101
 20
169.179588
 30
0.0
 11
302.070101
 21
178.823182
 31
0.0
  0
LINE
  5
2C49
100
AcDbEntity
  8
0
100
AcDbLine
 10
307.891898
 20
168.001385
 30
0.0
 11
303.248304
 21
168.001385
 31
0.0
  0
LINE
  5
2C4A
100
AcDbEntity
  8
0
100
AcDbLine
 10
302.070101
 20
169.179588
 30
0.0
 11
303.248304
 21
168.001385
 31
0.0
  0
LINE
  5
2C4B
100
AcDbEntity
  8
0
100
AcDbLine
 10
309.070101
 20
169.179588
 30
0.0
 11
307.891898
 21
168.001385
 31
0.0
  0
LINE
  5
2C4C
100
AcDbEntity
  8
0
100
AcDbLine
 10
307.891898
 20
180.001385
 30
0.0
 11
303.248304
 21
180.001385
 31
0.0
  0
LINE
  5
2C4D
100
AcDbEntity
  8
0
100
AcDbLine
 10
307.891898
 20
174.001385
 30
0.0
 11
303.248304
 21
174.001385
 31
0.0
  0
LINE
  5
2C4E
100
AcDbEntity
  8
0
100
AcDbLine
 10
299.570101
 20
171.251385
 30
0.0
 11
299.570101
 21
176.751385
 31
0.0
  0
LINE
  5
2C4F
100
AcDbEntity
  8
0
100
AcDbLine
 10
298.570101
 20
171.251385
 30
0.0
 11
298.570101
 21
176.751385
 31
0.0
  0
ARC
  5
2C50
100
AcDbEntity
  8
0
100
AcDbCircle
 10
307.632279
 20
177.001385
 30
0.0
 40
5.312178
100
AcDbArc
 50
145.615753
 51
214.384247
  0
LINE
  5
2C51
100
AcDbEntity
  8
0
100
AcDbLine
 10
302.070101
 20
171.251385
 30
0.0
 11
299.570101
 21
171.251385
 31
0.0
  0
LINE
  5
2C52
100
AcDbEntity
  8
0
100
AcDbLine
 10
299.570101
 20
171.501385
 30
0.0
 11
298.570101
 21
171.501385
 31
0.0
  0
LINE
  5
2C53
100
AcDbEntity
  8
0
100
AcDbLine
 10
302.070101
 20
176.751385
 30
0.0
 11
299.570101
 21
176.751385
 31
0.0
  0
LINE
  5
2C54
100
AcDbEntity
  8
0
100
AcDbLine
 10
299.570101
 20
176.501385
 30
0.0
 11
298.570101
 21
176.501385
 31
0.0
  0
LINE
  5
2C55
100
AcDbEntity
  8
0
100
AcDbLine
 10
302.070101
 20
178.823182
 30
0.0
 11
303.248304
 21
180.001385
 31
0.0
  0
ARC
  5
2C56
100
AcDbEntity
  8
0
100
AcDbCircle
 10
303.507923
 20
177.001385
 30
0.0
 40
5.312178
100
AcDbArc
 50
325.615753
 51
34.384247
  0
LINE
  5
2C57
100
AcDbEntity
  8
0
100
AcDbLine
 10
309.070101
 20
178.823182
 30
0.0
 11
307.891898
 21
180.001385
 31
0.0
  0
LINE
  5
2C58
100
AcDbEntity
  8
0
100
AcDbLine
 10
309.070101
 20
180.628802
 30
0.0
 11
318.442684
 21
190.001385
 31
0.0
  0
LINE
  5
2C59
100
AcDbEntity
  8
0
100
AcDbLine
 10
341.070101
 20
180.628802
 30
0.0
 11
341.070101
 21
167.373968
 31
0.0
  0
LINE
  5
2C5A
100
AcDbEntity
  8
0
100
AcDbLine
 10
331.697518
 20
190.001385
 30
0.0
 11
341.070101
 21
180.628802
 31
0.0
  0
ARC
  5
2C5C
100
AcDbEntity
  8
0
100
AcDbCircle
 10
340.891898
 20
262.792283
 30
0.0
 40
6.928203
100
AcDbArc
 50
330.0
 51
30.0
  0
ARC
  5
2C5D
100
AcDbEntity
  8
0
100
AcDbCircle
 10
348.248304
 20
262.792283
 30
0.0
 40
6.928203
100
AcDbArc
 50
150.0
 51
210.0
  0
LINE
  5
2C5E
100
AcDbEntity
  8
0
100
AcDbLine
 10
348.070101
 20
268.542283
 30
0.0
 11
348.070101
 21
257.042283
 31
0.0
  0
ARC
  5
2C5F
100
AcDbEntity
  8
0
100
AcDbCircle
 10
312.070101
 20
263.71587
 30
0.0
 40
3.0
100
AcDbArc
 50
110.0
 51
180.0
  0
ARC
  5
2C60
100
AcDbEntity
  8
0
100
AcDbCircle
 10
325.070101
 20
235.608294
 30
0.0
 40
30.926654
100
AcDbArc
 50
77.62585
 51
102.37415
  0
ARC
  5
2C61
100
AcDbEntity
  8
0
100
AcDbCircle
 10
336.38381
 20
250.892007
 30
0.0
 40
15.642941
100
AcDbArc
 50
72.567701
 51
107.432299
  0
ARC
  5
2C62
100
AcDbEntity
  8
0
100
AcDbCircle
 10
313.756393
 20
250.892007
 30
0.0
 40
15.642941
100
AcDbArc
 50
72.567701
 51
102.68749
  0
LINE
  5
2C63
100
AcDbEntity
  8
0
100
AcDbLine
 10
341.070101
 20
269.792283
 30
0.0
 11
341.070101
 21
236.034924
 31
0.0
  0
LINE
  5
2C64
100
AcDbEntity
  8
0
100
AcDbLine
 10
314.625237
 20
228.792283
 30
0.0
 11
315.312737
 21
217.792283
 31
0.0
  0
LINE
  5
2C65
100
AcDbEntity
  8
0
100
AcDbLine
 10
335.514965
 20
228.792283
 30
0.0
 11
334.827465
 21
217.792283
 31
0.0
  0
LINE
  5
2C66
100
AcDbEntity
  8
0
100
AcDbLine
 10
325.070101
 20
217.792283
 30
0.0
 11
315.312737
 21
217.792283
 31
0.0
  0
LINE
  5
2C67
100
AcDbEntity
  8
0
100
AcDbLine
 10
334.827465
 20
217.792283
 30
0.0
 11
325.070101
 21
217.792283
 31
0.0
  0
LINE
  5
2C68
100
AcDbEntity
  8
0
100
AcDbLine
 10
346.891898
 20
259.328182
 30
0.0
 11
342.248304
 21
259.328182
 31
0.0
  0
LINE
  5
2C69
100
AcDbEntity
  8
0
100
AcDbLine
 10
346.891898
 20
255.86408
 30
0.0
 11
342.248304
 21
255.86408
 31
0.0
  0
LINE
  5
2C6A
100
AcDbEntity
  8
0
100
AcDbLine
 10
309.070101
 20
263.71587
 30
0.0
 11
309.070101
 21
236.034924
 31
0.0
  0
ARC
  5
2C6B
100
AcDbEntity
  8
0
100
AcDbCircle
 10
325.070101
 20
227.261367
 30
0.0
 40
17.530917
100
AcDbArc
 50
67.787568
 51
112.212432
  0
ARC
  5
2C6C
100
AcDbEntity
  8
0
100
AcDbCircle
 10
325.070101
 20
252.3232
 30
0.0
 40
17.530917
100
AcDbArc
 50
247.787568
 51
292.212432
  0
LINE
  5
2C6D
100
AcDbEntity
  8
0
100
AcDbLine
 10
341.070101
 20
244.792283
 30
0.0
 11
309.070101
 21
244.792283
 31
0.0
  0
LINE
  5
2C6E
100
AcDbEntity
  8
0
100
AcDbLine
 10
336.070101
 20
228.792283
 30
0.0
 11
314.070101
 21
228.792283
 31
0.0
  0
LINE
  5
2C6F
100
AcDbEntity
  8
0
100
AcDbLine
 10
336.070101
 20
229.792283
 30
0.0
 11
314.070101
 21
229.792283
 31
0.0
  0
LINE
  5
2C70
100
AcDbEntity
  8
0
100
AcDbLine
 10
340.80064
 20
234.792283
 30
0.0
 11
309.339562
 21
234.792283
 31
0.0
  0
ARC
  5
2C71
100
AcDbEntity
  8
0
100
AcDbCircle
 10
313.756393
 20
243.88299
 30
0.0
 40
9.090707
100
AcDbArc
 50
238.968883
 51
301.031117
  0
LINE
  5
2C72
100
AcDbEntity
  8
0
100
AcDbLine
 10
309.948781
 20
233.913604
 30
0.0
 11
313.484315
 21
230.37807
 31
0.0
  0
LINE
  5
2C73
100
AcDbEntity
  8
0
100
AcDbLine
 10
314.070101
 20
228.963856
 30
0.0
 11
314.070101
 21
228.792283
 31
0.0
  0
ARC
  5
2C74
100
AcDbEntity
  8
0
100
AcDbCircle
 10
312.070101
 20
228.963856
 30
0.0
 40
2.0
100
AcDbArc
 50
0.0
 51
45.0
  0
ARC
  5
2C75
100
AcDbEntity
  8
0
100
AcDbCircle
 10
312.070101
 20
236.034924
 30
0.0
 40
3.0
100
AcDbArc
 50
180.0
 51
225.0
  0
LINE
  5
2C76
100
AcDbEntity
  8
0
100
AcDbLine
 10
318.442684
 20
243.491289
 30
0.0
 11
318.442684
 21
236.093278
 31
0.0
  0
ARC
  5
2C77
100
AcDbEntity
  8
0
100
AcDbCircle
 10
313.756393
 20
235.701576
 30
0.0
 40
9.090707
100
AcDbArc
 50
58.968883
 51
121.031117
  0
ARC
  5
2C78
100
AcDbEntity
  8
0
100
AcDbCircle
 10
336.38381
 20
243.88299
 30
0.0
 40
9.090707
100
AcDbArc
 50
238.968883
 51
301.031117
  0
LINE
  5
2C79
100
AcDbEntity
  8
0
100
AcDbLine
 10
340.191421
 20
233.913604
 30
0.0
 11
336.655888
 21
230.37807
 31
0.0
  0
LINE
  5
2C7A
100
AcDbEntity
  8
0
100
AcDbLine
 10
336.070101
 20
228.963856
 30
0.0
 11
336.070101
 21
228.792283
 31
0.0
  0
ARC
  5
2C7B
100
AcDbEntity
  8
0
100
AcDbCircle
 10
338.070101
 20
228.963856
 30
0.0
 40
2.0
100
AcDbArc
 50
135.0
 51
180.0
  0
ARC
  5
2C7C
100
AcDbEntity
  8
0
100
AcDbCircle
 10
338.070101
 20
236.034924
 30
0.0
 40
3.0
100
AcDbArc
 50
315.0
 51
0.0
  0
LINE
  5
2C7D
100
AcDbEntity
  8
0
100
AcDbLine
 10
331.697518
 20
243.491289
 30
0.0
 11
331.697518
 21
236.093278
 31
0.0
  0
ARC
  5
2C7E
100
AcDbEntity
  8
0
100
AcDbCircle
 10
336.38381
 20
235.701576
 30
0.0
 40
9.090707
100
AcDbArc
 50
58.968883
 51
121.031117
  0
ARC
  5
2C7F
100
AcDbEntity
  8
0
100
AcDbCircle
 10
325.070101
 20
285.718938
 30
0.0
 40
30.926654
100
AcDbArc
 50
257.62585
 51
282.37415
  0
LINE
  5
2C80
100
AcDbEntity
  8
0
100
AcDbLine
 10
341.070101
 20
254.792283
 30
0.0
 11
309.070101
 21
254.792283
 31
0.0
  0
LINE
  5
2C81
100
AcDbEntity
  8
0
100
AcDbLine
 10
341.070101
 20
254.792283
 30
0.0
 11
309.070101
 21
254.792283
 31
0.0
  0
LINE
  5
2C82
100
AcDbEntity
  8
0
100
AcDbLine
 10
318.442684
 20
265.816493
 30
0.0
 11
318.442684
 21
255.510739
 31
0.0
  0
ARC
  5
2C83
100
AcDbEntity
  8
0
100
AcDbCircle
 10
313.756393
 20
270.435224
 30
0.0
 40
15.642941
100
AcDbArc
 50
252.567701
 51
287.432299
  0
LINE
  5
2C84
100
AcDbEntity
  8
0
100
AcDbLine
 10
331.697518
 20
265.816493
 30
0.0
 11
331.697518
 21
255.510739
 31
0.0
  0
LINE
  5
2C85
100
AcDbEntity
  8
0
100
AcDbLine
 10
341.070101
 20
257.042283
 30
0.0
 11
342.248304
 21
255.86408
 31
0.0
  0
ARC
  5
2C86
100
AcDbEntity
  8
0
100
AcDbCircle
 10
336.38381
 20
270.435224
 30
0.0
 40
15.642941
100
AcDbArc
 50
252.567701
 51
287.432299
  0
ARC
  5
2C87
100
AcDbEntity
  8
0
100
AcDbCircle
 10
343.400228
 20
257.596131
 30
0.0
 40
2.080127
100
AcDbArc
 50
123.626429
 51
213.626429
  0
LINE
  5
2C88
100
AcDbEntity
  8
0
100
AcDbLine
 10
348.070101
 20
257.042283
 30
0.0
 11
346.891898
 21
255.86408
 31
0.0
  0
LINE
  5
2C89
100
AcDbEntity
  8
0
100
AcDbLine
 10
351.570101
 20
260.042283
 30
0.0
 11
358.070101
 21
260.042283
 31
0.0
  0
LINE
  5
2C8A
100
AcDbEntity
  8
0
100
AcDbLine
 10
351.570101
 20
265.542283
 30
0.0
 11
358.070101
 21
265.542283
 31
0.0
  0
LINE
  5
2C8B
100
AcDbEntity
  8
0
100
AcDbLine
 10
350.570101
 20
260.042283
 30
0.0
 11
350.570101
 21
265.542283
 31
0.0
  0
LINE
  5
2C8C
100
AcDbEntity
  8
0
100
AcDbLine
 10
351.570101
 20
260.042283
 30
0.0
 11
351.570101
 21
265.542283
 31
0.0
  0
LINE
  5
2C8D
100
AcDbEntity
  8
0
100
AcDbLine
 10
348.070101
 20
260.042283
 30
0.0
 11
350.570101
 21
260.042283
 31
0.0
  0
ARC
  5
2C8E
100
AcDbEntity
  8
0
100
AcDbCircle
 10
345.739974
 20
257.596131
 30
0.0
 40
2.080127
100
AcDbArc
 50
326.373571
 51
56.373571
  0
LINE
  5
2C8F
100
AcDbEntity
  8
0
100
AcDbLine
 10
350.570101
 20
260.292283
 30
0.0
 11
351.570101
 21
260.292283
 31
0.0
  0
LINE
  5
2C90
100
AcDbEntity
  8
0
100
AcDbLine
 10
348.070101
 20
265.542283
 30
0.0
 11
350.570101
 21
265.542283
 31
0.0
  0
LINE
  5
2C91
100
AcDbEntity
  8
0
100
AcDbLine
 10
350.570101
 20
265.292283
 30
0.0
 11
351.570101
 21
265.292283
 31
0.0
  0
LINE
  5
2C92
100
AcDbEntity
  8
0
100
AcDbLine
 10
359.070101
 20
261.042283
 30
0.0
 11
358.070101
 21
260.042283
 31
0.0
  0
LINE
  5
2C93
100
AcDbEntity
  8
0
100
AcDbLine
 10
358.070101
 20
260.042283
 30
0.0
 11
358.070101
 21
265.542283
 31
0.0
  0
LINE
  5
2C94
100
AcDbEntity
  8
0
100
AcDbLine
 10
359.070101
 20
261.042283
 30
0.0
 11
359.070101
 21
264.542283
 31
0.0
  0
LINE
  5
2C95
100
AcDbEntity
  8
0
100
AcDbLine
 10
358.070101
 20
265.542283
 30
0.0
 11
359.070101
 21
264.542283
 31
0.0
  0
LINE
  5
2C96
100
AcDbEntity
  8
0
100
AcDbLine
 10
346.891898
 20
269.720487
 30
0.0
 11
342.248304
 21
269.720487
 31
0.0
  0
LINE
  5
2C97
100
AcDbEntity
  8
0
100
AcDbLine
 10
346.891898
 20
266.256385
 30
0.0
 11
342.248304
 21
266.256385
 31
0.0
  0
ARC
  5
2C98
100
AcDbEntity
  8
0
100
AcDbCircle
 10
325.070101
 20
249.292283
 30
0.0
 40
21.0
100
AcDbArc
 50
70.0
 51
110.0
  0
LINE
  5
2C99
100
AcDbEntity
  8
0
100
AcDbLine
 10
317.887678
 20
269.025828
 30
0.0
 11
311.044041
 21
266.534948
 31
0.0
  0
LINE
  5
2C9A
100
AcDbEntity
  8
0
100
AcDbLine
 10
341.070101
 20
269.792283
 30
0.0
 11
329.625318
 21
269.792283
 31
0.0
  0
LINE
  5
2C9B
100
AcDbEntity
  8
0
100
AcDbLine
 10
332.252524
 20
269.025828
 30
0.0
 11
339.096162
 21
266.534948
 31
0.0
  0
ARC
  5
2C9C
100
AcDbEntity
  8
0
100
AcDbCircle
 10
343.400228
 20
267.988436
 30
0.0
 40
2.080127
100
AcDbArc
 50
146.373571
 51
236.373571
  0
LINE
  5
2C9D
100
AcDbEntity
  8
0
100
AcDbLine
 10
341.070101
 20
268.542283
 30
0.0
 11
342.248304
 21
269.720487
 31
0.0
  0
ARC
  5
2C9E
100
AcDbEntity
  8
0
100
AcDbCircle
 10
345.739974
 20
267.988436
 30
0.0
 40
2.080127
100
AcDbArc
 50
303.626429
 51
33.626429
  0
LINE
  5
2C9F
100
AcDbEntity
  8
0
100
AcDbLine
 10
348.070101
 20
268.542283
 30
0.0
 11
346.891898
 21
269.720487
 31
0.0
  0
LINE
  5
2CA1
100
AcDbEntity
  8
0
100
AcDbLine
 10
629.161651
 20
261.042283
 30
0.0
 11
629.161651
 21
262.792283
 31
0.0
  0
LINE
  5
2CA2
100
AcDbEntity
  8
0
100
AcDbLine
 10
628.161651
 20
265.542283
 30
0.0
 11
629.161651
 21
264.542283
 31
0.0
  0
LINE
  5
2CA3
100
AcDbEntity
  8
0
100
AcDbLine
 10
628.161651
 20
260.042283
 30
0.0
 11
628.161651
 21
265.542283
 31
0.0
  0
LINE
  5
2CA4
100
AcDbEntity
  8
0
100
AcDbLine
 10
629.161651
 20
261.042283
 30
0.0
 11
628.161651
 21
260.042283
 31
0.0
  0
LINE
  5
2CA5
100
AcDbEntity
  8
0
100
AcDbLine
 10
621.661651
 20
260.042283
 30
0.0
 11
628.161651
 21
260.042283
 31
0.0
  0
LINE
  5
2CA6
100
AcDbEntity
  8
0
100
AcDbLine
 10
621.661651
 20
265.542283
 30
0.0
 11
628.161651
 21
265.542283
 31
0.0
  0
LINE
  5
2CA7
100
AcDbEntity
  8
0
100
AcDbLine
 10
601.789068
 20
265.816493
 30
0.0
 11
601.789068
 21
255.510739
 31
0.0
  0
ARC
  5
2CA8
100
AcDbEntity
  8
0
100
AcDbCircle
 10
595.161651
 20
285.718938
 30
0.0
 40
30.926654
100
AcDbArc
 50
257.62585
 51
282.37415
  0
ARC
  5
2CA9
100
AcDbEntity
  8
0
100
AcDbCircle
 10
595.161651
 20
235.608294
 30
0.0
 40
30.926654
100
AcDbArc
 50
77.62585
 51
102.37415
  0
LINE
  5
2CAA
100
AcDbEntity
  8
0
100
AcDbLine
 10
601.789068
 20
243.491289
 30
0.0
 11
601.789068
 21
236.093278
 31
0.0
  0
ARC
  5
2CAB
100
AcDbEntity
  8
0
100
AcDbCircle
 10
595.161651
 20
227.261367
 30
0.0
 40
17.530917
100
AcDbArc
 50
67.787568
 51
112.212432
  0
ARC
  5
2CAC
100
AcDbEntity
  8
0
100
AcDbCircle
 10
595.161651
 20
252.3232
 30
0.0
 40
17.530917
100
AcDbArc
 50
247.787568
 51
292.212432
  0
ARC
  5
2CAD
100
AcDbEntity
  8
0
100
AcDbCircle
 10
595.161651
 20
249.292283
 30
0.0
 40
21.0
100
AcDbArc
 50
70.0
 51
110.0
  0
LINE
  5
2CAE
100
AcDbEntity
  8
0
100
AcDbLine
 10
616.983447
 20
269.720487
 30
0.0
 11
612.339854
 21
269.720487
 31
0.0
  0
ARC
  5
2CAF
100
AcDbEntity
  8
0
100
AcDbCircle
 10
613.491778
 20
257.596131
 30
0.0
 40
2.080127
100
AcDbArc
 50
123.626429
 51
213.626429
  0
LINE
  5
2CB0
100
AcDbEntity
  8
0
100
AcDbLine
 10
611.161651
 20
257.042283
 30
0.0
 11
612.339854
 21
255.86408
 31
0.0
  0
ARC
  5
2CB1
100
AcDbEntity
  8
0
100
AcDbCircle
 10
618.339854
 20
262.792283
 30
0.0
 40
6.928203
100
AcDbArc
 50
150.0
 51
210.0
  0
LINE
  5
2CB2
100
AcDbEntity
  8
0
100
AcDbLine
 10
616.983447
 20
255.86408
 30
0.0
 11
612.339854
 21
255.86408
 31
0.0
  0
LINE
  5
2CB3
100
AcDbEntity
  8
0
100
AcDbLine
 10
616.983447
 20
259.328182
 30
0.0
 11
612.339854
 21
259.328182
 31
0.0
  0
LINE
  5
2CB4
100
AcDbEntity
  8
0
100
AcDbLine
 10
616.983447
 20
266.256385
 30
0.0
 11
612.339854
 21
266.256385
 31
0.0
  0
ARC
  5
2CB5
100
AcDbEntity
  8
0
100
AcDbCircle
 10
613.491778
 20
267.988436
 30
0.0
 40
2.080127
100
AcDbArc
 50
146.373571
 51
236.373571
  0
LINE
  5
2CB6
100
AcDbEntity
  8
0
100
AcDbLine
 10
611.161651
 20
268.542283
 30
0.0
 11
612.339854
 21
269.720487
 31
0.0
  0
LINE
  5
2CB7
100
AcDbEntity
  8
0
100
AcDbLine
 10
620.661651
 20
265.292283
 30
0.0
 11
621.661651
 21
265.292283
 31
0.0
  0
LINE
  5
2CB8
100
AcDbEntity
  8
0
100
AcDbLine
 10
618.161651
 20
265.542283
 30
0.0
 11
620.661651
 21
265.542283
 31
0.0
  0
LINE
  5
2CB9
100
AcDbEntity
  8
0
100
AcDbLine
 10
620.661651
 20
260.292283
 30
0.0
 11
621.661651
 21
260.292283
 31
0.0
  0
LINE
  5
2CBA
100
AcDbEntity
  8
0
100
AcDbLine
 10
618.161651
 20
260.042283
 30
0.0
 11
620.661651
 21
260.042283
 31
0.0
  0
LINE
  5
2CBB
100
AcDbEntity
  8
0
100
AcDbLine
 10
618.161651
 20
268.542283
 30
0.0
 11
618.161651
 21
257.042283
 31
0.0
  0
LINE
  5
2CBC
100
AcDbEntity
  8
0
100
AcDbLine
 10
620.661651
 20
260.042283
 30
0.0
 11
620.661651
 21
265.542283
 31
0.0
  0
LINE
  5
2CBD
100
AcDbEntity
  8
0
100
AcDbLine
 10
621.661651
 20
260.042283
 30
0.0
 11
621.661651
 21
265.542283
 31
0.0
  0
ARC
  5
2CBE
100
AcDbEntity
  8
0
100
AcDbCircle
 10
615.831524
 20
267.988436
 30
0.0
 40
2.080127
100
AcDbArc
 50
303.626429
 51
33.626429
  0
LINE
  5
2CBF
100
AcDbEntity
  8
0
100
AcDbLine
 10
618.161651
 20
268.542283
 30
0.0
 11
616.983447
 21
269.720487
 31
0.0
  0
LINE
  5
2CC0
100
AcDbEntity
  8
0
100
AcDbLine
 10
618.161651
 20
257.042283
 30
0.0
 11
616.983447
 21
255.86408
 31
0.0
  0
ARC
  5
2CC1
100
AcDbEntity
  8
0
100
AcDbCircle
 10
615.831524
 20
257.596131
 30
0.0
 40
2.080127
100
AcDbArc
 50
326.373571
 51
56.373571
  0
ARC
  5
2CC2
100
AcDbEntity
  8
0
100
AcDbCircle
 10
610.983447
 20
262.792283
 30
0.0
 40
6.928203
100
AcDbArc
 50
330.0
 51
30.0
  0
LINE
  5
2CC3
100
AcDbEntity
  8
0
100
AcDbLine
 10
608.661651
 20
230.792283
 30
0.0
 11
608.661651
 21
231.049643
 31
0.0
  0
ARC
  5
2CC4
100
AcDbEntity
  8
0
100
AcDbCircle
 10
611.661651
 20
231.049643
 30
0.0
 40
3.0
100
AcDbArc
 50
135.0
 51
180.0
  0
ARC
  5
2CC5
100
AcDbEntity
  8
0
100
AcDbCircle
 10
608.161651
 20
236.034924
 30
0.0
 40
3.0
100
AcDbArc
 50
315.0
 51
0.0
  0
LINE
  5
2CC6
100
AcDbEntity
  8
0
100
AcDbLine
 10
609.54033
 20
233.170963
 30
0.0
 11
610.282971
 21
233.913604
 31
0.0
  0
LINE
  5
2CC7
100
AcDbEntity
  8
0
100
AcDbLine
 10
611.161651
 20
269.792283
 30
0.0
 11
611.161651
 21
236.034924
 31
0.0
  0
LINE
  5
2CC8
100
AcDbEntity
  8
0
100
AcDbLine
 10
608.179026
 20
217.792283
 30
0.0
 11
608.585276
 21
230.792283
 31
0.0
  0
LINE
  5
2CC9
100
AcDbEntity
  8
0
100
AcDbLine
 10
611.161651
 20
244.792283
 30
0.0
 11
579.161651
 21
244.792283
 31
0.0
  0
LINE
  5
2CCA
100
AcDbEntity
  8
0
100
AcDbLine
 10
610.89219
 20
234.792283
 30
0.0
 11
579.431112
 21
234.792283
 31
0.0
  0
LINE
  5
2CCB
100
AcDbEntity
  8
0
100
AcDbLine
 10
581.661651
 20
232.292283
 30
0.0
 11
608.661651
 21
232.292283
 31
0.0
  0
LINE
  5
2CCC
100
AcDbEntity
  8
0
100
AcDbLine
 10
608.661651
 20
230.792283
 30
0.0
 11
581.661651
 21
230.792283
 31
0.0
  0
LINE
  5
2CCD
100
AcDbEntity
  8
0
100
AcDbLine
 10
595.161651
 20
217.792283
 30
0.0
 11
582.144276
 21
217.792283
 31
0.0
  0
ARC
  5
2CCE
100
AcDbEntity
  8
0
100
AcDbCircle
 10
606.475359
 20
235.701576
 30
0.0
 40
9.090707
100
AcDbArc
 50
58.968883
 51
121.031117
  0
ARC
  5
2CCF
100
AcDbEntity
  8
0
100
AcDbCircle
 10
606.475359
 20
243.88299
 30
0.0
 40
9.090707
100
AcDbArc
 50
238.968883
 51
301.031117
  0
LINE
  5
2CD0
100
AcDbEntity
  8
0
100
AcDbLine
 10
602.344074
 20
269.025828
 30
0.0
 11
609.187711
 21
266.534948
 31
0.0
  0
ARC
  5
2CD1
100
AcDbEntity
  8
0
100
AcDbCircle
 10
606.475359
 20
270.435224
 30
0.0
 40
15.642941
100
AcDbArc
 50
252.567701
 51
287.432299
  0
ARC
  5
2CD2
100
AcDbEntity
  8
0
100
AcDbCircle
 10
606.475359
 20
250.892007
 30
0.0
 40
15.642941
100
AcDbArc
 50
72.567701
 51
107.432299
  0
LINE
  5
2CD3
100
AcDbEntity
  8
0
100
AcDbLine
 10
611.161651
 20
269.792283
 30
0.0
 11
599.716867
 21
269.792283
 31
0.0
  0
LINE
  5
2CD4
100
AcDbEntity
  8
0
100
AcDbLine
 10
611.161651
 20
254.792283
 30
0.0
 11
579.161651
 21
254.792283
 31
0.0
  0
LINE
  5
2CD5
100
AcDbEntity
  8
0
100
AcDbLine
 10
582.144276
 20
217.792283
 30
0.0
 11
581.738026
 21
230.792283
 31
0.0
  0
LINE
  5
2CD6
100
AcDbEntity
  8
0
100
AcDbLine
 10
579.161651
 20
263.71587
 30
0.0
 11
579.161651
 21
236.034924
 31
0.0
  0
ARC
  5
2CD7
100
AcDbEntity
  8
0
100
AcDbCircle
 10
583.847942
 20
235.701576
 30
0.0
 40
9.090707
100
AcDbArc
 50
58.968883
 51
121.031117
  0
ARC
  5
2CD8
100
AcDbEntity
  8
0
100
AcDbCircle
 10
583.847942
 20
243.88299
 30
0.0
 40
9.090707
100
AcDbArc
 50
238.968883
 51
301.031117
  0
LINE
  5
2CD9
100
AcDbEntity
  8
0
100
AcDbLine
 10
580.782971
 20
233.170963
 30
0.0
 11
580.04033
 21
233.913604
 31
0.0
  0
ARC
  5
2CDA
100
AcDbEntity
  8
0
100
AcDbCircle
 10
582.161651
 20
236.034924
 30
0.0
 40
3.0
100
AcDbArc
 50
180.0
 51
225.0
  0
ARC
  5
2CDB
100
AcDbEntity
  8
0
100
AcDbCircle
 10
578.661651
 20
231.049643
 30
0.0
 40
3.0
100
AcDbArc
 50
0.0
 51
45.0
  0
LINE
  5
2CDC
100
AcDbEntity
  8
0
100
AcDbLine
 10
581.661651
 20
230.792283
 30
0.0
 11
581.661651
 21
231.049643
 31
0.0
  0
LINE
  5
2CDD
100
AcDbEntity
  8
0
100
AcDbLine
 10
588.534234
 20
243.491289
 30
0.0
 11
588.534234
 21
236.093278
 31
0.0
  0
LINE
  5
2CDE
100
AcDbEntity
  8
0
100
AcDbLine
 10
587.979228
 20
269.025828
 30
0.0
 11
581.13559
 21
266.534948
 31
0.0
  0
ARC
  5
2CDF
100
AcDbEntity
  8
0
100
AcDbCircle
 10
583.847942
 20
250.892007
 30
0.0
 40
15.642941
100
AcDbArc
 50
72.567701
 51
102.68749
  0
ARC
  5
2CE0
100
AcDbEntity
  8
0
100
AcDbCircle
 10
583.847942
 20
270.435224
 30
0.0
 40
15.642941
100
AcDbArc
 50
252.567701
 51
287.432299
  0
ARC
  5
2CE1
100
AcDbEntity
  8
0
100
AcDbCircle
 10
582.161651
 20
263.71587
 30
0.0
 40
3.0
100
AcDbArc
 50
110.0
 51
180.0
  0
LINE
  5
2CE2
100
AcDbEntity
  8
0
100
AcDbLine
 10
588.534234
 20
265.816493
 30
0.0
 11
588.534234
 21
255.510739
 31
0.0
  0
LINE
  5
2CE3
100
AcDbEntity
  8
0
100
AcDbLine
 10
595.161651
 20
217.792283
 30
0.0
 11
608.179026
 21
217.792283
 31
0.0
  0
LINE
  5
2CE4
100
AcDbEntity
  8
0
100
AcDbLine
 10
629.161651
 20
262.792283
 30
0.0
 11
629.161651
 21
264.542283
 31
0.0
  0
LINE
  5
2CE6
100
AcDbEntity
  8
0
100
AcDbLine
 10
588.534234
 20
190.001385
 30
0.0
 11
601.789068
 21
190.001385
 31
0.0
  0
LINE
  5
2CE7
100
AcDbEntity
  8
0
100
AcDbLine
 10
611.161651
 20
180.628802
 30
0.0
 11
611.161651
 21
167.373968
 31
0.0
  0
LINE
  5
2CE8
100
AcDbEntity
  8
0
100
AcDbLine
 10
601.789068
 20
190.001385
 30
0.0
 11
611.161651
 21
180.628802
 31
0.0
  0
LINE
  5
2CE9
100
AcDbEntity
  8
0
100
AcDbLine
 10
601.789068
 20
158.001385
 30
0.0
 11
611.161651
 21
167.373968
 31
0.0
  0
LINE
  5
2CEA
100
AcDbEntity
  8
0
100
AcDbLine
 10
588.534234
 20
158.001385
 30
0.0
 11
601.789068
 21
158.001385
 31
0.0
  0
LINE
  5
2CEB
100
AcDbEntity
  8
0
100
AcDbLine
 10
579.161651
 20
180.628802
 30
0.0
 11
588.534234
 21
190.001385
 31
0.0
  0
POLYLINE
  5
2CEC
100
AcDbEntity
  8
0
100
AcDb2dPolyline
 66
     1
 10
0.0
 20
0.0
 30
0.0
  0
VERTEX
  5
3BF1
100
AcDbEntity
  8
0
100
AcDbVertex
100
AcDb2dVertex
 10
579.161651
 20
167.373968
 30
0.0
 42
0.058922
  0
VERTEX
  5
3BF2
100
AcDbEntity
  8
0
100
AcDbVertex
100
AcDb2dVertex
 10
583.756273
 20
167.917299
 30
0.0
 42
0.072496
  0
VERTEX
  5
3BF3
100
AcDbEntity
  8
0
100
AcDbVertex
100
AcDb2dVertex
 10
587.254335
 20
169.315093
 30
0.0
 42
0.106647
  0
VERTEX
  5
3BF4
100
AcDbEntity
  8
0
100
AcDbVertex
100
AcDb2dVertex
 10
589.863162
 20
171.684706
 30
0.0
 42
0.156489
  0
VERTEX
  5
3BF5
100
AcDbEntity
  8
0
100
AcDbVertex
100
AcDb2dVertex
 10
590.606434
 20
174.001385
 30
0.0
 42
0.156489
  0
VERTEX
  5
3BF6
100
AcDbEntity
  8
0
100
AcDbVertex
100
AcDb2dVertex
 10
589.863162
 20
176.318064
 30
0.0
 42
0.106647
  0
VERTEX
  5
3BF7
100
AcDbEntity
  8
0
100
AcDbVertex
100
AcDb2dVertex
 10
587.254335
 20
178.687676
 30
0.0
 42
0.072496
  0
VERTEX
  5
3BF8
100
AcDbEntity
  8
0
100
AcDbVertex
100
AcDb2dVertex
 10
583.756273
 20
180.08547
 30
0.0
 42
0.058922
  0
VERTEX
  5
3BF9
100
AcDbEntity
  8
0
100
AcDbVertex
100
AcDb2dVertex
 10
579.161651
 20
180.628802
 30
0.0
 42
0.058922
  0
SEQEND
  5
3BFA
100
AcDbEntity
  8
0
  0
LINE
  5
2CED
100
AcDbEntity
  8
0
100
AcDbLine
 10
579.161651
 20
180.628802
 30
0.0
 11
579.161651
 21
167.373968
 31
0.0
  0
LINE
  5
2CEE
100
AcDbEntity
  8
0
100
AcDbLine
 10
588.534234
 20
158.001385
 30
0.0
 11
579.161651
 21
167.373968
 31
0.0
  0
LINE
  5
2CEF
100
AcDbEntity
  8
0
100
AcDbLine
 10
568.661651
 20
171.251385
 30
0.0
 11
562.161651
 21
171.251385
 31
0.0
  0
LINE
  5
2CF0
100
AcDbEntity
  8
0
100
AcDbLine
 10
568.661651
 20
176.751385
 30
0.0
 11
562.161651
 21
176.751385
 31
0.0
  0
LINE
  5
2CF1
100
AcDbEntity
  8
0
100
AcDbLine
 10
561.161651
 20
172.251385
 30
0.0
 11
561.161651
 21
174.001385
 31
0.0
  0
LINE
  5
2CF2
100
AcDbEntity
  8
0
100
AcDbLine
 10
562.161651
 20
171.251385
 30
0.0
 11
562.161651
 21
176.751385
 31
0.0
  0
LINE
  5
2CF3
100
AcDbEntity
  8
0
100
AcDbLine
 10
561.161651
 20
172.251385
 30
0.0
 11
562.161651
 21
171.251385
 31
0.0
  0
LINE
  5
2CF4
100
AcDbEntity
  8
0
100
AcDbLine
 10
562.161651
 20
176.751385
 30
0.0
 11
561.161651
 21
175.751385
 31
0.0
  0
LINE
  5
2CF5
100
AcDbEntity
  8
0
100
AcDbLine
 10
572.161651
 20
178.823182
 30
0.0
 11
573.339854
 21
180.001385
 31
0.0
  0
ARC
  5
2CF6
100
AcDbEntity
  8
0
100
AcDbCircle
 10
577.723829
 20
171.001385
 30
0.0
 40
5.312178
100
AcDbArc
 50
145.615753
 51
214.384247
  0
LINE
  5
2CF7
100
AcDbEntity
  8
0
100
AcDbLine
 10
572.161651
 20
169.179588
 30
0.0
 11
573.339854
 21
168.001385
 31
0.0
  0
ARC
  5
2CF8
100
AcDbEntity
  8
0
100
AcDbCircle
 10
577.723829
 20
177.001385
 30
0.0
 40
5.312178
100
AcDbArc
 50
145.615753
 51
214.384247
  0
LINE
  5
2CF9
100
AcDbEntity
  8
0
100
AcDbLine
 10
569.661651
 20
171.251385
 30
0.0
 11
569.661651
 21
176.751385
 31
0.0
  0
LINE
  5
2CFA
100
AcDbEntity
  8
0
100
AcDbLine
 10
568.661651
 20
171.251385
 30
0.0
 11
568.661651
 21
176.751385
 31
0.0
  0
LINE
  5
2CFB
100
AcDbEntity
  8
0
100
AcDbLine
 10
572.161651
 20
169.179588
 30
0.0
 11
572.161651
 21
178.823182
 31
0.0
  0
LINE
  5
2CFC
100
AcDbEntity
  8
0
100
AcDbLine
 10
572.161651
 20
171.251385
 30
0.0
 11
569.661651
 21
171.251385
 31
0.0
  0
LINE
  5
2CFD
100
AcDbEntity
  8
0
100
AcDbLine
 10
569.661651
 20
171.501385
 30
0.0
 11
568.661651
 21
171.501385
 31
0.0
  0
LINE
  5
2CFE
100
AcDbEntity
  8
0
100
AcDbLine
 10
572.161651
 20
176.751385
 30
0.0
 11
569.661651
 21
176.751385
 31
0.0
  0
LINE
  5
2CFF
100
AcDbEntity
  8
0
100
AcDbLine
 10
569.661651
 20
176.501385
 30
0.0
 11
568.661651
 21
176.501385
 31
0.0
  0
LINE
  5
2D00
100
AcDbEntity
  8
0
100
AcDbLine
 10
577.983447
 20
174.001385
 30
0.0
 11
573.339854
 21
174.001385
 31
0.0
  0
LINE
  5
2D01
100
AcDbEntity
  8
0
100
AcDbLine
 10
577.983447
 20
180.001385
 30
0.0
 11
573.339854
 21
180.001385
 31
0.0
  0
LINE
  5
2D02
100
AcDbEntity
  8
0
100
AcDbLine
 10
577.983447
 20
168.001385
 30
0.0
 11
573.339854
 21
168.001385
 31
0.0
  0
ARC
  5
2D03
100
AcDbEntity
  8
0
100
AcDbCircle
 10
573.599473
 20
171.001385
 30
0.0
 40
5.312178
100
AcDbArc
 50
325.615753
 51
34.384247
  0
LINE
  5
2D04
100
AcDbEntity
  8
0
100
AcDbLine
 10
579.161651
 20
169.179588
 30
0.0
 11
577.983447
 21
168.001385
 31
0.0
  0
ARC
  5
2D05
100
AcDbEntity
  8
0
100
AcDbCircle
 10
573.599473
 20
177.001385
 30
0.0
 40
5.312178
100
AcDbArc
 50
325.615753
 51
34.384247
  0
LINE
  5
2D06
100
AcDbEntity
  8
0
100
AcDbLine
 10
579.161651
 20
178.823182
 30
0.0
 11
577.983447
 21
180.001385
 31
0.0
  0
LINE
  5
2D07
100
AcDbEntity
  8
0
100
AcDbLine
 10
561.161651
 20
174.001385
 30
0.0
 11
561.161651
 21
175.751385
 31
0.0
  0
LINE
  5
2D09
100
AcDbEntity
  8
0
100
AcDbLine
 10
579.161651
 20
116.829049
 30
0.0
 11
611.161651
 21
116.829049
 31
0.0
  0
LINE
  5
2D0A
100
AcDbEntity
  8
0
100
AcDbLine
 10
579.161651
 20
131.829049
 30
0.0
 11
590.606434
 21
131.829049
 31
0.0
  0
ARC
  5
2D0B
100
AcDbEntity
  8
0
100
AcDbCircle
 10
583.847942
 20
112.928773
 30
0.0
 40
15.642941
100
AcDbArc
 50
72.567701
 51
107.432299
  0
ARC
  5
2D0C
100
AcDbEntity
  8
0
100
AcDbCircle
 10
583.847942
 20
132.47199
 30
0.0
 40
15.642941
100
AcDbArc
 50
252.567701
 51
287.432299
  0
LINE
  5
2D0D
100
AcDbEntity
  8
0
100
AcDbLine
 10
587.979228
 20
131.062594
 30
0.0
 11
581.13559
 21
128.571714
 31
0.0
  0
ARC
  5
2D0E
100
AcDbEntity
  8
0
100
AcDbCircle
 10
583.847942
 20
105.919756
 30
0.0
 40
9.090707
100
AcDbArc
 50
238.968883
 51
301.031117
  0
ARC
  5
2D0F
100
AcDbEntity
  8
0
100
AcDbCircle
 10
583.847942
 20
97.738342
 30
0.0
 40
9.090707
100
AcDbArc
 50
58.968883
 51
121.031117
  0
LINE
  5
2D11
100
AcDbEntity
  8
0
100
AcDbLine
 10
581.661651
 20
92.829049
 30
0.0
 11
608.661651
 21
92.829049
 31
0.0
  0
LINE
  5
2D12
100
AcDbEntity
  8
0
100
AcDbLine
 10
608.661651
 20
94.329049
 30
0.0
 11
581.661651
 21
94.329049
 31
0.0
  0
LINE
  5
2D13
100
AcDbEntity
  8
0
100
AcDbLine
 10
579.431112
 20
96.829049
 30
0.0
 11
610.89219
 21
96.829049
 31
0.0
  0
LINE
  5
2D14
100
AcDbEntity
  8
0
100
AcDbLine
 10
579.161651
 20
106.829049
 30
0.0
 11
611.161651
 21
106.829049
 31
0.0
  0
LINE
  5
2D16
100
AcDbEntity
  8
0
100
AcDbLine
 10
568.661651
 20
127.579049
 30
0.0
 11
562.161651
 21
127.579049
 31
0.0
  0
LINE
  5
2D17
100
AcDbEntity
  8
0
100
AcDbLine
 10
568.661651
 20
122.079049
 30
0.0
 11
562.161651
 21
122.079049
 31
0.0
  0
LINE
  5
2D18
100
AcDbEntity
  8
0
100
AcDbLine
 10
561.161651
 20
123.079049
 30
0.0
 11
562.161651
 21
122.079049
 31
0.0
  0
LINE
  5
2D19
100
AcDbEntity
  8
0
100
AcDbLine
 10
562.161651
 20
122.079049
 30
0.0
 11
562.161651
 21
127.579049
 31
0.0
  0
LINE
  5
2D1A
100
AcDbEntity
  8
0
100
AcDbLine
 10
562.161651
 20
127.579049
 30
0.0
 11
561.161651
 21
126.579049
 31
0.0
  0
LINE
  5
2D1B
100
AcDbEntity
  8
0
100
AcDbLine
 10
561.161651
 20
123.079049
 30
0.0
 11
561.161651
 21
124.829049
 31
0.0
  0
LINE
  5
2D1C
100
AcDbEntity
  8
0
100
AcDbLine
 10
579.161651
 20
131.829049
 30
0.0
 11
579.161651
 21
98.07169
 31
0.0
  0
LINE
  5
2D1D
100
AcDbEntity
  8
0
100
AcDbLine
 10
580.782971
 20
95.207729
 30
0.0
 11
580.04033
 21
95.950369
 31
0.0
  0
ARC
  5
2D1E
100
AcDbEntity
  8
0
100
AcDbCircle
 10
582.161651
 20
98.07169
 30
0.0
 40
3.0
100
AcDbArc
 50
180.0
 51
225.0
  0
ARC
  5
2D1F
100
AcDbEntity
  8
0
100
AcDbCircle
 10
578.661651
 20
93.086408
 30
0.0
 40
3.0
100
AcDbArc
 50
0.0
 51
45.0
  0
LINE
  5
2D20
100
AcDbEntity
  8
0
100
AcDbLine
 10
581.661651
 20
92.829049
 30
0.0
 11
581.661651
 21
93.086408
 31
0.0
  0
ARC
  5
2D21
100
AcDbEntity
  8
0
100
AcDbCircle
 10
579.339854
 20
124.829049
 30
0.0
 40
6.928203
100
AcDbArc
 50
150.0
 51
210.0
  0
ARC
  5
2D22
100
AcDbEntity
  8
0
100
AcDbCircle
 10
574.491778
 20
119.632896
 30
0.0
 40
2.080127
100
AcDbArc
 50
123.626429
 51
213.626429
  0
LINE
  5
2D23
100
AcDbEntity
  8
0
100
AcDbLine
 10
572.161651
 20
119.079049
 30
0.0
 11
573.339854
 21
117.900846
 31
0.0
  0
LINE
  5
2D24
100
AcDbEntity
  8
0
100
AcDbLine
 10
572.161651
 20
130.579049
 30
0.0
 11
573.339854
 21
131.757252
 31
0.0
  0
ARC
  5
2D25
100
AcDbEntity
  8
0
100
AcDbCircle
 10
574.491778
 20
130.025201
 30
0.0
 40
2.080127
100
AcDbArc
 50
146.373571
 51
236.373571
  0
LINE
  5
2D26
100
AcDbEntity
  8
0
100
AcDbLine
 10
568.661651
 20
122.079049
 30
0.0
 11
568.661651
 21
127.579049
 31
0.0
  0
LINE
  5
2D27
100
AcDbEntity
  8
0
100
AcDbLine
 10
569.661651
 20
122.079049
 30
0.0
 11
569.661651
 21
127.579049
 31
0.0
  0
LINE
  5
2D28
100
AcDbEntity
  8
0
100
AcDbLine
 10
572.161651
 20
130.579049
 30
0.0
 11
572.161651
 21
119.079049
 31
0.0
  0
LINE
  5
2D29
100
AcDbEntity
  8
0
100
AcDbLine
 10
572.161651
 20
122.079049
 30
0.0
 11
569.661651
 21
122.079049
 31
0.0
  0
LINE
  5
2D2A
100
AcDbEntity
  8
0
100
AcDbLine
 10
569.661651
 20
122.329049
 30
0.0
 11
568.661651
 21
122.329049
 31
0.0
  0
LINE
  5
2D2B
100
AcDbEntity
  8
0
100
AcDbLine
 10
572.161651
 20
127.579049
 30
0.0
 11
569.661651
 21
127.579049
 31
0.0
  0
LINE
  5
2D2C
100
AcDbEntity
  8
0
100
AcDbLine
 10
569.661651
 20
127.329049
 30
0.0
 11
568.661651
 21
127.329049
 31
0.0
  0
LINE
  5
2D2D
100
AcDbEntity
  8
0
100
AcDbLine
 10
579.161651
 20
130.579049
 30
0.0
 11
577.983447
 21
131.757252
 31
0.0
  0
ARC
  5
2D2E
100
AcDbEntity
  8
0
100
AcDbCircle
 10
576.831524
 20
130.025201
 30
0.0
 40
2.080127
100
AcDbArc
 50
303.626429
 51
33.626429
  0
LINE
  5
2D2F
100
AcDbEntity
  8
0
100
AcDbLine
 10
573.339854
 20
128.29315
 30
0.0
 11
577.983447
 21
128.29315
 31
0.0
  0
LINE
  5
2D30
100
AcDbEntity
  8
0
100
AcDbLine
 10
573.339854
 20
121.364947
 30
0.0
 11
577.983447
 21
121.364947
 31
0.0
  0
LINE
  5
2D31
100
AcDbEntity
  8
0
100
AcDbLine
 10
573.339854
 20
117.900846
 30
0.0
 11
577.983447
 21
117.900846
 31
0.0
  0
ARC
  5
2D32
100
AcDbEntity
  8
0
100
AcDbCircle
 10
571.983447
 20
124.829049
 30
0.0
 40
6.928203
100
AcDbArc
 50
330.0
 51
30.0
  0
LINE
  5
2D33
100
AcDbEntity
  8
0
100
AcDbLine
 10
579.161651
 20
119.079049
 30
0.0
 11
577.983447
 21
117.900846
 31
0.0
  0
ARC
  5
2D34
100
AcDbEntity
  8
0
100
AcDbCircle
 10
576.831524
 20
119.632896
 30
0.0
 40
2.080127
100
AcDbArc
 50
326.373571
 51
56.373571
  0
LINE
  5
2D35
100
AcDbEntity
  8
0
100
AcDbLine
 10
573.339854
 20
131.757252
 30
0.0
 11
577.983447
 21
131.757252
 31
0.0
  0
ARC
  5
2D37
100
AcDbEntity
  8
0
100
AcDbCircle
 10
595.161651
 20
111.329049
 30
0.0
 40
21.0
100
AcDbArc
 50
70.0
 51
110.0
  0
ARC
  5
2D38
100
AcDbEntity
  8
0
100
AcDbCircle
 10
606.475359
 20
132.47199
 30
0.0
 40
15.642941
100
AcDbArc
 50
252.567701
 51
287.432299
  0
ARC
  5
2D39
100
AcDbEntity
  8
0
100
AcDbCircle
 10
606.475359
 20
112.928773
 30
0.0
 40
15.642941
100
AcDbArc
 50
77.31251
 51
107.432299
  0
ARC
  5
2D3A
100
AcDbEntity
  8
0
100
AcDbCircle
 10
606.475359
 20
105.919756
 30
0.0
 40
9.090707
100
AcDbArc
 50
238.968883
 51
301.031117
  0
ARC
  5
2D3B
100
AcDbEntity
  8
0
100
AcDbCircle
 10
606.475359
 20
97.738342
 30
0.0
 40
9.090707
100
AcDbArc
 50
58.968883
 51
121.031117
  0
ARC
  5
2D3C
100
AcDbEntity
  8
0
100
AcDbCircle
 10
595.161651
 20
114.359966
 30
0.0
 40
17.530917
100
AcDbArc
 50
247.787568
 51
292.212432
  0
ARC
  5
2D3D
100
AcDbEntity
  8
0
100
AcDbCircle
 10
595.161651
 20
89.298132
 30
0.0
 40
17.530917
100
AcDbArc
 50
67.787568
 51
112.212432
  0
LINE
  5
2D3E
100
AcDbEntity
  8
0
100
AcDbLine
 10
588.534234
 20
105.528055
 30
0.0
 11
588.534234
 21
98.130043
 31
0.0
  0
LINE
  5
2D3F
100
AcDbEntity
  8
0
100
AcDbLine
 10
601.789068
 20
105.528055
 30
0.0
 11
601.789068
 21
98.130043
 31
0.0
  0
ARC
  5
2D40
100
AcDbEntity
  8
0
100
AcDbCircle
 10
595.161651
 20
97.645059
 30
0.0
 40
30.926654
100
AcDbArc
 50
77.62585
 51
102.37415
  0
ARC
  5
2D41
100
AcDbEntity
  8
0
100
AcDbCircle
 10
595.161651
 20
147.755703
 30
0.0
 40
30.926654
100
AcDbArc
 50
257.62585
 51
282.37415
  0
LINE
  5
2D42
100
AcDbEntity
  8
0
100
AcDbLine
 10
588.534234
 20
127.853258
 30
0.0
 11
588.534234
 21
117.547504
 31
0.0
  0
LINE
  5
2D43
100
AcDbEntity
  8
0
100
AcDbLine
 10
601.789068
 20
127.853258
 30
0.0
 11
601.789068
 21
117.547504
 31
0.0
  0
LINE
  5
2D44
100
AcDbEntity
  8
0
100
AcDbLine
 10
611.161651
 20
125.752636
 30
0.0
 11
611.161651
 21
98.07169
 31
0.0
  0
ARC
  5
2D45
100
AcDbEntity
  8
0
100
AcDbCircle
 10
611.661651
 20
93.086408
 30
0.0
 40
3.0
100
AcDbArc
 50
135.0
 51
180.0
  0
LINE
  5
2D46
100
AcDbEntity
  8
0
100
AcDbLine
 10
608.661651
 20
92.829049
 30
0.0
 11
608.661651
 21
93.086408
 31
0.0
  0
LINE
  5
2D47
100
AcDbEntity
  8
0
100
AcDbLine
 10
609.54033
 20
95.207729
 30
0.0
 11
610.282971
 21
95.950369
 31
0.0
  0
ARC
  5
2D48
100
AcDbEntity
  8
0
100
AcDbCircle
 10
608.161651
 20
98.07169
 30
0.0
 40
3.0
100
AcDbArc
 50
315.0
 51
0.0
  0
ARC
  5
2D49
100
AcDbEntity
  8
0
100
AcDbCircle
 10
608.161651
 20
125.752636
 30
0.0
 40
3.0
100
AcDbArc
 50
0.0
 51
70.0
  0
LINE
  5
2D4A
100
AcDbEntity
  8
0
100
AcDbLine
 10
602.344074
 20
131.062594
 30
0.0
 11
609.187711
 21
128.571714
 31
0.0
  0
LINE
  5
2D4C
100
AcDbEntity
  8
0
100
AcDbLine
 10
561.161651
 20
124.829049
 30
0.0
 11
561.161651
 21
126.579049
 31
0.0
  0
TEXT
  5
2D4D
100
AcDbEntity
  8
0
100
AcDbText
 10
589.760847
 20
67.644805
 30
0.0
 40
5.0
  1
20A
 41
0.8
100
AcDbText
  0
LINE
  5
2E49
100
AcDbEntity
  8
0
100
AcDbLine
 10
242.547791
 20
386.723761
 30
0.0
 11
242.547791
 21
379.325749
 31
0.0
  0
LINE
  5
2E4A
100
AcDbEntity
  8
0
100
AcDbLine
 10
229.292957
 20
386.723761
 30
0.0
 11
229.292957
 21
379.325749
 31
0.0
  0
ARC
  5
2E4B
100
AcDbEntity
  8
0
100
AcDbCircle
 10
235.920374
 20
395.555672
 30
0.0
 40
17.530917
100
AcDbArc
 50
247.787568
 51
292.212432
  0
LINE
  5
2E4C
100
AcDbEntity
  8
0
100
AcDbLine
 10
220.189835
 20
378.024755
 30
0.0
 11
251.650913
 21
378.024755
 31
0.0
  0
LINE
  5
2E4D
100
AcDbEntity
  8
0
100
AcDbLine
 10
227.420374
 20
368.524755
 30
0.0
 11
244.420374
 21
368.524755
 31
0.0
  0
LINE
  5
2E4E
100
AcDbEntity
  8
0
100
AcDbLine
 10
227.420374
 20
370.524755
 30
0.0
 11
244.420374
 21
370.524755
 31
0.0
  0
LINE
  5
2E52
100
AcDbEntity
  8
0
100
AcDbLine
 10
220.799054
 20
377.146075
 30
0.0
 11
226.834588
 21
371.110541
 31
0.0
  0
LINE
  5
2E53
100
AcDbEntity
  8
0
100
AcDbLine
 10
227.420374
 20
368.524755
 30
0.0
 11
227.420374
 21
369.696328
 31
0.0
  0
ARC
  5
2E54
100
AcDbEntity
  8
0
100
AcDbCircle
 10
225.420374
 20
369.696328
 30
0.0
 40
2.0
100
AcDbArc
 50
0.0
 51
45.0
  0
ARC
  5
2E55
100
AcDbEntity
  8
0
100
AcDbCircle
 10
224.606666
 20
387.115462
 30
0.0
 40
9.090707
100
AcDbArc
 50
238.968883
 51
301.031117
  0
ARC
  5
2E56
100
AcDbEntity
  8
0
100
AcDbCircle
 10
222.920374
 20
379.267396
 30
0.0
 40
3.0
100
AcDbArc
 50
180.0
 51
225.0
  0
ARC
  5
2E58
100
AcDbEntity
  8
0
100
AcDbCircle
 10
247.234083
 20
387.115462
 30
0.0
 40
9.090707
100
AcDbArc
 50
238.968883
 51
301.031117
  0
ARC
  5
2E59
100
AcDbEntity
  8
0
100
AcDbCircle
 10
248.920374
 20
379.267396
 30
0.0
 40
3.0
100
AcDbArc
 50
315.0
 51
0.0
  0
LINE
  5
2E5A
100
AcDbEntity
  8
0
100
AcDbLine
 10
251.041695
 20
377.146075
 30
0.0
 11
245.006161
 21
371.110541
 31
0.0
  0
LINE
  5
2E5B
100
AcDbEntity
  8
0
100
AcDbLine
 10
244.420374
 20
368.524755
 30
0.0
 11
244.420374
 21
369.696328
 31
0.0
  0
ARC
  5
2E5C
100
AcDbEntity
  8
0
100
AcDbCircle
 10
246.420374
 20
369.696328
 30
0.0
 40
2.0
100
AcDbArc
 50
135.0
 51
180.0
  0
ARC
  5
2E5D
100
AcDbEntity
  8
0
100
AcDbCircle
 10
235.920374
 20
370.493838
 30
0.0
 40
17.530917
100
AcDbArc
 50
67.787568
 51
112.212432
  0
LINE
  5
2E5E
100
AcDbEntity
  8
0
100
AcDbLine
 10
219.920374
 20
388.024755
 30
0.0
 11
251.920374
 21
388.024755
 31
0.0
  0
ARC
  5
2E5F
100
AcDbEntity
  8
0
100
AcDbCircle
 10
224.606666
 20
378.934048
 30
0.0
 40
9.090707
100
AcDbArc
 50
58.968883
 51
121.031117
  0
ARC
  5
2E60
100
AcDbEntity
  8
0
100
AcDbCircle
 10
247.234083
 20
378.934048
 30
0.0
 40
9.090707
100
AcDbArc
 50
58.968883
 51
121.031117
  0
LINE
  5
2E61
100
AcDbEntity
  8
0
100
AcDbLine
 10
251.920374
 20
406.948342
 30
0.0
 11
251.920374
 21
379.267396
 31
0.0
  0
LINE
  5
2E62
100
AcDbEntity
  8
0
100
AcDbLine
 10
219.920374
 20
406.948342
 30
0.0
 11
219.920374
 21
379.267396
 31
0.0
  0
LINE
  5
2E63
100
AcDbEntity
  8
0
100
AcDbLine
 10
219.920374
 20
398.024755
 30
0.0
 11
251.920374
 21
398.024755
 31
0.0
  0
ARC
  5
2E86
100
AcDbEntity
  8
0
100
AcDbCircle
 10
235.920374
 20
392.524755
 30
0.0
 40
21.0
100
AcDbArc
 50
70.0
 51
110.0
  0
LINE
  5
2E87
100
AcDbEntity
  8
0
100
AcDbLine
 10
228.737951
 20
412.2583
 30
0.0
 11
221.894314
 21
409.76742
 31
0.0
  0
LINE
  5
2E88
100
AcDbEntity
  8
0
100
AcDbLine
 10
243.102797
 20
412.2583
 30
0.0
 11
249.946435
 21
409.76742
 31
0.0
  0
ARC
  5
2E89
100
AcDbEntity
  8
0
100
AcDbCircle
 10
248.920374
 20
406.948342
 30
0.0
 40
3.0
100
AcDbArc
 50
0.0
 51
70.0
  0
ARC
  5
2E8A
100
AcDbEntity
  8
0
100
AcDbCircle
 10
247.234083
 20
394.124479
 30
0.0
 40
15.642941
100
AcDbArc
 50
77.31251
 51
107.432299
  0
LINE
  5
2E8B
100
AcDbEntity
  8
0
100
AcDbLine
 10
242.547791
 20
409.048965
 30
0.0
 11
242.547791
 21
398.74321
 31
0.0
  0
ARC
  5
2E8C
100
AcDbEntity
  8
0
100
AcDbCircle
 10
235.920374
 20
428.951409
 30
0.0
 40
30.926654
100
AcDbArc
 50
257.62585
 51
282.37415
  0
ARC
  5
2E8D
100
AcDbEntity
  8
0
100
AcDbCircle
 10
247.234083
 20
413.667696
 30
0.0
 40
15.642941
100
AcDbArc
 50
252.567701
 51
287.432299
  0
ARC
  5
2E8E
100
AcDbEntity
  8
0
100
AcDbCircle
 10
235.920374
 20
378.840766
 30
0.0
 40
30.926654
100
AcDbArc
 50
77.62585
 51
102.37415
  0
LINE
  5
2E8F
100
AcDbEntity
  8
0
100
AcDbLine
 10
229.292957
 20
409.048965
 30
0.0
 11
229.292957
 21
398.74321
 31
0.0
  0
ARC
  5
2E90
100
AcDbEntity
  8
0
100
AcDbCircle
 10
224.606666
 20
413.667696
 30
0.0
 40
15.642941
100
AcDbArc
 50
252.567701
 51
287.432299
  0
ARC
  5
2E91
100
AcDbEntity
  8
0
100
AcDbCircle
 10
224.606666
 20
394.124479
 30
0.0
 40
15.642941
100
AcDbArc
 50
72.567701
 51
102.68749
  0
ARC
  5
2E92
100
AcDbEntity
  8
0
100
AcDbCircle
 10
222.920374
 20
406.948342
 30
0.0
 40
3.0
100
AcDbArc
 50
110.0
 51
180.0
  0
LINE
  5
2EBC
100
AcDbEntity
  8
0
100
AcDbLine
 10
110.885919
 20
406.948342
 30
0.0
 11
110.885919
 21
379.267396
 31
0.0
  0
LINE
  5
2EBD
100
AcDbEntity
  8
0
100
AcDbLine
 10
142.885919
 20
406.948342
 30
0.0
 11
142.885919
 21
379.267396
 31
0.0
  0
LINE
  5
2EBE
100
AcDbEntity
  8
0
100
AcDbLine
 10
120.258502
 20
409.048965
 30
0.0
 11
120.258502
 21
398.74321
 31
0.0
  0
LINE
  5
2EBF
100
AcDbEntity
  8
0
100
AcDbLine
 10
133.513336
 20
409.048965
 30
0.0
 11
133.513336
 21
398.74321
 31
0.0
  0
LINE
  5
2EC0
100
AcDbEntity
  8
0
100
AcDbLine
 10
120.258502
 20
386.723761
 30
0.0
 11
120.258502
 21
379.325749
 31
0.0
  0
LINE
  5
2EC1
100
AcDbEntity
  8
0
100
AcDbLine
 10
133.513336
 20
386.723761
 30
0.0
 11
133.513336
 21
379.325749
 31
0.0
  0
LINE
  5
2EC6
100
AcDbEntity
  8
0
100
AcDbLine
 10
118.385919
 20
370.524755
 30
0.0
 11
135.385919
 21
370.524755
 31
0.0
  0
LINE
  5
2EC7
100
AcDbEntity
  8
0
100
AcDbLine
 10
118.385919
 20
368.524755
 30
0.0
 11
135.385919
 21
368.524755
 31
0.0
  0
LINE
  5
2EC8
100
AcDbEntity
  8
0
100
AcDbLine
 10
111.15538
 20
378.024755
 30
0.0
 11
142.616458
 21
378.024755
 31
0.0
  0
ARC
  5
2EC9
100
AcDbEntity
  8
0
100
AcDbCircle
 10
126.885919
 20
395.555672
 30
0.0
 40
17.530917
100
AcDbArc
 50
247.787568
 51
292.212432
  0
ARC
  5
2ECA
100
AcDbEntity
  8
0
100
AcDbCircle
 10
113.885919
 20
379.267396
 30
0.0
 40
3.0
100
AcDbArc
 50
180.0
 51
225.0
  0
ARC
  5
2ECB
100
AcDbEntity
  8
0
100
AcDbCircle
 10
115.57221
 20
387.115462
 30
0.0
 40
9.090707
100
AcDbArc
 50
238.968883
 51
301.031117
  0
ARC
  5
2ECC
100
AcDbEntity
  8
0
100
AcDbCircle
 10
116.385919
 20
369.696328
 30
0.0
 40
2.0
100
AcDbArc
 50
0.0
 51
45.0
  0
LINE
  5
2ECD
100
AcDbEntity
  8
0
100
AcDbLine
 10
118.385919
 20
368.524755
 30
0.0
 11
118.385919
 21
369.696328
 31
0.0
  0
LINE
  5
2ECE
100
AcDbEntity
  8
0
100
AcDbLine
 10
111.764599
 20
377.146075
 30
0.0
 11
117.800132
 21
371.110541
 31
0.0
  0
ARC
  5
2ECF
100
AcDbEntity
  8
0
100
AcDbCircle
 10
137.385919
 20
369.696328
 30
0.0
 40
2.0
100
AcDbArc
 50
135.0
 51
180.0
  0
LINE
  5
2ED0
100
AcDbEntity
  8
0
100
AcDbLine
 10
135.385919
 20
368.524755
 30
0.0
 11
135.385919
 21
369.696328
 31
0.0
  0
LINE
  5
2ED1
100
AcDbEntity
  8
0
100
AcDbLine
 10
142.007239
 20
377.146075
 30
0.0
 11
135.971705
 21
371.110541
 31
0.0
  0
ARC
  5
2ED2
100
AcDbEntity
  8
0
100
AcDbCircle
 10
139.885919
 20
379.267396
 30
0.0
 40
3.0
100
AcDbArc
 50
315.0
 51
0.0
  0
ARC
  5
2ED3
100
AcDbEntity
  8
0
100
AcDbCircle
 10
138.199627
 20
387.115462
 30
0.0
 40
9.090707
100
AcDbArc
 50
238.968883
 51
301.031117
  0
LINE
  5
2ED4
100
AcDbEntity
  8
0
100
AcDbLine
 10
110.885919
 20
388.024755
 30
0.0
 11
142.885919
 21
388.024755
 31
0.0
  0
ARC
  5
2ED5
100
AcDbEntity
  8
0
100
AcDbCircle
 10
126.885919
 20
370.493838
 30
0.0
 40
17.530917
100
AcDbArc
 50
67.787568
 51
112.212432
  0
ARC
  5
2ED6
100
AcDbEntity
  8
0
100
AcDbCircle
 10
115.57221
 20
378.934048
 30
0.0
 40
9.090707
100
AcDbArc
 50
58.968883
 51
121.031117
  0
ARC
  5
2ED7
100
AcDbEntity
  8
0
100
AcDbCircle
 10
138.199627
 20
378.934048
 30
0.0
 40
9.090707
100
AcDbArc
 50
58.968883
 51
121.031117
  0
ARC
  5
2ED8
100
AcDbEntity
  8
0
100
AcDbCircle
 10
126.885919
 20
428.951409
 30
0.0
 40
30.926654
100
AcDbArc
 50
257.62585
 51
282.37415
  0
LINE
  5
2ED9
100
AcDbEntity
  8
0
100
AcDbLine
 10
110.885919
 20
398.024755
 30
0.0
 11
142.885919
 21
398.024755
 31
0.0
  0
ARC
  5
2EDA
100
AcDbEntity
  8
0
100
AcDbCircle
 10
115.57221
 20
413.667696
 30
0.0
 40
15.642941
100
AcDbArc
 50
252.567701
 51
287.432299
  0
ARC
  5
2EDB
100
AcDbEntity
  8
0
100
AcDbCircle
 10
138.199627
 20
413.667696
 30
0.0
 40
15.642941
100
AcDbArc
 50
252.567701
 51
287.432299
  0
ARC
  5
2EDC
100
AcDbEntity
  8
0
100
AcDbCircle
 10
126.885919
 20
378.840766
 30
0.0
 40
30.926654
100
AcDbArc
 50
77.62585
 51
78.290378
  0
ARC
  5
2EDD
100
AcDbEntity
  8
0
100
AcDbCircle
 10
126.885919
 20
392.524755
 30
0.0
 40
21.0
100
AcDbArc
 50
70.0
 51
110.0
  0
ARC
  5
2EDE
100
AcDbEntity
  8
0
100
AcDbCircle
 10
115.57221
 20
394.124479
 30
0.0
 40
15.642941
100
AcDbArc
 50
72.567701
 51
102.68749
  0
ARC
  5
2EDF
100
AcDbEntity
  8
0
100
AcDbCircle
 10
113.885919
 20
406.948342
 30
0.0
 40
3.0
100
AcDbArc
 50
110.0
 51
180.0
  0
LINE
  5
2EE0
100
AcDbEntity
  8
0
100
AcDbLine
 10
119.703496
 20
412.2583
 30
0.0
 11
112.859858
 21
409.76742
 31
0.0
  0
ARC
  5
2EE1
100
AcDbEntity
  8
0
100
AcDbCircle
 10
138.199627
 20
394.124479
 30
0.0
 40
15.642941
100
AcDbArc
 50
77.31251
 51
107.432299
  0
ARC
  5
2EE2
100
AcDbEntity
  8
0
100
AcDbCircle
 10
139.885919
 20
406.948342
 30
0.0
 40
3.0
100
AcDbArc
 50
0.0
 51
70.0
  0
LINE
  5
2EE3
100
AcDbEntity
  8
0
100
AcDbLine
 10
134.068342
 20
412.2583
 30
0.0
 11
140.911979
 21
409.76742
 31
0.0
  0
POLYLINE
  5
2EE7
100
AcDbEntity
  8
0
100
AcDb2dPolyline
 66
     1
 10
0.0
 20
0.0
 30
0.0
 70
     1
  0
VERTEX
  5
3BFB
100
AcDbEntity
  8
0
100
AcDbVertex
100
AcDb2dVertex
 10
126.885919
 20
412.952958
 30
0.0
  0
VERTEX
  5
3BFC
100
AcDbEntity
  8
0
100
AcDbVertex
100
AcDb2dVertex
 10
120.885919
 20
409.488857
 30
0.0
  0
VERTEX
  5
3BFD
100
AcDbEntity
  8
0
100
AcDbVertex
100
AcDb2dVertex
 10
120.885919
 20
402.560653
 30
0.0
  0
VERTEX
  5
3BFE
100
AcDbEntity
  8
0
100
AcDbVertex
100
AcDb2dVertex
 10
126.885919
 20
399.096552
 30
0.0
  0
VERTEX
  5
3BFF
100
AcDbEntity
  8
0
100
AcDbVertex
100
AcDb2dVertex
 10
132.885919
 20
402.560653
 30
0.0
  0
VERTEX
  5
3C00
100
AcDbEntity
  8
0
100
AcDbVertex
100
AcDb2dVertex
 10
132.885919
 20
409.488857
 30
0.0
  0
SEQEND
  5
3C01
100
AcDbEntity
  8
0
  0
ARC
  5
2EE8
100
AcDbEntity
  8
0
100
AcDbCircle
 10
126.885919
 20
406.024755
 30
0.0
 40
7.0
100
AcDbArc
 50
18.777835
 51
161.222165
  0
ARC
  5
2EE9
100
AcDbEntity
  8
0
100
AcDbCircle
 10
126.885919
 20
378.840766
 30
0.0
 40
30.926654
100
AcDbArc
 50
101.709622
 51
102.37415
  0
CIRCLE
  5
2EEA
100
AcDbEntity
  8
0
100
AcDbCircle
 10
126.885919
 20
406.024755
 30
0.0
 40
5.75
  0
CIRCLE
  5
2EEF
100
AcDbEntity
  8
0
100
AcDbCircle
 10
126.885919
 20
406.024755
 30
0.0
 40
2.75
  0
CIRCLE
  5
2EF0
100
AcDbEntity
  8
0
100
AcDbCircle
 10
126.885919
 20
406.024755
 30
0.0
 40
1.75
  0
LINE
  5
2F21
100
AcDbEntity
  8
0
100
AcDbLine
 10
498.368761
 20
370.524755
 30
0.0
 11
515.368761
 21
370.524755
 31
0.0
  0
LINE
  5
2F22
100
AcDbEntity
  8
0
100
AcDbLine
 10
498.368761
 20
368.524755
 30
0.0
 11
515.368761
 21
368.524755
 31
0.0
  0
LINE
  5
2F23
100
AcDbEntity
  8
0
100
AcDbLine
 10
490.868761
 20
388.024755
 30
0.0
 11
522.868761
 21
388.024755
 31
0.0
  0
LINE
  5
2F24
100
AcDbEntity
  8
0
100
AcDbLine
 10
491.138222
 20
378.024755
 30
0.0
 11
522.5993
 21
378.024755
 31
0.0
  0
ARC
  5
2F25
100
AcDbEntity
  8
0
100
AcDbCircle
 10
506.868761
 20
395.555672
 30
0.0
 40
17.530917
100
AcDbArc
 50
247.787568
 51
292.212432
  0
ARC
  5
2F26
100
AcDbEntity
  8
0
100
AcDbCircle
 10
506.868761
 20
370.493838
 30
0.0
 40
17.530917
100
AcDbArc
 50
67.787568
 51
112.212432
  0
LINE
  5
2F27
100
AcDbEntity
  8
0
100
AcDbLine
 10
500.241344
 20
386.723761
 30
0.0
 11
500.241344
 21
379.325749
 31
0.0
  0
LINE
  5
2F2A
100
AcDbEntity
  8
0
100
AcDbLine
 10
491.74744
 20
377.146075
 30
0.0
 11
497.782974
 21
371.110541
 31
0.0
  0
LINE
  5
2F2B
100
AcDbEntity
  8
0
100
AcDbLine
 10
498.368761
 20
368.524755
 30
0.0
 11
498.368761
 21
369.696328
 31
0.0
  0
ARC
  5
2F2C
100
AcDbEntity
  8
0
100
AcDbCircle
 10
496.368761
 20
369.696328
 30
0.0
 40
2.0
100
AcDbArc
 50
0.0
 51
45.0
  0
ARC
  5
2F2D
100
AcDbEntity
  8
0
100
AcDbCircle
 10
495.555052
 20
387.115462
 30
0.0
 40
9.090707
100
AcDbArc
 50
238.968883
 51
301.031117
  0
ARC
  5
2F2E
100
AcDbEntity
  8
0
100
AcDbCircle
 10
493.868761
 20
379.267396
 30
0.0
 40
3.0
100
AcDbArc
 50
180.0
 51
225.0
  0
ARC
  5
2F2F
100
AcDbEntity
  8
0
100
AcDbCircle
 10
495.555052
 20
378.934048
 30
0.0
 40
9.090707
100
AcDbArc
 50
58.968883
 51
121.031117
  0
LINE
  5
2F30
100
AcDbEntity
  8
0
100
AcDbLine
 10
513.496178
 20
386.723761
 30
0.0
 11
513.496178
 21
379.325749
 31
0.0
  0
ARC
  5
2F32
100
AcDbEntity
  8
0
100
AcDbCircle
 10
517.368761
 20
369.696328
 30
0.0
 40
2.0
100
AcDbArc
 50
135.0
 51
180.0
  0
LINE
  5
2F33
100
AcDbEntity
  8
0
100
AcDbLine
 10
515.368761
 20
368.524755
 30
0.0
 11
515.368761
 21
369.696328
 31
0.0
  0
LINE
  5
2F34
100
AcDbEntity
  8
0
100
AcDbLine
 10
521.990081
 20
377.146075
 30
0.0
 11
515.954547
 21
371.110541
 31
0.0
  0
ARC
  5
2F35
100
AcDbEntity
  8
0
100
AcDbCircle
 10
519.868761
 20
379.267396
 30
0.0
 40
3.0
100
AcDbArc
 50
315.0
 51
0.0
  0
ARC
  5
2F36
100
AcDbEntity
  8
0
100
AcDbCircle
 10
518.182469
 20
387.115462
 30
0.0
 40
9.090707
100
AcDbArc
 50
238.968883
 51
301.031117
  0
ARC
  5
2F37
100
AcDbEntity
  8
0
100
AcDbCircle
 10
518.182469
 20
378.934048
 30
0.0
 40
9.090707
100
AcDbArc
 50
58.968883
 51
121.031117
  0
LINE
  5
2F38
100
AcDbEntity
  8
0
100
AcDbLine
 10
513.496178
 20
409.048965
 30
0.0
 11
513.496178
 21
398.74321
 31
0.0
  0
LINE
  5
2F39
100
AcDbEntity
  8
0
100
AcDbLine
 10
522.868761
 20
406.948342
 30
0.0
 11
522.868761
 21
379.267396
 31
0.0
  0
LINE
  5
2F3A
100
AcDbEntity
  8
0
100
AcDbLine
 10
490.868761
 20
398.024755
 30
0.0
 11
522.868761
 21
398.024755
 31
0.0
  0
LINE
  5
2F3B
100
AcDbEntity
  8
0
100
AcDbLine
 10
490.868761
 20
398.024755
 30
0.0
 11
522.868761
 21
398.024755
 31
0.0
  0
ARC
  5
2F3C
100
AcDbEntity
  8
0
100
AcDbCircle
 10
506.868761
 20
428.951409
 30
0.0
 40
30.926654
100
AcDbArc
 50
257.62585
 51
282.37415
  0
ARC
  5
2F3D
100
AcDbEntity
  8
0
100
AcDbCircle
 10
518.182469
 20
413.667696
 30
0.0
 40
15.642941
100
AcDbArc
 50
252.567701
 51
287.432299
  0
ARC
  5
2F3E
100
AcDbEntity
  8
0
100
AcDbCircle
 10
506.868761
 20
392.524755
 30
0.0
 40
21.0
100
AcDbArc
 50
70.0
 51
110.0
  0
ARC
  5
2F3F
100
AcDbEntity
  8
0
100
AcDbCircle
 10
506.868761
 20
378.840766
 30
0.0
 40
30.926654
100
AcDbArc
 50
77.62585
 51
102.37415
  0
ARC
  5
2F40
100
AcDbEntity
  8
0
100
AcDbCircle
 10
518.182469
 20
394.124479
 30
0.0
 40
15.642941
100
AcDbArc
 50
77.31251
 51
107.432299
  0
ARC
  5
2F41
100
AcDbEntity
  8
0
100
AcDbCircle
 10
519.868761
 20
406.948342
 30
0.0
 40
3.0
100
AcDbArc
 50
0.0
 51
70.0
  0
LINE
  5
2F42
100
AcDbEntity
  8
0
100
AcDbLine
 10
514.051184
 20
412.2583
 30
0.0
 11
520.894821
 21
409.76742
 31
0.0
  0
LINE
  5
2F43
100
AcDbEntity
  8
0
100
AcDbLine
 10
500.241344
 20
409.048965
 30
0.0
 11
500.241344
 21
398.74321
 31
0.0
  0
ARC
  5
2F44
100
AcDbEntity
  8
0
100
AcDbCircle
 10
495.555052
 20
413.667696
 30
0.0
 40
15.642941
100
AcDbArc
 50
252.567701
 51
287.432299
  0
LINE
  5
2F45
100
AcDbEntity
  8
0
100
AcDbLine
 10
499.686338
 20
412.2583
 30
0.0
 11
492.8427
 21
409.76742
 31
0.0
  0
ARC
  5
2F46
100
AcDbEntity
  8
0
100
AcDbCircle
 10
495.555052
 20
394.124479
 30
0.0
 40
15.642941
100
AcDbArc
 50
72.567701
 51
102.68749
  0
LINE
  5
2F47
100
AcDbEntity
  8
0
100
AcDbLine
 10
490.868761
 20
406.948342
 30
0.0
 11
490.868761
 21
379.267396
 31
0.0
  0
ARC
  5
2F48
100
AcDbEntity
  8
0
100
AcDbCircle
 10
493.868761
 20
406.948342
 30
0.0
 40
3.0
100
AcDbArc
 50
110.0
 51
180.0
  0
LINE
  5
2F4F
100
AcDbEntity
  8
0
100
AcDbLine
 10
240.585937
 20
361.024755
 30
0.0
 11
240.820312
 21
368.524755
 31
0.0
  0
LINE
  5
2F50
100
AcDbEntity
  8
0
100
AcDbLine
 10
231.254812
 20
361.024755
 30
0.0
 11
231.020437
 21
368.524755
 31
0.0
  0
LINE
  5
2F52
100
AcDbEntity
  8
0
100
AcDbLine
 10
231.254812
 20
361.024755
 30
0.0
 11
240.585937
 21
361.024755
 31
0.0
  0
LINE
  5
2F53
100
AcDbEntity
  8
0
100
AcDbLine
 10
184.23651
 20
361.024755
 30
0.0
 11
193.567635
 21
361.024755
 31
0.0
  0
LINE
  5
2F54
100
AcDbEntity
  8
0
100
AcDbLine
 10
193.567635
 20
361.024755
 30
0.0
 11
193.80201
 21
368.524755
 31
0.0
  0
LINE
  5
2F55
100
AcDbEntity
  8
0
100
AcDbLine
 10
184.23651
 20
361.024755
 30
0.0
 11
184.002135
 21
368.524755
 31
0.0
  0
LINE
  5
2F56
100
AcDbEntity
  8
0
100
AcDbLine
 10
122.220356
 20
361.024755
 30
0.0
 11
131.551481
 21
361.024755
 31
0.0
  0
LINE
  5
2F57
100
AcDbEntity
  8
0
100
AcDbLine
 10
131.551481
 20
361.024755
 30
0.0
 11
131.785856
 21
368.524755
 31
0.0
  0
LINE
  5
2F58
100
AcDbEntity
  8
0
100
AcDbLine
 10
122.220356
 20
361.024755
 30
0.0
 11
121.985981
 21
368.524755
 31
0.0
  0
LINE
  5
2F5F
100
AcDbEntity
  8
0
100
AcDbLine
 10
452.305047
 20
361.024755
 30
0.0
 11
465.086422
 21
361.024755
 31
0.0
  0
LINE
  5
2F60
100
AcDbEntity
  8
0
100
AcDbLine
 10
465.086422
 20
361.024755
 30
0.0
 11
465.320797
 21
368.524755
 31
0.0
  0
LINE
  5
2F61
100
AcDbEntity
  8
0
100
AcDbLine
 10
452.305047
 20
361.024755
 30
0.0
 11
452.070672
 21
368.524755
 31
0.0
  0
LINE
  5
2F66
100
AcDbEntity
  8
0
100
AcDbLine
 10
500.478073
 20
361.024755
 30
0.0
 11
513.259448
 21
361.024755
 31
0.0
  0
LINE
  5
2F67
100
AcDbEntity
  8
0
100
AcDbLine
 10
513.259448
 20
361.024755
 30
0.0
 11
513.493823
 21
368.524755
 31
0.0
  0
LINE
  5
2F68
100
AcDbEntity
  8
0
100
AcDbLine
 10
500.478073
 20
361.024755
 30
0.0
 11
500.243698
 21
368.524755
 31
0.0
  0
LINE
  5
2F69
100
AcDbEntity
  8
0
100
AcDbLine
 10
403.175167
 20
409.048965
 30
0.0
 11
403.175167
 21
398.74321
 31
0.0
  0
LINE
  5
2F6A
100
AcDbEntity
  8
0
100
AcDbLine
 10
412.54775
 20
406.948342
 30
0.0
 11
412.54775
 21
379.267396
 31
0.0
  0
LINE
  5
2F6B
100
AcDbEntity
  8
0
100
AcDbLine
 10
389.920333
 20
409.048965
 30
0.0
 11
389.920333
 21
398.74321
 31
0.0
  0
LINE
  5
2F6C
100
AcDbEntity
  8
0
100
AcDbLine
 10
380.54775
 20
406.948342
 30
0.0
 11
380.54775
 21
379.267396
 31
0.0
  0
LINE
  5
2F6D
100
AcDbEntity
  8
0
100
AcDbLine
 10
389.920333
 20
386.723761
 30
0.0
 11
389.920333
 21
379.325749
 31
0.0
  0
LINE
  5
2F6E
100
AcDbEntity
  8
0
100
AcDbLine
 10
403.175167
 20
386.723761
 30
0.0
 11
403.175167
 21
379.325749
 31
0.0
  0
LINE
  5
2F6F
100
AcDbEntity
  8
0
100
AcDbLine
 10
390.157063
 20
361.024755
 30
0.0
 11
402.938438
 21
361.024755
 31
0.0
  0
LINE
  5
2F70
100
AcDbEntity
  8
0
100
AcDbLine
 10
388.04775
 20
370.524755
 30
0.0
 11
405.04775
 21
370.524755
 31
0.0
  0
LINE
  5
2F71
100
AcDbEntity
  8
0
100
AcDbLine
 10
388.04775
 20
368.524755
 30
0.0
 11
405.04775
 21
368.524755
 31
0.0
  0
LINE
  5
2F72
100
AcDbEntity
  8
0
100
AcDbLine
 10
380.817211
 20
378.024755
 30
0.0
 11
412.278289
 21
378.024755
 31
0.0
  0
ARC
  5
2F73
100
AcDbEntity
  8
0
100
AcDbCircle
 10
396.54775
 20
395.555672
 30
0.0
 40
17.530917
100
AcDbArc
 50
247.787568
 51
292.212432
  0
LINE
  5
2F74
100
AcDbEntity
  8
0
100
AcDbLine
 10
390.157063
 20
361.024755
 30
0.0
 11
389.922688
 21
368.524755
 31
0.0
  0
LINE
  5
2F75
100
AcDbEntity
  8
0
100
AcDbLine
 10
381.42643
 20
377.146075
 30
0.0
 11
387.461964
 21
371.110541
 31
0.0
  0
LINE
  5
2F76
100
AcDbEntity
  8
0
100
AcDbLine
 10
388.04775
 20
368.524755
 30
0.0
 11
388.04775
 21
369.696328
 31
0.0
  0
ARC
  5
2F77
100
AcDbEntity
  8
0
100
AcDbCircle
 10
386.04775
 20
369.696328
 30
0.0
 40
2.0
100
AcDbArc
 50
0.0
 51
45.0
  0
ARC
  5
2F78
100
AcDbEntity
  8
0
100
AcDbCircle
 10
385.234042
 20
387.115462
 30
0.0
 40
9.090707
100
AcDbArc
 50
238.968883
 51
301.031117
  0
ARC
  5
2F79
100
AcDbEntity
  8
0
100
AcDbCircle
 10
383.54775
 20
379.267396
 30
0.0
 40
3.0
100
AcDbArc
 50
180.0
 51
225.0
  0
LINE
  5
2F7A
100
AcDbEntity
  8
0
100
AcDbLine
 10
402.938438
 20
361.024755
 30
0.0
 11
403.172813
 21
368.524755
 31
0.0
  0
ARC
  5
2F7B
100
AcDbEntity
  8
0
100
AcDbCircle
 10
407.04775
 20
369.696328
 30
0.0
 40
2.0
100
AcDbArc
 50
135.0
 51
180.0
  0
LINE
  5
2F7C
100
AcDbEntity
  8
0
100
AcDbLine
 10
405.04775
 20
368.524755
 30
0.0
 11
405.04775
 21
369.696328
 31
0.0
  0
LINE
  5
2F7D
100
AcDbEntity
  8
0
100
AcDbLine
 10
411.66907
 20
377.146075
 30
0.0
 11
405.633536
 21
371.110541
 31
0.0
  0
ARC
  5
2F7E
100
AcDbEntity
  8
0
100
AcDbCircle
 10
409.54775
 20
379.267396
 30
0.0
 40
3.0
100
AcDbArc
 50
315.0
 51
0.0
  0
ARC
  5
2F7F
100
AcDbEntity
  8
0
100
AcDbCircle
 10
407.861459
 20
387.115462
 30
0.0
 40
9.090707
100
AcDbArc
 50
238.968883
 51
301.031117
  0
LINE
  5
2F80
100
AcDbEntity
  8
0
100
AcDbLine
 10
380.54775
 20
398.024755
 30
0.0
 11
412.54775
 21
398.024755
 31
0.0
  0
LINE
  5
2F81
100
AcDbEntity
  8
0
100
AcDbLine
 10
380.54775
 20
398.024755
 30
0.0
 11
412.54775
 21
398.024755
 31
0.0
  0
ARC
  5
2F82
100
AcDbEntity
  8
0
100
AcDbCircle
 10
396.54775
 20
428.951409
 30
0.0
 40
30.926654
100
AcDbArc
 50
257.62585
 51
282.37415
  0
LINE
  5
2F83
100
AcDbEntity
  8
0
100
AcDbLine
 10
380.54775
 20
388.024755
 30
0.0
 11
412.54775
 21
388.024755
 31
0.0
  0
ARC
  5
2F84
100
AcDbEntity
  8
0
100
AcDbCircle
 10
396.54775
 20
370.493838
 30
0.0
 40
17.530917
100
AcDbArc
 50
67.787568
 51
112.212432
  0
ARC
  5
2F85
100
AcDbEntity
  8
0
100
AcDbCircle
 10
385.234042
 20
378.934048
 30
0.0
 40
9.090707
100
AcDbArc
 50
58.968883
 51
121.031117
  0
ARC
  5
2F86
100
AcDbEntity
  8
0
100
AcDbCircle
 10
385.234042
 20
413.667696
 30
0.0
 40
15.642941
100
AcDbArc
 50
252.567701
 51
287.432299
  0
ARC
  5
2F87
100
AcDbEntity
  8
0
100
AcDbCircle
 10
407.861459
 20
378.934048
 30
0.0
 40
9.090707
100
AcDbArc
 50
58.968883
 51
121.031117
  0
ARC
  5
2F88
100
AcDbEntity
  8
0
100
AcDbCircle
 10
407.861459
 20
413.667696
 30
0.0
 40
15.642941
100
AcDbArc
 50
252.567701
 51
287.432299
  0
ARC
  5
2F89
100
AcDbEntity
  8
0
100
AcDbCircle
 10
396.54775
 20
392.524755
 30
0.0
 40
21.0
100
AcDbArc
 50
70.0
 51
110.0
  0
ARC
  5
2F8A
100
AcDbEntity
  8
0
100
AcDbCircle
 10
396.54775
 20
378.840766
 30
0.0
 40
30.926654
100
AcDbArc
 50
77.62585
 51
78.290378
  0
LINE
  5
2F8B
100
AcDbEntity
  8
0
100
AcDbLine
 10
389.365327
 20
412.2583
 30
0.0
 11
382.52169
 21
409.76742
 31
0.0
  0
ARC
  5
2F8C
100
AcDbEntity
  8
0
100
AcDbCircle
 10
383.54775
 20
406.948342
 30
0.0
 40
3.0
100
AcDbArc
 50
110.0
 51
180.0
  0
ARC
  5
2F8D
100
AcDbEntity
  8
0
100
AcDbCircle
 10
385.234042
 20
394.124479
 30
0.0
 40
15.642941
100
AcDbArc
 50
72.567701
 51
102.68749
  0
ARC
  5
2F8E
100
AcDbEntity
  8
0
100
AcDbCircle
 10
407.861459
 20
394.124479
 30
0.0
 40
15.642941
100
AcDbArc
 50
77.31251
 51
107.432299
  0
ARC
  5
2F8F
100
AcDbEntity
  8
0
100
AcDbCircle
 10
409.54775
 20
406.948342
 30
0.0
 40
3.0
100
AcDbArc
 50
0.0
 51
70.0
  0
LINE
  5
2F90
100
AcDbEntity
  8
0
100
AcDbLine
 10
403.730173
 20
412.2583
 30
0.0
 11
410.57381
 21
409.76742
 31
0.0
  0
CIRCLE
  5
2F91
100
AcDbEntity
  8
0
100
AcDbCircle
 10
396.54775
 20
406.024755
 30
0.0
 40
5.75
  0
POLYLINE
  5
2F92
100
AcDbEntity
  8
0
100
AcDb2dPolyline
 66
     1
 10
0.0
 20
0.0
 30
0.0
 70
     1
  0
VERTEX
  5
3C02
100
AcDbEntity
  8
0
100
AcDbVertex
100
AcDb2dVertex
 10
396.54775
 20
412.952958
 30
0.0
  0
VERTEX
  5
3C03
100
AcDbEntity
  8
0
100
AcDbVertex
100
AcDb2dVertex
 10
390.54775
 20
409.488857
 30
0.0
  0
VERTEX
  5
3C04
100
AcDbEntity
  8
0
100
AcDbVertex
100
AcDb2dVertex
 10
390.54775
 20
402.560653
 30
0.0
  0
VERTEX
  5
3C05
100
AcDbEntity
  8
0
100
AcDbVertex
100
AcDb2dVertex
 10
396.54775
 20
399.096552
 30
0.0
  0
VERTEX
  5
3C06
100
AcDbEntity
  8
0
100
AcDbVertex
100
AcDb2dVertex
 10
402.54775
 20
402.560653
 30
0.0
  0
VERTEX
  5
3C07
100
AcDbEntity
  8
0
100
AcDbVertex
100
AcDb2dVertex
 10
402.54775
 20
409.488857
 30
0.0
  0
SEQEND
  5
3C08
100
AcDbEntity
  8
0
  0
ARC
  5
2F93
100
AcDbEntity
  8
0
100
AcDbCircle
 10
396.54775
 20
406.024755
 30
0.0
 40
7.0
100
AcDbArc
 50
18.777835
 51
161.222165
  0
CIRCLE
  5
2F94
100
AcDbEntity
  8
0
100
AcDbCircle
 10
396.54775
 20
406.024755
 30
0.0
 40
1.75
  0
CIRCLE
  5
2F95
100
AcDbEntity
  8
0
100
AcDbCircle
 10
396.54775
 20
406.024755
 30
0.0
 40
2.75
  0
ARC
  5
2F96
100
AcDbEntity
  8
0
100
AcDbCircle
 10
396.54775
 20
378.840766
 30
0.0
 40
30.926654
100
AcDbArc
 50
101.709622
 51
102.37415
  0
LINE
  5
2FC9
100
AcDbEntity
  8
0
100
AcDbLine
 10
737.349867
 20
361.024755
 30
0.0
 11
737.052992
 21
370.524755
 31
0.0
  0
LINE
  5
2FCA
100
AcDbEntity
  8
0
100
AcDbLine
 10
753.614992
 20
361.024755
 30
0.0
 11
753.911867
 21
370.524755
 31
0.0
  0
LINE
  5
2FCB
100
AcDbEntity
  8
0
100
AcDbLine
 10
737.349867
 20
361.024755
 30
0.0
 11
753.614992
 21
361.024755
 31
0.0
  0
LINE
  5
2FCC
100
AcDbEntity
  8
0
100
AcDbLine
 10
801.863696
 20
409.048965
 30
0.0
 11
801.863696
 21
398.74321
 31
0.0
  0
LINE
  5
2FCD
100
AcDbEntity
  8
0
100
AcDbLine
 10
811.236279
 20
406.948342
 30
0.0
 11
811.236279
 21
379.267396
 31
0.0
  0
LINE
  5
2FCE
100
AcDbEntity
  8
0
100
AcDbLine
 10
801.863696
 20
386.723761
 30
0.0
 11
801.863696
 21
379.325749
 31
0.0
  0
LINE
  5
2FCF
100
AcDbEntity
  8
0
100
AcDbLine
 10
803.368842
 20
361.024755
 30
0.0
 11
803.665717
 21
370.524755
 31
0.0
  0
LINE
  5
2FD0
100
AcDbEntity
  8
0
100
AcDbLine
 10
785.236279
 20
372.024755
 30
0.0
 11
805.236279
 21
372.024755
 31
0.0
  0
LINE
  5
2FD1
100
AcDbEntity
  8
0
100
AcDbLine
 10
785.236279
 20
370.524755
 30
0.0
 11
805.236279
 21
370.524755
 31
0.0
  0
LINE
  5
2FD2
100
AcDbEntity
  8
0
100
AcDbLine
 10
779.50574
 20
378.024755
 30
0.0
 11
810.966818
 21
378.024755
 31
0.0
  0
ARC
  5
2FD3
100
AcDbEntity
  8
0
100
AcDbCircle
 10
795.236279
 20
395.555672
 30
0.0
 40
17.530917
100
AcDbArc
 50
247.787568
 51
292.212432
  0
ARC
  5
2FD4
100
AcDbEntity
  8
0
100
AcDbCircle
 10
806.236279
 20
371.610541
 30
0.0
 40
1.0
100
AcDbArc
 50
135.0
 51
180.0
  0
LINE
  5
2FD5
100
AcDbEntity
  8
0
100
AcDbLine
 10
810.3576
 20
377.146075
 30
0.0
 11
805.529173
 21
372.317648
 31
0.0
  0
ARC
  5
2FD6
100
AcDbEntity
  8
0
100
AcDbCircle
 10
806.549988
 20
387.115462
 30
0.0
 40
9.090707
100
AcDbArc
 50
238.968883
 51
301.031117
  0
ARC
  5
2FD7
100
AcDbEntity
  8
0
100
AcDbCircle
 10
808.236279
 20
379.267396
 30
0.0
 40
3.0
100
AcDbArc
 50
315.0
 51
0.0
  0
LINE
  5
2FD8
100
AcDbEntity
  8
0
100
AcDbLine
 10
805.236279
 20
370.524755
 30
0.0
 11
805.236279
 21
371.610541
 31
0.0
  0
LINE
  5
2FD9
100
AcDbEntity
  8
0
100
AcDbLine
 10
779.236279
 20
388.024755
 30
0.0
 11
811.236279
 21
388.024755
 31
0.0
  0
ARC
  5
2FDA
100
AcDbEntity
  8
0
100
AcDbCircle
 10
795.236279
 20
370.493838
 30
0.0
 40
17.530917
100
AcDbArc
 50
67.787568
 51
112.212432
  0
ARC
  5
2FDB
100
AcDbEntity
  8
0
100
AcDbCircle
 10
806.549988
 20
378.934048
 30
0.0
 40
9.090707
100
AcDbArc
 50
58.968883
 51
121.031117
  0
LINE
  5
2FDC
100
AcDbEntity
  8
0
100
AcDbLine
 10
779.236279
 20
398.024755
 30
0.0
 11
811.236279
 21
398.024755
 31
0.0
  0
LINE
  5
2FDD
100
AcDbEntity
  8
0
100
AcDbLine
 10
779.236279
 20
398.024755
 30
0.0
 11
811.236279
 21
398.024755
 31
0.0
  0
ARC
  5
2FDE
100
AcDbEntity
  8
0
100
AcDbCircle
 10
795.236279
 20
428.951409
 30
0.0
 40
30.926654
100
AcDbArc
 50
257.62585
 51
282.37415
  0
ARC
  5
2FDF
100
AcDbEntity
  8
0
100
AcDbCircle
 10
806.549988
 20
413.667696
 30
0.0
 40
15.642941
100
AcDbArc
 50
252.567701
 51
287.432299
  0
ARC
  5
2FE0
100
AcDbEntity
  8
0
100
AcDbCircle
 10
795.236279
 20
392.524755
 30
0.0
 40
21.0
100
AcDbArc
 50
70.0
 51
110.0
  0
ARC
  5
2FE1
100
AcDbEntity
  8
0
100
AcDbCircle
 10
795.236279
 20
378.840766
 30
0.0
 40
30.926654
100
AcDbArc
 50
77.62585
 51
102.37415
  0
ARC
  5
2FE2
100
AcDbEntity
  8
0
100
AcDbCircle
 10
806.549988
 20
394.124479
 30
0.0
 40
15.642941
100
AcDbArc
 50
77.31251
 51
107.432299
  0
ARC
  5
2FE3
100
AcDbEntity
  8
0
100
AcDbCircle
 10
808.236279
 20
406.948342
 30
0.0
 40
3.0
100
AcDbArc
 50
0.0
 51
70.0
  0
LINE
  5
2FE4
100
AcDbEntity
  8
0
100
AcDbLine
 10
802.418702
 20
412.2583
 30
0.0
 11
809.26234
 21
409.76742
 31
0.0
  0
LINE
  5
2FE5
100
AcDbEntity
  8
0
100
AcDbLine
 10
788.608862
 20
386.723761
 30
0.0
 11
788.608862
 21
379.325749
 31
0.0
  0
LINE
  5
2FE6
100
AcDbEntity
  8
0
100
AcDbLine
 10
787.103717
 20
361.024755
 30
0.0
 11
786.806842
 21
370.524755
 31
0.0
  0
LINE
  5
2FE7
100
AcDbEntity
  8
0
100
AcDbLine
 10
787.103717
 20
361.024755
 30
0.0
 11
803.368842
 21
361.024755
 31
0.0
  0
ARC
  5
2FE8
100
AcDbEntity
  8
0
100
AcDbCircle
 10
783.922571
 20
387.115462
 30
0.0
 40
9.090707
100
AcDbArc
 50
238.968883
 51
301.031117
  0
ARC
  5
2FE9
100
AcDbEntity
  8
0
100
AcDbCircle
 10
782.236279
 20
379.267396
 30
0.0
 40
3.0
100
AcDbArc
 50
180.0
 51
225.0
  0
ARC
  5
2FEA
100
AcDbEntity
  8
0
100
AcDbCircle
 10
784.236279
 20
371.610541
 30
0.0
 40
1.0
100
AcDbArc
 50
0.0
 51
45.0
  0
LINE
  5
2FEB
100
AcDbEntity
  8
0
100
AcDbLine
 10
780.114959
 20
377.146075
 30
0.0
 11
784.943386
 21
372.317648
 31
0.0
  0
LINE
  5
2FEC
100
AcDbEntity
  8
0
100
AcDbLine
 10
785.236279
 20
370.524755
 30
0.0
 11
785.236279
 21
371.610541
 31
0.0
  0
ARC
  5
2FED
100
AcDbEntity
  8
0
100
AcDbCircle
 10
783.922571
 20
378.934048
 30
0.0
 40
9.090707
100
AcDbArc
 50
58.968883
 51
121.031117
  0
LINE
  5
2FEE
100
AcDbEntity
  8
0
100
AcDbLine
 10
779.236279
 20
406.948342
 30
0.0
 11
779.236279
 21
379.267396
 31
0.0
  0
LINE
  5
2FEF
100
AcDbEntity
  8
0
100
AcDbLine
 10
788.608862
 20
409.048965
 30
0.0
 11
788.608862
 21
398.74321
 31
0.0
  0
ARC
  5
2FF0
100
AcDbEntity
  8
0
100
AcDbCircle
 10
783.922571
 20
413.667696
 30
0.0
 40
15.642941
100
AcDbArc
 50
252.567701
 51
287.432299
  0
ARC
  5
2FF1
100
AcDbEntity
  8
0
100
AcDbCircle
 10
783.922571
 20
394.124479
 30
0.0
 40
15.642941
100
AcDbArc
 50
72.567701
 51
102.68749
  0
LINE
  5
2FF2
100
AcDbEntity
  8
0
100
AcDbLine
 10
788.053856
 20
412.2583
 30
0.0
 11
781.210219
 21
409.76742
 31
0.0
  0
ARC
  5
2FF3
100
AcDbEntity
  8
0
100
AcDbCircle
 10
782.236279
 20
406.948342
 30
0.0
 40
3.0
100
AcDbArc
 50
110.0
 51
180.0
  0
LINE
  5
2FF5
100
AcDbEntity
  8
0
100
AcDbLine
 10
667.064962
 20
406.948342
 30
0.0
 11
667.064962
 21
379.267396
 31
0.0
  0
LINE
  5
2FF6
100
AcDbEntity
  8
0
100
AcDbLine
 10
676.437545
 20
409.048965
 30
0.0
 11
676.437545
 21
398.74321
 31
0.0
  0
LINE
  5
2FF7
100
AcDbEntity
  8
0
100
AcDbLine
 10
699.064962
 20
406.948342
 30
0.0
 11
699.064962
 21
379.267396
 31
0.0
  0
LINE
  5
2FF8
100
AcDbEntity
  8
0
100
AcDbLine
 10
689.692379
 20
409.048965
 30
0.0
 11
689.692379
 21
398.74321
 31
0.0
  0
LINE
  5
2FF9
100
AcDbEntity
  8
0
100
AcDbLine
 10
676.437545
 20
386.723761
 30
0.0
 11
676.437545
 21
379.325749
 31
0.0
  0
LINE
  5
2FFA
100
AcDbEntity
  8
0
100
AcDbLine
 10
689.692379
 20
386.723761
 30
0.0
 11
689.692379
 21
379.325749
 31
0.0
  0
LINE
  5
2FFB
100
AcDbEntity
  8
0
100
AcDbLine
 10
673.064962
 20
370.524755
 30
0.0
 11
693.064962
 21
370.524755
 31
0.0
  0
LINE
  5
2FFC
100
AcDbEntity
  8
0
100
AcDbLine
 10
674.9324
 20
361.024755
 30
0.0
 11
691.197525
 21
361.024755
 31
0.0
  0
ARC
  5
2FFD
100
AcDbEntity
  8
0
100
AcDbCircle
 10
683.064962
 20
395.555672
 30
0.0
 40
17.530917
100
AcDbArc
 50
247.787568
 51
292.212432
  0
LINE
  5
2FFE
100
AcDbEntity
  8
0
100
AcDbLine
 10
667.334423
 20
378.024755
 30
0.0
 11
698.795502
 21
378.024755
 31
0.0
  0
LINE
  5
2FFF
100
AcDbEntity
  8
0
100
AcDbLine
 10
673.064962
 20
372.024755
 30
0.0
 11
693.064962
 21
372.024755
 31
0.0
  0
LINE
  5
3000
100
AcDbEntity
  8
0
100
AcDbLine
 10
674.9324
 20
361.024755
 30
0.0
 11
674.635525
 21
370.524755
 31
0.0
  0
LINE
  5
3001
100
AcDbEntity
  8
0
100
AcDbLine
 10
673.064962
 20
370.524755
 30
0.0
 11
673.064962
 21
371.610541
 31
0.0
  0
LINE
  5
3002
100
AcDbEntity
  8
0
100
AcDbLine
 10
667.943642
 20
377.146075
 30
0.0
 11
672.772069
 21
372.317648
 31
0.0
  0
ARC
  5
3003
100
AcDbEntity
  8
0
100
AcDbCircle
 10
672.064962
 20
371.610541
 30
0.0
 40
1.0
100
AcDbArc
 50
0.0
 51
45.0
  0
ARC
  5
3004
100
AcDbEntity
  8
0
100
AcDbCircle
 10
670.064962
 20
379.267396
 30
0.0
 40
3.0
100
AcDbArc
 50
180.0
 51
225.0
  0
ARC
  5
3005
100
AcDbEntity
  8
0
100
AcDbCircle
 10
671.751254
 20
387.115462
 30
0.0
 40
9.090707
100
AcDbArc
 50
238.968883
 51
301.031117
  0
LINE
  5
3006
100
AcDbEntity
  8
0
100
AcDbLine
 10
691.197525
 20
361.024755
 30
0.0
 11
691.4944
 21
370.524755
 31
0.0
  0
LINE
  5
3007
100
AcDbEntity
  8
0
100
AcDbLine
 10
693.064962
 20
370.524755
 30
0.0
 11
693.064962
 21
371.610541
 31
0.0
  0
ARC
  5
3008
100
AcDbEntity
  8
0
100
AcDbCircle
 10
696.064962
 20
379.267396
 30
0.0
 40
3.0
100
AcDbArc
 50
315.0
 51
0.0
  0
ARC
  5
3009
100
AcDbEntity
  8
0
100
AcDbCircle
 10
694.378671
 20
387.115462
 30
0.0
 40
9.090707
100
AcDbArc
 50
238.968883
 51
301.031117
  0
LINE
  5
300A
100
AcDbEntity
  8
0
100
AcDbLine
 10
698.186283
 20
377.146075
 30
0.0
 11
693.357856
 21
372.317648
 31
0.0
  0
ARC
  5
300B
100
AcDbEntity
  8
0
100
AcDbCircle
 10
694.064962
 20
371.610541
 30
0.0
 40
1.0
100
AcDbArc
 50
135.0
 51
180.0
  0
ARC
  5
300C
100
AcDbEntity
  8
0
100
AcDbCircle
 10
683.064962
 20
428.951409
 30
0.0
 40
30.926654
100
AcDbArc
 50
257.62585
 51
282.37415
  0
LINE
  5
300D
100
AcDbEntity
  8
0
100
AcDbLine
 10
667.064962
 20
398.024755
 30
0.0
 11
699.064962
 21
398.024755
 31
0.0
  0
LINE
  5
300E
100
AcDbEntity
  8
0
100
AcDbLine
 10
667.064962
 20
398.024755
 30
0.0
 11
699.064962
 21
398.024755
 31
0.0
  0
ARC
  5
300F
100
AcDbEntity
  8
0
100
AcDbCircle
 10
683.064962
 20
370.493838
 30
0.0
 40
17.530917
100
AcDbArc
 50
67.787568
 51
112.212432
  0
LINE
  5
3010
100
AcDbEntity
  8
0
100
AcDbLine
 10
667.064962
 20
388.024755
 30
0.0
 11
699.064962
 21
388.024755
 31
0.0
  0
ARC
  5
3011
100
AcDbEntity
  8
0
100
AcDbCircle
 10
671.751254
 20
378.934048
 30
0.0
 40
9.090707
100
AcDbArc
 50
58.968883
 51
121.031117
  0
ARC
  5
3012
100
AcDbEntity
  8
0
100
AcDbCircle
 10
671.751254
 20
413.667696
 30
0.0
 40
15.642941
100
AcDbArc
 50
252.567701
 51
287.432299
  0
ARC
  5
3013
100
AcDbEntity
  8
0
100
AcDbCircle
 10
694.378671
 20
378.934048
 30
0.0
 40
9.090707
100
AcDbArc
 50
58.968883
 51
121.031117
  0
ARC
  5
3014
100
AcDbEntity
  8
0
100
AcDbCircle
 10
694.378671
 20
413.667696
 30
0.0
 40
15.642941
100
AcDbArc
 50
252.567701
 51
287.432299
  0
ARC
  5
3015
100
AcDbEntity
  8
0
100
AcDbCircle
 10
683.064962
 20
392.524755
 30
0.0
 40
21.0
100
AcDbArc
 50
70.0
 51
110.0
  0
ARC
  5
3016
100
AcDbEntity
  8
0
100
AcDbCircle
 10
683.064962
 20
378.840766
 30
0.0
 40
30.926654
100
AcDbArc
 50
77.62585
 51
78.290378
  0
ARC
  5
3017
100
AcDbEntity
  8
0
100
AcDbCircle
 10
671.751254
 20
394.124479
 30
0.0
 40
15.642941
100
AcDbArc
 50
72.567701
 51
102.68749
  0
ARC
  5
3018
100
AcDbEntity
  8
0
100
AcDbCircle
 10
670.064962
 20
406.948342
 30
0.0
 40
3.0
100
AcDbArc
 50
110.0
 51
180.0
  0
LINE
  5
3019
100
AcDbEntity
  8
0
100
AcDbLine
 10
675.882539
 20
412.2583
 30
0.0
 11
669.038902
 21
409.76742
 31
0.0
  0
LINE
  5
301A
100
AcDbEntity
  8
0
100
AcDbLine
 10
690.247385
 20
412.2583
 30
0.0
 11
697.091023
 21
409.76742
 31
0.0
  0
ARC
  5
301B
100
AcDbEntity
  8
0
100
AcDbCircle
 10
696.064962
 20
406.948342
 30
0.0
 40
3.0
100
AcDbArc
 50
0.0
 51
70.0
  0
ARC
  5
301C
100
AcDbEntity
  8
0
100
AcDbCircle
 10
694.378671
 20
394.124479
 30
0.0
 40
15.642941
100
AcDbArc
 50
77.31251
 51
107.432299
  0
CIRCLE
  5
301D
100
AcDbEntity
  8
0
100
AcDbCircle
 10
683.064962
 20
406.024755
 30
0.0
 40
5.75
  0
POLYLINE
  5
301E
100
AcDbEntity
  8
0
100
AcDb2dPolyline
 66
     1
 10
0.0
 20
0.0
 30
0.0
 70
     1
  0
VERTEX
  5
3C09
100
AcDbEntity
  8
0
100
AcDbVertex
100
AcDb2dVertex
 10
683.064962
 20
412.952958
 30
0.0
  0
VERTEX
  5
3C0A
100
AcDbEntity
  8
0
100
AcDbVertex
100
AcDb2dVertex
 10
677.064962
 20
409.488857
 30
0.0
  0
VERTEX
  5
3C0B
100
AcDbEntity
  8
0
100
AcDbVertex
100
AcDb2dVertex
 10
677.064962
 20
402.560653
 30
0.0
  0
VERTEX
  5
3C0C
100
AcDbEntity
  8
0
100
AcDbVertex
100
AcDb2dVertex
 10
683.064962
 20
399.096552
 30
0.0
  0
VERTEX
  5
3C0D
100
AcDbEntity
  8
0
100
AcDbVertex
100
AcDb2dVertex
 10
689.064962
 20
402.560653
 30
0.0
  0
VERTEX
  5
3C0E
100
AcDbEntity
  8
0
100
AcDbVertex
100
AcDb2dVertex
 10
689.064962
 20
409.488857
 30
0.0
  0
SEQEND
  5
3C0F
100
AcDbEntity
  8
0
  0
ARC
  5
301F
100
AcDbEntity
  8
0
100
AcDbCircle
 10
683.064962
 20
406.024755
 30
0.0
 40
7.0
100
AcDbArc
 50
18.777835
 51
161.222165
  0
CIRCLE
  5
3020
100
AcDbEntity
  8
0
100
AcDbCircle
 10
683.064962
 20
406.024755
 30
0.0
 40
1.75
  0
CIRCLE
  5
3021
100
AcDbEntity
  8
0
100
AcDbCircle
 10
683.064962
 20
406.024755
 30
0.0
 40
2.75
  0
ARC
  5
3022
100
AcDbEntity
  8
0
100
AcDbCircle
 10
683.064962
 20
378.840766
 30
0.0
 40
30.926654
100
AcDbArc
 50
101.709622
 51
102.37415
  0
LINE
  5
3027
100
AcDbEntity
  8
0
100
AcDbLine
 10
314.847601
 20
79.829049
 30
0.0
 11
314.503851
 21
90.829049
 31
0.0
  0
LINE
  5
3028
100
AcDbEntity
  8
0
100
AcDbLine
 10
335.292601
 20
79.829049
 30
0.0
 11
335.636351
 21
90.829049
 31
0.0
  0
LINE
  5
3029
100
AcDbEntity
  8
0
100
AcDbLine
 10
314.847601
 20
79.829049
 30
0.0
 11
335.292601
 21
79.829049
 31
0.0
  0
LINE
  5
302A
100
AcDbEntity
  8
0
100
AcDbLine
 10
388.285031
 20
125.752636
 30
0.0
 11
388.285031
 21
98.07169
 31
0.0
  0
LINE
  5
302B
100
AcDbEntity
  8
0
100
AcDbLine
 10
378.912448
 20
127.853258
 30
0.0
 11
378.912448
 21
117.547504
 31
0.0
  0
LINE
  5
302C
100
AcDbEntity
  8
0
100
AcDbLine
 10
378.912448
 20
105.528055
 30
0.0
 11
378.912448
 21
98.130043
 31
0.0
  0
ARC
  5
302D
100
AcDbEntity
  8
0
100
AcDbCircle
 10
383.598739
 20
105.919756
 30
0.0
 40
9.090707
100
AcDbArc
 50
238.968883
 51
301.031117
  0
LINE
  5
302E
100
AcDbEntity
  8
0
100
AcDbLine
 10
387.406351
 20
95.950369
 30
0.0
 11
383.870817
 21
92.414835
 31
0.0
  0
LINE
  5
302F
100
AcDbEntity
  8
0
100
AcDbLine
 10
356.554491
 20
96.829049
 30
0.0
 11
388.01557
 21
96.829049
 31
0.0
  0
LINE
  5
3030
100
AcDbEntity
  8
0
100
AcDbLine
 10
382.507531
 20
79.829049
 30
0.0
 11
382.851281
 21
90.829049
 31
0.0
  0
LINE
  5
3031
100
AcDbEntity
  8
0
100
AcDbLine
 10
361.285031
 20
90.829049
 30
0.0
 11
383.285031
 21
90.829049
 31
0.0
  0
LINE
  5
3032
100
AcDbEntity
  8
0
100
AcDbLine
 10
361.285031
 20
91.829049
 30
0.0
 11
383.285031
 21
91.829049
 31
0.0
  0
ARC
  5
3033
100
AcDbEntity
  8
0
100
AcDbCircle
 10
385.285031
 20
91.000622
 30
0.0
 40
2.0
100
AcDbArc
 50
135.0
 51
180.0
  0
LINE
  5
3034
100
AcDbEntity
  8
0
100
AcDbLine
 10
383.285031
 20
91.000622
 30
0.0
 11
383.285031
 21
90.829049
 31
0.0
  0
ARC
  5
3035
100
AcDbEntity
  8
0
100
AcDbCircle
 10
372.285031
 20
114.359966
 30
0.0
 40
17.530917
100
AcDbArc
 50
247.787568
 51
292.212432
  0
ARC
  5
3036
100
AcDbEntity
  8
0
100
AcDbCircle
 10
385.285031
 20
98.07169
 30
0.0
 40
3.0
100
AcDbArc
 50
315.0
 51
0.0
  0
ARC
  5
3037
100
AcDbEntity
  8
0
100
AcDbCircle
 10
383.598739
 20
132.47199
 30
0.0
 40
15.642941
100
AcDbArc
 50
252.567701
 51
287.432299
  0
LINE
  5
3038
100
AcDbEntity
  8
0
100
AcDbLine
 10
356.285031
 20
116.829049
 30
0.0
 11
388.285031
 21
116.829049
 31
0.0
  0
LINE
  5
3039
100
AcDbEntity
  8
0
100
AcDbLine
 10
356.285031
 20
116.829049
 30
0.0
 11
388.285031
 21
116.829049
 31
0.0
  0
ARC
  5
303A
100
AcDbEntity
  8
0
100
AcDbCircle
 10
383.598739
 20
97.738342
 30
0.0
 40
9.090707
100
AcDbArc
 50
58.968883
 51
121.031117
  0
LINE
  5
303B
100
AcDbEntity
  8
0
100
AcDbLine
 10
356.285031
 20
106.829049
 30
0.0
 11
388.285031
 21
106.829049
 31
0.0
  0
ARC
  5
303C
100
AcDbEntity
  8
0
100
AcDbCircle
 10
372.285031
 20
89.298132
 30
0.0
 40
17.530917
100
AcDbArc
 50
67.787568
 51
112.212432
  0
ARC
  5
303D
100
AcDbEntity
  8
0
100
AcDbCircle
 10
372.285031
 20
147.755703
 30
0.0
 40
30.926654
100
AcDbArc
 50
257.62585
 51
282.37415
  0
ARC
  5
303E
100
AcDbEntity
  8
0
100
AcDbCircle
 10
385.285031
 20
125.752636
 30
0.0
 40
3.0
100
AcDbArc
 50
0.0
 51
70.0
  0
ARC
  5
303F
100
AcDbEntity
  8
0
100
AcDbCircle
 10
372.285031
 20
111.329049
 30
0.0
 40
21.0
100
AcDbArc
 50
70.0
 51
110.0
  0
ARC
  5
3040
100
AcDbEntity
  8
0
100
AcDbCircle
 10
383.598739
 20
112.928773
 30
0.0
 40
15.642941
100
AcDbArc
 50
77.31251
 51
107.432299
  0
LINE
  5
3041
100
AcDbEntity
  8
0
100
AcDbLine
 10
379.467454
 20
131.062594
 30
0.0
 11
386.311091
 21
128.571714
 31
0.0
  0
ARC
  5
3042
100
AcDbEntity
  8
0
100
AcDbCircle
 10
372.285031
 20
97.645059
 30
0.0
 40
30.926654
100
AcDbArc
 50
77.62585
 51
102.37415
  0
LINE
  5
3043
100
AcDbEntity
  8
0
100
AcDbLine
 10
365.657614
 20
105.528055
 30
0.0
 11
365.657614
 21
98.130043
 31
0.0
  0
LINE
  5
3044
100
AcDbEntity
  8
0
100
AcDbLine
 10
362.062531
 20
79.829049
 30
0.0
 11
361.718781
 21
90.829049
 31
0.0
  0
LINE
  5
3045
100
AcDbEntity
  8
0
100
AcDbLine
 10
362.062531
 20
79.829049
 30
0.0
 11
382.507531
 21
79.829049
 31
0.0
  0
ARC
  5
3046
100
AcDbEntity
  8
0
100
AcDbCircle
 10
360.971322
 20
105.919756
 30
0.0
 40
9.090707
100
AcDbArc
 50
238.968883
 51
301.031117
  0
LINE
  5
3047
100
AcDbEntity
  8
0
100
AcDbLine
 10
357.16371
 20
95.950369
 30
0.0
 11
360.699244
 21
92.414835
 31
0.0
  0
ARC
  5
3048
100
AcDbEntity
  8
0
100
AcDbCircle
 10
359.285031
 20
91.000622
 30
0.0
 40
2.0
100
AcDbArc
 50
0.0
 51
45.0
  0
LINE
  5
3049
100
AcDbEntity
  8
0
100
AcDbLine
 10
361.285031
 20
91.000622
 30
0.0
 11
361.285031
 21
90.829049
 31
0.0
  0
ARC
  5
304A
100
AcDbEntity
  8
0
100
AcDbCircle
 10
359.285031
 20
98.07169
 30
0.0
 40
3.0
100
AcDbArc
 50
180.0
 51
225.0
  0
ARC
  5
304B
100
AcDbEntity
  8
0
100
AcDbCircle
 10
360.971322
 20
97.738342
 30
0.0
 40
9.090707
100
AcDbArc
 50
58.968883
 51
121.031117
  0
LINE
  5
304C
100
AcDbEntity
  8
0
100
AcDbLine
 10
365.657614
 20
127.853258
 30
0.0
 11
365.657614
 21
117.547504
 31
0.0
  0
ARC
  5
304D
100
AcDbEntity
  8
0
100
AcDbCircle
 10
360.971322
 20
132.47199
 30
0.0
 40
15.642941
100
AcDbArc
 50
252.567701
 51
287.432299
  0
ARC
  5
304E
100
AcDbEntity
  8
0
100
AcDbCircle
 10
360.971322
 20
112.928773
 30
0.0
 40
15.642941
100
AcDbArc
 50
72.567701
 51
102.68749
  0
LINE
  5
304F
100
AcDbEntity
  8
0
100
AcDbLine
 10
365.102608
 20
131.062594
 30
0.0
 11
358.25897
 21
128.571714
 31
0.0
  0
LINE
  5
3050
100
AcDbEntity
  8
0
100
AcDbLine
 10
356.285031
 20
125.752636
 30
0.0
 11
356.285031
 21
98.07169
 31
0.0
  0
ARC
  5
3051
100
AcDbEntity
  8
0
100
AcDbCircle
 10
359.285031
 20
125.752636
 30
0.0
 40
3.0
100
AcDbArc
 50
110.0
 51
180.0
  0
LINE
  5
3053
100
AcDbEntity
  8
0
100
AcDbLine
 10
247.828319
 20
125.752636
 30
0.0
 11
247.828319
 21
98.07169
 31
0.0
  0
LINE
  5
3054
100
AcDbEntity
  8
0
100
AcDbLine
 10
257.200902
 20
127.853258
 30
0.0
 11
257.200902
 21
117.547504
 31
0.0
  0
LINE
  5
3055
100
AcDbEntity
  8
0
100
AcDbLine
 10
270.455736
 20
127.853258
 30
0.0
 11
270.455736
 21
117.547504
 31
0.0
  0
LINE
  5
3056
100
AcDbEntity
  8
0
100
AcDbLine
 10
279.828319
 20
125.752636
 30
0.0
 11
279.828319
 21
98.07169
 31
0.0
  0
LINE
  5
3057
100
AcDbEntity
  8
0
100
AcDbLine
 10
247.828319
 20
106.829049
 30
0.0
 11
279.828319
 21
106.829049
 31
0.0
  0
ARC
  5
3058
100
AcDbEntity
  8
0
100
AcDbCircle
 10
275.142027
 20
97.738342
 30
0.0
 40
9.090707
100
AcDbArc
 50
58.968883
 51
121.031117
  0
LINE
  5
3059
100
AcDbEntity
  8
0
100
AcDbLine
 10
247.828319
 20
116.829049
 30
0.0
 11
279.828319
 21
116.829049
 31
0.0
  0
LINE
  5
305A
100
AcDbEntity
  8
0
100
AcDbLine
 10
247.828319
 20
116.829049
 30
0.0
 11
279.828319
 21
116.829049
 31
0.0
  0
ARC
  5
305B
100
AcDbEntity
  8
0
100
AcDbCircle
 10
275.142027
 20
132.47199
 30
0.0
 40
15.642941
100
AcDbArc
 50
252.567701
 51
287.432299
  0
LINE
  5
305C
100
AcDbEntity
  8
0
100
AcDbLine
 10
248.09778
 20
96.829049
 30
0.0
 11
279.558858
 21
96.829049
 31
0.0
  0
LINE
  5
305D
100
AcDbEntity
  8
0
100
AcDbLine
 10
278.949639
 20
95.950369
 30
0.0
 11
275.414105
 21
92.414835
 31
0.0
  0
ARC
  5
305E
100
AcDbEntity
  8
0
100
AcDbCircle
 10
275.142027
 20
105.919756
 30
0.0
 40
9.090707
100
AcDbArc
 50
238.968883
 51
301.031117
  0
LINE
  5
305F
100
AcDbEntity
  8
0
100
AcDbLine
 10
257.200902
 20
105.528055
 30
0.0
 11
257.200902
 21
98.130043
 31
0.0
  0
LINE
  5
3060
100
AcDbEntity
  8
0
100
AcDbLine
 10
270.455736
 20
105.528055
 30
0.0
 11
270.455736
 21
98.130043
 31
0.0
  0
LINE
  5
3061
100
AcDbEntity
  8
0
100
AcDbLine
 10
253.605819
 20
79.829049
 30
0.0
 11
253.262069
 21
90.829049
 31
0.0
  0
LINE
  5
3062
100
AcDbEntity
  8
0
100
AcDbLine
 10
274.050819
 20
79.829049
 30
0.0
 11
274.394569
 21
90.829049
 31
0.0
  0
LINE
  5
3063
100
AcDbEntity
  8
0
100
AcDbLine
 10
253.605819
 20
79.829049
 30
0.0
 11
274.050819
 21
79.829049
 31
0.0
  0
ARC
  5
3064
100
AcDbEntity
  8
0
100
AcDbCircle
 10
252.51461
 20
105.919756
 30
0.0
 40
9.090707
100
AcDbArc
 50
238.968883
 51
301.031117
  0
LINE
  5
3065
100
AcDbEntity
  8
0
100
AcDbLine
 10
252.828319
 20
91.829049
 30
0.0
 11
274.828319
 21
91.829049
 31
0.0
  0
LINE
  5
3066
100
AcDbEntity
  8
0
100
AcDbLine
 10
252.828319
 20
90.829049
 30
0.0
 11
274.828319
 21
90.829049
 31
0.0
  0
ARC
  5
3067
100
AcDbEntity
  8
0
100
AcDbCircle
 10
250.828319
 20
98.07169
 30
0.0
 40
3.0
100
AcDbArc
 50
180.0
 51
225.0
  0
LINE
  5
3068
100
AcDbEntity
  8
0
100
AcDbLine
 10
252.828319
 20
91.000622
 30
0.0
 11
252.828319
 21
90.829049
 31
0.0
  0
ARC
  5
3069
100
AcDbEntity
  8
0
100
AcDbCircle
 10
250.828319
 20
91.000622
 30
0.0
 40
2.0
100
AcDbArc
 50
0.0
 51
45.0
  0
LINE
  5
306A
100
AcDbEntity
  8
0
100
AcDbLine
 10
248.706998
 20
95.950369
 30
0.0
 11
252.242532
 21
92.414835
 31
0.0
  0
ARC
  5
306B
100
AcDbEntity
  8
0
100
AcDbCircle
 10
263.828319
 20
114.359966
 30
0.0
 40
17.530917
100
AcDbArc
 50
247.787568
 51
292.212432
  0
LINE
  5
306C
100
AcDbEntity
  8
0
100
AcDbLine
 10
274.828319
 20
91.000622
 30
0.0
 11
274.828319
 21
90.829049
 31
0.0
  0
ARC
  5
306D
100
AcDbEntity
  8
0
100
AcDbCircle
 10
276.828319
 20
91.000622
 30
0.0
 40
2.0
100
AcDbArc
 50
135.0
 51
180.0
  0
ARC
  5
306E
100
AcDbEntity
  8
0
100
AcDbCircle
 10
252.51461
 20
97.738342
 30
0.0
 40
9.090707
100
AcDbArc
 50
58.968883
 51
121.031117
  0
ARC
  5
306F
100
AcDbEntity
  8
0
100
AcDbCircle
 10
263.828319
 20
89.298132
 30
0.0
 40
17.530917
100
AcDbArc
 50
67.787568
 51
112.212432
  0
ARC
  5
3070
100
AcDbEntity
  8
0
100
AcDbCircle
 10
252.51461
 20
132.47199
 30
0.0
 40
15.642941
100
AcDbArc
 50
252.567701
 51
287.432299
  0
ARC
  5
3071
100
AcDbEntity
  8
0
100
AcDbCircle
 10
263.828319
 20
147.755703
 30
0.0
 40
30.926654
100
AcDbArc
 50
257.62585
 51
282.37415
  0
ARC
  5
3072
100
AcDbEntity
  8
0
100
AcDbCircle
 10
276.828319
 20
98.07169
 30
0.0
 40
3.0
100
AcDbArc
 50
315.0
 51
0.0
  0
LINE
  5
3073
100
AcDbEntity
  8
0
100
AcDbLine
 10
271.010742
 20
131.062594
 30
0.0
 11
277.854379
 21
128.571714
 31
0.0
  0
ARC
  5
3074
100
AcDbEntity
  8
0
100
AcDbCircle
 10
275.142027
 20
112.928773
 30
0.0
 40
15.642941
100
AcDbArc
 50
77.31251
 51
107.432299
  0
ARC
  5
3075
100
AcDbEntity
  8
0
100
AcDbCircle
 10
252.51461
 20
112.928773
 30
0.0
 40
15.642941
100
AcDbArc
 50
72.567701
 51
102.68749
  0
LINE
  5
3076
100
AcDbEntity
  8
0
100
AcDbLine
 10
256.645896
 20
131.062594
 30
0.0
 11
249.802258
 21
128.571714
 31
0.0
  0
ARC
  5
3077
100
AcDbEntity
  8
0
100
AcDbCircle
 10
250.828319
 20
125.752636
 30
0.0
 40
3.0
100
AcDbArc
 50
110.0
 51
180.0
  0
ARC
  5
3078
100
AcDbEntity
  8
0
100
AcDbCircle
 10
263.828319
 20
97.645059
 30
0.0
 40
30.926654
100
AcDbArc
 50
77.62585
 51
78.290378
  0
ARC
  5
3079
100
AcDbEntity
  8
0
100
AcDbCircle
 10
263.828319
 20
111.329049
 30
0.0
 40
21.0
100
AcDbArc
 50
70.0
 51
110.0
  0
ARC
  5
307A
100
AcDbEntity
  8
0
100
AcDbCircle
 10
276.828319
 20
125.752636
 30
0.0
 40
3.0
100
AcDbArc
 50
0.0
 51
70.0
  0
CIRCLE
  5
307B
100
AcDbEntity
  8
0
100
AcDbCircle
 10
263.828319
 20
124.829049
 30
0.0
 40
1.75
  0
CIRCLE
  5
307C
100
AcDbEntity
  8
0
100
AcDbCircle
 10
263.828319
 20
124.829049
 30
0.0
 40
2.75
  0
CIRCLE
  5
307D
100
AcDbEntity
  8
0
100
AcDbCircle
 10
263.828319
 20
124.829049
 30
0.0
 40
5.75
  0
POLYLINE
  5
307E
100
AcDbEntity
  8
0
100
AcDb2dPolyline
 66
     1
 10
0.0
 20
0.0
 30
0.0
 70
     1
  0
VERTEX
  5
3C10
100
AcDbEntity
  8
0
100
AcDbVertex
100
AcDb2dVertex
 10
263.828319
 20
131.757252
 30
0.0
  0
VERTEX
  5
3C11
100
AcDbEntity
  8
0
100
AcDbVertex
100
AcDb2dVertex
 10
257.828319
 20
128.29315
 30
0.0
  0
VERTEX
  5
3C12
100
AcDbEntity
  8
0
100
AcDbVertex
100
AcDb2dVertex
 10
257.828319
 20
121.364947
 30
0.0
  0
VERTEX
  5
3C13
100
AcDbEntity
  8
0
100
AcDbVertex
100
AcDb2dVertex
 10
263.828319
 20
117.900846
 30
0.0
  0
VERTEX
  5
3C14
100
AcDbEntity
  8
0
100
AcDbVertex
100
AcDb2dVertex
 10
269.828319
 20
121.364947
 30
0.0
  0
VERTEX
  5
3C15
100
AcDbEntity
  8
0
100
AcDbVertex
100
AcDb2dVertex
 10
269.828319
 20
128.29315
 30
0.0
  0
SEQEND
  5
3C16
100
AcDbEntity
  8
0
  0
ARC
  5
307F
100
AcDbEntity
  8
0
100
AcDbCircle
 10
263.828319
 20
124.829049
 30
0.0
 40
7.0
100
AcDbArc
 50
18.777835
 51
161.222165
  0
ARC
  5
3080
100
AcDbEntity
  8
0
100
AcDbCircle
 10
263.828319
 20
97.645059
 30
0.0
 40
30.926654
100
AcDbArc
 50
101.709622
 51
102.37415
  0
LINE
  5
308A
100
AcDbEntity
  8
0
100
AcDbLine
 10
582.238963
 20
79.829049
 30
0.0
 11
581.832713
 21
92.829049
 31
0.0
  0
LINE
  5
308B
100
AcDbEntity
  8
0
100
AcDbLine
 10
608.084338
 20
79.829049
 30
0.0
 11
608.490588
 21
92.829049
 31
0.0
  0
LINE
  5
308C
100
AcDbEntity
  8
0
100
AcDbLine
 10
582.238963
 20
79.829049
 30
0.0
 11
608.084338
 21
79.829049
 31
0.0
  0
LINE
  5
308E
100
AcDbEntity
  8
0
100
AcDbLine
 10
644.121774
 20
127.853258
 30
0.0
 11
644.121774
 21
117.547504
 31
0.0
  0
LINE
  5
308F
100
AcDbEntity
  8
0
100
AcDbLine
 10
653.494357
 20
125.752636
 30
0.0
 11
653.494357
 21
98.07169
 31
0.0
  0
LINE
  5
3090
100
AcDbEntity
  8
0
100
AcDbLine
 10
644.121774
 20
105.528055
 30
0.0
 11
644.121774
 21
98.130043
 31
0.0
  0
LINE
  5
3091
100
AcDbEntity
  8
0
100
AcDbLine
 10
623.994357
 20
92.829049
 30
0.0
 11
650.994357
 21
92.829049
 31
0.0
  0
LINE
  5
3092
100
AcDbEntity
  8
0
100
AcDbLine
 10
650.994357
 20
94.329049
 30
0.0
 11
623.994357
 21
94.329049
 31
0.0
  0
LINE
  5
3093
100
AcDbEntity
  8
0
100
AcDbLine
 10
621.763818
 20
96.829049
 30
0.0
 11
653.224896
 21
96.829049
 31
0.0
  0
ARC
  5
3094
100
AcDbEntity
  8
0
100
AcDbCircle
 10
637.494357
 20
114.359966
 30
0.0
 40
17.530917
100
AcDbArc
 50
247.787568
 51
292.212432
  0
LINE
  5
3095
100
AcDbEntity
  8
0
100
AcDbLine
 10
650.417045
 20
79.829049
 30
0.0
 11
650.823295
 21
92.829049
 31
0.0
  0
ARC
  5
3096
100
AcDbEntity
  8
0
100
AcDbCircle
 10
648.808066
 20
105.919756
 30
0.0
 40
9.090707
100
AcDbArc
 50
238.968883
 51
301.031117
  0
ARC
  5
3097
100
AcDbEntity
  8
0
100
AcDbCircle
 10
653.994357
 20
93.086408
 30
0.0
 40
3.0
100
AcDbArc
 50
135.0
 51
180.0
  0
LINE
  5
3098
100
AcDbEntity
  8
0
100
AcDbLine
 10
650.994357
 20
92.829049
 30
0.0
 11
650.994357
 21
93.086408
 31
0.0
  0
LINE
  5
3099
100
AcDbEntity
  8
0
100
AcDbLine
 10
651.873037
 20
95.207729
 30
0.0
 11
652.615677
 21
95.950369
 31
0.0
  0
ARC
  5
309A
100
AcDbEntity
  8
0
100
AcDbCircle
 10
650.494357
 20
98.07169
 30
0.0
 40
3.0
100
AcDbArc
 50
315.0
 51
0.0
  0
LINE
  5
309B
100
AcDbEntity
  8
0
100
AcDbLine
 10
621.494357
 20
116.829049
 30
0.0
 11
653.494357
 21
116.829049
 31
0.0
  0
LINE
  5
309C
100
AcDbEntity
  8
0
100
AcDbLine
 10
621.494357
 20
106.829049
 30
0.0
 11
653.494357
 21
106.829049
 31
0.0
  0
ARC
  5
309D
100
AcDbEntity
  8
0
100
AcDbCircle
 10
637.494357
 20
89.298132
 30
0.0
 40
17.530917
100
AcDbArc
 50
67.787568
 51
112.212432
  0
ARC
  5
309E
100
AcDbEntity
  8
0
100
AcDbCircle
 10
637.494357
 20
147.755703
 30
0.0
 40
30.926654
100
AcDbArc
 50
257.62585
 51
282.37415
  0
ARC
  5
309F
100
AcDbEntity
  8
0
100
AcDbCircle
 10
648.808066
 20
97.738342
 30
0.0
 40
9.090707
100
AcDbArc
 50
58.968883
 51
121.031117
  0
ARC
  5
30A0
100
AcDbEntity
  8
0
100
AcDbCircle
 10
648.808066
 20
132.47199
 30
0.0
 40
15.642941
100
AcDbArc
 50
252.567701
 51
287.432299
  0
ARC
  5
30A1
100
AcDbEntity
  8
0
100
AcDbCircle
 10
637.494357
 20
97.645059
 30
0.0
 40
30.926654
100
AcDbArc
 50
77.62585
 51
102.37415
  0
ARC
  5
30A2
100
AcDbEntity
  8
0
100
AcDbCircle
 10
637.494357
 20
111.329049
 30
0.0
 40
21.0
100
AcDbArc
 50
70.0
 51
110.0
  0
ARC
  5
30A3
100
AcDbEntity
  8
0
100
AcDbCircle
 10
648.808066
 20
112.928773
 30
0.0
 40
15.642941
100
AcDbArc
 50
77.31251
 51
107.432299
  0
LINE
  5
30A4
100
AcDbEntity
  8
0
100
AcDbLine
 10
644.67678
 20
131.062594
 30
0.0
 11
651.520418
 21
128.571714
 31
0.0
  0
ARC
  5
30A5
100
AcDbEntity
  8
0
100
AcDbCircle
 10
650.494357
 20
125.752636
 30
0.0
 40
3.0
100
AcDbArc
 50
0.0
 51
70.0
  0
LINE
  5
30A6
100
AcDbEntity
  8
0
100
AcDbLine
 10
630.86694
 20
105.528055
 30
0.0
 11
630.86694
 21
98.130043
 31
0.0
  0
LINE
  5
30A7
100
AcDbEntity
  8
0
100
AcDbLine
 10
624.57167
 20
79.829049
 30
0.0
 11
650.417045
 21
79.829049
 31
0.0
  0
LINE
  5
30A8
100
AcDbEntity
  8
0
100
AcDbLine
 10
624.57167
 20
79.829049
 30
0.0
 11
624.16542
 21
92.829049
 31
0.0
  0
ARC
  5
30A9
100
AcDbEntity
  8
0
100
AcDbCircle
 10
626.180649
 20
105.919756
 30
0.0
 40
9.090707
100
AcDbArc
 50
238.968883
 51
301.031117
  0
LINE
  5
30AA
100
AcDbEntity
  8
0
100
AcDbLine
 10
623.115677
 20
95.207729
 30
0.0
 11
622.373037
 21
95.950369
 31
0.0
  0
ARC
  5
30AB
100
AcDbEntity
  8
0
100
AcDbCircle
 10
624.494357
 20
98.07169
 30
0.0
 40
3.0
100
AcDbArc
 50
180.0
 51
225.0
  0
ARC
  5
30AC
100
AcDbEntity
  8
0
100
AcDbCircle
 10
620.994357
 20
93.086408
 30
0.0
 40
3.0
100
AcDbArc
 50
0.0
 51
45.0
  0
LINE
  5
30AD
100
AcDbEntity
  8
0
100
AcDbLine
 10
623.994357
 20
92.829049
 30
0.0
 11
623.994357
 21
93.086408
 31
0.0
  0
ARC
  5
30AE
100
AcDbEntity
  8
0
100
AcDbCircle
 10
626.180649
 20
97.738342
 30
0.0
 40
9.090707
100
AcDbArc
 50
58.968883
 51
121.031117
  0
LINE
  5
30AF
100
AcDbEntity
  8
0
100
AcDbLine
 10
630.86694
 20
127.853258
 30
0.0
 11
630.86694
 21
117.547504
 31
0.0
  0
ARC
  5
30B0
100
AcDbEntity
  8
0
100
AcDbCircle
 10
626.180649
 20
132.47199
 30
0.0
 40
15.642941
100
AcDbArc
 50
252.567701
 51
287.432299
  0
ARC
  5
30B1
100
AcDbEntity
  8
0
100
AcDbCircle
 10
626.180649
 20
112.928773
 30
0.0
 40
15.642941
100
AcDbArc
 50
72.567701
 51
102.68749
  0
LINE
  5
30B2
100
AcDbEntity
  8
0
100
AcDbLine
 10
630.311934
 20
131.062594
 30
0.0
 11
623.468297
 21
128.571714
 31
0.0
  0
LINE
  5
30B3
100
AcDbEntity
  8
0
100
AcDbLine
 10
621.494357
 20
125.752636
 30
0.0
 11
621.494357
 21
98.07169
 31
0.0
  0
ARC
  5
30B4
100
AcDbEntity
  8
0
100
AcDbCircle
 10
624.494357
 20
125.752636
 30
0.0
 40
3.0
100
AcDbArc
 50
110.0
 51
180.0
  0
LINE
  5
30B6
100
AcDbEntity
  8
0
100
AcDbLine
 10
519.316526
 20
125.752636
 30
0.0
 11
519.316526
 21
98.07169
 31
0.0
  0
LINE
  5
30B7
100
AcDbEntity
  8
0
100
AcDbLine
 10
528.689109
 20
127.853258
 30
0.0
 11
528.689109
 21
117.547504
 31
0.0
  0
LINE
  5
30B8
100
AcDbEntity
  8
0
100
AcDbLine
 10
551.316526
 20
125.752636
 30
0.0
 11
551.316526
 21
98.07169
 31
0.0
  0
LINE
  5
30B9
100
AcDbEntity
  8
0
100
AcDbLine
 10
541.943943
 20
127.853258
 30
0.0
 11
541.943943
 21
117.547504
 31
0.0
  0
LINE
  5
30BA
100
AcDbEntity
  8
0
100
AcDbLine
 10
522.393838
 20
79.829049
 30
0.0
 11
548.239213
 21
79.829049
 31
0.0
  0
ARC
  5
30BB
100
AcDbEntity
  8
0
100
AcDbCircle
 10
546.630234
 20
132.47199
 30
0.0
 40
15.642941
100
AcDbArc
 50
252.567701
 51
287.432299
  0
ARC
  5
30BC
100
AcDbEntity
  8
0
100
AcDbCircle
 10
546.630234
 20
97.738342
 30
0.0
 40
9.090707
100
AcDbArc
 50
58.968883
 51
121.031117
  0
LINE
  5
30BD
100
AcDbEntity
  8
0
100
AcDbLine
 10
519.316526
 20
106.829049
 30
0.0
 11
551.316526
 21
106.829049
 31
0.0
  0
LINE
  5
30BE
100
AcDbEntity
  8
0
100
AcDbLine
 10
519.316526
 20
116.829049
 30
0.0
 11
551.316526
 21
116.829049
 31
0.0
  0
ARC
  5
30BF
100
AcDbEntity
  8
0
100
AcDbCircle
 10
546.630234
 20
105.919756
 30
0.0
 40
9.090707
100
AcDbArc
 50
238.968883
 51
301.031117
  0
LINE
  5
30C0
100
AcDbEntity
  8
0
100
AcDbLine
 10
519.585987
 20
96.829049
 30
0.0
 11
551.047065
 21
96.829049
 31
0.0
  0
LINE
  5
30C1
100
AcDbEntity
  8
0
100
AcDbLine
 10
548.816526
 20
94.329049
 30
0.0
 11
521.816526
 21
94.329049
 31
0.0
  0
LINE
  5
30C2
100
AcDbEntity
  8
0
100
AcDbLine
 10
521.816526
 20
92.829049
 30
0.0
 11
548.816526
 21
92.829049
 31
0.0
  0
LINE
  5
30C3
100
AcDbEntity
  8
0
100
AcDbLine
 10
528.689109
 20
105.528055
 30
0.0
 11
528.689109
 21
98.130043
 31
0.0
  0
LINE
  5
30C4
100
AcDbEntity
  8
0
100
AcDbLine
 10
541.943943
 20
105.528055
 30
0.0
 11
541.943943
 21
98.130043
 31
0.0
  0
LINE
  5
30C5
100
AcDbEntity
  8
0
100
AcDbLine
 10
522.393838
 20
79.829049
 30
0.0
 11
521.987588
 21
92.829049
 31
0.0
  0
ARC
  5
30C6
100
AcDbEntity
  8
0
100
AcDbCircle
 10
518.816526
 20
93.086408
 30
0.0
 40
3.0
100
AcDbArc
 50
0.0
 51
45.0
  0
ARC
  5
30C7
100
AcDbEntity
  8
0
100
AcDbCircle
 10
524.002817
 20
105.919756
 30
0.0
 40
9.090707
100
AcDbArc
 50
238.968883
 51
301.031117
  0
ARC
  5
30C8
100
AcDbEntity
  8
0
100
AcDbCircle
 10
522.316526
 20
98.07169
 30
0.0
 40
3.0
100
AcDbArc
 50
180.0
 51
225.0
  0
LINE
  5
30C9
100
AcDbEntity
  8
0
100
AcDbLine
 10
520.937846
 20
95.207729
 30
0.0
 11
520.195205
 21
95.950369
 31
0.0
  0
LINE
  5
30CA
100
AcDbEntity
  8
0
100
AcDbLine
 10
521.816526
 20
92.829049
 30
0.0
 11
521.816526
 21
93.086408
 31
0.0
  0
ARC
  5
30CB
100
AcDbEntity
  8
0
100
AcDbCircle
 10
535.316526
 20
114.359966
 30
0.0
 40
17.530917
100
AcDbArc
 50
247.787568
 51
292.212432
  0
ARC
  5
30CC
100
AcDbEntity
  8
0
100
AcDbCircle
 10
524.002817
 20
97.738342
 30
0.0
 40
9.090707
100
AcDbArc
 50
58.968883
 51
121.031117
  0
ARC
  5
30CD
100
AcDbEntity
  8
0
100
AcDbCircle
 10
535.316526
 20
89.298132
 30
0.0
 40
17.530917
100
AcDbArc
 50
67.787568
 51
112.212432
  0
ARC
  5
30CE
100
AcDbEntity
  8
0
100
AcDbCircle
 10
524.002817
 20
132.47199
 30
0.0
 40
15.642941
100
AcDbArc
 50
252.567701
 51
287.432299
  0
ARC
  5
30CF
100
AcDbEntity
  8
0
100
AcDbCircle
 10
535.316526
 20
147.755703
 30
0.0
 40
30.926654
100
AcDbArc
 50
257.62585
 51
282.37415
  0
LINE
  5
30D0
100
AcDbEntity
  8
0
100
AcDbLine
 10
548.239213
 20
79.829049
 30
0.0
 11
548.645463
 21
92.829049
 31
0.0
  0
ARC
  5
30D1
100
AcDbEntity
  8
0
100
AcDbCircle
 10
548.316526
 20
98.07169
 30
0.0
 40
3.0
100
AcDbArc
 50
315.0
 51
0.0
  0
LINE
  5
30D2
100
AcDbEntity
  8
0
100
AcDbLine
 10
549.695205
 20
95.207729
 30
0.0
 11
550.437846
 21
95.950369
 31
0.0
  0
LINE
  5
30D3
100
AcDbEntity
  8
0
100
AcDbLine
 10
548.816526
 20
92.829049
 30
0.0
 11
548.816526
 21
93.086408
 31
0.0
  0
ARC
  5
30D4
100
AcDbEntity
  8
0
100
AcDbCircle
 10
551.816526
 20
93.086408
 30
0.0
 40
3.0
100
AcDbArc
 50
135.0
 51
180.0
  0
LINE
  5
30D5
100
AcDbEntity
  8
0
100
AcDbLine
 10
542.498949
 20
131.062594
 30
0.0
 11
549.342586
 21
128.571714
 31
0.0
  0
ARC
  5
30D6
100
AcDbEntity
  8
0
100
AcDbCircle
 10
546.630234
 20
112.928773
 30
0.0
 40
15.642941
100
AcDbArc
 50
77.31251
 51
107.432299
  0
ARC
  5
30D7
100
AcDbEntity
  8
0
100
AcDbCircle
 10
524.002817
 20
112.928773
 30
0.0
 40
15.642941
100
AcDbArc
 50
72.567701
 51
102.68749
  0
LINE
  5
30D8
100
AcDbEntity
  8
0
100
AcDbLine
 10
528.134103
 20
131.062594
 30
0.0
 11
521.290465
 21
128.571714
 31
0.0
  0
ARC
  5
30D9
100
AcDbEntity
  8
0
100
AcDbCircle
 10
522.316526
 20
125.752636
 30
0.0
 40
3.0
100
AcDbArc
 50
110.0
 51
180.0
  0
ARC
  5
30DA
100
AcDbEntity
  8
0
100
AcDbCircle
 10
535.316526
 20
111.329049
 30
0.0
 40
21.0
100
AcDbArc
 50
70.0
 51
110.0
  0
ARC
  5
30DB
100
AcDbEntity
  8
0
100
AcDbCircle
 10
535.316526
 20
97.645059
 30
0.0
 40
30.926654
100
AcDbArc
 50
77.62585
 51
78.290378
  0
ARC
  5
30DC
100
AcDbEntity
  8
0
100
AcDbCircle
 10
548.316526
 20
125.752636
 30
0.0
 40
3.0
100
AcDbArc
 50
0.0
 51
70.0
  0
CIRCLE
  5
30DD
100
AcDbEntity
  8
0
100
AcDbCircle
 10
535.316526
 20
124.829049
 30
0.0
 40
1.75
  0
CIRCLE
  5
30DE
100
AcDbEntity
  8
0
100
AcDbCircle
 10
535.316526
 20
124.829049
 30
0.0
 40
2.75
  0
CIRCLE
  5
30DF
100
AcDbEntity
  8
0
100
AcDbCircle
 10
535.316526
 20
124.829049
 30
0.0
 40
5.75
  0
POLYLINE
  5
30E0
100
AcDbEntity
  8
0
100
AcDb2dPolyline
 66
     1
 10
0.0
 20
0.0
 30
0.0
 70
     1
  0
VERTEX
  5
3C17
100
AcDbEntity
  8
0
100
AcDbVertex
100
AcDb2dVertex
 10
535.316526
 20
131.757252
 30
0.0
  0
VERTEX
  5
3C18
100
AcDbEntity
  8
0
100
AcDbVertex
100
AcDb2dVertex
 10
529.316526
 20
128.29315
 30
0.0
  0
VERTEX
  5
3C19
100
AcDbEntity
  8
0
100
AcDbVertex
100
AcDb2dVertex
 10
529.316526
 20
121.364947
 30
0.0
  0
VERTEX
  5
3C1A
100
AcDbEntity
  8
0
100
AcDbVertex
100
AcDb2dVertex
 10
535.316526
 20
117.900846
 30
0.0
  0
VERTEX
  5
3C1B
100
AcDbEntity
  8
0
100
AcDbVertex
100
AcDb2dVertex
 10
541.316526
 20
121.364947
 30
0.0
  0
VERTEX
  5
3C1C
100
AcDbEntity
  8
0
100
AcDbVertex
100
AcDb2dVertex
 10
541.316526
 20
128.29315
 30
0.0
  0
SEQEND
  5
3C1D
100
AcDbEntity
  8
0
  0
ARC
  5
30E1
100
AcDbEntity
  8
0
100
AcDbCircle
 10
535.316526
 20
124.829049
 30
0.0
 40
7.0
100
AcDbArc
 50
18.777835
 51
161.222165
  0
ARC
  5
30E2
100
AcDbEntity
  8
0
100
AcDbCircle
 10
535.316526
 20
97.645059
 30
0.0
 40
30.926654
100
AcDbArc
 50
101.709622
 51
102.37415
  0
TEXT
  5
30E3
100
AcDbEntity
  8
0
100
AcDbText
 10
394.597897
 20
33.698514
 30
0.0
 40
10.0
  1
TLV  SA3(PT)
100
AcDbText
  0
TEXT
  5
30EB
100
AcDbEntity
  8
0
100
AcDbText
 10
44.456153
 20
389.824107
 30
0.0
 40
8.0
  1
正面
100
AcDbText
  0
TEXT
  5
30EC
100
AcDbEntity
  8
0
100
AcDbText
 10
44.456153
 20
452.240178
 30
0.0
 40
8.0
  1
平面
100
AcDbText
  0
TEXT
  5
30ED
100
AcDbEntity
  8
0
100
AcDbText
 10
44.456153
 20
512.797415
 30
0.0
 40
8.0
  1
背面
100
AcDbText
  0
TEXT
  5
30F5
100
AcDbEntity
  8
0
100
AcDbText
 10
190.151905
 20
107.108228
 30
0.0
 40
8.0
  1
正面
100
AcDbText
  0
TEXT
  5
30F6
100
AcDbEntity
  8
0
100
AcDbText
 10
190.151905
 20
170.540104
 30
0.0
 40
8.0
  1
平面
100
AcDbText
  0
TEXT
  5
30F7
100
AcDbEntity
  8
0
100
AcDbText
 10
190.151905
 20
242.838471
 30
0.0
 40
8.0
  1
背面
100
AcDbText
  0
VIEWPORT
  5
41
100
AcDbEntity
 67
     1
  8
0
100
AcDbViewport
 10
117.358407
 20
73.5
 30
0.0
 40
234.716814
 41
147.0
 68
    -1
 69
     1
1001
ACAD
1000
MVIEW
1002
{
1070
    16
1010
0.0
1020
0.0
1030
0.0
1010
0.0
1020
0.0
1030
1.0
1040
0.0
1040
147.0
1040
117.358407
1040
73.5
1040
50.0
1040
0.0
1040
0.0
1070
     0
1070
   100
1070
     1
1070
     1
1070
     0
1070
     0
1070
     0
1070
     0
1040
0.0
1040
0.0
1040
0.0
1040
1.0
1040
1.0
1040
0.0
1040
0.0
1070
     0
1002
{
1002
}
1002
}
  0
ENDSEC
  0
SECTION
  2
OBJECTS
  0
DICTIONARY
  5
C
100
AcDbDictionary
  3
ACAD_GROUP
350
D
  3
ACAD_MLINESTYLE
350
E
  0
DICTIONARY
  5
D
102
{ACAD_REACTORS
330
C
102
}
100
AcDbDictionary
  0
DICTIONARY
  5
E
102
{ACAD_REACTORS
330
C
102
}
100
AcDbDictionary
  3
STANDARD
350
1B
  0
MLINESTYLE
  5
1B
102
{ACAD_REACTORS
330
E
102
}
100
AcDbMlineStyle
  2
STANDARD
 70
     0
  3

 62
     0
 51
90.0
 52
90.0
 71
     2
 49
0.5
 62
   256
  6
BYLAYER
 49
-0.5
 62
   256
  6
BYLAYER
  0
ENDSEC
  0
EOF
