  0
SECTION
  2
HEADER
  9
$ACADVER
  1
AC1012
  9
$DWGCODEPAGE
  3
dos932
  9
$INSBASE
 10
0.0
 20
0.0
 30
0.0
  9
$EXTMIN
 10
66.0
 20
30.0
 30
0.0
  9
$EXTMAX
 10
1716.0
 20
1146.0
 30
0.0
  9
$LIMMIN
 10
0.0
 20
0.0
  9
$LIMMAX
 10
1782.0
 20
1260.0
  9
$ORTHOMODE
 70
     0
  9
$REGENMODE
 70
     1
  9
$FILLMODE
 70
     1
  9
$QTEXTMODE
 70
     0
  9
$MIRRTEXT
 70
     1
  9
$DRAGMODE
 70
     2
  9
$LTSCALE
 40
24.0
  9
$OSMODE
 70
   163
  9
$ATTMODE
 70
     1
  9
$TEXTSIZE
 40
24.0
  9
$TRACEWID
 40
0.05
  9
$TEXTSTYLE
  7
STANDARD
  9
$CLAYER
  8
0
  9
$CELTYPE
  6
BYLAYER
  9
$CECOLOR
 62
   256
  9
$CELTSCALE
 40
1.0
  9
$DELOBJ
 70
     1
  9
$DISPSILH
 70
     0
  9
$DIMSCALE
 40
6.0
  9
$DIMASZ
 40
2.8
  9
$DIMEXO
 40
1.0
  9
$DIMDLI
 40
5.0
  9
$DIMRND
 40
0.1
  9
$DIMDLE
 40
0.0
  9
$DIMEXE
 40
1.0
  9
$DIMTP
 40
0.0
  9
$DIMTM
 40
0.0
  9
$DIMTXT
 40
2.5
  9
$DIMCEN
 40
0.0
  9
$DIMTSZ
 40
0.0
  9
$DIMTOL
 70
     0
  9
$DIMLIM
 70
     0
  9
$DIMTIH
 70
     0
  9
$DIMTOH
 70
     0
  9
$DIMSE1
 70
     0
  9
$DIMSE2
 70
     0
  9
$DIMTAD
 70
     3
  9
$DIMZIN
 70
     8
  9
$DIMBLK
  1

  9
$DIMASO
 70
     1
  9
$DIMSHO
 70
     1
  9
$DIMPOST
  1

  9
$DIMAPOST
  1

  9
$DIMALT
 70
     0
  9
$DIMALTD
 70
     2
  9
$DIMALTF
 40
1.0
  9
$DIMLFAC
 40
1.0
  9
$DIMTOFL
 70
     1
  9
$DIMTVP
 40
0.0
  9
$DIMTIX
 70
     0
  9
$DIMSOXD
 70
     0
  9
$DIMSAH
 70
     1
  9
$DIMBLK1
  1
_OPEN
  9
$DIMBLK2
  1
_OPEN
  9
$DIMSTYLE
  2
DIM1
  9
$DIMCLRD
 70
     2
  9
$DIMCLRE
 70
     2
  9
$DIMCLRT
 70
     2
  9
$DIMTFAC
 40
0.7
  9
$DIMGAP
 40
0.85
  9
$DIMJUST
 70
     0
  9
$DIMSD1
 70
     0
  9
$DIMSD2
 70
     0
  9
$DIMTOLJ
 70
     1
  9
$DIMTZIN
 70
     8
  9
$DIMALTZ
 70
     8
  9
$DIMALTTZ
 70
     8
  9
$DIMFIT
 70
     3
  9
$DIMUPT
 70
     0
  9
$DIMUNIT
 70
     2
  9
$DIMDEC
 70
     2
  9
$DIMTDEC
 70
     3
  9
$DIMALTU
 70
     2
  9
$DIMALTTD
 70
     3
  9
$DIMTXSTY
  7
DIM
  9
$DIMAUNIT
 70
     0
  9
$LUNITS
 70
     2
  9
$LUPREC
 70
     4
  9
$SKETCHINC
 40
0.1
  9
$FILLETRAD
 40
0.0
  9
$AUNITS
 70
     0
  9
$AUPREC
 70
     0
  9
$MENU
  1
C:\ACADR13\WIN\SUPPORT\ACAD.mnc
  9
$ELEVATION
 40
0.0
  9
$PELEVATION
 40
0.0
  9
$THICKNESS
 40
0.0
  9
$LIMCHECK
 70
     0
  9
$BLIPMODE
 70
     1
  9
$CHAMFERA
 40
0.0
  9
$CHAMFERB
 40
0.0
  9
$CHAMFERC
 40
0.0
  9
$CHAMFERD
 40
0.0
  9
$SKPOLY
 70
     0
  9
$TDCREATE
 40
2451564.471928715
  9
$TDUPDATE
 40
2451981.564097395
  9
$TDINDWG
 40
0.0028384838
  9
$TDUSRTIMER
 40
0.0028384838
  9
$USRTIMER
 70
     1
  9
$ANGBASE
 50
0.0
  9
$ANGDIR
 70
     0
  9
$PDMODE
 70
     0
  9
$PDSIZE
 40
0.0
  9
$PLINEWID
 40
0.0
  9
$COORDS
 70
     1
  9
$SPLFRAME
 70
     0
  9
$SPLINETYPE
 70
     6
  9
$SPLINESEGS
 70
     8
  9
$ATTDIA
 70
     0
  9
$ATTREQ
 70
     1
  9
$HANDLING
 70
     1
  9
$HANDSEED
  5
3187
  9
$SURFTAB1
 70
     6
  9
$SURFTAB2
 70
     6
  9
$SURFTYPE
 70
     6
  9
$SURFU
 70
     6
  9
$SURFV
 70
     6
  9
$UCSNAME
  2

  9
$UCSORG
 10
0.0
 20
0.0
 30
0.0
  9
$UCSXDIR
 10
1.0
 20
0.0
 30
0.0
  9
$UCSYDIR
 10
0.0
 20
1.0
 30
0.0
  9
$PUCSNAME
  2

  9
$PUCSORG
 10
0.0
 20
0.0
 30
0.0
  9
$PUCSXDIR
 10
1.0
 20
0.0
 30
0.0
  9
$PUCSYDIR
 10
0.0
 20
1.0
 30
0.0
  9
$USERI1
 70
     0
  9
$USERI2
 70
     0
  9
$USERI3
 70
     0
  9
$USERI4
 70
     0
  9
$USERI5
 70
     0
  9
$USERR1
 40
0.0
  9
$USERR2
 40
0.0
  9
$USERR3
 40
0.0
  9
$USERR4
 40
0.0
  9
$USERR5
 40
0.0
  9
$WORLDVIEW
 70
     1
  9
$SHADEDGE
 70
     3
  9
$SHADEDIF
 70
    70
  9
$TILEMODE
 70
     1
  9
$MAXACTVP
 70
    16
  9
$PINSBASE
 10
0.0
 20
0.0
 30
0.0
  9
$PLIMCHECK
 70
     0
  9
$PEXTMIN
 10
1.000000E+20
 20
1.000000E+20
 30
1.000000E+20
  9
$PEXTMAX
 10
-1.000000E+20
 20
-1.000000E+20
 30
-1.000000E+20
  9
$PLIMMIN
 10
0.0
 20
0.0
  9
$PLIMMAX
 10
20.0
 20
147.0
  9
$UNITMODE
 70
     0
  9
$VISRETAIN
 70
     0
  9
$PLINEGEN
 70
     0
  9
$PSLTSCALE
 70
     1
  9
$TREEDEPTH
 70
  3020
  9
$PICKSTYLE
 70
     1
  9
$CMLSTYLE
  2
STANDARD
  9
$CMLJUST
 70
     0
  9
$CMLSCALE
 40
1.0
  9
$SAVEIMAGES
 70
     1
  0
ENDSEC
  0
SECTION
  2
CLASSES
  0
CLASS
  1
LWPOLYLINE
  2
AcDbPolyline
  3
"AutoCAD"
 90
    32768
280
     0
281
     1
  0
ENDSEC
  0
SECTION
  2
TABLES
  0
TABLE
  2
VPORT
  5
8
100
AcDbSymbolTable
 70
     2
  0
VPORT
  5
3186
100
AcDbSymbolTableRecord
100
AcDbViewportTableRecord
  2
*ACTIVE
 70
     0
 10
0.0
 20
0.0
 11
1.0
 21
1.0
 12
1151.098546
 22
653.267447
 13
0.0
 23
0.0
 14
1.0
 24
1.0
 15
0.0
 25
0.0
 16
0.0
 26
0.0
 36
1.0
 17
0.0
 27
0.0
 37
0.0
 40
1306.534894
 41
1.762063
 42
50.0
 43
0.0
 44
0.0
 50
0.0
 51
0.0
 71
     0
 72
   100
 73
     1
 74
     1
 75
     0
 76
     0
 77
     0
 78
     0
  0
ENDTAB
  0
TABLE
  2
LTYPE
  5
5
100
AcDbSymbolTable
 70
     1
  0
LTYPE
  5
12
100
AcDbSymbolTableRecord
100
AcDbLinetypeTableRecord
  2
BYBLOCK
 70
     0
  3

 72
    65
 73
     0
 40
0.0
  0
LTYPE
  5
13
100
AcDbSymbolTableRecord
100
AcDbLinetypeTableRecord
  2
BYLAYER
 70
     0
  3

 72
    65
 73
     0
 40
0.0
  0
LTYPE
  5
14
100
AcDbSymbolTableRecord
100
AcDbLinetypeTableRecord
  2
CONTINUOUS
 70
     0
  3
Solid line
 72
    65
 73
     0
 40
0.0
  0
ENDTAB
  0
TABLE
  2
LAYER
  5
2
100
AcDbSymbolTable
 70
     1
  0
LAYER
  5
F
100
AcDbSymbolTableRecord
100
AcDbLayerTableRecord
  2
0
 70
     0
 62
     7
  6
CONTINUOUS
  0
ENDTAB
  0
TABLE
  2
STYLE
  5
3
100
AcDbSymbolTable
 70
     3
  0
STYLE
  5
10
100
AcDbSymbolTableRecord
100
AcDbTextStyleTableRecord
  2
STANDARD
 70
     0
 40
0.0
 41
0.8
 50
0.0
 71
     0
 42
24.0
  3
simplex
  4
extfont
  0
STYLE
  5
237C
100
AcDbSymbolTableRecord
100
AcDbTextStyleTableRecord
  2
PTSH
 70
     0
 40
0.0
 41
0.9
 50
0.0
 71
     0
 42
4.0
  3
SIMPLEX
  4
EXTFONT
  0
STYLE
  5
2592
100
AcDbSymbolTableRecord
100
AcDbTextStyleTableRecord
  2
DIM
 70
     0
 40
0.0
 41
0.8
 50
0.0
 71
     0
 42
4.0
  3
simplex
  4
extfont
  0
ENDTAB
  0
TABLE
  2
VIEW
  5
6
100
AcDbSymbolTable
 70
     0
  0
ENDTAB
  0
TABLE
  2
UCS
  5
7
100
AcDbSymbolTable
 70
     0
  0
ENDTAB
  0
TABLE
  2
APPID
  5
9
100
AcDbSymbolTable
 70
     1
  0
APPID
  5
11
100
AcDbSymbolTableRecord
100
AcDbRegAppTableRecord
  2
ACAD
 70
     0
  0
ENDTAB
  0
TABLE
  2
DIMSTYLE
  5
A
100
AcDbSymbolTable
 70
     1
  0
DIMSTYLE
105
2237
100
AcDbSymbolTableRecord
100
AcDbDimStyleTableRecord
  2
DIM1
 70
     0
  3

  4

  5

  6
_OPEN
  7
_OPEN
 40
6.0
 41
2.8
 42
1.0
 43
5.0
 44
1.0
 45
0.1
 46
0.0
 47
0.0
 48
0.0
140
2.5
141
0.0
142
0.0
143
1.0
144
1.0
145
0.0
146
0.7
147
0.85
 71
     0
 72
     0
 73
     0
 74
     0
 75
     0
 76
     0
 77
     3
 78
     8
170
     0
171
     2
172
     1
173
     1
174
     0
175
     0
176
     2
177
     2
178
     2
270
     2
271
     2
272
     3
273
     2
274
     3
340
2592
275
     0
280
     0
281
     0
282
     0
283
     1
284
     8
285
     8
286
     8
287
     3
288
     0
  0
ENDTAB
  0
TABLE
  2
BLOCK_RECORD
  5
1
100
AcDbSymbolTable
 70
     1
  0
BLOCK_RECORD
  5
18
100
AcDbSymbolTableRecord
100
AcDbBlockTableRecord
  2
*MODEL_SPACE
  0
BLOCK_RECORD
  5
15
100
AcDbSymbolTableRecord
100
AcDbBlockTableRecord
  2
*PAPER_SPACE
  0
BLOCK_RECORD
  5
2448
100
AcDbSymbolTableRecord
100
AcDbBlockTableRecord
  2
_OPEN
  0
ENDTAB
  0
ENDSEC
  0
SECTION
  2
BLOCKS
  0
BLOCK
  5
3C
100
AcDbEntity
  8
0
100
AcDbBlockBegin
  2
*MODEL_SPACE
 70
     0
 10
0.0
 20
0.0
 30
0.0
  3
*MODEL_SPACE
  1

  0
ENDBLK
  5
3D
100
AcDbEntity
  8
0
100
AcDbBlockEnd
  0
BLOCK
  5
3A
100
AcDbEntity
 67
     1
  8
0
100
AcDbBlockBegin
  2
*PAPER_SPACE
 70
     0
 10
0.0
 20
0.0
 30
0.0
  3
*PAPER_SPACE
  1

  0
ENDBLK
  5
3B
100
AcDbEntity
 67
     1
  8
0
100
AcDbBlockEnd
  0
BLOCK
  5
2449
100
AcDbEntity
  8
0
 48
4.0
100
AcDbBlockBegin
  2
_OPEN
 70
     0
 10
0.0
 20
0.0
 30
0.0
  3
_OPEN
  1
H1111.DWG
  0
LINE
  5
244A
100
AcDbEntity
  8
0
  6
BYBLOCK
 62
     0
 48
4.0
100
AcDbLine
 10
-1.0
 20
0.166667
 30
0.0
 11
0.0
 21
0.0
 31
0.0
  0
LINE
  5
244B
100
AcDbEntity
  8
0
  6
BYBLOCK
 62
     0
 48
4.0
100
AcDbLine
 10
0.0
 20
0.0
 30
0.0
 11
-1.0
 21
-0.166667
 31
0.0
  0
LINE
  5
244C
100
AcDbEntity
  8
0
  6
BYBLOCK
 62
     0
 48
4.0
100
AcDbLine
 10
0.0
 20
0.0
 30
0.0
 11
-1.0
 21
0.0
 31
0.0
  0
ENDBLK
  5
244D
100
AcDbEntity
  8
0
 48
4.0
100
AcDbBlockEnd
  0
ENDSEC
  0
SECTION
  2
ENTITIES
  0
MTEXT
  5
ADA
100
AcDbEntity
  8
0
100
AcDbMText
 10
2280.835679
 20
299.077867
 30
0.0
 40
1.2
 41
283.358789
 71
     1
 72
     1
  1

  0
MTEXT
  5
ADB
100
AcDbEntity
  8
0
100
AcDbMText
 10
2334.299599
 20
347.104762
 30
0.0
 40
1.2
 41
272.666005
 71
     1
 72
     1
  1

  0
MTEXT
  5
ADC
100
AcDbEntity
  8
0
100
AcDbMText
 10
2302.221247
 20
-287.917478
 30
0.0
 40
1.2
 41
310.090749
 71
     1
 72
     1
  1

  0
TEXT
  5
2529
100
AcDbEntity
  8
0
  6
CONTINUOUS
100
AcDbText
 10
1596.154887
 20
44.419357
 30
0.0
 40
18.0
  1
SCOS-16
 41
0.9
  7
PTSH
 72
     1
 11
1649.383459
 21
53.419357
 31
0.0
100
AcDbText
 73
     2
  0
POLYLINE
  5
2563
100
AcDbEntity
  8
0
100
AcDb2dPolyline
 66
     1
 10
0.0
 20
0.0
 30
0.0
 70
     1
  0
VERTEX
  5
317A
100
AcDbEntity
  8
0
100
AcDbVertex
100
AcDb2dVertex
 10
66.0
 20
30.0
 30
0.0
  0
VERTEX
  5
317B
100
AcDbEntity
  8
0
100
AcDbVertex
100
AcDb2dVertex
 10
1716.0
 20
30.0
 30
0.0
  0
VERTEX
  5
317C
100
AcDbEntity
  8
0
100
AcDbVertex
100
AcDb2dVertex
 10
1716.0
 20
1146.0
 30
0.0
  0
VERTEX
  5
317D
100
AcDbEntity
  8
0
100
AcDbVertex
100
AcDb2dVertex
 10
66.0
 20
1146.0
 30
0.0
  0
SEQEND
  5
317E
100
AcDbEntity
  8
0
  0
LINE
  5
2BC4
100
AcDbEntity
  8
0
100
AcDbLine
 10
917.379893
 20
901.941297
 30
0.0
 11
910.940393
 21
895.639047
 31
0.0
  0
LINE
  5
2BC5
100
AcDbEntity
  8
0
100
AcDbLine
 10
910.940393
 20
895.639047
 30
0.0
 11
942.452768
 21
895.639047
 31
0.0
  0
TEXT
  5
2BC6
100
AcDbEntity
  8
0
100
AcDbText
 10
654.024069
 20
50.142681
 30
0.0
 40
30.0
  1
TLV  SCOS-16 (PT)
100
AcDbText
  0
TEXT
  5
2BC7
100
AcDbEntity
  8
0
100
AcDbText
 10
785.779002
 20
103.062478
 30
0.0
 40
20.0
  1
15A,20A,25A
 41
0.8
 11
785.779002
 21
103.062478
 31
0.0
100
AcDbText
 73
     1
  0
LINE
  5
2BC8
100
AcDbEntity
  8
0
100
AcDbLine
 10
745.672705
 20
638.051739
 30
0.0
 11
739.370455
 21
644.353989
 31
0.0
  0
LINE
  5
2BC9
100
AcDbEntity
  8
0
100
AcDbLine
 10
758.277205
 20
644.353989
 30
0.0
 11
761.429455
 21
641.202864
 31
0.0
  0
LINE
  5
2BCA
100
AcDbEntity
  8
0
100
AcDbLine
 10
770.74558
 20
644.353989
 30
0.0
 11
777.18508
 21
638.051739
 31
0.0
  0
LINE
  5
2BCB
100
AcDbEntity
  8
0
100
AcDbLine
 10
770.74558
 20
641.202864
 30
0.0
 11
770.74558
 21
644.353989
 31
0.0
  0
LINE
  5
2BCC
100
AcDbEntity
  8
0
100
AcDbLine
 10
891.62276
 20
631.59717
 30
0.0
 11
891.62276
 21
643.45717
 31
0.0
  0
LINE
  5
2BCD
100
AcDbEntity
  8
0
100
AcDbLine
 10
884.59276
 20
644.12717
 30
0.0
 11
884.59276
 21
630.93717
 31
0.0
  0
LINE
  5
2BCE
100
AcDbEntity
  8
0
100
AcDbLine
 10
881.70276
 20
645.52717
 30
0.0
 11
881.70276
 21
629.52717
 31
0.0
  0
ARC
  5
2BCF
100
AcDbEntity
  8
0
100
AcDbCircle
 10
816.688263
 20
643.52717
 30
0.0
 40
22.982527
100
AcDbArc
 50
164.866563
 51
195.133437
  0
ARC
  5
2BD0
100
AcDbEntity
  8
0
100
AcDbCircle
 10
777.717256
 20
643.52717
 30
0.0
 40
22.982527
100
AcDbArc
 50
344.866563
 51
15.133437
  0
LINE
  5
2BD1
100
AcDbEntity
  8
0
100
AcDbLine
 10
792.20276
 20
661.52717
 30
0.0
 11
792.20276
 21
613.52717
 31
0.0
  0
CIRCLE
  5
2BD2
100
AcDbEntity
  8
0
100
AcDbCircle
 10
840.70276
 20
637.52717
 30
0.0
 40
25.5
  0
CIRCLE
  5
2BD3
100
AcDbEntity
  8
0
100
AcDbCircle
 10
840.70276
 20
637.52717
 30
0.0
 40
16.5
  0
LINE
  5
2BD4
100
AcDbEntity
  8
0
100
AcDbLine
 10
804.70276
 20
612.07717
 30
0.0
 11
804.70276
 21
662.96717
 31
0.0
  0
ARC
  5
2BD5
100
AcDbEntity
  8
0
100
AcDbCircle
 10
788.916426
 20
637.52217
 30
0.0
 40
26.286334
100
AcDbArc
 50
332.359051
 51
27.640949
  0
LINE
  5
2BD6
100
AcDbEntity
  8
0
100
AcDbLine
 10
800.70276
 20
649.52717
 30
0.0
 11
800.70276
 21
625.52717
 31
0.0
  0
LINE
  5
2BD7
100
AcDbEntity
  8
0
100
AcDbLine
 10
800.70276
 20
649.52717
 30
0.0
 11
800.70276
 21
625.52717
 31
0.0
  0
LINE
  5
2BD8
100
AcDbEntity
  8
0
100
AcDbLine
 10
793.70276
 20
625.52717
 30
0.0
 11
793.70276
 21
649.52717
 31
0.0
  0
ARC
  5
2BD9
100
AcDbEntity
  8
0
100
AcDbCircle
 10
892.489093
 20
637.53217
 30
0.0
 40
26.286334
100
AcDbArc
 50
152.359051
 51
207.640949
  0
LINE
  5
2BDA
100
AcDbEntity
  8
0
100
AcDbLine
 10
876.70276
 20
612.07717
 30
0.0
 11
876.70276
 21
662.96717
 31
0.0
  0
LINE
  5
2BDB
100
AcDbEntity
  8
0
100
AcDbLine
 10
790.70276
 20
637.52717
 30
0.0
 11
790.70276
 21
660.02717
 31
0.0
  0
LINE
  5
2BDC
100
AcDbEntity
  8
0
100
AcDbLine
 10
880.70276
 20
263.270853
 30
0.0
 11
880.70276
 21
244.770853
 31
0.0
  0
LINE
  5
2BDD
100
AcDbEntity
  8
0
100
AcDbLine
 10
800.70276
 20
244.770853
 30
0.0
 11
800.70276
 21
263.270853
 31
0.0
  0
LINE
  5
2BDE
100
AcDbEntity
  8
0
100
AcDbLine
 10
691.508874
 20
244.770853
 30
0.0
 11
691.508874
 21
263.270853
 31
0.0
  0
LINE
  5
2BDF
100
AcDbEntity
  8
0
100
AcDbLine
 10
611.508874
 20
263.270853
 30
0.0
 11
611.508874
 21
244.770853
 31
0.0
  0
LINE
  5
2BE0
100
AcDbEntity
  8
0
100
AcDbLine
 10
677.048874
 20
230.730853
 30
0.0
 11
625.368874
 21
230.730853
 31
0.0
  0
LINE
  5
2BE1
100
AcDbEntity
  8
0
100
AcDbLine
 10
689.508874
 20
242.770853
 30
0.0
 11
613.508874
 21
242.770853
 31
0.0
  0
ARC
  5
2BE2
100
AcDbEntity
  8
0
100
AcDbCircle
 10
641.601539
 20
164.264661
 30
0.0
 40
9.993811
100
AcDbArc
 50
199.97391
 51
270.042049
  0
LINE
  5
2BE3
100
AcDbEntity
  8
0
100
AcDbLine
 10
607.508874
 20
179.270853
 30
0.0
 11
695.508874
 21
179.270853
 31
0.0
  0
LINE
  5
2BE4
100
AcDbEntity
  8
0
100
AcDbLine
 10
694.398874
 20
190.270853
 30
0.0
 11
608.618874
 21
190.270853
 31
0.0
  0
LINE
  5
2BE5
100
AcDbEntity
  8
0
100
AcDbLine
 10
694.008874
 20
168.270853
 30
0.0
 11
608.508874
 21
168.270853
 31
0.0
  0
LINE
  5
2BE6
100
AcDbEntity
  8
0
100
AcDbLine
 10
621.878874
 20
230.730853
 30
0.0
 11
609.833518
 21
191.332295
 31
0.0
  0
LINE
  5
2BE7
100
AcDbEntity
  8
0
100
AcDbLine
 10
607.508874
 20
189.070853
 30
0.0
 11
607.508874
 21
169.770853
 31
0.0
  0
LINE
  5
2BE8
100
AcDbEntity
  8
0
100
AcDbLine
 10
623.518874
 20
161.770853
 30
0.0
 11
610.908874
 21
161.770853
 31
0.0
  0
ARC
  5
2BE9
100
AcDbEntity
  8
0
100
AcDbCircle
 10
613.964113
 20
169.76871
 30
0.0
 40
7.997857
100
AcDbArc
 50
246.02557
 51
293.97443
  0
ARC
  5
2BEA
100
AcDbEntity
  8
0
100
AcDbCircle
 10
609.258374
 20
169.853853
 30
0.0
 40
1.751468
100
AcDbArc
 50
182.716197
 51
244.663938
  0
LINE
  5
2BEB
100
AcDbEntity
  8
0
100
AcDbLine
 10
610.908874
 20
161.770853
 30
0.0
 11
610.714353
 21
162.460853
 31
0.0
  0
LINE
  5
2BEC
100
AcDbEntity
  8
0
100
AcDbLine
 10
610.714353
 20
162.460853
 30
0.0
 11
610.714353
 21
168.270853
 31
0.0
  0
ARC
  5
2BED
100
AcDbEntity
  8
0
100
AcDbCircle
 10
628.119052
 20
166.286562
 30
0.0
 40
1.984318
100
AcDbArc
 50
19.558598
 51
90.293893
  0
LINE
  5
2BEE
100
AcDbEntity
  8
0
100
AcDbLine
 10
632.208874
 20
160.850853
 30
0.0
 11
629.988874
 21
166.950853
 31
0.0
  0
ARC
  5
2BEF
100
AcDbEntity
  8
0
100
AcDbCircle
 10
620.463634
 20
169.76871
 30
0.0
 40
7.997857
100
AcDbArc
 50
246.02557
 51
293.97443
  0
LINE
  5
2BF0
100
AcDbEntity
  8
0
100
AcDbLine
 10
623.713394
 20
162.460853
 30
0.0
 11
623.518874
 21
161.770853
 31
0.0
  0
LINE
  5
2BF1
100
AcDbEntity
  8
0
100
AcDbLine
 10
623.713394
 20
168.270853
 30
0.0
 11
623.713394
 21
162.460853
 31
0.0
  0
LINE
  5
2BF2
100
AcDbEntity
  8
0
100
AcDbLine
 10
617.213874
 20
168.270853
 30
0.0
 11
617.213874
 21
162.460853
 31
0.0
  0
LINE
  5
2BF3
100
AcDbEntity
  8
0
100
AcDbLine
 10
620.018874
 20
193.270853
 30
0.0
 11
614.418874
 21
193.270853
 31
0.0
  0
LINE
  5
2BF4
100
AcDbEntity
  8
0
100
AcDbLine
 10
621.218874
 20
192.070853
 30
0.0
 11
613.218874
 21
192.070853
 31
0.0
  0
LINE
  5
2BF5
100
AcDbEntity
  8
0
100
AcDbLine
 10
613.218874
 20
192.070853
 30
0.0
 11
613.218874
 21
190.270853
 31
0.0
  0
LINE
  5
2BF6
100
AcDbEntity
  8
0
100
AcDbLine
 10
614.418874
 20
193.270853
 30
0.0
 11
613.218874
 21
192.070853
 31
0.0
  0
ARC
  5
2BF7
100
AcDbEntity
  8
0
100
AcDbCircle
 10
608.707431
 20
189.075562
 30
0.0
 40
1.198567
100
AcDbArc
 50
94.23723
 51
180.225119
  0
ARC
  5
2BF8
100
AcDbEntity
  8
0
100
AcDbCircle
 10
608.34705
 20
191.807611
 30
0.0
 40
1.560613
100
AcDbArc
 50
280.030808
 51
342.26771
  0
LINE
  5
2BF9
100
AcDbEntity
  8
0
100
AcDbLine
 10
621.218874
 20
192.070853
 30
0.0
 11
620.018874
 21
193.270853
 31
0.0
  0
LINE
  5
2BFA
100
AcDbEntity
  8
0
100
AcDbLine
 10
621.218874
 20
190.270853
 30
0.0
 11
621.218874
 21
192.070853
 31
0.0
  0
ARC
  5
2BFB
100
AcDbEntity
  8
0
100
AcDbCircle
 10
618.204113
 20
244.26871
 30
0.0
 40
7.997857
100
AcDbArc
 50
246.02557
 51
293.97443
  0
LINE
  5
2BFC
100
AcDbEntity
  8
0
100
AcDbLine
 10
627.758874
 20
236.270853
 30
0.0
 11
615.148874
 21
236.270853
 31
0.0
  0
ARC
  5
2BFD
100
AcDbEntity
  8
0
100
AcDbCircle
 10
613.508874
 20
244.770853
 30
0.0
 40
2.0
100
AcDbArc
 50
180.0
 51
270.0
  0
LINE
  5
2BFE
100
AcDbEntity
  8
0
100
AcDbLine
 10
614.954353
 20
236.960853
 30
0.0
 11
614.954353
 21
242.770853
 31
0.0
  0
LINE
  5
2BFF
100
AcDbEntity
  8
0
100
AcDbLine
 10
615.148874
 20
236.270853
 30
0.0
 11
614.954353
 21
236.960853
 31
0.0
  0
LINE
  5
2C00
100
AcDbEntity
  8
0
100
AcDbLine
 10
622.168874
 20
236.270853
 30
0.0
 11
621.878874
 21
230.730853
 31
0.0
  0
LINE
  5
2C01
100
AcDbEntity
  8
0
100
AcDbLine
 10
621.453874
 20
242.770853
 30
0.0
 11
621.453874
 21
236.960853
 31
0.0
  0
LINE
  5
2C02
100
AcDbEntity
  8
0
100
AcDbLine
 10
627.953394
 20
242.770853
 30
0.0
 11
627.953394
 21
236.960853
 31
0.0
  0
LINE
  5
2C03
100
AcDbEntity
  8
0
100
AcDbLine
 10
627.953394
 20
236.960853
 30
0.0
 11
627.758874
 21
236.270853
 31
0.0
  0
ARC
  5
2C04
100
AcDbEntity
  8
0
100
AcDbCircle
 10
624.703634
 20
244.26871
 30
0.0
 40
7.997857
100
AcDbArc
 50
246.02557
 51
293.97443
  0
LINE
  5
2C05
100
AcDbEntity
  8
0
100
AcDbLine
 10
634.508874
 20
137.770853
 30
0.0
 11
634.508874
 21
157.22404
 31
0.0
  0
LINE
  5
2C06
100
AcDbEntity
  8
0
100
AcDbLine
 10
668.508874
 20
157.22404
 30
0.0
 11
668.508874
 21
137.770853
 31
0.0
  0
ARC
  5
2C07
100
AcDbEntity
  8
0
100
AcDbCircle
 10
667.006616
 20
137.773111
 30
0.0
 40
1.50226
100
AcDbArc
 50
270.086122
 51
359.913878
  0
LINE
  5
2C08
100
AcDbEntity
  8
0
100
AcDbLine
 10
636.008874
 20
136.270853
 30
0.0
 11
667.008874
 21
136.270853
 31
0.0
  0
ARC
  5
2C09
100
AcDbEntity
  8
0
100
AcDbCircle
 10
636.024721
 20
137.7867
 30
0.0
 40
1.51593
100
AcDbArc
 50
180.598965
 51
269.401035
  0
LINE
  5
2C0A
100
AcDbEntity
  8
0
100
AcDbLine
 10
693.248874
 20
191.120853
 30
0.0
 11
681.138874
 21
230.730853
 31
0.0
  0
ARC
  5
2C0B
100
AcDbEntity
  8
0
100
AcDbCircle
 10
661.416208
 20
164.264661
 30
0.0
 40
9.993811
100
AcDbArc
 50
269.957951
 51
340.02609
  0
LINE
  5
2C0C
100
AcDbEntity
  8
0
100
AcDbLine
 10
641.608874
 20
154.270853
 30
0.0
 11
661.408874
 21
154.270853
 31
0.0
  0
LINE
  5
2C0D
100
AcDbEntity
  8
0
100
AcDbLine
 10
695.508874
 20
169.770853
 30
0.0
 11
695.508874
 21
189.070853
 31
0.0
  0
LINE
  5
2C0E
100
AcDbEntity
  8
0
100
AcDbLine
 10
692.108874
 20
161.770853
 30
0.0
 11
679.498874
 21
161.770853
 31
0.0
  0
ARC
  5
2C0F
100
AcDbEntity
  8
0
100
AcDbCircle
 10
682.554113
 20
169.76871
 30
0.0
 40
7.997857
100
AcDbArc
 50
246.02557
 51
293.97443
  0
LINE
  5
2C10
100
AcDbEntity
  8
0
100
AcDbLine
 10
679.498874
 20
161.770853
 30
0.0
 11
679.304353
 21
162.460853
 31
0.0
  0
LINE
  5
2C11
100
AcDbEntity
  8
0
100
AcDbLine
 10
679.304353
 20
162.460853
 30
0.0
 11
679.304353
 21
168.270853
 31
0.0
  0
ARC
  5
2C12
100
AcDbEntity
  8
0
100
AcDbCircle
 10
674.898695
 20
166.286562
 30
0.0
 40
1.984318
100
AcDbArc
 50
89.706107
 51
160.441402
  0
LINE
  5
2C13
100
AcDbEntity
  8
0
100
AcDbLine
 10
670.808874
 20
160.850853
 30
0.0
 11
673.028874
 21
166.950853
 31
0.0
  0
ARC
  5
2C14
100
AcDbEntity
  8
0
100
AcDbCircle
 10
693.993027
 20
169.7867
 30
0.0
 40
1.51593
100
AcDbArc
 50
270.598965
 51
359.401035
  0
ARC
  5
2C15
100
AcDbEntity
  8
0
100
AcDbCircle
 10
689.053634
 20
169.76871
 30
0.0
 40
7.997857
100
AcDbArc
 50
246.02557
 51
293.97443
  0
LINE
  5
2C16
100
AcDbEntity
  8
0
100
AcDbLine
 10
692.303394
 20
162.460853
 30
0.0
 11
692.108874
 21
161.770853
 31
0.0
  0
LINE
  5
2C17
100
AcDbEntity
  8
0
100
AcDbLine
 10
692.303394
 20
168.270853
 30
0.0
 11
692.303394
 21
162.460853
 31
0.0
  0
LINE
  5
2C18
100
AcDbEntity
  8
0
100
AcDbLine
 10
685.803874
 20
168.270853
 30
0.0
 11
685.803874
 21
162.460853
 31
0.0
  0
LINE
  5
2C19
100
AcDbEntity
  8
0
100
AcDbLine
 10
688.598874
 20
193.270853
 30
0.0
 11
682.998874
 21
193.270853
 31
0.0
  0
LINE
  5
2C1A
100
AcDbEntity
  8
0
100
AcDbLine
 10
689.798874
 20
192.070853
 30
0.0
 11
681.798874
 21
192.070853
 31
0.0
  0
LINE
  5
2C1B
100
AcDbEntity
  8
0
100
AcDbLine
 10
681.798874
 20
192.070853
 30
0.0
 11
681.798874
 21
190.270853
 31
0.0
  0
LINE
  5
2C1C
100
AcDbEntity
  8
0
100
AcDbLine
 10
682.998874
 20
193.270853
 30
0.0
 11
681.798874
 21
192.070853
 31
0.0
  0
LINE
  5
2C1D
100
AcDbEntity
  8
0
100
AcDbLine
 10
689.798874
 20
192.070853
 30
0.0
 11
688.598874
 21
193.270853
 31
0.0
  0
LINE
  5
2C1E
100
AcDbEntity
  8
0
100
AcDbLine
 10
689.798874
 20
190.270853
 30
0.0
 11
689.798874
 21
192.070853
 31
0.0
  0
ARC
  5
2C1F
100
AcDbEntity
  8
0
100
AcDbCircle
 10
694.38864
 20
191.470363
 30
0.0
 40
1.192151
100
AcDbArc
 50
197.04816
 51
263.509132
  0
ARC
  5
2C20
100
AcDbEntity
  8
0
100
AcDbCircle
 10
694.310316
 20
189.075562
 30
0.0
 40
1.198567
100
AcDbArc
 50
359.774881
 51
85.76277
  0
ARC
  5
2C21
100
AcDbEntity
  8
0
100
AcDbCircle
 10
684.813634
 20
244.26871
 30
0.0
 40
7.997857
100
AcDbArc
 50
246.02557
 51
293.97443
  0
LINE
  5
2C22
100
AcDbEntity
  8
0
100
AcDbLine
 10
687.868874
 20
236.270853
 30
0.0
 11
675.258874
 21
236.270853
 31
0.0
  0
LINE
  5
2C23
100
AcDbEntity
  8
0
100
AcDbLine
 10
681.138874
 20
230.730853
 30
0.0
 11
680.848874
 21
236.270853
 31
0.0
  0
LINE
  5
2C24
100
AcDbEntity
  8
0
100
AcDbLine
 10
681.563874
 20
242.770853
 30
0.0
 11
681.563874
 21
236.960853
 31
0.0
  0
LINE
  5
2C25
100
AcDbEntity
  8
0
100
AcDbLine
 10
675.064353
 20
236.960853
 30
0.0
 11
675.064353
 21
242.770853
 31
0.0
  0
LINE
  5
2C26
100
AcDbEntity
  8
0
100
AcDbLine
 10
675.258874
 20
236.270853
 30
0.0
 11
675.064353
 21
236.960853
 31
0.0
  0
ARC
  5
2C27
100
AcDbEntity
  8
0
100
AcDbCircle
 10
678.314113
 20
244.26871
 30
0.0
 40
7.997857
100
AcDbArc
 50
246.02557
 51
293.97443
  0
ARC
  5
2C28
100
AcDbEntity
  8
0
100
AcDbCircle
 10
689.508874
 20
244.770853
 30
0.0
 40
2.0
100
AcDbArc
 50
270.0
 51
0.0
  0
LINE
  5
2C29
100
AcDbEntity
  8
0
100
AcDbLine
 10
688.063394
 20
242.770853
 30
0.0
 11
688.063394
 21
236.960853
 31
0.0
  0
LINE
  5
2C2A
100
AcDbEntity
  8
0
100
AcDbLine
 10
688.063394
 20
236.960853
 30
0.0
 11
687.868874
 21
236.270853
 31
0.0
  0
LINE
  5
2C2B
100
AcDbEntity
  8
0
100
AcDbLine
 10
883.70276
 20
137.770853
 30
0.0
 11
883.70276
 21
168.270853
 31
0.0
  0
LINE
  5
2C2C
100
AcDbEntity
  8
0
100
AcDbLine
 10
849.70276
 20
151.270853
 30
0.0
 11
849.70276
 21
137.770853
 31
0.0
  0
LINE
  5
2C2D
100
AcDbEntity
  8
0
100
AcDbLine
 10
882.20276
 20
136.270853
 30
0.0
 11
851.20276
 21
136.270853
 31
0.0
  0
ARC
  5
2C2E
100
AcDbEntity
  8
0
100
AcDbCircle
 10
851.205018
 20
137.773111
 30
0.0
 40
1.50226
100
AcDbArc
 50
180.086122
 51
269.913878
  0
ARC
  5
2C2F
100
AcDbEntity
  8
0
100
AcDbCircle
 10
882.186912
 20
137.7867
 30
0.0
 40
1.51593
100
AcDbArc
 50
270.598965
 51
359.401035
  0
LINE
  5
2C30
100
AcDbEntity
  8
0
100
AcDbLine
 10
815.16276
 20
230.730853
 30
0.0
 11
866.84276
 21
230.730853
 31
0.0
  0
LINE
  5
2C31
100
AcDbEntity
  8
0
100
AcDbLine
 10
802.70276
 20
242.770853
 30
0.0
 11
878.70276
 21
242.770853
 31
0.0
  0
LINE
  5
2C32
100
AcDbEntity
  8
0
100
AcDbLine
 10
830.80276
 20
154.270853
 30
0.0
 11
850.60276
 21
154.270853
 31
0.0
  0
LINE
  5
2C33
100
AcDbEntity
  8
0
100
AcDbLine
 10
798.20276
 20
168.270853
 30
0.0
 11
883.70276
 21
168.270853
 31
0.0
  0
LINE
  5
2C34
100
AcDbEntity
  8
0
100
AcDbLine
 10
797.81276
 20
190.270853
 30
0.0
 11
883.59276
 21
190.270853
 31
0.0
  0
LINE
  5
2C35
100
AcDbEntity
  8
0
100
AcDbLine
 10
884.70276
 20
179.270853
 30
0.0
 11
796.70276
 21
179.270853
 31
0.0
  0
LINE
  5
2C36
100
AcDbEntity
  8
0
100
AcDbLine
 10
798.96276
 20
191.120853
 30
0.0
 11
811.07276
 21
230.730853
 31
0.0
  0
LINE
  5
2C37
100
AcDbEntity
  8
0
100
AcDbLine
 10
800.10276
 20
161.770853
 30
0.0
 11
812.71276
 21
161.770853
 31
0.0
  0
ARC
  5
2C38
100
AcDbEntity
  8
0
100
AcDbCircle
 10
806.40776
 20
176.432891
 30
0.0
 40
14.467822
100
AcDbArc
 50
254.957143
 51
285.042857
  0
LINE
  5
2C39
100
AcDbEntity
  8
0
100
AcDbLine
 10
802.41276
 20
192.070853
 30
0.0
 11
810.41276
 21
192.070853
 31
0.0
  0
LINE
  5
2C3A
100
AcDbEntity
  8
0
100
AcDbLine
 10
803.61276
 20
193.270853
 30
0.0
 11
809.21276
 21
193.270853
 31
0.0
  0
LINE
  5
2C3B
100
AcDbEntity
  8
0
100
AcDbLine
 10
796.70276
 20
169.770853
 30
0.0
 11
796.70276
 21
189.070853
 31
0.0
  0
ARC
  5
2C3C
100
AcDbEntity
  8
0
100
AcDbCircle
 10
798.218607
 20
169.7867
 30
0.0
 40
1.51593
100
AcDbArc
 50
180.598965
 51
269.401035
  0
ARC
  5
2C3D
100
AcDbEntity
  8
0
100
AcDbCircle
 10
800.77276
 20
166.604862
 30
0.0
 40
4.550517
100
AcDbArc
 50
245.597773
 51
294.402227
  0
LINE
  5
2C3E
100
AcDbEntity
  8
0
100
AcDbLine
 10
798.90276
 20
162.460853
 30
0.0
 11
800.10276
 21
161.770853
 31
0.0
  0
LINE
  5
2C3F
100
AcDbEntity
  8
0
100
AcDbLine
 10
802.65276
 20
168.270853
 30
0.0
 11
802.65276
 21
162.460853
 31
0.0
  0
LINE
  5
2C40
100
AcDbEntity
  8
0
100
AcDbLine
 10
798.90276
 20
168.270853
 30
0.0
 11
798.90276
 21
162.460853
 31
0.0
  0
ARC
  5
2C41
100
AcDbEntity
  8
0
100
AcDbCircle
 10
797.901317
 20
189.075562
 30
0.0
 40
1.198567
100
AcDbArc
 50
94.23723
 51
180.225119
  0
LINE
  5
2C42
100
AcDbEntity
  8
0
100
AcDbLine
 10
802.41276
 20
190.270853
 30
0.0
 11
802.41276
 21
192.070853
 31
0.0
  0
LINE
  5
2C43
100
AcDbEntity
  8
0
100
AcDbLine
 10
802.41276
 20
192.070853
 30
0.0
 11
803.61276
 21
193.270853
 31
0.0
  0
ARC
  5
2C44
100
AcDbEntity
  8
0
100
AcDbCircle
 10
797.822993
 20
191.470363
 30
0.0
 40
1.192151
100
AcDbArc
 50
276.490868
 51
342.95184
  0
ARC
  5
2C45
100
AcDbEntity
  8
0
100
AcDbCircle
 10
830.795425
 20
164.264661
 30
0.0
 40
9.993811
100
AcDbArc
 50
199.97391
 51
270.042049
  0
LINE
  5
2C46
100
AcDbEntity
  8
0
100
AcDbLine
 10
821.40276
 20
160.850853
 30
0.0
 11
819.18276
 21
166.950853
 31
0.0
  0
ARC
  5
2C47
100
AcDbEntity
  8
0
100
AcDbCircle
 10
812.04276
 20
166.604862
 30
0.0
 40
4.550517
100
AcDbArc
 50
245.597773
 51
294.402227
  0
LINE
  5
2C48
100
AcDbEntity
  8
0
100
AcDbLine
 10
810.16276
 20
168.270853
 30
0.0
 11
810.16276
 21
162.460853
 31
0.0
  0
LINE
  5
2C49
100
AcDbEntity
  8
0
100
AcDbLine
 10
813.91276
 20
162.460853
 30
0.0
 11
813.91276
 21
168.270853
 31
0.0
  0
LINE
  5
2C4A
100
AcDbEntity
  8
0
100
AcDbLine
 10
812.71276
 20
161.770853
 30
0.0
 11
813.91276
 21
162.460853
 31
0.0
  0
LINE
  5
2C4B
100
AcDbEntity
  8
0
100
AcDbLine
 10
813.92276
 20
162.460853
 30
0.0
 11
813.91276
 21
162.460853
 31
0.0
  0
ARC
  5
2C4C
100
AcDbEntity
  8
0
100
AcDbCircle
 10
817.312938
 20
166.286562
 30
0.0
 40
1.984318
100
AcDbArc
 50
19.558598
 51
90.293893
  0
LINE
  5
2C4D
100
AcDbEntity
  8
0
100
AcDbLine
 10
809.21276
 20
193.270853
 30
0.0
 11
810.41276
 21
192.070853
 31
0.0
  0
LINE
  5
2C4E
100
AcDbEntity
  8
0
100
AcDbLine
 10
810.41276
 20
192.070853
 30
0.0
 11
810.41276
 21
190.270853
 31
0.0
  0
LINE
  5
2C4F
100
AcDbEntity
  8
0
100
AcDbLine
 10
804.34276
 20
236.270853
 30
0.0
 11
816.95276
 21
236.270853
 31
0.0
  0
ARC
  5
2C50
100
AcDbEntity
  8
0
100
AcDbCircle
 10
810.64776
 20
250.932891
 30
0.0
 40
14.467822
100
AcDbArc
 50
254.957143
 51
285.042857
  0
ARC
  5
2C51
100
AcDbEntity
  8
0
100
AcDbCircle
 10
802.70276
 20
244.770853
 30
0.0
 40
2.0
100
AcDbArc
 50
180.0
 51
270.0
  0
ARC
  5
2C52
100
AcDbEntity
  8
0
100
AcDbCircle
 10
805.01276
 20
241.104862
 30
0.0
 40
4.550517
100
AcDbArc
 50
245.597773
 51
294.402227
  0
LINE
  5
2C53
100
AcDbEntity
  8
0
100
AcDbLine
 10
803.14276
 20
242.770853
 30
0.0
 11
803.14276
 21
236.960853
 31
0.0
  0
LINE
  5
2C54
100
AcDbEntity
  8
0
100
AcDbLine
 10
803.14276
 20
236.960853
 30
0.0
 11
804.34276
 21
236.270853
 31
0.0
  0
LINE
  5
2C55
100
AcDbEntity
  8
0
100
AcDbLine
 10
806.89276
 20
242.770853
 30
0.0
 11
806.89276
 21
236.960853
 31
0.0
  0
LINE
  5
2C56
100
AcDbEntity
  8
0
100
AcDbLine
 10
811.07276
 20
230.730853
 30
0.0
 11
811.36276
 21
236.270853
 31
0.0
  0
LINE
  5
2C57
100
AcDbEntity
  8
0
100
AcDbLine
 10
814.40276
 20
242.770853
 30
0.0
 11
814.40276
 21
236.960853
 31
0.0
  0
ARC
  5
2C58
100
AcDbEntity
  8
0
100
AcDbCircle
 10
816.28276
 20
241.104862
 30
0.0
 40
4.550517
100
AcDbArc
 50
245.597773
 51
294.402227
  0
LINE
  5
2C59
100
AcDbEntity
  8
0
100
AcDbLine
 10
818.16276
 20
236.960853
 30
0.0
 11
818.15276
 21
236.960853
 31
0.0
  0
LINE
  5
2C5A
100
AcDbEntity
  8
0
100
AcDbLine
 10
816.95276
 20
236.270853
 30
0.0
 11
818.15276
 21
236.960853
 31
0.0
  0
LINE
  5
2C5B
100
AcDbEntity
  8
0
100
AcDbLine
 10
818.15276
 20
236.960853
 30
0.0
 11
818.15276
 21
242.770853
 31
0.0
  0
LINE
  5
2C5C
100
AcDbEntity
  8
0
100
AcDbLine
 10
870.33276
 20
230.730853
 30
0.0
 11
882.378115
 21
191.332295
 31
0.0
  0
LINE
  5
2C5D
100
AcDbEntity
  8
0
100
AcDbLine
 10
870.99276
 20
192.070853
 30
0.0
 11
878.99276
 21
192.070853
 31
0.0
  0
LINE
  5
2C5E
100
AcDbEntity
  8
0
100
AcDbLine
 10
872.19276
 20
193.270853
 30
0.0
 11
877.79276
 21
193.270853
 31
0.0
  0
ARC
  5
2C5F
100
AcDbEntity
  8
0
100
AcDbCircle
 10
874.99776
 20
176.432891
 30
0.0
 40
14.467822
100
AcDbArc
 50
254.957143
 51
285.042857
  0
LINE
  5
2C60
100
AcDbEntity
  8
0
100
AcDbLine
 10
868.69276
 20
161.770853
 30
0.0
 11
881.30276
 21
161.770853
 31
0.0
  0
ARC
  5
2C61
100
AcDbEntity
  8
0
100
AcDbCircle
 10
850.610094
 20
164.264661
 30
0.0
 40
9.993811
100
AcDbArc
 50
269.957951
 51
340.02609
  0
ARC
  5
2C62
100
AcDbEntity
  8
0
100
AcDbCircle
 10
846.671065
 20
151.239159
 30
0.0
 40
3.03186
100
AcDbArc
 50
0.598965
 51
89.401035
  0
LINE
  5
2C63
100
AcDbEntity
  8
0
100
AcDbLine
 10
871.24276
 20
168.270853
 30
0.0
 11
871.24276
 21
162.460853
 31
0.0
  0
LINE
  5
2C64
100
AcDbEntity
  8
0
100
AcDbLine
 10
860.00276
 20
160.850853
 30
0.0
 11
862.22276
 21
166.950853
 31
0.0
  0
ARC
  5
2C65
100
AcDbEntity
  8
0
100
AcDbCircle
 10
864.092581
 20
166.286562
 30
0.0
 40
1.984318
100
AcDbArc
 50
89.706107
 51
160.441402
  0
LINE
  5
2C66
100
AcDbEntity
  8
0
100
AcDbLine
 10
867.49276
 20
168.270853
 30
0.0
 11
867.49276
 21
162.460853
 31
0.0
  0
ARC
  5
2C67
100
AcDbEntity
  8
0
100
AcDbCircle
 10
869.36276
 20
166.604862
 30
0.0
 40
4.550517
100
AcDbArc
 50
245.597773
 51
294.402227
  0
LINE
  5
2C68
100
AcDbEntity
  8
0
100
AcDbLine
 10
867.49276
 20
162.460853
 30
0.0
 11
868.69276
 21
161.770853
 31
0.0
  0
LINE
  5
2C69
100
AcDbEntity
  8
0
100
AcDbLine
 10
870.99276
 20
190.270853
 30
0.0
 11
870.99276
 21
192.070853
 31
0.0
  0
LINE
  5
2C6A
100
AcDbEntity
  8
0
100
AcDbLine
 10
870.99276
 20
192.070853
 30
0.0
 11
872.19276
 21
193.270853
 31
0.0
  0
LINE
  5
2C6B
100
AcDbEntity
  8
0
100
AcDbLine
 10
884.70276
 20
189.070853
 30
0.0
 11
884.70276
 21
169.770853
 31
0.0
  0
LINE
  5
2C6C
100
AcDbEntity
  8
0
100
AcDbLine
 10
882.50276
 20
162.460853
 30
0.0
 11
882.50276
 21
168.270853
 31
0.0
  0
LINE
  5
2C6D
100
AcDbEntity
  8
0
100
AcDbLine
 10
881.30276
 20
161.770853
 30
0.0
 11
882.50276
 21
162.460853
 31
0.0
  0
LINE
  5
2C6E
100
AcDbEntity
  8
0
100
AcDbLine
 10
882.51276
 20
162.460853
 30
0.0
 11
882.50276
 21
162.460853
 31
0.0
  0
ARC
  5
2C6F
100
AcDbEntity
  8
0
100
AcDbCircle
 10
880.63276
 20
166.604862
 30
0.0
 40
4.550517
100
AcDbArc
 50
245.597773
 51
294.402227
  0
LINE
  5
2C70
100
AcDbEntity
  8
0
100
AcDbLine
 10
878.75276
 20
168.270853
 30
0.0
 11
878.75276
 21
162.460853
 31
0.0
  0
ARC
  5
2C71
100
AcDbEntity
  8
0
100
AcDbCircle
 10
882.95326
 20
169.853853
 30
0.0
 40
1.751468
100
AcDbArc
 50
295.336062
 51
357.283803
  0
ARC
  5
2C72
100
AcDbEntity
  8
0
100
AcDbCircle
 10
883.864584
 20
191.807611
 30
0.0
 40
1.560613
100
AcDbArc
 50
197.73229
 51
259.969192
  0
LINE
  5
2C73
100
AcDbEntity
  8
0
100
AcDbLine
 10
877.79276
 20
193.270853
 30
0.0
 11
878.99276
 21
192.070853
 31
0.0
  0
LINE
  5
2C74
100
AcDbEntity
  8
0
100
AcDbLine
 10
878.99276
 20
192.070853
 30
0.0
 11
878.99276
 21
190.270853
 31
0.0
  0
ARC
  5
2C75
100
AcDbEntity
  8
0
100
AcDbCircle
 10
883.504202
 20
189.075562
 30
0.0
 40
1.198567
100
AcDbArc
 50
359.774881
 51
85.76277
  0
ARC
  5
2C76
100
AcDbEntity
  8
0
100
AcDbCircle
 10
876.39276
 20
241.104862
 30
0.0
 40
4.550517
100
AcDbArc
 50
245.597773
 51
294.402227
  0
LINE
  5
2C77
100
AcDbEntity
  8
0
100
AcDbLine
 10
864.45276
 20
236.270853
 30
0.0
 11
877.06276
 21
236.270853
 31
0.0
  0
LINE
  5
2C78
100
AcDbEntity
  8
0
100
AcDbLine
 10
870.04276
 20
236.270853
 30
0.0
 11
870.33276
 21
230.730853
 31
0.0
  0
LINE
  5
2C79
100
AcDbEntity
  8
0
100
AcDbLine
 10
874.51276
 20
242.770853
 30
0.0
 11
874.51276
 21
236.960853
 31
0.0
  0
ARC
  5
2C7A
100
AcDbEntity
  8
0
100
AcDbCircle
 10
865.12276
 20
241.104862
 30
0.0
 40
4.550517
100
AcDbArc
 50
245.597773
 51
294.402227
  0
LINE
  5
2C7B
100
AcDbEntity
  8
0
100
AcDbLine
 10
863.25276
 20
236.960853
 30
0.0
 11
864.45276
 21
236.270853
 31
0.0
  0
LINE
  5
2C7C
100
AcDbEntity
  8
0
100
AcDbLine
 10
863.25276
 20
242.770853
 30
0.0
 11
863.25276
 21
236.960853
 31
0.0
  0
LINE
  5
2C7D
100
AcDbEntity
  8
0
100
AcDbLine
 10
867.00276
 20
242.770853
 30
0.0
 11
867.00276
 21
236.960853
 31
0.0
  0
ARC
  5
2C7E
100
AcDbEntity
  8
0
100
AcDbCircle
 10
870.75776
 20
250.932891
 30
0.0
 40
14.467822
100
AcDbArc
 50
254.957143
 51
285.042857
  0
ARC
  5
2C7F
100
AcDbEntity
  8
0
100
AcDbCircle
 10
878.70276
 20
244.770853
 30
0.0
 40
2.0
100
AcDbArc
 50
270.0
 51
0.0
  0
LINE
  5
2C80
100
AcDbEntity
  8
0
100
AcDbLine
 10
878.26276
 20
236.960853
 30
0.0
 11
878.26276
 21
242.770853
 31
0.0
  0
LINE
  5
2C81
100
AcDbEntity
  8
0
100
AcDbLine
 10
877.06276
 20
236.270853
 30
0.0
 11
878.26276
 21
236.960853
 31
0.0
  0
LINE
  5
2C82
100
AcDbEntity
  8
0
100
AcDbLine
 10
878.27276
 20
236.960853
 30
0.0
 11
878.26276
 21
236.960853
 31
0.0
  0
LINE
  5
2C83
100
AcDbEntity
  8
0
100
AcDbLine
 10
635.508874
 20
453.570853
 30
0.0
 11
631.978874
 21
430.070853
 31
0.0
  0
ARC
  5
2C84
100
AcDbEntity
  8
0
100
AcDbCircle
 10
630.942097
 20
526.272384
 30
0.0
 40
2.001533
100
AcDbArc
 50
270.083475
 51
12.654204
  0
LINE
  5
2C85
100
AcDbEntity
  8
0
100
AcDbLine
 10
635.008874
 20
538.270853
 30
0.0
 11
627.125218
 21
536.642305
 31
0.0
  0
ARC
  5
2C86
100
AcDbEntity
  8
0
100
AcDbCircle
 10
621.866451
 20
524.178169
 30
0.0
 40
11.315639
100
AcDbArc
 50
12.933592
 51
78.901984
  0
LINE
  5
2C87
100
AcDbEntity
  8
0
100
AcDbLine
 10
623.743631
 20
522.270853
 30
0.0
 11
679.307079
 21
522.270853
 31
0.0
  0
LINE
  5
2C88
100
AcDbEntity
  8
0
100
AcDbLine
 10
615.508874
 20
363.770853
 30
0.0
 11
650.01931
 21
363.770853
 31
0.0
  0
ARC
  5
2C89
100
AcDbEntity
  8
0
100
AcDbCircle
 10
626.209887
 20
391.354391
 30
0.0
 40
10.261093
100
AcDbArc
 50
48.047146
 51
68.029422
  0
ARC
  5
2C8A
100
AcDbEntity
  8
0
100
AcDbCircle
 10
631.516052
 20
376.762968
 30
0.0
 40
2.0
100
AcDbArc
 50
301.500573
 51
0.016581
  0
CIRCLE
  5
2C8B
100
AcDbEntity
  8
0
100
AcDbCircle
 10
651.508874
 20
303.770853
 30
0.0
 40
24.0
  0
CIRCLE
  5
2C8C
100
AcDbEntity
  8
0
100
AcDbCircle
 10
651.508874
 20
303.770853
 30
0.0
 40
22.5
  0
LINE
  5
2C8D
100
AcDbEntity
  8
0
100
AcDbLine
 10
615.508874
 20
363.770853
 30
0.0
 11
650.01931
 21
363.770853
 31
0.0
  0
LINE
  5
2C8E
100
AcDbEntity
  8
0
100
AcDbLine
 10
639.505762
 20
374.764124
 30
0.0
 11
616.898874
 21
374.760853
 31
0.0
  0
LINE
  5
2C8F
100
AcDbEntity
  8
0
100
AcDbLine
 10
611.508874
 20
253.770853
 30
0.0
 11
691.508874
 21
253.770853
 31
0.0
  0
LINE
  5
2C90
100
AcDbEntity
  8
0
100
AcDbLine
 10
690.008874
 20
264.770853
 30
0.0
 11
613.008874
 21
264.770853
 31
0.0
  0
LINE
  5
2C91
100
AcDbEntity
  8
0
100
AcDbLine
 10
617.008874
 20
401.570853
 30
0.0
 11
686.008874
 21
401.570853
 31
0.0
  0
LINE
  5
2C92
100
AcDbEntity
  8
0
100
AcDbLine
 10
686.008874
 20
352.770853
 30
0.0
 11
617.008874
 21
352.770853
 31
0.0
  0
LINE
  5
2C93
100
AcDbEntity
  8
0
100
AcDbLine
 10
686.008874
 20
423.570853
 30
0.0
 11
617.008874
 21
423.570853
 31
0.0
  0
LINE
  5
2C94
100
AcDbEntity
  8
0
100
AcDbLine
 10
615.508874
 20
412.570853
 30
0.0
 11
687.508874
 21
412.570853
 31
0.0
  0
TEXT
  5
2C95
100
AcDbEntity
  8
0
100
AcDbText
 10
474.20591
 20
315.930433
 30
0.0
 40
20.0
  1
正面
100
AcDbText
  0
LINE
  5
2C96
100
AcDbEntity
  8
0
100
AcDbLine
 10
630.508874
 20
351.270853
 30
0.0
 11
630.508874
 21
316.616086
 31
0.0
  0
LINE
  5
2C97
100
AcDbEntity
  8
0
100
AcDbLine
 10
619.508874
 20
279.770853
 30
0.0
 11
623.268983
 21
297.828659
 31
0.0
  0
LINE
  5
2C98
100
AcDbEntity
  8
0
100
AcDbLine
 10
619.508874
 20
279.770853
 30
0.0
 11
619.508874
 21
267.770853
 31
0.0
  0
ARC
  5
2C99
100
AcDbEntity
  8
0
100
AcDbCircle
 10
613.024721
 20
263.255006
 30
0.0
 40
1.51593
100
AcDbArc
 50
90.598965
 51
179.401035
  0
LINE
  5
2C9A
100
AcDbEntity
  8
0
100
AcDbLine
 10
624.258874
 20
267.770853
 30
0.0
 11
618.658874
 21
267.770853
 31
0.0
  0
LINE
  5
2C9B
100
AcDbEntity
  8
0
100
AcDbLine
 10
617.458874
 20
266.570853
 30
0.0
 11
617.458874
 21
264.770853
 31
0.0
  0
LINE
  5
2C9C
100
AcDbEntity
  8
0
100
AcDbLine
 10
618.658874
 20
267.770853
 30
0.0
 11
617.458874
 21
266.570853
 31
0.0
  0
LINE
  5
2C9D
100
AcDbEntity
  8
0
100
AcDbLine
 10
625.458874
 20
264.770853
 30
0.0
 11
625.458874
 21
266.570853
 31
0.0
  0
LINE
  5
2C9E
100
AcDbEntity
  8
0
100
AcDbLine
 10
625.458874
 20
266.570853
 30
0.0
 11
617.458874
 21
266.570853
 31
0.0
  0
LINE
  5
2C9F
100
AcDbEntity
  8
0
100
AcDbLine
 10
625.458874
 20
266.570853
 30
0.0
 11
624.258874
 21
267.770853
 31
0.0
  0
ARC
  5
2CA0
100
AcDbEntity
  8
0
100
AcDbCircle
 10
637.954003
 20
294.770853
 30
0.0
 40
15.0
100
AcDbArc
 50
145.591075
 51
168.237593
  0
ARC
  5
2CA1
100
AcDbEntity
  8
0
100
AcDbCircle
 10
625.508874
 20
316.616086
 30
0.0
 40
5.0
100
AcDbArc
 50
333.708445
 51
0.0
  0
ARC
  5
2CA2
100
AcDbEntity
  8
0
100
AcDbCircle
 10
627.508874
 20
303.770853
 30
0.0
 40
2.0
100
AcDbArc
 50
87.611985
 51
272.388015
  0
LINE
  5
2CA3
100
AcDbEntity
  8
0
100
AcDbLine
 10
615.508874
 20
373.270853
 30
0.0
 11
615.508874
 21
354.270853
 31
0.0
  0
ARC
  5
2CA4
100
AcDbEntity
  8
0
100
AcDbCircle
 10
617.012857
 20
354.274836
 30
0.0
 40
1.503988
100
AcDbArc
 50
180.151738
 51
269.848262
  0
LINE
  5
2CA5
100
AcDbEntity
  8
0
100
AcDbLine
 10
622.048874
 20
350.470853
 30
0.0
 11
623.248874
 21
349.270853
 31
0.0
  0
LINE
  5
2CA6
100
AcDbEntity
  8
0
100
AcDbLine
 10
622.048874
 20
352.770853
 30
0.0
 11
622.048874
 21
350.470853
 31
0.0
  0
LINE
  5
2CA7
100
AcDbEntity
  8
0
100
AcDbLine
 10
630.048874
 20
350.470853
 30
0.0
 11
630.048874
 21
352.770853
 31
0.0
  0
LINE
  5
2CA8
100
AcDbEntity
  8
0
100
AcDbLine
 10
628.848874
 20
349.270853
 30
0.0
 11
630.048874
 21
350.470853
 31
0.0
  0
LINE
  5
2CA9
100
AcDbEntity
  8
0
100
AcDbLine
 10
623.248874
 20
349.270853
 30
0.0
 11
628.848874
 21
349.270853
 31
0.0
  0
LINE
  5
2CAA
100
AcDbEntity
  8
0
100
AcDbLine
 10
622.048874
 20
350.470853
 30
0.0
 11
630.048874
 21
350.470853
 31
0.0
  0
ARC
  5
2CAB
100
AcDbEntity
  8
0
100
AcDbCircle
 10
629.008874
 20
351.270853
 30
0.0
 40
1.5
100
AcDbArc
 50
0.0
 51
46.105446
  0
ARC
  5
2CAC
100
AcDbEntity
  8
0
100
AcDbCircle
 10
617.012857
 20
373.26687
 30
0.0
 40
1.503988
100
AcDbArc
 50
90.151738
 51
179.848262
  0
LINE
  5
2CAD
100
AcDbEntity
  8
0
100
AcDbLine
 10
622.058874
 20
383.070853
 30
0.0
 11
622.058874
 21
381.270853
 31
0.0
  0
LINE
  5
2CAE
100
AcDbEntity
  8
0
100
AcDbLine
 10
630.058874
 20
381.270853
 30
0.0
 11
630.058874
 21
383.070853
 31
0.0
  0
LINE
  5
2CAF
100
AcDbEntity
  8
0
100
AcDbLine
 10
630.058874
 20
383.070853
 30
0.0
 11
622.058874
 21
383.070853
 31
0.0
  0
ARC
  5
2CB0
100
AcDbEntity
  8
0
100
AcDbCircle
 10
626.058874
 20
377.004186
 30
0.0
 40
7.266667
100
AcDbArc
 50
56.601512
 51
123.398488
  0
ARC
  5
2CB1
100
AcDbEntity
  8
0
100
AcDbCircle
 10
622.804113
 20
370.177994
 30
0.0
 40
10.898643
100
AcDbArc
 50
72.651661
 51
107.348339
  0
ARC
  5
2CB2
100
AcDbEntity
  8
0
100
AcDbCircle
 10
629.303634
 20
370.177994
 30
0.0
 40
10.898643
100
AcDbArc
 50
72.651661
 51
107.348339
  0
LINE
  5
2CB3
100
AcDbEntity
  8
0
100
AcDbLine
 10
619.748874
 20
381.270853
 30
0.0
 11
619.554353
 21
380.580853
 31
0.0
  0
LINE
  5
2CB4
100
AcDbEntity
  8
0
100
AcDbLine
 10
632.553394
 20
380.580853
 30
0.0
 11
632.358874
 21
381.270853
 31
0.0
  0
LINE
  5
2CB5
100
AcDbEntity
  8
0
100
AcDbLine
 10
626.053874
 20
374.770853
 30
0.0
 11
626.053874
 21
380.580853
 31
0.0
  0
LINE
  5
2CB6
100
AcDbEntity
  8
0
100
AcDbLine
 10
619.554353
 20
380.580853
 30
0.0
 11
619.554353
 21
374.770853
 31
0.0
  0
LINE
  5
2CB7
100
AcDbEntity
  8
0
100
AcDbLine
 10
632.553394
 20
374.770853
 30
0.0
 11
632.553394
 21
380.580853
 31
0.0
  0
LINE
  5
2CB8
100
AcDbEntity
  8
0
100
AcDbLine
 10
626.058874
 20
381.270853
 30
0.0
 11
619.748874
 21
381.270853
 31
0.0
  0
LINE
  5
2CB9
100
AcDbEntity
  8
0
100
AcDbLine
 10
632.358874
 20
381.270853
 30
0.0
 11
626.058874
 21
381.270853
 31
0.0
  0
LINE
  5
2CBA
100
AcDbEntity
  8
0
100
AcDbLine
 10
615.508874
 20
422.070853
 30
0.0
 11
615.508874
 21
412.570853
 31
0.0
  0
ARC
  5
2CBB
100
AcDbEntity
  8
0
100
AcDbCircle
 10
617.011132
 20
403.073111
 30
0.0
 40
1.50226
100
AcDbArc
 50
180.086122
 51
269.913878
  0
LINE
  5
2CBC
100
AcDbEntity
  8
0
100
AcDbLine
 10
615.508874
 20
412.570853
 30
0.0
 11
615.508874
 21
403.070853
 31
0.0
  0
LINE
  5
2CBD
100
AcDbEntity
  8
0
100
AcDbLine
 10
622.048874
 20
401.570853
 30
0.0
 11
622.048874
 21
399.770853
 31
0.0
  0
LINE
  5
2CBE
100
AcDbEntity
  8
0
100
AcDbLine
 10
630.048874
 20
399.770853
 30
0.0
 11
630.048874
 21
401.570853
 31
0.0
  0
LINE
  5
2CBF
100
AcDbEntity
  8
0
100
AcDbLine
 10
622.048874
 20
399.770853
 30
0.0
 11
630.048874
 21
399.770853
 31
0.0
  0
LINE
  5
2CC0
100
AcDbEntity
  8
0
100
AcDbLine
 10
623.248874
 20
398.570853
 30
0.0
 11
628.848874
 21
398.570853
 31
0.0
  0
LINE
  5
2CC1
100
AcDbEntity
  8
0
100
AcDbLine
 10
628.848874
 20
398.570853
 30
0.0
 11
630.048874
 21
399.770853
 31
0.0
  0
LINE
  5
2CC2
100
AcDbEntity
  8
0
100
AcDbLine
 10
622.048874
 20
399.770853
 30
0.0
 11
623.248874
 21
398.570853
 31
0.0
  0
ARC
  5
2CC3
100
AcDbEntity
  8
0
100
AcDbCircle
 10
617.024721
 20
422.055006
 30
0.0
 40
1.51593
100
AcDbArc
 50
90.598965
 51
179.401035
  0
ARC
  5
2CC4
100
AcDbEntity
  8
0
100
AcDbCircle
 10
622.80411
 20
418.978015
 30
0.0
 40
10.898622
100
AcDbArc
 50
72.651626
 51
107.348356
  0
ARC
  5
2CC5
100
AcDbEntity
  8
0
100
AcDbCircle
 10
629.298634
 20
419.010768
 30
0.0
 40
10.86587
100
AcDbArc
 50
72.625296
 51
107.374704
  0
LINE
  5
2CC6
100
AcDbEntity
  8
0
100
AcDbLine
 10
632.553394
 20
429.380853
 30
0.0
 11
632.358874
 21
430.070853
 31
0.0
  0
LINE
  5
2CC7
100
AcDbEntity
  8
0
100
AcDbLine
 10
619.748874
 20
430.070853
 30
0.0
 11
619.554353
 21
429.380853
 31
0.0
  0
LINE
  5
2CC8
100
AcDbEntity
  8
0
100
AcDbLine
 10
632.358874
 20
430.070853
 30
0.0
 11
619.748874
 21
430.070853
 31
0.0
  0
LINE
  5
2CC9
100
AcDbEntity
  8
0
100
AcDbLine
 10
632.543394
 20
423.570853
 30
0.0
 11
632.543394
 21
429.380853
 31
0.0
  0
LINE
  5
2CCA
100
AcDbEntity
  8
0
100
AcDbLine
 10
626.053874
 20
423.570853
 30
0.0
 11
626.053874
 21
429.380853
 31
0.0
  0
LINE
  5
2CCB
100
AcDbEntity
  8
0
100
AcDbLine
 10
619.554353
 20
429.380853
 30
0.0
 11
619.554353
 21
423.570853
 31
0.0
  0
TEXT
  5
2CCC
100
AcDbEntity
  8
0
100
AcDbText
 10
474.20591
 20
627.879207
 30
0.0
 40
20.0
  1
平面
100
AcDbText
  0
ARC
  5
2CCD
100
AcDbEntity
  8
0
100
AcDbCircle
 10
623.747674
 20
525.274896
 30
0.0
 40
3.004046
100
AcDbArc
 50
180.07711
 51
269.92289
  0
LINE
  5
2CCE
100
AcDbEntity
  8
0
100
AcDbLine
 10
620.743631
 20
528.807718
 30
0.0
 11
620.743631
 21
525.270853
 31
0.0
  0
ARC
  5
2CCF
100
AcDbEntity
  8
0
100
AcDbCircle
 10
628.743631
 20
528.807718
 30
0.0
 40
8.0
100
AcDbArc
 50
101.671578
 51
180.0
  0
LINE
  5
2CD0
100
AcDbEntity
  8
0
100
AcDbLine
 10
630.945013
 20
524.270853
 30
0.0
 11
620.916386
 21
524.270853
 31
0.0
  0
LINE
  5
2CD1
100
AcDbEntity
  8
0
100
AcDbLine
 10
821.18276
 20
430.070853
 30
0.0
 11
824.70276
 21
453.570853
 31
0.0
  0
LINE
  5
2CD2
100
AcDbEntity
  8
0
100
AcDbLine
 10
856.70276
 20
453.570853
 30
0.0
 11
860.23276
 21
430.070853
 31
0.0
  0
LINE
  5
2CD3
100
AcDbEntity
  8
0
100
AcDbLine
 10
671.028874
 20
430.070853
 30
0.0
 11
667.508874
 21
453.570853
 31
0.0
  0
LINE
  5
2CD4
100
AcDbEntity
  8
0
100
AcDbLine
 10
782.438864
 20
303.780598
 30
0.0
 11
750.926489
 21
303.780598
 31
0.0
  0
LINE
  5
2CD5
100
AcDbEntity
  8
0
100
AcDbLine
 10
766.683239
 20
306.931723
 30
0.0
 11
775.999364
 21
306.931723
 31
0.0
  0
LINE
  5
2CD6
100
AcDbEntity
  8
0
100
AcDbLine
 10
645.508874
 20
352.770853
 30
0.0
 11
645.508874
 21
327.008753
 31
0.0
  0
LINE
  5
2CD7
100
AcDbEntity
  8
0
100
AcDbLine
 10
672.508874
 20
351.270853
 30
0.0
 11
672.508874
 21
316.616086
 31
0.0
  0
LINE
  5
2CD8
100
AcDbEntity
  8
0
100
AcDbLine
 10
657.508874
 20
352.770853
 30
0.0
 11
657.508874
 21
327.008753
 31
0.0
  0
LINE
  5
2CD9
100
AcDbEntity
  8
0
100
AcDbLine
 10
683.508874
 20
279.770853
 30
0.0
 11
679.748765
 21
297.828659
 31
0.0
  0
LINE
  5
2CDA
100
AcDbEntity
  8
0
100
AcDbLine
 10
683.508874
 20
279.770853
 30
0.0
 11
683.508874
 21
267.770853
 31
0.0
  0
LINE
  5
2CDB
100
AcDbEntity
  8
0
100
AcDbLine
 10
685.558874
 20
266.570853
 30
0.0
 11
684.358874
 21
267.770853
 31
0.0
  0
LINE
  5
2CDC
100
AcDbEntity
  8
0
100
AcDbLine
 10
685.558874
 20
266.570853
 30
0.0
 11
677.558874
 21
266.570853
 31
0.0
  0
LINE
  5
2CDD
100
AcDbEntity
  8
0
100
AcDbLine
 10
677.558874
 20
266.570853
 30
0.0
 11
677.558874
 21
264.770853
 31
0.0
  0
LINE
  5
2CDE
100
AcDbEntity
  8
0
100
AcDbLine
 10
678.758874
 20
267.770853
 30
0.0
 11
677.558874
 21
266.570853
 31
0.0
  0
LINE
  5
2CDF
100
AcDbEntity
  8
0
100
AcDbLine
 10
684.358874
 20
267.770853
 30
0.0
 11
678.758874
 21
267.770853
 31
0.0
  0
ARC
  5
2CE0
100
AcDbEntity
  8
0
100
AcDbCircle
 10
689.993027
 20
263.255006
 30
0.0
 40
1.51593
100
AcDbArc
 50
0.598965
 51
89.401035
  0
LINE
  5
2CE1
100
AcDbEntity
  8
0
100
AcDbLine
 10
685.558874
 20
264.770853
 30
0.0
 11
685.558874
 21
266.570853
 31
0.0
  0
ARC
  5
2CE2
100
AcDbEntity
  8
0
100
AcDbCircle
 10
685.008874
 20
280.692373
 30
0.0
 40
1.5
100
AcDbArc
 50
270.0
 51
0.0
  0
ARC
  5
2CE3
100
AcDbEntity
  8
0
100
AcDbCircle
 10
685.008874
 20
290.849333
 30
0.0
 40
1.5
100
AcDbArc
 50
0.0
 51
90.0
  0
LINE
  5
2CE4
100
AcDbEntity
  8
0
100
AcDbLine
 10
685.008874
 20
279.192373
 30
0.0
 11
683.508874
 21
279.192373
 31
0.0
  0
LINE
  5
2CE5
100
AcDbEntity
  8
0
100
AcDbLine
 10
685.008874
 20
292.349333
 30
0.0
 11
680.889704
 21
292.349333
 31
0.0
  0
LINE
  5
2CE6
100
AcDbEntity
  8
0
100
AcDbLine
 10
686.508874
 20
290.849333
 30
0.0
 11
686.508874
 21
280.692373
 31
0.0
  0
LINE
  5
2CE7
100
AcDbEntity
  8
0
100
AcDbLine
 10
693.84073
 20
285.770853
 30
0.0
 11
689.34073
 21
285.770853
 31
0.0
  0
LINE
  5
2CE8
100
AcDbEntity
  8
0
100
AcDbLine
 10
689.34073
 20
280.050853
 30
0.0
 11
689.34073
 21
291.490853
 31
0.0
  0
LINE
  5
2CE9
100
AcDbEntity
  8
0
100
AcDbLine
 10
693.84073
 20
291.490853
 30
0.0
 11
686.508874
 21
291.490853
 31
0.0
  0
LINE
  5
2CEA
100
AcDbEntity
  8
0
100
AcDbLine
 10
693.84073
 20
280.050853
 30
0.0
 11
686.508874
 21
280.050853
 31
0.0
  0
LINE
  5
2CEB
100
AcDbEntity
  8
0
100
AcDbLine
 10
693.84073
 20
291.490853
 30
0.0
 11
693.84073
 21
280.050853
 31
0.0
  0
ARC
  5
2CEC
100
AcDbEntity
  8
0
100
AcDbCircle
 10
665.063745
 20
294.770853
 30
0.0
 40
15.0
100
AcDbArc
 50
11.762407
 51
34.408925
  0
ARC
  5
2CED
100
AcDbEntity
  8
0
100
AcDbCircle
 10
677.508874
 20
316.616086
 30
0.0
 40
5.0
100
AcDbArc
 50
180.0
 51
206.291555
  0
ARC
  5
2CEE
100
AcDbEntity
  8
0
100
AcDbCircle
 10
675.508874
 20
303.770853
 30
0.0
 40
2.0
100
AcDbArc
 50
267.611985
 51
92.388015
  0
LINE
  5
2CEF
100
AcDbEntity
  8
0
100
AcDbLine
 10
744.624239
 20
310.082848
 30
0.0
 11
763.530989
 21
310.082848
 31
0.0
  0
LINE
  5
2CF0
100
AcDbEntity
  8
0
100
AcDbLine
 10
750.926489
 20
303.780598
 30
0.0
 11
744.624239
 21
310.082848
 31
0.0
  0
LINE
  5
2CF1
100
AcDbEntity
  8
0
100
AcDbLine
 10
763.530989
 20
310.082848
 30
0.0
 11
766.683239
 21
306.931723
 31
0.0
  0
LINE
  5
2CF2
100
AcDbEntity
  8
0
100
AcDbLine
 10
633.516052
 20
376.763547
 30
0.0
 11
633.509983
 21
397.735644
 31
0.0
  0
LINE
  5
2CF3
100
AcDbEntity
  8
0
100
AcDbLine
 10
669.508874
 20
376.768755
 30
0.0
 11
669.508874
 21
397.740853
 31
0.0
  0
LINE
  5
2CF4
100
AcDbEntity
  8
0
100
AcDbLine
 10
652.998437
 20
363.770853
 30
0.0
 11
687.508874
 21
363.770853
 31
0.0
  0
LINE
  5
2CF5
100
AcDbEntity
  8
0
100
AcDbLine
 10
686.008874
 20
374.770853
 30
0.0
 11
663.511986
 21
374.767598
 31
0.0
  0
LINE
  5
2CF6
100
AcDbEntity
  8
0
100
AcDbLine
 10
652.998437
 20
363.770853
 30
0.0
 11
687.508874
 21
363.770853
 31
0.0
  0
POLYLINE
  5
2CF7
100
AcDbEntity
  8
0
100
AcDb2dPolyline
 66
     1
 10
0.0
 20
0.0
 30
0.0
 70
     1
  0
VERTEX
  5
317F
100
AcDbEntity
  8
0
100
AcDbVertex
100
AcDb2dVertex
 10
651.508874
 20
390.630853
 30
0.0
  0
VERTEX
  5
3180
100
AcDbEntity
  8
0
100
AcDbVertex
100
AcDb2dVertex
 10
639.505762
 20
383.700853
 30
0.0
  0
VERTEX
  5
3181
100
AcDbEntity
  8
0
100
AcDbVertex
100
AcDb2dVertex
 10
639.505762
 20
369.840853
 30
0.0
  0
VERTEX
  5
3182
100
AcDbEntity
  8
0
100
AcDbVertex
100
AcDb2dVertex
 10
651.508874
 20
362.910853
 30
0.0
  0
VERTEX
  5
3183
100
AcDbEntity
  8
0
100
AcDbVertex
100
AcDb2dVertex
 10
663.511986
 20
369.840853
 30
0.0
  0
VERTEX
  5
3184
100
AcDbEntity
  8
0
100
AcDbVertex
100
AcDb2dVertex
 10
663.511986
 20
383.700853
 30
0.0
  0
SEQEND
  5
3185
100
AcDbEntity
  8
0
  0
CIRCLE
  5
2CF8
100
AcDbEntity
  8
0
100
AcDbCircle
 10
651.508874
 20
376.770853
 30
0.0
 40
12.0
  0
LINE
  5
2CF9
100
AcDbEntity
  8
0
100
AcDbLine
 10
687.508874
 20
373.270853
 30
0.0
 11
687.488852
 21
354.030216
 31
0.0
  0
LINE
  5
2CFA
100
AcDbEntity
  8
0
100
AcDbLine
 10
680.968874
 20
352.770853
 30
0.0
 11
680.968874
 21
350.470853
 31
0.0
  0
LINE
  5
2CFB
100
AcDbEntity
  8
0
100
AcDbLine
 10
680.968874
 20
350.470853
 30
0.0
 11
679.768874
 21
349.270853
 31
0.0
  0
LINE
  5
2CFC
100
AcDbEntity
  8
0
100
AcDbLine
 10
674.168874
 20
349.270853
 30
0.0
 11
672.968874
 21
350.470853
 31
0.0
  0
LINE
  5
2CFD
100
AcDbEntity
  8
0
100
AcDbLine
 10
672.968874
 20
350.470853
 30
0.0
 11
672.968874
 21
352.770853
 31
0.0
  0
ARC
  5
2CFE
100
AcDbEntity
  8
0
100
AcDbCircle
 10
674.008874
 20
351.270853
 30
0.0
 40
1.5
100
AcDbArc
 50
133.894554
 51
180.0
  0
LINE
  5
2CFF
100
AcDbEntity
  8
0
100
AcDbLine
 10
680.968874
 20
350.470853
 30
0.0
 11
672.968874
 21
350.470853
 31
0.0
  0
LINE
  5
2D00
100
AcDbEntity
  8
0
100
AcDbLine
 10
679.768874
 20
349.270853
 30
0.0
 11
674.168874
 21
349.270853
 31
0.0
  0
ARC
  5
2D01
100
AcDbEntity
  8
0
100
AcDbCircle
 10
686.004891
 20
354.274836
 30
0.0
 40
1.503988
100
AcDbArc
 50
270.151738
 51
350.639399
  0
LINE
  5
2D02
100
AcDbEntity
  8
0
100
AcDbLine
 10
680.968874
 20
381.270853
 30
0.0
 11
680.968874
 21
383.070853
 31
0.0
  0
LINE
  5
2D03
100
AcDbEntity
  8
0
100
AcDbLine
 10
683.463394
 20
380.580853
 30
0.0
 11
683.268874
 21
381.270853
 31
0.0
  0
LINE
  5
2D04
100
AcDbEntity
  8
0
100
AcDbLine
 10
683.463394
 20
374.770853
 30
0.0
 11
683.463394
 21
380.580853
 31
0.0
  0
LINE
  5
2D05
100
AcDbEntity
  8
0
100
AcDbLine
 10
672.968874
 20
383.070853
 30
0.0
 11
672.968874
 21
381.270853
 31
0.0
  0
ARC
  5
2D06
100
AcDbEntity
  8
0
100
AcDbCircle
 10
673.714113
 20
370.177994
 30
0.0
 40
10.898643
100
AcDbArc
 50
72.651661
 51
107.348339
  0
LINE
  5
2D07
100
AcDbEntity
  8
0
100
AcDbLine
 10
670.658874
 20
381.270853
 30
0.0
 11
670.464353
 21
380.580853
 31
0.0
  0
LINE
  5
2D08
100
AcDbEntity
  8
0
100
AcDbLine
 10
676.963874
 20
374.770853
 30
0.0
 11
676.963874
 21
380.580853
 31
0.0
  0
LINE
  5
2D09
100
AcDbEntity
  8
0
100
AcDbLine
 10
670.464353
 20
380.580853
 30
0.0
 11
670.464353
 21
374.770853
 31
0.0
  0
LINE
  5
2D0A
100
AcDbEntity
  8
0
100
AcDbLine
 10
676.968874
 20
381.270853
 30
0.0
 11
670.658874
 21
381.270853
 31
0.0
  0
ARC
  5
2D0B
100
AcDbEntity
  8
0
100
AcDbCircle
 10
671.508874
 20
376.768755
 30
0.0
 40
2.0
100
AcDbArc
 50
180.0
 51
238.516008
  0
ARC
  5
2D0C
100
AcDbEntity
  8
0
100
AcDbCircle
 10
676.968874
 20
377.004186
 30
0.0
 40
7.266667
100
AcDbArc
 50
56.601512
 51
123.398488
  0
LINE
  5
2D0D
100
AcDbEntity
  8
0
100
AcDbLine
 10
680.968874
 20
383.070853
 30
0.0
 11
672.968874
 21
383.070853
 31
0.0
  0
ARC
  5
2D0E
100
AcDbEntity
  8
0
100
AcDbCircle
 10
680.213634
 20
370.177994
 30
0.0
 40
10.898643
100
AcDbArc
 50
72.651661
 51
107.348339
  0
LINE
  5
2D0F
100
AcDbEntity
  8
0
100
AcDbLine
 10
683.268874
 20
381.270853
 30
0.0
 11
676.968874
 21
381.270853
 31
0.0
  0
ARC
  5
2D10
100
AcDbEntity
  8
0
100
AcDbCircle
 10
686.004891
 20
373.26687
 30
0.0
 40
1.503988
100
AcDbArc
 50
0.151738
 51
89.848262
  0
ARC
  5
2D11
100
AcDbEntity
  8
0
100
AcDbCircle
 10
631.561489
 20
397.751652
 30
0.0
 40
1.94856
100
AcDbArc
 50
359.529295
 51
39.288004
  0
LINE
  5
2D12
100
AcDbEntity
  8
0
100
AcDbLine
 10
687.508874
 20
412.570853
 30
0.0
 11
687.508874
 21
422.070853
 31
0.0
  0
LINE
  5
2D13
100
AcDbEntity
  8
0
100
AcDbLine
 10
680.975355
 20
399.770853
 30
0.0
 11
680.975355
 21
401.570853
 31
0.0
  0
LINE
  5
2D14
100
AcDbEntity
  8
0
100
AcDbLine
 10
679.775355
 20
398.570853
 30
0.0
 11
680.975355
 21
399.770853
 31
0.0
  0
LINE
  5
2D15
100
AcDbEntity
  8
0
100
AcDbLine
 10
672.975355
 20
401.570853
 30
0.0
 11
672.975355
 21
399.770853
 31
0.0
  0
ARC
  5
2D16
100
AcDbEntity
  8
0
100
AcDbCircle
 10
671.457363
 20
397.757425
 30
0.0
 40
1.94856
100
AcDbArc
 50
140.728577
 51
180.487286
  0
ARC
  5
2D17
100
AcDbEntity
  8
0
100
AcDbCircle
 10
676.810816
 20
391.361713
 30
0.0
 40
10.261093
100
AcDbArc
 50
111.949353
 51
131.969435
  0
LINE
  5
2D18
100
AcDbEntity
  8
0
100
AcDbLine
 10
672.975355
 20
399.770853
 30
0.0
 11
674.175355
 21
398.570853
 31
0.0
  0
LINE
  5
2D19
100
AcDbEntity
  8
0
100
AcDbLine
 10
674.175355
 20
398.570853
 30
0.0
 11
679.775355
 21
398.570853
 31
0.0
  0
LINE
  5
2D1A
100
AcDbEntity
  8
0
100
AcDbLine
 10
672.975355
 20
399.770853
 30
0.0
 11
680.975355
 21
399.770853
 31
0.0
  0
ARC
  5
2D1B
100
AcDbEntity
  8
0
100
AcDbCircle
 10
685.993027
 20
403.0867
 30
0.0
 40
1.51593
100
AcDbArc
 50
270.598965
 51
359.401035
  0
LINE
  5
2D1C
100
AcDbEntity
  8
0
100
AcDbLine
 10
687.508874
 20
403.070853
 30
0.0
 11
687.508874
 21
412.570853
 31
0.0
  0
ARC
  5
2D1D
100
AcDbEntity
  8
0
100
AcDbCircle
 10
680.535115
 20
419.010768
 30
0.0
 40
10.86587
100
AcDbArc
 50
72.625296
 51
107.374704
  0
LINE
  5
2D1E
100
AcDbEntity
  8
0
100
AcDbLine
 10
683.789875
 20
429.380853
 30
0.0
 11
683.595355
 21
430.070853
 31
0.0
  0
LINE
  5
2D1F
100
AcDbEntity
  8
0
100
AcDbLine
 10
670.985355
 20
430.070853
 30
0.0
 11
670.790834
 21
429.380853
 31
0.0
  0
ARC
  5
2D20
100
AcDbEntity
  8
0
100
AcDbCircle
 10
674.040591
 20
418.978015
 30
0.0
 40
10.898622
100
AcDbArc
 50
72.651626
 51
107.348356
  0
LINE
  5
2D21
100
AcDbEntity
  8
0
100
AcDbLine
 10
683.595355
 20
430.070853
 30
0.0
 11
670.985355
 21
430.070853
 31
0.0
  0
LINE
  5
2D22
100
AcDbEntity
  8
0
100
AcDbLine
 10
683.779875
 20
423.570853
 30
0.0
 11
683.779875
 21
429.380853
 31
0.0
  0
LINE
  5
2D23
100
AcDbEntity
  8
0
100
AcDbLine
 10
677.290355
 20
423.570853
 30
0.0
 11
677.290355
 21
429.380853
 31
0.0
  0
LINE
  5
2D24
100
AcDbEntity
  8
0
100
AcDbLine
 10
670.790834
 20
429.380853
 30
0.0
 11
670.790834
 21
423.570853
 31
0.0
  0
ARC
  5
2D25
100
AcDbEntity
  8
0
100
AcDbCircle
 10
685.993027
 20
422.055006
 30
0.0
 40
1.51593
100
AcDbArc
 50
0.598965
 51
89.401035
  0
LINE
  5
2D26
100
AcDbEntity
  8
0
100
AcDbLine
 10
869.70276
 20
350.010853
 30
0.0
 11
869.70276
 21
331.770853
 31
0.0
  0
LINE
  5
2D27
100
AcDbEntity
  8
0
100
AcDbLine
 10
811.70276
 20
331.770853
 30
0.0
 11
811.70276
 21
350.010853
 31
0.0
  0
LINE
  5
2D28
100
AcDbEntity
  8
0
100
AcDbLine
 10
819.70276
 20
348.770853
 30
0.0
 11
819.70276
 21
331.770853
 31
0.0
  0
LINE
  5
2D29
100
AcDbEntity
  8
0
100
AcDbLine
 10
861.70276
 20
348.770853
 30
0.0
 11
861.70276
 21
331.770853
 31
0.0
  0
LINE
  5
2D2A
100
AcDbEntity
  8
0
100
AcDbLine
 10
825.70276
 20
309.770853
 30
0.0
 11
855.70276
 21
309.770853
 31
0.0
  0
LINE
  5
2D2B
100
AcDbEntity
  8
0
100
AcDbLine
 10
880.70276
 20
253.770853
 30
0.0
 11
800.70276
 21
253.770853
 31
0.0
  0
LINE
  5
2D2C
100
AcDbEntity
  8
0
100
AcDbLine
 10
802.20276
 20
264.770853
 30
0.0
 11
879.20276
 21
264.770853
 31
0.0
  0
LINE
  5
2D2D
100
AcDbEntity
  8
0
100
AcDbLine
 10
792.20276
 20
327.770853
 30
0.0
 11
792.20276
 21
279.770853
 31
0.0
  0
LINE
  5
2D2E
100
AcDbEntity
  8
0
100
AcDbLine
 10
790.70276
 20
303.770853
 30
0.0
 11
790.70276
 21
281.270853
 31
0.0
  0
LINE
  5
2D2F
100
AcDbEntity
  8
0
100
AcDbLine
 10
806.65276
 20
266.570853
 30
0.0
 11
814.65276
 21
266.570853
 31
0.0
  0
LINE
  5
2D30
100
AcDbEntity
  8
0
100
AcDbLine
 10
806.65276
 20
266.570853
 30
0.0
 11
807.85276
 21
267.770853
 31
0.0
  0
ARC
  5
2D31
100
AcDbEntity
  8
0
100
AcDbCircle
 10
804.708121
 20
275.776215
 30
0.0
 40
3.994642
100
AcDbArc
 50
359.9231
 51
90.0769
  0
ARC
  5
2D32
100
AcDbEntity
  8
0
100
AcDbCircle
 10
802.218607
 20
263.255006
 30
0.0
 40
1.51593
100
AcDbArc
 50
90.598965
 51
179.401035
  0
LINE
  5
2D33
100
AcDbEntity
  8
0
100
AcDbLine
 10
806.65276
 20
264.770853
 30
0.0
 11
806.65276
 21
266.570853
 31
0.0
  0
LINE
  5
2D34
100
AcDbEntity
  8
0
100
AcDbLine
 10
804.70276
 20
279.770853
 30
0.0
 11
792.20276
 21
279.770853
 31
0.0
  0
LINE
  5
2D35
100
AcDbEntity
  8
0
100
AcDbLine
 10
792.20276
 20
279.770853
 30
0.0
 11
790.70276
 21
281.270853
 31
0.0
  0
LINE
  5
2D36
100
AcDbEntity
  8
0
100
AcDbLine
 10
808.70276
 20
267.770853
 30
0.0
 11
808.70276
 21
275.770853
 31
0.0
  0
LINE
  5
2D37
100
AcDbEntity
  8
0
100
AcDbLine
 10
807.85276
 20
267.770853
 30
0.0
 11
813.45276
 21
267.770853
 31
0.0
  0
LINE
  5
2D38
100
AcDbEntity
  8
0
100
AcDbLine
 10
813.45276
 20
267.770853
 30
0.0
 11
814.65276
 21
266.570853
 31
0.0
  0
LINE
  5
2D39
100
AcDbEntity
  8
0
100
AcDbLine
 10
814.65276
 20
266.570853
 30
0.0
 11
814.65276
 21
264.770853
 31
0.0
  0
LINE
  5
2D3A
100
AcDbEntity
  8
0
100
AcDbLine
 10
808.70276
 20
279.770853
 30
0.0
 11
811.94276
 21
295.330853
 31
0.0
  0
LINE
  5
2D3B
100
AcDbEntity
  8
0
100
AcDbLine
 10
792.20276
 20
327.770853
 30
0.0
 11
807.70276
 21
327.770853
 31
0.0
  0
LINE
  5
2D3C
100
AcDbEntity
  8
0
100
AcDbLine
 10
799.70276
 20
305.770853
 30
0.0
 11
812.70276
 21
305.770853
 31
0.0
  0
LINE
  5
2D3D
100
AcDbEntity
  8
0
100
AcDbLine
 10
799.70276
 20
301.770853
 30
0.0
 11
812.70276
 21
301.770853
 31
0.0
  0
LINE
  5
2D3E
100
AcDbEntity
  8
0
100
AcDbLine
 10
790.70276
 20
303.770853
 30
0.0
 11
790.70276
 21
326.270853
 31
0.0
  0
LINE
  5
2D3F
100
AcDbEntity
  8
0
100
AcDbLine
 10
775.999364
 20
310.082848
 30
0.0
 11
782.438864
 21
303.780598
 31
0.0
  0
LINE
  5
2D40
100
AcDbEntity
  8
0
100
AcDbLine
 10
775.999364
 20
306.931723
 30
0.0
 11
775.999364
 21
310.082848
 31
0.0
  0
ARC
  5
2D41
100
AcDbEntity
  8
0
100
AcDbCircle
 10
799.70276
 20
303.770853
 30
0.0
 40
2.0
100
AcDbArc
 50
90.0
 51
270.0
  0
LINE
  5
2D42
100
AcDbEntity
  8
0
100
AcDbLine
 10
790.70276
 20
326.270853
 30
0.0
 11
792.20276
 21
327.770853
 31
0.0
  0
LINE
  5
2D43
100
AcDbEntity
  8
0
100
AcDbLine
 10
814.36276
 20
325.570853
 30
0.0
 11
825.38276
 21
316.450853
 31
0.0
  0
ARC
  5
2D44
100
AcDbEntity
  8
0
100
AcDbCircle
 10
825.685788
 20
294.804797
 30
0.0
 40
14.966066
100
AcDbArc
 50
89.935025
 51
138.552321
  0
ARC
  5
2D45
100
AcDbEntity
  8
0
100
AcDbCircle
 10
812.70276
 20
303.770853
 30
0.0
 40
2.0
100
AcDbArc
 50
270.0
 51
90.0
  0
ARC
  5
2D46
100
AcDbEntity
  8
0
100
AcDbCircle
 10
807.672713
 20
331.800899
 30
0.0
 40
4.030158
100
AcDbArc
 50
270.427165
 51
359.572835
  0
LINE
  5
2D47
100
AcDbEntity
  8
0
100
AcDbLine
 10
816.88276
 20
327.950853
 30
0.0
 11
815.70276
 21
327.770853
 31
0.0
  0
ARC
  5
2D48
100
AcDbEntity
  8
0
100
AcDbCircle
 10
815.656717
 20
331.806832
 30
0.0
 40
4.046202
100
AcDbArc
 50
287.638517
 51
359.490521
  0
LINE
  5
2D49
100
AcDbEntity
  8
0
100
AcDbLine
 10
889.20276
 20
327.770853
 30
0.0
 11
889.20276
 21
279.770853
 31
0.0
  0
LINE
  5
2D4A
100
AcDbEntity
  8
0
100
AcDbLine
 10
890.70276
 20
303.770853
 30
0.0
 11
890.70276
 21
281.270853
 31
0.0
  0
ARC
  5
2D4B
100
AcDbEntity
  8
0
100
AcDbCircle
 10
876.699595
 20
275.774018
 30
0.0
 40
3.996837
100
AcDbArc
 50
89.954635
 51
180.045365
  0
LINE
  5
2D4C
100
AcDbEntity
  8
0
100
AcDbLine
 10
872.70276
 20
275.770853
 30
0.0
 11
872.70276
 21
267.770853
 31
0.0
  0
LINE
  5
2D4D
100
AcDbEntity
  8
0
100
AcDbLine
 10
873.55276
 20
267.770853
 30
0.0
 11
874.75276
 21
266.570853
 31
0.0
  0
LINE
  5
2D4E
100
AcDbEntity
  8
0
100
AcDbLine
 10
874.75276
 20
266.570853
 30
0.0
 11
874.75276
 21
264.770853
 31
0.0
  0
LINE
  5
2D4F
100
AcDbEntity
  8
0
100
AcDbLine
 10
867.95276
 20
267.770853
 30
0.0
 11
873.55276
 21
267.770853
 31
0.0
  0
LINE
  5
2D50
100
AcDbEntity
  8
0
100
AcDbLine
 10
866.75276
 20
264.770853
 30
0.0
 11
866.75276
 21
266.570853
 31
0.0
  0
LINE
  5
2D51
100
AcDbEntity
  8
0
100
AcDbLine
 10
866.75276
 20
266.570853
 30
0.0
 11
867.95276
 21
267.770853
 31
0.0
  0
LINE
  5
2D52
100
AcDbEntity
  8
0
100
AcDbLine
 10
866.75276
 20
266.570853
 30
0.0
 11
874.75276
 21
266.570853
 31
0.0
  0
CIRCLE
  5
2D53
100
AcDbEntity
  8
0
100
AcDbCircle
 10
860.70276
 20
285.770853
 30
0.0
 40
6.57848
  0
CIRCLE
  5
2D54
100
AcDbEntity
  8
0
100
AcDbCircle
 10
860.70276
 20
285.770853
 30
0.0
 40
5.7225
  0
LINE
  5
2D55
100
AcDbEntity
  8
0
100
AcDbLine
 10
854.98276
 20
285.770853
 30
0.0
 11
860.70276
 21
291.490853
 31
0.0
  0
LINE
  5
2D56
100
AcDbEntity
  8
0
100
AcDbLine
 10
860.70276
 20
280.050853
 30
0.0
 11
854.98276
 21
285.770853
 31
0.0
  0
LINE
  5
2D57
100
AcDbEntity
  8
0
100
AcDbLine
 10
872.70276
 20
279.770853
 30
0.0
 11
869.46276
 21
295.330853
 31
0.0
  0
LINE
  5
2D58
100
AcDbEntity
  8
0
100
AcDbLine
 10
860.70276
 20
291.490853
 30
0.0
 11
866.42276
 21
285.770853
 31
0.0
  0
LINE
  5
2D59
100
AcDbEntity
  8
0
100
AcDbLine
 10
866.42276
 20
285.770853
 30
0.0
 11
860.70276
 21
280.050853
 31
0.0
  0
ARC
  5
2D5A
100
AcDbEntity
  8
0
100
AcDbCircle
 10
879.186912
 20
263.255006
 30
0.0
 40
1.51593
100
AcDbArc
 50
0.598965
 51
89.401035
  0
LINE
  5
2D5B
100
AcDbEntity
  8
0
100
AcDbLine
 10
890.70276
 20
281.270853
 30
0.0
 11
889.20276
 21
279.770853
 31
0.0
  0
LINE
  5
2D5C
100
AcDbEntity
  8
0
100
AcDbLine
 10
889.20276
 20
279.770853
 30
0.0
 11
876.70276
 21
279.770853
 31
0.0
  0
LINE
  5
2D5D
100
AcDbEntity
  8
0
100
AcDbLine
 10
873.70276
 20
327.770853
 30
0.0
 11
889.20276
 21
327.770853
 31
0.0
  0
LINE
  5
2D5E
100
AcDbEntity
  8
0
100
AcDbLine
 10
868.70276
 20
301.770853
 30
0.0
 11
881.70276
 21
301.770853
 31
0.0
  0
LINE
  5
2D5F
100
AcDbEntity
  8
0
100
AcDbLine
 10
868.70276
 20
305.770853
 30
0.0
 11
881.70276
 21
305.770853
 31
0.0
  0
LINE
  5
2D60
100
AcDbEntity
  8
0
100
AcDbLine
 10
867.04276
 20
325.570853
 30
0.0
 11
856.02276
 21
316.450853
 31
0.0
  0
ARC
  5
2D61
100
AcDbEntity
  8
0
100
AcDbCircle
 10
855.719731
 20
294.804797
 30
0.0
 40
14.966066
100
AcDbArc
 50
41.447679
 51
90.064975
  0
ARC
  5
2D62
100
AcDbEntity
  8
0
100
AcDbCircle
 10
868.70276
 20
303.770853
 30
0.0
 40
2.0
100
AcDbArc
 50
90.0
 51
270.0
  0
ARC
  5
2D63
100
AcDbEntity
  8
0
100
AcDbCircle
 10
873.697398
 20
331.765492
 30
0.0
 40
3.994642
100
AcDbArc
 50
179.9231
 51
270.0769
  0
ARC
  5
2D64
100
AcDbEntity
  8
0
100
AcDbCircle
 10
865.748802
 20
331.806832
 30
0.0
 40
4.046202
100
AcDbArc
 50
180.509479
 51
252.361483
  0
LINE
  5
2D65
100
AcDbEntity
  8
0
100
AcDbLine
 10
864.52276
 20
327.950853
 30
0.0
 11
865.70276
 21
327.770853
 31
0.0
  0
LINE
  5
2D66
100
AcDbEntity
  8
0
100
AcDbLine
 10
890.70276
 20
303.770853
 30
0.0
 11
890.70276
 21
326.270853
 31
0.0
  0
ARC
  5
2D67
100
AcDbEntity
  8
0
100
AcDbCircle
 10
881.70276
 20
303.770853
 30
0.0
 40
2.0
100
AcDbArc
 50
270.0
 51
90.0
  0
LINE
  5
2D68
100
AcDbEntity
  8
0
100
AcDbLine
 10
889.20276
 20
327.770853
 30
0.0
 11
890.70276
 21
326.270853
 31
0.0
  0
LINE
  5
2D69
100
AcDbEntity
  8
0
100
AcDbLine
 10
826.14276
 20
397.740853
 30
0.0
 11
848.69276
 21
397.740853
 31
0.0
  0
LINE
  5
2D6A
100
AcDbEntity
  8
0
100
AcDbLine
 10
806.20276
 20
423.570853
 30
0.0
 11
875.20276
 21
423.570853
 31
0.0
  0
LINE
  5
2D6B
100
AcDbEntity
  8
0
100
AcDbLine
 10
876.70276
 20
412.570853
 30
0.0
 11
804.70276
 21
412.570853
 31
0.0
  0
LINE
  5
2D6C
100
AcDbEntity
  8
0
100
AcDbLine
 10
875.20276
 20
401.570853
 30
0.0
 11
806.20276
 21
401.570853
 31
0.0
  0
LINE
  5
2D6D
100
AcDbEntity
  8
0
100
AcDbLine
 10
806.20276
 20
374.770853
 30
0.0
 11
875.31276
 21
374.760853
 31
0.0
  0
LINE
  5
2D6E
100
AcDbEntity
  8
0
100
AcDbLine
 10
876.70276
 20
363.770853
 30
0.0
 11
840.70276
 21
363.770853
 31
0.0
  0
LINE
  5
2D6F
100
AcDbEntity
  8
0
100
AcDbLine
 10
876.70276
 20
363.770853
 30
0.0
 11
804.70276
 21
363.770853
 31
0.0
  0
LINE
  5
2D70
100
AcDbEntity
  8
0
100
AcDbLine
 10
810.20276
 20
352.770853
 30
0.0
 11
871.20276
 21
352.770853
 31
0.0
  0
LINE
  5
2D71
100
AcDbEntity
  8
0
100
AcDbLine
 10
822.70276
 20
390.770853
 30
0.0
 11
822.70276
 21
397.740853
 31
0.0
  0
LINE
  5
2D72
100
AcDbEntity
  8
0
100
AcDbLine
 10
840.70276
 20
363.770853
 30
0.0
 11
804.70276
 21
363.770853
 31
0.0
  0
LINE
  5
2D73
100
AcDbEntity
  8
0
100
AcDbLine
 10
806.20276
 20
352.770853
 30
0.0
 11
810.20276
 21
352.770853
 31
0.0
  0
LINE
  5
2D74
100
AcDbEntity
  8
0
100
AcDbLine
 10
800.70276
 20
388.770853
 30
0.0
 11
820.70276
 21
388.770853
 31
0.0
  0
LINE
  5
2D75
100
AcDbEntity
  8
0
100
AcDbLine
 10
793.70276
 20
364.770853
 30
0.0
 11
793.70276
 21
388.770853
 31
0.0
  0
ARC
  5
2D76
100
AcDbEntity
  8
0
100
AcDbCircle
 10
816.679302
 20
376.770853
 30
0.0
 40
22.976542
100
AcDbArc
 50
162.445553
 51
197.554447
  0
LINE
  5
2D77
100
AcDbEntity
  8
0
100
AcDbLine
 10
800.70276
 20
388.770853
 30
0.0
 11
800.70276
 21
364.770853
 31
0.0
  0
ARC
  5
2D78
100
AcDbEntity
  8
0
100
AcDbCircle
 10
777.726218
 20
376.770853
 30
0.0
 40
22.976542
100
AcDbArc
 50
342.445553
 51
17.554447
  0
LINE
  5
2D79
100
AcDbEntity
  8
0
100
AcDbLine
 10
804.70276
 20
373.270853
 30
0.0
 11
804.72276
 21
354.050853
 31
0.0
  0
ARC
  5
2D7A
100
AcDbEntity
  8
0
100
AcDbCircle
 10
806.206743
 20
354.274836
 30
0.0
 40
1.503988
100
AcDbArc
 50
180.151738
 51
269.848262
  0
LINE
  5
2D7B
100
AcDbEntity
  8
0
100
AcDbLine
 10
794.77276
 20
369.840853
 30
0.0
 11
799.63276
 21
369.840853
 31
0.0
  0
LINE
  5
2D7C
100
AcDbEntity
  8
0
100
AcDbLine
 10
799.63276
 20
362.910853
 30
0.0
 11
794.77276
 21
362.910853
 31
0.0
  0
LINE
  5
2D7D
100
AcDbEntity
  8
0
100
AcDbLine
 10
794.77276
 20
362.910853
 30
0.0
 11
793.70276
 21
364.770853
 31
0.0
  0
ARC
  5
2D7E
100
AcDbEntity
  8
0
100
AcDbCircle
 10
799.848133
 20
366.375853
 30
0.0
 40
6.145376
100
AcDbArc
 50
145.678321
 51
214.321679
  0
LINE
  5
2D7F
100
AcDbEntity
  8
0
100
AcDbLine
 10
800.70276
 20
364.770853
 30
0.0
 11
799.63276
 21
362.910853
 31
0.0
  0
LINE
  5
2D80
100
AcDbEntity
  8
0
100
AcDbLine
 10
804.70276
 20
364.770853
 30
0.0
 11
800.70276
 21
364.770853
 31
0.0
  0
ARC
  5
2D81
100
AcDbEntity
  8
0
100
AcDbCircle
 10
794.557386
 20
366.375853
 30
0.0
 40
6.145376
100
AcDbArc
 50
325.678321
 51
34.321679
  0
ARC
  5
2D82
100
AcDbEntity
  8
0
100
AcDbCircle
 10
806.206743
 20
373.26687
 30
0.0
 40
1.503988
100
AcDbArc
 50
90.151738
 51
179.848262
  0
LINE
  5
2D83
100
AcDbEntity
  8
0
100
AcDbLine
 10
794.77276
 20
383.700853
 30
0.0
 11
799.63276
 21
383.700853
 31
0.0
  0
LINE
  5
2D84
100
AcDbEntity
  8
0
100
AcDbLine
 10
794.77276
 20
390.630853
 30
0.0
 11
799.63276
 21
390.630853
 31
0.0
  0
LINE
  5
2D85
100
AcDbEntity
  8
0
100
AcDbLine
 10
793.70276
 20
388.770853
 30
0.0
 11
794.77276
 21
390.630853
 31
0.0
  0
ARC
  5
2D86
100
AcDbEntity
  8
0
100
AcDbCircle
 10
799.848133
 20
387.165853
 30
0.0
 40
6.145376
100
AcDbArc
 50
145.678321
 51
214.321679
  0
LINE
  5
2D87
100
AcDbEntity
  8
0
100
AcDbLine
 10
799.63276
 20
390.630853
 30
0.0
 11
800.70276
 21
388.770853
 31
0.0
  0
ARC
  5
2D88
100
AcDbEntity
  8
0
100
AcDbCircle
 10
794.557386
 20
387.165853
 30
0.0
 40
6.145376
100
AcDbArc
 50
325.678321
 51
34.321679
  0
LINE
  5
2D89
100
AcDbEntity
  8
0
100
AcDbLine
 10
812.44276
 20
349.270853
 30
0.0
 11
818.04276
 21
349.270853
 31
0.0
  0
LINE
  5
2D8A
100
AcDbEntity
  8
0
100
AcDbLine
 10
811.24276
 20
350.470853
 30
0.0
 11
819.24276
 21
350.470853
 31
0.0
  0
ARC
  5
2D8B
100
AcDbEntity
  8
0
100
AcDbCircle
 10
810.21876
 20
351.312853
 30
0.0
 40
1.458088
100
AcDbArc
 50
45.389005
 51
90.628735
  0
LINE
  5
2D8C
100
AcDbEntity
  8
0
100
AcDbLine
 10
811.24276
 20
350.470853
 30
0.0
 11
812.44276
 21
349.270853
 31
0.0
  0
LINE
  5
2D8D
100
AcDbEntity
  8
0
100
AcDbLine
 10
811.24276
 20
352.770853
 30
0.0
 11
811.24276
 21
350.470853
 31
0.0
  0
LINE
  5
2D8E
100
AcDbEntity
  8
0
100
AcDbLine
 10
819.24276
 20
350.470853
 30
0.0
 11
819.24276
 21
352.770853
 31
0.0
  0
LINE
  5
2D8F
100
AcDbEntity
  8
0
100
AcDbLine
 10
818.04276
 20
349.270853
 30
0.0
 11
819.24276
 21
350.470853
 31
0.0
  0
ARC
  5
2D90
100
AcDbEntity
  8
0
100
AcDbCircle
 10
820.88276
 20
376.436865
 30
0.0
 40
4.550498
100
AcDbArc
 50
65.597663
 51
114.402337
  0
ARC
  5
2D91
100
AcDbEntity
  8
0
100
AcDbCircle
 10
815.24776
 20
366.608815
 30
0.0
 40
14.467822
100
AcDbArc
 50
74.957143
 51
105.042857
  0
LINE
  5
2D92
100
AcDbEntity
  8
0
100
AcDbLine
 10
807.74276
 20
380.580853
 30
0.0
 11
808.94276
 21
381.270853
 31
0.0
  0
LINE
  5
2D93
100
AcDbEntity
  8
0
100
AcDbLine
 10
821.55276
 20
381.270853
 30
0.0
 11
822.75276
 21
380.580853
 31
0.0
  0
ARC
  5
2D94
100
AcDbEntity
  8
0
100
AcDbCircle
 10
809.61276
 20
376.436865
 30
0.0
 40
4.550498
100
AcDbArc
 50
65.597663
 51
114.402337
  0
LINE
  5
2D95
100
AcDbEntity
  8
0
100
AcDbLine
 10
811.49276
 20
374.770853
 30
0.0
 11
811.49276
 21
380.580853
 31
0.0
  0
LINE
  5
2D96
100
AcDbEntity
  8
0
100
AcDbLine
 10
807.74276
 20
374.770853
 30
0.0
 11
807.74276
 21
380.580853
 31
0.0
  0
LINE
  5
2D97
100
AcDbEntity
  8
0
100
AcDbLine
 10
819.00276
 20
374.770853
 30
0.0
 11
819.00276
 21
380.580853
 31
0.0
  0
LINE
  5
2D98
100
AcDbEntity
  8
0
100
AcDbLine
 10
822.76276
 20
380.580853
 30
0.0
 11
822.75276
 21
380.580853
 31
0.0
  0
LINE
  5
2D99
100
AcDbEntity
  8
0
100
AcDbLine
 10
822.75276
 20
380.580853
 30
0.0
 11
822.75276
 21
374.770853
 31
0.0
  0
LINE
  5
2D9A
100
AcDbEntity
  8
0
100
AcDbLine
 10
811.24276
 20
383.070853
 30
0.0
 11
819.24276
 21
383.070853
 31
0.0
  0
LINE
  5
2D9B
100
AcDbEntity
  8
0
100
AcDbLine
 10
808.94276
 20
381.270853
 30
0.0
 11
815.24276
 21
381.270853
 31
0.0
  0
ARC
  5
2D9C
100
AcDbEntity
  8
0
100
AcDbCircle
 10
815.24276
 20
377.004186
 30
0.0
 40
7.266667
100
AcDbArc
 50
56.601512
 51
123.398488
  0
LINE
  5
2D9D
100
AcDbEntity
  8
0
100
AcDbLine
 10
811.24276
 20
381.270853
 30
0.0
 11
811.24276
 21
383.070853
 31
0.0
  0
ARC
  5
2D9E
100
AcDbEntity
  8
0
100
AcDbCircle
 10
820.704342
 20
390.769271
 30
0.0
 40
1.998418
100
AcDbArc
 50
269.954635
 51
0.045365
  0
LINE
  5
2D9F
100
AcDbEntity
  8
0
100
AcDbLine
 10
815.24276
 20
381.270853
 30
0.0
 11
821.55276
 21
381.270853
 31
0.0
  0
LINE
  5
2DA0
100
AcDbEntity
  8
0
100
AcDbLine
 10
819.24276
 20
383.070853
 30
0.0
 11
819.24276
 21
381.270853
 31
0.0
  0
LINE
  5
2DA1
100
AcDbEntity
  8
0
100
AcDbLine
 10
804.70276
 20
412.570853
 30
0.0
 11
804.70276
 21
422.070853
 31
0.0
  0
LINE
  5
2DA2
100
AcDbEntity
  8
0
100
AcDbLine
 10
804.70276
 20
403.070853
 30
0.0
 11
804.70276
 21
412.570853
 31
0.0
  0
ARC
  5
2DA3
100
AcDbEntity
  8
0
100
AcDbCircle
 10
806.218607
 20
403.0867
 30
0.0
 40
1.51593
100
AcDbArc
 50
180.598965
 51
269.401035
  0
ARC
  5
2DA4
100
AcDbEntity
  8
0
100
AcDbCircle
 10
806.218607
 20
422.055006
 30
0.0
 40
1.51593
100
AcDbArc
 50
90.598965
 51
179.401035
  0
LINE
  5
2DA5
100
AcDbEntity
  8
0
100
AcDbLine
 10
819.56276
 20
399.770853
 30
0.0
 11
811.56276
 21
399.770853
 31
0.0
  0
LINE
  5
2DA6
100
AcDbEntity
  8
0
100
AcDbLine
 10
812.76276
 20
398.570853
 30
0.0
 11
811.56276
 21
399.770853
 31
0.0
  0
LINE
  5
2DA7
100
AcDbEntity
  8
0
100
AcDbLine
 10
811.56276
 20
399.770853
 30
0.0
 11
811.56276
 21
401.570853
 31
0.0
  0
LINE
  5
2DA8
100
AcDbEntity
  8
0
100
AcDbLine
 10
819.56276
 20
399.770853
 30
0.0
 11
818.36276
 21
398.570853
 31
0.0
  0
ARC
  5
2DA9
100
AcDbEntity
  8
0
100
AcDbCircle
 10
815.400817
 20
391.361713
 30
0.0
 40
10.261093
100
AcDbArc
 50
48.030565
 51
66.071004
  0
LINE
  5
2DAA
100
AcDbEntity
  8
0
100
AcDbLine
 10
818.36276
 20
398.570853
 30
0.0
 11
812.76276
 21
398.570853
 31
0.0
  0
ARC
  5
2DAB
100
AcDbEntity
  8
0
100
AcDbCircle
 10
820.75427
 20
397.757425
 30
0.0
 40
1.94856
100
AcDbArc
 50
359.512714
 51
39.271423
  0
LINE
  5
2DAC
100
AcDbEntity
  8
0
100
AcDbLine
 10
819.56276
 20
401.570853
 30
0.0
 11
819.56276
 21
399.770853
 31
0.0
  0
ARC
  5
2DAD
100
AcDbEntity
  8
0
100
AcDbCircle
 10
815.24776
 20
415.408815
 30
0.0
 40
14.467822
100
AcDbArc
 50
74.957143
 51
105.042857
  0
LINE
  5
2DAE
100
AcDbEntity
  8
0
100
AcDbLine
 10
808.94276
 20
430.070853
 30
0.0
 11
821.55276
 21
430.070853
 31
0.0
  0
LINE
  5
2DAF
100
AcDbEntity
  8
0
100
AcDbLine
 10
807.74276
 20
429.380853
 30
0.0
 11
808.94276
 21
430.070853
 31
0.0
  0
ARC
  5
2DB0
100
AcDbEntity
  8
0
100
AcDbCircle
 10
809.61276
 20
425.236844
 30
0.0
 40
4.550517
100
AcDbArc
 50
65.597773
 51
114.402227
  0
ARC
  5
2DB1
100
AcDbEntity
  8
0
100
AcDbCircle
 10
820.88276
 20
425.236844
 30
0.0
 40
4.550517
100
AcDbArc
 50
65.597773
 51
114.402227
  0
LINE
  5
2DB2
100
AcDbEntity
  8
0
100
AcDbLine
 10
822.76276
 20
429.380853
 30
0.0
 11
822.75276
 21
429.380853
 31
0.0
  0
LINE
  5
2DB3
100
AcDbEntity
  8
0
100
AcDbLine
 10
821.55276
 20
430.070853
 30
0.0
 11
822.75276
 21
429.380853
 31
0.0
  0
LINE
  5
2DB4
100
AcDbEntity
  8
0
100
AcDbLine
 10
811.49276
 20
423.570853
 30
0.0
 11
811.49276
 21
429.380853
 31
0.0
  0
LINE
  5
2DB5
100
AcDbEntity
  8
0
100
AcDbLine
 10
807.74276
 20
423.570853
 30
0.0
 11
807.74276
 21
429.380853
 31
0.0
  0
LINE
  5
2DB6
100
AcDbEntity
  8
0
100
AcDbLine
 10
819.00276
 20
423.570853
 30
0.0
 11
819.00276
 21
429.380853
 31
0.0
  0
LINE
  5
2DB7
100
AcDbEntity
  8
0
100
AcDbLine
 10
822.75276
 20
429.380853
 30
0.0
 11
822.75276
 21
423.570853
 31
0.0
  0
LINE
  5
2DB8
100
AcDbEntity
  8
0
100
AcDbLine
 10
881.70276
 20
409.770853
 30
0.0
 11
881.70276
 21
393.770853
 31
0.0
  0
LINE
  5
2DB9
100
AcDbEntity
  8
0
100
AcDbLine
 10
884.59276
 20
408.370853
 30
0.0
 11
884.59276
 21
395.170853
 31
0.0
  0
LINE
  5
2DBA
100
AcDbEntity
  8
0
100
AcDbLine
 10
891.62276
 20
395.840853
 30
0.0
 11
891.62276
 21
407.700853
 31
0.0
  0
LINE
  5
2DBB
100
AcDbEntity
  8
0
100
AcDbLine
 10
860.26276
 20
399.930853
 30
0.0
 11
862.96276
 21
384.640853
 31
0.0
  0
LINE
  5
2DBC
100
AcDbEntity
  8
0
100
AcDbLine
 10
864.59276
 20
398.040853
 30
0.0
 11
865.27276
 21
394.200853
 31
0.0
  0
LINE
  5
2DBD
100
AcDbEntity
  8
0
100
AcDbLine
 10
879.70276
 20
391.770853
 30
0.0
 11
870.47276
 21
391.770853
 31
0.0
  0
ARC
  5
2DBE
100
AcDbEntity
  8
0
100
AcDbCircle
 10
875.198777
 20
354.274836
 30
0.0
 40
1.503988
100
AcDbArc
 50
270.151738
 51
359.848262
  0
ARC
  5
2DBF
100
AcDbEntity
  8
0
100
AcDbCircle
 10
875.198777
 20
373.26687
 30
0.0
 40
1.503988
100
AcDbArc
 50
0.151738
 51
89.848262
  0
LINE
  5
2DC0
100
AcDbEntity
  8
0
100
AcDbLine
 10
871.20276
 20
352.770853
 30
0.0
 11
875.20276
 21
352.770853
 31
0.0
  0
LINE
  5
2DC1
100
AcDbEntity
  8
0
100
AcDbLine
 10
870.16276
 20
352.770853
 30
0.0
 11
870.16276
 21
350.470853
 31
0.0
  0
LINE
  5
2DC2
100
AcDbEntity
  8
0
100
AcDbLine
 10
870.16276
 20
350.470853
 30
0.0
 11
868.96276
 21
349.270853
 31
0.0
  0
ARC
  5
2DC3
100
AcDbEntity
  8
0
100
AcDbCircle
 10
871.18676
 20
351.312853
 30
0.0
 40
1.458088
100
AcDbArc
 50
89.371265
 51
134.610995
  0
LINE
  5
2DC4
100
AcDbEntity
  8
0
100
AcDbLine
 10
863.36276
 20
349.270853
 30
0.0
 11
862.16276
 21
350.470853
 31
0.0
  0
LINE
  5
2DC5
100
AcDbEntity
  8
0
100
AcDbLine
 10
862.16276
 20
350.470853
 30
0.0
 11
862.16276
 21
352.770853
 31
0.0
  0
LINE
  5
2DC6
100
AcDbEntity
  8
0
100
AcDbLine
 10
870.16276
 20
350.470853
 30
0.0
 11
862.16276
 21
350.470853
 31
0.0
  0
LINE
  5
2DC7
100
AcDbEntity
  8
0
100
AcDbLine
 10
868.96276
 20
349.270853
 30
0.0
 11
863.36276
 21
349.270853
 31
0.0
  0
ARC
  5
2DC8
100
AcDbEntity
  8
0
100
AcDbCircle
 10
860.52276
 20
376.436865
 30
0.0
 40
4.550498
100
AcDbArc
 50
65.597663
 51
114.402337
  0
LINE
  5
2DC9
100
AcDbEntity
  8
0
100
AcDbLine
 10
858.64276
 20
380.580853
 30
0.0
 11
859.84276
 21
381.270853
 31
0.0
  0
LINE
  5
2DCA
100
AcDbEntity
  8
0
100
AcDbLine
 10
858.64276
 20
380.580853
 30
0.0
 11
858.64276
 21
374.770853
 31
0.0
  0
LINE
  5
2DCB
100
AcDbEntity
  8
0
100
AcDbLine
 10
872.46276
 20
381.270853
 30
0.0
 11
873.66276
 21
380.580853
 31
0.0
  0
ARC
  5
2DCC
100
AcDbEntity
  8
0
100
AcDbCircle
 10
871.79276
 20
376.436865
 30
0.0
 40
4.550498
100
AcDbArc
 50
65.597663
 51
114.402337
  0
LINE
  5
2DCD
100
AcDbEntity
  8
0
100
AcDbLine
 10
873.67276
 20
380.580853
 30
0.0
 11
873.66276
 21
380.580853
 31
0.0
  0
LINE
  5
2DCE
100
AcDbEntity
  8
0
100
AcDbLine
 10
873.66276
 20
380.580853
 30
0.0
 11
873.66276
 21
374.770853
 31
0.0
  0
LINE
  5
2DCF
100
AcDbEntity
  8
0
100
AcDbLine
 10
869.91276
 20
374.770853
 30
0.0
 11
869.91276
 21
380.580853
 31
0.0
  0
LINE
  5
2DD0
100
AcDbEntity
  8
0
100
AcDbLine
 10
870.15276
 20
383.070853
 30
0.0
 11
870.15276
 21
381.270853
 31
0.0
  0
LINE
  5
2DD1
100
AcDbEntity
  8
0
100
AcDbLine
 10
862.40276
 20
374.770853
 30
0.0
 11
862.40276
 21
380.580853
 31
0.0
  0
LINE
  5
2DD2
100
AcDbEntity
  8
0
100
AcDbLine
 10
866.53276
 20
387.070853
 30
0.0
 11
867.03276
 21
384.220853
 31
0.0
  0
LINE
  5
2DD3
100
AcDbEntity
  8
0
100
AcDbLine
 10
859.85276
 20
381.270853
 30
0.0
 11
866.15276
 21
381.270853
 31
0.0
  0
LINE
  5
2DD4
100
AcDbEntity
  8
0
100
AcDbLine
 10
862.15276
 20
381.270853
 30
0.0
 11
862.15276
 21
383.070853
 31
0.0
  0
ARC
  5
2DD5
100
AcDbEntity
  8
0
100
AcDbCircle
 10
866.15776
 20
366.608815
 30
0.0
 40
14.467822
100
AcDbArc
 50
74.957143
 51
105.042857
  0
ARC
  5
2DD6
100
AcDbEntity
  8
0
100
AcDbCircle
 10
870.504639
 20
387.742682
 30
0.0
 40
4.028297
100
AcDbArc
 50
90.453437
 51
189.600499
  0
ARC
  5
2DD7
100
AcDbEntity
  8
0
100
AcDbCircle
 10
866.15276
 20
377.004186
 30
0.0
 40
7.266667
100
AcDbArc
 50
56.601512
 51
123.398488
  0
LINE
  5
2DD8
100
AcDbEntity
  8
0
100
AcDbLine
 10
866.15276
 20
381.270853
 30
0.0
 11
872.46276
 21
381.270853
 31
0.0
  0
LINE
  5
2DD9
100
AcDbEntity
  8
0
100
AcDbLine
 10
862.15276
 20
383.070853
 30
0.0
 11
870.15276
 21
383.070853
 31
0.0
  0
LINE
  5
2DDA
100
AcDbEntity
  8
0
100
AcDbLine
 10
876.70276
 20
373.270853
 30
0.0
 11
876.70276
 21
354.270853
 31
0.0
  0
LINE
  5
2DDB
100
AcDbEntity
  8
0
100
AcDbLine
 10
884.59276
 20
395.840853
 30
0.0
 11
891.62276
 21
395.840853
 31
0.0
  0
LINE
  5
2DDC
100
AcDbEntity
  8
0
100
AcDbLine
 10
884.59276
 20
395.170853
 30
0.0
 11
881.70276
 21
395.260853
 31
0.0
  0
ARC
  5
2DDD
100
AcDbEntity
  8
0
100
AcDbCircle
 10
879.70276
 20
393.770853
 30
0.0
 40
2.0
100
AcDbArc
 50
270.0
 51
0.0
  0
ARC
  5
2DDE
100
AcDbEntity
  8
0
100
AcDbCircle
 10
875.200502
 20
403.073111
 30
0.0
 40
1.50226
100
AcDbArc
 50
270.086122
 51
359.913878
  0
ARC
  5
2DDF
100
AcDbEntity
  8
0
100
AcDbCircle
 10
875.186912
 20
422.055006
 30
0.0
 40
1.51593
100
AcDbArc
 50
0.598965
 51
89.401035
  0
LINE
  5
2DE0
100
AcDbEntity
  8
0
100
AcDbLine
 10
870.16276
 20
399.770853
 30
0.0
 11
868.96276
 21
398.570853
 31
0.0
  0
LINE
  5
2DE1
100
AcDbEntity
  8
0
100
AcDbLine
 10
870.16276
 20
401.570853
 30
0.0
 11
870.16276
 21
399.770853
 31
0.0
  0
LINE
  5
2DE2
100
AcDbEntity
  8
0
100
AcDbLine
 10
863.36276
 20
398.570853
 30
0.0
 11
862.16276
 21
399.770853
 31
0.0
  0
LINE
  5
2DE3
100
AcDbEntity
  8
0
100
AcDbLine
 10
862.16276
 20
399.770853
 30
0.0
 11
862.16276
 21
401.570853
 31
0.0
  0
LINE
  5
2DE4
100
AcDbEntity
  8
0
100
AcDbLine
 10
868.96276
 20
398.570853
 30
0.0
 11
863.36276
 21
398.570853
 31
0.0
  0
LINE
  5
2DE5
100
AcDbEntity
  8
0
100
AcDbLine
 10
870.16276
 20
399.770853
 30
0.0
 11
862.16276
 21
399.770853
 31
0.0
  0
LINE
  5
2DE6
100
AcDbEntity
  8
0
100
AcDbLine
 10
859.85276
 20
430.070853
 30
0.0
 11
858.65276
 21
429.380853
 31
0.0
  0
ARC
  5
2DE7
100
AcDbEntity
  8
0
100
AcDbCircle
 10
860.52276
 20
425.236844
 30
0.0
 40
4.550517
100
AcDbArc
 50
65.597773
 51
114.402227
  0
LINE
  5
2DE8
100
AcDbEntity
  8
0
100
AcDbLine
 10
858.64276
 20
429.380853
 30
0.0
 11
858.65276
 21
429.380853
 31
0.0
  0
LINE
  5
2DE9
100
AcDbEntity
  8
0
100
AcDbLine
 10
858.65276
 20
429.380853
 30
0.0
 11
858.65276
 21
423.570853
 31
0.0
  0
LINE
  5
2DEA
100
AcDbEntity
  8
0
100
AcDbLine
 10
873.66276
 20
429.380853
 30
0.0
 11
872.46276
 21
430.070853
 31
0.0
  0
ARC
  5
2DEB
100
AcDbEntity
  8
0
100
AcDbCircle
 10
871.79276
 20
425.236844
 30
0.0
 40
4.550517
100
AcDbArc
 50
65.597773
 51
114.402227
  0
LINE
  5
2DEC
100
AcDbEntity
  8
0
100
AcDbLine
 10
872.46276
 20
430.070853
 30
0.0
 11
859.85276
 21
430.070853
 31
0.0
  0
ARC
  5
2DED
100
AcDbEntity
  8
0
100
AcDbCircle
 10
866.15776
 20
415.408815
 30
0.0
 40
14.467822
100
AcDbArc
 50
74.957143
 51
105.042857
  0
LINE
  5
2DEE
100
AcDbEntity
  8
0
100
AcDbLine
 10
862.40276
 20
423.570853
 30
0.0
 11
862.40276
 21
429.380853
 31
0.0
  0
LINE
  5
2DEF
100
AcDbEntity
  8
0
100
AcDbLine
 10
873.66276
 20
423.570853
 30
0.0
 11
873.66276
 21
429.380853
 31
0.0
  0
LINE
  5
2DF0
100
AcDbEntity
  8
0
100
AcDbLine
 10
869.91276
 20
423.570853
 30
0.0
 11
869.91276
 21
429.380853
 31
0.0
  0
LINE
  5
2DF1
100
AcDbEntity
  8
0
100
AcDbLine
 10
876.70276
 20
422.070853
 30
0.0
 11
876.70276
 21
412.570853
 31
0.0
  0
LINE
  5
2DF2
100
AcDbEntity
  8
0
100
AcDbLine
 10
884.59276
 20
401.770853
 30
0.0
 11
891.62276
 21
401.770853
 31
0.0
  0
LINE
  5
2DF3
100
AcDbEntity
  8
0
100
AcDbLine
 10
891.62276
 20
407.700853
 30
0.0
 11
884.59276
 21
407.700853
 31
0.0
  0
LINE
  5
2DF4
100
AcDbEntity
  8
0
100
AcDbLine
 10
876.70276
 20
412.570853
 30
0.0
 11
876.70276
 21
403.070853
 31
0.0
  0
LINE
  5
2DF5
100
AcDbEntity
  8
0
100
AcDbLine
 10
881.70276
 20
408.280853
 30
0.0
 11
884.59276
 21
408.370853
 31
0.0
  0
LINE
  5
2DF6
100
AcDbEntity
  8
0
100
AcDbLine
 10
878.30276
 20
411.770853
 30
0.0
 11
879.70276
 21
411.770853
 31
0.0
  0
ARC
  5
2DF7
100
AcDbEntity
  8
0
100
AcDbCircle
 10
878.308471
 20
413.782277
 30
0.0
 40
2.011432
100
AcDbArc
 50
217.032602
 51
269.837296
  0
ARC
  5
2DF8
100
AcDbEntity
  8
0
100
AcDbCircle
 10
879.704342
 20
409.772435
 30
0.0
 40
1.998418
100
AcDbArc
 50
359.954635
 51
90.045365
  0
LINE
  5
2DF9
100
AcDbEntity
  8
0
100
AcDbLine
 10
777.18508
 20
638.051739
 30
0.0
 11
745.672705
 21
638.051739
 31
0.0
  0
LINE
  5
2DFA
100
AcDbEntity
  8
0
100
AcDbLine
 10
644.508874
 20
493.570853
 30
0.0
 11
644.508874
 21
516.770853
 31
0.0
  0
LINE
  5
2DFB
100
AcDbEntity
  8
0
100
AcDbLine
 10
658.508874
 20
516.770853
 30
0.0
 11
658.508874
 21
493.570853
 31
0.0
  0
LINE
  5
2DFC
100
AcDbEntity
  8
0
100
AcDbLine
 10
691.508874
 20
488.620873
 30
0.0
 11
662.517396
 21
488.620873
 31
0.0
  0
LINE
  5
2DFD
100
AcDbEntity
  8
0
100
AcDbLine
 10
691.508874
 20
491.520833
 30
0.0
 11
662.517396
 21
491.520833
 31
0.0
  0
LINE
  5
2DFE
100
AcDbEntity
  8
0
100
AcDbLine
 10
635.508874
 20
485.570853
 30
0.0
 11
635.508874
 21
453.570853
 31
0.0
  0
LINE
  5
2DFF
100
AcDbEntity
  8
0
100
AcDbLine
 10
667.508874
 20
453.570853
 30
0.0
 11
667.508874
 21
485.570853
 31
0.0
  0
LINE
  5
2E00
100
AcDbEntity
  8
0
100
AcDbLine
 10
667.508874
 20
453.570853
 30
0.0
 11
635.508874
 21
453.570853
 31
0.0
  0
ARC
  5
2E01
100
AcDbEntity
  8
0
100
AcDbCircle
 10
646.019612
 20
477.651325
 30
0.0
 40
15.919528
100
AcDbArc
 50
69.791268
 51
110.208732
  0
ARC
  5
2E02
100
AcDbEntity
  8
0
100
AcDbCircle
 10
646.019612
 20
502.490381
 30
0.0
 40
15.919528
100
AcDbArc
 50
249.791268
 51
290.208732
  0
LINE
  5
2E03
100
AcDbEntity
  8
0
100
AcDbLine
 10
666.508874
 20
486.570853
 30
0.0
 11
636.508874
 21
486.570853
 31
0.0
  0
LINE
  5
2E04
100
AcDbEntity
  8
0
100
AcDbLine
 10
667.508874
 20
485.570853
 30
0.0
 11
635.508874
 21
485.570853
 31
0.0
  0
LINE
  5
2E05
100
AcDbEntity
  8
0
100
AcDbLine
 10
640.508874
 20
493.570853
 30
0.0
 11
662.508874
 21
493.570853
 31
0.0
  0
LINE
  5
2E06
100
AcDbEntity
  8
0
100
AcDbLine
 10
636.508874
 20
486.570853
 30
0.0
 11
635.508874
 21
485.570853
 31
0.0
  0
LINE
  5
2E07
100
AcDbEntity
  8
0
100
AcDbLine
 10
640.520351
 20
492.590853
 30
0.0
 11
640.508874
 21
493.570853
 31
0.0
  0
LINE
  5
2E08
100
AcDbEntity
  8
0
100
AcDbLine
 10
640.520351
 20
487.550853
 30
0.0
 11
640.520351
 21
492.590853
 31
0.0
  0
LINE
  5
2E09
100
AcDbEntity
  8
0
100
AcDbLine
 10
640.508874
 20
486.570853
 30
0.0
 11
640.520351
 21
487.550853
 31
0.0
  0
LINE
  5
2E0A
100
AcDbEntity
  8
0
100
AcDbLine
 10
667.508874
 20
485.570853
 30
0.0
 11
666.508874
 21
486.570853
 31
0.0
  0
LINE
  5
2E0B
100
AcDbEntity
  8
0
100
AcDbLine
 10
662.508874
 20
493.570853
 30
0.0
 11
662.517396
 21
492.590853
 31
0.0
  0
LINE
  5
2E0C
100
AcDbEntity
  8
0
100
AcDbLine
 10
662.517396
 20
487.550853
 30
0.0
 11
662.508874
 21
486.570853
 31
0.0
  0
LINE
  5
2E0D
100
AcDbEntity
  8
0
100
AcDbLine
 10
662.517396
 20
492.590853
 30
0.0
 11
662.517396
 21
487.550853
 31
0.0
  0
ARC
  5
2E0E
100
AcDbEntity
  8
0
100
AcDbCircle
 10
657.018135
 20
477.651325
 30
0.0
 40
15.919528
100
AcDbArc
 50
69.791268
 51
110.208732
  0
ARC
  5
2E0F
100
AcDbEntity
  8
0
100
AcDbCircle
 10
657.018132
 20
502.490398
 30
0.0
 40
15.919545
100
AcDbArc
 50
249.791291
 51
290.208721
  0
LINE
  5
2E10
100
AcDbEntity
  8
0
100
AcDbLine
 10
651.518874
 20
492.590853
 30
0.0
 11
651.518871
 21
487.550852
 31
0.0
  0
ARC
  5
2E11
100
AcDbEntity
  8
0
100
AcDbCircle
 10
691.508874
 20
489.620873
 30
0.0
 40
1.0
100
AcDbArc
 50
270.0
 51
0.0
  0
LINE
  5
2E12
100
AcDbEntity
  8
0
100
AcDbLine
 10
692.508874
 20
490.520833
 30
0.0
 11
692.508874
 21
489.620873
 31
0.0
  0
ARC
  5
2E13
100
AcDbEntity
  8
0
100
AcDbCircle
 10
691.508874
 20
490.520833
 30
0.0
 40
1.0
100
AcDbArc
 50
0.0
 51
90.0
  0
LINE
  5
2E14
100
AcDbEntity
  8
0
100
AcDbLine
 10
668.008874
 20
538.270853
 30
0.0
 11
635.008874
 21
538.270853
 31
0.0
  0
ARC
  5
2E15
100
AcDbEntity
  8
0
100
AcDbCircle
 10
644.007207
 20
518.270853
 30
0.0
 40
1.581667
100
AcDbArc
 50
288.492225
 51
71.507775
  0
ARC
  5
2E16
100
AcDbEntity
  8
0
100
AcDbCircle
 10
659.01054
 20
518.270853
 30
0.0
 40
1.581667
100
AcDbArc
 50
108.492225
 51
251.507775
  0
LINE
  5
2E17
100
AcDbEntity
  8
0
100
AcDbLine
 10
658.508874
 20
516.770853
 30
0.0
 11
644.508874
 21
516.770853
 31
0.0
  0
ARC
  5
2E18
100
AcDbEntity
  8
0
100
AcDbCircle
 10
650.402798
 20
524.245116
 30
0.0
 40
11.3
100
AcDbArc
 50
84.382735
 51
167.44822
  0
LINE
  5
2E19
100
AcDbEntity
  8
0
100
AcDbLine
 10
664.508874
 20
519.770853
 30
0.0
 11
638.508874
 21
519.770853
 31
0.0
  0
LINE
  5
2E1A
100
AcDbEntity
  8
0
100
AcDbLine
 10
661.716737
 20
524.270853
 30
0.0
 11
641.322868
 21
524.270853
 31
0.0
  0
LINE
  5
2E1B
100
AcDbEntity
  8
0
100
AcDbLine
 10
638.508874
 20
519.770853
 30
0.0
 11
638.508874
 21
522.270853
 31
0.0
  0
ARC
  5
2E1C
100
AcDbEntity
  8
0
100
AcDbCircle
 10
641.322331
 20
526.26783
 30
0.0
 40
1.996977
100
AcDbArc
 50
167.476529
 51
270.015405
  0
LINE
  5
2E1D
100
AcDbEntity
  8
0
100
AcDbLine
 10
664.508874
 20
522.270853
 30
0.0
 11
664.508874
 21
519.770853
 31
0.0
  0
ARC
  5
2E1E
100
AcDbEntity
  8
0
100
AcDbCircle
 10
661.713821
 20
526.272384
 30
0.0
 40
2.001533
100
AcDbArc
 50
270.083475
 51
12.654204
  0
ARC
  5
2E1F
100
AcDbEntity
  8
0
100
AcDbCircle
 10
652.638515
 20
524.247459
 30
0.0
 40
11.3
100
AcDbArc
 50
12.59156
 51
95.737342
  0
ARC
  5
2E20
100
AcDbEntity
  8
0
100
AcDbCircle
 10
679.303036
 20
525.274896
 30
0.0
 40
3.004046
100
AcDbArc
 50
270.07711
 51
359.92289
  0
LINE
  5
2E21
100
AcDbEntity
  8
0
100
AcDbLine
 10
682.307079
 20
525.270853
 30
0.0
 11
682.307079
 21
528.612103
 31
0.0
  0
LINE
  5
2E22
100
AcDbEntity
  8
0
100
AcDbLine
 10
675.408874
 20
524.270853
 30
0.0
 11
675.418874
 21
524.270853
 31
0.0
  0
ARC
  5
2E23
100
AcDbEntity
  8
0
100
AcDbCircle
 10
672.349866
 20
526.272384
 30
0.0
 40
2.001533
100
AcDbArc
 50
167.345796
 51
269.916525
  0
ARC
  5
2E24
100
AcDbEntity
  8
0
100
AcDbCircle
 10
651.517594
 20
447.686829
 30
0.0
 40
92.072948
100
AcDbArc
 50
74.272172
 51
79.682016
  0
ARC
  5
2E25
100
AcDbEntity
  8
0
100
AcDbCircle
 10
674.307079
 20
528.612103
 30
0.0
 40
8.0
100
AcDbArc
 50
0.0
 51
74.272172
  0
LINE
  5
2E26
100
AcDbEntity
  8
0
100
AcDbLine
 10
672.34695
 20
524.270853
 30
0.0
 11
682.134323
 21
524.270853
 31
0.0
  0
ARC
  5
2E27
100
AcDbEntity
  8
0
100
AcDbCircle
 10
681.338874
 20
524.271795
 30
0.0
 40
11.210472
100
AcDbArc
 50
102.858283
 51
167.433676
  0
LINE
  5
2E28
100
AcDbEntity
  8
0
100
AcDbLine
 10
761.429455
 20
641.202864
 30
0.0
 11
770.74558
 21
641.202864
 31
0.0
  0
LINE
  5
2E29
100
AcDbEntity
  8
0
100
AcDbLine
 10
824.70276
 20
453.570853
 30
0.0
 11
856.70276
 21
453.570853
 31
0.0
  0
CIRCLE
  5
2E2A
100
AcDbEntity
  8
0
100
AcDbCircle
 10
840.69276
 20
490.070853
 30
0.0
 40
1.44998
  0
LINE
  5
2E2B
100
AcDbEntity
  8
0
100
AcDbLine
 10
824.70276
 20
485.570853
 30
0.0
 11
856.70276
 21
485.570853
 31
0.0
  0
LINE
  5
2E2C
100
AcDbEntity
  8
0
100
AcDbLine
 10
825.70276
 20
486.570853
 30
0.0
 11
855.70276
 21
486.570853
 31
0.0
  0
ARC
  5
2E2D
100
AcDbEntity
  8
0
100
AcDbCircle
 10
840.70276
 20
507.633557
 30
0.0
 40
21.062704
100
AcDbArc
 50
252.453437
 51
287.546563
  0
LINE
  5
2E2E
100
AcDbEntity
  8
0
100
AcDbLine
 10
833.70276
 20
516.770853
 30
0.0
 11
847.70276
 21
516.770853
 31
0.0
  0
LINE
  5
2E2F
100
AcDbEntity
  8
0
100
AcDbLine
 10
851.70276
 20
493.570853
 30
0.0
 11
829.70276
 21
493.570853
 31
0.0
  0
LINE
  5
2E30
100
AcDbEntity
  8
0
100
AcDbLine
 10
866.20276
 20
522.270853
 30
0.0
 11
815.20276
 21
522.270853
 31
0.0
  0
LINE
  5
2E31
100
AcDbEntity
  8
0
100
AcDbLine
 10
827.70276
 20
519.770853
 30
0.0
 11
853.70276
 21
519.770853
 31
0.0
  0
ARC
  5
2E32
100
AcDbEntity
  8
0
100
AcDbCircle
 10
840.70276
 20
472.508149
 30
0.0
 40
21.062704
100
AcDbArc
 50
72.453437
 51
107.546563
  0
LINE
  5
2E33
100
AcDbEntity
  8
0
100
AcDbLine
 10
824.20276
 20
538.270853
 30
0.0
 11
857.20276
 21
538.270853
 31
0.0
  0
LINE
  5
2E34
100
AcDbEntity
  8
0
100
AcDbLine
 10
833.70276
 20
516.770853
 30
0.0
 11
833.70276
 21
493.570853
 31
0.0
  0
LINE
  5
2E35
100
AcDbEntity
  8
0
100
AcDbLine
 10
824.70276
 20
453.570853
 30
0.0
 11
824.70276
 21
485.570853
 31
0.0
  0
LINE
  5
2E36
100
AcDbEntity
  8
0
100
AcDbLine
 10
834.35276
 20
487.550853
 30
0.0
 11
834.35276
 21
492.590853
 31
0.0
  0
LINE
  5
2E37
100
AcDbEntity
  8
0
100
AcDbLine
 10
828.00276
 20
492.590853
 30
0.0
 11
828.00276
 21
487.550853
 31
0.0
  0
LINE
  5
2E38
100
AcDbEntity
  8
0
100
AcDbLine
 10
828.00276
 20
487.550853
 30
0.0
 11
829.70276
 21
486.570853
 31
0.0
  0
ARC
  5
2E39
100
AcDbEntity
  8
0
100
AcDbCircle
 10
831.17776
 20
492.218084
 30
0.0
 40
5.644791
100
AcDbArc
 50
235.773528
 51
304.226472
  0
LINE
  5
2E3A
100
AcDbEntity
  8
0
100
AcDbLine
 10
824.70276
 20
485.570853
 30
0.0
 11
825.70276
 21
486.570853
 31
0.0
  0
LINE
  5
2E3B
100
AcDbEntity
  8
0
100
AcDbLine
 10
829.70276
 20
493.570853
 30
0.0
 11
828.00276
 21
492.590853
 31
0.0
  0
ARC
  5
2E3C
100
AcDbEntity
  8
0
100
AcDbCircle
 10
831.17776
 20
487.923622
 30
0.0
 40
5.644791
100
AcDbArc
 50
55.773528
 51
124.226472
  0
ARC
  5
2E3D
100
AcDbEntity
  8
0
100
AcDbCircle
 10
833.201093
 20
518.270853
 30
0.0
 40
1.581667
100
AcDbArc
 50
288.492225
 51
71.507775
  0
ARC
  5
2E3E
100
AcDbEntity
  8
0
100
AcDbCircle
 10
825.871322
 20
524.168169
 30
0.0
 40
11.315639
100
AcDbArc
 50
91.309322
 51
167.066408
  0
LINE
  5
2E3F
100
AcDbEntity
  8
0
100
AcDbLine
 10
834.78276
 20
524.270853
 30
0.0
 11
816.80276
 21
524.270853
 31
0.0
  0
LINE
  5
2E40
100
AcDbEntity
  8
0
100
AcDbLine
 10
812.20276
 20
525.270853
 30
0.0
 11
812.20276
 21
527.650853
 31
0.0
  0
ARC
  5
2E41
100
AcDbEntity
  8
0
100
AcDbCircle
 10
815.206803
 20
525.274896
 30
0.0
 40
3.004046
100
AcDbArc
 50
180.07711
 51
269.92289
  0
LINE
  5
2E42
100
AcDbEntity
  8
0
100
AcDbLine
 10
816.80276
 20
524.270853
 30
0.0
 11
816.79276
 21
524.270853
 31
0.0
  0
ARC
  5
2E43
100
AcDbEntity
  8
0
100
AcDbCircle
 10
816.792213
 20
526.267822
 30
0.0
 40
1.996969
100
AcDbArc
 50
167.47625
 51
270.015685
  0
ARC
  5
2E44
100
AcDbEntity
  8
0
100
AcDbCircle
 10
822.199484
 20
527.652183
 30
0.0
 40
9.996724
100
AcDbArc
 50
103.046771
 51
180.007623
  0
ARC
  5
2E45
100
AcDbEntity
  8
0
100
AcDbCircle
 10
840.693711
 20
447.68852
 30
0.0
 40
92.071226
100
AcDbArc
 50
100.317971
 51
103.025185
  0
ARC
  5
2E46
100
AcDbEntity
  8
0
100
AcDbCircle
 10
825.790836
 20
524.271795
 30
0.0
 40
11.210472
100
AcDbArc
 50
12.566324
 51
90.910173
  0
LINE
  5
2E47
100
AcDbEntity
  8
0
100
AcDbLine
 10
827.70276
 20
522.270853
 30
0.0
 11
827.70276
 21
519.770853
 31
0.0
  0
ARC
  5
2E48
100
AcDbEntity
  8
0
100
AcDbCircle
 10
834.779844
 20
526.272384
 30
0.0
 40
2.001533
100
AcDbArc
 50
270.083475
 51
12.654204
  0
LINE
  5
2E49
100
AcDbEntity
  8
0
100
AcDbLine
 10
847.70276
 20
493.570853
 30
0.0
 11
847.70276
 21
516.770853
 31
0.0
  0
LINE
  5
2E4A
100
AcDbEntity
  8
0
100
AcDbLine
 10
856.70276
 20
485.570853
 30
0.0
 11
856.70276
 21
453.570853
 31
0.0
  0
LINE
  5
2E4B
100
AcDbEntity
  8
0
100
AcDbLine
 10
847.05276
 20
492.590853
 30
0.0
 11
847.05276
 21
487.550853
 31
0.0
  0
LINE
  5
2E4C
100
AcDbEntity
  8
0
100
AcDbLine
 10
853.40276
 20
487.550853
 30
0.0
 11
853.40276
 21
492.590853
 31
0.0
  0
ARC
  5
2E4D
100
AcDbEntity
  8
0
100
AcDbCircle
 10
850.22776
 20
492.204016
 30
0.0
 40
5.633165
100
AcDbArc
 50
235.693049
 51
304.306951
  0
LINE
  5
2E4E
100
AcDbEntity
  8
0
100
AcDbLine
 10
851.70276
 20
486.570853
 30
0.0
 11
853.40276
 21
487.550853
 31
0.0
  0
LINE
  5
2E4F
100
AcDbEntity
  8
0
100
AcDbLine
 10
855.70276
 20
486.570853
 30
0.0
 11
856.70276
 21
485.570853
 31
0.0
  0
ARC
  5
2E50
100
AcDbEntity
  8
0
100
AcDbCircle
 10
850.22776
 20
487.93769
 30
0.0
 40
5.633165
100
AcDbArc
 50
55.693049
 51
124.306951
  0
LINE
  5
2E51
100
AcDbEntity
  8
0
100
AcDbLine
 10
853.40276
 20
492.590853
 30
0.0
 11
851.70276
 21
493.570853
 31
0.0
  0
ARC
  5
2E52
100
AcDbEntity
  8
0
100
AcDbCircle
 10
848.204426
 20
518.270853
 30
0.0
 40
1.581667
100
AcDbArc
 50
108.492225
 51
251.507775
  0
LINE
  5
2E53
100
AcDbEntity
  8
0
100
AcDbLine
 10
846.62276
 20
524.270853
 30
0.0
 11
864.62276
 21
524.270853
 31
0.0
  0
LINE
  5
2E54
100
AcDbEntity
  8
0
100
AcDbLine
 10
857.20276
 20
538.270853
 30
0.0
 11
861.46276
 21
537.390853
 31
0.0
  0
ARC
  5
2E55
100
AcDbEntity
  8
0
100
AcDbCircle
 10
855.620836
 20
524.261795
 30
0.0
 40
11.210472
100
AcDbArc
 50
12.566324
 51
90.910173
  0
ARC
  5
2E56
100
AcDbEntity
  8
0
100
AcDbCircle
 10
855.701322
 20
524.178169
 30
0.0
 40
11.315639
100
AcDbArc
 50
91.309322
 51
167.066408
  0
ARC
  5
2E57
100
AcDbEntity
  8
0
100
AcDbCircle
 10
846.625676
 20
526.272384
 30
0.0
 40
2.001533
100
AcDbArc
 50
167.345796
 51
269.916525
  0
LINE
  5
2E58
100
AcDbEntity
  8
0
100
AcDbLine
 10
853.70276
 20
519.770853
 30
0.0
 11
853.70276
 21
522.270853
 31
0.0
  0
LINE
  5
2E59
100
AcDbEntity
  8
0
100
AcDbLine
 10
869.20276
 20
527.650853
 30
0.0
 11
869.20276
 21
525.270853
 31
0.0
  0
LINE
  5
2E5A
100
AcDbEntity
  8
0
100
AcDbLine
 10
864.62276
 20
524.270853
 30
0.0
 11
864.61276
 21
524.270853
 31
0.0
  0
ARC
  5
2E5B
100
AcDbEntity
  8
0
100
AcDbCircle
 10
864.613297
 20
526.26783
 30
0.0
 40
1.996977
100
AcDbArc
 50
269.984595
 51
12.523471
  0
ARC
  5
2E5C
100
AcDbEntity
  8
0
100
AcDbCircle
 10
866.198717
 20
525.274896
 30
0.0
 40
3.004046
100
AcDbArc
 50
270.07711
 51
359.92289
  0
ARC
  5
2E5D
100
AcDbEntity
  8
0
100
AcDbCircle
 10
859.206103
 20
527.652237
 30
0.0
 40
9.996657
100
AcDbArc
 50
359.99207
 51
76.953535
  0
ARC
  5
2E5E
100
AcDbEntity
  8
0
100
AcDbCircle
 10
841.695564
 20
597.534365
 30
0.0
 40
1.007221
100
AcDbArc
 50
270.409298
 51
359.590702
  0
LINE
  5
2E5F
100
AcDbEntity
  8
0
100
AcDbLine
 10
838.70276
 20
597.52717
 30
0.0
 11
842.70276
 21
597.52717
 31
0.0
  0
ARC
  5
2E60
100
AcDbEntity
  8
0
100
AcDbCircle
 10
840.71924
 20
637.455135
 30
0.0
 40
30.927969
100
AcDbArc
 50
263.111117
 51
276.811222
  0
LINE
  5
2E61
100
AcDbEntity
  8
0
100
AcDbLine
 10
874.81276
 20
593.52717
 30
0.0
 11
806.63276
 21
593.52717
 31
0.0
  0
ARC
  5
2E62
100
AcDbEntity
  8
0
100
AcDbCircle
 10
806.499223
 20
603.324005
 30
0.0
 40
9.796848
100
AcDbArc
 50
180.507848
 51
269.903716
  0
ARC
  5
2E63
100
AcDbEntity
  8
0
100
AcDbCircle
 10
815.252712
 20
612.077104
 30
0.0
 40
10.549952
100
AcDbArc
 50
179.999638
 51
270.108877
  0
ARC
  5
2E64
100
AcDbEntity
  8
0
100
AcDbCircle
 10
806.436631
 20
603.285893
 30
0.0
 40
4.012848
100
AcDbArc
 50
98.151619
 51
351.686516
  0
LINE
  5
2E65
100
AcDbEntity
  8
0
100
AcDbLine
 10
790.70276
 20
615.02717
 30
0.0
 11
790.70276
 21
637.52717
 31
0.0
  0
LINE
  5
2E66
100
AcDbEntity
  8
0
100
AcDbLine
 10
792.20276
 20
613.52717
 30
0.0
 11
804.70276
 21
613.52717
 31
0.0
  0
LINE
  5
2E67
100
AcDbEntity
  8
0
100
AcDbLine
 10
796.70276
 20
603.22717
 30
0.0
 11
796.70276
 21
613.52717
 31
0.0
  0
LINE
  5
2E68
100
AcDbEntity
  8
0
100
AcDbLine
 10
790.70276
 20
615.02717
 30
0.0
 11
792.20276
 21
613.52717
 31
0.0
  0
LINE
  5
2E69
100
AcDbEntity
  8
0
100
AcDbLine
 10
794.50276
 20
637.52717
 30
0.0
 11
799.90276
 21
637.52717
 31
0.0
  0
LINE
  5
2E6A
100
AcDbEntity
  8
0
100
AcDbLine
 10
804.70276
 20
625.52717
 30
0.0
 11
793.70276
 21
625.52717
 31
0.0
  0
ARC
  5
2E6B
100
AcDbEntity
  8
0
100
AcDbCircle
 10
816.60276
 20
631.52717
 30
0.0
 40
22.9
100
AcDbArc
 50
164.810713
 51
195.189287
  0
ARC
  5
2E6C
100
AcDbEntity
  8
0
100
AcDbCircle
 10
777.80276
 20
631.52717
 30
0.0
 40
22.9
100
AcDbArc
 50
344.810713
 51
15.189287
  0
LINE
  5
2E6D
100
AcDbEntity
  8
0
100
AcDbLine
 10
811.49276
 20
618.57717
 30
0.0
 11
807.74276
 21
612.07717
 31
0.0
  0
LINE
  5
2E6E
100
AcDbEntity
  8
0
100
AcDbLine
 10
822.75276
 20
612.07717
 30
0.0
 11
819.00276
 21
618.57717
 31
0.0
  0
ARC
  5
2E6F
100
AcDbEntity
  8
0
100
AcDbCircle
 10
814.813923
 20
592.67639
 30
0.0
 40
26.286334
100
AcDbArc
 50
32.359051
 51
87.640949
  0
LINE
  5
2E70
100
AcDbEntity
  8
0
100
AcDbLine
 10
838.70276
 20
601.52717
 30
0.0
 11
815.27276
 21
601.52717
 31
0.0
  0
LINE
  5
2E71
100
AcDbEntity
  8
0
100
AcDbLine
 10
811.49276
 20
605.57717
 30
0.0
 11
819.00276
 21
605.57717
 31
0.0
  0
LINE
  5
2E72
100
AcDbEntity
  8
0
100
AcDbLine
 10
807.74276
 20
612.07717
 30
0.0
 11
811.49276
 21
605.57717
 31
0.0
  0
LINE
  5
2E73
100
AcDbEntity
  8
0
100
AcDbLine
 10
819.00276
 20
605.57717
 30
0.0
 11
822.75276
 21
612.07717
 31
0.0
  0
ARC
  5
2E74
100
AcDbEntity
  8
0
100
AcDbCircle
 10
839.709955
 20
597.534365
 30
0.0
 40
1.007221
100
AcDbArc
 50
180.409298
 51
269.590702
  0
LINE
  5
2E75
100
AcDbEntity
  8
0
100
AcDbLine
 10
839.70276
 20
596.52717
 30
0.0
 11
841.70276
 21
596.52717
 31
0.0
  0
LINE
  5
2E76
100
AcDbEntity
  8
0
100
AcDbLine
 10
838.70276
 20
606.52717
 30
0.0
 11
838.70276
 21
597.52717
 31
0.0
  0
LINE
  5
2E77
100
AcDbEntity
  8
0
100
AcDbLine
 10
819.00276
 20
618.57717
 30
0.0
 11
811.49276
 21
618.57717
 31
0.0
  0
ARC
  5
2E78
100
AcDbEntity
  8
0
100
AcDbCircle
 10
840.648616
 20
637.47688
 30
0.0
 40
30.927969
100
AcDbArc
 50
203.111117
 51
216.811222
  0
ARC
  5
2E79
100
AcDbEntity
  8
0
100
AcDbCircle
 10
874.906296
 20
603.324005
 30
0.0
 40
9.796848
100
AcDbArc
 50
270.096284
 51
359.492152
  0
ARC
  5
2E7A
100
AcDbEntity
  8
0
100
AcDbCircle
 10
874.968888
 20
603.285893
 30
0.0
 40
4.012848
100
AcDbArc
 50
188.313484
 51
81.848381
  0
ARC
  5
2E7B
100
AcDbEntity
  8
0
100
AcDbCircle
 10
866.152807
 20
612.077104
 30
0.0
 40
10.549952
100
AcDbArc
 50
269.891123
 51
0.000362
  0
LINE
  5
2E7C
100
AcDbEntity
  8
0
100
AcDbLine
 10
869.91276
 20
618.57717
 30
0.0
 11
873.66276
 21
612.07717
 31
0.0
  0
LINE
  5
2E7D
100
AcDbEntity
  8
0
100
AcDbLine
 10
858.65276
 20
612.07717
 30
0.0
 11
862.40276
 21
618.57717
 31
0.0
  0
ARC
  5
2E7E
100
AcDbEntity
  8
0
100
AcDbCircle
 10
866.600256
 20
592.68139
 30
0.0
 40
26.286334
100
AcDbArc
 50
92.359051
 51
147.640949
  0
LINE
  5
2E7F
100
AcDbEntity
  8
0
100
AcDbLine
 10
866.18276
 20
601.52717
 30
0.0
 11
842.70276
 21
601.52717
 31
0.0
  0
LINE
  5
2E80
100
AcDbEntity
  8
0
100
AcDbLine
 10
862.40276
 20
605.57717
 30
0.0
 11
858.65276
 21
612.07717
 31
0.0
  0
LINE
  5
2E81
100
AcDbEntity
  8
0
100
AcDbLine
 10
842.70276
 20
597.52717
 30
0.0
 11
842.70276
 21
606.52717
 31
0.0
  0
LINE
  5
2E82
100
AcDbEntity
  8
0
100
AcDbLine
 10
874.99276
 20
593.52717
 30
0.0
 11
874.99276
 21
593.52717
 31
0.0
  0
LINE
  5
2E83
100
AcDbEntity
  8
0
100
AcDbLine
 10
874.99276
 20
593.52717
 30
0.0
 11
874.98276
 21
593.52717
 31
0.0
  0
LINE
  5
2E84
100
AcDbEntity
  8
0
100
AcDbLine
 10
874.98276
 20
593.52717
 30
0.0
 11
874.96276
 21
593.52717
 31
0.0
  0
LINE
  5
2E85
100
AcDbEntity
  8
0
100
AcDbLine
 10
874.96276
 20
593.52717
 30
0.0
 11
874.94276
 21
593.52717
 31
0.0
  0
LINE
  5
2E86
100
AcDbEntity
  8
0
100
AcDbLine
 10
874.94276
 20
593.52717
 30
0.0
 11
874.92276
 21
593.52717
 31
0.0
  0
LINE
  5
2E87
100
AcDbEntity
  8
0
100
AcDbLine
 10
874.92276
 20
593.52717
 30
0.0
 11
874.90276
 21
593.52717
 31
0.0
  0
LINE
  5
2E88
100
AcDbEntity
  8
0
100
AcDbLine
 10
874.90276
 20
593.52717
 30
0.0
 11
874.88276
 21
593.52717
 31
0.0
  0
LINE
  5
2E89
100
AcDbEntity
  8
0
100
AcDbLine
 10
874.88276
 20
593.52717
 30
0.0
 11
874.86276
 21
593.52717
 31
0.0
  0
LINE
  5
2E8A
100
AcDbEntity
  8
0
100
AcDbLine
 10
874.86276
 20
593.52717
 30
0.0
 11
874.84276
 21
593.52717
 31
0.0
  0
LINE
  5
2E8B
100
AcDbEntity
  8
0
100
AcDbLine
 10
874.84276
 20
593.52717
 30
0.0
 11
874.81276
 21
593.52717
 31
0.0
  0
LINE
  5
2E8C
100
AcDbEntity
  8
0
100
AcDbLine
 10
873.66276
 20
612.07717
 30
0.0
 11
869.91276
 21
605.57717
 31
0.0
  0
LINE
  5
2E8D
100
AcDbEntity
  8
0
100
AcDbLine
 10
869.91276
 20
605.57717
 30
0.0
 11
862.40276
 21
605.57717
 31
0.0
  0
ARC
  5
2E8E
100
AcDbEntity
  8
0
100
AcDbCircle
 10
840.773384
 20
637.505425
 30
0.0
 40
30.927969
100
AcDbArc
 50
323.111117
 51
336.811222
  0
LINE
  5
2E8F
100
AcDbEntity
  8
0
100
AcDbLine
 10
862.40276
 20
618.57717
 30
0.0
 11
869.91276
 21
618.57717
 31
0.0
  0
LINE
  5
2E90
100
AcDbEntity
  8
0
100
AcDbLine
 10
889.20276
 20
631.59717
 30
0.0
 11
889.20276
 21
613.52717
 31
0.0
  0
LINE
  5
2E91
100
AcDbEntity
  8
0
100
AcDbLine
 10
890.70276
 20
615.02717
 30
0.0
 11
890.70276
 21
631.59717
 31
0.0
  0
LINE
  5
2E92
100
AcDbEntity
  8
0
100
AcDbLine
 10
889.20276
 20
613.52717
 30
0.0
 11
890.70276
 21
615.02717
 31
0.0
  0
LINE
  5
2E93
100
AcDbEntity
  8
0
100
AcDbLine
 10
884.70276
 20
613.52717
 30
0.0
 11
884.70276
 21
603.23717
 31
0.0
  0
LINE
  5
2E94
100
AcDbEntity
  8
0
100
AcDbLine
 10
876.70276
 20
613.52717
 30
0.0
 11
889.20276
 21
613.52717
 31
0.0
  0
LINE
  5
2E95
100
AcDbEntity
  8
0
100
AcDbLine
 10
884.59276
 20
630.93717
 30
0.0
 11
881.70276
 21
631.02717
 31
0.0
  0
LINE
  5
2E96
100
AcDbEntity
  8
0
100
AcDbLine
 10
879.70276
 20
627.52717
 30
0.0
 11
876.70276
 21
627.52717
 31
0.0
  0
ARC
  5
2E97
100
AcDbEntity
  8
0
100
AcDbCircle
 10
879.678924
 20
629.551006
 30
0.0
 40
2.023976
100
AcDbArc
 50
270.674761
 51
359.325239
  0
LINE
  5
2E98
100
AcDbEntity
  8
0
100
AcDbLine
 10
884.59276
 20
631.59717
 30
0.0
 11
891.62276
 21
631.59717
 31
0.0
  0
LINE
  5
2E99
100
AcDbEntity
  8
0
100
AcDbLine
 10
884.59276
 20
637.52717
 30
0.0
 11
891.62276
 21
637.52717
 31
0.0
  0
LINE
  5
2E9A
100
AcDbEntity
  8
0
100
AcDbLine
 10
824.70276
 20
1045.762146
 30
0.0
 11
821.17276
 21
1022.262146
 31
0.0
  0
LINE
  5
2E9B
100
AcDbEntity
  8
0
100
AcDbLine
 10
860.22276
 20
1022.262146
 30
0.0
 11
856.70276
 21
1045.762146
 31
0.0
  0
TEXT
  5
2E9C
100
AcDbEntity
  8
0
100
AcDbText
 10
474.20591
 20
893.944574
 30
0.0
 40
20.0
  1
背面
100
AcDbText
  0
LINE
  5
2E9D
100
AcDbEntity
  8
0
100
AcDbLine
 10
798.70276
 20
855.462146
 30
0.0
 11
798.70276
 21
836.962146
 31
0.0
  0
LINE
  5
2E9E
100
AcDbEntity
  8
0
100
AcDbLine
 10
882.70276
 20
836.962146
 30
0.0
 11
882.70276
 21
855.462146
 31
0.0
  0
LINE
  5
2E9F
100
AcDbEntity
  8
0
100
AcDbLine
 10
739.370455
 20
644.353989
 30
0.0
 11
758.277205
 21
644.353989
 31
0.0
  0
LINE
  5
2EA0
100
AcDbEntity
  8
0
100
AcDbLine
 10
797.70276
 20
729.962146
 30
0.0
 11
797.70276
 21
760.462146
 31
0.0
  0
LINE
  5
2EA1
100
AcDbEntity
  8
0
100
AcDbLine
 10
831.70276
 20
743.462146
 30
0.0
 11
831.70276
 21
729.962146
 31
0.0
  0
LINE
  5
2EA2
100
AcDbEntity
  8
0
100
AcDbLine
 10
815.24276
 20
673.52717
 30
0.0
 11
866.16276
 21
673.52717
 31
0.0
  0
ARC
  5
2EA3
100
AcDbEntity
  8
0
100
AcDbCircle
 10
840.71924
 20
637.599205
 30
0.0
 40
30.927969
100
AcDbArc
 50
83.188778
 51
96.888883
  0
LINE
  5
2EA4
100
AcDbEntity
  8
0
100
AcDbLine
 10
806.42276
 20
681.52717
 30
0.0
 11
874.98276
 21
681.52717
 31
0.0
  0
ARC
  5
2EA5
100
AcDbEntity
  8
0
100
AcDbCircle
 10
815.235631
 20
662.994266
 30
0.0
 40
10.532907
100
AcDbArc
 50
89.961225
 51
180.147393
  0
ARC
  5
2EA6
100
AcDbEntity
  8
0
100
AcDbCircle
 10
806.436631
 20
671.768447
 30
0.0
 40
4.012848
100
AcDbArc
 50
8.402896
 51
261.758946
  0
LINE
  5
2EA7
100
AcDbEntity
  8
0
100
AcDbLine
 10
796.70276
 20
661.52717
 30
0.0
 11
796.70276
 21
671.83717
 31
0.0
  0
LINE
  5
2EA8
100
AcDbEntity
  8
0
100
AcDbLine
 10
793.70276
 20
649.52717
 30
0.0
 11
804.70276
 21
649.52717
 31
0.0
  0
LINE
  5
2EA9
100
AcDbEntity
  8
0
100
AcDbLine
 10
804.70276
 20
661.52717
 30
0.0
 11
792.20276
 21
661.52717
 31
0.0
  0
LINE
  5
2EAA
100
AcDbEntity
  8
0
100
AcDbLine
 10
792.20276
 20
661.52717
 30
0.0
 11
790.70276
 21
660.02717
 31
0.0
  0
ARC
  5
2EAB
100
AcDbEntity
  8
0
100
AcDbCircle
 10
806.499223
 20
671.730336
 30
0.0
 40
9.796848
100
AcDbArc
 50
90.096284
 51
179.492152
  0
LINE
  5
2EAC
100
AcDbEntity
  8
0
100
AcDbLine
 10
807.74276
 20
662.98717
 30
0.0
 11
811.49276
 21
669.48717
 31
0.0
  0
ARC
  5
2EAD
100
AcDbEntity
  8
0
100
AcDbCircle
 10
814.805263
 20
682.37295
 30
0.0
 40
26.286334
100
AcDbArc
 50
272.359051
 51
327.640949
  0
LINE
  5
2EAE
100
AcDbEntity
  8
0
100
AcDbLine
 10
819.00276
 20
669.48717
 30
0.0
 11
822.75276
 21
662.98717
 31
0.0
  0
ARC
  5
2EAF
100
AcDbEntity
  8
0
100
AcDbCircle
 10
840.632135
 20
637.548915
 30
0.0
 40
30.927969
100
AcDbArc
 50
143.111117
 51
156.811222
  0
LINE
  5
2EB0
100
AcDbEntity
  8
0
100
AcDbLine
 10
819.00276
 20
656.48717
 30
0.0
 11
811.49276
 21
656.48717
 31
0.0
  0
LINE
  5
2EB1
100
AcDbEntity
  8
0
100
AcDbLine
 10
811.49276
 20
656.48717
 30
0.0
 11
807.74276
 21
662.98717
 31
0.0
  0
LINE
  5
2EB2
100
AcDbEntity
  8
0
100
AcDbLine
 10
822.75276
 20
662.98717
 30
0.0
 11
819.00276
 21
656.48717
 31
0.0
  0
LINE
  5
2EB3
100
AcDbEntity
  8
0
100
AcDbLine
 10
811.49276
 20
669.48717
 30
0.0
 11
819.00276
 21
669.48717
 31
0.0
  0
LINE
  5
2EB4
100
AcDbEntity
  8
0
100
AcDbLine
 10
799.20276
 20
728.462146
 30
0.0
 11
830.20276
 21
728.462146
 31
0.0
  0
ARC
  5
2EB5
100
AcDbEntity
  8
0
100
AcDbCircle
 10
799.218607
 20
729.977993
 30
0.0
 40
1.51593
100
AcDbArc
 50
180.598965
 51
269.401035
  0
ARC
  5
2EB6
100
AcDbEntity
  8
0
100
AcDbCircle
 10
830.200502
 20
729.964404
 30
0.0
 40
1.50226
100
AcDbArc
 50
270.086122
 51
359.913878
  0
ARC
  5
2EB7
100
AcDbEntity
  8
0
100
AcDbCircle
 10
874.906296
 20
671.730336
 30
0.0
 40
9.796848
100
AcDbArc
 50
0.507848
 51
89.903716
  0
ARC
  5
2EB8
100
AcDbEntity
  8
0
100
AcDbCircle
 10
874.968888
 20
671.768447
 30
0.0
 40
4.012848
100
AcDbArc
 50
278.241054
 51
171.597104
  0
ARC
  5
2EB9
100
AcDbEntity
  8
0
100
AcDbCircle
 10
866.169888
 20
662.994266
 30
0.0
 40
10.532907
100
AcDbArc
 50
359.852607
 51
90.038775
  0
LINE
  5
2EBA
100
AcDbEntity
  8
0
100
AcDbLine
 10
873.66276
 20
662.98717
 30
0.0
 11
869.91276
 21
669.48717
 31
0.0
  0
ARC
  5
2EBB
100
AcDbEntity
  8
0
100
AcDbCircle
 10
866.591596
 20
682.37795
 30
0.0
 40
26.286334
100
AcDbArc
 50
212.359051
 51
267.640949
  0
ARC
  5
2EBC
100
AcDbEntity
  8
0
100
AcDbCircle
 10
866.591596
 20
682.37795
 30
0.0
 40
26.286334
100
AcDbArc
 50
212.359051
 51
267.640949
  0
LINE
  5
2EBD
100
AcDbEntity
  8
0
100
AcDbLine
 10
862.40276
 20
669.48717
 30
0.0
 11
858.65276
 21
662.98717
 31
0.0
  0
LINE
  5
2EBE
100
AcDbEntity
  8
0
100
AcDbLine
 10
858.65276
 20
662.98717
 30
0.0
 11
862.40276
 21
656.48717
 31
0.0
  0
LINE
  5
2EBF
100
AcDbEntity
  8
0
100
AcDbLine
 10
869.91276
 20
656.48717
 30
0.0
 11
873.66276
 21
662.98717
 31
0.0
  0
ARC
  5
2EC0
100
AcDbEntity
  8
0
100
AcDbCircle
 10
840.756903
 20
637.577461
 30
0.0
 40
30.927969
100
AcDbArc
 50
23.111117
 51
36.811222
  0
LINE
  5
2EC1
100
AcDbEntity
  8
0
100
AcDbLine
 10
862.40276
 20
656.48717
 30
0.0
 11
869.91276
 21
656.48717
 31
0.0
  0
LINE
  5
2EC2
100
AcDbEntity
  8
0
100
AcDbLine
 10
869.91276
 20
669.48717
 30
0.0
 11
862.40276
 21
669.48717
 31
0.0
  0
LINE
  5
2EC3
100
AcDbEntity
  8
0
100
AcDbLine
 10
884.70276
 20
671.82717
 30
0.0
 11
884.70276
 21
661.52717
 31
0.0
  0
LINE
  5
2EC4
100
AcDbEntity
  8
0
100
AcDbLine
 10
889.20276
 20
661.52717
 30
0.0
 11
889.20276
 21
643.45717
 31
0.0
  0
LINE
  5
2EC5
100
AcDbEntity
  8
0
100
AcDbLine
 10
890.70276
 20
643.45717
 30
0.0
 11
890.70276
 21
660.02717
 31
0.0
  0
LINE
  5
2EC6
100
AcDbEntity
  8
0
100
AcDbLine
 10
881.70276
 20
644.03717
 30
0.0
 11
884.59276
 21
644.12717
 31
0.0
  0
LINE
  5
2EC7
100
AcDbEntity
  8
0
100
AcDbLine
 10
876.70276
 20
647.52717
 30
0.0
 11
879.70276
 21
647.52717
 31
0.0
  0
ARC
  5
2EC8
100
AcDbEntity
  8
0
100
AcDbCircle
 10
879.695045
 20
645.519455
 30
0.0
 40
2.00773
100
AcDbArc
 50
0.22016
 51
89.77984
  0
LINE
  5
2EC9
100
AcDbEntity
  8
0
100
AcDbLine
 10
891.62276
 20
643.45717
 30
0.0
 11
884.59276
 21
643.45717
 31
0.0
  0
LINE
  5
2ECA
100
AcDbEntity
  8
0
100
AcDbLine
 10
890.70276
 20
660.02717
 30
0.0
 11
889.20276
 21
661.52717
 31
0.0
  0
LINE
  5
2ECB
100
AcDbEntity
  8
0
100
AcDbLine
 10
889.20276
 20
661.52717
 30
0.0
 11
876.70276
 21
661.52717
 31
0.0
  0
LINE
  5
2ECC
100
AcDbEntity
  8
0
100
AcDbLine
 10
850.60276
 20
746.462146
 30
0.0
 11
830.80276
 21
746.462146
 31
0.0
  0
LINE
  5
2ECD
100
AcDbEntity
  8
0
100
AcDbLine
 10
866.24276
 20
822.922146
 30
0.0
 11
814.56276
 21
822.922146
 31
0.0
  0
LINE
  5
2ECE
100
AcDbEntity
  8
0
100
AcDbLine
 10
883.20276
 20
760.462146
 30
0.0
 11
797.70276
 21
760.462146
 31
0.0
  0
LINE
  5
2ECF
100
AcDbEntity
  8
0
100
AcDbLine
 10
883.59276
 20
782.462146
 30
0.0
 11
797.81276
 21
782.462146
 31
0.0
  0
LINE
  5
2ED0
100
AcDbEntity
  8
0
100
AcDbLine
 10
796.70276
 20
771.462146
 30
0.0
 11
884.70276
 21
771.462146
 31
0.0
  0
LINE
  5
2ED1
100
AcDbEntity
  8
0
100
AcDbLine
 10
880.70276
 20
834.962146
 30
0.0
 11
800.70276
 21
834.962146
 31
0.0
  0
LINE
  5
2ED2
100
AcDbEntity
  8
0
100
AcDbLine
 10
811.07276
 20
822.922146
 30
0.0
 11
799.027404
 21
783.523588
 31
0.0
  0
ARC
  5
2ED3
100
AcDbEntity
  8
0
100
AcDbCircle
 10
806.40776
 20
768.624184
 30
0.0
 40
14.467822
100
AcDbArc
 50
254.957143
 51
285.042857
  0
LINE
  5
2ED4
100
AcDbEntity
  8
0
100
AcDbLine
 10
812.71276
 20
753.962146
 30
0.0
 11
800.10276
 21
753.962146
 31
0.0
  0
LINE
  5
2ED5
100
AcDbEntity
  8
0
100
AcDbLine
 10
809.21276
 20
785.462146
 30
0.0
 11
803.61276
 21
785.462146
 31
0.0
  0
LINE
  5
2ED6
100
AcDbEntity
  8
0
100
AcDbLine
 10
810.41276
 20
784.262146
 30
0.0
 11
802.41276
 21
784.262146
 31
0.0
  0
LINE
  5
2ED7
100
AcDbEntity
  8
0
100
AcDbLine
 10
796.70276
 20
781.262146
 30
0.0
 11
796.70276
 21
761.962146
 31
0.0
  0
LINE
  5
2ED8
100
AcDbEntity
  8
0
100
AcDbLine
 10
800.10276
 20
753.962146
 30
0.0
 11
798.90276
 21
754.652146
 31
0.0
  0
ARC
  5
2ED9
100
AcDbEntity
  8
0
100
AcDbCircle
 10
800.77276
 20
758.796155
 30
0.0
 40
4.550517
100
AcDbArc
 50
245.597773
 51
294.402227
  0
LINE
  5
2EDA
100
AcDbEntity
  8
0
100
AcDbLine
 10
798.90276
 20
754.652146
 30
0.0
 11
798.90276
 21
760.462146
 31
0.0
  0
LINE
  5
2EDB
100
AcDbEntity
  8
0
100
AcDbLine
 10
798.89276
 20
754.652146
 30
0.0
 11
798.90276
 21
754.652146
 31
0.0
  0
ARC
  5
2EDC
100
AcDbEntity
  8
0
100
AcDbCircle
 10
798.45226
 20
762.045146
 30
0.0
 40
1.751468
100
AcDbArc
 50
182.716197
 51
244.663938
  0
LINE
  5
2EDD
100
AcDbEntity
  8
0
100
AcDbLine
 10
802.65276
 20
760.462146
 30
0.0
 11
802.65276
 21
754.652146
 31
0.0
  0
ARC
  5
2EDE
100
AcDbEntity
  8
0
100
AcDbCircle
 10
797.540936
 20
783.998904
 30
0.0
 40
1.560613
100
AcDbArc
 50
280.030808
 51
342.26771
  0
ARC
  5
2EDF
100
AcDbEntity
  8
0
100
AcDbCircle
 10
797.901317
 20
781.266855
 30
0.0
 40
1.198567
100
AcDbArc
 50
94.23723
 51
180.225119
  0
LINE
  5
2EE0
100
AcDbEntity
  8
0
100
AcDbLine
 10
802.41276
 20
784.262146
 30
0.0
 11
802.41276
 21
782.462146
 31
0.0
  0
LINE
  5
2EE1
100
AcDbEntity
  8
0
100
AcDbLine
 10
803.61276
 20
785.462146
 30
0.0
 11
802.41276
 21
784.262146
 31
0.0
  0
ARC
  5
2EE2
100
AcDbEntity
  8
0
100
AcDbCircle
 10
830.795425
 20
756.455954
 30
0.0
 40
9.993811
100
AcDbArc
 50
199.97391
 51
270.042049
  0
LINE
  5
2EE3
100
AcDbEntity
  8
0
100
AcDbLine
 10
821.40276
 20
753.042146
 30
0.0
 11
819.18276
 21
759.142146
 31
0.0
  0
LINE
  5
2EE4
100
AcDbEntity
  8
0
100
AcDbLine
 10
813.91276
 20
754.652146
 30
0.0
 11
812.71276
 21
753.962146
 31
0.0
  0
LINE
  5
2EE5
100
AcDbEntity
  8
0
100
AcDbLine
 10
813.91276
 20
760.462146
 30
0.0
 11
813.91276
 21
754.652146
 31
0.0
  0
LINE
  5
2EE6
100
AcDbEntity
  8
0
100
AcDbLine
 10
810.16276
 20
760.462146
 30
0.0
 11
810.16276
 21
754.652146
 31
0.0
  0
ARC
  5
2EE7
100
AcDbEntity
  8
0
100
AcDbCircle
 10
812.04276
 20
758.796155
 30
0.0
 40
4.550517
100
AcDbArc
 50
245.597773
 51
294.402227
  0
ARC
  5
2EE8
100
AcDbEntity
  8
0
100
AcDbCircle
 10
817.312938
 20
758.477855
 30
0.0
 40
1.984318
100
AcDbArc
 50
19.558598
 51
90.293893
  0
ARC
  5
2EE9
100
AcDbEntity
  8
0
100
AcDbCircle
 10
834.734454
 20
743.430452
 30
0.0
 40
3.03186
100
AcDbArc
 50
90.598965
 51
179.401035
  0
LINE
  5
2EEA
100
AcDbEntity
  8
0
100
AcDbLine
 10
810.41276
 20
782.462146
 30
0.0
 11
810.41276
 21
784.262146
 31
0.0
  0
LINE
  5
2EEB
100
AcDbEntity
  8
0
100
AcDbLine
 10
810.41276
 20
784.262146
 30
0.0
 11
809.21276
 21
785.462146
 31
0.0
  0
LINE
  5
2EEC
100
AcDbEntity
  8
0
100
AcDbLine
 10
816.95276
 20
828.462146
 30
0.0
 11
804.34276
 21
828.462146
 31
0.0
  0
ARC
  5
2EED
100
AcDbEntity
  8
0
100
AcDbCircle
 10
810.64776
 20
843.124184
 30
0.0
 40
14.467822
100
AcDbArc
 50
254.957143
 51
285.042857
  0
ARC
  5
2EEE
100
AcDbEntity
  8
0
100
AcDbCircle
 10
800.70276
 20
836.962146
 30
0.0
 40
2.0
100
AcDbArc
 50
180.0
 51
270.0
  0
ARC
  5
2EEF
100
AcDbEntity
  8
0
100
AcDbCircle
 10
805.01276
 20
833.296155
 30
0.0
 40
4.550517
100
AcDbArc
 50
245.597773
 51
294.402227
  0
LINE
  5
2EF0
100
AcDbEntity
  8
0
100
AcDbLine
 10
806.89276
 20
834.962146
 30
0.0
 11
806.89276
 21
829.152146
 31
0.0
  0
LINE
  5
2EF1
100
AcDbEntity
  8
0
100
AcDbLine
 10
803.14276
 20
829.152146
 30
0.0
 11
803.14276
 21
834.962146
 31
0.0
  0
LINE
  5
2EF2
100
AcDbEntity
  8
0
100
AcDbLine
 10
804.34276
 20
828.462146
 30
0.0
 11
803.14276
 21
829.152146
 31
0.0
  0
LINE
  5
2EF3
100
AcDbEntity
  8
0
100
AcDbLine
 10
803.13276
 20
829.152146
 30
0.0
 11
803.14276
 21
829.152146
 31
0.0
  0
LINE
  5
2EF4
100
AcDbEntity
  8
0
100
AcDbLine
 10
811.36276
 20
828.462146
 30
0.0
 11
811.07276
 21
822.922146
 31
0.0
  0
ARC
  5
2EF5
100
AcDbEntity
  8
0
100
AcDbCircle
 10
816.28276
 20
833.296155
 30
0.0
 40
4.550517
100
AcDbArc
 50
245.597773
 51
294.402227
  0
LINE
  5
2EF6
100
AcDbEntity
  8
0
100
AcDbLine
 10
814.40276
 20
834.962146
 30
0.0
 11
814.40276
 21
829.152146
 31
0.0
  0
LINE
  5
2EF7
100
AcDbEntity
  8
0
100
AcDbLine
 10
818.15276
 20
829.152146
 30
0.0
 11
816.95276
 21
828.462146
 31
0.0
  0
LINE
  5
2EF8
100
AcDbEntity
  8
0
100
AcDbLine
 10
818.15276
 20
834.962146
 30
0.0
 11
818.15276
 21
829.152146
 31
0.0
  0
LINE
  5
2EF9
100
AcDbEntity
  8
0
100
AcDbLine
 10
882.44276
 20
783.312146
 30
0.0
 11
870.33276
 21
822.922146
 31
0.0
  0
LINE
  5
2EFA
100
AcDbEntity
  8
0
100
AcDbLine
 10
878.99276
 20
784.262146
 30
0.0
 11
870.99276
 21
784.262146
 31
0.0
  0
ARC
  5
2EFB
100
AcDbEntity
  8
0
100
AcDbCircle
 10
874.99776
 20
768.624184
 30
0.0
 40
14.467822
100
AcDbArc
 50
254.957143
 51
285.042857
  0
LINE
  5
2EFC
100
AcDbEntity
  8
0
100
AcDbLine
 10
881.30276
 20
753.962146
 30
0.0
 11
868.69276
 21
753.962146
 31
0.0
  0
LINE
  5
2EFD
100
AcDbEntity
  8
0
100
AcDbLine
 10
877.79276
 20
785.462146
 30
0.0
 11
872.19276
 21
785.462146
 31
0.0
  0
ARC
  5
2EFE
100
AcDbEntity
  8
0
100
AcDbCircle
 10
850.610094
 20
756.455954
 30
0.0
 40
9.993811
100
AcDbArc
 50
269.957951
 51
340.02609
  0
LINE
  5
2EFF
100
AcDbEntity
  8
0
100
AcDbLine
 10
871.24276
 20
760.462146
 30
0.0
 11
871.24276
 21
754.652146
 31
0.0
  0
LINE
  5
2F00
100
AcDbEntity
  8
0
100
AcDbLine
 10
860.00276
 20
753.042146
 30
0.0
 11
862.22276
 21
759.142146
 31
0.0
  0
ARC
  5
2F01
100
AcDbEntity
  8
0
100
AcDbCircle
 10
864.092581
 20
758.477855
 30
0.0
 40
1.984318
100
AcDbArc
 50
89.706107
 51
160.441402
  0
LINE
  5
2F02
100
AcDbEntity
  8
0
100
AcDbLine
 10
867.49276
 20
754.652146
 30
0.0
 11
867.49276
 21
760.462146
 31
0.0
  0
LINE
  5
2F03
100
AcDbEntity
  8
0
100
AcDbLine
 10
867.48276
 20
754.652146
 30
0.0
 11
867.49276
 21
754.652146
 31
0.0
  0
ARC
  5
2F04
100
AcDbEntity
  8
0
100
AcDbCircle
 10
869.36276
 20
758.796155
 30
0.0
 40
4.550517
100
AcDbArc
 50
245.597773
 51
294.402227
  0
LINE
  5
2F05
100
AcDbEntity
  8
0
100
AcDbLine
 10
868.69276
 20
753.962146
 30
0.0
 11
867.49276
 21
754.652146
 31
0.0
  0
LINE
  5
2F06
100
AcDbEntity
  8
0
100
AcDbLine
 10
872.19276
 20
785.462146
 30
0.0
 11
870.99276
 21
784.262146
 31
0.0
  0
LINE
  5
2F07
100
AcDbEntity
  8
0
100
AcDbLine
 10
870.99276
 20
784.262146
 30
0.0
 11
870.99276
 21
782.462146
 31
0.0
  0
LINE
  5
2F08
100
AcDbEntity
  8
0
100
AcDbLine
 10
884.70276
 20
761.962146
 30
0.0
 11
884.70276
 21
781.262146
 31
0.0
  0
ARC
  5
2F09
100
AcDbEntity
  8
0
100
AcDbCircle
 10
883.186912
 20
761.977993
 30
0.0
 40
1.51593
100
AcDbArc
 50
270.598965
 51
359.401035
  0
LINE
  5
2F0A
100
AcDbEntity
  8
0
100
AcDbLine
 10
882.50276
 20
754.652146
 30
0.0
 11
881.30276
 21
753.962146
 31
0.0
  0
LINE
  5
2F0B
100
AcDbEntity
  8
0
100
AcDbLine
 10
882.50276
 20
760.462146
 30
0.0
 11
882.50276
 21
754.652146
 31
0.0
  0
LINE
  5
2F0C
100
AcDbEntity
  8
0
100
AcDbLine
 10
878.75276
 20
760.462146
 30
0.0
 11
878.75276
 21
754.652146
 31
0.0
  0
ARC
  5
2F0D
100
AcDbEntity
  8
0
100
AcDbCircle
 10
880.63276
 20
758.796155
 30
0.0
 40
4.550517
100
AcDbArc
 50
245.597773
 51
294.402227
  0
LINE
  5
2F0E
100
AcDbEntity
  8
0
100
AcDbLine
 10
878.99276
 20
784.262146
 30
0.0
 11
877.79276
 21
785.462146
 31
0.0
  0
ARC
  5
2F0F
100
AcDbEntity
  8
0
100
AcDbCircle
 10
883.504202
 20
781.266855
 30
0.0
 40
1.198567
100
AcDbArc
 50
359.774881
 51
85.76277
  0
ARC
  5
2F10
100
AcDbEntity
  8
0
100
AcDbCircle
 10
883.582526
 20
783.661656
 30
0.0
 40
1.192151
100
AcDbArc
 50
197.04816
 51
263.509132
  0
LINE
  5
2F11
100
AcDbEntity
  8
0
100
AcDbLine
 10
878.99276
 20
782.462146
 30
0.0
 11
878.99276
 21
784.262146
 31
0.0
  0
ARC
  5
2F12
100
AcDbEntity
  8
0
100
AcDbCircle
 10
876.39276
 20
833.296155
 30
0.0
 40
4.550517
100
AcDbArc
 50
245.597773
 51
294.402227
  0
LINE
  5
2F13
100
AcDbEntity
  8
0
100
AcDbLine
 10
877.06276
 20
828.462146
 30
0.0
 11
864.45276
 21
828.462146
 31
0.0
  0
LINE
  5
2F14
100
AcDbEntity
  8
0
100
AcDbLine
 10
870.33276
 20
822.922146
 30
0.0
 11
870.04276
 21
828.462146
 31
0.0
  0
LINE
  5
2F15
100
AcDbEntity
  8
0
100
AcDbLine
 10
874.51276
 20
834.962146
 30
0.0
 11
874.51276
 21
829.152146
 31
0.0
  0
LINE
  5
2F16
100
AcDbEntity
  8
0
100
AcDbLine
 10
867.00276
 20
834.962146
 30
0.0
 11
867.00276
 21
829.152146
 31
0.0
  0
LINE
  5
2F17
100
AcDbEntity
  8
0
100
AcDbLine
 10
864.45276
 20
828.462146
 30
0.0
 11
863.25276
 21
829.152146
 31
0.0
  0
LINE
  5
2F18
100
AcDbEntity
  8
0
100
AcDbLine
 10
863.24276
 20
829.152146
 30
0.0
 11
863.25276
 21
829.152146
 31
0.0
  0
LINE
  5
2F19
100
AcDbEntity
  8
0
100
AcDbLine
 10
863.25276
 20
829.152146
 30
0.0
 11
863.25276
 21
834.962146
 31
0.0
  0
ARC
  5
2F1A
100
AcDbEntity
  8
0
100
AcDbCircle
 10
865.12276
 20
833.296155
 30
0.0
 40
4.550517
100
AcDbArc
 50
245.597773
 51
294.402227
  0
ARC
  5
2F1B
100
AcDbEntity
  8
0
100
AcDbCircle
 10
870.75776
 20
843.124184
 30
0.0
 40
14.467822
100
AcDbArc
 50
254.957143
 51
285.042857
  0
LINE
  5
2F1C
100
AcDbEntity
  8
0
100
AcDbLine
 10
878.26276
 20
829.152146
 30
0.0
 11
877.06276
 21
828.462146
 31
0.0
  0
ARC
  5
2F1D
100
AcDbEntity
  8
0
100
AcDbCircle
 10
880.70276
 20
836.962146
 30
0.0
 40
2.0
100
AcDbArc
 50
270.0
 51
0.0
  0
LINE
  5
2F1E
100
AcDbEntity
  8
0
100
AcDbLine
 10
878.26276
 20
834.962146
 30
0.0
 11
878.26276
 21
829.152146
 31
0.0
  0
LINE
  5
2F1F
100
AcDbEntity
  8
0
100
AcDbLine
 10
869.70276
 20
923.962146
 30
0.0
 11
869.70276
 21
942.202146
 31
0.0
  0
LINE
  5
2F20
100
AcDbEntity
  8
0
100
AcDbLine
 10
819.70276
 20
940.962146
 30
0.0
 11
819.70276
 21
923.962146
 31
0.0
  0
LINE
  5
2F21
100
AcDbEntity
  8
0
100
AcDbLine
 10
811.70276
 20
942.202146
 30
0.0
 11
811.70276
 21
923.962146
 31
0.0
  0
LINE
  5
2F22
100
AcDbEntity
  8
0
100
AcDbLine
 10
861.70276
 20
940.962146
 30
0.0
 11
861.70276
 21
923.962146
 31
0.0
  0
LINE
  5
2F23
100
AcDbEntity
  8
0
100
AcDbLine
 10
855.70276
 20
901.962146
 30
0.0
 11
825.70276
 21
901.962146
 31
0.0
  0
LINE
  5
2F24
100
AcDbEntity
  8
0
100
AcDbLine
 10
881.20276
 20
856.962146
 30
0.0
 11
800.20276
 21
856.962146
 31
0.0
  0
LINE
  5
2F25
100
AcDbEntity
  8
0
100
AcDbLine
 10
798.70276
 20
845.962146
 30
0.0
 11
882.70276
 21
845.962146
 31
0.0
  0
LINE
  5
2F26
100
AcDbEntity
  8
0
100
AcDbLine
 10
792.20276
 20
919.962146
 30
0.0
 11
792.20276
 21
871.962146
 31
0.0
  0
LINE
  5
2F27
100
AcDbEntity
  8
0
100
AcDbLine
 10
790.70276
 20
895.962146
 30
0.0
 11
790.70276
 21
873.462146
 31
0.0
  0
LINE
  5
2F28
100
AcDbEntity
  8
0
100
AcDbLine
 10
807.85276
 20
859.962146
 30
0.0
 11
806.65276
 21
858.762146
 31
0.0
  0
LINE
  5
2F29
100
AcDbEntity
  8
0
100
AcDbLine
 10
814.65276
 20
858.762146
 30
0.0
 11
806.65276
 21
858.762146
 31
0.0
  0
ARC
  5
2F2A
100
AcDbEntity
  8
0
100
AcDbCircle
 10
804.705924
 20
867.965311
 30
0.0
 40
3.996837
100
AcDbArc
 50
359.954635
 51
90.045365
  0
ARC
  5
2F2B
100
AcDbEntity
  8
0
100
AcDbCircle
 10
800.218607
 20
855.446299
 30
0.0
 40
1.51593
100
AcDbArc
 50
90.598965
 51
179.401035
  0
LINE
  5
2F2C
100
AcDbEntity
  8
0
100
AcDbLine
 10
806.65276
 20
858.762146
 30
0.0
 11
806.65276
 21
856.962146
 31
0.0
  0
LINE
  5
2F2D
100
AcDbEntity
  8
0
100
AcDbLine
 10
792.20276
 20
871.962146
 30
0.0
 11
804.70276
 21
871.962146
 31
0.0
  0
LINE
  5
2F2E
100
AcDbEntity
  8
0
100
AcDbLine
 10
790.70276
 20
873.462146
 30
0.0
 11
792.20276
 21
871.962146
 31
0.0
  0
LINE
  5
2F2F
100
AcDbEntity
  8
0
100
AcDbLine
 10
808.70276
 20
867.962146
 30
0.0
 11
808.70276
 21
859.962146
 31
0.0
  0
LINE
  5
2F30
100
AcDbEntity
  8
0
100
AcDbLine
 10
814.65276
 20
856.962146
 30
0.0
 11
814.65276
 21
858.762146
 31
0.0
  0
LINE
  5
2F31
100
AcDbEntity
  8
0
100
AcDbLine
 10
814.65276
 20
858.762146
 30
0.0
 11
813.45276
 21
859.962146
 31
0.0
  0
LINE
  5
2F32
100
AcDbEntity
  8
0
100
AcDbLine
 10
813.45276
 20
859.962146
 30
0.0
 11
807.85276
 21
859.962146
 31
0.0
  0
LINE
  5
2F33
100
AcDbEntity
  8
0
100
AcDbLine
 10
808.70276
 20
871.962146
 30
0.0
 11
811.94276
 21
887.522146
 31
0.0
  0
LINE
  5
2F34
100
AcDbEntity
  8
0
100
AcDbLine
 10
807.70276
 20
919.962146
 30
0.0
 11
792.20276
 21
919.962146
 31
0.0
  0
LINE
  5
2F35
100
AcDbEntity
  8
0
100
AcDbLine
 10
799.70276
 20
893.962146
 30
0.0
 11
812.70276
 21
893.962146
 31
0.0
  0
LINE
  5
2F36
100
AcDbEntity
  8
0
100
AcDbLine
 10
799.70276
 20
897.962146
 30
0.0
 11
812.70276
 21
897.962146
 31
0.0
  0
LINE
  5
2F37
100
AcDbEntity
  8
0
100
AcDbLine
 10
790.70276
 20
895.962146
 30
0.0
 11
790.70276
 21
918.462146
 31
0.0
  0
ARC
  5
2F38
100
AcDbEntity
  8
0
100
AcDbCircle
 10
799.70276
 20
895.962146
 30
0.0
 40
2.0
100
AcDbArc
 50
90.0
 51
270.0
  0
LINE
  5
2F39
100
AcDbEntity
  8
0
100
AcDbLine
 10
792.20276
 20
919.962146
 30
0.0
 11
790.70276
 21
918.462146
 31
0.0
  0
LINE
  5
2F3A
100
AcDbEntity
  8
0
100
AcDbLine
 10
814.36276
 20
917.762146
 30
0.0
 11
825.38276
 21
908.642146
 31
0.0
  0
ARC
  5
2F3B
100
AcDbEntity
  8
0
100
AcDbCircle
 10
825.685788
 20
886.99609
 30
0.0
 40
14.966066
100
AcDbArc
 50
89.935025
 51
143.195077
  0
ARC
  5
2F3C
100
AcDbEntity
  8
0
100
AcDbCircle
 10
812.70276
 20
895.962146
 30
0.0
 40
2.0
100
AcDbArc
 50
270.0
 51
90.0
  0
ARC
  5
2F3D
100
AcDbEntity
  8
0
100
AcDbCircle
 10
807.708121
 20
923.956785
 30
0.0
 40
3.994642
100
AcDbArc
 50
269.9231
 51
0.0769
  0
LINE
  5
2F3E
100
AcDbEntity
  8
0
100
AcDbLine
 10
816.88276
 20
920.142146
 30
0.0
 11
815.70276
 21
919.962146
 31
0.0
  0
ARC
  5
2F3F
100
AcDbEntity
  8
0
100
AcDbCircle
 10
815.656717
 20
923.998125
 30
0.0
 40
4.046202
100
AcDbArc
 50
287.638517
 51
359.490521
  0
LINE
  5
2F40
100
AcDbEntity
  8
0
100
AcDbLine
 10
889.20276
 20
919.962146
 30
0.0
 11
889.20276
 21
871.962146
 31
0.0
  0
LINE
  5
2F41
100
AcDbEntity
  8
0
100
AcDbLine
 10
890.70276
 20
895.962146
 30
0.0
 11
890.70276
 21
873.462146
 31
0.0
  0
ARC
  5
2F42
100
AcDbEntity
  8
0
100
AcDbCircle
 10
876.697398
 20
867.967508
 30
0.0
 40
3.994642
100
AcDbArc
 50
89.9231
 51
180.0769
  0
LINE
  5
2F43
100
AcDbEntity
  8
0
100
AcDbLine
 10
872.70276
 20
859.962146
 30
0.0
 11
872.70276
 21
867.962146
 31
0.0
  0
LINE
  5
2F44
100
AcDbEntity
  8
0
100
AcDbLine
 10
873.55276
 20
859.962146
 30
0.0
 11
867.95276
 21
859.962146
 31
0.0
  0
LINE
  5
2F45
100
AcDbEntity
  8
0
100
AcDbLine
 10
874.75276
 20
856.962146
 30
0.0
 11
874.75276
 21
858.762146
 31
0.0
  0
LINE
  5
2F46
100
AcDbEntity
  8
0
100
AcDbLine
 10
874.75276
 20
858.762146
 30
0.0
 11
873.55276
 21
859.962146
 31
0.0
  0
LINE
  5
2F47
100
AcDbEntity
  8
0
100
AcDbLine
 10
866.75276
 20
858.762146
 30
0.0
 11
866.75276
 21
856.962146
 31
0.0
  0
LINE
  5
2F48
100
AcDbEntity
  8
0
100
AcDbLine
 10
874.75276
 20
858.762146
 30
0.0
 11
866.75276
 21
858.762146
 31
0.0
  0
LINE
  5
2F49
100
AcDbEntity
  8
0
100
AcDbLine
 10
867.95276
 20
859.962146
 30
0.0
 11
866.75276
 21
858.762146
 31
0.0
  0
LINE
  5
2F4A
100
AcDbEntity
  8
0
100
AcDbLine
 10
872.70276
 20
871.962146
 30
0.0
 11
869.46276
 21
887.522146
 31
0.0
  0
ARC
  5
2F4B
100
AcDbEntity
  8
0
100
AcDbCircle
 10
881.186912
 20
855.446299
 30
0.0
 40
1.51593
100
AcDbArc
 50
0.598965
 51
89.401035
  0
LINE
  5
2F4C
100
AcDbEntity
  8
0
100
AcDbLine
 10
876.70276
 20
871.962146
 30
0.0
 11
889.20276
 21
871.962146
 31
0.0
  0
LINE
  5
2F4D
100
AcDbEntity
  8
0
100
AcDbLine
 10
889.20276
 20
871.962146
 30
0.0
 11
890.70276
 21
873.462146
 31
0.0
  0
LINE
  5
2F4E
100
AcDbEntity
  8
0
100
AcDbLine
 10
889.20276
 20
919.962146
 30
0.0
 11
873.70276
 21
919.962146
 31
0.0
  0
LINE
  5
2F4F
100
AcDbEntity
  8
0
100
AcDbLine
 10
868.70276
 20
897.962146
 30
0.0
 11
881.70276
 21
897.962146
 31
0.0
  0
LINE
  5
2F50
100
AcDbEntity
  8
0
100
AcDbLine
 10
868.70276
 20
893.962146
 30
0.0
 11
881.70276
 21
893.962146
 31
0.0
  0
LINE
  5
2F51
100
AcDbEntity
  8
0
100
AcDbLine
 10
867.04276
 20
917.762146
 30
0.0
 11
856.02276
 21
908.642146
 31
0.0
  0
ARC
  5
2F52
100
AcDbEntity
  8
0
100
AcDbCircle
 10
855.719731
 20
886.99609
 30
0.0
 40
14.966066
100
AcDbArc
 50
36.804923
 51
90.064975
  0
ARC
  5
2F53
100
AcDbEntity
  8
0
100
AcDbCircle
 10
868.70276
 20
895.962146
 30
0.0
 40
2.0
100
AcDbArc
 50
90.0
 51
270.0
  0
ARC
  5
2F54
100
AcDbEntity
  8
0
100
AcDbCircle
 10
873.732806
 20
923.992192
 30
0.0
 40
4.030158
100
AcDbArc
 50
180.427165
 51
269.572835
  0
ARC
  5
2F55
100
AcDbEntity
  8
0
100
AcDbCircle
 10
865.748802
 20
923.998125
 30
0.0
 40
4.046202
100
AcDbArc
 50
180.509479
 51
252.361483
  0
LINE
  5
2F56
100
AcDbEntity
  8
0
100
AcDbLine
 10
864.52276
 20
920.142146
 30
0.0
 11
865.70276
 21
919.962146
 31
0.0
  0
LINE
  5
2F57
100
AcDbEntity
  8
0
100
AcDbLine
 10
890.70276
 20
895.962146
 30
0.0
 11
890.70276
 21
918.462146
 31
0.0
  0
ARC
  5
2F58
100
AcDbEntity
  8
0
100
AcDbCircle
 10
881.70276
 20
895.962146
 30
0.0
 40
2.0
100
AcDbArc
 50
270.0
 51
90.0
  0
LINE
  5
2F59
100
AcDbEntity
  8
0
100
AcDbLine
 10
890.70276
 20
918.462146
 30
0.0
 11
889.20276
 21
919.962146
 31
0.0
  0
LINE
  5
2F5A
100
AcDbEntity
  8
0
100
AcDbLine
 10
855.26276
 20
989.932146
 30
0.0
 11
832.71276
 21
989.932146
 31
0.0
  0
LINE
  5
2F5B
100
AcDbEntity
  8
0
100
AcDbLine
 10
840.70276
 20
955.962146
 30
0.0
 11
876.70276
 21
955.962146
 31
0.0
  0
LINE
  5
2F5C
100
AcDbEntity
  8
0
100
AcDbLine
 10
871.20276
 20
944.962146
 30
0.0
 11
810.20276
 21
944.962146
 31
0.0
  0
LINE
  5
2F5D
100
AcDbEntity
  8
0
100
AcDbLine
 10
875.20276
 20
966.962146
 30
0.0
 11
806.09276
 21
966.952146
 31
0.0
  0
LINE
  5
2F5E
100
AcDbEntity
  8
0
100
AcDbLine
 10
804.70276
 20
955.962146
 30
0.0
 11
876.70276
 21
955.962146
 31
0.0
  0
LINE
  5
2F5F
100
AcDbEntity
  8
0
100
AcDbLine
 10
875.20276
 20
1015.762146
 30
0.0
 11
806.20276
 21
1015.762146
 31
0.0
  0
LINE
  5
2F60
100
AcDbEntity
  8
0
100
AcDbLine
 10
804.70276
 20
1004.762146
 30
0.0
 11
876.70276
 21
1004.762146
 31
0.0
  0
LINE
  5
2F61
100
AcDbEntity
  8
0
100
AcDbLine
 10
806.20276
 20
993.762146
 30
0.0
 11
875.20276
 21
993.762146
 31
0.0
  0
LINE
  5
2F62
100
AcDbEntity
  8
0
100
AcDbLine
 10
799.70276
 20
1001.962146
 30
0.0
 11
799.70276
 21
985.962146
 31
0.0
  0
LINE
  5
2F63
100
AcDbEntity
  8
0
100
AcDbLine
 10
821.14276
 20
992.122146
 30
0.0
 11
818.44276
 21
976.832146
 31
0.0
  0
LINE
  5
2F64
100
AcDbEntity
  8
0
100
AcDbLine
 10
816.81276
 20
990.232146
 30
0.0
 11
816.13276
 21
986.392146
 31
0.0
  0
LINE
  5
2F65
100
AcDbEntity
  8
0
100
AcDbLine
 10
804.70276
 20
955.962146
 30
0.0
 11
840.70276
 21
955.962146
 31
0.0
  0
LINE
  5
2F66
100
AcDbEntity
  8
0
100
AcDbLine
 10
810.20276
 20
944.962146
 30
0.0
 11
806.20276
 21
944.962146
 31
0.0
  0
LINE
  5
2F67
100
AcDbEntity
  8
0
100
AcDbLine
 10
801.70276
 20
983.962146
 30
0.0
 11
810.93276
 21
983.962146
 31
0.0
  0
LINE
  5
2F68
100
AcDbEntity
  8
0
100
AcDbLine
 10
804.70276
 20
965.462146
 30
0.0
 11
804.70276
 21
946.462146
 31
0.0
  0
ARC
  5
2F69
100
AcDbEntity
  8
0
100
AcDbCircle
 10
806.206743
 20
946.466129
 30
0.0
 40
1.503988
100
AcDbArc
 50
180.151738
 51
269.848262
  0
ARC
  5
2F6A
100
AcDbEntity
  8
0
100
AcDbCircle
 10
806.206743
 20
965.458163
 30
0.0
 40
1.503988
100
AcDbArc
 50
90.151738
 51
179.848262
  0
ARC
  5
2F6B
100
AcDbEntity
  8
0
100
AcDbCircle
 10
801.70276
 20
985.962146
 30
0.0
 40
2.0
100
AcDbArc
 50
180.0
 51
270.0
  0
LINE
  5
2F6C
100
AcDbEntity
  8
0
100
AcDbLine
 10
812.44276
 20
941.462146
 30
0.0
 11
818.04276
 21
941.462146
 31
0.0
  0
LINE
  5
2F6D
100
AcDbEntity
  8
0
100
AcDbLine
 10
811.24276
 20
942.662146
 30
0.0
 11
819.24276
 21
942.662146
 31
0.0
  0
LINE
  5
2F6E
100
AcDbEntity
  8
0
100
AcDbLine
 10
811.24276
 20
944.962146
 30
0.0
 11
811.24276
 21
942.662146
 31
0.0
  0
LINE
  5
2F6F
100
AcDbEntity
  8
0
100
AcDbLine
 10
811.24276
 20
942.662146
 30
0.0
 11
812.44276
 21
941.462146
 31
0.0
  0
ARC
  5
2F70
100
AcDbEntity
  8
0
100
AcDbCircle
 10
810.21876
 20
943.504146
 30
0.0
 40
1.458088
100
AcDbArc
 50
45.389005
 51
90.628735
  0
LINE
  5
2F71
100
AcDbEntity
  8
0
100
AcDbLine
 10
819.24276
 20
942.662146
 30
0.0
 11
819.24276
 21
944.962146
 31
0.0
  0
LINE
  5
2F72
100
AcDbEntity
  8
0
100
AcDbLine
 10
818.04276
 20
941.462146
 30
0.0
 11
819.24276
 21
942.662146
 31
0.0
  0
ARC
  5
2F73
100
AcDbEntity
  8
0
100
AcDbCircle
 10
820.88276
 20
968.628158
 30
0.0
 40
4.550498
100
AcDbArc
 50
65.597663
 51
114.402337
  0
LINE
  5
2F74
100
AcDbEntity
  8
0
100
AcDbLine
 10
822.76276
 20
972.772146
 30
0.0
 11
821.56276
 21
973.462146
 31
0.0
  0
LINE
  5
2F75
100
AcDbEntity
  8
0
100
AcDbLine
 10
808.94276
 20
973.462146
 30
0.0
 11
807.74276
 21
972.772146
 31
0.0
  0
ARC
  5
2F76
100
AcDbEntity
  8
0
100
AcDbCircle
 10
809.61276
 20
968.628158
 30
0.0
 40
4.550498
100
AcDbArc
 50
65.597663
 51
114.402337
  0
ARC
  5
2F77
100
AcDbEntity
  8
0
100
AcDbCircle
 10
815.24776
 20
958.800108
 30
0.0
 40
14.467822
100
AcDbArc
 50
74.957143
 51
105.042857
  0
LINE
  5
2F78
100
AcDbEntity
  8
0
100
AcDbLine
 10
807.73276
 20
972.772146
 30
0.0
 11
807.74276
 21
972.772146
 31
0.0
  0
LINE
  5
2F79
100
AcDbEntity
  8
0
100
AcDbLine
 10
811.49276
 20
966.962146
 30
0.0
 11
811.49276
 21
972.772146
 31
0.0
  0
LINE
  5
2F7A
100
AcDbEntity
  8
0
100
AcDbLine
 10
807.74276
 20
972.772146
 30
0.0
 11
807.74276
 21
966.962146
 31
0.0
  0
LINE
  5
2F7B
100
AcDbEntity
  8
0
100
AcDbLine
 10
822.76276
 20
972.772146
 30
0.0
 11
822.76276
 21
966.962146
 31
0.0
  0
LINE
  5
2F7C
100
AcDbEntity
  8
0
100
AcDbLine
 10
819.00276
 20
966.962146
 30
0.0
 11
819.00276
 21
972.772146
 31
0.0
  0
ARC
  5
2F7D
100
AcDbEntity
  8
0
100
AcDbCircle
 10
810.90088
 20
979.933975
 30
0.0
 40
4.028297
100
AcDbArc
 50
350.399501
 51
89.546563
  0
ARC
  5
2F7E
100
AcDbEntity
  8
0
100
AcDbCircle
 10
815.25276
 20
969.19548
 30
0.0
 40
7.266667
100
AcDbArc
 50
56.601512
 51
123.398488
  0
LINE
  5
2F7F
100
AcDbEntity
  8
0
100
AcDbLine
 10
821.55276
 20
973.462146
 30
0.0
 11
815.25276
 21
973.462146
 31
0.0
  0
LINE
  5
2F80
100
AcDbEntity
  8
0
100
AcDbLine
 10
819.25276
 20
975.262146
 30
0.0
 11
811.25276
 21
975.262146
 31
0.0
  0
LINE
  5
2F81
100
AcDbEntity
  8
0
100
AcDbLine
 10
814.87276
 20
979.262146
 30
0.0
 11
814.37276
 21
976.412146
 31
0.0
  0
LINE
  5
2F82
100
AcDbEntity
  8
0
100
AcDbLine
 10
811.25276
 20
975.262146
 30
0.0
 11
811.25276
 21
973.462146
 31
0.0
  0
LINE
  5
2F83
100
AcDbEntity
  8
0
100
AcDbLine
 10
815.25276
 20
973.462146
 30
0.0
 11
808.94276
 21
973.462146
 31
0.0
  0
LINE
  5
2F84
100
AcDbEntity
  8
0
100
AcDbLine
 10
819.25276
 20
973.462146
 30
0.0
 11
819.25276
 21
975.262146
 31
0.0
  0
LINE
  5
2F85
100
AcDbEntity
  8
0
100
AcDbLine
 10
804.70276
 20
1014.262146
 30
0.0
 11
804.70276
 21
1004.762146
 31
0.0
  0
LINE
  5
2F86
100
AcDbEntity
  8
0
100
AcDbLine
 10
796.81276
 20
1000.562146
 30
0.0
 11
796.81276
 21
987.362146
 31
0.0
  0
LINE
  5
2F87
100
AcDbEntity
  8
0
100
AcDbLine
 10
796.81276
 20
987.362146
 30
0.0
 11
799.70276
 21
987.452146
 31
0.0
  0
ARC
  5
2F88
100
AcDbEntity
  8
0
100
AcDbCircle
 10
801.701177
 20
1001.963728
 30
0.0
 40
1.998418
100
AcDbArc
 50
89.954635
 51
180.045365
  0
LINE
  5
2F89
100
AcDbEntity
  8
0
100
AcDbLine
 10
799.70276
 20
1000.472146
 30
0.0
 11
796.81276
 21
1000.562146
 31
0.0
  0
LINE
  5
2F8A
100
AcDbEntity
  8
0
100
AcDbLine
 10
804.70276
 20
1004.762146
 30
0.0
 11
804.70276
 21
995.262146
 31
0.0
  0
ARC
  5
2F8B
100
AcDbEntity
  8
0
100
AcDbCircle
 10
806.205018
 20
995.264404
 30
0.0
 40
1.50226
100
AcDbArc
 50
180.086122
 51
269.913878
  0
ARC
  5
2F8C
100
AcDbEntity
  8
0
100
AcDbCircle
 10
803.097048
 20
1005.97357
 30
0.0
 40
2.011432
100
AcDbArc
 50
270.162704
 51
322.967398
  0
LINE
  5
2F8D
100
AcDbEntity
  8
0
100
AcDbLine
 10
803.10276
 20
1003.962146
 30
0.0
 11
801.70276
 21
1003.962146
 31
0.0
  0
LINE
  5
2F8E
100
AcDbEntity
  8
0
100
AcDbLine
 10
789.78276
 20
988.032146
 30
0.0
 11
789.78276
 21
999.892146
 31
0.0
  0
LINE
  5
2F8F
100
AcDbEntity
  8
0
100
AcDbLine
 10
796.81276
 20
988.032146
 30
0.0
 11
789.78276
 21
988.032146
 31
0.0
  0
LINE
  5
2F90
100
AcDbEntity
  8
0
100
AcDbLine
 10
796.81276
 20
993.962146
 30
0.0
 11
789.78276
 21
993.962146
 31
0.0
  0
LINE
  5
2F91
100
AcDbEntity
  8
0
100
AcDbLine
 10
789.78276
 20
999.892146
 30
0.0
 11
796.81276
 21
999.892146
 31
0.0
  0
ARC
  5
2F92
100
AcDbEntity
  8
0
100
AcDbCircle
 10
806.218607
 20
1014.246299
 30
0.0
 40
1.51593
100
AcDbArc
 50
90.598965
 51
179.401035
  0
LINE
  5
2F93
100
AcDbEntity
  8
0
100
AcDbLine
 10
812.44276
 20
990.762146
 30
0.0
 11
818.04276
 21
990.762146
 31
0.0
  0
LINE
  5
2F94
100
AcDbEntity
  8
0
100
AcDbLine
 10
811.24276
 20
991.962146
 30
0.0
 11
819.24276
 21
991.962146
 31
0.0
  0
LINE
  5
2F95
100
AcDbEntity
  8
0
100
AcDbLine
 10
811.24276
 20
991.962146
 30
0.0
 11
812.44276
 21
990.762146
 31
0.0
  0
LINE
  5
2F96
100
AcDbEntity
  8
0
100
AcDbLine
 10
811.24276
 20
993.762146
 30
0.0
 11
811.24276
 21
991.962146
 31
0.0
  0
LINE
  5
2F97
100
AcDbEntity
  8
0
100
AcDbLine
 10
818.04276
 20
990.762146
 30
0.0
 11
819.24276
 21
991.962146
 31
0.0
  0
LINE
  5
2F98
100
AcDbEntity
  8
0
100
AcDbLine
 10
819.24276
 20
991.962146
 30
0.0
 11
819.24276
 21
993.762146
 31
0.0
  0
LINE
  5
2F99
100
AcDbEntity
  8
0
100
AcDbLine
 10
808.94276
 20
1022.262146
 30
0.0
 11
821.55276
 21
1022.262146
 31
0.0
  0
ARC
  5
2F9A
100
AcDbEntity
  8
0
100
AcDbCircle
 10
815.24776
 20
1007.600108
 30
0.0
 40
14.467822
100
AcDbArc
 50
74.957143
 51
105.042857
  0
LINE
  5
2F9B
100
AcDbEntity
  8
0
100
AcDbLine
 10
811.49276
 20
1015.762146
 30
0.0
 11
811.49276
 21
1021.572146
 31
0.0
  0
LINE
  5
2F9C
100
AcDbEntity
  8
0
100
AcDbLine
 10
807.74276
 20
1015.762146
 30
0.0
 11
807.74276
 21
1021.572146
 31
0.0
  0
ARC
  5
2F9D
100
AcDbEntity
  8
0
100
AcDbCircle
 10
809.61276
 20
1017.428137
 30
0.0
 40
4.550517
100
AcDbArc
 50
65.597773
 51
114.402227
  0
LINE
  5
2F9E
100
AcDbEntity
  8
0
100
AcDbLine
 10
807.74276
 20
1021.572146
 30
0.0
 11
808.94276
 21
1022.262146
 31
0.0
  0
LINE
  5
2F9F
100
AcDbEntity
  8
0
100
AcDbLine
 10
822.75276
 20
1021.572146
 30
0.0
 11
822.75276
 21
1015.762146
 31
0.0
  0
LINE
  5
2FA0
100
AcDbEntity
  8
0
100
AcDbLine
 10
819.00276
 20
1015.762146
 30
0.0
 11
819.00276
 21
1021.572146
 31
0.0
  0
ARC
  5
2FA1
100
AcDbEntity
  8
0
100
AcDbCircle
 10
820.88276
 20
1017.428137
 30
0.0
 40
4.550517
100
AcDbArc
 50
65.597773
 51
114.402227
  0
LINE
  5
2FA2
100
AcDbEntity
  8
0
100
AcDbLine
 10
822.76276
 20
1021.572146
 30
0.0
 11
822.75276
 21
1021.572146
 31
0.0
  0
LINE
  5
2FA3
100
AcDbEntity
  8
0
100
AcDbLine
 10
821.55276
 20
1022.262146
 30
0.0
 11
822.75276
 21
1021.572146
 31
0.0
  0
LINE
  5
2FA4
100
AcDbEntity
  8
0
100
AcDbLine
 10
858.70276
 20
982.962146
 30
0.0
 11
858.70276
 21
989.932146
 31
0.0
  0
ARC
  5
2FA5
100
AcDbEntity
  8
0
100
AcDbCircle
 10
875.198777
 20
946.466129
 30
0.0
 40
1.503988
100
AcDbArc
 50
270.151738
 51
359.848262
  0
ARC
  5
2FA6
100
AcDbEntity
  8
0
100
AcDbCircle
 10
875.198777
 20
965.458163
 30
0.0
 40
1.503988
100
AcDbArc
 50
0.151738
 51
89.848262
  0
LINE
  5
2FA7
100
AcDbEntity
  8
0
100
AcDbLine
 10
880.70276
 20
980.962146
 30
0.0
 11
860.70276
 21
980.962146
 31
0.0
  0
LINE
  5
2FA8
100
AcDbEntity
  8
0
100
AcDbLine
 10
870.16276
 20
942.662146
 30
0.0
 11
868.96276
 21
941.462146
 31
0.0
  0
ARC
  5
2FA9
100
AcDbEntity
  8
0
100
AcDbCircle
 10
871.18676
 20
943.504146
 30
0.0
 40
1.458088
100
AcDbArc
 50
89.371265
 51
134.610995
  0
LINE
  5
2FAA
100
AcDbEntity
  8
0
100
AcDbLine
 10
870.16276
 20
944.962146
 30
0.0
 11
870.16276
 21
942.662146
 31
0.0
  0
LINE
  5
2FAB
100
AcDbEntity
  8
0
100
AcDbLine
 10
875.20276
 20
944.962146
 30
0.0
 11
871.20276
 21
944.962146
 31
0.0
  0
LINE
  5
2FAC
100
AcDbEntity
  8
0
100
AcDbLine
 10
863.36276
 20
941.462146
 30
0.0
 11
862.16276
 21
942.662146
 31
0.0
  0
LINE
  5
2FAD
100
AcDbEntity
  8
0
100
AcDbLine
 10
862.16276
 20
942.662146
 30
0.0
 11
862.16276
 21
944.962146
 31
0.0
  0
LINE
  5
2FAE
100
AcDbEntity
  8
0
100
AcDbLine
 10
870.16276
 20
942.662146
 30
0.0
 11
862.16276
 21
942.662146
 31
0.0
  0
LINE
  5
2FAF
100
AcDbEntity
  8
0
100
AcDbLine
 10
868.96276
 20
941.462146
 30
0.0
 11
863.36276
 21
941.462146
 31
0.0
  0
ARC
  5
2FB0
100
AcDbEntity
  8
0
100
AcDbCircle
 10
860.52276
 20
968.628158
 30
0.0
 40
4.550498
100
AcDbArc
 50
65.597663
 51
114.402337
  0
LINE
  5
2FB1
100
AcDbEntity
  8
0
100
AcDbLine
 10
859.85276
 20
973.462146
 30
0.0
 11
858.65276
 21
972.772146
 31
0.0
  0
ARC
  5
2FB2
100
AcDbEntity
  8
0
100
AcDbCircle
 10
860.701177
 20
982.960564
 30
0.0
 40
1.998418
100
AcDbArc
 50
179.954635
 51
270.045365
  0
LINE
  5
2FB3
100
AcDbEntity
  8
0
100
AcDbLine
 10
858.64276
 20
972.772146
 30
0.0
 11
858.65276
 21
972.772146
 31
0.0
  0
LINE
  5
2FB4
100
AcDbEntity
  8
0
100
AcDbLine
 10
858.65276
 20
972.772146
 30
0.0
 11
858.65276
 21
966.962146
 31
0.0
  0
LINE
  5
2FB5
100
AcDbEntity
  8
0
100
AcDbLine
 10
873.66276
 20
972.772146
 30
0.0
 11
872.46276
 21
973.462146
 31
0.0
  0
ARC
  5
2FB6
100
AcDbEntity
  8
0
100
AcDbCircle
 10
871.79276
 20
968.628158
 30
0.0
 40
4.550498
100
AcDbArc
 50
65.597663
 51
114.402337
  0
LINE
  5
2FB7
100
AcDbEntity
  8
0
100
AcDbLine
 10
869.91276
 20
966.962146
 30
0.0
 11
869.91276
 21
972.772146
 31
0.0
  0
LINE
  5
2FB8
100
AcDbEntity
  8
0
100
AcDbLine
 10
873.66276
 20
966.962146
 30
0.0
 11
873.66276
 21
972.772146
 31
0.0
  0
LINE
  5
2FB9
100
AcDbEntity
  8
0
100
AcDbLine
 10
870.16276
 20
973.462146
 30
0.0
 11
870.16276
 21
975.262146
 31
0.0
  0
LINE
  5
2FBA
100
AcDbEntity
  8
0
100
AcDbLine
 10
862.40276
 20
966.962146
 30
0.0
 11
862.40276
 21
972.772146
 31
0.0
  0
LINE
  5
2FBB
100
AcDbEntity
  8
0
100
AcDbLine
 10
866.16276
 20
973.462146
 30
0.0
 11
859.85276
 21
973.462146
 31
0.0
  0
LINE
  5
2FBC
100
AcDbEntity
  8
0
100
AcDbLine
 10
862.16276
 20
975.262146
 30
0.0
 11
862.16276
 21
973.462146
 31
0.0
  0
ARC
  5
2FBD
100
AcDbEntity
  8
0
100
AcDbCircle
 10
866.15776
 20
958.800108
 30
0.0
 40
14.467822
100
AcDbArc
 50
74.957143
 51
105.042857
  0
LINE
  5
2FBE
100
AcDbEntity
  8
0
100
AcDbLine
 10
870.16276
 20
975.262146
 30
0.0
 11
862.16276
 21
975.262146
 31
0.0
  0
ARC
  5
2FBF
100
AcDbEntity
  8
0
100
AcDbCircle
 10
866.16276
 20
969.19548
 30
0.0
 40
7.266667
100
AcDbArc
 50
56.601512
 51
123.398488
  0
LINE
  5
2FC0
100
AcDbEntity
  8
0
100
AcDbLine
 10
872.46276
 20
973.462146
 30
0.0
 11
866.16276
 21
973.462146
 31
0.0
  0
LINE
  5
2FC1
100
AcDbEntity
  8
0
100
AcDbLine
 10
887.70276
 20
956.962146
 30
0.0
 11
887.70276
 21
980.962146
 31
0.0
  0
ARC
  5
2FC2
100
AcDbEntity
  8
0
100
AcDbCircle
 10
864.726218
 20
968.962146
 30
0.0
 40
22.976542
100
AcDbArc
 50
342.445553
 51
17.554447
  0
LINE
  5
2FC3
100
AcDbEntity
  8
0
100
AcDbLine
 10
880.70276
 20
980.962146
 30
0.0
 11
880.70276
 21
956.962146
 31
0.0
  0
ARC
  5
2FC4
100
AcDbEntity
  8
0
100
AcDbCircle
 10
903.679302
 20
968.962146
 30
0.0
 40
22.976542
100
AcDbArc
 50
162.445553
 51
197.554447
  0
LINE
  5
2FC5
100
AcDbEntity
  8
0
100
AcDbLine
 10
876.70276
 20
965.462146
 30
0.0
 11
876.68276
 21
946.242146
 31
0.0
  0
LINE
  5
2FC6
100
AcDbEntity
  8
0
100
AcDbLine
 10
876.70276
 20
956.962146
 30
0.0
 11
880.70276
 21
956.962146
 31
0.0
  0
LINE
  5
2FC7
100
AcDbEntity
  8
0
100
AcDbLine
 10
886.63276
 20
962.032146
 30
0.0
 11
881.77276
 21
962.032146
 31
0.0
  0
LINE
  5
2FC8
100
AcDbEntity
  8
0
100
AcDbLine
 10
881.77276
 20
955.102146
 30
0.0
 11
886.63276
 21
955.102146
 31
0.0
  0
LINE
  5
2FC9
100
AcDbEntity
  8
0
100
AcDbLine
 10
880.70276
 20
956.962146
 30
0.0
 11
881.77276
 21
955.102146
 31
0.0
  0
ARC
  5
2FCA
100
AcDbEntity
  8
0
100
AcDbCircle
 10
886.848133
 20
958.567146
 30
0.0
 40
6.145376
100
AcDbArc
 50
145.678321
 51
214.321679
  0
LINE
  5
2FCB
100
AcDbEntity
  8
0
100
AcDbLine
 10
886.63276
 20
955.102146
 30
0.0
 11
887.70276
 21
956.962146
 31
0.0
  0
ARC
  5
2FCC
100
AcDbEntity
  8
0
100
AcDbCircle
 10
881.557386
 20
958.567146
 30
0.0
 40
6.145376
100
AcDbArc
 50
325.678321
 51
34.321679
  0
LINE
  5
2FCD
100
AcDbEntity
  8
0
100
AcDbLine
 10
887.70276
 20
980.962146
 30
0.0
 11
886.63276
 21
982.822146
 31
0.0
  0
ARC
  5
2FCE
100
AcDbEntity
  8
0
100
AcDbCircle
 10
881.557386
 20
979.357146
 30
0.0
 40
6.145376
100
AcDbArc
 50
325.678321
 51
34.321679
  0
LINE
  5
2FCF
100
AcDbEntity
  8
0
100
AcDbLine
 10
881.77276
 20
982.822146
 30
0.0
 11
880.70276
 21
980.962146
 31
0.0
  0
ARC
  5
2FD0
100
AcDbEntity
  8
0
100
AcDbCircle
 10
886.848133
 20
979.357146
 30
0.0
 40
6.145376
100
AcDbArc
 50
145.678321
 51
214.321679
  0
LINE
  5
2FD1
100
AcDbEntity
  8
0
100
AcDbLine
 10
886.63276
 20
975.892146
 30
0.0
 11
881.77276
 21
975.892146
 31
0.0
  0
LINE
  5
2FD2
100
AcDbEntity
  8
0
100
AcDbLine
 10
886.63276
 20
982.822146
 30
0.0
 11
881.77276
 21
982.822146
 31
0.0
  0
ARC
  5
2FD3
100
AcDbEntity
  8
0
100
AcDbCircle
 10
875.186912
 20
995.277993
 30
0.0
 40
1.51593
100
AcDbArc
 50
270.598965
 51
359.401035
  0
ARC
  5
2FD4
100
AcDbEntity
  8
0
100
AcDbCircle
 10
875.186912
 20
1014.246299
 30
0.0
 40
1.51593
100
AcDbArc
 50
0.598965
 51
89.401035
  0
ARC
  5
2FD5
100
AcDbEntity
  8
0
100
AcDbCircle
 10
866.004702
 20
983.553006
 30
0.0
 40
10.261093
100
AcDbArc
 50
113.928996
 51
131.969435
  0
ARC
  5
2FD6
100
AcDbEntity
  8
0
100
AcDbCircle
 10
860.651249
 20
989.948718
 30
0.0
 40
1.94856
100
AcDbArc
 50
140.728577
 51
180.487286
  0
LINE
  5
2FD7
100
AcDbEntity
  8
0
100
AcDbLine
 10
868.64276
 20
990.762146
 30
0.0
 11
869.84276
 21
991.962146
 31
0.0
  0
LINE
  5
2FD8
100
AcDbEntity
  8
0
100
AcDbLine
 10
869.84276
 20
991.962146
 30
0.0
 11
869.84276
 21
993.762146
 31
0.0
  0
LINE
  5
2FD9
100
AcDbEntity
  8
0
100
AcDbLine
 10
861.84276
 20
991.962146
 30
0.0
 11
863.04276
 21
990.762146
 31
0.0
  0
LINE
  5
2FDA
100
AcDbEntity
  8
0
100
AcDbLine
 10
861.84276
 20
993.762146
 30
0.0
 11
861.84276
 21
991.962146
 31
0.0
  0
LINE
  5
2FDB
100
AcDbEntity
  8
0
100
AcDbLine
 10
863.04276
 20
990.762146
 30
0.0
 11
868.64276
 21
990.762146
 31
0.0
  0
LINE
  5
2FDC
100
AcDbEntity
  8
0
100
AcDbLine
 10
861.84276
 20
991.962146
 30
0.0
 11
869.84276
 21
991.962146
 31
0.0
  0
ARC
  5
2FDD
100
AcDbEntity
  8
0
100
AcDbCircle
 10
860.52276
 20
1017.428137
 30
0.0
 40
4.550517
100
AcDbArc
 50
65.597773
 51
114.402227
  0
LINE
  5
2FDE
100
AcDbEntity
  8
0
100
AcDbLine
 10
859.85276
 20
1022.262146
 30
0.0
 11
858.65276
 21
1021.572146
 31
0.0
  0
LINE
  5
2FDF
100
AcDbEntity
  8
0
100
AcDbLine
 10
858.65276
 20
1021.572146
 30
0.0
 11
858.65276
 21
1015.762146
 31
0.0
  0
LINE
  5
2FE0
100
AcDbEntity
  8
0
100
AcDbLine
 10
858.64276
 20
1021.572146
 30
0.0
 11
858.65276
 21
1021.572146
 31
0.0
  0
LINE
  5
2FE1
100
AcDbEntity
  8
0
100
AcDbLine
 10
869.91276
 20
1015.762146
 30
0.0
 11
869.91276
 21
1021.572146
 31
0.0
  0
LINE
  5
2FE2
100
AcDbEntity
  8
0
100
AcDbLine
 10
873.66276
 20
1015.762146
 30
0.0
 11
873.66276
 21
1021.572146
 31
0.0
  0
ARC
  5
2FE3
100
AcDbEntity
  8
0
100
AcDbCircle
 10
871.79276
 20
1017.428137
 30
0.0
 40
4.550517
100
AcDbArc
 50
65.597773
 51
114.402227
  0
LINE
  5
2FE4
100
AcDbEntity
  8
0
100
AcDbLine
 10
873.66276
 20
1021.572146
 30
0.0
 11
872.46276
 21
1022.262146
 31
0.0
  0
LINE
  5
2FE5
100
AcDbEntity
  8
0
100
AcDbLine
 10
862.40276
 20
1015.762146
 30
0.0
 11
862.40276
 21
1021.572146
 31
0.0
  0
LINE
  5
2FE6
100
AcDbEntity
  8
0
100
AcDbLine
 10
872.46276
 20
1022.262146
 30
0.0
 11
859.85276
 21
1022.262146
 31
0.0
  0
ARC
  5
2FE7
100
AcDbEntity
  8
0
100
AcDbCircle
 10
866.15776
 20
1007.600108
 30
0.0
 40
14.467822
100
AcDbArc
 50
74.957143
 51
105.042857
  0
LINE
  5
2FE8
100
AcDbEntity
  8
0
100
AcDbLine
 10
876.70276
 20
1004.762146
 30
0.0
 11
876.70276
 21
1014.262146
 31
0.0
  0
LINE
  5
2FE9
100
AcDbEntity
  8
0
100
AcDbLine
 10
876.70276
 20
995.262146
 30
0.0
 11
876.70276
 21
1004.762146
 31
0.0
  0
LINE
  5
2FEA
100
AcDbEntity
  8
0
100
AcDbLine
 10
847.70276
 20
1108.962146
 30
0.0
 11
833.70276
 21
1108.962146
 31
0.0
  0
ARC
  5
2FEB
100
AcDbEntity
  8
0
100
AcDbCircle
 10
840.70276
 20
1064.699442
 30
0.0
 40
21.062704
100
AcDbArc
 50
72.453437
 51
107.546563
  0
LINE
  5
2FEC
100
AcDbEntity
  8
0
100
AcDbLine
 10
829.70276
 20
1085.762146
 30
0.0
 11
851.70276
 21
1085.762146
 31
0.0
  0
LINE
  5
2FED
100
AcDbEntity
  8
0
100
AcDbLine
 10
853.70276
 20
1111.962146
 30
0.0
 11
827.70276
 21
1111.962146
 31
0.0
  0
ARC
  5
2FEE
100
AcDbEntity
  8
0
100
AcDbCircle
 10
840.70276
 20
1099.82485
 30
0.0
 40
21.062704
100
AcDbArc
 50
252.453437
 51
287.546563
  0
LINE
  5
2FEF
100
AcDbEntity
  8
0
100
AcDbLine
 10
856.70276
 20
1077.762146
 30
0.0
 11
824.70276
 21
1077.762146
 31
0.0
  0
LINE
  5
2FF0
100
AcDbEntity
  8
0
100
AcDbLine
 10
855.70276
 20
1078.762146
 30
0.0
 11
825.70276
 21
1078.762146
 31
0.0
  0
LINE
  5
2FF1
100
AcDbEntity
  8
0
100
AcDbLine
 10
815.20276
 20
1114.462146
 30
0.0
 11
866.20276
 21
1114.462146
 31
0.0
  0
LINE
  5
2FF2
100
AcDbEntity
  8
0
100
AcDbLine
 10
857.20276
 20
1130.462146
 30
0.0
 11
824.20276
 21
1130.462146
 31
0.0
  0
LINE
  5
2FF3
100
AcDbEntity
  8
0
100
AcDbLine
 10
856.70276
 20
1045.762146
 30
0.0
 11
824.70276
 21
1045.762146
 31
0.0
  0
ARC
  5
2FF4
100
AcDbEntity
  8
0
100
AcDbCircle
 10
831.17776
 20
1080.128983
 30
0.0
 40
5.633165
100
AcDbArc
 50
55.693049
 51
124.306951
  0
LINE
  5
2FF5
100
AcDbEntity
  8
0
100
AcDbLine
 10
828.00276
 20
1084.782146
 30
0.0
 11
829.70276
 21
1085.762146
 31
0.0
  0
LINE
  5
2FF6
100
AcDbEntity
  8
0
100
AcDbLine
 10
824.70276
 20
1077.762146
 30
0.0
 11
824.70276
 21
1045.762146
 31
0.0
  0
LINE
  5
2FF7
100
AcDbEntity
  8
0
100
AcDbLine
 10
834.35276
 20
1084.782146
 30
0.0
 11
834.35276
 21
1079.742146
 31
0.0
  0
LINE
  5
2FF8
100
AcDbEntity
  8
0
100
AcDbLine
 10
828.00276
 20
1079.742146
 30
0.0
 11
828.00276
 21
1084.782146
 31
0.0
  0
ARC
  5
2FF9
100
AcDbEntity
  8
0
100
AcDbCircle
 10
831.17776
 20
1084.395309
 30
0.0
 40
5.633165
100
AcDbArc
 50
235.693049
 51
304.306951
  0
LINE
  5
2FFA
100
AcDbEntity
  8
0
100
AcDbLine
 10
829.70276
 20
1078.762146
 30
0.0
 11
828.00276
 21
1079.742146
 31
0.0
  0
LINE
  5
2FFB
100
AcDbEntity
  8
0
100
AcDbLine
 10
825.70276
 20
1078.762146
 30
0.0
 11
824.70276
 21
1077.762146
 31
0.0
  0
ARC
  5
2FFC
100
AcDbEntity
  8
0
100
AcDbCircle
 10
833.201093
 20
1110.462146
 30
0.0
 40
1.581667
100
AcDbArc
 50
288.492225
 51
71.507775
  0
LINE
  5
2FFD
100
AcDbEntity
  8
0
100
AcDbLine
 10
833.70276
 20
1085.762146
 30
0.0
 11
833.70276
 21
1108.962146
 31
0.0
  0
ARC
  5
2FFE
100
AcDbEntity
  8
0
100
AcDbCircle
 10
825.784683
 20
1116.453088
 30
0.0
 40
11.210472
100
AcDbArc
 50
89.089827
 51
167.433676
  0
LINE
  5
2FFF
100
AcDbEntity
  8
0
100
AcDbLine
 10
834.78276
 20
1116.462146
 30
0.0
 11
816.78276
 21
1116.462146
 31
0.0
  0
LINE
  5
3000
100
AcDbEntity
  8
0
100
AcDbLine
 10
812.20276
 20
1119.842146
 30
0.0
 11
812.20276
 21
1117.462146
 31
0.0
  0
ARC
  5
3001
100
AcDbEntity
  8
0
100
AcDbCircle
 10
816.792223
 20
1118.459123
 30
0.0
 40
1.996977
100
AcDbArc
 50
167.476529
 51
270.015405
  0
ARC
  5
3002
100
AcDbEntity
  8
0
100
AcDbCircle
 10
815.206803
 20
1117.466189
 30
0.0
 40
3.004046
100
AcDbArc
 50
180.07711
 51
269.92289
  0
LINE
  5
3003
100
AcDbEntity
  8
0
100
AcDbLine
 10
816.78276
 20
1116.462146
 30
0.0
 11
816.79276
 21
1116.462146
 31
0.0
  0
ARC
  5
3004
100
AcDbEntity
  8
0
100
AcDbCircle
 10
822.199416
 20
1119.84353
 30
0.0
 40
9.996657
100
AcDbArc
 50
103.046465
 51
180.00793
  0
LINE
  5
3005
100
AcDbEntity
  8
0
100
AcDbLine
 10
824.20276
 20
1130.462146
 30
0.0
 11
819.94276
 21
1129.582146
 31
0.0
  0
ARC
  5
3006
100
AcDbEntity
  8
0
100
AcDbCircle
 10
825.704197
 20
1116.369462
 30
0.0
 40
11.315639
100
AcDbArc
 50
12.933592
 51
88.690678
  0
LINE
  5
3007
100
AcDbEntity
  8
0
100
AcDbLine
 10
827.70276
 20
1111.962146
 30
0.0
 11
827.70276
 21
1114.462146
 31
0.0
  0
ARC
  5
3008
100
AcDbEntity
  8
0
100
AcDbCircle
 10
834.779844
 20
1118.463677
 30
0.0
 40
2.001533
100
AcDbArc
 50
270.083475
 51
12.654204
  0
LINE
  5
3009
100
AcDbEntity
  8
0
100
AcDbLine
 10
851.70276
 20
1085.762146
 30
0.0
 11
853.40276
 21
1084.782146
 31
0.0
  0
ARC
  5
300A
100
AcDbEntity
  8
0
100
AcDbCircle
 10
850.22776
 20
1080.114915
 30
0.0
 40
5.644791
100
AcDbArc
 50
55.773528
 51
124.226472
  0
LINE
  5
300B
100
AcDbEntity
  8
0
100
AcDbLine
 10
856.70276
 20
1045.762146
 30
0.0
 11
856.70276
 21
1077.762146
 31
0.0
  0
LINE
  5
300C
100
AcDbEntity
  8
0
100
AcDbLine
 10
847.05276
 20
1079.742146
 30
0.0
 11
847.05276
 21
1084.782146
 31
0.0
  0
LINE
  5
300D
100
AcDbEntity
  8
0
100
AcDbLine
 10
853.40276
 20
1084.782146
 30
0.0
 11
853.40276
 21
1079.742146
 31
0.0
  0
LINE
  5
300E
100
AcDbEntity
  8
0
100
AcDbLine
 10
853.40276
 20
1079.742146
 30
0.0
 11
851.70276
 21
1078.762146
 31
0.0
  0
ARC
  5
300F
100
AcDbEntity
  8
0
100
AcDbCircle
 10
850.22776
 20
1084.409377
 30
0.0
 40
5.644791
100
AcDbArc
 50
235.773528
 51
304.226472
  0
LINE
  5
3010
100
AcDbEntity
  8
0
100
AcDbLine
 10
856.70276
 20
1077.762146
 30
0.0
 11
855.70276
 21
1078.762146
 31
0.0
  0
ARC
  5
3011
100
AcDbEntity
  8
0
100
AcDbCircle
 10
848.204426
 20
1110.462146
 30
0.0
 40
1.581667
100
AcDbArc
 50
108.492225
 51
251.507775
  0
LINE
  5
3012
100
AcDbEntity
  8
0
100
AcDbLine
 10
847.70276
 20
1108.962146
 30
0.0
 11
847.70276
 21
1085.762146
 31
0.0
  0
LINE
  5
3013
100
AcDbEntity
  8
0
100
AcDbLine
 10
846.62276
 20
1116.462146
 30
0.0
 11
864.60276
 21
1116.462146
 31
0.0
  0
ARC
  5
3014
100
AcDbEntity
  8
0
100
AcDbCircle
 10
840.711808
 20
1039.879813
 30
0.0
 40
92.071226
100
AcDbArc
 50
76.974815
 51
79.682029
  0
ARC
  5
3015
100
AcDbEntity
  8
0
100
AcDbCircle
 10
855.534197
 20
1116.359462
 30
0.0
 40
11.315639
100
AcDbArc
 50
12.933592
 51
88.690678
  0
ARC
  5
3016
100
AcDbEntity
  8
0
100
AcDbCircle
 10
855.614683
 20
1116.463088
 30
0.0
 40
11.210472
100
AcDbArc
 50
89.089827
 51
167.433676
  0
ARC
  5
3017
100
AcDbEntity
  8
0
100
AcDbCircle
 10
846.625676
 20
1118.463677
 30
0.0
 40
2.001533
100
AcDbArc
 50
167.345796
 51
269.916525
  0
LINE
  5
3018
100
AcDbEntity
  8
0
100
AcDbLine
 10
853.70276
 20
1114.462146
 30
0.0
 11
853.70276
 21
1111.962146
 31
0.0
  0
LINE
  5
3019
100
AcDbEntity
  8
0
100
AcDbLine
 10
869.20276
 20
1117.462146
 30
0.0
 11
869.20276
 21
1119.842146
 31
0.0
  0
LINE
  5
301A
100
AcDbEntity
  8
0
100
AcDbLine
 10
864.60276
 20
1116.462146
 30
0.0
 11
864.61276
 21
1116.462146
 31
0.0
  0
ARC
  5
301B
100
AcDbEntity
  8
0
100
AcDbCircle
 10
864.613306
 20
1118.459115
 30
0.0
 40
1.996969
100
AcDbArc
 50
269.984315
 51
12.52375
  0
ARC
  5
301C
100
AcDbEntity
  8
0
100
AcDbCircle
 10
866.198717
 20
1117.466189
 30
0.0
 40
3.004046
100
AcDbArc
 50
270.07711
 51
359.92289
  0
ARC
  5
301D
100
AcDbEntity
  8
0
100
AcDbCircle
 10
859.206035
 20
1119.843476
 30
0.0
 40
9.996724
100
AcDbArc
 50
359.992377
 51
76.953229
  0
LINE
  5
301E
100
AcDbEntity
  8
0
100
AcDbLine
 10
1093.5881
 20
263.270853
 30
0.0
 11
1093.5881
 21
244.770853
 31
0.0
  0
LINE
  5
301F
100
AcDbEntity
  8
0
100
AcDbLine
 10
1013.5881
 20
244.770853
 30
0.0
 11
1013.5881
 21
263.270853
 31
0.0
  0
LINE
  5
3020
100
AcDbEntity
  8
0
100
AcDbLine
 10
1028.0481
 20
230.730853
 30
0.0
 11
1079.7281
 21
230.730853
 31
0.0
  0
LINE
  5
3021
100
AcDbEntity
  8
0
100
AcDbLine
 10
1015.5881
 20
242.770853
 30
0.0
 11
1091.5881
 21
242.770853
 31
0.0
  0
LINE
  5
3022
100
AcDbEntity
  8
0
100
AcDbLine
 10
1069.0881
 20
136.270853
 30
0.0
 11
1038.0881
 21
136.270853
 31
0.0
  0
LINE
  5
3023
100
AcDbEntity
  8
0
100
AcDbLine
 10
1097.5881
 20
179.270853
 30
0.0
 11
1009.5881
 21
179.270853
 31
0.0
  0
LINE
  5
3024
100
AcDbEntity
  8
0
100
AcDbLine
 10
1010.6981
 20
190.270853
 30
0.0
 11
1096.4781
 21
190.270853
 31
0.0
  0
LINE
  5
3025
100
AcDbEntity
  8
0
100
AcDbLine
 10
1011.0881
 20
168.270853
 30
0.0
 11
1096.5881
 21
168.270853
 31
0.0
  0
LINE
  5
3026
100
AcDbEntity
  8
0
100
AcDbLine
 10
1036.5881
 20
165.270853
 30
0.0
 11
1036.5881
 21
137.770853
 31
0.0
  0
ARC
  5
3027
100
AcDbEntity
  8
0
100
AcDbCircle
 10
1038.090358
 20
137.773111
 30
0.0
 40
1.50226
100
AcDbArc
 50
180.086122
 51
269.913878
  0
LINE
  5
3028
100
AcDbEntity
  8
0
100
AcDbLine
 10
1011.8481
 20
191.120853
 30
0.0
 11
1023.9581
 21
230.730853
 31
0.0
  0
LINE
  5
3029
100
AcDbEntity
  8
0
100
AcDbLine
 10
1015.2981
 20
192.070853
 30
0.0
 11
1016.4981
 21
193.270853
 31
0.0
  0
LINE
  5
302A
100
AcDbEntity
  8
0
100
AcDbLine
 10
1015.2981
 20
192.070853
 30
0.0
 11
1023.2981
 21
192.070853
 31
0.0
  0
ARC
  5
302B
100
AcDbEntity
  8
0
100
AcDbCircle
 10
1016.04334
 20
169.76871
 30
0.0
 40
7.997857
100
AcDbArc
 50
246.02557
 51
293.97443
  0
LINE
  5
302C
100
AcDbEntity
  8
0
100
AcDbLine
 10
1012.9881
 20
161.770853
 30
0.0
 11
1025.5981
 21
161.770853
 31
0.0
  0
LINE
  5
302D
100
AcDbEntity
  8
0
100
AcDbLine
 10
1009.5881
 20
169.770853
 30
0.0
 11
1009.5881
 21
189.070853
 31
0.0
  0
ARC
  5
302E
100
AcDbEntity
  8
0
100
AcDbCircle
 10
1011.103947
 20
169.7867
 30
0.0
 40
1.51593
100
AcDbArc
 50
180.598965
 51
269.401035
  0
LINE
  5
302F
100
AcDbEntity
  8
0
100
AcDbLine
 10
1012.793579
 20
162.460853
 30
0.0
 11
1012.9881
 21
161.770853
 31
0.0
  0
LINE
  5
3030
100
AcDbEntity
  8
0
100
AcDbLine
 10
1012.793579
 20
168.270853
 30
0.0
 11
1012.793579
 21
162.460853
 31
0.0
  0
LINE
  5
3031
100
AcDbEntity
  8
0
100
AcDbLine
 10
1015.2981
 20
190.270853
 30
0.0
 11
1015.2981
 21
192.070853
 31
0.0
  0
ARC
  5
3032
100
AcDbEntity
  8
0
100
AcDbCircle
 10
1010.708333
 20
191.470363
 30
0.0
 40
1.192151
100
AcDbArc
 50
276.490868
 51
342.95184
  0
ARC
  5
3033
100
AcDbEntity
  8
0
100
AcDbCircle
 10
1010.786657
 20
189.075562
 30
0.0
 40
1.198567
100
AcDbArc
 50
94.23723
 51
180.225119
  0
LINE
  5
3034
100
AcDbEntity
  8
0
100
AcDbLine
 10
1034.2881
 20
160.850853
 30
0.0
 11
1032.0681
 21
166.950853
 31
0.0
  0
ARC
  5
3035
100
AcDbEntity
  8
0
100
AcDbCircle
 10
1030.198278
 20
166.286562
 30
0.0
 40
1.984318
100
AcDbArc
 50
19.558598
 51
90.293893
  0
ARC
  5
3036
100
AcDbEntity
  8
0
100
AcDbCircle
 10
1022.54286
 20
169.76871
 30
0.0
 40
7.997857
100
AcDbArc
 50
246.02557
 51
293.97443
  0
LINE
  5
3037
100
AcDbEntity
  8
0
100
AcDbLine
 10
1025.5981
 20
161.770853
 30
0.0
 11
1025.792621
 21
162.460853
 31
0.0
  0
LINE
  5
3038
100
AcDbEntity
  8
0
100
AcDbLine
 10
1025.792621
 20
162.460853
 30
0.0
 11
1025.792621
 21
168.270853
 31
0.0
  0
LINE
  5
3039
100
AcDbEntity
  8
0
100
AcDbLine
 10
1019.2931
 20
168.270853
 30
0.0
 11
1019.2931
 21
162.460853
 31
0.0
  0
ARC
  5
303A
100
AcDbEntity
  8
0
100
AcDbCircle
 10
1043.680765
 20
164.264661
 30
0.0
 40
9.993811
100
AcDbArc
 50
199.97391
 51
224.789015
  0
ARC
  5
303B
100
AcDbEntity
  8
0
100
AcDbCircle
 10
1033.5881
 20
165.270853
 30
0.0
 40
3.0
100
AcDbArc
 50
0.0
 51
90.0
  0
LINE
  5
303C
100
AcDbEntity
  8
0
100
AcDbLine
 10
1023.2981
 20
192.070853
 30
0.0
 11
1023.2981
 21
190.270853
 31
0.0
  0
LINE
  5
303D
100
AcDbEntity
  8
0
100
AcDbLine
 10
1022.0981
 20
193.270853
 30
0.0
 11
1023.2981
 21
192.070853
 31
0.0
  0
LINE
  5
303E
100
AcDbEntity
  8
0
100
AcDbLine
 10
1016.4981
 20
193.270853
 30
0.0
 11
1022.0981
 21
193.270853
 31
0.0
  0
ARC
  5
303F
100
AcDbEntity
  8
0
100
AcDbCircle
 10
1015.5881
 20
244.770853
 30
0.0
 40
2.0
100
AcDbArc
 50
180.0
 51
270.0
  0
LINE
  5
3040
100
AcDbEntity
  8
0
100
AcDbLine
 10
1023.9581
 20
230.730853
 30
0.0
 11
1024.2481
 21
236.270853
 31
0.0
  0
LINE
  5
3041
100
AcDbEntity
  8
0
100
AcDbLine
 10
1023.5331
 20
242.770853
 30
0.0
 11
1023.5331
 21
236.960853
 31
0.0
  0
LINE
  5
3042
100
AcDbEntity
  8
0
100
AcDbLine
 10
1030.032621
 20
236.960853
 30
0.0
 11
1030.032621
 21
242.770853
 31
0.0
  0
LINE
  5
3043
100
AcDbEntity
  8
0
100
AcDbLine
 10
1029.8381
 20
236.270853
 30
0.0
 11
1030.032621
 21
236.960853
 31
0.0
  0
ARC
  5
3044
100
AcDbEntity
  8
0
100
AcDbCircle
 10
1026.78286
 20
244.26871
 30
0.0
 40
7.997857
100
AcDbArc
 50
246.02557
 51
293.97443
  0
LINE
  5
3045
100
AcDbEntity
  8
0
100
AcDbLine
 10
1017.033579
 20
242.770853
 30
0.0
 11
1017.033579
 21
236.960853
 31
0.0
  0
LINE
  5
3046
100
AcDbEntity
  8
0
100
AcDbLine
 10
1017.033579
 20
236.960853
 30
0.0
 11
1017.2281
 21
236.270853
 31
0.0
  0
LINE
  5
3047
100
AcDbEntity
  8
0
100
AcDbLine
 10
1017.2281
 20
236.270853
 30
0.0
 11
1029.8381
 21
236.270853
 31
0.0
  0
ARC
  5
3048
100
AcDbEntity
  8
0
100
AcDbCircle
 10
1020.28334
 20
244.26871
 30
0.0
 40
7.997857
100
AcDbArc
 50
246.02557
 51
293.97443
  0
LINE
  5
3049
100
AcDbEntity
  8
0
100
AcDbLine
 10
1070.5881
 20
137.770853
 30
0.0
 11
1070.5881
 21
165.270853
 31
0.0
  0
ARC
  5
304A
100
AcDbEntity
  8
0
100
AcDbCircle
 10
1069.072253
 20
137.7867
 30
0.0
 40
1.51593
100
AcDbArc
 50
270.598965
 51
359.401035
  0
LINE
  5
304B
100
AcDbEntity
  8
0
100
AcDbLine
 10
1083.2181
 20
230.730853
 30
0.0
 11
1095.263456
 21
191.332295
 31
0.0
  0
LINE
  5
304C
100
AcDbEntity
  8
0
100
AcDbLine
 10
1085.0781
 20
193.270853
 30
0.0
 11
1090.6781
 21
193.270853
 31
0.0
  0
LINE
  5
304D
100
AcDbEntity
  8
0
100
AcDbLine
 10
1083.8781
 20
192.070853
 30
0.0
 11
1091.8781
 21
192.070853
 31
0.0
  0
ARC
  5
304E
100
AcDbEntity
  8
0
100
AcDbCircle
 10
1084.63334
 20
169.76871
 30
0.0
 40
7.997857
100
AcDbArc
 50
246.02557
 51
293.97443
  0
LINE
  5
304F
100
AcDbEntity
  8
0
100
AcDbLine
 10
1081.5781
 20
161.770853
 30
0.0
 11
1094.1881
 21
161.770853
 31
0.0
  0
ARC
  5
3050
100
AcDbEntity
  8
0
100
AcDbCircle
 10
1076.977922
 20
166.286562
 30
0.0
 40
1.984318
100
AcDbArc
 50
89.706107
 51
160.441402
  0
ARC
  5
3051
100
AcDbEntity
  8
0
100
AcDbCircle
 10
1063.495434
 20
164.264661
 30
0.0
 40
9.993811
100
AcDbArc
 50
315.210985
 51
340.02609
  0
LINE
  5
3052
100
AcDbEntity
  8
0
100
AcDbLine
 10
1072.8881
 20
160.850853
 30
0.0
 11
1075.1081
 21
166.950853
 31
0.0
  0
ARC
  5
3053
100
AcDbEntity
  8
0
100
AcDbCircle
 10
1073.5881
 20
165.270853
 30
0.0
 40
3.0
100
AcDbArc
 50
90.0
 51
180.0
  0
LINE
  5
3054
100
AcDbEntity
  8
0
100
AcDbLine
 10
1081.383579
 20
162.460853
 30
0.0
 11
1081.5781
 21
161.770853
 31
0.0
  0
LINE
  5
3055
100
AcDbEntity
  8
0
100
AcDbLine
 10
1081.383579
 20
168.270853
 30
0.0
 11
1081.383579
 21
162.460853
 31
0.0
  0
LINE
  5
3056
100
AcDbEntity
  8
0
100
AcDbLine
 10
1083.8781
 20
192.070853
 30
0.0
 11
1085.0781
 21
193.270853
 31
0.0
  0
LINE
  5
3057
100
AcDbEntity
  8
0
100
AcDbLine
 10
1083.8781
 20
190.270853
 30
0.0
 11
1083.8781
 21
192.070853
 31
0.0
  0
LINE
  5
3058
100
AcDbEntity
  8
0
100
AcDbLine
 10
1097.5881
 20
189.070853
 30
0.0
 11
1097.5881
 21
169.770853
 31
0.0
  0
ARC
  5
3059
100
AcDbEntity
  8
0
100
AcDbCircle
 10
1095.8386
 20
169.853853
 30
0.0
 40
1.751468
100
AcDbArc
 50
295.336062
 51
357.283803
  0
ARC
  5
305A
100
AcDbEntity
  8
0
100
AcDbCircle
 10
1091.13286
 20
169.76871
 30
0.0
 40
7.997857
100
AcDbArc
 50
246.02557
 51
293.97443
  0
LINE
  5
305B
100
AcDbEntity
  8
0
100
AcDbLine
 10
1094.1881
 20
161.770853
 30
0.0
 11
1094.382621
 21
162.460853
 31
0.0
  0
LINE
  5
305C
100
AcDbEntity
  8
0
100
AcDbLine
 10
1094.382621
 20
162.460853
 30
0.0
 11
1094.382621
 21
168.270853
 31
0.0
  0
LINE
  5
305D
100
AcDbEntity
  8
0
100
AcDbLine
 10
1087.8831
 20
168.270853
 30
0.0
 11
1087.8831
 21
162.460853
 31
0.0
  0
ARC
  5
305E
100
AcDbEntity
  8
0
100
AcDbCircle
 10
1096.389542
 20
189.075562
 30
0.0
 40
1.198567
100
AcDbArc
 50
359.774881
 51
85.76277
  0
LINE
  5
305F
100
AcDbEntity
  8
0
100
AcDbLine
 10
1091.8781
 20
192.070853
 30
0.0
 11
1091.8781
 21
190.270853
 31
0.0
  0
LINE
  5
3060
100
AcDbEntity
  8
0
100
AcDbLine
 10
1090.6781
 20
193.270853
 30
0.0
 11
1091.8781
 21
192.070853
 31
0.0
  0
ARC
  5
3061
100
AcDbEntity
  8
0
100
AcDbCircle
 10
1096.749924
 20
191.807611
 30
0.0
 40
1.560613
100
AcDbArc
 50
197.73229
 51
259.969192
  0
ARC
  5
3062
100
AcDbEntity
  8
0
100
AcDbCircle
 10
1086.89286
 20
244.26871
 30
0.0
 40
7.997857
100
AcDbArc
 50
246.02557
 51
293.97443
  0
LINE
  5
3063
100
AcDbEntity
  8
0
100
AcDbLine
 10
1077.3381
 20
236.270853
 30
0.0
 11
1089.9481
 21
236.270853
 31
0.0
  0
LINE
  5
3064
100
AcDbEntity
  8
0
100
AcDbLine
 10
1082.9281
 20
236.270853
 30
0.0
 11
1083.2181
 21
230.730853
 31
0.0
  0
LINE
  5
3065
100
AcDbEntity
  8
0
100
AcDbLine
 10
1083.6431
 20
242.770853
 30
0.0
 11
1083.6431
 21
236.960853
 31
0.0
  0
LINE
  5
3066
100
AcDbEntity
  8
0
100
AcDbLine
 10
1077.143579
 20
242.770853
 30
0.0
 11
1077.143579
 21
236.960853
 31
0.0
  0
LINE
  5
3067
100
AcDbEntity
  8
0
100
AcDbLine
 10
1077.143579
 20
236.960853
 30
0.0
 11
1077.3381
 21
236.270853
 31
0.0
  0
ARC
  5
3068
100
AcDbEntity
  8
0
100
AcDbCircle
 10
1080.39334
 20
244.26871
 30
0.0
 40
7.997857
100
AcDbArc
 50
246.02557
 51
293.97443
  0
ARC
  5
3069
100
AcDbEntity
  8
0
100
AcDbCircle
 10
1091.5881
 20
244.770853
 30
0.0
 40
2.0
100
AcDbArc
 50
270.0
 51
0.0
  0
LINE
  5
306A
100
AcDbEntity
  8
0
100
AcDbLine
 10
1090.142621
 20
236.960853
 30
0.0
 11
1090.142621
 21
242.770853
 31
0.0
  0
LINE
  5
306B
100
AcDbEntity
  8
0
100
AcDbLine
 10
1089.9481
 20
236.270853
 30
0.0
 11
1090.142621
 21
236.960853
 31
0.0
  0
LINE
  5
306C
100
AcDbEntity
  8
0
100
AcDbLine
 10
1069.5881
 20
453.570853
 30
0.0
 11
1073.1181
 21
430.070853
 31
0.0
  0
LINE
  5
306D
100
AcDbEntity
  8
0
100
AcDbLine
 10
1034.0681
 20
430.070853
 30
0.0
 11
1037.5881
 21
453.570853
 31
0.0
  0
CIRCLE
  5
306E
100
AcDbEntity
  8
0
100
AcDbCircle
 10
1053.5881
 20
303.770853
 30
0.0
 40
24.0
  0
CIRCLE
  5
306F
100
AcDbEntity
  8
0
100
AcDbCircle
 10
1053.5881
 20
303.770853
 30
0.0
 40
22.5
  0
LINE
  5
3070
100
AcDbEntity
  8
0
100
AcDbLine
 10
1053.5881
 20
363.770853
 30
0.0
 11
1017.5881
 21
363.770853
 31
0.0
  0
CIRCLE
  5
3071
100
AcDbEntity
  8
0
100
AcDbCircle
 10
1053.5881
 20
401.770853
 30
0.0
 40
10.0
  0
CIRCLE
  5
3072
100
AcDbEntity
  8
0
100
AcDbCircle
 10
1053.5881
 20
401.771644
 30
0.0
 40
8.000791
  0
LINE
  5
3073
100
AcDbEntity
  8
0
100
AcDbLine
 10
1053.571619
 20
407.700853
 30
0.0
 11
1047.641619
 21
401.570853
 31
0.0
  0
LINE
  5
3074
100
AcDbEntity
  8
0
100
AcDbLine
 10
1047.641619
 20
401.570853
 30
0.0
 11
1053.571619
 21
395.840853
 31
0.0
  0
CIRCLE
  5
3075
100
AcDbEntity
  8
0
100
AcDbCircle
 10
1053.5881
 20
401.770853
 30
0.0
 40
6.6
  0
LINE
  5
3076
100
AcDbEntity
  8
0
100
AcDbLine
 10
1093.5881
 20
253.770853
 30
0.0
 11
1013.5881
 21
253.770853
 31
0.0
  0
LINE
  5
3077
100
AcDbEntity
  8
0
100
AcDbLine
 10
1015.0881
 20
264.770853
 30
0.0
 11
1092.0881
 21
264.770853
 31
0.0
  0
LINE
  5
3078
100
AcDbEntity
  8
0
100
AcDbLine
 10
1089.5881
 20
363.770853
 30
0.0
 11
1017.5881
 21
363.770853
 31
0.0
  0
LINE
  5
3079
100
AcDbEntity
  8
0
100
AcDbLine
 10
1019.0881
 20
352.770853
 30
0.0
 11
1088.0881
 21
352.770853
 31
0.0
  0
LINE
  5
307A
100
AcDbEntity
  8
0
100
AcDbLine
 10
1019.0881
 20
374.770853
 30
0.0
 11
1088.1981
 21
374.760853
 31
0.0
  0
LINE
  5
307B
100
AcDbEntity
  8
0
100
AcDbLine
 10
1019.0881
 20
423.570853
 30
0.0
 11
1088.0881
 21
423.570853
 31
0.0
  0
LINE
  5
307C
100
AcDbEntity
  8
0
100
AcDbLine
 10
1089.5881
 20
412.570853
 30
0.0
 11
1017.5881
 21
412.570853
 31
0.0
  0
LINE
  5
307D
100
AcDbEntity
  8
0
100
AcDbLine
 10
1032.5881
 20
351.270853
 30
0.0
 11
1032.5881
 21
316.616086
 31
0.0
  0
LINE
  5
307E
100
AcDbEntity
  8
0
100
AcDbLine
 10
1047.5881
 20
352.770853
 30
0.0
 11
1047.5881
 21
327.008753
 31
0.0
  0
LINE
  5
307F
100
AcDbEntity
  8
0
100
AcDbLine
 10
1024.207269
 20
292.349333
 30
0.0
 11
1025.348209
 21
297.828659
 31
0.0
  0
LINE
  5
3080
100
AcDbEntity
  8
0
100
AcDbLine
 10
1011.256244
 20
285.770853
 30
0.0
 11
1015.756244
 21
285.770853
 31
0.0
  0
LINE
  5
3081
100
AcDbEntity
  8
0
100
AcDbLine
 10
1011.256244
 20
291.490853
 30
0.0
 11
1018.5881
 21
291.490853
 31
0.0
  0
LINE
  5
3082
100
AcDbEntity
  8
0
100
AcDbLine
 10
1011.256244
 20
280.050853
 30
0.0
 11
1018.5881
 21
280.050853
 31
0.0
  0
ARC
  5
3083
100
AcDbEntity
  8
0
100
AcDbCircle
 10
1015.103947
 20
263.255006
 30
0.0
 40
1.51593
100
AcDbArc
 50
90.598965
 51
179.401035
  0
LINE
  5
3084
100
AcDbEntity
  8
0
100
AcDbLine
 10
1011.256244
 20
291.490853
 30
0.0
 11
1011.256244
 21
280.050853
 31
0.0
  0
LINE
  5
3085
100
AcDbEntity
  8
0
100
AcDbLine
 10
1021.5881
 20
267.770853
 30
0.0
 11
1021.5881
 21
279.192373
 31
0.0
  0
LINE
  5
3086
100
AcDbEntity
  8
0
100
AcDbLine
 10
1027.5381
 20
266.570853
 30
0.0
 11
1027.5381
 21
264.770853
 31
0.0
  0
LINE
  5
3087
100
AcDbEntity
  8
0
100
AcDbLine
 10
1026.3381
 20
267.770853
 30
0.0
 11
1027.5381
 21
266.570853
 31
0.0
  0
LINE
  5
3088
100
AcDbEntity
  8
0
100
AcDbLine
 10
1019.5381
 20
266.570853
 30
0.0
 11
1020.7381
 21
267.770853
 31
0.0
  0
LINE
  5
3089
100
AcDbEntity
  8
0
100
AcDbLine
 10
1019.5381
 20
264.770853
 30
0.0
 11
1019.5381
 21
266.570853
 31
0.0
  0
LINE
  5
308A
100
AcDbEntity
  8
0
100
AcDbLine
 10
1020.7381
 20
267.770853
 30
0.0
 11
1026.3381
 21
267.770853
 31
0.0
  0
LINE
  5
308B
100
AcDbEntity
  8
0
100
AcDbLine
 10
1019.5381
 20
266.570853
 30
0.0
 11
1027.5381
 21
266.570853
 31
0.0
  0
LINE
  5
308C
100
AcDbEntity
  8
0
100
AcDbLine
 10
1020.0881
 20
279.192373
 30
0.0
 11
1046.834406
 21
279.192373
 31
0.0
  0
LINE
  5
308D
100
AcDbEntity
  8
0
100
AcDbLine
 10
1018.5881
 20
290.849333
 30
0.0
 11
1018.5881
 21
280.692373
 31
0.0
  0
ARC
  5
308E
100
AcDbEntity
  8
0
100
AcDbCircle
 10
1020.0881
 20
280.692373
 30
0.0
 40
1.5
100
AcDbArc
 50
180.0
 51
270.0
  0
LINE
  5
308F
100
AcDbEntity
  8
0
100
AcDbLine
 10
1015.756244
 20
280.050853
 30
0.0
 11
1015.756244
 21
291.490853
 31
0.0
  0
LINE
  5
3090
100
AcDbEntity
  8
0
100
AcDbLine
 10
1020.0881
 20
292.349333
 30
0.0
 11
1032.480071
 21
292.349333
 31
0.0
  0
ARC
  5
3091
100
AcDbEntity
  8
0
100
AcDbCircle
 10
1020.0881
 20
290.849333
 30
0.0
 40
1.5
100
AcDbArc
 50
90.0
 51
180.0
  0
ARC
  5
3092
100
AcDbEntity
  8
0
100
AcDbCircle
 10
1046.834406
 20
277.692373
 30
0.0
 40
1.5
100
AcDbArc
 50
0.0
 51
90.0
  0
ARC
  5
3093
100
AcDbEntity
  8
0
100
AcDbCircle
 10
1040.033229
 20
294.770853
 30
0.0
 40
15.0
100
AcDbArc
 50
145.591075
 51
168.237593
  0
ARC
  5
3094
100
AcDbEntity
  8
0
100
AcDbCircle
 10
1027.5881
 20
316.616086
 30
0.0
 40
5.0
100
AcDbArc
 50
333.708445
 51
0.0
  0
ARC
  5
3095
100
AcDbEntity
  8
0
100
AcDbCircle
 10
1029.5881
 20
303.770853
 30
0.0
 40
2.0
100
AcDbArc
 50
87.611985
 51
272.388015
  0
LINE
  5
3096
100
AcDbEntity
  8
0
100
AcDbLine
 10
1035.5881
 20
376.768755
 30
0.0
 11
1035.5881
 21
397.740853
 31
0.0
  0
LINE
  5
3097
100
AcDbEntity
  8
0
100
AcDbLine
 10
1017.5881
 20
373.270853
 30
0.0
 11
1017.608121
 21
354.030216
 31
0.0
  0
LINE
  5
3098
100
AcDbEntity
  8
0
100
AcDbLine
 10
1030.9281
 20
349.270853
 30
0.0
 11
1032.1281
 21
350.470853
 31
0.0
  0
LINE
  5
3099
100
AcDbEntity
  8
0
100
AcDbLine
 10
1032.1281
 20
350.470853
 30
0.0
 11
1032.1281
 21
352.770853
 31
0.0
  0
LINE
  5
309A
100
AcDbEntity
  8
0
100
AcDbLine
 10
1024.1281
 20
352.770853
 30
0.0
 11
1024.1281
 21
350.470853
 31
0.0
  0
LINE
  5
309B
100
AcDbEntity
  8
0
100
AcDbLine
 10
1024.1281
 20
350.470853
 30
0.0
 11
1025.3281
 21
349.270853
 31
0.0
  0
ARC
  5
309C
100
AcDbEntity
  8
0
100
AcDbCircle
 10
1019.092083
 20
354.274836
 30
0.0
 40
1.503988
100
AcDbArc
 50
189.360601
 51
269.848262
  0
LINE
  5
309D
100
AcDbEntity
  8
0
100
AcDbLine
 10
1024.1281
 20
350.470853
 30
0.0
 11
1032.1281
 21
350.470853
 31
0.0
  0
LINE
  5
309E
100
AcDbEntity
  8
0
100
AcDbLine
 10
1025.3281
 20
349.270853
 30
0.0
 11
1030.9281
 21
349.270853
 31
0.0
  0
ARC
  5
309F
100
AcDbEntity
  8
0
100
AcDbCircle
 10
1031.0881
 20
351.270853
 30
0.0
 40
1.5
100
AcDbArc
 50
0.0
 51
46.105446
  0
ARC
  5
30A0
100
AcDbEntity
  8
0
100
AcDbCircle
 10
1031.38286
 20
370.177994
 30
0.0
 40
10.898643
100
AcDbArc
 50
72.651661
 51
107.348339
  0
LINE
  5
30A1
100
AcDbEntity
  8
0
100
AcDbLine
 10
1028.1281
 20
381.270853
 30
0.0
 11
1034.4381
 21
381.270853
 31
0.0
  0
LINE
  5
30A2
100
AcDbEntity
  8
0
100
AcDbLine
 10
1032.1281
 20
383.070853
 30
0.0
 11
1032.1281
 21
381.270853
 31
0.0
  0
LINE
  5
30A3
100
AcDbEntity
  8
0
100
AcDbLine
 10
1024.1281
 20
381.270853
 30
0.0
 11
1024.1281
 21
383.070853
 31
0.0
  0
ARC
  5
30A4
100
AcDbEntity
  8
0
100
AcDbCircle
 10
1028.1281
 20
377.004186
 30
0.0
 40
7.266667
100
AcDbArc
 50
56.601512
 51
123.398488
  0
LINE
  5
30A5
100
AcDbEntity
  8
0
100
AcDbLine
 10
1024.1281
 20
383.070853
 30
0.0
 11
1032.1281
 21
383.070853
 31
0.0
  0
ARC
  5
30A6
100
AcDbEntity
  8
0
100
AcDbCircle
 10
1019.092083
 20
373.26687
 30
0.0
 40
1.503988
100
AcDbArc
 50
90.151738
 51
179.848262
  0
ARC
  5
30A7
100
AcDbEntity
  8
0
100
AcDbCircle
 10
1024.88334
 20
370.177994
 30
0.0
 40
10.898643
100
AcDbArc
 50
72.651661
 51
107.348339
  0
LINE
  5
30A8
100
AcDbEntity
  8
0
100
AcDbLine
 10
1021.633579
 20
380.580853
 30
0.0
 11
1021.8281
 21
381.270853
 31
0.0
  0
LINE
  5
30A9
100
AcDbEntity
  8
0
100
AcDbLine
 10
1028.1331
 20
374.770853
 30
0.0
 11
1028.1331
 21
380.580853
 31
0.0
  0
LINE
  5
30AA
100
AcDbEntity
  8
0
100
AcDbLine
 10
1021.633579
 20
374.770853
 30
0.0
 11
1021.633579
 21
380.580853
 31
0.0
  0
LINE
  5
30AB
100
AcDbEntity
  8
0
100
AcDbLine
 10
1021.8281
 20
381.270853
 30
0.0
 11
1028.1281
 21
381.270853
 31
0.0
  0
LINE
  5
30AC
100
AcDbEntity
  8
0
100
AcDbLine
 10
1034.4381
 20
381.270853
 30
0.0
 11
1034.632621
 21
380.580853
 31
0.0
  0
LINE
  5
30AD
100
AcDbEntity
  8
0
100
AcDbLine
 10
1034.632621
 20
380.580853
 30
0.0
 11
1034.632621
 21
374.770853
 31
0.0
  0
ARC
  5
30AE
100
AcDbEntity
  8
0
100
AcDbCircle
 10
1033.5881
 20
376.768755
 30
0.0
 40
2.0
100
AcDbArc
 50
301.483992
 51
0.0
  0
LINE
  5
30AF
100
AcDbEntity
  8
0
100
AcDbLine
 10
1047.58792
 20
393.770988
 30
0.0
 11
1047.58792
 21
374.766729
 31
0.0
  0
LINE
  5
30B0
100
AcDbEntity
  8
0
100
AcDbLine
 10
1017.5881
 20
412.570853
 30
0.0
 11
1017.5881
 21
422.070853
 31
0.0
  0
ARC
  5
30B1
100
AcDbEntity
  8
0
100
AcDbCircle
 10
1028.286157
 20
391.361713
 30
0.0
 40
10.261093
100
AcDbArc
 50
48.030565
 51
68.050647
  0
LINE
  5
30B2
100
AcDbEntity
  8
0
100
AcDbLine
 10
1043.5901
 20
401.570853
 30
0.0
 11
1019.0881
 21
401.570853
 31
0.0
  0
LINE
  5
30B3
100
AcDbEntity
  8
0
100
AcDbLine
 10
1032.121619
 20
401.570853
 30
0.0
 11
1032.121619
 21
399.770853
 31
0.0
  0
LINE
  5
30B4
100
AcDbEntity
  8
0
100
AcDbLine
 10
1030.921619
 20
398.570853
 30
0.0
 11
1025.321619
 21
398.570853
 31
0.0
  0
LINE
  5
30B5
100
AcDbEntity
  8
0
100
AcDbLine
 10
1032.121619
 20
399.770853
 30
0.0
 11
1030.921619
 21
398.570853
 31
0.0
  0
LINE
  5
30B6
100
AcDbEntity
  8
0
100
AcDbLine
 10
1024.121619
 20
399.770853
 30
0.0
 11
1024.121619
 21
401.570853
 31
0.0
  0
ARC
  5
30B7
100
AcDbEntity
  8
0
100
AcDbCircle
 10
1019.103947
 20
403.0867
 30
0.0
 40
1.51593
100
AcDbArc
 50
180.598965
 51
269.401035
  0
LINE
  5
30B8
100
AcDbEntity
  8
0
100
AcDbLine
 10
1017.5881
 20
403.070853
 30
0.0
 11
1017.5881
 21
412.570853
 31
0.0
  0
LINE
  5
30B9
100
AcDbEntity
  8
0
100
AcDbLine
 10
1025.321619
 20
398.570853
 30
0.0
 11
1024.121619
 21
399.770853
 31
0.0
  0
LINE
  5
30BA
100
AcDbEntity
  8
0
100
AcDbLine
 10
1032.121619
 20
399.770853
 30
0.0
 11
1024.121619
 21
399.770853
 31
0.0
  0
ARC
  5
30BB
100
AcDbEntity
  8
0
100
AcDbCircle
 10
1033.639611
 20
397.757425
 30
0.0
 40
1.94856
100
AcDbArc
 50
359.512714
 51
39.271423
  0
ARC
  5
30BC
100
AcDbEntity
  8
0
100
AcDbCircle
 10
1031.056383
 20
418.978015
 30
0.0
 40
10.898622
100
AcDbArc
 50
72.651644
 51
107.348374
  0
LINE
  5
30BD
100
AcDbEntity
  8
0
100
AcDbLine
 10
1021.501619
 20
430.070853
 30
0.0
 11
1034.111619
 21
430.070853
 31
0.0
  0
ARC
  5
30BE
100
AcDbEntity
  8
0
100
AcDbCircle
 10
1024.561859
 20
419.010768
 30
0.0
 40
10.86587
100
AcDbArc
 50
72.625296
 51
107.374704
  0
LINE
  5
30BF
100
AcDbEntity
  8
0
100
AcDbLine
 10
1021.307098
 20
429.380853
 30
0.0
 11
1021.501619
 21
430.070853
 31
0.0
  0
ARC
  5
30C0
100
AcDbEntity
  8
0
100
AcDbCircle
 10
1019.103947
 20
422.055006
 30
0.0
 40
1.51593
100
AcDbArc
 50
90.598965
 51
179.401035
  0
LINE
  5
30C1
100
AcDbEntity
  8
0
100
AcDbLine
 10
1021.317098
 20
423.570853
 30
0.0
 11
1021.317098
 21
429.380853
 31
0.0
  0
LINE
  5
30C2
100
AcDbEntity
  8
0
100
AcDbLine
 10
1027.806619
 20
423.570853
 30
0.0
 11
1027.806619
 21
429.380853
 31
0.0
  0
LINE
  5
30C3
100
AcDbEntity
  8
0
100
AcDbLine
 10
1034.111619
 20
430.070853
 30
0.0
 11
1034.30614
 21
429.380853
 31
0.0
  0
LINE
  5
30C4
100
AcDbEntity
  8
0
100
AcDbLine
 10
1034.30614
 20
429.380853
 30
0.0
 11
1034.30614
 21
423.570853
 31
0.0
  0
LINE
  5
30C5
100
AcDbEntity
  8
0
100
AcDbLine
 10
1074.5881
 20
351.270853
 30
0.0
 11
1074.5881
 21
316.616086
 31
0.0
  0
LINE
  5
30C6
100
AcDbEntity
  8
0
100
AcDbLine
 10
1059.5881
 20
352.770853
 30
0.0
 11
1059.5881
 21
327.008753
 31
0.0
  0
LINE
  5
30C7
100
AcDbEntity
  8
0
100
AcDbLine
 10
1085.5881
 20
279.770853
 30
0.0
 11
1081.827991
 21
297.828659
 31
0.0
  0
LINE
  5
30C8
100
AcDbEntity
  8
0
100
AcDbLine
 10
1080.8381
 20
267.770853
 30
0.0
 11
1086.4381
 21
267.770853
 31
0.0
  0
LINE
  5
30C9
100
AcDbEntity
  8
0
100
AcDbLine
 10
1079.6381
 20
266.570853
 30
0.0
 11
1087.6381
 21
266.570853
 31
0.0
  0
LINE
  5
30CA
100
AcDbEntity
  8
0
100
AcDbLine
 10
1079.6381
 20
264.770853
 30
0.0
 11
1079.6381
 21
266.570853
 31
0.0
  0
LINE
  5
30CB
100
AcDbEntity
  8
0
100
AcDbLine
 10
1079.6381
 20
266.570853
 30
0.0
 11
1080.8381
 21
267.770853
 31
0.0
  0
LINE
  5
30CC
100
AcDbEntity
  8
0
100
AcDbLine
 10
1085.5881
 20
279.770853
 30
0.0
 11
1085.5881
 21
267.770853
 31
0.0
  0
ARC
  5
30CD
100
AcDbEntity
  8
0
100
AcDbCircle
 10
1092.072253
 20
263.255006
 30
0.0
 40
1.51593
100
AcDbArc
 50
0.598965
 51
89.401035
  0
LINE
  5
30CE
100
AcDbEntity
  8
0
100
AcDbLine
 10
1087.6381
 20
266.570853
 30
0.0
 11
1087.6381
 21
264.770853
 31
0.0
  0
LINE
  5
30CF
100
AcDbEntity
  8
0
100
AcDbLine
 10
1086.4381
 20
267.770853
 30
0.0
 11
1087.6381
 21
266.570853
 31
0.0
  0
ARC
  5
30D0
100
AcDbEntity
  8
0
100
AcDbCircle
 10
1067.142971
 20
294.770853
 30
0.0
 40
15.0
100
AcDbArc
 50
11.762407
 51
34.408925
  0
ARC
  5
30D1
100
AcDbEntity
  8
0
100
AcDbCircle
 10
1079.5881
 20
316.616086
 30
0.0
 40
5.0
100
AcDbArc
 50
180.0
 51
206.291555
  0
ARC
  5
30D2
100
AcDbEntity
  8
0
100
AcDbCircle
 10
1077.5881
 20
303.770853
 30
0.0
 40
2.0
100
AcDbArc
 50
267.611985
 51
92.388015
  0
LINE
  5
30D3
100
AcDbEntity
  8
0
100
AcDbLine
 10
1071.580922
 20
376.763547
 30
0.0
 11
1071.586991
 21
397.735644
 31
0.0
  0
LINE
  5
30D4
100
AcDbEntity
  8
0
100
AcDbLine
 10
1053.571619
 20
395.840853
 30
0.0
 11
1059.501619
 21
401.570853
 31
0.0
  0
LINE
  5
30D5
100
AcDbEntity
  8
0
100
AcDbLine
 10
1085.3481
 20
381.270853
 30
0.0
 11
1085.542621
 21
380.580853
 31
0.0
  0
LINE
  5
30D6
100
AcDbEntity
  8
0
100
AcDbLine
 10
1089.5881
 20
363.770853
 30
0.0
 11
1053.5881
 21
363.770853
 31
0.0
  0
ARC
  5
30D7
100
AcDbEntity
  8
0
100
AcDbCircle
 10
1082.29286
 20
370.177994
 30
0.0
 40
10.898643
100
AcDbArc
 50
72.651661
 51
107.348339
  0
LINE
  5
30D8
100
AcDbEntity
  8
0
100
AcDbLine
 10
1083.0481
 20
352.770853
 30
0.0
 11
1083.0481
 21
350.470853
 31
0.0
  0
LINE
  5
30D9
100
AcDbEntity
  8
0
100
AcDbLine
 10
1075.0481
 20
350.470853
 30
0.0
 11
1075.0481
 21
352.770853
 31
0.0
  0
LINE
  5
30DA
100
AcDbEntity
  8
0
100
AcDbLine
 10
1076.2481
 20
349.270853
 30
0.0
 11
1075.0481
 21
350.470853
 31
0.0
  0
LINE
  5
30DB
100
AcDbEntity
  8
0
100
AcDbLine
 10
1081.8481
 20
349.270853
 30
0.0
 11
1076.2481
 21
349.270853
 31
0.0
  0
ARC
  5
30DC
100
AcDbEntity
  8
0
100
AcDbCircle
 10
1076.0881
 20
351.270853
 30
0.0
 40
1.5
100
AcDbArc
 50
133.894554
 51
180.0
  0
LINE
  5
30DD
100
AcDbEntity
  8
0
100
AcDbLine
 10
1083.0481
 20
350.470853
 30
0.0
 11
1081.8481
 21
349.270853
 31
0.0
  0
LINE
  5
30DE
100
AcDbEntity
  8
0
100
AcDbLine
 10
1083.0481
 20
350.470853
 30
0.0
 11
1075.0481
 21
350.470853
 31
0.0
  0
LINE
  5
30DF
100
AcDbEntity
  8
0
100
AcDbLine
 10
1059.58792
 20
393.770718
 30
0.0
 11
1059.58792
 21
374.764993
 31
0.0
  0
LINE
  5
30E0
100
AcDbEntity
  8
0
100
AcDbLine
 10
1083.0381
 20
383.070853
 30
0.0
 11
1083.0381
 21
381.270853
 31
0.0
  0
LINE
  5
30E1
100
AcDbEntity
  8
0
100
AcDbLine
 10
1075.0381
 20
381.270853
 30
0.0
 11
1075.0381
 21
383.070853
 31
0.0
  0
ARC
  5
30E2
100
AcDbEntity
  8
0
100
AcDbCircle
 10
1075.79334
 20
370.177994
 30
0.0
 40
10.898643
100
AcDbArc
 50
72.651661
 51
107.348339
  0
LINE
  5
30E3
100
AcDbEntity
  8
0
100
AcDbLine
 10
1072.543579
 20
380.580853
 30
0.0
 11
1072.7381
 21
381.270853
 31
0.0
  0
LINE
  5
30E4
100
AcDbEntity
  8
0
100
AcDbLine
 10
1079.0431
 20
374.770853
 30
0.0
 11
1079.0431
 21
380.580853
 31
0.0
  0
LINE
  5
30E5
100
AcDbEntity
  8
0
100
AcDbLine
 10
1072.543579
 20
374.770853
 30
0.0
 11
1072.543579
 21
380.580853
 31
0.0
  0
LINE
  5
30E6
100
AcDbEntity
  8
0
100
AcDbLine
 10
1072.7381
 20
381.270853
 30
0.0
 11
1079.0381
 21
381.270853
 31
0.0
  0
ARC
  5
30E7
100
AcDbEntity
  8
0
100
AcDbCircle
 10
1073.580921
 20
376.762968
 30
0.0
 40
2.0
100
AcDbArc
 50
179.983419
 51
238.499427
  0
LINE
  5
30E8
100
AcDbEntity
  8
0
100
AcDbLine
 10
1075.0381
 20
383.070853
 30
0.0
 11
1083.0381
 21
383.070853
 31
0.0
  0
ARC
  5
30E9
100
AcDbEntity
  8
0
100
AcDbCircle
 10
1079.0381
 20
377.004186
 30
0.0
 40
7.266667
100
AcDbArc
 50
56.601512
 51
123.398488
  0
LINE
  5
30EA
100
AcDbEntity
  8
0
100
AcDbLine
 10
1079.0381
 20
381.270853
 30
0.0
 11
1085.3481
 21
381.270853
 31
0.0
  0
LINE
  5
30EB
100
AcDbEntity
  8
0
100
AcDbLine
 10
1089.5881
 20
373.270853
 30
0.0
 11
1089.5881
 21
354.270853
 31
0.0
  0
ARC
  5
30EC
100
AcDbEntity
  8
0
100
AcDbCircle
 10
1088.084117
 20
354.274836
 30
0.0
 40
1.503988
100
AcDbArc
 50
270.151738
 51
359.848262
  0
ARC
  5
30ED
100
AcDbEntity
  8
0
100
AcDbCircle
 10
1088.084117
 20
373.26687
 30
0.0
 40
1.503988
100
AcDbArc
 50
0.151738
 51
89.848262
  0
LINE
  5
30EE
100
AcDbEntity
  8
0
100
AcDbLine
 10
1085.542621
 20
380.580853
 30
0.0
 11
1085.542621
 21
374.770853
 31
0.0
  0
LINE
  5
30EF
100
AcDbEntity
  8
0
100
AcDbLine
 10
1085.3481
 20
430.070853
 30
0.0
 11
1085.542621
 21
429.380853
 31
0.0
  0
ARC
  5
30F0
100
AcDbEntity
  8
0
100
AcDbCircle
 10
1082.292864
 20
418.978015
 30
0.0
 40
10.898622
100
AcDbArc
 50
72.651644
 51
107.348374
  0
LINE
  5
30F1
100
AcDbEntity
  8
0
100
AcDbLine
 10
1088.0881
 20
401.570853
 30
0.0
 11
1063.5861
 21
401.570853
 31
0.0
  0
LINE
  5
30F2
100
AcDbEntity
  8
0
100
AcDbLine
 10
1059.501619
 20
401.570853
 30
0.0
 11
1053.5881
 21
407.700853
 31
0.0
  0
LINE
  5
30F3
100
AcDbEntity
  8
0
100
AcDbLine
 10
1083.0481
 20
401.570853
 30
0.0
 11
1083.0481
 21
399.770853
 31
0.0
  0
LINE
  5
30F4
100
AcDbEntity
  8
0
100
AcDbLine
 10
1075.0481
 20
399.770853
 30
0.0
 11
1075.0481
 21
401.570853
 31
0.0
  0
LINE
  5
30F5
100
AcDbEntity
  8
0
100
AcDbLine
 10
1081.8481
 20
398.570853
 30
0.0
 11
1076.2481
 21
398.570853
 31
0.0
  0
LINE
  5
30F6
100
AcDbEntity
  8
0
100
AcDbLine
 10
1076.2481
 20
398.570853
 30
0.0
 11
1075.0481
 21
399.770853
 31
0.0
  0
ARC
  5
30F7
100
AcDbEntity
  8
0
100
AcDbCircle
 10
1078.887087
 20
391.354391
 30
0.0
 40
10.261093
100
AcDbArc
 50
111.970578
 51
131.952854
  0
ARC
  5
30F8
100
AcDbEntity
  8
0
100
AcDbCircle
 10
1073.535485
 20
397.751652
 30
0.0
 40
1.94856
100
AcDbArc
 50
140.711996
 51
180.470705
  0
LINE
  5
30F9
100
AcDbEntity
  8
0
100
AcDbLine
 10
1083.0481
 20
399.770853
 30
0.0
 11
1075.0481
 21
399.770853
 31
0.0
  0
LINE
  5
30FA
100
AcDbEntity
  8
0
100
AcDbLine
 10
1083.0481
 20
399.770853
 30
0.0
 11
1081.8481
 21
398.570853
 31
0.0
  0
ARC
  5
30FB
100
AcDbEntity
  8
0
100
AcDbCircle
 10
1075.79834
 20
419.010768
 30
0.0
 40
10.86587
100
AcDbArc
 50
72.625296
 51
107.374704
  0
LINE
  5
30FC
100
AcDbEntity
  8
0
100
AcDbLine
 10
1072.543579
 20
429.380853
 30
0.0
 11
1072.7381
 21
430.070853
 31
0.0
  0
LINE
  5
30FD
100
AcDbEntity
  8
0
100
AcDbLine
 10
1072.7381
 20
430.070853
 30
0.0
 11
1085.3481
 21
430.070853
 31
0.0
  0
LINE
  5
30FE
100
AcDbEntity
  8
0
100
AcDbLine
 10
1072.553579
 20
423.570853
 30
0.0
 11
1072.553579
 21
429.380853
 31
0.0
  0
LINE
  5
30FF
100
AcDbEntity
  8
0
100
AcDbLine
 10
1079.0431
 20
423.570853
 30
0.0
 11
1079.0431
 21
429.380853
 31
0.0
  0
LINE
  5
3100
100
AcDbEntity
  8
0
100
AcDbLine
 10
1089.5881
 20
422.070853
 30
0.0
 11
1089.5881
 21
412.570853
 31
0.0
  0
ARC
  5
3101
100
AcDbEntity
  8
0
100
AcDbCircle
 10
1088.085842
 20
403.073111
 30
0.0
 40
1.50226
100
AcDbArc
 50
270.086122
 51
359.913878
  0
LINE
  5
3102
100
AcDbEntity
  8
0
100
AcDbLine
 10
1089.5881
 20
412.570853
 30
0.0
 11
1089.5881
 21
403.070853
 31
0.0
  0
ARC
  5
3103
100
AcDbEntity
  8
0
100
AcDbCircle
 10
1088.072253
 20
422.055006
 30
0.0
 40
1.51593
100
AcDbArc
 50
0.598965
 51
89.401035
  0
LINE
  5
3104
100
AcDbEntity
  8
0
100
AcDbLine
 10
1085.542621
 20
429.380853
 30
0.0
 11
1085.542621
 21
423.570853
 31
0.0
  0
LINE
  5
3105
100
AcDbEntity
  8
0
100
AcDbLine
 10
1043.380236
 20
524.270853
 30
0.0
 11
1063.774106
 21
524.270853
 31
0.0
  0
LINE
  5
3106
100
AcDbEntity
  8
0
100
AcDbLine
 10
1081.353343
 20
522.270853
 30
0.0
 11
1025.789895
 21
522.270853
 31
0.0
  0
LINE
  5
3107
100
AcDbEntity
  8
0
100
AcDbLine
 10
1037.0881
 20
538.270853
 30
0.0
 11
1070.0881
 21
538.270853
 31
0.0
  0
LINE
  5
3108
100
AcDbEntity
  8
0
100
AcDbLine
 10
1040.5881
 20
519.770853
 30
0.0
 11
1066.5881
 21
519.770853
 31
0.0
  0
LINE
  5
3109
100
AcDbEntity
  8
0
100
AcDbLine
 10
1046.5881
 20
516.770853
 30
0.0
 11
1060.5881
 21
516.770853
 31
0.0
  0
LINE
  5
310A
100
AcDbEntity
  8
0
100
AcDbLine
 10
1038.5881
 20
486.570853
 30
0.0
 11
1068.5881
 21
486.570853
 31
0.0
  0
LINE
  5
310B
100
AcDbEntity
  8
0
100
AcDbLine
 10
1037.5881
 20
485.570853
 30
0.0
 11
1069.5881
 21
485.570853
 31
0.0
  0
LINE
  5
310C
100
AcDbEntity
  8
0
100
AcDbLine
 10
1037.5881
 20
453.570853
 30
0.0
 11
1069.5881
 21
453.570853
 31
0.0
  0
LINE
  5
310D
100
AcDbEntity
  8
0
100
AcDbLine
 10
1064.5881
 20
493.570853
 30
0.0
 11
1042.5881
 21
493.570853
 31
0.0
  0
ARC
  5
310E
100
AcDbEntity
  8
0
100
AcDbCircle
 10
1048.078839
 20
477.651325
 30
0.0
 40
15.919528
100
AcDbArc
 50
69.791268
 51
110.208732
  0
ARC
  5
310F
100
AcDbEntity
  8
0
100
AcDbCircle
 10
1048.078842
 20
502.490398
 30
0.0
 40
15.919545
100
AcDbArc
 50
249.791279
 51
290.208709
  0
ARC
  5
3110
100
AcDbEntity
  8
0
100
AcDbCircle
 10
1052.458459
 20
524.247459
 30
0.0
 40
11.3
100
AcDbArc
 50
84.262658
 51
167.40844
  0
LINE
  5
3111
100
AcDbEntity
  8
0
100
AcDbLine
 10
1046.5881
 20
516.770853
 30
0.0
 11
1046.5881
 21
493.570853
 31
0.0
  0
LINE
  5
3112
100
AcDbEntity
  8
0
100
AcDbLine
 10
1013.5881
 20
491.520833
 30
0.0
 11
1042.579577
 21
491.520833
 31
0.0
  0
LINE
  5
3113
100
AcDbEntity
  8
0
100
AcDbLine
 10
1013.5881
 20
488.620873
 30
0.0
 11
1042.579577
 21
488.620873
 31
0.0
  0
LINE
  5
3114
100
AcDbEntity
  8
0
100
AcDbLine
 10
1012.5881
 20
490.520833
 30
0.0
 11
1012.5881
 21
489.620873
 31
0.0
  0
ARC
  5
3115
100
AcDbEntity
  8
0
100
AcDbCircle
 10
1013.5881
 20
490.520833
 30
0.0
 40
1.0
100
AcDbArc
 50
90.0
 51
180.0
  0
ARC
  5
3116
100
AcDbEntity
  8
0
100
AcDbCircle
 10
1013.5881
 20
489.620873
 30
0.0
 40
1.0
100
AcDbArc
 50
180.0
 51
270.0
  0
LINE
  5
3117
100
AcDbEntity
  8
0
100
AcDbLine
 10
1037.5881
 20
453.570853
 30
0.0
 11
1037.5881
 21
485.570853
 31
0.0
  0
LINE
  5
3118
100
AcDbEntity
  8
0
100
AcDbLine
 10
1037.5881
 20
485.570853
 30
0.0
 11
1038.5881
 21
486.570853
 31
0.0
  0
LINE
  5
3119
100
AcDbEntity
  8
0
100
AcDbLine
 10
1042.579577
 20
492.590853
 30
0.0
 11
1042.579577
 21
487.550853
 31
0.0
  0
LINE
  5
311A
100
AcDbEntity
  8
0
100
AcDbLine
 10
1042.579577
 20
487.550853
 30
0.0
 11
1042.5881
 21
486.570853
 31
0.0
  0
LINE
  5
311B
100
AcDbEntity
  8
0
100
AcDbLine
 10
1042.5881
 20
493.570853
 30
0.0
 11
1042.579577
 21
492.590853
 31
0.0
  0
ARC
  5
311C
100
AcDbEntity
  8
0
100
AcDbCircle
 10
1046.086433
 20
518.270853
 30
0.0
 40
1.581667
100
AcDbArc
 50
288.492225
 51
71.507775
  0
ARC
  5
311D
100
AcDbEntity
  8
0
100
AcDbCircle
 10
1053.57938
 20
447.686829
 30
0.0
 40
92.072948
100
AcDbArc
 50
100.317984
 51
105.727828
  0
ARC
  5
311E
100
AcDbEntity
  8
0
100
AcDbCircle
 10
1032.747107
 20
526.272384
 30
0.0
 40
2.001533
100
AcDbArc
 50
270.083475
 51
12.654204
  0
ARC
  5
311F
100
AcDbEntity
  8
0
100
AcDbCircle
 10
1023.7581
 20
524.271795
 30
0.0
 40
11.210472
100
AcDbArc
 50
12.566324
 51
77.141717
  0
LINE
  5
3120
100
AcDbEntity
  8
0
100
AcDbLine
 10
1029.6881
 20
524.270853
 30
0.0
 11
1029.6781
 21
524.270853
 31
0.0
  0
LINE
  5
3121
100
AcDbEntity
  8
0
100
AcDbLine
 10
1032.750023
 20
524.270853
 30
0.0
 11
1022.962651
 21
524.270853
 31
0.0
  0
ARC
  5
3122
100
AcDbEntity
  8
0
100
AcDbCircle
 10
1025.793938
 20
525.274896
 30
0.0
 40
3.004046
100
AcDbArc
 50
180.07711
 51
269.92289
  0
LINE
  5
3123
100
AcDbEntity
  8
0
100
AcDbLine
 10
1022.789895
 20
525.270853
 30
0.0
 11
1022.789895
 21
528.612103
 31
0.0
  0
ARC
  5
3124
100
AcDbEntity
  8
0
100
AcDbCircle
 10
1030.789895
 20
528.612103
 30
0.0
 40
8.0
100
AcDbArc
 50
105.727828
 51
180.0
  0
ARC
  5
3125
100
AcDbEntity
  8
0
100
AcDbCircle
 10
1043.383152
 20
526.272384
 30
0.0
 40
2.001533
100
AcDbArc
 50
167.345796
 51
269.916525
  0
LINE
  5
3126
100
AcDbEntity
  8
0
100
AcDbLine
 10
1040.5881
 20
522.270853
 30
0.0
 11
1040.5881
 21
519.770853
 31
0.0
  0
LINE
  5
3127
100
AcDbEntity
  8
0
100
AcDbLine
 10
1060.5881
 20
493.570853
 30
0.0
 11
1060.5881
 21
516.770853
 31
0.0
  0
LINE
  5
3128
100
AcDbEntity
  8
0
100
AcDbLine
 10
1069.5881
 20
485.570853
 30
0.0
 11
1069.5881
 21
453.570853
 31
0.0
  0
LINE
  5
3129
100
AcDbEntity
  8
0
100
AcDbLine
 10
1064.576623
 20
487.550853
 30
0.0
 11
1064.576623
 21
492.590853
 31
0.0
  0
LINE
  5
312A
100
AcDbEntity
  8
0
100
AcDbLine
 10
1064.5881
 20
486.570853
 30
0.0
 11
1064.576623
 21
487.550853
 31
0.0
  0
LINE
  5
312B
100
AcDbEntity
  8
0
100
AcDbLine
 10
1064.576623
 20
492.590853
 30
0.0
 11
1064.5881
 21
493.570853
 31
0.0
  0
ARC
  5
312C
100
AcDbEntity
  8
0
100
AcDbCircle
 10
1059.077361
 20
477.651325
 30
0.0
 40
15.919528
100
AcDbArc
 50
69.791268
 51
110.208732
  0
ARC
  5
312D
100
AcDbEntity
  8
0
100
AcDbCircle
 10
1059.077361
 20
502.490381
 30
0.0
 40
15.919528
100
AcDbArc
 50
249.791268
 51
290.208732
  0
LINE
  5
312E
100
AcDbEntity
  8
0
100
AcDbLine
 10
1053.5781
 20
492.590853
 30
0.0
 11
1053.5781
 21
487.550853
 31
0.0
  0
LINE
  5
312F
100
AcDbEntity
  8
0
100
AcDbLine
 10
1068.5881
 20
486.570853
 30
0.0
 11
1069.5881
 21
485.570853
 31
0.0
  0
ARC
  5
3130
100
AcDbEntity
  8
0
100
AcDbCircle
 10
1076.353343
 20
528.807718
 30
0.0
 40
8.0
100
AcDbArc
 50
0.0
 51
78.328422
  0
ARC
  5
3131
100
AcDbEntity
  8
0
100
AcDbCircle
 10
1061.089767
 20
518.270853
 30
0.0
 40
1.581667
100
AcDbArc
 50
108.492225
 51
251.507775
  0
LINE
  5
3132
100
AcDbEntity
  8
0
100
AcDbLine
 10
1066.5881
 20
519.770853
 30
0.0
 11
1066.5881
 21
522.270853
 31
0.0
  0
ARC
  5
3133
100
AcDbEntity
  8
0
100
AcDbCircle
 10
1063.774642
 20
526.26783
 30
0.0
 40
1.996977
100
AcDbArc
 50
269.984595
 51
12.523471
  0
ARC
  5
3134
100
AcDbEntity
  8
0
100
AcDbCircle
 10
1054.694175
 20
524.245116
 30
0.0
 40
11.3
100
AcDbArc
 50
12.55178
 51
95.617265
  0
LINE
  5
3135
100
AcDbEntity
  8
0
100
AcDbLine
 10
1084.353343
 20
528.807718
 30
0.0
 11
1084.353343
 21
525.270853
 31
0.0
  0
LINE
  5
3136
100
AcDbEntity
  8
0
100
AcDbLine
 10
1070.0881
 20
538.270853
 30
0.0
 11
1077.971755
 21
536.642305
 31
0.0
  0
ARC
  5
3137
100
AcDbEntity
  8
0
100
AcDbCircle
 10
1083.230523
 20
524.178169
 30
0.0
 40
11.315639
100
AcDbArc
 50
101.098016
 51
167.066408
  0
ARC
  5
3138
100
AcDbEntity
  8
0
100
AcDbCircle
 10
1074.154876
 20
526.272384
 30
0.0
 40
2.001533
100
AcDbArc
 50
167.345796
 51
269.916525
  0
ARC
  5
3139
100
AcDbEntity
  8
0
100
AcDbCircle
 10
1081.3493
 20
525.274896
 30
0.0
 40
3.004046
100
AcDbArc
 50
270.07711
 51
359.92289
  0
LINE
  5
313A
100
AcDbEntity
  8
0
100
AcDbLine
 10
1074.15196
 20
524.270853
 30
0.0
 11
1084.180587
 21
524.270853
 31
0.0
  0
LINE
  5
313B
100
AcDbEntity
  8
0
100
AcDbLine
 10
948.755018
 20
901.941297
 30
0.0
 11
929.848268
 21
901.941297
 31
0.0
  0
LINE
  5
313C
100
AcDbEntity
  8
0
100
AcDbLine
 10
942.452768
 20
895.639047
 30
0.0
 11
948.755018
 21
901.941297
 31
0.0
  0
LINE
  5
313D
100
AcDbEntity
  8
0
100
AcDbLine
 10
929.848268
 20
901.941297
 30
0.0
 11
926.696018
 21
898.790172
 31
0.0
  0
LINE
  5
313E
100
AcDbEntity
  8
0
100
AcDbLine
 10
917.379893
 20
898.790172
 30
0.0
 11
917.379893
 21
901.941297
 31
0.0
  0
LINE
  5
313F
100
AcDbEntity
  8
0
100
AcDbLine
 10
926.696018
 20
898.790172
 30
0.0
 11
917.379893
 21
898.790172
 31
0.0
  0
VIEWPORT
  5
41
100
AcDbEntity
 67
     1
  8
0
100
AcDbViewport
 10
117.358407
 20
73.5
 30
0.0
 40
234.716814
 41
147.0
 68
    -1
 69
     1
1001
ACAD
1000
MVIEW
1002
{
1070
    16
1010
0.0
1020
0.0
1030
0.0
1010
0.0
1020
0.0
1030
1.0
1040
0.0
1040
147.0
1040
117.358407
1040
73.5
1040
50.0
1040
0.0
1040
0.0
1070
     0
1070
   100
1070
     1
1070
     1
1070
     0
1070
     0
1070
     0
1070
     0
1040
0.0
1040
0.0
1040
0.0
1040
1.0
1040
1.0
1040
0.0
1040
0.0
1070
     0
1002
{
1002
}
1002
}
  0
ENDSEC
  0
SECTION
  2
OBJECTS
  0
DICTIONARY
  5
C
100
AcDbDictionary
  3
ACAD_GROUP
350
D
  3
ACAD_MLINESTYLE
350
E
  0
DICTIONARY
  5
D
102
{ACAD_REACTORS
330
C
102
}
100
AcDbDictionary
  0
DICTIONARY
  5
E
102
{ACAD_REACTORS
330
C
102
}
100
AcDbDictionary
  3
STANDARD
350
1B
  0
MLINESTYLE
  5
1B
102
{ACAD_REACTORS
330
E
102
}
100
AcDbMlineStyle
  2
STANDARD
 70
     0
  3

 62
     0
 51
90.0
 52
90.0
 71
     2
 49
0.5
 62
   256
  6
BYLAYER
 49
-0.5
 62
   256
  6
BYLAYER
  0
ENDSEC
  0
EOF
