  0
SECTION
  2
HEADER
  9
$ACADVER
  1
AC1009
  9
$INSBASE
 10
0.0
 20
0.0
 30
0.0
  9
$EXTMIN
 10
71.982425870353381
 20
27.970644888433981
 30
-0.0015258207003583
  9
$EXTMAX
 10
1636.0876503448089
 20
1128.0344265243441
 30
0.0000000349246037
  9
$LIMMIN
 10
0.0
 20
0.0
  9
$LIMMAX
 10
1680.0
 20
1188.0
  9
$ORTHOMODE
 70
     1
  9
$REGENMODE
 70
     1
  9
$FILLMODE
 70
     1
  9
$QTEXTMODE
 70
     0
  9
$MIRRTEXT
 70
     1
  9
$DRAGMODE
 70
     2
  9
$LTSCALE
 40
4.0
  9
$OSMODE
 70
   163
  9
$ATTMODE
 70
     1
  9
$TEXTSIZE
 40
16.0
  9
$TRACEWID
 40
0.05
  9
$TEXTSTYLE
  7
STANDARD
  9
$CLAYER
  8
0
  9
$CELTYPE
  6
BYLAYER
  9
$CECOLOR
 62
   256
  9
$DIMSCALE
 40
4.0
  9
$DIMASZ
 40
2.7999999999999989
  9
$DIMEXO
 40
1.0
  9
$DIMDLI
 40
5.0
  9
$DIMRND
 40
0.1
  9
$DIMDLE
 40
0.0
  9
$DIMEXE
 40
1.0
  9
$DIMTP
 40
0.0
  9
$DIMTM
 40
0.0
  9
$DIMTXT
 40
2.5
  9
$DIMCEN
 40
0.0
  9
$DIMTSZ
 40
0.0
  9
$DIMTOL
 70
     0
  9
$DIMLIM
 70
     0
  9
$DIMTIH
 70
     0
  9
$DIMTOH
 70
     0
  9
$DIMSE1
 70
     0
  9
$DIMSE2
 70
     0
  9
$DIMTAD
 70
     3
  9
$DIMZIN
 70
     8
  9
$DIMBLK
  1

  9
$DIMASO
 70
     1
  9
$DIMSHO
 70
     1
  9
$DIMPOST
  1

  9
$DIMAPOST
  1

  9
$DIMALT
 70
     0
  9
$DIMALTD
 70
     2
  9
$DIMALTF
 40
1.0
  9
$DIMLFAC
 40
1.0
  9
$DIMTOFL
 70
     1
  9
$DIMTVP
 40
0.0
  9
$DIMTIX
 70
     0
  9
$DIMSOXD
 70
     0
  9
$DIMSAH
 70
     1
  9
$DIMBLK1
  1
OPEN
  9
$DIMBLK2
  1
OPEN
  9
$DIMSTYLE
  2
DIM1
  9
$DIMCLRD
 70
     2
  9
$DIMCLRE
 70
     2
  9
$DIMCLRT
 70
     2
  9
$DIMTFAC
 40
0.7
  9
$DIMGAP
 40
0.85
  9
$LUNITS
 70
     2
  9
$LUPREC
 70
     4
  9
$SKETCHINC
 40
0.1
  9
$FILLETRAD
 40
4.0
  9
$AUNITS
 70
     0
  9
$AUPREC
 70
     0
  9
$MENU
  1
C:\ACADR13\WIN\SUPPORT\ACAD.mnc
  9
$ELEVATION
 40
0.0
  9
$PELEVATION
 40
0.0
  9
$THICKNESS
 40
0.0
  9
$LIMCHECK
 70
     0
  9
$BLIPMODE
 70
     0
  9
$CHAMFERA
 40
0.0
  9
$CHAMFERB
 40
0.0
  9
$SKPOLY
 70
     0
  9
$TDCREATE
 40
2452160.4160078471
  9
$TDUPDATE
 40
2455643.364495208
  9
$TDINDWG
 40
0.3310001389
  9
$TDUSRTIMER
 40
0.3310001389
  9
$USRTIMER
 70
     1
  9
$ANGBASE
 50
0.0
  9
$ANGDIR
 70
     0
  9
$PDMODE
 70
     0
  9
$PDSIZE
 40
0.0
  9
$PLINEWID
 40
0.0
  9
$COORDS
 70
     0
  9
$SPLFRAME
 70
     0
  9
$SPLINETYPE
 70
     6
  9
$SPLINESEGS
 70
     8
  9
$ATTDIA
 70
     0
  9
$ATTREQ
 70
     1
  9
$HANDLING
 70
     1
  9
$HANDSEED
  5
42DA
  9
$SURFTAB1
 70
     6
  9
$SURFTAB2
 70
     6
  9
$SURFTYPE
 70
     6
  9
$SURFU
 70
     6
  9
$SURFV
 70
     6
  9
$UCSNAME
  2

  9
$UCSORG
 10
0.0
 20
0.0
 30
0.0
  9
$UCSXDIR
 10
1.0
 20
0.0
 30
0.0
  9
$UCSYDIR
 10
0.0
 20
1.0
 30
0.0
  9
$PUCSNAME
  2

  9
$PUCSORG
 10
0.0
 20
0.0
 30
0.0
  9
$PUCSXDIR
 10
1.0
 20
0.0
 30
0.0
  9
$PUCSYDIR
 10
0.0
 20
1.0
 30
0.0
  9
$USERI1
 70
     0
  9
$USERI2
 70
     0
  9
$USERI3
 70
     0
  9
$USERI4
 70
     0
  9
$USERI5
 70
     0
  9
$USERR1
 40
0.0
  9
$USERR2
 40
0.0
  9
$USERR3
 40
0.0
  9
$USERR4
 40
0.0
  9
$USERR5
 40
0.0
  9
$WORLDVIEW
 70
     1
  9
$SHADEDGE
 70
     3
  9
$SHADEDIF
 70
    70
  9
$TILEMODE
 70
     1
  9
$MAXACTVP
 70
    16
  9
$PLIMCHECK
 70
     0
  9
$PEXTMIN
 10
1.0000000000000000E+020
 20
1.0000000000000000E+020
 30
1.0000000000000000E+020
  9
$PEXTMAX
 10
-1.0000000000000000E+020
 20
-1.0000000000000000E+020
 30
-1.0000000000000000E+020
  9
$PLIMMIN
 10
0.0
 20
0.0
  9
$PLIMMAX
 10
20.0
 20
147.0
  9
$UNITMODE
 70
     0
  9
$VISRETAIN
 70
     0
  9
$PLINEGEN
 70
     0
  9
$PSLTSCALE
 70
     1
  0
ENDSEC
  0
SECTION
  2
TABLES
  0
TABLE
  2
VPORT
 70
     1
  0
VPORT
  2
*ACTIVE
 70
     0
 10
0.0
 20
0.0
 11
1.0
 21
1.0
 12
839.99999999999977
 22
593.99999999999977
 13
0.0
 23
0.0
 14
1.0
 24
1.0
 15
0.0
 25
0.0
 16
0.0
 26
0.0
 36
1.0
 17
0.0
 27
0.0
 37
0.0
 40
1301.2015195900831
 41
1.299065420560747
 42
50.0
 43
0.0
 44
0.0
 50
0.0
 51
0.0
 71
     0
 72
   100
 73
     1
 74
     1
 75
     0
 76
     0
 77
     0
 78
     0
  0
ENDTAB
  0
TABLE
  2
LTYPE
 70
     5
  0
LTYPE
  2
CONTINUOUS
 70
     0
  3
Solid line
 72
    65
 73
     0
 40
0.0
  0
ENDTAB
  0
TABLE
  2
LAYER
 70
    14
  0
LAYER
  2
0
 70
     0
 62
     7
  6
CONTINUOUS
  0
ENDTAB
  0
TABLE
  2
STYLE
 70
     3
  0
STYLE
  2
STANDARD
 70
     0
 40
0.0
 41
0.8
 50
0.0
 71
     0
 42
16.0
  3
simplex
  4
extfont
  0
STYLE
  2
PTSH
 70
     0
 40
0.0
 41
0.9
 50
0.0
 71
     0
 42
4.0
  3
SIMPLEX
  4
EXTFONT
  0
STYLE
  2
DIM
 70
     0
 40
0.0
 41
0.8
 50
0.0
 71
     0
 42
4.0
  3
simplex
  4
extfont
  0
ENDTAB
  0
TABLE
  2
VIEW
 70
     0
  0
ENDTAB
  0
TABLE
  2
UCS
 70
     0
  0
ENDTAB
  0
TABLE
  2
APPID
 70
     3
  0
APPID
  2
ACAD
 70
     0
  0
APPID
  2
ACAD_MLEADERVER
 70
     0
  0
APPID
  2
ACAD_DSTYLE_DIMTEXT_FILL
 70
     0
  0
ENDTAB
  0
TABLE
  2
DIMSTYLE
 70
     6
  0
DIMSTYLE
  2
DIM1
 70
     0
  3

  4

  5

  6
OPEN
  7
OPEN
 40
4.0
 41
2.7999999999999989
 42
1.0
 43
5.0
 44
1.0
 45
0.1
 46
0.0
 47
0.0
 48
0.0
140
2.5
141
0.0
142
0.0
143
1.0
144
1.0
145
0.0
146
0.7
147
0.85
 71
     0
 72
     0
 73
     0
 74
     0
 75
     0
 76
     0
 77
     3
 78
     8
170
     0
171
     2
172
     1
173
     1
174
     0
175
     0
176
     2
177
     2
178
     2
  0
ENDTAB
  0
ENDSEC
  0
SECTION
  2
BLOCKS
  0
BLOCK
  8
0
  2
$MODEL_SPACE
 70
     0
 10
0.0
 20
0.0
 30
0.0
  3
$MODEL_SPACE
  1

  0
ENDBLK
  5
3D
  8
0
  0
BLOCK
 67
     1
  8
0
  2
$PAPER_SPACE
 70
     0
 10
0.0
 20
0.0
 30
0.0
  3
$PAPER_SPACE
  1

  0
ENDBLK
  5
3B
 67
     1
  8
0
  0
BLOCK
  8
0
  2
_OPEN
 70
     0
 10
0.0
 20
0.0
 30
0.0
  3
_OPEN
  1
H1111.DWG
  0
LINE
  5
244A
  8
0
  6
BYBLOCK
 62
     0
 10
-1.0
 20
0.1666666666666666
 30
0.0
 11
0.0
 21
0.0
 31
0.0
  0
LINE
  5
244B
  8
0
  6
BYBLOCK
 62
     0
 10
0.0
 20
0.0
 30
0.0
 11
-1.0
 21
-0.1666666666666666
 31
0.0
  0
LINE
  5
244C
  8
0
  6
BYBLOCK
 62
     0
 10
0.0
 20
0.0
 30
0.0
 11
-1.0
 21
0.0
 31
0.0
  0
ENDBLK
  5
244D
  8
0
  0
BLOCK
  8
0
  2
00000
 70
     0
 10
0.0
 20
0.0
 30
0.0
  3
00000
  1

  0
ENDBLK
  5
4299
  8
0
  0
ENDSEC
  0
SECTION
  2
ENTITIES
  0
TEXT
  5
2529
  8
0
  6
CONTINUOUS
 10
1514.4000000000001
 20
61.0
 30
0.0
 40
14.0
  1
SP-1
 41
0.9
  7
PTSH
 72
     1
 11
1536.0
 21
68.0
 31
0.0
 73
     2
  0
POLYLINE
  5
2563
  8
0
 66
     1
 10
0.0
 20
0.0
 30
0.0
 70
     1
  0
VERTEX
  5
4209
  8
0
 10
72.0
 20
28.0
 30
0.0
  0
VERTEX
  5
420A
  8
0
 10
1636.0
 20
28.0
 30
0.0
  0
VERTEX
  5
420B
  8
0
 10
1636.0
 20
1128.0
 30
0.0
  0
VERTEX
  5
420C
  8
0
 10
72.0
 20
1128.0
 30
0.0
  0
SEQEND
  5
420D
  8
0
  0
CIRCLE
  5
347C
  8
0
 10
333.66755370810102
 20
651.79968768796903
 30
0.0
 40
1.9999999999999709
  0
LINE
  5
347D
  8
0
 10
324.66755370810102
 20
654.79968768796903
 30
0.0
 11
358.0648469894661
 21
654.79968768796891
 31
0.0
  0
LINE
  5
347E
  8
0
 10
324.66755370810102
 20
655.79968768796903
 30
0.0
 11
361.66755370810102
 21
655.79968768796891
 31
0.0
  0
LINE
  5
347F
  8
0
 10
324.66755370810102
 20
648.79968768796903
 30
0.0
 11
358.0648469894661
 21
648.79968768796903
 31
0.0
  0
LINE
  5
3480
  8
0
 10
324.66755370810102
 20
647.79968768796903
 30
0.0
 11
361.66755370810102
 21
647.7996876879688
 31
0.0
  0
ARC
  5
3483
  8
0
 10
333.66755370810102
 20
651.7996876879688
 30
0.0
 40
18.0
 50
12.839588406904429
 51
347.1604115930956
  0
ARC
  5
3484
  8
0
 10
333.66755370810102
 20
651.79968768796903
 30
0.0
 40
9.0000000000000284
 50
206.38779996124049
 51
333.61220003875951
  0
ARC
  5
3485
  8
0
 10
333.66755370810102
 20
651.79968768796903
 30
0.0
 40
9.0000000000000284
 50
26.387799961240489
 51
153.61220003875951
  0
ARC
  5
3488
  8
0
 10
333.66755370810102
 20
651.7996876879688
 30
0.0
 40
25.0
 50
201.10019602408991
 51
308.94244126897962
  0
ARC
  5
3489
  8
0
 10
333.66755370810102
 20
651.7996876879688
 30
0.0
 40
25.0
 50
51.057558731022461
 51
158.89980397590699
  0
LINE
  5
348F
  8
0
 10
298.66755370810102
 20
661.79968768796903
 30
0.0
 11
308.66755370810102
 21
661.79968768796903
 31
0.0
  0
CIRCLE
  5
3490
  8
0
 10
303.66755370810102
 20
651.79968768796903
 30
0.0
 40
2.5
  0
LINE
  5
3491
  8
0
 10
306.16755370810102
 20
654.29968768796903
 30
0.0
 11
301.16755370810102
 21
654.29968768796903
 31
0.0
  0
LINE
  5
3492
  8
0
 10
306.16755370810102
 20
649.29968768796903
 30
0.0
 11
301.16755370810102
 21
649.29968768796903
 31
0.0
  0
LINE
  5
3493
  8
0
 10
298.66755370810102
 20
641.79968768796903
 30
0.0
 11
308.66755370810102
 21
641.79968768796903
 31
0.0
  0
LINE
  5
3494
  8
0
 10
301.16755370810102
 20
654.29968768796903
 30
0.0
 11
301.16755370810102
 21
649.29968768796903
 31
0.0
  0
LINE
  5
3495
  8
0
 10
298.66755370810102
 20
661.79968768796903
 30
0.0
 11
298.66755370810102
 21
641.79968768796903
 31
0.0
  0
LINE
  5
3496
  8
0
 10
288.66755370810102
 20
660.79968768796903
 30
0.0
 11
288.66755370810102
 21
642.79968768796903
 31
0.0
  0
LINE
  5
3497
  8
0
 10
288.66755370810102
 20
642.79968768796903
 30
0.0
 11
298.66755370810102
 21
642.79968768796903
 31
0.0
  0
LINE
  5
3498
  8
0
 10
288.66755370810102
 20
642.79968768796903
 30
0.0
 11
298.66755370810102
 21
642.79968768796903
 31
0.0
  0
LINE
  5
3499
  8
0
 10
288.66755370810102
 20
660.79968768796903
 30
0.0
 11
298.66755370810102
 21
660.79968768796903
 31
0.0
  0
LINE
  5
349A
  8
0
 10
334.16755370810102
 20
648.79968768796903
 30
0.0
 11
334.16755370810102
 21
649.86319601486525
 31
0.0
  0
LINE
  5
349B
  8
0
 10
333.16755370810102
 20
648.79968768796903
 30
0.0
 11
333.16755370810102
 21
649.86319601486525
 31
0.0
  0
LINE
  5
349C
  8
0
 10
327.16755370810091
 20
648.79968768796891
 30
0.0
 11
327.16755370810091
 21
654.79968768796903
 31
0.0
  0
LINE
  5
349D
  8
0
 10
328.16755370810102
 20
648.79968768796903
 30
0.0
 11
328.16755370810102
 21
654.79968768796903
 31
0.0
  0
ARC
  5
349E
  8
0
 10
333.66755370810102
 20
651.79968768796903
 30
0.0
 40
9.0000000000000284
 50
160.52877936551121
 51
199.47122063448879
  0
LINE
  5
349F
  8
0
 10
306.16755370810102
 20
654.29968768796903
 30
0.0
 11
306.16755370810102
 21
649.29968768796903
 31
0.0
  0
LINE
  5
34A0
  8
0
 10
308.66755370810102
 20
661.79968768796903
 30
0.0
 11
308.66755370810102
 21
641.79968768796903
 31
0.0
  0
LINE
  5
34A1
  8
0
 10
308.66755370810102
 20
642.79968768796903
 30
0.0
 11
318.07909643998119
 21
642.79968768796903
 31
0.0
  0
LINE
  5
34A2
  8
0
 10
308.66755370810102
 20
642.79968768796903
 30
0.0
 11
318.07909643998119
 21
642.79968768796903
 31
0.0
  0
ARC
  5
34A3
  8
0
 10
327.66755370810102
 20
649.29968768796903
 30
0.0
 40
2.500000000000016
 50
216.86989764584661
 51
323.13010235415339
  0
LINE
  5
34A4
  8
0
 10
324.66755370810102
 20
647.79968768796903
 30
0.0
 11
324.66755370810102
 21
648.79968768796891
 31
0.0
  0
LINE
  5
34A5
  8
0
 10
333.16755370810102
 20
645.79968768796903
 30
0.0
 11
334.16755370810102
 21
645.79968768796903
 31
0.0
  0
LINE
  5
34A6
  8
0
 10
333.16755370810102
 20
645.79968768796903
 30
0.0
 11
333.16755370810102
 21
647.79968768796903
 31
0.0
  0
LINE
  5
34A7
  8
0
 10
334.16755370810102
 20
645.79968768796903
 30
0.0
 11
334.16755370810102
 21
647.79968768796903
 31
0.0
  0
LINE
  5
34A8
  8
0
 10
308.66755370810102
 20
660.79968768796903
 30
0.0
 11
318.07909643998119
 21
660.79968768796903
 31
0.0
  0
LINE
  5
34A9
  8
0
 10
324.66755370810102
 20
655.79968768796903
 30
0.0
 11
324.66755370810102
 21
654.79968768796903
 31
0.0
  0
LINE
  5
34AA
  8
0
 10
333.16755370810102
 20
653.73617936107257
 30
0.0
 11
333.16755370810102
 21
654.79968768796903
 31
0.0
  0
LINE
  5
34AB
  8
0
 10
334.16755370810102
 20
653.73617936107257
 30
0.0
 11
334.16755370810102
 21
654.79968768796903
 31
0.0
  0
LINE
  5
34AC
  8
0
 10
333.16755370810102
 20
657.79968768796903
 30
0.0
 11
334.16755370810102
 21
657.79968768796903
 31
0.0
  0
LINE
  5
34AD
  8
0
 10
333.16755370810102
 20
655.79968768796903
 30
0.0
 11
333.16755370810102
 21
657.79968768796903
 31
0.0
  0
LINE
  5
34AE
  8
0
 10
334.16755370810102
 20
655.79968768796903
 30
0.0
 11
334.16755370810102
 21
657.79968768796903
 31
0.0
  0
LINE
  5
34AF
  8
0
 10
328.16755370810102
 20
655.79968768796903
 30
0.0
 11
328.16755370810102
 21
656.2996876879688
 31
0.0
  0
LINE
  5
34B0
  8
0
 10
327.16755370810091
 20
656.29968768796903
 30
0.0
 11
328.16755370810102
 21
656.2996876879688
 31
0.0
  0
LINE
  5
34B1
  8
0
 10
327.16755370810091
 20
655.79968768796891
 30
0.0
 11
327.16755370810091
 21
656.2996876879688
 31
0.0
  0
LINE
  5
34B9
  8
0
 10
350.63811645657819
 20
632.79968768796891
 30
0.0
 11
368.66755370810102
 21
632.79968768796891
 31
0.0
  0
LINE
  5
34BA
  8
0
 10
350.63811645657819
 20
670.79968768796891
 30
0.0
 11
368.66755370810102
 21
670.79968768796891
 31
0.0
  0
ARC
  5
34BB
  8
0
 10
361.66755370810102
 20
649.79968768796891
 30
0.0
 40
2.0
 50
270.0
 51
0.0
  0
ARC
  5
34BC
  8
0
 10
333.66755370810102
 20
651.7996876879688
 30
0.0
 40
25.0
 50
353.33638708360212
 51
6.6636129163979074
  0
ARC
  5
34BD
  8
0
 10
333.66755370810102
 20
651.7996876879688
 30
0.0
 40
18.0
 50
350.40593177313838
 51
9.5940682268615962
  0
ARC
  5
34BE
  8
0
 10
333.66755370810102
 20
651.79968768796903
 30
0.0
 40
9.0000000000000284
 50
340.52877936551118
 51
19.471220634488802
  0
ARC
  5
34BF
  8
0
 10
358.06484698946628
 20
649.79968768796903
 30
0.0
 40
1.0
 50
270.0
 51
0.0
  0
ARC
  5
34C0
  8
0
 10
350.63811645657819
 20
630.79968768796891
 30
0.0
 40
2.0
 50
90.0
 51
128.94244126897959
  0
ARC
  5
34C1
  8
0
 10
350.63811645657802
 20
672.7996876879688
 30
0.0
 40
2.0
 50
231.05755873102041
 51
270.0
  0
ARC
  5
34C2
  8
0
 10
358.06484698946628
 20
653.79968768796891
 30
0.0
 40
1.0
 50
0.0
 51
90.0
  0
LINE
  5
34C3
  8
0
 10
363.66755370810102
 20
649.79968768796891
 30
0.0
 11
363.66755370810102
 21
653.7996876879688
 31
0.0
  0
LINE
  5
34C4
  8
0
 10
359.0648469894661
 20
649.79968768796903
 30
0.0
 11
359.0648469894661
 21
653.79968768796903
 31
0.0
  0
ARC
  5
34C5
  8
0
 10
361.66755370810102
 20
653.79968768796891
 30
0.0
 40
2.0
 50
0.0
 51
90.0
  0
LINE
  5
34C6
  8
0
 10
369.66755370810102
 20
671.79968768796903
 30
0.0
 11
369.66755370810102
 21
631.79968768796891
 31
0.0
  0
LINE
  5
34C7
  8
0
 10
373.66755370810102
 20
671.79968768796903
 30
0.0
 11
373.66755370810102
 21
631.79968768796891
 31
0.0
  0
LINE
  5
34C8
  8
0
 10
369.66755370810102
 20
631.79968768796891
 30
0.0
 11
368.66755370810102
 21
632.79968768796891
 31
0.0
  0
LINE
  5
34C9
  8
0
 10
369.66755370810102
 20
631.79968768796891
 30
0.0
 11
373.66755370810102
 21
631.79968768796891
 31
0.0
  0
LINE
  5
34CA
  8
0
 10
369.66755370810102
 20
671.79968768796903
 30
0.0
 11
368.66755370810102
 21
670.79968768796891
 31
0.0
  0
LINE
  5
34CB
  8
0
 10
369.66755370810102
 20
671.79968768796903
 30
0.0
 11
373.66755370810102
 21
671.79968768796903
 31
0.0
  0
ARC
  5
34D0
  8
0
 10
524.04199713602338
 20
662.13529343580228
 30
0.0
 40
23.0
 50
12.04592508175698
 51
347.95407491823983
  0
ARC
  5
34D1
  8
0
 10
524.04199713602338
 20
662.13529343580228
 30
0.0
 40
32.0
 50
46.154646292969467
 51
160.27536644130021
  0
LINE
  5
34D2
  8
0
 10
564.1882289094317
 20
686.13529343580228
 30
0.0
 11
564.1882289094317
 21
638.13529343580217
 31
0.0
  0
LINE
  5
34D3
  8
0
 10
568.98822890943177
 20
686.13529343580228
 30
0.0
 11
568.98822890943165
 21
638.13529343580217
 31
0.0
  0
ARC
  5
34D5
  8
0
 10
524.04199713602338
 20
662.13529343580228
 30
0.0
 40
10.80000000000001
 50
206.38779996124339
 51
333.61220003875661
  0
ARC
  5
34D6
  8
0
 10
524.04199713602338
 20
662.13529343580228
 30
0.0
 40
32.0
 50
199.72463355869971
 51
313.84535370703048
  0
ARC
  5
34D7
  8
0
 10
524.04199713602338
 20
662.13529343580228
 30
0.0
 40
10.80000000000001
 50
26.38779996124341
 51
153.61220003875661
  0
LINE
  5
34D8
  8
0
 10
513.24199713602343
 20
657.33529343580233
 30
0.0
 11
558.98822890943143
 21
657.3352934358021
 31
0.0
  0
LINE
  5
34D9
  8
0
 10
513.24199713602343
 20
658.53529343580237
 30
0.0
 11
554.6649808470695
 21
658.53529343580237
 31
0.0
  0
LINE
  5
34DA
  8
0
 10
513.24199713602331
 20
666.93529343580235
 30
0.0
 11
558.98822890943143
 21
666.93529343580224
 31
0.0
  0
LINE
  5
34DB
  8
0
 10
513.24199713602343
 20
665.7352934358023
 30
0.0
 11
554.6649808470695
 21
665.7352934358023
 31
0.0
  0
LINE
  5
34DE
  8
0
 10
492.58822890943162
 20
672.93529343580235
 30
0.0
 11
503.88208018768768
 21
672.93529343580235
 31
0.0
  0
LINE
  5
34DF
  8
0
 10
492.58822890943162
 20
651.33529343580233
 30
0.0
 11
503.88208018768768
 21
651.33529343580233
 31
0.0
  0
LINE
  5
34E0
  8
0
 10
492.58822890943162
 20
651.33529343580233
 30
0.0
 11
503.88208018768768
 21
651.33529343580233
 31
0.0
  0
LINE
  5
34E1
  8
0
 10
489.58822890943151
 20
665.13529343580228
 30
0.0
 11
489.58822890943151
 21
659.1352934358024
 31
0.0
  0
LINE
  5
34E2
  8
0
 10
492.58822890943162
 20
674.13529343580228
 30
0.0
 11
492.58822890943162
 21
650.1352934358024
 31
0.0
  0
LINE
  5
34E3
  8
0
 10
483.58822890943151
 20
665.13529343580228
 30
0.0
 11
483.58822890943151
 21
659.1352934358024
 31
0.0
  0
LINE
  5
34E4
  8
0
 10
480.58822890943162
 20
674.13529343580228
 30
0.0
 11
480.58822890943162
 21
650.1352934358024
 31
0.0
  0
LINE
  5
34E5
  8
0
 10
468.58822890943151
 20
672.93529343580235
 30
0.0
 11
468.58822890943151
 21
651.33529343580233
 31
0.0
  0
CIRCLE
  5
34E6
  8
0
 10
486.58822890943151
 20
662.13529343580228
 30
0.0
 40
3.0
  0
LINE
  5
34E7
  8
0
 10
480.58822890943162
 20
650.1352934358024
 30
0.0
 11
492.58822890943162
 21
650.1352934358024
 31
0.0
  0
LINE
  5
34E8
  8
0
 10
468.58822890943151
 20
651.33529343580233
 30
0.0
 11
480.58822890943162
 21
651.33529343580233
 31
0.0
  0
LINE
  5
34E9
  8
0
 10
468.58822890943151
 20
651.33529343580233
 30
0.0
 11
480.58822890943162
 21
651.33529343580233
 31
0.0
  0
LINE
  5
34EA
  8
0
 10
489.58822890943151
 20
659.1352934358024
 30
0.0
 11
483.58822890943151
 21
659.1352934358024
 31
0.0
  0
LINE
  5
34EB
  8
0
 10
480.58822890943162
 20
674.13529343580228
 30
0.0
 11
492.58822890943162
 21
674.13529343580228
 31
0.0
  0
LINE
  5
34EC
  8
0
 10
468.58822890943151
 20
672.93529343580235
 30
0.0
 11
480.58822890943162
 21
672.93529343580235
 31
0.0
  0
LINE
  5
34ED
  8
0
 10
489.58822890943151
 20
665.13529343580228
 30
0.0
 11
483.58822890943151
 21
665.13529343580228
 31
0.0
  0
ARC
  5
34EE
  8
0
 10
524.04199713602338
 20
662.13529343580228
 30
0.0
 40
10.80000000000001
 50
160.52877936551121
 51
199.47122063448879
  0
CIRCLE
  5
34EF
  8
0
 10
524.04199713602338
 20
662.13529343580228
 30
0.0
 40
2.3999999999999648
  0
LINE
  5
34F0
  8
0
 10
517.44199713602325
 20
658.53529343580237
 30
0.0
 11
517.44199713602325
 21
665.7352934358023
 31
0.0
  0
LINE
  5
34F1
  8
0
 10
516.24199713602331
 20
658.53529343580215
 30
0.0
 11
516.24199713602331
 21
665.7352934358023
 31
0.0
  0
ARC
  5
34F2
  8
0
 10
516.84199713602334
 20
659.1352934358024
 30
0.0
 40
3.0000000000000191
 50
216.86989764584661
 51
323.13010235415339
  0
LINE
  5
34F3
  8
0
 10
513.24199713602343
 20
657.33529343580233
 30
0.0
 11
513.24199713602331
 21
658.53529343580215
 31
0.0
  0
LINE
  5
34F4
  8
0
 10
524.64199713602318
 20
658.53529343580237
 30
0.0
 11
524.64199713602318
 21
659.81150342807791
 31
0.0
  0
LINE
  5
34F5
  8
0
 10
524.64199713602318
 20
654.93529343580235
 30
0.0
 11
524.64199713602318
 21
657.33529343580233
 31
0.0
  0
LINE
  5
34F6
  8
0
 10
523.44199713602325
 20
658.53529343580237
 30
0.0
 11
523.44199713602325
 21
659.81150342807791
 31
0.0
  0
LINE
  5
34F7
  8
0
 10
523.44199713602325
 20
654.93529343580235
 30
0.0
 11
523.44199713602325
 21
657.33529343580233
 31
0.0
  0
LINE
  5
34F8
  8
0
 10
523.44199713602325
 20
654.93529343580235
 30
0.0
 11
524.64199713602318
 21
654.93529343580235
 31
0.0
  0
LINE
  5
34F9
  8
0
 10
513.24199713602331
 20
666.93529343580235
 30
0.0
 11
513.24199713602343
 21
665.7352934358023
 31
0.0
  0
LINE
  5
34FA
  8
0
 10
516.24199713602343
 20
666.93529343580235
 30
0.0
 11
516.24199713602343
 21
667.53529343580226
 31
0.0
  0
LINE
  5
34FB
  8
0
 10
516.24199713602331
 20
667.53529343580237
 30
0.0
 11
517.44199713602325
 21
667.53529343580226
 31
0.0
  0
LINE
  5
34FC
  8
0
 10
517.44199713602325
 20
666.93529343580235
 30
0.0
 11
517.44199713602325
 21
667.53529343580226
 31
0.0
  0
LINE
  5
34FD
  8
0
 10
524.64199713602318
 20
666.93529343580235
 30
0.0
 11
524.64199713602318
 21
669.33529343580244
 31
0.0
  0
LINE
  5
34FE
  8
0
 10
524.64199713602318
 20
664.45908344352665
 30
0.0
 11
524.64199713602318
 21
665.7352934358023
 31
0.0
  0
LINE
  5
34FF
  8
0
 10
523.44199713602325
 20
666.93529343580235
 30
0.0
 11
523.44199713602325
 21
669.33529343580233
 31
0.0
  0
LINE
  5
3500
  8
0
 10
523.44199713602325
 20
664.45908344352665
 30
0.0
 11
523.44199713602325
 21
665.7352934358023
 31
0.0
  0
LINE
  5
3501
  8
0
 10
523.44199713602325
 20
669.33529343580244
 30
0.0
 11
524.64199713602318
 21
669.33529343580244
 31
0.0
  0
LINE
  5
3504
  8
0
 10
564.1882289094317
 20
638.13529343580217
 30
0.0
 11
562.98822890943165
 21
639.33529343580233
 31
0.0
  0
ARC
  5
3505
  8
0
 10
524.04199713602338
 20
662.13529343580228
 30
0.0
 40
10.80000000000001
 50
340.52877936551118
 51
19.471220634488802
  0
ARC
  5
3506
  8
0
 10
524.04199713602338
 20
662.13529343580228
 30
0.0
 40
23.0
 50
350.99493719646011
 51
9.005062803539932
  0
LINE
  5
3507
  8
0
 10
561.3882289094314
 20
659.73529343580219
 30
0.0
 11
561.3882289094314
 21
664.53529343580215
 31
0.0
  0
LINE
  5
3508
  8
0
 10
555.86498084706955
 20
659.73529343580219
 30
0.0
 11
555.86498084706955
 21
664.53529343580226
 31
0.0
  0
LINE
  5
3509
  8
0
 10
546.90156843559055
 20
639.33529343580233
 30
0.0
 11
562.98822890943165
 21
639.33529343580233
 31
0.0
  0
ARC
  5
350A
  8
0
 10
546.90156843559055
 20
638.33529343580233
 30
0.0
 40
1.0
 50
90.0
 51
133.84535370703051
  0
ARC
  5
350B
  8
0
 10
554.6649808470695
 20
659.73529343580219
 30
0.0
 40
1.1999999999999991
 50
270.0
 51
0.0
  0
ARC
  5
350C
  8
0
 10
558.98822890943143
 20
659.73529343580219
 30
0.0
 40
2.399999999999999
 50
270.0
 51
0.0
  0
ARC
  5
350D
  8
0
 10
554.6649808470695
 20
664.53529343580215
 30
0.0
 40
1.1999999999999991
 50
0.0
 51
90.0
  0
ARC
  5
350E
  8
0
 10
558.98822890943143
 20
664.53529343580215
 30
0.0
 40
2.399999999999999
 50
0.0
 51
90.0
  0
LINE
  5
350F
  8
0
 10
564.1882289094317
 20
638.13529343580217
 30
0.0
 11
568.98822890943165
 21
638.13529343580217
 31
0.0
  0
LINE
  5
3512
  8
0
 10
564.1882289094317
 20
686.13529343580228
 30
0.0
 11
562.98822890943165
 21
684.93529343580224
 31
0.0
  0
LINE
  5
3513
  8
0
 10
546.90156843559078
 20
684.93529343580224
 30
0.0
 11
562.98822890943177
 21
684.93529343580235
 31
0.0
  0
ARC
  5
3514
  8
0
 10
546.90156843559078
 20
685.93529343580212
 30
0.0
 40
1.0
 50
226.15464629296949
 51
270.0
  0
LINE
  5
3515
  8
0
 10
564.1882289094317
 20
686.13529343580228
 30
0.0
 11
568.98822890943177
 21
686.13529343580228
 31
0.0
  0
ARC
  5
3516
  8
0
 10
333.66755370810102
 20
425.66656277897641
 30
0.0
 40
82.000000000000341
 50
82.153766410120895
 51
97.846233589879105
  0
CIRCLE
  5
3517
  8
0
 10
333.66755370810102
 20
562.66656277897675
 30
0.0
 40
1.0
  0
LINE
  5
3518
  8
0
 10
356.66755370810102
 20
555.66656277897675
 30
0.0
 11
327.66755370810102
 21
555.66656277897675
 31
0.0
  0
LINE
  5
3519
  8
0
 10
359.06484698946628
 20
566.6348942579715
 30
0.0
 11
333.66755370810102
 21
568.65932999217921
 31
0.0
  0
LINE
  5
351A
  8
0
 10
315.66755370810102
 20
548.66656277897675
 30
0.0
 11
351.66755370810102
 21
548.66656277897675
 31
0.0
  0
LINE
  5
351B
  8
0
 10
324.66755370810102
 20
553.66656277897675
 30
0.0
 11
342.66755370810102
 21
553.66656277897675
 31
0.0
  0
ARC
  5
351C
  8
0
 10
333.66755370810102
 20
507.66656277897738
 30
0.0
 40
41.000000000000647
 50
257.31961650817823
 51
282.68038349182177
  0
LINE
  5
351D
  8
0
 10
315.66755370810102
 20
451.66656277897692
 30
0.0
 11
351.6675537081012
 21
451.66656277897692
 31
0.0
  0
LINE
  5
351F
  8
0
 10
315.66755370810102
 20
548.66656277897675
 30
0.0
 11
315.66755370810102
 21
529.66656277897675
 31
0.0
  0
LINE
  5
3520
  8
0
 10
301.16755370810102
 20
539.66656277897687
 30
0.0
 11
301.16755370810102
 21
532.66656277897675
 31
0.0
  0
LINE
  5
3521
  8
0
 10
306.16755370810102
 20
539.66656277897687
 30
0.0
 11
306.16755370810102
 21
532.66656277897675
 31
0.0
  0
ARC
  5
3522
  8
0
 10
333.66755370810102
 20
486.66656277897681
 30
0.0
 40
25.0
 50
136.9509201997657
 51
216.86989764584661
  0
LINE
  5
3524
  8
0
 10
324.66755370810102
 20
467.66656277897681
 30
0.0
 11
324.66755370810102
 21
451.66656277897692
 31
0.0
  0
LINE
  5
3525
  8
0
 10
315.66755370810102
 20
465.66656277897681
 30
0.0
 11
315.66755370810102
 21
451.66656277897692
 31
0.0
  0
LINE
  5
3526
  8
0
 10
315.66755370810102
 20
465.66656277897681
 30
0.0
 11
315.66755370810102
 21
451.6665627789767
 31
0.0
  0
ARC
  5
3527
  8
0
 10
313.66755370810102
 20
464.66656277897692
 30
0.0
 40
2.0
 50
0.0
 51
90.0
  0
LINE
  5
3528
  8
0
 10
324.66755370810102
 20
467.66656277897681
 30
0.0
 11
315.66755370810102
 21
464.66656277897692
 31
0.0
  0
ARC
  5
352F
  8
0
 10
315.67303309327099
 20
475.66656277897681
 30
0.0
 40
13.352467409169931
 50
163.68029689768511
 51
196.31970310231489
  0
LINE
  5
3530
  8
0
 10
302.16755370810091
 20
481.97556277897678
 30
0.0
 11
302.16755370810091
 21
469.35756277897673
 31
0.0
  0
POLYLINE
  5
3531
  8
0
 66
     1
 10
0.0
 20
0.0
 30
0.0
  0
VERTEX
  5
4210
  8
0
 10
307.66755370810108
 20
484.66656277897681
 30
0.0
  0
VERTEX
  5
4211
  8
0
 10
307.66755370810108
 20
466.66656277897681
 30
0.0
  0
SEQEND
  5
4212
  8
0
  0
LINE
  5
3532
  8
0
 10
307.66755370810102
 20
466.66656277897681
 30
0.0
 11
313.66755370810102
 21
466.66656277897681
 31
0.0
  0
ARC
  5
3533
  8
0
 10
305.86151212113919
 20
470.03806277897678
 30
0.0
 40
3.5410466645380101
 50
147.99940553495529
 51
212.00059446504471
  0
LINE
  5
3534
  8
0
 10
302.16755370810091
 20
469.35756277897673
 30
0.0
 11
302.858553708101
 21
468.1615627789767
 31
0.0
  0
LINE
  5
3535
  8
0
 10
302.858553708101
 20
471.91456277897669
 30
0.0
 11
307.66755370810102
 21
471.91456277897669
 31
0.0
  0
LINE
  5
3536
  8
0
 10
302.858553708101
 20
468.1615627789767
 30
0.0
 11
307.66755370810102
 21
468.1615627789767
 31
0.0
  0
ARC
  5
3537
  8
0
 10
305.66755370810102
 20
465.66656277897681
 30
0.0
 40
10.0
 50
0.0
 51
36.869897645846628
  0
LINE
  5
3538
  8
0
 10
302.52355370810119
 20
480.11256277897672
 30
0.0
 11
302.41255370810109
 21
480.49356277897692
 31
0.0
  0
LINE
  5
3539
  8
0
 10
302.41255370810109
 20
480.49356277897692
 30
0.0
 11
302.34355370810113
 21
480.89056277897669
 31
0.0
  0
LINE
  5
353A
  8
0
 10
302.34355370810113
 20
480.89056277897669
 30
0.0
 11
302.32055370810122
 21
481.29556277897677
 31
0.0
  0
LINE
  5
353B
  8
0
 10
302.32055370810122
 20
481.29556277897677
 30
0.0
 11
302.34355370810113
 21
481.7005627789768
 31
0.0
  0
LINE
  5
353C
  8
0
 10
302.34355370810113
 20
481.7005627789768
 30
0.0
 11
302.41255370810109
 21
482.09756277897679
 31
0.0
  0
LINE
  5
353D
  8
0
 10
302.41255370810109
 20
482.09756277897679
 30
0.0
 11
302.52355370810119
 21
482.47956277897669
 31
0.0
  0
LINE
  5
353E
  8
0
 10
302.858553708101
 20
479.41856277897682
 30
0.0
 11
302.67455370810097
 21
479.75256277897682
 31
0.0
  0
LINE
  5
353F
  8
0
 10
302.67455370810097
 20
479.75256277897682
 30
0.0
 11
302.52355370810119
 21
480.11256277897672
 31
0.0
  0
LINE
  5
3540
  8
0
 10
302.52355370810119
 20
482.47956277897669
 30
0.0
 11
302.858553708101
 21
483.17256277897673
 31
0.0
  0
LINE
  5
3541
  8
0
 10
302.858553708101
 20
483.17256277897673
 30
0.0
 11
302.16755370810091
 21
481.97556277897678
 31
0.0
  0
LINE
  5
3542
  8
0
 10
302.858553708101
 20
479.41856277897682
 30
0.0
 11
307.66755370810102
 21
479.41856277897682
 31
0.0
  0
LINE
  5
3543
  8
0
 10
307.66755370810102
 20
483.17256277897673
 30
0.0
 11
302.858553708101
 21
483.17256277897673
 31
0.0
  0
LINE
  5
3544
  8
0
 10
308.74768211934679
 20
484.66656277897681
 30
0.0
 11
307.66755370810102
 21
484.66656277897681
 31
0.0
  0
LINE
  5
3545
  8
0
 10
298.66755370810102
 20
514.66656277897675
 30
0.0
 11
308.66755370810102
 21
514.66656277897687
 31
0.0
  0
LINE
  5
3546
  8
0
 10
298.66755370810102
 20
532.66656277897675
 30
0.0
 11
308.66755370810102
 21
532.66656277897675
 31
0.0
  0
LINE
  5
3547
  8
0
 10
288.66755370810102
 20
509.66656277897681
 30
0.0
 11
314.66755370810091
 21
509.66656277897681
 31
0.0
  0
LINE
  5
3548
  8
0
 10
288.66755370810102
 20
527.66656277897675
 30
0.0
 11
288.66755370810102
 21
509.66656277897681
 31
0.0
  0
LINE
  5
3549
  8
0
 10
298.66755370810102
 20
532.66656277897675
 30
0.0
 11
298.66755370810102
 21
514.66656277897687
 31
0.0
  0
LINE
  5
354A
  8
0
 10
288.66755370810102
 20
527.66656277897675
 30
0.0
 11
298.66755370810102
 21
527.66656277897675
 31
0.0
  0
ARC
  5
354B
  8
0
 10
314.66755370810091
 20
508.66656277897681
 30
0.0
 40
1.0
 50
0.0
 51
90.0
  0
ARC
  5
354C
  8
0
 10
314.66755370810091
 20
504.41480212827548
 30
0.0
 40
1.0
 50
316.95092019976568
 51
0.0
  0
LINE
  5
354D
  8
0
 10
315.66755370810102
 20
508.66656277897681
 30
0.0
 11
315.66755370810102
 21
504.41480212827548
 31
0.0
  0
LINE
  5
354E
  8
0
 10
315.66755370810102
 20
507.6665627789767
 30
0.0
 11
315.66755370810102
 21
507.66656277897681
 31
0.0
  0
LINE
  5
354F
  8
0
 10
308.66755370810102
 20
532.66656277897675
 30
0.0
 11
308.66755370810102
 21
514.66656277897687
 31
0.0
  0
LINE
  5
3550
  8
0
 10
308.66755370810102
 20
527.66656277897675
 30
0.0
 11
313.66755370810102
 21
527.66656277897675
 31
0.0
  0
ARC
  5
3551
  8
0
 10
313.66755370810102
 20
529.66656277897675
 30
0.0
 40
2.0
 50
270.0
 51
0.0
  0
LINE
  5
3552
  8
0
 10
301.16755370810102
 20
539.66656277897687
 30
0.0
 11
306.16755370810102
 21
539.66656277897687
 31
0.0
  0
ARC
  5
3553
  8
0
 10
327.66755370810102
 20
558.66656277897675
 30
0.0
 40
3.0
 50
180.0
 51
270.0
  0
CIRCLE
  5
3554
  8
0
 10
327.66755370810102
 20
558.66656277897675
 30
0.0
 40
2.0
  0
CIRCLE
  5
3555
  8
0
 10
303.66755370810102
 20
537.16656277897675
 30
0.0
 40
1.0
  0
LINE
  5
3556
  8
0
 10
324.66755370810102
 20
553.66656277897675
 30
0.0
 11
324.66755370810102
 21
548.66656277897675
 31
0.0
  0
LINE
  5
3557
  8
0
 10
331.66755370810102
 20
555.66656277897675
 30
0.0
 11
331.66755370810102
 21
553.66656277897675
 31
0.0
  0
LINE
  5
3558
  8
0
 10
330.17351136752592
 20
566.95908581831941
 30
0.0
 11
325.4098236239804
 21
561.51487125426752
 31
0.0
  0
ARC
  5
3559
  8
0
 10
327.66755370810102
 20
559.53935743066188
 30
0.0
 40
3.0
 50
138.8140748342928
 51
180.0
  0
LINE
  5
355A
  8
0
 10
324.66755370810102
 20
558.66656277897675
 30
0.0
 11
324.66755370810102
 21
559.53935743066188
 31
0.0
  0
ARC
  5
355B
  8
0
 10
333.93639484106029
 20
563.66656277897675
 30
0.0
 40
5.0
 50
90.0
 51
138.8140748342928
  0
LINE
  5
355D
  8
0
 10
363.66755370810102
 20
561.65070344615651
 30
0.0
 11
363.66755370810102
 21
515.66656277897664
 31
0.0
  0
LINE
  5
355E
  8
0
 10
351.66755370810102
 20
548.66656277897675
 30
0.0
 11
351.6675537081012
 21
514.66656277897675
 31
0.0
  0
LINE
  5
355F
  8
0
 10
358.66755370810102
 20
553.66656277897675
 30
0.0
 11
358.66755370810102
 21
520.05172758611116
 31
0.0
  0
ARC
  5
3560
  8
0
 10
370.29986994698879
 20
493.6665627789767
 30
0.0
 40
26.632316238887721
 50
149.48486915244379
 51
210.51513084755609
  0
LINE
  5
3561
  8
0
 10
369.66755370810102
 20
513.66656277897675
 30
0.0
 11
369.66755370810102
 21
473.66656277897681
 31
0.0
  0
LINE
  5
3562
  8
0
 10
373.66755370810102
 20
513.66656277897675
 30
0.0
 11
373.66755370810102
 21
473.66656277897681
 31
0.0
  0
LINE
  5
3563
  8
0
 10
353.66755370810102
 20
474.66656277897681
 30
0.0
 11
368.66755370810102
 21
474.66656277897681
 31
0.0
  0
LINE
  5
3565
  8
0
 10
351.66755370810102
 20
472.6665627789767
 30
0.0
 11
351.66755370810102
 21
451.6665627789767
 31
0.0
  0
LINE
  5
3566
  8
0
 10
342.66755370810102
 20
467.66656277897681
 30
0.0
 11
342.66755370810102
 21
451.66656277897692
 31
0.0
  0
LINE
  5
3567
  8
0
 10
342.66755370810102
 20
467.6665627789767
 30
0.0
 11
351.66755370810102
 21
464.66656277897692
 31
0.0
  0
LINE
  5
356B
  8
0
 10
351.66755370810102
 20
464.66656277897692
 30
0.0
 11
351.66755370810102
 21
451.66656277897692
 31
0.0
  0
ARC
  5
356E
  8
0
 10
353.6675537081012
 20
472.6665627789767
 30
0.0
 40
2.0
 50
90.0
 51
180.0
  0
LINE
  5
356F
  8
0
 10
369.66755370810102
 20
473.66656277897681
 30
0.0
 11
373.66755370810102
 21
473.66656277897681
 31
0.0
  0
LINE
  5
3570
  8
0
 10
369.66755370810102
 20
473.66656277897681
 30
0.0
 11
368.66755370810102
 21
474.66656277897681
 31
0.0
  0
LINE
  5
3571
  8
0
 10
353.6675537081012
 20
512.66656277897675
 30
0.0
 11
368.66755370810102
 21
512.66656277897675
 31
0.0
  0
ARC
  5
3572
  8
0
 10
353.6675537081012
 20
514.66656277897675
 30
0.0
 40
2.0
 50
180.0
 51
270.0
  0
LINE
  5
3573
  8
0
 10
358.81060032633059
 20
519.30894623340305
 30
0.0
 11
360.41610997864291
 21
515.29517210262259
 31
0.0
  0
ARC
  5
3574
  8
0
 10
360.66755370810102
 20
520.05172758611116
 30
0.0
 40
2.0
 50
180.0
 51
201.80140948635119
  0
ARC
  5
3575
  8
0
 10
361.3445866695281
 20
515.66656277897664
 30
0.0
 40
1.0
 50
201.80140948635119
 51
270.0
  0
LINE
  5
3576
  8
0
 10
361.3445866695281
 20
514.66656277897664
 30
0.0
 11
362.66755370810091
 21
514.66656277897664
 31
0.0
  0
ARC
  5
3577
  8
0
 10
362.66755370810091
 20
515.66656277897664
 30
0.0
 40
1.0
 50
270.0
 51
0.0
  0
LINE
  5
3578
  8
0
 10
369.66755370810102
 20
513.66656277897675
 30
0.0
 11
368.66755370810102
 21
512.66656277897675
 31
0.0
  0
LINE
  5
3579
  8
0
 10
369.66755370810102
 20
513.66656277897675
 30
0.0
 11
373.66755370810102
 21
513.66656277897675
 31
0.0
  0
LINE
  5
357A
  8
0
 10
335.66755370810102
 20
555.66656277897675
 30
0.0
 11
335.66755370810102
 21
553.66656277897675
 31
0.0
  0
LINE
  5
357B
  8
0
 10
342.66755370810102
 20
553.66656277897675
 30
0.0
 11
342.66755370810102
 21
548.66656277897675
 31
0.0
  0
ARC
  5
357C
  8
0
 10
356.66755370810102
 20
553.66656277897675
 30
0.0
 40
2.0
 50
0.0
 51
90.0
  0
ARC
  5
357D
  8
0
 10
358.66755370810102
 20
561.65070344615651
 30
0.0
 40
5.0
 50
0.0
 51
85.442550030914688
  0
LINE
  5
357E
  8
0
 10
546.98822890943154
 20
574.65932999217921
 30
0.0
 11
546.98822890943165
 21
533.85932999217891
 31
0.0
  0
LINE
  5
357F
  8
0
 10
561.3882289094314
 20
590.24029879279465
 30
0.0
 11
561.3882289094314
 21
534.65932999217887
 31
0.0
  0
LINE
  5
3580
  8
0
 10
555.55988485130695
 20
539.03019013749054
 30
0.0
 11
557.48649643408146
 21
534.21366118055403
 31
0.0
  0
LINE
  5
3581
  8
0
 10
492.58822890943162
 20
558.45932999217905
 30
0.0
 11
492.58822890943162
 21
536.85932999217914
 31
0.0
  0
LINE
  5
3582
  8
0
 10
480.58822890943162
 20
558.45932999217905
 30
0.0
 11
480.58822890943162
 21
536.85932999217914
 31
0.0
  0
LINE
  5
3583
  8
0
 10
468.58822890943151
 20
552.45932999217905
 30
0.0
 11
468.58822890943151
 21
530.85932999217914
 31
0.0
  0
ARC
  5
3584
  8
0
 10
523.98822890943154
 20
397.63473457933333
 30
0.0
 40
133.22497679213561
 50
82.794767352114434
 51
97.205232647885552
  0
ARC
  5
3585
  8
0
 10
523.98822890943165
 20
534.85824564229176
 30
0.0
 40
55.601187252684461
 50
258.06334669086431
 51
281.93665330913569
  0
LINE
  5
3587
  8
0
 10
500.9882289094316
 20
461.259329992179
 30
0.0
 11
546.98822890943165
 21
461.259329992179
 31
0.0
  0
ARC
  5
3588
  8
0
 10
500.99480417163539
 20
490.05932999217907
 30
0.0
 40
16.022960891003919
 50
163.68029689768821
 51
196.31970310231171
  0
LINE
  5
3589
  8
0
 10
484.78822890943138
 20
497.63012999217909
 30
0.0
 11
484.78822890943138
 21
482.48852999217911
 31
0.0
  0
ARC
  5
358A
  8
0
 10
523.98822890943154
 20
503.25932999217912
 30
0.0
 40
32.0
 50
139.17910895668351
 51
220.82089104331649
  0
POLYLINE
  5
358B
  8
0
 66
     1
 10
0.0
 20
0.0
 30
0.0
  0
VERTEX
  5
4213
  8
0
 10
491.38822890943152
 20
500.85932999217908
 30
0.0
  0
VERTEX
  5
4214
  8
0
 10
491.38822890943152
 20
479.25932999217912
 30
0.0
  0
SEQEND
  5
4215
  8
0
  0
LINE
  5
358C
  8
0
 10
491.38822890943152
 20
479.25932999217912
 30
0.0
 11
498.58822890943151
 21
479.25932999217912
 31
0.0
  0
ARC
  5
358D
  8
0
 10
489.22097900507691
 20
483.30512999217899
 30
0.0
 40
4.2492559974456121
 50
147.99940553495529
 51
212.0005944650419
  0
LINE
  5
358E
  8
0
 10
484.78822890943138
 20
482.48852999217911
 30
0.0
 11
485.6174289094314
 21
481.05332999217921
 31
0.0
  0
LINE
  5
358F
  8
0
 10
485.6174289094314
 20
481.05332999217921
 30
0.0
 11
491.38822890943152
 21
481.05332999217921
 31
0.0
  0
LINE
  5
3590
  8
0
 10
485.6174289094314
 20
485.55692999217911
 30
0.0
 11
491.38822890943152
 21
485.55692999217911
 31
0.0
  0
LINE
  5
3591
  8
0
 10
512.48822890943165
 20
480.45932999217911
 30
0.0
 11
512.48822890943165
 21
461.259329992179
 31
0.0
  0
LINE
  5
3592
  8
0
 10
500.9882289094316
 20
479.25932999217912
 30
0.0
 11
500.9882289094316
 21
461.259329992179
 31
0.0
  0
LINE
  5
3593
  8
0
 10
500.9882289094316
 20
479.07255674728339
 30
0.0
 11
500.9882289094316
 21
461.259329992179
 31
0.0
  0
ARC
  5
359A
  8
0
 10
495.9882289094316
 20
479.07255674728339
 30
0.0
 40
5.0
 50
0.0
 51
40.820891043316472
  0
LINE
  5
359B
  8
0
 10
512.48822890943165
 20
480.45932999217911
 30
0.0
 11
500.9882289094316
 21
476.85932999217908
 31
0.0
  0
ARC
  5
359C
  8
0
 10
498.58822890943151
 20
476.85932999217908
 30
0.0
 40
2.399999999999999
 50
0.0
 51
90.0
  0
LINE
  5
359D
  8
0
 10
468.58822890943151
 20
530.85932999217914
 30
0.0
 11
499.78822890943161
 21
530.85932999217914
 31
0.0
  0
LINE
  5
359E
  8
0
 10
485.6174289094314
 20
494.5617299921791
 30
0.0
 11
491.38822890943152
 21
494.5617299921791
 31
0.0
  0
LINE
  5
359F
  8
0
 10
491.38822890943152
 20
499.06652999217908
 30
0.0
 11
485.6174289094314
 21
499.06652999217908
 31
0.0
  0
LINE
  5
35A0
  8
0
 10
485.21542890943141
 20
495.394529992179
 30
0.0
 11
485.08222890943142
 21
495.85172999217912
 31
0.0
  0
LINE
  5
35A1
  8
0
 10
485.08222890943142
 20
495.85172999217912
 30
0.0
 11
484.99942890943157
 21
496.32812999217907
 31
0.0
  0
LINE
  5
35A2
  8
0
 10
484.99942890943157
 20
496.32812999217907
 30
0.0
 11
484.97182890943139
 21
496.81412999217918
 31
0.0
  0
LINE
  5
35A3
  8
0
 10
484.97182890943139
 20
496.81412999217918
 30
0.0
 11
484.99942890943157
 21
497.30012999217911
 31
0.0
  0
LINE
  5
35A4
  8
0
 10
484.99942890943157
 20
497.30012999217911
 30
0.0
 11
485.08222890943142
 21
497.77652999217912
 31
0.0
  0
LINE
  5
35A5
  8
0
 10
485.08222890943142
 20
497.77652999217912
 30
0.0
 11
485.21542890943141
 21
498.2349299921791
 31
0.0
  0
LINE
  5
35A6
  8
0
 10
485.6174289094314
 20
494.5617299921791
 30
0.0
 11
485.3966289094314
 21
494.96252999217899
 31
0.0
  0
LINE
  5
35A7
  8
0
 10
485.3966289094314
 20
494.96252999217899
 30
0.0
 11
485.21542890943141
 21
495.394529992179
 31
0.0
  0
LINE
  5
35A8
  8
0
 10
485.21542890943141
 20
498.2349299921791
 30
0.0
 11
485.6174289094314
 21
499.06652999217908
 31
0.0
  0
LINE
  5
35A9
  8
0
 10
485.6174289094314
 20
499.06652999217908
 30
0.0
 11
484.78822890943138
 21
497.63012999217909
 31
0.0
  0
LINE
  5
35AA
  8
0
 10
492.07835582914498
 20
500.85932999217903
 30
0.0
 11
491.38822890943152
 21
500.85932999217908
 31
0.0
  0
LINE
  5
35AB
  8
0
 10
480.58822890943162
 20
536.85932999217903
 30
0.0
 11
492.58822890943162
 21
536.85932999217914
 31
0.0
  0
LINE
  5
35AC
  8
0
 10
500.9882289094316
 20
529.6593299921791
 30
0.0
 11
500.9882289094316
 21
527.44610323707479
 31
0.0
  0
ARC
  5
35AD
  8
0
 10
495.9882289094316
 20
527.44610323707479
 30
0.0
 40
5.0
 50
319.17910895668348
 51
0.0
  0
LINE
  5
35AE
  8
0
 10
500.9882289094316
 20
528.45932999217905
 30
0.0
 11
500.9882289094316
 21
528.45932999217905
 31
0.0
  0
ARC
  5
35AF
  8
0
 10
499.78822890943161
 20
529.6593299921791
 30
0.0
 40
1.1999999999999991
 50
0.0
 51
90.0
  0
LINE
  5
35B0
  8
0
 10
568.98822890943165
 20
532.65932999217921
 30
0.0
 11
568.98822890943154
 21
484.6593299921791
 31
0.0
  0
LINE
  5
35B1
  8
0
 10
564.18822890943159
 20
532.65932999217921
 30
0.0
 11
564.18822890943136
 21
484.6593299921791
 31
0.0
  0
LINE
  5
35B2
  8
0
 10
564.18822890943136
 20
484.6593299921791
 30
0.0
 11
562.98822890943154
 21
485.85932999217908
 31
0.0
  0
LINE
  5
35B3
  8
0
 10
535.48822890943165
 20
480.45932999217911
 30
0.0
 11
535.48822890943154
 21
461.259329992179
 31
0.0
  0
LINE
  5
35B4
  8
0
 10
546.98822890943165
 20
483.45932999217899
 30
0.0
 11
546.98822890943154
 21
461.259329992179
 31
0.0
  0
ARC
  5
35BA
  8
0
 10
549.3882289094314
 20
483.45932999217899
 30
0.0
 40
2.399999999999999
 50
90.0
 51
180.0
  0
LINE
  5
35BB
  8
0
 10
535.48822890943165
 20
480.45932999217911
 30
0.0
 11
546.98822890943165
 21
476.85932999217908
 31
0.0
  0
LINE
  5
35BC
  8
0
 10
549.3882289094314
 20
485.85932999217908
 30
0.0
 11
562.98822890943154
 21
485.85932999217908
 31
0.0
  0
LINE
  5
35BD
  8
0
 10
564.18822890943136
 20
484.6593299921791
 30
0.0
 11
568.98822890943154
 21
484.6593299921791
 31
0.0
  0
LINE
  5
35BE
  8
0
 10
564.18822890943159
 20
532.65932999217921
 30
0.0
 11
562.98822890943165
 21
531.45932999217905
 31
0.0
  0
ARC
  5
35BF
  8
0
 10
567.94700839609686
 20
508.25932999217912
 30
0.0
 40
31.958779486665261
 50
149.48486915244379
 51
210.51513084755609
  0
ARC
  5
35C0
  8
0
 10
549.38822890943163
 20
533.85932999217891
 30
0.0
 40
2.399999999999999
 50
180.0
 51
270.0
  0
LINE
  5
35C1
  8
0
 10
549.38822890943163
 20
531.45932999217905
 30
0.0
 11
562.98822890943165
 21
531.45932999217905
 31
0.0
  0
ARC
  5
35C2
  8
0
 10
560.18822890943136
 20
534.65932999217887
 30
0.0
 40
1.1999999999999991
 50
270.0
 51
0.0
  0
ARC
  5
35C3
  8
0
 10
558.60066846314385
 20
534.65932999217887
 30
0.0
 40
1.1999999999999991
 50
201.80140948635119
 51
270.0
  0
LINE
  5
35C4
  8
0
 10
558.60066846314385
 20
533.45932999217894
 30
0.0
 11
560.18822890943136
 21
533.45932999217894
 31
0.0
  0
LINE
  5
35C5
  8
0
 10
564.18822890943136
 20
532.65932999217921
 30
0.0
 11
568.98822890943165
 21
532.65932999217921
 31
0.0
  0
LINE
  5
35C6
  8
0
 10
513.18822890943136
 20
580.65932999217921
 30
0.0
 11
534.7882289094315
 21
580.65932999217921
 31
0.0
  0
LINE
  5
35C7
  8
0
 10
555.86498084706955
 20
596.22132776697288
 30
0.0
 11
523.98822890943154
 21
598.65065064802195
 31
0.0
  0
LINE
  5
35C8
  8
0
 10
552.98822890943154
 20
583.05932999217907
 30
0.0
 11
516.78822890943161
 21
583.05932999217907
 31
0.0
  0
LINE
  5
35C9
  8
0
 10
500.9882289094316
 20
574.6593299921791
 30
0.0
 11
546.98822890943154
 21
574.65932999217921
 31
0.0
  0
CIRCLE
  5
35CA
  8
0
 10
516.78822890943161
 20
586.65932999217921
 30
0.0
 40
2.399999999999999
  0
ARC
  5
35CB
  8
0
 10
516.78822890943161
 20
586.65932999217921
 30
0.0
 40
3.5999999999999992
 50
180.0
 51
270.0
  0
LINE
  5
35CC
  8
0
 10
492.58822890943162
 20
552.45932999217905
 30
0.0
 11
498.58822890943151
 21
552.45932999217905
 31
0.0
  0
LINE
  5
35CD
  8
0
 10
489.58822890943151
 20
566.85932999217914
 30
0.0
 11
489.58822890943151
 21
558.45932999217905
 31
0.0
  0
LINE
  5
35CE
  8
0
 10
483.58822890943151
 20
566.85932999217914
 30
0.0
 11
483.58822890943151
 21
558.45932999217905
 31
0.0
  0
LINE
  5
35CF
  8
0
 10
480.58822890943162
 20
558.45932999217905
 30
0.0
 11
492.58822890943162
 21
558.45932999217905
 31
0.0
  0
LINE
  5
35D0
  8
0
 10
468.58822890943151
 20
552.45932999217905
 30
0.0
 11
480.58822890943162
 21
552.45932999217905
 31
0.0
  0
CIRCLE
  5
35D1
  8
0
 10
486.58822890943151
 20
563.85932999217914
 30
0.0
 40
1.1999999999999991
  0
LINE
  5
35D2
  8
0
 10
483.58822890943151
 20
566.85932999217914
 30
0.0
 11
489.58822890943151
 21
566.85932999217914
 31
0.0
  0
LINE
  5
35D3
  8
0
 10
500.9882289094316
 20
574.65932999217921
 30
0.0
 11
500.9882289094316
 21
554.85932999217914
 31
0.0
  0
ARC
  5
35D4
  8
0
 10
498.58822890943151
 20
554.85932999217914
 30
0.0
 40
2.399999999999999
 50
270.0
 51
0.0
  0
LINE
  5
35D5
  8
0
 10
513.18822890943136
 20
580.65932999217921
 30
0.0
 11
513.18822890943136
 21
574.65932999217921
 31
0.0
  0
LINE
  5
35D6
  8
0
 10
521.58822890943156
 20
583.05932999217907
 30
0.0
 11
521.58822890943156
 21
580.65932999217921
 31
0.0
  0
LINE
  5
35D7
  8
0
 10
526.38822890943152
 20
583.05932999217907
 30
0.0
 11
526.38822890943152
 21
580.65932999217921
 31
0.0
  0
LINE
  5
35D8
  8
0
 10
519.79537810074135
 20
596.61035763939014
 30
0.0
 11
514.07895280848675
 21
590.0773001625281
 31
0.0
  0
LINE
  5
35D9
  8
0
 10
513.18822890943136
 20
586.65932999217921
 30
0.0
 11
513.18822890943136
 21
587.70668357420141
 31
0.0
  0
ARC
  5
35DA
  8
0
 10
516.78822890943161
 20
587.70668357420141
 30
0.0
 40
3.5999999999999992
 50
138.8140748342928
 51
180.0
  0
ARC
  5
35DB
  8
0
 10
524.31083826898248
 20
592.6593299921791
 30
0.0
 40
6.0
 50
90.0
 51
138.8140748342928
  0
CIRCLE
  5
35DC
  8
0
 10
523.98822890943143
 20
591.45932999217905
 30
0.0
 40
1.1999999999999991
  0
LINE
  5
35DD
  8
0
 10
555.38822890943152
 20
580.65932999217921
 30
0.0
 11
555.38822890943152
 21
539.92152776074045
 31
0.0
  0
ARC
  5
35DE
  8
0
 10
557.7882289094315
 20
539.92152776074045
 30
0.0
 40
2.399999999999999
 50
180.0
 51
201.80140948635119
  0
LINE
  5
35DF
  8
0
 10
534.7882289094315
 20
580.65932999217921
 30
0.0
 11
534.7882289094315
 21
574.65932999217921
 31
0.0
  0
ARC
  5
35E0
  8
0
 10
552.98822890943154
 20
580.65932999217921
 30
0.0
 40
2.399999999999999
 50
0.0
 51
90.0
  0
ARC
  5
35E1
  8
0
 10
555.3882289094314
 20
590.24029879279465
 30
0.0
 40
6.0
 50
0.0
 51
85.442550030914688
  0
LINE
  5
35ED
  8
0
 10
727.27747475671458
 20
703.57817760755415
 30
0.0
 11
776.98505520997003
 21
703.57817760755415
 31
0.0
  0
LINE
  5
35EE
  8
0
 10
727.27747475671458
 20
705.01817760755432
 30
0.0
 11
782.17295288480432
 21
705.01817760755409
 31
0.0
  0
LINE
  5
35EF
  8
0
 10
727.27747475671458
 20
694.93817760755439
 30
0.0
 11
776.98505520997003
 21
694.93817760755439
 31
0.0
  0
LINE
  5
35F0
  8
0
 10
727.27747475671458
 20
693.49817760755434
 30
0.0
 11
782.17295288480432
 21
693.49817760755423
 31
0.0
  0
ARC
  5
35F1
  8
0
 10
740.23747475671451
 20
699.25817760755433
 30
0.0
 40
25.0
 50
13.32062255524769
 51
346.67937744475228
  0
ARC
  5
35F2
  8
0
 10
740.23747475671451
 20
699.25817760755433
 30
0.0
 40
38.0
 50
199.9410190467778
 51
312.22701434771989
  0
ARC
  5
35F3
  8
0
 10
740.23747475671451
 20
699.25817760755433
 30
0.0
 40
38.0
 50
47.77298565228012
 51
160.0589809532222
  0
LINE
  5
35F9
  8
0
 10
727.27747475671458
 20
693.49817760755434
 30
0.0
 11
727.27747475671458
 21
694.93817760755405
 31
0.0
  0
LINE
  5
35FA
  8
0
 10
673.69295288480441
 20
712.21817760755425
 30
0.0
 11
673.69295288480441
 21
686.29817760755418
 31
0.0
  0
LINE
  5
35FB
  8
0
 10
688.0929528848045
 20
713.65817760755431
 30
0.0
 11
688.0929528848045
 21
684.85817760755435
 31
0.0
  0
LINE
  5
35FC
  8
0
 10
702.49295288480437
 20
713.65817760755442
 30
0.0
 11
702.49295288480437
 21
684.85817760755435
 31
0.0
  0
LINE
  5
35FF
  8
0
 10
688.0929528848045
 20
684.85817760755435
 30
0.0
 11
702.49295288480437
 21
684.85817760755435
 31
0.0
  0
LINE
  5
3600
  8
0
 10
673.69295288480441
 20
686.29817760755418
 30
0.0
 11
688.0929528848045
 21
686.29817760755418
 31
0.0
  0
LINE
  5
3601
  8
0
 10
673.69295288480441
 20
686.29817760755418
 30
0.0
 11
688.0929528848045
 21
686.29817760755418
 31
0.0
  0
LINE
  5
3603
  8
0
 10
702.49295288480437
 20
686.29817760755418
 30
0.0
 11
718.8590183110307
 21
686.29817760755418
 31
0.0
  0
LINE
  5
3604
  8
0
 10
702.49295288480437
 20
686.29817760755418
 30
0.0
 11
716.04557441871168
 21
686.29817760755418
 31
0.0
  0
LINE
  5
3605
  8
0
 10
688.0929528848045
 20
713.65817760755431
 30
0.0
 11
702.49295288480437
 21
713.65817760755431
 31
0.0
  0
CIRCLE
  5
3606
  8
0
 10
695.29295288480444
 20
699.25817760755433
 30
0.0
 40
3.5999999999999992
  0
LINE
  5
3607
  8
0
 10
698.89295288480446
 20
702.85817760755435
 30
0.0
 11
691.69295288480441
 21
702.85817760755435
 31
0.0
  0
LINE
  5
3608
  8
0
 10
698.89295288480446
 20
695.65817760755431
 30
0.0
 11
691.69295288480441
 21
695.65817760755431
 31
0.0
  0
LINE
  5
3609
  8
0
 10
673.69295288480441
 20
712.21817760755425
 30
0.0
 11
688.0929528848045
 21
712.21817760755425
 31
0.0
  0
LINE
  5
360A
  8
0
 10
691.69295288480441
 20
702.85817760755435
 30
0.0
 11
691.69295288480441
 21
695.65817760755431
 31
0.0
  0
LINE
  5
360B
  8
0
 10
702.49295288480459
 20
712.21817760755425
 30
0.0
 11
718.8590183110307
 21
712.21817760755425
 31
0.0
  0
LINE
  5
360C
  8
0
 10
698.89295288480446
 20
702.85817760755435
 30
0.0
 11
698.89295288480446
 21
695.65817760755431
 31
0.0
  0
LINE
  5
360D
  8
0
 10
727.27747475671458
 20
705.01817760755432
 30
0.0
 11
727.27747475671458
 21
703.57817760755415
 31
0.0
  0
ARC
  5
360E
  8
0
 10
740.23747475671451
 20
699.25817760755433
 30
0.0
 40
12.959999999999919
 50
160.52877936551121
 51
199.47122063448879
  0
LINE
  5
3611
  8
0
 10
789.41295288480444
 20
670.45817760755426
 30
0.0
 11
795.17295288480443
 21
670.45817760755426
 31
0.0
  0
LINE
  5
3612
  8
0
 10
789.41295288480444
 20
728.05817760755428
 30
0.0
 11
795.17295288480443
 21
728.05817760755428
 31
0.0
  0
ARC
  5
3613
  8
0
 10
782.17295288480432
 20
696.37817760755422
 30
0.0
 40
2.879999999999999
 50
270.0
 51
0.0
  0
LINE
  5
3614
  8
0
 10
789.41295288480444
 20
728.05817760755428
 30
0.0
 11
789.41295288480444
 21
670.45817760755426
 31
0.0
  0
ARC
  5
3615
  8
0
 10
740.23747475671451
 20
699.25817760755433
 30
0.0
 40
12.959999999999919
 50
206.38779996124339
 51
333.61220003875661
  0
ARC
  5
3616
  8
0
 10
731.59747475671463
 20
695.65817760755442
 30
0.0
 40
3.6000000000000232
 50
216.86989764584661
 51
323.13010235415339
  0
LINE
  5
3617
  8
0
 10
740.95747475671442
 20
690.61817760755434
 30
0.0
 11
740.95747475671442
 21
693.49817760755434
 31
0.0
  0
LINE
  5
3618
  8
0
 10
739.51747475671448
 20
690.61817760755434
 30
0.0
 11
739.51747475671448
 21
693.49817760755434
 31
0.0
  0
LINE
  5
3619
  8
0
 10
739.51747475671448
 20
690.61817760755434
 30
0.0
 11
740.95747475671453
 21
690.61817760755434
 31
0.0
  0
LINE
  5
361A
  8
0
 10
789.41295288480444
 20
670.45817760755426
 30
0.0
 11
787.97295288480427
 21
671.89817760755432
 31
0.0
  0
ARC
  5
361B
  8
0
 10
767.79233639672293
 20
668.89817760755432
 30
0.0
 40
3.0
 50
90.0
 51
132.2270143477198
  0
LINE
  5
361E
  8
0
 10
767.79233639672293
 20
671.89817760755432
 30
0.0
 11
787.97295288480427
 21
671.89817760755432
 31
0.0
  0
ARC
  5
361F
  8
0
 10
740.23747475671451
 20
699.25817760755433
 30
0.0
 40
12.959999999999919
 50
26.38779996124341
 51
153.61220003875661
  0
LINE
  5
3620
  8
0
 10
740.95747475671442
 20
705.01817760755432
 30
0.0
 11
740.95747475671442
 21
707.89817760755443
 31
0.0
  0
LINE
  5
3621
  8
0
 10
739.51747475671436
 20
705.01817760755432
 30
0.0
 11
739.51747475671448
 21
707.89817760755432
 31
0.0
  0
LINE
  5
3622
  8
0
 10
730.87747475671461
 20
694.93817760755428
 30
0.0
 11
730.87747475671461
 21
703.57817760755415
 31
0.0
  0
LINE
  5
3623
  8
0
 10
732.31747475671455
 20
694.93817760755439
 30
0.0
 11
732.31747475671455
 21
703.57817760755415
 31
0.0
  0
LINE
  5
3624
  8
0
 10
730.87747475671461
 20
705.73817760755435
 30
0.0
 11
732.31747475671455
 21
705.73817760755435
 31
0.0
  0
LINE
  5
3625
  8
0
 10
730.87747475671461
 20
705.01817760755432
 30
0.0
 11
730.87747475671461
 21
705.73817760755435
 31
0.0
  0
LINE
  5
3626
  8
0
 10
732.31747475671455
 20
705.01817760755432
 30
0.0
 11
732.31747475671455
 21
705.73817760755435
 31
0.0
  0
CIRCLE
  5
3627
  8
0
 10
740.23747475671451
 20
699.25817760755433
 30
0.0
 40
2.8799999999999581
  0
LINE
  5
3628
  8
0
 10
740.95747475671442
 20
694.93817760755439
 30
0.0
 11
740.95747475671442
 21
696.46962959828488
 31
0.0
  0
LINE
  5
3629
  8
0
 10
739.51747475671448
 20
694.93817760755439
 30
0.0
 11
739.51747475671448
 21
696.46962959828488
 31
0.0
  0
LINE
  5
362A
  8
0
 10
740.95747475671442
 20
702.04672561682355
 30
0.0
 11
740.95747475671453
 21
703.57817760755415
 31
0.0
  0
LINE
  5
362B
  8
0
 10
739.51747475671436
 20
702.04672561682355
 30
0.0
 11
739.51747475671448
 21
703.57817760755415
 31
0.0
  0
LINE
  5
362C
  8
0
 10
739.51747475671448
 20
707.89817760755443
 30
0.0
 11
740.95747475671442
 21
707.89817760755443
 31
0.0
  0
ARC
  5
362D
  8
0
 10
740.23747475671451
 20
699.25817760755433
 30
0.0
 40
12.959999999999919
 50
340.52877936551118
 51
19.471220634488802
  0
ARC
  5
362E
  8
0
 10
776.98505520997014
 20
696.37817760755433
 30
0.0
 40
1.4399999999999991
 50
270.0
 51
0.0
  0
ARC
  5
362F
  8
0
 10
776.98505520997014
 20
702.13817760755433
 30
0.0
 40
1.4399999999999991
 50
0.0
 51
90.0
  0
ARC
  5
3630
  8
0
 10
740.23747475671451
 20
699.25817760755433
 30
0.0
 40
25.0
 50
350.0493429473409
 51
9.9506570526591247
  0
ARC
  5
3631
  8
0
 10
782.17295288480432
 20
702.13817760755421
 30
0.0
 40
2.879999999999999
 50
0.0
 51
90.0
  0
LINE
  5
3632
  8
0
 10
785.05295288480431
 20
696.37817760755422
 30
0.0
 11
785.05295288480431
 21
702.13817760755421
 31
0.0
  0
LINE
  5
3633
  8
0
 10
778.42505520996986
 20
696.37817760755433
 30
0.0
 11
778.42505520996986
 21
702.13817760755433
 31
0.0
  0
LINE
  5
3634
  8
0
 10
767.79233639672304
 20
726.618177607554
 30
0.0
 11
787.97295288480427
 21
726.61817760755423
 31
0.0
  0
ARC
  5
3635
  8
0
 10
767.79233639672304
 20
729.61817760755412
 30
0.0
 40
3.0
 50
227.77298565228011
 51
270.0
  0
LINE
  5
3636
  8
0
 10
789.41295288480444
 20
728.05817760755428
 30
0.0
 11
787.97295288480427
 21
726.61817760755423
 31
0.0
  0
LINE
  5
3637
  8
0
 10
795.17295288480443
 20
728.05817760755428
 30
0.0
 11
795.17295288480443
 21
670.45817760755426
 31
0.0
  0
LINE
  5
3638
  8
0
 10
727.21295288480439
 20
597.05932999217919
 30
0.0
 11
753.13295288480435
 21
597.05932999217919
 31
0.0
  0
LINE
  5
3639
  8
0
 10
715.17295288480443
 20
589.85932999217914
 30
0.0
 11
765.17295288480443
 21
589.85932999217914
 31
0.0
  0
ARC
  5
363A
  8
0
 10
731.53295288480433
 20
604.25932999217923
 30
0.0
 40
4.3199999999999994
 50
180.0
 51
270.0
  0
ARC
  5
363B
  8
0
 10
731.53295288480433
 20
605.51615429060575
 30
0.0
 40
4.3199999999999994
 50
138.8140748342928
 51
180.0
  0
ARC
  5
363C
  8
0
 10
740.17295288480443
 20
432.42224811252379
 30
0.0
 40
105.6666666666668
 50
80.051975975531676
 51
99.94802402446831
  0
ARC
  5
363D
  8
0
 10
740.1729528848042
 20
531.10630623371833
 30
0.0
 40
54.938337183054252
 50
256.84843236280261
 51
283.15156763719739
  0
LINE
  5
363F
  8
0
 10
715.17295288480443
 20
461.76891477919071
 30
0.0
 11
765.17295288480443
 21
461.7689147791906
 31
0.0
  0
ARC
  5
3641
  8
0
 10
712.17295288480443
 20
534.91887304293448
 30
0.0
 40
3.0
 50
313.07278134674931
 51
0.0
  0
ARC
  5
3642
  8
0
 10
712.58084319944896
 20
489.12891477919072
 30
0.0
 40
19.227553069204699
 50
163.68029689768821
 51
196.31970310231171
  0
LINE
  5
3643
  8
0
 10
693.13295288480435
 20
498.21387477919058
 30
0.0
 11
693.13295288480435
 21
480.04395477919053
 31
0.0
  0
POLYLINE
  5
3644
  8
0
 66
     1
 10
0.0
 20
0.0
 30
0.0
  0
VERTEX
  5
4216
  8
0
 10
701.05295288480443
 20
502.0889147791907
 30
0.0
  0
VERTEX
  5
4217
  8
0
 10
701.05295288480443
 20
476.16891477919069
 30
0.0
  0
SEQEND
  5
4218
  8
0
  0
ARC
  5
3645
  8
0
 10
740.17295288480443
 20
504.96891477919058
 30
0.0
 40
38.0
 50
133.07278134674931
 51
226.92721865325069
  0
LINE
  5
3646
  8
0
 10
694.12799288480426
 20
483.72603477919063
 30
0.0
 11
701.05295288480443
 21
483.72603477919063
 31
0.0
  0
LINE
  5
3647
  8
0
 10
694.12799288480426
 20
478.32171477919081
 30
0.0
 11
701.05295288480443
 21
478.32171477919081
 31
0.0
  0
ARC
  5
3648
  8
0
 10
698.45225299957895
 20
481.02387477919052
 30
0.0
 40
5.0991071969347352
 50
147.99940553495529
 51
212.0005944650419
  0
LINE
  5
3649
  8
0
 10
693.13295288480435
 20
480.04395477919053
 30
0.0
 11
694.12799288480426
 21
478.32171477919081
 31
0.0
  0
LINE
  5
364A
  8
0
 10
727.67295288480432
 20
477.60891477919068
 30
0.0
 11
727.67295288480432
 21
461.76891477919071
 31
0.0
  0
LINE
  5
364B
  8
0
 10
715.17295288480443
 20
475.01895651544669
 30
0.0
 11
715.17295288480443
 21
461.76891477919071
 31
0.0
  0
LINE
  5
364C
  8
0
 10
715.17295288480454
 20
475.01895651544669
 30
0.0
 11
715.17295288480443
 21
461.7689147791906
 31
0.0
  0
LINE
  5
3653
  8
0
 10
701.05295288480454
 20
476.16891477919069
 30
0.0
 11
712.29295288480444
 21
476.16891477919069
 31
0.0
  0
ARC
  5
3654
  8
0
 10
712.29295288480444
 20
473.28891477919058
 30
0.0
 40
2.879999999999999
 50
0.0
 51
90.0
  0
ARC
  5
3655
  8
0
 10
712.17295288480443
 20
475.01895651544669
 30
0.0
 40
3.0
 50
0.0
 51
46.927218653250712
  0
LINE
  5
3656
  8
0
 10
727.6729528848042
 20
477.60891477919068
 30
0.0
 11
715.1581732268894
 21
473.58031208752197
 31
0.0
  0
LINE
  5
3657
  8
0
 10
694.12799288480426
 20
494.5317947791907
 30
0.0
 11
701.05295288480443
 21
494.5317947791907
 31
0.0
  0
LINE
  5
3658
  8
0
 10
701.05295288480443
 20
499.93755477919058
 30
0.0
 11
694.12799288480426
 21
499.93755477919058
 31
0.0
  0
LINE
  5
3659
  8
0
 10
693.6455928848045
 20
498.93963477919061
 30
0.0
 11
694.12799288480426
 21
499.93755477919058
 31
0.0
  0
LINE
  5
365A
  8
0
 10
694.12799288480426
 20
499.93755477919058
 30
0.0
 11
693.13295288480435
 21
498.21387477919058
 31
0.0
  0
LINE
  5
365B
  8
0
 10
693.86303288480451
 20
495.01275477919069
 30
0.0
 11
693.6455928848045
 21
495.53115477919062
 31
0.0
  0
LINE
  5
365C
  8
0
 10
693.48575288480436
 20
498.38955477919069
 30
0.0
 11
693.6455928848045
 21
498.93963477919061
 31
0.0
  0
LINE
  5
365D
  8
0
 10
693.6455928848045
 20
495.53115477919062
 30
0.0
 11
693.48575288480436
 21
496.07979477919048
 31
0.0
  0
LINE
  5
365E
  8
0
 10
693.48575288480436
 20
496.07979477919048
 30
0.0
 11
693.38639288480431
 21
496.65147477919049
 31
0.0
  0
LINE
  5
365F
  8
0
 10
693.38639288480431
 20
496.65147477919049
 30
0.0
 11
693.35327288480437
 21
497.23467477919058
 31
0.0
  0
LINE
  5
3660
  8
0
 10
693.35327288480437
 20
497.23467477919058
 30
0.0
 11
693.38639288480431
 21
497.81787477919067
 31
0.0
  0
LINE
  5
3661
  8
0
 10
693.38639288480431
 20
497.81787477919067
 30
0.0
 11
693.48575288480436
 21
498.38955477919069
 31
0.0
  0
LINE
  5
3662
  8
0
 10
694.12799288480426
 20
494.5317947791907
 30
0.0
 11
693.86303288480451
 21
495.01275477919069
 31
0.0
  0
LINE
  5
3663
  8
0
 10
702.28224690035495
 20
502.08891477919047
 30
0.0
 11
701.05295288480454
 21
502.0889147791907
 31
0.0
  0
LINE
  5
3664
  8
0
 10
691.69295288480441
 20
581.28891477919058
 30
0.0
 11
691.69295288480441
 21
571.20891477919065
 31
0.0
  0
LINE
  5
3665
  8
0
 10
715.17295288480443
 20
589.85932999217914
 30
0.0
 11
715.17295288480443
 21
566.88891477919071
 31
0.0
  0
LINE
  5
3666
  8
0
 10
698.89295288480446
 20
581.28891477919058
 30
0.0
 11
698.89295288480446
 21
571.20891477919065
 31
0.0
  0
LINE
  5
3667
  8
0
 10
688.0929528848045
 20
545.28891477919046
 30
0.0
 11
702.49295288480437
 21
545.28891477919058
 31
0.0
  0
LINE
  5
3668
  8
0
 10
688.0929528848045
 20
571.20891477919065
 30
0.0
 11
702.49295288480437
 21
571.20891477919065
 31
0.0
  0
LINE
  5
3669
  8
0
 10
673.69295288480441
 20
538.08891477919065
 30
0.0
 11
713.73295288480426
 21
538.08891477919065
 31
0.0
  0
CIRCLE
  5
366A
  8
0
 10
695.29295288480444
 20
577.68891477919055
 30
0.0
 40
1.4399999999999991
  0
LINE
  5
366B
  8
0
 10
673.69295288480441
 20
564.00891477919072
 30
0.0
 11
673.69295288480441
 21
538.08891477919065
 31
0.0
  0
LINE
  5
366C
  8
0
 10
688.0929528848045
 20
571.20891477919065
 30
0.0
 11
688.0929528848045
 21
545.28891477919058
 31
0.0
  0
LINE
  5
366D
  8
0
 10
673.69295288480441
 20
564.00891477919072
 30
0.0
 11
688.0929528848045
 21
564.00891477919072
 31
0.0
  0
LINE
  5
366E
  8
0
 10
702.49295288480437
 20
571.20891477919065
 30
0.0
 11
702.49295288480437
 21
545.28891477919058
 31
0.0
  0
ARC
  5
366F
  8
0
 10
713.73295288480426
 20
536.6489147791907
 30
0.0
 40
1.4399999999999991
 50
0.0
 51
90.0
  0
LINE
  5
3670
  8
0
 10
715.17295288480443
 20
536.6489147791907
 30
0.0
 11
715.17295288480443
 21
534.91887304293448
 31
0.0
  0
LINE
  5
3671
  8
0
 10
712.29295288480444
 20
564.00891477919072
 30
0.0
 11
702.49295288480437
 21
564.00891477919072
 31
0.0
  0
ARC
  5
3672
  8
0
 10
712.29295288480444
 20
566.88891477919071
 30
0.0
 40
2.879999999999999
 50
270.0
 51
0.0
  0
LINE
  5
3673
  8
0
 10
691.69295288480441
 20
581.28891477919058
 30
0.0
 11
698.89295288480446
 21
581.28891477919058
 31
0.0
  0
LINE
  5
3674
  8
0
 10
727.21295288480439
 20
597.05932999217919
 30
0.0
 11
727.21295288480439
 21
589.85932999217925
 31
0.0
  0
LINE
  5
3675
  8
0
 10
727.21295288480439
 20
604.25932999217923
 30
0.0
 11
727.21295288480439
 21
605.51615429060575
 31
0.0
  0
LINE
  5
3676
  8
0
 10
795.17295288480443
 20
542.44891477919066
 30
0.0
 11
795.17295288480443
 21
484.84891477919069
 31
0.0
  0
LINE
  5
3677
  8
0
 10
789.41295288480444
 20
542.44891477919066
 30
0.0
 11
789.41295288480444
 21
484.84891477919069
 31
0.0
  0
LINE
  5
3678
  8
0
 10
789.41295288480444
 20
484.84891477919069
 30
0.0
 11
795.17295288480443
 21
484.84891477919069
 31
0.0
  0
LINE
  5
3679
  8
0
 10
752.67295288480443
 20
477.60891477919063
 30
0.0
 11
765.17295288480443
 21
473.58506977173897
 31
0.0
  0
LINE
  5
367A
  8
0
 10
752.67295288480443
 20
477.60891477919068
 30
0.0
 11
752.67295288480454
 21
461.76891477919071
 31
0.0
  0
LINE
  5
367C
  8
0
 10
765.17295288480443
 20
483.40891477919058
 30
0.0
 11
765.17295288480443
 21
461.7689147791906
 31
0.0
  0
LINE
  5
3681
  8
0
 10
768.05295288480454
 20
486.28891477919058
 30
0.0
 11
787.97295288480427
 21
486.28891477919058
 31
0.0
  0
ARC
  5
3682
  8
0
 10
768.05295288480454
 20
483.40891477919058
 30
0.0
 40
2.879999999999999
 50
90.0
 51
180.0
  0
LINE
  5
3683
  8
0
 10
789.41295288480444
 20
484.84891477919069
 30
0.0
 11
787.97295288480427
 21
486.28891477919058
 31
0.0
  0
ARC
  5
3684
  8
0
 10
792.92348826880254
 20
513.16891477919046
 30
0.0
 40
38.35053538399832
 50
149.48486915244379
 51
210.51513084755609
  0
LINE
  5
3685
  8
0
 10
789.41295288480444
 20
542.44891477919066
 30
0.0
 11
795.17295288480443
 21
542.44891477919066
 31
0.0
  0
LINE
  5
3686
  8
0
 10
765.17295288480443
 20
589.85932999217925
 30
0.0
 11
765.17295288480454
 21
543.8889147791906
 31
0.0
  0
LINE
  5
3687
  8
0
 10
777.85295288480438
 20
597.0593299921793
 30
0.0
 11
777.85295288480438
 21
550.37396731445267
 31
0.0
  0
LINE
  5
3688
  8
0
 10
785.05295288480431
 20
608.55649255291792
 30
0.0
 11
785.05295288480431
 21
544.05932999217885
 31
0.0
  0
LINE
  5
3689
  8
0
 10
768.05295288480454
 20
541.00891477919049
 30
0.0
 11
787.97295288480427
 21
541.00891477919049
 31
0.0
  0
ARC
  5
368A
  8
0
 10
768.05295288480454
 20
543.8889147791906
 30
0.0
 40
2.879999999999999
 50
180.0
 51
270.0
  0
LINE
  5
368B
  8
0
 10
778.05894001505487
 20
549.30436216655278
 30
0.0
 11
780.37087391438445
 21
543.52452741822913
 31
0.0
  0
LINE
  5
368C
  8
0
 10
781.70788034925909
 20
542.61932999217902
 30
0.0
 11
783.61295288480449
 21
542.61932999217902
 31
0.0
  0
ARC
  5
368D
  8
0
 10
781.70788034925909
 20
544.05932999217885
 30
0.0
 40
1.4399999999999991
 50
201.80140948635119
 51
270.0
  0
ARC
  5
368E
  8
0
 10
783.61295288480437
 20
544.05932999217885
 30
0.0
 40
1.4399999999999991
 50
270.0
 51
0.0
  0
LINE
  5
368F
  8
0
 10
789.41295288480444
 20
542.44891477919066
 30
0.0
 11
787.97295288480427
 21
541.00891477919049
 31
0.0
  0
ARC
  5
3690
  8
0
 10
780.73295288480426
 20
550.37396731445267
 30
0.0
 40
2.879999999999999
 50
180.0
 51
201.80140948635119
  0
LINE
  5
3691
  8
0
 10
774.97295288480427
 20
599.93932999217918
 30
0.0
 11
731.53295288480433
 21
599.93932999217918
 31
0.0
  0
LINE
  5
3692
  8
0
 10
778.4250552099702
 20
615.73372732193172
 30
0.0
 11
740.17295288480443
 21
618.6489147791907
 31
0.0
  0
CIRCLE
  5
3693
  8
0
 10
731.53295288480433
 20
604.25932999217923
 30
0.0
 40
2.879999999999999
  0
LINE
  5
3694
  8
0
 10
743.05295288480443
 20
599.93932999217918
 30
0.0
 11
743.05295288480443
 21
597.05932999217919
 31
0.0
  0
LINE
  5
3695
  8
0
 10
737.29295288480444
 20
599.93932999217918
 30
0.0
 11
737.29295288480444
 21
597.05932999217919
 31
0.0
  0
LINE
  5
3696
  8
0
 10
753.13295288480435
 20
597.05932999217919
 30
0.0
 11
753.13295288480435
 21
589.85932999217925
 31
0.0
  0
LINE
  5
3697
  8
0
 10
735.14153191437595
 20
616.20056316883245
 30
0.0
 11
728.28182156367063
 21
608.36089419659788
 31
0.0
  0
CIRCLE
  5
3698
  8
0
 10
740.17295288480443
 20
610.01932999217922
 30
0.0
 40
1.4399999999999991
  0
ARC
  5
3699
  8
0
 10
740.56008411626556
 20
611.45932999217905
 30
0.0
 40
7.1999999999999993
 50
90.0
 51
138.8140748342928
  0
ARC
  5
369A
  8
0
 10
774.97295288480427
 20
597.0593299921793
 30
0.0
 40
2.879999999999999
 50
0.0
 51
90.0
  0
ARC
  5
369B
  8
0
 10
777.85295288480415
 20
608.55649255291792
 30
0.0
 40
7.1999999999999993
 50
0.0
 51
85.442550030914688
  0
LINE
  5
395E
  8
0
 10
1062.5443124943949
 20
610.86929445583826
 30
0.0
 11
1062.5443124943949
 21
560.29942489183304
 31
0.0
  0
LINE
  5
395F
  8
0
 10
1074.3437457212331
 20
619.06976895410776
 30
0.0
 11
1074.3437457212331
 21
568.09535344975791
 31
0.0
  0
LINE
  5
3960
  8
0
 10
1082.5442202195029
 20
632.16451734046825
 30
0.0
 11
1082.5442202195029
 21
560.90326701543484
 31
0.0
  0
LINE
  5
3961
  8
0
 10
991.15462616779394
 20
589.62731468691459
 30
0.0
 11
991.15462616779394
 21
560.10560649314448
 31
0.0
  0
LINE
  5
3962
  8
0
 10
974.75367717125505
 20
589.62731468691459
 30
0.0
 11
974.75367717125505
 21
560.10560649314448
 31
0.0
  0
LINE
  5
3963
  8
0
 10
958.35272817471605
 20
581.42684018864531
 30
0.0
 11
958.35272817471605
 21
551.90513199487521
 31
0.0
  0
ARC
  5
3964
  8
0
 10
1034.1439302039009
 20
721.98777668029857
 30
0.0
 40
14.76085409688497
 50
26.38779996124341
 51
153.61220003875661
  0
ARC
  5
3965
  8
0
 10
1034.1439302039009
 20
721.98777668029857
 30
0.0
 40
14.76085409688497
 50
206.38779996124339
 51
333.61220003875661
  0
ARC
  5
3969
  8
0
 10
1034.1439302039009
 20
721.98777668029857
 30
0.0
 40
28.473869785657911
 50
13.32062255524769
 51
346.67937744475228
  0
LINE
  5
396A
  8
0
 10
1019.383076107016
 20
715.42739708168313
 30
0.0
 11
1079.264030420195
 21
715.42739708168301
 31
0.0
  0
LINE
  5
396B
  8
0
 10
1019.383076107016
 20
717.06749198133707
 30
0.0
 11
1073.355249506013
 21
717.06749198133707
 31
0.0
  0
LINE
  5
396C
  8
0
 10
1019.383076107016
 20
728.54815627891423
 30
0.0
 11
1079.264030420195
 21
728.54815627891423
 31
0.0
  0
LINE
  5
396D
  8
0
 10
1019.383076107016
 20
726.9080613792604
 30
0.0
 11
1073.355249506013
 21
726.9080613792604
 31
0.0
  0
LINE
  5
396F
  8
0
 10
958.35272817471605
 20
736.74863077718385
 30
0.0
 11
974.75367717125505
 21
736.74863077718385
 31
0.0
  0
LINE
  5
3970
  8
0
 10
958.35272817471605
 20
707.22692258341363
 30
0.0
 11
974.75367717125505
 21
707.22692258341363
 31
0.0
  0
LINE
  5
3971
  8
0
 10
958.35272817471605
 20
707.22692258341363
 30
0.0
 11
974.75367717125505
 21
707.22692258341363
 31
0.0
  0
LINE
  5
3973
  8
0
 10
958.35272817471605
 20
736.74863077718385
 30
0.0
 11
958.35272817471605
 21
707.22692258341363
 31
0.0
  0
LINE
  5
3974
  8
0
 10
991.15462616779405
 20
736.74863077718385
 30
0.0
 11
1009.794834801791
 21
736.74863077718385
 31
0.0
  0
LINE
  5
3975
  8
0
 10
991.15462616779394
 20
707.22692258341363
 30
0.0
 11
1006.590449400225
 21
707.22692258341363
 31
0.0
  0
LINE
  5
3976
  8
0
 10
991.15462616779394
 20
707.22692258341363
 30
0.0
 11
1009.794834801791
 21
707.22692258341363
 31
0.0
  0
LINE
  5
3977
  8
0
 10
991.15462616779394
 20
738.38872567683768
 30
0.0
 11
991.15462616779394
 21
705.58682768375979
 31
0.0
  0
LINE
  5
3978
  8
0
 10
974.75367717125505
 20
738.38872567683757
 30
0.0
 11
974.75367717125505
 21
705.58682768375979
 31
0.0
  0
LINE
  5
3979
  8
0
 10
974.75367717125505
 20
705.58682768375979
 30
0.0
 11
991.15462616779394
 21
705.58682768375979
 31
0.0
  0
LINE
  5
397A
  8
0
 10
987.05438891865901
 20
717.88753943116387
 30
0.0
 11
978.85391442038963
 21
717.88753943116387
 31
0.0
  0
LINE
  5
397B
  8
0
 10
987.05438891865901
 20
726.08801392943349
 30
0.0
 11
978.85391442038963
 21
726.08801392943349
 31
0.0
  0
CIRCLE
  5
397C
  8
0
 10
982.95415166952432
 20
721.98777668029857
 30
0.0
 40
4.1002372491347394
  0
LINE
  5
397D
  8
0
 10
974.75367717125505
 20
738.38872567683757
 30
0.0
 11
991.15462616779394
 21
738.38872567683757
 31
0.0
  0
LINE
  5
397E
  8
0
 10
978.85391442038963
 20
726.08801392943349
 30
0.0
 11
978.85391442038963
 21
717.88753943116387
 31
0.0
  0
LINE
  5
397F
  8
0
 10
987.05438891865901
 20
726.08801392943349
 30
0.0
 11
987.05438891865901
 21
717.88753943116387
 31
0.0
  0
LINE
  5
3980
  8
0
 10
1019.383076107016
 20
715.42739708168313
 30
0.0
 11
1019.383076107016
 21
717.06749198133684
 31
0.0
  0
ARC
  5
3981
  8
0
 10
1024.3033608059779
 20
717.88753943116399
 30
0.0
 40
4.1002372491347661
 50
216.86989764584661
 51
323.13010235415339
  0
LINE
  5
3982
  8
0
 10
1033.323882754074
 20
712.14720728237535
 30
0.0
 11
1034.9639776537281
 21
712.14720728237535
 31
0.0
  0
LINE
  5
3983
  8
0
 10
1033.323882754074
 20
712.14720728237535
 30
0.0
 11
1033.323882754074
 21
715.42739708168313
 31
0.0
  0
LINE
  5
3984
  8
0
 10
1034.9639776537281
 20
712.14720728237535
 30
0.0
 11
1034.9639776537281
 21
715.42739708168313
 31
0.0
  0
ARC
  5
3985
  8
0
 10
1034.1439302039009
 20
721.98777668029857
 30
0.0
 40
14.76085409688497
 50
160.52877936551121
 51
199.47122063448879
  0
LINE
  5
3986
  8
0
 10
1019.383076107016
 20
728.54815627891423
 30
0.0
 11
1019.383076107016
 21
726.9080613792604
 31
0.0
  0
LINE
  5
3987
  8
0
 10
1033.323882754074
 20
728.54815627891435
 30
0.0
 11
1033.323882754074
 21
731.82834607822213
 31
0.0
  0
LINE
  5
3988
  8
0
 10
1034.9639776537281
 20
728.54815627891435
 30
0.0
 11
1034.9639776537281
 21
731.82834607822213
 31
0.0
  0
CIRCLE
  5
3989
  8
0
 10
1034.1439302039009
 20
721.98777668029857
 30
0.0
 40
3.280189799307744
  0
LINE
  5
398A
  8
0
 10
1025.1234082558051
 20
728.54815627891423
 30
0.0
 11
1025.1234082558051
 21
729.36820372874115
 31
0.0
  0
LINE
  5
398B
  8
0
 10
1023.483313356151
 20
728.54815627891423
 30
0.0
 11
1023.483313356151
 21
729.36820372874115
 31
0.0
  0
LINE
  5
398C
  8
0
 10
1023.483313356151
 20
729.36820372874115
 30
0.0
 11
1025.1234082558051
 21
729.36820372874115
 31
0.0
  0
LINE
  5
398D
  8
0
 10
1025.1234082558051
 20
717.06749198133707
 30
0.0
 11
1025.1234082558051
 21
726.9080613792604
 31
0.0
  0
LINE
  5
398E
  8
0
 10
1023.483313356151
 20
717.06749198133684
 30
0.0
 11
1023.483313356151
 21
726.9080613792604
 31
0.0
  0
LINE
  5
398F
  8
0
 10
1033.323882754074
 20
725.16380679657834
 30
0.0
 11
1033.323882754074
 21
726.9080613792604
 31
0.0
  0
LINE
  5
3990
  8
0
 10
1034.9639776537281
 20
725.16380679657834
 30
0.0
 11
1034.9639776537281
 21
726.9080613792604
 31
0.0
  0
LINE
  5
3991
  8
0
 10
1033.323882754074
 20
717.06749198133707
 30
0.0
 11
1033.323882754074
 21
718.81174656401913
 31
0.0
  0
LINE
  5
3992
  8
0
 10
1034.9639776537281
 20
717.06749198133718
 30
0.0
 11
1034.9639776537281
 21
718.81174656401913
 31
0.0
  0
LINE
  5
3993
  8
0
 10
1033.323882754074
 20
731.82834607822224
 30
0.0
 11
1034.9639776537281
 21
731.82834607822213
 31
0.0
  0
ARC
  5
399A
  8
0
 10
1034.1439302039009
 20
721.98777668029857
 30
0.0
 40
14.76085409688497
 50
340.52877936551118
 51
19.471220634488802
  0
ARC
  5
399B
  8
0
 10
1034.1439302039009
 20
721.98777668029857
 30
0.0
 40
28.473869785657911
 50
350.0493429473409
 51
9.9506570526591247
  0
LINE
  5
399C
  8
0
 10
1074.9953444056671
 20
718.7075868809909
 30
0.0
 11
1074.9953444056671
 21
725.26796647960646
 31
0.0
  0
ARC
  5
399D
  8
0
 10
1073.355249506013
 20
725.26796647960646
 30
0.0
 40
1.6400948996538951
 50
0.0
 51
90.0
  0
ARC
  5
399E
  8
0
 10
1073.355249506013
 20
718.7075868809909
 30
0.0
 40
1.6400948996538951
 50
270.0
 51
0.0
  0
ARC
  5
399F
  8
0
 10
1079.264030420195
 20
718.70758688099068
 30
0.0
 40
3.2801897993077911
 50
270.0
 51
0.0
  0
LINE
  5
39A0
  8
0
 10
1082.5442202195029
 20
718.70758688099068
 30
0.0
 11
1082.5442202195029
 21
725.26796647960634
 31
0.0
  0
ARC
  5
39A1
  8
0
 10
1079.264030420195
 20
725.26796647960634
 30
0.0
 40
3.2801897993077911
 50
0.0
 51
90.0
  0
ARC
  5
39AA
  8
0
 10
1034.0704427087369
 20
431.55557570082749
 30
0.0
 40
120.3495562940476
 50
80.051975975531676
 51
99.94802402446831
  0
LINE
  5
39B1
  8
0
 10
958.35272817471605
 20
551.90513199487521
 30
0.0
 11
996.65433248102931
 21
551.90513199487521
 31
0.0
  0
LINE
  5
39C9
  8
0
 10
1017.820442708737
 20
483.02114620941069
 30
0.0
 11
1005.579739560881
 21
478.43274987098249
 31
0.0
  0
LINE
  5
39CB
  8
0
 10
974.75367717125505
 20
560.10560649314436
 30
0.0
 11
991.15462616779394
 21
560.10560649314448
 31
0.0
  0
ARC
  5
39CC
  8
0
 10
994.87756300640444
 20
548.29459777034629
 30
0.0
 40
3.4168643742789491
 50
313.07278134674931
 51
0.0
  0
LINE
  5
39CD
  8
0
 10
998.29442738068337
 20
550.26503709522285
 30
0.0
 11
998.29442738068337
 21
548.29459777034629
 31
0.0
  0
ARC
  5
39CE
  8
0
 10
996.65433248102931
 20
550.26503709522285
 30
0.0
 40
1.6400948996538951
 50
0.0
 51
90.0
  0
LINE
  5
39D3
  8
0
 10
1087.5100631101211
 20
558.6593299921791
 30
0.0
 11
1087.5100631101211
 21
488.6593299921791
 31
0.0
  0
LINE
  5
39D4
  8
0
 10
1094.0704427087369
 20
558.6593299921791
 30
0.0
 11
1094.0704427087369
 21
488.6593299921791
 31
0.0
  0
ARC
  5
39D5
  8
0
 10
1094.150917734645
 20
523.11263169229426
 30
0.0
 40
43.67952602936937
 50
149.48486915244379
 51
210.51513084755609
  0
LINE
  5
39D6
  8
0
 10
1070.5704427087369
 20
490.29942489183298
 30
0.0
 11
1085.8699682104671
 21
490.29942489183298
 31
0.0
  0
LINE
  5
39D7
  8
0
 10
1050.2654089512739
 20
482.6113993091746
 30
0.0
 11
1062.5443124943949
 21
478.43816865821748
 31
0.0
  0
LINE
  5
39D9
  8
0
 10
1087.5100631101211
 20
488.6593299921791
 30
0.0
 11
1094.0704427087369
 21
488.6593299921791
 31
0.0
  0
LINE
  5
39DA
  8
0
 10
1087.5100631101211
 20
488.6593299921791
 30
0.0
 11
1085.8699682104671
 21
490.29942489183298
 31
0.0
  0
LINE
  5
39DB
  8
0
 10
1065.8245022937031
 20
557.01923509252504
 30
0.0
 11
1085.8699682104671
 21
557.01923509252515
 31
0.0
  0
LINE
  5
39DC
  8
0
 10
1074.5783557502041
 20
566.87712154162307
 30
0.0
 11
1077.2115439423069
 21
560.29415106136753
 31
0.0
  0
ARC
  5
39DD
  8
0
 10
1065.8245022937031
 20
560.29942489183304
 30
0.0
 40
3.2801897993077911
 50
180.0
 51
270.0
  0
ARC
  5
39DE
  8
0
 10
1077.623935520541
 20
568.09535344975791
 30
0.0
 40
3.2801897993077911
 50
180.0
 51
201.80140948635119
  0
LINE
  5
39DF
  8
0
 10
1078.734333827475
 20
559.26317211578089
 30
0.0
 11
1080.9041253198491
 21
559.26317211578089
 31
0.0
  0
ARC
  5
39E0
  8
0
 10
1078.734333827475
 20
560.90326701543484
 30
0.0
 40
1.6400948996538951
 50
201.80140948635119
 51
270.0
  0
ARC
  5
39E1
  8
0
 10
1080.9041253198491
 20
560.90326701543484
 30
0.0
 40
1.6400948996538951
 50
270.0
 51
0.0
  0
LINE
  5
39E2
  8
0
 10
1087.5100631101211
 20
558.6593299921791
 30
0.0
 11
1094.0704427087369
 21
558.6593299921791
 31
0.0
  0
LINE
  5
39E3
  8
0
 10
1087.5100631101211
 20
558.6593299921791
 30
0.0
 11
1085.8699682104671
 21
557.01923509252515
 31
0.0
  0
LINE
  5
39E4
  8
0
 10
1074.9953444056671
 20
640.33906326982822
 30
0.0
 11
1034.0704427087369
 21
643.65932999217921
 31
0.0
  0
LINE
  5
39E5
  8
0
 10
1071.0635559219249
 20
622.34995875341565
 30
0.0
 11
1024.2298733108139
 21
622.34995875341565
 31
0.0
  0
LINE
  5
39E6
  8
0
 10
1005.59657292308
 20
610.86929445583826
 30
0.0
 11
1062.5443124943949
 21
610.86929445583826
 31
0.0
  0
LINE
  5
39E7
  8
0
 10
1019.309588611852
 20
619.06976895410764
 30
0.0
 11
1048.8312968056221
 21
619.06976895410764
 31
0.0
  0
LINE
  5
39E8
  8
0
 10
958.35272817471605
 20
581.42684018864531
 30
0.0
 11
974.75367717125505
 21
581.42684018864531
 31
0.0
  0
CIRCLE
  5
39E9
  8
0
 10
1024.2298733108139
 20
627.27024345237714
 30
0.0
 40
3.2801897993077911
  0
LINE
  5
39EA
  8
0
 10
1019.309588611852
 20
627.27024345237714
 30
0.0
 11
1019.309588611852
 21
628.70170950905117
 31
0.0
  0
ARC
  5
39EB
  8
0
 10
1002.316383123772
 20
584.70702998795309
 30
0.0
 40
3.2801897993077911
 50
270.0
 51
0.0
  0
LINE
  5
39EC
  8
0
 10
987.05438891865901
 20
601.10797898449187
 30
0.0
 11
987.05438891865901
 21
589.62731468691459
 31
0.0
  0
LINE
  5
39ED
  8
0
 10
978.85391442038963
 20
601.10797898449187
 30
0.0
 11
978.85391442038963
 21
589.62731468691459
 31
0.0
  0
LINE
  5
39EE
  8
0
 10
974.75367717125505
 20
589.62731468691459
 30
0.0
 11
991.15462616779394
 21
589.62731468691459
 31
0.0
  0
CIRCLE
  5
39EF
  8
0
 10
982.95415166952432
 20
597.00774173535717
 30
0.0
 40
1.6400948996538951
  0
LINE
  5
39F0
  8
0
 10
1002.316383123772
 20
581.42684018864531
 30
0.0
 11
991.15462616779394
 21
581.42684018864531
 31
0.0
  0
LINE
  5
39F1
  8
0
 10
978.85391442038963
 20
601.10797898449187
 30
0.0
 11
987.05438891865901
 21
601.10797898449187
 31
0.0
  0
LINE
  5
39F2
  8
0
 10
1005.59657292308
 20
610.86929445583826
 30
0.0
 11
1005.59657292308
 21
584.70702998795309
 31
0.0
  0
ARC
  5
39F3
  8
0
 10
1024.2298733108139
 20
627.27024345237714
 30
0.0
 40
4.9202846989616864
 50
180.0
 51
270.0
  0
LINE
  5
39F4
  8
0
 10
1019.309588611852
 20
619.06976895410764
 30
0.0
 11
1019.309588611852
 21
610.86929445583826
 31
0.0
  0
LINE
  5
39F5
  8
0
 10
1030.790252909429
 20
622.34995875341565
 30
0.0
 11
1030.790252909429
 21
619.06976895410764
 31
0.0
  0
LINE
  5
39F6
  8
0
 10
1037.350632508045
 20
622.34995875341565
 30
0.0
 11
1037.350632508045
 21
619.06976895410764
 31
0.0
  0
LINE
  5
39F7
  8
0
 10
1028.339881686785
 20
640.87076819446543
 30
0.0
 11
1020.526981715052
 21
631.94173965534264
 31
0.0
  0
ARC
  5
39F8
  8
0
 10
1024.2298733108139
 20
628.70170950905117
 30
0.0
 40
4.9202846989616864
 50
138.8140748342928
 51
180.0
  0
CIRCLE
  5
39F9
  8
0
 10
1034.0704427087369
 20
633.83062305099281
 30
0.0
 40
1.6400948996538951
  0
ARC
  5
39FA
  8
0
 10
1034.5113676797209
 20
635.47071795064664
 30
0.0
 40
8.2004744982694788
 50
90.0
 51
138.8140748342928
  0
LINE
  5
39FB
  8
0
 10
1048.8312968056221
 20
619.06976895410764
 30
0.0
 11
1048.8312968056221
 21
610.86929445583826
 31
0.0
  0
ARC
  5
39FC
  8
0
 10
1071.0635559219249
 20
619.06976895410776
 30
0.0
 40
3.2801897993077911
 50
0.0
 51
90.0
  0
ARC
  5
39FD
  8
0
 10
1074.3437457212331
 20
632.16451734046825
 30
0.0
 40
8.2004744982694788
 50
0.0
 51
85.442550030914688
  0
LINE
  5
3A71
  8
0
 10
1001.570442708737
 20
464.98010231321859
 30
0.0
 11
1066.5704427087369
 21
464.98010231321859
 31
0.0
  0
LINE
  5
3A72
  8
0
 10
1001.570442708737
 20
464.98010231321859
 30
0.0
 11
1001.570442708737
 21
476.36225711120801
 31
0.0
  0
ARC
  5
3A75
  8
0
 10
1034.0704427087369
 20
514.18294930283537
 30
0.0
 40
48.56096229954084
 50
139.3790929946145
 51
226.01804925218741
  0
ARC
  5
3AEF
  8
0
 10
1035.074451697888
 20
562.45151131412342
 30
0.0
 40
81.282739415361974
 50
257.74449876919113
 51
280.81085358271412
  0
LINE
  5
3AF0
  8
0
 10
1017.820442708737
 20
483.02114620941069
 30
0.0
 11
1017.820442708737
 21
464.98010231321859
 31
0.0
  0
LINE
  5
3AF1
  8
0
 10
1050.2848482867901
 20
482.6041437722314
 30
0.0
 11
1050.2848482867901
 21
464.98010231321859
 31
0.0
  0
LINE
  5
3AF2
  8
0
 10
1066.5704427087369
 20
464.98010231321859
 30
0.0
 11
1066.5704427087369
 21
486.29942489183298
 31
0.0
  0
LINE
  5
3AFA
  8
0
 10
1062.3988636330371
 20
464.98010231321859
 30
0.0
 11
1061.5763394980049
 21
438.6593299921791
 31
0.0
  0
LINE
  5
3AFB
  8
0
 10
1005.742021784437
 20
464.98010231321859
 30
0.0
 11
1006.56454591947
 21
438.6593299921791
 31
0.0
  0
LINE
  5
3AFC
  8
0
 10
1063.8774427087369
 20
464.98010231321859
 30
0.0
 11
1063.054918573705
 21
438.6593299921791
 31
0.0
  0
LINE
  5
3AFD
  8
0
 10
1004.263442708738
 20
464.98010231321859
 30
0.0
 11
1005.0859668437701
 21
438.6593299921791
 31
0.0
  0
LINE
  5
3B07
  8
0
 10
1005.0859668437701
 20
438.6593299921791
 30
0.0
 11
1063.054918573705
 21
438.6593299921791
 31
0.0
  0
ARC
  5
3B12
  8
0
 10
998.69044270873735
 20
476.36225711120801
 30
0.0
 40
2.879999999999999
 50
0.0
 51
90.0
  0
POLYLINE
  5
3B13
  8
0
 66
     1
 10
0.0
 20
0.0
 30
0.0
  0
VERTEX
  5
4219
  8
0
 10
985.12538429774509
 20
505.16225711120808
 30
0.0
  0
VERTEX
  5
421A
  8
0
 10
985.12538429774509
 20
479.242257111208
 30
0.0
  0
SEQEND
  5
421B
  8
0
  0
LINE
  5
3B14
  8
0
 10
977.20538429774513
 20
501.28721711120789
 30
0.0
 11
977.20538429774513
 21
483.1172971112079
 31
0.0
  0
ARC
  5
3B15
  8
0
 10
996.65327461238951
 20
492.20225711120798
 30
0.0
 40
19.227553069204699
 50
163.68029689768821
 51
196.31970310231171
  0
LINE
  5
3B16
  8
0
 10
978.20042429774503
 20
481.39505711120802
 30
0.0
 11
985.12538429774509
 21
481.39505711120802
 31
0.0
  0
LINE
  5
3B17
  8
0
 10
978.20042429774503
 20
486.79937711120789
 30
0.0
 11
985.12538429774509
 21
486.79937711120789
 31
0.0
  0
LINE
  5
3B18
  8
0
 10
977.20538429774513
 20
483.1172971112079
 30
0.0
 11
978.20042429774503
 21
481.39505711120802
 31
0.0
  0
ARC
  5
3B19
  8
0
 10
982.52468441251983
 20
484.0972171112079
 30
0.0
 40
5.0991071969347352
 50
147.99940553495529
 51
212.0005944650419
  0
LINE
  5
3B1A
  8
0
 10
985.12538429774509
 20
479.242257111208
 30
0.0
 11
998.69044270873735
 21
479.242257111208
 31
0.0
  0
LINE
  5
3B1B
  8
0
 10
985.12538429774509
 20
503.0108971112079
 30
0.0
 11
978.20042429774503
 21
503.0108971112079
 31
0.0
  0
LINE
  5
3B1C
  8
0
 10
978.20042429774503
 20
497.60513711120802
 30
0.0
 11
985.12538429774509
 21
497.60513711120802
 31
0.0
  0
LINE
  5
3B1D
  8
0
 10
978.20042429774503
 20
497.60513711120802
 30
0.0
 11
977.93546429774517
 21
498.08609711120801
 31
0.0
  0
LINE
  5
3B1E
  8
0
 10
977.45882429774485
 20
500.89121711120788
 30
0.0
 11
977.55818429774524
 21
501.46289711120801
 31
0.0
  0
LINE
  5
3B1F
  8
0
 10
977.42570429774514
 20
500.3080171112079
 30
0.0
 11
977.45882429774485
 21
500.89121711120788
 31
0.0
  0
LINE
  5
3B20
  8
0
 10
977.45882429774485
 20
499.72481711120793
 30
0.0
 11
977.42570429774514
 21
500.3080171112079
 31
0.0
  0
LINE
  5
3B21
  8
0
 10
977.55818429774524
 20
499.15313711120791
 30
0.0
 11
977.45882429774485
 21
499.72481711120793
 31
0.0
  0
LINE
  5
3B22
  8
0
 10
977.71802429774505
 20
498.60449711120788
 30
0.0
 11
977.55818429774524
 21
499.15313711120791
 31
0.0
  0
LINE
  5
3B23
  8
0
 10
977.55818429774524
 20
501.46289711120801
 30
0.0
 11
977.71802429774505
 21
502.01297711120787
 31
0.0
  0
LINE
  5
3B24
  8
0
 10
977.93546429774517
 20
498.08609711120801
 30
0.0
 11
977.71802429774505
 21
498.60449711120788
 31
0.0
  0
LINE
  5
3B25
  8
0
 10
978.20042429774503
 20
503.0108971112079
 30
0.0
 11
977.20538429774513
 21
501.28721711120789
 31
0.0
  0
LINE
  5
3B26
  8
0
 10
977.71802429774505
 20
502.01297711120787
 30
0.0
 11
978.20042429774503
 21
503.0108971112079
 31
0.0
  0
LINE
  5
3B27
  8
0
 10
986.35467831329572
 20
505.16225711120779
 30
0.0
 11
985.12538429774509
 21
505.16225711120808
 31
0.0
  0
ARC
  5
3B2B
  8
0
 10
1034.1439302039009
 20
721.98777668029857
 30
0.0
 40
48.560962299540748
 50
199.7392042163149
 51
314.70061872985838
  0
ARC
  5
3B30
  8
0
 10
1034.1439302039009
 20
721.98777668029857
 30
0.0
 40
48.560962299540748
 50
45.299381270141183
 51
160.26079578368501
  0
ARC
  5
3C19
  8
0
 10
1070.5704427087369
 20
486.29942489183298
 30
0.0
 40
4.0
 50
90.0
 51
180.0000000000006
  0
LINE
  5
3C1A
  8
0
 10
1087.5100631101211
 20
756.98777668029868
 30
0.0
 11
1085.8699682104671
 21
755.34768178064462
 31
0.0
  0
LINE
  5
3C1B
  8
0
 10
1094.0704427087369
 20
756.98777668029868
 30
0.0
 11
1094.0704427087369
 21
686.98777668029868
 31
0.0
  0
LINE
  5
3C1C
  8
0
 10
1087.5100631101211
 20
756.98777668029868
 30
0.0
 11
1087.5100631101211
 21
686.98777668029868
 31
0.0
  0
LINE
  5
3C1D
  8
0
 10
1071.1154361070551
 20
688.62787157995251
 30
0.0
 11
1085.8699682104671
 21
688.62787157995251
 31
0.0
  0
LINE
  5
3C1E
  8
0
 10
1087.5100631101211
 20
686.98777668029868
 30
0.0
 11
1094.0704427087369
 21
686.98777668029868
 31
0.0
  0
LINE
  5
3C1F
  8
0
 10
1087.5100631101211
 20
686.98777668029868
 30
0.0
 11
1085.8699682104671
 21
688.62787157995251
 31
0.0
  0
LINE
  5
3C20
  8
0
 10
1071.115436107056
 20
755.34768178064462
 30
0.0
 11
1085.8699682104671
 21
755.34768178064462
 31
0.0
  0
LINE
  5
3C21
  8
0
 10
1087.5100631101211
 20
756.98777668029868
 30
0.0
 11
1094.0704427087369
 21
756.98777668029868
 31
0.0
  0
ARC
  5
3C22
  8
0
 10
1071.1154361070551
 20
684.62787157995251
 30
0.0
 40
4.0
 50
90.0
 51
134.7006187298571
  0
ARC
  5
3C23
  8
0
 10
1071.115436107056
 20
759.34768178064462
 30
0.0
 40
4.0
 50
225.29938127014171
 51
270.0
  0
LINE
  5
3C26
  8
0
 10
1407.6439395175551
 20
580.48608120988558
 30
0.0
 11
1405.6839440506619
 21
578.52608574299245
 31
0.0
  0
LINE
  5
3C27
  8
0
 10
1415.483921385126
 20
580.48608120988558
 30
0.0
 11
1415.483921385126
 21
496.83257877447278
 31
0.0
  0
LINE
  5
3C28
  8
0
 10
1407.6439395175551
 20
580.48608120988558
 30
0.0
 11
1407.6439395175539
 21
496.83257877447278
 31
0.0
  0
ARC
  5
3C29
  8
0
 10
1378.4316113969139
 20
582.44607667677826
 30
0.0
 40
3.9199909337858618
 50
180.0
 51
270.0
  0
LINE
  5
3C2A
  8
0
 10
1249.9974639969021
 20
609.27364801957765
 30
0.0
 11
1249.9974639969021
 21
573.99372961550489
 31
0.0
  0
ARC
  5
3C2B
  8
0
 10
1340.571742618778
 20
774.76273857456965
 30
0.0
 40
58.032779685580273
 50
45.299381270141183
 51
160.26079578368501
  0
ARC
  5
3C2C
  8
0
 10
1340.571742618778
 20
774.76273857456965
 30
0.0
 40
58.032779685580273
 50
199.7392042163149
 51
314.70061872985838
  0
LINE
  5
3C2E
  8
0
 10
1269.597418665832
 20
755.16278390564025
 30
0.0
 11
1289.1973733347611
 21
755.16278390564025
 31
0.0
  0
LINE
  5
3C2F
  8
0
 10
1269.597418665832
 20
794.36269324349894
 30
0.0
 11
1289.1973733347611
 21
794.36269324349894
 31
0.0
  0
LINE
  5
3C30
  8
0
 10
1249.9974639969021
 20
792.40269777660615
 30
0.0
 11
1249.9974639969021
 21
757.12277937253316
 31
0.0
  0
LINE
  5
3C31
  8
0
 10
1269.597418665832
 20
794.36269324349894
 30
0.0
 11
1269.597418665832
 21
755.16278390564025
 31
0.0
  0
LINE
  5
3C32
  8
0
 10
1249.9974639969021
 20
757.12277937253316
 30
0.0
 11
1269.597418665832
 21
757.12277937253316
 31
0.0
  0
LINE
  5
3C33
  8
0
 10
1249.9974639969021
 20
757.12277937253316
 30
0.0
 11
1269.597418665832
 21
757.12277937253316
 31
0.0
  0
LINE
  5
3C34
  8
0
 10
1284.2973846675291
 20
779.66272724180203
 30
0.0
 11
1284.2973846675291
 21
769.86274990733727
 31
0.0
  0
LINE
  5
3C35
  8
0
 10
1274.4974073330641
 20
779.66272724180203
 30
0.0
 11
1274.4974073330641
 21
769.86274990733727
 31
0.0
  0
CIRCLE
  5
3C36
  8
0
 10
1279.397396000297
 20
774.76273857456965
 30
0.0
 40
4.8999886672323276
  0
LINE
  5
3C37
  8
0
 10
1284.2973846675291
 20
769.86274990733727
 30
0.0
 11
1274.4974073330641
 21
769.86274990733727
 31
0.0
  0
LINE
  5
3C38
  8
0
 10
1284.2973846675291
 20
779.66272724180203
 30
0.0
 11
1274.4974073330641
 21
779.66272724180203
 31
0.0
  0
LINE
  5
3C39
  8
0
 10
1249.9974639969021
 20
792.40269777660615
 30
0.0
 11
1269.597418665832
 21
792.40269777660615
 31
0.0
  0
LINE
  5
3C3A
  8
0
 10
1407.6439395175551
 20
816.58948979227591
 30
0.0
 11
1407.6439395175539
 21
732.93598735686317
 31
0.0
  0
LINE
  5
3C3B
  8
0
 10
1415.4839213851269
 20
816.58948979227591
 30
0.0
 11
1415.483921385126
 21
732.93598735686317
 31
0.0
  0
LINE
  5
3C3C
  8
0
 10
1339.591744885332
 20
763.00276577321222
 30
0.0
 11
1339.591744885332
 21
766.92275670699792
 31
0.0
  0
LINE
  5
3C3D
  8
0
 10
1341.5517403522249
 20
763.0027657732121
 30
0.0
 11
1341.5517403522249
 21
766.92275670699792
 31
0.0
  0
ARC
  5
3C3E
  8
0
 10
1340.571742618778
 20
774.76273857456965
 30
0.0
 40
17.63995920203627
 50
206.38779996124339
 51
333.61220003875661
  0
LINE
  5
3C3F
  8
0
 10
1289.1973733347611
 20
794.36269324349905
 30
0.0
 11
1289.1973733347611
 21
755.16278390564025
 31
0.0
  0
ARC
  5
3C40
  8
0
 10
1340.571742618778
 20
774.76273857456965
 30
0.0
 40
34.027699078002279
 50
13.32062255524769
 51
346.67937744475228
  0
LINE
  5
3C42
  8
0
 10
1289.1973733347611
 20
757.12277937253316
 30
0.0
 11
1307.643954425715
 21
757.12277937253316
 31
0.0
  0
LINE
  5
3C43
  8
0
 10
1289.1973733347611
 20
757.12277937253316
 30
0.0
 11
1311.4733553113419
 21
757.12277937253316
 31
0.0
  0
LINE
  5
3C44
  8
0
 10
1339.591744885332
 20
763.0027657732121
 30
0.0
 11
1341.5517403522249
 21
763.0027657732121
 31
0.0
  0
LINE
  5
3C45
  8
0
 10
1384.754542034641
 20
734.89598282375607
 30
0.0
 11
1405.6839440506619
 21
734.89598282375607
 31
0.0
  0
ARC
  5
3C46
  8
0
 10
1384.754542034641
 20
730.1157826845897
 30
0.0
 40
4.7802001391664417
 50
90.0
 51
134.7006187298571
  0
LINE
  5
3C47
  8
0
 10
1407.6439395175539
 20
732.93598735686317
 30
0.0
 11
1415.483921385126
 21
732.93598735686317
 31
0.0
  0
LINE
  5
3C48
  8
0
 10
1407.6439395175539
 20
732.93598735686317
 30
0.0
 11
1405.6839440506619
 21
734.89598282375607
 31
0.0
  0
LINE
  5
3C49
  8
0
 10
1322.9317834167421
 20
780.64272497524837
 30
0.0
 11
1387.4312311149929
 21
780.64272497524826
 31
0.0
  0
LINE
  5
3C4A
  8
0
 10
1322.9317834167421
 20
782.60272044214128
 30
0.0
 11
1394.4925199520619
 21
782.60272044214116
 31
0.0
  0
LINE
  5
3C4B
  8
0
 10
1322.9317834167421
 20
768.88275217389094
 30
0.0
 11
1387.4312311149929
 21
768.88275217389094
 31
0.0
  0
LINE
  5
3C4C
  8
0
 10
1322.9317834167421
 20
766.92275670699792
 30
0.0
 11
1394.4925199520619
 21
766.92275670699769
 31
0.0
  0
ARC
  5
3C4D
  8
0
 10
1340.571742618778
 20
774.76273857456965
 30
0.0
 40
17.63995920203627
 50
160.52877936551121
 51
199.47122063448879
  0
LINE
  5
3C4E
  8
0
 10
1322.9317834167421
 20
766.92275670699792
 30
0.0
 11
1322.9317834167421
 21
768.88275217389082
 31
0.0
  0
LINE
  5
3C4F
  8
0
 10
1322.9317834167421
 20
782.60272044214128
 30
0.0
 11
1322.9317834167421
 21
780.64272497524837
 31
0.0
  0
LINE
  5
3C50
  8
0
 10
1289.1973733347611
 20
792.40269777660615
 30
0.0
 11
1311.4733553113419
 21
792.40269777660615
 31
0.0
  0
ARC
  5
3C51
  8
0
 10
1340.571742618778
 20
774.76273857456965
 30
0.0
 40
17.63995920203627
 50
26.38779996124341
 51
153.61220003875661
  0
CIRCLE
  5
3C52
  8
0
 10
1340.571742618778
 20
774.76273857456965
 30
0.0
 40
3.9199909337858059
  0
LINE
  5
3C53
  8
0
 10
1329.791767550867
 20
768.88275217389094
 30
0.0
 11
1329.791767550867
 21
780.64272497524837
 31
0.0
  0
LINE
  5
3C54
  8
0
 10
1327.8317720839741
 20
768.88275217389082
 30
0.0
 11
1327.8317720839741
 21
780.64272497524837
 31
0.0
  0
ARC
  5
3C55
  8
0
 10
1328.811769817421
 20
769.8627499073375
 30
0.0
 40
4.8999886672323596
 50
216.86989764584661
 51
323.13010235415339
  0
LINE
  5
3C56
  8
0
 10
1339.591744885332
 20
768.88275217389094
 30
0.0
 11
1339.591744885332
 21
770.96722367361053
 31
0.0
  0
LINE
  5
3C57
  8
0
 10
1341.5517403522249
 20
768.88275217389094
 30
0.0
 11
1341.5517403522249
 21
770.96722367361053
 31
0.0
  0
LINE
  5
3C58
  8
0
 10
1329.791767550867
 20
782.60272044214128
 30
0.0
 11
1329.791767550867
 21
783.58271817558784
 31
0.0
  0
LINE
  5
3C59
  8
0
 10
1327.8317720839741
 20
782.60272044214116
 30
0.0
 11
1327.8317720839741
 21
783.58271817558784
 31
0.0
  0
LINE
  5
3C5A
  8
0
 10
1327.8317720839741
 20
783.58271817558784
 30
0.0
 11
1329.791767550867
 21
783.58271817558784
 31
0.0
  0
LINE
  5
3C5B
  8
0
 10
1339.591744885332
 20
786.52271137592743
 30
0.0
 11
1341.5517403522249
 21
786.52271137592732
 31
0.0
  0
LINE
  5
3C5C
  8
0
 10
1339.591744885332
 20
778.55825347552866
 30
0.0
 11
1339.591744885332
 21
780.64272497524837
 31
0.0
  0
LINE
  5
3C5D
  8
0
 10
1341.5517403522249
 20
778.55825347552866
 30
0.0
 11
1341.5517403522249
 21
780.64272497524837
 31
0.0
  0
LINE
  5
3C5E
  8
0
 10
1339.591744885332
 20
782.6027204421415
 30
0.0
 11
1339.591744885332
 21
786.52271137592732
 31
0.0
  0
LINE
  5
3C5F
  8
0
 10
1341.5517403522249
 20
782.6027204421415
 30
0.0
 11
1341.5517403522249
 21
786.52271137592732
 31
0.0
  0
ARC
  5
3C60
  8
0
 10
1340.571742618778
 20
774.76273857456965
 30
0.0
 40
17.63995920203627
 50
340.52877936551118
 51
19.471220634488802
  0
LINE
  5
3C61
  8
0
 10
1384.7545420346421
 20
814.62949432538278
 30
0.0
 11
1405.6839440506619
 21
814.62949432538289
 31
0.0
  0
ARC
  5
3C62
  8
0
 10
1340.571742618778
 20
774.76273857456965
 30
0.0
 40
34.027699078002279
 50
350.0493429473409
 51
9.9506570526591247
  0
LINE
  5
3C63
  8
0
 10
1389.3912265818849
 20
770.84274764078384
 30
0.0
 11
1389.3912265818849
 21
778.68272950835546
 31
0.0
  0
LINE
  5
3C64
  8
0
 10
1398.412510885848
 20
770.84274764078361
 30
0.0
 11
1398.412510885848
 21
778.68272950835535
 31
0.0
  0
ARC
  5
3C65
  8
0
 10
1387.4312311149929
 20
770.84274764078384
 30
0.0
 40
1.9599954668929309
 50
270.0
 51
0.0
  0
ARC
  5
3C66
  8
0
 10
1394.4925199520619
 20
770.84274764078361
 30
0.0
 40
3.9199909337858618
 50
270.0
 51
0.0
  0
ARC
  5
3C67
  8
0
 10
1387.4312311149929
 20
778.68272950835546
 30
0.0
 40
1.9599954668929309
 50
0.0
 51
90.0
  0
ARC
  5
3C68
  8
0
 10
1394.4925199520619
 20
778.68272950835535
 30
0.0
 40
3.9199909337858618
 50
0.0
 51
90.0
  0
ARC
  5
3C69
  8
0
 10
1384.7545420346421
 20
819.40969446454915
 30
0.0
 40
4.7802001391664417
 50
225.29938127014171
 51
270.0
  0
LINE
  5
3C6A
  8
0
 10
1407.6439395175551
 20
816.58948979227591
 30
0.0
 11
1415.4839213851269
 21
816.58948979227591
 31
0.0
  0
LINE
  5
3C6B
  8
0
 10
1407.6439395175551
 20
816.58948979227591
 30
0.0
 11
1405.6839440506619
 21
814.62949432538289
 31
0.0
  0
LINE
  5
3C6D
  8
0
 10
1281.9921276281921
 20
487.15795845771987
 30
0.0
 11
1298.483921385126
 21
487.15795845771987
 31
0.0
  0
ARC
  5
3C6E
  8
0
 10
1340.483921385126
 20
528.91383387696726
 30
0.0
 40
58.032779685580373
 50
139.3790929946145
 51
226.01804925218741
  0
LINE
  5
3C6F
  8
0
 10
1249.9974639969021
 20
573.99372961550489
 30
0.0
 11
1295.7697975557369
 21
573.99372961550489
 31
0.0
  0
POLYLINE
  5
3C70
  8
0
 66
     1
 10
0.0
 20
0.0
 30
0.0
  0
VERTEX
  5
421C
  8
0
 10
1281.9921276281921
 20
518.13365535951857
 30
0.0
  0
VERTEX
  5
421D
  8
0
 10
1281.9921276281921
 20
487.15795845771987
 30
0.0
  0
SEQEND
  5
421E
  8
0
  0
ARC
  5
3C71
  8
0
 10
1295.768533349782
 20
502.64580690861931
 30
0.0
 40
22.977887964310622
 50
163.68029689768821
 51
196.31970310231171
  0
LINE
  5
3C72
  8
0
 10
1272.5273313526429
 20
513.50278867269947
 30
0.0
 11
1272.5273313526429
 21
491.78882514453858
 31
0.0
  0
LINE
  5
3C73
  8
0
 10
1273.716453939262
 20
496.18909497664418
 30
0.0
 11
1281.9921276281921
 21
496.18909497664418
 31
0.0
  0
LINE
  5
3C74
  8
0
 10
1273.716453939262
 20
489.73066217261942
 30
0.0
 11
1281.9921276281921
 21
489.73066217261942
 31
0.0
  0
ARC
  5
3C75
  8
0
 10
1278.8841611398709
 20
492.95987857463172
 30
0.0
 40
6.0936882331030073
 50
147.99940553495529
 51
212.0005944650419
  0
LINE
  5
3C76
  8
0
 10
1272.5273313526429
 20
491.78882514453858
 30
0.0
 11
1273.716453939262
 21
489.73066217261942
 31
0.0
  0
LINE
  5
3C77
  8
0
 10
1272.8302048334599
 20
511.63564249834099
 30
0.0
 11
1272.7906247763081
 21
512.33259567863161
 31
0.0
  0
LINE
  5
3C78
  8
0
 10
1273.716453939262
 20
509.10251884059409
 30
0.0
 11
1281.9921276281921
 21
509.10251884059409
 31
0.0
  0
LINE
  5
3C79
  8
0
 10
1273.399813482044
 20
509.67729010532747
 30
0.0
 11
1273.1399618024791
 21
510.2968040433633
 31
0.0
  0
LINE
  5
3C7A
  8
0
 10
1273.1399618024791
 20
510.2968040433633
 30
0.0
 11
1272.9489450049171
 21
510.95245629445128
 31
0.0
  0
LINE
  5
3C7B
  8
0
 10
1272.9489450049171
 20
510.95245629445128
 30
0.0
 11
1272.8302048334599
 21
511.63564249834099
 31
0.0
  0
LINE
  5
3C7C
  8
0
 10
1273.716453939262
 20
509.10251884059409
 30
0.0
 11
1273.399813482044
 21
509.67729010532747
 31
0.0
  0
LINE
  5
3C7D
  8
0
 10
1281.9921276281921
 20
515.56267251666918
 30
0.0
 11
1273.716453939262
 21
515.56267251666918
 31
0.0
  0
LINE
  5
3C7E
  8
0
 10
1273.1399618024791
 20
514.37010818595002
 30
0.0
 11
1273.716453939262
 21
515.56267251666918
 31
0.0
  0
LINE
  5
3C7F
  8
0
 10
1273.716453939262
 20
515.56267251666918
 30
0.0
 11
1272.5273313526429
 21
513.50278867269947
 31
0.0
  0
LINE
  5
3C80
  8
0
 10
1272.9489450049171
 20
513.71273506281182
 30
0.0
 11
1273.1399618024791
 21
514.37010818595002
 31
0.0
  0
LINE
  5
3C81
  8
0
 10
1272.7906247763081
 20
512.33259567863161
 30
0.0
 11
1272.8302048334599
 21
513.029548858922
 31
0.0
  0
LINE
  5
3C82
  8
0
 10
1272.8302048334599
 20
513.029548858922
 30
0.0
 11
1272.9489450049171
 21
513.71273506281182
 31
0.0
  0
LINE
  5
3C83
  8
0
 10
1283.4611954842451
 20
518.13365535951834
 30
0.0
 11
1281.9921276281921
 21
518.13365535951846
 31
0.0
  0
LINE
  5
3C89
  8
0
 10
1301.644795254399
 20
470.11396987017929
 30
0.0
 11
1379.3230475158539
 21
470.11396987017929
 31
0.0
  0
LINE
  5
3C8E
  8
0
 10
1360.483921385126
 20
491.6739200060008
 30
0.0
 11
1374.5116204631281
 21
486.19703252399819
 31
0.0
  0
ARC
  5
3C8F
  8
0
 10
1340.483921385126
 20
430.16998817914822
 30
0.0
 40
143.8237414363565
 50
80.051975975531676
 51
99.94802402446831
  0
ARC
  5
3C90
  8
0
 10
1412.2830951551341
 20
538.00599816988131
 30
0.0
 40
52.199219101078931
 50
149.48486915244379
 51
210.51513084755609
  0
LINE
  5
3C93
  8
0
 10
1320.483921385126
 20
491.6739200060008
 30
0.0
 11
1305.855668662407
 21
486.19055680212438
 31
0.0
  0
ARC
  5
3C94
  8
0
 10
1293.6464691332701
 20
569.67896056486529
 30
0.0
 40
4.0833238893602726
 50
313.07278134674931
 51
0.0
  0
ARC
  5
3C95
  8
0
 10
1295.7697975557369
 20
572.03373414861392
 30
0.0
 40
1.9599954668929309
 50
0.0
 51
90.0
  0
LINE
  5
3C96
  8
0
 10
1297.72979302263
 20
572.03373414861392
 30
0.0
 11
1297.72979302263
 21
569.67896056486529
 31
0.0
  0
LINE
  5
3C97
  8
0
 10
1385.2641215242929
 20
498.79257424136563
 30
0.0
 11
1405.683944050661
 21
498.79257424136563
 31
0.0
  0
ARC
  5
3C98
  8
0
 10
1385.2641215242929
 20
494.0123741021992
 30
0.0
 40
4.7802001391664417
 50
90.0
 51
180.0000000000006
  0
LINE
  5
3C99
  8
0
 10
1407.6439395175539
 20
496.83257877447278
 30
0.0
 11
1415.483921385126
 21
496.83257877447278
 31
0.0
  0
LINE
  5
3C9A
  8
0
 10
1407.6439395175539
 20
496.83257877447278
 30
0.0
 11
1405.683944050661
 21
498.79257424136563
 31
0.0
  0
LINE
  5
3C9B
  8
0
 10
1378.4316113969139
 20
578.52608574299234
 30
0.0
 11
1405.6839440506619
 21
578.52608574299245
 31
0.0
  0
LINE
  5
3C9C
  8
0
 10
1269.597418665832
 20
583.79370694996931
 30
0.0
 11
1289.1973733347611
 21
583.79370694996942
 31
0.0
  0
LINE
  5
3C9D
  8
0
 10
1269.597418665832
 20
619.07362535404206
 30
0.0
 11
1289.1973733347611
 21
619.07362535404206
 31
0.0
  0
LINE
  5
3C9E
  8
0
 10
1269.597418665832
 20
619.07362535404206
 30
0.0
 11
1269.597418665832
 21
583.79370694996942
 31
0.0
  0
LINE
  5
3C9F
  8
0
 10
1249.9974639969021
 20
609.27364801957765
 30
0.0
 11
1269.597418665832
 21
609.27364801957765
 31
0.0
  0
LINE
  5
3CA0
  8
0
 10
1284.2973846675291
 20
632.79359362229275
 30
0.0
 11
1284.2973846675291
 21
619.07362535404206
 31
0.0
  0
LINE
  5
3CA1
  8
0
 10
1274.4974073330641
 20
632.79359362229275
 30
0.0
 11
1274.4974073330641
 21
619.07362535404206
 31
0.0
  0
LINE
  5
3CA2
  8
0
 10
1274.4974073330641
 20
632.79359362229275
 30
0.0
 11
1284.2973846675291
 21
632.79359362229275
 31
0.0
  0
CIRCLE
  5
3CA3
  8
0
 10
1279.397396000297
 20
627.89360495506025
 30
0.0
 40
1.9599954668929309
  0
LINE
  5
3CA4
  8
0
 10
1384.6925426175969
 20
658.17882228418762
 30
0.0
 11
1328.7239485837681
 21
658.17882228418762
 31
0.0
  0
LINE
  5
3CA5
  8
0
 10
1389.3912265818849
 20
679.67670226239636
 30
0.0
 11
1340.483921385126
 21
683.64458712445946
 31
0.0
  0
LINE
  5
3CA6
  8
0
 10
1306.4562223071241
 20
644.45885401593694
 30
0.0
 11
1374.5116204631281
 21
644.45885401593694
 31
0.0
  0
LINE
  5
3CA7
  8
0
 10
1306.4562223071241
 20
644.45885401593694
 30
0.0
 11
1306.4562223071241
 21
613.19363895336346
 31
0.0
  0
ARC
  5
3CA8
  8
0
 10
1302.5362313733381
 20
613.19363895336346
 30
0.0
 40
3.9199909337858618
 50
270.0
 51
0.0
  0
LINE
  5
3CA9
  8
0
 10
1289.1973733347611
 20
619.07362535404206
 30
0.0
 11
1289.1973733347611
 21
583.79370694996942
 31
0.0
  0
LINE
  5
3CAA
  8
0
 10
1302.5362313733381
 20
609.27364801957765
 30
0.0
 11
1289.1973733347611
 21
609.27364801957765
 31
0.0
  0
ARC
  5
3CAB
  8
0
 10
1328.7239485837681
 20
665.76948224569765
 30
0.0
 40
5.8799864006787921
 50
138.8140748342928
 51
180.0
  0
ARC
  5
3CAC
  8
0
 10
1328.7239485837681
 20
664.05880868486634
 30
0.0
 40
5.8799864006787921
 50
180.0
 51
270.0
  0
LINE
  5
3CAD
  8
0
 10
1322.8439621830901
 20
654.25883135040158
 30
0.0
 11
1358.1238805871619
 21
654.25883135040158
 31
0.0
  0
LINE
  5
3CAE
  8
0
 10
1322.8439621830901
 20
664.05880868486634
 30
0.0
 11
1322.8439621830901
 21
665.76948224569765
 31
0.0
  0
LINE
  5
3CAF
  8
0
 10
1322.8439621830901
 20
654.25883135040158
 30
0.0
 11
1322.8439621830901
 21
644.45885401593694
 31
0.0
  0
CIRCLE
  5
3CB0
  8
0
 10
1328.7239485837681
 20
664.05880868486634
 30
0.0
 40
3.9199909337858618
  0
LINE
  5
3CB1
  8
0
 10
1336.56393045134
 20
658.17882228418762
 30
0.0
 11
1336.56393045134
 21
654.25883135040158
 31
0.0
  0
LINE
  5
3CB2
  8
0
 10
1358.1238805871619
 20
654.25883135040158
 30
0.0
 11
1358.1238805871619
 21
644.45885401593694
 31
0.0
  0
LINE
  5
3CB3
  8
0
 10
1344.403912318912
 20
658.17882228418762
 30
0.0
 11
1344.403912318912
 21
654.25883135040158
 31
0.0
  0
LINE
  5
3CB4
  8
0
 10
1333.6356142364671
 20
680.31211625108301
 30
0.0
 11
1324.298807853424
 21
669.64148038474889
 31
0.0
  0
CIRCLE
  5
3CB5
  8
0
 10
1340.483921385126
 20
671.89879055243807
 30
0.0
 40
1.9599954668929309
  0
ARC
  5
3CB6
  8
0
 10
1341.01084878704
 20
673.85878601933075
 30
0.0
 40
9.799977334464657
 50
90.0
 51
138.8140748342928
  0
LINE
  5
3CB7
  8
0
 10
1374.5116204631281
 20
644.45885401593694
 30
0.0
 11
1374.5116204631281
 21
582.44607667677826
 31
0.0
  0
LINE
  5
3CB8
  8
0
 10
1388.612533551383
 20
654.25883135040181
 30
0.0
 11
1388.612533551383
 21
591.27293332377565
 31
0.0
  0
LINE
  5
3CB9
  8
0
 10
1398.412510885847
 20
669.90771086510915
 30
0.0
 11
1398.412510885847
 21
582.67803018021368
 31
0.0
  0
ARC
  5
3CBA
  8
0
 10
1393.8595060205021
 20
582.67803018021368
 30
0.0
 40
1.9599954668929309
 50
201.80140948635119
 51
270.0
  0
LINE
  5
3CBB
  8
0
 10
1388.892904274667
 20
589.81708523957491
 30
0.0
 11
1392.0396959152511
 21
581.95010613811326
 31
0.0
  0
ARC
  5
3CBC
  8
0
 10
1392.532524485169
 20
591.27293332377565
 30
0.0
 40
3.9199909337858618
 50
180.0
 51
201.80140948635119
  0
LINE
  5
3CBD
  8
0
 10
1393.8595060205021
 20
580.71803471332078
 30
0.0
 11
1396.452515418955
 21
580.71803471332078
 31
0.0
  0
ARC
  5
3CBE
  8
0
 10
1396.4525154189539
 20
582.67803018021368
 30
0.0
 40
1.9599954668929309
 50
270.0
 51
0.0
  0
LINE
  5
3CBF
  8
0
 10
1407.6439395175551
 20
580.48608120988558
 30
0.0
 11
1415.483921385126
 21
580.48608120988558
 31
0.0
  0
ARC
  5
3CC0
  8
0
 10
1384.6925426175969
 20
654.25883135040181
 30
0.0
 40
3.9199909337858618
 50
0.0
 51
90.0
  0
ARC
  5
3CC1
  8
0
 10
1388.612533551383
 20
669.90771086510915
 30
0.0
 40
9.799977334464657
 50
0.0
 51
85.442550030914688
  0
LINE
  5
3CDB
  8
0
 10
1300.483921385126
 20
470.11396987017929
 30
0.0
 11
1300.483921385126
 21
485.15795845771999
 31
0.0
  0
LINE
  5
3CDC
  8
0
 10
1320.483921385126
 20
470.11396987017929
 30
0.0
 11
1320.483921385126
 21
491.67392000600063
 31
0.0
  0
LINE
  5
3CDD
  8
0
 10
1360.483921385126
 20
470.11396987017929
 30
0.0
 11
1360.483921385126
 21
491.67392000600091
 31
0.0
  0
LINE
  5
3CDE
  8
0
 10
1380.483921385126
 20
470.11396987017929
 30
0.0
 11
1380.483921385126
 21
494.0123741021992
 31
0.0
  0
LINE
  5
3CDF
  8
0
 10
1300.483921385126
 20
470.11396987017929
 30
0.0
 11
1380.483921385126
 21
470.11396987017929
 31
0.0
  0
ARC
  5
3CE2
  8
0
 10
1298.483921385126
 20
485.15795845771999
 30
0.0
 40
2.0
 50
0.0
 51
90.0
  0
ARC
  5
3CE4
  8
0
 10
1340.483921385126
 20
592.66735890033715
 30
0.0
 40
102.954721599857
 50
258.79849294475588
 51
281.20150705524441
  0
LINE
  5
3CEB
  8
0
 10
1304.9161254608259
 20
438.6593299921791
 30
0.0
 11
1303.9331679646391
 21
470.11396987017929
 31
0.0
  0
LINE
  5
3CEC
  8
0
 10
1376.0517173094261
 20
438.6593299921791
 30
0.0
 11
1377.034674805614
 21
470.11396987017929
 31
0.0
  0
LINE
  5
3CED
  8
0
 10
1303.4375463851261
 20
438.6593299921791
 30
0.0
 11
1302.4545888889379
 21
470.11396987017929
 31
0.0
  0
LINE
  5
3CEE
  8
0
 10
1377.5302963851259
 20
438.6593299921791
 30
0.0
 11
1378.5132538813141
 21
470.11396987017929
 31
0.0
  0
LINE
  5
3CEF
  8
0
 10
1303.4375463851261
 20
438.6593299921791
 30
0.0
 11
1377.5302963851259
 21
438.6593299921791
 31
0.0
  0
TEXT
  5
3F31
  8
0
 10
762.03637116570746
 20
164.8204737691367
 30
0.0
 40
32.0
  1
TLV SP-1
 41
0.8
 72
     4
 11
847.1258949752314
 21
180.8204737691367
 31
0.0
  0
TEXT
  5
3F32
  8
0
 10
304.24189227185741
 20
384.75307560910278
 30
0.0
 40
16.0
  1
25mm
 41
0.8
 72
     4
 11
332.27998750995272
 21
392.75307560910278
 31
0.0
  0
TEXT
  5
3F33
  8
0
 10
500.20399933028449
 20
384.75307560910278
 30
0.0
 40
16.0
  1
32mm
 41
0.8
 72
     4
 11
528.2420945683798
 21
392.75307560910278
 31
0.0
  0
TEXT
  5
3F34
  8
0
 10
712.19937406355098
 20
384.75307560910278
 30
0.0
 40
16.0
  1
40mm
 41
0.8
 72
     4
 11
740.23746930164634
 21
392.75307560910278
 31
0.0
  0
TEXT
  5
3F35
  8
0
 10
1007.9240112650961
 20
384.75307845179299
 30
0.0
 40
16.0
  1
50mm
 41
0.8
 72
     4
 11
1035.9621065031911
 21
392.75307845179299
 31
0.0
  0
TEXT
  5
3F36
  8
0
 10
1314.3374935832001
 20
377.62928900113502
 30
0.0
 40
16.0
  1
65mm
 41
0.8
 72
     4
 11
1342.375588821295
 21
385.62928900113502
 31
0.0
  0
INSERT
  5
429A
  8
0
  2
00000
 10
0.0
 20
0.0
 30
0.0
  0
LINE
  5
429C
  8
0
 10
348.8134746324011
 20
451.66656277897692
 30
0.0
 11
348.40699860781359
 21
438.6593299921791
 31
0.0
  0
LINE
  5
429D
  8
0
 10
318.52163278380112
 20
451.66656277897692
 30
0.0
 11
318.92810880838852
 21
438.6593299921791
 31
0.0
  0
LINE
  5
429E
  8
0
 10
350.29205370810109
 20
451.66656277897692
 30
0.0
 11
349.88557768351359
 21
438.6593299921791
 31
0.0
  0
LINE
  5
429F
  8
0
 10
317.04305370810113
 20
451.66656277897692
 30
0.0
 11
317.44952973268852
 21
438.6593299921791
 31
0.0
  0
LINE
  5
42A0
  8
0
 10
317.44952973268852
 20
438.6593299921791
 30
0.0
 11
349.88557768351359
 21
438.6593299921791
 31
0.0
  0
LINE
  5
42A2
  8
0
 10
543.46464983373164
 20
461.259329992179
 30
0.0
 11
542.75839983373169
 21
438.6593299921791
 31
0.0
  0
LINE
  5
42A3
  8
0
 10
504.51180798513172
 20
461.259329992179
 30
0.0
 11
505.21805798513168
 21
438.6593299921791
 31
0.0
  0
LINE
  5
42A4
  8
0
 10
544.9432289094317
 20
461.259329992179
 30
0.0
 11
544.23697890943163
 21
438.6593299921791
 31
0.0
  0
LINE
  5
42A5
  8
0
 10
503.03322890943161
 20
461.259329992179
 30
0.0
 11
503.73947890943163
 21
438.6593299921791
 31
0.0
  0
LINE
  5
42A6
  8
0
 10
503.73947890943163
 20
438.6593299921791
 30
0.0
 11
544.23697890943163
 21
438.6593299921791
 31
0.0
  0
LINE
  5
42A8
  8
0
 10
762.59587380910443
 20
461.7689147791906
 30
0.0
 11
761.87369928451028
 21
438.6593299921791
 31
0.0
  0
LINE
  5
42A9
  8
0
 10
717.75003196050443
 20
461.7689147791906
 30
0.0
 11
718.47220648509847
 21
438.6593299921791
 31
0.0
  0
LINE
  5
42AA
  8
0
 10
764.07445288480449
 20
461.7689147791906
 30
0.0
 11
763.35227836021033
 21
438.6593299921791
 31
0.0
  0
LINE
  5
42AB
  8
0
 10
716.27145288480426
 20
461.7689147791906
 30
0.0
 11
716.99362740939853
 21
438.6593299921791
 31
0.0
  0
LINE
  5
42AC
  8
0
 10
716.99362740939853
 20
438.6593299921791
 30
0.0
 11
763.35227836021033
 21
438.6593299921791
 31
0.0
  0
VIEWPORT
  5
41
 67
     1
  8
0
 10
117.358407079646
 20
73.5
 30
0.0
 40
234.716814159292
 41
147.0
 68
     1
 69
     1
1001
ACAD
1000
MVIEW
1002
{
1070
    16
1010
0.0
1020
0.0
1030
0.0
1010
0.0
1020
0.0
1030
1.0
1040
0.0
1040
147.0
1040
117.358407079646
1040
73.5
1040
50.0
1040
0.0
1040
0.0
1070
     0
1070
   100
1070
     1
1070
     1
1070
     0
1070
     0
1070
     0
1070
     0
1040
0.0
1040
0.0
1040
0.0
1040
1.0
1040
1.0
1040
0.0
1040
0.0
1070
     0
1002
{
1002
}
1002
}
  0
ENDSEC
  0
EOF
