  0
SECTION
  2
HEADER
  9
$ACADVER
  1
AC1015
  9
$ACADMAINTVER
 70
    20
  9
$DWGCODEPAGE
  3
ANSI_932
  9
$INSBASE
 10
0.0
 20
0.0
 30
0.0
  9
$EXTMIN
 10
66.0
 20
30.0
 30
0.0
  9
$EXTMAX
 10
1716.0
 20
1146.0
 30
0.0
  9
$LIMMIN
 10
0.0
 20
0.0
  9
$LIMMAX
 10
1782.0
 20
1260.0
  9
$ORTHOMODE
 70
     1
  9
$REGENMODE
 70
     1
  9
$FILLMODE
 70
     1
  9
$QTEXTMODE
 70
     0
  9
$MIRRTEXT
 70
     1
  9
$LTSCALE
 40
24.0
  9
$ATTMODE
 70
     1
  9
$TEXTSIZE
 40
24.0
  9
$TRACEWID
 40
0.05
  9
$TEXTSTYLE
  7
STANDARD
  9
$CLAYER
  8
0
  9
$CELTYPE
  6
BYLAYER
  9
$CECOLOR
 62
   256
  9
$CELTSCALE
 40
1.0
  9
$DISPSILH
 70
     0
  9
$DIMSCALE
 40
6.0
  9
$DIMASZ
 40
2.799999999999999
  9
$DIMEXO
 40
1.0
  9
$DIMDLI
 40
5.0
  9
$DIMRND
 40
0.1
  9
$DIMDLE
 40
0.0
  9
$DIMEXE
 40
1.0
  9
$DIMTP
 40
0.0
  9
$DIMTM
 40
0.0
  9
$DIMTXT
 40
2.5
  9
$DIMCEN
 40
0.0
  9
$DIMTSZ
 40
0.0
  9
$DIMTOL
 70
     0
  9
$DIMLIM
 70
     0
  9
$DIMTIH
 70
     0
  9
$DIMTOH
 70
     0
  9
$DIMSE1
 70
     0
  9
$DIMSE2
 70
     0
  9
$DIMTAD
 70
     3
  9
$DIMZIN
 70
     8
  9
$DIMBLK
  1

  9
$DIMASO
 70
     1
  9
$DIMSHO
 70
     1
  9
$DIMPOST
  1
 
  9
$DIMAPOST
  1

  9
$DIMALT
 70
     0
  9
$DIMALTD
 70
     2
  9
$DIMALTF
 40
1.0
  9
$DIMLFAC
 40
1.0
  9
$DIMTOFL
 70
     1
  9
$DIMTVP
 40
0.0
  9
$DIMTIX
 70
     0
  9
$DIMSOXD
 70
     0
  9
$DIMSAH
 70
     1
  9
$DIMBLK1
  1
OPEN
  9
$DIMBLK2
  1
OPEN
  9
$DIMSTYLE
  2
DIM1
  9
$DIMCLRD
 70
     2
  9
$DIMCLRE
 70
     2
  9
$DIMCLRT
 70
     2
  9
$DIMTFAC
 40
0.7
  9
$DIMGAP
 40
0.85
  9
$DIMJUST
 70
     0
  9
$DIMSD1
 70
     0
  9
$DIMSD2
 70
     0
  9
$DIMTOLJ
 70
     1
  9
$DIMTZIN
 70
     8
  9
$DIMALTZ
 70
     8
  9
$DIMALTTZ
 70
     8
  9
$DIMUPT
 70
     0
  9
$DIMDEC
 70
     2
  9
$DIMTDEC
 70
     3
  9
$DIMALTU
 70
     2
  9
$DIMALTTD
 70
     3
  9
$DIMTXSTY
  7
DIM
  9
$DIMAUNIT
 70
     0
  9
$DIMADEC
 70
     0
  9
$DIMALTRND
 40
0.0
  9
$DIMAZIN
 70
     0
  9
$DIMDSEP
 70
    46
  9
$DIMATFIT
 70
     0
  9
$DIMFRAC
 70
     0
  9
$DIMLDRBLK
  1

  9
$DIMLUNIT
 70
     2
  9
$DIMLWD
 70
    -2
  9
$DIMLWE
 70
    -2
  9
$DIMTMOVE
 70
     0
  9
$LUNITS
 70
     2
  9
$LUPREC
 70
     4
  9
$SKETCHINC
 40
0.1
  9
$FILLETRAD
 40
0.0
  9
$AUNITS
 70
     0
  9
$AUPREC
 70
     0
  9
$MENU
  1
C:\ACADR13\WIN\SUPPORT\ACAD.mnc
  9
$ELEVATION
 40
0.0
  9
$PELEVATION
 40
0.0
  9
$THICKNESS
 40
0.0
  9
$LIMCHECK
 70
     0
  9
$CHAMFERA
 40
0.0
  9
$CHAMFERB
 40
0.0
  9
$CHAMFERC
 40
0.0
  9
$CHAMFERD
 40
0.0
  9
$SKPOLY
 70
     0
  9
$TDCREATE
 40
2451564.654844861
  9
$TDUCREATE
 40
2451564.279844861
  9
$TDUPDATE
 40
2458253.390208750
  9
$TDUUPDATE
 40
2458253.015208750
  9
$TDINDWG
 40
0.0669450231
  9
$TDUSRTIMER
 40
0.0669450231
  9
$USRTIMER
 70
     1
  9
$ANGBASE
 50
0.0
  9
$ANGDIR
 70
     0
  9
$PDMODE
 70
     0
  9
$PDSIZE
 40
0.0
  9
$PLINEWID
 40
0.0
  9
$SPLFRAME
 70
     0
  9
$SPLINETYPE
 70
     6
  9
$SPLINESEGS
 70
     8
  9
$HANDSEED
  5
3423
  9
$SURFTAB1
 70
     6
  9
$SURFTAB2
 70
     6
  9
$SURFTYPE
 70
     6
  9
$SURFU
 70
     6
  9
$SURFV
 70
     6
  9
$UCSBASE
  2

  9
$UCSNAME
  2

  9
$UCSORG
 10
0.0
 20
0.0
 30
0.0
  9
$UCSXDIR
 10
1.0
 20
0.0
 30
0.0
  9
$UCSYDIR
 10
0.0
 20
1.0
 30
0.0
  9
$UCSORTHOREF
  2

  9
$UCSORTHOVIEW
 70
     0
  9
$UCSORGTOP
 10
0.0
 20
0.0
 30
0.0
  9
$UCSORGBOTTOM
 10
0.0
 20
0.0
 30
0.0
  9
$UCSORGLEFT
 10
0.0
 20
0.0
 30
0.0
  9
$UCSORGRIGHT
 10
0.0
 20
0.0
 30
0.0
  9
$UCSORGFRONT
 10
0.0
 20
0.0
 30
0.0
  9
$UCSORGBACK
 10
0.0
 20
0.0
 30
0.0
  9
$PUCSBASE
  2

  9
$PUCSNAME
  2

  9
$PUCSORG
 10
0.0
 20
0.0
 30
0.0
  9
$PUCSXDIR
 10
1.0
 20
0.0
 30
0.0
  9
$PUCSYDIR
 10
0.0
 20
1.0
 30
0.0
  9
$PUCSORTHOREF
  2

  9
$PUCSORTHOVIEW
 70
     0
  9
$PUCSORGTOP
 10
0.0
 20
0.0
 30
0.0
  9
$PUCSORGBOTTOM
 10
0.0
 20
0.0
 30
0.0
  9
$PUCSORGLEFT
 10
0.0
 20
0.0
 30
0.0
  9
$PUCSORGRIGHT
 10
0.0
 20
0.0
 30
0.0
  9
$PUCSORGFRONT
 10
0.0
 20
0.0
 30
0.0
  9
$PUCSORGBACK
 10
0.0
 20
0.0
 30
0.0
  9
$USERI1
 70
     0
  9
$USERI2
 70
     0
  9
$USERI3
 70
     0
  9
$USERI4
 70
     0
  9
$USERI5
 70
     0
  9
$USERR1
 40
0.0
  9
$USERR2
 40
0.0
  9
$USERR3
 40
0.0
  9
$USERR4
 40
0.0
  9
$USERR5
 40
0.0
  9
$WORLDVIEW
 70
     1
  9
$SHADEDGE
 70
     3
  9
$SHADEDIF
 70
    70
  9
$TILEMODE
 70
     1
  9
$MAXACTVP
 70
    16
  9
$PINSBASE
 10
0.0
 20
0.0
 30
0.0
  9
$PLIMCHECK
 70
     0
  9
$PEXTMIN
 10
1.000000000000000E+20
 20
1.000000000000000E+20
 30
1.000000000000000E+20
  9
$PEXTMAX
 10
-1.000000000000000E+20
 20
-1.000000000000000E+20
 30
-1.000000000000000E+20
  9
$PLIMMIN
 10
0.0
 20
0.0
  9
$PLIMMAX
 10
20.0
 20
147.0
  9
$UNITMODE
 70
     0
  9
$VISRETAIN
 70
     0
  9
$PLINEGEN
 70
     0
  9
$PSLTSCALE
 70
     1
  9
$TREEDEPTH
 70
  3020
  9
$CMLSTYLE
  2
STANDARD
  9
$CMLJUST
 70
     0
  9
$CMLSCALE
 40
1.0
  9
$PROXYGRAPHICS
 70
     1
  9
$MEASUREMENT
 70
     1
  9
$CELWEIGHT
370
    -1
  9
$ENDCAPS
280
     0
  9
$JOINSTYLE
280
     0
  9
$LWDISPLAY
290
     0
  9
$INSUNITS
 70
     0
  9
$HYPERLINKBASE
  1

  9
$STYLESHEET
  1

  9
$XEDIT
290
     1
  9
$CEPSNTYPE
380
     0
  9
$PSTYLEMODE
290
     1
  9
$FINGERPRINTGUID
  2
{075FD60B-4657-4001-8A00-79E2CA84B903}
  9
$VERSIONGUID
  2
{E0109C7A-AE51-4483-AC84-174FCA1FB7FD}
  9
$EXTNAMES
290
     1
  9
$PSVPSCALE
 40
0.0
  9
$OLESTARTUP
290
     0
  0
ENDSEC
  0
SECTION
  2
CLASSES
  0
CLASS
  1
ACDBDICTIONARYWDFLT
  2
AcDbDictionaryWithDefault
  3
ObjectDBX Classes
 90
        0
280
     0
281
     0
  0
CLASS
  1
MATERIAL
  2
AcDbMaterial
  3
ObjectDBX Classes
 90
     1153
280
     0
281
     0
  0
CLASS
  1
VISUALSTYLE
  2
AcDbVisualStyle
  3
ObjectDBX Classes
 90
     4095
280
     0
281
     0
  0
CLASS
  1
TABLESTYLE
  2
AcDbTableStyle
  3
ObjectDBX Classes
 90
     4095
280
     0
281
     0
  0
CLASS
  1
SCALE
  2
AcDbScale
  3
ObjectDBX Classes
 90
     1153
280
     0
281
     0
  0
CLASS
  1
MLEADERSTYLE
  2
AcDbMLeaderStyle
  3
ACDB_MLEADERSTYLE_CLASS
 90
     4095
280
     0
281
     0
  0
CLASS
  1
CELLSTYLEMAP
  2
AcDbCellStyleMap
  3
ObjectDBX Classes
 90
     1152
280
     0
281
     0
  0
CLASS
  1
DICTIONARYVAR
  2
AcDbDictionaryVar
  3
ObjectDBX Classes
 90
        0
280
     0
281
     0
  0
CLASS
  1
ACDBSECTIONVIEWSTYLE
  2
AcDbSectionViewStyle
  3
ObjectDBX Classes
 90
     1025
280
     0
281
     0
  0
CLASS
  1
ACDBDETAILVIEWSTYLE
  2
AcDbDetailViewStyle
  3
ObjectDBX Classes
 90
     1025
280
     0
281
     0
  0
CLASS
  1
ACME_DOCUMENT
  2
AcMeDbDoc
  3
AcMeServices
 90
     1024
280
     0
281
     0
  0
CLASS
  1
AMGSETTINGSOBJ
  2
AmgSettingsObj
  3
"AcadM|Product Description: AutoCAD Mechanical|Company: Autodesk, Inc."
 90
     1024
280
     0
281
     0
  0
CLASS
  1
ACMESCOPE
  2
AcMeScope
  3
AcMeServices
 90
     1024
280
     0
281
     0
  0
CLASS
  1
ACMECOMMANDHISTORY
  2
AcMeCommandHistory
  3
AcMeServices
 90
     1024
280
     0
281
     0
  0
CLASS
  1
ACIMSYSVARMAN
  2
AcImSysVarManager
  3
AcMeServices
 90
     1024
280
     0
281
     0
  0
CLASS
  1
ACIMINTSYSVAR
  2
AcImIntSysVar
  3
AcMeServices
 90
     1024
280
     0
281
     0
  0
CLASS
  1
ACMESTATEMGR
  2
AcMeStateMgr
  3
AcMeServices
 90
     1024
280
     0
281
     0
  0
CLASS
  1
ACDBENTITYCACHE
  2
AcMeEntityCache
  3
AcMeServices
 90
     1024
280
     0
281
     0
  0
CLASS
  1
ACGREFMASTER
  2
AcGrefMaster
  3
AcAttribServices
 90
     1024
280
     0
281
     0
  0
CLASS
  1
ACME_DATABASE
  2
AcMeDbDatabase
  3
AcMeServices
 90
     1024
280
     0
281
     0
  0
CLASS
  1
ACRFINSADJUSTERMGR
  2
AcRfInsAdjusterMgr
  3
AcMeServices
 90
     1024
280
     0
281
     0
  0
CLASS
  1
ACGREFACADMASTER
  2
AcGrefacadMaster
  3
AcGrefServices
 90
     1024
280
     0
281
     0
  0
CLASS
  1
AMDTMENUSTATEMGR
  2
AmdtMenuStateMgr
  3
McadcomServices
 90
     1024
280
     0
281
     0
  0
CLASS
  1
AMDTMCOMMENUSTATE
  2
AmdtMcomMenuState
  3
McadcomServices
 90
     1024
280
     0
281
     0
  0
CLASS
  1
AMIMASTER
  2
AmiMaster
  3
AmiServices
 90
     1024
280
     0
281
     0
  0
CLASS
  1
MAPIAMMOUDLE
  2
MApiAmModule
  3
MApiAmServices
 90
     1024
280
     0
281
     0
  0
CLASS
  1
ACIMSTRSYSVAR
  2
AcImStrSysVar
  3
AcMeServices
 90
     1024
280
     0
281
     0
  0
CLASS
  1
AMDTAMMENUSTATE
  2
AmdtAmMenuState
  3
DesignerAssemblies
 90
     1024
280
     0
281
     0
  0
CLASS
  1
ACAMPROJECT
  2
AcAmProject
  3
DesignerAssemblies
 90
     1024
280
     0
281
     0
  0
CLASS
  1
ACAMGRCOMPDEF
  2
AcAmGrCompDef
  3
DesignerAssemblies
 90
     1024
280
     0
281
     0
  0
CLASS
  1
ACAMCOMPDEF
  2
AcAmCompDef
  3
DesignerAssemblies
 90
     1024
280
     0
281
     0
  0
CLASS
  1
ACAMCOMPDEFMGR
  2
AcAmCompDefMgr
  3
DesignerAssemblies
 90
     1024
280
     0
281
     0
  0
CLASS
  1
AMCONTEXTMGR
  2
AcAmContextMgr
  3
DesignerAssemblies
 90
     1024
280
     0
281
     0
  0
CLASS
  1
ACAMCONTEXTMODELER
  2
AcAmContextModeler
  3
DesignerAssemblies
 90
     1024
280
     0
281
     0
  0
CLASS
  1
ACMDATADICTIONARY
  2
AcmDataDictionary
  3
"AcmSymBB|Product Description: AutoCAD Mechanical|Company: Autodesk, Inc."
 90
     1024
280
     0
281
     0
  0
CLASS
  1
ACAMGRCOMPDEFSET
  2
AcAmGrCompDefSet
  3
DesignerAssemblies
 90
     1024
280
     0
281
     0
  0
CLASS
  1
AMDTBROWSERDBTAB
  2
AmdtBrowserDbTab
  3
McadcomServices
 90
     1024
280
     0
281
     0
  0
CLASS
  1
CBROWSERAPPOBJECT
  2
CBrowserAppObject
  3
McadcomServices
 90
     1024
280
     0
281
     0
  0
CLASS
  1
DM_PLACEHOLDER
  2
AcDmSelsetPlaceholder
  3
McadcomServices
 90
     1024
280
     0
281
     0
  0
CLASS
  1
EXACXREFPANELOBJECT
  2
ExAcXREFPanelObject
  3
EXAC_ESW
 90
     1025
280
     0
281
     0
  0
CLASS
  1
NPOCOLLECTION
  2
AcDbImpNonPersistentObjectsCollection
  3
ObjectDBX Classes
 90
     1153
280
     0
281
     0
  0
CLASS
  1
ACMSTANDARDISO
  2
AcmStandardISO
  3
"Amdt_StdImp|Product Description: AutoCAD Mechanical|Company: Autodesk, Inc."
 90
     1024
280
     0
281
     0
  0
CLASS
  1
AMDTEDGESTANDARDISO13715
  2
AmdtEdgeStdISO13715
  3
"Amdt_StdImp|Product Description: AutoCAD Mechanical|Company: Autodesk, Inc."
 90
     1024
280
     0
281
     0
  0
CLASS
  1
ACMSURFSTANDARDISO2002
  2
AcmSurfTextStdISO2002
  3
"Amdt_StdImp|Product Description: AutoCAD Mechanical|Company: Autodesk, Inc."
 90
     1024
280
     0
281
     0
  0
CLASS
  1
ACMFCFSTANDARDISO2012
  2
AcmFCFStdISO2012
  3
"Amdt_StdImp|Product Description: AutoCAD Mechanical|Company: Autodesk, Inc."
 90
     1024
280
     0
281
     0
  0
CLASS
  1
ACMWELDSTANDARDISO
  2
AcmWeldingStdISO
  3
"Amdt_StdImp|Product Description: AutoCAD Mechanical|Company: Autodesk, Inc."
 90
     1024
280
     0
281
     0
  0
CLASS
  1
ACMIDSTANDARDISO2012
  2
AcmIdStdISO2012
  3
"Amdt_StdImp|Product Description: AutoCAD Mechanical|Company: Autodesk, Inc."
 90
     1024
280
     0
281
     0
  0
CLASS
  1
ACMDATUMSTANDARDISO2012
  2
AcmDatumStdISO2012
  3
"Amdt_StdImp|Product Description: AutoCAD Mechanical|Company: Autodesk, Inc."
 90
     1024
280
     0
281
     0
  0
CLASS
  1
ACMBOMSTANDARDISO
  2
AcmBOMStdISO
  3
"Amdt_StdImp|Product Description: AutoCAD Mechanical|Company: Autodesk, Inc."
 90
     1024
280
     0
281
     0
  0
CLASS
  1
ACMDETAILSTANDARDISO
  2
AmdtDetailSymStdISO
  3
"Amdt_StdImp|Product Description: AutoCAD Mechanical|Company: Autodesk, Inc."
 90
     1024
280
     0
281
     0
  0
CLASS
  1
ACMSECTIONSTANDARDISO2001
  2
AmdtSectionSymStdISO2001
  3
"Amdt_StdImp|Product Description: AutoCAD Mechanical|Company: Autodesk, Inc."
 90
     1024
280
     0
281
     0
  0
CLASS
  1
ACMCENTERLINESTANDARDISO
  2
AmdtCenterLineStdISO
  3
"Amdt_StdImp|Product Description: AutoCAD Mechanical|Company: Autodesk, Inc."
 90
     1024
280
     0
281
     0
  0
CLASS
  1
ACMTHREADLINESTANDARDISO
  2
AmdtThreadLineStdISO
  3
"Amdt_StdImp|Product Description: AutoCAD Mechanical|Company: Autodesk, Inc."
 90
     1024
280
     0
281
     0
  0
CLASS
  1
ACMNOTESTANDARDISO
  2
AmdtNoteStdISO
  3
"Amdt_StdImp|Product Description: AutoCAD Mechanical|Company: Autodesk, Inc."
 90
     1024
280
     0
281
     0
  0
CLASS
  1
ACMTAPERSTANDARDISO
  2
AcmTaperStdISO
  3
"Amdt_StdImp|Product Description: AutoCAD Mechanical|Company: Autodesk, Inc."
 90
     1024
280
     0
281
     0
  0
CLASS
  1
ACMANOOTATIONVIEWSTANDARDISO
  2
AmdtAnViewStdISO
  3
"Amdt_StdImp|Product Description: AutoCAD Mechanical|Company: Autodesk, Inc."
 90
     1024
280
     0
281
     0
  0
CLASS
  1
ACAMGLAYSTD
  2
AcAmgLayStd
  3
"AmgLay|Product Description: AutoCAD Mechanical|Company: Autodesk, Inc."
 90
     1024
280
     0
281
     0
  0
CLASS
  1
ACAMGDIMSTD
  2
AcAmgDimStd
  3
"AmgDim|Product Description: AutoCAD Mechanical|Company: Autodesk, Inc."
 90
     1024
280
     0
281
     0
  0
CLASS
  1
AMGOBJPROPCFG
  2
AmgObjPropCfg
  3
"AmgLay|Product Description: AutoCAD Mechanical|Company: Autodesk, Inc."
 90
     1024
280
     0
281
     0
  0
CLASS
  1
ACAMGHOLECHARTSTDISO
  2
AcAmgHoleChartStdISO
  3
AmgDim|Product Description: AutoCAD Mechanical|Company: Autodesk, Inc.
 90
     1024
280
     0
281
     0
  0
CLASS
  1
ACAMGTITLESTD
  2
AcAmgTitleStd
  3
"AmgTitle|Product Description: AutoCAD Mechanical|Company: Autodesk, Inc."
 90
     1024
280
     0
281
     0
  0
CLASS
  1
ACMSECTIONSTANDARDCUSTOM
  2
AmdtSectionSymStdCustom
  3
"Amdt_StdImp|Product Description: AutoCAD Mechanical|Company: Autodesk, Inc."
 90
     1024
280
     0
281
     0
  0
CLASS
  1
ACMDETAILTANDARDCUSTOM
  2
AmdtDetailSymStdCustom
  3
"Amdt_StdImp|Product Description: AutoCAD Mechanical|Company: Autodesk, Inc."
 90
     1024
280
     0
281
     0
  0
CLASS
  1
FIELD
  2
AcDbField
  3
ObjectDBX Classes
 90
     1152
280
     0
281
     0
  0
CLASS
  1
FIELDLIST
  2
AcDbFieldList
  3
ObjectDBX Classes
 90
     1152
280
     0
281
     0
  0
CLASS
  1
AMDTNOTETEMPLATEDB
  2
AmdtNoteTemplateDB
  3
AcmSymBB|Product Description: AutoCAD Mechanical|Company: Autodesk, Inc.
 90
     1024
280
     0
281
     0
  0
CLASS
  1
ACAMGFILTERDAT
  2
AcAmgFilterDat
  3
"AcadM|Product Description: AutoCAD Mechanical|Company: Autodesk, Inc."
 90
     1024
280
     0
281
     0
  0
CLASS
  1
ACDBPLACEHOLDER
  2
AcDbPlaceHolder
  3
ObjectDBX Classes
 90
        0
280
     0
281
     0
  0
CLASS
  1
LAYOUT
  2
AcDbLayout
  3
ObjectDBX Classes
 90
        0
280
     0
281
     0
  0
ENDSEC
  0
SECTION
  2
TABLES
  0
TABLE
  2
VPORT
  5
8
102
{ACAD_XDICTIONARY
360
32E4
102
}
330
0
100
AcDbSymbolTable
 70
     1
  0
VPORT
  5
3247
330
8
100
AcDbSymbolTableRecord
100
AcDbViewportTableRecord
  2
*ACTIVE
 70
     0
 10
0.0
 20
0.0
 11
1.0
 21
1.0
 12
1267.995949984315
 22
888.2701706885526
 13
0.0
 23
0.0
 14
1.0
 24
1.0
 15
0.0
 25
0.0
 16
0.0
 26
0.0
 36
1.0
 17
0.0
 27
0.0
 37
0.0
 40
1776.709797836957
 41
1.403309203722854
 42
50.0
 43
0.0
 44
0.0
 50
0.0
 51
0.0
 71
     0
 72
   100
 73
     1
 74
     1
 75
     0
 76
     0
 77
     0
 78
     0
281
     0
 65
     1
110
0.0
120
0.0
130
0.0
111
1.0
121
0.0
131
0.0
112
0.0
122
1.0
132
0.0
 79
     0
146
0.0
1001
ACAD_NAV_VCDISPLAY
1070
     3
  0
ENDTAB
  0
TABLE
  2
LTYPE
  5
5
330
0
100
AcDbSymbolTable
 70
     7
  0
LTYPE
  5
12
330
5
100
AcDbSymbolTableRecord
100
AcDbLinetypeTableRecord
  2
BYBLOCK
 70
     0
  3

 72
    65
 73
     0
 40
0.0
  0
LTYPE
  5
13
330
5
100
AcDbSymbolTableRecord
100
AcDbLinetypeTableRecord
  2
BYLAYER
 70
     0
  3

 72
    65
 73
     0
 40
0.0
  0
LTYPE
  5
14
330
5
100
AcDbSymbolTableRecord
100
AcDbLinetypeTableRecord
  2
CONTINUOUS
 70
     0
  3
Solid line
 72
    65
 73
     0
 40
0.0
  0
LTYPE
  5
335E
330
5
100
AcDbSymbolTableRecord
100
AcDbLinetypeTableRecord
  2
ACISOWELD
 70
     0
  3
_ _ _ _ _
 72
    65
 73
     2
 40
2.0
 49
2.0
 74
     0
 49
-1.0
 74
     0
  0
LTYPE
  5
335F
330
5
100
AcDbSymbolTableRecord
100
AcDbLinetypeTableRecord
  2
ACISOTGL
 70
     0
  3
_ _ _ _ _
 72
    65
 73
     2
 40
3.0
 49
2.0
 74
     0
 49
-1.0
 74
     0
  0
LTYPE
  5
3360
330
5
100
AcDbSymbolTableRecord
100
AcDbLinetypeTableRecord
  2
ACISOTGB
 70
     0
  3
__ . . __ . .
 72
    65
 73
     6
 40
9.0
 49
4.0
 74
     0
 49
-1.0
 74
     0
 49
1.0
 74
     0
 49
-1.0
 74
     0
 49
1.0
 74
     0
 49
-1.0
 74
     0
  0
ENDTAB
  0
TABLE
  2
LAYER
  5
2
330
0
100
AcDbSymbolTable
 70
     1
  0
LAYER
  5
F
102
{ACAD_XDICTIONARY
360
32A7
102
}
330
2
100
AcDbSymbolTableRecord
100
AcDbLayerTableRecord
  2
0
 70
     0
 62
     7
  6
CONTINUOUS
370
    -3
390
324A
  0
ENDTAB
  0
TABLE
  2
STYLE
  5
3
330
0
100
AcDbSymbolTable
 70
     5
  0
STYLE
  5
10
330
3
100
AcDbSymbolTableRecord
100
AcDbTextStyleTableRecord
  2
STANDARD
 70
     0
 40
0.0
 41
0.8
 50
0.0
 71
     0
 42
24.0
  3
simplex
  4
extfont
  0
STYLE
  5
237C
330
3
100
AcDbSymbolTableRecord
100
AcDbTextStyleTableRecord
  2
PTSH
 70
     0
 40
0.0
 41
0.9
 50
0.0
 71
     0
 42
4.0
  3
SIMPLEX
  4
EXTFONT
  0
STYLE
  5
2592
330
3
100
AcDbSymbolTableRecord
100
AcDbTextStyleTableRecord
  2
DIM
 70
     0
 40
0.0
 41
0.8
 50
0.0
 71
     0
 42
4.0
  3
simplex
  4
extfont
  0
STYLE
  5
335D
330
3
100
AcDbSymbolTableRecord
100
AcDbTextStyleTableRecord
  2
ACISOGDT
 70
     0
 40
0.0
 41
1.0
 50
0.0
 71
     0
 42
24.0
  3
amgdt.shx
  4

  0
ENDTAB
  0
TABLE
  2
VIEW
  5
6
330
0
100
AcDbSymbolTable
 70
     0
  0
ENDTAB
  0
TABLE
  2
UCS
  5
7
330
0
100
AcDbSymbolTable
 70
     0
  0
ENDTAB
  0
TABLE
  2
APPID
  5
9
330
0
100
AcDbSymbolTable
 70
    17
  0
APPID
  5
11
330
9
100
AcDbSymbolTableRecord
100
AcDbRegAppTableRecord
  2
ACAD
 70
     0
  0
APPID
  5
32A1
330
9
100
AcDbSymbolTableRecord
100
AcDbRegAppTableRecord
  2
ACAD_MLEADERVER
 70
     0
  0
APPID
  5
32AB
330
9
100
AcDbSymbolTableRecord
100
AcDbRegAppTableRecord
  2
DCO15
 70
     0
  0
APPID
  5
3308
330
9
100
AcDbSymbolTableRecord
100
AcDbRegAppTableRecord
  2
MCAD_NO_VIS
 70
     0
  0
APPID
  5
3309
330
9
100
AcDbSymbolTableRecord
100
AcDbRegAppTableRecord
  2
ACAD_TEMP_GRAPHIC
 70
     0
  0
APPID
  5
3316
330
9
100
AcDbSymbolTableRecord
100
AcDbRegAppTableRecord
  2
ACATTRIBSERVICES
 70
     0
  0
APPID
  5
332E
330
9
100
AcDbSymbolTableRecord
100
AcDbRegAppTableRecord
  2
DESIGNERASSEMBLIES
 70
     0
  0
APPID
  5
334B
330
9
100
AcDbSymbolTableRecord
100
AcDbRegAppTableRecord
  2
ACAD_DSTYLE_DIMJAG
 70
     0
  0
APPID
  5
334C
330
9
100
AcDbSymbolTableRecord
100
AcDbRegAppTableRecord
  2
ACAD_DSTYLE_DIMBREAK
 70
     0
  0
APPID
  5
3370
330
9
100
AcDbSymbolTableRecord
100
AcDbRegAppTableRecord
  2
GENIUS_GENSCREG_15
 70
     0
  0
APPID
  5
3371
330
9
100
AcDbSymbolTableRecord
100
AcDbRegAppTableRecord
  2
GENIUS_GENODEF_13
 70
     0
  0
APPID
  5
3372
330
9
100
AcDbSymbolTableRecord
100
AcDbRegAppTableRecord
  2
GENIUS_GENOBJ-N-SDF_13
 70
     0
  0
APPID
  5
3373
330
9
100
AcDbSymbolTableRecord
100
AcDbRegAppTableRecord
  2
ACAD_NAV_VCDISPLAY
 70
     0
  0
APPID
  5
341F
330
9
100
AcDbSymbolTableRecord
100
AcDbRegAppTableRecord
  2
ACAD_DSTYLE_DIMARC_LENGTH_SYMBOL
 70
     0
  0
APPID
  5
3420
330
9
100
AcDbSymbolTableRecord
100
AcDbRegAppTableRecord
  2
ACAD_DSTYLE_DIM_LINETYPE
 70
     0
  0
APPID
  5
3421
330
9
100
AcDbSymbolTableRecord
100
AcDbRegAppTableRecord
  2
ACAD_DSTYLE_DIM_EXT1_LINETYPE
 70
     0
  0
APPID
  5
3422
330
9
100
AcDbSymbolTableRecord
100
AcDbRegAppTableRecord
  2
ACAD_DSTYLE_DIM_EXT2_LINETYPE
 70
     0
  0
ENDTAB
  0
TABLE
  2
DIMSTYLE
  5
A
330
0
100
AcDbSymbolTable
 70
     8
100
AcDbDimStyleTable
 71
     0
  0
DIMSTYLE
105
2237
330
A
100
AcDbSymbolTableRecord
100
AcDbDimStyleTableRecord
  2
DIM1
 70
     0
  3
 
 40
6.0
 41
2.799999999999999
 42
1.0
 43
5.0
 44
1.0
 45
0.1
 73
     0
 74
     0
 77
     3
 78
     8
140
2.5
141
0.0
143
1.0
146
0.7
147
0.85
172
     1
173
     1
176
     2
177
     2
178
     2
271
     2
272
     3
274
     3
284
     8
285
     8
286
     8
289
     0
340
2592
341
2448
343
2448
344
2448
  0
DIMSTYLE
105
334A
102
{ACAD_REACTORS
330
3339
102
}
330
A
100
AcDbSymbolTableRecord
100
AcDbDimStyleTableRecord
  2
AM_ISO
 70
     0
  4
"
 41
3.5
 42
1.0
 43
10.0
 44
1.0
 47
0.1
 48
0.1
 73
     0
 74
     0
 77
     1
 78
     8
 79
     2
140
3.5
141
0.0
143
0.0393701
146
0.71
147
1.5
172
     1
176
   256
177
   256
178
     2
271
     2
272
     3
274
     4
283
     0
284
     8
340
10
371
    -1
372
    -1
1001
ACAD_DSTYLE_DIMJAG
1070
   388
1040
1.5
1001
ACAD_DSTYLE_DIMBREAK
1070
   391
1040
3.75
1001
ACAD_DSTYLE_DIMARC_LENGTH_SYMBOL
1070
   379
1070
     1
1001
ACAD_DSTYLE_DIM_LINETYPE
1070
   380
1005
12
1001
ACAD_DSTYLE_DIM_EXT1_LINETYPE
1070
   381
1005
12
1001
ACAD_DSTYLE_DIM_EXT2_LINETYPE
1070
   382
1005
12
  0
DIMSTYLE
105
334E
330
A
100
AcDbSymbolTableRecord
100
AcDbDimStyleTableRecord
  2
AM_ISO$3
 70
     0
  4
"
 41
3.5
 42
1.0
 43
10.0
 44
1.0
 47
0.1
 48
0.1
 73
     0
 77
     1
 78
     8
 79
     2
140
3.5
141
0.0
143
0.0393701
146
0.71
147
1.5
176
   256
177
   256
178
     2
271
     2
272
     3
274
     4
283
     0
284
     8
288
     1
289
     0
340
10
371
    -1
372
    -1
1001
ACAD_DSTYLE_DIMBREAK
1070
   391
1040
3.75
1001
ACAD_DSTYLE_DIMJAG
1070
   388
1040
1.5
1001
ACAD_DSTYLE_DIMARC_LENGTH_SYMBOL
1070
   379
1070
     1
1001
ACAD_DSTYLE_DIM_LINETYPE
1070
   380
1005
12
1001
ACAD_DSTYLE_DIM_EXT1_LINETYPE
1070
   381
1005
12
1001
ACAD_DSTYLE_DIM_EXT2_LINETYPE
1070
   382
1005
12
  0
DIMSTYLE
105
334F
330
A
100
AcDbSymbolTableRecord
100
AcDbDimStyleTableRecord
  2
AM_ISO$4
 70
     0
  4
"
 41
3.5
 42
1.0
 43
10.0
 44
1.0
 47
0.1
 48
0.1
 73
     0
 77
     1
 78
     8
 79
     2
140
3.5
141
0.0
143
0.0393701
146
0.71
147
1.5
176
   256
177
   256
178
     2
271
     2
272
     3
274
     4
283
     0
284
     8
288
     1
289
     0
340
10
371
    -1
372
    -1
1001
ACAD_DSTYLE_DIMBREAK
1070
   391
1040
3.75
1001
ACAD_DSTYLE_DIMJAG
1070
   388
1040
1.5
1001
ACAD_DSTYLE_DIMARC_LENGTH_SYMBOL
1070
   379
1070
     1
1001
ACAD_DSTYLE_DIM_LINETYPE
1070
   380
1005
12
1001
ACAD_DSTYLE_DIM_EXT1_LINETYPE
1070
   381
1005
12
1001
ACAD_DSTYLE_DIM_EXT2_LINETYPE
1070
   382
1005
12
  0
DIMSTYLE
105
3350
330
A
100
AcDbSymbolTableRecord
100
AcDbDimStyleTableRecord
  2
AM_ISO$6
 70
     0
  4
"
 41
3.5
 42
1.0
 43
10.0
 44
1.0
 47
0.1
 48
0.1
 73
     0
 74
     0
 78
     8
 79
     2
140
3.5
141
0.0
143
0.0393701
146
0.71
147
1.5
172
     1
176
   256
177
   256
178
     2
271
     2
272
     3
274
     4
283
     0
284
     8
340
10
371
    -1
372
    -1
1001
ACAD_DSTYLE_DIMBREAK
1070
   391
1040
3.75
1001
ACAD_DSTYLE_DIMJAG
1070
   388
1040
1.5
1001
ACAD_DSTYLE_DIMARC_LENGTH_SYMBOL
1070
   379
1070
     1
1001
ACAD_DSTYLE_DIM_LINETYPE
1070
   380
1005
12
1001
ACAD_DSTYLE_DIM_EXT1_LINETYPE
1070
   381
1005
12
1001
ACAD_DSTYLE_DIM_EXT2_LINETYPE
1070
   382
1005
12
  0
DIMSTYLE
105
3351
330
A
100
AcDbSymbolTableRecord
100
AcDbDimStyleTableRecord
  2
AM_ISO$7
 70
     0
  4
"
 41
3.5
 42
1.0
 43
10.0
 44
1.0
 47
0.1
 48
0.1
 73
     0
 74
     0
 77
     1
 78
     8
 79
     2
140
3.5
141
0.0
143
0.0393701
146
0.71
147
1.5
172
     1
176
   256
177
   256
178
     2
271
     2
272
     3
274
     4
283
     0
284
     8
340
10
371
    -1
372
    -1
1001
ACAD_DSTYLE_DIMBREAK
1070
   391
1040
3.75
1001
ACAD_DSTYLE_DIMJAG
1070
   388
1040
1.5
1001
ACAD_DSTYLE_DIMARC_LENGTH_SYMBOL
1070
   379
1070
     1
1001
ACAD_DSTYLE_DIM_LINETYPE
1070
   380
1005
12
1001
ACAD_DSTYLE_DIM_EXT1_LINETYPE
1070
   381
1005
12
1001
ACAD_DSTYLE_DIM_EXT2_LINETYPE
1070
   382
1005
12
  0
DIMSTYLE
105
3352
330
A
100
AcDbSymbolTableRecord
100
AcDbDimStyleTableRecord
  2
AM_ISO$SF
 70
     0
  4
"
 41
3.5
 42
1.0
 43
10.0
 44
1.0
 47
0.1
 48
0.1
 73
     0
 74
     0
 75
     1
 76
     1
 77
     1
 78
     8
 79
     2
140
3.5
141
0.0
143
0.0393701
146
0.71
147
1.5
172
     1
176
   256
177
   256
178
     2
271
     2
272
     3
274
     4
283
     0
284
     8
340
10
371
    -1
372
    -1
1001
ACAD_DSTYLE_DIMBREAK
1070
   391
1040
3.75
1001
ACAD_DSTYLE_DIMJAG
1070
   388
1040
1.5
1001
ACAD_DSTYLE_DIMARC_LENGTH_SYMBOL
1070
   379
1070
     1
1001
ACAD_DSTYLE_DIM_LINETYPE
1070
   380
1005
12
1001
ACAD_DSTYLE_DIM_EXT1_LINETYPE
1070
   381
1005
12
1001
ACAD_DSTYLE_DIM_EXT2_LINETYPE
1070
   382
1005
12
  0
DIMSTYLE
105
3357
330
A
100
AcDbSymbolTableRecord
100
AcDbDimStyleTableRecord
  2
AM_ISO$SH
 70
     0
  4
"
 41
3.5
 42
1.0
 43
10.0
 44
1.0
 47
0.1
 48
0.1
 73
     0
 74
     0
 75
     1
 76
     1
 77
     1
 78
     8
 79
     2
140
3.5
141
0.0
143
0.0393701
144
2.0
146
0.71
147
1.5
172
     1
173
     1
176
   256
177
   256
178
     2
271
     2
272
     3
274
     4
283
     0
284
     8
340
10
343
3353
371
    -1
372
    -1
1001
ACAD_DSTYLE_DIMBREAK
1070
   391
1040
3.75
1001
ACAD_DSTYLE_DIMJAG
1070
   388
1040
1.5
1001
ACAD_DSTYLE_DIMARC_LENGTH_SYMBOL
1070
   379
1070
     1
1001
ACAD_DSTYLE_DIM_LINETYPE
1070
   380
1005
12
1001
ACAD_DSTYLE_DIM_EXT1_LINETYPE
1070
   381
1005
12
1001
ACAD_DSTYLE_DIM_EXT2_LINETYPE
1070
   382
1005
12
  0
ENDTAB
  0
TABLE
  2
BLOCK_RECORD
  5
1
330
0
100
AcDbSymbolTable
 70
     3
  0
BLOCK_RECORD
  5
18
330
1
100
AcDbSymbolTableRecord
100
AcDbBlockTableRecord
  2
*MODEL_SPACE
340
324F
  0
BLOCK_RECORD
  5
15
330
1
100
AcDbSymbolTableRecord
100
AcDbBlockTableRecord
  2
*PAPER_SPACE
340
3250
  0
BLOCK_RECORD
  5
2448
330
1
100
AcDbSymbolTableRecord
100
AcDbBlockTableRecord
  2
_OPEN
340
0
  0
BLOCK_RECORD
  5
3353
330
1
100
AcDbSymbolTableRecord
100
AcDbBlockTableRecord
  2
GENAXEH
340
0
  0
ENDTAB
  0
ENDSEC
  0
SECTION
  2
BLOCKS
  0
BLOCK
  5
3C
330
18
100
AcDbEntity
  8
0
100
AcDbBlockBegin
  2
*MODEL_SPACE
 70
     0
 10
0.0
 20
0.0
 30
0.0
  3
*MODEL_SPACE
  1

  0
ENDBLK
  5
3D
330
18
100
AcDbEntity
  8
0
100
AcDbBlockEnd
  0
BLOCK
  5
3A
330
15
100
AcDbEntity
 67
     1
  8
0
100
AcDbBlockBegin
  2
*PAPER_SPACE
 70
     0
 10
0.0
 20
0.0
 30
0.0
  3
*PAPER_SPACE
  1

  0
ENDBLK
  5
3B
330
15
100
AcDbEntity
 67
     1
  8
0
100
AcDbBlockEnd
  0
BLOCK
  5
2449
330
2448
100
AcDbEntity
  8
0
 48
4.0
100
AcDbBlockBegin
  2
_OPEN
 70
     0
 10
0.0
 20
0.0
 30
0.0
  3
_OPEN
  1
H1111.DWG
  0
LINE
  5
244A
330
2448
100
AcDbEntity
  8
0
  6
ByBlock
 62
     0
 48
4.0
100
AcDbLine
 10
-1.0
 20
0.1666666666666666
 30
0.0
 11
0.0
 21
0.0
 31
0.0
  0
LINE
  5
244B
330
2448
100
AcDbEntity
  8
0
  6
ByBlock
 62
     0
 48
4.0
100
AcDbLine
 10
0.0
 20
0.0
 30
0.0
 11
-1.0
 21
-0.1666666666666666
 31
0.0
  0
LINE
  5
244C
330
2448
100
AcDbEntity
  8
0
  6
ByBlock
 62
     0
 48
4.0
100
AcDbLine
 10
0.0
 20
0.0
 30
0.0
 11
-1.0
 21
0.0
 31
0.0
  0
ENDBLK
  5
244D
330
2448
100
AcDbEntity
  8
0
 48
4.0
100
AcDbBlockEnd
  0
BLOCK
  5
3355
330
3353
100
AcDbEntity
  8
0
100
AcDbBlockBegin
  2
GENAXEH
 70
     0
 10
0.0
 20
0.0
 30
0.0
  3
GENAXEH
  1

  0
LINE
  5
3354
330
3353
100
AcDbEntity
  8
0
100
AcDbLine
 10
-1.0
 20
0.0
 30
0.0
 11
1.0
 21
0.0
 31
0.0
  0
ENDBLK
  5
3356
330
3353
100
AcDbEntity
  8
0
100
AcDbBlockEnd
  0
ENDSEC
  0
SECTION
  2
ENTITIES
  0
TEXT
  5
2529
330
18
100
AcDbEntity
  8
0
  6
Continuous
100
AcDbText
 10
1605.541647801612
 20
48.48386969207012
 30
0.0
 40
18.0
  1
SS3N-F
 41
0.9
  7
PTSH
 72
     1
 11
1652.213076373041
 21
57.48386969207013
 31
0.0
100
AcDbText
 73
     2
  0
POLYLINE
  5
2563
330
18
100
AcDbEntity
  8
0
100
AcDb2dPolyline
 66
     1
 10
0.0
 20
0.0
 30
0.0
 70
     1
  0
VERTEX
  5
31D0
330
2563
100
AcDbEntity
  8
0
100
AcDbVertex
100
AcDb2dVertex
 10
66.0
 20
30.0
 30
0.0
  0
VERTEX
  5
31D1
330
2563
100
AcDbEntity
  8
0
100
AcDbVertex
100
AcDb2dVertex
 10
1716.0
 20
30.0
 30
0.0
  0
VERTEX
  5
31D2
330
2563
100
AcDbEntity
  8
0
100
AcDbVertex
100
AcDb2dVertex
 10
1716.0
 20
1146.0
 30
0.0
  0
VERTEX
  5
31D3
330
2563
100
AcDbEntity
  8
0
100
AcDbVertex
100
AcDb2dVertex
 10
66.0
 20
1146.0
 30
0.0
  0
SEQEND
  5
31D4
330
2563
100
AcDbEntity
  8
0
  0
LINE
  5
2AD0
330
18
100
AcDbEntity
  8
0
100
AcDbLine
 10
846.4415642047379
 20
784.5452347615555
 30
0.0
 11
918.9415642047379
 21
784.5452347615555
 31
0.0
  0
LINE
  5
2AD1
330
18
100
AcDbEntity
  8
0
100
AcDbLine
 10
906.991816736432
 20
710.5954872932498
 30
0.0
 11
923.8913116730437
 21
727.4949822298613
 31
0.0
  0
ARC
  5
2AD2
330
18
100
AcDbEntity
  8
0
100
AcDbCircle
 10
907.3359431430208
 20
621.9816380760971
 30
0.0
 40
11.5
100
AcDbArc
 50
26.21026946412987
 51
90.0
  0
ARC
  5
2AD3
330
18
100
AcDbEntity
  8
0
100
AcDbCircle
 10
907.3359431430208
 20
568.9816380760971
 30
0.0
 40
11.5
100
AcDbArc
 50
270.0
 51
333.7897305358702
  0
LINE
  5
2AD4
330
18
100
AcDbEntity
  8
0
100
AcDbLine
 10
846.4415642047423
 20
454.6749244964358
 30
0.0
 11
918.9415642047425
 21
454.6749244964358
 31
0.0
  0
LINE
  5
2AD5
330
18
100
AcDbEntity
  8
0
100
AcDbLine
 10
906.9918167364367
 20
380.72517702813
 30
0.0
 11
923.8913116730483
 21
397.6246719647416
 31
0.0
  0
TEXT
  5
2AD6
330
18
100
AcDbEntity
  8
0
100
AcDbText
 10
645.0663671070206
 20
60.17055115125732
 30
0.0
 40
25.0
  1
TLV  SS3N (JIS20K)
100
AcDbText
  0
LINE
  5
2AE2
330
18
100
AcDbEntity
  8
0
100
AcDbLine
 10
785.1915642047379
 20
759.8026019910767
 30
0.0
 11
785.1915642047379
 21
809.8026019910767
 31
0.0
  0
LINE
  5
2AE5
330
18
100
AcDbEntity
  8
0
100
AcDbLine
 10
280.7384590504998
 20
759.8026019910767
 30
0.0
 11
280.7384590504998
 21
807.3026019910766
 31
0.0
  0
LINE
  5
2AE8
330
18
100
AcDbEntity
  8
0
100
AcDbLine
 10
334.2384590504989
 20
783.8026019910767
 30
0.0
 11
402.238459050498
 21
783.8026019910767
 31
0.0
  0
LINE
  5
2AE9
330
18
100
AcDbEntity
  8
0
100
AcDbLine
 10
350.2592743306705
 20
707.8026019910769
 30
0.0
 11
386.2176437703274
 21
707.8026019910766
 31
0.0
  0
LINE
  5
2AEA
330
18
100
AcDbEntity
  8
0
100
AcDbLine
 10
343.4077057583536
 20
632.7390053056178
 30
0.0
 11
393.0692123426497
 21
632.7390053056178
 31
0.0
  0
LINE
  5
2AEB
330
18
100
AcDbEntity
  8
0
100
AcDbLine
 10
343.4077057583536
 20
556.7390053056178
 30
0.0
 11
393.0692123426497
 21
556.7390053056178
 31
0.0
  0
LINE
  5
2AEC
330
18
100
AcDbEntity
  8
0
100
AcDbLine
 10
334.2384590505035
 20
453.9322917259569
 30
0.0
 11
402.2384590505025
 21
453.9322917259569
 31
0.0
  0
LINE
  5
2AED
330
18
100
AcDbEntity
  8
0
100
AcDbLine
 10
350.259274330675
 20
377.9322917259571
 30
0.0
 11
386.217643770332
 21
377.9322917259569
 31
0.0
  0
TEXT
  5
2AEE
330
18
100
AcDbEntity
  8
0
100
AcDbText
 10
351.6433342319215
 20
328.5312844782261
 30
0.0
 40
20.0
  1
15
 41
0.8
 11
351.6433342319215
 21
328.5312844782261
 31
0.0
100
AcDbText
 73
     1
  0
CIRCLE
  5
2AF0
330
18
100
AcDbEntity
  8
0
100
AcDbCircle
 10
205.3571209362926
 20
454.6810290674861
 30
0.0
 40
6.0
  0
CIRCLE
  5
2AF1
330
18
100
AcDbEntity
  8
0
100
AcDbCircle
 10
155.8596462532341
 20
454.6810290674861
 30
0.0
 40
6.0
  0
LINE
  5
2AF2
330
18
100
AcDbEntity
  8
0
100
AcDbLine
 10
280.7384590505044
 20
429.9322917259569
 30
0.0
 11
280.7384590505044
 21
477.4322917259569
 31
0.0
  0
ARC
  5
2AF3
330
18
100
AcDbEntity
  8
0
100
AcDbCircle
 10
334.2384590505035
 20
445.4322917259569
 30
0.0
 40
8.5
100
AcDbArc
 50
90.0
 51
180.0
  0
CIRCLE
  5
2AF5
330
18
100
AcDbEntity
  8
0
100
AcDbCircle
 10
180.6083835947629
 20
429.9322917259569
 30
0.0
 40
47.5
  0
LINE
  5
2AF6
330
18
100
AcDbEntity
  8
0
100
AcDbLine
 10
234.5884437698515
 20
433.7319497071148
 30
0.0
 11
253.4951937698515
 21
433.7319497071148
 31
0.0
  0
LINE
  5
2AF7
330
18
100
AcDbEntity
  8
0
100
AcDbLine
 10
272.4030687698514
 20
427.4296997071151
 30
0.0
 11
240.8906937698512
 21
427.4296997071151
 31
0.0
  0
ELLIPSE
  5
2AF8
330
18
100
AcDbEntity
  8
0
100
AcDbEllipse
 10
180.6083835947629
 20
388.8898067653179
 30
0.0
 11
15.0
 21
0.0
 31
0.0
210
0.0
220
0.0
230
-1.0
 40
0.6873660710471238
 41
0.4516353881294564
 42
2.689957265460453
  0
ARC
  5
2AF9
330
18
100
AcDbEntity
  8
0
100
AcDbCircle
 10
180.6083835947629
 20
415.9322917259569
 30
0.0
 40
38.0
100
AcDbArc
 50
215.3930526750061
 51
324.6069473249939
  0
CIRCLE
  5
2AFA
330
18
100
AcDbEntity
  8
0
100
AcDbCircle
 10
155.8596462532341
 20
405.1835543844276
 30
0.0
 40
6.0
  0
CIRCLE
  5
2AFB
330
18
100
AcDbEntity
  8
0
100
AcDbCircle
 10
205.3571209362926
 20
405.1835543844276
 30
0.0
 40
6.0
  0
LINE
  5
2AFC
330
18
100
AcDbEntity
  8
0
100
AcDbLine
 10
240.8906937698512
 20
427.4296997071151
 30
0.0
 11
234.5884437698515
 21
433.7319497071148
 31
0.0
  0
LINE
  5
2B00
330
18
100
AcDbEntity
  8
0
100
AcDbLine
 10
280.7384590505044
 20
382.4322917259569
 30
0.0
 11
280.7384590505044
 21
429.9322917259569
 31
0.0
  0
LINE
  5
2B02
330
18
100
AcDbEntity
  8
0
100
AcDbLine
 10
253.4951937698515
 20
433.7319497071148
 30
0.0
 11
256.6474437698516
 21
430.580824707115
 31
0.0
  0
LINE
  5
2B03
330
18
100
AcDbEntity
  8
0
100
AcDbLine
 10
265.9635687698519
 20
433.7319497071148
 30
0.0
 11
272.4030687698514
 21
427.4296997071151
 31
0.0
  0
LINE
  5
2B04
330
18
100
AcDbEntity
  8
0
100
AcDbLine
 10
265.9635687698519
 20
430.580824707115
 30
0.0
 11
265.9635687698519
 21
433.7319497071148
 31
0.0
  0
LINE
  5
2B05
330
18
100
AcDbEntity
  8
0
100
AcDbLine
 10
256.6474437698516
 20
430.580824707115
 30
0.0
 11
265.9635687698519
 21
430.580824707115
 31
0.0
  0
LINE
  5
2B0E
330
18
100
AcDbEntity
  8
0
100
AcDbLine
 10
325.7384590505035
 20
402.4531070061282
 30
0.0
 11
325.7384590505035
 21
445.4322917259569
 31
0.0
  0
LINE
  5
2B0F
330
18
100
AcDbEntity
  8
0
100
AcDbLine
 10
344.2488666905892
 20
380.4218840858714
 30
0.0
 11
328.2280514104177
 21
396.4426993660424
 31
0.0
  0
ARC
  5
2B10
330
18
100
AcDbEntity
  8
0
100
AcDbCircle
 10
334.2384590505035
 20
402.4531070061282
 30
0.0
 40
8.5
100
AcDbArc
 50
180.0
 51
225.0000000000004
  0
ARC
  5
2B11
330
18
100
AcDbEntity
  8
0
100
AcDbCircle
 10
350.259274330675
 20
386.4322917259571
 30
0.0
 40
8.5
100
AcDbArc
 50
225.0000000000006
 51
269.9999999999995
  0
LINE
  5
2B12
330
18
100
AcDbEntity
  8
0
100
AcDbLine
 10
324.7707545226676
 20
444.9322917259567
 30
0.0
 11
324.7707545226667
 21
414.9322917259564
 31
0.0
  0
LINE
  5
2B13
330
18
100
AcDbEntity
  8
0
100
AcDbLine
 10
325.7384590505026
 20
445.4322917259567
 30
0.0
 11
325.7384590505035
 21
414.9322917259564
 31
0.0
  0
POLYLINE
  5
2B16
330
18
100
AcDbEntity
  8
0
100
AcDb2dPolyline
 66
     1
 10
0.0
 20
0.0
 30
0.0
  0
VERTEX
  5
31D5
330
2B16
100
AcDbEntity
  8
0
100
AcDbVertex
100
AcDb2dVertex
 10
325.7384590505044
 20
414.1061336097964
 30
0.0
  0
VERTEX
  5
31D6
330
2B16
100
AcDbEntity
  8
0
100
AcDbVertex
100
AcDb2dVertex
 10
324.7707545226676
 20
414.932291725956
 30
0.0
  0
SEQEND
  5
31D7
330
2B16
100
AcDbEntity
  8
0
  0
POLYLINE
  5
2B19
330
18
100
AcDbEntity
  8
0
100
AcDb2dPolyline
 66
     1
 10
0.0
 20
0.0
 30
0.0
  0
VERTEX
  5
31D8
330
2B19
100
AcDbEntity
  8
0
100
AcDbVertex
100
AcDb2dVertex
 10
325.7384590505044
 20
445.7584498421162
 30
0.0
  0
VERTEX
  5
31D9
330
2B19
100
AcDbEntity
  8
0
100
AcDbVertex
100
AcDb2dVertex
 10
324.7707545226676
 20
444.9322917259567
 30
0.0
  0
SEQEND
  5
31DA
330
2B19
100
AcDbEntity
  8
0
  0
ARC
  5
2B1E
330
18
100
AcDbEntity
  8
0
100
AcDbCircle
 10
343.4077057583536
 20
621.2390053056179
 30
0.0
 40
11.5
100
AcDbArc
 50
90.0
 51
153.7897305358792
  0
LINE
  5
2B1F
330
18
100
AcDbEntity
  8
0
100
AcDbLine
 10
280.7384590505044
 20
594.7390053056178
 30
0.0
 11
280.7384590505044
 21
642.2390053056179
 31
0.0
  0
LINE
  5
2B21
330
18
100
AcDbEntity
  8
0
100
AcDbLine
 10
232.5778160013324
 20
600.4962325589513
 30
0.0
 11
251.4845660013325
 21
600.4962325589513
 31
0.0
  0
LINE
  5
2B22
330
18
100
AcDbEntity
  8
0
100
AcDbLine
 10
270.3924410013324
 20
594.1939825589515
 30
0.0
 11
238.8800660013321
 21
594.1939825589515
 31
0.0
  0
LINE
  5
2B23
330
18
100
AcDbEntity
  8
0
100
AcDbLine
 10
238.8800660013321
 20
594.1939825589515
 30
0.0
 11
232.5778160013324
 21
600.4962325589513
 31
0.0
  0
LINE
  5
2B2A
330
18
100
AcDbEntity
  8
0
100
AcDbLine
 10
280.7384590505044
 20
547.2390053056178
 30
0.0
 11
280.7384590505044
 21
594.7390053056178
 31
0.0
  0
LINE
  5
2B2F
330
18
100
AcDbEntity
  8
0
100
AcDbLine
 10
254.6368160013326
 20
597.3451075589514
 30
0.0
 11
263.9529410013329
 21
597.3451075589514
 31
0.0
  0
LINE
  5
2B30
330
18
100
AcDbEntity
  8
0
100
AcDbLine
 10
251.4845660013325
 20
600.4962325589513
 30
0.0
 11
254.6368160013326
 21
597.3451075589514
 31
0.0
  0
LINE
  5
2B31
330
18
100
AcDbEntity
  8
0
100
AcDbLine
 10
263.9529410013329
 20
600.4962325589513
 30
0.0
 11
270.3924410013324
 21
594.1939825589515
 31
0.0
  0
LINE
  5
2B32
330
18
100
AcDbEntity
  8
0
100
AcDbLine
 10
263.9529410013329
 20
597.3451075589514
 30
0.0
 11
263.9529410013329
 21
600.4962325589513
 31
0.0
  0
LINE
  5
2B36
330
18
100
AcDbEntity
  8
0
100
AcDbLine
 10
324.7707545226658
 20
609.7390053056176
 30
0.0
 11
324.7707545226658
 21
579.7390053056174
 31
0.0
  0
ARC
  5
2B39
330
18
100
AcDbEntity
  8
0
100
AcDbCircle
 10
397.2384590505017
 20
594.7390053056178
 30
0.0
 40
71.5
100
AcDbArc
 50
153.7897305358336
 51
206.2102694641664
  0
ARC
  5
2B3A
330
18
100
AcDbEntity
  8
0
100
AcDbCircle
 10
343.4077057583536
 20
568.2390053056178
 30
0.0
 40
11.5
100
AcDbArc
 50
206.2102694641208
 51
270.0
  0
POLYLINE
  5
2B3B
330
18
100
AcDbEntity
  8
0
100
AcDb2dPolyline
 66
     1
 10
0.0
 20
0.0
 30
0.0
  0
VERTEX
  5
31DB
330
2B3B
100
AcDbEntity
  8
0
100
AcDbVertex
100
AcDb2dVertex
 10
327.9724764907405
 20
577.005600104419
 30
0.0
  0
VERTEX
  5
31DC
330
2B3B
100
AcDbEntity
  8
0
100
AcDbVertex
100
AcDb2dVertex
 10
324.7707545226658
 20
579.7390053056169
 30
0.0
  0
SEQEND
  5
31DD
330
2B3B
100
AcDbEntity
  8
0
  0
POLYLINE
  5
2B3F
330
18
100
AcDbEntity
  8
0
100
AcDb2dPolyline
 66
     1
 10
0.0
 20
0.0
 30
0.0
  0
VERTEX
  5
31DE
330
2B3F
100
AcDbEntity
  8
0
100
AcDbVertex
100
AcDb2dVertex
 10
327.9724764907396
 20
612.4724105068153
 30
0.0
  0
VERTEX
  5
31DF
330
2B3F
100
AcDbEntity
  8
0
100
AcDbVertex
100
AcDb2dVertex
 10
324.7707545226658
 20
609.7390053056176
 30
0.0
  0
SEQEND
  5
31E0
330
2B3F
100
AcDbEntity
  8
0
  0
LINE
  5
2B41
330
18
100
AcDbEntity
  8
0
100
AcDbLine
 10
344.2488666905847
 20
710.2921943509912
 30
0.0
 11
328.2280514104132
 21
726.3130096311622
 31
0.0
  0
LINE
  5
2B42
330
18
100
AcDbEntity
  8
0
100
AcDbLine
 10
280.7384590504998
 20
712.3026019910767
 30
0.0
 11
280.7384590504998
 21
759.8026019910767
 31
0.0
  0
ARC
  5
2B45
330
18
100
AcDbEntity
  8
0
100
AcDbCircle
 10
350.2592743306705
 20
716.3026019910769
 30
0.0
 40
8.5
100
AcDbArc
 50
225.0000000000006
 51
269.9999999999995
  0
LINE
  5
2B51
330
18
100
AcDbEntity
  8
0
100
AcDbLine
 10
325.7384590504989
 20
732.323417271248
 30
0.0
 11
325.7384590504989
 21
775.3026019910767
 31
0.0
  0
LINE
  5
2B52
330
18
100
AcDbEntity
  8
0
100
AcDbLine
 10
325.7384590504989
 20
775.3026019910764
 30
0.0
 11
325.7384590504989
 21
744.8026019910762
 31
0.0
  0
LINE
  5
2B53
330
18
100
AcDbEntity
  8
0
100
AcDbLine
 10
324.7707545226631
 20
774.8026019910764
 30
0.0
 11
324.7707545226622
 21
744.8026019910762
 31
0.0
  0
ARC
  5
2B56
330
18
100
AcDbEntity
  8
0
100
AcDbCircle
 10
334.2384590504989
 20
732.323417271248
 30
0.0
 40
8.5
100
AcDbArc
 50
180.0
 51
225.0000000000004
  0
POLYLINE
  5
2B57
330
18
100
AcDbEntity
  8
0
100
AcDb2dPolyline
 66
     1
 10
0.0
 20
0.0
 30
0.0
  0
VERTEX
  5
31E1
330
2B57
100
AcDbEntity
  8
0
100
AcDbVertex
100
AcDb2dVertex
 10
325.7384590504989
 20
743.9764438749161
 30
0.0
  0
VERTEX
  5
31E2
330
2B57
100
AcDbEntity
  8
0
100
AcDbVertex
100
AcDb2dVertex
 10
324.7707545226631
 20
744.8026019910757
 30
0.0
  0
SEQEND
  5
31E3
330
2B57
100
AcDbEntity
  8
0
  0
ARC
  5
2B5A
330
18
100
AcDbEntity
  8
0
100
AcDbCircle
 10
334.2384590504989
 20
775.3026019910767
 30
0.0
 40
8.5
100
AcDbArc
 50
90.0
 51
180.0
  0
POLYLINE
  5
2B5B
330
18
100
AcDbEntity
  8
0
100
AcDb2dPolyline
 66
     1
 10
0.0
 20
0.0
 30
0.0
  0
VERTEX
  5
31E4
330
2B5B
100
AcDbEntity
  8
0
100
AcDbVertex
100
AcDb2dVertex
 10
325.7384590504989
 20
775.6287601072361
 30
0.0
  0
VERTEX
  5
31E5
330
2B5B
100
AcDbEntity
  8
0
100
AcDbVertex
100
AcDb2dVertex
 10
324.7707545226631
 20
774.8026019910764
 30
0.0
  0
SEQEND
  5
31E6
330
2B5B
100
AcDbEntity
  8
0
  0
ARC
  5
2B5E
330
18
100
AcDbEntity
  8
0
100
AcDbCircle
 10
846.4415642047423
 20
447.6749244964357
 30
0.0
 40
7.0
100
AcDbArc
 50
90.0
 51
180.0
  0
CIRCLE
  5
2B5F
330
18
100
AcDbEntity
  8
0
100
AcDbCircle
 10
707.3017949045952
 20
456.4487960204523
 30
0.0
 40
6.0
  0
CIRCLE
  5
2B60
330
18
100
AcDbEntity
  8
0
100
AcDbCircle
 10
654.2687863156043
 20
456.4487960204523
 30
0.0
 40
6.0
  0
LINE
  5
2B61
330
18
100
AcDbEntity
  8
0
100
AcDbLine
 10
785.1915642047424
 20
429.9322917259569
 30
0.0
 11
785.1915642047424
 21
479.9322917259569
 31
0.0
  0
CIRCLE
  5
2B64
330
18
100
AcDbEntity
  8
0
100
AcDbCircle
 10
680.7852906100997
 20
429.9322917259569
 30
0.0
 40
50.0
  0
CIRCLE
  5
2B65
330
18
100
AcDbEntity
  8
0
100
AcDbCircle
 10
542.3221741311554
 20
454.6810290674861
 30
0.0
 40
6.0
  0
CIRCLE
  5
2B66
330
18
100
AcDbEntity
  8
0
100
AcDbCircle
 10
492.8246994480969
 20
454.6810290674861
 30
0.0
 40
6.0
  0
ARC
  5
2B67
330
18
100
AcDbEntity
  8
0
100
AcDbCircle
 10
402.2384590505025
 20
445.4322917259569
 30
0.0
 40
8.5
100
AcDbArc
 50
0.0
 51
90.0
  0
LINE
  5
2B68
330
18
100
AcDbEntity
  8
0
100
AcDbLine
 10
455.7384590505043
 20
429.9322917259569
 30
0.0
 11
455.7384590505043
 21
477.4322917259569
 31
0.0
  0
CIRCLE
  5
2B6A
330
18
100
AcDbEntity
  8
0
100
AcDbCircle
 10
517.5734367896266
 20
429.9322917259569
 30
0.0
 40
47.5
  0
CIRCLE
  5
2B6B
330
18
100
AcDbEntity
  8
0
100
AcDbCircle
 10
654.2687863156043
 20
403.4157874314614
 30
0.0
 40
6.0
  0
ARC
  5
2B6C
330
18
100
AcDbEntity
  8
0
100
AcDbCircle
 10
517.5734367896266
 20
415.9322917259569
 30
0.0
 40
38.0
100
AcDbArc
 50
215.3930526750061
 51
324.6069473249939
  0
CIRCLE
  5
2B6D
330
18
100
AcDbEntity
  8
0
100
AcDbCircle
 10
492.8246994480969
 20
405.1835543844276
 30
0.0
 40
6.0
  0
LINE
  5
2B70
330
18
100
AcDbEntity
  8
0
100
AcDbLine
 10
410.7384590505025
 20
402.4531070061287
 30
0.0
 11
410.7384590505025
 21
445.4322917259569
 31
0.0
  0
LINE
  5
2B71
330
18
100
AcDbEntity
  8
0
100
AcDbLine
 10
392.2280514104177
 20
380.4218840858714
 30
0.0
 11
408.2488666905883
 21
396.4426993660432
 31
0.0
  0
ARC
  5
2B72
330
18
100
AcDbEntity
  8
0
100
AcDbCircle
 10
386.217643770332
 20
386.4322917259569
 30
0.0
 40
8.5
100
AcDbArc
 50
269.999999999999
 51
315.0000000000017
  0
ARC
  5
2B73
330
18
100
AcDbEntity
  8
0
100
AcDbCircle
 10
402.2384590505025
 20
402.4531070061287
 30
0.0
 40
8.5
100
AcDbArc
 50
315.0000000000017
 51
0.0
  0
LINE
  5
2B74
330
18
100
AcDbEntity
  8
0
100
AcDbLine
 10
410.7384590505043
 20
444.9322917259564
 30
0.0
 11
410.7384590505034
 21
414.9322917259564
 31
0.0
  0
LINE
  5
2B77
330
18
100
AcDbEntity
  8
0
100
AcDbLine
 10
411.7061635783393
 20
444.9322917259567
 30
0.0
 11
411.7061635783402
 21
414.9322917259564
 31
0.0
  0
POLYLINE
  5
2B7C
330
18
100
AcDbEntity
  8
0
100
AcDb2dPolyline
 66
     1
 10
0.0
 20
0.0
 30
0.0
  0
VERTEX
  5
31E7
330
2B7C
100
AcDbEntity
  8
0
100
AcDbVertex
100
AcDb2dVertex
 10
410.7384590505025
 20
414.1061336097964
 30
0.0
  0
VERTEX
  5
31E8
330
2B7C
100
AcDbEntity
  8
0
100
AcDbVertex
100
AcDb2dVertex
 10
411.7061635783393
 20
414.932291725956
 30
0.0
  0
SEQEND
  5
31E9
330
2B7C
100
AcDbEntity
  8
0
  0
POLYLINE
  5
2B82
330
18
100
AcDbEntity
  8
0
100
AcDb2dPolyline
 66
     1
 10
0.0
 20
0.0
 30
0.0
  0
VERTEX
  5
31EA
330
2B82
100
AcDbEntity
  8
0
100
AcDbVertex
100
AcDb2dVertex
 10
410.7384590505025
 20
445.7584498421162
 30
0.0
  0
VERTEX
  5
31EB
330
2B82
100
AcDbEntity
  8
0
100
AcDbVertex
100
AcDb2dVertex
 10
411.7061635783393
 20
444.9322917259567
 30
0.0
  0
SEQEND
  5
31EC
330
2B82
100
AcDbEntity
  8
0
  0
ELLIPSE
  5
2B89
330
18
100
AcDbEntity
  8
0
100
AcDbEllipse
 10
517.5734367896266
 20
388.8898067653179
 30
0.0
 11
-15.0
 21
0.0
 31
0.0
210
0.0
220
0.0
230
1.0
 40
0.6873660710471238
 41
0.4516353881294564
 42
2.689957265460453
  0
CIRCLE
  5
2B8A
330
18
100
AcDbEntity
  8
0
100
AcDbCircle
 10
542.3221741311554
 20
405.1835543844276
 30
0.0
 40
6.0
  0
CIRCLE
  5
2B8B
330
18
100
AcDbEntity
  8
0
100
AcDbCircle
 10
707.3017949045952
 20
403.4157874314614
 30
0.0
 40
6.0
  0
ELLIPSE
  5
2B8C
330
18
100
AcDbEntity
  8
0
100
AcDbEllipse
 10
680.7852906100997
 20
389.6324395357967
 30
0.0
 11
15.0
 21
0.0
 31
0.0
210
0.0
220
0.0
230
-1.0
 40
0.6873660710471238
 41
1.116598331309346
 42
2.024994322280446
  0
ARC
  5
2B8D
330
18
100
AcDbEntity
  8
0
100
AcDbCircle
 10
680.7852906100997
 20
416.6749244964357
 30
0.0
 40
38.0
100
AcDbArc
 50
240.8841430153069
 51
299.1158569846931
  0
LINE
  5
2B8E
330
18
100
AcDbEntity
  8
0
100
AcDbLine
 10
739.779975163814
 20
437.7503689730802
 30
0.0
 11
758.6867251638141
 21
437.7503689730802
 31
0.0
  0
LINE
  5
2B8F
330
18
100
AcDbEntity
  8
0
100
AcDbLine
 10
746.0822251638137
 20
431.4481189730805
 30
0.0
 11
739.779975163814
 21
437.7503689730802
 31
0.0
  0
LINE
  5
2B90
330
18
100
AcDbEntity
  8
0
100
AcDbLine
 10
771.1551001638144
 20
437.7503689730802
 30
0.0
 11
777.594600163814
 21
431.4481189730805
 31
0.0
  0
LINE
  5
2B91
330
18
100
AcDbEntity
  8
0
100
AcDbLine
 10
777.594600163814
 20
431.4481189730805
 30
0.0
 11
746.0822251638137
 21
431.4481189730805
 31
0.0
  0
LINE
  5
2B92
330
18
100
AcDbEntity
  8
0
100
AcDbLine
 10
758.6867251638141
 20
437.7503689730802
 30
0.0
 11
761.8389751638142
 21
434.5992439730803
 31
0.0
  0
LINE
  5
2B93
330
18
100
AcDbEntity
  8
0
100
AcDbLine
 10
761.8389751638142
 20
434.5992439730803
 30
0.0
 11
771.1551001638144
 21
434.5992439730803
 31
0.0
  0
LINE
  5
2B94
330
18
100
AcDbEntity
  8
0
100
AcDbLine
 10
771.1551001638144
 20
434.5992439730803
 30
0.0
 11
771.1551001638144
 21
437.7503689730802
 31
0.0
  0
TEXT
  5
2B95
330
18
100
AcDbEntity
  8
0
100
AcDbText
 10
862.526504983869
 20
323.9623259261766
 30
0.0
 40
20.0
  1
20
 41
0.8
 11
862.526504983869
 21
323.9623259261766
 31
0.0
100
AcDbText
 73
     1
  0
LINE
  5
2B96
330
18
100
AcDbEntity
  8
0
100
AcDbLine
 10
858.3913116730482
 20
380.72517702813
 30
0.0
 11
841.4918167364367
 21
397.6246719647416
 31
0.0
  0
LINE
  5
2B98
330
18
100
AcDbEntity
  8
0
100
AcDbLine
 10
839.4415642047425
 20
447.6749244964357
 30
0.0
 11
839.4415642047425
 21
401.5744194330473
 31
0.0
  0
LINE
  5
2B99
330
18
100
AcDbEntity
  8
0
100
AcDbLine
 10
785.1915642047424
 20
379.9322917259569
 30
0.0
 11
785.1915642047424
 21
429.9322917259569
 31
0.0
  0
ARC
  5
2B9B
330
18
100
AcDbEntity
  8
0
100
AcDbCircle
 10
846.4415642047423
 20
402.5744194330473
 30
0.0
 40
7.0
100
AcDbArc
 50
180.0
 51
225.0000000000001
  0
LINE
  5
2BA4
330
18
100
AcDbEntity
  8
0
100
AcDbLine
 10
838.000478247368
 20
444.9322917259567
 30
0.0
 11
838.000478247368
 21
414.9322917259572
 31
0.0
  0
LINE
  5
2BA7
330
18
100
AcDbEntity
  8
0
100
AcDbLine
 10
838.000478247368
 20
414.9322917259572
 30
0.0
 11
839.4415642047425
 21
413.5947278174382
 31
0.0
  0
LINE
  5
2BAA
330
18
100
AcDbEntity
  8
0
100
AcDbLine
 10
838.000478247368
 20
444.9322917259567
 30
0.0
 11
839.4415642047425
 21
446.2698556344755
 31
0.0
  0
LINE
  5
2BAB
330
18
100
AcDbEntity
  8
0
100
AcDbLine
 10
863.3410591413539
 20
378.6749244964358
 30
0.0
 11
902.0420692681309
 21
378.6749244964358
 31
0.0
  0
LINE
  5
2BAC
330
18
100
AcDbEntity
  8
0
100
AcDbLine
 10
863.3410591413539
 20
378.6749244964358
 30
0.0
 11
902.0420692681309
 21
378.6749244964358
 31
0.0
  0
ARC
  5
2BAD
330
18
100
AcDbEntity
  8
0
100
AcDbCircle
 10
863.3410591413539
 20
385.6749244964358
 30
0.0
 40
7.0
100
AcDbArc
 50
225.0000000000002
 51
270.0
  0
ARC
  5
2BAE
330
18
100
AcDbEntity
  8
0
100
AcDbCircle
 10
902.0420692681309
 20
385.6749244964358
 30
0.0
 40
7.0
100
AcDbArc
 50
270.0
 51
314.9999999999998
  0
ARC
  5
2BAF
330
18
100
AcDbEntity
  8
0
100
AcDbCircle
 10
393.0692123426497
 20
621.2390053056179
 30
0.0
 40
11.5
100
AcDbArc
 50
26.21026946412987
 51
90.0
  0
LINE
  5
2BB9
330
18
100
AcDbEntity
  8
0
100
AcDbLine
 10
411.7061635783374
 20
609.7390053056176
 30
0.0
 11
411.7061635783384
 21
579.7390053056174
 31
0.0
  0
ARC
  5
2BBB
330
18
100
AcDbEntity
  8
0
100
AcDbCircle
 10
339.2384590505017
 20
594.7390053056178
 30
0.0
 40
71.5
100
AcDbArc
 50
333.7897305358246
 51
26.21026946417544
  0
ARC
  5
2BBC
330
18
100
AcDbEntity
  8
0
100
AcDbCircle
 10
393.0692123426497
 20
568.2390053056178
 30
0.0
 40
11.5
100
AcDbArc
 50
270.0
 51
333.7897305358702
  0
POLYLINE
  5
2BBE
330
18
100
AcDbEntity
  8
0
100
AcDb2dPolyline
 66
     1
 10
0.0
 20
0.0
 30
0.0
  0
VERTEX
  5
31ED
330
2BBE
100
AcDbEntity
  8
0
100
AcDbVertex
100
AcDb2dVertex
 10
408.5044416102719
 20
577.005600104426
 30
0.0
  0
VERTEX
  5
31EE
330
2BBE
100
AcDbEntity
  8
0
100
AcDbVertex
100
AcDb2dVertex
 10
411.7061635783374
 20
579.7390053056169
 30
0.0
  0
SEQEND
  5
31EF
330
2BBE
100
AcDbEntity
  8
0
  0
POLYLINE
  5
2BC7
330
18
100
AcDbEntity
  8
0
100
AcDb2dPolyline
 66
     1
 10
0.0
 20
0.0
 30
0.0
  0
VERTEX
  5
31F0
330
2BC7
100
AcDbEntity
  8
0
100
AcDbVertex
100
AcDb2dVertex
 10
408.5044416102719
 20
612.4724105068082
 30
0.0
  0
VERTEX
  5
31F1
330
2BC7
100
AcDbEntity
  8
0
100
AcDbVertex
100
AcDb2dVertex
 10
411.7061635783374
 20
609.7390053056176
 30
0.0
  0
SEQEND
  5
31F2
330
2BC7
100
AcDbEntity
  8
0
  0
LINE
  5
2BCB
330
18
100
AcDbEntity
  8
0
100
AcDbLine
 10
501.6201776068819
 20
754.93063651184
 30
0.0
 11
507.9224276068816
 21
761.2328865118398
 31
0.0
  0
LINE
  5
2BCC
330
18
100
AcDbEntity
  8
0
100
AcDbLine
 10
507.9224276068816
 20
761.2328865118398
 30
0.0
 11
489.0156776068815
 21
761.2328865118398
 31
0.0
  0
LINE
  5
2BCD
330
18
100
AcDbEntity
  8
0
100
AcDbLine
 10
392.2280514104132
 20
710.2921943509912
 30
0.0
 11
408.2488666905846
 21
726.3130096311629
 31
0.0
  0
ARC
  5
2BCF
330
18
100
AcDbEntity
  8
0
100
AcDbCircle
 10
386.2176437703274
 20
716.3026019910766
 30
0.0
 40
8.5
100
AcDbArc
 50
269.999999999999
 51
315.0000000000017
  0
LINE
  5
2BD6
330
18
100
AcDbEntity
  8
0
100
AcDbLine
 10
410.7384590504989
 20
732.3234172712484
 30
0.0
 11
410.738459050498
 21
775.3026019910767
 31
0.0
  0
LINE
  5
2BD7
330
18
100
AcDbEntity
  8
0
100
AcDbLine
 10
411.7061635783348
 20
774.8026019910764
 30
0.0
 11
411.7061635783357
 21
744.8026019910762
 31
0.0
  0
LINE
  5
2BD9
330
18
100
AcDbEntity
  8
0
100
AcDbLine
 10
410.7384590504989
 20
774.8026019910762
 30
0.0
 11
410.7384590504989
 21
744.8026019910762
 31
0.0
  0
ARC
  5
2BDC
330
18
100
AcDbEntity
  8
0
100
AcDbCircle
 10
402.2384590504989
 20
732.3234172712484
 30
0.0
 40
8.5
100
AcDbArc
 50
315.0000000000017
 51
0.0
  0
POLYLINE
  5
2BDF
330
18
100
AcDbEntity
  8
0
100
AcDb2dPolyline
 66
     1
 10
0.0
 20
0.0
 30
0.0
  0
VERTEX
  5
31F3
330
2BDF
100
AcDbEntity
  8
0
100
AcDbVertex
100
AcDb2dVertex
 10
410.7384590504989
 20
743.9764438749161
 30
0.0
  0
VERTEX
  5
31F4
330
2BDF
100
AcDbEntity
  8
0
100
AcDbVertex
100
AcDb2dVertex
 10
411.7061635783348
 20
744.8026019910757
 30
0.0
  0
SEQEND
  5
31F5
330
2BDF
100
AcDbEntity
  8
0
  0
ARC
  5
2BE3
330
18
100
AcDbEntity
  8
0
100
AcDbCircle
 10
402.238459050498
 20
775.3026019910767
 30
0.0
 40
8.5
100
AcDbArc
 50
0.0
 51
90.0
  0
POLYLINE
  5
2BE6
330
18
100
AcDbEntity
  8
0
100
AcDb2dPolyline
 66
     1
 10
0.0
 20
0.0
 30
0.0
  0
VERTEX
  5
31F6
330
2BE6
100
AcDbEntity
  8
0
100
AcDbVertex
100
AcDb2dVertex
 10
410.7384590504989
 20
775.6287601072361
 30
0.0
  0
VERTEX
  5
31F7
330
2BE6
100
AcDbEntity
  8
0
100
AcDbVertex
100
AcDb2dVertex
 10
411.7061635783348
 20
774.8026019910764
 30
0.0
  0
SEQEND
  5
31F8
330
2BE6
100
AcDbEntity
  8
0
  0
LINE
  5
2BEA
330
18
100
AcDbEntity
  8
0
100
AcDbLine
 10
476.5473026068812
 20
761.2328865118398
 30
0.0
 11
470.1078026068817
 21
754.93063651184
 31
0.0
  0
LINE
  5
2BEB
330
18
100
AcDbEntity
  8
0
100
AcDbLine
 10
470.1078026068817
 20
754.93063651184
 30
0.0
 11
501.6201776068819
 21
754.93063651184
 31
0.0
  0
LINE
  5
2BEC
330
18
100
AcDbEntity
  8
0
100
AcDbLine
 10
489.0156776068815
 20
761.2328865118398
 30
0.0
 11
485.8634276068815
 21
758.0817615118398
 31
0.0
  0
LINE
  5
2BED
330
18
100
AcDbEntity
  8
0
100
AcDbLine
 10
485.8634276068815
 20
758.0817615118398
 30
0.0
 11
476.5473026068812
 21
758.0817615118398
 31
0.0
  0
LINE
  5
2BEE
330
18
100
AcDbEntity
  8
0
100
AcDbLine
 10
476.5473026068812
 20
758.0817615118398
 30
0.0
 11
476.5473026068812
 21
761.2328865118398
 31
0.0
  0
ARC
  5
2BEF
330
18
100
AcDbEntity
  8
0
100
AcDbCircle
 10
857.6744365587247
 20
621.9816380760971
 30
0.0
 40
11.5
100
AcDbArc
 50
90.0
 51
153.7897305358792
  0
LINE
  5
2BF0
330
18
100
AcDbEntity
  8
0
100
AcDbLine
 10
785.1915642047424
 20
594.7390053056178
 30
0.0
 11
785.1915642047424
 21
644.7390053056178
 31
0.0
  0
LINE
  5
2BF2
330
18
100
AcDbEntity
  8
0
100
AcDbLine
 10
737.7693473953022
 20
594.4686036600033
 30
0.0
 11
756.6760973953023
 21
594.4686036600033
 31
0.0
  0
LINE
  5
2BF3
330
18
100
AcDbEntity
  8
0
100
AcDbLine
 10
775.5839723953022
 20
588.1663536600036
 30
0.0
 11
744.0715973953019
 21
588.1663536600036
 31
0.0
  0
LINE
  5
2BF4
330
18
100
AcDbEntity
  8
0
100
AcDbLine
 10
744.0715973953019
 20
588.1663536600036
 30
0.0
 11
737.7693473953022
 21
594.4686036600033
 31
0.0
  0
LINE
  5
2BF5
330
18
100
AcDbEntity
  8
0
100
AcDbLine
 10
759.8283473953024
 20
591.3174786600034
 30
0.0
 11
769.1444723953027
 21
591.3174786600034
 31
0.0
  0
LINE
  5
2BF6
330
18
100
AcDbEntity
  8
0
100
AcDbLine
 10
756.6760973953023
 20
594.4686036600033
 30
0.0
 11
759.8283473953024
 21
591.3174786600034
 31
0.0
  0
LINE
  5
2BF7
330
18
100
AcDbEntity
  8
0
100
AcDbLine
 10
769.1444723953027
 20
594.4686036600033
 30
0.0
 11
775.5839723953022
 21
588.1663536600036
 31
0.0
  0
LINE
  5
2BF8
330
18
100
AcDbEntity
  8
0
100
AcDbLine
 10
769.1444723953027
 20
591.3174786600034
 30
0.0
 11
769.1444723953027
 21
594.4686036600033
 31
0.0
  0
LINE
  5
2BFA
330
18
100
AcDbEntity
  8
0
100
AcDbLine
 10
838.0004782473651
 20
579.7390053056183
 30
0.0
 11
842.9614896576167
 21
575.134373792734
 31
0.0
  0
ARC
  5
2BFB
330
18
100
AcDbEntity
  8
0
100
AcDbCircle
 10
911.5051898508728
 20
595.4816380760972
 30
0.0
 40
71.5
100
AcDbArc
 50
153.7897305358336
 51
206.2102694641664
  0
LINE
  5
2BFF
330
18
100
AcDbEntity
  8
0
100
AcDbLine
 10
838.0004782473651
 20
609.7390053056174
 30
0.0
 11
838.0004782473651
 21
579.7390053056183
 31
0.0
  0
LINE
  5
2C01
330
18
100
AcDbEntity
  8
0
100
AcDbLine
 10
785.1915642047424
 20
544.7390053056178
 30
0.0
 11
785.1915642047424
 21
594.7390053056178
 31
0.0
  0
LINE
  5
2C0D
330
18
100
AcDbEntity
  8
0
100
AcDbLine
 10
838.0004782473651
 20
609.7390053056174
 30
0.0
 11
842.396772913764
 21
613.8194871442597
 31
0.0
  0
LINE
  5
2C0E
330
18
100
AcDbEntity
  8
0
100
AcDbLine
 10
857.6744365587247
 20
557.4816380760971
 30
0.0
 11
907.3359431430208
 21
557.4816380760971
 31
0.0
  0
ARC
  5
2C0F
330
18
100
AcDbEntity
  8
0
100
AcDbCircle
 10
857.6744365587247
 20
568.9816380760971
 30
0.0
 40
11.5
100
AcDbArc
 50
206.2102694641208
 51
270.0
  0
LINE
  5
2C10
330
18
100
AcDbEntity
  8
0
100
AcDbLine
 10
858.3913116730437
 20
710.5954872932498
 30
0.0
 11
841.4918167364321
 21
727.4949822298613
 31
0.0
  0
LINE
  5
2C11
330
18
100
AcDbEntity
  8
0
100
AcDbLine
 10
785.1915642047379
 20
709.8026019910767
 30
0.0
 11
785.1915642047379
 21
759.8026019910767
 31
0.0
  0
LINE
  5
2C14
330
18
100
AcDbEntity
  8
0
100
AcDbLine
 10
857.6744365587247
 20
633.4816380760972
 30
0.0
 11
907.3359431430208
 21
633.4816380760972
 31
0.0
  0
LINE
  5
2C15
330
18
100
AcDbEntity
  8
0
100
AcDbLine
 10
863.3410591413493
 20
708.5452347615555
 30
0.0
 11
902.0420692681264
 21
708.5452347615555
 31
0.0
  0
LINE
  5
2C16
330
18
100
AcDbEntity
  8
0
100
AcDbLine
 10
863.3410591413493
 20
708.5452347615555
 30
0.0
 11
902.0420692681264
 21
708.5452347615555
 31
0.0
  0
ARC
  5
2C17
330
18
100
AcDbEntity
  8
0
100
AcDbCircle
 10
863.3410591413493
 20
715.5452347615555
 30
0.0
 40
7.0
100
AcDbArc
 50
225.0000000000002
 51
270.0
  0
ARC
  5
2C18
330
18
100
AcDbEntity
  8
0
100
AcDbCircle
 10
902.0420692681264
 20
715.5452347615555
 30
0.0
 40
7.0
100
AcDbArc
 50
270.0
 51
314.9999999999998
  0
ARC
  5
2C19
330
18
100
AcDbEntity
  8
0
100
AcDbCircle
 10
846.4415642047379
 20
777.5452347615555
 30
0.0
 40
7.0
100
AcDbArc
 50
90.0
 51
180.0
  0
LINE
  5
2C1E
330
18
100
AcDbEntity
  8
0
100
AcDbLine
 10
839.4415642047379
 20
777.5452347615555
 30
0.0
 11
839.4415642047379
 21
731.444729698167
 31
0.0
  0
LINE
  5
2C1F
330
18
100
AcDbEntity
  8
0
100
AcDbLine
 10
838.0004782473633
 20
774.8026019910764
 30
0.0
 11
838.0004782473633
 21
744.8026019910769
 31
0.0
  0
ARC
  5
2C23
330
18
100
AcDbEntity
  8
0
100
AcDbCircle
 10
846.4415642047379
 20
732.444729698167
 30
0.0
 40
7.0
100
AcDbArc
 50
180.0
 51
225.0000000000001
  0
LINE
  5
2C26
330
18
100
AcDbEntity
  8
0
100
AcDbLine
 10
838.0004782473633
 20
744.8026019910769
 30
0.0
 11
839.4415642047379
 21
743.465038082558
 31
0.0
  0
LINE
  5
2C2C
330
18
100
AcDbEntity
  8
0
100
AcDbLine
 10
838.0004782473633
 20
774.8026019910764
 30
0.0
 11
839.4415642047379
 21
776.1401658995953
 31
0.0
  0
LINE
  5
2D19
330
18
100
AcDbEntity
  8
0
100
AcDbLine
 10
1346.856778406304
 20
757.7154103206312
 30
0.0
 11
1346.856778406304
 21
820.2154103206312
 31
0.0
  0
LINE
  5
2D1A
330
18
100
AcDbEntity
  8
0
100
AcDbLine
 10
1561.856778406304
 20
757.7154103206312
 30
0.0
 11
1561.856778406304
 21
820.2154103206312
 31
0.0
  0
LINE
  5
2D1C
330
18
100
AcDbEntity
  8
0
100
AcDbLine
 10
1418.106778406304
 20
781.7154103206312
 30
0.0
 11
1490.606778406304
 21
781.7154103206312
 31
0.0
  0
LINE
  5
2D1D
330
18
100
AcDbEntity
  8
0
100
AcDbLine
 10
1430.05652587461
 20
707.7656628523254
 30
0.0
 11
1413.157030937999
 21
724.665157788937
 31
0.0
  0
ARC
  5
2D1E
330
18
100
AcDbEntity
  8
0
100
AcDbCircle
 10
1428.776025114162
 20
621.2390053056179
 30
0.0
 40
11.5
100
AcDbArc
 50
90.0
 51
153.7897305358701
  0
ARC
  5
2D1F
330
18
100
AcDbEntity
  8
0
100
AcDbCircle
 10
1428.776025114162
 20
568.2390053056178
 30
0.0
 40
11.5
100
AcDbArc
 50
206.2102694641284
 51
270.0
  0
LINE
  5
2D20
330
18
100
AcDbEntity
  8
0
100
AcDbLine
 10
1418.106778406309
 20
453.9322917259569
 30
0.0
 11
1490.606778406309
 21
453.9322917259569
 31
0.0
  0
LINE
  5
2D21
330
18
100
AcDbEntity
  8
0
100
AcDbLine
 10
1430.056525874614
 20
379.9825442576512
 30
0.0
 11
1413.157030938002
 21
396.8820391942627
 31
0.0
  0
CIRCLE
  5
2D22
330
18
100
AcDbEntity
  8
0
100
AcDbCircle
 10
1198.12977302201
 20
461.7520968793514
 30
0.0
 40
7.5
  0
CIRCLE
  5
2D23
330
18
100
AcDbEntity
  8
0
100
AcDbCircle
 10
1261.769383328799
 20
461.7520968793514
 30
0.0
 40
7.5
  0
CIRCLE
  5
2D24
330
18
100
AcDbEntity
  8
0
100
AcDbCircle
 10
1073.515691226074
 20
456.4487960204523
 30
0.0
 40
6.0
  0
ARC
  5
2D26
330
18
100
AcDbEntity
  8
0
100
AcDbCircle
 10
918.9415642047425
 20
447.6749244964357
 30
0.0
 40
7.0
100
AcDbArc
 50
0.0
 51
90.0
  0
LINE
  5
2D27
330
18
100
AcDbEntity
  8
0
100
AcDbLine
 10
980.1915642047424
 20
429.9322917259569
 30
0.0
 11
980.1915642047424
 21
479.9322917259569
 31
0.0
  0
CIRCLE
  5
2D29
330
18
100
AcDbEntity
  8
0
100
AcDbCircle
 10
1046.999186931579
 20
429.9322917259569
 30
0.0
 40
50.0
  0
CIRCLE
  5
2D2A
330
18
100
AcDbEntity
  8
0
100
AcDbCircle
 10
1020.482682637083
 20
456.4487960204523
 30
0.0
 40
6.0
  0
LINE
  5
2D2B
330
18
100
AcDbEntity
  8
0
100
AcDbLine
 10
1346.856778406309
 20
429.9322917259569
 30
0.0
 11
1346.856778406309
 21
492.4322917259569
 31
0.0
  0
CIRCLE
  5
2D2D
330
18
100
AcDbEntity
  8
0
100
AcDbCircle
 10
1229.949578175405
 20
429.9322917259569
 30
0.0
 40
62.5
  0
CIRCLE
  5
2D2E
330
18
100
AcDbEntity
  8
0
100
AcDbCircle
 10
1020.482682637083
 20
403.4157874314614
 30
0.0
 40
6.0
  0
LINE
  5
2D30
330
18
100
AcDbEntity
  8
0
100
AcDbLine
 10
925.9415642047425
 20
447.6749244964357
 30
0.0
 11
925.9415642047425
 21
402.5744194330473
 31
0.0
  0
ARC
  5
2D32
330
18
100
AcDbEntity
  8
0
100
AcDbCircle
 10
918.9415642047425
 20
402.5744194330473
 30
0.0
 40
7.0
100
AcDbArc
 50
314.9999999999999
 51
0.0
  0
LINE
  5
2D35
330
18
100
AcDbEntity
  8
0
100
AcDbLine
 10
927.3826501621179
 20
444.9322917259567
 30
0.0
 11
927.3826501621179
 21
414.9322917259572
 31
0.0
  0
LINE
  5
2D36
330
18
100
AcDbEntity
  8
0
100
AcDbLine
 10
927.3826501621179
 20
414.9322917259572
 30
0.0
 11
925.9415642047434
 21
413.5947278174382
 31
0.0
  0
LINE
  5
2D37
330
18
100
AcDbEntity
  8
0
100
AcDbLine
 10
927.3826501621179
 20
444.9322917259567
 30
0.0
 11
925.9415642047434
 21
446.2698556344755
 31
0.0
  0
LINE
  5
2D42
330
18
100
AcDbEntity
  8
0
100
AcDbLine
 10
980.1915642047424
 20
379.9322917259569
 30
0.0
 11
980.1915642047424
 21
429.9322917259569
 31
0.0
  0
ELLIPSE
  5
2D43
330
18
100
AcDbEntity
  8
0
100
AcDbEllipse
 10
1046.999186931579
 20
389.6324395357967
 30
0.0
 11
-15.0
 21
0.0
 31
0.0
210
0.0
220
0.0
230
1.0
 40
0.6873660710471238
 41
1.116598331309346
 42
2.024994322280446
  0
ARC
  5
2D44
330
18
100
AcDbEntity
  8
0
100
AcDbCircle
 10
1046.999186931579
 20
416.6749244964357
 30
0.0
 40
38.0
100
AcDbArc
 50
240.8841430153069
 51
299.1158569846931
  0
CIRCLE
  5
2D45
330
18
100
AcDbEntity
  8
0
100
AcDbCircle
 10
1073.515691226074
 20
403.4157874314614
 30
0.0
 40
6.0
  0
CIRCLE
  5
2D46
330
18
100
AcDbEntity
  8
0
100
AcDbCircle
 10
1198.12977302201
 20
398.1124865725624
 30
0.0
 40
7.5
  0
CIRCLE
  5
2D47
330
18
100
AcDbEntity
  8
0
100
AcDbCircle
 10
1261.769383328799
 20
398.1124865725624
 30
0.0
 40
7.5
  0
LINE
  5
2D48
330
18
100
AcDbEntity
  8
0
100
AcDbLine
 10
1346.856778406309
 20
367.4322917259569
 30
0.0
 11
1346.856778406309
 21
429.9322917259569
 31
0.0
  0
LINE
  5
2D49
330
18
100
AcDbEntity
  8
0
100
AcDbLine
 10
1346.856778406309
 20
367.4322917259569
 30
0.0
 11
1346.856778406309
 21
429.9322917259569
 31
0.0
  0
LINE
  5
2D4D
330
18
100
AcDbEntity
  8
0
100
AcDbLine
 10
1340.817551758779
 20
427.4296997071151
 30
0.0
 11
1309.305176758779
 21
427.4296997071151
 31
0.0
  0
LINE
  5
2D4E
330
18
100
AcDbEntity
  8
0
100
AcDbLine
 10
1325.06192675878
 20
430.580824707115
 30
0.0
 11
1334.37805175878
 21
430.580824707115
 31
0.0
  0
LINE
  5
2D4F
330
18
100
AcDbEntity
  8
0
100
AcDbLine
 10
1309.305176758779
 20
427.4296997071151
 30
0.0
 11
1303.00292675878
 21
433.7319497071148
 31
0.0
  0
LINE
  5
2D50
330
18
100
AcDbEntity
  8
0
100
AcDbLine
 10
1321.90967675878
 20
433.7319497071148
 30
0.0
 11
1325.06192675878
 21
430.580824707115
 31
0.0
  0
LINE
  5
2D51
330
18
100
AcDbEntity
  8
0
100
AcDbLine
 10
1303.00292675878
 20
433.7319497071148
 30
0.0
 11
1321.90967675878
 21
433.7319497071148
 31
0.0
  0
LINE
  5
2D52
330
18
100
AcDbEntity
  8
0
100
AcDbLine
 10
1334.37805175878
 20
433.7319497071148
 30
0.0
 11
1340.817551758779
 21
427.4296997071151
 31
0.0
  0
LINE
  5
2D53
330
18
100
AcDbEntity
  8
0
100
AcDbLine
 10
1334.37805175878
 20
430.580824707115
 30
0.0
 11
1334.37805175878
 21
433.7319497071148
 31
0.0
  0
ARC
  5
2D54
330
18
100
AcDbEntity
  8
0
100
AcDbCircle
 10
1414.7241701842
 20
418.3437837331735
 30
0.0
 40
8.476199985339551
100
AcDbArc
 50
219.6751258965814
 51
244.7372206008405
  0
LINE
  5
2D55
330
18
100
AcDbEntity
  8
0
100
AcDbLine
 10
1411.106778406309
 20
446.9322917259569
 30
0.0
 11
1411.106778406309
 21
400.8317866625684
 31
0.0
  0
LINE
  5
2D56
330
18
100
AcDbEntity
  8
0
100
AcDbLine
 10
1411.106778406309
 20
446.9322917259569
 30
0.0
 11
1411.106778406309
 21
400.8317866625684
 31
0.0
  0
ARC
  5
2D57
330
18
100
AcDbEntity
  8
0
100
AcDbCircle
 10
1418.106778406309
 20
401.8317866625684
 30
0.0
 40
7.0
100
AcDbArc
 50
180.0
 51
225.0000000000001
  0
LINE
  5
2D5B
330
18
100
AcDbEntity
  8
0
100
AcDbLine
 10
1408.200235754172
 20
446.9322917259569
 30
0.0
 11
1408.200235754172
 21
412.9322917259569
 31
0.0
  0
ARC
  5
2D5C
330
18
100
AcDbEntity
  8
0
100
AcDbCircle
 10
1414.7241701842
 20
441.5207997187403
 30
0.0
 40
8.476199985339551
100
AcDbArc
 50
112.0028451455908
 51
140.3248741034186
  0
ARC
  5
2D5D
330
18
100
AcDbEntity
  8
0
100
AcDbCircle
 10
1418.106778406309
 20
446.9322917259569
 30
0.0
 40
7.0
100
AcDbArc
 50
90.0
 51
180.0
  0
LINE
  5
2D66
330
18
100
AcDbEntity
  8
0
100
AcDbLine
 10
927.3826501621151
 20
609.7390053056174
 30
0.0
 11
927.3826501621151
 21
579.7390053056183
 31
0.0
  0
ARC
  5
2D67
330
18
100
AcDbEntity
  8
0
100
AcDbCircle
 10
853.5051898508728
 20
595.4816380760972
 30
0.0
 40
71.5
100
AcDbArc
 50
333.7897305358246
 51
26.21026946417544
  0
LINE
  5
2D69
330
18
100
AcDbEntity
  8
0
100
AcDbLine
 10
927.3826501621151
 20
579.7390053056183
 30
0.0
 11
921.9046005833451
 21
574.654477649136
 31
0.0
  0
LINE
  5
2D6F
330
18
100
AcDbEntity
  8
0
100
AcDbLine
 10
927.3826501621151
 20
609.7390053056174
 30
0.0
 11
922.4896172642511
 21
614.280541619872
 31
0.0
  0
LINE
  5
2D7C
330
18
100
AcDbEntity
  8
0
100
AcDbLine
 10
925.9415642047379
 20
777.5452347615555
 30
0.0
 11
925.9415642047379
 21
732.444729698167
 31
0.0
  0
LINE
  5
2D7E
330
18
100
AcDbEntity
  8
0
100
AcDbLine
 10
927.3826501621133
 20
774.8026019910764
 30
0.0
 11
927.3826501621133
 21
744.8026019910769
 31
0.0
  0
ARC
  5
2D80
330
18
100
AcDbEntity
  8
0
100
AcDbCircle
 10
918.9415642047379
 20
732.444729698167
 30
0.0
 40
7.0
100
AcDbArc
 50
314.9999999999999
 51
0.0
  0
LINE
  5
2D81
330
18
100
AcDbEntity
  8
0
100
AcDbLine
 10
927.3826501621133
 20
744.8026019910769
 30
0.0
 11
925.9415642047388
 21
743.465038082558
 31
0.0
  0
ARC
  5
2D87
330
18
100
AcDbEntity
  8
0
100
AcDbCircle
 10
918.9415642047379
 20
777.5452347615555
 30
0.0
 40
7.0
100
AcDbArc
 50
0.0
 51
90.0
  0
LINE
  5
2D88
330
18
100
AcDbEntity
  8
0
100
AcDbLine
 10
927.3826501621133
 20
774.8026019910764
 30
0.0
 11
925.9415642047388
 21
776.1401658995953
 31
0.0
  0
LINE
  5
2D8D
330
18
100
AcDbEntity
  8
0
100
AcDbLine
 10
1007.140407550991
 20
766.1186000437705
 30
0.0
 11
997.8242825509914
 21
766.1186000437705
 31
0.0
  0
LINE
  5
2D8E
330
18
100
AcDbEntity
  8
0
100
AcDbLine
 10
991.384782550992
 20
762.9674750437707
 30
0.0
 11
1022.897157550992
 21
762.9674750437707
 31
0.0
  0
LINE
  5
2D8F
330
18
100
AcDbEntity
  8
0
100
AcDbLine
 10
997.8242825509914
 20
769.2697250437704
 30
0.0
 11
991.384782550992
 21
762.9674750437707
 31
0.0
  0
LINE
  5
2D90
330
18
100
AcDbEntity
  8
0
100
AcDbLine
 10
997.8242825509914
 20
766.1186000437705
 30
0.0
 11
997.8242825509914
 21
769.2697250437704
 31
0.0
  0
LINE
  5
2D91
330
18
100
AcDbEntity
  8
0
100
AcDbLine
 10
1029.199407550992
 20
769.2697250437704
 30
0.0
 11
1010.292657550992
 21
769.2697250437704
 31
0.0
  0
LINE
  5
2D92
330
18
100
AcDbEntity
  8
0
100
AcDbLine
 10
1010.292657550992
 20
769.2697250437704
 30
0.0
 11
1007.140407550991
 21
766.1186000437705
 31
0.0
  0
LINE
  5
2D93
330
18
100
AcDbEntity
  8
0
100
AcDbLine
 10
1022.897157550992
 20
762.9674750437707
 30
0.0
 11
1029.199407550992
 21
769.2697250437704
 31
0.0
  0
LINE
  5
2D95
330
18
100
AcDbEntity
  8
0
100
AcDbLine
 10
1346.856778406309
 20
594.7390053056178
 30
0.0
 11
1346.856778406309
 21
657.2390053056178
 31
0.0
  0
LINE
  5
2D96
330
18
100
AcDbEntity
  8
0
100
AcDbLine
 10
1294.960202483706
 20
602.505442191934
 30
0.0
 11
1313.866952483706
 21
602.505442191934
 31
0.0
  0
LINE
  5
2D97
330
18
100
AcDbEntity
  8
0
100
AcDbLine
 10
1301.262452483705
 20
596.2031921919342
 30
0.0
 11
1294.960202483706
 21
602.505442191934
 31
0.0
  0
LINE
  5
2D98
330
18
100
AcDbEntity
  8
0
100
AcDbLine
 10
1346.856778406309
 20
532.239005305618
 30
0.0
 11
1346.856778406309
 21
594.7390053056178
 31
0.0
  0
LINE
  5
2D99
330
18
100
AcDbEntity
  8
0
100
AcDbLine
 10
1346.856778406309
 20
532.2390053056178
 30
0.0
 11
1346.856778406309
 21
594.304053181439
 31
0.0
  0
LINE
  5
2D9E
330
18
100
AcDbEntity
  8
0
100
AcDbLine
 10
1332.774827483706
 20
596.2031921919342
 30
0.0
 11
1301.262452483705
 21
596.2031921919342
 31
0.0
  0
LINE
  5
2D9F
330
18
100
AcDbEntity
  8
0
100
AcDbLine
 10
1326.335327483706
 20
602.505442191934
 30
0.0
 11
1332.774827483706
 21
596.2031921919342
 31
0.0
  0
LINE
  5
2DA0
330
18
100
AcDbEntity
  8
0
100
AcDbLine
 10
1317.019202483706
 20
599.3543171919341
 30
0.0
 11
1326.335327483706
 21
599.3543171919341
 31
0.0
  0
LINE
  5
2DA1
330
18
100
AcDbEntity
  8
0
100
AcDbLine
 10
1313.866952483706
 20
602.505442191934
 30
0.0
 11
1317.019202483706
 21
599.3543171919341
 31
0.0
  0
LINE
  5
2DA2
330
18
100
AcDbEntity
  8
0
100
AcDbLine
 10
1326.335327483706
 20
599.3543171919341
 30
0.0
 11
1326.335327483706
 21
602.505442191934
 31
0.0
  0
LINE
  5
2DA4
330
18
100
AcDbEntity
  8
0
100
AcDbLine
 10
1413.970014381235
 20
614.7700967428408
 30
0.0
 11
1413.970014381235
 21
574.7079138683948
 31
0.0
  0
LINE
  5
2DA5
330
18
100
AcDbEntity
  8
0
100
AcDbLine
 10
1408.200235754172
 20
611.7390053056178
 30
0.0
 11
1408.200235754172
 21
577.7390053056178
 31
0.0
  0
ARC
  5
2DA7
330
18
100
AcDbEntity
  8
0
100
AcDbCircle
 10
1482.606778406309
 20
594.7390053056176
 30
0.0
 40
71.49999999999988
100
AcDbArc
 50
196.2694632677593
 51
206.2102694641755
  0
ARC
  5
2DA8
330
18
100
AcDbEntity
  8
0
100
AcDbCircle
 10
1414.7241701842
 20
583.1504973128343
 30
0.0
 40
8.476199985339551
100
AcDbArc
 50
219.6751258965814
 51
264.8954532826554
  0
ARC
  5
2DAA
330
18
100
AcDbEntity
  8
0
100
AcDbCircle
 10
1414.7241701842
 20
606.3275132984013
 30
0.0
 40
8.476199985339551
100
AcDbArc
 50
95.10454671734455
 51
140.3248741034186
  0
ARC
  5
2DAB
330
18
100
AcDbEntity
  8
0
100
AcDbCircle
 10
1482.606778406309
 20
594.7390053056176
 30
0.0
 40
71.49999999999988
100
AcDbArc
 50
153.7897305358244
 51
163.7305367322406
  0
LINE
  5
2DAC
330
18
100
AcDbEntity
  8
0
100
AcDbLine
 10
1346.856778406304
 20
695.2154103206314
 30
0.0
 11
1346.856778406304
 21
757.7154103206312
 31
0.0
  0
LINE
  5
2DAD
330
18
100
AcDbEntity
  8
0
100
AcDbLine
 10
1346.856778406304
 20
757.7154103206312
 30
0.0
 11
1346.856778406304
 21
695.2154103206314
 31
0.0
  0
LINE
  5
2DB3
330
18
100
AcDbEntity
  8
0
100
AcDbLine
 10
1408.200235754168
 20
774.7154103206312
 30
0.0
 11
1408.200235754168
 21
740.7154103206312
 31
0.0
  0
LINE
  5
2DB4
330
18
100
AcDbEntity
  8
0
100
AcDbLine
 10
1411.106778406304
 20
774.7154103206312
 30
0.0
 11
1411.106778406304
 21
728.6149052572429
 31
0.0
  0
LINE
  5
2DB5
330
18
100
AcDbEntity
  8
0
100
AcDbLine
 10
1411.106778406304
 20
774.7154103206312
 30
0.0
 11
1411.106778406304
 21
728.6149052572429
 31
0.0
  0
ARC
  5
2DB7
330
18
100
AcDbEntity
  8
0
100
AcDbCircle
 10
1414.724170184196
 20
746.1269023278478
 30
0.0
 40
8.476199985339551
100
AcDbArc
 50
219.6751258965814
 51
244.7372206008405
  0
ARC
  5
2DB8
330
18
100
AcDbEntity
  8
0
100
AcDbCircle
 10
1418.106778406304
 20
729.6149052572427
 30
0.0
 40
7.0
100
AcDbArc
 50
180.0
 51
225.0000000000001
  0
ARC
  5
2DBA
330
18
100
AcDbEntity
  8
0
100
AcDbCircle
 10
1414.724170184196
 20
769.3039183134149
 30
0.0
 40
8.476199985339551
100
AcDbArc
 50
112.0028451455908
 51
140.3248741034186
  0
ARC
  5
2DBB
330
18
100
AcDbEntity
  8
0
100
AcDbCircle
 10
1418.106778406304
 20
774.7154103206312
 30
0.0
 40
7.0
100
AcDbArc
 50
90.0
 51
180.0
  0
CIRCLE
  5
2DBC
330
18
100
AcDbEntity
  8
0
100
AcDbCircle
 10
1674.230106032706
 20
461.7520968793514
 30
0.0
 40
7.5
  0
CIRCLE
  5
2DBD
330
18
100
AcDbEntity
  8
0
100
AcDbCircle
 10
1610.590495725917
 20
461.7520968793514
 30
0.0
 40
7.5
  0
LINE
  5
2DBE
330
18
100
AcDbEntity
  8
0
100
AcDbLine
 10
1561.856778406309
 20
429.9322917259569
 30
0.0
 11
1561.856778406309
 21
492.4322917259569
 31
0.0
  0
CIRCLE
  5
2DC0
330
18
100
AcDbEntity
  8
0
100
AcDbCircle
 10
1642.410300879312
 20
429.9322917259569
 30
0.0
 40
62.5
  0
CIRCLE
  5
2DC1
330
18
100
AcDbEntity
  8
0
100
AcDbCircle
 10
1674.230106032706
 20
398.1124865725624
 30
0.0
 40
7.5
  0
TEXT
  5
2DC3
330
18
100
AcDbEntity
  8
0
100
AcDbText
 10
1442.190339454524
 20
321.2961949706855
 30
0.0
 40
20.0
  1
25
 41
0.8
 11
1442.190339454524
 21
321.2961949706855
 31
0.0
100
AcDbText
 73
     1
  0
ARC
  5
2DC4
330
18
100
AcDbEntity
  8
0
100
AcDbCircle
 10
1490.606778406309
 20
446.9322917259569
 30
0.0
 40
7.0
100
AcDbArc
 50
0.0
 51
90.0
  0
LINE
  5
2DC5
330
18
100
AcDbEntity
  8
0
100
AcDbLine
 10
1478.657030938003
 20
379.9825442576512
 30
0.0
 11
1495.556525874614
 21
396.8820391942627
 31
0.0
  0
LINE
  5
2DC6
330
18
100
AcDbEntity
  8
0
100
AcDbLine
 10
1435.00627334292
 20
377.9322917259569
 30
0.0
 11
1473.707283469697
 21
377.9322917259569
 31
0.0
  0
LINE
  5
2DC7
330
18
100
AcDbEntity
  8
0
100
AcDbLine
 10
1435.00627334292
 20
377.9322917259569
 30
0.0
 11
1473.707283469697
 21
377.9322917259569
 31
0.0
  0
ARC
  5
2DC8
330
18
100
AcDbEntity
  8
0
100
AcDbCircle
 10
1435.00627334292
 20
384.932291725957
 30
0.0
 40
7.0
100
AcDbArc
 50
225.0000000000002
 51
270.0
  0
ARC
  5
2DC9
330
18
100
AcDbEntity
  8
0
100
AcDbCircle
 10
1473.707283469697
 20
384.932291725957
 30
0.0
 40
7.0
100
AcDbArc
 50
270.0
 51
314.9999999999998
  0
ARC
  5
2DCB
330
18
100
AcDbEntity
  8
0
100
AcDbCircle
 10
1493.989386628416
 20
418.3437837331735
 30
0.0
 40
8.476199985339551
100
AcDbArc
 50
295.2627793991595
 51
320.3248741034185
  0
LINE
  5
2DCC
330
18
100
AcDbEntity
  8
0
100
AcDbLine
 10
1497.606778406309
 20
446.9322917259569
 30
0.0
 11
1497.606778406309
 21
400.8317866625684
 31
0.0
  0
ARC
  5
2DCD
330
18
100
AcDbEntity
  8
0
100
AcDbCircle
 10
1490.606778406309
 20
401.8317866625684
 30
0.0
 40
7.0
100
AcDbArc
 50
314.9999999999999
 51
0.0
  0
LINE
  5
2DD0
330
18
100
AcDbEntity
  8
0
100
AcDbLine
 10
1500.513321058444
 20
446.9322917259569
 30
0.0
 11
1500.513321058444
 21
412.9322917259569
 31
0.0
  0
ARC
  5
2DD1
330
18
100
AcDbEntity
  8
0
100
AcDbCircle
 10
1493.989386628416
 20
441.5207997187403
 30
0.0
 40
8.476199985339551
100
AcDbArc
 50
39.67512589658142
 51
67.99715485440917
  0
LINE
  5
2DD4
330
18
100
AcDbEntity
  8
0
100
AcDbLine
 10
1561.856778406309
 20
367.4322917259569
 30
0.0
 11
1561.856778406309
 21
429.9322917259569
 31
0.0
  0
LINE
  5
2DD5
330
18
100
AcDbEntity
  8
0
100
AcDbLine
 10
1561.856778406309
 20
367.4322917259569
 30
0.0
 11
1561.856778406309
 21
429.9322917259569
 31
0.0
  0
CIRCLE
  5
2DD6
330
18
100
AcDbEntity
  8
0
100
AcDbCircle
 10
1610.590495725917
 20
398.1124865725624
 30
0.0
 40
7.5
  0
LINE
  5
2DD8
330
18
100
AcDbEntity
  8
0
100
AcDbLine
 10
1561.856778406309
 20
594.7390053056178
 30
0.0
 11
1561.856778406309
 21
657.2390053056178
 31
0.0
  0
ARC
  5
2DD9
330
18
100
AcDbEntity
  8
0
100
AcDbCircle
 10
1479.937531698455
 20
621.2390053056177
 30
0.0
 40
11.5
100
AcDbArc
 50
26.21026946412993
 51
90.0
  0
ARC
  5
2DDC
330
18
100
AcDbEntity
  8
0
100
AcDbCircle
 10
1426.106778406309
 20
594.7390053056178
 30
0.0
 40
71.49999999999988
100
AcDbArc
 50
16.26946326775938
 51
26.21026946417554
  0
ARC
  5
2DDD
330
18
100
AcDbEntity
  8
0
100
AcDbCircle
 10
1426.106778406309
 20
594.7390053056178
 30
0.0
 40
71.49999999999988
100
AcDbArc
 50
333.7897305358245
 51
343.7305367322406
  0
LINE
  5
2DDE
330
18
100
AcDbEntity
  8
0
100
AcDbLine
 10
1428.776025114162
 20
556.7390053056178
 30
0.0
 11
1479.937531698455
 21
556.7390053056178
 31
0.0
  0
ARC
  5
2DDF
330
18
100
AcDbEntity
  8
0
100
AcDbCircle
 10
1479.937531698455
 20
568.2390053056178
 30
0.0
 40
11.5
100
AcDbArc
 50
270.0
 51
333.7897305358702
  0
LINE
  5
2DE1
330
18
100
AcDbEntity
  8
0
100
AcDbLine
 10
1494.743542431382
 20
614.7700967428408
 30
0.0
 11
1494.743542431382
 21
574.7079138683948
 31
0.0
  0
LINE
  5
2DE2
330
18
100
AcDbEntity
  8
0
100
AcDbLine
 10
1500.513321058444
 20
611.7390053056178
 30
0.0
 11
1500.513321058444
 21
577.7390053056178
 31
0.0
  0
ARC
  5
2DE4
330
18
100
AcDbEntity
  8
0
100
AcDbCircle
 10
1493.989386628417
 20
583.1504973128343
 30
0.0
 40
8.476199985339551
100
AcDbArc
 50
275.1045467173468
 51
320.3248741034185
  0
ARC
  5
2DE7
330
18
100
AcDbEntity
  8
0
100
AcDbCircle
 10
1493.989386628417
 20
606.3275132984013
 30
0.0
 40
8.476199985339551
100
AcDbArc
 50
39.67512589658142
 51
84.89545328265313
  0
LINE
  5
2DE9
330
18
100
AcDbEntity
  8
0
100
AcDbLine
 10
1561.856778406309
 20
532.239005305618
 30
0.0
 11
1561.856778406309
 21
594.7390053056178
 31
0.0
  0
LINE
  5
2DEA
330
18
100
AcDbEntity
  8
0
100
AcDbLine
 10
1561.856778406309
 20
532.2390053056178
 30
0.0
 11
1561.856778406309
 21
594.7390053056178
 31
0.0
  0
LINE
  5
2DED
330
18
100
AcDbEntity
  8
0
100
AcDbLine
 10
1478.657030937998
 20
707.7656628523254
 30
0.0
 11
1495.55652587461
 21
724.665157788937
 31
0.0
  0
LINE
  5
2DEE
330
18
100
AcDbEntity
  8
0
100
AcDbLine
 10
1428.776025114162
 20
632.7390053056178
 30
0.0
 11
1479.937531698455
 21
632.7390053056178
 31
0.0
  0
LINE
  5
2DEF
330
18
100
AcDbEntity
  8
0
100
AcDbLine
 10
1435.006273342916
 20
705.7154103206312
 30
0.0
 11
1473.707283469693
 21
705.7154103206312
 31
0.0
  0
LINE
  5
2DF0
330
18
100
AcDbEntity
  8
0
100
AcDbLine
 10
1435.006273342916
 20
705.7154103206315
 30
0.0
 11
1473.707283469693
 21
705.7154103206312
 31
0.0
  0
ARC
  5
2DF1
330
18
100
AcDbEntity
  8
0
100
AcDbCircle
 10
1435.006273342916
 20
712.7154103206312
 30
0.0
 40
7.0
100
AcDbArc
 50
225.0000000000002
 51
270.0
  0
ARC
  5
2DF2
330
18
100
AcDbEntity
  8
0
100
AcDbCircle
 10
1473.707283469693
 20
712.7154103206312
 30
0.0
 40
7.0
100
AcDbArc
 50
270.0
 51
314.9999999999998
  0
ARC
  5
2DF3
330
18
100
AcDbEntity
  8
0
100
AcDbCircle
 10
1490.606778406304
 20
774.7154103206312
 30
0.0
 40
7.0
100
AcDbArc
 50
0.0
 51
90.0
  0
LINE
  5
2DF5
330
18
100
AcDbEntity
  8
0
100
AcDbLine
 10
1500.513321058441
 20
774.7154103206312
 30
0.0
 11
1500.513321058441
 21
740.7154103206312
 31
0.0
  0
LINE
  5
2DF6
330
18
100
AcDbEntity
  8
0
100
AcDbLine
 10
1497.606778406304
 20
774.7154103206312
 30
0.0
 11
1497.606778406304
 21
728.6149052572429
 31
0.0
  0
ARC
  5
2DF8
330
18
100
AcDbEntity
  8
0
100
AcDbCircle
 10
1493.989386628413
 20
746.1269023278478
 30
0.0
 40
8.476199985339551
100
AcDbArc
 50
295.2627793991595
 51
320.3248741034185
  0
ARC
  5
2DF9
330
18
100
AcDbEntity
  8
0
100
AcDbCircle
 10
1490.606778406304
 20
729.6149052572427
 30
0.0
 40
7.0
100
AcDbArc
 50
314.9999999999999
 51
0.0
  0
ARC
  5
2DFC
330
18
100
AcDbEntity
  8
0
100
AcDbCircle
 10
1493.989386628413
 20
769.3039183134149
 30
0.0
 40
8.476199985339551
100
AcDbArc
 50
39.67512589658142
 51
67.99715485440917
  0
LINE
  5
2DFE
330
18
100
AcDbEntity
  8
0
100
AcDbLine
 10
1561.856778406304
 20
695.2154103206314
 30
0.0
 11
1561.856778406304
 21
757.7154103206312
 31
0.0
  0
LINE
  5
2DFF
330
18
100
AcDbEntity
  8
0
100
AcDbLine
 10
1561.856778406304
 20
757.7154103206312
 30
0.0
 11
1561.856778406304
 21
695.2154103206312
 31
0.0
  0
LINE
  5
2E00
330
18
100
AcDbEntity
  8
0
100
AcDbLine
 10
1608.237512068654
 20
758.9490557778053
 30
0.0
 11
1614.539762068654
 21
765.2513057778051
 31
0.0
  0
LINE
  5
2E01
330
18
100
AcDbEntity
  8
0
100
AcDbLine
 10
1583.164637068654
 20
765.2513057778051
 30
0.0
 11
1576.725137068654
 21
758.9490557778053
 31
0.0
  0
LINE
  5
2E02
330
18
100
AcDbEntity
  8
0
100
AcDbLine
 10
1583.164637068654
 20
762.1001807778052
 30
0.0
 11
1583.164637068654
 21
765.2513057778051
 31
0.0
  0
LINE
  5
2E03
330
18
100
AcDbEntity
  8
0
100
AcDbLine
 10
1595.633012068654
 20
765.2513057778051
 30
0.0
 11
1592.480762068654
 21
762.1001807778052
 31
0.0
  0
LINE
  5
2E04
330
18
100
AcDbEntity
  8
0
100
AcDbLine
 10
1592.480762068654
 20
762.1001807778052
 30
0.0
 11
1583.164637068654
 21
762.1001807778052
 31
0.0
  0
LINE
  5
2E05
330
18
100
AcDbEntity
  8
0
100
AcDbLine
 10
1576.725137068654
 20
758.9490557778053
 30
0.0
 11
1608.237512068654
 21
758.9490557778053
 31
0.0
  0
LINE
  5
2E06
330
18
100
AcDbEntity
  8
0
100
AcDbLine
 10
1614.539762068654
 20
765.2513057778051
 30
0.0
 11
1595.633012068654
 21
765.2513057778051
 31
0.0
  0
LINE
  5
2F89
330
18
100
AcDbEntity
  8
0
100
AcDbLine
 10
441.7384590505044
 20
477.4322917259569
 30
0.0
 11
441.7384590505044
 21
382.4322917259569
 31
0.0
  0
LINE
  5
2F8A
330
18
100
AcDbEntity
  8
0
100
AcDbLine
 10
455.7384590505043
 20
477.4322917259569
 30
0.0
 11
441.7384590505044
 21
477.4322917259569
 31
0.0
  0
LINE
  5
2F94
330
18
100
AcDbEntity
  8
0
100
AcDbLine
 10
455.7384590505043
 20
382.4322917259569
 30
0.0
 11
441.7384590505044
 21
382.4322917259569
 31
0.0
  0
LINE
  5
2F9A
330
18
100
AcDbEntity
  8
0
100
AcDbLine
 10
455.7384590505043
 20
429.9322917259569
 30
0.0
 11
455.7384590505043
 21
382.4322917259569
 31
0.0
  0
LINE
  5
2FA4
330
18
100
AcDbEntity
  8
0
100
AcDbLine
 10
421.7384590505044
 20
444.9322917259569
 30
0.0
 11
425.8884590505044
 21
440.7822917259569
 31
0.0
  0
LINE
  5
2FA5
330
18
100
AcDbEntity
  8
0
100
AcDbLine
 10
421.7384590505044
 20
444.9322917259569
 30
0.0
 11
421.7384590505044
 21
414.9322917259569
 31
0.0
  0
LINE
  5
2FA7
330
18
100
AcDbEntity
  8
0
100
AcDbLine
 10
421.7384590505044
 20
414.9322917259569
 30
0.0
 11
411.7061635783401
 21
414.9322917259569
 31
0.0
  0
LINE
  5
2FA8
330
18
100
AcDbEntity
  8
0
100
AcDbLine
 10
421.7384590505043
 20
414.9322917259569
 30
0.0
 11
425.8884590505044
 21
419.0822917259569
 31
0.0
  0
LINE
  5
2FA9
330
18
100
AcDbEntity
  8
0
100
AcDbLine
 10
433.7384590505044
 20
419.0822917259569
 30
0.0
 11
425.8884590505044
 21
419.0822917259569
 31
0.0
  0
LINE
  5
2FAA
330
18
100
AcDbEntity
  8
0
100
AcDbLine
 10
433.7384590505044
 20
440.7822917259569
 30
0.0
 11
425.8884590505044
 21
440.7822917259569
 31
0.0
  0
LINE
  5
2FAB
330
18
100
AcDbEntity
  8
0
100
AcDbLine
 10
425.8884590505044
 20
440.7822917259569
 30
0.0
 11
425.8884590505044
 21
419.0822917259569
 31
0.0
  0
LINE
  5
2FAC
330
18
100
AcDbEntity
  8
0
100
AcDbLine
 10
433.7384590505044
 20
440.7822917259569
 30
0.0
 11
433.7384590505044
 21
419.0822917259569
 31
0.0
  0
LINE
  5
2FAD
330
18
100
AcDbEntity
  8
0
100
AcDbLine
 10
421.7384590505044
 20
444.9322917259569
 30
0.0
 11
411.7061635783393
 21
444.9322917259569
 31
0.0
  0
LINE
  5
2FAE
330
18
100
AcDbEntity
  8
0
100
AcDbLine
 10
433.7384590505044
 20
440.7822917259569
 30
0.0
 11
440.176344128883
 21
445.7314158799603
 31
0.0
  0
ARC
  5
2FAF
330
18
100
AcDbEntity
  8
0
100
AcDbCircle
 10
437.7384590505044
 20
448.9026485022414
 30
0.0
 40
4.0
100
AcDbArc
 50
307.5512821261784
 51
0.0
  0
LINE
  5
2FB0
330
18
100
AcDbEntity
  8
0
100
AcDbLine
 10
433.7384590505044
 20
419.0822917259569
 30
0.0
 11
440.176344128883
 21
414.1331675719534
 31
0.0
  0
ARC
  5
2FB1
330
18
100
AcDbEntity
  8
0
100
AcDbCircle
 10
437.7384590505044
 20
410.9619349496724
 30
0.0
 40
4.0
100
AcDbArc
 50
0.0
 51
52.44871787382139
  0
LINE
  5
2FB2
330
18
100
AcDbEntity
  8
0
100
AcDbLine
 10
294.7384590505043
 20
477.4322917259569
 30
0.0
 11
294.7384590505043
 21
382.4322917259569
 31
0.0
  0
LINE
  5
2FB3
330
18
100
AcDbEntity
  8
0
100
AcDbLine
 10
280.7384590505044
 20
382.4322917259569
 30
0.0
 11
294.7384590505043
 21
382.4322917259569
 31
0.0
  0
LINE
  5
2FB4
330
18
100
AcDbEntity
  8
0
100
AcDbLine
 10
302.7384590505043
 20
419.0822917259569
 30
0.0
 11
296.3005739721258
 21
414.1331675719534
 31
0.0
  0
LINE
  5
2FB5
330
18
100
AcDbEntity
  8
0
100
AcDbLine
 10
302.7384590505044
 20
440.7822917259569
 30
0.0
 11
296.3005739721258
 21
445.7314158799603
 31
0.0
  0
LINE
  5
2FB6
330
18
100
AcDbEntity
  8
0
100
AcDbLine
 10
302.7384590505044
 20
440.7822917259569
 30
0.0
 11
302.7384590505043
 21
419.0822917259569
 31
0.0
  0
LINE
  5
2FB7
330
18
100
AcDbEntity
  8
0
100
AcDbLine
 10
310.5884590505043
 20
440.7822917259569
 30
0.0
 11
310.5884590505044
 21
419.0822917259569
 31
0.0
  0
LINE
  5
2FB8
330
18
100
AcDbEntity
  8
0
100
AcDbLine
 10
314.7384590505043
 20
444.9322917259569
 30
0.0
 11
314.7384590505043
 21
414.9322917259569
 31
0.0
  0
LINE
  5
2FB9
330
18
100
AcDbEntity
  8
0
100
AcDbLine
 10
314.7384590505043
 20
414.9322917259569
 30
0.0
 11
324.7707545226686
 21
414.9322917259569
 31
0.0
  0
LINE
  5
2FBA
330
18
100
AcDbEntity
  8
0
100
AcDbLine
 10
302.7384590505043
 20
419.0822917259569
 30
0.0
 11
310.5884590505043
 21
419.0822917259569
 31
0.0
  0
LINE
  5
2FBB
330
18
100
AcDbEntity
  8
0
100
AcDbLine
 10
314.7384590505044
 20
414.9322917259569
 30
0.0
 11
310.5884590505044
 21
419.0822917259569
 31
0.0
  0
LINE
  5
2FBC
330
18
100
AcDbEntity
  8
0
100
AcDbLine
 10
314.7384590505043
 20
444.9322917259569
 30
0.0
 11
324.7707545226695
 21
444.9322917259569
 31
0.0
  0
LINE
  5
2FBD
330
18
100
AcDbEntity
  8
0
100
AcDbLine
 10
302.7384590505044
 20
440.7822917259569
 30
0.0
 11
310.5884590505044
 21
440.7822917259569
 31
0.0
  0
LINE
  5
2FBE
330
18
100
AcDbEntity
  8
0
100
AcDbLine
 10
314.7384590505043
 20
444.9322917259569
 30
0.0
 11
310.5884590505043
 21
440.7822917259569
 31
0.0
  0
ARC
  5
2FBF
330
18
100
AcDbEntity
  8
0
100
AcDbCircle
 10
298.7384590505044
 20
410.9619349496724
 30
0.0
 40
4.0
100
AcDbArc
 50
127.5512821261786
 51
180.0
  0
ARC
  5
2FC0
330
18
100
AcDbEntity
  8
0
100
AcDbCircle
 10
298.7384590505044
 20
448.9026485022414
 30
0.0
 40
4.0
100
AcDbArc
 50
180.0
 51
232.4487178738215
  0
LINE
  5
2FC1
330
18
100
AcDbEntity
  8
0
100
AcDbLine
 10
280.7384590505044
 20
477.4322917259569
 30
0.0
 11
294.7384590505043
 21
477.4322917259569
 31
0.0
  0
LINE
  5
2FC2
330
18
100
AcDbEntity
  8
0
100
AcDbLine
 10
441.7384590505044
 20
642.2390053056179
 30
0.0
 11
441.7384590505044
 21
547.2390053056178
 31
0.0
  0
LINE
  5
2FC3
330
18
100
AcDbEntity
  8
0
100
AcDbLine
 10
455.7384590505043
 20
547.2390053056178
 30
0.0
 11
441.7384590505044
 21
547.2390053056178
 31
0.0
  0
LINE
  5
2FC4
330
18
100
AcDbEntity
  8
0
100
AcDbLine
 10
433.7384590505044
 20
583.8890053056178
 30
0.0
 11
440.176344128883
 21
578.9398811516143
 31
0.0
  0
LINE
  5
2FC5
330
18
100
AcDbEntity
  8
0
100
AcDbLine
 10
433.7384590505044
 20
605.5890053056178
 30
0.0
 11
440.176344128883
 21
610.5381294596213
 31
0.0
  0
LINE
  5
2FC6
330
18
100
AcDbEntity
  8
0
100
AcDbLine
 10
433.7384590505044
 20
605.5890053056178
 30
0.0
 11
433.7384590505044
 21
583.8890053056178
 31
0.0
  0
LINE
  5
2FC7
330
18
100
AcDbEntity
  8
0
100
AcDbLine
 10
425.8884590505044
 20
605.5890053056177
 30
0.0
 11
425.8884590505044
 21
583.8890053056178
 31
0.0
  0
LINE
  5
2FC8
330
18
100
AcDbEntity
  8
0
100
AcDbLine
 10
421.7384590505044
 20
609.7390053056178
 30
0.0
 11
421.7384590505044
 21
579.7390053056179
 31
0.0
  0
LINE
  5
2FC9
330
18
100
AcDbEntity
  8
0
100
AcDbLine
 10
421.7384590505044
 20
579.7390053056179
 30
0.0
 11
411.7061635783401
 21
579.7390053056179
 31
0.0
  0
LINE
  5
2FCA
330
18
100
AcDbEntity
  8
0
100
AcDbLine
 10
433.7384590505044
 20
583.8890053056178
 30
0.0
 11
425.8884590505044
 21
583.8890053056178
 31
0.0
  0
LINE
  5
2FCB
330
18
100
AcDbEntity
  8
0
100
AcDbLine
 10
421.7384590505043
 20
579.7390053056179
 30
0.0
 11
425.8884590505044
 21
583.8890053056178
 31
0.0
  0
LINE
  5
2FCC
330
18
100
AcDbEntity
  8
0
100
AcDbLine
 10
421.7384590505044
 20
609.7390053056178
 30
0.0
 11
411.7061635783393
 21
609.7390053056178
 31
0.0
  0
LINE
  5
2FCD
330
18
100
AcDbEntity
  8
0
100
AcDbLine
 10
433.7384590505044
 20
605.5890053056178
 30
0.0
 11
425.8884590505044
 21
605.5890053056178
 31
0.0
  0
LINE
  5
2FCE
330
18
100
AcDbEntity
  8
0
100
AcDbLine
 10
421.7384590505044
 20
609.7390053056178
 30
0.0
 11
425.8884590505044
 21
605.5890053056177
 31
0.0
  0
ARC
  5
2FCF
330
18
100
AcDbEntity
  8
0
100
AcDbCircle
 10
437.7384590505044
 20
575.7686485293334
 30
0.0
 40
4.0
100
AcDbArc
 50
0.0
 51
52.44871787382139
  0
ARC
  5
2FD0
330
18
100
AcDbEntity
  8
0
100
AcDbCircle
 10
437.7384590505044
 20
613.7093620819022
 30
0.0
 40
4.0
100
AcDbArc
 50
307.5512821261784
 51
0.0
  0
LINE
  5
2FD1
330
18
100
AcDbEntity
  8
0
100
AcDbLine
 10
455.7384590505043
 20
642.2390053056179
 30
0.0
 11
441.7384590505044
 21
642.2390053056179
 31
0.0
  0
LINE
  5
2FD2
330
18
100
AcDbEntity
  8
0
100
AcDbLine
 10
455.7384590505043
 20
594.7390053056178
 30
0.0
 11
455.7384590505043
 21
547.2390053056178
 31
0.0
  0
LINE
  5
2FD3
330
18
100
AcDbEntity
  8
0
100
AcDbLine
 10
455.7384590505043
 20
594.7390053056178
 30
0.0
 11
455.7384590505043
 21
642.2390053056179
 31
0.0
  0
LINE
  5
2FD4
330
18
100
AcDbEntity
  8
0
100
AcDbLine
 10
294.7384590505043
 20
642.2390053056179
 30
0.0
 11
294.7384590505043
 21
547.2390053056178
 31
0.0
  0
LINE
  5
2FD5
330
18
100
AcDbEntity
  8
0
100
AcDbLine
 10
280.7384590505044
 20
547.2390053056178
 30
0.0
 11
294.7384590505043
 21
547.2390053056178
 31
0.0
  0
LINE
  5
2FD6
330
18
100
AcDbEntity
  8
0
100
AcDbLine
 10
302.7384590505044
 20
605.5890053056178
 30
0.0
 11
296.3005739721258
 21
610.5381294596213
 31
0.0
  0
LINE
  5
2FD7
330
18
100
AcDbEntity
  8
0
100
AcDbLine
 10
302.7384590505043
 20
583.8890053056178
 30
0.0
 11
296.3005739721258
 21
578.9398811516143
 31
0.0
  0
ARC
  5
2FD8
330
18
100
AcDbEntity
  8
0
100
AcDbCircle
 10
298.7384590505044
 20
575.7686485293334
 30
0.0
 40
4.0
100
AcDbArc
 50
127.5512821261786
 51
180.0
  0
ARC
  5
2FD9
330
18
100
AcDbEntity
  8
0
100
AcDbCircle
 10
298.7384590505044
 20
613.7093620819022
 30
0.0
 40
4.0
100
AcDbArc
 50
180.0
 51
232.4487178738215
  0
LINE
  5
2FDA
330
18
100
AcDbEntity
  8
0
100
AcDbLine
 10
314.7384590505043
 20
609.7390053056178
 30
0.0
 11
314.7384590505043
 21
579.7390053056179
 31
0.0
  0
LINE
  5
2FDB
330
18
100
AcDbEntity
  8
0
100
AcDbLine
 10
310.5884590505043
 20
605.5890053056177
 30
0.0
 11
310.5884590505044
 21
583.8890053056178
 31
0.0
  0
LINE
  5
2FDC
330
18
100
AcDbEntity
  8
0
100
AcDbLine
 10
302.7384590505044
 20
605.5890053056178
 30
0.0
 11
302.7384590505043
 21
583.8890053056178
 31
0.0
  0
LINE
  5
2FDD
330
18
100
AcDbEntity
  8
0
100
AcDbLine
 10
314.7384590505043
 20
579.7390053056179
 30
0.0
 11
324.7707545226686
 21
579.7390053056179
 31
0.0
  0
LINE
  5
2FDE
330
18
100
AcDbEntity
  8
0
100
AcDbLine
 10
314.7384590505044
 20
579.7390053056179
 30
0.0
 11
310.5884590505044
 21
583.8890053056178
 31
0.0
  0
LINE
  5
2FDF
330
18
100
AcDbEntity
  8
0
100
AcDbLine
 10
302.7384590505043
 20
583.8890053056178
 30
0.0
 11
310.5884590505043
 21
583.8890053056178
 31
0.0
  0
LINE
  5
2FE0
330
18
100
AcDbEntity
  8
0
100
AcDbLine
 10
314.7384590505043
 20
609.7390053056178
 30
0.0
 11
324.7707545226695
 21
609.7390053056178
 31
0.0
  0
LINE
  5
2FE1
330
18
100
AcDbEntity
  8
0
100
AcDbLine
 10
314.7384590505043
 20
609.7390053056178
 30
0.0
 11
310.5884590505043
 21
605.5890053056177
 31
0.0
  0
LINE
  5
2FE2
330
18
100
AcDbEntity
  8
0
100
AcDbLine
 10
302.7384590505044
 20
605.5890053056178
 30
0.0
 11
310.5884590505044
 21
605.5890053056178
 31
0.0
  0
LINE
  5
2FE3
330
18
100
AcDbEntity
  8
0
100
AcDbLine
 10
280.7384590505044
 20
642.2390053056179
 30
0.0
 11
294.7384590505043
 21
642.2390053056179
 31
0.0
  0
LINE
  5
2FE4
330
18
100
AcDbEntity
  8
0
100
AcDbLine
 10
441.7384590504998
 20
807.3026019910766
 30
0.0
 11
441.7384590504998
 21
712.3026019910767
 31
0.0
  0
LINE
  5
2FE5
330
18
100
AcDbEntity
  8
0
100
AcDbLine
 10
455.7384590504998
 20
712.3026019910767
 30
0.0
 11
441.7384590504998
 21
712.3026019910767
 31
0.0
  0
LINE
  5
2FE6
330
18
100
AcDbEntity
  8
0
100
AcDbLine
 10
433.7384590504999
 20
748.9526019910766
 30
0.0
 11
440.1763441288784
 21
744.0034778370732
 31
0.0
  0
LINE
  5
2FE7
330
18
100
AcDbEntity
  8
0
100
AcDbLine
 10
433.7384590504998
 20
770.6526019910767
 30
0.0
 11
440.1763441288784
 21
775.6017261450802
 31
0.0
  0
LINE
  5
2FE8
330
18
100
AcDbEntity
  8
0
100
AcDbLine
 10
433.7384590504998
 20
770.6526019910767
 30
0.0
 11
433.7384590504999
 21
748.9526019910766
 31
0.0
  0
LINE
  5
2FE9
330
18
100
AcDbEntity
  8
0
100
AcDbLine
 10
425.8884590504999
 20
770.6526019910766
 30
0.0
 11
425.8884590504998
 21
748.9526019910766
 31
0.0
  0
LINE
  5
2FEA
330
18
100
AcDbEntity
  8
0
100
AcDbLine
 10
421.7384590504998
 20
774.8026019910767
 30
0.0
 11
421.7384590504999
 21
744.8026019910766
 31
0.0
  0
LINE
  5
2FEB
330
18
100
AcDbEntity
  8
0
100
AcDbLine
 10
421.7384590504998
 20
744.8026019910766
 30
0.0
 11
411.7061635783356
 21
744.8026019910766
 31
0.0
  0
LINE
  5
2FEC
330
18
100
AcDbEntity
  8
0
100
AcDbLine
 10
433.7384590504999
 20
748.9526019910766
 30
0.0
 11
425.8884590504999
 21
748.9526019910766
 31
0.0
  0
LINE
  5
2FED
330
18
100
AcDbEntity
  8
0
100
AcDbLine
 10
421.7384590504998
 20
744.8026019910766
 30
0.0
 11
425.8884590504997
 21
748.9526019910766
 31
0.0
  0
LINE
  5
2FEE
330
18
100
AcDbEntity
  8
0
100
AcDbLine
 10
421.7384590504998
 20
774.8026019910767
 30
0.0
 11
411.7061635783348
 21
774.8026019910767
 31
0.0
  0
LINE
  5
2FEF
330
18
100
AcDbEntity
  8
0
100
AcDbLine
 10
433.7384590504998
 20
770.6526019910767
 30
0.0
 11
425.8884590504998
 21
770.6526019910767
 31
0.0
  0
LINE
  5
2FF0
330
18
100
AcDbEntity
  8
0
100
AcDbLine
 10
421.7384590504998
 20
774.8026019910767
 30
0.0
 11
425.8884590504999
 21
770.6526019910766
 31
0.0
  0
ARC
  5
2FF1
330
18
100
AcDbEntity
  8
0
100
AcDbCircle
 10
437.7384590504998
 20
740.8322452147922
 30
0.0
 40
4.0
100
AcDbArc
 50
0.0
 51
52.44871787382139
  0
ARC
  5
2FF2
330
18
100
AcDbEntity
  8
0
100
AcDbCircle
 10
437.7384590504998
 20
778.7729587673611
 30
0.0
 40
4.0
100
AcDbArc
 50
307.5512821261784
 51
0.0
  0
LINE
  5
2FF3
330
18
100
AcDbEntity
  8
0
100
AcDbLine
 10
455.7384590504998
 20
807.3026019910766
 30
0.0
 11
441.7384590504998
 21
807.3026019910766
 31
0.0
  0
LINE
  5
2FF4
330
18
100
AcDbEntity
  8
0
100
AcDbLine
 10
455.7384590504998
 20
759.8026019910767
 30
0.0
 11
455.7384590504998
 21
712.3026019910767
 31
0.0
  0
LINE
  5
2FF5
330
18
100
AcDbEntity
  8
0
100
AcDbLine
 10
455.7384590504998
 20
759.8026019910767
 30
0.0
 11
455.7384590504998
 21
807.3026019910766
 31
0.0
  0
LINE
  5
2FF6
330
18
100
AcDbEntity
  8
0
100
AcDbLine
 10
294.7384590504998
 20
807.3026019910766
 30
0.0
 11
294.7384590504998
 21
712.3026019910767
 31
0.0
  0
LINE
  5
2FF7
330
18
100
AcDbEntity
  8
0
100
AcDbLine
 10
280.7384590504998
 20
712.3026019910767
 30
0.0
 11
294.7384590504998
 21
712.3026019910767
 31
0.0
  0
LINE
  5
2FF8
330
18
100
AcDbEntity
  8
0
100
AcDbLine
 10
302.7384590504998
 20
770.6526019910767
 30
0.0
 11
296.3005739721213
 21
775.6017261450802
 31
0.0
  0
LINE
  5
2FF9
330
18
100
AcDbEntity
  8
0
100
AcDbLine
 10
302.7384590504997
 20
748.9526019910766
 30
0.0
 11
296.3005739721213
 21
744.0034778370732
 31
0.0
  0
ARC
  5
2FFA
330
18
100
AcDbEntity
  8
0
100
AcDbCircle
 10
298.7384590504998
 20
740.8322452147922
 30
0.0
 40
4.0
100
AcDbArc
 50
127.5512821261786
 51
180.0
  0
ARC
  5
2FFB
330
18
100
AcDbEntity
  8
0
100
AcDbCircle
 10
298.7384590504998
 20
778.7729587673611
 30
0.0
 40
4.0
100
AcDbArc
 50
180.0
 51
232.4487178738215
  0
LINE
  5
2FFC
330
18
100
AcDbEntity
  8
0
100
AcDbLine
 10
314.7384590504998
 20
774.8026019910767
 30
0.0
 11
314.7384590504997
 21
744.8026019910766
 31
0.0
  0
LINE
  5
2FFD
330
18
100
AcDbEntity
  8
0
100
AcDbLine
 10
310.5884590504997
 20
770.6526019910766
 30
0.0
 11
310.5884590504998
 21
748.9526019910766
 31
0.0
  0
LINE
  5
2FFE
330
18
100
AcDbEntity
  8
0
100
AcDbLine
 10
302.7384590504998
 20
770.6526019910767
 30
0.0
 11
302.7384590504997
 21
748.9526019910766
 31
0.0
  0
LINE
  5
2FFF
330
18
100
AcDbEntity
  8
0
100
AcDbLine
 10
314.7384590504998
 20
744.8026019910766
 30
0.0
 11
324.770754522664
 21
744.8026019910766
 31
0.0
  0
LINE
  5
3000
330
18
100
AcDbEntity
  8
0
100
AcDbLine
 10
314.7384590504998
 20
744.8026019910766
 30
0.0
 11
310.5884590504999
 21
748.9526019910766
 31
0.0
  0
LINE
  5
3001
330
18
100
AcDbEntity
  8
0
100
AcDbLine
 10
302.7384590504997
 20
748.9526019910766
 30
0.0
 11
310.5884590504997
 21
748.9526019910766
 31
0.0
  0
LINE
  5
3002
330
18
100
AcDbEntity
  8
0
100
AcDbLine
 10
314.7384590504998
 20
774.8026019910767
 30
0.0
 11
324.7707545226649
 21
774.8026019910767
 31
0.0
  0
LINE
  5
3003
330
18
100
AcDbEntity
  8
0
100
AcDbLine
 10
314.7384590504998
 20
774.8026019910767
 30
0.0
 11
310.5884590504997
 21
770.6526019910766
 31
0.0
  0
LINE
  5
3004
330
18
100
AcDbEntity
  8
0
100
AcDbLine
 10
302.7384590504998
 20
770.6526019910767
 30
0.0
 11
310.5884590504998
 21
770.6526019910767
 31
0.0
  0
LINE
  5
3005
330
18
100
AcDbEntity
  8
0
100
AcDbLine
 10
280.7384590504998
 20
807.3026019910766
 30
0.0
 11
294.7384590504998
 21
807.3026019910766
 31
0.0
  0
LINE
  5
3035
330
18
100
AcDbEntity
  8
0
100
AcDbLine
 10
964.1915642047424
 20
479.9322917259569
 30
0.0
 11
980.1915642047424
 21
479.9322917259569
 31
0.0
  0
LINE
  5
3036
330
18
100
AcDbEntity
  8
0
100
AcDbLine
 10
964.1915642047425
 20
479.9322917259569
 30
0.0
 11
964.1915642047424
 21
379.9322917259569
 31
0.0
  0
LINE
  5
3037
330
18
100
AcDbEntity
  8
0
100
AcDbLine
 10
938.1915642047426
 20
444.9322917259569
 30
0.0
 11
939.5915642047425
 21
443.5322917259568
 31
0.0
  0
LINE
  5
3038
330
18
100
AcDbEntity
  8
0
100
AcDbLine
 10
938.1915642047426
 20
444.9322917259569
 30
0.0
 11
938.1915642047401
 21
414.9322917259569
 31
0.0
  0
LINE
  5
303A
330
18
100
AcDbEntity
  8
0
100
AcDbLine
 10
927.3826501621179
 20
444.9322917259569
 30
0.0
 11
938.1915642047424
 21
444.9322917259569
 31
0.0
  0
LINE
  5
303B
330
18
100
AcDbEntity
  8
0
100
AcDbLine
 10
954.1915642047424
 20
443.5322917259568
 30
0.0
 11
954.1915642047424
 21
416.3322917259568
 31
0.0
  0
LINE
  5
303C
330
18
100
AcDbEntity
  8
0
100
AcDbLine
 10
939.5915642047425
 20
443.5322917259568
 30
0.0
 11
939.5915642047425
 21
416.3322917259568
 31
0.0
  0
LINE
  5
303D
330
18
100
AcDbEntity
  8
0
100
AcDbLine
 10
962.3477789904359
 20
448.7522691888008
 30
0.0
 11
954.1915642047426
 21
443.5322917259568
 31
0.0
  0
LINE
  5
303E
330
18
100
AcDbEntity
  8
0
100
AcDbLine
 10
939.5915642047425
 20
443.5322917259568
 30
0.0
 11
954.1915642047424
 21
443.5322917259568
 31
0.0
  0
ARC
  5
303F
330
18
100
AcDbEntity
  8
0
100
AcDbCircle
 10
960.1915642047424
 20
452.1213547914469
 30
0.0
 40
4.0
100
AcDbArc
 50
302.6192430711935
 51
0.0
  0
LINE
  5
3040
330
18
100
AcDbEntity
  8
0
100
AcDbLine
 10
964.1915642047424
 20
379.9322917259569
 30
0.0
 11
980.1915642047424
 21
379.9322917259569
 31
0.0
  0
ARC
  5
3041
330
18
100
AcDbEntity
  8
0
100
AcDbCircle
 10
960.1915642047424
 20
407.7432286604672
 30
0.0
 40
4.0
100
AcDbArc
 50
0.0
 51
57.38075692880643
  0
LINE
  5
3042
330
18
100
AcDbEntity
  8
0
100
AcDbLine
 10
938.1915642047426
 20
414.9322917259569
 30
0.0
 11
939.5915642047425
 21
416.3322917259568
 31
0.0
  0
LINE
  5
3043
330
18
100
AcDbEntity
  8
0
100
AcDbLine
 10
927.3826501621179
 20
414.9322917259569
 30
0.0
 11
938.1915642047424
 21
414.9322917259569
 31
0.0
  0
LINE
  5
3044
330
18
100
AcDbEntity
  8
0
100
AcDbLine
 10
962.3477789904359
 20
411.1123142631131
 30
0.0
 11
954.1915642047424
 21
416.3322917259568
 31
0.0
  0
LINE
  5
3045
330
18
100
AcDbEntity
  8
0
100
AcDbLine
 10
939.5915642047425
 20
416.3322917259568
 30
0.0
 11
954.1915642047424
 21
416.3322917259569
 31
0.0
  0
ARC
  5
3046
330
18
100
AcDbEntity
  8
0
100
AcDbCircle
 10
805.1915642047424
 20
452.1213547914469
 30
0.0
 40
4.0
100
AcDbArc
 50
180.0
 51
237.3807569288065
  0
LINE
  5
3047
330
18
100
AcDbEntity
  8
0
100
AcDbLine
 10
801.1915642047423
 20
479.9322917259569
 30
0.0
 11
801.1915642047425
 21
379.9322917259569
 31
0.0
  0
LINE
  5
3048
330
18
100
AcDbEntity
  8
0
100
AcDbLine
 10
803.0353494190489
 20
411.1123142631131
 30
0.0
 11
811.1915642047424
 21
416.3322917259568
 31
0.0
  0
LINE
  5
3049
330
18
100
AcDbEntity
  8
0
100
AcDbLine
 10
803.0353494190489
 20
448.7522691888008
 30
0.0
 11
811.1915642047422
 21
443.5322917259568
 31
0.0
  0
LINE
  5
304A
330
18
100
AcDbEntity
  8
0
100
AcDbLine
 10
825.7915642047423
 20
443.5322917259568
 30
0.0
 11
825.7915642047423
 21
416.3322917259568
 31
0.0
  0
LINE
  5
304B
330
18
100
AcDbEntity
  8
0
100
AcDbLine
 10
811.1915642047424
 20
443.5322917259568
 30
0.0
 11
811.1915642047424
 21
416.3322917259568
 31
0.0
  0
LINE
  5
304C
330
18
100
AcDbEntity
  8
0
100
AcDbLine
 10
827.1915642047423
 20
444.9322917259569
 30
0.0
 11
827.1915642047448
 21
414.9322917259569
 31
0.0
  0
LINE
  5
304D
330
18
100
AcDbEntity
  8
0
100
AcDbLine
 10
825.7915642047423
 20
416.3322917259568
 30
0.0
 11
811.1915642047426
 21
416.3322917259569
 31
0.0
  0
LINE
  5
304E
330
18
100
AcDbEntity
  8
0
100
AcDbLine
 10
838.0004782473669
 20
414.9322917259569
 30
0.0
 11
827.1915642047424
 21
414.9322917259569
 31
0.0
  0
LINE
  5
304F
330
18
100
AcDbEntity
  8
0
100
AcDbLine
 10
827.1915642047423
 20
414.9322917259569
 30
0.0
 11
825.7915642047423
 21
416.3322917259568
 31
0.0
  0
LINE
  5
3050
330
18
100
AcDbEntity
  8
0
100
AcDbLine
 10
825.7915642047423
 20
443.5322917259568
 30
0.0
 11
811.1915642047424
 21
443.5322917259568
 31
0.0
  0
LINE
  5
3051
330
18
100
AcDbEntity
  8
0
100
AcDbLine
 10
838.0004782473669
 20
444.9322917259569
 30
0.0
 11
827.1915642047424
 21
444.9322917259569
 31
0.0
  0
LINE
  5
3052
330
18
100
AcDbEntity
  8
0
100
AcDbLine
 10
827.1915642047423
 20
444.9322917259569
 30
0.0
 11
825.7915642047423
 21
443.5322917259568
 31
0.0
  0
LINE
  5
3053
330
18
100
AcDbEntity
  8
0
100
AcDbLine
 10
801.1915642047425
 20
379.9322917259569
 30
0.0
 11
785.1915642047424
 21
379.9322917259569
 31
0.0
  0
ARC
  5
3054
330
18
100
AcDbEntity
  8
0
100
AcDbCircle
 10
805.1915642047424
 20
407.7432286604672
 30
0.0
 40
4.0
100
AcDbArc
 50
122.6192430711935
 51
180.0
  0
LINE
  5
3055
330
18
100
AcDbEntity
  8
0
100
AcDbLine
 10
801.1915642047425
 20
479.9322917259569
 30
0.0
 11
785.1915642047424
 21
479.9322917259569
 31
0.0
  0
ARC
  5
3056
330
18
100
AcDbEntity
  8
0
100
AcDbCircle
 10
960.1915642047424
 20
616.9280683711079
 30
0.0
 40
4.0
100
AcDbArc
 50
302.6192430711935
 51
0.0
  0
LINE
  5
3057
330
18
100
AcDbEntity
  8
0
100
AcDbLine
 10
964.1915642047425
 20
644.7390053056178
 30
0.0
 11
964.1915642047424
 21
544.7390053056178
 31
0.0
  0
LINE
  5
3058
330
18
100
AcDbEntity
  8
0
100
AcDbLine
 10
962.3477789904359
 20
575.919027842774
 30
0.0
 11
954.1915642047424
 21
581.1390053056178
 31
0.0
  0
LINE
  5
3059
330
18
100
AcDbEntity
  8
0
100
AcDbLine
 10
962.3477789904359
 20
613.5589827684618
 30
0.0
 11
954.1915642047426
 21
608.3390053056177
 31
0.0
  0
LINE
  5
305A
330
18
100
AcDbEntity
  8
0
100
AcDbLine
 10
939.5915642047425
 20
608.3390053056177
 30
0.0
 11
939.5915642047425
 21
581.1390053056178
 31
0.0
  0
LINE
  5
305B
330
18
100
AcDbEntity
  8
0
100
AcDbLine
 10
954.1915642047424
 20
608.3390053056177
 30
0.0
 11
954.1915642047424
 21
581.1390053056178
 31
0.0
  0
LINE
  5
305C
330
18
100
AcDbEntity
  8
0
100
AcDbLine
 10
938.1915642047426
 20
609.7390053056178
 30
0.0
 11
938.1915642047401
 21
579.7390053056179
 31
0.0
  0
LINE
  5
305D
330
18
100
AcDbEntity
  8
0
100
AcDbLine
 10
939.5915642047425
 20
581.1390053056178
 30
0.0
 11
954.1915642047424
 21
581.1390053056179
 31
0.0
  0
LINE
  5
305E
330
18
100
AcDbEntity
  8
0
100
AcDbLine
 10
927.3826501621179
 20
579.7390053056179
 30
0.0
 11
938.1915642047424
 21
579.7390053056179
 31
0.0
  0
LINE
  5
305F
330
18
100
AcDbEntity
  8
0
100
AcDbLine
 10
938.1915642047426
 20
579.7390053056179
 30
0.0
 11
939.5915642047425
 21
581.1390053056178
 31
0.0
  0
LINE
  5
3060
330
18
100
AcDbEntity
  8
0
100
AcDbLine
 10
939.5915642047425
 20
608.3390053056177
 30
0.0
 11
954.1915642047424
 21
608.3390053056177
 31
0.0
  0
LINE
  5
3061
330
18
100
AcDbEntity
  8
0
100
AcDbLine
 10
927.3826501621179
 20
609.7390053056178
 30
0.0
 11
938.1915642047424
 21
609.7390053056178
 31
0.0
  0
LINE
  5
3062
330
18
100
AcDbEntity
  8
0
100
AcDbLine
 10
938.1915642047426
 20
609.7390053056178
 30
0.0
 11
939.5915642047425
 21
608.3390053056177
 31
0.0
  0
LINE
  5
3063
330
18
100
AcDbEntity
  8
0
100
AcDbLine
 10
964.1915642047424
 20
544.7390053056178
 30
0.0
 11
980.1915642047424
 21
544.7390053056178
 31
0.0
  0
ARC
  5
3064
330
18
100
AcDbEntity
  8
0
100
AcDbCircle
 10
960.1915642047424
 20
572.5499422401281
 30
0.0
 40
4.0
100
AcDbArc
 50
0.0
 51
57.38075692880643
  0
LINE
  5
3065
330
18
100
AcDbEntity
  8
0
100
AcDbLine
 10
964.1915642047424
 20
644.7390053056178
 30
0.0
 11
980.1915642047424
 21
644.7390053056178
 31
0.0
  0
LINE
  5
3066
330
18
100
AcDbEntity
  8
0
100
AcDbLine
 10
980.1915642047424
 20
594.7390053056178
 30
0.0
 11
980.1915642047424
 21
644.7390053056178
 31
0.0
  0
LINE
  5
3067
330
18
100
AcDbEntity
  8
0
100
AcDbLine
 10
980.1915642047424
 20
544.7390053056178
 30
0.0
 11
980.1915642047424
 21
594.7390053056178
 31
0.0
  0
LINE
  5
3068
330
18
100
AcDbEntity
  8
0
100
AcDbLine
 10
801.1915642047423
 20
644.7390053056178
 30
0.0
 11
801.1915642047425
 21
544.7390053056178
 31
0.0
  0
ARC
  5
3069
330
18
100
AcDbEntity
  8
0
100
AcDbCircle
 10
805.1915642047424
 20
616.9280683711079
 30
0.0
 40
4.0
100
AcDbArc
 50
180.0
 51
237.3807569288065
  0
LINE
  5
306A
330
18
100
AcDbEntity
  8
0
100
AcDbLine
 10
825.7915642047423
 20
608.3390053056177
 30
0.0
 11
811.1915642047424
 21
608.3390053056177
 31
0.0
  0
LINE
  5
306B
330
18
100
AcDbEntity
  8
0
100
AcDbLine
 10
825.7915642047423
 20
581.1390053056178
 30
0.0
 11
811.1915642047426
 21
581.1390053056179
 31
0.0
  0
LINE
  5
306C
330
18
100
AcDbEntity
  8
0
100
AcDbLine
 10
801.1915642047425
 20
544.7390053056178
 30
0.0
 11
785.1915642047424
 21
544.7390053056178
 31
0.0
  0
LINE
  5
306D
330
18
100
AcDbEntity
  8
0
100
AcDbLine
 10
811.1915642047424
 20
608.3390053056177
 30
0.0
 11
811.1915642047424
 21
581.1390053056178
 31
0.0
  0
LINE
  5
306E
330
18
100
AcDbEntity
  8
0
100
AcDbLine
 10
803.0353494190489
 20
575.919027842774
 30
0.0
 11
811.1915642047424
 21
581.1390053056178
 31
0.0
  0
ARC
  5
306F
330
18
100
AcDbEntity
  8
0
100
AcDbCircle
 10
805.1915642047424
 20
572.5499422401281
 30
0.0
 40
4.0
100
AcDbArc
 50
122.6192430711935
 51
180.0
  0
LINE
  5
3070
330
18
100
AcDbEntity
  8
0
100
AcDbLine
 10
803.0353494190489
 20
613.5589827684618
 30
0.0
 11
811.1915642047422
 21
608.3390053056177
 31
0.0
  0
LINE
  5
3071
330
18
100
AcDbEntity
  8
0
100
AcDbLine
 10
827.1915642047423
 20
609.7390053056178
 30
0.0
 11
827.1915642047448
 21
579.7390053056179
 31
0.0
  0
LINE
  5
3072
330
18
100
AcDbEntity
  8
0
100
AcDbLine
 10
825.7915642047423
 20
608.3390053056177
 30
0.0
 11
825.7915642047423
 21
581.1390053056178
 31
0.0
  0
LINE
  5
3073
330
18
100
AcDbEntity
  8
0
100
AcDbLine
 10
827.1915642047423
 20
579.7390053056179
 30
0.0
 11
825.7915642047423
 21
581.1390053056178
 31
0.0
  0
LINE
  5
3074
330
18
100
AcDbEntity
  8
0
100
AcDbLine
 10
838.0004782473669
 20
579.7390053056179
 30
0.0
 11
827.1915642047424
 21
579.7390053056179
 31
0.0
  0
LINE
  5
3075
330
18
100
AcDbEntity
  8
0
100
AcDbLine
 10
827.1915642047423
 20
609.7390053056178
 30
0.0
 11
825.7915642047423
 21
608.3390053056177
 31
0.0
  0
LINE
  5
3076
330
18
100
AcDbEntity
  8
0
100
AcDbLine
 10
838.0004782473669
 20
609.7390053056178
 30
0.0
 11
827.1915642047424
 21
609.7390053056178
 31
0.0
  0
LINE
  5
3077
330
18
100
AcDbEntity
  8
0
100
AcDbLine
 10
801.1915642047425
 20
644.7390053056178
 30
0.0
 11
785.1915642047424
 21
644.7390053056178
 31
0.0
  0
ARC
  5
3078
330
18
100
AcDbEntity
  8
0
100
AcDbCircle
 10
960.1915642047378
 20
781.9916650565667
 30
0.0
 40
4.0
100
AcDbArc
 50
302.6192430711935
 51
0.0
  0
LINE
  5
3079
330
18
100
AcDbEntity
  8
0
100
AcDbLine
 10
964.1915642047379
 20
809.8026019910767
 30
0.0
 11
964.1915642047379
 21
709.8026019910767
 31
0.0
  0
LINE
  5
307A
330
18
100
AcDbEntity
  8
0
100
AcDbLine
 10
962.3477789904313
 20
740.9826245282329
 30
0.0
 11
954.191564204738
 21
746.2026019910767
 31
0.0
  0
LINE
  5
307B
330
18
100
AcDbEntity
  8
0
100
AcDbLine
 10
962.3477789904315
 20
778.6225794539205
 30
0.0
 11
954.191564204738
 21
773.4026019910766
 31
0.0
  0
LINE
  5
307C
330
18
100
AcDbEntity
  8
0
100
AcDbLine
 10
939.5915642047381
 20
773.4026019910766
 30
0.0
 11
939.5915642047381
 21
746.2026019910767
 31
0.0
  0
LINE
  5
307D
330
18
100
AcDbEntity
  8
0
100
AcDbLine
 10
954.191564204738
 20
773.4026019910766
 30
0.0
 11
954.191564204738
 21
746.2026019910767
 31
0.0
  0
LINE
  5
307E
330
18
100
AcDbEntity
  8
0
100
AcDbLine
 10
938.1915642047379
 20
774.8026019910767
 30
0.0
 11
938.1915642047355
 21
744.8026019910766
 31
0.0
  0
LINE
  5
307F
330
18
100
AcDbEntity
  8
0
100
AcDbLine
 10
939.5915642047381
 20
746.2026019910767
 30
0.0
 11
954.1915642047378
 21
746.2026019910767
 31
0.0
  0
LINE
  5
3080
330
18
100
AcDbEntity
  8
0
100
AcDbLine
 10
927.3826501621135
 20
744.8026019910766
 30
0.0
 11
938.1915642047379
 21
744.8026019910766
 31
0.0
  0
LINE
  5
3081
330
18
100
AcDbEntity
  8
0
100
AcDbLine
 10
938.1915642047379
 20
744.8026019910766
 30
0.0
 11
939.5915642047381
 21
746.2026019910767
 31
0.0
  0
LINE
  5
3082
330
18
100
AcDbEntity
  8
0
100
AcDbLine
 10
939.5915642047381
 20
773.4026019910766
 30
0.0
 11
954.191564204738
 21
773.4026019910766
 31
0.0
  0
LINE
  5
3083
330
18
100
AcDbEntity
  8
0
100
AcDbLine
 10
927.3826501621135
 20
774.8026019910767
 30
0.0
 11
938.1915642047379
 21
774.8026019910767
 31
0.0
  0
LINE
  5
3084
330
18
100
AcDbEntity
  8
0
100
AcDbLine
 10
938.1915642047379
 20
774.8026019910767
 30
0.0
 11
939.5915642047381
 21
773.4026019910766
 31
0.0
  0
LINE
  5
3085
330
18
100
AcDbEntity
  8
0
100
AcDbLine
 10
964.1915642047379
 20
709.8026019910767
 30
0.0
 11
980.1915642047379
 21
709.8026019910767
 31
0.0
  0
ARC
  5
3086
330
18
100
AcDbEntity
  8
0
100
AcDbCircle
 10
960.1915642047378
 20
737.6135389255868
 30
0.0
 40
4.0
100
AcDbArc
 50
0.0
 51
57.38075692880643
  0
LINE
  5
3087
330
18
100
AcDbEntity
  8
0
100
AcDbLine
 10
964.1915642047379
 20
809.8026019910767
 30
0.0
 11
980.1915642047379
 21
809.8026019910767
 31
0.0
  0
LINE
  5
3088
330
18
100
AcDbEntity
  8
0
100
AcDbLine
 10
980.1915642047379
 20
759.8026019910767
 30
0.0
 11
980.1915642047379
 21
809.8026019910767
 31
0.0
  0
LINE
  5
3089
330
18
100
AcDbEntity
  8
0
100
AcDbLine
 10
980.1915642047379
 20
709.8026019910767
 30
0.0
 11
980.1915642047379
 21
759.8026019910767
 31
0.0
  0
LINE
  5
308A
330
18
100
AcDbEntity
  8
0
100
AcDbLine
 10
801.1915642047378
 20
809.8026019910767
 30
0.0
 11
801.1915642047378
 21
709.8026019910767
 31
0.0
  0
ARC
  5
308B
330
18
100
AcDbEntity
  8
0
100
AcDbCircle
 10
805.1915642047379
 20
781.9916650565667
 30
0.0
 40
4.0
100
AcDbArc
 50
180.0
 51
237.3807569288065
  0
LINE
  5
308C
330
18
100
AcDbEntity
  8
0
100
AcDbLine
 10
825.7915642047377
 20
773.4026019910766
 30
0.0
 11
811.1915642047378
 21
773.4026019910766
 31
0.0
  0
LINE
  5
308D
330
18
100
AcDbEntity
  8
0
100
AcDbLine
 10
825.7915642047377
 20
746.2026019910767
 30
0.0
 11
811.191564204738
 21
746.2026019910767
 31
0.0
  0
LINE
  5
308E
330
18
100
AcDbEntity
  8
0
100
AcDbLine
 10
801.1915642047378
 20
709.8026019910767
 30
0.0
 11
785.1915642047379
 21
709.8026019910767
 31
0.0
  0
LINE
  5
308F
330
18
100
AcDbEntity
  8
0
100
AcDbLine
 10
811.1915642047378
 20
773.4026019910766
 30
0.0
 11
811.1915642047378
 21
746.2026019910767
 31
0.0
  0
LINE
  5
3090
330
18
100
AcDbEntity
  8
0
100
AcDbLine
 10
803.0353494190444
 20
740.9826245282329
 30
0.0
 11
811.1915642047378
 21
746.2026019910767
 31
0.0
  0
ARC
  5
3091
330
18
100
AcDbEntity
  8
0
100
AcDbCircle
 10
805.1915642047379
 20
737.6135389255868
 30
0.0
 40
4.0
100
AcDbArc
 50
122.6192430711935
 51
180.0
  0
LINE
  5
3092
330
18
100
AcDbEntity
  8
0
100
AcDbLine
 10
803.0353494190443
 20
778.6225794539205
 30
0.0
 11
811.1915642047378
 21
773.4026019910766
 31
0.0
  0
LINE
  5
3093
330
18
100
AcDbEntity
  8
0
100
AcDbLine
 10
827.1915642047378
 20
774.8026019910767
 30
0.0
 11
827.1915642047403
 21
744.8026019910766
 31
0.0
  0
LINE
  5
3094
330
18
100
AcDbEntity
  8
0
100
AcDbLine
 10
825.7915642047377
 20
773.4026019910766
 30
0.0
 11
825.7915642047377
 21
746.2026019910767
 31
0.0
  0
LINE
  5
3095
330
18
100
AcDbEntity
  8
0
100
AcDbLine
 10
827.1915642047378
 20
744.8026019910766
 30
0.0
 11
825.7915642047377
 21
746.2026019910767
 31
0.0
  0
LINE
  5
3096
330
18
100
AcDbEntity
  8
0
100
AcDbLine
 10
838.0004782473623
 20
744.8026019910766
 30
0.0
 11
827.1915642047378
 21
744.8026019910766
 31
0.0
  0
LINE
  5
3097
330
18
100
AcDbEntity
  8
0
100
AcDbLine
 10
827.1915642047378
 20
774.8026019910767
 30
0.0
 11
825.7915642047377
 21
773.4026019910766
 31
0.0
  0
LINE
  5
3098
330
18
100
AcDbEntity
  8
0
100
AcDbLine
 10
838.0004782473623
 20
774.8026019910767
 30
0.0
 11
827.1915642047378
 21
774.8026019910767
 31
0.0
  0
LINE
  5
3099
330
18
100
AcDbEntity
  8
0
100
AcDbLine
 10
801.1915642047378
 20
809.8026019910767
 30
0.0
 11
785.1915642047379
 21
809.8026019910767
 31
0.0
  0
LINE
  5
30CD
330
18
100
AcDbEntity
  8
0
100
AcDbLine
 10
1545.856778406309
 20
492.4322917259569
 30
0.0
 11
1545.856778406309
 21
367.4322917259569
 31
0.0
  0
LINE
  5
30CE
330
18
100
AcDbEntity
  8
0
100
AcDbLine
 10
1535.856778406309
 20
446.9322917259571
 30
0.0
 11
1535.856778406309
 21
412.932291725957
 31
0.0
  0
LINE
  5
30D0
330
18
100
AcDbEntity
  8
0
100
AcDbLine
 10
1510.356778406309
 20
446.9322917259569
 30
0.0
 11
1510.356778406309
 21
412.9322917259569
 31
0.0
  0
LINE
  5
30D1
330
18
100
AcDbEntity
  8
0
100
AcDbLine
 10
1500.513321058444
 20
446.9322917259569
 30
0.0
 11
1535.856778406309
 21
446.9322917259569
 31
0.0
  0
LINE
  5
30D2
330
18
100
AcDbEntity
  8
0
100
AcDbLine
 10
1535.856778406309
 20
446.9322917259569
 30
0.0
 11
1543.980253644081
 21
453.4310719161748
 31
0.0
  0
ARC
  5
30D3
330
18
100
AcDbEntity
  8
0
100
AcDbCircle
 10
1540.856778406309
 20
457.3354159633902
 30
0.0
 40
5.0
100
AcDbArc
 50
308.6598082540895
 51
0.0
  0
LINE
  5
30D4
330
18
100
AcDbEntity
  8
0
100
AcDbLine
 10
1545.856778406309
 20
492.4322917259569
 30
0.0
 11
1561.856778406309
 21
492.4322917259569
 31
0.0
  0
LINE
  5
30D5
330
18
100
AcDbEntity
  8
0
100
AcDbLine
 10
1545.856778406309
 20
367.4322917259569
 30
0.0
 11
1561.856778406309
 21
367.4322917259569
 31
0.0
  0
LINE
  5
30D6
330
18
100
AcDbEntity
  8
0
100
AcDbLine
 10
1500.513321058444
 20
412.9322917259569
 30
0.0
 11
1535.856778406309
 21
412.9322917259569
 31
0.0
  0
LINE
  5
30D7
330
18
100
AcDbEntity
  8
0
100
AcDbLine
 10
1535.856778406309
 20
412.9322917259569
 30
0.0
 11
1543.980253644081
 21
406.4335115357392
 31
0.0
  0
ARC
  5
30D8
330
18
100
AcDbEntity
  8
0
100
AcDbCircle
 10
1540.856778406309
 20
402.5291674885242
 30
0.0
 40
5.0
100
AcDbArc
 50
0.0
 51
51.34019174591021
  0
LINE
  5
30D9
330
18
100
AcDbEntity
  8
0
100
AcDbLine
 10
1372.856778406309
 20
446.9322917259569
 30
0.0
 11
1364.733303168536
 21
453.4310719161748
 31
0.0
  0
LINE
  5
30DA
330
18
100
AcDbEntity
  8
0
100
AcDbLine
 10
1362.856778406309
 20
492.4322917259569
 30
0.0
 11
1362.856778406309
 21
367.4322917259569
 31
0.0
  0
LINE
  5
30DB
330
18
100
AcDbEntity
  8
0
100
AcDbLine
 10
1408.200235754173
 20
412.9322917259569
 30
0.0
 11
1372.856778406309
 21
412.9322917259569
 31
0.0
  0
LINE
  5
30DC
330
18
100
AcDbEntity
  8
0
100
AcDbLine
 10
1408.200235754173
 20
446.9322917259569
 30
0.0
 11
1372.856778406309
 21
446.9322917259569
 31
0.0
  0
LINE
  5
30DD
330
18
100
AcDbEntity
  8
0
100
AcDbLine
 10
1398.356778406309
 20
446.9322917259569
 30
0.0
 11
1398.356778406309
 21
412.9322917259569
 31
0.0
  0
LINE
  5
30DE
330
18
100
AcDbEntity
  8
0
100
AcDbLine
 10
1362.856778406309
 20
367.4322917259569
 30
0.0
 11
1346.856778406309
 21
367.4322917259569
 31
0.0
  0
LINE
  5
30DF
330
18
100
AcDbEntity
  8
0
100
AcDbLine
 10
1372.856778406309
 20
446.9322917259571
 30
0.0
 11
1372.856778406309
 21
412.932291725957
 31
0.0
  0
ARC
  5
30E0
330
18
100
AcDbEntity
  8
0
100
AcDbCircle
 10
1367.856778406309
 20
402.5291674885242
 30
0.0
 40
5.0
100
AcDbArc
 50
128.6598082540898
 51
180.0
  0
LINE
  5
30E1
330
18
100
AcDbEntity
  8
0
100
AcDbLine
 10
1372.856778406309
 20
412.9322917259569
 30
0.0
 11
1364.733303168537
 21
406.4335115357392
 31
0.0
  0
LINE
  5
30E2
330
18
100
AcDbEntity
  8
0
100
AcDbLine
 10
1362.856778406309
 20
492.4322917259569
 30
0.0
 11
1346.856778406309
 21
492.4322917259569
 31
0.0
  0
ARC
  5
30E3
330
18
100
AcDbEntity
  8
0
100
AcDbCircle
 10
1367.856778406309
 20
457.3354159633902
 30
0.0
 40
5.0
100
AcDbArc
 50
180.0
 51
231.3401917459104
  0
LINE
  5
30E4
330
18
100
AcDbEntity
  8
0
100
AcDbLine
 10
1535.856778406309
 20
611.304053181439
 30
0.0
 11
1543.980253644081
 21
617.8028333716569
 31
0.0
  0
LINE
  5
30E5
330
18
100
AcDbEntity
  8
0
100
AcDbLine
 10
1545.856778406309
 20
656.804053181439
 30
0.0
 11
1545.856778406309
 21
531.804053181439
 31
0.0
  0
LINE
  5
30E6
330
18
100
AcDbEntity
  8
0
100
AcDbLine
 10
1500.513321058444
 20
577.304053181439
 30
0.0
 11
1535.856778406309
 21
577.304053181439
 31
0.0
  0
LINE
  5
30E7
330
18
100
AcDbEntity
  8
0
100
AcDbLine
 10
1500.513321058444
 20
611.304053181439
 30
0.0
 11
1535.856778406309
 21
611.304053181439
 31
0.0
  0
LINE
  5
30E8
330
18
100
AcDbEntity
  8
0
100
AcDbLine
 10
1510.356778406309
 20
611.304053181439
 30
0.0
 11
1510.356778406309
 21
577.304053181439
 31
0.0
  0
LINE
  5
30E9
330
18
100
AcDbEntity
  8
0
100
AcDbLine
 10
1545.856778406309
 20
531.804053181439
 30
0.0
 11
1561.856778406309
 21
531.804053181439
 31
0.0
  0
LINE
  5
30EA
330
18
100
AcDbEntity
  8
0
100
AcDbLine
 10
1535.856778406309
 20
611.3040531814392
 30
0.0
 11
1535.856778406309
 21
577.3040531814391
 31
0.0
  0
ARC
  5
30EB
330
18
100
AcDbEntity
  8
0
100
AcDbCircle
 10
1540.856778406309
 20
566.9009289440063
 30
0.0
 40
5.0
100
AcDbArc
 50
0.0
 51
51.34019174591021
  0
LINE
  5
30EC
330
18
100
AcDbEntity
  8
0
100
AcDbLine
 10
1535.856778406309
 20
577.304053181439
 30
0.0
 11
1543.980253644081
 21
570.8052729912213
 31
0.0
  0
LINE
  5
30ED
330
18
100
AcDbEntity
  8
0
100
AcDbLine
 10
1545.856778406309
 20
656.804053181439
 30
0.0
 11
1561.856778406309
 21
656.804053181439
 31
0.0
  0
ARC
  5
30EE
330
18
100
AcDbEntity
  8
0
100
AcDbCircle
 10
1540.856778406309
 20
621.7071774188723
 30
0.0
 40
5.0
100
AcDbArc
 50
308.6598082540895
 51
0.0
  0
LINE
  5
30EF
330
18
100
AcDbEntity
  8
0
100
AcDbLine
 10
1362.856778406309
 20
656.804053181439
 30
0.0
 11
1362.856778406309
 21
531.804053181439
 31
0.0
  0
LINE
  5
30F0
330
18
100
AcDbEntity
  8
0
100
AcDbLine
 10
1372.856778406309
 20
611.304053181439
 30
0.0
 11
1364.733303168536
 21
617.8028333716569
 31
0.0
  0
LINE
  5
30F1
330
18
100
AcDbEntity
  8
0
100
AcDbLine
 10
1408.200235754173
 20
611.304053181439
 30
0.0
 11
1372.856778406309
 21
611.304053181439
 31
0.0
  0
LINE
  5
30F2
330
18
100
AcDbEntity
  8
0
100
AcDbLine
 10
1408.200235754173
 20
577.304053181439
 30
0.0
 11
1372.856778406309
 21
577.304053181439
 31
0.0
  0
LINE
  5
30F3
330
18
100
AcDbEntity
  8
0
100
AcDbLine
 10
1362.856778406309
 20
531.804053181439
 30
0.0
 11
1346.856778406309
 21
531.804053181439
 31
0.0
  0
LINE
  5
30F4
330
18
100
AcDbEntity
  8
0
100
AcDbLine
 10
1372.856778406309
 20
611.3040531814392
 30
0.0
 11
1372.856778406309
 21
577.3040531814391
 31
0.0
  0
LINE
  5
30F5
330
18
100
AcDbEntity
  8
0
100
AcDbLine
 10
1372.856778406309
 20
577.304053181439
 30
0.0
 11
1364.733303168537
 21
570.8052729912213
 31
0.0
  0
ARC
  5
30F6
330
18
100
AcDbEntity
  8
0
100
AcDbCircle
 10
1367.856778406309
 20
566.9009289440063
 30
0.0
 40
5.0
100
AcDbArc
 50
128.6598082540898
 51
180.0
  0
LINE
  5
30F7
330
18
100
AcDbEntity
  8
0
100
AcDbLine
 10
1398.356778406309
 20
611.304053181439
 30
0.0
 11
1398.356778406309
 21
577.304053181439
 31
0.0
  0
ARC
  5
30F8
330
18
100
AcDbEntity
  8
0
100
AcDbCircle
 10
1367.856778406309
 20
621.7071774188723
 30
0.0
 40
5.0
100
AcDbArc
 50
180.0
 51
231.3401917459104
  0
LINE
  5
30F9
330
18
100
AcDbEntity
  8
0
100
AcDbLine
 10
1362.856778406309
 20
656.804053181439
 30
0.0
 11
1346.856778406309
 21
656.804053181439
 31
0.0
  0
LINE
  5
30FA
330
18
100
AcDbEntity
  8
0
100
AcDbLine
 10
1535.856778406304
 20
774.7154103206312
 30
0.0
 11
1543.980253644076
 21
781.214190510849
 31
0.0
  0
LINE
  5
30FB
330
18
100
AcDbEntity
  8
0
100
AcDbLine
 10
1545.856778406304
 20
820.2154103206312
 30
0.0
 11
1545.856778406304
 21
695.2154103206312
 31
0.0
  0
LINE
  5
30FC
330
18
100
AcDbEntity
  8
0
100
AcDbLine
 10
1500.51332105844
 20
740.7154103206312
 30
0.0
 11
1535.856778406304
 21
740.7154103206312
 31
0.0
  0
LINE
  5
30FD
330
18
100
AcDbEntity
  8
0
100
AcDbLine
 10
1500.51332105844
 20
774.7154103206312
 30
0.0
 11
1535.856778406304
 21
774.7154103206312
 31
0.0
  0
LINE
  5
30FE
330
18
100
AcDbEntity
  8
0
100
AcDbLine
 10
1510.356778406304
 20
774.7154103206312
 30
0.0
 11
1510.356778406304
 21
740.7154103206312
 31
0.0
  0
LINE
  5
30FF
330
18
100
AcDbEntity
  8
0
100
AcDbLine
 10
1545.856778406304
 20
695.2154103206312
 30
0.0
 11
1561.856778406304
 21
695.2154103206312
 31
0.0
  0
LINE
  5
3100
330
18
100
AcDbEntity
  8
0
100
AcDbLine
 10
1535.856778406304
 20
774.7154103206314
 30
0.0
 11
1535.856778406304
 21
740.7154103206313
 31
0.0
  0
ARC
  5
3101
330
18
100
AcDbEntity
  8
0
100
AcDbCircle
 10
1540.856778406304
 20
730.3122860831986
 30
0.0
 40
5.0
100
AcDbArc
 50
0.0
 51
51.34019174591021
  0
LINE
  5
3102
330
18
100
AcDbEntity
  8
0
100
AcDbLine
 10
1535.856778406304
 20
740.7154103206312
 30
0.0
 11
1543.980253644076
 21
734.2166301304136
 31
0.0
  0
LINE
  5
3103
330
18
100
AcDbEntity
  8
0
100
AcDbLine
 10
1545.856778406304
 20
820.2154103206312
 30
0.0
 11
1561.856778406304
 21
820.2154103206312
 31
0.0
  0
ARC
  5
3104
330
18
100
AcDbEntity
  8
0
100
AcDbCircle
 10
1540.856778406304
 20
785.1185345580645
 30
0.0
 40
5.0
100
AcDbArc
 50
308.6598082540895
 51
0.0
  0
LINE
  5
3105
330
18
100
AcDbEntity
  8
0
100
AcDbLine
 10
1362.856778406304
 20
820.2154103206312
 30
0.0
 11
1362.856778406304
 21
695.2154103206312
 31
0.0
  0
LINE
  5
3106
330
18
100
AcDbEntity
  8
0
100
AcDbLine
 10
1372.856778406304
 20
774.7154103206312
 30
0.0
 11
1364.733303168532
 21
781.214190510849
 31
0.0
  0
LINE
  5
3107
330
18
100
AcDbEntity
  8
0
100
AcDbLine
 10
1408.200235754168
 20
774.7154103206312
 30
0.0
 11
1372.856778406304
 21
774.7154103206312
 31
0.0
  0
LINE
  5
3108
330
18
100
AcDbEntity
  8
0
100
AcDbLine
 10
1408.200235754168
 20
740.7154103206312
 30
0.0
 11
1372.856778406304
 21
740.7154103206312
 31
0.0
  0
LINE
  5
3109
330
18
100
AcDbEntity
  8
0
100
AcDbLine
 10
1362.856778406304
 20
695.2154103206312
 30
0.0
 11
1346.856778406304
 21
695.2154103206312
 31
0.0
  0
LINE
  5
310A
330
18
100
AcDbEntity
  8
0
100
AcDbLine
 10
1372.856778406304
 20
774.7154103206314
 30
0.0
 11
1372.856778406304
 21
740.7154103206313
 31
0.0
  0
LINE
  5
310B
330
18
100
AcDbEntity
  8
0
100
AcDbLine
 10
1372.856778406304
 20
740.7154103206312
 30
0.0
 11
1364.733303168532
 21
734.2166301304136
 31
0.0
  0
ARC
  5
310C
330
18
100
AcDbEntity
  8
0
100
AcDbCircle
 10
1367.856778406304
 20
730.3122860831986
 30
0.0
 40
5.0
100
AcDbArc
 50
128.6598082540898
 51
180.0
  0
LINE
  5
310D
330
18
100
AcDbEntity
  8
0
100
AcDbLine
 10
1398.356778406304
 20
774.7154103206312
 30
0.0
 11
1398.356778406304
 21
740.7154103206312
 31
0.0
  0
ARC
  5
310E
330
18
100
AcDbEntity
  8
0
100
AcDbCircle
 10
1367.856778406304
 20
785.1185345580645
 30
0.0
 40
5.0
100
AcDbArc
 50
180.0
 51
231.3401917459104
  0
LINE
  5
310F
330
18
100
AcDbEntity
  8
0
100
AcDbLine
 10
1362.856778406304
 20
820.2154103206312
 30
0.0
 11
1346.856778406304
 21
820.2154103206312
 31
0.0
  0
TEXT
  5
32BF
330
18
100
AcDbEntity
  8
0
100
AcDbText
 10
351.6433342319215
 20
291.2476010733553
 30
0.0
 40
20.0
  1
1/2
 41
0.8
 11
351.6433342319215
 21
291.2476010733553
 31
0.0
100
AcDbText
 73
     1
  0
TEXT
  5
32C0
330
18
100
AcDbEntity
  8
0
100
AcDbText
 10
862.526504983869
 20
286.6786425213058
 30
0.0
 40
20.0
  1
3/4
 41
0.8
 11
862.526504983869
 21
286.6786425213058
 31
0.0
100
AcDbText
 73
     1
  0
TEXT
  5
32C1
330
18
100
AcDbEntity
  8
0
100
AcDbText
 10
1442.190339454524
 20
284.0125115658148
 30
0.0
 40
20.0
  1
1
 41
0.8
 11
1442.190339454524
 21
284.0125115658148
 31
0.0
100
AcDbText
 73
     1
  0
VIEWPORT
  5
41
102
{ACAD_XDICTIONARY
360
33DD
102
}
330
15
100
AcDbEntity
 67
     1
  8
0
100
AcDbViewport
 10
117.358407079646
 20
73.5
 30
0.0
 40
234.716814159292
 41
147.0
 68
     1
 69
     1
 12
117.358407079646
 22
73.5
 13
0.0
 23
0.0
 14
1.0
 24
1.0
 15
0.0
 25
0.0
 16
0.0
 26
0.0
 36
1.0
 17
0.0
 27
0.0
 37
0.0
 42
50.0
 43
0.0
 44
0.0
 45
147.0
 50
0.0
 51
0.0
 72
   100
 90
    32800
  1

281
     0
 71
     1
 74
     0
110
0.0
120
0.0
130
0.0
111
1.0
121
0.0
131
0.0
112
0.0
122
1.0
132
0.0
 79
     0
146
0.0
1001
GENIUS_GENSCREG_15
1000
PF
1040
1.0
1000
DF
1040
1.0
1000
MIN
1011
0.0
1021
0.0
1031
0.0
1000
MAX
1011
234.716814159292
1021
147.0
1031
0.0
1000
FLAGS
1070
     4
1001
GENIUS_GENODEF_13
1002
{
1000
HIER
1070
     0
1002
}
1002
{
1000
MANEDIT
1070
     0
1002
}
1002
{
1000
NOSEL
1070
     0
1002
}
1002
{
1000
BEHIND
1070
     0
1002
}
1002
{
1000
OTHER
1070
     0
1002
}
1002
{
1000
REACTOR
1002
}
1001
GENIUS_GENOBJ-N-SDF_13
1002
{
1000
OWNER
1000
GEN
1002
}
  0
ENDSEC
  0
SECTION
  2
OBJECTS
  0
DICTIONARY
  5
C
330
0
100
AcDbDictionary
281
     1
  3
ACAD_CIP_PREVIOUS_PRODUCT_INFO
350
3301
  3
ACAD_COLOR
350
324C
  3
ACAD_DETAILVIEWSTYLE
350
32FA
  3
ACAD_FIELDLIST
350
3367
  3
ACAD_GROUP
350
D
  3
ACAD_LAYOUT
350
324E
  3
ACAD_MATERIAL
350
324B
  3
ACAD_MLEADERSTYLE
350
329F
  3
ACAD_MLINESTYLE
350
E
  3
ACAD_PLOTSETTINGS
350
324D
  3
ACAD_PLOTSTYLENAME
350
3249
  3
ACAD_SCALELIST
350
327D
  3
ACAD_SECTIONVIEWSTYLE
350
32F8
  3
ACAD_TABLESTYLE
350
327B
  3
ACAD_VISUALSTYLE
350
326A
  3
ACDB_RECOMPOSE_DATA
350
33D3
  3
AcDbVariableDictionary
350
32D7
  3
AcDsDecomposeData
350
33DA
  3
AcmDictionary
350
332F
  3
AMG
350
3303
  3
AMGSNAPSETTINGS
350
3374
  3
ASE_INDEX_DICTIONARY
350
32AA
  3
DWGPROPS
350
33D4
  0
DICTIONARY
  5
32E4
330
8
100
AcDbDictionary
280
     1
281
     1
  0
DICTIONARY
  5
32A7
330
F
100
AcDbDictionary
280
     1
281
     1
  3
ADSK_XREC_LAYER_RECONCILED
360
32A8
  0
DICTIONARY
  5
33DD
330
41
100
AcDbDictionary
280
     1
281
     1
  3
ACAD_XREC_ROUNDTRIP
360
33DE
  0
XRECORD
  5
3301
102
{ACAD_REACTORS
330
C
102
}
330
C
100
AcDbXrecord
280
     1
300
AMECH_PP
300
2015
300
PDSP_F_S
  0
DICTIONARY
  5
324C
102
{ACAD_REACTORS
330
C
102
}
330
C
100
AcDbDictionary
281
     1
  0
DICTIONARY
  5
32FA
102
{ACAD_REACTORS
330
C
102
}
330
C
100
AcDbDictionary
281
     1
  3
Metric50
350
32FB
  0
FIELDLIST
  5
3367
102
{ACAD_REACTORS
330
C
102
}
330
C
100
AcDbIdSet
 90
        3
330
3365
330
3366
330
3368
100
AcDbFieldList
  0
DICTIONARY
  5
D
102
{ACAD_REACTORS
330
C
102
}
330
C
100
AcDbDictionary
281
     1
  0
DICTIONARY
  5
324E
102
{ACAD_REACTORS
330
C
102
}
330
C
100
AcDbDictionary
281
     1
  3
Model
350
324F
  3
レイアウト1
350
3250
  0
DICTIONARY
  5
324B
102
{ACAD_REACTORS
330
C
102
}
330
C
100
AcDbDictionary
281
     1
  3
ByBlock
350
325A
  3
ByLayer
350
3252
  3
Global
350
3262
  0
DICTIONARY
  5
329F
102
{ACAD_REACTORS
330
C
102
}
330
C
100
AcDbDictionary
281
     1
  3
Standard
350
32A0
  0
DICTIONARY
  5
E
102
{ACAD_REACTORS
330
C
102
}
330
C
100
AcDbDictionary
281
     1
  3
STANDARD
350
1B
  0
DICTIONARY
  5
324D
102
{ACAD_REACTORS
330
C
102
}
330
C
100
AcDbDictionary
281
     1
  0
ACDBDICTIONARYWDFLT
  5
3249
102
{ACAD_REACTORS
330
C
102
}
330
C
100
AcDbDictionary
281
     1
  3
Normal
350
324A
100
AcDbDictionaryWithDefault
340
324A
  0
DICTIONARY
  5
327D
102
{ACAD_REACTORS
330
C
102
}
330
C
100
AcDbDictionary
281
     1
  3
A0
350
327E
  3
A1
350
327F
  3
A2
350
3280
  3
A3
350
3281
  3
A4
350
3282
  3
A5
350
3283
  3
A6
350
3284
  3
A7
350
3285
  3
A8
350
3286
  3
A9
350
3287
  3
B0
350
3288
  3
B1
350
3289
  3
B2
350
328A
  3
B3
350
328B
  3
B4
350
328C
  3
B5
350
328D
  3
B6
350
328E
  3
B7
350
328F
  3
B8
350
3290
  3
B9
350
3291
  3
C0
350
3292
  3
C1
350
3293
  3
C2
350
3294
  3
C3
350
3295
  3
C4
350
3296
  3
C5
350
3297
  3
C6
350
3298
  3
C7
350
3299
  3
C8
350
329A
  3
C9
350
329B
  3
D0
350
329C
  3
D1
350
329D
  3
D2
350
329E
  0
DICTIONARY
  5
32F8
102
{ACAD_REACTORS
330
C
102
}
330
C
100
AcDbDictionary
281
     1
  3
Metric50
350
32F9
  0
DICTIONARY
  5
327B
102
{ACAD_REACTORS
330
C
102
}
330
C
100
AcDbDictionary
281
     1
  3
Standard
350
327C
  0
DICTIONARY
  5
326A
102
{ACAD_REACTORS
330
C
102
}
330
C
100
AcDbDictionary
281
     1
  3
2dWireframe
350
3270
  3
3D Hidden
350
3272
  3
3dWireframe
350
3271
  3
Basic
350
326F
  3
Brighten
350
3276
  3
ColorChange
350
327A
  3
Conceptual
350
3273
  3
Dim
350
3275
  3
EdgeColorOff
350
32F7
  3
Facepattern
350
3279
  3
Flat
350
326B
  3
FlatWithEdges
350
326C
  3
Gouraud
350
326D
  3
GouraudWithEdges
350
326E
  3
Hidden
350
32EF
  3
JitterOff
350
32F5
  3
Linepattern
350
3278
  3
OverhangOff
350
32F6
  3
Realistic
350
3274
  3
Shaded
350
32F4
  3
Shaded with edges
350
32F3
  3
Shades of Gray
350
32F0
  3
Sketchy
350
32F1
  3
Thicken
350
3277
  3
Wireframe
350
32EE
  3
X-Ray
350
32F2
  0
XRECORD
  5
33D3
102
{ACAD_REACTORS
330
C
102
}
330
C
100
AcDbXrecord
280
     1
 90
        1
330
327C
  0
DICTIONARY
  5
32D7
102
{ACAD_REACTORS
330
C
102
}
330
C
100
AcDbDictionary
281
     1
  3
CANNOSCALE
350
32DB
  3
CMLEADERSTYLE
350
32D9
  3
CTABLESTYLE
350
32D8
  3
CVIEWDETAILSTYLE
350
33CA
  3
CVIEWSECTIONSTYLE
350
33CB
  3
DIMASSOC
350
33CF
  3
INDEXCTL
350
33CD
  3
LIGHTINGUNITS
350
32DC
  3
MSLTSCALE
350
32DA
  3
SORTENTS
350
33CC
  3
XCLIPFRAME
350
33CE
  0
DICTIONARY
  5
33DA
102
{ACAD_REACTORS
330
C
102
}
330
C
100
AcDbDictionary
281
     1
  3
AcDsRecords
350
33DC
  3
AcDsSchemas
350
33DB
1001
ACAD
1070
     2
  0
DICTIONARY
  5
332F
102
{ACAD_REACTORS
330
C
102
}
330
C
100
AcDbDictionary
281
     1
  3
AcmStdDictionary
350
3338
  0
DICTIONARY
  5
3303
102
{ACAD_REACTORS
330
C
102
}
330
C
100
AcDbDictionary
281
     1
  3
AcMgSettings
350
3304
  0
DICTIONARY
  5
3374
102
{ACAD_REACTORS
330
C
102
}
330
C
100
AcDbDictionary
281
     1
  3
FEA
350
3378
  3
ハッチング(1)
350
3375
  3
ハッチング(2)
350
3376
  3
寸法
350
3379
  3
簡易溶接
350
337A
  3
記号
350
3377
  0
DICTIONARY
  5
32AA
102
{ACAD_REACTORS
330
C
102
}
330
C
100
AcDbDictionary
281
     1
  3
ASEBlockHierarchyIndexRecord
350
32AC
1001
DCO15
1040
1630404711.151
  0
XRECORD
  5
33D4
102
{ACAD_REACTORS
330
C
102
}
330
C
100
AcDbXrecord
280
     1
  1
DWGPROPS COOKIE
  2

  3

  4

  6

  7

  8
takegawa
  9

300
=
301
=
302
=
303
=
304
=
305
=
306
=
307
=
308
=
309
=
 40
0.0669440856481482
 41
2451564.654844861
 42
2458253.39020875
  1

 90
        0
  0
XRECORD
  5
32A8
102
{ACAD_REACTORS
330
32A7
102
}
330
32A7
100
AcDbXrecord
280
     1
290
     1
  0
XRECORD
  5
33DE
102
{ACAD_REACTORS
330
33DD
102
}
330
33DD
100
AcDbXrecord
280
     1
102
SHADEPLOT
 70
     0
  0
ACDBDETAILVIEWSTYLE
  5
32FB
102
{ACAD_XDICTIONARY
360
341D
102
}
102
{ACAD_REACTORS
330
32FA
330
335B
102
}
330
32FA
100
AcDbModelDocViewStyle
 70
     0
  3
Metric50
290
     0
100
AcDbDetailViewStyle
 70
     0
 71
     0
 90
        3
 71
     1
340
10
 40
5.0
340
0
 40
5.0
300

 40
0.0
280
     1
 71
     2
340
14
 90
       25
 71
     3
340
10
 40
5.0
 90
        0
 40
15.0
 90
        1
300
%<\AcVar ViewDetailId>% (%<\AcVar ViewScale \f "%sn">%)
 71
     4
340
14
 90
       25
340
14
 90
       25
280
     0
  0
LAYOUT
  5
324F
102
{ACAD_XDICTIONARY
360
33DF
102
}
102
{ACAD_REACTORS
330
324E
102
}
330
324E
100
AcDbPlotSettings
  1

  2

  4

  6

 40
0.0
 41
0.0
 42
0.0
 43
0.0
 44
0.0
 45
0.0
 46
0.0
 47
0.0
 48
0.0
 49
0.0
140
0.0
141
0.0
142
1.0
143
1.0
 70
  1712
 72
     0
 73
     0
 74
     0
  7

 75
     0
147
1.0
148
0.0
149
0.0
100
AcDbLayout
  1
Model
 70
     1
 71
     0
 10
0.0
 20
0.0
 11
12.0
 21
9.0
 12
0.0
 22
0.0
 32
0.0
 14
0.0
 24
0.0
 34
0.0
 15
0.0
 25
0.0
 35
0.0
146
0.0
 13
0.0
 23
0.0
 33
0.0
 16
1.0
 26
0.0
 36
0.0
 17
0.0
 27
1.0
 37
0.0
 76
     0
330
18
331
3247
  0
LAYOUT
  5
3250
102
{ACAD_XDICTIONARY
360
33E1
102
}
102
{ACAD_REACTORS
330
324E
102
}
330
324E
100
AcDbPlotSettings
  1

  2

  4

  6

 40
0.0
 41
0.0
 42
0.0
 43
0.0
 44
0.0
 45
0.0
 46
0.0
 47
0.0
 48
0.0
 49
0.0
140
0.0
141
0.0
142
1.0
143
1.0
 70
   688
 72
     0
 73
     0
 74
     5
  7

 75
    16
147
1.0
148
0.0
149
0.0
100
AcDbLayout
  1
レイアウト1
 70
     1
 71
     1
 10
0.0
 20
0.0
 11
20.0
 21
147.0
 12
0.0
 22
0.0
 32
0.0
 14
1.000000000000000E+20
 24
1.000000000000000E+20
 34
1.000000000000000E+20
 15
-1.000000000000000E+20
 25
-1.000000000000000E+20
 35
-1.000000000000000E+20
146
0.0
 13
0.0
 23
0.0
 33
0.0
 16
1.0
 26
0.0
 36
0.0
 17
0.0
 27
1.0
 37
0.0
 76
     0
330
15
331
41
  0
MATERIAL
  5
325A
102
{ACAD_XDICTIONARY
360
325B
102
}
102
{ACAD_REACTORS
330
324B
102
}
330
324B
100
AcDbMaterial
  1
ByBlock
 72
     0
 43
0.0208333333333333
 43
0.0
 43
0.0
 43
0.0
 43
0.0
 43
0.0208333333333333
 43
0.0
 43
0.0
 43
0.0
 43
0.0
 43
1.0
 43
0.0
 43
0.0
 43
0.0
 43
0.0
 43
1.0
 77
     0
 47
0.0208333333333333
 47
0.0
 47
0.0
 47
0.0
 47
0.0
 47
0.0208333333333333
 47
0.0
 47
0.0
 47
0.0
 47
0.0
 47
1.0
 47
0.0
 47
0.0
 47
0.0
 47
0.0
 47
1.0
171
     0
 49
0.0208333333333333
 49
0.0
 49
0.0
 49
0.0
 49
0.0
 49
0.0208333333333333
 49
0.0
 49
0.0
 49
0.0
 49
0.0
 49
1.0
 49
0.0
 49
0.0
 49
0.0
 49
0.0
 49
1.0
175
     0
142
0.0208333333333333
142
0.0
142
0.0
142
0.0
142
0.0
142
0.0208333333333333
142
0.0
142
0.0
142
0.0
142
0.0
142
1.0
142
0.0
142
0.0
142
0.0
142
0.0
142
1.0
179
     0
144
0.0208333333333333
144
0.0
144
0.0
144
0.0
144
0.0
144
0.0208333333333333
144
0.0
144
0.0
144
0.0
144
0.0
144
1.0
144
0.0
144
0.0
144
0.0
144
0.0
144
1.0
147
0.0208333333333333
147
0.0
147
0.0
147
0.0
147
0.0
147
0.0208333333333333
147
0.0
147
0.0
147
0.0
147
0.0
147
1.0
147
0.0
147
0.0
147
0.0
147
0.0
147
1.0
  0
MATERIAL
  5
3252
102
{ACAD_XDICTIONARY
360
3253
102
}
102
{ACAD_REACTORS
330
324B
102
}
330
324B
100
AcDbMaterial
  1
ByLayer
 72
     0
 43
0.0208333333333333
 43
0.0
 43
0.0
 43
0.0
 43
0.0
 43
0.0208333333333333
 43
0.0
 43
0.0
 43
0.0
 43
0.0
 43
1.0
 43
0.0
 43
0.0
 43
0.0
 43
0.0
 43
1.0
 77
     0
 47
0.0208333333333333
 47
0.0
 47
0.0
 47
0.0
 47
0.0
 47
0.0208333333333333
 47
0.0
 47
0.0
 47
0.0
 47
0.0
 47
1.0
 47
0.0
 47
0.0
 47
0.0
 47
0.0
 47
1.0
171
     0
 49
0.0208333333333333
 49
0.0
 49
0.0
 49
0.0
 49
0.0
 49
0.0208333333333333
 49
0.0
 49
0.0
 49
0.0
 49
0.0
 49
1.0
 49
0.0
 49
0.0
 49
0.0
 49
0.0
 49
1.0
175
     0
142
0.0208333333333333
142
0.0
142
0.0
142
0.0
142
0.0
142
0.0208333333333333
142
0.0
142
0.0
142
0.0
142
0.0
142
1.0
142
0.0
142
0.0
142
0.0
142
0.0
142
1.0
179
     0
144
0.0208333333333333
144
0.0
144
0.0
144
0.0
144
0.0
144
0.0208333333333333
144
0.0
144
0.0
144
0.0
144
0.0
144
1.0
144
0.0
144
0.0
144
0.0
144
0.0
144
1.0
147
0.0208333333333333
147
0.0
147
0.0
147
0.0
147
0.0
147
0.0208333333333333
147
0.0
147
0.0
147
0.0
147
0.0
147
1.0
147
0.0
147
0.0
147
0.0
147
0.0
147
1.0
  0
MATERIAL
  5
3262
102
{ACAD_XDICTIONARY
360
3263
102
}
102
{ACAD_REACTORS
330
324B
102
}
330
324B
100
AcDbMaterial
  1
Global
 72
     0
 43
0.0208333333333333
 43
0.0
 43
0.0
 43
0.0
 43
0.0
 43
0.0208333333333333
 43
0.0
 43
0.0
 43
0.0
 43
0.0
 43
1.0
 43
0.0
 43
0.0
 43
0.0
 43
0.0
 43
1.0
 77
     0
 47
0.0208333333333333
 47
0.0
 47
0.0
 47
0.0
 47
0.0
 47
0.0208333333333333
 47
0.0
 47
0.0
 47
0.0
 47
0.0
 47
1.0
 47
0.0
 47
0.0
 47
0.0
 47
0.0
 47
1.0
171
     0
 49
0.0208333333333333
 49
0.0
 49
0.0
 49
0.0
 49
0.0
 49
0.0208333333333333
 49
0.0
 49
0.0
 49
0.0
 49
0.0
 49
1.0
 49
0.0
 49
0.0
 49
0.0
 49
0.0
 49
1.0
175
     0
142
0.0208333333333333
142
0.0
142
0.0
142
0.0
142
0.0
142
0.0208333333333333
142
0.0
142
0.0
142
0.0
142
0.0
142
1.0
142
0.0
142
0.0
142
0.0
142
0.0
142
1.0
179
     0
144
0.0208333333333333
144
0.0
144
0.0
144
0.0
144
0.0
144
0.0208333333333333
144
0.0
144
0.0
144
0.0
144
0.0
144
1.0
144
0.0
144
0.0
144
0.0
144
0.0
144
1.0
147
0.0208333333333333
147
0.0
147
0.0
147
0.0
147
0.0
147
0.0208333333333333
147
0.0
147
0.0
147
0.0
147
0.0
147
1.0
147
0.0
147
0.0
147
0.0
147
0.0
147
1.0
  0
MLEADERSTYLE
  5
32A0
102
{ACAD_REACTORS
330
329F
102
}
330
329F
100
AcDbMLeaderStyle
170
     2
171
     1
172
     0
 90
        2
 40
0.0
 41
0.0
173
     1
 91
-1056964608
340
12
 92
       -2
290
     1
 42
2.0
291
     1
 43
0.36
  3
Standard
 44
4.0
300

342
10
174
     1
178
     6
175
     1
176
     0
 93
-1056964608
 45
4.0
292
     0
297
     0
 46
4.0
 94
-1056964608
 47
1.0
 49
1.0
140
1.0
293
     1
141
0.0
294
     1
177
     0
142
1.0
295
     0
296
     0
143
0.125
1001
ACAD_MLEADERVER
1070
     2
  0
MLINESTYLE
  5
1B
102
{ACAD_REACTORS
330
E
102
}
330
E
100
AcDbMlineStyle
  2
STANDARD
 70
     0
  3

 62
     0
 51
90.0
 52
90.0
 71
     2
 49
0.5
 62
   256
  6
BYLAYER
 49
-0.5
 62
   256
  6
BYLAYER
  0
ACDBPLACEHOLDER
  5
324A
102
{ACAD_REACTORS
330
3249
102
}
330
3249
  0
SCALE
  5
327E
102
{ACAD_REACTORS
330
327D
102
}
330
327D
100
AcDbScale
 70
     0
300
1:1
140
1.0
141
1.0
290
     1
  0
SCALE
  5
327F
102
{ACAD_REACTORS
330
327D
102
}
330
327D
100
AcDbScale
 70
     0
300
1:2
140
1.0
141
2.0
290
     0
  0
SCALE
  5
3280
102
{ACAD_REACTORS
330
327D
102
}
330
327D
100
AcDbScale
 70
     0
300
1:4
140
1.0
141
4.0
290
     0
  0
SCALE
  5
3281
102
{ACAD_REACTORS
330
327D
102
}
330
327D
100
AcDbScale
 70
     0
300
1:5
140
1.0
141
5.0
290
     0
  0
SCALE
  5
3282
102
{ACAD_REACTORS
330
327D
102
}
330
327D
100
AcDbScale
 70
     0
300
1:8
140
1.0
141
8.0
290
     0
  0
SCALE
  5
3283
102
{ACAD_REACTORS
330
327D
102
}
330
327D
100
AcDbScale
 70
     0
300
1:10
140
1.0
141
10.0
290
     0
  0
SCALE
  5
3284
102
{ACAD_REACTORS
330
327D
102
}
330
327D
100
AcDbScale
 70
     0
300
1:16
140
1.0
141
16.0
290
     0
  0
SCALE
  5
3285
102
{ACAD_REACTORS
330
327D
102
}
330
327D
100
AcDbScale
 70
     0
300
1:20
140
1.0
141
20.0
290
     0
  0
SCALE
  5
3286
102
{ACAD_REACTORS
330
327D
102
}
330
327D
100
AcDbScale
 70
     0
300
1:30
140
1.0
141
30.0
290
     0
  0
SCALE
  5
3287
102
{ACAD_REACTORS
330
327D
102
}
330
327D
100
AcDbScale
 70
     0
300
1:40
140
1.0
141
40.0
290
     0
  0
SCALE
  5
3288
102
{ACAD_REACTORS
330
327D
102
}
330
327D
100
AcDbScale
 70
     0
300
1:50
140
1.0
141
50.0
290
     0
  0
SCALE
  5
3289
102
{ACAD_REACTORS
330
327D
102
}
330
327D
100
AcDbScale
 70
     0
300
1:100
140
1.0
141
100.0
290
     0
  0
SCALE
  5
328A
102
{ACAD_REACTORS
330
327D
102
}
330
327D
100
AcDbScale
 70
     0
300
2:1
140
2.0
141
1.0
290
     0
  0
SCALE
  5
328B
102
{ACAD_REACTORS
330
327D
102
}
330
327D
100
AcDbScale
 70
     0
300
4:1
140
4.0
141
1.0
290
     0
  0
SCALE
  5
328C
102
{ACAD_REACTORS
330
327D
102
}
330
327D
100
AcDbScale
 70
     0
300
8:1
140
8.0
141
1.0
290
     0
  0
SCALE
  5
328D
102
{ACAD_REACTORS
330
327D
102
}
330
327D
100
AcDbScale
 70
     0
300
10:1
140
10.0
141
1.0
290
     0
  0
SCALE
  5
328E
102
{ACAD_REACTORS
330
327D
102
}
330
327D
100
AcDbScale
 70
     0
300
100:1
140
100.0
141
1.0
290
     0
  0
SCALE
  5
328F
102
{ACAD_REACTORS
330
327D
102
}
330
327D
100
AcDbScale
 70
     0
300
1/128" = 1'-0"
140
0.0078125
141
12.0
290
     0
  0
SCALE
  5
3290
102
{ACAD_REACTORS
330
327D
102
}
330
327D
100
AcDbScale
 70
     0
300
1/64" = 1'-0"
140
0.015625
141
12.0
290
     0
  0
SCALE
  5
3291
102
{ACAD_REACTORS
330
327D
102
}
330
327D
100
AcDbScale
 70
     0
300
1/32" = 1'-0"
140
0.03125
141
12.0
290
     0
  0
SCALE
  5
3292
102
{ACAD_REACTORS
330
327D
102
}
330
327D
100
AcDbScale
 70
     0
300
1/16" = 1'-0"
140
0.0625
141
12.0
290
     0
  0
SCALE
  5
3293
102
{ACAD_REACTORS
330
327D
102
}
330
327D
100
AcDbScale
 70
     0
300
3/32" = 1'-0"
140
0.09375
141
12.0
290
     0
  0
SCALE
  5
3294
102
{ACAD_REACTORS
330
327D
102
}
330
327D
100
AcDbScale
 70
     0
300
1/8" = 1'-0"
140
0.125
141
12.0
290
     0
  0
SCALE
  5
3295
102
{ACAD_REACTORS
330
327D
102
}
330
327D
100
AcDbScale
 70
     0
300
3/16" = 1'-0"
140
0.1875
141
12.0
290
     0
  0
SCALE
  5
3296
102
{ACAD_REACTORS
330
327D
102
}
330
327D
100
AcDbScale
 70
     0
300
1/4" = 1'-0"
140
0.25
141
12.0
290
     0
  0
SCALE
  5
3297
102
{ACAD_REACTORS
330
327D
102
}
330
327D
100
AcDbScale
 70
     0
300
3/8" = 1'-0"
140
0.375
141
12.0
290
     0
  0
SCALE
  5
3298
102
{ACAD_REACTORS
330
327D
102
}
330
327D
100
AcDbScale
 70
     0
300
1/2" = 1'-0"
140
0.5
141
12.0
290
     0
  0
SCALE
  5
3299
102
{ACAD_REACTORS
330
327D
102
}
330
327D
100
AcDbScale
 70
     0
300
3/4" = 1'-0"
140
0.75
141
12.0
290
     0
  0
SCALE
  5
329A
102
{ACAD_REACTORS
330
327D
102
}
330
327D
100
AcDbScale
 70
     0
300
1" = 1'-0"
140
1.0
141
12.0
290
     0
  0
SCALE
  5
329B
102
{ACAD_REACTORS
330
327D
102
}
330
327D
100
AcDbScale
 70
     0
300
1-1/2" = 1'-0"
140
1.5
141
12.0
290
     0
  0
SCALE
  5
329C
102
{ACAD_REACTORS
330
327D
102
}
330
327D
100
AcDbScale
 70
     0
300
3" = 1'-0"
140
3.0
141
12.0
290
     0
  0
SCALE
  5
329D
102
{ACAD_REACTORS
330
327D
102
}
330
327D
100
AcDbScale
 70
     0
300
6" = 1'-0"
140
6.0
141
12.0
290
     0
  0
SCALE
  5
329E
102
{ACAD_REACTORS
330
327D
102
}
330
327D
100
AcDbScale
 70
     0
300
1'-0" = 1'-0"
140
12.0
141
12.0
290
     0
  0
ACDBSECTIONVIEWSTYLE
  5
32F9
102
{ACAD_XDICTIONARY
360
341B
102
}
102
{ACAD_REACTORS
330
32F8
330
335A
102
}
330
32F8
100
AcDbModelDocViewStyle
 70
     0
  3
Metric50
290
     0
100
AcDbSectionViewStyle
 70
     0
 71
     0
 90
      102
 71
     1
340
10
 40
5.0
340
0
340
0
 40
5.0
300
I, O, Q, S, X, Z
 40
10.0
 90
        0
 40
2.5
 90
        0
 71
     2
340
14
 90
       25
340
14
 90
       50
 40
5.0
 40
2.5
 40
5.0
 71
     3
340
10
 40
5.0
 90
        0
 40
15.0
 90
        1
300
%<\AcVar ViewSectionStartId>%-%<\AcVar ViewSectionEndId>% (%<\AcVar ViewScale \f "%sn">%)
 71
     4
300
ANSI31
 40
1.0
 90
        0
290
     0
290
     0
 90
        6
 40
0.0
 40
1.570796326794896
 40
0.2617993877991494
 40
1.308996938995747
 40
-0.2617993877991494
 40
1.832595714594046
  0
TABLESTYLE
  5
327C
102
{ACAD_XDICTIONARY
360
32D4
102
}
102
{ACAD_REACTORS
330
327B
102
}
330
327B
100
AcDbTableStyle
  3
Standard
 70
     0
 71
     0
 40
1.5
 41
1.5
280
     0
281
     0
  7
STANDARD
140
4.5
170
     2
 62
     0
 63
     7
283
     0
274
    -2
284
     1
 64
     0
275
    -2
285
     1
 65
     0
276
    -2
286
     1
 66
     0
277
    -2
287
     1
 67
     0
278
    -2
288
     1
 68
     0
279
    -2
289
     1
 69
     0
  7
STANDARD
140
6.0
170
     5
 62
     0
 63
     7
283
     0
274
    -2
284
     1
 64
     0
275
    -2
285
     1
 65
     0
276
    -2
286
     1
 66
     0
277
    -2
287
     1
 67
     0
278
    -2
288
     1
 68
     0
279
    -2
289
     1
 69
     0
  7
STANDARD
140
4.5
170
     5
 62
     0
 63
     7
283
     0
274
    -2
284
     1
 64
     0
275
    -2
285
     1
 65
     0
276
    -2
286
     1
 66
     0
277
    -2
287
     1
 67
     0
278
    -2
288
     1
 68
     0
279
    -2
289
     1
 69
     0
  0
VISUALSTYLE
  5
3270
102
{ACAD_XDICTIONARY
360
33F0
102
}
102
{ACAD_REACTORS
330
326A
102
}
330
326A
100
AcDbVisualStyle
  2
2dWireframe
 70
     4
 71
     0
 72
     2
 73
     0
 90
        0
 40
-0.6
 41
-30.0
 62
     5
 63
     7
 74
     1
 91
        4
 64
     7
 65
   257
 75
     1
175
     1
 42
1.0
 92
        0
 66
   257
 43
1.0
 76
     1
 77
     6
 78
     2
 67
     7
 79
     5
170
     0
171
     0
290
     0
174
     0
 93
        1
 44
0.0
173
     0
291
     0
 45
0.0
1001
ACAD
1000
AcDbSavedByObjectVersion
1070
     0
  0
VISUALSTYLE
  5
3272
102
{ACAD_XDICTIONARY
360
33F4
102
}
102
{ACAD_REACTORS
330
326A
102
}
330
326A
100
AcDbVisualStyle
  2
3D Hidden
 70
     6
 71
     1
 72
     2
 73
     2
 90
        0
 40
-0.6
 41
-30.0
 62
     5
 63
     7
 74
     2
 91
        2
 64
     7
 65
   257
 75
     2
175
     1
 42
40.0
 92
        0
 66
   257
 43
1.0
 76
     1
 77
     6
 78
     2
 67
     7
 79
     3
170
     0
171
     0
290
     0
174
     0
 93
        1
 44
0.0
173
     0
291
     0
 45
0.0
1001
ACAD
1000
AcDbSavedByObjectVersion
1070
     0
  0
VISUALSTYLE
  5
3271
102
{ACAD_XDICTIONARY
360
33F2
102
}
102
{ACAD_REACTORS
330
326A
102
}
330
326A
100
AcDbVisualStyle
  2
3dWireframe
 70
     5
 71
     0
 72
     2
 73
     0
 90
        0
 40
-0.6
 41
-30.0
 62
     5
 63
     7
 74
     1
 91
        4
 64
     7
 65
   257
 75
     1
175
     1
 42
1.0
 92
        0
 66
   257
 43
1.0
 76
     1
 77
     6
 78
     2
 67
     7
 79
     5
170
     0
171
     0
290
     0
174
     0
 93
        1
 44
0.0
173
     0
291
     0
 45
0.0
1001
ACAD
1000
AcDbSavedByObjectVersion
1070
     0
  0
VISUALSTYLE
  5
326F
102
{ACAD_XDICTIONARY
360
33EE
102
}
102
{ACAD_REACTORS
330
326A
102
}
330
326A
100
AcDbVisualStyle
  2
Basic
 70
     7
 71
     1
 72
     0
 73
     1
 90
        0
 40
-0.6
 41
-30.0
 62
     5
 63
     7
 74
     0
 91
        4
 64
     7
 65
   257
 75
     1
175
     1
 42
1.0
 92
        8
 66
     7
 43
1.0
 76
     1
 77
     6
 78
     2
 67
     7
 79
     5
170
     0
171
     0
290
     0
174
     0
 93
        1
 44
0.0
173
     0
291
     1
 45
0.0
1001
ACAD
1000
AcDbSavedByObjectVersion
1070
     0
  0
VISUALSTYLE
  5
3276
102
{ACAD_XDICTIONARY
360
33FC
102
}
102
{ACAD_REACTORS
330
326A
102
}
330
326A
100
AcDbVisualStyle
  2
Brighten
 70
    12
 71
     2
 72
     2
 73
     0
 90
        0
 40
-0.6
 41
-30.0
 62
     5
 63
     7
 74
     1
 91
        4
 64
     7
 65
   257
 75
     1
175
     1
 42
1.0
 92
        8
 66
     7
 43
1.0
 76
     1
 77
     6
 78
     2
 67
     7
 79
     5
170
     0
171
     0
290
     0
174
     0
 93
        1
 44
50.0
173
     0
291
     1
 45
0.0
1001
ACAD
1000
AcDbSavedByObjectVersion
1070
     0
  0
VISUALSTYLE
  5
327A
102
{ACAD_XDICTIONARY
360
3404
102
}
102
{ACAD_REACTORS
330
326A
102
}
330
326A
100
AcDbVisualStyle
  2
ColorChange
 70
    16
 71
     2
 72
     2
 73
     3
 90
        0
 40
-0.6
 41
-30.0
 62
     5
 63
     8
 74
     1
 91
        4
 64
     7
 65
   257
 75
     1
175
     1
 42
1.0
 92
        8
 66
     8
 43
1.0
 76
     1
 77
     6
 78
     2
 67
     7
 79
     5
170
     0
171
     0
290
     0
174
     0
 93
        1
 44
0.0
173
     0
291
     1
 45
0.0
1001
ACAD
1000
AcDbSavedByObjectVersion
1070
     0
  0
VISUALSTYLE
  5
3273
102
{ACAD_XDICTIONARY
360
33F6
102
}
102
{ACAD_REACTORS
330
326A
102
}
330
326A
100
AcDbVisualStyle
  2
Conceptual
 70
     9
 71
     3
 72
     2
 73
     0
 90
        0
 40
-0.6
 41
-30.0
 62
     5
 63
     7
 74
     2
 91
        2
 64
     7
 65
   257
 75
     1
175
     1
 42
40.0
 92
        8
 66
     7
 43
1.0
 76
     1
 77
     6
 78
     2
 67
     7
 79
     3
170
     0
171
     0
290
     0
174
     0
 93
        1
 44
0.0
173
     0
291
     0
 45
0.0
1001
ACAD
1000
AcDbSavedByObjectVersion
1070
     0
  0
VISUALSTYLE
  5
3275
102
{ACAD_XDICTIONARY
360
33FA
102
}
102
{ACAD_REACTORS
330
326A
102
}
330
326A
100
AcDbVisualStyle
  2
Dim
 70
    11
 71
     2
 72
     2
 73
     0
 90
        0
 40
-0.6
 41
-30.0
 62
     5
 63
     7
 74
     1
 91
        4
 64
     7
 65
   257
 75
     1
175
     1
 42
1.0
 92
        8
 66
     7
 43
1.0
 76
     1
 77
     6
 78
     2
 67
     7
 79
     5
170
     0
171
     0
290
     0
174
     0
 93
        1
 44
-50.0
173
     0
291
     1
 45
0.0
1001
ACAD
1000
AcDbSavedByObjectVersion
1070
     0
  0
VISUALSTYLE
  5
32F7
102
{ACAD_XDICTIONARY
360
3419
102
}
102
{ACAD_REACTORS
330
326A
102
}
330
326A
100
AcDbVisualStyle
  2
EdgeColorOff
 70
    22
 71
     2
 72
     2
 73
     0
 90
        0
 40
-0.6
 41
-30.0
 62
     5
 63
     7
 74
     1
 91
        4
 64
     7
 65
   257
 75
     1
175
     1
 42
1.0
 92
        8
 66
     7
 43
1.0
 76
     1
 77
     6
 78
     2
 67
     7
 79
     5
170
     0
171
     0
290
     0
174
     0
 93
        1
 44
0.0
173
     0
291
     1
 45
0.0
1001
ACAD
1000
AcDbSavedByObjectVersion
1070
     0
  0
VISUALSTYLE
  5
3279
102
{ACAD_XDICTIONARY
360
3402
102
}
102
{ACAD_REACTORS
330
326A
102
}
330
326A
100
AcDbVisualStyle
  2
Facepattern
 70
    15
 71
     2
 72
     2
 73
     0
 90
        0
 40
-0.6
 41
-30.0
 62
     5
 63
     7
 74
     1
 91
        4
 64
     7
 65
   257
 75
     1
175
     1
 42
1.0
 92
        8
 66
     7
 43
1.0
 76
     1
 77
     6
 78
     2
 67
     7
 79
     5
170
     0
171
     0
290
     0
174
     0
 93
        1
 44
0.0
173
     0
291
     1
 45
0.0
1001
ACAD
1000
AcDbSavedByObjectVersion
1070
     0
  0
VISUALSTYLE
  5
326B
102
{ACAD_XDICTIONARY
360
33E6
102
}
102
{ACAD_REACTORS
330
326A
102
}
330
326A
100
AcDbVisualStyle
  2
Flat
 70
     0
 71
     2
 72
     1
 73
     1
 90
        2
 40
-0.6
 41
30.0
 62
     5
 63
     7
 74
     0
 91
        4
 64
     7
 65
   257
 75
     1
175
     1
 42
1.0
 92
        8
 66
     7
 43
1.0
 76
     1
 77
     6
 78
     2
 67
     7
 79
     5
170
     0
171
     0
290
     0
174
     0
 93
       13
 44
0.0
173
     0
291
     1
 45
0.0
1001
ACAD
1000
AcDbSavedByObjectVersion
1070
     0
  0
VISUALSTYLE
  5
326C
102
{ACAD_XDICTIONARY
360
33E8
102
}
102
{ACAD_REACTORS
330
326A
102
}
330
326A
100
AcDbVisualStyle
  2
FlatWithEdges
 70
     1
 71
     2
 72
     1
 73
     1
 90
        2
 40
-0.6
 41
30.0
 62
     5
 63
     7
 74
     1
 91
        4
 64
     7
 65
   257
 75
     1
175
     1
 42
1.0
 92
        0
 66
   257
 43
1.0
 76
     1
 77
     6
 78
     2
 67
     7
 79
     5
170
     0
171
     0
290
     0
174
     0
 93
       13
 44
0.0
173
     0
291
     1
 45
0.0
1001
ACAD
1000
AcDbSavedByObjectVersion
1070
     0
  0
VISUALSTYLE
  5
326D
102
{ACAD_XDICTIONARY
360
33EA
102
}
102
{ACAD_REACTORS
330
326A
102
}
330
326A
100
AcDbVisualStyle
  2
Gouraud
 70
     2
 71
     2
 72
     2
 73
     1
 90
        2
 40
-0.6
 41
30.0
 62
     5
 63
     7
 74
     0
 91
        4
 64
     7
 65
   257
 75
     1
175
     1
 42
1.0
 92
        0
 66
     7
 43
1.0
 76
     1
 77
     6
 78
     2
 67
     7
 79
     5
170
     0
171
     0
290
     0
174
     0
 93
       13
 44
0.0
173
     0
291
     1
 45
0.0
1001
ACAD
1000
AcDbSavedByObjectVersion
1070
     0
  0
VISUALSTYLE
  5
326E
102
{ACAD_XDICTIONARY
360
33EC
102
}
102
{ACAD_REACTORS
330
326A
102
}
330
326A
100
AcDbVisualStyle
  2
GouraudWithEdges
 70
     3
 71
     2
 72
     2
 73
     1
 90
        2
 40
-0.6
 41
30.0
 62
     5
 63
     7
 74
     1
 91
        4
 64
     7
 65
   257
 75
     1
175
     1
 42
1.0
 92
        0
 66
   257
 43
1.0
 76
     1
 77
     6
 78
     2
 67
     7
 79
     5
170
     0
171
     0
290
     0
174
     0
 93
       13
 44
0.0
173
     0
291
     1
 45
0.0
1001
ACAD
1000
AcDbSavedByObjectVersion
1070
     0
  0
VISUALSTYLE
  5
32EF
102
{ACAD_XDICTIONARY
360
3409
102
}
102
{ACAD_REACTORS
330
326A
102
}
330
326A
100
AcDbVisualStyle
  2
Hidden
 70
     6
 71
     1
 72
     2
 73
     2
 90
        0
 40
-0.6
 41
-30.0
 62
     5
 63
     7
 74
     2
 91
        2
 64
     7
 65
   257
 75
     2
175
     1
 42
40.0
 92
        0
 66
   257
 43
1.0
 76
     1
 77
     6
 78
     2
 67
     7
 79
     3
170
     0
171
     0
290
     0
174
     0
 93
        1
 44
0.0
173
     0
291
     0
 45
0.0
1001
ACAD
1000
AcDbSavedByObjectVersion
1070
     0
  0
VISUALSTYLE
  5
32F5
102
{ACAD_XDICTIONARY
360
3415
102
}
102
{ACAD_REACTORS
330
326A
102
}
330
326A
100
AcDbVisualStyle
  2
JitterOff
 70
    20
 71
     2
 72
     2
 73
     0
 90
        0
 40
-0.6
 41
-30.0
 62
     5
 63
     7
 74
     1
 91
        4
 64
     7
 65
   257
 75
     1
175
     1
 42
1.0
 92
       10
 66
     7
 43
1.0
 76
     1
 77
     6
 78
     2
 67
     7
 79
     5
170
     0
171
     0
290
     0
174
     0
 93
        1
 44
0.0
173
     0
291
     1
 45
0.0
1001
ACAD
1000
AcDbSavedByObjectVersion
1070
     0
  0
VISUALSTYLE
  5
3278
102
{ACAD_XDICTIONARY
360
3400
102
}
102
{ACAD_REACTORS
330
326A
102
}
330
326A
100
AcDbVisualStyle
  2
Linepattern
 70
    14
 71
     2
 72
     2
 73
     0
 90
        0
 40
-0.6
 41
-30.0
 62
     5
 63
     7
 74
     1
 91
        4
 64
     7
 65
   257
 75
     7
175
     7
 42
1.0
 92
        8
 66
     7
 43
1.0
 76
     1
 77
     6
 78
     2
 67
     7
 79
     5
170
     0
171
     0
290
     0
174
     0
 93
        1
 44
0.0
173
     0
291
     1
 45
0.0
1001
ACAD
1000
AcDbSavedByObjectVersion
1070
     0
  0
VISUALSTYLE
  5
32F6
102
{ACAD_XDICTIONARY
360
3417
102
}
102
{ACAD_REACTORS
330
326A
102
}
330
326A
100
AcDbVisualStyle
  2
OverhangOff
 70
    21
 71
     2
 72
     2
 73
     0
 90
        0
 40
-0.6
 41
-30.0
 62
     5
 63
     7
 74
     1
 91
        4
 64
     7
 65
   257
 75
     1
175
     1
 42
1.0
 92
        9
 66
     7
 43
1.0
 76
     1
 77
     6
 78
     2
 67
     7
 79
     5
170
     0
171
     0
290
     0
174
     0
 93
        1
 44
0.0
173
     0
291
     1
 45
0.0
1001
ACAD
1000
AcDbSavedByObjectVersion
1070
     0
  0
VISUALSTYLE
  5
3274
102
{ACAD_XDICTIONARY
360
33F8
102
}
102
{ACAD_REACTORS
330
326A
102
}
330
326A
100
AcDbVisualStyle
  2
Realistic
 70
     8
 71
     2
 72
     2
 73
     0
 90
        0
 40
-0.6
 41
-30.0
 62
     5
 63
     7
 74
     1
 91
        0
 64
     7
 65
   257
 75
     1
175
     1
 42
1.0
 92
        8
 66
     8
 43
1.0
 76
     1
 77
     6
 78
     2
 67
     7
 79
     5
170
     0
171
     0
290
     0
174
     0
 93
       13
 44
0.0
173
     0
291
     0
 45
0.0
1001
ACAD
1000
AcDbSavedByObjectVersion
1070
     0
  0
VISUALSTYLE
  5
32F4
102
{ACAD_XDICTIONARY
360
3413
102
}
102
{ACAD_REACTORS
330
326A
102
}
330
326A
100
AcDbVisualStyle
  2
Shaded
 70
    27
 71
     2
 72
     2
 73
     1
 90
        2
 40
-0.6
 41
30.0
 62
     5
 63
     7
 74
     0
 91
        4
 64
     7
 65
   257
 75
     1
175
     1
 42
1.0
 92
        8
 66
   257
 43
1.0
 76
     1
 77
     6
 78
     2
 67
     8
 79
     3
170
     0
171
     0
290
     0
174
     0
 93
        5
 44
0.0
173
     0
291
     0
 45
0.0
1001
ACAD
1000
AcDbSavedByObjectVersion
1070
     0
  0
VISUALSTYLE
  5
32F3
102
{ACAD_XDICTIONARY
360
3411
102
}
102
{ACAD_REACTORS
330
326A
102
}
330
326A
100
AcDbVisualStyle
  2
Shaded with edges
 70
    26
 71
     2
 72
     2
 73
     1
 90
        2
 40
-0.6
 41
30.0
 62
     5
 63
     7
 74
     1
 91
       10
 64
     7
 65
   257
 75
     2
175
     1
 42
1.0
 92
        8
 66
   257
 43
1.0
 76
     1
 77
     6
 78
     2
 67
     7
 79
     3
170
     0
171
     0
290
     0
174
     0
 93
        5
 44
0.0
173
     0
291
     0
 45
0.0
1001
ACAD
1000
AcDbSavedByObjectVersion
1070
     0
  0
VISUALSTYLE
  5
32F0
102
{ACAD_XDICTIONARY
360
340B
102
}
102
{ACAD_REACTORS
330
326A
102
}
330
326A
100
AcDbVisualStyle
  2
Shades of Gray
 70
    23
 71
     2
 72
     2
 73
     3
 90
        0
 40
-0.6
 41
-30.0
 62
     5
 63
     7
 74
     2
 91
        2
 64
     7
 65
     7
 75
     1
175
     1
 42
40.0
 92
        8
 66
     7
 43
1.0
 76
     1
 77
     6
 78
     2
 67
     7
 79
     3
170
     0
171
     0
290
     0
174
     0
 93
        1
 44
0.0
173
     0
291
     0
 45
0.0
1001
ACAD
1000
AcDbSavedByObjectVersion
1070
     0
  0
VISUALSTYLE
  5
32F1
102
{ACAD_XDICTIONARY
360
340D
102
}
102
{ACAD_REACTORS
330
326A
102
}
330
326A
100
AcDbVisualStyle
  2
Sketchy
 70
    24
 71
     1
 72
     2
 73
     2
 90
        0
 40
-0.6
 41
-30.0
 62
     5
 63
     7
 74
     2
 91
        2
 64
     7
 65
     7
 75
     1
175
     1
 42
40.0
 92
       11
 66
     7
 43
1.0
 76
     1
 77
     6
 78
     2
 67
     7
 79
     6
170
     0
171
     0
290
     0
174
     0
 93
        1
 44
0.0
173
     0
291
     0
 45
0.0
1001
ACAD
1000
AcDbSavedByObjectVersion
1070
     0
  0
VISUALSTYLE
  5
3277
102
{ACAD_XDICTIONARY
360
33FE
102
}
102
{ACAD_REACTORS
330
326A
102
}
330
326A
100
AcDbVisualStyle
  2
Thicken
 70
    13
 71
     2
 72
     2
 73
     0
 90
        0
 40
-0.6
 41
-30.0
 62
     5
 63
     7
 74
     1
 91
        4
 64
     7
 65
   257
 75
     1
175
     1
 42
1.0
 92
       12
 66
     7
 43
1.0
 76
     1
 77
     6
 78
     2
 67
     7
 79
     5
170
     0
171
     0
290
     0
174
     0
 93
        1
 44
0.0
173
     0
291
     1
 45
0.0
1001
ACAD
1000
AcDbSavedByObjectVersion
1070
     0
  0
VISUALSTYLE
  5
32EE
102
{ACAD_XDICTIONARY
360
3407
102
}
102
{ACAD_REACTORS
330
326A
102
}
330
326A
100
AcDbVisualStyle
  2
Wireframe
 70
     5
 71
     0
 72
     2
 73
     0
 90
        0
 40
-0.6
 41
-30.0
 62
     5
 63
     7
 74
     1
 91
        4
 64
     7
 65
   257
 75
     1
175
     1
 42
1.0
 92
        0
 66
   257
 43
1.0
 76
     1
 77
     6
 78
     2
 67
     7
 79
     3
170
     0
171
     0
290
     0
174
     0
 93
        1
 44
0.0
173
     0
291
     0
 45
0.0
1001
ACAD
1000
AcDbSavedByObjectVersion
1070
     0
  0
VISUALSTYLE
  5
32F2
102
{ACAD_XDICTIONARY
360
340F
102
}
102
{ACAD_REACTORS
330
326A
102
}
330
326A
100
AcDbVisualStyle
  2
X-Ray
 70
    25
 71
     2
 72
     2
 73
     1
 90
        1
 40
0.5
 41
-30.0
 62
     5
 63
     7
 74
     1
 91
        0
 64
     7
 65
   257
 75
     1
175
     1
 42
1.0
 92
        8
 66
     7
 43
1.0
 76
     1
 77
     6
 78
     2
 67
     7
 79
     3
170
     0
171
     0
290
     0
174
     0
 93
       13
 44
0.0
173
     0
291
     0
 45
0.0
1001
ACAD
1000
AcDbSavedByObjectVersion
1070
     0
  0
DICTIONARYVAR
  5
32DB
102
{ACAD_REACTORS
330
32D7
102
}
330
32D7
100
DictionaryVariables
280
     0
  1
1:1
  0
DICTIONARYVAR
  5
32D9
102
{ACAD_REACTORS
330
32D7
102
}
330
32D7
100
DictionaryVariables
280
     0
  1
STANDARD
  0
DICTIONARYVAR
  5
32D8
102
{ACAD_REACTORS
330
32D7
102
}
330
32D7
100
DictionaryVariables
280
     0
  1
STANDARD
  0
DICTIONARYVAR
  5
33CA
102
{ACAD_REACTORS
330
32D7
102
}
330
32D7
100
DictionaryVariables
280
     0
  1
ISO 128-34_2001
  0
DICTIONARYVAR
  5
33CB
102
{ACAD_REACTORS
330
32D7
102
}
330
32D7
100
DictionaryVariables
280
     0
  1
ISO 128-40_2001(E)
  0
DICTIONARYVAR
  5
33CF
102
{ACAD_REACTORS
330
32D7
102
}
330
32D7
100
DictionaryVariables
280
     0
  1
1
  0
DICTIONARYVAR
  5
33CD
102
{ACAD_REACTORS
330
32D7
102
}
330
32D7
100
DictionaryVariables
280
     0
  1
0
  0
DICTIONARYVAR
  5
32DC
102
{ACAD_REACTORS
330
32D7
102
}
330
32D7
100
DictionaryVariables
280
     0
  1
0
  0
DICTIONARYVAR
  5
32DA
102
{ACAD_REACTORS
330
32D7
102
}
330
32D7
100
DictionaryVariables
280
     0
  1
0
  0
DICTIONARYVAR
  5
33CC
102
{ACAD_REACTORS
330
32D7
102
}
330
32D7
100
DictionaryVariables
280
     0
  1
127
  0
DICTIONARYVAR
  5
33CE
102
{ACAD_REACTORS
330
32D7
102
}
330
32D7
100
DictionaryVariables
280
     0
  1
0
  0
DICTIONARY
  5
33DC
102
{ACAD_REACTORS
330
33DA
102
}
330
33DA
100
AcDbDictionary
281
     1
  0
DICTIONARY
  5
33DB
102
{ACAD_REACTORS
330
33DA
102
}
330
33DA
100
AcDbDictionary
281
     1
  3
140698141807952
350
33D5
  3
140698141807968
350
33D6
  3
140698141807984
350
33D7
  3
140698141808000
350
33D8
  3
140698141808016
350
33D9
  0
DICTIONARY
  5
3338
102
{ACAD_REACTORS
330
332F
102
}
330
332F
100
AcDbDictionary
281
     1
  0
DICTIONARY
  5
3304
102
{ACAD_REACTORS
330
3303
102
}
330
3303
100
AcDbDictionary
281
     1
  3
DWGSETTINGS
350
3305
  3
TRANSSETTINGS
350
3306
  0
ACAMGFILTERDAT
  5
3378
102
{ACAD_REACTORS
330
3374
102
}
330
3374
100
AcAmgFilterDat
 70
    15
  1
*
  2
AM_FEA-AM_*
  3
*
  4
*
  5
*
290
     1
  0
ACAMGFILTERDAT
  5
3375
102
{ACAD_REACTORS
330
3374
102
}
330
3374
100
AcAmgFilterDat
 70
    15
  1
HATCH
  2
*
  3
*
  4
*
  5
*
290
     1
  0
ACAMGFILTERDAT
  5
3376
102
{ACAD_REACTORS
330
3374
102
}
330
3374
100
AcAmgFilterDat
 70
    15
  1
LINE
  2
8,8N,*-8,*-8N,AM_8,AM_8N,*-AM_8,*-AM_8N
  3
*
  4
*
  5
INSERT,STDPART2D
290
     1
  0
ACAMGFILTERDAT
  5
3379
102
{ACAD_REACTORS
330
3374
102
}
330
3374
100
AcAmgFilterDat
 70
    15
  1
DIMENSION,AMDT_*_DIM
  2
*
  3
*
  4
*
  5
*
290
     1
  0
ACAMGFILTERDAT
  5
337A
102
{ACAD_REACTORS
330
3374
102
}
330
3374
100
AcAmgFilterDat
 70
    15
  1
ARC
  2
AM_5
  3
*
  4
2
  5
INSERT
290
     0
  0
ACAMGFILTERDAT
  5
3377
102
{ACAD_REACTORS
330
3374
102
}
330
3374
100
AcAmgFilterDat
 70
    15
  1
ACMFCFRAME,ACMDATUMTARGET,ACMDATUMID,ACMWELDSYM,ACMSURFSYM,ACMFEATID,ACMPARTREF,ACMBALLOON,AMDTEDGESYM,AMGSCREWCALCTABLE,ACMMARKSTAMP
  2
*
  3
*
  4
*
  5
*
290
     1
  0
XRECORD
  5
32AC
102
{ACAD_REACTORS
330
32AA
102
}
330
32AA
100
AcDbXrecord
280
     1
  0
DICTIONARY
  5
341D
330
32FB
100
AcDbDictionary
280
     1
281
     1
  3
ACAD_XREC_ROUNDTRIP
360
341E
  0
DICTIONARY
  5
33DF
330
324F
100
AcDbDictionary
280
     1
281
     1
  3
ACAD_XREC_ROUNDTRIP
360
33E0
  0
DICTIONARY
  5
33E1
330
3250
100
AcDbDictionary
280
     1
281
     1
  3
ACAD_XREC_ROUNDTRIP
360
33E2
  0
DICTIONARY
  5
325B
330
325A
100
AcDbDictionary
280
     1
281
     1
  3
ACAD_XREC_ROUNDTRIP
360
33E4
  3
BUMPTILE
360
325D
  3
DIFFUSETILE
360
325C
  3
OPACITYTILE
360
3260
  3
REFLECTIONTILE
360
325F
  3
REFRACTIONTILE
360
3261
  3
SPECULARTILE
360
325E
  0
DICTIONARY
  5
3253
330
3252
100
AcDbDictionary
280
     1
281
     1
  3
ACAD_XREC_ROUNDTRIP
360
33E3
  3
BUMPTILE
360
3255
  3
DIFFUSETILE
360
3254
  3
OPACITYTILE
360
3258
  3
REFLECTIONTILE
360
3257
  3
REFRACTIONTILE
360
3259
  3
SPECULARTILE
360
3256
  0
DICTIONARY
  5
3263
330
3262
100
AcDbDictionary
280
     1
281
     1
  3
ACAD_XREC_ROUNDTRIP
360
33E5
  3
BUMPTILE
360
3265
  3
DIFFUSETILE
360
3264
  3
OPACITYTILE
360
3268
  3
REFLECTIONTILE
360
3267
  3
REFRACTIONTILE
360
3269
  3
SPECULARTILE
360
3266
  0
DICTIONARY
  5
341B
330
32F9
100
AcDbDictionary
280
     1
281
     1
  3
ACAD_XREC_ROUNDTRIP
360
341C
  0
DICTIONARY
  5
32D4
330
327C
100
AcDbDictionary
280
     1
281
     1
  3
ACAD_ROUNDTRIP_2008_TABLESTYLE_CELLSTYLEMAP
360
33D2
  3
ACAD_XREC_ROUNDTRIP
360
3406
  0
DICTIONARY
  5
33F0
330
3270
100
AcDbDictionary
280
     1
281
     1
  3
ACAD_XREC_ROUNDTRIP
360
33F1
  0
DICTIONARY
  5
33F4
330
3272
100
AcDbDictionary
280
     1
281
     1
  3
ACAD_XREC_ROUNDTRIP
360
33F5
  0
DICTIONARY
  5
33F2
330
3271
100
AcDbDictionary
280
     1
281
     1
  3
ACAD_XREC_ROUNDTRIP
360
33F3
  0
DICTIONARY
  5
33EE
330
326F
100
AcDbDictionary
280
     1
281
     1
  3
ACAD_XREC_ROUNDTRIP
360
33EF
  0
DICTIONARY
  5
33FC
330
3276
100
AcDbDictionary
280
     1
281
     1
  3
ACAD_XREC_ROUNDTRIP
360
33FD
  0
DICTIONARY
  5
3404
330
327A
100
AcDbDictionary
280
     1
281
     1
  3
ACAD_XREC_ROUNDTRIP
360
3405
  0
DICTIONARY
  5
33F6
330
3273
100
AcDbDictionary
280
     1
281
     1
  3
ACAD_XREC_ROUNDTRIP
360
33F7
  0
DICTIONARY
  5
33FA
330
3275
100
AcDbDictionary
280
     1
281
     1
  3
ACAD_XREC_ROUNDTRIP
360
33FB
  0
DICTIONARY
  5
3419
330
32F7
100
AcDbDictionary
280
     1
281
     1
  3
ACAD_XREC_ROUNDTRIP
360
341A
  0
DICTIONARY
  5
3402
330
3279
100
AcDbDictionary
280
     1
281
     1
  3
ACAD_XREC_ROUNDTRIP
360
3403
  0
DICTIONARY
  5
33E6
330
326B
100
AcDbDictionary
280
     1
281
     1
  3
ACAD_XREC_ROUNDTRIP
360
33E7
  0
DICTIONARY
  5
33E8
330
326C
100
AcDbDictionary
280
     1
281
     1
  3
ACAD_XREC_ROUNDTRIP
360
33E9
  0
DICTIONARY
  5
33EA
330
326D
100
AcDbDictionary
280
     1
281
     1
  3
ACAD_XREC_ROUNDTRIP
360
33EB
  0
DICTIONARY
  5
33EC
330
326E
100
AcDbDictionary
280
     1
281
     1
  3
ACAD_XREC_ROUNDTRIP
360
33ED
  0
DICTIONARY
  5
3409
330
32EF
100
AcDbDictionary
280
     1
281
     1
  3
ACAD_XREC_ROUNDTRIP
360
340A
  0
DICTIONARY
  5
3415
330
32F5
100
AcDbDictionary
280
     1
281
     1
  3
ACAD_XREC_ROUNDTRIP
360
3416
  0
DICTIONARY
  5
3400
330
3278
100
AcDbDictionary
280
     1
281
     1
  3
ACAD_XREC_ROUNDTRIP
360
3401
  0
DICTIONARY
  5
3417
330
32F6
100
AcDbDictionary
280
     1
281
     1
  3
ACAD_XREC_ROUNDTRIP
360
3418
  0
DICTIONARY
  5
33F8
330
3274
100
AcDbDictionary
280
     1
281
     1
  3
ACAD_XREC_ROUNDTRIP
360
33F9
  0
DICTIONARY
  5
3413
330
32F4
100
AcDbDictionary
280
     1
281
     1
  3
ACAD_XREC_ROUNDTRIP
360
3414
  0
DICTIONARY
  5
3411
330
32F3
100
AcDbDictionary
280
     1
281
     1
  3
ACAD_XREC_ROUNDTRIP
360
3412
  0
DICTIONARY
  5
340B
330
32F0
100
AcDbDictionary
280
     1
281
     1
  3
ACAD_XREC_ROUNDTRIP
360
340C
  0
DICTIONARY
  5
340D
330
32F1
100
AcDbDictionary
280
     1
281
     1
  3
ACAD_XREC_ROUNDTRIP
360
340E
  0
DICTIONARY
  5
33FE
330
3277
100
AcDbDictionary
280
     1
281
     1
  3
ACAD_XREC_ROUNDTRIP
360
33FF
  0
DICTIONARY
  5
3407
330
32EE
100
AcDbDictionary
280
     1
281
     1
  3
ACAD_XREC_ROUNDTRIP
360
3408
  0
DICTIONARY
  5
340F
330
32F2
100
AcDbDictionary
280
     1
281
     1
  3
ACAD_XREC_ROUNDTRIP
360
3410
  0
XRECORD
  5
33D5
102
{ACAD_REACTORS
330
33DB
102
}
330
33DB
100
AcDbXrecord
280
     1
  1
AcDb_Thumbnail_Schema
102
{ATTRRECORD
341
33D6
  2
AcDbDs::TreatedAsObjectData
280
     1
291
     1
102
ATTRRECORD}
102
{ATTRRECORD
341
33D7
  2
AcDbDs::Legacy
280
     1
291
     1
102
ATTRRECORD}
  2
AcDbDs::ID
280
    10
 91
        8
102
{ATTRRECORD
341
33D8
  2
AcDs:Indexable
280
     1
291
     1
102
ATTRRECORD}
102
{ATTRRECORD
341
33D9
  2
AcDbDs::HandleAttribute
280
     7
282
     1
102
ATTRRECORD}
  2
Thumbnail_Data
280
    15
 91
        0
  0
XRECORD
  5
33D6
102
{ACAD_REACTORS
330
33DB
102
}
330
33DB
100
AcDbXrecord
280
     1
  1
AcDbDs::TreatedAsObjectDataSchema
  2
AcDbDs::TreatedAsObjectData
280
     1
 91
        0
  0
XRECORD
  5
33D7
102
{ACAD_REACTORS
330
33DB
102
}
330
33DB
100
AcDbXrecord
280
     1
  1
AcDbDs::LegacySchema
  2
AcDbDs::Legacy
280
     1
 91
        0
  0
XRECORD
  5
33D8
102
{ACAD_REACTORS
330
33DB
102
}
330
33DB
100
AcDbXrecord
280
     1
  1
AcDbDs::IndexedPropertySchema
  2
AcDs:Indexable
280
     1
 91
        0
  0
XRECORD
  5
33D9
102
{ACAD_REACTORS
330
33DB
102
}
330
33DB
100
AcDbXrecord
280
     1
  1
AcDbDs::HandleAttributeSchema
  2
AcDbDs::HandleAttribute
280
     7
 91
        1
284
     1
  0
XRECORD
  5
341E
102
{ACAD_REACTORS
330
341D
102
}
330
341D
100
AcDbXrecord
280
     1
102
DISPLAYNAME
  1
Metric50
102
FLAGS
 90
        0
  0
XRECORD
  5
33E0
102
{ACAD_REACTORS
330
33DF
102
}
330
33DF
100
AcDbXrecord
280
     1
102
SHADEPLOT
 70
     0
102
SHADEPLOTRESLEVEL
 70
     2
102
SHADEPLOTCUSTOMDPI
 70
   300
  0
XRECORD
  5
33E2
102
{ACAD_REACTORS
330
33E1
102
}
330
33E1
100
AcDbXrecord
280
     1
102
SHADEPLOT
 70
     0
102
SHADEPLOTRESLEVEL
 70
     2
102
SHADEPLOTCUSTOMDPI
 70
   300
  0
XRECORD
  5
33E4
102
{ACAD_REACTORS
330
325B
102
}
330
325B
100
AcDbXrecord
280
     1
102
MATERIAL
148
0.0
149
0.0
149
0.0
 93
        0
 94
      127
282
     0
 72
     0
 77
     0
171
     0
175
     0
179
     0
273
     0
  0
XRECORD
  5
325D
102
{ACAD_REACTORS
330
325B
102
}
330
325B
100
AcDbXrecord
280
     1
270
     1
271
     1
  0
XRECORD
  5
325C
102
{ACAD_REACTORS
330
325B
102
}
330
325B
100
AcDbXrecord
280
     1
270
     1
271
     1
  0
XRECORD
  5
3260
102
{ACAD_REACTORS
330
325B
102
}
330
325B
100
AcDbXrecord
280
     1
270
     1
271
     1
  0
XRECORD
  5
325F
102
{ACAD_REACTORS
330
325B
102
}
330
325B
100
AcDbXrecord
280
     1
270
     1
271
     1
  0
XRECORD
  5
3261
102
{ACAD_REACTORS
330
325B
102
}
330
325B
100
AcDbXrecord
280
     1
270
     1
271
     1
  0
XRECORD
  5
325E
102
{ACAD_REACTORS
330
325B
102
}
330
325B
100
AcDbXrecord
280
     1
270
     1
271
     1
  0
XRECORD
  5
33E3
102
{ACAD_REACTORS
330
3253
102
}
330
3253
100
AcDbXrecord
280
     1
102
MATERIAL
148
0.0
149
0.0
149
0.0
 93
        0
 94
      127
282
     0
 72
     0
 77
     0
171
     0
175
     0
179
     0
273
     0
  0
XRECORD
  5
3255
102
{ACAD_REACTORS
330
3253
102
}
330
3253
100
AcDbXrecord
280
     1
270
     1
271
     1
  0
XRECORD
  5
3254
102
{ACAD_REACTORS
330
3253
102
}
330
3253
100
AcDbXrecord
280
     1
270
     1
271
     1
  0
XRECORD
  5
3258
102
{ACAD_REACTORS
330
3253
102
}
330
3253
100
AcDbXrecord
280
     1
270
     1
271
     1
  0
XRECORD
  5
3257
102
{ACAD_REACTORS
330
3253
102
}
330
3253
100
AcDbXrecord
280
     1
270
     1
271
     1
  0
XRECORD
  5
3259
102
{ACAD_REACTORS
330
3253
102
}
330
3253
100
AcDbXrecord
280
     1
270
     1
271
     1
  0
XRECORD
  5
3256
102
{ACAD_REACTORS
330
3253
102
}
330
3253
100
AcDbXrecord
280
     1
270
     1
271
     1
  0
XRECORD
  5
33E5
102
{ACAD_REACTORS
330
3263
102
}
330
3263
100
AcDbXrecord
280
     1
102
MATERIAL
148
0.0
149
0.0
149
0.0
 93
        0
 94
      127
282
     0
 72
     0
 77
     0
171
     0
175
     0
179
     0
273
     0
  0
XRECORD
  5
3265
102
{ACAD_REACTORS
330
3263
102
}
330
3263
100
AcDbXrecord
280
     1
270
     1
271
     1
  0
XRECORD
  5
3264
102
{ACAD_REACTORS
330
3263
102
}
330
3263
100
AcDbXrecord
280
     1
270
     1
271
     1
  0
XRECORD
  5
3268
102
{ACAD_REACTORS
330
3263
102
}
330
3263
100
AcDbXrecord
280
     1
270
     1
271
     1
  0
XRECORD
  5
3267
102
{ACAD_REACTORS
330
3263
102
}
330
3263
100
AcDbXrecord
280
     1
270
     1
271
     1
  0
XRECORD
  5
3269
102
{ACAD_REACTORS
330
3263
102
}
330
3263
100
AcDbXrecord
280
     1
270
     1
271
     1
  0
XRECORD
  5
3266
102
{ACAD_REACTORS
330
3263
102
}
330
3263
100
AcDbXrecord
280
     1
270
     1
271
     1
  0
XRECORD
  5
341C
102
{ACAD_REACTORS
330
341B
102
}
330
341B
100
AcDbXrecord
280
     1
102
DISPLAYNAME
  1
Metric50
102
FLAGS
 90
        0
  0
CELLSTYLEMAP
  5
33D2
102
{ACAD_REACTORS
330
32D4
102
}
330
32D4
100
AcDbCellStyleMap
 90
        3
300
CELLSTYLE
  1
TABLEFORMAT_BEGIN
 90
        5
170
     1
 91
        0
 92
    32768
 62
   257
 93
        1
300
CONTENTFORMAT
  1
CONTENTFORMAT_BEGIN
 90
        0
 91
        0
 92
      512
 93
        0
300

 40
0.0
140
1.0
 94
        5
 62
     0
340
10
144
6.0
309
CONTENTFORMAT_END
171
     1
301
MARGIN
  1
CELLMARGIN_BEGIN
 40
1.5
 40
1.5
 40
1.5
 40
1.5
 40
4.5
 40
4.5
309
CELLMARGIN_END
 94
        6
 95
        1
302
GRIDFORMAT
  1
GRIDFORMAT_BEGIN
 90
        0
 91
        1
 62
     0
 92
       -2
340
0
 93
        0
 40
1.125
309
GRIDFORMAT_END
 95
        2
302
GRIDFORMAT
  1
GRIDFORMAT_BEGIN
 90
        0
 91
        1
 62
     0
 92
       -2
340
0
 93
        0
 40
1.125
309
GRIDFORMAT_END
 95
        4
302
GRIDFORMAT
  1
GRIDFORMAT_BEGIN
 90
        0
 91
        1
 62
     0
 92
       -2
340
0
 93
        0
 40
1.125
309
GRIDFORMAT_END
 95
        8
302
GRIDFORMAT
  1
GRIDFORMAT_BEGIN
 90
        0
 91
        1
 62
     0
 92
       -2
340
0
 93
        0
 40
1.125
309
GRIDFORMAT_END
 95
       16
302
GRIDFORMAT
  1
GRIDFORMAT_BEGIN
 90
        0
 91
        1
 62
     0
 92
       -2
340
0
 93
        0
 40
1.125
309
GRIDFORMAT_END
 95
       32
302
GRIDFORMAT
  1
GRIDFORMAT_BEGIN
 90
        0
 91
        1
 62
     0
 92
       -2
340
0
 93
        0
 40
1.125
309
GRIDFORMAT_END
309
TABLEFORMAT_END
  1
CELLSTYLE_BEGIN
 90
        1
 91
        1
300
_TITLE
309
CELLSTYLE_END
300
CELLSTYLE
  1
TABLEFORMAT_BEGIN
 90
        5
170
     1
 91
        0
 92
        0
 62
   257
 93
        1
300
CONTENTFORMAT
  1
CONTENTFORMAT_BEGIN
 90
        0
 91
        0
 92
      512
 93
        0
300

 40
0.0
140
1.0
 94
        5
 62
     0
340
10
144
4.5
309
CONTENTFORMAT_END
171
     1
301
MARGIN
  1
CELLMARGIN_BEGIN
 40
1.5
 40
1.5
 40
1.5
 40
1.5
 40
4.5
 40
4.5
309
CELLMARGIN_END
 94
        6
 95
        1
302
GRIDFORMAT
  1
GRIDFORMAT_BEGIN
 90
        0
 91
        1
 62
     0
 92
       -2
340
0
 93
        0
 40
1.125
309
GRIDFORMAT_END
 95
        2
302
GRIDFORMAT
  1
GRIDFORMAT_BEGIN
 90
        0
 91
        1
 62
     0
 92
       -2
340
0
 93
        0
 40
1.125
309
GRIDFORMAT_END
 95
        4
302
GRIDFORMAT
  1
GRIDFORMAT_BEGIN
 90
        0
 91
        1
 62
     0
 92
       -2
340
0
 93
        0
 40
1.125
309
GRIDFORMAT_END
 95
        8
302
GRIDFORMAT
  1
GRIDFORMAT_BEGIN
 90
        0
 91
        1
 62
     0
 92
       -2
340
0
 93
        0
 40
1.125
309
GRIDFORMAT_END
 95
       16
302
GRIDFORMAT
  1
GRIDFORMAT_BEGIN
 90
        0
 91
        1
 62
     0
 92
       -2
340
0
 93
        0
 40
1.125
309
GRIDFORMAT_END
 95
       32
302
GRIDFORMAT
  1
GRIDFORMAT_BEGIN
 90
        0
 91
        1
 62
     0
 92
       -2
340
0
 93
        0
 40
1.125
309
GRIDFORMAT_END
309
TABLEFORMAT_END
  1
CELLSTYLE_BEGIN
 90
        2
 91
        1
300
_HEADER
309
CELLSTYLE_END
300
CELLSTYLE
  1
TABLEFORMAT_BEGIN
 90
        5
170
     1
 91
        0
 92
        0
 62
   257
 93
        1
300
CONTENTFORMAT
  1
CONTENTFORMAT_BEGIN
 90
        0
 91
        0
 92
      512
 93
        0
300

 40
0.0
140
1.0
 94
        2
 62
     0
340
10
144
4.5
309
CONTENTFORMAT_END
171
     1
301
MARGIN
  1
CELLMARGIN_BEGIN
 40
1.5
 40
1.5
 40
1.5
 40
1.5
 40
4.5
 40
4.5
309
CELLMARGIN_END
 94
        6
 95
        1
302
GRIDFORMAT
  1
GRIDFORMAT_BEGIN
 90
        0
 91
        1
 62
     0
 92
       -2
340
0
 93
        0
 40
1.125
309
GRIDFORMAT_END
 95
        2
302
GRIDFORMAT
  1
GRIDFORMAT_BEGIN
 90
        0
 91
        1
 62
     0
 92
       -2
340
0
 93
        0
 40
1.125
309
GRIDFORMAT_END
 95
        4
302
GRIDFORMAT
  1
GRIDFORMAT_BEGIN
 90
        0
 91
        1
 62
     0
 92
       -2
340
0
 93
        0
 40
1.125
309
GRIDFORMAT_END
 95
        8
302
GRIDFORMAT
  1
GRIDFORMAT_BEGIN
 90
        0
 91
        1
 62
     0
 92
       -2
340
0
 93
        0
 40
1.125
309
GRIDFORMAT_END
 95
       16
302
GRIDFORMAT
  1
GRIDFORMAT_BEGIN
 90
        0
 91
        1
 62
     0
 92
       -2
340
0
 93
        0
 40
1.125
309
GRIDFORMAT_END
 95
       32
302
GRIDFORMAT
  1
GRIDFORMAT_BEGIN
 90
        0
 91
        1
 62
     0
 92
       -2
340
0
 93
        0
 40
1.125
309
GRIDFORMAT_END
309
TABLEFORMAT_END
  1
CELLSTYLE_BEGIN
 90
        3
 91
        2
300
_DATA
309
CELLSTYLE_END
  0
XRECORD
  5
3406
102
{ACAD_REACTORS
330
32D4
102
}
330
32D4
100
AcDbXrecord
280
     1
102
ACAD_ROUNDTRIP_PRE2007_TABLESTYLE
 90
      512
 91
        0
  1

 92
      512
 93
        0
  2

 94
      512
 95
        0
  3

  0
XRECORD
  5
33F1
102
{ACAD_REACTORS
330
33F0
102
}
330
33F0
100
AcDbXrecord
280
     1
102
RTVSPost2010Prop28
280
     1
102
RTVSPost2010PropOp28
 70
     1
102
RTVSPost2010Prop29
280
     1
102
RTVSPost2010PropOp29
 70
     1
102
RTVSPost2010Prop30
280
     0
102
RTVSPost2010PropOp30
 70
     1
102
RTVSPost2010Prop31
280
     0
102
RTVSPost2010PropOp31
 70
     1
102
RTVSPost2010Prop32
280
     0
102
RTVSPost2010PropOp32
 70
     1
102
RTVSPost2010Prop33
280
     0
102
RTVSPost2010PropOp33
 70
     1
102
RTVSPost2010Prop34
280
     0
102
RTVSPost2010PropOp34
 70
     1
102
RTVSPost2010Prop35
280
     0
102
RTVSPost2010PropOp35
 70
     1
102
RTVSPost2010Prop36
280
     0
102
RTVSPost2010PropOp36
 70
     1
102
RTVSPost2010Prop37
 90
       50
102
RTVSPost2010PropOp37
 70
     1
102
RTVSPost2010Prop38
140
0.0
102
RTVSPost2010PropOp38
 70
     1
102
RTVSPost2010Prop39
140
1.0
102
RTVSPost2010PropOp39
 70
     1
102
RTVSPost2010Prop40
 90
        0
102
RTVSPost2010PropOp40
 70
     1
102
RTVSPost2010Prop41ColorIndex
 90
       18
102
RTVSPost2010Prop41ColorRGB
 90
        0
102
RTVSPost2010PropOp41
 70
     1
102
RTVSPost2010Prop42
 90
       50
102
RTVSPost2010PropOp42
 70
     1
102
RTVSPost2010Prop43
 90
        3
102
RTVSPost2010PropOp43
 70
     1
102
RTVSPost2010Prop44ColorIndex
 90
        5
102
RTVSPost2010Prop44ColorRGB
 90
      255
102
RTVSPost2010PropOp44
 70
     1
102
RTVSPost2010Prop45
280
     0
102
RTVSPost2010PropOp45
 70
     1
102
RTVSPost2010Prop46
 90
       50
102
RTVSPost2010PropOp46
 70
     1
102
RTVSPost2010Prop47
 90
       50
102
RTVSPost2010PropOp47
 70
     1
102
RTVSPost2010Prop48
 90
       50
102
RTVSPost2010PropOp48
 70
     1
102
RTVSPost2010Prop49
280
     0
102
RTVSPost2010PropOp49
 70
     1
102
RTVSPost2010Prop50
 90
       50
102
RTVSPost2010PropOp50
 70
     1
102
RTVSPost2010Prop51ColorIndex
 90
      256
102
RTVSPost2010Prop51ColorRGB
 90
-16777216
102
RTVSPost2010PropOp51
 70
     0
102
RTVSPost2010Prop52
140
1.0
102
RTVSPost2010PropOp52
 70
     0
102
RTVSPost2010Prop53
 90
        2
102
RTVSPost2010PropOp53
 70
     1
102
RTVSPost2010Prop54
  1
strokes_ogs.tif
102
RTVSPost2010PropOp54
 70
     1
102
RTVSPost2010Prop55
280
     0
102
RTVSPost2010PropOp55
 70
     1
102
RTVSPost2010Prop56
140
1.0
102
RTVSPost2010PropOp56
 70
     1
102
RTVSPost2010Prop57
140
1.0
102
RTVSPost2010PropOp57
 70
     1
102
RTVSPropertyOp0
 70
     1
102
RTVSPropertyOp1
 70
     1
102
RTVSPropertyOp2
 70
     1
102
RTVSPropertyOp3
 70
     1
102
RTVSPropertyOp4
 70
     1
102
RTVSPropertyOp5
 70
     1
102
RTVSPropertyOp6
 70
     1
102
RTVSPropertyOp7
 70
     1
102
RTVSPropertyOp8
 70
     1
102
RTVSPropertyOp9
 70
     1
102
RTVSPropertyOp10
 70
     1
102
RTVSPropertyOp11
 70
     1
102
RTVSPropertyOp12
 70
     1
102
RTVSPropertyOp13
 70
     1
102
RTVSPropertyOp14
 70
     1
102
RTVSPropertyOp15
 70
     1
102
RTVSPropertyOp16
 70
     1
102
RTVSPropertyOp17
 70
     1
102
RTVSPropertyOp18
 70
     1
102
RTVSPropertyOp19
 70
     1
102
RTVSPropertyOp20
 70
     1
102
RTVSPropertyOp21
 70
     1
102
RTVSPropertyOp22
 70
     1
102
RTVSPropertyOp23
 70
     1
102
RTVSPropertyOp24
 70
     1
102
RTVSPropertyOp25
 70
     1
102
RTVSPropertyOp26
 70
     1
102
RTVSPropertyOp27
 70
     1
102
RTVSPropertyOp28
 70
     1
102
RTVSPropertyOp29
 70
     1
102
RTVSPropertyOp30
 70
     1
102
RTVSPropertyOp31
 70
     1
102
RTVSPropertyOp32
 70
     1
102
RTVSPropertyOp33
 70
     1
102
RTVSPropertyOp34
 70
     1
102
RTVSPropertyOp35
 70
     1
102
RTVSPropertyOp36
 70
     1
102
RTVSPropertyOp37
 70
     1
102
RTVSPropertyOp38
 70
     1
102
RTVSPropertyOp39
 70
     1
102
RTVSPropertyOp40
 70
     1
102
RTVSPropertyOp41
 70
     1
102
RTVSPropertyOp42
 70
     1
102
RTVSPropertyOp43
 70
     1
102
RTVSPropertyOp44
 70
     1
102
RTVSPropertyOp45
 70
     1
102
RTVSPropertyOp46
 70
     1
102
RTVSPropertyOp47
 70
     1
102
RTVSPropertyOp48
 70
     1
102
RTVSPropertyOp49
 70
     1
102
RTVSPropertyOp50
 70
     1
102
RTVSPropertyOp51
 70
     0
102
RTVSPropertyOp52
 70
     0
102
RTVSPropertyOp53
 70
     1
102
RTVSPropertyOp54
 70
     1
102
RTVSPropertyOp55
 70
     1
102
RTVSPropertyOp56
 70
     1
102
RTVSPropertyOp57
 70
     1
102
RTVSPropertyOp58
 70
     1
102
RTVSPropertyOp59
 70
     1
102
RTVSPropertyOp60
 70
     1
102
RTVSPropertyOp61
 70
     1
102
RTVSPropertyOp62
 70
     1
  0
XRECORD
  5
33F5
102
{ACAD_REACTORS
330
33F4
102
}
330
33F4
100
AcDbXrecord
280
     1
102
RTVSPost2010Prop28
280
     0
102
RTVSPost2010PropOp28
 70
     1
102
RTVSPost2010Prop29
280
     1
102
RTVSPost2010PropOp29
 70
     1
102
RTVSPost2010Prop30
280
     1
102
RTVSPost2010PropOp30
 70
     1
102
RTVSPost2010Prop31
280
     0
102
RTVSPost2010PropOp31
 70
     1
102
RTVSPost2010Prop32
280
     0
102
RTVSPost2010PropOp32
 70
     1
102
RTVSPost2010Prop33
280
     0
102
RTVSPost2010PropOp33
 70
     1
102
RTVSPost2010Prop34
280
     0
102
RTVSPost2010PropOp34
 70
     1
102
RTVSPost2010Prop35
280
     0
102
RTVSPost2010PropOp35
 70
     1
102
RTVSPost2010Prop36
280
     0
102
RTVSPost2010PropOp36
 70
     1
102
RTVSPost2010Prop37
 90
       50
102
RTVSPost2010PropOp37
 70
     1
102
RTVSPost2010Prop38
140
0.0
102
RTVSPost2010PropOp38
 70
     1
102
RTVSPost2010Prop39
140
1.0
102
RTVSPost2010PropOp39
 70
     1
102
RTVSPost2010Prop40
 90
        0
102
RTVSPost2010PropOp40
 70
     1
102
RTVSPost2010Prop41ColorIndex
 90
       18
102
RTVSPost2010Prop41ColorRGB
 90
        0
102
RTVSPost2010PropOp41
 70
     1
102
RTVSPost2010Prop42
 90
       50
102
RTVSPost2010PropOp42
 70
     1
102
RTVSPost2010Prop43
 90
        3
102
RTVSPost2010PropOp43
 70
     1
102
RTVSPost2010Prop44ColorIndex
 90
        5
102
RTVSPost2010Prop44ColorRGB
 90
      255
102
RTVSPost2010PropOp44
 70
     1
102
RTVSPost2010Prop45
280
     0
102
RTVSPost2010PropOp45
 70
     1
102
RTVSPost2010Prop46
 90
       50
102
RTVSPost2010PropOp46
 70
     1
102
RTVSPost2010Prop47
 90
       50
102
RTVSPost2010PropOp47
 70
     1
102
RTVSPost2010Prop48
 90
       50
102
RTVSPost2010PropOp48
 70
     1
102
RTVSPost2010Prop49
280
     0
102
RTVSPost2010PropOp49
 70
     1
102
RTVSPost2010Prop50
 90
       50
102
RTVSPost2010PropOp50
 70
     1
102
RTVSPost2010Prop51ColorIndex
 90
      256
102
RTVSPost2010Prop51ColorRGB
 90
-16777216
102
RTVSPost2010PropOp51
 70
     0
102
RTVSPost2010Prop52
140
1.0
102
RTVSPost2010PropOp52
 70
     0
102
RTVSPost2010Prop53
 90
        2
102
RTVSPost2010PropOp53
 70
     1
102
RTVSPost2010Prop54
  1
strokes_ogs.tif
102
RTVSPost2010PropOp54
 70
     1
102
RTVSPost2010Prop55
280
     0
102
RTVSPost2010PropOp55
 70
     1
102
RTVSPost2010Prop56
140
1.0
102
RTVSPost2010PropOp56
 70
     1
102
RTVSPost2010Prop57
140
1.0
102
RTVSPost2010PropOp57
 70
     1
102
RTVSPropertyOp0
 70
     1
102
RTVSPropertyOp1
 70
     1
102
RTVSPropertyOp2
 70
     1
102
RTVSPropertyOp3
 70
     1
102
RTVSPropertyOp4
 70
     1
102
RTVSPropertyOp5
 70
     1
102
RTVSPropertyOp6
 70
     1
102
RTVSPropertyOp7
 70
     1
102
RTVSPropertyOp8
 70
     1
102
RTVSPropertyOp9
 70
     1
102
RTVSPropertyOp10
 70
     1
102
RTVSPropertyOp11
 70
     1
102
RTVSPropertyOp12
 70
     1
102
RTVSPropertyOp13
 70
     1
102
RTVSPropertyOp14
 70
     1
102
RTVSPropertyOp15
 70
     1
102
RTVSPropertyOp16
 70
     1
102
RTVSPropertyOp17
 70
     1
102
RTVSPropertyOp18
 70
     1
102
RTVSPropertyOp19
 70
     1
102
RTVSPropertyOp20
 70
     1
102
RTVSPropertyOp21
 70
     1
102
RTVSPropertyOp22
 70
     1
102
RTVSPropertyOp23
 70
     1
102
RTVSPropertyOp24
 70
     1
102
RTVSPropertyOp25
 70
     1
102
RTVSPropertyOp26
 70
     1
102
RTVSPropertyOp27
 70
     1
102
RTVSPropertyOp28
 70
     1
102
RTVSPropertyOp29
 70
     1
102
RTVSPropertyOp30
 70
     1
102
RTVSPropertyOp31
 70
     1
102
RTVSPropertyOp32
 70
     1
102
RTVSPropertyOp33
 70
     1
102
RTVSPropertyOp34
 70
     1
102
RTVSPropertyOp35
 70
     1
102
RTVSPropertyOp36
 70
     1
102
RTVSPropertyOp37
 70
     1
102
RTVSPropertyOp38
 70
     1
102
RTVSPropertyOp39
 70
     1
102
RTVSPropertyOp40
 70
     1
102
RTVSPropertyOp41
 70
     1
102
RTVSPropertyOp42
 70
     1
102
RTVSPropertyOp43
 70
     1
102
RTVSPropertyOp44
 70
     1
102
RTVSPropertyOp45
 70
     1
102
RTVSPropertyOp46
 70
     1
102
RTVSPropertyOp47
 70
     1
102
RTVSPropertyOp48
 70
     1
102
RTVSPropertyOp49
 70
     1
102
RTVSPropertyOp50
 70
     1
102
RTVSPropertyOp51
 70
     0
102
RTVSPropertyOp52
 70
     0
102
RTVSPropertyOp53
 70
     1
102
RTVSPropertyOp54
 70
     1
102
RTVSPropertyOp55
 70
     1
102
RTVSPropertyOp56
 70
     1
102
RTVSPropertyOp57
 70
     1
102
RTVSPropertyOp58
 70
     1
102
RTVSPropertyOp59
 70
     1
102
RTVSPropertyOp60
 70
     1
102
RTVSPropertyOp61
 70
     1
102
RTVSPropertyOp62
 70
     1
  0
XRECORD
  5
33F3
102
{ACAD_REACTORS
330
33F2
102
}
330
33F2
100
AcDbXrecord
280
     1
102
RTVSPost2010Prop28
280
     0
102
RTVSPost2010PropOp28
 70
     1
102
RTVSPost2010Prop29
280
     1
102
RTVSPost2010PropOp29
 70
     1
102
RTVSPost2010Prop30
280
     1
102
RTVSPost2010PropOp30
 70
     1
102
RTVSPost2010Prop31
280
     0
102
RTVSPost2010PropOp31
 70
     1
102
RTVSPost2010Prop32
280
     0
102
RTVSPost2010PropOp32
 70
     1
102
RTVSPost2010Prop33
280
     0
102
RTVSPost2010PropOp33
 70
     1
102
RTVSPost2010Prop34
280
     0
102
RTVSPost2010PropOp34
 70
     1
102
RTVSPost2010Prop35
280
     0
102
RTVSPost2010PropOp35
 70
     1
102
RTVSPost2010Prop36
280
     0
102
RTVSPost2010PropOp36
 70
     1
102
RTVSPost2010Prop37
 90
       50
102
RTVSPost2010PropOp37
 70
     1
102
RTVSPost2010Prop38
140
0.0
102
RTVSPost2010PropOp38
 70
     1
102
RTVSPost2010Prop39
140
1.0
102
RTVSPost2010PropOp39
 70
     1
102
RTVSPost2010Prop40
 90
        0
102
RTVSPost2010PropOp40
 70
     1
102
RTVSPost2010Prop41ColorIndex
 90
       18
102
RTVSPost2010Prop41ColorRGB
 90
        0
102
RTVSPost2010PropOp41
 70
     1
102
RTVSPost2010Prop42
 90
       50
102
RTVSPost2010PropOp42
 70
     1
102
RTVSPost2010Prop43
 90
        3
102
RTVSPost2010PropOp43
 70
     1
102
RTVSPost2010Prop44ColorIndex
 90
        5
102
RTVSPost2010Prop44ColorRGB
 90
      255
102
RTVSPost2010PropOp44
 70
     1
102
RTVSPost2010Prop45
280
     0
102
RTVSPost2010PropOp45
 70
     1
102
RTVSPost2010Prop46
 90
       50
102
RTVSPost2010PropOp46
 70
     1
102
RTVSPost2010Prop47
 90
       50
102
RTVSPost2010PropOp47
 70
     1
102
RTVSPost2010Prop48
 90
       50
102
RTVSPost2010PropOp48
 70
     1
102
RTVSPost2010Prop49
280
     0
102
RTVSPost2010PropOp49
 70
     1
102
RTVSPost2010Prop50
 90
       50
102
RTVSPost2010PropOp50
 70
     1
102
RTVSPost2010Prop51ColorIndex
 90
      256
102
RTVSPost2010Prop51ColorRGB
 90
-16777216
102
RTVSPost2010PropOp51
 70
     0
102
RTVSPost2010Prop52
140
1.0
102
RTVSPost2010PropOp52
 70
     0
102
RTVSPost2010Prop53
 90
        2
102
RTVSPost2010PropOp53
 70
     1
102
RTVSPost2010Prop54
  1
strokes_ogs.tif
102
RTVSPost2010PropOp54
 70
     1
102
RTVSPost2010Prop55
280
     0
102
RTVSPost2010PropOp55
 70
     1
102
RTVSPost2010Prop56
140
1.0
102
RTVSPost2010PropOp56
 70
     1
102
RTVSPost2010Prop57
140
1.0
102
RTVSPost2010PropOp57
 70
     1
102
RTVSPropertyOp0
 70
     1
102
RTVSPropertyOp1
 70
     1
102
RTVSPropertyOp2
 70
     1
102
RTVSPropertyOp3
 70
     1
102
RTVSPropertyOp4
 70
     1
102
RTVSPropertyOp5
 70
     1
102
RTVSPropertyOp6
 70
     1
102
RTVSPropertyOp7
 70
     1
102
RTVSPropertyOp8
 70
     1
102
RTVSPropertyOp9
 70
     1
102
RTVSPropertyOp10
 70
     1
102
RTVSPropertyOp11
 70
     1
102
RTVSPropertyOp12
 70
     1
102
RTVSPropertyOp13
 70
     1
102
RTVSPropertyOp14
 70
     1
102
RTVSPropertyOp15
 70
     1
102
RTVSPropertyOp16
 70
     1
102
RTVSPropertyOp17
 70
     1
102
RTVSPropertyOp18
 70
     1
102
RTVSPropertyOp19
 70
     1
102
RTVSPropertyOp20
 70
     1
102
RTVSPropertyOp21
 70
     1
102
RTVSPropertyOp22
 70
     1
102
RTVSPropertyOp23
 70
     1
102
RTVSPropertyOp24
 70
     1
102
RTVSPropertyOp25
 70
     1
102
RTVSPropertyOp26
 70
     1
102
RTVSPropertyOp27
 70
     1
102
RTVSPropertyOp28
 70
     1
102
RTVSPropertyOp29
 70
     1
102
RTVSPropertyOp30
 70
     1
102
RTVSPropertyOp31
 70
     1
102
RTVSPropertyOp32
 70
     1
102
RTVSPropertyOp33
 70
     1
102
RTVSPropertyOp34
 70
     1
102
RTVSPropertyOp35
 70
     1
102
RTVSPropertyOp36
 70
     1
102
RTVSPropertyOp37
 70
     1
102
RTVSPropertyOp38
 70
     1
102
RTVSPropertyOp39
 70
     1
102
RTVSPropertyOp40
 70
     1
102
RTVSPropertyOp41
 70
     1
102
RTVSPropertyOp42
 70
     1
102
RTVSPropertyOp43
 70
     1
102
RTVSPropertyOp44
 70
     1
102
RTVSPropertyOp45
 70
     1
102
RTVSPropertyOp46
 70
     1
102
RTVSPropertyOp47
 70
     1
102
RTVSPropertyOp48
 70
     1
102
RTVSPropertyOp49
 70
     1
102
RTVSPropertyOp50
 70
     1
102
RTVSPropertyOp51
 70
     0
102
RTVSPropertyOp52
 70
     0
102
RTVSPropertyOp53
 70
     1
102
RTVSPropertyOp54
 70
     1
102
RTVSPropertyOp55
 70
     1
102
RTVSPropertyOp56
 70
     1
102
RTVSPropertyOp57
 70
     1
102
RTVSPropertyOp58
 70
     1
102
RTVSPropertyOp59
 70
     1
102
RTVSPropertyOp60
 70
     1
102
RTVSPropertyOp61
 70
     1
102
RTVSPropertyOp62
 70
     1
  0
XRECORD
  5
33EF
102
{ACAD_REACTORS
330
33EE
102
}
330
33EE
100
AcDbXrecord
280
     1
102
RTVSPost2010Prop28
280
     0
102
RTVSPost2010PropOp28
 70
     1
102
RTVSPost2010Prop29
280
     1
102
RTVSPost2010PropOp29
 70
     1
102
RTVSPost2010Prop30
280
     1
102
RTVSPost2010PropOp30
 70
     1
102
RTVSPost2010Prop31
280
     0
102
RTVSPost2010PropOp31
 70
     1
102
RTVSPost2010Prop32
280
     0
102
RTVSPost2010PropOp32
 70
     1
102
RTVSPost2010Prop33
280
     0
102
RTVSPost2010PropOp33
 70
     1
102
RTVSPost2010Prop34
280
     0
102
RTVSPost2010PropOp34
 70
     1
102
RTVSPost2010Prop35
280
     0
102
RTVSPost2010PropOp35
 70
     1
102
RTVSPost2010Prop36
280
     0
102
RTVSPost2010PropOp36
 70
     1
102
RTVSPost2010Prop37
 90
       50
102
RTVSPost2010PropOp37
 70
     1
102
RTVSPost2010Prop38
140
0.0
102
RTVSPost2010PropOp38
 70
     1
102
RTVSPost2010Prop39
140
1.0
102
RTVSPost2010PropOp39
 70
     1
102
RTVSPost2010Prop40
 90
        0
102
RTVSPost2010PropOp40
 70
     1
102
RTVSPost2010Prop41ColorIndex
 90
       18
102
RTVSPost2010Prop41ColorRGB
 90
        0
102
RTVSPost2010PropOp41
 70
     1
102
RTVSPost2010Prop42
 90
       50
102
RTVSPost2010PropOp42
 70
     1
102
RTVSPost2010Prop43
 90
        3
102
RTVSPost2010PropOp43
 70
     1
102
RTVSPost2010Prop44ColorIndex
 90
        5
102
RTVSPost2010Prop44ColorRGB
 90
      255
102
RTVSPost2010PropOp44
 70
     1
102
RTVSPost2010Prop45
280
     0
102
RTVSPost2010PropOp45
 70
     1
102
RTVSPost2010Prop46
 90
       50
102
RTVSPost2010PropOp46
 70
     1
102
RTVSPost2010Prop47
 90
       50
102
RTVSPost2010PropOp47
 70
     1
102
RTVSPost2010Prop48
 90
       50
102
RTVSPost2010PropOp48
 70
     1
102
RTVSPost2010Prop49
280
     0
102
RTVSPost2010PropOp49
 70
     1
102
RTVSPost2010Prop50
 90
       50
102
RTVSPost2010PropOp50
 70
     1
102
RTVSPost2010Prop51ColorIndex
 90
      256
102
RTVSPost2010Prop51ColorRGB
 90
-16777216
102
RTVSPost2010PropOp51
 70
     0
102
RTVSPost2010Prop52
140
1.0
102
RTVSPost2010PropOp52
 70
     0
102
RTVSPost2010Prop53
 90
        2
102
RTVSPost2010PropOp53
 70
     1
102
RTVSPost2010Prop54
  1
strokes_ogs.tif
102
RTVSPost2010PropOp54
 70
     1
102
RTVSPost2010Prop55
280
     0
102
RTVSPost2010PropOp55
 70
     1
102
RTVSPost2010Prop56
140
1.0
102
RTVSPost2010PropOp56
 70
     1
102
RTVSPost2010Prop57
140
1.0
102
RTVSPost2010PropOp57
 70
     1
102
RTVSPropertyOp0
 70
     1
102
RTVSPropertyOp1
 70
     1
102
RTVSPropertyOp2
 70
     1
102
RTVSPropertyOp3
 70
     1
102
RTVSPropertyOp4
 70
     1
102
RTVSPropertyOp5
 70
     1
102
RTVSPropertyOp6
 70
     1
102
RTVSPropertyOp7
 70
     1
102
RTVSPropertyOp8
 70
     1
102
RTVSPropertyOp9
 70
     1
102
RTVSPropertyOp10
 70
     1
102
RTVSPropertyOp11
 70
     1
102
RTVSPropertyOp12
 70
     1
102
RTVSPropertyOp13
 70
     1
102
RTVSPropertyOp14
 70
     1
102
RTVSPropertyOp15
 70
     1
102
RTVSPropertyOp16
 70
     1
102
RTVSPropertyOp17
 70
     1
102
RTVSPropertyOp18
 70
     1
102
RTVSPropertyOp19
 70
     1
102
RTVSPropertyOp20
 70
     1
102
RTVSPropertyOp21
 70
     1
102
RTVSPropertyOp22
 70
     1
102
RTVSPropertyOp23
 70
     1
102
RTVSPropertyOp24
 70
     1
102
RTVSPropertyOp25
 70
     1
102
RTVSPropertyOp26
 70
     1
102
RTVSPropertyOp27
 70
     1
102
RTVSPropertyOp28
 70
     1
102
RTVSPropertyOp29
 70
     1
102
RTVSPropertyOp30
 70
     1
102
RTVSPropertyOp31
 70
     1
102
RTVSPropertyOp32
 70
     1
102
RTVSPropertyOp33
 70
     1
102
RTVSPropertyOp34
 70
     1
102
RTVSPropertyOp35
 70
     1
102
RTVSPropertyOp36
 70
     1
102
RTVSPropertyOp37
 70
     1
102
RTVSPropertyOp38
 70
     1
102
RTVSPropertyOp39
 70
     1
102
RTVSPropertyOp40
 70
     1
102
RTVSPropertyOp41
 70
     1
102
RTVSPropertyOp42
 70
     1
102
RTVSPropertyOp43
 70
     1
102
RTVSPropertyOp44
 70
     1
102
RTVSPropertyOp45
 70
     1
102
RTVSPropertyOp46
 70
     1
102
RTVSPropertyOp47
 70
     1
102
RTVSPropertyOp48
 70
     1
102
RTVSPropertyOp49
 70
     1
102
RTVSPropertyOp50
 70
     1
102
RTVSPropertyOp51
 70
     0
102
RTVSPropertyOp52
 70
     0
102
RTVSPropertyOp53
 70
     1
102
RTVSPropertyOp54
 70
     1
102
RTVSPropertyOp55
 70
     1
102
RTVSPropertyOp56
 70
     1
102
RTVSPropertyOp57
 70
     1
102
RTVSPropertyOp58
 70
     1
102
RTVSPropertyOp59
 70
     1
102
RTVSPropertyOp60
 70
     1
102
RTVSPropertyOp61
 70
     1
102
RTVSPropertyOp62
 70
     1
  0
XRECORD
  5
33FD
102
{ACAD_REACTORS
330
33FC
102
}
330
33FC
100
AcDbXrecord
280
     1
102
RTVSPost2010Prop28
280
     0
102
RTVSPost2010PropOp28
 70
     1
102
RTVSPost2010Prop29
280
     1
102
RTVSPost2010PropOp29
 70
     1
102
RTVSPost2010Prop30
280
     1
102
RTVSPost2010PropOp30
 70
     1
102
RTVSPost2010Prop31
280
     0
102
RTVSPost2010PropOp31
 70
     1
102
RTVSPost2010Prop32
280
     0
102
RTVSPost2010PropOp32
 70
     1
102
RTVSPost2010Prop33
280
     0
102
RTVSPost2010PropOp33
 70
     1
102
RTVSPost2010Prop34
280
     0
102
RTVSPost2010PropOp34
 70
     1
102
RTVSPost2010Prop35
280
     0
102
RTVSPost2010PropOp35
 70
     1
102
RTVSPost2010Prop36
280
     0
102
RTVSPost2010PropOp36
 70
     1
102
RTVSPost2010Prop37
 90
       50
102
RTVSPost2010PropOp37
 70
     1
102
RTVSPost2010Prop38
140
0.0
102
RTVSPost2010PropOp38
 70
     1
102
RTVSPost2010Prop39
140
1.0
102
RTVSPost2010PropOp39
 70
     1
102
RTVSPost2010Prop40
 90
        0
102
RTVSPost2010PropOp40
 70
     1
102
RTVSPost2010Prop41ColorIndex
 90
       18
102
RTVSPost2010Prop41ColorRGB
 90
        0
102
RTVSPost2010PropOp41
 70
     1
102
RTVSPost2010Prop42
 90
       50
102
RTVSPost2010PropOp42
 70
     1
102
RTVSPost2010Prop43
 90
        3
102
RTVSPost2010PropOp43
 70
     1
102
RTVSPost2010Prop44ColorIndex
 90
        5
102
RTVSPost2010Prop44ColorRGB
 90
      255
102
RTVSPost2010PropOp44
 70
     1
102
RTVSPost2010Prop45
280
     0
102
RTVSPost2010PropOp45
 70
     1
102
RTVSPost2010Prop46
 90
       50
102
RTVSPost2010PropOp46
 70
     1
102
RTVSPost2010Prop47
 90
       50
102
RTVSPost2010PropOp47
 70
     1
102
RTVSPost2010Prop48
 90
       50
102
RTVSPost2010PropOp48
 70
     1
102
RTVSPost2010Prop49
280
     0
102
RTVSPost2010PropOp49
 70
     1
102
RTVSPost2010Prop50
 90
       50
102
RTVSPost2010PropOp50
 70
     1
102
RTVSPost2010Prop51ColorIndex
 90
      256
102
RTVSPost2010Prop51ColorRGB
 90
-16777216
102
RTVSPost2010PropOp51
 70
     0
102
RTVSPost2010Prop52
140
1.0
102
RTVSPost2010PropOp52
 70
     0
102
RTVSPost2010Prop53
 90
        2
102
RTVSPost2010PropOp53
 70
     1
102
RTVSPost2010Prop54
  1
strokes_ogs.tif
102
RTVSPost2010PropOp54
 70
     1
102
RTVSPost2010Prop55
280
     0
102
RTVSPost2010PropOp55
 70
     1
102
RTVSPost2010Prop56
140
1.0
102
RTVSPost2010PropOp56
 70
     1
102
RTVSPost2010Prop57
140
1.0
102
RTVSPost2010PropOp57
 70
     1
102
RTVSPropertyOp0
 70
     1
102
RTVSPropertyOp1
 70
     1
102
RTVSPropertyOp2
 70
     1
102
RTVSPropertyOp3
 70
     1
102
RTVSPropertyOp4
 70
     1
102
RTVSPropertyOp5
 70
     1
102
RTVSPropertyOp6
 70
     1
102
RTVSPropertyOp7
 70
     1
102
RTVSPropertyOp8
 70
     1
102
RTVSPropertyOp9
 70
     1
102
RTVSPropertyOp10
 70
     1
102
RTVSPropertyOp11
 70
     1
102
RTVSPropertyOp12
 70
     1
102
RTVSPropertyOp13
 70
     1
102
RTVSPropertyOp14
 70
     1
102
RTVSPropertyOp15
 70
     1
102
RTVSPropertyOp16
 70
     1
102
RTVSPropertyOp17
 70
     1
102
RTVSPropertyOp18
 70
     1
102
RTVSPropertyOp19
 70
     1
102
RTVSPropertyOp20
 70
     1
102
RTVSPropertyOp21
 70
     1
102
RTVSPropertyOp22
 70
     1
102
RTVSPropertyOp23
 70
     1
102
RTVSPropertyOp24
 70
     1
102
RTVSPropertyOp25
 70
     1
102
RTVSPropertyOp26
 70
     1
102
RTVSPropertyOp27
 70
     1
102
RTVSPropertyOp28
 70
     1
102
RTVSPropertyOp29
 70
     1
102
RTVSPropertyOp30
 70
     1
102
RTVSPropertyOp31
 70
     1
102
RTVSPropertyOp32
 70
     1
102
RTVSPropertyOp33
 70
     1
102
RTVSPropertyOp34
 70
     1
102
RTVSPropertyOp35
 70
     1
102
RTVSPropertyOp36
 70
     1
102
RTVSPropertyOp37
 70
     1
102
RTVSPropertyOp38
 70
     1
102
RTVSPropertyOp39
 70
     1
102
RTVSPropertyOp40
 70
     1
102
RTVSPropertyOp41
 70
     1
102
RTVSPropertyOp42
 70
     1
102
RTVSPropertyOp43
 70
     1
102
RTVSPropertyOp44
 70
     1
102
RTVSPropertyOp45
 70
     1
102
RTVSPropertyOp46
 70
     1
102
RTVSPropertyOp47
 70
     1
102
RTVSPropertyOp48
 70
     1
102
RTVSPropertyOp49
 70
     1
102
RTVSPropertyOp50
 70
     1
102
RTVSPropertyOp51
 70
     0
102
RTVSPropertyOp52
 70
     0
102
RTVSPropertyOp53
 70
     1
102
RTVSPropertyOp54
 70
     1
102
RTVSPropertyOp55
 70
     1
102
RTVSPropertyOp56
 70
     1
102
RTVSPropertyOp57
 70
     1
102
RTVSPropertyOp58
 70
     1
102
RTVSPropertyOp59
 70
     1
102
RTVSPropertyOp60
 70
     1
102
RTVSPropertyOp61
 70
     1
102
RTVSPropertyOp62
 70
     1
  0
XRECORD
  5
3405
102
{ACAD_REACTORS
330
3404
102
}
330
3404
100
AcDbXrecord
280
     1
102
RTVSPost2010Prop28
280
     0
102
RTVSPost2010PropOp28
 70
     1
102
RTVSPost2010Prop29
280
     1
102
RTVSPost2010PropOp29
 70
     1
102
RTVSPost2010Prop30
280
     1
102
RTVSPost2010PropOp30
 70
     1
102
RTVSPost2010Prop31
280
     0
102
RTVSPost2010PropOp31
 70
     1
102
RTVSPost2010Prop32
280
     0
102
RTVSPost2010PropOp32
 70
     1
102
RTVSPost2010Prop33
280
     0
102
RTVSPost2010PropOp33
 70
     1
102
RTVSPost2010Prop34
280
     0
102
RTVSPost2010PropOp34
 70
     1
102
RTVSPost2010Prop35
280
     0
102
RTVSPost2010PropOp35
 70
     1
102
RTVSPost2010Prop36
280
     0
102
RTVSPost2010PropOp36
 70
     1
102
RTVSPost2010Prop37
 90
       50
102
RTVSPost2010PropOp37
 70
     1
102
RTVSPost2010Prop38
140
0.0
102
RTVSPost2010PropOp38
 70
     1
102
RTVSPost2010Prop39
140
1.0
102
RTVSPost2010PropOp39
 70
     1
102
RTVSPost2010Prop40
 90
        0
102
RTVSPost2010PropOp40
 70
     1
102
RTVSPost2010Prop41ColorIndex
 90
       18
102
RTVSPost2010Prop41ColorRGB
 90
        0
102
RTVSPost2010PropOp41
 70
     1
102
RTVSPost2010Prop42
 90
       50
102
RTVSPost2010PropOp42
 70
     1
102
RTVSPost2010Prop43
 90
        3
102
RTVSPost2010PropOp43
 70
     1
102
RTVSPost2010Prop44ColorIndex
 90
        5
102
RTVSPost2010Prop44ColorRGB
 90
      255
102
RTVSPost2010PropOp44
 70
     1
102
RTVSPost2010Prop45
280
     0
102
RTVSPost2010PropOp45
 70
     1
102
RTVSPost2010Prop46
 90
       50
102
RTVSPost2010PropOp46
 70
     1
102
RTVSPost2010Prop47
 90
       50
102
RTVSPost2010PropOp47
 70
     1
102
RTVSPost2010Prop48
 90
       50
102
RTVSPost2010PropOp48
 70
     1
102
RTVSPost2010Prop49
280
     0
102
RTVSPost2010PropOp49
 70
     1
102
RTVSPost2010Prop50
 90
       50
102
RTVSPost2010PropOp50
 70
     1
102
RTVSPost2010Prop51ColorIndex
 90
      256
102
RTVSPost2010Prop51ColorRGB
 90
-16777216
102
RTVSPost2010PropOp51
 70
     0
102
RTVSPost2010Prop52
140
1.0
102
RTVSPost2010PropOp52
 70
     0
102
RTVSPost2010Prop53
 90
        2
102
RTVSPost2010PropOp53
 70
     1
102
RTVSPost2010Prop54
  1
strokes_ogs.tif
102
RTVSPost2010PropOp54
 70
     1
102
RTVSPost2010Prop55
280
     0
102
RTVSPost2010PropOp55
 70
     1
102
RTVSPost2010Prop56
140
1.0
102
RTVSPost2010PropOp56
 70
     1
102
RTVSPost2010Prop57
140
1.0
102
RTVSPost2010PropOp57
 70
     1
102
RTVSPropertyOp0
 70
     1
102
RTVSPropertyOp1
 70
     1
102
RTVSPropertyOp2
 70
     1
102
RTVSPropertyOp3
 70
     1
102
RTVSPropertyOp4
 70
     1
102
RTVSPropertyOp5
 70
     1
102
RTVSPropertyOp6
 70
     1
102
RTVSPropertyOp7
 70
     1
102
RTVSPropertyOp8
 70
     1
102
RTVSPropertyOp9
 70
     1
102
RTVSPropertyOp10
 70
     1
102
RTVSPropertyOp11
 70
     1
102
RTVSPropertyOp12
 70
     1
102
RTVSPropertyOp13
 70
     1
102
RTVSPropertyOp14
 70
     1
102
RTVSPropertyOp15
 70
     1
102
RTVSPropertyOp16
 70
     1
102
RTVSPropertyOp17
 70
     1
102
RTVSPropertyOp18
 70
     1
102
RTVSPropertyOp19
 70
     1
102
RTVSPropertyOp20
 70
     1
102
RTVSPropertyOp21
 70
     1
102
RTVSPropertyOp22
 70
     1
102
RTVSPropertyOp23
 70
     1
102
RTVSPropertyOp24
 70
     1
102
RTVSPropertyOp25
 70
     1
102
RTVSPropertyOp26
 70
     1
102
RTVSPropertyOp27
 70
     1
102
RTVSPropertyOp28
 70
     1
102
RTVSPropertyOp29
 70
     1
102
RTVSPropertyOp30
 70
     1
102
RTVSPropertyOp31
 70
     1
102
RTVSPropertyOp32
 70
     1
102
RTVSPropertyOp33
 70
     1
102
RTVSPropertyOp34
 70
     1
102
RTVSPropertyOp35
 70
     1
102
RTVSPropertyOp36
 70
     1
102
RTVSPropertyOp37
 70
     1
102
RTVSPropertyOp38
 70
     1
102
RTVSPropertyOp39
 70
     1
102
RTVSPropertyOp40
 70
     1
102
RTVSPropertyOp41
 70
     1
102
RTVSPropertyOp42
 70
     1
102
RTVSPropertyOp43
 70
     1
102
RTVSPropertyOp44
 70
     1
102
RTVSPropertyOp45
 70
     1
102
RTVSPropertyOp46
 70
     1
102
RTVSPropertyOp47
 70
     1
102
RTVSPropertyOp48
 70
     1
102
RTVSPropertyOp49
 70
     1
102
RTVSPropertyOp50
 70
     1
102
RTVSPropertyOp51
 70
     0
102
RTVSPropertyOp52
 70
     0
102
RTVSPropertyOp53
 70
     1
102
RTVSPropertyOp54
 70
     1
102
RTVSPropertyOp55
 70
     1
102
RTVSPropertyOp56
 70
     1
102
RTVSPropertyOp57
 70
     1
102
RTVSPropertyOp58
 70
     1
102
RTVSPropertyOp59
 70
     1
102
RTVSPropertyOp60
 70
     1
102
RTVSPropertyOp61
 70
     1
102
RTVSPropertyOp62
 70
     1
  0
XRECORD
  5
33F7
102
{ACAD_REACTORS
330
33F6
102
}
330
33F6
100
AcDbXrecord
280
     1
102
RTVSPost2010Prop28
280
     0
102
RTVSPost2010PropOp28
 70
     1
102
RTVSPost2010Prop29
280
     1
102
RTVSPost2010PropOp29
 70
     1
102
RTVSPost2010Prop30
280
     1
102
RTVSPost2010PropOp30
 70
     1
102
RTVSPost2010Prop31
280
     0
102
RTVSPost2010PropOp31
 70
     1
102
RTVSPost2010Prop32
280
     0
102
RTVSPost2010PropOp32
 70
     1
102
RTVSPost2010Prop33
280
     0
102
RTVSPost2010PropOp33
 70
     1
102
RTVSPost2010Prop34
280
     0
102
RTVSPost2010PropOp34
 70
     1
102
RTVSPost2010Prop35
280
     0
102
RTVSPost2010PropOp35
 70
     1
102
RTVSPost2010Prop36
280
     0
102
RTVSPost2010PropOp36
 70
     1
102
RTVSPost2010Prop37
 90
       50
102
RTVSPost2010PropOp37
 70
     1
102
RTVSPost2010Prop38
140
0.0
102
RTVSPost2010PropOp38
 70
     1
102
RTVSPost2010Prop39
140
1.0
102
RTVSPost2010PropOp39
 70
     1
102
RTVSPost2010Prop40
 90
        0
102
RTVSPost2010PropOp40
 70
     1
102
RTVSPost2010Prop41ColorIndex
 90
       18
102
RTVSPost2010Prop41ColorRGB
 90
        0
102
RTVSPost2010PropOp41
 70
     1
102
RTVSPost2010Prop42
 90
       50
102
RTVSPost2010PropOp42
 70
     1
102
RTVSPost2010Prop43
 90
        3
102
RTVSPost2010PropOp43
 70
     1
102
RTVSPost2010Prop44ColorIndex
 90
        5
102
RTVSPost2010Prop44ColorRGB
 90
      255
102
RTVSPost2010PropOp44
 70
     1
102
RTVSPost2010Prop45
280
     0
102
RTVSPost2010PropOp45
 70
     1
102
RTVSPost2010Prop46
 90
       50
102
RTVSPost2010PropOp46
 70
     1
102
RTVSPost2010Prop47
 90
       50
102
RTVSPost2010PropOp47
 70
     1
102
RTVSPost2010Prop48
 90
       50
102
RTVSPost2010PropOp48
 70
     1
102
RTVSPost2010Prop49
280
     0
102
RTVSPost2010PropOp49
 70
     1
102
RTVSPost2010Prop50
 90
       50
102
RTVSPost2010PropOp50
 70
     1
102
RTVSPost2010Prop51ColorIndex
 90
      256
102
RTVSPost2010Prop51ColorRGB
 90
-16777216
102
RTVSPost2010PropOp51
 70
     0
102
RTVSPost2010Prop52
140
1.0
102
RTVSPost2010PropOp52
 70
     0
102
RTVSPost2010Prop53
 90
        2
102
RTVSPost2010PropOp53
 70
     1
102
RTVSPost2010Prop54
  1
strokes_ogs.tif
102
RTVSPost2010PropOp54
 70
     1
102
RTVSPost2010Prop55
280
     0
102
RTVSPost2010PropOp55
 70
     1
102
RTVSPost2010Prop56
140
1.0
102
RTVSPost2010PropOp56
 70
     1
102
RTVSPost2010Prop57
140
1.0
102
RTVSPost2010PropOp57
 70
     1
102
RTVSPropertyOp0
 70
     1
102
RTVSPropertyOp1
 70
     1
102
RTVSPropertyOp2
 70
     1
102
RTVSPropertyOp3
 70
     1
102
RTVSPropertyOp4
 70
     1
102
RTVSPropertyOp5
 70
     1
102
RTVSPropertyOp6
 70
     1
102
RTVSPropertyOp7
 70
     1
102
RTVSPropertyOp8
 70
     1
102
RTVSPropertyOp9
 70
     1
102
RTVSPropertyOp10
 70
     1
102
RTVSPropertyOp11
 70
     1
102
RTVSPropertyOp12
 70
     1
102
RTVSPropertyOp13
 70
     1
102
RTVSPropertyOp14
 70
     1
102
RTVSPropertyOp15
 70
     1
102
RTVSPropertyOp16
 70
     1
102
RTVSPropertyOp17
 70
     1
102
RTVSPropertyOp18
 70
     1
102
RTVSPropertyOp19
 70
     1
102
RTVSPropertyOp20
 70
     1
102
RTVSPropertyOp21
 70
     1
102
RTVSPropertyOp22
 70
     1
102
RTVSPropertyOp23
 70
     1
102
RTVSPropertyOp24
 70
     1
102
RTVSPropertyOp25
 70
     1
102
RTVSPropertyOp26
 70
     1
102
RTVSPropertyOp27
 70
     1
102
RTVSPropertyOp28
 70
     1
102
RTVSPropertyOp29
 70
     1
102
RTVSPropertyOp30
 70
     1
102
RTVSPropertyOp31
 70
     1
102
RTVSPropertyOp32
 70
     1
102
RTVSPropertyOp33
 70
     1
102
RTVSPropertyOp34
 70
     1
102
RTVSPropertyOp35
 70
     1
102
RTVSPropertyOp36
 70
     1
102
RTVSPropertyOp37
 70
     1
102
RTVSPropertyOp38
 70
     1
102
RTVSPropertyOp39
 70
     1
102
RTVSPropertyOp40
 70
     1
102
RTVSPropertyOp41
 70
     1
102
RTVSPropertyOp42
 70
     1
102
RTVSPropertyOp43
 70
     1
102
RTVSPropertyOp44
 70
     1
102
RTVSPropertyOp45
 70
     1
102
RTVSPropertyOp46
 70
     1
102
RTVSPropertyOp47
 70
     1
102
RTVSPropertyOp48
 70
     1
102
RTVSPropertyOp49
 70
     1
102
RTVSPropertyOp50
 70
     1
102
RTVSPropertyOp51
 70
     0
102
RTVSPropertyOp52
 70
     0
102
RTVSPropertyOp53
 70
     1
102
RTVSPropertyOp54
 70
     1
102
RTVSPropertyOp55
 70
     1
102
RTVSPropertyOp56
 70
     1
102
RTVSPropertyOp57
 70
     1
102
RTVSPropertyOp58
 70
     1
102
RTVSPropertyOp59
 70
     1
102
RTVSPropertyOp60
 70
     1
102
RTVSPropertyOp61
 70
     1
102
RTVSPropertyOp62
 70
     1
  0
XRECORD
  5
33FB
102
{ACAD_REACTORS
330
33FA
102
}
330
33FA
100
AcDbXrecord
280
     1
102
RTVSPost2010Prop28
280
     0
102
RTVSPost2010PropOp28
 70
     1
102
RTVSPost2010Prop29
280
     1
102
RTVSPost2010PropOp29
 70
     1
102
RTVSPost2010Prop30
280
     1
102
RTVSPost2010PropOp30
 70
     1
102
RTVSPost2010Prop31
280
     0
102
RTVSPost2010PropOp31
 70
     1
102
RTVSPost2010Prop32
280
     0
102
RTVSPost2010PropOp32
 70
     1
102
RTVSPost2010Prop33
280
     0
102
RTVSPost2010PropOp33
 70
     1
102
RTVSPost2010Prop34
280
     0
102
RTVSPost2010PropOp34
 70
     1
102
RTVSPost2010Prop35
280
     0
102
RTVSPost2010PropOp35
 70
     1
102
RTVSPost2010Prop36
280
     0
102
RTVSPost2010PropOp36
 70
     1
102
RTVSPost2010Prop37
 90
       50
102
RTVSPost2010PropOp37
 70
     1
102
RTVSPost2010Prop38
140
0.0
102
RTVSPost2010PropOp38
 70
     1
102
RTVSPost2010Prop39
140
1.0
102
RTVSPost2010PropOp39
 70
     1
102
RTVSPost2010Prop40
 90
        0
102
RTVSPost2010PropOp40
 70
     1
102
RTVSPost2010Prop41ColorIndex
 90
       18
102
RTVSPost2010Prop41ColorRGB
 90
        0
102
RTVSPost2010PropOp41
 70
     1
102
RTVSPost2010Prop42
 90
       50
102
RTVSPost2010PropOp42
 70
     1
102
RTVSPost2010Prop43
 90
        3
102
RTVSPost2010PropOp43
 70
     1
102
RTVSPost2010Prop44ColorIndex
 90
        5
102
RTVSPost2010Prop44ColorRGB
 90
      255
102
RTVSPost2010PropOp44
 70
     1
102
RTVSPost2010Prop45
280
     0
102
RTVSPost2010PropOp45
 70
     1
102
RTVSPost2010Prop46
 90
       50
102
RTVSPost2010PropOp46
 70
     1
102
RTVSPost2010Prop47
 90
       50
102
RTVSPost2010PropOp47
 70
     1
102
RTVSPost2010Prop48
 90
       50
102
RTVSPost2010PropOp48
 70
     1
102
RTVSPost2010Prop49
280
     0
102
RTVSPost2010PropOp49
 70
     1
102
RTVSPost2010Prop50
 90
       50
102
RTVSPost2010PropOp50
 70
     1
102
RTVSPost2010Prop51ColorIndex
 90
      256
102
RTVSPost2010Prop51ColorRGB
 90
-16777216
102
RTVSPost2010PropOp51
 70
     0
102
RTVSPost2010Prop52
140
1.0
102
RTVSPost2010PropOp52
 70
     0
102
RTVSPost2010Prop53
 90
        2
102
RTVSPost2010PropOp53
 70
     1
102
RTVSPost2010Prop54
  1
strokes_ogs.tif
102
RTVSPost2010PropOp54
 70
     1
102
RTVSPost2010Prop55
280
     0
102
RTVSPost2010PropOp55
 70
     1
102
RTVSPost2010Prop56
140
1.0
102
RTVSPost2010PropOp56
 70
     1
102
RTVSPost2010Prop57
140
1.0
102
RTVSPost2010PropOp57
 70
     1
102
RTVSPropertyOp0
 70
     1
102
RTVSPropertyOp1
 70
     1
102
RTVSPropertyOp2
 70
     1
102
RTVSPropertyOp3
 70
     1
102
RTVSPropertyOp4
 70
     1
102
RTVSPropertyOp5
 70
     1
102
RTVSPropertyOp6
 70
     1
102
RTVSPropertyOp7
 70
     1
102
RTVSPropertyOp8
 70
     1
102
RTVSPropertyOp9
 70
     1
102
RTVSPropertyOp10
 70
     1
102
RTVSPropertyOp11
 70
     1
102
RTVSPropertyOp12
 70
     1
102
RTVSPropertyOp13
 70
     1
102
RTVSPropertyOp14
 70
     1
102
RTVSPropertyOp15
 70
     1
102
RTVSPropertyOp16
 70
     1
102
RTVSPropertyOp17
 70
     1
102
RTVSPropertyOp18
 70
     1
102
RTVSPropertyOp19
 70
     1
102
RTVSPropertyOp20
 70
     1
102
RTVSPropertyOp21
 70
     1
102
RTVSPropertyOp22
 70
     1
102
RTVSPropertyOp23
 70
     1
102
RTVSPropertyOp24
 70
     1
102
RTVSPropertyOp25
 70
     1
102
RTVSPropertyOp26
 70
     1
102
RTVSPropertyOp27
 70
     1
102
RTVSPropertyOp28
 70
     1
102
RTVSPropertyOp29
 70
     1
102
RTVSPropertyOp30
 70
     1
102
RTVSPropertyOp31
 70
     1
102
RTVSPropertyOp32
 70
     1
102
RTVSPropertyOp33
 70
     1
102
RTVSPropertyOp34
 70
     1
102
RTVSPropertyOp35
 70
     1
102
RTVSPropertyOp36
 70
     1
102
RTVSPropertyOp37
 70
     1
102
RTVSPropertyOp38
 70
     1
102
RTVSPropertyOp39
 70
     1
102
RTVSPropertyOp40
 70
     1
102
RTVSPropertyOp41
 70
     1
102
RTVSPropertyOp42
 70
     1
102
RTVSPropertyOp43
 70
     1
102
RTVSPropertyOp44
 70
     1
102
RTVSPropertyOp45
 70
     1
102
RTVSPropertyOp46
 70
     1
102
RTVSPropertyOp47
 70
     1
102
RTVSPropertyOp48
 70
     1
102
RTVSPropertyOp49
 70
     1
102
RTVSPropertyOp50
 70
     1
102
RTVSPropertyOp51
 70
     0
102
RTVSPropertyOp52
 70
     0
102
RTVSPropertyOp53
 70
     1
102
RTVSPropertyOp54
 70
     1
102
RTVSPropertyOp55
 70
     1
102
RTVSPropertyOp56
 70
     1
102
RTVSPropertyOp57
 70
     1
102
RTVSPropertyOp58
 70
     1
102
RTVSPropertyOp59
 70
     1
102
RTVSPropertyOp60
 70
     1
102
RTVSPropertyOp61
 70
     1
102
RTVSPropertyOp62
 70
     1
  0
XRECORD
  5
341A
102
{ACAD_REACTORS
330
3419
102
}
330
3419
100
AcDbXrecord
280
     1
102
RTVSPost2010Prop28
280
     0
102
RTVSPost2010PropOp28
 70
     0
102
RTVSPost2010Prop29
280
     1
102
RTVSPost2010PropOp29
 70
     0
102
RTVSPost2010Prop30
280
     1
102
RTVSPost2010PropOp30
 70
     0
102
RTVSPost2010Prop31
280
     0
102
RTVSPost2010PropOp31
 70
     0
102
RTVSPost2010Prop32
280
     0
102
RTVSPost2010PropOp32
 70
     0
102
RTVSPost2010Prop33
280
     0
102
RTVSPost2010PropOp33
 70
     0
102
RTVSPost2010Prop34
280
     0
102
RTVSPost2010PropOp34
 70
     0
102
RTVSPost2010Prop35
280
     0
102
RTVSPost2010PropOp35
 70
     0
102
RTVSPost2010Prop36
280
     0
102
RTVSPost2010PropOp36
 70
     0
102
RTVSPost2010Prop37
 90
       50
102
RTVSPost2010PropOp37
 70
     0
102
RTVSPost2010Prop38
140
0.0
102
RTVSPost2010PropOp38
 70
     0
102
RTVSPost2010Prop39
140
1.0
102
RTVSPost2010PropOp39
 70
     0
102
RTVSPost2010Prop40
 90
        0
102
RTVSPost2010PropOp40
 70
     0
102
RTVSPost2010Prop41ColorIndex
 90
       18
102
RTVSPost2010Prop41ColorRGB
 90
        0
102
RTVSPost2010PropOp41
 70
     0
102
RTVSPost2010Prop42
 90
       50
102
RTVSPost2010PropOp42
 70
     0
102
RTVSPost2010Prop43
 90
        3
102
RTVSPost2010PropOp43
 70
     0
102
RTVSPost2010Prop44ColorIndex
 90
        5
102
RTVSPost2010Prop44ColorRGB
 90
      255
102
RTVSPost2010PropOp44
 70
     0
102
RTVSPost2010Prop45
280
     0
102
RTVSPost2010PropOp45
 70
     0
102
RTVSPost2010Prop46
 90
       50
102
RTVSPost2010PropOp46
 70
     0
102
RTVSPost2010Prop47
 90
       50
102
RTVSPost2010PropOp47
 70
     0
102
RTVSPost2010Prop48
 90
       50
102
RTVSPost2010PropOp48
 70
     0
102
RTVSPost2010Prop49
280
     0
102
RTVSPost2010PropOp49
 70
     0
102
RTVSPost2010Prop50
 90
       50
102
RTVSPost2010PropOp50
 70
     0
102
RTVSPost2010Prop51ColorIndex
 90
      256
102
RTVSPost2010Prop51ColorRGB
 90
-16777216
102
RTVSPost2010PropOp51
 70
     0
102
RTVSPost2010Prop52
140
1.0
102
RTVSPost2010PropOp52
 70
     0
102
RTVSPost2010Prop53
 90
        2
102
RTVSPost2010PropOp53
 70
     0
102
RTVSPost2010Prop54
  1
strokes_ogs.tif
102
RTVSPost2010PropOp54
 70
     0
102
RTVSPost2010Prop55
280
     0
102
RTVSPost2010PropOp55
 70
     0
102
RTVSPost2010Prop56
140
1.0
102
RTVSPost2010PropOp56
 70
     0
102
RTVSPost2010Prop57
140
1.0
102
RTVSPost2010PropOp57
 70
     0
102
RTVSPropertyOp0
 70
     0
102
RTVSPropertyOp1
 70
     0
102
RTVSPropertyOp2
 70
     0
102
RTVSPropertyOp3
 70
     0
102
RTVSPropertyOp4
 70
     0
102
RTVSPropertyOp5
 70
     0
102
RTVSPropertyOp6
 70
     0
102
RTVSPropertyOp7
 70
     0
102
RTVSPropertyOp8
 70
     0
102
RTVSPropertyOp9
 70
     0
102
RTVSPropertyOp10
 70
     0
102
RTVSPropertyOp11
 70
     0
102
RTVSPropertyOp12
 70
     0
102
RTVSPropertyOp13
 70
     0
102
RTVSPropertyOp14
 70
     2
102
RTVSPropertyOp15
 70
     0
102
RTVSPropertyOp16
 70
     0
102
RTVSPropertyOp17
 70
     0
102
RTVSPropertyOp18
 70
     0
102
RTVSPropertyOp19
 70
     0
102
RTVSPropertyOp20
 70
     0
102
RTVSPropertyOp21
 70
     0
102
RTVSPropertyOp22
 70
     0
102
RTVSPropertyOp23
 70
     0
102
RTVSPropertyOp24
 70
     0
102
RTVSPropertyOp25
 70
     0
102
RTVSPropertyOp26
 70
     0
102
RTVSPropertyOp27
 70
     0
102
RTVSPropertyOp28
 70
     0
102
RTVSPropertyOp29
 70
     0
102
RTVSPropertyOp30
 70
     0
102
RTVSPropertyOp31
 70
     0
102
RTVSPropertyOp32
 70
     0
102
RTVSPropertyOp33
 70
     0
102
RTVSPropertyOp34
 70
     0
102
RTVSPropertyOp35
 70
     0
102
RTVSPropertyOp36
 70
     0
102
RTVSPropertyOp37
 70
     0
102
RTVSPropertyOp38
 70
     0
102
RTVSPropertyOp39
 70
     0
102
RTVSPropertyOp40
 70
     0
102
RTVSPropertyOp41
 70
     0
102
RTVSPropertyOp42
 70
     0
102
RTVSPropertyOp43
 70
     0
102
RTVSPropertyOp44
 70
     0
102
RTVSPropertyOp45
 70
     0
102
RTVSPropertyOp46
 70
     0
102
RTVSPropertyOp47
 70
     0
102
RTVSPropertyOp48
 70
     0
102
RTVSPropertyOp49
 70
     0
102
RTVSPropertyOp50
 70
     0
102
RTVSPropertyOp51
 70
     0
102
RTVSPropertyOp52
 70
     0
102
RTVSPropertyOp53
 70
     0
102
RTVSPropertyOp54
 70
     0
102
RTVSPropertyOp55
 70
     0
102
RTVSPropertyOp56
 70
     0
102
RTVSPropertyOp57
 70
     0
102
RTVSPropertyOp58
 70
     0
102
RTVSPropertyOp59
 70
     0
102
RTVSPropertyOp60
 70
     0
102
RTVSPropertyOp61
 70
     0
102
RTVSPropertyOp62
 70
     0
  0
XRECORD
  5
3403
102
{ACAD_REACTORS
330
3402
102
}
330
3402
100
AcDbXrecord
280
     1
102
RTVSPost2010Prop28
280
     0
102
RTVSPost2010PropOp28
 70
     1
102
RTVSPost2010Prop29
280
     1
102
RTVSPost2010PropOp29
 70
     1
102
RTVSPost2010Prop30
280
     1
102
RTVSPost2010PropOp30
 70
     1
102
RTVSPost2010Prop31
280
     0
102
RTVSPost2010PropOp31
 70
     1
102
RTVSPost2010Prop32
280
     0
102
RTVSPost2010PropOp32
 70
     1
102
RTVSPost2010Prop33
280
     0
102
RTVSPost2010PropOp33
 70
     1
102
RTVSPost2010Prop34
280
     0
102
RTVSPost2010PropOp34
 70
     1
102
RTVSPost2010Prop35
280
     0
102
RTVSPost2010PropOp35
 70
     1
102
RTVSPost2010Prop36
280
     0
102
RTVSPost2010PropOp36
 70
     1
102
RTVSPost2010Prop37
 90
       50
102
RTVSPost2010PropOp37
 70
     1
102
RTVSPost2010Prop38
140
0.0
102
RTVSPost2010PropOp38
 70
     1
102
RTVSPost2010Prop39
140
1.0
102
RTVSPost2010PropOp39
 70
     1
102
RTVSPost2010Prop40
 90
        0
102
RTVSPost2010PropOp40
 70
     1
102
RTVSPost2010Prop41ColorIndex
 90
       18
102
RTVSPost2010Prop41ColorRGB
 90
        0
102
RTVSPost2010PropOp41
 70
     1
102
RTVSPost2010Prop42
 90
       50
102
RTVSPost2010PropOp42
 70
     1
102
RTVSPost2010Prop43
 90
        3
102
RTVSPost2010PropOp43
 70
     1
102
RTVSPost2010Prop44ColorIndex
 90
        5
102
RTVSPost2010Prop44ColorRGB
 90
      255
102
RTVSPost2010PropOp44
 70
     1
102
RTVSPost2010Prop45
280
     0
102
RTVSPost2010PropOp45
 70
     1
102
RTVSPost2010Prop46
 90
       50
102
RTVSPost2010PropOp46
 70
     1
102
RTVSPost2010Prop47
 90
       50
102
RTVSPost2010PropOp47
 70
     1
102
RTVSPost2010Prop48
 90
       50
102
RTVSPost2010PropOp48
 70
     1
102
RTVSPost2010Prop49
280
     0
102
RTVSPost2010PropOp49
 70
     1
102
RTVSPost2010Prop50
 90
       50
102
RTVSPost2010PropOp50
 70
     1
102
RTVSPost2010Prop51ColorIndex
 90
      256
102
RTVSPost2010Prop51ColorRGB
 90
-16777216
102
RTVSPost2010PropOp51
 70
     0
102
RTVSPost2010Prop52
140
1.0
102
RTVSPost2010PropOp52
 70
     0
102
RTVSPost2010Prop53
 90
        2
102
RTVSPost2010PropOp53
 70
     1
102
RTVSPost2010Prop54
  1
strokes_ogs.tif
102
RTVSPost2010PropOp54
 70
     1
102
RTVSPost2010Prop55
280
     0
102
RTVSPost2010PropOp55
 70
     1
102
RTVSPost2010Prop56
140
1.0
102
RTVSPost2010PropOp56
 70
     1
102
RTVSPost2010Prop57
140
1.0
102
RTVSPost2010PropOp57
 70
     1
102
RTVSPropertyOp0
 70
     1
102
RTVSPropertyOp1
 70
     1
102
RTVSPropertyOp2
 70
     1
102
RTVSPropertyOp3
 70
     1
102
RTVSPropertyOp4
 70
     1
102
RTVSPropertyOp5
 70
     1
102
RTVSPropertyOp6
 70
     1
102
RTVSPropertyOp7
 70
     1
102
RTVSPropertyOp8
 70
     1
102
RTVSPropertyOp9
 70
     1
102
RTVSPropertyOp10
 70
     1
102
RTVSPropertyOp11
 70
     1
102
RTVSPropertyOp12
 70
     1
102
RTVSPropertyOp13
 70
     1
102
RTVSPropertyOp14
 70
     1
102
RTVSPropertyOp15
 70
     1
102
RTVSPropertyOp16
 70
     1
102
RTVSPropertyOp17
 70
     1
102
RTVSPropertyOp18
 70
     1
102
RTVSPropertyOp19
 70
     1
102
RTVSPropertyOp20
 70
     1
102
RTVSPropertyOp21
 70
     1
102
RTVSPropertyOp22
 70
     1
102
RTVSPropertyOp23
 70
     1
102
RTVSPropertyOp24
 70
     1
102
RTVSPropertyOp25
 70
     1
102
RTVSPropertyOp26
 70
     1
102
RTVSPropertyOp27
 70
     1
102
RTVSPropertyOp28
 70
     1
102
RTVSPropertyOp29
 70
     1
102
RTVSPropertyOp30
 70
     1
102
RTVSPropertyOp31
 70
     1
102
RTVSPropertyOp32
 70
     1
102
RTVSPropertyOp33
 70
     1
102
RTVSPropertyOp34
 70
     1
102
RTVSPropertyOp35
 70
     1
102
RTVSPropertyOp36
 70
     1
102
RTVSPropertyOp37
 70
     1
102
RTVSPropertyOp38
 70
     1
102
RTVSPropertyOp39
 70
     1
102
RTVSPropertyOp40
 70
     1
102
RTVSPropertyOp41
 70
     1
102
RTVSPropertyOp42
 70
     1
102
RTVSPropertyOp43
 70
     1
102
RTVSPropertyOp44
 70
     1
102
RTVSPropertyOp45
 70
     1
102
RTVSPropertyOp46
 70
     1
102
RTVSPropertyOp47
 70
     1
102
RTVSPropertyOp48
 70
     1
102
RTVSPropertyOp49
 70
     1
102
RTVSPropertyOp50
 70
     1
102
RTVSPropertyOp51
 70
     0
102
RTVSPropertyOp52
 70
     0
102
RTVSPropertyOp53
 70
     1
102
RTVSPropertyOp54
 70
     1
102
RTVSPropertyOp55
 70
     1
102
RTVSPropertyOp56
 70
     1
102
RTVSPropertyOp57
 70
     1
102
RTVSPropertyOp58
 70
     1
102
RTVSPropertyOp59
 70
     1
102
RTVSPropertyOp60
 70
     1
102
RTVSPropertyOp61
 70
     1
102
RTVSPropertyOp62
 70
     1
  0
XRECORD
  5
33E7
102
{ACAD_REACTORS
330
33E6
102
}
330
33E6
100
AcDbXrecord
280
     1
102
RTVSPost2010Prop28
280
     0
102
RTVSPost2010PropOp28
 70
     1
102
RTVSPost2010Prop29
280
     1
102
RTVSPost2010PropOp29
 70
     1
102
RTVSPost2010Prop30
280
     1
102
RTVSPost2010PropOp30
 70
     1
102
RTVSPost2010Prop31
280
     0
102
RTVSPost2010PropOp31
 70
     1
102
RTVSPost2010Prop32
280
     0
102
RTVSPost2010PropOp32
 70
     1
102
RTVSPost2010Prop33
280
     0
102
RTVSPost2010PropOp33
 70
     1
102
RTVSPost2010Prop34
280
     0
102
RTVSPost2010PropOp34
 70
     1
102
RTVSPost2010Prop35
280
     0
102
RTVSPost2010PropOp35
 70
     1
102
RTVSPost2010Prop36
280
     0
102
RTVSPost2010PropOp36
 70
     1
102
RTVSPost2010Prop37
 90
       50
102
RTVSPost2010PropOp37
 70
     1
102
RTVSPost2010Prop38
140
0.0
102
RTVSPost2010PropOp38
 70
     1
102
RTVSPost2010Prop39
140
1.0
102
RTVSPost2010PropOp39
 70
     1
102
RTVSPost2010Prop40
 90
        0
102
RTVSPost2010PropOp40
 70
     1
102
RTVSPost2010Prop41ColorIndex
 90
       18
102
RTVSPost2010Prop41ColorRGB
 90
        0
102
RTVSPost2010PropOp41
 70
     1
102
RTVSPost2010Prop42
 90
       50
102
RTVSPost2010PropOp42
 70
     1
102
RTVSPost2010Prop43
 90
        3
102
RTVSPost2010PropOp43
 70
     1
102
RTVSPost2010Prop44ColorIndex
 90
        5
102
RTVSPost2010Prop44ColorRGB
 90
      255
102
RTVSPost2010PropOp44
 70
     1
102
RTVSPost2010Prop45
280
     0
102
RTVSPost2010PropOp45
 70
     1
102
RTVSPost2010Prop46
 90
       50
102
RTVSPost2010PropOp46
 70
     1
102
RTVSPost2010Prop47
 90
       50
102
RTVSPost2010PropOp47
 70
     1
102
RTVSPost2010Prop48
 90
       50
102
RTVSPost2010PropOp48
 70
     1
102
RTVSPost2010Prop49
280
     0
102
RTVSPost2010PropOp49
 70
     1
102
RTVSPost2010Prop50
 90
       50
102
RTVSPost2010PropOp50
 70
     1
102
RTVSPost2010Prop51ColorIndex
 90
      256
102
RTVSPost2010Prop51ColorRGB
 90
-16777216
102
RTVSPost2010PropOp51
 70
     0
102
RTVSPost2010Prop52
140
1.0
102
RTVSPost2010PropOp52
 70
     0
102
RTVSPost2010Prop53
 90
        2
102
RTVSPost2010PropOp53
 70
     1
102
RTVSPost2010Prop54
  1
strokes_ogs.tif
102
RTVSPost2010PropOp54
 70
     1
102
RTVSPost2010Prop55
280
     0
102
RTVSPost2010PropOp55
 70
     1
102
RTVSPost2010Prop56
140
1.0
102
RTVSPost2010PropOp56
 70
     1
102
RTVSPost2010Prop57
140
1.0
102
RTVSPost2010PropOp57
 70
     1
102
RTVSPropertyOp0
 70
     1
102
RTVSPropertyOp1
 70
     1
102
RTVSPropertyOp2
 70
     1
102
RTVSPropertyOp3
 70
     1
102
RTVSPropertyOp4
 70
     1
102
RTVSPropertyOp5
 70
     1
102
RTVSPropertyOp6
 70
     1
102
RTVSPropertyOp7
 70
     1
102
RTVSPropertyOp8
 70
     1
102
RTVSPropertyOp9
 70
     1
102
RTVSPropertyOp10
 70
     1
102
RTVSPropertyOp11
 70
     1
102
RTVSPropertyOp12
 70
     1
102
RTVSPropertyOp13
 70
     1
102
RTVSPropertyOp14
 70
     1
102
RTVSPropertyOp15
 70
     1
102
RTVSPropertyOp16
 70
     1
102
RTVSPropertyOp17
 70
     1
102
RTVSPropertyOp18
 70
     1
102
RTVSPropertyOp19
 70
     1
102
RTVSPropertyOp20
 70
     1
102
RTVSPropertyOp21
 70
     1
102
RTVSPropertyOp22
 70
     1
102
RTVSPropertyOp23
 70
     1
102
RTVSPropertyOp24
 70
     1
102
RTVSPropertyOp25
 70
     1
102
RTVSPropertyOp26
 70
     1
102
RTVSPropertyOp27
 70
     1
102
RTVSPropertyOp28
 70
     1
102
RTVSPropertyOp29
 70
     1
102
RTVSPropertyOp30
 70
     1
102
RTVSPropertyOp31
 70
     1
102
RTVSPropertyOp32
 70
     1
102
RTVSPropertyOp33
 70
     1
102
RTVSPropertyOp34
 70
     1
102
RTVSPropertyOp35
 70
     1
102
RTVSPropertyOp36
 70
     1
102
RTVSPropertyOp37
 70
     1
102
RTVSPropertyOp38
 70
     1
102
RTVSPropertyOp39
 70
     1
102
RTVSPropertyOp40
 70
     1
102
RTVSPropertyOp41
 70
     1
102
RTVSPropertyOp42
 70
     1
102
RTVSPropertyOp43
 70
     1
102
RTVSPropertyOp44
 70
     1
102
RTVSPropertyOp45
 70
     1
102
RTVSPropertyOp46
 70
     1
102
RTVSPropertyOp47
 70
     1
102
RTVSPropertyOp48
 70
     1
102
RTVSPropertyOp49
 70
     1
102
RTVSPropertyOp50
 70
     1
102
RTVSPropertyOp51
 70
     0
102
RTVSPropertyOp52
 70
     0
102
RTVSPropertyOp53
 70
     1
102
RTVSPropertyOp54
 70
     1
102
RTVSPropertyOp55
 70
     1
102
RTVSPropertyOp56
 70
     1
102
RTVSPropertyOp57
 70
     1
102
RTVSPropertyOp58
 70
     1
102
RTVSPropertyOp59
 70
     1
102
RTVSPropertyOp60
 70
     1
102
RTVSPropertyOp61
 70
     1
102
RTVSPropertyOp62
 70
     1
  0
XRECORD
  5
33E9
102
{ACAD_REACTORS
330
33E8
102
}
330
33E8
100
AcDbXrecord
280
     1
102
RTVSPost2010Prop28
280
     0
102
RTVSPost2010PropOp28
 70
     1
102
RTVSPost2010Prop29
280
     1
102
RTVSPost2010PropOp29
 70
     1
102
RTVSPost2010Prop30
280
     1
102
RTVSPost2010PropOp30
 70
     1
102
RTVSPost2010Prop31
280
     0
102
RTVSPost2010PropOp31
 70
     1
102
RTVSPost2010Prop32
280
     0
102
RTVSPost2010PropOp32
 70
     1
102
RTVSPost2010Prop33
280
     0
102
RTVSPost2010PropOp33
 70
     1
102
RTVSPost2010Prop34
280
     0
102
RTVSPost2010PropOp34
 70
     1
102
RTVSPost2010Prop35
280
     0
102
RTVSPost2010PropOp35
 70
     1
102
RTVSPost2010Prop36
280
     0
102
RTVSPost2010PropOp36
 70
     1
102
RTVSPost2010Prop37
 90
       50
102
RTVSPost2010PropOp37
 70
     1
102
RTVSPost2010Prop38
140
0.0
102
RTVSPost2010PropOp38
 70
     1
102
RTVSPost2010Prop39
140
1.0
102
RTVSPost2010PropOp39
 70
     1
102
RTVSPost2010Prop40
 90
        0
102
RTVSPost2010PropOp40
 70
     1
102
RTVSPost2010Prop41ColorIndex
 90
       18
102
RTVSPost2010Prop41ColorRGB
 90
        0
102
RTVSPost2010PropOp41
 70
     1
102
RTVSPost2010Prop42
 90
       50
102
RTVSPost2010PropOp42
 70
     1
102
RTVSPost2010Prop43
 90
        3
102
RTVSPost2010PropOp43
 70
     1
102
RTVSPost2010Prop44ColorIndex
 90
        5
102
RTVSPost2010Prop44ColorRGB
 90
      255
102
RTVSPost2010PropOp44
 70
     1
102
RTVSPost2010Prop45
280
     0
102
RTVSPost2010PropOp45
 70
     1
102
RTVSPost2010Prop46
 90
       50
102
RTVSPost2010PropOp46
 70
     1
102
RTVSPost2010Prop47
 90
       50
102
RTVSPost2010PropOp47
 70
     1
102
RTVSPost2010Prop48
 90
       50
102
RTVSPost2010PropOp48
 70
     1
102
RTVSPost2010Prop49
280
     0
102
RTVSPost2010PropOp49
 70
     1
102
RTVSPost2010Prop50
 90
       50
102
RTVSPost2010PropOp50
 70
     1
102
RTVSPost2010Prop51ColorIndex
 90
      256
102
RTVSPost2010Prop51ColorRGB
 90
-16777216
102
RTVSPost2010PropOp51
 70
     0
102
RTVSPost2010Prop52
140
1.0
102
RTVSPost2010PropOp52
 70
     0
102
RTVSPost2010Prop53
 90
        2
102
RTVSPost2010PropOp53
 70
     1
102
RTVSPost2010Prop54
  1
strokes_ogs.tif
102
RTVSPost2010PropOp54
 70
     1
102
RTVSPost2010Prop55
280
     0
102
RTVSPost2010PropOp55
 70
     1
102
RTVSPost2010Prop56
140
1.0
102
RTVSPost2010PropOp56
 70
     1
102
RTVSPost2010Prop57
140
1.0
102
RTVSPost2010PropOp57
 70
     1
102
RTVSPropertyOp0
 70
     1
102
RTVSPropertyOp1
 70
     1
102
RTVSPropertyOp2
 70
     1
102
RTVSPropertyOp3
 70
     1
102
RTVSPropertyOp4
 70
     1
102
RTVSPropertyOp5
 70
     1
102
RTVSPropertyOp6
 70
     1
102
RTVSPropertyOp7
 70
     1
102
RTVSPropertyOp8
 70
     1
102
RTVSPropertyOp9
 70
     1
102
RTVSPropertyOp10
 70
     1
102
RTVSPropertyOp11
 70
     1
102
RTVSPropertyOp12
 70
     1
102
RTVSPropertyOp13
 70
     1
102
RTVSPropertyOp14
 70
     1
102
RTVSPropertyOp15
 70
     1
102
RTVSPropertyOp16
 70
     1
102
RTVSPropertyOp17
 70
     1
102
RTVSPropertyOp18
 70
     1
102
RTVSPropertyOp19
 70
     1
102
RTVSPropertyOp20
 70
     1
102
RTVSPropertyOp21
 70
     1
102
RTVSPropertyOp22
 70
     1
102
RTVSPropertyOp23
 70
     1
102
RTVSPropertyOp24
 70
     1
102
RTVSPropertyOp25
 70
     1
102
RTVSPropertyOp26
 70
     1
102
RTVSPropertyOp27
 70
     1
102
RTVSPropertyOp28
 70
     1
102
RTVSPropertyOp29
 70
     1
102
RTVSPropertyOp30
 70
     1
102
RTVSPropertyOp31
 70
     1
102
RTVSPropertyOp32
 70
     1
102
RTVSPropertyOp33
 70
     1
102
RTVSPropertyOp34
 70
     1
102
RTVSPropertyOp35
 70
     1
102
RTVSPropertyOp36
 70
     1
102
RTVSPropertyOp37
 70
     1
102
RTVSPropertyOp38
 70
     1
102
RTVSPropertyOp39
 70
     1
102
RTVSPropertyOp40
 70
     1
102
RTVSPropertyOp41
 70
     1
102
RTVSPropertyOp42
 70
     1
102
RTVSPropertyOp43
 70
     1
102
RTVSPropertyOp44
 70
     1
102
RTVSPropertyOp45
 70
     1
102
RTVSPropertyOp46
 70
     1
102
RTVSPropertyOp47
 70
     1
102
RTVSPropertyOp48
 70
     1
102
RTVSPropertyOp49
 70
     1
102
RTVSPropertyOp50
 70
     1
102
RTVSPropertyOp51
 70
     0
102
RTVSPropertyOp52
 70
     0
102
RTVSPropertyOp53
 70
     1
102
RTVSPropertyOp54
 70
     1
102
RTVSPropertyOp55
 70
     1
102
RTVSPropertyOp56
 70
     1
102
RTVSPropertyOp57
 70
     1
102
RTVSPropertyOp58
 70
     1
102
RTVSPropertyOp59
 70
     1
102
RTVSPropertyOp60
 70
     1
102
RTVSPropertyOp61
 70
     1
102
RTVSPropertyOp62
 70
     1
  0
XRECORD
  5
33EB
102
{ACAD_REACTORS
330
33EA
102
}
330
33EA
100
AcDbXrecord
280
     1
102
RTVSPost2010Prop28
280
     0
102
RTVSPost2010PropOp28
 70
     1
102
RTVSPost2010Prop29
280
     1
102
RTVSPost2010PropOp29
 70
     1
102
RTVSPost2010Prop30
280
     1
102
RTVSPost2010PropOp30
 70
     1
102
RTVSPost2010Prop31
280
     0
102
RTVSPost2010PropOp31
 70
     1
102
RTVSPost2010Prop32
280
     0
102
RTVSPost2010PropOp32
 70
     1
102
RTVSPost2010Prop33
280
     0
102
RTVSPost2010PropOp33
 70
     1
102
RTVSPost2010Prop34
280
     0
102
RTVSPost2010PropOp34
 70
     1
102
RTVSPost2010Prop35
280
     0
102
RTVSPost2010PropOp35
 70
     1
102
RTVSPost2010Prop36
280
     0
102
RTVSPost2010PropOp36
 70
     1
102
RTVSPost2010Prop37
 90
       50
102
RTVSPost2010PropOp37
 70
     1
102
RTVSPost2010Prop38
140
0.0
102
RTVSPost2010PropOp38
 70
     1
102
RTVSPost2010Prop39
140
1.0
102
RTVSPost2010PropOp39
 70
     1
102
RTVSPost2010Prop40
 90
        0
102
RTVSPost2010PropOp40
 70
     1
102
RTVSPost2010Prop41ColorIndex
 90
       18
102
RTVSPost2010Prop41ColorRGB
 90
        0
102
RTVSPost2010PropOp41
 70
     1
102
RTVSPost2010Prop42
 90
       50
102
RTVSPost2010PropOp42
 70
     1
102
RTVSPost2010Prop43
 90
        3
102
RTVSPost2010PropOp43
 70
     1
102
RTVSPost2010Prop44ColorIndex
 90
        5
102
RTVSPost2010Prop44ColorRGB
 90
      255
102
RTVSPost2010PropOp44
 70
     1
102
RTVSPost2010Prop45
280
     0
102
RTVSPost2010PropOp45
 70
     1
102
RTVSPost2010Prop46
 90
       50
102
RTVSPost2010PropOp46
 70
     1
102
RTVSPost2010Prop47
 90
       50
102
RTVSPost2010PropOp47
 70
     1
102
RTVSPost2010Prop48
 90
       50
102
RTVSPost2010PropOp48
 70
     1
102
RTVSPost2010Prop49
280
     0
102
RTVSPost2010PropOp49
 70
     1
102
RTVSPost2010Prop50
 90
       50
102
RTVSPost2010PropOp50
 70
     1
102
RTVSPost2010Prop51ColorIndex
 90
      256
102
RTVSPost2010Prop51ColorRGB
 90
-16777216
102
RTVSPost2010PropOp51
 70
     0
102
RTVSPost2010Prop52
140
1.0
102
RTVSPost2010PropOp52
 70
     0
102
RTVSPost2010Prop53
 90
        2
102
RTVSPost2010PropOp53
 70
     1
102
RTVSPost2010Prop54
  1
strokes_ogs.tif
102
RTVSPost2010PropOp54
 70
     1
102
RTVSPost2010Prop55
280
     0
102
RTVSPost2010PropOp55
 70
     1
102
RTVSPost2010Prop56
140
1.0
102
RTVSPost2010PropOp56
 70
     1
102
RTVSPost2010Prop57
140
1.0
102
RTVSPost2010PropOp57
 70
     1
102
RTVSPropertyOp0
 70
     1
102
RTVSPropertyOp1
 70
     1
102
RTVSPropertyOp2
 70
     1
102
RTVSPropertyOp3
 70
     1
102
RTVSPropertyOp4
 70
     1
102
RTVSPropertyOp5
 70
     1
102
RTVSPropertyOp6
 70
     1
102
RTVSPropertyOp7
 70
     1
102
RTVSPropertyOp8
 70
     1
102
RTVSPropertyOp9
 70
     1
102
RTVSPropertyOp10
 70
     1
102
RTVSPropertyOp11
 70
     1
102
RTVSPropertyOp12
 70
     1
102
RTVSPropertyOp13
 70
     1
102
RTVSPropertyOp14
 70
     1
102
RTVSPropertyOp15
 70
     1
102
RTVSPropertyOp16
 70
     1
102
RTVSPropertyOp17
 70
     1
102
RTVSPropertyOp18
 70
     1
102
RTVSPropertyOp19
 70
     1
102
RTVSPropertyOp20
 70
     1
102
RTVSPropertyOp21
 70
     1
102
RTVSPropertyOp22
 70
     1
102
RTVSPropertyOp23
 70
     1
102
RTVSPropertyOp24
 70
     1
102
RTVSPropertyOp25
 70
     1
102
RTVSPropertyOp26
 70
     1
102
RTVSPropertyOp27
 70
     1
102
RTVSPropertyOp28
 70
     1
102
RTVSPropertyOp29
 70
     1
102
RTVSPropertyOp30
 70
     1
102
RTVSPropertyOp31
 70
     1
102
RTVSPropertyOp32
 70
     1
102
RTVSPropertyOp33
 70
     1
102
RTVSPropertyOp34
 70
     1
102
RTVSPropertyOp35
 70
     1
102
RTVSPropertyOp36
 70
     1
102
RTVSPropertyOp37
 70
     1
102
RTVSPropertyOp38
 70
     1
102
RTVSPropertyOp39
 70
     1
102
RTVSPropertyOp40
 70
     1
102
RTVSPropertyOp41
 70
     1
102
RTVSPropertyOp42
 70
     1
102
RTVSPropertyOp43
 70
     1
102
RTVSPropertyOp44
 70
     1
102
RTVSPropertyOp45
 70
     1
102
RTVSPropertyOp46
 70
     1
102
RTVSPropertyOp47
 70
     1
102
RTVSPropertyOp48
 70
     1
102
RTVSPropertyOp49
 70
     1
102
RTVSPropertyOp50
 70
     1
102
RTVSPropertyOp51
 70
     0
102
RTVSPropertyOp52
 70
     0
102
RTVSPropertyOp53
 70
     1
102
RTVSPropertyOp54
 70
     1
102
RTVSPropertyOp55
 70
     1
102
RTVSPropertyOp56
 70
     1
102
RTVSPropertyOp57
 70
     1
102
RTVSPropertyOp58
 70
     1
102
RTVSPropertyOp59
 70
     1
102
RTVSPropertyOp60
 70
     1
102
RTVSPropertyOp61
 70
     1
102
RTVSPropertyOp62
 70
     1
  0
XRECORD
  5
33ED
102
{ACAD_REACTORS
330
33EC
102
}
330
33EC
100
AcDbXrecord
280
     1
102
RTVSPost2010Prop28
280
     0
102
RTVSPost2010PropOp28
 70
     1
102
RTVSPost2010Prop29
280
     1
102
RTVSPost2010PropOp29
 70
     1
102
RTVSPost2010Prop30
280
     1
102
RTVSPost2010PropOp30
 70
     1
102
RTVSPost2010Prop31
280
     0
102
RTVSPost2010PropOp31
 70
     1
102
RTVSPost2010Prop32
280
     0
102
RTVSPost2010PropOp32
 70
     1
102
RTVSPost2010Prop33
280
     0
102
RTVSPost2010PropOp33
 70
     1
102
RTVSPost2010Prop34
280
     0
102
RTVSPost2010PropOp34
 70
     1
102
RTVSPost2010Prop35
280
     0
102
RTVSPost2010PropOp35
 70
     1
102
RTVSPost2010Prop36
280
     0
102
RTVSPost2010PropOp36
 70
     1
102
RTVSPost2010Prop37
 90
       50
102
RTVSPost2010PropOp37
 70
     1
102
RTVSPost2010Prop38
140
0.0
102
RTVSPost2010PropOp38
 70
     1
102
RTVSPost2010Prop39
140
1.0
102
RTVSPost2010PropOp39
 70
     1
102
RTVSPost2010Prop40
 90
        0
102
RTVSPost2010PropOp40
 70
     1
102
RTVSPost2010Prop41ColorIndex
 90
       18
102
RTVSPost2010Prop41ColorRGB
 90
        0
102
RTVSPost2010PropOp41
 70
     1
102
RTVSPost2010Prop42
 90
       50
102
RTVSPost2010PropOp42
 70
     1
102
RTVSPost2010Prop43
 90
        3
102
RTVSPost2010PropOp43
 70
     1
102
RTVSPost2010Prop44ColorIndex
 90
        5
102
RTVSPost2010Prop44ColorRGB
 90
      255
102
RTVSPost2010PropOp44
 70
     1
102
RTVSPost2010Prop45
280
     0
102
RTVSPost2010PropOp45
 70
     1
102
RTVSPost2010Prop46
 90
       50
102
RTVSPost2010PropOp46
 70
     1
102
RTVSPost2010Prop47
 90
       50
102
RTVSPost2010PropOp47
 70
     1
102
RTVSPost2010Prop48
 90
       50
102
RTVSPost2010PropOp48
 70
     1
102
RTVSPost2010Prop49
280
     0
102
RTVSPost2010PropOp49
 70
     1
102
RTVSPost2010Prop50
 90
       50
102
RTVSPost2010PropOp50
 70
     1
102
RTVSPost2010Prop51ColorIndex
 90
      256
102
RTVSPost2010Prop51ColorRGB
 90
-16777216
102
RTVSPost2010PropOp51
 70
     0
102
RTVSPost2010Prop52
140
1.0
102
RTVSPost2010PropOp52
 70
     0
102
RTVSPost2010Prop53
 90
        2
102
RTVSPost2010PropOp53
 70
     1
102
RTVSPost2010Prop54
  1
strokes_ogs.tif
102
RTVSPost2010PropOp54
 70
     1
102
RTVSPost2010Prop55
280
     0
102
RTVSPost2010PropOp55
 70
     1
102
RTVSPost2010Prop56
140
1.0
102
RTVSPost2010PropOp56
 70
     1
102
RTVSPost2010Prop57
140
1.0
102
RTVSPost2010PropOp57
 70
     1
102
RTVSPropertyOp0
 70
     1
102
RTVSPropertyOp1
 70
     1
102
RTVSPropertyOp2
 70
     1
102
RTVSPropertyOp3
 70
     1
102
RTVSPropertyOp4
 70
     1
102
RTVSPropertyOp5
 70
     1
102
RTVSPropertyOp6
 70
     1
102
RTVSPropertyOp7
 70
     1
102
RTVSPropertyOp8
 70
     1
102
RTVSPropertyOp9
 70
     1
102
RTVSPropertyOp10
 70
     1
102
RTVSPropertyOp11
 70
     1
102
RTVSPropertyOp12
 70
     1
102
RTVSPropertyOp13
 70
     1
102
RTVSPropertyOp14
 70
     1
102
RTVSPropertyOp15
 70
     1
102
RTVSPropertyOp16
 70
     1
102
RTVSPropertyOp17
 70
     1
102
RTVSPropertyOp18
 70
     1
102
RTVSPropertyOp19
 70
     1
102
RTVSPropertyOp20
 70
     1
102
RTVSPropertyOp21
 70
     1
102
RTVSPropertyOp22
 70
     1
102
RTVSPropertyOp23
 70
     1
102
RTVSPropertyOp24
 70
     1
102
RTVSPropertyOp25
 70
     1
102
RTVSPropertyOp26
 70
     1
102
RTVSPropertyOp27
 70
     1
102
RTVSPropertyOp28
 70
     1
102
RTVSPropertyOp29
 70
     1
102
RTVSPropertyOp30
 70
     1
102
RTVSPropertyOp31
 70
     1
102
RTVSPropertyOp32
 70
     1
102
RTVSPropertyOp33
 70
     1
102
RTVSPropertyOp34
 70
     1
102
RTVSPropertyOp35
 70
     1
102
RTVSPropertyOp36
 70
     1
102
RTVSPropertyOp37
 70
     1
102
RTVSPropertyOp38
 70
     1
102
RTVSPropertyOp39
 70
     1
102
RTVSPropertyOp40
 70
     1
102
RTVSPropertyOp41
 70
     1
102
RTVSPropertyOp42
 70
     1
102
RTVSPropertyOp43
 70
     1
102
RTVSPropertyOp44
 70
     1
102
RTVSPropertyOp45
 70
     1
102
RTVSPropertyOp46
 70
     1
102
RTVSPropertyOp47
 70
     1
102
RTVSPropertyOp48
 70
     1
102
RTVSPropertyOp49
 70
     1
102
RTVSPropertyOp50
 70
     1
102
RTVSPropertyOp51
 70
     0
102
RTVSPropertyOp52
 70
     0
102
RTVSPropertyOp53
 70
     1
102
RTVSPropertyOp54
 70
     1
102
RTVSPropertyOp55
 70
     1
102
RTVSPropertyOp56
 70
     1
102
RTVSPropertyOp57
 70
     1
102
RTVSPropertyOp58
 70
     1
102
RTVSPropertyOp59
 70
     1
102
RTVSPropertyOp60
 70
     1
102
RTVSPropertyOp61
 70
     1
102
RTVSPropertyOp62
 70
     1
  0
XRECORD
  5
340A
102
{ACAD_REACTORS
330
3409
102
}
330
3409
100
AcDbXrecord
280
     1
102
RTVSPost2010Prop28
280
     0
102
RTVSPost2010PropOp28
 70
     1
102
RTVSPost2010Prop29
280
     1
102
RTVSPost2010PropOp29
 70
     1
102
RTVSPost2010Prop30
280
     1
102
RTVSPost2010PropOp30
 70
     1
102
RTVSPost2010Prop31
280
     0
102
RTVSPost2010PropOp31
 70
     1
102
RTVSPost2010Prop32
280
     0
102
RTVSPost2010PropOp32
 70
     1
102
RTVSPost2010Prop33
280
     0
102
RTVSPost2010PropOp33
 70
     1
102
RTVSPost2010Prop34
280
     0
102
RTVSPost2010PropOp34
 70
     1
102
RTVSPost2010Prop35
280
     0
102
RTVSPost2010PropOp35
 70
     1
102
RTVSPost2010Prop36
280
     0
102
RTVSPost2010PropOp36
 70
     1
102
RTVSPost2010Prop37
 90
       50
102
RTVSPost2010PropOp37
 70
     1
102
RTVSPost2010Prop38
140
0.0
102
RTVSPost2010PropOp38
 70
     1
102
RTVSPost2010Prop39
140
1.0
102
RTVSPost2010PropOp39
 70
     1
102
RTVSPost2010Prop40
 90
        0
102
RTVSPost2010PropOp40
 70
     1
102
RTVSPost2010Prop41ColorIndex
 90
       18
102
RTVSPost2010Prop41ColorRGB
 90
        0
102
RTVSPost2010PropOp41
 70
     1
102
RTVSPost2010Prop42
 90
       50
102
RTVSPost2010PropOp42
 70
     1
102
RTVSPost2010Prop43
 90
        3
102
RTVSPost2010PropOp43
 70
     1
102
RTVSPost2010Prop44ColorIndex
 90
        5
102
RTVSPost2010Prop44ColorRGB
 90
      255
102
RTVSPost2010PropOp44
 70
     1
102
RTVSPost2010Prop45
280
     0
102
RTVSPost2010PropOp45
 70
     1
102
RTVSPost2010Prop46
 90
       50
102
RTVSPost2010PropOp46
 70
     1
102
RTVSPost2010Prop47
 90
       50
102
RTVSPost2010PropOp47
 70
     1
102
RTVSPost2010Prop48
 90
       50
102
RTVSPost2010PropOp48
 70
     1
102
RTVSPost2010Prop49
280
     0
102
RTVSPost2010PropOp49
 70
     1
102
RTVSPost2010Prop50
 90
       50
102
RTVSPost2010PropOp50
 70
     1
102
RTVSPost2010Prop51ColorIndex
 90
      256
102
RTVSPost2010Prop51ColorRGB
 90
-16777216
102
RTVSPost2010PropOp51
 70
     0
102
RTVSPost2010Prop52
140
1.0
102
RTVSPost2010PropOp52
 70
     0
102
RTVSPost2010Prop53
 90
        2
102
RTVSPost2010PropOp53
 70
     1
102
RTVSPost2010Prop54
  1
strokes_ogs.tif
102
RTVSPost2010PropOp54
 70
     1
102
RTVSPost2010Prop55
280
     0
102
RTVSPost2010PropOp55
 70
     1
102
RTVSPost2010Prop56
140
1.0
102
RTVSPost2010PropOp56
 70
     1
102
RTVSPost2010Prop57
140
1.0
102
RTVSPost2010PropOp57
 70
     1
102
RTVSPropertyOp0
 70
     1
102
RTVSPropertyOp1
 70
     1
102
RTVSPropertyOp2
 70
     1
102
RTVSPropertyOp3
 70
     1
102
RTVSPropertyOp4
 70
     1
102
RTVSPropertyOp5
 70
     1
102
RTVSPropertyOp6
 70
     1
102
RTVSPropertyOp7
 70
     1
102
RTVSPropertyOp8
 70
     1
102
RTVSPropertyOp9
 70
     1
102
RTVSPropertyOp10
 70
     1
102
RTVSPropertyOp11
 70
     1
102
RTVSPropertyOp12
 70
     1
102
RTVSPropertyOp13
 70
     1
102
RTVSPropertyOp14
 70
     1
102
RTVSPropertyOp15
 70
     1
102
RTVSPropertyOp16
 70
     1
102
RTVSPropertyOp17
 70
     1
102
RTVSPropertyOp18
 70
     1
102
RTVSPropertyOp19
 70
     1
102
RTVSPropertyOp20
 70
     1
102
RTVSPropertyOp21
 70
     1
102
RTVSPropertyOp22
 70
     1
102
RTVSPropertyOp23
 70
     1
102
RTVSPropertyOp24
 70
     1
102
RTVSPropertyOp25
 70
     1
102
RTVSPropertyOp26
 70
     1
102
RTVSPropertyOp27
 70
     1
102
RTVSPropertyOp28
 70
     1
102
RTVSPropertyOp29
 70
     1
102
RTVSPropertyOp30
 70
     1
102
RTVSPropertyOp31
 70
     1
102
RTVSPropertyOp32
 70
     1
102
RTVSPropertyOp33
 70
     1
102
RTVSPropertyOp34
 70
     1
102
RTVSPropertyOp35
 70
     1
102
RTVSPropertyOp36
 70
     1
102
RTVSPropertyOp37
 70
     1
102
RTVSPropertyOp38
 70
     1
102
RTVSPropertyOp39
 70
     1
102
RTVSPropertyOp40
 70
     1
102
RTVSPropertyOp41
 70
     1
102
RTVSPropertyOp42
 70
     1
102
RTVSPropertyOp43
 70
     1
102
RTVSPropertyOp44
 70
     1
102
RTVSPropertyOp45
 70
     1
102
RTVSPropertyOp46
 70
     1
102
RTVSPropertyOp47
 70
     1
102
RTVSPropertyOp48
 70
     1
102
RTVSPropertyOp49
 70
     1
102
RTVSPropertyOp50
 70
     1
102
RTVSPropertyOp51
 70
     0
102
RTVSPropertyOp52
 70
     0
102
RTVSPropertyOp53
 70
     1
102
RTVSPropertyOp54
 70
     1
102
RTVSPropertyOp55
 70
     1
102
RTVSPropertyOp56
 70
     1
102
RTVSPropertyOp57
 70
     1
102
RTVSPropertyOp58
 70
     1
102
RTVSPropertyOp59
 70
     1
102
RTVSPropertyOp60
 70
     1
102
RTVSPropertyOp61
 70
     1
102
RTVSPropertyOp62
 70
     1
  0
XRECORD
  5
3416
102
{ACAD_REACTORS
330
3415
102
}
330
3415
100
AcDbXrecord
280
     1
102
RTVSPost2010Prop28
280
     0
102
RTVSPost2010PropOp28
 70
     0
102
RTVSPost2010Prop29
280
     1
102
RTVSPost2010PropOp29
 70
     0
102
RTVSPost2010Prop30
280
     1
102
RTVSPost2010PropOp30
 70
     0
102
RTVSPost2010Prop31
280
     0
102
RTVSPost2010PropOp31
 70
     0
102
RTVSPost2010Prop32
280
     0
102
RTVSPost2010PropOp32
 70
     0
102
RTVSPost2010Prop33
280
     0
102
RTVSPost2010PropOp33
 70
     0
102
RTVSPost2010Prop34
280
     0
102
RTVSPost2010PropOp34
 70
     0
102
RTVSPost2010Prop35
280
     0
102
RTVSPost2010PropOp35
 70
     0
102
RTVSPost2010Prop36
280
     0
102
RTVSPost2010PropOp36
 70
     0
102
RTVSPost2010Prop37
 90
       50
102
RTVSPost2010PropOp37
 70
     0
102
RTVSPost2010Prop38
140
0.0
102
RTVSPost2010PropOp38
 70
     0
102
RTVSPost2010Prop39
140
1.0
102
RTVSPost2010PropOp39
 70
     0
102
RTVSPost2010Prop40
 90
        0
102
RTVSPost2010PropOp40
 70
     0
102
RTVSPost2010Prop41ColorIndex
 90
       18
102
RTVSPost2010Prop41ColorRGB
 90
        0
102
RTVSPost2010PropOp41
 70
     0
102
RTVSPost2010Prop42
 90
       50
102
RTVSPost2010PropOp42
 70
     0
102
RTVSPost2010Prop43
 90
        3
102
RTVSPost2010PropOp43
 70
     0
102
RTVSPost2010Prop44ColorIndex
 90
        5
102
RTVSPost2010Prop44ColorRGB
 90
      255
102
RTVSPost2010PropOp44
 70
     0
102
RTVSPost2010Prop45
280
     0
102
RTVSPost2010PropOp45
 70
     0
102
RTVSPost2010Prop46
 90
       50
102
RTVSPost2010PropOp46
 70
     0
102
RTVSPost2010Prop47
 90
       50
102
RTVSPost2010PropOp47
 70
     0
102
RTVSPost2010Prop48
 90
       50
102
RTVSPost2010PropOp48
 70
     0
102
RTVSPost2010Prop49
280
     0
102
RTVSPost2010PropOp49
 70
     0
102
RTVSPost2010Prop50
 90
       50
102
RTVSPost2010PropOp50
 70
     0
102
RTVSPost2010Prop51ColorIndex
 90
      256
102
RTVSPost2010Prop51ColorRGB
 90
-16777216
102
RTVSPost2010PropOp51
 70
     0
102
RTVSPost2010Prop52
140
1.0
102
RTVSPost2010PropOp52
 70
     0
102
RTVSPost2010Prop53
 90
        2
102
RTVSPost2010PropOp53
 70
     0
102
RTVSPost2010Prop54
  1
strokes_ogs.tif
102
RTVSPost2010PropOp54
 70
     0
102
RTVSPost2010Prop55
280
     0
102
RTVSPost2010PropOp55
 70
     0
102
RTVSPost2010Prop56
140
1.0
102
RTVSPost2010PropOp56
 70
     0
102
RTVSPost2010Prop57
140
1.0
102
RTVSPost2010PropOp57
 70
     0
102
RTVSPropertyOp0
 70
     0
102
RTVSPropertyOp1
 70
     0
102
RTVSPropertyOp2
 70
     0
102
RTVSPropertyOp3
 70
     0
102
RTVSPropertyOp4
 70
     0
102
RTVSPropertyOp5
 70
     0
102
RTVSPropertyOp6
 70
     0
102
RTVSPropertyOp7
 70
     0
102
RTVSPropertyOp8
 70
     0
102
RTVSPropertyOp9
 70
     0
102
RTVSPropertyOp10
 70
     0
102
RTVSPropertyOp11
 70
     0
102
RTVSPropertyOp12
 70
     0
102
RTVSPropertyOp13
 70
     0
102
RTVSPropertyOp14
 70
     2
102
RTVSPropertyOp15
 70
     0
102
RTVSPropertyOp16
 70
     0
102
RTVSPropertyOp17
 70
     0
102
RTVSPropertyOp18
 70
     0
102
RTVSPropertyOp19
 70
     0
102
RTVSPropertyOp20
 70
     0
102
RTVSPropertyOp21
 70
     0
102
RTVSPropertyOp22
 70
     0
102
RTVSPropertyOp23
 70
     0
102
RTVSPropertyOp24
 70
     0
102
RTVSPropertyOp25
 70
     0
102
RTVSPropertyOp26
 70
     0
102
RTVSPropertyOp27
 70
     0
102
RTVSPropertyOp28
 70
     0
102
RTVSPropertyOp29
 70
     0
102
RTVSPropertyOp30
 70
     0
102
RTVSPropertyOp31
 70
     0
102
RTVSPropertyOp32
 70
     0
102
RTVSPropertyOp33
 70
     0
102
RTVSPropertyOp34
 70
     0
102
RTVSPropertyOp35
 70
     0
102
RTVSPropertyOp36
 70
     0
102
RTVSPropertyOp37
 70
     0
102
RTVSPropertyOp38
 70
     0
102
RTVSPropertyOp39
 70
     0
102
RTVSPropertyOp40
 70
     0
102
RTVSPropertyOp41
 70
     0
102
RTVSPropertyOp42
 70
     0
102
RTVSPropertyOp43
 70
     0
102
RTVSPropertyOp44
 70
     0
102
RTVSPropertyOp45
 70
     0
102
RTVSPropertyOp46
 70
     0
102
RTVSPropertyOp47
 70
     0
102
RTVSPropertyOp48
 70
     0
102
RTVSPropertyOp49
 70
     0
102
RTVSPropertyOp50
 70
     0
102
RTVSPropertyOp51
 70
     0
102
RTVSPropertyOp52
 70
     0
102
RTVSPropertyOp53
 70
     0
102
RTVSPropertyOp54
 70
     0
102
RTVSPropertyOp55
 70
     0
102
RTVSPropertyOp56
 70
     0
102
RTVSPropertyOp57
 70
     0
102
RTVSPropertyOp58
 70
     0
102
RTVSPropertyOp59
 70
     0
102
RTVSPropertyOp60
 70
     0
102
RTVSPropertyOp61
 70
     0
102
RTVSPropertyOp62
 70
     0
  0
XRECORD
  5
3401
102
{ACAD_REACTORS
330
3400
102
}
330
3400
100
AcDbXrecord
280
     1
102
RTVSPost2010Prop28
280
     0
102
RTVSPost2010PropOp28
 70
     1
102
RTVSPost2010Prop29
280
     1
102
RTVSPost2010PropOp29
 70
     1
102
RTVSPost2010Prop30
280
     1
102
RTVSPost2010PropOp30
 70
     1
102
RTVSPost2010Prop31
280
     0
102
RTVSPost2010PropOp31
 70
     1
102
RTVSPost2010Prop32
280
     0
102
RTVSPost2010PropOp32
 70
     1
102
RTVSPost2010Prop33
280
     0
102
RTVSPost2010PropOp33
 70
     1
102
RTVSPost2010Prop34
280
     0
102
RTVSPost2010PropOp34
 70
     1
102
RTVSPost2010Prop35
280
     0
102
RTVSPost2010PropOp35
 70
     1
102
RTVSPost2010Prop36
280
     0
102
RTVSPost2010PropOp36
 70
     1
102
RTVSPost2010Prop37
 90
       50
102
RTVSPost2010PropOp37
 70
     1
102
RTVSPost2010Prop38
140
0.0
102
RTVSPost2010PropOp38
 70
     1
102
RTVSPost2010Prop39
140
1.0
102
RTVSPost2010PropOp39
 70
     1
102
RTVSPost2010Prop40
 90
        0
102
RTVSPost2010PropOp40
 70
     1
102
RTVSPost2010Prop41ColorIndex
 90
       18
102
RTVSPost2010Prop41ColorRGB
 90
        0
102
RTVSPost2010PropOp41
 70
     1
102
RTVSPost2010Prop42
 90
       50
102
RTVSPost2010PropOp42
 70
     1
102
RTVSPost2010Prop43
 90
        3
102
RTVSPost2010PropOp43
 70
     1
102
RTVSPost2010Prop44ColorIndex
 90
        5
102
RTVSPost2010Prop44ColorRGB
 90
      255
102
RTVSPost2010PropOp44
 70
     1
102
RTVSPost2010Prop45
280
     0
102
RTVSPost2010PropOp45
 70
     1
102
RTVSPost2010Prop46
 90
       50
102
RTVSPost2010PropOp46
 70
     1
102
RTVSPost2010Prop47
 90
       50
102
RTVSPost2010PropOp47
 70
     1
102
RTVSPost2010Prop48
 90
       50
102
RTVSPost2010PropOp48
 70
     1
102
RTVSPost2010Prop49
280
     0
102
RTVSPost2010PropOp49
 70
     1
102
RTVSPost2010Prop50
 90
       50
102
RTVSPost2010PropOp50
 70
     1
102
RTVSPost2010Prop51ColorIndex
 90
      256
102
RTVSPost2010Prop51ColorRGB
 90
-16777216
102
RTVSPost2010PropOp51
 70
     0
102
RTVSPost2010Prop52
140
1.0
102
RTVSPost2010PropOp52
 70
     0
102
RTVSPost2010Prop53
 90
        2
102
RTVSPost2010PropOp53
 70
     1
102
RTVSPost2010Prop54
  1
strokes_ogs.tif
102
RTVSPost2010PropOp54
 70
     1
102
RTVSPost2010Prop55
280
     0
102
RTVSPost2010PropOp55
 70
     1
102
RTVSPost2010Prop56
140
1.0
102
RTVSPost2010PropOp56
 70
     1
102
RTVSPost2010Prop57
140
1.0
102
RTVSPost2010PropOp57
 70
     1
102
RTVSPropertyOp0
 70
     1
102
RTVSPropertyOp1
 70
     1
102
RTVSPropertyOp2
 70
     1
102
RTVSPropertyOp3
 70
     1
102
RTVSPropertyOp4
 70
     1
102
RTVSPropertyOp5
 70
     1
102
RTVSPropertyOp6
 70
     1
102
RTVSPropertyOp7
 70
     1
102
RTVSPropertyOp8
 70
     1
102
RTVSPropertyOp9
 70
     1
102
RTVSPropertyOp10
 70
     1
102
RTVSPropertyOp11
 70
     1
102
RTVSPropertyOp12
 70
     1
102
RTVSPropertyOp13
 70
     1
102
RTVSPropertyOp14
 70
     1
102
RTVSPropertyOp15
 70
     1
102
RTVSPropertyOp16
 70
     1
102
RTVSPropertyOp17
 70
     1
102
RTVSPropertyOp18
 70
     1
102
RTVSPropertyOp19
 70
     1
102
RTVSPropertyOp20
 70
     1
102
RTVSPropertyOp21
 70
     1
102
RTVSPropertyOp22
 70
     1
102
RTVSPropertyOp23
 70
     1
102
RTVSPropertyOp24
 70
     1
102
RTVSPropertyOp25
 70
     1
102
RTVSPropertyOp26
 70
     1
102
RTVSPropertyOp27
 70
     1
102
RTVSPropertyOp28
 70
     1
102
RTVSPropertyOp29
 70
     1
102
RTVSPropertyOp30
 70
     1
102
RTVSPropertyOp31
 70
     1
102
RTVSPropertyOp32
 70
     1
102
RTVSPropertyOp33
 70
     1
102
RTVSPropertyOp34
 70
     1
102
RTVSPropertyOp35
 70
     1
102
RTVSPropertyOp36
 70
     1
102
RTVSPropertyOp37
 70
     1
102
RTVSPropertyOp38
 70
     1
102
RTVSPropertyOp39
 70
     1
102
RTVSPropertyOp40
 70
     1
102
RTVSPropertyOp41
 70
     1
102
RTVSPropertyOp42
 70
     1
102
RTVSPropertyOp43
 70
     1
102
RTVSPropertyOp44
 70
     1
102
RTVSPropertyOp45
 70
     1
102
RTVSPropertyOp46
 70
     1
102
RTVSPropertyOp47
 70
     1
102
RTVSPropertyOp48
 70
     1
102
RTVSPropertyOp49
 70
     1
102
RTVSPropertyOp50
 70
     1
102
RTVSPropertyOp51
 70
     0
102
RTVSPropertyOp52
 70
     0
102
RTVSPropertyOp53
 70
     1
102
RTVSPropertyOp54
 70
     1
102
RTVSPropertyOp55
 70
     1
102
RTVSPropertyOp56
 70
     1
102
RTVSPropertyOp57
 70
     1
102
RTVSPropertyOp58
 70
     1
102
RTVSPropertyOp59
 70
     1
102
RTVSPropertyOp60
 70
     1
102
RTVSPropertyOp61
 70
     1
102
RTVSPropertyOp62
 70
     1
  0
XRECORD
  5
3418
102
{ACAD_REACTORS
330
3417
102
}
330
3417
100
AcDbXrecord
280
     1
102
RTVSPost2010Prop28
280
     0
102
RTVSPost2010PropOp28
 70
     0
102
RTVSPost2010Prop29
280
     1
102
RTVSPost2010PropOp29
 70
     0
102
RTVSPost2010Prop30
280
     1
102
RTVSPost2010PropOp30
 70
     0
102
RTVSPost2010Prop31
280
     0
102
RTVSPost2010PropOp31
 70
     0
102
RTVSPost2010Prop32
280
     0
102
RTVSPost2010PropOp32
 70
     0
102
RTVSPost2010Prop33
280
     0
102
RTVSPost2010PropOp33
 70
     0
102
RTVSPost2010Prop34
280
     0
102
RTVSPost2010PropOp34
 70
     0
102
RTVSPost2010Prop35
280
     0
102
RTVSPost2010PropOp35
 70
     0
102
RTVSPost2010Prop36
280
     0
102
RTVSPost2010PropOp36
 70
     0
102
RTVSPost2010Prop37
 90
       50
102
RTVSPost2010PropOp37
 70
     0
102
RTVSPost2010Prop38
140
0.0
102
RTVSPost2010PropOp38
 70
     0
102
RTVSPost2010Prop39
140
1.0
102
RTVSPost2010PropOp39
 70
     0
102
RTVSPost2010Prop40
 90
        0
102
RTVSPost2010PropOp40
 70
     0
102
RTVSPost2010Prop41ColorIndex
 90
       18
102
RTVSPost2010Prop41ColorRGB
 90
        0
102
RTVSPost2010PropOp41
 70
     0
102
RTVSPost2010Prop42
 90
       50
102
RTVSPost2010PropOp42
 70
     0
102
RTVSPost2010Prop43
 90
        3
102
RTVSPost2010PropOp43
 70
     0
102
RTVSPost2010Prop44ColorIndex
 90
        5
102
RTVSPost2010Prop44ColorRGB
 90
      255
102
RTVSPost2010PropOp44
 70
     0
102
RTVSPost2010Prop45
280
     0
102
RTVSPost2010PropOp45
 70
     0
102
RTVSPost2010Prop46
 90
       50
102
RTVSPost2010PropOp46
 70
     0
102
RTVSPost2010Prop47
 90
       50
102
RTVSPost2010PropOp47
 70
     0
102
RTVSPost2010Prop48
 90
       50
102
RTVSPost2010PropOp48
 70
     0
102
RTVSPost2010Prop49
280
     0
102
RTVSPost2010PropOp49
 70
     0
102
RTVSPost2010Prop50
 90
       50
102
RTVSPost2010PropOp50
 70
     0
102
RTVSPost2010Prop51ColorIndex
 90
      256
102
RTVSPost2010Prop51ColorRGB
 90
-16777216
102
RTVSPost2010PropOp51
 70
     0
102
RTVSPost2010Prop52
140
1.0
102
RTVSPost2010PropOp52
 70
     0
102
RTVSPost2010Prop53
 90
        2
102
RTVSPost2010PropOp53
 70
     0
102
RTVSPost2010Prop54
  1
strokes_ogs.tif
102
RTVSPost2010PropOp54
 70
     0
102
RTVSPost2010Prop55
280
     0
102
RTVSPost2010PropOp55
 70
     0
102
RTVSPost2010Prop56
140
1.0
102
RTVSPost2010PropOp56
 70
     0
102
RTVSPost2010Prop57
140
1.0
102
RTVSPost2010PropOp57
 70
     0
102
RTVSPropertyOp0
 70
     0
102
RTVSPropertyOp1
 70
     0
102
RTVSPropertyOp2
 70
     0
102
RTVSPropertyOp3
 70
     0
102
RTVSPropertyOp4
 70
     0
102
RTVSPropertyOp5
 70
     0
102
RTVSPropertyOp6
 70
     0
102
RTVSPropertyOp7
 70
     0
102
RTVSPropertyOp8
 70
     0
102
RTVSPropertyOp9
 70
     0
102
RTVSPropertyOp10
 70
     0
102
RTVSPropertyOp11
 70
     0
102
RTVSPropertyOp12
 70
     0
102
RTVSPropertyOp13
 70
     0
102
RTVSPropertyOp14
 70
     2
102
RTVSPropertyOp15
 70
     0
102
RTVSPropertyOp16
 70
     0
102
RTVSPropertyOp17
 70
     0
102
RTVSPropertyOp18
 70
     0
102
RTVSPropertyOp19
 70
     0
102
RTVSPropertyOp20
 70
     0
102
RTVSPropertyOp21
 70
     0
102
RTVSPropertyOp22
 70
     0
102
RTVSPropertyOp23
 70
     0
102
RTVSPropertyOp24
 70
     0
102
RTVSPropertyOp25
 70
     0
102
RTVSPropertyOp26
 70
     0
102
RTVSPropertyOp27
 70
     0
102
RTVSPropertyOp28
 70
     0
102
RTVSPropertyOp29
 70
     0
102
RTVSPropertyOp30
 70
     0
102
RTVSPropertyOp31
 70
     0
102
RTVSPropertyOp32
 70
     0
102
RTVSPropertyOp33
 70
     0
102
RTVSPropertyOp34
 70
     0
102
RTVSPropertyOp35
 70
     0
102
RTVSPropertyOp36
 70
     0
102
RTVSPropertyOp37
 70
     0
102
RTVSPropertyOp38
 70
     0
102
RTVSPropertyOp39
 70
     0
102
RTVSPropertyOp40
 70
     0
102
RTVSPropertyOp41
 70
     0
102
RTVSPropertyOp42
 70
     0
102
RTVSPropertyOp43
 70
     0
102
RTVSPropertyOp44
 70
     0
102
RTVSPropertyOp45
 70
     0
102
RTVSPropertyOp46
 70
     0
102
RTVSPropertyOp47
 70
     0
102
RTVSPropertyOp48
 70
     0
102
RTVSPropertyOp49
 70
     0
102
RTVSPropertyOp50
 70
     0
102
RTVSPropertyOp51
 70
     0
102
RTVSPropertyOp52
 70
     0
102
RTVSPropertyOp53
 70
     0
102
RTVSPropertyOp54
 70
     0
102
RTVSPropertyOp55
 70
     0
102
RTVSPropertyOp56
 70
     0
102
RTVSPropertyOp57
 70
     0
102
RTVSPropertyOp58
 70
     0
102
RTVSPropertyOp59
 70
     0
102
RTVSPropertyOp60
 70
     0
102
RTVSPropertyOp61
 70
     0
102
RTVSPropertyOp62
 70
     0
  0
XRECORD
  5
33F9
102
{ACAD_REACTORS
330
33F8
102
}
330
33F8
100
AcDbXrecord
280
     1
102
RTVSPost2010Prop28
280
     0
102
RTVSPost2010PropOp28
 70
     1
102
RTVSPost2010Prop29
280
     1
102
RTVSPost2010PropOp29
 70
     1
102
RTVSPost2010Prop30
280
     1
102
RTVSPost2010PropOp30
 70
     1
102
RTVSPost2010Prop31
280
     0
102
RTVSPost2010PropOp31
 70
     1
102
RTVSPost2010Prop32
280
     0
102
RTVSPost2010PropOp32
 70
     1
102
RTVSPost2010Prop33
280
     0
102
RTVSPost2010PropOp33
 70
     1
102
RTVSPost2010Prop34
280
     0
102
RTVSPost2010PropOp34
 70
     1
102
RTVSPost2010Prop35
280
     0
102
RTVSPost2010PropOp35
 70
     1
102
RTVSPost2010Prop36
280
     0
102
RTVSPost2010PropOp36
 70
     1
102
RTVSPost2010Prop37
 90
       50
102
RTVSPost2010PropOp37
 70
     1
102
RTVSPost2010Prop38
140
0.0
102
RTVSPost2010PropOp38
 70
     1
102
RTVSPost2010Prop39
140
1.0
102
RTVSPost2010PropOp39
 70
     1
102
RTVSPost2010Prop40
 90
        0
102
RTVSPost2010PropOp40
 70
     1
102
RTVSPost2010Prop41ColorIndex
 90
       18
102
RTVSPost2010Prop41ColorRGB
 90
        0
102
RTVSPost2010PropOp41
 70
     1
102
RTVSPost2010Prop42
 90
       50
102
RTVSPost2010PropOp42
 70
     1
102
RTVSPost2010Prop43
 90
        3
102
RTVSPost2010PropOp43
 70
     1
102
RTVSPost2010Prop44ColorIndex
 90
        5
102
RTVSPost2010Prop44ColorRGB
 90
      255
102
RTVSPost2010PropOp44
 70
     1
102
RTVSPost2010Prop45
280
     0
102
RTVSPost2010PropOp45
 70
     1
102
RTVSPost2010Prop46
 90
       50
102
RTVSPost2010PropOp46
 70
     1
102
RTVSPost2010Prop47
 90
       50
102
RTVSPost2010PropOp47
 70
     1
102
RTVSPost2010Prop48
 90
       50
102
RTVSPost2010PropOp48
 70
     1
102
RTVSPost2010Prop49
280
     0
102
RTVSPost2010PropOp49
 70
     1
102
RTVSPost2010Prop50
 90
       50
102
RTVSPost2010PropOp50
 70
     1
102
RTVSPost2010Prop51ColorIndex
 90
      256
102
RTVSPost2010Prop51ColorRGB
 90
-16777216
102
RTVSPost2010PropOp51
 70
     0
102
RTVSPost2010Prop52
140
1.0
102
RTVSPost2010PropOp52
 70
     0
102
RTVSPost2010Prop53
 90
        2
102
RTVSPost2010PropOp53
 70
     1
102
RTVSPost2010Prop54
  1
strokes_ogs.tif
102
RTVSPost2010PropOp54
 70
     1
102
RTVSPost2010Prop55
280
     0
102
RTVSPost2010PropOp55
 70
     1
102
RTVSPost2010Prop56
140
1.0
102
RTVSPost2010PropOp56
 70
     1
102
RTVSPost2010Prop57
140
1.0
102
RTVSPost2010PropOp57
 70
     1
102
RTVSPropertyOp0
 70
     1
102
RTVSPropertyOp1
 70
     1
102
RTVSPropertyOp2
 70
     1
102
RTVSPropertyOp3
 70
     1
102
RTVSPropertyOp4
 70
     1
102
RTVSPropertyOp5
 70
     1
102
RTVSPropertyOp6
 70
     1
102
RTVSPropertyOp7
 70
     1
102
RTVSPropertyOp8
 70
     1
102
RTVSPropertyOp9
 70
     1
102
RTVSPropertyOp10
 70
     1
102
RTVSPropertyOp11
 70
     1
102
RTVSPropertyOp12
 70
     1
102
RTVSPropertyOp13
 70
     1
102
RTVSPropertyOp14
 70
     1
102
RTVSPropertyOp15
 70
     1
102
RTVSPropertyOp16
 70
     1
102
RTVSPropertyOp17
 70
     1
102
RTVSPropertyOp18
 70
     1
102
RTVSPropertyOp19
 70
     1
102
RTVSPropertyOp20
 70
     1
102
RTVSPropertyOp21
 70
     1
102
RTVSPropertyOp22
 70
     1
102
RTVSPropertyOp23
 70
     1
102
RTVSPropertyOp24
 70
     1
102
RTVSPropertyOp25
 70
     1
102
RTVSPropertyOp26
 70
     1
102
RTVSPropertyOp27
 70
     1
102
RTVSPropertyOp28
 70
     1
102
RTVSPropertyOp29
 70
     1
102
RTVSPropertyOp30
 70
     1
102
RTVSPropertyOp31
 70
     1
102
RTVSPropertyOp32
 70
     1
102
RTVSPropertyOp33
 70
     1
102
RTVSPropertyOp34
 70
     1
102
RTVSPropertyOp35
 70
     1
102
RTVSPropertyOp36
 70
     1
102
RTVSPropertyOp37
 70
     1
102
RTVSPropertyOp38
 70
     1
102
RTVSPropertyOp39
 70
     1
102
RTVSPropertyOp40
 70
     1
102
RTVSPropertyOp41
 70
     1
102
RTVSPropertyOp42
 70
     1
102
RTVSPropertyOp43
 70
     1
102
RTVSPropertyOp44
 70
     1
102
RTVSPropertyOp45
 70
     1
102
RTVSPropertyOp46
 70
     1
102
RTVSPropertyOp47
 70
     1
102
RTVSPropertyOp48
 70
     1
102
RTVSPropertyOp49
 70
     1
102
RTVSPropertyOp50
 70
     1
102
RTVSPropertyOp51
 70
     0
102
RTVSPropertyOp52
 70
     0
102
RTVSPropertyOp53
 70
     1
102
RTVSPropertyOp54
 70
     1
102
RTVSPropertyOp55
 70
     1
102
RTVSPropertyOp56
 70
     1
102
RTVSPropertyOp57
 70
     1
102
RTVSPropertyOp58
 70
     1
102
RTVSPropertyOp59
 70
     1
102
RTVSPropertyOp60
 70
     1
102
RTVSPropertyOp61
 70
     1
102
RTVSPropertyOp62
 70
     1
  0
XRECORD
  5
3414
102
{ACAD_REACTORS
330
3413
102
}
330
3413
100
AcDbXrecord
280
     1
102
RTVSPost2010Prop28
280
     0
102
RTVSPost2010PropOp28
 70
     1
102
RTVSPost2010Prop29
280
     1
102
RTVSPost2010PropOp29
 70
     1
102
RTVSPost2010Prop30
280
     1
102
RTVSPost2010PropOp30
 70
     1
102
RTVSPost2010Prop31
280
     0
102
RTVSPost2010PropOp31
 70
     1
102
RTVSPost2010Prop32
280
     0
102
RTVSPost2010PropOp32
 70
     1
102
RTVSPost2010Prop33
280
     0
102
RTVSPost2010PropOp33
 70
     1
102
RTVSPost2010Prop34
280
     0
102
RTVSPost2010PropOp34
 70
     1
102
RTVSPost2010Prop35
280
     0
102
RTVSPost2010PropOp35
 70
     1
102
RTVSPost2010Prop36
280
     0
102
RTVSPost2010PropOp36
 70
     1
102
RTVSPost2010Prop37
 90
       50
102
RTVSPost2010PropOp37
 70
     1
102
RTVSPost2010Prop38
140
0.0
102
RTVSPost2010PropOp38
 70
     1
102
RTVSPost2010Prop39
140
1.0
102
RTVSPost2010PropOp39
 70
     1
102
RTVSPost2010Prop40
 90
        0
102
RTVSPost2010PropOp40
 70
     1
102
RTVSPost2010Prop41ColorIndex
 90
       18
102
RTVSPost2010Prop41ColorRGB
 90
        0
102
RTVSPost2010PropOp41
 70
     1
102
RTVSPost2010Prop42
 90
       50
102
RTVSPost2010PropOp42
 70
     1
102
RTVSPost2010Prop43
 90
        3
102
RTVSPost2010PropOp43
 70
     1
102
RTVSPost2010Prop44ColorIndex
 90
        5
102
RTVSPost2010Prop44ColorRGB
 90
      255
102
RTVSPost2010PropOp44
 70
     1
102
RTVSPost2010Prop45
280
     0
102
RTVSPost2010PropOp45
 70
     1
102
RTVSPost2010Prop46
 90
       50
102
RTVSPost2010PropOp46
 70
     1
102
RTVSPost2010Prop47
 90
       50
102
RTVSPost2010PropOp47
 70
     1
102
RTVSPost2010Prop48
 90
       50
102
RTVSPost2010PropOp48
 70
     1
102
RTVSPost2010Prop49
280
     0
102
RTVSPost2010PropOp49
 70
     1
102
RTVSPost2010Prop50
 90
       50
102
RTVSPost2010PropOp50
 70
     1
102
RTVSPost2010Prop51ColorIndex
 90
      256
102
RTVSPost2010Prop51ColorRGB
 90
-16777216
102
RTVSPost2010PropOp51
 70
     0
102
RTVSPost2010Prop52
140
1.0
102
RTVSPost2010PropOp52
 70
     0
102
RTVSPost2010Prop53
 90
        2
102
RTVSPost2010PropOp53
 70
     1
102
RTVSPost2010Prop54
  1
strokes_ogs.tif
102
RTVSPost2010PropOp54
 70
     1
102
RTVSPost2010Prop55
280
     0
102
RTVSPost2010PropOp55
 70
     1
102
RTVSPost2010Prop56
140
1.0
102
RTVSPost2010PropOp56
 70
     1
102
RTVSPost2010Prop57
140
1.0
102
RTVSPost2010PropOp57
 70
     1
102
RTVSPropertyOp0
 70
     1
102
RTVSPropertyOp1
 70
     1
102
RTVSPropertyOp2
 70
     1
102
RTVSPropertyOp3
 70
     1
102
RTVSPropertyOp4
 70
     1
102
RTVSPropertyOp5
 70
     1
102
RTVSPropertyOp6
 70
     1
102
RTVSPropertyOp7
 70
     1
102
RTVSPropertyOp8
 70
     1
102
RTVSPropertyOp9
 70
     1
102
RTVSPropertyOp10
 70
     1
102
RTVSPropertyOp11
 70
     1
102
RTVSPropertyOp12
 70
     1
102
RTVSPropertyOp13
 70
     1
102
RTVSPropertyOp14
 70
     1
102
RTVSPropertyOp15
 70
     1
102
RTVSPropertyOp16
 70
     1
102
RTVSPropertyOp17
 70
     1
102
RTVSPropertyOp18
 70
     1
102
RTVSPropertyOp19
 70
     1
102
RTVSPropertyOp20
 70
     1
102
RTVSPropertyOp21
 70
     1
102
RTVSPropertyOp22
 70
     1
102
RTVSPropertyOp23
 70
     1
102
RTVSPropertyOp24
 70
     1
102
RTVSPropertyOp25
 70
     1
102
RTVSPropertyOp26
 70
     1
102
RTVSPropertyOp27
 70
     1
102
RTVSPropertyOp28
 70
     1
102
RTVSPropertyOp29
 70
     1
102
RTVSPropertyOp30
 70
     1
102
RTVSPropertyOp31
 70
     1
102
RTVSPropertyOp32
 70
     1
102
RTVSPropertyOp33
 70
     1
102
RTVSPropertyOp34
 70
     1
102
RTVSPropertyOp35
 70
     1
102
RTVSPropertyOp36
 70
     1
102
RTVSPropertyOp37
 70
     1
102
RTVSPropertyOp38
 70
     1
102
RTVSPropertyOp39
 70
     1
102
RTVSPropertyOp40
 70
     1
102
RTVSPropertyOp41
 70
     1
102
RTVSPropertyOp42
 70
     1
102
RTVSPropertyOp43
 70
     1
102
RTVSPropertyOp44
 70
     1
102
RTVSPropertyOp45
 70
     1
102
RTVSPropertyOp46
 70
     1
102
RTVSPropertyOp47
 70
     1
102
RTVSPropertyOp48
 70
     1
102
RTVSPropertyOp49
 70
     1
102
RTVSPropertyOp50
 70
     1
102
RTVSPropertyOp51
 70
     0
102
RTVSPropertyOp52
 70
     0
102
RTVSPropertyOp53
 70
     1
102
RTVSPropertyOp54
 70
     1
102
RTVSPropertyOp55
 70
     1
102
RTVSPropertyOp56
 70
     1
102
RTVSPropertyOp57
 70
     1
102
RTVSPropertyOp58
 70
     1
102
RTVSPropertyOp59
 70
     1
102
RTVSPropertyOp60
 70
     1
102
RTVSPropertyOp61
 70
     1
102
RTVSPropertyOp62
 70
     1
  0
XRECORD
  5
3412
102
{ACAD_REACTORS
330
3411
102
}
330
3411
100
AcDbXrecord
280
     1
102
RTVSPost2010Prop28
280
     0
102
RTVSPost2010PropOp28
 70
     1
102
RTVSPost2010Prop29
280
     1
102
RTVSPost2010PropOp29
 70
     1
102
RTVSPost2010Prop30
280
     1
102
RTVSPost2010PropOp30
 70
     1
102
RTVSPost2010Prop31
280
     0
102
RTVSPost2010PropOp31
 70
     1
102
RTVSPost2010Prop32
280
     0
102
RTVSPost2010PropOp32
 70
     1
102
RTVSPost2010Prop33
280
     0
102
RTVSPost2010PropOp33
 70
     1
102
RTVSPost2010Prop34
280
     0
102
RTVSPost2010PropOp34
 70
     1
102
RTVSPost2010Prop35
280
     0
102
RTVSPost2010PropOp35
 70
     1
102
RTVSPost2010Prop36
280
     0
102
RTVSPost2010PropOp36
 70
     1
102
RTVSPost2010Prop37
 90
       50
102
RTVSPost2010PropOp37
 70
     1
102
RTVSPost2010Prop38
140
0.0
102
RTVSPost2010PropOp38
 70
     1
102
RTVSPost2010Prop39
140
1.0
102
RTVSPost2010PropOp39
 70
     1
102
RTVSPost2010Prop40
 90
        0
102
RTVSPost2010PropOp40
 70
     1
102
RTVSPost2010Prop41ColorIndex
 90
       18
102
RTVSPost2010Prop41ColorRGB
 90
        0
102
RTVSPost2010PropOp41
 70
     1
102
RTVSPost2010Prop42
 90
       50
102
RTVSPost2010PropOp42
 70
     1
102
RTVSPost2010Prop43
 90
        3
102
RTVSPost2010PropOp43
 70
     1
102
RTVSPost2010Prop44ColorIndex
 90
        5
102
RTVSPost2010Prop44ColorRGB
 90
      255
102
RTVSPost2010PropOp44
 70
     1
102
RTVSPost2010Prop45
280
     0
102
RTVSPost2010PropOp45
 70
     1
102
RTVSPost2010Prop46
 90
       50
102
RTVSPost2010PropOp46
 70
     1
102
RTVSPost2010Prop47
 90
       50
102
RTVSPost2010PropOp47
 70
     1
102
RTVSPost2010Prop48
 90
       50
102
RTVSPost2010PropOp48
 70
     1
102
RTVSPost2010Prop49
280
     0
102
RTVSPost2010PropOp49
 70
     1
102
RTVSPost2010Prop50
 90
       50
102
RTVSPost2010PropOp50
 70
     1
102
RTVSPost2010Prop51ColorIndex
 90
      256
102
RTVSPost2010Prop51ColorRGB
 90
-16777216
102
RTVSPost2010PropOp51
 70
     0
102
RTVSPost2010Prop52
140
1.0
102
RTVSPost2010PropOp52
 70
     0
102
RTVSPost2010Prop53
 90
        2
102
RTVSPost2010PropOp53
 70
     1
102
RTVSPost2010Prop54
  1
strokes_ogs.tif
102
RTVSPost2010PropOp54
 70
     1
102
RTVSPost2010Prop55
280
     0
102
RTVSPost2010PropOp55
 70
     1
102
RTVSPost2010Prop56
140
1.0
102
RTVSPost2010PropOp56
 70
     1
102
RTVSPost2010Prop57
140
1.0
102
RTVSPost2010PropOp57
 70
     1
102
RTVSPropertyOp0
 70
     1
102
RTVSPropertyOp1
 70
     1
102
RTVSPropertyOp2
 70
     1
102
RTVSPropertyOp3
 70
     1
102
RTVSPropertyOp4
 70
     1
102
RTVSPropertyOp5
 70
     1
102
RTVSPropertyOp6
 70
     1
102
RTVSPropertyOp7
 70
     1
102
RTVSPropertyOp8
 70
     1
102
RTVSPropertyOp9
 70
     1
102
RTVSPropertyOp10
 70
     1
102
RTVSPropertyOp11
 70
     1
102
RTVSPropertyOp12
 70
     1
102
RTVSPropertyOp13
 70
     1
102
RTVSPropertyOp14
 70
     1
102
RTVSPropertyOp15
 70
     1
102
RTVSPropertyOp16
 70
     1
102
RTVSPropertyOp17
 70
     1
102
RTVSPropertyOp18
 70
     1
102
RTVSPropertyOp19
 70
     1
102
RTVSPropertyOp20
 70
     1
102
RTVSPropertyOp21
 70
     1
102
RTVSPropertyOp22
 70
     1
102
RTVSPropertyOp23
 70
     1
102
RTVSPropertyOp24
 70
     1
102
RTVSPropertyOp25
 70
     1
102
RTVSPropertyOp26
 70
     1
102
RTVSPropertyOp27
 70
     1
102
RTVSPropertyOp28
 70
     1
102
RTVSPropertyOp29
 70
     1
102
RTVSPropertyOp30
 70
     1
102
RTVSPropertyOp31
 70
     1
102
RTVSPropertyOp32
 70
     1
102
RTVSPropertyOp33
 70
     1
102
RTVSPropertyOp34
 70
     1
102
RTVSPropertyOp35
 70
     1
102
RTVSPropertyOp36
 70
     1
102
RTVSPropertyOp37
 70
     1
102
RTVSPropertyOp38
 70
     1
102
RTVSPropertyOp39
 70
     1
102
RTVSPropertyOp40
 70
     1
102
RTVSPropertyOp41
 70
     1
102
RTVSPropertyOp42
 70
     1
102
RTVSPropertyOp43
 70
     1
102
RTVSPropertyOp44
 70
     1
102
RTVSPropertyOp45
 70
     1
102
RTVSPropertyOp46
 70
     1
102
RTVSPropertyOp47
 70
     1
102
RTVSPropertyOp48
 70
     1
102
RTVSPropertyOp49
 70
     1
102
RTVSPropertyOp50
 70
     1
102
RTVSPropertyOp51
 70
     0
102
RTVSPropertyOp52
 70
     0
102
RTVSPropertyOp53
 70
     1
102
RTVSPropertyOp54
 70
     1
102
RTVSPropertyOp55
 70
     1
102
RTVSPropertyOp56
 70
     1
102
RTVSPropertyOp57
 70
     1
102
RTVSPropertyOp58
 70
     1
102
RTVSPropertyOp59
 70
     1
102
RTVSPropertyOp60
 70
     1
102
RTVSPropertyOp61
 70
     1
102
RTVSPropertyOp62
 70
     1
  0
XRECORD
  5
340C
102
{ACAD_REACTORS
330
340B
102
}
330
340B
100
AcDbXrecord
280
     1
102
RTVSPost2010Prop28
280
     0
102
RTVSPost2010PropOp28
 70
     1
102
RTVSPost2010Prop29
280
     1
102
RTVSPost2010PropOp29
 70
     1
102
RTVSPost2010Prop30
280
     1
102
RTVSPost2010PropOp30
 70
     1
102
RTVSPost2010Prop31
280
     0
102
RTVSPost2010PropOp31
 70
     1
102
RTVSPost2010Prop32
280
     0
102
RTVSPost2010PropOp32
 70
     1
102
RTVSPost2010Prop33
280
     0
102
RTVSPost2010PropOp33
 70
     1
102
RTVSPost2010Prop34
280
     0
102
RTVSPost2010PropOp34
 70
     1
102
RTVSPost2010Prop35
280
     0
102
RTVSPost2010PropOp35
 70
     1
102
RTVSPost2010Prop36
280
     0
102
RTVSPost2010PropOp36
 70
     1
102
RTVSPost2010Prop37
 90
       50
102
RTVSPost2010PropOp37
 70
     1
102
RTVSPost2010Prop38
140
0.0
102
RTVSPost2010PropOp38
 70
     1
102
RTVSPost2010Prop39
140
1.0
102
RTVSPost2010PropOp39
 70
     1
102
RTVSPost2010Prop40
 90
        0
102
RTVSPost2010PropOp40
 70
     1
102
RTVSPost2010Prop41ColorIndex
 90
       18
102
RTVSPost2010Prop41ColorRGB
 90
        0
102
RTVSPost2010PropOp41
 70
     1
102
RTVSPost2010Prop42
 90
       50
102
RTVSPost2010PropOp42
 70
     1
102
RTVSPost2010Prop43
 90
        3
102
RTVSPost2010PropOp43
 70
     1
102
RTVSPost2010Prop44ColorIndex
 90
        5
102
RTVSPost2010Prop44ColorRGB
 90
      255
102
RTVSPost2010PropOp44
 70
     1
102
RTVSPost2010Prop45
280
     0
102
RTVSPost2010PropOp45
 70
     1
102
RTVSPost2010Prop46
 90
       50
102
RTVSPost2010PropOp46
 70
     1
102
RTVSPost2010Prop47
 90
       50
102
RTVSPost2010PropOp47
 70
     1
102
RTVSPost2010Prop48
 90
       50
102
RTVSPost2010PropOp48
 70
     1
102
RTVSPost2010Prop49
280
     0
102
RTVSPost2010PropOp49
 70
     1
102
RTVSPost2010Prop50
 90
       50
102
RTVSPost2010PropOp50
 70
     1
102
RTVSPost2010Prop51ColorIndex
 90
      256
102
RTVSPost2010Prop51ColorRGB
 90
-16777216
102
RTVSPost2010PropOp51
 70
     0
102
RTVSPost2010Prop52
140
1.0
102
RTVSPost2010PropOp52
 70
     0
102
RTVSPost2010Prop53
 90
        2
102
RTVSPost2010PropOp53
 70
     1
102
RTVSPost2010Prop54
  1
strokes_ogs.tif
102
RTVSPost2010PropOp54
 70
     1
102
RTVSPost2010Prop55
280
     0
102
RTVSPost2010PropOp55
 70
     1
102
RTVSPost2010Prop56
140
1.0
102
RTVSPost2010PropOp56
 70
     1
102
RTVSPost2010Prop57
140
1.0
102
RTVSPost2010PropOp57
 70
     1
102
RTVSPropertyOp0
 70
     1
102
RTVSPropertyOp1
 70
     1
102
RTVSPropertyOp2
 70
     1
102
RTVSPropertyOp3
 70
     1
102
RTVSPropertyOp4
 70
     1
102
RTVSPropertyOp5
 70
     1
102
RTVSPropertyOp6
 70
     1
102
RTVSPropertyOp7
 70
     1
102
RTVSPropertyOp8
 70
     1
102
RTVSPropertyOp9
 70
     1
102
RTVSPropertyOp10
 70
     1
102
RTVSPropertyOp11
 70
     1
102
RTVSPropertyOp12
 70
     1
102
RTVSPropertyOp13
 70
     1
102
RTVSPropertyOp14
 70
     1
102
RTVSPropertyOp15
 70
     1
102
RTVSPropertyOp16
 70
     1
102
RTVSPropertyOp17
 70
     1
102
RTVSPropertyOp18
 70
     1
102
RTVSPropertyOp19
 70
     1
102
RTVSPropertyOp20
 70
     1
102
RTVSPropertyOp21
 70
     1
102
RTVSPropertyOp22
 70
     1
102
RTVSPropertyOp23
 70
     1
102
RTVSPropertyOp24
 70
     1
102
RTVSPropertyOp25
 70
     1
102
RTVSPropertyOp26
 70
     1
102
RTVSPropertyOp27
 70
     1
102
RTVSPropertyOp28
 70
     1
102
RTVSPropertyOp29
 70
     1
102
RTVSPropertyOp30
 70
     1
102
RTVSPropertyOp31
 70
     1
102
RTVSPropertyOp32
 70
     1
102
RTVSPropertyOp33
 70
     1
102
RTVSPropertyOp34
 70
     1
102
RTVSPropertyOp35
 70
     1
102
RTVSPropertyOp36
 70
     1
102
RTVSPropertyOp37
 70
     1
102
RTVSPropertyOp38
 70
     1
102
RTVSPropertyOp39
 70
     1
102
RTVSPropertyOp40
 70
     1
102
RTVSPropertyOp41
 70
     1
102
RTVSPropertyOp42
 70
     1
102
RTVSPropertyOp43
 70
     1
102
RTVSPropertyOp44
 70
     1
102
RTVSPropertyOp45
 70
     1
102
RTVSPropertyOp46
 70
     1
102
RTVSPropertyOp47
 70
     1
102
RTVSPropertyOp48
 70
     1
102
RTVSPropertyOp49
 70
     1
102
RTVSPropertyOp50
 70
     1
102
RTVSPropertyOp51
 70
     0
102
RTVSPropertyOp52
 70
     0
102
RTVSPropertyOp53
 70
     1
102
RTVSPropertyOp54
 70
     1
102
RTVSPropertyOp55
 70
     1
102
RTVSPropertyOp56
 70
     1
102
RTVSPropertyOp57
 70
     1
102
RTVSPropertyOp58
 70
     1
102
RTVSPropertyOp59
 70
     1
102
RTVSPropertyOp60
 70
     1
102
RTVSPropertyOp61
 70
     1
102
RTVSPropertyOp62
 70
     1
  0
XRECORD
  5
340E
102
{ACAD_REACTORS
330
340D
102
}
330
340D
100
AcDbXrecord
280
     1
102
RTVSPost2010Prop28
280
     0
102
RTVSPost2010PropOp28
 70
     1
102
RTVSPost2010Prop29
280
     1
102
RTVSPost2010PropOp29
 70
     1
102
RTVSPost2010Prop30
280
     1
102
RTVSPost2010PropOp30
 70
     1
102
RTVSPost2010Prop31
280
     0
102
RTVSPost2010PropOp31
 70
     1
102
RTVSPost2010Prop32
280
     0
102
RTVSPost2010PropOp32
 70
     1
102
RTVSPost2010Prop33
280
     0
102
RTVSPost2010PropOp33
 70
     1
102
RTVSPost2010Prop34
280
     0
102
RTVSPost2010PropOp34
 70
     1
102
RTVSPost2010Prop35
280
     0
102
RTVSPost2010PropOp35
 70
     1
102
RTVSPost2010Prop36
280
     0
102
RTVSPost2010PropOp36
 70
     1
102
RTVSPost2010Prop37
 90
       50
102
RTVSPost2010PropOp37
 70
     1
102
RTVSPost2010Prop38
140
0.0
102
RTVSPost2010PropOp38
 70
     1
102
RTVSPost2010Prop39
140
1.0
102
RTVSPost2010PropOp39
 70
     1
102
RTVSPost2010Prop40
 90
        0
102
RTVSPost2010PropOp40
 70
     1
102
RTVSPost2010Prop41ColorIndex
 90
       18
102
RTVSPost2010Prop41ColorRGB
 90
        0
102
RTVSPost2010PropOp41
 70
     1
102
RTVSPost2010Prop42
 90
       50
102
RTVSPost2010PropOp42
 70
     1
102
RTVSPost2010Prop43
 90
        3
102
RTVSPost2010PropOp43
 70
     1
102
RTVSPost2010Prop44ColorIndex
 90
        5
102
RTVSPost2010Prop44ColorRGB
 90
      255
102
RTVSPost2010PropOp44
 70
     1
102
RTVSPost2010Prop45
280
     0
102
RTVSPost2010PropOp45
 70
     1
102
RTVSPost2010Prop46
 90
       50
102
RTVSPost2010PropOp46
 70
     1
102
RTVSPost2010Prop47
 90
       50
102
RTVSPost2010PropOp47
 70
     1
102
RTVSPost2010Prop48
 90
       50
102
RTVSPost2010PropOp48
 70
     1
102
RTVSPost2010Prop49
280
     0
102
RTVSPost2010PropOp49
 70
     1
102
RTVSPost2010Prop50
 90
       50
102
RTVSPost2010PropOp50
 70
     1
102
RTVSPost2010Prop51ColorIndex
 90
      256
102
RTVSPost2010Prop51ColorRGB
 90
-16777216
102
RTVSPost2010PropOp51
 70
     0
102
RTVSPost2010Prop52
140
1.0
102
RTVSPost2010PropOp52
 70
     0
102
RTVSPost2010Prop53
 90
        2
102
RTVSPost2010PropOp53
 70
     1
102
RTVSPost2010Prop54
  1
strokes_ogs.tif
102
RTVSPost2010PropOp54
 70
     1
102
RTVSPost2010Prop55
280
     0
102
RTVSPost2010PropOp55
 70
     1
102
RTVSPost2010Prop56
140
1.0
102
RTVSPost2010PropOp56
 70
     1
102
RTVSPost2010Prop57
140
1.0
102
RTVSPost2010PropOp57
 70
     1
102
RTVSPropertyOp0
 70
     1
102
RTVSPropertyOp1
 70
     1
102
RTVSPropertyOp2
 70
     1
102
RTVSPropertyOp3
 70
     1
102
RTVSPropertyOp4
 70
     1
102
RTVSPropertyOp5
 70
     1
102
RTVSPropertyOp6
 70
     1
102
RTVSPropertyOp7
 70
     1
102
RTVSPropertyOp8
 70
     1
102
RTVSPropertyOp9
 70
     1
102
RTVSPropertyOp10
 70
     1
102
RTVSPropertyOp11
 70
     1
102
RTVSPropertyOp12
 70
     1
102
RTVSPropertyOp13
 70
     1
102
RTVSPropertyOp14
 70
     1
102
RTVSPropertyOp15
 70
     1
102
RTVSPropertyOp16
 70
     1
102
RTVSPropertyOp17
 70
     1
102
RTVSPropertyOp18
 70
     1
102
RTVSPropertyOp19
 70
     1
102
RTVSPropertyOp20
 70
     1
102
RTVSPropertyOp21
 70
     1
102
RTVSPropertyOp22
 70
     1
102
RTVSPropertyOp23
 70
     1
102
RTVSPropertyOp24
 70
     1
102
RTVSPropertyOp25
 70
     1
102
RTVSPropertyOp26
 70
     1
102
RTVSPropertyOp27
 70
     1
102
RTVSPropertyOp28
 70
     1
102
RTVSPropertyOp29
 70
     1
102
RTVSPropertyOp30
 70
     1
102
RTVSPropertyOp31
 70
     1
102
RTVSPropertyOp32
 70
     1
102
RTVSPropertyOp33
 70
     1
102
RTVSPropertyOp34
 70
     1
102
RTVSPropertyOp35
 70
     1
102
RTVSPropertyOp36
 70
     1
102
RTVSPropertyOp37
 70
     1
102
RTVSPropertyOp38
 70
     1
102
RTVSPropertyOp39
 70
     1
102
RTVSPropertyOp40
 70
     1
102
RTVSPropertyOp41
 70
     1
102
RTVSPropertyOp42
 70
     1
102
RTVSPropertyOp43
 70
     1
102
RTVSPropertyOp44
 70
     1
102
RTVSPropertyOp45
 70
     1
102
RTVSPropertyOp46
 70
     1
102
RTVSPropertyOp47
 70
     1
102
RTVSPropertyOp48
 70
     1
102
RTVSPropertyOp49
 70
     1
102
RTVSPropertyOp50
 70
     1
102
RTVSPropertyOp51
 70
     0
102
RTVSPropertyOp52
 70
     0
102
RTVSPropertyOp53
 70
     1
102
RTVSPropertyOp54
 70
     1
102
RTVSPropertyOp55
 70
     1
102
RTVSPropertyOp56
 70
     1
102
RTVSPropertyOp57
 70
     1
102
RTVSPropertyOp58
 70
     1
102
RTVSPropertyOp59
 70
     1
102
RTVSPropertyOp60
 70
     1
102
RTVSPropertyOp61
 70
     1
102
RTVSPropertyOp62
 70
     1
  0
XRECORD
  5
33FF
102
{ACAD_REACTORS
330
33FE
102
}
330
33FE
100
AcDbXrecord
280
     1
102
RTVSPost2010Prop28
280
     0
102
RTVSPost2010PropOp28
 70
     1
102
RTVSPost2010Prop29
280
     1
102
RTVSPost2010PropOp29
 70
     1
102
RTVSPost2010Prop30
280
     1
102
RTVSPost2010PropOp30
 70
     1
102
RTVSPost2010Prop31
280
     0
102
RTVSPost2010PropOp31
 70
     1
102
RTVSPost2010Prop32
280
     0
102
RTVSPost2010PropOp32
 70
     1
102
RTVSPost2010Prop33
280
     0
102
RTVSPost2010PropOp33
 70
     1
102
RTVSPost2010Prop34
280
     0
102
RTVSPost2010PropOp34
 70
     1
102
RTVSPost2010Prop35
280
     0
102
RTVSPost2010PropOp35
 70
     1
102
RTVSPost2010Prop36
280
     0
102
RTVSPost2010PropOp36
 70
     1
102
RTVSPost2010Prop37
 90
       50
102
RTVSPost2010PropOp37
 70
     1
102
RTVSPost2010Prop38
140
0.0
102
RTVSPost2010PropOp38
 70
     1
102
RTVSPost2010Prop39
140
1.0
102
RTVSPost2010PropOp39
 70
     1
102
RTVSPost2010Prop40
 90
        0
102
RTVSPost2010PropOp40
 70
     1
102
RTVSPost2010Prop41ColorIndex
 90
       18
102
RTVSPost2010Prop41ColorRGB
 90
        0
102
RTVSPost2010PropOp41
 70
     1
102
RTVSPost2010Prop42
 90
       50
102
RTVSPost2010PropOp42
 70
     1
102
RTVSPost2010Prop43
 90
        3
102
RTVSPost2010PropOp43
 70
     1
102
RTVSPost2010Prop44ColorIndex
 90
        5
102
RTVSPost2010Prop44ColorRGB
 90
      255
102
RTVSPost2010PropOp44
 70
     1
102
RTVSPost2010Prop45
280
     0
102
RTVSPost2010PropOp45
 70
     1
102
RTVSPost2010Prop46
 90
       50
102
RTVSPost2010PropOp46
 70
     1
102
RTVSPost2010Prop47
 90
       50
102
RTVSPost2010PropOp47
 70
     1
102
RTVSPost2010Prop48
 90
       50
102
RTVSPost2010PropOp48
 70
     1
102
RTVSPost2010Prop49
280
     0
102
RTVSPost2010PropOp49
 70
     1
102
RTVSPost2010Prop50
 90
       50
102
RTVSPost2010PropOp50
 70
     1
102
RTVSPost2010Prop51ColorIndex
 90
      256
102
RTVSPost2010Prop51ColorRGB
 90
-16777216
102
RTVSPost2010PropOp51
 70
     0
102
RTVSPost2010Prop52
140
1.0
102
RTVSPost2010PropOp52
 70
     0
102
RTVSPost2010Prop53
 90
        2
102
RTVSPost2010PropOp53
 70
     1
102
RTVSPost2010Prop54
  1
strokes_ogs.tif
102
RTVSPost2010PropOp54
 70
     1
102
RTVSPost2010Prop55
280
     0
102
RTVSPost2010PropOp55
 70
     1
102
RTVSPost2010Prop56
140
1.0
102
RTVSPost2010PropOp56
 70
     1
102
RTVSPost2010Prop57
140
1.0
102
RTVSPost2010PropOp57
 70
     1
102
RTVSPropertyOp0
 70
     1
102
RTVSPropertyOp1
 70
     1
102
RTVSPropertyOp2
 70
     1
102
RTVSPropertyOp3
 70
     1
102
RTVSPropertyOp4
 70
     1
102
RTVSPropertyOp5
 70
     1
102
RTVSPropertyOp6
 70
     1
102
RTVSPropertyOp7
 70
     1
102
RTVSPropertyOp8
 70
     1
102
RTVSPropertyOp9
 70
     1
102
RTVSPropertyOp10
 70
     1
102
RTVSPropertyOp11
 70
     1
102
RTVSPropertyOp12
 70
     1
102
RTVSPropertyOp13
 70
     1
102
RTVSPropertyOp14
 70
     1
102
RTVSPropertyOp15
 70
     1
102
RTVSPropertyOp16
 70
     1
102
RTVSPropertyOp17
 70
     1
102
RTVSPropertyOp18
 70
     1
102
RTVSPropertyOp19
 70
     1
102
RTVSPropertyOp20
 70
     1
102
RTVSPropertyOp21
 70
     1
102
RTVSPropertyOp22
 70
     1
102
RTVSPropertyOp23
 70
     1
102
RTVSPropertyOp24
 70
     1
102
RTVSPropertyOp25
 70
     1
102
RTVSPropertyOp26
 70
     1
102
RTVSPropertyOp27
 70
     1
102
RTVSPropertyOp28
 70
     1
102
RTVSPropertyOp29
 70
     1
102
RTVSPropertyOp30
 70
     1
102
RTVSPropertyOp31
 70
     1
102
RTVSPropertyOp32
 70
     1
102
RTVSPropertyOp33
 70
     1
102
RTVSPropertyOp34
 70
     1
102
RTVSPropertyOp35
 70
     1
102
RTVSPropertyOp36
 70
     1
102
RTVSPropertyOp37
 70
     1
102
RTVSPropertyOp38
 70
     1
102
RTVSPropertyOp39
 70
     1
102
RTVSPropertyOp40
 70
     1
102
RTVSPropertyOp41
 70
     1
102
RTVSPropertyOp42
 70
     1
102
RTVSPropertyOp43
 70
     1
102
RTVSPropertyOp44
 70
     1
102
RTVSPropertyOp45
 70
     1
102
RTVSPropertyOp46
 70
     1
102
RTVSPropertyOp47
 70
     1
102
RTVSPropertyOp48
 70
     1
102
RTVSPropertyOp49
 70
     1
102
RTVSPropertyOp50
 70
     1
102
RTVSPropertyOp51
 70
     0
102
RTVSPropertyOp52
 70
     0
102
RTVSPropertyOp53
 70
     1
102
RTVSPropertyOp54
 70
     1
102
RTVSPropertyOp55
 70
     1
102
RTVSPropertyOp56
 70
     1
102
RTVSPropertyOp57
 70
     1
102
RTVSPropertyOp58
 70
     1
102
RTVSPropertyOp59
 70
     1
102
RTVSPropertyOp60
 70
     1
102
RTVSPropertyOp61
 70
     1
102
RTVSPropertyOp62
 70
     1
  0
XRECORD
  5
3408
102
{ACAD_REACTORS
330
3407
102
}
330
3407
100
AcDbXrecord
280
     1
102
RTVSPost2010Prop28
280
     0
102
RTVSPost2010PropOp28
 70
     1
102
RTVSPost2010Prop29
280
     1
102
RTVSPost2010PropOp29
 70
     1
102
RTVSPost2010Prop30
280
     1
102
RTVSPost2010PropOp30
 70
     1
102
RTVSPost2010Prop31
280
     0
102
RTVSPost2010PropOp31
 70
     1
102
RTVSPost2010Prop32
280
     0
102
RTVSPost2010PropOp32
 70
     1
102
RTVSPost2010Prop33
280
     0
102
RTVSPost2010PropOp33
 70
     1
102
RTVSPost2010Prop34
280
     0
102
RTVSPost2010PropOp34
 70
     1
102
RTVSPost2010Prop35
280
     0
102
RTVSPost2010PropOp35
 70
     1
102
RTVSPost2010Prop36
280
     0
102
RTVSPost2010PropOp36
 70
     1
102
RTVSPost2010Prop37
 90
       50
102
RTVSPost2010PropOp37
 70
     1
102
RTVSPost2010Prop38
140
0.0
102
RTVSPost2010PropOp38
 70
     1
102
RTVSPost2010Prop39
140
1.0
102
RTVSPost2010PropOp39
 70
     1
102
RTVSPost2010Prop40
 90
        0
102
RTVSPost2010PropOp40
 70
     1
102
RTVSPost2010Prop41ColorIndex
 90
       18
102
RTVSPost2010Prop41ColorRGB
 90
        0
102
RTVSPost2010PropOp41
 70
     1
102
RTVSPost2010Prop42
 90
       50
102
RTVSPost2010PropOp42
 70
     1
102
RTVSPost2010Prop43
 90
        3
102
RTVSPost2010PropOp43
 70
     1
102
RTVSPost2010Prop44ColorIndex
 90
        5
102
RTVSPost2010Prop44ColorRGB
 90
      255
102
RTVSPost2010PropOp44
 70
     1
102
RTVSPost2010Prop45
280
     0
102
RTVSPost2010PropOp45
 70
     1
102
RTVSPost2010Prop46
 90
       50
102
RTVSPost2010PropOp46
 70
     1
102
RTVSPost2010Prop47
 90
       50
102
RTVSPost2010PropOp47
 70
     1
102
RTVSPost2010Prop48
 90
       50
102
RTVSPost2010PropOp48
 70
     1
102
RTVSPost2010Prop49
280
     0
102
RTVSPost2010PropOp49
 70
     1
102
RTVSPost2010Prop50
 90
       50
102
RTVSPost2010PropOp50
 70
     1
102
RTVSPost2010Prop51ColorIndex
 90
      256
102
RTVSPost2010Prop51ColorRGB
 90
-16777216
102
RTVSPost2010PropOp51
 70
     0
102
RTVSPost2010Prop52
140
1.0
102
RTVSPost2010PropOp52
 70
     0
102
RTVSPost2010Prop53
 90
        2
102
RTVSPost2010PropOp53
 70
     1
102
RTVSPost2010Prop54
  1
strokes_ogs.tif
102
RTVSPost2010PropOp54
 70
     1
102
RTVSPost2010Prop55
280
     0
102
RTVSPost2010PropOp55
 70
     1
102
RTVSPost2010Prop56
140
1.0
102
RTVSPost2010PropOp56
 70
     1
102
RTVSPost2010Prop57
140
1.0
102
RTVSPost2010PropOp57
 70
     1
102
RTVSPropertyOp0
 70
     1
102
RTVSPropertyOp1
 70
     1
102
RTVSPropertyOp2
 70
     1
102
RTVSPropertyOp3
 70
     1
102
RTVSPropertyOp4
 70
     1
102
RTVSPropertyOp5
 70
     1
102
RTVSPropertyOp6
 70
     1
102
RTVSPropertyOp7
 70
     1
102
RTVSPropertyOp8
 70
     1
102
RTVSPropertyOp9
 70
     1
102
RTVSPropertyOp10
 70
     1
102
RTVSPropertyOp11
 70
     1
102
RTVSPropertyOp12
 70
     1
102
RTVSPropertyOp13
 70
     1
102
RTVSPropertyOp14
 70
     1
102
RTVSPropertyOp15
 70
     1
102
RTVSPropertyOp16
 70
     1
102
RTVSPropertyOp17
 70
     1
102
RTVSPropertyOp18
 70
     1
102
RTVSPropertyOp19
 70
     1
102
RTVSPropertyOp20
 70
     1
102
RTVSPropertyOp21
 70
     1
102
RTVSPropertyOp22
 70
     1
102
RTVSPropertyOp23
 70
     1
102
RTVSPropertyOp24
 70
     1
102
RTVSPropertyOp25
 70
     1
102
RTVSPropertyOp26
 70
     1
102
RTVSPropertyOp27
 70
     1
102
RTVSPropertyOp28
 70
     1
102
RTVSPropertyOp29
 70
     1
102
RTVSPropertyOp30
 70
     1
102
RTVSPropertyOp31
 70
     1
102
RTVSPropertyOp32
 70
     1
102
RTVSPropertyOp33
 70
     1
102
RTVSPropertyOp34
 70
     1
102
RTVSPropertyOp35
 70
     1
102
RTVSPropertyOp36
 70
     1
102
RTVSPropertyOp37
 70
     1
102
RTVSPropertyOp38
 70
     1
102
RTVSPropertyOp39
 70
     1
102
RTVSPropertyOp40
 70
     1
102
RTVSPropertyOp41
 70
     1
102
RTVSPropertyOp42
 70
     1
102
RTVSPropertyOp43
 70
     1
102
RTVSPropertyOp44
 70
     1
102
RTVSPropertyOp45
 70
     1
102
RTVSPropertyOp46
 70
     1
102
RTVSPropertyOp47
 70
     1
102
RTVSPropertyOp48
 70
     1
102
RTVSPropertyOp49
 70
     1
102
RTVSPropertyOp50
 70
     1
102
RTVSPropertyOp51
 70
     0
102
RTVSPropertyOp52
 70
     0
102
RTVSPropertyOp53
 70
     1
102
RTVSPropertyOp54
 70
     1
102
RTVSPropertyOp55
 70
     1
102
RTVSPropertyOp56
 70
     1
102
RTVSPropertyOp57
 70
     1
102
RTVSPropertyOp58
 70
     1
102
RTVSPropertyOp59
 70
     1
102
RTVSPropertyOp60
 70
     1
102
RTVSPropertyOp61
 70
     1
102
RTVSPropertyOp62
 70
     1
  0
XRECORD
  5
3410
102
{ACAD_REACTORS
330
340F
102
}
330
340F
100
AcDbXrecord
280
     1
102
RTVSPost2010Prop28
280
     0
102
RTVSPost2010PropOp28
 70
     1
102
RTVSPost2010Prop29
280
     1
102
RTVSPost2010PropOp29
 70
     1
102
RTVSPost2010Prop30
280
     1
102
RTVSPost2010PropOp30
 70
     1
102
RTVSPost2010Prop31
280
     0
102
RTVSPost2010PropOp31
 70
     1
102
RTVSPost2010Prop32
280
     0
102
RTVSPost2010PropOp32
 70
     1
102
RTVSPost2010Prop33
280
     0
102
RTVSPost2010PropOp33
 70
     1
102
RTVSPost2010Prop34
280
     0
102
RTVSPost2010PropOp34
 70
     1
102
RTVSPost2010Prop35
280
     0
102
RTVSPost2010PropOp35
 70
     1
102
RTVSPost2010Prop36
280
     0
102
RTVSPost2010PropOp36
 70
     1
102
RTVSPost2010Prop37
 90
       50
102
RTVSPost2010PropOp37
 70
     1
102
RTVSPost2010Prop38
140
0.0
102
RTVSPost2010PropOp38
 70
     1
102
RTVSPost2010Prop39
140
1.0
102
RTVSPost2010PropOp39
 70
     1
102
RTVSPost2010Prop40
 90
        0
102
RTVSPost2010PropOp40
 70
     1
102
RTVSPost2010Prop41ColorIndex
 90
       18
102
RTVSPost2010Prop41ColorRGB
 90
        0
102
RTVSPost2010PropOp41
 70
     1
102
RTVSPost2010Prop42
 90
       50
102
RTVSPost2010PropOp42
 70
     1
102
RTVSPost2010Prop43
 90
        3
102
RTVSPost2010PropOp43
 70
     1
102
RTVSPost2010Prop44ColorIndex
 90
        5
102
RTVSPost2010Prop44ColorRGB
 90
      255
102
RTVSPost2010PropOp44
 70
     1
102
RTVSPost2010Prop45
280
     0
102
RTVSPost2010PropOp45
 70
     1
102
RTVSPost2010Prop46
 90
       50
102
RTVSPost2010PropOp46
 70
     1
102
RTVSPost2010Prop47
 90
       50
102
RTVSPost2010PropOp47
 70
     1
102
RTVSPost2010Prop48
 90
       50
102
RTVSPost2010PropOp48
 70
     1
102
RTVSPost2010Prop49
280
     0
102
RTVSPost2010PropOp49
 70
     1
102
RTVSPost2010Prop50
 90
       50
102
RTVSPost2010PropOp50
 70
     1
102
RTVSPost2010Prop51ColorIndex
 90
      256
102
RTVSPost2010Prop51ColorRGB
 90
-16777216
102
RTVSPost2010PropOp51
 70
     0
102
RTVSPost2010Prop52
140
1.0
102
RTVSPost2010PropOp52
 70
     0
102
RTVSPost2010Prop53
 90
        2
102
RTVSPost2010PropOp53
 70
     1
102
RTVSPost2010Prop54
  1
strokes_ogs.tif
102
RTVSPost2010PropOp54
 70
     1
102
RTVSPost2010Prop55
280
     0
102
RTVSPost2010PropOp55
 70
     1
102
RTVSPost2010Prop56
140
1.0
102
RTVSPost2010PropOp56
 70
     1
102
RTVSPost2010Prop57
140
1.0
102
RTVSPost2010PropOp57
 70
     1
102
RTVSPropertyOp0
 70
     1
102
RTVSPropertyOp1
 70
     1
102
RTVSPropertyOp2
 70
     1
102
RTVSPropertyOp3
 70
     1
102
RTVSPropertyOp4
 70
     1
102
RTVSPropertyOp5
 70
     1
102
RTVSPropertyOp6
 70
     1
102
RTVSPropertyOp7
 70
     1
102
RTVSPropertyOp8
 70
     1
102
RTVSPropertyOp9
 70
     1
102
RTVSPropertyOp10
 70
     1
102
RTVSPropertyOp11
 70
     1
102
RTVSPropertyOp12
 70
     1
102
RTVSPropertyOp13
 70
     1
102
RTVSPropertyOp14
 70
     1
102
RTVSPropertyOp15
 70
     1
102
RTVSPropertyOp16
 70
     1
102
RTVSPropertyOp17
 70
     1
102
RTVSPropertyOp18
 70
     1
102
RTVSPropertyOp19
 70
     1
102
RTVSPropertyOp20
 70
     1
102
RTVSPropertyOp21
 70
     1
102
RTVSPropertyOp22
 70
     1
102
RTVSPropertyOp23
 70
     1
102
RTVSPropertyOp24
 70
     1
102
RTVSPropertyOp25
 70
     1
102
RTVSPropertyOp26
 70
     1
102
RTVSPropertyOp27
 70
     1
102
RTVSPropertyOp28
 70
     1
102
RTVSPropertyOp29
 70
     1
102
RTVSPropertyOp30
 70
     1
102
RTVSPropertyOp31
 70
     1
102
RTVSPropertyOp32
 70
     1
102
RTVSPropertyOp33
 70
     1
102
RTVSPropertyOp34
 70
     1
102
RTVSPropertyOp35
 70
     1
102
RTVSPropertyOp36
 70
     1
102
RTVSPropertyOp37
 70
     1
102
RTVSPropertyOp38
 70
     1
102
RTVSPropertyOp39
 70
     1
102
RTVSPropertyOp40
 70
     1
102
RTVSPropertyOp41
 70
     1
102
RTVSPropertyOp42
 70
     1
102
RTVSPropertyOp43
 70
     1
102
RTVSPropertyOp44
 70
     1
102
RTVSPropertyOp45
 70
     1
102
RTVSPropertyOp46
 70
     1
102
RTVSPropertyOp47
 70
     1
102
RTVSPropertyOp48
 70
     1
102
RTVSPropertyOp49
 70
     1
102
RTVSPropertyOp50
 70
     1
102
RTVSPropertyOp51
 70
     0
102
RTVSPropertyOp52
 70
     0
102
RTVSPropertyOp53
 70
     1
102
RTVSPropertyOp54
 70
     1
102
RTVSPropertyOp55
 70
     1
102
RTVSPropertyOp56
 70
     1
102
RTVSPropertyOp57
 70
     1
102
RTVSPropertyOp58
 70
     1
102
RTVSPropertyOp59
 70
     1
102
RTVSPropertyOp60
 70
     1
102
RTVSPropertyOp61
 70
     1
102
RTVSPropertyOp62
 70
     1
  0
ENDSEC
  0
EOF
