  0
SECTION
  2
HEADER
  9
$ACADVER
  1
AC1012
  9
$DWGCODEPAGE
  3
dos932
  9
$INSBASE
 10
0.0
 20
0.0
 30
0.0
  9
$EXTMIN
 10
66.0
 20
30.0
 30
0.0
  9
$EXTMAX
 10
1716.0
 20
1146.0
 30
0.0
  9
$LIMMIN
 10
0.0
 20
0.0
  9
$LIMMAX
 10
1782.0
 20
1260.0
  9
$ORTHOMODE
 70
     1
  9
$REGENMODE
 70
     1
  9
$FILLMODE
 70
     1
  9
$QTEXTMODE
 70
     0
  9
$MIRRTEXT
 70
     1
  9
$DRAGMODE
 70
     2
  9
$LTSCALE
 40
24.0
  9
$OSMODE
 70
   163
  9
$ATTMODE
 70
     1
  9
$TEXTSIZE
 40
24.0
  9
$TRACEWID
 40
0.05
  9
$TEXTSTYLE
  7
STANDARD
  9
$CLAYER
  8
0
  9
$CELTYPE
  6
BYLAYER
  9
$CECOLOR
 62
   256
  9
$CELTSCALE
 40
1.0
  9
$DELOBJ
 70
     1
  9
$DISPSILH
 70
     0
  9
$DIMSCALE
 40
6.0
  9
$DIMASZ
 40
2.8
  9
$DIMEXO
 40
1.0
  9
$DIMDLI
 40
5.0
  9
$DIMRND
 40
0.1
  9
$DIMDLE
 40
0.0
  9
$DIMEXE
 40
1.0
  9
$DIMTP
 40
0.0
  9
$DIMTM
 40
0.0
  9
$DIMTXT
 40
2.5
  9
$DIMCEN
 40
0.0
  9
$DIMTSZ
 40
0.0
  9
$DIMTOL
 70
     0
  9
$DIMLIM
 70
     0
  9
$DIMTIH
 70
     0
  9
$DIMTOH
 70
     0
  9
$DIMSE1
 70
     0
  9
$DIMSE2
 70
     0
  9
$DIMTAD
 70
     3
  9
$DIMZIN
 70
     8
  9
$DIMBLK
  1

  9
$DIMASO
 70
     1
  9
$DIMSHO
 70
     1
  9
$DIMPOST
  1
 
  9
$DIMAPOST
  1

  9
$DIMALT
 70
     0
  9
$DIMALTD
 70
     2
  9
$DIMALTF
 40
1.0
  9
$DIMLFAC
 40
1.0
  9
$DIMTOFL
 70
     1
  9
$DIMTVP
 40
0.0
  9
$DIMTIX
 70
     0
  9
$DIMSOXD
 70
     0
  9
$DIMSAH
 70
     1
  9
$DIMBLK1
  1
_OPEN
  9
$DIMBLK2
  1
_OPEN
  9
$DIMSTYLE
  2
DIM1
  9
$DIMCLRD
 70
     2
  9
$DIMCLRE
 70
     2
  9
$DIMCLRT
 70
     2
  9
$DIMTFAC
 40
0.7
  9
$DIMGAP
 40
0.85
  9
$DIMJUST
 70
     0
  9
$DIMSD1
 70
     0
  9
$DIMSD2
 70
     0
  9
$DIMTOLJ
 70
     1
  9
$DIMTZIN
 70
     8
  9
$DIMALTZ
 70
     8
  9
$DIMALTTZ
 70
     8
  9
$DIMFIT
 70
     0
  9
$DIMUPT
 70
     0
  9
$DIMUNIT
 70
     2
  9
$DIMDEC
 70
     2
  9
$DIMTDEC
 70
     3
  9
$DIMALTU
 70
     2
  9
$DIMALTTD
 70
     3
  9
$DIMTXSTY
  7
DIM
  9
$DIMAUNIT
 70
     0
  9
$LUNITS
 70
     2
  9
$LUPREC
 70
     4
  9
$SKETCHINC
 40
0.1
  9
$FILLETRAD
 40
0.0
  9
$AUNITS
 70
     0
  9
$AUPREC
 70
     0
  9
$MENU
  1
C:\ACADR13\WIN\SUPPORT\ACAD.mnc
  9
$ELEVATION
 40
0.0
  9
$PELEVATION
 40
0.0
  9
$THICKNESS
 40
0.0
  9
$LIMCHECK
 70
     0
  9
$BLIPMODE
 70
     1
  9
$CHAMFERA
 40
0.0
  9
$CHAMFERB
 40
0.0
  9
$CHAMFERC
 40
0.0
  9
$CHAMFERD
 40
0.0
  9
$SKPOLY
 70
     0
  9
$TDCREATE
 40
2451564.654844861
  9
$TDUPDATE
 40
2451967.651975729
  9
$TDINDWG
 40
0.0399811111
  9
$TDUSRTIMER
 40
0.0399811111
  9
$USRTIMER
 70
     1
  9
$ANGBASE
 50
0.0
  9
$ANGDIR
 70
     0
  9
$PDMODE
 70
     0
  9
$PDSIZE
 40
0.0
  9
$PLINEWID
 40
0.0
  9
$COORDS
 70
     1
  9
$SPLFRAME
 70
     0
  9
$SPLINETYPE
 70
     6
  9
$SPLINESEGS
 70
     8
  9
$ATTDIA
 70
     0
  9
$ATTREQ
 70
     1
  9
$HANDLING
 70
     1
  9
$HANDSEED
  5
32C0
  9
$SURFTAB1
 70
     6
  9
$SURFTAB2
 70
     6
  9
$SURFTYPE
 70
     6
  9
$SURFU
 70
     6
  9
$SURFV
 70
     6
  9
$UCSNAME
  2

  9
$UCSORG
 10
0.0
 20
0.0
 30
0.0
  9
$UCSXDIR
 10
1.0
 20
0.0
 30
0.0
  9
$UCSYDIR
 10
0.0
 20
1.0
 30
0.0
  9
$PUCSNAME
  2

  9
$PUCSORG
 10
0.0
 20
0.0
 30
0.0
  9
$PUCSXDIR
 10
1.0
 20
0.0
 30
0.0
  9
$PUCSYDIR
 10
0.0
 20
1.0
 30
0.0
  9
$USERI1
 70
     0
  9
$USERI2
 70
     0
  9
$USERI3
 70
     0
  9
$USERI4
 70
     0
  9
$USERI5
 70
     0
  9
$USERR1
 40
0.0
  9
$USERR2
 40
0.0
  9
$USERR3
 40
0.0
  9
$USERR4
 40
0.0
  9
$USERR5
 40
0.0
  9
$WORLDVIEW
 70
     1
  9
$SHADEDGE
 70
     3
  9
$SHADEDIF
 70
    70
  9
$TILEMODE
 70
     1
  9
$MAXACTVP
 70
    16
  9
$PINSBASE
 10
0.0
 20
0.0
 30
0.0
  9
$PLIMCHECK
 70
     0
  9
$PEXTMIN
 10
1.000000E+20
 20
1.000000E+20
 30
1.000000E+20
  9
$PEXTMAX
 10
-1.000000E+20
 20
-1.000000E+20
 30
-1.000000E+20
  9
$PLIMMIN
 10
0.0
 20
0.0
  9
$PLIMMAX
 10
20.0
 20
147.0
  9
$UNITMODE
 70
     0
  9
$VISRETAIN
 70
     0
  9
$PLINEGEN
 70
     0
  9
$PSLTSCALE
 70
     1
  9
$TREEDEPTH
 70
  3020
  9
$PICKSTYLE
 70
     1
  9
$CMLSTYLE
  2
STANDARD
  9
$CMLJUST
 70
     0
  9
$CMLSCALE
 40
1.0
  9
$SAVEIMAGES
 70
     1
  0
ENDSEC
  0
SECTION
  2
CLASSES
  0
CLASS
  1
LWPOLYLINE
  2
AcDbPolyline
  3
"AutoCAD"
 90
    32768
280
     0
281
     1
  0
ENDSEC
  0
SECTION
  2
TABLES
  0
TABLE
  2
VPORT
  5
8
100
AcDbSymbolTable
 70
     2
  0
VPORT
  5
32BF
100
AcDbSymbolTableRecord
100
AcDbViewportTableRecord
  2
*ACTIVE
 70
     0
 10
0.0
 20
0.0
 11
1.0
 21
1.0
 12
921.082398
 22
653.267444
 13
0.0
 23
0.0
 14
1.0
 24
1.0
 15
0.0
 25
0.0
 16
0.0
 26
0.0
 36
1.0
 17
0.0
 27
0.0
 37
0.0
 40
1306.534897
 41
1.762063
 42
50.0
 43
0.0
 44
0.0
 50
0.0
 51
0.0
 71
     0
 72
   100
 73
     1
 74
     1
 75
     0
 76
     0
 77
     0
 78
     0
  0
ENDTAB
  0
TABLE
  2
LTYPE
  5
5
100
AcDbSymbolTable
 70
     5
  0
LTYPE
  5
12
100
AcDbSymbolTableRecord
100
AcDbLinetypeTableRecord
  2
BYBLOCK
 70
     0
  3

 72
    65
 73
     0
 40
0.0
  0
LTYPE
  5
13
100
AcDbSymbolTableRecord
100
AcDbLinetypeTableRecord
  2
BYLAYER
 70
     0
  3

 72
    65
 73
     0
 40
0.0
  0
LTYPE
  5
14
100
AcDbSymbolTableRecord
100
AcDbLinetypeTableRecord
  2
CONTINUOUS
 70
     0
  3
Solid line
 72
    65
 73
     0
 40
0.0
  0
LTYPE
  5
1F
100
AcDbSymbolTableRecord
100
AcDbLinetypeTableRecord
  2
CENTER
 70
     0
  3
____ _ ____ _ ____ _ ____ _ ____ _ ____ _ ____ 
 72
    65
 73
     4
 40
2.0
 49
1.25
 74
     0
 49
-0.25
 74
     0
 49
0.25
 74
     0
 49
-0.25
 74
     0
  0
ENDTAB
  0
TABLE
  2
LAYER
  5
2
100
AcDbSymbolTable
 70
     5
  0
LAYER
  5
F
100
AcDbSymbolTableRecord
100
AcDbLayerTableRecord
  2
0
 70
     0
 62
     7
  6
CONTINUOUS
  0
ENDTAB
  0
TABLE
  2
STYLE
  5
3
100
AcDbSymbolTable
 70
     3
  0
STYLE
  5
10
100
AcDbSymbolTableRecord
100
AcDbTextStyleTableRecord
  2
STANDARD
 70
     0
 40
0.0
 41
0.8
 50
0.0
 71
     0
 42
24.0
  3
simplex
  4
extfont
  0
STYLE
  5
237C
100
AcDbSymbolTableRecord
100
AcDbTextStyleTableRecord
  2
PTSH
 70
     0
 40
0.0
 41
0.9
 50
0.0
 71
     0
 42
4.0
  3
SIMPLEX
  4
EXTFONT
  0
STYLE
  5
2592
100
AcDbSymbolTableRecord
100
AcDbTextStyleTableRecord
  2
DIM
 70
     0
 40
0.0
 41
0.8
 50
0.0
 71
     0
 42
4.0
  3
simplex
  4
extfont
  0
ENDTAB
  0
TABLE
  2
VIEW
  5
6
100
AcDbSymbolTable
 70
     0
  0
ENDTAB
  0
TABLE
  2
UCS
  5
7
100
AcDbSymbolTable
 70
     0
  0
ENDTAB
  0
TABLE
  2
APPID
  5
9
100
AcDbSymbolTable
 70
     1
  0
APPID
  5
11
100
AcDbSymbolTableRecord
100
AcDbRegAppTableRecord
  2
ACAD
 70
     0
  0
ENDTAB
  0
TABLE
  2
DIMSTYLE
  5
A
100
AcDbSymbolTable
 70
     1
  0
DIMSTYLE
105
2237
100
AcDbSymbolTableRecord
100
AcDbDimStyleTableRecord
  2
DIM1
 70
     0
  3
 
  4

  5

  6
_OPEN
  7
_OPEN
 40
6.0
 41
2.8
 42
1.0
 43
5.0
 44
1.0
 45
0.1
 46
0.0
 47
0.0
 48
0.0
140
2.5
141
0.0
142
0.0
143
1.0
144
1.0
145
0.0
146
0.7
147
0.85
 71
     0
 72
     0
 73
     0
 74
     0
 75
     0
 76
     0
 77
     3
 78
     8
170
     0
171
     2
172
     1
173
     1
174
     0
175
     0
176
     2
177
     2
178
     2
270
     2
271
     2
272
     3
273
     2
274
     3
340
2592
275
     0
280
     0
281
     0
282
     0
283
     1
284
     8
285
     8
286
     8
287
     0
288
     0
  0
ENDTAB
  0
TABLE
  2
BLOCK_RECORD
  5
1
100
AcDbSymbolTable
 70
     1
  0
BLOCK_RECORD
  5
18
100
AcDbSymbolTableRecord
100
AcDbBlockTableRecord
  2
*MODEL_SPACE
  0
BLOCK_RECORD
  5
15
100
AcDbSymbolTableRecord
100
AcDbBlockTableRecord
  2
*PAPER_SPACE
  0
BLOCK_RECORD
  5
2448
100
AcDbSymbolTableRecord
100
AcDbBlockTableRecord
  2
_OPEN
  0
ENDTAB
  0
ENDSEC
  0
SECTION
  2
BLOCKS
  0
BLOCK
  5
3C
100
AcDbEntity
  8
0
100
AcDbBlockBegin
  2
*MODEL_SPACE
 70
     0
 10
0.0
 20
0.0
 30
0.0
  3
*MODEL_SPACE
  1

  0
ENDBLK
  5
3D
100
AcDbEntity
  8
0
100
AcDbBlockEnd
  0
BLOCK
  5
3A
100
AcDbEntity
 67
     1
  8
0
100
AcDbBlockBegin
  2
*PAPER_SPACE
 70
     0
 10
0.0
 20
0.0
 30
0.0
  3
*PAPER_SPACE
  1

  0
ENDBLK
  5
3B
100
AcDbEntity
 67
     1
  8
0
100
AcDbBlockEnd
  0
BLOCK
  5
2449
100
AcDbEntity
  8
0
 48
4.0
100
AcDbBlockBegin
  2
_OPEN
 70
     0
 10
0.0
 20
0.0
 30
0.0
  3
_OPEN
  1
H1111.DWG
  0
LINE
  5
244A
100
AcDbEntity
  8
0
  6
BYBLOCK
 62
     0
 48
4.0
100
AcDbLine
 10
-1.0
 20
0.166667
 30
0.0
 11
0.0
 21
0.0
 31
0.0
  0
LINE
  5
244B
100
AcDbEntity
  8
0
  6
BYBLOCK
 62
     0
 48
4.0
100
AcDbLine
 10
0.0
 20
0.0
 30
0.0
 11
-1.0
 21
-0.166667
 31
0.0
  0
LINE
  5
244C
100
AcDbEntity
  8
0
  6
BYBLOCK
 62
     0
 48
4.0
100
AcDbLine
 10
0.0
 20
0.0
 30
0.0
 11
-1.0
 21
0.0
 31
0.0
  0
ENDBLK
  5
244D
100
AcDbEntity
  8
0
 48
4.0
100
AcDbBlockEnd
  0
ENDSEC
  0
SECTION
  2
ENTITIES
  0
MTEXT
  5
ADA
100
AcDbEntity
  8
0
100
AcDbMText
 10
2280.835679
 20
299.077867
 30
0.0
 40
1.2
 41
283.358789
 71
     1
 72
     1
  1

  0
MTEXT
  5
ADB
100
AcDbEntity
  8
0
100
AcDbMText
 10
2334.299599
 20
347.104762
 30
0.0
 40
1.2
 41
272.666005
 71
     1
 72
     1
  1

  0
MTEXT
  5
ADC
100
AcDbEntity
  8
0
100
AcDbMText
 10
2302.221247
 20
-287.917478
 30
0.0
 40
1.2
 41
310.090749
 71
     1
 72
     1
  1

  0
TEXT
  5
2529
100
AcDbEntity
  8
0
  6
CONTINUOUS
100
AcDbText
 10
1643.211781
 20
48.48387
 30
0.0
 40
18.0
  1
SS3N
 41
0.9
  7
PTSH
 72
     1
 11
1671.754638
 21
57.48387
 31
0.0
100
AcDbText
 73
     2
  0
POLYLINE
  5
2563
100
AcDbEntity
  8
0
100
AcDb2dPolyline
 66
     1
 10
0.0
 20
0.0
 30
0.0
 70
     1
  0
VERTEX
  5
3248
100
AcDbEntity
  8
0
100
AcDbVertex
100
AcDb2dVertex
 10
66.0
 20
30.0
 30
0.0
  0
VERTEX
  5
3249
100
AcDbEntity
  8
0
100
AcDbVertex
100
AcDb2dVertex
 10
1716.0
 20
30.0
 30
0.0
  0
VERTEX
  5
324A
100
AcDbEntity
  8
0
100
AcDbVertex
100
AcDb2dVertex
 10
1716.0
 20
1146.0
 30
0.0
  0
VERTEX
  5
324B
100
AcDbEntity
  8
0
100
AcDbVertex
100
AcDb2dVertex
 10
66.0
 20
1146.0
 30
0.0
  0
SEQEND
  5
324C
100
AcDbEntity
  8
0
  0
LINE
  5
2AD0
100
AcDbEntity
  8
0
100
AcDbLine
 10
846.441564
 20
569.7202
 30
0.0
 11
918.941564
 21
569.7202
 31
0.0
  0
LINE
  5
2AD1
100
AcDbEntity
  8
0
100
AcDbLine
 10
906.991817
 20
495.770452
 30
0.0
 11
923.891312
 21
512.669947
 31
0.0
  0
ARC
  5
2AD2
100
AcDbEntity
  8
0
100
AcDbCircle
 10
907.335943
 20
407.156603
 30
0.0
 40
11.5
100
AcDbArc
 50
26.210269
 51
90.0
  0
ARC
  5
2AD3
100
AcDbEntity
  8
0
100
AcDbCircle
 10
907.335943
 20
354.156603
 30
0.0
 40
11.5
100
AcDbArc
 50
270.0
 51
333.789731
  0
LINE
  5
2AD4
100
AcDbEntity
  8
0
100
AcDbLine
 10
846.441564
 20
239.84989
 30
0.0
 11
918.941564
 21
239.84989
 31
0.0
  0
LINE
  5
2AD5
100
AcDbEntity
  8
0
100
AcDbLine
 10
906.991817
 20
165.900142
 30
0.0
 11
923.891312
 21
182.799637
 31
0.0
  0
TEXT
  5
2AD6
100
AcDbEntity
  8
0
100
AcDbText
 10
645.066367
 20
60.170551
 30
0.0
 40
25.0
  1
TLV  SS3N (JIS20K)
100
AcDbText
  0
LINE
  5
2AD7
100
AcDbEntity
  8
0
100
AcDbLine
 10
830.789118
 20
1083.090203
 30
0.0
 11
816.092966
 21
1083.090203
 31
0.0
  0
LINE
  5
2AD8
100
AcDbEntity
  8
0
100
AcDbLine
 10
830.789118
 20
1101.090203
 30
0.0
 11
816.092966
 21
1101.090203
 31
0.0
  0
LINE
  5
2AD9
100
AcDbEntity
  8
0
100
AcDbLine
 10
830.789118
 20
1065.090203
 30
0.0
 11
816.092966
 21
1065.090203
 31
0.0
  0
LINE
  5
2ADA
100
AcDbEntity
  8
0
100
AcDbLine
 10
830.789118
 20
947.038459
 30
0.0
 11
816.092966
 21
947.038459
 31
0.0
  0
LINE
  5
2ADB
100
AcDbEntity
  8
0
100
AcDbLine
 10
830.789118
 20
957.430764
 30
0.0
 11
816.092966
 21
957.430764
 31
0.0
  0
LINE
  5
2ADC
100
AcDbEntity
  8
0
100
AcDbLine
 10
830.789118
 20
926.25385
 30
0.0
 11
816.092966
 21
926.25385
 31
0.0
  0
LINE
  5
2ADD
100
AcDbEntity
  8
0
100
AcDbLine
 10
830.789118
 20
915.861545
 30
0.0
 11
816.092966
 21
915.861545
 31
0.0
  0
LINE
  5
2ADE
100
AcDbEntity
  8
0
100
AcDbLine
 10
830.789118
 20
820.147693
 30
0.0
 11
816.092966
 21
820.147693
 31
0.0
  0
LINE
  5
2ADF
100
AcDbEntity
  8
0
100
AcDbLine
 10
830.789118
 20
802.147693
 30
0.0
 11
816.092966
 21
802.147693
 31
0.0
  0
LINE
  5
2AE0
100
AcDbEntity
  8
0
100
AcDbLine
 10
830.789118
 20
784.147693
 30
0.0
 11
816.092966
 21
784.147693
 31
0.0
  0
TEXT
  5
2AE1
100
AcDbEntity
  8
0
100
AcDbText
 10
678.427133
 20
658.140818
 30
0.0
 40
25.0
  1
TLV  SS3N (PT･SW)
100
AcDbText
  0
LINE
  5
2AE2
100
AcDbEntity
  8
0
100
AcDbLine
 10
785.191564
 20
544.977567
 30
0.0
 11
785.191564
 21
594.977567
 31
0.0
  0
LINE
  5
2AE5
100
AcDbEntity
  8
0
100
AcDbLine
 10
280.738459
 20
544.977567
 30
0.0
 11
280.738459
 21
592.477567
 31
0.0
  0
LINE
  5
2AE8
100
AcDbEntity
  8
0
100
AcDbLine
 10
334.238459
 20
568.977567
 30
0.0
 11
402.238459
 21
568.977567
 31
0.0
  0
LINE
  5
2AE9
100
AcDbEntity
  8
0
100
AcDbLine
 10
350.259274
 20
492.977567
 30
0.0
 11
386.217644
 21
492.977567
 31
0.0
  0
LINE
  5
2AEA
100
AcDbEntity
  8
0
100
AcDbLine
 10
343.407706
 20
417.91397
 30
0.0
 11
393.069212
 21
417.91397
 31
0.0
  0
LINE
  5
2AEB
100
AcDbEntity
  8
0
100
AcDbLine
 10
343.407706
 20
341.91397
 30
0.0
 11
393.069212
 21
341.91397
 31
0.0
  0
LINE
  5
2AEC
100
AcDbEntity
  8
0
100
AcDbLine
 10
334.238459
 20
239.107257
 30
0.0
 11
402.238459
 21
239.107257
 31
0.0
  0
LINE
  5
2AED
100
AcDbEntity
  8
0
100
AcDbLine
 10
350.259274
 20
163.107257
 30
0.0
 11
386.217644
 21
163.107257
 31
0.0
  0
TEXT
  5
2AEE
100
AcDbEntity
  8
0
100
AcDbText
 10
351.643334
 20
131.460386
 30
0.0
 40
20.0
  1
15A
 41
0.8
 11
351.643334
 21
131.460386
 31
0.0
100
AcDbText
 73
     1
  0
TEXT
  5
2AEF
100
AcDbEntity
  8
0
100
AcDbText
 10
84.94922
 20
230.915435
 30
0.0
 40
20.0
  1
正面
100
AcDbText
  0
CIRCLE
  5
2AF0
100
AcDbEntity
  8
0
100
AcDbCircle
 10
205.357121
 20
239.855994
 30
0.0
 40
6.0
  0
CIRCLE
  5
2AF1
100
AcDbEntity
  8
0
100
AcDbCircle
 10
155.859646
 20
239.855994
 30
0.0
 40
6.0
  0
LINE
  5
2AF2
100
AcDbEntity
  8
0
100
AcDbLine
 10
280.738459
 20
215.107257
 30
0.0
 11
280.738459
 21
262.607257
 31
0.0
  0
ARC
  5
2AF3
100
AcDbEntity
  8
0
100
AcDbCircle
 10
334.238459
 20
230.607257
 30
0.0
 40
8.5
100
AcDbArc
 50
90.0
 51
180.0
  0
CIRCLE
  5
2AF5
100
AcDbEntity
  8
0
100
AcDbCircle
 10
180.608384
 20
215.107257
 30
0.0
 40
47.5
  0
LINE
  5
2AF6
100
AcDbEntity
  8
0
100
AcDbLine
 10
234.588444
 20
218.906915
 30
0.0
 11
253.495194
 21
218.906915
 31
0.0
  0
LINE
  5
2AF7
100
AcDbEntity
  8
0
100
AcDbLine
 10
272.403069
 20
212.604665
 30
0.0
 11
240.890694
 21
212.604665
 31
0.0
  0
ELLIPSE
  5
2AF8
100
AcDbEntity
  8
0
100
AcDbEllipse
 10
180.608384
 20
174.064772
 30
0.0
 11
15.0
 21
0.0
 31
0.0
210
0.0
220
0.0
230
-1.0
 40
0.687366
 41
0.4516353881294564
 42
2.689957265460453
  0
ARC
  5
2AF9
100
AcDbEntity
  8
0
100
AcDbCircle
 10
180.608384
 20
201.107257
 30
0.0
 40
38.0
100
AcDbArc
 50
215.393053
 51
324.606947
  0
CIRCLE
  5
2AFA
100
AcDbEntity
  8
0
100
AcDbCircle
 10
155.859646
 20
190.358519
 30
0.0
 40
6.0
  0
CIRCLE
  5
2AFB
100
AcDbEntity
  8
0
100
AcDbCircle
 10
205.357121
 20
190.358519
 30
0.0
 40
6.0
  0
LINE
  5
2AFC
100
AcDbEntity
  8
0
100
AcDbLine
 10
240.890694
 20
212.604665
 30
0.0
 11
234.588444
 21
218.906915
 31
0.0
  0
LINE
  5
2B00
100
AcDbEntity
  8
0
100
AcDbLine
 10
280.738459
 20
167.607257
 30
0.0
 11
280.738459
 21
215.107257
 31
0.0
  0
LINE
  5
2B02
100
AcDbEntity
  8
0
100
AcDbLine
 10
253.495194
 20
218.906915
 30
0.0
 11
256.647444
 21
215.75579
 31
0.0
  0
LINE
  5
2B03
100
AcDbEntity
  8
0
100
AcDbLine
 10
265.963569
 20
218.906915
 30
0.0
 11
272.403069
 21
212.604665
 31
0.0
  0
LINE
  5
2B04
100
AcDbEntity
  8
0
100
AcDbLine
 10
265.963569
 20
215.75579
 30
0.0
 11
265.963569
 21
218.906915
 31
0.0
  0
LINE
  5
2B05
100
AcDbEntity
  8
0
100
AcDbLine
 10
256.647444
 20
215.75579
 30
0.0
 11
265.963569
 21
215.75579
 31
0.0
  0
LINE
  5
2B0E
100
AcDbEntity
  8
0
100
AcDbLine
 10
325.738459
 20
187.628072
 30
0.0
 11
325.738459
 21
230.607257
 31
0.0
  0
LINE
  5
2B0F
100
AcDbEntity
  8
0
100
AcDbLine
 10
344.248867
 20
165.596849
 30
0.0
 11
328.228051
 21
181.617664
 31
0.0
  0
ARC
  5
2B10
100
AcDbEntity
  8
0
100
AcDbCircle
 10
334.238459
 20
187.628072
 30
0.0
 40
8.5
100
AcDbArc
 50
180.0
 51
225.0
  0
ARC
  5
2B11
100
AcDbEntity
  8
0
100
AcDbCircle
 10
350.259274
 20
171.607257
 30
0.0
 40
8.5
100
AcDbArc
 50
225.0
 51
270.0
  0
LINE
  5
2B12
100
AcDbEntity
  8
0
100
AcDbLine
 10
324.770755
 20
230.107257
 30
0.0
 11
324.770755
 21
200.107257
 31
0.0
  0
LINE
  5
2B13
100
AcDbEntity
  8
0
100
AcDbLine
 10
325.738459
 20
230.607257
 30
0.0
 11
325.738459
 21
200.107257
 31
0.0
  0
POLYLINE
  5
2B16
100
AcDbEntity
  8
0
100
AcDb2dPolyline
 66
     1
 10
0.0
 20
0.0
 30
0.0
  0
VERTEX
  5
324D
100
AcDbEntity
  8
0
100
AcDbVertex
100
AcDb2dVertex
 10
325.738459
 20
199.281099
 30
0.0
  0
VERTEX
  5
324E
100
AcDbEntity
  8
0
100
AcDbVertex
100
AcDb2dVertex
 10
324.770755
 20
200.107257
 30
0.0
  0
SEQEND
  5
324F
100
AcDbEntity
  8
0
  0
POLYLINE
  5
2B19
100
AcDbEntity
  8
0
100
AcDb2dPolyline
 66
     1
 10
0.0
 20
0.0
 30
0.0
  0
VERTEX
  5
3250
100
AcDbEntity
  8
0
100
AcDbVertex
100
AcDb2dVertex
 10
325.738459
 20
230.933415
 30
0.0
  0
VERTEX
  5
3251
100
AcDbEntity
  8
0
100
AcDbVertex
100
AcDb2dVertex
 10
324.770755
 20
230.107257
 30
0.0
  0
SEQEND
  5
3252
100
AcDbEntity
  8
0
  0
TEXT
  5
2B1C
100
AcDbEntity
  8
0
100
AcDbText
 10
84.94922
 20
529.497892
 30
0.0
 40
20.0
  1
背面
100
AcDbText
  0
TEXT
  5
2B1D
100
AcDbEntity
  8
0
100
AcDbText
 10
84.94922
 20
379.192028
 30
0.0
 40
20.0
  1
平面
100
AcDbText
  0
ARC
  5
2B1E
100
AcDbEntity
  8
0
100
AcDbCircle
 10
343.407706
 20
406.41397
 30
0.0
 40
11.5
100
AcDbArc
 50
90.0
 51
153.789731
  0
LINE
  5
2B1F
100
AcDbEntity
  8
0
100
AcDbLine
 10
280.738459
 20
379.91397
 30
0.0
 11
280.738459
 21
427.41397
 31
0.0
  0
LINE
  5
2B21
100
AcDbEntity
  8
0
100
AcDbLine
 10
232.577816
 20
385.671198
 30
0.0
 11
251.484566
 21
385.671198
 31
0.0
  0
LINE
  5
2B22
100
AcDbEntity
  8
0
100
AcDbLine
 10
270.392441
 20
379.368948
 30
0.0
 11
238.880066
 21
379.368948
 31
0.0
  0
LINE
  5
2B23
100
AcDbEntity
  8
0
100
AcDbLine
 10
238.880066
 20
379.368948
 30
0.0
 11
232.577816
 21
385.671198
 31
0.0
  0
LINE
  5
2B2A
100
AcDbEntity
  8
0
100
AcDbLine
 10
280.738459
 20
332.41397
 30
0.0
 11
280.738459
 21
379.91397
 31
0.0
  0
LINE
  5
2B2F
100
AcDbEntity
  8
0
100
AcDbLine
 10
254.636816
 20
382.520073
 30
0.0
 11
263.952941
 21
382.520073
 31
0.0
  0
LINE
  5
2B30
100
AcDbEntity
  8
0
100
AcDbLine
 10
251.484566
 20
385.671198
 30
0.0
 11
254.636816
 21
382.520073
 31
0.0
  0
LINE
  5
2B31
100
AcDbEntity
  8
0
100
AcDbLine
 10
263.952941
 20
385.671198
 30
0.0
 11
270.392441
 21
379.368948
 31
0.0
  0
LINE
  5
2B32
100
AcDbEntity
  8
0
100
AcDbLine
 10
263.952941
 20
382.520073
 30
0.0
 11
263.952941
 21
385.671198
 31
0.0
  0
LINE
  5
2B36
100
AcDbEntity
  8
0
100
AcDbLine
 10
324.770755
 20
394.91397
 30
0.0
 11
324.770755
 21
364.91397
 31
0.0
  0
ARC
  5
2B39
100
AcDbEntity
  8
0
100
AcDbCircle
 10
397.238459
 20
379.91397
 30
0.0
 40
71.5
100
AcDbArc
 50
153.789731
 51
206.210269
  0
ARC
  5
2B3A
100
AcDbEntity
  8
0
100
AcDbCircle
 10
343.407706
 20
353.41397
 30
0.0
 40
11.5
100
AcDbArc
 50
206.210269
 51
270.0
  0
POLYLINE
  5
2B3B
100
AcDbEntity
  8
0
100
AcDb2dPolyline
 66
     1
 10
0.0
 20
0.0
 30
0.0
  0
VERTEX
  5
3253
100
AcDbEntity
  8
0
100
AcDbVertex
100
AcDb2dVertex
 10
327.972476
 20
362.180565
 30
0.0
  0
VERTEX
  5
3254
100
AcDbEntity
  8
0
100
AcDbVertex
100
AcDb2dVertex
 10
324.770755
 20
364.91397
 30
0.0
  0
SEQEND
  5
3255
100
AcDbEntity
  8
0
  0
POLYLINE
  5
2B3F
100
AcDbEntity
  8
0
100
AcDb2dPolyline
 66
     1
 10
0.0
 20
0.0
 30
0.0
  0
VERTEX
  5
3256
100
AcDbEntity
  8
0
100
AcDbVertex
100
AcDb2dVertex
 10
327.972476
 20
397.647376
 30
0.0
  0
VERTEX
  5
3257
100
AcDbEntity
  8
0
100
AcDbVertex
100
AcDb2dVertex
 10
324.770755
 20
394.91397
 30
0.0
  0
SEQEND
  5
3258
100
AcDbEntity
  8
0
  0
LINE
  5
2B41
100
AcDbEntity
  8
0
100
AcDbLine
 10
344.248867
 20
495.467159
 30
0.0
 11
328.228051
 21
511.487975
 31
0.0
  0
LINE
  5
2B42
100
AcDbEntity
  8
0
100
AcDbLine
 10
280.738459
 20
497.477567
 30
0.0
 11
280.738459
 21
544.977567
 31
0.0
  0
ARC
  5
2B45
100
AcDbEntity
  8
0
100
AcDbCircle
 10
350.259274
 20
501.477567
 30
0.0
 40
8.5
100
AcDbArc
 50
225.0
 51
270.0
  0
LINE
  5
2B51
100
AcDbEntity
  8
0
100
AcDbLine
 10
325.738459
 20
517.498382
 30
0.0
 11
325.738459
 21
560.477567
 31
0.0
  0
LINE
  5
2B52
100
AcDbEntity
  8
0
100
AcDbLine
 10
325.738459
 20
560.477567
 30
0.0
 11
325.738459
 21
529.977567
 31
0.0
  0
LINE
  5
2B53
100
AcDbEntity
  8
0
100
AcDbLine
 10
324.770755
 20
559.977567
 30
0.0
 11
324.770755
 21
529.977567
 31
0.0
  0
ARC
  5
2B56
100
AcDbEntity
  8
0
100
AcDbCircle
 10
334.238459
 20
517.498382
 30
0.0
 40
8.5
100
AcDbArc
 50
180.0
 51
225.0
  0
POLYLINE
  5
2B57
100
AcDbEntity
  8
0
100
AcDb2dPolyline
 66
     1
 10
0.0
 20
0.0
 30
0.0
  0
VERTEX
  5
3259
100
AcDbEntity
  8
0
100
AcDbVertex
100
AcDb2dVertex
 10
325.738459
 20
529.151409
 30
0.0
  0
VERTEX
  5
325A
100
AcDbEntity
  8
0
100
AcDbVertex
100
AcDb2dVertex
 10
324.770755
 20
529.977567
 30
0.0
  0
SEQEND
  5
325B
100
AcDbEntity
  8
0
  0
ARC
  5
2B5A
100
AcDbEntity
  8
0
100
AcDbCircle
 10
334.238459
 20
560.477567
 30
0.0
 40
8.5
100
AcDbArc
 50
90.0
 51
180.0
  0
POLYLINE
  5
2B5B
100
AcDbEntity
  8
0
100
AcDb2dPolyline
 66
     1
 10
0.0
 20
0.0
 30
0.0
  0
VERTEX
  5
325C
100
AcDbEntity
  8
0
100
AcDbVertex
100
AcDb2dVertex
 10
325.738459
 20
560.803725
 30
0.0
  0
VERTEX
  5
325D
100
AcDbEntity
  8
0
100
AcDbVertex
100
AcDb2dVertex
 10
324.770755
 20
559.977567
 30
0.0
  0
SEQEND
  5
325E
100
AcDbEntity
  8
0
  0
ARC
  5
2B5E
100
AcDbEntity
  8
0
100
AcDbCircle
 10
846.441564
 20
232.84989
 30
0.0
 40
7.0
100
AcDbArc
 50
90.0
 51
180.0
  0
CIRCLE
  5
2B5F
100
AcDbEntity
  8
0
100
AcDbCircle
 10
707.301795
 20
241.623761
 30
0.0
 40
6.0
  0
CIRCLE
  5
2B60
100
AcDbEntity
  8
0
100
AcDbCircle
 10
654.268786
 20
241.623761
 30
0.0
 40
6.0
  0
LINE
  5
2B61
100
AcDbEntity
  8
0
100
AcDbLine
 10
785.191564
 20
215.107257
 30
0.0
 11
785.191564
 21
265.107257
 31
0.0
  0
CIRCLE
  5
2B64
100
AcDbEntity
  8
0
100
AcDbCircle
 10
680.785291
 20
215.107257
 30
0.0
 40
50.0
  0
CIRCLE
  5
2B65
100
AcDbEntity
  8
0
100
AcDbCircle
 10
542.322174
 20
239.855994
 30
0.0
 40
6.0
  0
CIRCLE
  5
2B66
100
AcDbEntity
  8
0
100
AcDbCircle
 10
492.824699
 20
239.855994
 30
0.0
 40
6.0
  0
ARC
  5
2B67
100
AcDbEntity
  8
0
100
AcDbCircle
 10
402.238459
 20
230.607257
 30
0.0
 40
8.5
100
AcDbArc
 50
0.0
 51
90.0
  0
LINE
  5
2B68
100
AcDbEntity
  8
0
100
AcDbLine
 10
455.738459
 20
215.107257
 30
0.0
 11
455.738459
 21
262.607257
 31
0.0
  0
CIRCLE
  5
2B6A
100
AcDbEntity
  8
0
100
AcDbCircle
 10
517.573437
 20
215.107257
 30
0.0
 40
47.5
  0
CIRCLE
  5
2B6B
100
AcDbEntity
  8
0
100
AcDbCircle
 10
654.268786
 20
188.590752
 30
0.0
 40
6.0
  0
ARC
  5
2B6C
100
AcDbEntity
  8
0
100
AcDbCircle
 10
517.573437
 20
201.107257
 30
0.0
 40
38.0
100
AcDbArc
 50
215.393053
 51
324.606947
  0
CIRCLE
  5
2B6D
100
AcDbEntity
  8
0
100
AcDbCircle
 10
492.824699
 20
190.358519
 30
0.0
 40
6.0
  0
LINE
  5
2B70
100
AcDbEntity
  8
0
100
AcDbLine
 10
410.738459
 20
187.628072
 30
0.0
 11
410.738459
 21
230.607257
 31
0.0
  0
LINE
  5
2B71
100
AcDbEntity
  8
0
100
AcDbLine
 10
392.228051
 20
165.596849
 30
0.0
 11
408.248867
 21
181.617664
 31
0.0
  0
ARC
  5
2B72
100
AcDbEntity
  8
0
100
AcDbCircle
 10
386.217644
 20
171.607257
 30
0.0
 40
8.5
100
AcDbArc
 50
270.0
 51
315.0
  0
ARC
  5
2B73
100
AcDbEntity
  8
0
100
AcDbCircle
 10
402.238459
 20
187.628072
 30
0.0
 40
8.5
100
AcDbArc
 50
315.0
 51
0.0
  0
LINE
  5
2B74
100
AcDbEntity
  8
0
100
AcDbLine
 10
410.738459
 20
230.107257
 30
0.0
 11
410.738459
 21
200.107257
 31
0.0
  0
LINE
  5
2B77
100
AcDbEntity
  8
0
100
AcDbLine
 10
411.706164
 20
230.107257
 30
0.0
 11
411.706164
 21
200.107257
 31
0.0
  0
POLYLINE
  5
2B7C
100
AcDbEntity
  8
0
100
AcDb2dPolyline
 66
     1
 10
0.0
 20
0.0
 30
0.0
  0
VERTEX
  5
325F
100
AcDbEntity
  8
0
100
AcDbVertex
100
AcDb2dVertex
 10
410.738459
 20
199.281099
 30
0.0
  0
VERTEX
  5
3260
100
AcDbEntity
  8
0
100
AcDbVertex
100
AcDb2dVertex
 10
411.706164
 20
200.107257
 30
0.0
  0
SEQEND
  5
3261
100
AcDbEntity
  8
0
  0
POLYLINE
  5
2B82
100
AcDbEntity
  8
0
100
AcDb2dPolyline
 66
     1
 10
0.0
 20
0.0
 30
0.0
  0
VERTEX
  5
3262
100
AcDbEntity
  8
0
100
AcDbVertex
100
AcDb2dVertex
 10
410.738459
 20
230.933415
 30
0.0
  0
VERTEX
  5
3263
100
AcDbEntity
  8
0
100
AcDbVertex
100
AcDb2dVertex
 10
411.706164
 20
230.107257
 30
0.0
  0
SEQEND
  5
3264
100
AcDbEntity
  8
0
  0
ELLIPSE
  5
2B89
100
AcDbEntity
  8
0
100
AcDbEllipse
 10
517.573437
 20
174.064772
 30
0.0
 11
-15.0
 21
0.0
 31
0.0
210
0.0
220
0.0
230
1.0
 40
0.687366
 41
0.4516353881294564
 42
2.689957265460453
  0
CIRCLE
  5
2B8A
100
AcDbEntity
  8
0
100
AcDbCircle
 10
542.322174
 20
190.358519
 30
0.0
 40
6.0
  0
CIRCLE
  5
2B8B
100
AcDbEntity
  8
0
100
AcDbCircle
 10
707.301795
 20
188.590752
 30
0.0
 40
6.0
  0
ELLIPSE
  5
2B8C
100
AcDbEntity
  8
0
100
AcDbEllipse
 10
680.785291
 20
174.807405
 30
0.0
 11
15.0
 21
0.0
 31
0.0
210
0.0
220
0.0
230
-1.0
 40
0.687366
 41
1.116598331309346
 42
2.024994322280446
  0
ARC
  5
2B8D
100
AcDbEntity
  8
0
100
AcDbCircle
 10
680.785291
 20
201.84989
 30
0.0
 40
38.0
100
AcDbArc
 50
240.884143
 51
299.115857
  0
LINE
  5
2B8E
100
AcDbEntity
  8
0
100
AcDbLine
 10
739.779975
 20
222.925334
 30
0.0
 11
758.686725
 21
222.925334
 31
0.0
  0
LINE
  5
2B8F
100
AcDbEntity
  8
0
100
AcDbLine
 10
746.082225
 20
216.623084
 30
0.0
 11
739.779975
 21
222.925334
 31
0.0
  0
LINE
  5
2B90
100
AcDbEntity
  8
0
100
AcDbLine
 10
771.1551
 20
222.925334
 30
0.0
 11
777.5946
 21
216.623084
 31
0.0
  0
LINE
  5
2B91
100
AcDbEntity
  8
0
100
AcDbLine
 10
777.5946
 20
216.623084
 30
0.0
 11
746.082225
 21
216.623084
 31
0.0
  0
LINE
  5
2B92
100
AcDbEntity
  8
0
100
AcDbLine
 10
758.686725
 20
222.925334
 30
0.0
 11
761.838975
 21
219.774209
 31
0.0
  0
LINE
  5
2B93
100
AcDbEntity
  8
0
100
AcDbLine
 10
761.838975
 20
219.774209
 30
0.0
 11
771.1551
 21
219.774209
 31
0.0
  0
LINE
  5
2B94
100
AcDbEntity
  8
0
100
AcDbLine
 10
771.1551
 20
219.774209
 30
0.0
 11
771.1551
 21
222.925334
 31
0.0
  0
TEXT
  5
2B95
100
AcDbEntity
  8
0
100
AcDbText
 10
862.526505
 20
126.891428
 30
0.0
 40
20.0
  1
20A
 41
0.8
 11
862.526505
 21
126.891428
 31
0.0
100
AcDbText
 73
     1
  0
LINE
  5
2B96
100
AcDbEntity
  8
0
100
AcDbLine
 10
858.391312
 20
165.900142
 30
0.0
 11
841.491817
 21
182.799637
 31
0.0
  0
LINE
  5
2B98
100
AcDbEntity
  8
0
100
AcDbLine
 10
839.441564
 20
232.84989
 30
0.0
 11
839.441564
 21
186.749384
 31
0.0
  0
LINE
  5
2B99
100
AcDbEntity
  8
0
100
AcDbLine
 10
785.191564
 20
165.107257
 30
0.0
 11
785.191564
 21
215.107257
 31
0.0
  0
ARC
  5
2B9B
100
AcDbEntity
  8
0
100
AcDbCircle
 10
846.441564
 20
187.749384
 30
0.0
 40
7.0
100
AcDbArc
 50
180.0
 51
225.0
  0
LINE
  5
2BA4
100
AcDbEntity
  8
0
100
AcDbLine
 10
838.000478
 20
230.107257
 30
0.0
 11
838.000478
 21
200.107257
 31
0.0
  0
LINE
  5
2BA7
100
AcDbEntity
  8
0
100
AcDbLine
 10
838.000478
 20
200.107257
 30
0.0
 11
839.441564
 21
198.769693
 31
0.0
  0
LINE
  5
2BAA
100
AcDbEntity
  8
0
100
AcDbLine
 10
838.000478
 20
230.107257
 30
0.0
 11
839.441564
 21
231.444821
 31
0.0
  0
LINE
  5
2BAB
100
AcDbEntity
  8
0
100
AcDbLine
 10
863.341059
 20
163.84989
 30
0.0
 11
902.042069
 21
163.84989
 31
0.0
  0
LINE
  5
2BAC
100
AcDbEntity
  8
0
100
AcDbLine
 10
863.341059
 20
163.84989
 30
0.0
 11
902.042069
 21
163.84989
 31
0.0
  0
ARC
  5
2BAD
100
AcDbEntity
  8
0
100
AcDbCircle
 10
863.341059
 20
170.84989
 30
0.0
 40
7.0
100
AcDbArc
 50
225.0
 51
270.0
  0
ARC
  5
2BAE
100
AcDbEntity
  8
0
100
AcDbCircle
 10
902.042069
 20
170.84989
 30
0.0
 40
7.0
100
AcDbArc
 50
270.0
 51
315.0
  0
ARC
  5
2BAF
100
AcDbEntity
  8
0
100
AcDbCircle
 10
393.069212
 20
406.41397
 30
0.0
 40
11.5
100
AcDbArc
 50
26.210269
 51
90.0
  0
LINE
  5
2BB9
100
AcDbEntity
  8
0
100
AcDbLine
 10
411.706164
 20
394.91397
 30
0.0
 11
411.706164
 21
364.91397
 31
0.0
  0
ARC
  5
2BBB
100
AcDbEntity
  8
0
100
AcDbCircle
 10
339.238459
 20
379.91397
 30
0.0
 40
71.5
100
AcDbArc
 50
333.789731
 51
26.210269
  0
ARC
  5
2BBC
100
AcDbEntity
  8
0
100
AcDbCircle
 10
393.069212
 20
353.41397
 30
0.0
 40
11.5
100
AcDbArc
 50
270.0
 51
333.789731
  0
POLYLINE
  5
2BBE
100
AcDbEntity
  8
0
100
AcDb2dPolyline
 66
     1
 10
0.0
 20
0.0
 30
0.0
  0
VERTEX
  5
3265
100
AcDbEntity
  8
0
100
AcDbVertex
100
AcDb2dVertex
 10
408.504442
 20
362.180565
 30
0.0
  0
VERTEX
  5
3266
100
AcDbEntity
  8
0
100
AcDbVertex
100
AcDb2dVertex
 10
411.706164
 20
364.91397
 30
0.0
  0
SEQEND
  5
3267
100
AcDbEntity
  8
0
  0
POLYLINE
  5
2BC7
100
AcDbEntity
  8
0
100
AcDb2dPolyline
 66
     1
 10
0.0
 20
0.0
 30
0.0
  0
VERTEX
  5
3268
100
AcDbEntity
  8
0
100
AcDbVertex
100
AcDb2dVertex
 10
408.504442
 20
397.647376
 30
0.0
  0
VERTEX
  5
3269
100
AcDbEntity
  8
0
100
AcDbVertex
100
AcDb2dVertex
 10
411.706164
 20
394.91397
 30
0.0
  0
SEQEND
  5
326A
100
AcDbEntity
  8
0
  0
LINE
  5
2BCB
100
AcDbEntity
  8
0
100
AcDbLine
 10
501.620178
 20
540.105602
 30
0.0
 11
507.922428
 21
546.407852
 31
0.0
  0
LINE
  5
2BCC
100
AcDbEntity
  8
0
100
AcDbLine
 10
507.922428
 20
546.407852
 30
0.0
 11
489.015678
 21
546.407852
 31
0.0
  0
LINE
  5
2BCD
100
AcDbEntity
  8
0
100
AcDbLine
 10
392.228051
 20
495.467159
 30
0.0
 11
408.248867
 21
511.487975
 31
0.0
  0
ARC
  5
2BCF
100
AcDbEntity
  8
0
100
AcDbCircle
 10
386.217644
 20
501.477567
 30
0.0
 40
8.5
100
AcDbArc
 50
270.0
 51
315.0
  0
LINE
  5
2BD6
100
AcDbEntity
  8
0
100
AcDbLine
 10
410.738459
 20
517.498382
 30
0.0
 11
410.738459
 21
560.477567
 31
0.0
  0
LINE
  5
2BD7
100
AcDbEntity
  8
0
100
AcDbLine
 10
411.706164
 20
559.977567
 30
0.0
 11
411.706164
 21
529.977567
 31
0.0
  0
LINE
  5
2BD9
100
AcDbEntity
  8
0
100
AcDbLine
 10
410.738459
 20
559.977567
 30
0.0
 11
410.738459
 21
529.977567
 31
0.0
  0
ARC
  5
2BDC
100
AcDbEntity
  8
0
100
AcDbCircle
 10
402.238459
 20
517.498382
 30
0.0
 40
8.5
100
AcDbArc
 50
315.0
 51
0.0
  0
POLYLINE
  5
2BDF
100
AcDbEntity
  8
0
100
AcDb2dPolyline
 66
     1
 10
0.0
 20
0.0
 30
0.0
  0
VERTEX
  5
326B
100
AcDbEntity
  8
0
100
AcDbVertex
100
AcDb2dVertex
 10
410.738459
 20
529.151409
 30
0.0
  0
VERTEX
  5
326C
100
AcDbEntity
  8
0
100
AcDbVertex
100
AcDb2dVertex
 10
411.706164
 20
529.977567
 30
0.0
  0
SEQEND
  5
326D
100
AcDbEntity
  8
0
  0
ARC
  5
2BE3
100
AcDbEntity
  8
0
100
AcDbCircle
 10
402.238459
 20
560.477567
 30
0.0
 40
8.5
100
AcDbArc
 50
0.0
 51
90.0
  0
POLYLINE
  5
2BE6
100
AcDbEntity
  8
0
100
AcDb2dPolyline
 66
     1
 10
0.0
 20
0.0
 30
0.0
  0
VERTEX
  5
326E
100
AcDbEntity
  8
0
100
AcDbVertex
100
AcDb2dVertex
 10
410.738459
 20
560.803725
 30
0.0
  0
VERTEX
  5
326F
100
AcDbEntity
  8
0
100
AcDbVertex
100
AcDb2dVertex
 10
411.706164
 20
559.977567
 30
0.0
  0
SEQEND
  5
3270
100
AcDbEntity
  8
0
  0
LINE
  5
2BEA
100
AcDbEntity
  8
0
100
AcDbLine
 10
476.547303
 20
546.407852
 30
0.0
 11
470.107803
 21
540.105602
 31
0.0
  0
LINE
  5
2BEB
100
AcDbEntity
  8
0
100
AcDbLine
 10
470.107803
 20
540.105602
 30
0.0
 11
501.620178
 21
540.105602
 31
0.0
  0
LINE
  5
2BEC
100
AcDbEntity
  8
0
100
AcDbLine
 10
489.015678
 20
546.407852
 30
0.0
 11
485.863428
 21
543.256727
 31
0.0
  0
LINE
  5
2BED
100
AcDbEntity
  8
0
100
AcDbLine
 10
485.863428
 20
543.256727
 30
0.0
 11
476.547303
 21
543.256727
 31
0.0
  0
LINE
  5
2BEE
100
AcDbEntity
  8
0
100
AcDbLine
 10
476.547303
 20
543.256727
 30
0.0
 11
476.547303
 21
546.407852
 31
0.0
  0
ARC
  5
2BEF
100
AcDbEntity
  8
0
100
AcDbCircle
 10
857.674437
 20
407.156603
 30
0.0
 40
11.5
100
AcDbArc
 50
90.0
 51
153.789731
  0
LINE
  5
2BF0
100
AcDbEntity
  8
0
100
AcDbLine
 10
785.191564
 20
379.91397
 30
0.0
 11
785.191564
 21
429.91397
 31
0.0
  0
LINE
  5
2BF2
100
AcDbEntity
  8
0
100
AcDbLine
 10
737.769347
 20
379.643569
 30
0.0
 11
756.676097
 21
379.643569
 31
0.0
  0
LINE
  5
2BF3
100
AcDbEntity
  8
0
100
AcDbLine
 10
775.583972
 20
373.341319
 30
0.0
 11
744.071597
 21
373.341319
 31
0.0
  0
LINE
  5
2BF4
100
AcDbEntity
  8
0
100
AcDbLine
 10
744.071597
 20
373.341319
 30
0.0
 11
737.769347
 21
379.643569
 31
0.0
  0
LINE
  5
2BF5
100
AcDbEntity
  8
0
100
AcDbLine
 10
759.828347
 20
376.492444
 30
0.0
 11
769.144472
 21
376.492444
 31
0.0
  0
LINE
  5
2BF6
100
AcDbEntity
  8
0
100
AcDbLine
 10
756.676097
 20
379.643569
 30
0.0
 11
759.828347
 21
376.492444
 31
0.0
  0
LINE
  5
2BF7
100
AcDbEntity
  8
0
100
AcDbLine
 10
769.144472
 20
379.643569
 30
0.0
 11
775.583972
 21
373.341319
 31
0.0
  0
LINE
  5
2BF8
100
AcDbEntity
  8
0
100
AcDbLine
 10
769.144472
 20
376.492444
 30
0.0
 11
769.144472
 21
379.643569
 31
0.0
  0
LINE
  5
2BFA
100
AcDbEntity
  8
0
100
AcDbLine
 10
838.000478
 20
364.91397
 30
0.0
 11
842.96149
 21
360.309339
 31
0.0
  0
ARC
  5
2BFB
100
AcDbEntity
  8
0
100
AcDbCircle
 10
911.50519
 20
380.656603
 30
0.0
 40
71.5
100
AcDbArc
 50
153.789731
 51
206.210269
  0
LINE
  5
2BFF
100
AcDbEntity
  8
0
100
AcDbLine
 10
838.000478
 20
394.91397
 30
0.0
 11
838.000478
 21
364.91397
 31
0.0
  0
LINE
  5
2C01
100
AcDbEntity
  8
0
100
AcDbLine
 10
785.191564
 20
329.91397
 30
0.0
 11
785.191564
 21
379.91397
 31
0.0
  0
LINE
  5
2C0D
100
AcDbEntity
  8
0
100
AcDbLine
 10
838.000478
 20
394.91397
 30
0.0
 11
842.396773
 21
398.994452
 31
0.0
  0
LINE
  5
2C0E
100
AcDbEntity
  8
0
100
AcDbLine
 10
857.674437
 20
342.656603
 30
0.0
 11
907.335943
 21
342.656603
 31
0.0
  0
ARC
  5
2C0F
100
AcDbEntity
  8
0
100
AcDbCircle
 10
857.674437
 20
354.156603
 30
0.0
 40
11.5
100
AcDbArc
 50
206.210269
 51
270.0
  0
LINE
  5
2C10
100
AcDbEntity
  8
0
100
AcDbLine
 10
858.391312
 20
495.770452
 30
0.0
 11
841.491817
 21
512.669947
 31
0.0
  0
LINE
  5
2C11
100
AcDbEntity
  8
0
100
AcDbLine
 10
785.191564
 20
494.977567
 30
0.0
 11
785.191564
 21
544.977567
 31
0.0
  0
LINE
  5
2C14
100
AcDbEntity
  8
0
100
AcDbLine
 10
857.674437
 20
418.656603
 30
0.0
 11
907.335943
 21
418.656603
 31
0.0
  0
LINE
  5
2C15
100
AcDbEntity
  8
0
100
AcDbLine
 10
863.341059
 20
493.7202
 30
0.0
 11
902.042069
 21
493.7202
 31
0.0
  0
LINE
  5
2C16
100
AcDbEntity
  8
0
100
AcDbLine
 10
863.341059
 20
493.7202
 30
0.0
 11
902.042069
 21
493.7202
 31
0.0
  0
ARC
  5
2C17
100
AcDbEntity
  8
0
100
AcDbCircle
 10
863.341059
 20
500.7202
 30
0.0
 40
7.0
100
AcDbArc
 50
225.0
 51
270.0
  0
ARC
  5
2C18
100
AcDbEntity
  8
0
100
AcDbCircle
 10
902.042069
 20
500.7202
 30
0.0
 40
7.0
100
AcDbArc
 50
270.0
 51
315.0
  0
ARC
  5
2C19
100
AcDbEntity
  8
0
100
AcDbCircle
 10
846.441564
 20
562.7202
 30
0.0
 40
7.0
100
AcDbArc
 50
90.0
 51
180.0
  0
LINE
  5
2C1E
100
AcDbEntity
  8
0
100
AcDbLine
 10
839.441564
 20
562.7202
 30
0.0
 11
839.441564
 21
516.619695
 31
0.0
  0
LINE
  5
2C1F
100
AcDbEntity
  8
0
100
AcDbLine
 10
838.000478
 20
559.977567
 30
0.0
 11
838.000478
 21
529.977567
 31
0.0
  0
ARC
  5
2C23
100
AcDbEntity
  8
0
100
AcDbCircle
 10
846.441564
 20
517.619695
 30
0.0
 40
7.0
100
AcDbArc
 50
180.0
 51
225.0
  0
LINE
  5
2C26
100
AcDbEntity
  8
0
100
AcDbLine
 10
838.000478
 20
529.977567
 30
0.0
 11
839.441564
 21
528.640003
 31
0.0
  0
LINE
  5
2C2C
100
AcDbEntity
  8
0
100
AcDbLine
 10
838.000478
 20
559.977567
 30
0.0
 11
839.441564
 21
561.315131
 31
0.0
  0
LINE
  5
2C2D
100
AcDbEntity
  8
0
100
AcDbLine
 10
298.693024
 20
941.947256
 30
0.0
 11
267.180649
 21
941.947256
 31
0.0
  0
LINE
  5
2C2E
100
AcDbEntity
  8
0
100
AcDbLine
 10
292.253524
 20
948.249506
 30
0.0
 11
298.693024
 21
941.947256
 31
0.0
  0
LINE
  5
2C2F
100
AcDbEntity
  8
0
100
AcDbLine
 10
306.735748
 20
799.293489
 30
0.0
 11
275.223373
 21
799.293489
 31
0.0
  0
LINE
  5
2C30
100
AcDbEntity
  8
0
100
AcDbLine
 10
290.980123
 20
802.444614
 30
0.0
 11
300.296248
 21
802.444614
 31
0.0
  0
TEXT
  5
2C31
100
AcDbEntity
  8
0
100
AcDbText
 10
100.567616
 20
927.38829
 30
0.0
 40
20.0
  1
平面
100
AcDbText
  0
TEXT
  5
2C32
100
AcDbEntity
  8
0
100
AcDbText
 10
100.567616
 20
779.111696
 30
0.0
 40
20.0
  1
正面
100
AcDbText
  0
ELLIPSE
  5
2C33
100
AcDbEntity
  8
0
100
AcDbEllipse
 10
216.198828
 20
761.105208
 30
0.0
 11
15.0
 21
0.0
 31
0.0
210
0.0
220
0.0
230
-1.0
 40
0.687366
 41
0.0
 42
6.283185307179586
  0
CIRCLE
  5
2C34
100
AcDbEntity
  8
0
100
AcDbCircle
 10
216.198828
 20
788.147693
 30
0.0
 40
38.0
  0
POLYLINE
  5
2C36
100
AcDbEntity
  8
0
100
AcDb2dPolyline
 66
     1
 10
0.0
 20
0.0
 30
0.0
 70
     1
  0
VERTEX
  5
3271
100
AcDbEntity
  8
0
100
AcDbVertex
100
AcDb2dVertex
 10
225.436432
 20
818.147693
 30
0.0
  0
VERTEX
  5
3272
100
AcDbEntity
  8
0
100
AcDbVertex
100
AcDb2dVertex
 10
234.674036
 20
802.147693
 30
0.0
  0
VERTEX
  5
3273
100
AcDbEntity
  8
0
100
AcDbVertex
100
AcDb2dVertex
 10
225.436432
 20
786.147693
 30
0.0
  0
VERTEX
  5
3274
100
AcDbEntity
  8
0
100
AcDbVertex
100
AcDb2dVertex
 10
206.961223
 20
786.147693
 30
0.0
  0
VERTEX
  5
3275
100
AcDbEntity
  8
0
100
AcDbVertex
100
AcDb2dVertex
 10
197.723619
 20
802.147693
 30
0.0
  0
VERTEX
  5
3276
100
AcDbEntity
  8
0
100
AcDbVertex
100
AcDb2dVertex
 10
206.961223
 20
818.147693
 30
0.0
  0
SEQEND
  5
3277
100
AcDbEntity
  8
0
  0
CIRCLE
  5
2C37
100
AcDbEntity
  8
0
100
AcDbCircle
 10
216.198828
 20
802.147693
 30
0.0
 40
15.5
  0
LINE
  5
2C38
100
AcDbEntity
  8
0
100
AcDbLine
 10
268.921123
 20
805.595739
 30
0.0
 11
287.827873
 21
805.595739
 31
0.0
  0
LINE
  5
2C39
100
AcDbEntity
  8
0
100
AcDbLine
 10
275.223373
 20
799.293489
 30
0.0
 11
268.921123
 21
805.595739
 31
0.0
  0
LINE
  5
2C3A
100
AcDbEntity
  8
0
100
AcDbLine
 10
287.827873
 20
805.595739
 30
0.0
 11
290.980123
 21
802.444614
 31
0.0
  0
TEXT
  5
2C3B
100
AcDbEntity
  8
0
100
AcDbText
 10
100.567616
 20
1077.694153
 30
0.0
 40
20.0
  1
背面
100
AcDbText
  0
LINE
  5
2C3C
100
AcDbEntity
  8
0
100
AcDbLine
 10
260.878399
 20
948.249506
 30
0.0
 11
279.785149
 21
948.249506
 31
0.0
  0
LINE
  5
2C3D
100
AcDbEntity
  8
0
100
AcDbLine
 10
267.180649
 20
941.947256
 30
0.0
 11
260.878399
 21
948.249506
 31
0.0
  0
LINE
  5
2C3E
100
AcDbEntity
  8
0
100
AcDbLine
 10
282.937399
 20
945.098381
 30
0.0
 11
292.253524
 21
945.098381
 31
0.0
  0
LINE
  5
2C3F
100
AcDbEntity
  8
0
100
AcDbLine
 10
279.785149
 20
948.249506
 30
0.0
 11
282.937399
 21
945.098381
 31
0.0
  0
LINE
  5
2C40
100
AcDbEntity
  8
0
100
AcDbLine
 10
292.253524
 20
945.098381
 30
0.0
 11
292.253524
 21
948.249506
 31
0.0
  0
ARC
  5
2C41
100
AcDbEntity
  8
0
100
AcDbCircle
 10
841.506562
 20
936.646155
 30
0.0
 40
27.456345
100
AcDbArc
 50
157.759024
 51
202.240976
  0
LINE
  5
2C42
100
AcDbEntity
  8
0
100
AcDbLine
 10
812.808356
 20
936.646155
 30
0.0
 11
812.808356
 21
954.146155
 31
0.0
  0
ARC
  5
2C43
100
AcDbEntity
  8
0
100
AcDbCircle
 10
425.821042
 20
942.418077
 30
0.0
 40
17.286595
100
AcDbArc
 50
327.698151
 51
32.301849
  0
ARC
  5
2C44
100
AcDbEntity
  8
0
100
AcDbCircle
 10
447.494262
 20
942.418077
 30
0.0
 40
17.286595
100
AcDbArc
 50
147.698151
 51
212.301849
  0
LINE
  5
2C45
100
AcDbEntity
  8
0
100
AcDbLine
 10
423.494049
 20
927.418077
 30
0.0
 11
423.494049
 21
957.418077
 31
0.0
  0
LINE
  5
2C46
100
AcDbEntity
  8
0
100
AcDbLine
 10
429.407652
 20
927.418077
 30
0.0
 11
429.407652
 21
957.418077
 31
0.0
  0
ARC
  5
2C47
100
AcDbEntity
  8
0
100
AcDbCircle
 10
334.994262
 20
942.418077
 30
0.0
 40
17.286595
100
AcDbArc
 50
147.698151
 51
212.301849
  0
ARC
  5
2C48
100
AcDbEntity
  8
0
100
AcDbCircle
 10
313.321042
 20
942.418077
 30
0.0
 40
17.286595
100
AcDbArc
 50
327.698151
 51
32.301849
  0
LINE
  5
2C49
100
AcDbEntity
  8
0
100
AcDbLine
 10
331.407652
 20
927.418077
 30
0.0
 11
331.407652
 21
957.418077
 31
0.0
  0
LINE
  5
2C4A
100
AcDbEntity
  8
0
100
AcDbLine
 10
337.321256
 20
927.418077
 30
0.0
 11
337.321256
 21
957.418077
 31
0.0
  0
LINE
  5
2C4B
100
AcDbEntity
  8
0
100
AcDbLine
 10
337.907652
 20
959.158
 30
0.0
 11
337.907652
 21
925.678154
 31
0.0
  0
LINE
  5
2C4C
100
AcDbEntity
  8
0
100
AcDbLine
 10
337.907652
 20
959.158
 30
0.0
 11
337.907652
 21
925.678154
 31
0.0
  0
LINE
  5
2C4D
100
AcDbEntity
  8
0
100
AcDbLine
 10
422.907652
 20
959.158
 30
0.0
 11
422.907652
 21
925.678154
 31
0.0
  0
LINE
  5
2C4E
100
AcDbEntity
  8
0
100
AcDbLine
 10
422.907652
 20
959.158
 30
0.0
 11
422.907652
 21
925.678154
 31
0.0
  0
LINE
  5
2C4F
100
AcDbEntity
  8
0
100
AcDbLine
 10
316.907652
 20
927.418077
 30
0.0
 11
316.907652
 21
942.418077
 31
0.0
  0
LINE
  5
2C50
100
AcDbEntity
  8
0
100
AcDbLine
 10
443.907652
 20
927.418077
 30
0.0
 11
443.907652
 21
942.418077
 31
0.0
  0
ELLIPSE
  5
2C51
100
AcDbEntity
  8
0
100
AcDbEllipse
 10
501.925246
 20
761.105208
 30
0.0
 11
-15.0
 21
0.0
 31
0.0
210
0.0
220
0.0
230
1.0
 40
0.687366
 41
0.0
 42
6.283185307179586
  0
LINE
  5
2C52
100
AcDbEntity
  8
0
100
AcDbLine
 10
356.41806
 20
752.637286
 30
0.0
 11
340.397245
 21
768.658101
 31
0.0
  0
LINE
  5
2C53
100
AcDbEntity
  8
0
100
AcDbLine
 10
404.397245
 20
752.637286
 30
0.0
 11
420.41806
 21
768.658101
 31
0.0
  0
CIRCLE
  5
2C54
100
AcDbEntity
  8
0
100
AcDbCircle
 10
501.925246
 20
788.147693
 30
0.0
 40
38.0
  0
ARC
  5
2C56
100
AcDbEntity
  8
0
100
AcDbCircle
 10
362.428467
 20
758.647693
 30
0.0
 40
8.5
100
AcDbArc
 50
225.0
 51
270.0
  0
TEXT
  5
2C57
100
AcDbEntity
  8
0
100
AcDbText
 10
363.528334
 20
708.642588
 30
0.0
 40
20.0
  1
15A
 41
0.8
 11
363.528334
 21
708.642588
 31
0.0
100
AcDbText
 73
     1
  0
LINE
  5
2C58
100
AcDbEntity
  8
0
100
AcDbLine
 10
362.428467
 20
750.147693
 30
0.0
 11
398.386837
 21
750.147693
 31
0.0
  0
LINE
  5
2C59
100
AcDbEntity
  8
0
100
AcDbLine
 10
362.428467
 20
750.147693
 30
0.0
 11
398.386837
 21
750.147693
 31
0.0
  0
ARC
  5
2C5A
100
AcDbEntity
  8
0
100
AcDbCircle
 10
398.386837
 20
758.647693
 30
0.0
 40
8.5
100
AcDbArc
 50
270.0
 51
315.0
  0
LINE
  5
2C5B
100
AcDbEntity
  8
0
100
AcDbLine
 10
429.407652
 20
927.418077
 30
0.0
 11
423.494049
 21
927.418077
 31
0.0
  0
LINE
  5
2C5C
100
AcDbEntity
  8
0
100
AcDbLine
 10
429.407652
 20
817.147693
 30
0.0
 11
423.494049
 21
817.147693
 31
0.0
  0
LINE
  5
2C5D
100
AcDbEntity
  8
0
100
AcDbLine
 10
429.407652
 20
787.147693
 30
0.0
 11
423.494049
 21
787.147693
 31
0.0
  0
LINE
  5
2C5E
100
AcDbEntity
  8
0
100
AcDbLine
 10
346.407652
 20
826.147693
 30
0.0
 11
414.407652
 21
826.147693
 31
0.0
  0
ARC
  5
2C5F
100
AcDbEntity
  8
0
100
AcDbCircle
 10
317.308292
 20
810.147693
 30
0.0
 40
13.299346
100
AcDbArc
 50
323.020205
 51
36.979795
  0
ARC
  5
2C60
100
AcDbEntity
  8
0
100
AcDbCircle
 10
331.007012
 20
810.147693
 30
0.0
 40
13.299346
100
AcDbArc
 50
143.020205
 51
216.979795
  0
LINE
  5
2C61
100
AcDbEntity
  8
0
100
AcDbLine
 10
316.907652
 20
802.147693
 30
0.0
 11
316.907652
 21
817.147693
 31
0.0
  0
LINE
  5
2C62
100
AcDbEntity
  8
0
100
AcDbLine
 10
337.321256
 20
787.147693
 30
0.0
 11
337.321256
 21
817.147693
 31
0.0
  0
LINE
  5
2C63
100
AcDbEntity
  8
0
100
AcDbLine
 10
331.407652
 20
787.147693
 30
0.0
 11
331.407652
 21
817.147693
 31
0.0
  0
LINE
  5
2C64
100
AcDbEntity
  8
0
100
AcDbLine
 10
337.907652
 20
817.647693
 30
0.0
 11
337.907652
 21
774.668509
 31
0.0
  0
LINE
  5
2C65
100
AcDbEntity
  8
0
100
AcDbLine
 10
327.932444
 20
802.147693
 30
0.0
 11
320.382861
 21
802.147693
 31
0.0
  0
LINE
  5
2C66
100
AcDbEntity
  8
0
100
AcDbLine
 10
327.932444
 20
786.147693
 30
0.0
 11
320.382861
 21
786.147693
 31
0.0
  0
LINE
  5
2C67
100
AcDbEntity
  8
0
100
AcDbLine
 10
316.907652
 20
787.147693
 30
0.0
 11
316.907652
 21
802.147693
 31
0.0
  0
ARC
  5
2C68
100
AcDbEntity
  8
0
100
AcDbCircle
 10
331.007012
 20
794.147693
 30
0.0
 40
13.299346
100
AcDbArc
 50
143.020205
 51
216.979795
  0
LINE
  5
2C69
100
AcDbEntity
  8
0
100
AcDbLine
 10
316.907652
 20
787.147693
 30
0.0
 11
320.382861
 21
786.147693
 31
0.0
  0
LINE
  5
2C6A
100
AcDbEntity
  8
0
100
AcDbLine
 10
300.296248
 20
805.595739
 30
0.0
 11
306.735748
 21
799.293489
 31
0.0
  0
LINE
  5
2C6B
100
AcDbEntity
  8
0
100
AcDbLine
 10
300.296248
 20
802.444614
 30
0.0
 11
300.296248
 21
805.595739
 31
0.0
  0
ARC
  5
2C6C
100
AcDbEntity
  8
0
100
AcDbCircle
 10
317.308292
 20
794.147693
 30
0.0
 40
13.299346
100
AcDbArc
 50
323.020205
 51
36.979795
  0
LINE
  5
2C6D
100
AcDbEntity
  8
0
100
AcDbLine
 10
331.407652
 20
787.147693
 30
0.0
 11
327.932444
 21
786.147693
 31
0.0
  0
POLYLINE
  5
2C6E
100
AcDbEntity
  8
0
100
AcDb2dPolyline
 66
     1
 10
0.0
 20
0.0
 30
0.0
  0
VERTEX
  5
3278
100
AcDbEntity
  8
0
100
AcDbVertex
100
AcDb2dVertex
 10
337.907652
 20
786.687189
 30
0.0
  0
VERTEX
  5
3279
100
AcDbEntity
  8
0
100
AcDbVertex
100
AcDb2dVertex
 10
337.321256
 20
787.147693
 30
0.0
  0
SEQEND
  5
327A
100
AcDbEntity
  8
0
  0
LINE
  5
2C6F
100
AcDbEntity
  8
0
100
AcDbLine
 10
331.407652
 20
787.147693
 30
0.0
 11
337.321256
 21
787.147693
 31
0.0
  0
ARC
  5
2C70
100
AcDbEntity
  8
0
100
AcDbCircle
 10
346.407652
 20
774.668509
 30
0.0
 40
8.5
100
AcDbArc
 50
180.0
 51
225.0
  0
LINE
  5
2C71
100
AcDbEntity
  8
0
100
AcDbLine
 10
327.932444
 20
818.147693
 30
0.0
 11
320.382861
 21
818.147693
 31
0.0
  0
LINE
  5
2C72
100
AcDbEntity
  8
0
100
AcDbLine
 10
316.907652
 20
817.147693
 30
0.0
 11
320.382861
 21
818.147693
 31
0.0
  0
ARC
  5
2C73
100
AcDbEntity
  8
0
100
AcDbCircle
 10
346.407652
 20
817.647693
 30
0.0
 40
8.5
100
AcDbArc
 50
90.0
 51
180.0
  0
LINE
  5
2C74
100
AcDbEntity
  8
0
100
AcDbLine
 10
331.407652
 20
817.147693
 30
0.0
 11
327.932444
 21
818.147693
 31
0.0
  0
POLYLINE
  5
2C75
100
AcDbEntity
  8
0
100
AcDb2dPolyline
 66
     1
 10
0.0
 20
0.0
 30
0.0
  0
VERTEX
  5
327B
100
AcDbEntity
  8
0
100
AcDbVertex
100
AcDb2dVertex
 10
337.907652
 20
817.608197
 30
0.0
  0
VERTEX
  5
327C
100
AcDbEntity
  8
0
100
AcDbVertex
100
AcDb2dVertex
 10
337.321256
 20
817.147693
 30
0.0
  0
SEQEND
  5
327D
100
AcDbEntity
  8
0
  0
LINE
  5
2C76
100
AcDbEntity
  8
0
100
AcDbLine
 10
331.407652
 20
817.147693
 30
0.0
 11
337.321256
 21
817.147693
 31
0.0
  0
LINE
  5
2C77
100
AcDbEntity
  8
0
100
AcDbLine
 10
423.494049
 20
787.147693
 30
0.0
 11
423.494049
 21
817.147693
 31
0.0
  0
LINE
  5
2C78
100
AcDbEntity
  8
0
100
AcDbLine
 10
422.907652
 20
817.647693
 30
0.0
 11
422.907652
 21
774.668509
 31
0.0
  0
POLYLINE
  5
2C79
100
AcDbEntity
  8
0
100
AcDb2dPolyline
 66
     1
 10
0.0
 20
0.0
 30
0.0
  0
VERTEX
  5
327E
100
AcDbEntity
  8
0
100
AcDbVertex
100
AcDb2dVertex
 10
422.907652
 20
786.687189
 30
0.0
  0
VERTEX
  5
327F
100
AcDbEntity
  8
0
100
AcDbVertex
100
AcDb2dVertex
 10
423.494049
 20
787.147693
 30
0.0
  0
SEQEND
  5
3280
100
AcDbEntity
  8
0
  0
ARC
  5
2C7A
100
AcDbEntity
  8
0
100
AcDbCircle
 10
414.407652
 20
774.668509
 30
0.0
 40
8.5
100
AcDbArc
 50
315.0
 51
0.0
  0
POLYLINE
  5
2C7B
100
AcDbEntity
  8
0
100
AcDb2dPolyline
 66
     1
 10
0.0
 20
0.0
 30
0.0
  0
VERTEX
  5
3281
100
AcDbEntity
  8
0
100
AcDbVertex
100
AcDb2dVertex
 10
422.907652
 20
817.608197
 30
0.0
  0
VERTEX
  5
3282
100
AcDbEntity
  8
0
100
AcDbVertex
100
AcDb2dVertex
 10
423.494049
 20
817.147693
 30
0.0
  0
SEQEND
  5
3283
100
AcDbEntity
  8
0
  0
ARC
  5
2C7C
100
AcDbEntity
  8
0
100
AcDbCircle
 10
414.407652
 20
817.647693
 30
0.0
 40
8.5
100
AcDbArc
 50
0.0
 51
90.0
  0
LINE
  5
2C7D
100
AcDbEntity
  8
0
100
AcDbLine
 10
353.589667
 20
904.418077
 30
0.0
 11
407.225637
 21
904.418077
 31
0.0
  0
LINE
  5
2C7E
100
AcDbEntity
  8
0
100
AcDbLine
 10
327.932444
 20
923.942869
 30
0.0
 11
320.382861
 21
923.942869
 31
0.0
  0
LINE
  5
2C7F
100
AcDbEntity
  8
0
100
AcDbLine
 10
327.932444
 20
933.180473
 30
0.0
 11
320.382861
 21
933.180473
 31
0.0
  0
LINE
  5
2C80
100
AcDbEntity
  8
0
100
AcDbLine
 10
316.907652
 20
927.418077
 30
0.0
 11
320.382861
 21
923.942869
 31
0.0
  0
ARC
  5
2C81
100
AcDbEntity
  8
0
100
AcDbCircle
 10
323.032513
 20
928.561671
 30
0.0
 40
5.324847
100
AcDbArc
 50
119.841453
 51
209.841453
  0
ARC
  5
2C82
100
AcDbEntity
  8
0
100
AcDbCircle
 10
407.420421
 20
942.418077
 30
0.0
 40
71.5
100
AcDbArc
 50
193.540038
 51
206.210269
  0
ARC
  5
2C83
100
AcDbEntity
  8
0
100
AcDbCircle
 10
353.589667
 20
915.918077
 30
0.0
 40
11.5
100
AcDbArc
 50
206.210269
 51
270.0
  0
LINE
  5
2C84
100
AcDbEntity
  8
0
100
AcDbLine
 10
331.407652
 20
927.418077
 30
0.0
 11
327.932444
 21
923.942869
 31
0.0
  0
ARC
  5
2C85
100
AcDbEntity
  8
0
100
AcDbCircle
 10
325.282791
 20
928.561671
 30
0.0
 40
5.324847
100
AcDbArc
 50
330.158547
 51
60.158547
  0
LINE
  5
2C86
100
AcDbEntity
  8
0
100
AcDbLine
 10
331.407652
 20
927.418077
 30
0.0
 11
337.321256
 21
927.418077
 31
0.0
  0
POLYLINE
  5
2C87
100
AcDbEntity
  8
0
100
AcDb2dPolyline
 66
     1
 10
0.0
 20
0.0
 30
0.0
  0
VERTEX
  5
3284
100
AcDbEntity
  8
0
100
AcDbVertex
100
AcDb2dVertex
 10
337.907652
 20
926.957573
 30
0.0
  0
VERTEX
  5
3285
100
AcDbEntity
  8
0
100
AcDbVertex
100
AcDb2dVertex
 10
337.321256
 20
927.418077
 30
0.0
  0
SEQEND
  5
3286
100
AcDbEntity
  8
0
  0
ARC
  5
2C88
100
AcDbEntity
  8
0
100
AcDbCircle
 10
353.394884
 20
942.418077
 30
0.0
 40
71.5
100
AcDbArc
 50
333.789731
 51
346.459962
  0
ARC
  5
2C89
100
AcDbEntity
  8
0
100
AcDbCircle
 10
407.225637
 20
915.918077
 30
0.0
 40
11.5
100
AcDbArc
 50
270.0
 51
333.789731
  0
POLYLINE
  5
2C8A
100
AcDbEntity
  8
0
100
AcDb2dPolyline
 66
     1
 10
0.0
 20
0.0
 30
0.0
  0
VERTEX
  5
3287
100
AcDbEntity
  8
0
100
AcDbVertex
100
AcDb2dVertex
 10
422.907652
 20
926.957573
 30
0.0
  0
VERTEX
  5
3288
100
AcDbEntity
  8
0
100
AcDbVertex
100
AcDb2dVertex
 10
423.494049
 20
927.418077
 30
0.0
  0
SEQEND
  5
3289
100
AcDbEntity
  8
0
  0
POLYLINE
  5
2C8B
100
AcDbEntity
  8
0
100
AcDb2dPolyline
 66
     1
 10
0.0
 20
0.0
 30
0.0
 70
     1
  0
VERTEX
  5
328A
100
AcDbEntity
  8
0
100
AcDbVertex
100
AcDb2dVertex
 10
511.162851
 20
786.147693
 30
0.0
  0
VERTEX
  5
328B
100
AcDbEntity
  8
0
100
AcDbVertex
100
AcDb2dVertex
 10
520.400455
 20
802.147693
 30
0.0
  0
VERTEX
  5
328C
100
AcDbEntity
  8
0
100
AcDbVertex
100
AcDb2dVertex
 10
511.162851
 20
818.147693
 30
0.0
  0
VERTEX
  5
328D
100
AcDbEntity
  8
0
100
AcDbVertex
100
AcDb2dVertex
 10
492.687642
 20
818.147693
 30
0.0
  0
VERTEX
  5
328E
100
AcDbEntity
  8
0
100
AcDbVertex
100
AcDb2dVertex
 10
483.450038
 20
802.147693
 30
0.0
  0
VERTEX
  5
328F
100
AcDbEntity
  8
0
100
AcDbVertex
100
AcDb2dVertex
 10
492.687642
 20
786.147693
 30
0.0
  0
SEQEND
  5
3290
100
AcDbEntity
  8
0
  0
CIRCLE
  5
2C8C
100
AcDbEntity
  8
0
100
AcDbCircle
 10
501.925246
 20
802.147693
 30
0.0
 40
15.5
  0
LINE
  5
2C8D
100
AcDbEntity
  8
0
100
AcDbLine
 10
443.907652
 20
802.147693
 30
0.0
 11
443.907652
 21
817.147693
 31
0.0
  0
ARC
  5
2C8E
100
AcDbEntity
  8
0
100
AcDbCircle
 10
429.808292
 20
810.147693
 30
0.0
 40
13.299346
100
AcDbArc
 50
323.020205
 51
36.979795
  0
ARC
  5
2C8F
100
AcDbEntity
  8
0
100
AcDbCircle
 10
443.507012
 20
810.147693
 30
0.0
 40
13.299346
100
AcDbArc
 50
143.020205
 51
216.979795
  0
LINE
  5
2C90
100
AcDbEntity
  8
0
100
AcDbLine
 10
429.407652
 20
787.147693
 30
0.0
 11
429.407652
 21
817.147693
 31
0.0
  0
LINE
  5
2C91
100
AcDbEntity
  8
0
100
AcDbLine
 10
443.907652
 20
787.147693
 30
0.0
 11
443.907652
 21
802.147693
 31
0.0
  0
ARC
  5
2C92
100
AcDbEntity
  8
0
100
AcDbCircle
 10
429.808292
 20
794.147693
 30
0.0
 40
13.299346
100
AcDbArc
 50
323.020205
 51
36.979795
  0
ARC
  5
2C93
100
AcDbEntity
  8
0
100
AcDbCircle
 10
443.507012
 20
794.147693
 30
0.0
 40
13.299346
100
AcDbArc
 50
143.020205
 51
216.979795
  0
LINE
  5
2C94
100
AcDbEntity
  8
0
100
AcDbLine
 10
443.907652
 20
787.147693
 30
0.0
 11
440.432444
 21
786.147693
 31
0.0
  0
LINE
  5
2C95
100
AcDbEntity
  8
0
100
AcDbLine
 10
429.407652
 20
787.147693
 30
0.0
 11
432.882861
 21
786.147693
 31
0.0
  0
LINE
  5
2C96
100
AcDbEntity
  8
0
100
AcDbLine
 10
432.882861
 20
786.147693
 30
0.0
 11
440.432444
 21
786.147693
 31
0.0
  0
LINE
  5
2C97
100
AcDbEntity
  8
0
100
AcDbLine
 10
432.882861
 20
802.147693
 30
0.0
 11
440.432444
 21
802.147693
 31
0.0
  0
LINE
  5
2C98
100
AcDbEntity
  8
0
100
AcDbLine
 10
443.907652
 20
817.147693
 30
0.0
 11
440.432444
 21
818.147693
 31
0.0
  0
LINE
  5
2C99
100
AcDbEntity
  8
0
100
AcDbLine
 10
429.407652
 20
817.147693
 30
0.0
 11
432.882861
 21
818.147693
 31
0.0
  0
LINE
  5
2C9A
100
AcDbEntity
  8
0
100
AcDbLine
 10
432.882861
 20
818.147693
 30
0.0
 11
440.432444
 21
818.147693
 31
0.0
  0
ARC
  5
2C9B
100
AcDbEntity
  8
0
100
AcDbCircle
 10
437.782791
 20
928.561671
 30
0.0
 40
5.324847
100
AcDbArc
 50
330.158547
 51
60.158547
  0
LINE
  5
2C9C
100
AcDbEntity
  8
0
100
AcDbLine
 10
443.907652
 20
927.418077
 30
0.0
 11
440.432444
 21
923.942869
 31
0.0
  0
ARC
  5
2C9D
100
AcDbEntity
  8
0
100
AcDbCircle
 10
435.532513
 20
928.561671
 30
0.0
 40
5.324847
100
AcDbArc
 50
119.841453
 51
209.841453
  0
LINE
  5
2C9E
100
AcDbEntity
  8
0
100
AcDbLine
 10
429.407652
 20
927.418077
 30
0.0
 11
432.882861
 21
923.942869
 31
0.0
  0
LINE
  5
2C9F
100
AcDbEntity
  8
0
100
AcDbLine
 10
432.882861
 20
923.942869
 30
0.0
 11
440.432444
 21
923.942869
 31
0.0
  0
LINE
  5
2CA0
100
AcDbEntity
  8
0
100
AcDbLine
 10
432.882861
 20
933.180473
 30
0.0
 11
440.432444
 21
933.180473
 31
0.0
  0
ELLIPSE
  5
2CA1
100
AcDbEntity
  8
0
100
AcDbEllipse
 10
713.325973
 20
761.105208
 30
0.0
 11
15.0
 21
0.0
 31
0.0
210
0.0
220
0.0
230
-1.0
 40
0.687366
 41
0.0
 42
6.283185307179586
  0
CIRCLE
  5
2CA2
100
AcDbEntity
  8
0
100
AcDbCircle
 10
713.325973
 20
788.147693
 30
0.0
 40
38.0
  0
CIRCLE
  5
2CA4
100
AcDbEntity
  8
0
100
AcDbCircle
 10
713.325973
 20
802.147693
 30
0.0
 40
17.5
  0
POLYLINE
  5
2CA5
100
AcDbEntity
  8
0
100
AcDb2dPolyline
 66
     1
 10
0.0
 20
0.0
 30
0.0
 70
     1
  0
VERTEX
  5
3291
100
AcDbEntity
  8
0
100
AcDbVertex
100
AcDb2dVertex
 10
723.718278
 20
820.147693
 30
0.0
  0
VERTEX
  5
3292
100
AcDbEntity
  8
0
100
AcDbVertex
100
AcDb2dVertex
 10
734.110582
 20
802.147693
 30
0.0
  0
VERTEX
  5
3293
100
AcDbEntity
  8
0
100
AcDbVertex
100
AcDb2dVertex
 10
723.718278
 20
784.147693
 30
0.0
  0
VERTEX
  5
3294
100
AcDbEntity
  8
0
100
AcDbVertex
100
AcDb2dVertex
 10
702.933668
 20
784.147693
 30
0.0
  0
VERTEX
  5
3295
100
AcDbEntity
  8
0
100
AcDbVertex
100
AcDb2dVertex
 10
692.541363
 20
802.147693
 30
0.0
  0
VERTEX
  5
3296
100
AcDbEntity
  8
0
100
AcDbVertex
100
AcDb2dVertex
 10
702.933668
 20
820.147693
 30
0.0
  0
SEQEND
  5
3297
100
AcDbEntity
  8
0
  0
LINE
  5
2CA6
100
AcDbEntity
  8
0
100
AcDbLine
 10
812.808356
 20
802.147693
 30
0.0
 11
812.808356
 21
819.647693
 31
0.0
  0
ARC
  5
2CA7
100
AcDbEntity
  8
0
100
AcDbCircle
 10
834.666455
 20
811.147693
 30
0.0
 40
20.63915
100
AcDbArc
 50
154.146953
 51
205.853047
  0
LINE
  5
2CA8
100
AcDbEntity
  8
0
100
AcDbLine
 10
804.729091
 20
799.293489
 30
0.0
 11
773.216716
 21
799.293489
 31
0.0
  0
LINE
  5
2CA9
100
AcDbEntity
  8
0
100
AcDbLine
 10
785.821216
 20
805.595739
 30
0.0
 11
788.973466
 21
802.444614
 31
0.0
  0
LINE
  5
2CAA
100
AcDbEntity
  8
0
100
AcDbLine
 10
766.914466
 20
805.595739
 30
0.0
 11
785.821216
 21
805.595739
 31
0.0
  0
LINE
  5
2CAB
100
AcDbEntity
  8
0
100
AcDbLine
 10
773.216716
 20
799.293489
 30
0.0
 11
766.914466
 21
805.595739
 31
0.0
  0
LINE
  5
2CAC
100
AcDbEntity
  8
0
100
AcDbLine
 10
812.808356
 20
784.647693
 30
0.0
 11
812.808356
 21
802.147693
 31
0.0
  0
ARC
  5
2CAD
100
AcDbEntity
  8
0
100
AcDbCircle
 10
834.666455
 20
793.147693
 30
0.0
 40
20.63915
100
AcDbArc
 50
154.146953
 51
205.853047
  0
LINE
  5
2CAE
100
AcDbEntity
  8
0
100
AcDbLine
 10
816.092966
 20
784.147693
 30
0.0
 11
812.808356
 21
784.647693
 31
0.0
  0
LINE
  5
2CAF
100
AcDbEntity
  8
0
100
AcDbLine
 10
798.289591
 20
805.595739
 30
0.0
 11
804.729091
 21
799.293489
 31
0.0
  0
LINE
  5
2CB0
100
AcDbEntity
  8
0
100
AcDbLine
 10
788.973466
 20
802.444614
 30
0.0
 11
798.289591
 21
802.444614
 31
0.0
  0
LINE
  5
2CB1
100
AcDbEntity
  8
0
100
AcDbLine
 10
798.289591
 20
802.444614
 30
0.0
 11
798.289591
 21
805.595739
 31
0.0
  0
LINE
  5
2CB2
100
AcDbEntity
  8
0
100
AcDbLine
 10
816.092966
 20
820.147693
 30
0.0
 11
812.808356
 21
819.647693
 31
0.0
  0
LINE
  5
2CB3
100
AcDbEntity
  8
0
100
AcDbLine
 10
798.697065
 20
933.910417
 30
0.0
 11
767.18469
 21
933.910417
 31
0.0
  0
LINE
  5
2CB4
100
AcDbEntity
  8
0
100
AcDbLine
 10
782.94144
 20
937.061542
 30
0.0
 11
792.257565
 21
937.061542
 31
0.0
  0
LINE
  5
2CB5
100
AcDbEntity
  8
0
100
AcDbLine
 10
760.88244
 20
940.212667
 30
0.0
 11
779.78919
 21
940.212667
 31
0.0
  0
LINE
  5
2CB6
100
AcDbEntity
  8
0
100
AcDbLine
 10
767.18469
 20
933.910417
 30
0.0
 11
760.88244
 21
940.212667
 31
0.0
  0
LINE
  5
2CB7
100
AcDbEntity
  8
0
100
AcDbLine
 10
779.78919
 20
940.212667
 30
0.0
 11
782.94144
 21
937.061542
 31
0.0
  0
LINE
  5
2CB8
100
AcDbEntity
  8
0
100
AcDbLine
 10
812.808356
 20
919.146155
 30
0.0
 11
812.808356
 21
936.646155
 31
0.0
  0
ARC
  5
2CB9
100
AcDbEntity
  8
0
100
AcDbCircle
 10
821.595575
 20
921.057697
 30
0.0
 40
7.56827
100
AcDbArc
 50
136.640741
 51
223.359259
  0
LINE
  5
2CBA
100
AcDbEntity
  8
0
100
AcDbLine
 10
816.092966
 20
915.861545
 30
0.0
 11
812.808356
 21
919.146155
 31
0.0
  0
LINE
  5
2CBB
100
AcDbEntity
  8
0
100
AcDbLine
 10
792.257565
 20
940.212667
 30
0.0
 11
798.697065
 21
933.910417
 31
0.0
  0
LINE
  5
2CBC
100
AcDbEntity
  8
0
100
AcDbLine
 10
792.257565
 20
937.061542
 30
0.0
 11
792.257565
 21
940.212667
 31
0.0
  0
LINE
  5
2CBD
100
AcDbEntity
  8
0
100
AcDbLine
 10
429.407652
 20
1101.910288
 30
0.0
 11
423.494049
 21
1101.910288
 31
0.0
  0
LINE
  5
2CBE
100
AcDbEntity
  8
0
100
AcDbLine
 10
429.407652
 20
1071.910288
 30
0.0
 11
423.494049
 21
1071.910288
 31
0.0
  0
LINE
  5
2CBF
100
AcDbEntity
  8
0
100
AcDbLine
 10
429.407652
 20
957.418077
 30
0.0
 11
423.494049
 21
957.418077
 31
0.0
  0
LINE
  5
2CC0
100
AcDbEntity
  8
0
100
AcDbLine
 10
353.589667
 20
980.418077
 30
0.0
 11
407.225637
 21
980.418077
 31
0.0
  0
LINE
  5
2CC1
100
AcDbEntity
  8
0
100
AcDbLine
 10
327.932444
 20
960.893286
 30
0.0
 11
320.382861
 21
960.893286
 31
0.0
  0
LINE
  5
2CC2
100
AcDbEntity
  8
0
100
AcDbLine
 10
327.932444
 20
951.655681
 30
0.0
 11
320.382861
 21
951.655681
 31
0.0
  0
LINE
  5
2CC3
100
AcDbEntity
  8
0
100
AcDbLine
 10
316.907652
 20
942.418077
 30
0.0
 11
316.907652
 21
957.418077
 31
0.0
  0
LINE
  5
2CC4
100
AcDbEntity
  8
0
100
AcDbLine
 10
316.907652
 20
957.418077
 30
0.0
 11
320.382861
 21
960.893286
 31
0.0
  0
ARC
  5
2CC5
100
AcDbEntity
  8
0
100
AcDbCircle
 10
323.032513
 20
956.274484
 30
0.0
 40
5.324847
100
AcDbArc
 50
150.158547
 51
240.158547
  0
ARC
  5
2CC6
100
AcDbEntity
  8
0
100
AcDbCircle
 10
407.420421
 20
942.418077
 30
0.0
 40
71.5
100
AcDbArc
 50
153.789731
 51
166.459962
  0
LINE
  5
2CC7
100
AcDbEntity
  8
0
100
AcDbLine
 10
331.407652
 20
957.418077
 30
0.0
 11
327.932444
 21
960.893286
 31
0.0
  0
LINE
  5
2CC8
100
AcDbEntity
  8
0
100
AcDbLine
 10
331.407652
 20
957.418077
 30
0.0
 11
337.321256
 21
957.418077
 31
0.0
  0
POLYLINE
  5
2CC9
100
AcDbEntity
  8
0
100
AcDb2dPolyline
 66
     1
 10
0.0
 20
0.0
 30
0.0
  0
VERTEX
  5
3298
100
AcDbEntity
  8
0
100
AcDbVertex
100
AcDb2dVertex
 10
337.907652
 20
957.878581
 30
0.0
  0
VERTEX
  5
3299
100
AcDbEntity
  8
0
100
AcDbVertex
100
AcDb2dVertex
 10
337.321256
 20
957.418077
 30
0.0
  0
SEQEND
  5
329A
100
AcDbEntity
  8
0
  0
ARC
  5
2CCA
100
AcDbEntity
  8
0
100
AcDbCircle
 10
325.282791
 20
956.274484
 30
0.0
 40
5.324847
100
AcDbArc
 50
299.841453
 51
29.841453
  0
ARC
  5
2CCB
100
AcDbEntity
  8
0
100
AcDbCircle
 10
353.589667
 20
968.918077
 30
0.0
 40
11.5
100
AcDbArc
 50
90.0
 51
153.789731
  0
ARC
  5
2CCC
100
AcDbEntity
  8
0
100
AcDbCircle
 10
353.394884
 20
942.418077
 30
0.0
 40
71.5
100
AcDbArc
 50
13.540038
 51
26.210269
  0
POLYLINE
  5
2CCD
100
AcDbEntity
  8
0
100
AcDb2dPolyline
 66
     1
 10
0.0
 20
0.0
 30
0.0
  0
VERTEX
  5
329B
100
AcDbEntity
  8
0
100
AcDbVertex
100
AcDb2dVertex
 10
422.907652
 20
957.878581
 30
0.0
  0
VERTEX
  5
329C
100
AcDbEntity
  8
0
100
AcDbVertex
100
AcDb2dVertex
 10
423.494049
 20
957.418077
 30
0.0
  0
SEQEND
  5
329D
100
AcDbEntity
  8
0
  0
ARC
  5
2CCE
100
AcDbEntity
  8
0
100
AcDbCircle
 10
407.225637
 20
968.918077
 30
0.0
 40
11.5
100
AcDbArc
 50
26.210269
 51
90.0
  0
LINE
  5
2CCF
100
AcDbEntity
  8
0
100
AcDbLine
 10
346.407652
 20
1110.910288
 30
0.0
 11
414.407652
 21
1110.910288
 31
0.0
  0
ARC
  5
2CD0
100
AcDbEntity
  8
0
100
AcDbCircle
 10
362.428467
 20
1043.410288
 30
0.0
 40
8.5
100
AcDbArc
 50
225.0
 51
270.0
  0
ARC
  5
2CD1
100
AcDbEntity
  8
0
100
AcDbCircle
 10
331.007012
 20
1078.910288
 30
0.0
 40
13.299346
100
AcDbArc
 50
143.020205
 51
216.979795
  0
ARC
  5
2CD2
100
AcDbEntity
  8
0
100
AcDbCircle
 10
317.308292
 20
1078.910288
 30
0.0
 40
13.299346
100
AcDbArc
 50
323.020205
 51
36.979795
  0
LINE
  5
2CD3
100
AcDbEntity
  8
0
100
AcDbLine
 10
337.907652
 20
1102.410288
 30
0.0
 11
337.907652
 21
1059.431103
 31
0.0
  0
LINE
  5
2CD4
100
AcDbEntity
  8
0
100
AcDbLine
 10
316.907652
 20
1071.910288
 30
0.0
 11
316.907652
 21
1086.910288
 31
0.0
  0
LINE
  5
2CD5
100
AcDbEntity
  8
0
100
AcDbLine
 10
331.407652
 20
1071.910288
 30
0.0
 11
331.407652
 21
1101.910288
 31
0.0
  0
LINE
  5
2CD6
100
AcDbEntity
  8
0
100
AcDbLine
 10
337.321256
 20
1071.910288
 30
0.0
 11
337.321256
 21
1101.910288
 31
0.0
  0
LINE
  5
2CD7
100
AcDbEntity
  8
0
100
AcDbLine
 10
327.932444
 20
1070.910288
 30
0.0
 11
320.382861
 21
1070.910288
 31
0.0
  0
LINE
  5
2CD8
100
AcDbEntity
  8
0
100
AcDbLine
 10
316.907652
 20
1071.910288
 30
0.0
 11
320.382861
 21
1070.910288
 31
0.0
  0
LINE
  5
2CD9
100
AcDbEntity
  8
0
100
AcDbLine
 10
356.41806
 20
1037.39988
 30
0.0
 11
340.397245
 21
1053.420695
 31
0.0
  0
LINE
  5
2CDA
100
AcDbEntity
  8
0
100
AcDbLine
 10
331.407652
 20
1071.910288
 30
0.0
 11
327.932444
 21
1070.910288
 31
0.0
  0
POLYLINE
  5
2CDB
100
AcDbEntity
  8
0
100
AcDb2dPolyline
 66
     1
 10
0.0
 20
0.0
 30
0.0
  0
VERTEX
  5
329E
100
AcDbEntity
  8
0
100
AcDbVertex
100
AcDb2dVertex
 10
337.907652
 20
1071.449784
 30
0.0
  0
VERTEX
  5
329F
100
AcDbEntity
  8
0
100
AcDbVertex
100
AcDb2dVertex
 10
337.321256
 20
1071.910288
 30
0.0
  0
SEQEND
  5
32A0
100
AcDbEntity
  8
0
  0
LINE
  5
2CDC
100
AcDbEntity
  8
0
100
AcDbLine
 10
331.407652
 20
1071.910288
 30
0.0
 11
337.321256
 21
1071.910288
 31
0.0
  0
ARC
  5
2CDD
100
AcDbEntity
  8
0
100
AcDbCircle
 10
346.407652
 20
1059.431103
 30
0.0
 40
8.5
100
AcDbArc
 50
180.0
 51
225.0
  0
LINE
  5
2CDE
100
AcDbEntity
  8
0
100
AcDbLine
 10
327.932444
 20
1102.910288
 30
0.0
 11
320.382861
 21
1102.910288
 31
0.0
  0
LINE
  5
2CDF
100
AcDbEntity
  8
0
100
AcDbLine
 10
327.932444
 20
1086.910288
 30
0.0
 11
320.382861
 21
1086.910288
 31
0.0
  0
LINE
  5
2CE0
100
AcDbEntity
  8
0
100
AcDbLine
 10
316.907652
 20
1086.910288
 30
0.0
 11
316.907652
 21
1101.910288
 31
0.0
  0
ARC
  5
2CE1
100
AcDbEntity
  8
0
100
AcDbCircle
 10
331.007012
 20
1094.910288
 30
0.0
 40
13.299346
100
AcDbArc
 50
143.020205
 51
216.979795
  0
LINE
  5
2CE2
100
AcDbEntity
  8
0
100
AcDbLine
 10
316.907652
 20
1101.910288
 30
0.0
 11
320.382861
 21
1102.910288
 31
0.0
  0
ARC
  5
2CE3
100
AcDbEntity
  8
0
100
AcDbCircle
 10
317.308292
 20
1094.910288
 30
0.0
 40
13.299346
100
AcDbArc
 50
323.020205
 51
36.979795
  0
ARC
  5
2CE4
100
AcDbEntity
  8
0
100
AcDbCircle
 10
346.407652
 20
1102.410288
 30
0.0
 40
8.5
100
AcDbArc
 50
90.0
 51
180.0
  0
LINE
  5
2CE5
100
AcDbEntity
  8
0
100
AcDbLine
 10
331.407652
 20
1101.910288
 30
0.0
 11
327.932444
 21
1102.910288
 31
0.0
  0
POLYLINE
  5
2CE6
100
AcDbEntity
  8
0
100
AcDb2dPolyline
 66
     1
 10
0.0
 20
0.0
 30
0.0
  0
VERTEX
  5
32A1
100
AcDbEntity
  8
0
100
AcDbVertex
100
AcDb2dVertex
 10
337.907652
 20
1102.370792
 30
0.0
  0
VERTEX
  5
32A2
100
AcDbEntity
  8
0
100
AcDbVertex
100
AcDb2dVertex
 10
337.321256
 20
1101.910288
 30
0.0
  0
SEQEND
  5
32A3
100
AcDbEntity
  8
0
  0
LINE
  5
2CE7
100
AcDbEntity
  8
0
100
AcDbLine
 10
331.407652
 20
1101.910288
 30
0.0
 11
337.321256
 21
1101.910288
 31
0.0
  0
LINE
  5
2CE8
100
AcDbEntity
  8
0
100
AcDbLine
 10
422.907652
 20
1102.410288
 30
0.0
 11
422.907652
 21
1059.431103
 31
0.0
  0
LINE
  5
2CE9
100
AcDbEntity
  8
0
100
AcDbLine
 10
423.494049
 20
1071.910288
 30
0.0
 11
423.494049
 21
1101.910288
 31
0.0
  0
LINE
  5
2CEA
100
AcDbEntity
  8
0
100
AcDbLine
 10
362.428467
 20
1034.910288
 30
0.0
 11
398.386837
 21
1034.910288
 31
0.0
  0
LINE
  5
2CEB
100
AcDbEntity
  8
0
100
AcDbLine
 10
362.428467
 20
1034.910288
 30
0.0
 11
398.386837
 21
1034.910288
 31
0.0
  0
LINE
  5
2CEC
100
AcDbEntity
  8
0
100
AcDbLine
 10
404.397245
 20
1037.39988
 30
0.0
 11
420.41806
 21
1053.420695
 31
0.0
  0
ARC
  5
2CED
100
AcDbEntity
  8
0
100
AcDbCircle
 10
398.386837
 20
1043.410288
 30
0.0
 40
8.5
100
AcDbArc
 50
270.0
 51
315.0
  0
POLYLINE
  5
2CEE
100
AcDbEntity
  8
0
100
AcDb2dPolyline
 66
     1
 10
0.0
 20
0.0
 30
0.0
  0
VERTEX
  5
32A4
100
AcDbEntity
  8
0
100
AcDbVertex
100
AcDb2dVertex
 10
422.907652
 20
1071.449784
 30
0.0
  0
VERTEX
  5
32A5
100
AcDbEntity
  8
0
100
AcDbVertex
100
AcDb2dVertex
 10
423.494049
 20
1071.910288
 30
0.0
  0
SEQEND
  5
32A6
100
AcDbEntity
  8
0
  0
ARC
  5
2CEF
100
AcDbEntity
  8
0
100
AcDbCircle
 10
414.407652
 20
1059.431103
 30
0.0
 40
8.5
100
AcDbArc
 50
315.0
 51
0.0
  0
POLYLINE
  5
2CF0
100
AcDbEntity
  8
0
100
AcDb2dPolyline
 66
     1
 10
0.0
 20
0.0
 30
0.0
  0
VERTEX
  5
32A7
100
AcDbEntity
  8
0
100
AcDbVertex
100
AcDb2dVertex
 10
422.907652
 20
1102.370792
 30
0.0
  0
VERTEX
  5
32A8
100
AcDbEntity
  8
0
100
AcDbVertex
100
AcDb2dVertex
 10
423.494049
 20
1101.910288
 30
0.0
  0
SEQEND
  5
32A9
100
AcDbEntity
  8
0
  0
ARC
  5
2CF1
100
AcDbEntity
  8
0
100
AcDbCircle
 10
414.407652
 20
1102.410288
 30
0.0
 40
8.5
100
AcDbArc
 50
0.0
 51
90.0
  0
LINE
  5
2CF2
100
AcDbEntity
  8
0
100
AcDbLine
 10
443.907652
 20
957.418077
 30
0.0
 11
440.432444
 21
960.893286
 31
0.0
  0
ARC
  5
2CF3
100
AcDbEntity
  8
0
100
AcDbCircle
 10
437.782791
 20
956.274484
 30
0.0
 40
5.324847
100
AcDbArc
 50
299.841453
 51
29.841453
  0
LINE
  5
2CF4
100
AcDbEntity
  8
0
100
AcDbLine
 10
429.407652
 20
957.418077
 30
0.0
 11
432.882861
 21
960.893286
 31
0.0
  0
LINE
  5
2CF5
100
AcDbEntity
  8
0
100
AcDbLine
 10
432.882861
 20
960.893286
 30
0.0
 11
440.432444
 21
960.893286
 31
0.0
  0
LINE
  5
2CF6
100
AcDbEntity
  8
0
100
AcDbLine
 10
432.882861
 20
951.655681
 30
0.0
 11
440.432444
 21
951.655681
 31
0.0
  0
ARC
  5
2CF7
100
AcDbEntity
  8
0
100
AcDbCircle
 10
435.532513
 20
956.274484
 30
0.0
 40
5.324847
100
AcDbArc
 50
150.158547
 51
240.158547
  0
LINE
  5
2CF8
100
AcDbEntity
  8
0
100
AcDbLine
 10
443.907652
 20
942.418077
 30
0.0
 11
443.907652
 21
957.418077
 31
0.0
  0
LINE
  5
2CF9
100
AcDbEntity
  8
0
100
AcDbLine
 10
485.685954
 20
1086.610233
 30
0.0
 11
491.988204
 21
1092.912483
 31
0.0
  0
LINE
  5
2CFA
100
AcDbEntity
  8
0
100
AcDbLine
 10
491.988204
 20
1092.912483
 30
0.0
 11
473.081454
 21
1092.912483
 31
0.0
  0
ARC
  5
2CFB
100
AcDbEntity
  8
0
100
AcDbCircle
 10
443.507012
 20
1078.910288
 30
0.0
 40
13.299346
100
AcDbArc
 50
143.020205
 51
216.979795
  0
ARC
  5
2CFC
100
AcDbEntity
  8
0
100
AcDbCircle
 10
429.808292
 20
1078.910288
 30
0.0
 40
13.299346
100
AcDbArc
 50
323.020205
 51
36.979795
  0
LINE
  5
2CFD
100
AcDbEntity
  8
0
100
AcDbLine
 10
443.907652
 20
1071.910288
 30
0.0
 11
443.907652
 21
1086.910288
 31
0.0
  0
LINE
  5
2CFE
100
AcDbEntity
  8
0
100
AcDbLine
 10
429.407652
 20
1071.910288
 30
0.0
 11
429.407652
 21
1101.910288
 31
0.0
  0
LINE
  5
2CFF
100
AcDbEntity
  8
0
100
AcDbLine
 10
443.907652
 20
1071.910288
 30
0.0
 11
440.432444
 21
1070.910288
 31
0.0
  0
LINE
  5
2D00
100
AcDbEntity
  8
0
100
AcDbLine
 10
429.407652
 20
1071.910288
 30
0.0
 11
432.882861
 21
1070.910288
 31
0.0
  0
LINE
  5
2D01
100
AcDbEntity
  8
0
100
AcDbLine
 10
432.882861
 20
1070.910288
 30
0.0
 11
440.432444
 21
1070.910288
 31
0.0
  0
LINE
  5
2D02
100
AcDbEntity
  8
0
100
AcDbLine
 10
460.613079
 20
1092.912483
 30
0.0
 11
454.173579
 21
1086.610233
 31
0.0
  0
LINE
  5
2D03
100
AcDbEntity
  8
0
100
AcDbLine
 10
454.173579
 20
1086.610233
 30
0.0
 11
485.685954
 21
1086.610233
 31
0.0
  0
ARC
  5
2D04
100
AcDbEntity
  8
0
100
AcDbCircle
 10
443.507012
 20
1094.910288
 30
0.0
 40
13.299346
100
AcDbArc
 50
143.020205
 51
216.979795
  0
ARC
  5
2D05
100
AcDbEntity
  8
0
100
AcDbCircle
 10
429.808292
 20
1094.910288
 30
0.0
 40
13.299346
100
AcDbArc
 50
323.020205
 51
36.979795
  0
LINE
  5
2D06
100
AcDbEntity
  8
0
100
AcDbLine
 10
443.907652
 20
1086.910288
 30
0.0
 11
443.907652
 21
1101.910288
 31
0.0
  0
LINE
  5
2D07
100
AcDbEntity
  8
0
100
AcDbLine
 10
432.882861
 20
1086.910288
 30
0.0
 11
440.432444
 21
1086.910288
 31
0.0
  0
LINE
  5
2D08
100
AcDbEntity
  8
0
100
AcDbLine
 10
443.907652
 20
1101.910288
 30
0.0
 11
440.432444
 21
1102.910288
 31
0.0
  0
LINE
  5
2D09
100
AcDbEntity
  8
0
100
AcDbLine
 10
429.407652
 20
1101.910288
 30
0.0
 11
432.882861
 21
1102.910288
 31
0.0
  0
LINE
  5
2D0A
100
AcDbEntity
  8
0
100
AcDbLine
 10
432.882861
 20
1102.910288
 30
0.0
 11
440.432444
 21
1102.910288
 31
0.0
  0
LINE
  5
2D0B
100
AcDbEntity
  8
0
100
AcDbLine
 10
469.929204
 20
1089.761358
 30
0.0
 11
460.613079
 21
1089.761358
 31
0.0
  0
LINE
  5
2D0C
100
AcDbEntity
  8
0
100
AcDbLine
 10
460.613079
 20
1089.761358
 30
0.0
 11
460.613079
 21
1092.912483
 31
0.0
  0
LINE
  5
2D0D
100
AcDbEntity
  8
0
100
AcDbLine
 10
473.081454
 20
1092.912483
 30
0.0
 11
469.929204
 21
1089.761358
 31
0.0
  0
ARC
  5
2D0E
100
AcDbEntity
  8
0
100
AcDbCircle
 10
821.595575
 20
952.234612
 30
0.0
 40
7.56827
100
AcDbArc
 50
136.640741
 51
223.359259
  0
LINE
  5
2D0F
100
AcDbEntity
  8
0
100
AcDbLine
 10
816.092966
 20
957.430764
 30
0.0
 11
812.808356
 21
954.146155
 31
0.0
  0
LINE
  5
2D10
100
AcDbEntity
  8
0
100
AcDbLine
 10
812.808356
 20
1065.590203
 30
0.0
 11
812.808356
 21
1083.090203
 31
0.0
  0
ARC
  5
2D11
100
AcDbEntity
  8
0
100
AcDbCircle
 10
834.666455
 20
1074.090203
 30
0.0
 40
20.63915
100
AcDbArc
 50
154.146953
 51
205.853047
  0
LINE
  5
2D12
100
AcDbEntity
  8
0
100
AcDbLine
 10
816.092966
 20
1065.090203
 30
0.0
 11
812.808356
 21
1065.590203
 31
0.0
  0
LINE
  5
2D13
100
AcDbEntity
  8
0
100
AcDbLine
 10
812.808356
 20
1083.090203
 30
0.0
 11
812.808356
 21
1100.590203
 31
0.0
  0
ARC
  5
2D14
100
AcDbEntity
  8
0
100
AcDbCircle
 10
834.666455
 20
1092.090203
 30
0.0
 40
20.63915
100
AcDbArc
 50
154.146953
 51
205.853047
  0
LINE
  5
2D15
100
AcDbEntity
  8
0
100
AcDbLine
 10
816.092966
 20
1101.090203
 30
0.0
 11
812.808356
 21
1100.590203
 31
0.0
  0
LINE
  5
2D19
100
AcDbEntity
  8
0
100
AcDbLine
 10
1346.856778
 20
542.890375
 30
0.0
 11
1346.856778
 21
605.390375
 31
0.0
  0
LINE
  5
2D1A
100
AcDbEntity
  8
0
100
AcDbLine
 10
1561.856778
 20
542.890375
 30
0.0
 11
1561.856778
 21
605.390375
 31
0.0
  0
LINE
  5
2D1C
100
AcDbEntity
  8
0
100
AcDbLine
 10
1418.106778
 20
566.890375
 30
0.0
 11
1490.606778
 21
566.890375
 31
0.0
  0
LINE
  5
2D1D
100
AcDbEntity
  8
0
100
AcDbLine
 10
1430.056526
 20
492.940628
 30
0.0
 11
1413.157031
 21
509.840123
 31
0.0
  0
ARC
  5
2D1E
100
AcDbEntity
  8
0
100
AcDbCircle
 10
1428.776025
 20
406.41397
 30
0.0
 40
11.5
100
AcDbArc
 50
90.0
 51
153.789731
  0
ARC
  5
2D1F
100
AcDbEntity
  8
0
100
AcDbCircle
 10
1428.776025
 20
353.41397
 30
0.0
 40
11.5
100
AcDbArc
 50
206.210269
 51
270.0
  0
LINE
  5
2D20
100
AcDbEntity
  8
0
100
AcDbLine
 10
1418.106778
 20
239.107257
 30
0.0
 11
1490.606778
 21
239.107257
 31
0.0
  0
LINE
  5
2D21
100
AcDbEntity
  8
0
100
AcDbLine
 10
1430.056526
 20
165.157509
 30
0.0
 11
1413.157031
 21
182.057004
 31
0.0
  0
CIRCLE
  5
2D22
100
AcDbEntity
  8
0
100
AcDbCircle
 10
1198.129773
 20
246.927062
 30
0.0
 40
7.5
  0
CIRCLE
  5
2D23
100
AcDbEntity
  8
0
100
AcDbCircle
 10
1261.769383
 20
246.927062
 30
0.0
 40
7.5
  0
CIRCLE
  5
2D24
100
AcDbEntity
  8
0
100
AcDbCircle
 10
1073.515691
 20
241.623761
 30
0.0
 40
6.0
  0
ARC
  5
2D26
100
AcDbEntity
  8
0
100
AcDbCircle
 10
918.941564
 20
232.84989
 30
0.0
 40
7.0
100
AcDbArc
 50
0.0
 51
90.0
  0
LINE
  5
2D27
100
AcDbEntity
  8
0
100
AcDbLine
 10
980.191564
 20
215.107257
 30
0.0
 11
980.191564
 21
265.107257
 31
0.0
  0
CIRCLE
  5
2D29
100
AcDbEntity
  8
0
100
AcDbCircle
 10
1046.999187
 20
215.107257
 30
0.0
 40
50.0
  0
CIRCLE
  5
2D2A
100
AcDbEntity
  8
0
100
AcDbCircle
 10
1020.482683
 20
241.623761
 30
0.0
 40
6.0
  0
LINE
  5
2D2B
100
AcDbEntity
  8
0
100
AcDbLine
 10
1346.856778
 20
215.107257
 30
0.0
 11
1346.856778
 21
277.607257
 31
0.0
  0
CIRCLE
  5
2D2D
100
AcDbEntity
  8
0
100
AcDbCircle
 10
1229.949578
 20
215.107257
 30
0.0
 40
62.5
  0
CIRCLE
  5
2D2E
100
AcDbEntity
  8
0
100
AcDbCircle
 10
1020.482683
 20
188.590752
 30
0.0
 40
6.0
  0
LINE
  5
2D30
100
AcDbEntity
  8
0
100
AcDbLine
 10
925.941564
 20
232.84989
 30
0.0
 11
925.941564
 21
187.749384
 31
0.0
  0
ARC
  5
2D32
100
AcDbEntity
  8
0
100
AcDbCircle
 10
918.941564
 20
187.749384
 30
0.0
 40
7.0
100
AcDbArc
 50
315.0
 51
0.0
  0
LINE
  5
2D35
100
AcDbEntity
  8
0
100
AcDbLine
 10
927.38265
 20
230.107257
 30
0.0
 11
927.38265
 21
200.107257
 31
0.0
  0
LINE
  5
2D36
100
AcDbEntity
  8
0
100
AcDbLine
 10
927.38265
 20
200.107257
 30
0.0
 11
925.941564
 21
198.769693
 31
0.0
  0
LINE
  5
2D37
100
AcDbEntity
  8
0
100
AcDbLine
 10
927.38265
 20
230.107257
 30
0.0
 11
925.941564
 21
231.444821
 31
0.0
  0
LINE
  5
2D42
100
AcDbEntity
  8
0
100
AcDbLine
 10
980.191564
 20
165.107257
 30
0.0
 11
980.191564
 21
215.107257
 31
0.0
  0
ELLIPSE
  5
2D43
100
AcDbEntity
  8
0
100
AcDbEllipse
 10
1046.999187
 20
174.807405
 30
0.0
 11
-15.0
 21
0.0
 31
0.0
210
0.0
220
0.0
230
1.0
 40
0.687366
 41
1.116598331309346
 42
2.024994322280446
  0
ARC
  5
2D44
100
AcDbEntity
  8
0
100
AcDbCircle
 10
1046.999187
 20
201.84989
 30
0.0
 40
38.0
100
AcDbArc
 50
240.884143
 51
299.115857
  0
CIRCLE
  5
2D45
100
AcDbEntity
  8
0
100
AcDbCircle
 10
1073.515691
 20
188.590752
 30
0.0
 40
6.0
  0
CIRCLE
  5
2D46
100
AcDbEntity
  8
0
100
AcDbCircle
 10
1198.129773
 20
183.287452
 30
0.0
 40
7.5
  0
CIRCLE
  5
2D47
100
AcDbEntity
  8
0
100
AcDbCircle
 10
1261.769383
 20
183.287452
 30
0.0
 40
7.5
  0
LINE
  5
2D48
100
AcDbEntity
  8
0
100
AcDbLine
 10
1346.856778
 20
152.607257
 30
0.0
 11
1346.856778
 21
215.107257
 31
0.0
  0
LINE
  5
2D49
100
AcDbEntity
  8
0
100
AcDbLine
 10
1346.856778
 20
152.607257
 30
0.0
 11
1346.856778
 21
215.107257
 31
0.0
  0
LINE
  5
2D4D
100
AcDbEntity
  8
0
100
AcDbLine
 10
1340.817552
 20
212.604665
 30
0.0
 11
1309.305177
 21
212.604665
 31
0.0
  0
LINE
  5
2D4E
100
AcDbEntity
  8
0
100
AcDbLine
 10
1325.061927
 20
215.75579
 30
0.0
 11
1334.378052
 21
215.75579
 31
0.0
  0
LINE
  5
2D4F
100
AcDbEntity
  8
0
100
AcDbLine
 10
1309.305177
 20
212.604665
 30
0.0
 11
1303.002927
 21
218.906915
 31
0.0
  0
LINE
  5
2D50
100
AcDbEntity
  8
0
100
AcDbLine
 10
1321.909677
 20
218.906915
 30
0.0
 11
1325.061927
 21
215.75579
 31
0.0
  0
LINE
  5
2D51
100
AcDbEntity
  8
0
100
AcDbLine
 10
1303.002927
 20
218.906915
 30
0.0
 11
1321.909677
 21
218.906915
 31
0.0
  0
LINE
  5
2D52
100
AcDbEntity
  8
0
100
AcDbLine
 10
1334.378052
 20
218.906915
 30
0.0
 11
1340.817552
 21
212.604665
 31
0.0
  0
LINE
  5
2D53
100
AcDbEntity
  8
0
100
AcDbLine
 10
1334.378052
 20
215.75579
 30
0.0
 11
1334.378052
 21
218.906915
 31
0.0
  0
ARC
  5
2D54
100
AcDbEntity
  8
0
100
AcDbCircle
 10
1414.72417
 20
203.518749
 30
0.0
 40
8.4762
100
AcDbArc
 50
219.675126
 51
244.737221
  0
LINE
  5
2D55
100
AcDbEntity
  8
0
100
AcDbLine
 10
1411.106778
 20
232.107257
 30
0.0
 11
1411.106778
 21
186.006752
 31
0.0
  0
LINE
  5
2D56
100
AcDbEntity
  8
0
100
AcDbLine
 10
1411.106778
 20
232.107257
 30
0.0
 11
1411.106778
 21
186.006752
 31
0.0
  0
ARC
  5
2D57
100
AcDbEntity
  8
0
100
AcDbCircle
 10
1418.106778
 20
187.006752
 30
0.0
 40
7.0
100
AcDbArc
 50
180.0
 51
225.0
  0
LINE
  5
2D5B
100
AcDbEntity
  8
0
100
AcDbLine
 10
1408.200236
 20
232.107257
 30
0.0
 11
1408.200236
 21
198.107257
 31
0.0
  0
ARC
  5
2D5C
100
AcDbEntity
  8
0
100
AcDbCircle
 10
1414.72417
 20
226.695765
 30
0.0
 40
8.4762
100
AcDbArc
 50
112.002845
 51
140.324874
  0
ARC
  5
2D5D
100
AcDbEntity
  8
0
100
AcDbCircle
 10
1418.106778
 20
232.107257
 30
0.0
 40
7.0
100
AcDbArc
 50
90.0
 51
180.0
  0
LINE
  5
2D66
100
AcDbEntity
  8
0
100
AcDbLine
 10
927.38265
 20
394.91397
 30
0.0
 11
927.38265
 21
364.91397
 31
0.0
  0
ARC
  5
2D67
100
AcDbEntity
  8
0
100
AcDbCircle
 10
853.50519
 20
380.656603
 30
0.0
 40
71.5
100
AcDbArc
 50
333.789731
 51
26.210269
  0
LINE
  5
2D69
100
AcDbEntity
  8
0
100
AcDbLine
 10
927.38265
 20
364.91397
 30
0.0
 11
921.904601
 21
359.829443
 31
0.0
  0
LINE
  5
2D6F
100
AcDbEntity
  8
0
100
AcDbLine
 10
927.38265
 20
394.91397
 30
0.0
 11
922.489617
 21
399.455507
 31
0.0
  0
LINE
  5
2D7C
100
AcDbEntity
  8
0
100
AcDbLine
 10
925.941564
 20
562.7202
 30
0.0
 11
925.941564
 21
517.619695
 31
0.0
  0
LINE
  5
2D7E
100
AcDbEntity
  8
0
100
AcDbLine
 10
927.38265
 20
559.977567
 30
0.0
 11
927.38265
 21
529.977567
 31
0.0
  0
ARC
  5
2D80
100
AcDbEntity
  8
0
100
AcDbCircle
 10
918.941564
 20
517.619695
 30
0.0
 40
7.0
100
AcDbArc
 50
315.0
 51
0.0
  0
LINE
  5
2D81
100
AcDbEntity
  8
0
100
AcDbLine
 10
927.38265
 20
529.977567
 30
0.0
 11
925.941564
 21
528.640003
 31
0.0
  0
ARC
  5
2D87
100
AcDbEntity
  8
0
100
AcDbCircle
 10
918.941564
 20
562.7202
 30
0.0
 40
7.0
100
AcDbArc
 50
0.0
 51
90.0
  0
LINE
  5
2D88
100
AcDbEntity
  8
0
100
AcDbLine
 10
927.38265
 20
559.977567
 30
0.0
 11
925.941564
 21
561.315131
 31
0.0
  0
LINE
  5
2D8D
100
AcDbEntity
  8
0
100
AcDbLine
 10
1007.140408
 20
551.293565
 30
0.0
 11
997.824283
 21
551.293565
 31
0.0
  0
LINE
  5
2D8E
100
AcDbEntity
  8
0
100
AcDbLine
 10
991.384783
 20
548.14244
 30
0.0
 11
1022.897158
 21
548.14244
 31
0.0
  0
LINE
  5
2D8F
100
AcDbEntity
  8
0
100
AcDbLine
 10
997.824283
 20
554.44469
 30
0.0
 11
991.384783
 21
548.14244
 31
0.0
  0
LINE
  5
2D90
100
AcDbEntity
  8
0
100
AcDbLine
 10
997.824283
 20
551.293565
 30
0.0
 11
997.824283
 21
554.44469
 31
0.0
  0
LINE
  5
2D91
100
AcDbEntity
  8
0
100
AcDbLine
 10
1029.199408
 20
554.44469
 30
0.0
 11
1010.292658
 21
554.44469
 31
0.0
  0
LINE
  5
2D92
100
AcDbEntity
  8
0
100
AcDbLine
 10
1010.292658
 20
554.44469
 30
0.0
 11
1007.140408
 21
551.293565
 31
0.0
  0
LINE
  5
2D93
100
AcDbEntity
  8
0
100
AcDbLine
 10
1022.897158
 20
548.14244
 30
0.0
 11
1029.199408
 21
554.44469
 31
0.0
  0
LINE
  5
2D95
100
AcDbEntity
  8
0
100
AcDbLine
 10
1346.856778
 20
379.91397
 30
0.0
 11
1346.856778
 21
442.41397
 31
0.0
  0
LINE
  5
2D96
100
AcDbEntity
  8
0
100
AcDbLine
 10
1294.960202
 20
387.680407
 30
0.0
 11
1313.866952
 21
387.680407
 31
0.0
  0
LINE
  5
2D97
100
AcDbEntity
  8
0
100
AcDbLine
 10
1301.262452
 20
381.378157
 30
0.0
 11
1294.960202
 21
387.680407
 31
0.0
  0
LINE
  5
2D98
100
AcDbEntity
  8
0
100
AcDbLine
 10
1346.856778
 20
317.41397
 30
0.0
 11
1346.856778
 21
379.91397
 31
0.0
  0
LINE
  5
2D99
100
AcDbEntity
  8
0
100
AcDbLine
 10
1346.856778
 20
317.41397
 30
0.0
 11
1346.856778
 21
379.479018
 31
0.0
  0
LINE
  5
2D9E
100
AcDbEntity
  8
0
100
AcDbLine
 10
1332.774827
 20
381.378157
 30
0.0
 11
1301.262452
 21
381.378157
 31
0.0
  0
LINE
  5
2D9F
100
AcDbEntity
  8
0
100
AcDbLine
 10
1326.335327
 20
387.680407
 30
0.0
 11
1332.774827
 21
381.378157
 31
0.0
  0
LINE
  5
2DA0
100
AcDbEntity
  8
0
100
AcDbLine
 10
1317.019202
 20
384.529282
 30
0.0
 11
1326.335327
 21
384.529282
 31
0.0
  0
LINE
  5
2DA1
100
AcDbEntity
  8
0
100
AcDbLine
 10
1313.866952
 20
387.680407
 30
0.0
 11
1317.019202
 21
384.529282
 31
0.0
  0
LINE
  5
2DA2
100
AcDbEntity
  8
0
100
AcDbLine
 10
1326.335327
 20
384.529282
 30
0.0
 11
1326.335327
 21
387.680407
 31
0.0
  0
LINE
  5
2DA4
100
AcDbEntity
  8
0
100
AcDbLine
 10
1413.970014
 20
399.945062
 30
0.0
 11
1413.970014
 21
359.882879
 31
0.0
  0
LINE
  5
2DA5
100
AcDbEntity
  8
0
100
AcDbLine
 10
1408.200236
 20
396.91397
 30
0.0
 11
1408.200236
 21
362.91397
 31
0.0
  0
ARC
  5
2DA7
100
AcDbEntity
  8
0
100
AcDbCircle
 10
1482.606778
 20
379.91397
 30
0.0
 40
71.5
100
AcDbArc
 50
196.269463
 51
206.210269
  0
ARC
  5
2DA8
100
AcDbEntity
  8
0
100
AcDbCircle
 10
1414.72417
 20
368.325462
 30
0.0
 40
8.4762
100
AcDbArc
 50
219.675126
 51
264.895453
  0
ARC
  5
2DAA
100
AcDbEntity
  8
0
100
AcDbCircle
 10
1414.72417
 20
391.502478
 30
0.0
 40
8.4762
100
AcDbArc
 50
95.104547
 51
140.324874
  0
ARC
  5
2DAB
100
AcDbEntity
  8
0
100
AcDbCircle
 10
1482.606778
 20
379.91397
 30
0.0
 40
71.5
100
AcDbArc
 50
153.789731
 51
163.730537
  0
LINE
  5
2DAC
100
AcDbEntity
  8
0
100
AcDbLine
 10
1346.856778
 20
480.390375
 30
0.0
 11
1346.856778
 21
542.890375
 31
0.0
  0
LINE
  5
2DAD
100
AcDbEntity
  8
0
100
AcDbLine
 10
1346.856778
 20
542.890375
 30
0.0
 11
1346.856778
 21
480.390375
 31
0.0
  0
LINE
  5
2DB3
100
AcDbEntity
  8
0
100
AcDbLine
 10
1408.200236
 20
559.890375
 30
0.0
 11
1408.200236
 21
525.890375
 31
0.0
  0
LINE
  5
2DB4
100
AcDbEntity
  8
0
100
AcDbLine
 10
1411.106778
 20
559.890375
 30
0.0
 11
1411.106778
 21
513.78987
 31
0.0
  0
LINE
  5
2DB5
100
AcDbEntity
  8
0
100
AcDbLine
 10
1411.106778
 20
559.890375
 30
0.0
 11
1411.106778
 21
513.78987
 31
0.0
  0
ARC
  5
2DB7
100
AcDbEntity
  8
0
100
AcDbCircle
 10
1414.72417
 20
531.301867
 30
0.0
 40
8.4762
100
AcDbArc
 50
219.675126
 51
244.737221
  0
ARC
  5
2DB8
100
AcDbEntity
  8
0
100
AcDbCircle
 10
1418.106778
 20
514.78987
 30
0.0
 40
7.0
100
AcDbArc
 50
180.0
 51
225.0
  0
ARC
  5
2DBA
100
AcDbEntity
  8
0
100
AcDbCircle
 10
1414.72417
 20
554.478883
 30
0.0
 40
8.4762
100
AcDbArc
 50
112.002845
 51
140.324874
  0
ARC
  5
2DBB
100
AcDbEntity
  8
0
100
AcDbCircle
 10
1418.106778
 20
559.890375
 30
0.0
 40
7.0
100
AcDbArc
 50
90.0
 51
180.0
  0
CIRCLE
  5
2DBC
100
AcDbEntity
  8
0
100
AcDbCircle
 10
1674.230106
 20
246.927062
 30
0.0
 40
7.5
  0
CIRCLE
  5
2DBD
100
AcDbEntity
  8
0
100
AcDbCircle
 10
1610.590496
 20
246.927062
 30
0.0
 40
7.5
  0
LINE
  5
2DBE
100
AcDbEntity
  8
0
100
AcDbLine
 10
1561.856778
 20
215.107257
 30
0.0
 11
1561.856778
 21
277.607257
 31
0.0
  0
CIRCLE
  5
2DC0
100
AcDbEntity
  8
0
100
AcDbCircle
 10
1642.410301
 20
215.107257
 30
0.0
 40
62.5
  0
CIRCLE
  5
2DC1
100
AcDbEntity
  8
0
100
AcDbCircle
 10
1674.230106
 20
183.287452
 30
0.0
 40
7.5
  0
TEXT
  5
2DC3
100
AcDbEntity
  8
0
100
AcDbText
 10
1442.190339
 20
124.225297
 30
0.0
 40
20.0
  1
25A
 41
0.8
 11
1442.190339
 21
124.225297
 31
0.0
100
AcDbText
 73
     1
  0
ARC
  5
2DC4
100
AcDbEntity
  8
0
100
AcDbCircle
 10
1490.606778
 20
232.107257
 30
0.0
 40
7.0
100
AcDbArc
 50
0.0
 51
90.0
  0
LINE
  5
2DC5
100
AcDbEntity
  8
0
100
AcDbLine
 10
1478.657031
 20
165.157509
 30
0.0
 11
1495.556526
 21
182.057004
 31
0.0
  0
LINE
  5
2DC6
100
AcDbEntity
  8
0
100
AcDbLine
 10
1435.006273
 20
163.107257
 30
0.0
 11
1473.707283
 21
163.107257
 31
0.0
  0
LINE
  5
2DC7
100
AcDbEntity
  8
0
100
AcDbLine
 10
1435.006273
 20
163.107257
 30
0.0
 11
1473.707283
 21
163.107257
 31
0.0
  0
ARC
  5
2DC8
100
AcDbEntity
  8
0
100
AcDbCircle
 10
1435.006273
 20
170.107257
 30
0.0
 40
7.0
100
AcDbArc
 50
225.0
 51
270.0
  0
ARC
  5
2DC9
100
AcDbEntity
  8
0
100
AcDbCircle
 10
1473.707283
 20
170.107257
 30
0.0
 40
7.0
100
AcDbArc
 50
270.0
 51
315.0
  0
ARC
  5
2DCB
100
AcDbEntity
  8
0
100
AcDbCircle
 10
1493.989387
 20
203.518749
 30
0.0
 40
8.4762
100
AcDbArc
 50
295.262779
 51
320.324874
  0
LINE
  5
2DCC
100
AcDbEntity
  8
0
100
AcDbLine
 10
1497.606778
 20
232.107257
 30
0.0
 11
1497.606778
 21
186.006752
 31
0.0
  0
ARC
  5
2DCD
100
AcDbEntity
  8
0
100
AcDbCircle
 10
1490.606778
 20
187.006752
 30
0.0
 40
7.0
100
AcDbArc
 50
315.0
 51
0.0
  0
LINE
  5
2DD0
100
AcDbEntity
  8
0
100
AcDbLine
 10
1500.513321
 20
232.107257
 30
0.0
 11
1500.513321
 21
198.107257
 31
0.0
  0
ARC
  5
2DD1
100
AcDbEntity
  8
0
100
AcDbCircle
 10
1493.989387
 20
226.695765
 30
0.0
 40
8.4762
100
AcDbArc
 50
39.675126
 51
67.997155
  0
LINE
  5
2DD4
100
AcDbEntity
  8
0
100
AcDbLine
 10
1561.856778
 20
152.607257
 30
0.0
 11
1561.856778
 21
215.107257
 31
0.0
  0
LINE
  5
2DD5
100
AcDbEntity
  8
0
100
AcDbLine
 10
1561.856778
 20
152.607257
 30
0.0
 11
1561.856778
 21
215.107257
 31
0.0
  0
CIRCLE
  5
2DD6
100
AcDbEntity
  8
0
100
AcDbCircle
 10
1610.590496
 20
183.287452
 30
0.0
 40
7.5
  0
LINE
  5
2DD8
100
AcDbEntity
  8
0
100
AcDbLine
 10
1561.856778
 20
379.91397
 30
0.0
 11
1561.856778
 21
442.41397
 31
0.0
  0
ARC
  5
2DD9
100
AcDbEntity
  8
0
100
AcDbCircle
 10
1479.937532
 20
406.41397
 30
0.0
 40
11.5
100
AcDbArc
 50
26.210269
 51
90.0
  0
ARC
  5
2DDC
100
AcDbEntity
  8
0
100
AcDbCircle
 10
1426.106778
 20
379.91397
 30
0.0
 40
71.5
100
AcDbArc
 50
16.269463
 51
26.210269
  0
ARC
  5
2DDD
100
AcDbEntity
  8
0
100
AcDbCircle
 10
1426.106778
 20
379.91397
 30
0.0
 40
71.5
100
AcDbArc
 50
333.789731
 51
343.730537
  0
LINE
  5
2DDE
100
AcDbEntity
  8
0
100
AcDbLine
 10
1428.776025
 20
341.91397
 30
0.0
 11
1479.937532
 21
341.91397
 31
0.0
  0
ARC
  5
2DDF
100
AcDbEntity
  8
0
100
AcDbCircle
 10
1479.937532
 20
353.41397
 30
0.0
 40
11.5
100
AcDbArc
 50
270.0
 51
333.789731
  0
LINE
  5
2DE1
100
AcDbEntity
  8
0
100
AcDbLine
 10
1494.743542
 20
399.945062
 30
0.0
 11
1494.743542
 21
359.882879
 31
0.0
  0
LINE
  5
2DE2
100
AcDbEntity
  8
0
100
AcDbLine
 10
1500.513321
 20
396.91397
 30
0.0
 11
1500.513321
 21
362.91397
 31
0.0
  0
ARC
  5
2DE4
100
AcDbEntity
  8
0
100
AcDbCircle
 10
1493.989387
 20
368.325462
 30
0.0
 40
8.4762
100
AcDbArc
 50
275.104547
 51
320.324874
  0
ARC
  5
2DE7
100
AcDbEntity
  8
0
100
AcDbCircle
 10
1493.989387
 20
391.502478
 30
0.0
 40
8.4762
100
AcDbArc
 50
39.675126
 51
84.895453
  0
LINE
  5
2DE9
100
AcDbEntity
  8
0
100
AcDbLine
 10
1561.856778
 20
317.41397
 30
0.0
 11
1561.856778
 21
379.91397
 31
0.0
  0
LINE
  5
2DEA
100
AcDbEntity
  8
0
100
AcDbLine
 10
1561.856778
 20
317.41397
 30
0.0
 11
1561.856778
 21
379.91397
 31
0.0
  0
LINE
  5
2DED
100
AcDbEntity
  8
0
100
AcDbLine
 10
1478.657031
 20
492.940628
 30
0.0
 11
1495.556526
 21
509.840123
 31
0.0
  0
LINE
  5
2DEE
100
AcDbEntity
  8
0
100
AcDbLine
 10
1428.776025
 20
417.91397
 30
0.0
 11
1479.937532
 21
417.91397
 31
0.0
  0
LINE
  5
2DEF
100
AcDbEntity
  8
0
100
AcDbLine
 10
1435.006273
 20
490.890375
 30
0.0
 11
1473.707283
 21
490.890375
 31
0.0
  0
LINE
  5
2DF0
100
AcDbEntity
  8
0
100
AcDbLine
 10
1435.006273
 20
490.890375
 30
0.0
 11
1473.707283
 21
490.890375
 31
0.0
  0
ARC
  5
2DF1
100
AcDbEntity
  8
0
100
AcDbCircle
 10
1435.006273
 20
497.890375
 30
0.0
 40
7.0
100
AcDbArc
 50
225.0
 51
270.0
  0
ARC
  5
2DF2
100
AcDbEntity
  8
0
100
AcDbCircle
 10
1473.707283
 20
497.890375
 30
0.0
 40
7.0
100
AcDbArc
 50
270.0
 51
315.0
  0
ARC
  5
2DF3
100
AcDbEntity
  8
0
100
AcDbCircle
 10
1490.606778
 20
559.890375
 30
0.0
 40
7.0
100
AcDbArc
 50
0.0
 51
90.0
  0
LINE
  5
2DF5
100
AcDbEntity
  8
0
100
AcDbLine
 10
1500.513321
 20
559.890375
 30
0.0
 11
1500.513321
 21
525.890375
 31
0.0
  0
LINE
  5
2DF6
100
AcDbEntity
  8
0
100
AcDbLine
 10
1497.606778
 20
559.890375
 30
0.0
 11
1497.606778
 21
513.78987
 31
0.0
  0
ARC
  5
2DF8
100
AcDbEntity
  8
0
100
AcDbCircle
 10
1493.989387
 20
531.301867
 30
0.0
 40
8.4762
100
AcDbArc
 50
295.262779
 51
320.324874
  0
ARC
  5
2DF9
100
AcDbEntity
  8
0
100
AcDbCircle
 10
1490.606778
 20
514.78987
 30
0.0
 40
7.0
100
AcDbArc
 50
315.0
 51
0.0
  0
ARC
  5
2DFC
100
AcDbEntity
  8
0
100
AcDbCircle
 10
1493.989387
 20
554.478883
 30
0.0
 40
8.4762
100
AcDbArc
 50
39.675126
 51
67.997155
  0
LINE
  5
2DFE
100
AcDbEntity
  8
0
100
AcDbLine
 10
1561.856778
 20
480.390375
 30
0.0
 11
1561.856778
 21
542.890375
 31
0.0
  0
LINE
  5
2DFF
100
AcDbEntity
  8
0
100
AcDbLine
 10
1561.856778
 20
542.890375
 30
0.0
 11
1561.856778
 21
480.390375
 31
0.0
  0
LINE
  5
2E00
100
AcDbEntity
  8
0
100
AcDbLine
 10
1608.237512
 20
544.124021
 30
0.0
 11
1614.539762
 21
550.426271
 31
0.0
  0
LINE
  5
2E01
100
AcDbEntity
  8
0
100
AcDbLine
 10
1583.164637
 20
550.426271
 30
0.0
 11
1576.725137
 21
544.124021
 31
0.0
  0
LINE
  5
2E02
100
AcDbEntity
  8
0
100
AcDbLine
 10
1583.164637
 20
547.275146
 30
0.0
 11
1583.164637
 21
550.426271
 31
0.0
  0
LINE
  5
2E03
100
AcDbEntity
  8
0
100
AcDbLine
 10
1595.633012
 20
550.426271
 30
0.0
 11
1592.480762
 21
547.275146
 31
0.0
  0
LINE
  5
2E04
100
AcDbEntity
  8
0
100
AcDbLine
 10
1592.480762
 20
547.275146
 30
0.0
 11
1583.164637
 21
547.275146
 31
0.0
  0
LINE
  5
2E05
100
AcDbEntity
  8
0
100
AcDbLine
 10
1576.725137
 20
544.124021
 30
0.0
 11
1608.237512
 21
544.124021
 31
0.0
  0
LINE
  5
2E06
100
AcDbEntity
  8
0
100
AcDbLine
 10
1614.539762
 20
550.426271
 30
0.0
 11
1595.633012
 21
550.426271
 31
0.0
  0
LINE
  5
2E07
100
AcDbEntity
  8
0
100
AcDbLine
 10
1410.387539
 20
1090.366551
 30
0.0
 11
1425.406777
 21
1084.866551
 31
0.0
  0
ARC
  5
2E08
100
AcDbEntity
  8
0
100
AcDbCircle
 10
1395.408959
 20
1080.116551
 30
0.0
 40
18.149941
100
AcDbArc
 50
325.615753
 51
34.384247
  0
LINE
  5
2E09
100
AcDbEntity
  8
0
100
AcDbLine
 10
1410.387539
 20
1049.366551
 30
0.0
 11
1425.406777
 21
1054.866551
 31
0.0
  0
ARC
  5
2E0A
100
AcDbEntity
  8
0
100
AcDbCircle
 10
1395.408959
 20
1059.616551
 30
0.0
 40
18.149941
100
AcDbArc
 50
325.615753
 51
34.384247
  0
LINE
  5
2E0B
100
AcDbEntity
  8
0
100
AcDbLine
 10
1410.387539
 20
954.370753
 30
0.0
 11
1425.406777
 21
945.699392
 31
0.0
  0
ARC
  5
2E0C
100
AcDbEntity
  8
0
100
AcDbCircle
 10
1406.4518
 20
948.452913
 30
0.0
 40
7.107101
100
AcDbArc
 50
303.626429
 51
56.373571
  0
LINE
  5
2E0D
100
AcDbEntity
  8
0
100
AcDbLine
 10
1410.387539
 20
907.028031
 30
0.0
 11
1425.406777
 21
915.699392
 31
0.0
  0
ARC
  5
2E0E
100
AcDbEntity
  8
0
100
AcDbCircle
 10
1406.4518
 20
912.945872
 30
0.0
 40
7.107101
100
AcDbArc
 50
303.626429
 51
56.373571
  0
ARC
  5
2E0F
100
AcDbEntity
  8
0
100
AcDbCircle
 10
1389.887539
 20
930.699392
 30
0.0
 40
23.671361
100
AcDbArc
 50
330.0
 51
30.0
  0
LINE
  5
2E10
100
AcDbEntity
  8
0
100
AcDbLine
 10
1410.387539
 20
781.647693
 30
0.0
 11
1425.406777
 21
787.147693
 31
0.0
  0
ARC
  5
2E11
100
AcDbEntity
  8
0
100
AcDbCircle
 10
1395.408959
 20
791.897693
 30
0.0
 40
18.149941
100
AcDbArc
 50
325.615753
 51
34.384247
  0
ARC
  5
2E12
100
AcDbEntity
  8
0
100
AcDbCircle
 10
1395.408959
 20
812.397693
 30
0.0
 40
18.149941
100
AcDbArc
 50
325.615753
 51
34.384247
  0
LINE
  5
2E13
100
AcDbEntity
  8
0
100
AcDbLine
 10
1410.387539
 20
822.647693
 30
0.0
 11
1425.406777
 21
817.147693
 31
0.0
  0
LINE
  5
2E14
100
AcDbEntity
  8
0
100
AcDbLine
 10
1391.906777
 20
950.699392
 30
0.0
 11
1391.906777
 21
930.699392
 31
0.0
  0
ARC
  5
2E15
100
AcDbEntity
  8
0
100
AcDbCircle
 10
1416.078138
 20
930.699392
 30
0.0
 40
23.671361
100
AcDbArc
 50
150.0
 51
210.0
  0
LINE
  5
2E16
100
AcDbEntity
  8
0
100
AcDbLine
 10
932.308356
 20
953.386078
 30
0.0
 11
932.308356
 21
919.906231
 31
0.0
  0
LINE
  5
2E17
100
AcDbEntity
  8
0
100
AcDbLine
 10
966.808356
 20
936.646155
 30
0.0
 11
966.808356
 21
954.146155
 31
0.0
  0
ARC
  5
2E18
100
AcDbEntity
  8
0
100
AcDbCircle
 10
938.11015
 20
936.646155
 30
0.0
 40
27.456345
100
AcDbArc
 50
337.759024
 51
22.240976
  0
LINE
  5
2E19
100
AcDbEntity
  8
0
100
AcDbLine
 10
933.307342
 20
951.646155
 30
0.0
 11
933.307342
 21
921.646155
 31
0.0
  0
LINE
  5
2E1A
100
AcDbEntity
  8
0
100
AcDbLine
 10
938.808356
 20
921.646155
 30
0.0
 11
938.808356
 21
951.646155
 31
0.0
  0
LINE
  5
2E1B
100
AcDbEntity
  8
0
100
AcDbLine
 10
932.308356
 20
953.386078
 30
0.0
 11
932.308356
 21
919.906231
 31
0.0
  0
ARC
  5
2E1C
100
AcDbEntity
  8
0
100
AcDbCircle
 10
974.24119
 20
936.646155
 30
0.0
 40
27.456345
100
AcDbArc
 50
157.759024
 51
202.240976
  0
LINE
  5
2E1D
100
AcDbEntity
  8
0
100
AcDbLine
 10
847.308356
 20
953.386078
 30
0.0
 11
847.308356
 21
919.906231
 31
0.0
  0
LINE
  5
2E1E
100
AcDbEntity
  8
0
100
AcDbLine
 10
847.308356
 20
953.386078
 30
0.0
 11
847.308356
 21
919.906231
 31
0.0
  0
LINE
  5
2E1F
100
AcDbEntity
  8
0
100
AcDbLine
 10
840.808356
 20
921.646155
 30
0.0
 11
840.808356
 21
951.646155
 31
0.0
  0
ARC
  5
2E20
100
AcDbEntity
  8
0
100
AcDbCircle
 10
805.375521
 20
936.646155
 30
0.0
 40
27.456345
100
AcDbArc
 50
337.759024
 51
22.240976
  0
LINE
  5
2E21
100
AcDbEntity
  8
0
100
AcDbLine
 10
846.30937
 20
951.646155
 30
0.0
 11
846.30937
 21
921.646155
 31
0.0
  0
ELLIPSE
  5
2E22
100
AcDbEntity
  8
0
100
AcDbEllipse
 10
1023.891452
 20
761.105208
 30
0.0
 11
-15.0
 21
0.0
 31
0.0
210
0.0
220
0.0
230
1.0
 40
0.687366
 41
0.0
 42
6.283185307179586
  0
LINE
  5
2E23
100
AcDbEntity
  8
0
100
AcDbLine
 10
865.508103
 20
752.197946
 30
0.0
 11
848.608608
 21
769.097441
 31
0.0
  0
LINE
  5
2E24
100
AcDbEntity
  8
0
100
AcDbLine
 10
914.108608
 20
752.197946
 30
0.0
 11
931.008103
 21
769.097441
 31
0.0
  0
CIRCLE
  5
2E25
100
AcDbEntity
  8
0
100
AcDbCircle
 10
1023.891452
 20
788.147693
 30
0.0
 40
38.0
  0
LINE
  5
2E27
100
AcDbEntity
  8
0
100
AcDbLine
 10
870.457851
 20
750.147693
 30
0.0
 11
909.158861
 21
750.147693
 31
0.0
  0
LINE
  5
2E28
100
AcDbEntity
  8
0
100
AcDbLine
 10
870.457851
 20
750.147693
 30
0.0
 11
909.158861
 21
750.147693
 31
0.0
  0
TEXT
  5
2E29
100
AcDbEntity
  8
0
100
AcDbText
 10
863.34013
 20
706.583306
 30
0.0
 40
20.0
  1
20A
 41
0.8
 11
863.34013
 21
706.583306
 31
0.0
100
AcDbText
 73
     1
  0
ARC
  5
2E2A
100
AcDbEntity
  8
0
100
AcDbCircle
 10
870.457851
 20
757.147693
 30
0.0
 40
7.0
100
AcDbArc
 50
225.0
 51
270.0
  0
ARC
  5
2E2B
100
AcDbEntity
  8
0
100
AcDbCircle
 10
909.158861
 20
757.147693
 30
0.0
 40
7.0
100
AcDbArc
 50
270.0
 51
315.0
  0
ARC
  5
2E2C
100
AcDbEntity
  8
0
100
AcDbCircle
 10
954.330203
 20
921.057697
 30
0.0
 40
7.56827
100
AcDbArc
 50
136.640741
 51
223.359259
  0
LINE
  5
2E2D
100
AcDbEntity
  8
0
100
AcDbLine
 10
938.808356
 20
921.646155
 30
0.0
 11
948.827594
 21
915.861545
 31
0.0
  0
LINE
  5
2E2E
100
AcDbEntity
  8
0
100
AcDbLine
 10
938.808356
 20
787.147693
 30
0.0
 11
948.827594
 21
784.147693
 31
0.0
  0
ARC
  5
2E2F
100
AcDbEntity
  8
0
100
AcDbCircle
 10
967.401083
 20
793.147693
 30
0.0
 40
20.63915
100
AcDbArc
 50
154.146953
 51
205.853047
  0
ARC
  5
2E30
100
AcDbEntity
  8
0
100
AcDbCircle
 10
967.401083
 20
811.147693
 30
0.0
 40
20.63915
100
AcDbArc
 50
154.146953
 51
205.853047
  0
LINE
  5
2E31
100
AcDbEntity
  8
0
100
AcDbLine
 10
938.808356
 20
817.147693
 30
0.0
 11
948.827594
 21
820.147693
 31
0.0
  0
LINE
  5
2E32
100
AcDbEntity
  8
0
100
AcDbLine
 10
853.558356
 20
826.147693
 30
0.0
 11
926.058356
 21
826.147693
 31
0.0
  0
LINE
  5
2E33
100
AcDbEntity
  8
0
100
AcDbLine
 10
845.684164
 20
817.147693
 30
0.0
 11
845.684164
 21
787.147693
 31
0.0
  0
LINE
  5
2E34
100
AcDbEntity
  8
0
100
AcDbLine
 10
840.808356
 20
787.147693
 30
0.0
 11
840.808356
 21
817.147693
 31
0.0
  0
ARC
  5
2E35
100
AcDbEntity
  8
0
100
AcDbCircle
 10
812.215629
 20
811.147693
 30
0.0
 40
20.63915
100
AcDbArc
 50
334.146953
 51
25.853047
  0
LINE
  5
2E36
100
AcDbEntity
  8
0
100
AcDbLine
 10
846.558356
 20
819.147693
 30
0.0
 11
846.558356
 21
774.047188
 31
0.0
  0
ARC
  5
2E37
100
AcDbEntity
  8
0
100
AcDbCircle
 10
812.215629
 20
793.147693
 30
0.0
 40
20.63915
100
AcDbArc
 50
334.146953
 51
25.853047
  0
LINE
  5
2E38
100
AcDbEntity
  8
0
100
AcDbLine
 10
840.808356
 20
787.147693
 30
0.0
 11
830.789118
 21
784.147693
 31
0.0
  0
LINE
  5
2E39
100
AcDbEntity
  8
0
100
AcDbLine
 10
846.558356
 20
786.254956
 30
0.0
 11
845.684164
 21
787.147693
 31
0.0
  0
LINE
  5
2E3A
100
AcDbEntity
  8
0
100
AcDbLine
 10
845.684164
 20
787.147693
 30
0.0
 11
840.808356
 21
787.147693
 31
0.0
  0
ARC
  5
2E3B
100
AcDbEntity
  8
0
100
AcDbCircle
 10
853.558356
 20
774.047188
 30
0.0
 40
7.0
100
AcDbArc
 50
180.0
 51
225.0
  0
ARC
  5
2E3C
100
AcDbEntity
  8
0
100
AcDbCircle
 10
853.558356
 20
819.147693
 30
0.0
 40
7.0
100
AcDbArc
 50
90.0
 51
180.0
  0
LINE
  5
2E3D
100
AcDbEntity
  8
0
100
AcDbLine
 10
840.808356
 20
817.147693
 30
0.0
 11
830.789118
 21
820.147693
 31
0.0
  0
LINE
  5
2E3E
100
AcDbEntity
  8
0
100
AcDbLine
 10
846.558356
 20
818.040431
 30
0.0
 11
845.684164
 21
817.147693
 31
0.0
  0
LINE
  5
2E3F
100
AcDbEntity
  8
0
100
AcDbLine
 10
845.684164
 20
817.147693
 30
0.0
 11
840.808356
 21
817.147693
 31
0.0
  0
LINE
  5
2E40
100
AcDbEntity
  8
0
100
AcDbLine
 10
938.808356
 20
787.147693
 30
0.0
 11
938.808356
 21
817.147693
 31
0.0
  0
LINE
  5
2E41
100
AcDbEntity
  8
0
100
AcDbLine
 10
933.932548
 20
817.147693
 30
0.0
 11
933.932548
 21
787.147693
 31
0.0
  0
LINE
  5
2E42
100
AcDbEntity
  8
0
100
AcDbLine
 10
933.058356
 20
819.147693
 30
0.0
 11
933.058356
 21
774.047188
 31
0.0
  0
ARC
  5
2E43
100
AcDbEntity
  8
0
100
AcDbCircle
 10
926.058356
 20
774.047188
 30
0.0
 40
7.0
100
AcDbArc
 50
315.0
 51
0.0
  0
LINE
  5
2E44
100
AcDbEntity
  8
0
100
AcDbLine
 10
933.058356
 20
786.254956
 30
0.0
 11
933.932548
 21
787.147693
 31
0.0
  0
LINE
  5
2E45
100
AcDbEntity
  8
0
100
AcDbLine
 10
933.932548
 20
787.147693
 30
0.0
 11
938.808356
 21
787.147693
 31
0.0
  0
ARC
  5
2E46
100
AcDbEntity
  8
0
100
AcDbCircle
 10
926.058356
 20
819.147693
 30
0.0
 40
7.0
100
AcDbArc
 50
0.0
 51
90.0
  0
LINE
  5
2E47
100
AcDbEntity
  8
0
100
AcDbLine
 10
933.058356
 20
818.040431
 30
0.0
 11
933.932548
 21
817.147693
 31
0.0
  0
LINE
  5
2E48
100
AcDbEntity
  8
0
100
AcDbLine
 10
933.932548
 20
817.147693
 30
0.0
 11
938.808356
 21
817.147693
 31
0.0
  0
LINE
  5
2E49
100
AcDbEntity
  8
0
100
AcDbLine
 10
862.990371
 20
898.646155
 30
0.0
 11
916.626341
 21
898.646155
 31
0.0
  0
ARC
  5
2E4A
100
AcDbEntity
  8
0
100
AcDbCircle
 10
862.990371
 20
910.146155
 30
0.0
 40
11.5
100
AcDbArc
 50
206.210269
 51
270.0
  0
ARC
  5
2E4B
100
AcDbEntity
  8
0
100
AcDbCircle
 10
916.821124
 20
936.646155
 30
0.0
 40
71.5
100
AcDbArc
 50
193.540038
 51
206.210269
  0
LINE
  5
2E4C
100
AcDbEntity
  8
0
100
AcDbLine
 10
840.808356
 20
921.646155
 30
0.0
 11
830.789118
 21
915.861545
 31
0.0
  0
ARC
  5
2E4D
100
AcDbEntity
  8
0
100
AcDbCircle
 10
825.286508
 20
921.057697
 30
0.0
 40
7.56827
100
AcDbArc
 50
316.640741
 51
43.359259
  0
LINE
  5
2E4E
100
AcDbEntity
  8
0
100
AcDbLine
 10
847.308356
 20
920.647675
 30
0.0
 11
846.30937
 21
921.646155
 31
0.0
  0
LINE
  5
2E4F
100
AcDbEntity
  8
0
100
AcDbLine
 10
846.30937
 20
921.646155
 30
0.0
 11
840.808356
 21
921.646155
 31
0.0
  0
ARC
  5
2E50
100
AcDbEntity
  8
0
100
AcDbCircle
 10
916.626341
 20
910.146155
 30
0.0
 40
11.5
100
AcDbArc
 50
270.0
 51
333.789731
  0
ARC
  5
2E51
100
AcDbEntity
  8
0
100
AcDbCircle
 10
862.795587
 20
936.646155
 30
0.0
 40
71.5
100
AcDbArc
 50
333.789731
 51
346.459962
  0
LINE
  5
2E52
100
AcDbEntity
  8
0
100
AcDbLine
 10
933.307342
 20
921.646155
 30
0.0
 11
938.808356
 21
921.646155
 31
0.0
  0
LINE
  5
2E53
100
AcDbEntity
  8
0
100
AcDbLine
 10
932.308356
 20
920.647675
 30
0.0
 11
933.307342
 21
921.646155
 31
0.0
  0
POLYLINE
  5
2E54
100
AcDbEntity
  8
0
100
AcDb2dPolyline
 66
     1
 10
0.0
 20
0.0
 30
0.0
 70
     1
  0
VERTEX
  5
32AA
100
AcDbEntity
  8
0
100
AcDbVertex
100
AcDb2dVertex
 10
1013.499147
 20
820.147693
 30
0.0
  0
VERTEX
  5
32AB
100
AcDbEntity
  8
0
100
AcDbVertex
100
AcDb2dVertex
 10
1003.106842
 20
802.147693
 30
0.0
  0
VERTEX
  5
32AC
100
AcDbEntity
  8
0
100
AcDbVertex
100
AcDb2dVertex
 10
1013.499147
 20
784.147693
 30
0.0
  0
VERTEX
  5
32AD
100
AcDbEntity
  8
0
100
AcDbVertex
100
AcDb2dVertex
 10
1034.283757
 20
784.147693
 30
0.0
  0
VERTEX
  5
32AE
100
AcDbEntity
  8
0
100
AcDbVertex
100
AcDb2dVertex
 10
1044.676061
 20
802.147693
 30
0.0
  0
VERTEX
  5
32AF
100
AcDbEntity
  8
0
100
AcDbVertex
100
AcDb2dVertex
 10
1034.283757
 20
820.147693
 30
0.0
  0
SEQEND
  5
32B0
100
AcDbEntity
  8
0
  0
CIRCLE
  5
2E55
100
AcDbEntity
  8
0
100
AcDbCircle
 10
1023.891452
 20
802.147693
 30
0.0
 40
17.5
  0
ARC
  5
2E56
100
AcDbEntity
  8
0
100
AcDbCircle
 10
944.950257
 20
811.147693
 30
0.0
 40
20.63915
100
AcDbArc
 50
334.146953
 51
25.853047
  0
LINE
  5
2E57
100
AcDbEntity
  8
0
100
AcDbLine
 10
966.808356
 20
802.147693
 30
0.0
 11
966.808356
 21
819.647693
 31
0.0
  0
LINE
  5
2E58
100
AcDbEntity
  8
0
100
AcDbLine
 10
966.808356
 20
784.647693
 30
0.0
 11
966.808356
 21
802.147693
 31
0.0
  0
ARC
  5
2E59
100
AcDbEntity
  8
0
100
AcDbCircle
 10
944.950257
 20
793.147693
 30
0.0
 40
20.63915
100
AcDbArc
 50
334.146953
 51
25.853047
  0
LINE
  5
2E5A
100
AcDbEntity
  8
0
100
AcDbLine
 10
963.523746
 20
784.147693
 30
0.0
 11
966.808356
 21
784.647693
 31
0.0
  0
LINE
  5
2E5B
100
AcDbEntity
  8
0
100
AcDbLine
 10
948.827594
 20
784.147693
 30
0.0
 11
963.523746
 21
784.147693
 31
0.0
  0
LINE
  5
2E5C
100
AcDbEntity
  8
0
100
AcDbLine
 10
948.827594
 20
802.147693
 30
0.0
 11
963.523746
 21
802.147693
 31
0.0
  0
LINE
  5
2E5D
100
AcDbEntity
  8
0
100
AcDbLine
 10
963.523746
 20
820.147693
 30
0.0
 11
966.808356
 21
819.647693
 31
0.0
  0
LINE
  5
2E5E
100
AcDbEntity
  8
0
100
AcDbLine
 10
948.827594
 20
820.147693
 30
0.0
 11
963.523746
 21
820.147693
 31
0.0
  0
LINE
  5
2E5F
100
AcDbEntity
  8
0
100
AcDbLine
 10
966.808356
 20
919.146155
 30
0.0
 11
966.808356
 21
936.646155
 31
0.0
  0
ARC
  5
2E60
100
AcDbEntity
  8
0
100
AcDbCircle
 10
958.021137
 20
921.057697
 30
0.0
 40
7.56827
100
AcDbArc
 50
316.640741
 51
43.359259
  0
LINE
  5
2E61
100
AcDbEntity
  8
0
100
AcDbLine
 10
963.523746
 20
915.861545
 30
0.0
 11
966.808356
 21
919.146155
 31
0.0
  0
LINE
  5
2E62
100
AcDbEntity
  8
0
100
AcDbLine
 10
948.827594
 20
915.861545
 30
0.0
 11
963.523746
 21
915.861545
 31
0.0
  0
LINE
  5
2E63
100
AcDbEntity
  8
0
100
AcDbLine
 10
948.827594
 20
926.25385
 30
0.0
 11
963.523746
 21
926.25385
 31
0.0
  0
ELLIPSE
  5
2E64
100
AcDbEntity
  8
0
100
AcDbEllipse
 10
1292.157949
 20
761.105208
 30
0.0
 11
15.0
 21
0.0
 31
0.0
210
0.0
220
0.0
230
-1.0
 40
0.687366
 41
0.0
 42
6.283185307179586
  0
CIRCLE
  5
2E65
100
AcDbEntity
  8
0
100
AcDbCircle
 10
1292.157949
 20
788.147693
 30
0.0
 40
38.0
  0
POLYLINE
  5
2E67
100
AcDbEntity
  8
0
100
AcDb2dPolyline
 66
     1
 10
0.0
 20
0.0
 30
0.0
 70
     1
  0
VERTEX
  5
32B1
100
AcDbEntity
  8
0
100
AcDbVertex
100
AcDb2dVertex
 10
1303.993629
 20
822.647693
 30
0.0
  0
VERTEX
  5
32B2
100
AcDbEntity
  8
0
100
AcDbVertex
100
AcDb2dVertex
 10
1315.82931
 20
802.147693
 30
0.0
  0
VERTEX
  5
32B3
100
AcDbEntity
  8
0
100
AcDbVertex
100
AcDb2dVertex
 10
1303.993629
 20
781.647693
 30
0.0
  0
VERTEX
  5
32B4
100
AcDbEntity
  8
0
100
AcDbVertex
100
AcDb2dVertex
 10
1280.322268
 20
781.647693
 30
0.0
  0
VERTEX
  5
32B5
100
AcDbEntity
  8
0
100
AcDbVertex
100
AcDb2dVertex
 10
1268.486588
 20
802.147693
 30
0.0
  0
VERTEX
  5
32B6
100
AcDbEntity
  8
0
100
AcDbVertex
100
AcDb2dVertex
 10
1280.322268
 20
822.647693
 30
0.0
  0
SEQEND
  5
32B7
100
AcDbEntity
  8
0
  0
CIRCLE
  5
2E68
100
AcDbEntity
  8
0
100
AcDbCircle
 10
1292.157949
 20
802.147693
 30
0.0
 40
20.0
  0
LINE
  5
2E69
100
AcDbEntity
  8
0
100
AcDbLine
 10
1345.532561
 20
805.595739
 30
0.0
 11
1364.439311
 21
805.595739
 31
0.0
  0
LINE
  5
2E6A
100
AcDbEntity
  8
0
100
AcDbLine
 10
1351.834811
 20
799.293489
 30
0.0
 11
1345.532561
 21
805.595739
 31
0.0
  0
LINE
  5
2E6B
100
AcDbEntity
  8
0
100
AcDbLine
 10
1391.906777
 20
822.147693
 30
0.0
 11
1391.906777
 21
802.147693
 31
0.0
  0
ARC
  5
2E6C
100
AcDbEntity
  8
0
100
AcDbCircle
 10
1410.556718
 20
812.397693
 30
0.0
 40
18.149941
100
AcDbArc
 50
145.615753
 51
214.384247
  0
LINE
  5
2E6D
100
AcDbEntity
  8
0
100
AcDbLine
 10
1383.347186
 20
799.293489
 30
0.0
 11
1351.834811
 21
799.293489
 31
0.0
  0
LINE
  5
2E6E
100
AcDbEntity
  8
0
100
AcDbLine
 10
1376.907686
 20
805.595739
 30
0.0
 11
1383.347186
 21
799.293489
 31
0.0
  0
LINE
  5
2E6F
100
AcDbEntity
  8
0
100
AcDbLine
 10
1367.591561
 20
802.444614
 30
0.0
 11
1376.907686
 21
802.444614
 31
0.0
  0
LINE
  5
2E70
100
AcDbEntity
  8
0
100
AcDbLine
 10
1364.439311
 20
805.595739
 30
0.0
 11
1367.591561
 21
802.444614
 31
0.0
  0
LINE
  5
2E71
100
AcDbEntity
  8
0
100
AcDbLine
 10
1376.907686
 20
802.444614
 30
0.0
 11
1376.907686
 21
805.595739
 31
0.0
  0
LINE
  5
2E72
100
AcDbEntity
  8
0
100
AcDbLine
 10
1391.906777
 20
802.147693
 30
0.0
 11
1391.906777
 21
782.147693
 31
0.0
  0
ARC
  5
2E73
100
AcDbEntity
  8
0
100
AcDbCircle
 10
1410.556718
 20
791.897693
 30
0.0
 40
18.149941
100
AcDbArc
 50
145.615753
 51
214.384247
  0
LINE
  5
2E74
100
AcDbEntity
  8
0
100
AcDbLine
 10
1410.387539
 20
781.647693
 30
0.0
 11
1395.578138
 21
781.647693
 31
0.0
  0
LINE
  5
2E75
100
AcDbEntity
  8
0
100
AcDbLine
 10
1391.906777
 20
782.147693
 30
0.0
 11
1395.578138
 21
781.647693
 31
0.0
  0
LINE
  5
2E76
100
AcDbEntity
  8
0
100
AcDbLine
 10
1410.387539
 20
802.147693
 30
0.0
 11
1395.578138
 21
802.147693
 31
0.0
  0
LINE
  5
2E77
100
AcDbEntity
  8
0
100
AcDbLine
 10
1410.387539
 20
822.647693
 30
0.0
 11
1395.578138
 21
822.647693
 31
0.0
  0
LINE
  5
2E78
100
AcDbEntity
  8
0
100
AcDbLine
 10
1395.578138
 20
822.647693
 30
0.0
 11
1391.906777
 21
822.147693
 31
0.0
  0
LINE
  5
2E79
100
AcDbEntity
  8
0
100
AcDbLine
 10
1343.521933
 20
932.175829
 30
0.0
 11
1362.428683
 21
932.175829
 31
0.0
  0
LINE
  5
2E7A
100
AcDbEntity
  8
0
100
AcDbLine
 10
1349.824183
 20
925.873579
 30
0.0
 11
1343.521933
 21
932.175829
 31
0.0
  0
LINE
  5
2E7B
100
AcDbEntity
  8
0
100
AcDbLine
 10
1381.336558
 20
925.873579
 30
0.0
 11
1349.824183
 21
925.873579
 31
0.0
  0
LINE
  5
2E7C
100
AcDbEntity
  8
0
100
AcDbLine
 10
1374.897058
 20
932.175829
 30
0.0
 11
1381.336558
 21
925.873579
 31
0.0
  0
LINE
  5
2E7D
100
AcDbEntity
  8
0
100
AcDbLine
 10
1362.428683
 20
932.175829
 30
0.0
 11
1365.580933
 21
929.024704
 31
0.0
  0
LINE
  5
2E7E
100
AcDbEntity
  8
0
100
AcDbLine
 10
1365.580933
 20
929.024704
 30
0.0
 11
1374.897058
 21
929.024704
 31
0.0
  0
LINE
  5
2E7F
100
AcDbEntity
  8
0
100
AcDbLine
 10
1374.897058
 20
929.024704
 30
0.0
 11
1374.897058
 21
932.175829
 31
0.0
  0
LINE
  5
2E80
100
AcDbEntity
  8
0
100
AcDbLine
 10
1391.906777
 20
930.699392
 30
0.0
 11
1391.906777
 21
910.699392
 31
0.0
  0
LINE
  5
2E81
100
AcDbEntity
  8
0
100
AcDbLine
 10
1410.387539
 20
918.863712
 30
0.0
 11
1395.578138
 21
918.863712
 31
0.0
  0
LINE
  5
2E82
100
AcDbEntity
  8
0
100
AcDbLine
 10
1410.387539
 20
907.028031
 30
0.0
 11
1395.578138
 21
907.028031
 31
0.0
  0
LINE
  5
2E83
100
AcDbEntity
  8
0
100
AcDbLine
 10
1391.906777
 20
910.699392
 30
0.0
 11
1395.578138
 21
907.028031
 31
0.0
  0
ARC
  5
2E84
100
AcDbEntity
  8
0
100
AcDbCircle
 10
1399.513878
 20
912.945872
 30
0.0
 40
7.107101
100
AcDbArc
 50
123.626429
 51
236.373571
  0
ARC
  5
2E85
100
AcDbEntity
  8
0
100
AcDbCircle
 10
967.401083
 20
1092.090203
 30
0.0
 40
20.63915
100
AcDbArc
 50
154.146953
 51
205.853047
  0
LINE
  5
2E86
100
AcDbEntity
  8
0
100
AcDbLine
 10
938.808356
 20
1098.090203
 30
0.0
 11
948.827594
 21
1101.090203
 31
0.0
  0
LINE
  5
2E87
100
AcDbEntity
  8
0
100
AcDbLine
 10
938.808356
 20
1068.090203
 30
0.0
 11
948.827594
 21
1065.090203
 31
0.0
  0
ARC
  5
2E88
100
AcDbEntity
  8
0
100
AcDbCircle
 10
967.401083
 20
1074.090203
 30
0.0
 40
20.63915
100
AcDbArc
 50
154.146953
 51
205.853047
  0
ARC
  5
2E89
100
AcDbEntity
  8
0
100
AcDbCircle
 10
954.330203
 20
952.234612
 30
0.0
 40
7.56827
100
AcDbArc
 50
136.640741
 51
223.359259
  0
LINE
  5
2E8A
100
AcDbEntity
  8
0
100
AcDbLine
 10
938.808356
 20
951.646155
 30
0.0
 11
948.827594
 21
957.430764
 31
0.0
  0
LINE
  5
2E8B
100
AcDbEntity
  8
0
100
AcDbLine
 10
862.990371
 20
974.646155
 30
0.0
 11
916.626341
 21
974.646155
 31
0.0
  0
ARC
  5
2E8C
100
AcDbEntity
  8
0
100
AcDbCircle
 10
916.821124
 20
936.646155
 30
0.0
 40
71.5
100
AcDbArc
 50
153.789731
 51
166.459962
  0
LINE
  5
2E8D
100
AcDbEntity
  8
0
100
AcDbLine
 10
840.808356
 20
951.646155
 30
0.0
 11
830.789118
 21
957.430764
 31
0.0
  0
ARC
  5
2E8E
100
AcDbEntity
  8
0
100
AcDbCircle
 10
825.286508
 20
952.234612
 30
0.0
 40
7.56827
100
AcDbArc
 50
316.640741
 51
43.359259
  0
LINE
  5
2E8F
100
AcDbEntity
  8
0
100
AcDbLine
 10
847.308356
 20
952.644634
 30
0.0
 11
846.30937
 21
951.646155
 31
0.0
  0
LINE
  5
2E90
100
AcDbEntity
  8
0
100
AcDbLine
 10
846.30937
 20
951.646155
 30
0.0
 11
840.808356
 21
951.646155
 31
0.0
  0
ARC
  5
2E91
100
AcDbEntity
  8
0
100
AcDbCircle
 10
862.990371
 20
963.146155
 30
0.0
 40
11.5
100
AcDbArc
 50
90.0
 51
153.789731
  0
ARC
  5
2E92
100
AcDbEntity
  8
0
100
AcDbCircle
 10
862.795587
 20
936.646155
 30
0.0
 40
71.5
100
AcDbArc
 50
13.540038
 51
26.210269
  0
LINE
  5
2E93
100
AcDbEntity
  8
0
100
AcDbLine
 10
933.307342
 20
951.646155
 30
0.0
 11
938.808356
 21
951.646155
 31
0.0
  0
LINE
  5
2E94
100
AcDbEntity
  8
0
100
AcDbLine
 10
932.308356
 20
952.644634
 30
0.0
 11
933.307342
 21
951.646155
 31
0.0
  0
ARC
  5
2E95
100
AcDbEntity
  8
0
100
AcDbCircle
 10
916.626341
 20
963.146155
 30
0.0
 40
11.5
100
AcDbArc
 50
26.210269
 51
90.0
  0
LINE
  5
2E96
100
AcDbEntity
  8
0
100
AcDbLine
 10
853.558356
 20
1107.090203
 30
0.0
 11
926.058356
 21
1107.090203
 31
0.0
  0
LINE
  5
2E97
100
AcDbEntity
  8
0
100
AcDbLine
 10
870.457851
 20
1031.090203
 30
0.0
 11
909.158861
 21
1031.090203
 31
0.0
  0
LINE
  5
2E98
100
AcDbEntity
  8
0
100
AcDbLine
 10
870.457851
 20
1031.090203
 30
0.0
 11
909.158861
 21
1031.090203
 31
0.0
  0
LINE
  5
2E99
100
AcDbEntity
  8
0
100
AcDbLine
 10
845.684164
 20
1098.090203
 30
0.0
 11
845.684164
 21
1068.090203
 31
0.0
  0
LINE
  5
2E9A
100
AcDbEntity
  8
0
100
AcDbLine
 10
846.558356
 20
1100.090203
 30
0.0
 11
846.558356
 21
1054.989698
 31
0.0
  0
LINE
  5
2E9B
100
AcDbEntity
  8
0
100
AcDbLine
 10
840.808356
 20
1068.090203
 30
0.0
 11
840.808356
 21
1098.090203
 31
0.0
  0
ARC
  5
2E9C
100
AcDbEntity
  8
0
100
AcDbCircle
 10
812.215629
 20
1074.090203
 30
0.0
 40
20.63915
100
AcDbArc
 50
334.146953
 51
25.853047
  0
LINE
  5
2E9D
100
AcDbEntity
  8
0
100
AcDbLine
 10
865.508103
 20
1033.140456
 30
0.0
 11
848.608608
 21
1050.039951
 31
0.0
  0
ARC
  5
2E9E
100
AcDbEntity
  8
0
100
AcDbCircle
 10
853.558356
 20
1054.989698
 30
0.0
 40
7.0
100
AcDbArc
 50
180.0
 51
225.0
  0
LINE
  5
2E9F
100
AcDbEntity
  8
0
100
AcDbLine
 10
840.808356
 20
1068.090203
 30
0.0
 11
830.789118
 21
1065.090203
 31
0.0
  0
LINE
  5
2EA0
100
AcDbEntity
  8
0
100
AcDbLine
 10
846.558356
 20
1067.197465
 30
0.0
 11
845.684164
 21
1068.090203
 31
0.0
  0
LINE
  5
2EA1
100
AcDbEntity
  8
0
100
AcDbLine
 10
845.684164
 20
1068.090203
 30
0.0
 11
840.808356
 21
1068.090203
 31
0.0
  0
ARC
  5
2EA2
100
AcDbEntity
  8
0
100
AcDbCircle
 10
870.457851
 20
1038.090203
 30
0.0
 40
7.0
100
AcDbArc
 50
225.0
 51
270.0
  0
ARC
  5
2EA3
100
AcDbEntity
  8
0
100
AcDbCircle
 10
853.558356
 20
1100.090203
 30
0.0
 40
7.0
100
AcDbArc
 50
90.0
 51
180.0
  0
ARC
  5
2EA4
100
AcDbEntity
  8
0
100
AcDbCircle
 10
812.215629
 20
1092.090203
 30
0.0
 40
20.63915
100
AcDbArc
 50
334.146953
 51
25.853047
  0
LINE
  5
2EA5
100
AcDbEntity
  8
0
100
AcDbLine
 10
840.808356
 20
1098.090203
 30
0.0
 11
830.789118
 21
1101.090203
 31
0.0
  0
LINE
  5
2EA6
100
AcDbEntity
  8
0
100
AcDbLine
 10
846.558356
 20
1098.982941
 30
0.0
 11
845.684164
 21
1098.090203
 31
0.0
  0
LINE
  5
2EA7
100
AcDbEntity
  8
0
100
AcDbLine
 10
845.684164
 20
1098.090203
 30
0.0
 11
840.808356
 21
1098.090203
 31
0.0
  0
LINE
  5
2EA8
100
AcDbEntity
  8
0
100
AcDbLine
 10
933.932548
 20
1098.090203
 30
0.0
 11
933.932548
 21
1068.090203
 31
0.0
  0
LINE
  5
2EA9
100
AcDbEntity
  8
0
100
AcDbLine
 10
938.808356
 20
1068.090203
 30
0.0
 11
938.808356
 21
1098.090203
 31
0.0
  0
LINE
  5
2EAA
100
AcDbEntity
  8
0
100
AcDbLine
 10
933.058356
 20
1100.090203
 30
0.0
 11
933.058356
 21
1054.989698
 31
0.0
  0
LINE
  5
2EAB
100
AcDbEntity
  8
0
100
AcDbLine
 10
914.108608
 20
1033.140456
 30
0.0
 11
931.008103
 21
1050.039951
 31
0.0
  0
ARC
  5
2EAC
100
AcDbEntity
  8
0
100
AcDbCircle
 10
909.158861
 20
1038.090203
 30
0.0
 40
7.0
100
AcDbArc
 50
270.0
 51
315.0
  0
ARC
  5
2EAD
100
AcDbEntity
  8
0
100
AcDbCircle
 10
926.058356
 20
1054.989698
 30
0.0
 40
7.0
100
AcDbArc
 50
315.0
 51
0.0
  0
LINE
  5
2EAE
100
AcDbEntity
  8
0
100
AcDbLine
 10
933.932548
 20
1068.090203
 30
0.0
 11
938.808356
 21
1068.090203
 31
0.0
  0
LINE
  5
2EAF
100
AcDbEntity
  8
0
100
AcDbLine
 10
933.058356
 20
1067.197465
 30
0.0
 11
933.932548
 21
1068.090203
 31
0.0
  0
ARC
  5
2EB0
100
AcDbEntity
  8
0
100
AcDbCircle
 10
926.058356
 20
1100.090203
 30
0.0
 40
7.0
100
AcDbArc
 50
0.0
 51
90.0
  0
LINE
  5
2EB1
100
AcDbEntity
  8
0
100
AcDbLine
 10
933.932548
 20
1098.090203
 30
0.0
 11
938.808356
 21
1098.090203
 31
0.0
  0
LINE
  5
2EB2
100
AcDbEntity
  8
0
100
AcDbLine
 10
933.058356
 20
1098.982941
 30
0.0
 11
933.932548
 21
1098.090203
 31
0.0
  0
LINE
  5
2EB3
100
AcDbEntity
  8
0
100
AcDbLine
 10
963.523746
 20
957.430764
 30
0.0
 11
966.808356
 21
954.146155
 31
0.0
  0
ARC
  5
2EB4
100
AcDbEntity
  8
0
100
AcDbCircle
 10
958.021137
 20
952.234612
 30
0.0
 40
7.56827
100
AcDbArc
 50
316.640741
 51
43.359259
  0
LINE
  5
2EB5
100
AcDbEntity
  8
0
100
AcDbLine
 10
948.827594
 20
957.430764
 30
0.0
 11
963.523746
 21
957.430764
 31
0.0
  0
LINE
  5
2EB6
100
AcDbEntity
  8
0
100
AcDbLine
 10
948.827594
 20
947.038459
 30
0.0
 11
963.523746
 21
947.038459
 31
0.0
  0
LINE
  5
2EB7
100
AcDbEntity
  8
0
100
AcDbLine
 10
1007.807399
 20
1082.591852
 30
0.0
 11
1014.109649
 21
1088.894102
 31
0.0
  0
LINE
  5
2EB8
100
AcDbEntity
  8
0
100
AcDbLine
 10
1014.109649
 20
1088.894102
 30
0.0
 11
995.202899
 21
1088.894102
 31
0.0
  0
LINE
  5
2EB9
100
AcDbEntity
  8
0
100
AcDbLine
 10
966.808356
 20
1065.590203
 30
0.0
 11
966.808356
 21
1083.090203
 31
0.0
  0
ARC
  5
2EBA
100
AcDbEntity
  8
0
100
AcDbCircle
 10
944.950257
 20
1074.090203
 30
0.0
 40
20.63915
100
AcDbArc
 50
334.146953
 51
25.853047
  0
LINE
  5
2EBB
100
AcDbEntity
  8
0
100
AcDbLine
 10
963.523746
 20
1065.090203
 30
0.0
 11
966.808356
 21
1065.590203
 31
0.0
  0
LINE
  5
2EBC
100
AcDbEntity
  8
0
100
AcDbLine
 10
948.827594
 20
1065.090203
 30
0.0
 11
963.523746
 21
1065.090203
 31
0.0
  0
LINE
  5
2EBD
100
AcDbEntity
  8
0
100
AcDbLine
 10
982.734524
 20
1088.894102
 30
0.0
 11
976.295024
 21
1082.591852
 31
0.0
  0
LINE
  5
2EBE
100
AcDbEntity
  8
0
100
AcDbLine
 10
976.295024
 20
1082.591852
 30
0.0
 11
1007.807399
 21
1082.591852
 31
0.0
  0
LINE
  5
2EBF
100
AcDbEntity
  8
0
100
AcDbLine
 10
966.808356
 20
1083.090203
 30
0.0
 11
966.808356
 21
1100.590203
 31
0.0
  0
ARC
  5
2EC0
100
AcDbEntity
  8
0
100
AcDbCircle
 10
944.950257
 20
1092.090203
 30
0.0
 40
20.63915
100
AcDbArc
 50
334.146953
 51
25.853047
  0
LINE
  5
2EC1
100
AcDbEntity
  8
0
100
AcDbLine
 10
948.827594
 20
1083.090203
 30
0.0
 11
963.523746
 21
1083.090203
 31
0.0
  0
LINE
  5
2EC2
100
AcDbEntity
  8
0
100
AcDbLine
 10
963.523746
 20
1101.090203
 30
0.0
 11
966.808356
 21
1100.590203
 31
0.0
  0
LINE
  5
2EC3
100
AcDbEntity
  8
0
100
AcDbLine
 10
948.827594
 20
1101.090203
 30
0.0
 11
963.523746
 21
1101.090203
 31
0.0
  0
LINE
  5
2EC4
100
AcDbEntity
  8
0
100
AcDbLine
 10
992.050649
 20
1085.742977
 30
0.0
 11
982.734524
 21
1085.742977
 31
0.0
  0
LINE
  5
2EC5
100
AcDbEntity
  8
0
100
AcDbLine
 10
982.734524
 20
1085.742977
 30
0.0
 11
982.734524
 21
1088.894102
 31
0.0
  0
LINE
  5
2EC6
100
AcDbEntity
  8
0
100
AcDbLine
 10
995.202899
 20
1088.894102
 30
0.0
 11
992.050649
 21
1085.742977
 31
0.0
  0
LINE
  5
2EC7
100
AcDbEntity
  8
0
100
AcDbLine
 10
1410.387539
 20
942.535073
 30
0.0
 11
1395.578138
 21
942.535073
 31
0.0
  0
LINE
  5
2EC8
100
AcDbEntity
  8
0
100
AcDbLine
 10
1410.387539
 20
954.370753
 30
0.0
 11
1395.578138
 21
954.370753
 31
0.0
  0
ARC
  5
2EC9
100
AcDbEntity
  8
0
100
AcDbCircle
 10
1399.513878
 20
948.452913
 30
0.0
 40
7.107101
100
AcDbArc
 50
123.626429
 51
236.373571
  0
LINE
  5
2ECA
100
AcDbEntity
  8
0
100
AcDbLine
 10
1395.578138
 20
954.370753
 30
0.0
 11
1391.906777
 21
950.699392
 31
0.0
  0
ARC
  5
2ECB
100
AcDbEntity
  8
0
100
AcDbCircle
 10
1410.556718
 20
1080.116551
 30
0.0
 40
18.149941
100
AcDbArc
 50
145.615753
 51
214.384247
  0
LINE
  5
2ECC
100
AcDbEntity
  8
0
100
AcDbLine
 10
1391.906777
 20
1089.866551
 30
0.0
 11
1391.906777
 21
1069.866551
 31
0.0
  0
ARC
  5
2ECD
100
AcDbEntity
  8
0
100
AcDbCircle
 10
1410.556718
 20
1059.616551
 30
0.0
 40
18.149941
100
AcDbArc
 50
145.615753
 51
214.384247
  0
LINE
  5
2ECE
100
AcDbEntity
  8
0
100
AcDbLine
 10
1391.906777
 20
1069.866551
 30
0.0
 11
1391.906777
 21
1049.866551
 31
0.0
  0
LINE
  5
2ECF
100
AcDbEntity
  8
0
100
AcDbLine
 10
1410.387539
 20
1049.366551
 30
0.0
 11
1395.578138
 21
1049.366551
 31
0.0
  0
LINE
  5
2ED0
100
AcDbEntity
  8
0
100
AcDbLine
 10
1391.906777
 20
1049.866551
 30
0.0
 11
1395.578138
 21
1049.366551
 31
0.0
  0
LINE
  5
2ED1
100
AcDbEntity
  8
0
100
AcDbLine
 10
1410.387539
 20
1069.866551
 30
0.0
 11
1395.578138
 21
1069.866551
 31
0.0
  0
LINE
  5
2ED2
100
AcDbEntity
  8
0
100
AcDbLine
 10
1410.387539
 20
1090.366551
 30
0.0
 11
1395.578138
 21
1090.366551
 31
0.0
  0
LINE
  5
2ED3
100
AcDbEntity
  8
0
100
AcDbLine
 10
1395.578138
 20
1090.366551
 30
0.0
 11
1391.906777
 21
1089.866551
 31
0.0
  0
LINE
  5
2ED4
100
AcDbEntity
  8
0
100
AcDbLine
 10
1556.906777
 20
950.699392
 30
0.0
 11
1556.906777
 21
930.699392
 31
0.0
  0
LINE
  5
2ED5
100
AcDbEntity
  8
0
100
AcDbLine
 10
1515.669546
 20
947.439316
 30
0.0
 11
1515.669546
 21
913.959469
 31
0.0
  0
LINE
  5
2ED6
100
AcDbEntity
  8
0
100
AcDbLine
 10
1433.144009
 20
947.439316
 30
0.0
 11
1433.144009
 21
913.959469
 31
0.0
  0
LINE
  5
2ED7
100
AcDbEntity
  8
0
100
AcDbLine
 10
1433.144009
 20
947.439316
 30
0.0
 11
1433.144009
 21
913.959469
 31
0.0
  0
LINE
  5
2ED8
100
AcDbEntity
  8
0
100
AcDbLine
 10
1429.339851
 20
945.699392
 30
0.0
 11
1429.339851
 21
915.699392
 31
0.0
  0
LINE
  5
2ED9
100
AcDbEntity
  8
0
100
AcDbLine
 10
1425.406777
 20
945.699392
 30
0.0
 11
1425.406777
 21
915.699392
 31
0.0
  0
ARC
  5
2EDA
100
AcDbEntity
  8
0
100
AcDbCircle
 10
1532.735416
 20
930.699392
 30
0.0
 40
23.671361
100
AcDbArc
 50
330.0
 51
30.0
  0
LINE
  5
2EDB
100
AcDbEntity
  8
0
100
AcDbLine
 10
1523.406777
 20
945.699392
 30
0.0
 11
1523.406777
 21
915.699392
 31
0.0
  0
ARC
  5
2EDC
100
AcDbEntity
  8
0
100
AcDbCircle
 10
1558.926015
 20
930.699392
 30
0.0
 40
23.671361
100
AcDbArc
 50
150.0
 51
210.0
  0
LINE
  5
2EDD
100
AcDbEntity
  8
0
100
AcDbLine
 10
1519.473704
 20
945.699392
 30
0.0
 11
1519.473704
 21
915.699392
 31
0.0
  0
ELLIPSE
  5
2EDE
100
AcDbEntity
  8
0
100
AcDbEllipse
 10
1632.002105
 20
761.105208
 30
0.0
 11
-15.0
 21
0.0
 31
0.0
210
0.0
220
0.0
230
1.0
 40
0.687366
 41
0.0
 42
6.283185307179586
  0
LINE
  5
2EDF
100
AcDbEntity
  8
0
100
AcDbLine
 10
1498.70703
 20
752.197946
 30
0.0
 11
1515.606525
 21
769.097441
 31
0.0
  0
LINE
  5
2EE0
100
AcDbEntity
  8
0
100
AcDbLine
 10
1450.106525
 20
752.197946
 30
0.0
 11
1433.20703
 21
769.097441
 31
0.0
  0
CIRCLE
  5
2EE1
100
AcDbEntity
  8
0
100
AcDbCircle
 10
1632.002105
 20
788.147693
 30
0.0
 40
38.0
  0
LINE
  5
2EE3
100
AcDbEntity
  8
0
100
AcDbLine
 10
1455.056272
 20
750.147693
 30
0.0
 11
1493.757282
 21
750.147693
 31
0.0
  0
LINE
  5
2EE4
100
AcDbEntity
  8
0
100
AcDbLine
 10
1455.056272
 20
750.147693
 30
0.0
 11
1493.757282
 21
750.147693
 31
0.0
  0
TEXT
  5
2EE5
100
AcDbEntity
  8
0
100
AcDbText
 10
1453.105111
 20
715.239222
 30
0.0
 40
20.0
  1
25A
 41
0.8
 11
1453.105111
 21
715.239222
 31
0.0
100
AcDbText
 73
     1
  0
ARC
  5
2EE6
100
AcDbEntity
  8
0
100
AcDbCircle
 10
1455.056272
 20
757.147693
 30
0.0
 40
7.0
100
AcDbArc
 50
225.0
 51
270.0
  0
ARC
  5
2EE7
100
AcDbEntity
  8
0
100
AcDbCircle
 10
1493.757282
 20
757.147693
 30
0.0
 40
7.0
100
AcDbArc
 50
270.0
 51
315.0
  0
LINE
  5
2EE8
100
AcDbEntity
  8
0
100
AcDbLine
 10
1538.426015
 20
918.863712
 30
0.0
 11
1553.235416
 21
918.863712
 31
0.0
  0
LINE
  5
2EE9
100
AcDbEntity
  8
0
100
AcDbLine
 10
1538.426015
 20
907.028031
 30
0.0
 11
1553.235416
 21
907.028031
 31
0.0
  0
LINE
  5
2EEA
100
AcDbEntity
  8
0
100
AcDbLine
 10
1538.426015
 20
822.647693
 30
0.0
 11
1553.235416
 21
822.647693
 31
0.0
  0
LINE
  5
2EEB
100
AcDbEntity
  8
0
100
AcDbLine
 10
1538.426015
 20
802.147693
 30
0.0
 11
1553.235416
 21
802.147693
 31
0.0
  0
LINE
  5
2EEC
100
AcDbEntity
  8
0
100
AcDbLine
 10
1538.426015
 20
781.647693
 30
0.0
 11
1553.235416
 21
781.647693
 31
0.0
  0
LINE
  5
2EED
100
AcDbEntity
  8
0
100
AcDbLine
 10
1438.156777
 20
826.147693
 30
0.0
 11
1510.656777
 21
826.147693
 31
0.0
  0
LINE
  5
2EEE
100
AcDbEntity
  8
0
100
AcDbLine
 10
1425.406777
 20
817.147693
 30
0.0
 11
1425.406777
 21
787.147693
 31
0.0
  0
LINE
  5
2EEF
100
AcDbEntity
  8
0
100
AcDbLine
 10
1429.339851
 20
817.147693
 30
0.0
 11
1429.339851
 21
787.147693
 31
0.0
  0
LINE
  5
2EF0
100
AcDbEntity
  8
0
100
AcDbLine
 10
1431.156777
 20
819.147693
 30
0.0
 11
1431.156777
 21
774.047188
 31
0.0
  0
LINE
  5
2EF1
100
AcDbEntity
  8
0
100
AcDbLine
 10
1431.156777
 20
819.147693
 30
0.0
 11
1431.156777
 21
774.047188
 31
0.0
  0
LINE
  5
2EF2
100
AcDbEntity
  8
0
100
AcDbLine
 10
1425.406777
 20
787.147693
 30
0.0
 11
1429.339851
 21
787.147693
 31
0.0
  0
ARC
  5
2EF3
100
AcDbEntity
  8
0
100
AcDbCircle
 10
1433.115063
 20
789.077489
 30
0.0
 40
4.239851
100
AcDbArc
 50
207.075007
 51
242.491769
  0
ARC
  5
2EF4
100
AcDbEntity
  8
0
100
AcDbCircle
 10
1438.156777
 20
774.047188
 30
0.0
 40
7.0
100
AcDbArc
 50
180.0
 51
225.0
  0
LINE
  5
2EF5
100
AcDbEntity
  8
0
100
AcDbLine
 10
1425.406777
 20
817.147693
 30
0.0
 11
1429.339851
 21
817.147693
 31
0.0
  0
ARC
  5
2EF6
100
AcDbEntity
  8
0
100
AcDbCircle
 10
1438.156777
 20
819.147693
 30
0.0
 40
7.0
100
AcDbArc
 50
90.0
 51
180.0
  0
ARC
  5
2EF7
100
AcDbEntity
  8
0
100
AcDbCircle
 10
1433.115063
 20
815.217897
 30
0.0
 40
4.239851
100
AcDbArc
 50
117.508231
 51
152.924993
  0
LINE
  5
2EF8
100
AcDbEntity
  8
0
100
AcDbLine
 10
1519.473704
 20
817.147693
 30
0.0
 11
1519.473704
 21
787.147693
 31
0.0
  0
LINE
  5
2EF9
100
AcDbEntity
  8
0
100
AcDbLine
 10
1523.406777
 20
817.147693
 30
0.0
 11
1523.406777
 21
787.147693
 31
0.0
  0
ARC
  5
2EFA
100
AcDbEntity
  8
0
100
AcDbCircle
 10
1553.404595
 20
812.397693
 30
0.0
 40
18.149941
100
AcDbArc
 50
145.615753
 51
214.384247
  0
LINE
  5
2EFB
100
AcDbEntity
  8
0
100
AcDbLine
 10
1517.656777
 20
819.147693
 30
0.0
 11
1517.656777
 21
774.047188
 31
0.0
  0
ARC
  5
2EFC
100
AcDbEntity
  8
0
100
AcDbCircle
 10
1553.404595
 20
791.897693
 30
0.0
 40
18.149941
100
AcDbArc
 50
145.615753
 51
214.384247
  0
LINE
  5
2EFD
100
AcDbEntity
  8
0
100
AcDbLine
 10
1538.426015
 20
781.647693
 30
0.0
 11
1523.406777
 21
787.147693
 31
0.0
  0
LINE
  5
2EFE
100
AcDbEntity
  8
0
100
AcDbLine
 10
1523.406777
 20
787.147693
 30
0.0
 11
1519.473704
 21
787.147693
 31
0.0
  0
ARC
  5
2EFF
100
AcDbEntity
  8
0
100
AcDbCircle
 10
1515.698492
 20
789.077489
 30
0.0
 40
4.239851
100
AcDbArc
 50
297.508231
 51
332.924993
  0
ARC
  5
2F00
100
AcDbEntity
  8
0
100
AcDbCircle
 10
1510.656777
 20
774.047188
 30
0.0
 40
7.0
100
AcDbArc
 50
315.0
 51
0.0
  0
LINE
  5
2F01
100
AcDbEntity
  8
0
100
AcDbLine
 10
1538.426015
 20
822.647693
 30
0.0
 11
1523.406777
 21
817.147693
 31
0.0
  0
ARC
  5
2F02
100
AcDbEntity
  8
0
100
AcDbCircle
 10
1510.656777
 20
819.147693
 30
0.0
 40
7.0
100
AcDbArc
 50
0.0
 51
90.0
  0
LINE
  5
2F03
100
AcDbEntity
  8
0
100
AcDbLine
 10
1523.406777
 20
817.147693
 30
0.0
 11
1519.473704
 21
817.147693
 31
0.0
  0
ARC
  5
2F04
100
AcDbEntity
  8
0
100
AcDbCircle
 10
1515.698492
 20
815.217897
 30
0.0
 40
4.239851
100
AcDbArc
 50
27.075007
 51
62.491769
  0
LINE
  5
2F05
100
AcDbEntity
  8
0
100
AcDbLine
 10
1448.826024
 20
892.699392
 30
0.0
 11
1499.987531
 21
892.699392
 31
0.0
  0
ARC
  5
2F06
100
AcDbEntity
  8
0
100
AcDbCircle
 10
1448.826024
 20
904.199392
 30
0.0
 40
11.5
100
AcDbArc
 50
206.210269
 51
270.0
  0
LINE
  5
2F07
100
AcDbEntity
  8
0
100
AcDbLine
 10
1425.406777
 20
915.699392
 30
0.0
 11
1429.339851
 21
915.699392
 31
0.0
  0
ARC
  5
2F08
100
AcDbEntity
  8
0
100
AcDbCircle
 10
1433.907369
 20
918.415526
 30
0.0
 40
5.314095
100
AcDbArc
 50
210.738381
 51
263.966346
  0
ARC
  5
2F09
100
AcDbEntity
  8
0
100
AcDbCircle
 10
1502.656777
 20
930.699392
 30
0.0
 40
71.5
100
AcDbArc
 50
193.540038
 51
206.210269
  0
ARC
  5
2F0A
100
AcDbEntity
  8
0
100
AcDbCircle
 10
1499.987531
 20
904.199392
 30
0.0
 40
11.5
100
AcDbArc
 50
270.0
 51
333.789731
  0
LINE
  5
2F0B
100
AcDbEntity
  8
0
100
AcDbLine
 10
1538.426015
 20
907.028031
 30
0.0
 11
1523.406777
 21
915.699392
 31
0.0
  0
LINE
  5
2F0C
100
AcDbEntity
  8
0
100
AcDbLine
 10
1523.406777
 20
915.699392
 30
0.0
 11
1519.473704
 21
915.699392
 31
0.0
  0
ARC
  5
2F0D
100
AcDbEntity
  8
0
100
AcDbCircle
 10
1514.906186
 20
918.415526
 30
0.0
 40
5.314095
100
AcDbArc
 50
276.033654
 51
329.261619
  0
ARC
  5
2F0E
100
AcDbEntity
  8
0
100
AcDbCircle
 10
1446.156777
 20
930.699392
 30
0.0
 40
71.5
100
AcDbArc
 50
333.789731
 51
346.459962
  0
ARC
  5
2F0F
100
AcDbEntity
  8
0
100
AcDbCircle
 10
1542.361755
 20
912.945872
 30
0.0
 40
7.107101
100
AcDbArc
 50
123.626429
 51
236.373571
  0
LINE
  5
2F10
100
AcDbEntity
  8
0
100
AcDbLine
 10
1556.906777
 20
822.147693
 30
0.0
 11
1556.906777
 21
802.147693
 31
0.0
  0
ARC
  5
2F11
100
AcDbEntity
  8
0
100
AcDbCircle
 10
1538.256836
 20
812.397693
 30
0.0
 40
18.149941
100
AcDbArc
 50
325.615753
 51
34.384247
  0
ARC
  5
2F12
100
AcDbEntity
  8
0
100
AcDbCircle
 10
1538.256836
 20
791.897693
 30
0.0
 40
18.149941
100
AcDbArc
 50
325.615753
 51
34.384247
  0
LINE
  5
2F13
100
AcDbEntity
  8
0
100
AcDbLine
 10
1556.906777
 20
802.147693
 30
0.0
 11
1556.906777
 21
782.147693
 31
0.0
  0
LINE
  5
2F14
100
AcDbEntity
  8
0
100
AcDbLine
 10
1556.906777
 20
782.147693
 30
0.0
 11
1553.235416
 21
781.647693
 31
0.0
  0
LINE
  5
2F15
100
AcDbEntity
  8
0
100
AcDbLine
 10
1553.235416
 20
822.647693
 30
0.0
 11
1556.906777
 21
822.147693
 31
0.0
  0
POLYLINE
  5
2F16
100
AcDbEntity
  8
0
100
AcDb2dPolyline
 66
     1
 10
0.0
 20
0.0
 30
0.0
 70
     1
  0
VERTEX
  5
32B8
100
AcDbEntity
  8
0
100
AcDbVertex
100
AcDb2dVertex
 10
1643.837786
 20
781.647693
 30
0.0
  0
VERTEX
  5
32B9
100
AcDbEntity
  8
0
100
AcDbVertex
100
AcDb2dVertex
 10
1655.673466
 20
802.147693
 30
0.0
  0
VERTEX
  5
32BA
100
AcDbEntity
  8
0
100
AcDbVertex
100
AcDb2dVertex
 10
1643.837786
 20
822.647693
 30
0.0
  0
VERTEX
  5
32BB
100
AcDbEntity
  8
0
100
AcDbVertex
100
AcDb2dVertex
 10
1620.166425
 20
822.647693
 30
0.0
  0
VERTEX
  5
32BC
100
AcDbEntity
  8
0
100
AcDbVertex
100
AcDb2dVertex
 10
1608.330744
 20
802.147693
 30
0.0
  0
VERTEX
  5
32BD
100
AcDbEntity
  8
0
100
AcDbVertex
100
AcDb2dVertex
 10
1620.166425
 20
781.647693
 30
0.0
  0
SEQEND
  5
32BE
100
AcDbEntity
  8
0
  0
CIRCLE
  5
2F17
100
AcDbEntity
  8
0
100
AcDbCircle
 10
1632.002105
 20
802.147693
 30
0.0
 40
20.0
  0
LINE
  5
2F18
100
AcDbEntity
  8
0
100
AcDbLine
 10
1556.906777
 20
930.699392
 30
0.0
 11
1556.906777
 21
910.699392
 31
0.0
  0
LINE
  5
2F19
100
AcDbEntity
  8
0
100
AcDbLine
 10
1556.906777
 20
910.699392
 30
0.0
 11
1553.235416
 21
907.028031
 31
0.0
  0
ARC
  5
2F1A
100
AcDbEntity
  8
0
100
AcDbCircle
 10
1549.299677
 20
912.945872
 30
0.0
 40
7.107101
100
AcDbArc
 50
303.626429
 51
56.373571
  0
LINE
  5
2F1B
100
AcDbEntity
  8
0
100
AcDbLine
 10
1538.426015
 20
1090.366551
 30
0.0
 11
1553.235416
 21
1090.366551
 31
0.0
  0
LINE
  5
2F1C
100
AcDbEntity
  8
0
100
AcDbLine
 10
1538.426015
 20
1069.866551
 30
0.0
 11
1553.235416
 21
1069.866551
 31
0.0
  0
LINE
  5
2F1D
100
AcDbEntity
  8
0
100
AcDbLine
 10
1538.426015
 20
1049.366551
 30
0.0
 11
1553.235416
 21
1049.366551
 31
0.0
  0
LINE
  5
2F1E
100
AcDbEntity
  8
0
100
AcDbLine
 10
1538.426015
 20
942.535073
 30
0.0
 11
1553.235416
 21
942.535073
 31
0.0
  0
LINE
  5
2F1F
100
AcDbEntity
  8
0
100
AcDbLine
 10
1538.426015
 20
954.370753
 30
0.0
 11
1553.235416
 21
954.370753
 31
0.0
  0
LINE
  5
2F20
100
AcDbEntity
  8
0
100
AcDbLine
 10
1450.106525
 20
1019.916804
 30
0.0
 11
1433.20703
 21
1036.816299
 31
0.0
  0
LINE
  5
2F21
100
AcDbEntity
  8
0
100
AcDbLine
 10
1498.70703
 20
1019.916804
 30
0.0
 11
1515.606525
 21
1036.816299
 31
0.0
  0
LINE
  5
2F22
100
AcDbEntity
  8
0
100
AcDbLine
 10
1455.056272
 20
1017.866551
 30
0.0
 11
1493.757282
 21
1017.866551
 31
0.0
  0
LINE
  5
2F23
100
AcDbEntity
  8
0
100
AcDbLine
 10
1455.056272
 20
1017.866551
 30
0.0
 11
1493.757282
 21
1017.866551
 31
0.0
  0
LINE
  5
2F24
100
AcDbEntity
  8
0
100
AcDbLine
 10
1448.826024
 20
968.699392
 30
0.0
 11
1499.987531
 21
968.699392
 31
0.0
  0
ARC
  5
2F25
100
AcDbEntity
  8
0
100
AcDbCircle
 10
1448.826024
 20
957.199392
 30
0.0
 40
11.5
100
AcDbArc
 50
90.0
 51
153.789731
  0
LINE
  5
2F26
100
AcDbEntity
  8
0
100
AcDbLine
 10
1425.406777
 20
945.699392
 30
0.0
 11
1429.339851
 21
945.699392
 31
0.0
  0
ARC
  5
2F27
100
AcDbEntity
  8
0
100
AcDbCircle
 10
1433.907369
 20
942.983259
 30
0.0
 40
5.314095
100
AcDbArc
 50
96.033654
 51
149.261619
  0
ARC
  5
2F28
100
AcDbEntity
  8
0
100
AcDbCircle
 10
1502.656777
 20
930.699392
 30
0.0
 40
71.5
100
AcDbArc
 50
153.789731
 51
166.459962
  0
ARC
  5
2F29
100
AcDbEntity
  8
0
100
AcDbCircle
 10
1455.056272
 20
1024.866551
 30
0.0
 40
7.0
100
AcDbArc
 50
225.0
 51
270.0
  0
ARC
  5
2F2A
100
AcDbEntity
  8
0
100
AcDbCircle
 10
1499.987531
 20
957.199392
 30
0.0
 40
11.5
100
AcDbArc
 50
26.210269
 51
90.0
  0
LINE
  5
2F2B
100
AcDbEntity
  8
0
100
AcDbLine
 10
1538.426015
 20
954.370753
 30
0.0
 11
1523.406777
 21
945.699392
 31
0.0
  0
ARC
  5
2F2C
100
AcDbEntity
  8
0
100
AcDbCircle
 10
1514.906186
 20
942.983259
 30
0.0
 40
5.314095
100
AcDbArc
 50
30.738381
 51
83.966346
  0
LINE
  5
2F2D
100
AcDbEntity
  8
0
100
AcDbLine
 10
1523.406777
 20
945.699392
 30
0.0
 11
1519.473704
 21
945.699392
 31
0.0
  0
ARC
  5
2F2E
100
AcDbEntity
  8
0
100
AcDbCircle
 10
1446.156777
 20
930.699392
 30
0.0
 40
71.5
100
AcDbArc
 50
13.540038
 51
26.210269
  0
ARC
  5
2F2F
100
AcDbEntity
  8
0
100
AcDbCircle
 10
1542.361755
 20
948.452913
 30
0.0
 40
7.107101
100
AcDbArc
 50
123.626429
 51
236.373571
  0
ARC
  5
2F30
100
AcDbEntity
  8
0
100
AcDbCircle
 10
1493.757282
 20
1024.866551
 30
0.0
 40
7.0
100
AcDbArc
 50
270.0
 51
315.0
  0
LINE
  5
2F31
100
AcDbEntity
  8
0
100
AcDbLine
 10
1438.156777
 20
1093.866551
 30
0.0
 11
1510.656777
 21
1093.866551
 31
0.0
  0
LINE
  5
2F32
100
AcDbEntity
  8
0
100
AcDbLine
 10
1431.156777
 20
1086.866551
 30
0.0
 11
1431.156777
 21
1040.766046
 31
0.0
  0
LINE
  5
2F33
100
AcDbEntity
  8
0
100
AcDbLine
 10
1431.156777
 20
1086.866551
 30
0.0
 11
1431.156777
 21
1040.766046
 31
0.0
  0
LINE
  5
2F34
100
AcDbEntity
  8
0
100
AcDbLine
 10
1429.339851
 20
1084.866551
 30
0.0
 11
1429.339851
 21
1054.866551
 31
0.0
  0
LINE
  5
2F35
100
AcDbEntity
  8
0
100
AcDbLine
 10
1425.406777
 20
1084.866551
 30
0.0
 11
1425.406777
 21
1054.866551
 31
0.0
  0
ARC
  5
2F36
100
AcDbEntity
  8
0
100
AcDbCircle
 10
1438.156777
 20
1041.766046
 30
0.0
 40
7.0
100
AcDbArc
 50
180.0
 51
225.0
  0
LINE
  5
2F37
100
AcDbEntity
  8
0
100
AcDbLine
 10
1425.406777
 20
1054.866551
 30
0.0
 11
1429.339851
 21
1054.866551
 31
0.0
  0
ARC
  5
2F38
100
AcDbEntity
  8
0
100
AcDbCircle
 10
1433.115063
 20
1056.796347
 30
0.0
 40
4.239851
100
AcDbArc
 50
207.075007
 51
242.491769
  0
ARC
  5
2F39
100
AcDbEntity
  8
0
100
AcDbCircle
 10
1438.156777
 20
1086.866551
 30
0.0
 40
7.0
100
AcDbArc
 50
90.0
 51
180.0
  0
LINE
  5
2F3A
100
AcDbEntity
  8
0
100
AcDbLine
 10
1425.406777
 20
1084.866551
 30
0.0
 11
1429.339851
 21
1084.866551
 31
0.0
  0
ARC
  5
2F3B
100
AcDbEntity
  8
0
100
AcDbCircle
 10
1433.115063
 20
1082.936755
 30
0.0
 40
4.239851
100
AcDbArc
 50
117.508231
 51
152.924993
  0
ARC
  5
2F3C
100
AcDbEntity
  8
0
100
AcDbCircle
 10
1553.404595
 20
1080.116551
 30
0.0
 40
18.149941
100
AcDbArc
 50
145.615753
 51
214.384247
  0
LINE
  5
2F3D
100
AcDbEntity
  8
0
100
AcDbLine
 10
1517.656777
 20
1086.866551
 30
0.0
 11
1517.656777
 21
1040.766046
 31
0.0
  0
LINE
  5
2F3E
100
AcDbEntity
  8
0
100
AcDbLine
 10
1523.406777
 20
1084.866551
 30
0.0
 11
1523.406777
 21
1054.866551
 31
0.0
  0
LINE
  5
2F3F
100
AcDbEntity
  8
0
100
AcDbLine
 10
1519.473704
 20
1084.866551
 30
0.0
 11
1519.473704
 21
1054.866551
 31
0.0
  0
LINE
  5
2F40
100
AcDbEntity
  8
0
100
AcDbLine
 10
1538.426015
 20
1049.366551
 30
0.0
 11
1523.406777
 21
1054.866551
 31
0.0
  0
ARC
  5
2F41
100
AcDbEntity
  8
0
100
AcDbCircle
 10
1553.404595
 20
1059.616551
 30
0.0
 40
18.149941
100
AcDbArc
 50
145.615753
 51
214.384247
  0
ARC
  5
2F42
100
AcDbEntity
  8
0
100
AcDbCircle
 10
1510.656777
 20
1041.766046
 30
0.0
 40
7.0
100
AcDbArc
 50
315.0
 51
0.0
  0
LINE
  5
2F43
100
AcDbEntity
  8
0
100
AcDbLine
 10
1523.406777
 20
1054.866551
 30
0.0
 11
1519.473704
 21
1054.866551
 31
0.0
  0
ARC
  5
2F44
100
AcDbEntity
  8
0
100
AcDbCircle
 10
1515.698492
 20
1056.796347
 30
0.0
 40
4.239851
100
AcDbArc
 50
297.508231
 51
332.924993
  0
ARC
  5
2F45
100
AcDbEntity
  8
0
100
AcDbCircle
 10
1510.656777
 20
1086.866551
 30
0.0
 40
7.0
100
AcDbArc
 50
0.0
 51
90.0
  0
LINE
  5
2F46
100
AcDbEntity
  8
0
100
AcDbLine
 10
1538.426015
 20
1090.366551
 30
0.0
 11
1523.406777
 21
1084.866551
 31
0.0
  0
LINE
  5
2F47
100
AcDbEntity
  8
0
100
AcDbLine
 10
1523.406777
 20
1084.866551
 30
0.0
 11
1519.473704
 21
1084.866551
 31
0.0
  0
ARC
  5
2F48
100
AcDbEntity
  8
0
100
AcDbCircle
 10
1515.698492
 20
1082.936755
 30
0.0
 40
4.239851
100
AcDbArc
 50
27.075007
 51
62.491769
  0
ARC
  5
2F49
100
AcDbEntity
  8
0
100
AcDbCircle
 10
1549.299677
 20
948.452913
 30
0.0
 40
7.107101
100
AcDbArc
 50
303.626429
 51
56.373571
  0
LINE
  5
2F4A
100
AcDbEntity
  8
0
100
AcDbLine
 10
1553.235416
 20
954.370753
 30
0.0
 11
1556.906777
 21
950.699392
 31
0.0
  0
LINE
  5
2F4B
100
AcDbEntity
  8
0
100
AcDbLine
 10
1600.500244
 20
1068.527385
 30
0.0
 11
1606.802494
 21
1074.829635
 31
0.0
  0
LINE
  5
2F4C
100
AcDbEntity
  8
0
100
AcDbLine
 10
1575.427369
 20
1074.829635
 30
0.0
 11
1568.987869
 21
1068.527385
 31
0.0
  0
LINE
  5
2F4D
100
AcDbEntity
  8
0
100
AcDbLine
 10
1575.427369
 20
1071.67851
 30
0.0
 11
1575.427369
 21
1074.829635
 31
0.0
  0
LINE
  5
2F4E
100
AcDbEntity
  8
0
100
AcDbLine
 10
1587.895744
 20
1074.829635
 30
0.0
 11
1584.743494
 21
1071.67851
 31
0.0
  0
LINE
  5
2F4F
100
AcDbEntity
  8
0
100
AcDbLine
 10
1556.906777
 20
1089.866551
 30
0.0
 11
1556.906777
 21
1069.866551
 31
0.0
  0
ARC
  5
2F50
100
AcDbEntity
  8
0
100
AcDbCircle
 10
1538.256836
 20
1080.116551
 30
0.0
 40
18.149941
100
AcDbArc
 50
325.615753
 51
34.384247
  0
LINE
  5
2F51
100
AcDbEntity
  8
0
100
AcDbLine
 10
1568.987869
 20
1068.527385
 30
0.0
 11
1600.500244
 21
1068.527385
 31
0.0
  0
LINE
  5
2F52
100
AcDbEntity
  8
0
100
AcDbLine
 10
1556.906777
 20
1069.866551
 30
0.0
 11
1556.906777
 21
1049.866551
 31
0.0
  0
ARC
  5
2F53
100
AcDbEntity
  8
0
100
AcDbCircle
 10
1538.256836
 20
1059.616551
 30
0.0
 40
18.149941
100
AcDbArc
 50
325.615753
 51
34.384247
  0
LINE
  5
2F54
100
AcDbEntity
  8
0
100
AcDbLine
 10
1556.906777
 20
1049.866551
 30
0.0
 11
1553.235416
 21
1049.366551
 31
0.0
  0
LINE
  5
2F55
100
AcDbEntity
  8
0
100
AcDbLine
 10
1584.743494
 20
1071.67851
 30
0.0
 11
1575.427369
 21
1071.67851
 31
0.0
  0
LINE
  5
2F56
100
AcDbEntity
  8
0
100
AcDbLine
 10
1553.235416
 20
1090.366551
 30
0.0
 11
1556.906777
 21
1089.866551
 31
0.0
  0
LINE
  5
2F57
100
AcDbEntity
  8
0
100
AcDbLine
 10
1606.802494
 20
1074.829635
 30
0.0
 11
1587.895744
 21
1074.829635
 31
0.0
  0
LINE
  5
2F89
100
AcDbEntity
  8
0
100
AcDbLine
 10
441.738459
 20
262.607257
 30
0.0
 11
441.738459
 21
167.607257
 31
0.0
  0
LINE
  5
2F8A
100
AcDbEntity
  8
0
100
AcDbLine
 10
455.738459
 20
262.607257
 30
0.0
 11
441.738459
 21
262.607257
 31
0.0
  0
LINE
  5
2F94
100
AcDbEntity
  8
0
100
AcDbLine
 10
455.738459
 20
167.607257
 30
0.0
 11
441.738459
 21
167.607257
 31
0.0
  0
LINE
  5
2F9A
100
AcDbEntity
  8
0
100
AcDbLine
 10
455.738459
 20
215.107257
 30
0.0
 11
455.738459
 21
167.607257
 31
0.0
  0
LINE
  5
2FA4
100
AcDbEntity
  8
0
100
AcDbLine
 10
421.738459
 20
230.107257
 30
0.0
 11
425.888459
 21
225.957257
 31
0.0
  0
LINE
  5
2FA5
100
AcDbEntity
  8
0
100
AcDbLine
 10
421.738459
 20
230.107257
 30
0.0
 11
421.738459
 21
200.107257
 31
0.0
  0
LINE
  5
2FA7
100
AcDbEntity
  8
0
100
AcDbLine
 10
421.738459
 20
200.107257
 30
0.0
 11
411.706164
 21
200.107257
 31
0.0
  0
LINE
  5
2FA8
100
AcDbEntity
  8
0
100
AcDbLine
 10
421.738459
 20
200.107257
 30
0.0
 11
425.888459
 21
204.257257
 31
0.0
  0
LINE
  5
2FA9
100
AcDbEntity
  8
0
100
AcDbLine
 10
433.738459
 20
204.257257
 30
0.0
 11
425.888459
 21
204.257257
 31
0.0
  0
LINE
  5
2FAA
100
AcDbEntity
  8
0
100
AcDbLine
 10
433.738459
 20
225.957257
 30
0.0
 11
425.888459
 21
225.957257
 31
0.0
  0
LINE
  5
2FAB
100
AcDbEntity
  8
0
100
AcDbLine
 10
425.888459
 20
225.957257
 30
0.0
 11
425.888459
 21
204.257257
 31
0.0
  0
LINE
  5
2FAC
100
AcDbEntity
  8
0
100
AcDbLine
 10
433.738459
 20
225.957257
 30
0.0
 11
433.738459
 21
204.257257
 31
0.0
  0
LINE
  5
2FAD
100
AcDbEntity
  8
0
100
AcDbLine
 10
421.738459
 20
230.107257
 30
0.0
 11
411.706164
 21
230.107257
 31
0.0
  0
LINE
  5
2FAE
100
AcDbEntity
  8
0
100
AcDbLine
 10
433.738459
 20
225.957257
 30
0.0
 11
440.176344
 21
230.906381
 31
0.0
  0
ARC
  5
2FAF
100
AcDbEntity
  8
0
100
AcDbCircle
 10
437.738459
 20
234.077614
 30
0.0
 40
4.0
100
AcDbArc
 50
307.551282
 51
0.0
  0
LINE
  5
2FB0
100
AcDbEntity
  8
0
100
AcDbLine
 10
433.738459
 20
204.257257
 30
0.0
 11
440.176344
 21
199.308133
 31
0.0
  0
ARC
  5
2FB1
100
AcDbEntity
  8
0
100
AcDbCircle
 10
437.738459
 20
196.1369
 30
0.0
 40
4.0
100
AcDbArc
 50
0.0
 51
52.448718
  0
LINE
  5
2FB2
100
AcDbEntity
  8
0
100
AcDbLine
 10
294.738459
 20
262.607257
 30
0.0
 11
294.738459
 21
167.607257
 31
0.0
  0
LINE
  5
2FB3
100
AcDbEntity
  8
0
100
AcDbLine
 10
280.738459
 20
167.607257
 30
0.0
 11
294.738459
 21
167.607257
 31
0.0
  0
LINE
  5
2FB4
100
AcDbEntity
  8
0
100
AcDbLine
 10
302.738459
 20
204.257257
 30
0.0
 11
296.300574
 21
199.308133
 31
0.0
  0
LINE
  5
2FB5
100
AcDbEntity
  8
0
100
AcDbLine
 10
302.738459
 20
225.957257
 30
0.0
 11
296.300574
 21
230.906381
 31
0.0
  0
LINE
  5
2FB6
100
AcDbEntity
  8
0
100
AcDbLine
 10
302.738459
 20
225.957257
 30
0.0
 11
302.738459
 21
204.257257
 31
0.0
  0
LINE
  5
2FB7
100
AcDbEntity
  8
0
100
AcDbLine
 10
310.588459
 20
225.957257
 30
0.0
 11
310.588459
 21
204.257257
 31
0.0
  0
LINE
  5
2FB8
100
AcDbEntity
  8
0
100
AcDbLine
 10
314.738459
 20
230.107257
 30
0.0
 11
314.738459
 21
200.107257
 31
0.0
  0
LINE
  5
2FB9
100
AcDbEntity
  8
0
100
AcDbLine
 10
314.738459
 20
200.107257
 30
0.0
 11
324.770755
 21
200.107257
 31
0.0
  0
LINE
  5
2FBA
100
AcDbEntity
  8
0
100
AcDbLine
 10
302.738459
 20
204.257257
 30
0.0
 11
310.588459
 21
204.257257
 31
0.0
  0
LINE
  5
2FBB
100
AcDbEntity
  8
0
100
AcDbLine
 10
314.738459
 20
200.107257
 30
0.0
 11
310.588459
 21
204.257257
 31
0.0
  0
LINE
  5
2FBC
100
AcDbEntity
  8
0
100
AcDbLine
 10
314.738459
 20
230.107257
 30
0.0
 11
324.770755
 21
230.107257
 31
0.0
  0
LINE
  5
2FBD
100
AcDbEntity
  8
0
100
AcDbLine
 10
302.738459
 20
225.957257
 30
0.0
 11
310.588459
 21
225.957257
 31
0.0
  0
LINE
  5
2FBE
100
AcDbEntity
  8
0
100
AcDbLine
 10
314.738459
 20
230.107257
 30
0.0
 11
310.588459
 21
225.957257
 31
0.0
  0
ARC
  5
2FBF
100
AcDbEntity
  8
0
100
AcDbCircle
 10
298.738459
 20
196.1369
 30
0.0
 40
4.0
100
AcDbArc
 50
127.551282
 51
180.0
  0
ARC
  5
2FC0
100
AcDbEntity
  8
0
100
AcDbCircle
 10
298.738459
 20
234.077614
 30
0.0
 40
4.0
100
AcDbArc
 50
180.0
 51
232.448718
  0
LINE
  5
2FC1
100
AcDbEntity
  8
0
100
AcDbLine
 10
280.738459
 20
262.607257
 30
0.0
 11
294.738459
 21
262.607257
 31
0.0
  0
LINE
  5
2FC2
100
AcDbEntity
  8
0
100
AcDbLine
 10
441.738459
 20
427.41397
 30
0.0
 11
441.738459
 21
332.41397
 31
0.0
  0
LINE
  5
2FC3
100
AcDbEntity
  8
0
100
AcDbLine
 10
455.738459
 20
332.41397
 30
0.0
 11
441.738459
 21
332.41397
 31
0.0
  0
LINE
  5
2FC4
100
AcDbEntity
  8
0
100
AcDbLine
 10
433.738459
 20
369.06397
 30
0.0
 11
440.176344
 21
364.114846
 31
0.0
  0
LINE
  5
2FC5
100
AcDbEntity
  8
0
100
AcDbLine
 10
433.738459
 20
390.76397
 30
0.0
 11
440.176344
 21
395.713094
 31
0.0
  0
LINE
  5
2FC6
100
AcDbEntity
  8
0
100
AcDbLine
 10
433.738459
 20
390.76397
 30
0.0
 11
433.738459
 21
369.06397
 31
0.0
  0
LINE
  5
2FC7
100
AcDbEntity
  8
0
100
AcDbLine
 10
425.888459
 20
390.76397
 30
0.0
 11
425.888459
 21
369.06397
 31
0.0
  0
LINE
  5
2FC8
100
AcDbEntity
  8
0
100
AcDbLine
 10
421.738459
 20
394.91397
 30
0.0
 11
421.738459
 21
364.91397
 31
0.0
  0
LINE
  5
2FC9
100
AcDbEntity
  8
0
100
AcDbLine
 10
421.738459
 20
364.91397
 30
0.0
 11
411.706164
 21
364.91397
 31
0.0
  0
LINE
  5
2FCA
100
AcDbEntity
  8
0
100
AcDbLine
 10
433.738459
 20
369.06397
 30
0.0
 11
425.888459
 21
369.06397
 31
0.0
  0
LINE
  5
2FCB
100
AcDbEntity
  8
0
100
AcDbLine
 10
421.738459
 20
364.91397
 30
0.0
 11
425.888459
 21
369.06397
 31
0.0
  0
LINE
  5
2FCC
100
AcDbEntity
  8
0
100
AcDbLine
 10
421.738459
 20
394.91397
 30
0.0
 11
411.706164
 21
394.91397
 31
0.0
  0
LINE
  5
2FCD
100
AcDbEntity
  8
0
100
AcDbLine
 10
433.738459
 20
390.76397
 30
0.0
 11
425.888459
 21
390.76397
 31
0.0
  0
LINE
  5
2FCE
100
AcDbEntity
  8
0
100
AcDbLine
 10
421.738459
 20
394.91397
 30
0.0
 11
425.888459
 21
390.76397
 31
0.0
  0
ARC
  5
2FCF
100
AcDbEntity
  8
0
100
AcDbCircle
 10
437.738459
 20
360.943614
 30
0.0
 40
4.0
100
AcDbArc
 50
0.0
 51
52.448718
  0
ARC
  5
2FD0
100
AcDbEntity
  8
0
100
AcDbCircle
 10
437.738459
 20
398.884327
 30
0.0
 40
4.0
100
AcDbArc
 50
307.551282
 51
0.0
  0
LINE
  5
2FD1
100
AcDbEntity
  8
0
100
AcDbLine
 10
455.738459
 20
427.41397
 30
0.0
 11
441.738459
 21
427.41397
 31
0.0
  0
LINE
  5
2FD2
100
AcDbEntity
  8
0
100
AcDbLine
 10
455.738459
 20
379.91397
 30
0.0
 11
455.738459
 21
332.41397
 31
0.0
  0
LINE
  5
2FD3
100
AcDbEntity
  8
0
100
AcDbLine
 10
455.738459
 20
379.91397
 30
0.0
 11
455.738459
 21
427.41397
 31
0.0
  0
LINE
  5
2FD4
100
AcDbEntity
  8
0
100
AcDbLine
 10
294.738459
 20
427.41397
 30
0.0
 11
294.738459
 21
332.41397
 31
0.0
  0
LINE
  5
2FD5
100
AcDbEntity
  8
0
100
AcDbLine
 10
280.738459
 20
332.41397
 30
0.0
 11
294.738459
 21
332.41397
 31
0.0
  0
LINE
  5
2FD6
100
AcDbEntity
  8
0
100
AcDbLine
 10
302.738459
 20
390.76397
 30
0.0
 11
296.300574
 21
395.713094
 31
0.0
  0
LINE
  5
2FD7
100
AcDbEntity
  8
0
100
AcDbLine
 10
302.738459
 20
369.06397
 30
0.0
 11
296.300574
 21
364.114846
 31
0.0
  0
ARC
  5
2FD8
100
AcDbEntity
  8
0
100
AcDbCircle
 10
298.738459
 20
360.943614
 30
0.0
 40
4.0
100
AcDbArc
 50
127.551282
 51
180.0
  0
ARC
  5
2FD9
100
AcDbEntity
  8
0
100
AcDbCircle
 10
298.738459
 20
398.884327
 30
0.0
 40
4.0
100
AcDbArc
 50
180.0
 51
232.448718
  0
LINE
  5
2FDA
100
AcDbEntity
  8
0
100
AcDbLine
 10
314.738459
 20
394.91397
 30
0.0
 11
314.738459
 21
364.91397
 31
0.0
  0
LINE
  5
2FDB
100
AcDbEntity
  8
0
100
AcDbLine
 10
310.588459
 20
390.76397
 30
0.0
 11
310.588459
 21
369.06397
 31
0.0
  0
LINE
  5
2FDC
100
AcDbEntity
  8
0
100
AcDbLine
 10
302.738459
 20
390.76397
 30
0.0
 11
302.738459
 21
369.06397
 31
0.0
  0
LINE
  5
2FDD
100
AcDbEntity
  8
0
100
AcDbLine
 10
314.738459
 20
364.91397
 30
0.0
 11
324.770755
 21
364.91397
 31
0.0
  0
LINE
  5
2FDE
100
AcDbEntity
  8
0
100
AcDbLine
 10
314.738459
 20
364.91397
 30
0.0
 11
310.588459
 21
369.06397
 31
0.0
  0
LINE
  5
2FDF
100
AcDbEntity
  8
0
100
AcDbLine
 10
302.738459
 20
369.06397
 30
0.0
 11
310.588459
 21
369.06397
 31
0.0
  0
LINE
  5
2FE0
100
AcDbEntity
  8
0
100
AcDbLine
 10
314.738459
 20
394.91397
 30
0.0
 11
324.770755
 21
394.91397
 31
0.0
  0
LINE
  5
2FE1
100
AcDbEntity
  8
0
100
AcDbLine
 10
314.738459
 20
394.91397
 30
0.0
 11
310.588459
 21
390.76397
 31
0.0
  0
LINE
  5
2FE2
100
AcDbEntity
  8
0
100
AcDbLine
 10
302.738459
 20
390.76397
 30
0.0
 11
310.588459
 21
390.76397
 31
0.0
  0
LINE
  5
2FE3
100
AcDbEntity
  8
0
100
AcDbLine
 10
280.738459
 20
427.41397
 30
0.0
 11
294.738459
 21
427.41397
 31
0.0
  0
LINE
  5
2FE4
100
AcDbEntity
  8
0
100
AcDbLine
 10
441.738459
 20
592.477567
 30
0.0
 11
441.738459
 21
497.477567
 31
0.0
  0
LINE
  5
2FE5
100
AcDbEntity
  8
0
100
AcDbLine
 10
455.738459
 20
497.477567
 30
0.0
 11
441.738459
 21
497.477567
 31
0.0
  0
LINE
  5
2FE6
100
AcDbEntity
  8
0
100
AcDbLine
 10
433.738459
 20
534.127567
 30
0.0
 11
440.176344
 21
529.178443
 31
0.0
  0
LINE
  5
2FE7
100
AcDbEntity
  8
0
100
AcDbLine
 10
433.738459
 20
555.827567
 30
0.0
 11
440.176344
 21
560.776691
 31
0.0
  0
LINE
  5
2FE8
100
AcDbEntity
  8
0
100
AcDbLine
 10
433.738459
 20
555.827567
 30
0.0
 11
433.738459
 21
534.127567
 31
0.0
  0
LINE
  5
2FE9
100
AcDbEntity
  8
0
100
AcDbLine
 10
425.888459
 20
555.827567
 30
0.0
 11
425.888459
 21
534.127567
 31
0.0
  0
LINE
  5
2FEA
100
AcDbEntity
  8
0
100
AcDbLine
 10
421.738459
 20
559.977567
 30
0.0
 11
421.738459
 21
529.977567
 31
0.0
  0
LINE
  5
2FEB
100
AcDbEntity
  8
0
100
AcDbLine
 10
421.738459
 20
529.977567
 30
0.0
 11
411.706164
 21
529.977567
 31
0.0
  0
LINE
  5
2FEC
100
AcDbEntity
  8
0
100
AcDbLine
 10
433.738459
 20
534.127567
 30
0.0
 11
425.888459
 21
534.127567
 31
0.0
  0
LINE
  5
2FED
100
AcDbEntity
  8
0
100
AcDbLine
 10
421.738459
 20
529.977567
 30
0.0
 11
425.888459
 21
534.127567
 31
0.0
  0
LINE
  5
2FEE
100
AcDbEntity
  8
0
100
AcDbLine
 10
421.738459
 20
559.977567
 30
0.0
 11
411.706164
 21
559.977567
 31
0.0
  0
LINE
  5
2FEF
100
AcDbEntity
  8
0
100
AcDbLine
 10
433.738459
 20
555.827567
 30
0.0
 11
425.888459
 21
555.827567
 31
0.0
  0
LINE
  5
2FF0
100
AcDbEntity
  8
0
100
AcDbLine
 10
421.738459
 20
559.977567
 30
0.0
 11
425.888459
 21
555.827567
 31
0.0
  0
ARC
  5
2FF1
100
AcDbEntity
  8
0
100
AcDbCircle
 10
437.738459
 20
526.00721
 30
0.0
 40
4.0
100
AcDbArc
 50
0.0
 51
52.448718
  0
ARC
  5
2FF2
100
AcDbEntity
  8
0
100
AcDbCircle
 10
437.738459
 20
563.947924
 30
0.0
 40
4.0
100
AcDbArc
 50
307.551282
 51
0.0
  0
LINE
  5
2FF3
100
AcDbEntity
  8
0
100
AcDbLine
 10
455.738459
 20
592.477567
 30
0.0
 11
441.738459
 21
592.477567
 31
0.0
  0
LINE
  5
2FF4
100
AcDbEntity
  8
0
100
AcDbLine
 10
455.738459
 20
544.977567
 30
0.0
 11
455.738459
 21
497.477567
 31
0.0
  0
LINE
  5
2FF5
100
AcDbEntity
  8
0
100
AcDbLine
 10
455.738459
 20
544.977567
 30
0.0
 11
455.738459
 21
592.477567
 31
0.0
  0
LINE
  5
2FF6
100
AcDbEntity
  8
0
100
AcDbLine
 10
294.738459
 20
592.477567
 30
0.0
 11
294.738459
 21
497.477567
 31
0.0
  0
LINE
  5
2FF7
100
AcDbEntity
  8
0
100
AcDbLine
 10
280.738459
 20
497.477567
 30
0.0
 11
294.738459
 21
497.477567
 31
0.0
  0
LINE
  5
2FF8
100
AcDbEntity
  8
0
100
AcDbLine
 10
302.738459
 20
555.827567
 30
0.0
 11
296.300574
 21
560.776691
 31
0.0
  0
LINE
  5
2FF9
100
AcDbEntity
  8
0
100
AcDbLine
 10
302.738459
 20
534.127567
 30
0.0
 11
296.300574
 21
529.178443
 31
0.0
  0
ARC
  5
2FFA
100
AcDbEntity
  8
0
100
AcDbCircle
 10
298.738459
 20
526.00721
 30
0.0
 40
4.0
100
AcDbArc
 50
127.551282
 51
180.0
  0
ARC
  5
2FFB
100
AcDbEntity
  8
0
100
AcDbCircle
 10
298.738459
 20
563.947924
 30
0.0
 40
4.0
100
AcDbArc
 50
180.0
 51
232.448718
  0
LINE
  5
2FFC
100
AcDbEntity
  8
0
100
AcDbLine
 10
314.738459
 20
559.977567
 30
0.0
 11
314.738459
 21
529.977567
 31
0.0
  0
LINE
  5
2FFD
100
AcDbEntity
  8
0
100
AcDbLine
 10
310.588459
 20
555.827567
 30
0.0
 11
310.588459
 21
534.127567
 31
0.0
  0
LINE
  5
2FFE
100
AcDbEntity
  8
0
100
AcDbLine
 10
302.738459
 20
555.827567
 30
0.0
 11
302.738459
 21
534.127567
 31
0.0
  0
LINE
  5
2FFF
100
AcDbEntity
  8
0
100
AcDbLine
 10
314.738459
 20
529.977567
 30
0.0
 11
324.770755
 21
529.977567
 31
0.0
  0
LINE
  5
3000
100
AcDbEntity
  8
0
100
AcDbLine
 10
314.738459
 20
529.977567
 30
0.0
 11
310.588459
 21
534.127567
 31
0.0
  0
LINE
  5
3001
100
AcDbEntity
  8
0
100
AcDbLine
 10
302.738459
 20
534.127567
 30
0.0
 11
310.588459
 21
534.127567
 31
0.0
  0
LINE
  5
3002
100
AcDbEntity
  8
0
100
AcDbLine
 10
314.738459
 20
559.977567
 30
0.0
 11
324.770755
 21
559.977567
 31
0.0
  0
LINE
  5
3003
100
AcDbEntity
  8
0
100
AcDbLine
 10
314.738459
 20
559.977567
 30
0.0
 11
310.588459
 21
555.827567
 31
0.0
  0
LINE
  5
3004
100
AcDbEntity
  8
0
100
AcDbLine
 10
302.738459
 20
555.827567
 30
0.0
 11
310.588459
 21
555.827567
 31
0.0
  0
LINE
  5
3005
100
AcDbEntity
  8
0
100
AcDbLine
 10
280.738459
 20
592.477567
 30
0.0
 11
294.738459
 21
592.477567
 31
0.0
  0
LINE
  5
3035
100
AcDbEntity
  8
0
100
AcDbLine
 10
964.191564
 20
265.107257
 30
0.0
 11
980.191564
 21
265.107257
 31
0.0
  0
LINE
  5
3036
100
AcDbEntity
  8
0
100
AcDbLine
 10
964.191564
 20
265.107257
 30
0.0
 11
964.191564
 21
165.107257
 31
0.0
  0
LINE
  5
3037
100
AcDbEntity
  8
0
100
AcDbLine
 10
938.191564
 20
230.107257
 30
0.0
 11
939.591564
 21
228.707257
 31
0.0
  0
LINE
  5
3038
100
AcDbEntity
  8
0
100
AcDbLine
 10
938.191564
 20
230.107257
 30
0.0
 11
938.191564
 21
200.107257
 31
0.0
  0
LINE
  5
303A
100
AcDbEntity
  8
0
100
AcDbLine
 10
927.38265
 20
230.107257
 30
0.0
 11
938.191564
 21
230.107257
 31
0.0
  0
LINE
  5
303B
100
AcDbEntity
  8
0
100
AcDbLine
 10
954.191564
 20
228.707257
 30
0.0
 11
954.191564
 21
201.507257
 31
0.0
  0
LINE
  5
303C
100
AcDbEntity
  8
0
100
AcDbLine
 10
939.591564
 20
228.707257
 30
0.0
 11
939.591564
 21
201.507257
 31
0.0
  0
LINE
  5
303D
100
AcDbEntity
  8
0
100
AcDbLine
 10
962.347779
 20
233.927234
 30
0.0
 11
954.191564
 21
228.707257
 31
0.0
  0
LINE
  5
303E
100
AcDbEntity
  8
0
100
AcDbLine
 10
939.591564
 20
228.707257
 30
0.0
 11
954.191564
 21
228.707257
 31
0.0
  0
ARC
  5
303F
100
AcDbEntity
  8
0
100
AcDbCircle
 10
960.191564
 20
237.29632
 30
0.0
 40
4.0
100
AcDbArc
 50
302.619243
 51
0.0
  0
LINE
  5
3040
100
AcDbEntity
  8
0
100
AcDbLine
 10
964.191564
 20
165.107257
 30
0.0
 11
980.191564
 21
165.107257
 31
0.0
  0
ARC
  5
3041
100
AcDbEntity
  8
0
100
AcDbCircle
 10
960.191564
 20
192.918194
 30
0.0
 40
4.0
100
AcDbArc
 50
0.0
 51
57.380757
  0
LINE
  5
3042
100
AcDbEntity
  8
0
100
AcDbLine
 10
938.191564
 20
200.107257
 30
0.0
 11
939.591564
 21
201.507257
 31
0.0
  0
LINE
  5
3043
100
AcDbEntity
  8
0
100
AcDbLine
 10
927.38265
 20
200.107257
 30
0.0
 11
938.191564
 21
200.107257
 31
0.0
  0
LINE
  5
3044
100
AcDbEntity
  8
0
100
AcDbLine
 10
962.347779
 20
196.287279
 30
0.0
 11
954.191564
 21
201.507257
 31
0.0
  0
LINE
  5
3045
100
AcDbEntity
  8
0
100
AcDbLine
 10
939.591564
 20
201.507257
 30
0.0
 11
954.191564
 21
201.507257
 31
0.0
  0
ARC
  5
3046
100
AcDbEntity
  8
0
100
AcDbCircle
 10
805.191564
 20
237.29632
 30
0.0
 40
4.0
100
AcDbArc
 50
180.0
 51
237.380757
  0
LINE
  5
3047
100
AcDbEntity
  8
0
100
AcDbLine
 10
801.191564
 20
265.107257
 30
0.0
 11
801.191564
 21
165.107257
 31
0.0
  0
LINE
  5
3048
100
AcDbEntity
  8
0
100
AcDbLine
 10
803.035349
 20
196.287279
 30
0.0
 11
811.191564
 21
201.507257
 31
0.0
  0
LINE
  5
3049
100
AcDbEntity
  8
0
100
AcDbLine
 10
803.035349
 20
233.927234
 30
0.0
 11
811.191564
 21
228.707257
 31
0.0
  0
LINE
  5
304A
100
AcDbEntity
  8
0
100
AcDbLine
 10
825.791564
 20
228.707257
 30
0.0
 11
825.791564
 21
201.507257
 31
0.0
  0
LINE
  5
304B
100
AcDbEntity
  8
0
100
AcDbLine
 10
811.191564
 20
228.707257
 30
0.0
 11
811.191564
 21
201.507257
 31
0.0
  0
LINE
  5
304C
100
AcDbEntity
  8
0
100
AcDbLine
 10
827.191564
 20
230.107257
 30
0.0
 11
827.191564
 21
200.107257
 31
0.0
  0
LINE
  5
304D
100
AcDbEntity
  8
0
100
AcDbLine
 10
825.791564
 20
201.507257
 30
0.0
 11
811.191564
 21
201.507257
 31
0.0
  0
LINE
  5
304E
100
AcDbEntity
  8
0
100
AcDbLine
 10
838.000478
 20
200.107257
 30
0.0
 11
827.191564
 21
200.107257
 31
0.0
  0
LINE
  5
304F
100
AcDbEntity
  8
0
100
AcDbLine
 10
827.191564
 20
200.107257
 30
0.0
 11
825.791564
 21
201.507257
 31
0.0
  0
LINE
  5
3050
100
AcDbEntity
  8
0
100
AcDbLine
 10
825.791564
 20
228.707257
 30
0.0
 11
811.191564
 21
228.707257
 31
0.0
  0
LINE
  5
3051
100
AcDbEntity
  8
0
100
AcDbLine
 10
838.000478
 20
230.107257
 30
0.0
 11
827.191564
 21
230.107257
 31
0.0
  0
LINE
  5
3052
100
AcDbEntity
  8
0
100
AcDbLine
 10
827.191564
 20
230.107257
 30
0.0
 11
825.791564
 21
228.707257
 31
0.0
  0
LINE
  5
3053
100
AcDbEntity
  8
0
100
AcDbLine
 10
801.191564
 20
165.107257
 30
0.0
 11
785.191564
 21
165.107257
 31
0.0
  0
ARC
  5
3054
100
AcDbEntity
  8
0
100
AcDbCircle
 10
805.191564
 20
192.918194
 30
0.0
 40
4.0
100
AcDbArc
 50
122.619243
 51
180.0
  0
LINE
  5
3055
100
AcDbEntity
  8
0
100
AcDbLine
 10
801.191564
 20
265.107257
 30
0.0
 11
785.191564
 21
265.107257
 31
0.0
  0
ARC
  5
3056
100
AcDbEntity
  8
0
100
AcDbCircle
 10
960.191564
 20
402.103033
 30
0.0
 40
4.0
100
AcDbArc
 50
302.619243
 51
0.0
  0
LINE
  5
3057
100
AcDbEntity
  8
0
100
AcDbLine
 10
964.191564
 20
429.91397
 30
0.0
 11
964.191564
 21
329.91397
 31
0.0
  0
LINE
  5
3058
100
AcDbEntity
  8
0
100
AcDbLine
 10
962.347779
 20
361.093993
 30
0.0
 11
954.191564
 21
366.31397
 31
0.0
  0
LINE
  5
3059
100
AcDbEntity
  8
0
100
AcDbLine
 10
962.347779
 20
398.733948
 30
0.0
 11
954.191564
 21
393.51397
 31
0.0
  0
LINE
  5
305A
100
AcDbEntity
  8
0
100
AcDbLine
 10
939.591564
 20
393.51397
 30
0.0
 11
939.591564
 21
366.31397
 31
0.0
  0
LINE
  5
305B
100
AcDbEntity
  8
0
100
AcDbLine
 10
954.191564
 20
393.51397
 30
0.0
 11
954.191564
 21
366.31397
 31
0.0
  0
LINE
  5
305C
100
AcDbEntity
  8
0
100
AcDbLine
 10
938.191564
 20
394.91397
 30
0.0
 11
938.191564
 21
364.91397
 31
0.0
  0
LINE
  5
305D
100
AcDbEntity
  8
0
100
AcDbLine
 10
939.591564
 20
366.31397
 30
0.0
 11
954.191564
 21
366.31397
 31
0.0
  0
LINE
  5
305E
100
AcDbEntity
  8
0
100
AcDbLine
 10
927.38265
 20
364.91397
 30
0.0
 11
938.191564
 21
364.91397
 31
0.0
  0
LINE
  5
305F
100
AcDbEntity
  8
0
100
AcDbLine
 10
938.191564
 20
364.91397
 30
0.0
 11
939.591564
 21
366.31397
 31
0.0
  0
LINE
  5
3060
100
AcDbEntity
  8
0
100
AcDbLine
 10
939.591564
 20
393.51397
 30
0.0
 11
954.191564
 21
393.51397
 31
0.0
  0
LINE
  5
3061
100
AcDbEntity
  8
0
100
AcDbLine
 10
927.38265
 20
394.91397
 30
0.0
 11
938.191564
 21
394.91397
 31
0.0
  0
LINE
  5
3062
100
AcDbEntity
  8
0
100
AcDbLine
 10
938.191564
 20
394.91397
 30
0.0
 11
939.591564
 21
393.51397
 31
0.0
  0
LINE
  5
3063
100
AcDbEntity
  8
0
100
AcDbLine
 10
964.191564
 20
329.91397
 30
0.0
 11
980.191564
 21
329.91397
 31
0.0
  0
ARC
  5
3064
100
AcDbEntity
  8
0
100
AcDbCircle
 10
960.191564
 20
357.724907
 30
0.0
 40
4.0
100
AcDbArc
 50
0.0
 51
57.380757
  0
LINE
  5
3065
100
AcDbEntity
  8
0
100
AcDbLine
 10
964.191564
 20
429.91397
 30
0.0
 11
980.191564
 21
429.91397
 31
0.0
  0
LINE
  5
3066
100
AcDbEntity
  8
0
100
AcDbLine
 10
980.191564
 20
379.91397
 30
0.0
 11
980.191564
 21
429.91397
 31
0.0
  0
LINE
  5
3067
100
AcDbEntity
  8
0
100
AcDbLine
 10
980.191564
 20
329.91397
 30
0.0
 11
980.191564
 21
379.91397
 31
0.0
  0
LINE
  5
3068
100
AcDbEntity
  8
0
100
AcDbLine
 10
801.191564
 20
429.91397
 30
0.0
 11
801.191564
 21
329.91397
 31
0.0
  0
ARC
  5
3069
100
AcDbEntity
  8
0
100
AcDbCircle
 10
805.191564
 20
402.103033
 30
0.0
 40
4.0
100
AcDbArc
 50
180.0
 51
237.380757
  0
LINE
  5
306A
100
AcDbEntity
  8
0
100
AcDbLine
 10
825.791564
 20
393.51397
 30
0.0
 11
811.191564
 21
393.51397
 31
0.0
  0
LINE
  5
306B
100
AcDbEntity
  8
0
100
AcDbLine
 10
825.791564
 20
366.31397
 30
0.0
 11
811.191564
 21
366.31397
 31
0.0
  0
LINE
  5
306C
100
AcDbEntity
  8
0
100
AcDbLine
 10
801.191564
 20
329.91397
 30
0.0
 11
785.191564
 21
329.91397
 31
0.0
  0
LINE
  5
306D
100
AcDbEntity
  8
0
100
AcDbLine
 10
811.191564
 20
393.51397
 30
0.0
 11
811.191564
 21
366.31397
 31
0.0
  0
LINE
  5
306E
100
AcDbEntity
  8
0
100
AcDbLine
 10
803.035349
 20
361.093993
 30
0.0
 11
811.191564
 21
366.31397
 31
0.0
  0
ARC
  5
306F
100
AcDbEntity
  8
0
100
AcDbCircle
 10
805.191564
 20
357.724907
 30
0.0
 40
4.0
100
AcDbArc
 50
122.619243
 51
180.0
  0
LINE
  5
3070
100
AcDbEntity
  8
0
100
AcDbLine
 10
803.035349
 20
398.733948
 30
0.0
 11
811.191564
 21
393.51397
 31
0.0
  0
LINE
  5
3071
100
AcDbEntity
  8
0
100
AcDbLine
 10
827.191564
 20
394.91397
 30
0.0
 11
827.191564
 21
364.91397
 31
0.0
  0
LINE
  5
3072
100
AcDbEntity
  8
0
100
AcDbLine
 10
825.791564
 20
393.51397
 30
0.0
 11
825.791564
 21
366.31397
 31
0.0
  0
LINE
  5
3073
100
AcDbEntity
  8
0
100
AcDbLine
 10
827.191564
 20
364.91397
 30
0.0
 11
825.791564
 21
366.31397
 31
0.0
  0
LINE
  5
3074
100
AcDbEntity
  8
0
100
AcDbLine
 10
838.000478
 20
364.91397
 30
0.0
 11
827.191564
 21
364.91397
 31
0.0
  0
LINE
  5
3075
100
AcDbEntity
  8
0
100
AcDbLine
 10
827.191564
 20
394.91397
 30
0.0
 11
825.791564
 21
393.51397
 31
0.0
  0
LINE
  5
3076
100
AcDbEntity
  8
0
100
AcDbLine
 10
838.000478
 20
394.91397
 30
0.0
 11
827.191564
 21
394.91397
 31
0.0
  0
LINE
  5
3077
100
AcDbEntity
  8
0
100
AcDbLine
 10
801.191564
 20
429.91397
 30
0.0
 11
785.191564
 21
429.91397
 31
0.0
  0
ARC
  5
3078
100
AcDbEntity
  8
0
100
AcDbCircle
 10
960.191564
 20
567.16663
 30
0.0
 40
4.0
100
AcDbArc
 50
302.619243
 51
0.0
  0
LINE
  5
3079
100
AcDbEntity
  8
0
100
AcDbLine
 10
964.191564
 20
594.977567
 30
0.0
 11
964.191564
 21
494.977567
 31
0.0
  0
LINE
  5
307A
100
AcDbEntity
  8
0
100
AcDbLine
 10
962.347779
 20
526.15759
 30
0.0
 11
954.191564
 21
531.377567
 31
0.0
  0
LINE
  5
307B
100
AcDbEntity
  8
0
100
AcDbLine
 10
962.347779
 20
563.797544
 30
0.0
 11
954.191564
 21
558.577567
 31
0.0
  0
LINE
  5
307C
100
AcDbEntity
  8
0
100
AcDbLine
 10
939.591564
 20
558.577567
 30
0.0
 11
939.591564
 21
531.377567
 31
0.0
  0
LINE
  5
307D
100
AcDbEntity
  8
0
100
AcDbLine
 10
954.191564
 20
558.577567
 30
0.0
 11
954.191564
 21
531.377567
 31
0.0
  0
LINE
  5
307E
100
AcDbEntity
  8
0
100
AcDbLine
 10
938.191564
 20
559.977567
 30
0.0
 11
938.191564
 21
529.977567
 31
0.0
  0
LINE
  5
307F
100
AcDbEntity
  8
0
100
AcDbLine
 10
939.591564
 20
531.377567
 30
0.0
 11
954.191564
 21
531.377567
 31
0.0
  0
LINE
  5
3080
100
AcDbEntity
  8
0
100
AcDbLine
 10
927.38265
 20
529.977567
 30
0.0
 11
938.191564
 21
529.977567
 31
0.0
  0
LINE
  5
3081
100
AcDbEntity
  8
0
100
AcDbLine
 10
938.191564
 20
529.977567
 30
0.0
 11
939.591564
 21
531.377567
 31
0.0
  0
LINE
  5
3082
100
AcDbEntity
  8
0
100
AcDbLine
 10
939.591564
 20
558.577567
 30
0.0
 11
954.191564
 21
558.577567
 31
0.0
  0
LINE
  5
3083
100
AcDbEntity
  8
0
100
AcDbLine
 10
927.38265
 20
559.977567
 30
0.0
 11
938.191564
 21
559.977567
 31
0.0
  0
LINE
  5
3084
100
AcDbEntity
  8
0
100
AcDbLine
 10
938.191564
 20
559.977567
 30
0.0
 11
939.591564
 21
558.577567
 31
0.0
  0
LINE
  5
3085
100
AcDbEntity
  8
0
100
AcDbLine
 10
964.191564
 20
494.977567
 30
0.0
 11
980.191564
 21
494.977567
 31
0.0
  0
ARC
  5
3086
100
AcDbEntity
  8
0
100
AcDbCircle
 10
960.191564
 20
522.788504
 30
0.0
 40
4.0
100
AcDbArc
 50
0.0
 51
57.380757
  0
LINE
  5
3087
100
AcDbEntity
  8
0
100
AcDbLine
 10
964.191564
 20
594.977567
 30
0.0
 11
980.191564
 21
594.977567
 31
0.0
  0
LINE
  5
3088
100
AcDbEntity
  8
0
100
AcDbLine
 10
980.191564
 20
544.977567
 30
0.0
 11
980.191564
 21
594.977567
 31
0.0
  0
LINE
  5
3089
100
AcDbEntity
  8
0
100
AcDbLine
 10
980.191564
 20
494.977567
 30
0.0
 11
980.191564
 21
544.977567
 31
0.0
  0
LINE
  5
308A
100
AcDbEntity
  8
0
100
AcDbLine
 10
801.191564
 20
594.977567
 30
0.0
 11
801.191564
 21
494.977567
 31
0.0
  0
ARC
  5
308B
100
AcDbEntity
  8
0
100
AcDbCircle
 10
805.191564
 20
567.16663
 30
0.0
 40
4.0
100
AcDbArc
 50
180.0
 51
237.380757
  0
LINE
  5
308C
100
AcDbEntity
  8
0
100
AcDbLine
 10
825.791564
 20
558.577567
 30
0.0
 11
811.191564
 21
558.577567
 31
0.0
  0
LINE
  5
308D
100
AcDbEntity
  8
0
100
AcDbLine
 10
825.791564
 20
531.377567
 30
0.0
 11
811.191564
 21
531.377567
 31
0.0
  0
LINE
  5
308E
100
AcDbEntity
  8
0
100
AcDbLine
 10
801.191564
 20
494.977567
 30
0.0
 11
785.191564
 21
494.977567
 31
0.0
  0
LINE
  5
308F
100
AcDbEntity
  8
0
100
AcDbLine
 10
811.191564
 20
558.577567
 30
0.0
 11
811.191564
 21
531.377567
 31
0.0
  0
LINE
  5
3090
100
AcDbEntity
  8
0
100
AcDbLine
 10
803.035349
 20
526.15759
 30
0.0
 11
811.191564
 21
531.377567
 31
0.0
  0
ARC
  5
3091
100
AcDbEntity
  8
0
100
AcDbCircle
 10
805.191564
 20
522.788504
 30
0.0
 40
4.0
100
AcDbArc
 50
122.619243
 51
180.0
  0
LINE
  5
3092
100
AcDbEntity
  8
0
100
AcDbLine
 10
803.035349
 20
563.797544
 30
0.0
 11
811.191564
 21
558.577567
 31
0.0
  0
LINE
  5
3093
100
AcDbEntity
  8
0
100
AcDbLine
 10
827.191564
 20
559.977567
 30
0.0
 11
827.191564
 21
529.977567
 31
0.0
  0
LINE
  5
3094
100
AcDbEntity
  8
0
100
AcDbLine
 10
825.791564
 20
558.577567
 30
0.0
 11
825.791564
 21
531.377567
 31
0.0
  0
LINE
  5
3095
100
AcDbEntity
  8
0
100
AcDbLine
 10
827.191564
 20
529.977567
 30
0.0
 11
825.791564
 21
531.377567
 31
0.0
  0
LINE
  5
3096
100
AcDbEntity
  8
0
100
AcDbLine
 10
838.000478
 20
529.977567
 30
0.0
 11
827.191564
 21
529.977567
 31
0.0
  0
LINE
  5
3097
100
AcDbEntity
  8
0
100
AcDbLine
 10
827.191564
 20
559.977567
 30
0.0
 11
825.791564
 21
558.577567
 31
0.0
  0
LINE
  5
3098
100
AcDbEntity
  8
0
100
AcDbLine
 10
838.000478
 20
559.977567
 30
0.0
 11
827.191564
 21
559.977567
 31
0.0
  0
LINE
  5
3099
100
AcDbEntity
  8
0
100
AcDbLine
 10
801.191564
 20
594.977567
 30
0.0
 11
785.191564
 21
594.977567
 31
0.0
  0
LINE
  5
30CD
100
AcDbEntity
  8
0
100
AcDbLine
 10
1545.856778
 20
277.607257
 30
0.0
 11
1545.856778
 21
152.607257
 31
0.0
  0
LINE
  5
30CE
100
AcDbEntity
  8
0
100
AcDbLine
 10
1535.856778
 20
232.107257
 30
0.0
 11
1535.856778
 21
198.107257
 31
0.0
  0
LINE
  5
30D0
100
AcDbEntity
  8
0
100
AcDbLine
 10
1510.356778
 20
232.107257
 30
0.0
 11
1510.356778
 21
198.107257
 31
0.0
  0
LINE
  5
30D1
100
AcDbEntity
  8
0
100
AcDbLine
 10
1500.513321
 20
232.107257
 30
0.0
 11
1535.856778
 21
232.107257
 31
0.0
  0
LINE
  5
30D2
100
AcDbEntity
  8
0
100
AcDbLine
 10
1535.856778
 20
232.107257
 30
0.0
 11
1543.980254
 21
238.606037
 31
0.0
  0
ARC
  5
30D3
100
AcDbEntity
  8
0
100
AcDbCircle
 10
1540.856778
 20
242.510381
 30
0.0
 40
5.0
100
AcDbArc
 50
308.659808
 51
0.0
  0
LINE
  5
30D4
100
AcDbEntity
  8
0
100
AcDbLine
 10
1545.856778
 20
277.607257
 30
0.0
 11
1561.856778
 21
277.607257
 31
0.0
  0
LINE
  5
30D5
100
AcDbEntity
  8
0
100
AcDbLine
 10
1545.856778
 20
152.607257
 30
0.0
 11
1561.856778
 21
152.607257
 31
0.0
  0
LINE
  5
30D6
100
AcDbEntity
  8
0
100
AcDbLine
 10
1500.513321
 20
198.107257
 30
0.0
 11
1535.856778
 21
198.107257
 31
0.0
  0
LINE
  5
30D7
100
AcDbEntity
  8
0
100
AcDbLine
 10
1535.856778
 20
198.107257
 30
0.0
 11
1543.980254
 21
191.608477
 31
0.0
  0
ARC
  5
30D8
100
AcDbEntity
  8
0
100
AcDbCircle
 10
1540.856778
 20
187.704133
 30
0.0
 40
5.0
100
AcDbArc
 50
0.0
 51
51.340192
  0
LINE
  5
30D9
100
AcDbEntity
  8
0
100
AcDbLine
 10
1372.856778
 20
232.107257
 30
0.0
 11
1364.733303
 21
238.606037
 31
0.0
  0
LINE
  5
30DA
100
AcDbEntity
  8
0
100
AcDbLine
 10
1362.856778
 20
277.607257
 30
0.0
 11
1362.856778
 21
152.607257
 31
0.0
  0
LINE
  5
30DB
100
AcDbEntity
  8
0
100
AcDbLine
 10
1408.200236
 20
198.107257
 30
0.0
 11
1372.856778
 21
198.107257
 31
0.0
  0
LINE
  5
30DC
100
AcDbEntity
  8
0
100
AcDbLine
 10
1408.200236
 20
232.107257
 30
0.0
 11
1372.856778
 21
232.107257
 31
0.0
  0
LINE
  5
30DD
100
AcDbEntity
  8
0
100
AcDbLine
 10
1398.356778
 20
232.107257
 30
0.0
 11
1398.356778
 21
198.107257
 31
0.0
  0
LINE
  5
30DE
100
AcDbEntity
  8
0
100
AcDbLine
 10
1362.856778
 20
152.607257
 30
0.0
 11
1346.856778
 21
152.607257
 31
0.0
  0
LINE
  5
30DF
100
AcDbEntity
  8
0
100
AcDbLine
 10
1372.856778
 20
232.107257
 30
0.0
 11
1372.856778
 21
198.107257
 31
0.0
  0
ARC
  5
30E0
100
AcDbEntity
  8
0
100
AcDbCircle
 10
1367.856778
 20
187.704133
 30
0.0
 40
5.0
100
AcDbArc
 50
128.659808
 51
180.0
  0
LINE
  5
30E1
100
AcDbEntity
  8
0
100
AcDbLine
 10
1372.856778
 20
198.107257
 30
0.0
 11
1364.733303
 21
191.608477
 31
0.0
  0
LINE
  5
30E2
100
AcDbEntity
  8
0
100
AcDbLine
 10
1362.856778
 20
277.607257
 30
0.0
 11
1346.856778
 21
277.607257
 31
0.0
  0
ARC
  5
30E3
100
AcDbEntity
  8
0
100
AcDbCircle
 10
1367.856778
 20
242.510381
 30
0.0
 40
5.0
100
AcDbArc
 50
180.0
 51
231.340192
  0
LINE
  5
30E4
100
AcDbEntity
  8
0
100
AcDbLine
 10
1535.856778
 20
396.479018
 30
0.0
 11
1543.980254
 21
402.977798
 31
0.0
  0
LINE
  5
30E5
100
AcDbEntity
  8
0
100
AcDbLine
 10
1545.856778
 20
441.979018
 30
0.0
 11
1545.856778
 21
316.979018
 31
0.0
  0
LINE
  5
30E6
100
AcDbEntity
  8
0
100
AcDbLine
 10
1500.513321
 20
362.479018
 30
0.0
 11
1535.856778
 21
362.479018
 31
0.0
  0
LINE
  5
30E7
100
AcDbEntity
  8
0
100
AcDbLine
 10
1500.513321
 20
396.479018
 30
0.0
 11
1535.856778
 21
396.479018
 31
0.0
  0
LINE
  5
30E8
100
AcDbEntity
  8
0
100
AcDbLine
 10
1510.356778
 20
396.479018
 30
0.0
 11
1510.356778
 21
362.479018
 31
0.0
  0
LINE
  5
30E9
100
AcDbEntity
  8
0
100
AcDbLine
 10
1545.856778
 20
316.979018
 30
0.0
 11
1561.856778
 21
316.979018
 31
0.0
  0
LINE
  5
30EA
100
AcDbEntity
  8
0
100
AcDbLine
 10
1535.856778
 20
396.479018
 30
0.0
 11
1535.856778
 21
362.479018
 31
0.0
  0
ARC
  5
30EB
100
AcDbEntity
  8
0
100
AcDbCircle
 10
1540.856778
 20
352.075894
 30
0.0
 40
5.0
100
AcDbArc
 50
0.0
 51
51.340192
  0
LINE
  5
30EC
100
AcDbEntity
  8
0
100
AcDbLine
 10
1535.856778
 20
362.479018
 30
0.0
 11
1543.980254
 21
355.980238
 31
0.0
  0
LINE
  5
30ED
100
AcDbEntity
  8
0
100
AcDbLine
 10
1545.856778
 20
441.979018
 30
0.0
 11
1561.856778
 21
441.979018
 31
0.0
  0
ARC
  5
30EE
100
AcDbEntity
  8
0
100
AcDbCircle
 10
1540.856778
 20
406.882142
 30
0.0
 40
5.0
100
AcDbArc
 50
308.659808
 51
0.0
  0
LINE
  5
30EF
100
AcDbEntity
  8
0
100
AcDbLine
 10
1362.856778
 20
441.979018
 30
0.0
 11
1362.856778
 21
316.979018
 31
0.0
  0
LINE
  5
30F0
100
AcDbEntity
  8
0
100
AcDbLine
 10
1372.856778
 20
396.479018
 30
0.0
 11
1364.733303
 21
402.977798
 31
0.0
  0
LINE
  5
30F1
100
AcDbEntity
  8
0
100
AcDbLine
 10
1408.200236
 20
396.479018
 30
0.0
 11
1372.856778
 21
396.479018
 31
0.0
  0
LINE
  5
30F2
100
AcDbEntity
  8
0
100
AcDbLine
 10
1408.200236
 20
362.479018
 30
0.0
 11
1372.856778
 21
362.479018
 31
0.0
  0
LINE
  5
30F3
100
AcDbEntity
  8
0
100
AcDbLine
 10
1362.856778
 20
316.979018
 30
0.0
 11
1346.856778
 21
316.979018
 31
0.0
  0
LINE
  5
30F4
100
AcDbEntity
  8
0
100
AcDbLine
 10
1372.856778
 20
396.479018
 30
0.0
 11
1372.856778
 21
362.479018
 31
0.0
  0
LINE
  5
30F5
100
AcDbEntity
  8
0
100
AcDbLine
 10
1372.856778
 20
362.479018
 30
0.0
 11
1364.733303
 21
355.980238
 31
0.0
  0
ARC
  5
30F6
100
AcDbEntity
  8
0
100
AcDbCircle
 10
1367.856778
 20
352.075894
 30
0.0
 40
5.0
100
AcDbArc
 50
128.659808
 51
180.0
  0
LINE
  5
30F7
100
AcDbEntity
  8
0
100
AcDbLine
 10
1398.356778
 20
396.479018
 30
0.0
 11
1398.356778
 21
362.479018
 31
0.0
  0
ARC
  5
30F8
100
AcDbEntity
  8
0
100
AcDbCircle
 10
1367.856778
 20
406.882142
 30
0.0
 40
5.0
100
AcDbArc
 50
180.0
 51
231.340192
  0
LINE
  5
30F9
100
AcDbEntity
  8
0
100
AcDbLine
 10
1362.856778
 20
441.979018
 30
0.0
 11
1346.856778
 21
441.979018
 31
0.0
  0
LINE
  5
30FA
100
AcDbEntity
  8
0
100
AcDbLine
 10
1535.856778
 20
559.890375
 30
0.0
 11
1543.980254
 21
566.389156
 31
0.0
  0
LINE
  5
30FB
100
AcDbEntity
  8
0
100
AcDbLine
 10
1545.856778
 20
605.390375
 30
0.0
 11
1545.856778
 21
480.390375
 31
0.0
  0
LINE
  5
30FC
100
AcDbEntity
  8
0
100
AcDbLine
 10
1500.513321
 20
525.890375
 30
0.0
 11
1535.856778
 21
525.890375
 31
0.0
  0
LINE
  5
30FD
100
AcDbEntity
  8
0
100
AcDbLine
 10
1500.513321
 20
559.890375
 30
0.0
 11
1535.856778
 21
559.890375
 31
0.0
  0
LINE
  5
30FE
100
AcDbEntity
  8
0
100
AcDbLine
 10
1510.356778
 20
559.890375
 30
0.0
 11
1510.356778
 21
525.890375
 31
0.0
  0
LINE
  5
30FF
100
AcDbEntity
  8
0
100
AcDbLine
 10
1545.856778
 20
480.390375
 30
0.0
 11
1561.856778
 21
480.390375
 31
0.0
  0
LINE
  5
3100
100
AcDbEntity
  8
0
100
AcDbLine
 10
1535.856778
 20
559.890375
 30
0.0
 11
1535.856778
 21
525.890375
 31
0.0
  0
ARC
  5
3101
100
AcDbEntity
  8
0
100
AcDbCircle
 10
1540.856778
 20
515.487251
 30
0.0
 40
5.0
100
AcDbArc
 50
0.0
 51
51.340192
  0
LINE
  5
3102
100
AcDbEntity
  8
0
100
AcDbLine
 10
1535.856778
 20
525.890375
 30
0.0
 11
1543.980254
 21
519.391595
 31
0.0
  0
LINE
  5
3103
100
AcDbEntity
  8
0
100
AcDbLine
 10
1545.856778
 20
605.390375
 30
0.0
 11
1561.856778
 21
605.390375
 31
0.0
  0
ARC
  5
3104
100
AcDbEntity
  8
0
100
AcDbCircle
 10
1540.856778
 20
570.2935
 30
0.0
 40
5.0
100
AcDbArc
 50
308.659808
 51
0.0
  0
LINE
  5
3105
100
AcDbEntity
  8
0
100
AcDbLine
 10
1362.856778
 20
605.390375
 30
0.0
 11
1362.856778
 21
480.390375
 31
0.0
  0
LINE
  5
3106
100
AcDbEntity
  8
0
100
AcDbLine
 10
1372.856778
 20
559.890375
 30
0.0
 11
1364.733303
 21
566.389156
 31
0.0
  0
LINE
  5
3107
100
AcDbEntity
  8
0
100
AcDbLine
 10
1408.200236
 20
559.890375
 30
0.0
 11
1372.856778
 21
559.890375
 31
0.0
  0
LINE
  5
3108
100
AcDbEntity
  8
0
100
AcDbLine
 10
1408.200236
 20
525.890375
 30
0.0
 11
1372.856778
 21
525.890375
 31
0.0
  0
LINE
  5
3109
100
AcDbEntity
  8
0
100
AcDbLine
 10
1362.856778
 20
480.390375
 30
0.0
 11
1346.856778
 21
480.390375
 31
0.0
  0
LINE
  5
310A
100
AcDbEntity
  8
0
100
AcDbLine
 10
1372.856778
 20
559.890375
 30
0.0
 11
1372.856778
 21
525.890375
 31
0.0
  0
LINE
  5
310B
100
AcDbEntity
  8
0
100
AcDbLine
 10
1372.856778
 20
525.890375
 30
0.0
 11
1364.733303
 21
519.391595
 31
0.0
  0
ARC
  5
310C
100
AcDbEntity
  8
0
100
AcDbCircle
 10
1367.856778
 20
515.487251
 30
0.0
 40
5.0
100
AcDbArc
 50
128.659808
 51
180.0
  0
LINE
  5
310D
100
AcDbEntity
  8
0
100
AcDbLine
 10
1398.356778
 20
559.890375
 30
0.0
 11
1398.356778
 21
525.890375
 31
0.0
  0
ARC
  5
310E
100
AcDbEntity
  8
0
100
AcDbCircle
 10
1367.856778
 20
570.2935
 30
0.0
 40
5.0
100
AcDbArc
 50
180.0
 51
231.340192
  0
LINE
  5
310F
100
AcDbEntity
  8
0
100
AcDbLine
 10
1362.856778
 20
605.390375
 30
0.0
 11
1346.856778
 21
605.390375
 31
0.0
  0
VIEWPORT
  5
41
100
AcDbEntity
 67
     1
  8
0
100
AcDbViewport
 10
117.358407
 20
73.5
 30
0.0
 40
234.716814
 41
147.0
 68
    -1
 69
     1
1001
ACAD
1000
MVIEW
1002
{
1070
    16
1010
0.0
1020
0.0
1030
0.0
1010
0.0
1020
0.0
1030
1.0
1040
0.0
1040
147.0
1040
117.358407
1040
73.5
1040
50.0
1040
0.0
1040
0.0
1070
     0
1070
   100
1070
     1
1070
     1
1070
     0
1070
     0
1070
     0
1070
     0
1040
0.0
1040
0.0
1040
0.0
1040
1.0
1040
1.0
1040
0.0
1040
0.0
1070
     0
1002
{
1002
}
1002
}
  0
ENDSEC
  0
SECTION
  2
OBJECTS
  0
DICTIONARY
  5
C
100
AcDbDictionary
  3
ACAD_GROUP
350
D
  3
ACAD_MLINESTYLE
350
E
  0
DICTIONARY
  5
D
102
{ACAD_REACTORS
330
C
102
}
100
AcDbDictionary
  0
DICTIONARY
  5
E
102
{ACAD_REACTORS
330
C
102
}
100
AcDbDictionary
  3
STANDARD
350
1B
  0
MLINESTYLE
  5
1B
102
{ACAD_REACTORS
330
E
102
}
100
AcDbMlineStyle
  2
STANDARD
 70
     0
  3

 62
     0
 51
90.0
 52
90.0
 71
     2
 49
0.5
 62
   256
  6
BYLAYER
 49
-0.5
 62
   256
  6
BYLAYER
  0
ENDSEC
  0
EOF
