  0
SECTION
  2
HEADER
  9
$ACADVER
  1
AC1009
  9
$INSBASE
 10
0.0
 20
0.0
 30
0.0
  9
$EXTMIN
 10
88.0
 20
40.0
 30
0.0
  9
$EXTMAX
 10
2288.0
 20
1528.0
 30
0.0
  9
$LIMMIN
 10
0.0
 20
0.0
  9
$LIMMAX
 10
2376.0
 20
1680.0
  9
$ORTHOMODE
 70
     1
  9
$REGENMODE
 70
     1
  9
$FILLMODE
 70
     1
  9
$QTEXTMODE
 70
     0
  9
$MIRRTEXT
 70
     1
  9
$DRAGMODE
 70
     2
  9
$LTSCALE
 40
32.0
  9
$OSMODE
 70
   163
  9
$ATTMODE
 70
     1
  9
$TEXTSIZE
 40
32.0
  9
$TRACEWID
 40
0.05
  9
$TEXTSTYLE
  7
STANDARD
  9
$CLAYER
  8
0
  9
$CELTYPE
  6
BYLAYER
  9
$CECOLOR
 62
   256
  9
$DIMSCALE
 40
8.0
  9
$DIMASZ
 40
2.7999999999999989
  9
$DIMEXO
 40
1.0
  9
$DIMDLI
 40
5.0
  9
$DIMRND
 40
0.1
  9
$DIMDLE
 40
0.0
  9
$DIMEXE
 40
1.0
  9
$DIMTP
 40
0.0
  9
$DIMTM
 40
0.0
  9
$DIMTXT
 40
2.5
  9
$DIMCEN
 40
0.0
  9
$DIMTSZ
 40
0.0
  9
$DIMTOL
 70
     0
  9
$DIMLIM
 70
     0
  9
$DIMTIH
 70
     0
  9
$DIMTOH
 70
     0
  9
$DIMSE1
 70
     0
  9
$DIMSE2
 70
     0
  9
$DIMTAD
 70
     3
  9
$DIMZIN
 70
     8
  9
$DIMBLK
  1

  9
$DIMASO
 70
     1
  9
$DIMSHO
 70
     1
  9
$DIMPOST
  1
 
  9
$DIMAPOST
  1

  9
$DIMALT
 70
     0
  9
$DIMALTD
 70
     2
  9
$DIMALTF
 40
1.0
  9
$DIMLFAC
 40
1.0
  9
$DIMTOFL
 70
     1
  9
$DIMTVP
 40
0.0
  9
$DIMTIX
 70
     0
  9
$DIMSOXD
 70
     0
  9
$DIMSAH
 70
     1
  9
$DIMBLK1
  1
OPEN
  9
$DIMBLK2
  1
OPEN
  9
$DIMSTYLE
  2
DIM1
  9
$DIMCLRD
 70
     2
  9
$DIMCLRE
 70
     2
  9
$DIMCLRT
 70
     2
  9
$DIMTFAC
 40
0.7
  9
$DIMGAP
 40
0.85
  9
$LUNITS
 70
     2
  9
$LUPREC
 70
     4
  9
$SKETCHINC
 40
0.1
  9
$FILLETRAD
 40
0.0
  9
$AUNITS
 70
     0
  9
$AUPREC
 70
     0
  9
$MENU
  1
C:\ACADR13\WIN\SUPPORT\ACAD.mnc
  9
$ELEVATION
 40
0.0
  9
$PELEVATION
 40
0.0
  9
$THICKNESS
 40
0.0
  9
$LIMCHECK
 70
     0
  9
$BLIPMODE
 70
     0
  9
$CHAMFERA
 40
0.0
  9
$CHAMFERB
 40
0.0
  9
$SKPOLY
 70
     0
  9
$TDCREATE
 40
2451564.6576601272
  9
$TDUPDATE
 40
2454851.6066442942
  9
$TDINDWG
 40
0.0536450463
  9
$TDUSRTIMER
 40
0.0536450463
  9
$USRTIMER
 70
     1
  9
$ANGBASE
 50
0.0
  9
$ANGDIR
 70
     0
  9
$PDMODE
 70
     0
  9
$PDSIZE
 40
0.0
  9
$PLINEWID
 40
0.0
  9
$COORDS
 70
     0
  9
$SPLFRAME
 70
     0
  9
$SPLINETYPE
 70
     6
  9
$SPLINESEGS
 70
     8
  9
$ATTDIA
 70
     0
  9
$ATTREQ
 70
     1
  9
$HANDLING
 70
     1
  9
$HANDSEED
  5
351B
  9
$SURFTAB1
 70
     6
  9
$SURFTAB2
 70
     6
  9
$SURFTYPE
 70
     6
  9
$SURFU
 70
     6
  9
$SURFV
 70
     6
  9
$UCSNAME
  2

  9
$UCSORG
 10
0.0
 20
0.0
 30
0.0
  9
$UCSXDIR
 10
1.0
 20
0.0
 30
0.0
  9
$UCSYDIR
 10
0.0
 20
1.0
 30
0.0
  9
$PUCSNAME
  2

  9
$PUCSORG
 10
0.0
 20
0.0
 30
0.0
  9
$PUCSXDIR
 10
1.0
 20
0.0
 30
0.0
  9
$PUCSYDIR
 10
0.0
 20
1.0
 30
0.0
  9
$USERI1
 70
     0
  9
$USERI2
 70
     0
  9
$USERI3
 70
     0
  9
$USERI4
 70
     0
  9
$USERI5
 70
     0
  9
$USERR1
 40
0.0
  9
$USERR2
 40
0.0
  9
$USERR3
 40
0.0
  9
$USERR4
 40
0.0
  9
$USERR5
 40
0.0
  9
$WORLDVIEW
 70
     1
  9
$SHADEDGE
 70
     3
  9
$SHADEDIF
 70
    70
  9
$TILEMODE
 70
     1
  9
$MAXACTVP
 70
    16
  9
$PLIMCHECK
 70
     0
  9
$PEXTMIN
 10
1.0000000000000000E+020
 20
1.0000000000000000E+020
 30
1.0000000000000000E+020
  9
$PEXTMAX
 10
-1.0000000000000000E+020
 20
-1.0000000000000000E+020
 30
-1.0000000000000000E+020
  9
$PLIMMIN
 10
0.0
 20
0.0
  9
$PLIMMAX
 10
20.0
 20
147.0
  9
$UNITMODE
 70
     0
  9
$VISRETAIN
 70
     0
  9
$PLINEGEN
 70
     0
  9
$PSLTSCALE
 70
     1
  0
ENDSEC
  0
SECTION
  2
TABLES
  0
TABLE
  2
VPORT
 70
     1
  0
VPORT
  2
*ACTIVE
 70
     0
 10
0.0
 20
0.0
 11
1.0
 21
1.0
 12
1283.66991835915
 22
964.07306306536509
 13
0.0
 23
0.0
 14
1.0
 24
1.0
 15
0.0
 25
0.0
 16
0.0
 26
0.0
 36
1.0
 17
0.0
 27
0.0
 37
0.0
 40
1928.146124119357
 41
1.6496240601503751
 42
50.0
 43
0.0
 44
0.0
 50
0.0
 51
0.0
 71
     0
 72
   100
 73
     1
 74
     1
 75
     0
 76
     0
 77
     0
 78
     0
  0
ENDTAB
  0
TABLE
  2
LTYPE
 70
     1
  0
LTYPE
  2
CONTINUOUS
 70
     0
  3
Solid line
 72
    65
 73
     0
 40
0.0
  0
ENDTAB
  0
TABLE
  2
LAYER
 70
     1
  0
LAYER
  2
0
 70
     0
 62
     7
  6
CONTINUOUS
  0
ENDTAB
  0
TABLE
  2
STYLE
 70
     3
  0
STYLE
  2
STANDARD
 70
     0
 40
0.0
 41
0.8
 50
0.0
 71
     0
 42
32.0
  3
simplex
  4
extfont
  0
STYLE
  2
PTSH
 70
     0
 40
0.0
 41
0.9
 50
0.0
 71
     0
 42
4.0
  3
SIMPLEX
  4
EXTFONT
  0
STYLE
  2
DIM
 70
     0
 40
0.0
 41
0.8
 50
0.0
 71
     0
 42
4.0
  3
simplex
  4
extfont
  0
ENDTAB
  0
TABLE
  2
VIEW
 70
     0
  0
ENDTAB
  0
TABLE
  2
UCS
 70
     0
  0
ENDTAB
  0
TABLE
  2
APPID
 70
     3
  0
APPID
  2
ACAD
 70
     0
  0
APPID
  2
ACAD_MLEADERVER
 70
     0
  0
APPID
  2
ACAD_PSEXT
 70
     0
  0
ENDTAB
  0
TABLE
  2
DIMSTYLE
 70
     1
  0
DIMSTYLE
  2
DIM1
 70
     0
  3
 
  4

  5

  6
OPEN
  7
OPEN
 40
8.0
 41
2.7999999999999989
 42
1.0
 43
5.0
 44
1.0
 45
0.1
 46
0.0
 47
0.0
 48
0.0
140
2.5
141
0.0
142
0.0
143
1.0
144
1.0
145
0.0
146
0.7
147
0.85
 71
     0
 72
     0
 73
     0
 74
     0
 75
     0
 76
     0
 77
     3
 78
     8
170
     0
171
     2
172
     1
173
     1
174
     0
175
     0
176
     2
177
     2
178
     2
  0
ENDTAB
  0
ENDSEC
  0
SECTION
  2
BLOCKS
  0
BLOCK
  8
0
  2
$MODEL_SPACE
 70
     0
 10
0.0
 20
0.0
 30
0.0
  3
$MODEL_SPACE
  1

  0
ENDBLK
  5
3D
  8
0
  0
BLOCK
 67
     1
  8
0
  2
$PAPER_SPACE
 70
     0
 10
0.0
 20
0.0
 30
0.0
  3
$PAPER_SPACE
  1

  0
ENDBLK
  5
3B
 67
     1
  8
0
  0
BLOCK
  8
0
  2
_OPEN
 70
     0
 10
0.0
 20
0.0
 30
0.0
  3
_OPEN
  1
H1111.DWG
  0
LINE
  5
244A
  8
0
  6
BYBLOCK
 62
     0
 10
-1.0
 20
0.1666666666666666
 30
0.0
 11
0.0
 21
0.0
 31
0.0
  0
LINE
  5
244B
  8
0
  6
BYBLOCK
 62
     0
 10
0.0
 20
0.0
 30
0.0
 11
-1.0
 21
-0.1666666666666666
 31
0.0
  0
LINE
  5
244C
  8
0
  6
BYBLOCK
 62
     0
 10
0.0
 20
0.0
 30
0.0
 11
-1.0
 21
0.0
 31
0.0
  0
ENDBLK
  5
244D
  8
0
  0
ENDSEC
  0
SECTION
  2
ENTITIES
  0
TEXT
  5
2529
  8
0
  6
CONTINUOUS
 10
2182.8121432298349
 20
61.936709806374893
 30
0.0
 40
18.0
  1
SS3V-F
 41
0.9
  7
PTSH
 72
     1
 11
2228.7121432298359
 21
70.936709806374893
 31
0.0
 73
     2
  0
POLYLINE
  5
2563
  8
0
 66
     1
 10
0.0
 20
0.0
 30
0.0
 70
     1
  0
VERTEX
  5
33EE
  8
0
 10
88.0
 20
40.0
 30
0.0
  0
VERTEX
  5
33EF
  8
0
 10
2288.0
 20
40.0
 30
0.0
  0
VERTEX
  5
33F0
  8
0
 10
2288.0
 20
1528.0
 30
0.0
  0
VERTEX
  5
33F1
  8
0
 10
88.0
 20
1528.0
 30
0.0
  0
SEQEND
  5
33F2
  8
0
  0
LINE
  5
2BA0
  8
0
 10
1283.957784792304
 20
675.44140246713096
 30
0.0
 11
1221.9577847923031
 21
675.44140246713107
 31
0.0
  0
LINE
  5
2BA1
  8
0
 10
1267.957784792304
 20
676.88248842450639
 30
0.0
 11
1237.957784792304
 21
676.88248842450639
 31
0.0
  0
LINE
  5
2BA2
  8
0
 10
1202.957784792304
 20
729.69140246713175
 30
0.0
 11
1252.957784792304
 21
729.69140246713175
 31
0.0
  0
LINE
  5
2BA4
  8
0
 10
1283.957784792304
 20
588.94140246713096
 30
0.0
 11
1221.9577847923031
 21
588.94140246713096
 31
0.0
  0
LINE
  5
2BA5
  8
0
 10
1267.957784792304
 20
587.50031650975643
 30
0.0
 11
1237.957784792304
 21
587.50031650975643
 31
0.0
  0
TEXT
  5
2BAA
  8
0
 10
984.4497081951713
 20
329.09331179620909
 30
0.0
 40
25.0
  1
TLV  SS3V (JIS20K)
  0
LINE
  5
2BAB
  8
0
 10
1202.957784792304
 20
534.69140246713096
 30
0.0
 11
1252.957784792304
 21
534.69140246713096
 31
0.0
  0
LINE
  5
2BB0
  8
0
 10
407.64836756159821
 20
1135.4720023083621
 30
0.0
 11
455.14836756159809
 21
1135.4720023083621
 31
0.0
  0
LINE
  5
2BB6
  8
0
 10
435.12755228142657
 20
1090.472002308363
 30
0.0
 11
392.14836756159821
 21
1090.472002308363
 31
0.0
  0
LINE
  5
2BB7
  8
0
 10
392.14836756159821
 20
1090.4720023083639
 30
0.0
 11
422.64836756159912
 21
1090.472002308363
 31
0.0
  0
LINE
  5
2BB9
  8
0
 10
392.64836756159821
 20
1091.439706836198
 30
0.0
 11
422.64836756159912
 21
1091.4397068361991
 31
0.0
  0
LINE
  5
2BBA
  8
0
 10
435.12755228142657
 20
1005.472002308364
 30
0.0
 11
392.14836756159821
 21
1005.472002308364
 31
0.0
  0
LINE
  5
2BBB
  8
0
 10
392.64836756159821
 20
1004.5042977805271
 30
0.0
 11
422.64836756159912
 21
1004.504297780526
 31
0.0
  0
LINE
  5
2BBC
  8
0
 10
392.64836756159912
 20
1005.472002308362
 30
0.0
 11
422.64836756159912
 21
1005.472002308363
 31
0.0
  0
LINE
  5
2BC3
  8
0
 10
407.64836756159821
 20
960.47200230836177
 30
0.0
 11
455.14836756159809
 21
960.47200230836177
 31
0.0
  0
CIRCLE
  5
2BC5
  8
0
 10
407.64836756159821
 20
875.02038370495302
 30
0.0
 40
47.5
  0
LINE
  5
2BC6
  8
0
 10
362.92106459702518
 20
729.69140246713175
 30
0.0
 11
410.42106459702512
 21
729.69140246713175
 31
0.0
  0
LINE
  5
2BCD
  8
0
 10
425.42106459702518
 20
685.65910699496862
 30
0.0
 11
395.42106459702433
 21
685.65910699496953
 31
0.0
  0
LINE
  5
2BCE
  8
0
 10
425.92106459702512
 20
684.69140246713357
 30
0.0
 11
395.42106459702433
 21
684.69140246713278
 31
0.0
  0
LINE
  5
2BCF
  8
0
 10
382.9418798771967
 20
684.69140246713278
 30
0.0
 11
425.92106459702512
 21
684.69140246713278
 31
0.0
  0
LINE
  5
2BD0
  8
0
 10
425.42106459702433
 20
599.69140246713175
 30
0.0
 11
395.42106459702433
 21
599.69140246713266
 31
0.0
  0
LINE
  5
2BD2
  8
0
 10
425.42106459702518
 20
598.72369793929693
 30
0.0
 11
395.42106459702433
 21
598.72369793929602
 31
0.0
  0
LINE
  5
2BD3
  8
0
 10
382.9418798771967
 20
599.69140246713368
 30
0.0
 11
425.92106459702512
 21
599.69140246713368
 31
0.0
  0
LINE
  5
2BD9
  8
0
 10
362.92106459702518
 20
554.69140246713175
 30
0.0
 11
410.42106459702512
 21
554.69140246713175
 31
0.0
  0
TEXT
  5
2BDA
  8
0
 10
384.20309370483039
 20
503.73276708796948
 30
0.0
 40
20.0
  1
15
 41
0.8
 72
     4
 11
395.63166513340178
 21
513.73276708796936
 31
0.0
  0
LINE
  5
2BE0
  8
0
 10
241.0213734051222
 20
554.69140246713175
 30
0.0
 11
288.52137340512218
 21
554.69140246713175
 31
0.0
  0
LINE
  5
2BE3
  8
0
 10
360.91065695693942
 20
618.20181010721853
 30
0.0
 11
376.931472237111
 21
602.18099482704793
 31
0.0
  0
ARC
  5
2BE4
  8
0
 10
315.02137340512309
 20
615.37341756078081
 30
0.0
 40
11.5
 50
296.21026946412837
 51
0.0
  0
ARC
  5
2BE5
  8
0
 10
262.02137340512309
 20
615.37341756078081
 30
0.0
 40
11.5
 50
180.0
 51
243.7897305358714
  0
LINE
  5
2BE6
  8
0
 10
288.52137340512218
 20
554.69140246713175
 30
0.0
 11
336.02137340512218
 21
554.69140246713175
 31
0.0
  0
LINE
  5
2BE8
  8
0
 10
271.78145012743789
 20
599.69140246713289
 30
0.0
 11
305.26129668280828
 21
599.69140246713289
 31
0.0
  0
LINE
  5
2BE9
  8
0
 10
303.52137340512218
 20
598.72369793929693
 30
0.0
 11
273.52137340512132
 21
598.72369793929602
 31
0.0
  0
ARC
  5
2BF2
  8
0
 10
288.52137340512309
 20
669.20417085292797
 30
0.0
 40
71.499999999999886
 50
243.78973053582359
 51
256.45996158058182
  0
POLYLINE
  5
2BF3
  8
0
 66
     1
 10
0.0
 20
0.0
 30
0.0
  0
VERTEX
  5
33F3
  8
0
 10
272.69521528896172
 20
599.69140246713368
 30
0.0
  0
VERTEX
  5
33F4
  8
0
 10
273.52137340512132
 20
598.72369793929693
 30
0.0
  0
SEQEND
  5
33F5
  8
0
  0
ARC
  5
2BFA
  8
0
 10
288.52137340512309
 20
669.20417085292797
 30
0.0
 40
71.499999999999886
 50
283.54003841941812
 51
296.21026946417612
  0
POLYLINE
  5
2BFB
  8
0
 66
     1
 10
0.0
 20
0.0
 30
0.0
  0
VERTEX
  5
33F6
  8
0
 10
304.34753152128093
 20
599.69140246713368
 30
0.0
  0
VERTEX
  5
33F7
  8
0
 10
303.52137340512218
 20
598.72369793929693
 30
0.0
  0
SEQEND
  5
33F8
  8
0
  0
ARC
  5
2C04
  8
0
 10
382.9418798771967
 20
608.19140246713368
 30
0.0
 40
8.5
 50
225.00000000000111
 51
270.00000000000063
  0
POLYLINE
  5
2C06
  8
0
 66
     1
 10
0.0
 20
0.0
 30
0.0
  0
VERTEX
  5
33F9
  8
0
 10
394.59490648086472
 20
599.69140246713368
 30
0.0
  0
VERTEX
  5
33FA
  8
0
 10
395.42106459702433
 20
598.72369793929693
 30
0.0
  0
SEQEND
  5
33FB
  8
0
  0
LINE
  5
2C08
  8
0
 10
326.52137340512309
 20
615.37341756078104
 30
0.0
 11
326.52137340512309
 21
669.00938737348451
 31
0.0
  0
LINE
  5
2C09
  8
0
 10
250.52137340512309
 20
615.37341756078104
 30
0.0
 11
250.52137340512309
 21
669.00938737348451
 31
0.0
  0
LINE
  5
2C0F
  8
0
 10
271.78145012743698
 20
684.69140246713266
 30
0.0
 11
305.26129668280743
 21
684.69140246713278
 31
0.0
  0
LINE
  5
2C10
  8
0
 10
303.52137340512218
 20
685.65910699496862
 30
0.0
 11
273.52137340512132
 21
685.65910699496953
 31
0.0
  0
ARC
  5
2C12
  8
0
 10
288.52137340512309
 20
615.17863408133758
 30
0.0
 40
71.499999999999886
 50
103.5400384194197
 51
116.21026946417641
  0
ARC
  5
2C13
  8
0
 10
262.02137340512309
 20
669.00938737348417
 30
0.0
 40
11.5
 50
116.2102694641288
 51
180.0
  0
POLYLINE
  5
2C14
  8
0
 66
     1
 10
0.0
 20
0.0
 30
0.0
  0
VERTEX
  5
33FC
  8
0
 10
272.69521528896172
 20
684.69140246713187
 30
0.0
  0
VERTEX
  5
33FD
  8
0
 10
273.52137340512132
 20
685.65910699496862
 30
0.0
  0
SEQEND
  5
33FE
  8
0
  0
ARC
  5
2C1B
  8
0
 10
288.52137340512309
 20
615.17863408133758
 30
0.0
 40
71.499999999999886
 50
63.789730535823622
 51
76.459961580581776
  0
POLYLINE
  5
2C1C
  8
0
 66
     1
 10
0.0
 20
0.0
 30
0.0
  0
VERTEX
  5
33FF
  8
0
 10
304.34753152128093
 20
684.69140246713187
 30
0.0
  0
VERTEX
  5
3400
  8
0
 10
303.52137340512218
 20
685.65910699496862
 30
0.0
  0
SEQEND
  5
3401
  8
0
  0
ARC
  5
2C1E
  8
0
 10
315.02137340512309
 20
669.00938737348417
 30
0.0
 40
11.5
 50
0.0
 51
63.789730535871414
  0
ARC
  5
2C23
  8
0
 10
366.92106459702518
 20
660.17058718696126
 30
0.0
 40
8.5
 50
135.00000000000011
 51
180.0
  0
LINE
  5
2C24
  8
0
 10
358.42106459702518
 20
660.17058718696126
 30
0.0
 11
358.42106459702518
 21
624.21221774730418
 31
0.0
  0
ARC
  5
2C25
  8
0
 10
366.92106459702518
 20
624.21221774730418
 30
0.0
 40
8.5
 50
180.0
 51
225.00000000000111
  0
LINE
  5
2C26
  8
0
 10
360.91065695693942
 20
666.18099482704702
 30
0.0
 11
376.931472237111
 21
682.20181010721853
 31
0.0
  0
ARC
  5
2C28
  8
0
 10
382.9418798771967
 20
676.19140246713278
 30
0.0
 40
8.5
 50
90.0
 51
134.99999999999989
  0
POLYLINE
  5
2C29
  8
0
 66
     1
 10
0.0
 20
0.0
 30
0.0
  0
VERTEX
  5
3402
  8
0
 10
394.59490648086472
 20
684.69140246713187
 30
0.0
  0
VERTEX
  5
3403
  8
0
 10
395.42106459702433
 20
685.65910699496862
 30
0.0
  0
SEQEND
  5
3404
  8
0
  0
LINE
  5
2C30
  8
0
 10
241.0213734051222
 20
729.69140246713175
 30
0.0
 11
288.52137340512218
 21
729.69140246713175
 31
0.0
  0
ARC
  5
2C33
  8
0
 10
393.64836756159821
 20
875.02038370495302
 30
0.0
 40
38.0
 50
125.39305267500499
 51
234.60694732499499
  0
LINE
  5
2C34
  8
0
 10
288.52137340512218
 20
729.69140246713175
 30
0.0
 11
336.02137340512218
 21
729.69140246713175
 31
0.0
  0
LINE
  5
2C36
  8
0
 10
360.14836756159821
 20
960.47200230836177
 30
0.0
 11
407.64836756159821
 21
960.47200230836177
 31
0.0
  0
ARC
  5
2C38
  8
0
 10
392.14836756159821
 20
1081.9720023083621
 30
0.0
 40
8.5
 50
90.0
 51
180.0
  0
LINE
  5
2C39
  8
0
 10
383.64836756159821
 20
1081.9720023083621
 30
0.0
 11
383.64836756159821
 21
1013.972002308364
 31
0.0
  0
ARC
  5
2C40
  8
0
 10
392.14836756159821
 20
1013.972002308364
 30
0.0
 40
8.5
 50
180.0
 51
270.0
  0
POLYLINE
  5
2C41
  8
0
 66
     1
 10
0.0
 20
0.0
 30
0.0
  0
VERTEX
  5
3405
  8
0
 10
391.82220944543951
 20
1005.472002308364
 30
0.0
  0
VERTEX
  5
3406
  8
0
 10
392.64836756159821
 20
1004.5042977805271
 30
0.0
  0
SEQEND
  5
3407
  8
0
  0
LINE
  5
2C42
  8
0
 10
360.14836756159821
 20
1135.4720023083621
 30
0.0
 11
407.64836756159821
 21
1135.4720023083621
 31
0.0
  0
POLYLINE
  5
2C46
  8
0
 66
     1
 10
0.0
 20
0.0
 30
0.0
  0
VERTEX
  5
3408
  8
0
 10
391.82220944543951
 20
1090.4720023083621
 30
0.0
  0
VERTEX
  5
3409
  8
0
 10
392.64836756159821
 20
1091.439706836198
 30
0.0
  0
SEQEND
  5
340A
  8
0
  0
LINE
  5
2C53
  8
0
 10
556.71283242548986
 20
677.69140246713255
 30
0.0
 11
556.71283242548986
 21
606.69140246713278
 31
0.0
  0
LINE
  5
2C54
  8
0
 10
556.71283242548986
 20
677.69140246713255
 30
0.0
 11
556.71283242548986
 21
606.69140246713278
 31
0.0
  0
LINE
  5
2C55
  8
0
 10
480.71283242548992
 20
677.69140246713255
 30
0.0
 11
480.71283242548992
 21
606.69140246713278
 31
0.0
  0
LINE
  5
2C56
  8
0
 10
480.71283242548992
 20
677.69140246713255
 30
0.0
 11
480.71283242548992
 21
606.69140246713278
 31
0.0
  0
LINE
  5
2C57
  8
0
 10
434.42106459702512
 20
676.19140246713278
 30
0.0
 11
434.42106459702512
 21
608.19140246713368
 31
0.0
  0
LINE
  5
2C58
  8
0
 10
549.71283242548998
 20
599.69140246713289
 30
0.0
 11
487.71283242548998
 21
599.69140246713289
 31
0.0
  0
LINE
  5
2C59
  8
0
 10
471.21283242548998
 20
554.69140246713175
 30
0.0
 11
518.71283242548986
 21
554.69140246713175
 31
0.0
  0
LINE
  5
2C5B
  8
0
 10
410.42106459702512
 20
554.69140246713175
 30
0.0
 11
457.92106459702518
 21
554.69140246713175
 31
0.0
  0
ARC
  5
2C60
  8
0
 10
425.92106459702512
 20
608.19140246713368
 30
0.0
 40
8.5
 50
270.0
 51
0.0
  0
POLYLINE
  5
2C62
  8
0
 66
     1
 10
0.0
 20
0.0
 30
0.0
  0
VERTEX
  5
340B
  8
0
 10
426.24722271318382
 20
599.69140246713368
 30
0.0
  0
VERTEX
  5
340C
  8
0
 10
425.42106459702518
 20
598.72369793929693
 30
0.0
  0
SEQEND
  5
340D
  8
0
  0
ARC
  5
2C66
  8
0
 10
487.71283242548998
 20
606.69140246713278
 30
0.0
 40
7.0
 50
180.0
 51
270.0
  0
LINE
  5
2C69
  8
0
 10
533.71283242548998
 20
598.72369793929693
 30
0.0
 11
503.71283242548901
 21
598.72369793929602
 31
0.0
  0
LINE
  5
2C6C
  8
0
 10
518.71283242548986
 20
554.69140246713175
 30
0.0
 11
566.21283242548998
 21
554.69140246713175
 31
0.0
  0
POLYLINE
  5
2C78
  8
0
 66
     1
 10
0.0
 20
0.0
 30
0.0
  0
VERTEX
  5
340E
  8
0
 10
502.88667430932952
 20
599.69140246713368
 30
0.0
  0
VERTEX
  5
340F
  8
0
 10
503.71283242548901
 20
598.72369793929693
 30
0.0
  0
SEQEND
  5
3410
  8
0
  0
ARC
  5
2C7B
  8
0
 10
549.71283242548998
 20
606.69140246713278
 30
0.0
 40
7.0
 50
270.0
 51
0.0
  0
POLYLINE
  5
2C7D
  8
0
 66
     1
 10
0.0
 20
0.0
 30
0.0
  0
VERTEX
  5
3411
  8
0
 10
534.53899054164856
 20
599.69140246713368
 30
0.0
  0
VERTEX
  5
3412
  8
0
 10
533.71283242548998
 20
598.72369793929693
 30
0.0
  0
SEQEND
  5
3413
  8
0
  0
LINE
  5
2C7F
  8
0
 10
549.71283242548998
 20
684.69140246713255
 30
0.0
 11
487.71283242548998
 21
684.69140246713289
 31
0.0
  0
ARC
  5
2C81
  8
0
 10
425.92106459702512
 20
676.19140246713278
 30
0.0
 40
8.5
 50
0.0
 51
90.0
  0
POLYLINE
  5
2C82
  8
0
 66
     1
 10
0.0
 20
0.0
 30
0.0
  0
VERTEX
  5
3414
  8
0
 10
426.24722271318382
 20
684.69140246713187
 30
0.0
  0
VERTEX
  5
3415
  8
0
 10
425.42106459702518
 20
685.65910699496862
 30
0.0
  0
SEQEND
  5
3416
  8
0
  0
ARC
  5
2C88
  8
0
 10
487.71283242548998
 20
677.69140246713255
 30
0.0
 40
7.0
 50
90.0
 51
180.0
  0
LINE
  5
2C8D
  8
0
 10
533.71283242548998
 20
685.65910699496862
 30
0.0
 11
503.71283242548901
 21
685.65910699496953
 31
0.0
  0
POLYLINE
  5
2C8F
  8
0
 66
     1
 10
0.0
 20
0.0
 30
0.0
  0
VERTEX
  5
3417
  8
0
 10
502.88667430932952
 20
684.69140246713187
 30
0.0
  0
VERTEX
  5
3418
  8
0
 10
503.71283242548901
 20
685.65910699496862
 30
0.0
  0
SEQEND
  5
3419
  8
0
  0
ARC
  5
2C9A
  8
0
 10
549.71283242548998
 20
677.69140246713255
 30
0.0
 40
7.0
 50
0.0
 51
90.0
  0
POLYLINE
  5
2C9B
  8
0
 66
     1
 10
0.0
 20
0.0
 30
0.0
  0
VERTEX
  5
341A
  8
0
 10
534.53899054164856
 20
684.69140246713187
 30
0.0
  0
VERTEX
  5
341B
  8
0
 10
533.71283242548998
 20
685.65910699496862
 30
0.0
  0
SEQEND
  5
341C
  8
0
  0
LINE
  5
2C9E
  8
0
 10
1048.660646636014
 20
604.62341756077888
 30
0.0
 11
1048.660646636014
 21
659.75938737348281
 31
0.0
  0
LINE
  5
2C9F
  8
0
 10
972.66064663601446
 20
604.62341756077888
 30
0.0
 11
972.66064663601446
 21
659.75938737348281
 31
0.0
  0
LINE
  5
2CA0
  8
0
 10
993.92072335832916
 20
588.94140246713096
 30
0.0
 11
1027.400569913699
 21
588.94140246713096
 31
0.0
  0
LINE
  5
2CA1
  8
0
 10
1025.660646636014
 20
587.50031650975654
 30
0.0
 11
995.66064663601378
 21
587.50031650975654
 31
0.0
  0
LINE
  5
2CA6
  8
0
 10
960.66064663601355
 20
534.69140246713107
 30
0.0
 11
1010.660646636013
 21
534.69140246713107
 31
0.0
  0
ARC
  5
2CAE
  8
0
 10
984.16064663601446
 20
604.62341756077888
 30
0.0
 40
11.5
 50
180.0
 51
243.7897305358714
  0
LINE
  5
2CAF
  8
0
 10
995.66064663601378
 20
587.50031650975654
 30
0.0
 11
994.32308272749481
 21
588.94140246713096
 31
0.0
  0
ARC
  5
2CB0
  8
0
 10
1010.660646636014
 20
658.45417085292615
 30
0.0
 40
71.499999999999886
 50
243.78973053582359
 51
256.45996158058182
  0
LINE
  5
2CB2
  8
0
 10
1010.660646636013
 20
534.69140246713107
 30
0.0
 11
1060.6606466360131
 21
534.69140246713107
 31
0.0
  0
ARC
  5
2CB4
  8
0
 10
1010.660646636014
 20
658.45417085292615
 30
0.0
 40
71.499999999999886
 50
283.54003841941812
 51
296.21026946417612
  0
LINE
  5
2CB9
  8
0
 10
1025.660646636014
 20
587.50031650975654
 30
0.0
 11
1026.998210544532
 21
588.94140246713096
 31
0.0
  0
ARC
  5
2CBA
  8
0
 10
1037.160646636014
 20
604.62341756077888
 30
0.0
 40
11.5
 50
296.21026946412837
 51
0.0
  0
LINE
  5
2CC0
  8
0
 10
993.92072335832825
 20
675.44140246713096
 30
0.0
 11
1027.4005699136981
 21
675.44140246713107
 31
0.0
  0
LINE
  5
2CC1
  8
0
 10
1025.660646636014
 20
676.8824884245065
 30
0.0
 11
995.66064663601378
 21
676.8824884245065
 31
0.0
  0
ARC
  5
2CC2
  8
0
 10
984.16064663601446
 20
659.7593873734827
 30
0.0
 40
11.5
 50
116.2102694641288
 51
180.0
  0
LINE
  5
2CC4
  8
0
 10
995.66064663601378
 20
676.8824884245065
 30
0.0
 11
994.32308272749481
 21
675.44140246713187
 31
0.0
  0
ARC
  5
2CC5
  8
0
 10
1010.660646636014
 20
605.92863408133587
 30
0.0
 40
71.499999999999886
 50
103.5400384194197
 51
116.21026946417641
  0
ARC
  5
2CCA
  8
0
 10
1037.160646636014
 20
659.7593873734827
 30
0.0
 40
11.5
 50
0.0
 51
63.789730535871414
  0
ARC
  5
2CCC
  8
0
 10
1010.660646636014
 20
605.92863408133587
 30
0.0
 40
71.499999999999886
 50
63.789730535823622
 51
76.459961580581776
  0
LINE
  5
2CCE
  8
0
 10
1025.660646636014
 20
676.8824884245065
 30
0.0
 11
1026.998210544532
 21
675.44140246713187
 31
0.0
  0
ARC
  5
2CD2
  8
0
 10
1095.7106417835971
 20
612.84089740374247
 30
0.0
 40
7.0
 50
180.0
 51
225.0000000000002
  0
LINE
  5
2CD3
  8
0
 10
1164.7106417835971
 20
595.94140246713096
 30
0.0
 11
1164.7106417835971
 21
668.44140246713096
 31
0.0
  0
LINE
  5
2CD4
  8
0
 10
1164.7106417835971
 20
595.94140246713096
 30
0.0
 11
1164.7106417835971
 21
668.44140246713096
 31
0.0
  0
LINE
  5
2CD5
  8
0
 10
1214.957784792304
 20
668.44140246713096
 30
0.0
 11
1214.957784792304
 21
597.44140246713107
 31
0.0
  0
LINE
  5
2CD6
  8
0
 10
1214.957784792304
 20
668.44140246713096
 30
0.0
 11
1214.957784792304
 21
595.94140246713096
 31
0.0
  0
ARC
  5
2CD7
  8
0
 10
1157.7106417835971
 20
595.94140246713096
 30
0.0
 40
7.0
 50
270.0
 51
0.0
  0
LINE
  5
2CD8
  8
0
 10
1140.7106417835971
 20
534.69140246713096
 30
0.0
 11
1190.7106417835971
 21
534.69140246713096
 31
0.0
  0
TEXT
  5
2CDB
  8
0
 10
1123.2396933504599
 20
487.77246599551921
 30
0.0
 40
20.0
  1
20
 41
0.8
 72
     4
 11
1136.1920743028411
 21
497.77246599551921
 31
0.0
  0
LINE
  5
2CDD
  8
0
 10
1090.7106417835971
 20
534.69140246713096
 30
0.0
 11
1140.7106417835971
 21
534.69140246713096
 31
0.0
  0
LINE
  5
2CDF
  8
0
 10
1157.7106417835971
 20
588.94140246713096
 30
0.0
 11
1112.6101367202091
 21
588.94140246713096
 31
0.0
  0
LINE
  5
2CE0
  8
0
 10
1090.7608943152909
 20
607.89114993543672
 30
0.0
 11
1107.660389251902
 21
590.9916549988252
 31
0.0
  0
ARC
  5
2CE1
  8
0
 10
1112.6101367202091
 20
595.94140246713096
 30
0.0
 40
7.0
 50
225.00000000000031
 51
270.0
  0
LINE
  5
2CEE
  8
0
 10
1155.710641783598
 20
587.50031650975643
 30
0.0
 11
1125.710641783598
 21
587.50031650975643
 31
0.0
  0
LINE
  5
2CEF
  8
0
 10
1125.710641783598
 20
587.50031650975643
 30
0.0
 11
1124.3730778750789
 21
588.94140246713096
 31
0.0
  0
LINE
  5
2CF0
  8
0
 10
1155.710641783598
 20
587.50031650975643
 30
0.0
 11
1157.048205692116
 21
588.94140246713096
 31
0.0
  0
ARC
  5
2CF8
  8
0
 10
1221.9577847923031
 20
595.94140246713096
 30
0.0
 40
7.0
 50
180.0
 51
270.0
  0
LINE
  5
2CF9
  8
0
 10
1237.957784792304
 20
587.50031650975643
 30
0.0
 11
1236.6202208837849
 21
588.94140246713096
 31
0.0
  0
ARC
  5
2CFC
  8
0
 10
1157.7106417835971
 20
668.44140246713096
 30
0.0
 40
7.0
 50
0.0
 51
90.0
  0
LINE
  5
2CFD
  8
0
 10
1090.7608943152909
 20
656.4916549988252
 30
0.0
 11
1107.660389251902
 21
673.39114993543672
 31
0.0
  0
LINE
  5
2CFE
  8
0
 10
1088.7106417835971
 20
612.84089740374247
 30
0.0
 11
1088.7106417835971
 21
651.54190753051944
 31
0.0
  0
LINE
  5
2CFF
  8
0
 10
1088.7106417835971
 20
612.84089740374247
 30
0.0
 11
1088.7106417835971
 21
651.54190753051944
 31
0.0
  0
ARC
  5
2D00
  8
0
 10
1095.7106417835971
 20
651.54190753051944
 30
0.0
 40
7.0
 50
134.99999999999969
 51
180.0
  0
LINE
  5
2D02
  8
0
 10
1157.7106417835971
 20
675.44140246713096
 30
0.0
 11
1112.6101367202091
 21
675.44140246713096
 31
0.0
  0
ARC
  5
2D03
  8
0
 10
1112.6101367202091
 20
668.44140246713096
 30
0.0
 40
7.0
 50
90.0
 51
134.99999999999969
  0
LINE
  5
2D06
  8
0
 10
1155.710641783598
 20
676.88248842450639
 30
0.0
 11
1125.710641783598
 21
676.88248842450639
 31
0.0
  0
LINE
  5
2D07
  8
0
 10
1125.710641783598
 20
676.88248842450639
 30
0.0
 11
1124.3730778750789
 21
675.44140246713175
 31
0.0
  0
LINE
  5
2D08
  8
0
 10
1155.710641783598
 20
676.88248842450639
 30
0.0
 11
1157.048205692116
 21
675.44140246713175
 31
0.0
  0
ARC
  5
2D14
  8
0
 10
1221.9577847923031
 20
668.44140246713096
 30
0.0
 40
7.0
 50
90.0
 51
180.0
  0
LINE
  5
2D15
  8
0
 10
1237.957784792304
 20
676.88248842450639
 30
0.0
 11
1236.6202208837849
 21
675.44140246713175
 31
0.0
  0
LINE
  5
2D1C
  8
0
 10
471.21283242548998
 20
729.69140246713175
 30
0.0
 11
518.71283242548986
 21
729.69140246713175
 31
0.0
  0
LINE
  5
2D1D
  8
0
 10
410.42106459702512
 20
729.69140246713175
 30
0.0
 11
457.92106459702518
 21
729.69140246713175
 31
0.0
  0
LINE
  5
2D1E
  8
0
 10
418.5357218294987
 20
762.30670255910309
 30
0.0
 11
418.5357218294987
 21
748.33251505910255
 31
0.0
  0
LINE
  5
2D1F
  8
0
 10
413.80903432949879
 20
738.67326505910341
 30
0.0
 11
413.80903432949879
 21
785.94182755910367
 31
0.0
  0
LINE
  5
2D20
  8
0
 10
418.5357218294987
 20
748.33251505910255
 30
0.0
 11
423.2624093294985
 21
748.33251505910255
 31
0.0
  0
LINE
  5
2D21
  8
0
 10
423.2624093294985
 20
748.33251505910255
 30
0.0
 11
413.80903432949879
 21
738.67326505910341
 31
0.0
  0
LINE
  5
2D22
  8
0
 10
413.80903432949879
 20
785.94182755910367
 30
0.0
 11
423.2624093294985
 21
795.39520255910338
 31
0.0
  0
LINE
  5
2D23
  8
0
 10
423.2624093294985
 20
795.39520255910338
 30
0.0
 11
423.2624093294985
 21
767.03507755910323
 31
0.0
  0
LINE
  5
2D24
  8
0
 10
423.2624093294985
 20
767.03507755910323
 30
0.0
 11
418.5357218294987
 21
762.30670255910309
 31
0.0
  0
LINE
  5
2D25
  8
0
 10
518.71283242548986
 20
729.69140246713175
 30
0.0
 11
566.21283242548998
 21
729.69140246713175
 31
0.0
  0
LINE
  5
2D27
  8
0
 10
457.15877520168391
 20
1071.961594668277
 30
0.0
 11
441.13795992151239
 21
1087.9824099484481
 31
0.0
  0
ARC
  5
2D28
  8
0
 10
451.14836756159809
 20
1029.9928175885341
 30
0.0
 40
8.5
 50
314.99999999999892
 51
0.0
  0
LINE
  5
2D29
  8
0
 10
457.15877520168391
 20
1023.982409948448
 30
0.0
 11
441.13795992151239
 21
1007.9615946682781
 31
0.0
  0
POLYLINE
  5
2D30
  8
0
 66
     1
 10
0.0
 20
0.0
 30
0.0
  0
VERTEX
  5
341D
  8
0
 10
423.47452567775861
 20
1005.472002308364
 30
0.0
  0
VERTEX
  5
341E
  8
0
 10
422.64836756159912
 20
1004.5042977805271
 30
0.0
  0
SEQEND
  5
341F
  8
0
  0
ARC
  5
2D31
  8
0
 10
435.12755228142657
 20
1013.972002308364
 30
0.0
 40
8.5
 50
269.99999999999937
 51
314.99999999999892
  0
LINE
  5
2D32
  8
0
 10
459.64836756159809
 20
1065.951187028191
 30
0.0
 11
459.64836756159809
 21
1029.9928175885341
 31
0.0
  0
ARC
  5
2D33
  8
0
 10
451.14836756159809
 20
1065.951187028191
 30
0.0
 40
8.5
 50
0.0
 51
44.999999999999829
  0
POLYLINE
  5
2D37
  8
0
 66
     1
 10
0.0
 20
0.0
 30
0.0
  0
VERTEX
  5
3420
  8
0
 10
423.47452567775861
 20
1090.4720023083621
 30
0.0
  0
VERTEX
  5
3421
  8
0
 10
422.64836756159912
 20
1091.439706836198
 30
0.0
  0
SEQEND
  5
3422
  8
0
  0
ARC
  5
2D38
  8
0
 10
435.12755228142657
 20
1081.9720023083621
 30
0.0
 40
8.5
 50
45.000000000000021
 51
90.0
  0
LINE
  5
2D3F
  8
0
 10
960.66064663601355
 20
729.69140246713198
 30
0.0
 11
1010.660646636013
 21
729.69140246713198
 31
0.0
  0
LINE
  5
2D40
  8
0
 10
1010.660646636013
 20
729.69140246713198
 30
0.0
 11
1060.6606466360131
 21
729.69140246713198
 31
0.0
  0
LINE
  5
2D44
  8
0
 10
1140.7106417835971
 20
729.69140246713175
 30
0.0
 11
1190.7106417835971
 21
729.69140246713175
 31
0.0
  0
LINE
  5
2D45
  8
0
 10
1090.7106417835971
 20
729.69140246713175
 30
0.0
 11
1140.7106417835971
 21
729.69140246713175
 31
0.0
  0
LINE
  5
2D46
  8
0
 10
1138.6929664913901
 20
761.05093122588232
 30
0.0
 11
1138.6929664913901
 21
747.07674372588178
 31
0.0
  0
LINE
  5
2D47
  8
0
 10
1133.96627899139
 20
737.41749372588265
 30
0.0
 11
1133.96627899139
 21
784.68605622588302
 31
0.0
  0
LINE
  5
2D48
  8
0
 10
1138.6929664913901
 20
747.07674372588178
 30
0.0
 11
1143.4196539913889
 21
747.07674372588178
 31
0.0
  0
LINE
  5
2D49
  8
0
 10
1143.4196539913889
 20
747.07674372588178
 30
0.0
 11
1133.96627899139
 21
737.41749372588265
 31
0.0
  0
LINE
  5
2D4A
  8
0
 10
1133.96627899139
 20
784.68605622588302
 30
0.0
 11
1143.4196539913889
 21
794.13943122588262
 31
0.0
  0
LINE
  5
2D4B
  8
0
 10
1143.4196539913889
 20
765.77930622588235
 30
0.0
 11
1138.6929664913901
 21
761.05093122588232
 31
0.0
  0
LINE
  5
2D4C
  8
0
 10
1143.4196539913889
 20
794.13943122588262
 30
0.0
 11
1143.4196539913889
 21
765.77930622588235
 31
0.0
  0
LINE
  5
2D4D
  8
0
 10
1137.937944748171
 20
959.86717814472286
 30
0.0
 11
1187.937944748171
 21
959.86717814472286
 31
0.0
  0
LINE
  5
2D51
  8
0
 10
1087.9379447481699
 20
959.86717814472286
 30
0.0
 11
1137.937944748171
 21
959.86717814472286
 31
0.0
  0
LINE
  5
2D52
  8
0
 10
1187.145059445997
 20
1081.6674306764171
 30
0.0
 11
1170.245564509386
 21
1098.5669256130279
 31
0.0
  0
LINE
  5
2D53
  8
0
 10
1113.1953119776899
 20
1021.117178144723
 30
0.0
 11
1113.1953119776899
 21
1093.6171781447231
 31
0.0
  0
LINE
  5
2D54
  8
0
 10
1113.1953119776899
 20
1021.117178144723
 30
0.0
 11
1113.1953119776899
 21
1093.6171781447231
 31
0.0
  0
LINE
  5
2D55
  8
0
 10
1120.1953119776911
 20
1014.117178144723
 30
0.0
 11
1166.2958170410791
 21
1014.117178144723
 31
0.0
  0
ARC
  5
2D58
  8
0
 10
1120.1953119776911
 20
1021.117178144723
 30
0.0
 40
7.0
 50
180.0
 51
270.0
  0
LINE
  5
2D69
  8
0
 10
1187.145059445997
 20
1033.0669256130279
 30
0.0
 11
1170.245564509386
 21
1016.167430676417
 31
0.0
  0
ARC
  5
2D6A
  8
0
 10
1165.2958170410791
 20
1021.117178144723
 30
0.0
 40
7.0
 50
270.0
 51
314.99999999999972
  0
LINE
  5
2D6B
  8
0
 10
1189.1953119776911
 20
1038.0166730813339
 30
0.0
 11
1189.1953119776911
 21
1076.7176832081111
 31
0.0
  0
LINE
  5
2D6C
  8
0
 10
1189.1953119776911
 20
1038.0166730813339
 30
0.0
 11
1189.1953119776911
 21
1076.7176832081111
 31
0.0
  0
ARC
  5
2D6D
  8
0
 10
1182.1953119776911
 20
1038.0166730813339
 30
0.0
 40
7.0
 50
314.99999999999977
 51
0.0
  0
ARC
  5
2D6E
  8
0
 10
1182.1953119776911
 20
1076.7176832081111
 30
0.0
 40
7.0
 50
0.0
 51
45.000000000000227
  0
LINE
  5
2D6F
  8
0
 10
1137.937944748171
 20
1154.867178144724
 30
0.0
 11
1187.937944748171
 21
1154.867178144724
 31
0.0
  0
LINE
  5
2D72
  8
0
 10
1120.1953119776911
 20
1100.6171781447231
 30
0.0
 11
1165.2958170410791
 21
1100.6171781447231
 31
0.0
  0
ARC
  5
2D75
  8
0
 10
1120.1953119776911
 20
1093.6171781447231
 30
0.0
 40
7.0
 50
90.0
 51
180.0
  0
LINE
  5
2D85
  8
0
 10
1087.9379447481699
 20
1154.867178144724
 30
0.0
 11
1137.937944748171
 21
1154.867178144724
 31
0.0
  0
ARC
  5
2D87
  8
0
 10
1165.2958170410791
 20
1093.6171781447231
 30
0.0
 40
7.0
 50
45.000000000000313
 51
90.0
  0
LINE
  5
2F12
  8
0
 10
1969.669037606209
 20
727.69056032944764
 30
0.0
 11
2094.6690376062088
 21
727.69056032944764
 31
0.0
  0
LINE
  5
2F15
  8
0
 10
1969.669037606209
 20
512.69056032944786
 30
0.0
 11
2094.6690376062088
 21
512.69056032944786
 31
0.0
  0
ARC
  5
2F1D
  8
0
 10
1749.1885062753749
 20
647.75854523579915
 30
0.0
 40
11.5
 50
0.0
 51
63.789730535871414
  0
ARC
  5
2F1E
  8
0
 10
1749.1885062753749
 20
592.62257542309612
 30
0.0
 40
11.5
 50
296.21026946412837
 51
0.0
  0
LINE
  5
2F20
  8
0
 10
1660.188506275374
 20
512.69056032944764
 30
0.0
 11
1722.688506275374
 21
512.69056032944764
 31
0.0
  0
LINE
  5
2F21
  8
0
 10
1290.9577847923031
 20
668.44140246713096
 30
0.0
 11
1290.9577847923031
 21
597.44140246713107
 31
0.0
  0
LINE
  5
2F22
  8
0
 10
1290.9577847923031
 20
668.44140246713096
 30
0.0
 11
1290.9577847923031
 21
595.94140246713096
 31
0.0
  0
LINE
  5
2F24
  8
0
 10
1252.957784792304
 20
534.69140246713096
 30
0.0
 11
1302.957784792304
 21
534.69140246713096
 31
0.0
  0
LINE
  5
2F2A
  8
0
 10
1267.957784792304
 20
587.50031650975643
 30
0.0
 11
1269.2953487008219
 21
588.94140246713096
 31
0.0
  0
ARC
  5
2F2B
  8
0
 10
1283.957784792304
 20
595.94140246713096
 30
0.0
 40
7.0
 50
270.0
 51
0.0
  0
LINE
  5
2F2D
  8
0
 10
1267.957784792304
 20
676.88248842450639
 30
0.0
 11
1269.2953487008219
 21
675.44140246713175
 31
0.0
  0
ARC
  5
2F32
  8
0
 10
1283.957784792304
 20
668.44140246713096
 30
0.0
 40
7.0
 50
0.0
 51
90.0
  0
LINE
  5
2F33
  8
0
 10
1760.6885062753749
 20
592.62257542309624
 30
0.0
 11
1760.6885062753749
 21
647.75854523579915
 31
0.0
  0
LINE
  5
2F34
  8
0
 10
1684.6885062753749
 20
592.62257542309624
 30
0.0
 11
1684.6885062753749
 21
647.75854523579915
 31
0.0
  0
LINE
  5
2F35
  8
0
 10
1660.188506275374
 20
512.69056032944764
 30
0.0
 11
1722.688506275374
 21
512.69056032944764
 31
0.0
  0
LINE
  5
2F3C
  8
0
 10
1705.94858299769
 20
576.94056032944798
 30
0.0
 11
1739.4284295530611
 21
576.94056032944798
 31
0.0
  0
LINE
  5
2F3D
  8
0
 10
1739.688506275374
 20
574.03401767731134
 30
0.0
 11
1705.6885062753749
 21
574.03401767731134
 31
0.0
  0
ARC
  5
2F3E
  8
0
 10
1722.6885062753749
 20
646.45332871524317
 30
0.0
 40
71.499999999999886
 50
243.78973053582359
 51
256.45996158058182
  0
ARC
  5
2F3F
  8
0
 10
1711.0999982825899
 20
580.55795210733936
 30
0.0
 40
8.4761999853395515
 50
205.26277939916031
 51
230.32487410341841
  0
ARC
  5
2F40
  8
0
 10
1696.1885062753749
 20
592.62257542309612
 30
0.0
 40
11.5
 50
180.0
 51
243.7897305358714
  0
ARC
  5
2F41
  8
0
 10
1722.6885062753749
 20
646.45332871524317
 30
0.0
 40
71.499999999999886
 50
283.54003841941812
 51
296.21026946417612
  0
ARC
  5
2F42
  8
0
 10
1734.2770142681579
 20
580.55795210733936
 30
0.0
 40
8.4761999853395515
 50
309.67512589658151
 51
337.99715485440748
  0
ARC
  5
2F43
  8
0
 10
1734.2770142681579
 20
659.82316855155591
 30
0.0
 40
8.4761999853395515
 50
22.002845145592509
 51
50.324874103418431
  0
ARC
  5
2F44
  8
0
 10
1711.0999982825899
 20
659.82316855155591
 30
0.0
 40
8.4761999853395515
 50
129.67512589658159
 51
154.73722060083969
  0
LINE
  5
2F45
  8
0
 10
1705.9485829976879
 20
663.44056032944718
 30
0.0
 11
1739.4284295530611
 21
663.44056032944764
 31
0.0
  0
ARC
  5
2F46
  8
0
 10
1722.6885062753749
 20
593.92779194365255
 30
0.0
 40
71.499999999999886
 50
103.5400384194197
 51
116.21026946417641
  0
ARC
  5
2F47
  8
0
 10
1696.1885062753749
 20
647.75854523579915
 30
0.0
 40
11.5
 50
116.2102694641288
 51
180.0
  0
ARC
  5
2F48
  8
0
 10
1722.6885062753749
 20
593.92779194365255
 30
0.0
 40
71.499999999999886
 50
63.789730535823622
 51
76.459961580581776
  0
LINE
  5
2F4A
  8
0
 10
1739.688506275374
 20
666.3471029815837
 30
0.0
 11
1705.6885062753749
 21
666.3471029815837
 31
0.0
  0
TEXT
  5
2F4F
  8
0
 10
1858.5608523219089
 20
468.8108190219636
 30
0.0
 40
20.0
  1
25
 41
0.8
 72
     4
 11
1871.5132332742901
 21
478.8108190219636
 31
0.0
  0
LINE
  5
2F50
  8
0
 10
1878.8828427164681
 20
512.69056032944786
 30
0.0
 11
1941.3828427164681
 21
512.69056032944786
 31
0.0
  0
LINE
  5
2F53
  8
0
 10
1902.8828427164681
 20
656.44056032944764
 30
0.0
 11
1902.8828427164681
 21
583.94056032944809
 31
0.0
  0
LINE
  5
2F54
  8
0
 10
1902.8828427164681
 20
656.44056032944764
 30
0.0
 11
1902.8828427164681
 21
583.94056032944809
 31
0.0
  0
LINE
  5
2F55
  8
0
 10
1826.8828427164681
 20
639.54106539283634
 30
0.0
 11
1826.8828427164681
 21
600.84005526605927
 31
0.0
  0
LINE
  5
2F56
  8
0
 10
1826.8828427164681
 20
639.54106539283634
 30
0.0
 11
1826.8828427164681
 21
600.84005526605927
 31
0.0
  0
LINE
  5
2F57
  8
0
 10
1828.9330952481621
 20
595.89030779775339
 30
0.0
 11
1845.8325901847741
 21
578.99081286114176
 31
0.0
  0
LINE
  5
2F58
  8
0
 10
1816.3828427164681
 20
512.69056032944786
 30
0.0
 11
1878.8828427164681
 21
512.69056032944786
 31
0.0
  0
ARC
  5
2F5B
  8
0
 10
1833.8828427164681
 20
600.84005526605927
 30
0.0
 40
7.0
 50
180.0
 51
225.0000000000002
  0
LINE
  5
2F61
  8
0
 10
1895.8828427164681
 20
576.94056032944798
 30
0.0
 11
1849.7823376530789
 21
576.94056032944786
 31
0.0
  0
LINE
  5
2F62
  8
0
 10
1895.8828427164681
 20
574.03401767731145
 30
0.0
 11
1861.8828427164681
 21
574.03401767731145
 31
0.0
  0
ARC
  5
2F63
  8
0
 10
1850.78233765308
 20
583.94056032944775
 30
0.0
 40
7.0
 50
225.00000000000031
 51
270.0
  0
ARC
  5
2F64
  8
0
 10
1867.294334723684
 20
580.55795210733947
 30
0.0
 40
8.4761999853395515
 50
205.26277939916031
 51
230.32487410341841
  0
ARC
  5
2F65
  8
0
 10
1895.8828427164681
 20
583.94056032944809
 30
0.0
 40
7.0
 50
270.0
 51
0.0
  0
ARC
  5
2F66
  8
0
 10
1890.471350709252
 20
580.55795210733947
 30
0.0
 40
8.4761999853395515
 50
309.67512589658151
 51
337.99715485440748
  0
LINE
  5
2F67
  8
0
 10
1828.9330952481621
 20
644.49081286114233
 30
0.0
 11
1845.8325901847741
 21
661.39030779775385
 31
0.0
  0
ARC
  5
2F68
  8
0
 10
1833.8828427164681
 20
639.54106539283634
 30
0.0
 40
7.0
 50
134.99999999999969
 51
180.0
  0
ARC
  5
2F69
  8
0
 10
1890.471350709252
 20
659.82316855155614
 30
0.0
 40
8.4761999853395515
 50
22.002845145592509
 51
50.324874103418431
  0
ARC
  5
2F6A
  8
0
 10
1867.294334723684
 20
659.82316855155614
 30
0.0
 40
8.4761999853395515
 50
129.67512589658159
 51
154.73722060083969
  0
LINE
  5
2F6B
  8
0
 10
1895.8828427164681
 20
663.44056032944764
 30
0.0
 11
1849.7823376530789
 21
663.44056032944775
 31
0.0
  0
LINE
  5
2F6C
  8
0
 10
1895.8828427164681
 20
663.44056032944775
 30
0.0
 11
1849.7823376530789
 21
663.44056032944775
 31
0.0
  0
ARC
  5
2F6D
  8
0
 10
1850.78233765308
 20
656.44056032944786
 30
0.0
 40
7.0
 50
90.0
 51
134.99999999999969
  0
ARC
  5
2F6E
  8
0
 10
1895.8828427164681
 20
656.44056032944764
 30
0.0
 40
7.0
 50
0.0
 51
90.0
  0
LINE
  5
2F70
  8
0
 10
1895.8828427164681
 20
666.34710298158393
 30
0.0
 11
1861.8828427164681
 21
666.34710298158393
 31
0.0
  0
LINE
  5
2F75
  8
0
 10
2070.1690376062088
 20
656.44056032944752
 30
0.0
 11
2070.1690376062102
 21
583.94056032944809
 31
0.0
  0
LINE
  5
2F76
  8
0
 10
2070.1690376062088
 20
655.56636866163478
 30
0.0
 11
2070.1690376062088
 21
584.56636866163512
 31
0.0
  0
LINE
  5
2F77
  8
0
 10
1994.169037606209
 20
656.44056032944752
 30
0.0
 11
1994.169037606209
 21
583.94056032944809
 31
0.0
  0
LINE
  5
2F78
  8
0
 10
1994.169037606209
 20
655.56636866163478
 30
0.0
 11
1994.169037606209
 21
584.56636866163512
 31
0.0
  0
LINE
  5
2F79
  8
0
 10
2063.1690376062088
 20
576.94056032944798
 30
0.0
 11
2001.169037606209
 21
576.94056032944798
 31
0.0
  0
LINE
  5
2F7A
  8
0
 10
1969.669037606209
 20
512.69056032944786
 30
0.0
 11
2032.169037606209
 21
512.69056032944786
 31
0.0
  0
ARC
  5
2F7D
  8
0
 10
2001.169037606209
 20
583.94056032944809
 30
0.0
 40
7.0
 50
180.0
 51
270.0
  0
LINE
  5
2F83
  8
0
 10
2049.1690376062088
 20
574.03401767731145
 30
0.0
 11
2015.169037606209
 21
574.03401767731145
 31
0.0
  0
ARC
  5
2F84
  8
0
 10
2020.5805296134249
 20
580.55795210733947
 30
0.0
 40
8.4761999853395515
 50
205.26277939916031
 51
230.32487410341841
  0
ARC
  5
2F85
  8
0
 10
2063.1690376062088
 20
583.94056032944809
 30
0.0
 40
7.0
 50
270.0
 51
0.0
  0
ARC
  5
2F86
  8
0
 10
2043.757545598992
 20
580.55795210733947
 30
0.0
 40
8.4761999853395515
 50
309.67512589658151
 51
337.99715485440748
  0
LINE
  5
2F87
  8
0
 10
2063.1690376062088
 20
663.44056032944741
 30
0.0
 11
2001.169037606209
 21
663.44056032944775
 31
0.0
  0
ARC
  5
2F88
  8
0
 10
2001.169037606209
 20
656.44056032944752
 30
0.0
 40
7.0
 50
90.0
 51
180.0
  0
ARC
  5
2F89
  8
0
 10
2043.757545598992
 20
659.82316855155614
 30
0.0
 40
8.4761999853395515
 50
22.002845145592509
 51
50.324874103418431
  0
ARC
  5
2F8A
  8
0
 10
2020.5805296134249
 20
659.82316855155614
 30
0.0
 40
8.4761999853395515
 50
129.67512589658159
 51
154.73722060083969
  0
ARC
  5
2F8B
  8
0
 10
2063.1690376062088
 20
656.44056032944752
 30
0.0
 40
7.0
 50
0.0
 51
90.0
  0
LINE
  5
2F8D
  8
0
 10
2049.1690376062088
 20
666.34710298158393
 30
0.0
 11
2015.169037606209
 21
666.34710298158393
 31
0.0
  0
LINE
  5
2F92
  8
0
 10
1660.188506275374
 20
727.69056032944741
 30
0.0
 11
1722.688506275374
 21
727.69056032944741
 31
0.0
  0
LINE
  5
2F93
  8
0
 10
1252.957784792304
 20
729.69140246713175
 30
0.0
 11
1302.957784792304
 21
729.69140246713175
 31
0.0
  0
LINE
  5
2F94
  8
0
 10
1660.188506275374
 20
727.69056032944741
 30
0.0
 11
1722.688506275374
 21
727.69056032944741
 31
0.0
  0
CIRCLE
  5
2F95
  8
0
 10
1876.1101456810411
 20
873.01954156726867
 30
0.0
 40
62.5
  0
LINE
  5
2F96
  8
0
 10
1816.3828427164681
 20
727.69056032944764
 30
0.0
 11
1878.8828427164681
 21
727.69056032944764
 31
0.0
  0
CIRCLE
  5
2F97
  8
0
 10
1844.2903405276461
 20
841.19973641387412
 30
0.0
 40
9.5
  0
LINE
  5
2F98
  8
0
 10
1816.3828427164681
 20
727.69056032944764
 30
0.0
 11
1878.8828427164681
 21
727.69056032944764
 31
0.0
  0
LINE
  5
2F99
  8
0
 10
1880.3864582592739
 20
782.68521408819879
 30
0.0
 11
1889.839833259274
 21
792.13858908819839
 31
0.0
  0
LINE
  5
2F9A
  8
0
 10
1889.839833259274
 20
745.07590158819767
 30
0.0
 11
1880.3864582592739
 21
735.41665158819842
 31
0.0
  0
LINE
  5
2F9B
  8
0
 10
1880.3864582592739
 20
735.41665158819842
 30
0.0
 11
1880.3864582592739
 21
782.68521408819879
 31
0.0
  0
LINE
  5
2F9C
  8
0
 10
1889.839833259274
 20
763.77846408819823
 30
0.0
 11
1885.1131457592739
 21
759.05008908819809
 31
0.0
  0
LINE
  5
2F9D
  8
0
 10
1885.1131457592739
 20
745.07590158819767
 30
0.0
 11
1889.839833259274
 21
745.07590158819767
 31
0.0
  0
LINE
  5
2F9E
  8
0
 10
1885.1131457592739
 20
759.05008908819809
 30
0.0
 11
1885.1131457592739
 21
745.07590158819767
 31
0.0
  0
LINE
  5
2F9F
  8
0
 10
1889.839833259274
 20
792.13858908819839
 30
0.0
 11
1889.839833259274
 21
763.77846408819823
 31
0.0
  0
CIRCLE
  5
2FA0
  8
0
 10
1907.929950834435
 20
841.19973641387412
 30
0.0
 40
9.5
  0
CIRCLE
  5
2FA1
  8
0
 10
1844.2903405276461
 20
904.83934672066334
 30
0.0
 40
9.5
  0
CIRCLE
  5
2FA2
  8
0
 10
1907.929950834435
 20
904.83934672066334
 30
0.0
 40
9.5
  0
LINE
  5
2FA4
  8
0
 10
1969.669037606209
 20
727.69056032944764
 30
0.0
 11
2032.169037606209
 21
727.69056032944764
 31
0.0
  0
LINE
  5
2FA5
  8
0
 10
1938.6101456810411
 20
1188.8859908123311
 30
0.0
 11
1876.1101456810411
 21
1188.8859908123311
 31
0.0
  0
LINE
  5
2FA6
  8
0
 10
1938.6101456810411
 20
1188.8859908123311
 30
0.0
 11
1876.1101456810411
 21
1188.8859908123311
 31
0.0
  0
LINE
  5
2FA8
  8
0
 10
1926.059893149348
 20
1057.0857382806371
 30
0.0
 11
1909.160398212736
 21
1040.1862433440249
 31
0.0
  0
LINE
  5
2FA9
  8
0
 10
1926.059893149348
 20
1105.686243344026
 30
0.0
 11
1909.160398212736
 21
1122.5857382806371
 31
0.0
  0
LINE
  5
2FAD
  8
0
 10
1852.1101456810411
 20
1117.6359908123311
 30
0.0
 11
1852.1101456810411
 21
1045.135990812332
 31
0.0
  0
LINE
  5
2FAE
  8
0
 10
1852.1101456810411
 20
1117.6359908123311
 30
0.0
 11
1852.1101456810411
 21
1045.135990812332
 31
0.0
  0
LINE
  5
2FB5
  8
0
 10
1859.1101456810411
 20
1038.135990812332
 30
0.0
 11
1905.21065074443
 21
1038.1359908123311
 31
0.0
  0
LINE
  5
2FB6
  8
0
 10
1859.1101456810411
 20
1035.229448160195
 30
0.0
 11
1893.1101456810411
 21
1035.229448160195
 31
0.0
  0
ARC
  5
2FB7
  8
0
 10
1859.1101456810411
 20
1045.135990812332
 30
0.0
 40
7.0
 50
180.0
 51
270.0
  0
ARC
  5
2FB8
  8
0
 10
1864.5216376882579
 20
1041.7533825902231
 30
0.0
 40
8.4761999853395515
 50
202.0028451455895
 51
230.32487410341841
  0
ARC
  5
2FB9
  8
0
 10
1887.698653673825
 20
1041.7533825902231
 30
0.0
 40
8.4761999853395515
 50
309.67512589658151
 51
334.73722060084339
  0
ARC
  5
2FBA
  8
0
 10
1904.2106507444289
 20
1045.1359908123311
 30
0.0
 40
7.0
 50
270.0
 51
314.99999999999972
  0
LINE
  5
2FBE
  8
0
 10
1859.1101456810411
 20
1127.5425334644669
 30
0.0
 11
1893.1101456810411
 21
1127.5425334644669
 31
0.0
  0
LINE
  5
2FBF
  8
0
 10
1859.1101456810411
 20
1124.6359908123311
 30
0.0
 11
1905.21065074443
 21
1124.6359908123311
 31
0.0
  0
LINE
  5
2FC0
  8
0
 10
1859.1101456810411
 20
1124.6359908123311
 30
0.0
 11
1905.21065074443
 21
1124.6359908123311
 31
0.0
  0
ARC
  5
2FC1
  8
0
 10
1864.5216376882579
 20
1121.0185990344401
 30
0.0
 40
8.4761999853395515
 50
129.67512589658151
 51
157.9971548544105
  0
ARC
  5
2FC2
  8
0
 10
1859.1101456810411
 20
1117.6359908123311
 30
0.0
 40
7.0
 50
90.0
 51
180.0
  0
ARC
  5
2FC3
  8
0
 10
1887.698653673825
 20
1121.0185990344401
 30
0.0
 40
8.4761999853395515
 50
25.262779399156589
 51
50.324874103418423
  0
ARC
  5
2FC4
  8
0
 10
1904.2106507444289
 20
1117.6359908123311
 30
0.0
 40
7.0
 50
45.000000000000313
 51
90.0
  0
LINE
  5
2FC8
  8
0
 10
1928.1101456810411
 20
1100.73649587572
 30
0.0
 11
1928.1101456810411
 21
1062.0354857489431
 31
0.0
  0
LINE
  5
2FC9
  8
0
 10
1928.1101456810411
 20
1100.73649587572
 30
0.0
 11
1928.1101456810411
 21
1062.0354857489431
 31
0.0
  0
ARC
  5
2FCB
  8
0
 10
1921.1101456810411
 20
1062.0354857489431
 30
0.0
 40
7.0
 50
314.99999999999977
 51
0.0
  0
ARC
  5
2FCC
  8
0
 10
1921.1101456810411
 20
1100.73649587572
 30
0.0
 40
7.0
 50
0.0
 51
45.000000000000227
  0
LINE
  5
31AC
  8
0
 10
529.56283242549
 20
707.69140246713175
 30
0.0
 11
534.51195657949336
 21
714.12928754551035
 31
0.0
  0
LINE
  5
31AD
  8
0
 10
471.21283242548998
 20
715.69140246713175
 30
0.0
 11
566.21283242548998
 21
715.69140246713175
 31
0.0
  0
LINE
  5
31AE
  8
0
 10
533.71283242548998
 20
695.69140246713175
 30
0.0
 11
529.56283242549
 21
699.84140246713173
 31
0.0
  0
LINE
  5
31B0
  8
0
 10
503.71283242548998
 20
695.69140246713175
 30
0.0
 11
533.71283242548998
 21
695.69140246713175
 31
0.0
  0
LINE
  5
31B1
  8
0
 10
533.71283242548998
 20
695.69140246713175
 30
0.0
 11
533.71283242548998
 21
685.65910699496862
 31
0.0
  0
LINE
  5
31B2
  8
0
 10
507.86283242549001
 20
699.84140246713196
 30
0.0
 11
529.56283242549
 21
699.84140246713196
 31
0.0
  0
LINE
  5
31B3
  8
0
 10
507.8628324254899
 20
707.69140246713175
 30
0.0
 11
529.56283242549
 21
707.69140246713175
 31
0.0
  0
LINE
  5
31B4
  8
0
 10
529.56283242549
 20
707.69140246713175
 30
0.0
 11
529.56283242549
 21
699.84140246713196
 31
0.0
  0
LINE
  5
31B5
  8
0
 10
566.21283242548998
 20
729.69140246713175
 30
0.0
 11
566.21283242548998
 21
715.69140246713175
 31
0.0
  0
ARC
  5
31B6
  8
0
 10
537.68318920177455
 20
711.69140246713175
 30
0.0
 40
4.0
 50
90.0
 51
142.4487178738224
  0
LINE
  5
31B7
  8
0
 10
471.21283242548998
 20
729.69140246713175
 30
0.0
 11
471.21283242548998
 21
715.69140246713175
 31
0.0
  0
LINE
  5
31B8
  8
0
 10
503.71283242548998
 20
695.69140246713175
 30
0.0
 11
507.86283242549001
 21
699.84140246713196
 31
0.0
  0
LINE
  5
31B9
  8
0
 10
503.71283242548998
 20
695.69140246713175
 30
0.0
 11
503.71283242548992
 21
685.65910699496953
 31
0.0
  0
ARC
  5
31BA
  8
0
 10
499.74247564920557
 20
711.69140246713175
 30
0.0
 40
4.0
 50
37.551282126177547
 51
90.0
  0
LINE
  5
31BB
  8
0
 10
507.8628324254899
 20
707.69140246713175
 30
0.0
 11
507.8628324254899
 21
699.84140246713196
 31
0.0
  0
LINE
  5
31BC
  8
0
 10
507.8628324254899
 20
707.69140246713175
 30
0.0
 11
502.91370827148643
 21
714.12928754551035
 31
0.0
  0
LINE
  5
31BD
  8
0
 10
471.21283242548998
 20
568.69140246713187
 30
0.0
 11
566.21283242548998
 21
568.69140246713187
 31
0.0
  0
LINE
  5
31BE
  8
0
 10
471.21283242548998
 20
554.69140246713175
 30
0.0
 11
471.21283242548998
 21
568.69140246713187
 31
0.0
  0
LINE
  5
31BF
  8
0
 10
507.8628324254899
 20
576.69140246713187
 30
0.0
 11
502.91370827148643
 21
570.25351738875327
 31
0.0
  0
LINE
  5
31C0
  8
0
 10
529.56283242549
 20
576.69140246713187
 30
0.0
 11
534.51195657949336
 21
570.25351738875327
 31
0.0
  0
LINE
  5
31C1
  8
0
 10
507.8628324254899
 20
576.69140246713187
 30
0.0
 11
529.56283242549
 21
576.69140246713187
 31
0.0
  0
LINE
  5
31C2
  8
0
 10
507.86283242549001
 20
584.54140246713177
 30
0.0
 11
529.56283242549
 21
584.54140246713177
 31
0.0
  0
LINE
  5
31C3
  8
0
 10
503.71283242548998
 20
588.69140246713187
 30
0.0
 11
533.71283242548998
 21
588.69140246713187
 31
0.0
  0
LINE
  5
31C4
  8
0
 10
503.71283242548998
 20
588.69140246713187
 30
0.0
 11
503.71283242548992
 21
598.7236979392942
 31
0.0
  0
LINE
  5
31C5
  8
0
 10
507.8628324254899
 20
576.69140246713187
 30
0.0
 11
507.8628324254899
 21
584.54140246713177
 31
0.0
  0
LINE
  5
31C6
  8
0
 10
503.71283242548998
 20
588.69140246713187
 30
0.0
 11
507.86283242549001
 21
584.54140246713177
 31
0.0
  0
LINE
  5
31C7
  8
0
 10
533.71283242548998
 20
588.69140246713187
 30
0.0
 11
533.71283242548998
 21
598.72369793929499
 31
0.0
  0
LINE
  5
31C8
  8
0
 10
529.56283242549
 20
576.69140246713187
 30
0.0
 11
529.56283242549
 21
584.54140246713177
 31
0.0
  0
LINE
  5
31C9
  8
0
 10
533.71283242548998
 20
588.69140246713187
 30
0.0
 11
529.56283242549
 21
584.54140246713189
 31
0.0
  0
ARC
  5
31CA
  8
0
 10
499.74247564920557
 20
572.69140246713187
 30
0.0
 40
4.0
 50
270.0
 51
322.44871787382249
  0
ARC
  5
31CB
  8
0
 10
537.68318920177455
 20
572.69140246713187
 30
0.0
 40
4.0
 50
217.5512821261776
 51
270.0
  0
LINE
  5
31CC
  8
0
 10
566.21283242548998
 20
554.69140246713175
 30
0.0
 11
566.21283242548998
 21
568.69140246713187
 31
0.0
  0
LINE
  5
31CD
  8
0
 10
362.92106459702518
 20
715.69140246713175
 30
0.0
 11
457.92106459702518
 21
715.69140246713175
 31
0.0
  0
LINE
  5
31CE
  8
0
 10
362.92106459702518
 20
729.69140246713175
 30
0.0
 11
362.92106459702518
 21
715.69140246713175
 31
0.0
  0
LINE
  5
31CF
  8
0
 10
399.57106459702521
 20
707.69140246713175
 30
0.0
 11
394.62194044302169
 21
714.12928754551035
 31
0.0
  0
LINE
  5
31D0
  8
0
 10
421.27106459702509
 20
707.69140246713175
 30
0.0
 11
426.22018875102862
 21
714.12928754551035
 31
0.0
  0
LINE
  5
31D1
  8
0
 10
399.57106459702521
 20
707.69140246713175
 30
0.0
 11
421.27106459702509
 21
707.69140246713175
 31
0.0
  0
LINE
  5
31D2
  8
0
 10
399.57106459702533
 20
699.84140246713196
 30
0.0
 11
421.27106459702509
 21
699.84140246713196
 31
0.0
  0
LINE
  5
31D3
  8
0
 10
395.42106459702518
 20
695.69140246713175
 30
0.0
 11
425.42106459702518
 21
695.69140246713175
 31
0.0
  0
LINE
  5
31D4
  8
0
 10
395.42106459702518
 20
695.69140246713175
 30
0.0
 11
395.42106459702512
 21
685.65910699496953
 31
0.0
  0
LINE
  5
31D5
  8
0
 10
399.57106459702521
 20
707.69140246713175
 30
0.0
 11
399.57106459702521
 21
699.84140246713196
 31
0.0
  0
LINE
  5
31D6
  8
0
 10
395.42106459702518
 20
695.69140246713175
 30
0.0
 11
399.57106459702533
 21
699.84140246713196
 31
0.0
  0
LINE
  5
31D7
  8
0
 10
425.42106459702518
 20
695.69140246713175
 30
0.0
 11
425.42106459702518
 21
685.65910699496862
 31
0.0
  0
LINE
  5
31D8
  8
0
 10
421.27106459702509
 20
707.69140246713175
 30
0.0
 11
421.27106459702509
 21
699.84140246713196
 31
0.0
  0
LINE
  5
31D9
  8
0
 10
425.42106459702518
 20
695.69140246713175
 30
0.0
 11
421.27106459702509
 21
699.84140246713173
 31
0.0
  0
ARC
  5
31DA
  8
0
 10
391.45070782074077
 20
711.69140246713175
 30
0.0
 40
4.0
 50
37.551282126177547
 51
90.0
  0
ARC
  5
31DB
  8
0
 10
429.3914213733097
 20
711.69140246713175
 30
0.0
 40
4.0
 50
90.0
 51
142.4487178738224
  0
LINE
  5
31DC
  8
0
 10
457.92106459702518
 20
729.69140246713175
 30
0.0
 11
457.92106459702518
 21
715.69140246713175
 31
0.0
  0
LINE
  5
31DD
  8
0
 10
362.92106459702518
 20
568.69140246713187
 30
0.0
 11
457.92106459702518
 21
568.69140246713187
 31
0.0
  0
LINE
  5
31DE
  8
0
 10
362.92106459702518
 20
554.69140246713175
 30
0.0
 11
362.92106459702518
 21
568.69140246713187
 31
0.0
  0
LINE
  5
31DF
  8
0
 10
421.27106459702509
 20
576.69140246713187
 30
0.0
 11
421.27106459702509
 21
584.54140246713177
 31
0.0
  0
LINE
  5
31E0
  8
0
 10
399.57106459702521
 20
576.69140246713187
 30
0.0
 11
399.57106459702521
 21
584.54140246713177
 31
0.0
  0
LINE
  5
31E1
  8
0
 10
399.57106459702521
 20
576.69140246713187
 30
0.0
 11
421.27106459702509
 21
576.69140246713187
 31
0.0
  0
ARC
  5
31E2
  8
0
 10
391.45070782074077
 20
572.69140246713187
 30
0.0
 40
4.0
 50
270.0
 51
322.44871787382249
  0
LINE
  5
31E3
  8
0
 10
399.57106459702521
 20
576.69140246713187
 30
0.0
 11
394.62194044302169
 21
570.25351738875327
 31
0.0
  0
ARC
  5
31E4
  8
0
 10
429.3914213733097
 20
572.69140246713187
 30
0.0
 40
4.0
 50
217.5512821261776
 51
270.0
  0
LINE
  5
31E5
  8
0
 10
421.27106459702509
 20
576.69140246713187
 30
0.0
 11
426.22018875102862
 21
570.25351738875327
 31
0.0
  0
LINE
  5
31E6
  8
0
 10
395.42106459702518
 20
588.69140246713187
 30
0.0
 11
425.42106459702518
 21
588.69140246713187
 31
0.0
  0
LINE
  5
31E7
  8
0
 10
399.57106459702533
 20
584.54140246713177
 30
0.0
 11
421.27106459702509
 21
584.54140246713177
 31
0.0
  0
LINE
  5
31E8
  8
0
 10
395.42106459702518
 20
588.69140246713187
 30
0.0
 11
399.57106459702533
 21
584.54140246713177
 31
0.0
  0
LINE
  5
31E9
  8
0
 10
395.42106459702518
 20
588.69140246713187
 30
0.0
 11
395.42106459702512
 21
598.7236979392942
 31
0.0
  0
LINE
  5
31EA
  8
0
 10
425.42106459702518
 20
588.69140246713187
 30
0.0
 11
421.27106459702509
 21
584.54140246713189
 31
0.0
  0
LINE
  5
31EB
  8
0
 10
425.42106459702518
 20
588.69140246713187
 30
0.0
 11
425.42106459702518
 21
598.72369793929499
 31
0.0
  0
LINE
  5
31EC
  8
0
 10
457.92106459702518
 20
554.69140246713175
 30
0.0
 11
457.92106459702518
 21
568.69140246713187
 31
0.0
  0
LINE
  5
31ED
  8
0
 10
241.0213734051222
 20
715.69140246713175
 30
0.0
 11
336.02137340512218
 21
715.69140246713175
 31
0.0
  0
LINE
  5
31EE
  8
0
 10
241.0213734051222
 20
729.69140246713175
 30
0.0
 11
241.0213734051222
 21
715.69140246713175
 31
0.0
  0
LINE
  5
31EF
  8
0
 10
277.67137340512221
 20
707.69140246713175
 30
0.0
 11
272.72224925111868
 21
714.12928754551035
 31
0.0
  0
LINE
  5
31F0
  8
0
 10
299.3713734051222
 20
707.69140246713175
 30
0.0
 11
304.32049755912573
 21
714.12928754551035
 31
0.0
  0
LINE
  5
31F1
  8
0
 10
277.67137340512221
 20
707.69140246713175
 30
0.0
 11
299.3713734051222
 21
707.69140246713175
 31
0.0
  0
LINE
  5
31F2
  8
0
 10
277.67137340512232
 20
699.84140246713196
 30
0.0
 11
299.3713734051222
 21
699.84140246713196
 31
0.0
  0
LINE
  5
31F3
  8
0
 10
273.52137340512218
 20
695.69140246713175
 30
0.0
 11
303.52137340512218
 21
695.69140246713175
 31
0.0
  0
LINE
  5
31F4
  8
0
 10
273.52137340512218
 20
695.69140246713175
 30
0.0
 11
273.52137340512212
 21
685.65910699496953
 31
0.0
  0
LINE
  5
31F5
  8
0
 10
277.67137340512221
 20
707.69140246713175
 30
0.0
 11
277.67137340512221
 21
699.84140246713196
 31
0.0
  0
LINE
  5
31F6
  8
0
 10
273.52137340512218
 20
695.69140246713175
 30
0.0
 11
277.67137340512232
 21
699.84140246713196
 31
0.0
  0
LINE
  5
31F7
  8
0
 10
303.52137340512218
 20
695.69140246713175
 30
0.0
 11
303.52137340512218
 21
685.65910699496862
 31
0.0
  0
LINE
  5
31F8
  8
0
 10
299.3713734051222
 20
707.69140246713175
 30
0.0
 11
299.3713734051222
 21
699.84140246713196
 31
0.0
  0
LINE
  5
31F9
  8
0
 10
303.52137340512218
 20
695.69140246713175
 30
0.0
 11
299.3713734051222
 21
699.84140246713173
 31
0.0
  0
ARC
  5
31FA
  8
0
 10
269.55101662883777
 20
711.69140246713175
 30
0.0
 40
4.0
 50
37.551282126177547
 51
90.0
  0
ARC
  5
31FB
  8
0
 10
307.49173018140681
 20
711.69140246713175
 30
0.0
 40
4.0
 50
90.0
 51
142.4487178738224
  0
LINE
  5
31FC
  8
0
 10
336.02137340512218
 20
729.69140246713175
 30
0.0
 11
336.02137340512218
 21
715.69140246713175
 31
0.0
  0
LINE
  5
31FD
  8
0
 10
241.0213734051222
 20
568.69140246713187
 30
0.0
 11
336.02137340512218
 21
568.69140246713187
 31
0.0
  0
LINE
  5
31FE
  8
0
 10
241.0213734051222
 20
554.69140246713175
 30
0.0
 11
241.0213734051222
 21
568.69140246713187
 31
0.0
  0
LINE
  5
31FF
  8
0
 10
299.3713734051222
 20
576.69140246713187
 30
0.0
 11
299.3713734051222
 21
584.54140246713177
 31
0.0
  0
LINE
  5
3200
  8
0
 10
277.67137340512221
 20
576.69140246713187
 30
0.0
 11
277.67137340512221
 21
584.54140246713177
 31
0.0
  0
LINE
  5
3201
  8
0
 10
277.67137340512221
 20
576.69140246713187
 30
0.0
 11
299.3713734051222
 21
576.69140246713187
 31
0.0
  0
ARC
  5
3202
  8
0
 10
269.55101662883777
 20
572.69140246713187
 30
0.0
 40
4.0
 50
270.0
 51
322.44871787382249
  0
LINE
  5
3203
  8
0
 10
277.67137340512221
 20
576.69140246713187
 30
0.0
 11
272.72224925111868
 21
570.25351738875327
 31
0.0
  0
ARC
  5
3204
  8
0
 10
307.49173018140681
 20
572.69140246713187
 30
0.0
 40
4.0
 50
217.5512821261776
 51
270.0
  0
LINE
  5
3205
  8
0
 10
299.3713734051222
 20
576.69140246713187
 30
0.0
 11
304.32049755912573
 21
570.25351738875327
 31
0.0
  0
LINE
  5
3206
  8
0
 10
273.52137340512218
 20
588.69140246713187
 30
0.0
 11
303.52137340512218
 21
588.69140246713187
 31
0.0
  0
LINE
  5
3207
  8
0
 10
277.67137340512232
 20
584.54140246713177
 30
0.0
 11
299.3713734051222
 21
584.54140246713177
 31
0.0
  0
LINE
  5
3208
  8
0
 10
273.52137340512218
 20
588.69140246713187
 30
0.0
 11
277.67137340512232
 21
584.54140246713177
 31
0.0
  0
LINE
  5
3209
  8
0
 10
273.52137340512218
 20
588.69140246713187
 30
0.0
 11
273.52137340512212
 21
598.7236979392942
 31
0.0
  0
LINE
  5
320A
  8
0
 10
303.52137340512218
 20
588.69140246713187
 30
0.0
 11
299.3713734051222
 21
584.54140246713189
 31
0.0
  0
LINE
  5
320B
  8
0
 10
303.52137340512218
 20
588.69140246713187
 30
0.0
 11
303.52137340512218
 21
598.72369793929499
 31
0.0
  0
LINE
  5
320C
  8
0
 10
336.02137340512218
 20
554.69140246713175
 30
0.0
 11
336.02137340512218
 21
568.69140246713187
 31
0.0
  0
LINE
  5
320D
  8
0
 10
360.14836756159821
 20
1121.4720023083621
 30
0.0
 11
455.14836756159809
 21
1121.4720023083621
 31
0.0
  0
LINE
  5
320E
  8
0
 10
392.64836756159821
 20
1101.4720023083621
 30
0.0
 11
396.7983675615983
 21
1105.622002308362
 31
0.0
  0
LINE
  5
320F
  8
0
 10
392.64836756159821
 20
1101.4720023083621
 30
0.0
 11
422.64836756159809
 21
1101.4720023083621
 31
0.0
  0
LINE
  5
3210
  8
0
 10
396.79836756159818
 20
1113.4720023083621
 30
0.0
 11
391.84924340759471
 21
1119.9098873867399
 31
0.0
  0
LINE
  5
3211
  8
0
 10
392.64836756159821
 20
1101.4720023083621
 30
0.0
 11
392.64836756159809
 21
1091.4397068361991
 31
0.0
  0
LINE
  5
3212
  8
0
 10
360.14836756159821
 20
1135.4720023083621
 30
0.0
 11
360.14836756159821
 21
1121.4720023083621
 31
0.0
  0
ARC
  5
3213
  8
0
 10
388.6780107853138
 20
1117.4720023083621
 30
0.0
 40
4.0
 50
37.551282126177547
 51
90.0
  0
LINE
  5
3214
  8
0
 10
418.49836756159817
 20
1113.4720023083621
 30
0.0
 11
423.4474917156017
 21
1119.9098873867399
 31
0.0
  0
LINE
  5
3215
  8
0
 10
422.64836756159809
 20
1101.4720023083621
 30
0.0
 11
418.49836756159817
 21
1105.622002308362
 31
0.0
  0
LINE
  5
3216
  8
0
 10
418.49836756159817
 20
1113.4720023083621
 30
0.0
 11
418.49836756159817
 21
1105.622002308362
 31
0.0
  0
LINE
  5
3217
  8
0
 10
396.79836756159818
 20
1113.4720023083621
 30
0.0
 11
396.79836756159818
 21
1105.622002308362
 31
0.0
  0
LINE
  5
3218
  8
0
 10
396.7983675615983
 20
1105.622002308362
 30
0.0
 11
418.49836756159817
 21
1105.622002308362
 31
0.0
  0
LINE
  5
3219
  8
0
 10
396.79836756159818
 20
1113.4720023083621
 30
0.0
 11
418.49836756159817
 21
1113.4720023083621
 31
0.0
  0
LINE
  5
321A
  8
0
 10
422.64836756159809
 20
1101.4720023083621
 30
0.0
 11
422.64836756159809
 21
1091.439706836198
 31
0.0
  0
ARC
  5
321B
  8
0
 10
426.61872433788272
 20
1117.4720023083621
 30
0.0
 40
4.0
 50
90.0
 51
142.4487178738224
  0
LINE
  5
321C
  8
0
 10
455.14836756159809
 20
1135.4720023083621
 30
0.0
 11
455.14836756159809
 21
1121.4720023083621
 31
0.0
  0
LINE
  5
321D
  8
0
 10
360.14836756159821
 20
974.47200230836188
 30
0.0
 11
455.14836756159809
 21
974.47200230836188
 31
0.0
  0
LINE
  5
321E
  8
0
 10
392.64836756159821
 20
994.47200230836177
 30
0.0
 11
396.7983675615983
 21
990.32200230836168
 31
0.0
  0
LINE
  5
321F
  8
0
 10
392.64836756159821
 20
994.47200230836177
 30
0.0
 11
422.64836756159809
 21
994.47200230836177
 31
0.0
  0
LINE
  5
3220
  8
0
 10
396.79836756159818
 20
982.47200230836188
 30
0.0
 11
391.84924340759471
 21
976.03411722998328
 31
0.0
  0
LINE
  5
3221
  8
0
 10
360.14836756159821
 20
960.47200230836177
 30
0.0
 11
360.14836756159821
 21
974.47200230836188
 31
0.0
  0
ARC
  5
3222
  8
0
 10
388.6780107853138
 20
978.47200230836177
 30
0.0
 40
4.0
 50
270.0
 51
322.44871787382249
  0
LINE
  5
3223
  8
0
 10
392.64836756159821
 20
994.47200230836177
 30
0.0
 11
392.64836756159809
 21
1004.504297780524
 31
0.0
  0
LINE
  5
3224
  8
0
 10
396.79836756159818
 20
982.47200230836188
 30
0.0
 11
396.79836756159818
 21
990.32200230836168
 31
0.0
  0
LINE
  5
3225
  8
0
 10
418.49836756159817
 20
982.47200230836188
 30
0.0
 11
418.49836756159817
 21
990.32200230836168
 31
0.0
  0
LINE
  5
3226
  8
0
 10
418.49836756159817
 20
982.47200230836188
 30
0.0
 11
423.4474917156017
 21
976.03411722998328
 31
0.0
  0
LINE
  5
3227
  8
0
 10
396.79836756159818
 20
982.47200230836188
 30
0.0
 11
418.49836756159817
 21
982.47200230836188
 31
0.0
  0
ARC
  5
3228
  8
0
 10
426.61872433788272
 20
978.47200230836177
 30
0.0
 40
4.0
 50
217.5512821261776
 51
270.0
  0
LINE
  5
3229
  8
0
 10
422.64836756159809
 20
994.47200230836177
 30
0.0
 11
418.49836756159817
 21
990.3220023083619
 31
0.0
  0
LINE
  5
322A
  8
0
 10
396.7983675615983
 20
990.32200230836168
 30
0.0
 11
418.49836756159817
 21
990.32200230836168
 31
0.0
  0
LINE
  5
322B
  8
0
 10
422.64836756159809
 20
994.47200230836177
 30
0.0
 11
422.64836756159809
 21
1004.504297780525
 31
0.0
  0
LINE
  5
322C
  8
0
 10
455.14836756159809
 20
960.47200230836177
 30
0.0
 11
455.14836756159809
 21
974.47200230836188
 31
0.0
  0
CIRCLE
  5
322F
  8
0
 10
432.3971049031274
 20
899.76912104648216
 30
0.0
 40
7.5
  0
CIRCLE
  5
3230
  8
0
 10
382.89963022006913
 20
899.76912104648216
 30
0.0
 40
7.5
  0
CIRCLE
  5
3231
  8
0
 10
382.8996302200689
 20
850.27164636342388
 30
0.0
 40
7.5
  0
CIRCLE
  5
3232
  8
0
 10
432.39710490312729
 20
850.27164636342388
 30
0.0
 40
7.5
  0
LINE
  5
3244
  8
0
 10
1202.957784792304
 20
713.69140246713187
 30
0.0
 11
1302.957784792304
 21
713.69140246713187
 31
0.0
  0
LINE
  5
3245
  8
0
 10
1267.957784792304
 20
687.69140246713175
 30
0.0
 11
1266.5577847923039
 21
689.09140246713196
 31
0.0
  0
LINE
  5
3246
  8
0
 10
1237.957784792304
 20
687.69140246713175
 30
0.0
 11
1267.957784792304
 21
687.69140246712959
 31
0.0
  0
LINE
  5
3248
  8
0
 10
1267.957784792304
 20
676.88248842450639
 30
0.0
 11
1267.957784792304
 21
687.69140246713175
 31
0.0
  0
LINE
  5
3249
  8
0
 10
1239.3577847923041
 20
703.69140246713175
 30
0.0
 11
1266.5577847923039
 21
703.69140246713175
 31
0.0
  0
LINE
  5
324A
  8
0
 10
1239.3577847923041
 20
689.09140246713196
 30
0.0
 11
1266.5577847923039
 21
689.09140246713196
 31
0.0
  0
LINE
  5
324B
  8
0
 10
1266.5577847923039
 20
689.09140246713196
 30
0.0
 11
1266.5577847923039
 21
703.69140246713175
 31
0.0
  0
ARC
  5
324C
  8
0
 10
1275.1468478577931
 20
709.69140246713187
 30
0.0
 40
4.0
 50
90.0
 51
147.38075692880699
  0
LINE
  5
324D
  8
0
 10
1271.7777622551471
 20
711.84761725282533
 30
0.0
 11
1266.5577847923039
 21
703.69140246713175
 31
0.0
  0
LINE
  5
324E
  8
0
 10
1302.957784792304
 20
713.69140246713187
 30
0.0
 11
1302.957784792304
 21
729.69140246713175
 31
0.0
  0
LINE
  5
324F
  8
0
 10
1202.957784792304
 20
713.69140246713187
 30
0.0
 11
1202.957784792304
 21
729.69140246713175
 31
0.0
  0
LINE
  5
3250
  8
0
 10
1237.957784792304
 20
687.69140246713175
 30
0.0
 11
1239.3577847923041
 21
689.09140246713196
 31
0.0
  0
LINE
  5
3251
  8
0
 10
1237.957784792304
 20
676.88248842450639
 30
0.0
 11
1237.957784792304
 21
687.69140246713175
 31
0.0
  0
ARC
  5
3252
  8
0
 10
1230.768721726814
 20
709.69140246713187
 30
0.0
 40
4.0
 50
32.61924307119294
 51
90.0
  0
LINE
  5
3253
  8
0
 10
1239.3577847923041
 20
689.09140246713196
 30
0.0
 11
1239.3577847923041
 21
703.69140246713175
 31
0.0
  0
LINE
  5
3254
  8
0
 10
1234.13780732946
 20
711.84761725282533
 30
0.0
 11
1239.3577847923041
 21
703.69140246713175
 31
0.0
  0
LINE
  5
3256
  8
0
 10
1267.957784792304
 20
587.50031650975643
 30
0.0
 11
1267.957784792304
 21
576.69140246713096
 31
0.0
  0
LINE
  5
3257
  8
0
 10
1237.957784792304
 20
587.50031650975643
 30
0.0
 11
1237.957784792304
 21
576.69140246713096
 31
0.0
  0
LINE
  5
3258
  8
0
 10
1202.957784792304
 20
550.69140246713096
 30
0.0
 11
1302.957784792304
 21
550.69140246713096
 31
0.0
  0
LINE
  5
3259
  8
0
 10
1234.13780732946
 20
552.53518768143749
 30
0.0
 11
1239.3577847923041
 21
560.69140246713096
 31
0.0
  0
ARC
  5
325A
  8
0
 10
1230.768721726814
 20
554.69140246713096
 30
0.0
 40
4.0
 50
270.0
 51
327.3807569288071
  0
LINE
  5
325B
  8
0
 10
1202.957784792304
 20
550.69140246713096
 30
0.0
 11
1202.957784792304
 21
534.69140246713096
 31
0.0
  0
ARC
  5
325C
  8
0
 10
1275.1468478577931
 20
554.69140246713096
 30
0.0
 40
4.0
 50
212.61924307119301
 51
270.0
  0
LINE
  5
325D
  8
0
 10
1239.3577847923041
 20
575.29140246713087
 30
0.0
 11
1266.5577847923039
 21
575.29140246713087
 31
0.0
  0
LINE
  5
325E
  8
0
 10
1239.3577847923041
 20
560.69140246713096
 30
0.0
 11
1266.5577847923039
 21
560.69140246713096
 31
0.0
  0
LINE
  5
325F
  8
0
 10
1237.957784792304
 20
576.69140246713096
 30
0.0
 11
1267.957784792304
 21
576.69140246713323
 31
0.0
  0
LINE
  5
3260
  8
0
 10
1239.3577847923041
 20
575.29140246713087
 30
0.0
 11
1239.3577847923041
 21
560.69140246713096
 31
0.0
  0
LINE
  5
3261
  8
0
 10
1237.957784792304
 20
576.69140246713096
 30
0.0
 11
1239.3577847923041
 21
575.29140246713087
 31
0.0
  0
LINE
  5
3262
  8
0
 10
1271.7777622551471
 20
552.53518768143749
 30
0.0
 11
1266.5577847923039
 21
560.69140246713096
 31
0.0
  0
LINE
  5
3263
  8
0
 10
1266.5577847923039
 20
575.29140246713087
 30
0.0
 11
1266.5577847923039
 21
560.69140246713096
 31
0.0
  0
LINE
  5
3264
  8
0
 10
1267.957784792304
 20
576.69140246713096
 30
0.0
 11
1266.5577847923039
 21
575.29140246713087
 31
0.0
  0
LINE
  5
3265
  8
0
 10
1302.957784792304
 20
550.69140246713096
 30
0.0
 11
1302.957784792304
 21
534.69140246713096
 31
0.0
  0
LINE
  5
3266
  8
0
 10
1155.710641783598
 20
676.88248842450639
 30
0.0
 11
1155.7106417835971
 21
687.69140246713175
 31
0.0
  0
LINE
  5
3267
  8
0
 10
1125.710641783598
 20
676.88248842450639
 30
0.0
 11
1125.7106417835971
 21
687.69140246713175
 31
0.0
  0
LINE
  5
3268
  8
0
 10
1090.7106417835971
 20
713.69140246713187
 30
0.0
 11
1190.7106417835971
 21
713.69140246713187
 31
0.0
  0
LINE
  5
3269
  8
0
 10
1121.890664320754
 20
711.84761725282533
 30
0.0
 11
1127.110641783597
 21
703.69140246713175
 31
0.0
  0
ARC
  5
326A
  8
0
 10
1118.5215787181071
 20
709.69140246713187
 30
0.0
 40
4.0
 50
32.61924307119294
 51
90.0
  0
LINE
  5
326B
  8
0
 10
1090.7106417835971
 20
713.69140246713187
 30
0.0
 11
1090.7106417835971
 21
729.69140246713175
 31
0.0
  0
ARC
  5
326C
  8
0
 10
1162.8997048490869
 20
709.69140246713187
 30
0.0
 40
4.0
 50
90.0
 51
147.38075692880699
  0
LINE
  5
326D
  8
0
 10
1127.110641783597
 20
689.09140246713196
 30
0.0
 11
1154.310641783597
 21
689.09140246713196
 31
0.0
  0
LINE
  5
326E
  8
0
 10
1127.110641783597
 20
703.69140246713175
 30
0.0
 11
1154.310641783597
 21
703.69140246713175
 31
0.0
  0
LINE
  5
326F
  8
0
 10
1125.7106417835971
 20
687.69140246713175
 30
0.0
 11
1155.7106417835971
 21
687.69140246712959
 31
0.0
  0
LINE
  5
3270
  8
0
 10
1127.110641783597
 20
689.09140246713196
 30
0.0
 11
1127.110641783597
 21
703.69140246713175
 31
0.0
  0
LINE
  5
3271
  8
0
 10
1125.7106417835971
 20
687.69140246713175
 30
0.0
 11
1127.110641783597
 21
689.09140246713196
 31
0.0
  0
LINE
  5
3272
  8
0
 10
1159.5306192464409
 20
711.84761725282533
 30
0.0
 11
1154.310641783597
 21
703.69140246713175
 31
0.0
  0
LINE
  5
3273
  8
0
 10
1154.310641783597
 20
689.09140246713196
 30
0.0
 11
1154.310641783597
 21
703.69140246713175
 31
0.0
  0
LINE
  5
3274
  8
0
 10
1155.7106417835971
 20
687.69140246713175
 30
0.0
 11
1154.310641783597
 21
689.09140246713196
 31
0.0
  0
LINE
  5
3275
  8
0
 10
1190.7106417835971
 20
713.69140246713187
 30
0.0
 11
1190.7106417835971
 21
729.69140246713175
 31
0.0
  0
LINE
  5
3276
  8
0
 10
1190.7106417835971
 20
550.69140246713096
 30
0.0
 11
1190.7106417835971
 21
534.69140246713096
 31
0.0
  0
LINE
  5
3277
  8
0
 10
1090.7106417835971
 20
550.69140246713096
 30
0.0
 11
1090.7106417835971
 21
534.69140246713096
 31
0.0
  0
LINE
  5
3278
  8
0
 10
1090.7106417835971
 20
550.69140246713096
 30
0.0
 11
1190.7106417835971
 21
550.69140246713096
 31
0.0
  0
LINE
  5
3279
  8
0
 10
1121.890664320754
 20
552.53518768143749
 30
0.0
 11
1127.110641783597
 21
560.69140246713096
 31
0.0
  0
ARC
  5
327A
  8
0
 10
1118.5215787181071
 20
554.69140246713096
 30
0.0
 40
4.0
 50
270.0
 51
327.3807569288071
  0
LINE
  5
327B
  8
0
 10
1125.710641783598
 20
587.50031650975643
 30
0.0
 11
1125.7106417835971
 21
576.69140246713096
 31
0.0
  0
LINE
  5
327C
  8
0
 10
1155.710641783598
 20
587.50031650975643
 30
0.0
 11
1155.7106417835971
 21
576.69140246713096
 31
0.0
  0
LINE
  5
327D
  8
0
 10
1125.7106417835971
 20
576.69140246713096
 30
0.0
 11
1155.7106417835971
 21
576.69140246713323
 31
0.0
  0
LINE
  5
327E
  8
0
 10
1127.110641783597
 20
560.69140246713096
 30
0.0
 11
1154.310641783597
 21
560.69140246713096
 31
0.0
  0
LINE
  5
327F
  8
0
 10
1127.110641783597
 20
575.29140246713087
 30
0.0
 11
1154.310641783597
 21
575.29140246713087
 31
0.0
  0
LINE
  5
3280
  8
0
 10
1125.7106417835971
 20
576.69140246713096
 30
0.0
 11
1127.110641783597
 21
575.29140246713087
 31
0.0
  0
LINE
  5
3281
  8
0
 10
1127.110641783597
 20
575.29140246713087
 30
0.0
 11
1127.110641783597
 21
560.69140246713096
 31
0.0
  0
LINE
  5
3282
  8
0
 10
1155.7106417835971
 20
576.69140246713096
 30
0.0
 11
1154.310641783597
 21
575.29140246713087
 31
0.0
  0
LINE
  5
3283
  8
0
 10
1154.310641783597
 20
575.29140246713087
 30
0.0
 11
1154.310641783597
 21
560.69140246713096
 31
0.0
  0
LINE
  5
3284
  8
0
 10
1159.5306192464409
 20
552.53518768143749
 30
0.0
 11
1154.310641783597
 21
560.69140246713096
 31
0.0
  0
ARC
  5
3285
  8
0
 10
1162.8997048490869
 20
554.69140246713096
 30
0.0
 40
4.0
 50
212.61924307119301
 51
270.0
  0
LINE
  5
3286
  8
0
 10
1025.660646636014
 20
676.8824884245065
 30
0.0
 11
1025.6606466360131
 21
687.69140246713198
 31
0.0
  0
LINE
  5
3287
  8
0
 10
995.66064663601378
 20
676.8824884245065
 30
0.0
 11
995.66064663601355
 21
687.69140246713198
 31
0.0
  0
LINE
  5
3288
  8
0
 10
960.66064663601355
 20
713.69140246713198
 30
0.0
 11
1060.6606466360131
 21
713.69140246713198
 31
0.0
  0
LINE
  5
3289
  8
0
 10
991.84066917316977
 20
711.84761725282544
 30
0.0
 11
997.06064663601364
 21
703.69140246713187
 31
0.0
  0
ARC
  5
328A
  8
0
 10
988.47158357052376
 20
709.69140246713187
 30
0.0
 40
4.0
 50
32.61924307119294
 51
90.0
  0
LINE
  5
328B
  8
0
 10
960.66064663601355
 20
713.69140246713198
 30
0.0
 11
960.66064663601355
 21
729.69140246713198
 31
0.0
  0
ARC
  5
328C
  8
0
 10
1032.8497097015029
 20
709.69140246713187
 30
0.0
 40
4.0
 50
90.0
 51
147.38075692880699
  0
LINE
  5
328D
  8
0
 10
997.06064663601364
 20
689.09140246713196
 30
0.0
 11
1024.2606466360139
 21
689.09140246713196
 31
0.0
  0
LINE
  5
328E
  8
0
 10
997.06064663601364
 20
703.69140246713187
 30
0.0
 11
1024.2606466360139
 21
703.69140246713187
 31
0.0
  0
LINE
  5
328F
  8
0
 10
995.66064663601355
 20
687.69140246713198
 30
0.0
 11
1025.6606466360131
 21
687.69140246712971
 31
0.0
  0
LINE
  5
3290
  8
0
 10
997.06064663601364
 20
689.09140246713196
 30
0.0
 11
997.06064663601364
 21
703.69140246713187
 31
0.0
  0
LINE
  5
3291
  8
0
 10
995.66064663601355
 20
687.69140246713198
 30
0.0
 11
997.06064663601364
 21
689.09140246713196
 31
0.0
  0
LINE
  5
3292
  8
0
 10
1029.4806240988571
 20
711.84761725282544
 30
0.0
 11
1024.2606466360139
 21
703.69140246713187
 31
0.0
  0
LINE
  5
3293
  8
0
 10
1024.2606466360139
 20
689.09140246713196
 30
0.0
 11
1024.2606466360139
 21
703.69140246713187
 31
0.0
  0
LINE
  5
3294
  8
0
 10
1025.6606466360131
 20
687.69140246713198
 30
0.0
 11
1024.2606466360139
 21
689.09140246713196
 31
0.0
  0
LINE
  5
3295
  8
0
 10
1060.6606466360131
 20
713.69140246713198
 30
0.0
 11
1060.6606466360131
 21
729.69140246713198
 31
0.0
  0
LINE
  5
3296
  8
0
 10
1060.6606466360131
 20
550.69140246713096
 30
0.0
 11
1060.6606466360131
 21
534.69140246713107
 31
0.0
  0
LINE
  5
3297
  8
0
 10
960.66064663601355
 20
550.69140246713096
 30
0.0
 11
960.66064663601355
 21
534.69140246713107
 31
0.0
  0
LINE
  5
3298
  8
0
 10
960.66064663601355
 20
550.69140246713096
 30
0.0
 11
1060.6606466360131
 21
550.69140246713096
 31
0.0
  0
LINE
  5
3299
  8
0
 10
991.84066917316977
 20
552.53518768143761
 30
0.0
 11
997.06064663601364
 21
560.69140246713096
 31
0.0
  0
ARC
  5
329A
  8
0
 10
988.47158357052376
 20
554.69140246713118
 30
0.0
 40
4.0
 50
270.0
 51
327.3807569288071
  0
LINE
  5
329B
  8
0
 10
995.66064663601378
 20
587.50031650975654
 30
0.0
 11
995.66064663601355
 21
576.69140246713107
 31
0.0
  0
LINE
  5
329C
  8
0
 10
1025.660646636014
 20
587.50031650975654
 30
0.0
 11
1025.6606466360131
 21
576.69140246713107
 31
0.0
  0
LINE
  5
329D
  8
0
 10
995.66064663601355
 20
576.69140246713107
 30
0.0
 11
1025.6606466360131
 21
576.69140246713334
 31
0.0
  0
LINE
  5
329E
  8
0
 10
997.06064663601364
 20
560.69140246713096
 30
0.0
 11
1024.2606466360139
 21
560.69140246713096
 31
0.0
  0
LINE
  5
329F
  8
0
 10
997.06064663601364
 20
575.29140246713087
 30
0.0
 11
1024.2606466360139
 21
575.29140246713087
 31
0.0
  0
LINE
  5
32A0
  8
0
 10
995.66064663601355
 20
576.69140246713107
 30
0.0
 11
997.06064663601364
 21
575.29140246713087
 31
0.0
  0
LINE
  5
32A1
  8
0
 10
997.06064663601364
 20
575.29140246713087
 30
0.0
 11
997.06064663601364
 21
560.69140246713096
 31
0.0
  0
LINE
  5
32A2
  8
0
 10
1025.6606466360131
 20
576.69140246713107
 30
0.0
 11
1024.2606466360139
 21
575.29140246713087
 31
0.0
  0
LINE
  5
32A3
  8
0
 10
1024.2606466360139
 20
575.29140246713087
 30
0.0
 11
1024.2606466360139
 21
560.69140246713096
 31
0.0
  0
LINE
  5
32A4
  8
0
 10
1029.4806240988571
 20
552.53518768143761
 30
0.0
 11
1024.2606466360139
 21
560.69140246713096
 31
0.0
  0
ARC
  5
32A5
  8
0
 10
1032.8497097015029
 20
554.69140246713118
 30
0.0
 40
4.0
 50
212.61924307119301
 51
270.0
  0
LINE
  5
32A6
  8
0
 10
1087.9379447481699
 20
1138.867178144724
 30
0.0
 11
1187.937944748171
 21
1138.867178144724
 31
0.0
  0
LINE
  5
32A7
  8
0
 10
1087.9379447481699
 20
1138.867178144724
 30
0.0
 11
1087.9379447481699
 21
1154.867178144724
 31
0.0
  0
LINE
  5
32A8
  8
0
 10
1151.537944748171
 20
1114.2671781447241
 30
0.0
 11
1151.537944748171
 21
1128.867178144724
 31
0.0
  0
LINE
  5
32A9
  8
0
 10
1124.33794474817
 20
1114.2671781447241
 30
0.0
 11
1124.33794474817
 21
1128.867178144724
 31
0.0
  0
LINE
  5
32AA
  8
0
 10
1122.9379447481699
 20
1112.867178144724
 30
0.0
 11
1152.9379447481699
 21
1112.867178144721
 31
0.0
  0
LINE
  5
32AB
  8
0
 10
1124.33794474817
 20
1114.2671781447241
 30
0.0
 11
1151.537944748171
 21
1114.2671781447241
 31
0.0
  0
LINE
  5
32AC
  8
0
 10
1152.937944748171
 20
1102.0582641020981
 30
0.0
 11
1122.937944748171
 21
1102.0582641020981
 31
0.0
  0
LINE
  5
32AD
  8
0
 10
1122.9379447481699
 20
1112.867178144724
 30
0.0
 11
1124.33794474817
 21
1114.2671781447241
 31
0.0
  0
LINE
  5
32AE
  8
0
 10
1122.937944748171
 20
1102.0582641020981
 30
0.0
 11
1121.600380839652
 21
1100.617178144724
 31
0.0
  0
LINE
  5
32AF
  8
0
 10
1122.937944748171
 20
1102.0582641020981
 30
0.0
 11
1122.9379447481699
 21
1112.867178144724
 31
0.0
  0
LINE
  5
32B0
  8
0
 10
1152.9379447481699
 20
1112.867178144724
 30
0.0
 11
1151.537944748171
 21
1114.2671781447241
 31
0.0
  0
LINE
  5
32B1
  8
0
 10
1152.937944748171
 20
1102.0582641020981
 30
0.0
 11
1154.2755086566899
 21
1100.617178144724
 31
0.0
  0
LINE
  5
32B2
  8
0
 10
1152.937944748171
 20
1102.0582641020981
 30
0.0
 11
1152.9379447481699
 21
1112.867178144724
 31
0.0
  0
LINE
  5
32B3
  8
0
 10
1124.33794474817
 20
1128.867178144724
 30
0.0
 11
1151.537944748171
 21
1128.867178144724
 31
0.0
  0
LINE
  5
32B4
  8
0
 10
1119.117967285327
 20
1137.023392930417
 30
0.0
 11
1124.33794474817
 21
1128.867178144724
 31
0.0
  0
ARC
  5
32B5
  8
0
 10
1115.748881682681
 20
1134.8671781447231
 30
0.0
 40
4.0
 50
32.61924307119294
 51
90.0
  0
LINE
  5
32B6
  8
0
 10
1156.7579222110139
 20
1137.023392930417
 30
0.0
 11
1151.537944748171
 21
1128.867178144724
 31
0.0
  0
ARC
  5
32B7
  8
0
 10
1160.1270078136599
 20
1134.8671781447231
 30
0.0
 40
4.0
 50
90.0
 51
147.38075692880699
  0
LINE
  5
32B8
  8
0
 10
1187.937944748171
 20
1138.867178144724
 30
0.0
 11
1187.937944748171
 21
1154.867178144724
 31
0.0
  0
LINE
  5
32B9
  8
0
 10
1087.9379447481699
 20
975.86717814472286
 30
0.0
 11
1187.937944748171
 21
975.86717814472286
 31
0.0
  0
LINE
  5
32BA
  8
0
 10
1087.9379447481699
 20
975.86717814472286
 30
0.0
 11
1087.9379447481699
 21
959.86717814472286
 31
0.0
  0
LINE
  5
32BB
  8
0
 10
1152.937944748171
 20
1012.676092187348
 30
0.0
 11
1122.937944748171
 21
1012.676092187348
 31
0.0
  0
LINE
  5
32BC
  8
0
 10
1124.33794474817
 20
1000.467178144722
 30
0.0
 11
1151.537944748171
 21
1000.467178144722
 31
0.0
  0
LINE
  5
32BD
  8
0
 10
1124.33794474817
 20
985.86717814472274
 30
0.0
 11
1151.537944748171
 21
985.86717814472274
 31
0.0
  0
LINE
  5
32BE
  8
0
 10
1122.9379447481699
 20
1001.867178144723
 30
0.0
 11
1152.9379447481699
 21
1001.867178144725
 31
0.0
  0
LINE
  5
32BF
  8
0
 10
1122.937944748171
 20
1012.676092187348
 30
0.0
 11
1122.9379447481699
 21
1001.867178144723
 31
0.0
  0
LINE
  5
32C0
  8
0
 10
1124.33794474817
 20
1000.467178144722
 30
0.0
 11
1124.33794474817
 21
985.86717814472274
 31
0.0
  0
LINE
  5
32C1
  8
0
 10
1122.9379447481699
 20
1001.867178144723
 30
0.0
 11
1124.33794474817
 21
1000.467178144722
 31
0.0
  0
ARC
  5
32C2
  8
0
 10
1115.748881682681
 20
979.86717814472286
 30
0.0
 40
4.0
 50
270.0
 51
327.3807569288071
  0
LINE
  5
32C3
  8
0
 10
1119.117967285327
 20
977.71096335902939
 30
0.0
 11
1124.33794474817
 21
985.86717814472274
 31
0.0
  0
LINE
  5
32C4
  8
0
 10
1122.937944748171
 20
1012.676092187348
 30
0.0
 11
1121.600380839652
 21
1014.117178144723
 31
0.0
  0
LINE
  5
32C5
  8
0
 10
1152.937944748171
 20
1012.676092187348
 30
0.0
 11
1152.9379447481699
 21
1001.867178144723
 31
0.0
  0
ARC
  5
32C6
  8
0
 10
1160.1270078136599
 20
979.86717814472286
 30
0.0
 40
4.0
 50
212.61924307119301
 51
270.0
  0
LINE
  5
32C7
  8
0
 10
1156.7579222110139
 20
977.71096335902939
 30
0.0
 11
1151.537944748171
 21
985.86717814472274
 31
0.0
  0
LINE
  5
32C8
  8
0
 10
1151.537944748171
 20
1000.467178144722
 30
0.0
 11
1151.537944748171
 21
985.86717814472274
 31
0.0
  0
LINE
  5
32C9
  8
0
 10
1152.9379447481699
 20
1001.867178144723
 30
0.0
 11
1151.537944748171
 21
1000.467178144722
 31
0.0
  0
LINE
  5
32CA
  8
0
 10
1152.937944748171
 20
1012.676092187348
 30
0.0
 11
1154.2755086566899
 21
1014.117178144723
 31
0.0
  0
LINE
  5
32CB
  8
0
 10
1187.937944748171
 20
975.86717814472286
 30
0.0
 11
1187.937944748171
 21
959.86717814472286
 31
0.0
  0
CIRCLE
  5
32CC
  8
0
 10
1137.937944748171
 20
875.02038370495302
 30
0.0
 40
50.0
  0
CIRCLE
  5
32CF
  8
0
 10
1111.4214404536749
 20
901.5368879994486
 30
0.0
 40
7.5
  0
CIRCLE
  5
32D0
  8
0
 10
1111.4214404536749
 20
848.50387941045744
 30
0.0
 40
7.5
  0
CIRCLE
  5
32D1
  8
0
 10
1164.4544490426661
 20
848.50387941045733
 30
0.0
 40
7.5
  0
CIRCLE
  5
32D2
  8
0
 10
1164.4544490426661
 20
901.53688799944837
 30
0.0
 40
7.5
  0
LINE
  5
32D3
  8
0
 10
1969.669037606209
 20
711.69056032944764
 30
0.0
 11
2094.6690376062088
 21
711.69056032944764
 31
0.0
  0
LINE
  5
32D4
  8
0
 10
2015.169037606209
 20
701.69056032944764
 30
0.0
 11
2049.1690376062088
 21
701.69056032944764
 31
0.0
  0
LINE
  5
32D5
  8
0
 10
2015.169037606209
 20
676.19056032944775
 30
0.0
 11
2049.1690376062088
 21
676.19056032944775
 31
0.0
  0
LINE
  5
32D7
  8
0
 10
2094.6690376062088
 20
711.69056032944764
 30
0.0
 11
2094.6690376062088
 21
727.69056032944775
 31
0.0
  0
LINE
  5
32D8
  8
0
 10
2049.1690376062088
 20
666.34710298158393
 30
0.0
 11
2049.1690376062088
 21
701.69056032944775
 31
0.0
  0
LINE
  5
32D9
  8
0
 10
2049.1690376062088
 20
701.69056032944764
 30
0.0
 11
2055.6678177964268
 21
709.81403556721955
 31
0.0
  0
ARC
  5
32DA
  8
0
 10
2059.5721618436419
 20
706.69056032944752
 30
0.0
 40
5.0
 50
90.0
 51
141.34019174590929
  0
LINE
  5
32DB
  8
0
 10
1969.669037606209
 20
711.69056032944764
 30
0.0
 11
1969.669037606209
 21
727.69056032944775
 31
0.0
  0
LINE
  5
32DC
  8
0
 10
2015.169037606209
 20
666.34710298158393
 30
0.0
 11
2015.169037606209
 21
701.69056032944764
 31
0.0
  0
LINE
  5
32DD
  8
0
 10
2015.169037606209
 20
701.69056032944764
 30
0.0
 11
2008.670257415991
 21
709.81403556721989
 31
0.0
  0
ARC
  5
32DE
  8
0
 10
2004.765913368776
 20
706.69056032944752
 30
0.0
 40
5.0
 50
38.659808254090521
 51
90.0
  0
LINE
  5
32DF
  8
0
 10
2015.169037606209
 20
564.19056032944764
 30
0.0
 11
2049.1690376062088
 21
564.19056032944764
 31
0.0
  0
LINE
  5
32E0
  8
0
 10
2015.169037606209
 20
538.69056032944775
 30
0.0
 11
2049.1690376062088
 21
538.69056032944775
 31
0.0
  0
LINE
  5
32E1
  8
0
 10
1969.669037606209
 20
528.69056032944775
 30
0.0
 11
2094.6690376062088
 21
528.69056032944775
 31
0.0
  0
LINE
  5
32E2
  8
0
 10
2015.169037606209
 20
574.03401767731145
 30
0.0
 11
2015.169037606209
 21
538.69056032944775
 31
0.0
  0
LINE
  5
32E3
  8
0
 10
1969.669037606209
 20
528.69056032944775
 30
0.0
 11
1969.669037606209
 21
512.69056032944764
 31
0.0
  0
ARC
  5
32E4
  8
0
 10
2004.765913368776
 20
533.69056032944786
 30
0.0
 40
5.0
 50
270.0
 51
321.34019174590952
  0
LINE
  5
32E5
  8
0
 10
2015.169037606209
 20
538.69056032944775
 30
0.0
 11
2008.670257415991
 21
530.56708509167549
 31
0.0
  0
LINE
  5
32E6
  8
0
 10
2049.1690376062088
 20
574.03401767731145
 30
0.0
 11
2049.1690376062088
 21
538.69056032944764
 31
0.0
  0
ARC
  5
32E7
  8
0
 10
2059.5721618436419
 20
533.69056032944786
 30
0.0
 40
5.0
 50
218.65980825409071
 51
270.0
  0
LINE
  5
32E8
  8
0
 10
2049.1690376062088
 20
538.69056032944775
 30
0.0
 11
2055.6678177964268
 21
530.56708509167584
 31
0.0
  0
LINE
  5
32E9
  8
0
 10
2094.6690376062088
 20
528.69056032944775
 30
0.0
 11
2094.6690376062088
 21
512.69056032944764
 31
0.0
  0
LINE
  5
32EA
  8
0
 10
1861.8828427164681
 20
676.19056032944775
 30
0.0
 11
1895.8828427164681
 21
676.19056032944775
 31
0.0
  0
LINE
  5
32EB
  8
0
 10
1861.8828427164681
 20
701.69056032944764
 30
0.0
 11
1895.8828427164681
 21
701.69056032944764
 31
0.0
  0
LINE
  5
32EC
  8
0
 10
1816.3828427164681
 20
711.69056032944764
 30
0.0
 11
1941.3828427164681
 21
711.69056032944764
 31
0.0
  0
LINE
  5
32ED
  8
0
 10
1861.8828427164681
 20
666.34710298158393
 30
0.0
 11
1861.8828427164681
 21
701.69056032944764
 31
0.0
  0
LINE
  5
32EE
  8
0
 10
1816.3828427164681
 20
711.69056032944764
 30
0.0
 11
1816.3828427164681
 21
727.69056032944775
 31
0.0
  0
ARC
  5
32EF
  8
0
 10
1851.479718479035
 20
706.69056032944752
 30
0.0
 40
5.0
 50
38.659808254090521
 51
90.0
  0
LINE
  5
32F0
  8
0
 10
1861.8828427164681
 20
701.69056032944764
 30
0.0
 11
1855.3840625262501
 21
709.81403556721989
 31
0.0
  0
LINE
  5
32F1
  8
0
 10
1895.8828427164681
 20
666.34710298158393
 30
0.0
 11
1895.8828427164681
 21
701.69056032944775
 31
0.0
  0
ARC
  5
32F2
  8
0
 10
1906.2859669539009
 20
706.69056032944752
 30
0.0
 40
5.0
 50
90.0
 51
141.34019174590929
  0
LINE
  5
32F3
  8
0
 10
1895.8828427164681
 20
701.69056032944764
 30
0.0
 11
1902.3816229066861
 21
709.81403556721955
 31
0.0
  0
LINE
  5
32F4
  8
0
 10
1941.3828427164681
 20
711.69056032944764
 30
0.0
 11
1941.3828427164681
 21
727.69056032944775
 31
0.0
  0
LINE
  5
32F5
  8
0
 10
1816.3828427164681
 20
528.69056032944775
 30
0.0
 11
1941.3828427164681
 21
528.69056032944775
 31
0.0
  0
LINE
  5
32F6
  8
0
 10
1861.8828427164681
 20
538.69056032944775
 30
0.0
 11
1895.8828427164681
 21
538.69056032944775
 31
0.0
  0
LINE
  5
32F7
  8
0
 10
1861.8828427164681
 20
564.19056032944764
 30
0.0
 11
1895.8828427164681
 21
564.19056032944764
 31
0.0
  0
LINE
  5
32F8
  8
0
 10
1861.8828427164681
 20
574.03401767731145
 30
0.0
 11
1861.8828427164681
 21
538.69056032944775
 31
0.0
  0
LINE
  5
32F9
  8
0
 10
1816.3828427164681
 20
528.69056032944775
 30
0.0
 11
1816.3828427164681
 21
512.69056032944764
 31
0.0
  0
LINE
  5
32FA
  8
0
 10
1861.8828427164681
 20
538.69056032944775
 30
0.0
 11
1855.3840625262501
 21
530.56708509167549
 31
0.0
  0
ARC
  5
32FB
  8
0
 10
1851.479718479035
 20
533.69056032944786
 30
0.0
 40
5.0
 50
270.0
 51
321.34019174590952
  0
LINE
  5
32FC
  8
0
 10
1895.8828427164681
 20
574.03401767731145
 30
0.0
 11
1895.8828427164681
 21
538.69056032944764
 31
0.0
  0
LINE
  5
32FD
  8
0
 10
1895.8828427164681
 20
538.69056032944775
 30
0.0
 11
1902.3816229066861
 21
530.56708509167584
 31
0.0
  0
ARC
  5
32FE
  8
0
 10
1906.2859669539009
 20
533.69056032944786
 30
0.0
 40
5.0
 50
218.65980825409071
 51
270.0
  0
LINE
  5
32FF
  8
0
 10
1941.3828427164681
 20
528.69056032944775
 30
0.0
 11
1941.3828427164681
 21
512.69056032944764
 31
0.0
  0
LINE
  5
3300
  8
0
 10
1705.6885062753749
 20
676.19056032944764
 30
0.0
 11
1739.688506275374
 21
676.19056032944764
 31
0.0
  0
LINE
  5
3301
  8
0
 10
1705.6885062753749
 20
701.69056032944741
 30
0.0
 11
1739.688506275374
 21
701.69056032944741
 31
0.0
  0
LINE
  5
3302
  8
0
 10
1660.188506275374
 20
711.69056032944729
 30
0.0
 11
1785.188506275374
 21
711.69056032944729
 31
0.0
  0
LINE
  5
3303
  8
0
 10
1705.6885062753749
 20
666.3471029815837
 30
0.0
 11
1705.6885062753749
 21
701.69056032944741
 31
0.0
  0
LINE
  5
3304
  8
0
 10
1660.188506275374
 20
711.69056032944729
 30
0.0
 11
1660.188506275374
 21
727.69056032944764
 31
0.0
  0
ARC
  5
3305
  8
0
 10
1695.285382037941
 20
706.69056032944729
 30
0.0
 40
5.0
 50
38.659808254090521
 51
90.0
  0
LINE
  5
3306
  8
0
 10
1705.6885062753749
 20
701.69056032944741
 30
0.0
 11
1699.1897260851561
 21
709.81403556721955
 31
0.0
  0
LINE
  5
3307
  8
0
 10
1739.688506275374
 20
666.3471029815837
 30
0.0
 11
1739.688506275374
 21
701.69056032944764
 31
0.0
  0
ARC
  5
3308
  8
0
 10
1750.0916305128069
 20
706.69056032944729
 30
0.0
 40
5.0
 50
90.0
 51
141.34019174590929
  0
LINE
  5
3309
  8
0
 10
1739.688506275374
 20
701.69056032944741
 30
0.0
 11
1746.187286465592
 21
709.81403556721943
 31
0.0
  0
LINE
  5
330A
  8
0
 10
1785.188506275374
 20
711.69056032944729
 30
0.0
 11
1785.188506275374
 21
727.69056032944764
 31
0.0
  0
LINE
  5
330B
  8
0
 10
1660.188506275374
 20
528.69056032944764
 30
0.0
 11
1785.188506275374
 21
528.69056032944764
 31
0.0
  0
LINE
  5
330C
  8
0
 10
1705.6885062753749
 20
538.69056032944764
 30
0.0
 11
1739.688506275374
 21
538.69056032944764
 31
0.0
  0
LINE
  5
330D
  8
0
 10
1705.6885062753749
 20
564.19056032944741
 30
0.0
 11
1739.688506275374
 21
564.19056032944741
 31
0.0
  0
LINE
  5
330E
  8
0
 10
1705.6885062753749
 20
574.03401767731134
 30
0.0
 11
1705.6885062753749
 21
538.69056032944764
 31
0.0
  0
LINE
  5
330F
  8
0
 10
1660.188506275374
 20
528.69056032944764
 30
0.0
 11
1660.188506275374
 21
512.69056032944729
 31
0.0
  0
LINE
  5
3310
  8
0
 10
1705.6885062753749
 20
538.69056032944764
 30
0.0
 11
1699.1897260851561
 21
530.56708509167538
 31
0.0
  0
ARC
  5
3311
  8
0
 10
1695.285382037941
 20
533.69056032944775
 30
0.0
 40
5.0
 50
270.0
 51
321.34019174590952
  0
LINE
  5
3312
  8
0
 10
1739.688506275374
 20
574.03401767731134
 30
0.0
 11
1739.688506275374
 21
538.69056032944741
 31
0.0
  0
LINE
  5
3313
  8
0
 10
1739.688506275374
 20
538.69056032944764
 30
0.0
 11
1746.187286465592
 21
530.56708509167549
 31
0.0
  0
ARC
  5
3314
  8
0
 10
1750.0916305128069
 20
533.69056032944775
 30
0.0
 40
5.0
 50
218.65980825409071
 51
270.0
  0
LINE
  5
3315
  8
0
 10
1785.188506275374
 20
528.69056032944764
 30
0.0
 11
1785.188506275374
 21
512.69056032944729
 31
0.0
  0
LINE
  5
3316
  8
0
 10
1878.8828427164681
 20
727.69056032944764
 30
0.0
 11
1941.3828427164681
 21
727.69056032944775
 31
0.0
  0
LINE
  5
3317
  8
0
 10
1722.688506275374
 20
727.69056032944741
 30
0.0
 11
1785.188506275374
 21
727.69056032944764
 31
0.0
  0
LINE
  5
3318
  8
0
 10
1722.688506275374
 20
512.69056032944764
 30
0.0
 11
1785.188506275374
 21
512.69056032944764
 31
0.0
  0
LINE
  5
3319
  8
0
 10
1813.6101456810411
 20
1172.8859908123311
 30
0.0
 11
1938.6101456810411
 21
1172.8859908123311
 31
0.0
  0
LINE
  5
331A
  8
0
 10
1813.6101456810411
 20
1188.8859908123311
 30
0.0
 11
1876.1101456810411
 21
1188.8859908123311
 31
0.0
  0
LINE
  5
331B
  8
0
 10
1813.6101456810411
 20
1188.8859908123311
 30
0.0
 11
1876.1101456810411
 21
1188.8859908123311
 31
0.0
  0
LINE
  5
331C
  8
0
 10
1813.6101456810411
 20
1172.8859908123311
 30
0.0
 11
1813.6101456810411
 21
1188.8859908123311
 31
0.0
  0
LINE
  5
331D
  8
0
 10
1859.1101456810411
 20
1127.5425334644669
 30
0.0
 11
1859.1101456810411
 21
1162.8859908123311
 31
0.0
  0
LINE
  5
331E
  8
0
 10
1859.1101456810411
 20
1162.8859908123311
 30
0.0
 11
1893.1101456810411
 21
1162.8859908123311
 31
0.0
  0
LINE
  5
331F
  8
0
 10
1859.1101456810411
 20
1162.8859908123311
 30
0.0
 11
1852.6113654908229
 21
1171.009466050104
 31
0.0
  0
ARC
  5
3320
  8
0
 10
1848.707021443608
 20
1167.8859908123311
 30
0.0
 40
5.0
 50
38.659808254090521
 51
90.0
  0
LINE
  5
3321
  8
0
 10
1893.1101456810411
 20
1127.5425334644669
 30
0.0
 11
1893.1101456810411
 21
1162.8859908123311
 31
0.0
  0
LINE
  5
3322
  8
0
 10
1859.1101456810411
 20
1137.3859908123311
 30
0.0
 11
1893.1101456810411
 21
1137.3859908123311
 31
0.0
  0
LINE
  5
3323
  8
0
 10
1893.1101456810411
 20
1162.8859908123311
 30
0.0
 11
1899.6089258712591
 21
1171.0094660501029
 31
0.0
  0
ARC
  5
3324
  8
0
 10
1903.513269918474
 20
1167.8859908123311
 30
0.0
 40
5.0
 50
90.0
 51
141.34019174590929
  0
LINE
  5
3325
  8
0
 10
1938.6101456810411
 20
1172.8859908123311
 30
0.0
 11
1938.6101456810411
 21
1188.8859908123311
 31
0.0
  0
LINE
  5
3326
  8
0
 10
1876.1101456810411
 20
973.88599081233144
 30
0.0
 11
1938.6101456810411
 21
973.88599081233144
 31
0.0
  0
LINE
  5
3327
  8
0
 10
1813.6101456810411
 20
989.88599081233156
 30
0.0
 11
1938.6101456810411
 21
989.88599081233156
 31
0.0
  0
LINE
  5
3328
  8
0
 10
1813.6101456810411
 20
973.88599081233144
 30
0.0
 11
1876.1101456810411
 21
973.88599081233144
 31
0.0
  0
LINE
  5
3329
  8
0
 10
1813.6101456810411
 20
989.88599081233156
 30
0.0
 11
1813.6101456810411
 21
973.88599081233133
 31
0.0
  0
LINE
  5
332A
  8
0
 10
1893.1101456810411
 20
1035.229448160195
 30
0.0
 11
1893.1101456810411
 21
999.88599081233122
 31
0.0
  0
LINE
  5
332B
  8
0
 10
1859.1101456810411
 20
1035.229448160195
 30
0.0
 11
1859.1101456810411
 21
999.88599081233156
 31
0.0
  0
LINE
  5
332C
  8
0
 10
1859.1101456810411
 20
999.88599081233156
 30
0.0
 11
1893.1101456810411
 21
999.88599081233156
 31
0.0
  0
LINE
  5
332D
  8
0
 10
1859.1101456810411
 20
999.88599081233156
 30
0.0
 11
1852.6113654908229
 21
991.7625155745593
 31
0.0
  0
ARC
  5
332E
  8
0
 10
1848.707021443608
 20
994.88599081233167
 30
0.0
 40
5.0
 50
270.0
 51
321.34019174590952
  0
ARC
  5
332F
  8
0
 10
1903.513269918474
 20
994.88599081233167
 30
0.0
 40
5.0
 50
218.65980825409071
 51
270.0
  0
LINE
  5
3330
  8
0
 10
1893.1101456810411
 20
999.88599081233156
 30
0.0
 11
1899.6089258712591
 21
991.76251557455953
 31
0.0
  0
LINE
  5
3331
  8
0
 10
1859.1101456810411
 20
1025.3859908123311
 30
0.0
 11
1893.1101456810411
 21
1025.3859908123311
 31
0.0
  0
LINE
  5
3332
  8
0
 10
1938.6101456810411
 20
989.88599081233156
 30
0.0
 11
1938.6101456810411
 21
973.88599081233133
 31
0.0
  0
TEXT
  5
34D9
  8
0
 10
375.82214132387799
 20
469.65766921558838
 30
0.0
 40
20.0
  1
1/2
 41
0.8
 72
     4
 11
395.63166513340178
 21
478.229097787017
 31
0.0
  0
TEXT
  5
34DA
  8
0
 10
1114.4777885885551
 20
453.69736812313829
 30
0.0
 40
20.0
  1
3/4
 41
0.8
 72
     4
 11
1136.1920743028411
 21
462.26879669456679
 31
0.0
  0
TEXT
  5
34DB
  8
0
 10
1876.7135716408529
 20
433.30714972101123
 30
0.0
 40
20.0
  1
1
 41
0.8
 72
     4
 11
1878.6183335456151
 21
443.30714972101123
 31
0.0
  0
VIEWPORT
  5
41
 67
     1
  8
0
 10
117.358407079646
 20
73.5
 30
0.0
 40
234.716814159292
 41
147.0
 68
     1
 69
     1
1001
ACAD
1000
MVIEW
1002
{
1070
    16
1010
0.0
1020
0.0
1030
0.0
1010
0.0
1020
0.0
1030
1.0
1040
0.0
1040
147.0
1040
117.358407079646
1040
73.5
1040
50.0
1040
0.0
1040
0.0
1070
     0
1070
   100
1070
     1
1070
     1
1070
     0
1070
     0
1070
     0
1070
     0
1040
0.0
1040
0.0
1040
0.0
1040
1.0
1040
1.0
1040
0.0
1040
0.0
1070
     0
1002
{
1002
}
1002
}
  0
ENDSEC
  0
EOF
