  0
SECTION
  2
HEADER
  9
$ACADVER
  1
AC1012
  9
$DWGCODEPAGE
  3
dos932
  9
$INSBASE
 10
0.0
 20
0.0
 30
0.0
  9
$EXTMIN
 10
88.0
 20
40.0
 30
0.0
  9
$EXTMAX
 10
2288.0
 20
1528.0
 30
0.0
  9
$LIMMIN
 10
0.0
 20
0.0
  9
$LIMMAX
 10
2376.0
 20
1680.0
  9
$ORTHOMODE
 70
     1
  9
$REGENMODE
 70
     1
  9
$FILLMODE
 70
     1
  9
$QTEXTMODE
 70
     0
  9
$MIRRTEXT
 70
     1
  9
$DRAGMODE
 70
     2
  9
$LTSCALE
 40
32.0
  9
$OSMODE
 70
   163
  9
$ATTMODE
 70
     1
  9
$TEXTSIZE
 40
32.0
  9
$TRACEWID
 40
0.05
  9
$TEXTSTYLE
  7
STANDARD
  9
$CLAYER
  8
0
  9
$CELTYPE
  6
BYLAYER
  9
$CECOLOR
 62
   256
  9
$CELTSCALE
 40
1.0
  9
$DELOBJ
 70
     1
  9
$DISPSILH
 70
     0
  9
$DIMSCALE
 40
8.0
  9
$DIMASZ
 40
2.8
  9
$DIMEXO
 40
1.0
  9
$DIMDLI
 40
5.0
  9
$DIMRND
 40
0.1
  9
$DIMDLE
 40
0.0
  9
$DIMEXE
 40
1.0
  9
$DIMTP
 40
0.0
  9
$DIMTM
 40
0.0
  9
$DIMTXT
 40
2.5
  9
$DIMCEN
 40
0.0
  9
$DIMTSZ
 40
0.0
  9
$DIMTOL
 70
     0
  9
$DIMLIM
 70
     0
  9
$DIMTIH
 70
     0
  9
$DIMTOH
 70
     0
  9
$DIMSE1
 70
     0
  9
$DIMSE2
 70
     0
  9
$DIMTAD
 70
     3
  9
$DIMZIN
 70
     8
  9
$DIMBLK
  1

  9
$DIMASO
 70
     1
  9
$DIMSHO
 70
     1
  9
$DIMPOST
  1
 
  9
$DIMAPOST
  1

  9
$DIMALT
 70
     0
  9
$DIMALTD
 70
     2
  9
$DIMALTF
 40
1.0
  9
$DIMLFAC
 40
1.0
  9
$DIMTOFL
 70
     1
  9
$DIMTVP
 40
0.0
  9
$DIMTIX
 70
     0
  9
$DIMSOXD
 70
     0
  9
$DIMSAH
 70
     1
  9
$DIMBLK1
  1
_OPEN
  9
$DIMBLK2
  1
_OPEN
  9
$DIMSTYLE
  2
DIM1
  9
$DIMCLRD
 70
     2
  9
$DIMCLRE
 70
     2
  9
$DIMCLRT
 70
     2
  9
$DIMTFAC
 40
0.7
  9
$DIMGAP
 40
0.85
  9
$DIMJUST
 70
     0
  9
$DIMSD1
 70
     0
  9
$DIMSD2
 70
     0
  9
$DIMTOLJ
 70
     1
  9
$DIMTZIN
 70
     8
  9
$DIMALTZ
 70
     8
  9
$DIMALTTZ
 70
     8
  9
$DIMFIT
 70
     0
  9
$DIMUPT
 70
     0
  9
$DIMUNIT
 70
     2
  9
$DIMDEC
 70
     2
  9
$DIMTDEC
 70
     3
  9
$DIMALTU
 70
     2
  9
$DIMALTTD
 70
     3
  9
$DIMTXSTY
  7
DIM
  9
$DIMAUNIT
 70
     0
  9
$LUNITS
 70
     2
  9
$LUPREC
 70
     4
  9
$SKETCHINC
 40
0.1
  9
$FILLETRAD
 40
0.0
  9
$AUNITS
 70
     0
  9
$AUPREC
 70
     0
  9
$MENU
  1
C:\ACADR13\WIN\SUPPORT\ACAD.mnc
  9
$ELEVATION
 40
0.0
  9
$PELEVATION
 40
0.0
  9
$THICKNESS
 40
0.0
  9
$LIMCHECK
 70
     0
  9
$BLIPMODE
 70
     1
  9
$CHAMFERA
 40
0.0
  9
$CHAMFERB
 40
0.0
  9
$CHAMFERC
 40
0.0
  9
$CHAMFERD
 40
0.0
  9
$SKPOLY
 70
     0
  9
$TDCREATE
 40
2451564.657660127
  9
$TDUPDATE
 40
2451967.652016412
  9
$TDINDWG
 40
0.0504162037
  9
$TDUSRTIMER
 40
0.0504162037
  9
$USRTIMER
 70
     1
  9
$ANGBASE
 50
0.0
  9
$ANGDIR
 70
     0
  9
$PDMODE
 70
     0
  9
$PDSIZE
 40
0.0
  9
$PLINEWID
 40
0.0
  9
$COORDS
 70
     1
  9
$SPLFRAME
 70
     0
  9
$SPLINETYPE
 70
     6
  9
$SPLINESEGS
 70
     8
  9
$ATTDIA
 70
     0
  9
$ATTREQ
 70
     1
  9
$HANDLING
 70
     1
  9
$HANDSEED
  5
34DE
  9
$SURFTAB1
 70
     6
  9
$SURFTAB2
 70
     6
  9
$SURFTYPE
 70
     6
  9
$SURFU
 70
     6
  9
$SURFV
 70
     6
  9
$UCSNAME
  2

  9
$UCSORG
 10
0.0
 20
0.0
 30
0.0
  9
$UCSXDIR
 10
1.0
 20
0.0
 30
0.0
  9
$UCSYDIR
 10
0.0
 20
1.0
 30
0.0
  9
$PUCSNAME
  2

  9
$PUCSORG
 10
0.0
 20
0.0
 30
0.0
  9
$PUCSXDIR
 10
1.0
 20
0.0
 30
0.0
  9
$PUCSYDIR
 10
0.0
 20
1.0
 30
0.0
  9
$USERI1
 70
     0
  9
$USERI2
 70
     0
  9
$USERI3
 70
     0
  9
$USERI4
 70
     0
  9
$USERI5
 70
     0
  9
$USERR1
 40
0.0
  9
$USERR2
 40
0.0
  9
$USERR3
 40
0.0
  9
$USERR4
 40
0.0
  9
$USERR5
 40
0.0
  9
$WORLDVIEW
 70
     1
  9
$SHADEDGE
 70
     3
  9
$SHADEDIF
 70
    70
  9
$TILEMODE
 70
     1
  9
$MAXACTVP
 70
    16
  9
$PINSBASE
 10
0.0
 20
0.0
 30
0.0
  9
$PLIMCHECK
 70
     0
  9
$PEXTMIN
 10
1.000000E+20
 20
1.000000E+20
 30
1.000000E+20
  9
$PEXTMAX
 10
-1.000000E+20
 20
-1.000000E+20
 30
-1.000000E+20
  9
$PLIMMIN
 10
0.0
 20
0.0
  9
$PLIMMAX
 10
20.0
 20
147.0
  9
$UNITMODE
 70
     0
  9
$VISRETAIN
 70
     0
  9
$PLINEGEN
 70
     0
  9
$PSLTSCALE
 70
     1
  9
$TREEDEPTH
 70
  3020
  9
$PICKSTYLE
 70
     0
  9
$CMLSTYLE
  2
STANDARD
  9
$CMLJUST
 70
     0
  9
$CMLSCALE
 40
1.0
  9
$SAVEIMAGES
 70
     1
  0
ENDSEC
  0
SECTION
  2
CLASSES
  0
CLASS
  1
LWPOLYLINE
  2
AcDbPolyline
  3
"AutoCAD"
 90
    32768
280
     0
281
     1
  0
ENDSEC
  0
SECTION
  2
TABLES
  0
TABLE
  2
VPORT
  5
8
100
AcDbSymbolTable
 70
     2
  0
VPORT
  5
34DD
100
AcDbSymbolTableRecord
100
AcDbViewportTableRecord
  2
*ACTIVE
 70
     0
 10
0.0
 20
0.0
 11
1.0
 21
1.0
 12
1228.10986
 22
871.023263
 13
0.0
 23
0.0
 14
1.0
 24
1.0
 15
0.0
 25
0.0
 16
0.0
 26
0.0
 36
1.0
 17
0.0
 27
0.0
 37
0.0
 40
1742.046524
 41
1.762063
 42
50.0
 43
0.0
 44
0.0
 50
0.0
 51
0.0
 71
     0
 72
   100
 73
     1
 74
     1
 75
     0
 76
     0
 77
     0
 78
     0
  0
ENDTAB
  0
TABLE
  2
LTYPE
  5
5
100
AcDbSymbolTable
 70
     5
  0
LTYPE
  5
12
100
AcDbSymbolTableRecord
100
AcDbLinetypeTableRecord
  2
BYBLOCK
 70
     0
  3

 72
    65
 73
     0
 40
0.0
  0
LTYPE
  5
13
100
AcDbSymbolTableRecord
100
AcDbLinetypeTableRecord
  2
BYLAYER
 70
     0
  3

 72
    65
 73
     0
 40
0.0
  0
LTYPE
  5
14
100
AcDbSymbolTableRecord
100
AcDbLinetypeTableRecord
  2
CONTINUOUS
 70
     0
  3
Solid line
 72
    65
 73
     0
 40
0.0
  0
ENDTAB
  0
TABLE
  2
LAYER
  5
2
100
AcDbSymbolTable
 70
     3
  0
LAYER
  5
F
100
AcDbSymbolTableRecord
100
AcDbLayerTableRecord
  2
0
 70
     0
 62
     7
  6
CONTINUOUS
  0
ENDTAB
  0
TABLE
  2
STYLE
  5
3
100
AcDbSymbolTable
 70
     3
  0
STYLE
  5
10
100
AcDbSymbolTableRecord
100
AcDbTextStyleTableRecord
  2
STANDARD
 70
     0
 40
0.0
 41
0.8
 50
0.0
 71
     0
 42
32.0
  3
simplex
  4
extfont
  0
STYLE
  5
237C
100
AcDbSymbolTableRecord
100
AcDbTextStyleTableRecord
  2
PTSH
 70
     0
 40
0.0
 41
0.9
 50
0.0
 71
     0
 42
4.0
  3
SIMPLEX
  4
EXTFONT
  0
STYLE
  5
2592
100
AcDbSymbolTableRecord
100
AcDbTextStyleTableRecord
  2
DIM
 70
     0
 40
0.0
 41
0.8
 50
0.0
 71
     0
 42
4.0
  3
simplex
  4
extfont
  0
ENDTAB
  0
TABLE
  2
VIEW
  5
6
100
AcDbSymbolTable
 70
     0
  0
ENDTAB
  0
TABLE
  2
UCS
  5
7
100
AcDbSymbolTable
 70
     0
  0
ENDTAB
  0
TABLE
  2
APPID
  5
9
100
AcDbSymbolTable
 70
     1
  0
APPID
  5
11
100
AcDbSymbolTableRecord
100
AcDbRegAppTableRecord
  2
ACAD
 70
     0
  0
ENDTAB
  0
TABLE
  2
DIMSTYLE
  5
A
100
AcDbSymbolTable
 70
     1
  0
DIMSTYLE
105
2237
100
AcDbSymbolTableRecord
100
AcDbDimStyleTableRecord
  2
DIM1
 70
     0
  3
 
  4

  5

  6
_OPEN
  7
_OPEN
 40
8.0
 41
2.8
 42
1.0
 43
5.0
 44
1.0
 45
0.1
 46
0.0
 47
0.0
 48
0.0
140
2.5
141
0.0
142
0.0
143
1.0
144
1.0
145
0.0
146
0.7
147
0.85
 71
     0
 72
     0
 73
     0
 74
     0
 75
     0
 76
     0
 77
     3
 78
     8
170
     0
171
     2
172
     1
173
     1
174
     0
175
     0
176
     2
177
     2
178
     2
270
     2
271
     2
272
     3
273
     2
274
     3
340
2592
275
     0
280
     0
281
     0
282
     0
283
     1
284
     8
285
     8
286
     8
287
     0
288
     0
  0
ENDTAB
  0
TABLE
  2
BLOCK_RECORD
  5
1
100
AcDbSymbolTable
 70
     1
  0
BLOCK_RECORD
  5
18
100
AcDbSymbolTableRecord
100
AcDbBlockTableRecord
  2
*MODEL_SPACE
  0
BLOCK_RECORD
  5
15
100
AcDbSymbolTableRecord
100
AcDbBlockTableRecord
  2
*PAPER_SPACE
  0
BLOCK_RECORD
  5
2448
100
AcDbSymbolTableRecord
100
AcDbBlockTableRecord
  2
_OPEN
  0
ENDTAB
  0
ENDSEC
  0
SECTION
  2
BLOCKS
  0
BLOCK
  5
3C
100
AcDbEntity
  8
0
100
AcDbBlockBegin
  2
*MODEL_SPACE
 70
     0
 10
0.0
 20
0.0
 30
0.0
  3
*MODEL_SPACE
  1

  0
ENDBLK
  5
3D
100
AcDbEntity
  8
0
100
AcDbBlockEnd
  0
BLOCK
  5
3A
100
AcDbEntity
 67
     1
  8
0
100
AcDbBlockBegin
  2
*PAPER_SPACE
 70
     0
 10
0.0
 20
0.0
 30
0.0
  3
*PAPER_SPACE
  1

  0
ENDBLK
  5
3B
100
AcDbEntity
 67
     1
  8
0
100
AcDbBlockEnd
  0
BLOCK
  5
2449
100
AcDbEntity
  8
0
 48
4.0
100
AcDbBlockBegin
  2
_OPEN
 70
     0
 10
0.0
 20
0.0
 30
0.0
  3
_OPEN
  1
H1111.DWG
  0
LINE
  5
244A
100
AcDbEntity
  8
0
  6
BYBLOCK
 62
     0
 48
4.0
100
AcDbLine
 10
-1.0
 20
0.166667
 30
0.0
 11
0.0
 21
0.0
 31
0.0
  0
LINE
  5
244B
100
AcDbEntity
  8
0
  6
BYBLOCK
 62
     0
 48
4.0
100
AcDbLine
 10
0.0
 20
0.0
 30
0.0
 11
-1.0
 21
-0.166667
 31
0.0
  0
LINE
  5
244C
100
AcDbEntity
  8
0
  6
BYBLOCK
 62
     0
 48
4.0
100
AcDbLine
 10
0.0
 20
0.0
 30
0.0
 11
-1.0
 21
0.0
 31
0.0
  0
ENDBLK
  5
244D
100
AcDbEntity
  8
0
 48
4.0
100
AcDbBlockEnd
  0
ENDSEC
  0
SECTION
  2
ENTITIES
  0
MTEXT
  5
ADA
100
AcDbEntity
  8
0
100
AcDbMText
 10
3041.114238
 20
398.770489
 30
0.0
 40
1.6
 41
377.811719
 71
     1
 72
     1
  1

  0
MTEXT
  5
ADB
100
AcDbEntity
  8
0
100
AcDbMText
 10
3112.399465
 20
462.80635
 30
0.0
 40
1.6
 41
363.554673
 71
     1
 72
     1
  1

  0
MTEXT
  5
ADC
100
AcDbEntity
  8
0
100
AcDbMText
 10
3069.628329
 20
-383.889971
 30
0.0
 40
1.6
 41
413.454332
 71
     1
 72
     1
  1

  0
TEXT
  5
2529
100
AcDbEntity
  8
0
  6
CONTINUOUS
100
AcDbText
 10
2208.871325
 20
61.93671
 30
0.0
 40
18.0
  1
SS3V
 41
0.9
  7
PTSH
 72
     1
 11
2238.18561
 21
70.93671
 31
0.0
100
AcDbText
 73
     2
  0
POLYLINE
  5
2563
100
AcDbEntity
  8
0
100
AcDb2dPolyline
 66
     1
 10
0.0
 20
0.0
 30
0.0
 70
     1
  0
VERTEX
  5
3466
100
AcDbEntity
  8
0
100
AcDbVertex
100
AcDb2dVertex
 10
88.0
 20
40.0
 30
0.0
  0
VERTEX
  5
3467
100
AcDbEntity
  8
0
100
AcDbVertex
100
AcDb2dVertex
 10
2288.0
 20
40.0
 30
0.0
  0
VERTEX
  5
3468
100
AcDbEntity
  8
0
100
AcDbVertex
100
AcDb2dVertex
 10
2288.0
 20
1528.0
 30
0.0
  0
VERTEX
  5
3469
100
AcDbEntity
  8
0
100
AcDbVertex
100
AcDb2dVertex
 10
88.0
 20
1528.0
 30
0.0
  0
SEQEND
  5
346A
100
AcDbEntity
  8
0
  0
LINE
  5
2B9A
100
AcDbEntity
  8
0
100
AcDbLine
 10
1112.384393
 20
1463.504121
 30
0.0
 11
1157.484898
 21
1463.504121
 31
0.0
  0
LINE
  5
2B9B
100
AcDbEntity
  8
0
100
AcDbLine
 10
1112.384393
 20
1378.504121
 30
0.0
 11
1157.484898
 21
1378.504121
 31
0.0
  0
LINE
  5
2BA0
100
AcDbEntity
  8
0
100
AcDbLine
 10
1283.957785
 20
310.937103
 30
0.0
 11
1221.957785
 21
310.937103
 31
0.0
  0
LINE
  5
2BA1
100
AcDbEntity
  8
0
100
AcDbLine
 10
1267.957785
 20
312.378189
 30
0.0
 11
1237.957785
 21
312.378189
 31
0.0
  0
LINE
  5
2BA2
100
AcDbEntity
  8
0
100
AcDbLine
 10
1202.957785
 20
365.187103
 30
0.0
 11
1252.957785
 21
365.187103
 31
0.0
  0
LINE
  5
2BA4
100
AcDbEntity
  8
0
100
AcDbLine
 10
1283.957785
 20
224.437103
 30
0.0
 11
1221.957785
 21
224.437103
 31
0.0
  0
LINE
  5
2BA5
100
AcDbEntity
  8
0
100
AcDbLine
 10
1267.957785
 20
222.996017
 30
0.0
 11
1237.957785
 21
222.996017
 31
0.0
  0
TEXT
  5
2BAA
100
AcDbEntity
  8
0
100
AcDbText
 10
984.449708
 20
92.402207
 30
0.0
 40
25.0
  1
TLV  SS3V (JIS20K)
100
AcDbText
  0
LINE
  5
2BAB
100
AcDbEntity
  8
0
100
AcDbLine
 10
1202.957785
 20
170.187103
 30
0.0
 11
1252.957785
 21
170.187103
 31
0.0
  0
ARC
  5
2BAD
100
AcDbEntity
  8
0
100
AcDbCircle
 10
1146.384393
 20
1094.835288
 30
0.0
 40
7.0
100
AcDbArc
 50
0.0
 51
90.0
  0
ARC
  5
2BAE
100
AcDbEntity
  8
0
100
AcDbCircle
 10
1146.384393
 20
1023.835288
 30
0.0
 40
7.0
100
AcDbArc
 50
270.0
 51
0.0
  0
TEXT
  5
2BAF
100
AcDbEntity
  8
0
100
AcDbText
 10
965.002501
 20
889.166214
 30
0.0
 40
25.0
  1
TLV  SS3V (PT･SW)
100
AcDbText
  0
LINE
  5
2BB0
100
AcDbEntity
  8
0
100
AcDbLine
 10
407.648368
 20
770.967703
 30
0.0
 11
455.148368
 21
770.967703
 31
0.0
  0
LINE
  5
2BB6
100
AcDbEntity
  8
0
100
AcDbLine
 10
435.127552
 20
725.967703
 30
0.0
 11
392.148368
 21
725.967703
 31
0.0
  0
LINE
  5
2BB7
100
AcDbEntity
  8
0
100
AcDbLine
 10
392.148368
 20
725.967703
 30
0.0
 11
422.648368
 21
725.967703
 31
0.0
  0
LINE
  5
2BB9
100
AcDbEntity
  8
0
100
AcDbLine
 10
392.648368
 20
726.935408
 30
0.0
 11
422.648368
 21
726.935408
 31
0.0
  0
LINE
  5
2BBA
100
AcDbEntity
  8
0
100
AcDbLine
 10
435.127552
 20
640.967703
 30
0.0
 11
392.148368
 21
640.967703
 31
0.0
  0
LINE
  5
2BBB
100
AcDbEntity
  8
0
100
AcDbLine
 10
392.648368
 20
639.999999
 30
0.0
 11
422.648368
 21
639.999999
 31
0.0
  0
LINE
  5
2BBC
100
AcDbEntity
  8
0
100
AcDbLine
 10
392.648368
 20
640.967703
 30
0.0
 11
422.648368
 21
640.967703
 31
0.0
  0
LINE
  5
2BC3
100
AcDbEntity
  8
0
100
AcDbLine
 10
407.648368
 20
595.967703
 30
0.0
 11
455.148368
 21
595.967703
 31
0.0
  0
CIRCLE
  5
2BC5
100
AcDbEntity
  8
0
100
AcDbCircle
 10
407.648368
 20
510.516084
 30
0.0
 40
47.5
  0
LINE
  5
2BC6
100
AcDbEntity
  8
0
100
AcDbLine
 10
362.921065
 20
365.187103
 30
0.0
 11
410.421065
 21
365.187103
 31
0.0
  0
LINE
  5
2BCD
100
AcDbEntity
  8
0
100
AcDbLine
 10
425.421065
 20
321.154808
 30
0.0
 11
395.421065
 21
321.154808
 31
0.0
  0
LINE
  5
2BCE
100
AcDbEntity
  8
0
100
AcDbLine
 10
425.921065
 20
320.187103
 30
0.0
 11
395.421065
 21
320.187103
 31
0.0
  0
LINE
  5
2BCF
100
AcDbEntity
  8
0
100
AcDbLine
 10
382.94188
 20
320.187103
 30
0.0
 11
425.921065
 21
320.187103
 31
0.0
  0
LINE
  5
2BD0
100
AcDbEntity
  8
0
100
AcDbLine
 10
425.421065
 20
235.187103
 30
0.0
 11
395.421065
 21
235.187103
 31
0.0
  0
LINE
  5
2BD2
100
AcDbEntity
  8
0
100
AcDbLine
 10
425.421065
 20
234.219399
 30
0.0
 11
395.421065
 21
234.219399
 31
0.0
  0
LINE
  5
2BD3
100
AcDbEntity
  8
0
100
AcDbLine
 10
382.94188
 20
235.187103
 30
0.0
 11
425.921065
 21
235.187103
 31
0.0
  0
LINE
  5
2BD9
100
AcDbEntity
  8
0
100
AcDbLine
 10
362.921065
 20
190.187103
 30
0.0
 11
410.421065
 21
190.187103
 31
0.0
  0
TEXT
  5
2BDA
100
AcDbEntity
  8
0
100
AcDbText
 10
395.631665
 20
149.228468
 30
0.0
 40
20.0
  1
15A
 41
0.8
 11
395.631665
 21
149.228468
 31
0.0
100
AcDbText
 73
     1
  0
LINE
  5
2BE0
100
AcDbEntity
  8
0
100
AcDbLine
 10
241.021373
 20
190.187103
 30
0.0
 11
288.521373
 21
190.187103
 31
0.0
  0
TEXT
  5
2BE2
100
AcDbEntity
  8
0
100
AcDbText
 10
136.882343
 20
318.684561
 30
0.0
 40
20.0
  1
正面
100
AcDbText
  0
LINE
  5
2BE3
100
AcDbEntity
  8
0
100
AcDbLine
 10
360.910657
 20
253.697511
 30
0.0
 11
376.931472
 21
237.676696
 31
0.0
  0
ARC
  5
2BE4
100
AcDbEntity
  8
0
100
AcDbCircle
 10
315.021373
 20
250.869118
 30
0.0
 40
11.5
100
AcDbArc
 50
296.210269
 51
0.0
  0
ARC
  5
2BE5
100
AcDbEntity
  8
0
100
AcDbCircle
 10
262.021373
 20
250.869118
 30
0.0
 40
11.5
100
AcDbArc
 50
180.0
 51
243.789731
  0
LINE
  5
2BE6
100
AcDbEntity
  8
0
100
AcDbLine
 10
288.521373
 20
190.187103
 30
0.0
 11
336.021373
 21
190.187103
 31
0.0
  0
LINE
  5
2BE8
100
AcDbEntity
  8
0
100
AcDbLine
 10
271.78145
 20
235.187103
 30
0.0
 11
305.261297
 21
235.187103
 31
0.0
  0
LINE
  5
2BE9
100
AcDbEntity
  8
0
100
AcDbLine
 10
303.521373
 20
234.219399
 30
0.0
 11
273.521373
 21
234.219399
 31
0.0
  0
ARC
  5
2BF2
100
AcDbEntity
  8
0
100
AcDbCircle
 10
288.521373
 20
304.699872
 30
0.0
 40
71.5
100
AcDbArc
 50
243.789731
 51
256.459962
  0
POLYLINE
  5
2BF3
100
AcDbEntity
  8
0
100
AcDb2dPolyline
 66
     1
 10
0.0
 20
0.0
 30
0.0
  0
VERTEX
  5
346B
100
AcDbEntity
  8
0
100
AcDbVertex
100
AcDb2dVertex
 10
272.695215
 20
235.187103
 30
0.0
  0
VERTEX
  5
346C
100
AcDbEntity
  8
0
100
AcDbVertex
100
AcDb2dVertex
 10
273.521373
 20
234.219399
 30
0.0
  0
SEQEND
  5
346D
100
AcDbEntity
  8
0
  0
ARC
  5
2BFA
100
AcDbEntity
  8
0
100
AcDbCircle
 10
288.521373
 20
304.699872
 30
0.0
 40
71.5
100
AcDbArc
 50
283.540038
 51
296.210269
  0
POLYLINE
  5
2BFB
100
AcDbEntity
  8
0
100
AcDb2dPolyline
 66
     1
 10
0.0
 20
0.0
 30
0.0
  0
VERTEX
  5
346E
100
AcDbEntity
  8
0
100
AcDbVertex
100
AcDb2dVertex
 10
304.347532
 20
235.187103
 30
0.0
  0
VERTEX
  5
346F
100
AcDbEntity
  8
0
100
AcDbVertex
100
AcDb2dVertex
 10
303.521373
 20
234.219399
 30
0.0
  0
SEQEND
  5
3470
100
AcDbEntity
  8
0
  0
ARC
  5
2C04
100
AcDbEntity
  8
0
100
AcDbCircle
 10
382.94188
 20
243.687103
 30
0.0
 40
8.5
100
AcDbArc
 50
225.0
 51
270.0
  0
POLYLINE
  5
2C06
100
AcDbEntity
  8
0
100
AcDb2dPolyline
 66
     1
 10
0.0
 20
0.0
 30
0.0
  0
VERTEX
  5
3471
100
AcDbEntity
  8
0
100
AcDbVertex
100
AcDb2dVertex
 10
394.594906
 20
235.187103
 30
0.0
  0
VERTEX
  5
3472
100
AcDbEntity
  8
0
100
AcDbVertex
100
AcDb2dVertex
 10
395.421065
 20
234.219399
 30
0.0
  0
SEQEND
  5
3473
100
AcDbEntity
  8
0
  0
LINE
  5
2C08
100
AcDbEntity
  8
0
100
AcDbLine
 10
326.521373
 20
250.869118
 30
0.0
 11
326.521373
 21
304.505088
 31
0.0
  0
LINE
  5
2C09
100
AcDbEntity
  8
0
100
AcDbLine
 10
250.521373
 20
250.869118
 30
0.0
 11
250.521373
 21
304.505088
 31
0.0
  0
LINE
  5
2C0F
100
AcDbEntity
  8
0
100
AcDbLine
 10
271.78145
 20
320.187103
 30
0.0
 11
305.261297
 21
320.187103
 31
0.0
  0
LINE
  5
2C10
100
AcDbEntity
  8
0
100
AcDbLine
 10
303.521373
 20
321.154808
 30
0.0
 11
273.521373
 21
321.154808
 31
0.0
  0
ARC
  5
2C12
100
AcDbEntity
  8
0
100
AcDbCircle
 10
288.521373
 20
250.674335
 30
0.0
 40
71.5
100
AcDbArc
 50
103.540038
 51
116.210269
  0
ARC
  5
2C13
100
AcDbEntity
  8
0
100
AcDbCircle
 10
262.021373
 20
304.505088
 30
0.0
 40
11.5
100
AcDbArc
 50
116.210269
 51
180.0
  0
POLYLINE
  5
2C14
100
AcDbEntity
  8
0
100
AcDb2dPolyline
 66
     1
 10
0.0
 20
0.0
 30
0.0
  0
VERTEX
  5
3474
100
AcDbEntity
  8
0
100
AcDbVertex
100
AcDb2dVertex
 10
272.695215
 20
320.187103
 30
0.0
  0
VERTEX
  5
3475
100
AcDbEntity
  8
0
100
AcDbVertex
100
AcDb2dVertex
 10
273.521373
 20
321.154808
 30
0.0
  0
SEQEND
  5
3476
100
AcDbEntity
  8
0
  0
ARC
  5
2C1B
100
AcDbEntity
  8
0
100
AcDbCircle
 10
288.521373
 20
250.674335
 30
0.0
 40
71.5
100
AcDbArc
 50
63.789731
 51
76.459962
  0
POLYLINE
  5
2C1C
100
AcDbEntity
  8
0
100
AcDb2dPolyline
 66
     1
 10
0.0
 20
0.0
 30
0.0
  0
VERTEX
  5
3477
100
AcDbEntity
  8
0
100
AcDbVertex
100
AcDb2dVertex
 10
304.347532
 20
320.187103
 30
0.0
  0
VERTEX
  5
3478
100
AcDbEntity
  8
0
100
AcDbVertex
100
AcDb2dVertex
 10
303.521373
 20
321.154808
 30
0.0
  0
SEQEND
  5
3479
100
AcDbEntity
  8
0
  0
ARC
  5
2C1E
100
AcDbEntity
  8
0
100
AcDbCircle
 10
315.021373
 20
304.505088
 30
0.0
 40
11.5
100
AcDbArc
 50
0.0
 51
63.789731
  0
ARC
  5
2C23
100
AcDbEntity
  8
0
100
AcDbCircle
 10
366.921065
 20
295.666288
 30
0.0
 40
8.5
100
AcDbArc
 50
135.0
 51
180.0
  0
LINE
  5
2C24
100
AcDbEntity
  8
0
100
AcDbLine
 10
358.421065
 20
295.666288
 30
0.0
 11
358.421065
 21
259.707919
 31
0.0
  0
ARC
  5
2C25
100
AcDbEntity
  8
0
100
AcDbCircle
 10
366.921065
 20
259.707919
 30
0.0
 40
8.5
100
AcDbArc
 50
180.0
 51
225.0
  0
LINE
  5
2C26
100
AcDbEntity
  8
0
100
AcDbLine
 10
360.910657
 20
301.676696
 30
0.0
 11
376.931472
 21
317.697511
 31
0.0
  0
ARC
  5
2C28
100
AcDbEntity
  8
0
100
AcDbCircle
 10
382.94188
 20
311.687103
 30
0.0
 40
8.5
100
AcDbArc
 50
90.0
 51
135.0
  0
POLYLINE
  5
2C29
100
AcDbEntity
  8
0
100
AcDb2dPolyline
 66
     1
 10
0.0
 20
0.0
 30
0.0
  0
VERTEX
  5
347A
100
AcDbEntity
  8
0
100
AcDbVertex
100
AcDb2dVertex
 10
394.594906
 20
320.187103
 30
0.0
  0
VERTEX
  5
347B
100
AcDbEntity
  8
0
100
AcDbVertex
100
AcDb2dVertex
 10
395.421065
 20
321.154808
 30
0.0
  0
SEQEND
  5
347C
100
AcDbEntity
  8
0
  0
LINE
  5
2C30
100
AcDbEntity
  8
0
100
AcDbLine
 10
241.021373
 20
365.187103
 30
0.0
 11
288.521373
 21
365.187103
 31
0.0
  0
TEXT
  5
2C31
100
AcDbEntity
  8
0
100
AcDbText
 10
136.882343
 20
497.50785
 30
0.0
 40
20.0
  1
平面
100
AcDbText
  0
ARC
  5
2C33
100
AcDbEntity
  8
0
100
AcDbCircle
 10
393.648368
 20
510.516084
 30
0.0
 40
38.0
100
AcDbArc
 50
125.393053
 51
234.606947
  0
LINE
  5
2C34
100
AcDbEntity
  8
0
100
AcDbLine
 10
288.521373
 20
365.187103
 30
0.0
 11
336.021373
 21
365.187103
 31
0.0
  0
LINE
  5
2C36
100
AcDbEntity
  8
0
100
AcDbLine
 10
360.148368
 20
595.967703
 30
0.0
 11
407.648368
 21
595.967703
 31
0.0
  0
TEXT
  5
2C37
100
AcDbEntity
  8
0
100
AcDbText
 10
136.882343
 20
664.839351
 30
0.0
 40
20.0
  1
背面
100
AcDbText
  0
ARC
  5
2C38
100
AcDbEntity
  8
0
100
AcDbCircle
 10
392.148368
 20
717.467703
 30
0.0
 40
8.5
100
AcDbArc
 50
90.0
 51
180.0
  0
LINE
  5
2C39
100
AcDbEntity
  8
0
100
AcDbLine
 10
383.648368
 20
717.467703
 30
0.0
 11
383.648368
 21
649.467703
 31
0.0
  0
ARC
  5
2C40
100
AcDbEntity
  8
0
100
AcDbCircle
 10
392.148368
 20
649.467703
 30
0.0
 40
8.5
100
AcDbArc
 50
180.0
 51
270.0
  0
POLYLINE
  5
2C41
100
AcDbEntity
  8
0
100
AcDb2dPolyline
 66
     1
 10
0.0
 20
0.0
 30
0.0
  0
VERTEX
  5
347D
100
AcDbEntity
  8
0
100
AcDbVertex
100
AcDb2dVertex
 10
391.822209
 20
640.967703
 30
0.0
  0
VERTEX
  5
347E
100
AcDbEntity
  8
0
100
AcDbVertex
100
AcDb2dVertex
 10
392.648368
 20
639.999999
 30
0.0
  0
SEQEND
  5
347F
100
AcDbEntity
  8
0
  0
LINE
  5
2C42
100
AcDbEntity
  8
0
100
AcDbLine
 10
360.148368
 20
770.967703
 30
0.0
 11
407.648368
 21
770.967703
 31
0.0
  0
POLYLINE
  5
2C46
100
AcDbEntity
  8
0
100
AcDb2dPolyline
 66
     1
 10
0.0
 20
0.0
 30
0.0
  0
VERTEX
  5
3480
100
AcDbEntity
  8
0
100
AcDbVertex
100
AcDb2dVertex
 10
391.822209
 20
725.967703
 30
0.0
  0
VERTEX
  5
3481
100
AcDbEntity
  8
0
100
AcDbVertex
100
AcDb2dVertex
 10
392.648368
 20
726.935408
 30
0.0
  0
SEQEND
  5
3482
100
AcDbEntity
  8
0
  0
LINE
  5
2C53
100
AcDbEntity
  8
0
100
AcDbLine
 10
556.712832
 20
313.187103
 30
0.0
 11
556.712832
 21
242.187103
 31
0.0
  0
LINE
  5
2C54
100
AcDbEntity
  8
0
100
AcDbLine
 10
556.712832
 20
313.187103
 30
0.0
 11
556.712832
 21
242.187103
 31
0.0
  0
LINE
  5
2C55
100
AcDbEntity
  8
0
100
AcDbLine
 10
480.712832
 20
313.187103
 30
0.0
 11
480.712832
 21
242.187103
 31
0.0
  0
LINE
  5
2C56
100
AcDbEntity
  8
0
100
AcDbLine
 10
480.712832
 20
313.187103
 30
0.0
 11
480.712832
 21
242.187103
 31
0.0
  0
LINE
  5
2C57
100
AcDbEntity
  8
0
100
AcDbLine
 10
434.421065
 20
311.687103
 30
0.0
 11
434.421065
 21
243.687103
 31
0.0
  0
LINE
  5
2C58
100
AcDbEntity
  8
0
100
AcDbLine
 10
549.712832
 20
235.187103
 30
0.0
 11
487.712832
 21
235.187103
 31
0.0
  0
LINE
  5
2C59
100
AcDbEntity
  8
0
100
AcDbLine
 10
471.212832
 20
190.187103
 30
0.0
 11
518.712832
 21
190.187103
 31
0.0
  0
LINE
  5
2C5B
100
AcDbEntity
  8
0
100
AcDbLine
 10
410.421065
 20
190.187103
 30
0.0
 11
457.921065
 21
190.187103
 31
0.0
  0
ARC
  5
2C60
100
AcDbEntity
  8
0
100
AcDbCircle
 10
425.921065
 20
243.687103
 30
0.0
 40
8.5
100
AcDbArc
 50
270.0
 51
0.0
  0
POLYLINE
  5
2C62
100
AcDbEntity
  8
0
100
AcDb2dPolyline
 66
     1
 10
0.0
 20
0.0
 30
0.0
  0
VERTEX
  5
3483
100
AcDbEntity
  8
0
100
AcDbVertex
100
AcDb2dVertex
 10
426.247223
 20
235.187103
 30
0.0
  0
VERTEX
  5
3484
100
AcDbEntity
  8
0
100
AcDbVertex
100
AcDb2dVertex
 10
425.421065
 20
234.219399
 30
0.0
  0
SEQEND
  5
3485
100
AcDbEntity
  8
0
  0
ARC
  5
2C66
100
AcDbEntity
  8
0
100
AcDbCircle
 10
487.712832
 20
242.187103
 30
0.0
 40
7.0
100
AcDbArc
 50
180.0
 51
270.0
  0
LINE
  5
2C69
100
AcDbEntity
  8
0
100
AcDbLine
 10
533.712832
 20
234.219399
 30
0.0
 11
503.712832
 21
234.219399
 31
0.0
  0
LINE
  5
2C6C
100
AcDbEntity
  8
0
100
AcDbLine
 10
518.712832
 20
190.187103
 30
0.0
 11
566.212832
 21
190.187103
 31
0.0
  0
POLYLINE
  5
2C78
100
AcDbEntity
  8
0
100
AcDb2dPolyline
 66
     1
 10
0.0
 20
0.0
 30
0.0
  0
VERTEX
  5
3486
100
AcDbEntity
  8
0
100
AcDbVertex
100
AcDb2dVertex
 10
502.886674
 20
235.187103
 30
0.0
  0
VERTEX
  5
3487
100
AcDbEntity
  8
0
100
AcDbVertex
100
AcDb2dVertex
 10
503.712832
 20
234.219399
 30
0.0
  0
SEQEND
  5
3488
100
AcDbEntity
  8
0
  0
ARC
  5
2C7B
100
AcDbEntity
  8
0
100
AcDbCircle
 10
549.712832
 20
242.187103
 30
0.0
 40
7.0
100
AcDbArc
 50
270.0
 51
0.0
  0
POLYLINE
  5
2C7D
100
AcDbEntity
  8
0
100
AcDb2dPolyline
 66
     1
 10
0.0
 20
0.0
 30
0.0
  0
VERTEX
  5
3489
100
AcDbEntity
  8
0
100
AcDbVertex
100
AcDb2dVertex
 10
534.538991
 20
235.187103
 30
0.0
  0
VERTEX
  5
348A
100
AcDbEntity
  8
0
100
AcDbVertex
100
AcDb2dVertex
 10
533.712832
 20
234.219399
 30
0.0
  0
SEQEND
  5
348B
100
AcDbEntity
  8
0
  0
LINE
  5
2C7F
100
AcDbEntity
  8
0
100
AcDbLine
 10
549.712832
 20
320.187103
 30
0.0
 11
487.712832
 21
320.187103
 31
0.0
  0
ARC
  5
2C81
100
AcDbEntity
  8
0
100
AcDbCircle
 10
425.921065
 20
311.687103
 30
0.0
 40
8.5
100
AcDbArc
 50
0.0
 51
90.0
  0
POLYLINE
  5
2C82
100
AcDbEntity
  8
0
100
AcDb2dPolyline
 66
     1
 10
0.0
 20
0.0
 30
0.0
  0
VERTEX
  5
348C
100
AcDbEntity
  8
0
100
AcDbVertex
100
AcDb2dVertex
 10
426.247223
 20
320.187103
 30
0.0
  0
VERTEX
  5
348D
100
AcDbEntity
  8
0
100
AcDbVertex
100
AcDb2dVertex
 10
425.421065
 20
321.154808
 30
0.0
  0
SEQEND
  5
348E
100
AcDbEntity
  8
0
  0
ARC
  5
2C88
100
AcDbEntity
  8
0
100
AcDbCircle
 10
487.712832
 20
313.187103
 30
0.0
 40
7.0
100
AcDbArc
 50
90.0
 51
180.0
  0
LINE
  5
2C8D
100
AcDbEntity
  8
0
100
AcDbLine
 10
533.712832
 20
321.154808
 30
0.0
 11
503.712832
 21
321.154808
 31
0.0
  0
POLYLINE
  5
2C8F
100
AcDbEntity
  8
0
100
AcDb2dPolyline
 66
     1
 10
0.0
 20
0.0
 30
0.0
  0
VERTEX
  5
348F
100
AcDbEntity
  8
0
100
AcDbVertex
100
AcDb2dVertex
 10
502.886674
 20
320.187103
 30
0.0
  0
VERTEX
  5
3490
100
AcDbEntity
  8
0
100
AcDbVertex
100
AcDb2dVertex
 10
503.712832
 20
321.154808
 30
0.0
  0
SEQEND
  5
3491
100
AcDbEntity
  8
0
  0
ARC
  5
2C9A
100
AcDbEntity
  8
0
100
AcDbCircle
 10
549.712832
 20
313.187103
 30
0.0
 40
7.0
100
AcDbArc
 50
0.0
 51
90.0
  0
POLYLINE
  5
2C9B
100
AcDbEntity
  8
0
100
AcDb2dPolyline
 66
     1
 10
0.0
 20
0.0
 30
0.0
  0
VERTEX
  5
3492
100
AcDbEntity
  8
0
100
AcDbVertex
100
AcDb2dVertex
 10
534.538991
 20
320.187103
 30
0.0
  0
VERTEX
  5
3493
100
AcDbEntity
  8
0
100
AcDbVertex
100
AcDb2dVertex
 10
533.712832
 20
321.154808
 30
0.0
  0
SEQEND
  5
3494
100
AcDbEntity
  8
0
  0
LINE
  5
2C9E
100
AcDbEntity
  8
0
100
AcDbLine
 10
1048.660647
 20
240.119118
 30
0.0
 11
1048.660647
 21
295.255088
 31
0.0
  0
LINE
  5
2C9F
100
AcDbEntity
  8
0
100
AcDbLine
 10
972.660647
 20
240.119118
 30
0.0
 11
972.660647
 21
295.255088
 31
0.0
  0
LINE
  5
2CA0
100
AcDbEntity
  8
0
100
AcDbLine
 10
993.920723
 20
224.437103
 30
0.0
 11
1027.40057
 21
224.437103
 31
0.0
  0
LINE
  5
2CA1
100
AcDbEntity
  8
0
100
AcDbLine
 10
1025.660647
 20
222.996017
 30
0.0
 11
995.660647
 21
222.996017
 31
0.0
  0
LINE
  5
2CA6
100
AcDbEntity
  8
0
100
AcDbLine
 10
960.660647
 20
170.187103
 30
0.0
 11
1010.660647
 21
170.187103
 31
0.0
  0
ARC
  5
2CAE
100
AcDbEntity
  8
0
100
AcDbCircle
 10
984.160647
 20
240.119118
 30
0.0
 40
11.5
100
AcDbArc
 50
180.0
 51
243.789731
  0
LINE
  5
2CAF
100
AcDbEntity
  8
0
100
AcDbLine
 10
995.660647
 20
222.996017
 30
0.0
 11
994.323083
 21
224.437103
 31
0.0
  0
ARC
  5
2CB0
100
AcDbEntity
  8
0
100
AcDbCircle
 10
1010.660647
 20
293.949872
 30
0.0
 40
71.5
100
AcDbArc
 50
243.789731
 51
256.459962
  0
LINE
  5
2CB2
100
AcDbEntity
  8
0
100
AcDbLine
 10
1010.660647
 20
170.187103
 30
0.0
 11
1060.660647
 21
170.187103
 31
0.0
  0
ARC
  5
2CB4
100
AcDbEntity
  8
0
100
AcDbCircle
 10
1010.660647
 20
293.949872
 30
0.0
 40
71.5
100
AcDbArc
 50
283.540038
 51
296.210269
  0
LINE
  5
2CB9
100
AcDbEntity
  8
0
100
AcDbLine
 10
1025.660647
 20
222.996017
 30
0.0
 11
1026.998211
 21
224.437103
 31
0.0
  0
ARC
  5
2CBA
100
AcDbEntity
  8
0
100
AcDbCircle
 10
1037.160647
 20
240.119118
 30
0.0
 40
11.5
100
AcDbArc
 50
296.210269
 51
0.0
  0
LINE
  5
2CC0
100
AcDbEntity
  8
0
100
AcDbLine
 10
993.920723
 20
310.937103
 30
0.0
 11
1027.40057
 21
310.937103
 31
0.0
  0
LINE
  5
2CC1
100
AcDbEntity
  8
0
100
AcDbLine
 10
1025.660647
 20
312.378189
 30
0.0
 11
995.660647
 21
312.378189
 31
0.0
  0
ARC
  5
2CC2
100
AcDbEntity
  8
0
100
AcDbCircle
 10
984.160647
 20
295.255088
 30
0.0
 40
11.5
100
AcDbArc
 50
116.210269
 51
180.0
  0
LINE
  5
2CC4
100
AcDbEntity
  8
0
100
AcDbLine
 10
995.660647
 20
312.378189
 30
0.0
 11
994.323083
 21
310.937103
 31
0.0
  0
ARC
  5
2CC5
100
AcDbEntity
  8
0
100
AcDbCircle
 10
1010.660647
 20
241.424335
 30
0.0
 40
71.5
100
AcDbArc
 50
103.540038
 51
116.210269
  0
ARC
  5
2CCA
100
AcDbEntity
  8
0
100
AcDbCircle
 10
1037.160647
 20
295.255088
 30
0.0
 40
11.5
100
AcDbArc
 50
0.0
 51
63.789731
  0
ARC
  5
2CCC
100
AcDbEntity
  8
0
100
AcDbCircle
 10
1010.660647
 20
241.424335
 30
0.0
 40
71.5
100
AcDbArc
 50
63.789731
 51
76.459962
  0
LINE
  5
2CCE
100
AcDbEntity
  8
0
100
AcDbLine
 10
1025.660647
 20
312.378189
 30
0.0
 11
1026.998211
 21
310.937103
 31
0.0
  0
ARC
  5
2CD2
100
AcDbEntity
  8
0
100
AcDbCircle
 10
1095.710642
 20
248.336598
 30
0.0
 40
7.0
100
AcDbArc
 50
180.0
 51
225.0
  0
LINE
  5
2CD3
100
AcDbEntity
  8
0
100
AcDbLine
 10
1164.710642
 20
231.437103
 30
0.0
 11
1164.710642
 21
303.937103
 31
0.0
  0
LINE
  5
2CD4
100
AcDbEntity
  8
0
100
AcDbLine
 10
1164.710642
 20
231.437103
 30
0.0
 11
1164.710642
 21
303.937103
 31
0.0
  0
LINE
  5
2CD5
100
AcDbEntity
  8
0
100
AcDbLine
 10
1214.957785
 20
303.937103
 30
0.0
 11
1214.957785
 21
232.937103
 31
0.0
  0
LINE
  5
2CD6
100
AcDbEntity
  8
0
100
AcDbLine
 10
1214.957785
 20
303.937103
 30
0.0
 11
1214.957785
 21
231.437103
 31
0.0
  0
ARC
  5
2CD7
100
AcDbEntity
  8
0
100
AcDbCircle
 10
1157.710642
 20
231.437103
 30
0.0
 40
7.0
100
AcDbArc
 50
270.0
 51
0.0
  0
LINE
  5
2CD8
100
AcDbEntity
  8
0
100
AcDbLine
 10
1140.710642
 20
170.187103
 30
0.0
 11
1190.710642
 21
170.187103
 31
0.0
  0
TEXT
  5
2CDB
100
AcDbEntity
  8
0
100
AcDbText
 10
1136.192074
 20
133.268167
 30
0.0
 40
20.0
  1
20A
 41
0.8
 11
1136.192074
 21
133.268167
 31
0.0
100
AcDbText
 73
     1
  0
LINE
  5
2CDD
100
AcDbEntity
  8
0
100
AcDbLine
 10
1090.710642
 20
170.187103
 30
0.0
 11
1140.710642
 21
170.187103
 31
0.0
  0
LINE
  5
2CDF
100
AcDbEntity
  8
0
100
AcDbLine
 10
1157.710642
 20
224.437103
 30
0.0
 11
1112.610137
 21
224.437103
 31
0.0
  0
LINE
  5
2CE0
100
AcDbEntity
  8
0
100
AcDbLine
 10
1090.760894
 20
243.386851
 30
0.0
 11
1107.660389
 21
226.487356
 31
0.0
  0
ARC
  5
2CE1
100
AcDbEntity
  8
0
100
AcDbCircle
 10
1112.610137
 20
231.437103
 30
0.0
 40
7.0
100
AcDbArc
 50
225.0
 51
270.0
  0
LINE
  5
2CEE
100
AcDbEntity
  8
0
100
AcDbLine
 10
1155.710642
 20
222.996017
 30
0.0
 11
1125.710642
 21
222.996017
 31
0.0
  0
LINE
  5
2CEF
100
AcDbEntity
  8
0
100
AcDbLine
 10
1125.710642
 20
222.996017
 30
0.0
 11
1124.373078
 21
224.437103
 31
0.0
  0
LINE
  5
2CF0
100
AcDbEntity
  8
0
100
AcDbLine
 10
1155.710642
 20
222.996017
 30
0.0
 11
1157.048206
 21
224.437103
 31
0.0
  0
ARC
  5
2CF8
100
AcDbEntity
  8
0
100
AcDbCircle
 10
1221.957785
 20
231.437103
 30
0.0
 40
7.0
100
AcDbArc
 50
180.0
 51
270.0
  0
LINE
  5
2CF9
100
AcDbEntity
  8
0
100
AcDbLine
 10
1237.957785
 20
222.996017
 30
0.0
 11
1236.620221
 21
224.437103
 31
0.0
  0
ARC
  5
2CFC
100
AcDbEntity
  8
0
100
AcDbCircle
 10
1157.710642
 20
303.937103
 30
0.0
 40
7.0
100
AcDbArc
 50
0.0
 51
90.0
  0
LINE
  5
2CFD
100
AcDbEntity
  8
0
100
AcDbLine
 10
1090.760894
 20
291.987356
 30
0.0
 11
1107.660389
 21
308.886851
 31
0.0
  0
LINE
  5
2CFE
100
AcDbEntity
  8
0
100
AcDbLine
 10
1088.710642
 20
248.336598
 30
0.0
 11
1088.710642
 21
287.037608
 31
0.0
  0
LINE
  5
2CFF
100
AcDbEntity
  8
0
100
AcDbLine
 10
1088.710642
 20
248.336598
 30
0.0
 11
1088.710642
 21
287.037608
 31
0.0
  0
ARC
  5
2D00
100
AcDbEntity
  8
0
100
AcDbCircle
 10
1095.710642
 20
287.037608
 30
0.0
 40
7.0
100
AcDbArc
 50
135.0
 51
180.0
  0
LINE
  5
2D02
100
AcDbEntity
  8
0
100
AcDbLine
 10
1157.710642
 20
310.937103
 30
0.0
 11
1112.610137
 21
310.937103
 31
0.0
  0
ARC
  5
2D03
100
AcDbEntity
  8
0
100
AcDbCircle
 10
1112.610137
 20
303.937103
 30
0.0
 40
7.0
100
AcDbArc
 50
90.0
 51
135.0
  0
LINE
  5
2D06
100
AcDbEntity
  8
0
100
AcDbLine
 10
1155.710642
 20
312.378189
 30
0.0
 11
1125.710642
 21
312.378189
 31
0.0
  0
LINE
  5
2D07
100
AcDbEntity
  8
0
100
AcDbLine
 10
1125.710642
 20
312.378189
 30
0.0
 11
1124.373078
 21
310.937103
 31
0.0
  0
LINE
  5
2D08
100
AcDbEntity
  8
0
100
AcDbLine
 10
1155.710642
 20
312.378189
 30
0.0
 11
1157.048206
 21
310.937103
 31
0.0
  0
ARC
  5
2D14
100
AcDbEntity
  8
0
100
AcDbCircle
 10
1221.957785
 20
303.937103
 30
0.0
 40
7.0
100
AcDbArc
 50
90.0
 51
180.0
  0
LINE
  5
2D15
100
AcDbEntity
  8
0
100
AcDbLine
 10
1237.957785
 20
312.378189
 30
0.0
 11
1236.620221
 21
310.937103
 31
0.0
  0
LINE
  5
2D1C
100
AcDbEntity
  8
0
100
AcDbLine
 10
471.212832
 20
365.187103
 30
0.0
 11
518.712832
 21
365.187103
 31
0.0
  0
LINE
  5
2D1D
100
AcDbEntity
  8
0
100
AcDbLine
 10
410.421065
 20
365.187103
 30
0.0
 11
457.921065
 21
365.187103
 31
0.0
  0
LINE
  5
2D1E
100
AcDbEntity
  8
0
100
AcDbLine
 10
418.535722
 20
397.802403
 30
0.0
 11
418.535722
 21
383.828216
 31
0.0
  0
LINE
  5
2D1F
100
AcDbEntity
  8
0
100
AcDbLine
 10
413.809034
 20
374.168966
 30
0.0
 11
413.809034
 21
421.437528
 31
0.0
  0
LINE
  5
2D20
100
AcDbEntity
  8
0
100
AcDbLine
 10
418.535722
 20
383.828216
 30
0.0
 11
423.262409
 21
383.828216
 31
0.0
  0
LINE
  5
2D21
100
AcDbEntity
  8
0
100
AcDbLine
 10
423.262409
 20
383.828216
 30
0.0
 11
413.809034
 21
374.168966
 31
0.0
  0
LINE
  5
2D22
100
AcDbEntity
  8
0
100
AcDbLine
 10
413.809034
 20
421.437528
 30
0.0
 11
423.262409
 21
430.890903
 31
0.0
  0
LINE
  5
2D23
100
AcDbEntity
  8
0
100
AcDbLine
 10
423.262409
 20
430.890903
 30
0.0
 11
423.262409
 21
402.530778
 31
0.0
  0
LINE
  5
2D24
100
AcDbEntity
  8
0
100
AcDbLine
 10
423.262409
 20
402.530778
 30
0.0
 11
418.535722
 21
397.802403
 31
0.0
  0
LINE
  5
2D25
100
AcDbEntity
  8
0
100
AcDbLine
 10
518.712832
 20
365.187103
 30
0.0
 11
566.212832
 21
365.187103
 31
0.0
  0
LINE
  5
2D27
100
AcDbEntity
  8
0
100
AcDbLine
 10
457.158775
 20
707.457295
 30
0.0
 11
441.13796
 21
723.478111
 31
0.0
  0
ARC
  5
2D28
100
AcDbEntity
  8
0
100
AcDbCircle
 10
451.148368
 20
665.488518
 30
0.0
 40
8.5
100
AcDbArc
 50
315.0
 51
0.0
  0
LINE
  5
2D29
100
AcDbEntity
  8
0
100
AcDbLine
 10
457.158775
 20
659.478111
 30
0.0
 11
441.13796
 21
643.457295
 31
0.0
  0
POLYLINE
  5
2D30
100
AcDbEntity
  8
0
100
AcDb2dPolyline
 66
     1
 10
0.0
 20
0.0
 30
0.0
  0
VERTEX
  5
3495
100
AcDbEntity
  8
0
100
AcDbVertex
100
AcDb2dVertex
 10
423.474526
 20
640.967703
 30
0.0
  0
VERTEX
  5
3496
100
AcDbEntity
  8
0
100
AcDbVertex
100
AcDb2dVertex
 10
422.648368
 20
639.999999
 30
0.0
  0
SEQEND
  5
3497
100
AcDbEntity
  8
0
  0
ARC
  5
2D31
100
AcDbEntity
  8
0
100
AcDbCircle
 10
435.127552
 20
649.467703
 30
0.0
 40
8.5
100
AcDbArc
 50
270.0
 51
315.0
  0
LINE
  5
2D32
100
AcDbEntity
  8
0
100
AcDbLine
 10
459.648368
 20
701.446888
 30
0.0
 11
459.648368
 21
665.488518
 31
0.0
  0
ARC
  5
2D33
100
AcDbEntity
  8
0
100
AcDbCircle
 10
451.148368
 20
701.446888
 30
0.0
 40
8.5
100
AcDbArc
 50
0.0
 51
45.0
  0
POLYLINE
  5
2D37
100
AcDbEntity
  8
0
100
AcDb2dPolyline
 66
     1
 10
0.0
 20
0.0
 30
0.0
  0
VERTEX
  5
3498
100
AcDbEntity
  8
0
100
AcDbVertex
100
AcDb2dVertex
 10
423.474526
 20
725.967703
 30
0.0
  0
VERTEX
  5
3499
100
AcDbEntity
  8
0
100
AcDbVertex
100
AcDb2dVertex
 10
422.648368
 20
726.935408
 30
0.0
  0
SEQEND
  5
349A
100
AcDbEntity
  8
0
  0
ARC
  5
2D38
100
AcDbEntity
  8
0
100
AcDbCircle
 10
435.127552
 20
717.467703
 30
0.0
 40
8.5
100
AcDbArc
 50
45.0
 51
90.0
  0
LINE
  5
2D3F
100
AcDbEntity
  8
0
100
AcDbLine
 10
960.660647
 20
365.187103
 30
0.0
 11
1010.660647
 21
365.187103
 31
0.0
  0
LINE
  5
2D40
100
AcDbEntity
  8
0
100
AcDbLine
 10
1010.660647
 20
365.187103
 30
0.0
 11
1060.660647
 21
365.187103
 31
0.0
  0
LINE
  5
2D44
100
AcDbEntity
  8
0
100
AcDbLine
 10
1140.710642
 20
365.187103
 30
0.0
 11
1190.710642
 21
365.187103
 31
0.0
  0
LINE
  5
2D45
100
AcDbEntity
  8
0
100
AcDbLine
 10
1090.710642
 20
365.187103
 30
0.0
 11
1140.710642
 21
365.187103
 31
0.0
  0
LINE
  5
2D46
100
AcDbEntity
  8
0
100
AcDbLine
 10
1138.692966
 20
396.546632
 30
0.0
 11
1138.692966
 21
382.572445
 31
0.0
  0
LINE
  5
2D47
100
AcDbEntity
  8
0
100
AcDbLine
 10
1133.966279
 20
372.913195
 30
0.0
 11
1133.966279
 21
420.181757
 31
0.0
  0
LINE
  5
2D48
100
AcDbEntity
  8
0
100
AcDbLine
 10
1138.692966
 20
382.572445
 30
0.0
 11
1143.419654
 21
382.572445
 31
0.0
  0
LINE
  5
2D49
100
AcDbEntity
  8
0
100
AcDbLine
 10
1143.419654
 20
382.572445
 30
0.0
 11
1133.966279
 21
372.913195
 31
0.0
  0
LINE
  5
2D4A
100
AcDbEntity
  8
0
100
AcDbLine
 10
1133.966279
 20
420.181757
 30
0.0
 11
1143.419654
 21
429.635132
 31
0.0
  0
LINE
  5
2D4B
100
AcDbEntity
  8
0
100
AcDbLine
 10
1143.419654
 20
401.275007
 30
0.0
 11
1138.692966
 21
396.546632
 31
0.0
  0
LINE
  5
2D4C
100
AcDbEntity
  8
0
100
AcDbLine
 10
1143.419654
 20
429.635132
 30
0.0
 11
1143.419654
 21
401.275007
 31
0.0
  0
LINE
  5
2D4D
100
AcDbEntity
  8
0
100
AcDbLine
 10
1137.937945
 20
595.362879
 30
0.0
 11
1187.937945
 21
595.362879
 31
0.0
  0
LINE
  5
2D51
100
AcDbEntity
  8
0
100
AcDbLine
 10
1087.937945
 20
595.362879
 30
0.0
 11
1137.937945
 21
595.362879
 31
0.0
  0
LINE
  5
2D52
100
AcDbEntity
  8
0
100
AcDbLine
 10
1187.145059
 20
717.163131
 30
0.0
 11
1170.245565
 21
734.062626
 31
0.0
  0
LINE
  5
2D53
100
AcDbEntity
  8
0
100
AcDbLine
 10
1113.195312
 20
656.612879
 30
0.0
 11
1113.195312
 21
729.112879
 31
0.0
  0
LINE
  5
2D54
100
AcDbEntity
  8
0
100
AcDbLine
 10
1113.195312
 20
656.612879
 30
0.0
 11
1113.195312
 21
729.112879
 31
0.0
  0
LINE
  5
2D55
100
AcDbEntity
  8
0
100
AcDbLine
 10
1120.195312
 20
649.612879
 30
0.0
 11
1166.295817
 21
649.612879
 31
0.0
  0
ARC
  5
2D58
100
AcDbEntity
  8
0
100
AcDbCircle
 10
1120.195312
 20
656.612879
 30
0.0
 40
7.0
100
AcDbArc
 50
180.0
 51
270.0
  0
LINE
  5
2D69
100
AcDbEntity
  8
0
100
AcDbLine
 10
1187.145059
 20
668.562626
 30
0.0
 11
1170.245565
 21
651.663131
 31
0.0
  0
ARC
  5
2D6A
100
AcDbEntity
  8
0
100
AcDbCircle
 10
1165.295817
 20
656.612879
 30
0.0
 40
7.0
100
AcDbArc
 50
270.0
 51
315.0
  0
LINE
  5
2D6B
100
AcDbEntity
  8
0
100
AcDbLine
 10
1189.195312
 20
673.512374
 30
0.0
 11
1189.195312
 21
712.213384
 31
0.0
  0
LINE
  5
2D6C
100
AcDbEntity
  8
0
100
AcDbLine
 10
1189.195312
 20
673.512374
 30
0.0
 11
1189.195312
 21
712.213384
 31
0.0
  0
ARC
  5
2D6D
100
AcDbEntity
  8
0
100
AcDbCircle
 10
1182.195312
 20
673.512374
 30
0.0
 40
7.0
100
AcDbArc
 50
315.0
 51
0.0
  0
ARC
  5
2D6E
100
AcDbEntity
  8
0
100
AcDbCircle
 10
1182.195312
 20
712.213384
 30
0.0
 40
7.0
100
AcDbArc
 50
0.0
 51
45.0
  0
LINE
  5
2D6F
100
AcDbEntity
  8
0
100
AcDbLine
 10
1137.937945
 20
790.362879
 30
0.0
 11
1187.937945
 21
790.362879
 31
0.0
  0
LINE
  5
2D72
100
AcDbEntity
  8
0
100
AcDbLine
 10
1120.195312
 20
736.112879
 30
0.0
 11
1165.295817
 21
736.112879
 31
0.0
  0
ARC
  5
2D75
100
AcDbEntity
  8
0
100
AcDbCircle
 10
1120.195312
 20
729.112879
 30
0.0
 40
7.0
100
AcDbArc
 50
90.0
 51
180.0
  0
LINE
  5
2D85
100
AcDbEntity
  8
0
100
AcDbLine
 10
1087.937945
 20
790.362879
 30
0.0
 11
1137.937945
 21
790.362879
 31
0.0
  0
ARC
  5
2D87
100
AcDbEntity
  8
0
100
AcDbCircle
 10
1165.295817
 20
729.112879
 30
0.0
 40
7.0
100
AcDbArc
 50
45.0
 51
90.0
  0
LINE
  5
2D88
100
AcDbEntity
  8
0
100
AcDbLine
 10
404.647564
 20
1184.467039
 30
0.0
 11
414.100939
 21
1193.920414
 31
0.0
  0
LINE
  5
2D89
100
AcDbEntity
  8
0
100
AcDbLine
 10
414.100939
 20
1165.560289
 30
0.0
 11
409.374251
 21
1160.831914
 31
0.0
  0
LINE
  5
2D8A
100
AcDbEntity
  8
0
100
AcDbLine
 10
409.374251
 20
1146.857726
 30
0.0
 11
414.100939
 21
1146.857726
 31
0.0
  0
LINE
  5
2D8B
100
AcDbEntity
  8
0
100
AcDbLine
 10
414.100939
 20
1146.857726
 30
0.0
 11
404.647564
 21
1137.198476
 31
0.0
  0
ARC
  5
2D8C
100
AcDbEntity
  8
0
100
AcDbCircle
 10
405.446568
 20
1493.043641
 30
0.0
 40
17.286595
100
AcDbArc
 50
237.698151
 51
302.301849
  0
ARC
  5
2D8D
100
AcDbEntity
  8
0
100
AcDbCircle
 10
405.446568
 20
1471.370421
 30
0.0
 40
17.286595
100
AcDbArc
 50
57.698151
 51
122.301849
  0
LINE
  5
2D8E
100
AcDbEntity
  8
0
100
AcDbLine
 10
420.446568
 20
1474.957031
 30
0.0
 11
390.446568
 21
1474.957031
 31
0.0
  0
LINE
  5
2D8F
100
AcDbEntity
  8
0
100
AcDbLine
 10
420.446568
 20
1489.457031
 30
0.0
 11
405.446568
 21
1489.457031
 31
0.0
  0
LINE
  5
2D90
100
AcDbEntity
  8
0
100
AcDbLine
 10
388.446568
 20
1468.457031
 30
0.0
 11
433.547073
 21
1468.457031
 31
0.0
  0
LINE
  5
2D91
100
AcDbEntity
  8
0
100
AcDbLine
 10
420.446568
 20
1469.043428
 30
0.0
 11
390.446568
 21
1469.043428
 31
0.0
  0
ARC
  5
2D92
100
AcDbEntity
  8
0
100
AcDbCircle
 10
405.446568
 20
1358.870421
 30
0.0
 40
17.286595
100
AcDbArc
 50
57.698151
 51
122.301849
  0
ARC
  5
2D93
100
AcDbEntity
  8
0
100
AcDbCircle
 10
405.446568
 20
1380.543641
 30
0.0
 40
17.286595
100
AcDbArc
 50
237.698151
 51
302.301849
  0
LINE
  5
2D94
100
AcDbEntity
  8
0
100
AcDbLine
 10
420.446568
 20
1376.957031
 30
0.0
 11
390.446568
 21
1376.957031
 31
0.0
  0
LINE
  5
2D95
100
AcDbEntity
  8
0
100
AcDbLine
 10
420.446568
 20
1382.870634
 30
0.0
 11
390.446568
 21
1382.870634
 31
0.0
  0
LINE
  5
2D96
100
AcDbEntity
  8
0
100
AcDbLine
 10
388.446568
 20
1383.457031
 30
0.0
 11
433.547073
 21
1383.457031
 31
0.0
  0
LINE
  5
2D97
100
AcDbEntity
  8
0
100
AcDbLine
 10
420.446568
 20
1362.457031
 30
0.0
 11
405.446568
 21
1362.457031
 31
0.0
  0
CIRCLE
  5
2D98
100
AcDbEntity
  8
0
100
AcDbCircle
 10
391.446568
 20
1277.07028
 30
0.0
 40
38.0
  0
POLYLINE
  5
2D99
100
AcDbEntity
  8
0
100
AcDb2dPolyline
 66
     1
 10
0.0
 20
0.0
 30
0.0
 70
     1
  0
VERTEX
  5
349B
100
AcDbEntity
  8
0
100
AcDbVertex
100
AcDb2dVertex
 10
389.446568
 20
1267.832676
 30
0.0
  0
VERTEX
  5
349C
100
AcDbEntity
  8
0
100
AcDbVertex
100
AcDb2dVertex
 10
405.446568
 20
1258.595072
 30
0.0
  0
VERTEX
  5
349D
100
AcDbEntity
  8
0
100
AcDbVertex
100
AcDb2dVertex
 10
421.446568
 20
1267.832676
 30
0.0
  0
VERTEX
  5
349E
100
AcDbEntity
  8
0
100
AcDbVertex
100
AcDb2dVertex
 10
421.446568
 20
1286.307884
 30
0.0
  0
VERTEX
  5
349F
100
AcDbEntity
  8
0
100
AcDbVertex
100
AcDb2dVertex
 10
405.446568
 20
1295.545489
 30
0.0
  0
VERTEX
  5
34A0
100
AcDbEntity
  8
0
100
AcDbVertex
100
AcDb2dVertex
 10
389.446568
 20
1286.307884
 30
0.0
  0
SEQEND
  5
34A1
100
AcDbEntity
  8
0
  0
CIRCLE
  5
2D9A
100
AcDbEntity
  8
0
100
AcDbCircle
 10
405.446568
 20
1277.07028
 30
0.0
 40
16.0
  0
CIRCLE
  5
2D9B
100
AcDbEntity
  8
0
100
AcDbCircle
 10
405.446568
 20
1277.07028
 30
0.0
 40
9.3155
  0
ARC
  5
2D9C
100
AcDbEntity
  8
0
100
AcDbCircle
 10
405.446568
 20
1109.701588
 30
0.0
 40
17.286595
100
AcDbArc
 50
57.698151
 51
122.301849
  0
ARC
  5
2D9D
100
AcDbEntity
  8
0
100
AcDbCircle
 10
405.446568
 20
1131.374808
 30
0.0
 40
17.286595
100
AcDbArc
 50
237.698151
 51
302.301849
  0
LINE
  5
2D9E
100
AcDbEntity
  8
0
100
AcDbLine
 10
390.446568
 20
1107.374595
 30
0.0
 11
420.446568
 21
1107.374595
 31
0.0
  0
LINE
  5
2D9F
100
AcDbEntity
  8
0
100
AcDbLine
 10
422.446568
 20
1106.788198
 30
0.0
 11
377.346063
 21
1106.788198
 31
0.0
  0
LINE
  5
2DA0
100
AcDbEntity
  8
0
100
AcDbLine
 10
390.446568
 20
1113.288198
 30
0.0
 11
420.446568
 21
1113.288198
 31
0.0
  0
LINE
  5
2DA1
100
AcDbEntity
  8
0
100
AcDbLine
 10
405.446568
 20
1127.788198
 30
0.0
 11
420.446568
 21
1127.788198
 31
0.0
  0
ARC
  5
2DA2
100
AcDbEntity
  8
0
100
AcDbCircle
 10
405.446568
 20
997.201588
 30
0.0
 40
17.286595
100
AcDbArc
 50
57.698151
 51
122.301849
  0
ARC
  5
2DA3
100
AcDbEntity
  8
0
100
AcDbCircle
 10
405.446568
 20
1018.874808
 30
0.0
 40
17.286595
100
AcDbArc
 50
237.698151
 51
302.301849
  0
LINE
  5
2DA4
100
AcDbEntity
  8
0
100
AcDbLine
 10
422.446568
 20
1021.788198
 30
0.0
 11
377.346063
 21
1021.788198
 31
0.0
  0
LINE
  5
2DA5
100
AcDbEntity
  8
0
100
AcDbLine
 10
390.446568
 20
1021.201802
 30
0.0
 11
420.446568
 21
1021.201802
 31
0.0
  0
LINE
  5
2DA6
100
AcDbEntity
  8
0
100
AcDbLine
 10
390.446568
 20
1015.288198
 30
0.0
 11
420.446568
 21
1015.288198
 31
0.0
  0
LINE
  5
2DA7
100
AcDbEntity
  8
0
100
AcDbLine
 10
405.446568
 20
1000.788198
 30
0.0
 11
420.446568
 21
1000.788198
 31
0.0
  0
TEXT
  5
2DA8
100
AcDbEntity
  8
0
100
AcDbText
 10
384.043021
 20
956.666707
 30
0.0
 40
20.0
  1
15A
 41
0.8
 11
384.043021
 21
956.666707
 31
0.0
100
AcDbText
 73
     1
  0
LINE
  5
2DA9
100
AcDbEntity
  8
0
100
AcDbLine
 10
381.446568
 20
1461.457031
 30
0.0
 11
381.446568
 21
1390.457031
 31
0.0
  0
LINE
  5
2DAA
100
AcDbEntity
  8
0
100
AcDbLine
 10
381.446568
 20
1461.457031
 30
0.0
 11
381.446568
 21
1390.457031
 31
0.0
  0
ARC
  5
2DAB
100
AcDbEntity
  8
0
100
AcDbCircle
 10
271.16654
 20
1037.27543
 30
0.0
 40
71.5
100
AcDbArc
 50
103.540038
 51
116.210269
  0
ARC
  5
2DAC
100
AcDbEntity
  8
0
100
AcDbCircle
 10
271.16654
 20
1091.300967
 30
0.0
 40
71.5
100
AcDbArc
 50
243.789731
 51
256.459962
  0
TEXT
  5
2DAD
100
AcDbEntity
  8
0
100
AcDbText
 10
136.882343
 20
1050.91631
 30
0.0
 40
20.0
  1
正面
100
AcDbText
  0
LINE
  5
2DAE
100
AcDbEntity
  8
0
100
AcDbLine
 10
233.16654
 20
1037.470213
 30
0.0
 11
233.16654
 21
1091.106183
 31
0.0
  0
ARC
  5
2DAF
100
AcDbEntity
  8
0
100
AcDbCircle
 10
244.66654
 20
1037.470213
 30
0.0
 40
11.5
100
AcDbArc
 50
180.0
 51
243.789731
  0
ARC
  5
2DB0
100
AcDbEntity
  8
0
100
AcDbCircle
 10
244.66654
 20
1091.106183
 30
0.0
 40
11.5
100
AcDbArc
 50
116.210269
 51
180.0
  0
ARC
  5
2DB1
100
AcDbEntity
  8
0
100
AcDbCircle
 10
377.346063
 20
1028.788198
 30
0.0
 40
7.0
100
AcDbArc
 50
225.0
 51
270.0
  0
ARC
  5
2DB2
100
AcDbEntity
  8
0
100
AcDbCircle
 10
271.16654
 20
1091.300967
 30
0.0
 40
71.5
100
AcDbArc
 50
283.540038
 51
296.210269
  0
LINE
  5
2DB3
100
AcDbEntity
  8
0
100
AcDbLine
 10
254.426617
 20
1021.788198
 30
0.0
 11
287.906463
 21
1021.788198
 31
0.0
  0
LINE
  5
2DB4
100
AcDbEntity
  8
0
100
AcDbLine
 10
286.16654
 20
1015.288198
 30
0.0
 11
256.16654
 21
1015.288198
 31
0.0
  0
ARC
  5
2DB5
100
AcDbEntity
  8
0
100
AcDbCircle
 10
263.16654
 20
1001.216527
 30
0.0
 40
13.277237
100
AcDbArc
 50
52.94833
 51
127.05167
  0
LINE
  5
2DB6
100
AcDbEntity
  8
0
100
AcDbLine
 10
286.16654
 20
1021.201802
 30
0.0
 11
256.16654
 21
1021.201802
 31
0.0
  0
LINE
  5
2DB7
100
AcDbEntity
  8
0
100
AcDbLine
 10
271.16654
 20
1000.788198
 30
0.0
 11
256.16654
 21
1000.788198
 31
0.0
  0
ARC
  5
2DB8
100
AcDbEntity
  8
0
100
AcDbCircle
 10
263.16654
 20
1014.85987
 30
0.0
 40
13.277237
100
AcDbArc
 50
232.94833
 51
307.05167
  0
LINE
  5
2DB9
100
AcDbEntity
  8
0
100
AcDbLine
 10
256.16654
 20
1015.288198
 30
0.0
 11
255.16654
 21
1011.81299
 31
0.0
  0
LINE
  5
2DBA
100
AcDbEntity
  8
0
100
AcDbLine
 10
256.16654
 20
1015.288198
 30
0.0
 11
256.16654
 21
1021.201802
 31
0.0
  0
LINE
  5
2DBB
100
AcDbEntity
  8
0
100
AcDbLine
 10
256.16654
 20
1000.788198
 30
0.0
 11
255.16654
 21
1004.263407
 31
0.0
  0
LINE
  5
2DBC
100
AcDbEntity
  8
0
100
AcDbLine
 10
255.16654
 20
1011.81299
 30
0.0
 11
255.16654
 21
1004.263407
 31
0.0
  0
LINE
  5
2DBD
100
AcDbEntity
  8
0
100
AcDbLine
 10
286.16654
 20
1015.288198
 30
0.0
 11
287.16654
 21
1011.81299
 31
0.0
  0
ARC
  5
2DBE
100
AcDbEntity
  8
0
100
AcDbCircle
 10
279.16654
 20
1001.216527
 30
0.0
 40
13.277237
100
AcDbArc
 50
52.94833
 51
127.05167
  0
LINE
  5
2DBF
100
AcDbEntity
  8
0
100
AcDbLine
 10
286.16654
 20
1015.288198
 30
0.0
 11
286.16654
 21
1021.201802
 31
0.0
  0
POLYLINE
  5
2DC0
100
AcDbEntity
  8
0
100
AcDb2dPolyline
 66
     1
 10
0.0
 20
0.0
 30
0.0
  0
VERTEX
  5
34A2
100
AcDbEntity
  8
0
100
AcDbVertex
100
AcDb2dVertex
 10
286.627044
 20
1021.788198
 30
0.0
  0
VERTEX
  5
34A3
100
AcDbEntity
  8
0
100
AcDbVertex
100
AcDb2dVertex
 10
286.16654
 20
1021.201802
 30
0.0
  0
SEQEND
  5
34A4
100
AcDbEntity
  8
0
  0
LINE
  5
2DC1
100
AcDbEntity
  8
0
100
AcDbLine
 10
286.16654
 20
1000.788198
 30
0.0
 11
271.16654
 21
1000.788198
 31
0.0
  0
LINE
  5
2DC2
100
AcDbEntity
  8
0
100
AcDbLine
 10
286.16654
 20
1000.788198
 30
0.0
 11
287.16654
 21
1004.263407
 31
0.0
  0
ARC
  5
2DC3
100
AcDbEntity
  8
0
100
AcDbCircle
 10
279.16654
 20
1014.85987
 30
0.0
 40
13.277237
100
AcDbArc
 50
232.94833
 51
307.05167
  0
LINE
  5
2DC4
100
AcDbEntity
  8
0
100
AcDbLine
 10
287.16654
 20
1011.81299
 30
0.0
 11
287.16654
 21
1004.263407
 31
0.0
  0
LINE
  5
2DC5
100
AcDbEntity
  8
0
100
AcDbLine
 10
271.16654
 20
1011.81299
 30
0.0
 11
271.16654
 21
1004.263407
 31
0.0
  0
ARC
  5
2DC6
100
AcDbEntity
  8
0
100
AcDbCircle
 10
391.590162
 20
1009.163337
 30
0.0
 40
5.324847
100
AcDbArc
 50
29.841453
 51
119.841453
  0
LINE
  5
2DC7
100
AcDbEntity
  8
0
100
AcDbLine
 10
390.446568
 20
1015.288198
 30
0.0
 11
386.97136
 21
1011.81299
 31
0.0
  0
ARC
  5
2DC8
100
AcDbEntity
  8
0
100
AcDbCircle
 10
391.590162
 20
1006.913059
 30
0.0
 40
5.324847
100
AcDbArc
 50
240.158547
 51
330.158547
  0
LINE
  5
2DC9
100
AcDbEntity
  8
0
100
AcDbLine
 10
390.446568
 20
1000.788198
 30
0.0
 11
386.97136
 21
1004.263407
 31
0.0
  0
LINE
  5
2DCA
100
AcDbEntity
  8
0
100
AcDbLine
 10
386.97136
 20
1011.81299
 30
0.0
 11
386.97136
 21
1004.263407
 31
0.0
  0
LINE
  5
2DCB
100
AcDbEntity
  8
0
100
AcDbLine
 10
390.446568
 20
1015.288198
 30
0.0
 11
390.446568
 21
1021.201802
 31
0.0
  0
POLYLINE
  5
2DCC
100
AcDbEntity
  8
0
100
AcDb2dPolyline
 66
     1
 10
0.0
 20
0.0
 30
0.0
  0
VERTEX
  5
34A5
100
AcDbEntity
  8
0
100
AcDbVertex
100
AcDb2dVertex
 10
389.986064
 20
1021.788198
 30
0.0
  0
VERTEX
  5
34A6
100
AcDbEntity
  8
0
100
AcDbVertex
100
AcDb2dVertex
 10
390.446568
 20
1021.201802
 30
0.0
  0
SEQEND
  5
34A7
100
AcDbEntity
  8
0
  0
LINE
  5
2DCD
100
AcDbEntity
  8
0
100
AcDbLine
 10
390.446568
 20
1000.788198
 30
0.0
 11
405.446568
 21
1000.788198
 31
0.0
  0
LINE
  5
2DCE
100
AcDbEntity
  8
0
100
AcDbLine
 10
396.208964
 20
1011.81299
 30
0.0
 11
396.208964
 21
1004.263407
 31
0.0
  0
LINE
  5
2DCF
100
AcDbEntity
  8
0
100
AcDbLine
 10
309.16654
 20
1037.470213
 30
0.0
 11
309.16654
 21
1091.106183
 31
0.0
  0
ARC
  5
2DD0
100
AcDbEntity
  8
0
100
AcDbCircle
 10
297.66654
 20
1037.470213
 30
0.0
 40
11.5
100
AcDbArc
 50
296.210269
 51
0.0
  0
ARC
  5
2DD1
100
AcDbEntity
  8
0
100
AcDbCircle
 10
271.16654
 20
1037.27543
 30
0.0
 40
71.5
100
AcDbArc
 50
63.789731
 51
76.459962
  0
LINE
  5
2DD2
100
AcDbEntity
  8
0
100
AcDbLine
 10
286.16654
 20
1113.288198
 30
0.0
 11
286.16654
 21
1107.374595
 31
0.0
  0
LINE
  5
2DD3
100
AcDbEntity
  8
0
100
AcDbLine
 10
256.16654
 20
1113.288198
 30
0.0
 11
256.16654
 21
1107.374595
 31
0.0
  0
LINE
  5
2DD4
100
AcDbEntity
  8
0
100
AcDbLine
 10
254.426617
 20
1106.788198
 30
0.0
 11
287.906463
 21
1106.788198
 31
0.0
  0
LINE
  5
2DD5
100
AcDbEntity
  8
0
100
AcDbLine
 10
286.16654
 20
1107.374595
 30
0.0
 11
256.16654
 21
1107.374595
 31
0.0
  0
POLYLINE
  5
2DD6
100
AcDbEntity
  8
0
100
AcDb2dPolyline
 66
     1
 10
0.0
 20
0.0
 30
0.0
  0
VERTEX
  5
34A8
100
AcDbEntity
  8
0
100
AcDbVertex
100
AcDb2dVertex
 10
255.706036
 20
1106.788198
 30
0.0
  0
VERTEX
  5
34A9
100
AcDbEntity
  8
0
100
AcDbVertex
100
AcDb2dVertex
 10
256.16654
 20
1107.374595
 30
0.0
  0
SEQEND
  5
34AA
100
AcDbEntity
  8
0
  0
POLYLINE
  5
2DD7
100
AcDbEntity
  8
0
100
AcDb2dPolyline
 66
     1
 10
0.0
 20
0.0
 30
0.0
  0
VERTEX
  5
34AB
100
AcDbEntity
  8
0
100
AcDbVertex
100
AcDb2dVertex
 10
286.627044
 20
1106.788198
 30
0.0
  0
VERTEX
  5
34AC
100
AcDbEntity
  8
0
100
AcDbVertex
100
AcDb2dVertex
 10
286.16654
 20
1107.374595
 30
0.0
  0
SEQEND
  5
34AD
100
AcDbEntity
  8
0
  0
ARC
  5
2DD8
100
AcDbEntity
  8
0
100
AcDbCircle
 10
263.16654
 20
1113.716527
 30
0.0
 40
13.277237
100
AcDbArc
 50
52.94833
 51
127.05167
  0
LINE
  5
2DD9
100
AcDbEntity
  8
0
100
AcDbLine
 10
271.16654
 20
1127.788198
 30
0.0
 11
256.16654
 21
1127.788198
 31
0.0
  0
LINE
  5
2DDA
100
AcDbEntity
  8
0
100
AcDbLine
 10
286.16654
 20
1113.288198
 30
0.0
 11
256.16654
 21
1113.288198
 31
0.0
  0
ARC
  5
2DDB
100
AcDbEntity
  8
0
100
AcDbCircle
 10
263.16654
 20
1127.35987
 30
0.0
 40
13.277237
100
AcDbArc
 50
232.94833
 51
307.05167
  0
LINE
  5
2DDC
100
AcDbEntity
  8
0
100
AcDbLine
 10
256.16654
 20
1127.788198
 30
0.0
 11
255.16654
 21
1124.31299
 31
0.0
  0
LINE
  5
2DDD
100
AcDbEntity
  8
0
100
AcDbLine
 10
255.16654
 20
1116.763407
 30
0.0
 11
255.16654
 21
1124.31299
 31
0.0
  0
LINE
  5
2DDE
100
AcDbEntity
  8
0
100
AcDbLine
 10
256.16654
 20
1113.288198
 30
0.0
 11
255.16654
 21
1116.763407
 31
0.0
  0
ARC
  5
2DDF
100
AcDbEntity
  8
0
100
AcDbCircle
 10
279.16654
 20
1113.716527
 30
0.0
 40
13.277237
100
AcDbArc
 50
52.94833
 51
127.05167
  0
LINE
  5
2DE0
100
AcDbEntity
  8
0
100
AcDbLine
 10
286.16654
 20
1127.788198
 30
0.0
 11
287.16654
 21
1124.31299
 31
0.0
  0
LINE
  5
2DE1
100
AcDbEntity
  8
0
100
AcDbLine
 10
271.16654
 20
1116.763407
 30
0.0
 11
271.16654
 21
1124.31299
 31
0.0
  0
LINE
  5
2DE2
100
AcDbEntity
  8
0
100
AcDbLine
 10
287.16654
 20
1116.763407
 30
0.0
 11
287.16654
 21
1124.31299
 31
0.0
  0
LINE
  5
2DE3
100
AcDbEntity
  8
0
100
AcDbLine
 10
286.16654
 20
1127.788198
 30
0.0
 11
271.16654
 21
1127.788198
 31
0.0
  0
ARC
  5
2DE4
100
AcDbEntity
  8
0
100
AcDbCircle
 10
279.16654
 20
1127.35987
 30
0.0
 40
13.277237
100
AcDbArc
 50
232.94833
 51
307.05167
  0
LINE
  5
2DE5
100
AcDbEntity
  8
0
100
AcDbLine
 10
286.16654
 20
1113.288198
 30
0.0
 11
287.16654
 21
1116.763407
 31
0.0
  0
ARC
  5
2DE6
100
AcDbEntity
  8
0
100
AcDbCircle
 10
297.66654
 20
1091.106183
 30
0.0
 40
11.5
100
AcDbArc
 50
0.0
 51
63.789731
  0
LINE
  5
2DE7
100
AcDbEntity
  8
0
100
AcDbLine
 10
353.446568
 20
1082.888703
 30
0.0
 11
353.446568
 21
1045.687693
 31
0.0
  0
LINE
  5
2DE8
100
AcDbEntity
  8
0
100
AcDbLine
 10
353.446568
 20
1082.888703
 30
0.0
 11
353.446568
 21
1045.687693
 31
0.0
  0
LINE
  5
2DE9
100
AcDbEntity
  8
0
100
AcDbLine
 10
355.496821
 20
1040.737946
 30
0.0
 11
372.396316
 21
1023.838451
 31
0.0
  0
ARC
  5
2DEA
100
AcDbEntity
  8
0
100
AcDbCircle
 10
360.446568
 20
1045.687693
 30
0.0
 40
7.0
100
AcDbArc
 50
180.0
 51
225.0
  0
LINE
  5
2DEB
100
AcDbEntity
  8
0
100
AcDbLine
 10
355.496821
 20
1087.838451
 30
0.0
 11
372.396316
 21
1104.737946
 31
0.0
  0
ARC
  5
2DEC
100
AcDbEntity
  8
0
100
AcDbCircle
 10
360.446568
 20
1082.888703
 30
0.0
 40
7.0
100
AcDbArc
 50
135.0
 51
180.0
  0
LINE
  5
2DED
100
AcDbEntity
  8
0
100
AcDbLine
 10
390.446568
 20
1113.288198
 30
0.0
 11
390.446568
 21
1107.374595
 31
0.0
  0
ARC
  5
2DEE
100
AcDbEntity
  8
0
100
AcDbCircle
 10
377.346063
 20
1099.788198
 30
0.0
 40
7.0
100
AcDbArc
 50
90.0
 51
135.0
  0
POLYLINE
  5
2DEF
100
AcDbEntity
  8
0
100
AcDb2dPolyline
 66
     1
 10
0.0
 20
0.0
 30
0.0
  0
VERTEX
  5
34AE
100
AcDbEntity
  8
0
100
AcDbVertex
100
AcDb2dVertex
 10
389.986064
 20
1106.788198
 30
0.0
  0
VERTEX
  5
34AF
100
AcDbEntity
  8
0
100
AcDbVertex
100
AcDb2dVertex
 10
390.446568
 20
1107.374595
 30
0.0
  0
SEQEND
  5
34B0
100
AcDbEntity
  8
0
  0
ARC
  5
2DF0
100
AcDbEntity
  8
0
100
AcDbCircle
 10
391.590162
 20
1121.663337
 30
0.0
 40
5.324847
100
AcDbArc
 50
29.841453
 51
119.841453
  0
LINE
  5
2DF1
100
AcDbEntity
  8
0
100
AcDbLine
 10
390.446568
 20
1127.788198
 30
0.0
 11
386.97136
 21
1124.31299
 31
0.0
  0
ARC
  5
2DF2
100
AcDbEntity
  8
0
100
AcDbCircle
 10
391.590162
 20
1119.413059
 30
0.0
 40
5.324847
100
AcDbArc
 50
240.158547
 51
330.158547
  0
LINE
  5
2DF3
100
AcDbEntity
  8
0
100
AcDbLine
 10
390.446568
 20
1113.288198
 30
0.0
 11
386.97136
 21
1116.763407
 31
0.0
  0
LINE
  5
2DF4
100
AcDbEntity
  8
0
100
AcDbLine
 10
386.97136
 20
1116.763407
 30
0.0
 11
386.97136
 21
1124.31299
 31
0.0
  0
LINE
  5
2DF5
100
AcDbEntity
  8
0
100
AcDbLine
 10
390.446568
 20
1127.788198
 30
0.0
 11
405.446568
 21
1127.788198
 31
0.0
  0
LINE
  5
2DF6
100
AcDbEntity
  8
0
100
AcDbLine
 10
396.208964
 20
1116.763407
 30
0.0
 11
396.208964
 21
1124.31299
 31
0.0
  0
TEXT
  5
2DF7
100
AcDbEntity
  8
0
100
AcDbText
 10
136.882343
 20
1240.578309
 30
0.0
 40
20.0
  1
平面
100
AcDbText
  0
LINE
  5
2DF8
100
AcDbEntity
  8
0
100
AcDbLine
 10
404.647564
 20
1137.198476
 30
0.0
 11
404.647564
 21
1184.467039
 31
0.0
  0
LINE
  5
2DF9
100
AcDbEntity
  8
0
100
AcDbLine
 10
409.374251
 20
1160.831914
 30
0.0
 11
409.374251
 21
1146.857726
 31
0.0
  0
LINE
  5
2DFA
100
AcDbEntity
  8
0
100
AcDbLine
 10
390.446568
 20
1362.457031
 30
0.0
 11
386.97136
 21
1365.93224
 31
0.0
  0
ARC
  5
2DFB
100
AcDbEntity
  8
0
100
AcDbCircle
 10
391.590162
 20
1368.581892
 30
0.0
 40
5.324847
100
AcDbArc
 50
240.158547
 51
330.158547
  0
LINE
  5
2DFC
100
AcDbEntity
  8
0
100
AcDbLine
 10
405.446568
 20
1362.457031
 30
0.0
 11
390.446568
 21
1362.457031
 31
0.0
  0
LINE
  5
2DFD
100
AcDbEntity
  8
0
100
AcDbLine
 10
390.446568
 20
1376.957031
 30
0.0
 11
386.97136
 21
1373.481822
 31
0.0
  0
ARC
  5
2DFE
100
AcDbEntity
  8
0
100
AcDbCircle
 10
391.590162
 20
1370.83217
 30
0.0
 40
5.324847
100
AcDbArc
 50
29.841453
 51
119.841453
  0
ARC
  5
2DFF
100
AcDbEntity
  8
0
100
AcDbCircle
 10
388.446568
 20
1390.457031
 30
0.0
 40
7.0
100
AcDbArc
 50
180.0
 51
270.0
  0
LINE
  5
2E00
100
AcDbEntity
  8
0
100
AcDbLine
 10
386.97136
 20
1373.481822
 30
0.0
 11
386.97136
 21
1365.93224
 31
0.0
  0
POLYLINE
  5
2E01
100
AcDbEntity
  8
0
100
AcDb2dPolyline
 66
     1
 10
0.0
 20
0.0
 30
0.0
  0
VERTEX
  5
34B1
100
AcDbEntity
  8
0
100
AcDbVertex
100
AcDb2dVertex
 10
389.986064
 20
1383.457031
 30
0.0
  0
VERTEX
  5
34B2
100
AcDbEntity
  8
0
100
AcDbVertex
100
AcDb2dVertex
 10
390.446568
 20
1382.870634
 30
0.0
  0
SEQEND
  5
34B3
100
AcDbEntity
  8
0
  0
LINE
  5
2E02
100
AcDbEntity
  8
0
100
AcDbLine
 10
396.208964
 20
1373.481822
 30
0.0
 11
396.208964
 21
1365.93224
 31
0.0
  0
LINE
  5
2E03
100
AcDbEntity
  8
0
100
AcDbLine
 10
390.446568
 20
1376.957031
 30
0.0
 11
390.446568
 21
1382.870634
 31
0.0
  0
TEXT
  5
2E04
100
AcDbEntity
  8
0
100
AcDbText
 10
136.882343
 20
1407.90981
 30
0.0
 40
20.0
  1
背面
100
AcDbText
  0
LINE
  5
2E05
100
AcDbEntity
  8
0
100
AcDbLine
 10
386.97136
 20
1478.43224
 30
0.0
 11
386.97136
 21
1485.981822
 31
0.0
  0
LINE
  5
2E06
100
AcDbEntity
  8
0
100
AcDbLine
 10
396.208964
 20
1478.43224
 30
0.0
 11
396.208964
 21
1485.981822
 31
0.0
  0
LINE
  5
2E07
100
AcDbEntity
  8
0
100
AcDbLine
 10
390.446568
 20
1474.957031
 30
0.0
 11
386.97136
 21
1478.43224
 31
0.0
  0
ARC
  5
2E08
100
AcDbEntity
  8
0
100
AcDbCircle
 10
391.590162
 20
1481.081892
 30
0.0
 40
5.324847
100
AcDbArc
 50
240.158547
 51
330.158547
  0
ARC
  5
2E09
100
AcDbEntity
  8
0
100
AcDbCircle
 10
388.446568
 20
1461.457031
 30
0.0
 40
7.0
100
AcDbArc
 50
90.0
 51
180.0
  0
POLYLINE
  5
2E0A
100
AcDbEntity
  8
0
100
AcDb2dPolyline
 66
     1
 10
0.0
 20
0.0
 30
0.0
  0
VERTEX
  5
34B4
100
AcDbEntity
  8
0
100
AcDbVertex
100
AcDb2dVertex
 10
389.986064
 20
1468.457031
 30
0.0
  0
VERTEX
  5
34B5
100
AcDbEntity
  8
0
100
AcDbVertex
100
AcDb2dVertex
 10
390.446568
 20
1469.043428
 30
0.0
  0
SEQEND
  5
34B6
100
AcDbEntity
  8
0
  0
LINE
  5
2E0B
100
AcDbEntity
  8
0
100
AcDbLine
 10
390.446568
 20
1474.957031
 30
0.0
 11
390.446568
 21
1469.043428
 31
0.0
  0
LINE
  5
2E0C
100
AcDbEntity
  8
0
100
AcDbLine
 10
390.446568
 20
1489.457031
 30
0.0
 11
386.97136
 21
1485.981822
 31
0.0
  0
ARC
  5
2E0D
100
AcDbEntity
  8
0
100
AcDbCircle
 10
391.590162
 20
1483.33217
 30
0.0
 40
5.324847
100
AcDbArc
 50
29.841453
 51
119.841453
  0
LINE
  5
2E0E
100
AcDbEntity
  8
0
100
AcDbLine
 10
405.446568
 20
1489.457031
 30
0.0
 11
390.446568
 21
1489.457031
 31
0.0
  0
LINE
  5
2E0F
100
AcDbEntity
  8
0
100
AcDbLine
 10
455.396316
 20
1402.406778
 30
0.0
 11
438.496821
 21
1385.507284
 31
0.0
  0
LINE
  5
2E10
100
AcDbEntity
  8
0
100
AcDbLine
 10
1105.384393
 20
1456.504121
 30
0.0
 11
1105.384393
 21
1385.504121
 31
0.0
  0
LINE
  5
2E11
100
AcDbEntity
  8
0
100
AcDbLine
 10
1105.384393
 20
1456.504121
 30
0.0
 11
1105.384393
 21
1385.504121
 31
0.0
  0
ARC
  5
2E12
100
AcDbEntity
  8
0
100
AcDbCircle
 10
422.446568
 20
1028.788198
 30
0.0
 40
7.0
100
AcDbArc
 50
270.0
 51
0.0
  0
ARC
  5
2E13
100
AcDbEntity
  8
0
100
AcDbCircle
 10
544.738336
 20
1028.788198
 30
0.0
 40
7.0
100
AcDbArc
 50
270.0
 51
0.0
  0
ARC
  5
2E14
100
AcDbEntity
  8
0
100
AcDbCircle
 10
482.738336
 20
1028.788198
 30
0.0
 40
7.0
100
AcDbArc
 50
180.0
 51
270.0
  0
LINE
  5
2E15
100
AcDbEntity
  8
0
100
AcDbLine
 10
544.738336
 20
1021.788198
 30
0.0
 11
482.738336
 21
1021.788198
 31
0.0
  0
LINE
  5
2E16
100
AcDbEntity
  8
0
100
AcDbLine
 10
420.446568
 20
1015.288198
 30
0.0
 11
423.921777
 21
1011.81299
 31
0.0
  0
LINE
  5
2E17
100
AcDbEntity
  8
0
100
AcDbLine
 10
420.446568
 20
1015.288198
 30
0.0
 11
420.446568
 21
1021.201802
 31
0.0
  0
POLYLINE
  5
2E18
100
AcDbEntity
  8
0
100
AcDb2dPolyline
 66
     1
 10
0.0
 20
0.0
 30
0.0
  0
VERTEX
  5
34B7
100
AcDbEntity
  8
0
100
AcDbVertex
100
AcDb2dVertex
 10
420.907072
 20
1021.788198
 30
0.0
  0
VERTEX
  5
34B8
100
AcDbEntity
  8
0
100
AcDbVertex
100
AcDb2dVertex
 10
420.446568
 20
1021.201802
 30
0.0
  0
SEQEND
  5
34B9
100
AcDbEntity
  8
0
  0
LINE
  5
2E19
100
AcDbEntity
  8
0
100
AcDbLine
 10
420.446568
 20
1000.788198
 30
0.0
 11
423.921777
 21
1004.263407
 31
0.0
  0
LINE
  5
2E1A
100
AcDbEntity
  8
0
100
AcDbLine
 10
423.921777
 20
1011.81299
 30
0.0
 11
423.921777
 21
1004.263407
 31
0.0
  0
LINE
  5
2E1B
100
AcDbEntity
  8
0
100
AcDbLine
 10
414.684173
 20
1011.81299
 30
0.0
 11
414.684173
 21
1004.263407
 31
0.0
  0
ARC
  5
2E1C
100
AcDbEntity
  8
0
100
AcDbCircle
 10
419.302975
 20
1009.163337
 30
0.0
 40
5.324847
100
AcDbArc
 50
60.158547
 51
150.158547
  0
ARC
  5
2E1D
100
AcDbEntity
  8
0
100
AcDbCircle
 10
419.302975
 20
1006.913059
 30
0.0
 40
5.324847
100
AcDbArc
 50
209.841453
 51
299.841453
  0
ARC
  5
2E1E
100
AcDbEntity
  8
0
100
AcDbCircle
 10
505.738336
 20
1001.216527
 30
0.0
 40
13.277237
100
AcDbArc
 50
52.94833
 51
127.05167
  0
ARC
  5
2E1F
100
AcDbEntity
  8
0
100
AcDbCircle
 10
505.738336
 20
1014.85987
 30
0.0
 40
13.277237
100
AcDbArc
 50
232.94833
 51
307.05167
  0
LINE
  5
2E20
100
AcDbEntity
  8
0
100
AcDbLine
 10
498.738336
 20
1000.788198
 30
0.0
 11
513.738336
 21
1000.788198
 31
0.0
  0
LINE
  5
2E21
100
AcDbEntity
  8
0
100
AcDbLine
 10
498.738336
 20
1021.201802
 30
0.0
 11
528.738336
 21
1021.201802
 31
0.0
  0
LINE
  5
2E22
100
AcDbEntity
  8
0
100
AcDbLine
 10
498.738336
 20
1015.288198
 30
0.0
 11
528.738336
 21
1015.288198
 31
0.0
  0
POLYLINE
  5
2E23
100
AcDbEntity
  8
0
100
AcDb2dPolyline
 66
     1
 10
0.0
 20
0.0
 30
0.0
  0
VERTEX
  5
34BA
100
AcDbEntity
  8
0
100
AcDbVertex
100
AcDb2dVertex
 10
498.277832
 20
1021.788198
 30
0.0
  0
VERTEX
  5
34BB
100
AcDbEntity
  8
0
100
AcDbVertex
100
AcDb2dVertex
 10
498.738336
 20
1021.201802
 30
0.0
  0
SEQEND
  5
34BC
100
AcDbEntity
  8
0
  0
LINE
  5
2E24
100
AcDbEntity
  8
0
100
AcDbLine
 10
498.738336
 20
1015.288198
 30
0.0
 11
498.738336
 21
1021.201802
 31
0.0
  0
LINE
  5
2E25
100
AcDbEntity
  8
0
100
AcDbLine
 10
498.738336
 20
1015.288198
 30
0.0
 11
497.738336
 21
1011.81299
 31
0.0
  0
LINE
  5
2E26
100
AcDbEntity
  8
0
100
AcDbLine
 10
498.738336
 20
1000.788198
 30
0.0
 11
497.738336
 21
1004.263407
 31
0.0
  0
LINE
  5
2E27
100
AcDbEntity
  8
0
100
AcDbLine
 10
497.738336
 20
1011.81299
 30
0.0
 11
497.738336
 21
1004.263407
 31
0.0
  0
POLYLINE
  5
2E28
100
AcDbEntity
  8
0
100
AcDb2dPolyline
 66
     1
 10
0.0
 20
0.0
 30
0.0
  0
VERTEX
  5
34BD
100
AcDbEntity
  8
0
100
AcDbVertex
100
AcDb2dVertex
 10
529.19884
 20
1021.788198
 30
0.0
  0
VERTEX
  5
34BE
100
AcDbEntity
  8
0
100
AcDbVertex
100
AcDb2dVertex
 10
528.738336
 20
1021.201802
 30
0.0
  0
SEQEND
  5
34BF
100
AcDbEntity
  8
0
  0
LINE
  5
2E29
100
AcDbEntity
  8
0
100
AcDbLine
 10
528.738336
 20
1015.288198
 30
0.0
 11
528.738336
 21
1021.201802
 31
0.0
  0
LINE
  5
2E2A
100
AcDbEntity
  8
0
100
AcDbLine
 10
528.738336
 20
1015.288198
 30
0.0
 11
529.738336
 21
1011.81299
 31
0.0
  0
LINE
  5
2E2B
100
AcDbEntity
  8
0
100
AcDbLine
 10
528.738336
 20
1000.788198
 30
0.0
 11
529.738336
 21
1004.263407
 31
0.0
  0
LINE
  5
2E2C
100
AcDbEntity
  8
0
100
AcDbLine
 10
529.738336
 20
1011.81299
 30
0.0
 11
529.738336
 21
1004.263407
 31
0.0
  0
LINE
  5
2E2D
100
AcDbEntity
  8
0
100
AcDbLine
 10
513.738336
 20
1011.81299
 30
0.0
 11
513.738336
 21
1004.263407
 31
0.0
  0
ARC
  5
2E2E
100
AcDbEntity
  8
0
100
AcDbCircle
 10
521.738336
 20
1001.216527
 30
0.0
 40
13.277237
100
AcDbArc
 50
52.94833
 51
127.05167
  0
ARC
  5
2E2F
100
AcDbEntity
  8
0
100
AcDbCircle
 10
521.738336
 20
1014.85987
 30
0.0
 40
13.277237
100
AcDbArc
 50
232.94833
 51
307.05167
  0
LINE
  5
2E30
100
AcDbEntity
  8
0
100
AcDbLine
 10
513.738336
 20
1000.788198
 30
0.0
 11
528.738336
 21
1000.788198
 31
0.0
  0
LINE
  5
2E31
100
AcDbEntity
  8
0
100
AcDbLine
 10
544.738336
 20
1106.788198
 30
0.0
 11
482.738336
 21
1106.788198
 31
0.0
  0
LINE
  5
2E32
100
AcDbEntity
  8
0
100
AcDbLine
 10
429.446568
 20
1099.788198
 30
0.0
 11
429.446568
 21
1028.788198
 31
0.0
  0
LINE
  5
2E33
100
AcDbEntity
  8
0
100
AcDbLine
 10
429.446568
 20
1099.788198
 30
0.0
 11
429.446568
 21
1028.788198
 31
0.0
  0
LINE
  5
2E34
100
AcDbEntity
  8
0
100
AcDbLine
 10
475.738336
 20
1099.788198
 30
0.0
 11
475.738336
 21
1028.788198
 31
0.0
  0
LINE
  5
2E35
100
AcDbEntity
  8
0
100
AcDbLine
 10
475.738336
 20
1099.788198
 30
0.0
 11
475.738336
 21
1028.788198
 31
0.0
  0
LINE
  5
2E36
100
AcDbEntity
  8
0
100
AcDbLine
 10
420.446568
 20
1113.288198
 30
0.0
 11
420.446568
 21
1107.374595
 31
0.0
  0
ARC
  5
2E37
100
AcDbEntity
  8
0
100
AcDbCircle
 10
422.446568
 20
1099.788198
 30
0.0
 40
7.0
100
AcDbArc
 50
0.0
 51
90.0
  0
POLYLINE
  5
2E38
100
AcDbEntity
  8
0
100
AcDb2dPolyline
 66
     1
 10
0.0
 20
0.0
 30
0.0
  0
VERTEX
  5
34C0
100
AcDbEntity
  8
0
100
AcDbVertex
100
AcDb2dVertex
 10
420.907072
 20
1106.788198
 30
0.0
  0
VERTEX
  5
34C1
100
AcDbEntity
  8
0
100
AcDbVertex
100
AcDb2dVertex
 10
420.446568
 20
1107.374595
 30
0.0
  0
SEQEND
  5
34C2
100
AcDbEntity
  8
0
  0
LINE
  5
2E39
100
AcDbEntity
  8
0
100
AcDbLine
 10
420.446568
 20
1127.788198
 30
0.0
 11
423.921777
 21
1124.31299
 31
0.0
  0
LINE
  5
2E3A
100
AcDbEntity
  8
0
100
AcDbLine
 10
423.921777
 20
1116.763407
 30
0.0
 11
423.921777
 21
1124.31299
 31
0.0
  0
LINE
  5
2E3B
100
AcDbEntity
  8
0
100
AcDbLine
 10
420.446568
 20
1113.288198
 30
0.0
 11
423.921777
 21
1116.763407
 31
0.0
  0
LINE
  5
2E3C
100
AcDbEntity
  8
0
100
AcDbLine
 10
414.684173
 20
1116.763407
 30
0.0
 11
414.684173
 21
1124.31299
 31
0.0
  0
ARC
  5
2E3D
100
AcDbEntity
  8
0
100
AcDbCircle
 10
419.302975
 20
1119.413059
 30
0.0
 40
5.324847
100
AcDbArc
 50
209.841453
 51
299.841453
  0
ARC
  5
2E3E
100
AcDbEntity
  8
0
100
AcDbCircle
 10
419.302975
 20
1121.663337
 30
0.0
 40
5.324847
100
AcDbArc
 50
60.158547
 51
150.158547
  0
ARC
  5
2E3F
100
AcDbEntity
  8
0
100
AcDbCircle
 10
482.738336
 20
1099.788198
 30
0.0
 40
7.0
100
AcDbArc
 50
90.0
 51
180.0
  0
LINE
  5
2E40
100
AcDbEntity
  8
0
100
AcDbLine
 10
551.738336
 20
1099.788198
 30
0.0
 11
551.738336
 21
1028.788198
 31
0.0
  0
LINE
  5
2E41
100
AcDbEntity
  8
0
100
AcDbLine
 10
551.738336
 20
1099.788198
 30
0.0
 11
551.738336
 21
1028.788198
 31
0.0
  0
LINE
  5
2E42
100
AcDbEntity
  8
0
100
AcDbLine
 10
528.738336
 20
1113.288198
 30
0.0
 11
528.738336
 21
1107.374595
 31
0.0
  0
LINE
  5
2E43
100
AcDbEntity
  8
0
100
AcDbLine
 10
498.738336
 20
1113.288198
 30
0.0
 11
498.738336
 21
1107.374595
 31
0.0
  0
LINE
  5
2E44
100
AcDbEntity
  8
0
100
AcDbLine
 10
498.738336
 20
1107.374595
 30
0.0
 11
528.738336
 21
1107.374595
 31
0.0
  0
POLYLINE
  5
2E45
100
AcDbEntity
  8
0
100
AcDb2dPolyline
 66
     1
 10
0.0
 20
0.0
 30
0.0
  0
VERTEX
  5
34C3
100
AcDbEntity
  8
0
100
AcDbVertex
100
AcDb2dVertex
 10
498.277832
 20
1106.788198
 30
0.0
  0
VERTEX
  5
34C4
100
AcDbEntity
  8
0
100
AcDbVertex
100
AcDb2dVertex
 10
498.738336
 20
1107.374595
 30
0.0
  0
SEQEND
  5
34C5
100
AcDbEntity
  8
0
  0
POLYLINE
  5
2E46
100
AcDbEntity
  8
0
100
AcDb2dPolyline
 66
     1
 10
0.0
 20
0.0
 30
0.0
  0
VERTEX
  5
34C6
100
AcDbEntity
  8
0
100
AcDbVertex
100
AcDb2dVertex
 10
529.19884
 20
1106.788198
 30
0.0
  0
VERTEX
  5
34C7
100
AcDbEntity
  8
0
100
AcDbVertex
100
AcDb2dVertex
 10
528.738336
 20
1107.374595
 30
0.0
  0
SEQEND
  5
34C8
100
AcDbEntity
  8
0
  0
LINE
  5
2E47
100
AcDbEntity
  8
0
100
AcDbLine
 10
498.738336
 20
1127.788198
 30
0.0
 11
513.738336
 21
1127.788198
 31
0.0
  0
ARC
  5
2E48
100
AcDbEntity
  8
0
100
AcDbCircle
 10
505.738336
 20
1113.716527
 30
0.0
 40
13.277237
100
AcDbArc
 50
52.94833
 51
127.05167
  0
ARC
  5
2E49
100
AcDbEntity
  8
0
100
AcDbCircle
 10
505.738336
 20
1127.35987
 30
0.0
 40
13.277237
100
AcDbArc
 50
232.94833
 51
307.05167
  0
LINE
  5
2E4A
100
AcDbEntity
  8
0
100
AcDbLine
 10
498.738336
 20
1113.288198
 30
0.0
 11
528.738336
 21
1113.288198
 31
0.0
  0
LINE
  5
2E4B
100
AcDbEntity
  8
0
100
AcDbLine
 10
498.738336
 20
1127.788198
 30
0.0
 11
497.738336
 21
1124.31299
 31
0.0
  0
LINE
  5
2E4C
100
AcDbEntity
  8
0
100
AcDbLine
 10
497.738336
 20
1116.763407
 30
0.0
 11
497.738336
 21
1124.31299
 31
0.0
  0
LINE
  5
2E4D
100
AcDbEntity
  8
0
100
AcDbLine
 10
498.738336
 20
1113.288198
 30
0.0
 11
497.738336
 21
1116.763407
 31
0.0
  0
LINE
  5
2E4E
100
AcDbEntity
  8
0
100
AcDbLine
 10
529.738336
 20
1116.763407
 30
0.0
 11
529.738336
 21
1124.31299
 31
0.0
  0
LINE
  5
2E4F
100
AcDbEntity
  8
0
100
AcDbLine
 10
528.738336
 20
1127.788198
 30
0.0
 11
529.738336
 21
1124.31299
 31
0.0
  0
LINE
  5
2E50
100
AcDbEntity
  8
0
100
AcDbLine
 10
528.738336
 20
1113.288198
 30
0.0
 11
529.738336
 21
1116.763407
 31
0.0
  0
LINE
  5
2E51
100
AcDbEntity
  8
0
100
AcDbLine
 10
513.738336
 20
1116.763407
 30
0.0
 11
513.738336
 21
1124.31299
 31
0.0
  0
LINE
  5
2E52
100
AcDbEntity
  8
0
100
AcDbLine
 10
513.738336
 20
1127.788198
 30
0.0
 11
528.738336
 21
1127.788198
 31
0.0
  0
ARC
  5
2E53
100
AcDbEntity
  8
0
100
AcDbCircle
 10
521.738336
 20
1113.716527
 30
0.0
 40
13.277237
100
AcDbArc
 50
52.94833
 51
127.05167
  0
ARC
  5
2E54
100
AcDbEntity
  8
0
100
AcDbCircle
 10
521.738336
 20
1127.35987
 30
0.0
 40
13.277237
100
AcDbArc
 50
232.94833
 51
307.05167
  0
ARC
  5
2E55
100
AcDbEntity
  8
0
100
AcDbCircle
 10
544.738336
 20
1099.788198
 30
0.0
 40
7.0
100
AcDbArc
 50
0.0
 51
90.0
  0
LINE
  5
2E56
100
AcDbEntity
  8
0
100
AcDbLine
 10
414.100939
 20
1193.920414
 30
0.0
 11
414.100939
 21
1165.560289
 31
0.0
  0
LINE
  5
2E57
100
AcDbEntity
  8
0
100
AcDbLine
 10
420.446568
 20
1362.457031
 30
0.0
 11
423.921777
 21
1365.93224
 31
0.0
  0
ARC
  5
2E58
100
AcDbEntity
  8
0
100
AcDbCircle
 10
419.302975
 20
1368.581892
 30
0.0
 40
5.324847
100
AcDbArc
 50
209.841453
 51
299.841453
  0
POLYLINE
  5
2E59
100
AcDbEntity
  8
0
100
AcDb2dPolyline
 66
     1
 10
0.0
 20
0.0
 30
0.0
  0
VERTEX
  5
34C9
100
AcDbEntity
  8
0
100
AcDbVertex
100
AcDb2dVertex
 10
420.907072
 20
1383.457031
 30
0.0
  0
VERTEX
  5
34CA
100
AcDbEntity
  8
0
100
AcDbVertex
100
AcDb2dVertex
 10
420.446568
 20
1382.870634
 30
0.0
  0
SEQEND
  5
34CB
100
AcDbEntity
  8
0
  0
LINE
  5
2E5A
100
AcDbEntity
  8
0
100
AcDbLine
 10
420.446568
 20
1376.957031
 30
0.0
 11
423.921777
 21
1373.481822
 31
0.0
  0
LINE
  5
2E5B
100
AcDbEntity
  8
0
100
AcDbLine
 10
423.921777
 20
1373.481822
 30
0.0
 11
423.921777
 21
1365.93224
 31
0.0
  0
LINE
  5
2E5C
100
AcDbEntity
  8
0
100
AcDbLine
 10
420.446568
 20
1376.957031
 30
0.0
 11
420.446568
 21
1382.870634
 31
0.0
  0
LINE
  5
2E5D
100
AcDbEntity
  8
0
100
AcDbLine
 10
414.684173
 20
1373.481822
 30
0.0
 11
414.684173
 21
1365.93224
 31
0.0
  0
ARC
  5
2E5E
100
AcDbEntity
  8
0
100
AcDbCircle
 10
419.302975
 20
1370.83217
 30
0.0
 40
5.324847
100
AcDbArc
 50
60.158547
 51
150.158547
  0
ARC
  5
2E5F
100
AcDbEntity
  8
0
100
AcDbCircle
 10
433.547073
 20
1390.457031
 30
0.0
 40
7.0
100
AcDbArc
 50
270.0
 51
315.0
  0
LINE
  5
2E60
100
AcDbEntity
  8
0
100
AcDbLine
 10
981.834398
 20
1135.585288
 30
0.0
 11
999.334398
 21
1135.585288
 31
0.0
  0
ARC
  5
2E61
100
AcDbEntity
  8
0
100
AcDbCircle
 10
990.334398
 20
1136.386487
 30
0.0
 40
20.826955
100
AcDbArc
 50
244.397043
 51
295.602957
  0
LINE
  5
2E62
100
AcDbEntity
  8
0
100
AcDbLine
 10
982.594475
 20
1101.835288
 30
0.0
 11
1016.074321
 21
1101.835288
 31
0.0
  0
LINE
  5
2E63
100
AcDbEntity
  8
0
100
AcDbLine
 10
1014.334398
 20
1102.70948
 30
0.0
 11
984.334398
 21
1102.70948
 31
0.0
  0
LINE
  5
2E64
100
AcDbEntity
  8
0
100
AcDbLine
 10
984.334398
 20
1107.585288
 30
0.0
 11
1014.334398
 21
1107.585288
 31
0.0
  0
ARC
  5
2E65
100
AcDbEntity
  8
0
100
AcDbCircle
 10
990.334398
 20
1113.501741
 30
0.0
 40
20.842265
100
AcDbArc
 50
64.417209
 51
115.582791
  0
LINE
  5
2E66
100
AcDbEntity
  8
0
100
AcDbLine
 10
982.594475
 20
1016.835288
 30
0.0
 11
1016.074321
 21
1016.835288
 31
0.0
  0
LINE
  5
2E67
100
AcDbEntity
  8
0
100
AcDbLine
 10
984.334398
 20
1011.085288
 30
0.0
 11
1014.334398
 21
1011.085288
 31
0.0
  0
LINE
  5
2E68
100
AcDbEntity
  8
0
100
AcDbLine
 10
1014.334398
 20
1015.961096
 30
0.0
 11
984.334398
 21
1015.961096
 31
0.0
  0
ARC
  5
2E69
100
AcDbEntity
  8
0
100
AcDbCircle
 10
990.334398
 20
982.284089
 30
0.0
 40
20.826955
100
AcDbArc
 50
64.397043
 51
115.602957
  0
ARC
  5
2E6A
100
AcDbEntity
  8
0
100
AcDbCircle
 10
990.334398
 20
1005.168834
 30
0.0
 40
20.842265
100
AcDbArc
 50
244.417209
 51
295.582791
  0
LINE
  5
2E6B
100
AcDbEntity
  8
0
100
AcDbLine
 10
981.834398
 20
983.085288
 30
0.0
 11
999.334398
 21
983.085288
 31
0.0
  0
ARC
  5
2E6C
100
AcDbEntity
  8
0
100
AcDbCircle
 10
972.834398
 20
1032.517303
 30
0.0
 40
11.5
100
AcDbArc
 50
180.0
 51
243.789731
  0
LINE
  5
2E6D
100
AcDbEntity
  8
0
100
AcDbLine
 10
981.334398
 20
1001.06605
 30
0.0
 11
981.334398
 21
986.369898
 31
0.0
  0
LINE
  5
2E6E
100
AcDbEntity
  8
0
100
AcDbLine
 10
981.334398
 20
986.369898
 30
0.0
 11
981.834398
 21
983.085288
 31
0.0
  0
ARC
  5
2E6F
100
AcDbEntity
  8
0
100
AcDbCircle
 10
999.334398
 20
1086.348056
 30
0.0
 40
71.5
100
AcDbArc
 50
243.789731
 51
256.459962
  0
LINE
  5
2E70
100
AcDbEntity
  8
0
100
AcDbLine
 10
984.334398
 20
1015.961096
 30
0.0
 11
984.334398
 21
1011.085288
 31
0.0
  0
LINE
  5
2E71
100
AcDbEntity
  8
0
100
AcDbLine
 10
983.44166
 20
1016.835288
 30
0.0
 11
984.334398
 21
1015.961096
 31
0.0
  0
LINE
  5
2E72
100
AcDbEntity
  8
0
100
AcDbLine
 10
984.334398
 20
1011.085288
 30
0.0
 11
981.334398
 21
1001.06605
 31
0.0
  0
LINE
  5
2E73
100
AcDbEntity
  8
0
100
AcDbLine
 10
961.334398
 20
1032.517303
 30
0.0
 11
961.334398
 21
1086.153273
 31
0.0
  0
LINE
  5
2E74
100
AcDbEntity
  8
0
100
AcDbLine
 10
984.334398
 20
1107.585288
 30
0.0
 11
981.334398
 21
1117.604526
 31
0.0
  0
ARC
  5
2E75
100
AcDbEntity
  8
0
100
AcDbCircle
 10
999.334398
 20
1032.32252
 30
0.0
 40
71.5
100
AcDbArc
 50
103.540038
 51
116.210269
  0
ARC
  5
2E76
100
AcDbEntity
  8
0
100
AcDbCircle
 10
972.834398
 20
1086.153273
 30
0.0
 40
11.5
100
AcDbArc
 50
116.210269
 51
180.0
  0
LINE
  5
2E77
100
AcDbEntity
  8
0
100
AcDbLine
 10
983.44166
 20
1101.835288
 30
0.0
 11
984.334398
 21
1102.70948
 31
0.0
  0
LINE
  5
2E78
100
AcDbEntity
  8
0
100
AcDbLine
 10
984.334398
 20
1102.70948
 30
0.0
 11
984.334398
 21
1107.585288
 31
0.0
  0
LINE
  5
2E79
100
AcDbEntity
  8
0
100
AcDbLine
 10
981.334398
 20
1117.604526
 30
0.0
 11
981.334398
 21
1132.300678
 31
0.0
  0
LINE
  5
2E7A
100
AcDbEntity
  8
0
100
AcDbLine
 10
981.334398
 20
1132.300678
 30
0.0
 11
981.834398
 21
1135.585288
 31
0.0
  0
ARC
  5
2E7B
100
AcDbEntity
  8
0
100
AcDbCircle
 10
1025.834398
 20
1032.517303
 30
0.0
 40
11.5
100
AcDbArc
 50
296.210269
 51
0.0
  0
LINE
  5
2E7C
100
AcDbEntity
  8
0
100
AcDbLine
 10
1079.434646
 20
1035.785035
 30
0.0
 11
1096.334141
 21
1018.88554
 31
0.0
  0
LINE
  5
2E7D
100
AcDbEntity
  8
0
100
AcDbLine
 10
1017.334398
 20
1001.06605
 30
0.0
 11
1017.334398
 21
986.369898
 31
0.0
  0
LINE
  5
2E7E
100
AcDbEntity
  8
0
100
AcDbLine
 10
999.334398
 20
1001.06605
 30
0.0
 11
999.334398
 21
986.369898
 31
0.0
  0
ARC
  5
2E7F
100
AcDbEntity
  8
0
100
AcDbCircle
 10
1008.334398
 20
1005.168834
 30
0.0
 40
20.842265
100
AcDbArc
 50
244.417209
 51
295.582791
  0
LINE
  5
2E80
100
AcDbEntity
  8
0
100
AcDbLine
 10
999.334398
 20
983.085288
 30
0.0
 11
1016.834398
 21
983.085288
 31
0.0
  0
LINE
  5
2E81
100
AcDbEntity
  8
0
100
AcDbLine
 10
1017.334398
 20
986.369898
 30
0.0
 11
1016.834398
 21
983.085288
 31
0.0
  0
ARC
  5
2E82
100
AcDbEntity
  8
0
100
AcDbCircle
 10
1008.334398
 20
982.284089
 30
0.0
 40
20.826955
100
AcDbArc
 50
64.397043
 51
115.602957
  0
ARC
  5
2E83
100
AcDbEntity
  8
0
100
AcDbCircle
 10
999.334398
 20
1086.348056
 30
0.0
 40
71.5
100
AcDbArc
 50
283.540038
 51
296.210269
  0
LINE
  5
2E84
100
AcDbEntity
  8
0
100
AcDbLine
 10
1015.227136
 20
1016.835288
 30
0.0
 11
1014.334398
 21
1015.961096
 31
0.0
  0
LINE
  5
2E85
100
AcDbEntity
  8
0
100
AcDbLine
 10
1014.334398
 20
1015.961096
 30
0.0
 11
1014.334398
 21
1011.085288
 31
0.0
  0
LINE
  5
2E86
100
AcDbEntity
  8
0
100
AcDbLine
 10
1014.334398
 20
1011.085288
 30
0.0
 11
1017.334398
 21
1001.06605
 31
0.0
  0
TEXT
  5
2E87
100
AcDbEntity
  8
0
100
AcDbText
 10
1108.217611
 20
940.850758
 30
0.0
 40
20.0
  1
20A
 41
0.8
 11
1108.217611
 21
940.850758
 31
0.0
100
AcDbText
 73
     1
  0
LINE
  5
2E88
100
AcDbEntity
  8
0
100
AcDbLine
 10
1113.491656
 20
1016.835288
 30
0.0
 11
1114.384393
 21
1015.961096
 31
0.0
  0
LINE
  5
2E89
100
AcDbEntity
  8
0
100
AcDbLine
 10
1146.384393
 20
1016.835288
 30
0.0
 11
1101.283888
 21
1016.835288
 31
0.0
  0
ARC
  5
2E8A
100
AcDbEntity
  8
0
100
AcDbCircle
 10
1113.795936
 20
994.81344
 30
0.0
 40
7.56827
100
AcDbArc
 50
46.640741
 51
133.359259
  0
LINE
  5
2E8B
100
AcDbEntity
  8
0
100
AcDbLine
 10
1114.384393
 20
1010.335288
 30
0.0
 11
1108.599784
 21
1000.31605
 31
0.0
  0
ARC
  5
2E8C
100
AcDbEntity
  8
0
100
AcDbCircle
 10
1113.795936
 20
991.122507
 30
0.0
 40
7.56827
100
AcDbArc
 50
226.640741
 51
313.359259
  0
LINE
  5
2E8D
100
AcDbEntity
  8
0
100
AcDbLine
 10
1111.884393
 20
982.335288
 30
0.0
 11
1129.384393
 21
982.335288
 31
0.0
  0
LINE
  5
2E8E
100
AcDbEntity
  8
0
100
AcDbLine
 10
1108.599784
 20
1000.31605
 30
0.0
 11
1108.599784
 21
985.619898
 31
0.0
  0
LINE
  5
2E8F
100
AcDbEntity
  8
0
100
AcDbLine
 10
1108.599784
 20
985.619898
 30
0.0
 11
1111.884393
 21
982.335288
 31
0.0
  0
ARC
  5
2E90
100
AcDbEntity
  8
0
100
AcDbCircle
 10
1101.283888
 20
1023.835288
 30
0.0
 40
7.0
100
AcDbArc
 50
225.0
 51
270.0
  0
LINE
  5
2E91
100
AcDbEntity
  8
0
100
AcDbLine
 10
1139.776698
 20
1000.31605
 30
0.0
 11
1139.776698
 21
985.619898
 31
0.0
  0
LINE
  5
2E92
100
AcDbEntity
  8
0
100
AcDbLine
 10
1118.992088
 20
1000.31605
 30
0.0
 11
1118.992088
 21
985.619898
 31
0.0
  0
LINE
  5
2E93
100
AcDbEntity
  8
0
100
AcDbLine
 10
1150.169003
 20
1000.31605
 30
0.0
 11
1150.169003
 21
985.619898
 31
0.0
  0
ARC
  5
2E94
100
AcDbEntity
  8
0
100
AcDbCircle
 10
1129.384393
 20
1011.033494
 30
0.0
 40
27.456345
100
AcDbArc
 50
247.759024
 51
292.240976
  0
LINE
  5
2E95
100
AcDbEntity
  8
0
100
AcDbLine
 10
1129.384393
 20
982.335288
 30
0.0
 11
1146.884393
 21
982.335288
 31
0.0
  0
LINE
  5
2E96
100
AcDbEntity
  8
0
100
AcDbLine
 10
1150.169003
 20
985.619898
 30
0.0
 11
1146.884393
 21
982.335288
 31
0.0
  0
ARC
  5
2E97
100
AcDbEntity
  8
0
100
AcDbCircle
 10
1144.972851
 20
991.122507
 30
0.0
 40
7.56827
100
AcDbArc
 50
226.640741
 51
313.359259
  0
LINE
  5
2E98
100
AcDbEntity
  8
0
100
AcDbLine
 10
1114.384393
 20
1010.335288
 30
0.0
 11
1144.384393
 21
1010.335288
 31
0.0
  0
LINE
  5
2E99
100
AcDbEntity
  8
0
100
AcDbLine
 10
1144.384393
 20
1015.961096
 30
0.0
 11
1114.384393
 21
1015.961096
 31
0.0
  0
ARC
  5
2E9A
100
AcDbEntity
  8
0
100
AcDbCircle
 10
1129.384393
 20
974.902454
 30
0.0
 40
27.456345
100
AcDbArc
 50
67.759024
 51
112.240976
  0
LINE
  5
2E9B
100
AcDbEntity
  8
0
100
AcDbLine
 10
1114.384393
 20
1015.961096
 30
0.0
 11
1114.384393
 21
1010.335288
 31
0.0
  0
LINE
  5
2E9C
100
AcDbEntity
  8
0
100
AcDbLine
 10
1144.384393
 20
1015.961096
 30
0.0
 11
1144.384393
 21
1010.335288
 31
0.0
  0
LINE
  5
2E9D
100
AcDbEntity
  8
0
100
AcDbLine
 10
1145.277131
 20
1016.835288
 30
0.0
 11
1144.384393
 21
1015.961096
 31
0.0
  0
ARC
  5
2E9E
100
AcDbEntity
  8
0
100
AcDbCircle
 10
1144.972851
 20
994.81344
 30
0.0
 40
7.56827
100
AcDbArc
 50
46.640741
 51
133.359259
  0
LINE
  5
2E9F
100
AcDbEntity
  8
0
100
AcDbLine
 10
1144.384393
 20
1010.335288
 30
0.0
 11
1150.169003
 21
1000.31605
 31
0.0
  0
LINE
  5
2EA0
100
AcDbEntity
  8
0
100
AcDbLine
 10
1037.334398
 20
1032.517303
 30
0.0
 11
1037.334398
 21
1086.153273
 31
0.0
  0
ARC
  5
2EA1
100
AcDbEntity
  8
0
100
AcDbCircle
 10
1025.834398
 20
1086.153273
 30
0.0
 40
11.5
100
AcDbArc
 50
0.0
 51
63.789731
  0
LINE
  5
2EA2
100
AcDbEntity
  8
0
100
AcDbLine
 10
1014.334398
 20
1107.585288
 30
0.0
 11
1017.334398
 21
1117.604526
 31
0.0
  0
LINE
  5
2EA3
100
AcDbEntity
  8
0
100
AcDbLine
 10
1014.334398
 20
1102.70948
 30
0.0
 11
1014.334398
 21
1107.585288
 31
0.0
  0
LINE
  5
2EA4
100
AcDbEntity
  8
0
100
AcDbLine
 10
1015.227136
 20
1101.835288
 30
0.0
 11
1014.334398
 21
1102.70948
 31
0.0
  0
ARC
  5
2EA5
100
AcDbEntity
  8
0
100
AcDbCircle
 10
999.334398
 20
1032.32252
 30
0.0
 40
71.5
100
AcDbArc
 50
63.789731
 51
76.459962
  0
LINE
  5
2EA6
100
AcDbEntity
  8
0
100
AcDbLine
 10
999.334398
 20
1135.585288
 30
0.0
 11
1016.834398
 21
1135.585288
 31
0.0
  0
ARC
  5
2EA7
100
AcDbEntity
  8
0
100
AcDbCircle
 10
1008.334398
 20
1136.386487
 30
0.0
 40
20.826955
100
AcDbArc
 50
244.397043
 51
295.602957
  0
ARC
  5
2EA8
100
AcDbEntity
  8
0
100
AcDbCircle
 10
1008.334398
 20
1113.501741
 30
0.0
 40
20.842265
100
AcDbArc
 50
64.417209
 51
115.582791
  0
LINE
  5
2EA9
100
AcDbEntity
  8
0
100
AcDbLine
 10
999.334398
 20
1117.604526
 30
0.0
 11
999.334398
 21
1132.300678
 31
0.0
  0
LINE
  5
2EAA
100
AcDbEntity
  8
0
100
AcDbLine
 10
1017.334398
 20
1117.604526
 30
0.0
 11
1017.334398
 21
1132.300678
 31
0.0
  0
LINE
  5
2EAB
100
AcDbEntity
  8
0
100
AcDbLine
 10
1017.334398
 20
1132.300678
 30
0.0
 11
1016.834398
 21
1135.585288
 31
0.0
  0
LINE
  5
2EAC
100
AcDbEntity
  8
0
100
AcDbLine
 10
1153.384393
 20
1094.835288
 30
0.0
 11
1153.384393
 21
1023.835288
 31
0.0
  0
LINE
  5
2EAD
100
AcDbEntity
  8
0
100
AcDbLine
 10
1153.384393
 20
1094.835288
 30
0.0
 11
1153.384393
 21
1023.835288
 31
0.0
  0
ARC
  5
2EAE
100
AcDbEntity
  8
0
100
AcDbCircle
 10
1084.384393
 20
1077.935793
 30
0.0
 40
7.0
100
AcDbArc
 50
135.0
 51
180.0
  0
LINE
  5
2EAF
100
AcDbEntity
  8
0
100
AcDbLine
 10
1077.384393
 20
1077.935793
 30
0.0
 11
1077.384393
 21
1040.734783
 31
0.0
  0
LINE
  5
2EB0
100
AcDbEntity
  8
0
100
AcDbLine
 10
1077.384393
 20
1077.935793
 30
0.0
 11
1077.384393
 21
1040.734783
 31
0.0
  0
ARC
  5
2EB1
100
AcDbEntity
  8
0
100
AcDbCircle
 10
1084.384393
 20
1040.734783
 30
0.0
 40
7.0
100
AcDbArc
 50
180.0
 51
225.0
  0
LINE
  5
2EB2
100
AcDbEntity
  8
0
100
AcDbLine
 10
1111.884393
 20
1135.585288
 30
0.0
 11
1129.384393
 21
1135.585288
 31
0.0
  0
ARC
  5
2EB3
100
AcDbEntity
  8
0
100
AcDbCircle
 10
1113.795936
 20
1123.107135
 30
0.0
 40
7.56827
100
AcDbArc
 50
226.640741
 51
313.359259
  0
LINE
  5
2EB4
100
AcDbEntity
  8
0
100
AcDbLine
 10
1113.491656
 20
1101.835288
 30
0.0
 11
1114.384393
 21
1102.70948
 31
0.0
  0
LINE
  5
2EB5
100
AcDbEntity
  8
0
100
AcDbLine
 10
1146.384393
 20
1101.835288
 30
0.0
 11
1101.283888
 21
1101.835288
 31
0.0
  0
LINE
  5
2EB6
100
AcDbEntity
  8
0
100
AcDbLine
 10
1114.384393
 20
1107.585288
 30
0.0
 11
1108.599784
 21
1117.604526
 31
0.0
  0
ARC
  5
2EB7
100
AcDbEntity
  8
0
100
AcDbCircle
 10
1113.795936
 20
1126.798069
 30
0.0
 40
7.56827
100
AcDbArc
 50
46.640741
 51
133.359259
  0
LINE
  5
2EB8
100
AcDbEntity
  8
0
100
AcDbLine
 10
1079.434646
 20
1082.88554
 30
0.0
 11
1096.334141
 21
1099.785035
 31
0.0
  0
ARC
  5
2EB9
100
AcDbEntity
  8
0
100
AcDbCircle
 10
1101.283888
 20
1094.835288
 30
0.0
 40
7.0
100
AcDbArc
 50
90.0
 51
135.0
  0
LINE
  5
2EBA
100
AcDbEntity
  8
0
100
AcDbLine
 10
1108.599784
 20
1117.604526
 30
0.0
 11
1108.599784
 21
1132.300678
 31
0.0
  0
LINE
  5
2EBB
100
AcDbEntity
  8
0
100
AcDbLine
 10
1108.599784
 20
1132.300678
 30
0.0
 11
1111.884393
 21
1135.585288
 31
0.0
  0
LINE
  5
2EBC
100
AcDbEntity
  8
0
100
AcDbLine
 10
1144.384393
 20
1107.585288
 30
0.0
 11
1150.169003
 21
1117.604526
 31
0.0
  0
LINE
  5
2EBD
100
AcDbEntity
  8
0
100
AcDbLine
 10
1114.384393
 20
1107.585288
 30
0.0
 11
1144.384393
 21
1107.585288
 31
0.0
  0
LINE
  5
2EBE
100
AcDbEntity
  8
0
100
AcDbLine
 10
1144.384393
 20
1102.70948
 30
0.0
 11
1114.384393
 21
1102.70948
 31
0.0
  0
LINE
  5
2EBF
100
AcDbEntity
  8
0
100
AcDbLine
 10
1114.384393
 20
1102.70948
 30
0.0
 11
1114.384393
 21
1107.585288
 31
0.0
  0
LINE
  5
2EC0
100
AcDbEntity
  8
0
100
AcDbLine
 10
1145.277131
 20
1101.835288
 30
0.0
 11
1144.384393
 21
1102.70948
 31
0.0
  0
LINE
  5
2EC1
100
AcDbEntity
  8
0
100
AcDbLine
 10
1144.384393
 20
1102.70948
 30
0.0
 11
1144.384393
 21
1107.585288
 31
0.0
  0
LINE
  5
2EC2
100
AcDbEntity
  8
0
100
AcDbLine
 10
1129.384393
 20
1135.585288
 30
0.0
 11
1146.884393
 21
1135.585288
 31
0.0
  0
ARC
  5
2EC3
100
AcDbEntity
  8
0
100
AcDbCircle
 10
1129.384393
 20
1143.018122
 30
0.0
 40
27.456345
100
AcDbArc
 50
247.759024
 51
292.240976
  0
ARC
  5
2EC4
100
AcDbEntity
  8
0
100
AcDbCircle
 10
1129.384393
 20
1106.887082
 30
0.0
 40
27.456345
100
AcDbArc
 50
67.759024
 51
112.240976
  0
LINE
  5
2EC5
100
AcDbEntity
  8
0
100
AcDbLine
 10
1118.992088
 20
1117.604526
 30
0.0
 11
1118.992088
 21
1132.300678
 31
0.0
  0
LINE
  5
2EC6
100
AcDbEntity
  8
0
100
AcDbLine
 10
1150.169003
 20
1117.604526
 30
0.0
 11
1150.169003
 21
1132.300678
 31
0.0
  0
LINE
  5
2EC7
100
AcDbEntity
  8
0
100
AcDbLine
 10
1139.776698
 20
1117.604526
 30
0.0
 11
1139.776698
 21
1132.300678
 31
0.0
  0
ARC
  5
2EC8
100
AcDbEntity
  8
0
100
AcDbCircle
 10
1144.972851
 20
1123.107135
 30
0.0
 40
7.56827
100
AcDbArc
 50
226.640741
 51
313.359259
  0
LINE
  5
2EC9
100
AcDbEntity
  8
0
100
AcDbLine
 10
1150.169003
 20
1132.300678
 30
0.0
 11
1146.884393
 21
1135.585288
 31
0.0
  0
ARC
  5
2ECA
100
AcDbEntity
  8
0
100
AcDbCircle
 10
1144.972851
 20
1126.798069
 30
0.0
 40
7.56827
100
AcDbArc
 50
46.640741
 51
133.359259
  0
CIRCLE
  5
2ECB
100
AcDbEntity
  8
0
100
AcDbCircle
 10
1129.384393
 20
1263.48448
 30
0.0
 40
18.0
  0
POLYLINE
  5
2ECC
100
AcDbEntity
  8
0
100
AcDb2dPolyline
 66
     1
 10
0.0
 20
0.0
 30
0.0
 70
     1
  0
VERTEX
  5
34CC
100
AcDbEntity
  8
0
100
AcDbVertex
100
AcDb2dVertex
 10
1111.384393
 20
1253.092175
 30
0.0
  0
VERTEX
  5
34CD
100
AcDbEntity
  8
0
100
AcDbVertex
100
AcDb2dVertex
 10
1129.384393
 20
1242.69987
 30
0.0
  0
VERTEX
  5
34CE
100
AcDbEntity
  8
0
100
AcDbVertex
100
AcDb2dVertex
 10
1147.384393
 20
1253.092175
 30
0.0
  0
VERTEX
  5
34CF
100
AcDbEntity
  8
0
100
AcDbVertex
100
AcDb2dVertex
 10
1147.384393
 20
1273.876785
 30
0.0
  0
VERTEX
  5
34D0
100
AcDbEntity
  8
0
100
AcDbVertex
100
AcDb2dVertex
 10
1129.384393
 20
1284.26909
 30
0.0
  0
VERTEX
  5
34D1
100
AcDbEntity
  8
0
100
AcDbVertex
100
AcDb2dVertex
 10
1111.384393
 20
1273.876785
 30
0.0
  0
SEQEND
  5
34D2
100
AcDbEntity
  8
0
  0
CIRCLE
  5
2ECD
100
AcDbEntity
  8
0
100
AcDbCircle
 10
1115.384393
 20
1263.48448
 30
0.0
 40
38.0
  0
LINE
  5
2ECE
100
AcDbEntity
  8
0
100
AcDbLine
 10
1136.813636
 20
1205.04699
 30
0.0
 11
1136.813636
 21
1176.686865
 31
0.0
  0
LINE
  5
2ECF
100
AcDbEntity
  8
0
100
AcDbLine
 10
1127.360261
 20
1148.325053
 30
0.0
 11
1127.360261
 21
1195.593615
 31
0.0
  0
LINE
  5
2ED0
100
AcDbEntity
  8
0
100
AcDbLine
 10
1136.813636
 20
1176.686865
 30
0.0
 11
1132.086949
 21
1171.95849
 31
0.0
  0
LINE
  5
2ED1
100
AcDbEntity
  8
0
100
AcDbLine
 10
1132.086949
 20
1157.984303
 30
0.0
 11
1136.813636
 21
1157.984303
 31
0.0
  0
LINE
  5
2ED2
100
AcDbEntity
  8
0
100
AcDbLine
 10
1136.813636
 20
1157.984303
 30
0.0
 11
1127.360261
 21
1148.325053
 31
0.0
  0
LINE
  5
2ED3
100
AcDbEntity
  8
0
100
AcDbLine
 10
1132.086949
 20
1171.95849
 30
0.0
 11
1132.086949
 21
1157.984303
 31
0.0
  0
LINE
  5
2ED4
100
AcDbEntity
  8
0
100
AcDbLine
 10
1127.360261
 20
1195.593615
 30
0.0
 11
1136.813636
 21
1205.04699
 31
0.0
  0
CIRCLE
  5
2ED5
100
AcDbEntity
  8
0
100
AcDbCircle
 10
1129.384393
 20
1263.48448
 30
0.0
 40
12.0585
  0
LINE
  5
2ED6
100
AcDbEntity
  8
0
100
AcDbLine
 10
1113.491656
 20
1378.504121
 30
0.0
 11
1114.384393
 21
1377.629929
 31
0.0
  0
ARC
  5
2ED7
100
AcDbEntity
  8
0
100
AcDbCircle
 10
1113.795936
 20
1352.79134
 30
0.0
 40
7.56827
100
AcDbArc
 50
226.640741
 51
313.359259
  0
LINE
  5
2ED8
100
AcDbEntity
  8
0
100
AcDbLine
 10
1129.384393
 20
1344.004121
 30
0.0
 11
1111.884393
 21
1344.004121
 31
0.0
  0
ARC
  5
2ED9
100
AcDbEntity
  8
0
100
AcDbCircle
 10
1113.795936
 20
1356.482273
 30
0.0
 40
7.56827
100
AcDbArc
 50
46.640741
 51
133.359259
  0
LINE
  5
2EDA
100
AcDbEntity
  8
0
100
AcDbLine
 10
1114.384393
 20
1372.004121
 30
0.0
 11
1108.599784
 21
1361.984883
 31
0.0
  0
LINE
  5
2EDB
100
AcDbEntity
  8
0
100
AcDbLine
 10
1108.599784
 20
1361.984883
 30
0.0
 11
1108.599784
 21
1347.28873
 31
0.0
  0
LINE
  5
2EDC
100
AcDbEntity
  8
0
100
AcDbLine
 10
1108.599784
 20
1347.28873
 30
0.0
 11
1111.884393
 21
1344.004121
 31
0.0
  0
ARC
  5
2EDD
100
AcDbEntity
  8
0
100
AcDbCircle
 10
1112.384393
 20
1385.504121
 30
0.0
 40
7.0
100
AcDbArc
 50
180.0
 51
270.0
  0
LINE
  5
2EDE
100
AcDbEntity
  8
0
100
AcDbLine
 10
1144.384393
 20
1372.004121
 30
0.0
 11
1150.169003
 21
1361.984883
 31
0.0
  0
ARC
  5
2EDF
100
AcDbEntity
  8
0
100
AcDbCircle
 10
1129.384393
 20
1372.702327
 30
0.0
 40
27.456345
100
AcDbArc
 50
247.759024
 51
292.240976
  0
LINE
  5
2EE0
100
AcDbEntity
  8
0
100
AcDbLine
 10
1146.884393
 20
1344.004121
 30
0.0
 11
1129.384393
 21
1344.004121
 31
0.0
  0
ARC
  5
2EE1
100
AcDbEntity
  8
0
100
AcDbCircle
 10
1129.384393
 20
1336.571286
 30
0.0
 40
27.456345
100
AcDbArc
 50
67.759024
 51
112.240976
  0
LINE
  5
2EE2
100
AcDbEntity
  8
0
100
AcDbLine
 10
1118.992088
 20
1361.984883
 30
0.0
 11
1118.992088
 21
1347.28873
 31
0.0
  0
LINE
  5
2EE3
100
AcDbEntity
  8
0
100
AcDbLine
 10
1150.169003
 20
1361.984883
 30
0.0
 11
1150.169003
 21
1347.28873
 31
0.0
  0
LINE
  5
2EE4
100
AcDbEntity
  8
0
100
AcDbLine
 10
1139.776698
 20
1361.984883
 30
0.0
 11
1139.776698
 21
1347.28873
 31
0.0
  0
ARC
  5
2EE5
100
AcDbEntity
  8
0
100
AcDbCircle
 10
1144.972851
 20
1352.79134
 30
0.0
 40
7.56827
100
AcDbArc
 50
226.640741
 51
313.359259
  0
LINE
  5
2EE6
100
AcDbEntity
  8
0
100
AcDbLine
 10
1150.169003
 20
1347.28873
 30
0.0
 11
1146.884393
 21
1344.004121
 31
0.0
  0
ARC
  5
2EE7
100
AcDbEntity
  8
0
100
AcDbCircle
 10
1144.972851
 20
1356.482273
 30
0.0
 40
7.56827
100
AcDbArc
 50
46.640741
 51
133.359259
  0
LINE
  5
2EE8
100
AcDbEntity
  8
0
100
AcDbLine
 10
1114.384393
 20
1377.629929
 30
0.0
 11
1144.384393
 21
1377.629929
 31
0.0
  0
LINE
  5
2EE9
100
AcDbEntity
  8
0
100
AcDbLine
 10
1144.384393
 20
1372.004121
 30
0.0
 11
1114.384393
 21
1372.004121
 31
0.0
  0
LINE
  5
2EEA
100
AcDbEntity
  8
0
100
AcDbLine
 10
1114.384393
 20
1377.629929
 30
0.0
 11
1114.384393
 21
1372.004121
 31
0.0
  0
LINE
  5
2EEB
100
AcDbEntity
  8
0
100
AcDbLine
 10
1144.384393
 20
1377.629929
 30
0.0
 11
1144.384393
 21
1372.004121
 31
0.0
  0
LINE
  5
2EEC
100
AcDbEntity
  8
0
100
AcDbLine
 10
1145.277131
 20
1378.504121
 30
0.0
 11
1144.384393
 21
1377.629929
 31
0.0
  0
LINE
  5
2EED
100
AcDbEntity
  8
0
100
AcDbLine
 10
455.396316
 20
1449.507284
 30
0.0
 11
438.496821
 21
1466.406778
 31
0.0
  0
LINE
  5
2EEE
100
AcDbEntity
  8
0
100
AcDbLine
 10
457.446568
 20
1444.557536
 30
0.0
 11
457.446568
 21
1407.356526
 31
0.0
  0
LINE
  5
2EEF
100
AcDbEntity
  8
0
100
AcDbLine
 10
457.446568
 20
1444.557536
 30
0.0
 11
457.446568
 21
1407.356526
 31
0.0
  0
ARC
  5
2EF0
100
AcDbEntity
  8
0
100
AcDbCircle
 10
450.446568
 20
1407.356526
 30
0.0
 40
7.0
100
AcDbArc
 50
315.0
 51
0.0
  0
ARC
  5
2EF1
100
AcDbEntity
  8
0
100
AcDbCircle
 10
450.446568
 20
1444.557536
 30
0.0
 40
7.0
100
AcDbArc
 50
0.0
 51
45.0
  0
LINE
  5
2EF2
100
AcDbEntity
  8
0
100
AcDbLine
 10
423.921777
 20
1478.43224
 30
0.0
 11
423.921777
 21
1485.981822
 31
0.0
  0
LINE
  5
2EF3
100
AcDbEntity
  8
0
100
AcDbLine
 10
414.684173
 20
1478.43224
 30
0.0
 11
414.684173
 21
1485.981822
 31
0.0
  0
LINE
  5
2EF4
100
AcDbEntity
  8
0
100
AcDbLine
 10
420.446568
 20
1474.957031
 30
0.0
 11
423.921777
 21
1478.43224
 31
0.0
  0
ARC
  5
2EF5
100
AcDbEntity
  8
0
100
AcDbCircle
 10
419.302975
 20
1481.081892
 30
0.0
 40
5.324847
100
AcDbArc
 50
209.841453
 51
299.841453
  0
POLYLINE
  5
2EF6
100
AcDbEntity
  8
0
100
AcDb2dPolyline
 66
     1
 10
0.0
 20
0.0
 30
0.0
  0
VERTEX
  5
34D3
100
AcDbEntity
  8
0
100
AcDbVertex
100
AcDb2dVertex
 10
420.907072
 20
1468.457031
 30
0.0
  0
VERTEX
  5
34D4
100
AcDbEntity
  8
0
100
AcDbVertex
100
AcDb2dVertex
 10
420.446568
 20
1469.043428
 30
0.0
  0
SEQEND
  5
34D5
100
AcDbEntity
  8
0
  0
LINE
  5
2EF7
100
AcDbEntity
  8
0
100
AcDbLine
 10
420.446568
 20
1474.957031
 30
0.0
 11
420.446568
 21
1469.043428
 31
0.0
  0
ARC
  5
2EF8
100
AcDbEntity
  8
0
100
AcDbCircle
 10
433.547073
 20
1461.457031
 30
0.0
 40
7.0
100
AcDbArc
 50
45.0
 51
90.0
  0
LINE
  5
2EF9
100
AcDbEntity
  8
0
100
AcDbLine
 10
420.446568
 20
1489.457031
 30
0.0
 11
423.921777
 21
1485.981822
 31
0.0
  0
ARC
  5
2EFA
100
AcDbEntity
  8
0
100
AcDbCircle
 10
419.302975
 20
1483.33217
 30
0.0
 40
5.324847
100
AcDbArc
 50
60.158547
 51
150.158547
  0
LINE
  5
2EFB
100
AcDbEntity
  8
0
100
AcDbLine
 10
1129.384393
 20
1497.254121
 30
0.0
 11
1111.884393
 21
1497.254121
 31
0.0
  0
ARC
  5
2EFC
100
AcDbEntity
  8
0
100
AcDbCircle
 10
1113.795936
 20
1488.466902
 30
0.0
 40
7.56827
100
AcDbArc
 50
46.640741
 51
133.359259
  0
ARC
  5
2EFD
100
AcDbEntity
  8
0
100
AcDbCircle
 10
1113.795936
 20
1484.775968
 30
0.0
 40
7.56827
100
AcDbArc
 50
226.640741
 51
313.359259
  0
LINE
  5
2EFE
100
AcDbEntity
  8
0
100
AcDbLine
 10
1113.491656
 20
1463.504121
 30
0.0
 11
1114.384393
 21
1464.378312
 31
0.0
  0
LINE
  5
2EFF
100
AcDbEntity
  8
0
100
AcDbLine
 10
1114.384393
 20
1469.254121
 30
0.0
 11
1108.599784
 21
1479.273359
 31
0.0
  0
LINE
  5
2F00
100
AcDbEntity
  8
0
100
AcDbLine
 10
1108.599784
 20
1479.273359
 30
0.0
 11
1108.599784
 21
1493.969511
 31
0.0
  0
ARC
  5
2F01
100
AcDbEntity
  8
0
100
AcDbCircle
 10
1112.384393
 20
1456.504121
 30
0.0
 40
7.0
100
AcDbArc
 50
90.0
 51
180.0
  0
LINE
  5
2F02
100
AcDbEntity
  8
0
100
AcDbLine
 10
1108.599784
 20
1493.969511
 30
0.0
 11
1111.884393
 21
1497.254121
 31
0.0
  0
LINE
  5
2F03
100
AcDbEntity
  8
0
100
AcDbLine
 10
1150.169003
 20
1479.273359
 30
0.0
 11
1150.169003
 21
1493.969511
 31
0.0
  0
LINE
  5
2F04
100
AcDbEntity
  8
0
100
AcDbLine
 10
1139.776698
 20
1479.273359
 30
0.0
 11
1139.776698
 21
1493.969511
 31
0.0
  0
LINE
  5
2F05
100
AcDbEntity
  8
0
100
AcDbLine
 10
1118.992088
 20
1479.273359
 30
0.0
 11
1118.992088
 21
1493.969511
 31
0.0
  0
ARC
  5
2F06
100
AcDbEntity
  8
0
100
AcDbCircle
 10
1129.384393
 20
1504.686955
 30
0.0
 40
27.456345
100
AcDbArc
 50
247.759024
 51
292.240976
  0
LINE
  5
2F07
100
AcDbEntity
  8
0
100
AcDbLine
 10
1144.384393
 20
1469.254121
 30
0.0
 11
1114.384393
 21
1469.254121
 31
0.0
  0
LINE
  5
2F08
100
AcDbEntity
  8
0
100
AcDbLine
 10
1114.384393
 20
1464.378312
 30
0.0
 11
1144.384393
 21
1464.378312
 31
0.0
  0
LINE
  5
2F09
100
AcDbEntity
  8
0
100
AcDbLine
 10
1114.384393
 20
1464.378312
 30
0.0
 11
1114.384393
 21
1469.254121
 31
0.0
  0
ARC
  5
2F0A
100
AcDbEntity
  8
0
100
AcDbCircle
 10
1144.972851
 20
1484.775968
 30
0.0
 40
7.56827
100
AcDbArc
 50
226.640741
 51
313.359259
  0
LINE
  5
2F0B
100
AcDbEntity
  8
0
100
AcDbLine
 10
1144.384393
 20
1464.378312
 30
0.0
 11
1144.384393
 21
1469.254121
 31
0.0
  0
LINE
  5
2F0C
100
AcDbEntity
  8
0
100
AcDbLine
 10
1145.277131
 20
1463.504121
 30
0.0
 11
1144.384393
 21
1464.378312
 31
0.0
  0
LINE
  5
2F0D
100
AcDbEntity
  8
0
100
AcDbLine
 10
1144.384393
 20
1469.254121
 30
0.0
 11
1150.169003
 21
1479.273359
 31
0.0
  0
ARC
  5
2F0E
100
AcDbEntity
  8
0
100
AcDbCircle
 10
1129.384393
 20
1468.555915
 30
0.0
 40
27.456345
100
AcDbArc
 50
67.759024
 51
112.240976
  0
LINE
  5
2F0F
100
AcDbEntity
  8
0
100
AcDbLine
 10
1146.884393
 20
1497.254121
 30
0.0
 11
1129.384393
 21
1497.254121
 31
0.0
  0
LINE
  5
2F10
100
AcDbEntity
  8
0
100
AcDbLine
 10
1150.169003
 20
1493.969511
 30
0.0
 11
1146.884393
 21
1497.254121
 31
0.0
  0
ARC
  5
2F11
100
AcDbEntity
  8
0
100
AcDbCircle
 10
1144.972851
 20
1488.466902
 30
0.0
 40
7.56827
100
AcDbArc
 50
46.640741
 51
133.359259
  0
LINE
  5
2F12
100
AcDbEntity
  8
0
100
AcDbLine
 10
1969.669038
 20
363.186261
 30
0.0
 11
2094.669038
 21
363.186261
 31
0.0
  0
LINE
  5
2F15
100
AcDbEntity
  8
0
100
AcDbLine
 10
1969.669038
 20
148.186261
 30
0.0
 11
2094.669038
 21
148.186261
 31
0.0
  0
ARC
  5
2F1D
100
AcDbEntity
  8
0
100
AcDbCircle
 10
1749.188506
 20
283.254246
 30
0.0
 40
11.5
100
AcDbArc
 50
0.0
 51
63.789731
  0
ARC
  5
2F1E
100
AcDbEntity
  8
0
100
AcDbCircle
 10
1749.188506
 20
228.118276
 30
0.0
 40
11.5
100
AcDbArc
 50
296.210269
 51
0.0
  0
LINE
  5
2F20
100
AcDbEntity
  8
0
100
AcDbLine
 10
1660.188506
 20
148.186261
 30
0.0
 11
1722.688506
 21
148.186261
 31
0.0
  0
LINE
  5
2F21
100
AcDbEntity
  8
0
100
AcDbLine
 10
1290.957785
 20
303.937103
 30
0.0
 11
1290.957785
 21
232.937103
 31
0.0
  0
LINE
  5
2F22
100
AcDbEntity
  8
0
100
AcDbLine
 10
1290.957785
 20
303.937103
 30
0.0
 11
1290.957785
 21
231.437103
 31
0.0
  0
LINE
  5
2F24
100
AcDbEntity
  8
0
100
AcDbLine
 10
1252.957785
 20
170.187103
 30
0.0
 11
1302.957785
 21
170.187103
 31
0.0
  0
LINE
  5
2F2A
100
AcDbEntity
  8
0
100
AcDbLine
 10
1267.957785
 20
222.996017
 30
0.0
 11
1269.295349
 21
224.437103
 31
0.0
  0
ARC
  5
2F2B
100
AcDbEntity
  8
0
100
AcDbCircle
 10
1283.957785
 20
231.437103
 30
0.0
 40
7.0
100
AcDbArc
 50
270.0
 51
0.0
  0
LINE
  5
2F2D
100
AcDbEntity
  8
0
100
AcDbLine
 10
1267.957785
 20
312.378189
 30
0.0
 11
1269.295349
 21
310.937103
 31
0.0
  0
ARC
  5
2F32
100
AcDbEntity
  8
0
100
AcDbCircle
 10
1283.957785
 20
303.937103
 30
0.0
 40
7.0
100
AcDbArc
 50
0.0
 51
90.0
  0
LINE
  5
2F33
100
AcDbEntity
  8
0
100
AcDbLine
 10
1760.688506
 20
228.118276
 30
0.0
 11
1760.688506
 21
283.254246
 31
0.0
  0
LINE
  5
2F34
100
AcDbEntity
  8
0
100
AcDbLine
 10
1684.688506
 20
228.118276
 30
0.0
 11
1684.688506
 21
283.254246
 31
0.0
  0
LINE
  5
2F35
100
AcDbEntity
  8
0
100
AcDbLine
 10
1660.188506
 20
148.186261
 30
0.0
 11
1722.688506
 21
148.186261
 31
0.0
  0
LINE
  5
2F3C
100
AcDbEntity
  8
0
100
AcDbLine
 10
1705.948583
 20
212.436261
 30
0.0
 11
1739.42843
 21
212.436261
 31
0.0
  0
LINE
  5
2F3D
100
AcDbEntity
  8
0
100
AcDbLine
 10
1739.688506
 20
209.529718
 30
0.0
 11
1705.688506
 21
209.529718
 31
0.0
  0
ARC
  5
2F3E
100
AcDbEntity
  8
0
100
AcDbCircle
 10
1722.688506
 20
281.949029
 30
0.0
 40
71.5
100
AcDbArc
 50
243.789731
 51
256.459962
  0
ARC
  5
2F3F
100
AcDbEntity
  8
0
100
AcDbCircle
 10
1711.099998
 20
216.053653
 30
0.0
 40
8.4762
100
AcDbArc
 50
205.262779
 51
230.324874
  0
ARC
  5
2F40
100
AcDbEntity
  8
0
100
AcDbCircle
 10
1696.188506
 20
228.118276
 30
0.0
 40
11.5
100
AcDbArc
 50
180.0
 51
243.789731
  0
ARC
  5
2F41
100
AcDbEntity
  8
0
100
AcDbCircle
 10
1722.688506
 20
281.949029
 30
0.0
 40
71.5
100
AcDbArc
 50
283.540038
 51
296.210269
  0
ARC
  5
2F42
100
AcDbEntity
  8
0
100
AcDbCircle
 10
1734.277014
 20
216.053653
 30
0.0
 40
8.4762
100
AcDbArc
 50
309.675126
 51
337.997155
  0
ARC
  5
2F43
100
AcDbEntity
  8
0
100
AcDbCircle
 10
1734.277014
 20
295.318869
 30
0.0
 40
8.4762
100
AcDbArc
 50
22.002845
 51
50.324874
  0
ARC
  5
2F44
100
AcDbEntity
  8
0
100
AcDbCircle
 10
1711.099998
 20
295.318869
 30
0.0
 40
8.4762
100
AcDbArc
 50
129.675126
 51
154.737221
  0
LINE
  5
2F45
100
AcDbEntity
  8
0
100
AcDbLine
 10
1705.948583
 20
298.936261
 30
0.0
 11
1739.42843
 21
298.936261
 31
0.0
  0
ARC
  5
2F46
100
AcDbEntity
  8
0
100
AcDbCircle
 10
1722.688506
 20
229.423493
 30
0.0
 40
71.5
100
AcDbArc
 50
103.540038
 51
116.210269
  0
ARC
  5
2F47
100
AcDbEntity
  8
0
100
AcDbCircle
 10
1696.188506
 20
283.254246
 30
0.0
 40
11.5
100
AcDbArc
 50
116.210269
 51
180.0
  0
ARC
  5
2F48
100
AcDbEntity
  8
0
100
AcDbCircle
 10
1722.688506
 20
229.423493
 30
0.0
 40
71.5
100
AcDbArc
 50
63.789731
 51
76.459962
  0
LINE
  5
2F4A
100
AcDbEntity
  8
0
100
AcDbLine
 10
1739.688506
 20
301.842804
 30
0.0
 11
1705.688506
 21
301.842804
 31
0.0
  0
TEXT
  5
2F4F
100
AcDbEntity
  8
0
100
AcDbText
 10
1871.513233
 20
114.30652
 30
0.0
 40
20.0
  1
25A
 41
0.8
 11
1871.513233
 21
114.30652
 31
0.0
100
AcDbText
 73
     1
  0
LINE
  5
2F50
100
AcDbEntity
  8
0
100
AcDbLine
 10
1878.882843
 20
148.186261
 30
0.0
 11
1941.382843
 21
148.186261
 31
0.0
  0
LINE
  5
2F53
100
AcDbEntity
  8
0
100
AcDbLine
 10
1902.882843
 20
291.936261
 30
0.0
 11
1902.882843
 21
219.436261
 31
0.0
  0
LINE
  5
2F54
100
AcDbEntity
  8
0
100
AcDbLine
 10
1902.882843
 20
291.936261
 30
0.0
 11
1902.882843
 21
219.436261
 31
0.0
  0
LINE
  5
2F55
100
AcDbEntity
  8
0
100
AcDbLine
 10
1826.882843
 20
275.036766
 30
0.0
 11
1826.882843
 21
236.335756
 31
0.0
  0
LINE
  5
2F56
100
AcDbEntity
  8
0
100
AcDbLine
 10
1826.882843
 20
275.036766
 30
0.0
 11
1826.882843
 21
236.335756
 31
0.0
  0
LINE
  5
2F57
100
AcDbEntity
  8
0
100
AcDbLine
 10
1828.933095
 20
231.386009
 30
0.0
 11
1845.83259
 21
214.486514
 31
0.0
  0
LINE
  5
2F58
100
AcDbEntity
  8
0
100
AcDbLine
 10
1816.382843
 20
148.186261
 30
0.0
 11
1878.882843
 21
148.186261
 31
0.0
  0
ARC
  5
2F5B
100
AcDbEntity
  8
0
100
AcDbCircle
 10
1833.882843
 20
236.335756
 30
0.0
 40
7.0
100
AcDbArc
 50
180.0
 51
225.0
  0
LINE
  5
2F61
100
AcDbEntity
  8
0
100
AcDbLine
 10
1895.882843
 20
212.436261
 30
0.0
 11
1849.782338
 21
212.436261
 31
0.0
  0
LINE
  5
2F62
100
AcDbEntity
  8
0
100
AcDbLine
 10
1895.882843
 20
209.529718
 30
0.0
 11
1861.882843
 21
209.529718
 31
0.0
  0
ARC
  5
2F63
100
AcDbEntity
  8
0
100
AcDbCircle
 10
1850.782338
 20
219.436261
 30
0.0
 40
7.0
100
AcDbArc
 50
225.0
 51
270.0
  0
ARC
  5
2F64
100
AcDbEntity
  8
0
100
AcDbCircle
 10
1867.294335
 20
216.053653
 30
0.0
 40
8.4762
100
AcDbArc
 50
205.262779
 51
230.324874
  0
ARC
  5
2F65
100
AcDbEntity
  8
0
100
AcDbCircle
 10
1895.882843
 20
219.436261
 30
0.0
 40
7.0
100
AcDbArc
 50
270.0
 51
0.0
  0
ARC
  5
2F66
100
AcDbEntity
  8
0
100
AcDbCircle
 10
1890.471351
 20
216.053653
 30
0.0
 40
8.4762
100
AcDbArc
 50
309.675126
 51
337.997155
  0
LINE
  5
2F67
100
AcDbEntity
  8
0
100
AcDbLine
 10
1828.933095
 20
279.986514
 30
0.0
 11
1845.83259
 21
296.886009
 31
0.0
  0
ARC
  5
2F68
100
AcDbEntity
  8
0
100
AcDbCircle
 10
1833.882843
 20
275.036766
 30
0.0
 40
7.0
100
AcDbArc
 50
135.0
 51
180.0
  0
ARC
  5
2F69
100
AcDbEntity
  8
0
100
AcDbCircle
 10
1890.471351
 20
295.318869
 30
0.0
 40
8.4762
100
AcDbArc
 50
22.002845
 51
50.324874
  0
ARC
  5
2F6A
100
AcDbEntity
  8
0
100
AcDbCircle
 10
1867.294335
 20
295.318869
 30
0.0
 40
8.4762
100
AcDbArc
 50
129.675126
 51
154.737221
  0
LINE
  5
2F6B
100
AcDbEntity
  8
0
100
AcDbLine
 10
1895.882843
 20
298.936261
 30
0.0
 11
1849.782338
 21
298.936261
 31
0.0
  0
LINE
  5
2F6C
100
AcDbEntity
  8
0
100
AcDbLine
 10
1895.882843
 20
298.936261
 30
0.0
 11
1849.782338
 21
298.936261
 31
0.0
  0
ARC
  5
2F6D
100
AcDbEntity
  8
0
100
AcDbCircle
 10
1850.782338
 20
291.936261
 30
0.0
 40
7.0
100
AcDbArc
 50
90.0
 51
135.0
  0
ARC
  5
2F6E
100
AcDbEntity
  8
0
100
AcDbCircle
 10
1895.882843
 20
291.936261
 30
0.0
 40
7.0
100
AcDbArc
 50
0.0
 51
90.0
  0
LINE
  5
2F70
100
AcDbEntity
  8
0
100
AcDbLine
 10
1895.882843
 20
301.842804
 30
0.0
 11
1861.882843
 21
301.842804
 31
0.0
  0
LINE
  5
2F75
100
AcDbEntity
  8
0
100
AcDbLine
 10
2070.169038
 20
291.936261
 30
0.0
 11
2070.169038
 21
219.436261
 31
0.0
  0
LINE
  5
2F76
100
AcDbEntity
  8
0
100
AcDbLine
 10
2070.169038
 20
291.062069
 30
0.0
 11
2070.169038
 21
220.062069
 31
0.0
  0
LINE
  5
2F77
100
AcDbEntity
  8
0
100
AcDbLine
 10
1994.169038
 20
291.936261
 30
0.0
 11
1994.169038
 21
219.436261
 31
0.0
  0
LINE
  5
2F78
100
AcDbEntity
  8
0
100
AcDbLine
 10
1994.169038
 20
291.062069
 30
0.0
 11
1994.169038
 21
220.062069
 31
0.0
  0
LINE
  5
2F79
100
AcDbEntity
  8
0
100
AcDbLine
 10
2063.169038
 20
212.436261
 30
0.0
 11
2001.169038
 21
212.436261
 31
0.0
  0
LINE
  5
2F7A
100
AcDbEntity
  8
0
100
AcDbLine
 10
1969.669038
 20
148.186261
 30
0.0
 11
2032.169038
 21
148.186261
 31
0.0
  0
ARC
  5
2F7D
100
AcDbEntity
  8
0
100
AcDbCircle
 10
2001.169038
 20
219.436261
 30
0.0
 40
7.0
100
AcDbArc
 50
180.0
 51
270.0
  0
LINE
  5
2F83
100
AcDbEntity
  8
0
100
AcDbLine
 10
2049.169038
 20
209.529718
 30
0.0
 11
2015.169038
 21
209.529718
 31
0.0
  0
ARC
  5
2F84
100
AcDbEntity
  8
0
100
AcDbCircle
 10
2020.58053
 20
216.053653
 30
0.0
 40
8.4762
100
AcDbArc
 50
205.262779
 51
230.324874
  0
ARC
  5
2F85
100
AcDbEntity
  8
0
100
AcDbCircle
 10
2063.169038
 20
219.436261
 30
0.0
 40
7.0
100
AcDbArc
 50
270.0
 51
0.0
  0
ARC
  5
2F86
100
AcDbEntity
  8
0
100
AcDbCircle
 10
2043.757546
 20
216.053653
 30
0.0
 40
8.4762
100
AcDbArc
 50
309.675126
 51
337.997155
  0
LINE
  5
2F87
100
AcDbEntity
  8
0
100
AcDbLine
 10
2063.169038
 20
298.936261
 30
0.0
 11
2001.169038
 21
298.936261
 31
0.0
  0
ARC
  5
2F88
100
AcDbEntity
  8
0
100
AcDbCircle
 10
2001.169038
 20
291.936261
 30
0.0
 40
7.0
100
AcDbArc
 50
90.0
 51
180.0
  0
ARC
  5
2F89
100
AcDbEntity
  8
0
100
AcDbCircle
 10
2043.757546
 20
295.318869
 30
0.0
 40
8.4762
100
AcDbArc
 50
22.002845
 51
50.324874
  0
ARC
  5
2F8A
100
AcDbEntity
  8
0
100
AcDbCircle
 10
2020.58053
 20
295.318869
 30
0.0
 40
8.4762
100
AcDbArc
 50
129.675126
 51
154.737221
  0
ARC
  5
2F8B
100
AcDbEntity
  8
0
100
AcDbCircle
 10
2063.169038
 20
291.936261
 30
0.0
 40
7.0
100
AcDbArc
 50
0.0
 51
90.0
  0
LINE
  5
2F8D
100
AcDbEntity
  8
0
100
AcDbLine
 10
2049.169038
 20
301.842804
 30
0.0
 11
2015.169038
 21
301.842804
 31
0.0
  0
LINE
  5
2F92
100
AcDbEntity
  8
0
100
AcDbLine
 10
1660.188506
 20
363.186261
 30
0.0
 11
1722.688506
 21
363.186261
 31
0.0
  0
LINE
  5
2F93
100
AcDbEntity
  8
0
100
AcDbLine
 10
1252.957785
 20
365.187103
 30
0.0
 11
1302.957785
 21
365.187103
 31
0.0
  0
LINE
  5
2F94
100
AcDbEntity
  8
0
100
AcDbLine
 10
1660.188506
 20
363.186261
 30
0.0
 11
1722.688506
 21
363.186261
 31
0.0
  0
CIRCLE
  5
2F95
100
AcDbEntity
  8
0
100
AcDbCircle
 10
1876.110146
 20
508.515242
 30
0.0
 40
62.5
  0
LINE
  5
2F96
100
AcDbEntity
  8
0
100
AcDbLine
 10
1816.382843
 20
363.186261
 30
0.0
 11
1878.882843
 21
363.186261
 31
0.0
  0
CIRCLE
  5
2F97
100
AcDbEntity
  8
0
100
AcDbCircle
 10
1844.290341
 20
476.695437
 30
0.0
 40
9.5
  0
LINE
  5
2F98
100
AcDbEntity
  8
0
100
AcDbLine
 10
1816.382843
 20
363.186261
 30
0.0
 11
1878.882843
 21
363.186261
 31
0.0
  0
LINE
  5
2F99
100
AcDbEntity
  8
0
100
AcDbLine
 10
1880.386458
 20
418.180915
 30
0.0
 11
1889.839833
 21
427.63429
 31
0.0
  0
LINE
  5
2F9A
100
AcDbEntity
  8
0
100
AcDbLine
 10
1889.839833
 20
380.571602
 30
0.0
 11
1880.386458
 21
370.912352
 31
0.0
  0
LINE
  5
2F9B
100
AcDbEntity
  8
0
100
AcDbLine
 10
1880.386458
 20
370.912352
 30
0.0
 11
1880.386458
 21
418.180915
 31
0.0
  0
LINE
  5
2F9C
100
AcDbEntity
  8
0
100
AcDbLine
 10
1889.839833
 20
399.274165
 30
0.0
 11
1885.113146
 21
394.54579
 31
0.0
  0
LINE
  5
2F9D
100
AcDbEntity
  8
0
100
AcDbLine
 10
1885.113146
 20
380.571602
 30
0.0
 11
1889.839833
 21
380.571602
 31
0.0
  0
LINE
  5
2F9E
100
AcDbEntity
  8
0
100
AcDbLine
 10
1885.113146
 20
394.54579
 30
0.0
 11
1885.113146
 21
380.571602
 31
0.0
  0
LINE
  5
2F9F
100
AcDbEntity
  8
0
100
AcDbLine
 10
1889.839833
 20
427.63429
 30
0.0
 11
1889.839833
 21
399.274165
 31
0.0
  0
CIRCLE
  5
2FA0
100
AcDbEntity
  8
0
100
AcDbCircle
 10
1907.929951
 20
476.695437
 30
0.0
 40
9.5
  0
CIRCLE
  5
2FA1
100
AcDbEntity
  8
0
100
AcDbCircle
 10
1844.290341
 20
540.335048
 30
0.0
 40
9.5
  0
CIRCLE
  5
2FA2
100
AcDbEntity
  8
0
100
AcDbCircle
 10
1907.929951
 20
540.335048
 30
0.0
 40
9.5
  0
LINE
  5
2FA4
100
AcDbEntity
  8
0
100
AcDbLine
 10
1969.669038
 20
363.186261
 30
0.0
 11
2032.169038
 21
363.186261
 31
0.0
  0
LINE
  5
2FA5
100
AcDbEntity
  8
0
100
AcDbLine
 10
1938.610146
 20
824.381692
 30
0.0
 11
1876.110146
 21
824.381692
 31
0.0
  0
LINE
  5
2FA6
100
AcDbEntity
  8
0
100
AcDbLine
 10
1938.610146
 20
824.381692
 30
0.0
 11
1876.110146
 21
824.381692
 31
0.0
  0
LINE
  5
2FA8
100
AcDbEntity
  8
0
100
AcDbLine
 10
1926.059893
 20
692.581439
 30
0.0
 11
1909.160398
 21
675.681944
 31
0.0
  0
LINE
  5
2FA9
100
AcDbEntity
  8
0
100
AcDbLine
 10
1926.059893
 20
741.181944
 30
0.0
 11
1909.160398
 21
758.081439
 31
0.0
  0
LINE
  5
2FAD
100
AcDbEntity
  8
0
100
AcDbLine
 10
1852.110146
 20
753.131692
 30
0.0
 11
1852.110146
 21
680.631692
 31
0.0
  0
LINE
  5
2FAE
100
AcDbEntity
  8
0
100
AcDbLine
 10
1852.110146
 20
753.131692
 30
0.0
 11
1852.110146
 21
680.631692
 31
0.0
  0
LINE
  5
2FB5
100
AcDbEntity
  8
0
100
AcDbLine
 10
1859.110146
 20
673.631692
 30
0.0
 11
1905.210651
 21
673.631692
 31
0.0
  0
LINE
  5
2FB6
100
AcDbEntity
  8
0
100
AcDbLine
 10
1859.110146
 20
670.725149
 30
0.0
 11
1893.110146
 21
670.725149
 31
0.0
  0
ARC
  5
2FB7
100
AcDbEntity
  8
0
100
AcDbCircle
 10
1859.110146
 20
680.631692
 30
0.0
 40
7.0
100
AcDbArc
 50
180.0
 51
270.0
  0
ARC
  5
2FB8
100
AcDbEntity
  8
0
100
AcDbCircle
 10
1864.521638
 20
677.249083
 30
0.0
 40
8.4762
100
AcDbArc
 50
202.002845
 51
230.324874
  0
ARC
  5
2FB9
100
AcDbEntity
  8
0
100
AcDbCircle
 10
1887.698654
 20
677.249083
 30
0.0
 40
8.4762
100
AcDbArc
 50
309.675126
 51
334.737221
  0
ARC
  5
2FBA
100
AcDbEntity
  8
0
100
AcDbCircle
 10
1904.210651
 20
680.631692
 30
0.0
 40
7.0
100
AcDbArc
 50
270.0
 51
315.0
  0
LINE
  5
2FBE
100
AcDbEntity
  8
0
100
AcDbLine
 10
1859.110146
 20
763.038234
 30
0.0
 11
1893.110146
 21
763.038234
 31
0.0
  0
LINE
  5
2FBF
100
AcDbEntity
  8
0
100
AcDbLine
 10
1859.110146
 20
760.131692
 30
0.0
 11
1905.210651
 21
760.131692
 31
0.0
  0
LINE
  5
2FC0
100
AcDbEntity
  8
0
100
AcDbLine
 10
1859.110146
 20
760.131692
 30
0.0
 11
1905.210651
 21
760.131692
 31
0.0
  0
ARC
  5
2FC1
100
AcDbEntity
  8
0
100
AcDbCircle
 10
1864.521638
 20
756.5143
 30
0.0
 40
8.4762
100
AcDbArc
 50
129.675126
 51
157.997155
  0
ARC
  5
2FC2
100
AcDbEntity
  8
0
100
AcDbCircle
 10
1859.110146
 20
753.131692
 30
0.0
 40
7.0
100
AcDbArc
 50
90.0
 51
180.0
  0
ARC
  5
2FC3
100
AcDbEntity
  8
0
100
AcDbCircle
 10
1887.698654
 20
756.5143
 30
0.0
 40
8.4762
100
AcDbArc
 50
25.262779
 51
50.324874
  0
ARC
  5
2FC4
100
AcDbEntity
  8
0
100
AcDbCircle
 10
1904.210651
 20
753.131692
 30
0.0
 40
7.0
100
AcDbArc
 50
45.0
 51
90.0
  0
LINE
  5
2FC8
100
AcDbEntity
  8
0
100
AcDbLine
 10
1928.110146
 20
736.232197
 30
0.0
 11
1928.110146
 21
697.531187
 31
0.0
  0
LINE
  5
2FC9
100
AcDbEntity
  8
0
100
AcDbLine
 10
1928.110146
 20
736.232197
 30
0.0
 11
1928.110146
 21
697.531187
 31
0.0
  0
ARC
  5
2FCB
100
AcDbEntity
  8
0
100
AcDbCircle
 10
1921.110146
 20
697.531187
 30
0.0
 40
7.0
100
AcDbArc
 50
315.0
 51
0.0
  0
ARC
  5
2FCC
100
AcDbEntity
  8
0
100
AcDbCircle
 10
1921.110146
 20
736.232197
 30
0.0
 40
7.0
100
AcDbArc
 50
0.0
 51
45.0
  0
ARC
  5
2FD0
100
AcDbEntity
  8
0
100
AcDbCircle
 10
1957.040766
 20
1089.335288
 30
0.0
 40
7.0
100
AcDbArc
 50
90.0
 51
180.0
  0
ARC
  5
2FD1
100
AcDbEntity
  8
0
100
AcDbCircle
 10
1957.040766
 20
1016.835288
 30
0.0
 40
7.0
100
AcDbArc
 50
180.0
 51
270.0
  0
ARC
  5
2FD2
100
AcDbEntity
  8
0
100
AcDbCircle
 10
1938.557978
 20
1395.403616
 30
0.0
 40
7.0
100
AcDbArc
 50
315.0
 51
0.0
  0
LINE
  5
2FD3
100
AcDbEntity
  8
0
100
AcDbLine
 10
1179.334141
 20
1397.453868
 30
0.0
 11
1162.434646
 21
1380.554373
 31
0.0
  0
LINE
  5
2FD4
100
AcDbEntity
  8
0
100
AcDbLine
 10
1869.557978
 20
1451.004121
 30
0.0
 11
1869.557978
 21
1378.504121
 31
0.0
  0
LINE
  5
2FD5
100
AcDbEntity
  8
0
100
AcDbLine
 10
1869.557978
 20
1451.004121
 30
0.0
 11
1869.557978
 21
1378.504121
 31
0.0
  0
ARC
  5
2FD6
100
AcDbEntity
  8
0
100
AcDbCircle
 10
1272.631536
 20
1023.835288
 30
0.0
 40
7.0
100
AcDbArc
 50
270.0
 51
0.0
  0
ARC
  5
2FD7
100
AcDbEntity
  8
0
100
AcDbCircle
 10
1210.631536
 20
1023.835288
 30
0.0
 40
7.0
100
AcDbArc
 50
180.0
 51
270.0
  0
LINE
  5
2FD8
100
AcDbEntity
  8
0
100
AcDbLine
 10
1272.631536
 20
1016.835288
 30
0.0
 11
1210.631536
 21
1016.835288
 31
0.0
  0
LINE
  5
2FD9
100
AcDbEntity
  8
0
100
AcDbLine
 10
1226.631536
 20
1011.085288
 30
0.0
 11
1256.631536
 21
1011.085288
 31
0.0
  0
LINE
  5
2FDA
100
AcDbEntity
  8
0
100
AcDbLine
 10
1256.631536
 20
1015.961096
 30
0.0
 11
1226.631536
 21
1015.961096
 31
0.0
  0
ARC
  5
2FDB
100
AcDbEntity
  8
0
100
AcDbCircle
 10
1232.631536
 20
982.284089
 30
0.0
 40
20.826955
100
AcDbArc
 50
64.397043
 51
115.602957
  0
ARC
  5
2FDC
100
AcDbEntity
  8
0
100
AcDbCircle
 10
1232.631536
 20
1005.168834
 30
0.0
 40
20.842265
100
AcDbArc
 50
244.417209
 51
295.582791
  0
LINE
  5
2FDD
100
AcDbEntity
  8
0
100
AcDbLine
 10
1224.131536
 20
983.085288
 30
0.0
 11
1241.631536
 21
983.085288
 31
0.0
  0
LINE
  5
2FDE
100
AcDbEntity
  8
0
100
AcDbLine
 10
1223.631536
 20
1001.06605
 30
0.0
 11
1223.631536
 21
986.369898
 31
0.0
  0
LINE
  5
2FDF
100
AcDbEntity
  8
0
100
AcDbLine
 10
1223.631536
 20
986.369898
 30
0.0
 11
1224.131536
 21
983.085288
 31
0.0
  0
LINE
  5
2FE0
100
AcDbEntity
  8
0
100
AcDbLine
 10
1226.631536
 20
1015.961096
 30
0.0
 11
1226.631536
 21
1011.085288
 31
0.0
  0
LINE
  5
2FE1
100
AcDbEntity
  8
0
100
AcDbLine
 10
1225.738799
 20
1016.835288
 30
0.0
 11
1226.631536
 21
1015.961096
 31
0.0
  0
LINE
  5
2FE2
100
AcDbEntity
  8
0
100
AcDbLine
 10
1226.631536
 20
1011.085288
 30
0.0
 11
1223.631536
 21
1001.06605
 31
0.0
  0
LINE
  5
2FE3
100
AcDbEntity
  8
0
100
AcDbLine
 10
1259.631536
 20
1001.06605
 30
0.0
 11
1259.631536
 21
986.369898
 31
0.0
  0
LINE
  5
2FE4
100
AcDbEntity
  8
0
100
AcDbLine
 10
1241.631536
 20
1001.06605
 30
0.0
 11
1241.631536
 21
986.369898
 31
0.0
  0
ARC
  5
2FE5
100
AcDbEntity
  8
0
100
AcDbCircle
 10
1250.631536
 20
1005.168834
 30
0.0
 40
20.842265
100
AcDbArc
 50
244.417209
 51
295.582791
  0
LINE
  5
2FE6
100
AcDbEntity
  8
0
100
AcDbLine
 10
1241.631536
 20
983.085288
 30
0.0
 11
1259.131536
 21
983.085288
 31
0.0
  0
LINE
  5
2FE7
100
AcDbEntity
  8
0
100
AcDbLine
 10
1259.631536
 20
986.369898
 30
0.0
 11
1259.131536
 21
983.085288
 31
0.0
  0
ARC
  5
2FE8
100
AcDbEntity
  8
0
100
AcDbCircle
 10
1250.631536
 20
982.284089
 30
0.0
 40
20.826955
100
AcDbArc
 50
64.397043
 51
115.602957
  0
LINE
  5
2FE9
100
AcDbEntity
  8
0
100
AcDbLine
 10
1257.524274
 20
1016.835288
 30
0.0
 11
1256.631536
 21
1015.961096
 31
0.0
  0
LINE
  5
2FEA
100
AcDbEntity
  8
0
100
AcDbLine
 10
1256.631536
 20
1015.961096
 30
0.0
 11
1256.631536
 21
1011.085288
 31
0.0
  0
LINE
  5
2FEB
100
AcDbEntity
  8
0
100
AcDbLine
 10
1256.631536
 20
1011.085288
 30
0.0
 11
1259.631536
 21
1001.06605
 31
0.0
  0
LINE
  5
2FEC
100
AcDbEntity
  8
0
100
AcDbLine
 10
1224.131536
 20
1135.585288
 30
0.0
 11
1241.631536
 21
1135.585288
 31
0.0
  0
ARC
  5
2FED
100
AcDbEntity
  8
0
100
AcDbCircle
 10
1232.631536
 20
1136.386487
 30
0.0
 40
20.826955
100
AcDbArc
 50
244.397043
 51
295.602957
  0
LINE
  5
2FEE
100
AcDbEntity
  8
0
100
AcDbLine
 10
1272.631536
 20
1101.835288
 30
0.0
 11
1210.631536
 21
1101.835288
 31
0.0
  0
LINE
  5
2FEF
100
AcDbEntity
  8
0
100
AcDbLine
 10
1256.631536
 20
1102.70948
 30
0.0
 11
1226.631536
 21
1102.70948
 31
0.0
  0
LINE
  5
2FF0
100
AcDbEntity
  8
0
100
AcDbLine
 10
1226.631536
 20
1107.585288
 30
0.0
 11
1256.631536
 21
1107.585288
 31
0.0
  0
ARC
  5
2FF1
100
AcDbEntity
  8
0
100
AcDbCircle
 10
1232.631536
 20
1113.501741
 30
0.0
 40
20.842265
100
AcDbArc
 50
64.417209
 51
115.582791
  0
LINE
  5
2FF2
100
AcDbEntity
  8
0
100
AcDbLine
 10
1203.631536
 20
1094.835288
 30
0.0
 11
1203.631536
 21
1023.835288
 31
0.0
  0
LINE
  5
2FF3
100
AcDbEntity
  8
0
100
AcDbLine
 10
1203.631536
 20
1094.835288
 30
0.0
 11
1203.631536
 21
1023.835288
 31
0.0
  0
LINE
  5
2FF4
100
AcDbEntity
  8
0
100
AcDbLine
 10
1226.631536
 20
1107.585288
 30
0.0
 11
1223.631536
 21
1117.604526
 31
0.0
  0
ARC
  5
2FF5
100
AcDbEntity
  8
0
100
AcDbCircle
 10
1210.631536
 20
1094.835288
 30
0.0
 40
7.0
100
AcDbArc
 50
90.0
 51
180.0
  0
LINE
  5
2FF6
100
AcDbEntity
  8
0
100
AcDbLine
 10
1225.738799
 20
1101.835288
 30
0.0
 11
1226.631536
 21
1102.70948
 31
0.0
  0
LINE
  5
2FF7
100
AcDbEntity
  8
0
100
AcDbLine
 10
1226.631536
 20
1102.70948
 30
0.0
 11
1226.631536
 21
1107.585288
 31
0.0
  0
LINE
  5
2FF8
100
AcDbEntity
  8
0
100
AcDbLine
 10
1223.631536
 20
1117.604526
 30
0.0
 11
1223.631536
 21
1132.300678
 31
0.0
  0
LINE
  5
2FF9
100
AcDbEntity
  8
0
100
AcDbLine
 10
1223.631536
 20
1132.300678
 30
0.0
 11
1224.131536
 21
1135.585288
 31
0.0
  0
LINE
  5
2FFA
100
AcDbEntity
  8
0
100
AcDbLine
 10
1279.631536
 20
1094.835288
 30
0.0
 11
1279.631536
 21
1023.835288
 31
0.0
  0
LINE
  5
2FFB
100
AcDbEntity
  8
0
100
AcDbLine
 10
1279.631536
 20
1094.835288
 30
0.0
 11
1279.631536
 21
1023.835288
 31
0.0
  0
ARC
  5
2FFC
100
AcDbEntity
  8
0
100
AcDbCircle
 10
1272.631536
 20
1094.835288
 30
0.0
 40
7.0
100
AcDbArc
 50
0.0
 51
90.0
  0
LINE
  5
2FFD
100
AcDbEntity
  8
0
100
AcDbLine
 10
1256.631536
 20
1107.585288
 30
0.0
 11
1259.631536
 21
1117.604526
 31
0.0
  0
LINE
  5
2FFE
100
AcDbEntity
  8
0
100
AcDbLine
 10
1256.631536
 20
1102.70948
 30
0.0
 11
1256.631536
 21
1107.585288
 31
0.0
  0
LINE
  5
2FFF
100
AcDbEntity
  8
0
100
AcDbLine
 10
1257.524274
 20
1101.835288
 30
0.0
 11
1256.631536
 21
1102.70948
 31
0.0
  0
LINE
  5
3000
100
AcDbEntity
  8
0
100
AcDbLine
 10
1241.631536
 20
1135.585288
 30
0.0
 11
1259.131536
 21
1135.585288
 31
0.0
  0
ARC
  5
3001
100
AcDbEntity
  8
0
100
AcDbCircle
 10
1250.631536
 20
1136.386487
 30
0.0
 40
20.826955
100
AcDbArc
 50
244.397043
 51
295.602957
  0
ARC
  5
3002
100
AcDbEntity
  8
0
100
AcDbCircle
 10
1250.631536
 20
1113.501741
 30
0.0
 40
20.842265
100
AcDbArc
 50
64.417209
 51
115.582791
  0
LINE
  5
3003
100
AcDbEntity
  8
0
100
AcDbLine
 10
1241.631536
 20
1117.604526
 30
0.0
 11
1241.631536
 21
1132.300678
 31
0.0
  0
LINE
  5
3004
100
AcDbEntity
  8
0
100
AcDbLine
 10
1259.631536
 20
1117.604526
 30
0.0
 11
1259.631536
 21
1132.300678
 31
0.0
  0
LINE
  5
3005
100
AcDbEntity
  8
0
100
AcDbLine
 10
1259.631536
 20
1132.300678
 30
0.0
 11
1259.131536
 21
1135.585288
 31
0.0
  0
ARC
  5
3006
100
AcDbEntity
  8
0
100
AcDbCircle
 10
1157.484898
 20
1385.504121
 30
0.0
 40
7.0
100
AcDbArc
 50
270.0
 51
315.0
  0
LINE
  5
3007
100
AcDbEntity
  8
0
100
AcDbLine
 10
1806.569071
 20
1135.585288
 30
0.0
 11
1786.569071
 21
1135.585288
 31
0.0
  0
ARC
  5
3008
100
AcDbEntity
  8
0
100
AcDbCircle
 10
1796.819071
 20
1132.029946
 30
0.0
 40
18.106094
100
AcDbArc
 50
235.520751
 51
304.479249
  0
LINE
  5
3009
100
AcDbEntity
  8
0
100
AcDbLine
 10
1801.569071
 20
1098.152214
 30
0.0
 11
1771.569071
 21
1098.152214
 31
0.0
  0
LINE
  5
300A
100
AcDbEntity
  8
0
100
AcDbLine
 10
1801.569071
 20
1102.085288
 30
0.0
 11
1771.569071
 21
1102.085288
 31
0.0
  0
ARC
  5
300B
100
AcDbEntity
  8
0
100
AcDbCircle
 10
1796.819071
 20
1116.9427
 30
0.0
 40
18.143874
100
AcDbArc
 50
55.60264
 51
124.39736
  0
LINE
  5
300C
100
AcDbEntity
  8
0
100
AcDbLine
 10
1769.829148
 20
1096.335288
 30
0.0
 11
1803.308994
 21
1096.335288
 31
0.0
  0
LINE
  5
300D
100
AcDbEntity
  8
0
100
AcDbLine
 10
1769.829148
 20
1009.835288
 30
0.0
 11
1803.308994
 21
1009.835288
 31
0.0
  0
LINE
  5
300E
100
AcDbEntity
  8
0
100
AcDbLine
 10
1801.569071
 20
1003.836905
 30
0.0
 11
1771.569071
 21
1003.836905
 31
0.0
  0
LINE
  5
300F
100
AcDbEntity
  8
0
100
AcDbLine
 10
1801.569071
 20
1007.769978
 30
0.0
 11
1771.569071
 21
1007.769978
 31
0.0
  0
LINE
  5
3010
100
AcDbEntity
  8
0
100
AcDbLine
 10
1806.569071
 20
970.336905
 30
0.0
 11
1786.569071
 21
970.336905
 31
0.0
  0
ARC
  5
3011
100
AcDbEntity
  8
0
100
AcDbCircle
 10
1796.819071
 20
988.979493
 30
0.0
 40
18.143874
100
AcDbArc
 50
235.60264
 51
304.39736
  0
ARC
  5
3012
100
AcDbEntity
  8
0
100
AcDbCircle
 10
1796.819071
 20
973.892247
 30
0.0
 40
18.106094
100
AcDbArc
 50
55.520751
 51
124.479249
  0
ARC
  5
3013
100
AcDbEntity
  8
0
100
AcDbCircle
 10
1760.069071
 20
1025.517303
 30
0.0
 40
11.5
100
AcDbArc
 50
180.0
 51
243.789731
  0
LINE
  5
3014
100
AcDbEntity
  8
0
100
AcDbLine
 10
1766.069071
 20
988.817667
 30
0.0
 11
1771.569071
 21
1003.836905
 31
0.0
  0
LINE
  5
3015
100
AcDbEntity
  8
0
100
AcDbLine
 10
1786.569071
 20
970.336905
 30
0.0
 11
1766.569071
 21
970.336905
 31
0.0
  0
ARC
  5
3016
100
AcDbEntity
  8
0
100
AcDbCircle
 10
1776.319071
 20
988.979493
 30
0.0
 40
18.143874
100
AcDbArc
 50
235.60264
 51
304.39736
  0
ARC
  5
3017
100
AcDbEntity
  8
0
100
AcDbCircle
 10
1776.319071
 20
973.892247
 30
0.0
 40
18.106094
100
AcDbArc
 50
55.520751
 51
124.479249
  0
LINE
  5
3018
100
AcDbEntity
  8
0
100
AcDbLine
 10
1766.069071
 20
988.817667
 30
0.0
 11
1766.069071
 21
974.008266
 31
0.0
  0
LINE
  5
3019
100
AcDbEntity
  8
0
100
AcDbLine
 10
1766.569071
 20
970.336905
 30
0.0
 11
1766.069071
 21
974.008266
 31
0.0
  0
LINE
  5
301A
100
AcDbEntity
  8
0
100
AcDbLine
 10
1786.569071
 20
988.817667
 30
0.0
 11
1786.569071
 21
974.008266
 31
0.0
  0
ARC
  5
301B
100
AcDbEntity
  8
0
100
AcDbCircle
 10
1786.569071
 20
1079.348056
 30
0.0
 40
71.5
100
AcDbArc
 50
243.789731
 51
256.459962
  0
LINE
  5
301C
100
AcDbEntity
  8
0
100
AcDbLine
 10
1771.569071
 20
1003.836905
 30
0.0
 11
1771.569071
 21
1007.769978
 31
0.0
  0
ARC
  5
301D
100
AcDbEntity
  8
0
100
AcDbCircle
 10
1773.498867
 20
1011.54519
 30
0.0
 40
4.239851
100
AcDbArc
 50
207.508231
 51
242.924993
  0
LINE
  5
301E
100
AcDbEntity
  8
0
100
AcDbLine
 10
1748.569071
 20
1025.517303
 30
0.0
 11
1748.569071
 21
1080.653273
 31
0.0
  0
ARC
  5
301F
100
AcDbEntity
  8
0
100
AcDbCircle
 10
1760.069071
 20
1080.653273
 30
0.0
 40
11.5
100
AcDbArc
 50
116.210269
 51
180.0
  0
LINE
  5
3020
100
AcDbEntity
  8
0
100
AcDbLine
 10
1766.069071
 20
1117.104526
 30
0.0
 11
1771.569071
 21
1102.085288
 31
0.0
  0
LINE
  5
3021
100
AcDbEntity
  8
0
100
AcDbLine
 10
1771.569071
 20
1102.085288
 30
0.0
 11
1771.569071
 21
1098.152214
 31
0.0
  0
ARC
  5
3022
100
AcDbEntity
  8
0
100
AcDbCircle
 10
1786.569071
 20
1026.82252
 30
0.0
 40
71.5
100
AcDbArc
 50
103.540038
 51
116.210269
  0
ARC
  5
3023
100
AcDbEntity
  8
0
100
AcDbCircle
 10
1773.498867
 20
1094.377002
 30
0.0
 40
4.239851
100
AcDbArc
 50
117.075007
 51
152.491769
  0
LINE
  5
3024
100
AcDbEntity
  8
0
100
AcDbLine
 10
1786.569071
 20
1135.585288
 30
0.0
 11
1766.569071
 21
1135.585288
 31
0.0
  0
ARC
  5
3025
100
AcDbEntity
  8
0
100
AcDbCircle
 10
1776.319071
 20
1132.029946
 30
0.0
 40
18.106094
100
AcDbArc
 50
235.520751
 51
304.479249
  0
ARC
  5
3026
100
AcDbEntity
  8
0
100
AcDbCircle
 10
1776.319071
 20
1116.9427
 30
0.0
 40
18.143874
100
AcDbArc
 50
55.60264
 51
124.39736
  0
LINE
  5
3027
100
AcDbEntity
  8
0
100
AcDbLine
 10
1766.069071
 20
1117.104526
 30
0.0
 11
1766.069071
 21
1131.913927
 31
0.0
  0
LINE
  5
3028
100
AcDbEntity
  8
0
100
AcDbLine
 10
1766.569071
 20
1135.585288
 30
0.0
 11
1766.069071
 21
1131.913927
 31
0.0
  0
LINE
  5
3029
100
AcDbEntity
  8
0
100
AcDbLine
 10
1786.569071
 20
1117.104526
 30
0.0
 11
1786.569071
 21
1131.913927
 31
0.0
  0
ARC
  5
302A
100
AcDbEntity
  8
0
100
AcDbCircle
 10
1813.069071
 20
1025.517303
 30
0.0
 40
11.5
100
AcDbArc
 50
296.210269
 51
0.0
  0
LINE
  5
302B
100
AcDbEntity
  8
0
100
AcDbLine
 10
1843.608231
 20
1028.785035
 30
0.0
 11
1860.507726
 21
1011.88554
 31
0.0
  0
LINE
  5
302C
100
AcDbEntity
  8
0
100
AcDbLine
 10
1917.557978
 20
1089.335288
 30
0.0
 11
1917.557978
 21
1016.835288
 31
0.0
  0
LINE
  5
302D
100
AcDbEntity
  8
0
100
AcDbLine
 10
1917.557978
 20
1089.335288
 30
0.0
 11
1917.557978
 21
1016.835288
 31
0.0
  0
LINE
  5
302E
100
AcDbEntity
  8
0
100
AcDbLine
 10
1950.040766
 20
1088.461096
 30
0.0
 11
1950.040766
 21
1017.461096
 31
0.0
  0
LINE
  5
302F
100
AcDbEntity
  8
0
100
AcDbLine
 10
1950.040766
 20
1089.335288
 30
0.0
 11
1950.040766
 21
1016.835288
 31
0.0
  0
LINE
  5
3030
100
AcDbEntity
  8
0
100
AcDbLine
 10
1893.557978
 20
970.585288
 30
0.0
 11
1873.557978
 21
970.585288
 31
0.0
  0
ARC
  5
3031
100
AcDbEntity
  8
0
100
AcDbCircle
 10
1875.804458
 20
978.192389
 30
0.0
 40
7.107101
100
AcDbArc
 50
213.626429
 51
326.373571
  0
ARC
  5
3032
100
AcDbEntity
  8
0
100
AcDbCircle
 10
1875.804458
 20
985.13031
 30
0.0
 40
7.107101
100
AcDbArc
 50
33.626429
 51
146.373571
  0
LINE
  5
3033
100
AcDbEntity
  8
0
100
AcDbLine
 10
1869.886617
 20
989.06605
 30
0.0
 11
1878.557978
 21
1004.085288
 31
0.0
  0
LINE
  5
3034
100
AcDbEntity
  8
0
100
AcDbLine
 10
1910.557978
 20
1009.835288
 30
0.0
 11
1864.457473
 21
1009.835288
 31
0.0
  0
TEXT
  5
3035
100
AcDbEntity
  8
0
100
AcDbText
 10
1873.933405
 20
934.111133
 30
0.0
 40
20.0
  1
25A
 41
0.8
 11
1873.933405
 21
934.111133
 31
0.0
100
AcDbText
 73
     1
  0
LINE
  5
3036
100
AcDbEntity
  8
0
100
AcDbLine
 10
1807.069071
 20
988.817667
 30
0.0
 11
1801.569071
 21
1003.836905
 31
0.0
  0
LINE
  5
3037
100
AcDbEntity
  8
0
100
AcDbLine
 10
1807.069071
 20
988.817667
 30
0.0
 11
1807.069071
 21
974.008266
 31
0.0
  0
LINE
  5
3038
100
AcDbEntity
  8
0
100
AcDbLine
 10
1807.069071
 20
974.008266
 30
0.0
 11
1806.569071
 21
970.336905
 31
0.0
  0
ARC
  5
3039
100
AcDbEntity
  8
0
100
AcDbCircle
 10
1786.569071
 20
1079.348056
 30
0.0
 40
71.5
100
AcDbArc
 50
283.540038
 51
296.210269
  0
LINE
  5
303A
100
AcDbEntity
  8
0
100
AcDbLine
 10
1801.569071
 20
1003.836905
 30
0.0
 11
1801.569071
 21
1007.769978
 31
0.0
  0
ARC
  5
303B
100
AcDbEntity
  8
0
100
AcDbCircle
 10
1799.639275
 20
1011.54519
 30
0.0
 40
4.239851
100
AcDbArc
 50
297.075007
 51
332.491769
  0
LINE
  5
303C
100
AcDbEntity
  8
0
100
AcDbLine
 10
1869.886617
 20
989.06605
 30
0.0
 11
1869.886617
 21
974.256649
 31
0.0
  0
LINE
  5
303D
100
AcDbEntity
  8
0
100
AcDbLine
 10
1873.557978
 20
970.585288
 30
0.0
 11
1869.886617
 21
974.256649
 31
0.0
  0
ARC
  5
303E
100
AcDbEntity
  8
0
100
AcDbCircle
 10
1865.457473
 20
1016.835288
 30
0.0
 40
7.0
100
AcDbArc
 50
225.0
 51
270.0
  0
ARC
  5
303F
100
AcDbEntity
  8
0
100
AcDbCircle
 10
1910.557978
 20
1016.835288
 30
0.0
 40
7.0
100
AcDbArc
 50
270.0
 51
0.0
  0
LINE
  5
3040
100
AcDbEntity
  8
0
100
AcDbLine
 10
1917.229339
 20
974.256649
 30
0.0
 11
1913.557978
 21
970.585288
 31
0.0
  0
LINE
  5
3041
100
AcDbEntity
  8
0
100
AcDbLine
 10
1917.229339
 20
989.06605
 30
0.0
 11
1908.557978
 21
1004.085288
 31
0.0
  0
ARC
  5
3042
100
AcDbEntity
  8
0
100
AcDbCircle
 10
1911.311499
 20
978.192389
 30
0.0
 40
7.107101
100
AcDbArc
 50
213.626429
 51
326.373571
  0
ARC
  5
3043
100
AcDbEntity
  8
0
100
AcDbCircle
 10
1911.311499
 20
985.13031
 30
0.0
 40
7.107101
100
AcDbArc
 50
33.626429
 51
146.373571
  0
ARC
  5
3044
100
AcDbEntity
  8
0
100
AcDbCircle
 10
1893.557978
 20
994.756649
 30
0.0
 40
23.671361
100
AcDbArc
 50
240.0
 51
300.0
  0
ARC
  5
3045
100
AcDbEntity
  8
0
100
AcDbCircle
 10
1893.557978
 20
968.56605
 30
0.0
 40
23.671361
100
AcDbArc
 50
60.0
 51
120.0
  0
LINE
  5
3046
100
AcDbEntity
  8
0
100
AcDbLine
 10
1913.557978
 20
970.585288
 30
0.0
 11
1893.557978
 21
970.585288
 31
0.0
  0
LINE
  5
3047
100
AcDbEntity
  8
0
100
AcDbLine
 10
1881.722298
 20
989.06605
 30
0.0
 11
1881.722298
 21
974.256649
 31
0.0
  0
LINE
  5
3048
100
AcDbEntity
  8
0
100
AcDbLine
 10
1905.393659
 20
989.06605
 30
0.0
 11
1905.393659
 21
974.256649
 31
0.0
  0
LINE
  5
3049
100
AcDbEntity
  8
0
100
AcDbLine
 10
1908.557978
 20
1008.018362
 30
0.0
 11
1878.557978
 21
1008.018362
 31
0.0
  0
LINE
  5
304A
100
AcDbEntity
  8
0
100
AcDbLine
 10
1908.557978
 20
1004.085288
 30
0.0
 11
1878.557978
 21
1004.085288
 31
0.0
  0
LINE
  5
304B
100
AcDbEntity
  8
0
100
AcDbLine
 10
1878.557978
 20
1004.085288
 30
0.0
 11
1878.557978
 21
1008.018362
 31
0.0
  0
ARC
  5
304C
100
AcDbEntity
  8
0
100
AcDbCircle
 10
1880.487774
 20
1011.793574
 30
0.0
 40
4.239851
100
AcDbArc
 50
207.508231
 51
242.924993
  0
LINE
  5
304D
100
AcDbEntity
  8
0
100
AcDbLine
 10
1908.557978
 20
1004.085288
 30
0.0
 11
1908.557978
 21
1008.018362
 31
0.0
  0
ARC
  5
304E
100
AcDbEntity
  8
0
100
AcDbCircle
 10
1906.628182
 20
1011.793574
 30
0.0
 40
4.239851
100
AcDbArc
 50
297.075007
 51
332.491769
  0
LINE
  5
304F
100
AcDbEntity
  8
0
100
AcDbLine
 10
1917.229339
 20
989.06605
 30
0.0
 11
1917.229339
 21
974.256649
 31
0.0
  0
LINE
  5
3050
100
AcDbEntity
  8
0
100
AcDbLine
 10
1893.557978
 20
1135.585288
 30
0.0
 11
1873.557978
 21
1135.585288
 31
0.0
  0
ARC
  5
3051
100
AcDbEntity
  8
0
100
AcDbCircle
 10
1875.804458
 20
1121.040265
 30
0.0
 40
7.107101
100
AcDbArc
 50
213.626429
 51
326.373571
  0
LINE
  5
3052
100
AcDbEntity
  8
0
100
AcDbLine
 10
1869.886617
 20
1117.104526
 30
0.0
 11
1878.557978
 21
1102.085288
 31
0.0
  0
ARC
  5
3053
100
AcDbEntity
  8
0
100
AcDbCircle
 10
1875.804458
 20
1127.978187
 30
0.0
 40
7.107101
100
AcDbArc
 50
33.626429
 51
146.373571
  0
LINE
  5
3054
100
AcDbEntity
  8
0
100
AcDbLine
 10
1910.557978
 20
1096.335288
 30
0.0
 11
1864.457473
 21
1096.335288
 31
0.0
  0
LINE
  5
3055
100
AcDbEntity
  8
0
100
AcDbLine
 10
1910.557978
 20
1096.335288
 30
0.0
 11
1864.457473
 21
1096.335288
 31
0.0
  0
LINE
  5
3056
100
AcDbEntity
  8
0
100
AcDbLine
 10
1843.608231
 20
1077.38554
 30
0.0
 11
1860.507726
 21
1094.285035
 31
0.0
  0
LINE
  5
3057
100
AcDbEntity
  8
0
100
AcDbLine
 10
1824.569071
 20
1025.517303
 30
0.0
 11
1824.569071
 21
1080.653273
 31
0.0
  0
LINE
  5
3058
100
AcDbEntity
  8
0
100
AcDbLine
 10
1841.557978
 20
1072.435793
 30
0.0
 11
1841.557978
 21
1033.734783
 31
0.0
  0
LINE
  5
3059
100
AcDbEntity
  8
0
100
AcDbLine
 10
1841.557978
 20
1072.435793
 30
0.0
 11
1841.557978
 21
1033.734783
 31
0.0
  0
ARC
  5
305A
100
AcDbEntity
  8
0
100
AcDbCircle
 10
1848.557978
 20
1033.734783
 30
0.0
 40
7.0
100
AcDbArc
 50
180.0
 51
225.0
  0
ARC
  5
305B
100
AcDbEntity
  8
0
100
AcDbCircle
 10
1848.557978
 20
1072.435793
 30
0.0
 40
7.0
100
AcDbArc
 50
135.0
 51
180.0
  0
LINE
  5
305C
100
AcDbEntity
  8
0
100
AcDbLine
 10
1807.069071
 20
1117.104526
 30
0.0
 11
1801.569071
 21
1102.085288
 31
0.0
  0
ARC
  5
305D
100
AcDbEntity
  8
0
100
AcDbCircle
 10
1786.569071
 20
1026.82252
 30
0.0
 40
71.5
100
AcDbArc
 50
63.789731
 51
76.459962
  0
LINE
  5
305E
100
AcDbEntity
  8
0
100
AcDbLine
 10
1801.569071
 20
1102.085288
 30
0.0
 11
1801.569071
 21
1098.152214
 31
0.0
  0
ARC
  5
305F
100
AcDbEntity
  8
0
100
AcDbCircle
 10
1799.639275
 20
1094.377002
 30
0.0
 40
4.239851
100
AcDbArc
 50
27.508231
 51
62.924993
  0
ARC
  5
3060
100
AcDbEntity
  8
0
100
AcDbCircle
 10
1813.069071
 20
1080.653273
 30
0.0
 40
11.5
100
AcDbArc
 50
0.0
 51
63.789731
  0
LINE
  5
3061
100
AcDbEntity
  8
0
100
AcDbLine
 10
1807.069071
 20
1117.104526
 30
0.0
 11
1807.069071
 21
1131.913927
 31
0.0
  0
LINE
  5
3062
100
AcDbEntity
  8
0
100
AcDbLine
 10
1807.069071
 20
1131.913927
 30
0.0
 11
1806.569071
 21
1135.585288
 31
0.0
  0
ARC
  5
3063
100
AcDbEntity
  8
0
100
AcDbCircle
 10
1865.457473
 20
1089.335288
 30
0.0
 40
7.0
100
AcDbArc
 50
90.0
 51
135.0
  0
LINE
  5
3064
100
AcDbEntity
  8
0
100
AcDbLine
 10
1869.886617
 20
1117.104526
 30
0.0
 11
1869.886617
 21
1131.913927
 31
0.0
  0
LINE
  5
3065
100
AcDbEntity
  8
0
100
AcDbLine
 10
1873.557978
 20
1135.585288
 30
0.0
 11
1869.886617
 21
1131.913927
 31
0.0
  0
LINE
  5
3066
100
AcDbEntity
  8
0
100
AcDbLine
 10
1917.229339
 20
1117.104526
 30
0.0
 11
1908.557978
 21
1102.085288
 31
0.0
  0
LINE
  5
3067
100
AcDbEntity
  8
0
100
AcDbLine
 10
1917.229339
 20
1131.913927
 30
0.0
 11
1913.557978
 21
1135.585288
 31
0.0
  0
ARC
  5
3068
100
AcDbEntity
  8
0
100
AcDbCircle
 10
1910.557978
 20
1089.335288
 30
0.0
 40
7.0
100
AcDbArc
 50
0.0
 51
90.0
  0
ARC
  5
3069
100
AcDbEntity
  8
0
100
AcDbCircle
 10
1911.311499
 20
1127.978187
 30
0.0
 40
7.107101
100
AcDbArc
 50
33.626429
 51
146.373571
  0
ARC
  5
306A
100
AcDbEntity
  8
0
100
AcDbCircle
 10
1911.311499
 20
1121.040265
 30
0.0
 40
7.107101
100
AcDbArc
 50
213.626429
 51
326.373571
  0
LINE
  5
306B
100
AcDbEntity
  8
0
100
AcDbLine
 10
1908.557978
 20
1102.085288
 30
0.0
 11
1878.557978
 21
1102.085288
 31
0.0
  0
LINE
  5
306C
100
AcDbEntity
  8
0
100
AcDbLine
 10
1908.557978
 20
1098.152214
 30
0.0
 11
1878.557978
 21
1098.152214
 31
0.0
  0
LINE
  5
306D
100
AcDbEntity
  8
0
100
AcDbLine
 10
1878.557978
 20
1102.085288
 30
0.0
 11
1878.557978
 21
1098.152214
 31
0.0
  0
ARC
  5
306E
100
AcDbEntity
  8
0
100
AcDbCircle
 10
1880.487774
 20
1094.377002
 30
0.0
 40
4.239851
100
AcDbArc
 50
117.075007
 51
152.491769
  0
LINE
  5
306F
100
AcDbEntity
  8
0
100
AcDbLine
 10
1908.557978
 20
1102.085288
 30
0.0
 11
1908.557978
 21
1098.152214
 31
0.0
  0
ARC
  5
3070
100
AcDbEntity
  8
0
100
AcDbCircle
 10
1906.628182
 20
1094.377002
 30
0.0
 40
4.239851
100
AcDbArc
 50
27.508231
 51
62.924993
  0
ARC
  5
3071
100
AcDbEntity
  8
0
100
AcDbCircle
 10
1893.557978
 20
1137.604526
 30
0.0
 40
23.671361
100
AcDbArc
 50
240.0
 51
300.0
  0
ARC
  5
3072
100
AcDbEntity
  8
0
100
AcDbCircle
 10
1893.557978
 20
1111.413927
 30
0.0
 40
23.671361
100
AcDbArc
 50
60.0
 51
120.0
  0
LINE
  5
3073
100
AcDbEntity
  8
0
100
AcDbLine
 10
1913.557978
 20
1135.585288
 30
0.0
 11
1893.557978
 21
1135.585288
 31
0.0
  0
LINE
  5
3074
100
AcDbEntity
  8
0
100
AcDbLine
 10
1881.722298
 20
1117.104526
 30
0.0
 11
1881.722298
 21
1131.913927
 31
0.0
  0
LINE
  5
3075
100
AcDbEntity
  8
0
100
AcDbLine
 10
1905.393659
 20
1117.104526
 30
0.0
 11
1905.393659
 21
1131.913927
 31
0.0
  0
LINE
  5
3076
100
AcDbEntity
  8
0
100
AcDbLine
 10
1917.229339
 20
1117.104526
 30
0.0
 11
1917.229339
 21
1131.913927
 31
0.0
  0
CIRCLE
  5
3077
100
AcDbEntity
  8
0
100
AcDbCircle
 10
1893.557978
 20
1263.48448
 30
0.0
 40
20.5
  0
POLYLINE
  5
3078
100
AcDbEntity
  8
0
100
AcDb2dPolyline
 66
     1
 10
0.0
 20
0.0
 30
0.0
 70
     1
  0
VERTEX
  5
34D6
100
AcDbEntity
  8
0
100
AcDbVertex
100
AcDb2dVertex
 10
1873.057978
 20
1251.6488
 30
0.0
  0
VERTEX
  5
34D7
100
AcDbEntity
  8
0
100
AcDbVertex
100
AcDb2dVertex
 10
1893.557978
 20
1239.813119
 30
0.0
  0
VERTEX
  5
34D8
100
AcDbEntity
  8
0
100
AcDbVertex
100
AcDb2dVertex
 10
1914.057978
 20
1251.6488
 30
0.0
  0
VERTEX
  5
34D9
100
AcDbEntity
  8
0
100
AcDbVertex
100
AcDb2dVertex
 10
1914.057978
 20
1275.320161
 30
0.0
  0
VERTEX
  5
34DA
100
AcDbEntity
  8
0
100
AcDbVertex
100
AcDb2dVertex
 10
1893.557978
 20
1287.155841
 30
0.0
  0
VERTEX
  5
34DB
100
AcDbEntity
  8
0
100
AcDbVertex
100
AcDb2dVertex
 10
1873.057978
 20
1275.320161
 30
0.0
  0
SEQEND
  5
34DC
100
AcDbEntity
  8
0
  0
CIRCLE
  5
3079
100
AcDbEntity
  8
0
100
AcDbCircle
 10
1879.557978
 20
1263.48448
 30
0.0
 40
38.0
  0
LINE
  5
307A
100
AcDbEntity
  8
0
100
AcDbLine
 10
1900.240846
 20
1203.012461
 30
0.0
 11
1900.240846
 21
1174.652336
 31
0.0
  0
LINE
  5
307B
100
AcDbEntity
  8
0
100
AcDbLine
 10
1890.787471
 20
1146.290524
 30
0.0
 11
1890.787471
 21
1193.559086
 31
0.0
  0
LINE
  5
307C
100
AcDbEntity
  8
0
100
AcDbLine
 10
1900.240846
 20
1174.652336
 30
0.0
 11
1895.514158
 21
1169.923961
 31
0.0
  0
LINE
  5
307D
100
AcDbEntity
  8
0
100
AcDbLine
 10
1895.514158
 20
1155.949774
 30
0.0
 11
1900.240846
 21
1155.949774
 31
0.0
  0
LINE
  5
307E
100
AcDbEntity
  8
0
100
AcDbLine
 10
1900.240846
 20
1155.949774
 30
0.0
 11
1890.787471
 21
1146.290524
 31
0.0
  0
LINE
  5
307F
100
AcDbEntity
  8
0
100
AcDbLine
 10
1895.514158
 20
1169.923961
 30
0.0
 11
1895.514158
 21
1155.949774
 31
0.0
  0
LINE
  5
3080
100
AcDbEntity
  8
0
100
AcDbLine
 10
1890.787471
 20
1193.559086
 30
0.0
 11
1900.240846
 21
1203.012461
 31
0.0
  0
CIRCLE
  5
3081
100
AcDbEntity
  8
0
100
AcDbCircle
 10
1893.557978
 20
1263.48448
 30
0.0
 40
15.1455
  0
ARC
  5
3082
100
AcDbEntity
  8
0
100
AcDbCircle
 10
1876.557978
 20
1378.504121
 30
0.0
 40
7.0
100
AcDbArc
 50
180.0
 51
270.0
  0
ARC
  5
3083
100
AcDbEntity
  8
0
100
AcDbCircle
 10
1875.804458
 20
1346.799143
 30
0.0
 40
7.107101
100
AcDbArc
 50
33.626429
 51
146.373571
  0
ARC
  5
3084
100
AcDbEntity
  8
0
100
AcDbCircle
 10
1875.804458
 20
1339.861221
 30
0.0
 40
7.107101
100
AcDbArc
 50
213.626429
 51
326.373571
  0
LINE
  5
3085
100
AcDbEntity
  8
0
100
AcDbLine
 10
1873.557978
 20
1332.254121
 30
0.0
 11
1893.557978
 21
1332.254121
 31
0.0
  0
LINE
  5
3086
100
AcDbEntity
  8
0
100
AcDbLine
 10
1869.886617
 20
1350.734883
 30
0.0
 11
1878.557978
 21
1365.754121
 31
0.0
  0
LINE
  5
3087
100
AcDbEntity
  8
0
100
AcDbLine
 10
1869.886617
 20
1350.734883
 30
0.0
 11
1869.886617
 21
1335.925482
 31
0.0
  0
LINE
  5
3088
100
AcDbEntity
  8
0
100
AcDbLine
 10
1869.886617
 20
1335.925482
 30
0.0
 11
1873.557978
 21
1332.254121
 31
0.0
  0
LINE
  5
3089
100
AcDbEntity
  8
0
100
AcDbLine
 10
1917.229339
 20
1350.734883
 30
0.0
 11
1917.229339
 21
1335.925482
 31
0.0
  0
LINE
  5
308A
100
AcDbEntity
  8
0
100
AcDbLine
 10
1905.393659
 20
1350.734883
 30
0.0
 11
1905.393659
 21
1335.925482
 31
0.0
  0
LINE
  5
308B
100
AcDbEntity
  8
0
100
AcDbLine
 10
1881.722298
 20
1350.734883
 30
0.0
 11
1881.722298
 21
1335.925482
 31
0.0
  0
LINE
  5
308C
100
AcDbEntity
  8
0
100
AcDbLine
 10
1913.557978
 20
1332.254121
 30
0.0
 11
1917.229339
 21
1335.925482
 31
0.0
  0
ARC
  5
308D
100
AcDbEntity
  8
0
100
AcDbCircle
 10
1911.311499
 20
1339.861221
 30
0.0
 40
7.107101
100
AcDbArc
 50
213.626429
 51
326.373571
  0
ARC
  5
308E
100
AcDbEntity
  8
0
100
AcDbCircle
 10
1893.557978
 20
1356.425482
 30
0.0
 40
23.671361
100
AcDbArc
 50
240.0
 51
300.0
  0
LINE
  5
308F
100
AcDbEntity
  8
0
100
AcDbLine
 10
1893.557978
 20
1332.254121
 30
0.0
 11
1913.557978
 21
1332.254121
 31
0.0
  0
LINE
  5
3090
100
AcDbEntity
  8
0
100
AcDbLine
 10
1917.229339
 20
1350.734883
 30
0.0
 11
1908.557978
 21
1365.754121
 31
0.0
  0
LINE
  5
3091
100
AcDbEntity
  8
0
100
AcDbLine
 10
1876.557978
 20
1371.504121
 30
0.0
 11
1922.658483
 21
1371.504121
 31
0.0
  0
ARC
  5
3092
100
AcDbEntity
  8
0
100
AcDbCircle
 10
1911.311499
 20
1346.799143
 30
0.0
 40
7.107101
100
AcDbArc
 50
33.626429
 51
146.373571
  0
ARC
  5
3093
100
AcDbEntity
  8
0
100
AcDbCircle
 10
1893.557978
 20
1330.234883
 30
0.0
 40
23.671361
100
AcDbArc
 50
60.0
 51
120.0
  0
LINE
  5
3094
100
AcDbEntity
  8
0
100
AcDbLine
 10
1878.557978
 20
1365.754121
 30
0.0
 11
1908.557978
 21
1365.754121
 31
0.0
  0
LINE
  5
3095
100
AcDbEntity
  8
0
100
AcDbLine
 10
1878.557978
 20
1369.687195
 30
0.0
 11
1908.557978
 21
1369.687195
 31
0.0
  0
LINE
  5
3096
100
AcDbEntity
  8
0
100
AcDbLine
 10
1878.557978
 20
1365.754121
 30
0.0
 11
1878.557978
 21
1369.687195
 31
0.0
  0
ARC
  5
3097
100
AcDbEntity
  8
0
100
AcDbCircle
 10
1880.487774
 20
1373.462406
 30
0.0
 40
4.239851
100
AcDbArc
 50
207.508231
 51
242.924993
  0
LINE
  5
3098
100
AcDbEntity
  8
0
100
AcDbLine
 10
1908.557978
 20
1365.754121
 30
0.0
 11
1908.557978
 21
1369.687195
 31
0.0
  0
ARC
  5
3099
100
AcDbEntity
  8
0
100
AcDbCircle
 10
1906.628182
 20
1373.462406
 30
0.0
 40
4.239851
100
AcDbArc
 50
297.075007
 51
332.491769
  0
LINE
  5
309A
100
AcDbEntity
  8
0
100
AcDbLine
 10
1943.507726
 20
1390.453868
 30
0.0
 11
1926.608231
 21
1373.554373
 31
0.0
  0
ARC
  5
309B
100
AcDbEntity
  8
0
100
AcDbCircle
 10
1921.658483
 20
1378.504121
 30
0.0
 40
7.0
100
AcDbArc
 50
270.0
 51
315.0
  0
LINE
  5
309C
100
AcDbEntity
  8
0
100
AcDbLine
 10
1179.334141
 20
1444.554373
 30
0.0
 11
1162.434646
 21
1461.453868
 31
0.0
  0
LINE
  5
309D
100
AcDbEntity
  8
0
100
AcDbLine
 10
1181.384393
 20
1439.604626
 30
0.0
 11
1181.384393
 21
1402.403616
 31
0.0
  0
LINE
  5
309E
100
AcDbEntity
  8
0
100
AcDbLine
 10
1181.384393
 20
1439.604626
 30
0.0
 11
1181.384393
 21
1402.403616
 31
0.0
  0
ARC
  5
309F
100
AcDbEntity
  8
0
100
AcDbCircle
 10
1174.384393
 20
1402.403616
 30
0.0
 40
7.0
100
AcDbArc
 50
315.0
 51
0.0
  0
ARC
  5
30A0
100
AcDbEntity
  8
0
100
AcDbCircle
 10
1174.384393
 20
1439.604626
 30
0.0
 40
7.0
100
AcDbArc
 50
0.0
 51
45.0
  0
ARC
  5
30A1
100
AcDbEntity
  8
0
100
AcDbCircle
 10
1157.484898
 20
1456.504121
 30
0.0
 40
7.0
100
AcDbArc
 50
45.0
 51
90.0
  0
ARC
  5
30A2
100
AcDbEntity
  8
0
100
AcDbCircle
 10
1875.804458
 20
1489.64702
 30
0.0
 40
7.107101
100
AcDbArc
 50
33.626429
 51
146.373571
  0
LINE
  5
30A3
100
AcDbEntity
  8
0
100
AcDbLine
 10
1873.557978
 20
1497.254121
 30
0.0
 11
1893.557978
 21
1497.254121
 31
0.0
  0
ARC
  5
30A4
100
AcDbEntity
  8
0
100
AcDbCircle
 10
1875.804458
 20
1482.709098
 30
0.0
 40
7.107101
100
AcDbArc
 50
213.626429
 51
326.373571
  0
ARC
  5
30A5
100
AcDbEntity
  8
0
100
AcDbCircle
 10
1876.557978
 20
1451.004121
 30
0.0
 40
7.0
100
AcDbArc
 50
90.0
 51
180.0
  0
LINE
  5
30A6
100
AcDbEntity
  8
0
100
AcDbLine
 10
1869.886617
 20
1478.773359
 30
0.0
 11
1878.557978
 21
1463.754121
 31
0.0
  0
LINE
  5
30A7
100
AcDbEntity
  8
0
100
AcDbLine
 10
1869.886617
 20
1478.773359
 30
0.0
 11
1869.886617
 21
1493.58276
 31
0.0
  0
LINE
  5
30A8
100
AcDbEntity
  8
0
100
AcDbLine
 10
1869.886617
 20
1493.58276
 30
0.0
 11
1873.557978
 21
1497.254121
 31
0.0
  0
LINE
  5
30A9
100
AcDbEntity
  8
0
100
AcDbLine
 10
1943.507726
 20
1439.054373
 30
0.0
 11
1926.608231
 21
1455.953868
 31
0.0
  0
LINE
  5
30AA
100
AcDbEntity
  8
0
100
AcDbLine
 10
1945.557978
 20
1434.104626
 30
0.0
 11
1945.557978
 21
1395.403616
 31
0.0
  0
LINE
  5
30AB
100
AcDbEntity
  8
0
100
AcDbLine
 10
1945.557978
 20
1434.104626
 30
0.0
 11
1945.557978
 21
1395.403616
 31
0.0
  0
ARC
  5
30AC
100
AcDbEntity
  8
0
100
AcDbCircle
 10
1938.557978
 20
1434.104626
 30
0.0
 40
7.0
100
AcDbArc
 50
0.0
 51
45.0
  0
LINE
  5
30AD
100
AcDbEntity
  8
0
100
AcDbLine
 10
1913.557978
 20
1497.254121
 30
0.0
 11
1917.229339
 21
1493.58276
 31
0.0
  0
LINE
  5
30AE
100
AcDbEntity
  8
0
100
AcDbLine
 10
1917.229339
 20
1478.773359
 30
0.0
 11
1908.557978
 21
1463.754121
 31
0.0
  0
LINE
  5
30AF
100
AcDbEntity
  8
0
100
AcDbLine
 10
1876.557978
 20
1458.004121
 30
0.0
 11
1922.658483
 21
1458.004121
 31
0.0
  0
LINE
  5
30B0
100
AcDbEntity
  8
0
100
AcDbLine
 10
1876.557978
 20
1458.004121
 30
0.0
 11
1922.658483
 21
1458.004121
 31
0.0
  0
ARC
  5
30B1
100
AcDbEntity
  8
0
100
AcDbCircle
 10
1911.311499
 20
1482.709098
 30
0.0
 40
7.107101
100
AcDbArc
 50
213.626429
 51
326.373571
  0
ARC
  5
30B2
100
AcDbEntity
  8
0
100
AcDbCircle
 10
1911.311499
 20
1489.64702
 30
0.0
 40
7.107101
100
AcDbArc
 50
33.626429
 51
146.373571
  0
LINE
  5
30B3
100
AcDbEntity
  8
0
100
AcDbLine
 10
1905.393659
 20
1478.773359
 30
0.0
 11
1905.393659
 21
1493.58276
 31
0.0
  0
LINE
  5
30B4
100
AcDbEntity
  8
0
100
AcDbLine
 10
1881.722298
 20
1478.773359
 30
0.0
 11
1881.722298
 21
1493.58276
 31
0.0
  0
ARC
  5
30B5
100
AcDbEntity
  8
0
100
AcDbCircle
 10
1893.557978
 20
1499.273359
 30
0.0
 40
23.671361
100
AcDbArc
 50
240.0
 51
300.0
  0
LINE
  5
30B6
100
AcDbEntity
  8
0
100
AcDbLine
 10
1878.557978
 20
1463.754121
 30
0.0
 11
1908.557978
 21
1463.754121
 31
0.0
  0
LINE
  5
30B7
100
AcDbEntity
  8
0
100
AcDbLine
 10
1878.557978
 20
1459.821047
 30
0.0
 11
1908.557978
 21
1459.821047
 31
0.0
  0
ARC
  5
30B8
100
AcDbEntity
  8
0
100
AcDbCircle
 10
1880.487774
 20
1456.045835
 30
0.0
 40
4.239851
100
AcDbArc
 50
117.075007
 51
152.491769
  0
LINE
  5
30B9
100
AcDbEntity
  8
0
100
AcDbLine
 10
1878.557978
 20
1463.754121
 30
0.0
 11
1878.557978
 21
1459.821047
 31
0.0
  0
ARC
  5
30BA
100
AcDbEntity
  8
0
100
AcDbCircle
 10
1906.628182
 20
1456.045835
 30
0.0
 40
4.239851
100
AcDbArc
 50
27.508231
 51
62.924993
  0
LINE
  5
30BB
100
AcDbEntity
  8
0
100
AcDbLine
 10
1908.557978
 20
1463.754121
 30
0.0
 11
1908.557978
 21
1459.821047
 31
0.0
  0
ARC
  5
30BC
100
AcDbEntity
  8
0
100
AcDbCircle
 10
1893.557978
 20
1473.08276
 30
0.0
 40
23.671361
100
AcDbArc
 50
60.0
 51
120.0
  0
LINE
  5
30BD
100
AcDbEntity
  8
0
100
AcDbLine
 10
1893.557978
 20
1497.254121
 30
0.0
 11
1913.557978
 21
1497.254121
 31
0.0
  0
LINE
  5
30BE
100
AcDbEntity
  8
0
100
AcDbLine
 10
1917.229339
 20
1478.773359
 30
0.0
 11
1917.229339
 21
1493.58276
 31
0.0
  0
ARC
  5
30BF
100
AcDbEntity
  8
0
100
AcDbCircle
 10
1921.658483
 20
1451.004121
 30
0.0
 40
7.0
100
AcDbArc
 50
45.0
 51
90.0
  0
LINE
  5
30C0
100
AcDbEntity
  8
0
100
AcDbLine
 10
2026.040766
 20
1088.461096
 30
0.0
 11
2026.040766
 21
1017.461096
 31
0.0
  0
LINE
  5
30C1
100
AcDbEntity
  8
0
100
AcDbLine
 10
2026.040766
 20
1089.335288
 30
0.0
 11
2026.040766
 21
1016.835288
 31
0.0
  0
LINE
  5
30C2
100
AcDbEntity
  8
0
100
AcDbLine
 10
2003.040766
 20
1007.769978
 30
0.0
 11
1973.040766
 21
1007.769978
 31
0.0
  0
LINE
  5
30C3
100
AcDbEntity
  8
0
100
AcDbLine
 10
2003.040766
 20
1003.836905
 30
0.0
 11
1973.040766
 21
1003.836905
 31
0.0
  0
LINE
  5
30C4
100
AcDbEntity
  8
0
100
AcDbLine
 10
2019.040766
 20
1009.835288
 30
0.0
 11
1957.040766
 21
1009.835288
 31
0.0
  0
LINE
  5
30C5
100
AcDbEntity
  8
0
100
AcDbLine
 10
2008.040766
 20
970.336905
 30
0.0
 11
1988.040766
 21
970.336905
 31
0.0
  0
ARC
  5
30C6
100
AcDbEntity
  8
0
100
AcDbCircle
 10
1998.290766
 20
988.979493
 30
0.0
 40
18.143874
100
AcDbArc
 50
235.60264
 51
304.39736
  0
ARC
  5
30C7
100
AcDbEntity
  8
0
100
AcDbCircle
 10
1998.290766
 20
973.892247
 30
0.0
 40
18.106094
100
AcDbArc
 50
55.520751
 51
124.479249
  0
LINE
  5
30C8
100
AcDbEntity
  8
0
100
AcDbLine
 10
1967.540766
 20
988.817667
 30
0.0
 11
1973.040766
 21
1003.836905
 31
0.0
  0
LINE
  5
30C9
100
AcDbEntity
  8
0
100
AcDbLine
 10
1988.040766
 20
970.336905
 30
0.0
 11
1968.040766
 21
970.336905
 31
0.0
  0
ARC
  5
30CA
100
AcDbEntity
  8
0
100
AcDbCircle
 10
1977.790766
 20
988.979493
 30
0.0
 40
18.143874
100
AcDbArc
 50
235.60264
 51
304.39736
  0
ARC
  5
30CB
100
AcDbEntity
  8
0
100
AcDbCircle
 10
1977.790766
 20
973.892247
 30
0.0
 40
18.106094
100
AcDbArc
 50
55.520751
 51
124.479249
  0
LINE
  5
30CC
100
AcDbEntity
  8
0
100
AcDbLine
 10
1967.540766
 20
988.817667
 30
0.0
 11
1967.540766
 21
974.008266
 31
0.0
  0
LINE
  5
30CD
100
AcDbEntity
  8
0
100
AcDbLine
 10
1968.040766
 20
970.336905
 30
0.0
 11
1967.540766
 21
974.008266
 31
0.0
  0
LINE
  5
30CE
100
AcDbEntity
  8
0
100
AcDbLine
 10
1988.040766
 20
988.817667
 30
0.0
 11
1988.040766
 21
974.008266
 31
0.0
  0
LINE
  5
30CF
100
AcDbEntity
  8
0
100
AcDbLine
 10
1973.040766
 20
1003.836905
 30
0.0
 11
1973.040766
 21
1007.769978
 31
0.0
  0
ARC
  5
30D0
100
AcDbEntity
  8
0
100
AcDbCircle
 10
1974.970562
 20
1011.54519
 30
0.0
 40
4.239851
100
AcDbArc
 50
207.508231
 51
242.924993
  0
LINE
  5
30D1
100
AcDbEntity
  8
0
100
AcDbLine
 10
2008.540766
 20
988.817667
 30
0.0
 11
2003.040766
 21
1003.836905
 31
0.0
  0
LINE
  5
30D2
100
AcDbEntity
  8
0
100
AcDbLine
 10
2008.540766
 20
988.817667
 30
0.0
 11
2008.540766
 21
974.008266
 31
0.0
  0
LINE
  5
30D3
100
AcDbEntity
  8
0
100
AcDbLine
 10
2008.540766
 20
974.008266
 30
0.0
 11
2008.040766
 21
970.336905
 31
0.0
  0
LINE
  5
30D4
100
AcDbEntity
  8
0
100
AcDbLine
 10
2003.040766
 20
1003.836905
 30
0.0
 11
2003.040766
 21
1007.769978
 31
0.0
  0
ARC
  5
30D5
100
AcDbEntity
  8
0
100
AcDbCircle
 10
2001.11097
 20
1011.54519
 30
0.0
 40
4.239851
100
AcDbArc
 50
297.075007
 51
332.491769
  0
ARC
  5
30D6
100
AcDbEntity
  8
0
100
AcDbCircle
 10
2019.040766
 20
1016.835288
 30
0.0
 40
7.0
100
AcDbArc
 50
270.0
 51
0.0
  0
LINE
  5
30D7
100
AcDbEntity
  8
0
100
AcDbLine
 10
2008.040766
 20
1135.585288
 30
0.0
 11
1988.040766
 21
1135.585288
 31
0.0
  0
LINE
  5
30D8
100
AcDbEntity
  8
0
100
AcDbLine
 10
2003.040766
 20
1098.152214
 30
0.0
 11
1973.040766
 21
1098.152214
 31
0.0
  0
LINE
  5
30D9
100
AcDbEntity
  8
0
100
AcDbLine
 10
2003.040766
 20
1102.085288
 30
0.0
 11
1973.040766
 21
1102.085288
 31
0.0
  0
ARC
  5
30DA
100
AcDbEntity
  8
0
100
AcDbCircle
 10
1998.290766
 20
1132.029946
 30
0.0
 40
18.106094
100
AcDbArc
 50
235.520751
 51
304.479249
  0
ARC
  5
30DB
100
AcDbEntity
  8
0
100
AcDbCircle
 10
1998.290766
 20
1116.9427
 30
0.0
 40
18.143874
100
AcDbArc
 50
55.60264
 51
124.39736
  0
LINE
  5
30DC
100
AcDbEntity
  8
0
100
AcDbLine
 10
2019.040766
 20
1096.335288
 30
0.0
 11
1957.040766
 21
1096.335288
 31
0.0
  0
LINE
  5
30DD
100
AcDbEntity
  8
0
100
AcDbLine
 10
1967.540766
 20
1117.104526
 30
0.0
 11
1973.040766
 21
1102.085288
 31
0.0
  0
LINE
  5
30DE
100
AcDbEntity
  8
0
100
AcDbLine
 10
1973.040766
 20
1102.085288
 30
0.0
 11
1973.040766
 21
1098.152214
 31
0.0
  0
ARC
  5
30DF
100
AcDbEntity
  8
0
100
AcDbCircle
 10
1974.970562
 20
1094.377002
 30
0.0
 40
4.239851
100
AcDbArc
 50
117.075007
 51
152.491769
  0
LINE
  5
30E0
100
AcDbEntity
  8
0
100
AcDbLine
 10
1988.040766
 20
1135.585288
 30
0.0
 11
1968.040766
 21
1135.585288
 31
0.0
  0
ARC
  5
30E1
100
AcDbEntity
  8
0
100
AcDbCircle
 10
1977.790766
 20
1132.029946
 30
0.0
 40
18.106094
100
AcDbArc
 50
235.520751
 51
304.479249
  0
ARC
  5
30E2
100
AcDbEntity
  8
0
100
AcDbCircle
 10
1977.790766
 20
1116.9427
 30
0.0
 40
18.143874
100
AcDbArc
 50
55.60264
 51
124.39736
  0
LINE
  5
30E3
100
AcDbEntity
  8
0
100
AcDbLine
 10
1967.540766
 20
1117.104526
 30
0.0
 11
1967.540766
 21
1131.913927
 31
0.0
  0
LINE
  5
30E4
100
AcDbEntity
  8
0
100
AcDbLine
 10
1968.040766
 20
1135.585288
 30
0.0
 11
1967.540766
 21
1131.913927
 31
0.0
  0
LINE
  5
30E5
100
AcDbEntity
  8
0
100
AcDbLine
 10
1988.040766
 20
1117.104526
 30
0.0
 11
1988.040766
 21
1131.913927
 31
0.0
  0
LINE
  5
30E6
100
AcDbEntity
  8
0
100
AcDbLine
 10
2008.540766
 20
1117.104526
 30
0.0
 11
2003.040766
 21
1102.085288
 31
0.0
  0
LINE
  5
30E7
100
AcDbEntity
  8
0
100
AcDbLine
 10
2003.040766
 20
1102.085288
 30
0.0
 11
2003.040766
 21
1098.152214
 31
0.0
  0
ARC
  5
30E8
100
AcDbEntity
  8
0
100
AcDbCircle
 10
2001.11097
 20
1094.377002
 30
0.0
 40
4.239851
100
AcDbArc
 50
27.508231
 51
62.924993
  0
ARC
  5
30E9
100
AcDbEntity
  8
0
100
AcDbCircle
 10
2019.040766
 20
1089.335288
 30
0.0
 40
7.0
100
AcDbArc
 50
0.0
 51
90.0
  0
LINE
  5
30EA
100
AcDbEntity
  8
0
100
AcDbLine
 10
2008.540766
 20
1117.104526
 30
0.0
 11
2008.540766
 21
1131.913927
 31
0.0
  0
LINE
  5
30EB
100
AcDbEntity
  8
0
100
AcDbLine
 10
2008.540766
 20
1131.913927
 30
0.0
 11
2008.040766
 21
1135.585288
 31
0.0
  0
LINE
  5
31AC
100
AcDbEntity
  8
0
100
AcDbLine
 10
529.562832
 20
343.187103
 30
0.0
 11
534.511957
 21
349.624988
 31
0.0
  0
LINE
  5
31AD
100
AcDbEntity
  8
0
100
AcDbLine
 10
471.212832
 20
351.187103
 30
0.0
 11
566.212832
 21
351.187103
 31
0.0
  0
LINE
  5
31AE
100
AcDbEntity
  8
0
100
AcDbLine
 10
533.712832
 20
331.187103
 30
0.0
 11
529.562832
 21
335.337103
 31
0.0
  0
LINE
  5
31B0
100
AcDbEntity
  8
0
100
AcDbLine
 10
503.712832
 20
331.187103
 30
0.0
 11
533.712832
 21
331.187103
 31
0.0
  0
LINE
  5
31B1
100
AcDbEntity
  8
0
100
AcDbLine
 10
533.712832
 20
331.187103
 30
0.0
 11
533.712832
 21
321.154808
 31
0.0
  0
LINE
  5
31B2
100
AcDbEntity
  8
0
100
AcDbLine
 10
507.862832
 20
335.337103
 30
0.0
 11
529.562832
 21
335.337103
 31
0.0
  0
LINE
  5
31B3
100
AcDbEntity
  8
0
100
AcDbLine
 10
507.862832
 20
343.187103
 30
0.0
 11
529.562832
 21
343.187103
 31
0.0
  0
LINE
  5
31B4
100
AcDbEntity
  8
0
100
AcDbLine
 10
529.562832
 20
343.187103
 30
0.0
 11
529.562832
 21
335.337103
 31
0.0
  0
LINE
  5
31B5
100
AcDbEntity
  8
0
100
AcDbLine
 10
566.212832
 20
365.187103
 30
0.0
 11
566.212832
 21
351.187103
 31
0.0
  0
ARC
  5
31B6
100
AcDbEntity
  8
0
100
AcDbCircle
 10
537.683189
 20
347.187103
 30
0.0
 40
4.0
100
AcDbArc
 50
90.0
 51
142.448718
  0
LINE
  5
31B7
100
AcDbEntity
  8
0
100
AcDbLine
 10
471.212832
 20
365.187103
 30
0.0
 11
471.212832
 21
351.187103
 31
0.0
  0
LINE
  5
31B8
100
AcDbEntity
  8
0
100
AcDbLine
 10
503.712832
 20
331.187103
 30
0.0
 11
507.862832
 21
335.337103
 31
0.0
  0
LINE
  5
31B9
100
AcDbEntity
  8
0
100
AcDbLine
 10
503.712832
 20
331.187103
 30
0.0
 11
503.712832
 21
321.154808
 31
0.0
  0
ARC
  5
31BA
100
AcDbEntity
  8
0
100
AcDbCircle
 10
499.742476
 20
347.187103
 30
0.0
 40
4.0
100
AcDbArc
 50
37.551282
 51
90.0
  0
LINE
  5
31BB
100
AcDbEntity
  8
0
100
AcDbLine
 10
507.862832
 20
343.187103
 30
0.0
 11
507.862832
 21
335.337103
 31
0.0
  0
LINE
  5
31BC
100
AcDbEntity
  8
0
100
AcDbLine
 10
507.862832
 20
343.187103
 30
0.0
 11
502.913708
 21
349.624988
 31
0.0
  0
LINE
  5
31BD
100
AcDbEntity
  8
0
100
AcDbLine
 10
471.212832
 20
204.187103
 30
0.0
 11
566.212832
 21
204.187103
 31
0.0
  0
LINE
  5
31BE
100
AcDbEntity
  8
0
100
AcDbLine
 10
471.212832
 20
190.187103
 30
0.0
 11
471.212832
 21
204.187103
 31
0.0
  0
LINE
  5
31BF
100
AcDbEntity
  8
0
100
AcDbLine
 10
507.862832
 20
212.187103
 30
0.0
 11
502.913708
 21
205.749218
 31
0.0
  0
LINE
  5
31C0
100
AcDbEntity
  8
0
100
AcDbLine
 10
529.562832
 20
212.187103
 30
0.0
 11
534.511957
 21
205.749218
 31
0.0
  0
LINE
  5
31C1
100
AcDbEntity
  8
0
100
AcDbLine
 10
507.862832
 20
212.187103
 30
0.0
 11
529.562832
 21
212.187103
 31
0.0
  0
LINE
  5
31C2
100
AcDbEntity
  8
0
100
AcDbLine
 10
507.862832
 20
220.037103
 30
0.0
 11
529.562832
 21
220.037103
 31
0.0
  0
LINE
  5
31C3
100
AcDbEntity
  8
0
100
AcDbLine
 10
503.712832
 20
224.187103
 30
0.0
 11
533.712832
 21
224.187103
 31
0.0
  0
LINE
  5
31C4
100
AcDbEntity
  8
0
100
AcDbLine
 10
503.712832
 20
224.187103
 30
0.0
 11
503.712832
 21
234.219399
 31
0.0
  0
LINE
  5
31C5
100
AcDbEntity
  8
0
100
AcDbLine
 10
507.862832
 20
212.187103
 30
0.0
 11
507.862832
 21
220.037103
 31
0.0
  0
LINE
  5
31C6
100
AcDbEntity
  8
0
100
AcDbLine
 10
503.712832
 20
224.187103
 30
0.0
 11
507.862832
 21
220.037103
 31
0.0
  0
LINE
  5
31C7
100
AcDbEntity
  8
0
100
AcDbLine
 10
533.712832
 20
224.187103
 30
0.0
 11
533.712832
 21
234.219399
 31
0.0
  0
LINE
  5
31C8
100
AcDbEntity
  8
0
100
AcDbLine
 10
529.562832
 20
212.187103
 30
0.0
 11
529.562832
 21
220.037103
 31
0.0
  0
LINE
  5
31C9
100
AcDbEntity
  8
0
100
AcDbLine
 10
533.712832
 20
224.187103
 30
0.0
 11
529.562832
 21
220.037103
 31
0.0
  0
ARC
  5
31CA
100
AcDbEntity
  8
0
100
AcDbCircle
 10
499.742476
 20
208.187103
 30
0.0
 40
4.0
100
AcDbArc
 50
270.0
 51
322.448718
  0
ARC
  5
31CB
100
AcDbEntity
  8
0
100
AcDbCircle
 10
537.683189
 20
208.187103
 30
0.0
 40
4.0
100
AcDbArc
 50
217.551282
 51
270.0
  0
LINE
  5
31CC
100
AcDbEntity
  8
0
100
AcDbLine
 10
566.212832
 20
190.187103
 30
0.0
 11
566.212832
 21
204.187103
 31
0.0
  0
LINE
  5
31CD
100
AcDbEntity
  8
0
100
AcDbLine
 10
362.921065
 20
351.187103
 30
0.0
 11
457.921065
 21
351.187103
 31
0.0
  0
LINE
  5
31CE
100
AcDbEntity
  8
0
100
AcDbLine
 10
362.921065
 20
365.187103
 30
0.0
 11
362.921065
 21
351.187103
 31
0.0
  0
LINE
  5
31CF
100
AcDbEntity
  8
0
100
AcDbLine
 10
399.571065
 20
343.187103
 30
0.0
 11
394.62194
 21
349.624988
 31
0.0
  0
LINE
  5
31D0
100
AcDbEntity
  8
0
100
AcDbLine
 10
421.271065
 20
343.187103
 30
0.0
 11
426.220189
 21
349.624988
 31
0.0
  0
LINE
  5
31D1
100
AcDbEntity
  8
0
100
AcDbLine
 10
399.571065
 20
343.187103
 30
0.0
 11
421.271065
 21
343.187103
 31
0.0
  0
LINE
  5
31D2
100
AcDbEntity
  8
0
100
AcDbLine
 10
399.571065
 20
335.337103
 30
0.0
 11
421.271065
 21
335.337103
 31
0.0
  0
LINE
  5
31D3
100
AcDbEntity
  8
0
100
AcDbLine
 10
395.421065
 20
331.187103
 30
0.0
 11
425.421065
 21
331.187103
 31
0.0
  0
LINE
  5
31D4
100
AcDbEntity
  8
0
100
AcDbLine
 10
395.421065
 20
331.187103
 30
0.0
 11
395.421065
 21
321.154808
 31
0.0
  0
LINE
  5
31D5
100
AcDbEntity
  8
0
100
AcDbLine
 10
399.571065
 20
343.187103
 30
0.0
 11
399.571065
 21
335.337103
 31
0.0
  0
LINE
  5
31D6
100
AcDbEntity
  8
0
100
AcDbLine
 10
395.421065
 20
331.187103
 30
0.0
 11
399.571065
 21
335.337103
 31
0.0
  0
LINE
  5
31D7
100
AcDbEntity
  8
0
100
AcDbLine
 10
425.421065
 20
331.187103
 30
0.0
 11
425.421065
 21
321.154808
 31
0.0
  0
LINE
  5
31D8
100
AcDbEntity
  8
0
100
AcDbLine
 10
421.271065
 20
343.187103
 30
0.0
 11
421.271065
 21
335.337103
 31
0.0
  0
LINE
  5
31D9
100
AcDbEntity
  8
0
100
AcDbLine
 10
425.421065
 20
331.187103
 30
0.0
 11
421.271065
 21
335.337103
 31
0.0
  0
ARC
  5
31DA
100
AcDbEntity
  8
0
100
AcDbCircle
 10
391.450708
 20
347.187103
 30
0.0
 40
4.0
100
AcDbArc
 50
37.551282
 51
90.0
  0
ARC
  5
31DB
100
AcDbEntity
  8
0
100
AcDbCircle
 10
429.391421
 20
347.187103
 30
0.0
 40
4.0
100
AcDbArc
 50
90.0
 51
142.448718
  0
LINE
  5
31DC
100
AcDbEntity
  8
0
100
AcDbLine
 10
457.921065
 20
365.187103
 30
0.0
 11
457.921065
 21
351.187103
 31
0.0
  0
LINE
  5
31DD
100
AcDbEntity
  8
0
100
AcDbLine
 10
362.921065
 20
204.187103
 30
0.0
 11
457.921065
 21
204.187103
 31
0.0
  0
LINE
  5
31DE
100
AcDbEntity
  8
0
100
AcDbLine
 10
362.921065
 20
190.187103
 30
0.0
 11
362.921065
 21
204.187103
 31
0.0
  0
LINE
  5
31DF
100
AcDbEntity
  8
0
100
AcDbLine
 10
421.271065
 20
212.187103
 30
0.0
 11
421.271065
 21
220.037103
 31
0.0
  0
LINE
  5
31E0
100
AcDbEntity
  8
0
100
AcDbLine
 10
399.571065
 20
212.187103
 30
0.0
 11
399.571065
 21
220.037103
 31
0.0
  0
LINE
  5
31E1
100
AcDbEntity
  8
0
100
AcDbLine
 10
399.571065
 20
212.187103
 30
0.0
 11
421.271065
 21
212.187103
 31
0.0
  0
ARC
  5
31E2
100
AcDbEntity
  8
0
100
AcDbCircle
 10
391.450708
 20
208.187103
 30
0.0
 40
4.0
100
AcDbArc
 50
270.0
 51
322.448718
  0
LINE
  5
31E3
100
AcDbEntity
  8
0
100
AcDbLine
 10
399.571065
 20
212.187103
 30
0.0
 11
394.62194
 21
205.749218
 31
0.0
  0
ARC
  5
31E4
100
AcDbEntity
  8
0
100
AcDbCircle
 10
429.391421
 20
208.187103
 30
0.0
 40
4.0
100
AcDbArc
 50
217.551282
 51
270.0
  0
LINE
  5
31E5
100
AcDbEntity
  8
0
100
AcDbLine
 10
421.271065
 20
212.187103
 30
0.0
 11
426.220189
 21
205.749218
 31
0.0
  0
LINE
  5
31E6
100
AcDbEntity
  8
0
100
AcDbLine
 10
395.421065
 20
224.187103
 30
0.0
 11
425.421065
 21
224.187103
 31
0.0
  0
LINE
  5
31E7
100
AcDbEntity
  8
0
100
AcDbLine
 10
399.571065
 20
220.037103
 30
0.0
 11
421.271065
 21
220.037103
 31
0.0
  0
LINE
  5
31E8
100
AcDbEntity
  8
0
100
AcDbLine
 10
395.421065
 20
224.187103
 30
0.0
 11
399.571065
 21
220.037103
 31
0.0
  0
LINE
  5
31E9
100
AcDbEntity
  8
0
100
AcDbLine
 10
395.421065
 20
224.187103
 30
0.0
 11
395.421065
 21
234.219399
 31
0.0
  0
LINE
  5
31EA
100
AcDbEntity
  8
0
100
AcDbLine
 10
425.421065
 20
224.187103
 30
0.0
 11
421.271065
 21
220.037103
 31
0.0
  0
LINE
  5
31EB
100
AcDbEntity
  8
0
100
AcDbLine
 10
425.421065
 20
224.187103
 30
0.0
 11
425.421065
 21
234.219399
 31
0.0
  0
LINE
  5
31EC
100
AcDbEntity
  8
0
100
AcDbLine
 10
457.921065
 20
190.187103
 30
0.0
 11
457.921065
 21
204.187103
 31
0.0
  0
LINE
  5
31ED
100
AcDbEntity
  8
0
100
AcDbLine
 10
241.021373
 20
351.187103
 30
0.0
 11
336.021373
 21
351.187103
 31
0.0
  0
LINE
  5
31EE
100
AcDbEntity
  8
0
100
AcDbLine
 10
241.021373
 20
365.187103
 30
0.0
 11
241.021373
 21
351.187103
 31
0.0
  0
LINE
  5
31EF
100
AcDbEntity
  8
0
100
AcDbLine
 10
277.671373
 20
343.187103
 30
0.0
 11
272.722249
 21
349.624988
 31
0.0
  0
LINE
  5
31F0
100
AcDbEntity
  8
0
100
AcDbLine
 10
299.371373
 20
343.187103
 30
0.0
 11
304.320498
 21
349.624988
 31
0.0
  0
LINE
  5
31F1
100
AcDbEntity
  8
0
100
AcDbLine
 10
277.671373
 20
343.187103
 30
0.0
 11
299.371373
 21
343.187103
 31
0.0
  0
LINE
  5
31F2
100
AcDbEntity
  8
0
100
AcDbLine
 10
277.671373
 20
335.337103
 30
0.0
 11
299.371373
 21
335.337103
 31
0.0
  0
LINE
  5
31F3
100
AcDbEntity
  8
0
100
AcDbLine
 10
273.521373
 20
331.187103
 30
0.0
 11
303.521373
 21
331.187103
 31
0.0
  0
LINE
  5
31F4
100
AcDbEntity
  8
0
100
AcDbLine
 10
273.521373
 20
331.187103
 30
0.0
 11
273.521373
 21
321.154808
 31
0.0
  0
LINE
  5
31F5
100
AcDbEntity
  8
0
100
AcDbLine
 10
277.671373
 20
343.187103
 30
0.0
 11
277.671373
 21
335.337103
 31
0.0
  0
LINE
  5
31F6
100
AcDbEntity
  8
0
100
AcDbLine
 10
273.521373
 20
331.187103
 30
0.0
 11
277.671373
 21
335.337103
 31
0.0
  0
LINE
  5
31F7
100
AcDbEntity
  8
0
100
AcDbLine
 10
303.521373
 20
331.187103
 30
0.0
 11
303.521373
 21
321.154808
 31
0.0
  0
LINE
  5
31F8
100
AcDbEntity
  8
0
100
AcDbLine
 10
299.371373
 20
343.187103
 30
0.0
 11
299.371373
 21
335.337103
 31
0.0
  0
LINE
  5
31F9
100
AcDbEntity
  8
0
100
AcDbLine
 10
303.521373
 20
331.187103
 30
0.0
 11
299.371373
 21
335.337103
 31
0.0
  0
ARC
  5
31FA
100
AcDbEntity
  8
0
100
AcDbCircle
 10
269.551017
 20
347.187103
 30
0.0
 40
4.0
100
AcDbArc
 50
37.551282
 51
90.0
  0
ARC
  5
31FB
100
AcDbEntity
  8
0
100
AcDbCircle
 10
307.49173
 20
347.187103
 30
0.0
 40
4.0
100
AcDbArc
 50
90.0
 51
142.448718
  0
LINE
  5
31FC
100
AcDbEntity
  8
0
100
AcDbLine
 10
336.021373
 20
365.187103
 30
0.0
 11
336.021373
 21
351.187103
 31
0.0
  0
LINE
  5
31FD
100
AcDbEntity
  8
0
100
AcDbLine
 10
241.021373
 20
204.187103
 30
0.0
 11
336.021373
 21
204.187103
 31
0.0
  0
LINE
  5
31FE
100
AcDbEntity
  8
0
100
AcDbLine
 10
241.021373
 20
190.187103
 30
0.0
 11
241.021373
 21
204.187103
 31
0.0
  0
LINE
  5
31FF
100
AcDbEntity
  8
0
100
AcDbLine
 10
299.371373
 20
212.187103
 30
0.0
 11
299.371373
 21
220.037103
 31
0.0
  0
LINE
  5
3200
100
AcDbEntity
  8
0
100
AcDbLine
 10
277.671373
 20
212.187103
 30
0.0
 11
277.671373
 21
220.037103
 31
0.0
  0
LINE
  5
3201
100
AcDbEntity
  8
0
100
AcDbLine
 10
277.671373
 20
212.187103
 30
0.0
 11
299.371373
 21
212.187103
 31
0.0
  0
ARC
  5
3202
100
AcDbEntity
  8
0
100
AcDbCircle
 10
269.551017
 20
208.187103
 30
0.0
 40
4.0
100
AcDbArc
 50
270.0
 51
322.448718
  0
LINE
  5
3203
100
AcDbEntity
  8
0
100
AcDbLine
 10
277.671373
 20
212.187103
 30
0.0
 11
272.722249
 21
205.749218
 31
0.0
  0
ARC
  5
3204
100
AcDbEntity
  8
0
100
AcDbCircle
 10
307.49173
 20
208.187103
 30
0.0
 40
4.0
100
AcDbArc
 50
217.551282
 51
270.0
  0
LINE
  5
3205
100
AcDbEntity
  8
0
100
AcDbLine
 10
299.371373
 20
212.187103
 30
0.0
 11
304.320498
 21
205.749218
 31
0.0
  0
LINE
  5
3206
100
AcDbEntity
  8
0
100
AcDbLine
 10
273.521373
 20
224.187103
 30
0.0
 11
303.521373
 21
224.187103
 31
0.0
  0
LINE
  5
3207
100
AcDbEntity
  8
0
100
AcDbLine
 10
277.671373
 20
220.037103
 30
0.0
 11
299.371373
 21
220.037103
 31
0.0
  0
LINE
  5
3208
100
AcDbEntity
  8
0
100
AcDbLine
 10
273.521373
 20
224.187103
 30
0.0
 11
277.671373
 21
220.037103
 31
0.0
  0
LINE
  5
3209
100
AcDbEntity
  8
0
100
AcDbLine
 10
273.521373
 20
224.187103
 30
0.0
 11
273.521373
 21
234.219399
 31
0.0
  0
LINE
  5
320A
100
AcDbEntity
  8
0
100
AcDbLine
 10
303.521373
 20
224.187103
 30
0.0
 11
299.371373
 21
220.037103
 31
0.0
  0
LINE
  5
320B
100
AcDbEntity
  8
0
100
AcDbLine
 10
303.521373
 20
224.187103
 30
0.0
 11
303.521373
 21
234.219399
 31
0.0
  0
LINE
  5
320C
100
AcDbEntity
  8
0
100
AcDbLine
 10
336.021373
 20
190.187103
 30
0.0
 11
336.021373
 21
204.187103
 31
0.0
  0
LINE
  5
320D
100
AcDbEntity
  8
0
100
AcDbLine
 10
360.148368
 20
756.967703
 30
0.0
 11
455.148368
 21
756.967703
 31
0.0
  0
LINE
  5
320E
100
AcDbEntity
  8
0
100
AcDbLine
 10
392.648368
 20
736.967703
 30
0.0
 11
396.798368
 21
741.117703
 31
0.0
  0
LINE
  5
320F
100
AcDbEntity
  8
0
100
AcDbLine
 10
392.648368
 20
736.967703
 30
0.0
 11
422.648368
 21
736.967703
 31
0.0
  0
LINE
  5
3210
100
AcDbEntity
  8
0
100
AcDbLine
 10
396.798368
 20
748.967703
 30
0.0
 11
391.849243
 21
755.405588
 31
0.0
  0
LINE
  5
3211
100
AcDbEntity
  8
0
100
AcDbLine
 10
392.648368
 20
736.967703
 30
0.0
 11
392.648368
 21
726.935408
 31
0.0
  0
LINE
  5
3212
100
AcDbEntity
  8
0
100
AcDbLine
 10
360.148368
 20
770.967703
 30
0.0
 11
360.148368
 21
756.967703
 31
0.0
  0
ARC
  5
3213
100
AcDbEntity
  8
0
100
AcDbCircle
 10
388.678011
 20
752.967703
 30
0.0
 40
4.0
100
AcDbArc
 50
37.551282
 51
90.0
  0
LINE
  5
3214
100
AcDbEntity
  8
0
100
AcDbLine
 10
418.498368
 20
748.967703
 30
0.0
 11
423.447492
 21
755.405588
 31
0.0
  0
LINE
  5
3215
100
AcDbEntity
  8
0
100
AcDbLine
 10
422.648368
 20
736.967703
 30
0.0
 11
418.498368
 21
741.117703
 31
0.0
  0
LINE
  5
3216
100
AcDbEntity
  8
0
100
AcDbLine
 10
418.498368
 20
748.967703
 30
0.0
 11
418.498368
 21
741.117703
 31
0.0
  0
LINE
  5
3217
100
AcDbEntity
  8
0
100
AcDbLine
 10
396.798368
 20
748.967703
 30
0.0
 11
396.798368
 21
741.117703
 31
0.0
  0
LINE
  5
3218
100
AcDbEntity
  8
0
100
AcDbLine
 10
396.798368
 20
741.117703
 30
0.0
 11
418.498368
 21
741.117703
 31
0.0
  0
LINE
  5
3219
100
AcDbEntity
  8
0
100
AcDbLine
 10
396.798368
 20
748.967703
 30
0.0
 11
418.498368
 21
748.967703
 31
0.0
  0
LINE
  5
321A
100
AcDbEntity
  8
0
100
AcDbLine
 10
422.648368
 20
736.967703
 30
0.0
 11
422.648368
 21
726.935408
 31
0.0
  0
ARC
  5
321B
100
AcDbEntity
  8
0
100
AcDbCircle
 10
426.618724
 20
752.967703
 30
0.0
 40
4.0
100
AcDbArc
 50
90.0
 51
142.448718
  0
LINE
  5
321C
100
AcDbEntity
  8
0
100
AcDbLine
 10
455.148368
 20
770.967703
 30
0.0
 11
455.148368
 21
756.967703
 31
0.0
  0
LINE
  5
321D
100
AcDbEntity
  8
0
100
AcDbLine
 10
360.148368
 20
609.967703
 30
0.0
 11
455.148368
 21
609.967703
 31
0.0
  0
LINE
  5
321E
100
AcDbEntity
  8
0
100
AcDbLine
 10
392.648368
 20
629.967703
 30
0.0
 11
396.798368
 21
625.817703
 31
0.0
  0
LINE
  5
321F
100
AcDbEntity
  8
0
100
AcDbLine
 10
392.648368
 20
629.967703
 30
0.0
 11
422.648368
 21
629.967703
 31
0.0
  0
LINE
  5
3220
100
AcDbEntity
  8
0
100
AcDbLine
 10
396.798368
 20
617.967703
 30
0.0
 11
391.849243
 21
611.529818
 31
0.0
  0
LINE
  5
3221
100
AcDbEntity
  8
0
100
AcDbLine
 10
360.148368
 20
595.967703
 30
0.0
 11
360.148368
 21
609.967703
 31
0.0
  0
ARC
  5
3222
100
AcDbEntity
  8
0
100
AcDbCircle
 10
388.678011
 20
613.967703
 30
0.0
 40
4.0
100
AcDbArc
 50
270.0
 51
322.448718
  0
LINE
  5
3223
100
AcDbEntity
  8
0
100
AcDbLine
 10
392.648368
 20
629.967703
 30
0.0
 11
392.648368
 21
639.999999
 31
0.0
  0
LINE
  5
3224
100
AcDbEntity
  8
0
100
AcDbLine
 10
396.798368
 20
617.967703
 30
0.0
 11
396.798368
 21
625.817703
 31
0.0
  0
LINE
  5
3225
100
AcDbEntity
  8
0
100
AcDbLine
 10
418.498368
 20
617.967703
 30
0.0
 11
418.498368
 21
625.817703
 31
0.0
  0
LINE
  5
3226
100
AcDbEntity
  8
0
100
AcDbLine
 10
418.498368
 20
617.967703
 30
0.0
 11
423.447492
 21
611.529818
 31
0.0
  0
LINE
  5
3227
100
AcDbEntity
  8
0
100
AcDbLine
 10
396.798368
 20
617.967703
 30
0.0
 11
418.498368
 21
617.967703
 31
0.0
  0
ARC
  5
3228
100
AcDbEntity
  8
0
100
AcDbCircle
 10
426.618724
 20
613.967703
 30
0.0
 40
4.0
100
AcDbArc
 50
217.551282
 51
270.0
  0
LINE
  5
3229
100
AcDbEntity
  8
0
100
AcDbLine
 10
422.648368
 20
629.967703
 30
0.0
 11
418.498368
 21
625.817703
 31
0.0
  0
LINE
  5
322A
100
AcDbEntity
  8
0
100
AcDbLine
 10
396.798368
 20
625.817703
 30
0.0
 11
418.498368
 21
625.817703
 31
0.0
  0
LINE
  5
322B
100
AcDbEntity
  8
0
100
AcDbLine
 10
422.648368
 20
629.967703
 30
0.0
 11
422.648368
 21
639.999999
 31
0.0
  0
LINE
  5
322C
100
AcDbEntity
  8
0
100
AcDbLine
 10
455.148368
 20
595.967703
 30
0.0
 11
455.148368
 21
609.967703
 31
0.0
  0
CIRCLE
  5
322F
100
AcDbEntity
  8
0
100
AcDbCircle
 10
432.397105
 20
535.264822
 30
0.0
 40
7.5
  0
CIRCLE
  5
3230
100
AcDbEntity
  8
0
100
AcDbCircle
 10
382.89963
 20
535.264822
 30
0.0
 40
7.5
  0
CIRCLE
  5
3231
100
AcDbEntity
  8
0
100
AcDbCircle
 10
382.89963
 20
485.767347
 30
0.0
 40
7.5
  0
CIRCLE
  5
3232
100
AcDbEntity
  8
0
100
AcDbCircle
 10
432.397105
 20
485.767347
 30
0.0
 40
7.5
  0
LINE
  5
3244
100
AcDbEntity
  8
0
100
AcDbLine
 10
1202.957785
 20
349.187103
 30
0.0
 11
1302.957785
 21
349.187103
 31
0.0
  0
LINE
  5
3245
100
AcDbEntity
  8
0
100
AcDbLine
 10
1267.957785
 20
323.187103
 30
0.0
 11
1266.557785
 21
324.587103
 31
0.0
  0
LINE
  5
3246
100
AcDbEntity
  8
0
100
AcDbLine
 10
1237.957785
 20
323.187103
 30
0.0
 11
1267.957785
 21
323.187103
 31
0.0
  0
LINE
  5
3248
100
AcDbEntity
  8
0
100
AcDbLine
 10
1267.957785
 20
312.378189
 30
0.0
 11
1267.957785
 21
323.187103
 31
0.0
  0
LINE
  5
3249
100
AcDbEntity
  8
0
100
AcDbLine
 10
1239.357785
 20
339.187103
 30
0.0
 11
1266.557785
 21
339.187103
 31
0.0
  0
LINE
  5
324A
100
AcDbEntity
  8
0
100
AcDbLine
 10
1239.357785
 20
324.587103
 30
0.0
 11
1266.557785
 21
324.587103
 31
0.0
  0
LINE
  5
324B
100
AcDbEntity
  8
0
100
AcDbLine
 10
1266.557785
 20
324.587103
 30
0.0
 11
1266.557785
 21
339.187103
 31
0.0
  0
ARC
  5
324C
100
AcDbEntity
  8
0
100
AcDbCircle
 10
1275.146848
 20
345.187103
 30
0.0
 40
4.0
100
AcDbArc
 50
90.0
 51
147.380757
  0
LINE
  5
324D
100
AcDbEntity
  8
0
100
AcDbLine
 10
1271.777762
 20
347.343318
 30
0.0
 11
1266.557785
 21
339.187103
 31
0.0
  0
LINE
  5
324E
100
AcDbEntity
  8
0
100
AcDbLine
 10
1302.957785
 20
349.187103
 30
0.0
 11
1302.957785
 21
365.187103
 31
0.0
  0
LINE
  5
324F
100
AcDbEntity
  8
0
100
AcDbLine
 10
1202.957785
 20
349.187103
 30
0.0
 11
1202.957785
 21
365.187103
 31
0.0
  0
LINE
  5
3250
100
AcDbEntity
  8
0
100
AcDbLine
 10
1237.957785
 20
323.187103
 30
0.0
 11
1239.357785
 21
324.587103
 31
0.0
  0
LINE
  5
3251
100
AcDbEntity
  8
0
100
AcDbLine
 10
1237.957785
 20
312.378189
 30
0.0
 11
1237.957785
 21
323.187103
 31
0.0
  0
ARC
  5
3252
100
AcDbEntity
  8
0
100
AcDbCircle
 10
1230.768722
 20
345.187103
 30
0.0
 40
4.0
100
AcDbArc
 50
32.619243
 51
90.0
  0
LINE
  5
3253
100
AcDbEntity
  8
0
100
AcDbLine
 10
1239.357785
 20
324.587103
 30
0.0
 11
1239.357785
 21
339.187103
 31
0.0
  0
LINE
  5
3254
100
AcDbEntity
  8
0
100
AcDbLine
 10
1234.137807
 20
347.343318
 30
0.0
 11
1239.357785
 21
339.187103
 31
0.0
  0
LINE
  5
3256
100
AcDbEntity
  8
0
100
AcDbLine
 10
1267.957785
 20
222.996017
 30
0.0
 11
1267.957785
 21
212.187103
 31
0.0
  0
LINE
  5
3257
100
AcDbEntity
  8
0
100
AcDbLine
 10
1237.957785
 20
222.996017
 30
0.0
 11
1237.957785
 21
212.187103
 31
0.0
  0
LINE
  5
3258
100
AcDbEntity
  8
0
100
AcDbLine
 10
1202.957785
 20
186.187103
 30
0.0
 11
1302.957785
 21
186.187103
 31
0.0
  0
LINE
  5
3259
100
AcDbEntity
  8
0
100
AcDbLine
 10
1234.137807
 20
188.030888
 30
0.0
 11
1239.357785
 21
196.187103
 31
0.0
  0
ARC
  5
325A
100
AcDbEntity
  8
0
100
AcDbCircle
 10
1230.768722
 20
190.187103
 30
0.0
 40
4.0
100
AcDbArc
 50
270.0
 51
327.380757
  0
LINE
  5
325B
100
AcDbEntity
  8
0
100
AcDbLine
 10
1202.957785
 20
186.187103
 30
0.0
 11
1202.957785
 21
170.187103
 31
0.0
  0
ARC
  5
325C
100
AcDbEntity
  8
0
100
AcDbCircle
 10
1275.146848
 20
190.187103
 30
0.0
 40
4.0
100
AcDbArc
 50
212.619243
 51
270.0
  0
LINE
  5
325D
100
AcDbEntity
  8
0
100
AcDbLine
 10
1239.357785
 20
210.787103
 30
0.0
 11
1266.557785
 21
210.787103
 31
0.0
  0
LINE
  5
325E
100
AcDbEntity
  8
0
100
AcDbLine
 10
1239.357785
 20
196.187103
 30
0.0
 11
1266.557785
 21
196.187103
 31
0.0
  0
LINE
  5
325F
100
AcDbEntity
  8
0
100
AcDbLine
 10
1237.957785
 20
212.187103
 30
0.0
 11
1267.957785
 21
212.187103
 31
0.0
  0
LINE
  5
3260
100
AcDbEntity
  8
0
100
AcDbLine
 10
1239.357785
 20
210.787103
 30
0.0
 11
1239.357785
 21
196.187103
 31
0.0
  0
LINE
  5
3261
100
AcDbEntity
  8
0
100
AcDbLine
 10
1237.957785
 20
212.187103
 30
0.0
 11
1239.357785
 21
210.787103
 31
0.0
  0
LINE
  5
3262
100
AcDbEntity
  8
0
100
AcDbLine
 10
1271.777762
 20
188.030888
 30
0.0
 11
1266.557785
 21
196.187103
 31
0.0
  0
LINE
  5
3263
100
AcDbEntity
  8
0
100
AcDbLine
 10
1266.557785
 20
210.787103
 30
0.0
 11
1266.557785
 21
196.187103
 31
0.0
  0
LINE
  5
3264
100
AcDbEntity
  8
0
100
AcDbLine
 10
1267.957785
 20
212.187103
 30
0.0
 11
1266.557785
 21
210.787103
 31
0.0
  0
LINE
  5
3265
100
AcDbEntity
  8
0
100
AcDbLine
 10
1302.957785
 20
186.187103
 30
0.0
 11
1302.957785
 21
170.187103
 31
0.0
  0
LINE
  5
3266
100
AcDbEntity
  8
0
100
AcDbLine
 10
1155.710642
 20
312.378189
 30
0.0
 11
1155.710642
 21
323.187103
 31
0.0
  0
LINE
  5
3267
100
AcDbEntity
  8
0
100
AcDbLine
 10
1125.710642
 20
312.378189
 30
0.0
 11
1125.710642
 21
323.187103
 31
0.0
  0
LINE
  5
3268
100
AcDbEntity
  8
0
100
AcDbLine
 10
1090.710642
 20
349.187103
 30
0.0
 11
1190.710642
 21
349.187103
 31
0.0
  0
LINE
  5
3269
100
AcDbEntity
  8
0
100
AcDbLine
 10
1121.890664
 20
347.343318
 30
0.0
 11
1127.110642
 21
339.187103
 31
0.0
  0
ARC
  5
326A
100
AcDbEntity
  8
0
100
AcDbCircle
 10
1118.521579
 20
345.187103
 30
0.0
 40
4.0
100
AcDbArc
 50
32.619243
 51
90.0
  0
LINE
  5
326B
100
AcDbEntity
  8
0
100
AcDbLine
 10
1090.710642
 20
349.187103
 30
0.0
 11
1090.710642
 21
365.187103
 31
0.0
  0
ARC
  5
326C
100
AcDbEntity
  8
0
100
AcDbCircle
 10
1162.899705
 20
345.187103
 30
0.0
 40
4.0
100
AcDbArc
 50
90.0
 51
147.380757
  0
LINE
  5
326D
100
AcDbEntity
  8
0
100
AcDbLine
 10
1127.110642
 20
324.587103
 30
0.0
 11
1154.310642
 21
324.587103
 31
0.0
  0
LINE
  5
326E
100
AcDbEntity
  8
0
100
AcDbLine
 10
1127.110642
 20
339.187103
 30
0.0
 11
1154.310642
 21
339.187103
 31
0.0
  0
LINE
  5
326F
100
AcDbEntity
  8
0
100
AcDbLine
 10
1125.710642
 20
323.187103
 30
0.0
 11
1155.710642
 21
323.187103
 31
0.0
  0
LINE
  5
3270
100
AcDbEntity
  8
0
100
AcDbLine
 10
1127.110642
 20
324.587103
 30
0.0
 11
1127.110642
 21
339.187103
 31
0.0
  0
LINE
  5
3271
100
AcDbEntity
  8
0
100
AcDbLine
 10
1125.710642
 20
323.187103
 30
0.0
 11
1127.110642
 21
324.587103
 31
0.0
  0
LINE
  5
3272
100
AcDbEntity
  8
0
100
AcDbLine
 10
1159.530619
 20
347.343318
 30
0.0
 11
1154.310642
 21
339.187103
 31
0.0
  0
LINE
  5
3273
100
AcDbEntity
  8
0
100
AcDbLine
 10
1154.310642
 20
324.587103
 30
0.0
 11
1154.310642
 21
339.187103
 31
0.0
  0
LINE
  5
3274
100
AcDbEntity
  8
0
100
AcDbLine
 10
1155.710642
 20
323.187103
 30
0.0
 11
1154.310642
 21
324.587103
 31
0.0
  0
LINE
  5
3275
100
AcDbEntity
  8
0
100
AcDbLine
 10
1190.710642
 20
349.187103
 30
0.0
 11
1190.710642
 21
365.187103
 31
0.0
  0
LINE
  5
3276
100
AcDbEntity
  8
0
100
AcDbLine
 10
1190.710642
 20
186.187103
 30
0.0
 11
1190.710642
 21
170.187103
 31
0.0
  0
LINE
  5
3277
100
AcDbEntity
  8
0
100
AcDbLine
 10
1090.710642
 20
186.187103
 30
0.0
 11
1090.710642
 21
170.187103
 31
0.0
  0
LINE
  5
3278
100
AcDbEntity
  8
0
100
AcDbLine
 10
1090.710642
 20
186.187103
 30
0.0
 11
1190.710642
 21
186.187103
 31
0.0
  0
LINE
  5
3279
100
AcDbEntity
  8
0
100
AcDbLine
 10
1121.890664
 20
188.030888
 30
0.0
 11
1127.110642
 21
196.187103
 31
0.0
  0
ARC
  5
327A
100
AcDbEntity
  8
0
100
AcDbCircle
 10
1118.521579
 20
190.187103
 30
0.0
 40
4.0
100
AcDbArc
 50
270.0
 51
327.380757
  0
LINE
  5
327B
100
AcDbEntity
  8
0
100
AcDbLine
 10
1125.710642
 20
222.996017
 30
0.0
 11
1125.710642
 21
212.187103
 31
0.0
  0
LINE
  5
327C
100
AcDbEntity
  8
0
100
AcDbLine
 10
1155.710642
 20
222.996017
 30
0.0
 11
1155.710642
 21
212.187103
 31
0.0
  0
LINE
  5
327D
100
AcDbEntity
  8
0
100
AcDbLine
 10
1125.710642
 20
212.187103
 30
0.0
 11
1155.710642
 21
212.187103
 31
0.0
  0
LINE
  5
327E
100
AcDbEntity
  8
0
100
AcDbLine
 10
1127.110642
 20
196.187103
 30
0.0
 11
1154.310642
 21
196.187103
 31
0.0
  0
LINE
  5
327F
100
AcDbEntity
  8
0
100
AcDbLine
 10
1127.110642
 20
210.787103
 30
0.0
 11
1154.310642
 21
210.787103
 31
0.0
  0
LINE
  5
3280
100
AcDbEntity
  8
0
100
AcDbLine
 10
1125.710642
 20
212.187103
 30
0.0
 11
1127.110642
 21
210.787103
 31
0.0
  0
LINE
  5
3281
100
AcDbEntity
  8
0
100
AcDbLine
 10
1127.110642
 20
210.787103
 30
0.0
 11
1127.110642
 21
196.187103
 31
0.0
  0
LINE
  5
3282
100
AcDbEntity
  8
0
100
AcDbLine
 10
1155.710642
 20
212.187103
 30
0.0
 11
1154.310642
 21
210.787103
 31
0.0
  0
LINE
  5
3283
100
AcDbEntity
  8
0
100
AcDbLine
 10
1154.310642
 20
210.787103
 30
0.0
 11
1154.310642
 21
196.187103
 31
0.0
  0
LINE
  5
3284
100
AcDbEntity
  8
0
100
AcDbLine
 10
1159.530619
 20
188.030888
 30
0.0
 11
1154.310642
 21
196.187103
 31
0.0
  0
ARC
  5
3285
100
AcDbEntity
  8
0
100
AcDbCircle
 10
1162.899705
 20
190.187103
 30
0.0
 40
4.0
100
AcDbArc
 50
212.619243
 51
270.0
  0
LINE
  5
3286
100
AcDbEntity
  8
0
100
AcDbLine
 10
1025.660647
 20
312.378189
 30
0.0
 11
1025.660647
 21
323.187103
 31
0.0
  0
LINE
  5
3287
100
AcDbEntity
  8
0
100
AcDbLine
 10
995.660647
 20
312.378189
 30
0.0
 11
995.660647
 21
323.187103
 31
0.0
  0
LINE
  5
3288
100
AcDbEntity
  8
0
100
AcDbLine
 10
960.660647
 20
349.187103
 30
0.0
 11
1060.660647
 21
349.187103
 31
0.0
  0
LINE
  5
3289
100
AcDbEntity
  8
0
100
AcDbLine
 10
991.840669
 20
347.343318
 30
0.0
 11
997.060647
 21
339.187103
 31
0.0
  0
ARC
  5
328A
100
AcDbEntity
  8
0
100
AcDbCircle
 10
988.471584
 20
345.187103
 30
0.0
 40
4.0
100
AcDbArc
 50
32.619243
 51
90.0
  0
LINE
  5
328B
100
AcDbEntity
  8
0
100
AcDbLine
 10
960.660647
 20
349.187103
 30
0.0
 11
960.660647
 21
365.187103
 31
0.0
  0
ARC
  5
328C
100
AcDbEntity
  8
0
100
AcDbCircle
 10
1032.84971
 20
345.187103
 30
0.0
 40
4.0
100
AcDbArc
 50
90.0
 51
147.380757
  0
LINE
  5
328D
100
AcDbEntity
  8
0
100
AcDbLine
 10
997.060647
 20
324.587103
 30
0.0
 11
1024.260647
 21
324.587103
 31
0.0
  0
LINE
  5
328E
100
AcDbEntity
  8
0
100
AcDbLine
 10
997.060647
 20
339.187103
 30
0.0
 11
1024.260647
 21
339.187103
 31
0.0
  0
LINE
  5
328F
100
AcDbEntity
  8
0
100
AcDbLine
 10
995.660647
 20
323.187103
 30
0.0
 11
1025.660647
 21
323.187103
 31
0.0
  0
LINE
  5
3290
100
AcDbEntity
  8
0
100
AcDbLine
 10
997.060647
 20
324.587103
 30
0.0
 11
997.060647
 21
339.187103
 31
0.0
  0
LINE
  5
3291
100
AcDbEntity
  8
0
100
AcDbLine
 10
995.660647
 20
323.187103
 30
0.0
 11
997.060647
 21
324.587103
 31
0.0
  0
LINE
  5
3292
100
AcDbEntity
  8
0
100
AcDbLine
 10
1029.480624
 20
347.343318
 30
0.0
 11
1024.260647
 21
339.187103
 31
0.0
  0
LINE
  5
3293
100
AcDbEntity
  8
0
100
AcDbLine
 10
1024.260647
 20
324.587103
 30
0.0
 11
1024.260647
 21
339.187103
 31
0.0
  0
LINE
  5
3294
100
AcDbEntity
  8
0
100
AcDbLine
 10
1025.660647
 20
323.187103
 30
0.0
 11
1024.260647
 21
324.587103
 31
0.0
  0
LINE
  5
3295
100
AcDbEntity
  8
0
100
AcDbLine
 10
1060.660647
 20
349.187103
 30
0.0
 11
1060.660647
 21
365.187103
 31
0.0
  0
LINE
  5
3296
100
AcDbEntity
  8
0
100
AcDbLine
 10
1060.660647
 20
186.187103
 30
0.0
 11
1060.660647
 21
170.187103
 31
0.0
  0
LINE
  5
3297
100
AcDbEntity
  8
0
100
AcDbLine
 10
960.660647
 20
186.187103
 30
0.0
 11
960.660647
 21
170.187103
 31
0.0
  0
LINE
  5
3298
100
AcDbEntity
  8
0
100
AcDbLine
 10
960.660647
 20
186.187103
 30
0.0
 11
1060.660647
 21
186.187103
 31
0.0
  0
LINE
  5
3299
100
AcDbEntity
  8
0
100
AcDbLine
 10
991.840669
 20
188.030888
 30
0.0
 11
997.060647
 21
196.187103
 31
0.0
  0
ARC
  5
329A
100
AcDbEntity
  8
0
100
AcDbCircle
 10
988.471584
 20
190.187103
 30
0.0
 40
4.0
100
AcDbArc
 50
270.0
 51
327.380757
  0
LINE
  5
329B
100
AcDbEntity
  8
0
100
AcDbLine
 10
995.660647
 20
222.996017
 30
0.0
 11
995.660647
 21
212.187103
 31
0.0
  0
LINE
  5
329C
100
AcDbEntity
  8
0
100
AcDbLine
 10
1025.660647
 20
222.996017
 30
0.0
 11
1025.660647
 21
212.187103
 31
0.0
  0
LINE
  5
329D
100
AcDbEntity
  8
0
100
AcDbLine
 10
995.660647
 20
212.187103
 30
0.0
 11
1025.660647
 21
212.187103
 31
0.0
  0
LINE
  5
329E
100
AcDbEntity
  8
0
100
AcDbLine
 10
997.060647
 20
196.187103
 30
0.0
 11
1024.260647
 21
196.187103
 31
0.0
  0
LINE
  5
329F
100
AcDbEntity
  8
0
100
AcDbLine
 10
997.060647
 20
210.787103
 30
0.0
 11
1024.260647
 21
210.787103
 31
0.0
  0
LINE
  5
32A0
100
AcDbEntity
  8
0
100
AcDbLine
 10
995.660647
 20
212.187103
 30
0.0
 11
997.060647
 21
210.787103
 31
0.0
  0
LINE
  5
32A1
100
AcDbEntity
  8
0
100
AcDbLine
 10
997.060647
 20
210.787103
 30
0.0
 11
997.060647
 21
196.187103
 31
0.0
  0
LINE
  5
32A2
100
AcDbEntity
  8
0
100
AcDbLine
 10
1025.660647
 20
212.187103
 30
0.0
 11
1024.260647
 21
210.787103
 31
0.0
  0
LINE
  5
32A3
100
AcDbEntity
  8
0
100
AcDbLine
 10
1024.260647
 20
210.787103
 30
0.0
 11
1024.260647
 21
196.187103
 31
0.0
  0
LINE
  5
32A4
100
AcDbEntity
  8
0
100
AcDbLine
 10
1029.480624
 20
188.030888
 30
0.0
 11
1024.260647
 21
196.187103
 31
0.0
  0
ARC
  5
32A5
100
AcDbEntity
  8
0
100
AcDbCircle
 10
1032.84971
 20
190.187103
 30
0.0
 40
4.0
100
AcDbArc
 50
212.619243
 51
270.0
  0
LINE
  5
32A6
100
AcDbEntity
  8
0
100
AcDbLine
 10
1087.937945
 20
774.362879
 30
0.0
 11
1187.937945
 21
774.362879
 31
0.0
  0
LINE
  5
32A7
100
AcDbEntity
  8
0
100
AcDbLine
 10
1087.937945
 20
774.362879
 30
0.0
 11
1087.937945
 21
790.362879
 31
0.0
  0
LINE
  5
32A8
100
AcDbEntity
  8
0
100
AcDbLine
 10
1151.537945
 20
749.762879
 30
0.0
 11
1151.537945
 21
764.362879
 31
0.0
  0
LINE
  5
32A9
100
AcDbEntity
  8
0
100
AcDbLine
 10
1124.337945
 20
749.762879
 30
0.0
 11
1124.337945
 21
764.362879
 31
0.0
  0
LINE
  5
32AA
100
AcDbEntity
  8
0
100
AcDbLine
 10
1122.937945
 20
748.362879
 30
0.0
 11
1152.937945
 21
748.362879
 31
0.0
  0
LINE
  5
32AB
100
AcDbEntity
  8
0
100
AcDbLine
 10
1124.337945
 20
749.762879
 30
0.0
 11
1151.537945
 21
749.762879
 31
0.0
  0
LINE
  5
32AC
100
AcDbEntity
  8
0
100
AcDbLine
 10
1152.937945
 20
737.553965
 30
0.0
 11
1122.937945
 21
737.553965
 31
0.0
  0
LINE
  5
32AD
100
AcDbEntity
  8
0
100
AcDbLine
 10
1122.937945
 20
748.362879
 30
0.0
 11
1124.337945
 21
749.762879
 31
0.0
  0
LINE
  5
32AE
100
AcDbEntity
  8
0
100
AcDbLine
 10
1122.937945
 20
737.553965
 30
0.0
 11
1121.600381
 21
736.112879
 31
0.0
  0
LINE
  5
32AF
100
AcDbEntity
  8
0
100
AcDbLine
 10
1122.937945
 20
737.553965
 30
0.0
 11
1122.937945
 21
748.362879
 31
0.0
  0
LINE
  5
32B0
100
AcDbEntity
  8
0
100
AcDbLine
 10
1152.937945
 20
748.362879
 30
0.0
 11
1151.537945
 21
749.762879
 31
0.0
  0
LINE
  5
32B1
100
AcDbEntity
  8
0
100
AcDbLine
 10
1152.937945
 20
737.553965
 30
0.0
 11
1154.275509
 21
736.112879
 31
0.0
  0
LINE
  5
32B2
100
AcDbEntity
  8
0
100
AcDbLine
 10
1152.937945
 20
737.553965
 30
0.0
 11
1152.937945
 21
748.362879
 31
0.0
  0
LINE
  5
32B3
100
AcDbEntity
  8
0
100
AcDbLine
 10
1124.337945
 20
764.362879
 30
0.0
 11
1151.537945
 21
764.362879
 31
0.0
  0
LINE
  5
32B4
100
AcDbEntity
  8
0
100
AcDbLine
 10
1119.117967
 20
772.519094
 30
0.0
 11
1124.337945
 21
764.362879
 31
0.0
  0
ARC
  5
32B5
100
AcDbEntity
  8
0
100
AcDbCircle
 10
1115.748882
 20
770.362879
 30
0.0
 40
4.0
100
AcDbArc
 50
32.619243
 51
90.0
  0
LINE
  5
32B6
100
AcDbEntity
  8
0
100
AcDbLine
 10
1156.757922
 20
772.519094
 30
0.0
 11
1151.537945
 21
764.362879
 31
0.0
  0
ARC
  5
32B7
100
AcDbEntity
  8
0
100
AcDbCircle
 10
1160.127008
 20
770.362879
 30
0.0
 40
4.0
100
AcDbArc
 50
90.0
 51
147.380757
  0
LINE
  5
32B8
100
AcDbEntity
  8
0
100
AcDbLine
 10
1187.937945
 20
774.362879
 30
0.0
 11
1187.937945
 21
790.362879
 31
0.0
  0
LINE
  5
32B9
100
AcDbEntity
  8
0
100
AcDbLine
 10
1087.937945
 20
611.362879
 30
0.0
 11
1187.937945
 21
611.362879
 31
0.0
  0
LINE
  5
32BA
100
AcDbEntity
  8
0
100
AcDbLine
 10
1087.937945
 20
611.362879
 30
0.0
 11
1087.937945
 21
595.362879
 31
0.0
  0
LINE
  5
32BB
100
AcDbEntity
  8
0
100
AcDbLine
 10
1152.937945
 20
648.171793
 30
0.0
 11
1122.937945
 21
648.171793
 31
0.0
  0
LINE
  5
32BC
100
AcDbEntity
  8
0
100
AcDbLine
 10
1124.337945
 20
635.962879
 30
0.0
 11
1151.537945
 21
635.962879
 31
0.0
  0
LINE
  5
32BD
100
AcDbEntity
  8
0
100
AcDbLine
 10
1124.337945
 20
621.362879
 30
0.0
 11
1151.537945
 21
621.362879
 31
0.0
  0
LINE
  5
32BE
100
AcDbEntity
  8
0
100
AcDbLine
 10
1122.937945
 20
637.362879
 30
0.0
 11
1152.937945
 21
637.362879
 31
0.0
  0
LINE
  5
32BF
100
AcDbEntity
  8
0
100
AcDbLine
 10
1122.937945
 20
648.171793
 30
0.0
 11
1122.937945
 21
637.362879
 31
0.0
  0
LINE
  5
32C0
100
AcDbEntity
  8
0
100
AcDbLine
 10
1124.337945
 20
635.962879
 30
0.0
 11
1124.337945
 21
621.362879
 31
0.0
  0
LINE
  5
32C1
100
AcDbEntity
  8
0
100
AcDbLine
 10
1122.937945
 20
637.362879
 30
0.0
 11
1124.337945
 21
635.962879
 31
0.0
  0
ARC
  5
32C2
100
AcDbEntity
  8
0
100
AcDbCircle
 10
1115.748882
 20
615.362879
 30
0.0
 40
4.0
100
AcDbArc
 50
270.0
 51
327.380757
  0
LINE
  5
32C3
100
AcDbEntity
  8
0
100
AcDbLine
 10
1119.117967
 20
613.206664
 30
0.0
 11
1124.337945
 21
621.362879
 31
0.0
  0
LINE
  5
32C4
100
AcDbEntity
  8
0
100
AcDbLine
 10
1122.937945
 20
648.171793
 30
0.0
 11
1121.600381
 21
649.612879
 31
0.0
  0
LINE
  5
32C5
100
AcDbEntity
  8
0
100
AcDbLine
 10
1152.937945
 20
648.171793
 30
0.0
 11
1152.937945
 21
637.362879
 31
0.0
  0
ARC
  5
32C6
100
AcDbEntity
  8
0
100
AcDbCircle
 10
1160.127008
 20
615.362879
 30
0.0
 40
4.0
100
AcDbArc
 50
212.619243
 51
270.0
  0
LINE
  5
32C7
100
AcDbEntity
  8
0
100
AcDbLine
 10
1156.757922
 20
613.206664
 30
0.0
 11
1151.537945
 21
621.362879
 31
0.0
  0
LINE
  5
32C8
100
AcDbEntity
  8
0
100
AcDbLine
 10
1151.537945
 20
635.962879
 30
0.0
 11
1151.537945
 21
621.362879
 31
0.0
  0
LINE
  5
32C9
100
AcDbEntity
  8
0
100
AcDbLine
 10
1152.937945
 20
637.362879
 30
0.0
 11
1151.537945
 21
635.962879
 31
0.0
  0
LINE
  5
32CA
100
AcDbEntity
  8
0
100
AcDbLine
 10
1152.937945
 20
648.171793
 30
0.0
 11
1154.275509
 21
649.612879
 31
0.0
  0
LINE
  5
32CB
100
AcDbEntity
  8
0
100
AcDbLine
 10
1187.937945
 20
611.362879
 30
0.0
 11
1187.937945
 21
595.362879
 31
0.0
  0
CIRCLE
  5
32CC
100
AcDbEntity
  8
0
100
AcDbCircle
 10
1137.937945
 20
510.516084
 30
0.0
 40
50.0
  0
CIRCLE
  5
32CF
100
AcDbEntity
  8
0
100
AcDbCircle
 10
1111.42144
 20
537.032589
 30
0.0
 40
7.5
  0
CIRCLE
  5
32D0
100
AcDbEntity
  8
0
100
AcDbCircle
 10
1111.42144
 20
483.99958
 30
0.0
 40
7.5
  0
CIRCLE
  5
32D1
100
AcDbEntity
  8
0
100
AcDbCircle
 10
1164.454449
 20
483.99958
 30
0.0
 40
7.5
  0
CIRCLE
  5
32D2
100
AcDbEntity
  8
0
100
AcDbCircle
 10
1164.454449
 20
537.032589
 30
0.0
 40
7.5
  0
LINE
  5
32D3
100
AcDbEntity
  8
0
100
AcDbLine
 10
1969.669038
 20
347.186261
 30
0.0
 11
2094.669038
 21
347.186261
 31
0.0
  0
LINE
  5
32D4
100
AcDbEntity
  8
0
100
AcDbLine
 10
2015.169038
 20
337.186261
 30
0.0
 11
2049.169038
 21
337.186261
 31
0.0
  0
LINE
  5
32D5
100
AcDbEntity
  8
0
100
AcDbLine
 10
2015.169038
 20
311.686261
 30
0.0
 11
2049.169038
 21
311.686261
 31
0.0
  0
LINE
  5
32D7
100
AcDbEntity
  8
0
100
AcDbLine
 10
2094.669038
 20
347.186261
 30
0.0
 11
2094.669038
 21
363.186261
 31
0.0
  0
LINE
  5
32D8
100
AcDbEntity
  8
0
100
AcDbLine
 10
2049.169038
 20
301.842804
 30
0.0
 11
2049.169038
 21
337.186261
 31
0.0
  0
LINE
  5
32D9
100
AcDbEntity
  8
0
100
AcDbLine
 10
2049.169038
 20
337.186261
 30
0.0
 11
2055.667818
 21
345.309736
 31
0.0
  0
ARC
  5
32DA
100
AcDbEntity
  8
0
100
AcDbCircle
 10
2059.572162
 20
342.186261
 30
0.0
 40
5.0
100
AcDbArc
 50
90.0
 51
141.340192
  0
LINE
  5
32DB
100
AcDbEntity
  8
0
100
AcDbLine
 10
1969.669038
 20
347.186261
 30
0.0
 11
1969.669038
 21
363.186261
 31
0.0
  0
LINE
  5
32DC
100
AcDbEntity
  8
0
100
AcDbLine
 10
2015.169038
 20
301.842804
 30
0.0
 11
2015.169038
 21
337.186261
 31
0.0
  0
LINE
  5
32DD
100
AcDbEntity
  8
0
100
AcDbLine
 10
2015.169038
 20
337.186261
 30
0.0
 11
2008.670257
 21
345.309736
 31
0.0
  0
ARC
  5
32DE
100
AcDbEntity
  8
0
100
AcDbCircle
 10
2004.765913
 20
342.186261
 30
0.0
 40
5.0
100
AcDbArc
 50
38.659808
 51
90.0
  0
LINE
  5
32DF
100
AcDbEntity
  8
0
100
AcDbLine
 10
2015.169038
 20
199.686261
 30
0.0
 11
2049.169038
 21
199.686261
 31
0.0
  0
LINE
  5
32E0
100
AcDbEntity
  8
0
100
AcDbLine
 10
2015.169038
 20
174.186261
 30
0.0
 11
2049.169038
 21
174.186261
 31
0.0
  0
LINE
  5
32E1
100
AcDbEntity
  8
0
100
AcDbLine
 10
1969.669038
 20
164.186261
 30
0.0
 11
2094.669038
 21
164.186261
 31
0.0
  0
LINE
  5
32E2
100
AcDbEntity
  8
0
100
AcDbLine
 10
2015.169038
 20
209.529718
 30
0.0
 11
2015.169038
 21
174.186261
 31
0.0
  0
LINE
  5
32E3
100
AcDbEntity
  8
0
100
AcDbLine
 10
1969.669038
 20
164.186261
 30
0.0
 11
1969.669038
 21
148.186261
 31
0.0
  0
ARC
  5
32E4
100
AcDbEntity
  8
0
100
AcDbCircle
 10
2004.765913
 20
169.186261
 30
0.0
 40
5.0
100
AcDbArc
 50
270.0
 51
321.340192
  0
LINE
  5
32E5
100
AcDbEntity
  8
0
100
AcDbLine
 10
2015.169038
 20
174.186261
 30
0.0
 11
2008.670257
 21
166.062786
 31
0.0
  0
LINE
  5
32E6
100
AcDbEntity
  8
0
100
AcDbLine
 10
2049.169038
 20
209.529718
 30
0.0
 11
2049.169038
 21
174.186261
 31
0.0
  0
ARC
  5
32E7
100
AcDbEntity
  8
0
100
AcDbCircle
 10
2059.572162
 20
169.186261
 30
0.0
 40
5.0
100
AcDbArc
 50
218.659808
 51
270.0
  0
LINE
  5
32E8
100
AcDbEntity
  8
0
100
AcDbLine
 10
2049.169038
 20
174.186261
 30
0.0
 11
2055.667818
 21
166.062786
 31
0.0
  0
LINE
  5
32E9
100
AcDbEntity
  8
0
100
AcDbLine
 10
2094.669038
 20
164.186261
 30
0.0
 11
2094.669038
 21
148.186261
 31
0.0
  0
LINE
  5
32EA
100
AcDbEntity
  8
0
100
AcDbLine
 10
1861.882843
 20
311.686261
 30
0.0
 11
1895.882843
 21
311.686261
 31
0.0
  0
LINE
  5
32EB
100
AcDbEntity
  8
0
100
AcDbLine
 10
1861.882843
 20
337.186261
 30
0.0
 11
1895.882843
 21
337.186261
 31
0.0
  0
LINE
  5
32EC
100
AcDbEntity
  8
0
100
AcDbLine
 10
1816.382843
 20
347.186261
 30
0.0
 11
1941.382843
 21
347.186261
 31
0.0
  0
LINE
  5
32ED
100
AcDbEntity
  8
0
100
AcDbLine
 10
1861.882843
 20
301.842804
 30
0.0
 11
1861.882843
 21
337.186261
 31
0.0
  0
LINE
  5
32EE
100
AcDbEntity
  8
0
100
AcDbLine
 10
1816.382843
 20
347.186261
 30
0.0
 11
1816.382843
 21
363.186261
 31
0.0
  0
ARC
  5
32EF
100
AcDbEntity
  8
0
100
AcDbCircle
 10
1851.479718
 20
342.186261
 30
0.0
 40
5.0
100
AcDbArc
 50
38.659808
 51
90.0
  0
LINE
  5
32F0
100
AcDbEntity
  8
0
100
AcDbLine
 10
1861.882843
 20
337.186261
 30
0.0
 11
1855.384063
 21
345.309736
 31
0.0
  0
LINE
  5
32F1
100
AcDbEntity
  8
0
100
AcDbLine
 10
1895.882843
 20
301.842804
 30
0.0
 11
1895.882843
 21
337.186261
 31
0.0
  0
ARC
  5
32F2
100
AcDbEntity
  8
0
100
AcDbCircle
 10
1906.285967
 20
342.186261
 30
0.0
 40
5.0
100
AcDbArc
 50
90.0
 51
141.340192
  0
LINE
  5
32F3
100
AcDbEntity
  8
0
100
AcDbLine
 10
1895.882843
 20
337.186261
 30
0.0
 11
1902.381623
 21
345.309736
 31
0.0
  0
LINE
  5
32F4
100
AcDbEntity
  8
0
100
AcDbLine
 10
1941.382843
 20
347.186261
 30
0.0
 11
1941.382843
 21
363.186261
 31
0.0
  0
LINE
  5
32F5
100
AcDbEntity
  8
0
100
AcDbLine
 10
1816.382843
 20
164.186261
 30
0.0
 11
1941.382843
 21
164.186261
 31
0.0
  0
LINE
  5
32F6
100
AcDbEntity
  8
0
100
AcDbLine
 10
1861.882843
 20
174.186261
 30
0.0
 11
1895.882843
 21
174.186261
 31
0.0
  0
LINE
  5
32F7
100
AcDbEntity
  8
0
100
AcDbLine
 10
1861.882843
 20
199.686261
 30
0.0
 11
1895.882843
 21
199.686261
 31
0.0
  0
LINE
  5
32F8
100
AcDbEntity
  8
0
100
AcDbLine
 10
1861.882843
 20
209.529718
 30
0.0
 11
1861.882843
 21
174.186261
 31
0.0
  0
LINE
  5
32F9
100
AcDbEntity
  8
0
100
AcDbLine
 10
1816.382843
 20
164.186261
 30
0.0
 11
1816.382843
 21
148.186261
 31
0.0
  0
LINE
  5
32FA
100
AcDbEntity
  8
0
100
AcDbLine
 10
1861.882843
 20
174.186261
 30
0.0
 11
1855.384063
 21
166.062786
 31
0.0
  0
ARC
  5
32FB
100
AcDbEntity
  8
0
100
AcDbCircle
 10
1851.479718
 20
169.186261
 30
0.0
 40
5.0
100
AcDbArc
 50
270.0
 51
321.340192
  0
LINE
  5
32FC
100
AcDbEntity
  8
0
100
AcDbLine
 10
1895.882843
 20
209.529718
 30
0.0
 11
1895.882843
 21
174.186261
 31
0.0
  0
LINE
  5
32FD
100
AcDbEntity
  8
0
100
AcDbLine
 10
1895.882843
 20
174.186261
 30
0.0
 11
1902.381623
 21
166.062786
 31
0.0
  0
ARC
  5
32FE
100
AcDbEntity
  8
0
100
AcDbCircle
 10
1906.285967
 20
169.186261
 30
0.0
 40
5.0
100
AcDbArc
 50
218.659808
 51
270.0
  0
LINE
  5
32FF
100
AcDbEntity
  8
0
100
AcDbLine
 10
1941.382843
 20
164.186261
 30
0.0
 11
1941.382843
 21
148.186261
 31
0.0
  0
LINE
  5
3300
100
AcDbEntity
  8
0
100
AcDbLine
 10
1705.688506
 20
311.686261
 30
0.0
 11
1739.688506
 21
311.686261
 31
0.0
  0
LINE
  5
3301
100
AcDbEntity
  8
0
100
AcDbLine
 10
1705.688506
 20
337.186261
 30
0.0
 11
1739.688506
 21
337.186261
 31
0.0
  0
LINE
  5
3302
100
AcDbEntity
  8
0
100
AcDbLine
 10
1660.188506
 20
347.186261
 30
0.0
 11
1785.188506
 21
347.186261
 31
0.0
  0
LINE
  5
3303
100
AcDbEntity
  8
0
100
AcDbLine
 10
1705.688506
 20
301.842804
 30
0.0
 11
1705.688506
 21
337.186261
 31
0.0
  0
LINE
  5
3304
100
AcDbEntity
  8
0
100
AcDbLine
 10
1660.188506
 20
347.186261
 30
0.0
 11
1660.188506
 21
363.186261
 31
0.0
  0
ARC
  5
3305
100
AcDbEntity
  8
0
100
AcDbCircle
 10
1695.285382
 20
342.186261
 30
0.0
 40
5.0
100
AcDbArc
 50
38.659808
 51
90.0
  0
LINE
  5
3306
100
AcDbEntity
  8
0
100
AcDbLine
 10
1705.688506
 20
337.186261
 30
0.0
 11
1699.189726
 21
345.309736
 31
0.0
  0
LINE
  5
3307
100
AcDbEntity
  8
0
100
AcDbLine
 10
1739.688506
 20
301.842804
 30
0.0
 11
1739.688506
 21
337.186261
 31
0.0
  0
ARC
  5
3308
100
AcDbEntity
  8
0
100
AcDbCircle
 10
1750.091631
 20
342.186261
 30
0.0
 40
5.0
100
AcDbArc
 50
90.0
 51
141.340192
  0
LINE
  5
3309
100
AcDbEntity
  8
0
100
AcDbLine
 10
1739.688506
 20
337.186261
 30
0.0
 11
1746.187286
 21
345.309736
 31
0.0
  0
LINE
  5
330A
100
AcDbEntity
  8
0
100
AcDbLine
 10
1785.188506
 20
347.186261
 30
0.0
 11
1785.188506
 21
363.186261
 31
0.0
  0
LINE
  5
330B
100
AcDbEntity
  8
0
100
AcDbLine
 10
1660.188506
 20
164.186261
 30
0.0
 11
1785.188506
 21
164.186261
 31
0.0
  0
LINE
  5
330C
100
AcDbEntity
  8
0
100
AcDbLine
 10
1705.688506
 20
174.186261
 30
0.0
 11
1739.688506
 21
174.186261
 31
0.0
  0
LINE
  5
330D
100
AcDbEntity
  8
0
100
AcDbLine
 10
1705.688506
 20
199.686261
 30
0.0
 11
1739.688506
 21
199.686261
 31
0.0
  0
LINE
  5
330E
100
AcDbEntity
  8
0
100
AcDbLine
 10
1705.688506
 20
209.529718
 30
0.0
 11
1705.688506
 21
174.186261
 31
0.0
  0
LINE
  5
330F
100
AcDbEntity
  8
0
100
AcDbLine
 10
1660.188506
 20
164.186261
 30
0.0
 11
1660.188506
 21
148.186261
 31
0.0
  0
LINE
  5
3310
100
AcDbEntity
  8
0
100
AcDbLine
 10
1705.688506
 20
174.186261
 30
0.0
 11
1699.189726
 21
166.062786
 31
0.0
  0
ARC
  5
3311
100
AcDbEntity
  8
0
100
AcDbCircle
 10
1695.285382
 20
169.186261
 30
0.0
 40
5.0
100
AcDbArc
 50
270.0
 51
321.340192
  0
LINE
  5
3312
100
AcDbEntity
  8
0
100
AcDbLine
 10
1739.688506
 20
209.529718
 30
0.0
 11
1739.688506
 21
174.186261
 31
0.0
  0
LINE
  5
3313
100
AcDbEntity
  8
0
100
AcDbLine
 10
1739.688506
 20
174.186261
 30
0.0
 11
1746.187286
 21
166.062786
 31
0.0
  0
ARC
  5
3314
100
AcDbEntity
  8
0
100
AcDbCircle
 10
1750.091631
 20
169.186261
 30
0.0
 40
5.0
100
AcDbArc
 50
218.659808
 51
270.0
  0
LINE
  5
3315
100
AcDbEntity
  8
0
100
AcDbLine
 10
1785.188506
 20
164.186261
 30
0.0
 11
1785.188506
 21
148.186261
 31
0.0
  0
LINE
  5
3316
100
AcDbEntity
  8
0
100
AcDbLine
 10
1878.882843
 20
363.186261
 30
0.0
 11
1941.382843
 21
363.186261
 31
0.0
  0
LINE
  5
3317
100
AcDbEntity
  8
0
100
AcDbLine
 10
1722.688506
 20
363.186261
 30
0.0
 11
1785.188506
 21
363.186261
 31
0.0
  0
LINE
  5
3318
100
AcDbEntity
  8
0
100
AcDbLine
 10
1722.688506
 20
148.186261
 30
0.0
 11
1785.188506
 21
148.186261
 31
0.0
  0
LINE
  5
3319
100
AcDbEntity
  8
0
100
AcDbLine
 10
1813.610146
 20
808.381692
 30
0.0
 11
1938.610146
 21
808.381692
 31
0.0
  0
LINE
  5
331A
100
AcDbEntity
  8
0
100
AcDbLine
 10
1813.610146
 20
824.381692
 30
0.0
 11
1876.110146
 21
824.381692
 31
0.0
  0
LINE
  5
331B
100
AcDbEntity
  8
0
100
AcDbLine
 10
1813.610146
 20
824.381692
 30
0.0
 11
1876.110146
 21
824.381692
 31
0.0
  0
LINE
  5
331C
100
AcDbEntity
  8
0
100
AcDbLine
 10
1813.610146
 20
808.381692
 30
0.0
 11
1813.610146
 21
824.381692
 31
0.0
  0
LINE
  5
331D
100
AcDbEntity
  8
0
100
AcDbLine
 10
1859.110146
 20
763.038234
 30
0.0
 11
1859.110146
 21
798.381692
 31
0.0
  0
LINE
  5
331E
100
AcDbEntity
  8
0
100
AcDbLine
 10
1859.110146
 20
798.381692
 30
0.0
 11
1893.110146
 21
798.381692
 31
0.0
  0
LINE
  5
331F
100
AcDbEntity
  8
0
100
AcDbLine
 10
1859.110146
 20
798.381692
 30
0.0
 11
1852.611365
 21
806.505167
 31
0.0
  0
ARC
  5
3320
100
AcDbEntity
  8
0
100
AcDbCircle
 10
1848.707021
 20
803.381692
 30
0.0
 40
5.0
100
AcDbArc
 50
38.659808
 51
90.0
  0
LINE
  5
3321
100
AcDbEntity
  8
0
100
AcDbLine
 10
1893.110146
 20
763.038234
 30
0.0
 11
1893.110146
 21
798.381692
 31
0.0
  0
LINE
  5
3322
100
AcDbEntity
  8
0
100
AcDbLine
 10
1859.110146
 20
772.881692
 30
0.0
 11
1893.110146
 21
772.881692
 31
0.0
  0
LINE
  5
3323
100
AcDbEntity
  8
0
100
AcDbLine
 10
1893.110146
 20
798.381692
 30
0.0
 11
1899.608926
 21
806.505167
 31
0.0
  0
ARC
  5
3324
100
AcDbEntity
  8
0
100
AcDbCircle
 10
1903.51327
 20
803.381692
 30
0.0
 40
5.0
100
AcDbArc
 50
90.0
 51
141.340192
  0
LINE
  5
3325
100
AcDbEntity
  8
0
100
AcDbLine
 10
1938.610146
 20
808.381692
 30
0.0
 11
1938.610146
 21
824.381692
 31
0.0
  0
LINE
  5
3326
100
AcDbEntity
  8
0
100
AcDbLine
 10
1876.110146
 20
609.381692
 30
0.0
 11
1938.610146
 21
609.381692
 31
0.0
  0
LINE
  5
3327
100
AcDbEntity
  8
0
100
AcDbLine
 10
1813.610146
 20
625.381692
 30
0.0
 11
1938.610146
 21
625.381692
 31
0.0
  0
LINE
  5
3328
100
AcDbEntity
  8
0
100
AcDbLine
 10
1813.610146
 20
609.381692
 30
0.0
 11
1876.110146
 21
609.381692
 31
0.0
  0
LINE
  5
3329
100
AcDbEntity
  8
0
100
AcDbLine
 10
1813.610146
 20
625.381692
 30
0.0
 11
1813.610146
 21
609.381692
 31
0.0
  0
LINE
  5
332A
100
AcDbEntity
  8
0
100
AcDbLine
 10
1893.110146
 20
670.725149
 30
0.0
 11
1893.110146
 21
635.381692
 31
0.0
  0
LINE
  5
332B
100
AcDbEntity
  8
0
100
AcDbLine
 10
1859.110146
 20
670.725149
 30
0.0
 11
1859.110146
 21
635.381692
 31
0.0
  0
LINE
  5
332C
100
AcDbEntity
  8
0
100
AcDbLine
 10
1859.110146
 20
635.381692
 30
0.0
 11
1893.110146
 21
635.381692
 31
0.0
  0
LINE
  5
332D
100
AcDbEntity
  8
0
100
AcDbLine
 10
1859.110146
 20
635.381692
 30
0.0
 11
1852.611365
 21
627.258216
 31
0.0
  0
ARC
  5
332E
100
AcDbEntity
  8
0
100
AcDbCircle
 10
1848.707021
 20
630.381692
 30
0.0
 40
5.0
100
AcDbArc
 50
270.0
 51
321.340192
  0
ARC
  5
332F
100
AcDbEntity
  8
0
100
AcDbCircle
 10
1903.51327
 20
630.381692
 30
0.0
 40
5.0
100
AcDbArc
 50
218.659808
 51
270.0
  0
LINE
  5
3330
100
AcDbEntity
  8
0
100
AcDbLine
 10
1893.110146
 20
635.381692
 30
0.0
 11
1899.608926
 21
627.258216
 31
0.0
  0
LINE
  5
3331
100
AcDbEntity
  8
0
100
AcDbLine
 10
1859.110146
 20
660.881692
 30
0.0
 11
1893.110146
 21
660.881692
 31
0.0
  0
LINE
  5
3332
100
AcDbEntity
  8
0
100
AcDbLine
 10
1938.610146
 20
625.381692
 30
0.0
 11
1938.610146
 21
609.381692
 31
0.0
  0
VIEWPORT
  5
41
100
AcDbEntity
 67
     1
  8
0
100
AcDbViewport
 10
117.358407
 20
73.5
 30
0.0
 40
234.716814
 41
147.0
 68
    -1
 69
     1
1001
ACAD
1000
MVIEW
1002
{
1070
    16
1010
0.0
1020
0.0
1030
0.0
1010
0.0
1020
0.0
1030
1.0
1040
0.0
1040
147.0
1040
117.358407
1040
73.5
1040
50.0
1040
0.0
1040
0.0
1070
     0
1070
   100
1070
     1
1070
     1
1070
     0
1070
     0
1070
     0
1070
     0
1040
0.0
1040
0.0
1040
0.0
1040
1.0
1040
1.0
1040
0.0
1040
0.0
1070
     0
1002
{
1002
}
1002
}
  0
ENDSEC
  0
SECTION
  2
OBJECTS
  0
DICTIONARY
  5
C
100
AcDbDictionary
  3
ACAD_GROUP
350
D
  3
ACAD_MLINESTYLE
350
E
  0
DICTIONARY
  5
D
102
{ACAD_REACTORS
330
C
102
}
100
AcDbDictionary
  0
DICTIONARY
  5
E
102
{ACAD_REACTORS
330
C
102
}
100
AcDbDictionary
  3
STANDARD
350
1B
  0
MLINESTYLE
  5
1B
102
{ACAD_REACTORS
330
E
102
}
100
AcDbMlineStyle
  2
STANDARD
 70
     0
  3

 62
     0
 51
90.0
 52
90.0
 71
     2
 49
0.5
 62
   256
  6
BYLAYER
 49
-0.5
 62
   256
  6
BYLAYER
  0
ENDSEC
  0
EOF
