  0
SECTION
  2
HEADER
  9
$ACADVER
  1
AC1012
  9
$DWGCODEPAGE
  3
dos932
  9
$INSBASE
 10
0.0
 20
0.0
 30
0.0
  9
$EXTMIN
 10
88.0
 20
40.0
 30
0.0
  9
$EXTMAX
 10
2288.0
 20
1528.0
 30
0.0
  9
$LIMMIN
 10
0.0
 20
0.0
  9
$LIMMAX
 10
2376.0
 20
1680.0
  9
$ORTHOMODE
 70
     1
  9
$REGENMODE
 70
     1
  9
$FILLMODE
 70
     1
  9
$QTEXTMODE
 70
     0
  9
$MIRRTEXT
 70
     1
  9
$DRAGMODE
 70
     2
  9
$LTSCALE
 40
32.0
  9
$OSMODE
 70
   163
  9
$ATTMODE
 70
     1
  9
$TEXTSIZE
 40
32.0
  9
$TRACEWID
 40
0.05
  9
$TEXTSTYLE
  7
STANDARD
  9
$CLAYER
  8
0
  9
$CELTYPE
  6
BYLAYER
  9
$CECOLOR
 62
   256
  9
$CELTSCALE
 40
1.0
  9
$DELOBJ
 70
     1
  9
$DISPSILH
 70
     0
  9
$DIMSCALE
 40
8.0
  9
$DIMASZ
 40
2.8
  9
$DIMEXO
 40
1.0
  9
$DIMDLI
 40
5.0
  9
$DIMRND
 40
0.1
  9
$DIMDLE
 40
0.0
  9
$DIMEXE
 40
1.0
  9
$DIMTP
 40
0.0
  9
$DIMTM
 40
0.0
  9
$DIMTXT
 40
2.5
  9
$DIMCEN
 40
0.0
  9
$DIMTSZ
 40
0.0
  9
$DIMTOL
 70
     0
  9
$DIMLIM
 70
     0
  9
$DIMTIH
 70
     0
  9
$DIMTOH
 70
     0
  9
$DIMSE1
 70
     0
  9
$DIMSE2
 70
     0
  9
$DIMTAD
 70
     3
  9
$DIMZIN
 70
     8
  9
$DIMBLK
  1

  9
$DIMASO
 70
     1
  9
$DIMSHO
 70
     1
  9
$DIMPOST
  1
 
  9
$DIMAPOST
  1

  9
$DIMALT
 70
     0
  9
$DIMALTD
 70
     2
  9
$DIMALTF
 40
1.0
  9
$DIMLFAC
 40
1.0
  9
$DIMTOFL
 70
     1
  9
$DIMTVP
 40
0.0
  9
$DIMTIX
 70
     0
  9
$DIMSOXD
 70
     0
  9
$DIMSAH
 70
     1
  9
$DIMBLK1
  1
_OPEN
  9
$DIMBLK2
  1
_OPEN
  9
$DIMSTYLE
  2
DIM1
  9
$DIMCLRD
 70
     2
  9
$DIMCLRE
 70
     2
  9
$DIMCLRT
 70
     2
  9
$DIMTFAC
 40
0.7
  9
$DIMGAP
 40
0.85
  9
$DIMJUST
 70
     0
  9
$DIMSD1
 70
     0
  9
$DIMSD2
 70
     0
  9
$DIMTOLJ
 70
     1
  9
$DIMTZIN
 70
     8
  9
$DIMALTZ
 70
     8
  9
$DIMALTTZ
 70
     8
  9
$DIMFIT
 70
     0
  9
$DIMUPT
 70
     0
  9
$DIMUNIT
 70
     2
  9
$DIMDEC
 70
     2
  9
$DIMTDEC
 70
     3
  9
$DIMALTU
 70
     2
  9
$DIMALTTD
 70
     3
  9
$DIMTXSTY
  7
DIM
  9
$DIMAUNIT
 70
     0
  9
$LUNITS
 70
     2
  9
$LUPREC
 70
     4
  9
$SKETCHINC
 40
0.1
  9
$FILLETRAD
 40
11.0
  9
$AUNITS
 70
     0
  9
$AUPREC
 70
     0
  9
$MENU
  1
C:\ACADR13\WIN\SUPPORT\ACAD.mnc
  9
$ELEVATION
 40
0.0
  9
$PELEVATION
 40
0.0
  9
$THICKNESS
 40
0.0
  9
$LIMCHECK
 70
     0
  9
$BLIPMODE
 70
     1
  9
$CHAMFERA
 40
0.0
  9
$CHAMFERB
 40
0.0
  9
$CHAMFERC
 40
0.0
  9
$CHAMFERD
 40
0.0
  9
$SKPOLY
 70
     0
  9
$TDCREATE
 40
2451564.667510173
  9
$TDUPDATE
 40
2451967.652060000
  9
$TDINDWG
 40
0.0561299306
  9
$TDUSRTIMER
 40
0.0561299306
  9
$USRTIMER
 70
     1
  9
$ANGBASE
 50
0.0
  9
$ANGDIR
 70
     0
  9
$PDMODE
 70
     0
  9
$PDSIZE
 40
0.0
  9
$PLINEWID
 40
0.0
  9
$COORDS
 70
     1
  9
$SPLFRAME
 70
     0
  9
$SPLINETYPE
 70
     6
  9
$SPLINESEGS
 70
     8
  9
$ATTDIA
 70
     0
  9
$ATTREQ
 70
     1
  9
$HANDLING
 70
     1
  9
$HANDSEED
  5
38DF
  9
$SURFTAB1
 70
     6
  9
$SURFTAB2
 70
     6
  9
$SURFTYPE
 70
     6
  9
$SURFU
 70
     6
  9
$SURFV
 70
     6
  9
$UCSNAME
  2

  9
$UCSORG
 10
0.0
 20
0.0
 30
0.0
  9
$UCSXDIR
 10
1.0
 20
0.0
 30
0.0
  9
$UCSYDIR
 10
0.0
 20
1.0
 30
0.0
  9
$PUCSNAME
  2

  9
$PUCSORG
 10
0.0
 20
0.0
 30
0.0
  9
$PUCSXDIR
 10
1.0
 20
0.0
 30
0.0
  9
$PUCSYDIR
 10
0.0
 20
1.0
 30
0.0
  9
$USERI1
 70
     0
  9
$USERI2
 70
     0
  9
$USERI3
 70
     0
  9
$USERI4
 70
     0
  9
$USERI5
 70
     0
  9
$USERR1
 40
0.0
  9
$USERR2
 40
0.0
  9
$USERR3
 40
0.0
  9
$USERR4
 40
0.0
  9
$USERR5
 40
0.0
  9
$WORLDVIEW
 70
     1
  9
$SHADEDGE
 70
     3
  9
$SHADEDIF
 70
    70
  9
$TILEMODE
 70
     1
  9
$MAXACTVP
 70
    16
  9
$PINSBASE
 10
0.0
 20
0.0
 30
0.0
  9
$PLIMCHECK
 70
     0
  9
$PEXTMIN
 10
1.000000E+20
 20
1.000000E+20
 30
1.000000E+20
  9
$PEXTMAX
 10
-1.000000E+20
 20
-1.000000E+20
 30
-1.000000E+20
  9
$PLIMMIN
 10
0.0
 20
0.0
  9
$PLIMMAX
 10
20.0
 20
147.0
  9
$UNITMODE
 70
     0
  9
$VISRETAIN
 70
     0
  9
$PLINEGEN
 70
     0
  9
$PSLTSCALE
 70
     1
  9
$TREEDEPTH
 70
  3020
  9
$PICKSTYLE
 70
     1
  9
$CMLSTYLE
  2
STANDARD
  9
$CMLJUST
 70
     0
  9
$CMLSCALE
 40
1.0
  9
$SAVEIMAGES
 70
     1
  0
ENDSEC
  0
SECTION
  2
CLASSES
  0
CLASS
  1
LWPOLYLINE
  2
AcDbPolyline
  3
"AutoCAD"
 90
    32768
280
     0
281
     1
  0
ENDSEC
  0
SECTION
  2
TABLES
  0
TABLE
  2
VPORT
  5
8
100
AcDbSymbolTable
 70
     2
  0
VPORT
  5
38DE
100
AcDbSymbolTableRecord
100
AcDbViewportTableRecord
  2
*ACTIVE
 70
     0
 10
0.0
 20
0.0
 11
1.0
 21
1.0
 12
1228.109857
 22
871.023261
 13
0.0
 23
0.0
 14
1.0
 24
1.0
 15
0.0
 25
0.0
 16
0.0
 26
0.0
 36
1.0
 17
0.0
 27
0.0
 37
0.0
 40
1742.046526
 41
1.762063
 42
50.0
 43
0.0
 44
0.0
 50
0.0
 51
0.0
 71
     0
 72
   100
 73
     1
 74
     1
 75
     0
 76
     0
 77
     0
 78
     0
  0
ENDTAB
  0
TABLE
  2
LTYPE
  5
5
100
AcDbSymbolTable
 70
     5
  0
LTYPE
  5
12
100
AcDbSymbolTableRecord
100
AcDbLinetypeTableRecord
  2
BYBLOCK
 70
     0
  3

 72
    65
 73
     0
 40
0.0
  0
LTYPE
  5
13
100
AcDbSymbolTableRecord
100
AcDbLinetypeTableRecord
  2
BYLAYER
 70
     0
  3

 72
    65
 73
     0
 40
0.0
  0
LTYPE
  5
14
100
AcDbSymbolTableRecord
100
AcDbLinetypeTableRecord
  2
CONTINUOUS
 70
     0
  3
Solid line
 72
    65
 73
     0
 40
0.0
  0
ENDTAB
  0
TABLE
  2
LAYER
  5
2
100
AcDbSymbolTable
 70
     3
  0
LAYER
  5
F
100
AcDbSymbolTableRecord
100
AcDbLayerTableRecord
  2
0
 70
     0
 62
     7
  6
CONTINUOUS
  0
ENDTAB
  0
TABLE
  2
STYLE
  5
3
100
AcDbSymbolTable
 70
     3
  0
STYLE
  5
10
100
AcDbSymbolTableRecord
100
AcDbTextStyleTableRecord
  2
STANDARD
 70
     0
 40
0.0
 41
0.8
 50
0.0
 71
     0
 42
32.0
  3
simplex
  4
extfont
  0
STYLE
  5
237C
100
AcDbSymbolTableRecord
100
AcDbTextStyleTableRecord
  2
PTSH
 70
     0
 40
0.0
 41
0.9
 50
0.0
 71
     0
 42
4.0
  3
SIMPLEX
  4
EXTFONT
  0
STYLE
  5
2592
100
AcDbSymbolTableRecord
100
AcDbTextStyleTableRecord
  2
DIM
 70
     0
 40
0.0
 41
0.8
 50
0.0
 71
     0
 42
4.0
  3
simplex
  4
extfont
  0
ENDTAB
  0
TABLE
  2
VIEW
  5
6
100
AcDbSymbolTable
 70
     0
  0
ENDTAB
  0
TABLE
  2
UCS
  5
7
100
AcDbSymbolTable
 70
     0
  0
ENDTAB
  0
TABLE
  2
APPID
  5
9
100
AcDbSymbolTable
 70
     1
  0
APPID
  5
11
100
AcDbSymbolTableRecord
100
AcDbRegAppTableRecord
  2
ACAD
 70
     0
  0
ENDTAB
  0
TABLE
  2
DIMSTYLE
  5
A
100
AcDbSymbolTable
 70
     1
  0
DIMSTYLE
105
2237
100
AcDbSymbolTableRecord
100
AcDbDimStyleTableRecord
  2
DIM1
 70
     0
  3
 
  4

  5

  6
_OPEN
  7
_OPEN
 40
8.0
 41
2.8
 42
1.0
 43
5.0
 44
1.0
 45
0.1
 46
0.0
 47
0.0
 48
0.0
140
2.5
141
0.0
142
0.0
143
1.0
144
1.0
145
0.0
146
0.7
147
0.85
 71
     0
 72
     0
 73
     0
 74
     0
 75
     0
 76
     0
 77
     3
 78
     8
170
     0
171
     2
172
     1
173
     1
174
     0
175
     0
176
     2
177
     2
178
     2
270
     2
271
     2
272
     3
273
     2
274
     3
340
2592
275
     0
280
     0
281
     0
282
     0
283
     1
284
     8
285
     8
286
     8
287
     0
288
     0
  0
ENDTAB
  0
TABLE
  2
BLOCK_RECORD
  5
1
100
AcDbSymbolTable
 70
     1
  0
BLOCK_RECORD
  5
18
100
AcDbSymbolTableRecord
100
AcDbBlockTableRecord
  2
*MODEL_SPACE
  0
BLOCK_RECORD
  5
15
100
AcDbSymbolTableRecord
100
AcDbBlockTableRecord
  2
*PAPER_SPACE
  0
BLOCK_RECORD
  5
2448
100
AcDbSymbolTableRecord
100
AcDbBlockTableRecord
  2
_OPEN
  0
ENDTAB
  0
ENDSEC
  0
SECTION
  2
BLOCKS
  0
BLOCK
  5
3C
100
AcDbEntity
  8
0
100
AcDbBlockBegin
  2
*MODEL_SPACE
 70
     0
 10
0.0
 20
0.0
 30
0.0
  3
*MODEL_SPACE
  1

  0
ENDBLK
  5
3D
100
AcDbEntity
  8
0
100
AcDbBlockEnd
  0
BLOCK
  5
3A
100
AcDbEntity
 67
     1
  8
0
100
AcDbBlockBegin
  2
*PAPER_SPACE
 70
     0
 10
0.0
 20
0.0
 30
0.0
  3
*PAPER_SPACE
  1

  0
ENDBLK
  5
3B
100
AcDbEntity
 67
     1
  8
0
100
AcDbBlockEnd
  0
BLOCK
  5
2449
100
AcDbEntity
  8
0
 48
4.0
100
AcDbBlockBegin
  2
_OPEN
 70
     0
 10
0.0
 20
0.0
 30
0.0
  3
_OPEN
  1
H1111.DWG
  0
LINE
  5
244A
100
AcDbEntity
  8
0
  6
BYBLOCK
 62
     0
 48
4.0
100
AcDbLine
 10
-1.0
 20
0.166667
 30
0.0
 11
0.0
 21
0.0
 31
0.0
  0
LINE
  5
244B
100
AcDbEntity
  8
0
  6
BYBLOCK
 62
     0
 48
4.0
100
AcDbLine
 10
0.0
 20
0.0
 30
0.0
 11
-1.0
 21
-0.166667
 31
0.0
  0
LINE
  5
244C
100
AcDbEntity
  8
0
  6
BYBLOCK
 62
     0
 48
4.0
100
AcDbLine
 10
0.0
 20
0.0
 30
0.0
 11
-1.0
 21
0.0
 31
0.0
  0
ENDBLK
  5
244D
100
AcDbEntity
  8
0
 48
4.0
100
AcDbBlockEnd
  0
ENDSEC
  0
SECTION
  2
ENTITIES
  0
MTEXT
  5
ADA
100
AcDbEntity
  8
0
100
AcDbMText
 10
3041.114238
 20
398.770489
 30
0.0
 40
1.6
 41
377.811719
 71
     1
 72
     1
  1

  0
MTEXT
  5
ADB
100
AcDbEntity
  8
0
100
AcDbMText
 10
3112.399465
 20
462.80635
 30
0.0
 40
1.6
 41
363.554673
 71
     1
 72
     1
  1

  0
MTEXT
  5
ADC
100
AcDbEntity
  8
0
100
AcDbMText
 10
3069.628329
 20
-383.889971
 30
0.0
 40
1.6
 41
413.454332
 71
     1
 72
     1
  1

  0
TEXT
  5
2529
100
AcDbEntity
  8
0
  6
CONTINUOUS
100
AcDbText
 10
2202.715208
 20
53.096776
 30
0.0
 40
20.0
  1
SS5N
 41
0.9
  7
PTSH
 72
     1
 11
2234.429494
 21
63.096776
 31
0.0
100
AcDbText
 73
     2
  0
POLYLINE
  5
2563
100
AcDbEntity
  8
0
100
AcDb2dPolyline
 66
     1
 10
0.0
 20
0.0
 30
0.0
 70
     1
  0
VERTEX
  5
3867
100
AcDbEntity
  8
0
100
AcDbVertex
100
AcDb2dVertex
 10
88.0
 20
40.0
 30
0.0
  0
VERTEX
  5
3868
100
AcDbEntity
  8
0
100
AcDbVertex
100
AcDb2dVertex
 10
2288.0
 20
40.0
 30
0.0
  0
VERTEX
  5
3869
100
AcDbEntity
  8
0
100
AcDbVertex
100
AcDb2dVertex
 10
2288.0
 20
1528.0
 30
0.0
  0
VERTEX
  5
386A
100
AcDbEntity
  8
0
100
AcDbVertex
100
AcDb2dVertex
 10
88.0
 20
1528.0
 30
0.0
  0
SEQEND
  5
386B
100
AcDbEntity
  8
0
  0
LINE
  5
2D6E
100
AcDbEntity
  8
0
100
AcDbLine
 10
1234.019439
 20
715.207427
 30
0.0
 11
1146.419439
 21
715.207427
 31
0.0
  0
LINE
  5
2D6F
100
AcDbEntity
  8
0
100
AcDbLine
 10
1163.635795
 20
611.207427
 30
0.0
 11
1216.803082
 21
611.207427
 31
0.0
  0
LINE
  5
2D70
100
AcDbEntity
  8
0
100
AcDbLine
 10
1225.448559
 20
523.559932
 30
0.0
 11
1154.990518
 21
523.559932
 31
0.0
  0
LINE
  5
2D71
100
AcDbEntity
  8
0
100
AcDbLine
 10
1225.448559
 20
419.559932
 30
0.0
 11
1154.990518
 21
419.559932
 31
0.0
  0
LINE
  5
2D72
100
AcDbEntity
  8
0
100
AcDbLine
 10
1234.019439
 20
317.682005
 30
0.0
 11
1146.419439
 21
317.682005
 31
0.0
  0
LINE
  5
2D73
100
AcDbEntity
  8
0
100
AcDbLine
 10
1163.635795
 20
213.682005
 30
0.0
 11
1216.803082
 21
213.682005
 31
0.0
  0
TEXT
  5
2D74
100
AcDbEntity
  8
0
100
AcDbText
 10
1178.898706
 20
182.55617
 30
0.0
 40
20.0
  1
20A
 41
0.8
 11
1178.898706
 21
182.55617
 31
0.0
100
AcDbText
 73
     1
  0
TEXT
  5
2D75
100
AcDbEntity
  8
0
100
AcDbText
 10
946.862802
 20
115.16108
 30
0.0
 40
30.0
  1
TLV  SS5N (JIS20K)
100
AcDbText
  0
LINE
  5
2D76
100
AcDbEntity
  8
0
100
AcDbLine
 10
1124.447022
 20
1427.864891
 30
0.0
 11
1109.75087
 21
1427.864891
 31
0.0
  0
LINE
  5
2D77
100
AcDbEntity
  8
0
100
AcDbLine
 10
1124.447022
 20
1391.864891
 30
0.0
 11
1109.75087
 21
1391.864891
 31
0.0
  0
LINE
  5
2D78
100
AcDbEntity
  8
0
100
AcDbLine
 10
1124.447022
 20
1409.864891
 30
0.0
 11
1109.75087
 21
1409.864891
 31
0.0
  0
LINE
  5
2D79
100
AcDbEntity
  8
0
100
AcDbLine
 10
1124.447022
 20
1209.609701
 30
0.0
 11
1109.75087
 21
1209.609701
 31
0.0
  0
LINE
  5
2D7A
100
AcDbEntity
  8
0
100
AcDbLine
 10
1124.447022
 20
1220.002006
 30
0.0
 11
1109.75087
 21
1220.002006
 31
0.0
  0
LINE
  5
2D7B
100
AcDbEntity
  8
0
100
AcDbLine
 10
1124.447022
 20
1178.432787
 30
0.0
 11
1109.75087
 21
1178.432787
 31
0.0
  0
LINE
  5
2D7C
100
AcDbEntity
  8
0
100
AcDbLine
 10
1124.447022
 20
1188.825092
 30
0.0
 11
1109.75087
 21
1188.825092
 31
0.0
  0
LINE
  5
2D7D
100
AcDbEntity
  8
0
100
AcDbLine
 10
1124.447022
 20
1030.33947
 30
0.0
 11
1109.75087
 21
1030.33947
 31
0.0
  0
LINE
  5
2D7E
100
AcDbEntity
  8
0
100
AcDbLine
 10
1124.447022
 20
1012.33947
 30
0.0
 11
1109.75087
 21
1012.33947
 31
0.0
  0
LINE
  5
2D7F
100
AcDbEntity
  8
0
100
AcDbLine
 10
1124.447022
 20
994.33947
 30
0.0
 11
1109.75087
 21
994.33947
 31
0.0
  0
TEXT
  5
2D80
100
AcDbEntity
  8
0
100
AcDbText
 10
978.601187
 20
837.53776
 30
0.0
 40
30.0
  1
TLV  SS5N (PT･SW)
100
AcDbText
  0
LINE
  5
2D82
100
AcDbEntity
  8
0
100
AcDbLine
 10
438.867691
 20
634.644399
 30
0.0
 11
459.084048
 21
614.429057
 31
0.0
  0
ARC
  5
2D83
100
AcDbEntity
  8
0
100
AcDbCircle
 10
531.239475
 20
471.442801
 30
0.0
 40
96.914209
100
AcDbArc
 50
152.987372
 51
170.53127
  0
ARC
  5
2D84
100
AcDbEntity
  8
0
100
AcDbCircle
 10
531.239475
 20
471.677063
 30
0.0
 40
96.914209
100
AcDbArc
 50
189.46873
 51
207.012628
  0
LINE
  5
2D86
100
AcDbEntity
  8
0
100
AcDbLine
 10
438.867691
 20
237.056355
 30
0.0
 11
459.084048
 21
216.841013
 31
0.0
  0
CIRCLE
  5
2D87
100
AcDbEntity
  8
0
100
AcDbCircle
 10
248.5054
 20
284.682005
 30
0.0
 40
47.5
  0
ELLIPSE
  5
2D88
100
AcDbEntity
  8
0
100
AcDbEllipse
 10
248.5054
 20
227.021755
 30
0.0
 11
15.73525959711332
 21
0.0
 31
0.0
210
0.0
220
0.0
230
-1.0
 40
0.759965
 41
5.177560962943954
 42
10.53040230500506
  0
ARC
  5
2D89
100
AcDbEntity
  8
0
100
AcDbCircle
 10
248.5054
 20
265.694755
 30
0.0
 40
51.88725
100
AcDbArc
 50
156.155187
 51
23.844813
  0
TEXT
  5
2D8A
100
AcDbEntity
  8
0
100
AcDbText
 10
122.844935
 20
279.536684
 30
0.0
 40
25.0
  1
正面
100
AcDbText
  0
CIRCLE
  5
2D8B
100
AcDbEntity
  8
0
100
AcDbCircle
 10
223.756662
 20
259.933268
 30
0.0
 40
6.0
  0
CIRCLE
  5
2D8C
100
AcDbEntity
  8
0
100
AcDbCircle
 10
223.756662
 20
309.430743
 30
0.0
 40
6.0
  0
LINE
  5
2D8D
100
AcDbEntity
  8
0
100
AcDbLine
 10
322.688235
 20
296.821406
 30
0.0
 11
351.04836
 21
296.821406
 31
0.0
  0
LINE
  5
2D8E
100
AcDbEntity
  8
0
100
AcDbLine
 10
379.410173
 20
287.368031
 30
0.0
 11
332.14161
 21
287.368031
 31
0.0
  0
LINE
  5
2D8F
100
AcDbEntity
  8
0
100
AcDbLine
 10
332.14161
 20
287.368031
 30
0.0
 11
322.688235
 21
296.821406
 31
0.0
  0
CIRCLE
  5
2D90
100
AcDbEntity
  8
0
100
AcDbCircle
 10
273.254137
 20
259.933268
 30
0.0
 40
6.0
  0
CIRCLE
  5
2D91
100
AcDbEntity
  8
0
100
AcDbCircle
 10
273.254137
 20
309.430743
 30
0.0
 40
6.0
  0
LINE
  5
2D92
100
AcDbEntity
  8
0
100
AcDbLine
 10
369.750923
 20
296.821406
 30
0.0
 11
379.410173
 21
287.368031
 31
0.0
  0
LINE
  5
2D93
100
AcDbEntity
  8
0
100
AcDbLine
 10
435.645671
 20
303.619383
 30
0.0
 11
435.645671
 21
244.834725
 31
0.0
  0
LINE
  5
2D94
100
AcDbEntity
  8
0
100
AcDbLine
 10
434.677966
 20
299.619383
 30
0.0
 11
434.677966
 21
269.619383
 31
0.0
  0
LINE
  5
2D9B
100
AcDbEntity
  8
0
100
AcDbLine
 10
392.445671
 20
284.619383
 30
0.0
 11
392.445671
 21
332.119383
 31
0.0
  0
LINE
  5
2D9D
100
AcDbEntity
  8
0
100
AcDbLine
 10
392.445671
 20
237.119383
 30
0.0
 11
392.445671
 21
284.619383
 31
0.0
  0
POLYLINE
  5
2DAD
100
AcDbEntity
  8
0
100
AcDb2dPolyline
 66
     1
 10
0.0
 20
0.0
 30
0.0
  0
VERTEX
  5
386C
100
AcDbEntity
  8
0
100
AcDbVertex
100
AcDb2dVertex
 10
435.645671
 20
268.793225
 30
0.0
  0
VERTEX
  5
386D
100
AcDbEntity
  8
0
100
AcDbVertex
100
AcDb2dVertex
 10
434.677966
 20
269.619383
 30
0.0
  0
SEQEND
  5
386E
100
AcDbEntity
  8
0
  0
LINE
  5
2DB0
100
AcDbEntity
  8
0
100
AcDbLine
 10
355.776735
 20
292.094719
 30
0.0
 11
369.750923
 21
292.094719
 31
0.0
  0
LINE
  5
2DB1
100
AcDbEntity
  8
0
100
AcDbLine
 10
351.04836
 20
296.821406
 30
0.0
 11
355.776735
 21
292.094719
 31
0.0
  0
LINE
  5
2DB2
100
AcDbEntity
  8
0
100
AcDbLine
 10
369.750923
 20
292.094719
 30
0.0
 11
369.750923
 21
296.821406
 31
0.0
  0
POLYLINE
  5
2DB8
100
AcDbEntity
  8
0
100
AcDb2dPolyline
 66
     1
 10
0.0
 20
0.0
 30
0.0
  0
VERTEX
  5
386F
100
AcDbEntity
  8
0
100
AcDbVertex
100
AcDb2dVertex
 10
435.645671
 20
300.445541
 30
0.0
  0
VERTEX
  5
3870
100
AcDbEntity
  8
0
100
AcDbVertex
100
AcDb2dVertex
 10
434.677966
 20
299.619383
 30
0.0
  0
SEQEND
  5
3871
100
AcDbEntity
  8
0
  0
TEXT
  5
2DBE
100
AcDbEntity
  8
0
100
AcDbText
 10
122.844935
 20
458.337121
 30
0.0
 40
25.0
  1
平面
100
AcDbText
  0
LINE
  5
2DC1
100
AcDbEntity
  8
0
100
AcDbLine
 10
435.645671
 20
487.38609
 30
0.0
 11
435.645671
 21
455.733774
 31
0.0
  0
LINE
  5
2DC2
100
AcDbEntity
  8
0
100
AcDbLine
 10
434.677966
 20
486.559932
 30
0.0
 11
434.677966
 21
456.559932
 31
0.0
  0
LINE
  5
2DC6
100
AcDbEntity
  8
0
100
AcDbLine
 10
392.445671
 20
424.059932
 30
0.0
 11
392.445671
 21
471.559932
 31
0.0
  0
POLYLINE
  5
2DCA
100
AcDbEntity
  8
0
100
AcDb2dPolyline
 66
     1
 10
0.0
 20
0.0
 30
0.0
  0
VERTEX
  5
3872
100
AcDbEntity
  8
0
100
AcDbVertex
100
AcDb2dVertex
 10
435.645671
 20
455.733774
 30
0.0
  0
VERTEX
  5
3873
100
AcDbEntity
  8
0
100
AcDbVertex
100
AcDb2dVertex
 10
434.677966
 20
456.559932
 30
0.0
  0
SEQEND
  5
3874
100
AcDbEntity
  8
0
  0
LINE
  5
2DCB
100
AcDbEntity
  8
0
100
AcDbLine
 10
376.837135
 20
472.487281
 30
0.0
 11
329.568573
 21
472.487281
 31
0.0
  0
LINE
  5
2DCC
100
AcDbEntity
  8
0
100
AcDbLine
 10
348.475323
 20
481.940656
 30
0.0
 11
353.203698
 21
477.213968
 31
0.0
  0
LINE
  5
2DCD
100
AcDbEntity
  8
0
100
AcDbLine
 10
320.115198
 20
481.940656
 30
0.0
 11
348.475323
 21
481.940656
 31
0.0
  0
LINE
  5
2DCE
100
AcDbEntity
  8
0
100
AcDbLine
 10
329.568573
 20
472.487281
 30
0.0
 11
320.115198
 21
481.940656
 31
0.0
  0
LINE
  5
2DCF
100
AcDbEntity
  8
0
100
AcDbLine
 10
392.445671
 20
471.559932
 30
0.0
 11
392.445671
 21
519.059932
 31
0.0
  0
LINE
  5
2DD0
100
AcDbEntity
  8
0
100
AcDbLine
 10
353.203698
 20
477.213968
 30
0.0
 11
367.177885
 21
477.213968
 31
0.0
  0
LINE
  5
2DD1
100
AcDbEntity
  8
0
100
AcDbLine
 10
367.177885
 20
481.940656
 30
0.0
 11
376.837135
 21
472.487281
 31
0.0
  0
LINE
  5
2DD2
100
AcDbEntity
  8
0
100
AcDbLine
 10
367.177885
 20
477.213968
 30
0.0
 11
367.177885
 21
481.940656
 31
0.0
  0
POLYLINE
  5
2DDD
100
AcDbEntity
  8
0
100
AcDb2dPolyline
 66
     1
 10
0.0
 20
0.0
 30
0.0
  0
VERTEX
  5
3875
100
AcDbEntity
  8
0
100
AcDbVertex
100
AcDb2dVertex
 10
435.645671
 20
487.38609
 30
0.0
  0
VERTEX
  5
3876
100
AcDbEntity
  8
0
100
AcDbVertex
100
AcDb2dVertex
 10
434.677966
 20
486.559932
 30
0.0
  0
SEQEND
  5
3877
100
AcDbEntity
  8
0
  0
TEXT
  5
2DE0
100
AcDbEntity
  8
0
100
AcDbText
 10
122.844935
 20
666.875818
 30
0.0
 40
25.0
  1
背面
100
AcDbText
  0
LINE
  5
2DE6
100
AcDbEntity
  8
0
100
AcDbLine
 10
434.677966
 20
697.207427
 30
0.0
 11
434.677966
 21
667.207427
 31
0.0
  0
LINE
  5
2DE7
100
AcDbEntity
  8
0
100
AcDbLine
 10
392.445671
 20
682.207427
 30
0.0
 11
392.445671
 21
729.707427
 31
0.0
  0
LINE
  5
2DE9
100
AcDbEntity
  8
0
100
AcDbLine
 10
435.645671
 20
701.207427
 30
0.0
 11
435.645671
 21
642.422768
 31
0.0
  0
LINE
  5
2DEB
100
AcDbEntity
  8
0
100
AcDbLine
 10
392.445671
 20
634.707427
 30
0.0
 11
392.445671
 21
682.207427
 31
0.0
  0
POLYLINE
  5
2DFB
100
AcDbEntity
  8
0
100
AcDb2dPolyline
 66
     1
 10
0.0
 20
0.0
 30
0.0
  0
VERTEX
  5
3878
100
AcDbEntity
  8
0
100
AcDbVertex
100
AcDb2dVertex
 10
435.645671
 20
666.381268
 30
0.0
  0
VERTEX
  5
3879
100
AcDbEntity
  8
0
100
AcDbVertex
100
AcDb2dVertex
 10
434.677966
 20
667.207427
 30
0.0
  0
SEQEND
  5
387A
100
AcDbEntity
  8
0
  0
POLYLINE
  5
2E07
100
AcDbEntity
  8
0
100
AcDb2dPolyline
 66
     1
 10
0.0
 20
0.0
 30
0.0
  0
VERTEX
  5
387B
100
AcDbEntity
  8
0
100
AcDbVertex
100
AcDb2dVertex
 10
435.645671
 20
698.033585
 30
0.0
  0
VERTEX
  5
387C
100
AcDbEntity
  8
0
100
AcDbVertex
100
AcDb2dVertex
 10
434.677966
 20
697.207427
 30
0.0
  0
SEQEND
  5
387D
100
AcDbEntity
  8
0
  0
LINE
  5
2E09
100
AcDbEntity
  8
0
100
AcDbLine
 10
527.807294
 20
216.841013
 30
0.0
 11
548.02365
 21
237.056355
 31
0.0
  0
LINE
  5
2E0B
100
AcDbEntity
  8
0
100
AcDbLine
 10
466.862027
 20
213.619383
 30
0.0
 11
520.029314
 21
213.619383
 31
0.0
  0
TEXT
  5
2E0C
100
AcDbEntity
  8
0
100
AcDbText
 10
479.015828
 20
185.662566
 30
0.0
 40
20.0
  1
15A
 41
0.8
 11
479.015828
 21
185.662566
 31
0.0
100
AcDbText
 73
     1
  0
LINE
  5
2E21
100
AcDbEntity
  8
0
100
AcDbLine
 10
537.245671
 20
317.619383
 30
0.0
 11
449.645671
 21
317.619383
 31
0.0
  0
LINE
  5
2E28
100
AcDbEntity
  8
0
100
AcDbLine
 10
551.245671
 20
244.834725
 30
0.0
 11
551.245671
 21
303.619383
 31
0.0
  0
LINE
  5
2E29
100
AcDbEntity
  8
0
100
AcDbLine
 10
552.213375
 20
299.619383
 30
0.0
 11
552.213375
 21
269.619383
 31
0.0
  0
LINE
  5
2E30
100
AcDbEntity
  8
0
100
AcDbLine
 10
594.445671
 20
284.619383
 30
0.0
 11
594.445671
 21
332.119383
 31
0.0
  0
POLYLINE
  5
2E3C
100
AcDbEntity
  8
0
100
AcDb2dPolyline
 66
     1
 10
0.0
 20
0.0
 30
0.0
  0
VERTEX
  5
387E
100
AcDbEntity
  8
0
100
AcDbVertex
100
AcDb2dVertex
 10
551.245671
 20
268.793225
 30
0.0
  0
VERTEX
  5
387F
100
AcDbEntity
  8
0
100
AcDbVertex
100
AcDb2dVertex
 10
552.213375
 20
269.619383
 30
0.0
  0
SEQEND
  5
3880
100
AcDbEntity
  8
0
  0
LINE
  5
2E3E
100
AcDbEntity
  8
0
100
AcDbLine
 10
594.445671
 20
237.119383
 30
0.0
 11
594.445671
 21
284.619383
 31
0.0
  0
POLYLINE
  5
2E46
100
AcDbEntity
  8
0
100
AcDb2dPolyline
 66
     1
 10
0.0
 20
0.0
 30
0.0
  0
VERTEX
  5
3881
100
AcDbEntity
  8
0
100
AcDbVertex
100
AcDb2dVertex
 10
551.245671
 20
300.445541
 30
0.0
  0
VERTEX
  5
3882
100
AcDbEntity
  8
0
100
AcDbVertex
100
AcDb2dVertex
 10
552.213375
 20
299.619383
 30
0.0
  0
SEQEND
  5
3883
100
AcDbEntity
  8
0
  0
ELLIPSE
  5
2E56
100
AcDbEntity
  8
0
100
AcDbEllipse
 10
672.674644
 20
227.021755
 30
0.0
 11
-15.73525959711332
 21
0.0
 31
0.0
210
0.0
220
0.0
230
1.0
 40
0.759965
 41
5.177560962943954
 42
10.53040230500506
  0
ARC
  5
2E57
100
AcDbEntity
  8
0
100
AcDbCircle
 10
672.674644
 20
265.694755
 30
0.0
 40
51.88725
100
AcDbArc
 50
156.155187
 51
23.844813
  0
CIRCLE
  5
2E58
100
AcDbEntity
  8
0
100
AcDbCircle
 10
672.674644
 20
284.682005
 30
0.0
 40
47.5
  0
CIRCLE
  5
2E59
100
AcDbEntity
  8
0
100
AcDbCircle
 10
647.925907
 20
259.933268
 30
0.0
 40
6.0
  0
CIRCLE
  5
2E5A
100
AcDbEntity
  8
0
100
AcDbCircle
 10
647.925907
 20
309.430743
 30
0.0
 40
6.0
  0
CIRCLE
  5
2E5B
100
AcDbEntity
  8
0
100
AcDbCircle
 10
697.423381
 20
259.933268
 30
0.0
 40
6.0
  0
CIRCLE
  5
2E5C
100
AcDbEntity
  8
0
100
AcDbCircle
 10
697.423381
 20
309.430743
 30
0.0
 40
6.0
  0
ARC
  5
2E5D
100
AcDbEntity
  8
0
100
AcDbCircle
 10
939.759687
 20
265.694755
 30
0.0
 40
51.88725
100
AcDbArc
 50
163.7067
 51
16.2933
  0
ELLIPSE
  5
2E5E
100
AcDbEntity
  8
0
100
AcDbEllipse
 10
939.759687
 20
227.021755
 30
0.0
 11
15.73525959711332
 21
0.0
 31
0.0
210
0.0
220
0.0
230
-1.0
 40
0.759965
 41
5.455391984461667
 42
10.25257128348729
  0
CIRCLE
  5
2E5F
100
AcDbEntity
  8
0
100
AcDbCircle
 10
939.759687
 20
284.682005
 30
0.0
 40
50.0
  0
CIRCLE
  5
2E60
100
AcDbEntity
  8
0
100
AcDbCircle
 10
913.243183
 20
258.165501
 30
0.0
 40
6.0
  0
CIRCLE
  5
2E61
100
AcDbEntity
  8
0
100
AcDbCircle
 10
913.243183
 20
311.198509
 30
0.0
 40
6.0
  0
CIRCLE
  5
2E62
100
AcDbEntity
  8
0
100
AcDbCircle
 10
966.276191
 20
258.165501
 30
0.0
 40
6.0
  0
CIRCLE
  5
2E63
100
AcDbEntity
  8
0
100
AcDbCircle
 10
966.276191
 20
311.198509
 30
0.0
 40
6.0
  0
LINE
  5
2E64
100
AcDbEntity
  8
0
100
AcDbLine
 10
1135.641459
 20
237.118977
 30
0.0
 11
1155.857816
 21
216.903635
 31
0.0
  0
LINE
  5
2E72
100
AcDbEntity
  8
0
100
AcDbLine
 10
1018.83489
 20
284.796921
 30
0.0
 11
1009.381515
 21
294.250296
 31
0.0
  0
LINE
  5
2E73
100
AcDbEntity
  8
0
100
AcDbLine
 10
1056.444202
 20
294.250296
 30
0.0
 11
1066.103452
 21
284.796921
 31
0.0
  0
LINE
  5
2E77
100
AcDbEntity
  8
0
100
AcDbLine
 10
1079.219439
 20
284.682005
 30
0.0
 11
1079.219439
 21
334.682005
 31
0.0
  0
LINE
  5
2E78
100
AcDbEntity
  8
0
100
AcDbLine
 10
1066.103452
 20
284.796921
 30
0.0
 11
1018.83489
 21
284.796921
 31
0.0
  0
LINE
  5
2E79
100
AcDbEntity
  8
0
100
AcDbLine
 10
1079.219439
 20
234.682005
 30
0.0
 11
1079.219439
 21
284.682005
 31
0.0
  0
LINE
  5
2E7D
100
AcDbEntity
  8
0
100
AcDbLine
 10
1009.381515
 20
294.250296
 30
0.0
 11
1037.74164
 21
294.250296
 31
0.0
  0
LINE
  5
2E7E
100
AcDbEntity
  8
0
100
AcDbLine
 10
1042.470015
 20
289.523608
 30
0.0
 11
1056.444202
 21
289.523608
 31
0.0
  0
LINE
  5
2E7F
100
AcDbEntity
  8
0
100
AcDbLine
 10
1037.74164
 20
294.250296
 30
0.0
 11
1042.470015
 21
289.523608
 31
0.0
  0
LINE
  5
2E80
100
AcDbEntity
  8
0
100
AcDbLine
 10
1056.444202
 20
289.523608
 30
0.0
 11
1056.444202
 21
294.250296
 31
0.0
  0
LINE
  5
2E84
100
AcDbEntity
  8
0
100
AcDbLine
 10
1130.978353
 20
299.682005
 30
0.0
 11
1130.978353
 21
269.682005
 31
0.0
  0
LINE
  5
2E87
100
AcDbEntity
  8
0
100
AcDbLine
 10
1132.419439
 20
303.682005
 30
0.0
 11
1132.419439
 21
244.897347
 31
0.0
  0
LINE
  5
2E94
100
AcDbEntity
  8
0
100
AcDbLine
 10
1130.978353
 20
269.682005
 30
0.0
 11
1132.419439
 21
268.344441
 31
0.0
  0
LINE
  5
2E99
100
AcDbEntity
  8
0
100
AcDbLine
 10
1130.978353
 20
299.682005
 30
0.0
 11
1132.419439
 21
301.019569
 31
0.0
  0
LINE
  5
2EA5
100
AcDbEntity
  8
0
100
AcDbLine
 10
551.245671
 20
455.733774
 30
0.0
 11
551.245671
 21
487.38609
 31
0.0
  0
LINE
  5
2EA6
100
AcDbEntity
  8
0
100
AcDbLine
 10
552.213375
 20
486.559932
 30
0.0
 11
552.213375
 21
456.559932
 31
0.0
  0
LINE
  5
2EAA
100
AcDbEntity
  8
0
100
AcDbLine
 10
594.445671
 20
424.059932
 30
0.0
 11
594.445671
 21
471.559932
 31
0.0
  0
LINE
  5
2EAB
100
AcDbEntity
  8
0
100
AcDbLine
 10
528.674791
 20
419.559932
 30
0.0
 11
458.21675
 21
419.559932
 31
0.0
  0
ARC
  5
2EAC
100
AcDbEntity
  8
0
100
AcDbCircle
 10
458.21675
 20
434.559932
 30
0.0
 40
15.0
100
AcDbArc
 50
207.387235
 51
270.0
  0
ARC
  5
2EAD
100
AcDbEntity
  8
0
100
AcDbCircle
 10
455.17656
 20
471.833091
 30
0.0
 40
97.408737
100
AcDbArc
 50
333.032641
 51
350.486737
  0
ARC
  5
2EAE
100
AcDbEntity
  8
0
100
AcDbCircle
 10
528.674791
 20
434.559932
 30
0.0
 40
15.0
100
AcDbArc
 50
270.0
 51
332.612765
  0
POLYLINE
  5
2EAF
100
AcDbEntity
  8
0
100
AcDb2dPolyline
 66
     1
 10
0.0
 20
0.0
 30
0.0
  0
VERTEX
  5
3884
100
AcDbEntity
  8
0
100
AcDbVertex
100
AcDb2dVertex
 10
551.245671
 20
455.733774
 30
0.0
  0
VERTEX
  5
3885
100
AcDbEntity
  8
0
100
AcDbVertex
100
AcDb2dVertex
 10
552.213375
 20
456.559932
 30
0.0
  0
SEQEND
  5
3886
100
AcDbEntity
  8
0
  0
LINE
  5
2EB3
100
AcDbEntity
  8
0
100
AcDbLine
 10
528.674791
 20
523.559932
 30
0.0
 11
458.21675
 21
523.559932
 31
0.0
  0
ARC
  5
2EB4
100
AcDbEntity
  8
0
100
AcDbCircle
 10
458.21675
 20
508.559932
 30
0.0
 40
15.0
100
AcDbArc
 50
90.0
 51
152.612765
  0
LINE
  5
2EB5
100
AcDbEntity
  8
0
100
AcDbLine
 10
594.445671
 20
471.559932
 30
0.0
 11
594.445671
 21
519.059932
 31
0.0
  0
ARC
  5
2EB6
100
AcDbEntity
  8
0
100
AcDbCircle
 10
528.674791
 20
508.559932
 30
0.0
 40
15.0
100
AcDbArc
 50
27.387235
 51
90.0
  0
ARC
  5
2EB8
100
AcDbEntity
  8
0
100
AcDbCircle
 10
455.660058
 20
471.446116
 30
0.0
 40
96.905583
100
AcDbArc
 50
9.467594
 51
27.013028
  0
POLYLINE
  5
2EB9
100
AcDbEntity
  8
0
100
AcDb2dPolyline
 66
     1
 10
0.0
 20
0.0
 30
0.0
  0
VERTEX
  5
3887
100
AcDbEntity
  8
0
100
AcDbVertex
100
AcDb2dVertex
 10
551.245671
 20
487.38609
 30
0.0
  0
VERTEX
  5
3888
100
AcDbEntity
  8
0
100
AcDbVertex
100
AcDb2dVertex
 10
552.213375
 20
486.559932
 30
0.0
  0
SEQEND
  5
3889
100
AcDbEntity
  8
0
  0
LINE
  5
2ECA
100
AcDbEntity
  8
0
100
AcDbLine
 10
552.213375
 20
697.207427
 30
0.0
 11
552.213375
 21
667.207427
 31
0.0
  0
LINE
  5
2ECB
100
AcDbEntity
  8
0
100
AcDbLine
 10
594.445671
 20
682.207427
 30
0.0
 11
594.445671
 21
729.707427
 31
0.0
  0
LINE
  5
2ECD
100
AcDbEntity
  8
0
100
AcDbLine
 10
551.245671
 20
642.422768
 30
0.0
 11
551.245671
 21
701.207427
 31
0.0
  0
LINE
  5
2ECF
100
AcDbEntity
  8
0
100
AcDbLine
 10
466.862027
 20
611.207427
 30
0.0
 11
520.029314
 21
611.207427
 31
0.0
  0
LINE
  5
2EDD
100
AcDbEntity
  8
0
100
AcDbLine
 10
527.807294
 20
614.429057
 30
0.0
 11
548.02365
 21
634.644399
 31
0.0
  0
POLYLINE
  5
2EF1
100
AcDbEntity
  8
0
100
AcDb2dPolyline
 66
     1
 10
0.0
 20
0.0
 30
0.0
  0
VERTEX
  5
388A
100
AcDbEntity
  8
0
100
AcDbVertex
100
AcDb2dVertex
 10
551.245671
 20
666.381268
 30
0.0
  0
VERTEX
  5
388B
100
AcDbEntity
  8
0
100
AcDbVertex
100
AcDb2dVertex
 10
552.213375
 20
667.207427
 30
0.0
  0
SEQEND
  5
388C
100
AcDbEntity
  8
0
  0
LINE
  5
2EF2
100
AcDbEntity
  8
0
100
AcDbLine
 10
594.445671
 20
634.707427
 30
0.0
 11
594.445671
 21
682.207427
 31
0.0
  0
LINE
  5
2EF8
100
AcDbEntity
  8
0
100
AcDbLine
 10
537.245671
 20
715.207427
 30
0.0
 11
449.645671
 21
715.207427
 31
0.0
  0
POLYLINE
  5
2F0B
100
AcDbEntity
  8
0
100
AcDb2dPolyline
 66
     1
 10
0.0
 20
0.0
 30
0.0
  0
VERTEX
  5
388D
100
AcDbEntity
  8
0
100
AcDbVertex
100
AcDb2dVertex
 10
551.245671
 20
698.033585
 30
0.0
  0
VERTEX
  5
388E
100
AcDbEntity
  8
0
100
AcDbVertex
100
AcDb2dVertex
 10
552.213375
 20
697.207427
 30
0.0
  0
SEQEND
  5
388F
100
AcDbEntity
  8
0
  0
LINE
  5
2F11
100
AcDbEntity
  8
0
100
AcDbLine
 10
669.63662
 20
690.199799
 30
0.0
 11
641.276495
 21
690.199799
 31
0.0
  0
LINE
  5
2F12
100
AcDbEntity
  8
0
100
AcDbLine
 10
612.914683
 20
680.746424
 30
0.0
 11
660.183245
 21
680.746424
 31
0.0
  0
LINE
  5
2F13
100
AcDbEntity
  8
0
100
AcDbLine
 10
636.54812
 20
685.473112
 30
0.0
 11
622.573933
 21
685.473112
 31
0.0
  0
LINE
  5
2F14
100
AcDbEntity
  8
0
100
AcDbLine
 10
622.573933
 20
690.199799
 30
0.0
 11
612.914683
 21
680.746424
 31
0.0
  0
LINE
  5
2F15
100
AcDbEntity
  8
0
100
AcDbLine
 10
622.573933
 20
685.473112
 30
0.0
 11
622.573933
 21
690.199799
 31
0.0
  0
LINE
  5
2F16
100
AcDbEntity
  8
0
100
AcDbLine
 10
641.276495
 20
690.199799
 30
0.0
 11
636.54812
 21
685.473112
 31
0.0
  0
LINE
  5
2F17
100
AcDbEntity
  8
0
100
AcDbLine
 10
660.183245
 20
680.746424
 30
0.0
 11
669.63662
 21
690.199799
 31
0.0
  0
LINE
  5
2F19
100
AcDbEntity
  8
0
100
AcDbLine
 10
1079.219439
 20
421.559932
 30
0.0
 11
1079.219439
 21
471.559932
 31
0.0
  0
LINE
  5
2F1A
100
AcDbEntity
  8
0
100
AcDbLine
 10
1132.419439
 20
487.897496
 30
0.0
 11
1132.419439
 21
455.222368
 31
0.0
  0
LINE
  5
2F1E
100
AcDbEntity
  8
0
100
AcDbLine
 10
1130.978353
 20
486.559932
 30
0.0
 11
1130.978353
 21
456.559932
 31
0.0
  0
ARC
  5
2F24
100
AcDbEntity
  8
0
100
AcDbCircle
 10
1154.990518
 20
434.559932
 30
0.0
 40
15.0
100
AcDbArc
 50
207.387235
 51
270.0
  0
ARC
  5
2F25
100
AcDbEntity
  8
0
100
AcDbCircle
 10
1231.718383
 20
473.221386
 30
0.0
 40
100.91702
100
AcDbArc
 50
190.273937
 51
206.83834
  0
LINE
  5
2F28
100
AcDbEntity
  8
0
100
AcDbLine
 10
1130.978353
 20
456.559932
 30
0.0
 11
1132.419439
 21
455.222368
 31
0.0
  0
LINE
  5
2F2A
100
AcDbEntity
  8
0
100
AcDbLine
 10
1079.219439
 20
471.559932
 30
0.0
 11
1079.219439
 21
521.559932
 31
0.0
  0
LINE
  5
2F2B
100
AcDbEntity
  8
0
100
AcDbLine
 10
1063.530415
 20
475.058392
 30
0.0
 11
1016.261852
 21
475.058392
 31
0.0
  0
LINE
  5
2F2C
100
AcDbEntity
  8
0
100
AcDbLine
 10
1053.871165
 20
484.511767
 30
0.0
 11
1063.530415
 21
475.058392
 31
0.0
  0
LINE
  5
2F2D
100
AcDbEntity
  8
0
100
AcDbLine
 10
1006.808477
 20
484.511767
 30
0.0
 11
1035.168602
 21
484.511767
 31
0.0
  0
LINE
  5
2F2E
100
AcDbEntity
  8
0
100
AcDbLine
 10
1016.261852
 20
475.058392
 30
0.0
 11
1006.808477
 21
484.511767
 31
0.0
  0
LINE
  5
2F2F
100
AcDbEntity
  8
0
100
AcDbLine
 10
1039.896977
 20
479.785079
 30
0.0
 11
1053.871165
 21
479.785079
 31
0.0
  0
LINE
  5
2F30
100
AcDbEntity
  8
0
100
AcDbLine
 10
1035.168602
 20
484.511767
 30
0.0
 11
1039.896977
 21
479.785079
 31
0.0
  0
LINE
  5
2F31
100
AcDbEntity
  8
0
100
AcDbLine
 10
1053.871165
 20
479.785079
 30
0.0
 11
1053.871165
 21
484.511767
 31
0.0
  0
ARC
  5
2F35
100
AcDbEntity
  8
0
100
AcDbCircle
 10
1154.990518
 20
508.559932
 30
0.0
 40
15.0
100
AcDbArc
 50
90.0
 51
152.612765
  0
ARC
  5
2F36
100
AcDbEntity
  8
0
100
AcDbCircle
 10
1231.718383
 20
469.898477
 30
0.0
 40
100.91702
100
AcDbArc
 50
153.16166
 51
169.726063
  0
LINE
  5
2F39
100
AcDbEntity
  8
0
100
AcDbLine
 10
1130.978353
 20
486.559932
 30
0.0
 11
1132.419439
 21
487.897496
 31
0.0
  0
LINE
  5
2F3A
100
AcDbEntity
  8
0
100
AcDbLine
 10
1130.978353
 20
697.207427
 30
0.0
 11
1130.978353
 21
667.207427
 31
0.0
  0
LINE
  5
2F40
100
AcDbEntity
  8
0
100
AcDbLine
 10
1132.419439
 20
701.207427
 30
0.0
 11
1132.419439
 21
642.422768
 31
0.0
  0
LINE
  5
2F41
100
AcDbEntity
  8
0
100
AcDbLine
 10
1079.219439
 20
682.207427
 30
0.0
 11
1079.219439
 21
732.207427
 31
0.0
  0
LINE
  5
2F44
100
AcDbEntity
  8
0
100
AcDbLine
 10
1079.219439
 20
632.207427
 30
0.0
 11
1079.219439
 21
682.207427
 31
0.0
  0
LINE
  5
2F47
100
AcDbEntity
  8
0
100
AcDbLine
 10
1135.641459
 20
634.644399
 30
0.0
 11
1155.857816
 21
614.429057
 31
0.0
  0
LINE
  5
2F5F
100
AcDbEntity
  8
0
100
AcDbLine
 10
1130.978353
 20
667.207427
 30
0.0
 11
1132.419439
 21
665.869863
 31
0.0
  0
LINE
  5
2F6E
100
AcDbEntity
  8
0
100
AcDbLine
 10
1130.978353
 20
697.207427
 30
0.0
 11
1132.419439
 21
698.544991
 31
0.0
  0
TEXT
  5
2F72
100
AcDbEntity
  8
0
100
AcDbText
 10
129.281347
 20
1001.585367
 30
0.0
 40
25.0
  1
正面
100
AcDbText
  0
CIRCLE
  5
2F73
100
AcDbEntity
  8
0
100
AcDbCircle
 10
269.058188
 20
993.35222
 30
0.0
 40
51.88725
  0
POLYLINE
  5
2F74
100
AcDbEntity
  8
0
100
AcDb2dPolyline
 66
     1
 10
0.0
 20
0.0
 30
0.0
 70
     1
  0
VERTEX
  5
3890
100
AcDbEntity
  8
0
100
AcDbVertex
100
AcDb2dVertex
 10
259.820583
 20
996.33947
 30
0.0
  0
VERTEX
  5
3891
100
AcDbEntity
  8
0
100
AcDbVertex
100
AcDb2dVertex
 10
250.582979
 20
1012.33947
 30
0.0
  0
VERTEX
  5
3892
100
AcDbEntity
  8
0
100
AcDbVertex
100
AcDb2dVertex
 10
259.820583
 20
1028.33947
 30
0.0
  0
VERTEX
  5
3893
100
AcDbEntity
  8
0
100
AcDbVertex
100
AcDb2dVertex
 10
278.295792
 20
1028.33947
 30
0.0
  0
VERTEX
  5
3894
100
AcDbEntity
  8
0
100
AcDbVertex
100
AcDb2dVertex
 10
287.533396
 20
1012.33947
 30
0.0
  0
VERTEX
  5
3895
100
AcDbEntity
  8
0
100
AcDbVertex
100
AcDb2dVertex
 10
278.295792
 20
996.33947
 30
0.0
  0
SEQEND
  5
3896
100
AcDbEntity
  8
0
  0
CIRCLE
  5
2F75
100
AcDbEntity
  8
0
100
AcDbCircle
 10
269.058188
 20
1012.33947
 30
0.0
 40
15.5
  0
ELLIPSE
  5
2F76
100
AcDbEntity
  8
0
100
AcDbEllipse
 10
269.058188
 20
954.67922
 30
0.0
 11
15.73525959711332
 21
0.0
 31
0.0
210
0.0
220
0.0
230
-1.0
 40
0.759965
 41
0.0
 42
6.283185307179586
  0
TEXT
  5
2F77
100
AcDbEntity
  8
0
100
AcDbText
 10
129.281347
 20
1180.385803
 30
0.0
 40
25.0
  1
平面
100
AcDbText
  0
TEXT
  5
2F78
100
AcDbEntity
  8
0
100
AcDbText
 10
129.281347
 20
1388.924501
 30
0.0
 40
25.0
  1
背面
100
AcDbText
  0
LINE
  5
2F79
100
AcDbEntity
  8
0
100
AcDbLine
 10
547.05346
 20
1362.201863
 30
0.0
 11
526.837104
 21
1341.986522
 31
0.0
  0
LINE
  5
2F7A
100
AcDbEntity
  8
0
100
AcDbLine
 10
437.897501
 20
1362.201863
 30
0.0
 11
458.113858
 21
1341.986522
 31
0.0
  0
CIRCLE
  5
2F7B
100
AcDbEntity
  8
0
100
AcDbCircle
 10
653.353094
 20
1012.33947
 30
0.0
 40
15.5
  0
POLYLINE
  5
2F7C
100
AcDbEntity
  8
0
100
AcDb2dPolyline
 66
     1
 10
0.0
 20
0.0
 30
0.0
 70
     1
  0
VERTEX
  5
3897
100
AcDbEntity
  8
0
100
AcDbVertex
100
AcDb2dVertex
 10
662.590699
 20
996.33947
 30
0.0
  0
VERTEX
  5
3898
100
AcDbEntity
  8
0
100
AcDbVertex
100
AcDb2dVertex
 10
671.828303
 20
1012.33947
 30
0.0
  0
VERTEX
  5
3899
100
AcDbEntity
  8
0
100
AcDbVertex
100
AcDb2dVertex
 10
662.590699
 20
1028.33947
 30
0.0
  0
VERTEX
  5
389A
100
AcDbEntity
  8
0
100
AcDbVertex
100
AcDb2dVertex
 10
644.11549
 20
1028.33947
 30
0.0
  0
VERTEX
  5
389B
100
AcDbEntity
  8
0
100
AcDbVertex
100
AcDb2dVertex
 10
634.877886
 20
1012.33947
 30
0.0
  0
VERTEX
  5
389C
100
AcDbEntity
  8
0
100
AcDbVertex
100
AcDb2dVertex
 10
644.11549
 20
996.33947
 30
0.0
  0
SEQEND
  5
389D
100
AcDbEntity
  8
0
  0
CIRCLE
  5
2F7D
100
AcDbEntity
  8
0
100
AcDbCircle
 10
653.353094
 20
993.35222
 30
0.0
 40
51.88725
  0
ELLIPSE
  5
2F7E
100
AcDbEntity
  8
0
100
AcDbEllipse
 10
653.353094
 20
954.67922
 30
0.0
 11
-15.73525959711332
 21
0.0
 31
0.0
210
0.0
220
0.0
230
1.0
 40
0.759965
 41
0.0
 42
6.283185307179586
  0
LINE
  5
2F7F
100
AcDbEntity
  8
0
100
AcDbLine
 10
536.275481
 20
1045.23947
 30
0.0
 11
448.675481
 21
1045.23947
 31
0.0
  0
LINE
  5
2F80
100
AcDbEntity
  8
0
100
AcDbLine
 10
519.059124
 20
941.23947
 30
0.0
 11
465.891837
 21
941.23947
 31
0.0
  0
TEXT
  5
2F81
100
AcDbEntity
  8
0
100
AcDbText
 10
479.45399
 20
905.19526
 30
0.0
 40
20.0
  1
15A
 41
0.8
 11
479.45399
 21
905.19526
 31
0.0
100
AcDbText
 73
     1
  0
ARC
  5
2F82
100
AcDbEntity
  8
0
100
AcDbCircle
 10
415.376221
 20
1004.33947
 30
0.0
 40
13.299346
100
AcDbArc
 50
323.020205
 51
36.979795
  0
ARC
  5
2F83
100
AcDbEntity
  8
0
100
AcDbCircle
 10
429.074941
 20
1004.33947
 30
0.0
 40
13.299346
100
AcDbArc
 50
143.020205
 51
216.979795
  0
LINE
  5
2F84
100
AcDbEntity
  8
0
100
AcDbLine
 10
414.975581
 20
997.33947
 30
0.0
 11
414.975581
 21
1012.33947
 31
0.0
  0
LINE
  5
2F85
100
AcDbEntity
  8
0
100
AcDbLine
 10
434.675481
 20
998.33947
 30
0.0
 11
434.675481
 21
997.33947
 31
0.0
  0
LINE
  5
2F86
100
AcDbEntity
  8
0
100
AcDbLine
 10
429.475581
 20
997.33947
 30
0.0
 11
429.475581
 21
1027.33947
 31
0.0
  0
LINE
  5
2F87
100
AcDbEntity
  8
0
100
AcDbLine
 10
434.089084
 20
997.33947
 30
0.0
 11
434.089084
 21
1027.33947
 31
0.0
  0
LINE
  5
2F88
100
AcDbEntity
  8
0
100
AcDbLine
 10
434.675481
 20
1031.23947
 30
0.0
 11
434.675481
 21
972.454812
 31
0.0
  0
LINE
  5
2F89
100
AcDbEntity
  8
0
100
AcDbLine
 10
426.000372
 20
996.33947
 30
0.0
 11
418.450789
 21
996.33947
 31
0.0
  0
LINE
  5
2F8A
100
AcDbEntity
  8
0
100
AcDbLine
 10
414.975581
 20
997.33947
 30
0.0
 11
418.450789
 21
996.33947
 31
0.0
  0
LINE
  5
2F8D
100
AcDbEntity
  8
0
100
AcDbLine
 10
437.897501
 20
964.676442
 30
0.0
 11
458.113858
 21
944.4611
 31
0.0
  0
LINE
  5
2F97
100
AcDbEntity
  8
0
100
AcDbLine
 10
429.475581
 20
997.33947
 30
0.0
 11
426.000372
 21
996.33947
 31
0.0
  0
LINE
  5
2F98
100
AcDbEntity
  8
0
100
AcDbLine
 10
429.475581
 20
997.33947
 30
0.0
 11
434.089084
 21
997.33947
 31
0.0
  0
POLYLINE
  5
2F99
100
AcDbEntity
  8
0
100
AcDb2dPolyline
 66
     1
 10
0.0
 20
0.0
 30
0.0
  0
VERTEX
  5
389E
100
AcDbEntity
  8
0
100
AcDbVertex
100
AcDb2dVertex
 10
434.675481
 20
996.878966
 30
0.0
  0
VERTEX
  5
389F
100
AcDbEntity
  8
0
100
AcDbVertex
100
AcDb2dVertex
 10
434.089084
 20
997.33947
 30
0.0
  0
SEQEND
  5
38A0
100
AcDbEntity
  8
0
  0
LINE
  5
2FA3
100
AcDbEntity
  8
0
100
AcDbLine
 10
426.000372
 20
1028.33947
 30
0.0
 11
418.450789
 21
1028.33947
 31
0.0
  0
LINE
  5
2FA4
100
AcDbEntity
  8
0
100
AcDbLine
 10
426.000372
 20
1012.33947
 30
0.0
 11
418.450789
 21
1012.33947
 31
0.0
  0
LINE
  5
2FA5
100
AcDbEntity
  8
0
100
AcDbLine
 10
345.982401
 20
1020.748263
 30
0.0
 11
374.342526
 21
1020.748263
 31
0.0
  0
LINE
  5
2FA6
100
AcDbEntity
  8
0
100
AcDbLine
 10
402.704338
 20
1011.294888
 30
0.0
 11
355.435776
 21
1011.294888
 31
0.0
  0
LINE
  5
2FA7
100
AcDbEntity
  8
0
100
AcDbLine
 10
355.435776
 20
1011.294888
 30
0.0
 11
345.982401
 21
1020.748263
 31
0.0
  0
ARC
  5
2FA8
100
AcDbEntity
  8
0
100
AcDbCircle
 10
429.074941
 20
1020.33947
 30
0.0
 40
13.299346
100
AcDbArc
 50
143.020205
 51
216.979795
  0
LINE
  5
2FA9
100
AcDbEntity
  8
0
100
AcDbLine
 10
414.975581
 20
1012.33947
 30
0.0
 11
414.975581
 21
1027.33947
 31
0.0
  0
LINE
  5
2FAA
100
AcDbEntity
  8
0
100
AcDbLine
 10
393.045088
 20
1020.748263
 30
0.0
 11
402.704338
 21
1011.294888
 31
0.0
  0
LINE
  5
2FAB
100
AcDbEntity
  8
0
100
AcDbLine
 10
379.070901
 20
1016.021575
 30
0.0
 11
393.045088
 21
1016.021575
 31
0.0
  0
LINE
  5
2FAC
100
AcDbEntity
  8
0
100
AcDbLine
 10
374.342526
 20
1020.748263
 30
0.0
 11
379.070901
 21
1016.021575
 31
0.0
  0
LINE
  5
2FAD
100
AcDbEntity
  8
0
100
AcDbLine
 10
393.045088
 20
1016.021575
 30
0.0
 11
393.045088
 21
1020.748263
 31
0.0
  0
LINE
  5
2FAE
100
AcDbEntity
  8
0
100
AcDbLine
 10
414.975581
 20
1027.33947
 30
0.0
 11
418.450789
 21
1028.33947
 31
0.0
  0
ARC
  5
2FAF
100
AcDbEntity
  8
0
100
AcDbCircle
 10
415.376221
 20
1020.33947
 30
0.0
 40
13.299346
100
AcDbArc
 50
323.020205
 51
36.979795
  0
LINE
  5
2FB1
100
AcDbEntity
  8
0
100
AcDbLine
 10
429.475581
 20
1027.33947
 30
0.0
 11
426.000372
 21
1028.33947
 31
0.0
  0
POLYLINE
  5
2FB2
100
AcDbEntity
  8
0
100
AcDb2dPolyline
 66
     1
 10
0.0
 20
0.0
 30
0.0
  0
VERTEX
  5
38A1
100
AcDbEntity
  8
0
100
AcDbVertex
100
AcDb2dVertex
 10
434.675481
 20
1027.799974
 30
0.0
  0
VERTEX
  5
38A2
100
AcDbEntity
  8
0
100
AcDbVertex
100
AcDb2dVertex
 10
434.089084
 20
1027.33947
 30
0.0
  0
SEQEND
  5
38A3
100
AcDbEntity
  8
0
  0
LINE
  5
2FB3
100
AcDbEntity
  8
0
100
AcDbLine
 10
429.475581
 20
1027.33947
 30
0.0
 11
434.089084
 21
1027.33947
 31
0.0
  0
ARC
  5
2FBD
100
AcDbEntity
  8
0
100
AcDbCircle
 10
569.574941
 20
1004.33947
 30
0.0
 40
13.299346
100
AcDbArc
 50
143.020205
 51
216.979795
  0
LINE
  5
2FBE
100
AcDbEntity
  8
0
100
AcDbLine
 10
569.975581
 20
997.33947
 30
0.0
 11
569.975581
 21
1012.33947
 31
0.0
  0
ARC
  5
2FBF
100
AcDbEntity
  8
0
100
AcDbCircle
 10
555.876221
 20
1004.33947
 30
0.0
 40
13.299346
100
AcDbArc
 50
323.020205
 51
36.979795
  0
LINE
  5
2FC0
100
AcDbEntity
  8
0
100
AcDbLine
 10
550.275681
 20
998.33947
 30
0.0
 11
550.275681
 21
997.33947
 31
0.0
  0
LINE
  5
2FC1
100
AcDbEntity
  8
0
100
AcDbLine
 10
550.862077
 20
997.33947
 30
0.0
 11
550.862077
 21
1027.33947
 31
0.0
  0
LINE
  5
2FC2
100
AcDbEntity
  8
0
100
AcDbLine
 10
555.475581
 20
997.33947
 30
0.0
 11
555.475581
 21
1027.33947
 31
0.0
  0
LINE
  5
2FC3
100
AcDbEntity
  8
0
100
AcDbLine
 10
550.275481
 20
1031.23947
 30
0.0
 11
550.275481
 21
972.454812
 31
0.0
  0
LINE
  5
2FC4
100
AcDbEntity
  8
0
100
AcDbLine
 10
547.05346
 20
964.676442
 30
0.0
 11
526.837104
 21
944.4611
 31
0.0
  0
LINE
  5
2FD5
100
AcDbEntity
  8
0
100
AcDbLine
 10
558.950789
 20
996.33947
 30
0.0
 11
566.500372
 21
996.33947
 31
0.0
  0
LINE
  5
2FD6
100
AcDbEntity
  8
0
100
AcDbLine
 10
555.475581
 20
997.33947
 30
0.0
 11
558.950789
 21
996.33947
 31
0.0
  0
POLYLINE
  5
2FD7
100
AcDbEntity
  8
0
100
AcDb2dPolyline
 66
     1
 10
0.0
 20
0.0
 30
0.0
  0
VERTEX
  5
38A4
100
AcDbEntity
  8
0
100
AcDbVertex
100
AcDb2dVertex
 10
550.275681
 20
996.878966
 30
0.0
  0
VERTEX
  5
38A5
100
AcDbEntity
  8
0
100
AcDbVertex
100
AcDb2dVertex
 10
550.862077
 20
997.33947
 30
0.0
  0
SEQEND
  5
38A6
100
AcDbEntity
  8
0
  0
LINE
  5
2FD8
100
AcDbEntity
  8
0
100
AcDbLine
 10
555.475581
 20
997.33947
 30
0.0
 11
550.862077
 21
997.33947
 31
0.0
  0
LINE
  5
2FDE
100
AcDbEntity
  8
0
100
AcDbLine
 10
569.975581
 20
997.33947
 30
0.0
 11
566.500372
 21
996.33947
 31
0.0
  0
ARC
  5
2FE5
100
AcDbEntity
  8
0
100
AcDbCircle
 10
569.574941
 20
1020.33947
 30
0.0
 40
13.299346
100
AcDbArc
 50
143.020205
 51
216.979795
  0
LINE
  5
2FE6
100
AcDbEntity
  8
0
100
AcDbLine
 10
569.975581
 20
1012.33947
 30
0.0
 11
569.975581
 21
1027.33947
 31
0.0
  0
ARC
  5
2FE7
100
AcDbEntity
  8
0
100
AcDbCircle
 10
555.876221
 20
1020.33947
 30
0.0
 40
13.299346
100
AcDbArc
 50
323.020205
 51
36.979795
  0
LINE
  5
2FE8
100
AcDbEntity
  8
0
100
AcDbLine
 10
558.950789
 20
1012.33947
 30
0.0
 11
566.500372
 21
1012.33947
 31
0.0
  0
LINE
  5
2FE9
100
AcDbEntity
  8
0
100
AcDbLine
 10
558.950789
 20
1028.33947
 30
0.0
 11
566.500372
 21
1028.33947
 31
0.0
  0
LINE
  5
2FEA
100
AcDbEntity
  8
0
100
AcDbLine
 10
555.475581
 20
1027.33947
 30
0.0
 11
558.950789
 21
1028.33947
 31
0.0
  0
POLYLINE
  5
2FEB
100
AcDbEntity
  8
0
100
AcDb2dPolyline
 66
     1
 10
0.0
 20
0.0
 30
0.0
  0
VERTEX
  5
38A7
100
AcDbEntity
  8
0
100
AcDbVertex
100
AcDb2dVertex
 10
550.275681
 20
1027.799974
 30
0.0
  0
VERTEX
  5
38A8
100
AcDbEntity
  8
0
100
AcDbVertex
100
AcDb2dVertex
 10
550.862077
 20
1027.33947
 30
0.0
  0
SEQEND
  5
38A9
100
AcDbEntity
  8
0
  0
LINE
  5
2FEC
100
AcDbEntity
  8
0
100
AcDbLine
 10
555.475581
 20
1027.33947
 30
0.0
 11
550.862077
 21
1027.33947
 31
0.0
  0
LINE
  5
2FF2
100
AcDbEntity
  8
0
100
AcDbLine
 10
569.975581
 20
1027.33947
 30
0.0
 11
566.500372
 21
1028.33947
 31
0.0
  0
LINE
  5
2FF3
100
AcDbEntity
  8
0
100
AcDbLine
 10
519.059124
 20
1338.764891
 30
0.0
 11
465.891837
 21
1338.764891
 31
0.0
  0
LINE
  5
2FF4
100
AcDbEntity
  8
0
100
AcDbLine
 10
527.704601
 20
1251.217397
 30
0.0
 11
457.24656
 21
1251.217397
 31
0.0
  0
LINE
  5
2FF5
100
AcDbEntity
  8
0
100
AcDbLine
 10
527.704601
 20
1147.217397
 30
0.0
 11
457.24656
 21
1147.217397
 31
0.0
  0
ARC
  5
2FF6
100
AcDbEntity
  8
0
100
AcDbCircle
 10
523.840402
 20
1201.717248
 30
0.0
 40
90.0
100
AcDbArc
 50
152.612765
 51
171.661408
  0
LINE
  5
2FF7
100
AcDbEntity
  8
0
100
AcDbLine
 10
426.000372
 20
1217.692605
 30
0.0
 11
418.450789
 21
1217.692605
 31
0.0
  0
LINE
  5
2FF8
100
AcDbEntity
  8
0
100
AcDbLine
 10
426.000372
 20
1208.455001
 30
0.0
 11
418.450789
 21
1208.455001
 31
0.0
  0
LINE
  5
2FF9
100
AcDbEntity
  8
0
100
AcDbLine
 10
426.000372
 20
1180.742188
 30
0.0
 11
418.450789
 21
1180.742188
 31
0.0
  0
LINE
  5
2FFA
100
AcDbEntity
  8
0
100
AcDbLine
 10
426.000372
 20
1189.979792
 30
0.0
 11
418.450789
 21
1189.979792
 31
0.0
  0
LINE
  5
2FFB
100
AcDbEntity
  8
0
100
AcDbLine
 10
344.274719
 20
1211.009734
 30
0.0
 11
372.634844
 21
1211.009734
 31
0.0
  0
LINE
  5
2FFC
100
AcDbEntity
  8
0
100
AcDbLine
 10
400.996656
 20
1201.556359
 30
0.0
 11
353.728094
 21
1201.556359
 31
0.0
  0
LINE
  5
2FFD
100
AcDbEntity
  8
0
100
AcDbLine
 10
353.728094
 20
1201.556359
 30
0.0
 11
344.274719
 21
1211.009734
 31
0.0
  0
ARC
  5
2FFE
100
AcDbEntity
  8
0
100
AcDbCircle
 10
433.062191
 20
1199.217397
 30
0.0
 40
17.286595
100
AcDbArc
 50
147.698151
 51
212.301849
  0
LINE
  5
2FFF
100
AcDbEntity
  8
0
100
AcDbLine
 10
414.975581
 20
1184.217397
 30
0.0
 11
414.975581
 21
1199.217397
 31
0.0
  0
LINE
  5
3000
100
AcDbEntity
  8
0
100
AcDbLine
 10
414.975581
 20
1184.217397
 30
0.0
 11
418.450789
 21
1180.742188
 31
0.0
  0
ARC
  5
3001
100
AcDbEntity
  8
0
100
AcDbCircle
 10
421.100442
 20
1185.36099
 30
0.0
 40
5.324847
100
AcDbArc
 50
119.841453
 51
209.841453
  0
LINE
  5
3002
100
AcDbEntity
  8
0
100
AcDbLine
 10
391.337406
 20
1211.009734
 30
0.0
 11
400.996656
 21
1201.556359
 31
0.0
  0
LINE
  5
3003
100
AcDbEntity
  8
0
100
AcDbLine
 10
377.363219
 20
1206.283046
 30
0.0
 11
391.337406
 21
1206.283046
 31
0.0
  0
LINE
  5
3004
100
AcDbEntity
  8
0
100
AcDbLine
 10
372.634844
 20
1211.009734
 30
0.0
 11
377.363219
 21
1206.283046
 31
0.0
  0
LINE
  5
3005
100
AcDbEntity
  8
0
100
AcDbLine
 10
391.337406
 20
1206.283046
 30
0.0
 11
391.337406
 21
1211.009734
 31
0.0
  0
LINE
  5
3006
100
AcDbEntity
  8
0
100
AcDbLine
 10
414.975581
 20
1199.217397
 30
0.0
 11
414.975581
 21
1214.217397
 31
0.0
  0
LINE
  5
3007
100
AcDbEntity
  8
0
100
AcDbLine
 10
414.975581
 20
1214.217397
 30
0.0
 11
418.450789
 21
1217.692605
 31
0.0
  0
ARC
  5
3008
100
AcDbEntity
  8
0
100
AcDbCircle
 10
421.100442
 20
1213.073803
 30
0.0
 40
5.324847
100
AcDbArc
 50
150.158547
 51
240.158547
  0
ARC
  5
3009
100
AcDbEntity
  8
0
100
AcDbCircle
 10
523.840402
 20
1196.717545
 30
0.0
 40
90.0
100
AcDbArc
 50
188.338592
 51
207.387235
  0
ARC
  5
300A
100
AcDbEntity
  8
0
100
AcDbCircle
 10
457.24656
 20
1162.217397
 30
0.0
 40
15.0
100
AcDbArc
 50
207.387235
 51
270.0
  0
LINE
  5
300B
100
AcDbEntity
  8
0
100
AcDbLine
 10
434.089084
 20
1184.217397
 30
0.0
 11
434.089084
 21
1214.217397
 31
0.0
  0
LINE
  5
300C
100
AcDbEntity
  8
0
100
AcDbLine
 10
429.475581
 20
1184.217397
 30
0.0
 11
429.475581
 21
1214.217397
 31
0.0
  0
LINE
  5
300D
100
AcDbEntity
  8
0
100
AcDbLine
 10
434.675481
 20
1212.131718
 30
0.0
 11
434.675481
 21
1186.303075
 31
0.0
  0
ARC
  5
300E
100
AcDbEntity
  8
0
100
AcDbCircle
 10
411.388971
 20
1199.217397
 30
0.0
 40
17.286595
100
AcDbArc
 50
327.698151
 51
32.301849
  0
POLYLINE
  5
300F
100
AcDbEntity
  8
0
100
AcDb2dPolyline
 66
     1
 10
0.0
 20
0.0
 30
0.0
  0
VERTEX
  5
38AA
100
AcDbEntity
  8
0
100
AcDbVertex
100
AcDb2dVertex
 10
434.791637
 20
1183.665674
 30
0.0
  0
VERTEX
  5
38AB
100
AcDbEntity
  8
0
100
AcDbVertex
100
AcDb2dVertex
 10
434.089084
 20
1184.217397
 30
0.0
  0
SEQEND
  5
38AC
100
AcDbEntity
  8
0
  0
LINE
  5
3010
100
AcDbEntity
  8
0
100
AcDbLine
 10
429.475581
 20
1184.217397
 30
0.0
 11
434.089084
 21
1184.217397
 31
0.0
  0
ARC
  5
3011
100
AcDbEntity
  8
0
100
AcDbCircle
 10
423.35072
 20
1185.36099
 30
0.0
 40
5.324847
100
AcDbArc
 50
330.158547
 51
60.158547
  0
LINE
  5
3012
100
AcDbEntity
  8
0
100
AcDbLine
 10
429.475581
 20
1184.217397
 30
0.0
 11
426.000372
 21
1180.742188
 31
0.0
  0
ARC
  5
3013
100
AcDbEntity
  8
0
100
AcDbCircle
 10
464.675481
 20
1186.303075
 30
0.0
 40
30.0
100
AcDbArc
 50
180.0
 51
185.043577
  0
LINE
  5
3014
100
AcDbEntity
  8
0
100
AcDbLine
 10
429.475581
 20
1214.217397
 30
0.0
 11
434.089084
 21
1214.217397
 31
0.0
  0
POLYLINE
  5
3015
100
AcDbEntity
  8
0
100
AcDb2dPolyline
 66
     1
 10
0.0
 20
0.0
 30
0.0
  0
VERTEX
  5
38AD
100
AcDbEntity
  8
0
100
AcDbVertex
100
AcDb2dVertex
 10
434.791637
 20
1214.769119
 30
0.0
  0
VERTEX
  5
38AE
100
AcDbEntity
  8
0
100
AcDbVertex
100
AcDb2dVertex
 10
434.089084
 20
1214.217397
 30
0.0
  0
SEQEND
  5
38AF
100
AcDbEntity
  8
0
  0
ARC
  5
3016
100
AcDbEntity
  8
0
100
AcDbCircle
 10
423.35072
 20
1213.073803
 30
0.0
 40
5.324847
100
AcDbArc
 50
299.841453
 51
29.841453
  0
LINE
  5
3017
100
AcDbEntity
  8
0
100
AcDbLine
 10
429.475581
 20
1214.217397
 30
0.0
 11
426.000372
 21
1217.692605
 31
0.0
  0
ARC
  5
3018
100
AcDbEntity
  8
0
100
AcDbCircle
 10
464.675481
 20
1212.131718
 30
0.0
 40
30.0
100
AcDbArc
 50
174.956423
 51
180.0
  0
ARC
  5
3019
100
AcDbEntity
  8
0
100
AcDbCircle
 10
457.24656
 20
1236.217397
 30
0.0
 40
15.0
100
AcDbArc
 50
90.0
 51
152.612765
  0
ARC
  5
3024
100
AcDbEntity
  8
0
100
AcDbCircle
 10
461.11076
 20
1201.717248
 30
0.0
 40
90.0
100
AcDbArc
 50
8.338592
 51
27.387235
  0
ARC
  5
3025
100
AcDbEntity
  8
0
100
AcDbCircle
 10
461.11076
 20
1196.717545
 30
0.0
 40
90.0
100
AcDbArc
 50
332.612765
 51
351.661408
  0
ARC
  5
3026
100
AcDbEntity
  8
0
100
AcDbCircle
 10
527.704601
 20
1162.217397
 30
0.0
 40
15.0
100
AcDbArc
 50
270.0
 51
332.612765
  0
LINE
  5
3027
100
AcDbEntity
  8
0
100
AcDbLine
 10
555.475581
 20
1184.217397
 30
0.0
 11
555.475581
 21
1214.217397
 31
0.0
  0
LINE
  5
3028
100
AcDbEntity
  8
0
100
AcDbLine
 10
550.862077
 20
1184.217397
 30
0.0
 11
550.862077
 21
1214.217397
 31
0.0
  0
LINE
  5
3029
100
AcDbEntity
  8
0
100
AcDbLine
 10
550.275481
 20
1212.131718
 30
0.0
 11
550.275481
 21
1186.303075
 31
0.0
  0
LINE
  5
302A
100
AcDbEntity
  8
0
100
AcDbLine
 10
569.975581
 20
1184.217397
 30
0.0
 11
569.975581
 21
1199.217397
 31
0.0
  0
ARC
  5
302B
100
AcDbEntity
  8
0
100
AcDbCircle
 10
573.562191
 20
1199.217397
 30
0.0
 40
17.286595
100
AcDbArc
 50
147.698151
 51
212.301849
  0
ARC
  5
302C
100
AcDbEntity
  8
0
100
AcDbCircle
 10
551.888971
 20
1199.217397
 30
0.0
 40
17.286595
100
AcDbArc
 50
327.698151
 51
32.301849
  0
LINE
  5
302D
100
AcDbEntity
  8
0
100
AcDbLine
 10
558.950789
 20
1189.979792
 30
0.0
 11
566.500372
 21
1189.979792
 31
0.0
  0
LINE
  5
302E
100
AcDbEntity
  8
0
100
AcDbLine
 10
558.950789
 20
1180.742188
 30
0.0
 11
566.500372
 21
1180.742188
 31
0.0
  0
LINE
  5
302F
100
AcDbEntity
  8
0
100
AcDbLine
 10
555.475581
 20
1184.217397
 30
0.0
 11
550.862077
 21
1184.217397
 31
0.0
  0
POLYLINE
  5
3030
100
AcDbEntity
  8
0
100
AcDb2dPolyline
 66
     1
 10
0.0
 20
0.0
 30
0.0
  0
VERTEX
  5
38B0
100
AcDbEntity
  8
0
100
AcDbVertex
100
AcDb2dVertex
 10
550.15931
 20
1183.665505
 30
0.0
  0
VERTEX
  5
38B1
100
AcDbEntity
  8
0
100
AcDbVertex
100
AcDb2dVertex
 10
550.862077
 20
1184.217397
 30
0.0
  0
SEQEND
  5
38B2
100
AcDbEntity
  8
0
  0
ARC
  5
3031
100
AcDbEntity
  8
0
100
AcDbCircle
 10
561.600442
 20
1185.36099
 30
0.0
 40
5.324847
100
AcDbArc
 50
119.841453
 51
209.841453
  0
LINE
  5
3032
100
AcDbEntity
  8
0
100
AcDbLine
 10
555.475581
 20
1184.217397
 30
0.0
 11
558.950789
 21
1180.742188
 31
0.0
  0
ARC
  5
3033
100
AcDbEntity
  8
0
100
AcDbCircle
 10
520.275481
 20
1186.303075
 30
0.0
 40
30.0
100
AcDbArc
 50
354.956099
 51
360.0
  0
ARC
  5
3034
100
AcDbEntity
  8
0
100
AcDbCircle
 10
563.85072
 20
1185.36099
 30
0.0
 40
5.324847
100
AcDbArc
 50
330.158547
 51
60.158547
  0
LINE
  5
3035
100
AcDbEntity
  8
0
100
AcDbLine
 10
569.975581
 20
1184.217397
 30
0.0
 11
566.500372
 21
1180.742188
 31
0.0
  0
LINE
  5
3036
100
AcDbEntity
  8
0
100
AcDbLine
 10
558.950789
 20
1208.455001
 30
0.0
 11
566.500372
 21
1208.455001
 31
0.0
  0
LINE
  5
3037
100
AcDbEntity
  8
0
100
AcDbLine
 10
558.950789
 20
1217.692605
 30
0.0
 11
566.500372
 21
1217.692605
 31
0.0
  0
LINE
  5
3038
100
AcDbEntity
  8
0
100
AcDbLine
 10
555.475581
 20
1214.217397
 30
0.0
 11
550.862077
 21
1214.217397
 31
0.0
  0
POLYLINE
  5
3039
100
AcDbEntity
  8
0
100
AcDb2dPolyline
 66
     1
 10
0.0
 20
0.0
 30
0.0
  0
VERTEX
  5
38B3
100
AcDbEntity
  8
0
100
AcDbVertex
100
AcDb2dVertex
 10
550.15931
 20
1214.769288
 30
0.0
  0
VERTEX
  5
38B4
100
AcDbEntity
  8
0
100
AcDbVertex
100
AcDb2dVertex
 10
550.862077
 20
1214.217397
 30
0.0
  0
SEQEND
  5
38B5
100
AcDbEntity
  8
0
  0
ARC
  5
303A
100
AcDbEntity
  8
0
100
AcDbCircle
 10
561.600442
 20
1213.073803
 30
0.0
 40
5.324847
100
AcDbArc
 50
150.158547
 51
240.158547
  0
LINE
  5
303B
100
AcDbEntity
  8
0
100
AcDbLine
 10
555.475581
 20
1214.217397
 30
0.0
 11
558.950789
 21
1217.692605
 31
0.0
  0
ARC
  5
303C
100
AcDbEntity
  8
0
100
AcDbCircle
 10
520.275481
 20
1212.131718
 30
0.0
 40
30.0
100
AcDbArc
 50
360.0
 51
5.043901
  0
ARC
  5
303D
100
AcDbEntity
  8
0
100
AcDbCircle
 10
563.85072
 20
1213.073803
 30
0.0
 40
5.324847
100
AcDbArc
 50
299.841453
 51
29.841453
  0
LINE
  5
303E
100
AcDbEntity
  8
0
100
AcDbLine
 10
569.975581
 20
1214.217397
 30
0.0
 11
566.500372
 21
1217.692605
 31
0.0
  0
LINE
  5
303F
100
AcDbEntity
  8
0
100
AcDbLine
 10
569.975581
 20
1199.217397
 30
0.0
 11
569.975581
 21
1214.217397
 31
0.0
  0
ARC
  5
3040
100
AcDbEntity
  8
0
100
AcDbCircle
 10
527.704601
 20
1236.217397
 30
0.0
 40
15.0
100
AcDbArc
 50
27.387235
 51
90.0
  0
CIRCLE
  5
304C
100
AcDbEntity
  8
0
100
AcDbCircle
 10
967.007446
 20
1012.33947
 30
0.0
 40
17.5
  0
POLYLINE
  5
304D
100
AcDbEntity
  8
0
100
AcDb2dPolyline
 66
     1
 10
0.0
 20
0.0
 30
0.0
 70
     1
  0
VERTEX
  5
38B6
100
AcDbEntity
  8
0
100
AcDbVertex
100
AcDb2dVertex
 10
977.399751
 20
1030.33947
 30
0.0
  0
VERTEX
  5
38B7
100
AcDbEntity
  8
0
100
AcDbVertex
100
AcDb2dVertex
 10
987.792056
 20
1012.33947
 30
0.0
  0
VERTEX
  5
38B8
100
AcDbEntity
  8
0
100
AcDbVertex
100
AcDb2dVertex
 10
977.399751
 20
994.33947
 30
0.0
  0
VERTEX
  5
38B9
100
AcDbEntity
  8
0
100
AcDbVertex
100
AcDb2dVertex
 10
956.615141
 20
994.33947
 30
0.0
  0
VERTEX
  5
38BA
100
AcDbEntity
  8
0
100
AcDbVertex
100
AcDb2dVertex
 10
946.222836
 20
1012.33947
 30
0.0
  0
VERTEX
  5
38BB
100
AcDbEntity
  8
0
100
AcDbVertex
100
AcDb2dVertex
 10
956.615141
 20
1030.33947
 30
0.0
  0
SEQEND
  5
38BC
100
AcDbEntity
  8
0
  0
CIRCLE
  5
304E
100
AcDbEntity
  8
0
100
AcDbCircle
 10
967.007446
 20
993.35222
 30
0.0
 40
51.88725
  0
ELLIPSE
  5
304F
100
AcDbEntity
  8
0
100
AcDbEllipse
 10
967.007446
 20
954.67922
 30
0.0
 11
15.73525959711332
 21
0.0
 31
0.0
210
0.0
220
0.0
230
-1.0
 40
0.759965
 41
0.0
 42
6.283185307179586
  0
LINE
  5
3050
100
AcDbEntity
  8
0
100
AcDbLine
 10
1106.46626
 20
994.83947
 30
0.0
 11
1106.46626
 21
1012.33947
 31
0.0
  0
ARC
  5
3051
100
AcDbEntity
  8
0
100
AcDbCircle
 10
1128.324359
 20
1003.33947
 30
0.0
 40
20.63915
100
AcDbArc
 50
154.146953
 51
205.853047
  0
LINE
  5
3052
100
AcDbEntity
  8
0
100
AcDbLine
 10
1109.75087
 20
994.33947
 30
0.0
 11
1106.46626
 21
994.83947
 31
0.0
  0
LINE
  5
3053
100
AcDbEntity
  8
0
100
AcDbLine
 10
1089.948664
 20
1008.723829
 30
0.0
 11
1042.680102
 21
1008.723829
 31
0.0
  0
LINE
  5
3054
100
AcDbEntity
  8
0
100
AcDbLine
 10
1066.315227
 20
1013.450516
 30
0.0
 11
1080.289414
 21
1013.450516
 31
0.0
  0
LINE
  5
3055
100
AcDbEntity
  8
0
100
AcDbLine
 10
1033.226727
 20
1018.177204
 30
0.0
 11
1061.586852
 21
1018.177204
 31
0.0
  0
LINE
  5
3056
100
AcDbEntity
  8
0
100
AcDbLine
 10
1042.680102
 20
1008.723829
 30
0.0
 11
1033.226727
 21
1018.177204
 31
0.0
  0
LINE
  5
3057
100
AcDbEntity
  8
0
100
AcDbLine
 10
1061.586852
 20
1018.177204
 30
0.0
 11
1066.315227
 21
1013.450516
 31
0.0
  0
ARC
  5
3058
100
AcDbEntity
  8
0
100
AcDbCircle
 10
1128.324359
 20
1021.33947
 30
0.0
 40
20.63915
100
AcDbArc
 50
154.146953
 51
205.853047
  0
LINE
  5
3059
100
AcDbEntity
  8
0
100
AcDbLine
 10
1106.46626
 20
1012.33947
 30
0.0
 11
1106.46626
 21
1029.83947
 31
0.0
  0
LINE
  5
305A
100
AcDbEntity
  8
0
100
AcDbLine
 10
1080.289414
 20
1018.177204
 30
0.0
 11
1089.948664
 21
1008.723829
 31
0.0
  0
LINE
  5
305B
100
AcDbEntity
  8
0
100
AcDbLine
 10
1080.289414
 20
1013.450516
 30
0.0
 11
1080.289414
 21
1018.177204
 31
0.0
  0
LINE
  5
305C
100
AcDbEntity
  8
0
100
AcDbLine
 10
1109.75087
 20
1030.33947
 30
0.0
 11
1106.46626
 21
1029.83947
 31
0.0
  0
LINE
  5
305D
100
AcDbEntity
  8
0
100
AcDbLine
 10
1092.521702
 20
1201.556359
 30
0.0
 11
1045.253139
 21
1201.556359
 31
0.0
  0
LINE
  5
305E
100
AcDbEntity
  8
0
100
AcDbLine
 10
1064.159889
 20
1211.009734
 30
0.0
 11
1068.888264
 21
1206.283046
 31
0.0
  0
LINE
  5
305F
100
AcDbEntity
  8
0
100
AcDbLine
 10
1035.799764
 20
1211.009734
 30
0.0
 11
1064.159889
 21
1211.009734
 31
0.0
  0
LINE
  5
3060
100
AcDbEntity
  8
0
100
AcDbLine
 10
1045.253139
 20
1201.556359
 30
0.0
 11
1035.799764
 21
1211.009734
 31
0.0
  0
ARC
  5
3061
100
AcDbEntity
  8
0
100
AcDbCircle
 10
1135.164466
 20
1199.217397
 30
0.0
 40
27.456345
100
AcDbArc
 50
157.759024
 51
202.240976
  0
LINE
  5
3062
100
AcDbEntity
  8
0
100
AcDbLine
 10
1106.46626
 20
1181.717397
 30
0.0
 11
1106.46626
 21
1199.217397
 31
0.0
  0
ARC
  5
3063
100
AcDbEntity
  8
0
100
AcDbCircle
 10
1115.253479
 20
1183.628939
 30
0.0
 40
7.56827
100
AcDbArc
 50
136.640741
 51
223.359259
  0
LINE
  5
3064
100
AcDbEntity
  8
0
100
AcDbLine
 10
1109.75087
 20
1178.432787
 30
0.0
 11
1106.46626
 21
1181.717397
 31
0.0
  0
LINE
  5
3065
100
AcDbEntity
  8
0
100
AcDbLine
 10
1068.888264
 20
1206.283046
 30
0.0
 11
1082.862452
 21
1206.283046
 31
0.0
  0
LINE
  5
3066
100
AcDbEntity
  8
0
100
AcDbLine
 10
1082.862452
 20
1211.009734
 30
0.0
 11
1092.521702
 21
1201.556359
 31
0.0
  0
LINE
  5
3067
100
AcDbEntity
  8
0
100
AcDbLine
 10
1082.862452
 20
1206.283046
 30
0.0
 11
1082.862452
 21
1211.009734
 31
0.0
  0
LINE
  5
3068
100
AcDbEntity
  8
0
100
AcDbLine
 10
1106.46626
 20
1199.217397
 30
0.0
 11
1106.46626
 21
1216.717397
 31
0.0
  0
ARC
  5
3069
100
AcDbEntity
  8
0
100
AcDbCircle
 10
1115.253479
 20
1214.805854
 30
0.0
 40
7.56827
100
AcDbArc
 50
136.640741
 51
223.359259
  0
LINE
  5
306A
100
AcDbEntity
  8
0
100
AcDbLine
 10
1109.75087
 20
1220.002006
 30
0.0
 11
1106.46626
 21
1216.717397
 31
0.0
  0
LINE
  5
306B
100
AcDbEntity
  8
0
100
AcDbLine
 10
536.275481
 20
1442.764891
 30
0.0
 11
448.675481
 21
1442.764891
 31
0.0
  0
LINE
  5
306C
100
AcDbEntity
  8
0
100
AcDbLine
 10
426.000372
 20
1409.864891
 30
0.0
 11
418.450789
 21
1409.864891
 31
0.0
  0
LINE
  5
306D
100
AcDbEntity
  8
0
100
AcDbLine
 10
426.000372
 20
1393.864891
 30
0.0
 11
418.450789
 21
1393.864891
 31
0.0
  0
LINE
  5
306E
100
AcDbEntity
  8
0
100
AcDbLine
 10
426.000372
 20
1425.864891
 30
0.0
 11
418.450789
 21
1425.864891
 31
0.0
  0
LINE
  5
306F
100
AcDbEntity
  8
0
100
AcDbLine
 10
414.975581
 20
1394.864891
 30
0.0
 11
414.975581
 21
1409.864891
 31
0.0
  0
ARC
  5
3070
100
AcDbEntity
  8
0
100
AcDbCircle
 10
429.074941
 20
1401.864891
 30
0.0
 40
13.299346
100
AcDbArc
 50
143.020205
 51
216.979795
  0
LINE
  5
3071
100
AcDbEntity
  8
0
100
AcDbLine
 10
414.975581
 20
1394.864891
 30
0.0
 11
418.450789
 21
1393.864891
 31
0.0
  0
LINE
  5
3072
100
AcDbEntity
  8
0
100
AcDbLine
 10
414.975581
 20
1409.864891
 30
0.0
 11
414.975581
 21
1424.864891
 31
0.0
  0
ARC
  5
3073
100
AcDbEntity
  8
0
100
AcDbCircle
 10
429.074941
 20
1417.864891
 30
0.0
 40
13.299346
100
AcDbArc
 50
143.020205
 51
216.979795
  0
LINE
  5
3074
100
AcDbEntity
  8
0
100
AcDbLine
 10
414.975581
 20
1424.864891
 30
0.0
 11
418.450789
 21
1425.864891
 31
0.0
  0
LINE
  5
3075
100
AcDbEntity
  8
0
100
AcDbLine
 10
434.089084
 20
1394.864891
 30
0.0
 11
434.089084
 21
1424.864891
 31
0.0
  0
LINE
  5
3076
100
AcDbEntity
  8
0
100
AcDbLine
 10
429.475581
 20
1394.864891
 30
0.0
 11
429.475581
 21
1424.864891
 31
0.0
  0
ARC
  5
3077
100
AcDbEntity
  8
0
100
AcDbCircle
 10
415.376221
 20
1401.864891
 30
0.0
 40
13.299346
100
AcDbArc
 50
323.020205
 51
36.979795
  0
LINE
  5
3078
100
AcDbEntity
  8
0
100
AcDbLine
 10
434.675481
 20
1428.764891
 30
0.0
 11
434.675481
 21
1369.980233
 31
0.0
  0
LINE
  5
3083
100
AcDbEntity
  8
0
100
AcDbLine
 10
434.675481
 20
1395.864891
 30
0.0
 11
434.675481
 21
1394.864891
 31
0.0
  0
POLYLINE
  5
3084
100
AcDbEntity
  8
0
100
AcDb2dPolyline
 66
     1
 10
0.0
 20
0.0
 30
0.0
  0
VERTEX
  5
38BD
100
AcDbEntity
  8
0
100
AcDbVertex
100
AcDb2dVertex
 10
434.675481
 20
1394.404387
 30
0.0
  0
VERTEX
  5
38BE
100
AcDbEntity
  8
0
100
AcDbVertex
100
AcDb2dVertex
 10
434.089084
 20
1394.864891
 30
0.0
  0
SEQEND
  5
38BF
100
AcDbEntity
  8
0
  0
LINE
  5
3085
100
AcDbEntity
  8
0
100
AcDbLine
 10
429.475581
 20
1394.864891
 30
0.0
 11
434.089084
 21
1394.864891
 31
0.0
  0
LINE
  5
3086
100
AcDbEntity
  8
0
100
AcDbLine
 10
429.475581
 20
1394.864891
 30
0.0
 11
426.000372
 21
1393.864891
 31
0.0
  0
ARC
  5
3087
100
AcDbEntity
  8
0
100
AcDbCircle
 10
415.376221
 20
1417.864891
 30
0.0
 40
13.299346
100
AcDbArc
 50
323.020205
 51
36.979795
  0
LINE
  5
3088
100
AcDbEntity
  8
0
100
AcDbLine
 10
429.475581
 20
1424.864891
 30
0.0
 11
434.089084
 21
1424.864891
 31
0.0
  0
POLYLINE
  5
3089
100
AcDbEntity
  8
0
100
AcDb2dPolyline
 66
     1
 10
0.0
 20
0.0
 30
0.0
  0
VERTEX
  5
38C0
100
AcDbEntity
  8
0
100
AcDbVertex
100
AcDb2dVertex
 10
434.675481
 20
1425.325395
 30
0.0
  0
VERTEX
  5
38C1
100
AcDbEntity
  8
0
100
AcDbVertex
100
AcDb2dVertex
 10
434.089084
 20
1424.864891
 30
0.0
  0
SEQEND
  5
38C2
100
AcDbEntity
  8
0
  0
LINE
  5
308A
100
AcDbEntity
  8
0
100
AcDbLine
 10
429.475581
 20
1424.864891
 30
0.0
 11
426.000372
 21
1425.864891
 31
0.0
  0
LINE
  5
3095
100
AcDbEntity
  8
0
100
AcDbLine
 10
582.176275
 20
1407.244443
 30
0.0
 11
629.444837
 21
1407.244443
 31
0.0
  0
LINE
  5
3096
100
AcDbEntity
  8
0
100
AcDbLine
 10
591.835525
 20
1416.697818
 30
0.0
 11
582.176275
 21
1407.244443
 31
0.0
  0
LINE
  5
3097
100
AcDbEntity
  8
0
100
AcDbLine
 10
555.475581
 20
1394.864891
 30
0.0
 11
555.475581
 21
1424.864891
 31
0.0
  0
LINE
  5
3098
100
AcDbEntity
  8
0
100
AcDbLine
 10
550.862077
 20
1394.864891
 30
0.0
 11
550.862077
 21
1424.864891
 31
0.0
  0
ARC
  5
3099
100
AcDbEntity
  8
0
100
AcDbCircle
 10
569.574941
 20
1401.864891
 30
0.0
 40
13.299346
100
AcDbArc
 50
143.020205
 51
216.979795
  0
ARC
  5
309A
100
AcDbEntity
  8
0
100
AcDbCircle
 10
555.876221
 20
1401.864891
 30
0.0
 40
13.299346
100
AcDbArc
 50
323.020205
 51
36.979795
  0
LINE
  5
309B
100
AcDbEntity
  8
0
100
AcDbLine
 10
569.975581
 20
1394.864891
 30
0.0
 11
569.975581
 21
1409.864891
 31
0.0
  0
LINE
  5
309C
100
AcDbEntity
  8
0
100
AcDbLine
 10
550.275481
 20
1428.764891
 30
0.0
 11
550.275481
 21
1369.980233
 31
0.0
  0
LINE
  5
30A7
100
AcDbEntity
  8
0
100
AcDbLine
 10
558.950789
 20
1393.864891
 30
0.0
 11
566.500372
 21
1393.864891
 31
0.0
  0
LINE
  5
30A8
100
AcDbEntity
  8
0
100
AcDbLine
 10
555.475581
 20
1394.864891
 30
0.0
 11
550.862077
 21
1394.864891
 31
0.0
  0
POLYLINE
  5
30A9
100
AcDbEntity
  8
0
100
AcDb2dPolyline
 66
     1
 10
0.0
 20
0.0
 30
0.0
  0
VERTEX
  5
38C3
100
AcDbEntity
  8
0
100
AcDbVertex
100
AcDb2dVertex
 10
550.275681
 20
1394.404387
 30
0.0
  0
VERTEX
  5
38C4
100
AcDbEntity
  8
0
100
AcDbVertex
100
AcDb2dVertex
 10
550.862077
 20
1394.864891
 30
0.0
  0
SEQEND
  5
38C5
100
AcDbEntity
  8
0
  0
LINE
  5
30AA
100
AcDbEntity
  8
0
100
AcDbLine
 10
550.275681
 20
1395.864891
 30
0.0
 11
550.275681
 21
1394.864891
 31
0.0
  0
LINE
  5
30AB
100
AcDbEntity
  8
0
100
AcDbLine
 10
555.475581
 20
1394.864891
 30
0.0
 11
558.950789
 21
1393.864891
 31
0.0
  0
LINE
  5
30AC
100
AcDbEntity
  8
0
100
AcDbLine
 10
569.975581
 20
1394.864891
 30
0.0
 11
566.500372
 21
1393.864891
 31
0.0
  0
LINE
  5
30B3
100
AcDbEntity
  8
0
100
AcDbLine
 10
558.950789
 20
1409.864891
 30
0.0
 11
566.500372
 21
1409.864891
 31
0.0
  0
LINE
  5
30B4
100
AcDbEntity
  8
0
100
AcDbLine
 10
558.950789
 20
1425.864891
 30
0.0
 11
566.500372
 21
1425.864891
 31
0.0
  0
ARC
  5
30B5
100
AcDbEntity
  8
0
100
AcDbCircle
 10
569.574941
 20
1417.864891
 30
0.0
 40
13.299346
100
AcDbArc
 50
143.020205
 51
216.979795
  0
LINE
  5
30B6
100
AcDbEntity
  8
0
100
AcDbLine
 10
555.475581
 20
1424.864891
 30
0.0
 11
550.862077
 21
1424.864891
 31
0.0
  0
POLYLINE
  5
30B7
100
AcDbEntity
  8
0
100
AcDb2dPolyline
 66
     1
 10
0.0
 20
0.0
 30
0.0
  0
VERTEX
  5
38C6
100
AcDbEntity
  8
0
100
AcDbVertex
100
AcDb2dVertex
 10
550.275681
 20
1425.325395
 30
0.0
  0
VERTEX
  5
38C7
100
AcDbEntity
  8
0
100
AcDbVertex
100
AcDb2dVertex
 10
550.862077
 20
1424.864891
 30
0.0
  0
SEQEND
  5
38C8
100
AcDbEntity
  8
0
  0
LINE
  5
30B8
100
AcDbEntity
  8
0
100
AcDbLine
 10
555.475581
 20
1424.864891
 30
0.0
 11
558.950789
 21
1425.864891
 31
0.0
  0
ARC
  5
30B9
100
AcDbEntity
  8
0
100
AcDbCircle
 10
555.876221
 20
1417.864891
 30
0.0
 40
13.299346
100
AcDbArc
 50
323.020205
 51
36.979795
  0
LINE
  5
30BA
100
AcDbEntity
  8
0
100
AcDbLine
 10
569.975581
 20
1409.864891
 30
0.0
 11
569.975581
 21
1424.864891
 31
0.0
  0
LINE
  5
30BB
100
AcDbEntity
  8
0
100
AcDbLine
 10
569.975581
 20
1424.864891
 30
0.0
 11
566.500372
 21
1425.864891
 31
0.0
  0
LINE
  5
30C1
100
AcDbEntity
  8
0
100
AcDbLine
 10
638.898212
 20
1416.697818
 30
0.0
 11
610.538087
 21
1416.697818
 31
0.0
  0
LINE
  5
30C2
100
AcDbEntity
  8
0
100
AcDbLine
 10
605.809712
 20
1411.97113
 30
0.0
 11
591.835525
 21
1411.97113
 31
0.0
  0
LINE
  5
30C3
100
AcDbEntity
  8
0
100
AcDbLine
 10
591.835525
 20
1411.97113
 30
0.0
 11
591.835525
 21
1416.697818
 31
0.0
  0
LINE
  5
30C4
100
AcDbEntity
  8
0
100
AcDbLine
 10
610.538087
 20
1416.697818
 30
0.0
 11
605.809712
 21
1411.97113
 31
0.0
  0
LINE
  5
30C5
100
AcDbEntity
  8
0
100
AcDbLine
 10
629.444837
 20
1407.244443
 30
0.0
 11
638.898212
 21
1416.697818
 31
0.0
  0
LINE
  5
30C6
100
AcDbEntity
  8
0
100
AcDbLine
 10
1106.46626
 20
1392.364891
 30
0.0
 11
1106.46626
 21
1409.864891
 31
0.0
  0
ARC
  5
30C7
100
AcDbEntity
  8
0
100
AcDbCircle
 10
1128.324359
 20
1400.864891
 30
0.0
 40
20.63915
100
AcDbArc
 50
154.146953
 51
205.853047
  0
LINE
  5
30C8
100
AcDbEntity
  8
0
100
AcDbLine
 10
1109.75087
 20
1391.864891
 30
0.0
 11
1106.46626
 21
1392.364891
 31
0.0
  0
LINE
  5
30C9
100
AcDbEntity
  8
0
100
AcDbLine
 10
1109.75087
 20
1427.864891
 30
0.0
 11
1106.46626
 21
1427.364891
 31
0.0
  0
LINE
  5
30CA
100
AcDbEntity
  8
0
100
AcDbLine
 10
1106.46626
 20
1409.864891
 30
0.0
 11
1106.46626
 21
1427.364891
 31
0.0
  0
ARC
  5
30CB
100
AcDbEntity
  8
0
100
AcDbCircle
 10
1128.324359
 20
1418.864891
 30
0.0
 40
20.63915
100
AcDbArc
 50
154.146953
 51
205.853047
  0
LINE
  5
30CC
100
AcDbEntity
  8
0
100
AcDbLine
 10
1998.15724
 20
715.207427
 30
0.0
 11
1910.55724
 21
715.207427
 31
0.0
  0
LINE
  5
30CD
100
AcDbEntity
  8
0
100
AcDbLine
 10
1927.773596
 20
611.207427
 30
0.0
 11
1980.940883
 21
611.207427
 31
0.0
  0
LINE
  5
30CE
100
AcDbEntity
  8
0
100
AcDbLine
 10
1989.58636
 20
523.559932
 30
0.0
 11
1919.128319
 21
523.559932
 31
0.0
  0
LINE
  5
30CF
100
AcDbEntity
  8
0
100
AcDbLine
 10
1989.58636
 20
419.559932
 30
0.0
 11
1919.128319
 21
419.559932
 31
0.0
  0
LINE
  5
30D0
100
AcDbEntity
  8
0
100
AcDbLine
 10
1998.15724
 20
317.682005
 30
0.0
 11
1910.55724
 21
317.682005
 31
0.0
  0
LINE
  5
30D1
100
AcDbEntity
  8
0
100
AcDbLine
 10
1927.773596
 20
213.682005
 30
0.0
 11
1980.940883
 21
213.682005
 31
0.0
  0
TEXT
  5
30D2
100
AcDbEntity
  8
0
100
AcDbText
 10
1939.577327
 20
177.056761
 30
0.0
 40
20.0
  1
25A
 41
0.8
 11
1939.577327
 21
177.056761
 31
0.0
100
AcDbText
 73
     1
  0
LINE
  5
30D3
100
AcDbEntity
  8
0
100
AcDbLine
 10
1833.35724
 20
284.682005
 30
0.0
 11
1833.35724
 21
347.182005
 31
0.0
  0
CIRCLE
  5
30D5
100
AcDbEntity
  8
0
100
AcDbCircle
 10
1682.812695
 20
284.682005
 30
0.0
 40
62.5
  0
CIRCLE
  5
30D6
100
AcDbEntity
  8
0
100
AcDbCircle
 10
1383.381091
 20
284.682005
 30
0.0
 40
50.0
  0
ARC
  5
30D7
100
AcDbEntity
  8
0
100
AcDbCircle
 10
1383.381091
 20
265.694755
 30
0.0
 40
51.88725
100
AcDbArc
 50
163.7067
 51
16.2933
  0
LINE
  5
30D8
100
AcDbEntity
  8
0
100
AcDbLine
 10
1224.581062
 20
216.903635
 30
0.0
 11
1244.797418
 21
237.118977
 31
0.0
  0
LINE
  5
30E5
100
AcDbEntity
  8
0
100
AcDbLine
 10
1249.460525
 20
299.682005
 30
0.0
 11
1249.460525
 21
269.682005
 31
0.0
  0
LINE
  5
30E6
100
AcDbEntity
  8
0
100
AcDbLine
 10
1248.019439
 20
244.897347
 30
0.0
 11
1248.019439
 21
303.682005
 31
0.0
  0
LINE
  5
30F1
100
AcDbEntity
  8
0
100
AcDbLine
 10
1249.460525
 20
269.682005
 30
0.0
 11
1248.019439
 21
268.344441
 31
0.0
  0
LINE
  5
30F3
100
AcDbEntity
  8
0
100
AcDbLine
 10
1245.413439
 20
311.817005
 30
0.0
 11
1243.919439
 21
313.581005
 31
0.0
  0
LINE
  5
30F5
100
AcDbEntity
  8
0
100
AcDbLine
 10
1249.460525
 20
299.682005
 30
0.0
 11
1248.019439
 21
301.019569
 31
0.0
  0
LINE
  5
3101
100
AcDbEntity
  8
0
100
AcDbLine
 10
1301.219439
 20
284.682005
 30
0.0
 11
1301.219439
 21
334.682005
 31
0.0
  0
LINE
  5
3103
100
AcDbEntity
  8
0
100
AcDbLine
 10
1301.219439
 20
234.682005
 30
0.0
 11
1301.219439
 21
284.682005
 31
0.0
  0
ELLIPSE
  5
310E
100
AcDbEntity
  8
0
100
AcDbEllipse
 10
1383.381091
 20
227.021755
 30
0.0
 11
-15.73525959711332
 21
0.0
 31
0.0
210
0.0
220
0.0
230
1.0
 40
0.759965
 41
5.455391984461667
 42
10.25257128348729
  0
CIRCLE
  5
310F
100
AcDbEntity
  8
0
100
AcDbCircle
 10
1356.864586
 20
258.165501
 30
0.0
 40
6.0
  0
CIRCLE
  5
3110
100
AcDbEntity
  8
0
100
AcDbCircle
 10
1409.897595
 20
258.165501
 30
0.0
 40
6.0
  0
CIRCLE
  5
3111
100
AcDbEntity
  8
0
100
AcDbCircle
 10
1356.864586
 20
311.198509
 30
0.0
 40
6.0
  0
CIRCLE
  5
3112
100
AcDbEntity
  8
0
100
AcDbCircle
 10
1409.897595
 20
311.198509
 30
0.0
 40
6.0
  0
ARC
  5
3113
100
AcDbEntity
  8
0
100
AcDbCircle
 10
1682.812695
 20
265.694755
 30
0.0
 40
51.88725
100
AcDbArc
 50
205.666736
 51
334.333264
  0
ELLIPSE
  5
3114
100
AcDbEntity
  8
0
100
AcDbEllipse
 10
1682.812695
 20
227.021755
 30
0.0
 11
15.73525959711332
 21
0.0
 31
0.0
210
0.0
220
0.0
230
-1.0
 40
0.759965
 41
0.2493560043050162
 42
2.892236649284777
  0
CIRCLE
  5
3115
100
AcDbEntity
  8
0
100
AcDbCircle
 10
1650.99289
 20
252.8622
 30
0.0
 40
7.5
  0
CIRCLE
  5
3116
100
AcDbEntity
  8
0
100
AcDbCircle
 10
1650.99289
 20
316.50181
 30
0.0
 40
7.5
  0
CIRCLE
  5
3117
100
AcDbEntity
  8
0
100
AcDbCircle
 10
1714.6325
 20
252.8622
 30
0.0
 40
7.5
  0
CIRCLE
  5
3118
100
AcDbEntity
  8
0
100
AcDbCircle
 10
1714.6325
 20
316.50181
 30
0.0
 40
7.5
  0
LINE
  5
3119
100
AcDbEntity
  8
0
100
AcDbLine
 10
1833.35724
 20
222.182005
 30
0.0
 11
1833.35724
 21
284.682005
 31
0.0
  0
LINE
  5
311A
100
AcDbEntity
  8
0
100
AcDbLine
 10
1833.35724
 20
284.682005
 30
0.0
 11
1833.35724
 21
222.182005
 31
0.0
  0
LINE
  5
311B
100
AcDbEntity
  8
0
100
AcDbLine
 10
1899.77926
 20
237.118977
 30
0.0
 11
1919.995617
 21
216.903635
 31
0.0
  0
LINE
  5
312A
100
AcDbEntity
  8
0
100
AcDbLine
 10
1775.83059
 20
284.796921
 30
0.0
 11
1766.377215
 21
294.250296
 31
0.0
  0
LINE
  5
312B
100
AcDbEntity
  8
0
100
AcDbLine
 10
1813.439902
 20
294.250296
 30
0.0
 11
1823.099152
 21
284.796921
 31
0.0
  0
LINE
  5
312D
100
AcDbEntity
  8
0
100
AcDbLine
 10
1823.099152
 20
284.796921
 30
0.0
 11
1775.83059
 21
284.796921
 31
0.0
  0
LINE
  5
312F
100
AcDbEntity
  8
0
100
AcDbLine
 10
1766.377215
 20
294.250296
 30
0.0
 11
1794.73734
 21
294.250296
 31
0.0
  0
LINE
  5
3130
100
AcDbEntity
  8
0
100
AcDbLine
 10
1799.465715
 20
289.523608
 30
0.0
 11
1813.439902
 21
289.523608
 31
0.0
  0
LINE
  5
3131
100
AcDbEntity
  8
0
100
AcDbLine
 10
1794.73734
 20
294.250296
 30
0.0
 11
1799.465715
 21
289.523608
 31
0.0
  0
LINE
  5
3132
100
AcDbEntity
  8
0
100
AcDbLine
 10
1813.439902
 20
289.523608
 30
0.0
 11
1813.439902
 21
294.250296
 31
0.0
  0
LINE
  5
3134
100
AcDbEntity
  8
0
100
AcDbLine
 10
1893.650697
 20
301.682005
 30
0.0
 11
1893.650697
 21
267.682005
 31
0.0
  0
LINE
  5
3135
100
AcDbEntity
  8
0
100
AcDbLine
 10
1896.55724
 20
303.682005
 30
0.0
 11
1896.55724
 21
244.897347
 31
0.0
  0
ARC
  5
3140
100
AcDbEntity
  8
0
100
AcDbCircle
 10
1900.174632
 20
273.093497
 30
0.0
 40
8.4762
100
AcDbArc
 50
219.675126
 51
244.737221
  0
ARC
  5
3143
100
AcDbEntity
  8
0
100
AcDbCircle
 10
1900.174632
 20
296.270513
 30
0.0
 40
8.4762
100
AcDbArc
 50
115.245402
 51
140.324874
  0
LINE
  5
314D
100
AcDbEntity
  8
0
100
AcDbLine
 10
1248.019439
 20
455.222368
 30
0.0
 11
1248.019439
 21
487.897496
 31
0.0
  0
LINE
  5
314E
100
AcDbEntity
  8
0
100
AcDbLine
 10
1249.460525
 20
486.559932
 30
0.0
 11
1249.460525
 21
456.559932
 31
0.0
  0
LINE
  5
3154
100
AcDbEntity
  8
0
100
AcDbLine
 10
1301.219439
 20
421.559932
 30
0.0
 11
1301.219439
 21
471.559932
 31
0.0
  0
ARC
  5
3156
100
AcDbEntity
  8
0
100
AcDbCircle
 10
1148.188161
 20
473.399425
 30
0.0
 40
101.472604
100
AcDbArc
 50
333.207714
 51
349.680756
  0
ARC
  5
3157
100
AcDbEntity
  8
0
100
AcDbCircle
 10
1225.448559
 20
434.559932
 30
0.0
 40
15.0
100
AcDbArc
 50
270.0
 51
332.612765
  0
LINE
  5
3158
100
AcDbEntity
  8
0
100
AcDbLine
 10
1249.460525
 20
456.559932
 30
0.0
 11
1248.019439
 21
455.222368
 31
0.0
  0
ARC
  5
315F
100
AcDbEntity
  8
0
100
AcDbCircle
 10
1225.448559
 20
508.559932
 30
0.0
 40
15.0
100
AcDbArc
 50
27.387235
 51
90.0
  0
ARC
  5
3160
100
AcDbEntity
  8
0
100
AcDbCircle
 10
1148.72979
 20
469.902251
 30
0.0
 40
100.907201
100
AcDbArc
 50
10.27277
 51
26.83876
  0
LINE
  5
3161
100
AcDbEntity
  8
0
100
AcDbLine
 10
1249.460525
 20
486.559932
 30
0.0
 11
1248.019439
 21
487.897496
 31
0.0
  0
LINE
  5
3162
100
AcDbEntity
  8
0
100
AcDbLine
 10
1301.219439
 20
471.559932
 30
0.0
 11
1301.219439
 21
521.559932
 31
0.0
  0
LINE
  5
3168
100
AcDbEntity
  8
0
100
AcDbLine
 10
1371.767751
 20
692.77091
 30
0.0
 11
1343.407626
 21
692.77091
 31
0.0
  0
LINE
  5
3169
100
AcDbEntity
  8
0
100
AcDbLine
 10
1362.314376
 20
683.317535
 30
0.0
 11
1371.767751
 21
692.77091
 31
0.0
  0
LINE
  5
316A
100
AcDbEntity
  8
0
100
AcDbLine
 10
1324.705063
 20
692.77091
 30
0.0
 11
1315.045813
 21
683.317535
 31
0.0
  0
LINE
  5
316B
100
AcDbEntity
  8
0
100
AcDbLine
 10
1324.705063
 20
688.044222
 30
0.0
 11
1324.705063
 21
692.77091
 31
0.0
  0
LINE
  5
316C
100
AcDbEntity
  8
0
100
AcDbLine
 10
1343.407626
 20
692.77091
 30
0.0
 11
1338.679251
 21
688.044222
 31
0.0
  0
LINE
  5
316F
100
AcDbEntity
  8
0
100
AcDbLine
 10
1249.460525
 20
697.207427
 30
0.0
 11
1249.460525
 21
667.207427
 31
0.0
  0
LINE
  5
3173
100
AcDbEntity
  8
0
100
AcDbLine
 10
1248.019439
 20
642.422768
 30
0.0
 11
1248.019439
 21
701.207427
 31
0.0
  0
LINE
  5
3174
100
AcDbEntity
  8
0
100
AcDbLine
 10
1301.219439
 20
682.207427
 30
0.0
 11
1301.219439
 21
732.207427
 31
0.0
  0
LINE
  5
3176
100
AcDbEntity
  8
0
100
AcDbLine
 10
1224.581062
 20
614.429057
 30
0.0
 11
1244.797418
 21
634.644399
 31
0.0
  0
LINE
  5
318B
100
AcDbEntity
  8
0
100
AcDbLine
 10
1249.460525
 20
667.207427
 30
0.0
 11
1248.019439
 21
665.869863
 31
0.0
  0
LINE
  5
318D
100
AcDbEntity
  8
0
100
AcDbLine
 10
1301.219439
 20
632.207427
 30
0.0
 11
1301.219439
 21
682.207427
 31
0.0
  0
LINE
  5
3192
100
AcDbEntity
  8
0
100
AcDbLine
 10
1315.045813
 20
683.317535
 30
0.0
 11
1362.314376
 21
683.317535
 31
0.0
  0
LINE
  5
3193
100
AcDbEntity
  8
0
100
AcDbLine
 10
1338.679251
 20
688.044222
 30
0.0
 11
1324.705063
 21
688.044222
 31
0.0
  0
LINE
  5
319F
100
AcDbEntity
  8
0
100
AcDbLine
 10
1249.460525
 20
697.207427
 30
0.0
 11
1248.019439
 21
698.544991
 31
0.0
  0
LINE
  5
31A5
100
AcDbEntity
  8
0
100
AcDbLine
 10
1759.830884
 20
479.369545
 30
0.0
 11
1788.191009
 21
479.369545
 31
0.0
  0
LINE
  5
31A6
100
AcDbEntity
  8
0
100
AcDbLine
 10
1769.284259
 20
469.91617
 30
0.0
 11
1759.830884
 21
479.369545
 31
0.0
  0
LINE
  5
31A8
100
AcDbEntity
  8
0
100
AcDbLine
 10
1893.650697
 20
488.559932
 30
0.0
 11
1893.650697
 21
454.559932
 31
0.0
  0
LINE
  5
31A9
100
AcDbEntity
  8
0
100
AcDbLine
 10
1896.55724
 20
490.559932
 30
0.0
 11
1896.55724
 21
452.305888
 31
0.0
  0
LINE
  5
31AB
100
AcDbEntity
  8
0
100
AcDbLine
 10
1833.35724
 20
409.059932
 30
0.0
 11
1833.35724
 21
471.559932
 31
0.0
  0
LINE
  5
31AC
100
AcDbEntity
  8
0
100
AcDbLine
 10
1833.35724
 20
471.559932
 30
0.0
 11
1833.35724
 21
409.059932
 31
0.0
  0
ARC
  5
31B1
100
AcDbEntity
  8
0
100
AcDbCircle
 10
2049.597015
 20
495.698621
 30
0.0
 40
159.072632
100
AcDbArc
 50
195.830097
 51
205.323021
  0
ARC
  5
31B2
100
AcDbEntity
  8
0
100
AcDbCircle
 10
1900.174632
 20
459.971424
 30
0.0
 40
8.4762
100
AcDbArc
 50
219.675126
 51
244.737221
  0
ARC
  5
31B3
100
AcDbEntity
  8
0
100
AcDbCircle
 10
1919.128319
 20
434.559932
 30
0.0
 40
15.0
100
AcDbArc
 50
207.387235
 51
270.0
  0
LINE
  5
31B5
100
AcDbEntity
  8
0
100
AcDbLine
 10
1833.35724
 20
471.559932
 30
0.0
 11
1833.35724
 21
534.059932
 31
0.0
  0
LINE
  5
31B6
100
AcDbEntity
  8
0
100
AcDbLine
 10
1816.552822
 20
469.91617
 30
0.0
 11
1769.284259
 21
469.91617
 31
0.0
  0
LINE
  5
31B7
100
AcDbEntity
  8
0
100
AcDbLine
 10
1792.919384
 20
474.642858
 30
0.0
 11
1806.893572
 21
474.642858
 31
0.0
  0
LINE
  5
31B8
100
AcDbEntity
  8
0
100
AcDbLine
 10
1788.191009
 20
479.369545
 30
0.0
 11
1792.919384
 21
474.642858
 31
0.0
  0
LINE
  5
31B9
100
AcDbEntity
  8
0
100
AcDbLine
 10
1806.893572
 20
479.369545
 30
0.0
 11
1816.552822
 21
469.91617
 31
0.0
  0
LINE
  5
31BA
100
AcDbEntity
  8
0
100
AcDbLine
 10
1806.893572
 20
474.642858
 30
0.0
 11
1806.893572
 21
479.369545
 31
0.0
  0
ARC
  5
31BD
100
AcDbEntity
  8
0
100
AcDbCircle
 10
1919.128319
 20
508.559932
 30
0.0
 40
15.0
100
AcDbArc
 50
90.0
 51
152.612765
  0
ARC
  5
31BE
100
AcDbEntity
  8
0
100
AcDbCircle
 10
2040.139508
 20
451.376869
 30
0.0
 40
148.832725
100
AcDbArc
 50
154.496181
 51
164.73587
  0
ARC
  5
31BF
100
AcDbEntity
  8
0
100
AcDbCircle
 10
1900.174632
 20
483.14844
 30
0.0
 40
8.4762
100
AcDbArc
 50
114.956242
 51
140.324874
  0
LINE
  5
31C0
100
AcDbEntity
  8
0
100
AcDbLine
 10
1896.598303
 20
490.833219
 30
0.0
 11
1896.55724
 21
490.559932
 31
0.0
  0
LINE
  5
31C1
100
AcDbEntity
  8
0
100
AcDbLine
 10
1833.35724
 20
682.207427
 30
0.0
 11
1833.35724
 21
744.707427
 31
0.0
  0
LINE
  5
31C3
100
AcDbEntity
  8
0
100
AcDbLine
 10
1893.650697
 20
699.207427
 30
0.0
 11
1893.650697
 21
665.207427
 31
0.0
  0
LINE
  5
31C4
100
AcDbEntity
  8
0
100
AcDbLine
 10
1896.55724
 20
701.207427
 30
0.0
 11
1896.55724
 21
642.422768
 31
0.0
  0
LINE
  5
31C7
100
AcDbEntity
  8
0
100
AcDbLine
 10
1833.35724
 20
619.707427
 30
0.0
 11
1833.35724
 21
682.207427
 31
0.0
  0
LINE
  5
31C8
100
AcDbEntity
  8
0
100
AcDbLine
 10
1833.35724
 20
682.207427
 30
0.0
 11
1833.35724
 21
619.707427
 31
0.0
  0
LINE
  5
31CB
100
AcDbEntity
  8
0
100
AcDbLine
 10
1899.77926
 20
634.644399
 30
0.0
 11
1919.995617
 21
614.429057
 31
0.0
  0
ARC
  5
31E1
100
AcDbEntity
  8
0
100
AcDbCircle
 10
1900.174632
 20
670.618919
 30
0.0
 40
8.4762
100
AcDbArc
 50
219.675126
 51
244.737221
  0
ARC
  5
31E6
100
AcDbEntity
  8
0
100
AcDbCircle
 10
1900.174632
 20
693.795935
 30
0.0
 40
8.4762
100
AcDbArc
 50
115.245402
 51
140.324874
  0
LINE
  5
31F1
100
AcDbEntity
  8
0
100
AcDbLine
 10
2075.35724
 20
284.682005
 30
0.0
 11
2075.35724
 21
347.182005
 31
0.0
  0
CIRCLE
  5
31F3
100
AcDbEntity
  8
0
100
AcDbCircle
 10
2170.028419
 20
284.682005
 30
0.0
 40
62.5
  0
LINE
  5
31F4
100
AcDbEntity
  8
0
100
AcDbLine
 10
2075.35724
 20
284.682005
 30
0.0
 11
2075.35724
 21
222.182005
 31
0.0
  0
LINE
  5
31F5
100
AcDbEntity
  8
0
100
AcDbLine
 10
2075.35724
 20
222.182005
 30
0.0
 11
2075.35724
 21
284.682005
 31
0.0
  0
LINE
  5
31F6
100
AcDbEntity
  8
0
100
AcDbLine
 10
1988.718863
 20
216.903635
 30
0.0
 11
2008.935219
 21
237.118977
 31
0.0
  0
LINE
  5
3204
100
AcDbEntity
  8
0
100
AcDbLine
 10
2015.063783
 20
301.682005
 30
0.0
 11
2015.063783
 21
267.682005
 31
0.0
  0
LINE
  5
3205
100
AcDbEntity
  8
0
100
AcDbLine
 10
2012.15724
 20
244.897347
 30
0.0
 11
2012.15724
 21
303.682005
 31
0.0
  0
ARC
  5
3210
100
AcDbEntity
  8
0
100
AcDbCircle
 10
2008.539848
 20
273.093497
 30
0.0
 40
8.4762
100
AcDbArc
 50
295.262779
 51
320.324874
  0
ARC
  5
3212
100
AcDbEntity
  8
0
100
AcDbCircle
 10
2008.539848
 20
296.270513
 30
0.0
 40
8.4762
100
AcDbArc
 50
39.675126
 51
64.754598
  0
ARC
  5
321E
100
AcDbEntity
  8
0
100
AcDbCircle
 10
2170.028419
 20
265.694755
 30
0.0
 40
51.88725
100
AcDbArc
 50
205.666736
 51
334.333264
  0
ELLIPSE
  5
321F
100
AcDbEntity
  8
0
100
AcDbEllipse
 10
2170.028419
 20
227.021755
 30
0.0
 11
-15.73525959711332
 21
0.0
 31
0.0
210
0.0
220
0.0
230
1.0
 40
0.759965
 41
0.2493560043050162
 42
2.892236649284777
  0
CIRCLE
  5
3220
100
AcDbEntity
  8
0
100
AcDbCircle
 10
2138.208614
 20
252.8622
 30
0.0
 40
7.5
  0
CIRCLE
  5
3221
100
AcDbEntity
  8
0
100
AcDbCircle
 10
2138.208614
 20
316.50181
 30
0.0
 40
7.5
  0
CIRCLE
  5
3222
100
AcDbEntity
  8
0
100
AcDbCircle
 10
2201.848224
 20
252.8622
 30
0.0
 40
7.5
  0
CIRCLE
  5
3223
100
AcDbEntity
  8
0
100
AcDbCircle
 10
2201.848224
 20
316.50181
 30
0.0
 40
7.5
  0
LINE
  5
3225
100
AcDbEntity
  8
0
100
AcDbLine
 10
2075.35724
 20
471.559932
 30
0.0
 11
2075.35724
 21
409.059932
 31
0.0
  0
LINE
  5
3226
100
AcDbEntity
  8
0
100
AcDbLine
 10
2075.35724
 20
409.059932
 30
0.0
 11
2075.35724
 21
471.559932
 31
0.0
  0
LINE
  5
3228
100
AcDbEntity
  8
0
100
AcDbLine
 10
2015.063783
 20
488.559932
 30
0.0
 11
2015.063783
 21
454.559932
 31
0.0
  0
LINE
  5
3229
100
AcDbEntity
  8
0
100
AcDbLine
 10
2012.15724
 20
452.305888
 30
0.0
 11
2012.15724
 21
490.559932
 31
0.0
  0
ARC
  5
322B
100
AcDbEntity
  8
0
100
AcDbCircle
 10
1857.494648
 20
496.30666
 30
0.0
 40
160.79983
100
AcDbArc
 50
334.728497
 51
344.119199
  0
ARC
  5
322C
100
AcDbEntity
  8
0
100
AcDbCircle
 10
1989.58636
 20
434.559932
 30
0.0
 40
15.0
100
AcDbArc
 50
270.0
 51
332.612765
  0
ARC
  5
322D
100
AcDbEntity
  8
0
100
AcDbCircle
 10
2008.539848
 20
459.971424
 30
0.0
 40
8.4762
100
AcDbArc
 50
295.262779
 51
320.324874
  0
ARC
  5
3232
100
AcDbEntity
  8
0
100
AcDbCircle
 10
1989.58636
 20
508.559932
 30
0.0
 40
15.0
100
AcDbArc
 50
27.387235
 51
90.0
  0
ARC
  5
3233
100
AcDbEntity
  8
0
100
AcDbCircle
 10
1868.600979
 20
451.387611
 30
0.0
 40
148.804807
100
AcDbArc
 50
15.262776
 51
25.504364
  0
ARC
  5
3234
100
AcDbEntity
  8
0
100
AcDbCircle
 10
2008.539848
 20
483.14844
 30
0.0
 40
8.4762
100
AcDbArc
 50
39.675126
 51
65.043758
  0
LINE
  5
3235
100
AcDbEntity
  8
0
100
AcDbLine
 10
2012.15724
 20
490.559932
 30
0.0
 11
2012.138041
 21
490.823006
 31
0.0
  0
LINE
  5
3236
100
AcDbEntity
  8
0
100
AcDbLine
 10
2075.35724
 20
471.559932
 30
0.0
 11
2075.35724
 21
534.059932
 31
0.0
  0
LINE
  5
3239
100
AcDbEntity
  8
0
100
AcDbLine
 10
2090.052402
 20
685.888645
 30
0.0
 11
2137.320965
 21
685.888645
 31
0.0
  0
LINE
  5
323A
100
AcDbEntity
  8
0
100
AcDbLine
 10
2118.414215
 20
695.34202
 30
0.0
 11
2113.68584
 21
690.615333
 31
0.0
  0
LINE
  5
323B
100
AcDbEntity
  8
0
100
AcDbLine
 10
2099.711652
 20
695.34202
 30
0.0
 11
2090.052402
 21
685.888645
 31
0.0
  0
LINE
  5
323C
100
AcDbEntity
  8
0
100
AcDbLine
 10
2099.711652
 20
690.615333
 30
0.0
 11
2099.711652
 21
695.34202
 31
0.0
  0
LINE
  5
323E
100
AcDbEntity
  8
0
100
AcDbLine
 10
2075.35724
 20
682.207427
 30
0.0
 11
2075.35724
 21
744.707427
 31
0.0
  0
LINE
  5
323F
100
AcDbEntity
  8
0
100
AcDbLine
 10
2015.063783
 20
699.207427
 30
0.0
 11
2015.063783
 21
665.207427
 31
0.0
  0
LINE
  5
3241
100
AcDbEntity
  8
0
100
AcDbLine
 10
2012.15724
 20
642.422768
 30
0.0
 11
2012.15724
 21
701.207427
 31
0.0
  0
LINE
  5
3243
100
AcDbEntity
  8
0
100
AcDbLine
 10
1988.718863
 20
614.429057
 30
0.0
 11
2008.935219
 21
634.644399
 31
0.0
  0
ARC
  5
3258
100
AcDbEntity
  8
0
100
AcDbCircle
 10
2008.539848
 20
670.618919
 30
0.0
 40
8.4762
100
AcDbArc
 50
295.262779
 51
320.324874
  0
LINE
  5
3259
100
AcDbEntity
  8
0
100
AcDbLine
 10
2075.35724
 20
682.207427
 30
0.0
 11
2075.35724
 21
619.707427
 31
0.0
  0
LINE
  5
325A
100
AcDbEntity
  8
0
100
AcDbLine
 10
2075.35724
 20
619.707427
 30
0.0
 11
2075.35724
 21
682.207427
 31
0.0
  0
LINE
  5
325D
100
AcDbEntity
  8
0
100
AcDbLine
 10
2113.68584
 20
690.615333
 30
0.0
 11
2099.711652
 21
690.615333
 31
0.0
  0
ARC
  5
3262
100
AcDbEntity
  8
0
100
AcDbCircle
 10
2008.539848
 20
693.795935
 30
0.0
 40
8.4762
100
AcDbArc
 50
39.675126
 51
64.754598
  0
LINE
  5
326B
100
AcDbEntity
  8
0
100
AcDbLine
 10
2137.320965
 20
685.888645
 30
0.0
 11
2146.77434
 21
695.34202
 31
0.0
  0
LINE
  5
326C
100
AcDbEntity
  8
0
100
AcDbLine
 10
2146.77434
 20
695.34202
 30
0.0
 11
2118.414215
 21
695.34202
 31
0.0
  0
TEXT
  5
326D
100
AcDbEntity
  8
0
100
AcDbText
 10
1969.210364
 20
899.672029
 30
0.0
 40
20.0
  1
25A
 41
0.8
 11
1969.210364
 21
899.672029
 31
0.0
100
AcDbText
 73
     1
  0
LINE
  5
326E
100
AcDbEntity
  8
0
100
AcDbLine
 10
2027.041998
 20
1442.964916
 30
0.0
 11
1939.441998
 21
1442.964916
 31
0.0
  0
LINE
  5
326F
100
AcDbEntity
  8
0
100
AcDbLine
 10
2009.825642
 20
1338.964916
 30
0.0
 11
1956.658355
 21
1338.964916
 31
0.0
  0
LINE
  5
3270
100
AcDbEntity
  8
0
100
AcDbLine
 10
2018.471119
 20
1251.317421
 30
0.0
 11
1948.013078
 21
1251.317421
 31
0.0
  0
LINE
  5
3271
100
AcDbEntity
  8
0
100
AcDbLine
 10
2018.471119
 20
1147.317421
 30
0.0
 11
1948.013078
 21
1147.317421
 31
0.0
  0
LINE
  5
3272
100
AcDbEntity
  8
0
100
AcDbLine
 10
2027.041998
 20
1045.439495
 30
0.0
 11
1939.441998
 21
1045.439495
 31
0.0
  0
LINE
  5
3273
100
AcDbEntity
  8
0
100
AcDbLine
 10
2009.825642
 20
941.439495
 30
0.0
 11
1956.658355
 21
941.439495
 31
0.0
  0
LINE
  5
3275
100
AcDbEntity
  8
0
100
AcDbLine
 10
1252.044139
 20
1362.201863
 30
0.0
 11
1231.827783
 21
1341.986522
 31
0.0
  0
LINE
  5
3276
100
AcDbEntity
  8
0
100
AcDbLine
 10
1142.888181
 20
1362.201863
 30
0.0
 11
1163.104537
 21
1341.986522
 31
0.0
  0
LINE
  5
3277
100
AcDbEntity
  8
0
100
AcDbLine
 10
1270.485498
 20
1030.33947
 30
0.0
 11
1285.18165
 21
1030.33947
 31
0.0
  0
LINE
  5
3278
100
AcDbEntity
  8
0
100
AcDbLine
 10
1270.485498
 20
994.33947
 30
0.0
 11
1285.18165
 21
994.33947
 31
0.0
  0
LINE
  5
3279
100
AcDbEntity
  8
0
100
AcDbLine
 10
1270.485498
 20
1012.33947
 30
0.0
 11
1285.18165
 21
1012.33947
 31
0.0
  0
ARC
  5
327A
100
AcDbEntity
  8
0
100
AcDbCircle
 10
1289.058987
 20
1003.33947
 30
0.0
 40
20.63915
100
AcDbArc
 50
154.146953
 51
205.853047
  0
LINE
  5
327B
100
AcDbEntity
  8
0
100
AcDbLine
 10
1255.26616
 20
1031.23947
 30
0.0
 11
1255.26616
 21
972.454812
 31
0.0
  0
LINE
  5
327C
100
AcDbEntity
  8
0
100
AcDbLine
 10
1256.140552
 20
1027.33947
 30
0.0
 11
1256.140552
 21
997.33947
 31
0.0
  0
LINE
  5
327D
100
AcDbEntity
  8
0
100
AcDbLine
 10
1260.46626
 20
997.33947
 30
0.0
 11
1260.46626
 21
1027.33947
 31
0.0
  0
ARC
  5
327E
100
AcDbEntity
  8
0
100
AcDbCircle
 10
1105.873533
 20
1003.33947
 30
0.0
 40
20.63915
100
AcDbArc
 50
334.146953
 51
25.853047
  0
LINE
  5
327F
100
AcDbEntity
  8
0
100
AcDbLine
 10
1139.66616
 20
1031.23947
 30
0.0
 11
1139.66616
 21
972.454812
 31
0.0
  0
LINE
  5
3280
100
AcDbEntity
  8
0
100
AcDbLine
 10
1134.46626
 20
997.33947
 30
0.0
 11
1134.46626
 21
1027.33947
 31
0.0
  0
LINE
  5
3281
100
AcDbEntity
  8
0
100
AcDbLine
 10
1138.791968
 20
1027.33947
 30
0.0
 11
1138.791968
 21
997.33947
 31
0.0
  0
TEXT
  5
3282
100
AcDbEntity
  8
0
100
AcDbText
 10
1190.158388
 20
912.784694
 30
0.0
 40
20.0
  1
20A
 41
0.8
 11
1190.158388
 21
912.784694
 31
0.0
100
AcDbText
 73
     1
  0
LINE
  5
3283
100
AcDbEntity
  8
0
100
AcDbLine
 10
1224.049803
 20
941.23947
 30
0.0
 11
1170.882517
 21
941.23947
 31
0.0
  0
LINE
  5
3284
100
AcDbEntity
  8
0
100
AcDbLine
 10
1142.888181
 20
964.676442
 30
0.0
 11
1163.104537
 21
944.4611
 31
0.0
  0
LINE
  5
328A
100
AcDbEntity
  8
0
100
AcDbLine
 10
1138.791968
 20
997.33947
 30
0.0
 11
1134.46626
 21
997.33947
 31
0.0
  0
LINE
  5
328B
100
AcDbEntity
  8
0
100
AcDbLine
 10
1134.46626
 20
997.33947
 30
0.0
 11
1124.447022
 21
994.33947
 31
0.0
  0
LINE
  5
3291
100
AcDbEntity
  8
0
100
AcDbLine
 10
1139.66616
 20
996.446732
 30
0.0
 11
1138.791968
 21
997.33947
 31
0.0
  0
LINE
  5
329C
100
AcDbEntity
  8
0
100
AcDbLine
 10
1252.044139
 20
964.676442
 30
0.0
 11
1231.827783
 21
944.4611
 31
0.0
  0
LINE
  5
32AD
100
AcDbEntity
  8
0
100
AcDbLine
 10
1256.140552
 20
997.33947
 30
0.0
 11
1260.46626
 21
997.33947
 31
0.0
  0
LINE
  5
32B3
100
AcDbEntity
  8
0
100
AcDbLine
 10
1255.26636
 20
996.446732
 30
0.0
 11
1256.140552
 21
997.33947
 31
0.0
  0
LINE
  5
32B4
100
AcDbEntity
  8
0
100
AcDbLine
 10
1260.46626
 20
997.33947
 30
0.0
 11
1270.485498
 21
994.33947
 31
0.0
  0
LINE
  5
32B5
100
AcDbEntity
  8
0
100
AcDbLine
 10
1241.26616
 20
1045.23947
 30
0.0
 11
1153.66616
 21
1045.23947
 31
0.0
  0
ARC
  5
32B6
100
AcDbEntity
  8
0
100
AcDbCircle
 10
1105.873533
 20
1021.33947
 30
0.0
 40
20.63915
100
AcDbArc
 50
334.146953
 51
25.853047
  0
LINE
  5
32B7
100
AcDbEntity
  8
0
100
AcDbLine
 10
1138.791968
 20
1027.33947
 30
0.0
 11
1134.46626
 21
1027.33947
 31
0.0
  0
LINE
  5
32B8
100
AcDbEntity
  8
0
100
AcDbLine
 10
1134.46626
 20
1027.33947
 30
0.0
 11
1124.447022
 21
1030.33947
 31
0.0
  0
LINE
  5
32C1
100
AcDbEntity
  8
0
100
AcDbLine
 10
1139.66616
 20
1028.232208
 30
0.0
 11
1138.791968
 21
1027.33947
 31
0.0
  0
LINE
  5
32C4
100
AcDbEntity
  8
0
100
AcDbLine
 10
1203.58616
 20
1045.23947
 30
0.0
 11
1204.60616
 21
1045.23947
 31
0.0
  0
ARC
  5
32C5
100
AcDbEntity
  8
0
100
AcDbCircle
 10
1289.058987
 20
1021.33947
 30
0.0
 40
20.63915
100
AcDbArc
 50
154.146953
 51
205.853047
  0
LINE
  5
32C6
100
AcDbEntity
  8
0
100
AcDbLine
 10
1256.140552
 20
1027.33947
 30
0.0
 11
1260.46626
 21
1027.33947
 31
0.0
  0
LINE
  5
32D0
100
AcDbEntity
  8
0
100
AcDbLine
 10
1255.26636
 20
1028.232208
 30
0.0
 11
1256.140552
 21
1027.33947
 31
0.0
  0
LINE
  5
32D3
100
AcDbEntity
  8
0
100
AcDbLine
 10
1260.46626
 20
1027.33947
 30
0.0
 11
1270.485498
 21
1030.33947
 31
0.0
  0
CIRCLE
  5
32D4
100
AcDbEntity
  8
0
100
AcDbCircle
 10
1370.951626
 20
1012.33947
 30
0.0
 40
17.5
  0
POLYLINE
  5
32D5
100
AcDbEntity
  8
0
100
AcDb2dPolyline
 66
     1
 10
0.0
 20
0.0
 30
0.0
 70
     1
  0
VERTEX
  5
38C9
100
AcDbEntity
  8
0
100
AcDbVertex
100
AcDb2dVertex
 10
1360.559321
 20
1030.33947
 30
0.0
  0
VERTEX
  5
38CA
100
AcDbEntity
  8
0
100
AcDbVertex
100
AcDb2dVertex
 10
1350.167016
 20
1012.33947
 30
0.0
  0
VERTEX
  5
38CB
100
AcDbEntity
  8
0
100
AcDbVertex
100
AcDb2dVertex
 10
1360.559321
 20
994.33947
 30
0.0
  0
VERTEX
  5
38CC
100
AcDbEntity
  8
0
100
AcDbVertex
100
AcDb2dVertex
 10
1381.343931
 20
994.33947
 30
0.0
  0
VERTEX
  5
38CD
100
AcDbEntity
  8
0
100
AcDbVertex
100
AcDb2dVertex
 10
1391.736235
 20
1012.33947
 30
0.0
  0
VERTEX
  5
38CE
100
AcDbEntity
  8
0
100
AcDbVertex
100
AcDb2dVertex
 10
1381.343931
 20
1030.33947
 30
0.0
  0
SEQEND
  5
38CF
100
AcDbEntity
  8
0
  0
LINE
  5
32D6
100
AcDbEntity
  8
0
100
AcDbLine
 10
1288.46626
 20
994.83947
 30
0.0
 11
1288.46626
 21
1012.33947
 31
0.0
  0
ARC
  5
32D7
100
AcDbEntity
  8
0
100
AcDbCircle
 10
1266.608161
 20
1003.33947
 30
0.0
 40
20.63915
100
AcDbArc
 50
334.146953
 51
25.853047
  0
CIRCLE
  5
32D8
100
AcDbEntity
  8
0
100
AcDbCircle
 10
1370.951626
 20
993.35222
 30
0.0
 40
51.88725
  0
ELLIPSE
  5
32D9
100
AcDbEntity
  8
0
100
AcDbEllipse
 10
1370.951626
 20
954.67922
 30
0.0
 11
-15.73525959711332
 21
0.0
 31
0.0
210
0.0
220
0.0
230
1.0
 40
0.759965
 41
0.0
 42
6.283185307179586
  0
LINE
  5
32DA
100
AcDbEntity
  8
0
100
AcDbLine
 10
1285.18165
 20
994.33947
 30
0.0
 11
1288.46626
 21
994.83947
 31
0.0
  0
LINE
  5
32DB
100
AcDbEntity
  8
0
100
AcDbLine
 10
1288.46626
 20
1012.33947
 30
0.0
 11
1288.46626
 21
1029.83947
 31
0.0
  0
ARC
  5
32DC
100
AcDbEntity
  8
0
100
AcDbCircle
 10
1266.608161
 20
1021.33947
 30
0.0
 40
20.63915
100
AcDbArc
 50
334.146953
 51
25.853047
  0
LINE
  5
32DD
100
AcDbEntity
  8
0
100
AcDbLine
 10
1285.18165
 20
1030.33947
 30
0.0
 11
1288.46626
 21
1029.83947
 31
0.0
  0
LINE
  5
32DE
100
AcDbEntity
  8
0
100
AcDbLine
 10
1270.485498
 20
1220.002006
 30
0.0
 11
1285.18165
 21
1220.002006
 31
0.0
  0
LINE
  5
32DF
100
AcDbEntity
  8
0
100
AcDbLine
 10
1270.485498
 20
1209.609701
 30
0.0
 11
1285.18165
 21
1209.609701
 31
0.0
  0
LINE
  5
32E0
100
AcDbEntity
  8
0
100
AcDbLine
 10
1270.485498
 20
1188.825092
 30
0.0
 11
1285.18165
 21
1188.825092
 31
0.0
  0
LINE
  5
32E1
100
AcDbEntity
  8
0
100
AcDbLine
 10
1270.485498
 20
1178.432787
 30
0.0
 11
1285.18165
 21
1178.432787
 31
0.0
  0
ARC
  5
32E2
100
AcDbEntity
  8
0
100
AcDbCircle
 10
1159.249592
 20
1198.861581
 30
0.0
 40
97.39944
100
AcDbArc
 50
9.666417
 51
27.024711
  0
ARC
  5
32E3
100
AcDbEntity
  8
0
100
AcDbCircle
 10
1235.689633
 20
1198.858786
 30
0.0
 40
97.406683
100
AcDbArc
 50
152.975617
 51
170.332761
  0
LINE
  5
32E4
100
AcDbEntity
  8
0
100
AcDbLine
 10
1232.695281
 20
1147.217397
 30
0.0
 11
1162.237239
 21
1147.217397
 31
0.0
  0
ARC
  5
32E5
100
AcDbEntity
  8
0
100
AcDbCircle
 10
1235.689633
 20
1199.576007
 30
0.0
 40
97.406683
100
AcDbArc
 50
189.667239
 51
207.024383
  0
ARC
  5
32E6
100
AcDbEntity
  8
0
100
AcDbCircle
 10
1162.237239
 20
1162.217397
 30
0.0
 40
15.0
100
AcDbArc
 50
207.387235
 51
270.0
  0
LINE
  5
32E7
100
AcDbEntity
  8
0
100
AcDbLine
 10
1139.66616
 20
1215.215876
 30
0.0
 11
1139.66616
 21
1183.218917
 31
0.0
  0
LINE
  5
32E8
100
AcDbEntity
  8
0
100
AcDbLine
 10
1134.46626
 20
1184.217397
 30
0.0
 11
1134.46626
 21
1214.217397
 31
0.0
  0
ARC
  5
32E9
100
AcDbEntity
  8
0
100
AcDbCircle
 10
1099.033426
 20
1199.217397
 30
0.0
 40
27.456345
100
AcDbArc
 50
337.759024
 51
22.240976
  0
LINE
  5
32EA
100
AcDbEntity
  8
0
100
AcDbLine
 10
1138.667174
 20
1214.217397
 30
0.0
 11
1138.667174
 21
1184.217397
 31
0.0
  0
LINE
  5
32EB
100
AcDbEntity
  8
0
100
AcDbLine
 10
1138.667174
 20
1184.217397
 30
0.0
 11
1134.46626
 21
1184.217397
 31
0.0
  0
LINE
  5
32EC
100
AcDbEntity
  8
0
100
AcDbLine
 10
1134.46626
 20
1184.217397
 30
0.0
 11
1124.447022
 21
1178.432787
 31
0.0
  0
ARC
  5
32ED
100
AcDbEntity
  8
0
100
AcDbCircle
 10
1118.944413
 20
1183.628939
 30
0.0
 40
7.56827
100
AcDbArc
 50
316.640741
 51
43.359259
  0
LINE
  5
32EE
100
AcDbEntity
  8
0
100
AcDbLine
 10
1139.66616
 20
1183.218917
 30
0.0
 11
1138.667174
 21
1184.217397
 31
0.0
  0
LINE
  5
32EF
100
AcDbEntity
  8
0
100
AcDbLine
 10
1138.667174
 20
1214.217397
 30
0.0
 11
1134.46626
 21
1214.217397
 31
0.0
  0
LINE
  5
32F0
100
AcDbEntity
  8
0
100
AcDbLine
 10
1134.46626
 20
1214.217397
 30
0.0
 11
1124.447022
 21
1220.002006
 31
0.0
  0
ARC
  5
32F1
100
AcDbEntity
  8
0
100
AcDbCircle
 10
1118.944413
 20
1214.805854
 30
0.0
 40
7.56827
100
AcDbArc
 50
316.640741
 51
43.359259
  0
LINE
  5
32F2
100
AcDbEntity
  8
0
100
AcDbLine
 10
1139.66616
 20
1215.215876
 30
0.0
 11
1138.667174
 21
1214.217397
 31
0.0
  0
ARC
  5
32F3
100
AcDbEntity
  8
0
100
AcDbCircle
 10
1159.249592
 20
1199.573212
 30
0.0
 40
97.39944
100
AcDbArc
 50
332.975289
 51
350.333583
  0
ARC
  5
32F4
100
AcDbEntity
  8
0
100
AcDbCircle
 10
1232.695281
 20
1162.217397
 30
0.0
 40
15.0
100
AcDbArc
 50
270.0
 51
332.612765
  0
LINE
  5
32F5
100
AcDbEntity
  8
0
100
AcDbLine
 10
1255.26616
 20
1215.216076
 30
0.0
 11
1255.26616
 21
1183.218717
 31
0.0
  0
LINE
  5
32F6
100
AcDbEntity
  8
0
100
AcDbLine
 10
1256.265346
 20
1214.217397
 30
0.0
 11
1256.265346
 21
1184.217397
 31
0.0
  0
ARC
  5
32F7
100
AcDbEntity
  8
0
100
AcDbCircle
 10
1295.899094
 20
1199.217397
 30
0.0
 40
27.456345
100
AcDbArc
 50
157.759024
 51
202.240976
  0
LINE
  5
32F8
100
AcDbEntity
  8
0
100
AcDbLine
 10
1260.46626
 20
1184.217397
 30
0.0
 11
1260.46626
 21
1214.217397
 31
0.0
  0
LINE
  5
32F9
100
AcDbEntity
  8
0
100
AcDbLine
 10
1256.265346
 20
1184.217397
 30
0.0
 11
1260.46626
 21
1184.217397
 31
0.0
  0
LINE
  5
32FA
100
AcDbEntity
  8
0
100
AcDbLine
 10
1255.26616
 20
1183.218717
 30
0.0
 11
1256.265346
 21
1184.217397
 31
0.0
  0
ARC
  5
32FB
100
AcDbEntity
  8
0
100
AcDbCircle
 10
1275.988107
 20
1183.628939
 30
0.0
 40
7.56827
100
AcDbArc
 50
136.640741
 51
223.359259
  0
LINE
  5
32FC
100
AcDbEntity
  8
0
100
AcDbLine
 10
1260.46626
 20
1184.217397
 30
0.0
 11
1270.485498
 21
1178.432787
 31
0.0
  0
LINE
  5
32FD
100
AcDbEntity
  8
0
100
AcDbLine
 10
1256.265346
 20
1214.217397
 30
0.0
 11
1260.46626
 21
1214.217397
 31
0.0
  0
LINE
  5
32FE
100
AcDbEntity
  8
0
100
AcDbLine
 10
1255.26616
 20
1215.216076
 30
0.0
 11
1256.265346
 21
1214.217397
 31
0.0
  0
ARC
  5
32FF
100
AcDbEntity
  8
0
100
AcDbCircle
 10
1275.988107
 20
1214.805854
 30
0.0
 40
7.56827
100
AcDbArc
 50
136.640741
 51
223.359259
  0
LINE
  5
3300
100
AcDbEntity
  8
0
100
AcDbLine
 10
1260.46626
 20
1214.217397
 30
0.0
 11
1270.485498
 21
1220.002006
 31
0.0
  0
LINE
  5
3301
100
AcDbEntity
  8
0
100
AcDbLine
 10
1224.049803
 20
1338.764891
 30
0.0
 11
1170.882517
 21
1338.764891
 31
0.0
  0
LINE
  5
3302
100
AcDbEntity
  8
0
100
AcDbLine
 10
1232.695281
 20
1251.217397
 30
0.0
 11
1162.237239
 21
1251.217397
 31
0.0
  0
ARC
  5
3303
100
AcDbEntity
  8
0
100
AcDbCircle
 10
1162.237239
 20
1236.217397
 30
0.0
 40
15.0
100
AcDbArc
 50
90.0
 51
152.612765
  0
ARC
  5
330E
100
AcDbEntity
  8
0
100
AcDbCircle
 10
1232.695281
 20
1236.217397
 30
0.0
 40
15.0
100
AcDbArc
 50
27.387235
 51
90.0
  0
LINE
  5
331A
100
AcDbEntity
  8
0
100
AcDbLine
 10
1288.46626
 20
1181.717397
 30
0.0
 11
1288.46626
 21
1199.217397
 31
0.0
  0
ARC
  5
331B
100
AcDbEntity
  8
0
100
AcDbCircle
 10
1259.768054
 20
1199.217397
 30
0.0
 40
27.456345
100
AcDbArc
 50
337.759024
 51
22.240976
  0
LINE
  5
331C
100
AcDbEntity
  8
0
100
AcDbLine
 10
1285.18165
 20
1178.432787
 30
0.0
 11
1288.46626
 21
1181.717397
 31
0.0
  0
ARC
  5
331D
100
AcDbEntity
  8
0
100
AcDbCircle
 10
1279.679041
 20
1183.628939
 30
0.0
 40
7.56827
100
AcDbArc
 50
316.640741
 51
43.359259
  0
LINE
  5
331E
100
AcDbEntity
  8
0
100
AcDbLine
 10
1285.18165
 20
1220.002006
 30
0.0
 11
1288.46626
 21
1216.717397
 31
0.0
  0
ARC
  5
331F
100
AcDbEntity
  8
0
100
AcDbCircle
 10
1279.679041
 20
1214.805854
 30
0.0
 40
7.56827
100
AcDbArc
 50
316.640741
 51
43.359259
  0
LINE
  5
3320
100
AcDbEntity
  8
0
100
AcDbLine
 10
1288.46626
 20
1199.217397
 30
0.0
 11
1288.46626
 21
1216.717397
 31
0.0
  0
CIRCLE
  5
3321
100
AcDbEntity
  8
0
100
AcDbCircle
 10
1737.787508
 20
1012.33947
 30
0.0
 40
20.0
  0
CIRCLE
  5
3322
100
AcDbEntity
  8
0
100
AcDbCircle
 10
1737.787508
 20
993.35222
 30
0.0
 40
51.88725
  0
POLYLINE
  5
3323
100
AcDbEntity
  8
0
100
AcDb2dPolyline
 66
     1
 10
0.0
 20
0.0
 30
0.0
 70
     1
  0
VERTEX
  5
38D0
100
AcDbEntity
  8
0
100
AcDbVertex
100
AcDb2dVertex
 10
1725.951827
 20
991.83947
 30
0.0
  0
VERTEX
  5
38D1
100
AcDbEntity
  8
0
100
AcDbVertex
100
AcDb2dVertex
 10
1714.116147
 20
1012.33947
 30
0.0
  0
VERTEX
  5
38D2
100
AcDbEntity
  8
0
100
AcDbVertex
100
AcDb2dVertex
 10
1725.951827
 20
1032.83947
 30
0.0
  0
VERTEX
  5
38D3
100
AcDbEntity
  8
0
100
AcDbVertex
100
AcDb2dVertex
 10
1749.623188
 20
1032.83947
 30
0.0
  0
VERTEX
  5
38D4
100
AcDbEntity
  8
0
100
AcDbVertex
100
AcDb2dVertex
 10
1761.458869
 20
1012.33947
 30
0.0
  0
VERTEX
  5
38D5
100
AcDbEntity
  8
0
100
AcDbVertex
100
AcDb2dVertex
 10
1749.623188
 20
991.83947
 30
0.0
  0
SEQEND
  5
38D6
100
AcDbEntity
  8
0
  0
ELLIPSE
  5
3324
100
AcDbEntity
  8
0
100
AcDbEllipse
 10
1737.787508
 20
954.67922
 30
0.0
 11
15.73525959711332
 21
0.0
 31
0.0
210
0.0
220
0.0
230
-1.0
 40
0.759965
 41
0.0
 42
6.283185307179586
  0
ARC
  5
3325
100
AcDbEntity
  8
0
100
AcDbCircle
 10
1890.24428
 20
1002.189495
 30
0.0
 40
18.149941
100
AcDbArc
 50
325.615753
 51
34.384247
  0
ARC
  5
3326
100
AcDbEntity
  8
0
100
AcDbCircle
 10
1905.392039
 20
1002.189495
 30
0.0
 40
18.149941
100
AcDbArc
 50
145.615753
 51
214.384247
  0
LINE
  5
3327
100
AcDbEntity
  8
0
100
AcDbLine
 10
1886.742098
 20
1012.439495
 30
0.0
 11
1886.742098
 21
992.439495
 31
0.0
  0
LINE
  5
3328
100
AcDbEntity
  8
0
100
AcDbLine
 10
1925.441998
 20
1031.439495
 30
0.0
 11
1925.441998
 21
972.654837
 31
0.0
  0
LINE
  5
3329
100
AcDbEntity
  8
0
100
AcDbLine
 10
1920.242098
 20
1027.439495
 30
0.0
 11
1920.242098
 21
997.439495
 31
0.0
  0
LINE
  5
332A
100
AcDbEntity
  8
0
100
AcDbLine
 10
1923.625072
 20
1027.439495
 30
0.0
 11
1923.625072
 21
997.439495
 31
0.0
  0
LINE
  5
332B
100
AcDbEntity
  8
0
100
AcDbLine
 10
1886.742098
 20
992.439495
 30
0.0
 11
1890.413459
 21
991.939495
 31
0.0
  0
LINE
  5
3331
100
AcDbEntity
  8
0
100
AcDbLine
 10
1905.22286
 20
991.939495
 30
0.0
 11
1920.242098
 21
997.439495
 31
0.0
  0
LINE
  5
3332
100
AcDbEntity
  8
0
100
AcDbLine
 10
1905.22286
 20
991.939495
 30
0.0
 11
1890.413459
 21
991.939495
 31
0.0
  0
ARC
  5
3338
100
AcDbEntity
  8
0
100
AcDbCircle
 10
1927.400284
 20
999.369291
 30
0.0
 40
4.239851
100
AcDbArc
 50
207.075007
 51
242.491769
  0
LINE
  5
3339
100
AcDbEntity
  8
0
100
AcDbLine
 10
1920.242098
 20
997.439495
 30
0.0
 11
1923.625072
 21
997.439495
 31
0.0
  0
LINE
  5
333C
100
AcDbEntity
  8
0
100
AcDbLine
 10
1928.664019
 20
964.876467
 30
0.0
 11
1948.880375
 21
944.661125
 31
0.0
  0
LINE
  5
3345
100
AcDbEntity
  8
0
100
AcDbLine
 10
1890.413459
 20
1032.939495
 30
0.0
 11
1886.742098
 21
1032.439495
 31
0.0
  0
ARC
  5
3346
100
AcDbEntity
  8
0
100
AcDbCircle
 10
1905.392039
 20
1022.689495
 30
0.0
 40
18.149941
100
AcDbArc
 50
145.615753
 51
214.384247
  0
LINE
  5
3347
100
AcDbEntity
  8
0
100
AcDbLine
 10
1875.472816
 20
1011.294888
 30
0.0
 11
1828.204254
 21
1011.294888
 31
0.0
  0
LINE
  5
3348
100
AcDbEntity
  8
0
100
AcDbLine
 10
1851.839379
 20
1016.021575
 30
0.0
 11
1865.813566
 21
1016.021575
 31
0.0
  0
LINE
  5
3349
100
AcDbEntity
  8
0
100
AcDbLine
 10
1818.750879
 20
1020.748263
 30
0.0
 11
1847.111004
 21
1020.748263
 31
0.0
  0
LINE
  5
334A
100
AcDbEntity
  8
0
100
AcDbLine
 10
1828.204254
 20
1011.294888
 30
0.0
 11
1818.750879
 21
1020.748263
 31
0.0
  0
LINE
  5
334B
100
AcDbEntity
  8
0
100
AcDbLine
 10
1847.111004
 20
1020.748263
 30
0.0
 11
1851.839379
 21
1016.021575
 31
0.0
  0
LINE
  5
334C
100
AcDbEntity
  8
0
100
AcDbLine
 10
1886.742098
 20
1032.439495
 30
0.0
 11
1886.742098
 21
1012.439495
 31
0.0
  0
LINE
  5
334D
100
AcDbEntity
  8
0
100
AcDbLine
 10
1865.813566
 20
1020.748263
 30
0.0
 11
1875.472816
 21
1011.294888
 31
0.0
  0
LINE
  5
334E
100
AcDbEntity
  8
0
100
AcDbLine
 10
1865.813566
 20
1016.021575
 30
0.0
 11
1865.813566
 21
1020.748263
 31
0.0
  0
ARC
  5
3350
100
AcDbEntity
  8
0
100
AcDbCircle
 10
1890.24428
 20
1022.689495
 30
0.0
 40
18.149941
100
AcDbArc
 50
325.615753
 51
34.384247
  0
LINE
  5
3351
100
AcDbEntity
  8
0
100
AcDbLine
 10
1905.22286
 20
1012.439495
 30
0.0
 11
1890.413459
 21
1012.439495
 31
0.0
  0
LINE
  5
3352
100
AcDbEntity
  8
0
100
AcDbLine
 10
1905.22286
 20
1032.939495
 30
0.0
 11
1920.242098
 21
1027.439495
 31
0.0
  0
LINE
  5
3353
100
AcDbEntity
  8
0
100
AcDbLine
 10
1905.22286
 20
1032.939495
 30
0.0
 11
1890.413459
 21
1032.939495
 31
0.0
  0
ARC
  5
3354
100
AcDbEntity
  8
0
100
AcDbCircle
 10
1927.400284
 20
1025.509699
 30
0.0
 40
4.239851
100
AcDbArc
 50
117.508231
 51
152.924993
  0
LINE
  5
3355
100
AcDbEntity
  8
0
100
AcDbLine
 10
1920.242098
 20
1027.439495
 30
0.0
 11
1923.625072
 21
1027.439495
 31
0.0
  0
ARC
  5
335F
100
AcDbEntity
  8
0
100
AcDbCircle
 10
2036.80668
 20
1192.546133
 30
0.0
 40
113.993503
100
AcDbArc
 50
153.60797
 51
167.671328
  0
LINE
  5
3360
100
AcDbEntity
  8
0
100
AcDbLine
 10
1890.413459
 20
1222.988782
 30
0.0
 11
1886.742098
 21
1219.317421
 31
0.0
  0
ARC
  5
3361
100
AcDbEntity
  8
0
100
AcDbCircle
 10
1894.349199
 20
1217.070942
 30
0.0
 40
7.107101
100
AcDbArc
 50
123.626429
 51
236.373571
  0
LINE
  5
3362
100
AcDbEntity
  8
0
100
AcDbLine
 10
1886.742098
 20
1179.317421
 30
0.0
 11
1890.413459
 21
1175.64606
 31
0.0
  0
ARC
  5
3363
100
AcDbEntity
  8
0
100
AcDbCircle
 10
1894.349199
 20
1181.563901
 30
0.0
 40
7.107101
100
AcDbArc
 50
123.626429
 51
236.373571
  0
ARC
  5
3364
100
AcDbEntity
  8
0
100
AcDbCircle
 10
1910.913459
 20
1199.317421
 30
0.0
 40
23.671361
100
AcDbArc
 50
150.0
 51
210.0
  0
LINE
  5
3365
100
AcDbEntity
  8
0
100
AcDbLine
 10
1810.339026
 20
1205.867513
 30
0.0
 11
1838.699151
 21
1205.867513
 31
0.0
  0
LINE
  5
3366
100
AcDbEntity
  8
0
100
AcDbLine
 10
1867.060963
 20
1196.414138
 30
0.0
 11
1819.792401
 21
1196.414138
 31
0.0
  0
LINE
  5
3367
100
AcDbEntity
  8
0
100
AcDbLine
 10
1819.792401
 20
1196.414138
 30
0.0
 11
1810.339026
 21
1205.867513
 31
0.0
  0
LINE
  5
3368
100
AcDbEntity
  8
0
100
AcDbLine
 10
1857.401713
 20
1205.867513
 30
0.0
 11
1867.060963
 21
1196.414138
 31
0.0
  0
LINE
  5
3369
100
AcDbEntity
  8
0
100
AcDbLine
 10
1886.742098
 20
1199.317421
 30
0.0
 11
1886.742098
 21
1179.317421
 31
0.0
  0
LINE
  5
336A
100
AcDbEntity
  8
0
100
AcDbLine
 10
1843.427526
 20
1201.140825
 30
0.0
 11
1857.401713
 21
1201.140825
 31
0.0
  0
LINE
  5
336B
100
AcDbEntity
  8
0
100
AcDbLine
 10
1838.699151
 20
1205.867513
 30
0.0
 11
1843.427526
 21
1201.140825
 31
0.0
  0
LINE
  5
336C
100
AcDbEntity
  8
0
100
AcDbLine
 10
1857.401713
 20
1201.140825
 30
0.0
 11
1857.401713
 21
1205.867513
 31
0.0
  0
LINE
  5
336D
100
AcDbEntity
  8
0
100
AcDbLine
 10
1886.742098
 20
1219.317421
 30
0.0
 11
1886.742098
 21
1199.317421
 31
0.0
  0
ARC
  5
336E
100
AcDbEntity
  8
0
100
AcDbCircle
 10
2036.80668
 20
1206.08871
 30
0.0
 40
113.993503
100
AcDbArc
 50
192.328672
 51
206.39203
  0
ARC
  5
336F
100
AcDbEntity
  8
0
100
AcDbCircle
 10
1948.013078
 20
1162.317421
 30
0.0
 40
15.0
100
AcDbArc
 50
207.387235
 51
270.0
  0
LINE
  5
3370
100
AcDbEntity
  8
0
100
AcDbLine
 10
1925.441998
 20
1216.885944
 30
0.0
 11
1925.441998
 21
1181.748899
 31
0.0
  0
LINE
  5
3371
100
AcDbEntity
  8
0
100
AcDbLine
 10
1921.433058
 20
1214.317421
 30
0.0
 11
1921.433058
 21
1184.317421
 31
0.0
  0
LINE
  5
3372
100
AcDbEntity
  8
0
100
AcDbLine
 10
1920.242098
 20
1214.317421
 30
0.0
 11
1920.242098
 21
1184.317421
 31
0.0
  0
ARC
  5
3373
100
AcDbEntity
  8
0
100
AcDbCircle
 10
1884.72286
 20
1199.317421
 30
0.0
 40
23.671361
100
AcDbArc
 50
330.0
 51
30.0
  0
LINE
  5
3374
100
AcDbEntity
  8
0
100
AcDbLine
 10
1905.22286
 20
1175.64606
 30
0.0
 11
1920.242098
 21
1184.317421
 31
0.0
  0
ARC
  5
3375
100
AcDbEntity
  8
0
100
AcDbCircle
 10
1901.287121
 20
1181.563901
 30
0.0
 40
7.107101
100
AcDbArc
 50
303.626429
 51
56.373571
  0
LINE
  5
3376
100
AcDbEntity
  8
0
100
AcDbLine
 10
1905.22286
 20
1187.481741
 30
0.0
 11
1890.413459
 21
1187.481741
 31
0.0
  0
LINE
  5
3377
100
AcDbEntity
  8
0
100
AcDbLine
 10
1905.22286
 20
1175.64606
 30
0.0
 11
1890.413459
 21
1175.64606
 31
0.0
  0
ARC
  5
3378
100
AcDbEntity
  8
0
100
AcDbCircle
 10
1926.000576
 20
1187.033555
 30
0.0
 40
5.314095
100
AcDbArc
 50
210.738381
 51
263.966346
  0
LINE
  5
3379
100
AcDbEntity
  8
0
100
AcDbLine
 10
1920.242098
 20
1184.317421
 30
0.0
 11
1921.433058
 21
1184.317421
 31
0.0
  0
LINE
  5
337A
100
AcDbEntity
  8
0
100
AcDbLine
 10
1905.22286
 20
1222.988782
 30
0.0
 11
1920.242098
 21
1214.317421
 31
0.0
  0
ARC
  5
337B
100
AcDbEntity
  8
0
100
AcDbCircle
 10
1901.287121
 20
1217.070942
 30
0.0
 40
7.107101
100
AcDbArc
 50
303.626429
 51
56.373571
  0
LINE
  5
337C
100
AcDbEntity
  8
0
100
AcDbLine
 10
1905.22286
 20
1222.988782
 30
0.0
 11
1890.413459
 21
1222.988782
 31
0.0
  0
LINE
  5
337D
100
AcDbEntity
  8
0
100
AcDbLine
 10
1905.22286
 20
1211.153102
 30
0.0
 11
1890.413459
 21
1211.153102
 31
0.0
  0
ARC
  5
337E
100
AcDbEntity
  8
0
100
AcDbCircle
 10
1926.000576
 20
1211.601288
 30
0.0
 40
5.314095
100
AcDbArc
 50
96.033654
 51
149.261619
  0
LINE
  5
337F
100
AcDbEntity
  8
0
100
AcDbLine
 10
1920.242098
 20
1214.317421
 30
0.0
 11
1921.433058
 21
1214.317421
 31
0.0
  0
ARC
  5
3380
100
AcDbEntity
  8
0
100
AcDbCircle
 10
1948.013078
 20
1236.317421
 30
0.0
 40
15.0
100
AcDbArc
 50
90.0
 51
152.612765
  0
LINE
  5
3389
100
AcDbEntity
  8
0
100
AcDbLine
 10
1270.485498
 20
1427.864891
 30
0.0
 11
1285.18165
 21
1427.864891
 31
0.0
  0
LINE
  5
338A
100
AcDbEntity
  8
0
100
AcDbLine
 10
1270.485498
 20
1409.864891
 30
0.0
 11
1285.18165
 21
1409.864891
 31
0.0
  0
LINE
  5
338B
100
AcDbEntity
  8
0
100
AcDbLine
 10
1270.485498
 20
1391.864891
 30
0.0
 11
1285.18165
 21
1391.864891
 31
0.0
  0
LINE
  5
338C
100
AcDbEntity
  8
0
100
AcDbLine
 10
1241.26616
 20
1442.764891
 30
0.0
 11
1153.66616
 21
1442.764891
 31
0.0
  0
LINE
  5
338D
100
AcDbEntity
  8
0
100
AcDbLine
 10
1138.791968
 20
1424.864891
 30
0.0
 11
1138.791968
 21
1394.864891
 31
0.0
  0
LINE
  5
338E
100
AcDbEntity
  8
0
100
AcDbLine
 10
1134.46626
 20
1394.864891
 30
0.0
 11
1134.46626
 21
1424.864891
 31
0.0
  0
ARC
  5
338F
100
AcDbEntity
  8
0
100
AcDbCircle
 10
1105.873533
 20
1400.864891
 30
0.0
 40
20.63915
100
AcDbArc
 50
334.146953
 51
25.853047
  0
LINE
  5
3390
100
AcDbEntity
  8
0
100
AcDbLine
 10
1139.66616
 20
1428.764891
 30
0.0
 11
1139.66616
 21
1369.980233
 31
0.0
  0
LINE
  5
339B
100
AcDbEntity
  8
0
100
AcDbLine
 10
1138.791968
 20
1394.864891
 30
0.0
 11
1134.46626
 21
1394.864891
 31
0.0
  0
LINE
  5
339C
100
AcDbEntity
  8
0
100
AcDbLine
 10
1134.46626
 20
1394.864891
 30
0.0
 11
1124.447022
 21
1391.864891
 31
0.0
  0
LINE
  5
339D
100
AcDbEntity
  8
0
100
AcDbLine
 10
1139.66616
 20
1393.972154
 30
0.0
 11
1138.791968
 21
1394.864891
 31
0.0
  0
LINE
  5
339E
100
AcDbEntity
  8
0
100
AcDbLine
 10
1138.791968
 20
1424.864891
 30
0.0
 11
1134.46626
 21
1424.864891
 31
0.0
  0
ARC
  5
339F
100
AcDbEntity
  8
0
100
AcDbCircle
 10
1105.873533
 20
1418.864891
 30
0.0
 40
20.63915
100
AcDbArc
 50
334.146953
 51
25.853047
  0
LINE
  5
33A0
100
AcDbEntity
  8
0
100
AcDbLine
 10
1134.46626
 20
1424.864891
 30
0.0
 11
1124.447022
 21
1427.864891
 31
0.0
  0
LINE
  5
33A1
100
AcDbEntity
  8
0
100
AcDbLine
 10
1139.66616
 20
1425.757629
 30
0.0
 11
1138.791968
 21
1424.864891
 31
0.0
  0
ARC
  5
33AC
100
AcDbEntity
  8
0
100
AcDbCircle
 10
1289.058987
 20
1400.864891
 30
0.0
 40
20.63915
100
AcDbArc
 50
154.146953
 51
205.853047
  0
LINE
  5
33AD
100
AcDbEntity
  8
0
100
AcDbLine
 10
1260.46626
 20
1394.864891
 30
0.0
 11
1260.46626
 21
1424.864891
 31
0.0
  0
LINE
  5
33AE
100
AcDbEntity
  8
0
100
AcDbLine
 10
1256.140552
 20
1424.864891
 30
0.0
 11
1256.140552
 21
1394.864891
 31
0.0
  0
LINE
  5
33AF
100
AcDbEntity
  8
0
100
AcDbLine
 10
1255.26616
 20
1428.764891
 30
0.0
 11
1255.26616
 21
1369.980233
 31
0.0
  0
LINE
  5
33BA
100
AcDbEntity
  8
0
100
AcDbLine
 10
1256.140552
 20
1394.864891
 30
0.0
 11
1260.46626
 21
1394.864891
 31
0.0
  0
LINE
  5
33BB
100
AcDbEntity
  8
0
100
AcDbLine
 10
1255.26636
 20
1393.972154
 30
0.0
 11
1256.140552
 21
1394.864891
 31
0.0
  0
LINE
  5
33BC
100
AcDbEntity
  8
0
100
AcDbLine
 10
1260.46626
 20
1394.864891
 30
0.0
 11
1270.485498
 21
1391.864891
 31
0.0
  0
LINE
  5
33BD
100
AcDbEntity
  8
0
100
AcDbLine
 10
1203.58616
 20
1442.764891
 30
0.0
 11
1204.60616
 21
1442.764891
 31
0.0
  0
LINE
  5
33BE
100
AcDbEntity
  8
0
100
AcDbLine
 10
1256.140552
 20
1424.864891
 30
0.0
 11
1260.46626
 21
1424.864891
 31
0.0
  0
LINE
  5
33BF
100
AcDbEntity
  8
0
100
AcDbLine
 10
1255.26636
 20
1425.757629
 30
0.0
 11
1256.140552
 21
1424.864891
 31
0.0
  0
LINE
  5
33C0
100
AcDbEntity
  8
0
100
AcDbLine
 10
1260.46626
 20
1424.864891
 30
0.0
 11
1270.485498
 21
1427.864891
 31
0.0
  0
ARC
  5
33C1
100
AcDbEntity
  8
0
100
AcDbCircle
 10
1289.058987
 20
1418.864891
 30
0.0
 40
20.63915
100
AcDbArc
 50
154.146953
 51
205.853047
  0
ARC
  5
33CD
100
AcDbEntity
  8
0
100
AcDbCircle
 10
1266.608161
 20
1400.864891
 30
0.0
 40
20.63915
100
AcDbArc
 50
334.146953
 51
25.853047
  0
LINE
  5
33CE
100
AcDbEntity
  8
0
100
AcDbLine
 10
1288.46626
 20
1392.364891
 30
0.0
 11
1288.46626
 21
1409.864891
 31
0.0
  0
LINE
  5
33CF
100
AcDbEntity
  8
0
100
AcDbLine
 10
1285.18165
 20
1391.864891
 30
0.0
 11
1288.46626
 21
1392.364891
 31
0.0
  0
LINE
  5
33D0
100
AcDbEntity
  8
0
100
AcDbLine
 10
1300.296397
 20
1407.244443
 30
0.0
 11
1347.564959
 21
1407.244443
 31
0.0
  0
LINE
  5
33D1
100
AcDbEntity
  8
0
100
AcDbLine
 10
1328.658209
 20
1416.697818
 30
0.0
 11
1323.929834
 21
1411.97113
 31
0.0
  0
LINE
  5
33D2
100
AcDbEntity
  8
0
100
AcDbLine
 10
1285.18165
 20
1427.864891
 30
0.0
 11
1288.46626
 21
1427.364891
 31
0.0
  0
ARC
  5
33D3
100
AcDbEntity
  8
0
100
AcDbCircle
 10
1266.608161
 20
1418.864891
 30
0.0
 40
20.63915
100
AcDbArc
 50
334.146953
 51
25.853047
  0
LINE
  5
33D4
100
AcDbEntity
  8
0
100
AcDbLine
 10
1288.46626
 20
1409.864891
 30
0.0
 11
1288.46626
 21
1427.364891
 31
0.0
  0
LINE
  5
33D5
100
AcDbEntity
  8
0
100
AcDbLine
 10
1309.955647
 20
1416.697818
 30
0.0
 11
1300.296397
 21
1407.244443
 31
0.0
  0
LINE
  5
33D6
100
AcDbEntity
  8
0
100
AcDbLine
 10
1323.929834
 20
1411.97113
 30
0.0
 11
1309.955647
 21
1411.97113
 31
0.0
  0
LINE
  5
33D7
100
AcDbEntity
  8
0
100
AcDbLine
 10
1309.955647
 20
1411.97113
 30
0.0
 11
1309.955647
 21
1416.697818
 31
0.0
  0
LINE
  5
33D8
100
AcDbEntity
  8
0
100
AcDbLine
 10
1357.018334
 20
1416.697818
 30
0.0
 11
1328.658209
 21
1416.697818
 31
0.0
  0
LINE
  5
33D9
100
AcDbEntity
  8
0
100
AcDbLine
 10
1347.564959
 20
1407.244443
 30
0.0
 11
1357.018334
 21
1416.697818
 31
0.0
  0
LINE
  5
33DA
100
AcDbEntity
  8
0
100
AcDbLine
 10
1890.413459
 20
1430.464916
 30
0.0
 11
1886.742098
 21
1429.964916
 31
0.0
  0
LINE
  5
33DB
100
AcDbEntity
  8
0
100
AcDbLine
 10
1886.742098
 20
1389.964916
 30
0.0
 11
1890.413459
 21
1389.464916
 31
0.0
  0
ARC
  5
33DC
100
AcDbEntity
  8
0
100
AcDbCircle
 10
1905.392039
 20
1399.714916
 30
0.0
 40
18.149941
100
AcDbArc
 50
145.615753
 51
214.384247
  0
ARC
  5
33DD
100
AcDbEntity
  8
0
100
AcDbCircle
 10
1905.392039
 20
1420.214916
 30
0.0
 40
18.149941
100
AcDbArc
 50
145.615753
 51
214.384247
  0
LINE
  5
33DE
100
AcDbEntity
  8
0
100
AcDbLine
 10
1886.742098
 20
1409.964916
 30
0.0
 11
1886.742098
 21
1389.964916
 31
0.0
  0
LINE
  5
33DF
100
AcDbEntity
  8
0
100
AcDbLine
 10
1886.742098
 20
1429.964916
 30
0.0
 11
1886.742098
 21
1409.964916
 31
0.0
  0
LINE
  5
33E0
100
AcDbEntity
  8
0
100
AcDbLine
 10
1920.242098
 20
1424.964916
 30
0.0
 11
1920.242098
 21
1394.964916
 31
0.0
  0
ARC
  5
33E1
100
AcDbEntity
  8
0
100
AcDbCircle
 10
1890.24428
 20
1399.714916
 30
0.0
 40
18.149941
100
AcDbArc
 50
325.615753
 51
34.384247
  0
LINE
  5
33E2
100
AcDbEntity
  8
0
100
AcDbLine
 10
1923.625072
 20
1424.964916
 30
0.0
 11
1923.625072
 21
1394.964916
 31
0.0
  0
LINE
  5
33E3
100
AcDbEntity
  8
0
100
AcDbLine
 10
1925.441998
 20
1428.964916
 30
0.0
 11
1925.441998
 21
1370.180258
 31
0.0
  0
LINE
  5
33EE
100
AcDbEntity
  8
0
100
AcDbLine
 10
1905.22286
 20
1389.464916
 30
0.0
 11
1920.242098
 21
1394.964916
 31
0.0
  0
LINE
  5
33EF
100
AcDbEntity
  8
0
100
AcDbLine
 10
1905.22286
 20
1389.464916
 30
0.0
 11
1890.413459
 21
1389.464916
 31
0.0
  0
LINE
  5
33F0
100
AcDbEntity
  8
0
100
AcDbLine
 10
1920.242098
 20
1394.964916
 30
0.0
 11
1923.625072
 21
1394.964916
 31
0.0
  0
ARC
  5
33F1
100
AcDbEntity
  8
0
100
AcDbCircle
 10
1927.400284
 20
1396.894712
 30
0.0
 40
4.239851
100
AcDbArc
 50
207.075007
 51
242.491769
  0
LINE
  5
33F3
100
AcDbEntity
  8
0
100
AcDbLine
 10
1928.664019
 20
1362.401888
 30
0.0
 11
1948.880375
 21
1342.186546
 31
0.0
  0
ARC
  5
33F5
100
AcDbEntity
  8
0
100
AcDbCircle
 10
1890.24428
 20
1420.214916
 30
0.0
 40
18.149941
100
AcDbArc
 50
325.615753
 51
34.384247
  0
LINE
  5
33F6
100
AcDbEntity
  8
0
100
AcDbLine
 10
1905.22286
 20
1430.464916
 30
0.0
 11
1920.242098
 21
1424.964916
 31
0.0
  0
LINE
  5
33F7
100
AcDbEntity
  8
0
100
AcDbLine
 10
1905.22286
 20
1409.964916
 30
0.0
 11
1890.413459
 21
1409.964916
 31
0.0
  0
LINE
  5
33F8
100
AcDbEntity
  8
0
100
AcDbLine
 10
1920.242098
 20
1424.964916
 30
0.0
 11
1923.625072
 21
1424.964916
 31
0.0
  0
ARC
  5
33F9
100
AcDbEntity
  8
0
100
AcDbCircle
 10
1927.400284
 20
1423.03512
 30
0.0
 40
4.239851
100
AcDbArc
 50
117.508231
 51
152.924993
  0
LINE
  5
33FA
100
AcDbEntity
  8
0
100
AcDbLine
 10
1905.22286
 20
1430.464916
 30
0.0
 11
1890.413459
 21
1430.464916
 31
0.0
  0
CIRCLE
  5
3405
100
AcDbEntity
  8
0
100
AcDbCircle
 10
2153.651349
 20
993.452245
 30
0.0
 40
51.88725
  0
LINE
  5
3406
100
AcDbEntity
  8
0
100
AcDbLine
 10
2079.742098
 20
1012.439495
 30
0.0
 11
2079.742098
 21
992.439495
 31
0.0
  0
ARC
  5
3407
100
AcDbEntity
  8
0
100
AcDbCircle
 10
2061.092157
 20
1002.189495
 30
0.0
 40
18.149941
100
AcDbArc
 50
325.615753
 51
34.384247
  0
ARC
  5
3408
100
AcDbEntity
  8
0
100
AcDbCircle
 10
2076.239916
 20
1002.189495
 30
0.0
 40
18.149941
100
AcDbArc
 50
145.615753
 51
214.384247
  0
LINE
  5
3409
100
AcDbEntity
  8
0
100
AcDbLine
 10
2041.041998
 20
1031.439495
 30
0.0
 11
2041.041998
 21
972.654837
 31
0.0
  0
LINE
  5
340A
100
AcDbEntity
  8
0
100
AcDbLine
 10
2042.859124
 20
1027.439495
 30
0.0
 11
2042.859124
 21
997.439495
 31
0.0
  0
LINE
  5
340B
100
AcDbEntity
  8
0
100
AcDbLine
 10
2046.242098
 20
1027.439495
 30
0.0
 11
2046.242098
 21
997.439495
 31
0.0
  0
LINE
  5
340C
100
AcDbEntity
  8
0
100
AcDbLine
 10
2061.261336
 20
991.939495
 30
0.0
 11
2046.242098
 21
997.439495
 31
0.0
  0
LINE
  5
340F
100
AcDbEntity
  8
0
100
AcDbLine
 10
2037.819978
 20
964.876467
 30
0.0
 11
2017.603621
 21
944.661125
 31
0.0
  0
LINE
  5
3423
100
AcDbEntity
  8
0
100
AcDbLine
 10
2046.242098
 20
997.439495
 30
0.0
 11
2042.859124
 21
997.439495
 31
0.0
  0
ARC
  5
3424
100
AcDbEntity
  8
0
100
AcDbCircle
 10
2039.083912
 20
999.369291
 30
0.0
 40
4.239851
100
AcDbArc
 50
297.508231
 51
332.924993
  0
LINE
  5
3425
100
AcDbEntity
  8
0
100
AcDbLine
 10
2061.261336
 20
991.939495
 30
0.0
 11
2076.070737
 21
991.939495
 31
0.0
  0
LINE
  5
3426
100
AcDbEntity
  8
0
100
AcDbLine
 10
2079.742098
 20
992.439495
 30
0.0
 11
2076.070737
 21
991.939495
 31
0.0
  0
LINE
  5
3427
100
AcDbEntity
  8
0
100
AcDbLine
 10
2061.261336
 20
1032.939495
 30
0.0
 11
2046.242098
 21
1027.439495
 31
0.0
  0
LINE
  5
342C
100
AcDbEntity
  8
0
100
AcDbLine
 10
2046.242098
 20
1027.439495
 30
0.0
 11
2042.859124
 21
1027.439495
 31
0.0
  0
ARC
  5
342D
100
AcDbEntity
  8
0
100
AcDbCircle
 10
2039.083912
 20
1025.509699
 30
0.0
 40
4.239851
100
AcDbArc
 50
27.075007
 51
62.491769
  0
LINE
  5
3435
100
AcDbEntity
  8
0
100
AcDbLine
 10
2079.742098
 20
1032.439495
 30
0.0
 11
2079.742098
 21
1012.439495
 31
0.0
  0
ARC
  5
3436
100
AcDbEntity
  8
0
100
AcDbCircle
 10
2061.092157
 20
1022.689495
 30
0.0
 40
18.149941
100
AcDbArc
 50
325.615753
 51
34.384247
  0
ARC
  5
3437
100
AcDbEntity
  8
0
100
AcDbCircle
 10
2076.239916
 20
1022.689495
 30
0.0
 40
18.149941
100
AcDbArc
 50
145.615753
 51
214.384247
  0
LINE
  5
3438
100
AcDbEntity
  8
0
100
AcDbLine
 10
2061.261336
 20
1012.439495
 30
0.0
 11
2076.070737
 21
1012.439495
 31
0.0
  0
LINE
  5
3439
100
AcDbEntity
  8
0
100
AcDbLine
 10
2061.261336
 20
1032.939495
 30
0.0
 11
2076.070737
 21
1032.939495
 31
0.0
  0
LINE
  5
343A
100
AcDbEntity
  8
0
100
AcDbLine
 10
2076.070737
 20
1032.939495
 30
0.0
 11
2079.742098
 21
1032.439495
 31
0.0
  0
POLYLINE
  5
343B
100
AcDbEntity
  8
0
100
AcDb2dPolyline
 66
     1
 10
0.0
 20
0.0
 30
0.0
 70
     1
  0
VERTEX
  5
38D7
100
AcDbEntity
  8
0
100
AcDbVertex
100
AcDb2dVertex
 10
2165.48703
 20
991.939495
 30
0.0
  0
VERTEX
  5
38D8
100
AcDbEntity
  8
0
100
AcDbVertex
100
AcDb2dVertex
 10
2177.32271
 20
1012.439495
 30
0.0
  0
VERTEX
  5
38D9
100
AcDbEntity
  8
0
100
AcDbVertex
100
AcDb2dVertex
 10
2165.48703
 20
1032.939495
 30
0.0
  0
VERTEX
  5
38DA
100
AcDbEntity
  8
0
100
AcDbVertex
100
AcDb2dVertex
 10
2141.815669
 20
1032.939495
 30
0.0
  0
VERTEX
  5
38DB
100
AcDbEntity
  8
0
100
AcDbVertex
100
AcDb2dVertex
 10
2129.979988
 20
1012.439495
 30
0.0
  0
VERTEX
  5
38DC
100
AcDbEntity
  8
0
100
AcDbVertex
100
AcDb2dVertex
 10
2141.815669
 20
991.939495
 30
0.0
  0
SEQEND
  5
38DD
100
AcDbEntity
  8
0
  0
CIRCLE
  5
343C
100
AcDbEntity
  8
0
100
AcDbCircle
 10
2153.651349
 20
1012.439495
 30
0.0
 40
20.0
  0
ELLIPSE
  5
343D
100
AcDbEntity
  8
0
100
AcDbEllipse
 10
2153.651349
 20
954.779245
 30
0.0
 11
-15.73525959711332
 21
0.0
 31
0.0
210
0.0
220
0.0
230
1.0
 40
0.759965
 41
0.0
 42
6.283185307179586
  0
ARC
  5
343E
100
AcDbEntity
  8
0
100
AcDbCircle
 10
1929.690231
 20
1192.551427
 30
0.0
 40
113.97976
100
AcDbArc
 50
12.327468
 51
26.392488
  0
LINE
  5
343F
100
AcDbEntity
  8
0
100
AcDbLine
 10
2061.261336
 20
1222.988782
 30
0.0
 11
2046.242098
 21
1214.317421
 31
0.0
  0
LINE
  5
3440
100
AcDbEntity
  8
0
100
AcDbLine
 10
2061.261336
 20
1175.64606
 30
0.0
 11
2046.242098
 21
1184.317421
 31
0.0
  0
ARC
  5
3441
100
AcDbEntity
  8
0
100
AcDbCircle
 10
1928.944483
 20
1206.34545
 30
0.0
 40
114.764299
100
AcDbArc
 50
333.655828
 51
347.624216
  0
ARC
  5
3442
100
AcDbEntity
  8
0
100
AcDbCircle
 10
2018.471119
 20
1162.317421
 30
0.0
 40
15.0
100
AcDbArc
 50
270.0
 51
332.612765
  0
LINE
  5
3443
100
AcDbEntity
  8
0
100
AcDbLine
 10
2041.041998
 20
1216.885965
 30
0.0
 11
2041.041998
 21
1181.748878
 31
0.0
  0
LINE
  5
3444
100
AcDbEntity
  8
0
100
AcDbLine
 10
2045.051138
 20
1214.317421
 30
0.0
 11
2045.051138
 21
1184.317421
 31
0.0
  0
LINE
  5
3445
100
AcDbEntity
  8
0
100
AcDbLine
 10
2046.242098
 20
1214.317421
 30
0.0
 11
2046.242098
 21
1184.317421
 31
0.0
  0
ARC
  5
3446
100
AcDbEntity
  8
0
100
AcDbCircle
 10
2040.48362
 20
1187.033555
 30
0.0
 40
5.314095
100
AcDbArc
 50
276.031486
 51
329.261619
  0
LINE
  5
3447
100
AcDbEntity
  8
0
100
AcDbLine
 10
2046.242098
 20
1184.317421
 30
0.0
 11
2045.051138
 21
1184.317421
 31
0.0
  0
ARC
  5
3448
100
AcDbEntity
  8
0
100
AcDbCircle
 10
2040.48362
 20
1211.601288
 30
0.0
 40
5.314095
100
AcDbArc
 50
30.738381
 51
83.968514
  0
LINE
  5
3449
100
AcDbEntity
  8
0
100
AcDbLine
 10
2046.242098
 20
1214.317421
 30
0.0
 11
2045.051138
 21
1214.317421
 31
0.0
  0
LINE
  5
344A
100
AcDbEntity
  8
0
100
AcDbLine
 10
2079.742098
 20
1199.317421
 30
0.0
 11
2079.742098
 21
1179.317421
 31
0.0
  0
ARC
  5
344B
100
AcDbEntity
  8
0
100
AcDbCircle
 10
2055.570737
 20
1199.317421
 30
0.0
 40
23.671361
100
AcDbArc
 50
330.0
 51
30.0
  0
ARC
  5
344C
100
AcDbEntity
  8
0
100
AcDbCircle
 10
2081.761336
 20
1199.317421
 30
0.0
 40
23.671361
100
AcDbArc
 50
150.0
 51
210.0
  0
LINE
  5
344D
100
AcDbEntity
  8
0
100
AcDbLine
 10
2061.261336
 20
1175.64606
 30
0.0
 11
2076.070737
 21
1175.64606
 31
0.0
  0
LINE
  5
344E
100
AcDbEntity
  8
0
100
AcDbLine
 10
2061.261336
 20
1187.481741
 30
0.0
 11
2076.070737
 21
1187.481741
 31
0.0
  0
ARC
  5
344F
100
AcDbEntity
  8
0
100
AcDbCircle
 10
2065.197076
 20
1181.563901
 30
0.0
 40
7.107101
100
AcDbArc
 50
123.626429
 51
236.373571
  0
ARC
  5
3450
100
AcDbEntity
  8
0
100
AcDbCircle
 10
2072.134997
 20
1181.563901
 30
0.0
 40
7.107101
100
AcDbArc
 50
303.626429
 51
56.373571
  0
LINE
  5
3451
100
AcDbEntity
  8
0
100
AcDbLine
 10
2079.742098
 20
1179.317421
 30
0.0
 11
2076.070737
 21
1175.64606
 31
0.0
  0
LINE
  5
3452
100
AcDbEntity
  8
0
100
AcDbLine
 10
2061.261336
 20
1211.153102
 30
0.0
 11
2076.070737
 21
1211.153102
 31
0.0
  0
LINE
  5
3453
100
AcDbEntity
  8
0
100
AcDbLine
 10
2061.261336
 20
1222.988782
 30
0.0
 11
2076.070737
 21
1222.988782
 31
0.0
  0
ARC
  5
3454
100
AcDbEntity
  8
0
100
AcDbCircle
 10
2065.197076
 20
1217.070942
 30
0.0
 40
7.107101
100
AcDbArc
 50
123.626429
 51
236.373571
  0
ARC
  5
3455
100
AcDbEntity
  8
0
100
AcDbCircle
 10
2072.134997
 20
1217.070942
 30
0.0
 40
7.107101
100
AcDbArc
 50
303.626429
 51
56.373571
  0
LINE
  5
3456
100
AcDbEntity
  8
0
100
AcDbLine
 10
2076.070737
 20
1222.988782
 30
0.0
 11
2079.742098
 21
1219.317421
 31
0.0
  0
LINE
  5
3457
100
AcDbEntity
  8
0
100
AcDbLine
 10
2079.742098
 20
1219.317421
 30
0.0
 11
2079.742098
 21
1199.317421
 31
0.0
  0
ARC
  5
3458
100
AcDbEntity
  8
0
100
AcDbCircle
 10
2018.471119
 20
1236.317421
 30
0.0
 40
15.0
100
AcDbArc
 50
27.387235
 51
90.0
  0
LINE
  5
3462
100
AcDbEntity
  8
0
100
AcDbLine
 10
2061.261336
 20
1389.464916
 30
0.0
 11
2046.242098
 21
1394.964916
 31
0.0
  0
LINE
  5
3463
100
AcDbEntity
  8
0
100
AcDbLine
 10
2061.261336
 20
1430.464916
 30
0.0
 11
2046.242098
 21
1424.964916
 31
0.0
  0
LINE
  5
3464
100
AcDbEntity
  8
0
100
AcDbLine
 10
2046.242098
 20
1424.964916
 30
0.0
 11
2046.242098
 21
1394.964916
 31
0.0
  0
LINE
  5
3465
100
AcDbEntity
  8
0
100
AcDbLine
 10
2042.859124
 20
1424.964916
 30
0.0
 11
2042.859124
 21
1394.964916
 31
0.0
  0
LINE
  5
3466
100
AcDbEntity
  8
0
100
AcDbLine
 10
2041.041998
 20
1428.964916
 30
0.0
 11
2041.041998
 21
1370.180258
 31
0.0
  0
LINE
  5
3467
100
AcDbEntity
  8
0
100
AcDbLine
 10
2037.819978
 20
1362.401888
 30
0.0
 11
2017.603621
 21
1342.186546
 31
0.0
  0
ARC
  5
3473
100
AcDbEntity
  8
0
100
AcDbCircle
 10
2039.083912
 20
1396.894712
 30
0.0
 40
4.239851
100
AcDbArc
 50
297.508231
 51
332.924993
  0
LINE
  5
3474
100
AcDbEntity
  8
0
100
AcDbLine
 10
2046.242098
 20
1394.964916
 30
0.0
 11
2042.859124
 21
1394.964916
 31
0.0
  0
ARC
  5
3475
100
AcDbEntity
  8
0
100
AcDbCircle
 10
2039.083912
 20
1423.03512
 30
0.0
 40
4.239851
100
AcDbArc
 50
27.075007
 51
62.491769
  0
LINE
  5
3476
100
AcDbEntity
  8
0
100
AcDbLine
 10
2046.242098
 20
1424.964916
 30
0.0
 11
2042.859124
 21
1424.964916
 31
0.0
  0
ARC
  5
3482
100
AcDbEntity
  8
0
100
AcDbCircle
 10
2061.092157
 20
1399.714916
 30
0.0
 40
18.149941
100
AcDbArc
 50
325.615753
 51
34.384247
  0
LINE
  5
3483
100
AcDbEntity
  8
0
100
AcDbLine
 10
2079.742098
 20
1409.964916
 30
0.0
 11
2079.742098
 21
1389.964916
 31
0.0
  0
ARC
  5
3484
100
AcDbEntity
  8
0
100
AcDbCircle
 10
2076.239916
 20
1399.714916
 30
0.0
 40
18.149941
100
AcDbArc
 50
145.615753
 51
214.384247
  0
LINE
  5
3485
100
AcDbEntity
  8
0
100
AcDbLine
 10
2061.261336
 20
1389.464916
 30
0.0
 11
2076.070737
 21
1389.464916
 31
0.0
  0
LINE
  5
3486
100
AcDbEntity
  8
0
100
AcDbLine
 10
2079.742098
 20
1389.964916
 30
0.0
 11
2076.070737
 21
1389.464916
 31
0.0
  0
LINE
  5
3487
100
AcDbEntity
  8
0
100
AcDbLine
 10
2090.883698
 20
1407.244443
 30
0.0
 11
2138.15226
 21
1407.244443
 31
0.0
  0
LINE
  5
3488
100
AcDbEntity
  8
0
100
AcDbLine
 10
2100.542948
 20
1416.697818
 30
0.0
 11
2090.883698
 21
1407.244443
 31
0.0
  0
ARC
  5
3489
100
AcDbEntity
  8
0
100
AcDbCircle
 10
2061.092157
 20
1420.214916
 30
0.0
 40
18.149941
100
AcDbArc
 50
325.615753
 51
34.384247
  0
ARC
  5
348A
100
AcDbEntity
  8
0
100
AcDbCircle
 10
2076.239916
 20
1420.214916
 30
0.0
 40
18.149941
100
AcDbArc
 50
145.615753
 51
214.384247
  0
LINE
  5
348B
100
AcDbEntity
  8
0
100
AcDbLine
 10
2079.742098
 20
1429.964916
 30
0.0
 11
2079.742098
 21
1409.964916
 31
0.0
  0
LINE
  5
348C
100
AcDbEntity
  8
0
100
AcDbLine
 10
2061.261336
 20
1409.964916
 30
0.0
 11
2076.070737
 21
1409.964916
 31
0.0
  0
LINE
  5
348D
100
AcDbEntity
  8
0
100
AcDbLine
 10
2061.261336
 20
1430.464916
 30
0.0
 11
2076.070737
 21
1430.464916
 31
0.0
  0
LINE
  5
348E
100
AcDbEntity
  8
0
100
AcDbLine
 10
2076.070737
 20
1430.464916
 30
0.0
 11
2079.742098
 21
1429.964916
 31
0.0
  0
LINE
  5
348F
100
AcDbEntity
  8
0
100
AcDbLine
 10
2147.605635
 20
1416.697818
 30
0.0
 11
2119.24551
 21
1416.697818
 31
0.0
  0
LINE
  5
3490
100
AcDbEntity
  8
0
100
AcDbLine
 10
2114.517135
 20
1411.97113
 30
0.0
 11
2100.542948
 21
1411.97113
 31
0.0
  0
LINE
  5
3491
100
AcDbEntity
  8
0
100
AcDbLine
 10
2100.542948
 20
1411.97113
 30
0.0
 11
2100.542948
 21
1416.697818
 31
0.0
  0
LINE
  5
3492
100
AcDbEntity
  8
0
100
AcDbLine
 10
2119.24551
 20
1416.697818
 30
0.0
 11
2114.517135
 21
1411.97113
 31
0.0
  0
LINE
  5
3493
100
AcDbEntity
  8
0
100
AcDbLine
 10
2138.15226
 20
1407.244443
 30
0.0
 11
2147.605635
 21
1416.697818
 31
0.0
  0
LINE
  5
35AD
100
AcDbEntity
  8
0
100
AcDbLine
 10
572.445671
 20
295.469383
 30
0.0
 11
572.445671
 21
273.769383
 31
0.0
  0
LINE
  5
35AE
100
AcDbEntity
  8
0
100
AcDbLine
 10
564.595671
 20
295.469383
 30
0.0
 11
564.595671
 21
273.769383
 31
0.0
  0
LINE
  5
35AF
100
AcDbEntity
  8
0
100
AcDbLine
 10
560.445671
 20
299.619383
 30
0.0
 11
560.445671
 21
269.619383
 31
0.0
  0
LINE
  5
35B0
100
AcDbEntity
  8
0
100
AcDbLine
 10
580.445671
 20
332.119383
 30
0.0
 11
580.445671
 21
237.119383
 31
0.0
  0
LINE
  5
35B1
100
AcDbEntity
  8
0
100
AcDbLine
 10
594.445671
 20
237.119383
 30
0.0
 11
580.445671
 21
237.119383
 31
0.0
  0
LINE
  5
35B2
100
AcDbEntity
  8
0
100
AcDbLine
 10
560.445671
 20
269.619383
 30
0.0
 11
552.213375
 21
269.619383
 31
0.0
  0
ARC
  5
35B3
100
AcDbEntity
  8
0
100
AcDbCircle
 10
576.445671
 20
265.649026
 30
0.0
 40
4.0
100
AcDbArc
 50
0.0
 51
52.448718
  0
LINE
  5
35B4
100
AcDbEntity
  8
0
100
AcDbLine
 10
572.445671
 20
273.769383
 30
0.0
 11
564.595671
 21
273.769383
 31
0.0
  0
LINE
  5
35B5
100
AcDbEntity
  8
0
100
AcDbLine
 10
560.445671
 20
269.619383
 30
0.0
 11
564.595671
 21
273.769383
 31
0.0
  0
LINE
  5
35B6
100
AcDbEntity
  8
0
100
AcDbLine
 10
572.445671
 20
273.769383
 30
0.0
 11
578.883556
 21
268.820259
 31
0.0
  0
LINE
  5
35B7
100
AcDbEntity
  8
0
100
AcDbLine
 10
594.445671
 20
332.119383
 30
0.0
 11
580.445671
 21
332.119383
 31
0.0
  0
LINE
  5
35B8
100
AcDbEntity
  8
0
100
AcDbLine
 10
560.445671
 20
299.619383
 30
0.0
 11
552.213375
 21
299.619383
 31
0.0
  0
LINE
  5
35B9
100
AcDbEntity
  8
0
100
AcDbLine
 10
572.445671
 20
295.469383
 30
0.0
 11
564.595671
 21
295.469383
 31
0.0
  0
ARC
  5
35BA
100
AcDbEntity
  8
0
100
AcDbCircle
 10
576.445671
 20
303.58974
 30
0.0
 40
4.0
100
AcDbArc
 50
307.551282
 51
0.0
  0
LINE
  5
35BB
100
AcDbEntity
  8
0
100
AcDbLine
 10
560.445671
 20
299.619383
 30
0.0
 11
564.595671
 21
295.469383
 31
0.0
  0
LINE
  5
35BC
100
AcDbEntity
  8
0
100
AcDbLine
 10
572.445671
 20
295.469383
 30
0.0
 11
578.883556
 21
300.418507
 31
0.0
  0
LINE
  5
35BD
100
AcDbEntity
  8
0
100
AcDbLine
 10
406.445671
 20
332.119383
 30
0.0
 11
406.445671
 21
237.119383
 31
0.0
  0
LINE
  5
35BE
100
AcDbEntity
  8
0
100
AcDbLine
 10
392.445671
 20
237.119383
 30
0.0
 11
406.445671
 21
237.119383
 31
0.0
  0
LINE
  5
35BF
100
AcDbEntity
  8
0
100
AcDbLine
 10
426.445671
 20
299.619383
 30
0.0
 11
426.445671
 21
269.619383
 31
0.0
  0
LINE
  5
35C0
100
AcDbEntity
  8
0
100
AcDbLine
 10
422.295671
 20
295.469383
 30
0.0
 11
422.295671
 21
273.769383
 31
0.0
  0
LINE
  5
35C1
100
AcDbEntity
  8
0
100
AcDbLine
 10
414.445671
 20
295.469383
 30
0.0
 11
414.445671
 21
273.769383
 31
0.0
  0
LINE
  5
35C2
100
AcDbEntity
  8
0
100
AcDbLine
 10
426.445671
 20
269.619383
 30
0.0
 11
422.295671
 21
273.769383
 31
0.0
  0
LINE
  5
35C3
100
AcDbEntity
  8
0
100
AcDbLine
 10
426.445671
 20
269.619383
 30
0.0
 11
434.677966
 21
269.619383
 31
0.0
  0
LINE
  5
35C4
100
AcDbEntity
  8
0
100
AcDbLine
 10
414.445671
 20
273.769383
 30
0.0
 11
408.007786
 21
268.820259
 31
0.0
  0
LINE
  5
35C5
100
AcDbEntity
  8
0
100
AcDbLine
 10
414.445671
 20
273.769383
 30
0.0
 11
422.295671
 21
273.769383
 31
0.0
  0
ARC
  5
35C6
100
AcDbEntity
  8
0
100
AcDbCircle
 10
410.445671
 20
265.649026
 30
0.0
 40
4.0
100
AcDbArc
 50
127.551282
 51
180.0
  0
LINE
  5
35C7
100
AcDbEntity
  8
0
100
AcDbLine
 10
426.445671
 20
299.619383
 30
0.0
 11
422.295671
 21
295.469383
 31
0.0
  0
LINE
  5
35C8
100
AcDbEntity
  8
0
100
AcDbLine
 10
426.445671
 20
299.619383
 30
0.0
 11
434.677966
 21
299.619383
 31
0.0
  0
LINE
  5
35C9
100
AcDbEntity
  8
0
100
AcDbLine
 10
414.445671
 20
295.469383
 30
0.0
 11
408.007786
 21
300.418507
 31
0.0
  0
ARC
  5
35CA
100
AcDbEntity
  8
0
100
AcDbCircle
 10
410.445671
 20
303.58974
 30
0.0
 40
4.0
100
AcDbArc
 50
180.0
 51
232.448718
  0
LINE
  5
35CB
100
AcDbEntity
  8
0
100
AcDbLine
 10
414.445671
 20
295.469383
 30
0.0
 11
422.295671
 21
295.469383
 31
0.0
  0
LINE
  5
35CC
100
AcDbEntity
  8
0
100
AcDbLine
 10
392.445671
 20
332.119383
 30
0.0
 11
406.445671
 21
332.119383
 31
0.0
  0
LINE
  5
35CD
100
AcDbEntity
  8
0
100
AcDbLine
 10
580.445671
 20
519.059932
 30
0.0
 11
580.445671
 21
424.059932
 31
0.0
  0
LINE
  5
35CE
100
AcDbEntity
  8
0
100
AcDbLine
 10
594.445671
 20
424.059932
 30
0.0
 11
580.445671
 21
424.059932
 31
0.0
  0
LINE
  5
35CF
100
AcDbEntity
  8
0
100
AcDbLine
 10
560.445671
 20
486.559932
 30
0.0
 11
560.445671
 21
456.559932
 31
0.0
  0
LINE
  5
35D0
100
AcDbEntity
  8
0
100
AcDbLine
 10
564.595671
 20
482.409932
 30
0.0
 11
564.595671
 21
460.709932
 31
0.0
  0
LINE
  5
35D1
100
AcDbEntity
  8
0
100
AcDbLine
 10
572.445671
 20
482.409932
 30
0.0
 11
572.445671
 21
460.709932
 31
0.0
  0
LINE
  5
35D2
100
AcDbEntity
  8
0
100
AcDbLine
 10
560.445671
 20
456.559932
 30
0.0
 11
564.595671
 21
460.709932
 31
0.0
  0
LINE
  5
35D3
100
AcDbEntity
  8
0
100
AcDbLine
 10
560.445671
 20
456.559932
 30
0.0
 11
552.213375
 21
456.559932
 31
0.0
  0
LINE
  5
35D4
100
AcDbEntity
  8
0
100
AcDbLine
 10
572.445671
 20
460.709932
 30
0.0
 11
578.883556
 21
455.760808
 31
0.0
  0
LINE
  5
35D5
100
AcDbEntity
  8
0
100
AcDbLine
 10
572.445671
 20
460.709932
 30
0.0
 11
564.595671
 21
460.709932
 31
0.0
  0
ARC
  5
35D6
100
AcDbEntity
  8
0
100
AcDbCircle
 10
576.445671
 20
452.589575
 30
0.0
 40
4.0
100
AcDbArc
 50
0.0
 51
52.448718
  0
LINE
  5
35D7
100
AcDbEntity
  8
0
100
AcDbLine
 10
560.445671
 20
486.559932
 30
0.0
 11
564.595671
 21
482.409932
 31
0.0
  0
LINE
  5
35D8
100
AcDbEntity
  8
0
100
AcDbLine
 10
560.445671
 20
486.559932
 30
0.0
 11
552.213375
 21
486.559932
 31
0.0
  0
LINE
  5
35D9
100
AcDbEntity
  8
0
100
AcDbLine
 10
572.445671
 20
482.409932
 30
0.0
 11
578.883556
 21
487.359056
 31
0.0
  0
ARC
  5
35DA
100
AcDbEntity
  8
0
100
AcDbCircle
 10
576.445671
 20
490.530289
 30
0.0
 40
4.0
100
AcDbArc
 50
307.551282
 51
0.0
  0
LINE
  5
35DB
100
AcDbEntity
  8
0
100
AcDbLine
 10
572.445671
 20
482.409932
 30
0.0
 11
564.595671
 21
482.409932
 31
0.0
  0
LINE
  5
35DC
100
AcDbEntity
  8
0
100
AcDbLine
 10
594.445671
 20
519.059932
 30
0.0
 11
580.445671
 21
519.059932
 31
0.0
  0
LINE
  5
35DD
100
AcDbEntity
  8
0
100
AcDbLine
 10
406.445671
 20
519.059932
 30
0.0
 11
406.445671
 21
424.059932
 31
0.0
  0
LINE
  5
35DE
100
AcDbEntity
  8
0
100
AcDbLine
 10
392.445671
 20
424.059932
 30
0.0
 11
406.445671
 21
424.059932
 31
0.0
  0
LINE
  5
35DF
100
AcDbEntity
  8
0
100
AcDbLine
 10
414.445671
 20
482.409932
 30
0.0
 11
414.445671
 21
460.709932
 31
0.0
  0
LINE
  5
35E0
100
AcDbEntity
  8
0
100
AcDbLine
 10
422.295671
 20
482.409932
 30
0.0
 11
422.295671
 21
460.709932
 31
0.0
  0
LINE
  5
35E1
100
AcDbEntity
  8
0
100
AcDbLine
 10
426.445671
 20
486.559932
 30
0.0
 11
426.445671
 21
456.559932
 31
0.0
  0
LINE
  5
35E2
100
AcDbEntity
  8
0
100
AcDbLine
 10
426.445671
 20
456.559932
 30
0.0
 11
422.295671
 21
460.709932
 31
0.0
  0
ARC
  5
35E3
100
AcDbEntity
  8
0
100
AcDbCircle
 10
410.445671
 20
452.589575
 30
0.0
 40
4.0
100
AcDbArc
 50
127.551282
 51
180.0
  0
LINE
  5
35E4
100
AcDbEntity
  8
0
100
AcDbLine
 10
414.445671
 20
460.709932
 30
0.0
 11
422.295671
 21
460.709932
 31
0.0
  0
LINE
  5
35E5
100
AcDbEntity
  8
0
100
AcDbLine
 10
414.445671
 20
460.709932
 30
0.0
 11
408.007786
 21
455.760808
 31
0.0
  0
LINE
  5
35E6
100
AcDbEntity
  8
0
100
AcDbLine
 10
426.445671
 20
456.559932
 30
0.0
 11
434.677966
 21
456.559932
 31
0.0
  0
LINE
  5
35E7
100
AcDbEntity
  8
0
100
AcDbLine
 10
426.445671
 20
486.559932
 30
0.0
 11
422.295671
 21
482.409932
 31
0.0
  0
LINE
  5
35E8
100
AcDbEntity
  8
0
100
AcDbLine
 10
414.445671
 20
482.409932
 30
0.0
 11
422.295671
 21
482.409932
 31
0.0
  0
ARC
  5
35E9
100
AcDbEntity
  8
0
100
AcDbCircle
 10
410.445671
 20
490.530289
 30
0.0
 40
4.0
100
AcDbArc
 50
180.0
 51
232.448718
  0
LINE
  5
35EA
100
AcDbEntity
  8
0
100
AcDbLine
 10
414.445671
 20
482.409932
 30
0.0
 11
408.007786
 21
487.359056
 31
0.0
  0
LINE
  5
35EB
100
AcDbEntity
  8
0
100
AcDbLine
 10
426.445671
 20
486.559932
 30
0.0
 11
434.677966
 21
486.559932
 31
0.0
  0
LINE
  5
35EC
100
AcDbEntity
  8
0
100
AcDbLine
 10
392.445671
 20
519.059932
 30
0.0
 11
406.445671
 21
519.059932
 31
0.0
  0
LINE
  5
35ED
100
AcDbEntity
  8
0
100
AcDbLine
 10
580.445671
 20
729.707427
 30
0.0
 11
580.445671
 21
634.707427
 31
0.0
  0
LINE
  5
35EE
100
AcDbEntity
  8
0
100
AcDbLine
 10
594.445671
 20
634.707427
 30
0.0
 11
580.445671
 21
634.707427
 31
0.0
  0
LINE
  5
35EF
100
AcDbEntity
  8
0
100
AcDbLine
 10
560.445671
 20
697.207427
 30
0.0
 11
560.445671
 21
667.207427
 31
0.0
  0
LINE
  5
35F0
100
AcDbEntity
  8
0
100
AcDbLine
 10
564.595671
 20
693.057427
 30
0.0
 11
564.595671
 21
671.357427
 31
0.0
  0
LINE
  5
35F1
100
AcDbEntity
  8
0
100
AcDbLine
 10
572.445671
 20
693.057427
 30
0.0
 11
572.445671
 21
671.357427
 31
0.0
  0
LINE
  5
35F2
100
AcDbEntity
  8
0
100
AcDbLine
 10
560.445671
 20
667.207427
 30
0.0
 11
564.595671
 21
671.357427
 31
0.0
  0
LINE
  5
35F3
100
AcDbEntity
  8
0
100
AcDbLine
 10
560.445671
 20
667.207427
 30
0.0
 11
552.213375
 21
667.207427
 31
0.0
  0
LINE
  5
35F4
100
AcDbEntity
  8
0
100
AcDbLine
 10
572.445671
 20
671.357427
 30
0.0
 11
578.883556
 21
666.408302
 31
0.0
  0
LINE
  5
35F5
100
AcDbEntity
  8
0
100
AcDbLine
 10
572.445671
 20
671.357427
 30
0.0
 11
564.595671
 21
671.357427
 31
0.0
  0
ARC
  5
35F6
100
AcDbEntity
  8
0
100
AcDbCircle
 10
576.445671
 20
663.23707
 30
0.0
 40
4.0
100
AcDbArc
 50
0.0
 51
52.448718
  0
LINE
  5
35F7
100
AcDbEntity
  8
0
100
AcDbLine
 10
560.445671
 20
697.207427
 30
0.0
 11
564.595671
 21
693.057427
 31
0.0
  0
LINE
  5
35F8
100
AcDbEntity
  8
0
100
AcDbLine
 10
560.445671
 20
697.207427
 30
0.0
 11
552.213375
 21
697.207427
 31
0.0
  0
LINE
  5
35F9
100
AcDbEntity
  8
0
100
AcDbLine
 10
572.445671
 20
693.057427
 30
0.0
 11
578.883556
 21
698.006551
 31
0.0
  0
ARC
  5
35FA
100
AcDbEntity
  8
0
100
AcDbCircle
 10
576.445671
 20
701.177783
 30
0.0
 40
4.0
100
AcDbArc
 50
307.551282
 51
0.0
  0
LINE
  5
35FB
100
AcDbEntity
  8
0
100
AcDbLine
 10
572.445671
 20
693.057427
 30
0.0
 11
564.595671
 21
693.057427
 31
0.0
  0
LINE
  5
35FC
100
AcDbEntity
  8
0
100
AcDbLine
 10
594.445671
 20
729.707427
 30
0.0
 11
580.445671
 21
729.707427
 31
0.0
  0
LINE
  5
35FD
100
AcDbEntity
  8
0
100
AcDbLine
 10
406.445671
 20
729.707427
 30
0.0
 11
406.445671
 21
634.707427
 31
0.0
  0
LINE
  5
35FE
100
AcDbEntity
  8
0
100
AcDbLine
 10
392.445671
 20
634.707427
 30
0.0
 11
406.445671
 21
634.707427
 31
0.0
  0
LINE
  5
35FF
100
AcDbEntity
  8
0
100
AcDbLine
 10
414.445671
 20
693.057427
 30
0.0
 11
414.445671
 21
671.357427
 31
0.0
  0
LINE
  5
3600
100
AcDbEntity
  8
0
100
AcDbLine
 10
422.295671
 20
693.057427
 30
0.0
 11
422.295671
 21
671.357427
 31
0.0
  0
LINE
  5
3601
100
AcDbEntity
  8
0
100
AcDbLine
 10
426.445671
 20
697.207427
 30
0.0
 11
426.445671
 21
667.207427
 31
0.0
  0
LINE
  5
3602
100
AcDbEntity
  8
0
100
AcDbLine
 10
426.445671
 20
667.207427
 30
0.0
 11
422.295671
 21
671.357427
 31
0.0
  0
ARC
  5
3603
100
AcDbEntity
  8
0
100
AcDbCircle
 10
410.445671
 20
663.23707
 30
0.0
 40
4.0
100
AcDbArc
 50
127.551282
 51
180.0
  0
LINE
  5
3604
100
AcDbEntity
  8
0
100
AcDbLine
 10
414.445671
 20
671.357427
 30
0.0
 11
422.295671
 21
671.357427
 31
0.0
  0
LINE
  5
3605
100
AcDbEntity
  8
0
100
AcDbLine
 10
414.445671
 20
671.357427
 30
0.0
 11
408.007786
 21
666.408302
 31
0.0
  0
LINE
  5
3606
100
AcDbEntity
  8
0
100
AcDbLine
 10
426.445671
 20
667.207427
 30
0.0
 11
434.677966
 21
667.207427
 31
0.0
  0
LINE
  5
3607
100
AcDbEntity
  8
0
100
AcDbLine
 10
426.445671
 20
697.207427
 30
0.0
 11
422.295671
 21
693.057427
 31
0.0
  0
LINE
  5
3608
100
AcDbEntity
  8
0
100
AcDbLine
 10
414.445671
 20
693.057427
 30
0.0
 11
422.295671
 21
693.057427
 31
0.0
  0
ARC
  5
3609
100
AcDbEntity
  8
0
100
AcDbCircle
 10
410.445671
 20
701.177783
 30
0.0
 40
4.0
100
AcDbArc
 50
180.0
 51
232.448718
  0
LINE
  5
360A
100
AcDbEntity
  8
0
100
AcDbLine
 10
414.445671
 20
693.057427
 30
0.0
 11
408.007786
 21
698.006551
 31
0.0
  0
LINE
  5
360B
100
AcDbEntity
  8
0
100
AcDbLine
 10
426.445671
 20
697.207427
 30
0.0
 11
434.677966
 21
697.207427
 31
0.0
  0
LINE
  5
360C
100
AcDbEntity
  8
0
100
AcDbLine
 10
392.445671
 20
729.707427
 30
0.0
 11
406.445671
 21
729.707427
 31
0.0
  0
LINE
  5
360D
100
AcDbEntity
  8
0
100
AcDbLine
 10
1249.460525
 20
299.682005
 30
0.0
 11
1259.219439
 21
299.682005
 31
0.0
  0
LINE
  5
360E
100
AcDbEntity
  8
0
100
AcDbLine
 10
1249.460525
 20
269.682005
 30
0.0
 11
1259.219439
 21
269.682005
 31
0.0
  0
LINE
  5
360F
100
AcDbEntity
  8
0
100
AcDbLine
 10
1259.219439
 20
299.682005
 30
0.0
 11
1259.219439
 21
269.682005
 31
0.0
  0
LINE
  5
3610
100
AcDbEntity
  8
0
100
AcDbLine
 10
1260.619439
 20
298.282005
 30
0.0
 11
1260.619439
 21
271.082005
 31
0.0
  0
LINE
  5
3611
100
AcDbEntity
  8
0
100
AcDbLine
 10
1275.219439
 20
298.282005
 30
0.0
 11
1275.219439
 21
271.082005
 31
0.0
  0
LINE
  5
3612
100
AcDbEntity
  8
0
100
AcDbLine
 10
1285.219439
 20
334.682005
 30
0.0
 11
1285.219439
 21
234.682005
 31
0.0
  0
LINE
  5
3613
100
AcDbEntity
  8
0
100
AcDbLine
 10
1285.219439
 20
234.682005
 30
0.0
 11
1301.219439
 21
234.682005
 31
0.0
  0
LINE
  5
3614
100
AcDbEntity
  8
0
100
AcDbLine
 10
1283.375654
 20
265.862028
 30
0.0
 11
1275.219439
 21
271.082005
 31
0.0
  0
LINE
  5
3615
100
AcDbEntity
  8
0
100
AcDbLine
 10
1260.619439
 20
271.082005
 30
0.0
 11
1275.219439
 21
271.082005
 31
0.0
  0
LINE
  5
3616
100
AcDbEntity
  8
0
100
AcDbLine
 10
1259.219439
 20
269.682005
 30
0.0
 11
1260.619439
 21
271.082005
 31
0.0
  0
ARC
  5
3617
100
AcDbEntity
  8
0
100
AcDbCircle
 10
1281.219439
 20
262.492942
 30
0.0
 40
4.0
100
AcDbArc
 50
0.0
 51
57.380757
  0
LINE
  5
3618
100
AcDbEntity
  8
0
100
AcDbLine
 10
1283.375654
 20
303.501983
 30
0.0
 11
1275.219439
 21
298.282005
 31
0.0
  0
LINE
  5
3619
100
AcDbEntity
  8
0
100
AcDbLine
 10
1260.619439
 20
298.282005
 30
0.0
 11
1275.219439
 21
298.282005
 31
0.0
  0
LINE
  5
361A
100
AcDbEntity
  8
0
100
AcDbLine
 10
1259.219439
 20
299.682005
 30
0.0
 11
1260.619439
 21
298.282005
 31
0.0
  0
ARC
  5
361B
100
AcDbEntity
  8
0
100
AcDbCircle
 10
1281.219439
 20
306.871068
 30
0.0
 40
4.0
100
AcDbArc
 50
302.619243
 51
0.0
  0
LINE
  5
361C
100
AcDbEntity
  8
0
100
AcDbLine
 10
1285.219439
 20
334.682005
 30
0.0
 11
1301.219439
 21
334.682005
 31
0.0
  0
LINE
  5
361D
100
AcDbEntity
  8
0
100
AcDbLine
 10
1095.219439
 20
334.682005
 30
0.0
 11
1095.219439
 21
234.682005
 31
0.0
  0
LINE
  5
361E
100
AcDbEntity
  8
0
100
AcDbLine
 10
1097.063224
 20
303.501983
 30
0.0
 11
1105.219439
 21
298.282005
 31
0.0
  0
LINE
  5
361F
100
AcDbEntity
  8
0
100
AcDbLine
 10
1097.063224
 20
265.862028
 30
0.0
 11
1105.219439
 21
271.082005
 31
0.0
  0
LINE
  5
3620
100
AcDbEntity
  8
0
100
AcDbLine
 10
1105.219439
 20
298.282005
 30
0.0
 11
1105.219439
 21
271.082005
 31
0.0
  0
LINE
  5
3621
100
AcDbEntity
  8
0
100
AcDbLine
 10
1119.819439
 20
298.282005
 30
0.0
 11
1119.819439
 21
271.082005
 31
0.0
  0
LINE
  5
3622
100
AcDbEntity
  8
0
100
AcDbLine
 10
1121.219439
 20
299.682005
 30
0.0
 11
1121.219439
 21
269.682005
 31
0.0
  0
LINE
  5
3623
100
AcDbEntity
  8
0
100
AcDbLine
 10
1130.978353
 20
269.682005
 30
0.0
 11
1121.219439
 21
269.682005
 31
0.0
  0
LINE
  5
3624
100
AcDbEntity
  8
0
100
AcDbLine
 10
1121.219439
 20
269.682005
 30
0.0
 11
1119.819439
 21
271.082005
 31
0.0
  0
LINE
  5
3625
100
AcDbEntity
  8
0
100
AcDbLine
 10
1119.819439
 20
271.082005
 30
0.0
 11
1105.219439
 21
271.082005
 31
0.0
  0
LINE
  5
3626
100
AcDbEntity
  8
0
100
AcDbLine
 10
1130.978353
 20
299.682005
 30
0.0
 11
1121.219439
 21
299.682005
 31
0.0
  0
LINE
  5
3627
100
AcDbEntity
  8
0
100
AcDbLine
 10
1121.219439
 20
299.682005
 30
0.0
 11
1119.819439
 21
298.282005
 31
0.0
  0
LINE
  5
3628
100
AcDbEntity
  8
0
100
AcDbLine
 10
1119.819439
 20
298.282005
 30
0.0
 11
1105.219439
 21
298.282005
 31
0.0
  0
LINE
  5
3629
100
AcDbEntity
  8
0
100
AcDbLine
 10
1095.219439
 20
234.682005
 30
0.0
 11
1079.219439
 21
234.682005
 31
0.0
  0
ARC
  5
362A
100
AcDbEntity
  8
0
100
AcDbCircle
 10
1099.219439
 20
262.492942
 30
0.0
 40
4.0
100
AcDbArc
 50
122.619243
 51
180.0
  0
ARC
  5
362B
100
AcDbEntity
  8
0
100
AcDbCircle
 10
1099.219439
 20
306.871068
 30
0.0
 40
4.0
100
AcDbArc
 50
180.0
 51
237.380757
  0
LINE
  5
362C
100
AcDbEntity
  8
0
100
AcDbLine
 10
1095.219439
 20
334.682005
 30
0.0
 11
1079.219439
 21
334.682005
 31
0.0
  0
LINE
  5
362D
100
AcDbEntity
  8
0
100
AcDbLine
 10
1285.219439
 20
732.207427
 30
0.0
 11
1285.219439
 21
632.207427
 31
0.0
  0
LINE
  5
362E
100
AcDbEntity
  8
0
100
AcDbLine
 10
1283.375654
 20
701.027404
 30
0.0
 11
1275.219439
 21
695.807427
 31
0.0
  0
LINE
  5
362F
100
AcDbEntity
  8
0
100
AcDbLine
 10
1283.375654
 20
663.387449
 30
0.0
 11
1275.219439
 21
668.607427
 31
0.0
  0
LINE
  5
3630
100
AcDbEntity
  8
0
100
AcDbLine
 10
1275.219439
 20
695.807427
 30
0.0
 11
1275.219439
 21
668.607427
 31
0.0
  0
LINE
  5
3631
100
AcDbEntity
  8
0
100
AcDbLine
 10
1260.619439
 20
695.807427
 30
0.0
 11
1260.619439
 21
668.607427
 31
0.0
  0
LINE
  5
3632
100
AcDbEntity
  8
0
100
AcDbLine
 10
1259.219439
 20
697.207427
 30
0.0
 11
1259.219439
 21
667.207427
 31
0.0
  0
LINE
  5
3633
100
AcDbEntity
  8
0
100
AcDbLine
 10
1249.460525
 20
667.207427
 30
0.0
 11
1259.219439
 21
667.207427
 31
0.0
  0
LINE
  5
3634
100
AcDbEntity
  8
0
100
AcDbLine
 10
1259.219439
 20
667.207427
 30
0.0
 11
1260.619439
 21
668.607427
 31
0.0
  0
LINE
  5
3635
100
AcDbEntity
  8
0
100
AcDbLine
 10
1260.619439
 20
668.607427
 30
0.0
 11
1275.219439
 21
668.607427
 31
0.0
  0
LINE
  5
3636
100
AcDbEntity
  8
0
100
AcDbLine
 10
1249.460525
 20
697.207427
 30
0.0
 11
1259.219439
 21
697.207427
 31
0.0
  0
LINE
  5
3637
100
AcDbEntity
  8
0
100
AcDbLine
 10
1259.219439
 20
697.207427
 30
0.0
 11
1260.619439
 21
695.807427
 31
0.0
  0
LINE
  5
3638
100
AcDbEntity
  8
0
100
AcDbLine
 10
1260.619439
 20
695.807427
 30
0.0
 11
1275.219439
 21
695.807427
 31
0.0
  0
LINE
  5
3639
100
AcDbEntity
  8
0
100
AcDbLine
 10
1285.219439
 20
632.207427
 30
0.0
 11
1301.219439
 21
632.207427
 31
0.0
  0
ARC
  5
363A
100
AcDbEntity
  8
0
100
AcDbCircle
 10
1281.219439
 20
660.018364
 30
0.0
 40
4.0
100
AcDbArc
 50
0.0
 51
57.380757
  0
ARC
  5
363B
100
AcDbEntity
  8
0
100
AcDbCircle
 10
1281.219439
 20
704.39649
 30
0.0
 40
4.0
100
AcDbArc
 50
302.619243
 51
0.0
  0
LINE
  5
363C
100
AcDbEntity
  8
0
100
AcDbLine
 10
1285.219439
 20
732.207427
 30
0.0
 11
1301.219439
 21
732.207427
 31
0.0
  0
LINE
  5
363D
100
AcDbEntity
  8
0
100
AcDbLine
 10
1095.219439
 20
732.207427
 30
0.0
 11
1095.219439
 21
632.207427
 31
0.0
  0
ARC
  5
363E
100
AcDbEntity
  8
0
100
AcDbCircle
 10
1099.219439
 20
704.39649
 30
0.0
 40
4.0
100
AcDbArc
 50
180.0
 51
237.380757
  0
ARC
  5
363F
100
AcDbEntity
  8
0
100
AcDbCircle
 10
1099.219439
 20
660.018364
 30
0.0
 40
4.0
100
AcDbArc
 50
122.619243
 51
180.0
  0
LINE
  5
3640
100
AcDbEntity
  8
0
100
AcDbLine
 10
1095.219439
 20
632.207427
 30
0.0
 11
1079.219439
 21
632.207427
 31
0.0
  0
LINE
  5
3641
100
AcDbEntity
  8
0
100
AcDbLine
 10
1121.219439
 20
697.207427
 30
0.0
 11
1121.219439
 21
667.207427
 31
0.0
  0
LINE
  5
3642
100
AcDbEntity
  8
0
100
AcDbLine
 10
1119.819439
 20
695.807427
 30
0.0
 11
1119.819439
 21
668.607427
 31
0.0
  0
LINE
  5
3643
100
AcDbEntity
  8
0
100
AcDbLine
 10
1105.219439
 20
695.807427
 30
0.0
 11
1105.219439
 21
668.607427
 31
0.0
  0
LINE
  5
3644
100
AcDbEntity
  8
0
100
AcDbLine
 10
1119.819439
 20
668.607427
 30
0.0
 11
1105.219439
 21
668.607427
 31
0.0
  0
LINE
  5
3645
100
AcDbEntity
  8
0
100
AcDbLine
 10
1097.063224
 20
663.387449
 30
0.0
 11
1105.219439
 21
668.607427
 31
0.0
  0
LINE
  5
3646
100
AcDbEntity
  8
0
100
AcDbLine
 10
1121.219439
 20
667.207427
 30
0.0
 11
1119.819439
 21
668.607427
 31
0.0
  0
LINE
  5
3647
100
AcDbEntity
  8
0
100
AcDbLine
 10
1130.978353
 20
667.207427
 30
0.0
 11
1121.219439
 21
667.207427
 31
0.0
  0
LINE
  5
3648
100
AcDbEntity
  8
0
100
AcDbLine
 10
1119.819439
 20
695.807427
 30
0.0
 11
1105.219439
 21
695.807427
 31
0.0
  0
LINE
  5
3649
100
AcDbEntity
  8
0
100
AcDbLine
 10
1097.063224
 20
701.027404
 30
0.0
 11
1105.219439
 21
695.807427
 31
0.0
  0
LINE
  5
364A
100
AcDbEntity
  8
0
100
AcDbLine
 10
1121.219439
 20
697.207427
 30
0.0
 11
1119.819439
 21
695.807427
 31
0.0
  0
LINE
  5
364B
100
AcDbEntity
  8
0
100
AcDbLine
 10
1130.978353
 20
697.207427
 30
0.0
 11
1121.219439
 21
697.207427
 31
0.0
  0
LINE
  5
364C
100
AcDbEntity
  8
0
100
AcDbLine
 10
1095.219439
 20
732.207427
 30
0.0
 11
1079.219439
 21
732.207427
 31
0.0
  0
LINE
  5
364D
100
AcDbEntity
  8
0
100
AcDbLine
 10
1285.219439
 20
521.559932
 30
0.0
 11
1285.219439
 21
421.559932
 31
0.0
  0
LINE
  5
364E
100
AcDbEntity
  8
0
100
AcDbLine
 10
1283.375654
 20
490.379909
 30
0.0
 11
1275.219439
 21
485.159932
 31
0.0
  0
LINE
  5
364F
100
AcDbEntity
  8
0
100
AcDbLine
 10
1283.375654
 20
452.739954
 30
0.0
 11
1275.219439
 21
457.959932
 31
0.0
  0
LINE
  5
3650
100
AcDbEntity
  8
0
100
AcDbLine
 10
1275.219439
 20
485.159932
 30
0.0
 11
1275.219439
 21
457.959932
 31
0.0
  0
LINE
  5
3651
100
AcDbEntity
  8
0
100
AcDbLine
 10
1260.619439
 20
485.159932
 30
0.0
 11
1260.619439
 21
457.959932
 31
0.0
  0
LINE
  5
3652
100
AcDbEntity
  8
0
100
AcDbLine
 10
1259.219439
 20
486.559932
 30
0.0
 11
1259.219439
 21
456.559932
 31
0.0
  0
LINE
  5
3653
100
AcDbEntity
  8
0
100
AcDbLine
 10
1249.460525
 20
456.559932
 30
0.0
 11
1259.219439
 21
456.559932
 31
0.0
  0
LINE
  5
3654
100
AcDbEntity
  8
0
100
AcDbLine
 10
1259.219439
 20
456.559932
 30
0.0
 11
1260.619439
 21
457.959932
 31
0.0
  0
LINE
  5
3655
100
AcDbEntity
  8
0
100
AcDbLine
 10
1260.619439
 20
457.959932
 30
0.0
 11
1275.219439
 21
457.959932
 31
0.0
  0
LINE
  5
3656
100
AcDbEntity
  8
0
100
AcDbLine
 10
1249.460525
 20
486.559932
 30
0.0
 11
1259.219439
 21
486.559932
 31
0.0
  0
LINE
  5
3657
100
AcDbEntity
  8
0
100
AcDbLine
 10
1259.219439
 20
486.559932
 30
0.0
 11
1260.619439
 21
485.159932
 31
0.0
  0
LINE
  5
3658
100
AcDbEntity
  8
0
100
AcDbLine
 10
1260.619439
 20
485.159932
 30
0.0
 11
1275.219439
 21
485.159932
 31
0.0
  0
LINE
  5
3659
100
AcDbEntity
  8
0
100
AcDbLine
 10
1285.219439
 20
421.559932
 30
0.0
 11
1301.219439
 21
421.559932
 31
0.0
  0
ARC
  5
365A
100
AcDbEntity
  8
0
100
AcDbCircle
 10
1281.219439
 20
449.370869
 30
0.0
 40
4.0
100
AcDbArc
 50
0.0
 51
57.380757
  0
ARC
  5
365B
100
AcDbEntity
  8
0
100
AcDbCircle
 10
1281.219439
 20
493.748995
 30
0.0
 40
4.0
100
AcDbArc
 50
302.619243
 51
0.0
  0
LINE
  5
365C
100
AcDbEntity
  8
0
100
AcDbLine
 10
1285.219439
 20
521.559932
 30
0.0
 11
1301.219439
 21
521.559932
 31
0.0
  0
LINE
  5
365D
100
AcDbEntity
  8
0
100
AcDbLine
 10
1095.219439
 20
521.559932
 30
0.0
 11
1095.219439
 21
421.559932
 31
0.0
  0
ARC
  5
365E
100
AcDbEntity
  8
0
100
AcDbCircle
 10
1099.219439
 20
493.748995
 30
0.0
 40
4.0
100
AcDbArc
 50
180.0
 51
237.380757
  0
ARC
  5
365F
100
AcDbEntity
  8
0
100
AcDbCircle
 10
1099.219439
 20
449.370869
 30
0.0
 40
4.0
100
AcDbArc
 50
122.619243
 51
180.0
  0
LINE
  5
3660
100
AcDbEntity
  8
0
100
AcDbLine
 10
1095.219439
 20
421.559932
 30
0.0
 11
1079.219439
 21
421.559932
 31
0.0
  0
LINE
  5
3661
100
AcDbEntity
  8
0
100
AcDbLine
 10
1121.219439
 20
486.559932
 30
0.0
 11
1121.219439
 21
456.559932
 31
0.0
  0
LINE
  5
3662
100
AcDbEntity
  8
0
100
AcDbLine
 10
1119.819439
 20
485.159932
 30
0.0
 11
1119.819439
 21
457.959932
 31
0.0
  0
LINE
  5
3663
100
AcDbEntity
  8
0
100
AcDbLine
 10
1105.219439
 20
485.159932
 30
0.0
 11
1105.219439
 21
457.959932
 31
0.0
  0
LINE
  5
3664
100
AcDbEntity
  8
0
100
AcDbLine
 10
1119.819439
 20
457.959932
 30
0.0
 11
1105.219439
 21
457.959932
 31
0.0
  0
LINE
  5
3665
100
AcDbEntity
  8
0
100
AcDbLine
 10
1097.063224
 20
452.739954
 30
0.0
 11
1105.219439
 21
457.959932
 31
0.0
  0
LINE
  5
3666
100
AcDbEntity
  8
0
100
AcDbLine
 10
1121.219439
 20
456.559932
 30
0.0
 11
1119.819439
 21
457.959932
 31
0.0
  0
LINE
  5
3667
100
AcDbEntity
  8
0
100
AcDbLine
 10
1130.978353
 20
456.559932
 30
0.0
 11
1121.219439
 21
456.559932
 31
0.0
  0
LINE
  5
3668
100
AcDbEntity
  8
0
100
AcDbLine
 10
1119.819439
 20
485.159932
 30
0.0
 11
1105.219439
 21
485.159932
 31
0.0
  0
LINE
  5
3669
100
AcDbEntity
  8
0
100
AcDbLine
 10
1097.063224
 20
490.379909
 30
0.0
 11
1105.219439
 21
485.159932
 31
0.0
  0
LINE
  5
366A
100
AcDbEntity
  8
0
100
AcDbLine
 10
1121.219439
 20
486.559932
 30
0.0
 11
1119.819439
 21
485.159932
 31
0.0
  0
LINE
  5
366B
100
AcDbEntity
  8
0
100
AcDbLine
 10
1130.978353
 20
486.559932
 30
0.0
 11
1121.219439
 21
486.559932
 31
0.0
  0
LINE
  5
366C
100
AcDbEntity
  8
0
100
AcDbLine
 10
1095.219439
 20
521.559932
 30
0.0
 11
1079.219439
 21
521.559932
 31
0.0
  0
LINE
  5
366D
100
AcDbEntity
  8
0
100
AcDbLine
 10
2015.063783
 20
267.682005
 30
0.0
 11
2049.35724
 21
267.682005
 31
0.0
  0
LINE
  5
366E
100
AcDbEntity
  8
0
100
AcDbLine
 10
2015.063783
 20
301.682005
 30
0.0
 11
2049.35724
 21
301.682005
 31
0.0
  0
LINE
  5
366F
100
AcDbEntity
  8
0
100
AcDbLine
 10
2023.85724
 20
301.682005
 30
0.0
 11
2023.85724
 21
267.682005
 31
0.0
  0
LINE
  5
3670
100
AcDbEntity
  8
0
100
AcDbLine
 10
2049.35724
 20
301.682005
 30
0.0
 11
2049.35724
 21
267.682005
 31
0.0
  0
LINE
  5
3671
100
AcDbEntity
  8
0
100
AcDbLine
 10
2059.35724
 20
347.182005
 30
0.0
 11
2059.35724
 21
222.182005
 31
0.0
  0
LINE
  5
3672
100
AcDbEntity
  8
0
100
AcDbLine
 10
2059.35724
 20
222.182005
 30
0.0
 11
2075.35724
 21
222.182005
 31
0.0
  0
LINE
  5
3673
100
AcDbEntity
  8
0
100
AcDbLine
 10
2049.35724
 20
267.682005
 30
0.0
 11
2057.480715
 21
261.183225
 31
0.0
  0
ARC
  5
3674
100
AcDbEntity
  8
0
100
AcDbCircle
 10
2054.35724
 20
257.278881
 30
0.0
 40
5.0
100
AcDbArc
 50
0.0
 51
51.340192
  0
ARC
  5
3675
100
AcDbEntity
  8
0
100
AcDbCircle
 10
2054.35724
 20
312.085129
 30
0.0
 40
5.0
100
AcDbArc
 50
308.659808
 51
0.0
  0
LINE
  5
3676
100
AcDbEntity
  8
0
100
AcDbLine
 10
2049.35724
 20
301.682005
 30
0.0
 11
2057.480715
 21
308.180785
 31
0.0
  0
LINE
  5
3677
100
AcDbEntity
  8
0
100
AcDbLine
 10
2059.35724
 20
347.182005
 30
0.0
 11
2075.35724
 21
347.182005
 31
0.0
  0
LINE
  5
3678
100
AcDbEntity
  8
0
100
AcDbLine
 10
1849.35724
 20
347.182005
 30
0.0
 11
1849.35724
 21
222.182005
 31
0.0
  0
LINE
  5
3679
100
AcDbEntity
  8
0
100
AcDbLine
 10
1893.650697
 20
267.682005
 30
0.0
 11
1859.35724
 21
267.682005
 31
0.0
  0
LINE
  5
367A
100
AcDbEntity
  8
0
100
AcDbLine
 10
1893.650697
 20
301.682005
 30
0.0
 11
1859.35724
 21
301.682005
 31
0.0
  0
LINE
  5
367B
100
AcDbEntity
  8
0
100
AcDbLine
 10
1849.35724
 20
222.182005
 30
0.0
 11
1833.35724
 21
222.182005
 31
0.0
  0
LINE
  5
367C
100
AcDbEntity
  8
0
100
AcDbLine
 10
1859.35724
 20
301.682005
 30
0.0
 11
1859.35724
 21
267.682005
 31
0.0
  0
LINE
  5
367D
100
AcDbEntity
  8
0
100
AcDbLine
 10
1884.85724
 20
301.682005
 30
0.0
 11
1884.85724
 21
267.682005
 31
0.0
  0
ARC
  5
367E
100
AcDbEntity
  8
0
100
AcDbCircle
 10
1854.35724
 20
257.278881
 30
0.0
 40
5.0
100
AcDbArc
 50
128.659808
 51
180.0
  0
LINE
  5
367F
100
AcDbEntity
  8
0
100
AcDbLine
 10
1859.35724
 20
267.682005
 30
0.0
 11
1851.233765
 21
261.183225
 31
0.0
  0
LINE
  5
3680
100
AcDbEntity
  8
0
100
AcDbLine
 10
1859.35724
 20
301.682005
 30
0.0
 11
1851.233765
 21
308.180785
 31
0.0
  0
ARC
  5
3681
100
AcDbEntity
  8
0
100
AcDbCircle
 10
1854.35724
 20
312.085129
 30
0.0
 40
5.0
100
AcDbArc
 50
180.0
 51
231.340192
  0
LINE
  5
3682
100
AcDbEntity
  8
0
100
AcDbLine
 10
1849.35724
 20
347.182005
 30
0.0
 11
1833.35724
 21
347.182005
 31
0.0
  0
LINE
  5
3683
100
AcDbEntity
  8
0
100
AcDbLine
 10
2059.35724
 20
534.059932
 30
0.0
 11
2059.35724
 21
409.059932
 31
0.0
  0
LINE
  5
3684
100
AcDbEntity
  8
0
100
AcDbLine
 10
2015.063783
 20
454.559932
 30
0.0
 11
2049.35724
 21
454.559932
 31
0.0
  0
LINE
  5
3685
100
AcDbEntity
  8
0
100
AcDbLine
 10
2015.063783
 20
488.559932
 30
0.0
 11
2049.35724
 21
488.559932
 31
0.0
  0
LINE
  5
3686
100
AcDbEntity
  8
0
100
AcDbLine
 10
2059.35724
 20
409.059932
 30
0.0
 11
2075.35724
 21
409.059932
 31
0.0
  0
LINE
  5
3687
100
AcDbEntity
  8
0
100
AcDbLine
 10
2049.35724
 20
488.559932
 30
0.0
 11
2049.35724
 21
454.559932
 31
0.0
  0
LINE
  5
3688
100
AcDbEntity
  8
0
100
AcDbLine
 10
2023.85724
 20
488.559932
 30
0.0
 11
2023.85724
 21
454.559932
 31
0.0
  0
ARC
  5
3689
100
AcDbEntity
  8
0
100
AcDbCircle
 10
2054.35724
 20
444.156808
 30
0.0
 40
5.0
100
AcDbArc
 50
0.0
 51
51.340192
  0
LINE
  5
368A
100
AcDbEntity
  8
0
100
AcDbLine
 10
2049.35724
 20
454.559932
 30
0.0
 11
2057.480715
 21
448.061152
 31
0.0
  0
LINE
  5
368B
100
AcDbEntity
  8
0
100
AcDbLine
 10
2049.35724
 20
488.559932
 30
0.0
 11
2057.480715
 21
495.058712
 31
0.0
  0
ARC
  5
368C
100
AcDbEntity
  8
0
100
AcDbCircle
 10
2054.35724
 20
498.963056
 30
0.0
 40
5.0
100
AcDbArc
 50
308.659808
 51
0.0
  0
LINE
  5
368D
100
AcDbEntity
  8
0
100
AcDbLine
 10
2059.35724
 20
534.059932
 30
0.0
 11
2075.35724
 21
534.059932
 31
0.0
  0
LINE
  5
368E
100
AcDbEntity
  8
0
100
AcDbLine
 10
1849.35724
 20
534.059932
 30
0.0
 11
1849.35724
 21
409.059932
 31
0.0
  0
LINE
  5
368F
100
AcDbEntity
  8
0
100
AcDbLine
 10
1849.35724
 20
409.059932
 30
0.0
 11
1833.35724
 21
409.059932
 31
0.0
  0
LINE
  5
3690
100
AcDbEntity
  8
0
100
AcDbLine
 10
1893.650697
 20
488.559932
 30
0.0
 11
1859.35724
 21
488.559932
 31
0.0
  0
LINE
  5
3691
100
AcDbEntity
  8
0
100
AcDbLine
 10
1893.650697
 20
454.559932
 30
0.0
 11
1859.35724
 21
454.559932
 31
0.0
  0
LINE
  5
3692
100
AcDbEntity
  8
0
100
AcDbLine
 10
1859.35724
 20
488.559932
 30
0.0
 11
1859.35724
 21
454.559932
 31
0.0
  0
LINE
  5
3693
100
AcDbEntity
  8
0
100
AcDbLine
 10
1859.35724
 20
454.559932
 30
0.0
 11
1851.233765
 21
448.061152
 31
0.0
  0
ARC
  5
3694
100
AcDbEntity
  8
0
100
AcDbCircle
 10
1854.35724
 20
444.156808
 30
0.0
 40
5.0
100
AcDbArc
 50
128.659808
 51
180.0
  0
ARC
  5
3695
100
AcDbEntity
  8
0
100
AcDbCircle
 10
1854.35724
 20
498.963056
 30
0.0
 40
5.0
100
AcDbArc
 50
180.0
 51
231.340192
  0
LINE
  5
3696
100
AcDbEntity
  8
0
100
AcDbLine
 10
1859.35724
 20
488.559932
 30
0.0
 11
1851.233765
 21
495.058712
 31
0.0
  0
LINE
  5
3697
100
AcDbEntity
  8
0
100
AcDbLine
 10
1884.85724
 20
488.559932
 30
0.0
 11
1884.85724
 21
454.559932
 31
0.0
  0
LINE
  5
3698
100
AcDbEntity
  8
0
100
AcDbLine
 10
1849.35724
 20
534.059932
 30
0.0
 11
1833.35724
 21
534.059932
 31
0.0
  0
LINE
  5
3699
100
AcDbEntity
  8
0
100
AcDbLine
 10
2059.35724
 20
744.707427
 30
0.0
 11
2059.35724
 21
619.707427
 31
0.0
  0
LINE
  5
369A
100
AcDbEntity
  8
0
100
AcDbLine
 10
2015.063783
 20
665.207427
 30
0.0
 11
2049.35724
 21
665.207427
 31
0.0
  0
LINE
  5
369B
100
AcDbEntity
  8
0
100
AcDbLine
 10
2015.063783
 20
699.207427
 30
0.0
 11
2049.35724
 21
699.207427
 31
0.0
  0
LINE
  5
369C
100
AcDbEntity
  8
0
100
AcDbLine
 10
2059.35724
 20
619.707427
 30
0.0
 11
2075.35724
 21
619.707427
 31
0.0
  0
LINE
  5
369D
100
AcDbEntity
  8
0
100
AcDbLine
 10
2049.35724
 20
699.207427
 30
0.0
 11
2049.35724
 21
665.207427
 31
0.0
  0
LINE
  5
369E
100
AcDbEntity
  8
0
100
AcDbLine
 10
2023.85724
 20
699.207427
 30
0.0
 11
2023.85724
 21
665.207427
 31
0.0
  0
ARC
  5
369F
100
AcDbEntity
  8
0
100
AcDbCircle
 10
2054.35724
 20
654.804302
 30
0.0
 40
5.0
100
AcDbArc
 50
0.0
 51
51.340192
  0
LINE
  5
36A0
100
AcDbEntity
  8
0
100
AcDbLine
 10
2049.35724
 20
665.207427
 30
0.0
 11
2057.480715
 21
658.708646
 31
0.0
  0
LINE
  5
36A1
100
AcDbEntity
  8
0
100
AcDbLine
 10
2049.35724
 20
699.207427
 30
0.0
 11
2057.480715
 21
705.706207
 31
0.0
  0
ARC
  5
36A2
100
AcDbEntity
  8
0
100
AcDbCircle
 10
2054.35724
 20
709.610551
 30
0.0
 40
5.0
100
AcDbArc
 50
308.659808
 51
0.0
  0
LINE
  5
36A3
100
AcDbEntity
  8
0
100
AcDbLine
 10
2059.35724
 20
744.707427
 30
0.0
 11
2075.35724
 21
744.707427
 31
0.0
  0
LINE
  5
36A4
100
AcDbEntity
  8
0
100
AcDbLine
 10
1849.35724
 20
744.707427
 30
0.0
 11
1849.35724
 21
619.707427
 31
0.0
  0
LINE
  5
36A5
100
AcDbEntity
  8
0
100
AcDbLine
 10
1849.35724
 20
619.707427
 30
0.0
 11
1833.35724
 21
619.707427
 31
0.0
  0
LINE
  5
36A6
100
AcDbEntity
  8
0
100
AcDbLine
 10
1893.650697
 20
699.207427
 30
0.0
 11
1859.35724
 21
699.207427
 31
0.0
  0
LINE
  5
36A7
100
AcDbEntity
  8
0
100
AcDbLine
 10
1893.650697
 20
665.207427
 30
0.0
 11
1859.35724
 21
665.207427
 31
0.0
  0
LINE
  5
36A8
100
AcDbEntity
  8
0
100
AcDbLine
 10
1859.35724
 20
699.207427
 30
0.0
 11
1859.35724
 21
665.207427
 31
0.0
  0
LINE
  5
36A9
100
AcDbEntity
  8
0
100
AcDbLine
 10
1859.35724
 20
665.207427
 30
0.0
 11
1851.233765
 21
658.708646
 31
0.0
  0
ARC
  5
36AA
100
AcDbEntity
  8
0
100
AcDbCircle
 10
1854.35724
 20
654.804302
 30
0.0
 40
5.0
100
AcDbArc
 50
128.659808
 51
180.0
  0
ARC
  5
36AB
100
AcDbEntity
  8
0
100
AcDbCircle
 10
1854.35724
 20
709.610551
 30
0.0
 40
5.0
100
AcDbArc
 50
180.0
 51
231.340192
  0
LINE
  5
36AC
100
AcDbEntity
  8
0
100
AcDbLine
 10
1859.35724
 20
699.207427
 30
0.0
 11
1851.233765
 21
705.706207
 31
0.0
  0
LINE
  5
36AD
100
AcDbEntity
  8
0
100
AcDbLine
 10
1884.85724
 20
699.207427
 30
0.0
 11
1884.85724
 21
665.207427
 31
0.0
  0
LINE
  5
36AE
100
AcDbEntity
  8
0
100
AcDbLine
 10
1849.35724
 20
744.707427
 30
0.0
 11
1833.35724
 21
744.707427
 31
0.0
  0
ARC
  5
36B6
100
AcDbEntity
  8
0
100
AcDbCircle
 10
1998.15724
 20
701.207427
 30
0.0
 40
14.0
100
AcDbArc
 50
0.0
 51
90.0
  0
ARC
  5
36B7
100
AcDbEntity
  8
0
100
AcDbCircle
 10
1910.55724
 20
701.207427
 30
0.0
 40
14.0
100
AcDbArc
 50
90.0
 51
180.0
  0
ARC
  5
36BB
100
AcDbEntity
  8
0
100
AcDbCircle
 10
1980.940883
 20
622.207427
 30
0.0
 40
11.0
100
AcDbArc
 50
270.0
 51
314.998562
  0
ARC
  5
36BC
100
AcDbEntity
  8
0
100
AcDbCircle
 10
1927.773596
 20
622.207427
 30
0.0
 40
11.0
100
AcDbArc
 50
225.001438
 51
270.0
  0
ARC
  5
36BE
100
AcDbEntity
  8
0
100
AcDbCircle
 10
1907.55724
 20
642.422768
 30
0.0
 40
11.0
100
AcDbArc
 50
180.0
 51
225.001438
  0
ARC
  5
36BF
100
AcDbEntity
  8
0
100
AcDbCircle
 10
2001.15724
 20
642.422768
 30
0.0
 40
11.0
100
AcDbArc
 50
314.998562
 51
0.0
  0
ARC
  5
36C0
100
AcDbEntity
  8
0
100
AcDbCircle
 10
2001.15724
 20
244.897347
 30
0.0
 40
11.0
100
AcDbArc
 50
314.998562
 51
0.0
  0
ARC
  5
36C1
100
AcDbEntity
  8
0
100
AcDbCircle
 10
1980.940883
 20
224.682005
 30
0.0
 40
11.0
100
AcDbArc
 50
270.0
 51
314.998562
  0
ARC
  5
36C2
100
AcDbEntity
  8
0
100
AcDbCircle
 10
1927.773596
 20
224.682005
 30
0.0
 40
11.0
100
AcDbArc
 50
225.001438
 51
270.0
  0
ARC
  5
36C3
100
AcDbEntity
  8
0
100
AcDbCircle
 10
1907.55724
 20
244.897347
 30
0.0
 40
11.0
100
AcDbArc
 50
180.0
 51
225.001438
  0
ARC
  5
36C4
100
AcDbEntity
  8
0
100
AcDbCircle
 10
1998.15724
 20
303.682005
 30
0.0
 40
14.0
100
AcDbArc
 50
0.0
 51
90.0
  0
ARC
  5
36C5
100
AcDbEntity
  8
0
100
AcDbCircle
 10
1910.55724
 20
303.682005
 30
0.0
 40
14.0
100
AcDbArc
 50
90.0
 51
180.0
  0
ARC
  5
36C6
100
AcDbEntity
  8
0
100
AcDbCircle
 10
1234.019439
 20
303.682005
 30
0.0
 40
14.0
100
AcDbArc
 50
0.0
 51
90.0
  0
ARC
  5
36C7
100
AcDbEntity
  8
0
100
AcDbCircle
 10
1146.419439
 20
303.682005
 30
0.0
 40
14.0
100
AcDbArc
 50
90.0
 51
180.0
  0
ARC
  5
36C8
100
AcDbEntity
  8
0
100
AcDbCircle
 10
1237.019439
 20
244.897347
 30
0.0
 40
11.0
100
AcDbArc
 50
314.998562
 51
0.0
  0
ARC
  5
36C9
100
AcDbEntity
  8
0
100
AcDbCircle
 10
1216.803082
 20
224.682005
 30
0.0
 40
11.0
100
AcDbArc
 50
270.0
 51
314.998562
  0
ARC
  5
36CA
100
AcDbEntity
  8
0
100
AcDbCircle
 10
1163.635795
 20
224.682005
 30
0.0
 40
11.0
100
AcDbArc
 50
225.001438
 51
270.0
  0
ARC
  5
36CB
100
AcDbEntity
  8
0
100
AcDbCircle
 10
1143.419439
 20
244.897347
 30
0.0
 40
11.0
100
AcDbArc
 50
180.0
 51
225.001438
  0
ARC
  5
36CC
100
AcDbEntity
  8
0
100
AcDbCircle
 10
1237.019439
 20
642.422768
 30
0.0
 40
11.0
100
AcDbArc
 50
314.998562
 51
0.0
  0
ARC
  5
36CD
100
AcDbEntity
  8
0
100
AcDbCircle
 10
1216.803082
 20
622.207427
 30
0.0
 40
11.0
100
AcDbArc
 50
270.0
 51
314.998562
  0
ARC
  5
36CE
100
AcDbEntity
  8
0
100
AcDbCircle
 10
1163.635795
 20
622.207427
 30
0.0
 40
11.0
100
AcDbArc
 50
225.001438
 51
270.0
  0
ARC
  5
36CF
100
AcDbEntity
  8
0
100
AcDbCircle
 10
1143.419439
 20
642.422768
 30
0.0
 40
11.0
100
AcDbArc
 50
180.0
 51
225.001438
  0
ARC
  5
36D0
100
AcDbEntity
  8
0
100
AcDbCircle
 10
1234.019439
 20
701.207427
 30
0.0
 40
14.0
100
AcDbArc
 50
0.0
 51
90.0
  0
ARC
  5
36D1
100
AcDbEntity
  8
0
100
AcDbCircle
 10
1146.419439
 20
701.207427
 30
0.0
 40
14.0
100
AcDbArc
 50
90.0
 51
180.0
  0
ARC
  5
36D2
100
AcDbEntity
  8
0
100
AcDbCircle
 10
537.245671
 20
701.207427
 30
0.0
 40
14.0
100
AcDbArc
 50
0.0
 51
90.0
  0
ARC
  5
36D3
100
AcDbEntity
  8
0
100
AcDbCircle
 10
449.645671
 20
701.207427
 30
0.0
 40
14.0
100
AcDbArc
 50
90.0
 51
180.0
  0
ARC
  5
36D4
100
AcDbEntity
  8
0
100
AcDbCircle
 10
540.245671
 20
642.422768
 30
0.0
 40
11.0
100
AcDbArc
 50
314.998562
 51
0.0
  0
ARC
  5
36D5
100
AcDbEntity
  8
0
100
AcDbCircle
 10
520.029314
 20
622.207427
 30
0.0
 40
11.0
100
AcDbArc
 50
270.0
 51
314.998562
  0
ARC
  5
36D6
100
AcDbEntity
  8
0
100
AcDbCircle
 10
466.862027
 20
622.207427
 30
0.0
 40
11.0
100
AcDbArc
 50
225.001438
 51
270.0
  0
ARC
  5
36D7
100
AcDbEntity
  8
0
100
AcDbCircle
 10
446.645671
 20
642.422768
 30
0.0
 40
11.0
100
AcDbArc
 50
180.0
 51
225.001438
  0
ARC
  5
36D8
100
AcDbEntity
  8
0
100
AcDbCircle
 10
540.245671
 20
244.834725
 30
0.0
 40
11.0
100
AcDbArc
 50
314.998562
 51
0.0
  0
ARC
  5
36D9
100
AcDbEntity
  8
0
100
AcDbCircle
 10
520.029314
 20
224.619383
 30
0.0
 40
11.0
100
AcDbArc
 50
270.0
 51
314.998562
  0
ARC
  5
36DA
100
AcDbEntity
  8
0
100
AcDbCircle
 10
466.862027
 20
224.619383
 30
0.0
 40
11.0
100
AcDbArc
 50
225.001438
 51
270.0
  0
ARC
  5
36DB
100
AcDbEntity
  8
0
100
AcDbCircle
 10
446.645671
 20
244.834725
 30
0.0
 40
11.0
100
AcDbArc
 50
180.0
 51
225.001438
  0
ARC
  5
36DC
100
AcDbEntity
  8
0
100
AcDbCircle
 10
537.245671
 20
303.619383
 30
0.0
 40
14.0
100
AcDbArc
 50
0.0
 51
90.0
  0
ARC
  5
36DD
100
AcDbEntity
  8
0
100
AcDbCircle
 10
449.645671
 20
303.619383
 30
0.0
 40
14.0
100
AcDbArc
 50
90.0
 51
180.0
  0
ARC
  5
36DE
100
AcDbEntity
  8
0
100
AcDbCircle
 10
536.275481
 20
1031.23947
 30
0.0
 40
14.0
100
AcDbArc
 50
0.0
 51
90.0
  0
ARC
  5
36DF
100
AcDbEntity
  8
0
100
AcDbCircle
 10
448.675481
 20
1031.23947
 30
0.0
 40
14.0
100
AcDbArc
 50
90.0
 51
180.0
  0
ARC
  5
36E0
100
AcDbEntity
  8
0
100
AcDbCircle
 10
536.275481
 20
1428.764891
 30
0.0
 40
14.0
100
AcDbArc
 50
0.0
 51
90.0
  0
ARC
  5
36E1
100
AcDbEntity
  8
0
100
AcDbCircle
 10
448.675481
 20
1428.764891
 30
0.0
 40
14.0
100
AcDbArc
 50
90.0
 51
180.0
  0
ARC
  5
36E2
100
AcDbEntity
  8
0
100
AcDbCircle
 10
1241.26616
 20
1428.764891
 30
0.0
 40
14.0
100
AcDbArc
 50
0.0
 51
90.0
  0
ARC
  5
36E3
100
AcDbEntity
  8
0
100
AcDbCircle
 10
1153.66616
 20
1428.764891
 30
0.0
 40
14.0
100
AcDbArc
 50
90.0
 51
180.0
  0
ARC
  5
36E4
100
AcDbEntity
  8
0
100
AcDbCircle
 10
1241.26616
 20
1031.23947
 30
0.0
 40
14.0
100
AcDbArc
 50
0.0
 51
90.0
  0
ARC
  5
36E5
100
AcDbEntity
  8
0
100
AcDbCircle
 10
1153.66616
 20
1031.23947
 30
0.0
 40
14.0
100
AcDbArc
 50
90.0
 51
180.0
  0
ARC
  5
36E6
100
AcDbEntity
  8
0
100
AcDbCircle
 10
2027.041998
 20
1031.439495
 30
0.0
 40
14.0
100
AcDbArc
 50
0.0
 51
90.0
  0
ARC
  5
36E7
100
AcDbEntity
  8
0
100
AcDbCircle
 10
1939.441998
 20
1031.439495
 30
0.0
 40
14.0
100
AcDbArc
 50
90.0
 51
180.0
  0
ARC
  5
36E8
100
AcDbEntity
  8
0
100
AcDbCircle
 10
2027.041998
 20
1428.964916
 30
0.0
 40
14.0
100
AcDbArc
 50
0.0
 51
90.0
  0
ARC
  5
36E9
100
AcDbEntity
  8
0
100
AcDbCircle
 10
1939.441998
 20
1428.964916
 30
0.0
 40
14.0
100
AcDbArc
 50
90.0
 51
180.0
  0
ARC
  5
36EA
100
AcDbEntity
  8
0
100
AcDbCircle
 10
2030.041998
 20
1370.180258
 30
0.0
 40
11.0
100
AcDbArc
 50
314.998562
 51
0.0
  0
ARC
  5
36EB
100
AcDbEntity
  8
0
100
AcDbCircle
 10
2009.825642
 20
1349.964916
 30
0.0
 40
11.0
100
AcDbArc
 50
270.0
 51
314.998562
  0
ARC
  5
36EC
100
AcDbEntity
  8
0
100
AcDbCircle
 10
1956.658355
 20
1349.964916
 30
0.0
 40
11.0
100
AcDbArc
 50
225.001438
 51
270.0
  0
ARC
  5
36ED
100
AcDbEntity
  8
0
100
AcDbCircle
 10
1936.441998
 20
1370.180258
 30
0.0
 40
11.0
100
AcDbArc
 50
180.0
 51
225.001438
  0
ARC
  5
36EE
100
AcDbEntity
  8
0
100
AcDbCircle
 10
2030.041998
 20
972.654837
 30
0.0
 40
11.0
100
AcDbArc
 50
314.998562
 51
0.0
  0
ARC
  5
36EF
100
AcDbEntity
  8
0
100
AcDbCircle
 10
2009.825642
 20
952.439495
 30
0.0
 40
11.0
100
AcDbArc
 50
270.0
 51
314.998562
  0
ARC
  5
36F0
100
AcDbEntity
  8
0
100
AcDbCircle
 10
1956.658355
 20
952.439495
 30
0.0
 40
11.0
100
AcDbArc
 50
225.001438
 51
270.0
  0
ARC
  5
36F1
100
AcDbEntity
  8
0
100
AcDbCircle
 10
1936.441998
 20
972.654837
 30
0.0
 40
11.0
100
AcDbArc
 50
180.0
 51
225.001438
  0
ARC
  5
36F2
100
AcDbEntity
  8
0
100
AcDbCircle
 10
1244.26616
 20
972.454812
 30
0.0
 40
11.0
100
AcDbArc
 50
314.998562
 51
0.0
  0
ARC
  5
36F3
100
AcDbEntity
  8
0
100
AcDbCircle
 10
1224.049803
 20
952.23947
 30
0.0
 40
11.0
100
AcDbArc
 50
270.0
 51
314.998562
  0
ARC
  5
36F4
100
AcDbEntity
  8
0
100
AcDbCircle
 10
1170.882517
 20
952.23947
 30
0.0
 40
11.0
100
AcDbArc
 50
225.001438
 51
270.0
  0
ARC
  5
36F5
100
AcDbEntity
  8
0
100
AcDbCircle
 10
1150.66616
 20
972.454812
 30
0.0
 40
11.0
100
AcDbArc
 50
180.0
 51
225.001438
  0
ARC
  5
36F6
100
AcDbEntity
  8
0
100
AcDbCircle
 10
1244.26616
 20
1369.980233
 30
0.0
 40
11.0
100
AcDbArc
 50
314.998562
 51
0.0
  0
ARC
  5
36F7
100
AcDbEntity
  8
0
100
AcDbCircle
 10
1224.049803
 20
1349.764891
 30
0.0
 40
11.0
100
AcDbArc
 50
270.0
 51
314.998562
  0
ARC
  5
36F8
100
AcDbEntity
  8
0
100
AcDbCircle
 10
1170.882517
 20
1349.764891
 30
0.0
 40
11.0
100
AcDbArc
 50
225.001438
 51
270.0
  0
ARC
  5
36F9
100
AcDbEntity
  8
0
100
AcDbCircle
 10
1150.66616
 20
1369.980233
 30
0.0
 40
11.0
100
AcDbArc
 50
180.0
 51
225.001438
  0
ARC
  5
36FA
100
AcDbEntity
  8
0
100
AcDbCircle
 10
539.275481
 20
1369.980233
 30
0.0
 40
11.0
100
AcDbArc
 50
314.998562
 51
0.0
  0
ARC
  5
36FB
100
AcDbEntity
  8
0
100
AcDbCircle
 10
519.059124
 20
1349.764891
 30
0.0
 40
11.0
100
AcDbArc
 50
270.0
 51
314.998562
  0
ARC
  5
36FC
100
AcDbEntity
  8
0
100
AcDbCircle
 10
465.891837
 20
1349.764891
 30
0.0
 40
11.0
100
AcDbArc
 50
225.001438
 51
270.0
  0
ARC
  5
36FD
100
AcDbEntity
  8
0
100
AcDbCircle
 10
445.675481
 20
1369.980233
 30
0.0
 40
11.0
100
AcDbArc
 50
180.0
 51
225.001438
  0
ARC
  5
36FE
100
AcDbEntity
  8
0
100
AcDbCircle
 10
539.275481
 20
972.454812
 30
0.0
 40
11.0
100
AcDbArc
 50
314.998562
 51
0.0
  0
ARC
  5
36FF
100
AcDbEntity
  8
0
100
AcDbCircle
 10
519.059124
 20
952.23947
 30
0.0
 40
11.0
100
AcDbArc
 50
270.0
 51
314.998562
  0
ARC
  5
3700
100
AcDbEntity
  8
0
100
AcDbCircle
 10
465.891837
 20
952.23947
 30
0.0
 40
11.0
100
AcDbArc
 50
225.001438
 51
270.0
  0
ARC
  5
3701
100
AcDbEntity
  8
0
100
AcDbCircle
 10
445.675481
 20
972.454812
 30
0.0
 40
11.0
100
AcDbArc
 50
180.0
 51
225.001438
  0
VIEWPORT
  5
41
100
AcDbEntity
 67
     1
  8
0
100
AcDbViewport
 10
117.358407
 20
73.5
 30
0.0
 40
234.716814
 41
147.0
 68
    -1
 69
     1
1001
ACAD
1000
MVIEW
1002
{
1070
    16
1010
0.0
1020
0.0
1030
0.0
1010
0.0
1020
0.0
1030
1.0
1040
0.0
1040
147.0
1040
117.358407
1040
73.5
1040
50.0
1040
0.0
1040
0.0
1070
     0
1070
   100
1070
     1
1070
     1
1070
     0
1070
     0
1070
     0
1070
     0
1040
0.0
1040
0.0
1040
0.0
1040
1.0
1040
1.0
1040
0.0
1040
0.0
1070
     0
1002
{
1002
}
1002
}
  0
ENDSEC
  0
SECTION
  2
OBJECTS
  0
DICTIONARY
  5
C
100
AcDbDictionary
  3
ACAD_GROUP
350
D
  3
ACAD_MLINESTYLE
350
E
  0
DICTIONARY
  5
D
102
{ACAD_REACTORS
330
C
102
}
100
AcDbDictionary
  0
DICTIONARY
  5
E
102
{ACAD_REACTORS
330
C
102
}
100
AcDbDictionary
  3
STANDARD
350
1B
  0
MLINESTYLE
  5
1B
102
{ACAD_REACTORS
330
E
102
}
100
AcDbMlineStyle
  2
STANDARD
 70
     0
  3

 62
     0
 51
90.0
 52
90.0
 71
     2
 49
0.5
 62
   256
  6
BYLAYER
 49
-0.5
 62
   256
  6
BYLAYER
  0
ENDSEC
  0
EOF
