  0
SECTION
  2
HEADER
  9
$ACADVER
  1
AC1012
  9
$DWGCODEPAGE
  3
dos932
  9
$INSBASE
 10
0.0
 20
0.0
 30
0.0
  9
$EXTMIN
 10
88.0
 20
40.0
 30
0.0
  9
$EXTMAX
 10
2288.0
 20
1528.0
 30
0.0
  9
$LIMMIN
 10
0.0
 20
0.0
  9
$LIMMAX
 10
2376.0
 20
1680.0
  9
$ORTHOMODE
 70
     1
  9
$REGENMODE
 70
     1
  9
$FILLMODE
 70
     1
  9
$QTEXTMODE
 70
     0
  9
$MIRRTEXT
 70
     1
  9
$DRAGMODE
 70
     2
  9
$LTSCALE
 40
32.0
  9
$OSMODE
 70
   163
  9
$ATTMODE
 70
     1
  9
$TEXTSIZE
 40
32.0
  9
$TRACEWID
 40
0.05
  9
$TEXTSTYLE
  7
STANDARD
  9
$CLAYER
  8
0
  9
$CELTYPE
  6
BYLAYER
  9
$CECOLOR
 62
   256
  9
$CELTSCALE
 40
1.0
  9
$DELOBJ
 70
     1
  9
$DISPSILH
 70
     0
  9
$DIMSCALE
 40
8.0
  9
$DIMASZ
 40
2.8
  9
$DIMEXO
 40
1.0
  9
$DIMDLI
 40
5.0
  9
$DIMRND
 40
0.1
  9
$DIMDLE
 40
0.0
  9
$DIMEXE
 40
1.0
  9
$DIMTP
 40
0.0
  9
$DIMTM
 40
0.0
  9
$DIMTXT
 40
2.5
  9
$DIMCEN
 40
0.0
  9
$DIMTSZ
 40
0.0
  9
$DIMTOL
 70
     0
  9
$DIMLIM
 70
     0
  9
$DIMTIH
 70
     0
  9
$DIMTOH
 70
     0
  9
$DIMSE1
 70
     0
  9
$DIMSE2
 70
     0
  9
$DIMTAD
 70
     3
  9
$DIMZIN
 70
     8
  9
$DIMBLK
  1

  9
$DIMASO
 70
     1
  9
$DIMSHO
 70
     1
  9
$DIMPOST
  1
 
  9
$DIMAPOST
  1

  9
$DIMALT
 70
     0
  9
$DIMALTD
 70
     2
  9
$DIMALTF
 40
1.0
  9
$DIMLFAC
 40
1.0
  9
$DIMTOFL
 70
     1
  9
$DIMTVP
 40
0.0
  9
$DIMTIX
 70
     0
  9
$DIMSOXD
 70
     0
  9
$DIMSAH
 70
     1
  9
$DIMBLK1
  1
_OPEN
  9
$DIMBLK2
  1
_OPEN
  9
$DIMSTYLE
  2
DIM1
  9
$DIMCLRD
 70
     2
  9
$DIMCLRE
 70
     2
  9
$DIMCLRT
 70
     2
  9
$DIMTFAC
 40
0.7
  9
$DIMGAP
 40
0.85
  9
$DIMJUST
 70
     0
  9
$DIMSD1
 70
     0
  9
$DIMSD2
 70
     0
  9
$DIMTOLJ
 70
     1
  9
$DIMTZIN
 70
     8
  9
$DIMALTZ
 70
     8
  9
$DIMALTTZ
 70
     8
  9
$DIMFIT
 70
     0
  9
$DIMUPT
 70
     0
  9
$DIMUNIT
 70
     2
  9
$DIMDEC
 70
     2
  9
$DIMTDEC
 70
     3
  9
$DIMALTU
 70
     2
  9
$DIMALTTD
 70
     3
  9
$DIMTXSTY
  7
DIM
  9
$DIMAUNIT
 70
     0
  9
$LUNITS
 70
     2
  9
$LUPREC
 70
     4
  9
$SKETCHINC
 40
0.1
  9
$FILLETRAD
 40
0.0
  9
$AUNITS
 70
     0
  9
$AUPREC
 70
     0
  9
$MENU
  1
C:\ACADR13\WIN\SUPPORT\ACAD.mnc
  9
$ELEVATION
 40
0.0
  9
$PELEVATION
 40
0.0
  9
$THICKNESS
 40
0.0
  9
$LIMCHECK
 70
     0
  9
$BLIPMODE
 70
     1
  9
$CHAMFERA
 40
0.0
  9
$CHAMFERB
 40
0.0
  9
$CHAMFERC
 40
0.0
  9
$CHAMFERD
 40
0.0
  9
$SKPOLY
 70
     0
  9
$TDCREATE
 40
2451564.678696284
  9
$TDUPDATE
 40
2451967.652100150
  9
$TDINDWG
 40
0.0565256134
  9
$TDUSRTIMER
 40
0.0565256134
  9
$USRTIMER
 70
     1
  9
$ANGBASE
 50
0.0
  9
$ANGDIR
 70
     0
  9
$PDMODE
 70
     0
  9
$PDSIZE
 40
0.0
  9
$PLINEWID
 40
0.0
  9
$COORDS
 70
     1
  9
$SPLFRAME
 70
     0
  9
$SPLINETYPE
 70
     6
  9
$SPLINESEGS
 70
     8
  9
$ATTDIA
 70
     0
  9
$ATTREQ
 70
     1
  9
$HANDLING
 70
     1
  9
$HANDSEED
  5
3A6E
  9
$SURFTAB1
 70
     6
  9
$SURFTAB2
 70
     6
  9
$SURFTYPE
 70
     6
  9
$SURFU
 70
     6
  9
$SURFV
 70
     6
  9
$UCSNAME
  2

  9
$UCSORG
 10
0.0
 20
0.0
 30
0.0
  9
$UCSXDIR
 10
1.0
 20
0.0
 30
0.0
  9
$UCSYDIR
 10
0.0
 20
1.0
 30
0.0
  9
$PUCSNAME
  2

  9
$PUCSORG
 10
0.0
 20
0.0
 30
0.0
  9
$PUCSXDIR
 10
1.0
 20
0.0
 30
0.0
  9
$PUCSYDIR
 10
0.0
 20
1.0
 30
0.0
  9
$USERI1
 70
     0
  9
$USERI2
 70
     0
  9
$USERI3
 70
     0
  9
$USERI4
 70
     0
  9
$USERI5
 70
     0
  9
$USERR1
 40
0.0
  9
$USERR2
 40
0.0
  9
$USERR3
 40
0.0
  9
$USERR4
 40
0.0
  9
$USERR5
 40
0.0
  9
$WORLDVIEW
 70
     1
  9
$SHADEDGE
 70
     3
  9
$SHADEDIF
 70
    70
  9
$TILEMODE
 70
     1
  9
$MAXACTVP
 70
    16
  9
$PINSBASE
 10
0.0
 20
0.0
 30
0.0
  9
$PLIMCHECK
 70
     0
  9
$PEXTMIN
 10
1.000000E+20
 20
1.000000E+20
 30
1.000000E+20
  9
$PEXTMAX
 10
-1.000000E+20
 20
-1.000000E+20
 30
-1.000000E+20
  9
$PLIMMIN
 10
0.0
 20
0.0
  9
$PLIMMAX
 10
20.0
 20
147.0
  9
$UNITMODE
 70
     0
  9
$VISRETAIN
 70
     0
  9
$PLINEGEN
 70
     0
  9
$PSLTSCALE
 70
     1
  9
$TREEDEPTH
 70
  3020
  9
$PICKSTYLE
 70
     1
  9
$CMLSTYLE
  2
STANDARD
  9
$CMLJUST
 70
     0
  9
$CMLSCALE
 40
1.0
  9
$SAVEIMAGES
 70
     1
  0
ENDSEC
  0
SECTION
  2
CLASSES
  0
CLASS
  1
LWPOLYLINE
  2
AcDbPolyline
  3
"AutoCAD"
 90
    32768
280
     0
281
     1
  0
ENDSEC
  0
SECTION
  2
TABLES
  0
TABLE
  2
VPORT
  5
8
100
AcDbSymbolTable
 70
     2
  0
VPORT
  5
3A6D
100
AcDbSymbolTableRecord
100
AcDbViewportTableRecord
  2
*ACTIVE
 70
     0
 10
0.0
 20
0.0
 11
1.0
 21
1.0
 12
1587.77027
 22
901.085866
 13
0.0
 23
0.0
 14
1.0
 24
1.0
 15
0.0
 25
0.0
 16
0.0
 26
0.0
 36
1.0
 17
0.0
 27
0.0
 37
0.0
 40
1802.171733
 41
1.762063
 42
50.0
 43
0.0
 44
0.0
 50
0.0
 51
0.0
 71
     0
 72
   100
 73
     1
 74
     1
 75
     0
 76
     0
 77
     0
 78
     0
  0
ENDTAB
  0
TABLE
  2
LTYPE
  5
5
100
AcDbSymbolTable
 70
     5
  0
LTYPE
  5
12
100
AcDbSymbolTableRecord
100
AcDbLinetypeTableRecord
  2
BYBLOCK
 70
     0
  3

 72
    65
 73
     0
 40
0.0
  0
LTYPE
  5
13
100
AcDbSymbolTableRecord
100
AcDbLinetypeTableRecord
  2
BYLAYER
 70
     0
  3

 72
    65
 73
     0
 40
0.0
  0
LTYPE
  5
14
100
AcDbSymbolTableRecord
100
AcDbLinetypeTableRecord
  2
CONTINUOUS
 70
     0
  3
Solid line
 72
    65
 73
     0
 40
0.0
  0
ENDTAB
  0
TABLE
  2
LAYER
  5
2
100
AcDbSymbolTable
 70
     3
  0
LAYER
  5
F
100
AcDbSymbolTableRecord
100
AcDbLayerTableRecord
  2
0
 70
     0
 62
     7
  6
CONTINUOUS
  0
ENDTAB
  0
TABLE
  2
STYLE
  5
3
100
AcDbSymbolTable
 70
     3
  0
STYLE
  5
10
100
AcDbSymbolTableRecord
100
AcDbTextStyleTableRecord
  2
STANDARD
 70
     0
 40
0.0
 41
0.8
 50
0.0
 71
     0
 42
32.0
  3
simplex
  4
extfont
  0
STYLE
  5
237C
100
AcDbSymbolTableRecord
100
AcDbTextStyleTableRecord
  2
PTSH
 70
     0
 40
0.0
 41
0.9
 50
0.0
 71
     0
 42
4.0
  3
SIMPLEX
  4
EXTFONT
  0
STYLE
  5
2592
100
AcDbSymbolTableRecord
100
AcDbTextStyleTableRecord
  2
DIM
 70
     0
 40
0.0
 41
0.8
 50
0.0
 71
     0
 42
4.0
  3
simplex
  4
extfont
  0
ENDTAB
  0
TABLE
  2
VIEW
  5
6
100
AcDbSymbolTable
 70
     0
  0
ENDTAB
  0
TABLE
  2
UCS
  5
7
100
AcDbSymbolTable
 70
     0
  0
ENDTAB
  0
TABLE
  2
APPID
  5
9
100
AcDbSymbolTable
 70
     1
  0
APPID
  5
11
100
AcDbSymbolTableRecord
100
AcDbRegAppTableRecord
  2
ACAD
 70
     0
  0
ENDTAB
  0
TABLE
  2
DIMSTYLE
  5
A
100
AcDbSymbolTable
 70
     1
  0
DIMSTYLE
105
2237
100
AcDbSymbolTableRecord
100
AcDbDimStyleTableRecord
  2
DIM1
 70
     0
  3
 
  4

  5

  6
_OPEN
  7
_OPEN
 40
8.0
 41
2.8
 42
1.0
 43
5.0
 44
1.0
 45
0.1
 46
0.0
 47
0.0
 48
0.0
140
2.5
141
0.0
142
0.0
143
1.0
144
1.0
145
0.0
146
0.7
147
0.85
 71
     0
 72
     0
 73
     0
 74
     0
 75
     0
 76
     0
 77
     3
 78
     8
170
     0
171
     2
172
     1
173
     1
174
     0
175
     0
176
     2
177
     2
178
     2
270
     2
271
     2
272
     3
273
     2
274
     3
340
2592
275
     0
280
     0
281
     0
282
     0
283
     1
284
     8
285
     8
286
     8
287
     0
288
     0
  0
ENDTAB
  0
TABLE
  2
BLOCK_RECORD
  5
1
100
AcDbSymbolTable
 70
     1
  0
BLOCK_RECORD
  5
18
100
AcDbSymbolTableRecord
100
AcDbBlockTableRecord
  2
*MODEL_SPACE
  0
BLOCK_RECORD
  5
15
100
AcDbSymbolTableRecord
100
AcDbBlockTableRecord
  2
*PAPER_SPACE
  0
BLOCK_RECORD
  5
2448
100
AcDbSymbolTableRecord
100
AcDbBlockTableRecord
  2
_OPEN
  0
ENDTAB
  0
ENDSEC
  0
SECTION
  2
BLOCKS
  0
BLOCK
  5
3C
100
AcDbEntity
  8
0
100
AcDbBlockBegin
  2
*MODEL_SPACE
 70
     0
 10
0.0
 20
0.0
 30
0.0
  3
*MODEL_SPACE
  1

  0
ENDBLK
  5
3D
100
AcDbEntity
  8
0
100
AcDbBlockEnd
  0
BLOCK
  5
3A
100
AcDbEntity
 67
     1
  8
0
100
AcDbBlockBegin
  2
*PAPER_SPACE
 70
     0
 10
0.0
 20
0.0
 30
0.0
  3
*PAPER_SPACE
  1

  0
ENDBLK
  5
3B
100
AcDbEntity
 67
     1
  8
0
100
AcDbBlockEnd
  0
BLOCK
  5
2449
100
AcDbEntity
  8
0
 48
4.0
100
AcDbBlockBegin
  2
_OPEN
 70
     0
 10
0.0
 20
0.0
 30
0.0
  3
_OPEN
  1
H1111.DWG
  0
LINE
  5
244A
100
AcDbEntity
  8
0
  6
BYBLOCK
 62
     0
 48
4.0
100
AcDbLine
 10
-1.0
 20
0.166667
 30
0.0
 11
0.0
 21
0.0
 31
0.0
  0
LINE
  5
244B
100
AcDbEntity
  8
0
  6
BYBLOCK
 62
     0
 48
4.0
100
AcDbLine
 10
0.0
 20
0.0
 30
0.0
 11
-1.0
 21
-0.166667
 31
0.0
  0
LINE
  5
244C
100
AcDbEntity
  8
0
  6
BYBLOCK
 62
     0
 48
4.0
100
AcDbLine
 10
0.0
 20
0.0
 30
0.0
 11
-1.0
 21
0.0
 31
0.0
  0
ENDBLK
  5
244D
100
AcDbEntity
  8
0
 48
4.0
100
AcDbBlockEnd
  0
ENDSEC
  0
SECTION
  2
ENTITIES
  0
MTEXT
  5
ADA
100
AcDbEntity
  8
0
100
AcDbMText
 10
3041.114238
 20
398.770489
 30
0.0
 40
1.6
 41
377.811719
 71
     1
 72
     1
  1

  0
MTEXT
  5
ADB
100
AcDbEntity
  8
0
100
AcDbMText
 10
3112.399465
 20
462.80635
 30
0.0
 40
1.6
 41
363.554673
 71
     1
 72
     1
  1

  0
MTEXT
  5
ADC
100
AcDbEntity
  8
0
100
AcDbMText
 10
3069.628329
 20
-383.889971
 30
0.0
 40
1.6
 41
413.454332
 71
     1
 72
     1
  1

  0
TEXT
  5
2529
100
AcDbEntity
  8
0
  6
CONTINUOUS
100
AcDbText
 10
2182.440016
 20
55.806454
 30
0.0
 40
20.0
  1
SS5NH
 41
0.9
  7
PTSH
 72
     1
 11
2223.582873
 21
65.806454
 31
0.0
100
AcDbText
 73
     2
  0
POLYLINE
  5
2563
100
AcDbEntity
  8
0
100
AcDb2dPolyline
 66
     1
 10
0.0
 20
0.0
 30
0.0
 70
     1
  0
VERTEX
  5
39F6
100
AcDbEntity
  8
0
100
AcDbVertex
100
AcDb2dVertex
 10
88.0
 20
40.0
 30
0.0
  0
VERTEX
  5
39F7
100
AcDbEntity
  8
0
100
AcDbVertex
100
AcDb2dVertex
 10
2288.0
 20
40.0
 30
0.0
  0
VERTEX
  5
39F8
100
AcDbEntity
  8
0
100
AcDbVertex
100
AcDb2dVertex
 10
2288.0
 20
1528.0
 30
0.0
  0
VERTEX
  5
39F9
100
AcDbEntity
  8
0
100
AcDbVertex
100
AcDb2dVertex
 10
88.0
 20
1528.0
 30
0.0
  0
SEQEND
  5
39FA
100
AcDbEntity
  8
0
  0
LINE
  5
2ABE
100
AcDbEntity
  8
0
100
AcDbLine
 10
1228.592406
 20
690.109733
 30
0.0
 11
1136.991376
 21
690.109733
 31
0.0
  0
LINE
  5
2ABF
100
AcDbEntity
  8
0
100
AcDbLine
 10
1209.22684
 20
582.085014
 30
0.0
 11
1156.291082
 21
582.07113
 31
0.0
  0
LINE
  5
2AC0
100
AcDbEntity
  8
0
100
AcDbLine
 10
1220.315693
 20
535.065144
 30
0.0
 11
1144.735925
 21
535.065144
 31
0.0
  0
LINE
  5
2AC1
100
AcDbEntity
  8
0
100
AcDbLine
 10
1228.592406
 20
339.492372
 30
0.0
 11
1136.991376
 21
339.492372
 31
0.0
  0
LINE
  5
2AC2
100
AcDbEntity
  8
0
100
AcDbLine
 10
1220.414224
 20
427.04336
 30
0.0
 11
1145.279147
 21
427.023653
 31
0.0
  0
ARC
  5
2AC3
100
AcDbEntity
  8
0
100
AcDbCircle
 10
1136.573609
 20
1403.839618
 30
0.0
 40
15.0
100
AcDbArc
 50
90.0
 51
179.653469
  0
LINE
  5
2AC4
100
AcDbEntity
  8
0
100
AcDbLine
 10
1125.967282
 20
1335.82022
 30
0.0
 11
1147.328786
 21
1314.458715
 31
0.0
  0
ARC
  5
2AC5
100
AcDbEntity
  8
0
100
AcDbCircle
 10
1210.061159
 20
1214.524828
 30
0.0
 40
90.0
100
AcDbArc
 50
190.519775
 51
209.612999
  0
ARC
  5
2AC6
100
AcDbEntity
  8
0
100
AcDbCircle
 10
1136.573609
 20
1103.653489
 30
0.0
 40
15.0
100
AcDbArc
 50
90.0
 51
179.653469
  0
ARC
  5
2AC7
100
AcDbEntity
  8
0
100
AcDbCircle
 10
1210.061159
 20
1218.455148
 30
0.0
 40
90.0
100
AcDbArc
 50
150.387001
 51
169.480225
  0
TEXT
  5
2AC8
100
AcDbEntity
  8
0
100
AcDbText
 10
1177.546362
 20
196.393373
 30
0.0
 40
20.0
  1
20A
 41
0.8
 11
1177.546362
 21
196.393373
 31
0.0
100
AcDbText
 73
     1
  0
LINE
  5
2AC9
100
AcDbEntity
  8
0
100
AcDbLine
 10
1209.22684
 20
231.467653
 30
0.0
 11
1156.291082
 21
231.453769
 31
0.0
  0
TEXT
  5
2ACA
100
AcDbEntity
  8
0
100
AcDbText
 10
924.861425
 20
135.987413
 30
0.0
 40
30.0
  1
TLV  SS5NH (JIS40K)
100
AcDbText
  0
LINE
  5
2ACB
100
AcDbEntity
  8
0
100
AcDbLine
 10
1125.967282
 20
1035.634091
 30
0.0
 11
1147.328786
 21
1014.272586
 31
0.0
  0
TEXT
  5
2ACC
100
AcDbEntity
  8
0
100
AcDbText
 10
932.993639
 20
920.450971
 30
0.0
 40
30.0
  1
TLV  SS5NH (PT･SW)
100
AcDbText
  0
LINE
  5
2ACD
100
AcDbEntity
  8
0
100
AcDbLine
 10
451.627261
 20
607.090334
 30
0.0
 11
472.988766
 21
585.72883
 31
0.0
  0
ARC
  5
2ACE
100
AcDbEntity
  8
0
100
AcDbCircle
 10
462.233588
 20
675.109733
 30
0.0
 40
15.0
100
AcDbArc
 50
90.0
 51
179.653469
  0
ARC
  5
2ACF
100
AcDbEntity
  8
0
100
AcDbCircle
 10
470.517425
 20
520.074842
 30
0.0
 40
15.0
100
AcDbArc
 50
89.984972
 51
150.387001
  0
ARC
  5
2AD0
100
AcDbEntity
  8
0
100
AcDbCircle
 10
470.517425
 20
442.023653
 30
0.0
 40
15.0
100
AcDbArc
 50
209.612999
 51
270.015028
  0
ARC
  5
2AD1
100
AcDbEntity
  8
0
100
AcDbCircle
 10
462.233588
 20
324.492372
 30
0.0
 40
15.0
100
AcDbArc
 50
90.0
 51
179.653469
  0
LINE
  5
2AD2
100
AcDbEntity
  8
0
100
AcDbLine
 10
451.627261
 20
256.472974
 30
0.0
 11
472.988766
 21
235.111469
 31
0.0
  0
LINE
  5
2AD3
100
AcDbEntity
  8
0
100
AcDbLine
 10
381.870717
 20
311.666413
 30
0.0
 11
391.529967
 21
302.213038
 31
0.0
  0
LINE
  5
2AD4
100
AcDbEntity
  8
0
100
AcDbLine
 10
344.261404
 20
302.213038
 30
0.0
 11
334.808029
 21
311.666413
 31
0.0
  0
LINE
  5
2ADC
100
AcDbEntity
  8
0
100
AcDbLine
 10
446.266158
 20
319.421372
 30
0.0
 11
446.266158
 21
289.421372
 31
0.0
  0
LINE
  5
2ADD
100
AcDbEntity
  8
0
100
AcDbLine
 10
447.233863
 20
324.583093
 30
0.0
 11
447.233863
 21
267.079576
 31
0.0
  0
ARC
  5
2ADF
100
AcDbEntity
  8
0
100
AcDbCircle
 10
261.602662
 20
285.47988
 30
0.0
 40
54.012493
100
AcDbArc
 50
180.843455
 51
359.156545
  0
ELLIPSE
  5
2AE0
100
AcDbEntity
  8
0
100
AcDbEllipse
 10
261.602662
 20
245.799494
 30
0.0
 11
15.08777685472523
 21
0.0
 31
0.0
210
0.0
220
0.0
230
-1.0
 40
0.707359
 41
6.00046877682976
 42
9.707494491119204
  0
LINE
  5
2AE2
100
AcDbEntity
  8
0
100
AcDbLine
 10
391.529967
 20
302.213038
 30
0.0
 11
344.261404
 21
302.213038
 31
0.0
  0
ARC
  5
2AE7
100
AcDbEntity
  8
0
100
AcDbCircle
 10
462.233863
 20
267.079576
 30
0.0
 40
15.0
100
AcDbArc
 50
180.0
 51
225.0
  0
POLYLINE
  5
2AED
100
AcDbEntity
  8
0
100
AcDb2dPolyline
 66
     1
 10
0.0
 20
0.0
 30
0.0
  0
VERTEX
  5
39FB
100
AcDbEntity
  8
0
100
AcDbVertex
100
AcDb2dVertex
 10
447.233863
 20
288.595214
 30
0.0
  0
VERTEX
  5
39FC
100
AcDbEntity
  8
0
100
AcDbVertex
100
AcDb2dVertex
 10
446.266158
 20
289.421372
 30
0.0
  0
SEQEND
  5
39FD
100
AcDbEntity
  8
0
  0
TEXT
  5
2AEE
100
AcDbEntity
  8
0
100
AcDbText
 10
144.567599
 20
323.851836
 30
0.0
 40
25.0
  1
正面
100
AcDbText
  0
TEXT
  5
2AF0
100
AcDbEntity
  8
0
100
AcDbText
 10
144.567599
 20
464.681614
 30
0.0
 40
25.0
  1
平面
100
AcDbText
  0
LINE
  5
2AF1
100
AcDbEntity
  8
0
100
AcDbLine
 10
367.896529
 20
306.939726
 30
0.0
 11
381.870717
 21
306.939726
 31
0.0
  0
LINE
  5
2AF3
100
AcDbEntity
  8
0
100
AcDbLine
 10
334.808029
 20
311.666413
 30
0.0
 11
363.168154
 21
311.666413
 31
0.0
  0
LINE
  5
2AF4
100
AcDbEntity
  8
0
100
AcDbLine
 10
363.168154
 20
311.666413
 30
0.0
 11
367.896529
 21
306.939726
 31
0.0
  0
LINE
  5
2AF6
100
AcDbEntity
  8
0
100
AcDbLine
 10
381.870717
 20
306.939726
 30
0.0
 11
381.870717
 21
311.666413
 31
0.0
  0
POLYLINE
  5
2AFD
100
AcDbEntity
  8
0
100
AcDb2dPolyline
 66
     1
 10
0.0
 20
0.0
 30
0.0
  0
VERTEX
  5
39FE
100
AcDbEntity
  8
0
100
AcDbVertex
100
AcDb2dVertex
 10
447.233863
 20
320.24753
 30
0.0
  0
VERTEX
  5
39FF
100
AcDbEntity
  8
0
100
AcDbVertex
100
AcDb2dVertex
 10
446.266158
 20
319.421372
 30
0.0
  0
SEQEND
  5
3A00
100
AcDbEntity
  8
0
  0
LINE
  5
2AFE
100
AcDbEntity
  8
0
100
AcDbLine
 10
329.969213
 20
480.736085
 30
0.0
 11
320.515838
 21
490.18946
 31
0.0
  0
LINE
  5
2AFF
100
AcDbEntity
  8
0
100
AcDbLine
 10
320.515838
 20
490.18946
 30
0.0
 11
348.875963
 21
490.18946
 31
0.0
  0
LINE
  5
2B00
100
AcDbEntity
  8
0
100
AcDbLine
 10
348.875963
 20
490.18946
 30
0.0
 11
353.604338
 21
485.462773
 31
0.0
  0
LINE
  5
2B01
100
AcDbEntity
  8
0
100
AcDbLine
 10
377.237776
 20
480.736085
 30
0.0
 11
329.969213
 21
480.736085
 31
0.0
  0
LINE
  5
2B02
100
AcDbEntity
  8
0
100
AcDbLine
 10
353.604338
 20
485.462773
 30
0.0
 11
367.578526
 21
485.462773
 31
0.0
  0
LINE
  5
2B03
100
AcDbEntity
  8
0
100
AcDbLine
 10
367.578526
 20
490.18946
 30
0.0
 11
377.237776
 21
480.736085
 31
0.0
  0
LINE
  5
2B04
100
AcDbEntity
  8
0
100
AcDbLine
 10
367.578526
 20
485.462773
 30
0.0
 11
367.578526
 21
490.18946
 31
0.0
  0
LINE
  5
2B09
100
AcDbEntity
  8
0
100
AcDbLine
 10
446.266158
 20
496.049247
 30
0.0
 11
446.266158
 21
466.049247
 31
0.0
  0
LINE
  5
2B0A
100
AcDbEntity
  8
0
100
AcDbLine
 10
447.233863
 20
499.446147
 30
0.0
 11
447.233863
 21
462.652348
 31
0.0
  0
ARC
  5
2B10
100
AcDbEntity
  8
0
100
AcDbCircle
 10
535.721138
 20
479.084087
 30
0.0
 40
90.0
100
AcDbArc
 50
190.519775
 51
209.612999
  0
POLYLINE
  5
2B16
100
AcDbEntity
  8
0
100
AcDb2dPolyline
 66
     1
 10
0.0
 20
0.0
 30
0.0
  0
VERTEX
  5
3A01
100
AcDbEntity
  8
0
100
AcDbVertex
100
AcDb2dVertex
 10
447.233863
 20
465.223089
 30
0.0
  0
VERTEX
  5
3A02
100
AcDbEntity
  8
0
100
AcDbVertex
100
AcDb2dVertex
 10
446.266158
 20
466.049247
 30
0.0
  0
SEQEND
  5
3A03
100
AcDbEntity
  8
0
  0
ARC
  5
2B1A
100
AcDbEntity
  8
0
100
AcDbCircle
 10
535.721138
 20
483.014407
 30
0.0
 40
90.0
100
AcDbArc
 50
150.387001
 51
169.480225
  0
POLYLINE
  5
2B20
100
AcDbEntity
  8
0
100
AcDb2dPolyline
 66
     1
 10
0.0
 20
0.0
 30
0.0
  0
VERTEX
  5
3A04
100
AcDbEntity
  8
0
100
AcDbVertex
100
AcDb2dVertex
 10
447.233863
 20
496.875405
 30
0.0
  0
VERTEX
  5
3A05
100
AcDbEntity
  8
0
100
AcDbVertex
100
AcDb2dVertex
 10
446.266158
 20
496.049247
 30
0.0
  0
SEQEND
  5
3A06
100
AcDbEntity
  8
0
  0
TEXT
  5
2B21
100
AcDbEntity
  8
0
100
AcDbText
 10
144.567599
 20
635.683187
 30
0.0
 40
25.0
  1
背面
100
AcDbText
  0
LINE
  5
2B22
100
AcDbEntity
  8
0
100
AcDbLine
 10
447.233863
 20
675.200454
 30
0.0
 11
447.233863
 21
617.696936
 31
0.0
  0
LINE
  5
2B23
100
AcDbEntity
  8
0
100
AcDbLine
 10
446.266158
 20
670.038733
 30
0.0
 11
446.266158
 21
640.038733
 31
0.0
  0
ARC
  5
2B2D
100
AcDbEntity
  8
0
100
AcDbCircle
 10
462.233863
 20
617.696936
 30
0.0
 40
15.0
100
AcDbArc
 50
180.0
 51
225.0
  0
POLYLINE
  5
2B33
100
AcDbEntity
  8
0
100
AcDb2dPolyline
 66
     1
 10
0.0
 20
0.0
 30
0.0
  0
VERTEX
  5
3A07
100
AcDbEntity
  8
0
100
AcDbVertex
100
AcDb2dVertex
 10
447.233863
 20
639.212574
 30
0.0
  0
VERTEX
  5
3A08
100
AcDbEntity
  8
0
100
AcDbVertex
100
AcDb2dVertex
 10
446.266158
 20
640.038733
 30
0.0
  0
SEQEND
  5
3A09
100
AcDbEntity
  8
0
  0
POLYLINE
  5
2B3C
100
AcDbEntity
  8
0
100
AcDb2dPolyline
 66
     1
 10
0.0
 20
0.0
 30
0.0
  0
VERTEX
  5
3A0A
100
AcDbEntity
  8
0
100
AcDbVertex
100
AcDb2dVertex
 10
447.233863
 20
670.864891
 30
0.0
  0
VERTEX
  5
3A0B
100
AcDbEntity
  8
0
100
AcDbVertex
100
AcDb2dVertex
 10
446.266158
 20
670.038733
 30
0.0
  0
SEQEND
  5
3A0C
100
AcDbEntity
  8
0
  0
LINE
  5
2B3D
100
AcDbEntity
  8
0
100
AcDbLine
 10
1048.874501
 20
311.666413
 30
0.0
 11
1058.533751
 21
302.213038
 31
0.0
  0
LINE
  5
2B3E
100
AcDbEntity
  8
0
100
AcDbLine
 10
1011.265188
 20
302.213038
 30
0.0
 11
1001.811813
 21
311.666413
 31
0.0
  0
LINE
  5
2B45
100
AcDbEntity
  8
0
100
AcDbLine
 10
568.833863
 20
324.642913
 30
0.0
 11
568.833863
 21
267.078576
 31
0.0
  0
LINE
  5
2B49
100
AcDbEntity
  8
0
100
AcDbLine
 10
569.802048
 20
319.421372
 30
0.0
 11
569.802048
 21
289.421372
 31
0.0
  0
ARC
  5
2B4A
100
AcDbEntity
  8
0
100
AcDbCircle
 10
696.735102
 20
285.47988
 30
0.0
 40
54.012493
100
AcDbArc
 50
180.843455
 51
359.156545
  0
LINE
  5
2B50
100
AcDbEntity
  8
0
100
AcDbLine
 10
1120.550565
 20
319.421372
 30
0.0
 11
1120.550565
 21
289.421372
 31
0.0
  0
LINE
  5
2B51
100
AcDbEntity
  8
0
100
AcDbLine
 10
1121.99165
 20
324.583093
 30
0.0
 11
1121.99165
 21
267.079576
 31
0.0
  0
ARC
  5
2B53
100
AcDbEntity
  8
0
100
AcDbCircle
 10
935.78162
 20
285.47988
 30
0.0
 40
54.012493
100
AcDbArc
 50
189.107221
 51
350.892779
  0
ARC
  5
2B54
100
AcDbEntity
  8
0
100
AcDbCircle
 10
534.25667
 20
243.965849
 30
0.0
 40
12.5
100
AcDbArc
 50
270.019649
 51
315.0
  0
LINE
  5
2B55
100
AcDbEntity
  8
0
100
AcDbLine
 10
564.440465
 20
256.471974
 30
0.0
 11
543.095505
 21
235.127014
 31
0.0
  0
LINE
  5
2B56
100
AcDbEntity
  8
0
100
AcDbLine
 10
534.469052
 20
231.467653
 30
0.0
 11
481.533295
 21
231.453769
 31
0.0
  0
TEXT
  5
2B57
100
AcDbEntity
  8
0
100
AcDbText
 10
494.709284
 20
195.073624
 30
0.0
 40
20.0
  1
15A
 41
0.8
 11
494.709284
 21
195.073624
 31
0.0
100
AcDbText
 73
     1
  0
ARC
  5
2B58
100
AcDbEntity
  8
0
100
AcDbCircle
 10
481.827601
 20
243.950304
 30
0.0
 40
12.5
100
AcDbArc
 50
225.0
 51
268.945222
  0
ARC
  5
2B5A
100
AcDbEntity
  8
0
100
AcDbCircle
 10
553.833863
 20
267.078576
 30
0.0
 40
15.0
100
AcDbArc
 50
315.0
 51
0.0
  0
POLYLINE
  5
2B5C
100
AcDbEntity
  8
0
100
AcDb2dPolyline
 66
     1
 10
0.0
 20
0.0
 30
0.0
  0
VERTEX
  5
3A0D
100
AcDbEntity
  8
0
100
AcDbVertex
100
AcDb2dVertex
 10
568.834344
 20
288.595214
 30
0.0
  0
VERTEX
  5
3A0E
100
AcDbEntity
  8
0
100
AcDbVertex
100
AcDb2dVertex
 10
569.802048
 20
289.421372
 30
0.0
  0
SEQEND
  5
3A0F
100
AcDbEntity
  8
0
  0
ELLIPSE
  5
2B63
100
AcDbEntity
  8
0
100
AcDbEllipse
 10
696.735102
 20
245.799494
 30
0.0
 11
-15.08777685472523
 21
0.0
 31
0.0
210
0.0
220
0.0
230
1.0
 40
0.707359
 41
6.000468776829761
 42
9.707494491119202
  0
LINE
  5
2B66
100
AcDbEntity
  8
0
100
AcDbLine
 10
1058.533751
 20
302.213038
 30
0.0
 11
1011.265188
 21
302.213038
 31
0.0
  0
ELLIPSE
  5
2B67
100
AcDbEntity
  8
0
100
AcDbEllipse
 10
935.78162
 20
245.799494
 30
0.0
 11
15.08777685472523
 21
0.0
 31
0.0
210
0.0
220
0.0
230
-1.0
 40
0.707359
 41
6.232120034172844
 42
9.475843233776121
  0
LINE
  5
2B71
100
AcDbEntity
  8
0
100
AcDbLine
 10
1126.385049
 20
256.472974
 30
0.0
 11
1147.746553
 21
235.111469
 31
0.0
  0
ARC
  5
2B72
100
AcDbEntity
  8
0
100
AcDbCircle
 10
1156.585388
 20
243.950304
 30
0.0
 40
12.5
100
AcDbArc
 50
225.0
 51
268.945222
  0
ARC
  5
2B73
100
AcDbEntity
  8
0
100
AcDbCircle
 10
1136.99165
 20
267.079576
 30
0.0
 40
15.0
100
AcDbArc
 50
180.0
 51
225.0
  0
LINE
  5
2B74
100
AcDbEntity
  8
0
100
AcDbLine
 10
1120.550565
 20
289.421372
 30
0.0
 11
1121.99165
 21
288.083808
 31
0.0
  0
ARC
  5
2B75
100
AcDbEntity
  8
0
100
AcDbCircle
 10
545.557905
 20
520.065144
 30
0.0
 40
15.0
100
AcDbArc
 50
29.61915
 51
90.0
  0
LINE
  5
2B76
100
AcDbEntity
  8
0
100
AcDbLine
 10
553.834618
 20
339.492372
 30
0.0
 11
462.233588
 21
339.492372
 31
0.0
  0
ARC
  5
2B78
100
AcDbEntity
  8
0
100
AcDbCircle
 10
553.834618
 20
324.492372
 30
0.0
 40
15.0
100
AcDbArc
 50
0.575033
 51
90.0
  0
POLYLINE
  5
2B7B
100
AcDbEntity
  8
0
100
AcDb2dPolyline
 66
     1
 10
0.0
 20
0.0
 30
0.0
  0
VERTEX
  5
3A10
100
AcDbEntity
  8
0
100
AcDbVertex
100
AcDb2dVertex
 10
568.834344
 20
320.24753
 30
0.0
  0
VERTEX
  5
3A11
100
AcDbEntity
  8
0
100
AcDbVertex
100
AcDb2dVertex
 10
569.802048
 20
319.421372
 30
0.0
  0
SEQEND
  5
3A12
100
AcDbEntity
  8
0
  0
LINE
  5
2B80
100
AcDbEntity
  8
0
100
AcDbLine
 10
545.656436
 20
427.04336
 30
0.0
 11
470.52136
 21
427.023653
 31
0.0
  0
LINE
  5
2B81
100
AcDbEntity
  8
0
100
AcDbLine
 10
568.842159
 20
499.447147
 30
0.0
 11
568.842159
 21
462.651348
 31
0.0
  0
LINE
  5
2B87
100
AcDbEntity
  8
0
100
AcDbLine
 10
569.809863
 20
496.049247
 30
0.0
 11
569.809863
 21
466.049247
 31
0.0
  0
ARC
  5
2B8B
100
AcDbEntity
  8
0
100
AcDbCircle
 10
480.358171
 20
479.100784
 30
0.0
 40
90.0
100
AcDbArc
 50
330.389392
 51
349.468766
  0
ARC
  5
2B8C
100
AcDbEntity
  8
0
100
AcDbCircle
 10
545.563431
 20
442.043071
 30
0.0
 40
15.0
100
AcDbArc
 50
270.015028
 51
330.389392
  0
POLYLINE
  5
2B8E
100
AcDbEntity
  8
0
100
AcDb2dPolyline
 66
     1
 10
0.0
 20
0.0
 30
0.0
  0
VERTEX
  5
3A13
100
AcDbEntity
  8
0
100
AcDbVertex
100
AcDb2dVertex
 10
568.842159
 20
465.223089
 30
0.0
  0
VERTEX
  5
3A14
100
AcDbEntity
  8
0
100
AcDbVertex
100
AcDb2dVertex
 10
569.809863
 20
466.049247
 30
0.0
  0
SEQEND
  5
3A15
100
AcDbEntity
  8
0
  0
ARC
  5
2B95
100
AcDbEntity
  8
0
100
AcDbCircle
 10
480.358171
 20
482.997711
 30
0.0
 40
90.0
100
AcDbArc
 50
10.531234
 51
29.61915
  0
POLYLINE
  5
2B97
100
AcDbEntity
  8
0
100
AcDb2dPolyline
 66
     1
 10
0.0
 20
0.0
 30
0.0
  0
VERTEX
  5
3A16
100
AcDbEntity
  8
0
100
AcDbVertex
100
AcDb2dVertex
 10
568.842159
 20
496.875405
 30
0.0
  0
VERTEX
  5
3A17
100
AcDbEntity
  8
0
100
AcDbVertex
100
AcDb2dVertex
 10
569.809863
 20
496.049247
 30
0.0
  0
SEQEND
  5
3A18
100
AcDbEntity
  8
0
  0
LINE
  5
2BA0
100
AcDbEntity
  8
0
100
AcDbLine
 10
623.30001
 20
657.224865
 30
0.0
 11
670.568572
 21
657.224865
 31
0.0
  0
LINE
  5
2BA1
100
AcDbEntity
  8
0
100
AcDbLine
 10
632.95926
 20
666.67824
 30
0.0
 11
623.30001
 21
657.224865
 31
0.0
  0
LINE
  5
2BA2
100
AcDbEntity
  8
0
100
AcDbLine
 10
568.833863
 20
675.260273
 30
0.0
 11
568.833863
 21
617.695936
 31
0.0
  0
LINE
  5
2BA3
100
AcDbEntity
  8
0
100
AcDbLine
 10
569.802048
 20
670.038733
 30
0.0
 11
569.802048
 21
640.038733
 31
0.0
  0
LINE
  5
2BAB
100
AcDbEntity
  8
0
100
AcDbLine
 10
564.440465
 20
607.089334
 30
0.0
 11
543.095505
 21
585.744374
 31
0.0
  0
LINE
  5
2BAC
100
AcDbEntity
  8
0
100
AcDbLine
 10
545.557905
 20
535.065144
 30
0.0
 11
469.978138
 21
535.065144
 31
0.0
  0
ARC
  5
2BAD
100
AcDbEntity
  8
0
100
AcDbCircle
 10
534.25667
 20
594.583209
 30
0.0
 40
12.5
100
AcDbArc
 50
270.019649
 51
315.0
  0
LINE
  5
2BAE
100
AcDbEntity
  8
0
100
AcDbLine
 10
534.469052
 20
582.085014
 30
0.0
 11
481.533295
 21
582.07113
 31
0.0
  0
ARC
  5
2BAF
100
AcDbEntity
  8
0
100
AcDbCircle
 10
481.827601
 20
594.567664
 30
0.0
 40
12.5
100
AcDbArc
 50
225.0
 51
268.945222
  0
ARC
  5
2BB1
100
AcDbEntity
  8
0
100
AcDbCircle
 10
553.833863
 20
617.695936
 30
0.0
 40
15.0
100
AcDbArc
 50
315.0
 51
0.0
  0
POLYLINE
  5
2BB3
100
AcDbEntity
  8
0
100
AcDb2dPolyline
 66
     1
 10
0.0
 20
0.0
 30
0.0
  0
VERTEX
  5
3A19
100
AcDbEntity
  8
0
100
AcDbVertex
100
AcDb2dVertex
 10
568.834344
 20
639.212574
 30
0.0
  0
VERTEX
  5
3A1A
100
AcDbEntity
  8
0
100
AcDbVertex
100
AcDb2dVertex
 10
569.802048
 20
640.038733
 30
0.0
  0
SEQEND
  5
3A1B
100
AcDbEntity
  8
0
  0
LINE
  5
2BB9
100
AcDbEntity
  8
0
100
AcDbLine
 10
553.834618
 20
690.109733
 30
0.0
 11
462.233588
 21
690.109733
 31
0.0
  0
ARC
  5
2BBB
100
AcDbEntity
  8
0
100
AcDbCircle
 10
553.834618
 20
675.109733
 30
0.0
 40
15.0
100
AcDbArc
 50
0.575033
 51
90.0
  0
POLYLINE
  5
2BBD
100
AcDbEntity
  8
0
100
AcDb2dPolyline
 66
     1
 10
0.0
 20
0.0
 30
0.0
  0
VERTEX
  5
3A1C
100
AcDbEntity
  8
0
100
AcDbVertex
100
AcDb2dVertex
 10
568.834344
 20
670.864891
 30
0.0
  0
VERTEX
  5
3A1D
100
AcDbEntity
  8
0
100
AcDbVertex
100
AcDb2dVertex
 10
569.802048
 20
670.038733
 30
0.0
  0
SEQEND
  5
3A1E
100
AcDbEntity
  8
0
  0
LINE
  5
2BC4
100
AcDbEntity
  8
0
100
AcDbLine
 10
680.021947
 20
666.67824
 30
0.0
 11
651.661822
 21
666.67824
 31
0.0
  0
LINE
  5
2BC5
100
AcDbEntity
  8
0
100
AcDbLine
 10
646.933447
 20
661.951553
 30
0.0
 11
632.95926
 21
661.951553
 31
0.0
  0
LINE
  5
2BC6
100
AcDbEntity
  8
0
100
AcDbLine
 10
632.95926
 20
661.951553
 30
0.0
 11
632.95926
 21
666.67824
 31
0.0
  0
LINE
  5
2BC7
100
AcDbEntity
  8
0
100
AcDbLine
 10
651.661822
 20
666.67824
 30
0.0
 11
646.933447
 21
661.951553
 31
0.0
  0
LINE
  5
2BC8
100
AcDbEntity
  8
0
100
AcDbLine
 10
670.568572
 20
657.224865
 30
0.0
 11
680.021947
 21
666.67824
 31
0.0
  0
ARC
  5
2BC9
100
AcDbEntity
  8
0
100
AcDbCircle
 10
1145.275213
 20
520.074842
 30
0.0
 40
15.0
100
AcDbArc
 50
92.060371
 51
150.387001
  0
LINE
  5
2BCA
100
AcDbEntity
  8
0
100
AcDbLine
 10
994.665658
 20
490.18946
 30
0.0
 11
1023.025783
 21
490.18946
 31
0.0
  0
LINE
  5
2BCB
100
AcDbEntity
  8
0
100
AcDbLine
 10
1051.387595
 20
480.736085
 30
0.0
 11
1004.119033
 21
480.736085
 31
0.0
  0
LINE
  5
2BCC
100
AcDbEntity
  8
0
100
AcDbLine
 10
1001.811813
 20
311.666413
 30
0.0
 11
1030.171938
 21
311.666413
 31
0.0
  0
LINE
  5
2BCF
100
AcDbEntity
  8
0
100
AcDbLine
 10
1004.119033
 20
480.736085
 30
0.0
 11
994.665658
 21
490.18946
 31
0.0
  0
LINE
  5
2BD1
100
AcDbEntity
  8
0
100
AcDbLine
 10
1034.900313
 20
306.939726
 30
0.0
 11
1048.874501
 21
306.939726
 31
0.0
  0
LINE
  5
2BD2
100
AcDbEntity
  8
0
100
AcDbLine
 10
1030.171938
 20
311.666413
 30
0.0
 11
1034.900313
 21
306.939726
 31
0.0
  0
LINE
  5
2BD3
100
AcDbEntity
  8
0
100
AcDbLine
 10
1048.874501
 20
306.939726
 30
0.0
 11
1048.874501
 21
311.666413
 31
0.0
  0
ARC
  5
2BD9
100
AcDbEntity
  8
0
100
AcDbCircle
 10
1136.991376
 20
324.492372
 30
0.0
 40
15.0
100
AcDbArc
 50
90.0
 51
179.653469
  0
LINE
  5
2BDA
100
AcDbEntity
  8
0
100
AcDbLine
 10
1120.550565
 20
319.421372
 30
0.0
 11
1121.99165
 21
320.758936
 31
0.0
  0
LINE
  5
2BE8
100
AcDbEntity
  8
0
100
AcDbLine
 10
1041.728345
 20
490.18946
 30
0.0
 11
1051.387595
 21
480.736085
 31
0.0
  0
LINE
  5
2BE9
100
AcDbEntity
  8
0
100
AcDbLine
 10
1027.754158
 20
485.462773
 30
0.0
 11
1041.728345
 21
485.462773
 31
0.0
  0
LINE
  5
2BEA
100
AcDbEntity
  8
0
100
AcDbLine
 10
1023.025783
 20
490.18946
 30
0.0
 11
1027.754158
 21
485.462773
 31
0.0
  0
LINE
  5
2BEB
100
AcDbEntity
  8
0
100
AcDbLine
 10
1041.728345
 20
485.462773
 30
0.0
 11
1041.728345
 21
490.18946
 31
0.0
  0
LINE
  5
2BF2
100
AcDbEntity
  8
0
100
AcDbLine
 10
1120.550565
 20
496.049247
 30
0.0
 11
1120.550565
 21
466.049247
 31
0.0
  0
LINE
  5
2BF3
100
AcDbEntity
  8
0
100
AcDbLine
 10
1121.99165
 20
499.446147
 30
0.0
 11
1121.99165
 21
462.652348
 31
0.0
  0
ARC
  5
2BF4
100
AcDbEntity
  8
0
100
AcDbCircle
 10
1210.478926
 20
479.084087
 30
0.0
 40
90.0
100
AcDbArc
 50
190.519775
 51
209.612999
  0
ARC
  5
2BF5
100
AcDbEntity
  8
0
100
AcDbCircle
 10
1145.275213
 20
442.023653
 30
0.0
 40
15.0
100
AcDbArc
 50
209.612999
 51
270.015028
  0
LINE
  5
2BF6
100
AcDbEntity
  8
0
100
AcDbLine
 10
1120.550565
 20
466.049247
 30
0.0
 11
1121.99165
 21
464.711683
 31
0.0
  0
ARC
  5
2BF7
100
AcDbEntity
  8
0
100
AcDbCircle
 10
1210.478926
 20
483.014407
 30
0.0
 40
90.0
100
AcDbArc
 50
150.387001
 51
169.480225
  0
LINE
  5
2BF8
100
AcDbEntity
  8
0
100
AcDbLine
 10
1120.550565
 20
496.049247
 30
0.0
 11
1121.99165
 21
497.386811
 31
0.0
  0
LINE
  5
2BF9
100
AcDbEntity
  8
0
100
AcDbLine
 10
1121.99165
 20
675.200454
 30
0.0
 11
1121.99165
 21
617.696936
 31
0.0
  0
LINE
  5
2BFA
100
AcDbEntity
  8
0
100
AcDbLine
 10
1120.550565
 20
670.038733
 30
0.0
 11
1120.550565
 21
640.038733
 31
0.0
  0
LINE
  5
2C07
100
AcDbEntity
  8
0
100
AcDbLine
 10
1126.385049
 20
607.090334
 30
0.0
 11
1147.746553
 21
585.72883
 31
0.0
  0
ARC
  5
2C08
100
AcDbEntity
  8
0
100
AcDbCircle
 10
1156.585388
 20
594.567664
 30
0.0
 40
12.5
100
AcDbArc
 50
225.0
 51
268.945222
  0
ARC
  5
2C09
100
AcDbEntity
  8
0
100
AcDbCircle
 10
1136.99165
 20
617.696936
 30
0.0
 40
15.0
100
AcDbArc
 50
180.0
 51
225.0
  0
LINE
  5
2C0A
100
AcDbEntity
  8
0
100
AcDbLine
 10
1120.550565
 20
640.038733
 30
0.0
 11
1121.99165
 21
638.701169
 31
0.0
  0
ARC
  5
2C12
100
AcDbEntity
  8
0
100
AcDbCircle
 10
1136.991376
 20
675.109733
 30
0.0
 40
15.0
100
AcDbArc
 50
90.0
 51
179.653469
  0
LINE
  5
2C13
100
AcDbEntity
  8
0
100
AcDbLine
 10
1120.550565
 20
670.038733
 30
0.0
 11
1121.99165
 21
671.376296
 31
0.0
  0
LINE
  5
2C14
100
AcDbEntity
  8
0
100
AcDbLine
 10
418.39873
 20
1086.318949
 30
0.0
 11
432.372918
 21
1086.318949
 31
0.0
  0
LINE
  5
2C15
100
AcDbEntity
  8
0
100
AcDbLine
 10
442.032168
 20
1081.592262
 30
0.0
 11
394.763605
 21
1081.592262
 31
0.0
  0
LINE
  5
2C16
100
AcDbEntity
  8
0
100
AcDbLine
 10
392.456386
 20
1224.342917
 30
0.0
 11
420.816511
 21
1224.342917
 31
0.0
  0
LINE
  5
2C17
100
AcDbEntity
  8
0
100
AcDbLine
 10
449.178323
 20
1214.889542
 30
0.0
 11
401.909761
 21
1214.889542
 31
0.0
  0
TEXT
  5
2C18
100
AcDbEntity
  8
0
100
AcDbText
 10
171.810601
 20
1069.906855
 30
0.0
 40
25.0
  1
正面
100
AcDbText
  0
CIRCLE
  5
2C19
100
AcDbEntity
  8
0
100
AcDbCircle
 10
309.754591
 20
1083.582489
 30
0.0
 40
15.5
  0
POLYLINE
  5
2C1A
100
AcDbEntity
  8
0
100
AcDb2dPolyline
 66
     1
 10
0.0
 20
0.0
 30
0.0
 70
     1
  0
VERTEX
  5
3A1F
100
AcDbEntity
  8
0
100
AcDbVertex
100
AcDb2dVertex
 10
300.516987
 20
1067.582489
 30
0.0
  0
VERTEX
  5
3A20
100
AcDbEntity
  8
0
100
AcDbVertex
100
AcDb2dVertex
 10
291.279382
 20
1083.582489
 30
0.0
  0
VERTEX
  5
3A21
100
AcDbEntity
  8
0
100
AcDbVertex
100
AcDb2dVertex
 10
300.516987
 20
1099.582489
 30
0.0
  0
VERTEX
  5
3A22
100
AcDbEntity
  8
0
100
AcDbVertex
100
AcDb2dVertex
 10
318.992195
 20
1099.582489
 30
0.0
  0
VERTEX
  5
3A23
100
AcDbEntity
  8
0
100
AcDbVertex
100
AcDb2dVertex
 10
328.2298
 20
1083.582489
 30
0.0
  0
VERTEX
  5
3A24
100
AcDbEntity
  8
0
100
AcDbVertex
100
AcDb2dVertex
 10
318.992195
 20
1067.582489
 30
0.0
  0
SEQEND
  5
3A25
100
AcDbEntity
  8
0
  0
CIRCLE
  5
2C1B
100
AcDbEntity
  8
0
100
AcDbCircle
 10
309.754591
 20
1064.640228
 30
0.0
 40
54.013261
  0
ELLIPSE
  5
2C1C
100
AcDbEntity
  8
0
100
AcDbEllipse
 10
309.754591
 20
1024.960611
 30
0.0
 11
15.08777685472523
 21
0.0
 31
0.0
210
0.0
220
0.0
230
-1.0
 40
0.707359
 41
0.0
 42
6.283185307179586
  0
TEXT
  5
2C1D
100
AcDbEntity
  8
0
100
AcDbText
 10
171.810601
 20
1210.736633
 30
0.0
 40
25.0
  1
平面
100
AcDbText
  0
LINE
  5
2C1E
100
AcDbEntity
  8
0
100
AcDbLine
 10
394.763605
 20
1081.592262
 30
0.0
 11
385.31023
 21
1091.045637
 31
0.0
  0
LINE
  5
2C1F
100
AcDbEntity
  8
0
100
AcDbLine
 10
385.31023
 20
1091.045637
 30
0.0
 11
413.670355
 21
1091.045637
 31
0.0
  0
LINE
  5
2C20
100
AcDbEntity
  8
0
100
AcDbLine
 10
413.670355
 20
1091.045637
 30
0.0
 11
418.39873
 21
1086.318949
 31
0.0
  0
LINE
  5
2C21
100
AcDbEntity
  8
0
100
AcDbLine
 10
401.909761
 20
1214.889542
 30
0.0
 11
392.456386
 21
1224.342917
 31
0.0
  0
TEXT
  5
2C22
100
AcDbEntity
  8
0
100
AcDbText
 10
171.810601
 20
1381.738206
 30
0.0
 40
25.0
  1
背面
100
AcDbText
  0
ARC
  5
2C23
100
AcDbEntity
  8
0
100
AcDbCircle
 10
572.237984
 20
1322.406875
 30
0.0
 40
12.5
100
AcDbArc
 50
270.019649
 51
315.0
  0
ARC
  5
2C24
100
AcDbEntity
  8
0
100
AcDbCircle
 10
520.808914
 20
1322.39133
 30
0.0
 40
12.5
100
AcDbArc
 50
225.0
 51
268.945222
  0
CIRCLE
  5
2C25
100
AcDbEntity
  8
0
100
AcDbCircle
 10
706.466304
 20
1064.640228
 30
0.0
 40
54.013261
  0
LINE
  5
2C26
100
AcDbEntity
  8
0
100
AcDbLine
 10
612.015558
 20
1068.582489
 30
0.0
 11
612.015558
 21
1098.582489
 31
0.0
  0
LINE
  5
2C27
100
AcDbEntity
  8
0
100
AcDbLine
 10
607.402054
 20
1068.582489
 30
0.0
 11
607.402054
 21
1098.582489
 31
0.0
  0
ARC
  5
2C28
100
AcDbEntity
  8
0
100
AcDbCircle
 10
626.114918
 20
1075.582489
 30
0.0
 40
13.299346
100
AcDbArc
 50
143.020205
 51
216.979795
  0
ARC
  5
2C29
100
AcDbEntity
  8
0
100
AcDbCircle
 10
612.416197
 20
1075.582489
 30
0.0
 40
13.299346
100
AcDbArc
 50
323.020205
 51
36.979795
  0
LINE
  5
2C2A
100
AcDbEntity
  8
0
100
AcDbLine
 10
626.515558
 20
1068.582489
 30
0.0
 11
626.515558
 21
1083.582489
 31
0.0
  0
LINE
  5
2C2B
100
AcDbEntity
  8
0
100
AcDbLine
 10
606.815176
 20
1103.80403
 30
0.0
 11
606.815176
 21
1046.239693
 31
0.0
  0
POLYLINE
  5
2C2C
100
AcDbEntity
  8
0
100
AcDb2dPolyline
 66
     1
 10
0.0
 20
0.0
 30
0.0
 70
     1
  0
VERTEX
  5
3A26
100
AcDbEntity
  8
0
100
AcDbVertex
100
AcDb2dVertex
 10
715.703909
 20
1067.582489
 30
0.0
  0
VERTEX
  5
3A27
100
AcDbEntity
  8
0
100
AcDbVertex
100
AcDb2dVertex
 10
724.941513
 20
1083.582489
 30
0.0
  0
VERTEX
  5
3A28
100
AcDbEntity
  8
0
100
AcDbVertex
100
AcDb2dVertex
 10
715.703909
 20
1099.582489
 30
0.0
  0
VERTEX
  5
3A29
100
AcDbEntity
  8
0
100
AcDbVertex
100
AcDb2dVertex
 10
697.2287
 20
1099.582489
 30
0.0
  0
VERTEX
  5
3A2A
100
AcDbEntity
  8
0
100
AcDbVertex
100
AcDb2dVertex
 10
687.991096
 20
1083.582489
 30
0.0
  0
VERTEX
  5
3A2B
100
AcDbEntity
  8
0
100
AcDbVertex
100
AcDb2dVertex
 10
697.2287
 20
1067.582489
 30
0.0
  0
SEQEND
  5
3A2C
100
AcDbEntity
  8
0
  0
CIRCLE
  5
2C2D
100
AcDbEntity
  8
0
100
AcDbCircle
 10
706.466304
 20
1083.582489
 30
0.0
 40
15.5
  0
ARC
  5
2C2E
100
AcDbEntity
  8
0
100
AcDbCircle
 10
466.915916
 20
1075.582489
 30
0.0
 40
13.299346
100
AcDbArc
 50
323.020205
 51
36.979795
  0
ARC
  5
2C2F
100
AcDbEntity
  8
0
100
AcDbCircle
 10
480.614637
 20
1075.582489
 30
0.0
 40
13.299346
100
AcDbArc
 50
143.020205
 51
216.979795
  0
LINE
  5
2C30
100
AcDbEntity
  8
0
100
AcDbLine
 10
466.515276
 20
1068.582489
 30
0.0
 11
466.515276
 21
1083.582489
 31
0.0
  0
LINE
  5
2C31
100
AcDbEntity
  8
0
100
AcDbLine
 10
481.015276
 20
1068.582489
 30
0.0
 11
481.015276
 21
1098.582489
 31
0.0
  0
LINE
  5
2C32
100
AcDbEntity
  8
0
100
AcDbLine
 10
485.62878
 20
1068.582489
 30
0.0
 11
485.62878
 21
1098.582489
 31
0.0
  0
LINE
  5
2C33
100
AcDbEntity
  8
0
100
AcDbLine
 10
486.215176
 20
1103.74421
 30
0.0
 11
486.215176
 21
1046.240693
 31
0.0
  0
LINE
  5
2C34
100
AcDbEntity
  8
0
100
AcDbLine
 10
602.421778
 20
1035.633091
 30
0.0
 11
581.076818
 21
1014.288131
 31
0.0
  0
LINE
  5
2C35
100
AcDbEntity
  8
0
100
AcDbLine
 10
490.608575
 20
1035.634091
 30
0.0
 11
511.970079
 21
1014.272586
 31
0.0
  0
LINE
  5
2C36
100
AcDbEntity
  8
0
100
AcDbLine
 10
466.515276
 20
1068.582489
 30
0.0
 11
469.990485
 21
1067.582489
 31
0.0
  0
ARC
  5
2C37
100
AcDbEntity
  8
0
100
AcDbCircle
 10
501.215176
 20
1046.240693
 30
0.0
 40
15.0
100
AcDbArc
 50
180.0
 51
225.0
  0
LINE
  5
2C38
100
AcDbEntity
  8
0
100
AcDbLine
 10
481.015276
 20
1068.582489
 30
0.0
 11
477.540068
 21
1067.582489
 31
0.0
  0
LINE
  5
2C39
100
AcDbEntity
  8
0
100
AcDbLine
 10
477.540068
 20
1067.582489
 30
0.0
 11
469.990485
 21
1067.582489
 31
0.0
  0
LINE
  5
2C3A
100
AcDbEntity
  8
0
100
AcDbLine
 10
481.015276
 20
1068.582489
 30
0.0
 11
485.62878
 21
1068.582489
 31
0.0
  0
POLYLINE
  5
2C3B
100
AcDbEntity
  8
0
100
AcDb2dPolyline
 66
     1
 10
0.0
 20
0.0
 30
0.0
  0
VERTEX
  5
3A2D
100
AcDbEntity
  8
0
100
AcDbVertex
100
AcDb2dVertex
 10
486.215176
 20
1068.121985
 30
0.0
  0
VERTEX
  5
3A2E
100
AcDbEntity
  8
0
100
AcDbVertex
100
AcDb2dVertex
 10
485.62878
 20
1068.582489
 30
0.0
  0
SEQEND
  5
3A2F
100
AcDbEntity
  8
0
  0
LINE
  5
2C3C
100
AcDbEntity
  8
0
100
AcDbLine
 10
572.434052
 20
1010.628504
 30
0.0
 11
520.514608
 21
1010.614886
 31
0.0
  0
TEXT
  5
2C3D
100
AcDbEntity
  8
0
100
AcDbText
 10
537.623849
 20
971.971133
 30
0.0
 40
20.0
  1
15A
 41
0.8
 11
537.623849
 21
971.971133
 31
0.0
100
AcDbText
 73
     1
  0
ARC
  5
2C3E
100
AcDbEntity
  8
0
100
AcDbCircle
 10
520.808914
 20
1023.111421
 30
0.0
 40
12.5
100
AcDbArc
 50
225.0
 51
268.945222
  0
ARC
  5
2C3F
100
AcDbEntity
  8
0
100
AcDbCircle
 10
572.237984
 20
1023.126966
 30
0.0
 40
12.5
100
AcDbArc
 50
270.019649
 51
315.0
  0
ARC
  5
2C40
100
AcDbEntity
  8
0
100
AcDbCircle
 10
591.815176
 20
1046.239693
 30
0.0
 40
15.0
100
AcDbArc
 50
315.0
 51
0.0
  0
LINE
  5
2C41
100
AcDbEntity
  8
0
100
AcDbLine
 10
612.015558
 20
1068.582489
 30
0.0
 11
607.402054
 21
1068.582489
 31
0.0
  0
POLYLINE
  5
2C42
100
AcDbEntity
  8
0
100
AcDb2dPolyline
 66
     1
 10
0.0
 20
0.0
 30
0.0
  0
VERTEX
  5
3A30
100
AcDbEntity
  8
0
100
AcDbVertex
100
AcDb2dVertex
 10
606.815658
 20
1068.121985
 30
0.0
  0
VERTEX
  5
3A31
100
AcDbEntity
  8
0
100
AcDbVertex
100
AcDb2dVertex
 10
607.402054
 20
1068.582489
 30
0.0
  0
SEQEND
  5
3A32
100
AcDbEntity
  8
0
  0
LINE
  5
2C43
100
AcDbEntity
  8
0
100
AcDbLine
 10
612.015558
 20
1068.582489
 30
0.0
 11
615.490766
 21
1067.582489
 31
0.0
  0
LINE
  5
2C44
100
AcDbEntity
  8
0
100
AcDbLine
 10
626.515558
 20
1068.582489
 30
0.0
 11
623.040349
 21
1067.582489
 31
0.0
  0
LINE
  5
2C45
100
AcDbEntity
  8
0
100
AcDbLine
 10
615.490766
 20
1067.582489
 30
0.0
 11
623.040349
 21
1067.582489
 31
0.0
  0
ELLIPSE
  5
2C46
100
AcDbEntity
  8
0
100
AcDbEllipse
 10
706.466304
 20
1024.960611
 30
0.0
 11
-15.08777685472523
 21
0.0
 31
0.0
210
0.0
220
0.0
230
1.0
 40
0.707359
 41
0.0
 42
6.283185307179586
  0
ARC
  5
2C47
100
AcDbEntity
  8
0
100
AcDbCircle
 10
583.530923
 20
1251.352848
 30
0.0
 40
15.0
100
AcDbArc
 50
29.61915
 51
90.0
  0
ARC
  5
2C48
100
AcDbEntity
  8
0
100
AcDbCircle
 10
583.536449
 20
1173.330775
 30
0.0
 40
15.0
100
AcDbArc
 50
270.015028
 51
330.389392
  0
LINE
  5
2C49
100
AcDbEntity
  8
0
100
AcDbLine
 10
591.815932
 20
1118.653489
 30
0.0
 11
501.214902
 21
1118.653489
 31
0.0
  0
LINE
  5
2C4A
100
AcDbEntity
  8
0
100
AcDbLine
 10
486.215176
 20
1230.73385
 30
0.0
 11
486.215176
 21
1193.940051
 31
0.0
  0
LINE
  5
2C4B
100
AcDbEntity
  8
0
100
AcDbLine
 10
466.515276
 20
1197.336951
 30
0.0
 11
469.990485
 21
1193.861742
 31
0.0
  0
LINE
  5
2C4C
100
AcDbEntity
  8
0
100
AcDbLine
 10
481.015276
 20
1197.336951
 30
0.0
 11
477.540068
 21
1193.861742
 31
0.0
  0
ARC
  5
2C4D
100
AcDbEntity
  8
0
100
AcDbCircle
 10
509.498739
 20
1173.311356
 30
0.0
 40
15.0
100
AcDbArc
 50
209.612999
 51
270.015028
  0
LINE
  5
2C4E
100
AcDbEntity
  8
0
100
AcDbLine
 10
466.515276
 20
1098.582489
 30
0.0
 11
469.990485
 21
1099.582489
 31
0.0
  0
ARC
  5
2C4F
100
AcDbEntity
  8
0
100
AcDbCircle
 10
480.614637
 20
1091.582489
 30
0.0
 40
13.299346
100
AcDbArc
 50
143.020205
 51
216.979795
  0
LINE
  5
2C50
100
AcDbEntity
  8
0
100
AcDbLine
 10
432.372918
 20
1091.045637
 30
0.0
 11
442.032168
 21
1081.592262
 31
0.0
  0
LINE
  5
2C51
100
AcDbEntity
  8
0
100
AcDbLine
 10
432.372918
 20
1086.318949
 30
0.0
 11
432.372918
 21
1091.045637
 31
0.0
  0
LINE
  5
2C52
100
AcDbEntity
  8
0
100
AcDbLine
 10
466.515276
 20
1083.582489
 30
0.0
 11
466.515276
 21
1098.582489
 31
0.0
  0
ARC
  5
2C53
100
AcDbEntity
  8
0
100
AcDbCircle
 10
501.214902
 20
1103.653489
 30
0.0
 40
15.0
100
AcDbArc
 50
90.0
 51
179.653469
  0
LINE
  5
2C54
100
AcDbEntity
  8
0
100
AcDbLine
 10
481.015276
 20
1098.582489
 30
0.0
 11
477.540068
 21
1099.582489
 31
0.0
  0
LINE
  5
2C55
100
AcDbEntity
  8
0
100
AcDbLine
 10
477.540068
 20
1099.582489
 30
0.0
 11
469.990485
 21
1099.582489
 31
0.0
  0
POLYLINE
  5
2C56
100
AcDbEntity
  8
0
100
AcDb2dPolyline
 66
     1
 10
0.0
 20
0.0
 30
0.0
  0
VERTEX
  5
3A33
100
AcDbEntity
  8
0
100
AcDbVertex
100
AcDb2dVertex
 10
486.215176
 20
1099.042993
 30
0.0
  0
VERTEX
  5
3A34
100
AcDbEntity
  8
0
100
AcDbVertex
100
AcDb2dVertex
 10
485.62878
 20
1098.582489
 30
0.0
  0
SEQEND
  5
3A35
100
AcDbEntity
  8
0
  0
LINE
  5
2C57
100
AcDbEntity
  8
0
100
AcDbLine
 10
481.015276
 20
1098.582489
 30
0.0
 11
485.62878
 21
1098.582489
 31
0.0
  0
LINE
  5
2C58
100
AcDbEntity
  8
0
100
AcDbLine
 10
477.540068
 20
1083.582489
 30
0.0
 11
469.990485
 21
1083.582489
 31
0.0
  0
ARC
  5
2C59
100
AcDbEntity
  8
0
100
AcDbCircle
 10
466.915916
 20
1091.582489
 30
0.0
 40
13.299346
100
AcDbArc
 50
323.020205
 51
36.979795
  0
ARC
  5
2C5A
100
AcDbEntity
  8
0
100
AcDbCircle
 10
574.702452
 20
1210.37179
 30
0.0
 40
90.0
100
AcDbArc
 50
190.519775
 51
209.612999
  0
LINE
  5
2C5B
100
AcDbEntity
  8
0
100
AcDbLine
 10
477.540068
 20
1193.861742
 30
0.0
 11
469.990485
 21
1193.861742
 31
0.0
  0
LINE
  5
2C5C
100
AcDbEntity
  8
0
100
AcDbLine
 10
583.540383
 20
1158.330775
 30
0.0
 11
509.502673
 21
1158.311357
 31
0.0
  0
ARC
  5
2C5D
100
AcDbEntity
  8
0
100
AcDbCircle
 10
509.498739
 20
1251.362545
 30
0.0
 40
15.0
100
AcDbArc
 50
89.984972
 51
150.387001
  0
ARC
  5
2C5E
100
AcDbEntity
  8
0
100
AcDbCircle
 10
574.702452
 20
1214.302111
 30
0.0
 40
90.0
100
AcDbArc
 50
150.387001
 51
169.480225
  0
ARC
  5
2C5F
100
AcDbEntity
  8
0
100
AcDbCircle
 10
472.640138
 20
1226.193357
 30
0.0
 40
5.324847
100
AcDbArc
 50
150.158547
 51
240.158547
  0
LINE
  5
2C60
100
AcDbEntity
  8
0
100
AcDbLine
 10
466.515276
 20
1227.336951
 30
0.0
 11
469.990485
 21
1230.812159
 31
0.0
  0
ARC
  5
2C61
100
AcDbEntity
  8
0
100
AcDbCircle
 10
472.640138
 20
1198.480544
 30
0.0
 40
5.324847
100
AcDbArc
 50
119.841453
 51
209.841453
  0
ARC
  5
2C62
100
AcDbEntity
  8
0
100
AcDbCircle
 10
484.601886
 20
1212.336951
 30
0.0
 40
17.286595
100
AcDbArc
 50
147.698151
 51
212.301849
  0
LINE
  5
2C63
100
AcDbEntity
  8
0
100
AcDbLine
 10
466.515276
 20
1212.336951
 30
0.0
 11
466.515276
 21
1227.336951
 31
0.0
  0
LINE
  5
2C64
100
AcDbEntity
  8
0
100
AcDbLine
 10
439.519073
 20
1224.342917
 30
0.0
 11
449.178323
 21
1214.889542
 31
0.0
  0
LINE
  5
2C65
100
AcDbEntity
  8
0
100
AcDbLine
 10
425.544886
 20
1219.616229
 30
0.0
 11
439.519073
 21
1219.616229
 31
0.0
  0
LINE
  5
2C66
100
AcDbEntity
  8
0
100
AcDbLine
 10
420.816511
 20
1224.342917
 30
0.0
 11
425.544886
 21
1219.616229
 31
0.0
  0
LINE
  5
2C67
100
AcDbEntity
  8
0
100
AcDbLine
 10
439.519073
 20
1219.616229
 30
0.0
 11
439.519073
 21
1224.342917
 31
0.0
  0
LINE
  5
2C68
100
AcDbEntity
  8
0
100
AcDbLine
 10
466.515276
 20
1197.336951
 30
0.0
 11
466.515276
 21
1212.336951
 31
0.0
  0
LINE
  5
2C69
100
AcDbEntity
  8
0
100
AcDbLine
 10
481.015276
 20
1197.242352
 30
0.0
 11
481.015276
 21
1227.242352
 31
0.0
  0
LINE
  5
2C6A
100
AcDbEntity
  8
0
100
AcDbLine
 10
485.62878
 20
1197.242352
 30
0.0
 11
485.62878
 21
1227.242352
 31
0.0
  0
ARC
  5
2C6B
100
AcDbEntity
  8
0
100
AcDbCircle
 10
474.890415
 20
1226.193357
 30
0.0
 40
5.324847
100
AcDbArc
 50
299.841453
 51
29.841453
  0
LINE
  5
2C6C
100
AcDbEntity
  8
0
100
AcDbLine
 10
481.015276
 20
1197.242352
 30
0.0
 11
485.62878
 21
1197.242352
 31
0.0
  0
POLYLINE
  5
2C6D
100
AcDbEntity
  8
0
100
AcDb2dPolyline
 66
     1
 10
0.0
 20
0.0
 30
0.0
  0
VERTEX
  5
3A36
100
AcDbEntity
  8
0
100
AcDbVertex
100
AcDb2dVertex
 10
486.215176
 20
1196.781848
 30
0.0
  0
VERTEX
  5
3A37
100
AcDbEntity
  8
0
100
AcDbVertex
100
AcDb2dVertex
 10
485.62878
 20
1197.242352
 30
0.0
  0
SEQEND
  5
3A38
100
AcDbEntity
  8
0
  0
LINE
  5
2C6E
100
AcDbEntity
  8
0
100
AcDbLine
 10
477.540068
 20
1221.574555
 30
0.0
 11
469.990485
 21
1221.574555
 31
0.0
  0
LINE
  5
2C6F
100
AcDbEntity
  8
0
100
AcDbLine
 10
477.540068
 20
1203.099346
 30
0.0
 11
469.990485
 21
1203.099346
 31
0.0
  0
ARC
  5
2C70
100
AcDbEntity
  8
0
100
AcDbCircle
 10
474.890415
 20
1198.480544
 30
0.0
 40
5.324847
100
AcDbArc
 50
330.158547
 51
60.158547
  0
ARC
  5
2C71
100
AcDbEntity
  8
0
100
AcDbCircle
 10
462.928667
 20
1212.336951
 30
0.0
 40
17.286595
100
AcDbArc
 50
327.698151
 51
32.301849
  0
LINE
  5
2C72
100
AcDbEntity
  8
0
100
AcDbLine
 10
481.015276
 20
1227.242352
 30
0.0
 11
485.62878
 21
1227.242352
 31
0.0
  0
POLYLINE
  5
2C73
100
AcDbEntity
  8
0
100
AcDb2dPolyline
 66
     1
 10
0.0
 20
0.0
 30
0.0
  0
VERTEX
  5
3A39
100
AcDbEntity
  8
0
100
AcDbVertex
100
AcDb2dVertex
 10
486.215176
 20
1227.702855
 30
0.0
  0
VERTEX
  5
3A3A
100
AcDbEntity
  8
0
100
AcDbVertex
100
AcDb2dVertex
 10
485.62878
 20
1227.242352
 30
0.0
  0
SEQEND
  5
3A3B
100
AcDbEntity
  8
0
  0
LINE
  5
2C74
100
AcDbEntity
  8
0
100
AcDbLine
 10
477.540068
 20
1230.812159
 30
0.0
 11
469.990485
 21
1230.812159
 31
0.0
  0
LINE
  5
2C75
100
AcDbEntity
  8
0
100
AcDbLine
 10
481.015276
 20
1227.336951
 30
0.0
 11
477.540068
 21
1230.812159
 31
0.0
  0
LINE
  5
2C76
100
AcDbEntity
  8
0
100
AcDbLine
 10
572.434052
 20
1309.908412
 30
0.0
 11
520.514608
 21
1309.894795
 31
0.0
  0
LINE
  5
2C77
100
AcDbEntity
  8
0
100
AcDbLine
 10
583.530923
 20
1266.352848
 30
0.0
 11
508.959451
 21
1266.352848
 31
0.0
  0
LINE
  5
2C78
100
AcDbEntity
  8
0
100
AcDbLine
 10
606.815176
 20
1230.73485
 30
0.0
 11
606.815176
 21
1193.939051
 31
0.0
  0
LINE
  5
2C79
100
AcDbEntity
  8
0
100
AcDbLine
 10
626.515558
 20
1197.336951
 30
0.0
 11
623.040349
 21
1193.861742
 31
0.0
  0
LINE
  5
2C7A
100
AcDbEntity
  8
0
100
AcDbLine
 10
612.015558
 20
1197.336951
 30
0.0
 11
615.490766
 21
1193.861742
 31
0.0
  0
ARC
  5
2C7B
100
AcDbEntity
  8
0
100
AcDbCircle
 10
591.815932
 20
1103.653489
 30
0.0
 40
15.0
100
AcDbArc
 50
0.575033
 51
90.0
  0
LINE
  5
2C7C
100
AcDbEntity
  8
0
100
AcDbLine
 10
612.015558
 20
1098.582489
 30
0.0
 11
607.402054
 21
1098.582489
 31
0.0
  0
POLYLINE
  5
2C7D
100
AcDbEntity
  8
0
100
AcDb2dPolyline
 66
     1
 10
0.0
 20
0.0
 30
0.0
  0
VERTEX
  5
3A3C
100
AcDbEntity
  8
0
100
AcDbVertex
100
AcDb2dVertex
 10
606.815658
 20
1099.042993
 30
0.0
  0
VERTEX
  5
3A3D
100
AcDbEntity
  8
0
100
AcDbVertex
100
AcDb2dVertex
 10
607.402054
 20
1098.582489
 30
0.0
  0
SEQEND
  5
3A3E
100
AcDbEntity
  8
0
  0
ARC
  5
2C7E
100
AcDbEntity
  8
0
100
AcDbCircle
 10
626.114918
 20
1091.582489
 30
0.0
 40
13.299346
100
AcDbArc
 50
143.020205
 51
216.979795
  0
ARC
  5
2C7F
100
AcDbEntity
  8
0
100
AcDbCircle
 10
612.416197
 20
1091.582489
 30
0.0
 40
13.299346
100
AcDbArc
 50
323.020205
 51
36.979795
  0
LINE
  5
2C80
100
AcDbEntity
  8
0
100
AcDbLine
 10
626.515558
 20
1083.582489
 30
0.0
 11
626.515558
 21
1098.582489
 31
0.0
  0
LINE
  5
2C81
100
AcDbEntity
  8
0
100
AcDbLine
 10
615.490766
 20
1083.582489
 30
0.0
 11
623.040349
 21
1083.582489
 31
0.0
  0
LINE
  5
2C82
100
AcDbEntity
  8
0
100
AcDbLine
 10
612.015558
 20
1098.582489
 30
0.0
 11
615.490766
 21
1099.582489
 31
0.0
  0
LINE
  5
2C83
100
AcDbEntity
  8
0
100
AcDbLine
 10
626.515558
 20
1098.582489
 30
0.0
 11
623.040349
 21
1099.582489
 31
0.0
  0
LINE
  5
2C84
100
AcDbEntity
  8
0
100
AcDbLine
 10
615.490766
 20
1099.582489
 30
0.0
 11
623.040349
 21
1099.582489
 31
0.0
  0
ARC
  5
2C85
100
AcDbEntity
  8
0
100
AcDbCircle
 10
518.331189
 20
1210.388487
 30
0.0
 40
90.0
100
AcDbArc
 50
330.389392
 51
349.468766
  0
LINE
  5
2C86
100
AcDbEntity
  8
0
100
AcDbLine
 10
615.490766
 20
1193.861742
 30
0.0
 11
623.040349
 21
1193.861742
 31
0.0
  0
ARC
  5
2C87
100
AcDbEntity
  8
0
100
AcDbCircle
 10
518.331189
 20
1214.285414
 30
0.0
 40
90.0
100
AcDbArc
 50
10.531234
 51
29.61915
  0
LINE
  5
2C88
100
AcDbEntity
  8
0
100
AcDbLine
 10
607.402054
 20
1197.242352
 30
0.0
 11
607.402054
 21
1227.242352
 31
0.0
  0
LINE
  5
2C89
100
AcDbEntity
  8
0
100
AcDbLine
 10
612.015558
 20
1197.242352
 30
0.0
 11
612.015558
 21
1227.242352
 31
0.0
  0
LINE
  5
2C8A
100
AcDbEntity
  8
0
100
AcDbLine
 10
626.515558
 20
1212.336951
 30
0.0
 11
626.515558
 21
1227.336951
 31
0.0
  0
ARC
  5
2C8B
100
AcDbEntity
  8
0
100
AcDbCircle
 10
618.140419
 20
1226.193357
 30
0.0
 40
5.324847
100
AcDbArc
 50
150.158547
 51
240.158547
  0
ARC
  5
2C8C
100
AcDbEntity
  8
0
100
AcDbCircle
 10
620.390696
 20
1226.193357
 30
0.0
 40
5.324847
100
AcDbArc
 50
299.841453
 51
29.841453
  0
LINE
  5
2C8D
100
AcDbEntity
  8
0
100
AcDbLine
 10
612.015558
 20
1197.242352
 30
0.0
 11
607.402054
 21
1197.242352
 31
0.0
  0
POLYLINE
  5
2C8E
100
AcDbEntity
  8
0
100
AcDb2dPolyline
 66
     1
 10
0.0
 20
0.0
 30
0.0
  0
VERTEX
  5
3A3F
100
AcDbEntity
  8
0
100
AcDbVertex
100
AcDb2dVertex
 10
606.815658
 20
1196.781848
 30
0.0
  0
VERTEX
  5
3A40
100
AcDbEntity
  8
0
100
AcDbVertex
100
AcDb2dVertex
 10
607.402054
 20
1197.242352
 30
0.0
  0
SEQEND
  5
3A41
100
AcDbEntity
  8
0
  0
ARC
  5
2C8F
100
AcDbEntity
  8
0
100
AcDbCircle
 10
608.428948
 20
1212.336951
 30
0.0
 40
17.286595
100
AcDbArc
 50
327.698151
 51
32.301849
  0
ARC
  5
2C90
100
AcDbEntity
  8
0
100
AcDbCircle
 10
630.102167
 20
1212.336951
 30
0.0
 40
17.286595
100
AcDbArc
 50
147.698151
 51
212.301849
  0
LINE
  5
2C91
100
AcDbEntity
  8
0
100
AcDbLine
 10
626.515558
 20
1197.336951
 30
0.0
 11
626.515558
 21
1212.336951
 31
0.0
  0
ARC
  5
2C92
100
AcDbEntity
  8
0
100
AcDbCircle
 10
618.140419
 20
1198.480544
 30
0.0
 40
5.324847
100
AcDbArc
 50
119.841453
 51
209.841453
  0
ARC
  5
2C93
100
AcDbEntity
  8
0
100
AcDbCircle
 10
620.390696
 20
1198.480544
 30
0.0
 40
5.324847
100
AcDbArc
 50
330.158547
 51
60.158547
  0
LINE
  5
2C94
100
AcDbEntity
  8
0
100
AcDbLine
 10
615.490766
 20
1203.099346
 30
0.0
 11
623.040349
 21
1203.099346
 31
0.0
  0
LINE
  5
2C95
100
AcDbEntity
  8
0
100
AcDbLine
 10
615.490766
 20
1221.574555
 30
0.0
 11
623.040349
 21
1221.574555
 31
0.0
  0
LINE
  5
2C96
100
AcDbEntity
  8
0
100
AcDbLine
 10
612.015558
 20
1227.242352
 30
0.0
 11
607.402054
 21
1227.242352
 31
0.0
  0
POLYLINE
  5
2C97
100
AcDbEntity
  8
0
100
AcDb2dPolyline
 66
     1
 10
0.0
 20
0.0
 30
0.0
  0
VERTEX
  5
3A42
100
AcDbEntity
  8
0
100
AcDbVertex
100
AcDb2dVertex
 10
606.815658
 20
1227.702855
 30
0.0
  0
VERTEX
  5
3A43
100
AcDbEntity
  8
0
100
AcDbVertex
100
AcDb2dVertex
 10
607.402054
 20
1227.242352
 30
0.0
  0
SEQEND
  5
3A44
100
AcDbEntity
  8
0
  0
LINE
  5
2C98
100
AcDbEntity
  8
0
100
AcDbLine
 10
626.515558
 20
1227.336951
 30
0.0
 11
623.040349
 21
1230.812159
 31
0.0
  0
LINE
  5
2C99
100
AcDbEntity
  8
0
100
AcDbLine
 10
615.490766
 20
1230.812159
 30
0.0
 11
623.040349
 21
1230.812159
 31
0.0
  0
LINE
  5
2C9A
100
AcDbEntity
  8
0
100
AcDbLine
 10
612.015558
 20
1227.336951
 30
0.0
 11
615.490766
 21
1230.812159
 31
0.0
  0
ARC
  5
2C9B
100
AcDbEntity
  8
0
100
AcDbCircle
 10
1110.232082
 20
1074.582489
 30
0.0
 40
20.63915
100
AcDbArc
 50
154.146953
 51
205.853047
  0
LINE
  5
2C9C
100
AcDbEntity
  8
0
100
AcDbLine
 10
1088.373983
 20
1066.082489
 30
0.0
 11
1088.373983
 21
1083.582489
 31
0.0
  0
ARC
  5
2C9D
100
AcDbEntity
  8
0
100
AcDbCircle
 10
1087.781256
 20
1074.582489
 30
0.0
 40
20.63915
100
AcDbArc
 50
334.146953
 51
25.853047
  0
LINE
  5
2C9E
100
AcDbEntity
  8
0
100
AcDbLine
 10
1116.373983
 20
1068.582489
 30
0.0
 11
1116.373983
 21
1098.582489
 31
0.0
  0
LINE
  5
2C9F
100
AcDbEntity
  8
0
100
AcDbLine
 10
1120.699692
 20
1098.582489
 30
0.0
 11
1120.699692
 21
1068.582489
 31
0.0
  0
LINE
  5
2CA0
100
AcDbEntity
  8
0
100
AcDbLine
 10
1121.573883
 20
1103.74421
 30
0.0
 11
1121.573883
 21
1046.240693
 31
0.0
  0
CIRCLE
  5
2CA1
100
AcDbEntity
  8
0
100
AcDbCircle
 10
954.642642
 20
1064.640997
 30
0.0
 40
54.012493
  0
CIRCLE
  5
2CA2
100
AcDbEntity
  8
0
100
AcDbCircle
 10
954.642642
 20
1083.582489
 30
0.0
 40
17.5
  0
POLYLINE
  5
2CA3
100
AcDbEntity
  8
0
100
AcDb2dPolyline
 66
     1
 10
0.0
 20
0.0
 30
0.0
 70
     1
  0
VERTEX
  5
3A45
100
AcDbEntity
  8
0
100
AcDbVertex
100
AcDb2dVertex
 10
965.034947
 20
1101.582489
 30
0.0
  0
VERTEX
  5
3A46
100
AcDbEntity
  8
0
100
AcDbVertex
100
AcDb2dVertex
 10
975.427252
 20
1083.582489
 30
0.0
  0
VERTEX
  5
3A47
100
AcDbEntity
  8
0
100
AcDbVertex
100
AcDb2dVertex
 10
965.034947
 20
1065.582489
 30
0.0
  0
VERTEX
  5
3A48
100
AcDbEntity
  8
0
100
AcDbVertex
100
AcDb2dVertex
 10
944.250337
 20
1065.582489
 30
0.0
  0
VERTEX
  5
3A49
100
AcDbEntity
  8
0
100
AcDbVertex
100
AcDb2dVertex
 10
933.858032
 20
1083.582489
 30
0.0
  0
VERTEX
  5
3A4A
100
AcDbEntity
  8
0
100
AcDbVertex
100
AcDb2dVertex
 10
944.250337
 20
1101.582489
 30
0.0
  0
SEQEND
  5
3A4B
100
AcDbEntity
  8
0
  0
ELLIPSE
  5
2CA4
100
AcDbEntity
  8
0
100
AcDbEllipse
 10
954.642642
 20
1024.960611
 30
0.0
 11
15.08777685472523
 21
0.0
 31
0.0
210
0.0
220
0.0
230
-1.0
 40
0.707359
 41
0.0
 42
6.283185307179586
  0
ARC
  5
2CA5
100
AcDbEntity
  8
0
100
AcDbCircle
 10
1136.573883
 20
1046.240693
 30
0.0
 40
15.0
100
AcDbArc
 50
180.0
 51
225.0
  0
LINE
  5
2CA6
100
AcDbEntity
  8
0
100
AcDbLine
 10
1116.373983
 20
1068.582489
 30
0.0
 11
1106.354746
 21
1065.582489
 31
0.0
  0
LINE
  5
2CA7
100
AcDbEntity
  8
0
100
AcDbLine
 10
1091.658593
 20
1065.582489
 30
0.0
 11
1088.373983
 21
1066.082489
 31
0.0
  0
LINE
  5
2CA8
100
AcDbEntity
  8
0
100
AcDbLine
 10
1106.354746
 20
1065.582489
 30
0.0
 11
1091.658593
 21
1065.582489
 31
0.0
  0
LINE
  5
2CA9
100
AcDbEntity
  8
0
100
AcDbLine
 10
1120.699692
 20
1068.582489
 30
0.0
 11
1116.373983
 21
1068.582489
 31
0.0
  0
LINE
  5
2CAA
100
AcDbEntity
  8
0
100
AcDbLine
 10
1121.573883
 20
1067.689752
 30
0.0
 11
1120.699692
 21
1068.582489
 31
0.0
  0
LINE
  5
2CAB
100
AcDbEntity
  8
0
100
AcDbLine
 10
1015.669235
 20
1091.045637
 30
0.0
 11
1044.02936
 21
1091.045637
 31
0.0
  0
LINE
  5
2CAC
100
AcDbEntity
  8
0
100
AcDbLine
 10
1072.391173
 20
1081.592262
 30
0.0
 11
1025.12261
 21
1081.592262
 31
0.0
  0
LINE
  5
2CAD
100
AcDbEntity
  8
0
100
AcDbLine
 10
1025.12261
 20
1081.592262
 30
0.0
 11
1015.669235
 21
1091.045637
 31
0.0
  0
LINE
  5
2CAE
100
AcDbEntity
  8
0
100
AcDbLine
 10
1062.731923
 20
1091.045637
 30
0.0
 11
1072.391173
 21
1081.592262
 31
0.0
  0
LINE
  5
2CAF
100
AcDbEntity
  8
0
100
AcDbLine
 10
1048.757735
 20
1086.318949
 30
0.0
 11
1062.731923
 21
1086.318949
 31
0.0
  0
LINE
  5
2CB0
100
AcDbEntity
  8
0
100
AcDbLine
 10
1044.02936
 20
1091.045637
 30
0.0
 11
1048.757735
 21
1086.318949
 31
0.0
  0
LINE
  5
2CB1
100
AcDbEntity
  8
0
100
AcDbLine
 10
1062.731923
 20
1086.318949
 30
0.0
 11
1062.731923
 21
1091.045637
 31
0.0
  0
ARC
  5
2CB2
100
AcDbEntity
  8
0
100
AcDbCircle
 10
1087.781256
 20
1092.582489
 30
0.0
 40
20.63915
100
AcDbArc
 50
334.146953
 51
25.853047
  0
LINE
  5
2CB3
100
AcDbEntity
  8
0
100
AcDbLine
 10
1116.373983
 20
1098.582489
 30
0.0
 11
1106.354746
 21
1101.582489
 31
0.0
  0
LINE
  5
2CB4
100
AcDbEntity
  8
0
100
AcDbLine
 10
1091.658593
 20
1101.582489
 30
0.0
 11
1088.373983
 21
1101.082489
 31
0.0
  0
ARC
  5
2CB5
100
AcDbEntity
  8
0
100
AcDbCircle
 10
1110.232082
 20
1092.582489
 30
0.0
 40
20.63915
100
AcDbArc
 50
154.146953
 51
205.853047
  0
LINE
  5
2CB6
100
AcDbEntity
  8
0
100
AcDbLine
 10
1088.373983
 20
1083.582489
 30
0.0
 11
1088.373983
 21
1101.082489
 31
0.0
  0
LINE
  5
2CB7
100
AcDbEntity
  8
0
100
AcDbLine
 10
1106.354746
 20
1101.582489
 30
0.0
 11
1091.658593
 21
1101.582489
 31
0.0
  0
LINE
  5
2CB8
100
AcDbEntity
  8
0
100
AcDbLine
 10
1106.354746
 20
1083.582489
 30
0.0
 11
1091.658593
 21
1083.582489
 31
0.0
  0
LINE
  5
2CB9
100
AcDbEntity
  8
0
100
AcDbLine
 10
1120.699692
 20
1098.582489
 30
0.0
 11
1116.373983
 21
1098.582489
 31
0.0
  0
LINE
  5
2CBA
100
AcDbEntity
  8
0
100
AcDbLine
 10
1121.573883
 20
1099.475227
 30
0.0
 11
1120.699692
 21
1098.582489
 31
0.0
  0
LINE
  5
2CBB
100
AcDbEntity
  8
0
100
AcDbLine
 10
1020.433339
 20
1224.342917
 30
0.0
 11
1048.793464
 21
1224.342917
 31
0.0
  0
LINE
  5
2CBC
100
AcDbEntity
  8
0
100
AcDbLine
 10
1077.155277
 20
1214.889542
 30
0.0
 11
1029.886714
 21
1214.889542
 31
0.0
  0
LINE
  5
2CBD
100
AcDbEntity
  8
0
100
AcDbLine
 10
1029.886714
 20
1214.889542
 30
0.0
 11
1020.433339
 21
1224.342917
 31
0.0
  0
LINE
  5
2CBE
100
AcDbEntity
  8
0
100
AcDbLine
 10
1053.521839
 20
1219.616229
 30
0.0
 11
1067.496027
 21
1219.616229
 31
0.0
  0
LINE
  5
2CBF
100
AcDbEntity
  8
0
100
AcDbLine
 10
1048.793464
 20
1224.342917
 30
0.0
 11
1053.521839
 21
1219.616229
 31
0.0
  0
LINE
  5
2CC0
100
AcDbEntity
  8
0
100
AcDbLine
 10
1067.496027
 20
1224.342917
 30
0.0
 11
1077.155277
 21
1214.889542
 31
0.0
  0
LINE
  5
2CC1
100
AcDbEntity
  8
0
100
AcDbLine
 10
1067.496027
 20
1219.616229
 30
0.0
 11
1067.496027
 21
1224.342917
 31
0.0
  0
LINE
  5
2CC2
100
AcDbEntity
  8
0
100
AcDbLine
 10
1120.574898
 20
1231.489988
 30
0.0
 11
1120.574898
 21
1201.489988
 31
0.0
  0
LINE
  5
2CC3
100
AcDbEntity
  8
0
100
AcDbLine
 10
1116.373983
 20
1201.489988
 30
0.0
 11
1116.373983
 21
1231.489988
 31
0.0
  0
LINE
  5
2CC4
100
AcDbEntity
  8
0
100
AcDbLine
 10
1121.573883
 20
1234.886888
 30
0.0
 11
1121.573883
 21
1198.093089
 31
0.0
  0
ARC
  5
2CC5
100
AcDbEntity
  8
0
100
AcDbCircle
 10
1117.07219
 20
1216.489988
 30
0.0
 40
27.456345
100
AcDbArc
 50
157.759024
 51
202.240976
  0
LINE
  5
2CC6
100
AcDbEntity
  8
0
100
AcDbLine
 10
1088.373983
 20
1216.489988
 30
0.0
 11
1088.373983
 21
1233.989988
 31
0.0
  0
ARC
  5
2CC7
100
AcDbEntity
  8
0
100
AcDbCircle
 10
1080.941149
 20
1216.489988
 30
0.0
 40
27.456345
100
AcDbArc
 50
337.759024
 51
22.240976
  0
ARC
  5
2CC8
100
AcDbEntity
  8
0
100
AcDbCircle
 10
1100.852136
 20
1200.901531
 30
0.0
 40
7.56827
100
AcDbArc
 50
316.640741
 51
43.359259
  0
LINE
  5
2CC9
100
AcDbEntity
  8
0
100
AcDbLine
 10
1116.373983
 20
1201.489988
 30
0.0
 11
1106.354746
 21
1195.705378
 31
0.0
  0
LINE
  5
2CCA
100
AcDbEntity
  8
0
100
AcDbLine
 10
1091.658593
 20
1195.705378
 30
0.0
 11
1088.373983
 21
1198.989988
 31
0.0
  0
ARC
  5
2CCB
100
AcDbEntity
  8
0
100
AcDbCircle
 10
1097.161203
 20
1200.901531
 30
0.0
 40
7.56827
100
AcDbArc
 50
136.640741
 51
223.359259
  0
LINE
  5
2CCC
100
AcDbEntity
  8
0
100
AcDbLine
 10
1088.373983
 20
1198.989988
 30
0.0
 11
1088.373983
 21
1216.489988
 31
0.0
  0
LINE
  5
2CCD
100
AcDbEntity
  8
0
100
AcDbLine
 10
1106.354746
 20
1206.097683
 30
0.0
 11
1091.658593
 21
1206.097683
 31
0.0
  0
LINE
  5
2CCE
100
AcDbEntity
  8
0
100
AcDbLine
 10
1106.354746
 20
1195.705378
 30
0.0
 11
1091.658593
 21
1195.705378
 31
0.0
  0
LINE
  5
2CCF
100
AcDbEntity
  8
0
100
AcDbLine
 10
1120.574898
 20
1201.489988
 30
0.0
 11
1116.373983
 21
1201.489988
 31
0.0
  0
LINE
  5
2CD0
100
AcDbEntity
  8
0
100
AcDbLine
 10
1121.573883
 20
1200.491509
 30
0.0
 11
1120.574898
 21
1201.489988
 31
0.0
  0
ARC
  5
2CD1
100
AcDbEntity
  8
0
100
AcDbCircle
 10
1100.852136
 20
1232.078445
 30
0.0
 40
7.56827
100
AcDbArc
 50
316.640741
 51
43.359259
  0
LINE
  5
2CD2
100
AcDbEntity
  8
0
100
AcDbLine
 10
1116.373983
 20
1231.489988
 30
0.0
 11
1106.354746
 21
1237.274598
 31
0.0
  0
LINE
  5
2CD3
100
AcDbEntity
  8
0
100
AcDbLine
 10
1091.658593
 20
1237.274598
 30
0.0
 11
1088.373983
 21
1233.989988
 31
0.0
  0
ARC
  5
2CD4
100
AcDbEntity
  8
0
100
AcDbCircle
 10
1097.161203
 20
1232.078445
 30
0.0
 40
7.56827
100
AcDbArc
 50
136.640741
 51
223.359259
  0
LINE
  5
2CD5
100
AcDbEntity
  8
0
100
AcDbLine
 10
1106.354746
 20
1237.274598
 30
0.0
 11
1091.658593
 21
1237.274598
 31
0.0
  0
LINE
  5
2CD6
100
AcDbEntity
  8
0
100
AcDbLine
 10
1106.354746
 20
1226.882293
 30
0.0
 11
1091.658593
 21
1226.882293
 31
0.0
  0
LINE
  5
2CD7
100
AcDbEntity
  8
0
100
AcDbLine
 10
1120.574898
 20
1231.489988
 30
0.0
 11
1116.373983
 21
1231.489988
 31
0.0
  0
LINE
  5
2CD8
100
AcDbEntity
  8
0
100
AcDbLine
 10
1121.573883
 20
1232.488467
 30
0.0
 11
1120.574898
 21
1231.489988
 31
0.0
  0
LINE
  5
2CD9
100
AcDbEntity
  8
0
100
AcDbLine
 10
602.421778
 20
1334.913
 30
0.0
 11
581.076818
 21
1313.56804
 31
0.0
  0
LINE
  5
2CDA
100
AcDbEntity
  8
0
100
AcDbLine
 10
591.815932
 20
1417.933398
 30
0.0
 11
501.214902
 21
1417.933398
 31
0.0
  0
LINE
  5
2CDB
100
AcDbEntity
  8
0
100
AcDbLine
 10
490.608575
 20
1334.914
 30
0.0
 11
511.970079
 21
1313.552495
 31
0.0
  0
ARC
  5
2CDC
100
AcDbEntity
  8
0
100
AcDbCircle
 10
466.915916
 20
1374.862398
 30
0.0
 40
13.299346
100
AcDbArc
 50
323.020205
 51
36.979795
  0
ARC
  5
2CDD
100
AcDbEntity
  8
0
100
AcDbCircle
 10
480.614637
 20
1374.862398
 30
0.0
 40
13.299346
100
AcDbArc
 50
143.020205
 51
216.979795
  0
LINE
  5
2CDE
100
AcDbEntity
  8
0
100
AcDbLine
 10
486.215176
 20
1403.024119
 30
0.0
 11
486.215176
 21
1345.520601
 31
0.0
  0
LINE
  5
2CDF
100
AcDbEntity
  8
0
100
AcDbLine
 10
481.015276
 20
1367.862398
 30
0.0
 11
477.540068
 21
1366.862398
 31
0.0
  0
LINE
  5
2CE0
100
AcDbEntity
  8
0
100
AcDbLine
 10
466.515276
 20
1367.862398
 30
0.0
 11
469.990485
 21
1366.862398
 31
0.0
  0
POLYLINE
  5
2CE1
100
AcDbEntity
  8
0
100
AcDb2dPolyline
 66
     1
 10
0.0
 20
0.0
 30
0.0
  0
VERTEX
  5
3A4C
100
AcDbEntity
  8
0
100
AcDbVertex
100
AcDb2dVertex
 10
486.215176
 20
1367.401894
 30
0.0
  0
VERTEX
  5
3A4D
100
AcDbEntity
  8
0
100
AcDbVertex
100
AcDb2dVertex
 10
485.62878
 20
1367.862398
 30
0.0
  0
SEQEND
  5
3A4E
100
AcDbEntity
  8
0
  0
ARC
  5
2CE2
100
AcDbEntity
  8
0
100
AcDbCircle
 10
501.215176
 20
1345.520601
 30
0.0
 40
15.0
100
AcDbArc
 50
180.0
 51
225.0
  0
LINE
  5
2CE3
100
AcDbEntity
  8
0
100
AcDbLine
 10
477.540068
 20
1366.862398
 30
0.0
 11
469.990485
 21
1366.862398
 31
0.0
  0
LINE
  5
2CE4
100
AcDbEntity
  8
0
100
AcDbLine
 10
466.515276
 20
1397.862398
 30
0.0
 11
469.990485
 21
1398.862398
 31
0.0
  0
ARC
  5
2CE5
100
AcDbEntity
  8
0
100
AcDbCircle
 10
480.614637
 20
1390.862398
 30
0.0
 40
13.299346
100
AcDbArc
 50
143.020205
 51
216.979795
  0
LINE
  5
2CE6
100
AcDbEntity
  8
0
100
AcDbLine
 10
466.515276
 20
1382.862398
 30
0.0
 11
466.515276
 21
1397.862398
 31
0.0
  0
LINE
  5
2CE7
100
AcDbEntity
  8
0
100
AcDbLine
 10
466.515276
 20
1367.862398
 30
0.0
 11
466.515276
 21
1382.862398
 31
0.0
  0
LINE
  5
2CE8
100
AcDbEntity
  8
0
100
AcDbLine
 10
481.015276
 20
1367.862398
 30
0.0
 11
481.015276
 21
1397.862398
 31
0.0
  0
LINE
  5
2CE9
100
AcDbEntity
  8
0
100
AcDbLine
 10
485.62878
 20
1367.862398
 30
0.0
 11
485.62878
 21
1397.862398
 31
0.0
  0
ARC
  5
2CEA
100
AcDbEntity
  8
0
100
AcDbCircle
 10
466.915916
 20
1390.862398
 30
0.0
 40
13.299346
100
AcDbArc
 50
323.020205
 51
36.979795
  0
LINE
  5
2CEB
100
AcDbEntity
  8
0
100
AcDbLine
 10
481.015276
 20
1367.862398
 30
0.0
 11
485.62878
 21
1367.862398
 31
0.0
  0
LINE
  5
2CEC
100
AcDbEntity
  8
0
100
AcDbLine
 10
477.540068
 20
1382.862398
 30
0.0
 11
469.990485
 21
1382.862398
 31
0.0
  0
ARC
  5
2CED
100
AcDbEntity
  8
0
100
AcDbCircle
 10
501.214902
 20
1402.933398
 30
0.0
 40
15.0
100
AcDbArc
 50
90.0
 51
179.653469
  0
LINE
  5
2CEE
100
AcDbEntity
  8
0
100
AcDbLine
 10
481.015276
 20
1397.862398
 30
0.0
 11
477.540068
 21
1398.862398
 31
0.0
  0
LINE
  5
2CEF
100
AcDbEntity
  8
0
100
AcDbLine
 10
477.540068
 20
1398.862398
 30
0.0
 11
469.990485
 21
1398.862398
 31
0.0
  0
LINE
  5
2CF0
100
AcDbEntity
  8
0
100
AcDbLine
 10
481.015276
 20
1397.862398
 30
0.0
 11
485.62878
 21
1397.862398
 31
0.0
  0
POLYLINE
  5
2CF1
100
AcDbEntity
  8
0
100
AcDb2dPolyline
 66
     1
 10
0.0
 20
0.0
 30
0.0
  0
VERTEX
  5
3A4F
100
AcDbEntity
  8
0
100
AcDbVertex
100
AcDb2dVertex
 10
486.215176
 20
1398.322902
 30
0.0
  0
VERTEX
  5
3A50
100
AcDbEntity
  8
0
100
AcDbVertex
100
AcDb2dVertex
 10
485.62878
 20
1397.862398
 30
0.0
  0
SEQEND
  5
3A51
100
AcDbEntity
  8
0
  0
LINE
  5
2CF2
100
AcDbEntity
  8
0
100
AcDbLine
 10
697.175423
 20
1391.310486
 30
0.0
 11
668.815298
 21
1391.310486
 31
0.0
  0
LINE
  5
2CF3
100
AcDbEntity
  8
0
100
AcDbLine
 10
640.453485
 20
1381.857111
 30
0.0
 11
687.722048
 21
1381.857111
 31
0.0
  0
ARC
  5
2CF4
100
AcDbEntity
  8
0
100
AcDbCircle
 10
612.416197
 20
1374.862398
 30
0.0
 40
13.299346
100
AcDbArc
 50
323.020205
 51
36.979795
  0
ARC
  5
2CF5
100
AcDbEntity
  8
0
100
AcDbCircle
 10
626.114918
 20
1374.862398
 30
0.0
 40
13.299346
100
AcDbArc
 50
143.020205
 51
216.979795
  0
LINE
  5
2CF6
100
AcDbEntity
  8
0
100
AcDbLine
 10
606.815176
 20
1403.083939
 30
0.0
 11
606.815176
 21
1345.519601
 31
0.0
  0
LINE
  5
2CF7
100
AcDbEntity
  8
0
100
AcDbLine
 10
626.515558
 20
1367.862398
 30
0.0
 11
623.040349
 21
1366.862398
 31
0.0
  0
LINE
  5
2CF8
100
AcDbEntity
  8
0
100
AcDbLine
 10
612.015558
 20
1367.862398
 30
0.0
 11
615.490766
 21
1366.862398
 31
0.0
  0
POLYLINE
  5
2CF9
100
AcDbEntity
  8
0
100
AcDb2dPolyline
 66
     1
 10
0.0
 20
0.0
 30
0.0
  0
VERTEX
  5
3A52
100
AcDbEntity
  8
0
100
AcDbVertex
100
AcDb2dVertex
 10
606.815658
 20
1367.401894
 30
0.0
  0
VERTEX
  5
3A53
100
AcDbEntity
  8
0
100
AcDbVertex
100
AcDb2dVertex
 10
607.402054
 20
1367.862398
 30
0.0
  0
SEQEND
  5
3A54
100
AcDbEntity
  8
0
  0
ARC
  5
2CFA
100
AcDbEntity
  8
0
100
AcDbCircle
 10
591.815176
 20
1345.519601
 30
0.0
 40
15.0
100
AcDbArc
 50
315.0
 51
0.0
  0
LINE
  5
2CFB
100
AcDbEntity
  8
0
100
AcDbLine
 10
615.490766
 20
1366.862398
 30
0.0
 11
623.040349
 21
1366.862398
 31
0.0
  0
LINE
  5
2CFC
100
AcDbEntity
  8
0
100
AcDbLine
 10
607.402054
 20
1367.862398
 30
0.0
 11
607.402054
 21
1397.862398
 31
0.0
  0
LINE
  5
2CFD
100
AcDbEntity
  8
0
100
AcDbLine
 10
612.015558
 20
1367.862398
 30
0.0
 11
612.015558
 21
1397.862398
 31
0.0
  0
ARC
  5
2CFE
100
AcDbEntity
  8
0
100
AcDbCircle
 10
612.416197
 20
1390.862398
 30
0.0
 40
13.299346
100
AcDbArc
 50
323.020205
 51
36.979795
  0
ARC
  5
2CFF
100
AcDbEntity
  8
0
100
AcDbCircle
 10
626.114918
 20
1390.862398
 30
0.0
 40
13.299346
100
AcDbArc
 50
143.020205
 51
216.979795
  0
LINE
  5
2D00
100
AcDbEntity
  8
0
100
AcDbLine
 10
626.515558
 20
1382.862398
 30
0.0
 11
626.515558
 21
1397.862398
 31
0.0
  0
LINE
  5
2D01
100
AcDbEntity
  8
0
100
AcDbLine
 10
612.015558
 20
1367.862398
 30
0.0
 11
607.402054
 21
1367.862398
 31
0.0
  0
LINE
  5
2D02
100
AcDbEntity
  8
0
100
AcDbLine
 10
626.515558
 20
1367.862398
 30
0.0
 11
626.515558
 21
1382.862398
 31
0.0
  0
LINE
  5
2D03
100
AcDbEntity
  8
0
100
AcDbLine
 10
615.490766
 20
1382.862398
 30
0.0
 11
623.040349
 21
1382.862398
 31
0.0
  0
LINE
  5
2D04
100
AcDbEntity
  8
0
100
AcDbLine
 10
612.015558
 20
1397.862398
 30
0.0
 11
607.402054
 21
1397.862398
 31
0.0
  0
ARC
  5
2D05
100
AcDbEntity
  8
0
100
AcDbCircle
 10
591.815932
 20
1402.933398
 30
0.0
 40
15.0
100
AcDbArc
 50
0.575033
 51
90.0
  0
POLYLINE
  5
2D06
100
AcDbEntity
  8
0
100
AcDb2dPolyline
 66
     1
 10
0.0
 20
0.0
 30
0.0
  0
VERTEX
  5
3A55
100
AcDbEntity
  8
0
100
AcDbVertex
100
AcDb2dVertex
 10
606.815658
 20
1398.322902
 30
0.0
  0
VERTEX
  5
3A56
100
AcDbEntity
  8
0
100
AcDbVertex
100
AcDb2dVertex
 10
607.402054
 20
1397.862398
 30
0.0
  0
SEQEND
  5
3A57
100
AcDbEntity
  8
0
  0
LINE
  5
2D07
100
AcDbEntity
  8
0
100
AcDbLine
 10
615.490766
 20
1398.862398
 30
0.0
 11
623.040349
 21
1398.862398
 31
0.0
  0
LINE
  5
2D08
100
AcDbEntity
  8
0
100
AcDbLine
 10
626.515558
 20
1397.862398
 30
0.0
 11
623.040349
 21
1398.862398
 31
0.0
  0
LINE
  5
2D09
100
AcDbEntity
  8
0
100
AcDbLine
 10
612.015558
 20
1397.862398
 30
0.0
 11
615.490766
 21
1398.862398
 31
0.0
  0
LINE
  5
2D0A
100
AcDbEntity
  8
0
100
AcDbLine
 10
664.086923
 20
1386.583798
 30
0.0
 11
650.112735
 21
1386.583798
 31
0.0
  0
LINE
  5
2D0B
100
AcDbEntity
  8
0
100
AcDbLine
 10
650.112735
 20
1391.310486
 30
0.0
 11
640.453485
 21
1381.857111
 31
0.0
  0
LINE
  5
2D0C
100
AcDbEntity
  8
0
100
AcDbLine
 10
650.112735
 20
1386.583798
 30
0.0
 11
650.112735
 21
1391.310486
 31
0.0
  0
LINE
  5
2D0D
100
AcDbEntity
  8
0
100
AcDbLine
 10
668.815298
 20
1391.310486
 30
0.0
 11
664.086923
 21
1386.583798
 31
0.0
  0
LINE
  5
2D0E
100
AcDbEntity
  8
0
100
AcDbLine
 10
687.722048
 20
1381.857111
 30
0.0
 11
697.175423
 21
1391.310486
 31
0.0
  0
LINE
  5
2D0F
100
AcDbEntity
  8
0
100
AcDbLine
 10
1121.573883
 20
1403.930339
 30
0.0
 11
1121.573883
 21
1346.426822
 31
0.0
  0
ARC
  5
2D10
100
AcDbEntity
  8
0
100
AcDbCircle
 10
1087.781256
 20
1374.768618
 30
0.0
 40
20.63915
100
AcDbArc
 50
334.146953
 51
25.853047
  0
LINE
  5
2D11
100
AcDbEntity
  8
0
100
AcDbLine
 10
1088.373983
 20
1366.268618
 30
0.0
 11
1088.373983
 21
1383.768618
 31
0.0
  0
ARC
  5
2D12
100
AcDbEntity
  8
0
100
AcDbCircle
 10
1110.232082
 20
1374.768618
 30
0.0
 40
20.63915
100
AcDbArc
 50
154.146953
 51
205.853047
  0
LINE
  5
2D13
100
AcDbEntity
  8
0
100
AcDbLine
 10
1116.373983
 20
1368.768618
 30
0.0
 11
1106.354746
 21
1365.768618
 31
0.0
  0
ARC
  5
2D14
100
AcDbEntity
  8
0
100
AcDbCircle
 10
1136.573883
 20
1346.426822
 30
0.0
 40
15.0
100
AcDbArc
 50
180.0
 51
225.0
  0
LINE
  5
2D15
100
AcDbEntity
  8
0
100
AcDbLine
 10
1106.354746
 20
1365.768618
 30
0.0
 11
1091.658593
 21
1365.768618
 31
0.0
  0
LINE
  5
2D16
100
AcDbEntity
  8
0
100
AcDbLine
 10
1091.658593
 20
1365.768618
 30
0.0
 11
1088.373983
 21
1366.268618
 31
0.0
  0
LINE
  5
2D17
100
AcDbEntity
  8
0
100
AcDbLine
 10
1120.699692
 20
1398.768618
 30
0.0
 11
1120.699692
 21
1368.768618
 31
0.0
  0
LINE
  5
2D18
100
AcDbEntity
  8
0
100
AcDbLine
 10
1116.373983
 20
1368.768618
 30
0.0
 11
1116.373983
 21
1398.768618
 31
0.0
  0
ARC
  5
2D19
100
AcDbEntity
  8
0
100
AcDbCircle
 10
1087.781256
 20
1392.768618
 30
0.0
 40
20.63915
100
AcDbArc
 50
334.146953
 51
25.853047
  0
LINE
  5
2D1A
100
AcDbEntity
  8
0
100
AcDbLine
 10
1088.373983
 20
1383.768618
 30
0.0
 11
1088.373983
 21
1401.268618
 31
0.0
  0
ARC
  5
2D1B
100
AcDbEntity
  8
0
100
AcDbCircle
 10
1110.232082
 20
1392.768618
 30
0.0
 40
20.63915
100
AcDbArc
 50
154.146953
 51
205.853047
  0
LINE
  5
2D1C
100
AcDbEntity
  8
0
100
AcDbLine
 10
1106.354746
 20
1383.768618
 30
0.0
 11
1091.658593
 21
1383.768618
 31
0.0
  0
LINE
  5
2D1D
100
AcDbEntity
  8
0
100
AcDbLine
 10
1121.573883
 20
1367.87588
 30
0.0
 11
1120.699692
 21
1368.768618
 31
0.0
  0
LINE
  5
2D1E
100
AcDbEntity
  8
0
100
AcDbLine
 10
1120.699692
 20
1368.768618
 30
0.0
 11
1116.373983
 21
1368.768618
 31
0.0
  0
LINE
  5
2D1F
100
AcDbEntity
  8
0
100
AcDbLine
 10
1116.373983
 20
1398.768618
 30
0.0
 11
1106.354746
 21
1401.768618
 31
0.0
  0
LINE
  5
2D20
100
AcDbEntity
  8
0
100
AcDbLine
 10
1106.354746
 20
1401.768618
 30
0.0
 11
1091.658593
 21
1401.768618
 31
0.0
  0
LINE
  5
2D21
100
AcDbEntity
  8
0
100
AcDbLine
 10
1091.658593
 20
1401.768618
 30
0.0
 11
1088.373983
 21
1401.268618
 31
0.0
  0
LINE
  5
2D22
100
AcDbEntity
  8
0
100
AcDbLine
 10
1121.573883
 20
1399.661356
 30
0.0
 11
1120.699692
 21
1398.768618
 31
0.0
  0
LINE
  5
2D23
100
AcDbEntity
  8
0
100
AcDbLine
 10
1120.699692
 20
1398.768618
 30
0.0
 11
1116.373983
 21
1398.768618
 31
0.0
  0
LINE
  5
2D24
100
AcDbEntity
  8
0
100
AcDbLine
 10
1989.42454
 20
690.109733
 30
0.0
 11
1897.82351
 21
690.109733
 31
0.0
  0
LINE
  5
2D25
100
AcDbEntity
  8
0
100
AcDbLine
 10
1970.058974
 20
582.085014
 30
0.0
 11
1917.123217
 21
582.07113
 31
0.0
  0
LINE
  5
2D26
100
AcDbEntity
  8
0
100
AcDbLine
 10
1981.147827
 20
535.065144
 30
0.0
 11
1905.56806
 21
535.065144
 31
0.0
  0
LINE
  5
2D27
100
AcDbEntity
  8
0
100
AcDbLine
 10
1981.246358
 20
427.04336
 30
0.0
 11
1906.111281
 21
427.023653
 31
0.0
  0
LINE
  5
2D28
100
AcDbEntity
  8
0
100
AcDbLine
 10
1989.42454
 20
339.492372
 30
0.0
 11
1897.82351
 21
339.492372
 31
0.0
  0
LINE
  5
2D29
100
AcDbEntity
  8
0
100
AcDbLine
 10
1970.058974
 20
231.467653
 30
0.0
 11
1917.123217
 21
231.453769
 31
0.0
  0
TEXT
  5
2D2A
100
AcDbEntity
  8
0
100
AcDbText
 10
1934.113247
 20
192.021492
 30
0.0
 40
20.0
  1
25A
 41
0.8
 11
1934.113247
 21
192.021492
 31
0.0
100
AcDbText
 73
     1
  0
LINE
  5
2D2B
100
AcDbEntity
  8
0
100
AcDbLine
 10
1792.688215
 20
314.046699
 30
0.0
 11
1802.347465
 21
304.593324
 31
0.0
  0
LINE
  5
2D2C
100
AcDbEntity
  8
0
100
AcDbLine
 10
1755.078902
 20
304.593324
 30
0.0
 11
1745.625527
 21
314.046699
 31
0.0
  0
LINE
  5
2D30
100
AcDbEntity
  8
0
100
AcDbLine
 10
1243.59165
 20
324.642913
 30
0.0
 11
1243.59165
 21
267.078576
 31
0.0
  0
LINE
  5
2D35
100
AcDbEntity
  8
0
100
AcDbLine
 10
1245.033218
 20
319.421372
 30
0.0
 11
1245.033218
 21
289.421372
 31
0.0
  0
ARC
  5
2D36
100
AcDbEntity
  8
0
100
AcDbCircle
 10
1382.31916
 20
285.47988
 30
0.0
 40
54.012493
100
AcDbArc
 50
189.107221
 51
350.892779
  0
LINE
  5
2D3A
100
AcDbEntity
  8
0
100
AcDbLine
 10
1879.876179
 20
321.421372
 30
0.0
 11
1879.876179
 21
287.421372
 31
0.0
  0
LINE
  5
2D3B
100
AcDbEntity
  8
0
100
AcDbLine
 10
1882.823785
 20
324.583093
 30
0.0
 11
1882.823785
 21
267.079576
 31
0.0
  0
LINE
  5
2D3F
100
AcDbEntity
  8
0
100
AcDbLine
 10
1239.198252
 20
256.471974
 30
0.0
 11
1217.853292
 21
235.127014
 31
0.0
  0
ARC
  5
2D40
100
AcDbEntity
  8
0
100
AcDbCircle
 10
1209.014458
 20
243.965849
 30
0.0
 40
12.5
100
AcDbArc
 50
270.019649
 51
315.0
  0
ARC
  5
2D41
100
AcDbEntity
  8
0
100
AcDbCircle
 10
1228.59165
 20
267.078576
 30
0.0
 40
15.0
100
AcDbArc
 50
315.0
 51
0.0
  0
LINE
  5
2D43
100
AcDbEntity
  8
0
100
AcDbLine
 10
1245.033218
 20
289.421372
 30
0.0
 11
1243.592132
 21
288.083808
 31
0.0
  0
ELLIPSE
  5
2D49
100
AcDbEntity
  8
0
100
AcDbEllipse
 10
1382.31916
 20
245.799494
 30
0.0
 11
-15.08777685472523
 21
0.0
 31
0.0
210
0.0
220
0.0
230
1.0
 40
0.707359
 41
6.232120034172844
 42
9.475843233776121
  0
LINE
  5
2D4B
100
AcDbEntity
  8
0
100
AcDbLine
 10
1802.347465
 20
304.593324
 30
0.0
 11
1755.078902
 21
304.593324
 31
0.0
  0
ARC
  5
2D4C
100
AcDbEntity
  8
0
100
AcDbCircle
 10
1672.41584
 20
285.47988
 30
0.0
 40
54.012493
100
AcDbArc
 50
207.62829
 51
332.37171
  0
ELLIPSE
  5
2D4D
100
AcDbEntity
  8
0
100
AcDbEllipse
 10
1672.41584
 20
245.799494
 30
0.0
 11
15.08777685472523
 21
0.0
 31
0.0
210
0.0
220
0.0
230
-1.0
 40
0.707359
 41
6.770356101278846
 42
8.937607166670046
  0
LINE
  5
2D54
100
AcDbEntity
  8
0
100
AcDbLine
 10
1887.217183
 20
256.472974
 30
0.0
 11
1908.578687
 21
235.111469
 31
0.0
  0
ARC
  5
2D55
100
AcDbEntity
  8
0
100
AcDbCircle
 10
1917.417522
 20
243.950304
 30
0.0
 40
12.5
100
AcDbArc
 50
225.0
 51
268.945222
  0
ARC
  5
2D56
100
AcDbEntity
  8
0
100
AcDbCircle
 10
1897.823785
 20
267.079576
 30
0.0
 40
15.0
100
AcDbArc
 50
180.0
 51
225.0
  0
ARC
  5
2D57
100
AcDbEntity
  8
0
100
AcDbCircle
 10
1886.400113
 20
292.832864
 30
0.0
 40
8.4762
100
AcDbArc
 50
219.675126
 51
244.737221
  0
ARC
  5
2D58
100
AcDbEntity
  8
0
100
AcDbCircle
 10
1220.315693
 20
520.065144
 30
0.0
 40
15.0
100
AcDbArc
 50
29.61915
 51
90.0
  0
ARC
  5
2D5B
100
AcDbEntity
  8
0
100
AcDbCircle
 10
1228.592406
 20
324.492372
 30
0.0
 40
15.0
100
AcDbArc
 50
0.575033
 51
90.0
  0
LINE
  5
2D5D
100
AcDbEntity
  8
0
100
AcDbLine
 10
1245.033218
 20
319.421372
 30
0.0
 11
1243.592132
 21
320.758936
 31
0.0
  0
LINE
  5
2D66
100
AcDbEntity
  8
0
100
AcDbLine
 10
1245.033218
 20
496.049247
 30
0.0
 11
1245.033218
 21
466.049247
 31
0.0
  0
LINE
  5
2D67
100
AcDbEntity
  8
0
100
AcDbLine
 10
1243.599946
 20
499.447147
 30
0.0
 11
1243.599946
 21
462.651348
 31
0.0
  0
ARC
  5
2D68
100
AcDbEntity
  8
0
100
AcDbCircle
 10
1220.321219
 20
442.043071
 30
0.0
 40
15.0
100
AcDbArc
 50
270.015028
 51
330.389392
  0
ARC
  5
2D69
100
AcDbEntity
  8
0
100
AcDbCircle
 10
1155.115959
 20
479.100784
 30
0.0
 40
90.0
100
AcDbArc
 50
330.389392
 51
349.468766
  0
LINE
  5
2D6B
100
AcDbEntity
  8
0
100
AcDbLine
 10
1245.033218
 20
466.049247
 30
0.0
 11
1243.592132
 21
464.711683
 31
0.0
  0
ARC
  5
2D6D
100
AcDbEntity
  8
0
100
AcDbCircle
 10
1155.115959
 20
482.997711
 30
0.0
 40
90.0
100
AcDbArc
 50
10.531234
 51
29.61915
  0
LINE
  5
2D6F
100
AcDbEntity
  8
0
100
AcDbLine
 10
1245.033218
 20
496.049247
 30
0.0
 11
1243.592132
 21
497.386811
 31
0.0
  0
LINE
  5
2D82
100
AcDbEntity
  8
0
100
AcDbLine
 10
1245.033218
 20
670.038733
 30
0.0
 11
1245.033218
 21
640.038733
 31
0.0
  0
LINE
  5
2D83
100
AcDbEntity
  8
0
100
AcDbLine
 10
1243.59165
 20
675.260273
 30
0.0
 11
1243.59165
 21
617.695936
 31
0.0
  0
LINE
  5
2D86
100
AcDbEntity
  8
0
100
AcDbLine
 10
1239.198252
 20
607.089334
 30
0.0
 11
1217.853292
 21
585.744374
 31
0.0
  0
ARC
  5
2D87
100
AcDbEntity
  8
0
100
AcDbCircle
 10
1209.014458
 20
594.583209
 30
0.0
 40
12.5
100
AcDbArc
 50
270.019649
 51
315.0
  0
ARC
  5
2D88
100
AcDbEntity
  8
0
100
AcDbCircle
 10
1228.59165
 20
617.695936
 30
0.0
 40
15.0
100
AcDbArc
 50
315.0
 51
0.0
  0
LINE
  5
2D8A
100
AcDbEntity
  8
0
100
AcDbLine
 10
1245.033218
 20
640.038733
 30
0.0
 11
1243.592132
 21
638.701169
 31
0.0
  0
ARC
  5
2D90
100
AcDbEntity
  8
0
100
AcDbCircle
 10
1228.592406
 20
675.109733
 30
0.0
 40
15.0
100
AcDbArc
 50
0.575033
 51
90.0
  0
LINE
  5
2D92
100
AcDbEntity
  8
0
100
AcDbLine
 10
1245.033218
 20
670.038733
 30
0.0
 11
1243.592132
 21
671.376296
 31
0.0
  0
LINE
  5
2D94
100
AcDbEntity
  8
0
100
AcDbLine
 10
1309.360088
 20
657.224865
 30
0.0
 11
1356.628651
 21
657.224865
 31
0.0
  0
LINE
  5
2D95
100
AcDbEntity
  8
0
100
AcDbLine
 10
1319.019338
 20
666.67824
 30
0.0
 11
1309.360088
 21
657.224865
 31
0.0
  0
LINE
  5
2D9A
100
AcDbEntity
  8
0
100
AcDbLine
 10
1366.082026
 20
666.67824
 30
0.0
 11
1337.721901
 21
666.67824
 31
0.0
  0
LINE
  5
2D9B
100
AcDbEntity
  8
0
100
AcDbLine
 10
1332.993526
 20
661.951553
 30
0.0
 11
1319.019338
 21
661.951553
 31
0.0
  0
LINE
  5
2D9C
100
AcDbEntity
  8
0
100
AcDbLine
 10
1319.019338
 20
661.951553
 30
0.0
 11
1319.019338
 21
666.67824
 31
0.0
  0
LINE
  5
2D9D
100
AcDbEntity
  8
0
100
AcDbLine
 10
1337.721901
 20
666.67824
 30
0.0
 11
1332.993526
 21
661.951553
 31
0.0
  0
LINE
  5
2D9E
100
AcDbEntity
  8
0
100
AcDbLine
 10
1356.628651
 20
657.224865
 30
0.0
 11
1366.082026
 21
666.67824
 31
0.0
  0
ARC
  5
2D9F
100
AcDbEntity
  8
0
100
AcDbCircle
 10
1906.107347
 20
520.074842
 30
0.0
 40
15.0
100
AcDbArc
 50
89.984972
 51
150.387001
  0
LINE
  5
2DA2
100
AcDbEntity
  8
0
100
AcDbLine
 10
1745.625527
 20
314.046699
 30
0.0
 11
1773.985652
 21
314.046699
 31
0.0
  0
LINE
  5
2DA3
100
AcDbEntity
  8
0
100
AcDbLine
 10
1748.007579
 20
492.569812
 30
0.0
 11
1776.367704
 21
492.569812
 31
0.0
  0
LINE
  5
2DA4
100
AcDbEntity
  8
0
100
AcDbLine
 10
1804.729517
 20
483.116437
 30
0.0
 11
1757.460954
 21
483.116437
 31
0.0
  0
LINE
  5
2DA7
100
AcDbEntity
  8
0
100
AcDbLine
 10
1757.460954
 20
483.116437
 30
0.0
 11
1748.007579
 21
492.569812
 31
0.0
  0
LINE
  5
2DAA
100
AcDbEntity
  8
0
100
AcDbLine
 10
1778.714027
 20
309.320012
 30
0.0
 11
1792.688215
 21
309.320012
 31
0.0
  0
LINE
  5
2DAB
100
AcDbEntity
  8
0
100
AcDbLine
 10
1773.985652
 20
314.046699
 30
0.0
 11
1778.714027
 21
309.320012
 31
0.0
  0
LINE
  5
2DAC
100
AcDbEntity
  8
0
100
AcDbLine
 10
1792.688215
 20
309.320012
 30
0.0
 11
1792.688215
 21
314.046699
 31
0.0
  0
ARC
  5
2DB0
100
AcDbEntity
  8
0
100
AcDbCircle
 10
1897.82351
 20
324.492372
 30
0.0
 40
15.0
100
AcDbArc
 50
90.0
 51
179.653469
  0
ARC
  5
2DB1
100
AcDbEntity
  8
0
100
AcDbCircle
 10
1886.400113
 20
316.00988
 30
0.0
 40
8.4762
100
AcDbArc
 50
114.956242
 51
140.324874
  0
LINE
  5
2DB6
100
AcDbEntity
  8
0
100
AcDbLine
 10
1795.070267
 20
492.569812
 30
0.0
 11
1804.729517
 21
483.116437
 31
0.0
  0
LINE
  5
2DB7
100
AcDbEntity
  8
0
100
AcDbLine
 10
1781.096079
 20
487.843125
 30
0.0
 11
1795.070267
 21
487.843125
 31
0.0
  0
LINE
  5
2DB8
100
AcDbEntity
  8
0
100
AcDbLine
 10
1776.367704
 20
492.569812
 30
0.0
 11
1781.096079
 21
487.843125
 31
0.0
  0
LINE
  5
2DB9
100
AcDbEntity
  8
0
100
AcDbLine
 10
1795.070267
 20
487.843125
 30
0.0
 11
1795.070267
 21
492.569812
 31
0.0
  0
LINE
  5
2DBB
100
AcDbEntity
  8
0
100
AcDbLine
 10
1879.876179
 20
498.049247
 30
0.0
 11
1879.876179
 21
464.049247
 31
0.0
  0
LINE
  5
2DBC
100
AcDbEntity
  8
0
100
AcDbLine
 10
1882.823785
 20
499.446147
 30
0.0
 11
1882.823785
 21
462.652348
 31
0.0
  0
ARC
  5
2DBD
100
AcDbEntity
  8
0
100
AcDbCircle
 10
1906.107347
 20
442.023653
 30
0.0
 40
15.0
100
AcDbArc
 50
209.612999
 51
270.015028
  0
ARC
  5
2DBE
100
AcDbEntity
  8
0
100
AcDbCircle
 10
1971.31106
 20
479.084087
 30
0.0
 40
90.0
100
AcDbArc
 50
190.519775
 51
209.612999
  0
ARC
  5
2DBF
100
AcDbEntity
  8
0
100
AcDbCircle
 10
1886.400113
 20
469.460739
 30
0.0
 40
8.4762
100
AcDbArc
 50
219.675126
 51
244.737221
  0
ARC
  5
2DC0
100
AcDbEntity
  8
0
100
AcDbCircle
 10
1971.31106
 20
483.014407
 30
0.0
 40
90.0
100
AcDbArc
 50
150.387001
 51
169.480225
  0
ARC
  5
2DC1
100
AcDbEntity
  8
0
100
AcDbCircle
 10
1886.400113
 20
492.637755
 30
0.0
 40
8.4762
100
AcDbArc
 50
114.956242
 51
140.324874
  0
LINE
  5
2DC2
100
AcDbEntity
  8
0
100
AcDbLine
 10
1882.823785
 20
675.200454
 30
0.0
 11
1882.823785
 21
617.696936
 31
0.0
  0
LINE
  5
2DC3
100
AcDbEntity
  8
0
100
AcDbLine
 10
1879.876179
 20
672.038733
 30
0.0
 11
1879.876179
 21
638.038733
 31
0.0
  0
LINE
  5
2DCB
100
AcDbEntity
  8
0
100
AcDbLine
 10
1887.217183
 20
607.090334
 30
0.0
 11
1908.578687
 21
585.72883
 31
0.0
  0
ARC
  5
2DCC
100
AcDbEntity
  8
0
100
AcDbCircle
 10
1917.417522
 20
594.567664
 30
0.0
 40
12.5
100
AcDbArc
 50
225.0
 51
268.945222
  0
ARC
  5
2DCD
100
AcDbEntity
  8
0
100
AcDbCircle
 10
1897.823785
 20
617.696936
 30
0.0
 40
15.0
100
AcDbArc
 50
180.0
 51
225.0
  0
ARC
  5
2DCE
100
AcDbEntity
  8
0
100
AcDbCircle
 10
1886.400113
 20
643.450225
 30
0.0
 40
8.4762
100
AcDbArc
 50
219.675126
 51
244.737221
  0
ARC
  5
2DD3
100
AcDbEntity
  8
0
100
AcDbCircle
 10
1897.82351
 20
675.109733
 30
0.0
 40
15.0
100
AcDbArc
 50
90.0
 51
179.653469
  0
ARC
  5
2DD4
100
AcDbEntity
  8
0
100
AcDbCircle
 10
1886.400113
 20
666.62724
 30
0.0
 40
8.4762
100
AcDbArc
 50
114.956242
 51
140.324874
  0
LINE
  5
2DD6
100
AcDbEntity
  8
0
100
AcDbLine
 10
2007.268642
 20
321.421372
 30
0.0
 11
2007.268642
 21
287.421372
 31
0.0
  0
LINE
  5
2DD9
100
AcDbEntity
  8
0
100
AcDbLine
 10
2004.323785
 20
324.642913
 30
0.0
 11
2004.323785
 21
267.078576
 31
0.0
  0
LINE
  5
2DDC
100
AcDbEntity
  8
0
100
AcDbLine
 10
1999.927157
 20
256.471974
 30
0.0
 11
1978.582198
 21
235.127014
 31
0.0
  0
ARC
  5
2DDD
100
AcDbEntity
  8
0
100
AcDbCircle
 10
1969.743363
 20
243.965849
 30
0.0
 40
12.5
100
AcDbArc
 50
270.019649
 51
315.0
  0
ARC
  5
2DDE
100
AcDbEntity
  8
0
100
AcDbCircle
 10
1989.320556
 20
267.078576
 30
0.0
 40
15.0
100
AcDbArc
 50
315.0
 51
0.0
  0
ARC
  5
2DDF
100
AcDbEntity
  8
0
100
AcDbCircle
 10
2000.744708
 20
292.832864
 30
0.0
 40
8.4762
100
AcDbArc
 50
295.262779
 51
320.324874
  0
ARC
  5
2DE4
100
AcDbEntity
  8
0
100
AcDbCircle
 10
2159.12932
 20
285.47988
 30
0.0
 40
54.012493
100
AcDbArc
 50
207.62829
 51
332.37171
  0
ELLIPSE
  5
2DE5
100
AcDbEntity
  8
0
100
AcDbEllipse
 10
2159.12932
 20
245.799494
 30
0.0
 11
-15.08777685472523
 21
0.0
 31
0.0
210
0.0
220
0.0
230
1.0
 40
0.707359
 41
6.77035610127889
 42
8.937607166670105
  0
ARC
  5
2DE9
100
AcDbEntity
  8
0
100
AcDbCircle
 10
1981.147827
 20
520.065144
 30
0.0
 40
15.0
100
AcDbArc
 50
29.61915
 51
90.0
  0
ARC
  5
2DEC
100
AcDbEntity
  8
0
100
AcDbCircle
 10
1989.321311
 20
324.492372
 30
0.0
 40
15.0
100
AcDbArc
 50
0.575033
 51
90.0
  0
ARC
  5
2DED
100
AcDbEntity
  8
0
100
AcDbCircle
 10
2000.744708
 20
316.00988
 30
0.0
 40
8.4762
100
AcDbArc
 50
39.675126
 51
65.043758
  0
LINE
  5
2DF3
100
AcDbEntity
  8
0
100
AcDbLine
 10
2007.268642
 20
498.049247
 30
0.0
 11
2007.268642
 21
464.049247
 31
0.0
  0
LINE
  5
2DF4
100
AcDbEntity
  8
0
100
AcDbLine
 10
2004.43208
 20
499.447147
 30
0.0
 11
2004.43208
 21
462.651348
 31
0.0
  0
ARC
  5
2DF5
100
AcDbEntity
  8
0
100
AcDbCircle
 10
1981.153353
 20
442.043071
 30
0.0
 40
15.0
100
AcDbArc
 50
270.015028
 51
330.389392
  0
ARC
  5
2DF6
100
AcDbEntity
  8
0
100
AcDbCircle
 10
1915.948093
 20
479.100784
 30
0.0
 40
90.0
100
AcDbArc
 50
330.389392
 51
349.468766
  0
ARC
  5
2DF7
100
AcDbEntity
  8
0
100
AcDbCircle
 10
2000.744708
 20
469.460739
 30
0.0
 40
8.4762
100
AcDbArc
 50
295.262779
 51
320.324874
  0
ARC
  5
2DF8
100
AcDbEntity
  8
0
100
AcDbCircle
 10
1915.948093
 20
482.997711
 30
0.0
 40
90.0
100
AcDbArc
 50
10.531234
 51
29.61915
  0
ARC
  5
2DF9
100
AcDbEntity
  8
0
100
AcDbCircle
 10
2000.744708
 20
492.637755
 30
0.0
 40
8.4762
100
AcDbArc
 50
39.675126
 51
65.043758
  0
LINE
  5
2DFF
100
AcDbEntity
  8
0
100
AcDbLine
 10
2143.244465
 20
661.917602
 30
0.0
 11
2114.88434
 21
661.917602
 31
0.0
  0
LINE
  5
2E00
100
AcDbEntity
  8
0
100
AcDbLine
 10
2086.522528
 20
652.464227
 30
0.0
 11
2133.79109
 21
652.464227
 31
0.0
  0
LINE
  5
2E02
100
AcDbEntity
  8
0
100
AcDbLine
 10
2007.268642
 20
672.038733
 30
0.0
 11
2007.268642
 21
638.038733
 31
0.0
  0
LINE
  5
2E04
100
AcDbEntity
  8
0
100
AcDbLine
 10
2004.323785
 20
675.260273
 30
0.0
 11
2004.323785
 21
617.695936
 31
0.0
  0
LINE
  5
2E07
100
AcDbEntity
  8
0
100
AcDbLine
 10
1999.927157
 20
607.089334
 30
0.0
 11
1978.582198
 21
585.744374
 31
0.0
  0
ARC
  5
2E08
100
AcDbEntity
  8
0
100
AcDbCircle
 10
1969.743363
 20
594.583209
 30
0.0
 40
12.5
100
AcDbArc
 50
270.019649
 51
315.0
  0
ARC
  5
2E09
100
AcDbEntity
  8
0
100
AcDbCircle
 10
1989.320556
 20
617.695936
 30
0.0
 40
15.0
100
AcDbArc
 50
315.0
 51
0.0
  0
ARC
  5
2E0A
100
AcDbEntity
  8
0
100
AcDbCircle
 10
2000.744708
 20
643.450225
 30
0.0
 40
8.4762
100
AcDbArc
 50
295.262779
 51
320.324874
  0
ARC
  5
2E0F
100
AcDbEntity
  8
0
100
AcDbCircle
 10
1989.321311
 20
675.109733
 30
0.0
 40
15.0
100
AcDbArc
 50
0.575033
 51
90.0
  0
ARC
  5
2E10
100
AcDbEntity
  8
0
100
AcDbCircle
 10
2000.744708
 20
666.62724
 30
0.0
 40
8.4762
100
AcDbArc
 50
39.675126
 51
65.043758
  0
LINE
  5
2E13
100
AcDbEntity
  8
0
100
AcDbLine
 10
2096.181778
 20
661.917602
 30
0.0
 11
2086.522528
 21
652.464227
 31
0.0
  0
LINE
  5
2E14
100
AcDbEntity
  8
0
100
AcDbLine
 10
2110.155965
 20
657.190914
 30
0.0
 11
2096.181778
 21
657.190914
 31
0.0
  0
LINE
  5
2E15
100
AcDbEntity
  8
0
100
AcDbLine
 10
2096.181778
 20
657.190914
 30
0.0
 11
2096.181778
 21
661.917602
 31
0.0
  0
LINE
  5
2E16
100
AcDbEntity
  8
0
100
AcDbLine
 10
2114.88434
 20
661.917602
 30
0.0
 11
2110.155965
 21
657.190914
 31
0.0
  0
LINE
  5
2E18
100
AcDbEntity
  8
0
100
AcDbLine
 10
2133.79109
 20
652.464227
 30
0.0
 11
2143.244465
 21
661.917602
 31
0.0
  0
ARC
  5
2E19
100
AcDbEntity
  8
0
100
AcDbCircle
 10
1912.12296
 20
1317.467447
 30
0.0
 40
12.5
100
AcDbArc
 50
225.0
 51
268.945222
  0
LINE
  5
2E1A
100
AcDbEntity
  8
0
100
AcDbLine
 10
1983.129978
 20
1118.653489
 30
0.0
 11
1892.528948
 21
1118.653489
 31
0.0
  0
LINE
  5
2E1B
100
AcDbEntity
  8
0
100
AcDbLine
 10
1974.844969
 20
1271.834836
 30
0.0
 11
1900.273497
 21
1271.834836
 31
0.0
  0
LINE
  5
2E1C
100
AcDbEntity
  8
0
100
AcDbLine
 10
1974.854429
 20
1163.812764
 30
0.0
 11
1900.816719
 21
1163.793345
 31
0.0
  0
LINE
  5
2E1D
100
AcDbEntity
  8
0
100
AcDbLine
 10
1983.129978
 20
1413.009515
 30
0.0
 11
1892.528948
 21
1413.009515
 31
0.0
  0
ARC
  5
2E1E
100
AcDbEntity
  8
0
100
AcDbCircle
 10
1912.12296
 20
1023.111421
 30
0.0
 40
12.5
100
AcDbArc
 50
225.0
 51
268.945222
  0
LINE
  5
2E1F
100
AcDbEntity
  8
0
100
AcDbLine
 10
1881.92262
 20
1329.990117
 30
0.0
 11
1903.284125
 21
1308.628612
 31
0.0
  0
ARC
  5
2E20
100
AcDbEntity
  8
0
100
AcDbCircle
 10
1207.596691
 20
1323.313095
 30
0.0
 40
12.5
100
AcDbArc
 50
270.019649
 51
315.0
  0
ARC
  5
2E21
100
AcDbEntity
  8
0
100
AcDbCircle
 10
1156.167621
 20
1323.29755
 30
0.0
 40
12.5
100
AcDbArc
 50
225.0
 51
268.945222
  0
LINE
  5
2E22
100
AcDbEntity
  8
0
100
AcDbLine
 10
1242.173883
 20
1103.80403
 30
0.0
 11
1242.173883
 21
1046.239693
 31
0.0
  0
LINE
  5
2E23
100
AcDbEntity
  8
0
100
AcDbLine
 10
1243.048556
 20
1098.582489
 30
0.0
 11
1243.048556
 21
1068.582489
 31
0.0
  0
LINE
  5
2E24
100
AcDbEntity
  8
0
100
AcDbLine
 10
1247.374265
 20
1068.582489
 30
0.0
 11
1247.374265
 21
1098.582489
 31
0.0
  0
ARC
  5
2E25
100
AcDbEntity
  8
0
100
AcDbCircle
 10
1275.966992
 20
1074.582489
 30
0.0
 40
20.63915
100
AcDbArc
 50
154.146953
 51
205.853047
  0
LINE
  5
2E26
100
AcDbEntity
  8
0
100
AcDbLine
 10
1275.374265
 20
1066.082489
 30
0.0
 11
1275.374265
 21
1083.582489
 31
0.0
  0
ARC
  5
2E27
100
AcDbEntity
  8
0
100
AcDbCircle
 10
1253.516166
 20
1074.582489
 30
0.0
 40
20.63915
100
AcDbArc
 50
334.146953
 51
25.853047
  0
CIRCLE
  5
2E28
100
AcDbEntity
  8
0
100
AcDbCircle
 10
1351.936602
 20
1064.640997
 30
0.0
 40
54.012493
  0
POLYLINE
  5
2E29
100
AcDbEntity
  8
0
100
AcDb2dPolyline
 66
     1
 10
0.0
 20
0.0
 30
0.0
 70
     1
  0
VERTEX
  5
3A58
100
AcDbEntity
  8
0
100
AcDbVertex
100
AcDb2dVertex
 10
1341.544298
 20
1101.582489
 30
0.0
  0
VERTEX
  5
3A59
100
AcDbEntity
  8
0
100
AcDbVertex
100
AcDb2dVertex
 10
1331.151993
 20
1083.582489
 30
0.0
  0
VERTEX
  5
3A5A
100
AcDbEntity
  8
0
100
AcDbVertex
100
AcDb2dVertex
 10
1341.544298
 20
1065.582489
 30
0.0
  0
VERTEX
  5
3A5B
100
AcDbEntity
  8
0
100
AcDbVertex
100
AcDb2dVertex
 10
1362.328907
 20
1065.582489
 30
0.0
  0
VERTEX
  5
3A5C
100
AcDbEntity
  8
0
100
AcDbVertex
100
AcDb2dVertex
 10
1372.721212
 20
1083.582489
 30
0.0
  0
VERTEX
  5
3A5D
100
AcDbEntity
  8
0
100
AcDbVertex
100
AcDb2dVertex
 10
1362.328907
 20
1101.582489
 30
0.0
  0
SEQEND
  5
3A5E
100
AcDbEntity
  8
0
  0
CIRCLE
  5
2E2A
100
AcDbEntity
  8
0
100
AcDbCircle
 10
1351.936602
 20
1083.582489
 30
0.0
 40
17.5
  0
ARC
  5
2E2B
100
AcDbEntity
  8
0
100
AcDbCircle
 10
1207.596691
 20
1023.126966
 30
0.0
 40
12.5
100
AcDbArc
 50
270.019649
 51
315.0
  0
TEXT
  5
2E2C
100
AcDbEntity
  8
0
100
AcDbText
 10
1161.273668
 20
976.425757
 30
0.0
 40
20.0
  1
20A
 41
0.8
 11
1161.273668
 21
976.425757
 31
0.0
100
AcDbText
 73
     1
  0
LINE
  5
2E2D
100
AcDbEntity
  8
0
100
AcDbLine
 10
1207.792759
 20
1010.628504
 30
0.0
 11
1155.873315
 21
1010.614886
 31
0.0
  0
ARC
  5
2E2E
100
AcDbEntity
  8
0
100
AcDbCircle
 10
1156.167621
 20
1023.111421
 30
0.0
 40
12.5
100
AcDbArc
 50
225.0
 51
268.945222
  0
LINE
  5
2E2F
100
AcDbEntity
  8
0
100
AcDbLine
 10
1237.780485
 20
1035.633091
 30
0.0
 11
1216.435525
 21
1014.288131
 31
0.0
  0
LINE
  5
2E30
100
AcDbEntity
  8
0
100
AcDbLine
 10
1247.374265
 20
1068.582489
 30
0.0
 11
1257.393502
 21
1065.582489
 31
0.0
  0
ARC
  5
2E31
100
AcDbEntity
  8
0
100
AcDbCircle
 10
1227.173883
 20
1046.239693
 30
0.0
 40
15.0
100
AcDbArc
 50
315.0
 51
0.0
  0
LINE
  5
2E32
100
AcDbEntity
  8
0
100
AcDbLine
 10
1242.174365
 20
1067.689752
 30
0.0
 11
1243.048556
 21
1068.582489
 31
0.0
  0
LINE
  5
2E33
100
AcDbEntity
  8
0
100
AcDbLine
 10
1243.048556
 20
1068.582489
 30
0.0
 11
1247.374265
 21
1068.582489
 31
0.0
  0
LINE
  5
2E34
100
AcDbEntity
  8
0
100
AcDbLine
 10
1257.393502
 20
1065.582489
 30
0.0
 11
1272.089655
 21
1065.582489
 31
0.0
  0
LINE
  5
2E35
100
AcDbEntity
  8
0
100
AcDbLine
 10
1272.089655
 20
1065.582489
 30
0.0
 11
1275.374265
 21
1066.082489
 31
0.0
  0
ELLIPSE
  5
2E36
100
AcDbEntity
  8
0
100
AcDbEllipse
 10
1351.936602
 20
1024.960611
 30
0.0
 11
-15.08777685472523
 21
0.0
 31
0.0
210
0.0
220
0.0
230
1.0
 40
0.707359
 41
0.0
 42
6.283185307179586
  0
ARC
  5
2E37
100
AcDbEntity
  8
0
100
AcDbCircle
 10
1153.689896
 20
1214.541525
 30
0.0
 40
90.0
100
AcDbArc
 50
330.389392
 51
349.468766
  0
LINE
  5
2E38
100
AcDbEntity
  8
0
100
AcDbLine
 10
1227.174639
 20
1118.653489
 30
0.0
 11
1136.573609
 21
1118.653489
 31
0.0
  0
LINE
  5
2E39
100
AcDbEntity
  8
0
100
AcDbLine
 10
1218.89909
 20
1162.483813
 30
0.0
 11
1144.86138
 21
1162.464394
 31
0.0
  0
ARC
  5
2E3A
100
AcDbEntity
  8
0
100
AcDbCircle
 10
1144.857446
 20
1177.464394
 30
0.0
 40
15.0
100
AcDbArc
 50
209.612999
 51
270.015028
  0
LINE
  5
2E3B
100
AcDbEntity
  8
0
100
AcDbLine
 10
1247.374265
 20
1098.582489
 30
0.0
 11
1257.393502
 21
1101.582489
 31
0.0
  0
ARC
  5
2E3C
100
AcDbEntity
  8
0
100
AcDbCircle
 10
1227.174639
 20
1103.653489
 30
0.0
 40
15.0
100
AcDbArc
 50
0.575033
 51
90.0
  0
LINE
  5
2E3D
100
AcDbEntity
  8
0
100
AcDbLine
 10
1242.174365
 20
1099.475227
 30
0.0
 11
1243.048556
 21
1098.582489
 31
0.0
  0
LINE
  5
2E3E
100
AcDbEntity
  8
0
100
AcDbLine
 10
1243.048556
 20
1098.582489
 30
0.0
 11
1247.374265
 21
1098.582489
 31
0.0
  0
LINE
  5
2E3F
100
AcDbEntity
  8
0
100
AcDbLine
 10
1257.393502
 20
1083.582489
 30
0.0
 11
1272.089655
 21
1083.582489
 31
0.0
  0
LINE
  5
2E40
100
AcDbEntity
  8
0
100
AcDbLine
 10
1257.393502
 20
1101.582489
 30
0.0
 11
1272.089655
 21
1101.582489
 31
0.0
  0
ARC
  5
2E41
100
AcDbEntity
  8
0
100
AcDbCircle
 10
1275.966992
 20
1092.582489
 30
0.0
 40
20.63915
100
AcDbArc
 50
154.146953
 51
205.853047
  0
LINE
  5
2E42
100
AcDbEntity
  8
0
100
AcDbLine
 10
1275.374265
 20
1083.582489
 30
0.0
 11
1275.374265
 21
1101.082489
 31
0.0
  0
ARC
  5
2E43
100
AcDbEntity
  8
0
100
AcDbCircle
 10
1253.516166
 20
1092.582489
 30
0.0
 40
20.63915
100
AcDbArc
 50
334.146953
 51
25.853047
  0
LINE
  5
2E44
100
AcDbEntity
  8
0
100
AcDbLine
 10
1272.089655
 20
1101.582489
 30
0.0
 11
1275.374265
 21
1101.082489
 31
0.0
  0
ARC
  5
2E45
100
AcDbEntity
  8
0
100
AcDbCircle
 10
1218.895156
 20
1177.483812
 30
0.0
 40
15.0
100
AcDbArc
 50
270.015028
 51
330.389392
  0
LINE
  5
2E46
100
AcDbEntity
  8
0
100
AcDbLine
 10
1218.88963
 20
1270.505885
 30
0.0
 11
1144.318158
 21
1270.505885
 31
0.0
  0
ARC
  5
2E47
100
AcDbEntity
  8
0
100
AcDbCircle
 10
1144.857446
 20
1255.515583
 30
0.0
 40
15.0
100
AcDbArc
 50
89.984972
 51
150.387001
  0
ARC
  5
2E48
100
AcDbEntity
  8
0
100
AcDbCircle
 10
1153.689896
 20
1218.438452
 30
0.0
 40
90.0
100
AcDbArc
 50
10.531234
 51
29.61915
  0
LINE
  5
2E49
100
AcDbEntity
  8
0
100
AcDbLine
 10
1247.390043
 20
1201.524215
 30
0.0
 11
1257.412314
 21
1195.744862
 31
0.0
  0
LINE
  5
2E4A
100
AcDbEntity
  8
0
100
AcDbLine
 10
1247.374307
 20
1231.524211
 30
0.0
 11
1257.390509
 21
1237.314075
 31
0.0
  0
LINE
  5
2E4B
100
AcDbEntity
  8
0
100
AcDbLine
 10
1247.390043
 20
1201.524215
 30
0.0
 11
1247.374307
 21
1231.524211
 31
0.0
  0
LINE
  5
2E4C
100
AcDbEntity
  8
0
100
AcDbLine
 10
1242.173883
 20
1234.887888
 30
0.0
 11
1242.173883
 21
1198.092089
 31
0.0
  0
LINE
  5
2E4D
100
AcDbEntity
  8
0
100
AcDbLine
 10
1243.173393
 20
1231.522007
 30
0.0
 11
1243.18913
 21
1201.522011
 31
0.0
  0
LINE
  5
2E4E
100
AcDbEntity
  8
0
100
AcDbLine
 10
1242.190668
 20
1200.523008
 30
0.0
 11
1243.18913
 21
1201.522011
 31
0.0
  0
LINE
  5
2E4F
100
AcDbEntity
  8
0
100
AcDbLine
 10
1243.18913
 20
1201.522011
 30
0.0
 11
1247.390043
 21
1201.524215
 31
0.0
  0
LINE
  5
2E50
100
AcDbEntity
  8
0
100
AcDbLine
 10
1242.173883
 20
1232.519962
 30
0.0
 11
1243.173393
 21
1231.522007
 31
0.0
  0
LINE
  5
2E51
100
AcDbEntity
  8
0
100
AcDbLine
 10
1243.173393
 20
1231.522007
 30
0.0
 11
1247.374307
 21
1231.524211
 31
0.0
  0
ARC
  5
2E52
100
AcDbEntity
  8
0
100
AcDbCircle
 10
1282.815004
 20
1216.5428
 30
0.0
 40
27.456345
100
AcDbArc
 50
157.789079
 51
202.271032
  0
LINE
  5
2E53
100
AcDbEntity
  8
0
100
AcDbLine
 10
1275.382171
 20
1216.538901
 30
0.0
 11
1275.372991
 21
1234.038898
 31
0.0
  0
ARC
  5
2E54
100
AcDbEntity
  8
0
100
AcDbCircle
 10
1246.683969
 20
1216.523847
 30
0.0
 40
27.456345
100
AcDbArc
 50
337.789079
 51
22.271032
  0
LINE
  5
2E55
100
AcDbEntity
  8
0
100
AcDbLine
 10
1257.412314
 20
1195.744862
 30
0.0
 11
1272.108465
 21
1195.752571
 31
0.0
  0
LINE
  5
2E56
100
AcDbEntity
  8
0
100
AcDbLine
 10
1257.406863
 20
1206.137165
 30
0.0
 11
1272.103013
 21
1206.144874
 31
0.0
  0
ARC
  5
2E57
100
AcDbEntity
  8
0
100
AcDbCircle
 10
1262.912197
 20
1200.9439
 30
0.0
 40
7.56827
100
AcDbArc
 50
136.670797
 51
223.389314
  0
LINE
  5
2E58
100
AcDbEntity
  8
0
100
AcDbLine
 10
1275.391351
 20
1199.038903
 30
0.0
 11
1275.382171
 21
1216.538901
 31
0.0
  0
ARC
  5
2E59
100
AcDbEntity
  8
0
100
AcDbCircle
 10
1266.60313
 20
1200.945836
 30
0.0
 40
7.56827
100
AcDbArc
 50
316.670797
 51
43.389314
  0
LINE
  5
2E5A
100
AcDbEntity
  8
0
100
AcDbLine
 10
1272.108465
 20
1195.752571
 30
0.0
 11
1275.391351
 21
1199.038903
 31
0.0
  0
LINE
  5
2E5B
100
AcDbEntity
  8
0
100
AcDbLine
 10
1257.39596
 20
1226.921772
 30
0.0
 11
1272.09211
 21
1226.929481
 31
0.0
  0
LINE
  5
2E5C
100
AcDbEntity
  8
0
100
AcDbLine
 10
1257.390509
 20
1237.314075
 30
0.0
 11
1272.086659
 21
1237.321784
 31
0.0
  0
ARC
  5
2E5D
100
AcDbEntity
  8
0
100
AcDbCircle
 10
1262.895843
 20
1232.12081
 30
0.0
 40
7.56827
100
AcDbArc
 50
136.670797
 51
223.389314
  0
ARC
  5
2E5E
100
AcDbEntity
  8
0
100
AcDbCircle
 10
1266.586776
 20
1232.122746
 30
0.0
 40
7.56827
100
AcDbArc
 50
316.670797
 51
43.389314
  0
LINE
  5
2E5F
100
AcDbEntity
  8
0
100
AcDbLine
 10
1272.086659
 20
1237.321784
 30
0.0
 11
1275.372991
 21
1234.038898
 31
0.0
  0
ARC
  5
2E60
100
AcDbEntity
  8
0
100
AcDbCircle
 10
1218.88963
 20
1255.505885
 30
0.0
 40
15.0
100
AcDbArc
 50
29.61915
 51
90.0
  0
ARC
  5
2E61
100
AcDbEntity
  8
0
100
AcDbCircle
 10
1842.331504
 20
1073.332489
 30
0.0
 40
18.149941
100
AcDbArc
 50
325.615753
 51
34.384247
  0
ARC
  5
2E62
100
AcDbEntity
  8
0
100
AcDbCircle
 10
1857.479263
 20
1073.332489
 30
0.0
 40
18.149941
100
AcDbArc
 50
145.615753
 51
214.384247
  0
LINE
  5
2E63
100
AcDbEntity
  8
0
100
AcDbLine
 10
1838.829322
 20
1083.582489
 30
0.0
 11
1838.829322
 21
1063.582489
 31
0.0
  0
LINE
  5
2E64
100
AcDbEntity
  8
0
100
AcDbLine
 10
1875.712296
 20
1098.582489
 30
0.0
 11
1875.712296
 21
1068.582489
 31
0.0
  0
LINE
  5
2E65
100
AcDbEntity
  8
0
100
AcDbLine
 10
1872.329322
 20
1098.582489
 30
0.0
 11
1872.329322
 21
1068.582489
 31
0.0
  0
LINE
  5
2E66
100
AcDbEntity
  8
0
100
AcDbLine
 10
1877.529222
 20
1103.74421
 30
0.0
 11
1877.529222
 21
1046.240693
 31
0.0
  0
CIRCLE
  5
2E67
100
AcDbEntity
  8
0
100
AcDbCircle
 10
1697.130498
 20
1064.640997
 30
0.0
 40
54.012493
  0
CIRCLE
  5
2E68
100
AcDbEntity
  8
0
100
AcDbCircle
 10
1697.130498
 20
1083.582489
 30
0.0
 40
20.0
  0
POLYLINE
  5
2E69
100
AcDbEntity
  8
0
100
AcDb2dPolyline
 66
     1
 10
0.0
 20
0.0
 30
0.0
 70
     1
  0
VERTEX
  5
3A5F
100
AcDbEntity
  8
0
100
AcDbVertex
100
AcDb2dVertex
 10
1685.294817
 20
1063.082489
 30
0.0
  0
VERTEX
  5
3A60
100
AcDbEntity
  8
0
100
AcDbVertex
100
AcDb2dVertex
 10
1673.459137
 20
1083.582489
 30
0.0
  0
VERTEX
  5
3A61
100
AcDbEntity
  8
0
100
AcDbVertex
100
AcDb2dVertex
 10
1685.294817
 20
1104.082489
 30
0.0
  0
VERTEX
  5
3A62
100
AcDbEntity
  8
0
100
AcDbVertex
100
AcDb2dVertex
 10
1708.966178
 20
1104.082489
 30
0.0
  0
VERTEX
  5
3A63
100
AcDbEntity
  8
0
100
AcDbVertex
100
AcDb2dVertex
 10
1720.801859
 20
1083.582489
 30
0.0
  0
VERTEX
  5
3A64
100
AcDbEntity
  8
0
100
AcDbVertex
100
AcDb2dVertex
 10
1708.966178
 20
1063.082489
 30
0.0
  0
SEQEND
  5
3A65
100
AcDbEntity
  8
0
  0
ELLIPSE
  5
2E6A
100
AcDbEntity
  8
0
100
AcDbEllipse
 10
1697.130498
 20
1024.960611
 30
0.0
 11
15.08777685472523
 21
0.0
 31
0.0
210
0.0
220
0.0
230
-1.0
 40
0.707359
 41
0.0
 42
6.283185307179586
  0
LINE
  5
2E6B
100
AcDbEntity
  8
0
100
AcDbLine
 10
1881.92262
 20
1035.634091
 30
0.0
 11
1903.284125
 21
1014.272586
 31
0.0
  0
LINE
  5
2E6C
100
AcDbEntity
  8
0
100
AcDbLine
 10
1857.310084
 20
1063.082489
 30
0.0
 11
1872.329322
 21
1068.582489
 31
0.0
  0
LINE
  5
2E6D
100
AcDbEntity
  8
0
100
AcDbLine
 10
1857.310084
 20
1063.082489
 30
0.0
 11
1842.500683
 21
1063.082489
 31
0.0
  0
LINE
  5
2E6E
100
AcDbEntity
  8
0
100
AcDbLine
 10
1838.829322
 20
1063.582489
 30
0.0
 11
1842.500683
 21
1063.082489
 31
0.0
  0
ARC
  5
2E6F
100
AcDbEntity
  8
0
100
AcDbCircle
 10
1892.529222
 20
1046.240693
 30
0.0
 40
15.0
100
AcDbArc
 50
180.0
 51
225.0
  0
ARC
  5
2E70
100
AcDbEntity
  8
0
100
AcDbCircle
 10
1879.487508
 20
1070.512285
 30
0.0
 40
4.239851
100
AcDbArc
 50
207.075007
 51
242.491769
  0
LINE
  5
2E71
100
AcDbEntity
  8
0
100
AcDbLine
 10
1872.329322
 20
1068.582489
 30
0.0
 11
1875.712296
 21
1068.582489
 31
0.0
  0
ARC
  5
2E72
100
AcDbEntity
  8
0
100
AcDbCircle
 10
1966.016498
 20
1215.853779
 30
0.0
 40
90.0
100
AcDbArc
 50
190.519775
 51
209.612999
  0
ARC
  5
2E73
100
AcDbEntity
  8
0
100
AcDbCircle
 10
1853.374345
 20
1200.065418
 30
0.0
 40
7.107101
100
AcDbArc
 50
303.626429
 51
56.373571
  0
ARC
  5
2E74
100
AcDbEntity
  8
0
100
AcDbCircle
 10
1846.436423
 20
1200.065418
 30
0.0
 40
7.107101
100
AcDbArc
 50
123.626429
 51
236.373571
  0
LINE
  5
2E75
100
AcDbEntity
  8
0
100
AcDbLine
 10
1838.829322
 20
1197.818939
 30
0.0
 11
1842.500683
 21
1194.147578
 31
0.0
  0
LINE
  5
2E76
100
AcDbEntity
  8
0
100
AcDbLine
 10
1857.310084
 20
1194.147578
 30
0.0
 11
1872.329322
 21
1202.818939
 31
0.0
  0
LINE
  5
2E77
100
AcDbEntity
  8
0
100
AcDbLine
 10
1763.108603
 20
1091.045637
 30
0.0
 11
1791.468728
 21
1091.045637
 31
0.0
  0
LINE
  5
2E78
100
AcDbEntity
  8
0
100
AcDbLine
 10
1819.830541
 20
1081.592262
 30
0.0
 11
1772.561978
 21
1081.592262
 31
0.0
  0
LINE
  5
2E79
100
AcDbEntity
  8
0
100
AcDbLine
 10
1772.561978
 20
1081.592262
 30
0.0
 11
1763.108603
 21
1091.045637
 31
0.0
  0
LINE
  5
2E7A
100
AcDbEntity
  8
0
100
AcDbLine
 10
1796.197103
 20
1086.318949
 30
0.0
 11
1810.171291
 21
1086.318949
 31
0.0
  0
LINE
  5
2E7B
100
AcDbEntity
  8
0
100
AcDbLine
 10
1791.468728
 20
1091.045637
 30
0.0
 11
1796.197103
 21
1086.318949
 31
0.0
  0
LINE
  5
2E7C
100
AcDbEntity
  8
0
100
AcDbLine
 10
1810.171291
 20
1091.045637
 30
0.0
 11
1819.830541
 21
1081.592262
 31
0.0
  0
LINE
  5
2E7D
100
AcDbEntity
  8
0
100
AcDbLine
 10
1810.171291
 20
1086.318949
 30
0.0
 11
1810.171291
 21
1091.045637
 31
0.0
  0
LINE
  5
2E7E
100
AcDbEntity
  8
0
100
AcDbLine
 10
1857.310084
 20
1104.082489
 30
0.0
 11
1872.329322
 21
1098.582489
 31
0.0
  0
LINE
  5
2E7F
100
AcDbEntity
  8
0
100
AcDbLine
 10
1857.310084
 20
1104.082489
 30
0.0
 11
1842.500683
 21
1104.082489
 31
0.0
  0
LINE
  5
2E80
100
AcDbEntity
  8
0
100
AcDbLine
 10
1857.310084
 20
1083.582489
 30
0.0
 11
1842.500683
 21
1083.582489
 31
0.0
  0
LINE
  5
2E81
100
AcDbEntity
  8
0
100
AcDbLine
 10
1842.500683
 20
1104.082489
 30
0.0
 11
1838.829322
 21
1103.582489
 31
0.0
  0
ARC
  5
2E82
100
AcDbEntity
  8
0
100
AcDbCircle
 10
1857.479263
 20
1093.832489
 30
0.0
 40
18.149941
100
AcDbArc
 50
145.615753
 51
214.384247
  0
LINE
  5
2E83
100
AcDbEntity
  8
0
100
AcDbLine
 10
1838.829322
 20
1103.582489
 30
0.0
 11
1838.829322
 21
1083.582489
 31
0.0
  0
ARC
  5
2E84
100
AcDbEntity
  8
0
100
AcDbCircle
 10
1842.331504
 20
1093.832489
 30
0.0
 40
18.149941
100
AcDbArc
 50
325.615753
 51
34.384247
  0
ARC
  5
2E85
100
AcDbEntity
  8
0
100
AcDbCircle
 10
1892.528948
 20
1103.653489
 30
0.0
 40
15.0
100
AcDbArc
 50
90.0
 51
179.653469
  0
ARC
  5
2E86
100
AcDbEntity
  8
0
100
AcDbCircle
 10
1879.487508
 20
1096.652693
 30
0.0
 40
4.239851
100
AcDbArc
 50
117.508231
 51
152.924993
  0
LINE
  5
2E87
100
AcDbEntity
  8
0
100
AcDbLine
 10
1872.329322
 20
1098.582489
 30
0.0
 11
1875.712296
 21
1098.582489
 31
0.0
  0
LINE
  5
2E88
100
AcDbEntity
  8
0
100
AcDbLine
 10
1857.310084
 20
1194.147578
 30
0.0
 11
1842.500683
 21
1194.147578
 31
0.0
  0
ARC
  5
2E89
100
AcDbEntity
  8
0
100
AcDbCircle
 10
1900.812785
 20
1178.793344
 30
0.0
 40
15.0
100
AcDbArc
 50
209.612999
 51
270.015028
  0
LINE
  5
2E8A
100
AcDbEntity
  8
0
100
AcDbLine
 10
1774.94403
 20
1214.889542
 30
0.0
 11
1765.490655
 21
1224.342917
 31
0.0
  0
LINE
  5
2E8B
100
AcDbEntity
  8
0
100
AcDbLine
 10
1765.490655
 20
1224.342917
 30
0.0
 11
1793.85078
 21
1224.342917
 31
0.0
  0
LINE
  5
2E8C
100
AcDbEntity
  8
0
100
AcDbLine
 10
1798.579155
 20
1219.616229
 30
0.0
 11
1812.553343
 21
1219.616229
 31
0.0
  0
LINE
  5
2E8D
100
AcDbEntity
  8
0
100
AcDbLine
 10
1822.212593
 20
1214.889542
 30
0.0
 11
1774.94403
 21
1214.889542
 31
0.0
  0
LINE
  5
2E8E
100
AcDbEntity
  8
0
100
AcDbLine
 10
1793.85078
 20
1224.342917
 30
0.0
 11
1798.579155
 21
1219.616229
 31
0.0
  0
LINE
  5
2E8F
100
AcDbEntity
  8
0
100
AcDbLine
 10
1812.553343
 20
1224.342917
 30
0.0
 11
1822.212593
 21
1214.889542
 31
0.0
  0
LINE
  5
2E90
100
AcDbEntity
  8
0
100
AcDbLine
 10
1812.553343
 20
1219.616229
 30
0.0
 11
1812.553343
 21
1224.342917
 31
0.0
  0
ARC
  5
2E91
100
AcDbEntity
  8
0
100
AcDbCircle
 10
1966.016498
 20
1219.784099
 30
0.0
 40
90.0
100
AcDbArc
 50
150.387001
 51
169.480225
  0
LINE
  5
2E92
100
AcDbEntity
  8
0
100
AcDbLine
 10
1857.310084
 20
1241.4903
 30
0.0
 11
1872.329322
 21
1232.818939
 31
0.0
  0
LINE
  5
2E93
100
AcDbEntity
  8
0
100
AcDbLine
 10
1838.829322
 20
1237.818939
 30
0.0
 11
1838.829322
 21
1217.818939
 31
0.0
  0
ARC
  5
2E94
100
AcDbEntity
  8
0
100
AcDbCircle
 10
1863.000683
 20
1217.818939
 30
0.0
 40
23.671361
100
AcDbArc
 50
150.0
 51
210.0
  0
ARC
  5
2E95
100
AcDbEntity
  8
0
100
AcDbCircle
 10
1836.810084
 20
1217.818939
 30
0.0
 40
23.671361
100
AcDbArc
 50
330.0
 51
30.0
  0
LINE
  5
2E96
100
AcDbEntity
  8
0
100
AcDbLine
 10
1857.310084
 20
1205.983258
 30
0.0
 11
1842.500683
 21
1205.983258
 31
0.0
  0
LINE
  5
2E97
100
AcDbEntity
  8
0
100
AcDbLine
 10
1838.829322
 20
1217.818939
 30
0.0
 11
1838.829322
 21
1197.818939
 31
0.0
  0
LINE
  5
2E98
100
AcDbEntity
  8
0
100
AcDbLine
 10
1857.310084
 20
1229.654619
 30
0.0
 11
1842.500683
 21
1229.654619
 31
0.0
  0
LINE
  5
2E99
100
AcDbEntity
  8
0
100
AcDbLine
 10
1857.310084
 20
1241.4903
 30
0.0
 11
1842.500683
 21
1241.4903
 31
0.0
  0
ARC
  5
2E9A
100
AcDbEntity
  8
0
100
AcDbCircle
 10
1846.436423
 20
1235.57246
 30
0.0
 40
7.107101
100
AcDbArc
 50
123.626429
 51
236.373571
  0
LINE
  5
2E9B
100
AcDbEntity
  8
0
100
AcDbLine
 10
1842.500683
 20
1241.4903
 30
0.0
 11
1838.829322
 21
1237.818939
 31
0.0
  0
ARC
  5
2E9C
100
AcDbEntity
  8
0
100
AcDbCircle
 10
1853.374345
 20
1235.57246
 30
0.0
 40
7.107101
100
AcDbArc
 50
303.626429
 51
56.373571
  0
LINE
  5
2E9D
100
AcDbEntity
  8
0
100
AcDbLine
 10
1872.329322
 20
1232.818939
 30
0.0
 11
1872.329322
 21
1202.818939
 31
0.0
  0
LINE
  5
2E9E
100
AcDbEntity
  8
0
100
AcDbLine
 10
1873.520282
 20
1232.818939
 30
0.0
 11
1873.520282
 21
1202.818939
 31
0.0
  0
LINE
  5
2E9F
100
AcDbEntity
  8
0
100
AcDbLine
 10
1877.529222
 20
1236.215838
 30
0.0
 11
1877.529222
 21
1199.422039
 31
0.0
  0
LINE
  5
2EA0
100
AcDbEntity
  8
0
100
AcDbLine
 10
1872.329322
 20
1202.818939
 30
0.0
 11
1873.520282
 21
1202.818939
 31
0.0
  0
ARC
  5
2EA1
100
AcDbEntity
  8
0
100
AcDbCircle
 10
1878.0878
 20
1205.535073
 30
0.0
 40
5.314095
100
AcDbArc
 50
210.738381
 51
263.966346
  0
LINE
  5
2EA2
100
AcDbEntity
  8
0
100
AcDbLine
 10
1872.329322
 20
1232.818939
 30
0.0
 11
1873.520282
 21
1232.818939
 31
0.0
  0
ARC
  5
2EA3
100
AcDbEntity
  8
0
100
AcDbCircle
 10
1878.0878
 20
1230.102805
 30
0.0
 40
5.314095
100
AcDbArc
 50
96.033654
 51
149.261619
  0
ARC
  5
2EA4
100
AcDbEntity
  8
0
100
AcDbCircle
 10
1900.812785
 20
1256.844534
 30
0.0
 40
15.0
100
AcDbArc
 50
89.984972
 51
150.387001
  0
LINE
  5
2EA5
100
AcDbEntity
  8
0
100
AcDbLine
 10
1227.174639
 20
1418.839618
 30
0.0
 11
1136.573609
 21
1418.839618
 31
0.0
  0
LINE
  5
2EA6
100
AcDbEntity
  8
0
100
AcDbLine
 10
1207.792759
 20
1310.814633
 30
0.0
 11
1155.873315
 21
1310.801015
 31
0.0
  0
LINE
  5
2EA7
100
AcDbEntity
  8
0
100
AcDbLine
 10
1247.374265
 20
1368.768618
 30
0.0
 11
1257.393502
 21
1365.768618
 31
0.0
  0
ARC
  5
2EA8
100
AcDbEntity
  8
0
100
AcDbCircle
 10
1253.516166
 20
1374.768618
 30
0.0
 40
20.63915
100
AcDbArc
 50
334.146953
 51
25.853047
  0
LINE
  5
2EA9
100
AcDbEntity
  8
0
100
AcDbLine
 10
1275.374265
 20
1366.268618
 30
0.0
 11
1275.374265
 21
1383.768618
 31
0.0
  0
ARC
  5
2EAA
100
AcDbEntity
  8
0
100
AcDbCircle
 10
1275.966992
 20
1374.768618
 30
0.0
 40
20.63915
100
AcDbArc
 50
154.146953
 51
205.853047
  0
LINE
  5
2EAB
100
AcDbEntity
  8
0
100
AcDbLine
 10
1242.173883
 20
1403.990159
 30
0.0
 11
1242.173883
 21
1346.425822
 31
0.0
  0
ARC
  5
2EAC
100
AcDbEntity
  8
0
100
AcDbCircle
 10
1227.173883
 20
1346.425822
 30
0.0
 40
15.0
100
AcDbArc
 50
315.0
 51
0.0
  0
LINE
  5
2EAD
100
AcDbEntity
  8
0
100
AcDbLine
 10
1237.780485
 20
1335.81922
 30
0.0
 11
1216.435525
 21
1314.47426
 31
0.0
  0
LINE
  5
2EAE
100
AcDbEntity
  8
0
100
AcDbLine
 10
1257.393502
 20
1365.768618
 30
0.0
 11
1272.089655
 21
1365.768618
 31
0.0
  0
LINE
  5
2EAF
100
AcDbEntity
  8
0
100
AcDbLine
 10
1272.089655
 20
1365.768618
 30
0.0
 11
1275.374265
 21
1366.268618
 31
0.0
  0
LINE
  5
2EB0
100
AcDbEntity
  8
0
100
AcDbLine
 10
1247.374265
 20
1398.768618
 30
0.0
 11
1257.393502
 21
1401.768618
 31
0.0
  0
LINE
  5
2EB1
100
AcDbEntity
  8
0
100
AcDbLine
 10
1247.374265
 20
1368.768618
 30
0.0
 11
1247.374265
 21
1398.768618
 31
0.0
  0
LINE
  5
2EB2
100
AcDbEntity
  8
0
100
AcDbLine
 10
1243.048556
 20
1398.768618
 30
0.0
 11
1243.048556
 21
1368.768618
 31
0.0
  0
LINE
  5
2EB3
100
AcDbEntity
  8
0
100
AcDbLine
 10
1242.174365
 20
1367.87588
 30
0.0
 11
1243.048556
 21
1368.768618
 31
0.0
  0
LINE
  5
2EB4
100
AcDbEntity
  8
0
100
AcDbLine
 10
1243.048556
 20
1368.768618
 30
0.0
 11
1247.374265
 21
1368.768618
 31
0.0
  0
ARC
  5
2EB5
100
AcDbEntity
  8
0
100
AcDbCircle
 10
1227.174639
 20
1403.839618
 30
0.0
 40
15.0
100
AcDbArc
 50
0.575033
 51
90.0
  0
LINE
  5
2EB6
100
AcDbEntity
  8
0
100
AcDbLine
 10
1242.174365
 20
1399.661356
 30
0.0
 11
1243.048556
 21
1398.768618
 31
0.0
  0
LINE
  5
2EB7
100
AcDbEntity
  8
0
100
AcDbLine
 10
1243.048556
 20
1398.768618
 30
0.0
 11
1247.374265
 21
1398.768618
 31
0.0
  0
ARC
  5
2EB8
100
AcDbEntity
  8
0
100
AcDbCircle
 10
1253.516166
 20
1392.768618
 30
0.0
 40
20.63915
100
AcDbArc
 50
334.146953
 51
25.853047
  0
LINE
  5
2EB9
100
AcDbEntity
  8
0
100
AcDbLine
 10
1275.374265
 20
1383.768618
 30
0.0
 11
1275.374265
 21
1401.268618
 31
0.0
  0
ARC
  5
2EBA
100
AcDbEntity
  8
0
100
AcDbCircle
 10
1275.966992
 20
1392.768618
 30
0.0
 40
20.63915
100
AcDbArc
 50
154.146953
 51
205.853047
  0
LINE
  5
2EBB
100
AcDbEntity
  8
0
100
AcDbLine
 10
1257.393502
 20
1383.768618
 30
0.0
 11
1272.089655
 21
1383.768618
 31
0.0
  0
LINE
  5
2EBC
100
AcDbEntity
  8
0
100
AcDbLine
 10
1257.393502
 20
1401.768618
 30
0.0
 11
1272.089655
 21
1401.768618
 31
0.0
  0
LINE
  5
2EBD
100
AcDbEntity
  8
0
100
AcDbLine
 10
1272.089655
 20
1401.768618
 30
0.0
 11
1275.374265
 21
1401.268618
 31
0.0
  0
LINE
  5
2EBE
100
AcDbEntity
  8
0
100
AcDbLine
 10
1351.354946
 20
1388.930134
 30
0.0
 11
1322.994821
 21
1388.930134
 31
0.0
  0
LINE
  5
2EBF
100
AcDbEntity
  8
0
100
AcDbLine
 10
1341.901571
 20
1379.476759
 30
0.0
 11
1351.354946
 21
1388.930134
 31
0.0
  0
LINE
  5
2EC0
100
AcDbEntity
  8
0
100
AcDbLine
 10
1294.633009
 20
1379.476759
 30
0.0
 11
1341.901571
 21
1379.476759
 31
0.0
  0
LINE
  5
2EC1
100
AcDbEntity
  8
0
100
AcDbLine
 10
1322.994821
 20
1388.930134
 30
0.0
 11
1318.266446
 21
1384.203446
 31
0.0
  0
LINE
  5
2EC2
100
AcDbEntity
  8
0
100
AcDbLine
 10
1304.292259
 20
1388.930134
 30
0.0
 11
1294.633009
 21
1379.476759
 31
0.0
  0
LINE
  5
2EC3
100
AcDbEntity
  8
0
100
AcDbLine
 10
1318.266446
 20
1384.203446
 30
0.0
 11
1304.292259
 21
1384.203446
 31
0.0
  0
LINE
  5
2EC4
100
AcDbEntity
  8
0
100
AcDbLine
 10
1304.292259
 20
1384.203446
 30
0.0
 11
1304.292259
 21
1388.930134
 31
0.0
  0
LINE
  5
2EC5
100
AcDbEntity
  8
0
100
AcDbLine
 10
1875.712296
 20
1392.938515
 30
0.0
 11
1875.712296
 21
1362.938515
 31
0.0
  0
LINE
  5
2EC6
100
AcDbEntity
  8
0
100
AcDbLine
 10
1872.329322
 20
1392.938515
 30
0.0
 11
1872.329322
 21
1362.938515
 31
0.0
  0
ARC
  5
2EC7
100
AcDbEntity
  8
0
100
AcDbCircle
 10
1842.331504
 20
1367.688515
 30
0.0
 40
18.149941
100
AcDbArc
 50
325.615753
 51
34.384247
  0
ARC
  5
2EC8
100
AcDbEntity
  8
0
100
AcDbCircle
 10
1857.479263
 20
1367.688515
 30
0.0
 40
18.149941
100
AcDbArc
 50
145.615753
 51
214.384247
  0
LINE
  5
2EC9
100
AcDbEntity
  8
0
100
AcDbLine
 10
1838.829322
 20
1377.938515
 30
0.0
 11
1838.829322
 21
1357.938515
 31
0.0
  0
LINE
  5
2ECA
100
AcDbEntity
  8
0
100
AcDbLine
 10
1877.529222
 20
1398.100236
 30
0.0
 11
1877.529222
 21
1340.596719
 31
0.0
  0
LINE
  5
2ECB
100
AcDbEntity
  8
0
100
AcDbLine
 10
1857.310084
 20
1357.438515
 30
0.0
 11
1872.329322
 21
1362.938515
 31
0.0
  0
LINE
  5
2ECC
100
AcDbEntity
  8
0
100
AcDbLine
 10
1857.310084
 20
1357.438515
 30
0.0
 11
1842.500683
 21
1357.438515
 31
0.0
  0
LINE
  5
2ECD
100
AcDbEntity
  8
0
100
AcDbLine
 10
1838.829322
 20
1357.938515
 30
0.0
 11
1842.500683
 21
1357.438515
 31
0.0
  0
ARC
  5
2ECE
100
AcDbEntity
  8
0
100
AcDbCircle
 10
1892.529222
 20
1340.596719
 30
0.0
 40
15.0
100
AcDbArc
 50
180.0
 51
225.0
  0
ARC
  5
2ECF
100
AcDbEntity
  8
0
100
AcDbCircle
 10
1879.487508
 20
1364.868311
 30
0.0
 40
4.239851
100
AcDbArc
 50
207.075007
 51
242.491769
  0
LINE
  5
2ED0
100
AcDbEntity
  8
0
100
AcDbLine
 10
1872.329322
 20
1362.938515
 30
0.0
 11
1875.712296
 21
1362.938515
 31
0.0
  0
LINE
  5
2ED1
100
AcDbEntity
  8
0
100
AcDbLine
 10
1857.310084
 20
1398.438515
 30
0.0
 11
1872.329322
 21
1392.938515
 31
0.0
  0
ARC
  5
2ED2
100
AcDbEntity
  8
0
100
AcDbCircle
 10
1842.331504
 20
1388.188515
 30
0.0
 40
18.149941
100
AcDbArc
 50
325.615753
 51
34.384247
  0
ARC
  5
2ED3
100
AcDbEntity
  8
0
100
AcDbCircle
 10
1857.479263
 20
1388.188515
 30
0.0
 40
18.149941
100
AcDbArc
 50
145.615753
 51
214.384247
  0
LINE
  5
2ED4
100
AcDbEntity
  8
0
100
AcDbLine
 10
1838.829322
 20
1397.938515
 30
0.0
 11
1838.829322
 21
1377.938515
 31
0.0
  0
LINE
  5
2ED5
100
AcDbEntity
  8
0
100
AcDbLine
 10
1857.310084
 20
1377.938515
 30
0.0
 11
1842.500683
 21
1377.938515
 31
0.0
  0
LINE
  5
2ED6
100
AcDbEntity
  8
0
100
AcDbLine
 10
1857.310084
 20
1398.438515
 30
0.0
 11
1842.500683
 21
1398.438515
 31
0.0
  0
LINE
  5
2ED7
100
AcDbEntity
  8
0
100
AcDbLine
 10
1842.500683
 20
1398.438515
 30
0.0
 11
1838.829322
 21
1397.938515
 31
0.0
  0
ARC
  5
2ED8
100
AcDbEntity
  8
0
100
AcDbCircle
 10
1879.487508
 20
1391.008719
 30
0.0
 40
4.239851
100
AcDbArc
 50
117.508231
 51
152.924993
  0
LINE
  5
2ED9
100
AcDbEntity
  8
0
100
AcDbLine
 10
1872.329322
 20
1392.938515
 30
0.0
 11
1875.712296
 21
1392.938515
 31
0.0
  0
ARC
  5
2EDA
100
AcDbEntity
  8
0
100
AcDbCircle
 10
1892.528948
 20
1398.009515
 30
0.0
 40
15.0
100
AcDbArc
 50
90.0
 51
179.653469
  0
LINE
  5
2EDB
100
AcDbEntity
  8
0
100
AcDbLine
 10
1993.735824
 20
1329.989117
 30
0.0
 11
1972.390864
 21
1308.644157
 31
0.0
  0
LINE
  5
2EDC
100
AcDbEntity
  8
0
100
AcDbLine
 10
1998.129222
 20
1103.80403
 30
0.0
 11
1998.129222
 21
1046.239693
 31
0.0
  0
LINE
  5
2EDD
100
AcDbEntity
  8
0
100
AcDbLine
 10
2003.329603
 20
1098.582489
 30
0.0
 11
2003.329603
 21
1068.582489
 31
0.0
  0
LINE
  5
2EDE
100
AcDbEntity
  8
0
100
AcDbLine
 10
1999.946629
 20
1098.582489
 30
0.0
 11
1999.946629
 21
1068.582489
 31
0.0
  0
LINE
  5
2EDF
100
AcDbEntity
  8
0
100
AcDbLine
 10
2036.829603
 20
1083.582489
 30
0.0
 11
2036.829603
 21
1063.582489
 31
0.0
  0
ARC
  5
2EE0
100
AcDbEntity
  8
0
100
AcDbCircle
 10
2018.179662
 20
1073.332489
 30
0.0
 40
18.149941
100
AcDbArc
 50
325.615753
 51
34.384247
  0
ARC
  5
2EE1
100
AcDbEntity
  8
0
100
AcDbCircle
 10
2033.327421
 20
1073.332489
 30
0.0
 40
18.149941
100
AcDbArc
 50
145.615753
 51
214.384247
  0
CIRCLE
  5
2EE2
100
AcDbEntity
  8
0
100
AcDbCircle
 10
2130.887391
 20
1064.640997
 30
0.0
 40
54.012493
  0
CIRCLE
  5
2EE3
100
AcDbEntity
  8
0
100
AcDbCircle
 10
2130.887391
 20
1083.582489
 30
0.0
 40
20.0
  0
POLYLINE
  5
2EE4
100
AcDbEntity
  8
0
100
AcDb2dPolyline
 66
     1
 10
0.0
 20
0.0
 30
0.0
 70
     1
  0
VERTEX
  5
3A66
100
AcDbEntity
  8
0
100
AcDbVertex
100
AcDb2dVertex
 10
2142.723072
 20
1063.082489
 30
0.0
  0
VERTEX
  5
3A67
100
AcDbEntity
  8
0
100
AcDbVertex
100
AcDb2dVertex
 10
2154.558752
 20
1083.582489
 30
0.0
  0
VERTEX
  5
3A68
100
AcDbEntity
  8
0
100
AcDbVertex
100
AcDb2dVertex
 10
2142.723072
 20
1104.082489
 30
0.0
  0
VERTEX
  5
3A69
100
AcDbEntity
  8
0
100
AcDbVertex
100
AcDb2dVertex
 10
2119.051711
 20
1104.082489
 30
0.0
  0
VERTEX
  5
3A6A
100
AcDbEntity
  8
0
100
AcDbVertex
100
AcDb2dVertex
 10
2107.21603
 20
1083.582489
 30
0.0
  0
VERTEX
  5
3A6B
100
AcDbEntity
  8
0
100
AcDbVertex
100
AcDb2dVertex
 10
2119.051711
 20
1063.082489
 30
0.0
  0
SEQEND
  5
3A6C
100
AcDbEntity
  8
0
  0
LINE
  5
2EE5
100
AcDbEntity
  8
0
100
AcDbLine
 10
1993.735824
 20
1035.633091
 30
0.0
 11
1972.390864
 21
1014.288131
 31
0.0
  0
TEXT
  5
2EE6
100
AcDbEntity
  8
0
100
AcDbText
 10
1921.641259
 20
978.3236
 30
0.0
 40
20.0
  1
25A
 41
0.8
 11
1921.641259
 21
978.3236
 31
0.0
100
AcDbText
 73
     1
  0
LINE
  5
2EE7
100
AcDbEntity
  8
0
100
AcDbLine
 10
1963.748098
 20
1010.628504
 30
0.0
 11
1911.828654
 21
1010.614886
 31
0.0
  0
ARC
  5
2EE8
100
AcDbEntity
  8
0
100
AcDbCircle
 10
1963.552029
 20
1023.126966
 30
0.0
 40
12.5
100
AcDbArc
 50
270.019649
 51
315.0
  0
LINE
  5
2EE9
100
AcDbEntity
  8
0
100
AcDbLine
 10
2018.348841
 20
1063.082489
 30
0.0
 11
2033.158242
 21
1063.082489
 31
0.0
  0
ARC
  5
2EEA
100
AcDbEntity
  8
0
100
AcDbCircle
 10
1983.129222
 20
1046.239693
 30
0.0
 40
15.0
100
AcDbArc
 50
315.0
 51
0.0
  0
LINE
  5
2EEB
100
AcDbEntity
  8
0
100
AcDbLine
 10
2018.348841
 20
1063.082489
 30
0.0
 11
2003.329603
 21
1068.582489
 31
0.0
  0
LINE
  5
2EEC
100
AcDbEntity
  8
0
100
AcDbLine
 10
2003.329603
 20
1068.582489
 30
0.0
 11
1999.946629
 21
1068.582489
 31
0.0
  0
ARC
  5
2EED
100
AcDbEntity
  8
0
100
AcDbCircle
 10
1996.171418
 20
1070.512285
 30
0.0
 40
4.239851
100
AcDbArc
 50
297.508231
 51
332.924993
  0
LINE
  5
2EEE
100
AcDbEntity
  8
0
100
AcDbLine
 10
2036.829603
 20
1063.582489
 30
0.0
 11
2033.158242
 21
1063.082489
 31
0.0
  0
ELLIPSE
  5
2EEF
100
AcDbEntity
  8
0
100
AcDbEllipse
 10
2130.887391
 20
1024.960611
 30
0.0
 11
-15.08777685472523
 21
0.0
 31
0.0
210
0.0
220
0.0
230
1.0
 40
0.707359
 41
0.0
 42
6.283185307179586
  0
LINE
  5
2EF0
100
AcDbEntity
  8
0
100
AcDbLine
 10
2018.34836
 20
1194.062227
 30
0.0
 11
2003.329122
 21
1202.733588
 31
0.0
  0
LINE
  5
2EF1
100
AcDbEntity
  8
0
100
AcDbLine
 10
2036.829122
 20
1197.733588
 30
0.0
 11
2033.157761
 21
1194.062227
 31
0.0
  0
ARC
  5
2EF2
100
AcDbEntity
  8
0
100
AcDbCircle
 10
2029.222021
 20
1199.980067
 30
0.0
 40
7.107101
100
AcDbArc
 50
303.626429
 51
56.373571
  0
ARC
  5
2EF3
100
AcDbEntity
  8
0
100
AcDbCircle
 10
2022.2841
 20
1199.980067
 30
0.0
 40
7.107101
100
AcDbArc
 50
123.626429
 51
236.373571
  0
ARC
  5
2EF4
100
AcDbEntity
  8
0
100
AcDbCircle
 10
1909.645235
 20
1215.870476
 30
0.0
 40
90.0
100
AcDbArc
 50
330.389392
 51
349.468766
  0
ARC
  5
2EF5
100
AcDbEntity
  8
0
100
AcDbCircle
 10
1983.129978
 20
1103.653489
 30
0.0
 40
15.0
100
AcDbArc
 50
0.575033
 51
90.0
  0
ARC
  5
2EF6
100
AcDbEntity
  8
0
100
AcDbCircle
 10
1974.850495
 20
1178.812763
 30
0.0
 40
15.0
100
AcDbArc
 50
270.015028
 51
330.389392
  0
LINE
  5
2EF7
100
AcDbEntity
  8
0
100
AcDbLine
 10
2018.348841
 20
1083.582489
 30
0.0
 11
2033.158242
 21
1083.582489
 31
0.0
  0
LINE
  5
2EF8
100
AcDbEntity
  8
0
100
AcDbLine
 10
2018.348841
 20
1104.082489
 30
0.0
 11
2033.158242
 21
1104.082489
 31
0.0
  0
LINE
  5
2EF9
100
AcDbEntity
  8
0
100
AcDbLine
 10
2018.348841
 20
1104.082489
 30
0.0
 11
2003.329603
 21
1098.582489
 31
0.0
  0
LINE
  5
2EFA
100
AcDbEntity
  8
0
100
AcDbLine
 10
2003.329603
 20
1098.582489
 30
0.0
 11
1999.946629
 21
1098.582489
 31
0.0
  0
ARC
  5
2EFB
100
AcDbEntity
  8
0
100
AcDbCircle
 10
1996.171418
 20
1096.652693
 30
0.0
 40
4.239851
100
AcDbArc
 50
27.075007
 51
62.491769
  0
ARC
  5
2EFC
100
AcDbEntity
  8
0
100
AcDbCircle
 10
2033.327421
 20
1093.832489
 30
0.0
 40
18.149941
100
AcDbArc
 50
145.615753
 51
214.384247
  0
LINE
  5
2EFD
100
AcDbEntity
  8
0
100
AcDbLine
 10
2036.829603
 20
1103.582489
 30
0.0
 11
2036.829603
 21
1083.582489
 31
0.0
  0
ARC
  5
2EFE
100
AcDbEntity
  8
0
100
AcDbCircle
 10
2018.179662
 20
1093.832489
 30
0.0
 40
18.149941
100
AcDbArc
 50
325.615753
 51
34.384247
  0
LINE
  5
2EFF
100
AcDbEntity
  8
0
100
AcDbLine
 10
2033.158242
 20
1104.082489
 30
0.0
 11
2036.829603
 21
1103.582489
 31
0.0
  0
LINE
  5
2F00
100
AcDbEntity
  8
0
100
AcDbLine
 10
2018.34836
 20
1194.062227
 30
0.0
 11
2033.157761
 21
1194.062227
 31
0.0
  0
ARC
  5
2F01
100
AcDbEntity
  8
0
100
AcDbCircle
 10
1909.645235
 20
1219.767402
 30
0.0
 40
90.0
100
AcDbArc
 50
10.531234
 51
29.61915
  0
LINE
  5
2F02
100
AcDbEntity
  8
0
100
AcDbLine
 10
1963.748098
 20
1304.98453
 30
0.0
 11
1911.828654
 21
1304.970912
 31
0.0
  0
ARC
  5
2F03
100
AcDbEntity
  8
0
100
AcDbCircle
 10
1974.844969
 20
1256.834836
 30
0.0
 40
15.0
100
AcDbArc
 50
29.61915
 51
90.0
  0
ARC
  5
2F04
100
AcDbEntity
  8
0
100
AcDbCircle
 10
1963.552029
 20
1317.482992
 30
0.0
 40
12.5
100
AcDbArc
 50
270.019649
 51
315.0
  0
LINE
  5
2F05
100
AcDbEntity
  8
0
100
AcDbLine
 10
2018.34836
 20
1205.897907
 30
0.0
 11
2033.157761
 21
1205.897907
 31
0.0
  0
LINE
  5
2F06
100
AcDbEntity
  8
0
100
AcDbLine
 10
2018.34836
 20
1241.404949
 30
0.0
 11
2033.157761
 21
1241.404949
 31
0.0
  0
LINE
  5
2F07
100
AcDbEntity
  8
0
100
AcDbLine
 10
2018.34836
 20
1229.569268
 30
0.0
 11
2033.157761
 21
1229.569268
 31
0.0
  0
LINE
  5
2F08
100
AcDbEntity
  8
0
100
AcDbLine
 10
1998.129222
 20
1236.216838
 30
0.0
 11
1998.129222
 21
1199.421039
 31
0.0
  0
ARC
  5
2F09
100
AcDbEntity
  8
0
100
AcDbCircle
 10
2038.84836
 20
1217.733588
 30
0.0
 40
23.671361
100
AcDbArc
 50
150.0
 51
210.0
  0
LINE
  5
2F0A
100
AcDbEntity
  8
0
100
AcDbLine
 10
2002.138162
 20
1232.733588
 30
0.0
 11
2002.138162
 21
1202.733588
 31
0.0
  0
LINE
  5
2F0B
100
AcDbEntity
  8
0
100
AcDbLine
 10
2003.329122
 20
1232.733588
 30
0.0
 11
2003.329122
 21
1202.733588
 31
0.0
  0
ARC
  5
2F0C
100
AcDbEntity
  8
0
100
AcDbCircle
 10
1997.570644
 20
1205.449722
 30
0.0
 40
5.314095
100
AcDbArc
 50
276.033654
 51
329.261619
  0
LINE
  5
2F0D
100
AcDbEntity
  8
0
100
AcDbLine
 10
2003.329122
 20
1202.733588
 30
0.0
 11
2002.138162
 21
1202.733588
 31
0.0
  0
LINE
  5
2F0E
100
AcDbEntity
  8
0
100
AcDbLine
 10
2018.34836
 20
1241.404949
 30
0.0
 11
2003.329122
 21
1232.733588
 31
0.0
  0
ARC
  5
2F0F
100
AcDbEntity
  8
0
100
AcDbCircle
 10
1997.570644
 20
1230.017454
 30
0.0
 40
5.314095
100
AcDbArc
 50
30.738381
 51
83.966346
  0
LINE
  5
2F10
100
AcDbEntity
  8
0
100
AcDbLine
 10
2003.329122
 20
1232.733588
 30
0.0
 11
2002.138162
 21
1232.733588
 31
0.0
  0
ARC
  5
2F11
100
AcDbEntity
  8
0
100
AcDbCircle
 10
2022.2841
 20
1235.487109
 30
0.0
 40
7.107101
100
AcDbArc
 50
123.626429
 51
236.373571
  0
ARC
  5
2F12
100
AcDbEntity
  8
0
100
AcDbCircle
 10
2012.657761
 20
1217.733588
 30
0.0
 40
23.671361
100
AcDbArc
 50
330.0
 51
30.0
  0
LINE
  5
2F13
100
AcDbEntity
  8
0
100
AcDbLine
 10
2036.829122
 20
1237.733588
 30
0.0
 11
2036.829122
 21
1217.733588
 31
0.0
  0
LINE
  5
2F14
100
AcDbEntity
  8
0
100
AcDbLine
 10
2036.829122
 20
1217.733588
 30
0.0
 11
2036.829122
 21
1197.733588
 31
0.0
  0
LINE
  5
2F15
100
AcDbEntity
  8
0
100
AcDbLine
 10
2033.157761
 20
1241.404949
 30
0.0
 11
2036.829122
 21
1237.733588
 31
0.0
  0
ARC
  5
2F16
100
AcDbEntity
  8
0
100
AcDbCircle
 10
2029.222021
 20
1235.487109
 30
0.0
 40
7.107101
100
AcDbArc
 50
303.626429
 51
56.373571
  0
LINE
  5
2F17
100
AcDbEntity
  8
0
100
AcDbLine
 10
2110.704573
 20
1386.549847
 30
0.0
 11
2082.344448
 21
1386.549847
 31
0.0
  0
LINE
  5
2F18
100
AcDbEntity
  8
0
100
AcDbLine
 10
2053.982636
 20
1377.096472
 30
0.0
 11
2101.251198
 21
1377.096472
 31
0.0
  0
ARC
  5
2F19
100
AcDbEntity
  8
0
100
AcDbCircle
 10
1983.129978
 20
1398.009515
 30
0.0
 40
15.0
100
AcDbArc
 50
0.575033
 51
90.0
  0
ARC
  5
2F1A
100
AcDbEntity
  8
0
100
AcDbCircle
 10
2018.179662
 20
1367.688515
 30
0.0
 40
18.149941
100
AcDbArc
 50
325.615753
 51
34.384247
  0
LINE
  5
2F1B
100
AcDbEntity
  8
0
100
AcDbLine
 10
2003.329603
 20
1392.938515
 30
0.0
 11
2003.329603
 21
1362.938515
 31
0.0
  0
LINE
  5
2F1C
100
AcDbEntity
  8
0
100
AcDbLine
 10
1999.946629
 20
1392.938515
 30
0.0
 11
1999.946629
 21
1362.938515
 31
0.0
  0
ARC
  5
2F1D
100
AcDbEntity
  8
0
100
AcDbCircle
 10
2033.327421
 20
1367.688515
 30
0.0
 40
18.149941
100
AcDbArc
 50
145.615753
 51
214.384247
  0
LINE
  5
2F1E
100
AcDbEntity
  8
0
100
AcDbLine
 10
2036.829603
 20
1377.938515
 30
0.0
 11
2036.829603
 21
1357.938515
 31
0.0
  0
LINE
  5
2F1F
100
AcDbEntity
  8
0
100
AcDbLine
 10
1998.129222
 20
1398.160056
 30
0.0
 11
1998.129222
 21
1340.595719
 31
0.0
  0
LINE
  5
2F20
100
AcDbEntity
  8
0
100
AcDbLine
 10
2018.348841
 20
1357.438515
 30
0.0
 11
2033.158242
 21
1357.438515
 31
0.0
  0
ARC
  5
2F21
100
AcDbEntity
  8
0
100
AcDbCircle
 10
1983.129222
 20
1340.595719
 30
0.0
 40
15.0
100
AcDbArc
 50
315.0
 51
0.0
  0
LINE
  5
2F22
100
AcDbEntity
  8
0
100
AcDbLine
 10
2018.348841
 20
1357.438515
 30
0.0
 11
2003.329603
 21
1362.938515
 31
0.0
  0
LINE
  5
2F23
100
AcDbEntity
  8
0
100
AcDbLine
 10
2003.329603
 20
1362.938515
 30
0.0
 11
1999.946629
 21
1362.938515
 31
0.0
  0
ARC
  5
2F24
100
AcDbEntity
  8
0
100
AcDbCircle
 10
1996.171418
 20
1364.868311
 30
0.0
 40
4.239851
100
AcDbArc
 50
297.508231
 51
332.924993
  0
LINE
  5
2F25
100
AcDbEntity
  8
0
100
AcDbLine
 10
2036.829603
 20
1357.938515
 30
0.0
 11
2033.158242
 21
1357.438515
 31
0.0
  0
LINE
  5
2F26
100
AcDbEntity
  8
0
100
AcDbLine
 10
2018.348841
 20
1377.938515
 30
0.0
 11
2033.158242
 21
1377.938515
 31
0.0
  0
LINE
  5
2F27
100
AcDbEntity
  8
0
100
AcDbLine
 10
2018.348841
 20
1398.438515
 30
0.0
 11
2033.158242
 21
1398.438515
 31
0.0
  0
ARC
  5
2F28
100
AcDbEntity
  8
0
100
AcDbCircle
 10
2033.327421
 20
1388.188515
 30
0.0
 40
18.149941
100
AcDbArc
 50
145.615753
 51
214.384247
  0
LINE
  5
2F29
100
AcDbEntity
  8
0
100
AcDbLine
 10
2018.348841
 20
1398.438515
 30
0.0
 11
2003.329603
 21
1392.938515
 31
0.0
  0
LINE
  5
2F2A
100
AcDbEntity
  8
0
100
AcDbLine
 10
2003.329603
 20
1392.938515
 30
0.0
 11
1999.946629
 21
1392.938515
 31
0.0
  0
ARC
  5
2F2B
100
AcDbEntity
  8
0
100
AcDbCircle
 10
1996.171418
 20
1391.008719
 30
0.0
 40
4.239851
100
AcDbArc
 50
27.075007
 51
62.491769
  0
ARC
  5
2F2C
100
AcDbEntity
  8
0
100
AcDbCircle
 10
2018.179662
 20
1388.188515
 30
0.0
 40
18.149941
100
AcDbArc
 50
325.615753
 51
34.384247
  0
LINE
  5
2F2D
100
AcDbEntity
  8
0
100
AcDbLine
 10
2036.829603
 20
1397.938515
 30
0.0
 11
2036.829603
 21
1377.938515
 31
0.0
  0
LINE
  5
2F2E
100
AcDbEntity
  8
0
100
AcDbLine
 10
2063.641886
 20
1386.549847
 30
0.0
 11
2053.982636
 21
1377.096472
 31
0.0
  0
LINE
  5
2F2F
100
AcDbEntity
  8
0
100
AcDbLine
 10
2077.616073
 20
1381.82316
 30
0.0
 11
2063.641886
 21
1381.82316
 31
0.0
  0
LINE
  5
2F30
100
AcDbEntity
  8
0
100
AcDbLine
 10
2063.641886
 20
1381.82316
 30
0.0
 11
2063.641886
 21
1386.549847
 31
0.0
  0
LINE
  5
2F31
100
AcDbEntity
  8
0
100
AcDbLine
 10
2082.344448
 20
1386.549847
 30
0.0
 11
2077.616073
 21
1381.82316
 31
0.0
  0
LINE
  5
2F32
100
AcDbEntity
  8
0
100
AcDbLine
 10
2033.158242
 20
1398.438515
 30
0.0
 11
2036.829603
 21
1397.938515
 31
0.0
  0
LINE
  5
2F33
100
AcDbEntity
  8
0
100
AcDbLine
 10
2101.251198
 20
1377.096472
 30
0.0
 11
2110.704573
 21
1386.549847
 31
0.0
  0
LINE
  5
305C
100
AcDbEntity
  8
0
100
AcDbLine
 10
578.034344
 20
319.421372
 30
0.0
 11
569.802048
 21
319.421372
 31
0.0
  0
LINE
  5
305D
100
AcDbEntity
  8
0
100
AcDbLine
 10
578.034344
 20
319.421372
 30
0.0
 11
582.184344
 21
315.271372
 31
0.0
  0
LINE
  5
305E
100
AcDbEntity
  8
0
100
AcDbLine
 10
578.034344
 20
289.421372
 30
0.0
 11
582.184344
 21
293.571372
 31
0.0
  0
LINE
  5
305F
100
AcDbEntity
  8
0
100
AcDbLine
 10
578.034344
 20
289.421372
 30
0.0
 11
569.802048
 21
289.421372
 31
0.0
  0
LINE
  5
3060
100
AcDbEntity
  8
0
100
AcDbLine
 10
578.034344
 20
319.421372
 30
0.0
 11
578.034344
 21
289.421372
 31
0.0
  0
LINE
  5
3061
100
AcDbEntity
  8
0
100
AcDbLine
 10
582.184344
 20
315.271372
 30
0.0
 11
582.184344
 21
293.571372
 31
0.0
  0
LINE
  5
3065
100
AcDbEntity
  8
0
100
AcDbLine
 10
433.883863
 20
315.271372
 30
0.0
 11
433.883863
 21
293.571372
 31
0.0
  0
LINE
  5
3066
100
AcDbEntity
  8
0
100
AcDbLine
 10
438.033863
 20
319.421372
 30
0.0
 11
438.033863
 21
289.421372
 31
0.0
  0
LINE
  5
3068
100
AcDbEntity
  8
0
100
AcDbLine
 10
438.033863
 20
289.421372
 30
0.0
 11
446.266158
 21
289.421372
 31
0.0
  0
LINE
  5
306B
100
AcDbEntity
  8
0
100
AcDbLine
 10
438.033863
 20
289.421372
 30
0.0
 11
433.883863
 21
293.571372
 31
0.0
  0
LINE
  5
306E
100
AcDbEntity
  8
0
100
AcDbLine
 10
438.033863
 20
319.421372
 30
0.0
 11
446.266158
 21
319.421372
 31
0.0
  0
LINE
  5
3071
100
AcDbEntity
  8
0
100
AcDbLine
 10
438.033863
 20
319.421372
 30
0.0
 11
433.883863
 21
315.271372
 31
0.0
  0
LINE
  5
3075
100
AcDbEntity
  8
0
100
AcDbLine
 10
582.192159
 20
491.899247
 30
0.0
 11
582.192159
 21
470.199247
 31
0.0
  0
LINE
  5
3076
100
AcDbEntity
  8
0
100
AcDbLine
 10
578.042159
 20
496.049247
 30
0.0
 11
578.042159
 21
466.049247
 31
0.0
  0
LINE
  5
3078
100
AcDbEntity
  8
0
100
AcDbLine
 10
578.042159
 20
466.049247
 30
0.0
 11
569.809863
 21
466.049247
 31
0.0
  0
LINE
  5
307B
100
AcDbEntity
  8
0
100
AcDbLine
 10
578.042159
 20
466.049247
 30
0.0
 11
582.192159
 21
470.199247
 31
0.0
  0
LINE
  5
307E
100
AcDbEntity
  8
0
100
AcDbLine
 10
578.042159
 20
496.049247
 30
0.0
 11
569.809863
 21
496.049247
 31
0.0
  0
LINE
  5
3081
100
AcDbEntity
  8
0
100
AcDbLine
 10
578.042159
 20
496.049247
 30
0.0
 11
582.192159
 21
491.899247
 31
0.0
  0
LINE
  5
3085
100
AcDbEntity
  8
0
100
AcDbLine
 10
438.041677
 20
496.049247
 30
0.0
 11
438.041677
 21
466.049247
 31
0.0
  0
LINE
  5
3086
100
AcDbEntity
  8
0
100
AcDbLine
 10
433.891677
 20
491.899247
 30
0.0
 11
433.891677
 21
470.199247
 31
0.0
  0
LINE
  5
3088
100
AcDbEntity
  8
0
100
AcDbLine
 10
438.041677
 20
466.049247
 30
0.0
 11
433.891677
 21
470.199247
 31
0.0
  0
LINE
  5
308D
100
AcDbEntity
  8
0
100
AcDbLine
 10
438.041677
 20
466.049247
 30
0.0
 11
446.273973
 21
466.049247
 31
0.0
  0
LINE
  5
308E
100
AcDbEntity
  8
0
100
AcDbLine
 10
438.041677
 20
496.049247
 30
0.0
 11
433.891677
 21
491.899247
 31
0.0
  0
LINE
  5
3093
100
AcDbEntity
  8
0
100
AcDbLine
 10
438.041677
 20
496.049247
 30
0.0
 11
446.273973
 21
496.049247
 31
0.0
  0
LINE
  5
3095
100
AcDbEntity
  8
0
100
AcDbLine
 10
582.184344
 20
665.888733
 30
0.0
 11
582.184344
 21
644.188733
 31
0.0
  0
LINE
  5
3096
100
AcDbEntity
  8
0
100
AcDbLine
 10
578.034344
 20
670.038733
 30
0.0
 11
578.034344
 21
640.038733
 31
0.0
  0
LINE
  5
3098
100
AcDbEntity
  8
0
100
AcDbLine
 10
578.034344
 20
640.038733
 30
0.0
 11
569.802048
 21
640.038733
 31
0.0
  0
LINE
  5
309B
100
AcDbEntity
  8
0
100
AcDbLine
 10
578.034344
 20
640.038733
 30
0.0
 11
582.184344
 21
644.188733
 31
0.0
  0
LINE
  5
309E
100
AcDbEntity
  8
0
100
AcDbLine
 10
578.034344
 20
670.038733
 30
0.0
 11
569.802048
 21
670.038733
 31
0.0
  0
LINE
  5
30A1
100
AcDbEntity
  8
0
100
AcDbLine
 10
578.034344
 20
670.038733
 30
0.0
 11
582.184344
 21
665.888733
 31
0.0
  0
LINE
  5
30A5
100
AcDbEntity
  8
0
100
AcDbLine
 10
438.033863
 20
670.038733
 30
0.0
 11
438.033863
 21
640.038733
 31
0.0
  0
LINE
  5
30A6
100
AcDbEntity
  8
0
100
AcDbLine
 10
433.883863
 20
665.888733
 30
0.0
 11
433.883863
 21
644.188733
 31
0.0
  0
LINE
  5
30A8
100
AcDbEntity
  8
0
100
AcDbLine
 10
438.033863
 20
640.038733
 30
0.0
 11
433.883863
 21
644.188733
 31
0.0
  0
LINE
  5
30AD
100
AcDbEntity
  8
0
100
AcDbLine
 10
438.033863
 20
640.038733
 30
0.0
 11
446.266158
 21
640.038733
 31
0.0
  0
LINE
  5
30AE
100
AcDbEntity
  8
0
100
AcDbLine
 10
438.033863
 20
670.038733
 30
0.0
 11
433.883863
 21
665.888733
 31
0.0
  0
LINE
  5
30B3
100
AcDbEntity
  8
0
100
AcDbLine
 10
438.033863
 20
670.038733
 30
0.0
 11
446.266158
 21
670.038733
 31
0.0
  0
LINE
  5
30B5
100
AcDbEntity
  8
0
100
AcDbLine
 10
1254.792132
 20
289.421372
 30
0.0
 11
1256.192132
 21
290.821372
 31
0.0
  0
LINE
  5
30B6
100
AcDbEntity
  8
0
100
AcDbLine
 10
1254.792132
 20
319.421372
 30
0.0
 11
1254.792132
 21
289.421372
 31
0.0
  0
LINE
  5
30B8
100
AcDbEntity
  8
0
100
AcDbLine
 10
1245.033218
 20
289.421372
 30
0.0
 11
1254.792132
 21
289.421372
 31
0.0
  0
LINE
  5
30BD
100
AcDbEntity
  8
0
100
AcDbLine
 10
1245.033218
 20
319.421372
 30
0.0
 11
1254.792132
 21
319.421372
 31
0.0
  0
LINE
  5
30BE
100
AcDbEntity
  8
0
100
AcDbLine
 10
1254.792132
 20
319.421372
 30
0.0
 11
1256.192132
 21
318.021372
 31
0.0
  0
LINE
  5
30BF
100
AcDbEntity
  8
0
100
AcDbLine
 10
1256.192132
 20
318.021372
 30
0.0
 11
1256.192132
 21
290.821372
 31
0.0
  0
LINE
  5
30C5
100
AcDbEntity
  8
0
100
AcDbLine
 10
1109.39165
 20
318.021372
 30
0.0
 11
1109.39165
 21
290.821372
 31
0.0
  0
LINE
  5
30C7
100
AcDbEntity
  8
0
100
AcDbLine
 10
1110.79165
 20
319.421372
 30
0.0
 11
1110.79165
 21
289.421372
 31
0.0
  0
LINE
  5
30CB
100
AcDbEntity
  8
0
100
AcDbLine
 10
1120.550565
 20
289.421372
 30
0.0
 11
1110.79165
 21
289.421372
 31
0.0
  0
LINE
  5
30CC
100
AcDbEntity
  8
0
100
AcDbLine
 10
1110.79165
 20
289.421372
 30
0.0
 11
1109.39165
 21
290.821372
 31
0.0
  0
LINE
  5
30D1
100
AcDbEntity
  8
0
100
AcDbLine
 10
1120.550565
 20
319.421372
 30
0.0
 11
1110.79165
 21
319.421372
 31
0.0
  0
LINE
  5
30D2
100
AcDbEntity
  8
0
100
AcDbLine
 10
1110.79165
 20
319.421372
 30
0.0
 11
1109.39165
 21
318.021372
 31
0.0
  0
LINE
  5
30D5
100
AcDbEntity
  8
0
100
AcDbLine
 10
1256.192132
 20
494.649247
 30
0.0
 11
1256.192132
 21
467.449247
 31
0.0
  0
LINE
  5
30D7
100
AcDbEntity
  8
0
100
AcDbLine
 10
1254.792132
 20
496.049247
 30
0.0
 11
1254.792132
 21
466.049247
 31
0.0
  0
LINE
  5
30DB
100
AcDbEntity
  8
0
100
AcDbLine
 10
1245.033218
 20
466.049247
 30
0.0
 11
1254.792132
 21
466.049247
 31
0.0
  0
LINE
  5
30DC
100
AcDbEntity
  8
0
100
AcDbLine
 10
1254.792132
 20
466.049247
 30
0.0
 11
1256.192132
 21
467.449247
 31
0.0
  0
LINE
  5
30E1
100
AcDbEntity
  8
0
100
AcDbLine
 10
1245.033218
 20
496.049247
 30
0.0
 11
1254.792132
 21
496.049247
 31
0.0
  0
LINE
  5
30E2
100
AcDbEntity
  8
0
100
AcDbLine
 10
1254.792132
 20
496.049247
 30
0.0
 11
1256.192132
 21
494.649247
 31
0.0
  0
LINE
  5
30E4
100
AcDbEntity
  8
0
100
AcDbLine
 10
1110.79165
 20
496.049247
 30
0.0
 11
1110.79165
 21
466.049247
 31
0.0
  0
LINE
  5
30E6
100
AcDbEntity
  8
0
100
AcDbLine
 10
1109.39165
 20
494.649247
 30
0.0
 11
1109.39165
 21
467.449247
 31
0.0
  0
LINE
  5
30EC
100
AcDbEntity
  8
0
100
AcDbLine
 10
1120.550565
 20
466.049247
 30
0.0
 11
1110.79165
 21
466.049247
 31
0.0
  0
LINE
  5
30ED
100
AcDbEntity
  8
0
100
AcDbLine
 10
1110.79165
 20
466.049247
 30
0.0
 11
1109.39165
 21
467.449247
 31
0.0
  0
LINE
  5
30F2
100
AcDbEntity
  8
0
100
AcDbLine
 10
1120.550565
 20
496.049247
 30
0.0
 11
1110.79165
 21
496.049247
 31
0.0
  0
LINE
  5
30F3
100
AcDbEntity
  8
0
100
AcDbLine
 10
1110.79165
 20
496.049247
 30
0.0
 11
1109.39165
 21
494.649247
 31
0.0
  0
LINE
  5
30F5
100
AcDbEntity
  8
0
100
AcDbLine
 10
1256.192132
 20
668.638733
 30
0.0
 11
1256.192132
 21
641.438733
 31
0.0
  0
LINE
  5
30F7
100
AcDbEntity
  8
0
100
AcDbLine
 10
1254.792132
 20
670.038733
 30
0.0
 11
1254.792132
 21
640.038733
 31
0.0
  0
LINE
  5
30FB
100
AcDbEntity
  8
0
100
AcDbLine
 10
1245.033218
 20
640.038733
 30
0.0
 11
1254.792132
 21
640.038733
 31
0.0
  0
LINE
  5
30FC
100
AcDbEntity
  8
0
100
AcDbLine
 10
1254.792132
 20
640.038733
 30
0.0
 11
1256.192132
 21
641.438733
 31
0.0
  0
LINE
  5
3101
100
AcDbEntity
  8
0
100
AcDbLine
 10
1245.033218
 20
670.038733
 30
0.0
 11
1254.792132
 21
670.038733
 31
0.0
  0
LINE
  5
3102
100
AcDbEntity
  8
0
100
AcDbLine
 10
1254.792132
 20
670.038733
 30
0.0
 11
1256.192132
 21
668.638733
 31
0.0
  0
LINE
  5
3104
100
AcDbEntity
  8
0
100
AcDbLine
 10
1110.79165
 20
670.038733
 30
0.0
 11
1110.79165
 21
640.038733
 31
0.0
  0
LINE
  5
3106
100
AcDbEntity
  8
0
100
AcDbLine
 10
1109.39165
 20
668.638733
 30
0.0
 11
1109.39165
 21
641.438733
 31
0.0
  0
LINE
  5
310C
100
AcDbEntity
  8
0
100
AcDbLine
 10
1120.550565
 20
640.038733
 30
0.0
 11
1110.79165
 21
640.038733
 31
0.0
  0
LINE
  5
310D
100
AcDbEntity
  8
0
100
AcDbLine
 10
1110.79165
 20
640.038733
 30
0.0
 11
1109.39165
 21
641.438733
 31
0.0
  0
LINE
  5
3112
100
AcDbEntity
  8
0
100
AcDbLine
 10
1120.550565
 20
670.038733
 30
0.0
 11
1110.79165
 21
670.038733
 31
0.0
  0
LINE
  5
3113
100
AcDbEntity
  8
0
100
AcDbLine
 10
1110.79165
 20
670.038733
 30
0.0
 11
1109.39165
 21
668.638733
 31
0.0
  0
LINE
  5
3116
100
AcDbEntity
  8
0
100
AcDbLine
 10
2016.0621
 20
321.421372
 30
0.0
 11
2016.0621
 21
287.421372
 31
0.0
  0
LINE
  5
311F
100
AcDbEntity
  8
0
100
AcDbLine
 10
1871.082722
 20
321.421372
 30
0.0
 11
1871.082722
 21
287.421372
 31
0.0
  0
LINE
  5
312A
100
AcDbEntity
  8
0
100
AcDbLine
 10
2016.0621
 20
498.049247
 30
0.0
 11
2016.0621
 21
464.049247
 31
0.0
  0
LINE
  5
3137
100
AcDbEntity
  8
0
100
AcDbLine
 10
1871.082722
 20
498.049247
 30
0.0
 11
1871.082722
 21
464.049247
 31
0.0
  0
LINE
  5
3140
100
AcDbEntity
  8
0
100
AcDbLine
 10
2016.0621
 20
672.038733
 30
0.0
 11
2016.0621
 21
638.038733
 31
0.0
  0
LINE
  5
314D
100
AcDbEntity
  8
0
100
AcDbLine
 10
1871.082722
 20
672.038733
 30
0.0
 11
1871.082722
 21
638.038733
 31
0.0
  0
LINE
  5
3677
100
AcDbEntity
  8
0
100
AcDbLine
 10
612.034344
 20
597.538733
 30
0.0
 11
612.034344
 21
655.038733
 31
0.0
  0
LINE
  5
3678
100
AcDbEntity
  8
0
100
AcDbLine
 10
592.034344
 20
712.538733
 30
0.0
 11
592.034344
 21
597.538733
 31
0.0
  0
LINE
  5
3679
100
AcDbEntity
  8
0
100
AcDbLine
 10
612.034344
 20
712.538733
 30
0.0
 11
612.034344
 21
655.038733
 31
0.0
  0
LINE
  5
367A
100
AcDbEntity
  8
0
100
AcDbLine
 10
592.034344
 20
712.538733
 30
0.0
 11
612.034344
 21
712.538733
 31
0.0
  0
LINE
  5
367B
100
AcDbEntity
  8
0
100
AcDbLine
 10
589.034344
 20
665.888733
 30
0.0
 11
589.034344
 21
644.188733
 31
0.0
  0
LINE
  5
367C
100
AcDbEntity
  8
0
100
AcDbLine
 10
589.034344
 20
665.888733
 30
0.0
 11
582.184344
 21
665.888733
 31
0.0
  0
LINE
  5
367D
100
AcDbEntity
  8
0
100
AcDbLine
 10
589.034344
 20
665.888733
 30
0.0
 11
592.034344
 21
668.888733
 31
0.0
  0
LINE
  5
367F
100
AcDbEntity
  8
0
100
AcDbLine
 10
589.034344
 20
644.188733
 30
0.0
 11
582.184344
 21
644.188733
 31
0.0
  0
LINE
  5
3680
100
AcDbEntity
  8
0
100
AcDbLine
 10
589.034344
 20
644.188733
 30
0.0
 11
592.034344
 21
641.188733
 31
0.0
  0
LINE
  5
3682
100
AcDbEntity
  8
0
100
AcDbLine
 10
592.034344
 20
597.538733
 30
0.0
 11
612.034344
 21
597.538733
 31
0.0
  0
LINE
  5
3683
100
AcDbEntity
  8
0
100
AcDbLine
 10
424.034344
 20
712.538733
 30
0.0
 11
404.034344
 21
712.538733
 31
0.0
  0
LINE
  5
3684
100
AcDbEntity
  8
0
100
AcDbLine
 10
424.034344
 20
597.538733
 30
0.0
 11
404.034344
 21
597.538733
 31
0.0
  0
LINE
  5
3685
100
AcDbEntity
  8
0
100
AcDbLine
 10
404.034344
 20
597.538733
 30
0.0
 11
404.034344
 21
655.038733
 31
0.0
  0
LINE
  5
3686
100
AcDbEntity
  8
0
100
AcDbLine
 10
404.034344
 20
712.538733
 30
0.0
 11
404.034344
 21
655.038733
 31
0.0
  0
LINE
  5
3687
100
AcDbEntity
  8
0
100
AcDbLine
 10
424.034344
 20
712.538733
 30
0.0
 11
424.034344
 21
597.538733
 31
0.0
  0
LINE
  5
3688
100
AcDbEntity
  8
0
100
AcDbLine
 10
427.034344
 20
665.888733
 30
0.0
 11
427.034344
 21
644.188733
 31
0.0
  0
LINE
  5
3689
100
AcDbEntity
  8
0
100
AcDbLine
 10
427.034344
 20
665.888733
 30
0.0
 11
424.034344
 21
668.888733
 31
0.0
  0
LINE
  5
368A
100
AcDbEntity
  8
0
100
AcDbLine
 10
427.034344
 20
665.888733
 30
0.0
 11
433.884344
 21
665.888733
 31
0.0
  0
LINE
  5
368C
100
AcDbEntity
  8
0
100
AcDbLine
 10
427.034344
 20
644.188733
 30
0.0
 11
424.034344
 21
641.188733
 31
0.0
  0
LINE
  5
368D
100
AcDbEntity
  8
0
100
AcDbLine
 10
427.034344
 20
644.188733
 30
0.0
 11
433.884344
 21
644.188733
 31
0.0
  0
LINE
  5
36C1
100
AcDbEntity
  8
0
100
AcDbLine
 10
424.042159
 20
538.549247
 30
0.0
 11
424.042159
 21
423.549247
 31
0.0
  0
LINE
  5
36C2
100
AcDbEntity
  8
0
100
AcDbLine
 10
404.042159
 20
538.549247
 30
0.0
 11
404.042159
 21
481.049247
 31
0.0
  0
LINE
  5
36C3
100
AcDbEntity
  8
0
100
AcDbLine
 10
427.042159
 20
470.199247
 30
0.0
 11
424.042159
 21
467.199247
 31
0.0
  0
LINE
  5
36C4
100
AcDbEntity
  8
0
100
AcDbLine
 10
404.042159
 20
423.549247
 30
0.0
 11
404.042159
 21
481.049247
 31
0.0
  0
LINE
  5
36C5
100
AcDbEntity
  8
0
100
AcDbLine
 10
424.042159
 20
423.549247
 30
0.0
 11
404.042159
 21
423.549247
 31
0.0
  0
LINE
  5
36C6
100
AcDbEntity
  8
0
100
AcDbLine
 10
427.042159
 20
491.899247
 30
0.0
 11
424.042159
 21
494.899247
 31
0.0
  0
LINE
  5
36C7
100
AcDbEntity
  8
0
100
AcDbLine
 10
427.042159
 20
491.899247
 30
0.0
 11
427.042159
 21
470.199247
 31
0.0
  0
LINE
  5
36C8
100
AcDbEntity
  8
0
100
AcDbLine
 10
424.042159
 20
538.549247
 30
0.0
 11
404.042159
 21
538.549247
 31
0.0
  0
LINE
  5
36C9
100
AcDbEntity
  8
0
100
AcDbLine
 10
427.042159
 20
470.199247
 30
0.0
 11
433.892159
 21
470.199247
 31
0.0
  0
LINE
  5
36CA
100
AcDbEntity
  8
0
100
AcDbLine
 10
427.042159
 20
491.899247
 30
0.0
 11
433.892159
 21
491.899247
 31
0.0
  0
LINE
  5
36CB
100
AcDbEntity
  8
0
100
AcDbLine
 10
612.042159
 20
538.549247
 30
0.0
 11
612.042159
 21
481.049247
 31
0.0
  0
LINE
  5
36CC
100
AcDbEntity
  8
0
100
AcDbLine
 10
592.042159
 20
538.549247
 30
0.0
 11
592.042159
 21
423.549247
 31
0.0
  0
LINE
  5
36CD
100
AcDbEntity
  8
0
100
AcDbLine
 10
589.042159
 20
470.199247
 30
0.0
 11
592.042159
 21
467.199247
 31
0.0
  0
LINE
  5
36CE
100
AcDbEntity
  8
0
100
AcDbLine
 10
612.042159
 20
423.549247
 30
0.0
 11
612.042159
 21
481.049247
 31
0.0
  0
LINE
  5
36CF
100
AcDbEntity
  8
0
100
AcDbLine
 10
592.042159
 20
423.549247
 30
0.0
 11
612.042159
 21
423.549247
 31
0.0
  0
LINE
  5
36D0
100
AcDbEntity
  8
0
100
AcDbLine
 10
589.042159
 20
491.899247
 30
0.0
 11
592.042159
 21
494.899247
 31
0.0
  0
LINE
  5
36D1
100
AcDbEntity
  8
0
100
AcDbLine
 10
589.042159
 20
491.899247
 30
0.0
 11
589.042159
 21
470.199247
 31
0.0
  0
LINE
  5
36D2
100
AcDbEntity
  8
0
100
AcDbLine
 10
592.042159
 20
538.549247
 30
0.0
 11
612.042159
 21
538.549247
 31
0.0
  0
LINE
  5
36D3
100
AcDbEntity
  8
0
100
AcDbLine
 10
589.042159
 20
470.199247
 30
0.0
 11
582.192159
 21
470.199247
 31
0.0
  0
LINE
  5
36D4
100
AcDbEntity
  8
0
100
AcDbLine
 10
589.042159
 20
491.899247
 30
0.0
 11
582.192159
 21
491.899247
 31
0.0
  0
LINE
  5
36ED
100
AcDbEntity
  8
0
100
AcDbLine
 10
424.034344
 20
361.921372
 30
0.0
 11
424.034344
 21
246.921372
 31
0.0
  0
LINE
  5
36EE
100
AcDbEntity
  8
0
100
AcDbLine
 10
404.034344
 20
361.921372
 30
0.0
 11
404.034344
 21
304.421372
 31
0.0
  0
LINE
  5
36EF
100
AcDbEntity
  8
0
100
AcDbLine
 10
427.034344
 20
293.571372
 30
0.0
 11
424.034344
 21
290.571372
 31
0.0
  0
LINE
  5
36F0
100
AcDbEntity
  8
0
100
AcDbLine
 10
404.034344
 20
246.921372
 30
0.0
 11
404.034344
 21
304.421372
 31
0.0
  0
LINE
  5
36F1
100
AcDbEntity
  8
0
100
AcDbLine
 10
424.034344
 20
246.921372
 30
0.0
 11
404.034344
 21
246.921372
 31
0.0
  0
LINE
  5
36F2
100
AcDbEntity
  8
0
100
AcDbLine
 10
427.034344
 20
315.271372
 30
0.0
 11
424.034344
 21
318.271372
 31
0.0
  0
LINE
  5
36F3
100
AcDbEntity
  8
0
100
AcDbLine
 10
427.034344
 20
315.271372
 30
0.0
 11
427.034344
 21
293.571372
 31
0.0
  0
LINE
  5
36F4
100
AcDbEntity
  8
0
100
AcDbLine
 10
424.034344
 20
361.921372
 30
0.0
 11
404.034344
 21
361.921372
 31
0.0
  0
LINE
  5
36F5
100
AcDbEntity
  8
0
100
AcDbLine
 10
427.034344
 20
293.571372
 30
0.0
 11
433.884344
 21
293.571372
 31
0.0
  0
LINE
  5
36F6
100
AcDbEntity
  8
0
100
AcDbLine
 10
427.034344
 20
315.271372
 30
0.0
 11
433.884344
 21
315.271372
 31
0.0
  0
LINE
  5
36F7
100
AcDbEntity
  8
0
100
AcDbLine
 10
612.034344
 20
361.921372
 30
0.0
 11
612.034344
 21
304.421372
 31
0.0
  0
LINE
  5
36F8
100
AcDbEntity
  8
0
100
AcDbLine
 10
592.034344
 20
361.921372
 30
0.0
 11
592.034344
 21
246.921372
 31
0.0
  0
LINE
  5
36F9
100
AcDbEntity
  8
0
100
AcDbLine
 10
589.034344
 20
293.571372
 30
0.0
 11
592.034344
 21
290.571372
 31
0.0
  0
LINE
  5
36FA
100
AcDbEntity
  8
0
100
AcDbLine
 10
612.034344
 20
246.921372
 30
0.0
 11
612.034344
 21
304.421372
 31
0.0
  0
LINE
  5
36FB
100
AcDbEntity
  8
0
100
AcDbLine
 10
592.034344
 20
246.921372
 30
0.0
 11
612.034344
 21
246.921372
 31
0.0
  0
LINE
  5
36FC
100
AcDbEntity
  8
0
100
AcDbLine
 10
589.034344
 20
315.271372
 30
0.0
 11
592.034344
 21
318.271372
 31
0.0
  0
LINE
  5
36FD
100
AcDbEntity
  8
0
100
AcDbLine
 10
589.034344
 20
315.271372
 30
0.0
 11
589.034344
 21
293.571372
 31
0.0
  0
LINE
  5
36FE
100
AcDbEntity
  8
0
100
AcDbLine
 10
592.034344
 20
361.921372
 30
0.0
 11
612.034344
 21
361.921372
 31
0.0
  0
LINE
  5
36FF
100
AcDbEntity
  8
0
100
AcDbLine
 10
589.034344
 20
293.571372
 30
0.0
 11
582.184344
 21
293.571372
 31
0.0
  0
LINE
  5
3700
100
AcDbEntity
  8
0
100
AcDbLine
 10
589.034344
 20
315.271372
 30
0.0
 11
582.184344
 21
315.271372
 31
0.0
  0
CIRCLE
  5
371B
100
AcDbEntity
  8
0
100
AcDbCircle
 10
261.602662
 20
304.421372
 30
0.0
 40
57.5
  0
CIRCLE
  5
371C
100
AcDbEntity
  8
0
100
AcDbCircle
 10
233.318391
 20
332.705644
 30
0.0
 40
9.5
  0
CIRCLE
  5
371D
100
AcDbEntity
  8
0
100
AcDbCircle
 10
289.886933
 20
332.705644
 30
0.0
 40
9.5
  0
CIRCLE
  5
371E
100
AcDbEntity
  8
0
100
AcDbCircle
 10
233.318391
 20
276.137101
 30
0.0
 40
9.5
  0
CIRCLE
  5
371F
100
AcDbEntity
  8
0
100
AcDbCircle
 10
289.886933
 20
276.137101
 30
0.0
 40
9.5
  0
CIRCLE
  5
3729
100
AcDbEntity
  8
0
100
AcDbCircle
 10
696.735102
 20
304.421372
 30
0.0
 40
57.5
  0
CIRCLE
  5
372A
100
AcDbEntity
  8
0
100
AcDbCircle
 10
668.450831
 20
332.705644
 30
0.0
 40
9.5
  0
CIRCLE
  5
372B
100
AcDbEntity
  8
0
100
AcDbCircle
 10
725.019374
 20
332.705644
 30
0.0
 40
9.5
  0
CIRCLE
  5
372C
100
AcDbEntity
  8
0
100
AcDbCircle
 10
668.450831
 20
276.137101
 30
0.0
 40
9.5
  0
CIRCLE
  5
372D
100
AcDbEntity
  8
0
100
AcDbCircle
 10
725.019374
 20
276.137101
 30
0.0
 40
9.5
  0
LINE
  5
3762
100
AcDbEntity
  8
0
100
AcDbLine
 10
1273.792132
 20
668.638733
 30
0.0
 11
1276.792132
 21
671.638733
 31
0.0
  0
LINE
  5
3763
100
AcDbEntity
  8
0
100
AcDbLine
 10
1296.792132
 20
715.038733
 30
0.0
 11
1296.792132
 21
655.038733
 31
0.0
  0
LINE
  5
3764
100
AcDbEntity
  8
0
100
AcDbLine
 10
1276.792132
 20
715.038733
 30
0.0
 11
1276.792132
 21
595.038733
 31
0.0
  0
LINE
  5
3765
100
AcDbEntity
  8
0
100
AcDbLine
 10
1276.792132
 20
715.038733
 30
0.0
 11
1296.792132
 21
715.038733
 31
0.0
  0
LINE
  5
3766
100
AcDbEntity
  8
0
100
AcDbLine
 10
1296.792132
 20
595.038733
 30
0.0
 11
1296.792132
 21
655.038733
 31
0.0
  0
LINE
  5
3767
100
AcDbEntity
  8
0
100
AcDbLine
 10
1273.792132
 20
668.638733
 30
0.0
 11
1273.792132
 21
641.438733
 31
0.0
  0
LINE
  5
3768
100
AcDbEntity
  8
0
100
AcDbLine
 10
1273.792132
 20
641.438733
 30
0.0
 11
1276.792132
 21
638.438733
 31
0.0
  0
LINE
  5
3769
100
AcDbEntity
  8
0
100
AcDbLine
 10
1276.792132
 20
595.038733
 30
0.0
 11
1296.792132
 21
595.038733
 31
0.0
  0
LINE
  5
376A
100
AcDbEntity
  8
0
100
AcDbLine
 10
1256.192132
 20
641.438733
 30
0.0
 11
1273.792132
 21
641.438733
 31
0.0
  0
LINE
  5
376B
100
AcDbEntity
  8
0
100
AcDbLine
 10
1256.192132
 20
668.638733
 30
0.0
 11
1273.792132
 21
668.638733
 31
0.0
  0
LINE
  5
376C
100
AcDbEntity
  8
0
100
AcDbLine
 10
1088.79165
 20
715.038733
 30
0.0
 11
1088.79165
 21
595.038733
 31
0.0
  0
LINE
  5
376D
100
AcDbEntity
  8
0
100
AcDbLine
 10
1068.79165
 20
715.038733
 30
0.0
 11
1068.79165
 21
655.038733
 31
0.0
  0
LINE
  5
376E
100
AcDbEntity
  8
0
100
AcDbLine
 10
1088.79165
 20
595.038733
 30
0.0
 11
1068.79165
 21
595.038733
 31
0.0
  0
LINE
  5
376F
100
AcDbEntity
  8
0
100
AcDbLine
 10
1091.79165
 20
668.638733
 30
0.0
 11
1091.79165
 21
641.438733
 31
0.0
  0
LINE
  5
3770
100
AcDbEntity
  8
0
100
AcDbLine
 10
1091.79165
 20
641.438733
 30
0.0
 11
1088.79165
 21
638.438733
 31
0.0
  0
LINE
  5
3771
100
AcDbEntity
  8
0
100
AcDbLine
 10
1091.79165
 20
668.638733
 30
0.0
 11
1088.79165
 21
671.638733
 31
0.0
  0
LINE
  5
3772
100
AcDbEntity
  8
0
100
AcDbLine
 10
1068.79165
 20
595.038733
 30
0.0
 11
1068.79165
 21
655.038733
 31
0.0
  0
LINE
  5
3773
100
AcDbEntity
  8
0
100
AcDbLine
 10
1088.79165
 20
715.038733
 30
0.0
 11
1068.79165
 21
715.038733
 31
0.0
  0
LINE
  5
3774
100
AcDbEntity
  8
0
100
AcDbLine
 10
1109.39165
 20
641.438733
 30
0.0
 11
1091.79165
 21
641.438733
 31
0.0
  0
LINE
  5
3775
100
AcDbEntity
  8
0
100
AcDbLine
 10
1109.39165
 20
668.638733
 30
0.0
 11
1091.79165
 21
668.638733
 31
0.0
  0
LINE
  5
37A8
100
AcDbEntity
  8
0
100
AcDbLine
 10
1068.79165
 20
541.049247
 30
0.0
 11
1068.79165
 21
481.049247
 31
0.0
  0
LINE
  5
37A9
100
AcDbEntity
  8
0
100
AcDbLine
 10
1088.79165
 20
541.049247
 30
0.0
 11
1088.79165
 21
421.049247
 31
0.0
  0
LINE
  5
37AA
100
AcDbEntity
  8
0
100
AcDbLine
 10
1068.79165
 20
421.049247
 30
0.0
 11
1068.79165
 21
481.049247
 31
0.0
  0
LINE
  5
37AB
100
AcDbEntity
  8
0
100
AcDbLine
 10
1091.79165
 20
494.649247
 30
0.0
 11
1091.79165
 21
467.449247
 31
0.0
  0
LINE
  5
37AC
100
AcDbEntity
  8
0
100
AcDbLine
 10
1088.79165
 20
421.049247
 30
0.0
 11
1068.79165
 21
421.049247
 31
0.0
  0
LINE
  5
37AD
100
AcDbEntity
  8
0
100
AcDbLine
 10
1091.79165
 20
467.449247
 30
0.0
 11
1088.79165
 21
464.449247
 31
0.0
  0
LINE
  5
37AE
100
AcDbEntity
  8
0
100
AcDbLine
 10
1091.79165
 20
494.649247
 30
0.0
 11
1088.79165
 21
497.649247
 31
0.0
  0
LINE
  5
37AF
100
AcDbEntity
  8
0
100
AcDbLine
 10
1088.79165
 20
541.049247
 30
0.0
 11
1068.79165
 21
541.049247
 31
0.0
  0
LINE
  5
37B0
100
AcDbEntity
  8
0
100
AcDbLine
 10
1109.39165
 20
494.649247
 30
0.0
 11
1091.79165
 21
494.649247
 31
0.0
  0
LINE
  5
37B1
100
AcDbEntity
  8
0
100
AcDbLine
 10
1109.39165
 20
467.449247
 30
0.0
 11
1091.79165
 21
467.449247
 31
0.0
  0
LINE
  5
37B2
100
AcDbEntity
  8
0
100
AcDbLine
 10
1276.792132
 20
541.049247
 30
0.0
 11
1276.792132
 21
421.049247
 31
0.0
  0
LINE
  5
37B3
100
AcDbEntity
  8
0
100
AcDbLine
 10
1273.792132
 20
494.649247
 30
0.0
 11
1273.792132
 21
467.449247
 31
0.0
  0
LINE
  5
37B4
100
AcDbEntity
  8
0
100
AcDbLine
 10
1256.192132
 20
467.449247
 30
0.0
 11
1273.792132
 21
467.449247
 31
0.0
  0
LINE
  5
37B5
100
AcDbEntity
  8
0
100
AcDbLine
 10
1273.792132
 20
467.449247
 30
0.0
 11
1276.792132
 21
464.449247
 31
0.0
  0
LINE
  5
37B6
100
AcDbEntity
  8
0
100
AcDbLine
 10
1256.192132
 20
494.649247
 30
0.0
 11
1273.792132
 21
494.649247
 31
0.0
  0
LINE
  5
37B7
100
AcDbEntity
  8
0
100
AcDbLine
 10
1273.792132
 20
494.649247
 30
0.0
 11
1276.792132
 21
497.649247
 31
0.0
  0
LINE
  5
37B8
100
AcDbEntity
  8
0
100
AcDbLine
 10
1296.792132
 20
541.049247
 30
0.0
 11
1296.792132
 21
481.049247
 31
0.0
  0
LINE
  5
37B9
100
AcDbEntity
  8
0
100
AcDbLine
 10
1276.792132
 20
421.049247
 30
0.0
 11
1296.792132
 21
421.049247
 31
0.0
  0
LINE
  5
37BA
100
AcDbEntity
  8
0
100
AcDbLine
 10
1296.792132
 20
421.049247
 30
0.0
 11
1296.792132
 21
481.049247
 31
0.0
  0
LINE
  5
37BB
100
AcDbEntity
  8
0
100
AcDbLine
 10
1276.792132
 20
541.049247
 30
0.0
 11
1296.792132
 21
541.049247
 31
0.0
  0
LINE
  5
37D4
100
AcDbEntity
  8
0
100
AcDbLine
 10
1068.79165
 20
364.421372
 30
0.0
 11
1068.79165
 21
304.421372
 31
0.0
  0
LINE
  5
37D5
100
AcDbEntity
  8
0
100
AcDbLine
 10
1088.79165
 20
364.421372
 30
0.0
 11
1088.79165
 21
244.421372
 31
0.0
  0
LINE
  5
37D6
100
AcDbEntity
  8
0
100
AcDbLine
 10
1068.79165
 20
244.421372
 30
0.0
 11
1068.79165
 21
304.421372
 31
0.0
  0
LINE
  5
37D7
100
AcDbEntity
  8
0
100
AcDbLine
 10
1091.79165
 20
318.021372
 30
0.0
 11
1091.79165
 21
290.821372
 31
0.0
  0
LINE
  5
37D8
100
AcDbEntity
  8
0
100
AcDbLine
 10
1088.79165
 20
244.421372
 30
0.0
 11
1068.79165
 21
244.421372
 31
0.0
  0
LINE
  5
37D9
100
AcDbEntity
  8
0
100
AcDbLine
 10
1091.79165
 20
290.821372
 30
0.0
 11
1088.79165
 21
287.821372
 31
0.0
  0
LINE
  5
37DA
100
AcDbEntity
  8
0
100
AcDbLine
 10
1091.79165
 20
318.021372
 30
0.0
 11
1088.79165
 21
321.021372
 31
0.0
  0
LINE
  5
37DB
100
AcDbEntity
  8
0
100
AcDbLine
 10
1088.79165
 20
364.421372
 30
0.0
 11
1068.79165
 21
364.421372
 31
0.0
  0
LINE
  5
37DC
100
AcDbEntity
  8
0
100
AcDbLine
 10
1109.39165
 20
318.021372
 30
0.0
 11
1091.79165
 21
318.021372
 31
0.0
  0
LINE
  5
37DD
100
AcDbEntity
  8
0
100
AcDbLine
 10
1109.39165
 20
290.821372
 30
0.0
 11
1091.79165
 21
290.821372
 31
0.0
  0
LINE
  5
37DE
100
AcDbEntity
  8
0
100
AcDbLine
 10
1276.792132
 20
364.421372
 30
0.0
 11
1276.792132
 21
244.421372
 31
0.0
  0
LINE
  5
37DF
100
AcDbEntity
  8
0
100
AcDbLine
 10
1273.792132
 20
318.021372
 30
0.0
 11
1273.792132
 21
290.821372
 31
0.0
  0
LINE
  5
37E0
100
AcDbEntity
  8
0
100
AcDbLine
 10
1256.192132
 20
290.821372
 30
0.0
 11
1273.792132
 21
290.821372
 31
0.0
  0
LINE
  5
37E1
100
AcDbEntity
  8
0
100
AcDbLine
 10
1273.792132
 20
290.821372
 30
0.0
 11
1276.792132
 21
287.821372
 31
0.0
  0
LINE
  5
37E2
100
AcDbEntity
  8
0
100
AcDbLine
 10
1256.192132
 20
318.021372
 30
0.0
 11
1273.792132
 21
318.021372
 31
0.0
  0
LINE
  5
37E3
100
AcDbEntity
  8
0
100
AcDbLine
 10
1273.792132
 20
318.021372
 30
0.0
 11
1276.792132
 21
321.021372
 31
0.0
  0
LINE
  5
37E4
100
AcDbEntity
  8
0
100
AcDbLine
 10
1296.792132
 20
364.421372
 30
0.0
 11
1296.792132
 21
304.421372
 31
0.0
  0
LINE
  5
37E5
100
AcDbEntity
  8
0
100
AcDbLine
 10
1276.792132
 20
244.421372
 30
0.0
 11
1296.792132
 21
244.421372
 31
0.0
  0
LINE
  5
37E6
100
AcDbEntity
  8
0
100
AcDbLine
 10
1296.792132
 20
244.421372
 30
0.0
 11
1296.792132
 21
304.421372
 31
0.0
  0
LINE
  5
37E7
100
AcDbEntity
  8
0
100
AcDbLine
 10
1276.792132
 20
364.421372
 30
0.0
 11
1296.792132
 21
364.421372
 31
0.0
  0
CIRCLE
  5
37FA
100
AcDbEntity
  8
0
100
AcDbCircle
 10
935.78162
 20
304.421372
 30
0.0
 40
60.0
  0
CIRCLE
  5
37FB
100
AcDbEntity
  8
0
100
AcDbCircle
 10
965.833658
 20
334.473411
 30
0.0
 40
9.5
  0
CIRCLE
  5
37FC
100
AcDbEntity
  8
0
100
AcDbCircle
 10
905.729582
 20
334.473411
 30
0.0
 40
9.5
  0
CIRCLE
  5
37FD
100
AcDbEntity
  8
0
100
AcDbCircle
 10
905.729582
 20
274.369334
 30
0.0
 40
9.5
  0
CIRCLE
  5
37FE
100
AcDbEntity
  8
0
100
AcDbCircle
 10
965.833658
 20
274.369334
 30
0.0
 40
9.5
  0
CIRCLE
  5
3808
100
AcDbEntity
  8
0
100
AcDbCircle
 10
1382.31916
 20
304.421372
 30
0.0
 40
60.0
  0
CIRCLE
  5
3809
100
AcDbEntity
  8
0
100
AcDbCircle
 10
1412.371198
 20
334.473411
 30
0.0
 40
9.5
  0
CIRCLE
  5
380A
100
AcDbEntity
  8
0
100
AcDbCircle
 10
1352.267122
 20
334.473411
 30
0.0
 40
9.5
  0
CIRCLE
  5
380B
100
AcDbEntity
  8
0
100
AcDbCircle
 10
1352.267122
 20
274.369334
 30
0.0
 40
9.5
  0
CIRCLE
  5
380C
100
AcDbEntity
  8
0
100
AcDbCircle
 10
1412.371198
 20
274.369334
 30
0.0
 40
9.5
  0
LINE
  5
382C
100
AcDbEntity
  8
0
100
AcDbLine
 10
2045.5621
 20
720.038733
 30
0.0
 11
2045.5621
 21
590.038733
 31
0.0
  0
LINE
  5
382D
100
AcDbEntity
  8
0
100
AcDbLine
 10
2006.768642
 20
672.038733
 30
0.0
 11
2042.5621
 21
672.038733
 31
0.0
  0
LINE
  5
382E
100
AcDbEntity
  8
0
100
AcDbLine
 10
2006.768642
 20
638.038733
 30
0.0
 11
2042.5621
 21
638.038733
 31
0.0
  0
LINE
  5
382F
100
AcDbEntity
  8
0
100
AcDbLine
 10
2042.5621
 20
672.038733
 30
0.0
 11
2042.5621
 21
638.038733
 31
0.0
  0
LINE
  5
3830
100
AcDbEntity
  8
0
100
AcDbLine
 10
2042.5621
 20
672.038733
 30
0.0
 11
2045.5621
 21
675.038733
 31
0.0
  0
LINE
  5
3831
100
AcDbEntity
  8
0
100
AcDbLine
 10
2042.5621
 20
638.038733
 30
0.0
 11
2045.5621
 21
635.038733
 31
0.0
  0
LINE
  5
3832
100
AcDbEntity
  8
0
100
AcDbLine
 10
2045.5621
 20
590.038733
 30
0.0
 11
2067.5621
 21
590.038733
 31
0.0
  0
LINE
  5
3833
100
AcDbEntity
  8
0
100
AcDbLine
 10
2067.5621
 20
590.038733
 30
0.0
 11
2067.5621
 21
655.038733
 31
0.0
  0
LINE
  5
3834
100
AcDbEntity
  8
0
100
AcDbLine
 10
2067.5621
 20
720.038733
 30
0.0
 11
2067.5621
 21
655.038733
 31
0.0
  0
LINE
  5
3836
100
AcDbEntity
  8
0
100
AcDbLine
 10
2045.5621
 20
720.038733
 30
0.0
 11
2067.5621
 21
720.038733
 31
0.0
  0
LINE
  5
385A
100
AcDbEntity
  8
0
100
AcDbLine
 10
1819.582722
 20
720.038733
 30
0.0
 11
1819.582722
 21
655.038733
 31
0.0
  0
LINE
  5
385C
100
AcDbEntity
  8
0
100
AcDbLine
 10
1841.582722
 20
720.038733
 30
0.0
 11
1841.582722
 21
590.038733
 31
0.0
  0
LINE
  5
385D
100
AcDbEntity
  8
0
100
AcDbLine
 10
1819.582722
 20
590.038733
 30
0.0
 11
1819.582722
 21
655.038733
 31
0.0
  0
LINE
  5
385E
100
AcDbEntity
  8
0
100
AcDbLine
 10
1844.582722
 20
672.038733
 30
0.0
 11
1844.582722
 21
638.038733
 31
0.0
  0
LINE
  5
385F
100
AcDbEntity
  8
0
100
AcDbLine
 10
1841.582722
 20
590.038733
 30
0.0
 11
1819.582722
 21
590.038733
 31
0.0
  0
LINE
  5
3860
100
AcDbEntity
  8
0
100
AcDbLine
 10
1844.582722
 20
638.038733
 30
0.0
 11
1841.582722
 21
635.038733
 31
0.0
  0
LINE
  5
3861
100
AcDbEntity
  8
0
100
AcDbLine
 10
1844.582722
 20
672.038733
 30
0.0
 11
1841.582722
 21
675.038733
 31
0.0
  0
LINE
  5
3862
100
AcDbEntity
  8
0
100
AcDbLine
 10
1841.582722
 20
720.038733
 30
0.0
 11
1819.582722
 21
720.038733
 31
0.0
  0
LINE
  5
3863
100
AcDbEntity
  8
0
100
AcDbLine
 10
1880.376179
 20
638.038733
 30
0.0
 11
1844.582722
 21
638.038733
 31
0.0
  0
LINE
  5
3864
100
AcDbEntity
  8
0
100
AcDbLine
 10
1880.376179
 20
672.038733
 30
0.0
 11
1844.582722
 21
672.038733
 31
0.0
  0
LINE
  5
38A0
100
AcDbEntity
  8
0
100
AcDbLine
 10
1841.582722
 20
546.049247
 30
0.0
 11
1841.582722
 21
416.049247
 31
0.0
  0
LINE
  5
38A1
100
AcDbEntity
  8
0
100
AcDbLine
 10
1819.582722
 20
546.049247
 30
0.0
 11
1819.582722
 21
481.049247
 31
0.0
  0
LINE
  5
38A2
100
AcDbEntity
  8
0
100
AcDbLine
 10
1841.582722
 20
416.049247
 30
0.0
 11
1819.582722
 21
416.049247
 31
0.0
  0
LINE
  5
38A3
100
AcDbEntity
  8
0
100
AcDbLine
 10
1819.582722
 20
416.049247
 30
0.0
 11
1819.582722
 21
481.049247
 31
0.0
  0
LINE
  5
38A4
100
AcDbEntity
  8
0
100
AcDbLine
 10
1844.582722
 20
498.049247
 30
0.0
 11
1844.582722
 21
464.049247
 31
0.0
  0
LINE
  5
38A5
100
AcDbEntity
  8
0
100
AcDbLine
 10
1844.582722
 20
464.049247
 30
0.0
 11
1841.582722
 21
461.049247
 31
0.0
  0
LINE
  5
38A6
100
AcDbEntity
  8
0
100
AcDbLine
 10
1844.582722
 20
498.049247
 30
0.0
 11
1841.582722
 21
501.049247
 31
0.0
  0
LINE
  5
38A7
100
AcDbEntity
  8
0
100
AcDbLine
 10
1841.582722
 20
546.049247
 30
0.0
 11
1819.582722
 21
546.049247
 31
0.0
  0
LINE
  5
38A8
100
AcDbEntity
  8
0
100
AcDbLine
 10
1880.376179
 20
464.049247
 30
0.0
 11
1844.582722
 21
464.049247
 31
0.0
  0
LINE
  5
38A9
100
AcDbEntity
  8
0
100
AcDbLine
 10
1880.376179
 20
498.049247
 30
0.0
 11
1844.582722
 21
498.049247
 31
0.0
  0
LINE
  5
38AA
100
AcDbEntity
  8
0
100
AcDbLine
 10
2045.5621
 20
546.049247
 30
0.0
 11
2045.5621
 21
416.049247
 31
0.0
  0
LINE
  5
38AB
100
AcDbEntity
  8
0
100
AcDbLine
 10
2006.768642
 20
464.049247
 30
0.0
 11
2042.5621
 21
464.049247
 31
0.0
  0
LINE
  5
38AC
100
AcDbEntity
  8
0
100
AcDbLine
 10
2006.768642
 20
498.049247
 30
0.0
 11
2042.5621
 21
498.049247
 31
0.0
  0
LINE
  5
38AD
100
AcDbEntity
  8
0
100
AcDbLine
 10
2042.5621
 20
498.049247
 30
0.0
 11
2042.5621
 21
464.049247
 31
0.0
  0
LINE
  5
38AE
100
AcDbEntity
  8
0
100
AcDbLine
 10
2042.5621
 20
464.049247
 30
0.0
 11
2045.5621
 21
461.049247
 31
0.0
  0
LINE
  5
38AF
100
AcDbEntity
  8
0
100
AcDbLine
 10
2042.5621
 20
498.049247
 30
0.0
 11
2045.5621
 21
501.049247
 31
0.0
  0
LINE
  5
38B0
100
AcDbEntity
  8
0
100
AcDbLine
 10
2067.5621
 20
546.049247
 30
0.0
 11
2067.5621
 21
481.049247
 31
0.0
  0
LINE
  5
38B1
100
AcDbEntity
  8
0
100
AcDbLine
 10
2067.5621
 20
416.049247
 30
0.0
 11
2067.5621
 21
481.049247
 31
0.0
  0
LINE
  5
38B2
100
AcDbEntity
  8
0
100
AcDbLine
 10
2045.5621
 20
416.049247
 30
0.0
 11
2067.5621
 21
416.049247
 31
0.0
  0
LINE
  5
38B3
100
AcDbEntity
  8
0
100
AcDbLine
 10
2045.5621
 20
546.049247
 30
0.0
 11
2067.5621
 21
546.049247
 31
0.0
  0
LINE
  5
38CC
100
AcDbEntity
  8
0
100
AcDbLine
 10
1841.582722
 20
369.421372
 30
0.0
 11
1841.582722
 21
239.421372
 31
0.0
  0
LINE
  5
38CD
100
AcDbEntity
  8
0
100
AcDbLine
 10
1819.582722
 20
369.421372
 30
0.0
 11
1819.582722
 21
304.421372
 31
0.0
  0
LINE
  5
38CE
100
AcDbEntity
  8
0
100
AcDbLine
 10
1841.582722
 20
239.421372
 30
0.0
 11
1819.582722
 21
239.421372
 31
0.0
  0
LINE
  5
38CF
100
AcDbEntity
  8
0
100
AcDbLine
 10
1819.582722
 20
239.421372
 30
0.0
 11
1819.582722
 21
304.421372
 31
0.0
  0
LINE
  5
38D0
100
AcDbEntity
  8
0
100
AcDbLine
 10
1844.582722
 20
321.421372
 30
0.0
 11
1844.582722
 21
287.421372
 31
0.0
  0
LINE
  5
38D1
100
AcDbEntity
  8
0
100
AcDbLine
 10
1844.582722
 20
287.421372
 30
0.0
 11
1841.582722
 21
284.421372
 31
0.0
  0
LINE
  5
38D2
100
AcDbEntity
  8
0
100
AcDbLine
 10
1844.582722
 20
321.421372
 30
0.0
 11
1841.582722
 21
324.421372
 31
0.0
  0
LINE
  5
38D3
100
AcDbEntity
  8
0
100
AcDbLine
 10
1841.582722
 20
369.421372
 30
0.0
 11
1819.582722
 21
369.421372
 31
0.0
  0
LINE
  5
38D4
100
AcDbEntity
  8
0
100
AcDbLine
 10
1880.376179
 20
287.421372
 30
0.0
 11
1844.582722
 21
287.421372
 31
0.0
  0
LINE
  5
38D5
100
AcDbEntity
  8
0
100
AcDbLine
 10
1880.376179
 20
321.421372
 30
0.0
 11
1844.582722
 21
321.421372
 31
0.0
  0
LINE
  5
38D6
100
AcDbEntity
  8
0
100
AcDbLine
 10
2045.5621
 20
369.421372
 30
0.0
 11
2045.5621
 21
239.421372
 31
0.0
  0
LINE
  5
38D7
100
AcDbEntity
  8
0
100
AcDbLine
 10
2006.768642
 20
287.421372
 30
0.0
 11
2042.5621
 21
287.421372
 31
0.0
  0
LINE
  5
38D8
100
AcDbEntity
  8
0
100
AcDbLine
 10
2006.768642
 20
321.421372
 30
0.0
 11
2042.5621
 21
321.421372
 31
0.0
  0
LINE
  5
38D9
100
AcDbEntity
  8
0
100
AcDbLine
 10
2042.5621
 20
321.421372
 30
0.0
 11
2042.5621
 21
287.421372
 31
0.0
  0
LINE
  5
38DA
100
AcDbEntity
  8
0
100
AcDbLine
 10
2042.5621
 20
287.421372
 30
0.0
 11
2045.5621
 21
284.421372
 31
0.0
  0
LINE
  5
38DB
100
AcDbEntity
  8
0
100
AcDbLine
 10
2042.5621
 20
321.421372
 30
0.0
 11
2045.5621
 21
324.421372
 31
0.0
  0
LINE
  5
38DC
100
AcDbEntity
  8
0
100
AcDbLine
 10
2067.5621
 20
369.421372
 30
0.0
 11
2067.5621
 21
304.421372
 31
0.0
  0
LINE
  5
38DD
100
AcDbEntity
  8
0
100
AcDbLine
 10
2067.5621
 20
239.421372
 30
0.0
 11
2067.5621
 21
304.421372
 31
0.0
  0
LINE
  5
38DE
100
AcDbEntity
  8
0
100
AcDbLine
 10
2045.5621
 20
239.421372
 30
0.0
 11
2067.5621
 21
239.421372
 31
0.0
  0
LINE
  5
38DF
100
AcDbEntity
  8
0
100
AcDbLine
 10
2045.5621
 20
369.421372
 30
0.0
 11
2067.5621
 21
369.421372
 31
0.0
  0
CIRCLE
  5
38E9
100
AcDbEntity
  8
0
100
AcDbCircle
 10
1672.41584
 20
304.421372
 30
0.0
 40
65.0
  0
CIRCLE
  5
38EA
100
AcDbEntity
  8
0
100
AcDbCircle
 10
1706.003412
 20
338.008944
 30
0.0
 40
9.5
  0
CIRCLE
  5
38EB
100
AcDbEntity
  8
0
100
AcDbCircle
 10
1706.003412
 20
270.8338
 30
0.0
 40
9.5
  0
CIRCLE
  5
38EC
100
AcDbEntity
  8
0
100
AcDbCircle
 10
1638.828267
 20
338.008944
 30
0.0
 40
9.5
  0
CIRCLE
  5
38ED
100
AcDbEntity
  8
0
100
AcDbCircle
 10
1638.828267
 20
270.8338
 30
0.0
 40
9.5
  0
CIRCLE
  5
38F7
100
AcDbEntity
  8
0
100
AcDbCircle
 10
2159.12932
 20
304.421372
 30
0.0
 40
65.0
  0
CIRCLE
  5
38F8
100
AcDbEntity
  8
0
100
AcDbCircle
 10
2192.716892
 20
338.008944
 30
0.0
 40
9.5
  0
CIRCLE
  5
38F9
100
AcDbEntity
  8
0
100
AcDbCircle
 10
2192.716892
 20
270.8338
 30
0.0
 40
9.5
  0
CIRCLE
  5
38FA
100
AcDbEntity
  8
0
100
AcDbCircle
 10
2125.541748
 20
338.008944
 30
0.0
 40
9.5
  0
CIRCLE
  5
38FB
100
AcDbEntity
  8
0
100
AcDbCircle
 10
2125.541748
 20
270.8338
 30
0.0
 40
9.5
  0
VIEWPORT
  5
41
100
AcDbEntity
 67
     1
  8
0
100
AcDbViewport
 10
117.358407
 20
73.5
 30
0.0
 40
234.716814
 41
147.0
 68
    -1
 69
     1
1001
ACAD
1000
MVIEW
1002
{
1070
    16
1010
0.0
1020
0.0
1030
0.0
1010
0.0
1020
0.0
1030
1.0
1040
0.0
1040
147.0
1040
117.358407
1040
73.5
1040
50.0
1040
0.0
1040
0.0
1070
     0
1070
   100
1070
     1
1070
     1
1070
     0
1070
     0
1070
     0
1070
     0
1040
0.0
1040
0.0
1040
0.0
1040
1.0
1040
1.0
1040
0.0
1040
0.0
1070
     0
1002
{
1002
}
1002
}
  0
ENDSEC
  0
SECTION
  2
OBJECTS
  0
DICTIONARY
  5
C
100
AcDbDictionary
  3
ACAD_GROUP
350
D
  3
ACAD_MLINESTYLE
350
E
  0
DICTIONARY
  5
D
102
{ACAD_REACTORS
330
C
102
}
100
AcDbDictionary
  0
DICTIONARY
  5
E
102
{ACAD_REACTORS
330
C
102
}
100
AcDbDictionary
  3
STANDARD
350
1B
  0
MLINESTYLE
  5
1B
102
{ACAD_REACTORS
330
E
102
}
100
AcDbMlineStyle
  2
STANDARD
 70
     0
  3

 62
     0
 51
90.0
 52
90.0
 71
     2
 49
0.5
 62
   256
  6
BYLAYER
 49
-0.5
 62
   256
  6
BYLAYER
  0
ENDSEC
  0
EOF
