  0
SECTION
  2
HEADER
  9
$ACADVER
  1
AC1009
  9
$INSBASE
 10
0.0
 20
0.0
 30
0.0
  9
$EXTMIN
 10
99.0
 20
45.0
 30
0.0
  9
$EXTMAX
 10
2574.0
 20
1719.0
 30
0.0
  9
$LIMMIN
 10
0.0
 20
0.0
  9
$LIMMAX
 10
2673.0
 20
1890.0
  9
$ORTHOMODE
 70
     1
  9
$REGENMODE
 70
     1
  9
$FILLMODE
 70
     1
  9
$QTEXTMODE
 70
     0
  9
$MIRRTEXT
 70
     1
  9
$DRAGMODE
 70
     2
  9
$LTSCALE
 40
36.0
  9
$OSMODE
 70
   163
  9
$ATTMODE
 70
     1
  9
$TEXTSIZE
 40
36.0
  9
$TRACEWID
 40
0.05
  9
$TEXTSTYLE
  7
STANDARD
  9
$CLAYER
  8
0
  9
$CELTYPE
  6
BYLAYER
  9
$CECOLOR
 62
   256
  9
$DIMSCALE
 40
9.0
  9
$DIMASZ
 40
2.7999999999999989
  9
$DIMEXO
 40
1.0
  9
$DIMDLI
 40
5.0
  9
$DIMRND
 40
0.1
  9
$DIMDLE
 40
0.0
  9
$DIMEXE
 40
1.0
  9
$DIMTP
 40
0.0
  9
$DIMTM
 40
0.0
  9
$DIMTXT
 40
2.5
  9
$DIMCEN
 40
0.0
  9
$DIMTSZ
 40
0.0
  9
$DIMTOL
 70
     0
  9
$DIMLIM
 70
     0
  9
$DIMTIH
 70
     0
  9
$DIMTOH
 70
     0
  9
$DIMSE1
 70
     0
  9
$DIMSE2
 70
     0
  9
$DIMTAD
 70
     3
  9
$DIMZIN
 70
     8
  9
$DIMBLK
  1

  9
$DIMASO
 70
     1
  9
$DIMSHO
 70
     1
  9
$DIMPOST
  1
 
  9
$DIMAPOST
  1

  9
$DIMALT
 70
     0
  9
$DIMALTD
 70
     2
  9
$DIMALTF
 40
1.0
  9
$DIMLFAC
 40
1.0
  9
$DIMTOFL
 70
     1
  9
$DIMTVP
 40
0.0
  9
$DIMTIX
 70
     0
  9
$DIMSOXD
 70
     0
  9
$DIMSAH
 70
     1
  9
$DIMBLK1
  1
OPEN
  9
$DIMBLK2
  1
OPEN
  9
$DIMSTYLE
  2
DIM1
  9
$DIMCLRD
 70
     2
  9
$DIMCLRE
 70
     2
  9
$DIMCLRT
 70
     2
  9
$DIMTFAC
 40
0.7
  9
$DIMGAP
 40
0.85
  9
$LUNITS
 70
     2
  9
$LUPREC
 70
     4
  9
$SKETCHINC
 40
0.1
  9
$FILLETRAD
 40
11.5
  9
$AUNITS
 70
     0
  9
$AUPREC
 70
     0
  9
$MENU
  1
C:\ACADR13\WIN\SUPPORT\ACAD.mnc
  9
$ELEVATION
 40
0.0
  9
$PELEVATION
 40
0.0
  9
$THICKNESS
 40
0.0
  9
$LIMCHECK
 70
     0
  9
$BLIPMODE
 70
     0
  9
$CHAMFERA
 40
0.0
  9
$CHAMFERB
 40
0.0
  9
$SKPOLY
 70
     0
  9
$TDCREATE
 40
2451564.6739244908
  9
$TDUPDATE
 40
2454852.4825850348
  9
$TDINDWG
 40
0.0441156713
  9
$TDUSRTIMER
 40
0.0441156713
  9
$USRTIMER
 70
     1
  9
$ANGBASE
 50
0.0
  9
$ANGDIR
 70
     0
  9
$PDMODE
 70
     0
  9
$PDSIZE
 40
0.0
  9
$PLINEWID
 40
0.0
  9
$COORDS
 70
     0
  9
$SPLFRAME
 70
     0
  9
$SPLINETYPE
 70
     6
  9
$SPLINESEGS
 70
     8
  9
$ATTDIA
 70
     0
  9
$ATTREQ
 70
     1
  9
$HANDLING
 70
     1
  9
$HANDSEED
  5
37A6
  9
$SURFTAB1
 70
     6
  9
$SURFTAB2
 70
     6
  9
$SURFTYPE
 70
     6
  9
$SURFU
 70
     6
  9
$SURFV
 70
     6
  9
$UCSNAME
  2

  9
$UCSORG
 10
0.0
 20
0.0
 30
0.0
  9
$UCSXDIR
 10
1.0
 20
0.0
 30
0.0
  9
$UCSYDIR
 10
0.0
 20
1.0
 30
0.0
  9
$PUCSNAME
  2

  9
$PUCSORG
 10
0.0
 20
0.0
 30
0.0
  9
$PUCSXDIR
 10
1.0
 20
0.0
 30
0.0
  9
$PUCSYDIR
 10
0.0
 20
1.0
 30
0.0
  9
$USERI1
 70
     0
  9
$USERI2
 70
     0
  9
$USERI3
 70
     0
  9
$USERI4
 70
     0
  9
$USERI5
 70
     0
  9
$USERR1
 40
0.0
  9
$USERR2
 40
0.0
  9
$USERR3
 40
0.0
  9
$USERR4
 40
0.0
  9
$USERR5
 40
0.0
  9
$WORLDVIEW
 70
     1
  9
$SHADEDGE
 70
     3
  9
$SHADEDIF
 70
    70
  9
$TILEMODE
 70
     1
  9
$MAXACTVP
 70
    16
  9
$PLIMCHECK
 70
     0
  9
$PEXTMIN
 10
1.0000000000000000E+020
 20
1.0000000000000000E+020
 30
1.0000000000000000E+020
  9
$PEXTMAX
 10
-1.0000000000000000E+020
 20
-1.0000000000000000E+020
 30
-1.0000000000000000E+020
  9
$PLIMMIN
 10
0.0
 20
0.0
  9
$PLIMMAX
 10
20.0
 20
147.0
  9
$UNITMODE
 70
     0
  9
$VISRETAIN
 70
     0
  9
$PLINEGEN
 70
     0
  9
$PSLTSCALE
 70
     1
  0
ENDSEC
  0
SECTION
  2
TABLES
  0
TABLE
  2
VPORT
 70
     1
  0
VPORT
  2
*ACTIVE
 70
     0
 10
0.0
 20
0.0
 11
1.0
 21
1.0
 12
1444.128661071288
 22
1136.505921333687
 13
0.0
 23
0.0
 14
1.0
 24
1.0
 15
0.0
 25
0.0
 16
0.0
 26
0.0
 36
1.0
 17
0.0
 27
0.0
 37
0.0
 40
2273.011845634041
 41
1.5742574257425741
 42
50.0
 43
0.0
 44
0.0
 50
0.0
 51
0.0
 71
     0
 72
   100
 73
     1
 74
     1
 75
     0
 76
     0
 77
     0
 78
     0
  0
ENDTAB
  0
TABLE
  2
LTYPE
 70
     1
  0
LTYPE
  2
CONTINUOUS
 70
     0
  3
Solid line
 72
    65
 73
     0
 40
0.0
  0
ENDTAB
  0
TABLE
  2
LAYER
 70
     1
  0
LAYER
  2
0
 70
     0
 62
     7
  6
CONTINUOUS
  0
ENDTAB
  0
TABLE
  2
STYLE
 70
     3
  0
STYLE
  2
STANDARD
 70
     0
 40
0.0
 41
0.8
 50
0.0
 71
     0
 42
36.0
  3
simplex
  4
extfont
  0
STYLE
  2
PTSH
 70
     0
 40
0.0
 41
0.9
 50
0.0
 71
     0
 42
4.0
  3
SIMPLEX
  4
EXTFONT
  0
STYLE
  2
DIM
 70
     0
 40
0.0
 41
0.8
 50
0.0
 71
     0
 42
4.0
  3
simplex
  4
extfont
  0
ENDTAB
  0
TABLE
  2
VIEW
 70
     0
  0
ENDTAB
  0
TABLE
  2
UCS
 70
     0
  0
ENDTAB
  0
TABLE
  2
APPID
 70
     3
  0
APPID
  2
ACAD
 70
     0
  0
APPID
  2
ACAD_MLEADERVER
 70
     0
  0
APPID
  2
ACAD_PSEXT
 70
     0
  0
ENDTAB
  0
TABLE
  2
DIMSTYLE
 70
     1
  0
DIMSTYLE
  2
DIM1
 70
     0
  3
 
  4

  5

  6
OPEN
  7
OPEN
 40
9.0
 41
2.7999999999999989
 42
1.0
 43
5.0
 44
1.0
 45
0.1
 46
0.0
 47
0.0
 48
0.0
140
2.5
141
0.0
142
0.0
143
1.0
144
1.0
145
0.0
146
0.7
147
0.85
 71
     0
 72
     0
 73
     0
 74
     0
 75
     0
 76
     0
 77
     3
 78
     8
170
     0
171
     2
172
     1
173
     1
174
     0
175
     0
176
     2
177
     2
178
     2
  0
ENDTAB
  0
ENDSEC
  0
SECTION
  2
BLOCKS
  0
BLOCK
  8
0
  2
$MODEL_SPACE
 70
     0
 10
0.0
 20
0.0
 30
0.0
  3
$MODEL_SPACE
  1

  0
ENDBLK
  5
3D
  8
0
  0
BLOCK
 67
     1
  8
0
  2
$PAPER_SPACE
 70
     0
 10
0.0
 20
0.0
 30
0.0
  3
$PAPER_SPACE
  1

  0
ENDBLK
  5
3B
 67
     1
  8
0
  0
BLOCK
  8
0
  2
_OPEN
 70
     0
 10
0.0
 20
0.0
 30
0.0
  3
_OPEN
  1
H1111.DWG
  0
LINE
  5
244A
  8
0
  6
BYBLOCK
 62
     0
 10
-1.0
 20
0.1666666666666666
 30
0.0
 11
0.0
 21
0.0
 31
0.0
  0
LINE
  5
244B
  8
0
  6
BYBLOCK
 62
     0
 10
0.0
 20
0.0
 30
0.0
 11
-1.0
 21
-0.1666666666666666
 31
0.0
  0
LINE
  5
244C
  8
0
  6
BYBLOCK
 62
     0
 10
0.0
 20
0.0
 30
0.0
 11
-1.0
 21
0.0
 31
0.0
  0
ENDBLK
  5
244D
  8
0
  0
ENDSEC
  0
SECTION
  2
ENTITIES
  0
TEXT
  5
2529
  8
0
  6
CONTINUOUS
 10
2431.1630549408442
 20
56.419845224907483
 30
0.0
 40
20.0
  1
SS5V-F
 41
0.9
  7
PTSH
 72
     1
 11
2482.1630549408442
 21
66.419845224907476
 31
0.0
 73
     2
  0
POLYLINE
  5
2563
  8
0
 66
     1
 10
0.0
 20
0.0
 30
0.0
 70
     1
  0
VERTEX
  5
34F9
  8
0
 10
99.0
 20
45.0
 30
0.0
  0
VERTEX
  5
34FA
  8
0
 10
2574.0
 20
45.0
 30
0.0
  0
VERTEX
  5
34FB
  8
0
 10
2574.0
 20
1719.0
 30
0.0
  0
VERTEX
  5
34FC
  8
0
 10
99.0
 20
1719.0
 30
0.0
  0
SEQEND
  5
34FD
  8
0
  0
LINE
  5
2BB7
  8
0
 10
1467.4351880481461
 20
765.88875470056564
 30
0.0
 11
1517.4351880481461
 21
765.88875470056564
 31
0.0
  0
LINE
  5
2BBA
  8
0
 10
1467.4351880481461
 20
543.88775470056544
 30
0.0
 11
1517.4351880481461
 21
543.88775470056544
 31
0.0
  0
LINE
  5
2BBE
  8
0
 10
1555.4351880481461
 20
597.08845470056531
 30
0.0
 11
1479.4351880481461
 21
597.08845470056531
 31
0.0
  0
LINE
  5
2BBF
  8
0
 10
1479.4351880481479
 20
712.68875470056582
 30
0.0
 11
1555.435188048144
 21
712.68875470056537
 31
0.0
  0
TEXT
  5
2BC0
  8
0
 10
1208.3477621200541
 20
307.53612894725347
 30
0.0
 40
30.0
  1
TLV  SS5V (JIS20K)
  0
LINE
  5
2BE0
  8
0
 10
679.00445554930957
 20
704.03026462770856
 30
0.0
 11
755.00445554930604
 21
704.03026462770822
 31
0.0
  0
LINE
  5
2BE1
  8
0
 10
755.00445554930775
 20
588.42996462770816
 30
0.0
 11
679.00445554930786
 21
588.42996462770816
 31
0.0
  0
LINE
  5
2BE2
  8
0
 10
669.50445554930775
 20
545.22926462770965
 30
0.0
 11
717.00445554930775
 21
545.22926462770965
 31
0.0
  0
ARC
  5
2BE9
  8
0
 10
400.18655052566999
 20
676.62272057721975
 30
0.0
 40
90.0
 50
281.50149261353607
 51
298.63787608745253
  0
ARC
  5
2BEA
  8
0
 10
398.07737375555922
 20
676.62272057721975
 30
0.0
 40
90.0
 50
241.3621239125475
 51
258.49850738646381
  0
LINE
  5
2BEB
  8
0
 10
418.13196214061458
 20
588.4299646277077
 30
0.0
 11
380.13196214061372
 21
588.4299646277077
 31
0.0
  0
LINE
  5
2BED
  8
0
 10
351.63196214061458
 20
545.22926462770965
 30
0.0
 11
399.13196214061458
 21
545.22926462770965
 31
0.0
  0
LINE
  5
2BF0
  8
0
 10
399.13196214061458
 20
545.22926462770965
 30
0.0
 11
446.63196214061458
 21
545.22926462770965
 31
0.0
  0
LINE
  5
2BF3
  8
0
 10
414.13196214061458
 20
587.46156009987271
 30
0.0
 11
384.13196214061372
 21
587.46156009987169
 31
0.0
  0
POLYLINE
  5
2BF7
  8
0
 66
     1
 10
0.0
 20
0.0
 30
0.0
  0
VERTEX
  5
3505
  8
0
 10
383.30580402445412
 20
588.42926462770947
 30
0.0
  0
VERTEX
  5
3506
  8
0
 10
384.13196214061372
 20
587.46156009987271
 30
0.0
  0
SEQEND
  5
3507
  8
0
  0
POLYLINE
  5
2BFD
  8
0
 66
     1
 10
0.0
 20
0.0
 30
0.0
  0
VERTEX
  5
3508
  8
0
 10
414.95812025677333
 20
588.42926462770947
 30
0.0
  0
VERTEX
  5
3509
  8
0
 10
414.13196214061458
 20
587.46156009987271
 30
0.0
  0
SEQEND
  5
350A
  8
0
  0
LINE
  5
2C07
  8
0
 10
380.13196214061549
 20
704.03026462770822
 30
0.0
 11
418.13196214061372
 21
704.03026462770822
 31
0.0
  0
LINE
  5
2C08
  8
0
 10
347.13196214061458
 20
682.13553116308913
 30
0.0
 11
347.13196214061458
 21
610.79774519680495
 31
0.0
  0
ARC
  5
2C09
  8
0
 10
362.13196214061458
 20
610.79774519680495
 30
0.0
 40
15.0
 50
180.0
 51
241.36212391254821
  0
ARC
  5
2C0A
  8
0
 10
396.67440511419682
 20
615.56361791570805
 30
0.0
 40
90.0
 50
100.5914647197434
 51
117.42363043258931
  0
ARC
  5
2C0B
  8
0
 10
362.13196214061458
 20
682.13553116308913
 30
0.0
 40
15.0
 50
117.42363043258921
 51
180.0
  0
LINE
  5
2C0C
  8
0
 10
451.13196214061372
 20
682.13553116308913
 30
0.0
 11
451.13196214061458
 21
610.79774519680495
 31
0.0
  0
ARC
  5
2C0D
  8
0
 10
436.13196214061372
 20
610.79774519680495
 30
0.0
 40
15.0
 50
298.6378760874519
 51
0.0
  0
ARC
  5
2C0E
  8
0
 10
401.58951916703148
 20
615.56361791570805
 30
0.0
 40
90.0
 50
62.576369567410659
 51
79.408535280256615
  0
LINE
  5
2C14
  8
0
 10
414.13196214061458
 20
704.99796915554396
 30
0.0
 11
384.13196214061372
 21
704.99796915554487
 31
0.0
  0
POLYLINE
  5
2C19
  8
0
 66
     1
 10
0.0
 20
0.0
 30
0.0
  0
VERTEX
  5
350B
  8
0
 10
383.30580402445412
 20
704.03026462770731
 30
0.0
  0
VERTEX
  5
350C
  8
0
 10
384.13196214061372
 20
704.99796915554396
 30
0.0
  0
SEQEND
  5
350D
  8
0
  0
POLYLINE
  5
2C20
  8
0
 66
     1
 10
0.0
 20
0.0
 30
0.0
  0
VERTEX
  5
350E
  8
0
 10
414.95812025677333
 20
704.03026462770731
 30
0.0
  0
VERTEX
  5
350F
  8
0
 10
414.13196214061458
 20
704.99796915554396
 30
0.0
  0
SEQEND
  5
3510
  8
0
  0
ARC
  5
2C22
  8
0
 10
436.13196214061372
 20
682.13553116308913
 30
0.0
 40
15.0
 50
0.0
 51
62.576369567410758
  0
ARC
  5
2C23
  8
0
 10
679.00445554930786
 20
602.42996462770805
 30
0.0
 40
14.0
 50
180.0
 51
270.0
  0
ARC
  5
2C24
  8
0
 10
586.19903844496741
 20
602.42996462770805
 30
0.0
 40
14.0
 50
270.0
 51
0.0
  0
LINE
  5
2C25
  8
0
 10
519.49127051148105
 20
591.79803257284175
 30
0.0
 11
499.56751453766441
 21
611.72078855890629
 31
0.0
  0
LINE
  5
2C26
  8
0
 10
567.1990384449673
 20
545.22926462770965
 30
0.0
 11
614.69903844496741
 21
545.22926462770965
 31
0.0
  0
TEXT
  5
2C28
  8
0
 10
545.36428117091702
 20
485.99522912313648
 30
0.0
 40
20.0
  1
15
 41
0.8
 72
     4
 11
556.79285259948847
 21
495.9952291231366
 31
0.0
  0
LINE
  5
2C29
  8
0
 10
586.19903844496741
 20
588.42996462770816
 30
0.0
 11
527.622794418784
 21
588.42996462770816
 31
0.0
  0
LINE
  5
2C2A
  8
0
 10
519.6990384449673
 20
545.22926462770965
 30
0.0
 11
567.1990384449673
 21
545.22926462770965
 31
0.0
  0
ARC
  5
2C2C
  8
0
 10
527.622794418784
 20
599.92996462770805
 30
0.0
 40
11.5
 50
225.00143789443479
 51
270.0
  0
LINE
  5
2C2F
  8
0
 10
582.19903844496741
 20
587.46156009987271
 30
0.0
 11
552.19903844496628
 21
587.46156009987169
 31
0.0
  0
POLYLINE
  5
2C34
  8
0
 66
     1
 10
0.0
 20
0.0
 30
0.0
  0
VERTEX
  5
3511
  8
0
 10
551.37288032880667
 20
588.42926462770947
 30
0.0
  0
VERTEX
  5
3512
  8
0
 10
552.19903844496628
 20
587.46156009987271
 30
0.0
  0
SEQEND
  5
3513
  8
0
  0
POLYLINE
  5
2C3B
  8
0
 66
     1
 10
0.0
 20
0.0
 30
0.0
  0
VERTEX
  5
3514
  8
0
 10
583.02519656112599
 20
588.42926462770947
 30
0.0
  0
VERTEX
  5
3515
  8
0
 10
582.19903844496741
 20
587.46156009987271
 30
0.0
  0
SEQEND
  5
3516
  8
0
  0
ARC
  5
2C44
  8
0
 10
586.19903844496741
 20
690.03026462770856
 30
0.0
 40
14.0
 50
0.0
 51
90.0
  0
LINE
  5
2C45
  8
0
 10
496.1990384449673
 20
619.85272061377282
 30
0.0
 11
496.1990384449673
 21
672.60680864164385
 31
0.0
  0
ARC
  5
2C46
  8
0
 10
507.6990384449673
 20
619.85272061377282
 30
0.0
 40
11.5
 50
180.0
 51
225.0014378944324
  0
LINE
  5
2C47
  8
0
 10
527.62349445391919
 20
704.03026462770822
 30
0.0
 11
586.19903844496741
 21
704.03026462770856
 31
0.0
  0
ARC
  5
2C48
  8
0
 10
527.62349445391919
 20
692.53026462770811
 30
0.0
 40
11.5
 50
90.000000000000441
 51
134.9985621055676
  0
LINE
  5
2C49
  8
0
 10
499.56751453766441
 20
680.73874069651026
 30
0.0
 11
519.49197054661624
 21
700.66219668257463
 31
0.0
  0
ARC
  5
2C4A
  8
0
 10
507.6990384449673
 20
672.60680864164385
 30
0.0
 40
11.5
 50
134.9985621055678
 51
180.0
  0
LINE
  5
2C50
  8
0
 10
582.19903844496741
 20
704.99796915554396
 30
0.0
 11
552.19903844496628
 21
704.99796915554487
 31
0.0
  0
POLYLINE
  5
2C56
  8
0
 66
     1
 10
0.0
 20
0.0
 30
0.0
  0
VERTEX
  5
3517
  8
0
 10
551.37288032880667
 20
704.03026462770731
 30
0.0
  0
VERTEX
  5
3518
  8
0
 10
552.19903844496628
 20
704.99796915554396
 30
0.0
  0
SEQEND
  5
3519
  8
0
  0
POLYLINE
  5
2C5D
  8
0
 66
     1
 10
0.0
 20
0.0
 30
0.0
  0
VERTEX
  5
351A
  8
0
 10
583.02519656112599
 20
704.03026462770731
 30
0.0
  0
VERTEX
  5
351B
  8
0
 10
582.19903844496741
 20
704.99796915554396
 30
0.0
  0
SEQEND
  5
351C
  8
0
  0
LINE
  5
2C5F
  8
0
 10
665.00445554930968
 20
690.03026462770822
 30
0.0
 11
665.00445554930775
 21
602.42996462770805
 31
0.0
  0
LINE
  5
2C60
  8
0
 10
600.19903844496741
 20
690.03026462770856
 30
0.0
 11
600.19903844496741
 21
602.42996462770805
 31
0.0
  0
ARC
  5
2C61
  8
0
 10
679.00445554930957
 20
690.03026462770822
 30
0.0
 40
14.0
 50
90.0
 51
180.0
  0
LINE
  5
2C62
  8
0
 10
614.90680637845344
 20
1083.346751720655
 30
0.0
 11
634.83056235227014
 21
1103.269507706719
 31
0.0
  0
LINE
  5
2C63
  8
0
 10
534.1990384449673
 20
1181.578983775521
 30
0.0
 11
534.1990384449673
 21
1093.9786837755209
 31
0.0
  0
LINE
  5
2C64
  8
0
 10
351.63196214061458
 20
747.23026462770713
 30
0.0
 11
399.13196214061458
 21
747.23026462770713
 31
0.0
  0
LINE
  5
2C65
  8
0
 10
399.13196214061458
 20
747.23026462770713
 30
0.0
 11
446.63196214061458
 21
747.23026462770713
 31
0.0
  0
POLYLINE
  5
2C66
  8
0
 10
520.22280341066687
 20
921.20192483632741
 30
0.0
 66
     1
 70
     8
  0
VERTEX
  8
0
  5
3620
 10
520.223
 20
921.202
 30
0.000000
  70
    32
  0
VERTEX
  8
0
  5
3621
 10
519.990
 20
920.619
 30
0.000000
  70
    32
  0
VERTEX
  8
0
  5
3622
 10
519.738
 20
920.050
 30
0.000000
  70
    32
  0
VERTEX
  8
0
  5
3623
 10
519.469
 20
919.495
 30
0.000000
  70
    32
  0
VERTEX
  8
0
  5
3624
 10
519.183
 20
918.955
 30
0.000000
  70
    32
  0
VERTEX
  8
0
  5
3625
 10
518.879
 20
918.432
 30
0.000000
  70
    32
  0
VERTEX
  8
0
  5
3626
 10
518.559
 20
917.926
 30
0.000000
  70
    32
  0
VERTEX
  8
0
  5
3627
 10
518.224
 20
917.437
 30
0.000000
  70
    32
  0
VERTEX
  8
0
  5
3628
 10
517.873
 20
916.968
 30
0.000000
  70
    32
  0
VERTEX
  8
0
  5
3629
 10
517.507
 20
916.518
 30
0.000000
  70
    32
  0
VERTEX
  8
0
  5
362A
 10
517.128
 20
916.089
 30
0.000000
  70
    32
  0
VERTEX
  8
0
  5
362B
 10
516.735
 20
915.682
 30
0.000000
  70
    32
  0
VERTEX
  8
0
  5
362C
 10
516.329
 20
915.296
 30
0.000000
  70
    32
  0
VERTEX
  8
0
  5
362D
 10
515.912
 20
914.933
 30
0.000000
  70
    32
  0
VERTEX
  8
0
  5
362E
 10
515.483
 20
914.593
 30
0.000000
  70
    32
  0
VERTEX
  8
0
  5
362F
 10
515.044
 20
914.277
 30
0.000000
  70
    32
  0
VERTEX
  8
0
  5
3630
 10
514.596
 20
913.985
 30
0.000000
  70
    32
  0
VERTEX
  8
0
  5
3631
 10
514.138
 20
913.719
 30
0.000000
  70
    32
  0
VERTEX
  8
0
  5
3632
 10
513.673
 20
913.477
 30
0.000000
  70
    32
  0
VERTEX
  8
0
  5
3633
 10
513.200
 20
913.262
 30
0.000000
  70
    32
  0
VERTEX
  8
0
  5
3634
 10
512.720
 20
913.073
 30
0.000000
  70
    32
  0
VERTEX
  8
0
  5
3635
 10
512.236
 20
912.910
 30
0.000000
  70
    32
  0
VERTEX
  8
0
  5
3636
 10
511.746
 20
912.775
 30
0.000000
  70
    32
  0
VERTEX
  8
0
  5
3637
 10
511.252
 20
912.666
 30
0.000000
  70
    32
  0
VERTEX
  8
0
  5
3638
 10
510.756
 20
912.585
 30
0.000000
  70
    32
  0
VERTEX
  8
0
  5
3639
 10
510.257
 20
912.531
 30
0.000000
  70
    32
  0
VERTEX
  8
0
  5
363A
 10
509.757
 20
912.504
 30
0.000000
  70
    32
  0
VERTEX
  8
0
  5
363B
 10
509.257
 20
912.505
 30
0.000000
  70
    32
  0
VERTEX
  8
0
  5
363C
 10
508.757
 20
912.534
 30
0.000000
  70
    32
  0
VERTEX
  8
0
  5
363D
 10
508.259
 20
912.590
 30
0.000000
  70
    32
  0
VERTEX
  8
0
  5
363E
 10
507.762
 20
912.673
 30
0.000000
  70
    32
  0
VERTEX
  8
0
  5
363F
 10
507.269
 20
912.784
 30
0.000000
  70
    32
  0
VERTEX
  8
0
  5
3640
 10
506.780
 20
912.922
 30
0.000000
  70
    32
  0
VERTEX
  8
0
  5
3641
 10
506.295
 20
913.086
 30
0.000000
  70
    32
  0
VERTEX
  8
0
  5
3642
 10
505.816
 20
913.277
 30
0.000000
  70
    32
  0
VERTEX
  8
0
  5
3643
 10
505.344
 20
913.495
 30
0.000000
  70
    32
  0
VERTEX
  8
0
  5
3644
 10
504.879
 20
913.738
 30
0.000000
  70
    32
  0
VERTEX
  8
0
  5
3645
 10
504.422
 20
914.006
 30
0.000000
  70
    32
  0
VERTEX
  8
0
  5
3646
 10
503.974
 20
914.300
 30
0.000000
  70
    32
  0
VERTEX
  8
0
  5
3647
 10
503.536
 20
914.618
 30
0.000000
  70
    32
  0
VERTEX
  8
0
  5
3648
 10
503.108
 20
914.959
 30
0.000000
  70
    32
  0
VERTEX
  8
0
  5
3649
 10
502.692
 20
915.324
 30
0.000000
  70
    32
  0
VERTEX
  8
0
  5
364A
 10
502.287
 20
915.712
 30
0.000000
  70
    32
  0
VERTEX
  8
0
  5
364B
 10
501.895
 20
916.121
 30
0.000000
  70
    32
  0
VERTEX
  8
0
  5
364C
 10
501.517
 20
916.552
 30
0.000000
  70
    32
  0
VERTEX
  8
0
  5
364D
 10
501.152
 20
917.003
 30
0.000000
  70
    32
  0
VERTEX
  8
0
  5
364E
 10
500.803
 20
917.474
 30
0.000000
  70
    32
  0
VERTEX
  8
0
  5
364F
 10
500.468
 20
917.963
 30
0.000000
  70
    32
  0
VERTEX
  8
0
  5
3650
 10
500.149
 20
918.471
 30
0.000000
  70
    32
  0
VERTEX
  8
0
  5
3651
 10
499.847
 20
918.995
 30
0.000000
  70
    32
  0
VERTEX
  8
0
  5
3652
 10
499.562
 20
919.536
 30
0.000000
  70
    32
  0
VERTEX
  8
0
  5
3653
 10
499.294
 20
920.092
 30
0.000000
  70
    32
  0
VERTEX
  8
0
  5
3654
 10
499.044
 20
920.663
 30
0.000000
  70
    32
  0
VERTEX
  8
0
  5
3655
 10
498.812
 20
921.246
 30
0.000000
  70
    32
  0
VERTEX
  8
0
  5
3656
 10
498.600
 20
921.842
 30
0.000000
  70
    32
  0
VERTEX
  8
0
  5
3657
 10
498.406
 20
922.449
 30
0.000000
  70
    32
  0
VERTEX
  8
0
  5
3658
 10
498.232
 20
923.067
 30
0.000000
  70
    32
  0
VERTEX
  8
0
  5
3659
 10
498.077
 20
923.693
 30
0.000000
  70
    32
  0
VERTEX
  8
0
  5
365A
 10
497.943
 20
924.327
 30
0.000000
  70
    32
  0
VERTEX
  8
0
  5
365B
 10
497.829
 20
924.968
 30
0.000000
  70
    32
  0
VERTEX
  8
0
  5
365C
 10
497.735
 20
925.615
 30
0.000000
  70
    32
  0
VERTEX
  8
0
  5
365D
 10
497.662
 20
926.266
 30
0.000000
  70
    32
  0
VERTEX
  8
0
  5
365E
 10
497.610
 20
926.921
 30
0.000000
  70
    32
  0
VERTEX
  8
0
  5
365F
 10
497.578
 20
927.578
 30
0.000000
  70
    32
  0
VERTEX
  8
0
  5
3660
 10
497.568
 20
928.236
 30
0.000000
  70
    32
  0
VERTEX
  8
0
  5
3661
 10
497.578
 20
928.895
 30
0.000000
  70
    32
  0
VERTEX
  8
0
  5
3662
 10
497.610
 20
929.552
 30
0.000000
  70
    32
  0
VERTEX
  8
0
  5
3663
 10
497.662
 20
930.207
 30
0.000000
  70
    32
  0
VERTEX
  8
0
  5
3664
 10
497.735
 20
930.858
 30
0.000000
  70
    32
  0
VERTEX
  8
0
  5
3665
 10
497.829
 20
931.505
 30
0.000000
  70
    32
  0
VERTEX
  8
0
  5
3666
 10
497.943
 20
932.146
 30
0.000000
  70
    32
  0
VERTEX
  8
0
  5
3667
 10
498.077
 20
932.780
 30
0.000000
  70
    32
  0
VERTEX
  8
0
  5
3668
 10
498.232
 20
933.406
 30
0.000000
  70
    32
  0
VERTEX
  8
0
  5
3669
 10
498.406
 20
934.023
 30
0.000000
  70
    32
  0
VERTEX
  8
0
  5
366A
 10
498.600
 20
934.630
 30
0.000000
  70
    32
  0
VERTEX
  8
0
  5
366B
 10
498.812
 20
935.226
 30
0.000000
  70
    32
  0
VERTEX
  8
0
  5
366C
 10
499.044
 20
935.810
 30
0.000000
  70
    32
  0
VERTEX
  8
0
  5
366D
 10
499.294
 20
936.380
 30
0.000000
  70
    32
  0
VERTEX
  8
0
  5
366E
 10
499.562
 20
936.936
 30
0.000000
  70
    32
  0
VERTEX
  8
0
  5
366F
 10
499.847
 20
937.477
 30
0.000000
  70
    32
  0
VERTEX
  8
0
  5
3670
 10
500.149
 20
938.002
 30
0.000000
  70
    32
  0
VERTEX
  8
0
  5
3671
 10
500.468
 20
938.510
 30
0.000000
  70
    32
  0
VERTEX
  8
0
  5
3672
 10
500.803
 20
938.999
 30
0.000000
  70
    32
  0
VERTEX
  8
0
  5
3673
 10
501.152
 20
939.470
 30
0.000000
  70
    32
  0
VERTEX
  8
0
  5
3674
 10
501.517
 20
939.921
 30
0.000000
  70
    32
  0
VERTEX
  8
0
  5
3675
 10
501.895
 20
940.352
 30
0.000000
  70
    32
  0
VERTEX
  8
0
  5
3676
 10
502.287
 20
940.761
 30
0.000000
  70
    32
  0
VERTEX
  8
0
  5
3677
 10
502.692
 20
941.149
 30
0.000000
  70
    32
  0
VERTEX
  8
0
  5
3678
 10
503.108
 20
941.514
 30
0.000000
  70
    32
  0
VERTEX
  8
0
  5
3679
 10
503.536
 20
941.855
 30
0.000000
  70
    32
  0
VERTEX
  8
0
  5
367A
 10
503.974
 20
942.173
 30
0.000000
  70
    32
  0
VERTEX
  8
0
  5
367B
 10
504.422
 20
942.466
 30
0.000000
  70
    32
  0
VERTEX
  8
0
  5
367C
 10
504.879
 20
942.735
 30
0.000000
  70
    32
  0
VERTEX
  8
0
  5
367D
 10
505.344
 20
942.978
 30
0.000000
  70
    32
  0
VERTEX
  8
0
  5
367E
 10
505.816
 20
943.195
 30
0.000000
  70
    32
  0
VERTEX
  8
0
  5
367F
 10
506.295
 20
943.386
 30
0.000000
  70
    32
  0
VERTEX
  8
0
  5
3680
 10
506.780
 20
943.551
 30
0.000000
  70
    32
  0
VERTEX
  8
0
  5
3681
 10
507.269
 20
943.689
 30
0.000000
  70
    32
  0
VERTEX
  8
0
  5
3682
 10
507.762
 20
943.800
 30
0.000000
  70
    32
  0
VERTEX
  8
0
  5
3683
 10
508.259
 20
943.883
 30
0.000000
  70
    32
  0
VERTEX
  8
0
  5
3684
 10
508.757
 20
943.939
 30
0.000000
  70
    32
  0
VERTEX
  8
0
  5
3685
 10
509.257
 20
943.968
 30
0.000000
  70
    32
  0
VERTEX
  8
0
  5
3686
 10
509.757
 20
943.969
 30
0.000000
  70
    32
  0
VERTEX
  8
0
  5
3687
 10
510.257
 20
943.942
 30
0.000000
  70
    32
  0
VERTEX
  8
0
  5
3688
 10
510.756
 20
943.888
 30
0.000000
  70
    32
  0
VERTEX
  8
0
  5
3689
 10
511.252
 20
943.807
 30
0.000000
  70
    32
  0
VERTEX
  8
0
  5
368A
 10
511.746
 20
943.698
 30
0.000000
  70
    32
  0
VERTEX
  8
0
  5
368B
 10
512.236
 20
943.562
 30
0.000000
  70
    32
  0
VERTEX
  8
0
  5
368C
 10
512.720
 20
943.400
 30
0.000000
  70
    32
  0
VERTEX
  8
0
  5
368D
 10
513.200
 20
943.211
 30
0.000000
  70
    32
  0
VERTEX
  8
0
  5
368E
 10
513.673
 20
942.995
 30
0.000000
  70
    32
  0
VERTEX
  8
0
  5
368F
 10
514.138
 20
942.754
 30
0.000000
  70
    32
  0
VERTEX
  8
0
  5
3690
 10
514.596
 20
942.488
 30
0.000000
  70
    32
  0
VERTEX
  8
0
  5
3691
 10
515.044
 20
942.196
 30
0.000000
  70
    32
  0
VERTEX
  8
0
  5
3692
 10
515.483
 20
941.880
 30
0.000000
  70
    32
  0
VERTEX
  8
0
  5
3693
 10
515.912
 20
941.540
 30
0.000000
  70
    32
  0
VERTEX
  8
0
  5
3694
 10
516.329
 20
941.177
 30
0.000000
  70
    32
  0
VERTEX
  8
0
  5
3695
 10
516.735
 20
940.791
 30
0.000000
  70
    32
  0
VERTEX
  8
0
  5
3696
 10
517.128
 20
940.383
 30
0.000000
  70
    32
  0
VERTEX
  8
0
  5
3697
 10
517.507
 20
939.954
 30
0.000000
  70
    32
  0
VERTEX
  8
0
  5
3698
 10
517.873
 20
939.505
 30
0.000000
  70
    32
  0
VERTEX
  8
0
  5
3699
 10
518.224
 20
939.035
 30
0.000000
  70
    32
  0
VERTEX
  8
0
  5
369A
 10
518.559
 20
938.547
 30
0.000000
  70
    32
  0
VERTEX
  8
0
  5
369B
 10
518.879
 20
938.041
 30
0.000000
  70
    32
  0
VERTEX
  8
0
  5
369C
 10
519.183
 20
937.517
 30
0.000000
  70
    32
  0
VERTEX
  8
0
  5
369D
 10
519.469
 20
936.978
 30
0.000000
  70
    32
  0
VERTEX
  8
0
  5
369E
 10
519.738
 20
936.423
 30
0.000000
  70
    32
  0
VERTEX
  8
0
  5
369F
 10
519.990
 20
935.853
 30
0.000000
  70
    32
  0
VERTEX
  8
0
  5
36A0
 10
520.223
 20
935.271
 30
0.000000
  70
    32
  0
SEQEND
  8
0
  5
36A1
  0
ARC
  5
2C67
  8
0
 10
548.19903844496719
 20
928.23636454409177
 30
0.0
 40
52.0
 50
65.839982214974071
 51
294.16001778502601
  0
CIRCLE
  5
2C68
  8
0
 10
567.1990384449673
 20
928.23636454409177
 30
0.0
 40
47.5
  0
CIRCLE
  5
2C69
  8
0
 10
591.94777578649598
 20
903.48762720256252
 30
0.0
 40
6.0
  0
LINE
  5
2C6A
  8
0
 10
567.1990384449673
 20
747.23026462770713
 30
0.0
 11
614.69903844496741
 21
747.23026462770713
 31
0.0
  0
LINE
  5
2C6B
  8
0
 10
519.6990384449673
 20
747.23026462770713
 30
0.0
 11
567.1990384449673
 21
747.23026462770713
 31
0.0
  0
LINE
  5
2C6C
  8
0
 10
570.59714213505868
 20
768.42061865346795
 30
0.0
 11
570.59714213505868
 21
815.68918115346821
 31
0.0
  0
LINE
  5
2C6D
  8
0
 10
565.87045463505956
 20
792.05405615346763
 30
0.0
 11
565.87045463505956
 21
778.0798686534672
 31
0.0
  0
LINE
  5
2C6E
  8
0
 10
561.14376713505897
 20
778.0798686534672
 30
0.0
 11
570.59714213505868
 21
768.42061865346795
 31
0.0
  0
LINE
  5
2C6F
  8
0
 10
565.87045463505956
 20
778.0798686534672
 30
0.0
 11
561.14376713505897
 21
778.0798686534672
 31
0.0
  0
LINE
  5
2C70
  8
0
 10
561.14376713505897
 20
825.14255615346792
 30
0.0
 11
561.14376713505897
 21
796.78243115346777
 31
0.0
  0
LINE
  5
2C71
  8
0
 10
570.59714213505868
 20
815.68918115346821
 30
0.0
 11
561.14376713505897
 21
825.14255615346792
 31
0.0
  0
LINE
  5
2C72
  8
0
 10
561.14376713505897
 20
796.78243115346777
 30
0.0
 11
565.87045463505956
 21
792.05405615346763
 31
0.0
  0
CIRCLE
  5
2C73
  8
0
 10
542.45030110343748
 20
903.48762720256252
 30
0.0
 40
6.0
  0
LINE
  5
2C74
  8
0
 10
548.19903844496719
 20
1079.9786837755209
 30
0.0
 11
606.77528247115049
 21
1079.9786837755209
 31
0.0
  0
CIRCLE
  5
2C75
  8
0
 10
591.94777578649598
 20
952.98510188562113
 30
0.0
 40
6.0
  0
CIRCLE
  5
2C78
  8
0
 10
542.45030110343748
 20
952.98510188562113
 30
0.0
 40
6.0
  0
ARC
  5
2C79
  8
0
 10
548.19903844496719
 20
1093.9786837755209
 30
0.0
 40
14.0
 50
180.0
 51
270.0
  0
LINE
  5
2C87
  8
0
 10
552.19903844496719
 20
1079.010279247685
 30
0.0
 11
582.19903844496821
 21
1079.010279247685
 31
0.0
  0
POLYLINE
  5
2C8C
  8
0
 66
     1
 10
0.0
 20
0.0
 30
0.0
  0
VERTEX
  5
351D
  8
0
 10
551.37288032880861
 20
1079.977983775522
 30
0.0
  0
VERTEX
  5
351E
  8
0
 10
552.19903844496719
 20
1079.010279247685
 30
0.0
  0
SEQEND
  5
351F
  8
0
  0
POLYLINE
  5
2C8E
  8
0
 66
     1
 10
0.0
 20
0.0
 30
0.0
  0
VERTEX
  5
3520
  8
0
 10
583.02519656112793
 20
1079.977983775522
 30
0.0
  0
VERTEX
  5
3521
  8
0
 10
582.19903844496832
 20
1079.010279247685
 30
0.0
  0
SEQEND
  5
3522
  8
0
  0
ARC
  5
2C91
  8
0
 10
606.77528247115049
 20
1091.4786837755209
 30
0.0
 40
11.5
 50
270.0
 51
314.9985621055651
  0
LINE
  5
2C93
  8
0
 10
606.77458243601529
 20
1195.578983775521
 30
0.0
 11
548.19903844496719
 21
1195.578983775521
 31
0.0
  0
LINE
  5
2C95
  8
0
 10
567.1990384449673
 20
1238.778833775521
 30
0.0
 11
519.6990384449673
 21
1238.778833775521
 31
0.0
  0
ARC
  5
2C96
  8
0
 10
548.19903844496719
 20
1181.578983775521
 30
0.0
 40
14.0
 50
90.0
 51
180.0
  0
LINE
  5
2C9A
  8
0
 10
552.19903844496719
 20
1196.5466883033571
 30
0.0
 11
582.19903844496821
 21
1196.546688303358
 31
0.0
  0
POLYLINE
  5
2C9C
  8
0
 66
     1
 10
0.0
 20
0.0
 30
0.0
  0
VERTEX
  5
3523
  8
0
 10
551.37288032880861
 20
1195.5789837755201
 30
0.0
  0
VERTEX
  5
3524
  8
0
 10
552.19903844496719
 20
1196.5466883033571
 30
0.0
  0
SEQEND
  5
3525
  8
0
  0
POLYLINE
  5
2C9E
  8
0
 66
     1
 10
0.0
 20
0.0
 30
0.0
  0
VERTEX
  5
3526
  8
0
 10
583.02519656112793
 20
1195.5789837755201
 30
0.0
  0
VERTEX
  5
3527
  8
0
 10
582.19903844496832
 20
1196.5466883033571
 30
0.0
  0
SEQEND
  5
3528
  8
0
  0
ARC
  5
2CAC
  8
0
 10
626.69903844496719
 20
1164.155527789457
 30
0.0
 40
11.5
 50
0.0
 51
45.001437894432172
  0
LINE
  5
2CAD
  8
0
 10
638.1990384449673
 20
1111.4014397615861
 30
0.0
 11
638.1990384449673
 21
1164.155527789457
 31
0.0
  0
ARC
  5
2CAE
  8
0
 10
626.69903844496719
 20
1111.4014397615861
 30
0.0
 40
11.5
 50
314.99856210556771
 51
0.0
  0
LINE
  5
2CAF
  8
0
 10
634.83056235227014
 20
1172.2874598443229
 30
0.0
 11
614.90610634331824
 21
1192.210915830387
 31
0.0
  0
ARC
  5
2CB0
  8
0
 10
606.77458243601529
 20
1184.078983775521
 30
0.0
 40
11.5
 50
45.001437894432357
 51
89.999999999999574
  0
ARC
  5
2CB8
  8
0
 10
755.00445554930775
 20
602.42996462770805
 30
0.0
 40
14.0
 50
270.0
 51
0.0
  0
LINE
  5
2CB9
  8
0
 10
717.00445554930775
 20
545.22926462770965
 30
0.0
 11
764.50445554930775
 21
545.22926462770965
 31
0.0
  0
LINE
  5
2CBC
  8
0
 10
732.00445554930775
 20
587.46156009987271
 30
0.0
 11
702.00445554930695
 21
587.46156009987169
 31
0.0
  0
POLYLINE
  5
2CC1
  8
0
 66
     1
 10
0.0
 20
0.0
 30
0.0
  0
VERTEX
  5
3529
  8
0
 10
701.17829743314735
 20
588.42926462770947
 30
0.0
  0
VERTEX
  5
352A
  8
0
 10
702.00445554930695
 20
587.46156009987271
 30
0.0
  0
SEQEND
  5
352B
  8
0
  0
POLYLINE
  5
2CC9
  8
0
 66
     1
 10
0.0
 20
0.0
 30
0.0
  0
VERTEX
  5
352C
  8
0
 10
732.83061366546644
 20
588.42926462770947
 30
0.0
  0
VERTEX
  5
352D
  8
0
 10
732.00445554930775
 20
587.46156009987271
 30
0.0
  0
SEQEND
  5
352E
  8
0
  0
LINE
  5
2CCF
  8
0
 10
769.00445554930604
 20
690.03026462770822
 30
0.0
 11
769.00445554930775
 21
602.42996462770805
 31
0.0
  0
LINE
  5
2CD5
  8
0
 10
732.00445554930775
 20
704.99796915554396
 30
0.0
 11
702.00445554930695
 21
704.99796915554487
 31
0.0
  0
POLYLINE
  5
2CDB
  8
0
 66
     1
 10
0.0
 20
0.0
 30
0.0
  0
VERTEX
  5
352F
  8
0
 10
701.17829743314735
 20
704.03026462770731
 30
0.0
  0
VERTEX
  5
3530
  8
0
 10
702.00445554930695
 20
704.99796915554396
 30
0.0
  0
SEQEND
  5
3531
  8
0
  0
POLYLINE
  5
2CE2
  8
0
 66
     1
 10
0.0
 20
0.0
 30
0.0
  0
VERTEX
  5
3532
  8
0
 10
732.83061366546644
 20
704.03026462770731
 30
0.0
  0
VERTEX
  5
3533
  8
0
 10
732.00445554930775
 20
704.99796915554396
 30
0.0
  0
SEQEND
  5
3534
  8
0
  0
ARC
  5
2CE4
  8
0
 10
755.00445554930604
 20
690.03026462770822
 30
0.0
 40
14.0
 50
0.0
 51
90.0
  0
LINE
  5
2CE5
  8
0
 10
1303.3320548328591
 20
712.68875470056537
 30
0.0
 11
1361.9075988239069
 21
712.68875470056582
 31
0.0
  0
LINE
  5
2CE6
  8
0
 10
1361.9075988239069
 20
597.08845470056531
 30
0.0
 11
1303.3313547977241
 21
597.08845470056531
 31
0.0
  0
LINE
  5
2CE7
  8
0
 10
1292.9075988239069
 20
543.88775470056544
 30
0.0
 11
1342.9075988239069
 21
543.88775470056544
 31
0.0
  0
ARC
  5
2CE9
  8
0
 10
1303.3313547977241
 20
608.58845470056531
 30
0.0
 40
11.5
 50
225.00143789443479
 51
270.0
  0
ARC
  5
2CEA
  8
0
 10
1175.7454800888081
 20
685.2812106500769
 30
0.0
 40
90.0
 50
281.50149261353602
 51
298.63787608745258
  0
ARC
  5
2CEB
  8
0
 10
1173.6363033186969
 20
685.2812106500769
 30
0.0
 40
90.0
 50
241.36212391254739
 51
258.49850738646393
  0
LINE
  5
2CED
  8
0
 10
1174.690891703752
 20
543.88775470056544
 30
0.0
 11
1224.690891703752
 21
543.88775470056544
 31
0.0
  0
LINE
  5
2CF0
  8
0
 10
1124.690891703752
 20
543.88775470056544
 30
0.0
 11
1174.690891703752
 21
543.88775470056544
 31
0.0
  0
LINE
  5
2CF3
  8
0
 10
1193.690891703752
 20
597.08845470056485
 30
0.0
 11
1155.690891703752
 21
597.08845470056485
 31
0.0
  0
ARC
  5
2D04
  8
0
 10
1177.1484487301691
 20
624.22210798856531
 30
0.0
 40
90.0
 50
62.576369567410701
 51
79.408535280256544
  0
LINE
  5
2D05
  8
0
 10
1122.6908917037531
 20
690.79402123594627
 30
0.0
 11
1122.6908917037531
 21
619.4562352696621
 31
0.0
  0
ARC
  5
2D06
  8
0
 10
1137.690891703752
 20
619.4562352696621
 30
0.0
 40
15.0
 50
180.0
 51
241.36212391254821
  0
ARC
  5
2D07
  8
0
 10
1172.2333346773351
 20
624.22210798856531
 30
0.0
 40
90.0
 50
100.5914647197434
 51
117.42363043258931
  0
ARC
  5
2D08
  8
0
 10
1137.690891703752
 20
690.79402123594627
 30
0.0
 40
15.0
 50
117.42363043258931
 51
180.0
  0
LINE
  5
2D0D
  8
0
 10
1155.6908917037531
 20
712.68875470056537
 30
0.0
 11
1193.690891703751
 21
712.68875470056537
 31
0.0
  0
LINE
  5
2D16
  8
0
 10
1271.9075988239069
 20
628.51121068662985
 30
0.0
 11
1271.9075988239069
 21
681.265298714501
 31
0.0
  0
LINE
  5
2D17
  8
0
 10
1226.690891703752
 20
690.79402123594627
 30
0.0
 11
1226.690891703752
 21
619.4562352696621
 31
0.0
  0
ARC
  5
2D18
  8
0
 10
1211.690891703752
 20
619.4562352696621
 30
0.0
 40
15.0
 50
298.63787608745179
 51
0.0
  0
LINE
  5
2D19
  8
0
 10
1295.199830890421
 20
600.4565226456989
 30
0.0
 11
1275.2760749166041
 21
620.37927863176355
 31
0.0
  0
ARC
  5
2D1A
  8
0
 10
1283.4075988239069
 20
628.51121068662985
 30
0.0
 40
11.5
 50
180.0
 51
225.0014378944324
  0
ARC
  5
2D1B
  8
0
 10
1211.690891703752
 20
690.79402123594627
 30
0.0
 40
15.0
 50
0.0
 51
62.576369567410708
  0
ARC
  5
2D1C
  8
0
 10
1303.3320548328591
 20
701.18875470056526
 30
0.0
 40
11.5
 50
90.000000000000398
 51
134.99856210556749
  0
LINE
  5
2D1D
  8
0
 10
1275.2760749166041
 20
689.39723076936752
 30
0.0
 11
1295.200530925556
 21
709.32068675543167
 31
0.0
  0
ARC
  5
2D1E
  8
0
 10
1283.4075988239069
 20
681.265298714501
 30
0.0
 40
11.5
 50
134.99856210556791
 51
180.0
  0
ARC
  5
2D1F
  8
0
 10
1479.4351880481461
 20
611.08845470056531
 30
0.0
 40
14.0
 50
180.0
 51
270.0
  0
ARC
  5
2D20
  8
0
 10
1361.9075988239069
 20
611.08845470056531
 30
0.0
 40
14.0
 50
270.0
 51
0.0
  0
TEXT
  5
2D21
  8
0
 10
1319.1194255592709
 20
483.58437705910183
 30
0.0
 40
20.0
  1
20
 41
0.8
 72
     4
 11
1332.0718065116521
 21
493.58437705910183
 31
0.0
  0
LINE
  5
2D25
  8
0
 10
1342.9075988239069
 20
543.88775470056544
 30
0.0
 11
1392.9075988239069
 21
543.88775470056544
 31
0.0
  0
LINE
  5
2D3C
  8
0
 10
1375.9075988239069
 20
698.68875470056571
 30
0.0
 11
1375.9075988239069
 21
611.08845470056531
 31
0.0
  0
LINE
  5
2D3D
  8
0
 10
1357.9075988239069
 20
714.12984065794035
 30
0.0
 11
1359.245162732426
 21
712.68875470056582
 31
0.0
  0
LINE
  5
2D41
  8
0
 10
1357.9075988239069
 20
714.12984065794035
 30
0.0
 11
1327.9075988239069
 21
714.12984065794035
 31
0.0
  0
LINE
  5
2D44
  8
0
 10
1327.9075988239069
 20
714.12984065794035
 30
0.0
 11
1326.5700349153881
 21
712.68875470056582
 31
0.0
  0
ARC
  5
2D49
  8
0
 10
1361.9075988239069
 20
698.68875470056571
 30
0.0
 40
14.0
 50
0.0
 51
90.0
  0
LINE
  5
2D4A
  8
0
 10
1465.4351880481479
 20
698.68875470056526
 30
0.0
 11
1465.4351880481461
 21
611.08845470056531
 31
0.0
  0
ARC
  5
2D4B
  8
0
 10
1479.4351880481479
 20
698.68875470056526
 30
0.0
 40
14.0
 50
90.0
 51
180.0
  0
LINE
  5
2D50
  8
0
 10
717.00445554930775
 20
747.23026462770713
 30
0.0
 11
764.50445554930775
 21
747.23026462770713
 31
0.0
  0
LINE
  5
2D53
  8
0
 10
1342.9075988239069
 20
1033.49969028235
 30
0.0
 11
1292.9075988239069
 21
1033.49969028235
 31
0.0
  0
ARC
  5
2D55
  8
0
 10
1323.9075988239069
 20
928.23636454409234
 30
0.0
 40
52.0
 50
73.385482629557131
 51
286.61451737044121
  0
CIRCLE
  5
2D56
  8
0
 10
1342.9075988239069
 20
928.23636454409177
 30
0.0
 40
50.0
  0
LINE
  5
2D57
  8
0
 10
1292.9075988239069
 20
765.88875470056564
 30
0.0
 11
1342.9075988239069
 21
765.88875470056564
 31
0.0
  0
LINE
  5
2D59
  8
0
 10
1174.690891703752
 20
765.88875470056564
 30
0.0
 11
1224.690891703752
 21
765.88875470056564
 31
0.0
  0
LINE
  5
2D5D
  8
0
 10
1124.690891703752
 20
765.88875470056564
 30
0.0
 11
1174.690891703752
 21
765.88875470056564
 31
0.0
  0
POLYLINE
  5
2D62
  8
0
 10
1294.0508524549282
 20
917.60535639632496
 30
0.0
 66
     1
 70
     8
  0
VERTEX
  8
0
  5
36A2
 10
1294.05
 20
917.605
 30
0.000000
  70
    32
  0
VERTEX
  8
0
  5
36A3
 10
1293.74
 20
917.178
 30
0.000000
  70
    32
  0
VERTEX
  8
0
  5
36A4
 10
1293.42
 20
916.766
 30
0.000000
  70
    32
  0
VERTEX
  8
0
  5
36A5
 10
1293.09
 20
916.370
 30
0.000000
  70
    32
  0
VERTEX
  8
0
  5
36A6
 10
1292.74
 20
915.991
 30
0.000000
  70
    32
  0
VERTEX
  8
0
  5
36A7
 10
1292.39
 20
915.629
 30
0.000000
  70
    32
  0
VERTEX
  8
0
  5
36A8
 10
1292.03
 20
915.285
 30
0.000000
  70
    32
  0
VERTEX
  8
0
  5
36A9
 10
1291.65
 20
914.959
 30
0.000000
  70
    32
  0
VERTEX
  8
0
  5
36AA
 10
1291.27
 20
914.652
 30
0.000000
  70
    32
  0
VERTEX
  8
0
  5
36AB
 10
1290.88
 20
914.364
 30
0.000000
  70
    32
  0
VERTEX
  8
0
  5
36AC
 10
1290.48
 20
914.095
 30
0.000000
  70
    32
  0
VERTEX
  8
0
  5
36AD
 10
1290.07
 20
913.847
 30
0.000000
  70
    32
  0
VERTEX
  8
0
  5
36AE
 10
1289.66
 20
913.618
 30
0.000000
  70
    32
  0
VERTEX
  8
0
  5
36AF
 10
1289.24
 20
913.410
 30
0.000000
  70
    32
  0
VERTEX
  8
0
  5
36B0
 10
1288.81
 20
913.223
 30
0.000000
  70
    32
  0
VERTEX
  8
0
  5
36B1
 10
1288.38
 20
913.057
 30
0.000000
  70
    32
  0
VERTEX
  8
0
  5
36B2
 10
1287.95
 20
912.912
 30
0.000000
  70
    32
  0
VERTEX
  8
0
  5
36B3
 10
1287.51
 20
912.789
 30
0.000000
  70
    32
  0
VERTEX
  8
0
  5
36B4
 10
1287.07
 20
912.687
 30
0.000000
  70
    32
  0
VERTEX
  8
0
  5
36B5
 10
1286.63
 20
912.608
 30
0.000000
  70
    32
  0
VERTEX
  8
0
  5
36B6
 10
1286.18
 20
912.550
 30
0.000000
  70
    32
  0
VERTEX
  8
0
  5
36B7
 10
1285.73
 20
912.515
 30
0.000000
  70
    32
  0
VERTEX
  8
0
  5
36B8
 10
1285.28
 20
912.501
 30
0.000000
  70
    32
  0
VERTEX
  8
0
  5
36B9
 10
1284.83
 20
912.510
 30
0.000000
  70
    32
  0
VERTEX
  8
0
  5
36BA
 10
1284.39
 20
912.541
 30
0.000000
  70
    32
  0
VERTEX
  8
0
  5
36BB
 10
1283.94
 20
912.594
 30
0.000000
  70
    32
  0
VERTEX
  8
0
  5
36BC
 10
1283.50
 20
912.668
 30
0.000000
  70
    32
  0
VERTEX
  8
0
  5
36BD
 10
1283.05
 20
912.765
 30
0.000000
  70
    32
  0
VERTEX
  8
0
  5
36BE
 10
1282.61
 20
912.884
 30
0.000000
  70
    32
  0
VERTEX
  8
0
  5
36BF
 10
1282.18
 20
913.024
 30
0.000000
  70
    32
  0
VERTEX
  8
0
  5
36C0
 10
1281.75
 20
913.185
 30
0.000000
  70
    32
  0
VERTEX
  8
0
  5
36C1
 10
1281.32
 20
913.368
 30
0.000000
  70
    32
  0
VERTEX
  8
0
  5
36C2
 10
1280.90
 20
913.571
 30
0.000000
  70
    32
  0
VERTEX
  8
0
  5
36C3
 10
1280.49
 20
913.795
 30
0.000000
  70
    32
  0
VERTEX
  8
0
  5
36C4
 10
1280.08
 20
914.040
 30
0.000000
  70
    32
  0
VERTEX
  8
0
  5
36C5
 10
1279.68
 20
914.304
 30
0.000000
  70
    32
  0
VERTEX
  8
0
  5
36C6
 10
1279.28
 20
914.588
 30
0.000000
  70
    32
  0
VERTEX
  8
0
  5
36C7
 10
1278.90
 20
914.891
 30
0.000000
  70
    32
  0
VERTEX
  8
0
  5
36C8
 10
1278.52
 20
915.213
 30
0.000000
  70
    32
  0
VERTEX
  8
0
  5
36C9
 10
1278.16
 20
915.553
 30
0.000000
  70
    32
  0
VERTEX
  8
0
  5
36CA
 10
1277.80
 20
915.911
 30
0.000000
  70
    32
  0
VERTEX
  8
0
  5
36CB
 10
1277.45
 20
916.287
 30
0.000000
  70
    32
  0
VERTEX
  8
0
  5
36CC
 10
1277.12
 20
916.679
 30
0.000000
  70
    32
  0
VERTEX
  8
0
  5
36CD
 10
1276.80
 20
917.087
 30
0.000000
  70
    32
  0
VERTEX
  8
0
  5
36CE
 10
1276.48
 20
917.511
 30
0.000000
  70
    32
  0
VERTEX
  8
0
  5
36CF
 10
1276.18
 20
917.951
 30
0.000000
  70
    32
  0
VERTEX
  8
0
  5
36D0
 10
1275.90
 20
918.404
 30
0.000000
  70
    32
  0
VERTEX
  8
0
  5
36D1
 10
1275.62
 20
918.872
 30
0.000000
  70
    32
  0
VERTEX
  8
0
  5
36D2
 10
1275.36
 20
919.352
 30
0.000000
  70
    32
  0
VERTEX
  8
0
  5
36D3
 10
1275.12
 20
919.845
 30
0.000000
  70
    32
  0
VERTEX
  8
0
  5
36D4
 10
1274.89
 20
920.350
 30
0.000000
  70
    32
  0
VERTEX
  8
0
  5
36D5
 10
1274.67
 20
920.866
 30
0.000000
  70
    32
  0
VERTEX
  8
0
  5
36D6
 10
1274.47
 20
921.393
 30
0.000000
  70
    32
  0
VERTEX
  8
0
  5
36D7
 10
1274.28
 20
921.929
 30
0.000000
  70
    32
  0
VERTEX
  8
0
  5
36D8
 10
1274.11
 20
922.473
 30
0.000000
  70
    32
  0
VERTEX
  8
0
  5
36D9
 10
1273.95
 20
923.026
 30
0.000000
  70
    32
  0
VERTEX
  8
0
  5
36DA
 10
1273.81
 20
923.587
 30
0.000000
  70
    32
  0
VERTEX
  8
0
  5
36DB
 10
1273.69
 20
924.153
 30
0.000000
  70
    32
  0
VERTEX
  8
0
  5
36DC
 10
1273.58
 20
924.726
 30
0.000000
  70
    32
  0
VERTEX
  8
0
  5
36DD
 10
1273.49
 20
925.304
 30
0.000000
  70
    32
  0
VERTEX
  8
0
  5
36DE
 10
1273.41
 20
925.885
 30
0.000000
  70
    32
  0
VERTEX
  8
0
  5
36DF
 10
1273.35
 20
926.470
 30
0.000000
  70
    32
  0
VERTEX
  8
0
  5
36E0
 10
1273.31
 20
927.057
 30
0.000000
  70
    32
  0
VERTEX
  8
0
  5
36E1
 10
1273.28
 20
927.646
 30
0.000000
  70
    32
  0
VERTEX
  8
0
  5
36E2
 10
1273.28
 20
928.236
 30
0.000000
  70
    32
  0
VERTEX
  8
0
  5
36E3
 10
1273.28
 20
928.826
 30
0.000000
  70
    32
  0
VERTEX
  8
0
  5
36E4
 10
1273.31
 20
929.415
 30
0.000000
  70
    32
  0
VERTEX
  8
0
  5
36E5
 10
1273.35
 20
930.003
 30
0.000000
  70
    32
  0
VERTEX
  8
0
  5
36E6
 10
1273.41
 20
930.588
 30
0.000000
  70
    32
  0
VERTEX
  8
0
  5
36E7
 10
1273.49
 20
931.169
 30
0.000000
  70
    32
  0
VERTEX
  8
0
  5
36E8
 10
1273.58
 20
931.747
 30
0.000000
  70
    32
  0
VERTEX
  8
0
  5
36E9
 10
1273.69
 20
932.319
 30
0.000000
  70
    32
  0
VERTEX
  8
0
  5
36EA
 10
1273.81
 20
932.886
 30
0.000000
  70
    32
  0
VERTEX
  8
0
  5
36EB
 10
1273.95
 20
933.446
 30
0.000000
  70
    32
  0
VERTEX
  8
0
  5
36EC
 10
1274.11
 20
933.999
 30
0.000000
  70
    32
  0
VERTEX
  8
0
  5
36ED
 10
1274.28
 20
934.544
 30
0.000000
  70
    32
  0
VERTEX
  8
0
  5
36EE
 10
1274.47
 20
935.080
 30
0.000000
  70
    32
  0
VERTEX
  8
0
  5
36EF
 10
1274.67
 20
935.606
 30
0.000000
  70
    32
  0
VERTEX
  8
0
  5
36F0
 10
1274.89
 20
936.122
 30
0.000000
  70
    32
  0
VERTEX
  8
0
  5
36F1
 10
1275.12
 20
936.627
 30
0.000000
  70
    32
  0
VERTEX
  8
0
  5
36F2
 10
1275.36
 20
937.120
 30
0.000000
  70
    32
  0
VERTEX
  8
0
  5
36F3
 10
1275.62
 20
937.601
 30
0.000000
  70
    32
  0
VERTEX
  8
0
  5
36F4
 10
1275.90
 20
938.069
 30
0.000000
  70
    32
  0
VERTEX
  8
0
  5
36F5
 10
1276.18
 20
938.522
 30
0.000000
  70
    32
  0
VERTEX
  8
0
  5
36F6
 10
1276.48
 20
938.961
 30
0.000000
  70
    32
  0
VERTEX
  8
0
  5
36F7
 10
1276.80
 20
939.385
 30
0.000000
  70
    32
  0
VERTEX
  8
0
  5
36F8
 10
1277.12
 20
939.794
 30
0.000000
  70
    32
  0
VERTEX
  8
0
  5
36F9
 10
1277.45
 20
940.186
 30
0.000000
  70
    32
  0
VERTEX
  8
0
  5
36FA
 10
1277.80
 20
940.561
 30
0.000000
  70
    32
  0
VERTEX
  8
0
  5
36FB
 10
1278.16
 20
940.920
 30
0.000000
  70
    32
  0
VERTEX
  8
0
  5
36FC
 10
1278.52
 20
941.260
 30
0.000000
  70
    32
  0
VERTEX
  8
0
  5
36FD
 10
1278.90
 20
941.582
 30
0.000000
  70
    32
  0
VERTEX
  8
0
  5
36FE
 10
1279.28
 20
941.885
 30
0.000000
  70
    32
  0
VERTEX
  8
0
  5
36FF
 10
1279.68
 20
942.169
 30
0.000000
  70
    32
  0
VERTEX
  8
0
  5
3700
 10
1280.08
 20
942.433
 30
0.000000
  70
    32
  0
VERTEX
  8
0
  5
3701
 10
1280.49
 20
942.678
 30
0.000000
  70
    32
  0
VERTEX
  8
0
  5
3702
 10
1280.90
 20
942.902
 30
0.000000
  70
    32
  0
VERTEX
  8
0
  5
3703
 10
1281.32
 20
943.105
 30
0.000000
  70
    32
  0
VERTEX
  8
0
  5
3704
 10
1281.75
 20
943.288
 30
0.000000
  70
    32
  0
VERTEX
  8
0
  5
3705
 10
1282.18
 20
943.449
 30
0.000000
  70
    32
  0
VERTEX
  8
0
  5
3706
 10
1282.61
 20
943.589
 30
0.000000
  70
    32
  0
VERTEX
  8
0
  5
3707
 10
1283.05
 20
943.708
 30
0.000000
  70
    32
  0
VERTEX
  8
0
  5
3708
 10
1283.50
 20
943.804
 30
0.000000
  70
    32
  0
VERTEX
  8
0
  5
3709
 10
1283.94
 20
943.879
 30
0.000000
  70
    32
  0
VERTEX
  8
0
  5
370A
 10
1284.39
 20
943.932
 30
0.000000
  70
    32
  0
VERTEX
  8
0
  5
370B
 10
1284.83
 20
943.963
 30
0.000000
  70
    32
  0
VERTEX
  8
0
  5
370C
 10
1285.28
 20
943.971
 30
0.000000
  70
    32
  0
VERTEX
  8
0
  5
370D
 10
1285.73
 20
943.958
 30
0.000000
  70
    32
  0
VERTEX
  8
0
  5
370E
 10
1286.18
 20
943.922
 30
0.000000
  70
    32
  0
VERTEX
  8
0
  5
370F
 10
1286.63
 20
943.865
 30
0.000000
  70
    32
  0
VERTEX
  8
0
  5
3710
 10
1287.07
 20
943.785
 30
0.000000
  70
    32
  0
VERTEX
  8
0
  5
3711
 10
1287.51
 20
943.684
 30
0.000000
  70
    32
  0
VERTEX
  8
0
  5
3712
 10
1287.95
 20
943.561
 30
0.000000
  70
    32
  0
VERTEX
  8
0
  5
3713
 10
1288.38
 20
943.416
 30
0.000000
  70
    32
  0
VERTEX
  8
0
  5
3714
 10
1288.81
 20
943.250
 30
0.000000
  70
    32
  0
VERTEX
  8
0
  5
3715
 10
1289.24
 20
943.063
 30
0.000000
  70
    32
  0
VERTEX
  8
0
  5
3716
 10
1289.66
 20
942.855
 30
0.000000
  70
    32
  0
VERTEX
  8
0
  5
3717
 10
1290.07
 20
942.626
 30
0.000000
  70
    32
  0
VERTEX
  8
0
  5
3718
 10
1290.48
 20
942.377
 30
0.000000
  70
    32
  0
VERTEX
  8
0
  5
3719
 10
1290.88
 20
942.109
 30
0.000000
  70
    32
  0
VERTEX
  8
0
  5
371A
 10
1291.27
 20
941.821
 30
0.000000
  70
    32
  0
VERTEX
  8
0
  5
371B
 10
1291.65
 20
941.513
 30
0.000000
  70
    32
  0
VERTEX
  8
0
  5
371C
 10
1292.03
 20
941.187
 30
0.000000
  70
    32
  0
VERTEX
  8
0
  5
371D
 10
1292.39
 20
940.843
 30
0.000000
  70
    32
  0
VERTEX
  8
0
  5
371E
 10
1292.74
 20
940.481
 30
0.000000
  70
    32
  0
VERTEX
  8
0
  5
371F
 10
1293.09
 20
940.102
 30
0.000000
  70
    32
  0
VERTEX
  8
0
  5
3720
 10
1293.42
 20
939.707
 30
0.000000
  70
    32
  0
VERTEX
  8
0
  5
3721
 10
1293.74
 20
939.295
 30
0.000000
  70
    32
  0
VERTEX
  8
0
  5
3722
 10
1294.05
 20
938.867
 30
0.000000
  70
    32
  0
SEQEND
  8
0
  5
3723
  0
CIRCLE
  5
2D64
  8
0
 10
1369.4241031184031
 20
901.71986024959642
 30
0.0
 40
6.0
  0
CIRCLE
  5
2D65
  8
0
 10
1316.3910945294119
 20
901.71986024959642
 30
0.0
 40
6.0
  0
LINE
  5
2D66
  8
0
 10
1331.1421192244959
 20
842.18029290507536
 30
0.0
 11
1331.1421192244959
 21
813.82016790507532
 31
0.0
  0
LINE
  5
2D67
  8
0
 10
1340.595494224495
 20
832.72691790507588
 30
0.0
 11
1331.1421192244959
 21
842.18029290507536
 31
0.0
  0
LINE
  5
2D69
  8
0
 10
1342.9075988239069
 20
765.88875470056564
 30
0.0
 11
1392.9075988239069
 21
765.88875470056564
 31
0.0
  0
LINE
  5
2D6B
  8
0
 10
1340.595494224495
 20
785.45835540507551
 30
0.0
 11
1340.595494224495
 21
832.72691790507588
 31
0.0
  0
LINE
  5
2D6C
  8
0
 10
1331.1421192244959
 20
795.11760540507476
 30
0.0
 11
1340.595494224495
 21
785.45835540507551
 31
0.0
  0
LINE
  5
2D6D
  8
0
 10
1331.1421192244959
 20
813.82016790507532
 30
0.0
 11
1335.8688067244959
 21
809.09179290507518
 31
0.0
  0
LINE
  5
2D6E
  8
0
 10
1335.8688067244959
 20
795.11760540507476
 30
0.0
 11
1331.1421192244959
 21
795.11760540507476
 31
0.0
  0
LINE
  5
2D6F
  8
0
 10
1335.8688067244959
 20
809.09179290507518
 30
0.0
 11
1335.8688067244959
 21
795.11760540507476
 31
0.0
  0
CIRCLE
  5
2D74
  8
0
 10
1316.3910945294119
 20
954.75286883858735
 30
0.0
 40
6.0
  0
CIRCLE
  5
2D75
  8
0
 10
1369.4241031184031
 20
954.75286883858735
 30
0.0
 40
6.0
  0
LINE
  5
2D78
  8
0
 10
1392.9075988239069
 20
1033.49969028235
 30
0.0
 11
1342.9075988239069
 21
1033.49969028235
 31
0.0
  0
LINE
  5
2D81
  8
0
 10
1342.9075988239069
 20
1255.5006902823509
 30
0.0
 11
1292.9075988239069
 21
1255.5006902823509
 31
0.0
  0
ARC
  5
2D86
  8
0
 10
1402.4075988239069
 20
1170.8772342962859
 30
0.0
 40
11.5
 50
0.0
 51
45.001437894432087
  0
ARC
  5
2D87
  8
0
 10
1402.4075988239069
 20
1118.123146268415
 30
0.0
 40
11.5
 50
314.99856210556749
 51
0.0
  0
LINE
  5
2D88
  8
0
 10
1309.9075988239069
 20
1188.3006902823511
 30
0.0
 11
1309.9075988239069
 21
1100.7003902823501
 31
0.0
  0
LINE
  5
2D8B
  8
0
 10
1323.9075988239069
 20
1086.7003902823501
 30
0.0
 11
1382.48384285009
 21
1086.7003902823501
 31
0.0
  0
ARC
  5
2D8E
  8
0
 10
1323.9075988239069
 20
1100.7003902823501
 30
0.0
 40
14.0
 50
180.0
 51
270.0
  0
LINE
  5
2D8F
  8
0
 10
1390.6153667573931
 20
1090.0684582274839
 30
0.0
 11
1410.53912273121
 21
1109.9912142135479
 31
0.0
  0
ARC
  5
2D90
  8
0
 10
1382.48384285009
 20
1098.2003902823501
 30
0.0
 40
11.5
 50
270.0
 51
314.9985621055651
  0
LINE
  5
2D94
  8
0
 10
1382.483142814955
 20
1202.3006902823499
 30
0.0
 11
1323.9075988239069
 21
1202.3006902823511
 31
0.0
  0
ARC
  5
2D96
  8
0
 10
1323.9075988239069
 20
1188.3006902823511
 30
0.0
 40
14.0
 50
90.0
 51
180.0
  0
ARC
  5
2D97
  8
0
 10
1382.483142814955
 20
1190.8006902823499
 30
0.0
 40
11.5
 50
45.001437894432449
 51
89.999999999999588
  0
LINE
  5
2D99
  8
0
 10
1410.53912273121
 20
1179.0091663511521
 30
0.0
 11
1390.6146667222581
 21
1198.932622337217
 31
0.0
  0
LINE
  5
2D9A
  8
0
 10
1413.9075988239069
 20
1118.123146268415
 30
0.0
 11
1413.9075988239069
 21
1170.8772342962859
 31
0.0
  0
LINE
  5
2D9B
  8
0
 10
1392.9075988239069
 20
1255.5006902823509
 30
0.0
 11
1342.9075988239069
 21
1255.5006902823509
 31
0.0
  0
ARC
  5
2F34
  8
0
 10
2338.2777912533788
 20
705.16536852254922
 30
0.0
 40
8.4761999853395515
 50
25.24540191224833
 51
50.324874103418509
  0
LINE
  5
2F37
  8
0
 10
2326.6892832605949
 20
771.98276030044053
 30
0.0
 11
2389.1892832605949
 21
771.98276030044053
 31
0.0
  0
LINE
  5
2F38
  8
0
 10
2288.6892832605959
 20
708.78276030044105
 30
0.0
 11
2364.6892832605931
 21
708.78276030044071
 31
0.0
  0
ARC
  5
2F39
  8
0
 10
2338.2777912533788
 20
596.79915207833164
 30
0.0
 40
8.4761999853395515
 50
309.67512589658151
 51
334.74245261349591
  0
LINE
  5
2F3A
  8
0
 10
2364.6892832605949
 20
593.18246030044065
 30
0.0
 11
2288.6892832605949
 21
593.18246030044065
 31
0.0
  0
LINE
  5
2F3C
  8
0
 10
2326.6892832605949
 20
529.98176030044033
 30
0.0
 11
2389.1892832605949
 21
529.98176030044033
 31
0.0
  0
LINE
  5
2F45
  8
0
 10
1957.091174742553
 20
711.68930295257724
 30
0.0
 11
1923.091174742553
 21
711.68930295257724
 31
0.0
  0
LINE
  5
2F47
  8
0
 10
1957.091174742553
 20
590.27521764830362
 30
0.0
 11
1923.091174742553
 21
590.27521764830362
 31
0.0
  0
LINE
  5
2F48
  8
0
 10
1959.0911747425521
 20
593.18246030044008
 30
0.0
 11
1921.0911747425509
 21
593.18246030044008
 31
0.0
  0
LINE
  5
2F49
  8
0
 10
1921.091174742553
 20
708.78276030044071
 30
0.0
 11
1959.0911747425509
 21
708.78276030044071
 31
0.0
  0
LINE
  5
2F4A
  8
0
 10
1877.5911747425521
 20
529.98176030044033
 30
0.0
 11
1940.0911747425521
 21
529.98176030044033
 31
0.0
  0
LINE
  5
2F4B
  8
0
 10
1940.0911747425521
 20
529.98176030044033
 30
0.0
 11
2002.591174742553
 21
529.98176030044033
 31
0.0
  0
ARC
  5
2F4E
  8
0
 10
1555.4351880481461
 20
611.08845470056531
 30
0.0
 40
14.0
 50
270.0
 51
0.0
  0
LINE
  5
2F4F
  8
0
 10
1517.4351880481461
 20
543.88775470056544
 30
0.0
 11
1567.4351880481461
 21
543.88775470056544
 31
0.0
  0
LINE
  5
2F57
  8
0
 10
1569.435188048144
 20
698.68875470056526
 30
0.0
 11
1569.4351880481461
 21
611.08845470056531
 31
0.0
  0
ARC
  5
2F58
  8
0
 10
1555.435188048144
 20
698.68875470056526
 30
0.0
 40
14.0
 50
0.0
 51
90.0
  0
ARC
  5
2F5D
  8
0
 10
1903.0911747425521
 20
615.55024086953745
 30
0.0
 40
15.0
 50
180.0
 51
241.36212391254821
  0
ARC
  5
2F61
  8
0
 10
1939.0365863574971
 20
681.37521624995225
 30
0.0
 40
90.0
 50
241.36212391254739
 51
258.49850738646393
  0
ARC
  5
2F62
  8
0
 10
1928.502666749768
 20
596.79915207833164
 30
0.0
 40
8.4761999853395515
 50
205.26277939916039
 51
230.32487410341849
  0
LINE
  5
2F63
  8
0
 10
1888.0911747425521
 20
686.88802683582162
 30
0.0
 11
1888.0911747425521
 21
615.55024086953745
 31
0.0
  0
ARC
  5
2F65
  8
0
 10
1937.6336177161349
 20
620.31611358844054
 30
0.0
 40
90.0
 50
100.5914647197434
 51
117.42363043258889
  0
ARC
  5
2F66
  8
0
 10
1903.0911747425521
 20
686.88802683582162
 30
0.0
 40
15.0
 50
117.42363043258889
 51
180.0
  0
ARC
  5
2F67
  8
0
 10
1928.502666749768
 20
705.16536852254922
 30
0.0
 40
8.4761999853395515
 50
129.67512589658151
 51
154.73722060083961
  0
LINE
  5
2F6A
  8
0
 10
2084.0745099986648
 20
708.78276030044015
 30
0.0
 11
2142.6500539897129
 21
708.78276030044071
 31
0.0
  0
LINE
  5
2F6B
  8
0
 10
2140.6500539897129
 20
711.68930295257724
 30
0.0
 11
2106.6500539897138
 21
711.68930295257724
 31
0.0
  0
LINE
  5
2F6D
  8
0
 10
2142.6500539897129
 20
593.18246030044008
 30
0.0
 11
2084.07380996353
 21
593.18246030044008
 31
0.0
  0
LINE
  5
2F6E
  8
0
 10
2140.6500539897129
 20
590.27521764830362
 30
0.0
 11
2106.6500539897138
 21
590.27521764830362
 31
0.0
  0
TEXT
  5
2F70
  8
0
 10
2114.167844172257
 20
474.27735631735999
 30
0.0
 40
20.0
  1
25
 41
0.8
 72
     4
 11
2127.1202251246382
 21
484.27735631735999
 31
0.0
  0
LINE
  5
2F72
  8
0
 10
2123.6500539897129
 20
529.98176030044033
 30
0.0
 11
2186.1500539897129
 21
529.98176030044033
 31
0.0
  0
ARC
  5
2F73
  8
0
 10
1977.0911747425509
 20
615.55024086953745
 30
0.0
 40
15.0
 50
298.63787608745179
 51
0.0
  0
LINE
  5
2F74
  8
0
 10
2075.9422860562272
 20
596.55052824557379
 30
0.0
 11
2056.018530082411
 21
616.47328423163844
 31
0.0
  0
ARC
  5
2F76
  8
0
 10
1941.145763127608
 20
681.37521624995225
 30
0.0
 40
90.0
 50
281.50149261353602
 51
298.63787608745258
  0
ARC
  5
2F79
  8
0
 10
1951.679682735336
 20
596.79915207833164
 30
0.0
 40
8.4761999853395515
 50
309.67512589658151
 51
335.173058016038
  0
LINE
  5
2F7B
  8
0
 10
2061.1500539897129
 20
529.98176030044033
 30
0.0
 11
2123.6500539897129
 21
529.98176030044033
 31
0.0
  0
ARC
  5
2F7C
  8
0
 10
2084.07380996353
 20
604.68246030044008
 30
0.0
 40
11.5
 50
225.00143789443479
 51
270.0
  0
ARC
  5
2F7F
  8
0
 10
2112.0615459969299
 20
596.79915207833164
 30
0.0
 40
8.4761999853395515
 50
205.26277939916039
 51
230.32487410341849
  0
LINE
  5
2F80
  8
0
 10
1992.0911747425521
 20
686.88802683582162
 30
0.0
 11
1992.0911747425521
 21
615.55024086953745
 31
0.0
  0
ARC
  5
2F81
  8
0
 10
1942.548731768969
 20
620.31611358844054
 30
0.0
 40
90.0
 50
62.576369567410318
 51
79.408535280256544
  0
ARC
  5
2F83
  8
0
 10
1951.679682735336
 20
705.16536852254922
 30
0.0
 40
8.4761999853395515
 50
25.24540191224833
 51
50.324874103418509
  0
ARC
  5
2F85
  8
0
 10
1977.0911747425509
 20
686.88802683582162
 30
0.0
 40
15.0
 50
0.0
 51
62.576369567411056
  0
ARC
  5
2F86
  8
0
 10
2064.1500539897129
 20
677.359304314376
 30
0.0
 40
11.5
 50
134.9985621055676
 51
180.0
  0
LINE
  5
2F87
  8
0
 10
2052.6500539897129
 20
624.60521628650486
 30
0.0
 11
2052.6500539897129
 21
677.359304314376
 31
0.0
  0
ARC
  5
2F88
  8
0
 10
2064.1500539897129
 20
624.60521628650486
 30
0.0
 40
11.5
 50
180.0
 51
225.0014378944324
  0
LINE
  5
2F89
  8
0
 10
2056.018530082411
 20
685.49123636924242
 30
0.0
 11
2075.9429860913619
 21
705.41469235530667
 31
0.0
  0
ARC
  5
2F8A
  8
0
 10
2084.0745099986648
 20
697.28276030044015
 30
0.0
 40
11.5
 50
90.00000000000081
 51
134.99856210556749
  0
ARC
  5
2F8C
  8
0
 10
2112.0615459969299
 20
705.16536852254922
 30
0.0
 40
8.4761999853395515
 50
129.67512589658151
 51
154.73722060083961
  0
LINE
  5
2F8E
  8
0
 10
2274.6892832605959
 20
694.78276030044071
 30
0.0
 11
2274.689283260594
 21
607.18246030044065
 31
0.0
  0
LINE
  5
2F8F
  8
0
 10
2156.6500539897129
 20
694.78276030044071
 30
0.0
 11
2156.6500539897129
 21
607.1824603004402
 31
0.0
  0
ARC
  5
2F93
  8
0
 10
2142.6500539897129
 20
607.1824603004402
 30
0.0
 40
14.0
 50
270.0
 51
0.0
  0
ARC
  5
2F94
  8
0
 10
2135.2385619824968
 20
596.79915207833164
 30
0.0
 40
8.4761999853395515
 50
309.67512589658151
 51
337.9971548544076
  0
LINE
  5
2F96
  8
0
 10
2264.1892832605949
 20
529.98176030044033
 30
0.0
 11
2326.6892832605949
 21
529.98176030044033
 31
0.0
  0
ARC
  5
2F97
  8
0
 10
2288.6892832605949
 20
607.18246030044065
 30
0.0
 40
14.0
 50
180.0
 51
270.0
  0
LINE
  5
2F9C
  8
0
 10
2343.6892832605959
 20
590.27521764830362
 30
0.0
 11
2309.6892832605949
 21
590.27521764830362
 31
0.0
  0
ARC
  5
2F9D
  8
0
 10
2315.1007752678111
 20
596.79915207833164
 30
0.0
 40
8.4761999853395515
 50
205.26277939916039
 51
230.32487410341849
  0
ARC
  5
2F9F
  8
0
 10
2135.2385619824968
 20
705.16536852254922
 30
0.0
 40
8.4761999853395515
 50
25.24540191224833
 51
50.324874103418509
  0
ARC
  5
2FA0
  8
0
 10
2142.6500539897129
 20
694.78276030044071
 30
0.0
 40
14.0
 50
0.0
 51
90.0
  0
ARC
  5
2FA2
  8
0
 10
2288.6892832605959
 20
694.78276030044071
 30
0.0
 40
14.0
 50
90.0
 51
180.0
  0
LINE
  5
2FA5
  8
0
 10
2343.6892832605959
 20
711.68930295257724
 30
0.0
 11
2309.6892832605949
 21
711.68930295257724
 31
0.0
  0
ARC
  5
2FA6
  8
0
 10
2315.1007752678111
 20
705.16536852254922
 30
0.0
 40
8.4761999853395515
 50
129.67512589658151
 51
154.73722060083961
  0
LINE
  5
2FA9
  8
0
 10
1877.5911747425521
 20
771.98276030044053
 30
0.0
 11
1940.0911747425521
 21
771.98276030044053
 31
0.0
  0
LINE
  5
2FAA
  8
0
 10
1940.0911747425521
 20
771.98276030044053
 30
0.0
 11
2002.591174742553
 21
771.98276030044053
 31
0.0
  0
LINE
  5
2FAB
  8
0
 10
1517.4351880481461
 20
765.88875470056564
 30
0.0
 11
1567.4351880481461
 21
765.88875470056564
 31
0.0
  0
LINE
  5
2FAE
  8
0
 10
2123.6500539897129
 20
771.98276030044053
 30
0.0
 11
2186.1500539897129
 21
771.98276030044053
 31
0.0
  0
CIRCLE
  5
2FAF
  8
0
 10
2123.6500539897129
 20
928.23636454409177
 30
0.0
 40
62.5
  0
ARC
  5
2FB0
  8
0
 10
2104.6500539897129
 20
928.23636454409268
 30
0.0
 40
52.0
 50
115.1971197599573
 51
244.80288024003721
  0
LINE
  5
2FB1
  8
0
 10
2061.1500539897129
 20
771.98276030044053
 30
0.0
 11
2123.6500539897129
 21
771.98276030044053
 31
0.0
  0
LINE
  5
2FB2
  8
0
 10
2124.4380059829418
 20
789.83691139285384
 30
0.0
 11
2124.4380059829418
 21
837.10547389285421
 31
0.0
  0
LINE
  5
2FB3
  8
0
 10
2114.9846309829418
 20
799.49616139285308
 30
0.0
 11
2124.4380059829418
 21
789.83691139285384
 31
0.0
  0
LINE
  5
2FB4
  8
0
 10
2114.9846309829418
 20
846.5588488928538
 30
0.0
 11
2114.9846309829418
 21
818.19872389285365
 31
0.0
  0
LINE
  5
2FB5
  8
0
 10
2124.4380059829418
 20
837.10547389285421
 30
0.0
 11
2114.9846309829418
 21
846.5588488928538
 31
0.0
  0
LINE
  5
2FB6
  8
0
 10
2114.9846309829418
 20
818.19872389285365
 30
0.0
 11
2119.7113184829432
 21
813.47034889285351
 31
0.0
  0
LINE
  5
2FB7
  8
0
 10
2119.7113184829432
 20
799.49616139285308
 30
0.0
 11
2114.9846309829418
 21
799.49616139285308
 31
0.0
  0
LINE
  5
2FB8
  8
0
 10
2119.7113184829432
 20
813.47034889285351
 30
0.0
 11
2119.7113184829432
 21
799.49616139285308
 31
0.0
  0
CIRCLE
  5
2FB9
  8
0
 10
2091.8302488363188
 20
960.05616969748644
 30
0.0
 40
7.5
  0
CIRCLE
  5
2FBA
  8
0
 10
2091.8302488363188
 20
896.41655939069722
 30
0.0
 40
7.5
  0
POLYLINE
  5
2FBB
  8
0
 10
2063.0399186508835
 20
912.98311917767523
 30
0.0
 66
     1
 70
     8
  0
VERTEX
  8
0
  5
3724
 10
2063.04
 20
912.983
 30
0.000000
  70
    32
  0
VERTEX
  8
0
  5
3725
 10
2062.80
 20
913.066
 30
0.000000
  70
    32
  0
VERTEX
  8
0
  5
3726
 10
2062.56
 20
913.156
 30
0.000000
  70
    32
  0
VERTEX
  8
0
  5
3727
 10
2062.33
 20
913.252
 30
0.000000
  70
    32
  0
VERTEX
  8
0
  5
3728
 10
2062.09
 20
913.354
 30
0.000000
  70
    32
  0
VERTEX
  8
0
  5
3729
 10
2061.86
 20
913.463
 30
0.000000
  70
    32
  0
VERTEX
  8
0
  5
372A
 10
2061.63
 20
913.578
 30
0.000000
  70
    32
  0
VERTEX
  8
0
  5
372B
 10
2061.40
 20
913.700
 30
0.000000
  70
    32
  0
VERTEX
  8
0
  5
372C
 10
2061.17
 20
913.827
 30
0.000000
  70
    32
  0
VERTEX
  8
0
  5
372D
 10
2060.95
 20
913.961
 30
0.000000
  70
    32
  0
VERTEX
  8
0
  5
372E
 10
2060.72
 20
914.101
 30
0.000000
  70
    32
  0
VERTEX
  8
0
  5
372F
 10
2060.50
 20
914.247
 30
0.000000
  70
    32
  0
VERTEX
  8
0
  5
3730
 10
2060.28
 20
914.398
 30
0.000000
  70
    32
  0
VERTEX
  8
0
  5
3731
 10
2060.07
 20
914.556
 30
0.000000
  70
    32
  0
VERTEX
  8
0
  5
3732
 10
2059.85
 20
914.720
 30
0.000000
  70
    32
  0
VERTEX
  8
0
  5
3733
 10
2059.64
 20
914.889
 30
0.000000
  70
    32
  0
VERTEX
  8
0
  5
3734
 10
2059.44
 20
915.064
 30
0.000000
  70
    32
  0
VERTEX
  8
0
  5
3735
 10
2059.23
 20
915.245
 30
0.000000
  70
    32
  0
VERTEX
  8
0
  5
3736
 10
2059.03
 20
915.431
 30
0.000000
  70
    32
  0
VERTEX
  8
0
  5
3737
 10
2058.83
 20
915.623
 30
0.000000
  70
    32
  0
VERTEX
  8
0
  5
3738
 10
2058.63
 20
915.820
 30
0.000000
  70
    32
  0
VERTEX
  8
0
  5
3739
 10
2058.44
 20
916.022
 30
0.000000
  70
    32
  0
VERTEX
  8
0
  5
373A
 10
2058.25
 20
916.230
 30
0.000000
  70
    32
  0
VERTEX
  8
0
  5
373B
 10
2058.06
 20
916.443
 30
0.000000
  70
    32
  0
VERTEX
  8
0
  5
373C
 10
2057.88
 20
916.660
 30
0.000000
  70
    32
  0
VERTEX
  8
0
  5
373D
 10
2057.70
 20
916.883
 30
0.000000
  70
    32
  0
VERTEX
  8
0
  5
373E
 10
2057.52
 20
917.111
 30
0.000000
  70
    32
  0
VERTEX
  8
0
  5
373F
 10
2057.35
 20
917.343
 30
0.000000
  70
    32
  0
VERTEX
  8
0
  5
3740
 10
2057.18
 20
917.580
 30
0.000000
  70
    32
  0
VERTEX
  8
0
  5
3741
 10
2057.01
 20
917.822
 30
0.000000
  70
    32
  0
VERTEX
  8
0
  5
3742
 10
2056.85
 20
918.068
 30
0.000000
  70
    32
  0
VERTEX
  8
0
  5
3743
 10
2056.69
 20
918.318
 30
0.000000
  70
    32
  0
VERTEX
  8
0
  5
3744
 10
2056.54
 20
918.572
 30
0.000000
  70
    32
  0
VERTEX
  8
0
  5
3745
 10
2056.39
 20
918.831
 30
0.000000
  70
    32
  0
VERTEX
  8
0
  5
3746
 10
2056.24
 20
919.094
 30
0.000000
  70
    32
  0
VERTEX
  8
0
  5
3747
 10
2056.10
 20
919.360
 30
0.000000
  70
    32
  0
VERTEX
  8
0
  5
3748
 10
2055.97
 20
919.631
 30
0.000000
  70
    32
  0
VERTEX
  8
0
  5
3749
 10
2055.83
 20
919.905
 30
0.000000
  70
    32
  0
VERTEX
  8
0
  5
374A
 10
2055.70
 20
920.182
 30
0.000000
  70
    32
  0
VERTEX
  8
0
  5
374B
 10
2055.58
 20
920.464
 30
0.000000
  70
    32
  0
VERTEX
  8
0
  5
374C
 10
2055.46
 20
920.748
 30
0.000000
  70
    32
  0
VERTEX
  8
0
  5
374D
 10
2055.34
 20
921.035
 30
0.000000
  70
    32
  0
VERTEX
  8
0
  5
374E
 10
2055.23
 20
921.326
 30
0.000000
  70
    32
  0
VERTEX
  8
0
  5
374F
 10
2055.13
 20
921.620
 30
0.000000
  70
    32
  0
VERTEX
  8
0
  5
3750
 10
2055.03
 20
921.916
 30
0.000000
  70
    32
  0
VERTEX
  8
0
  5
3751
 10
2054.93
 20
922.215
 30
0.000000
  70
    32
  0
VERTEX
  8
0
  5
3752
 10
2054.84
 20
922.517
 30
0.000000
  70
    32
  0
VERTEX
  8
0
  5
3753
 10
2054.75
 20
922.821
 30
0.000000
  70
    32
  0
VERTEX
  8
0
  5
3754
 10
2054.67
 20
923.128
 30
0.000000
  70
    32
  0
VERTEX
  8
0
  5
3755
 10
2054.59
 20
923.436
 30
0.000000
  70
    32
  0
VERTEX
  8
0
  5
3756
 10
2054.52
 20
923.747
 30
0.000000
  70
    32
  0
VERTEX
  8
0
  5
3757
 10
2054.45
 20
924.060
 30
0.000000
  70
    32
  0
VERTEX
  8
0
  5
3758
 10
2054.38
 20
924.374
 30
0.000000
  70
    32
  0
VERTEX
  8
0
  5
3759
 10
2054.33
 20
924.690
 30
0.000000
  70
    32
  0
VERTEX
  8
0
  5
375A
 10
2054.27
 20
925.008
 30
0.000000
  70
    32
  0
VERTEX
  8
0
  5
375B
 10
2054.23
 20
925.327
 30
0.000000
  70
    32
  0
VERTEX
  8
0
  5
375C
 10
2054.18
 20
925.647
 30
0.000000
  70
    32
  0
VERTEX
  8
0
  5
375D
 10
2054.14
 20
925.968
 30
0.000000
  70
    32
  0
VERTEX
  8
0
  5
375E
 10
2054.11
 20
926.290
 30
0.000000
  70
    32
  0
VERTEX
  8
0
  5
375F
 10
2054.08
 20
926.613
 30
0.000000
  70
    32
  0
VERTEX
  8
0
  5
3760
 10
2054.06
 20
926.937
 30
0.000000
  70
    32
  0
VERTEX
  8
0
  5
3761
 10
2054.04
 20
927.261
 30
0.000000
  70
    32
  0
VERTEX
  8
0
  5
3762
 10
2054.03
 20
927.586
 30
0.000000
  70
    32
  0
VERTEX
  8
0
  5
3763
 10
2054.02
 20
927.911
 30
0.000000
  70
    32
  0
VERTEX
  8
0
  5
3764
 10
2054.02
 20
928.236
 30
0.000000
  70
    32
  0
VERTEX
  8
0
  5
3765
 10
2054.02
 20
928.562
 30
0.000000
  70
    32
  0
VERTEX
  8
0
  5
3766
 10
2054.03
 20
928.887
 30
0.000000
  70
    32
  0
VERTEX
  8
0
  5
3767
 10
2054.04
 20
929.211
 30
0.000000
  70
    32
  0
VERTEX
  8
0
  5
3768
 10
2054.06
 20
929.536
 30
0.000000
  70
    32
  0
VERTEX
  8
0
  5
3769
 10
2054.08
 20
929.859
 30
0.000000
  70
    32
  0
VERTEX
  8
0
  5
376A
 10
2054.11
 20
930.183
 30
0.000000
  70
    32
  0
VERTEX
  8
0
  5
376B
 10
2054.14
 20
930.505
 30
0.000000
  70
    32
  0
VERTEX
  8
0
  5
376C
 10
2054.18
 20
930.826
 30
0.000000
  70
    32
  0
VERTEX
  8
0
  5
376D
 10
2054.23
 20
931.146
 30
0.000000
  70
    32
  0
VERTEX
  8
0
  5
376E
 10
2054.27
 20
931.465
 30
0.000000
  70
    32
  0
VERTEX
  8
0
  5
376F
 10
2054.33
 20
931.783
 30
0.000000
  70
    32
  0
VERTEX
  8
0
  5
3770
 10
2054.38
 20
932.099
 30
0.000000
  70
    32
  0
VERTEX
  8
0
  5
3771
 10
2054.45
 20
932.413
 30
0.000000
  70
    32
  0
VERTEX
  8
0
  5
3772
 10
2054.52
 20
932.726
 30
0.000000
  70
    32
  0
VERTEX
  8
0
  5
3773
 10
2054.59
 20
933.036
 30
0.000000
  70
    32
  0
VERTEX
  8
0
  5
3774
 10
2054.67
 20
933.345
 30
0.000000
  70
    32
  0
VERTEX
  8
0
  5
3775
 10
2054.75
 20
933.652
 30
0.000000
  70
    32
  0
VERTEX
  8
0
  5
3776
 10
2054.84
 20
933.956
 30
0.000000
  70
    32
  0
VERTEX
  8
0
  5
3777
 10
2054.93
 20
934.257
 30
0.000000
  70
    32
  0
VERTEX
  8
0
  5
3778
 10
2055.03
 20
934.557
 30
0.000000
  70
    32
  0
VERTEX
  8
0
  5
3779
 10
2055.13
 20
934.853
 30
0.000000
  70
    32
  0
VERTEX
  8
0
  5
377A
 10
2055.23
 20
935.147
 30
0.000000
  70
    32
  0
VERTEX
  8
0
  5
377B
 10
2055.34
 20
935.437
 30
0.000000
  70
    32
  0
VERTEX
  8
0
  5
377C
 10
2055.46
 20
935.725
 30
0.000000
  70
    32
  0
VERTEX
  8
0
  5
377D
 10
2055.58
 20
936.009
 30
0.000000
  70
    32
  0
VERTEX
  8
0
  5
377E
 10
2055.70
 20
936.290
 30
0.000000
  70
    32
  0
VERTEX
  8
0
  5
377F
 10
2055.83
 20
936.568
 30
0.000000
  70
    32
  0
VERTEX
  8
0
  5
3780
 10
2055.97
 20
936.842
 30
0.000000
  70
    32
  0
VERTEX
  8
0
  5
3781
 10
2056.10
 20
937.112
 30
0.000000
  70
    32
  0
VERTEX
  8
0
  5
3782
 10
2056.24
 20
937.379
 30
0.000000
  70
    32
  0
VERTEX
  8
0
  5
3783
 10
2056.39
 20
937.642
 30
0.000000
  70
    32
  0
VERTEX
  8
0
  5
3784
 10
2056.54
 20
937.900
 30
0.000000
  70
    32
  0
VERTEX
  8
0
  5
3785
 10
2056.69
 20
938.155
 30
0.000000
  70
    32
  0
VERTEX
  8
0
  5
3786
 10
2056.85
 20
938.405
 30
0.000000
  70
    32
  0
VERTEX
  8
0
  5
3787
 10
2057.01
 20
938.651
 30
0.000000
  70
    32
  0
VERTEX
  8
0
  5
3788
 10
2057.18
 20
938.893
 30
0.000000
  70
    32
  0
VERTEX
  8
0
  5
3789
 10
2057.35
 20
939.130
 30
0.000000
  70
    32
  0
VERTEX
  8
0
  5
378A
 10
2057.52
 20
939.362
 30
0.000000
  70
    32
  0
VERTEX
  8
0
  5
378B
 10
2057.70
 20
939.590
 30
0.000000
  70
    32
  0
VERTEX
  8
0
  5
378C
 10
2057.88
 20
939.812
 30
0.000000
  70
    32
  0
VERTEX
  8
0
  5
378D
 10
2058.06
 20
940.030
 30
0.000000
  70
    32
  0
VERTEX
  8
0
  5
378E
 10
2058.25
 20
940.243
 30
0.000000
  70
    32
  0
VERTEX
  8
0
  5
378F
 10
2058.44
 20
940.450
 30
0.000000
  70
    32
  0
VERTEX
  8
0
  5
3790
 10
2058.63
 20
940.653
 30
0.000000
  70
    32
  0
VERTEX
  8
0
  5
3791
 10
2058.83
 20
940.850
 30
0.000000
  70
    32
  0
VERTEX
  8
0
  5
3792
 10
2059.03
 20
941.042
 30
0.000000
  70
    32
  0
VERTEX
  8
0
  5
3793
 10
2059.23
 20
941.228
 30
0.000000
  70
    32
  0
VERTEX
  8
0
  5
3794
 10
2059.44
 20
941.409
 30
0.000000
  70
    32
  0
VERTEX
  8
0
  5
3795
 10
2059.64
 20
941.584
 30
0.000000
  70
    32
  0
VERTEX
  8
0
  5
3796
 10
2059.85
 20
941.753
 30
0.000000
  70
    32
  0
VERTEX
  8
0
  5
3797
 10
2060.07
 20
941.917
 30
0.000000
  70
    32
  0
VERTEX
  8
0
  5
3798
 10
2060.28
 20
942.074
 30
0.000000
  70
    32
  0
VERTEX
  8
0
  5
3799
 10
2060.50
 20
942.226
 30
0.000000
  70
    32
  0
VERTEX
  8
0
  5
379A
 10
2060.72
 20
942.372
 30
0.000000
  70
    32
  0
VERTEX
  8
0
  5
379B
 10
2060.95
 20
942.512
 30
0.000000
  70
    32
  0
VERTEX
  8
0
  5
379C
 10
2061.17
 20
942.646
 30
0.000000
  70
    32
  0
VERTEX
  8
0
  5
379D
 10
2061.40
 20
942.773
 30
0.000000
  70
    32
  0
VERTEX
  8
0
  5
379E
 10
2061.63
 20
942.894
 30
0.000000
  70
    32
  0
VERTEX
  8
0
  5
379F
 10
2061.86
 20
943.010
 30
0.000000
  70
    32
  0
VERTEX
  8
0
  5
37A0
 10
2062.09
 20
943.118
 30
0.000000
  70
    32
  0
VERTEX
  8
0
  5
37A1
 10
2062.33
 20
943.221
 30
0.000000
  70
    32
  0
VERTEX
  8
0
  5
37A2
 10
2062.56
 20
943.317
 30
0.000000
  70
    32
  0
VERTEX
  8
0
  5
37A3
 10
2062.80
 20
943.406
 30
0.000000
  70
    32
  0
VERTEX
  8
0
  5
37A4
 10
2063.04
 20
943.490
 30
0.000000
  70
    32
  0
SEQEND
  8
0
  5
37A5
  0
LINE
  5
2FBC
  8
0
 10
2264.1892832605949
 20
771.98276030044053
 30
0.0
 11
2326.6892832605949
 21
771.98276030044053
 31
0.0
  0
CIRCLE
  5
2FBD
  8
0
 10
2155.4698591431079
 20
960.05616969748644
 30
0.0
 40
7.5
  0
CIRCLE
  5
2FBE
  8
0
 10
2155.4698591431079
 20
896.41655939069722
 30
0.0
 40
7.5
  0
LINE
  5
2FBF
  8
0
 10
2186.1500539897129
 20
1265.50069028235
 30
0.0
 11
2123.6500539897129
 21
1265.50069028235
 31
0.0
  0
LINE
  5
2FC0
  8
0
 10
2123.6500539897129
 20
1265.50069028235
 30
0.0
 11
2061.1500539897129
 21
1265.50069028235
 31
0.0
  0
LINE
  5
2FC1
  8
0
 10
2163.225597980761
 20
1202.3006902823499
 30
0.0
 11
2104.6500539897129
 21
1202.3006902823511
 31
0.0
  0
LINE
  5
2FC2
  8
0
 10
2106.6500539897138
 20
1205.2072329344869
 30
0.0
 11
2140.6500539897129
 21
1205.2072329344869
 31
0.0
  0
LINE
  5
2FC5
  8
0
 10
2104.6500539897129
 20
1086.7003902823501
 30
0.0
 11
2163.2262980158971
 21
1086.7003902823501
 31
0.0
  0
LINE
  5
2FC6
  8
0
 10
2106.6500539897138
 20
1083.793147630214
 30
0.0
 11
2140.6500539897129
 21
1083.793147630214
 31
0.0
  0
LINE
  5
2FC7
  8
0
 10
2186.1500539897129
 20
1023.49969028235
 30
0.0
 11
2123.6500539897129
 21
1023.49969028235
 31
0.0
  0
LINE
  5
2FC9
  8
0
 10
2123.6500539897129
 20
1023.49969028235
 30
0.0
 11
2061.1500539897129
 21
1023.49969028235
 31
0.0
  0
LINE
  5
2FCB
  8
0
 10
2090.6500539897138
 20
1188.3006902823511
 30
0.0
 11
2090.6500539897138
 21
1100.7003902823501
 31
0.0
  0
ARC
  5
2FCC
  8
0
 10
2104.6500539897129
 20
1100.7003902823501
 30
0.0
 40
14.0
 50
180.0
 51
270.0
  0
ARC
  5
2FD0
  8
0
 10
2112.0615459969299
 20
1090.3170820602411
 30
0.0
 40
8.4761999853395515
 50
202.0028451455895
 51
230.32487410341849
  0
ARC
  5
2FD3
  8
0
 10
2112.0615459969299
 20
1198.6832985044589
 30
0.0
 40
8.4761999853395515
 50
129.67512589658151
 51
154.75459808775159
  0
ARC
  5
2FD4
  8
0
 10
2104.6500539897129
 20
1188.3006902823511
 30
0.0
 40
14.0
 50
90.0
 51
180.0
  0
ARC
  5
2FD6
  8
0
 10
2183.1500539897129
 20
1170.8772342962859
 30
0.0
 40
11.5
 50
0.0
 51
45.001437894432357
  0
LINE
  5
2FD7
  8
0
 10
2171.3578219231999
 20
1090.0684582274839
 30
0.0
 11
2191.2815778970162
 21
1109.9912142135479
 31
0.0
  0
ARC
  5
2FDB
  8
0
 10
2135.2385619824968
 20
1090.3170820602411
 30
0.0
 40
8.4761999853395515
 50
309.67512589658151
 51
334.73722060083958
  0
ARC
  5
2FDC
  8
0
 10
2163.2262980158971
 20
1098.2003902823501
 30
0.0
 40
11.5
 50
270.0
 51
314.9985621055651
  0
LINE
  5
2FDD
  8
0
 10
2194.6500539897129
 20
1118.123146268415
 30
0.0
 11
2194.6500539897129
 21
1170.8772342962859
 31
0.0
  0
ARC
  5
2FDE
  8
0
 10
2183.1500539897129
 20
1118.123146268415
 30
0.0
 40
11.5
 50
314.99856210556749
 51
0.0
  0
LINE
  5
2FE0
  8
0
 10
2191.2815778970162
 20
1179.0091663511521
 30
0.0
 11
2171.3571218880638
 21
1198.932622337217
 31
0.0
  0
ARC
  5
2FE2
  8
0
 10
2135.2385619824968
 20
1198.6832985044589
 30
0.0
 40
8.4761999853395515
 50
25.262779399160411
 51
50.324874103418509
  0
ARC
  5
2FE3
  8
0
 10
2163.225597980761
 20
1190.8006902823499
 30
0.0
 40
11.5
 50
45.001437894432449
 51
89.999999999999204
  0
LINE
  5
2FE6
  8
0
 10
2378.6892832605931
 20
694.78276030044071
 30
0.0
 11
2378.6892832605949
 21
607.18246030044065
 31
0.0
  0
ARC
  5
2FE8
  8
0
 10
2364.6892832605949
 20
607.18246030044065
 30
0.0
 40
14.0
 50
270.0
 51
0.0
  0
ARC
  5
2FE9
  8
0
 10
2364.6892832605931
 20
694.78276030044071
 30
0.0
 40
14.0
 50
0.0
 51
90.0
  0
LINE
  5
323C
  8
0
 10
669.50445554930775
 20
733.23026462770713
 30
0.0
 11
764.50445554930775
 21
733.23026462770713
 31
0.0
  0
LINE
  5
323D
  8
0
 10
669.50445554930775
 20
747.23026462770713
 30
0.0
 11
669.50445554930775
 21
733.23026462770713
 31
0.0
  0
LINE
  5
323E
  8
0
 10
706.15445554930795
 20
717.38026462770722
 30
0.0
 11
727.85445554930766
 21
717.38026462770722
 31
0.0
  0
LINE
  5
323F
  8
0
 10
706.15445554930795
 20
725.23026462770713
 30
0.0
 11
727.85445554930766
 21
725.23026462770713
 31
0.0
  0
LINE
  5
3240
  8
0
 10
702.00445554930775
 20
713.23026462770713
 30
0.0
 11
732.00445554930775
 21
713.23026462770713
 31
0.0
  0
LINE
  5
3241
  8
0
 10
706.15445554930795
 20
725.23026462770713
 30
0.0
 11
706.15445554930795
 21
717.38026462770722
 31
0.0
  0
ARC
  5
3242
  8
0
 10
698.0340987730234
 20
729.23026462770713
 30
0.0
 40
4.0
 50
37.551282126177547
 51
90.0
  0
LINE
  5
3243
  8
0
 10
702.00445554930775
 20
713.23026462770713
 30
0.0
 11
702.00445554930775
 21
704.99796915554487
 31
0.0
  0
LINE
  5
3244
  8
0
 10
706.15445554930795
 20
725.23026462770713
 30
0.0
 11
701.20533139530426
 21
731.66814970608561
 31
0.0
  0
LINE
  5
3245
  8
0
 10
702.00445554930775
 20
713.23026462770713
 30
0.0
 11
706.15445554930795
 21
717.38026462770722
 31
0.0
  0
LINE
  5
3246
  8
0
 10
669.50445554930775
 20
747.23026462770713
 30
0.0
 11
717.00445554930775
 21
747.23026462770713
 31
0.0
  0
ARC
  5
3247
  8
0
 10
735.97481232559232
 20
729.23026462770713
 30
0.0
 40
4.0
 50
90.0
 51
142.4487178738224
  0
LINE
  5
3248
  8
0
 10
727.85445554930766
 20
725.23026462770713
 30
0.0
 11
732.80357970331136
 21
731.66814970608561
 31
0.0
  0
LINE
  5
3249
  8
0
 10
764.50445554930775
 20
747.23026462770713
 30
0.0
 11
764.50445554930775
 21
733.23026462770713
 31
0.0
  0
LINE
  5
324A
  8
0
 10
732.00445554930775
 20
713.23026462770713
 30
0.0
 11
732.00445554930775
 21
704.99796915554396
 31
0.0
  0
LINE
  5
324B
  8
0
 10
727.85445554930766
 20
725.23026462770713
 30
0.0
 11
727.85445554930766
 21
717.38026462770722
 31
0.0
  0
LINE
  5
324C
  8
0
 10
732.00445554930775
 20
713.23026462770713
 30
0.0
 11
727.85445554930766
 21
717.38026462770699
 31
0.0
  0
LINE
  5
324D
  8
0
 10
702.00445554930775
 20
579.22926462770965
 30
0.0
 11
732.00445554930775
 21
579.22926462770965
 31
0.0
  0
LINE
  5
324E
  8
0
 10
706.15445554930795
 20
567.22926462770965
 30
0.0
 11
727.85445554930766
 21
567.22926462770965
 31
0.0
  0
LINE
  5
324F
  8
0
 10
706.15445554930795
 20
575.07926462770945
 30
0.0
 11
727.85445554930766
 21
575.07926462770945
 31
0.0
  0
LINE
  5
3250
  8
0
 10
669.50445554930775
 20
559.22926462770965
 30
0.0
 11
764.50445554930775
 21
559.22926462770965
 31
0.0
  0
LINE
  5
3251
  8
0
 10
669.50445554930775
 20
545.22926462770965
 30
0.0
 11
669.50445554930775
 21
559.22926462770965
 31
0.0
  0
LINE
  5
3252
  8
0
 10
702.00445554930775
 20
579.22926462770965
 30
0.0
 11
702.00445554930775
 21
587.46156009987169
 31
0.0
  0
LINE
  5
3253
  8
0
 10
702.00445554930775
 20
579.22926462770965
 30
0.0
 11
706.15445554930795
 21
575.07926462770945
 31
0.0
  0
LINE
  5
3254
  8
0
 10
706.15445554930795
 20
567.22926462770965
 30
0.0
 11
701.20533139530426
 21
560.79137954933117
 31
0.0
  0
ARC
  5
3255
  8
0
 10
698.0340987730234
 20
563.22926462770965
 30
0.0
 40
4.0
 50
270.0
 51
322.44871787382249
  0
LINE
  5
3256
  8
0
 10
706.15445554930795
 20
567.22926462770965
 30
0.0
 11
706.15445554930795
 21
575.07926462770945
 31
0.0
  0
LINE
  5
3257
  8
0
 10
732.00445554930775
 20
579.22926462770965
 30
0.0
 11
732.00445554930775
 21
587.46156009987271
 31
0.0
  0
LINE
  5
3258
  8
0
 10
732.00445554930775
 20
579.22926462770965
 30
0.0
 11
727.85445554930766
 21
575.07926462770979
 31
0.0
  0
LINE
  5
3259
  8
0
 10
727.85445554930766
 20
567.22926462770965
 30
0.0
 11
727.85445554930766
 21
575.07926462770945
 31
0.0
  0
LINE
  5
325A
  8
0
 10
727.85445554930766
 20
567.22926462770965
 30
0.0
 11
732.80357970331136
 21
560.79137954933117
 31
0.0
  0
ARC
  5
325B
  8
0
 10
735.97481232559232
 20
563.22926462770965
 30
0.0
 40
4.0
 50
217.5512821261776
 51
270.0
  0
LINE
  5
325C
  8
0
 10
764.50445554930775
 20
545.22926462770965
 30
0.0
 11
764.50445554930775
 21
559.22926462770965
 31
0.0
  0
LINE
  5
325D
  8
0
 10
552.19903844496719
 20
713.23026462770713
 30
0.0
 11
582.1990384449673
 21
713.23026462770713
 31
0.0
  0
LINE
  5
325E
  8
0
 10
556.34903844496728
 20
725.23026462770713
 30
0.0
 11
578.04903844496721
 21
725.23026462770713
 31
0.0
  0
LINE
  5
325F
  8
0
 10
556.34903844496728
 20
717.38026462770722
 30
0.0
 11
578.04903844496721
 21
717.38026462770722
 31
0.0
  0
LINE
  5
3260
  8
0
 10
519.6990384449673
 20
733.23026462770713
 30
0.0
 11
614.69903844496719
 21
733.23026462770713
 31
0.0
  0
LINE
  5
3261
  8
0
 10
519.6990384449673
 20
747.23026462770713
 30
0.0
 11
519.6990384449673
 21
733.23026462770713
 31
0.0
  0
LINE
  5
3262
  8
0
 10
552.19903844496719
 20
713.23026462770713
 30
0.0
 11
552.19903844496719
 21
704.99796915554487
 31
0.0
  0
LINE
  5
3263
  8
0
 10
552.19903844496719
 20
713.23026462770713
 30
0.0
 11
556.34903844496728
 21
717.38026462770722
 31
0.0
  0
LINE
  5
3264
  8
0
 10
556.34903844496728
 20
725.23026462770713
 30
0.0
 11
551.39991429096369
 21
731.66814970608561
 31
0.0
  0
ARC
  5
3265
  8
0
 10
548.22868166868284
 20
729.23026462770713
 30
0.0
 40
4.0
 50
37.551282126177547
 51
90.0
  0
LINE
  5
3266
  8
0
 10
556.34903844496728
 20
725.23026462770713
 30
0.0
 11
556.34903844496728
 21
717.38026462770722
 31
0.0
  0
LINE
  5
3267
  8
0
 10
582.1990384449673
 20
713.23026462770713
 30
0.0
 11
582.19903844496707
 21
704.99796915554396
 31
0.0
  0
LINE
  5
3268
  8
0
 10
582.1990384449673
 20
713.23026462770713
 30
0.0
 11
578.04903844496721
 21
717.38026462770699
 31
0.0
  0
LINE
  5
3269
  8
0
 10
578.04903844496721
 20
725.23026462770713
 30
0.0
 11
578.04903844496721
 21
717.38026462770722
 31
0.0
  0
LINE
  5
326A
  8
0
 10
578.04903844496721
 20
725.23026462770713
 30
0.0
 11
582.99816259897079
 21
731.66814970608561
 31
0.0
  0
ARC
  5
326B
  8
0
 10
586.16939522125165
 20
729.23026462770713
 30
0.0
 40
4.0
 50
90.0
 51
142.4487178738224
  0
LINE
  5
326C
  8
0
 10
614.69903844496719
 20
747.23026462770713
 30
0.0
 11
614.69903844496719
 21
733.23026462770713
 31
0.0
  0
LINE
  5
326D
  8
0
 10
519.6990384449673
 20
559.22926462770965
 30
0.0
 11
614.69903844496719
 21
559.22926462770965
 31
0.0
  0
LINE
  5
326E
  8
0
 10
556.34903844496728
 20
575.07926462770945
 30
0.0
 11
578.04903844496721
 21
575.07926462770945
 31
0.0
  0
LINE
  5
326F
  8
0
 10
556.34903844496728
 20
567.22926462770965
 30
0.0
 11
578.04903844496721
 21
567.22926462770965
 31
0.0
  0
LINE
  5
3270
  8
0
 10
552.19903844496719
 20
579.22926462770965
 30
0.0
 11
582.1990384449673
 21
579.22926462770965
 31
0.0
  0
LINE
  5
3271
  8
0
 10
519.6990384449673
 20
545.22926462770965
 30
0.0
 11
519.6990384449673
 21
559.22926462770965
 31
0.0
  0
LINE
  5
3272
  8
0
 10
556.34903844496728
 20
567.22926462770965
 30
0.0
 11
556.34903844496728
 21
575.07926462770945
 31
0.0
  0
ARC
  5
3273
  8
0
 10
548.22868166868284
 20
563.22926462770965
 30
0.0
 40
4.0
 50
270.0
 51
322.44871787382249
  0
LINE
  5
3274
  8
0
 10
556.34903844496728
 20
567.22926462770965
 30
0.0
 11
551.39991429096369
 21
560.79137954933117
 31
0.0
  0
LINE
  5
3275
  8
0
 10
552.19903844496719
 20
579.22926462770965
 30
0.0
 11
556.34903844496728
 21
575.07926462770945
 31
0.0
  0
LINE
  5
3276
  8
0
 10
552.19903844496719
 20
579.22926462770965
 30
0.0
 11
552.19903844496719
 21
587.46156009987169
 31
0.0
  0
LINE
  5
3277
  8
0
 10
614.69903844496719
 20
545.22926462770965
 30
0.0
 11
614.69903844496719
 21
559.22926462770965
 31
0.0
  0
ARC
  5
3278
  8
0
 10
586.16939522125165
 20
563.22926462770965
 30
0.0
 40
4.0
 50
217.5512821261776
 51
270.0
  0
LINE
  5
3279
  8
0
 10
578.04903844496721
 20
567.22926462770965
 30
0.0
 11
582.99816259897079
 21
560.79137954933117
 31
0.0
  0
LINE
  5
327A
  8
0
 10
578.04903844496721
 20
567.22926462770965
 30
0.0
 11
578.04903844496721
 21
575.07926462770945
 31
0.0
  0
LINE
  5
327B
  8
0
 10
582.1990384449673
 20
579.22926462770965
 30
0.0
 11
578.04903844496721
 21
575.07926462770979
 31
0.0
  0
LINE
  5
327C
  8
0
 10
582.1990384449673
 20
579.22926462770965
 30
0.0
 11
582.19903844496707
 21
587.46156009987271
 31
0.0
  0
LINE
  5
327D
  8
0
 10
384.13196214061458
 20
713.23026462770713
 30
0.0
 11
414.13196214061458
 21
713.23026462770713
 31
0.0
  0
LINE
  5
327E
  8
0
 10
388.28196214061472
 20
725.23026462770713
 30
0.0
 11
409.98196214061448
 21
725.23026462770713
 31
0.0
  0
LINE
  5
327F
  8
0
 10
388.28196214061472
 20
717.38026462770722
 30
0.0
 11
409.98196214061448
 21
717.38026462770722
 31
0.0
  0
LINE
  5
3280
  8
0
 10
351.63196214061458
 20
733.23026462770713
 30
0.0
 11
446.63196214061458
 21
733.23026462770713
 31
0.0
  0
LINE
  5
3281
  8
0
 10
351.63196214061458
 20
747.23026462770713
 30
0.0
 11
351.63196214061458
 21
733.23026462770713
 31
0.0
  0
LINE
  5
3282
  8
0
 10
384.13196214061458
 20
713.23026462770713
 30
0.0
 11
384.13196214061458
 21
704.99796915554487
 31
0.0
  0
LINE
  5
3283
  8
0
 10
384.13196214061458
 20
713.23026462770713
 30
0.0
 11
388.28196214061472
 21
717.38026462770722
 31
0.0
  0
LINE
  5
3284
  8
0
 10
388.28196214061472
 20
725.23026462770713
 30
0.0
 11
383.33283798661108
 21
731.66814970608561
 31
0.0
  0
ARC
  5
3285
  8
0
 10
380.16160536433023
 20
729.23026462770713
 30
0.0
 40
4.0
 50
37.551282126177547
 51
90.0
  0
LINE
  5
3286
  8
0
 10
388.28196214061472
 20
725.23026462770713
 30
0.0
 11
388.28196214061472
 21
717.38026462770722
 31
0.0
  0
LINE
  5
3287
  8
0
 10
414.13196214061458
 20
713.23026462770713
 30
0.0
 11
414.13196214061452
 21
704.99796915554396
 31
0.0
  0
LINE
  5
3288
  8
0
 10
414.13196214061458
 20
713.23026462770713
 30
0.0
 11
409.98196214061448
 21
717.38026462770699
 31
0.0
  0
LINE
  5
3289
  8
0
 10
409.98196214061448
 20
725.23026462770713
 30
0.0
 11
409.98196214061448
 21
717.38026462770722
 31
0.0
  0
LINE
  5
328A
  8
0
 10
409.98196214061448
 20
725.23026462770713
 30
0.0
 11
414.93108629461813
 21
731.66814970608561
 31
0.0
  0
ARC
  5
328B
  8
0
 10
418.10231891689909
 20
729.23026462770713
 30
0.0
 40
4.0
 50
90.0
 51
142.4487178738224
  0
LINE
  5
328C
  8
0
 10
446.63196214061458
 20
747.23026462770713
 30
0.0
 11
446.63196214061458
 21
733.23026462770713
 31
0.0
  0
LINE
  5
328D
  8
0
 10
351.63196214061458
 20
559.22926462770965
 30
0.0
 11
446.63196214061458
 21
559.22926462770965
 31
0.0
  0
LINE
  5
328E
  8
0
 10
388.28196214061472
 20
575.07926462770945
 30
0.0
 11
409.98196214061448
 21
575.07926462770945
 31
0.0
  0
LINE
  5
328F
  8
0
 10
388.28196214061472
 20
567.22926462770965
 30
0.0
 11
409.98196214061448
 21
567.22926462770965
 31
0.0
  0
LINE
  5
3290
  8
0
 10
384.13196214061458
 20
579.22926462770965
 30
0.0
 11
414.13196214061458
 21
579.22926462770965
 31
0.0
  0
LINE
  5
3291
  8
0
 10
351.63196214061458
 20
545.22926462770965
 30
0.0
 11
351.63196214061458
 21
559.22926462770965
 31
0.0
  0
LINE
  5
3292
  8
0
 10
388.28196214061472
 20
567.22926462770965
 30
0.0
 11
388.28196214061472
 21
575.07926462770945
 31
0.0
  0
ARC
  5
3293
  8
0
 10
380.16160536433023
 20
563.22926462770965
 30
0.0
 40
4.0
 50
270.0
 51
322.44871787382249
  0
LINE
  5
3294
  8
0
 10
388.28196214061472
 20
567.22926462770965
 30
0.0
 11
383.33283798661108
 21
560.79137954933117
 31
0.0
  0
LINE
  5
3295
  8
0
 10
384.13196214061458
 20
579.22926462770965
 30
0.0
 11
388.28196214061472
 21
575.07926462770945
 31
0.0
  0
LINE
  5
3296
  8
0
 10
384.13196214061458
 20
579.22926462770965
 30
0.0
 11
384.13196214061458
 21
587.46156009987169
 31
0.0
  0
LINE
  5
3297
  8
0
 10
446.63196214061458
 20
545.22926462770965
 30
0.0
 11
446.63196214061458
 21
559.22926462770965
 31
0.0
  0
ARC
  5
3298
  8
0
 10
418.10231891689909
 20
563.22926462770965
 30
0.0
 40
4.0
 50
217.5512821261776
 51
270.0
  0
LINE
  5
3299
  8
0
 10
409.98196214061448
 20
567.22926462770965
 30
0.0
 11
414.93108629461813
 21
560.79137954933117
 31
0.0
  0
LINE
  5
329A
  8
0
 10
409.98196214061448
 20
567.22926462770965
 30
0.0
 11
409.98196214061448
 21
575.07926462770945
 31
0.0
  0
LINE
  5
329B
  8
0
 10
414.13196214061458
 20
579.22926462770965
 30
0.0
 11
409.98196214061448
 21
575.07926462770979
 31
0.0
  0
LINE
  5
329C
  8
0
 10
414.13196214061458
 20
579.22926462770965
 30
0.0
 11
414.13196214061452
 21
587.46156009987271
 31
0.0
  0
LINE
  5
32EE
  8
0
 10
519.6990384449673
 20
1224.778833775521
 30
0.0
 11
614.69903844496719
 21
1224.778833775521
 31
0.0
  0
LINE
  5
32EF
  8
0
 10
567.1990384449673
 20
1238.778833775521
 30
0.0
 11
614.69903844496719
 21
1238.778833775521
 31
0.0
  0
LINE
  5
32F0
  8
0
 10
552.19903844496719
 20
1204.778833775521
 30
0.0
 11
582.1990384449673
 21
1204.778833775521
 31
0.0
  0
LINE
  5
32F1
  8
0
 10
578.04903844496721
 20
1216.778833775521
 30
0.0
 11
582.99816259897079
 21
1223.2167188538999
 31
0.0
  0
LINE
  5
32F2
  8
0
 10
582.1990384449673
 20
1204.778833775521
 30
0.0
 11
578.04903844496721
 21
1208.9288337755211
 31
0.0
  0
LINE
  5
32F3
  8
0
 10
578.04903844496721
 20
1216.778833775521
 30
0.0
 11
578.04903844496721
 21
1208.9288337755211
 31
0.0
  0
LINE
  5
32F4
  8
0
 10
556.34903844496728
 20
1208.9288337755211
 30
0.0
 11
578.04903844496721
 21
1208.9288337755211
 31
0.0
  0
LINE
  5
32F5
  8
0
 10
556.34903844496728
 20
1216.778833775521
 30
0.0
 11
578.04903844496721
 21
1216.778833775521
 31
0.0
  0
ARC
  5
32F6
  8
0
 10
586.16939522125165
 20
1220.778833775521
 30
0.0
 40
4.0
 50
90.0
 51
142.4487178738224
  0
LINE
  5
32F7
  8
0
 10
582.1990384449673
 20
1204.778833775521
 30
0.0
 11
582.1990384449673
 21
1196.5465383033579
 31
0.0
  0
LINE
  5
32F8
  8
0
 10
614.69903844496719
 20
1238.778833775521
 30
0.0
 11
614.69903844496719
 21
1224.778833775521
 31
0.0
  0
LINE
  5
32F9
  8
0
 10
556.34903844496728
 20
1216.778833775521
 30
0.0
 11
551.39991429096369
 21
1223.2167188538999
 31
0.0
  0
LINE
  5
32FA
  8
0
 10
552.19903844496719
 20
1204.778833775521
 30
0.0
 11
556.34903844496728
 21
1208.9288337755211
 31
0.0
  0
LINE
  5
32FB
  8
0
 10
552.19903844496719
 20
1204.778833775521
 30
0.0
 11
552.19903844496719
 21
1196.5465383033591
 31
0.0
  0
LINE
  5
32FC
  8
0
 10
556.34903844496728
 20
1216.778833775521
 30
0.0
 11
556.34903844496728
 21
1208.9288337755211
 31
0.0
  0
LINE
  5
32FD
  8
0
 10
614.69903844496719
 20
1036.777833775524
 30
0.0
 11
614.69903844496719
 21
1050.777833775524
 31
0.0
  0
LINE
  5
32FE
  8
0
 10
519.6990384449673
 20
1036.777833775524
 30
0.0
 11
519.6990384449673
 21
1050.777833775524
 31
0.0
  0
LINE
  5
32FF
  8
0
 10
567.1990384449673
 20
1036.777833775524
 30
0.0
 11
614.69903844496719
 21
1036.777833775524
 31
0.0
  0
LINE
  5
3300
  8
0
 10
519.6990384449673
 20
1036.777833775524
 30
0.0
 11
567.1990384449673
 21
1036.777833775524
 31
0.0
  0
LINE
  5
3301
  8
0
 10
519.6990384449673
 20
1050.777833775524
 30
0.0
 11
614.69903844496719
 21
1050.777833775524
 31
0.0
  0
LINE
  5
3302
  8
0
 10
552.19903844496719
 20
1070.777833775524
 30
0.0
 11
556.34903844496728
 21
1066.6278337755241
 31
0.0
  0
LINE
  5
3303
  8
0
 10
556.34903844496728
 20
1058.777833775524
 30
0.0
 11
551.39991429096369
 21
1052.339948697145
 31
0.0
  0
LINE
  5
3304
  8
0
 10
552.19903844496719
 20
1070.777833775524
 30
0.0
 11
582.1990384449673
 21
1070.777833775524
 31
0.0
  0
LINE
  5
3305
  8
0
 10
552.19903844496719
 20
1070.777833775524
 30
0.0
 11
552.19903844496719
 21
1079.0101292476861
 31
0.0
  0
ARC
  5
3306
  8
0
 10
548.22868166868284
 20
1054.777833775524
 30
0.0
 40
4.0
 50
270.0
 51
322.44871787382249
  0
LINE
  5
3307
  8
0
 10
582.1990384449673
 20
1070.777833775524
 30
0.0
 11
578.04903844496721
 21
1066.6278337755241
 31
0.0
  0
LINE
  5
3308
  8
0
 10
578.04903844496721
 20
1058.777833775524
 30
0.0
 11
582.99816259897079
 21
1052.339948697145
 31
0.0
  0
LINE
  5
3309
  8
0
 10
578.04903844496721
 20
1058.777833775524
 30
0.0
 11
578.04903844496721
 21
1066.6278337755241
 31
0.0
  0
LINE
  5
330A
  8
0
 10
556.34903844496728
 20
1058.777833775524
 30
0.0
 11
556.34903844496728
 21
1066.6278337755241
 31
0.0
  0
LINE
  5
330B
  8
0
 10
556.34903844496728
 20
1058.777833775524
 30
0.0
 11
578.04903844496721
 21
1058.777833775524
 31
0.0
  0
LINE
  5
330C
  8
0
 10
556.34903844496728
 20
1066.6278337755241
 30
0.0
 11
578.04903844496721
 21
1066.6278337755241
 31
0.0
  0
LINE
  5
330D
  8
0
 10
582.1990384449673
 20
1070.777833775524
 30
0.0
 11
582.1990384449673
 21
1079.010129247687
 31
0.0
  0
ARC
  5
330E
  8
0
 10
586.16939522125165
 20
1054.777833775524
 30
0.0
 40
4.0
 50
217.5512821261776
 51
270.0
  0
LINE
  5
330F
  8
0
 10
519.6990384449673
 20
1238.778833775521
 30
0.0
 11
519.6990384449673
 21
1224.778833775521
 31
0.0
  0
ARC
  5
3310
  8
0
 10
548.22868166868284
 20
1220.778833775521
 30
0.0
 40
4.0
 50
37.551282126177561
 51
90.0
  0
LINE
  5
3381
  8
0
 10
1292.9075988239069
 20
749.88875470056564
 30
0.0
 11
1392.9075988239069
 21
749.88875470056564
 31
0.0
  0
LINE
  5
3382
  8
0
 10
1327.9075988239069
 20
723.88875470056564
 30
0.0
 11
1357.9075988239069
 21
723.88875470056325
 31
0.0
  0
LINE
  5
3383
  8
0
 10
1329.307598823907
 20
725.28875470056573
 30
0.0
 11
1356.5075988239071
 21
725.28875470056573
 31
0.0
  0
LINE
  5
3384
  8
0
 10
1329.307598823907
 20
739.88875470056564
 30
0.0
 11
1356.5075988239071
 21
739.88875470056564
 31
0.0
  0
LINE
  5
3385
  8
0
 10
1327.9075988239069
 20
714.12984065794035
 30
0.0
 11
1327.9075988239069
 21
723.88875470056564
 31
0.0
  0
LINE
  5
3386
  8
0
 10
1292.9075988239069
 20
749.88875470056564
 30
0.0
 11
1292.9075988239069
 21
765.88875470056564
 31
0.0
  0
ARC
  5
3387
  8
0
 10
1320.7185357584169
 20
745.88875470056564
 30
0.0
 40
4.0
 50
32.619243071192969
 51
90.0
  0
LINE
  5
3388
  8
0
 10
1329.307598823907
 20
725.28875470056573
 30
0.0
 11
1329.307598823907
 21
739.88875470056564
 31
0.0
  0
LINE
  5
3389
  8
0
 10
1327.9075988239069
 20
723.88875470056564
 30
0.0
 11
1329.307598823907
 21
725.28875470056573
 31
0.0
  0
LINE
  5
338A
  8
0
 10
1324.0876213610629
 20
748.04496948625911
 30
0.0
 11
1329.307598823907
 21
739.88875470056564
 31
0.0
  0
LINE
  5
338B
  8
0
 10
1357.9075988239069
 20
714.12984065794035
 30
0.0
 11
1357.9075988239069
 21
723.88875470056564
 31
0.0
  0
ARC
  5
338C
  8
0
 10
1365.096661889397
 20
745.88875470056564
 30
0.0
 40
4.0
 50
90.0
 51
147.38075692880699
  0
LINE
  5
338D
  8
0
 10
1356.5075988239071
 20
725.28875470056573
 30
0.0
 11
1356.5075988239071
 21
739.88875470056564
 31
0.0
  0
LINE
  5
338E
  8
0
 10
1357.9075988239069
 20
723.88875470056564
 30
0.0
 11
1356.5075988239071
 21
725.28875470056573
 31
0.0
  0
LINE
  5
338F
  8
0
 10
1361.7275762867509
 20
748.04496948625911
 30
0.0
 11
1356.5075988239071
 21
739.88875470056564
 31
0.0
  0
LINE
  5
3390
  8
0
 10
1392.9075988239069
 20
749.88875470056564
 30
0.0
 11
1392.9075988239069
 21
765.88875470056564
 31
0.0
  0
LINE
  5
3392
  8
0
 10
1532.4351880481461
 20
714.12984065794035
 30
0.0
 11
1532.4351880481461
 21
723.88875470056564
 31
0.0
  0
LINE
  5
3393
  8
0
 10
1502.4351880481461
 20
714.12984065794035
 30
0.0
 11
1502.4351880481461
 21
723.88875470056564
 31
0.0
  0
LINE
  5
3394
  8
0
 10
1532.4351880481461
 20
714.12984065794035
 30
0.0
 11
1502.4351880481461
 21
714.12984065794035
 31
0.0
  0
LINE
  5
3395
  8
0
 10
1502.4351880481461
 20
714.12984065794035
 30
0.0
 11
1501.097624139627
 21
712.68875470056582
 31
0.0
  0
LINE
  5
3396
  8
0
 10
1532.4351880481461
 20
714.12984065794035
 30
0.0
 11
1533.7727519566649
 21
712.68875470056582
 31
0.0
  0
LINE
  5
3397
  8
0
 10
1503.8351880481459
 20
739.88875470056564
 30
0.0
 11
1531.035188048146
 21
739.88875470056564
 31
0.0
  0
LINE
  5
3398
  8
0
 10
1503.8351880481459
 20
725.28875470056573
 30
0.0
 11
1531.035188048146
 21
725.28875470056573
 31
0.0
  0
LINE
  5
3399
  8
0
 10
1502.4351880481461
 20
723.88875470056564
 30
0.0
 11
1532.4351880481461
 21
723.88875470056325
 31
0.0
  0
LINE
  5
339A
  8
0
 10
1467.4351880481461
 20
749.88875470056564
 30
0.0
 11
1567.4351880481461
 21
749.88875470056564
 31
0.0
  0
LINE
  5
339B
  8
0
 10
1467.4351880481461
 20
749.88875470056564
 30
0.0
 11
1467.4351880481461
 21
765.88875470056564
 31
0.0
  0
LINE
  5
339C
  8
0
 10
1498.6152105853021
 20
748.04496948625911
 30
0.0
 11
1503.8351880481459
 21
739.88875470056564
 31
0.0
  0
LINE
  5
339D
  8
0
 10
1502.4351880481461
 20
723.88875470056564
 30
0.0
 11
1503.8351880481459
 21
725.28875470056573
 31
0.0
  0
LINE
  5
339E
  8
0
 10
1503.8351880481459
 20
725.28875470056573
 30
0.0
 11
1503.8351880481459
 21
739.88875470056564
 31
0.0
  0
ARC
  5
339F
  8
0
 10
1495.2461249826561
 20
745.88875470056564
 30
0.0
 40
4.0
 50
32.619243071192969
 51
90.0
  0
LINE
  5
33A0
  8
0
 10
1536.2551655109901
 20
748.04496948625911
 30
0.0
 11
1531.035188048146
 21
739.88875470056564
 31
0.0
  0
LINE
  5
33A1
  8
0
 10
1532.4351880481461
 20
723.88875470056564
 30
0.0
 11
1531.035188048146
 21
725.28875470056573
 31
0.0
  0
LINE
  5
33A2
  8
0
 10
1531.035188048146
 20
725.28875470056573
 30
0.0
 11
1531.035188048146
 21
739.88875470056564
 31
0.0
  0
ARC
  5
33A3
  8
0
 10
1539.6242511136361
 20
745.88875470056564
 30
0.0
 40
4.0
 50
90.0
 51
147.38075692880699
  0
LINE
  5
33A4
  8
0
 10
1567.4351880481461
 20
749.88875470056564
 30
0.0
 11
1567.4351880481461
 21
765.88875470056564
 31
0.0
  0
LINE
  5
33A5
  8
0
 10
1502.4351880481461
 20
595.64666874319073
 30
0.0
 11
1502.4351880481461
 21
585.88775470056544
 31
0.0
  0
LINE
  5
33A6
  8
0
 10
1532.4351880481461
 20
595.64666874319073
 30
0.0
 11
1532.4351880481461
 21
585.88775470056544
 31
0.0
  0
LINE
  5
33A7
  8
0
 10
1532.4351880481461
 20
595.64666874319073
 30
0.0
 11
1502.4351880481461
 21
595.64666874319073
 31
0.0
  0
LINE
  5
33A8
  8
0
 10
1502.4351880481461
 20
595.64666874319073
 30
0.0
 11
1501.097624139627
 21
597.08775470056526
 31
0.0
  0
LINE
  5
33A9
  8
0
 10
1532.4351880481461
 20
595.64666874319073
 30
0.0
 11
1533.7727519566649
 21
597.08775470056526
 31
0.0
  0
LINE
  5
33AA
  8
0
 10
1467.4351880481461
 20
559.88775470056544
 30
0.0
 11
1567.4351880481461
 21
559.88775470056544
 31
0.0
  0
LINE
  5
33AB
  8
0
 10
1502.4351880481461
 20
585.88775470056544
 30
0.0
 11
1532.4351880481461
 21
585.8877547005676
 31
0.0
  0
LINE
  5
33AC
  8
0
 10
1503.8351880481459
 20
584.48775470056535
 30
0.0
 11
1531.035188048146
 21
584.48775470056535
 31
0.0
  0
LINE
  5
33AD
  8
0
 10
1503.8351880481459
 20
569.88775470056544
 30
0.0
 11
1531.035188048146
 21
569.88775470056544
 31
0.0
  0
LINE
  5
33AE
  8
0
 10
1467.4351880481461
 20
559.88775470056544
 30
0.0
 11
1467.4351880481461
 21
543.88775470056544
 31
0.0
  0
ARC
  5
33AF
  8
0
 10
1495.2461249826561
 20
563.88775470056544
 30
0.0
 40
4.0
 50
270.0
 51
327.3807569288071
  0
LINE
  5
33B0
  8
0
 10
1503.8351880481459
 20
584.48775470056535
 30
0.0
 11
1503.8351880481459
 21
569.88775470056544
 31
0.0
  0
LINE
  5
33B1
  8
0
 10
1502.4351880481461
 20
585.88775470056544
 30
0.0
 11
1503.8351880481459
 21
584.48775470056535
 31
0.0
  0
LINE
  5
33B2
  8
0
 10
1498.6152105853021
 20
561.73153991487186
 30
0.0
 11
1503.8351880481459
 21
569.88775470056544
 31
0.0
  0
ARC
  5
33B3
  8
0
 10
1539.6242511136361
 20
563.88775470056544
 30
0.0
 40
4.0
 50
212.61924307119301
 51
270.0
  0
LINE
  5
33B4
  8
0
 10
1531.035188048146
 20
584.48775470056535
 30
0.0
 11
1531.035188048146
 21
569.88775470056544
 31
0.0
  0
LINE
  5
33B5
  8
0
 10
1532.4351880481461
 20
585.88775470056544
 30
0.0
 11
1531.035188048146
 21
584.48775470056535
 31
0.0
  0
LINE
  5
33B6
  8
0
 10
1536.2551655109901
 20
561.73153991487186
 30
0.0
 11
1531.035188048146
 21
569.88775470056544
 31
0.0
  0
LINE
  5
33B7
  8
0
 10
1567.4351880481461
 20
559.88775470056544
 30
0.0
 11
1567.4351880481461
 21
543.88775470056544
 31
0.0
  0
LINE
  5
33B8
  8
0
 10
1329.307598823907
 20
569.88775470056544
 30
0.0
 11
1356.5075988239071
 21
569.88775470056544
 31
0.0
  0
LINE
  5
33B9
  8
0
 10
1329.307598823907
 20
584.48775470056535
 30
0.0
 11
1356.5075988239071
 21
584.48775470056535
 31
0.0
  0
LINE
  5
33BA
  8
0
 10
1327.9075988239069
 20
585.88775470056544
 30
0.0
 11
1357.9075988239069
 21
585.8877547005676
 31
0.0
  0
LINE
  5
33BB
  8
0
 10
1292.9075988239069
 20
559.88775470056544
 30
0.0
 11
1392.9075988239069
 21
559.88775470056544
 31
0.0
  0
LINE
  5
33BC
  8
0
 10
1357.9075988239069
 20
595.64666874319073
 30
0.0
 11
1327.9075988239069
 21
595.64666874319073
 31
0.0
  0
LINE
  5
33BD
  8
0
 10
1327.9075988239069
 20
595.64666874319073
 30
0.0
 11
1327.9075988239069
 21
585.88775470056544
 31
0.0
  0
LINE
  5
33BE
  8
0
 10
1292.9075988239069
 20
559.88775470056544
 30
0.0
 11
1292.9075988239069
 21
543.88775470056544
 31
0.0
  0
LINE
  5
33BF
  8
0
 10
1324.0876213610629
 20
561.73153991487186
 30
0.0
 11
1329.307598823907
 21
569.88775470056544
 31
0.0
  0
LINE
  5
33C0
  8
0
 10
1327.9075988239069
 20
585.88775470056544
 30
0.0
 11
1329.307598823907
 21
584.48775470056535
 31
0.0
  0
LINE
  5
33C1
  8
0
 10
1329.307598823907
 20
584.48775470056535
 30
0.0
 11
1329.307598823907
 21
569.88775470056544
 31
0.0
  0
ARC
  5
33C2
  8
0
 10
1320.7185357584169
 20
563.88775470056544
 30
0.0
 40
4.0
 50
270.0
 51
327.3807569288071
  0
LINE
  5
33C3
  8
0
 10
1327.9075988239069
 20
595.64666874319073
 30
0.0
 11
1326.5700349153881
 21
597.08775470056526
 31
0.0
  0
LINE
  5
33C4
  8
0
 10
1357.9075988239069
 20
595.64666874319073
 30
0.0
 11
1357.9075988239069
 21
585.88775470056544
 31
0.0
  0
LINE
  5
33C5
  8
0
 10
1361.7275762867509
 20
561.73153991487186
 30
0.0
 11
1356.5075988239071
 21
569.88775470056544
 31
0.0
  0
LINE
  5
33C6
  8
0
 10
1357.9075988239069
 20
585.88775470056544
 30
0.0
 11
1356.5075988239071
 21
584.48775470056535
 31
0.0
  0
LINE
  5
33C7
  8
0
 10
1356.5075988239071
 20
584.48775470056535
 30
0.0
 11
1356.5075988239071
 21
569.88775470056544
 31
0.0
  0
ARC
  5
33C8
  8
0
 10
1365.096661889397
 20
563.88775470056544
 30
0.0
 40
4.0
 50
212.61924307119301
 51
270.0
  0
LINE
  5
33C9
  8
0
 10
1392.9075988239069
 20
559.88775470056544
 30
0.0
 11
1392.9075988239069
 21
543.88775470056544
 31
0.0
  0
LINE
  5
33CA
  8
0
 10
1357.9075988239069
 20
595.64666874319073
 30
0.0
 11
1359.245162732426
 21
597.08775470056526
 31
0.0
  0
LINE
  5
33CB
  8
0
 10
1189.6908917037531
 20
714.12984065794035
 30
0.0
 11
1189.690891703752
 21
723.88875470056564
 31
0.0
  0
LINE
  5
33CC
  8
0
 10
1159.6908917037531
 20
714.12984065794035
 30
0.0
 11
1159.690891703752
 21
723.88875470056564
 31
0.0
  0
LINE
  5
33CD
  8
0
 10
1189.690891703752
 20
714.12984065794035
 30
0.0
 11
1159.690891703752
 21
714.12984065794035
 31
0.0
  0
LINE
  5
33CE
  8
0
 10
1159.690891703752
 20
714.12984065794035
 30
0.0
 11
1158.353327795234
 21
712.68875470056582
 31
0.0
  0
LINE
  5
33CF
  8
0
 10
1189.690891703752
 20
714.12984065794035
 30
0.0
 11
1191.028455612271
 21
712.68875470056582
 31
0.0
  0
LINE
  5
33D0
  8
0
 10
1161.090891703753
 20
739.88875470056564
 30
0.0
 11
1188.2908917037521
 21
739.88875470056564
 31
0.0
  0
LINE
  5
33D1
  8
0
 10
1161.090891703753
 20
725.28875470056573
 30
0.0
 11
1188.2908917037521
 21
725.28875470056573
 31
0.0
  0
LINE
  5
33D2
  8
0
 10
1159.690891703752
 20
723.88875470056564
 30
0.0
 11
1189.690891703752
 21
723.88875470056325
 31
0.0
  0
LINE
  5
33D3
  8
0
 10
1124.690891703752
 20
749.88875470056564
 30
0.0
 11
1224.690891703752
 21
749.88875470056564
 31
0.0
  0
LINE
  5
33D4
  8
0
 10
1124.690891703752
 20
749.88875470056564
 30
0.0
 11
1124.690891703752
 21
765.88875470056564
 31
0.0
  0
LINE
  5
33D5
  8
0
 10
1155.8709142409091
 20
748.04496948625911
 30
0.0
 11
1161.090891703753
 21
739.88875470056564
 31
0.0
  0
LINE
  5
33D6
  8
0
 10
1159.690891703752
 20
723.88875470056564
 30
0.0
 11
1161.090891703753
 21
725.28875470056573
 31
0.0
  0
LINE
  5
33D7
  8
0
 10
1161.090891703753
 20
725.28875470056573
 30
0.0
 11
1161.090891703753
 21
739.88875470056564
 31
0.0
  0
ARC
  5
33D8
  8
0
 10
1152.5018286382631
 20
745.88875470056564
 30
0.0
 40
4.0
 50
32.619243071192969
 51
90.0
  0
LINE
  5
33D9
  8
0
 10
1193.510869166596
 20
748.04496948625911
 30
0.0
 11
1188.2908917037521
 21
739.88875470056564
 31
0.0
  0
LINE
  5
33DA
  8
0
 10
1189.690891703752
 20
723.88875470056564
 30
0.0
 11
1188.2908917037521
 21
725.28875470056573
 31
0.0
  0
LINE
  5
33DB
  8
0
 10
1188.2908917037521
 20
725.28875470056573
 30
0.0
 11
1188.2908917037521
 21
739.88875470056564
 31
0.0
  0
ARC
  5
33DC
  8
0
 10
1196.879954769242
 20
745.88875470056564
 30
0.0
 40
4.0
 50
90.0
 51
147.38075692880699
  0
LINE
  5
33DD
  8
0
 10
1224.690891703752
 20
749.88875470056564
 30
0.0
 11
1224.690891703752
 21
765.88875470056564
 31
0.0
  0
LINE
  5
33DE
  8
0
 10
1189.690891703752
 20
595.64666874319073
 30
0.0
 11
1159.690891703752
 21
595.64666874319073
 31
0.0
  0
LINE
  5
33DF
  8
0
 10
1124.690891703752
 20
559.88775470056544
 30
0.0
 11
1224.690891703752
 21
559.88775470056544
 31
0.0
  0
LINE
  5
33E0
  8
0
 10
1159.690891703752
 20
585.88775470056544
 30
0.0
 11
1189.690891703752
 21
585.8877547005676
 31
0.0
  0
LINE
  5
33E1
  8
0
 10
1161.090891703753
 20
584.48775470056535
 30
0.0
 11
1188.2908917037521
 21
584.48775470056535
 31
0.0
  0
LINE
  5
33E2
  8
0
 10
1161.090891703753
 20
569.88775470056544
 30
0.0
 11
1188.2908917037521
 21
569.88775470056544
 31
0.0
  0
LINE
  5
33E3
  8
0
 10
1159.6908917037531
 20
595.64666874319073
 30
0.0
 11
1159.690891703752
 21
585.88775470056544
 31
0.0
  0
LINE
  5
33E4
  8
0
 10
1124.690891703752
 20
559.88775470056544
 30
0.0
 11
1124.690891703752
 21
543.88775470056544
 31
0.0
  0
ARC
  5
33E5
  8
0
 10
1152.5018286382631
 20
563.88775470056544
 30
0.0
 40
4.0
 50
270.0
 51
327.3807569288071
  0
LINE
  5
33E6
  8
0
 10
1161.090891703753
 20
584.48775470056535
 30
0.0
 11
1161.090891703753
 21
569.88775470056544
 31
0.0
  0
LINE
  5
33E7
  8
0
 10
1159.690891703752
 20
585.88775470056544
 30
0.0
 11
1161.090891703753
 21
584.48775470056535
 31
0.0
  0
LINE
  5
33E8
  8
0
 10
1155.8709142409091
 20
561.73153991487186
 30
0.0
 11
1161.090891703753
 21
569.88775470056544
 31
0.0
  0
LINE
  5
33E9
  8
0
 10
1159.690891703752
 20
595.64666874319073
 30
0.0
 11
1158.353327795234
 21
597.08775470056526
 31
0.0
  0
LINE
  5
33EA
  8
0
 10
1189.6908917037531
 20
595.64666874319073
 30
0.0
 11
1189.690891703752
 21
585.88775470056544
 31
0.0
  0
ARC
  5
33EB
  8
0
 10
1196.879954769242
 20
563.88775470056544
 30
0.0
 40
4.0
 50
212.61924307119301
 51
270.0
  0
LINE
  5
33EC
  8
0
 10
1188.2908917037521
 20
584.48775470056535
 30
0.0
 11
1188.2908917037521
 21
569.88775470056544
 31
0.0
  0
LINE
  5
33ED
  8
0
 10
1189.690891703752
 20
585.88775470056544
 30
0.0
 11
1188.2908917037521
 21
584.48775470056535
 31
0.0
  0
LINE
  5
33EE
  8
0
 10
1193.510869166596
 20
561.73153991487186
 30
0.0
 11
1188.2908917037521
 21
569.88775470056544
 31
0.0
  0
LINE
  5
33EF
  8
0
 10
1224.690891703752
 20
559.88775470056544
 30
0.0
 11
1224.690891703752
 21
543.88775470056544
 31
0.0
  0
LINE
  5
33F0
  8
0
 10
1189.690891703752
 20
595.64666874319073
 30
0.0
 11
1191.028455612271
 21
597.08775470056526
 31
0.0
  0
LINE
  5
33F1
  8
0
 10
1357.9075988239069
 20
1203.7417762397249
 30
0.0
 11
1357.9075988239069
 21
1213.5006902823509
 31
0.0
  0
LINE
  5
33F2
  8
0
 10
1327.9075988239069
 20
1203.7417762397249
 30
0.0
 11
1327.9075988239069
 21
1213.5006902823509
 31
0.0
  0
LINE
  5
33F3
  8
0
 10
1357.9075988239069
 20
1203.7417762397249
 30
0.0
 11
1327.9075988239069
 21
1203.7417762397249
 31
0.0
  0
LINE
  5
33F4
  8
0
 10
1327.9075988239069
 20
1203.7417762397249
 30
0.0
 11
1326.5700349153881
 21
1202.3006902823511
 31
0.0
  0
LINE
  5
33F5
  8
0
 10
1357.9075988239069
 20
1203.7417762397249
 30
0.0
 11
1359.245162732426
 21
1202.3006902823511
 31
0.0
  0
LINE
  5
33F6
  8
0
 10
1329.307598823907
 20
1229.5006902823509
 30
0.0
 11
1356.5075988239071
 21
1229.5006902823509
 31
0.0
  0
LINE
  5
33F7
  8
0
 10
1329.307598823907
 20
1214.900690282351
 30
0.0
 11
1356.5075988239071
 21
1214.900690282351
 31
0.0
  0
LINE
  5
33F8
  8
0
 10
1327.9075988239069
 20
1213.5006902823509
 30
0.0
 11
1357.9075988239069
 21
1213.5006902823479
 31
0.0
  0
LINE
  5
33F9
  8
0
 10
1292.9075988239069
 20
1239.5006902823509
 30
0.0
 11
1392.9075988239069
 21
1239.5006902823509
 31
0.0
  0
LINE
  5
33FA
  8
0
 10
1292.9075988239069
 20
1239.5006902823509
 30
0.0
 11
1292.9075988239069
 21
1255.5006902823509
 31
0.0
  0
LINE
  5
33FB
  8
0
 10
1324.0876213610629
 20
1237.6569050680439
 30
0.0
 11
1329.307598823907
 21
1229.5006902823509
 31
0.0
  0
LINE
  5
33FC
  8
0
 10
1327.9075988239069
 20
1213.5006902823509
 30
0.0
 11
1329.307598823907
 21
1214.900690282351
 31
0.0
  0
LINE
  5
33FD
  8
0
 10
1329.307598823907
 20
1214.900690282351
 30
0.0
 11
1329.307598823907
 21
1229.5006902823509
 31
0.0
  0
ARC
  5
33FE
  8
0
 10
1320.7185357584169
 20
1235.50069028235
 30
0.0
 40
4.0
 50
32.619243071192969
 51
90.0
  0
LINE
  5
33FF
  8
0
 10
1361.7275762867509
 20
1237.6569050680439
 30
0.0
 11
1356.5075988239071
 21
1229.5006902823509
 31
0.0
  0
LINE
  5
3400
  8
0
 10
1357.9075988239069
 20
1213.5006902823509
 30
0.0
 11
1356.5075988239071
 21
1214.900690282351
 31
0.0
  0
LINE
  5
3401
  8
0
 10
1356.5075988239071
 20
1214.900690282351
 30
0.0
 11
1356.5075988239071
 21
1229.5006902823509
 31
0.0
  0
ARC
  5
3402
  8
0
 10
1365.096661889397
 20
1235.50069028235
 30
0.0
 40
4.0
 50
90.0
 51
147.38075692880699
  0
LINE
  5
3403
  8
0
 10
1392.9075988239069
 20
1239.5006902823509
 30
0.0
 11
1392.9075988239069
 21
1255.5006902823509
 31
0.0
  0
LINE
  5
3404
  8
0
 10
1357.9075988239069
 20
1085.258604324976
 30
0.0
 11
1327.9075988239069
 21
1085.258604324976
 31
0.0
  0
LINE
  5
3405
  8
0
 10
1292.9075988239069
 20
1049.49969028235
 30
0.0
 11
1392.9075988239069
 21
1049.49969028235
 31
0.0
  0
LINE
  5
3406
  8
0
 10
1327.9075988239069
 20
1075.49969028235
 30
0.0
 11
1357.9075988239069
 21
1075.499690282353
 31
0.0
  0
LINE
  5
3407
  8
0
 10
1329.307598823907
 20
1074.0996902823499
 30
0.0
 11
1356.5075988239071
 21
1074.0996902823499
 31
0.0
  0
LINE
  5
3408
  8
0
 10
1329.307598823907
 20
1059.49969028235
 30
0.0
 11
1356.5075988239071
 21
1059.49969028235
 31
0.0
  0
LINE
  5
3409
  8
0
 10
1327.9075988239069
 20
1085.258604324976
 30
0.0
 11
1327.9075988239069
 21
1075.49969028235
 31
0.0
  0
LINE
  5
340A
  8
0
 10
1292.9075988239069
 20
1049.49969028235
 30
0.0
 11
1292.9075988239069
 21
1033.49969028235
 31
0.0
  0
ARC
  5
340B
  8
0
 10
1320.7185357584169
 20
1053.49969028235
 30
0.0
 40
4.0
 50
270.0
 51
327.3807569288071
  0
LINE
  5
340C
  8
0
 10
1329.307598823907
 20
1074.0996902823499
 30
0.0
 11
1329.307598823907
 21
1059.49969028235
 31
0.0
  0
LINE
  5
340D
  8
0
 10
1327.9075988239069
 20
1075.49969028235
 30
0.0
 11
1329.307598823907
 21
1074.0996902823499
 31
0.0
  0
LINE
  5
340E
  8
0
 10
1324.0876213610629
 20
1051.343475496657
 30
0.0
 11
1329.307598823907
 21
1059.49969028235
 31
0.0
  0
LINE
  5
340F
  8
0
 10
1327.9075988239069
 20
1085.258604324976
 30
0.0
 11
1326.5700349153881
 21
1086.69969028235
 31
0.0
  0
LINE
  5
3410
  8
0
 10
1357.9075988239069
 20
1085.258604324976
 30
0.0
 11
1357.9075988239069
 21
1075.49969028235
 31
0.0
  0
ARC
  5
3411
  8
0
 10
1365.096661889397
 20
1053.49969028235
 30
0.0
 40
4.0
 50
212.61924307119301
 51
270.0
  0
LINE
  5
3412
  8
0
 10
1356.5075988239071
 20
1074.0996902823499
 30
0.0
 11
1356.5075988239071
 21
1059.49969028235
 31
0.0
  0
LINE
  5
3413
  8
0
 10
1357.9075988239069
 20
1075.49969028235
 30
0.0
 11
1356.5075988239071
 21
1074.0996902823499
 31
0.0
  0
LINE
  5
3414
  8
0
 10
1361.7275762867509
 20
1051.343475496657
 30
0.0
 11
1356.5075988239071
 21
1059.49969028235
 31
0.0
  0
LINE
  5
3415
  8
0
 10
1392.9075988239069
 20
1049.49969028235
 30
0.0
 11
1392.9075988239069
 21
1033.49969028235
 31
0.0
  0
LINE
  5
3416
  8
0
 10
1357.9075988239069
 20
1085.258604324976
 30
0.0
 11
1359.245162732426
 21
1086.69969028235
 31
0.0
  0
LINE
  5
3417
  8
0
 10
2264.1892832605949
 20
755.98276030044053
 30
0.0
 11
2389.1892832605949
 21
755.98276030044053
 31
0.0
  0
LINE
  5
3418
  8
0
 10
2264.1892832605949
 20
755.98276030044053
 30
0.0
 11
2264.1892832605949
 21
771.98276030044065
 31
0.0
  0
LINE
  5
3419
  8
0
 10
2343.6892832605959
 20
711.68930295257724
 30
0.0
 11
2343.6892832605959
 21
745.98276030044065
 31
0.0
  0
LINE
  5
341A
  8
0
 10
2309.6892832605959
 20
711.68930295257724
 30
0.0
 11
2309.6892832605949
 21
745.98276030044053
 31
0.0
  0
LINE
  5
341B
  8
0
 10
2309.6892832605949
 20
720.48276030044076
 30
0.0
 11
2343.6892832605959
 21
720.48276030044076
 31
0.0
  0
ARC
  5
341C
  8
0
 10
2354.0924074980289
 20
750.98276030044042
 30
0.0
 40
5.0
 50
90.0
 51
141.34019174590921
  0
LINE
  5
341D
  8
0
 10
2309.6892832605949
 20
745.98276030044053
 30
0.0
 11
2343.6892832605959
 21
745.98276030044053
 31
0.0
  0
ARC
  5
341E
  8
0
 10
2299.2861590231628
 20
750.98276030044042
 30
0.0
 40
5.0
 50
38.659808254090692
 51
90.0
  0
LINE
  5
341F
  8
0
 10
2309.6892832605949
 20
745.98276030044053
 30
0.0
 11
2303.1905030703779
 21
754.10623553821279
 31
0.0
  0
LINE
  5
3420
  8
0
 10
2343.6892832605959
 20
745.98276030044053
 30
0.0
 11
2350.1880634508129
 21
754.10623553821245
 31
0.0
  0
LINE
  5
3421
  8
0
 10
2389.1892832605949
 20
755.98276030044053
 30
0.0
 11
2389.1892832605949
 21
771.98276030044065
 31
0.0
  0
LINE
  5
3422
  8
0
 10
2343.6892832605959
 20
590.27521764830362
 30
0.0
 11
2343.6892832605959
 21
555.98176030043999
 31
0.0
  0
LINE
  5
3423
  8
0
 10
2309.6892832605959
 20
590.27521764830362
 30
0.0
 11
2309.6892832605949
 21
555.98176030044033
 31
0.0
  0
LINE
  5
3424
  8
0
 10
2309.6892832605949
 20
581.48176030043999
 30
0.0
 11
2343.6892832605959
 21
581.48176030043999
 31
0.0
  0
ARC
  5
3425
  8
0
 10
2354.0924074980289
 20
550.98176030044044
 30
0.0
 40
5.0
 50
218.65980825409079
 51
270.0
  0
LINE
  5
3426
  8
0
 10
2264.1892832605949
 20
545.98176030044021
 30
0.0
 11
2389.1892832605949
 21
545.98176030044021
 31
0.0
  0
LINE
  5
3427
  8
0
 10
2264.1892832605949
 20
545.98176030044021
 30
0.0
 11
2264.1892832605949
 21
529.9817603004401
 31
0.0
  0
LINE
  5
3428
  8
0
 10
2309.6892832605949
 20
555.98176030044033
 30
0.0
 11
2343.6892832605959
 21
555.98176030044033
 31
0.0
  0
LINE
  5
3429
  8
0
 10
2309.6892832605949
 20
555.98176030044033
 30
0.0
 11
2303.1905030703779
 21
547.85828506266796
 31
0.0
  0
ARC
  5
342A
  8
0
 10
2299.2861590231628
 20
550.98176030044044
 30
0.0
 40
5.0
 50
270.0
 51
321.34019174590929
  0
LINE
  5
342B
  8
0
 10
2343.6892832605959
 20
555.98176030044033
 30
0.0
 11
2350.1880634508129
 21
547.8582850626683
 31
0.0
  0
LINE
  5
342C
  8
0
 10
2389.1892832605949
 20
545.98176030044021
 30
0.0
 11
2389.1892832605949
 21
529.9817603004401
 31
0.0
  0
LINE
  5
342D
  8
0
 10
2140.6500539897129
 20
711.68930295257724
 30
0.0
 11
2140.6500539897129
 21
745.98276030044065
 31
0.0
  0
LINE
  5
342E
  8
0
 10
2106.6500539897138
 20
711.68930295257724
 30
0.0
 11
2106.6500539897138
 21
745.98276030044053
 31
0.0
  0
LINE
  5
342F
  8
0
 10
2106.6500539897138
 20
720.48276030044076
 30
0.0
 11
2140.6500539897129
 21
720.48276030044076
 31
0.0
  0
ARC
  5
3430
  8
0
 10
2151.053178227146
 20
750.98276030044042
 30
0.0
 40
5.0
 50
90.0
 51
141.34019174590921
  0
LINE
  5
3431
  8
0
 10
2061.1500539897129
 20
755.98276030044053
 30
0.0
 11
2186.1500539897129
 21
755.98276030044053
 31
0.0
  0
LINE
  5
3432
  8
0
 10
2061.1500539897129
 20
755.98276030044053
 30
0.0
 11
2061.1500539897129
 21
771.98276030044065
 31
0.0
  0
LINE
  5
3433
  8
0
 10
2106.6500539897138
 20
745.98276030044053
 30
0.0
 11
2140.6500539897129
 21
745.98276030044053
 31
0.0
  0
LINE
  5
3434
  8
0
 10
2106.6500539897138
 20
745.98276030044053
 30
0.0
 11
2100.1512737994949
 21
754.10623553821279
 31
0.0
  0
ARC
  5
3435
  8
0
 10
2096.2469297522798
 20
750.98276030044042
 30
0.0
 40
5.0
 50
38.659808254090692
 51
90.0
  0
LINE
  5
3436
  8
0
 10
2140.6500539897129
 20
745.98276030044053
 30
0.0
 11
2147.1488341799309
 21
754.10623553821245
 31
0.0
  0
LINE
  5
3437
  8
0
 10
2186.1500539897129
 20
755.98276030044053
 30
0.0
 11
2186.1500539897129
 21
771.98276030044065
 31
0.0
  0
LINE
  5
3438
  8
0
 10
2186.1500539897129
 20
545.98176030044021
 30
0.0
 11
2186.1500539897129
 21
529.9817603004401
 31
0.0
  0
LINE
  5
3439
  8
0
 10
2061.1500539897129
 20
545.98176030044021
 30
0.0
 11
2061.1500539897129
 21
529.9817603004401
 31
0.0
  0
LINE
  5
343A
  8
0
 10
2061.1500539897129
 20
545.98176030044021
 30
0.0
 11
2186.1500539897129
 21
545.98176030044021
 31
0.0
  0
ARC
  5
343B
  8
0
 10
2151.053178227146
 20
550.98176030044044
 30
0.0
 40
5.0
 50
218.65980825409079
 51
270.0
  0
LINE
  5
343C
  8
0
 10
2106.6500539897138
 20
590.27521764830362
 30
0.0
 11
2106.6500539897138
 21
555.98176030044033
 31
0.0
  0
LINE
  5
343D
  8
0
 10
2140.6500539897129
 20
590.27521764830362
 30
0.0
 11
2140.6500539897129
 21
555.98176030043999
 31
0.0
  0
LINE
  5
343E
  8
0
 10
2106.6500539897138
 20
555.98176030044033
 30
0.0
 11
2140.6500539897129
 21
555.98176030044033
 31
0.0
  0
LINE
  5
343F
  8
0
 10
2106.6500539897138
 20
581.48176030043999
 30
0.0
 11
2140.6500539897129
 21
581.48176030043999
 31
0.0
  0
ARC
  5
3440
  8
0
 10
2096.2469297522798
 20
550.98176030044044
 30
0.0
 40
5.0
 50
270.0
 51
321.34019174590929
  0
LINE
  5
3441
  8
0
 10
2106.6500539897138
 20
555.98176030044033
 30
0.0
 11
2100.1512737994949
 21
547.85828506266796
 31
0.0
  0
LINE
  5
3442
  8
0
 10
2140.6500539897129
 20
555.98176030044033
 30
0.0
 11
2147.1488341799309
 21
547.8582850626683
 31
0.0
  0
LINE
  5
3443
  8
0
 10
1957.091174742553
 20
711.68930295257724
 30
0.0
 11
1957.091174742553
 21
745.98276030044065
 31
0.0
  0
LINE
  5
3444
  8
0
 10
1923.091174742553
 20
711.68930295257724
 30
0.0
 11
1923.091174742553
 21
745.98276030044053
 31
0.0
  0
LINE
  5
3445
  8
0
 10
1923.091174742553
 20
720.48276030044076
 30
0.0
 11
1957.091174742553
 21
720.48276030044076
 31
0.0
  0
ARC
  5
3446
  8
0
 10
1967.4942989799849
 20
750.98276030044042
 30
0.0
 40
5.0
 50
90.0
 51
141.34019174590921
  0
LINE
  5
3447
  8
0
 10
1877.5911747425521
 20
755.98276030044053
 30
0.0
 11
2002.591174742553
 21
755.98276030044053
 31
0.0
  0
LINE
  5
3448
  8
0
 10
1877.5911747425521
 20
755.98276030044053
 30
0.0
 11
1877.5911747425521
 21
771.98276030044065
 31
0.0
  0
LINE
  5
3449
  8
0
 10
1923.091174742553
 20
745.98276030044053
 30
0.0
 11
1957.091174742553
 21
745.98276030044053
 31
0.0
  0
LINE
  5
344A
  8
0
 10
1923.091174742553
 20
745.98276030044053
 30
0.0
 11
1916.5923945523341
 21
754.10623553821279
 31
0.0
  0
ARC
  5
344B
  8
0
 10
1912.688050505119
 20
750.98276030044042
 30
0.0
 40
5.0
 50
38.659808254090692
 51
90.0
  0
LINE
  5
344C
  8
0
 10
1957.091174742553
 20
745.98276030044053
 30
0.0
 11
1963.589954932771
 21
754.10623553821245
 31
0.0
  0
LINE
  5
344D
  8
0
 10
2002.591174742553
 20
755.98276030044053
 30
0.0
 11
2002.591174742553
 21
771.98276030044065
 31
0.0
  0
LINE
  5
344E
  8
0
 10
2002.591174742553
 20
545.98176030044021
 30
0.0
 11
2002.591174742553
 21
529.9817603004401
 31
0.0
  0
LINE
  5
344F
  8
0
 10
1877.5911747425521
 20
545.98176030044021
 30
0.0
 11
1877.5911747425521
 21
529.9817603004401
 31
0.0
  0
LINE
  5
3450
  8
0
 10
1877.5911747425521
 20
545.98176030044021
 30
0.0
 11
2002.591174742553
 21
545.98176030044021
 31
0.0
  0
ARC
  5
3451
  8
0
 10
1967.4942989799849
 20
550.98176030044044
 30
0.0
 40
5.0
 50
218.65980825409079
 51
270.0
  0
LINE
  5
3452
  8
0
 10
1923.091174742553
 20
590.27521764830362
 30
0.0
 11
1923.091174742553
 21
555.98176030044033
 31
0.0
  0
LINE
  5
3453
  8
0
 10
1957.091174742553
 20
590.27521764830362
 30
0.0
 11
1957.091174742553
 21
555.98176030043999
 31
0.0
  0
LINE
  5
3454
  8
0
 10
1923.091174742553
 20
555.98176030044033
 30
0.0
 11
1957.091174742553
 21
555.98176030044033
 31
0.0
  0
LINE
  5
3455
  8
0
 10
1923.091174742553
 20
581.48176030043999
 30
0.0
 11
1957.091174742553
 21
581.48176030043999
 31
0.0
  0
ARC
  5
3456
  8
0
 10
1912.688050505119
 20
550.98176030044044
 30
0.0
 40
5.0
 50
270.0
 51
321.34019174590929
  0
LINE
  5
3457
  8
0
 10
1923.091174742553
 20
555.98176030044033
 30
0.0
 11
1916.5923945523341
 21
547.85828506266796
 31
0.0
  0
LINE
  5
3458
  8
0
 10
1957.091174742553
 20
555.98176030044033
 30
0.0
 11
1963.589954932771
 21
547.8582850626683
 31
0.0
  0
LINE
  5
3459
  8
0
 10
2106.6500539897138
 20
1205.2072329344869
 30
0.0
 11
2106.6500539897138
 21
1239.5006902823509
 31
0.0
  0
LINE
  5
345A
  8
0
 10
2140.6500539897129
 20
1205.2072329344869
 30
0.0
 11
2140.6500539897129
 21
1239.5006902823509
 31
0.0
  0
LINE
  5
345B
  8
0
 10
2106.6500539897138
 20
1214.0006902823509
 30
0.0
 11
2140.6500539897129
 21
1214.0006902823509
 31
0.0
  0
LINE
  5
345C
  8
0
 10
2106.6500539897138
 20
1239.5006902823509
 30
0.0
 11
2140.6500539897129
 21
1239.5006902823509
 31
0.0
  0
LINE
  5
345D
  8
0
 10
2061.1500539897129
 20
1249.50069028235
 30
0.0
 11
2186.1500539897129
 21
1249.50069028235
 31
0.0
  0
LINE
  5
345E
  8
0
 10
2061.1500539897129
 20
1249.50069028235
 30
0.0
 11
2061.1500539897129
 21
1265.5006902823509
 31
0.0
  0
ARC
  5
345F
  8
0
 10
2096.2469297522798
 20
1244.50069028235
 30
0.0
 40
5.0
 50
38.659808254090692
 51
90.0
  0
LINE
  5
3460
  8
0
 10
2106.6500539897138
 20
1239.5006902823509
 30
0.0
 11
2100.1512737994949
 21
1247.6241655201229
 31
0.0
  0
LINE
  5
3461
  8
0
 10
2140.6500539897129
 20
1239.5006902823509
 30
0.0
 11
2147.1488341799309
 21
1247.6241655201229
 31
0.0
  0
ARC
  5
3462
  8
0
 10
2151.053178227146
 20
1244.50069028235
 30
0.0
 40
5.0
 50
90.0
 51
141.34019174590921
  0
LINE
  5
3463
  8
0
 10
2186.1500539897129
 20
1249.50069028235
 30
0.0
 11
2186.1500539897129
 21
1265.5006902823509
 31
0.0
  0
LINE
  5
3464
  8
0
 10
2061.1500539897129
 20
1039.49969028235
 30
0.0
 11
2061.1500539897129
 21
1023.49969028235
 31
0.0
  0
LINE
  5
3465
  8
0
 10
2186.1500539897129
 20
1039.49969028235
 30
0.0
 11
2186.1500539897129
 21
1023.49969028235
 31
0.0
  0
LINE
  5
3466
  8
0
 10
2106.6500539897138
 20
1074.99969028235
 30
0.0
 11
2140.6500539897129
 21
1074.99969028235
 31
0.0
  0
LINE
  5
3467
  8
0
 10
2106.6500539897138
 20
1049.49969028235
 30
0.0
 11
2140.6500539897129
 21
1049.49969028235
 31
0.0
  0
LINE
  5
3468
  8
0
 10
2061.1500539897129
 20
1039.49969028235
 30
0.0
 11
2186.1500539897129
 21
1039.49969028235
 31
0.0
  0
LINE
  5
3469
  8
0
 10
2106.6500539897138
 20
1083.793147630214
 30
0.0
 11
2106.6500539897138
 21
1049.49969028235
 31
0.0
  0
LINE
  5
346A
  8
0
 10
2106.6500539897138
 20
1049.49969028235
 30
0.0
 11
2100.1512737994949
 21
1041.376215044578
 31
0.0
  0
ARC
  5
346B
  8
0
 10
2096.2469297522798
 20
1044.49969028235
 30
0.0
 40
5.0
 50
270.0
 51
321.34019174590929
  0
LINE
  5
346C
  8
0
 10
2140.6500539897129
 20
1083.793147630214
 30
0.0
 11
2140.6500539897129
 21
1049.49969028235
 31
0.0
  0
LINE
  5
346D
  8
0
 10
2140.6500539897129
 20
1049.49969028235
 30
0.0
 11
2147.1488341799309
 21
1041.376215044578
 31
0.0
  0
ARC
  5
346E
  8
0
 10
2151.053178227146
 20
1044.49969028235
 30
0.0
 40
5.0
 50
218.65980825409079
 51
270.0
  0
TEXT
  5
35F0
  8
0
 10
536.98332878996462
 20
447.48217704815102
 30
0.0
 40
20.0
  1
1/2
 41
0.8
 72
     4
 11
556.79285259948847
 21
456.05360561957968
 31
0.0
  0
TEXT
  5
35F1
  8
0
 10
1310.357520797367
 20
445.07132498411642
 30
0.0
 40
20.0
  1
3/4
 41
0.8
 72
     4
 11
1332.0718065116521
 21
453.64275355554491
 31
0.0
  0
TEXT
  5
35F2
  8
0
 10
2125.2154632198758
 20
434.33573281380308
 30
0.0
 40
20.0
  1
1
 41
0.8
 72
     4
 11
2127.1202251246382
 21
444.33573281380308
 31
0.0
  0
VIEWPORT
  5
41
 67
     1
  8
0
 10
117.358407079646
 20
73.5
 30
0.0
 40
234.716814159292
 41
147.0
 68
     1
 69
     1
1001
ACAD
1000
MVIEW
1002
{
1070
    16
1010
0.0
1020
0.0
1030
0.0
1010
0.0
1020
0.0
1030
1.0
1040
0.0
1040
147.0
1040
117.358407079646
1040
73.5
1040
50.0
1040
0.0
1040
0.0
1070
     0
1070
   100
1070
     1
1070
     1
1070
     0
1070
     0
1070
     0
1070
     0
1040
0.0
1040
0.0
1040
0.0
1040
1.0
1040
1.0
1040
0.0
1040
0.0
1070
     0
1002
{
1002
}
1002
}
  0
ENDSEC
  0
EOF
