  0
SECTION
  2
HEADER
  9
$ACADVER
  1
AC1015
  9
$ACADMAINTVER
 70
    20
  9
$DWGCODEPAGE
  3
ANSI_932
  9
$INSBASE
 10
0.0
 20
0.0
 30
0.0
  9
$EXTMIN
 10
99.0
 20
45.0
 30
0.0
  9
$EXTMAX
 10
2574.0
 20
1719.0
 30
0.0
  9
$LIMMIN
 10
0.0
 20
0.0
  9
$LIMMAX
 10
2673.0
 20
1890.0
  9
$ORTHOMODE
 70
     1
  9
$REGENMODE
 70
     1
  9
$FILLMODE
 70
     1
  9
$QTEXTMODE
 70
     0
  9
$MIRRTEXT
 70
     1
  9
$LTSCALE
 40
36.0
  9
$ATTMODE
 70
     1
  9
$TEXTSIZE
 40
36.0
  9
$TRACEWID
 40
0.05
  9
$TEXTSTYLE
  7
STANDARD
  9
$CLAYER
  8
0
  9
$CELTYPE
  6
ByLayer
  9
$CECOLOR
 62
   256
  9
$CELTSCALE
 40
1.0
  9
$DISPSILH
 70
     0
  9
$DIMSCALE
 40
9.0
  9
$DIMASZ
 40
2.799999999999998
  9
$DIMEXO
 40
1.0
  9
$DIMDLI
 40
5.0
  9
$DIMRND
 40
0.1
  9
$DIMDLE
 40
0.0
  9
$DIMEXE
 40
1.0
  9
$DIMTP
 40
0.0
  9
$DIMTM
 40
0.0
  9
$DIMTXT
 40
2.5
  9
$DIMCEN
 40
0.0
  9
$DIMTSZ
 40
0.0
  9
$DIMTOL
 70
     0
  9
$DIMLIM
 70
     0
  9
$DIMTIH
 70
     0
  9
$DIMTOH
 70
     0
  9
$DIMSE1
 70
     0
  9
$DIMSE2
 70
     0
  9
$DIMTAD
 70
     3
  9
$DIMZIN
 70
     8
  9
$DIMBLK
  1

  9
$DIMASO
 70
     1
  9
$DIMSHO
 70
     1
  9
$DIMPOST
  1
 
  9
$DIMAPOST
  1

  9
$DIMALT
 70
     0
  9
$DIMALTD
 70
     2
  9
$DIMALTF
 40
1.0
  9
$DIMLFAC
 40
1.0
  9
$DIMTOFL
 70
     1
  9
$DIMTVP
 40
0.0
  9
$DIMTIX
 70
     0
  9
$DIMSOXD
 70
     0
  9
$DIMSAH
 70
     1
  9
$DIMBLK1
  1
OPEN
  9
$DIMBLK2
  1
OPEN
  9
$DIMSTYLE
  2
DIM1
  9
$DIMCLRD
 70
     2
  9
$DIMCLRE
 70
     2
  9
$DIMCLRT
 70
     2
  9
$DIMTFAC
 40
0.7
  9
$DIMGAP
 40
0.85
  9
$DIMJUST
 70
     0
  9
$DIMSD1
 70
     0
  9
$DIMSD2
 70
     0
  9
$DIMTOLJ
 70
     1
  9
$DIMTZIN
 70
     0
  9
$DIMALTZ
 70
     0
  9
$DIMALTTZ
 70
     0
  9
$DIMUPT
 70
     0
  9
$DIMDEC
 70
     4
  9
$DIMTDEC
 70
     4
  9
$DIMALTU
 70
     2
  9
$DIMALTTD
 70
     2
  9
$DIMTXSTY
  7
STANDARD
  9
$DIMAUNIT
 70
     0
  9
$DIMADEC
 70
     0
  9
$DIMALTRND
 40
0.0
  9
$DIMAZIN
 70
     0
  9
$DIMDSEP
 70
    46
  9
$DIMATFIT
 70
     3
  9
$DIMFRAC
 70
     0
  9
$DIMLDRBLK
  1
OPEN
  9
$DIMLUNIT
 70
     2
  9
$DIMLWD
 70
    -2
  9
$DIMLWE
 70
    -2
  9
$DIMTMOVE
 70
     0
  9
$LUNITS
 70
     2
  9
$LUPREC
 70
     4
  9
$SKETCHINC
 40
0.1
  9
$FILLETRAD
 40
12.5
  9
$AUNITS
 70
     0
  9
$AUPREC
 70
     0
  9
$MENU
  1
C:\ACADR13\WIN\SUPPORT\ACAD.mnc
  9
$ELEVATION
 40
0.0
  9
$PELEVATION
 40
0.0
  9
$THICKNESS
 40
0.0
  9
$LIMCHECK
 70
     0
  9
$CHAMFERA
 40
0.0
  9
$CHAMFERB
 40
0.0
  9
$CHAMFERC
 40
0.0
  9
$CHAMFERD
 40
0.0
  9
$SKPOLY
 70
     0
  9
$TDCREATE
 40
2451564.683827847
  9
$TDUCREATE
 40
2451564.308827848
  9
$TDUPDATE
 40
2458253.642102627
  9
$TDUUPDATE
 40
2458253.267102627
  9
$TDINDWG
 40
0.1745825463
  9
$TDUSRTIMER
 40
0.1745825347
  9
$USRTIMER
 70
     1
  9
$ANGBASE
 50
0.0
  9
$ANGDIR
 70
     0
  9
$PDMODE
 70
     0
  9
$PDSIZE
 40
0.0
  9
$PLINEWID
 40
0.0
  9
$SPLFRAME
 70
     0
  9
$SPLINETYPE
 70
     6
  9
$SPLINESEGS
 70
     8
  9
$HANDSEED
  5
4308
  9
$SURFTAB1
 70
     6
  9
$SURFTAB2
 70
     6
  9
$SURFTYPE
 70
     6
  9
$SURFU
 70
     6
  9
$SURFV
 70
     6
  9
$UCSBASE
  2

  9
$UCSNAME
  2

  9
$UCSORG
 10
0.0
 20
0.0
 30
0.0
  9
$UCSXDIR
 10
1.0
 20
0.0
 30
0.0
  9
$UCSYDIR
 10
0.0
 20
1.0
 30
0.0
  9
$UCSORTHOREF
  2

  9
$UCSORTHOVIEW
 70
     0
  9
$UCSORGTOP
 10
0.0
 20
0.0
 30
0.0
  9
$UCSORGBOTTOM
 10
0.0
 20
0.0
 30
0.0
  9
$UCSORGLEFT
 10
0.0
 20
0.0
 30
0.0
  9
$UCSORGRIGHT
 10
0.0
 20
0.0
 30
0.0
  9
$UCSORGFRONT
 10
0.0
 20
0.0
 30
0.0
  9
$UCSORGBACK
 10
0.0
 20
0.0
 30
0.0
  9
$PUCSBASE
  2

  9
$PUCSNAME
  2

  9
$PUCSORG
 10
0.0
 20
0.0
 30
0.0
  9
$PUCSXDIR
 10
1.0
 20
0.0
 30
0.0
  9
$PUCSYDIR
 10
0.0
 20
1.0
 30
0.0
  9
$PUCSORTHOREF
  2

  9
$PUCSORTHOVIEW
 70
     0
  9
$PUCSORGTOP
 10
0.0
 20
0.0
 30
0.0
  9
$PUCSORGBOTTOM
 10
0.0
 20
0.0
 30
0.0
  9
$PUCSORGLEFT
 10
0.0
 20
0.0
 30
0.0
  9
$PUCSORGRIGHT
 10
0.0
 20
0.0
 30
0.0
  9
$PUCSORGFRONT
 10
0.0
 20
0.0
 30
0.0
  9
$PUCSORGBACK
 10
0.0
 20
0.0
 30
0.0
  9
$USERI1
 70
     0
  9
$USERI2
 70
     0
  9
$USERI3
 70
     0
  9
$USERI4
 70
     0
  9
$USERI5
 70
     0
  9
$USERR1
 40
0.0
  9
$USERR2
 40
0.0
  9
$USERR3
 40
0.0
  9
$USERR4
 40
0.0
  9
$USERR5
 40
0.0
  9
$WORLDVIEW
 70
     1
  9
$SHADEDGE
 70
     3
  9
$SHADEDIF
 70
    70
  9
$TILEMODE
 70
     1
  9
$MAXACTVP
 70
    16
  9
$PINSBASE
 10
0.0
 20
0.0
 30
0.0
  9
$PLIMCHECK
 70
     0
  9
$PEXTMIN
 10
1.000000000000000E+20
 20
1.000000000000000E+20
 30
1.000000000000000E+20
  9
$PEXTMAX
 10
-1.000000000000000E+20
 20
-1.000000000000000E+20
 30
-1.000000000000000E+20
  9
$PLIMMIN
 10
0.0
 20
0.0
  9
$PLIMMAX
 10
20.0
 20
147.0
  9
$UNITMODE
 70
     0
  9
$VISRETAIN
 70
     0
  9
$PLINEGEN
 70
     0
  9
$PSLTSCALE
 70
     1
  9
$TREEDEPTH
 70
  3020
  9
$CMLSTYLE
  2
Standard
  9
$CMLJUST
 70
     0
  9
$CMLSCALE
 40
1.0
  9
$PROXYGRAPHICS
 70
     1
  9
$MEASUREMENT
 70
     0
  9
$CELWEIGHT
370
    -1
  9
$ENDCAPS
280
     0
  9
$JOINSTYLE
280
     0
  9
$LWDISPLAY
290
     0
  9
$INSUNITS
 70
     0
  9
$HYPERLINKBASE
  1

  9
$STYLESHEET
  1

  9
$XEDIT
290
     1
  9
$CEPSNTYPE
380
     0
  9
$PSTYLEMODE
290
     1
  9
$FINGERPRINTGUID
  2
{036151D8-E273-45C8-AB0F-7065FB7BAD5C}
  9
$VERSIONGUID
  2
{BB0F0DA5-23AC-4CE1-B964-CCE6B39DDC6C}
  9
$EXTNAMES
290
     1
  9
$PSVPSCALE
 40
0.0
  9
$OLESTARTUP
290
     0
  0
ENDSEC
  0
SECTION
  2
CLASSES
  0
CLASS
  1
ACDBDICTIONARYWDFLT
  2
AcDbDictionaryWithDefault
  3
ObjectDBX Classes
 90
        0
280
     0
281
     0
  0
CLASS
  1
MATERIAL
  2
AcDbMaterial
  3
ObjectDBX Classes
 90
     1153
280
     0
281
     0
  0
CLASS
  1
VISUALSTYLE
  2
AcDbVisualStyle
  3
ObjectDBX Classes
 90
     4095
280
     0
281
     0
  0
CLASS
  1
SCALE
  2
AcDbScale
  3
ObjectDBX Classes
 90
     1153
280
     0
281
     0
  0
CLASS
  1
TABLESTYLE
  2
AcDbTableStyle
  3
ObjectDBX Classes
 90
     4095
280
     0
281
     0
  0
CLASS
  1
MLEADERSTYLE
  2
AcDbMLeaderStyle
  3
ACDB_MLEADERSTYLE_CLASS
 90
     4095
280
     0
281
     0
  0
CLASS
  1
ACDBSECTIONVIEWSTYLE
  2
AcDbSectionViewStyle
  3
ObjectDBX Classes
 90
     1025
280
     0
281
     0
  0
CLASS
  1
ACDBDETAILVIEWSTYLE
  2
AcDbDetailViewStyle
  3
ObjectDBX Classes
 90
     1025
280
     0
281
     0
  0
CLASS
  1
AMGSETTINGSOBJ
  2
AmgSettingsObj
  3
"AcadM|Product Description: AutoCAD Mechanical|Company: Autodesk, Inc."
 90
     1024
280
     0
281
     0
  0
CLASS
  1
ACME_DOCUMENT
  2
AcMeDbDoc
  3
AcMeServices
 90
     1024
280
     0
281
     0
  0
CLASS
  1
ACMESCOPE
  2
AcMeScope
  3
AcMeServices
 90
     1024
280
     0
281
     0
  0
CLASS
  1
ACMECOMMANDHISTORY
  2
AcMeCommandHistory
  3
AcMeServices
 90
     1024
280
     0
281
     0
  0
CLASS
  1
ACIMSYSVARMAN
  2
AcImSysVarManager
  3
AcMeServices
 90
     1024
280
     0
281
     0
  0
CLASS
  1
ACIMINTSYSVAR
  2
AcImIntSysVar
  3
AcMeServices
 90
     1024
280
     0
281
     0
  0
CLASS
  1
ACMESTATEMGR
  2
AcMeStateMgr
  3
AcMeServices
 90
     1024
280
     0
281
     0
  0
CLASS
  1
ACDBENTITYCACHE
  2
AcMeEntityCache
  3
AcMeServices
 90
     1024
280
     0
281
     0
  0
CLASS
  1
ACGREFMASTER
  2
AcGrefMaster
  3
AcAttribServices
 90
     1024
280
     0
281
     0
  0
CLASS
  1
ACME_DATABASE
  2
AcMeDbDatabase
  3
AcMeServices
 90
     1024
280
     0
281
     0
  0
CLASS
  1
ACRFINSADJUSTERMGR
  2
AcRfInsAdjusterMgr
  3
AcMeServices
 90
     1024
280
     0
281
     0
  0
CLASS
  1
ACGREFACADMASTER
  2
AcGrefacadMaster
  3
AcGrefServices
 90
     1024
280
     0
281
     0
  0
CLASS
  1
AMDTMENUSTATEMGR
  2
AmdtMenuStateMgr
  3
McadcomServices
 90
     1024
280
     0
281
     0
  0
CLASS
  1
AMDTMCOMMENUSTATE
  2
AmdtMcomMenuState
  3
McadcomServices
 90
     1024
280
     0
281
     0
  0
CLASS
  1
AMIMASTER
  2
AmiMaster
  3
AmiServices
 90
     1024
280
     0
281
     0
  0
CLASS
  1
MAPIAMMOUDLE
  2
MApiAmModule
  3
MApiAmServices
 90
     1024
280
     0
281
     0
  0
CLASS
  1
ACIMSTRSYSVAR
  2
AcImStrSysVar
  3
AcMeServices
 90
     1024
280
     0
281
     0
  0
CLASS
  1
AMDTAMMENUSTATE
  2
AmdtAmMenuState
  3
DesignerAssemblies
 90
     1024
280
     0
281
     0
  0
CLASS
  1
ACAMPROJECT
  2
AcAmProject
  3
DesignerAssemblies
 90
     1024
280
     0
281
     0
  0
CLASS
  1
ACAMGRCOMPDEF
  2
AcAmGrCompDef
  3
DesignerAssemblies
 90
     1024
280
     0
281
     0
  0
CLASS
  1
ACAMCOMPDEF
  2
AcAmCompDef
  3
DesignerAssemblies
 90
     1024
280
     0
281
     0
  0
CLASS
  1
ACAMCOMPDEFMGR
  2
AcAmCompDefMgr
  3
DesignerAssemblies
 90
     1024
280
     0
281
     0
  0
CLASS
  1
AMCONTEXTMGR
  2
AcAmContextMgr
  3
DesignerAssemblies
 90
     1024
280
     0
281
     0
  0
CLASS
  1
ACAMCONTEXTMODELER
  2
AcAmContextModeler
  3
DesignerAssemblies
 90
     1024
280
     0
281
     0
  0
CLASS
  1
ACMDATADICTIONARY
  2
AcmDataDictionary
  3
"AcmSymBB|Product Description: AutoCAD Mechanical|Company: Autodesk, Inc."
 90
     1024
280
     0
281
     0
  0
CLASS
  1
ACAMGRCOMPDEFSET
  2
AcAmGrCompDefSet
  3
DesignerAssemblies
 90
     1024
280
     0
281
     0
  0
CLASS
  1
AMDTBROWSERDBTAB
  2
AmdtBrowserDbTab
  3
McadcomServices
 90
     1024
280
     0
281
     0
  0
CLASS
  1
CBROWSERAPPOBJECT
  2
CBrowserAppObject
  3
McadcomServices
 90
     1024
280
     0
281
     0
  0
CLASS
  1
DM_PLACEHOLDER
  2
AcDmSelsetPlaceholder
  3
McadcomServices
 90
     1024
280
     0
281
     0
  0
CLASS
  1
EXACXREFPANELOBJECT
  2
ExAcXREFPanelObject
  3
EXAC_ESW
 90
     1025
280
     0
281
     0
  0
CLASS
  1
NPOCOLLECTION
  2
AcDbImpNonPersistentObjectsCollection
  3
ObjectDBX Classes
 90
     1153
280
     0
281
     0
  0
CLASS
  1
ACMSTANDARDANSI
  2
AcmStandardANSI
  3
"Amdt_StdImp|Product Description: AutoCAD Mechanical|Company: Autodesk, Inc."
 90
     1024
280
     0
281
     0
  0
CLASS
  1
ACMSURFSTANDARDANSI
  2
AcmSurfTextStdANSI
  3
"Amdt_StdImp|Product Description: AutoCAD Mechanical|Company: Autodesk, Inc."
 90
     1024
280
     0
281
     0
  0
CLASS
  1
ACMFCFSTANDARDANSI
  2
AcmFCFStdANSI
  3
"Amdt_StdImp|Product Description: AutoCAD Mechanical|Company: Autodesk, Inc."
 90
     1024
280
     0
281
     0
  0
CLASS
  1
ACMWELDSTANDARDANSI
  2
AcmWeldingStdANSI
  3
"Amdt_StdImp|Product Description: AutoCAD Mechanical|Company: Autodesk, Inc."
 90
     1024
280
     0
281
     0
  0
CLASS
  1
ACMIDSTANDARDANSI
  2
AcmIdStdANSI
  3
"Amdt_StdImp|Product Description: AutoCAD Mechanical|Company: Autodesk, Inc."
 90
     1024
280
     0
281
     0
  0
CLASS
  1
ACMDATUMSTANDARDANSI
  2
AcmDatumStdANSI
  3
"Amdt_StdImp|Product Description: AutoCAD Mechanical|Company: Autodesk, Inc."
 90
     1024
280
     0
281
     0
  0
CLASS
  1
ACMBOMSTANDARDANSI
  2
AcmBOMStdANSI
  3
"Amdt_StdImp|Product Description: AutoCAD Mechanical|Company: Autodesk, Inc."
 90
     1024
280
     0
281
     0
  0
CLASS
  1
ACMDETAILSTANDARDANSI
  2
AmdtDetailSymStdANSI
  3
"Amdt_StdImp|Product Description: AutoCAD Mechanical|Company: Autodesk, Inc."
 90
     1024
280
     0
281
     0
  0
CLASS
  1
ACMSECTIONSTANDARDANSI
  2
AmdtSectionSymStdANSI
  3
"Amdt_StdImp|Product Description: AutoCAD Mechanical|Company: Autodesk, Inc."
 90
     1024
280
     0
281
     0
  0
CLASS
  1
ACMCENTERLINESTANDARDANSI
  2
AmdtCenterLineStdANSI
  3
"Amdt_StdImp|Product Description: AutoCAD Mechanical|Company: Autodesk, Inc."
 90
     1024
280
     0
281
     0
  0
CLASS
  1
ACMTHREADLINESTANDARDANSI
  2
AmdtThreadLineStdANSI
  3
"Amdt_StdImp|Product Description: AutoCAD Mechanical|Company: Autodesk, Inc."
 90
     1024
280
     0
281
     0
  0
CLASS
  1
ACMNOTESTANDARDANSI
  2
AmdtNoteStdANSI
  3
"Amdt_StdImp|Product Description: AutoCAD Mechanical|Company: Autodesk, Inc."
 90
     1024
280
     0
281
     0
  0
CLASS
  1
ACMTAPERSTANDARDANSI
  2
AcmTaperStdANSI
  3
"Amdt_StdImp|Product Description: AutoCAD Mechanical|Company: Autodesk, Inc."
 90
     1024
280
     0
281
     0
  0
CLASS
  1
ACMANOOTATIONVIEWSTANDARDANSI
  2
AmdtAnViewStdANSI
  3
"Amdt_StdImp|Product Description: AutoCAD Mechanical|Company: Autodesk, Inc."
 90
     1024
280
     0
281
     0
  0
CLASS
  1
ACAMGLAYSTD
  2
AcAmgLayStd
  3
"AmgLay|Product Description: AutoCAD Mechanical|Company: Autodesk, Inc."
 90
     1024
280
     0
281
     0
  0
CLASS
  1
ACAMGDIMSTD
  2
AcAmgDimStd
  3
"AmgDim|Product Description: AutoCAD Mechanical|Company: Autodesk, Inc."
 90
     1024
280
     0
281
     0
  0
CLASS
  1
AMGOBJPROPCFG
  2
AmgObjPropCfg
  3
"AmgLay|Product Description: AutoCAD Mechanical|Company: Autodesk, Inc."
 90
     1024
280
     0
281
     0
  0
CLASS
  1
ACAMGHOLECHARTSTDANSI
  2
AcAmgHoleChartStdANSI
  3
AmgDim|Product Description: AutoCAD Mechanical|Company: Autodesk, Inc.
 90
     1024
280
     0
281
     0
  0
CLASS
  1
ACAMGTITLESTD
  2
AcAmgTitleStd
  3
"AmgTitle|Product Description: AutoCAD Mechanical|Company: Autodesk, Inc."
 90
     1024
280
     0
281
     0
  0
CLASS
  1
ACMSECTIONSTANDARDCUSTOM
  2
AmdtSectionSymStdCustom
  3
"Amdt_StdImp|Product Description: AutoCAD Mechanical|Company: Autodesk, Inc."
 90
     1024
280
     0
281
     0
  0
CLASS
  1
ACMDETAILTANDARDCUSTOM
  2
AmdtDetailSymStdCustom
  3
"Amdt_StdImp|Product Description: AutoCAD Mechanical|Company: Autodesk, Inc."
 90
     1024
280
     0
281
     0
  0
CLASS
  1
FIELD
  2
AcDbField
  3
ObjectDBX Classes
 90
     1152
280
     0
281
     0
  0
CLASS
  1
FIELDLIST
  2
AcDbFieldList
  3
ObjectDBX Classes
 90
     1152
280
     0
281
     0
  0
CLASS
  1
AMDTNOTETEMPLATEDB
  2
AmdtNoteTemplateDB
  3
AcmSymBB|Product Description: AutoCAD Mechanical|Company: Autodesk, Inc.
 90
     1024
280
     0
281
     0
  0
CLASS
  1
ACAMGFILTERDAT
  2
AcAmgFilterDat
  3
"AcadM|Product Description: AutoCAD Mechanical|Company: Autodesk, Inc."
 90
     1024
280
     0
281
     0
  0
CLASS
  1
SORTENTSTABLE
  2
AcDbSortentsTable
  3
ObjectDBX Classes
 90
        0
280
     0
281
     0
  0
CLASS
  1
CAMSSTRUCTBTNSTATE
  2
StructBtnState
  3
DesignerAssemblies
 90
     1024
280
     0
281
     0
  0
CLASS
  1
DICTIONARYVAR
  2
AcDbDictionaryVar
  3
ObjectDBX Classes
 90
        0
280
     0
281
     0
  0
CLASS
  1
CELLSTYLEMAP
  2
AcDbCellStyleMap
  3
ObjectDBX Classes
 90
     1152
280
     0
281
     0
  0
CLASS
  1
ACDBPLACEHOLDER
  2
AcDbPlaceHolder
  3
ObjectDBX Classes
 90
        0
280
     0
281
     0
  0
CLASS
  1
LAYOUT
  2
AcDbLayout
  3
ObjectDBX Classes
 90
        0
280
     0
281
     0
  0
ENDSEC
  0
SECTION
  2
TABLES
  0
TABLE
  2
VPORT
  5
3F9F
330
0
100
AcDbSymbolTable
 70
     1
  0
VPORT
  5
400A
330
3F9F
100
AcDbSymbolTableRecord
100
AcDbViewportTableRecord
  2
*ACTIVE
 70
     0
 10
0.0
 20
0.0
 11
1.0
 21
1.0
 12
1336.5
 22
944.9999999999999
 13
0.0
 23
0.0
 14
1.0
 24
1.0
 15
0.0
 25
0.0
 16
0.0
 26
0.0
 36
1.0
 17
0.0
 27
0.0
 37
0.0
 40
1902.614015572859
 41
1.657015590200445
 42
50.0
 43
0.0
 44
0.0
 50
0.0
 51
0.0
 71
     0
 72
   100
 73
     1
 74
     1
 75
     0
 76
     0
 77
     0
 78
     0
281
     0
 65
     0
110
0.0
120
0.0
130
0.0
111
1.0
121
0.0
131
0.0
112
0.0
122
1.0
132
0.0
 79
     0
146
0.0
1001
ACAD_NAV_VCDISPLAY
1070
     3
  0
ENDTAB
  0
TABLE
  2
LTYPE
  5
3F9C
330
0
100
AcDbSymbolTable
 70
     8
  0
LTYPE
  5
3FF1
330
3F9C
100
AcDbSymbolTableRecord
100
AcDbLinetypeTableRecord
  2
ByBlock
 70
     0
  3

 72
    65
 73
     0
 40
0.0
  0
LTYPE
  5
3FF2
330
3F9C
100
AcDbSymbolTableRecord
100
AcDbLinetypeTableRecord
  2
ByLayer
 70
     0
  3

 72
    65
 73
     0
 40
0.0
  0
LTYPE
  5
3FF3
330
3F9C
100
AcDbSymbolTableRecord
100
AcDbLinetypeTableRecord
  2
CONTINUOUS
 70
     0
  3
Solid line
 72
    65
 73
     0
 40
0.0
  0
LTYPE
  5
4028
330
3F9C
100
AcDbSymbolTableRecord
100
AcDbLinetypeTableRecord
  2
HIDDEN
 70
     0
  3
Hidden __ __ __ __ __ __ __ __ __ __ __ __ __ _
 72
    65
 73
     2
 40
0.375
 49
0.25
 74
     0
 49
-0.125
 74
     0
  0
LTYPE
  5
4029
330
3F9C
100
AcDbSymbolTableRecord
100
AcDbLinetypeTableRecord
  2
PHANTOM2
 70
     0
  3
Phantom (.5x) ___ _ _ ___ _ _ ___ _ _ ___ _ _
 72
    65
 73
     6
 40
1.25
 49
0.625
 74
     0
 49
-0.125
 74
     0
 49
0.125
 74
     0
 49
-0.125
 74
     0
 49
0.125
 74
     0
 49
-0.125
 74
     0
  0
LTYPE
  5
402A
330
3F9C
100
AcDbSymbolTableRecord
100
AcDbLinetypeTableRecord
  2
CENTER
 70
     0
  3
Center ____ _ ____ _ ____ _ ____ _ ____ _ ____
 72
    65
 73
     4
 40
2.0
 49
1.25
 74
     0
 49
-0.25
 74
     0
 49
0.25
 74
     0
 49
-0.25
 74
     0
  0
LTYPE
  5
4066
330
3F9C
100
AcDbSymbolTableRecord
100
AcDbLinetypeTableRecord
  2
CENTER2
 70
     0
  3
Center (.5x) ___ _ ___ _ ___ _ ___ _ ___ _ ___
 72
    65
 73
     4
 40
1.125
 49
0.75
 74
     0
 49
-0.125
 74
     0
 49
0.125
 74
     0
 49
-0.125
 74
     0
  0
LTYPE
  5
4067
330
3F9C
100
AcDbSymbolTableRecord
100
AcDbLinetypeTableRecord
  2
HIDDEN2
 70
     0
  3
Hidden (.5x) _ _ _ _ _ _ _ _ _ _ _ _ _ _ _ _ _
 72
    65
 73
     2
 40
0.1875
 49
0.125
 74
     0
 49
-0.0625
 74
     0
  0
LTYPE
  5
4077
330
3F9C
100
AcDbSymbolTableRecord
100
AcDbLinetypeTableRecord
  2
ACANSTGB
 70
     0
  3
__ . . __ . .
 72
    65
 73
     6
 40
0.35433070866
 49
0.15748031496
 74
     0
 49
-0.03937007874
 74
     0
 49
0.03937007874
 74
     0
 49
-0.03937007874
 74
     0
 49
0.03937007874
 74
     0
 49
-0.03937007874
 74
     0
  0
LTYPE
  5
4078
330
3F9C
100
AcDbSymbolTableRecord
100
AcDbLinetypeTableRecord
  2
ACANSTGL
 70
     0
  3
_ _ _ _ _
 72
    65
 73
     2
 40
0.11811023622
 49
0.07874015748
 74
     0
 49
-0.03937007874
 74
     0
  0
ENDTAB
  0
TABLE
  2
LAYER
  5
3F99
330
0
100
AcDbSymbolTable
 70
     1
  0
LAYER
  5
3FEB
102
{ACAD_XDICTIONARY
360
4200
102
}
330
3F99
100
AcDbSymbolTableRecord
100
AcDbLayerTableRecord
  2
0
 70
     0
 62
     7
  6
CONTINUOUS
370
    -3
390
3FA6
  0
ENDTAB
  0
TABLE
  2
STYLE
  5
3F9A
330
0
100
AcDbSymbolTable
 70
     6
  0
STYLE
  5
3FEC
330
3F9A
100
AcDbSymbolTableRecord
100
AcDbTextStyleTableRecord
  2
STANDARD
 70
     0
 40
0.0
 41
0.8
 50
0.0
 71
     0
 42
36.0
  3
simplex
  4
extfont
  0
STYLE
  5
400B
330
3F9A
100
AcDbSymbolTableRecord
100
AcDbTextStyleTableRecord
  2
PTSH
 70
     0
 40
0.0
 41
0.9
 50
0.0
 71
     0
 42
4.0
  3
SIMPLEX
  4
EXTFONT
  0
STYLE
  5
4076
330
3F9A
100
AcDbSymbolTableRecord
100
AcDbTextStyleTableRecord
  2
ACANSGDT
 70
     0
 40
0.0
 41
1.0
 50
0.0
 71
     0
 42
36.0
  3
amgdt.shx
  4

  0
ENDTAB
  0
TABLE
  2
VIEW
  5
3F9D
330
0
100
AcDbSymbolTable
 70
     0
  0
ENDTAB
  0
TABLE
  2
UCS
  5
3F9E
330
0
100
AcDbSymbolTable
 70
     0
  0
ENDTAB
  0
TABLE
  2
APPID
  5
3FA0
330
0
100
AcDbSymbolTable
 70
    19
  0
APPID
  5
3FED
330
3FA0
100
AcDbSymbolTableRecord
100
AcDbRegAppTableRecord
  2
ACAD
 70
     0
  0
APPID
  5
3FF4
330
3FA0
100
AcDbSymbolTableRecord
100
AcDbRegAppTableRecord
  2
AcadAnnotative
 70
     0
  0
APPID
  5
400D
330
3FA0
100
AcDbSymbolTableRecord
100
AcDbRegAppTableRecord
  2
ACAD_MLEADERVER
 70
     0
  0
APPID
  5
400E
330
3FA0
100
AcDbSymbolTableRecord
100
AcDbRegAppTableRecord
  2
ACAD_PSEXT
 70
     0
  0
APPID
  5
4021
330
3FA0
100
AcDbSymbolTableRecord
100
AcDbRegAppTableRecord
  2
MCAD_NO_VIS
 70
     0
  0
APPID
  5
4022
330
3FA0
100
AcDbSymbolTableRecord
100
AcDbRegAppTableRecord
  2
ACAD_TEMP_GRAPHIC
 70
     0
  0
APPID
  5
402F
330
3FA0
100
AcDbSymbolTableRecord
100
AcDbRegAppTableRecord
  2
ACATTRIBSERVICES
 70
     0
  0
APPID
  5
4047
330
3FA0
100
AcDbSymbolTableRecord
100
AcDbRegAppTableRecord
  2
DESIGNERASSEMBLIES
 70
     0
  0
APPID
  5
4063
330
3FA0
100
AcDbSymbolTableRecord
100
AcDbRegAppTableRecord
  2
ACAD_DSTYLE_DIMJAG
 70
     0
  0
APPID
  5
4064
330
3FA0
100
AcDbSymbolTableRecord
100
AcDbRegAppTableRecord
  2
ACAD_DSTYLE_DIMBREAK
 70
     0
  0
APPID
  5
4094
330
3FA0
100
AcDbSymbolTableRecord
100
AcDbRegAppTableRecord
  2
GENIUS_GENSCREG_15
 70
     0
  0
APPID
  5
4095
330
3FA0
100
AcDbSymbolTableRecord
100
AcDbRegAppTableRecord
  2
GENIUS_GENOBJ-N-SDF_13
 70
     0
  0
APPID
  5
4096
330
3FA0
100
AcDbSymbolTableRecord
100
AcDbRegAppTableRecord
  2
GENIUS_GENODEF_13
 70
     0
  0
APPID
  5
4097
330
3FA0
100
AcDbSymbolTableRecord
100
AcDbRegAppTableRecord
  2
ACAD_NAV_VCDISPLAY
 70
     0
  0
APPID
  5
409F
330
3FA0
100
AcDbSymbolTableRecord
100
AcDbRegAppTableRecord
  2
ACAD_EXEMPT_FROM_CAD_STANDARDS
 70
     0
  0
APPID
  5
4304
330
3FA0
100
AcDbSymbolTableRecord
100
AcDbRegAppTableRecord
  2
ACAD_DSTYLE_DIMARC_LENGTH_SYMBOL
 70
     0
  0
APPID
  5
4305
330
3FA0
100
AcDbSymbolTableRecord
100
AcDbRegAppTableRecord
  2
ACAD_DSTYLE_DIM_LINETYPE
 70
     0
  0
APPID
  5
4306
330
3FA0
100
AcDbSymbolTableRecord
100
AcDbRegAppTableRecord
  2
ACAD_DSTYLE_DIM_EXT1_LINETYPE
 70
     0
  0
APPID
  5
4307
330
3FA0
100
AcDbSymbolTableRecord
100
AcDbRegAppTableRecord
  2
ACAD_DSTYLE_DIM_EXT2_LINETYPE
 70
     0
  0
ENDTAB
  0
TABLE
  2
DIMSTYLE
  5
3FA1
330
0
100
AcDbSymbolTable
 70
     9
100
AcDbDimStyleTable
 71
     1
340
400F
  0
DIMSTYLE
105
400F
330
3FA1
100
AcDbSymbolTableRecord
100
AcDbDimStyleTableRecord
  2
DIM1
 70
     0
 40
9.0
 41
2.799999999999998
 42
1.0
 43
5.0
 44
1.0
 45
0.1
 73
     0
 74
     0
 77
     3
 78
     8
140
2.5
141
0.0
143
1.0
146
0.7
147
0.85
172
     1
173
     1
176
     2
177
     2
178
     2
279
     2
284
     8
285
     8
286
     8
340
3FEC
  0
DIMSTYLE
105
4062
102
{ACAD_REACTORS
330
4052
102
}
330
3FA1
100
AcDbSymbolTableRecord
100
AcDbDimStyleTableRecord
  2
AM_ANSI
 70
     0
  4
mm
 41
0.12
 42
0.05
 43
0.5
 44
0.1
 47
0.1
 48
0.1
 78
     7
 79
     2
140
0.12
141
0.0
146
0.71
147
0.06
176
   256
177
   256
178
     2
274
     4
284
     7
340
3FEC
371
    -1
372
    -1
1001
ACAD_DSTYLE_DIMJAG
1070
   388
1040
1.5
1001
ACAD_DSTYLE_DIMBREAK
1070
   391
1040
0.125
1001
ACAD_DSTYLE_DIMARC_LENGTH_SYMBOL
1070
   379
1070
     1
1001
ACAD_DSTYLE_DIM_LINETYPE
1070
   380
1005
3FF1
1001
ACAD_DSTYLE_DIM_EXT1_LINETYPE
1070
   381
1005
3FF1
1001
ACAD_DSTYLE_DIM_EXT2_LINETYPE
1070
   382
1005
3FF1
  0
DIMSTYLE
105
4068
330
3FA1
100
AcDbSymbolTableRecord
100
AcDbDimStyleTableRecord
  2
AM_ANSI$3
 70
     0
  4
mm
 41
0.12
 42
0.05
 43
0.5
 44
0.1
 47
0.1
 48
0.1
 78
     7
 79
     2
140
0.12
141
0.0
146
0.71
147
0.06
176
   256
177
   256
178
     2
274
     4
284
     7
288
     1
289
     0
340
3FEC
371
    -1
372
    -1
1001
ACAD_DSTYLE_DIMBREAK
1070
   391
1040
0.125
1001
ACAD_DSTYLE_DIMJAG
1070
   388
1040
1.5
1001
ACAD_DSTYLE_DIMARC_LENGTH_SYMBOL
1070
   379
1070
     1
1001
ACAD_DSTYLE_DIM_LINETYPE
1070
   380
1005
3FF1
1001
ACAD_DSTYLE_DIM_EXT1_LINETYPE
1070
   381
1005
3FF1
1001
ACAD_DSTYLE_DIM_EXT2_LINETYPE
1070
   382
1005
3FF1
  0
DIMSTYLE
105
4069
330
3FA1
100
AcDbSymbolTableRecord
100
AcDbDimStyleTableRecord
  2
AM_ANSI$4
 70
     0
  4
mm
 41
0.12
 42
0.05
 43
0.5
 44
0.1
 47
0.1
 48
0.1
 78
     7
 79
     2
140
0.12
141
0.0
146
0.71
147
0.06
176
   256
177
   256
178
     2
274
     4
284
     7
288
     1
289
     0
340
3FEC
371
    -1
372
    -1
1001
ACAD_DSTYLE_DIMBREAK
1070
   391
1040
0.125
1001
ACAD_DSTYLE_DIMJAG
1070
   388
1040
1.5
1001
ACAD_DSTYLE_DIMARC_LENGTH_SYMBOL
1070
   379
1070
     1
1001
ACAD_DSTYLE_DIM_LINETYPE
1070
   380
1005
3FF1
1001
ACAD_DSTYLE_DIM_EXT1_LINETYPE
1070
   381
1005
3FF1
1001
ACAD_DSTYLE_DIM_EXT2_LINETYPE
1070
   382
1005
3FF1
  0
DIMSTYLE
105
406A
330
3FA1
100
AcDbSymbolTableRecord
100
AcDbDimStyleTableRecord
  2
AM_ANSI$7
 70
     0
  4
mm
 41
0.12
 42
0.05
 43
0.5
 44
0.1
 47
0.1
 48
0.1
 78
     7
 79
     2
140
0.12
141
0.0
146
0.71
147
0.06
176
   256
177
   256
178
     2
274
     4
284
     7
340
3FEC
371
    -1
372
    -1
1001
ACAD_DSTYLE_DIMBREAK
1070
   391
1040
0.125
1001
ACAD_DSTYLE_DIMJAG
1070
   388
1040
1.5
1001
ACAD_DSTYLE_DIMARC_LENGTH_SYMBOL
1070
   379
1070
     1
1001
ACAD_DSTYLE_DIM_LINETYPE
1070
   380
1005
3FF1
1001
ACAD_DSTYLE_DIM_EXT1_LINETYPE
1070
   381
1005
3FF1
1001
ACAD_DSTYLE_DIM_EXT2_LINETYPE
1070
   382
1005
3FF1
  0
DIMSTYLE
105
406B
330
3FA1
100
AcDbSymbolTableRecord
100
AcDbDimStyleTableRecord
  2
AM_ANSI$SF
 70
     0
  4
mm
 41
0.12
 42
0.05
 43
0.5
 44
0.1
 47
0.1
 48
0.1
 75
     1
 76
     1
 78
     7
 79
     2
140
0.12
141
0.0
146
0.71
147
0.06
176
   256
177
   256
178
     2
274
     4
284
     7
340
3FEC
371
    -1
372
    -1
1001
ACAD_DSTYLE_DIMBREAK
1070
   391
1040
0.125
1001
ACAD_DSTYLE_DIMJAG
1070
   388
1040
1.5
1001
ACAD_DSTYLE_DIMARC_LENGTH_SYMBOL
1070
   379
1070
     1
1001
ACAD_DSTYLE_DIM_LINETYPE
1070
   380
1005
3FF1
1001
ACAD_DSTYLE_DIM_EXT1_LINETYPE
1070
   381
1005
3FF1
1001
ACAD_DSTYLE_DIM_EXT2_LINETYPE
1070
   382
1005
3FF1
  0
DIMSTYLE
105
4070
330
3FA1
100
AcDbSymbolTableRecord
100
AcDbDimStyleTableRecord
  2
AM_ANSI$SH
 70
     0
  4
mm
 41
0.12
 42
0.05
 43
0.5
 44
0.1
 47
0.1
 48
0.1
 75
     1
 76
     1
 78
     7
 79
     2
140
0.12
141
0.0
146
0.71
147
0.06
173
     1
176
   256
177
   256
178
     2
274
     4
284
     7
340
3FEC
343
406C
371
    -1
372
    -1
1001
ACAD_DSTYLE_DIMBREAK
1070
   391
1040
0.125
1001
ACAD_DSTYLE_DIMJAG
1070
   388
1040
1.5
1001
ACAD_DSTYLE_DIMARC_LENGTH_SYMBOL
1070
   379
1070
     1
1001
ACAD_DSTYLE_DIM_LINETYPE
1070
   380
1005
3FF1
1001
ACAD_DSTYLE_DIM_EXT1_LINETYPE
1070
   381
1005
3FF1
1001
ACAD_DSTYLE_DIM_EXT2_LINETYPE
1070
   382
1005
3FF1
  0
ENDTAB
  0
TABLE
  2
BLOCK_RECORD
  5
3F98
330
0
100
AcDbSymbolTable
 70
     7
  0
BLOCK_RECORD
  5
4006
102
{ACAD_XDICTIONARY
360
40AA
102
}
330
3F98
100
AcDbSymbolTableRecord
100
AcDbBlockTableRecord
  2
*Model_Space
340
4009
  0
BLOCK_RECORD
  5
4002
330
3F98
100
AcDbSymbolTableRecord
100
AcDbBlockTableRecord
  2
*Paper_Space
340
4005
  0
BLOCK_RECORD
  5
4017
330
3F98
100
AcDbSymbolTableRecord
100
AcDbBlockTableRecord
  2
_OPEN
340
0
  0
BLOCK_RECORD
  5
406C
330
3F98
100
AcDbSymbolTableRecord
100
AcDbBlockTableRecord
  2
GENAXEH
340
0
  0
BLOCK_RECORD
  5
407A
330
3F98
100
AcDbSymbolTableRecord
100
AcDbBlockTableRecord
  2
_ACMFILLEDHALF
340
0
  0
ENDTAB
  0
ENDSEC
  0
SECTION
  2
BLOCKS
  0
BLOCK
  5
4007
330
4006
100
AcDbEntity
  8
0
100
AcDbBlockBegin
  2
*Model_Space
 70
     0
 10
0.0
 20
0.0
 30
0.0
  3
*Model_Space
  1

  0
ENDBLK
  5
4008
330
4006
100
AcDbEntity
  8
0
100
AcDbBlockEnd
  0
BLOCK
  5
4003
330
4002
100
AcDbEntity
 67
     1
  8
0
100
AcDbBlockBegin
  2
*Paper_Space
 70
     0
 10
0.0
 20
0.0
 30
0.0
  3
*Paper_Space
  1

  0
ENDBLK
  5
4004
330
4002
100
AcDbEntity
 67
     1
  8
0
100
AcDbBlockEnd
  0
BLOCK
  5
4018
330
4017
100
AcDbEntity
  8
0
100
AcDbBlockBegin
  2
_OPEN
 70
     0
 10
0.0
 20
0.0
 30
0.0
  3
_OPEN
  1
H1111.DWG
  0
LINE
  5
244A
330
4017
100
AcDbEntity
  8
0
  6
ByBlock
 62
     0
100
AcDbLine
 10
-1.0
 20
0.1666666666666666
 30
0.0
 11
0.0
 21
0.0
 31
0.0
  0
LINE
  5
244B
330
4017
100
AcDbEntity
  8
0
  6
ByBlock
 62
     0
100
AcDbLine
 10
0.0
 20
0.0
 30
0.0
 11
-1.0
 21
-0.1666666666666666
 31
0.0
  0
LINE
  5
244C
330
4017
100
AcDbEntity
  8
0
  6
ByBlock
 62
     0
100
AcDbLine
 10
0.0
 20
0.0
 30
0.0
 11
-1.0
 21
0.0
 31
0.0
  0
ENDBLK
  5
244D
330
4017
100
AcDbEntity
  8
0
100
AcDbBlockEnd
  0
BLOCK
  5
406E
330
406C
100
AcDbEntity
  8
0
100
AcDbBlockBegin
  2
GENAXEH
 70
     0
 10
0.0
 20
0.0
 30
0.0
  3
GENAXEH
  1

  0
LINE
  5
406D
330
406C
100
AcDbEntity
  8
0
100
AcDbLine
 10
-1.0
 20
0.0
 30
0.0
 11
1.0
 21
0.0
 31
0.0
  0
ENDBLK
  5
406F
330
406C
100
AcDbEntity
  8
0
100
AcDbBlockEnd
  0
BLOCK
  5
407B
330
407A
100
AcDbEntity
  8
0
100
AcDbBlockBegin
  2
_ACMFILLEDHALF
 70
     0
 10
0.0
 20
0.0
 30
0.0
  3
_ACMFILLEDHALF
  1

  0
TRACE
  5
407D
330
407A
100
AcDbEntity
  8
0
 62
     0
100
AcDbTrace
 10
-0.8
 20
0.0
 30
0.0
 11
-1.0
 21
0.166666666
 31
0.0
 12
0.0
 22
0.0
 32
0.0
 13
0.0
 23
0.0
 33
0.0
  0
LINE
  5
407E
330
407A
100
AcDbEntity
  8
0
 62
     0
100
AcDbLine
 10
-1.0
 20
0.0
 30
0.0
 11
-0.8
 21
0.0
 31
0.0
  0
ENDBLK
  5
407C
330
407A
100
AcDbEntity
  8
0
100
AcDbBlockEnd
  0
ENDSEC
  0
SECTION
  2
ENTITIES
  0
TEXT
  5
2529
330
4006
100
AcDbEntity
  8
0
  6
Continuous
100
AcDbText
 10
2437.772430921948
 20
62.14375857680079
 30
0.0
 40
20.0
  1
SS5VH-F
 41
0.9
  7
PTSH
 72
     1
 11
2498.201002350519
 21
72.14375857680079
 31
0.0
100
AcDbText
 73
     2
  0
POLYLINE
  5
2563
330
4006
100
AcDbEntity
  8
0
100
AcDb2dPolyline
 66
     1
 10
0.0
 20
0.0
 30
0.0
 70
     1
  0
VERTEX
  5
3CD1
330
2563
100
AcDbEntity
  8
0
100
AcDbVertex
100
AcDb2dVertex
 10
99.0
 20
45.0
 30
0.0
  0
VERTEX
  5
3CD2
330
2563
100
AcDbEntity
  8
0
100
AcDbVertex
100
AcDb2dVertex
 10
2574.0
 20
45.0
 30
0.0
  0
VERTEX
  5
3CD3
330
2563
100
AcDbEntity
  8
0
100
AcDbVertex
100
AcDb2dVertex
 10
2574.0
 20
1719.0
 30
0.0
  0
VERTEX
  5
3CD4
330
2563
100
AcDbEntity
  8
0
100
AcDbVertex
100
AcDb2dVertex
 10
99.0
 20
1719.0
 30
0.0
  0
SEQEND
  5
3CD5
330
2563
100
AcDbEntity
  8
0
  0
TEXT
  5
2B75
330
4006
100
AcDbEntity
  8
0
100
AcDbText
 10
1068.488769567044
 20
92.73643751103007
 30
0.0
 40
30.0
  1
TLV  SS5VH (JIS40K)
100
AcDbText
  0
ARC
  5
2B7B
330
4006
100
AcDbEntity
  8
0
100
AcDbCircle
 10
611.41218616936
 20
569.6198956956212
 30
0.0
 40
15.0
100
AcDbArc
 50
180.0
 51
269.4249671687521
  0
ARC
  5
2B7E
330
4006
100
AcDbEntity
  8
0
100
AcDbCircle
 10
611.41218616936
 20
660.2209254776879
 30
0.0
 40
15.0
100
AcDbArc
 50
90.34653099767071
 51
180.0
  0
LINE
  5
2B7F
330
4006
100
AcDbEntity
  8
0
100
AcDbLine
 10
452.9719953307865
 20
670.827252849348
 30
0.0
 11
431.6104907000897
 21
649.4657482186512
 31
0.0
  0
ARC
  5
2B80
330
4006
100
AcDbEntity
  8
0
100
AcDbCircle
 10
520.991393565946
 20
660.2209254776879
 30
0.0
 40
15.0
100
AcDbArc
 50
0.0
 51
89.65346900232928
  0
ARC
  5
2B81
330
4006
100
AcDbEntity
  8
0
100
AcDbCircle
 10
312.3897450720742
 20
651.9370886340553
 30
0.0
 40
15.0
100
AcDbArc
 50
119.6129992372562
 51
180.0150276326181
  0
ARC
  5
2B82
330
4006
100
AcDbEntity
  8
0
100
AcDbCircle
 10
349.4501794048028
 20
586.7333754953882
 30
0.0
 40
90.0
100
AcDbArc
 50
100.5197752911558
 51
119.6129992372563
  0
ARC
  5
2B83
330
4006
100
AcDbEntity
  8
0
100
AcDbCircle
 10
353.3804999740642
 20
586.7333754953882
 30
0.0
 40
90.0
100
AcDbArc
 50
60.38700076274362
 51
79.48022470884419
  0
ARC
  5
2B84
330
4006
100
AcDbEntity
  8
0
100
AcDbCircle
 10
390.4409343067928
 20
651.9370886340553
 30
0.0
 40
15.0
100
AcDbArc
 50
359.9849723673819
 51
60.38700076274377
  0
ARC
  5
2B85
330
4006
100
AcDbEntity
  8
0
100
AcDbCircle
 10
390.4312368027066
 20
577.9049043622984
 30
0.0
 40
15.0
100
AcDbArc
 50
299.61914993251
 51
0.0
  0
LINE
  5
2B8B
330
4006
100
AcDbEntity
  8
0
100
AcDbLine
 10
297.4091643225402
 20
577.8954443702224
 30
0.0
 11
297.3897455880124
 21
651.9331544090809
 31
0.0
  0
LINE
  5
2B8C
330
4006
100
AcDbEntity
  8
0
100
AcDbLine
 10
369.8132390935189
 20
554.6206511315499
 30
0.0
 11
333.0174402853454
 21
554.6206511315499
 31
0.0
  0
LINE
  5
2B8D
330
4006
100
AcDbEntity
  8
0
100
AcDbLine
 10
336.4153396894335
 20
553.6529466037127
 30
0.0
 11
366.4153396894343
 21
553.6529466037118
 31
0.0
  0
ARC
  5
2B94
330
4006
100
AcDbEntity
  8
0
100
AcDbCircle
 10
349.4668763063373
 20
643.1046386919632
 30
0.0
 40
90.0
100
AcDbArc
 50
240.3893924623192
 51
259.4687656985307
  0
POLYLINE
  5
2B95
330
4006
100
AcDbEntity
  8
0
100
AcDb2dPolyline
 66
     1
 10
0.0
 20
0.0
 30
0.0
  0
VERTEX
  5
3CD6
330
2B95
100
AcDbEntity
  8
0
100
AcDbVertex
100
AcDb2dVertex
 10
335.5891815732748
 20
554.6206511315495
 30
0.0
  0
VERTEX
  5
3CD7
330
2B95
100
AcDbEntity
  8
0
100
AcDbVertex
100
AcDb2dVertex
 10
336.4153396894335
 20
553.6529466037127
 30
0.0
  0
SEQEND
  5
3CD8
330
2B95
100
AcDbEntity
  8
0
  0
ARC
  5
2B9C
330
4006
100
AcDbEntity
  8
0
100
AcDbCircle
 10
312.409163806602
 20
577.8993785951969
 30
0.0
 40
15.0
100
AcDbArc
 50
180.0150276326181
 51
240.389392462319
  0
ARC
  5
2B9D
330
4006
100
AcDbEntity
  8
0
100
AcDbCircle
 10
353.3638030725287
 20
643.1046386919632
 30
0.0
 40
90.0
100
AcDbArc
 50
280.5312343014693
 51
299.61914993251
  0
POLYLINE
  5
2B9E
330
4006
100
AcDbEntity
  8
0
100
AcDb2dPolyline
 66
     1
 10
0.0
 20
0.0
 30
0.0
  0
VERTEX
  5
3CD9
330
2B9E
100
AcDbEntity
  8
0
100
AcDbVertex
100
AcDb2dVertex
 10
367.241497805594
 20
554.6206511315495
 30
0.0
  0
VERTEX
  5
3CDA
330
2B9E
100
AcDbEntity
  8
0
100
AcDbVertex
100
AcDb2dVertex
 10
366.4153396894343
 20
553.6529466037127
 30
0.0
  0
SEQEND
  5
3CDB
330
2B9E
100
AcDbEntity
  8
0
  0
TEXT
  5
2BA9
330
4006
100
AcDbEntity
  8
0
100
AcDbText
 10
455.1440784578182
 20
444.31376193731
 30
0.0
 40
20.0
  1
15
 41
0.8
 72
     4
 11
466.5726498863896
 21
454.31376193731
 31
0.0
100
AcDbText
  0
LINE
  5
2BAB
330
4006
100
AcDbEntity
  8
0
100
AcDbLine
 10
515.9203935659471
 20
553.6529466037127
 30
0.0
 11
485.920393565946
 21
553.6529466037118
 31
0.0
  0
LINE
  5
2BB2
330
4006
100
AcDbEntity
  8
0
100
AcDbLine
 10
521.1419342818707
 20
554.6206511315495
 30
0.0
 11
463.5775970485838
 21
554.6206511315495
 31
0.0
  0
LINE
  5
2BB3
330
4006
100
AcDbEntity
  8
0
100
AcDbLine
 10
427.9664080987457
 20
589.0017751680104
 30
0.0
 11
427.9527905800522
 21
640.9212191983249
 31
0.0
  0
LINE
  5
2BB4
330
4006
100
AcDbEntity
  8
0
100
AcDbLine
 10
405.4312368027075
 20
577.9049043622984
 30
0.0
 11
405.4312368027075
 21
652.4763762020316
 31
0.0
  0
LINE
  5
2BB5
330
4006
100
AcDbEntity
  8
0
100
AcDbLine
 10
452.9709953307856
 20
559.0140494137512
 30
0.0
 11
431.6260355200109
 21
580.3590092245257
 31
0.0
  0
ARC
  5
2BB6
330
4006
100
AcDbEntity
  8
0
100
AcDbCircle
 10
440.4648702848425
 20
589.1978439893573
 30
0.0
 40
12.5
100
AcDbArc
 50
180.0196485952699
 51
225.0000000000002
  0
ARC
  5
2BB7
330
4006
100
AcDbEntity
  8
0
100
AcDbCircle
 10
463.5775970485838
 20
569.6206511315485
 30
0.0
 40
15.0
100
AcDbArc
 50
225.0000000000004
 51
270.0
  0
POLYLINE
  5
2BB8
330
4006
100
AcDbEntity
  8
0
100
AcDb2dPolyline
 66
     1
 10
0.0
 20
0.0
 30
0.0
  0
VERTEX
  5
3CDC
330
2BB8
100
AcDbEntity
  8
0
100
AcDbVertex
100
AcDb2dVertex
 10
485.0942354497865
 20
554.6206511315495
 30
0.0
  0
VERTEX
  5
3CDD
330
2BB8
100
AcDbEntity
  8
0
100
AcDbVertex
100
AcDb2dVertex
 10
485.920393565946
 20
553.6529466037127
 30
0.0
  0
SEQEND
  5
3CDE
330
2BB8
100
AcDbEntity
  8
0
  0
ARC
  5
2BBF
330
4006
100
AcDbEntity
  8
0
100
AcDbCircle
 10
440.4493254649215
 20
640.6269134538186
 30
0.0
 40
12.5
100
AcDbArc
 50
134.9999999999991
 51
178.9452223899291
  0
LINE
  5
2BC0
330
4006
100
AcDbEntity
  8
0
100
AcDbLine
 10
596.4121861693601
 20
569.6198956956212
 30
0.0
 11
596.4121861693601
 21
660.2209254776888
 31
0.0
  0
LINE
  5
2BC1
330
4006
100
AcDbEntity
  8
0
100
AcDbLine
 10
535.991393565946
 20
569.6198956956212
 30
0.0
 11
535.991393565946
 21
660.2209254776888
 31
0.0
  0
ARC
  5
2BC2
330
4006
100
AcDbEntity
  8
0
100
AcDbCircle
 10
520.991393565946
 20
569.6198956956212
 30
0.0
 40
15.0
100
AcDbArc
 50
270.5750328312478
 51
0.0
  0
POLYLINE
  5
2BC3
330
4006
100
AcDbEntity
  8
0
100
AcDb2dPolyline
 66
     1
 10
0.0
 20
0.0
 30
0.0
  0
VERTEX
  5
3CDF
330
2BC3
100
AcDbEntity
  8
0
100
AcDbVertex
100
AcDb2dVertex
 10
516.7465516821057
 20
554.6206511315495
 30
0.0
  0
VERTEX
  5
3CE0
330
2BC3
100
AcDbEntity
  8
0
100
AcDbVertex
100
AcDb2dVertex
 10
515.9203935659471
 20
553.6529466037127
 30
0.0
  0
SEQEND
  5
3CE1
330
2BC3
100
AcDbEntity
  8
0
  0
LINE
  5
2BCC
330
4006
100
AcDbEntity
  8
0
100
AcDbLine
 10
369.8122390935232
 20
675.2206511315497
 30
0.0
 11
333.0184402853456
 21
675.2206511315502
 31
0.0
  0
LINE
  5
2BCF
330
4006
100
AcDbEntity
  8
0
100
AcDbLine
 10
336.4153396894344
 20
676.1883556593865
 30
0.0
 11
366.4153396894353
 21
676.1883556593875
 31
0.0
  0
POLYLINE
  5
2BD8
330
4006
100
AcDbEntity
  8
0
100
AcDb2dPolyline
 66
     1
 10
0.0
 20
0.0
 30
0.0
  0
VERTEX
  5
3CE2
330
2BD8
100
AcDbEntity
  8
0
100
AcDbVertex
100
AcDb2dVertex
 10
335.5891815732757
 20
675.2206511315497
 30
0.0
  0
VERTEX
  5
3CE3
330
2BD8
100
AcDbEntity
  8
0
100
AcDbVertex
100
AcDb2dVertex
 10
336.4153396894344
 20
676.1883556593865
 30
0.0
  0
SEQEND
  5
3CE4
330
2BD8
100
AcDbEntity
  8
0
  0
POLYLINE
  5
2BE0
330
4006
100
AcDbEntity
  8
0
100
AcDb2dPolyline
 66
     1
 10
0.0
 20
0.0
 30
0.0
  0
VERTEX
  5
3CE5
330
2BE0
100
AcDbEntity
  8
0
100
AcDbVertex
100
AcDb2dVertex
 10
367.2414978055948
 20
675.2206511315497
 30
0.0
  0
VERTEX
  5
3CE6
330
2BE0
100
AcDbEntity
  8
0
100
AcDbVertex
100
AcDb2dVertex
 10
366.4153396894353
 20
676.1883556593865
 30
0.0
  0
SEQEND
  5
3CE7
330
2BE0
100
AcDbEntity
  8
0
  0
ARC
  5
2BE7
330
4006
100
AcDbEntity
  8
0
100
AcDbCircle
 10
481.978132292903
 20
887.8455546648055
 30
0.0
 40
54.01326127304307
100
AcDbArc
 50
90.84026837553482
 51
269.1597316244652
  0
LINE
  5
2BE9
330
4006
100
AcDbEntity
  8
0
100
AcDbLine
 10
515.920393565946
 20
676.1883556593865
 30
0.0
 11
485.9203935659452
 21
676.1883556593875
 31
0.0
  0
LINE
  5
2BF0
330
4006
100
AcDbEntity
  8
0
100
AcDbLine
 10
521.0821146159177
 20
675.2206511315497
 30
0.0
 11
463.5785970485849
 21
675.2206511315497
 31
0.0
  0
LINE
  5
2BF2
330
4006
100
AcDbEntity
  8
0
100
AcDbLine
 10
502.987225223076
 20
728.14211302732
 30
0.0
 11
502.987225223076
 21
775.4106755273205
 31
0.0
  0
LINE
  5
2BF3
330
4006
100
AcDbEntity
  8
0
100
AcDbLine
 10
498.2605377230769
 20
751.7755505273196
 30
0.0
 11
498.2605377230769
 21
737.8013630273193
 31
0.0
  0
ARC
  5
2BF5
330
4006
100
AcDbEntity
  8
0
100
AcDbCircle
 10
463.5785970485849
 20
660.2206511315489
 30
0.0
 40
15.0
100
AcDbArc
 50
89.99999999999998
 51
134.9999999999996
  0
POLYLINE
  5
2BF8
330
4006
100
AcDbEntity
  8
0
100
AcDb2dPolyline
 66
     1
 10
0.0
 20
0.0
 30
0.0
  0
VERTEX
  5
3CE8
330
2BF8
100
AcDbEntity
  8
0
100
AcDbVertex
100
AcDb2dVertex
 10
485.0942354497856
 20
675.2206511315497
 30
0.0
  0
VERTEX
  5
3CE9
330
2BF8
100
AcDbEntity
  8
0
100
AcDbVertex
100
AcDb2dVertex
 10
485.9203935659452
 20
676.1883556593865
 30
0.0
  0
SEQEND
  5
3CEA
330
2BF8
100
AcDbEntity
  8
0
  0
LINE
  5
2BFE
330
4006
100
AcDbEntity
  8
0
100
AcDbLine
 10
493.5338502230766
 20
737.8013630273193
 30
0.0
 11
502.987225223076
 21
728.14211302732
 31
0.0
  0
LINE
  5
2BFF
330
4006
100
AcDbEntity
  8
0
100
AcDbLine
 10
498.2605377230769
 20
737.8013630273193
 30
0.0
 11
493.5338502230766
 21
737.8013630273193
 31
0.0
  0
LINE
  5
2C00
330
4006
100
AcDbEntity
  8
0
100
AcDbLine
 10
502.987225223076
 20
775.4106755273205
 30
0.0
 11
493.5338502230766
 21
784.8640505273199
 31
0.0
  0
LINE
  5
2C01
330
4006
100
AcDbEntity
  8
0
100
AcDbLine
 10
493.5338502230766
 20
756.5039255273198
 30
0.0
 11
498.2605377230769
 21
751.7755505273196
 31
0.0
  0
LINE
  5
2C02
330
4006
100
AcDbEntity
  8
0
100
AcDbLine
 10
493.5338502230766
 20
784.8640505273199
 30
0.0
 11
493.5338502230766
 21
756.5039255273198
 31
0.0
  0
POLYLINE
  5
2C06
330
4006
100
AcDbEntity
  8
0
100
AcDb2dPolyline
 66
     1
 10
0.0
 20
0.0
 30
0.0
  0
VERTEX
  5
3CEB
330
2C06
100
AcDbEntity
  8
0
100
AcDbVertex
100
AcDb2dVertex
 10
516.7465516821048
 20
675.2206511315497
 30
0.0
  0
VERTEX
  5
3CEC
330
2C06
100
AcDbEntity
  8
0
100
AcDbVertex
100
AcDb2dVertex
 10
515.920393565946
 20
676.1883556593865
 30
0.0
  0
SEQEND
  5
3CED
330
2C06
100
AcDbEntity
  8
0
  0
POLYLINE
  5
2C0D
330
4006
100
AcDbEntity
  8
0
100
AcDb3dPolyline
 66
     1
 10
0.0
 20
0.0
 30
0.0
 70
     8
  0
VERTEX
  5
3E12
330
2C0D
100
AcDbEntity
  8
0
100
AcDbVertex
100
AcDb3dPolylineVertex
 10
445.276
 20
873.357
 30
0.0
 70
    32
  0
VERTEX
  5
3E13
330
2C0D
100
AcDbEntity
  8
0
100
AcDbVertex
100
AcDb3dPolylineVertex
 10
444.978
 20
873.2410000000001
 30
0.0
 70
    32
  0
VERTEX
  5
3E14
330
2C0D
100
AcDbEntity
  8
0
100
AcDbVertex
100
AcDb3dPolylineVertex
 10
444.6769999999999
 20
873.137
 30
0.0
 70
    32
  0
VERTEX
  5
3E15
330
2C0D
100
AcDbEntity
  8
0
100
AcDbVertex
100
AcDb3dPolylineVertex
 10
444.375
 20
873.046
 30
0.0
 70
    32
  0
VERTEX
  5
3E16
330
2C0D
100
AcDbEntity
  8
0
100
AcDbVertex
100
AcDb3dPolylineVertex
 10
444.071
 20
872.967
 30
0.0
 70
    32
  0
VERTEX
  5
3E17
330
2C0D
100
AcDbEntity
  8
0
100
AcDbVertex
100
AcDb3dPolylineVertex
 10
443.766
 20
872.901
 30
0.0
 70
    32
  0
VERTEX
  5
3E18
330
2C0D
100
AcDbEntity
  8
0
100
AcDbVertex
100
AcDb3dPolylineVertex
 10
443.459
 20
872.8469999999999
 30
0.0
 70
    32
  0
VERTEX
  5
3E19
330
2C0D
100
AcDbEntity
  8
0
100
AcDbVertex
100
AcDb3dPolylineVertex
 10
443.151
 20
872.8060000000001
 30
0.0
 70
    32
  0
VERTEX
  5
3E1A
330
2C0D
100
AcDbEntity
  8
0
100
AcDbVertex
100
AcDb3dPolylineVertex
 10
442.843
 20
872.7769999999999
 30
0.0
 70
    32
  0
VERTEX
  5
3E1B
330
2C0D
100
AcDbEntity
  8
0
100
AcDbVertex
100
AcDb3dPolylineVertex
 10
442.534
 20
872.761
 30
0.0
 70
    32
  0
VERTEX
  5
3E1C
330
2C0D
100
AcDbEntity
  8
0
100
AcDbVertex
100
AcDb3dPolylineVertex
 10
442.225
 20
872.7580000000001
 30
0.0
 70
    32
  0
VERTEX
  5
3E1D
330
2C0D
100
AcDbEntity
  8
0
100
AcDbVertex
100
AcDb3dPolylineVertex
 10
441.9159999999999
 20
872.7669999999999
 30
0.0
 70
    32
  0
VERTEX
  5
3E1E
330
2C0D
100
AcDbEntity
  8
0
100
AcDbVertex
100
AcDb3dPolylineVertex
 10
441.6069999999999
 20
872.789
 30
0.0
 70
    32
  0
VERTEX
  5
3E1F
330
2C0D
100
AcDbEntity
  8
0
100
AcDbVertex
100
AcDb3dPolylineVertex
 10
441.299
 20
872.8239999999999
 30
0.0
 70
    32
  0
VERTEX
  5
3E20
330
2C0D
100
AcDbEntity
  8
0
100
AcDbVertex
100
AcDb3dPolylineVertex
 10
440.9919999999999
 20
872.8710000000001
 30
0.0
 70
    32
  0
VERTEX
  5
3E21
330
2C0D
100
AcDbEntity
  8
0
100
AcDbVertex
100
AcDb3dPolylineVertex
 10
440.6859999999999
 20
872.9309999999999
 30
0.0
 70
    32
  0
VERTEX
  5
3E22
330
2C0D
100
AcDbEntity
  8
0
100
AcDbVertex
100
AcDb3dPolylineVertex
 10
440.381
 20
873.0030000000001
 30
0.0
 70
    32
  0
VERTEX
  5
3E23
330
2C0D
100
AcDbEntity
  8
0
100
AcDbVertex
100
AcDb3dPolylineVertex
 10
440.078
 20
873.088
 30
0.0
 70
    32
  0
VERTEX
  5
3E24
330
2C0D
100
AcDbEntity
  8
0
100
AcDbVertex
100
AcDb3dPolylineVertex
 10
439.7759999999999
 20
873.1849999999999
 30
0.0
 70
    32
  0
VERTEX
  5
3E25
330
2C0D
100
AcDbEntity
  8
0
100
AcDbVertex
100
AcDb3dPolylineVertex
 10
439.477
 20
873.295
 30
0.0
 70
    32
  0
VERTEX
  5
3E26
330
2C0D
100
AcDbEntity
  8
0
100
AcDbVertex
100
AcDb3dPolylineVertex
 10
439.1799999999999
 20
873.4160000000001
 30
0.0
 70
    32
  0
VERTEX
  5
3E27
330
2C0D
100
AcDbEntity
  8
0
100
AcDbVertex
100
AcDb3dPolylineVertex
 10
438.886
 20
873.55
 30
0.0
 70
    32
  0
VERTEX
  5
3E28
330
2C0D
100
AcDbEntity
  8
0
100
AcDbVertex
100
AcDb3dPolylineVertex
 10
438.595
 20
873.6959999999999
 30
0.0
 70
    32
  0
VERTEX
  5
3E29
330
2C0D
100
AcDbEntity
  8
0
100
AcDbVertex
100
AcDb3dPolylineVertex
 10
438.3059999999999
 20
873.853
 30
0.0
 70
    32
  0
VERTEX
  5
3E2A
330
2C0D
100
AcDbEntity
  8
0
100
AcDbVertex
100
AcDb3dPolylineVertex
 10
438.0209999999999
 20
874.0219999999998
 30
0.0
 70
    32
  0
VERTEX
  5
3E2B
330
2C0D
100
AcDbEntity
  8
0
100
AcDbVertex
100
AcDb3dPolylineVertex
 10
437.74
 20
874.2029999999999
 30
0.0
 70
    32
  0
VERTEX
  5
3E2C
330
2C0D
100
AcDbEntity
  8
0
100
AcDbVertex
100
AcDb3dPolylineVertex
 10
437.462
 20
874.3960000000001
 30
0.0
 70
    32
  0
VERTEX
  5
3E2D
330
2C0D
100
AcDbEntity
  8
0
100
AcDbVertex
100
AcDb3dPolylineVertex
 10
437.189
 20
874.5989999999999
 30
0.0
 70
    32
  0
VERTEX
  5
3E2E
330
2C0D
100
AcDbEntity
  8
0
100
AcDbVertex
100
AcDb3dPolylineVertex
 10
436.92
 20
874.8139999999999
 30
0.0
 70
    32
  0
VERTEX
  5
3E2F
330
2C0D
100
AcDbEntity
  8
0
100
AcDbVertex
100
AcDb3dPolylineVertex
 10
436.655
 20
875.0399999999999
 30
0.0
 70
    32
  0
VERTEX
  5
3E30
330
2C0D
100
AcDbEntity
  8
0
100
AcDbVertex
100
AcDb3dPolylineVertex
 10
436.3949999999999
 20
875.276
 30
0.0
 70
    32
  0
VERTEX
  5
3E31
330
2C0D
100
AcDbEntity
  8
0
100
AcDbVertex
100
AcDb3dPolylineVertex
 10
436.1399999999999
 20
875.523
 30
0.0
 70
    32
  0
VERTEX
  5
3E32
330
2C0D
100
AcDbEntity
  8
0
100
AcDbVertex
100
AcDb3dPolylineVertex
 10
435.89
 20
875.7799999999999
 30
0.0
 70
    32
  0
VERTEX
  5
3E33
330
2C0D
100
AcDbEntity
  8
0
100
AcDbVertex
100
AcDb3dPolylineVertex
 10
435.6459999999999
 20
876.0479999999999
 30
0.0
 70
    32
  0
VERTEX
  5
3E34
330
2C0D
100
AcDbEntity
  8
0
100
AcDbVertex
100
AcDb3dPolylineVertex
 10
435.407
 20
876.3250000000001
 30
0.0
 70
    32
  0
VERTEX
  5
3E35
330
2C0D
100
AcDbEntity
  8
0
100
AcDbVertex
100
AcDb3dPolylineVertex
 10
435.174
 20
876.6119999999999
 30
0.0
 70
    32
  0
VERTEX
  5
3E36
330
2C0D
100
AcDbEntity
  8
0
100
AcDbVertex
100
AcDb3dPolylineVertex
 10
434.9469999999999
 20
876.908
 30
0.0
 70
    32
  0
VERTEX
  5
3E37
330
2C0D
100
AcDbEntity
  8
0
100
AcDbVertex
100
AcDb3dPolylineVertex
 10
434.726
 20
877.214
 30
0.0
 70
    32
  0
VERTEX
  5
3E38
330
2C0D
100
AcDbEntity
  8
0
100
AcDbVertex
100
AcDb3dPolylineVertex
 10
434.511
 20
877.528
 30
0.0
 70
    32
  0
VERTEX
  5
3E39
330
2C0D
100
AcDbEntity
  8
0
100
AcDbVertex
100
AcDb3dPolylineVertex
 10
434.303
 20
877.851
 30
0.0
 70
    32
  0
VERTEX
  5
3E3A
330
2C0D
100
AcDbEntity
  8
0
100
AcDbVertex
100
AcDb3dPolylineVertex
 10
434.1019999999999
 20
878.1829999999999
 30
0.0
 70
    32
  0
VERTEX
  5
3E3B
330
2C0D
100
AcDbEntity
  8
0
100
AcDbVertex
100
AcDb3dPolylineVertex
 10
433.9069999999999
 20
878.5219999999998
 30
0.0
 70
    32
  0
VERTEX
  5
3E3C
330
2C0D
100
AcDbEntity
  8
0
100
AcDbVertex
100
AcDb3dPolylineVertex
 10
433.72
 20
878.87
 30
0.0
 70
    32
  0
VERTEX
  5
3E3D
330
2C0D
100
AcDbEntity
  8
0
100
AcDbVertex
100
AcDb3dPolylineVertex
 10
433.5399999999999
 20
879.2250000000001
 30
0.0
 70
    32
  0
VERTEX
  5
3E3E
330
2C0D
100
AcDbEntity
  8
0
100
AcDbVertex
100
AcDb3dPolylineVertex
 10
433.3669999999999
 20
879.587
 30
0.0
 70
    32
  0
VERTEX
  5
3E3F
330
2C0D
100
AcDbEntity
  8
0
100
AcDbVertex
100
AcDb3dPolylineVertex
 10
433.2009999999999
 20
879.9559999999999
 30
0.0
 70
    32
  0
VERTEX
  5
3E40
330
2C0D
100
AcDbEntity
  8
0
100
AcDbVertex
100
AcDb3dPolylineVertex
 10
433.044
 20
880.3319999999999
 30
0.0
 70
    32
  0
VERTEX
  5
3E41
330
2C0D
100
AcDbEntity
  8
0
100
AcDbVertex
100
AcDb3dPolylineVertex
 10
432.894
 20
880.714
 30
0.0
 70
    32
  0
VERTEX
  5
3E42
330
2C0D
100
AcDbEntity
  8
0
100
AcDbVertex
100
AcDb3dPolylineVertex
 10
432.751
 20
881.1019999999999
 30
0.0
 70
    32
  0
VERTEX
  5
3E43
330
2C0D
100
AcDbEntity
  8
0
100
AcDbVertex
100
AcDb3dPolylineVertex
 10
432.6169999999999
 20
881.4949999999999
 30
0.0
 70
    32
  0
VERTEX
  5
3E44
330
2C0D
100
AcDbEntity
  8
0
100
AcDbVertex
100
AcDb3dPolylineVertex
 10
432.491
 20
881.8939999999999
 30
0.0
 70
    32
  0
VERTEX
  5
3E45
330
2C0D
100
AcDbEntity
  8
0
100
AcDbVertex
100
AcDb3dPolylineVertex
 10
432.3739999999999
 20
882.2979999999999
 30
0.0
 70
    32
  0
VERTEX
  5
3E46
330
2C0D
100
AcDbEntity
  8
0
100
AcDbVertex
100
AcDb3dPolylineVertex
 10
432.2639999999999
 20
882.707
 30
0.0
 70
    32
  0
VERTEX
  5
3E47
330
2C0D
100
AcDbEntity
  8
0
100
AcDbVertex
100
AcDb3dPolylineVertex
 10
432.1629999999999
 20
883.12
 30
0.0
 70
    32
  0
VERTEX
  5
3E48
330
2C0D
100
AcDbEntity
  8
0
100
AcDbVertex
100
AcDb3dPolylineVertex
 10
432.07
 20
883.5369999999999
 30
0.0
 70
    32
  0
VERTEX
  5
3E49
330
2C0D
100
AcDbEntity
  8
0
100
AcDbVertex
100
AcDb3dPolylineVertex
 10
431.9869999999999
 20
883.957
 30
0.0
 70
    32
  0
VERTEX
  5
3E4A
330
2C0D
100
AcDbEntity
  8
0
100
AcDbVertex
100
AcDb3dPolylineVertex
 10
431.911
 20
884.3810000000001
 30
0.0
 70
    32
  0
VERTEX
  5
3E4B
330
2C0D
100
AcDbEntity
  8
0
100
AcDbVertex
100
AcDb3dPolylineVertex
 10
431.845
 20
884.8079999999999
 30
0.0
 70
    32
  0
VERTEX
  5
3E4C
330
2C0D
100
AcDbEntity
  8
0
100
AcDbVertex
100
AcDb3dPolylineVertex
 10
431.787
 20
885.237
 30
0.0
 70
    32
  0
VERTEX
  5
3E4D
330
2C0D
100
AcDbEntity
  8
0
100
AcDbVertex
100
AcDb3dPolylineVertex
 10
431.738
 20
885.668
 30
0.0
 70
    32
  0
VERTEX
  5
3E4E
330
2C0D
100
AcDbEntity
  8
0
100
AcDbVertex
100
AcDb3dPolylineVertex
 10
431.698
 20
886.1019999999999
 30
0.0
 70
    32
  0
VERTEX
  5
3E4F
330
2C0D
100
AcDbEntity
  8
0
100
AcDbVertex
100
AcDb3dPolylineVertex
 10
431.6659999999999
 20
886.536
 30
0.0
 70
    32
  0
VERTEX
  5
3E50
330
2C0D
100
AcDbEntity
  8
0
100
AcDbVertex
100
AcDb3dPolylineVertex
 10
431.644
 20
886.9719999999999
 30
0.0
 70
    32
  0
VERTEX
  5
3E51
330
2C0D
100
AcDbEntity
  8
0
100
AcDbVertex
100
AcDb3dPolylineVertex
 10
431.6309999999999
 20
887.409
 30
0.0
 70
    32
  0
VERTEX
  5
3E52
330
2C0D
100
AcDbEntity
  8
0
100
AcDbVertex
100
AcDb3dPolylineVertex
 10
431.6259999999999
 20
887.846
 30
0.0
 70
    32
  0
VERTEX
  5
3E53
330
2C0D
100
AcDbEntity
  8
0
100
AcDbVertex
100
AcDb3dPolylineVertex
 10
431.6309999999999
 20
888.2819999999998
 30
0.0
 70
    32
  0
VERTEX
  5
3E54
330
2C0D
100
AcDbEntity
  8
0
100
AcDbVertex
100
AcDb3dPolylineVertex
 10
431.644
 20
888.719
 30
0.0
 70
    32
  0
VERTEX
  5
3E55
330
2C0D
100
AcDbEntity
  8
0
100
AcDbVertex
100
AcDb3dPolylineVertex
 10
431.6659999999999
 20
889.155
 30
0.0
 70
    32
  0
VERTEX
  5
3E56
330
2C0D
100
AcDbEntity
  8
0
100
AcDbVertex
100
AcDb3dPolylineVertex
 10
431.698
 20
889.5889999999999
 30
0.0
 70
    32
  0
VERTEX
  5
3E57
330
2C0D
100
AcDbEntity
  8
0
100
AcDbVertex
100
AcDb3dPolylineVertex
 10
431.738
 20
890.023
 30
0.0
 70
    32
  0
VERTEX
  5
3E58
330
2C0D
100
AcDbEntity
  8
0
100
AcDbVertex
100
AcDb3dPolylineVertex
 10
431.787
 20
890.4539999999999
 30
0.0
 70
    32
  0
VERTEX
  5
3E59
330
2C0D
100
AcDbEntity
  8
0
100
AcDbVertex
100
AcDb3dPolylineVertex
 10
431.845
 20
890.883
 30
0.0
 70
    32
  0
VERTEX
  5
3E5A
330
2C0D
100
AcDbEntity
  8
0
100
AcDbVertex
100
AcDb3dPolylineVertex
 10
431.911
 20
891.31
 30
0.0
 70
    32
  0
VERTEX
  5
3E5B
330
2C0D
100
AcDbEntity
  8
0
100
AcDbVertex
100
AcDb3dPolylineVertex
 10
431.9869999999999
 20
891.7339999999999
 30
0.0
 70
    32
  0
VERTEX
  5
3E5C
330
2C0D
100
AcDbEntity
  8
0
100
AcDbVertex
100
AcDb3dPolylineVertex
 10
432.07
 20
892.154
 30
0.0
 70
    32
  0
VERTEX
  5
3E5D
330
2C0D
100
AcDbEntity
  8
0
100
AcDbVertex
100
AcDb3dPolylineVertex
 10
432.1629999999999
 20
892.571
 30
0.0
 70
    32
  0
VERTEX
  5
3E5E
330
2C0D
100
AcDbEntity
  8
0
100
AcDbVertex
100
AcDb3dPolylineVertex
 10
432.2639999999999
 20
892.9839999999998
 30
0.0
 70
    32
  0
VERTEX
  5
3E5F
330
2C0D
100
AcDbEntity
  8
0
100
AcDbVertex
100
AcDb3dPolylineVertex
 10
432.3739999999999
 20
893.393
 30
0.0
 70
    32
  0
VERTEX
  5
3E60
330
2C0D
100
AcDbEntity
  8
0
100
AcDbVertex
100
AcDb3dPolylineVertex
 10
432.491
 20
893.7969999999999
 30
0.0
 70
    32
  0
VERTEX
  5
3E61
330
2C0D
100
AcDbEntity
  8
0
100
AcDbVertex
100
AcDb3dPolylineVertex
 10
432.6169999999999
 20
894.1959999999999
 30
0.0
 70
    32
  0
VERTEX
  5
3E62
330
2C0D
100
AcDbEntity
  8
0
100
AcDbVertex
100
AcDb3dPolylineVertex
 10
432.751
 20
894.589
 30
0.0
 70
    32
  0
VERTEX
  5
3E63
330
2C0D
100
AcDbEntity
  8
0
100
AcDbVertex
100
AcDb3dPolylineVertex
 10
432.894
 20
894.9769999999999
 30
0.0
 70
    32
  0
VERTEX
  5
3E64
330
2C0D
100
AcDbEntity
  8
0
100
AcDbVertex
100
AcDb3dPolylineVertex
 10
433.044
 20
895.359
 30
0.0
 70
    32
  0
VERTEX
  5
3E65
330
2C0D
100
AcDbEntity
  8
0
100
AcDbVertex
100
AcDb3dPolylineVertex
 10
433.2009999999999
 20
895.7349999999999
 30
0.0
 70
    32
  0
VERTEX
  5
3E66
330
2C0D
100
AcDbEntity
  8
0
100
AcDbVertex
100
AcDb3dPolylineVertex
 10
433.3669999999999
 20
896.1039999999998
 30
0.0
 70
    32
  0
VERTEX
  5
3E67
330
2C0D
100
AcDbEntity
  8
0
100
AcDbVertex
100
AcDb3dPolylineVertex
 10
433.5399999999999
 20
896.466
 30
0.0
 70
    32
  0
VERTEX
  5
3E68
330
2C0D
100
AcDbEntity
  8
0
100
AcDbVertex
100
AcDb3dPolylineVertex
 10
433.72
 20
896.821
 30
0.0
 70
    32
  0
VERTEX
  5
3E69
330
2C0D
100
AcDbEntity
  8
0
100
AcDbVertex
100
AcDb3dPolylineVertex
 10
433.9069999999999
 20
897.169
 30
0.0
 70
    32
  0
VERTEX
  5
3E6A
330
2C0D
100
AcDbEntity
  8
0
100
AcDbVertex
100
AcDb3dPolylineVertex
 10
434.1019999999999
 20
897.508
 30
0.0
 70
    32
  0
VERTEX
  5
3E6B
330
2C0D
100
AcDbEntity
  8
0
100
AcDbVertex
100
AcDb3dPolylineVertex
 10
434.303
 20
897.84
 30
0.0
 70
    32
  0
VERTEX
  5
3E6C
330
2C0D
100
AcDbEntity
  8
0
100
AcDbVertex
100
AcDb3dPolylineVertex
 10
434.511
 20
898.163
 30
0.0
 70
    32
  0
VERTEX
  5
3E6D
330
2C0D
100
AcDbEntity
  8
0
100
AcDbVertex
100
AcDb3dPolylineVertex
 10
434.726
 20
898.4769999999999
 30
0.0
 70
    32
  0
VERTEX
  5
3E6E
330
2C0D
100
AcDbEntity
  8
0
100
AcDbVertex
100
AcDb3dPolylineVertex
 10
434.9469999999999
 20
898.783
 30
0.0
 70
    32
  0
VERTEX
  5
3E6F
330
2C0D
100
AcDbEntity
  8
0
100
AcDbVertex
100
AcDb3dPolylineVertex
 10
435.174
 20
899.079
 30
0.0
 70
    32
  0
VERTEX
  5
3E70
330
2C0D
100
AcDbEntity
  8
0
100
AcDbVertex
100
AcDb3dPolylineVertex
 10
435.407
 20
899.3660000000001
 30
0.0
 70
    32
  0
VERTEX
  5
3E71
330
2C0D
100
AcDbEntity
  8
0
100
AcDbVertex
100
AcDb3dPolylineVertex
 10
435.6459999999999
 20
899.6439999999999
 30
0.0
 70
    32
  0
VERTEX
  5
3E72
330
2C0D
100
AcDbEntity
  8
0
100
AcDbVertex
100
AcDb3dPolylineVertex
 10
435.89
 20
899.9109999999999
 30
0.0
 70
    32
  0
VERTEX
  5
3E73
330
2C0D
100
AcDbEntity
  8
0
100
AcDbVertex
100
AcDb3dPolylineVertex
 10
436.1399999999999
 20
900.168
 30
0.0
 70
    32
  0
VERTEX
  5
3E74
330
2C0D
100
AcDbEntity
  8
0
100
AcDbVertex
100
AcDb3dPolylineVertex
 10
436.3949999999999
 20
900.4149999999999
 30
0.0
 70
    32
  0
VERTEX
  5
3E75
330
2C0D
100
AcDbEntity
  8
0
100
AcDbVertex
100
AcDb3dPolylineVertex
 10
436.655
 20
900.651
 30
0.0
 70
    32
  0
VERTEX
  5
3E76
330
2C0D
100
AcDbEntity
  8
0
100
AcDbVertex
100
AcDb3dPolylineVertex
 10
436.92
 20
900.877
 30
0.0
 70
    32
  0
VERTEX
  5
3E77
330
2C0D
100
AcDbEntity
  8
0
100
AcDbVertex
100
AcDb3dPolylineVertex
 10
437.189
 20
901.092
 30
0.0
 70
    32
  0
VERTEX
  5
3E78
330
2C0D
100
AcDbEntity
  8
0
100
AcDbVertex
100
AcDb3dPolylineVertex
 10
437.462
 20
901.295
 30
0.0
 70
    32
  0
VERTEX
  5
3E79
330
2C0D
100
AcDbEntity
  8
0
100
AcDbVertex
100
AcDb3dPolylineVertex
 10
437.74
 20
901.4880000000001
 30
0.0
 70
    32
  0
VERTEX
  5
3E7A
330
2C0D
100
AcDbEntity
  8
0
100
AcDbVertex
100
AcDb3dPolylineVertex
 10
438.0209999999999
 20
901.669
 30
0.0
 70
    32
  0
VERTEX
  5
3E7B
330
2C0D
100
AcDbEntity
  8
0
100
AcDbVertex
100
AcDb3dPolylineVertex
 10
438.3059999999999
 20
901.838
 30
0.0
 70
    32
  0
VERTEX
  5
3E7C
330
2C0D
100
AcDbEntity
  8
0
100
AcDbVertex
100
AcDb3dPolylineVertex
 10
438.595
 20
901.9960000000001
 30
0.0
 70
    32
  0
VERTEX
  5
3E7D
330
2C0D
100
AcDbEntity
  8
0
100
AcDbVertex
100
AcDb3dPolylineVertex
 10
438.886
 20
902.1410000000001
 30
0.0
 70
    32
  0
VERTEX
  5
3E7E
330
2C0D
100
AcDbEntity
  8
0
100
AcDbVertex
100
AcDb3dPolylineVertex
 10
439.1799999999999
 20
902.275
 30
0.0
 70
    32
  0
VERTEX
  5
3E7F
330
2C0D
100
AcDbEntity
  8
0
100
AcDbVertex
100
AcDb3dPolylineVertex
 10
439.477
 20
902.397
 30
0.0
 70
    32
  0
VERTEX
  5
3E80
330
2C0D
100
AcDbEntity
  8
0
100
AcDbVertex
100
AcDb3dPolylineVertex
 10
439.7759999999999
 20
902.5060000000001
 30
0.0
 70
    32
  0
VERTEX
  5
3E81
330
2C0D
100
AcDbEntity
  8
0
100
AcDbVertex
100
AcDb3dPolylineVertex
 10
440.078
 20
902.603
 30
0.0
 70
    32
  0
VERTEX
  5
3E82
330
2C0D
100
AcDbEntity
  8
0
100
AcDbVertex
100
AcDb3dPolylineVertex
 10
440.381
 20
902.688
 30
0.0
 70
    32
  0
VERTEX
  5
3E83
330
2C0D
100
AcDbEntity
  8
0
100
AcDbVertex
100
AcDb3dPolylineVertex
 10
440.6859999999999
 20
902.7599999999999
 30
0.0
 70
    32
  0
VERTEX
  5
3E84
330
2C0D
100
AcDbEntity
  8
0
100
AcDbVertex
100
AcDb3dPolylineVertex
 10
440.9919999999999
 20
902.82
 30
0.0
 70
    32
  0
VERTEX
  5
3E85
330
2C0D
100
AcDbEntity
  8
0
100
AcDbVertex
100
AcDb3dPolylineVertex
 10
441.299
 20
902.8669999999999
 30
0.0
 70
    32
  0
VERTEX
  5
3E86
330
2C0D
100
AcDbEntity
  8
0
100
AcDbVertex
100
AcDb3dPolylineVertex
 10
441.6069999999999
 20
902.9019999999999
 30
0.0
 70
    32
  0
VERTEX
  5
3E87
330
2C0D
100
AcDbEntity
  8
0
100
AcDbVertex
100
AcDb3dPolylineVertex
 10
441.9159999999999
 20
902.9239999999999
 30
0.0
 70
    32
  0
VERTEX
  5
3E88
330
2C0D
100
AcDbEntity
  8
0
100
AcDbVertex
100
AcDb3dPolylineVertex
 10
442.225
 20
902.9329999999999
 30
0.0
 70
    32
  0
VERTEX
  5
3E89
330
2C0D
100
AcDbEntity
  8
0
100
AcDbVertex
100
AcDb3dPolylineVertex
 10
442.534
 20
902.9299999999999
 30
0.0
 70
    32
  0
VERTEX
  5
3E8A
330
2C0D
100
AcDbEntity
  8
0
100
AcDbVertex
100
AcDb3dPolylineVertex
 10
442.843
 20
902.9139999999999
 30
0.0
 70
    32
  0
VERTEX
  5
3E8B
330
2C0D
100
AcDbEntity
  8
0
100
AcDbVertex
100
AcDb3dPolylineVertex
 10
443.151
 20
902.885
 30
0.0
 70
    32
  0
VERTEX
  5
3E8C
330
2C0D
100
AcDbEntity
  8
0
100
AcDbVertex
100
AcDb3dPolylineVertex
 10
443.459
 20
902.8439999999999
 30
0.0
 70
    32
  0
VERTEX
  5
3E8D
330
2C0D
100
AcDbEntity
  8
0
100
AcDbVertex
100
AcDb3dPolylineVertex
 10
443.766
 20
902.79
 30
0.0
 70
    32
  0
VERTEX
  5
3E8E
330
2C0D
100
AcDbEntity
  8
0
100
AcDbVertex
100
AcDb3dPolylineVertex
 10
444.071
 20
902.7239999999999
 30
0.0
 70
    32
  0
VERTEX
  5
3E8F
330
2C0D
100
AcDbEntity
  8
0
100
AcDbVertex
100
AcDb3dPolylineVertex
 10
444.375
 20
902.645
 30
0.0
 70
    32
  0
VERTEX
  5
3E90
330
2C0D
100
AcDbEntity
  8
0
100
AcDbVertex
100
AcDb3dPolylineVertex
 10
444.6769999999999
 20
902.5539999999999
 30
0.0
 70
    32
  0
VERTEX
  5
3E91
330
2C0D
100
AcDbEntity
  8
0
100
AcDbVertex
100
AcDb3dPolylineVertex
 10
444.978
 20
902.4500000000001
 30
0.0
 70
    32
  0
VERTEX
  5
3E92
330
2C0D
100
AcDbEntity
  8
0
100
AcDbVertex
100
AcDb3dPolylineVertex
 10
445.276
 20
902.3339999999999
 30
0.0
 70
    32
  0
SEQEND
  5
3E93
330
2C0D
100
AcDbEntity
  8
0
  0
ARC
  5
2C14
330
4006
100
AcDbEntity
  8
0
100
AcDbCircle
 10
480.8493935659462
 20
1148.772082255348
 30
0.0
 40
15.0
100
AcDbArc
 50
90.34653099767071
 51
180.0
  0
LINE
  5
2C15
330
4006
100
AcDbEntity
  8
0
100
AcDbLine
 10
548.8687918011057
 20
1159.378409627008
 30
0.0
 11
570.2302964318023
 21
1138.016904996311
 31
0.0
  0
LINE
  5
2C1C
330
4006
100
AcDbEntity
  8
0
100
AcDbLine
 10
480.6988528500214
 20
1043.17180790921
 30
0.0
 11
538.2631900833083
 21
1043.17180790921
 31
0.0
  0
LINE
  5
2C1E
330
4006
100
AcDbEntity
  8
0
100
AcDbLine
 10
465.8493935659461
 20
1058.171052473281
 30
0.0
 11
465.8493935659461
 21
1148.772082255349
 31
0.0
  0
ARC
  5
2C25
330
4006
100
AcDbEntity
  8
0
100
AcDbCircle
 10
480.8493935659462
 20
1058.171052473281
 30
0.0
 40
15.0
100
AcDbArc
 50
180.0
 51
269.4249671687521
  0
ARC
  5
2C27
330
4006
100
AcDbEntity
  8
0
100
AcDbCircle
 10
561.3759168470497
 20
1077.749000767016
 30
0.0
 40
12.5
100
AcDbArc
 50
314.9999999999997
 51
359.9803514047301
  0
LINE
  5
2C28
330
4006
100
AcDbEntity
  8
0
100
AcDbLine
 10
548.8697918011065
 20
1047.565206191412
 30
0.0
 11
570.214751611881
 21
1068.910166002186
 31
0.0
  0
ARC
  5
2C30
330
4006
100
AcDbEntity
  8
0
100
AcDbCircle
 10
538.2631900833083
 20
1058.171807909209
 30
0.0
 40
15.0
100
AcDbArc
 50
270.0
 51
314.9999999999996
  0
LINE
  5
2C31
330
4006
100
AcDbEntity
  8
0
100
AcDbLine
 10
573.8743790331463
 20
1077.55293194567
 30
0.0
 11
573.8879965518399
 21
1129.472375975985
 31
0.0
  0
ARC
  5
2C32
330
4006
100
AcDbEntity
  8
0
100
AcDbCircle
 10
561.3914616669708
 20
1129.178070231479
 30
0.0
 40
12.5
100
AcDbArc
 50
1.054777610070867
 51
45.00000000000092
  0
LINE
  5
2C3A
330
4006
100
AcDbEntity
  8
0
100
AcDbLine
 10
485.920393565946
 20
1164.739512437047
 30
0.0
 11
515.9203935659471
 21
1164.739512437048
 31
0.0
  0
LINE
  5
2C3B
330
4006
100
AcDbEntity
  8
0
100
AcDbLine
 10
480.7586725159743
 20
1163.77180790921
 30
0.0
 11
538.2621900833072
 21
1163.77180790921
 31
0.0
  0
POLYLINE
  5
2C3F
330
4006
100
AcDbEntity
  8
0
100
AcDb2dPolyline
 66
     1
 10
0.0
 20
0.0
 30
0.0
  0
VERTEX
  5
3CEE
330
2C3F
100
AcDbEntity
  8
0
100
AcDbVertex
100
AcDb2dVertex
 10
485.0942354497873
 20
1163.77180790921
 30
0.0
  0
VERTEX
  5
3CEF
330
2C3F
100
AcDbEntity
  8
0
100
AcDbVertex
100
AcDb2dVertex
 10
485.920393565946
 20
1164.739512437047
 30
0.0
  0
SEQEND
  5
3CF0
330
2C3F
100
AcDbEntity
  8
0
  0
POLYLINE
  5
2C48
330
4006
100
AcDbEntity
  8
0
100
AcDb2dPolyline
 66
     1
 10
0.0
 20
0.0
 30
0.0
  0
VERTEX
  5
3CF1
330
2C48
100
AcDbEntity
  8
0
100
AcDbVertex
100
AcDb2dVertex
 10
516.7465516821066
 20
1163.77180790921
 30
0.0
  0
VERTEX
  5
3CF2
330
2C48
100
AcDbEntity
  8
0
100
AcDbVertex
100
AcDb2dVertex
 10
515.9203935659471
 20
1164.739512437047
 30
0.0
  0
SEQEND
  5
3CF3
330
2C48
100
AcDbEntity
  8
0
  0
ARC
  5
2C4A
330
4006
100
AcDbEntity
  8
0
100
AcDbCircle
 10
538.2621900833072
 20
1148.771807909209
 30
0.0
 40
15.0
100
AcDbArc
 50
45.00000000000039
 51
90.00000000000005
  0
ARC
  5
2C52
330
4006
100
AcDbEntity
  8
0
100
AcDbCircle
 10
689.4387087154463
 20
660.2209254776879
 30
0.0
 40
15.0
100
AcDbArc
 50
0.0
 51
89.65346900232928
  0
LINE
  5
2C55
330
4006
100
AcDbEntity
  8
0
100
AcDbLine
 10
704.4387087154462
 20
569.6198956956212
 30
0.0
 11
704.4387087154462
 21
660.2209254776888
 31
0.0
  0
LINE
  5
2C56
330
4006
100
AcDbEntity
  8
0
100
AcDbLine
 10
665.4254474424586
 20
553.6529466037127
 30
0.0
 11
635.4254474424577
 21
553.6529466037118
 31
0.0
  0
LINE
  5
2C5C
330
4006
100
AcDbEntity
  8
0
100
AcDbLine
 10
689.589249431372
 20
554.6206511315495
 30
0.0
 11
611.2616454534145
 21
554.6206511315495
 31
0.0
  0
POLYLINE
  5
2C5E
330
4006
100
AcDbEntity
  8
0
100
AcDb2dPolyline
 66
     1
 10
0.0
 20
0.0
 30
0.0
  0
VERTEX
  5
3CF4
330
2C5E
100
AcDbEntity
  8
0
100
AcDbVertex
100
AcDb2dVertex
 10
634.5992893262981
 20
554.6206511315495
 30
0.0
  0
VERTEX
  5
3CF5
330
2C5E
100
AcDbEntity
  8
0
100
AcDbVertex
100
AcDb2dVertex
 10
635.4254474424577
 20
553.6529466037127
 30
0.0
  0
SEQEND
  5
3CF6
330
2C5E
100
AcDbEntity
  8
0
  0
ARC
  5
2C64
330
4006
100
AcDbEntity
  8
0
100
AcDbCircle
 10
689.4387087154463
 20
569.6198956956212
 30
0.0
 40
15.0
100
AcDbArc
 50
270.5750328312478
 51
0.0
  0
POLYLINE
  5
2C65
330
4006
100
AcDbEntity
  8
0
100
AcDb2dPolyline
 66
     1
 10
0.0
 20
0.0
 30
0.0
  0
VERTEX
  5
3CF7
330
2C65
100
AcDbEntity
  8
0
100
AcDbVertex
100
AcDb2dVertex
 10
666.2516055586173
 20
554.6206511315495
 30
0.0
  0
VERTEX
  5
3CF8
330
2C65
100
AcDbEntity
  8
0
100
AcDbVertex
100
AcDb2dVertex
 10
665.4254474424586
 20
553.6529466037127
 30
0.0
  0
SEQEND
  5
3CF9
330
2C65
100
AcDbEntity
  8
0
  0
TEXT
  5
2C96
330
4006
100
AcDbEntity
  8
0
100
AcDbText
 10
1295.504877207807
 20
440.7156621883786
 30
0.0
 40
20.0
  1
20
 41
0.8
 72
     4
 11
1308.457258160188
 21
450.7156621883787
 31
0.0
100
AcDbText
  0
LINE
  5
2CA5
330
4006
100
AcDbEntity
  8
0
100
AcDbLine
 10
1349.09799022982
 20
553.155128432667
 30
0.0
 11
1319.097998908394
 21
553.1779475985604
 31
0.0
  0
LINE
  5
2CA6
330
4006
100
AcDbEntity
  8
0
100
AcDbLine
 10
1354.259715619078
 20
675.2206511315497
 30
0.0
 11
1296.756198051746
 21
675.2206511315497
 31
0.0
  0
LINE
  5
2CA7
330
4006
100
AcDbEntity
  8
0
100
AcDbLine
 10
1354.319535285031
 20
554.6206511315495
 30
0.0
 11
1296.755198051745
 21
554.6206511315495
 31
0.0
  0
LINE
  5
2CA8
330
4006
100
AcDbEntity
  8
0
100
AcDbLine
 10
1349.097994569107
 20
676.6617370889242
 30
0.0
 11
1319.097994569107
 21
676.6617370889242
 31
0.0
  0
LINE
  5
2CAD
330
4006
100
AcDbEntity
  8
0
100
AcDbLine
 10
1319.097998908394
 20
553.1779475985604
 30
0.0
 11
1317.761531532797
 21
554.6200505421393
 31
0.0
  0
LINE
  5
2CB1
330
4006
100
AcDbEntity
  8
0
100
AcDbLine
 10
1319.097994569107
 20
676.6617370889242
 30
0.0
 11
1317.760430660588
 21
675.2206511315497
 31
0.0
  0
LINE
  5
2CB2
330
4006
100
AcDbEntity
  8
0
100
AcDbLine
 10
1369.168994569107
 20
569.6198956956212
 30
0.0
 11
1369.168994569107
 21
660.2209254776888
 31
0.0
  0
ARC
  5
2CB3
330
4006
100
AcDbEntity
  8
0
100
AcDbCircle
 10
1354.168994569107
 20
569.6198956956212
 30
0.0
 40
15.0
100
AcDbArc
 50
270.5750328312478
 51
0.0
  0
LINE
  5
2CB4
330
4006
100
AcDbEntity
  8
0
100
AcDbLine
 10
1349.09799022982
 20
553.155128432667
 30
0.0
 11
1350.436649897384
 21
554.5951965700651
 31
0.0
  0
ARC
  5
2CB5
330
4006
100
AcDbEntity
  8
0
100
AcDbCircle
 10
1354.168994569107
 20
660.2209254776879
 30
0.0
 40
15.0
100
AcDbArc
 50
0.0
 51
89.65346900232928
  0
LINE
  5
2CB6
330
4006
100
AcDbEntity
  8
0
100
AcDbLine
 10
1349.097994569107
 20
676.6617370889242
 30
0.0
 11
1350.435558477626
 21
675.2206511315497
 31
0.0
  0
LINE
  5
2CB9
330
4006
100
AcDbEntity
  8
0
100
AcDbLine
 10
665.4254474424577
 20
676.1883556593865
 30
0.0
 11
635.4254474424569
 21
676.1883556593875
 31
0.0
  0
LINE
  5
2CBE
330
4006
100
AcDbEntity
  8
0
100
AcDbLine
 10
689.5294297654181
 20
675.2206511315497
 30
0.0
 11
611.3214651194976
 21
675.2206511315494
 31
0.0
  0
POLYLINE
  5
2CC1
330
4006
100
AcDbEntity
  8
0
100
AcDb2dPolyline
 66
     1
 10
0.0
 20
0.0
 30
0.0
  0
VERTEX
  5
3CFA
330
2CC1
100
AcDbEntity
  8
0
100
AcDbVertex
100
AcDb2dVertex
 10
634.5992893262972
 20
675.2206511315497
 30
0.0
  0
VERTEX
  5
3CFB
330
2CC1
100
AcDbEntity
  8
0
100
AcDbVertex
100
AcDb2dVertex
 10
635.4254474424569
 20
676.1883556593865
 30
0.0
  0
SEQEND
  5
3CFC
330
2CC1
100
AcDbEntity
  8
0
  0
POLYLINE
  5
2CC8
330
4006
100
AcDbEntity
  8
0
100
AcDb2dPolyline
 66
     1
 10
0.0
 20
0.0
 30
0.0
  0
VERTEX
  5
3CFD
330
2CC8
100
AcDbEntity
  8
0
100
AcDbVertex
100
AcDb2dVertex
 10
666.2516055586165
 20
675.2206511315497
 30
0.0
  0
VERTEX
  5
3CFE
330
2CC8
100
AcDbEntity
  8
0
100
AcDbVertex
100
AcDb2dVertex
 10
665.4254474424577
 20
676.1883556593865
 30
0.0
  0
SEQEND
  5
3CFF
330
2CC8
100
AcDbEntity
  8
0
  0
ARC
  5
2CE2
330
4006
100
AcDbEntity
  8
0
100
AcDbCircle
 10
1315.155733296063
 20
885.69445258238
 30
0.0
 40
54.01326127304307
100
AcDbArc
 50
99.10353817562608
 51
260.8964618243739
  0
LINE
  5
2CE9
330
4006
100
AcDbEntity
  8
0
100
AcDbLine
 10
1332.73694479271
 20
739.1659137223605
 30
0.0
 11
1332.73694479271
 21
786.4344762223607
 31
0.0
  0
LINE
  5
2CEA
330
4006
100
AcDbEntity
  8
0
100
AcDbLine
 10
1323.283569792711
 20
795.8878512223605
 30
0.0
 11
1323.283569792711
 21
767.5277262223603
 31
0.0
  0
LINE
  5
2CF1
330
4006
100
AcDbEntity
  8
0
100
AcDbLine
 10
1323.283569792711
 20
748.8251637223596
 30
0.0
 11
1332.73694479271
 21
739.1659137223605
 31
0.0
  0
LINE
  5
2CF2
330
4006
100
AcDbEntity
  8
0
100
AcDbLine
 10
1328.010257292711
 20
762.7993512223602
 30
0.0
 11
1328.010257292711
 21
748.8251637223596
 31
0.0
  0
LINE
  5
2CF3
330
4006
100
AcDbEntity
  8
0
100
AcDbLine
 10
1328.010257292711
 20
748.8251637223596
 30
0.0
 11
1323.283569792711
 21
748.8251637223596
 31
0.0
  0
LINE
  5
2CF4
330
4006
100
AcDbEntity
  8
0
100
AcDbLine
 10
1323.283569792711
 20
767.5277262223603
 30
0.0
 11
1328.010257292711
 21
762.7993512223602
 31
0.0
  0
LINE
  5
2CF5
330
4006
100
AcDbEntity
  8
0
100
AcDbLine
 10
1332.73694479271
 20
786.4344762223607
 30
0.0
 11
1323.283569792711
 21
795.8878512223605
 31
0.0
  0
POLYLINE
  5
2D01
330
4006
100
AcDbEntity
  8
0
100
AcDb3dPolyline
 66
     1
 10
0.0
 20
0.0
 30
0.0
 70
     8
  0
VERTEX
  5
3E94
330
2D01
100
AcDbEntity
  8
0
100
AcDbVertex
100
AcDb3dPolylineVertex
 10
1276.02
 20
870.626
 30
0.0
 70
    32
  0
VERTEX
  5
3E95
330
2D01
100
AcDbEntity
  8
0
100
AcDbVertex
100
AcDb3dPolylineVertex
 10
1275.75
 20
870.612
 30
0.0
 70
    32
  0
VERTEX
  5
3E96
330
2D01
100
AcDbEntity
  8
0
100
AcDbVertex
100
AcDb3dPolylineVertex
 10
1275.48
 20
870.607
 30
0.0
 70
    32
  0
VERTEX
  5
3E97
330
2D01
100
AcDbEntity
  8
0
100
AcDbVertex
100
AcDb3dPolylineVertex
 10
1275.21
 20
870.611
 30
0.0
 70
    32
  0
VERTEX
  5
3E98
330
2D01
100
AcDbEntity
  8
0
100
AcDbVertex
100
AcDb3dPolylineVertex
 10
1274.94
 20
870.626
 30
0.0
 70
    32
  0
VERTEX
  5
3E99
330
2D01
100
AcDbEntity
  8
0
100
AcDbVertex
100
AcDb3dPolylineVertex
 10
1274.67
 20
870.65
 30
0.0
 70
    32
  0
VERTEX
  5
3E9A
330
2D01
100
AcDbEntity
  8
0
100
AcDbVertex
100
AcDb3dPolylineVertex
 10
1274.4
 20
870.6839999999999
 30
0.0
 70
    32
  0
VERTEX
  5
3E9B
330
2D01
100
AcDbEntity
  8
0
100
AcDbVertex
100
AcDb3dPolylineVertex
 10
1274.13
 20
870.7269999999999
 30
0.0
 70
    32
  0
VERTEX
  5
3E9C
330
2D01
100
AcDbEntity
  8
0
100
AcDbVertex
100
AcDb3dPolylineVertex
 10
1273.86
 20
870.78
 30
0.0
 70
    32
  0
VERTEX
  5
3E9D
330
2D01
100
AcDbEntity
  8
0
100
AcDbVertex
100
AcDb3dPolylineVertex
 10
1273.6
 20
870.842
 30
0.0
 70
    32
  0
VERTEX
  5
3E9E
330
2D01
100
AcDbEntity
  8
0
100
AcDbVertex
100
AcDb3dPolylineVertex
 10
1273.33
 20
870.9149999999999
 30
0.0
 70
    32
  0
VERTEX
  5
3E9F
330
2D01
100
AcDbEntity
  8
0
100
AcDbVertex
100
AcDb3dPolylineVertex
 10
1273.07
 20
870.996
 30
0.0
 70
    32
  0
VERTEX
  5
3EA0
330
2D01
100
AcDbEntity
  8
0
100
AcDbVertex
100
AcDb3dPolylineVertex
 10
1272.8
 20
871.0869999999999
 30
0.0
 70
    32
  0
VERTEX
  5
3EA1
330
2D01
100
AcDbEntity
  8
0
100
AcDbVertex
100
AcDb3dPolylineVertex
 10
1272.54
 20
871.188
 30
0.0
 70
    32
  0
VERTEX
  5
3EA2
330
2D01
100
AcDbEntity
  8
0
100
AcDbVertex
100
AcDb3dPolylineVertex
 10
1272.28
 20
871.297
 30
0.0
 70
    32
  0
VERTEX
  5
3EA3
330
2D01
100
AcDbEntity
  8
0
100
AcDbVertex
100
AcDb3dPolylineVertex
 10
1272.03
 20
871.4160000000001
 30
0.0
 70
    32
  0
VERTEX
  5
3EA4
330
2D01
100
AcDbEntity
  8
0
100
AcDbVertex
100
AcDb3dPolylineVertex
 10
1271.77
 20
871.5439999999999
 30
0.0
 70
    32
  0
VERTEX
  5
3EA5
330
2D01
100
AcDbEntity
  8
0
100
AcDbVertex
100
AcDb3dPolylineVertex
 10
1271.52
 20
871.682
 30
0.0
 70
    32
  0
VERTEX
  5
3EA6
330
2D01
100
AcDbEntity
  8
0
100
AcDbVertex
100
AcDb3dPolylineVertex
 10
1271.27
 20
871.828
 30
0.0
 70
    32
  0
VERTEX
  5
3EA7
330
2D01
100
AcDbEntity
  8
0
100
AcDbVertex
100
AcDb3dPolylineVertex
 10
1271.02
 20
871.9829999999999
 30
0.0
 70
    32
  0
VERTEX
  5
3EA8
330
2D01
100
AcDbEntity
  8
0
100
AcDbVertex
100
AcDb3dPolylineVertex
 10
1270.78
 20
872.147
 30
0.0
 70
    32
  0
VERTEX
  5
3EA9
330
2D01
100
AcDbEntity
  8
0
100
AcDbVertex
100
AcDb3dPolylineVertex
 10
1270.54
 20
872.319
 30
0.0
 70
    32
  0
VERTEX
  5
3EAA
330
2D01
100
AcDbEntity
  8
0
100
AcDbVertex
100
AcDb3dPolylineVertex
 10
1270.3
 20
872.5010000000001
 30
0.0
 70
    32
  0
VERTEX
  5
3EAB
330
2D01
100
AcDbEntity
  8
0
100
AcDbVertex
100
AcDb3dPolylineVertex
 10
1270.06
 20
872.69
 30
0.0
 70
    32
  0
VERTEX
  5
3EAC
330
2D01
100
AcDbEntity
  8
0
100
AcDbVertex
100
AcDb3dPolylineVertex
 10
1269.83
 20
872.888
 30
0.0
 70
    32
  0
VERTEX
  5
3EAD
330
2D01
100
AcDbEntity
  8
0
100
AcDbVertex
100
AcDb3dPolylineVertex
 10
1269.61
 20
873.0949999999999
 30
0.0
 70
    32
  0
VERTEX
  5
3EAE
330
2D01
100
AcDbEntity
  8
0
100
AcDbVertex
100
AcDb3dPolylineVertex
 10
1269.38
 20
873.309
 30
0.0
 70
    32
  0
VERTEX
  5
3EAF
330
2D01
100
AcDbEntity
  8
0
100
AcDbVertex
100
AcDb3dPolylineVertex
 10
1269.16
 20
873.531
 30
0.0
 70
    32
  0
VERTEX
  5
3EB0
330
2D01
100
AcDbEntity
  8
0
100
AcDbVertex
100
AcDb3dPolylineVertex
 10
1268.95
 20
873.7610000000001
 30
0.0
 70
    32
  0
VERTEX
  5
3EB1
330
2D01
100
AcDbEntity
  8
0
100
AcDbVertex
100
AcDb3dPolylineVertex
 10
1268.73
 20
873.9989999999998
 30
0.0
 70
    32
  0
VERTEX
  5
3EB2
330
2D01
100
AcDbEntity
  8
0
100
AcDbVertex
100
AcDb3dPolylineVertex
 10
1268.53
 20
874.244
 30
0.0
 70
    32
  0
VERTEX
  5
3EB3
330
2D01
100
AcDbEntity
  8
0
100
AcDbVertex
100
AcDb3dPolylineVertex
 10
1268.32
 20
874.497
 30
0.0
 70
    32
  0
VERTEX
  5
3EB4
330
2D01
100
AcDbEntity
  8
0
100
AcDbVertex
100
AcDb3dPolylineVertex
 10
1268.12
 20
874.7569999999999
 30
0.0
 70
    32
  0
VERTEX
  5
3EB5
330
2D01
100
AcDbEntity
  8
0
100
AcDbVertex
100
AcDb3dPolylineVertex
 10
1267.93
 20
875.0239999999999
 30
0.0
 70
    32
  0
VERTEX
  5
3EB6
330
2D01
100
AcDbEntity
  8
0
100
AcDbVertex
100
AcDb3dPolylineVertex
 10
1267.74
 20
875.2970000000001
 30
0.0
 70
    32
  0
VERTEX
  5
3EB7
330
2D01
100
AcDbEntity
  8
0
100
AcDbVertex
100
AcDb3dPolylineVertex
 10
1267.56
 20
875.5779999999999
 30
0.0
 70
    32
  0
VERTEX
  5
3EB8
330
2D01
100
AcDbEntity
  8
0
100
AcDbVertex
100
AcDb3dPolylineVertex
 10
1267.38
 20
875.8650000000001
 30
0.0
 70
    32
  0
VERTEX
  5
3EB9
330
2D01
100
AcDbEntity
  8
0
100
AcDbVertex
100
AcDb3dPolylineVertex
 10
1267.21
 20
876.158
 30
0.0
 70
    32
  0
VERTEX
  5
3EBA
330
2D01
100
AcDbEntity
  8
0
100
AcDbVertex
100
AcDb3dPolylineVertex
 10
1267.04
 20
876.457
 30
0.0
 70
    32
  0
VERTEX
  5
3EBB
330
2D01
100
AcDbEntity
  8
0
100
AcDbVertex
100
AcDb3dPolylineVertex
 10
1266.87
 20
876.7619999999999
 30
0.0
 70
    32
  0
VERTEX
  5
3EBC
330
2D01
100
AcDbEntity
  8
0
100
AcDbVertex
100
AcDb3dPolylineVertex
 10
1266.72
 20
877.073
 30
0.0
 70
    32
  0
VERTEX
  5
3EBD
330
2D01
100
AcDbEntity
  8
0
100
AcDbVertex
100
AcDb3dPolylineVertex
 10
1266.57
 20
877.3899999999999
 30
0.0
 70
    32
  0
VERTEX
  5
3EBE
330
2D01
100
AcDbEntity
  8
0
100
AcDbVertex
100
AcDb3dPolylineVertex
 10
1266.42
 20
877.712
 30
0.0
 70
    32
  0
VERTEX
  5
3EBF
330
2D01
100
AcDbEntity
  8
0
100
AcDbVertex
100
AcDb3dPolylineVertex
 10
1266.28
 20
878.039
 30
0.0
 70
    32
  0
VERTEX
  5
3EC0
330
2D01
100
AcDbEntity
  8
0
100
AcDbVertex
100
AcDb3dPolylineVertex
 10
1266.15
 20
878.3710000000001
 30
0.0
 70
    32
  0
VERTEX
  5
3EC1
330
2D01
100
AcDbEntity
  8
0
100
AcDbVertex
100
AcDb3dPolylineVertex
 10
1266.02
 20
878.7069999999999
 30
0.0
 70
    32
  0
VERTEX
  5
3EC2
330
2D01
100
AcDbEntity
  8
0
100
AcDbVertex
100
AcDb3dPolylineVertex
 10
1265.89
 20
879.048
 30
0.0
 70
    32
  0
VERTEX
  5
3EC3
330
2D01
100
AcDbEntity
  8
0
100
AcDbVertex
100
AcDb3dPolylineVertex
 10
1265.78
 20
879.3939999999999
 30
0.0
 70
    32
  0
VERTEX
  5
3EC4
330
2D01
100
AcDbEntity
  8
0
100
AcDbVertex
100
AcDb3dPolylineVertex
 10
1265.67
 20
879.743
 30
0.0
 70
    32
  0
VERTEX
  5
3EC5
330
2D01
100
AcDbEntity
  8
0
100
AcDbVertex
100
AcDb3dPolylineVertex
 10
1265.57
 20
880.0959999999999
 30
0.0
 70
    32
  0
VERTEX
  5
3EC6
330
2D01
100
AcDbEntity
  8
0
100
AcDbVertex
100
AcDb3dPolylineVertex
 10
1265.47
 20
880.4529999999999
 30
0.0
 70
    32
  0
VERTEX
  5
3EC7
330
2D01
100
AcDbEntity
  8
0
100
AcDbVertex
100
AcDb3dPolylineVertex
 10
1265.38
 20
880.813
 30
0.0
 70
    32
  0
VERTEX
  5
3EC8
330
2D01
100
AcDbEntity
  8
0
100
AcDbVertex
100
AcDb3dPolylineVertex
 10
1265.29
 20
881.177
 30
0.0
 70
    32
  0
VERTEX
  5
3EC9
330
2D01
100
AcDbEntity
  8
0
100
AcDbVertex
100
AcDb3dPolylineVertex
 10
1265.22
 20
881.543
 30
0.0
 70
    32
  0
VERTEX
  5
3ECA
330
2D01
100
AcDbEntity
  8
0
100
AcDbVertex
100
AcDb3dPolylineVertex
 10
1265.14
 20
881.9119999999999
 30
0.0
 70
    32
  0
VERTEX
  5
3ECB
330
2D01
100
AcDbEntity
  8
0
100
AcDbVertex
100
AcDb3dPolylineVertex
 10
1265.08
 20
882.2829999999999
 30
0.0
 70
    32
  0
VERTEX
  5
3ECC
330
2D01
100
AcDbEntity
  8
0
100
AcDbVertex
100
AcDb3dPolylineVertex
 10
1265.02
 20
882.657
 30
0.0
 70
    32
  0
VERTEX
  5
3ECD
330
2D01
100
AcDbEntity
  8
0
100
AcDbVertex
100
AcDb3dPolylineVertex
 10
1264.97
 20
883.0319999999998
 30
0.0
 70
    32
  0
VERTEX
  5
3ECE
330
2D01
100
AcDbEntity
  8
0
100
AcDbVertex
100
AcDb3dPolylineVertex
 10
1264.93
 20
883.4089999999999
 30
0.0
 70
    32
  0
VERTEX
  5
3ECF
330
2D01
100
AcDbEntity
  8
0
100
AcDbVertex
100
AcDb3dPolylineVertex
 10
1264.89
 20
883.788
 30
0.0
 70
    32
  0
VERTEX
  5
3ED0
330
2D01
100
AcDbEntity
  8
0
100
AcDbVertex
100
AcDb3dPolylineVertex
 10
1264.86
 20
884.168
 30
0.0
 70
    32
  0
VERTEX
  5
3ED1
330
2D01
100
AcDbEntity
  8
0
100
AcDbVertex
100
AcDb3dPolylineVertex
 10
1264.83
 20
884.5489999999999
 30
0.0
 70
    32
  0
VERTEX
  5
3ED2
330
2D01
100
AcDbEntity
  8
0
100
AcDbVertex
100
AcDb3dPolylineVertex
 10
1264.82
 20
884.9299999999999
 30
0.0
 70
    32
  0
VERTEX
  5
3ED3
330
2D01
100
AcDbEntity
  8
0
100
AcDbVertex
100
AcDb3dPolylineVertex
 10
1264.81
 20
885.312
 30
0.0
 70
    32
  0
VERTEX
  5
3ED4
330
2D01
100
AcDbEntity
  8
0
100
AcDbVertex
100
AcDb3dPolylineVertex
 10
1264.8
 20
885.6939999999999
 30
0.0
 70
    32
  0
VERTEX
  5
3ED5
330
2D01
100
AcDbEntity
  8
0
100
AcDbVertex
100
AcDb3dPolylineVertex
 10
1264.81
 20
886.077
 30
0.0
 70
    32
  0
VERTEX
  5
3ED6
330
2D01
100
AcDbEntity
  8
0
100
AcDbVertex
100
AcDb3dPolylineVertex
 10
1264.82
 20
886.4589999999999
 30
0.0
 70
    32
  0
VERTEX
  5
3ED7
330
2D01
100
AcDbEntity
  8
0
100
AcDbVertex
100
AcDb3dPolylineVertex
 10
1264.83
 20
886.8400000000001
 30
0.0
 70
    32
  0
VERTEX
  5
3ED8
330
2D01
100
AcDbEntity
  8
0
100
AcDbVertex
100
AcDb3dPolylineVertex
 10
1264.86
 20
887.221
 30
0.0
 70
    32
  0
VERTEX
  5
3ED9
330
2D01
100
AcDbEntity
  8
0
100
AcDbVertex
100
AcDb3dPolylineVertex
 10
1264.89
 20
887.601
 30
0.0
 70
    32
  0
VERTEX
  5
3EDA
330
2D01
100
AcDbEntity
  8
0
100
AcDbVertex
100
AcDb3dPolylineVertex
 10
1264.93
 20
887.9800000000001
 30
0.0
 70
    32
  0
VERTEX
  5
3EDB
330
2D01
100
AcDbEntity
  8
0
100
AcDbVertex
100
AcDb3dPolylineVertex
 10
1264.97
 20
888.357
 30
0.0
 70
    32
  0
VERTEX
  5
3EDC
330
2D01
100
AcDbEntity
  8
0
100
AcDbVertex
100
AcDb3dPolylineVertex
 10
1265.02
 20
888.732
 30
0.0
 70
    32
  0
VERTEX
  5
3EDD
330
2D01
100
AcDbEntity
  8
0
100
AcDbVertex
100
AcDb3dPolylineVertex
 10
1265.08
 20
889.1060000000001
 30
0.0
 70
    32
  0
VERTEX
  5
3EDE
330
2D01
100
AcDbEntity
  8
0
100
AcDbVertex
100
AcDb3dPolylineVertex
 10
1265.14
 20
889.4769999999999
 30
0.0
 70
    32
  0
VERTEX
  5
3EDF
330
2D01
100
AcDbEntity
  8
0
100
AcDbVertex
100
AcDb3dPolylineVertex
 10
1265.22
 20
889.846
 30
0.0
 70
    32
  0
VERTEX
  5
3EE0
330
2D01
100
AcDbEntity
  8
0
100
AcDbVertex
100
AcDb3dPolylineVertex
 10
1265.29
 20
890.212
 30
0.0
 70
    32
  0
VERTEX
  5
3EE1
330
2D01
100
AcDbEntity
  8
0
100
AcDbVertex
100
AcDb3dPolylineVertex
 10
1265.38
 20
890.576
 30
0.0
 70
    32
  0
VERTEX
  5
3EE2
330
2D01
100
AcDbEntity
  8
0
100
AcDbVertex
100
AcDb3dPolylineVertex
 10
1265.47
 20
890.9360000000001
 30
0.0
 70
    32
  0
VERTEX
  5
3EE3
330
2D01
100
AcDbEntity
  8
0
100
AcDbVertex
100
AcDb3dPolylineVertex
 10
1265.57
 20
891.2930000000001
 30
0.0
 70
    32
  0
VERTEX
  5
3EE4
330
2D01
100
AcDbEntity
  8
0
100
AcDbVertex
100
AcDb3dPolylineVertex
 10
1265.67
 20
891.646
 30
0.0
 70
    32
  0
VERTEX
  5
3EE5
330
2D01
100
AcDbEntity
  8
0
100
AcDbVertex
100
AcDb3dPolylineVertex
 10
1265.78
 20
891.995
 30
0.0
 70
    32
  0
VERTEX
  5
3EE6
330
2D01
100
AcDbEntity
  8
0
100
AcDbVertex
100
AcDb3dPolylineVertex
 10
1265.89
 20
892.341
 30
0.0
 70
    32
  0
VERTEX
  5
3EE7
330
2D01
100
AcDbEntity
  8
0
100
AcDbVertex
100
AcDb3dPolylineVertex
 10
1266.02
 20
892.6820000000001
 30
0.0
 70
    32
  0
VERTEX
  5
3EE8
330
2D01
100
AcDbEntity
  8
0
100
AcDbVertex
100
AcDb3dPolylineVertex
 10
1266.15
 20
893.018
 30
0.0
 70
    32
  0
VERTEX
  5
3EE9
330
2D01
100
AcDbEntity
  8
0
100
AcDbVertex
100
AcDb3dPolylineVertex
 10
1266.28
 20
893.35
 30
0.0
 70
    32
  0
VERTEX
  5
3EEA
330
2D01
100
AcDbEntity
  8
0
100
AcDbVertex
100
AcDb3dPolylineVertex
 10
1266.42
 20
893.677
 30
0.0
 70
    32
  0
VERTEX
  5
3EEB
330
2D01
100
AcDbEntity
  8
0
100
AcDbVertex
100
AcDb3dPolylineVertex
 10
1266.57
 20
893.9989999999999
 30
0.0
 70
    32
  0
VERTEX
  5
3EEC
330
2D01
100
AcDbEntity
  8
0
100
AcDbVertex
100
AcDb3dPolylineVertex
 10
1266.72
 20
894.3150000000001
 30
0.0
 70
    32
  0
VERTEX
  5
3EED
330
2D01
100
AcDbEntity
  8
0
100
AcDbVertex
100
AcDb3dPolylineVertex
 10
1266.87
 20
894.626
 30
0.0
 70
    32
  0
VERTEX
  5
3EEE
330
2D01
100
AcDbEntity
  8
0
100
AcDbVertex
100
AcDb3dPolylineVertex
 10
1267.04
 20
894.932
 30
0.0
 70
    32
  0
VERTEX
  5
3EEF
330
2D01
100
AcDbEntity
  8
0
100
AcDbVertex
100
AcDb3dPolylineVertex
 10
1267.21
 20
895.231
 30
0.0
 70
    32
  0
VERTEX
  5
3EF0
330
2D01
100
AcDbEntity
  8
0
100
AcDbVertex
100
AcDb3dPolylineVertex
 10
1267.38
 20
895.5239999999999
 30
0.0
 70
    32
  0
VERTEX
  5
3EF1
330
2D01
100
AcDbEntity
  8
0
100
AcDbVertex
100
AcDb3dPolylineVertex
 10
1267.56
 20
895.8110000000001
 30
0.0
 70
    32
  0
VERTEX
  5
3EF2
330
2D01
100
AcDbEntity
  8
0
100
AcDbVertex
100
AcDb3dPolylineVertex
 10
1267.74
 20
896.091
 30
0.0
 70
    32
  0
VERTEX
  5
3EF3
330
2D01
100
AcDbEntity
  8
0
100
AcDbVertex
100
AcDb3dPolylineVertex
 10
1267.93
 20
896.3649999999999
 30
0.0
 70
    32
  0
VERTEX
  5
3EF4
330
2D01
100
AcDbEntity
  8
0
100
AcDbVertex
100
AcDb3dPolylineVertex
 10
1268.12
 20
896.6319999999999
 30
0.0
 70
    32
  0
VERTEX
  5
3EF5
330
2D01
100
AcDbEntity
  8
0
100
AcDbVertex
100
AcDb3dPolylineVertex
 10
1268.32
 20
896.8919999999998
 30
0.0
 70
    32
  0
VERTEX
  5
3EF6
330
2D01
100
AcDbEntity
  8
0
100
AcDbVertex
100
AcDb3dPolylineVertex
 10
1268.53
 20
897.1439999999999
 30
0.0
 70
    32
  0
VERTEX
  5
3EF7
330
2D01
100
AcDbEntity
  8
0
100
AcDbVertex
100
AcDb3dPolylineVertex
 10
1268.73
 20
897.39
 30
0.0
 70
    32
  0
VERTEX
  5
3EF8
330
2D01
100
AcDbEntity
  8
0
100
AcDbVertex
100
AcDb3dPolylineVertex
 10
1268.95
 20
897.628
 30
0.0
 70
    32
  0
VERTEX
  5
3EF9
330
2D01
100
AcDbEntity
  8
0
100
AcDbVertex
100
AcDb3dPolylineVertex
 10
1269.16
 20
897.858
 30
0.0
 70
    32
  0
VERTEX
  5
3EFA
330
2D01
100
AcDbEntity
  8
0
100
AcDbVertex
100
AcDb3dPolylineVertex
 10
1269.38
 20
898.08
 30
0.0
 70
    32
  0
VERTEX
  5
3EFB
330
2D01
100
AcDbEntity
  8
0
100
AcDbVertex
100
AcDb3dPolylineVertex
 10
1269.61
 20
898.2939999999999
 30
0.0
 70
    32
  0
VERTEX
  5
3EFC
330
2D01
100
AcDbEntity
  8
0
100
AcDbVertex
100
AcDb3dPolylineVertex
 10
1269.83
 20
898.501
 30
0.0
 70
    32
  0
VERTEX
  5
3EFD
330
2D01
100
AcDbEntity
  8
0
100
AcDbVertex
100
AcDb3dPolylineVertex
 10
1270.06
 20
898.699
 30
0.0
 70
    32
  0
VERTEX
  5
3EFE
330
2D01
100
AcDbEntity
  8
0
100
AcDbVertex
100
AcDb3dPolylineVertex
 10
1270.3
 20
898.8879999999999
 30
0.0
 70
    32
  0
VERTEX
  5
3EFF
330
2D01
100
AcDbEntity
  8
0
100
AcDbVertex
100
AcDb3dPolylineVertex
 10
1270.54
 20
899.07
 30
0.0
 70
    32
  0
VERTEX
  5
3F00
330
2D01
100
AcDbEntity
  8
0
100
AcDbVertex
100
AcDb3dPolylineVertex
 10
1270.78
 20
899.2419999999999
 30
0.0
 70
    32
  0
VERTEX
  5
3F01
330
2D01
100
AcDbEntity
  8
0
100
AcDbVertex
100
AcDb3dPolylineVertex
 10
1271.02
 20
899.4060000000001
 30
0.0
 70
    32
  0
VERTEX
  5
3F02
330
2D01
100
AcDbEntity
  8
0
100
AcDbVertex
100
AcDb3dPolylineVertex
 10
1271.27
 20
899.561
 30
0.0
 70
    32
  0
VERTEX
  5
3F03
330
2D01
100
AcDbEntity
  8
0
100
AcDbVertex
100
AcDb3dPolylineVertex
 10
1271.52
 20
899.707
 30
0.0
 70
    32
  0
VERTEX
  5
3F04
330
2D01
100
AcDbEntity
  8
0
100
AcDbVertex
100
AcDb3dPolylineVertex
 10
1271.77
 20
899.845
 30
0.0
 70
    32
  0
VERTEX
  5
3F05
330
2D01
100
AcDbEntity
  8
0
100
AcDbVertex
100
AcDb3dPolylineVertex
 10
1272.03
 20
899.9730000000001
 30
0.0
 70
    32
  0
VERTEX
  5
3F06
330
2D01
100
AcDbEntity
  8
0
100
AcDbVertex
100
AcDb3dPolylineVertex
 10
1272.28
 20
900.092
 30
0.0
 70
    32
  0
VERTEX
  5
3F07
330
2D01
100
AcDbEntity
  8
0
100
AcDbVertex
100
AcDb3dPolylineVertex
 10
1272.54
 20
900.201
 30
0.0
 70
    32
  0
VERTEX
  5
3F08
330
2D01
100
AcDbEntity
  8
0
100
AcDbVertex
100
AcDb3dPolylineVertex
 10
1272.8
 20
900.3020000000001
 30
0.0
 70
    32
  0
VERTEX
  5
3F09
330
2D01
100
AcDbEntity
  8
0
100
AcDbVertex
100
AcDb3dPolylineVertex
 10
1273.07
 20
900.393
 30
0.0
 70
    32
  0
VERTEX
  5
3F0A
330
2D01
100
AcDbEntity
  8
0
100
AcDbVertex
100
AcDb3dPolylineVertex
 10
1273.33
 20
900.4739999999999
 30
0.0
 70
    32
  0
VERTEX
  5
3F0B
330
2D01
100
AcDbEntity
  8
0
100
AcDbVertex
100
AcDb3dPolylineVertex
 10
1273.6
 20
900.5460000000001
 30
0.0
 70
    32
  0
VERTEX
  5
3F0C
330
2D01
100
AcDbEntity
  8
0
100
AcDbVertex
100
AcDb3dPolylineVertex
 10
1273.86
 20
900.6089999999998
 30
0.0
 70
    32
  0
VERTEX
  5
3F0D
330
2D01
100
AcDbEntity
  8
0
100
AcDbVertex
100
AcDb3dPolylineVertex
 10
1274.13
 20
900.6619999999999
 30
0.0
 70
    32
  0
VERTEX
  5
3F0E
330
2D01
100
AcDbEntity
  8
0
100
AcDbVertex
100
AcDb3dPolylineVertex
 10
1274.4
 20
900.7050000000001
 30
0.0
 70
    32
  0
VERTEX
  5
3F0F
330
2D01
100
AcDbEntity
  8
0
100
AcDbVertex
100
AcDb3dPolylineVertex
 10
1274.67
 20
900.7389999999999
 30
0.0
 70
    32
  0
VERTEX
  5
3F10
330
2D01
100
AcDbEntity
  8
0
100
AcDbVertex
100
AcDb3dPolylineVertex
 10
1274.94
 20
900.763
 30
0.0
 70
    32
  0
VERTEX
  5
3F11
330
2D01
100
AcDbEntity
  8
0
100
AcDbVertex
100
AcDb3dPolylineVertex
 10
1275.21
 20
900.778
 30
0.0
 70
    32
  0
VERTEX
  5
3F12
330
2D01
100
AcDbEntity
  8
0
100
AcDbVertex
100
AcDb3dPolylineVertex
 10
1275.48
 20
900.7819999999998
 30
0.0
 70
    32
  0
VERTEX
  5
3F13
330
2D01
100
AcDbEntity
  8
0
100
AcDbVertex
100
AcDb3dPolylineVertex
 10
1275.75
 20
900.7769999999998
 30
0.0
 70
    32
  0
VERTEX
  5
3F14
330
2D01
100
AcDbEntity
  8
0
100
AcDbVertex
100
AcDb3dPolylineVertex
 10
1276.02
 20
900.763
 30
0.0
 70
    32
  0
SEQEND
  5
3F15
330
2D01
100
AcDbEntity
  8
0
  0
LINE
  5
2EC6
330
4006
100
AcDbEntity
  8
0
100
AcDbLine
 10
2263.193982839053
 20
1159.378409627008
 30
0.0
 11
2284.55548746975
 21
1138.016904996311
 31
0.0
  0
LINE
  5
2EC7
330
4006
100
AcDbEntity
  8
0
100
AcDbLine
 10
2263.194982839054
 20
1047.565206191412
 30
0.0
 11
2284.539942649829
 21
1068.910166002186
 31
0.0
  0
ARC
  5
2EEF
330
4006
100
AcDbEntity
  8
0
100
AcDbCircle
 10
2040.840833546508
 20
586.7272642983842
 30
0.0
 40
90.0
100
AcDbArc
 50
60.38700076274362
 51
79.48022470884419
  0
ARC
  5
2EF0
330
4006
100
AcDbEntity
  8
0
100
AcDbCircle
 10
2040.824136644973
 20
643.0985274949594
 30
0.0
 40
90.0
100
AcDbArc
 50
280.5312343014693
 51
299.61914993251
  0
ARC
  5
2EF4
330
4006
100
AcDbEntity
  8
0
100
AcDbCircle
 10
2036.927209878781
 20
643.0985274949594
 30
0.0
 40
90.0
100
AcDbArc
 50
240.3893924623192
 51
259.4687656985307
  0
LINE
  5
2EFB
330
4006
100
AcDbEntity
  8
0
100
AcDbLine
 10
2057.273572665963
 20
554.6145399345459
 30
0.0
 11
2020.477773857789
 21
554.6145399345459
 31
0.0
  0
LINE
  5
2EFC
330
4006
100
AcDbEntity
  8
0
100
AcDbLine
 10
2021.875673261879
 20
551.707997282409
 30
0.0
 11
2055.875673261879
 21
551.707997282409
 31
0.0
  0
ARC
  5
2EFD
330
4006
100
AcDbEntity
  8
0
100
AcDbCircle
 10
2027.287165269095
 20
558.2319317124369
 30
0.0
 40
8.476199985339549
100
AcDbArc
 50
203.9275816494436
 51
230.3248741034184
  0
ARC
  5
2EFE
330
4006
100
AcDbEntity
  8
0
100
AcDbCircle
 10
2050.464181254662
 20
558.2319317124369
 30
0.0
 40
8.476199985339549
100
AcDbArc
 50
309.6751258965816
 51
336.0724183505601
  0
LINE
  5
2EFF
330
4006
100
AcDbEntity
  8
0
100
AcDbLine
 10
1984.869497894984
 20
577.8893331732184
 30
0.0
 11
1984.850079160455
 21
651.9270432120769
 31
0.0
  0
ARC
  5
2F00
330
4006
100
AcDbEntity
  8
0
100
AcDbCircle
 10
1999.869497379046
 20
577.893267398193
 30
0.0
 40
15.0
100
AcDbArc
 50
180.0150276326181
 51
240.389392462319
  0
ARC
  5
2F01
330
4006
100
AcDbEntity
  8
0
100
AcDbCircle
 10
2036.910512977247
 20
586.7272642983842
 30
0.0
 40
90.0
100
AcDbArc
 50
100.5197752911558
 51
119.6129992372563
  0
ARC
  5
2F02
330
4006
100
AcDbEntity
  8
0
100
AcDbCircle
 10
1999.850078644517
 20
651.9309774370512
 30
0.0
 40
15.0
100
AcDbArc
 50
119.6129992372562
 51
180.0150276326181
  0
LINE
  5
2F03
330
4006
100
AcDbEntity
  8
0
100
AcDbLine
 10
2057.272572665967
 20
675.2145399345457
 30
0.0
 11
2020.47877385779
 21
675.2145399345463
 31
0.0
  0
LINE
  5
2F04
330
4006
100
AcDbEntity
  8
0
100
AcDbLine
 10
2021.875673261879
 20
678.1210825866824
 30
0.0
 11
2055.875673261879
 21
678.1210825866824
 31
0.0
  0
ARC
  5
2F05
330
4006
100
AcDbEntity
  8
0
100
AcDbCircle
 10
2027.287165269095
 20
671.5971481566543
 30
0.0
 40
8.476199985339549
100
AcDbArc
 50
129.6751258965815
 51
156.0724343240782
  0
ARC
  5
2F06
330
4006
100
AcDbEntity
  8
0
100
AcDbCircle
 10
2050.464181254662
 20
671.5971481566543
 30
0.0
 40
8.476199985339549
100
AcDbArc
 50
23.9275656759213
 51
50.32487410341842
  0
LINE
  5
2F07
330
4006
100
AcDbEntity
  8
0
100
AcDbLine
 10
2167.296186368735
 20
559.0079382167473
 30
0.0
 11
2145.95122655796
 21
580.3528980275217
 31
0.0
  0
ARC
  5
2F08
330
4006
100
AcDbEntity
  8
0
100
AcDbCircle
 10
2235.316584603894
 20
569.6137844986175
 30
0.0
 40
15.0
100
AcDbArc
 50
270.5750328312478
 51
0.0
  0
ARC
  5
2F09
330
4006
100
AcDbEntity
  8
0
100
AcDbCircle
 10
2177.902788086532
 20
569.6145399345446
 30
0.0
 40
15.0
100
AcDbArc
 50
225.0000000000004
 51
270.0
  0
TEXT
  5
2F0F
330
4006
100
AcDbEntity
  8
0
100
AcDbText
 10
2177.909993832838
 20
422.8694966987391
 30
0.0
 40
20.0
  1
25
 41
0.8
 72
     4
 11
2190.862374785219
 21
432.8694966987391
 31
0.0
100
AcDbText
  0
LINE
  5
2F10
330
4006
100
AcDbEntity
  8
0
100
AcDbLine
 10
2232.245584603893
 20
551.707997282409
 30
0.0
 11
2198.245584603894
 21
551.707997282409
 31
0.0
  0
LINE
  5
2F11
330
4006
100
AcDbEntity
  8
0
100
AcDbLine
 10
2235.467125319818
 20
554.6145399345455
 30
0.0
 11
2177.902788086532
 21
554.6145399345455
 31
0.0
  0
ARC
  5
2F15
330
4006
100
AcDbEntity
  8
0
100
AcDbCircle
 10
2203.65707661111
 20
558.2319317124369
 30
0.0
 40
8.476199985339549
100
AcDbArc
 50
205.2627793991603
 51
230.3248741034184
  0
ARC
  5
2F19
330
4006
100
AcDbEntity
  8
0
100
AcDbCircle
 10
2226.834092596678
 20
558.2319317124369
 30
0.0
 40
8.476199985339549
100
AcDbArc
 50
309.6751258965815
 51
334.7545980877517
  0
ARC
  5
2F1A
330
4006
100
AcDbEntity
  8
0
100
AcDbCircle
 10
2177.903788086533
 20
660.214539934545
 30
0.0
 40
15.0
100
AcDbArc
 50
89.99999999999998
 51
134.9999999999996
  0
LINE
  5
2F1B
330
4006
100
AcDbEntity
  8
0
100
AcDbLine
 10
2142.291599136694
 20
588.9956639710065
 30
0.0
 11
2142.277981618
 21
640.915108001321
 31
0.0
  0
LINE
  5
2F1C
330
4006
100
AcDbEntity
  8
0
100
AcDbLine
 10
2092.891570375152
 20
577.8987931652944
 30
0.0
 11
2092.891570375152
 21
652.4702650050276
 31
0.0
  0
ARC
  5
2F1D
330
4006
100
AcDbEntity
  8
0
100
AcDbCircle
 10
2077.891570375151
 20
577.8987931652944
 30
0.0
 40
15.0
100
AcDbArc
 50
299.61914993251
 51
0.0
  0
ARC
  5
2F1E
330
4006
100
AcDbEntity
  8
0
100
AcDbCircle
 10
2154.79006132279
 20
589.1917327923533
 30
0.0
 40
12.5
100
AcDbArc
 50
180.0196485952699
 51
225.0000000000002
  0
ARC
  5
2F1F
330
4006
100
AcDbEntity
  8
0
100
AcDbCircle
 10
2077.901267879237
 20
651.9309774370512
 30
0.0
 40
15.0
100
AcDbArc
 50
359.9849723673819
 51
60.38700076274377
  0
LINE
  5
2F20
330
4006
100
AcDbEntity
  8
0
100
AcDbLine
 10
2167.297186368735
 20
670.821141652344
 30
0.0
 11
2145.935681738038
 21
649.4596370216473
 31
0.0
  0
ARC
  5
2F21
330
4006
100
AcDbEntity
  8
0
100
AcDbCircle
 10
2154.774516502869
 20
640.6208022568148
 30
0.0
 40
12.5
100
AcDbArc
 50
134.9999999999991
 51
178.9452223899291
  0
LINE
  5
2F22
330
4006
100
AcDbEntity
  8
0
100
AcDbLine
 10
2250.316584603893
 20
569.6137844986175
 30
0.0
 11
2250.316584603893
 21
660.214814280685
 31
0.0
  0
LINE
  5
2F23
330
4006
100
AcDbEntity
  8
0
100
AcDbLine
 10
2235.407305653866
 20
675.2145399345457
 30
0.0
 11
2177.903788086533
 21
675.2145399345457
 31
0.0
  0
LINE
  5
2F24
330
4006
100
AcDbEntity
  8
0
100
AcDbLine
 10
2232.245584603893
 20
678.1210825866824
 30
0.0
 11
2198.245584603894
 21
678.1210825866824
 31
0.0
  0
ARC
  5
2F25
330
4006
100
AcDbEntity
  8
0
100
AcDbCircle
 10
2203.65707661111
 20
671.5971481566543
 30
0.0
 40
8.476199985339549
100
AcDbArc
 50
129.6751258965816
 51
154.7372206008397
  0
ARC
  5
2F26
330
4006
100
AcDbEntity
  8
0
100
AcDbCircle
 10
2235.316584603894
 20
660.2148142806839
 30
0.0
 40
15.0
100
AcDbArc
 50
0.0
 51
89.65346900232928
  0
ARC
  5
2F27
330
4006
100
AcDbEntity
  8
0
100
AcDbCircle
 10
2226.834092596678
 20
671.5971481566543
 30
0.0
 40
8.476199985339549
100
AcDbArc
 50
25.24540191224835
 51
50.32487410341842
  0
POLYLINE
  5
2F42
330
4006
100
AcDbEntity
  8
0
100
AcDb3dPolyline
 66
     1
 10
0.0
 20
0.0
 30
0.0
 70
     8
  0
VERTEX
  5
3F16
330
2F42
100
AcDbEntity
  8
0
100
AcDbVertex
100
AcDb3dPolylineVertex
 10
2151.63
 20
871.052
 30
0.0
 70
    32
  0
VERTEX
  5
3F17
330
2F42
100
AcDbEntity
  8
0
100
AcDbVertex
100
AcDb3dPolylineVertex
 10
2151.47
 20
871.1730000000001
 30
0.0
 70
    32
  0
VERTEX
  5
3F18
330
2F42
100
AcDbEntity
  8
0
100
AcDbVertex
100
AcDb3dPolylineVertex
 10
2151.31
 20
871.2989999999999
 30
0.0
 70
    32
  0
VERTEX
  5
3F19
330
2F42
100
AcDbEntity
  8
0
100
AcDbVertex
100
AcDb3dPolylineVertex
 10
2151.16
 20
871.428
 30
0.0
 70
    32
  0
VERTEX
  5
3F1A
330
2F42
100
AcDbEntity
  8
0
100
AcDbVertex
100
AcDb3dPolylineVertex
 10
2151.0
 20
871.5609999999999
 30
0.0
 70
    32
  0
VERTEX
  5
3F1B
330
2F42
100
AcDbEntity
  8
0
100
AcDbVertex
100
AcDb3dPolylineVertex
 10
2150.85
 20
871.6969999999999
 30
0.0
 70
    32
  0
VERTEX
  5
3F1C
330
2F42
100
AcDbEntity
  8
0
100
AcDbVertex
100
AcDb3dPolylineVertex
 10
2150.7
 20
871.837
 30
0.0
 70
    32
  0
VERTEX
  5
3F1D
330
2F42
100
AcDbEntity
  8
0
100
AcDbVertex
100
AcDb3dPolylineVertex
 10
2150.55
 20
871.981
 30
0.0
 70
    32
  0
VERTEX
  5
3F1E
330
2F42
100
AcDbEntity
  8
0
100
AcDbVertex
100
AcDb3dPolylineVertex
 10
2150.4
 20
872.128
 30
0.0
 70
    32
  0
VERTEX
  5
3F1F
330
2F42
100
AcDbEntity
  8
0
100
AcDbVertex
100
AcDb3dPolylineVertex
 10
2150.25
 20
872.2789999999999
 30
0.0
 70
    32
  0
VERTEX
  5
3F20
330
2F42
100
AcDbEntity
  8
0
100
AcDbVertex
100
AcDb3dPolylineVertex
 10
2150.11
 20
872.433
 30
0.0
 70
    32
  0
VERTEX
  5
3F21
330
2F42
100
AcDbEntity
  8
0
100
AcDbVertex
100
AcDb3dPolylineVertex
 10
2149.97
 20
872.5900000000001
 30
0.0
 70
    32
  0
VERTEX
  5
3F22
330
2F42
100
AcDbEntity
  8
0
100
AcDbVertex
100
AcDb3dPolylineVertex
 10
2149.83
 20
872.751
 30
0.0
 70
    32
  0
VERTEX
  5
3F23
330
2F42
100
AcDbEntity
  8
0
100
AcDbVertex
100
AcDb3dPolylineVertex
 10
2149.69
 20
872.916
 30
0.0
 70
    32
  0
VERTEX
  5
3F24
330
2F42
100
AcDbEntity
  8
0
100
AcDbVertex
100
AcDb3dPolylineVertex
 10
2149.55
 20
873.083
 30
0.0
 70
    32
  0
VERTEX
  5
3F25
330
2F42
100
AcDbEntity
  8
0
100
AcDbVertex
100
AcDb3dPolylineVertex
 10
2149.42
 20
873.2539999999998
 30
0.0
 70
    32
  0
VERTEX
  5
3F26
330
2F42
100
AcDbEntity
  8
0
100
AcDbVertex
100
AcDb3dPolylineVertex
 10
2149.29
 20
873.428
 30
0.0
 70
    32
  0
VERTEX
  5
3F27
330
2F42
100
AcDbEntity
  8
0
100
AcDbVertex
100
AcDb3dPolylineVertex
 10
2149.16
 20
873.6060000000001
 30
0.0
 70
    32
  0
VERTEX
  5
3F28
330
2F42
100
AcDbEntity
  8
0
100
AcDbVertex
100
AcDb3dPolylineVertex
 10
2149.03
 20
873.7860000000001
 30
0.0
 70
    32
  0
VERTEX
  5
3F29
330
2F42
100
AcDbEntity
  8
0
100
AcDbVertex
100
AcDb3dPolylineVertex
 10
2148.9
 20
873.9689999999999
 30
0.0
 70
    32
  0
VERTEX
  5
3F2A
330
2F42
100
AcDbEntity
  8
0
100
AcDbVertex
100
AcDb3dPolylineVertex
 10
2148.78
 20
874.155
 30
0.0
 70
    32
  0
VERTEX
  5
3F2B
330
2F42
100
AcDbEntity
  8
0
100
AcDbVertex
100
AcDb3dPolylineVertex
 10
2148.66
 20
874.3450000000001
 30
0.0
 70
    32
  0
VERTEX
  5
3F2C
330
2F42
100
AcDbEntity
  8
0
100
AcDbVertex
100
AcDb3dPolylineVertex
 10
2148.54
 20
874.5369999999999
 30
0.0
 70
    32
  0
VERTEX
  5
3F2D
330
2F42
100
AcDbEntity
  8
0
100
AcDbVertex
100
AcDb3dPolylineVertex
 10
2148.42
 20
874.732
 30
0.0
 70
    32
  0
VERTEX
  5
3F2E
330
2F42
100
AcDbEntity
  8
0
100
AcDbVertex
100
AcDb3dPolylineVertex
 10
2148.31
 20
874.929
 30
0.0
 70
    32
  0
VERTEX
  5
3F2F
330
2F42
100
AcDbEntity
  8
0
100
AcDbVertex
100
AcDb3dPolylineVertex
 10
2148.19
 20
875.13
 30
0.0
 70
    32
  0
VERTEX
  5
3F30
330
2F42
100
AcDbEntity
  8
0
100
AcDbVertex
100
AcDb3dPolylineVertex
 10
2148.09
 20
875.3330000000001
 30
0.0
 70
    32
  0
VERTEX
  5
3F31
330
2F42
100
AcDbEntity
  8
0
100
AcDbVertex
100
AcDb3dPolylineVertex
 10
2147.98
 20
875.539
 30
0.0
 70
    32
  0
VERTEX
  5
3F32
330
2F42
100
AcDbEntity
  8
0
100
AcDbVertex
100
AcDb3dPolylineVertex
 10
2147.87
 20
875.7469999999999
 30
0.0
 70
    32
  0
VERTEX
  5
3F33
330
2F42
100
AcDbEntity
  8
0
100
AcDbVertex
100
AcDb3dPolylineVertex
 10
2147.77
 20
875.9580000000001
 30
0.0
 70
    32
  0
VERTEX
  5
3F34
330
2F42
100
AcDbEntity
  8
0
100
AcDbVertex
100
AcDb3dPolylineVertex
 10
2147.67
 20
876.171
 30
0.0
 70
    32
  0
VERTEX
  5
3F35
330
2F42
100
AcDbEntity
  8
0
100
AcDbVertex
100
AcDb3dPolylineVertex
 10
2147.57
 20
876.3860000000001
 30
0.0
 70
    32
  0
VERTEX
  5
3F36
330
2F42
100
AcDbEntity
  8
0
100
AcDbVertex
100
AcDb3dPolylineVertex
 10
2147.48
 20
876.604
 30
0.0
 70
    32
  0
VERTEX
  5
3F37
330
2F42
100
AcDbEntity
  8
0
100
AcDbVertex
100
AcDb3dPolylineVertex
 10
2147.39
 20
876.824
 30
0.0
 70
    32
  0
VERTEX
  5
3F38
330
2F42
100
AcDbEntity
  8
0
100
AcDbVertex
100
AcDb3dPolylineVertex
 10
2147.3
 20
877.0459999999999
 30
0.0
 70
    32
  0
VERTEX
  5
3F39
330
2F42
100
AcDbEntity
  8
0
100
AcDbVertex
100
AcDb3dPolylineVertex
 10
2147.21
 20
877.27
 30
0.0
 70
    32
  0
VERTEX
  5
3F3A
330
2F42
100
AcDbEntity
  8
0
100
AcDbVertex
100
AcDb3dPolylineVertex
 10
2147.13
 20
877.4969999999999
 30
0.0
 70
    32
  0
VERTEX
  5
3F3B
330
2F42
100
AcDbEntity
  8
0
100
AcDbVertex
100
AcDb3dPolylineVertex
 10
2147.05
 20
877.725
 30
0.0
 70
    32
  0
VERTEX
  5
3F3C
330
2F42
100
AcDbEntity
  8
0
100
AcDbVertex
100
AcDb3dPolylineVertex
 10
2146.97
 20
877.955
 30
0.0
 70
    32
  0
VERTEX
  5
3F3D
330
2F42
100
AcDbEntity
  8
0
100
AcDbVertex
100
AcDb3dPolylineVertex
 10
2146.89
 20
878.1869999999999
 30
0.0
 70
    32
  0
VERTEX
  5
3F3E
330
2F42
100
AcDbEntity
  8
0
100
AcDbVertex
100
AcDb3dPolylineVertex
 10
2146.82
 20
878.4209999999999
 30
0.0
 70
    32
  0
VERTEX
  5
3F3F
330
2F42
100
AcDbEntity
  8
0
100
AcDbVertex
100
AcDb3dPolylineVertex
 10
2146.75
 20
878.6560000000001
 30
0.0
 70
    32
  0
VERTEX
  5
3F40
330
2F42
100
AcDbEntity
  8
0
100
AcDbVertex
100
AcDb3dPolylineVertex
 10
2146.68
 20
878.893
 30
0.0
 70
    32
  0
VERTEX
  5
3F41
330
2F42
100
AcDbEntity
  8
0
100
AcDbVertex
100
AcDb3dPolylineVertex
 10
2146.62
 20
879.1319999999998
 30
0.0
 70
    32
  0
VERTEX
  5
3F42
330
2F42
100
AcDbEntity
  8
0
100
AcDbVertex
100
AcDb3dPolylineVertex
 10
2146.56
 20
879.372
 30
0.0
 70
    32
  0
VERTEX
  5
3F43
330
2F42
100
AcDbEntity
  8
0
100
AcDbVertex
100
AcDb3dPolylineVertex
 10
2146.5
 20
879.6139999999999
 30
0.0
 70
    32
  0
VERTEX
  5
3F44
330
2F42
100
AcDbEntity
  8
0
100
AcDbVertex
100
AcDb3dPolylineVertex
 10
2146.44
 20
879.8569999999999
 30
0.0
 70
    32
  0
VERTEX
  5
3F45
330
2F42
100
AcDbEntity
  8
0
100
AcDbVertex
100
AcDb3dPolylineVertex
 10
2146.39
 20
880.1010000000001
 30
0.0
 70
    32
  0
VERTEX
  5
3F46
330
2F42
100
AcDbEntity
  8
0
100
AcDbVertex
100
AcDb3dPolylineVertex
 10
2146.34
 20
880.347
 30
0.0
 70
    32
  0
VERTEX
  5
3F47
330
2F42
100
AcDbEntity
  8
0
100
AcDbVertex
100
AcDb3dPolylineVertex
 10
2146.29
 20
880.5939999999999
 30
0.0
 70
    32
  0
VERTEX
  5
3F48
330
2F42
100
AcDbEntity
  8
0
100
AcDbVertex
100
AcDb3dPolylineVertex
 10
2146.25
 20
880.841
 30
0.0
 70
    32
  0
VERTEX
  5
3F49
330
2F42
100
AcDbEntity
  8
0
100
AcDbVertex
100
AcDb3dPolylineVertex
 10
2146.21
 20
881.09
 30
0.0
 70
    32
  0
VERTEX
  5
3F4A
330
2F42
100
AcDbEntity
  8
0
100
AcDbVertex
100
AcDb3dPolylineVertex
 10
2146.17
 20
881.3399999999999
 30
0.0
 70
    32
  0
VERTEX
  5
3F4B
330
2F42
100
AcDbEntity
  8
0
100
AcDbVertex
100
AcDb3dPolylineVertex
 10
2146.14
 20
881.591
 30
0.0
 70
    32
  0
VERTEX
  5
3F4C
330
2F42
100
AcDbEntity
  8
0
100
AcDbVertex
100
AcDb3dPolylineVertex
 10
2146.1
 20
881.8419999999999
 30
0.0
 70
    32
  0
VERTEX
  5
3F4D
330
2F42
100
AcDbEntity
  8
0
100
AcDbVertex
100
AcDb3dPolylineVertex
 10
2146.07
 20
882.094
 30
0.0
 70
    32
  0
VERTEX
  5
3F4E
330
2F42
100
AcDbEntity
  8
0
100
AcDbVertex
100
AcDb3dPolylineVertex
 10
2146.05
 20
882.347
 30
0.0
 70
    32
  0
VERTEX
  5
3F4F
330
2F42
100
AcDbEntity
  8
0
100
AcDbVertex
100
AcDb3dPolylineVertex
 10
2146.03
 20
882.6
 30
0.0
 70
    32
  0
VERTEX
  5
3F50
330
2F42
100
AcDbEntity
  8
0
100
AcDbVertex
100
AcDb3dPolylineVertex
 10
2146.01
 20
882.854
 30
0.0
 70
    32
  0
VERTEX
  5
3F51
330
2F42
100
AcDbEntity
  8
0
100
AcDbVertex
100
AcDb3dPolylineVertex
 10
2145.99
 20
883.1089999999999
 30
0.0
 70
    32
  0
VERTEX
  5
3F52
330
2F42
100
AcDbEntity
  8
0
100
AcDbVertex
100
AcDb3dPolylineVertex
 10
2145.98
 20
883.3630000000001
 30
0.0
 70
    32
  0
VERTEX
  5
3F53
330
2F42
100
AcDbEntity
  8
0
100
AcDbVertex
100
AcDb3dPolylineVertex
 10
2145.96
 20
883.618
 30
0.0
 70
    32
  0
VERTEX
  5
3F54
330
2F42
100
AcDbEntity
  8
0
100
AcDbVertex
100
AcDb3dPolylineVertex
 10
2145.96
 20
883.8739999999999
 30
0.0
 70
    32
  0
VERTEX
  5
3F55
330
2F42
100
AcDbEntity
  8
0
100
AcDbVertex
100
AcDb3dPolylineVertex
 10
2145.95
 20
884.1289999999998
 30
0.0
 70
    32
  0
VERTEX
  5
3F56
330
2F42
100
AcDbEntity
  8
0
100
AcDbVertex
100
AcDb3dPolylineVertex
 10
2145.95
 20
884.3839999999998
 30
0.0
 70
    32
  0
VERTEX
  5
3F57
330
2F42
100
AcDbEntity
  8
0
100
AcDbVertex
100
AcDb3dPolylineVertex
 10
2145.95
 20
884.64
 30
0.0
 70
    32
  0
VERTEX
  5
3F58
330
2F42
100
AcDbEntity
  8
0
100
AcDbVertex
100
AcDb3dPolylineVertex
 10
2145.96
 20
884.895
 30
0.0
 70
    32
  0
VERTEX
  5
3F59
330
2F42
100
AcDbEntity
  8
0
100
AcDbVertex
100
AcDb3dPolylineVertex
 10
2145.96
 20
885.1510000000001
 30
0.0
 70
    32
  0
VERTEX
  5
3F5A
330
2F42
100
AcDbEntity
  8
0
100
AcDbVertex
100
AcDb3dPolylineVertex
 10
2145.98
 20
885.406
 30
0.0
 70
    32
  0
VERTEX
  5
3F5B
330
2F42
100
AcDbEntity
  8
0
100
AcDbVertex
100
AcDb3dPolylineVertex
 10
2145.99
 20
885.66
 30
0.0
 70
    32
  0
VERTEX
  5
3F5C
330
2F42
100
AcDbEntity
  8
0
100
AcDbVertex
100
AcDb3dPolylineVertex
 10
2146.01
 20
885.9149999999999
 30
0.0
 70
    32
  0
VERTEX
  5
3F5D
330
2F42
100
AcDbEntity
  8
0
100
AcDbVertex
100
AcDb3dPolylineVertex
 10
2146.03
 20
886.1689999999999
 30
0.0
 70
    32
  0
VERTEX
  5
3F5E
330
2F42
100
AcDbEntity
  8
0
100
AcDbVertex
100
AcDb3dPolylineVertex
 10
2146.05
 20
886.4220000000001
 30
0.0
 70
    32
  0
VERTEX
  5
3F5F
330
2F42
100
AcDbEntity
  8
0
100
AcDbVertex
100
AcDb3dPolylineVertex
 10
2146.07
 20
886.6749999999999
 30
0.0
 70
    32
  0
VERTEX
  5
3F60
330
2F42
100
AcDbEntity
  8
0
100
AcDbVertex
100
AcDb3dPolylineVertex
 10
2146.1
 20
886.927
 30
0.0
 70
    32
  0
VERTEX
  5
3F61
330
2F42
100
AcDbEntity
  8
0
100
AcDbVertex
100
AcDb3dPolylineVertex
 10
2146.14
 20
887.1779999999999
 30
0.0
 70
    32
  0
VERTEX
  5
3F62
330
2F42
100
AcDbEntity
  8
0
100
AcDbVertex
100
AcDb3dPolylineVertex
 10
2146.17
 20
887.429
 30
0.0
 70
    32
  0
VERTEX
  5
3F63
330
2F42
100
AcDbEntity
  8
0
100
AcDbVertex
100
AcDb3dPolylineVertex
 10
2146.21
 20
887.6789999999999
 30
0.0
 70
    32
  0
VERTEX
  5
3F64
330
2F42
100
AcDbEntity
  8
0
100
AcDbVertex
100
AcDb3dPolylineVertex
 10
2146.25
 20
887.9279999999999
 30
0.0
 70
    32
  0
VERTEX
  5
3F65
330
2F42
100
AcDbEntity
  8
0
100
AcDbVertex
100
AcDb3dPolylineVertex
 10
2146.29
 20
888.175
 30
0.0
 70
    32
  0
VERTEX
  5
3F66
330
2F42
100
AcDbEntity
  8
0
100
AcDbVertex
100
AcDb3dPolylineVertex
 10
2146.34
 20
888.422
 30
0.0
 70
    32
  0
VERTEX
  5
3F67
330
2F42
100
AcDbEntity
  8
0
100
AcDbVertex
100
AcDb3dPolylineVertex
 10
2146.39
 20
888.668
 30
0.0
 70
    32
  0
VERTEX
  5
3F68
330
2F42
100
AcDbEntity
  8
0
100
AcDbVertex
100
AcDb3dPolylineVertex
 10
2146.44
 20
888.912
 30
0.0
 70
    32
  0
VERTEX
  5
3F69
330
2F42
100
AcDbEntity
  8
0
100
AcDbVertex
100
AcDb3dPolylineVertex
 10
2146.5
 20
889.155
 30
0.0
 70
    32
  0
VERTEX
  5
3F6A
330
2F42
100
AcDbEntity
  8
0
100
AcDbVertex
100
AcDb3dPolylineVertex
 10
2146.56
 20
889.3969999999999
 30
0.0
 70
    32
  0
VERTEX
  5
3F6B
330
2F42
100
AcDbEntity
  8
0
100
AcDbVertex
100
AcDb3dPolylineVertex
 10
2146.62
 20
889.6369999999999
 30
0.0
 70
    32
  0
VERTEX
  5
3F6C
330
2F42
100
AcDbEntity
  8
0
100
AcDbVertex
100
AcDb3dPolylineVertex
 10
2146.68
 20
889.8760000000001
 30
0.0
 70
    32
  0
VERTEX
  5
3F6D
330
2F42
100
AcDbEntity
  8
0
100
AcDbVertex
100
AcDb3dPolylineVertex
 10
2146.75
 20
890.113
 30
0.0
 70
    32
  0
VERTEX
  5
3F6E
330
2F42
100
AcDbEntity
  8
0
100
AcDbVertex
100
AcDb3dPolylineVertex
 10
2146.82
 20
890.348
 30
0.0
 70
    32
  0
VERTEX
  5
3F6F
330
2F42
100
AcDbEntity
  8
0
100
AcDbVertex
100
AcDb3dPolylineVertex
 10
2146.89
 20
890.582
 30
0.0
 70
    32
  0
VERTEX
  5
3F70
330
2F42
100
AcDbEntity
  8
0
100
AcDbVertex
100
AcDb3dPolylineVertex
 10
2146.97
 20
890.8139999999999
 30
0.0
 70
    32
  0
VERTEX
  5
3F71
330
2F42
100
AcDbEntity
  8
0
100
AcDbVertex
100
AcDb3dPolylineVertex
 10
2147.05
 20
891.0439999999999
 30
0.0
 70
    32
  0
VERTEX
  5
3F72
330
2F42
100
AcDbEntity
  8
0
100
AcDbVertex
100
AcDb3dPolylineVertex
 10
2147.13
 20
891.272
 30
0.0
 70
    32
  0
VERTEX
  5
3F73
330
2F42
100
AcDbEntity
  8
0
100
AcDbVertex
100
AcDb3dPolylineVertex
 10
2147.21
 20
891.4989999999999
 30
0.0
 70
    32
  0
VERTEX
  5
3F74
330
2F42
100
AcDbEntity
  8
0
100
AcDbVertex
100
AcDb3dPolylineVertex
 10
2147.3
 20
891.7230000000001
 30
0.0
 70
    32
  0
VERTEX
  5
3F75
330
2F42
100
AcDbEntity
  8
0
100
AcDbVertex
100
AcDb3dPolylineVertex
 10
2147.39
 20
891.9450000000001
 30
0.0
 70
    32
  0
VERTEX
  5
3F76
330
2F42
100
AcDbEntity
  8
0
100
AcDbVertex
100
AcDb3dPolylineVertex
 10
2147.48
 20
892.1649999999999
 30
0.0
 70
    32
  0
VERTEX
  5
3F77
330
2F42
100
AcDbEntity
  8
0
100
AcDbVertex
100
AcDb3dPolylineVertex
 10
2147.57
 20
892.383
 30
0.0
 70
    32
  0
VERTEX
  5
3F78
330
2F42
100
AcDbEntity
  8
0
100
AcDbVertex
100
AcDb3dPolylineVertex
 10
2147.67
 20
892.598
 30
0.0
 70
    32
  0
VERTEX
  5
3F79
330
2F42
100
AcDbEntity
  8
0
100
AcDbVertex
100
AcDb3dPolylineVertex
 10
2147.77
 20
892.811
 30
0.0
 70
    32
  0
VERTEX
  5
3F7A
330
2F42
100
AcDbEntity
  8
0
100
AcDbVertex
100
AcDb3dPolylineVertex
 10
2147.87
 20
893.022
 30
0.0
 70
    32
  0
VERTEX
  5
3F7B
330
2F42
100
AcDbEntity
  8
0
100
AcDbVertex
100
AcDb3dPolylineVertex
 10
2147.98
 20
893.2299999999999
 30
0.0
 70
    32
  0
VERTEX
  5
3F7C
330
2F42
100
AcDbEntity
  8
0
100
AcDbVertex
100
AcDb3dPolylineVertex
 10
2148.09
 20
893.4359999999999
 30
0.0
 70
    32
  0
VERTEX
  5
3F7D
330
2F42
100
AcDbEntity
  8
0
100
AcDbVertex
100
AcDb3dPolylineVertex
 10
2148.19
 20
893.6389999999999
 30
0.0
 70
    32
  0
VERTEX
  5
3F7E
330
2F42
100
AcDbEntity
  8
0
100
AcDbVertex
100
AcDb3dPolylineVertex
 10
2148.31
 20
893.839
 30
0.0
 70
    32
  0
VERTEX
  5
3F7F
330
2F42
100
AcDbEntity
  8
0
100
AcDbVertex
100
AcDb3dPolylineVertex
 10
2148.42
 20
894.0369999999999
 30
0.0
 70
    32
  0
VERTEX
  5
3F80
330
2F42
100
AcDbEntity
  8
0
100
AcDbVertex
100
AcDb3dPolylineVertex
 10
2148.54
 20
894.232
 30
0.0
 70
    32
  0
VERTEX
  5
3F81
330
2F42
100
AcDbEntity
  8
0
100
AcDbVertex
100
AcDb3dPolylineVertex
 10
2148.66
 20
894.424
 30
0.0
 70
    32
  0
VERTEX
  5
3F82
330
2F42
100
AcDbEntity
  8
0
100
AcDbVertex
100
AcDb3dPolylineVertex
 10
2148.78
 20
894.613
 30
0.0
 70
    32
  0
VERTEX
  5
3F83
330
2F42
100
AcDbEntity
  8
0
100
AcDbVertex
100
AcDb3dPolylineVertex
 10
2148.9
 20
894.8
 30
0.0
 70
    32
  0
VERTEX
  5
3F84
330
2F42
100
AcDbEntity
  8
0
100
AcDbVertex
100
AcDb3dPolylineVertex
 10
2149.03
 20
894.983
 30
0.0
 70
    32
  0
VERTEX
  5
3F85
330
2F42
100
AcDbEntity
  8
0
100
AcDbVertex
100
AcDb3dPolylineVertex
 10
2149.16
 20
895.1629999999999
 30
0.0
 70
    32
  0
VERTEX
  5
3F86
330
2F42
100
AcDbEntity
  8
0
100
AcDbVertex
100
AcDb3dPolylineVertex
 10
2149.29
 20
895.3409999999999
 30
0.0
 70
    32
  0
VERTEX
  5
3F87
330
2F42
100
AcDbEntity
  8
0
100
AcDbVertex
100
AcDb3dPolylineVertex
 10
2149.42
 20
895.5149999999999
 30
0.0
 70
    32
  0
VERTEX
  5
3F88
330
2F42
100
AcDbEntity
  8
0
100
AcDbVertex
100
AcDb3dPolylineVertex
 10
2149.55
 20
895.686
 30
0.0
 70
    32
  0
VERTEX
  5
3F89
330
2F42
100
AcDbEntity
  8
0
100
AcDbVertex
100
AcDb3dPolylineVertex
 10
2149.69
 20
895.8530000000001
 30
0.0
 70
    32
  0
VERTEX
  5
3F8A
330
2F42
100
AcDbEntity
  8
0
100
AcDbVertex
100
AcDb3dPolylineVertex
 10
2149.83
 20
896.0169999999999
 30
0.0
 70
    32
  0
VERTEX
  5
3F8B
330
2F42
100
AcDbEntity
  8
0
100
AcDbVertex
100
AcDb3dPolylineVertex
 10
2149.97
 20
896.178
 30
0.0
 70
    32
  0
VERTEX
  5
3F8C
330
2F42
100
AcDbEntity
  8
0
100
AcDbVertex
100
AcDb3dPolylineVertex
 10
2150.11
 20
896.3359999999999
 30
0.0
 70
    32
  0
VERTEX
  5
3F8D
330
2F42
100
AcDbEntity
  8
0
100
AcDbVertex
100
AcDb3dPolylineVertex
 10
2150.25
 20
896.49
 30
0.0
 70
    32
  0
VERTEX
  5
3F8E
330
2F42
100
AcDbEntity
  8
0
100
AcDbVertex
100
AcDb3dPolylineVertex
 10
2150.4
 20
896.6410000000001
 30
0.0
 70
    32
  0
VERTEX
  5
3F8F
330
2F42
100
AcDbEntity
  8
0
100
AcDbVertex
100
AcDb3dPolylineVertex
 10
2150.55
 20
896.788
 30
0.0
 70
    32
  0
VERTEX
  5
3F90
330
2F42
100
AcDbEntity
  8
0
100
AcDbVertex
100
AcDb3dPolylineVertex
 10
2150.7
 20
896.9319999999999
 30
0.0
 70
    32
  0
VERTEX
  5
3F91
330
2F42
100
AcDbEntity
  8
0
100
AcDbVertex
100
AcDb3dPolylineVertex
 10
2150.85
 20
897.072
 30
0.0
 70
    32
  0
VERTEX
  5
3F92
330
2F42
100
AcDbEntity
  8
0
100
AcDbVertex
100
AcDb3dPolylineVertex
 10
2151.0
 20
897.2080000000001
 30
0.0
 70
    32
  0
VERTEX
  5
3F93
330
2F42
100
AcDbEntity
  8
0
100
AcDbVertex
100
AcDb3dPolylineVertex
 10
2151.16
 20
897.3409999999999
 30
0.0
 70
    32
  0
VERTEX
  5
3F94
330
2F42
100
AcDbEntity
  8
0
100
AcDbVertex
100
AcDb3dPolylineVertex
 10
2151.31
 20
897.47
 30
0.0
 70
    32
  0
VERTEX
  5
3F95
330
2F42
100
AcDbEntity
  8
0
100
AcDbVertex
100
AcDb3dPolylineVertex
 10
2151.47
 20
897.595
 30
0.0
 70
    32
  0
VERTEX
  5
3F96
330
2F42
100
AcDbEntity
  8
0
100
AcDbVertex
100
AcDb3dPolylineVertex
 10
2151.63
 20
897.7169999999999
 30
0.0
 70
    32
  0
SEQEND
  5
3F97
330
2F42
100
AcDbEntity
  8
0
  0
ARC
  5
2F44
330
4006
100
AcDbEntity
  8
0
100
AcDbCircle
 10
2196.303323330852
 20
884.3844585387378
 30
0.0
 40
54.01326127304307
100
AcDbArc
 50
117.6231031081233
 51
242.3768968918766
  0
LINE
  5
2F4A
330
4006
100
AcDbEntity
  8
0
100
AcDbLine
 10
2215.895650378099
 20
791.202201684909
 30
0.0
 11
2206.442275378099
 21
800.6555766849086
 31
0.0
  0
LINE
  5
2F4B
330
4006
100
AcDbEntity
  8
0
100
AcDbLine
 10
2206.442275378099
 20
800.6555766849086
 30
0.0
 11
2206.442275378099
 21
772.2954516849084
 31
0.0
  0
LINE
  5
2F4E
330
4006
100
AcDbEntity
  8
0
100
AcDbLine
 10
2206.442275378099
 20
753.592889184908
 30
0.0
 11
2215.895650378099
 21
743.9336391849085
 31
0.0
  0
LINE
  5
2F4F
330
4006
100
AcDbEntity
  8
0
100
AcDbLine
 10
2215.895650378099
 20
743.9336391849085
 30
0.0
 11
2215.895650378099
 21
791.202201684909
 31
0.0
  0
LINE
  5
2F50
330
4006
100
AcDbEntity
  8
0
100
AcDbLine
 10
2211.1689628781
 20
767.5670766849084
 30
0.0
 11
2211.1689628781
 21
753.592889184908
 31
0.0
  0
LINE
  5
2F51
330
4006
100
AcDbEntity
  8
0
100
AcDbLine
 10
2211.1689628781
 20
753.592889184908
 30
0.0
 11
2206.442275378099
 21
753.592889184908
 31
0.0
  0
LINE
  5
2F52
330
4006
100
AcDbEntity
  8
0
100
AcDbLine
 10
2206.442275378099
 20
772.2954516849084
 30
0.0
 11
2211.1689628781
 21
767.5670766849084
 31
0.0
  0
LINE
  5
2F63
330
4006
100
AcDbEntity
  8
0
100
AcDbLine
 10
2180.174584603893
 20
1058.171052473281
 30
0.0
 11
2180.174584603893
 21
1148.772082255349
 31
0.0
  0
LINE
  5
2F64
330
4006
100
AcDbEntity
  8
0
100
AcDbLine
 10
2198.245584603894
 20
1040.265265257073
 30
0.0
 11
2232.245584603893
 21
1040.265265257073
 31
0.0
  0
LINE
  5
2F65
330
4006
100
AcDbEntity
  8
0
100
AcDbLine
 10
2195.024043887968
 20
1043.17180790921
 30
0.0
 11
2252.588381121256
 21
1043.17180790921
 31
0.0
  0
ARC
  5
2F66
330
4006
100
AcDbEntity
  8
0
100
AcDbCircle
 10
2195.174584603893
 20
1058.171052473281
 30
0.0
 40
15.0
100
AcDbArc
 50
180.0
 51
269.4249671687521
  0
ARC
  5
2F67
330
4006
100
AcDbEntity
  8
0
100
AcDbCircle
 10
2203.65707661111
 20
1046.789199687101
 30
0.0
 40
8.476199985339549
100
AcDbArc
 50
205.2454019122484
 51
230.3248741034184
  0
ARC
  5
2F68
330
4006
100
AcDbEntity
  8
0
100
AcDbCircle
 10
2226.834092596678
 20
1046.789199687101
 30
0.0
 40
8.476199985339549
100
AcDbArc
 50
309.6751258965816
 51
334.7372206008397
  0
ARC
  5
2F69
330
4006
100
AcDbEntity
  8
0
100
AcDbCircle
 10
2252.588381121256
 20
1058.171807909209
 30
0.0
 40
15.0
100
AcDbArc
 50
270.0
 51
314.9999999999996
  0
LINE
  5
2F6A
330
4006
100
AcDbEntity
  8
0
100
AcDbLine
 10
2198.245584603894
 20
1166.678350561346
 30
0.0
 11
2232.245584603893
 21
1166.678350561346
 31
0.0
  0
LINE
  5
2F6B
330
4006
100
AcDbEntity
  8
0
100
AcDbLine
 10
2195.083863553922
 20
1163.77180790921
 30
0.0
 11
2252.587381121255
 21
1163.77180790921
 31
0.0
  0
ARC
  5
2F6C
330
4006
100
AcDbEntity
  8
0
100
AcDbCircle
 10
2203.65707661111
 20
1160.154416131318
 30
0.0
 40
8.476199985339549
100
AcDbArc
 50
129.6751258965815
 51
154.7545980877516
  0
ARC
  5
2F6D
330
4006
100
AcDbEntity
  8
0
100
AcDbCircle
 10
2195.174584603893
 20
1148.772082255348
 30
0.0
 40
15.0
100
AcDbArc
 50
90.34653099767071
 51
180.0
  0
ARC
  5
2F6E
330
4006
100
AcDbEntity
  8
0
100
AcDbCircle
 10
2226.834092596678
 20
1160.154416131318
 30
0.0
 40
8.476199985339549
100
AcDbArc
 50
25.26277939916028
 51
50.32487410341842
  0
ARC
  5
2F6F
330
4006
100
AcDbEntity
  8
0
100
AcDbCircle
 10
2252.587381121255
 20
1148.771807909209
 30
0.0
 40
15.0
100
AcDbArc
 50
45.00000000000039
 51
90.00000000000005
  0
ARC
  5
2F7A
330
4006
100
AcDbEntity
  8
0
100
AcDbCircle
 10
2430.628757218898
 20
569.6137844986179
 30
0.0
 40
15.0
100
AcDbArc
 50
270.5750328312478
 51
0.0
  0
ARC
  5
2F7B
330
4006
100
AcDbEntity
  8
0
100
AcDbCircle
 10
2352.602234672811
 20
569.6137844986179
 30
0.0
 40
15.0
100
AcDbArc
 50
180.0
 51
269.4249671687521
  0
LINE
  5
2F7C
330
4006
100
AcDbEntity
  8
0
100
AcDbLine
 10
2430.779297934823
 20
554.6145399345459
 30
0.0
 11
2352.451693956867
 21
554.6145399345459
 31
0.0
  0
LINE
  5
2F7D
330
4006
100
AcDbEntity
  8
0
100
AcDbLine
 10
2408.615495945909
 20
551.707997282409
 30
0.0
 11
2374.615495945909
 21
551.707997282409
 31
0.0
  0
ARC
  5
2F85
330
4006
100
AcDbEntity
  8
0
100
AcDbCircle
 10
2380.026987953125
 20
558.2319317124369
 30
0.0
 40
8.476199985339549
100
AcDbArc
 50
205.2627793991603
 51
230.3248741034184
  0
ARC
  5
2F88
330
4006
100
AcDbEntity
  8
0
100
AcDbCircle
 10
2403.204003938693
 20
558.2319317124369
 30
0.0
 40
8.476199985339549
100
AcDbArc
 50
309.6751258965815
 51
334.7545980877517
  0
LINE
  5
2F8A
330
4006
100
AcDbEntity
  8
0
100
AcDbLine
 10
2430.71947826887
 20
675.2145399345463
 30
0.0
 11
2352.511513622949
 21
675.2145399345457
 31
0.0
  0
LINE
  5
2F8B
330
4006
100
AcDbEntity
  8
0
100
AcDbLine
 10
2408.615495945909
 20
678.1210825866824
 30
0.0
 11
2374.615495945909
 21
678.1210825866824
 31
0.0
  0
LINE
  5
2F8C
330
4006
100
AcDbEntity
  8
0
100
AcDbLine
 10
2337.602234672811
 20
569.6137844986179
 30
0.0
 11
2337.602234672811
 21
660.2148142806854
 31
0.0
  0
ARC
  5
2F8D
330
4006
100
AcDbEntity
  8
0
100
AcDbCircle
 10
2352.602234672811
 20
660.2148142806846
 30
0.0
 40
15.0
100
AcDbArc
 50
90.34653099767071
 51
180.0
  0
ARC
  5
2F8E
330
4006
100
AcDbEntity
  8
0
100
AcDbCircle
 10
2380.026987953125
 20
671.5971481566543
 30
0.0
 40
8.476199985339549
100
AcDbArc
 50
129.6751258965816
 51
154.7372206008397
  0
LINE
  5
2F8F
330
4006
100
AcDbEntity
  8
0
100
AcDbLine
 10
2445.628757218898
 20
569.6137844986179
 30
0.0
 11
2445.628757218898
 21
660.2148142806854
 31
0.0
  0
ARC
  5
2F90
330
4006
100
AcDbEntity
  8
0
100
AcDbCircle
 10
2430.628757218898
 20
660.2148142806846
 30
0.0
 40
15.0
100
AcDbArc
 50
0.0
 51
89.65346900232928
  0
ARC
  5
2F91
330
4006
100
AcDbEntity
  8
0
100
AcDbCircle
 10
2403.204003938693
 20
671.5971481566543
 30
0.0
 40
8.476199985339549
100
AcDbArc
 50
25.24540191224835
 51
50.32487410341842
  0
LINE
  5
2F9A
330
4006
100
AcDbEntity
  8
0
100
AcDbLine
 10
2288.199570071094
 20
1077.55293194567
 30
0.0
 11
2288.213187589787
 21
1129.472375975985
 31
0.0
  0
ARC
  5
2F9B
330
4006
100
AcDbEntity
  8
0
100
AcDbCircle
 10
2275.701107884998
 20
1077.749000767016
 30
0.0
 40
12.5
100
AcDbArc
 50
314.9999999999997
 51
359.9803514047301
  0
ARC
  5
2F9C
330
4006
100
AcDbEntity
  8
0
100
AcDbCircle
 10
2275.716652704919
 20
1129.178070231479
 30
0.0
 40
12.5
100
AcDbArc
 50
1.054777610070867
 51
45.00000000000092
  0
LINE
  5
3200
330
4006
100
AcDbEntity
  8
0
100
AcDbLine
 10
2374.615495945909
 20
687.4145399345459
 30
0.0
 11
2408.615495945909
 21
687.4145399345459
 31
0.0
  0
LINE
  5
320D
330
4006
100
AcDbEntity
  8
0
100
AcDbLine
 10
2374.615495945909
 20
542.4145399345453
 30
0.0
 11
2408.615495945909
 21
542.4145399345453
 31
0.0
  0
LINE
  5
3238
330
4006
100
AcDbEntity
  8
0
100
AcDbLine
 10
2198.245584603894
 20
687.4145399345459
 30
0.0
 11
2232.245584603893
 21
687.4145399345459
 31
0.0
  0
LINE
  5
3245
330
4006
100
AcDbEntity
  8
0
100
AcDbLine
 10
2198.245584603894
 20
542.4145399345453
 30
0.0
 11
2232.245584603893
 21
542.4145399345453
 31
0.0
  0
LINE
  5
3253
330
4006
100
AcDbEntity
  8
0
100
AcDbLine
 10
2021.875673261879
 20
687.4145399345459
 30
0.0
 11
2055.875673261879
 21
687.4145399345459
 31
0.0
  0
LINE
  5
3260
330
4006
100
AcDbEntity
  8
0
100
AcDbLine
 10
2021.875673261879
 20
542.4145399345453
 30
0.0
 11
2055.875673261879
 21
542.4145399345453
 31
0.0
  0
LINE
  5
3299
330
4006
100
AcDbEntity
  8
0
100
AcDbLine
 10
2280.245584603894
 20
1227.47180790921
 30
0.0
 11
2215.245584603893
 21
1227.47180790921
 31
0.0
  0
LINE
  5
32C0
330
4006
100
AcDbEntity
  8
0
100
AcDbLine
 10
2152.745584603893
 20
1227.47180790921
 30
0.0
 11
2215.245584603893
 21
1227.47180790921
 31
0.0
  0
LINE
  5
32C1
330
4006
100
AcDbEntity
  8
0
100
AcDbLine
 10
2150.245584603894
 20
1227.47180790921
 30
0.0
 11
2215.245584603893
 21
1227.47180790921
 31
0.0
  0
LINE
  5
32C3
330
4006
100
AcDbEntity
  8
0
100
AcDbLine
 10
2198.245584603894
 20
1166.678350561346
 30
0.0
 11
2198.245584603894
 21
1202.47180790921
 31
0.0
  0
LINE
  5
32C4
330
4006
100
AcDbEntity
  8
0
100
AcDbLine
 10
2198.245584603894
 20
1175.97180790921
 30
0.0
 11
2232.245584603893
 21
1175.97180790921
 31
0.0
  0
LINE
  5
32C8
330
4006
100
AcDbEntity
  8
0
100
AcDbLine
 10
2232.245584603893
 20
1166.678350561346
 30
0.0
 11
2232.245584603893
 21
1202.47180790921
 31
0.0
  0
LINE
  5
32D8
330
4006
100
AcDbEntity
  8
0
100
AcDbLine
 10
2198.245584603894
 20
1030.971807909209
 30
0.0
 11
2232.245584603893
 21
1030.971807909209
 31
0.0
  0
LINE
  5
338E
330
4006
100
AcDbEntity
  8
0
100
AcDbLine
 10
1349.097994569107
 20
676.6617370889247
 30
0.0
 11
1349.097994569107
 21
686.9206511315501
 31
0.0
  0
LINE
  5
338F
330
4006
100
AcDbEntity
  8
0
100
AcDbLine
 10
1319.097994569107
 20
676.6617370889247
 30
0.0
 11
1319.097994569107
 21
686.9206511315501
 31
0.0
  0
LINE
  5
3390
330
4006
100
AcDbEntity
  8
0
100
AcDbLine
 10
1319.097994569107
 20
686.9206511315501
 30
0.0
 11
1320.497994569107
 21
688.3206511315503
 31
0.0
  0
LINE
  5
3392
330
4006
100
AcDbEntity
  8
0
100
AcDbLine
 10
1319.097994569107
 20
686.9206511315501
 30
0.0
 11
1349.097994569107
 21
686.9206511315478
 31
0.0
  0
LINE
  5
3396
330
4006
100
AcDbEntity
  8
0
100
AcDbLine
 10
1320.497994569107
 20
688.3206511315503
 30
0.0
 11
1347.697994569107
 21
688.3206511315503
 31
0.0
  0
LINE
  5
3398
330
4006
100
AcDbEntity
  8
0
100
AcDbLine
 10
1349.097994569107
 20
686.9206511315501
 30
0.0
 11
1347.697994569107
 21
688.3206511315503
 31
0.0
  0
LINE
  5
33A4
330
4006
100
AcDbEntity
  8
0
100
AcDbLine
 10
1319.097994569107
 20
542.9696428327304
 30
0.0
 11
1349.097994569107
 21
542.9696428327328
 31
0.0
  0
LINE
  5
33A5
330
4006
100
AcDbEntity
  8
0
100
AcDbLine
 10
1319.097994569107
 20
542.9696428327304
 30
0.0
 11
1320.497994569107
 21
541.5696428327303
 31
0.0
  0
LINE
  5
33A7
330
4006
100
AcDbEntity
  8
0
100
AcDbLine
 10
1319.097994569107
 20
553.1779522808283
 30
0.0
 11
1319.097994569107
 21
542.9696428327304
 31
0.0
  0
LINE
  5
33A8
330
4006
100
AcDbEntity
  8
0
100
AcDbLine
 10
1320.497994569107
 20
541.5696428327303
 30
0.0
 11
1347.697994569107
 21
541.5696428327303
 31
0.0
  0
LINE
  5
33AC
330
4006
100
AcDbEntity
  8
0
100
AcDbLine
 10
1349.097994569107
 20
542.9696428327304
 30
0.0
 11
1347.697994569107
 21
541.5696428327303
 31
0.0
  0
LINE
  5
33AD
330
4006
100
AcDbEntity
  8
0
100
AcDbLine
 10
1349.097994569107
 20
553.1551331006713
 30
0.0
 11
1349.097994569107
 21
542.9696428327304
 31
0.0
  0
LINE
  5
3456
330
4006
100
AcDbEntity
  8
0
100
AcDbLine
 10
635.4254474424577
 20
684.9206511315495
 30
0.0
 11
635.4254474424577
 21
676.1883556593875
 31
0.0
  0
LINE
  5
345D
330
4006
100
AcDbEntity
  8
0
100
AcDbLine
 10
665.4254474424577
 20
684.9206511315495
 30
0.0
 11
665.4254474424576
 21
676.1883556593865
 31
0.0
  0
LINE
  5
3470
330
4006
100
AcDbEntity
  8
0
100
AcDbLine
 10
635.4254474424577
 20
544.9206511315495
 30
0.0
 11
635.4254474424577
 21
553.6529466037118
 31
0.0
  0
LINE
  5
3475
330
4006
100
AcDbEntity
  8
0
100
AcDbLine
 10
665.4254474424577
 20
544.9206511315495
 30
0.0
 11
665.4254474424576
 21
553.6529466037127
 31
0.0
  0
LINE
  5
3485
330
4006
100
AcDbEntity
  8
0
100
AcDbLine
 10
485.920393565946
 20
684.9206511315495
 30
0.0
 11
485.920393565946
 21
676.1883556593875
 31
0.0
  0
LINE
  5
348A
330
4006
100
AcDbEntity
  8
0
100
AcDbLine
 10
515.920393565946
 20
684.9206511315495
 30
0.0
 11
515.9203935659459
 21
676.1883556593865
 31
0.0
  0
LINE
  5
3498
330
4006
100
AcDbEntity
  8
0
100
AcDbLine
 10
485.920393565946
 20
544.9206511315495
 30
0.0
 11
485.920393565946
 21
553.6529466037118
 31
0.0
  0
LINE
  5
349E
330
4006
100
AcDbEntity
  8
0
100
AcDbLine
 10
515.920393565946
 20
544.9206511315495
 30
0.0
 11
515.9203935659459
 21
553.6529466037127
 31
0.0
  0
LINE
  5
34A9
330
4006
100
AcDbEntity
  8
0
100
AcDbLine
 10
336.4153396894344
 20
684.9206511315495
 30
0.0
 11
336.4153396894344
 21
676.1883556593875
 31
0.0
  0
LINE
  5
34AE
330
4006
100
AcDbEntity
  8
0
100
AcDbLine
 10
366.4153396894343
 20
684.9206511315495
 30
0.0
 11
366.4153396894343
 21
676.1883556593865
 31
0.0
  0
LINE
  5
34BC
330
4006
100
AcDbEntity
  8
0
100
AcDbLine
 10
336.4153396894344
 20
544.9206511315495
 30
0.0
 11
336.4153396894344
 21
553.6529466037118
 31
0.0
  0
LINE
  5
34C2
330
4006
100
AcDbEntity
  8
0
100
AcDbLine
 10
366.4153396894343
 20
544.9206511315495
 30
0.0
 11
366.4153396894343
 21
553.6529466037127
 31
0.0
  0
LINE
  5
34F5
330
4006
100
AcDbEntity
  8
0
100
AcDbLine
 10
558.420393565946
 20
1207.47180790921
 30
0.0
 11
500.920393565946
 21
1207.47180790921
 31
0.0
  0
LINE
  5
34F7
330
4006
100
AcDbEntity
  8
0
100
AcDbLine
 10
485.920393565946
 20
1173.47180790921
 30
0.0
 11
515.920393565946
 21
1173.47180790921
 31
0.0
  0
LINE
  5
34F8
330
4006
100
AcDbEntity
  8
0
100
AcDbLine
 10
490.0703935659461
 20
1177.62180790921
 30
0.0
 11
511.7703935659458
 21
1177.62180790921
 31
0.0
  0
LINE
  5
34FA
330
4006
100
AcDbEntity
  8
0
100
AcDbLine
 10
490.0703935659461
 20
1184.47180790921
 30
0.0
 11
490.0703935659461
 21
1177.62180790921
 31
0.0
  0
LINE
  5
34FB
330
4006
100
AcDbEntity
  8
0
100
AcDbLine
 10
485.920393565946
 20
1173.47180790921
 30
0.0
 11
490.0703935659461
 21
1177.62180790921
 31
0.0
  0
LINE
  5
34FC
330
4006
100
AcDbEntity
  8
0
100
AcDbLine
 10
485.920393565946
 20
1173.47180790921
 30
0.0
 11
485.920393565946
 21
1164.739512437048
 31
0.0
  0
LINE
  5
34FD
330
4006
100
AcDbEntity
  8
0
100
AcDbLine
 10
443.420393565946
 20
1207.47180790921
 30
0.0
 11
500.920393565946
 21
1207.47180790921
 31
0.0
  0
LINE
  5
3501
330
4006
100
AcDbEntity
  8
0
100
AcDbLine
 10
511.7703935659458
 20
1184.47180790921
 30
0.0
 11
511.7703935659458
 21
1177.62180790921
 31
0.0
  0
LINE
  5
3502
330
4006
100
AcDbEntity
  8
0
100
AcDbLine
 10
515.920393565946
 20
1173.47180790921
 30
0.0
 11
511.7703935659458
 21
1177.62180790921
 31
0.0
  0
LINE
  5
3503
330
4006
100
AcDbEntity
  8
0
100
AcDbLine
 10
515.920393565946
 20
1173.47180790921
 30
0.0
 11
515.9203935659459
 21
1164.739512437047
 31
0.0
  0
LINE
  5
3584
330
4006
100
AcDbEntity
  8
0
100
AcDbLine
 10
443.420393565946
 20
1187.47180790921
 30
0.0
 11
443.420393565946
 21
1207.47180790921
 31
0.0
  0
LINE
  5
3585
330
4006
100
AcDbEntity
  8
0
100
AcDbLine
 10
443.420393565946
 20
1187.47180790921
 30
0.0
 11
558.420393565946
 21
1187.47180790921
 31
0.0
  0
LINE
  5
3639
330
4006
100
AcDbEntity
  8
0
100
AcDbLine
 10
490.0703935659461
 20
1184.47180790921
 30
0.0
 11
487.070393565946
 21
1187.47180790921
 31
0.0
  0
LINE
  5
3650
330
4006
100
AcDbEntity
  8
0
100
AcDbLine
 10
558.420393565946
 20
1187.47180790921
 30
0.0
 11
558.420393565946
 21
1207.47180790921
 31
0.0
  0
LINE
  5
3651
330
4006
100
AcDbEntity
  8
0
100
AcDbLine
 10
511.7703935659459
 20
1184.47180790921
 30
0.0
 11
514.770393565946
 21
1187.47180790921
 31
0.0
  0
LINE
  5
3653
330
4006
100
AcDbEntity
  8
0
100
AcDbLine
 10
490.0703935659461
 20
1184.47180790921
 30
0.0
 11
511.7703935659458
 21
1184.47180790921
 31
0.0
  0
LINE
  5
3678
330
4006
100
AcDbEntity
  8
0
100
AcDbLine
 10
558.420393565946
 20
999.4718079092097
 30
0.0
 11
500.920393565946
 21
999.4718079092097
 31
0.0
  0
LINE
  5
3679
330
4006
100
AcDbEntity
  8
0
100
AcDbLine
 10
443.420393565946
 20
1019.47180790921
 30
0.0
 11
558.420393565946
 21
1019.47180790921
 31
0.0
  0
LINE
  5
367A
330
4006
100
AcDbEntity
  8
0
100
AcDbLine
 10
443.420393565946
 20
1019.47180790921
 30
0.0
 11
443.420393565946
 21
999.4718079092098
 31
0.0
  0
LINE
  5
367D
330
4006
100
AcDbEntity
  8
0
100
AcDbLine
 10
443.420393565946
 20
999.4718079092098
 30
0.0
 11
500.920393565946
 21
999.4718079092097
 31
0.0
  0
LINE
  5
367E
330
4006
100
AcDbEntity
  8
0
100
AcDbLine
 10
558.420393565946
 20
1019.47180790921
 30
0.0
 11
558.420393565946
 21
999.4718079092097
 31
0.0
  0
CIRCLE
  5
3683
330
4006
100
AcDbEntity
  8
0
100
AcDbCircle
 10
500.920393565946
 20
887.8455546648055
 30
0.0
 40
57.5
  0
CIRCLE
  5
3686
330
4006
100
AcDbEntity
  8
0
100
AcDbCircle
 10
529.2046648134079
 20
916.1298259122675
 30
0.0
 40
9.5
  0
CIRCLE
  5
3687
330
4006
100
AcDbEntity
  8
0
100
AcDbCircle
 10
472.636122318484
 20
916.1298259122672
 30
0.0
 40
9.5
  0
CIRCLE
  5
3688
330
4006
100
AcDbEntity
  8
0
100
AcDbCircle
 10
472.6361223184841
 20
859.5612834173437
 30
0.0
 40
9.5
  0
CIRCLE
  5
3689
330
4006
100
AcDbEntity
  8
0
100
AcDbCircle
 10
529.2046648134079
 20
859.5612834173437
 30
0.0
 40
9.5
  0
LINE
  5
36B3
330
4006
100
AcDbEntity
  8
0
100
AcDbLine
 10
408.8249445665251
 20
718.9206511315497
 30
0.0
 11
351.3249445665251
 21
718.9206511315497
 31
0.0
  0
LINE
  5
36B4
330
4006
100
AcDbEntity
  8
0
100
AcDbLine
 10
293.8249445665251
 20
698.9206511315496
 30
0.0
 11
408.8249445665251
 21
698.9206511315496
 31
0.0
  0
LINE
  5
36B7
330
4006
100
AcDbEntity
  8
0
100
AcDbLine
 10
293.8249445665251
 20
698.9206511315496
 30
0.0
 11
293.8249445665251
 21
718.9206511315497
 31
0.0
  0
LINE
  5
36BC
330
4006
100
AcDbEntity
  8
0
100
AcDbLine
 10
293.8249445665251
 20
718.9206511315497
 30
0.0
 11
351.324944566525
 21
718.9206511315497
 31
0.0
  0
LINE
  5
36BD
330
4006
100
AcDbEntity
  8
0
100
AcDbLine
 10
408.8249445665251
 20
698.9206511315496
 30
0.0
 11
408.8249445665251
 21
718.9206511315497
 31
0.0
  0
LINE
  5
36F0
330
4006
100
AcDbEntity
  8
0
100
AcDbLine
 10
293.8249445665251
 20
530.9206511315495
 30
0.0
 11
408.8249445665251
 21
530.9206511315495
 31
0.0
  0
LINE
  5
36F1
330
4006
100
AcDbEntity
  8
0
100
AcDbLine
 10
408.8249445665251
 20
510.9206511315496
 30
0.0
 11
351.3249445665251
 21
510.9206511315496
 31
0.0
  0
LINE
  5
36F2
330
4006
100
AcDbEntity
  8
0
100
AcDbLine
 10
293.8249445665251
 20
510.9206511315496
 30
0.0
 11
351.324944566525
 21
510.9206511315496
 31
0.0
  0
LINE
  5
36F6
330
4006
100
AcDbEntity
  8
0
100
AcDbLine
 10
293.8249445665251
 20
530.9206511315495
 30
0.0
 11
293.8249445665251
 21
510.9206511315496
 31
0.0
  0
LINE
  5
36FF
330
4006
100
AcDbEntity
  8
0
100
AcDbLine
 10
408.8249445665251
 20
530.9206511315495
 30
0.0
 11
408.8249445665251
 21
510.9206511315496
 31
0.0
  0
LINE
  5
3702
330
4006
100
AcDbEntity
  8
0
100
AcDbLine
 10
443.420393565946
 20
698.9206511315496
 30
0.0
 11
558.420393565946
 21
698.9206511315496
 31
0.0
  0
LINE
  5
3703
330
4006
100
AcDbEntity
  8
0
100
AcDbLine
 10
558.420393565946
 20
718.9206511315497
 30
0.0
 11
500.9203935659462
 21
718.9206511315497
 31
0.0
  0
LINE
  5
3704
330
4006
100
AcDbEntity
  8
0
100
AcDbLine
 10
443.420393565946
 20
718.9206511315497
 30
0.0
 11
500.920393565946
 21
718.9206511315497
 31
0.0
  0
LINE
  5
3708
330
4006
100
AcDbEntity
  8
0
100
AcDbLine
 10
443.420393565946
 20
698.9206511315496
 30
0.0
 11
443.420393565946
 21
718.9206511315497
 31
0.0
  0
LINE
  5
3711
330
4006
100
AcDbEntity
  8
0
100
AcDbLine
 10
558.420393565946
 20
698.9206511315496
 30
0.0
 11
558.420393565946
 21
718.9206511315497
 31
0.0
  0
LINE
  5
3712
330
4006
100
AcDbEntity
  8
0
100
AcDbLine
 10
558.420393565946
 20
530.9206511315495
 30
0.0
 11
558.420393565946
 21
510.9206511315494
 31
0.0
  0
LINE
  5
3713
330
4006
100
AcDbEntity
  8
0
100
AcDbLine
 10
443.420393565946
 20
530.9206511315495
 30
0.0
 11
443.420393565946
 21
510.9206511315496
 31
0.0
  0
LINE
  5
3714
330
4006
100
AcDbEntity
  8
0
100
AcDbLine
 10
558.420393565946
 20
510.9206511315494
 30
0.0
 11
500.9203935659462
 21
510.9206511315494
 31
0.0
  0
LINE
  5
3715
330
4006
100
AcDbEntity
  8
0
100
AcDbLine
 10
443.420393565946
 20
510.9206511315496
 30
0.0
 11
500.920393565946
 21
510.9206511315494
 31
0.0
  0
LINE
  5
3716
330
4006
100
AcDbEntity
  8
0
100
AcDbLine
 10
443.420393565946
 20
530.9206511315495
 30
0.0
 11
558.420393565946
 21
530.9206511315495
 31
0.0
  0
LINE
  5
3722
330
4006
100
AcDbEntity
  8
0
100
AcDbLine
 10
592.9254474424578
 20
698.9206511315496
 30
0.0
 11
707.9254474424579
 21
698.9206511315496
 31
0.0
  0
LINE
  5
3723
330
4006
100
AcDbEntity
  8
0
100
AcDbLine
 10
707.9254474424579
 20
718.9206511315497
 30
0.0
 11
650.4254474424579
 21
718.9206511315497
 31
0.0
  0
LINE
  5
3724
330
4006
100
AcDbEntity
  8
0
100
AcDbLine
 10
592.9254474424578
 20
718.9206511315497
 30
0.0
 11
650.4254474424579
 21
718.9206511315497
 31
0.0
  0
LINE
  5
3728
330
4006
100
AcDbEntity
  8
0
100
AcDbLine
 10
592.9254474424578
 20
698.9206511315496
 30
0.0
 11
592.9254474424578
 21
718.9206511315497
 31
0.0
  0
LINE
  5
3731
330
4006
100
AcDbEntity
  8
0
100
AcDbLine
 10
707.9254474424579
 20
698.9206511315496
 30
0.0
 11
707.9254474424579
 21
718.9206511315497
 31
0.0
  0
LINE
  5
3732
330
4006
100
AcDbEntity
  8
0
100
AcDbLine
 10
707.9254474424579
 20
530.9206511315495
 30
0.0
 11
707.9254474424579
 21
510.9206511315494
 31
0.0
  0
LINE
  5
3733
330
4006
100
AcDbEntity
  8
0
100
AcDbLine
 10
592.9254474424578
 20
530.9206511315495
 30
0.0
 11
592.9254474424578
 21
510.9206511315496
 31
0.0
  0
LINE
  5
3734
330
4006
100
AcDbEntity
  8
0
100
AcDbLine
 10
707.9254474424579
 20
510.9206511315494
 30
0.0
 11
650.4254474424579
 21
510.9206511315494
 31
0.0
  0
LINE
  5
3735
330
4006
100
AcDbEntity
  8
0
100
AcDbLine
 10
592.9254474424578
 20
510.9206511315496
 30
0.0
 11
650.4254474424579
 21
510.9206511315494
 31
0.0
  0
LINE
  5
3736
330
4006
100
AcDbEntity
  8
0
100
AcDbLine
 10
592.9254474424578
 20
530.9206511315495
 30
0.0
 11
707.9254474424579
 21
530.9206511315495
 31
0.0
  0
LINE
  5
3769
330
4006
100
AcDbEntity
  8
0
100
AcDbLine
 10
490.0703935659461
 20
1022.47180790921
 30
0.0
 11
511.7703935659458
 21
1022.47180790921
 31
0.0
  0
LINE
  5
376A
330
4006
100
AcDbEntity
  8
0
100
AcDbLine
 10
485.920393565946
 20
1033.47180790921
 30
0.0
 11
515.920393565946
 21
1033.47180790921
 31
0.0
  0
LINE
  5
376B
330
4006
100
AcDbEntity
  8
0
100
AcDbLine
 10
490.0703935659461
 20
1029.32180790921
 30
0.0
 11
511.7703935659458
 21
1029.32180790921
 31
0.0
  0
LINE
  5
376C
330
4006
100
AcDbEntity
  8
0
100
AcDbLine
 10
485.920393565946
 20
1042.204103381373
 30
0.0
 11
515.9203935659471
 21
1042.204103381372
 31
0.0
  0
LINE
  5
376D
330
4006
100
AcDbEntity
  8
0
100
AcDbLine
 10
490.0703935659461
 20
1022.47180790921
 30
0.0
 11
487.0703935659461
 21
1019.47180790921
 31
0.0
  0
LINE
  5
376E
330
4006
100
AcDbEntity
  8
0
100
AcDbLine
 10
490.0703935659461
 20
1022.47180790921
 30
0.0
 11
490.0703935659461
 21
1029.32180790921
 31
0.0
  0
LINE
  5
3770
330
4006
100
AcDbEntity
  8
0
100
AcDbLine
 10
485.920393565946
 20
1033.47180790921
 30
0.0
 11
490.0703935659461
 21
1029.32180790921
 31
0.0
  0
LINE
  5
3771
330
4006
100
AcDbEntity
  8
0
100
AcDbLine
 10
485.920393565946
 20
1033.47180790921
 30
0.0
 11
485.920393565946
 21
1042.204103381372
 31
0.0
  0
POLYLINE
  5
3772
330
4006
100
AcDbEntity
  8
0
100
AcDb2dPolyline
 66
     1
 10
0.0
 20
0.0
 30
0.0
  0
VERTEX
  5
3D45
330
3772
100
AcDbEntity
  8
0
100
AcDbVertex
100
AcDb2dVertex
 10
485.0942354497873
 20
1043.17180790921
 30
0.0
  0
VERTEX
  5
3D46
330
3772
100
AcDbEntity
  8
0
100
AcDbVertex
100
AcDb2dVertex
 10
485.920393565946
 20
1042.204103381373
 30
0.0
  0
SEQEND
  5
3D47
330
3772
100
AcDbEntity
  8
0
  0
LINE
  5
3773
330
4006
100
AcDbEntity
  8
0
100
AcDbLine
 10
511.7703935659458
 20
1022.47180790921
 30
0.0
 11
514.770393565946
 21
1019.47180790921
 31
0.0
  0
LINE
  5
3774
330
4006
100
AcDbEntity
  8
0
100
AcDbLine
 10
511.7703935659458
 20
1022.47180790921
 30
0.0
 11
511.7703935659458
 21
1029.32180790921
 31
0.0
  0
LINE
  5
3776
330
4006
100
AcDbEntity
  8
0
100
AcDbLine
 10
515.920393565946
 20
1033.47180790921
 30
0.0
 11
511.7703935659458
 21
1029.32180790921
 31
0.0
  0
LINE
  5
3777
330
4006
100
AcDbEntity
  8
0
100
AcDbLine
 10
515.920393565946
 20
1033.47180790921
 30
0.0
 11
515.9203935659459
 21
1042.204103381373
 31
0.0
  0
POLYLINE
  5
3778
330
4006
100
AcDbEntity
  8
0
100
AcDb2dPolyline
 66
     1
 10
0.0
 20
0.0
 30
0.0
  0
VERTEX
  5
3D48
330
3778
100
AcDbEntity
  8
0
100
AcDbVertex
100
AcDb2dVertex
 10
516.7465516821066
 20
1043.17180790921
 30
0.0
  0
VERTEX
  5
3D49
330
3778
100
AcDbEntity
  8
0
100
AcDbVertex
100
AcDb2dVertex
 10
515.9203935659471
 20
1042.204103381373
 30
0.0
  0
SEQEND
  5
3D4A
330
3778
100
AcDbEntity
  8
0
  0
LINE
  5
37D0
330
4006
100
AcDbEntity
  8
0
100
AcDbLine
 10
340.4749445665252
 20
689.0706511315499
 30
0.0
 11
362.174944566525
 21
689.0706511315499
 31
0.0
  0
LINE
  5
37D1
330
4006
100
AcDbEntity
  8
0
100
AcDbLine
 10
336.3249445665251
 20
684.9206511315498
 30
0.0
 11
366.3249445665252
 21
684.9206511315498
 31
0.0
  0
LINE
  5
37D2
330
4006
100
AcDbEntity
  8
0
100
AcDbLine
 10
340.4749445665252
 20
695.9206511315496
 30
0.0
 11
362.174944566525
 21
695.9206511315496
 31
0.0
  0
LINE
  5
37D3
330
4006
100
AcDbEntity
  8
0
100
AcDbLine
 10
336.3249445665251
 20
684.9206511315498
 30
0.0
 11
340.4749445665252
 21
689.0706511315499
 31
0.0
  0
LINE
  5
37D5
330
4006
100
AcDbEntity
  8
0
100
AcDbLine
 10
340.4749445665252
 20
695.9206511315496
 30
0.0
 11
340.4749445665252
 21
689.0706511315499
 31
0.0
  0
LINE
  5
37D6
330
4006
100
AcDbEntity
  8
0
100
AcDbLine
 10
340.4749445665252
 20
695.9206511315496
 30
0.0
 11
337.4749445665253
 21
698.9206511315496
 31
0.0
  0
LINE
  5
37D7
330
4006
100
AcDbEntity
  8
0
100
AcDbLine
 10
366.3249445665252
 20
684.9206511315498
 30
0.0
 11
362.174944566525
 21
689.0706511315496
 31
0.0
  0
LINE
  5
37D9
330
4006
100
AcDbEntity
  8
0
100
AcDbLine
 10
362.174944566525
 20
695.9206511315496
 30
0.0
 11
362.174944566525
 21
689.0706511315499
 31
0.0
  0
LINE
  5
37DA
330
4006
100
AcDbEntity
  8
0
100
AcDbLine
 10
362.174944566525
 20
695.9206511315496
 30
0.0
 11
365.174944566525
 21
698.9206511315496
 31
0.0
  0
LINE
  5
37DB
330
4006
100
AcDbEntity
  8
0
100
AcDbLine
 10
340.4749445665252
 20
533.9206511315498
 30
0.0
 11
362.174944566525
 21
533.9206511315499
 31
0.0
  0
LINE
  5
37DC
330
4006
100
AcDbEntity
  8
0
100
AcDbLine
 10
336.3249445665251
 20
544.9206511315496
 30
0.0
 11
366.3249445665252
 21
544.9206511315496
 31
0.0
  0
LINE
  5
37DD
330
4006
100
AcDbEntity
  8
0
100
AcDbLine
 10
340.4749445665252
 20
540.7706511315495
 30
0.0
 11
362.174944566525
 21
540.7706511315495
 31
0.0
  0
LINE
  5
37DF
330
4006
100
AcDbEntity
  8
0
100
AcDbLine
 10
340.4749445665252
 20
533.9206511315498
 30
0.0
 11
340.4749445665252
 21
540.7706511315495
 31
0.0
  0
LINE
  5
37E0
330
4006
100
AcDbEntity
  8
0
100
AcDbLine
 10
340.4749445665252
 20
533.9206511315498
 30
0.0
 11
337.4749445665249
 21
530.9206511315495
 31
0.0
  0
LINE
  5
37E1
330
4006
100
AcDbEntity
  8
0
100
AcDbLine
 10
336.3249445665251
 20
544.9206511315496
 30
0.0
 11
340.4749445665252
 21
540.7706511315495
 31
0.0
  0
LINE
  5
37E3
330
4006
100
AcDbEntity
  8
0
100
AcDbLine
 10
362.174944566525
 20
533.9206511315499
 30
0.0
 11
362.174944566525
 21
540.7706511315495
 31
0.0
  0
LINE
  5
37E4
330
4006
100
AcDbEntity
  8
0
100
AcDbLine
 10
362.174944566525
 20
533.9206511315498
 30
0.0
 11
365.1749445665254
 21
530.9206511315495
 31
0.0
  0
LINE
  5
37E5
330
4006
100
AcDbEntity
  8
0
100
AcDbLine
 10
366.3249445665252
 20
544.9206511315496
 30
0.0
 11
362.174944566525
 21
540.7706511315499
 31
0.0
  0
LINE
  5
3800
330
4006
100
AcDbEntity
  8
0
100
AcDbLine
 10
490.0703935659461
 20
689.0706511315496
 30
0.0
 11
511.770393565946
 21
689.0706511315496
 31
0.0
  0
LINE
  5
3801
330
4006
100
AcDbEntity
  8
0
100
AcDbLine
 10
485.920393565946
 20
684.9206511315495
 30
0.0
 11
515.9203935659463
 21
684.9206511315495
 31
0.0
  0
LINE
  5
3802
330
4006
100
AcDbEntity
  8
0
100
AcDbLine
 10
490.0703935659461
 20
695.9206511315496
 30
0.0
 11
511.7703935659459
 21
695.9206511315495
 31
0.0
  0
LINE
  5
3803
330
4006
100
AcDbEntity
  8
0
100
AcDbLine
 10
485.920393565946
 20
684.9206511315495
 30
0.0
 11
490.0703935659461
 21
689.0706511315496
 31
0.0
  0
LINE
  5
3805
330
4006
100
AcDbEntity
  8
0
100
AcDbLine
 10
490.0703935659461
 20
695.9206511315496
 30
0.0
 11
490.0703935659461
 21
689.0706511315496
 31
0.0
  0
LINE
  5
3806
330
4006
100
AcDbEntity
  8
0
100
AcDbLine
 10
490.0703935659461
 20
695.9206511315496
 30
0.0
 11
487.0703935659463
 21
698.9206511315496
 31
0.0
  0
LINE
  5
3807
330
4006
100
AcDbEntity
  8
0
100
AcDbLine
 10
515.9203935659463
 20
684.9206511315495
 30
0.0
 11
511.770393565946
 21
689.0706511315496
 31
0.0
  0
LINE
  5
3809
330
4006
100
AcDbEntity
  8
0
100
AcDbLine
 10
511.7703935659459
 20
695.9206511315495
 30
0.0
 11
511.770393565946
 21
689.0706511315496
 31
0.0
  0
LINE
  5
380A
330
4006
100
AcDbEntity
  8
0
100
AcDbLine
 10
511.7703935659459
 20
695.9206511315495
 30
0.0
 11
514.770393565946
 21
698.9206511315496
 31
0.0
  0
LINE
  5
380B
330
4006
100
AcDbEntity
  8
0
100
AcDbLine
 10
490.0703935659461
 20
533.9206511315495
 30
0.0
 11
511.7703935659459
 21
533.9206511315498
 31
0.0
  0
LINE
  5
380C
330
4006
100
AcDbEntity
  8
0
100
AcDbLine
 10
485.920393565946
 20
544.9206511315495
 30
0.0
 11
515.9203935659463
 21
544.9206511315495
 31
0.0
  0
LINE
  5
380D
330
4006
100
AcDbEntity
  8
0
100
AcDbLine
 10
490.0703935659461
 20
540.7706511315495
 30
0.0
 11
511.770393565946
 21
540.7706511315495
 31
0.0
  0
LINE
  5
380F
330
4006
100
AcDbEntity
  8
0
100
AcDbLine
 10
490.0703935659461
 20
533.9206511315495
 30
0.0
 11
490.0703935659461
 21
540.7706511315495
 31
0.0
  0
LINE
  5
3810
330
4006
100
AcDbEntity
  8
0
100
AcDbLine
 10
490.0703935659461
 20
533.9206511315495
 30
0.0
 11
487.0703935659459
 21
530.9206511315495
 31
0.0
  0
LINE
  5
3811
330
4006
100
AcDbEntity
  8
0
100
AcDbLine
 10
485.920393565946
 20
544.9206511315495
 30
0.0
 11
490.0703935659461
 21
540.7706511315495
 31
0.0
  0
LINE
  5
3813
330
4006
100
AcDbEntity
  8
0
100
AcDbLine
 10
511.7703935659459
 20
533.9206511315498
 30
0.0
 11
511.770393565946
 21
540.7706511315495
 31
0.0
  0
LINE
  5
3814
330
4006
100
AcDbEntity
  8
0
100
AcDbLine
 10
511.770393565946
 20
533.9206511315495
 30
0.0
 11
514.7703935659463
 21
530.9206511315495
 31
0.0
  0
LINE
  5
3815
330
4006
100
AcDbEntity
  8
0
100
AcDbLine
 10
515.9203935659463
 20
544.9206511315495
 30
0.0
 11
511.770393565946
 21
540.7706511315498
 31
0.0
  0
LINE
  5
3830
330
4006
100
AcDbEntity
  8
0
100
AcDbLine
 10
639.5754474424578
 20
689.0706511315496
 30
0.0
 11
661.2754474424576
 21
689.0706511315496
 31
0.0
  0
LINE
  5
3831
330
4006
100
AcDbEntity
  8
0
100
AcDbLine
 10
635.4254474424577
 20
684.9206511315495
 30
0.0
 11
665.4254474424577
 21
684.9206511315495
 31
0.0
  0
LINE
  5
3832
330
4006
100
AcDbEntity
  8
0
100
AcDbLine
 10
639.5754474424578
 20
695.9206511315496
 30
0.0
 11
661.2754474424576
 21
695.9206511315495
 31
0.0
  0
LINE
  5
3833
330
4006
100
AcDbEntity
  8
0
100
AcDbLine
 10
635.4254474424577
 20
684.9206511315495
 30
0.0
 11
639.5754474424578
 21
689.0706511315496
 31
0.0
  0
LINE
  5
3835
330
4006
100
AcDbEntity
  8
0
100
AcDbLine
 10
639.5754474424578
 20
695.9206511315496
 30
0.0
 11
639.5754474424578
 21
689.0706511315496
 31
0.0
  0
LINE
  5
3836
330
4006
100
AcDbEntity
  8
0
100
AcDbLine
 10
639.5754474424578
 20
695.9206511315496
 30
0.0
 11
636.5754474424581
 21
698.9206511315496
 31
0.0
  0
LINE
  5
3837
330
4006
100
AcDbEntity
  8
0
100
AcDbLine
 10
665.4254474424577
 20
684.9206511315495
 30
0.0
 11
661.2754474424576
 21
689.0706511315496
 31
0.0
  0
LINE
  5
3839
330
4006
100
AcDbEntity
  8
0
100
AcDbLine
 10
661.2754474424576
 20
695.9206511315495
 30
0.0
 11
661.2754474424576
 21
689.0706511315496
 31
0.0
  0
LINE
  5
383A
330
4006
100
AcDbEntity
  8
0
100
AcDbLine
 10
661.2754474424576
 20
695.9206511315495
 30
0.0
 11
664.2754474424577
 21
698.9206511315496
 31
0.0
  0
LINE
  5
383B
330
4006
100
AcDbEntity
  8
0
100
AcDbLine
 10
639.5754474424578
 20
533.9206511315495
 30
0.0
 11
661.2754474424576
 21
533.9206511315498
 31
0.0
  0
LINE
  5
383C
330
4006
100
AcDbEntity
  8
0
100
AcDbLine
 10
635.4254474424577
 20
544.9206511315495
 30
0.0
 11
665.4254474424577
 21
544.9206511315495
 31
0.0
  0
LINE
  5
383D
330
4006
100
AcDbEntity
  8
0
100
AcDbLine
 10
639.5754474424578
 20
540.7706511315495
 30
0.0
 11
661.2754474424576
 21
540.7706511315495
 31
0.0
  0
LINE
  5
383F
330
4006
100
AcDbEntity
  8
0
100
AcDbLine
 10
639.5754474424578
 20
533.9206511315495
 30
0.0
 11
639.5754474424578
 21
540.7706511315495
 31
0.0
  0
LINE
  5
3840
330
4006
100
AcDbEntity
  8
0
100
AcDbLine
 10
639.5754474424578
 20
533.9206511315495
 30
0.0
 11
636.5754474424577
 21
530.9206511315495
 31
0.0
  0
LINE
  5
3841
330
4006
100
AcDbEntity
  8
0
100
AcDbLine
 10
635.4254474424577
 20
544.9206511315495
 30
0.0
 11
639.5754474424578
 21
540.7706511315495
 31
0.0
  0
LINE
  5
3843
330
4006
100
AcDbEntity
  8
0
100
AcDbLine
 10
661.2754474424576
 20
533.9206511315498
 30
0.0
 11
661.2754474424576
 21
540.7706511315495
 31
0.0
  0
LINE
  5
3844
330
4006
100
AcDbEntity
  8
0
100
AcDbLine
 10
661.2754474424576
 20
533.9206511315495
 30
0.0
 11
664.2754474424577
 21
530.9206511315495
 31
0.0
  0
LINE
  5
3845
330
4006
100
AcDbEntity
  8
0
100
AcDbLine
 10
665.4254474424577
 20
544.9206511315495
 30
0.0
 11
661.2754474424576
 21
540.7706511315498
 31
0.0
  0
LINE
  5
38B3
330
4006
100
AcDbEntity
  8
0
100
AcDbLine
 10
1320.497994569107
 20
705.92065113155
 30
0.0
 11
1347.697994569107
 21
705.9206511315502
 31
0.0
  0
LINE
  5
38B4
330
4006
100
AcDbEntity
  8
0
100
AcDbLine
 10
1274.097994569107
 20
708.9206511315501
 30
0.0
 11
1394.097994569107
 21
708.92065113155
 31
0.0
  0
LINE
  5
38B5
330
4006
100
AcDbEntity
  8
0
100
AcDbLine
 10
1394.097994569107
 20
728.9206511315501
 30
0.0
 11
1334.097994569107
 21
728.9206511315501
 31
0.0
  0
LINE
  5
38B6
330
4006
100
AcDbEntity
  8
0
100
AcDbLine
 10
1274.097994569107
 20
728.9206511315502
 30
0.0
 11
1334.097994569107
 21
728.9206511315501
 31
0.0
  0
LINE
  5
38B7
330
4006
100
AcDbEntity
  8
0
100
AcDbLine
 10
1274.097994569107
 20
708.9206511315501
 30
0.0
 11
1274.097994569107
 21
728.9206511315502
 31
0.0
  0
LINE
  5
38B8
330
4006
100
AcDbEntity
  8
0
100
AcDbLine
 10
1320.497994569107
 20
705.92065113155
 30
0.0
 11
1317.497994569107
 21
708.92065113155
 31
0.0
  0
LINE
  5
38B9
330
4006
100
AcDbEntity
  8
0
100
AcDbLine
 10
1347.697994569106
 20
705.92065113155
 30
0.0
 11
1350.697994569106
 21
708.92065113155
 31
0.0
  0
LINE
  5
38BA
330
4006
100
AcDbEntity
  8
0
100
AcDbLine
 10
1394.097994569107
 20
708.92065113155
 30
0.0
 11
1394.097994569107
 21
728.9206511315501
 31
0.0
  0
LINE
  5
38BB
330
4006
100
AcDbEntity
  8
0
100
AcDbLine
 10
1320.497994569107
 20
688.3206511315503
 30
0.0
 11
1320.497994569107
 21
705.92065113155
 31
0.0
  0
LINE
  5
38BC
330
4006
100
AcDbEntity
  8
0
100
AcDbLine
 10
1347.697994569107
 20
688.3206511315503
 30
0.0
 11
1347.697994569107
 21
705.9206511315502
 31
0.0
  0
LINE
  5
38BD
330
4006
100
AcDbEntity
  8
0
100
AcDbLine
 10
1274.097994569107
 20
520.9206511315496
 30
0.0
 11
1394.097994569107
 21
520.9206511315498
 31
0.0
  0
LINE
  5
38BE
330
4006
100
AcDbEntity
  8
0
100
AcDbLine
 10
1320.497994569107
 20
523.9206511315497
 30
0.0
 11
1347.697994569107
 21
523.9206511315494
 31
0.0
  0
LINE
  5
38BF
330
4006
100
AcDbEntity
  8
0
100
AcDbLine
 10
1274.097994569107
 20
520.9206511315496
 30
0.0
 11
1274.097994569107
 21
500.9206511315496
 31
0.0
  0
LINE
  5
38C0
330
4006
100
AcDbEntity
  8
0
100
AcDbLine
 10
1320.497994569107
 20
541.5696428327303
 30
0.0
 11
1320.497994569107
 21
523.9206511315497
 31
0.0
  0
LINE
  5
38C1
330
4006
100
AcDbEntity
  8
0
100
AcDbLine
 10
1320.497994569107
 20
523.9206511315497
 30
0.0
 11
1317.497994569107
 21
520.9206511315498
 31
0.0
  0
LINE
  5
38C2
330
4006
100
AcDbEntity
  8
0
100
AcDbLine
 10
1347.697994569107
 20
541.5696428327303
 30
0.0
 11
1347.697994569107
 21
523.9206511315494
 31
0.0
  0
LINE
  5
38C3
330
4006
100
AcDbEntity
  8
0
100
AcDbLine
 10
1347.697994569106
 20
523.9206511315497
 30
0.0
 11
1350.697994569106
 21
520.9206511315498
 31
0.0
  0
LINE
  5
38C4
330
4006
100
AcDbEntity
  8
0
100
AcDbLine
 10
1394.097994569107
 20
520.9206511315498
 30
0.0
 11
1394.097994569107
 21
500.9206511315496
 31
0.0
  0
LINE
  5
38C5
330
4006
100
AcDbEntity
  8
0
100
AcDbLine
 10
1274.097994569107
 20
500.9206511315496
 30
0.0
 11
1334.097994569107
 21
500.9206511315496
 31
0.0
  0
LINE
  5
38C6
330
4006
100
AcDbEntity
  8
0
100
AcDbLine
 10
1394.097994569107
 20
500.9206511315496
 30
0.0
 11
1334.097994569107
 21
500.9206511315496
 31
0.0
  0
CIRCLE
  5
38F3
330
4006
100
AcDbEntity
  8
0
100
AcDbCircle
 10
1334.097994569107
 20
885.69445258238
 30
0.0
 40
60.0
  0
CIRCLE
  5
38F6
330
4006
100
AcDbEntity
  8
0
100
AcDbCircle
 10
1364.150032769535
 20
915.7464907828082
 30
0.0
 40
9.5
  0
CIRCLE
  5
38F7
330
4006
100
AcDbEntity
  8
0
100
AcDbCircle
 10
1304.045956368679
 20
915.7464907828083
 30
0.0
 40
9.5
  0
CIRCLE
  5
38F8
330
4006
100
AcDbEntity
  8
0
100
AcDbCircle
 10
1304.045956368679
 20
855.6424143819521
 30
0.0
 40
9.5
  0
CIRCLE
  5
38F9
330
4006
100
AcDbEntity
  8
0
100
AcDbCircle
 10
1364.150032769535
 20
855.6424143819516
 30
0.0
 40
9.5
  0
LINE
  5
38FB
330
4006
100
AcDbEntity
  8
0
100
AcDbLine
 10
2150.245584603894
 20
1205.47180790921
 30
0.0
 11
2150.245584603894
 21
1227.47180790921
 31
0.0
  0
LINE
  5
38FC
330
4006
100
AcDbEntity
  8
0
100
AcDbLine
 10
2150.245584603894
 20
1205.47180790921
 30
0.0
 11
2280.245584603894
 21
1205.47180790921
 31
0.0
  0
LINE
  5
38FD
330
4006
100
AcDbEntity
  8
0
100
AcDbLine
 10
2198.245584603894
 20
1202.47180790921
 30
0.0
 11
2232.245584603893
 21
1202.47180790921
 31
0.0
  0
LINE
  5
38FE
330
4006
100
AcDbEntity
  8
0
100
AcDbLine
 10
2198.245584603894
 20
1202.47180790921
 30
0.0
 11
2195.245584603894
 21
1205.47180790921
 31
0.0
  0
LINE
  5
38FF
330
4006
100
AcDbEntity
  8
0
100
AcDbLine
 10
2280.245584603894
 20
1205.47180790921
 30
0.0
 11
2280.245584603894
 21
1227.47180790921
 31
0.0
  0
LINE
  5
3900
330
4006
100
AcDbEntity
  8
0
100
AcDbLine
 10
2232.245584603893
 20
1202.47180790921
 30
0.0
 11
2235.245584603893
 21
1205.47180790921
 31
0.0
  0
LINE
  5
3901
330
4006
100
AcDbEntity
  8
0
100
AcDbLine
 10
2150.245584603894
 20
1001.47180790921
 30
0.0
 11
2280.245584603894
 21
1001.47180790921
 31
0.0
  0
LINE
  5
3902
330
4006
100
AcDbEntity
  8
0
100
AcDbLine
 10
2150.245584603894
 20
979.4718079092096
 30
0.0
 11
2215.245584603893
 21
979.4718079092099
 31
0.0
  0
LINE
  5
3903
330
4006
100
AcDbEntity
  8
0
100
AcDbLine
 10
2152.745584603893
 20
979.4718079092099
 30
0.0
 11
2215.245584603893
 21
979.4718079092099
 31
0.0
  0
LINE
  5
3904
330
4006
100
AcDbEntity
  8
0
100
AcDbLine
 10
2150.245584603894
 20
1001.47180790921
 30
0.0
 11
2150.245584603894
 21
979.4718079092096
 31
0.0
  0
LINE
  5
3905
330
4006
100
AcDbEntity
  8
0
100
AcDbLine
 10
2280.245584603894
 20
979.4718079092099
 30
0.0
 11
2215.245584603893
 21
979.4718079092099
 31
0.0
  0
LINE
  5
3906
330
4006
100
AcDbEntity
  8
0
100
AcDbLine
 10
2198.245584603894
 20
1004.47180790921
 30
0.0
 11
2232.245584603893
 21
1004.47180790921
 31
0.0
  0
LINE
  5
3907
330
4006
100
AcDbEntity
  8
0
100
AcDbLine
 10
2198.245584603894
 20
1004.47180790921
 30
0.0
 11
2195.245584603894
 21
1001.471807909209
 31
0.0
  0
LINE
  5
3908
330
4006
100
AcDbEntity
  8
0
100
AcDbLine
 10
2232.245584603893
 20
1004.47180790921
 30
0.0
 11
2235.245584603893
 21
1001.471807909209
 31
0.0
  0
LINE
  5
3909
330
4006
100
AcDbEntity
  8
0
100
AcDbLine
 10
2280.245584603894
 20
1001.47180790921
 30
0.0
 11
2280.245584603894
 21
979.4718079092099
 31
0.0
  0
LINE
  5
390A
330
4006
100
AcDbEntity
  8
0
100
AcDbLine
 10
2232.245584603893
 20
1040.265265257073
 30
0.0
 11
2232.245584603893
 21
1004.47180790921
 31
0.0
  0
LINE
  5
390B
330
4006
100
AcDbEntity
  8
0
100
AcDbLine
 10
2198.245584603894
 20
1040.265265257073
 30
0.0
 11
2198.245584603894
 21
1004.47180790921
 31
0.0
  0
LINE
  5
3943
330
4006
100
AcDbEntity
  8
0
100
AcDbLine
 10
1973.875673261879
 20
716.9145399345457
 30
0.0
 11
2103.875673261879
 21
716.9145399345457
 31
0.0
  0
LINE
  5
3944
330
4006
100
AcDbEntity
  8
0
100
AcDbLine
 10
1973.875673261879
 20
738.9145399345457
 30
0.0
 11
2038.875673261879
 21
738.9145399345457
 31
0.0
  0
LINE
  5
3945
330
4006
100
AcDbEntity
  8
0
100
AcDbLine
 10
1976.375673261879
 20
738.9145399345457
 30
0.0
 11
2038.875673261879
 21
738.9145399345457
 31
0.0
  0
LINE
  5
3946
330
4006
100
AcDbEntity
  8
0
100
AcDbLine
 10
1973.875673261879
 20
716.9145399345457
 30
0.0
 11
1973.875673261879
 21
738.9145399345457
 31
0.0
  0
LINE
  5
3947
330
4006
100
AcDbEntity
  8
0
100
AcDbLine
 10
2103.875673261879
 20
738.9145399345457
 30
0.0
 11
2038.875673261879
 21
738.9145399345457
 31
0.0
  0
LINE
  5
3948
330
4006
100
AcDbEntity
  8
0
100
AcDbLine
 10
2021.875673261879
 20
713.9145399345457
 30
0.0
 11
2055.875673261879
 21
713.9145399345456
 31
0.0
  0
LINE
  5
3949
330
4006
100
AcDbEntity
  8
0
100
AcDbLine
 10
2021.875673261878
 20
713.9145399345457
 30
0.0
 11
2018.875673261879
 21
716.9145399345459
 31
0.0
  0
LINE
  5
394A
330
4006
100
AcDbEntity
  8
0
100
AcDbLine
 10
2055.87567326188
 20
713.9145399345457
 30
0.0
 11
2058.875673261879
 21
716.9145399345459
 31
0.0
  0
LINE
  5
394B
330
4006
100
AcDbEntity
  8
0
100
AcDbLine
 10
2103.875673261879
 20
716.9145399345457
 30
0.0
 11
2103.875673261879
 21
738.9145399345457
 31
0.0
  0
LINE
  5
394C
330
4006
100
AcDbEntity
  8
0
100
AcDbLine
 10
2055.875673261879
 20
678.1210825866824
 30
0.0
 11
2055.875673261879
 21
713.9145399345456
 31
0.0
  0
LINE
  5
394D
330
4006
100
AcDbEntity
  8
0
100
AcDbLine
 10
2021.875673261879
 20
678.1210825866824
 30
0.0
 11
2021.875673261879
 21
713.9145399345457
 31
0.0
  0
LINE
  5
394E
330
4006
100
AcDbEntity
  8
0
100
AcDbLine
 10
1976.375673261879
 20
490.9145399345455
 30
0.0
 11
2038.875673261879
 21
490.9145399345455
 31
0.0
  0
LINE
  5
394F
330
4006
100
AcDbEntity
  8
0
100
AcDbLine
 10
1973.875673261879
 20
490.9145399345455
 30
0.0
 11
2038.875673261879
 21
490.9145399345455
 31
0.0
  0
LINE
  5
3950
330
4006
100
AcDbEntity
  8
0
100
AcDbLine
 10
1973.875673261879
 20
512.9145399345454
 30
0.0
 11
2103.875673261879
 21
512.9145399345457
 31
0.0
  0
LINE
  5
3951
330
4006
100
AcDbEntity
  8
0
100
AcDbLine
 10
1973.875673261879
 20
512.9145399345454
 30
0.0
 11
1973.875673261879
 21
490.9145399345455
 31
0.0
  0
LINE
  5
3952
330
4006
100
AcDbEntity
  8
0
100
AcDbLine
 10
2103.875673261879
 20
490.9145399345455
 30
0.0
 11
2038.875673261879
 21
490.9145399345455
 31
0.0
  0
LINE
  5
3953
330
4006
100
AcDbEntity
  8
0
100
AcDbLine
 10
2021.875673261879
 20
515.9145399345455
 30
0.0
 11
2055.875673261879
 21
515.9145399345456
 31
0.0
  0
LINE
  5
3954
330
4006
100
AcDbEntity
  8
0
100
AcDbLine
 10
2021.875673261879
 20
551.707997282409
 30
0.0
 11
2021.875673261879
 21
515.9145399345455
 31
0.0
  0
LINE
  5
3955
330
4006
100
AcDbEntity
  8
0
100
AcDbLine
 10
2021.875673261878
 20
515.9145399345455
 30
0.0
 11
2018.875673261879
 21
512.9145399345453
 31
0.0
  0
LINE
  5
3956
330
4006
100
AcDbEntity
  8
0
100
AcDbLine
 10
2055.875673261879
 20
551.707997282409
 30
0.0
 11
2055.875673261879
 21
515.9145399345456
 31
0.0
  0
LINE
  5
3957
330
4006
100
AcDbEntity
  8
0
100
AcDbLine
 10
2055.87567326188
 20
515.9145399345455
 30
0.0
 11
2058.875673261879
 21
512.9145399345453
 31
0.0
  0
LINE
  5
3958
330
4006
100
AcDbEntity
  8
0
100
AcDbLine
 10
2103.875673261879
 20
512.9145399345457
 30
0.0
 11
2103.875673261879
 21
490.9145399345455
 31
0.0
  0
LINE
  5
3973
330
4006
100
AcDbEntity
  8
0
100
AcDbLine
 10
2150.245584603894
 20
716.9145399345457
 30
0.0
 11
2280.245584603894
 21
716.9145399345457
 31
0.0
  0
LINE
  5
3974
330
4006
100
AcDbEntity
  8
0
100
AcDbLine
 10
2150.245584603894
 20
738.9145399345457
 30
0.0
 11
2215.245584603893
 21
738.9145399345457
 31
0.0
  0
LINE
  5
3975
330
4006
100
AcDbEntity
  8
0
100
AcDbLine
 10
2152.745584603893
 20
738.9145399345457
 30
0.0
 11
2215.245584603893
 21
738.9145399345457
 31
0.0
  0
LINE
  5
3976
330
4006
100
AcDbEntity
  8
0
100
AcDbLine
 10
2150.245584603894
 20
716.9145399345457
 30
0.0
 11
2150.245584603894
 21
738.9145399345457
 31
0.0
  0
LINE
  5
3977
330
4006
100
AcDbEntity
  8
0
100
AcDbLine
 10
2280.245584603894
 20
738.9145399345457
 30
0.0
 11
2215.245584603893
 21
738.9145399345457
 31
0.0
  0
LINE
  5
3978
330
4006
100
AcDbEntity
  8
0
100
AcDbLine
 10
2198.245584603894
 20
713.9145399345457
 30
0.0
 11
2232.245584603893
 21
713.9145399345456
 31
0.0
  0
LINE
  5
3979
330
4006
100
AcDbEntity
  8
0
100
AcDbLine
 10
2198.245584603894
 20
713.9145399345457
 30
0.0
 11
2195.245584603894
 21
716.9145399345459
 31
0.0
  0
LINE
  5
397A
330
4006
100
AcDbEntity
  8
0
100
AcDbLine
 10
2232.245584603893
 20
713.9145399345457
 30
0.0
 11
2235.245584603893
 21
716.9145399345459
 31
0.0
  0
LINE
  5
397B
330
4006
100
AcDbEntity
  8
0
100
AcDbLine
 10
2280.245584603894
 20
716.9145399345457
 30
0.0
 11
2280.245584603894
 21
738.9145399345457
 31
0.0
  0
LINE
  5
397C
330
4006
100
AcDbEntity
  8
0
100
AcDbLine
 10
2232.245584603893
 20
678.1210825866824
 30
0.0
 11
2232.245584603893
 21
713.9145399345456
 31
0.0
  0
LINE
  5
397D
330
4006
100
AcDbEntity
  8
0
100
AcDbLine
 10
2198.245584603894
 20
678.1210825866824
 30
0.0
 11
2198.245584603894
 21
713.9145399345457
 31
0.0
  0
LINE
  5
397E
330
4006
100
AcDbEntity
  8
0
100
AcDbLine
 10
2152.745584603893
 20
490.9145399345455
 30
0.0
 11
2215.245584603893
 21
490.9145399345455
 31
0.0
  0
LINE
  5
397F
330
4006
100
AcDbEntity
  8
0
100
AcDbLine
 10
2150.245584603894
 20
490.9145399345455
 30
0.0
 11
2215.245584603893
 21
490.9145399345455
 31
0.0
  0
LINE
  5
3980
330
4006
100
AcDbEntity
  8
0
100
AcDbLine
 10
2150.245584603894
 20
512.9145399345454
 30
0.0
 11
2280.245584603894
 21
512.9145399345457
 31
0.0
  0
LINE
  5
3981
330
4006
100
AcDbEntity
  8
0
100
AcDbLine
 10
2150.245584603894
 20
512.9145399345454
 30
0.0
 11
2150.245584603894
 21
490.9145399345455
 31
0.0
  0
LINE
  5
3982
330
4006
100
AcDbEntity
  8
0
100
AcDbLine
 10
2280.245584603894
 20
490.9145399345455
 30
0.0
 11
2215.245584603893
 21
490.9145399345455
 31
0.0
  0
LINE
  5
3983
330
4006
100
AcDbEntity
  8
0
100
AcDbLine
 10
2198.245584603894
 20
515.9145399345455
 30
0.0
 11
2232.245584603893
 21
515.9145399345456
 31
0.0
  0
LINE
  5
3984
330
4006
100
AcDbEntity
  8
0
100
AcDbLine
 10
2198.245584603894
 20
551.707997282409
 30
0.0
 11
2198.245584603894
 21
515.9145399345455
 31
0.0
  0
LINE
  5
3985
330
4006
100
AcDbEntity
  8
0
100
AcDbLine
 10
2198.245584603894
 20
515.9145399345455
 30
0.0
 11
2195.245584603894
 21
512.9145399345453
 31
0.0
  0
LINE
  5
3986
330
4006
100
AcDbEntity
  8
0
100
AcDbLine
 10
2232.245584603893
 20
551.707997282409
 30
0.0
 11
2232.245584603893
 21
515.9145399345456
 31
0.0
  0
LINE
  5
3987
330
4006
100
AcDbEntity
  8
0
100
AcDbLine
 10
2232.245584603893
 20
515.9145399345455
 30
0.0
 11
2235.245584603893
 21
512.9145399345453
 31
0.0
  0
LINE
  5
3988
330
4006
100
AcDbEntity
  8
0
100
AcDbLine
 10
2280.245584603894
 20
512.9145399345457
 30
0.0
 11
2280.245584603894
 21
490.9145399345455
 31
0.0
  0
LINE
  5
39A3
330
4006
100
AcDbEntity
  8
0
100
AcDbLine
 10
2326.61549594591
 20
716.9145399345457
 30
0.0
 11
2456.615495945909
 21
716.9145399345457
 31
0.0
  0
LINE
  5
39A4
330
4006
100
AcDbEntity
  8
0
100
AcDbLine
 10
2326.615495945909
 20
738.9145399345457
 30
0.0
 11
2391.615495945909
 21
738.9145399345457
 31
0.0
  0
LINE
  5
39A5
330
4006
100
AcDbEntity
  8
0
100
AcDbLine
 10
2329.115495945909
 20
738.9145399345457
 30
0.0
 11
2391.615495945909
 21
738.9145399345457
 31
0.0
  0
LINE
  5
39A6
330
4006
100
AcDbEntity
  8
0
100
AcDbLine
 10
2326.61549594591
 20
716.9145399345457
 30
0.0
 11
2326.615495945909
 21
738.9145399345457
 31
0.0
  0
LINE
  5
39A7
330
4006
100
AcDbEntity
  8
0
100
AcDbLine
 10
2456.615495945909
 20
738.9145399345457
 30
0.0
 11
2391.615495945909
 21
738.9145399345457
 31
0.0
  0
LINE
  5
39A8
330
4006
100
AcDbEntity
  8
0
100
AcDbLine
 10
2374.615495945909
 20
713.9145399345457
 30
0.0
 11
2408.615495945909
 21
713.9145399345456
 31
0.0
  0
LINE
  5
39A9
330
4006
100
AcDbEntity
  8
0
100
AcDbLine
 10
2374.615495945909
 20
713.9145399345457
 30
0.0
 11
2371.615495945909
 21
716.9145399345459
 31
0.0
  0
LINE
  5
39AA
330
4006
100
AcDbEntity
  8
0
100
AcDbLine
 10
2408.615495945909
 20
713.9145399345457
 30
0.0
 11
2411.615495945909
 21
716.9145399345459
 31
0.0
  0
LINE
  5
39AB
330
4006
100
AcDbEntity
  8
0
100
AcDbLine
 10
2456.615495945909
 20
716.9145399345457
 30
0.0
 11
2456.615495945909
 21
738.9145399345457
 31
0.0
  0
LINE
  5
39AC
330
4006
100
AcDbEntity
  8
0
100
AcDbLine
 10
2408.615495945909
 20
678.1210825866824
 30
0.0
 11
2408.615495945909
 21
713.9145399345456
 31
0.0
  0
LINE
  5
39AD
330
4006
100
AcDbEntity
  8
0
100
AcDbLine
 10
2374.615495945909
 20
678.1210825866824
 30
0.0
 11
2374.615495945909
 21
713.9145399345457
 31
0.0
  0
LINE
  5
39AE
330
4006
100
AcDbEntity
  8
0
100
AcDbLine
 10
2329.115495945909
 20
490.9145399345455
 30
0.0
 11
2391.615495945909
 21
490.9145399345455
 31
0.0
  0
LINE
  5
39AF
330
4006
100
AcDbEntity
  8
0
100
AcDbLine
 10
2326.615495945909
 20
490.9145399345455
 30
0.0
 11
2391.615495945909
 21
490.9145399345455
 31
0.0
  0
LINE
  5
39B0
330
4006
100
AcDbEntity
  8
0
100
AcDbLine
 10
2326.61549594591
 20
512.9145399345454
 30
0.0
 11
2456.615495945909
 21
512.9145399345457
 31
0.0
  0
LINE
  5
39B1
330
4006
100
AcDbEntity
  8
0
100
AcDbLine
 10
2326.61549594591
 20
512.9145399345454
 30
0.0
 11
2326.615495945909
 21
490.9145399345455
 31
0.0
  0
LINE
  5
39B2
330
4006
100
AcDbEntity
  8
0
100
AcDbLine
 10
2456.615495945909
 20
490.9145399345455
 30
0.0
 11
2391.615495945909
 21
490.9145399345455
 31
0.0
  0
LINE
  5
39B3
330
4006
100
AcDbEntity
  8
0
100
AcDbLine
 10
2374.615495945909
 20
515.9145399345455
 30
0.0
 11
2408.615495945909
 21
515.9145399345456
 31
0.0
  0
LINE
  5
39B4
330
4006
100
AcDbEntity
  8
0
100
AcDbLine
 10
2374.615495945909
 20
551.707997282409
 30
0.0
 11
2374.615495945909
 21
515.9145399345455
 31
0.0
  0
LINE
  5
39B5
330
4006
100
AcDbEntity
  8
0
100
AcDbLine
 10
2374.615495945909
 20
515.9145399345455
 30
0.0
 11
2371.615495945909
 21
512.9145399345453
 31
0.0
  0
LINE
  5
39B6
330
4006
100
AcDbEntity
  8
0
100
AcDbLine
 10
2408.615495945909
 20
551.707997282409
 30
0.0
 11
2408.615495945909
 21
515.9145399345456
 31
0.0
  0
LINE
  5
39B7
330
4006
100
AcDbEntity
  8
0
100
AcDbLine
 10
2408.615495945909
 20
515.9145399345455
 30
0.0
 11
2411.615495945909
 21
512.9145399345453
 31
0.0
  0
LINE
  5
39B8
330
4006
100
AcDbEntity
  8
0
100
AcDbLine
 10
2456.615495945909
 20
512.9145399345457
 30
0.0
 11
2456.615495945909
 21
490.9145399345455
 31
0.0
  0
CIRCLE
  5
39B9
330
4006
100
AcDbEntity
  8
0
100
AcDbCircle
 10
2215.245584603895
 20
884.3844585387378
 30
0.0
 40
65.0
  0
CIRCLE
  5
39BC
330
4006
100
AcDbEntity
  8
0
100
AcDbCircle
 10
2248.833156710255
 20
917.9720306450988
 30
0.0
 40
9.5
  0
CIRCLE
  5
39BD
330
4006
100
AcDbEntity
  8
0
100
AcDbCircle
 10
2181.658012497534
 20
917.9720306450983
 30
0.0
 40
9.5
  0
CIRCLE
  5
39BE
330
4006
100
AcDbEntity
  8
0
100
AcDbCircle
 10
2181.658012497535
 20
850.7968864323768
 30
0.0
 40
9.5
  0
CIRCLE
  5
39BF
330
4006
100
AcDbEntity
  8
0
100
AcDbCircle
 10
2248.833156710256
 20
850.7968864323775
 30
0.0
 40
9.5
  0
TEXT
  5
3DBF
330
4006
100
AcDbEntity
  8
0
100
AcDbText
 10
446.7631260768658
 20
409.4981657436346
 30
0.0
 40
20.0
  1
1/2
 41
0.8
 72
     4
 11
466.5726498863896
 21
418.0695943150631
 31
0.0
100
AcDbText
  0
TEXT
  5
3DC0
330
4006
100
AcDbEntity
  8
0
100
AcDbText
 10
1286.742972445902
 20
405.900065994703
 30
0.0
 40
20.0
  1
3/4
 41
0.8
 72
     4
 11
1308.457258160188
 21
414.4714945661315
 31
0.0
100
AcDbText
  0
TEXT
  5
3DC1
330
4006
100
AcDbEntity
  8
0
100
AcDbText
 10
2188.957612880457
 20
386.6253290764921
 30
0.0
 40
20.0
  1
1
 41
0.8
 72
     4
 11
2190.862374785219
 21
396.6253290764921
 31
0.0
100
AcDbText
  0
ARC
  5
40AF
330
4006
100
AcDbEntity
  8
0
100
AcDbCircle
 10
1296.779960769776
 20
569.6206573640758
 30
0.0
 40
15.0
100
AcDbArc
 50
225.0300552652379
 51
270.0300552652396
  0
LINE
  5
40B0
330
4006
100
AcDbEntity
  8
0
100
AcDbLine
 10
1286.178924345395
 20
559.0084932714431
 30
0.0
 11
1264.809760856614
 21
580.3552495527951
 31
0.0
  0
ARC
  5
40B2
330
4006
100
AcDbEntity
  8
0
100
AcDbCircle
 10
1273.643957876931
 20
589.1987196299883
 30
0.0
 40
12.5
100
AcDbArc
 50
180.0150276326198
 51
225.0300552652386
  0
ARC
  5
40B6
330
4006
100
AcDbEntity
  8
0
100
AcDbCircle
 10
1296.779960769776
 20
660.2206448990235
 30
0.0
 40
15.0
100
AcDbArc
 50
89.96994473476044
 51
134.9699447347631
  0
LINE
  5
40B7
330
4006
100
AcDbEntity
  8
0
100
AcDbLine
 10
1286.178924345395
 20
670.8328089916562
 30
0.0
 11
1264.809760856614
 21
649.4860527103042
 31
0.0
  0
ARC
  5
40B8
330
4006
100
AcDbEntity
  8
0
100
AcDbCircle
 10
1273.643957876931
 20
640.642582633111
 30
0.0
 40
12.5
100
AcDbArc
 50
134.9699447347628
 51
179.9849723673754
  0
LINE
  5
40B9
330
4006
100
AcDbEntity
  8
0
100
AcDbLine
 10
1261.143958306879
 20
640.6458611539244
 30
0.0
 11
1261.143958306879
 21
589.1954411091758
 31
0.0
  0
LINE
  5
40BC
330
4006
100
AcDbEntity
  8
0
100
AcDbLine
 10
1152.819818935232
 20
553.155128432667
 30
0.0
 11
1122.819827613806
 21
553.1779475985604
 31
0.0
  0
LINE
  5
40BF
330
4006
100
AcDbEntity
  8
0
100
AcDbLine
 10
1152.819823274519
 20
676.6617370889242
 30
0.0
 11
1122.819823274519
 21
676.6617370889242
 31
0.0
  0
LINE
  5
40C0
330
4006
100
AcDbEntity
  8
0
100
AcDbLine
 10
1122.819827613806
 20
553.1779475985604
 30
0.0
 11
1121.483360238209
 21
554.6200505421393
 31
0.0
  0
LINE
  5
40C1
330
4006
100
AcDbEntity
  8
0
100
AcDbLine
 10
1122.819823274519
 20
676.6617370889242
 30
0.0
 11
1121.482259366
 21
675.2206511315497
 31
0.0
  0
LINE
  5
40C4
330
4006
100
AcDbEntity
  8
0
100
AcDbLine
 10
1152.819818935232
 20
553.155128432667
 30
0.0
 11
1154.158478602796
 21
554.5951965700651
 31
0.0
  0
LINE
  5
40C6
330
4006
100
AcDbEntity
  8
0
100
AcDbLine
 10
1152.819823274519
 20
676.6617370889242
 30
0.0
 11
1154.157387183038
 21
675.2206511315497
 31
0.0
  0
LINE
  5
40C7
330
4006
100
AcDbEntity
  8
0
100
AcDbLine
 10
1152.819823274519
 20
676.6617370889247
 30
0.0
 11
1152.819823274519
 21
686.9206511315501
 31
0.0
  0
LINE
  5
40C8
330
4006
100
AcDbEntity
  8
0
100
AcDbLine
 10
1122.819823274519
 20
676.6617370889247
 30
0.0
 11
1122.819823274519
 21
686.9206511315501
 31
0.0
  0
LINE
  5
40C9
330
4006
100
AcDbEntity
  8
0
100
AcDbLine
 10
1122.819823274519
 20
686.9206511315501
 30
0.0
 11
1124.219823274519
 21
688.3206511315503
 31
0.0
  0
LINE
  5
40CA
330
4006
100
AcDbEntity
  8
0
100
AcDbLine
 10
1122.819823274519
 20
686.9206511315501
 30
0.0
 11
1152.819823274519
 21
686.9206511315478
 31
0.0
  0
LINE
  5
40CB
330
4006
100
AcDbEntity
  8
0
100
AcDbLine
 10
1124.219823274519
 20
688.3206511315503
 30
0.0
 11
1151.419823274519
 21
688.3206511315503
 31
0.0
  0
LINE
  5
40CC
330
4006
100
AcDbEntity
  8
0
100
AcDbLine
 10
1152.819823274519
 20
686.9206511315501
 30
0.0
 11
1151.419823274519
 21
688.3206511315503
 31
0.0
  0
LINE
  5
40CD
330
4006
100
AcDbEntity
  8
0
100
AcDbLine
 10
1122.819823274519
 20
542.9696428327304
 30
0.0
 11
1152.819823274519
 21
542.9696428327328
 31
0.0
  0
LINE
  5
40CE
330
4006
100
AcDbEntity
  8
0
100
AcDbLine
 10
1122.819823274519
 20
542.9696428327304
 30
0.0
 11
1124.219823274519
 21
541.5696428327303
 31
0.0
  0
LINE
  5
40CF
330
4006
100
AcDbEntity
  8
0
100
AcDbLine
 10
1122.819823274519
 20
553.1779522808283
 30
0.0
 11
1122.819823274519
 21
542.9696428327304
 31
0.0
  0
LINE
  5
40D0
330
4006
100
AcDbEntity
  8
0
100
AcDbLine
 10
1124.219823274519
 20
541.5696428327303
 30
0.0
 11
1151.419823274519
 21
541.5696428327303
 31
0.0
  0
LINE
  5
40D1
330
4006
100
AcDbEntity
  8
0
100
AcDbLine
 10
1152.819823274519
 20
542.9696428327304
 30
0.0
 11
1151.419823274519
 21
541.5696428327303
 31
0.0
  0
LINE
  5
40D2
330
4006
100
AcDbEntity
  8
0
100
AcDbLine
 10
1152.819823274519
 20
553.1551331006713
 30
0.0
 11
1152.819823274519
 21
542.9696428327304
 31
0.0
  0
LINE
  5
40D3
330
4006
100
AcDbEntity
  8
0
100
AcDbLine
 10
1124.219823274519
 20
705.92065113155
 30
0.0
 11
1151.419823274519
 21
705.9206511315502
 31
0.0
  0
LINE
  5
40D4
330
4006
100
AcDbEntity
  8
0
100
AcDbLine
 10
1077.819823274519
 20
708.9206511315501
 30
0.0
 11
1197.819823274519
 21
708.92065113155
 31
0.0
  0
LINE
  5
40D5
330
4006
100
AcDbEntity
  8
0
100
AcDbLine
 10
1197.819823274519
 20
728.9206511315501
 30
0.0
 11
1137.819823274519
 21
728.9206511315501
 31
0.0
  0
LINE
  5
40D6
330
4006
100
AcDbEntity
  8
0
100
AcDbLine
 10
1077.819823274519
 20
728.9206511315502
 30
0.0
 11
1137.819823274519
 21
728.9206511315501
 31
0.0
  0
LINE
  5
40D7
330
4006
100
AcDbEntity
  8
0
100
AcDbLine
 10
1077.819823274519
 20
708.9206511315501
 30
0.0
 11
1077.819823274519
 21
728.9206511315502
 31
0.0
  0
LINE
  5
40D8
330
4006
100
AcDbEntity
  8
0
100
AcDbLine
 10
1124.219823274519
 20
705.92065113155
 30
0.0
 11
1121.219823274519
 21
708.92065113155
 31
0.0
  0
LINE
  5
40D9
330
4006
100
AcDbEntity
  8
0
100
AcDbLine
 10
1151.419823274518
 20
705.92065113155
 30
0.0
 11
1154.419823274518
 21
708.92065113155
 31
0.0
  0
LINE
  5
40DA
330
4006
100
AcDbEntity
  8
0
100
AcDbLine
 10
1197.819823274519
 20
708.92065113155
 30
0.0
 11
1197.819823274519
 21
728.9206511315501
 31
0.0
  0
LINE
  5
40DB
330
4006
100
AcDbEntity
  8
0
100
AcDbLine
 10
1124.219823274519
 20
688.3206511315503
 30
0.0
 11
1124.219823274519
 21
705.92065113155
 31
0.0
  0
LINE
  5
40DC
330
4006
100
AcDbEntity
  8
0
100
AcDbLine
 10
1151.419823274519
 20
688.3206511315503
 30
0.0
 11
1151.419823274519
 21
705.9206511315502
 31
0.0
  0
LINE
  5
40DD
330
4006
100
AcDbEntity
  8
0
100
AcDbLine
 10
1077.819823274519
 20
520.9206511315496
 30
0.0
 11
1197.819823274519
 21
520.9206511315498
 31
0.0
  0
LINE
  5
40DE
330
4006
100
AcDbEntity
  8
0
100
AcDbLine
 10
1124.219823274519
 20
523.9206511315497
 30
0.0
 11
1151.419823274519
 21
523.9206511315494
 31
0.0
  0
LINE
  5
40DF
330
4006
100
AcDbEntity
  8
0
100
AcDbLine
 10
1077.819823274519
 20
520.9206511315496
 30
0.0
 11
1077.819823274519
 21
500.9206511315496
 31
0.0
  0
LINE
  5
40E0
330
4006
100
AcDbEntity
  8
0
100
AcDbLine
 10
1124.219823274519
 20
541.5696428327303
 30
0.0
 11
1124.219823274519
 21
523.9206511315497
 31
0.0
  0
LINE
  5
40E1
330
4006
100
AcDbEntity
  8
0
100
AcDbLine
 10
1124.219823274519
 20
523.9206511315497
 30
0.0
 11
1121.219823274519
 21
520.9206511315498
 31
0.0
  0
LINE
  5
40E2
330
4006
100
AcDbEntity
  8
0
100
AcDbLine
 10
1151.419823274519
 20
541.5696428327303
 30
0.0
 11
1151.419823274519
 21
523.9206511315494
 31
0.0
  0
LINE
  5
40E3
330
4006
100
AcDbEntity
  8
0
100
AcDbLine
 10
1151.419823274518
 20
523.9206511315497
 30
0.0
 11
1154.419823274518
 21
520.9206511315498
 31
0.0
  0
LINE
  5
40E4
330
4006
100
AcDbEntity
  8
0
100
AcDbLine
 10
1197.819823274519
 20
520.9206511315498
 30
0.0
 11
1197.819823274519
 21
500.9206511315496
 31
0.0
  0
LINE
  5
40E5
330
4006
100
AcDbEntity
  8
0
100
AcDbLine
 10
1077.819823274519
 20
500.9206511315496
 30
0.0
 11
1137.819823274519
 21
500.9206511315496
 31
0.0
  0
LINE
  5
40E6
330
4006
100
AcDbEntity
  8
0
100
AcDbLine
 10
1197.819823274519
 20
500.9206511315496
 30
0.0
 11
1137.819823274519
 21
500.9206511315496
 31
0.0
  0
LINE
  5
40F1
330
4006
100
AcDbEntity
  8
0
100
AcDbLine
 10
1119.369823274519
 20
675.2206511315498
 30
0.0
 11
1156.269823274519
 21
675.2206511315498
 31
0.0
  0
ARC
  5
40F3
330
4006
100
AcDbEntity
  8
0
100
AcDbCircle
 10
1139.838084155059
 20
586.7333754953883
 30
0.0
 40
90.0
100
AcDbArc
 50
60.38700076274336
 51
79.48022470884342
  0
ARC
  5
40F4
330
4006
100
AcDbEntity
  8
0
100
AcDbCircle
 10
1176.898518487788
 20
651.9370886340554
 30
0.0
 40
15.0
100
AcDbArc
 50
359.9849723673819
 51
60.38700076274336
  0
LINE
  5
40F5
330
4006
100
AcDbEntity
  8
0
100
AcDbLine
 10
1191.89851797185
 20
651.9331544090809
 30
0.0
 11
1191.89851797185
 21
577.9081478540209
 31
0.0
  0
ARC
  5
40F6
330
4006
100
AcDbEntity
  8
0
100
AcDbCircle
 10
1139.838084155059
 20
643.1079267677119
 30
0.0
 40
90.0
100
AcDbArc
 50
280.5197752911566
 51
299.6129992372585
  0
ARC
  5
40F7
330
4006
100
AcDbEntity
  8
0
100
AcDbCircle
 10
1176.898518487788
 20
577.9042136290449
 30
0.0
 40
15.00000000000022
100
AcDbArc
 50
299.6129992372585
 51
0.0150276326241972
  0
ARC
  5
40F8
330
4006
100
AcDbEntity
  8
0
100
AcDbCircle
 10
1098.74112806125
 20
651.9370886340554
 30
0.0
 40
15.0
100
AcDbArc
 50
119.6129992372529
 51
180.0150276326181
  0
LINE
  5
40F9
330
4006
100
AcDbEntity
  8
0
100
AcDbLine
 10
1083.741128577187
 20
651.9331544090809
 30
0.0
 11
1083.741128577187
 21
577.9081478540209
 31
0.0
  0
ARC
  5
40FA
330
4006
100
AcDbEntity
  8
0
100
AcDbCircle
 10
1098.74112806125
 20
577.9042136290449
 30
0.0
 40
15.00000000000022
100
AcDbArc
 50
179.9849723673758
 51
240.3870007627471
  0
LINE
  5
40FB
330
4006
100
AcDbEntity
  8
0
100
AcDbLine
 10
1119.369823274519
 20
675.2206511315498
 30
0.0
 11
1091.329041194705
 21
664.9778312617893
 31
0.0
  0
LINE
  5
40FC
330
4006
100
AcDbEntity
  8
0
100
AcDbLine
 10
1119.369823274519
 20
554.6206511315504
 30
0.0
 11
1156.269823274519
 21
554.6206511315504
 31
0.0
  0
ARC
  5
40FD
330
4006
100
AcDbEntity
  8
0
100
AcDbCircle
 10
1098.74112806125
 20
577.9042136290448
 30
0.0
 40
15.0
100
AcDbArc
 50
179.9849723673754
 51
240.3870007627453
  0
LINE
  5
40FE
330
4006
100
AcDbEntity
  8
0
100
AcDbLine
 10
1119.369823274519
 20
554.6206511315504
 30
0.0
 11
1091.329041194705
 21
564.8634710013109
 31
0.0
  0
LINE
  5
40FF
330
4006
100
AcDbEntity
  8
0
100
AcDbLine
 10
1541.605407827796
 20
553.155128432667
 30
0.0
 11
1511.60541650637
 21
553.1779475985604
 31
0.0
  0
LINE
  5
4100
330
4006
100
AcDbEntity
  8
0
100
AcDbLine
 10
1541.605412167083
 20
676.6617370889242
 30
0.0
 11
1511.605412167083
 21
676.6617370889242
 31
0.0
  0
LINE
  5
4101
330
4006
100
AcDbEntity
  8
0
100
AcDbLine
 10
1511.60541650637
 20
553.1779475985604
 30
0.0
 11
1510.268949130773
 21
554.6200505421393
 31
0.0
  0
LINE
  5
4102
330
4006
100
AcDbEntity
  8
0
100
AcDbLine
 10
1511.605412167083
 20
676.6617370889242
 30
0.0
 11
1510.267848258564
 21
675.2206511315497
 31
0.0
  0
LINE
  5
4103
330
4006
100
AcDbEntity
  8
0
100
AcDbLine
 10
1541.605407827796
 20
553.155128432667
 30
0.0
 11
1542.94406749536
 21
554.5951965700651
 31
0.0
  0
LINE
  5
4104
330
4006
100
AcDbEntity
  8
0
100
AcDbLine
 10
1541.605412167083
 20
676.6617370889242
 30
0.0
 11
1542.942976075602
 21
675.2206511315497
 31
0.0
  0
LINE
  5
4105
330
4006
100
AcDbEntity
  8
0
100
AcDbLine
 10
1541.605412167083
 20
676.6617370889247
 30
0.0
 11
1541.605412167083
 21
686.9206511315501
 31
0.0
  0
LINE
  5
4106
330
4006
100
AcDbEntity
  8
0
100
AcDbLine
 10
1511.605412167083
 20
676.6617370889247
 30
0.0
 11
1511.605412167083
 21
686.9206511315501
 31
0.0
  0
LINE
  5
4107
330
4006
100
AcDbEntity
  8
0
100
AcDbLine
 10
1511.605412167083
 20
686.9206511315501
 30
0.0
 11
1513.005412167083
 21
688.3206511315503
 31
0.0
  0
LINE
  5
4108
330
4006
100
AcDbEntity
  8
0
100
AcDbLine
 10
1511.605412167083
 20
686.9206511315501
 30
0.0
 11
1541.605412167083
 21
686.9206511315478
 31
0.0
  0
LINE
  5
4109
330
4006
100
AcDbEntity
  8
0
100
AcDbLine
 10
1513.005412167083
 20
688.3206511315503
 30
0.0
 11
1540.205412167083
 21
688.3206511315503
 31
0.0
  0
LINE
  5
410A
330
4006
100
AcDbEntity
  8
0
100
AcDbLine
 10
1541.605412167083
 20
686.9206511315501
 30
0.0
 11
1540.205412167083
 21
688.3206511315503
 31
0.0
  0
LINE
  5
410B
330
4006
100
AcDbEntity
  8
0
100
AcDbLine
 10
1511.605412167083
 20
542.9696428327304
 30
0.0
 11
1541.605412167083
 21
542.9696428327328
 31
0.0
  0
LINE
  5
410C
330
4006
100
AcDbEntity
  8
0
100
AcDbLine
 10
1511.605412167083
 20
542.9696428327304
 30
0.0
 11
1513.005412167083
 21
541.5696428327303
 31
0.0
  0
LINE
  5
410D
330
4006
100
AcDbEntity
  8
0
100
AcDbLine
 10
1511.605412167083
 20
553.1779522808283
 30
0.0
 11
1511.605412167083
 21
542.9696428327304
 31
0.0
  0
LINE
  5
410E
330
4006
100
AcDbEntity
  8
0
100
AcDbLine
 10
1513.005412167083
 20
541.5696428327303
 30
0.0
 11
1540.205412167083
 21
541.5696428327303
 31
0.0
  0
LINE
  5
410F
330
4006
100
AcDbEntity
  8
0
100
AcDbLine
 10
1541.605412167083
 20
542.9696428327304
 30
0.0
 11
1540.205412167083
 21
541.5696428327303
 31
0.0
  0
LINE
  5
4110
330
4006
100
AcDbEntity
  8
0
100
AcDbLine
 10
1541.605412167083
 20
553.1551331006713
 30
0.0
 11
1541.605412167083
 21
542.9696428327304
 31
0.0
  0
LINE
  5
4111
330
4006
100
AcDbEntity
  8
0
100
AcDbLine
 10
1513.005412167083
 20
705.92065113155
 30
0.0
 11
1540.205412167083
 21
705.9206511315502
 31
0.0
  0
LINE
  5
4112
330
4006
100
AcDbEntity
  8
0
100
AcDbLine
 10
1466.605412167083
 20
708.9206511315501
 30
0.0
 11
1586.605412167083
 21
708.92065113155
 31
0.0
  0
LINE
  5
4113
330
4006
100
AcDbEntity
  8
0
100
AcDbLine
 10
1586.605412167083
 20
728.9206511315501
 30
0.0
 11
1526.605412167083
 21
728.9206511315501
 31
0.0
  0
LINE
  5
4114
330
4006
100
AcDbEntity
  8
0
100
AcDbLine
 10
1466.605412167083
 20
728.9206511315502
 30
0.0
 11
1526.605412167083
 21
728.9206511315501
 31
0.0
  0
LINE
  5
4115
330
4006
100
AcDbEntity
  8
0
100
AcDbLine
 10
1466.605412167083
 20
708.9206511315501
 30
0.0
 11
1466.605412167083
 21
728.9206511315502
 31
0.0
  0
LINE
  5
4116
330
4006
100
AcDbEntity
  8
0
100
AcDbLine
 10
1513.005412167083
 20
705.92065113155
 30
0.0
 11
1510.005412167083
 21
708.92065113155
 31
0.0
  0
LINE
  5
4117
330
4006
100
AcDbEntity
  8
0
100
AcDbLine
 10
1540.205412167082
 20
705.92065113155
 30
0.0
 11
1543.205412167082
 21
708.92065113155
 31
0.0
  0
LINE
  5
4118
330
4006
100
AcDbEntity
  8
0
100
AcDbLine
 10
1586.605412167083
 20
708.92065113155
 30
0.0
 11
1586.605412167083
 21
728.9206511315501
 31
0.0
  0
LINE
  5
4119
330
4006
100
AcDbEntity
  8
0
100
AcDbLine
 10
1513.005412167083
 20
688.3206511315503
 30
0.0
 11
1513.005412167083
 21
705.92065113155
 31
0.0
  0
LINE
  5
411A
330
4006
100
AcDbEntity
  8
0
100
AcDbLine
 10
1540.205412167083
 20
688.3206511315503
 30
0.0
 11
1540.205412167083
 21
705.9206511315502
 31
0.0
  0
LINE
  5
411B
330
4006
100
AcDbEntity
  8
0
100
AcDbLine
 10
1466.605412167083
 20
520.9206511315496
 30
0.0
 11
1586.605412167083
 21
520.9206511315498
 31
0.0
  0
LINE
  5
411C
330
4006
100
AcDbEntity
  8
0
100
AcDbLine
 10
1513.005412167083
 20
523.9206511315497
 30
0.0
 11
1540.205412167083
 21
523.9206511315494
 31
0.0
  0
LINE
  5
411D
330
4006
100
AcDbEntity
  8
0
100
AcDbLine
 10
1466.605412167083
 20
520.9206511315496
 30
0.0
 11
1466.605412167083
 21
500.9206511315496
 31
0.0
  0
LINE
  5
411E
330
4006
100
AcDbEntity
  8
0
100
AcDbLine
 10
1513.005412167083
 20
541.5696428327303
 30
0.0
 11
1513.005412167083
 21
523.9206511315497
 31
0.0
  0
LINE
  5
411F
330
4006
100
AcDbEntity
  8
0
100
AcDbLine
 10
1513.005412167083
 20
523.9206511315497
 30
0.0
 11
1510.005412167083
 21
520.9206511315498
 31
0.0
  0
LINE
  5
4120
330
4006
100
AcDbEntity
  8
0
100
AcDbLine
 10
1540.205412167083
 20
541.5696428327303
 30
0.0
 11
1540.205412167083
 21
523.9206511315494
 31
0.0
  0
LINE
  5
4121
330
4006
100
AcDbEntity
  8
0
100
AcDbLine
 10
1540.205412167082
 20
523.9206511315497
 30
0.0
 11
1543.205412167082
 21
520.9206511315498
 31
0.0
  0
LINE
  5
4122
330
4006
100
AcDbEntity
  8
0
100
AcDbLine
 10
1586.605412167083
 20
520.9206511315498
 30
0.0
 11
1586.605412167083
 21
500.9206511315496
 31
0.0
  0
LINE
  5
4123
330
4006
100
AcDbEntity
  8
0
100
AcDbLine
 10
1466.605412167083
 20
500.9206511315496
 30
0.0
 11
1526.605412167083
 21
500.9206511315496
 31
0.0
  0
LINE
  5
4124
330
4006
100
AcDbEntity
  8
0
100
AcDbLine
 10
1586.605412167083
 20
500.9206511315496
 30
0.0
 11
1526.605412167083
 21
500.9206511315496
 31
0.0
  0
LINE
  5
4125
330
4006
100
AcDbEntity
  8
0
100
AcDbLine
 10
1508.155412167083
 20
675.2206511315498
 30
0.0
 11
1545.055412167083
 21
675.2206511315498
 31
0.0
  0
ARC
  5
4126
330
4006
100
AcDbEntity
  8
0
100
AcDbCircle
 10
1528.623673047623
 20
586.7333754953883
 30
0.0
 40
90.0
100
AcDbArc
 50
60.38700076274477
 51
79.48022470884182
  0
ARC
  5
4127
330
4006
100
AcDbEntity
  8
0
100
AcDbCircle
 10
1565.684107380352
 20
651.9370886340554
 30
0.0
 40
15.0
100
AcDbArc
 50
359.9849723673819
 51
60.38700076274477
  0
LINE
  5
4128
330
4006
100
AcDbEntity
  8
0
100
AcDbLine
 10
1580.684106864415
 20
651.9331544090809
 30
0.0
 11
1580.684106864415
 21
577.9081478540209
 31
0.0
  0
ARC
  5
4129
330
4006
100
AcDbEntity
  8
0
100
AcDbCircle
 10
1528.623673047623
 20
643.1079267677119
 30
0.0
 40
90.0
100
AcDbArc
 50
280.519775291155
 51
299.6129992372585
  0
ARC
  5
412A
330
4006
100
AcDbEntity
  8
0
100
AcDbCircle
 10
1565.684107380352
 20
577.9042136290449
 30
0.0
 40
15.00000000000022
100
AcDbArc
 50
299.6129992372585
 51
0.0150276326241973
  0
ARC
  5
412B
330
4006
100
AcDbEntity
  8
0
100
AcDbCircle
 10
1487.526716953814
 20
651.9370886340554
 30
0.0
 40
15.0
100
AcDbArc
 50
119.6129992372515
 51
180.015027632618
  0
LINE
  5
412C
330
4006
100
AcDbEntity
  8
0
100
AcDbLine
 10
1472.526717469751
 20
651.9331544090809
 30
0.0
 11
1472.526717469751
 21
577.9081478540209
 31
0.0
  0
ARC
  5
412D
330
4006
100
AcDbEntity
  8
0
100
AcDbCircle
 10
1487.526716953814
 20
577.9042136290449
 30
0.0
 40
15.00000000000022
100
AcDbArc
 50
179.9849723673758
 51
240.3870007627457
  0
LINE
  5
412E
330
4006
100
AcDbEntity
  8
0
100
AcDbLine
 10
1508.155412167083
 20
675.2206511315498
 30
0.0
 11
1480.114630087269
 21
664.9778312617893
 31
0.0
  0
LINE
  5
412F
330
4006
100
AcDbEntity
  8
0
100
AcDbLine
 10
1508.155412167083
 20
554.6206511315504
 30
0.0
 11
1545.055412167083
 21
554.6206511315504
 31
0.0
  0
ARC
  5
4130
330
4006
100
AcDbEntity
  8
0
100
AcDbCircle
 10
1487.526716953814
 20
577.9042136290448
 30
0.0
 40
15.0
100
AcDbArc
 50
179.9849723673754
 51
240.3870007627453
  0
LINE
  5
4131
330
4006
100
AcDbEntity
  8
0
100
AcDbLine
 10
1508.155412167083
 20
554.6206511315504
 30
0.0
 11
1480.114630087269
 21
564.8634710013109
 31
0.0
  0
LINE
  5
4132
330
4006
100
AcDbEntity
  8
0
100
AcDbLine
 10
1319.097998908394
 20
1064.094033268454
 30
0.0
 11
1349.09799022982
 21
1064.116852434347
 31
0.0
  0
LINE
  5
4133
330
4006
100
AcDbEntity
  8
0
100
AcDbLine
 10
1313.936273519136
 20
1186.159555967337
 30
0.0
 11
1371.439791086468
 21
1186.159555967337
 31
0.0
  0
LINE
  5
4134
330
4006
100
AcDbEntity
  8
0
100
AcDbLine
 10
1313.876453853183
 20
1065.559555967336
 30
0.0
 11
1371.440791086468
 21
1065.559555967336
 31
0.0
  0
LINE
  5
4135
330
4006
100
AcDbEntity
  8
0
100
AcDbLine
 10
1319.097994569107
 20
1187.600641924711
 30
0.0
 11
1349.097994569107
 21
1187.600641924711
 31
0.0
  0
LINE
  5
4136
330
4006
100
AcDbEntity
  8
0
100
AcDbLine
 10
1349.09799022982
 20
1064.116852434347
 30
0.0
 11
1350.434457605416
 21
1065.558955377926
 31
0.0
  0
LINE
  5
4137
330
4006
100
AcDbEntity
  8
0
100
AcDbLine
 10
1349.097994569107
 20
1187.600641924711
 30
0.0
 11
1350.435558477626
 21
1186.159555967337
 31
0.0
  0
LINE
  5
4138
330
4006
100
AcDbEntity
  8
0
100
AcDbLine
 10
1299.026994569107
 20
1080.558800531408
 30
0.0
 11
1299.026994569107
 21
1171.159830313476
 31
0.0
  0
ARC
  5
4139
330
4006
100
AcDbEntity
  8
0
100
AcDbCircle
 10
1314.026994569107
 20
1080.558800531408
 30
0.0
 40
15.0
100
AcDbArc
 50
180.0
 51
269.4249671687579
  0
LINE
  5
413A
330
4006
100
AcDbEntity
  8
0
100
AcDbLine
 10
1319.097998908394
 20
1064.094033268454
 30
0.0
 11
1317.759339240829
 21
1065.534101405852
 31
0.0
  0
ARC
  5
413B
330
4006
100
AcDbEntity
  8
0
100
AcDbCircle
 10
1314.026994569107
 20
1171.159830313475
 30
0.0
 40
15.0
100
AcDbArc
 50
90.34653099766876
 51
180.0
  0
LINE
  5
413C
330
4006
100
AcDbEntity
  8
0
100
AcDbLine
 10
1319.097994569107
 20
1187.600641924711
 30
0.0
 11
1317.760430660588
 21
1186.159555967337
 31
0.0
  0
LINE
  5
413D
330
4006
100
AcDbEntity
  8
0
100
AcDbLine
 10
1319.097994569107
 20
1187.600641924712
 30
0.0
 11
1319.097994569107
 21
1197.859555967337
 31
0.0
  0
LINE
  5
413E
330
4006
100
AcDbEntity
  8
0
100
AcDbLine
 10
1349.097994569107
 20
1187.600641924712
 30
0.0
 11
1349.097994569107
 21
1197.859555967337
 31
0.0
  0
LINE
  5
413F
330
4006
100
AcDbEntity
  8
0
100
AcDbLine
 10
1349.097994569107
 20
1197.859555967337
 30
0.0
 11
1347.697994569107
 21
1199.259555967337
 31
0.0
  0
LINE
  5
4140
330
4006
100
AcDbEntity
  8
0
100
AcDbLine
 10
1349.097994569107
 20
1197.859555967337
 30
0.0
 11
1319.097994569107
 21
1197.859555967335
 31
0.0
  0
LINE
  5
4141
330
4006
100
AcDbEntity
  8
0
100
AcDbLine
 10
1347.697994569107
 20
1199.259555967337
 30
0.0
 11
1320.497994569107
 21
1199.259555967337
 31
0.0
  0
LINE
  5
4142
330
4006
100
AcDbEntity
  8
0
100
AcDbLine
 10
1319.097994569107
 20
1197.859555967337
 30
0.0
 11
1320.497994569107
 21
1199.259555967337
 31
0.0
  0
LINE
  5
4143
330
4006
100
AcDbEntity
  8
0
100
AcDbLine
 10
1349.097994569107
 20
1053.908547668517
 30
0.0
 11
1319.097994569107
 21
1053.90854766852
 31
0.0
  0
LINE
  5
4144
330
4006
100
AcDbEntity
  8
0
100
AcDbLine
 10
1349.097994569107
 20
1053.908547668517
 30
0.0
 11
1347.697994569107
 21
1052.508547668517
 31
0.0
  0
LINE
  5
4145
330
4006
100
AcDbEntity
  8
0
100
AcDbLine
 10
1349.097994569107
 20
1064.116857116615
 30
0.0
 11
1349.097994569107
 21
1053.908547668517
 31
0.0
  0
LINE
  5
4146
330
4006
100
AcDbEntity
  8
0
100
AcDbLine
 10
1347.697994569107
 20
1052.508547668517
 30
0.0
 11
1320.497994569107
 21
1052.508547668517
 31
0.0
  0
LINE
  5
4147
330
4006
100
AcDbEntity
  8
0
100
AcDbLine
 10
1319.097994569107
 20
1053.908547668517
 30
0.0
 11
1320.497994569107
 21
1052.508547668517
 31
0.0
  0
LINE
  5
4148
330
4006
100
AcDbEntity
  8
0
100
AcDbLine
 10
1319.097994569107
 20
1064.094037936458
 30
0.0
 11
1319.097994569107
 21
1053.908547668517
 31
0.0
  0
LINE
  5
4149
330
4006
100
AcDbEntity
  8
0
100
AcDbLine
 10
1347.697994569107
 20
1216.859555967337
 30
0.0
 11
1320.497994569107
 21
1216.859555967337
 31
0.0
  0
LINE
  5
414A
330
4006
100
AcDbEntity
  8
0
100
AcDbLine
 10
1394.097994569107
 20
1219.859555967337
 30
0.0
 11
1274.097994569107
 21
1219.859555967337
 31
0.0
  0
LINE
  5
414B
330
4006
100
AcDbEntity
  8
0
100
AcDbLine
 10
1274.097994569107
 20
1239.859555967337
 30
0.0
 11
1334.097994569107
 21
1239.859555967337
 31
0.0
  0
LINE
  5
414C
330
4006
100
AcDbEntity
  8
0
100
AcDbLine
 10
1394.097994569107
 20
1239.859555967337
 30
0.0
 11
1334.097994569107
 21
1239.859555967337
 31
0.0
  0
LINE
  5
414D
330
4006
100
AcDbEntity
  8
0
100
AcDbLine
 10
1394.097994569107
 20
1219.859555967337
 30
0.0
 11
1394.097994569107
 21
1239.859555967337
 31
0.0
  0
LINE
  5
414E
330
4006
100
AcDbEntity
  8
0
100
AcDbLine
 10
1347.697994569107
 20
1216.859555967337
 30
0.0
 11
1350.697994569107
 21
1219.859555967337
 31
0.0
  0
LINE
  5
414F
330
4006
100
AcDbEntity
  8
0
100
AcDbLine
 10
1320.497994569108
 20
1216.859555967337
 30
0.0
 11
1317.497994569108
 21
1219.859555967337
 31
0.0
  0
LINE
  5
4150
330
4006
100
AcDbEntity
  8
0
100
AcDbLine
 10
1274.097994569107
 20
1219.859555967337
 30
0.0
 11
1274.097994569107
 21
1239.859555967337
 31
0.0
  0
LINE
  5
4151
330
4006
100
AcDbEntity
  8
0
100
AcDbLine
 10
1347.697994569107
 20
1199.259555967337
 30
0.0
 11
1347.697994569107
 21
1216.859555967337
 31
0.0
  0
LINE
  5
4152
330
4006
100
AcDbEntity
  8
0
100
AcDbLine
 10
1320.497994569107
 20
1199.259555967337
 30
0.0
 11
1320.497994569107
 21
1216.859555967337
 31
0.0
  0
LINE
  5
4153
330
4006
100
AcDbEntity
  8
0
100
AcDbLine
 10
1394.097994569107
 20
1031.859555967336
 30
0.0
 11
1274.097994569107
 21
1031.859555967336
 31
0.0
  0
LINE
  5
4154
330
4006
100
AcDbEntity
  8
0
100
AcDbLine
 10
1347.697994569107
 20
1034.859555967337
 30
0.0
 11
1320.497994569107
 21
1034.859555967336
 31
0.0
  0
LINE
  5
4155
330
4006
100
AcDbEntity
  8
0
100
AcDbLine
 10
1394.097994569107
 20
1031.859555967336
 30
0.0
 11
1394.097994569107
 21
1011.859555967337
 31
0.0
  0
LINE
  5
4156
330
4006
100
AcDbEntity
  8
0
100
AcDbLine
 10
1347.697994569107
 20
1052.508547668517
 30
0.0
 11
1347.697994569107
 21
1034.859555967337
 31
0.0
  0
LINE
  5
4157
330
4006
100
AcDbEntity
  8
0
100
AcDbLine
 10
1347.697994569107
 20
1034.859555967337
 30
0.0
 11
1350.697994569107
 21
1031.859555967336
 31
0.0
  0
LINE
  5
4158
330
4006
100
AcDbEntity
  8
0
100
AcDbLine
 10
1320.497994569107
 20
1052.508547668517
 30
0.0
 11
1320.497994569107
 21
1034.859555967336
 31
0.0
  0
LINE
  5
4159
330
4006
100
AcDbEntity
  8
0
100
AcDbLine
 10
1320.497994569108
 20
1034.859555967337
 30
0.0
 11
1317.497994569108
 21
1031.859555967336
 31
0.0
  0
LINE
  5
415A
330
4006
100
AcDbEntity
  8
0
100
AcDbLine
 10
1274.097994569107
 20
1031.859555967336
 30
0.0
 11
1274.097994569107
 21
1011.859555967337
 31
0.0
  0
LINE
  5
415B
330
4006
100
AcDbEntity
  8
0
100
AcDbLine
 10
1394.097994569107
 20
1011.859555967337
 30
0.0
 11
1334.097994569107
 21
1011.859555967337
 31
0.0
  0
LINE
  5
415C
330
4006
100
AcDbEntity
  8
0
100
AcDbLine
 10
1274.097994569107
 20
1011.859555967337
 30
0.0
 11
1334.097994569107
 21
1011.859555967337
 31
0.0
  0
ARC
  5
415D
330
4006
100
AcDbEntity
  8
0
100
AcDbCircle
 10
1371.416028368437
 20
1080.559562199863
 30
0.0
 40
15.0
100
AcDbArc
 50
269.9699447347592
 51
314.9699447347707
  0
LINE
  5
415E
330
4006
100
AcDbEntity
  8
0
100
AcDbLine
 10
1382.017064792819
 20
1069.94739810723
 30
0.0
 11
1403.3862282816
 21
1091.294154388582
 31
0.0
  0
ARC
  5
415F
330
4006
100
AcDbEntity
  8
0
100
AcDbCircle
 10
1394.552031261282
 20
1100.137624465775
 30
0.0
 40
12.5
100
AcDbArc
 50
314.9699447347694
 51
359.9849723673786
  0
ARC
  5
4160
330
4006
100
AcDbEntity
  8
0
100
AcDbCircle
 10
1371.416028368437
 20
1171.15954973481
 30
0.0
 40
15.0
100
AcDbArc
 50
45.03005526522901
 51
90.03005526524084
  0
LINE
  5
4161
330
4006
100
AcDbEntity
  8
0
100
AcDbLine
 10
1382.017064792819
 20
1181.771713827443
 30
0.0
 11
1403.3862282816
 21
1160.424957546091
 31
0.0
  0
ARC
  5
4162
330
4006
100
AcDbEntity
  8
0
100
AcDbCircle
 10
1394.552031261282
 20
1151.581487468898
 30
0.0
 40
12.5
100
AcDbArc
 50
0.0150276326246252
 51
45.03005526522911
  0
LINE
  5
4163
330
4006
100
AcDbEntity
  8
0
100
AcDbLine
 10
1407.052030831335
 20
1151.584765989711
 30
0.0
 11
1407.052030831335
 21
1100.134345944963
 31
0.0
  0
VIEWPORT
  5
41
102
{ACAD_XDICTIONARY
360
42C6
102
}
330
4002
100
AcDbEntity
 67
     1
  8
0
100
AcDbViewport
 10
117.358407079646
 20
73.5
 30
0.0
 40
234.716814159292
 41
147.0
 68
     1
 69
     1
 12
117.358407079646
 22
73.5
 13
0.0
 23
0.0
 14
1.0
 24
1.0
 15
0.0
 25
0.0
 16
0.0
 26
0.0
 36
1.0
 17
0.0
 27
0.0
 37
0.0
 42
50.0
 43
0.0
 44
0.0
 45
147.0
 50
0.0
 51
0.0
 72
   100
 90
    32800
  1

281
     0
 71
     0
 74
     0
110
0.0
120
0.0
130
0.0
111
1.0
121
0.0
131
0.0
112
0.0
122
1.0
132
0.0
 79
     0
146
0.0
1001
GENIUS_GENSCREG_15
1000
PF
1040
1.0
1000
DF
1040
1.0
1000
MIN
1011
0.0
1021
0.0
1031
0.0
1000
MAX
1011
234.716814159292
1021
147.0
1031
0.0
1000
FLAGS
1070
     4
1001
GENIUS_GENOBJ-N-SDF_13
1002
{
1000
OWNER
1000
GEN
1002
}
1001
GENIUS_GENODEF_13
1002
{
1000
HIER
1070
     0
1002
}
1002
{
1000
MANEDIT
1070
     0
1002
}
1002
{
1000
NOSEL
1070
     0
1002
}
1002
{
1000
BEHIND
1070
     0
1002
}
1002
{
1000
OTHER
1070
     0
1002
}
1002
{
1000
REACTOR
1002
}
  0
ENDSEC
  0
SECTION
  2
OBJECTS
  0
DICTIONARY
  5
3FA3
330
0
100
AcDbDictionary
281
     1
  3
ACAD_CIP_PREVIOUS_PRODUCT_INFO
350
401B
  3
ACAD_COLOR
350
3FF9
  3
ACAD_DETAILVIEWSTYLE
350
4000
  3
ACAD_FIELDLIST
350
4083
  3
ACAD_GROUP
350
3FA4
  3
ACAD_LAYOUT
350
3FF8
  3
ACAD_MATERIAL
350
3FA7
  3
ACAD_MLEADERSTYLE
350
3FFC
  3
ACAD_MLINESTYLE
350
3FF5
  3
ACAD_PLOTSETTINGS
350
3FF7
  3
ACAD_PLOTSTYLENAME
350
3FA5
  3
ACAD_SCALELIST
350
3FD9
  3
ACAD_SECTIONVIEWSTYLE
350
3FFE
  3
ACAD_TABLESTYLE
350
3FFA
  3
ACAD_VISUALSTYLE
350
3FC0
  3
ACDB_RECOMPOSE_DATA
350
42BC
  3
AcDbVariableDictionary
350
4238
  3
AcDsDecomposeData
350
42C3
  3
AcmDictionary
350
4048
  3
AMG
350
401C
  3
AMGSNAPSETTINGS
350
4098
  3
DWGPROPS
350
42BD
  0
DICTIONARY
  5
4200
330
3FEB
100
AcDbDictionary
280
     1
281
     1
  3
ADSK_XREC_LAYER_RECONCILED
360
4201
  0
DICTIONARY
  5
40AA
330
4006
100
AcDbDictionary
280
     1
281
     1
  3
ACAD_SORTENTS
360
40AB
  0
DICTIONARY
  5
42C6
330
41
100
AcDbDictionary
280
     1
281
     1
  3
ACAD_XREC_ROUNDTRIP
360
42C7
  0
XRECORD
  5
401B
102
{ACAD_REACTORS
330
3FA3
102
}
330
3FA3
100
AcDbXrecord
280
     1
300
AMECH_PP
300
2015
300
PDSU_F_S
  0
DICTIONARY
  5
3FF9
102
{ACAD_REACTORS
330
3FA3
102
}
330
3FA3
100
AcDbDictionary
281
     1
  0
DICTIONARY
  5
4000
102
{ACAD_REACTORS
330
3FA3
102
}
330
3FA3
100
AcDbDictionary
281
     1
  3
Imperial24
350
4001
  0
FIELDLIST
  5
4083
102
{ACAD_REACTORS
330
3FA3
102
}
330
3FA3
100
AcDbIdSet
 90
       16
330
4081
330
4082
330
4084
330
4085
330
4089
330
408A
330
408B
330
408C
330
425B
330
425C
330
425D
330
425E
330
4262
330
4263
330
4264
330
4265
100
AcDbFieldList
  0
DICTIONARY
  5
3FA4
102
{ACAD_REACTORS
330
3FA3
102
}
330
3FA3
100
AcDbDictionary
281
     1
  0
DICTIONARY
  5
3FF8
102
{ACAD_REACTORS
330
3FA3
102
}
330
3FA3
100
AcDbDictionary
281
     1
  3
Model
350
4009
  3
レイアウト1
350
4005
  0
DICTIONARY
  5
3FA7
102
{ACAD_REACTORS
330
3FA3
102
}
330
3FA3
100
AcDbDictionary
281
     1
  3
ByBlock
350
3FB0
  3
ByLayer
350
3FA8
  3
Global
350
3FB8
  0
DICTIONARY
  5
3FFC
102
{ACAD_REACTORS
330
3FA3
102
}
330
3FA3
100
AcDbDictionary
281
     1
  3
Standard
350
3FFD
  0
DICTIONARY
  5
3FF5
102
{ACAD_REACTORS
330
3FA3
102
}
330
3FA3
100
AcDbDictionary
281
     1
  3
Standard
350
3FF6
  0
DICTIONARY
  5
3FF7
102
{ACAD_REACTORS
330
3FA3
102
}
330
3FA3
100
AcDbDictionary
281
     1
  0
ACDBDICTIONARYWDFLT
  5
3FA5
102
{ACAD_REACTORS
330
3FA3
102
}
330
3FA3
100
AcDbDictionary
281
     1
  3
Normal
350
3FA6
100
AcDbDictionaryWithDefault
340
3FA6
  0
DICTIONARY
  5
3FD9
102
{ACAD_REACTORS
330
3FA3
102
}
330
3FA3
100
AcDbDictionary
281
     1
  3
A0
350
3FDA
  3
A1
350
3FDB
  3
A2
350
3FDC
  3
A3
350
3FDD
  3
A4
350
3FDE
  3
A5
350
3FDF
  3
A6
350
3FE0
  3
A7
350
3FE1
  3
A8
350
3FE2
  3
A9
350
3FE3
  3
B0
350
3FE4
  3
B1
350
3FE5
  3
B2
350
3FE6
  3
B3
350
3FE7
  3
B4
350
3FE8
  3
B5
350
3FE9
  3
B6
350
3FEA
  0
DICTIONARY
  5
3FFE
102
{ACAD_REACTORS
330
3FA3
102
}
330
3FA3
100
AcDbDictionary
281
     1
  3
Imperial24
350
3FFF
  0
DICTIONARY
  5
3FFA
102
{ACAD_REACTORS
330
3FA3
102
}
330
3FA3
100
AcDbDictionary
281
     1
  3
Standard
350
3FFB
  0
DICTIONARY
  5
3FC0
102
{ACAD_REACTORS
330
3FA3
102
}
330
3FA3
100
AcDbDictionary
281
     1
  3
2dWireframe
350
3FC6
  3
Basic
350
3FC5
  3
Brighten
350
3FCC
  3
ColorChange
350
3FD0
  3
Conceptual
350
3FC9
  3
Dim
350
3FCB
  3
EdgeColorOff
350
3FD8
  3
Facepattern
350
3FCF
  3
Flat
350
3FC1
  3
FlatWithEdges
350
3FC2
  3
Gouraud
350
3FC3
  3
GouraudWithEdges
350
3FC4
  3
Hidden
350
3FC8
  3
JitterOff
350
3FD6
  3
Linepattern
350
3FCE
  3
OverhangOff
350
3FD7
  3
Realistic
350
3FCA
  3
Shaded
350
3FD5
  3
Shaded with edges
350
3FD4
  3
Shades of Gray
350
3FD1
  3
Sketchy
350
3FD2
  3
Thicken
350
3FCD
  3
Wireframe
350
3FC7
  3
X-Ray
350
3FD3
  0
XRECORD
  5
42BC
102
{ACAD_REACTORS
330
3FA3
102
}
330
3FA3
100
AcDbXrecord
280
     1
 90
        1
330
3FFB
  0
DICTIONARY
  5
4238
102
{ACAD_REACTORS
330
3FA3
102
}
330
3FA3
100
AcDbDictionary
281
     1
  3
CANNOSCALE
350
423E
  3
CMLEADERSTYLE
350
423A
  3
CTABLESTYLE
350
4239
  3
CVIEWDETAILSTYLE
350
423B
  3
CVIEWSECTIONSTYLE
350
423C
  3
DIMASSOC
350
42B6
  3
INDEXCTL
350
42B5
  3
LAYEREVAL
350
4240
  3
LAYERNOTIFY
350
4241
  3
LIGHTINGUNITS
350
423F
  3
MSLTSCALE
350
423D
  3
SORTENTS
350
42B4
  3
XCLIPFRAME
350
42B7
  0
DICTIONARY
  5
42C3
102
{ACAD_REACTORS
330
3FA3
102
}
330
3FA3
100
AcDbDictionary
281
     1
  3
AcDsRecords
350
42C5
  3
AcDsSchemas
350
42C4
1001
ACAD
1070
     2
  0
DICTIONARY
  5
4048
102
{ACAD_REACTORS
330
3FA3
102
}
330
3FA3
100
AcDbDictionary
281
     1
  3
AcmStdDictionary
350
4051
  0
DICTIONARY
  5
401C
102
{ACAD_REACTORS
330
3FA3
102
}
330
3FA3
100
AcDbDictionary
281
     1
  3
AcMgSettings
350
401D
  0
DICTIONARY
  5
4098
102
{ACAD_REACTORS
330
3FA3
102
}
330
3FA3
100
AcDbDictionary
281
     1
  3
FEA
350
409C
  3
ハッチング(1)
350
4099
  3
ハッチング(2)
350
409A
  3
寸法
350
409D
  3
簡易溶接
350
409E
  3
記号
350
409B
  0
XRECORD
  5
42BD
102
{ACAD_REACTORS
330
3FA3
102
}
330
3FA3
100
AcDbXrecord
280
     1
  1
DWGPROPS COOKIE
  2

  3

  4

  6

  7

  8
nakaot
  9

300
=
301
=
302
=
303
=
304
=
305
=
306
=
307
=
308
=
309
=
 40
0.1745815625
 41
2451564.683827847
 42
2458253.642102627
  1

 90
        0
  0
XRECORD
  5
4201
102
{ACAD_REACTORS
330
4200
102
}
330
4200
100
AcDbXrecord
280
     1
290
     1
  0
SORTENTSTABLE
  5
40AB
102
{ACAD_REACTORS
330
40AA
102
}
330
40AA
100
AcDbSortentsTable
330
4006
331
383F
  5
383F
331
3906
  5
3906
331
3985
  5
3985
331
383B
  5
383B
331
3902
  5
3902
331
3981
  5
3981
331
397D
  5
397D
331
3837
  5
3837
331
38FE
  5
38FE
331
3778
  5
3778
331
3979
  5
3979
331
2F67
  5
2F67
331
3774
  5
3774
331
3833
  5
3833
331
2F04
  5
2F04
331
2F63
  5
2F63
331
3770
  5
3770
331
2F00
  5
2F00
331
32C1
  5
32C1
331
2EFC
  5
2EFC
331
2F9A
  5
2F9A
331
2BA9
  5
2BA9
331
2B9D
  5
2B9D
331
2C65
  5
2C65
331
2BE7
  5
2BE7
331
367D
  5
367D
331
3708
  5
3708
331
3679
  5
3679
331
34C2
  5
34C2
331
3704
  5
3704
331
3651
  5
3651
331
3DBF
  5
3DBF
331
38F6
  5
38F6
331
3975
  5
3975
331
3813
  5
3813
331
376C
  5
376C
331
38C6
  5
38C6
331
380F
  5
380F
331
38C2
  5
38C2
331
380B
  5
380B
331
2F4F
  5
2F4F
331
3734
  5
3734
331
3299
  5
3299
331
2EF4
  5
2EF4
331
2F4B
  5
2F4B
331
2EF0
  5
2EF0
331
2F8E
  5
2F8E
331
2B95
  5
2B95
331
2F8A
  5
2F8A
331
2C1E
  5
2C1E
331
2B8D
  5
2B8D
331
2CC8
  5
2CC8
331
2BCF
  5
2BCF
331
2C55
  5
2C55
331
33A7
  5
33A7
331
34AE
  5
34AE
331
3639
  5
3639
331
3585
  5
3585
331
349E
  5
349E
331
39BC
  5
39BC
331
36F0
  5
36F0
331
39B8
  5
39B8
331
39B4
  5
39B4
331
39B0
  5
39B0
331
3807
  5
3807
331
3955
  5
3955
331
3803
  5
3803
331
3951
  5
3951
331
39AC
  5
39AC
331
38BE
  5
38BE
331
394D
  5
394D
331
3949
  5
3949
331
38BA
  5
38BA
331
39A8
  5
39A8
331
37E3
  5
37E3
331
2F27
  5
2F27
331
2F23
  5
2F23
331
2F1F
  5
2F1F
331
3245
  5
3245
331
3390
  5
3390
331
2B85
  5
2B85
331
2F1B
  5
2F1B
331
2B81
  5
2B81
331
2EC7
  5
2EC7
331
2BC0
  5
2BC0
331
2C06
  5
2C06
331
2CB4
  5
2CB4
331
2C02
  5
2C02
331
36BC
  5
36BC
331
348A
  5
348A
331
36B4
  5
36B4
331
3501
  5
3501
331
3945
  5
3945
331
38B6
  5
38B6
331
39A4
  5
39A4
331
37DF
  5
37DF
331
37DB
  5
37DB
331
37D7
  5
37D7
331
3909
  5
3909
331
3988
  5
3988
331
37D3
  5
37D3
331
2F7A
  5
2F7A
331
2F6E
  5
2F6E
331
2F0F
  5
2F0F
331
320D
  5
320D
331
2F6A
  5
2F6A
331
32D8
  5
32D8
331
2B75
  5
2B75
331
2BFE
  5
2BFE
331
2BB8
  5
2BB8
331
2BB4
  5
2BB4
331
2CA8
  5
2CA8
331
2CF3
  5
2CF3
331
2C31
  5
2C31
331
2BF2
  5
2BF2
331
40B7
  5
40B9
331
34FD
  5
34FD
331
3723
  5
3723
331
40AF
  5
40B2
331
3688
  5
3688
331
3713
  5
3713
331
34F5
  5
34F5
331
3905
  5
3905
331
3984
  5
3984
331
383A
  5
383A
331
3901
  5
3901
331
3980
  5
3980
331
397C
  5
397C
331
3777
  5
3777
331
3836
  5
3836
331
38FD
  5
38FD
331
38F9
  5
38F9
331
3978
  5
3978
331
2F07
  5
2F07
331
2F66
  5
2F66
331
3773
  5
3773
331
3832
  5
3832
331
32C8
  5
32C8
331
2F03
  5
2F03
331
32C4
  5
32C4
331
2EFF
  5
2EFF
331
2F52
  5
2F52
331
32C0
  5
32C0
331
2EFB
  5
2EFB
331
2529
  5
2529
331
2B9C
  5
2B9C
331
2C64
  5
2C64
331
2C25
  5
2C25
331
3456
  5
3456
331
3678
  5
3678
331
3703
  5
3703
331
3650
  5
3650
331
3974
  5
3974
331
376B
  5
376B
331
38C5
  5
38C5
331
3958
  5
3958
331
38C1
  5
38C1
331
380A
  5
380A
331
2F4E
  5
2F4E
331
3733
  5
3733
331
2F91
  5
2F91
331
2F4A
  5
2F4A
331
2EEF
  5
2EEF
331
2F8D
  5
2F8D
331
3260
  5
3260
331
2B94
  5
2B94
331
2F42
  5
2F42
331
2C5C
  5
2C5C
331
2B8C
  5
2B8C
331
2C15
  5
2C15
331
36FF
  5
36FF
331
34A9
  5
34A9
331
3584
  5
3584
331
39BF
  5
39BF
331
39B7
  5
39B7
331
39B3
  5
39B3
331
3806
  5
3806
331
3954
  5
3954
331
3802
  5
3802
331
3950
  5
3950
331
39AF
  5
39AF
331
39AB
  5
39AB
331
38BD
  5
38BD
331
394C
  5
394C
331
3948
  5
3948
331
38B9
  5
38B9
331
2F26
  5
2F26
331
2F22
  5
2F22
331
2F85
  5
2F85
331
2F1E
  5
2F1E
331
2B84
  5
2B84
331
2F1A
  5
2F1A
331
2C0D
  5
2C0D
331
2B80
  5
2B80
331
2EC6
  5
2EC6
331
2BC3
  5
2BC3
331
2CB3
  5
2CB3
331
2C48
  5
2C48
331
2C01
  5
2C01
331
36B7
  5
36B7
331
3485
  5
3485
331
36B3
  5
36B3
331
39A7
  5
39A7
331
3944
  5
3944
331
38B5
  5
38B5
331
39A3
  5
39A3
331
37DA
  5
37DA
331
338F
  5
338F
331
37D6
  5
37D6
331
3845
  5
3845
331
3841
  5
3841
331
3908
  5
3908
331
2F7D
  5
2F7D
331
37D2
  5
37D2
331
3238
  5
3238
331
2F6D
  5
2F6D
331
2BBF
  5
2BBF
331
2F69
  5
2F69
331
2BB7
  5
2BB7
331
2BB3
  5
2BB3
331
2CA7
  5
2CA7
331
2CF2
  5
2CF2
331
2BF5
  5
2BF5
331
2C30
  5
2C30
331
40B6
  5
40B8
331
3475
  5
3475
331
34FC
  5
34FC
331
40B2
  5
40B7
331
3722
  5
3722
331
3716
  5
3716
331
3687
  5
3687
331
34F8
  5
34F8
331
3712
  5
3712
331
345D
  5
345D
331
3683
  5
3683
331
3987
  5
3987
331
383D
  5
383D
331
3904
  5
3904
331
3983
  5
3983
331
3839
  5
3839
331
3900
  5
3900
331
397F
  5
397F
331
397B
  5
397B
331
3776
  5
3776
331
3835
  5
3835
331
38FC
  5
38FC
331
3831
  5
3831
331
38F8
  5
38F8
331
2F06
  5
2F06
331
2F65
  5
2F65
331
3772
  5
3772
331
2F02
  5
2F02
331
3200
  5
3200
331
32C3
  5
32C3
331
2EFE
  5
2EFE
331
2F9C
  5
2F9C
331
2F51
  5
2F51
331
2BAB
  5
2BAB
331
2CEA
  5
2CEA
331
2C28
  5
2C28
331
2BE9
  5
2BE9
331
2CE2
  5
2CE2
331
3702
  5
3702
331
3653
  5
3653
331
33AD
  5
33AD
331
34BC
  5
34BC
331
3DC1
  5
3DC1
331
3977
  5
3977
331
3815
  5
3815
331
3973
  5
3973
331
376E
  5
376E
331
376A
  5
376A
331
3811
  5
3811
331
38C4
  5
38C4
331
380D
  5
380D
331
3736
  5
3736
331
38C0
  5
38C0
331
3732
  5
3732
331
3809
  5
3809
331
2F90
  5
2F90
331
2F8C
  5
2F8C
331
2F88
  5
2F88
331
2C1C
  5
2C1C
331
2B8B
  5
2B8B
331
2C14
  5
2C14
331
33A5
  5
33A5
331
36F6
  5
36F6
331
39BE
  5
39BE
331
36F2
  5
36F2
331
3498
  5
3498
331
39B6
  5
39B6
331
39B2
  5
39B2
331
3957
  5
3957
331
3805
  5
3805
331
3953
  5
3953
331
3801
  5
3801
331
394F
  5
394F
331
39AE
  5
39AE
331
394B
  5
394B
331
38BC
  5
38BC
331
39AA
  5
39AA
331
37E5
  5
37E5
331
38B8
  5
38B8
331
2F25
  5
2F25
331
3253
  5
3253
331
37E1
  5
37E1
331
3396
  5
3396
331
2F21
  5
2F21
331
3392
  5
3392
331
2F1D
  5
2F1D
331
2B83
  5
2B83
331
2CBE
  5
2CBE
331
2F19
  5
2F19
331
2B7F
  5
2B7F
331
2B7B
  5
2B7B
331
2CB6
  5
2CB6
331
2BC2
  5
2BC2
331
2CB2
  5
2CB2
331
2C00
  5
2C00
331
40B9
  5
40BB
331
3503
  5
3503
331
3947
  5
3947
331
39A6
  5
39A6
331
3943
  5
3943
331
37DD
  5
37DD
331
38B4
  5
38B4
331
37D9
  5
37D9
331
338E
  5
338E
331
37D5
  5
37D5
331
3844
  5
3844
331
390B
  5
390B
331
3840
  5
3840
331
2F15
  5
2F15
331
2F7C
  5
2F7C
331
37D1
  5
37D1
331
2F11
  5
2F11
331
2F6C
  5
2F6C
331
2F68
  5
2F68
331
2C3F
  5
2C3F
331
2F09
  5
2F09
331
2BB6
  5
2BB6
331
2C3B
  5
2C3B
331
2D01
  5
2D01
331
2563
  5
2563
331
2BB2
  5
2BB2
331
2CA6
  5
2CA6
331
2BF8
  5
2BF8
331
2CF5
  5
2CF5
331
2CF1
  5
2CF1
331
2BF0
  5
2BF0
331
34FB
  5
34FB
331
3715
  5
3715
331
3686
  5
3686
331
3470
  5
3470
331
34F7
  5
34F7
331
3711
  5
3711
331
3907
  5
3907
331
3986
  5
3986
331
383C
  5
383C
331
3903
  5
3903
331
3982
  5
3982
331
38FF
  5
38FF
331
397E
  5
397E
331
397A
  5
397A
331
38FB
  5
38FB
331
3830
  5
3830
331
2F05
  5
2F05
331
2F64
  5
2F64
331
3771
  5
3771
331
2F01
  5
2F01
331
2EFD
  5
2EFD
331
2F9B
  5
2F9B
331
2C96
  5
2C96
331
2F50
  5
2F50
331
2B9E
  5
2B9E
331
2CE9
  5
2CE9
331
2C27
  5
2C27
331
2BE0
  5
2BE0
331
367E
  5
367E
331
367A
  5
367A
331
33AC
  5
33AC
331
3DC0
  5
3DC0
331
33A8
  5
33A8
331
38F7
  5
38F7
331
3976
  5
3976
331
3814
  5
3814
331
38F3
  5
38F3
331
376D
  5
376D
331
3769
  5
3769
331
3810
  5
3810
331
38C3
  5
38C3
331
380C
  5
380C
331
3735
  5
3735
331
3731
  5
3731
331
2F8F
  5
2F8F
331
2F44
  5
2F44
331
2F8B
  5
2F8B
331
2C5E
  5
2C5E
331
2BD8
  5
2BD8
331
2C56
  5
2C56
331
2CC1
  5
2CC1
331
2C52
  5
2C52
331
2BCC
  5
2BCC
331
33A4
  5
33A4
331
39BD
  5
39BD
331
36F1
  5
36F1
331
39B9
  5
39B9
331
3398
  5
3398
331
39B5
  5
39B5
331
39B1
  5
39B1
331
3956
  5
3956
331
3952
  5
3952
331
39AD
  5
39AD
331
394E
  5
394E
331
3800
  5
3800
331
38BF
  5
38BF
331
394A
  5
394A
331
38BB
  5
38BB
331
39A9
  5
39A9
331
37E4
  5
37E4
331
2F24
  5
2F24
331
37E0
  5
37E0
331
2F20
  5
2F20
331
2F1C
  5
2F1C
331
2B82
  5
2B82
331
2B7E
  5
2B7E
331
2CB9
  5
2CB9
331
2BC1
  5
2BC1
331
2CB5
  5
2CB5
331
2CB1
  5
2CB1
331
2C4A
  5
2C4A
331
36BD
  5
36BD
331
3728
  5
3728
331
3502
  5
3502
331
40B8
  5
40BA
331
3946
  5
3946
331
38B7
  5
38B7
331
39A5
  5
39A5
331
37DC
  5
37DC
331
38B3
  5
38B3
331
390A
  5
390A
331
3843
  5
3843
331
2F7B
  5
2F7B
331
37D0
  5
37D0
331
2F10
  5
2F10
331
2F6F
  5
2F6F
331
2F6B
  5
2F6B
331
2CAD
  5
2CAD
331
2BFF
  5
2BFF
331
2F08
  5
2F08
331
2BB5
  5
2BB5
331
2C3A
  5
2C3A
331
2CF4
  5
2CF4
331
2CA5
  5
2CA5
331
2C32
  5
2C32
331
2BF3
  5
2BF3
331
3724
  5
3724
331
40B0
  5
40B6
331
3689
  5
3689
331
34FA
  5
34FA
331
3714
  5
3714
  0
XRECORD
  5
42C7
102
{ACAD_REACTORS
330
42C6
102
}
330
42C6
100
AcDbXrecord
280
     1
102
SHADEPLOT
 70
     0
  0
ACDBDETAILVIEWSTYLE
  5
4001
102
{ACAD_XDICTIONARY
360
42FE
102
}
102
{ACAD_REACTORS
330
4000
330
4257
102
}
330
4000
100
AcDbModelDocViewStyle
 70
     0
  3
Imperial24
290
     0
100
AcDbDetailViewStyle
 70
     0
 71
     0
 90
        3
 71
     1
340
3FEC
 40
0.24
340
0
 40
0.24
300

 40
0.36
280
     3
 71
     2
340
3FF3
 90
       25
 71
     3
340
3FEC
 40
0.24
 90
        1
 40
0.75
 90
        1
300
%<\AcVar ViewType \f "%tc1">% %<\AcVar ViewDetailId>%\PSCALE %<\AcVar ViewScale \f "%sn">%
 71
     4
340
3FF3
 90
       25
340
3FF3
 90
       25
280
     0
  0
LAYOUT
  5
4009
102
{ACAD_XDICTIONARY
360
4302
102
}
102
{ACAD_REACTORS
330
3FF8
102
}
330
3FF8
100
AcDbPlotSettings
  1

  2
Adobe PDF
  4

  6

 40
0.0
 41
0.0
 42
0.0
 43
0.0
 44
0.0
 45
0.0
 46
0.0
 47
0.0
 48
0.0
 49
0.0
140
0.0
141
0.0
142
1.0
143
1.0
 70
  1712
 72
     0
 73
     0
 74
     0
  7

 75
     0
147
1.0
148
0.0
149
0.0
100
AcDbLayout
  1
Model
 70
     1
 71
     0
 10
0.0
 20
0.0
 11
12.0
 21
9.0
 12
0.0
 22
0.0
 32
0.0
 14
0.0
 24
0.0
 34
0.0
 15
0.0
 25
0.0
 35
0.0
146
0.0
 13
0.0
 23
0.0
 33
0.0
 16
1.0
 26
0.0
 36
0.0
 17
0.0
 27
1.0
 37
0.0
 76
     0
330
4006
331
400A
  0
LAYOUT
  5
4005
102
{ACAD_XDICTIONARY
360
4300
102
}
102
{ACAD_REACTORS
330
3FF8
102
}
330
3FF8
100
AcDbPlotSettings
  1

  2
Adobe PDF
  4

  6

 40
0.0
 41
0.0
 42
0.0
 43
0.0
 44
0.0
 45
0.0
 46
0.0
 47
0.0
 48
0.0
 49
0.0
140
0.0
141
0.0
142
1.0
143
1.0
 70
   688
 72
     0
 73
     0
 74
     5
  7

 75
    16
147
1.0
148
0.0
149
0.0
100
AcDbLayout
  1
レイアウト1
 70
     1
 71
     1
 10
0.0
 20
0.0
 11
20.0
 21
147.0
 12
0.0
 22
0.0
 32
0.0
 14
1.000000000000000E+20
 24
1.000000000000000E+20
 34
1.000000000000000E+20
 15
-1.000000000000000E+20
 25
-1.000000000000000E+20
 35
-1.000000000000000E+20
146
0.0
 13
0.0
 23
0.0
 33
0.0
 16
1.0
 26
0.0
 36
0.0
 17
0.0
 27
1.0
 37
0.0
 76
     0
330
4002
331
41
  0
MATERIAL
  5
3FB0
102
{ACAD_XDICTIONARY
360
3FB1
102
}
102
{ACAD_REACTORS
330
3FA7
102
}
330
3FA7
100
AcDbMaterial
  1
ByBlock
 72
     0
 43
0.0208333333333333
 43
0.0
 43
0.0
 43
0.0
 43
0.0
 43
0.0208333333333333
 43
0.0
 43
0.0
 43
0.0
 43
0.0
 43
1.0
 43
0.0
 43
0.0
 43
0.0
 43
0.0
 43
1.0
 77
     0
 47
0.0208333333333333
 47
0.0
 47
0.0
 47
0.0
 47
0.0
 47
0.0208333333333333
 47
0.0
 47
0.0
 47
0.0
 47
0.0
 47
1.0
 47
0.0
 47
0.0
 47
0.0
 47
0.0
 47
1.0
171
     0
 49
0.0208333333333333
 49
0.0
 49
0.0
 49
0.0
 49
0.0
 49
0.0208333333333333
 49
0.0
 49
0.0
 49
0.0
 49
0.0
 49
1.0
 49
0.0
 49
0.0
 49
0.0
 49
0.0
 49
1.0
175
     0
142
0.0208333333333333
142
0.0
142
0.0
142
0.0
142
0.0
142
0.0208333333333333
142
0.0
142
0.0
142
0.0
142
0.0
142
1.0
142
0.0
142
0.0
142
0.0
142
0.0
142
1.0
179
     0
144
0.0208333333333333
144
0.0
144
0.0
144
0.0
144
0.0
144
0.0208333333333333
144
0.0
144
0.0
144
0.0
144
0.0
144
1.0
144
0.0
144
0.0
144
0.0
144
0.0
144
1.0
147
0.0208333333333333
147
0.0
147
0.0
147
0.0
147
0.0
147
0.0208333333333333
147
0.0
147
0.0
147
0.0
147
0.0
147
1.0
147
0.0
147
0.0
147
0.0
147
0.0
147
1.0
  0
MATERIAL
  5
3FA8
102
{ACAD_XDICTIONARY
360
3FA9
102
}
102
{ACAD_REACTORS
330
3FA7
102
}
330
3FA7
100
AcDbMaterial
  1
ByLayer
 72
     0
 43
0.0208333333333333
 43
0.0
 43
0.0
 43
0.0
 43
0.0
 43
0.0208333333333333
 43
0.0
 43
0.0
 43
0.0
 43
0.0
 43
1.0
 43
0.0
 43
0.0
 43
0.0
 43
0.0
 43
1.0
 77
     0
 47
0.0208333333333333
 47
0.0
 47
0.0
 47
0.0
 47
0.0
 47
0.0208333333333333
 47
0.0
 47
0.0
 47
0.0
 47
0.0
 47
1.0
 47
0.0
 47
0.0
 47
0.0
 47
0.0
 47
1.0
171
     0
 49
0.0208333333333333
 49
0.0
 49
0.0
 49
0.0
 49
0.0
 49
0.0208333333333333
 49
0.0
 49
0.0
 49
0.0
 49
0.0
 49
1.0
 49
0.0
 49
0.0
 49
0.0
 49
0.0
 49
1.0
175
     0
142
0.0208333333333333
142
0.0
142
0.0
142
0.0
142
0.0
142
0.0208333333333333
142
0.0
142
0.0
142
0.0
142
0.0
142
1.0
142
0.0
142
0.0
142
0.0
142
0.0
142
1.0
179
     0
144
0.0208333333333333
144
0.0
144
0.0
144
0.0
144
0.0
144
0.0208333333333333
144
0.0
144
0.0
144
0.0
144
0.0
144
1.0
144
0.0
144
0.0
144
0.0
144
0.0
144
1.0
147
0.0208333333333333
147
0.0
147
0.0
147
0.0
147
0.0
147
0.0208333333333333
147
0.0
147
0.0
147
0.0
147
0.0
147
1.0
147
0.0
147
0.0
147
0.0
147
0.0
147
1.0
  0
MATERIAL
  5
3FB8
102
{ACAD_XDICTIONARY
360
3FB9
102
}
102
{ACAD_REACTORS
330
3FA7
102
}
330
3FA7
100
AcDbMaterial
  1
Global
 72
     0
 43
0.0208333333333333
 43
0.0
 43
0.0
 43
0.0
 43
0.0
 43
0.0208333333333333
 43
0.0
 43
0.0
 43
0.0
 43
0.0
 43
1.0
 43
0.0
 43
0.0
 43
0.0
 43
0.0
 43
1.0
 77
     0
 47
0.0208333333333333
 47
0.0
 47
0.0
 47
0.0
 47
0.0
 47
0.0208333333333333
 47
0.0
 47
0.0
 47
0.0
 47
0.0
 47
1.0
 47
0.0
 47
0.0
 47
0.0
 47
0.0
 47
1.0
171
     0
 49
0.0208333333333333
 49
0.0
 49
0.0
 49
0.0
 49
0.0
 49
0.0208333333333333
 49
0.0
 49
0.0
 49
0.0
 49
0.0
 49
1.0
 49
0.0
 49
0.0
 49
0.0
 49
0.0
 49
1.0
175
     0
142
0.0208333333333333
142
0.0
142
0.0
142
0.0
142
0.0
142
0.0208333333333333
142
0.0
142
0.0
142
0.0
142
0.0
142
1.0
142
0.0
142
0.0
142
0.0
142
0.0
142
1.0
179
     0
144
0.0208333333333333
144
0.0
144
0.0
144
0.0
144
0.0
144
0.0208333333333333
144
0.0
144
0.0
144
0.0
144
0.0
144
1.0
144
0.0
144
0.0
144
0.0
144
0.0
144
1.0
147
0.0208333333333333
147
0.0
147
0.0
147
0.0
147
0.0
147
0.0208333333333333
147
0.0
147
0.0
147
0.0
147
0.0
147
1.0
147
0.0
147
0.0
147
0.0
147
0.0
147
1.0
  0
MLEADERSTYLE
  5
3FFD
102
{ACAD_REACTORS
330
3FFC
102
}
330
3FFC
100
AcDbMLeaderStyle
170
     2
171
     1
172
     0
 90
        2
 40
0.0
 41
0.0
173
     1
 91
-1056964608
340
3FF1
 92
       -2
290
     1
 42
0.09
291
     1
 43
0.36
  3
Standard
 44
0.18
300

342
3FEC
174
     1
178
     6
175
     1
176
     0
 93
-1056964608
 45
0.18
292
     0
297
     0
 46
0.18
 94
-1056964608
 47
1.0
 49
1.0
140
1.0
293
     1
141
0.0
294
     1
177
     0
142
1.0
295
     0
296
     0
143
0.125
1001
ACAD_MLEADERVER
1070
     2
  0
MLINESTYLE
  5
3FF6
102
{ACAD_REACTORS
330
3FF5
102
}
330
3FF5
100
AcDbMlineStyle
  2
STANDARD
 70
     0
  3

 62
   256
 51
90.0
 52
90.0
 71
     2
 49
0.5
 62
   256
  6
BYLAYER
 49
-0.5
 62
   256
  6
BYLAYER
  0
ACDBPLACEHOLDER
  5
3FA6
102
{ACAD_REACTORS
330
3FA5
102
}
330
3FA5
  0
SCALE
  5
3FDA
102
{ACAD_REACTORS
330
3FD9
102
}
330
3FD9
100
AcDbScale
 70
     0
300
1:1
140
1.0
141
1.0
290
     1
  0
SCALE
  5
3FDB
102
{ACAD_REACTORS
330
3FD9
102
}
330
3FD9
100
AcDbScale
 70
     0
300
1/128" = 1'-0"
140
0.0078125
141
12.0
290
     0
  0
SCALE
  5
3FDC
102
{ACAD_REACTORS
330
3FD9
102
}
330
3FD9
100
AcDbScale
 70
     0
300
1/64" = 1'-0"
140
0.015625
141
12.0
290
     0
  0
SCALE
  5
3FDD
102
{ACAD_REACTORS
330
3FD9
102
}
330
3FD9
100
AcDbScale
 70
     0
300
1/32" = 1'-0"
140
0.03125
141
12.0
290
     0
  0
SCALE
  5
3FDE
102
{ACAD_REACTORS
330
3FD9
102
}
330
3FD9
100
AcDbScale
 70
     0
300
1/16" = 1'-0"
140
0.0625
141
12.0
290
     0
  0
SCALE
  5
3FDF
102
{ACAD_REACTORS
330
3FD9
102
}
330
3FD9
100
AcDbScale
 70
     0
300
3/32" = 1'-0"
140
0.09375
141
12.0
290
     0
  0
SCALE
  5
3FE0
102
{ACAD_REACTORS
330
3FD9
102
}
330
3FD9
100
AcDbScale
 70
     0
300
1/8" = 1'-0"
140
0.125
141
12.0
290
     0
  0
SCALE
  5
3FE1
102
{ACAD_REACTORS
330
3FD9
102
}
330
3FD9
100
AcDbScale
 70
     0
300
3/16" = 1'-0"
140
0.1875
141
12.0
290
     0
  0
SCALE
  5
3FE2
102
{ACAD_REACTORS
330
3FD9
102
}
330
3FD9
100
AcDbScale
 70
     0
300
1/4" = 1'-0"
140
0.25
141
12.0
290
     0
  0
SCALE
  5
3FE3
102
{ACAD_REACTORS
330
3FD9
102
}
330
3FD9
100
AcDbScale
 70
     0
300
3/8" = 1'-0"
140
0.375
141
12.0
290
     0
  0
SCALE
  5
3FE4
102
{ACAD_REACTORS
330
3FD9
102
}
330
3FD9
100
AcDbScale
 70
     0
300
1/2" = 1'-0"
140
0.5
141
12.0
290
     0
  0
SCALE
  5
3FE5
102
{ACAD_REACTORS
330
3FD9
102
}
330
3FD9
100
AcDbScale
 70
     0
300
3/4" = 1'-0"
140
0.75
141
12.0
290
     0
  0
SCALE
  5
3FE6
102
{ACAD_REACTORS
330
3FD9
102
}
330
3FD9
100
AcDbScale
 70
     0
300
1" = 1'-0"
140
1.0
141
12.0
290
     0
  0
SCALE
  5
3FE7
102
{ACAD_REACTORS
330
3FD9
102
}
330
3FD9
100
AcDbScale
 70
     0
300
1-1/2" = 1'-0"
140
1.5
141
12.0
290
     0
  0
SCALE
  5
3FE8
102
{ACAD_REACTORS
330
3FD9
102
}
330
3FD9
100
AcDbScale
 70
     0
300
3" = 1'-0"
140
3.0
141
12.0
290
     0
  0
SCALE
  5
3FE9
102
{ACAD_REACTORS
330
3FD9
102
}
330
3FD9
100
AcDbScale
 70
     0
300
6" = 1'-0"
140
6.0
141
12.0
290
     0
  0
SCALE
  5
3FEA
102
{ACAD_REACTORS
330
3FD9
102
}
330
3FD9
100
AcDbScale
 70
     0
300
1'-0" = 1'-0"
140
12.0
141
12.0
290
     0
  0
ACDBSECTIONVIEWSTYLE
  5
3FFF
102
{ACAD_XDICTIONARY
360
42FC
102
}
102
{ACAD_REACTORS
330
3FFE
330
4255
102
}
330
3FFE
100
AcDbModelDocViewStyle
 70
     0
  3
Imperial24
290
     0
100
AcDbSectionViewStyle
 70
     0
 71
     0
 90
       78
 71
     1
340
3FEC
 40
0.24
340
0
340
0
 40
0.24
300
I, O, Q, S, X, Z
 40
0.48
 90
        3
 40
0.18
 90
        1
 71
     2
340
3FF3
 90
       25
340
3FF3
 90
       50
 40
0.24
 40
0.0
 40
0.24
 71
     3
340
3FEC
 40
0.24
 90
        1
 40
0.75
 90
        1
300
%<\AcVar ViewType \f "%tc1">% %<\AcVar ViewSectionStartId>%-%<\AcVar ViewSectionEndId>%\PSCALE %<\AcVar ViewScale \f "%sn">%
 71
     4
300
ANSI31
 40
1.0
 90
        0
290
     0
290
     0
 90
        6
 40
0.0
 40
1.570796326794896
 40
0.2617993877991494
 40
1.308996938995747
 40
-0.2617993877991494
 40
1.832595714594046
  0
TABLESTYLE
  5
3FFB
102
{ACAD_XDICTIONARY
360
42BA
102
}
102
{ACAD_REACTORS
330
3FFA
102
}
330
3FFA
100
AcDbTableStyle
  3
Standard
 70
     0
 71
     0
 40
0.06
 41
0.06
280
     0
281
     0
  7
STANDARD
140
0.18
170
     2
 62
     0
 63
     7
283
     0
274
    -2
284
     1
 64
     0
275
    -2
285
     1
 65
     0
276
    -2
286
     1
 66
     0
277
    -2
287
     1
 67
     0
278
    -2
288
     1
 68
     0
279
    -2
289
     1
 69
     0
  7
STANDARD
140
0.25
170
     5
 62
     0
 63
     7
283
     0
274
    -2
284
     1
 64
     0
275
    -2
285
     1
 65
     0
276
    -2
286
     1
 66
     0
277
    -2
287
     1
 67
     0
278
    -2
288
     1
 68
     0
279
    -2
289
     1
 69
     0
  7
STANDARD
140
0.18
170
     5
 62
     0
 63
     7
283
     0
274
    -2
284
     1
 64
     0
275
    -2
285
     1
 65
     0
276
    -2
286
     1
 66
     0
277
    -2
287
     1
 67
     0
278
    -2
288
     1
 68
     0
279
    -2
289
     1
 69
     0
  0
VISUALSTYLE
  5
3FC6
102
{ACAD_XDICTIONARY
360
42D5
102
}
102
{ACAD_REACTORS
330
3FC0
102
}
330
3FC0
100
AcDbVisualStyle
  2
2dWireframe
 70
     4
 71
     0
 72
     2
 73
     0
 90
        0
 40
-0.6
 41
-30.0
 62
     5
 63
     7
 74
     1
 91
        4
 64
     7
 65
   257
 75
     1
175
     1
 42
1.0
 92
        0
 66
   257
 43
1.0
 76
     1
 77
     6
 78
     2
 67
     7
 79
     5
170
     0
171
     0
290
     0
174
     0
 93
        1
 44
0.0
173
     0
291
     0
 45
0.0
1001
ACAD
1000
AcDbSavedByObjectVersion
1070
     0
  0
VISUALSTYLE
  5
3FC5
102
{ACAD_XDICTIONARY
360
42D3
102
}
102
{ACAD_REACTORS
330
3FC0
102
}
330
3FC0
100
AcDbVisualStyle
  2
Basic
 70
     7
 71
     1
 72
     0
 73
     1
 90
        0
 40
-0.6
 41
-30.0
 62
     5
 63
     7
 74
     0
 91
        4
 64
     7
 65
   257
 75
     1
175
     1
 42
1.0
 92
        8
 66
     7
 43
1.0
 76
     1
 77
     6
 78
     2
 67
     7
 79
     5
170
     0
171
     0
290
     0
174
     0
 93
        1
 44
0.0
173
     0
291
     1
 45
0.0
1001
ACAD
1000
AcDbSavedByObjectVersion
1070
     0
  0
VISUALSTYLE
  5
3FCC
102
{ACAD_XDICTIONARY
360
42E1
102
}
102
{ACAD_REACTORS
330
3FC0
102
}
330
3FC0
100
AcDbVisualStyle
  2
Brighten
 70
    12
 71
     2
 72
     2
 73
     0
 90
        0
 40
-0.6
 41
-30.0
 62
     5
 63
     7
 74
     1
 91
        4
 64
     7
 65
   257
 75
     1
175
     1
 42
1.0
 92
        8
 66
     7
 43
1.0
 76
     1
 77
     6
 78
     2
 67
     7
 79
     5
170
     0
171
     0
290
     0
174
     0
 93
        1
 44
50.0
173
     0
291
     1
 45
0.0
1001
ACAD
1000
AcDbSavedByObjectVersion
1070
     0
  0
VISUALSTYLE
  5
3FD0
102
{ACAD_XDICTIONARY
360
42E9
102
}
102
{ACAD_REACTORS
330
3FC0
102
}
330
3FC0
100
AcDbVisualStyle
  2
ColorChange
 70
    16
 71
     2
 72
     2
 73
     3
 90
        0
 40
-0.6
 41
-30.0
 62
     5
 63
     8
 74
     1
 91
        4
 64
     7
 65
   257
 75
     1
175
     1
 42
1.0
 92
        8
 66
     8
 43
1.0
 76
     1
 77
     6
 78
     2
 67
     7
 79
     5
170
     0
171
     0
290
     0
174
     0
 93
        1
 44
0.0
173
     0
291
     1
 45
0.0
1001
ACAD
1000
AcDbSavedByObjectVersion
1070
     0
  0
VISUALSTYLE
  5
3FC9
102
{ACAD_XDICTIONARY
360
42DB
102
}
102
{ACAD_REACTORS
330
3FC0
102
}
330
3FC0
100
AcDbVisualStyle
  2
Conceptual
 70
     9
 71
     3
 72
     2
 73
     0
 90
        0
 40
-0.6
 41
-30.0
 62
     5
 63
     7
 74
     2
 91
        2
 64
     7
 65
   257
 75
     1
175
     1
 42
179.0
 92
        8
 66
     7
 43
1.0
 76
     1
 77
     6
 78
     2
 67
     7
 79
     3
170
     0
171
     0
290
     0
174
     0
 93
        1
 44
0.0
173
     0
291
     0
 45
0.0
1001
ACAD
1000
AcDbSavedByObjectVersion
1070
     0
  0
VISUALSTYLE
  5
3FCB
102
{ACAD_XDICTIONARY
360
42DF
102
}
102
{ACAD_REACTORS
330
3FC0
102
}
330
3FC0
100
AcDbVisualStyle
  2
Dim
 70
    11
 71
     2
 72
     2
 73
     0
 90
        0
 40
-0.6
 41
-30.0
 62
     5
 63
     7
 74
     1
 91
        4
 64
     7
 65
   257
 75
     1
175
     1
 42
1.0
 92
        8
 66
     7
 43
1.0
 76
     1
 77
     6
 78
     2
 67
     7
 79
     5
170
     0
171
     0
290
     0
174
     0
 93
        1
 44
-50.0
173
     0
291
     1
 45
0.0
1001
ACAD
1000
AcDbSavedByObjectVersion
1070
     0
  0
VISUALSTYLE
  5
3FD8
102
{ACAD_XDICTIONARY
360
42F9
102
}
102
{ACAD_REACTORS
330
3FC0
102
}
330
3FC0
100
AcDbVisualStyle
  2
EdgeColorOff
 70
    22
 71
     2
 72
     2
 73
     0
 90
        0
 40
-0.6
 41
-30.0
 62
     5
 63
     7
 74
     1
 91
        4
 64
     7
 65
   257
 75
     1
175
     1
 42
1.0
 92
        8
 66
     7
 43
1.0
 76
     1
 77
     6
 78
     2
 67
     7
 79
     5
170
     0
171
     0
290
     0
174
     0
 93
        1
 44
0.0
173
     0
291
     1
 45
0.0
1001
ACAD
1000
AcDbSavedByObjectVersion
1070
     0
  0
VISUALSTYLE
  5
3FCF
102
{ACAD_XDICTIONARY
360
42E7
102
}
102
{ACAD_REACTORS
330
3FC0
102
}
330
3FC0
100
AcDbVisualStyle
  2
Facepattern
 70
    15
 71
     2
 72
     2
 73
     0
 90
        0
 40
-0.6
 41
-30.0
 62
     5
 63
     7
 74
     1
 91
        4
 64
     7
 65
   257
 75
     1
175
     1
 42
1.0
 92
        8
 66
     7
 43
1.0
 76
     1
 77
     6
 78
     2
 67
     7
 79
     5
170
     0
171
     0
290
     0
174
     0
 93
        1
 44
0.0
173
     0
291
     1
 45
0.0
1001
ACAD
1000
AcDbSavedByObjectVersion
1070
     0
  0
VISUALSTYLE
  5
3FC1
102
{ACAD_XDICTIONARY
360
42CB
102
}
102
{ACAD_REACTORS
330
3FC0
102
}
330
3FC0
100
AcDbVisualStyle
  2
Flat
 70
     0
 71
     2
 72
     1
 73
     1
 90
        2
 40
-0.6
 41
30.0
 62
     5
 63
     7
 74
     0
 91
        0
 64
     7
 65
   257
 75
     1
175
     1
 42
1.0
 92
        8
 66
     7
 43
1.0
 76
     1
 77
     6
 78
     2
 67
     7
 79
     5
170
     0
171
     0
290
     0
174
     0
 93
       13
 44
0.0
173
     0
291
     1
 45
0.0
1001
ACAD
1000
AcDbSavedByObjectVersion
1070
     0
  0
VISUALSTYLE
  5
3FC2
102
{ACAD_XDICTIONARY
360
42CD
102
}
102
{ACAD_REACTORS
330
3FC0
102
}
330
3FC0
100
AcDbVisualStyle
  2
FlatWithEdges
 70
     1
 71
     2
 72
     1
 73
     1
 90
        2
 40
-0.6
 41
30.0
 62
     5
 63
     7
 74
     1
 91
        0
 64
     7
 65
   257
 75
     1
175
     1
 42
1.0
 92
        0
 66
   257
 43
1.0
 76
     1
 77
     6
 78
     2
 67
     7
 79
     5
170
     0
171
     0
290
     0
174
     0
 93
       13
 44
0.0
173
     0
291
     1
 45
0.0
1001
ACAD
1000
AcDbSavedByObjectVersion
1070
     0
  0
VISUALSTYLE
  5
3FC3
102
{ACAD_XDICTIONARY
360
42CF
102
}
102
{ACAD_REACTORS
330
3FC0
102
}
330
3FC0
100
AcDbVisualStyle
  2
Gouraud
 70
     2
 71
     2
 72
     2
 73
     1
 90
        2
 40
-0.6
 41
30.0
 62
     5
 63
     7
 74
     0
 91
        0
 64
     7
 65
   257
 75
     1
175
     1
 42
1.0
 92
        0
 66
     7
 43
1.0
 76
     1
 77
     6
 78
     2
 67
     7
 79
     5
170
     0
171
     0
290
     0
174
     0
 93
       13
 44
0.0
173
     0
291
     1
 45
0.0
1001
ACAD
1000
AcDbSavedByObjectVersion
1070
     0
  0
VISUALSTYLE
  5
3FC4
102
{ACAD_XDICTIONARY
360
42D1
102
}
102
{ACAD_REACTORS
330
3FC0
102
}
330
3FC0
100
AcDbVisualStyle
  2
GouraudWithEdges
 70
     3
 71
     2
 72
     2
 73
     1
 90
        2
 40
-0.6
 41
30.0
 62
     5
 63
     7
 74
     1
 91
        0
 64
     7
 65
   257
 75
     1
175
     1
 42
1.0
 92
        0
 66
   257
 43
1.0
 76
     1
 77
     6
 78
     2
 67
     7
 79
     5
170
     0
171
     0
290
     0
174
     0
 93
       13
 44
0.0
173
     0
291
     1
 45
0.0
1001
ACAD
1000
AcDbSavedByObjectVersion
1070
     0
  0
VISUALSTYLE
  5
3FC8
102
{ACAD_XDICTIONARY
360
42D9
102
}
102
{ACAD_REACTORS
330
3FC0
102
}
330
3FC0
100
AcDbVisualStyle
  2
Hidden
 70
     6
 71
     1
 72
     2
 73
     2
 90
        0
 40
-0.6
 41
-30.0
 62
     5
 63
     7
 74
     2
 91
        2
 64
     7
 65
   257
 75
     2
175
     1
 42
40.0
 92
        0
 66
   257
 43
1.0
 76
     1
 77
     6
 78
     2
 67
     7
 79
     3
170
     0
171
     0
290
     0
174
     0
 93
        1
 44
0.0
173
     0
291
     0
 45
0.0
1001
ACAD
1000
AcDbSavedByObjectVersion
1070
     0
  0
VISUALSTYLE
  5
3FD6
102
{ACAD_XDICTIONARY
360
42F5
102
}
102
{ACAD_REACTORS
330
3FC0
102
}
330
3FC0
100
AcDbVisualStyle
  2
JitterOff
 70
    20
 71
     2
 72
     2
 73
     0
 90
        0
 40
-0.6
 41
-30.0
 62
     5
 63
     7
 74
     1
 91
        4
 64
     7
 65
   257
 75
     1
175
     1
 42
1.0
 92
       10
 66
     7
 43
1.0
 76
     1
 77
     6
 78
     2
 67
     7
 79
     5
170
     0
171
     0
290
     0
174
     0
 93
        1
 44
0.0
173
     0
291
     1
 45
0.0
1001
ACAD
1000
AcDbSavedByObjectVersion
1070
     0
  0
VISUALSTYLE
  5
3FCE
102
{ACAD_XDICTIONARY
360
42E5
102
}
102
{ACAD_REACTORS
330
3FC0
102
}
330
3FC0
100
AcDbVisualStyle
  2
Linepattern
 70
    14
 71
     2
 72
     2
 73
     0
 90
        0
 40
-0.6
 41
-30.0
 62
     5
 63
     7
 74
     1
 91
        4
 64
     7
 65
   257
 75
     7
175
     7
 42
1.0
 92
        8
 66
     7
 43
1.0
 76
     1
 77
     6
 78
     2
 67
     7
 79
     5
170
     0
171
     0
290
     0
174
     0
 93
        1
 44
0.0
173
     0
291
     1
 45
0.0
1001
ACAD
1000
AcDbSavedByObjectVersion
1070
     0
  0
VISUALSTYLE
  5
3FD7
102
{ACAD_XDICTIONARY
360
42F7
102
}
102
{ACAD_REACTORS
330
3FC0
102
}
330
3FC0
100
AcDbVisualStyle
  2
OverhangOff
 70
    21
 71
     2
 72
     2
 73
     0
 90
        0
 40
-0.6
 41
-30.0
 62
     5
 63
     7
 74
     1
 91
        4
 64
     7
 65
   257
 75
     1
175
     1
 42
1.0
 92
        9
 66
     7
 43
1.0
 76
     1
 77
     6
 78
     2
 67
     7
 79
     5
170
     0
171
     0
290
     0
174
     0
 93
        1
 44
0.0
173
     0
291
     1
 45
0.0
1001
ACAD
1000
AcDbSavedByObjectVersion
1070
     0
  0
VISUALSTYLE
  5
3FCA
102
{ACAD_XDICTIONARY
360
42DD
102
}
102
{ACAD_REACTORS
330
3FC0
102
}
330
3FC0
100
AcDbVisualStyle
  2
Realistic
 70
     8
 71
     2
 72
     3
 73
     0
 90
        2
 40
-0.6
 41
30.0
 62
     5
 63
     7
 74
     0
 91
        0
 64
     7
 65
   257
 75
     1
175
     1
 42
1.0
 92
        8
 66
   257
 43
1.0
 76
     1
 77
     6
 78
     2
 67
     7
 79
     3
170
     0
171
     0
290
     0
174
     0
 93
       13
 44
0.0
173
     0
291
     0
 45
0.0
1001
ACAD
1000
AcDbSavedByObjectVersion
1070
     0
  0
VISUALSTYLE
  5
3FD5
102
{ACAD_XDICTIONARY
360
42F3
102
}
102
{ACAD_REACTORS
330
3FC0
102
}
330
3FC0
100
AcDbVisualStyle
  2
Shaded
 70
    27
 71
     2
 72
     2
 73
     1
 90
        2
 40
-0.6
 41
30.0
 62
     5
 63
     7
 74
     0
 91
        4
 64
     7
 65
   257
 75
     1
175
     1
 42
1.0
 92
        8
 66
   257
 43
1.0
 76
     1
 77
     6
 78
     2
 67
     8
 79
     3
170
     0
171
     0
290
     0
174
     0
 93
        5
 44
0.0
173
     0
291
     0
 45
0.0
1001
ACAD
1000
AcDbSavedByObjectVersion
1070
     0
  0
VISUALSTYLE
  5
3FD4
102
{ACAD_XDICTIONARY
360
42F1
102
}
102
{ACAD_REACTORS
330
3FC0
102
}
330
3FC0
100
AcDbVisualStyle
  2
Shaded with edges
 70
    26
 71
     2
 72
     2
 73
     1
 90
        2
 40
-0.6
 41
30.0
 62
     5
 63
     7
 74
     1
 91
       10
 64
     7
 65
   257
 75
     2
175
     1
 42
1.0
 92
        8
 66
   257
 43
1.0
 76
     1
 77
     6
 78
     2
 67
     7
 79
     3
170
     0
171
     0
290
     0
174
     0
 93
        5
 44
0.0
173
     0
291
     0
 45
0.0
1001
ACAD
1000
AcDbSavedByObjectVersion
1070
     0
  0
VISUALSTYLE
  5
3FD1
102
{ACAD_XDICTIONARY
360
42EB
102
}
102
{ACAD_REACTORS
330
3FC0
102
}
330
3FC0
100
AcDbVisualStyle
  2
Shades of Gray
 70
    23
 71
     2
 72
     2
 73
     3
 90
        0
 40
-0.6
 41
-30.0
 62
     5
 63
     7
 74
     2
 91
        2
 64
     7
 65
     7
 75
     1
175
     1
 42
40.0
 92
        8
 66
     7
 43
1.0
 76
     1
 77
     6
 78
     2
 67
     7
 79
     3
170
     0
171
     0
290
     0
174
     0
 93
        1
 44
0.0
173
     0
291
     0
 45
0.0
1001
ACAD
1000
AcDbSavedByObjectVersion
1070
     0
  0
VISUALSTYLE
  5
3FD2
102
{ACAD_XDICTIONARY
360
42ED
102
}
102
{ACAD_REACTORS
330
3FC0
102
}
330
3FC0
100
AcDbVisualStyle
  2
Sketchy
 70
    24
 71
     1
 72
     2
 73
     2
 90
        0
 40
-0.6
 41
-30.0
 62
     5
 63
     7
 74
     2
 91
        2
 64
     7
 65
     7
 75
     1
175
     1
 42
40.0
 92
       11
 66
     7
 43
1.0
 76
     1
 77
     6
 78
     2
 67
     7
 79
     6
170
     0
171
     0
290
     0
174
     0
 93
        1
 44
0.0
173
     0
291
     0
 45
0.0
1001
ACAD
1000
AcDbSavedByObjectVersion
1070
     0
  0
VISUALSTYLE
  5
3FCD
102
{ACAD_XDICTIONARY
360
42E3
102
}
102
{ACAD_REACTORS
330
3FC0
102
}
330
3FC0
100
AcDbVisualStyle
  2
Thicken
 70
    13
 71
     2
 72
     2
 73
     0
 90
        0
 40
-0.6
 41
-30.0
 62
     5
 63
     7
 74
     1
 91
        4
 64
     7
 65
   257
 75
     1
175
     1
 42
1.0
 92
       12
 66
     7
 43
1.0
 76
     1
 77
     6
 78
     2
 67
     7
 79
     5
170
     0
171
     0
290
     0
174
     0
 93
        1
 44
0.0
173
     0
291
     1
 45
0.0
1001
ACAD
1000
AcDbSavedByObjectVersion
1070
     0
  0
VISUALSTYLE
  5
3FC7
102
{ACAD_XDICTIONARY
360
42D7
102
}
102
{ACAD_REACTORS
330
3FC0
102
}
330
3FC0
100
AcDbVisualStyle
  2
Wireframe
 70
     5
 71
     0
 72
     2
 73
     0
 90
        0
 40
-0.6
 41
-30.0
 62
     5
 63
     7
 74
     1
 91
        4
 64
     7
 65
   257
 75
     1
175
     1
 42
1.0
 92
        0
 66
   257
 43
1.0
 76
     1
 77
     6
 78
     2
 67
     7
 79
     3
170
     0
171
     0
290
     0
174
     0
 93
        1
 44
0.0
173
     0
291
     0
 45
0.0
1001
ACAD
1000
AcDbSavedByObjectVersion
1070
     0
  0
VISUALSTYLE
  5
3FD3
102
{ACAD_XDICTIONARY
360
42EF
102
}
102
{ACAD_REACTORS
330
3FC0
102
}
330
3FC0
100
AcDbVisualStyle
  2
X-Ray
 70
    25
 71
     2
 72
     2
 73
     1
 90
        1
 40
0.5
 41
-30.0
 62
     5
 63
     7
 74
     1
 91
        0
 64
     7
 65
   257
 75
     1
175
     1
 42
1.0
 92
        8
 66
     7
 43
1.0
 76
     1
 77
     6
 78
     2
 67
     7
 79
     3
170
     0
171
     0
290
     0
174
     0
 93
       13
 44
0.0
173
     0
291
     0
 45
0.0
1001
ACAD
1000
AcDbSavedByObjectVersion
1070
     0
  0
DICTIONARYVAR
  5
423E
102
{ACAD_REACTORS
330
4238
102
}
330
4238
100
DictionaryVariables
280
     0
  1
1:1
  0
DICTIONARYVAR
  5
423A
102
{ACAD_REACTORS
330
4238
102
}
330
4238
100
DictionaryVariables
280
     0
  1
STANDARD
  0
DICTIONARYVAR
  5
4239
102
{ACAD_REACTORS
330
4238
102
}
330
4238
100
DictionaryVariables
280
     0
  1
STANDARD
  0
DICTIONARYVAR
  5
423B
102
{ACAD_REACTORS
330
4238
102
}
330
4238
100
DictionaryVariables
280
     0
  1
ASME Y14.35 - 1987
  0
DICTIONARYVAR
  5
423C
102
{ACAD_REACTORS
330
4238
102
}
330
4238
100
DictionaryVariables
280
     0
  1
ASME Y14.3 - 2003
  0
DICTIONARYVAR
  5
42B6
102
{ACAD_REACTORS
330
4238
102
}
330
4238
100
DictionaryVariables
280
     0
  1
1
  0
DICTIONARYVAR
  5
42B5
102
{ACAD_REACTORS
330
4238
102
}
330
4238
100
DictionaryVariables
280
     0
  1
0
  0
DICTIONARYVAR
  5
4240
102
{ACAD_REACTORS
330
4238
102
}
330
4238
100
DictionaryVariables
280
     0
  1
1
  0
DICTIONARYVAR
  5
4241
102
{ACAD_REACTORS
330
4238
102
}
330
4238
100
DictionaryVariables
280
     0
  1
15
  0
DICTIONARYVAR
  5
423F
102
{ACAD_REACTORS
330
4238
102
}
330
4238
100
DictionaryVariables
280
     0
  1
0
  0
DICTIONARYVAR
  5
423D
102
{ACAD_REACTORS
330
4238
102
}
330
4238
100
DictionaryVariables
280
     0
  1
0
  0
DICTIONARYVAR
  5
42B4
102
{ACAD_REACTORS
330
4238
102
}
330
4238
100
DictionaryVariables
280
     0
  1
127
  0
DICTIONARYVAR
  5
42B7
102
{ACAD_REACTORS
330
4238
102
}
330
4238
100
DictionaryVariables
280
     0
  1
2
  0
DICTIONARY
  5
42C5
102
{ACAD_REACTORS
330
42C3
102
}
330
42C3
100
AcDbDictionary
281
     1
  0
DICTIONARY
  5
42C4
102
{ACAD_REACTORS
330
42C3
102
}
330
42C3
100
AcDbDictionary
281
     1
  3
140699125187808
350
42BE
  3
140699125187824
350
42BF
  3
140699125187840
350
42C0
  3
140699125187856
350
42C1
  3
140699125187872
350
42C2
  0
DICTIONARY
  5
4051
102
{ACAD_REACTORS
330
4048
102
}
330
4048
100
AcDbDictionary
281
     1
  0
DICTIONARY
  5
401D
102
{ACAD_REACTORS
330
401C
102
}
330
401C
100
AcDbDictionary
281
     1
  3
DWGSETTINGS
350
401E
  3
TRANSSETTINGS
350
401F
  0
ACAMGFILTERDAT
  5
409C
102
{ACAD_REACTORS
330
4098
102
}
330
4098
100
AcAmgFilterDat
 70
    15
  1
*
  2
AM_FEA-AM_*
  3
*
  4
*
  5
*
290
     1
  0
ACAMGFILTERDAT
  5
4099
102
{ACAD_REACTORS
330
4098
102
}
330
4098
100
AcAmgFilterDat
 70
    15
  1
HATCH
  2
*
  3
*
  4
*
  5
*
290
     1
  0
ACAMGFILTERDAT
  5
409A
102
{ACAD_REACTORS
330
4098
102
}
330
4098
100
AcAmgFilterDat
 70
    15
  1
LINE
  2
8,8N,*-8,*-8N,AM_8,AM_8N,*-AM_8,*-AM_8N
  3
*
  4
*
  5
INSERT,STDPART2D
290
     1
  0
ACAMGFILTERDAT
  5
409D
102
{ACAD_REACTORS
330
4098
102
}
330
4098
100
AcAmgFilterDat
 70
    15
  1
DIMENSION,AMDT_*_DIM
  2
*
  3
*
  4
*
  5
*
290
     1
  0
ACAMGFILTERDAT
  5
409E
102
{ACAD_REACTORS
330
4098
102
}
330
4098
100
AcAmgFilterDat
 70
    15
  1
ARC
  2
AM_5
  3
*
  4
2
  5
INSERT
290
     0
  0
ACAMGFILTERDAT
  5
409B
102
{ACAD_REACTORS
330
4098
102
}
330
4098
100
AcAmgFilterDat
 70
    15
  1
ACMFCFRAME,ACMDATUMTARGET,ACMDATUMID,ACMWELDSYM,ACMSURFSYM,ACMFEATID,ACMPARTREF,ACMBALLOON,AMDTEDGESYM,AMGSCREWCALCTABLE,ACMMARKSTAMP
  2
*
  3
*
  4
*
  5
*
290
     1
  0
DICTIONARY
  5
42FE
330
4001
100
AcDbDictionary
280
     1
281
     1
  3
ACAD_XREC_ROUNDTRIP
360
42FF
  0
DICTIONARY
  5
4302
330
4009
100
AcDbDictionary
280
     1
281
     1
  3
ACAD_XREC_ROUNDTRIP
360
4303
  0
DICTIONARY
  5
4300
330
4005
100
AcDbDictionary
280
     1
281
     1
  3
ACAD_XREC_ROUNDTRIP
360
4301
  0
DICTIONARY
  5
3FB1
330
3FB0
100
AcDbDictionary
280
     1
281
     1
  3
ACAD_XREC_ROUNDTRIP
360
42C9
  3
BUMPTILE
360
3FB3
  3
DIFFUSETILE
360
3FB2
  3
OPACITYTILE
360
3FB6
  3
REFLECTIONTILE
360
3FB5
  3
REFRACTIONTILE
360
3FB7
  3
SPECULARTILE
360
3FB4
  0
DICTIONARY
  5
3FA9
330
3FA8
100
AcDbDictionary
280
     1
281
     1
  3
ACAD_XREC_ROUNDTRIP
360
42C8
  3
BUMPTILE
360
3FAB
  3
DIFFUSETILE
360
3FAA
  3
OPACITYTILE
360
3FAE
  3
REFLECTIONTILE
360
3FAD
  3
REFRACTIONTILE
360
3FAF
  3
SPECULARTILE
360
3FAC
  0
DICTIONARY
  5
3FB9
330
3FB8
100
AcDbDictionary
280
     1
281
     1
  3
ACAD_XREC_ROUNDTRIP
360
42CA
  3
BUMPTILE
360
3FBB
  3
DIFFUSETILE
360
3FBA
  3
OPACITYTILE
360
3FBE
  3
REFLECTIONTILE
360
3FBD
  3
REFRACTIONTILE
360
3FBF
  3
SPECULARTILE
360
3FBC
  0
DICTIONARY
  5
42FC
330
3FFF
100
AcDbDictionary
280
     1
281
     1
  3
ACAD_XREC_ROUNDTRIP
360
42FD
  0
DICTIONARY
  5
42BA
330
3FFB
100
AcDbDictionary
280
     1
281
     1
  3
ACAD_ROUNDTRIP_2008_TABLESTYLE_CELLSTYLEMAP
360
42BB
  3
ACAD_XREC_ROUNDTRIP
360
42FB
  0
DICTIONARY
  5
42D5
330
3FC6
100
AcDbDictionary
280
     1
281
     1
  3
ACAD_XREC_ROUNDTRIP
360
42D6
  0
DICTIONARY
  5
42D3
330
3FC5
100
AcDbDictionary
280
     1
281
     1
  3
ACAD_XREC_ROUNDTRIP
360
42D4
  0
DICTIONARY
  5
42E1
330
3FCC
100
AcDbDictionary
280
     1
281
     1
  3
ACAD_XREC_ROUNDTRIP
360
42E2
  0
DICTIONARY
  5
42E9
330
3FD0
100
AcDbDictionary
280
     1
281
     1
  3
ACAD_XREC_ROUNDTRIP
360
42EA
  0
DICTIONARY
  5
42DB
330
3FC9
100
AcDbDictionary
280
     1
281
     1
  3
ACAD_XREC_ROUNDTRIP
360
42DC
  0
DICTIONARY
  5
42DF
330
3FCB
100
AcDbDictionary
280
     1
281
     1
  3
ACAD_XREC_ROUNDTRIP
360
42E0
  0
DICTIONARY
  5
42F9
330
3FD8
100
AcDbDictionary
280
     1
281
     1
  3
ACAD_XREC_ROUNDTRIP
360
42FA
  0
DICTIONARY
  5
42E7
330
3FCF
100
AcDbDictionary
280
     1
281
     1
  3
ACAD_XREC_ROUNDTRIP
360
42E8
  0
DICTIONARY
  5
42CB
330
3FC1
100
AcDbDictionary
280
     1
281
     1
  3
ACAD_XREC_ROUNDTRIP
360
42CC
  0
DICTIONARY
  5
42CD
330
3FC2
100
AcDbDictionary
280
     1
281
     1
  3
ACAD_XREC_ROUNDTRIP
360
42CE
  0
DICTIONARY
  5
42CF
330
3FC3
100
AcDbDictionary
280
     1
281
     1
  3
ACAD_XREC_ROUNDTRIP
360
42D0
  0
DICTIONARY
  5
42D1
330
3FC4
100
AcDbDictionary
280
     1
281
     1
  3
ACAD_XREC_ROUNDTRIP
360
42D2
  0
DICTIONARY
  5
42D9
330
3FC8
100
AcDbDictionary
280
     1
281
     1
  3
ACAD_XREC_ROUNDTRIP
360
42DA
  0
DICTIONARY
  5
42F5
330
3FD6
100
AcDbDictionary
280
     1
281
     1
  3
ACAD_XREC_ROUNDTRIP
360
42F6
  0
DICTIONARY
  5
42E5
330
3FCE
100
AcDbDictionary
280
     1
281
     1
  3
ACAD_XREC_ROUNDTRIP
360
42E6
  0
DICTIONARY
  5
42F7
330
3FD7
100
AcDbDictionary
280
     1
281
     1
  3
ACAD_XREC_ROUNDTRIP
360
42F8
  0
DICTIONARY
  5
42DD
330
3FCA
100
AcDbDictionary
280
     1
281
     1
  3
ACAD_XREC_ROUNDTRIP
360
42DE
  0
DICTIONARY
  5
42F3
330
3FD5
100
AcDbDictionary
280
     1
281
     1
  3
ACAD_XREC_ROUNDTRIP
360
42F4
  0
DICTIONARY
  5
42F1
330
3FD4
100
AcDbDictionary
280
     1
281
     1
  3
ACAD_XREC_ROUNDTRIP
360
42F2
  0
DICTIONARY
  5
42EB
330
3FD1
100
AcDbDictionary
280
     1
281
     1
  3
ACAD_XREC_ROUNDTRIP
360
42EC
  0
DICTIONARY
  5
42ED
330
3FD2
100
AcDbDictionary
280
     1
281
     1
  3
ACAD_XREC_ROUNDTRIP
360
42EE
  0
DICTIONARY
  5
42E3
330
3FCD
100
AcDbDictionary
280
     1
281
     1
  3
ACAD_XREC_ROUNDTRIP
360
42E4
  0
DICTIONARY
  5
42D7
330
3FC7
100
AcDbDictionary
280
     1
281
     1
  3
ACAD_XREC_ROUNDTRIP
360
42D8
  0
DICTIONARY
  5
42EF
330
3FD3
100
AcDbDictionary
280
     1
281
     1
  3
ACAD_XREC_ROUNDTRIP
360
42F0
  0
XRECORD
  5
42BE
102
{ACAD_REACTORS
330
42C4
102
}
330
42C4
100
AcDbXrecord
280
     1
  1
AcDb_Thumbnail_Schema
102
{ATTRRECORD
341
42BF
  2
AcDbDs::TreatedAsObjectData
280
     1
291
     1
102
ATTRRECORD}
102
{ATTRRECORD
341
42C0
  2
AcDbDs::Legacy
280
     1
291
     1
102
ATTRRECORD}
  2
AcDbDs::ID
280
    10
 91
        8
102
{ATTRRECORD
341
42C1
  2
AcDs:Indexable
280
     1
291
     1
102
ATTRRECORD}
102
{ATTRRECORD
341
42C2
  2
AcDbDs::HandleAttribute
280
     7
282
     1
102
ATTRRECORD}
  2
Thumbnail_Data
280
    15
 91
        0
  0
XRECORD
  5
42BF
102
{ACAD_REACTORS
330
42C4
102
}
330
42C4
100
AcDbXrecord
280
     1
  1
AcDbDs::TreatedAsObjectDataSchema
  2
AcDbDs::TreatedAsObjectData
280
     1
 91
        0
  0
XRECORD
  5
42C0
102
{ACAD_REACTORS
330
42C4
102
}
330
42C4
100
AcDbXrecord
280
     1
  1
AcDbDs::LegacySchema
  2
AcDbDs::Legacy
280
     1
 91
        0
  0
XRECORD
  5
42C1
102
{ACAD_REACTORS
330
42C4
102
}
330
42C4
100
AcDbXrecord
280
     1
  1
AcDbDs::IndexedPropertySchema
  2
AcDs:Indexable
280
     1
 91
        0
  0
XRECORD
  5
42C2
102
{ACAD_REACTORS
330
42C4
102
}
330
42C4
100
AcDbXrecord
280
     1
  1
AcDbDs::HandleAttributeSchema
  2
AcDbDs::HandleAttribute
280
     7
 91
        1
284
     1
  0
XRECORD
  5
42FF
102
{ACAD_REACTORS
330
42FE
102
}
330
42FE
100
AcDbXrecord
280
     1
102
DISPLAYNAME
  1
Imperial24
102
FLAGS
 90
        0
  0
XRECORD
  5
4303
102
{ACAD_REACTORS
330
4302
102
}
330
4302
100
AcDbXrecord
280
     1
102
SHADEPLOT
 70
     0
102
SHADEPLOTRESLEVEL
 70
     2
102
SHADEPLOTCUSTOMDPI
 70
   300
  0
XRECORD
  5
4301
102
{ACAD_REACTORS
330
4300
102
}
330
4300
100
AcDbXrecord
280
     1
102
SHADEPLOT
 70
     0
102
SHADEPLOTRESLEVEL
 70
     2
102
SHADEPLOTCUSTOMDPI
 70
   300
  0
XRECORD
  5
42C9
102
{ACAD_REACTORS
330
3FB1
102
}
330
3FB1
100
AcDbXrecord
280
     1
102
MATERIAL
148
0.0
149
0.0
149
0.0
 93
        0
 94
      127
282
     0
 72
     0
 77
     0
171
     0
175
     0
179
     0
273
     0
  0
XRECORD
  5
3FB3
102
{ACAD_REACTORS
330
3FB1
102
}
330
3FB1
100
AcDbXrecord
280
     1
270
     1
271
     1
  0
XRECORD
  5
3FB2
102
{ACAD_REACTORS
330
3FB1
102
}
330
3FB1
100
AcDbXrecord
280
     1
270
     1
271
     1
  0
XRECORD
  5
3FB6
102
{ACAD_REACTORS
330
3FB1
102
}
330
3FB1
100
AcDbXrecord
280
     1
270
     1
271
     1
  0
XRECORD
  5
3FB5
102
{ACAD_REACTORS
330
3FB1
102
}
330
3FB1
100
AcDbXrecord
280
     1
270
     1
271
     1
  0
XRECORD
  5
3FB7
102
{ACAD_REACTORS
330
3FB1
102
}
330
3FB1
100
AcDbXrecord
280
     1
270
     1
271
     1
  0
XRECORD
  5
3FB4
102
{ACAD_REACTORS
330
3FB1
102
}
330
3FB1
100
AcDbXrecord
280
     1
270
     1
271
     1
  0
XRECORD
  5
42C8
102
{ACAD_REACTORS
330
3FA9
102
}
330
3FA9
100
AcDbXrecord
280
     1
102
MATERIAL
148
0.0
149
0.0
149
0.0
 93
        0
 94
      127
282
     0
 72
     0
 77
     0
171
     0
175
     0
179
     0
273
     0
  0
XRECORD
  5
3FAB
102
{ACAD_REACTORS
330
3FA9
102
}
330
3FA9
100
AcDbXrecord
280
     1
270
     1
271
     1
  0
XRECORD
  5
3FAA
102
{ACAD_REACTORS
330
3FA9
102
}
330
3FA9
100
AcDbXrecord
280
     1
270
     1
271
     1
  0
XRECORD
  5
3FAE
102
{ACAD_REACTORS
330
3FA9
102
}
330
3FA9
100
AcDbXrecord
280
     1
270
     1
271
     1
  0
XRECORD
  5
3FAD
102
{ACAD_REACTORS
330
3FA9
102
}
330
3FA9
100
AcDbXrecord
280
     1
270
     1
271
     1
  0
XRECORD
  5
3FAF
102
{ACAD_REACTORS
330
3FA9
102
}
330
3FA9
100
AcDbXrecord
280
     1
270
     1
271
     1
  0
XRECORD
  5
3FAC
102
{ACAD_REACTORS
330
3FA9
102
}
330
3FA9
100
AcDbXrecord
280
     1
270
     1
271
     1
  0
XRECORD
  5
42CA
102
{ACAD_REACTORS
330
3FB9
102
}
330
3FB9
100
AcDbXrecord
280
     1
102
MATERIAL
148
0.0
149
0.0
149
0.0
 93
        0
 94
      127
282
     0
 72
     0
 77
     0
171
     0
175
     0
179
     0
273
     0
  0
XRECORD
  5
3FBB
102
{ACAD_REACTORS
330
3FB9
102
}
330
3FB9
100
AcDbXrecord
280
     1
270
     1
271
     1
  0
XRECORD
  5
3FBA
102
{ACAD_REACTORS
330
3FB9
102
}
330
3FB9
100
AcDbXrecord
280
     1
270
     1
271
     1
  0
XRECORD
  5
3FBE
102
{ACAD_REACTORS
330
3FB9
102
}
330
3FB9
100
AcDbXrecord
280
     1
270
     1
271
     1
  0
XRECORD
  5
3FBD
102
{ACAD_REACTORS
330
3FB9
102
}
330
3FB9
100
AcDbXrecord
280
     1
270
     1
271
     1
  0
XRECORD
  5
3FBF
102
{ACAD_REACTORS
330
3FB9
102
}
330
3FB9
100
AcDbXrecord
280
     1
270
     1
271
     1
  0
XRECORD
  5
3FBC
102
{ACAD_REACTORS
330
3FB9
102
}
330
3FB9
100
AcDbXrecord
280
     1
270
     1
271
     1
  0
XRECORD
  5
42FD
102
{ACAD_REACTORS
330
42FC
102
}
330
42FC
100
AcDbXrecord
280
     1
102
DISPLAYNAME
  1
Imperial24
102
FLAGS
 90
        0
  0
CELLSTYLEMAP
  5
42BB
102
{ACAD_REACTORS
330
42BA
102
}
330
42BA
100
AcDbCellStyleMap
 90
        3
300
CELLSTYLE
  1
TABLEFORMAT_BEGIN
 90
        5
170
     1
 91
        0
 92
    32768
 62
   257
 93
        1
300
CONTENTFORMAT
  1
CONTENTFORMAT_BEGIN
 90
        0
 91
        0
 92
      512
 93
        0
300

 40
0.0
140
1.0
 94
        5
 62
     0
340
3FEC
144
0.25
309
CONTENTFORMAT_END
171
     0
 94
        0
309
TABLEFORMAT_END
  1
CELLSTYLE_BEGIN
 90
        1
 91
        1
300
_TITLE
309
CELLSTYLE_END
300
CELLSTYLE
  1
TABLEFORMAT_BEGIN
 90
        5
170
     1
 91
        0
 92
        0
 62
   257
 93
        1
300
CONTENTFORMAT
  1
CONTENTFORMAT_BEGIN
 90
        0
 91
        0
 92
      512
 93
        0
300

 40
0.0
140
1.0
 94
        5
 62
     0
340
3FEC
144
0.18
309
CONTENTFORMAT_END
171
     0
 94
        0
309
TABLEFORMAT_END
  1
CELLSTYLE_BEGIN
 90
        2
 91
        1
300
_HEADER
309
CELLSTYLE_END
300
CELLSTYLE
  1
TABLEFORMAT_BEGIN
 90
        5
170
     1
 91
        0
 92
        0
 62
   257
 93
        1
300
CONTENTFORMAT
  1
CONTENTFORMAT_BEGIN
 90
        0
 91
        0
 92
      512
 93
        0
300

 40
0.0
140
1.0
 94
        2
 62
     0
340
3FEC
144
0.18
309
CONTENTFORMAT_END
171
     0
 94
        0
309
TABLEFORMAT_END
  1
CELLSTYLE_BEGIN
 90
        3
 91
        2
300
_DATA
309
CELLSTYLE_END
  0
XRECORD
  5
42FB
102
{ACAD_REACTORS
330
42BA
102
}
330
42BA
100
AcDbXrecord
280
     1
102
ACAD_ROUNDTRIP_PRE2007_TABLESTYLE
 90
      512
 91
        0
  1

 92
      512
 93
        0
  2

 94
      512
 95
        0
  3

  0
XRECORD
  5
42D6
102
{ACAD_REACTORS
330
42D5
102
}
330
42D5
100
AcDbXrecord
280
     1
102
RTVSPost2010Prop28
280
     1
102
RTVSPost2010PropOp28
 70
     1
102
RTVSPost2010Prop29
280
     1
102
RTVSPost2010PropOp29
 70
     1
102
RTVSPost2010Prop30
280
     0
102
RTVSPost2010PropOp30
 70
     1
102
RTVSPost2010Prop31
280
     0
102
RTVSPost2010PropOp31
 70
     1
102
RTVSPost2010Prop32
280
     0
102
RTVSPost2010PropOp32
 70
     1
102
RTVSPost2010Prop33
280
     0
102
RTVSPost2010PropOp33
 70
     1
102
RTVSPost2010Prop34
280
     0
102
RTVSPost2010PropOp34
 70
     1
102
RTVSPost2010Prop35
280
     0
102
RTVSPost2010PropOp35
 70
     1
102
RTVSPost2010Prop36
280
     0
102
RTVSPost2010PropOp36
 70
     1
102
RTVSPost2010Prop37
 90
       50
102
RTVSPost2010PropOp37
 70
     1
102
RTVSPost2010Prop38
140
0.0
102
RTVSPost2010PropOp38
 70
     1
102
RTVSPost2010Prop39
140
1.0
102
RTVSPost2010PropOp39
 70
     1
102
RTVSPost2010Prop40
 90
        0
102
RTVSPost2010PropOp40
 70
     1
102
RTVSPost2010Prop41ColorIndex
 90
       18
102
RTVSPost2010Prop41ColorRGB
 90
        0
102
RTVSPost2010PropOp41
 70
     1
102
RTVSPost2010Prop42
 90
       50
102
RTVSPost2010PropOp42
 70
     1
102
RTVSPost2010Prop43
 90
        3
102
RTVSPost2010PropOp43
 70
     1
102
RTVSPost2010Prop44ColorIndex
 90
        5
102
RTVSPost2010Prop44ColorRGB
 90
      255
102
RTVSPost2010PropOp44
 70
     1
102
RTVSPost2010Prop45
280
     0
102
RTVSPost2010PropOp45
 70
     1
102
RTVSPost2010Prop46
 90
       50
102
RTVSPost2010PropOp46
 70
     1
102
RTVSPost2010Prop47
 90
       50
102
RTVSPost2010PropOp47
 70
     1
102
RTVSPost2010Prop48
 90
       50
102
RTVSPost2010PropOp48
 70
     1
102
RTVSPost2010Prop49
280
     0
102
RTVSPost2010PropOp49
 70
     1
102
RTVSPost2010Prop50
 90
       50
102
RTVSPost2010PropOp50
 70
     1
102
RTVSPost2010Prop51ColorIndex
 90
      256
102
RTVSPost2010Prop51ColorRGB
 90
-16777216
102
RTVSPost2010PropOp51
 70
     0
102
RTVSPost2010Prop52
140
1.0
102
RTVSPost2010PropOp52
 70
     0
102
RTVSPost2010Prop53
 90
        2
102
RTVSPost2010PropOp53
 70
     1
102
RTVSPost2010Prop54
  1
strokes_ogs.tif
102
RTVSPost2010PropOp54
 70
     1
102
RTVSPost2010Prop55
280
     0
102
RTVSPost2010PropOp55
 70
     1
102
RTVSPost2010Prop56
140
1.0
102
RTVSPost2010PropOp56
 70
     1
102
RTVSPost2010Prop57
140
1.0
102
RTVSPost2010PropOp57
 70
     1
102
RTVSPropertyOp0
 70
     1
102
RTVSPropertyOp1
 70
     1
102
RTVSPropertyOp2
 70
     1
102
RTVSPropertyOp3
 70
     1
102
RTVSPropertyOp4
 70
     1
102
RTVSPropertyOp5
 70
     1
102
RTVSPropertyOp6
 70
     1
102
RTVSPropertyOp7
 70
     1
102
RTVSPropertyOp8
 70
     1
102
RTVSPropertyOp9
 70
     1
102
RTVSPropertyOp10
 70
     1
102
RTVSPropertyOp11
 70
     1
102
RTVSPropertyOp12
 70
     1
102
RTVSPropertyOp13
 70
     1
102
RTVSPropertyOp14
 70
     1
102
RTVSPropertyOp15
 70
     1
102
RTVSPropertyOp16
 70
     1
102
RTVSPropertyOp17
 70
     1
102
RTVSPropertyOp18
 70
     1
102
RTVSPropertyOp19
 70
     1
102
RTVSPropertyOp20
 70
     1
102
RTVSPropertyOp21
 70
     1
102
RTVSPropertyOp22
 70
     1
102
RTVSPropertyOp23
 70
     1
102
RTVSPropertyOp24
 70
     1
102
RTVSPropertyOp25
 70
     1
102
RTVSPropertyOp26
 70
     1
102
RTVSPropertyOp27
 70
     1
102
RTVSPropertyOp28
 70
     1
102
RTVSPropertyOp29
 70
     1
102
RTVSPropertyOp30
 70
     1
102
RTVSPropertyOp31
 70
     1
102
RTVSPropertyOp32
 70
     1
102
RTVSPropertyOp33
 70
     1
102
RTVSPropertyOp34
 70
     1
102
RTVSPropertyOp35
 70
     1
102
RTVSPropertyOp36
 70
     1
102
RTVSPropertyOp37
 70
     1
102
RTVSPropertyOp38
 70
     1
102
RTVSPropertyOp39
 70
     1
102
RTVSPropertyOp40
 70
     1
102
RTVSPropertyOp41
 70
     1
102
RTVSPropertyOp42
 70
     1
102
RTVSPropertyOp43
 70
     1
102
RTVSPropertyOp44
 70
     1
102
RTVSPropertyOp45
 70
     1
102
RTVSPropertyOp46
 70
     1
102
RTVSPropertyOp47
 70
     1
102
RTVSPropertyOp48
 70
     1
102
RTVSPropertyOp49
 70
     1
102
RTVSPropertyOp50
 70
     1
102
RTVSPropertyOp51
 70
     0
102
RTVSPropertyOp52
 70
     0
102
RTVSPropertyOp53
 70
     1
102
RTVSPropertyOp54
 70
     1
102
RTVSPropertyOp55
 70
     1
102
RTVSPropertyOp56
 70
     1
102
RTVSPropertyOp57
 70
     1
102
RTVSPropertyOp58
 70
     1
102
RTVSPropertyOp59
 70
     1
102
RTVSPropertyOp60
 70
     1
102
RTVSPropertyOp61
 70
     1
102
RTVSPropertyOp62
 70
     1
  0
XRECORD
  5
42D4
102
{ACAD_REACTORS
330
42D3
102
}
330
42D3
100
AcDbXrecord
280
     1
102
RTVSPost2010Prop28
280
     0
102
RTVSPost2010PropOp28
 70
     1
102
RTVSPost2010Prop29
280
     1
102
RTVSPost2010PropOp29
 70
     1
102
RTVSPost2010Prop30
280
     1
102
RTVSPost2010PropOp30
 70
     1
102
RTVSPost2010Prop31
280
     0
102
RTVSPost2010PropOp31
 70
     1
102
RTVSPost2010Prop32
280
     0
102
RTVSPost2010PropOp32
 70
     1
102
RTVSPost2010Prop33
280
     0
102
RTVSPost2010PropOp33
 70
     1
102
RTVSPost2010Prop34
280
     0
102
RTVSPost2010PropOp34
 70
     1
102
RTVSPost2010Prop35
280
     0
102
RTVSPost2010PropOp35
 70
     1
102
RTVSPost2010Prop36
280
     0
102
RTVSPost2010PropOp36
 70
     1
102
RTVSPost2010Prop37
 90
       50
102
RTVSPost2010PropOp37
 70
     1
102
RTVSPost2010Prop38
140
0.0
102
RTVSPost2010PropOp38
 70
     1
102
RTVSPost2010Prop39
140
1.0
102
RTVSPost2010PropOp39
 70
     1
102
RTVSPost2010Prop40
 90
        0
102
RTVSPost2010PropOp40
 70
     1
102
RTVSPost2010Prop41ColorIndex
 90
       18
102
RTVSPost2010Prop41ColorRGB
 90
        0
102
RTVSPost2010PropOp41
 70
     1
102
RTVSPost2010Prop42
 90
       50
102
RTVSPost2010PropOp42
 70
     1
102
RTVSPost2010Prop43
 90
        3
102
RTVSPost2010PropOp43
 70
     1
102
RTVSPost2010Prop44ColorIndex
 90
        5
102
RTVSPost2010Prop44ColorRGB
 90
      255
102
RTVSPost2010PropOp44
 70
     1
102
RTVSPost2010Prop45
280
     0
102
RTVSPost2010PropOp45
 70
     1
102
RTVSPost2010Prop46
 90
       50
102
RTVSPost2010PropOp46
 70
     1
102
RTVSPost2010Prop47
 90
       50
102
RTVSPost2010PropOp47
 70
     1
102
RTVSPost2010Prop48
 90
       50
102
RTVSPost2010PropOp48
 70
     1
102
RTVSPost2010Prop49
280
     0
102
RTVSPost2010PropOp49
 70
     1
102
RTVSPost2010Prop50
 90
       50
102
RTVSPost2010PropOp50
 70
     1
102
RTVSPost2010Prop51ColorIndex
 90
      256
102
RTVSPost2010Prop51ColorRGB
 90
-16777216
102
RTVSPost2010PropOp51
 70
     0
102
RTVSPost2010Prop52
140
1.0
102
RTVSPost2010PropOp52
 70
     0
102
RTVSPost2010Prop53
 90
        2
102
RTVSPost2010PropOp53
 70
     1
102
RTVSPost2010Prop54
  1
strokes_ogs.tif
102
RTVSPost2010PropOp54
 70
     1
102
RTVSPost2010Prop55
280
     0
102
RTVSPost2010PropOp55
 70
     1
102
RTVSPost2010Prop56
140
1.0
102
RTVSPost2010PropOp56
 70
     1
102
RTVSPost2010Prop57
140
1.0
102
RTVSPost2010PropOp57
 70
     1
102
RTVSPropertyOp0
 70
     1
102
RTVSPropertyOp1
 70
     1
102
RTVSPropertyOp2
 70
     1
102
RTVSPropertyOp3
 70
     1
102
RTVSPropertyOp4
 70
     1
102
RTVSPropertyOp5
 70
     1
102
RTVSPropertyOp6
 70
     1
102
RTVSPropertyOp7
 70
     1
102
RTVSPropertyOp8
 70
     1
102
RTVSPropertyOp9
 70
     1
102
RTVSPropertyOp10
 70
     1
102
RTVSPropertyOp11
 70
     1
102
RTVSPropertyOp12
 70
     1
102
RTVSPropertyOp13
 70
     1
102
RTVSPropertyOp14
 70
     1
102
RTVSPropertyOp15
 70
     1
102
RTVSPropertyOp16
 70
     1
102
RTVSPropertyOp17
 70
     1
102
RTVSPropertyOp18
 70
     1
102
RTVSPropertyOp19
 70
     1
102
RTVSPropertyOp20
 70
     1
102
RTVSPropertyOp21
 70
     1
102
RTVSPropertyOp22
 70
     1
102
RTVSPropertyOp23
 70
     1
102
RTVSPropertyOp24
 70
     1
102
RTVSPropertyOp25
 70
     1
102
RTVSPropertyOp26
 70
     1
102
RTVSPropertyOp27
 70
     1
102
RTVSPropertyOp28
 70
     1
102
RTVSPropertyOp29
 70
     1
102
RTVSPropertyOp30
 70
     1
102
RTVSPropertyOp31
 70
     1
102
RTVSPropertyOp32
 70
     1
102
RTVSPropertyOp33
 70
     1
102
RTVSPropertyOp34
 70
     1
102
RTVSPropertyOp35
 70
     1
102
RTVSPropertyOp36
 70
     1
102
RTVSPropertyOp37
 70
     1
102
RTVSPropertyOp38
 70
     1
102
RTVSPropertyOp39
 70
     1
102
RTVSPropertyOp40
 70
     1
102
RTVSPropertyOp41
 70
     1
102
RTVSPropertyOp42
 70
     1
102
RTVSPropertyOp43
 70
     1
102
RTVSPropertyOp44
 70
     1
102
RTVSPropertyOp45
 70
     1
102
RTVSPropertyOp46
 70
     1
102
RTVSPropertyOp47
 70
     1
102
RTVSPropertyOp48
 70
     1
102
RTVSPropertyOp49
 70
     1
102
RTVSPropertyOp50
 70
     1
102
RTVSPropertyOp51
 70
     0
102
RTVSPropertyOp52
 70
     0
102
RTVSPropertyOp53
 70
     1
102
RTVSPropertyOp54
 70
     1
102
RTVSPropertyOp55
 70
     1
102
RTVSPropertyOp56
 70
     1
102
RTVSPropertyOp57
 70
     1
102
RTVSPropertyOp58
 70
     1
102
RTVSPropertyOp59
 70
     1
102
RTVSPropertyOp60
 70
     1
102
RTVSPropertyOp61
 70
     1
102
RTVSPropertyOp62
 70
     1
  0
XRECORD
  5
42E2
102
{ACAD_REACTORS
330
42E1
102
}
330
42E1
100
AcDbXrecord
280
     1
102
RTVSPost2010Prop28
280
     0
102
RTVSPost2010PropOp28
 70
     1
102
RTVSPost2010Prop29
280
     1
102
RTVSPost2010PropOp29
 70
     1
102
RTVSPost2010Prop30
280
     1
102
RTVSPost2010PropOp30
 70
     1
102
RTVSPost2010Prop31
280
     0
102
RTVSPost2010PropOp31
 70
     1
102
RTVSPost2010Prop32
280
     0
102
RTVSPost2010PropOp32
 70
     1
102
RTVSPost2010Prop33
280
     0
102
RTVSPost2010PropOp33
 70
     1
102
RTVSPost2010Prop34
280
     0
102
RTVSPost2010PropOp34
 70
     1
102
RTVSPost2010Prop35
280
     0
102
RTVSPost2010PropOp35
 70
     1
102
RTVSPost2010Prop36
280
     0
102
RTVSPost2010PropOp36
 70
     1
102
RTVSPost2010Prop37
 90
       50
102
RTVSPost2010PropOp37
 70
     1
102
RTVSPost2010Prop38
140
0.0
102
RTVSPost2010PropOp38
 70
     1
102
RTVSPost2010Prop39
140
1.0
102
RTVSPost2010PropOp39
 70
     1
102
RTVSPost2010Prop40
 90
        0
102
RTVSPost2010PropOp40
 70
     1
102
RTVSPost2010Prop41ColorIndex
 90
       18
102
RTVSPost2010Prop41ColorRGB
 90
        0
102
RTVSPost2010PropOp41
 70
     1
102
RTVSPost2010Prop42
 90
       50
102
RTVSPost2010PropOp42
 70
     1
102
RTVSPost2010Prop43
 90
        3
102
RTVSPost2010PropOp43
 70
     1
102
RTVSPost2010Prop44ColorIndex
 90
        5
102
RTVSPost2010Prop44ColorRGB
 90
      255
102
RTVSPost2010PropOp44
 70
     1
102
RTVSPost2010Prop45
280
     0
102
RTVSPost2010PropOp45
 70
     1
102
RTVSPost2010Prop46
 90
       50
102
RTVSPost2010PropOp46
 70
     1
102
RTVSPost2010Prop47
 90
       50
102
RTVSPost2010PropOp47
 70
     1
102
RTVSPost2010Prop48
 90
       50
102
RTVSPost2010PropOp48
 70
     1
102
RTVSPost2010Prop49
280
     0
102
RTVSPost2010PropOp49
 70
     1
102
RTVSPost2010Prop50
 90
       50
102
RTVSPost2010PropOp50
 70
     1
102
RTVSPost2010Prop51ColorIndex
 90
      256
102
RTVSPost2010Prop51ColorRGB
 90
-16777216
102
RTVSPost2010PropOp51
 70
     0
102
RTVSPost2010Prop52
140
1.0
102
RTVSPost2010PropOp52
 70
     0
102
RTVSPost2010Prop53
 90
        2
102
RTVSPost2010PropOp53
 70
     1
102
RTVSPost2010Prop54
  1
strokes_ogs.tif
102
RTVSPost2010PropOp54
 70
     1
102
RTVSPost2010Prop55
280
     0
102
RTVSPost2010PropOp55
 70
     1
102
RTVSPost2010Prop56
140
1.0
102
RTVSPost2010PropOp56
 70
     1
102
RTVSPost2010Prop57
140
1.0
102
RTVSPost2010PropOp57
 70
     1
102
RTVSPropertyOp0
 70
     1
102
RTVSPropertyOp1
 70
     1
102
RTVSPropertyOp2
 70
     1
102
RTVSPropertyOp3
 70
     1
102
RTVSPropertyOp4
 70
     1
102
RTVSPropertyOp5
 70
     1
102
RTVSPropertyOp6
 70
     1
102
RTVSPropertyOp7
 70
     1
102
RTVSPropertyOp8
 70
     1
102
RTVSPropertyOp9
 70
     1
102
RTVSPropertyOp10
 70
     1
102
RTVSPropertyOp11
 70
     1
102
RTVSPropertyOp12
 70
     1
102
RTVSPropertyOp13
 70
     1
102
RTVSPropertyOp14
 70
     1
102
RTVSPropertyOp15
 70
     1
102
RTVSPropertyOp16
 70
     1
102
RTVSPropertyOp17
 70
     1
102
RTVSPropertyOp18
 70
     1
102
RTVSPropertyOp19
 70
     1
102
RTVSPropertyOp20
 70
     1
102
RTVSPropertyOp21
 70
     1
102
RTVSPropertyOp22
 70
     1
102
RTVSPropertyOp23
 70
     1
102
RTVSPropertyOp24
 70
     1
102
RTVSPropertyOp25
 70
     1
102
RTVSPropertyOp26
 70
     1
102
RTVSPropertyOp27
 70
     1
102
RTVSPropertyOp28
 70
     1
102
RTVSPropertyOp29
 70
     1
102
RTVSPropertyOp30
 70
     1
102
RTVSPropertyOp31
 70
     1
102
RTVSPropertyOp32
 70
     1
102
RTVSPropertyOp33
 70
     1
102
RTVSPropertyOp34
 70
     1
102
RTVSPropertyOp35
 70
     1
102
RTVSPropertyOp36
 70
     1
102
RTVSPropertyOp37
 70
     1
102
RTVSPropertyOp38
 70
     1
102
RTVSPropertyOp39
 70
     1
102
RTVSPropertyOp40
 70
     1
102
RTVSPropertyOp41
 70
     1
102
RTVSPropertyOp42
 70
     1
102
RTVSPropertyOp43
 70
     1
102
RTVSPropertyOp44
 70
     1
102
RTVSPropertyOp45
 70
     1
102
RTVSPropertyOp46
 70
     1
102
RTVSPropertyOp47
 70
     1
102
RTVSPropertyOp48
 70
     1
102
RTVSPropertyOp49
 70
     1
102
RTVSPropertyOp50
 70
     1
102
RTVSPropertyOp51
 70
     0
102
RTVSPropertyOp52
 70
     0
102
RTVSPropertyOp53
 70
     1
102
RTVSPropertyOp54
 70
     1
102
RTVSPropertyOp55
 70
     1
102
RTVSPropertyOp56
 70
     1
102
RTVSPropertyOp57
 70
     1
102
RTVSPropertyOp58
 70
     1
102
RTVSPropertyOp59
 70
     1
102
RTVSPropertyOp60
 70
     1
102
RTVSPropertyOp61
 70
     1
102
RTVSPropertyOp62
 70
     1
  0
XRECORD
  5
42EA
102
{ACAD_REACTORS
330
42E9
102
}
330
42E9
100
AcDbXrecord
280
     1
102
RTVSPost2010Prop28
280
     0
102
RTVSPost2010PropOp28
 70
     1
102
RTVSPost2010Prop29
280
     1
102
RTVSPost2010PropOp29
 70
     1
102
RTVSPost2010Prop30
280
     1
102
RTVSPost2010PropOp30
 70
     1
102
RTVSPost2010Prop31
280
     0
102
RTVSPost2010PropOp31
 70
     1
102
RTVSPost2010Prop32
280
     0
102
RTVSPost2010PropOp32
 70
     1
102
RTVSPost2010Prop33
280
     0
102
RTVSPost2010PropOp33
 70
     1
102
RTVSPost2010Prop34
280
     0
102
RTVSPost2010PropOp34
 70
     1
102
RTVSPost2010Prop35
280
     0
102
RTVSPost2010PropOp35
 70
     1
102
RTVSPost2010Prop36
280
     0
102
RTVSPost2010PropOp36
 70
     1
102
RTVSPost2010Prop37
 90
       50
102
RTVSPost2010PropOp37
 70
     1
102
RTVSPost2010Prop38
140
0.0
102
RTVSPost2010PropOp38
 70
     1
102
RTVSPost2010Prop39
140
1.0
102
RTVSPost2010PropOp39
 70
     1
102
RTVSPost2010Prop40
 90
        0
102
RTVSPost2010PropOp40
 70
     1
102
RTVSPost2010Prop41ColorIndex
 90
       18
102
RTVSPost2010Prop41ColorRGB
 90
        0
102
RTVSPost2010PropOp41
 70
     1
102
RTVSPost2010Prop42
 90
       50
102
RTVSPost2010PropOp42
 70
     1
102
RTVSPost2010Prop43
 90
        3
102
RTVSPost2010PropOp43
 70
     1
102
RTVSPost2010Prop44ColorIndex
 90
        5
102
RTVSPost2010Prop44ColorRGB
 90
      255
102
RTVSPost2010PropOp44
 70
     1
102
RTVSPost2010Prop45
280
     0
102
RTVSPost2010PropOp45
 70
     1
102
RTVSPost2010Prop46
 90
       50
102
RTVSPost2010PropOp46
 70
     1
102
RTVSPost2010Prop47
 90
       50
102
RTVSPost2010PropOp47
 70
     1
102
RTVSPost2010Prop48
 90
       50
102
RTVSPost2010PropOp48
 70
     1
102
RTVSPost2010Prop49
280
     0
102
RTVSPost2010PropOp49
 70
     1
102
RTVSPost2010Prop50
 90
       50
102
RTVSPost2010PropOp50
 70
     1
102
RTVSPost2010Prop51ColorIndex
 90
      256
102
RTVSPost2010Prop51ColorRGB
 90
-16777216
102
RTVSPost2010PropOp51
 70
     0
102
RTVSPost2010Prop52
140
1.0
102
RTVSPost2010PropOp52
 70
     0
102
RTVSPost2010Prop53
 90
        2
102
RTVSPost2010PropOp53
 70
     1
102
RTVSPost2010Prop54
  1
strokes_ogs.tif
102
RTVSPost2010PropOp54
 70
     1
102
RTVSPost2010Prop55
280
     0
102
RTVSPost2010PropOp55
 70
     1
102
RTVSPost2010Prop56
140
1.0
102
RTVSPost2010PropOp56
 70
     1
102
RTVSPost2010Prop57
140
1.0
102
RTVSPost2010PropOp57
 70
     1
102
RTVSPropertyOp0
 70
     1
102
RTVSPropertyOp1
 70
     1
102
RTVSPropertyOp2
 70
     1
102
RTVSPropertyOp3
 70
     1
102
RTVSPropertyOp4
 70
     1
102
RTVSPropertyOp5
 70
     1
102
RTVSPropertyOp6
 70
     1
102
RTVSPropertyOp7
 70
     1
102
RTVSPropertyOp8
 70
     1
102
RTVSPropertyOp9
 70
     1
102
RTVSPropertyOp10
 70
     1
102
RTVSPropertyOp11
 70
     1
102
RTVSPropertyOp12
 70
     1
102
RTVSPropertyOp13
 70
     1
102
RTVSPropertyOp14
 70
     1
102
RTVSPropertyOp15
 70
     1
102
RTVSPropertyOp16
 70
     1
102
RTVSPropertyOp17
 70
     1
102
RTVSPropertyOp18
 70
     1
102
RTVSPropertyOp19
 70
     1
102
RTVSPropertyOp20
 70
     1
102
RTVSPropertyOp21
 70
     1
102
RTVSPropertyOp22
 70
     1
102
RTVSPropertyOp23
 70
     1
102
RTVSPropertyOp24
 70
     1
102
RTVSPropertyOp25
 70
     1
102
RTVSPropertyOp26
 70
     1
102
RTVSPropertyOp27
 70
     1
102
RTVSPropertyOp28
 70
     1
102
RTVSPropertyOp29
 70
     1
102
RTVSPropertyOp30
 70
     1
102
RTVSPropertyOp31
 70
     1
102
RTVSPropertyOp32
 70
     1
102
RTVSPropertyOp33
 70
     1
102
RTVSPropertyOp34
 70
     1
102
RTVSPropertyOp35
 70
     1
102
RTVSPropertyOp36
 70
     1
102
RTVSPropertyOp37
 70
     1
102
RTVSPropertyOp38
 70
     1
102
RTVSPropertyOp39
 70
     1
102
RTVSPropertyOp40
 70
     1
102
RTVSPropertyOp41
 70
     1
102
RTVSPropertyOp42
 70
     1
102
RTVSPropertyOp43
 70
     1
102
RTVSPropertyOp44
 70
     1
102
RTVSPropertyOp45
 70
     1
102
RTVSPropertyOp46
 70
     1
102
RTVSPropertyOp47
 70
     1
102
RTVSPropertyOp48
 70
     1
102
RTVSPropertyOp49
 70
     1
102
RTVSPropertyOp50
 70
     1
102
RTVSPropertyOp51
 70
     0
102
RTVSPropertyOp52
 70
     0
102
RTVSPropertyOp53
 70
     1
102
RTVSPropertyOp54
 70
     1
102
RTVSPropertyOp55
 70
     1
102
RTVSPropertyOp56
 70
     1
102
RTVSPropertyOp57
 70
     1
102
RTVSPropertyOp58
 70
     1
102
RTVSPropertyOp59
 70
     1
102
RTVSPropertyOp60
 70
     1
102
RTVSPropertyOp61
 70
     1
102
RTVSPropertyOp62
 70
     1
  0
XRECORD
  5
42DC
102
{ACAD_REACTORS
330
42DB
102
}
330
42DB
100
AcDbXrecord
280
     1
102
RTVSPost2010Prop28
280
     0
102
RTVSPost2010PropOp28
 70
     1
102
RTVSPost2010Prop29
280
     1
102
RTVSPost2010PropOp29
 70
     1
102
RTVSPost2010Prop30
280
     1
102
RTVSPost2010PropOp30
 70
     1
102
RTVSPost2010Prop31
280
     0
102
RTVSPost2010PropOp31
 70
     1
102
RTVSPost2010Prop32
280
     0
102
RTVSPost2010PropOp32
 70
     1
102
RTVSPost2010Prop33
280
     0
102
RTVSPost2010PropOp33
 70
     1
102
RTVSPost2010Prop34
280
     0
102
RTVSPost2010PropOp34
 70
     1
102
RTVSPost2010Prop35
280
     0
102
RTVSPost2010PropOp35
 70
     1
102
RTVSPost2010Prop36
280
     0
102
RTVSPost2010PropOp36
 70
     1
102
RTVSPost2010Prop37
 90
       50
102
RTVSPost2010PropOp37
 70
     1
102
RTVSPost2010Prop38
140
0.0
102
RTVSPost2010PropOp38
 70
     1
102
RTVSPost2010Prop39
140
1.0
102
RTVSPost2010PropOp39
 70
     1
102
RTVSPost2010Prop40
 90
        0
102
RTVSPost2010PropOp40
 70
     1
102
RTVSPost2010Prop41ColorIndex
 90
       18
102
RTVSPost2010Prop41ColorRGB
 90
        0
102
RTVSPost2010PropOp41
 70
     1
102
RTVSPost2010Prop42
 90
       50
102
RTVSPost2010PropOp42
 70
     1
102
RTVSPost2010Prop43
 90
        3
102
RTVSPost2010PropOp43
 70
     1
102
RTVSPost2010Prop44ColorIndex
 90
        5
102
RTVSPost2010Prop44ColorRGB
 90
      255
102
RTVSPost2010PropOp44
 70
     1
102
RTVSPost2010Prop45
280
     0
102
RTVSPost2010PropOp45
 70
     1
102
RTVSPost2010Prop46
 90
       50
102
RTVSPost2010PropOp46
 70
     1
102
RTVSPost2010Prop47
 90
       50
102
RTVSPost2010PropOp47
 70
     1
102
RTVSPost2010Prop48
 90
       50
102
RTVSPost2010PropOp48
 70
     1
102
RTVSPost2010Prop49
280
     0
102
RTVSPost2010PropOp49
 70
     1
102
RTVSPost2010Prop50
 90
       50
102
RTVSPost2010PropOp50
 70
     1
102
RTVSPost2010Prop51ColorIndex
 90
      256
102
RTVSPost2010Prop51ColorRGB
 90
-16777216
102
RTVSPost2010PropOp51
 70
     0
102
RTVSPost2010Prop52
140
1.0
102
RTVSPost2010PropOp52
 70
     0
102
RTVSPost2010Prop53
 90
        2
102
RTVSPost2010PropOp53
 70
     1
102
RTVSPost2010Prop54
  1
strokes_ogs.tif
102
RTVSPost2010PropOp54
 70
     1
102
RTVSPost2010Prop55
280
     0
102
RTVSPost2010PropOp55
 70
     1
102
RTVSPost2010Prop56
140
1.0
102
RTVSPost2010PropOp56
 70
     1
102
RTVSPost2010Prop57
140
1.0
102
RTVSPost2010PropOp57
 70
     1
102
RTVSPropertyOp0
 70
     1
102
RTVSPropertyOp1
 70
     1
102
RTVSPropertyOp2
 70
     1
102
RTVSPropertyOp3
 70
     1
102
RTVSPropertyOp4
 70
     1
102
RTVSPropertyOp5
 70
     1
102
RTVSPropertyOp6
 70
     1
102
RTVSPropertyOp7
 70
     1
102
RTVSPropertyOp8
 70
     1
102
RTVSPropertyOp9
 70
     1
102
RTVSPropertyOp10
 70
     1
102
RTVSPropertyOp11
 70
     1
102
RTVSPropertyOp12
 70
     1
102
RTVSPropertyOp13
 70
     1
102
RTVSPropertyOp14
 70
     1
102
RTVSPropertyOp15
 70
     1
102
RTVSPropertyOp16
 70
     1
102
RTVSPropertyOp17
 70
     1
102
RTVSPropertyOp18
 70
     1
102
RTVSPropertyOp19
 70
     1
102
RTVSPropertyOp20
 70
     1
102
RTVSPropertyOp21
 70
     1
102
RTVSPropertyOp22
 70
     1
102
RTVSPropertyOp23
 70
     1
102
RTVSPropertyOp24
 70
     1
102
RTVSPropertyOp25
 70
     1
102
RTVSPropertyOp26
 70
     1
102
RTVSPropertyOp27
 70
     1
102
RTVSPropertyOp28
 70
     1
102
RTVSPropertyOp29
 70
     1
102
RTVSPropertyOp30
 70
     1
102
RTVSPropertyOp31
 70
     1
102
RTVSPropertyOp32
 70
     1
102
RTVSPropertyOp33
 70
     1
102
RTVSPropertyOp34
 70
     1
102
RTVSPropertyOp35
 70
     1
102
RTVSPropertyOp36
 70
     1
102
RTVSPropertyOp37
 70
     1
102
RTVSPropertyOp38
 70
     1
102
RTVSPropertyOp39
 70
     1
102
RTVSPropertyOp40
 70
     1
102
RTVSPropertyOp41
 70
     1
102
RTVSPropertyOp42
 70
     1
102
RTVSPropertyOp43
 70
     1
102
RTVSPropertyOp44
 70
     1
102
RTVSPropertyOp45
 70
     1
102
RTVSPropertyOp46
 70
     1
102
RTVSPropertyOp47
 70
     1
102
RTVSPropertyOp48
 70
     1
102
RTVSPropertyOp49
 70
     1
102
RTVSPropertyOp50
 70
     1
102
RTVSPropertyOp51
 70
     0
102
RTVSPropertyOp52
 70
     0
102
RTVSPropertyOp53
 70
     1
102
RTVSPropertyOp54
 70
     1
102
RTVSPropertyOp55
 70
     1
102
RTVSPropertyOp56
 70
     1
102
RTVSPropertyOp57
 70
     1
102
RTVSPropertyOp58
 70
     1
102
RTVSPropertyOp59
 70
     1
102
RTVSPropertyOp60
 70
     1
102
RTVSPropertyOp61
 70
     1
102
RTVSPropertyOp62
 70
     1
  0
XRECORD
  5
42E0
102
{ACAD_REACTORS
330
42DF
102
}
330
42DF
100
AcDbXrecord
280
     1
102
RTVSPost2010Prop28
280
     0
102
RTVSPost2010PropOp28
 70
     1
102
RTVSPost2010Prop29
280
     1
102
RTVSPost2010PropOp29
 70
     1
102
RTVSPost2010Prop30
280
     1
102
RTVSPost2010PropOp30
 70
     1
102
RTVSPost2010Prop31
280
     0
102
RTVSPost2010PropOp31
 70
     1
102
RTVSPost2010Prop32
280
     0
102
RTVSPost2010PropOp32
 70
     1
102
RTVSPost2010Prop33
280
     0
102
RTVSPost2010PropOp33
 70
     1
102
RTVSPost2010Prop34
280
     0
102
RTVSPost2010PropOp34
 70
     1
102
RTVSPost2010Prop35
280
     0
102
RTVSPost2010PropOp35
 70
     1
102
RTVSPost2010Prop36
280
     0
102
RTVSPost2010PropOp36
 70
     1
102
RTVSPost2010Prop37
 90
       50
102
RTVSPost2010PropOp37
 70
     1
102
RTVSPost2010Prop38
140
0.0
102
RTVSPost2010PropOp38
 70
     1
102
RTVSPost2010Prop39
140
1.0
102
RTVSPost2010PropOp39
 70
     1
102
RTVSPost2010Prop40
 90
        0
102
RTVSPost2010PropOp40
 70
     1
102
RTVSPost2010Prop41ColorIndex
 90
       18
102
RTVSPost2010Prop41ColorRGB
 90
        0
102
RTVSPost2010PropOp41
 70
     1
102
RTVSPost2010Prop42
 90
       50
102
RTVSPost2010PropOp42
 70
     1
102
RTVSPost2010Prop43
 90
        3
102
RTVSPost2010PropOp43
 70
     1
102
RTVSPost2010Prop44ColorIndex
 90
        5
102
RTVSPost2010Prop44ColorRGB
 90
      255
102
RTVSPost2010PropOp44
 70
     1
102
RTVSPost2010Prop45
280
     0
102
RTVSPost2010PropOp45
 70
     1
102
RTVSPost2010Prop46
 90
       50
102
RTVSPost2010PropOp46
 70
     1
102
RTVSPost2010Prop47
 90
       50
102
RTVSPost2010PropOp47
 70
     1
102
RTVSPost2010Prop48
 90
       50
102
RTVSPost2010PropOp48
 70
     1
102
RTVSPost2010Prop49
280
     0
102
RTVSPost2010PropOp49
 70
     1
102
RTVSPost2010Prop50
 90
       50
102
RTVSPost2010PropOp50
 70
     1
102
RTVSPost2010Prop51ColorIndex
 90
      256
102
RTVSPost2010Prop51ColorRGB
 90
-16777216
102
RTVSPost2010PropOp51
 70
     0
102
RTVSPost2010Prop52
140
1.0
102
RTVSPost2010PropOp52
 70
     0
102
RTVSPost2010Prop53
 90
        2
102
RTVSPost2010PropOp53
 70
     1
102
RTVSPost2010Prop54
  1
strokes_ogs.tif
102
RTVSPost2010PropOp54
 70
     1
102
RTVSPost2010Prop55
280
     0
102
RTVSPost2010PropOp55
 70
     1
102
RTVSPost2010Prop56
140
1.0
102
RTVSPost2010PropOp56
 70
     1
102
RTVSPost2010Prop57
140
1.0
102
RTVSPost2010PropOp57
 70
     1
102
RTVSPropertyOp0
 70
     1
102
RTVSPropertyOp1
 70
     1
102
RTVSPropertyOp2
 70
     1
102
RTVSPropertyOp3
 70
     1
102
RTVSPropertyOp4
 70
     1
102
RTVSPropertyOp5
 70
     1
102
RTVSPropertyOp6
 70
     1
102
RTVSPropertyOp7
 70
     1
102
RTVSPropertyOp8
 70
     1
102
RTVSPropertyOp9
 70
     1
102
RTVSPropertyOp10
 70
     1
102
RTVSPropertyOp11
 70
     1
102
RTVSPropertyOp12
 70
     1
102
RTVSPropertyOp13
 70
     1
102
RTVSPropertyOp14
 70
     1
102
RTVSPropertyOp15
 70
     1
102
RTVSPropertyOp16
 70
     1
102
RTVSPropertyOp17
 70
     1
102
RTVSPropertyOp18
 70
     1
102
RTVSPropertyOp19
 70
     1
102
RTVSPropertyOp20
 70
     1
102
RTVSPropertyOp21
 70
     1
102
RTVSPropertyOp22
 70
     1
102
RTVSPropertyOp23
 70
     1
102
RTVSPropertyOp24
 70
     1
102
RTVSPropertyOp25
 70
     1
102
RTVSPropertyOp26
 70
     1
102
RTVSPropertyOp27
 70
     1
102
RTVSPropertyOp28
 70
     1
102
RTVSPropertyOp29
 70
     1
102
RTVSPropertyOp30
 70
     1
102
RTVSPropertyOp31
 70
     1
102
RTVSPropertyOp32
 70
     1
102
RTVSPropertyOp33
 70
     1
102
RTVSPropertyOp34
 70
     1
102
RTVSPropertyOp35
 70
     1
102
RTVSPropertyOp36
 70
     1
102
RTVSPropertyOp37
 70
     1
102
RTVSPropertyOp38
 70
     1
102
RTVSPropertyOp39
 70
     1
102
RTVSPropertyOp40
 70
     1
102
RTVSPropertyOp41
 70
     1
102
RTVSPropertyOp42
 70
     1
102
RTVSPropertyOp43
 70
     1
102
RTVSPropertyOp44
 70
     1
102
RTVSPropertyOp45
 70
     1
102
RTVSPropertyOp46
 70
     1
102
RTVSPropertyOp47
 70
     1
102
RTVSPropertyOp48
 70
     1
102
RTVSPropertyOp49
 70
     1
102
RTVSPropertyOp50
 70
     1
102
RTVSPropertyOp51
 70
     0
102
RTVSPropertyOp52
 70
     0
102
RTVSPropertyOp53
 70
     1
102
RTVSPropertyOp54
 70
     1
102
RTVSPropertyOp55
 70
     1
102
RTVSPropertyOp56
 70
     1
102
RTVSPropertyOp57
 70
     1
102
RTVSPropertyOp58
 70
     1
102
RTVSPropertyOp59
 70
     1
102
RTVSPropertyOp60
 70
     1
102
RTVSPropertyOp61
 70
     1
102
RTVSPropertyOp62
 70
     1
  0
XRECORD
  5
42FA
102
{ACAD_REACTORS
330
42F9
102
}
330
42F9
100
AcDbXrecord
280
     1
102
RTVSPost2010Prop28
280
     0
102
RTVSPost2010PropOp28
 70
     1
102
RTVSPost2010Prop29
280
     1
102
RTVSPost2010PropOp29
 70
     1
102
RTVSPost2010Prop30
280
     1
102
RTVSPost2010PropOp30
 70
     1
102
RTVSPost2010Prop31
280
     0
102
RTVSPost2010PropOp31
 70
     1
102
RTVSPost2010Prop32
280
     0
102
RTVSPost2010PropOp32
 70
     1
102
RTVSPost2010Prop33
280
     0
102
RTVSPost2010PropOp33
 70
     1
102
RTVSPost2010Prop34
280
     0
102
RTVSPost2010PropOp34
 70
     1
102
RTVSPost2010Prop35
280
     0
102
RTVSPost2010PropOp35
 70
     1
102
RTVSPost2010Prop36
280
     0
102
RTVSPost2010PropOp36
 70
     1
102
RTVSPost2010Prop37
 90
       50
102
RTVSPost2010PropOp37
 70
     0
102
RTVSPost2010Prop38
140
0.0
102
RTVSPost2010PropOp38
 70
     0
102
RTVSPost2010Prop39
140
1.0
102
RTVSPost2010PropOp39
 70
     0
102
RTVSPost2010Prop40
 90
        0
102
RTVSPost2010PropOp40
 70
     0
102
RTVSPost2010Prop41ColorIndex
 90
       18
102
RTVSPost2010Prop41ColorRGB
 90
        0
102
RTVSPost2010PropOp41
 70
     0
102
RTVSPost2010Prop42
 90
       50
102
RTVSPost2010PropOp42
 70
     0
102
RTVSPost2010Prop43
 90
        3
102
RTVSPost2010PropOp43
 70
     0
102
RTVSPost2010Prop44ColorIndex
 90
        5
102
RTVSPost2010Prop44ColorRGB
 90
      255
102
RTVSPost2010PropOp44
 70
     0
102
RTVSPost2010Prop45
280
     0
102
RTVSPost2010PropOp45
 70
     1
102
RTVSPost2010Prop46
 90
       50
102
RTVSPost2010PropOp46
 70
     0
102
RTVSPost2010Prop47
 90
       50
102
RTVSPost2010PropOp47
 70
     0
102
RTVSPost2010Prop48
 90
       50
102
RTVSPost2010PropOp48
 70
     0
102
RTVSPost2010Prop49
280
     0
102
RTVSPost2010PropOp49
 70
     1
102
RTVSPost2010Prop50
 90
       50
102
RTVSPost2010PropOp50
 70
     0
102
RTVSPost2010Prop51ColorIndex
 90
      256
102
RTVSPost2010Prop51ColorRGB
 90
-16777216
102
RTVSPost2010PropOp51
 70
     0
102
RTVSPost2010Prop52
140
1.0
102
RTVSPost2010PropOp52
 70
     0
102
RTVSPost2010Prop53
 90
        2
102
RTVSPost2010PropOp53
 70
     0
102
RTVSPost2010Prop54
  1
strokes_ogs.tif
102
RTVSPost2010PropOp54
 70
     0
102
RTVSPost2010Prop55
280
     0
102
RTVSPost2010PropOp55
 70
     1
102
RTVSPost2010Prop56
140
1.0
102
RTVSPost2010PropOp56
 70
     0
102
RTVSPost2010Prop57
140
1.0
102
RTVSPost2010PropOp57
 70
     0
102
RTVSPropertyOp0
 70
     0
102
RTVSPropertyOp1
 70
     0
102
RTVSPropertyOp2
 70
     0
102
RTVSPropertyOp3
 70
     0
102
RTVSPropertyOp4
 70
     0
102
RTVSPropertyOp5
 70
     0
102
RTVSPropertyOp6
 70
     0
102
RTVSPropertyOp7
 70
     0
102
RTVSPropertyOp8
 70
     0
102
RTVSPropertyOp9
 70
     0
102
RTVSPropertyOp10
 70
     0
102
RTVSPropertyOp11
 70
     0
102
RTVSPropertyOp12
 70
     0
102
RTVSPropertyOp13
 70
     0
102
RTVSPropertyOp14
 70
     2
102
RTVSPropertyOp15
 70
     0
102
RTVSPropertyOp16
 70
     0
102
RTVSPropertyOp17
 70
     0
102
RTVSPropertyOp18
 70
     0
102
RTVSPropertyOp19
 70
     0
102
RTVSPropertyOp20
 70
     0
102
RTVSPropertyOp21
 70
     0
102
RTVSPropertyOp22
 70
     0
102
RTVSPropertyOp23
 70
     0
102
RTVSPropertyOp24
 70
     0
102
RTVSPropertyOp25
 70
     0
102
RTVSPropertyOp26
 70
     0
102
RTVSPropertyOp27
 70
     0
102
RTVSPropertyOp28
 70
     1
102
RTVSPropertyOp29
 70
     1
102
RTVSPropertyOp30
 70
     1
102
RTVSPropertyOp31
 70
     1
102
RTVSPropertyOp32
 70
     1
102
RTVSPropertyOp33
 70
     1
102
RTVSPropertyOp34
 70
     1
102
RTVSPropertyOp35
 70
     1
102
RTVSPropertyOp36
 70
     1
102
RTVSPropertyOp37
 70
     0
102
RTVSPropertyOp38
 70
     0
102
RTVSPropertyOp39
 70
     0
102
RTVSPropertyOp40
 70
     0
102
RTVSPropertyOp41
 70
     0
102
RTVSPropertyOp42
 70
     0
102
RTVSPropertyOp43
 70
     0
102
RTVSPropertyOp44
 70
     0
102
RTVSPropertyOp45
 70
     1
102
RTVSPropertyOp46
 70
     0
102
RTVSPropertyOp47
 70
     0
102
RTVSPropertyOp48
 70
     0
102
RTVSPropertyOp49
 70
     1
102
RTVSPropertyOp50
 70
     0
102
RTVSPropertyOp51
 70
     0
102
RTVSPropertyOp52
 70
     0
102
RTVSPropertyOp53
 70
     0
102
RTVSPropertyOp54
 70
     0
102
RTVSPropertyOp55
 70
     1
102
RTVSPropertyOp56
 70
     0
102
RTVSPropertyOp57
 70
     0
102
RTVSPropertyOp58
 70
     1
102
RTVSPropertyOp59
 70
     1
102
RTVSPropertyOp60
 70
     1
102
RTVSPropertyOp61
 70
     1
102
RTVSPropertyOp62
 70
     1
  0
XRECORD
  5
42E8
102
{ACAD_REACTORS
330
42E7
102
}
330
42E7
100
AcDbXrecord
280
     1
102
RTVSPost2010Prop28
280
     0
102
RTVSPost2010PropOp28
 70
     1
102
RTVSPost2010Prop29
280
     1
102
RTVSPost2010PropOp29
 70
     1
102
RTVSPost2010Prop30
280
     1
102
RTVSPost2010PropOp30
 70
     1
102
RTVSPost2010Prop31
280
     0
102
RTVSPost2010PropOp31
 70
     1
102
RTVSPost2010Prop32
280
     0
102
RTVSPost2010PropOp32
 70
     1
102
RTVSPost2010Prop33
280
     0
102
RTVSPost2010PropOp33
 70
     1
102
RTVSPost2010Prop34
280
     0
102
RTVSPost2010PropOp34
 70
     1
102
RTVSPost2010Prop35
280
     0
102
RTVSPost2010PropOp35
 70
     1
102
RTVSPost2010Prop36
280
     0
102
RTVSPost2010PropOp36
 70
     1
102
RTVSPost2010Prop37
 90
       50
102
RTVSPost2010PropOp37
 70
     1
102
RTVSPost2010Prop38
140
0.0
102
RTVSPost2010PropOp38
 70
     1
102
RTVSPost2010Prop39
140
1.0
102
RTVSPost2010PropOp39
 70
     1
102
RTVSPost2010Prop40
 90
        0
102
RTVSPost2010PropOp40
 70
     1
102
RTVSPost2010Prop41ColorIndex
 90
       18
102
RTVSPost2010Prop41ColorRGB
 90
        0
102
RTVSPost2010PropOp41
 70
     1
102
RTVSPost2010Prop42
 90
       50
102
RTVSPost2010PropOp42
 70
     1
102
RTVSPost2010Prop43
 90
        3
102
RTVSPost2010PropOp43
 70
     1
102
RTVSPost2010Prop44ColorIndex
 90
        5
102
RTVSPost2010Prop44ColorRGB
 90
      255
102
RTVSPost2010PropOp44
 70
     1
102
RTVSPost2010Prop45
280
     0
102
RTVSPost2010PropOp45
 70
     1
102
RTVSPost2010Prop46
 90
       50
102
RTVSPost2010PropOp46
 70
     1
102
RTVSPost2010Prop47
 90
       50
102
RTVSPost2010PropOp47
 70
     1
102
RTVSPost2010Prop48
 90
       50
102
RTVSPost2010PropOp48
 70
     1
102
RTVSPost2010Prop49
280
     0
102
RTVSPost2010PropOp49
 70
     1
102
RTVSPost2010Prop50
 90
       50
102
RTVSPost2010PropOp50
 70
     1
102
RTVSPost2010Prop51ColorIndex
 90
      256
102
RTVSPost2010Prop51ColorRGB
 90
-16777216
102
RTVSPost2010PropOp51
 70
     0
102
RTVSPost2010Prop52
140
1.0
102
RTVSPost2010PropOp52
 70
     0
102
RTVSPost2010Prop53
 90
        2
102
RTVSPost2010PropOp53
 70
     1
102
RTVSPost2010Prop54
  1
strokes_ogs.tif
102
RTVSPost2010PropOp54
 70
     1
102
RTVSPost2010Prop55
280
     0
102
RTVSPost2010PropOp55
 70
     1
102
RTVSPost2010Prop56
140
1.0
102
RTVSPost2010PropOp56
 70
     1
102
RTVSPost2010Prop57
140
1.0
102
RTVSPost2010PropOp57
 70
     1
102
RTVSPropertyOp0
 70
     1
102
RTVSPropertyOp1
 70
     1
102
RTVSPropertyOp2
 70
     1
102
RTVSPropertyOp3
 70
     1
102
RTVSPropertyOp4
 70
     1
102
RTVSPropertyOp5
 70
     1
102
RTVSPropertyOp6
 70
     1
102
RTVSPropertyOp7
 70
     1
102
RTVSPropertyOp8
 70
     1
102
RTVSPropertyOp9
 70
     1
102
RTVSPropertyOp10
 70
     1
102
RTVSPropertyOp11
 70
     1
102
RTVSPropertyOp12
 70
     1
102
RTVSPropertyOp13
 70
     1
102
RTVSPropertyOp14
 70
     1
102
RTVSPropertyOp15
 70
     1
102
RTVSPropertyOp16
 70
     1
102
RTVSPropertyOp17
 70
     1
102
RTVSPropertyOp18
 70
     1
102
RTVSPropertyOp19
 70
     1
102
RTVSPropertyOp20
 70
     1
102
RTVSPropertyOp21
 70
     1
102
RTVSPropertyOp22
 70
     1
102
RTVSPropertyOp23
 70
     1
102
RTVSPropertyOp24
 70
     1
102
RTVSPropertyOp25
 70
     1
102
RTVSPropertyOp26
 70
     1
102
RTVSPropertyOp27
 70
     1
102
RTVSPropertyOp28
 70
     1
102
RTVSPropertyOp29
 70
     1
102
RTVSPropertyOp30
 70
     1
102
RTVSPropertyOp31
 70
     1
102
RTVSPropertyOp32
 70
     1
102
RTVSPropertyOp33
 70
     1
102
RTVSPropertyOp34
 70
     1
102
RTVSPropertyOp35
 70
     1
102
RTVSPropertyOp36
 70
     1
102
RTVSPropertyOp37
 70
     1
102
RTVSPropertyOp38
 70
     1
102
RTVSPropertyOp39
 70
     1
102
RTVSPropertyOp40
 70
     1
102
RTVSPropertyOp41
 70
     1
102
RTVSPropertyOp42
 70
     1
102
RTVSPropertyOp43
 70
     1
102
RTVSPropertyOp44
 70
     1
102
RTVSPropertyOp45
 70
     1
102
RTVSPropertyOp46
 70
     1
102
RTVSPropertyOp47
 70
     1
102
RTVSPropertyOp48
 70
     1
102
RTVSPropertyOp49
 70
     1
102
RTVSPropertyOp50
 70
     1
102
RTVSPropertyOp51
 70
     0
102
RTVSPropertyOp52
 70
     0
102
RTVSPropertyOp53
 70
     1
102
RTVSPropertyOp54
 70
     1
102
RTVSPropertyOp55
 70
     1
102
RTVSPropertyOp56
 70
     1
102
RTVSPropertyOp57
 70
     1
102
RTVSPropertyOp58
 70
     1
102
RTVSPropertyOp59
 70
     1
102
RTVSPropertyOp60
 70
     1
102
RTVSPropertyOp61
 70
     1
102
RTVSPropertyOp62
 70
     1
  0
XRECORD
  5
42CC
102
{ACAD_REACTORS
330
42CB
102
}
330
42CB
100
AcDbXrecord
280
     1
102
RTVSPost2010Prop28
280
     0
102
RTVSPost2010PropOp28
 70
     1
102
RTVSPost2010Prop29
280
     1
102
RTVSPost2010PropOp29
 70
     1
102
RTVSPost2010Prop30
280
     1
102
RTVSPost2010PropOp30
 70
     1
102
RTVSPost2010Prop31
280
     0
102
RTVSPost2010PropOp31
 70
     1
102
RTVSPost2010Prop32
280
     0
102
RTVSPost2010PropOp32
 70
     1
102
RTVSPost2010Prop33
280
     0
102
RTVSPost2010PropOp33
 70
     1
102
RTVSPost2010Prop34
280
     0
102
RTVSPost2010PropOp34
 70
     1
102
RTVSPost2010Prop35
280
     0
102
RTVSPost2010PropOp35
 70
     1
102
RTVSPost2010Prop36
280
     0
102
RTVSPost2010PropOp36
 70
     1
102
RTVSPost2010Prop37
 90
       50
102
RTVSPost2010PropOp37
 70
     1
102
RTVSPost2010Prop38
140
0.0
102
RTVSPost2010PropOp38
 70
     1
102
RTVSPost2010Prop39
140
1.0
102
RTVSPost2010PropOp39
 70
     1
102
RTVSPost2010Prop40
 90
        0
102
RTVSPost2010PropOp40
 70
     1
102
RTVSPost2010Prop41ColorIndex
 90
       18
102
RTVSPost2010Prop41ColorRGB
 90
        0
102
RTVSPost2010PropOp41
 70
     1
102
RTVSPost2010Prop42
 90
       50
102
RTVSPost2010PropOp42
 70
     1
102
RTVSPost2010Prop43
 90
        3
102
RTVSPost2010PropOp43
 70
     1
102
RTVSPost2010Prop44ColorIndex
 90
        5
102
RTVSPost2010Prop44ColorRGB
 90
      255
102
RTVSPost2010PropOp44
 70
     1
102
RTVSPost2010Prop45
280
     0
102
RTVSPost2010PropOp45
 70
     1
102
RTVSPost2010Prop46
 90
       50
102
RTVSPost2010PropOp46
 70
     1
102
RTVSPost2010Prop47
 90
       50
102
RTVSPost2010PropOp47
 70
     1
102
RTVSPost2010Prop48
 90
       50
102
RTVSPost2010PropOp48
 70
     1
102
RTVSPost2010Prop49
280
     0
102
RTVSPost2010PropOp49
 70
     1
102
RTVSPost2010Prop50
 90
       50
102
RTVSPost2010PropOp50
 70
     1
102
RTVSPost2010Prop51ColorIndex
 90
      256
102
RTVSPost2010Prop51ColorRGB
 90
-16777216
102
RTVSPost2010PropOp51
 70
     0
102
RTVSPost2010Prop52
140
1.0
102
RTVSPost2010PropOp52
 70
     0
102
RTVSPost2010Prop53
 90
        2
102
RTVSPost2010PropOp53
 70
     1
102
RTVSPost2010Prop54
  1
strokes_ogs.tif
102
RTVSPost2010PropOp54
 70
     1
102
RTVSPost2010Prop55
280
     0
102
RTVSPost2010PropOp55
 70
     1
102
RTVSPost2010Prop56
140
1.0
102
RTVSPost2010PropOp56
 70
     1
102
RTVSPost2010Prop57
140
1.0
102
RTVSPost2010PropOp57
 70
     1
102
RTVSPropertyOp0
 70
     1
102
RTVSPropertyOp1
 70
     1
102
RTVSPropertyOp2
 70
     1
102
RTVSPropertyOp3
 70
     1
102
RTVSPropertyOp4
 70
     1
102
RTVSPropertyOp5
 70
     1
102
RTVSPropertyOp6
 70
     1
102
RTVSPropertyOp7
 70
     1
102
RTVSPropertyOp8
 70
     1
102
RTVSPropertyOp9
 70
     1
102
RTVSPropertyOp10
 70
     1
102
RTVSPropertyOp11
 70
     1
102
RTVSPropertyOp12
 70
     1
102
RTVSPropertyOp13
 70
     1
102
RTVSPropertyOp14
 70
     1
102
RTVSPropertyOp15
 70
     1
102
RTVSPropertyOp16
 70
     1
102
RTVSPropertyOp17
 70
     1
102
RTVSPropertyOp18
 70
     1
102
RTVSPropertyOp19
 70
     1
102
RTVSPropertyOp20
 70
     1
102
RTVSPropertyOp21
 70
     1
102
RTVSPropertyOp22
 70
     1
102
RTVSPropertyOp23
 70
     1
102
RTVSPropertyOp24
 70
     1
102
RTVSPropertyOp25
 70
     1
102
RTVSPropertyOp26
 70
     1
102
RTVSPropertyOp27
 70
     1
102
RTVSPropertyOp28
 70
     1
102
RTVSPropertyOp29
 70
     1
102
RTVSPropertyOp30
 70
     1
102
RTVSPropertyOp31
 70
     1
102
RTVSPropertyOp32
 70
     1
102
RTVSPropertyOp33
 70
     1
102
RTVSPropertyOp34
 70
     1
102
RTVSPropertyOp35
 70
     1
102
RTVSPropertyOp36
 70
     1
102
RTVSPropertyOp37
 70
     1
102
RTVSPropertyOp38
 70
     1
102
RTVSPropertyOp39
 70
     1
102
RTVSPropertyOp40
 70
     1
102
RTVSPropertyOp41
 70
     1
102
RTVSPropertyOp42
 70
     1
102
RTVSPropertyOp43
 70
     1
102
RTVSPropertyOp44
 70
     1
102
RTVSPropertyOp45
 70
     1
102
RTVSPropertyOp46
 70
     1
102
RTVSPropertyOp47
 70
     1
102
RTVSPropertyOp48
 70
     1
102
RTVSPropertyOp49
 70
     1
102
RTVSPropertyOp50
 70
     1
102
RTVSPropertyOp51
 70
     0
102
RTVSPropertyOp52
 70
     0
102
RTVSPropertyOp53
 70
     1
102
RTVSPropertyOp54
 70
     1
102
RTVSPropertyOp55
 70
     1
102
RTVSPropertyOp56
 70
     1
102
RTVSPropertyOp57
 70
     1
102
RTVSPropertyOp58
 70
     1
102
RTVSPropertyOp59
 70
     1
102
RTVSPropertyOp60
 70
     1
102
RTVSPropertyOp61
 70
     1
102
RTVSPropertyOp62
 70
     1
  0
XRECORD
  5
42CE
102
{ACAD_REACTORS
330
42CD
102
}
330
42CD
100
AcDbXrecord
280
     1
102
RTVSPost2010Prop28
280
     0
102
RTVSPost2010PropOp28
 70
     1
102
RTVSPost2010Prop29
280
     1
102
RTVSPost2010PropOp29
 70
     1
102
RTVSPost2010Prop30
280
     1
102
RTVSPost2010PropOp30
 70
     1
102
RTVSPost2010Prop31
280
     0
102
RTVSPost2010PropOp31
 70
     1
102
RTVSPost2010Prop32
280
     0
102
RTVSPost2010PropOp32
 70
     1
102
RTVSPost2010Prop33
280
     0
102
RTVSPost2010PropOp33
 70
     1
102
RTVSPost2010Prop34
280
     0
102
RTVSPost2010PropOp34
 70
     1
102
RTVSPost2010Prop35
280
     0
102
RTVSPost2010PropOp35
 70
     1
102
RTVSPost2010Prop36
280
     0
102
RTVSPost2010PropOp36
 70
     1
102
RTVSPost2010Prop37
 90
       50
102
RTVSPost2010PropOp37
 70
     1
102
RTVSPost2010Prop38
140
0.0
102
RTVSPost2010PropOp38
 70
     1
102
RTVSPost2010Prop39
140
1.0
102
RTVSPost2010PropOp39
 70
     1
102
RTVSPost2010Prop40
 90
        0
102
RTVSPost2010PropOp40
 70
     1
102
RTVSPost2010Prop41ColorIndex
 90
       18
102
RTVSPost2010Prop41ColorRGB
 90
        0
102
RTVSPost2010PropOp41
 70
     1
102
RTVSPost2010Prop42
 90
       50
102
RTVSPost2010PropOp42
 70
     1
102
RTVSPost2010Prop43
 90
        3
102
RTVSPost2010PropOp43
 70
     1
102
RTVSPost2010Prop44ColorIndex
 90
        5
102
RTVSPost2010Prop44ColorRGB
 90
      255
102
RTVSPost2010PropOp44
 70
     1
102
RTVSPost2010Prop45
280
     0
102
RTVSPost2010PropOp45
 70
     1
102
RTVSPost2010Prop46
 90
       50
102
RTVSPost2010PropOp46
 70
     1
102
RTVSPost2010Prop47
 90
       50
102
RTVSPost2010PropOp47
 70
     1
102
RTVSPost2010Prop48
 90
       50
102
RTVSPost2010PropOp48
 70
     1
102
RTVSPost2010Prop49
280
     0
102
RTVSPost2010PropOp49
 70
     1
102
RTVSPost2010Prop50
 90
       50
102
RTVSPost2010PropOp50
 70
     1
102
RTVSPost2010Prop51ColorIndex
 90
      256
102
RTVSPost2010Prop51ColorRGB
 90
-16777216
102
RTVSPost2010PropOp51
 70
     0
102
RTVSPost2010Prop52
140
1.0
102
RTVSPost2010PropOp52
 70
     0
102
RTVSPost2010Prop53
 90
        2
102
RTVSPost2010PropOp53
 70
     1
102
RTVSPost2010Prop54
  1
strokes_ogs.tif
102
RTVSPost2010PropOp54
 70
     1
102
RTVSPost2010Prop55
280
     0
102
RTVSPost2010PropOp55
 70
     1
102
RTVSPost2010Prop56
140
1.0
102
RTVSPost2010PropOp56
 70
     1
102
RTVSPost2010Prop57
140
1.0
102
RTVSPost2010PropOp57
 70
     1
102
RTVSPropertyOp0
 70
     1
102
RTVSPropertyOp1
 70
     1
102
RTVSPropertyOp2
 70
     1
102
RTVSPropertyOp3
 70
     1
102
RTVSPropertyOp4
 70
     1
102
RTVSPropertyOp5
 70
     1
102
RTVSPropertyOp6
 70
     1
102
RTVSPropertyOp7
 70
     1
102
RTVSPropertyOp8
 70
     1
102
RTVSPropertyOp9
 70
     1
102
RTVSPropertyOp10
 70
     1
102
RTVSPropertyOp11
 70
     1
102
RTVSPropertyOp12
 70
     1
102
RTVSPropertyOp13
 70
     1
102
RTVSPropertyOp14
 70
     1
102
RTVSPropertyOp15
 70
     1
102
RTVSPropertyOp16
 70
     1
102
RTVSPropertyOp17
 70
     1
102
RTVSPropertyOp18
 70
     1
102
RTVSPropertyOp19
 70
     1
102
RTVSPropertyOp20
 70
     1
102
RTVSPropertyOp21
 70
     1
102
RTVSPropertyOp22
 70
     1
102
RTVSPropertyOp23
 70
     1
102
RTVSPropertyOp24
 70
     1
102
RTVSPropertyOp25
 70
     1
102
RTVSPropertyOp26
 70
     1
102
RTVSPropertyOp27
 70
     1
102
RTVSPropertyOp28
 70
     1
102
RTVSPropertyOp29
 70
     1
102
RTVSPropertyOp30
 70
     1
102
RTVSPropertyOp31
 70
     1
102
RTVSPropertyOp32
 70
     1
102
RTVSPropertyOp33
 70
     1
102
RTVSPropertyOp34
 70
     1
102
RTVSPropertyOp35
 70
     1
102
RTVSPropertyOp36
 70
     1
102
RTVSPropertyOp37
 70
     1
102
RTVSPropertyOp38
 70
     1
102
RTVSPropertyOp39
 70
     1
102
RTVSPropertyOp40
 70
     1
102
RTVSPropertyOp41
 70
     1
102
RTVSPropertyOp42
 70
     1
102
RTVSPropertyOp43
 70
     1
102
RTVSPropertyOp44
 70
     1
102
RTVSPropertyOp45
 70
     1
102
RTVSPropertyOp46
 70
     1
102
RTVSPropertyOp47
 70
     1
102
RTVSPropertyOp48
 70
     1
102
RTVSPropertyOp49
 70
     1
102
RTVSPropertyOp50
 70
     1
102
RTVSPropertyOp51
 70
     0
102
RTVSPropertyOp52
 70
     0
102
RTVSPropertyOp53
 70
     1
102
RTVSPropertyOp54
 70
     1
102
RTVSPropertyOp55
 70
     1
102
RTVSPropertyOp56
 70
     1
102
RTVSPropertyOp57
 70
     1
102
RTVSPropertyOp58
 70
     1
102
RTVSPropertyOp59
 70
     1
102
RTVSPropertyOp60
 70
     1
102
RTVSPropertyOp61
 70
     1
102
RTVSPropertyOp62
 70
     1
  0
XRECORD
  5
42D0
102
{ACAD_REACTORS
330
42CF
102
}
330
42CF
100
AcDbXrecord
280
     1
102
RTVSPost2010Prop28
280
     0
102
RTVSPost2010PropOp28
 70
     1
102
RTVSPost2010Prop29
280
     1
102
RTVSPost2010PropOp29
 70
     1
102
RTVSPost2010Prop30
280
     1
102
RTVSPost2010PropOp30
 70
     1
102
RTVSPost2010Prop31
280
     0
102
RTVSPost2010PropOp31
 70
     1
102
RTVSPost2010Prop32
280
     0
102
RTVSPost2010PropOp32
 70
     1
102
RTVSPost2010Prop33
280
     0
102
RTVSPost2010PropOp33
 70
     1
102
RTVSPost2010Prop34
280
     0
102
RTVSPost2010PropOp34
 70
     1
102
RTVSPost2010Prop35
280
     0
102
RTVSPost2010PropOp35
 70
     1
102
RTVSPost2010Prop36
280
     0
102
RTVSPost2010PropOp36
 70
     1
102
RTVSPost2010Prop37
 90
       50
102
RTVSPost2010PropOp37
 70
     1
102
RTVSPost2010Prop38
140
0.0
102
RTVSPost2010PropOp38
 70
     1
102
RTVSPost2010Prop39
140
1.0
102
RTVSPost2010PropOp39
 70
     1
102
RTVSPost2010Prop40
 90
        0
102
RTVSPost2010PropOp40
 70
     1
102
RTVSPost2010Prop41ColorIndex
 90
       18
102
RTVSPost2010Prop41ColorRGB
 90
        0
102
RTVSPost2010PropOp41
 70
     1
102
RTVSPost2010Prop42
 90
       50
102
RTVSPost2010PropOp42
 70
     1
102
RTVSPost2010Prop43
 90
        3
102
RTVSPost2010PropOp43
 70
     1
102
RTVSPost2010Prop44ColorIndex
 90
        5
102
RTVSPost2010Prop44ColorRGB
 90
      255
102
RTVSPost2010PropOp44
 70
     1
102
RTVSPost2010Prop45
280
     0
102
RTVSPost2010PropOp45
 70
     1
102
RTVSPost2010Prop46
 90
       50
102
RTVSPost2010PropOp46
 70
     1
102
RTVSPost2010Prop47
 90
       50
102
RTVSPost2010PropOp47
 70
     1
102
RTVSPost2010Prop48
 90
       50
102
RTVSPost2010PropOp48
 70
     1
102
RTVSPost2010Prop49
280
     0
102
RTVSPost2010PropOp49
 70
     1
102
RTVSPost2010Prop50
 90
       50
102
RTVSPost2010PropOp50
 70
     1
102
RTVSPost2010Prop51ColorIndex
 90
      256
102
RTVSPost2010Prop51ColorRGB
 90
-16777216
102
RTVSPost2010PropOp51
 70
     0
102
RTVSPost2010Prop52
140
1.0
102
RTVSPost2010PropOp52
 70
     0
102
RTVSPost2010Prop53
 90
        2
102
RTVSPost2010PropOp53
 70
     1
102
RTVSPost2010Prop54
  1
strokes_ogs.tif
102
RTVSPost2010PropOp54
 70
     1
102
RTVSPost2010Prop55
280
     0
102
RTVSPost2010PropOp55
 70
     1
102
RTVSPost2010Prop56
140
1.0
102
RTVSPost2010PropOp56
 70
     1
102
RTVSPost2010Prop57
140
1.0
102
RTVSPost2010PropOp57
 70
     1
102
RTVSPropertyOp0
 70
     1
102
RTVSPropertyOp1
 70
     1
102
RTVSPropertyOp2
 70
     1
102
RTVSPropertyOp3
 70
     1
102
RTVSPropertyOp4
 70
     1
102
RTVSPropertyOp5
 70
     1
102
RTVSPropertyOp6
 70
     1
102
RTVSPropertyOp7
 70
     1
102
RTVSPropertyOp8
 70
     1
102
RTVSPropertyOp9
 70
     1
102
RTVSPropertyOp10
 70
     1
102
RTVSPropertyOp11
 70
     1
102
RTVSPropertyOp12
 70
     1
102
RTVSPropertyOp13
 70
     1
102
RTVSPropertyOp14
 70
     1
102
RTVSPropertyOp15
 70
     1
102
RTVSPropertyOp16
 70
     1
102
RTVSPropertyOp17
 70
     1
102
RTVSPropertyOp18
 70
     1
102
RTVSPropertyOp19
 70
     1
102
RTVSPropertyOp20
 70
     1
102
RTVSPropertyOp21
 70
     1
102
RTVSPropertyOp22
 70
     1
102
RTVSPropertyOp23
 70
     1
102
RTVSPropertyOp24
 70
     1
102
RTVSPropertyOp25
 70
     1
102
RTVSPropertyOp26
 70
     1
102
RTVSPropertyOp27
 70
     1
102
RTVSPropertyOp28
 70
     1
102
RTVSPropertyOp29
 70
     1
102
RTVSPropertyOp30
 70
     1
102
RTVSPropertyOp31
 70
     1
102
RTVSPropertyOp32
 70
     1
102
RTVSPropertyOp33
 70
     1
102
RTVSPropertyOp34
 70
     1
102
RTVSPropertyOp35
 70
     1
102
RTVSPropertyOp36
 70
     1
102
RTVSPropertyOp37
 70
     1
102
RTVSPropertyOp38
 70
     1
102
RTVSPropertyOp39
 70
     1
102
RTVSPropertyOp40
 70
     1
102
RTVSPropertyOp41
 70
     1
102
RTVSPropertyOp42
 70
     1
102
RTVSPropertyOp43
 70
     1
102
RTVSPropertyOp44
 70
     1
102
RTVSPropertyOp45
 70
     1
102
RTVSPropertyOp46
 70
     1
102
RTVSPropertyOp47
 70
     1
102
RTVSPropertyOp48
 70
     1
102
RTVSPropertyOp49
 70
     1
102
RTVSPropertyOp50
 70
     1
102
RTVSPropertyOp51
 70
     0
102
RTVSPropertyOp52
 70
     0
102
RTVSPropertyOp53
 70
     1
102
RTVSPropertyOp54
 70
     1
102
RTVSPropertyOp55
 70
     1
102
RTVSPropertyOp56
 70
     1
102
RTVSPropertyOp57
 70
     1
102
RTVSPropertyOp58
 70
     1
102
RTVSPropertyOp59
 70
     1
102
RTVSPropertyOp60
 70
     1
102
RTVSPropertyOp61
 70
     1
102
RTVSPropertyOp62
 70
     1
  0
XRECORD
  5
42D2
102
{ACAD_REACTORS
330
42D1
102
}
330
42D1
100
AcDbXrecord
280
     1
102
RTVSPost2010Prop28
280
     0
102
RTVSPost2010PropOp28
 70
     1
102
RTVSPost2010Prop29
280
     1
102
RTVSPost2010PropOp29
 70
     1
102
RTVSPost2010Prop30
280
     1
102
RTVSPost2010PropOp30
 70
     1
102
RTVSPost2010Prop31
280
     0
102
RTVSPost2010PropOp31
 70
     1
102
RTVSPost2010Prop32
280
     0
102
RTVSPost2010PropOp32
 70
     1
102
RTVSPost2010Prop33
280
     0
102
RTVSPost2010PropOp33
 70
     1
102
RTVSPost2010Prop34
280
     0
102
RTVSPost2010PropOp34
 70
     1
102
RTVSPost2010Prop35
280
     0
102
RTVSPost2010PropOp35
 70
     1
102
RTVSPost2010Prop36
280
     0
102
RTVSPost2010PropOp36
 70
     1
102
RTVSPost2010Prop37
 90
       50
102
RTVSPost2010PropOp37
 70
     1
102
RTVSPost2010Prop38
140
0.0
102
RTVSPost2010PropOp38
 70
     1
102
RTVSPost2010Prop39
140
1.0
102
RTVSPost2010PropOp39
 70
     1
102
RTVSPost2010Prop40
 90
        0
102
RTVSPost2010PropOp40
 70
     1
102
RTVSPost2010Prop41ColorIndex
 90
       18
102
RTVSPost2010Prop41ColorRGB
 90
        0
102
RTVSPost2010PropOp41
 70
     1
102
RTVSPost2010Prop42
 90
       50
102
RTVSPost2010PropOp42
 70
     1
102
RTVSPost2010Prop43
 90
        3
102
RTVSPost2010PropOp43
 70
     1
102
RTVSPost2010Prop44ColorIndex
 90
        5
102
RTVSPost2010Prop44ColorRGB
 90
      255
102
RTVSPost2010PropOp44
 70
     1
102
RTVSPost2010Prop45
280
     0
102
RTVSPost2010PropOp45
 70
     1
102
RTVSPost2010Prop46
 90
       50
102
RTVSPost2010PropOp46
 70
     1
102
RTVSPost2010Prop47
 90
       50
102
RTVSPost2010PropOp47
 70
     1
102
RTVSPost2010Prop48
 90
       50
102
RTVSPost2010PropOp48
 70
     1
102
RTVSPost2010Prop49
280
     0
102
RTVSPost2010PropOp49
 70
     1
102
RTVSPost2010Prop50
 90
       50
102
RTVSPost2010PropOp50
 70
     1
102
RTVSPost2010Prop51ColorIndex
 90
      256
102
RTVSPost2010Prop51ColorRGB
 90
-16777216
102
RTVSPost2010PropOp51
 70
     0
102
RTVSPost2010Prop52
140
1.0
102
RTVSPost2010PropOp52
 70
     0
102
RTVSPost2010Prop53
 90
        2
102
RTVSPost2010PropOp53
 70
     1
102
RTVSPost2010Prop54
  1
strokes_ogs.tif
102
RTVSPost2010PropOp54
 70
     1
102
RTVSPost2010Prop55
280
     0
102
RTVSPost2010PropOp55
 70
     1
102
RTVSPost2010Prop56
140
1.0
102
RTVSPost2010PropOp56
 70
     1
102
RTVSPost2010Prop57
140
1.0
102
RTVSPost2010PropOp57
 70
     1
102
RTVSPropertyOp0
 70
     1
102
RTVSPropertyOp1
 70
     1
102
RTVSPropertyOp2
 70
     1
102
RTVSPropertyOp3
 70
     1
102
RTVSPropertyOp4
 70
     1
102
RTVSPropertyOp5
 70
     1
102
RTVSPropertyOp6
 70
     1
102
RTVSPropertyOp7
 70
     1
102
RTVSPropertyOp8
 70
     1
102
RTVSPropertyOp9
 70
     1
102
RTVSPropertyOp10
 70
     1
102
RTVSPropertyOp11
 70
     1
102
RTVSPropertyOp12
 70
     1
102
RTVSPropertyOp13
 70
     1
102
RTVSPropertyOp14
 70
     1
102
RTVSPropertyOp15
 70
     1
102
RTVSPropertyOp16
 70
     1
102
RTVSPropertyOp17
 70
     1
102
RTVSPropertyOp18
 70
     1
102
RTVSPropertyOp19
 70
     1
102
RTVSPropertyOp20
 70
     1
102
RTVSPropertyOp21
 70
     1
102
RTVSPropertyOp22
 70
     1
102
RTVSPropertyOp23
 70
     1
102
RTVSPropertyOp24
 70
     1
102
RTVSPropertyOp25
 70
     1
102
RTVSPropertyOp26
 70
     1
102
RTVSPropertyOp27
 70
     1
102
RTVSPropertyOp28
 70
     1
102
RTVSPropertyOp29
 70
     1
102
RTVSPropertyOp30
 70
     1
102
RTVSPropertyOp31
 70
     1
102
RTVSPropertyOp32
 70
     1
102
RTVSPropertyOp33
 70
     1
102
RTVSPropertyOp34
 70
     1
102
RTVSPropertyOp35
 70
     1
102
RTVSPropertyOp36
 70
     1
102
RTVSPropertyOp37
 70
     1
102
RTVSPropertyOp38
 70
     1
102
RTVSPropertyOp39
 70
     1
102
RTVSPropertyOp40
 70
     1
102
RTVSPropertyOp41
 70
     1
102
RTVSPropertyOp42
 70
     1
102
RTVSPropertyOp43
 70
     1
102
RTVSPropertyOp44
 70
     1
102
RTVSPropertyOp45
 70
     1
102
RTVSPropertyOp46
 70
     1
102
RTVSPropertyOp47
 70
     1
102
RTVSPropertyOp48
 70
     1
102
RTVSPropertyOp49
 70
     1
102
RTVSPropertyOp50
 70
     1
102
RTVSPropertyOp51
 70
     0
102
RTVSPropertyOp52
 70
     0
102
RTVSPropertyOp53
 70
     1
102
RTVSPropertyOp54
 70
     1
102
RTVSPropertyOp55
 70
     1
102
RTVSPropertyOp56
 70
     1
102
RTVSPropertyOp57
 70
     1
102
RTVSPropertyOp58
 70
     1
102
RTVSPropertyOp59
 70
     1
102
RTVSPropertyOp60
 70
     1
102
RTVSPropertyOp61
 70
     1
102
RTVSPropertyOp62
 70
     1
  0
XRECORD
  5
42DA
102
{ACAD_REACTORS
330
42D9
102
}
330
42D9
100
AcDbXrecord
280
     1
102
RTVSPost2010Prop28
280
     0
102
RTVSPost2010PropOp28
 70
     1
102
RTVSPost2010Prop29
280
     1
102
RTVSPost2010PropOp29
 70
     1
102
RTVSPost2010Prop30
280
     1
102
RTVSPost2010PropOp30
 70
     1
102
RTVSPost2010Prop31
280
     0
102
RTVSPost2010PropOp31
 70
     1
102
RTVSPost2010Prop32
280
     0
102
RTVSPost2010PropOp32
 70
     1
102
RTVSPost2010Prop33
280
     0
102
RTVSPost2010PropOp33
 70
     1
102
RTVSPost2010Prop34
280
     0
102
RTVSPost2010PropOp34
 70
     1
102
RTVSPost2010Prop35
280
     0
102
RTVSPost2010PropOp35
 70
     1
102
RTVSPost2010Prop36
280
     0
102
RTVSPost2010PropOp36
 70
     1
102
RTVSPost2010Prop37
 90
       50
102
RTVSPost2010PropOp37
 70
     1
102
RTVSPost2010Prop38
140
0.0
102
RTVSPost2010PropOp38
 70
     1
102
RTVSPost2010Prop39
140
1.0
102
RTVSPost2010PropOp39
 70
     1
102
RTVSPost2010Prop40
 90
        0
102
RTVSPost2010PropOp40
 70
     1
102
RTVSPost2010Prop41ColorIndex
 90
       18
102
RTVSPost2010Prop41ColorRGB
 90
        0
102
RTVSPost2010PropOp41
 70
     1
102
RTVSPost2010Prop42
 90
       50
102
RTVSPost2010PropOp42
 70
     1
102
RTVSPost2010Prop43
 90
        3
102
RTVSPost2010PropOp43
 70
     1
102
RTVSPost2010Prop44ColorIndex
 90
        5
102
RTVSPost2010Prop44ColorRGB
 90
      255
102
RTVSPost2010PropOp44
 70
     1
102
RTVSPost2010Prop45
280
     0
102
RTVSPost2010PropOp45
 70
     1
102
RTVSPost2010Prop46
 90
       50
102
RTVSPost2010PropOp46
 70
     1
102
RTVSPost2010Prop47
 90
       50
102
RTVSPost2010PropOp47
 70
     1
102
RTVSPost2010Prop48
 90
       50
102
RTVSPost2010PropOp48
 70
     1
102
RTVSPost2010Prop49
280
     0
102
RTVSPost2010PropOp49
 70
     1
102
RTVSPost2010Prop50
 90
       50
102
RTVSPost2010PropOp50
 70
     1
102
RTVSPost2010Prop51ColorIndex
 90
      256
102
RTVSPost2010Prop51ColorRGB
 90
-16777216
102
RTVSPost2010PropOp51
 70
     0
102
RTVSPost2010Prop52
140
1.0
102
RTVSPost2010PropOp52
 70
     0
102
RTVSPost2010Prop53
 90
        2
102
RTVSPost2010PropOp53
 70
     1
102
RTVSPost2010Prop54
  1
strokes_ogs.tif
102
RTVSPost2010PropOp54
 70
     1
102
RTVSPost2010Prop55
280
     0
102
RTVSPost2010PropOp55
 70
     1
102
RTVSPost2010Prop56
140
1.0
102
RTVSPost2010PropOp56
 70
     1
102
RTVSPost2010Prop57
140
1.0
102
RTVSPost2010PropOp57
 70
     1
102
RTVSPropertyOp0
 70
     1
102
RTVSPropertyOp1
 70
     1
102
RTVSPropertyOp2
 70
     1
102
RTVSPropertyOp3
 70
     1
102
RTVSPropertyOp4
 70
     1
102
RTVSPropertyOp5
 70
     1
102
RTVSPropertyOp6
 70
     1
102
RTVSPropertyOp7
 70
     1
102
RTVSPropertyOp8
 70
     1
102
RTVSPropertyOp9
 70
     1
102
RTVSPropertyOp10
 70
     1
102
RTVSPropertyOp11
 70
     1
102
RTVSPropertyOp12
 70
     1
102
RTVSPropertyOp13
 70
     1
102
RTVSPropertyOp14
 70
     1
102
RTVSPropertyOp15
 70
     1
102
RTVSPropertyOp16
 70
     1
102
RTVSPropertyOp17
 70
     1
102
RTVSPropertyOp18
 70
     1
102
RTVSPropertyOp19
 70
     1
102
RTVSPropertyOp20
 70
     1
102
RTVSPropertyOp21
 70
     1
102
RTVSPropertyOp22
 70
     1
102
RTVSPropertyOp23
 70
     1
102
RTVSPropertyOp24
 70
     1
102
RTVSPropertyOp25
 70
     1
102
RTVSPropertyOp26
 70
     1
102
RTVSPropertyOp27
 70
     1
102
RTVSPropertyOp28
 70
     1
102
RTVSPropertyOp29
 70
     1
102
RTVSPropertyOp30
 70
     1
102
RTVSPropertyOp31
 70
     1
102
RTVSPropertyOp32
 70
     1
102
RTVSPropertyOp33
 70
     1
102
RTVSPropertyOp34
 70
     1
102
RTVSPropertyOp35
 70
     1
102
RTVSPropertyOp36
 70
     1
102
RTVSPropertyOp37
 70
     1
102
RTVSPropertyOp38
 70
     1
102
RTVSPropertyOp39
 70
     1
102
RTVSPropertyOp40
 70
     1
102
RTVSPropertyOp41
 70
     1
102
RTVSPropertyOp42
 70
     1
102
RTVSPropertyOp43
 70
     1
102
RTVSPropertyOp44
 70
     1
102
RTVSPropertyOp45
 70
     1
102
RTVSPropertyOp46
 70
     1
102
RTVSPropertyOp47
 70
     1
102
RTVSPropertyOp48
 70
     1
102
RTVSPropertyOp49
 70
     1
102
RTVSPropertyOp50
 70
     1
102
RTVSPropertyOp51
 70
     0
102
RTVSPropertyOp52
 70
     0
102
RTVSPropertyOp53
 70
     1
102
RTVSPropertyOp54
 70
     1
102
RTVSPropertyOp55
 70
     1
102
RTVSPropertyOp56
 70
     1
102
RTVSPropertyOp57
 70
     1
102
RTVSPropertyOp58
 70
     1
102
RTVSPropertyOp59
 70
     1
102
RTVSPropertyOp60
 70
     1
102
RTVSPropertyOp61
 70
     1
102
RTVSPropertyOp62
 70
     1
  0
XRECORD
  5
42F6
102
{ACAD_REACTORS
330
42F5
102
}
330
42F5
100
AcDbXrecord
280
     1
102
RTVSPost2010Prop28
280
     0
102
RTVSPost2010PropOp28
 70
     1
102
RTVSPost2010Prop29
280
     1
102
RTVSPost2010PropOp29
 70
     1
102
RTVSPost2010Prop30
280
     1
102
RTVSPost2010PropOp30
 70
     1
102
RTVSPost2010Prop31
280
     0
102
RTVSPost2010PropOp31
 70
     1
102
RTVSPost2010Prop32
280
     0
102
RTVSPost2010PropOp32
 70
     1
102
RTVSPost2010Prop33
280
     0
102
RTVSPost2010PropOp33
 70
     1
102
RTVSPost2010Prop34
280
     0
102
RTVSPost2010PropOp34
 70
     1
102
RTVSPost2010Prop35
280
     0
102
RTVSPost2010PropOp35
 70
     1
102
RTVSPost2010Prop36
280
     0
102
RTVSPost2010PropOp36
 70
     1
102
RTVSPost2010Prop37
 90
       50
102
RTVSPost2010PropOp37
 70
     0
102
RTVSPost2010Prop38
140
0.0
102
RTVSPost2010PropOp38
 70
     0
102
RTVSPost2010Prop39
140
1.0
102
RTVSPost2010PropOp39
 70
     0
102
RTVSPost2010Prop40
 90
        0
102
RTVSPost2010PropOp40
 70
     0
102
RTVSPost2010Prop41ColorIndex
 90
       18
102
RTVSPost2010Prop41ColorRGB
 90
        0
102
RTVSPost2010PropOp41
 70
     0
102
RTVSPost2010Prop42
 90
       50
102
RTVSPost2010PropOp42
 70
     0
102
RTVSPost2010Prop43
 90
        3
102
RTVSPost2010PropOp43
 70
     0
102
RTVSPost2010Prop44ColorIndex
 90
        5
102
RTVSPost2010Prop44ColorRGB
 90
      255
102
RTVSPost2010PropOp44
 70
     0
102
RTVSPost2010Prop45
280
     0
102
RTVSPost2010PropOp45
 70
     1
102
RTVSPost2010Prop46
 90
       50
102
RTVSPost2010PropOp46
 70
     0
102
RTVSPost2010Prop47
 90
       50
102
RTVSPost2010PropOp47
 70
     0
102
RTVSPost2010Prop48
 90
       50
102
RTVSPost2010PropOp48
 70
     0
102
RTVSPost2010Prop49
280
     0
102
RTVSPost2010PropOp49
 70
     1
102
RTVSPost2010Prop50
 90
       50
102
RTVSPost2010PropOp50
 70
     0
102
RTVSPost2010Prop51ColorIndex
 90
      256
102
RTVSPost2010Prop51ColorRGB
 90
-16777216
102
RTVSPost2010PropOp51
 70
     0
102
RTVSPost2010Prop52
140
1.0
102
RTVSPost2010PropOp52
 70
     0
102
RTVSPost2010Prop53
 90
        2
102
RTVSPost2010PropOp53
 70
     0
102
RTVSPost2010Prop54
  1
strokes_ogs.tif
102
RTVSPost2010PropOp54
 70
     0
102
RTVSPost2010Prop55
280
     0
102
RTVSPost2010PropOp55
 70
     1
102
RTVSPost2010Prop56
140
1.0
102
RTVSPost2010PropOp56
 70
     0
102
RTVSPost2010Prop57
140
1.0
102
RTVSPost2010PropOp57
 70
     0
102
RTVSPropertyOp0
 70
     0
102
RTVSPropertyOp1
 70
     0
102
RTVSPropertyOp2
 70
     0
102
RTVSPropertyOp3
 70
     0
102
RTVSPropertyOp4
 70
     0
102
RTVSPropertyOp5
 70
     0
102
RTVSPropertyOp6
 70
     0
102
RTVSPropertyOp7
 70
     0
102
RTVSPropertyOp8
 70
     0
102
RTVSPropertyOp9
 70
     0
102
RTVSPropertyOp10
 70
     0
102
RTVSPropertyOp11
 70
     0
102
RTVSPropertyOp12
 70
     0
102
RTVSPropertyOp13
 70
     0
102
RTVSPropertyOp14
 70
     2
102
RTVSPropertyOp15
 70
     0
102
RTVSPropertyOp16
 70
     0
102
RTVSPropertyOp17
 70
     0
102
RTVSPropertyOp18
 70
     0
102
RTVSPropertyOp19
 70
     0
102
RTVSPropertyOp20
 70
     0
102
RTVSPropertyOp21
 70
     0
102
RTVSPropertyOp22
 70
     0
102
RTVSPropertyOp23
 70
     0
102
RTVSPropertyOp24
 70
     0
102
RTVSPropertyOp25
 70
     0
102
RTVSPropertyOp26
 70
     0
102
RTVSPropertyOp27
 70
     0
102
RTVSPropertyOp28
 70
     1
102
RTVSPropertyOp29
 70
     1
102
RTVSPropertyOp30
 70
     1
102
RTVSPropertyOp31
 70
     1
102
RTVSPropertyOp32
 70
     1
102
RTVSPropertyOp33
 70
     1
102
RTVSPropertyOp34
 70
     1
102
RTVSPropertyOp35
 70
     1
102
RTVSPropertyOp36
 70
     1
102
RTVSPropertyOp37
 70
     0
102
RTVSPropertyOp38
 70
     0
102
RTVSPropertyOp39
 70
     0
102
RTVSPropertyOp40
 70
     0
102
RTVSPropertyOp41
 70
     0
102
RTVSPropertyOp42
 70
     0
102
RTVSPropertyOp43
 70
     0
102
RTVSPropertyOp44
 70
     0
102
RTVSPropertyOp45
 70
     1
102
RTVSPropertyOp46
 70
     0
102
RTVSPropertyOp47
 70
     0
102
RTVSPropertyOp48
 70
     0
102
RTVSPropertyOp49
 70
     1
102
RTVSPropertyOp50
 70
     0
102
RTVSPropertyOp51
 70
     0
102
RTVSPropertyOp52
 70
     0
102
RTVSPropertyOp53
 70
     0
102
RTVSPropertyOp54
 70
     0
102
RTVSPropertyOp55
 70
     1
102
RTVSPropertyOp56
 70
     0
102
RTVSPropertyOp57
 70
     0
102
RTVSPropertyOp58
 70
     1
102
RTVSPropertyOp59
 70
     1
102
RTVSPropertyOp60
 70
     1
102
RTVSPropertyOp61
 70
     1
102
RTVSPropertyOp62
 70
     1
  0
XRECORD
  5
42E6
102
{ACAD_REACTORS
330
42E5
102
}
330
42E5
100
AcDbXrecord
280
     1
102
RTVSPost2010Prop28
280
     0
102
RTVSPost2010PropOp28
 70
     1
102
RTVSPost2010Prop29
280
     1
102
RTVSPost2010PropOp29
 70
     1
102
RTVSPost2010Prop30
280
     1
102
RTVSPost2010PropOp30
 70
     1
102
RTVSPost2010Prop31
280
     0
102
RTVSPost2010PropOp31
 70
     1
102
RTVSPost2010Prop32
280
     0
102
RTVSPost2010PropOp32
 70
     1
102
RTVSPost2010Prop33
280
     0
102
RTVSPost2010PropOp33
 70
     1
102
RTVSPost2010Prop34
280
     0
102
RTVSPost2010PropOp34
 70
     1
102
RTVSPost2010Prop35
280
     0
102
RTVSPost2010PropOp35
 70
     1
102
RTVSPost2010Prop36
280
     0
102
RTVSPost2010PropOp36
 70
     1
102
RTVSPost2010Prop37
 90
       50
102
RTVSPost2010PropOp37
 70
     1
102
RTVSPost2010Prop38
140
0.0
102
RTVSPost2010PropOp38
 70
     1
102
RTVSPost2010Prop39
140
1.0
102
RTVSPost2010PropOp39
 70
     1
102
RTVSPost2010Prop40
 90
        0
102
RTVSPost2010PropOp40
 70
     1
102
RTVSPost2010Prop41ColorIndex
 90
       18
102
RTVSPost2010Prop41ColorRGB
 90
        0
102
RTVSPost2010PropOp41
 70
     1
102
RTVSPost2010Prop42
 90
       50
102
RTVSPost2010PropOp42
 70
     1
102
RTVSPost2010Prop43
 90
        3
102
RTVSPost2010PropOp43
 70
     1
102
RTVSPost2010Prop44ColorIndex
 90
        5
102
RTVSPost2010Prop44ColorRGB
 90
      255
102
RTVSPost2010PropOp44
 70
     1
102
RTVSPost2010Prop45
280
     0
102
RTVSPost2010PropOp45
 70
     1
102
RTVSPost2010Prop46
 90
       50
102
RTVSPost2010PropOp46
 70
     1
102
RTVSPost2010Prop47
 90
       50
102
RTVSPost2010PropOp47
 70
     1
102
RTVSPost2010Prop48
 90
       50
102
RTVSPost2010PropOp48
 70
     1
102
RTVSPost2010Prop49
280
     0
102
RTVSPost2010PropOp49
 70
     1
102
RTVSPost2010Prop50
 90
       50
102
RTVSPost2010PropOp50
 70
     1
102
RTVSPost2010Prop51ColorIndex
 90
      256
102
RTVSPost2010Prop51ColorRGB
 90
-16777216
102
RTVSPost2010PropOp51
 70
     0
102
RTVSPost2010Prop52
140
1.0
102
RTVSPost2010PropOp52
 70
     0
102
RTVSPost2010Prop53
 90
        2
102
RTVSPost2010PropOp53
 70
     1
102
RTVSPost2010Prop54
  1
strokes_ogs.tif
102
RTVSPost2010PropOp54
 70
     1
102
RTVSPost2010Prop55
280
     0
102
RTVSPost2010PropOp55
 70
     1
102
RTVSPost2010Prop56
140
1.0
102
RTVSPost2010PropOp56
 70
     1
102
RTVSPost2010Prop57
140
1.0
102
RTVSPost2010PropOp57
 70
     1
102
RTVSPropertyOp0
 70
     1
102
RTVSPropertyOp1
 70
     1
102
RTVSPropertyOp2
 70
     1
102
RTVSPropertyOp3
 70
     1
102
RTVSPropertyOp4
 70
     1
102
RTVSPropertyOp5
 70
     1
102
RTVSPropertyOp6
 70
     1
102
RTVSPropertyOp7
 70
     1
102
RTVSPropertyOp8
 70
     1
102
RTVSPropertyOp9
 70
     1
102
RTVSPropertyOp10
 70
     1
102
RTVSPropertyOp11
 70
     1
102
RTVSPropertyOp12
 70
     1
102
RTVSPropertyOp13
 70
     1
102
RTVSPropertyOp14
 70
     1
102
RTVSPropertyOp15
 70
     1
102
RTVSPropertyOp16
 70
     1
102
RTVSPropertyOp17
 70
     1
102
RTVSPropertyOp18
 70
     1
102
RTVSPropertyOp19
 70
     1
102
RTVSPropertyOp20
 70
     1
102
RTVSPropertyOp21
 70
     1
102
RTVSPropertyOp22
 70
     1
102
RTVSPropertyOp23
 70
     1
102
RTVSPropertyOp24
 70
     1
102
RTVSPropertyOp25
 70
     1
102
RTVSPropertyOp26
 70
     1
102
RTVSPropertyOp27
 70
     1
102
RTVSPropertyOp28
 70
     1
102
RTVSPropertyOp29
 70
     1
102
RTVSPropertyOp30
 70
     1
102
RTVSPropertyOp31
 70
     1
102
RTVSPropertyOp32
 70
     1
102
RTVSPropertyOp33
 70
     1
102
RTVSPropertyOp34
 70
     1
102
RTVSPropertyOp35
 70
     1
102
RTVSPropertyOp36
 70
     1
102
RTVSPropertyOp37
 70
     1
102
RTVSPropertyOp38
 70
     1
102
RTVSPropertyOp39
 70
     1
102
RTVSPropertyOp40
 70
     1
102
RTVSPropertyOp41
 70
     1
102
RTVSPropertyOp42
 70
     1
102
RTVSPropertyOp43
 70
     1
102
RTVSPropertyOp44
 70
     1
102
RTVSPropertyOp45
 70
     1
102
RTVSPropertyOp46
 70
     1
102
RTVSPropertyOp47
 70
     1
102
RTVSPropertyOp48
 70
     1
102
RTVSPropertyOp49
 70
     1
102
RTVSPropertyOp50
 70
     1
102
RTVSPropertyOp51
 70
     0
102
RTVSPropertyOp52
 70
     0
102
RTVSPropertyOp53
 70
     1
102
RTVSPropertyOp54
 70
     1
102
RTVSPropertyOp55
 70
     1
102
RTVSPropertyOp56
 70
     1
102
RTVSPropertyOp57
 70
     1
102
RTVSPropertyOp58
 70
     1
102
RTVSPropertyOp59
 70
     1
102
RTVSPropertyOp60
 70
     1
102
RTVSPropertyOp61
 70
     1
102
RTVSPropertyOp62
 70
     1
  0
XRECORD
  5
42F8
102
{ACAD_REACTORS
330
42F7
102
}
330
42F7
100
AcDbXrecord
280
     1
102
RTVSPost2010Prop28
280
     0
102
RTVSPost2010PropOp28
 70
     1
102
RTVSPost2010Prop29
280
     1
102
RTVSPost2010PropOp29
 70
     1
102
RTVSPost2010Prop30
280
     1
102
RTVSPost2010PropOp30
 70
     1
102
RTVSPost2010Prop31
280
     0
102
RTVSPost2010PropOp31
 70
     1
102
RTVSPost2010Prop32
280
     0
102
RTVSPost2010PropOp32
 70
     1
102
RTVSPost2010Prop33
280
     0
102
RTVSPost2010PropOp33
 70
     1
102
RTVSPost2010Prop34
280
     0
102
RTVSPost2010PropOp34
 70
     1
102
RTVSPost2010Prop35
280
     0
102
RTVSPost2010PropOp35
 70
     1
102
RTVSPost2010Prop36
280
     0
102
RTVSPost2010PropOp36
 70
     1
102
RTVSPost2010Prop37
 90
       50
102
RTVSPost2010PropOp37
 70
     0
102
RTVSPost2010Prop38
140
0.0
102
RTVSPost2010PropOp38
 70
     0
102
RTVSPost2010Prop39
140
1.0
102
RTVSPost2010PropOp39
 70
     0
102
RTVSPost2010Prop40
 90
        0
102
RTVSPost2010PropOp40
 70
     0
102
RTVSPost2010Prop41ColorIndex
 90
       18
102
RTVSPost2010Prop41ColorRGB
 90
        0
102
RTVSPost2010PropOp41
 70
     0
102
RTVSPost2010Prop42
 90
       50
102
RTVSPost2010PropOp42
 70
     0
102
RTVSPost2010Prop43
 90
        3
102
RTVSPost2010PropOp43
 70
     0
102
RTVSPost2010Prop44ColorIndex
 90
        5
102
RTVSPost2010Prop44ColorRGB
 90
      255
102
RTVSPost2010PropOp44
 70
     0
102
RTVSPost2010Prop45
280
     0
102
RTVSPost2010PropOp45
 70
     1
102
RTVSPost2010Prop46
 90
       50
102
RTVSPost2010PropOp46
 70
     0
102
RTVSPost2010Prop47
 90
       50
102
RTVSPost2010PropOp47
 70
     0
102
RTVSPost2010Prop48
 90
       50
102
RTVSPost2010PropOp48
 70
     0
102
RTVSPost2010Prop49
280
     0
102
RTVSPost2010PropOp49
 70
     1
102
RTVSPost2010Prop50
 90
       50
102
RTVSPost2010PropOp50
 70
     0
102
RTVSPost2010Prop51ColorIndex
 90
      256
102
RTVSPost2010Prop51ColorRGB
 90
-16777216
102
RTVSPost2010PropOp51
 70
     0
102
RTVSPost2010Prop52
140
1.0
102
RTVSPost2010PropOp52
 70
     0
102
RTVSPost2010Prop53
 90
        2
102
RTVSPost2010PropOp53
 70
     0
102
RTVSPost2010Prop54
  1
strokes_ogs.tif
102
RTVSPost2010PropOp54
 70
     0
102
RTVSPost2010Prop55
280
     0
102
RTVSPost2010PropOp55
 70
     1
102
RTVSPost2010Prop56
140
1.0
102
RTVSPost2010PropOp56
 70
     0
102
RTVSPost2010Prop57
140
1.0
102
RTVSPost2010PropOp57
 70
     0
102
RTVSPropertyOp0
 70
     0
102
RTVSPropertyOp1
 70
     0
102
RTVSPropertyOp2
 70
     0
102
RTVSPropertyOp3
 70
     0
102
RTVSPropertyOp4
 70
     0
102
RTVSPropertyOp5
 70
     0
102
RTVSPropertyOp6
 70
     0
102
RTVSPropertyOp7
 70
     0
102
RTVSPropertyOp8
 70
     0
102
RTVSPropertyOp9
 70
     0
102
RTVSPropertyOp10
 70
     0
102
RTVSPropertyOp11
 70
     0
102
RTVSPropertyOp12
 70
     0
102
RTVSPropertyOp13
 70
     0
102
RTVSPropertyOp14
 70
     2
102
RTVSPropertyOp15
 70
     0
102
RTVSPropertyOp16
 70
     0
102
RTVSPropertyOp17
 70
     0
102
RTVSPropertyOp18
 70
     0
102
RTVSPropertyOp19
 70
     0
102
RTVSPropertyOp20
 70
     0
102
RTVSPropertyOp21
 70
     0
102
RTVSPropertyOp22
 70
     0
102
RTVSPropertyOp23
 70
     0
102
RTVSPropertyOp24
 70
     0
102
RTVSPropertyOp25
 70
     0
102
RTVSPropertyOp26
 70
     0
102
RTVSPropertyOp27
 70
     0
102
RTVSPropertyOp28
 70
     1
102
RTVSPropertyOp29
 70
     1
102
RTVSPropertyOp30
 70
     1
102
RTVSPropertyOp31
 70
     1
102
RTVSPropertyOp32
 70
     1
102
RTVSPropertyOp33
 70
     1
102
RTVSPropertyOp34
 70
     1
102
RTVSPropertyOp35
 70
     1
102
RTVSPropertyOp36
 70
     1
102
RTVSPropertyOp37
 70
     0
102
RTVSPropertyOp38
 70
     0
102
RTVSPropertyOp39
 70
     0
102
RTVSPropertyOp40
 70
     0
102
RTVSPropertyOp41
 70
     0
102
RTVSPropertyOp42
 70
     0
102
RTVSPropertyOp43
 70
     0
102
RTVSPropertyOp44
 70
     0
102
RTVSPropertyOp45
 70
     1
102
RTVSPropertyOp46
 70
     0
102
RTVSPropertyOp47
 70
     0
102
RTVSPropertyOp48
 70
     0
102
RTVSPropertyOp49
 70
     1
102
RTVSPropertyOp50
 70
     0
102
RTVSPropertyOp51
 70
     0
102
RTVSPropertyOp52
 70
     0
102
RTVSPropertyOp53
 70
     0
102
RTVSPropertyOp54
 70
     0
102
RTVSPropertyOp55
 70
     1
102
RTVSPropertyOp56
 70
     0
102
RTVSPropertyOp57
 70
     0
102
RTVSPropertyOp58
 70
     1
102
RTVSPropertyOp59
 70
     1
102
RTVSPropertyOp60
 70
     1
102
RTVSPropertyOp61
 70
     1
102
RTVSPropertyOp62
 70
     1
  0
XRECORD
  5
42DE
102
{ACAD_REACTORS
330
42DD
102
}
330
42DD
100
AcDbXrecord
280
     1
102
RTVSPost2010Prop28
280
     0
102
RTVSPost2010PropOp28
 70
     1
102
RTVSPost2010Prop29
280
     1
102
RTVSPost2010PropOp29
 70
     1
102
RTVSPost2010Prop30
280
     1
102
RTVSPost2010PropOp30
 70
     1
102
RTVSPost2010Prop31
280
     0
102
RTVSPost2010PropOp31
 70
     1
102
RTVSPost2010Prop32
280
     0
102
RTVSPost2010PropOp32
 70
     1
102
RTVSPost2010Prop33
280
     0
102
RTVSPost2010PropOp33
 70
     1
102
RTVSPost2010Prop34
280
     0
102
RTVSPost2010PropOp34
 70
     1
102
RTVSPost2010Prop35
280
     0
102
RTVSPost2010PropOp35
 70
     1
102
RTVSPost2010Prop36
280
     0
102
RTVSPost2010PropOp36
 70
     1
102
RTVSPost2010Prop37
 90
       50
102
RTVSPost2010PropOp37
 70
     1
102
RTVSPost2010Prop38
140
0.0
102
RTVSPost2010PropOp38
 70
     1
102
RTVSPost2010Prop39
140
1.0
102
RTVSPost2010PropOp39
 70
     1
102
RTVSPost2010Prop40
 90
        0
102
RTVSPost2010PropOp40
 70
     1
102
RTVSPost2010Prop41ColorIndex
 90
       18
102
RTVSPost2010Prop41ColorRGB
 90
        0
102
RTVSPost2010PropOp41
 70
     1
102
RTVSPost2010Prop42
 90
       50
102
RTVSPost2010PropOp42
 70
     1
102
RTVSPost2010Prop43
 90
        3
102
RTVSPost2010PropOp43
 70
     1
102
RTVSPost2010Prop44ColorIndex
 90
        5
102
RTVSPost2010Prop44ColorRGB
 90
      255
102
RTVSPost2010PropOp44
 70
     1
102
RTVSPost2010Prop45
280
     0
102
RTVSPost2010PropOp45
 70
     1
102
RTVSPost2010Prop46
 90
       50
102
RTVSPost2010PropOp46
 70
     1
102
RTVSPost2010Prop47
 90
       50
102
RTVSPost2010PropOp47
 70
     1
102
RTVSPost2010Prop48
 90
       50
102
RTVSPost2010PropOp48
 70
     1
102
RTVSPost2010Prop49
280
     0
102
RTVSPost2010PropOp49
 70
     1
102
RTVSPost2010Prop50
 90
       50
102
RTVSPost2010PropOp50
 70
     1
102
RTVSPost2010Prop51ColorIndex
 90
      256
102
RTVSPost2010Prop51ColorRGB
 90
-16777216
102
RTVSPost2010PropOp51
 70
     0
102
RTVSPost2010Prop52
140
1.0
102
RTVSPost2010PropOp52
 70
     0
102
RTVSPost2010Prop53
 90
        2
102
RTVSPost2010PropOp53
 70
     1
102
RTVSPost2010Prop54
  1
strokes_ogs.tif
102
RTVSPost2010PropOp54
 70
     1
102
RTVSPost2010Prop55
280
     0
102
RTVSPost2010PropOp55
 70
     1
102
RTVSPost2010Prop56
140
1.0
102
RTVSPost2010PropOp56
 70
     1
102
RTVSPost2010Prop57
140
1.0
102
RTVSPost2010PropOp57
 70
     1
102
RTVSPropertyOp0
 70
     1
102
RTVSPropertyOp1
 70
     1
102
RTVSPropertyOp2
 70
     1
102
RTVSPropertyOp3
 70
     1
102
RTVSPropertyOp4
 70
     1
102
RTVSPropertyOp5
 70
     1
102
RTVSPropertyOp6
 70
     1
102
RTVSPropertyOp7
 70
     1
102
RTVSPropertyOp8
 70
     1
102
RTVSPropertyOp9
 70
     1
102
RTVSPropertyOp10
 70
     1
102
RTVSPropertyOp11
 70
     1
102
RTVSPropertyOp12
 70
     1
102
RTVSPropertyOp13
 70
     1
102
RTVSPropertyOp14
 70
     1
102
RTVSPropertyOp15
 70
     1
102
RTVSPropertyOp16
 70
     1
102
RTVSPropertyOp17
 70
     1
102
RTVSPropertyOp18
 70
     1
102
RTVSPropertyOp19
 70
     1
102
RTVSPropertyOp20
 70
     1
102
RTVSPropertyOp21
 70
     1
102
RTVSPropertyOp22
 70
     1
102
RTVSPropertyOp23
 70
     1
102
RTVSPropertyOp24
 70
     1
102
RTVSPropertyOp25
 70
     1
102
RTVSPropertyOp26
 70
     1
102
RTVSPropertyOp27
 70
     1
102
RTVSPropertyOp28
 70
     1
102
RTVSPropertyOp29
 70
     1
102
RTVSPropertyOp30
 70
     1
102
RTVSPropertyOp31
 70
     1
102
RTVSPropertyOp32
 70
     1
102
RTVSPropertyOp33
 70
     1
102
RTVSPropertyOp34
 70
     1
102
RTVSPropertyOp35
 70
     1
102
RTVSPropertyOp36
 70
     1
102
RTVSPropertyOp37
 70
     1
102
RTVSPropertyOp38
 70
     1
102
RTVSPropertyOp39
 70
     1
102
RTVSPropertyOp40
 70
     1
102
RTVSPropertyOp41
 70
     1
102
RTVSPropertyOp42
 70
     1
102
RTVSPropertyOp43
 70
     1
102
RTVSPropertyOp44
 70
     1
102
RTVSPropertyOp45
 70
     1
102
RTVSPropertyOp46
 70
     1
102
RTVSPropertyOp47
 70
     1
102
RTVSPropertyOp48
 70
     1
102
RTVSPropertyOp49
 70
     1
102
RTVSPropertyOp50
 70
     1
102
RTVSPropertyOp51
 70
     0
102
RTVSPropertyOp52
 70
     0
102
RTVSPropertyOp53
 70
     1
102
RTVSPropertyOp54
 70
     1
102
RTVSPropertyOp55
 70
     1
102
RTVSPropertyOp56
 70
     1
102
RTVSPropertyOp57
 70
     1
102
RTVSPropertyOp58
 70
     1
102
RTVSPropertyOp59
 70
     1
102
RTVSPropertyOp60
 70
     1
102
RTVSPropertyOp61
 70
     1
102
RTVSPropertyOp62
 70
     1
  0
XRECORD
  5
42F4
102
{ACAD_REACTORS
330
42F3
102
}
330
42F3
100
AcDbXrecord
280
     1
102
RTVSPost2010Prop28
280
     0
102
RTVSPost2010PropOp28
 70
     1
102
RTVSPost2010Prop29
280
     1
102
RTVSPost2010PropOp29
 70
     1
102
RTVSPost2010Prop30
280
     1
102
RTVSPost2010PropOp30
 70
     1
102
RTVSPost2010Prop31
280
     0
102
RTVSPost2010PropOp31
 70
     1
102
RTVSPost2010Prop32
280
     0
102
RTVSPost2010PropOp32
 70
     1
102
RTVSPost2010Prop33
280
     0
102
RTVSPost2010PropOp33
 70
     1
102
RTVSPost2010Prop34
280
     0
102
RTVSPost2010PropOp34
 70
     1
102
RTVSPost2010Prop35
280
     0
102
RTVSPost2010PropOp35
 70
     1
102
RTVSPost2010Prop36
280
     0
102
RTVSPost2010PropOp36
 70
     1
102
RTVSPost2010Prop37
 90
       50
102
RTVSPost2010PropOp37
 70
     1
102
RTVSPost2010Prop38
140
0.0
102
RTVSPost2010PropOp38
 70
     1
102
RTVSPost2010Prop39
140
1.0
102
RTVSPost2010PropOp39
 70
     1
102
RTVSPost2010Prop40
 90
        0
102
RTVSPost2010PropOp40
 70
     1
102
RTVSPost2010Prop41ColorIndex
 90
       18
102
RTVSPost2010Prop41ColorRGB
 90
        0
102
RTVSPost2010PropOp41
 70
     1
102
RTVSPost2010Prop42
 90
       50
102
RTVSPost2010PropOp42
 70
     1
102
RTVSPost2010Prop43
 90
        3
102
RTVSPost2010PropOp43
 70
     1
102
RTVSPost2010Prop44ColorIndex
 90
        5
102
RTVSPost2010Prop44ColorRGB
 90
      255
102
RTVSPost2010PropOp44
 70
     1
102
RTVSPost2010Prop45
280
     0
102
RTVSPost2010PropOp45
 70
     1
102
RTVSPost2010Prop46
 90
       50
102
RTVSPost2010PropOp46
 70
     1
102
RTVSPost2010Prop47
 90
       50
102
RTVSPost2010PropOp47
 70
     1
102
RTVSPost2010Prop48
 90
       50
102
RTVSPost2010PropOp48
 70
     1
102
RTVSPost2010Prop49
280
     0
102
RTVSPost2010PropOp49
 70
     1
102
RTVSPost2010Prop50
 90
       50
102
RTVSPost2010PropOp50
 70
     1
102
RTVSPost2010Prop51ColorIndex
 90
      256
102
RTVSPost2010Prop51ColorRGB
 90
-16777216
102
RTVSPost2010PropOp51
 70
     0
102
RTVSPost2010Prop52
140
1.0
102
RTVSPost2010PropOp52
 70
     0
102
RTVSPost2010Prop53
 90
        2
102
RTVSPost2010PropOp53
 70
     1
102
RTVSPost2010Prop54
  1
strokes_ogs.tif
102
RTVSPost2010PropOp54
 70
     1
102
RTVSPost2010Prop55
280
     0
102
RTVSPost2010PropOp55
 70
     1
102
RTVSPost2010Prop56
140
1.0
102
RTVSPost2010PropOp56
 70
     1
102
RTVSPost2010Prop57
140
1.0
102
RTVSPost2010PropOp57
 70
     1
102
RTVSPropertyOp0
 70
     1
102
RTVSPropertyOp1
 70
     1
102
RTVSPropertyOp2
 70
     1
102
RTVSPropertyOp3
 70
     1
102
RTVSPropertyOp4
 70
     1
102
RTVSPropertyOp5
 70
     1
102
RTVSPropertyOp6
 70
     1
102
RTVSPropertyOp7
 70
     1
102
RTVSPropertyOp8
 70
     1
102
RTVSPropertyOp9
 70
     1
102
RTVSPropertyOp10
 70
     1
102
RTVSPropertyOp11
 70
     1
102
RTVSPropertyOp12
 70
     1
102
RTVSPropertyOp13
 70
     1
102
RTVSPropertyOp14
 70
     1
102
RTVSPropertyOp15
 70
     1
102
RTVSPropertyOp16
 70
     1
102
RTVSPropertyOp17
 70
     1
102
RTVSPropertyOp18
 70
     1
102
RTVSPropertyOp19
 70
     1
102
RTVSPropertyOp20
 70
     1
102
RTVSPropertyOp21
 70
     1
102
RTVSPropertyOp22
 70
     1
102
RTVSPropertyOp23
 70
     1
102
RTVSPropertyOp24
 70
     1
102
RTVSPropertyOp25
 70
     1
102
RTVSPropertyOp26
 70
     1
102
RTVSPropertyOp27
 70
     1
102
RTVSPropertyOp28
 70
     1
102
RTVSPropertyOp29
 70
     1
102
RTVSPropertyOp30
 70
     1
102
RTVSPropertyOp31
 70
     1
102
RTVSPropertyOp32
 70
     1
102
RTVSPropertyOp33
 70
     1
102
RTVSPropertyOp34
 70
     1
102
RTVSPropertyOp35
 70
     1
102
RTVSPropertyOp36
 70
     1
102
RTVSPropertyOp37
 70
     1
102
RTVSPropertyOp38
 70
     1
102
RTVSPropertyOp39
 70
     1
102
RTVSPropertyOp40
 70
     1
102
RTVSPropertyOp41
 70
     1
102
RTVSPropertyOp42
 70
     1
102
RTVSPropertyOp43
 70
     1
102
RTVSPropertyOp44
 70
     1
102
RTVSPropertyOp45
 70
     1
102
RTVSPropertyOp46
 70
     1
102
RTVSPropertyOp47
 70
     1
102
RTVSPropertyOp48
 70
     1
102
RTVSPropertyOp49
 70
     1
102
RTVSPropertyOp50
 70
     1
102
RTVSPropertyOp51
 70
     0
102
RTVSPropertyOp52
 70
     0
102
RTVSPropertyOp53
 70
     1
102
RTVSPropertyOp54
 70
     1
102
RTVSPropertyOp55
 70
     1
102
RTVSPropertyOp56
 70
     1
102
RTVSPropertyOp57
 70
     1
102
RTVSPropertyOp58
 70
     1
102
RTVSPropertyOp59
 70
     1
102
RTVSPropertyOp60
 70
     1
102
RTVSPropertyOp61
 70
     1
102
RTVSPropertyOp62
 70
     1
  0
XRECORD
  5
42F2
102
{ACAD_REACTORS
330
42F1
102
}
330
42F1
100
AcDbXrecord
280
     1
102
RTVSPost2010Prop28
280
     0
102
RTVSPost2010PropOp28
 70
     1
102
RTVSPost2010Prop29
280
     1
102
RTVSPost2010PropOp29
 70
     1
102
RTVSPost2010Prop30
280
     1
102
RTVSPost2010PropOp30
 70
     1
102
RTVSPost2010Prop31
280
     0
102
RTVSPost2010PropOp31
 70
     1
102
RTVSPost2010Prop32
280
     0
102
RTVSPost2010PropOp32
 70
     1
102
RTVSPost2010Prop33
280
     0
102
RTVSPost2010PropOp33
 70
     1
102
RTVSPost2010Prop34
280
     0
102
RTVSPost2010PropOp34
 70
     1
102
RTVSPost2010Prop35
280
     0
102
RTVSPost2010PropOp35
 70
     1
102
RTVSPost2010Prop36
280
     0
102
RTVSPost2010PropOp36
 70
     1
102
RTVSPost2010Prop37
 90
       50
102
RTVSPost2010PropOp37
 70
     1
102
RTVSPost2010Prop38
140
0.0
102
RTVSPost2010PropOp38
 70
     1
102
RTVSPost2010Prop39
140
1.0
102
RTVSPost2010PropOp39
 70
     1
102
RTVSPost2010Prop40
 90
        0
102
RTVSPost2010PropOp40
 70
     1
102
RTVSPost2010Prop41ColorIndex
 90
       18
102
RTVSPost2010Prop41ColorRGB
 90
        0
102
RTVSPost2010PropOp41
 70
     1
102
RTVSPost2010Prop42
 90
       50
102
RTVSPost2010PropOp42
 70
     1
102
RTVSPost2010Prop43
 90
        3
102
RTVSPost2010PropOp43
 70
     1
102
RTVSPost2010Prop44ColorIndex
 90
        5
102
RTVSPost2010Prop44ColorRGB
 90
      255
102
RTVSPost2010PropOp44
 70
     1
102
RTVSPost2010Prop45
280
     0
102
RTVSPost2010PropOp45
 70
     1
102
RTVSPost2010Prop46
 90
       50
102
RTVSPost2010PropOp46
 70
     1
102
RTVSPost2010Prop47
 90
       50
102
RTVSPost2010PropOp47
 70
     1
102
RTVSPost2010Prop48
 90
       50
102
RTVSPost2010PropOp48
 70
     1
102
RTVSPost2010Prop49
280
     0
102
RTVSPost2010PropOp49
 70
     1
102
RTVSPost2010Prop50
 90
       50
102
RTVSPost2010PropOp50
 70
     1
102
RTVSPost2010Prop51ColorIndex
 90
      256
102
RTVSPost2010Prop51ColorRGB
 90
-16777216
102
RTVSPost2010PropOp51
 70
     0
102
RTVSPost2010Prop52
140
1.0
102
RTVSPost2010PropOp52
 70
     0
102
RTVSPost2010Prop53
 90
        2
102
RTVSPost2010PropOp53
 70
     1
102
RTVSPost2010Prop54
  1
strokes_ogs.tif
102
RTVSPost2010PropOp54
 70
     1
102
RTVSPost2010Prop55
280
     0
102
RTVSPost2010PropOp55
 70
     1
102
RTVSPost2010Prop56
140
1.0
102
RTVSPost2010PropOp56
 70
     1
102
RTVSPost2010Prop57
140
1.0
102
RTVSPost2010PropOp57
 70
     1
102
RTVSPropertyOp0
 70
     1
102
RTVSPropertyOp1
 70
     1
102
RTVSPropertyOp2
 70
     1
102
RTVSPropertyOp3
 70
     1
102
RTVSPropertyOp4
 70
     1
102
RTVSPropertyOp5
 70
     1
102
RTVSPropertyOp6
 70
     1
102
RTVSPropertyOp7
 70
     1
102
RTVSPropertyOp8
 70
     1
102
RTVSPropertyOp9
 70
     1
102
RTVSPropertyOp10
 70
     1
102
RTVSPropertyOp11
 70
     1
102
RTVSPropertyOp12
 70
     1
102
RTVSPropertyOp13
 70
     1
102
RTVSPropertyOp14
 70
     1
102
RTVSPropertyOp15
 70
     1
102
RTVSPropertyOp16
 70
     1
102
RTVSPropertyOp17
 70
     1
102
RTVSPropertyOp18
 70
     1
102
RTVSPropertyOp19
 70
     1
102
RTVSPropertyOp20
 70
     1
102
RTVSPropertyOp21
 70
     1
102
RTVSPropertyOp22
 70
     1
102
RTVSPropertyOp23
 70
     1
102
RTVSPropertyOp24
 70
     1
102
RTVSPropertyOp25
 70
     1
102
RTVSPropertyOp26
 70
     1
102
RTVSPropertyOp27
 70
     1
102
RTVSPropertyOp28
 70
     1
102
RTVSPropertyOp29
 70
     1
102
RTVSPropertyOp30
 70
     1
102
RTVSPropertyOp31
 70
     1
102
RTVSPropertyOp32
 70
     1
102
RTVSPropertyOp33
 70
     1
102
RTVSPropertyOp34
 70
     1
102
RTVSPropertyOp35
 70
     1
102
RTVSPropertyOp36
 70
     1
102
RTVSPropertyOp37
 70
     1
102
RTVSPropertyOp38
 70
     1
102
RTVSPropertyOp39
 70
     1
102
RTVSPropertyOp40
 70
     1
102
RTVSPropertyOp41
 70
     1
102
RTVSPropertyOp42
 70
     1
102
RTVSPropertyOp43
 70
     1
102
RTVSPropertyOp44
 70
     1
102
RTVSPropertyOp45
 70
     1
102
RTVSPropertyOp46
 70
     1
102
RTVSPropertyOp47
 70
     1
102
RTVSPropertyOp48
 70
     1
102
RTVSPropertyOp49
 70
     1
102
RTVSPropertyOp50
 70
     1
102
RTVSPropertyOp51
 70
     0
102
RTVSPropertyOp52
 70
     0
102
RTVSPropertyOp53
 70
     1
102
RTVSPropertyOp54
 70
     1
102
RTVSPropertyOp55
 70
     1
102
RTVSPropertyOp56
 70
     1
102
RTVSPropertyOp57
 70
     1
102
RTVSPropertyOp58
 70
     1
102
RTVSPropertyOp59
 70
     1
102
RTVSPropertyOp60
 70
     1
102
RTVSPropertyOp61
 70
     1
102
RTVSPropertyOp62
 70
     1
  0
XRECORD
  5
42EC
102
{ACAD_REACTORS
330
42EB
102
}
330
42EB
100
AcDbXrecord
280
     1
102
RTVSPost2010Prop28
280
     0
102
RTVSPost2010PropOp28
 70
     1
102
RTVSPost2010Prop29
280
     1
102
RTVSPost2010PropOp29
 70
     1
102
RTVSPost2010Prop30
280
     1
102
RTVSPost2010PropOp30
 70
     1
102
RTVSPost2010Prop31
280
     0
102
RTVSPost2010PropOp31
 70
     1
102
RTVSPost2010Prop32
280
     0
102
RTVSPost2010PropOp32
 70
     1
102
RTVSPost2010Prop33
280
     0
102
RTVSPost2010PropOp33
 70
     1
102
RTVSPost2010Prop34
280
     0
102
RTVSPost2010PropOp34
 70
     1
102
RTVSPost2010Prop35
280
     0
102
RTVSPost2010PropOp35
 70
     1
102
RTVSPost2010Prop36
280
     0
102
RTVSPost2010PropOp36
 70
     1
102
RTVSPost2010Prop37
 90
       50
102
RTVSPost2010PropOp37
 70
     1
102
RTVSPost2010Prop38
140
0.0
102
RTVSPost2010PropOp38
 70
     1
102
RTVSPost2010Prop39
140
1.0
102
RTVSPost2010PropOp39
 70
     1
102
RTVSPost2010Prop40
 90
        0
102
RTVSPost2010PropOp40
 70
     1
102
RTVSPost2010Prop41ColorIndex
 90
       18
102
RTVSPost2010Prop41ColorRGB
 90
        0
102
RTVSPost2010PropOp41
 70
     1
102
RTVSPost2010Prop42
 90
       50
102
RTVSPost2010PropOp42
 70
     1
102
RTVSPost2010Prop43
 90
        3
102
RTVSPost2010PropOp43
 70
     1
102
RTVSPost2010Prop44ColorIndex
 90
        5
102
RTVSPost2010Prop44ColorRGB
 90
      255
102
RTVSPost2010PropOp44
 70
     1
102
RTVSPost2010Prop45
280
     0
102
RTVSPost2010PropOp45
 70
     1
102
RTVSPost2010Prop46
 90
       50
102
RTVSPost2010PropOp46
 70
     1
102
RTVSPost2010Prop47
 90
       50
102
RTVSPost2010PropOp47
 70
     1
102
RTVSPost2010Prop48
 90
       50
102
RTVSPost2010PropOp48
 70
     1
102
RTVSPost2010Prop49
280
     0
102
RTVSPost2010PropOp49
 70
     1
102
RTVSPost2010Prop50
 90
       50
102
RTVSPost2010PropOp50
 70
     1
102
RTVSPost2010Prop51ColorIndex
 90
      256
102
RTVSPost2010Prop51ColorRGB
 90
-16777216
102
RTVSPost2010PropOp51
 70
     0
102
RTVSPost2010Prop52
140
1.0
102
RTVSPost2010PropOp52
 70
     0
102
RTVSPost2010Prop53
 90
        2
102
RTVSPost2010PropOp53
 70
     1
102
RTVSPost2010Prop54
  1
strokes_ogs.tif
102
RTVSPost2010PropOp54
 70
     1
102
RTVSPost2010Prop55
280
     0
102
RTVSPost2010PropOp55
 70
     1
102
RTVSPost2010Prop56
140
1.0
102
RTVSPost2010PropOp56
 70
     1
102
RTVSPost2010Prop57
140
1.0
102
RTVSPost2010PropOp57
 70
     1
102
RTVSPropertyOp0
 70
     1
102
RTVSPropertyOp1
 70
     1
102
RTVSPropertyOp2
 70
     1
102
RTVSPropertyOp3
 70
     1
102
RTVSPropertyOp4
 70
     1
102
RTVSPropertyOp5
 70
     1
102
RTVSPropertyOp6
 70
     1
102
RTVSPropertyOp7
 70
     1
102
RTVSPropertyOp8
 70
     1
102
RTVSPropertyOp9
 70
     1
102
RTVSPropertyOp10
 70
     1
102
RTVSPropertyOp11
 70
     1
102
RTVSPropertyOp12
 70
     1
102
RTVSPropertyOp13
 70
     1
102
RTVSPropertyOp14
 70
     1
102
RTVSPropertyOp15
 70
     1
102
RTVSPropertyOp16
 70
     1
102
RTVSPropertyOp17
 70
     1
102
RTVSPropertyOp18
 70
     1
102
RTVSPropertyOp19
 70
     1
102
RTVSPropertyOp20
 70
     1
102
RTVSPropertyOp21
 70
     1
102
RTVSPropertyOp22
 70
     1
102
RTVSPropertyOp23
 70
     1
102
RTVSPropertyOp24
 70
     1
102
RTVSPropertyOp25
 70
     1
102
RTVSPropertyOp26
 70
     1
102
RTVSPropertyOp27
 70
     1
102
RTVSPropertyOp28
 70
     1
102
RTVSPropertyOp29
 70
     1
102
RTVSPropertyOp30
 70
     1
102
RTVSPropertyOp31
 70
     1
102
RTVSPropertyOp32
 70
     1
102
RTVSPropertyOp33
 70
     1
102
RTVSPropertyOp34
 70
     1
102
RTVSPropertyOp35
 70
     1
102
RTVSPropertyOp36
 70
     1
102
RTVSPropertyOp37
 70
     1
102
RTVSPropertyOp38
 70
     1
102
RTVSPropertyOp39
 70
     1
102
RTVSPropertyOp40
 70
     1
102
RTVSPropertyOp41
 70
     1
102
RTVSPropertyOp42
 70
     1
102
RTVSPropertyOp43
 70
     1
102
RTVSPropertyOp44
 70
     1
102
RTVSPropertyOp45
 70
     1
102
RTVSPropertyOp46
 70
     1
102
RTVSPropertyOp47
 70
     1
102
RTVSPropertyOp48
 70
     1
102
RTVSPropertyOp49
 70
     1
102
RTVSPropertyOp50
 70
     1
102
RTVSPropertyOp51
 70
     0
102
RTVSPropertyOp52
 70
     0
102
RTVSPropertyOp53
 70
     1
102
RTVSPropertyOp54
 70
     1
102
RTVSPropertyOp55
 70
     1
102
RTVSPropertyOp56
 70
     1
102
RTVSPropertyOp57
 70
     1
102
RTVSPropertyOp58
 70
     1
102
RTVSPropertyOp59
 70
     1
102
RTVSPropertyOp60
 70
     1
102
RTVSPropertyOp61
 70
     1
102
RTVSPropertyOp62
 70
     1
  0
XRECORD
  5
42EE
102
{ACAD_REACTORS
330
42ED
102
}
330
42ED
100
AcDbXrecord
280
     1
102
RTVSPost2010Prop28
280
     0
102
RTVSPost2010PropOp28
 70
     1
102
RTVSPost2010Prop29
280
     1
102
RTVSPost2010PropOp29
 70
     1
102
RTVSPost2010Prop30
280
     1
102
RTVSPost2010PropOp30
 70
     1
102
RTVSPost2010Prop31
280
     0
102
RTVSPost2010PropOp31
 70
     1
102
RTVSPost2010Prop32
280
     0
102
RTVSPost2010PropOp32
 70
     1
102
RTVSPost2010Prop33
280
     0
102
RTVSPost2010PropOp33
 70
     1
102
RTVSPost2010Prop34
280
     0
102
RTVSPost2010PropOp34
 70
     1
102
RTVSPost2010Prop35
280
     0
102
RTVSPost2010PropOp35
 70
     1
102
RTVSPost2010Prop36
280
     0
102
RTVSPost2010PropOp36
 70
     1
102
RTVSPost2010Prop37
 90
       50
102
RTVSPost2010PropOp37
 70
     1
102
RTVSPost2010Prop38
140
0.0
102
RTVSPost2010PropOp38
 70
     1
102
RTVSPost2010Prop39
140
1.0
102
RTVSPost2010PropOp39
 70
     1
102
RTVSPost2010Prop40
 90
        0
102
RTVSPost2010PropOp40
 70
     1
102
RTVSPost2010Prop41ColorIndex
 90
       18
102
RTVSPost2010Prop41ColorRGB
 90
        0
102
RTVSPost2010PropOp41
 70
     1
102
RTVSPost2010Prop42
 90
       50
102
RTVSPost2010PropOp42
 70
     1
102
RTVSPost2010Prop43
 90
        3
102
RTVSPost2010PropOp43
 70
     1
102
RTVSPost2010Prop44ColorIndex
 90
        5
102
RTVSPost2010Prop44ColorRGB
 90
      255
102
RTVSPost2010PropOp44
 70
     1
102
RTVSPost2010Prop45
280
     0
102
RTVSPost2010PropOp45
 70
     1
102
RTVSPost2010Prop46
 90
       50
102
RTVSPost2010PropOp46
 70
     1
102
RTVSPost2010Prop47
 90
       50
102
RTVSPost2010PropOp47
 70
     1
102
RTVSPost2010Prop48
 90
       50
102
RTVSPost2010PropOp48
 70
     1
102
RTVSPost2010Prop49
280
     0
102
RTVSPost2010PropOp49
 70
     1
102
RTVSPost2010Prop50
 90
       50
102
RTVSPost2010PropOp50
 70
     1
102
RTVSPost2010Prop51ColorIndex
 90
      256
102
RTVSPost2010Prop51ColorRGB
 90
-16777216
102
RTVSPost2010PropOp51
 70
     0
102
RTVSPost2010Prop52
140
1.0
102
RTVSPost2010PropOp52
 70
     0
102
RTVSPost2010Prop53
 90
        2
102
RTVSPost2010PropOp53
 70
     1
102
RTVSPost2010Prop54
  1
strokes_ogs.tif
102
RTVSPost2010PropOp54
 70
     1
102
RTVSPost2010Prop55
280
     0
102
RTVSPost2010PropOp55
 70
     1
102
RTVSPost2010Prop56
140
1.0
102
RTVSPost2010PropOp56
 70
     1
102
RTVSPost2010Prop57
140
1.0
102
RTVSPost2010PropOp57
 70
     1
102
RTVSPropertyOp0
 70
     1
102
RTVSPropertyOp1
 70
     1
102
RTVSPropertyOp2
 70
     1
102
RTVSPropertyOp3
 70
     1
102
RTVSPropertyOp4
 70
     1
102
RTVSPropertyOp5
 70
     1
102
RTVSPropertyOp6
 70
     1
102
RTVSPropertyOp7
 70
     1
102
RTVSPropertyOp8
 70
     1
102
RTVSPropertyOp9
 70
     1
102
RTVSPropertyOp10
 70
     1
102
RTVSPropertyOp11
 70
     1
102
RTVSPropertyOp12
 70
     1
102
RTVSPropertyOp13
 70
     1
102
RTVSPropertyOp14
 70
     1
102
RTVSPropertyOp15
 70
     1
102
RTVSPropertyOp16
 70
     1
102
RTVSPropertyOp17
 70
     1
102
RTVSPropertyOp18
 70
     1
102
RTVSPropertyOp19
 70
     1
102
RTVSPropertyOp20
 70
     1
102
RTVSPropertyOp21
 70
     1
102
RTVSPropertyOp22
 70
     1
102
RTVSPropertyOp23
 70
     1
102
RTVSPropertyOp24
 70
     1
102
RTVSPropertyOp25
 70
     1
102
RTVSPropertyOp26
 70
     1
102
RTVSPropertyOp27
 70
     1
102
RTVSPropertyOp28
 70
     1
102
RTVSPropertyOp29
 70
     1
102
RTVSPropertyOp30
 70
     1
102
RTVSPropertyOp31
 70
     1
102
RTVSPropertyOp32
 70
     1
102
RTVSPropertyOp33
 70
     1
102
RTVSPropertyOp34
 70
     1
102
RTVSPropertyOp35
 70
     1
102
RTVSPropertyOp36
 70
     1
102
RTVSPropertyOp37
 70
     1
102
RTVSPropertyOp38
 70
     1
102
RTVSPropertyOp39
 70
     1
102
RTVSPropertyOp40
 70
     1
102
RTVSPropertyOp41
 70
     1
102
RTVSPropertyOp42
 70
     1
102
RTVSPropertyOp43
 70
     1
102
RTVSPropertyOp44
 70
     1
102
RTVSPropertyOp45
 70
     1
102
RTVSPropertyOp46
 70
     1
102
RTVSPropertyOp47
 70
     1
102
RTVSPropertyOp48
 70
     1
102
RTVSPropertyOp49
 70
     1
102
RTVSPropertyOp50
 70
     1
102
RTVSPropertyOp51
 70
     0
102
RTVSPropertyOp52
 70
     0
102
RTVSPropertyOp53
 70
     1
102
RTVSPropertyOp54
 70
     1
102
RTVSPropertyOp55
 70
     1
102
RTVSPropertyOp56
 70
     1
102
RTVSPropertyOp57
 70
     1
102
RTVSPropertyOp58
 70
     1
102
RTVSPropertyOp59
 70
     1
102
RTVSPropertyOp60
 70
     1
102
RTVSPropertyOp61
 70
     1
102
RTVSPropertyOp62
 70
     1
  0
XRECORD
  5
42E4
102
{ACAD_REACTORS
330
42E3
102
}
330
42E3
100
AcDbXrecord
280
     1
102
RTVSPost2010Prop28
280
     0
102
RTVSPost2010PropOp28
 70
     1
102
RTVSPost2010Prop29
280
     1
102
RTVSPost2010PropOp29
 70
     1
102
RTVSPost2010Prop30
280
     1
102
RTVSPost2010PropOp30
 70
     1
102
RTVSPost2010Prop31
280
     0
102
RTVSPost2010PropOp31
 70
     1
102
RTVSPost2010Prop32
280
     0
102
RTVSPost2010PropOp32
 70
     1
102
RTVSPost2010Prop33
280
     0
102
RTVSPost2010PropOp33
 70
     1
102
RTVSPost2010Prop34
280
     0
102
RTVSPost2010PropOp34
 70
     1
102
RTVSPost2010Prop35
280
     0
102
RTVSPost2010PropOp35
 70
     1
102
RTVSPost2010Prop36
280
     0
102
RTVSPost2010PropOp36
 70
     1
102
RTVSPost2010Prop37
 90
       50
102
RTVSPost2010PropOp37
 70
     1
102
RTVSPost2010Prop38
140
0.0
102
RTVSPost2010PropOp38
 70
     1
102
RTVSPost2010Prop39
140
1.0
102
RTVSPost2010PropOp39
 70
     1
102
RTVSPost2010Prop40
 90
        0
102
RTVSPost2010PropOp40
 70
     1
102
RTVSPost2010Prop41ColorIndex
 90
       18
102
RTVSPost2010Prop41ColorRGB
 90
        0
102
RTVSPost2010PropOp41
 70
     1
102
RTVSPost2010Prop42
 90
       50
102
RTVSPost2010PropOp42
 70
     1
102
RTVSPost2010Prop43
 90
        3
102
RTVSPost2010PropOp43
 70
     1
102
RTVSPost2010Prop44ColorIndex
 90
        5
102
RTVSPost2010Prop44ColorRGB
 90
      255
102
RTVSPost2010PropOp44
 70
     1
102
RTVSPost2010Prop45
280
     0
102
RTVSPost2010PropOp45
 70
     1
102
RTVSPost2010Prop46
 90
       50
102
RTVSPost2010PropOp46
 70
     1
102
RTVSPost2010Prop47
 90
       50
102
RTVSPost2010PropOp47
 70
     1
102
RTVSPost2010Prop48
 90
       50
102
RTVSPost2010PropOp48
 70
     1
102
RTVSPost2010Prop49
280
     0
102
RTVSPost2010PropOp49
 70
     1
102
RTVSPost2010Prop50
 90
       50
102
RTVSPost2010PropOp50
 70
     1
102
RTVSPost2010Prop51ColorIndex
 90
      256
102
RTVSPost2010Prop51ColorRGB
 90
-16777216
102
RTVSPost2010PropOp51
 70
     0
102
RTVSPost2010Prop52
140
1.0
102
RTVSPost2010PropOp52
 70
     0
102
RTVSPost2010Prop53
 90
        2
102
RTVSPost2010PropOp53
 70
     1
102
RTVSPost2010Prop54
  1
strokes_ogs.tif
102
RTVSPost2010PropOp54
 70
     1
102
RTVSPost2010Prop55
280
     0
102
RTVSPost2010PropOp55
 70
     1
102
RTVSPost2010Prop56
140
1.0
102
RTVSPost2010PropOp56
 70
     1
102
RTVSPost2010Prop57
140
1.0
102
RTVSPost2010PropOp57
 70
     1
102
RTVSPropertyOp0
 70
     1
102
RTVSPropertyOp1
 70
     1
102
RTVSPropertyOp2
 70
     1
102
RTVSPropertyOp3
 70
     1
102
RTVSPropertyOp4
 70
     1
102
RTVSPropertyOp5
 70
     1
102
RTVSPropertyOp6
 70
     1
102
RTVSPropertyOp7
 70
     1
102
RTVSPropertyOp8
 70
     1
102
RTVSPropertyOp9
 70
     1
102
RTVSPropertyOp10
 70
     1
102
RTVSPropertyOp11
 70
     1
102
RTVSPropertyOp12
 70
     1
102
RTVSPropertyOp13
 70
     1
102
RTVSPropertyOp14
 70
     1
102
RTVSPropertyOp15
 70
     1
102
RTVSPropertyOp16
 70
     1
102
RTVSPropertyOp17
 70
     1
102
RTVSPropertyOp18
 70
     1
102
RTVSPropertyOp19
 70
     1
102
RTVSPropertyOp20
 70
     1
102
RTVSPropertyOp21
 70
     1
102
RTVSPropertyOp22
 70
     1
102
RTVSPropertyOp23
 70
     1
102
RTVSPropertyOp24
 70
     1
102
RTVSPropertyOp25
 70
     1
102
RTVSPropertyOp26
 70
     1
102
RTVSPropertyOp27
 70
     1
102
RTVSPropertyOp28
 70
     1
102
RTVSPropertyOp29
 70
     1
102
RTVSPropertyOp30
 70
     1
102
RTVSPropertyOp31
 70
     1
102
RTVSPropertyOp32
 70
     1
102
RTVSPropertyOp33
 70
     1
102
RTVSPropertyOp34
 70
     1
102
RTVSPropertyOp35
 70
     1
102
RTVSPropertyOp36
 70
     1
102
RTVSPropertyOp37
 70
     1
102
RTVSPropertyOp38
 70
     1
102
RTVSPropertyOp39
 70
     1
102
RTVSPropertyOp40
 70
     1
102
RTVSPropertyOp41
 70
     1
102
RTVSPropertyOp42
 70
     1
102
RTVSPropertyOp43
 70
     1
102
RTVSPropertyOp44
 70
     1
102
RTVSPropertyOp45
 70
     1
102
RTVSPropertyOp46
 70
     1
102
RTVSPropertyOp47
 70
     1
102
RTVSPropertyOp48
 70
     1
102
RTVSPropertyOp49
 70
     1
102
RTVSPropertyOp50
 70
     1
102
RTVSPropertyOp51
 70
     0
102
RTVSPropertyOp52
 70
     0
102
RTVSPropertyOp53
 70
     1
102
RTVSPropertyOp54
 70
     1
102
RTVSPropertyOp55
 70
     1
102
RTVSPropertyOp56
 70
     1
102
RTVSPropertyOp57
 70
     1
102
RTVSPropertyOp58
 70
     1
102
RTVSPropertyOp59
 70
     1
102
RTVSPropertyOp60
 70
     1
102
RTVSPropertyOp61
 70
     1
102
RTVSPropertyOp62
 70
     1
  0
XRECORD
  5
42D8
102
{ACAD_REACTORS
330
42D7
102
}
330
42D7
100
AcDbXrecord
280
     1
102
RTVSPost2010Prop28
280
     0
102
RTVSPost2010PropOp28
 70
     1
102
RTVSPost2010Prop29
280
     1
102
RTVSPost2010PropOp29
 70
     1
102
RTVSPost2010Prop30
280
     1
102
RTVSPost2010PropOp30
 70
     1
102
RTVSPost2010Prop31
280
     0
102
RTVSPost2010PropOp31
 70
     1
102
RTVSPost2010Prop32
280
     0
102
RTVSPost2010PropOp32
 70
     1
102
RTVSPost2010Prop33
280
     0
102
RTVSPost2010PropOp33
 70
     1
102
RTVSPost2010Prop34
280
     0
102
RTVSPost2010PropOp34
 70
     1
102
RTVSPost2010Prop35
280
     0
102
RTVSPost2010PropOp35
 70
     1
102
RTVSPost2010Prop36
280
     0
102
RTVSPost2010PropOp36
 70
     1
102
RTVSPost2010Prop37
 90
       50
102
RTVSPost2010PropOp37
 70
     1
102
RTVSPost2010Prop38
140
0.0
102
RTVSPost2010PropOp38
 70
     1
102
RTVSPost2010Prop39
140
1.0
102
RTVSPost2010PropOp39
 70
     1
102
RTVSPost2010Prop40
 90
        0
102
RTVSPost2010PropOp40
 70
     1
102
RTVSPost2010Prop41ColorIndex
 90
       18
102
RTVSPost2010Prop41ColorRGB
 90
        0
102
RTVSPost2010PropOp41
 70
     1
102
RTVSPost2010Prop42
 90
       50
102
RTVSPost2010PropOp42
 70
     1
102
RTVSPost2010Prop43
 90
        3
102
RTVSPost2010PropOp43
 70
     1
102
RTVSPost2010Prop44ColorIndex
 90
        5
102
RTVSPost2010Prop44ColorRGB
 90
      255
102
RTVSPost2010PropOp44
 70
     1
102
RTVSPost2010Prop45
280
     0
102
RTVSPost2010PropOp45
 70
     1
102
RTVSPost2010Prop46
 90
       50
102
RTVSPost2010PropOp46
 70
     1
102
RTVSPost2010Prop47
 90
       50
102
RTVSPost2010PropOp47
 70
     1
102
RTVSPost2010Prop48
 90
       50
102
RTVSPost2010PropOp48
 70
     1
102
RTVSPost2010Prop49
280
     0
102
RTVSPost2010PropOp49
 70
     1
102
RTVSPost2010Prop50
 90
       50
102
RTVSPost2010PropOp50
 70
     1
102
RTVSPost2010Prop51ColorIndex
 90
      256
102
RTVSPost2010Prop51ColorRGB
 90
-16777216
102
RTVSPost2010PropOp51
 70
     0
102
RTVSPost2010Prop52
140
1.0
102
RTVSPost2010PropOp52
 70
     0
102
RTVSPost2010Prop53
 90
        2
102
RTVSPost2010PropOp53
 70
     1
102
RTVSPost2010Prop54
  1
strokes_ogs.tif
102
RTVSPost2010PropOp54
 70
     1
102
RTVSPost2010Prop55
280
     0
102
RTVSPost2010PropOp55
 70
     1
102
RTVSPost2010Prop56
140
1.0
102
RTVSPost2010PropOp56
 70
     1
102
RTVSPost2010Prop57
140
1.0
102
RTVSPost2010PropOp57
 70
     1
102
RTVSPropertyOp0
 70
     1
102
RTVSPropertyOp1
 70
     1
102
RTVSPropertyOp2
 70
     1
102
RTVSPropertyOp3
 70
     1
102
RTVSPropertyOp4
 70
     1
102
RTVSPropertyOp5
 70
     1
102
RTVSPropertyOp6
 70
     1
102
RTVSPropertyOp7
 70
     1
102
RTVSPropertyOp8
 70
     1
102
RTVSPropertyOp9
 70
     1
102
RTVSPropertyOp10
 70
     1
102
RTVSPropertyOp11
 70
     1
102
RTVSPropertyOp12
 70
     1
102
RTVSPropertyOp13
 70
     1
102
RTVSPropertyOp14
 70
     1
102
RTVSPropertyOp15
 70
     1
102
RTVSPropertyOp16
 70
     1
102
RTVSPropertyOp17
 70
     1
102
RTVSPropertyOp18
 70
     1
102
RTVSPropertyOp19
 70
     1
102
RTVSPropertyOp20
 70
     1
102
RTVSPropertyOp21
 70
     1
102
RTVSPropertyOp22
 70
     1
102
RTVSPropertyOp23
 70
     1
102
RTVSPropertyOp24
 70
     1
102
RTVSPropertyOp25
 70
     1
102
RTVSPropertyOp26
 70
     1
102
RTVSPropertyOp27
 70
     1
102
RTVSPropertyOp28
 70
     1
102
RTVSPropertyOp29
 70
     1
102
RTVSPropertyOp30
 70
     1
102
RTVSPropertyOp31
 70
     1
102
RTVSPropertyOp32
 70
     1
102
RTVSPropertyOp33
 70
     1
102
RTVSPropertyOp34
 70
     1
102
RTVSPropertyOp35
 70
     1
102
RTVSPropertyOp36
 70
     1
102
RTVSPropertyOp37
 70
     1
102
RTVSPropertyOp38
 70
     1
102
RTVSPropertyOp39
 70
     1
102
RTVSPropertyOp40
 70
     1
102
RTVSPropertyOp41
 70
     1
102
RTVSPropertyOp42
 70
     1
102
RTVSPropertyOp43
 70
     1
102
RTVSPropertyOp44
 70
     1
102
RTVSPropertyOp45
 70
     1
102
RTVSPropertyOp46
 70
     1
102
RTVSPropertyOp47
 70
     1
102
RTVSPropertyOp48
 70
     1
102
RTVSPropertyOp49
 70
     1
102
RTVSPropertyOp50
 70
     1
102
RTVSPropertyOp51
 70
     0
102
RTVSPropertyOp52
 70
     0
102
RTVSPropertyOp53
 70
     1
102
RTVSPropertyOp54
 70
     1
102
RTVSPropertyOp55
 70
     1
102
RTVSPropertyOp56
 70
     1
102
RTVSPropertyOp57
 70
     1
102
RTVSPropertyOp58
 70
     1
102
RTVSPropertyOp59
 70
     1
102
RTVSPropertyOp60
 70
     1
102
RTVSPropertyOp61
 70
     1
102
RTVSPropertyOp62
 70
     1
  0
XRECORD
  5
42F0
102
{ACAD_REACTORS
330
42EF
102
}
330
42EF
100
AcDbXrecord
280
     1
102
RTVSPost2010Prop28
280
     0
102
RTVSPost2010PropOp28
 70
     1
102
RTVSPost2010Prop29
280
     1
102
RTVSPost2010PropOp29
 70
     1
102
RTVSPost2010Prop30
280
     1
102
RTVSPost2010PropOp30
 70
     1
102
RTVSPost2010Prop31
280
     0
102
RTVSPost2010PropOp31
 70
     1
102
RTVSPost2010Prop32
280
     0
102
RTVSPost2010PropOp32
 70
     1
102
RTVSPost2010Prop33
280
     0
102
RTVSPost2010PropOp33
 70
     1
102
RTVSPost2010Prop34
280
     0
102
RTVSPost2010PropOp34
 70
     1
102
RTVSPost2010Prop35
280
     0
102
RTVSPost2010PropOp35
 70
     1
102
RTVSPost2010Prop36
280
     0
102
RTVSPost2010PropOp36
 70
     1
102
RTVSPost2010Prop37
 90
       50
102
RTVSPost2010PropOp37
 70
     1
102
RTVSPost2010Prop38
140
0.0
102
RTVSPost2010PropOp38
 70
     1
102
RTVSPost2010Prop39
140
1.0
102
RTVSPost2010PropOp39
 70
     1
102
RTVSPost2010Prop40
 90
        0
102
RTVSPost2010PropOp40
 70
     1
102
RTVSPost2010Prop41ColorIndex
 90
       18
102
RTVSPost2010Prop41ColorRGB
 90
        0
102
RTVSPost2010PropOp41
 70
     1
102
RTVSPost2010Prop42
 90
       50
102
RTVSPost2010PropOp42
 70
     1
102
RTVSPost2010Prop43
 90
        3
102
RTVSPost2010PropOp43
 70
     1
102
RTVSPost2010Prop44ColorIndex
 90
        5
102
RTVSPost2010Prop44ColorRGB
 90
      255
102
RTVSPost2010PropOp44
 70
     1
102
RTVSPost2010Prop45
280
     0
102
RTVSPost2010PropOp45
 70
     1
102
RTVSPost2010Prop46
 90
       50
102
RTVSPost2010PropOp46
 70
     1
102
RTVSPost2010Prop47
 90
       50
102
RTVSPost2010PropOp47
 70
     1
102
RTVSPost2010Prop48
 90
       50
102
RTVSPost2010PropOp48
 70
     1
102
RTVSPost2010Prop49
280
     0
102
RTVSPost2010PropOp49
 70
     1
102
RTVSPost2010Prop50
 90
       50
102
RTVSPost2010PropOp50
 70
     1
102
RTVSPost2010Prop51ColorIndex
 90
      256
102
RTVSPost2010Prop51ColorRGB
 90
-16777216
102
RTVSPost2010PropOp51
 70
     0
102
RTVSPost2010Prop52
140
1.0
102
RTVSPost2010PropOp52
 70
     0
102
RTVSPost2010Prop53
 90
        2
102
RTVSPost2010PropOp53
 70
     1
102
RTVSPost2010Prop54
  1
strokes_ogs.tif
102
RTVSPost2010PropOp54
 70
     1
102
RTVSPost2010Prop55
280
     0
102
RTVSPost2010PropOp55
 70
     1
102
RTVSPost2010Prop56
140
1.0
102
RTVSPost2010PropOp56
 70
     1
102
RTVSPost2010Prop57
140
1.0
102
RTVSPost2010PropOp57
 70
     1
102
RTVSPropertyOp0
 70
     1
102
RTVSPropertyOp1
 70
     1
102
RTVSPropertyOp2
 70
     1
102
RTVSPropertyOp3
 70
     1
102
RTVSPropertyOp4
 70
     1
102
RTVSPropertyOp5
 70
     1
102
RTVSPropertyOp6
 70
     1
102
RTVSPropertyOp7
 70
     1
102
RTVSPropertyOp8
 70
     1
102
RTVSPropertyOp9
 70
     1
102
RTVSPropertyOp10
 70
     1
102
RTVSPropertyOp11
 70
     1
102
RTVSPropertyOp12
 70
     1
102
RTVSPropertyOp13
 70
     1
102
RTVSPropertyOp14
 70
     1
102
RTVSPropertyOp15
 70
     1
102
RTVSPropertyOp16
 70
     1
102
RTVSPropertyOp17
 70
     1
102
RTVSPropertyOp18
 70
     1
102
RTVSPropertyOp19
 70
     1
102
RTVSPropertyOp20
 70
     1
102
RTVSPropertyOp21
 70
     1
102
RTVSPropertyOp22
 70
     1
102
RTVSPropertyOp23
 70
     1
102
RTVSPropertyOp24
 70
     1
102
RTVSPropertyOp25
 70
     1
102
RTVSPropertyOp26
 70
     1
102
RTVSPropertyOp27
 70
     1
102
RTVSPropertyOp28
 70
     1
102
RTVSPropertyOp29
 70
     1
102
RTVSPropertyOp30
 70
     1
102
RTVSPropertyOp31
 70
     1
102
RTVSPropertyOp32
 70
     1
102
RTVSPropertyOp33
 70
     1
102
RTVSPropertyOp34
 70
     1
102
RTVSPropertyOp35
 70
     1
102
RTVSPropertyOp36
 70
     1
102
RTVSPropertyOp37
 70
     1
102
RTVSPropertyOp38
 70
     1
102
RTVSPropertyOp39
 70
     1
102
RTVSPropertyOp40
 70
     1
102
RTVSPropertyOp41
 70
     1
102
RTVSPropertyOp42
 70
     1
102
RTVSPropertyOp43
 70
     1
102
RTVSPropertyOp44
 70
     1
102
RTVSPropertyOp45
 70
     1
102
RTVSPropertyOp46
 70
     1
102
RTVSPropertyOp47
 70
     1
102
RTVSPropertyOp48
 70
     1
102
RTVSPropertyOp49
 70
     1
102
RTVSPropertyOp50
 70
     1
102
RTVSPropertyOp51
 70
     0
102
RTVSPropertyOp52
 70
     0
102
RTVSPropertyOp53
 70
     1
102
RTVSPropertyOp54
 70
     1
102
RTVSPropertyOp55
 70
     1
102
RTVSPropertyOp56
 70
     1
102
RTVSPropertyOp57
 70
     1
102
RTVSPropertyOp58
 70
     1
102
RTVSPropertyOp59
 70
     1
102
RTVSPropertyOp60
 70
     1
102
RTVSPropertyOp61
 70
     1
102
RTVSPropertyOp62
 70
     1
  0
ENDSEC
  0
EOF
